999
DXF file: B5L_assy_2.dxf
999
Pro/ENGINEER 2014200 by Parametric Technology Corporation
  0
SECTION
  2
HEADER
  9
$ACADVER
  1
AC1021
  9
$DWGCODEPAGE
  3
ANSI_1252
  9
$EXTMAX
 10
22.0
 20
17.0
 30
0.0
  9
$EXTMIN
 10
0.0
 20
0.0
 30
0.0
  9
$LIMMIN
 10
0.0
 20
0.0
  9
$LIMMAX
 10
22.0
 20
17.0
  9
$VIEWCTR
 10
11.0
 20
8.5
  9
$VIEWSIZE
 40
17.0
  9
$CLAYER
  8
0
  9
$LTSCALE
 40
1.21
  9
$CELTYPE
  6
BYLAYER
  9
$DIMSCALE
 40
1.0
  9
$DIMASZ
 40
0.1875
  9
$DIMEXO
 40
0.0625
  9
$DIMDLI
 40
0.836
  9
$DIMEXE
 40
0.125
  9
$DIMCEN
 40
0.198
  9
$DIMLFAC
 40
1.0
  9
$DIMBLK
  1
_FILLED
  9
$DIMTXT
 40
0.1
  9
$DIMTOL
 70
0
  9
$DIMLIM
 70
0
  9
$DIMTFAC
 40
1.0
  9
$DIMGAP
 40
0.09
  9
$DIMDSEP
 70
46
  9
$AUNITS
 70
0
  9
$PDMODE
 70
3
  9
$PDSIZE
 40
0.3125
  9
$HANDSEED
  5
3C7
  9
$TILEMODE
 70
1
  9
$MEASUREMENT
 70
0
  9
$INSUNITS
 70
1
  0
ENDSEC
  0
SECTION
  2
CLASSES
  0
CLASS
  1
ACDBDICTIONARYWDFLT
  2
AcDbDictionaryWithDefault
  3
AutoCAD 2000
 90
0
 91
1
280
0
281
0
  0
CLASS
  1
ACDBPLACEHOLDER
  2
AcDbPlaceHolder
  3
AutoCAD 2000
 90
0
 91
1
280
0
281
0
  0
CLASS
  1
LAYOUT
  2
AcDbLayout
  3
AutoCAD 2000
 90
0
 91
0
280
0
281
0
  0
CLASS
  1
RASTERVARIABLES
  2
AcDbRasterVariables
  3
ISM
 90
0
 91
1
280
0
281
0
  0
CLASS
  1
IMAGEDEF
  2
AcDbRasterImageDef
  3
ISM
 90
0
 91
1
280
0
281
0
  0
CLASS
  1
IMAGEDEF_REACTOR
  2
AcDbRasterImageDefReactor
  3
ISM
 90
0
 91
1
280
0
281
0
  0
CLASS
  1
IMAGE
  2
AcDbRasterImage
  3
ISM
 90
127
 91
1
280
0
281
1
  0
CLASS
  1
TABLESTYLE
  2
AcDbTableStyle
  3
ObjectDBX Classes
 90
2047
 91
1
280
0
281
0
  0
CLASS
  1
ACAD_TABLE
  2
AcDbTable
  3
ObjectDBX Classes
 90
1025
 91
3
280
0
281
1
  0
ENDSEC
  0
SECTION
  2
TABLES
  0
TABLE
  2
VPORT
  5
8
100
AcDbSymbolTable
 70
2
  0
VPORT
  5
1F4
100
AcDbSymbolTableRecord
100
AcDbViewportTableRecord
  2
*ACTIVE
 70
0
 10
0.0
 20
0.0
 11
1.0
 21
1.0
 12
11.0
 22
8.5
 13
0.0
 23
0.0
 14
1.0
 24
1.0
 15
0.0
 25
0.0
 16
0.0
 26
0.0
 36
1.0
 17
0.0
 27
0.0
 37
0.0
 40
17.0
 41
1.2941176471
 42
50.0
 43
0.0
 44
0.0
 50
0.0
 51
0.0
 71
0
 72
100
 73
1
 74
1
 75
0
 76
0
 77
0
 78
0
  0
ENDTAB
  0
TABLE
  2
LTYPE
  5
5
100
AcDbSymbolTable
 70
6
  0
LTYPE
  5
14
100
AcDbSymbolTableRecord
100
AcDbLinetypeTableRecord
  2
BYBLOCK
 70
0
  3

 72
65
 73
0
 40
0.0
  0
LTYPE
  5
15
100
AcDbSymbolTableRecord
100
AcDbLinetypeTableRecord
  2
BYLAYER
 70
0
  3

 72
65
 73
0
 40
0.0
  0
LTYPE
  5
16
100
AcDbSymbolTableRecord
100
AcDbLinetypeTableRecord
  2
CONTINUOUS
 70
64
  3
Solid line
 72
65
 73
0
 40
0.0
  0
LTYPE
  5
1F5
100
AcDbSymbolTableRecord
100
AcDbLinetypeTableRecord
  2
CENTER
 70
64
  3
____ _ ____ _ ____ _ ____ _ ____ _ ____ _ ____
 72
65
 73
4
 40
0.6
 49
0.375
 74
0
 49
-0.075
 74
0
 49
0.075
 74
0
 49
-0.075
 74
0
  0
LTYPE
  5
1F6
100
AcDbSymbolTableRecord
100
AcDbLinetypeTableRecord
  2
HIDDEN
 70
64
  3
- - - - - - - - - - - - - - - - - - - -
 72
65
 73
2
 40
0.2
 49
0.1
 74
0
 49
-0.1
 74
0
  0
LTYPE
  5
1F7
100
AcDbSymbolTableRecord
100
AcDbLinetypeTableRecord
  2
PHANTOM
 70
64
  3
_____ _ _ _____ _ _ _____ _ _ _____
 72
65
 73
6
 40
0.8
 49
0.45
 74
0
 49
-0.05
 74
0
 49
0.1
 74
0
 49
-0.05
 74
0
 49
0.1
 74
0
 49
-0.05
 74
0
  0
LTYPE
  5
1F8
100
AcDbSymbolTableRecord
100
AcDbLinetypeTableRecord
  2
DOT
 70
64
  3
. . . . . . . . . . . . . . . . . . . .
 72
65
 73
2
 40
0.2
 49
0.1
 74
0
 49
-0.1
 74
0
  0
LTYPE
  5
1F9
100
AcDbSymbolTableRecord
100
AcDbLinetypeTableRecord
  2
DASHED
 70
64
  3
- - - - - - - - - - - - - - - - - - - -
 72
65
 73
2
 40
0.2
 49
0.1
 74
0
 49
-0.1
 74
0
  0
ENDTAB
  0
TABLE
  2
LAYER
  5
2
100
AcDbSymbolTable
 70
36
  0
LAYER
  5
10
100
AcDbSymbolTableRecord
100
AcDbLayerTableRecord
  2
0
 70
0
 62
7
  6
CONTINUOUS
370
-3
390
F
  0
LAYER
  5
1FA
100
AcDbSymbolTableRecord
100
AcDbLayerTableRecord
  2
DEFAULT_1
 70
0
 62
7
  6
CENTER
370
-3
390
F
  0
LAYER
  5
1FB
100
AcDbSymbolTableRecord
100
AcDbLayerTableRecord
  2
DEFAULT_2
 70
0
 62
8
  6
HIDDEN
370
-3
390
F
  0
LAYER
  5
1FC
100
AcDbSymbolTableRecord
100
AcDbLayerTableRecord
  2
DEFAULT_3
 70
0
 62
7
  6
PHANTOM
370
-3
390
F
  0
LAYER
  5
1FD
100
AcDbSymbolTableRecord
100
AcDbLayerTableRecord
  2
01___PRT_ALL_DTM_PLN
 70
0
 62
7
  6
CONTINUOUS
370
-3
390
F
  0
LAYER
  5
1FE
100
AcDbSymbolTableRecord
100
AcDbLayerTableRecord
  2
01___PRT_DEF_DTM_PLN
 70
0
 62
7
  6
CONTINUOUS
370
-3
390
F
  0
LAYER
  5
1FF
100
AcDbSymbolTableRecord
100
AcDbLayerTableRecord
  2
02___PRT_ALL_AXES
 70
0
 62
7
  6
CONTINUOUS
370
-3
390
F
  0
LAYER
  5
200
100
AcDbSymbolTableRecord
100
AcDbLayerTableRecord
  2
03___PRT_ALL_CURVES
 70
0
 62
7
  6
CONTINUOUS
370
-3
390
F
  0
LAYER
  5
201
100
AcDbSymbolTableRecord
100
AcDbLayerTableRecord
  2
04___PRT_ALL_DTM_PNT
 70
0
 62
7
  6
CONTINUOUS
370
-3
390
F
  0
LAYER
  5
202
100
AcDbSymbolTableRecord
100
AcDbLayerTableRecord
  2
05___PRT_ALL_DTM_CSYS
 70
0
 62
7
  6
CONTINUOUS
370
-3
390
F
  0
LAYER
  5
203
100
AcDbSymbolTableRecord
100
AcDbLayerTableRecord
  2
05___PRT_DEF_DTM_CSYS
 70
0
 62
7
  6
CONTINUOUS
370
-3
390
F
  0
LAYER
  5
204
100
AcDbSymbolTableRecord
100
AcDbLayerTableRecord
  2
06___PRT_ALL_SURFS
 70
0
 62
7
  6
CONTINUOUS
370
-3
390
F
  0
LAYER
  5
205
100
AcDbSymbolTableRecord
100
AcDbLayerTableRecord
  2
DATUM_PLANES
 70
0
 62
7
  6
CONTINUOUS
370
-3
390
F
  0
LAYER
  5
206
100
AcDbSymbolTableRecord
100
AcDbLayerTableRecord
  2
PORT_AREAS
 70
0
 62
7
  6
CONTINUOUS
370
-3
390
F
  0
LAYER
  5
207
100
AcDbSymbolTableRecord
100
AcDbLayerTableRecord
  2
SUNNBOMCOSMETIC
 70
0
 62
7
  6
CONTINUOUS
370
-3
390
F
  0
LAYER
  5
208
100
AcDbSymbolTableRecord
100
AcDbLayerTableRecord
  2
SUNNBOMSTAMPING
 70
0
 62
7
  6
CONTINUOUS
370
-3
390
F
  0
LAYER
  5
209
100
AcDbSymbolTableRecord
100
AcDbLayerTableRecord
  2
THREADS
 70
0
 62
7
  6
CONTINUOUS
370
-3
390
F
  0
ENDTAB
  0
TABLE
  2
STYLE
  5
3
100
AcDbSymbolTable
 70
1
  0
STYLE
  5
11
100
AcDbSymbolTableRecord
100
AcDbTextStyleTableRecord
  2
STANDARD
 70
0
 40
0.0
 41
0.8
 50
0.0
 71
0
 42
0.2
  3
txt
  4

  0
STYLE
  5
20A
100
AcDbSymbolTableRecord
100
AcDbTextStyleTableRecord
  2
TEXTSTYLE_1
 70
0
 40
0.0
 41
0.8
 50
0.0
 71
0
 42
0.2
  3
gdt
  4

  0
ENDTAB
  0
TABLE
  2
VIEW
  5
6
100
AcDbSymbolTable
 70
0
  0
ENDTAB
  0
TABLE
  2
UCS
  5
7
100
AcDbSymbolTable
 70
0
  0
ENDTAB
  0
TABLE
  2
APPID
  5
9
100
AcDbSymbolTable
 70
1
  0
APPID
  5
20B
100
AcDbSymbolTableRecord
100
AcDbRegAppTableRecord
  2
ACAD
 70
0
  0
ENDTAB
  0
TABLE
  2
BLOCK_RECORD
  5
1
100
AcDbSymbolTable
 70
0
  0
BLOCK_RECORD
  5
20C
100
AcDbSymbolTableRecord
100
AcDbBlockTableRecord
  2
*Model_Space
  0
BLOCK_RECORD
  5
20D
100
AcDbSymbolTableRecord
100
AcDbBlockTableRecord
  2
*Paper_Space
  0
BLOCK_RECORD
  5
20E
100
AcDbSymbolTableRecord
100
AcDbBlockTableRecord
  2
SUN_FIRST_THIRD_ANGLE_BL0
  0
BLOCK_RECORD
  5
20F
100
AcDbSymbolTableRecord
100
AcDbBlockTableRecord
  2
*T1
  0
BLOCK_RECORD
  5
210
100
AcDbSymbolTableRecord
100
AcDbBlockTableRecord
  2
*T2
  0
BLOCK_RECORD
  5
211
100
AcDbSymbolTableRecord
100
AcDbBlockTableRecord
  2
*T3
  0
ENDTAB
  0
TABLE
  2
DIMSTYLE
  5
A
100
AcDbSymbolTable
 70
1
100
AcDbDimStyleTable
 71
0
  0
DIMSTYLE
105
212
100
AcDbSymbolTableRecord
100
AcDbDimStyleTableRecord
  2
STANDARD
 70
0
  3

  4

 40
1.0
 41
0.1875
 42
0.0625
 43
0.38
 44
0.125
 45
0.0
 46
0.0
 47
0.001
 48
0.001
140
0.1
141
0.09
142
0.0
143
25.4
144
1.0
145
0.0
146
1.0
147
0.09
 71
0.0
 72
0.0
 73
1
 74
1
 75
0
 76
0
 77
0
 78
4
170
0
171
2
172
0
173
0
174
0
175
0
176
0
177
0
178
0
270
2
271
3
272
3
273
2
274
2
275
0
280
0
281
0
282
0
283
1
284
4
285
0
286
0
287
3
288
0
340
11
278
46
  0
ENDTAB
  0
ENDSEC
  0
SECTION
  2
BLOCKS
  0
BLOCK
  5
20
100
AcDbEntity
  8
0
100
AcDbBlockBegin
  2
*Model_Space
 70
0
 10
0.0
 20
0.0
 30
0.0
  3
*Model_Space
  1

  0
ENDBLK
  5
21
100
AcDbEntity
  8
0
100
AcDbBlockEnd
  0
BLOCK
  5
1C
100
AcDbEntity
  8
0
100
AcDbBlockBegin
  2
*Paper_Space
 70
0
 10
0.0
 20
0.0
 30
0.0
  3
*Paper_Space
  1

  0
ENDBLK
  5
1D
100
AcDbEntity
  8
0
100
AcDbBlockEnd
  0
BLOCK
  5
213
100
AcDbEntity
  8
0
100
AcDbBlockBegin
 62
2
  6
CONTINUOUS
  2
SUN_FIRST_THIRD_ANGLE_BL0
 70
64
 10
20.4816717061
 20
1.2289683772
  3
SUN_FIRST_THIRD_ANGLE_BL0
  1

  0
TEXT
  5
214
100
AcDbEntity
  8
0
100
AcDbText
 62
2
  6
CONTINUOUS
 10
19.4750896608
 20
1.4136269581
  7
STANDARD
 40
0.08
  1
FIRST ANGLE
 41
0.8
 72
0
100
AcDbText
  0
TEXT
  5
215
100
AcDbEntity
  8
0
100
AcDbText
 62
2
  6
CONTINUOUS
 10
20.7842537513
 20
1.4047600029
  7
STANDARD
 40
0.08
  1
THIRD ANGLE
 41
0.8
 72
0
100
AcDbText
  0
LINE
  5
216
100
AcDbEntity
  8
0
100
AcDbLine
 62
7
  6
CONTINUOUS
 10
19.4767170086
 20
1.1727031207
 11
19.6334271527
 21
1.1717972817
  0
LINE
  5
217
100
AcDbEntity
  8
0
100
AcDbLine
 62
7
  6
CONTINUOUS
 10
19.6596964832
 20
1.1717972817
 11
19.6950230232
 21
1.171593082
  0
LINE
  5
218
100
AcDbEntity
  8
0
100
AcDbLine
 62
7
  6
CONTINUOUS
 10
19.7194818561
 20
1.1708914427
 11
19.8852396156
 21
1.1699333054
  0
LINE
  5
219
100
AcDbEntity
  8
0
100
AcDbLine
 62
7
  6
CONTINUOUS
 10
19.4758111696
 20
1.2723454088
 11
19.88525039
 21
1.3511534004
  0
LINE
  5
21A
100
AcDbEntity
  8
0
100
AcDbLine
 62
7
  6
CONTINUOUS
 10
19.88525039
 20
1.3511534004
 11
19.8831348489
 21
0.9851647912
  0
LINE
  5
21B
100
AcDbEntity
  8
0
100
AcDbLine
 62
7
  6
CONTINUOUS
 10
19.8831348489
 20
0.9851647912
 11
19.4767170086
 21
1.0658141206
  0
LINE
  5
21C
100
AcDbEntity
  8
0
100
AcDbLine
 62
7
  6
CONTINUOUS
 10
19.4767170086
 20
1.0658141206
 11
19.4779056764
 21
1.2714536432
  0
CIRCLE
  5
21D
100
AcDbEntity
  8
0
100
AcDbCircle
 62
7
  6
CONTINUOUS
 10
20.2068232291
 20
1.1717972817
 40
0.175742101
  0
CIRCLE
  5
21E
100
AcDbEntity
  8
0
100
AcDbCircle
 62
7
  6
CONTINUOUS
 10
20.2068232291
 20
1.1717972817
 40
0.1005522074
  0
LINE
  5
21F
100
AcDbEntity
  8
0
100
AcDbLine
 62
7
  6
CONTINUOUS
 10
20.2077290681
 20
1.3756110529
 11
20.2071171714
 21
1.2379342989
  0
LINE
  5
220
100
AcDbEntity
  8
0
100
AcDbLine
 62
7
  6
CONTINUOUS
 10
20.2077290681
 20
1.2016899681
 11
20.2074674401
 21
1.1428236749
  0
LINE
  5
221
100
AcDbEntity
  8
0
100
AcDbLine
 62
7
  6
CONTINUOUS
 10
20.208634907
 20
1.101141841
 11
20.2080230104
 21
0.963465087
  0
LINE
  5
222
100
AcDbEntity
  8
0
100
AcDbLine
 62
7
  6
CONTINUOUS
 10
20.0066328138
 20
1.1745147986
 11
20.1443095678
 21
1.1739029019
  0
LINE
  5
223
100
AcDbEntity
  8
0
100
AcDbLine
 62
7
  6
CONTINUOUS
 10
20.1832714155
 20
1.1727031207
 11
20.238153505
 21
1.172335442
  0
LINE
  5
224
100
AcDbEntity
  8
0
100
AcDbLine
 62
7
  6
CONTINUOUS
 10
20.2756669918
 20
1.1717972817
 11
20.407916871
 21
1.1712095044
  0
CIRCLE
  5
225
100
AcDbEntity
  8
0
100
AcDbCircle
 62
7
  6
CONTINUOUS
 10
20.7509457401
 20
1.1693297793
 40
0.1722024983
  0
CIRCLE
  5
226
100
AcDbEntity
  8
0
100
AcDbCircle
 62
7
  6
CONTINUOUS
 10
20.7509457401
 20
1.1693297793
 40
0.0985164967
  0
LINE
  5
227
100
AcDbEntity
  8
0
100
AcDbLine
 62
7
  6
CONTINUOUS
 10
20.7169767782
 20
1.170462078
 11
20.7825395137
 21
1.1682766535
  0
LINE
  5
228
100
AcDbEntity
  8
0
100
AcDbLine
 62
7
  6
CONTINUOUS
 10
20.8177513651
 20
1.1693297793
 11
20.947965719
 21
1.1693297793
  0
LINE
  5
229
100
AcDbEntity
  8
0
100
AcDbLine
 62
7
  6
CONTINUOUS
 10
20.6875370113
 20
1.170462078
 11
20.5573226574
 21
1.170462078
  0
LINE
  5
22A
100
AcDbEntity
  8
0
100
AcDbLine
 62
7
  6
CONTINUOUS
 10
20.7486811426
 20
1.1987695462
 11
20.7486811426
 21
1.1432869085
  0
LINE
  5
22B
100
AcDbEntity
  8
0
100
AcDbLine
 62
7
  6
CONTINUOUS
 10
20.7498134414
 20
1.1059210505
 11
20.7498134414
 21
0.9757066966
  0
LINE
  5
22C
100
AcDbEntity
  8
0
100
AcDbLine
 62
7
  6
CONTINUOUS
 10
20.7486811426
 20
1.2338708068
 11
20.7486811426
 21
1.3640851607
  0
LINE
  5
22D
100
AcDbEntity
  8
0
100
AcDbLine
 62
7
  6
CONTINUOUS
 10
21.0702539817
 20
1.2701043662
 11
21.4790138229
 21
1.3448360823
  0
LINE
  5
22E
100
AcDbEntity
  8
0
100
AcDbLine
 62
7
  6
CONTINUOUS
 10
21.4790138229
 20
1.3448360823
 11
21.4790138229
 21
0.9779712941
  0
LINE
  5
22F
100
AcDbEntity
  8
0
100
AcDbLine
 62
7
  6
CONTINUOUS
 10
21.4790138229
 20
0.9779712941
 11
21.069121683
 21
1.0617614
  0
LINE
  5
230
100
AcDbEntity
  8
0
100
AcDbLine
 62
7
  6
CONTINUOUS
 10
21.0702539817
 20
1.2701043662
 11
21.069121683
 21
1.0617614
  0
LINE
  5
231
100
AcDbEntity
  8
0
100
AcDbLine
 62
7
  6
CONTINUOUS
 10
21.4790138229
 20
1.1693297793
 11
21.3159628059
 21
1.1693297793
  0
LINE
  5
232
100
AcDbEntity
  8
0
100
AcDbLine
 62
7
  6
CONTINUOUS
 10
21.2876553377
 20
1.1693297793
 11
21.2502894796
 21
1.1693297793
  0
LINE
  5
233
100
AcDbEntity
  8
0
100
AcDbLine
 62
7
  6
CONTINUOUS
 10
21.2208497126
 20
1.1659328831
 11
21.0713862804
 21
1.1659328831
  0
LINE
  5
234
100
AcDbEntity
  8
0
100
AcDbLine
 62
7
  6
CONTINUOUS
 10
20.4796138713
 20
1.5284908897
 11
20.4766766948
 21
0.9294458646
  0
ENDBLK
  5
235
100
AcDbEntity
  8
0
  6
BYBLOCK
 62
0
100
AcDbBlockEnd
  0
BLOCK
  5
236
100
AcDbEntity
  8
0
100
AcDbBlockBegin
  2
*T1
 70
1
 10
0.0
 20
0.0
  3
*T1
  1

  0
LINE
  5
237
100
AcDbEntity
  8
0
100
AcDbLine
 62
2
  6
CONTINUOUS
 10
9.275
 20
0.0
 11
-0.0
 21
0.0
  0
LINE
  5
238
100
AcDbEntity
  8
0
100
AcDbLine
 62
2
  6
CONTINUOUS
 10
9.275
 20
0.0
 11
9.275
 21
1.25
  0
LINE
  5
239
100
AcDbEntity
  8
0
100
AcDbLine
 62
2
  6
CONTINUOUS
 10
9.275
 20
0.625
 11
-0.0
 21
0.625
  0
LINE
  5
23A
100
AcDbEntity
  8
0
100
AcDbLine
 62
2
  6
CONTINUOUS
 10
9.275
 20
1.25
 11
-0.0
 21
1.25
  0
LINE
  5
23B
100
AcDbEntity
  8
0
100
AcDbLine
 62
2
  6
CONTINUOUS
 10
6.8
 20
0.0
 11
6.8
 21
1.25
  0
LINE
  5
23C
100
AcDbEntity
  8
0
100
AcDbLine
 62
2
  6
CONTINUOUS
 10
6.4
 20
0.0
 11
6.4
 21
0.625
  0
LINE
  5
23D
100
AcDbEntity
  8
0
100
AcDbLine
 62
2
  6
CONTINUOUS
 10
5.9
 20
0.0
 11
5.9
 21
0.625
  0
LINE
  5
23E
100
AcDbEntity
  8
0
100
AcDbLine
 62
2
  6
CONTINUOUS
 10
5.2
 20
0.0
 11
5.2
 21
0.625
  0
LINE
  5
23F
100
AcDbEntity
  8
0
100
AcDbLine
 62
2
  6
CONTINUOUS
 10
4.1
 20
0.0
 11
4.1
 21
1.25
  0
LINE
  5
240
100
AcDbEntity
  8
0
100
AcDbLine
 62
2
  6
CONTINUOUS
 10
-0.0
 20
0.0
 11
-0.0
 21
1.25
  0
MTEXT
  5
241
100
AcDbEntity
  8
0
100
AcDbMText
 62
2
  6
CONTINUOUS
  7
STANDARD
 71
2
 72
1
 10
6.6
 20
0.325
 30
0.0
 11
1.0
 21
0.0
 31
0.0
 44
0.9
  1
2
 40
0.125
 41
0.2
  0
MTEXT
  5
242
100
AcDbEntity
  8
0
100
AcDbMText
 62
2
  6
CONTINUOUS
  7
STANDARD
 71
2
 72
1
 10
6.15
 20
0.325
 30
0.0
 11
1.0
 21
0.0
 31
0.0
 44
0.9
  1
C
 40
0.125
 41
0.2
  0
MTEXT
  5
243
100
AcDbEntity
  8
0
100
AcDbMText
 62
2
  6
CONTINUOUS
  7
STANDARD
 71
2
 72
1
 10
5.55
 20
0.325
 30
0.0
 11
1.0
 21
0.0
 31
0.0
 44
0.9
  1
1.000
 40
0.125
 41
1.0
  0
MTEXT
  5
244
100
AcDbEntity
  8
0
100
AcDbMText
 62
2
  6
CONTINUOUS
  7
STANDARD
 71
2
 72
1
 10
4.65
 20
0.325
 30
0.0
 11
1.0
 21
0.0
 31
0.0
 44
0.9
  1
Sep-18-19
 40
0.125
 41
1.8
  0
MTEXT
  5
245
100
AcDbEntity
  8
0
100
AcDbMText
 62
2
  6
CONTINUOUS
  7
STANDARD
 71
2
 72
1
 10
2.05
 20
0.4625
 30
0.0
 11
1.0
 21
0.0
 31
0.0
 44
0.9
  1
T-2A Line mount\P(See Notes for Body Features)
 40
0.125
 41
5.8
  0
MTEXT
  5
246
100
AcDbEntity
  8
0
100
AcDbMText
 62
2
  6
CONTINUOUS
  7
STANDARD
 71
1
 72
1
 10
6.45
 20
0.5625
 30
0.0
 11
1.0
 21
0.0
 31
0.0
 44
0.9
  1
SHEET
 40
0.06
 41
0.48
  0
MTEXT
  5
247
100
AcDbEntity
  8
0
100
AcDbMText
 62
2
  6
CONTINUOUS
  7
STANDARD
 71
1
 72
1
 10
5.95
 20
0.5625
 30
0.0
 11
1.0
 21
0.0
 31
0.0
 44
0.9
  1
DWG SIZE
 40
0.06
 41
0.768
  0
MTEXT
  5
248
100
AcDbEntity
  8
0
100
AcDbMText
 62
2
  6
CONTINUOUS
  7
STANDARD
 71
1
 72
1
 10
5.25
 20
0.5625
 30
0.0
 11
1.0
 21
0.0
 31
0.0
 44
0.9
  1
SCALE
 40
0.06
 41
0.48
  0
MTEXT
  5
249
100
AcDbEntity
  8
0
100
AcDbMText
 62
2
  6
CONTINUOUS
  7
STANDARD
 71
1
 72
1
 10
4.15
 20
0.5625
 30
0.0
 11
1.0
 21
0.0
 31
0.0
 44
0.9
  1
DATE
 40
0.06
 41
0.384
  0
MTEXT
  5
24A
100
AcDbEntity
  8
0
100
AcDbMText
 62
2
  6
CONTINUOUS
  7
STANDARD
 71
1
 72
1
 10
0.05
 20
0.5625
 30
0.0
 11
1.0
 21
0.0
 31
0.0
 44
0.9
  1
DESCRIPTION
 40
0.06
 41
1.056
  0
MTEXT
  5
24B
100
AcDbEntity
  8
0
100
AcDbMText
 62
2
  6
CONTINUOUS
  7
STANDARD
 71
2
 72
1
 10
5.45
 20
1.0375
 30
0.0
 11
1.0
 21
0.0
 31
0.0
 44
0.9
  1
ALL DIMENSIONS IN INCH\PVIEWS ARE THIRD ANGLE
 40
0.12
 41
4.224
  0
MTEXT
  5
24C
100
AcDbEntity
  8
0
100
AcDbMText
 62
2
  6
CONTINUOUS
  7
STANDARD
 71
2
 72
1
 10
2.05
 20
0.95
 30
0.0
 11
1.0
 21
0.0
 31
0.0
 44
0.9
  1
B5L
 40
0.125
 41
0.6
  0
MTEXT
  5
24D
100
AcDbEntity
  8
0
100
AcDbMText
 62
2
  6
CONTINUOUS
  7
STANDARD
 71
1
 72
1
 10
0.05
 20
1.1875
 30
0.0
 11
1.0
 21
0.0
 31
0.0
 44
0.9
  1
MODEL
 40
0.06
 41
0.48
  0
ENDBLK
  5
24E
100
AcDbEntity
  8
0
  6
BYBLOCK
 62
0
100
AcDbBlockEnd
  0
BLOCK
  5
24F
100
AcDbEntity
  8
0
100
AcDbBlockBegin
  2
*T2
 70
1
 10
0.0
 20
0.0
  3
*T2
  1

  0
LINE
  5
250
100
AcDbEntity
  8
0
100
AcDbLine
 62
2
  6
CONTINUOUS
 10
0.0
 20
0.0
 11
9.055
 21
0.0
  0
LINE
  5
251
100
AcDbEntity
  8
0
100
AcDbLine
 62
2
  6
CONTINUOUS
 10
0.0
 20
0.0
 11
0.0
 21
-1.844
  0
LINE
  5
252
100
AcDbEntity
  8
0
100
AcDbLine
 62
2
  6
CONTINUOUS
 10
0.0
 20
-0.344
 11
9.055
 21
-0.344
  0
LINE
  5
253
100
AcDbEntity
  8
0
100
AcDbLine
 62
2
  6
CONTINUOUS
 10
0.0
 20
-0.594
 11
9.055
 21
-0.594
  0
LINE
  5
254
100
AcDbEntity
  8
0
100
AcDbLine
 62
2
  6
CONTINUOUS
 10
0.0
 20
-0.844
 11
9.055
 21
-0.844
  0
LINE
  5
255
100
AcDbEntity
  8
0
100
AcDbLine
 62
2
  6
CONTINUOUS
 10
0.0
 20
-1.094
 11
9.055
 21
-1.094
  0
LINE
  5
256
100
AcDbEntity
  8
0
100
AcDbLine
 62
2
  6
CONTINUOUS
 10
0.0
 20
-1.344
 11
9.055
 21
-1.344
  0
LINE
  5
257
100
AcDbEntity
  8
0
100
AcDbLine
 62
2
  6
CONTINUOUS
 10
0.0
 20
-1.594
 11
9.055
 21
-1.594
  0
LINE
  5
258
100
AcDbEntity
  8
0
100
AcDbLine
 62
2
  6
CONTINUOUS
 10
0.0
 20
-1.844
 11
9.055
 21
-1.844
  0
LINE
  5
259
100
AcDbEntity
  8
0
100
AcDbLine
 62
2
  6
CONTINUOUS
 10
3.055
 20
0.0
 11
3.055
 21
-1.844
  0
LINE
  5
25A
100
AcDbEntity
  8
0
100
AcDbLine
 62
2
  6
CONTINUOUS
 10
9.055
 20
0.0
 11
9.055
 21
-1.844
  0
MTEXT
  5
25B
100
AcDbEntity
  8
0
100
AcDbMText
 62
2
  6
CONTINUOUS
  7
STANDARD
 71
2
 72
1
 10
1.5275
 20
-0.0995
 30
0.0
 11
1.0
 21
0.0
 31
0.0
 44
0.9
  1
Technical Data
 40
0.145
 41
3.248
  0
MTEXT
  5
25C
100
AcDbEntity
  8
0
100
AcDbMText
 62
2
  6
CONTINUOUS
  7
STANDARD
 71
2
 72
1
 10
4.555
 20
-0.0995
 30
0.0
 11
1.0
 21
0.0
 31
0.0
 44
0.9
  1
U.S. Units
 40
0.145
 41
2.32
  0
MTEXT
  5
25D
100
AcDbEntity
  8
0
100
AcDbMText
 62
2
  6
CONTINUOUS
  7
STANDARD
 71
2
 72
1
 10
7.555
 20
-0.0995
 30
0.0
 11
1.0
 21
0.0
 31
0.0
 44
0.9
  1
Metric Units
 40
0.145
 41
2.784
  0
MTEXT
  5
25E
100
AcDbEntity
  8
0
100
AcDbMText
 62
2
  6
CONTINUOUS
  7
STANDARD
 71
2
 72
1
 10
1.5275
 20
-0.4065
 30
0.0
 11
1.0
 21
0.0
 31
0.0
 44
0.9
  1
Cavity
 40
0.125
 41
1.2
  0
MTEXT
  5
25F
100
AcDbEntity
  8
0
100
AcDbMText
 62
2
  6
CONTINUOUS
  7
STANDARD
 71
2
 72
1
 10
6.055
 20
-0.4065
 30
0.0
 11
1.0
 21
0.0
 31
0.0
 44
0.9
  1
T-2A
 40
0.125
 41
0.8
  0
MTEXT
  5
260
100
AcDbEntity
  8
0
100
AcDbMText
 62
2
  6
CONTINUOUS
  7
STANDARD
 71
2
 72
1
 10
1.5275
 20
-0.6565
 30
0.0
 11
1.0
 21
0.0
 31
0.0
 44
0.9
  1
Body Features
 40
0.125
 41
2.6
  0
MTEXT
  5
261
100
AcDbEntity
  8
0
100
AcDbMText
 62
2
  6
CONTINUOUS
  7
STANDARD
 71
2
 72
1
 10
6.055
 20
-0.6565
 30
0.0
 11
1.0
 21
0.0
 31
0.0
 44
0.9
  1
(See Notes)
 40
0.125
 41
2.2
  0
MTEXT
  5
262
100
AcDbEntity
  8
0
100
AcDbMText
 62
2
  6
CONTINUOUS
  7
STANDARD
 71
2
 72
1
 10
1.5275
 20
-0.9065
 30
0.0
 11
1.0
 21
0.0
 31
0.0
 44
0.9
  1
Body Type
 40
0.125
 41
1.8
  0
MTEXT
  5
263
100
AcDbEntity
  8
0
100
AcDbMText
 62
2
  6
CONTINUOUS
  7
STANDARD
 71
2
 72
1
 10
6.055
 20
-0.9065
 30
0.0
 11
1.0
 21
0.0
 31
0.0
 44
0.9
  1
Line mount
 40
0.125
 41
2.0
  0
MTEXT
  5
264
100
AcDbEntity
  8
0
100
AcDbMText
 62
2
  6
CONTINUOUS
  7
STANDARD
 71
2
 72
1
 10
1.5275
 20
-1.1565
 30
0.0
 11
1.0
 21
0.0
 31
0.0
 44
0.9
  1
Interface
 40
0.125
 41
1.8
  0
MTEXT
  5
265
100
AcDbEntity
  8
0
100
AcDbMText
 62
2
  6
CONTINUOUS
  7
STANDARD
 71
2
 72
1
 10
6.055
 20
-1.1565
 30
0.0
 11
1.0
 21
0.0
 31
0.0
 44
0.9
  1
None
 40
0.125
 41
0.8
  0
MTEXT
  5
266
100
AcDbEntity
  8
0
100
AcDbMText
 62
2
  6
CONTINUOUS
  7
STANDARD
 71
2
 72
1
 10
1.5275
 20
-1.4065
 30
0.0
 11
1.0
 21
0.0
 31
0.0
 44
0.9
  1
Open Cavity Quantity
 40
0.125
 41
4.0
  0
MTEXT
  5
267
100
AcDbEntity
  8
0
100
AcDbMText
 62
2
  6
CONTINUOUS
  7
STANDARD
 71
2
 72
1
 10
6.055
 20
-1.4065
 30
0.0
 11
1.0
 21
0.0
 31
0.0
 44
0.9
  1
1
 40
0.125
 41
0.2
  0
MTEXT
  5
268
100
AcDbEntity
  8
0
100
AcDbMText
 62
2
  6
CONTINUOUS
  7
STANDARD
 71
2
 72
1
 10
1.5275
 20
-1.6565
 30
0.0
 11
1.0
 21
0.0
 31
0.0
 44
0.9
  1
Weight
 40
0.125
 41
1.2
  0
MTEXT
  5
269
100
AcDbEntity
  8
0
100
AcDbMText
 62
2
  6
CONTINUOUS
  7
STANDARD
 71
2
 72
1
 10
4.555
 20
-1.6565
 30
0.0
 11
1.0
 21
0.0
 31
0.0
 44
0.9
  1
3.292 lb.
 40
0.125
 41
1.8
  0
MTEXT
  5
26A
100
AcDbEntity
  8
0
100
AcDbMText
 62
2
  6
CONTINUOUS
  7
STANDARD
 71
2
 72
1
 10
7.555
 20
-1.6565
 30
0.0
 11
1.0
 21
0.0
 31
0.0
 44
0.9
  1
1,493 kg.
 40
0.125
 41
1.8
  0
ENDBLK
  5
26B
100
AcDbEntity
  8
0
  6
BYBLOCK
 62
0
100
AcDbBlockEnd
  0
BLOCK
  5
26C
100
AcDbEntity
  8
0
100
AcDbBlockBegin
  2
*T3
 70
1
 10
0.0
 20
0.0
  3
*T3
  1

  0
LINE
  5
26D
100
AcDbEntity
  8
0
100
AcDbLine
 62
2
  6
CONTINUOUS
 10
0.0
 20
0.0
 11
4.6
 21
0.0
  0
LINE
  5
26E
100
AcDbEntity
  8
0
100
AcDbLine
 62
2
  6
CONTINUOUS
 10
0.0
 20
0.0
 11
0.0
 21
-1.43775
  0
LINE
  5
26F
100
AcDbEntity
  8
0
100
AcDbLine
 62
2
  6
CONTINUOUS
 10
0.0
 20
-0.34375
 11
4.6
 21
-0.34375
  0
LINE
  5
270
100
AcDbEntity
  8
0
100
AcDbLine
 62
2
  6
CONTINUOUS
 10
0.0
 20
-0.68775
 11
4.6
 21
-0.68775
  0
LINE
  5
271
100
AcDbEntity
  8
0
100
AcDbLine
 62
2
  6
CONTINUOUS
 10
0.0
 20
-0.93775
 11
4.6
 21
-0.93775
  0
LINE
  5
272
100
AcDbEntity
  8
0
100
AcDbLine
 62
2
  6
CONTINUOUS
 10
0.0
 20
-1.18775
 11
4.6
 21
-1.18775
  0
LINE
  5
273
100
AcDbEntity
  8
0
100
AcDbLine
 62
2
  6
CONTINUOUS
 10
0.0
 20
-1.43775
 11
4.6
 21
-1.43775
  0
LINE
  5
274
100
AcDbEntity
  8
0
100
AcDbLine
 62
2
  6
CONTINUOUS
 10
1.3
 20
-0.34375
 11
1.3
 21
-1.43775
  0
LINE
  5
275
100
AcDbEntity
  8
0
100
AcDbLine
 62
2
  6
CONTINUOUS
 10
3.3
 20
-0.34375
 11
3.3
 21
-1.43775
  0
LINE
  5
276
100
AcDbEntity
  8
0
100
AcDbLine
 62
2
  6
CONTINUOUS
 10
4.6
 20
0.0
 11
4.6
 21
-1.43775
  0
MTEXT
  5
277
100
AcDbEntity
  8
0
100
AcDbMText
 62
2
  6
CONTINUOUS
  7
STANDARD
 71
2
 72
1
 10
2.3
 20
-0.099375
 30
0.0
 11
1.0
 21
0.0
 31
0.0
 44
0.9
  1
Port Headings
 40
0.145
 41
3.016
  0
MTEXT
  5
278
100
AcDbEntity
  8
0
100
AcDbMText
 62
2
  6
CONTINUOUS
  7
STANDARD
 71
2
 72
1
 10
0.65
 20
-0.44325
 30
0.0
 11
1.0
 21
0.0
 31
0.0
 44
0.9
  1
Product
 40
0.145
 41
1.624
  0
MTEXT
  5
279
100
AcDbEntity
  8
0
100
AcDbMText
 62
2
  6
CONTINUOUS
  7
STANDARD
 71
2
 72
1
 10
2.3
 20
-0.44325
 30
0.0
 11
1.0
 21
0.0
 31
0.0
 44
0.9
  1
Port
 40
0.145
 41
0.928
  0
MTEXT
  5
27A
100
AcDbEntity
  8
0
100
AcDbMText
 62
2
  6
CONTINUOUS
  7
STANDARD
 71
2
 72
1
 10
3.95
 20
-0.44325
 30
0.0
 11
1.0
 21
0.0
 31
0.0
 44
0.9
  1
Size
 40
0.145
 41
0.928
  0
MTEXT
  5
27B
100
AcDbEntity
  8
0
100
AcDbMText
 62
2
  6
CONTINUOUS
  7
STANDARD
 71
2
 72
1
 10
0.65
 20
-0.75025
 30
0.0
 11
1.0
 21
0.0
 31
0.0
 44
0.9
  1
B5L
 40
0.125
 41
0.6
  0
MTEXT
  5
27C
100
AcDbEntity
  8
0
100
AcDbMText
 62
2
  6
CONTINUOUS
  7
STANDARD
 71
2
 72
1
 10
2.3
 20
-0.75025
 30
0.0
 11
1.0
 21
0.0
 31
0.0
 44
0.9
  1
Ports 1 &  2
 40
0.125
 41
2.4
  0
MTEXT
  5
27D
100
AcDbEntity
  8
0
100
AcDbMText
 62
2
  6
CONTINUOUS
  7
STANDARD
 71
2
 72
1
 10
3.95
 20
-0.75025
 30
0.0
 11
1.0
 21
0.0
 31
0.0
 44
0.9
  1
SAE 12
 40
0.125
 41
1.2
  0
MTEXT
  5
27E
100
AcDbEntity
  8
0
100
AcDbMText
 62
2
  6
CONTINUOUS
  7
STANDARD
 71
2
 72
1
 10
0.65
 20
-1.00025
 30
0.0
 11
1.0
 21
0.0
 31
0.0
 44
0.9
  1
B5L
 40
0.125
 41
0.6
  0
MTEXT
  5
27F
100
AcDbEntity
  8
0
100
AcDbMText
 62
2
  6
CONTINUOUS
  7
STANDARD
 71
2
 72
1
 10
2.3
 20
-1.00025
 30
0.0
 11
1.0
 21
0.0
 31
0.0
 44
0.9
  1
Port 3
 40
0.125
 41
1.2
  0
MTEXT
  5
280
100
AcDbEntity
  8
0
100
AcDbMText
 62
2
  6
CONTINUOUS
  7
STANDARD
 71
2
 72
1
 10
3.95
 20
-1.00025
 30
0.0
 11
1.0
 21
0.0
 31
0.0
 44
0.9
  1
SAE 10
 40
0.125
 41
1.2
  0
MTEXT
  5
281
100
AcDbEntity
  8
0
100
AcDbMText
 62
2
  6
CONTINUOUS
  7
STANDARD
 71
2
 72
1
 10
0.65
 20
-1.25025
 30
0.0
 11
1.0
 21
0.0
 31
0.0
 44
0.9
  1
B5L
 40
0.125
 41
0.6
  0
MTEXT
  5
282
100
AcDbEntity
  8
0
100
AcDbMText
 62
2
  6
CONTINUOUS
  7
STANDARD
 71
2
 72
1
 10
2.3
 20
-1.25025
 30
0.0
 11
1.0
 21
0.0
 31
0.0
 44
0.9
  1
Gage Port
 40
0.125
 41
1.8
  0
MTEXT
  5
283
100
AcDbEntity
  8
0
100
AcDbMText
 62
2
  6
CONTINUOUS
  7
STANDARD
 71
2
 72
1
 10
3.95
 20
-1.25025
 30
0.0
 11
1.0
 21
0.0
 31
0.0
 44
0.9
  1
1/4" NPTF
 40
0.125
 41
1.8
  0
ENDBLK
  5
284
100
AcDbEntity
  8
0
  6
BYBLOCK
 62
0
100
AcDbBlockEnd
  0
ENDSEC
  0
SECTION
  2
ENTITIES
  0
IMAGE
  5
285
100
AcDbEntity
  8
0
100
AcDbRasterImage
 62
7
  6
CONTINUOUS
 10
19.2297077316
 20
0.3094318264
 30
0.0
 11
0.0066666667
 21
0.0
 31
0.0
 12
0.0
 22
0.0066666667
 32
0.0
 13
369.0
 23
92.0
340
       3C4
 70
9
280
0
281
50
282
50
283
0
360
       3BE
 71
1
 91
2
 14
-0.5
 24
-0.5
 14
368.5
 24
91.5
  0
INSERT
  5
286
100
AcDbEntity
  8
0
100
AcDbBlockReference
 62
2
  6
CONTINUOUS
  2
SUN_FIRST_THIRD_ANGLE_BL0
 10
20.4816717061
 20
1.2289683772
  0
ACAD_TABLE
  5
287
100
AcDbEntity
  8
0
 62
2
  6
CONTINUOUS
100
AcDbBlockReference
  2
*T1
 10
12.42375
 20
0.30125
 30
0.0
100
AcDbTable
342
       3C6
343
20F
 11
1.0
 21
0.0
 31
0.0
 90
6
 91
4
 92
6
 93
20
 94
0
 95
0
 96
0
 70
1
 41
0.0
141
0.525
141
0.1
141
0.525
141
0.1
142
4.1
142
1.1
142
0.7
142
0.5
142
0.4
142
2.475
171
1
172
0
173
0
174
0
175
1
176
1
 91
33
178
0
145
0.0
301
CELL_VALUE
 90
4
  1
T-2A Line mount\P(See Notes for Body Features)
304
ACVALUE_END
170
2
140
0.125
171
1
172
0
173
0
174
0
175
1
176
1
 91
33
178
0
145
0.0
301
CELL_VALUE
 90
4
  1
Sep-18-19
304
ACVALUE_END
170
5
140
0.125
171
1
172
0
173
0
174
0
175
1
176
1
 91
33
178
0
145
0.0
301
CELL_VALUE
 90
4
  1
1.000
304
ACVALUE_END
170
5
140
0.125
171
1
172
0
173
0
174
0
175
1
176
1
 91
33
178
0
145
0.0
301
CELL_VALUE
 90
4
  1
C
304
ACVALUE_END
170
5
140
0.125
171
1
172
0
173
0
174
0
175
1
176
1
 91
33
178
0
145
0.0
301
CELL_VALUE
 90
4
  1
2
304
ACVALUE_END
170
5
140
0.125
171
1
172
0
173
0
174
0
175
1
176
1
 91
33
178
0
145
0.0
301
CELL_VALUE
 90
4
  1
 
304
ACVALUE_END
170
1
140
0.125
171
1
172
0
173
0
174
0
175
1
176
1
 91
33
178
0
145
0.0
301
CELL_VALUE
 90
4
  1
DESCRIPTION
304
ACVALUE_END
170
1
140
0.06
171
1
172
0
173
0
174
0
175
1
176
1
 91
33
178
0
145
0.0
301
CELL_VALUE
 90
4
  1
DATE
304
ACVALUE_END
170
1
140
0.06
171
1
172
0
173
0
174
0
175
1
176
1
 91
33
178
0
145
0.0
301
CELL_VALUE
 90
4
  1
SCALE
304
ACVALUE_END
170
1
140
0.06
171
1
172
0
173
0
174
0
175
1
176
1
 91
33
178
0
145
0.0
301
CELL_VALUE
 90
4
  1
DWG SIZE
304
ACVALUE_END
170
1
140
0.06
171
1
172
0
173
0
174
0
175
1
176
1
 91
33
178
0
145
0.0
301
CELL_VALUE
 90
4
  1
SHEET
304
ACVALUE_END
170
1
140
0.06
171
1
172
0
173
0
174
0
175
1
176
1
 91
33
178
0
145
0.0
301
CELL_VALUE
 90
4
  1
 
304
ACVALUE_END
170
1
140
0.125
171
1
172
0
173
0
174
0
175
1
176
1
 91
33
178
0
145
0.0
301
CELL_VALUE
 90
4
  1
B5L
304
ACVALUE_END
170
5
140
0.125
171
1
172
0
173
0
174
0
175
4
176
1
 91
33
178
0
145
0.0
301
CELL_VALUE
 90
4
  1
ALL DIMENSIONS IN INCH\PVIEWS ARE THIRD ANGLE
304
ACVALUE_END
170
5
140
0.12
171
1
172
0
173
1
174
0
175
1
176
1
 91
1
178
0
145
0.0
170
1
171
1
172
0
173
1
174
0
175
1
176
1
 91
1
178
0
145
0.0
170
1
171
1
172
0
173
1
174
0
175
1
176
1
 91
1
178
0
145
0.0
170
5
171
1
172
0
173
0
174
0
175
1
176
1
 91
33
178
0
145
0.0
301
CELL_VALUE
 90
4
  1
 
304
ACVALUE_END
170
1
140
0.125
171
1
172
0
173
0
174
0
175
1
176
1
 91
33
178
0
145
0.0
301
CELL_VALUE
 90
4
  1
MODEL
304
ACVALUE_END
170
1
140
0.06
171
1
172
0
173
0
174
0
175
1
176
1
 91
33
178
0
145
0.0
301
CELL_VALUE
 90
4
  1
 
304
ACVALUE_END
170
1
140
0.125
171
1
172
0
173
0
174
0
175
1
176
1
 91
33
178
0
145
0.0
301
CELL_VALUE
 90
4
  1
 
304
ACVALUE_END
170
1
140
0.125
171
1
172
0
173
0
174
0
175
1
176
1
 91
33
178
0
145
0.0
301
CELL_VALUE
 90
4
  1
 
304
ACVALUE_END
170
1
140
0.125
171
1
172
0
173
0
174
0
175
1
176
1
 91
33
178
0
145
0.0
301
CELL_VALUE
 90
4
  1
 
304
ACVALUE_END
170
1
140
0.125
171
1
172
0
173
0
174
0
175
1
176
1
 91
33
178
0
145
0.0
301
CELL_VALUE
 90
4
  1
 
304
ACVALUE_END
170
1
140
0.125
  0
ACAD_TABLE
  5
288
100
AcDbEntity
  8
0
 62
2
  6
CONTINUOUS
100
AcDbBlockReference
  2
*T2
 10
12.4237499994
 20
16.47875
 30
0.0
100
AcDbTable
342
       3C5
343
210
 11
1.0
 21
0.0
 31
0.0
 90
22
 91
7
 92
3
 93
16
 94
0
 95
0
 96
0
 41
0.028
141
0.344
141
0.25
141
0.25
141
0.25
141
0.25
141
0.25
141
0.25
142
3.055
142
3.0
142
3.0
171
1
172
0
173
0
174
0
175
1
176
1
 91
33
178
0
145
0.0
301
CELL_VALUE
 90
4
  1
Technical Data
304
ACVALUE_END
170
5
140
0.145
171
1
172
0
173
0
174
0
175
1
176
1
 91
33
178
0
145
0.0
301
CELL_VALUE
 90
4
  1
U.S. Units
304
ACVALUE_END
170
5
140
0.145
171
1
172
0
173
0
174
0
175
1
176
1
 91
33
178
0
145
0.0
301
CELL_VALUE
 90
4
  1
Metric Units
304
ACVALUE_END
170
5
140
0.145
171
1
172
0
173
0
174
0
175
1
176
1
 91
33
178
0
145
0.0
301
CELL_VALUE
 90
4
  1
Cavity
304
ACVALUE_END
170
5
140
0.125
171
1
172
0
173
0
174
0
175
2
176
1
 91
33
178
0
145
0.0
301
CELL_VALUE
 90
4
  1
T-2A
304
ACVALUE_END
170
5
140
0.125
171
1
172
0
173
1
174
0
175
1
176
1
 91
1
178
0
145
0.0
170
1
171
1
172
0
173
0
174
0
175
1
176
1
 91
33
178
0
145
0.0
301
CELL_VALUE
 90
4
  1
Body Features
304
ACVALUE_END
170
5
140
0.125
171
1
172
0
173
0
174
0
175
2
176
1
 91
33
178
0
145
0.0
301
CELL_VALUE
 90
4
  1
(See Notes)
304
ACVALUE_END
170
5
140
0.125
171
1
172
0
173
1
174
0
175
1
176
1
 91
1
178
0
145
0.0
170
1
171
1
172
0
173
0
174
0
175
1
176
1
 91
33
178
0
145
0.0
301
CELL_VALUE
 90
4
  1
Body Type
304
ACVALUE_END
170
5
140
0.125
171
1
172
0
173
0
174
0
175
2
176
1
 91
33
178
0
145
0.0
301
CELL_VALUE
 90
4
  1
Line mount
304
ACVALUE_END
170
5
140
0.125
171
1
172
0
173
1
174
0
175
1
176
1
 91
1
178
0
145
0.0
170
1
171
1
172
0
173
0
174
0
175
1
176
1
 91
33
178
0
145
0.0
301
CELL_VALUE
 90
4
  1
Interface
304
ACVALUE_END
170
5
140
0.125
171
1
172
0
173
0
174
0
175
2
176
1
 91
33
178
0
145
0.0
301
CELL_VALUE
 90
4
  1
None
304
ACVALUE_END
170
5
140
0.125
171
1
172
0
173
1
174
0
175
1
176
1
 91
1
178
0
145
0.0
170
1
171
1
172
0
173
0
174
0
175
1
176
1
 91
33
178
0
145
0.0
301
CELL_VALUE
 90
4
  1
Open Cavity Quantity
304
ACVALUE_END
170
5
140
0.125
171
1
172
0
173
0
174
0
175
2
176
1
 91
33
178
0
145
0.0
301
CELL_VALUE
 90
4
  1
1
304
ACVALUE_END
170
5
140
0.125
171
1
172
0
173
1
174
0
175
1
176
1
 91
1
178
0
145
0.0
170
1
171
1
172
0
173
0
174
0
175
1
176
1
 91
33
178
0
145
0.0
301
CELL_VALUE
 90
4
  1
Weight
304
ACVALUE_END
170
5
140
0.125
171
1
172
0
173
0
174
0
175
1
176
1
 91
33
178
0
145
0.0
301
CELL_VALUE
 90
4
  1
3.292 lb.
304
ACVALUE_END
170
5
140
0.125
171
1
172
0
173
0
174
0
175
1
176
1
 91
33
178
0
145
0.0
301
CELL_VALUE
 90
4
  1
1,493 kg.
304
ACVALUE_END
170
5
140
0.125
  0
ACAD_TABLE
  5
289
100
AcDbEntity
  8
0
 62
2
  6
CONTINUOUS
100
AcDbBlockReference
  2
*T3
 10
0.52125
 20
1.959
 30
0.0
100
AcDbTable
342
       3C5
343
211
 11
1.0
 21
0.0
 31
0.0
 90
22
 91
5
 92
3
 93
16
 94
0
 95
0
 96
0
 41
0.05
141
0.34375
141
0.344
141
0.25
141
0.25
141
0.25
142
1.3
142
2.0
142
1.3
171
1
172
0
173
0
174
0
175
3
176
1
 91
33
178
0
145
0.0
301
CELL_VALUE
 90
4
  1
Port Headings
304
ACVALUE_END
170
5
140
0.145
171
1
172
0
173
1
174
0
175
1
176
1
 91
1
178
0
145
0.0
170
1
171
1
172
0
173
1
174
0
175
1
176
1
 91
1
178
0
145
0.0
170
1
171
1
172
0
173
0
174
0
175
1
176
1
 91
33
178
0
145
0.0
301
CELL_VALUE
 90
4
  1
Product
304
ACVALUE_END
170
5
140
0.145
171
1
172
0
173
0
174
0
175
1
176
1
 91
33
178
0
145
0.0
301
CELL_VALUE
 90
4
  1
Port
304
ACVALUE_END
170
5
140
0.145
171
1
172
0
173
0
174
0
175
1
176
1
 91
33
178
0
145
0.0
301
CELL_VALUE
 90
4
  1
Size
304
ACVALUE_END
170
5
140
0.145
171
1
172
0
173
0
174
0
175
1
176
1
 91
33
178
0
145
0.0
301
CELL_VALUE
 90
4
  1
B5L
304
ACVALUE_END
170
5
140
0.125
171
1
172
0
173
0
174
0
175
1
176
1
 91
33
178
0
145
0.0
301
CELL_VALUE
 90
4
  1
Ports 1 &  2
304
ACVALUE_END
170
5
140
0.125
171
1
172
0
173
0
174
0
175
1
176
1
 91
33
178
0
145
0.0
301
CELL_VALUE
 90
4
  1
SAE 12
304
ACVALUE_END
170
5
140
0.125
171
1
172
0
173
0
174
0
175
1
176
1
 91
33
178
0
145
0.0
301
CELL_VALUE
 90
4
  1
B5L
304
ACVALUE_END
170
5
140
0.125
171
1
172
0
173
0
174
0
175
1
176
1
 91
33
178
0
145
0.0
301
CELL_VALUE
 90
4
  1
Port 3
304
ACVALUE_END
170
5
140
0.125
171
1
172
0
173
0
174
0
175
1
176
1
 91
33
178
0
145
0.0
301
CELL_VALUE
 90
4
  1
SAE 10
304
ACVALUE_END
170
5
140
0.125
171
1
172
0
173
0
174
0
175
1
176
1
 91
33
178
0
145
0.0
301
CELL_VALUE
 90
4
  1
B5L
304
ACVALUE_END
170
5
140
0.125
171
1
172
0
173
0
174
0
175
1
176
1
 91
33
178
0
145
0.0
301
CELL_VALUE
 90
4
  1
Gage Port
304
ACVALUE_END
170
5
140
0.125
171
1
172
0
173
0
174
0
175
1
176
1
 91
33
178
0
145
0.0
301
CELL_VALUE
 90
4
  1
1/4" NPTF
304
ACVALUE_END
170
5
140
0.125
  0
MTEXT
  5
28A
100
AcDbEntity
  8
0
100
AcDbMText
 62
2
  6
CONTINUOUS
  7
STANDARD
 71
1
 72
1
 10
0.52125
 20
5.75995
 30
0.0
 11
1.0
 21
0.0
 31
0.0
 44
0.6
  3
Notes\P \P1. Important: Carefully consider\P   the maximum system pressure. The\P   pressure rating of the manifold is\P   dependent on the manifold material,\P   with the port type/size a secondary\P   consideration. Manifolds\P   constructed of alu
  1
minum are not\P   rated for pressures higher than\P   3000 psi (210 bar), regardless of\P   the port type/size specified.\P2. Body Features: Through port 2\P   with reverse flow check and high\P   capacity port 3.
 40
0.1
 41
3.04
  0
LINE
  5
28B
100
AcDbEntity
  8
0
100
AcDbLine
 62
7
  6
CONTINUOUS
 10
0.30125
 20
0.30125
 11
0.30125
 21
16.69875
  0
LINE
  5
28C
100
AcDbEntity
  8
0
100
AcDbLine
 62
7
  6
CONTINUOUS
 10
0.30125
 20
0.30125
 11
21.69875
 21
0.30125
  0
LINE
  5
28D
100
AcDbEntity
  8
0
100
AcDbLine
 62
7
  6
CONTINUOUS
 10
0.30125
 20
16.69875
 11
21.69875
 21
16.69875
  0
LINE
  5
28E
100
AcDbEntity
  8
0
100
AcDbLine
 62
7
  6
CONTINUOUS
 10
21.69875
 20
0.30125
 11
21.69875
 21
16.69875
  0
LINE
  5
28F
100
AcDbEntity
  8
0
100
AcDbLine
 62
7
  6
CONTINUOUS
 10
8.7108543054
 20
9.3834429817
 11
8.6905076777
 21
9.3489455842
  0
LINE
  5
290
100
AcDbEntity
  8
0
100
AcDbLine
 62
7
  6
CONTINUOUS
 10
8.7854181043
 20
9.7682338553
 11
9.5618745988
 21
10.5182332808
  0
LINE
  5
291
100
AcDbEntity
  8
0
100
AcDbLine
 62
4
  6
CONTINUOUS
 10
9.4113380972
 20
6.8154573906
 11
9.4016788383
 21
6.8233717065
  0
LINE
  5
292
100
AcDbEntity
  8
0
100
AcDbLine
 62
7
  6
CONTINUOUS
 10
8.7854181043
 20
6.7497154693
 11
8.7854181043
 21
9.7682338553
  0
LINE
  5
293
100
AcDbEntity
  8
0
100
AcDbLine
 62
4
  6
CONTINUOUS
 10
9.478952907
 20
6.8759682833
 11
9.4982714265
 21
6.8601396515
  0
LINE
  5
294
100
AcDbEntity
  8
0
100
AcDbLine
 62
4
  6
CONTINUOUS
 10
9.4016788383
 20
6.8233717065
 11
9.3920195794
 21
6.8385304663
  0
LINE
  5
295
100
AcDbEntity
  8
0
100
AcDbLine
 62
4
  6
CONTINUOUS
 10
9.4982714265
 20
6.8601396515
 11
9.5079306828
 21
6.8449808919
  0
LINE
  5
296
100
AcDbEntity
  8
0
100
AcDbLine
 62
7
  6
CONTINUOUS
 10
8.6297402216
 20
8.3394828065
 11
8.6218207415
 21
8.3585100702
  0
LINE
  5
297
100
AcDbEntity
  8
0
100
AcDbLine
 62
7
  6
CONTINUOUS
 10
12.6491216383
 20
6.4817667192
 11
12.2772507378
 21
6.5075560537
  0
LINE
  5
298
100
AcDbEntity
  8
0
100
AcDbLine
 62
7
  6
CONTINUOUS
 10
11.8135851845
 20
6.5397113691
 11
8.7854181043
 21
6.7497154693
  0
LINE
  5
299
100
AcDbEntity
  8
0
100
AcDbLine
 62
7
  6
CONTINUOUS
 10
12.2855329406
 20
6.5155560478
 11
11.8218673873
 21
6.5477113631
  0
LINE
  5
29A
100
AcDbEntity
  8
0
100
AcDbLine
 62
4
  6
CONTINUOUS
 10
9.4499751311
 20
6.8852223429
 11
9.478952907
 21
6.8759682833
  0
LINE
  5
29B
100
AcDbEntity
  8
0
100
AcDbLine
 62
4
  6
CONTINUOUS
 10
9.4499751311
 20
6.8127779032
 11
9.4113380972
 21
6.8154573906
  0
LINE
  5
29C
100
AcDbEntity
  8
0
100
AcDbLine
 62
4
  6
CONTINUOUS
 10
11.2659158212
 20
6.7013308766
 11
11.2465973086
 21
6.70267062
  0
LINE
  5
29D
100
AcDbEntity
  8
0
100
AcDbLine
 62
4
  6
CONTINUOUS
 10
9.3920195794
 20
6.8385304663
 11
9.3920195794
 21
6.8530193542
  0
LINE
  5
29E
100
AcDbEntity
  8
0
100
AcDbLine
 62
4
  6
CONTINUOUS
 10
9.4499751311
 20
6.8417556791
 11
9.4499751311
 21
6.8127779032
  0
LINE
  5
29F
100
AcDbEntity
  8
0
100
AcDbLine
 62
4
  6
CONTINUOUS
 10
9.5079306828
 20
6.8449808919
 11
9.5079306828
 21
6.830492004
  0
LINE
  5
2A0
100
AcDbEntity
  8
0
100
AcDbLine
 62
4
  6
CONTINUOUS
 10
11.1983010132
 20
6.7567310872
 11
11.1693232373
 21
6.7659851467
  0
LINE
  5
2A1
100
AcDbEntity
  8
0
100
AcDbLine
 62
4
  6
CONTINUOUS
 10
9.4209973552
 20
6.8799875145
 11
9.4499751311
 21
6.8852223429
  0
LINE
  5
2A2
100
AcDbEntity
  8
0
100
AcDbLine
 62
4
  6
CONTINUOUS
 10
11.2465973086
 20
6.70267062
 11
11.2369380453
 21
6.7105849361
  0
LINE
  5
2A3
100
AcDbEntity
  8
0
100
AcDbLine
 62
4
  6
CONTINUOUS
 10
11.2176195292
 20
6.7409024556
 11
11.1983010132
 21
6.7567310872
  0
LINE
  5
2A4
100
AcDbEntity
  8
0
100
AcDbLine
 62
4
  6
CONTINUOUS
 10
11.2659158212
 20
6.7592864283
 11
11.2755750844
 21
6.7513721121
  0
LINE
  5
2A5
100
AcDbEntity
  8
0
100
AcDbLine
 62
4
  6
CONTINUOUS
 10
11.1505566263
 20
7.5521704798
 11
11.175394721
 21
7.5504479521
  0
LINE
  5
2A6
100
AcDbEntity
  8
0
100
AcDbLine
 62
4
  6
CONTINUOUS
 10
11.191953449
 20
7.5989757087
 11
11.2167915411
 21
7.5972531811
  0
LINE
  5
2A7
100
AcDbEntity
  8
0
100
AcDbLine
 62
4
  6
CONTINUOUS
 10
11.2755750844
 20
9.4434075383
 11
11.2659158212
 21
9.4368329665
  0
LINE
  5
2A8
100
AcDbEntity
  8
0
100
AcDbLine
 62
4
  6
CONTINUOUS
 10
11.1505566263
 20
7.6763609162
 11
11.2167915411
 21
7.6717675093
  0
LINE
  5
2A9
100
AcDbEntity
  8
0
100
AcDbLine
 62
4
  6
CONTINUOUS
 10
11.1422772613
 20
7.7210917003
 11
11.2250709086
 21
7.7153499414
  0
LINE
  5
2AA
100
AcDbEntity
  8
0
100
AcDbLine
 62
4
  6
CONTINUOUS
 10
11.2499089973
 20
7.7136274141
 11
11.2581883648
 21
7.713053238
  0
LINE
  5
2AB
100
AcDbEntity
  8
0
100
AcDbLine
 62
4
  6
CONTINUOUS
 10
10.5511306338
 20
7.7814063372
 11
10.6670417373
 21
7.7733678749
  0
LINE
  5
2AC
100
AcDbEntity
  8
0
100
AcDbLine
 62
4
  6
CONTINUOUS
 10
10.6504830092
 20
7.8214326677
 11
10.5676893636
 21
7.8271744265
  0
LINE
  5
2AD
100
AcDbEntity
  8
0
100
AcDbLine
 62
4
  6
CONTINUOUS
 10
11.1505566263
 20
7.7950317973
 11
11.2581883648
 21
7.7875675109
  0
LINE
  5
2AE
100
AcDbEntity
  8
0
100
AcDbLine
 62
4
  6
CONTINUOUS
 10
12.4462772031
 20
7.7056562228
 11
12.4366179433
 21
7.7063260947
  0
LINE
  5
2AF
100
AcDbEntity
  8
0
100
AcDbLine
 62
4
  6
CONTINUOUS
 10
12.5042327514
 20
7.7088814358
 11
12.494573495
 21
7.7095513075
  0
LINE
  5
2B0
100
AcDbEntity
  8
0
100
AcDbLine
 62
4
  6
CONTINUOUS
 10
11.1422772613
 20
7.8287234155
 11
11.2250709086
 21
7.8229816566
  0
LINE
  5
2B1
100
AcDbEntity
  8
0
100
AcDbLine
 62
4
  6
CONTINUOUS
 10
10.5511306338
 20
7.8862783301
 11
10.6670417373
 21
7.8782398677
  0
LINE
  5
2B2
100
AcDbEntity
  8
0
100
AcDbLine
 62
4
  6
CONTINUOUS
 10
10.6504830092
 20
7.9125056618
 11
10.5676893636
 21
7.9182474206
  0
LINE
  5
2B3
100
AcDbEntity
  8
0
100
AcDbLine
 62
4
  6
CONTINUOUS
 10
11.2250709086
 20
7.8726578754
 11
11.1505566263
 21
7.8778254584
  0
LINE
  5
2B4
100
AcDbEntity
  8
0
100
AcDbLine
 62
4
  6
CONTINUOUS
 10
11.2581883648
 20
7.7102934604
 11
11.2499089973
 21
7.7136274141
  0
LINE
  5
2B5
100
AcDbEntity
  8
0
100
AcDbLine
 62
4
  6
CONTINUOUS
 10
10.5676893636
 20
7.8271744265
 11
10.5511306338
 21
7.8448814995
  0
LINE
  5
2B6
100
AcDbEntity
  8
0
100
AcDbLine
 62
4
  6
CONTINUOUS
 10
10.5676893636
 20
7.9182474206
 11
10.5511306338
 21
7.9359544936
  0
LINE
  5
2B7
100
AcDbEntity
  8
0
100
AcDbLine
 62
4
  6
CONTINUOUS
 10
10.6504830092
 20
7.9704612135
 11
10.6670417373
 21
7.9527541406
  0
LINE
  5
2B8
100
AcDbEntity
  8
0
100
AcDbLine
 62
4
  6
CONTINUOUS
 10
11.2369380453
 20
6.7105849361
 11
11.2176195292
 21
6.7409024556
  0
LINE
  5
2B9
100
AcDbEntity
  8
0
100
AcDbLine
 62
4
  6
CONTINUOUS
 10
11.2755750844
 20
6.7513721121
 11
11.2852343407
 21
6.7362133525
  0
LINE
  5
2BA
100
AcDbEntity
  8
0
100
AcDbLine
 62
4
  6
CONTINUOUS
 10
10.6008068215
 20
7.6510110679
 11
10.5787285157
 21
7.6966988118
  0
LINE
  5
2BB
100
AcDbEntity
  8
0
100
AcDbLine
 62
4
  6
CONTINUOUS
 10
10.5511306338
 20
8.2478105562
 11
10.5511306338
 21
8.1981343651
  0
LINE
  5
2BC
100
AcDbEntity
  8
0
100
AcDbLine
 62
4
  6
CONTINUOUS
 10
10.5511306338
 20
7.7814063372
 11
10.5511306338
 21
7.7317301737
  0
LINE
  5
2BD
100
AcDbEntity
  8
0
100
AcDbLine
 62
4
  6
CONTINUOUS
 10
10.5511306338
 20
7.8448814995
 11
10.5511306338
 21
7.8862783301
  0
LINE
  5
2BE
100
AcDbEntity
  8
0
100
AcDbLine
 62
4
  6
CONTINUOUS
 10
10.5511306338
 20
7.9359544936
 11
10.5511306338
 21
7.9607926029
  0
LINE
  5
2BF
100
AcDbEntity
  8
0
100
AcDbLine
 62
4
  6
CONTINUOUS
 10
10.5511306338
 20
8.02426771
 11
10.5511306338
 21
8.0573851523
  0
LINE
  5
2C0
100
AcDbEntity
  8
0
100
AcDbLine
 62
4
  6
CONTINUOUS
 10
10.5511306338
 20
8.5099904347
 11
10.5511306338
 21
8.5513872514
  0
LINE
  5
2C1
100
AcDbEntity
  8
0
100
AcDbLine
 62
4
  6
CONTINUOUS
 10
10.5842480935
 20
8.4331794513
 11
10.5842480935
 21
8.3890228431
  0
LINE
  5
2C2
100
AcDbEntity
  8
0
100
AcDbLine
 62
4
  6
CONTINUOUS
 10
10.6008068215
 20
8.6141771153
 11
10.5787285157
 21
8.5715516394
  0
LINE
  5
2C3
100
AcDbEntity
  8
0
100
AcDbLine
 62
4
  6
CONTINUOUS
 10
11.1422772613
 20
7.9115170766
 11
11.2085121806
 21
7.9069236694
  0
LINE
  5
2C4
100
AcDbEntity
  8
0
100
AcDbLine
 62
4
  6
CONTINUOUS
 10
10.5676893636
 20
7.9762029723
 11
10.6504830092
 21
7.9704612135
  0
LINE
  5
2C5
100
AcDbEntity
  8
0
100
AcDbLine
 62
4
  6
CONTINUOUS
 10
11.1505566263
 20
7.9606190642
 11
11.175394721
 21
7.9588965365
  0
LINE
  5
2C6
100
AcDbEntity
  8
0
100
AcDbLine
 62
4
  6
CONTINUOUS
 10
11.2167915411
 20
7.9919029325
 11
11.2002328131
 21
7.9930512842
  0
LINE
  5
2C7
100
AcDbEntity
  8
0
100
AcDbLine
 62
4
  6
CONTINUOUS
 10
10.9220461648
 20
8.0440811491
 11
10.8061350614
 21
8.0521196114
  0
LINE
  5
2C8
100
AcDbEntity
  8
0
100
AcDbLine
 62
4
  6
CONTINUOUS
 10
10.5676893636
 20
8.0727955216
 11
10.6504830092
 21
8.0670537628
  0
LINE
  5
2C9
100
AcDbEntity
  8
0
100
AcDbLine
 62
4
  6
CONTINUOUS
 10
11.1422772613
 20
8.035707513
 11
11.2250709086
 21
8.0299657541
  0
LINE
  5
2CA
100
AcDbEntity
  8
0
100
AcDbLine
 62
4
  6
CONTINUOUS
 10
10.8226937912
 20
8.0840887158
 11
10.8558112491
 21
8.0817920123
  0
LINE
  5
2CB
100
AcDbEntity
  8
0
100
AcDbLine
 62
7
  6
CONTINUOUS
 10
8.7854181043
 20
8.2254819272
 11
8.7548988344
 21
8.2275984458
  0
LINE
  5
2CC
100
AcDbEntity
  8
0
100
AcDbLine
 62
4
  6
CONTINUOUS
 10
11.2581883648
 20
8.0607865483
 11
11.1422772613
 21
8.0688250106
  0
LINE
  5
2CD
100
AcDbEntity
  8
0
100
AcDbLine
 62
4
  6
CONTINUOUS
 10
10.6504830092
 20
8.0670537628
 11
10.6670417373
 21
8.04934669
  0
LINE
  5
2CE
100
AcDbEntity
  8
0
100
AcDbLine
 62
4
  6
CONTINUOUS
 10
11.1422772613
 20
7.5610239887
 11
11.1505566263
 21
7.5521704798
  0
LINE
  5
2CF
100
AcDbEntity
  8
0
100
AcDbLine
 62
4
  6
CONTINUOUS
 10
11.2167915411
 20
7.5972531811
 11
11.2250709086
 21
7.5883996721
  0
LINE
  5
2D0
100
AcDbEntity
  8
0
100
AcDbLine
 62
4
  6
CONTINUOUS
 10
10.8061350614
 20
8.1017958026
 11
10.8226937912
 21
8.0840887158
  0
LINE
  5
2D1
100
AcDbEntity
  8
0
100
AcDbLine
 62
4
  6
CONTINUOUS
 10
11.2167915411
 20
7.6717675093
 11
11.2250709086
 21
7.6629140002
  0
LINE
  5
2D2
100
AcDbEntity
  8
0
100
AcDbLine
 62
4
  6
CONTINUOUS
 10
10.6173655531
 20
7.7436954876
 11
10.6173655531
 21
7.77681293
  0
LINE
  5
2D3
100
AcDbEntity
  8
0
100
AcDbLine
 62
4
  6
CONTINUOUS
 10
10.6173655531
 20
8.210099679
 11
10.6173655531
 21
8.243217149
  0
LINE
  5
2D4
100
AcDbEntity
  8
0
100
AcDbLine
 62
4
  6
CONTINUOUS
 10
10.6670417373
 20
8.5433487891
 11
10.6670417373
 21
8.5019519724
  0
LINE
  5
2D5
100
AcDbEntity
  8
0
100
AcDbLine
 62
4
  6
CONTINUOUS
 10
10.6670417373
 20
8.3391244762
 11
10.6670417373
 21
8.2728895639
  0
LINE
  5
2D6
100
AcDbEntity
  8
0
100
AcDbLine
 62
4
  6
CONTINUOUS
 10
10.6670417373
 20
8.2397720939
 11
10.6670417373
 21
8.1900959028
  0
LINE
  5
2D7
100
AcDbEntity
  8
0
100
AcDbLine
 62
4
  6
CONTINUOUS
 10
10.6670417373
 20
8.04934669
 11
10.6670417373
 21
8.0162292476
  0
LINE
  5
2D8
100
AcDbEntity
  8
0
100
AcDbLine
 62
4
  6
CONTINUOUS
 10
10.6670417373
 20
7.9527541406
 11
10.6670417373
 21
7.9279160312
  0
LINE
  5
2D9
100
AcDbEntity
  8
0
100
AcDbLine
 62
4
  6
CONTINUOUS
 10
10.6670417373
 20
7.8782398677
 11
10.6670417373
 21
7.8368430372
  0
LINE
  5
2DA
100
AcDbEntity
  8
0
100
AcDbLine
 62
4
  6
CONTINUOUS
 10
10.6670417373
 20
7.7733678749
 11
10.6670417373
 21
7.7236917114
  0
LINE
  5
2DB
100
AcDbEntity
  8
0
100
AcDbLine
 62
4
  6
CONTINUOUS
 10
10.8061350614
 20
8.1349132587
 11
10.8061350614
 21
8.1017958026
  0
LINE
  5
2DC
100
AcDbEntity
  8
0
100
AcDbLine
 62
4
  6
CONTINUOUS
 10
10.8061350614
 20
8.0521196114
 11
10.8061350614
 21
8.0107227947
  0
LINE
  5
2DD
100
AcDbEntity
  8
0
100
AcDbLine
 62
4
  6
CONTINUOUS
 10
10.8061350614
 20
8.184589443
 11
10.8061350614
 21
8.2259862666
  0
LINE
  5
2DE
100
AcDbEntity
  8
0
100
AcDbLine
 62
4
  6
CONTINUOUS
 10
9.3920195794
 20
6.8530193542
 11
9.4016788383
 21
6.8668383703
  0
LINE
  5
2DF
100
AcDbEntity
  8
0
100
AcDbLine
 62
4
  6
CONTINUOUS
 10
11.2852343407
 20
9.4572265545
 11
11.2755750844
 21
9.4434075383
  0
LINE
  5
2E0
100
AcDbEntity
  8
0
100
AcDbLine
 62
4
  6
CONTINUOUS
 10
9.5079306828
 20
6.830492004
 11
9.4982714265
 21
6.8166729877
  0
LINE
  5
2E1
100
AcDbEntity
  8
0
100
AcDbLine
 62
4
  6
CONTINUOUS
 10
10.6670417373
 20
8.5019519724
 11
10.6504830092
 21
8.486541596
  0
LINE
  5
2E2
100
AcDbEntity
  8
0
100
AcDbLine
 62
4
  6
CONTINUOUS
 10
11.2250709086
 20
8.1845139104
 11
11.1422772613
 21
8.16541756
  0
LINE
  5
2E3
100
AcDbEntity
  8
0
100
AcDbLine
 62
4
  6
CONTINUOUS
 10
10.8723699806
 20
8.1303198515
 11
10.9220461648
 21
8.1268747964
  0
LINE
  5
2E4
100
AcDbEntity
  8
0
100
AcDbLine
 62
4
  6
CONTINUOUS
 10
11.1505566263
 20
8.1179269982
 11
11.2167915411
 21
8.1133335913
  0
LINE
  5
2E5
100
AcDbEntity
  8
0
100
AcDbLine
 62
4
  6
CONTINUOUS
 10
10.847531885
 20
8.1651598354
 11
10.8226937912
 21
8.1668823631
  0
LINE
  5
2E6
100
AcDbEntity
  8
0
100
AcDbLine
 62
4
  6
CONTINUOUS
 10
10.9054874368
 20
8.1694199683
 11
10.8806493412
 21
8.1711424961
  0
LINE
  5
2E7
100
AcDbEntity
  8
0
100
AcDbLine
 62
4
  6
CONTINUOUS
 10
10.8061350614
 20
8.2259862666
 11
10.9220461648
 21
8.2179478043
  0
LINE
  5
2E8
100
AcDbEntity
  8
0
100
AcDbLine
 62
4
  6
CONTINUOUS
 10
10.5511306338
 20
8.2478105562
 11
10.6670417373
 21
8.2397720939
  0
LINE
  5
2E9
100
AcDbEntity
  8
0
100
AcDbLine
 62
7
  6
CONTINUOUS
 10
8.7854181043
 20
8.3722759929
 11
8.6237655366
 21
8.3834866365
  0
LINE
  5
2EA
100
AcDbEntity
  8
0
100
AcDbLine
 62
4
  6
CONTINUOUS
 10
11.2167915411
 20
8.2182055565
 11
11.1422772613
 21
8.2233731393
  0
LINE
  5
2EB
100
AcDbEntity
  8
0
100
AcDbLine
 62
7
  6
CONTINUOUS
 10
10.1545706973
 20
8.2967273512
 11
9.9701294078
 21
8.3095183981
  0
LINE
  5
2EC
100
AcDbEntity
  8
0
100
AcDbLine
 62
7
  6
CONTINUOUS
 10
8.7854181043
 20
8.4114939357
 11
8.6165415244
 21
8.4232055663
  0
LINE
  5
2ED
100
AcDbEntity
  8
0
100
AcDbLine
 62
4
  6
CONTINUOUS
 10
10.5511306338
 20
8.3140454685
 11
10.6670417373
 21
8.3060070062
  0
LINE
  5
2EE
100
AcDbEntity
  8
0
100
AcDbLine
 62
4
  6
CONTINUOUS
 10
11.1422772613
 20
8.2730493305
 11
11.2581883648
 21
8.2650108681
  0
LINE
  5
2EF
100
AcDbEntity
  8
0
100
AcDbLine
 62
4
  6
CONTINUOUS
 10
10.5511306338
 20
8.446515307
 11
10.6670417373
 21
8.4053593885
  0
LINE
  5
2F0
100
AcDbEntity
  8
0
100
AcDbLine
 62
4
  6
CONTINUOUS
 10
11.1146793795
 20
8.1756108678
 11
11.2250709086
 21
8.1348377469
  0
LINE
  5
2F1
100
AcDbEntity
  8
0
100
AcDbLine
 62
4
  6
CONTINUOUS
 10
10.8226937912
 20
8.1668823631
 11
10.8061350614
 21
8.184589443
  0
LINE
  5
2F2
100
AcDbEntity
  8
0
100
AcDbLine
 62
4
  6
CONTINUOUS
 10
10.5676893636
 20
8.4922833548
 11
10.5511306338
 21
8.5099904347
  0
LINE
  5
2F3
100
AcDbEntity
  8
0
100
AcDbLine
 62
4
  6
CONTINUOUS
 10
10.8806493412
 20
8.1711424961
 11
10.8640906131
 21
8.1888495758
  0
LINE
  5
2F4
100
AcDbEntity
  8
0
100
AcDbLine
 62
4
  6
CONTINUOUS
 10
10.6228851291
 20
8.5684893678
 11
10.6008068215
 21
8.6141771153
  0
LINE
  5
2F5
100
AcDbEntity
  8
0
100
AcDbLine
 62
4
  6
CONTINUOUS
 10
10.8640906131
 20
8.1805702118
 11
10.8640906131
 21
8.2219670354
  0
LINE
  5
2F6
100
AcDbEntity
  8
0
100
AcDbLine
 62
4
  6
CONTINUOUS
 10
10.8723699806
 20
8.0972023953
 11
10.8723699806
 21
8.1303198515
  0
LINE
  5
2F7
100
AcDbEntity
  8
0
100
AcDbLine
 62
4
  6
CONTINUOUS
 10
10.9220461648
 20
8.2179478043
 11
10.9220461648
 21
8.1931097104
  0
LINE
  5
2F8
100
AcDbEntity
  8
0
100
AcDbLine
 62
4
  6
CONTINUOUS
 10
10.9220461648
 20
8.1268747964
 11
10.9220461648
 21
8.0771986053
  0
LINE
  5
2F9
100
AcDbEntity
  8
0
100
AcDbLine
 62
4
  6
CONTINUOUS
 10
10.9220461648
 20
8.1931097104
 11
10.9192863734
 21
8.1850217369
  0
LINE
  5
2FA
100
AcDbEntity
  8
0
100
AcDbLine
 62
4
  6
CONTINUOUS
 10
11.1505566263
 20
8.636767186
 11
11.1422772613
 21
8.629061997
  0
LINE
  5
2FB
100
AcDbEntity
  8
0
100
AcDbLine
 62
4
  6
CONTINUOUS
 10
10.5511306338
 20
8.0573851523
 11
10.5676893636
 21
8.0727955216
  0
LINE
  5
2FC
100
AcDbEntity
  8
0
100
AcDbLine
 62
4
  6
CONTINUOUS
 10
10.6670417373
 20
8.4053593885
 11
10.5511306338
 21
8.3802803808
  0
LINE
  5
2FD
100
AcDbEntity
  8
0
100
AcDbLine
 62
4
  6
CONTINUOUS
 10
11.1422772613
 20
8.3972397945
 11
11.2581883648
 21
8.3892013321
  0
LINE
  5
2FE
100
AcDbEntity
  8
0
100
AcDbLine
 62
4
  6
CONTINUOUS
 10
10.6504830092
 20
8.486541596
 11
10.5676893636
 21
8.4922833548
  0
LINE
  5
2FF
100
AcDbEntity
  8
0
100
AcDbLine
 62
4
  6
CONTINUOUS
 10
11.1422772613
 20
8.4551953462
 11
11.2581883648
 21
8.4471568839
  0
LINE
  5
300
100
AcDbEntity
  8
0
100
AcDbLine
 62
4
  6
CONTINUOUS
 10
11.1588359912
 20
8.4871644505
 11
11.2581883648
 21
8.48027434
  0
LINE
  5
301
100
AcDbEntity
  8
0
100
AcDbLine
 62
4
  6
CONTINUOUS
 10
10.5511306338
 20
8.5513872514
 11
10.6670417373
 21
8.5433487891
  0
LINE
  5
302
100
AcDbEntity
  8
0
100
AcDbLine
 62
4
  6
CONTINUOUS
 10
11.175394721
 20
7.9588965365
 11
11.183674085
 21
7.9417636395
  0
LINE
  5
303
100
AcDbEntity
  8
0
100
AcDbLine
 62
4
  6
CONTINUOUS
 10
11.2167915411
 20
8.1133335913
 11
11.2250709086
 21
8.096200694
  0
LINE
  5
304
100
AcDbEntity
  8
0
100
AcDbLine
 62
4
  6
CONTINUOUS
 10
11.1146793795
 20
8.192169589
 11
11.1146793795
 21
8.1756108678
  0
LINE
  5
305
100
AcDbEntity
  8
0
100
AcDbLine
 62
4
  6
CONTINUOUS
 10
11.1422772613
 20
8.629061997
 11
11.1422772613
 21
8.5959445383
  0
LINE
  5
306
100
AcDbEntity
  8
0
100
AcDbLine
 62
4
  6
CONTINUOUS
 10
11.1422772613
 20
8.529709626
 11
11.1422772613
 21
8.5048715235
  0
LINE
  5
307
100
AcDbEntity
  8
0
100
AcDbLine
 62
4
  6
CONTINUOUS
 10
11.1422772613
 20
7.8701202461
 11
11.1422772613
 21
7.8287234155
  0
LINE
  5
308
100
AcDbEntity
  8
0
100
AcDbLine
 62
4
  6
CONTINUOUS
 10
11.1422772613
 20
7.594141431
 11
11.1422772613
 21
7.5610239887
  0
LINE
  5
309
100
AcDbEntity
  8
0
100
AcDbLine
 62
4
  6
CONTINUOUS
 10
11.1422772613
 20
7.6355382063
 11
11.1422772613
 21
7.6686557592
  0
LINE
  5
30A
100
AcDbEntity
  8
0
100
AcDbLine
 62
4
  6
CONTINUOUS
 10
11.1422772613
 20
7.7707678638
 11
11.1422772613
 21
7.787326585
  0
LINE
  5
30B
100
AcDbEntity
  8
0
100
AcDbLine
 62
4
  6
CONTINUOUS
 10
11.1422772613
 20
7.9115170766
 11
11.1422772613
 21
7.944634519
  0
LINE
  5
30C
100
AcDbEntity
  8
0
100
AcDbLine
 62
4
  6
CONTINUOUS
 10
11.1422772613
 20
8.0688250106
 11
11.1422772613
 21
8.101942453
  0
LINE
  5
30D
100
AcDbEntity
  8
0
100
AcDbLine
 62
4
  6
CONTINUOUS
 10
11.1693232373
 20
9.5014872367
 11
11.1693232373
 21
9.4435316849
  0
LINE
  5
30E
100
AcDbEntity
  8
0
100
AcDbLine
 62
4
  6
CONTINUOUS
 10
11.1693232373
 20
6.7659851467
 11
11.1693232373
 21
6.708029595
  0
LINE
  5
30F
100
AcDbEntity
  8
0
100
AcDbLine
 62
4
  6
CONTINUOUS
 10
11.183674085
 20
7.9417636395
 11
11.183674085
 21
7.9086461972
  0
LINE
  5
310
100
AcDbEntity
  8
0
100
AcDbLine
 62
4
  6
CONTINUOUS
 10
11.2250709086
 20
8.2673075715
 11
11.2250709086
 21
8.225910741
  0
LINE
  5
311
100
AcDbEntity
  8
0
100
AcDbLine
 62
4
  6
CONTINUOUS
 10
11.2250709086
 20
8.096200694
 11
11.2250709086
 21
8.0630832517
  0
LINE
  5
312
100
AcDbEntity
  8
0
100
AcDbLine
 62
4
  6
CONTINUOUS
 10
11.2250709086
 20
8.0299657541
 11
11.2250709086
 21
7.9968483118
  0
LINE
  5
313
100
AcDbEntity
  8
0
100
AcDbLine
 62
4
  6
CONTINUOUS
 10
11.2250709086
 20
7.6629140002
 11
11.2250709086
 21
7.6297964474
  0
LINE
  5
314
100
AcDbEntity
  8
0
100
AcDbLine
 62
4
  6
CONTINUOUS
 10
11.2250709086
 20
7.5883996721
 11
11.2250709086
 21
7.5552822298
  0
LINE
  5
315
100
AcDbEntity
  8
0
100
AcDbLine
 62
4
  6
CONTINUOUS
 10
11.2250709086
 20
7.9140546507
 11
11.2250709086
 21
7.9554514812
  0
LINE
  5
316
100
AcDbEntity
  8
0
100
AcDbLine
 62
4
  6
CONTINUOUS
 10
10.6228851291
 20
7.6936365402
 11
10.6008068215
 21
7.6510110679
  0
LINE
  5
317
100
AcDbEntity
  8
0
100
AcDbLine
 62
4
  6
CONTINUOUS
 10
10.9192863734
 20
8.1850217369
 11
10.9054874368
 21
8.1694199683
  0
LINE
  5
318
100
AcDbEntity
  8
0
100
AcDbLine
 62
4
  6
CONTINUOUS
 10
11.175394721
 20
8.5770891066
 11
11.2250709086
 21
8.631599603
  0
LINE
  5
319
100
AcDbEntity
  8
0
100
AcDbLine
 62
4
  6
CONTINUOUS
 10
11.1588359912
 20
8.5451200022
 11
11.1422772613
 21
8.529709626
  0
LINE
  5
31A
100
AcDbEntity
  8
0
100
AcDbLine
 62
4
  6
CONTINUOUS
 10
10.5511306338
 20
7.9607926029
 11
10.5676893636
 21
7.9762029723
  0
LINE
  5
31B
100
AcDbEntity
  8
0
100
AcDbLine
 62
4
  6
CONTINUOUS
 10
11.2581883648
 20
8.5796267119
 11
11.2499089973
 21
8.571921524
  0
LINE
  5
31C
100
AcDbEntity
  8
0
100
AcDbLine
 62
4
  6
CONTINUOUS
 10
10.8640906131
 20
8.1805702118
 11
10.847531885
 21
8.1651598354
  0
LINE
  5
31D
100
AcDbEntity
  8
0
100
AcDbLine
 62
4
  6
CONTINUOUS
 10
10.6670417373
 20
7.9279160312
 11
10.6504830092
 21
7.9125056618
  0
LINE
  5
31E
100
AcDbEntity
  8
0
100
AcDbLine
 62
4
  6
CONTINUOUS
 10
10.8558112491
 20
8.0817920123
 11
10.8723699806
 21
8.0972023953
  0
LINE
  5
31F
100
AcDbEntity
  8
0
100
AcDbLine
 62
4
  6
CONTINUOUS
 10
11.2581883648
 20
8.4471568839
 11
11.1422772613
 21
8.3972397945
  0
LINE
  5
320
100
AcDbEntity
  8
0
100
AcDbLine
 62
4
  6
CONTINUOUS
 10
11.2581883648
 20
8.5382298917
 11
11.1588359912
 21
8.5451200022
  0
LINE
  5
321
100
AcDbEntity
  8
0
100
AcDbLine
 62
4
  6
CONTINUOUS
 10
11.1588359912
 20
8.5782374584
 11
11.175394721
 21
8.5770891066
  0
LINE
  5
322
100
AcDbEntity
  8
0
100
AcDbLine
 62
4
  6
CONTINUOUS
 10
11.2250709086
 20
8.631599603
 11
11.2416296367
 21
8.6304512513
  0
LINE
  5
323
100
AcDbEntity
  8
0
100
AcDbLine
 62
4
  6
CONTINUOUS
 10
11.1422772613
 20
8.5048715235
 11
11.1588359912
 21
8.4871644505
  0
LINE
  5
324
100
AcDbEntity
  8
0
100
AcDbLine
 62
4
  6
CONTINUOUS
 10
11.1422772613
 20
8.5959445383
 11
11.1588359912
 21
8.5782374584
  0
LINE
  5
325
100
AcDbEntity
  8
0
100
AcDbLine
 62
4
  6
CONTINUOUS
 10
11.2581883648
 20
8.6127441698
 11
11.2581883648
 21
8.5796267119
  0
LINE
  5
326
100
AcDbEntity
  8
0
100
AcDbLine
 62
4
  6
CONTINUOUS
 10
11.2581883648
 20
7.713053238
 11
11.2581883648
 21
7.7102934604
  0
LINE
  5
327
100
AcDbEntity
  8
0
100
AcDbLine
 62
4
  6
CONTINUOUS
 10
11.2852343407
 20
9.4717154424
 11
11.2852343407
 21
9.4572265545
  0
LINE
  5
328
100
AcDbEntity
  8
0
100
AcDbLine
 62
4
  6
CONTINUOUS
 10
11.2852343407
 20
6.7362133525
 11
11.2852343407
 21
6.7217244646
  0
LINE
  5
329
100
AcDbEntity
  8
0
100
AcDbLine
 62
4
  6
CONTINUOUS
 10
11.180914297
 20
7.5583445012
 11
11.186433873
 21
7.5910791596
  0
LINE
  5
32A
100
AcDbEntity
  8
0
100
AcDbLine
 62
4
  6
CONTINUOUS
 10
11.1422772613
 20
8.101942453
 11
11.1505566263
 21
8.1179269982
  0
LINE
  5
32B
100
AcDbEntity
  8
0
100
AcDbLine
 62
4
  6
CONTINUOUS
 10
11.1422772613
 20
7.944634519
 11
11.1505566263
 21
7.9606190642
  0
LINE
  5
32C
100
AcDbEntity
  8
0
100
AcDbLine
 62
7
  6
CONTINUOUS
 10
12.6491216383
 20
9.5002851052
 11
13.4255781329
 21
10.2502845307
  0
LINE
  5
32D
100
AcDbEntity
  8
0
100
AcDbLine
 62
4
  6
CONTINUOUS
 10
10.6670417373
 20
7.8368430372
 11
10.6504830092
 21
7.8214326677
  0
LINE
  5
32E
100
AcDbEntity
  8
0
100
AcDbLine
 62
4
  6
CONTINUOUS
 10
11.2250709086
 20
8.225910741
 11
11.2167915411
 21
8.2182055565
  0
LINE
  5
32F
100
AcDbEntity
  8
0
100
AcDbLine
 62
4
  6
CONTINUOUS
 10
10.3985142811
 20
8.849817052
 11
10.2826031777
 21
8.8578555143
  0
LINE
  5
330
100
AcDbEntity
  8
0
100
AcDbLine
 62
7
  6
CONTINUOUS
 10
8.7854181043
 20
8.9766004102
 11
8.6165415244
 21
8.9883120408
  0
LINE
  5
331
100
AcDbEntity
  8
0
100
AcDbLine
 62
7
  6
CONTINUOUS
 10
8.7854181043
 20
9.0307760476
 11
8.6237655366
 21
9.0419866913
  0
LINE
  5
332
100
AcDbEntity
  8
0
100
AcDbLine
 62
4
  6
CONTINUOUS
 10
12.4366179433
 20
7.7063260947
 11
12.4172994264
 21
7.7221547264
  0
LINE
  5
333
100
AcDbEntity
  8
0
100
AcDbLine
 62
4
  6
CONTINUOUS
 10
12.494573495
 20
7.7095513075
 11
12.4849142387
 21
7.7174656232
  0
LINE
  5
334
100
AcDbEntity
  8
0
100
AcDbLine
 62
4
  6
CONTINUOUS
 10
11.2416296367
 20
8.6304512513
 11
11.2581883648
 21
8.6127441698
  0
LINE
  5
335
100
AcDbEntity
  8
0
100
AcDbLine
 62
4
  6
CONTINUOUS
 10
11.1505566263
 20
7.8778254584
 11
11.1422772613
 21
7.8701202461
  0
LINE
  5
336
100
AcDbEntity
  8
0
100
AcDbLine
 62
4
  6
CONTINUOUS
 10
11.1422772613
 20
7.787326585
 11
11.1505566263
 21
7.7950317973
  0
LINE
  5
337
100
AcDbEntity
  8
0
100
AcDbLine
 62
4
  6
CONTINUOUS
 10
9.4016788383
 20
6.8668383703
 11
9.4209973552
 21
6.8799875145
  0
LINE
  5
338
100
AcDbEntity
  8
0
100
AcDbLine
 62
4
  6
CONTINUOUS
 10
9.4982714265
 20
6.8166729877
 11
9.4886121633
 21
6.810098416
  0
LINE
  5
339
100
AcDbEntity
  8
0
100
AcDbLine
 62
4
  6
CONTINUOUS
 10
11.2250709086
 20
7.9968483118
 11
11.2167915411
 21
7.9919029325
  0
LINE
  5
33A
100
AcDbEntity
  8
0
100
AcDbLine
 62
4
  6
CONTINUOUS
 10
11.2085121806
 20
7.9069236694
 11
11.2250709086
 21
7.9140546507
  0
LINE
  5
33B
100
AcDbEntity
  8
0
100
AcDbLine
 62
4
  6
CONTINUOUS
 10
11.186433873
 20
7.5910791596
 11
11.191953449
 21
7.5989757087
  0
LINE
  5
33C
100
AcDbEntity
  8
0
100
AcDbLine
 62
4
  6
CONTINUOUS
 10
11.175394721
 20
7.5504479521
 11
11.180914297
 21
7.5583445012
  0
LINE
  5
33D
100
AcDbEntity
  8
0
100
AcDbLine
 62
4
  6
CONTINUOUS
 10
11.1422772613
 20
7.6686557592
 11
11.1505566263
 21
7.6763609162
  0
LINE
  5
33E
100
AcDbEntity
  8
0
100
AcDbLine
 62
4
  6
CONTINUOUS
 10
11.1505566263
 20
7.6018465881
 11
11.1422772613
 21
7.594141431
  0
LINE
  5
33F
100
AcDbEntity
  8
0
100
AcDbLine
 62
4
  6
CONTINUOUS
 10
11.2250709086
 20
7.5552822298
 11
11.2167915411
 21
7.5475770729
  0
LINE
  5
340
100
AcDbEntity
  8
0
100
AcDbLine
 62
7
  6
CONTINUOUS
 10
8.7854181043
 20
9.4490884565
 11
8.7548988344
 21
9.4512049751
  0
LINE
  5
341
100
AcDbEntity
  8
0
100
AcDbLine
 62
7
  6
CONTINUOUS
 10
8.7854181043
 20
9.4640461511
 11
8.7693468587
 21
9.4651606958
  0
LINE
  5
342
100
AcDbEntity
  8
0
100
AcDbLine
 62
4
  6
CONTINUOUS
 10
11.2369380453
 20
9.446087026
 11
11.2176195292
 21
9.4764045455
  0
LINE
  5
343
100
AcDbEntity
  8
0
100
AcDbLine
 62
4
  6
CONTINUOUS
 10
11.2755750844
 20
9.4868742021
 11
11.2852343407
 21
9.4717154424
  0
LINE
  5
344
100
AcDbEntity
  8
0
100
AcDbLine
 62
4
  6
CONTINUOUS
 10
12.4172994264
 20
7.7221547264
 11
12.4076401675
 21
7.7373134862
  0
LINE
  5
345
100
AcDbEntity
  8
0
100
AcDbLine
 62
4
  6
CONTINUOUS
 10
12.4849142387
 20
7.7174656232
 11
12.4752549755
 21
7.7326243833
  0
LINE
  5
346
100
AcDbEntity
  8
0
100
AcDbLine
 62
7
  6
CONTINUOUS
 10
12.9239872468
 20
8.8375301718
 11
12.9254591411
 21
8.8389258299
  0
LINE
  5
347
100
AcDbEntity
  8
0
100
AcDbLine
 62
4
  6
CONTINUOUS
 10
11.2659158212
 20
9.4368329665
 11
11.2465973086
 21
9.4381727099
  0
LINE
  5
348
100
AcDbEntity
  8
0
100
AcDbLine
 62
4
  6
CONTINUOUS
 10
11.1983010132
 20
9.4922331771
 11
11.1693232373
 21
9.5014872367
  0
LINE
  5
349
100
AcDbEntity
  8
0
100
AcDbLine
 62
4
  6
CONTINUOUS
 10
11.2465973086
 20
9.4381727099
 11
11.2369380453
 21
9.446087026
  0
LINE
  5
34A
100
AcDbEntity
  8
0
100
AcDbLine
 62
4
  6
CONTINUOUS
 10
11.2176195292
 20
9.4764045455
 11
11.1983010132
 21
9.4922331771
  0
LINE
  5
34B
100
AcDbEntity
  8
0
100
AcDbLine
 62
4
  6
CONTINUOUS
 10
11.2659158212
 20
9.4947885182
 11
11.2755750844
 21
9.4868742021
  0
LINE
  5
34C
100
AcDbEntity
  8
0
100
AcDbLine
 62
4
  6
CONTINUOUS
 10
12.5138920146
 20
7.7589226714
 11
12.5235512709
 21
7.7437639118
  0
LINE
  5
34D
100
AcDbEntity
  8
0
100
AcDbLine
 62
4
  6
CONTINUOUS
 10
11.2852343407
 20
6.7217244646
 11
11.2755750844
 21
6.7079054484
  0
LINE
  5
34E
100
AcDbEntity
  8
0
100
AcDbLine
 62
7
  6
CONTINUOUS
 10
8.7854181043
 20
9.7682338553
 11
12.6491216383
 21
9.5002851052
  0
LINE
  5
34F
100
AcDbEntity
  8
0
100
AcDbLine
 62
4
  6
CONTINUOUS
 10
12.4076401675
 20
7.7373134862
 11
12.4076401675
 21
7.7518023741
  0
LINE
  5
350
100
AcDbEntity
  8
0
100
AcDbLine
 62
4
  6
CONTINUOUS
 10
12.4752549755
 20
7.7471132712
 11
12.4752549755
 21
7.7326243833
  0
LINE
  5
351
100
AcDbEntity
  8
0
100
AcDbLine
 62
4
  6
CONTINUOUS
 10
12.4172994264
 20
7.7656213901
 11
12.4269586853
 21
7.7721959622
  0
LINE
  5
352
100
AcDbEntity
  8
0
100
AcDbLine
 62
4
  6
CONTINUOUS
 10
12.4655957192
 20
7.7188053671
 11
12.4462772031
 21
7.7056562228
  0
LINE
  5
353
100
AcDbEntity
  8
0
100
AcDbLine
 62
4
  6
CONTINUOUS
 10
12.5138920146
 20
7.7154560076
 11
12.5042327514
 21
7.7088814358
  0
LINE
  5
354
100
AcDbEntity
  8
0
100
AcDbLine
 62
4
  6
CONTINUOUS
 10
12.5235512709
 20
7.7437639118
 11
12.5235512709
 21
7.7292750238
  0
LINE
  5
355
100
AcDbEntity
  8
0
100
AcDbLine
 62
7
  6
CONTINUOUS
 10
12.6491216383
 20
9.5002851052
 11
12.6491216383
 21
7.317303173
  0
LINE
  5
356
100
AcDbEntity
  8
0
100
AcDbLine
 62
7
  6
CONTINUOUS
 10
12.6491216383
 20
6.8536376198
 11
12.6491216383
 21
6.4817667192
  0
LINE
  5
357
100
AcDbEntity
  8
0
100
AcDbLine
 62
7
  6
CONTINUOUS
 10
12.6574038412
 20
6.8616376138
 11
12.6574038412
 21
7.3253031671
  0
LINE
  5
358
100
AcDbEntity
  8
0
100
AcDbLine
 62
4
  6
CONTINUOUS
 10
12.4076401675
 20
7.7518023741
 11
12.4172994264
 21
7.7656213901
  0
LINE
  5
359
100
AcDbEntity
  8
0
100
AcDbLine
 62
4
  6
CONTINUOUS
 10
12.4752549755
 20
7.7326243833
 11
12.4655957192
 21
7.7188053671
  0
LINE
  5
35A
100
AcDbEntity
  8
0
100
AcDbLine
 62
4
  6
CONTINUOUS
 10
12.5235512709
 20
7.7292750238
 11
12.5138920146
 21
7.7154560076
  0
LINE
  5
35B
100
AcDbEntity
  8
0
100
AcDbLine
 62
4
  6
CONTINUOUS
 10
11.2755750844
 20
6.7079054484
 11
11.2659158212
 21
6.7013308766
  0
LINE
  5
35C
100
AcDbEntity
  8
0
100
AcDbLine
 62
7
  6
CONTINUOUS
 10
9.5618745988
 20
10.5182332808
 11
13.4255781329
 21
10.2502845307
  0
LINE
  5
35D
100
AcDbEntity
  8
0
100
AcDbLine
 62
7
  6
CONTINUOUS
 10
11.8135851845
 20
6.5397113691
 11
11.8218673873
 21
6.5477113631
  0
LINE
  5
35E
100
AcDbEntity
  8
0
100
AcDbLine
 62
7
  6
CONTINUOUS
 10
12.6491216383
 20
7.317303173
 11
12.6574038412
 21
7.3253031671
  0
LINE
  5
35F
100
AcDbEntity
  8
0
100
AcDbLine
 62
7
  6
CONTINUOUS
 10
12.2772507378
 20
6.5075560537
 11
12.2855329406
 21
6.5155560478
  0
LINE
  5
360
100
AcDbEntity
  8
0
100
AcDbLine
 62
7
  6
CONTINUOUS
 10
12.6491216383
 20
6.8536376198
 11
12.6574038412
 21
6.8616376138
  0
LINE
  5
361
100
AcDbEntity
  8
0
100
AcDbLine
 62
7
  6
CONTINUOUS
 10
13.4255781329
 20
10.2502845307
 11
13.4255781329
 21
7.2317661447
  0
LINE
  5
362
100
AcDbEntity
  8
0
100
AcDbLine
 62
7
  6
CONTINUOUS
 10
12.6491216383
 20
6.4817667192
 11
13.4255781329
 21
7.2317661447
  0
ARC
  5
363
100
AcDbEntity
  8
0
100
AcDbCircle
 62
7
  6
CONTINUOUS
 10
10.9260404018
 20
8.7048025878
 40
2.3268353346
100
AcDbArc
 50
171.6678728683
 51
173.0014994771
  0
ARC
  5
364
100
AcDbEntity
  8
0
100
AcDbCircle
 62
7
  6
CONTINUOUS
 10
9.5629315931
 20
8.5748169907
 40
0.9584571905
100
AcDbArc
 50
189.1014340788
 51
191.5149294916
  0
ARC
  5
365
100
AcDbEntity
  8
0
100
AcDbCircle
 62
7
  6
CONTINUOUS
 10
9.378592017
 20
8.9883684543
 40
0.7758589224
100
AcDbArc
 50
149.406521743
 51
152.3502505567
  0
ARC
  5
366
100
AcDbEntity
  8
0
100
AcDbCircle
 62
7
  6
CONTINUOUS
 10
9.5662501534
 20
8.2830750971
 40
0.70245097
100
AcDbArc
 50
134.5962361198
 51
134.9458332135
  0
ARC
  5
367
100
AcDbEntity
  8
0
100
AcDbCircle
 62
7
  6
CONTINUOUS
 10
11.9935325521
 20
7.1976286418
 40
0.582895473
100
AcDbArc
 50
134.381460077
 51
135.1387132351
  0
ARC
  5
368
100
AcDbEntity
  8
0
100
AcDbCircle
 62
7
  6
CONTINUOUS
 10
12.1139641935
 20
7.0729456364
 40
0.5827562071
100
AcDbArc
 50
312.9427451739
 51
313.4291117561
  0
ARC
  5
369
100
AcDbEntity
  8
0
100
AcDbCircle
 62
7
  6
CONTINUOUS
 10
12.0852532606
 20
7.1319964995
 40
0.4248455007
100
AcDbArc
 50
356.1901015279
 51
358.1161615499
  0
ARC
  5
36A
100
AcDbEntity
  8
0
100
AcDbCircle
 62
7
  6
CONTINUOUS
 10
12.8291386428
 20
7.7557187876
 40
0.0343128096
100
AcDbArc
 50
254.5577590326
 51
265.9922069207
  0
ARC
  5
36B
100
AcDbEntity
  8
0
100
AcDbCircle
 62
7
  6
CONTINUOUS
 10
12.8991097025
 20
8.7646792439
 40
0.0343034166
100
AcDbArc
 50
86.0725802885
 51
97.394487454
  0
SPLINE
  5
36C
100
AcDbEntity
  8
0
100
AcDbSpline
 62
7
  6
CONTINUOUS
 70
0
 71
3
 72
9
 73
5
 74
0
 42
0.0000001
 43
0.0000001
 44
0.0000000001
 40
0.0
 40
0.0
 40
0.0
 40
0.0
 40
0.2576616456
 40
1.0
 40
1.0
 40
1.0
 40
1.0
 10
8.7548988344
 20
9.4512049751
 30
0.0
 10
8.7554944586
 20
9.4518782608
 30
0.0
 10
8.7578294164
 20
9.4544705269
 30
0.0
 10
8.7602600627
 20
9.4569772698
 30
0.0
 10
8.7621228466
 20
9.4587765809
 30
0.0
  0
SPLINE
  5
36D
100
AcDbEntity
  8
0
100
AcDbSpline
 62
7
  6
CONTINUOUS
 70
0
 71
3
 72
9
 73
5
 74
0
 42
0.0000001
 43
0.0000001
 44
0.0000000001
 40
0.0
 40
0.0
 40
0.0
 40
0.0
 40
0.2578199612
 40
1.0
 40
1.0
 40
1.0
 40
1.0
 10
8.7621228466
 20
9.4587765809
 30
0.0
 10
8.7627188818
 20
9.4593523068
 30
0.0
 10
8.7650540846
 20
9.4615609131
 30
0.0
 10
8.7674854161
 20
9.4636688146
 30
0.0
 10
8.7693468587
 20
9.4651606958
 30
0.0
  0
SPLINE
  5
36E
100
AcDbEntity
  8
0
100
AcDbSpline
 62
7
  6
CONTINUOUS
 70
0
 71
3
 72
23
 73
19
 74
0
 42
0.0000001
 43
0.0000001
 44
0.0000000001
 40
0.0
 40
0.0
 40
0.0
 40
0.0
 40
0.0814271046
 40
0.1607817343
 40
0.2379185405
 40
0.312696063
 40
0.3849800266
 40
0.4546476696
 40
0.5215900506
 40
0.5857253305
 40
0.6469976603
 40
0.7053923532
 40
0.760932103
 40
0.8136907295
 40
0.8637864076
 40
0.9113888908
 40
0.9567096643
 40
1.0
 40
1.0
 40
1.0
 40
1.0
 10
8.7548988344
 20
8.2275984458
 30
0.0
 10
8.7509062072
 20
8.2299561319
 30
0.0
 10
8.7430545204
 20
8.2346659342
 30
0.0
 10
8.7315465961
 20
8.2418166692
 30
0.0
 10
8.7204845454
 20
8.2489639597
 30
0.0
 10
8.7099003356
 20
8.2561045725
 30
0.0
 10
8.6998261306
 20
8.2632354727
 30
0.0
 10
8.6902929544
 20
8.2703523376
 30
0.0
 10
8.6813311304
 20
8.2774515639
 30
0.0
 10
8.67296781
 20
8.2845278581
 30
0.0
 10
8.6652278712
 20
8.2915772599
 30
0.0
 10
8.658130929
 20
8.2985940931
 30
0.0
 10
8.6516929279
 20
8.3055743663
 30
0.0
 10
8.6459230496
 20
8.3125127292
 30
0.0
 10
8.6408258786
 20
8.3194054405
 30
0.0
 10
8.6363988785
 20
8.3262482012
 30
0.0
 10
8.6326348181
 20
8.3330371549
 30
0.0
 10
8.6305139144
 20
8.3376218482
 30
0.0
 10
8.6295674919
 20
8.3398980554
 30
0.0
  0
SPLINE
  5
36F
100
AcDbEntity
  8
0
100
AcDbSpline
 62
7
  6
CONTINUOUS
 70
0
 71
3
 72
9
 73
5
 74
0
 42
0.0000001
 43
0.0000001
 44
0.0000000001
 40
0.0
 40
0.0
 40
0.0
 40
0.0
 40
0.4964604369
 40
1.0
 40
1.0
 40
1.0
 40
1.0
 10
8.7107326849
 20
9.3832367614
 30
0.0
 10
8.7175505598
 20
9.3947921099
 30
0.0
 10
8.7318380245
 20
9.417743413
 30
0.0
 10
8.7470479893
 20
9.4400899442
 30
0.0
 10
8.7548988344
 20
9.4512049751
 30
0.0
  0
SPLINE
  5
370
100
AcDbEntity
  8
0
100
AcDbSpline
 62
7
  6
CONTINUOUS
 70
0
 71
3
 72
47
 73
43
 74
0
 42
0.0000001
 43
0.0000001
 44
0.0000000001
 40
0.0
 40
0.0
 40
0.0
 40
0.0
 40
0.0097390954
 40
0.0199695295
 40
0.0306881571
 40
0.0418903579
 40
0.0535693632
 40
0.0657172933
 40
0.0783253324
 40
0.0913829807
 40
0.1188003862
 40
0.1478697904
 40
0.1784776678
 40
0.2104990076
 40
0.2437996245
 40
0.2782371359
 40
0.3136617551
 40
0.3499180255
 40
0.3868455341
 40
0.4242797949
 40
0.462053577
 40
0.4999975974
 40
0.5379416192
 40
0.5757154697
 40
0.6131498368
 40
0.6500774863
 40
0.6863340113
 40
0.7217588358
 40
0.7561965785
 40
0.7894975871
 40
0.8215192438
 40
0.8521274831
 40
0.8811973937
 40
0.9086151749
 40
0.9216731274
 40
0.9342812907
 40
0.9464294722
 40
0.9581088203
 40
0.9693112294
 40
0.9800301946
 40
0.9902609526
 40
1.0
 40
1.0
 40
1.0
 40
1.0
 10
8.6218209507
 20
8.3585095681
 30
0.0
 10
8.6205593314
 20
8.3615407138
 30
0.0
 10
8.618082339
 20
8.3678020959
 30
0.0
 10
8.6145777141
 20
8.3775374146
 30
0.0
 10
8.611196345
 20
8.387836647
 30
0.0
 10
8.6079426491
 20
8.3986875675
 30
0.0
 10
8.6048201602
 20
8.4100772625
 30
0.0
 10
8.6018326729
 20
8.4219922072
 30
0.0
 10
8.5989840237
 20
8.4344183306
 30
0.0
 10
8.5953154155
 20
8.4519343968
 30
0.0
 10
8.591125915
 20
8.4750065615
 30
0.0
 10
8.5867783
 20
8.5040480813
 30
0.0
 10
8.5830541329
 20
8.5347398346
 30
0.0
 10
8.5799712995
 20
8.5669353359
 30
0.0
 10
8.5775450877
 20
8.6004811877
 30
0.0
 10
8.575787632
 20
8.6352172644
 30
0.0
 10
8.5747073641
 20
8.670977657
 30
0.0
 10
8.5743097631
 20
8.7075914706
 30
0.0
 10
8.5745970658
 20
8.7448837053
 30
0.0
 10
8.5755677882
 20
8.7826760786
 30
0.0
 10
8.5772174723
 20
8.8207878624
 30
0.0
 10
8.5795384194
 20
8.8590368034
 30
0.0
 10
8.5825193137
 20
8.8972400004
 30
0.0
 10
8.5861459904
 20
8.9352147457
 30
0.0
 10
8.5904011741
 20
8.9727794537
 30
0.0
 10
8.5952641968
 20
9.0097545383
 30
0.0
 10
8.6007118027
 20
9.0459632093
 30
0.0
 10
8.6067178793
 20
9.0812324087
 30
0.0
 10
8.6132532601
 20
9.1153936707
 30
0.0
 10
8.6202865836
 20
9.148283857
 30
0.0
 10
8.6277840056
 20
9.179745997
 30
0.0
 10
8.63570904
 20
9.2096302993
 30
0.0
 10
8.644023603
 20
9.2377941845
 30
0.0
 10
8.6513578792
 20
9.2600675715
 30
0.0
 10
8.6574090328
 20
9.2769099141
 30
0.0
 10
8.6619457238
 20
9.2888240922
 30
0.0
 10
8.6665492558
 20
9.3002128758
 30
0.0
 10
8.6712139332
 20
9.3110628661
 30
0.0
 10
8.6759344212
 20
9.3213610609
 30
0.0
 10
8.6807051046
 20
9.3310952652
 30
0.0
 10
8.6855198663
 20
9.3402539323
 30
0.0
 10
8.68883741
 20
9.3461135877
 30
0.0
 10
8.690505305
 20
9.3489415812
 30
0.0
  0
SPLINE
  5
371
100
AcDbEntity
  8
0
100
AcDbSpline
 62
7
  6
CONTINUOUS
 70
0
 71
3
 72
21
 73
17
 74
0
 42
0.0000001
 43
0.0000001
 44
0.0000000001
 40
0.0
 40
0.0
 40
0.0
 40
0.0
 40
0.1269527041
 40
0.1902689165
 40
0.2534593491
 40
0.3165116873
 40
0.37941528
 40
0.4421620112
 40
0.5047460954
 40
0.5671657261
 40
0.6294227274
 40
0.6915221182
 40
0.7534726662
 40
0.8152847883
 40
0.8769699244
 40
1.0
 40
1.0
 40
1.0
 40
1.0
 10
8.6165415244
 20
8.4232055663
 30
0.0
 10
8.6104130764
 20
8.4466367235
 30
0.0
 10
8.6020360607
 20
8.4819770128
 30
0.0
 10
8.5928648149
 20
8.529458426
 30
0.0
 10
8.5870874326
 20
8.5651633585
 30
0.0
 10
8.5824900878
 20
8.6009604484
 30
0.0
 10
8.5791460306
 20
8.6368121432
 30
0.0
 10
8.5771142326
 20
8.6726731997
 30
0.0
 10
8.576431762
 20
8.7084932933
 30
0.0
 10
8.5771106731
 20
8.7442200794
 30
0.0
 10
8.57913921
 20
8.7798028488
 30
0.0
 10
8.5824805624
 20
8.8151960568
 30
0.0
 10
8.5870758664
 20
8.8503619858
 30
0.0
 10
8.5928519732
 20
8.8852728509
 30
0.0
 10
8.6020059903
 20
8.931410463
 30
0.0
 10
8.6103939485
 20
8.9656604227
 30
0.0
 10
8.6165415244
 20
8.9883120408
 30
0.0
  0
SPLINE
  5
372
100
AcDbEntity
  8
0
100
AcDbSpline
 62
7
  6
CONTINUOUS
 70
0
 71
3
 72
15
 73
11
 74
0
 42
0.0000001
 43
0.0000001
 44
0.0000000001
 40
0.0
 40
0.0
 40
0.0
 40
0.0
 40
0.1201732322
 40
0.2410336384
 40
0.3629078784
 40
0.4861757754
 40
0.6112294411
 40
0.7384145049
 40
0.8679713593
 40
1.0
 40
1.0
 40
1.0
 40
1.0
 10
8.6237655366
 20
9.0419866913
 30
0.0
 10
8.6231777478
 20
9.0547006728
 30
0.0
 10
8.6226498044
 20
9.0802377531
 30
0.0
 10
8.6240862233
 20
9.1186698816
 30
0.0
 10
8.6280374847
 20
9.1572612399
 30
0.0
 10
8.6347556568
 20
9.1959231798
 30
0.0
 10
8.6444165454
 20
9.2345389112
 30
0.0
 10
8.6570854648
 20
9.2729763849
 30
0.0
 10
8.6727016837
 20
9.3111078299
 30
0.0
 10
8.6848501489
 20
9.3360293853
 30
0.0
 10
8.6913354316
 20
9.3484176916
 30
0.0
  0
SPLINE
  5
373
100
AcDbEntity
  8
0
100
AcDbSpline
 62
7
  6
CONTINUOUS
 70
0
 71
3
 72
9
 73
5
 74
0
 42
0.0000001
 43
0.0000001
 44
0.0000000001
 40
0.0
 40
0.0
 40
0.0
 40
0.0
 40
0.5118119473
 40
1.0
 40
1.0
 40
1.0
 40
1.0
 10
8.6295674919
 20
8.3398980554
 30
0.0
 10
8.6282758473
 20
8.343004544
 30
0.0
 10
8.6260768035
 20
8.3492159217
 30
0.0
 10
8.6246127232
 20
8.3556415616
 30
0.0
 10
8.6240876576
 20
8.3588073415
 30
0.0
  0
SPLINE
  5
374
100
AcDbEntity
  8
0
100
AcDbSpline
 62
7
  6
CONTINUOUS
 70
0
 71
3
 72
11
 73
7
 74
0
 42
0.0000001
 43
0.0000001
 44
0.0000000001
 40
0.0
 40
0.0
 40
0.0
 40
0.0
 40
0.2546540834
 40
0.5052032516
 40
0.7531996566
 40
1.0
 40
1.0
 40
1.0
 40
1.0
 10
8.6240876576
 20
8.3588073415
 30
0.0
 10
8.6237436613
 20
8.3608813997
 30
0.0
 10
8.623221447
 20
8.3650245473
 30
0.0
 10
8.6229240831
 20
8.3712415782
 30
0.0
 10
8.6230922637
 20
8.3773981545
 30
0.0
 10
8.6234961322
 20
8.3814669731
 30
0.0
 10
8.6237655366
 20
8.3834866365
 30
0.0
  0
SPLINE
  5
375
100
AcDbEntity
  8
0
100
AcDbSpline
 62
7
  6
CONTINUOUS
 70
0
 71
3
 72
26
 73
22
 74
0
 42
0.0000001
 43
0.0000001
 44
0.0000000001
 40
0.0
 40
0.0
 40
0.0
 40
0.0
 40
0.0187256557
 40
0.0384081343
 40
0.0590499412
 40
0.0806497228
 40
0.1032016492
 40
0.1266976015
 40
0.1764751647
 40
0.2298714728
 40
0.2867432654
 40
0.3469194502
 40
0.4102074082
 40
0.4763953027
 40
0.5452532469
 40
0.6165379714
 40
0.6899917454
 40
0.765346724
 40
0.8423248847
 40
0.920640084
 40
1.0
 40
1.0
 40
1.0
 40
1.0
 10
9.852792561
 20
8.3533827417
 30
0.0
 10
9.8517985882
 20
8.3553638788
 30
0.0
 10
9.8498402547
 20
8.3594680958
 30
0.0
 10
9.8470515413
 20
8.3658785485
 30
0.0
 10
9.8443413907
 20
8.3726901155
 30
0.0
 10
9.8417127059
 20
8.3798960041
 30
0.0
 10
9.8391677774
 20
8.3874889998
 30
0.0
 10
9.8358252821
 20
8.3983288868
 30
0.0
 10
9.8318982399
 20
8.4128040621
 30
0.0
 10
9.8276435124
 20
8.4312681895
 30
0.0
 10
9.8237784692
 20
8.4510730228
 30
0.0
 10
9.8203185368
 20
8.4721394765
 30
0.0
 10
9.8172780369
 20
8.4943836833
 30
0.0
 10
9.8146696632
 20
8.5177167066
 30
0.0
 10
9.8125037642
 20
8.542045168
 30
0.0
 10
9.8107897026
 20
8.56727154
 30
0.0
 10
9.8095341539
 20
8.5932946952
 30
0.0
 10
9.8087425238
 20
8.6200101923
 30
0.0
 10
9.8084181119
 20
8.6473108495
 30
0.0
 10
9.8085621003
 20
8.675086971
 30
0.0
 10
9.8089681086
 20
8.6937470983
 30
0.0
 10
9.8092480737
 20
8.7031365352
 30
0.0
  0
SPLINE
  5
376
100
AcDbEntity
  8
0
100
AcDbSpline
 62
7
  6
CONTINUOUS
 70
0
 71
3
 72
21
 73
17
 74
0
 42
0.0000001
 43
0.0000001
 44
0.0000000001
 40
0.0
 40
0.0
 40
0.0
 40
0.0
 40
0.0414158274
 40
0.0855226347
 40
0.1324064138
 40
0.1821294663
 40
0.2347294636
 40
0.2902248656
 40
0.3486216762
 40
0.4099109197
 40
0.4740703228
 40
0.5410706621
 40
0.6108732769
 40
0.6834289452
 40
0.8365725809
 40
1.0
 40
1.0
 40
1.0
 40
1.0
 10
10.1517044986
 20
8.312717255
 30
0.0
 10
10.1505156278
 20
8.3142007416
 30
0.0
 10
10.1481670013
 20
8.3173503489
 30
0.0
 10
10.1448278368
 20
8.3224321535
 30
0.0
 10
10.141567284
 20
8.328011008
 30
0.0
 10
10.1383894202
 20
8.3340805546
 30
0.0
 10
10.135297527
 20
8.3406339123
 30
0.0
 10
10.1322949329
 20
8.3476634934
 30
0.0
 10
10.1293853683
 20
8.3551613822
 30
0.0
 10
10.1265721849
 20
8.3631188956
 30
0.0
 10
10.1238584328
 20
8.3715267093
 30
0.0
 10
10.121247526
 20
8.3803751231
 30
0.0
 10
10.1187425689
 20
8.3896538402
 30
0.0
 10
10.115488849
 20
8.402823012
 30
0.0
 10
10.1117310993
 20
8.4202897279
 30
0.0
 10
10.1091660745
 20
8.4345958189
 30
0.0
 10
10.1079520019
 20
8.4419986554
 30
0.0
  0
SPLINE
  5
377
100
AcDbEntity
  8
0
100
AcDbSpline
 62
7
  6
CONTINUOUS
 70
0
 71
3
 72
27
 73
23
 74
0
 42
0.0000001
 43
0.0000001
 44
0.0000000001
 40
0.0
 40
0.0
 40
0.0
 40
0.0
 40
0.0637766796
 40
0.095588271
 40
0.1273466077
 40
0.1907030374
 40
0.2538558037
 40
0.2853602204
 40
0.316816446
 40
0.3795841254
 40
0.4421741849
 40
0.504598913
 40
0.5668722186
 40
0.6290095134
 40
0.6910275664
 40
0.7219999742
 40
0.7529493985
 40
0.8147838932
 40
0.8765559292
 40
0.9074274494
 40
0.9382910677
 40
1.0
 40
1.0
 40
1.0
 40
1.0
 10
10.4101054403
 20
8.145819285
 30
0.0
 10
10.4101054403
 20
8.1333681327
 30
0.0
 10
10.4096580753
 20
8.1147022363
 30
0.0
 10
10.4081612512
 20
8.0898836515
 30
0.0
 10
10.4060702278
 20
8.0651899162
 30
0.0
 10
10.4023411641
 20
8.0345040604
 30
0.0
 10
10.3971228359
 20
8.0040861336
 30
0.0
 10
10.3920648293
 20
7.9799878374
 30
0.0
 10
10.3864302365
 20
7.9560951063
 30
0.0
 10
10.3782973733
 20
7.926566038
 30
0.0
 10
10.3668080927
 20
7.89173629
 30
0.0
 10
10.3536220348
 20
7.8576157532
 30
0.0
 10
10.338769565
 20
7.8242835292
 30
0.0
 10
10.3222851671
 20
7.7918168528
 30
0.0
 10
10.3072122611
 20
7.7655320184
 30
0.0
 10
10.2943795942
 20
7.7450156925
 30
0.0
 10
10.2810467306
 20
7.7248637574
 30
0.0
 10
10.2634360498
 20
7.7003447162
 30
0.0
 10
10.2446005584
 20
7.6767729957
 30
0.0
 10
10.2288320793
 20
7.6585280348
 30
0.0
 10
10.2126085566
 20
7.640703888
 30
0.0
 10
10.1999294749
 20
7.6278099583
 30
0.0
 10
10.191264285
 20
7.6194400183
 30
0.0
  0
SPLINE
  5
378
100
AcDbEntity
  8
0
100
AcDbSpline
 62
7
  6
CONTINUOUS
 70
0
 71
3
 72
15
 73
11
 74
0
 42
0.0000001
 43
0.0000001
 44
0.0000000001
 40
0.0
 40
0.0
 40
0.0
 40
0.0
 40
0.1257663802
 40
0.2512351135
 40
0.3764426054
 40
0.5014276504
 40
0.6262317682
 40
0.7508983742
 40
0.8754724506
 40
1.0
 40
1.0
 40
1.0
 40
1.0
 10
12.6491216383
 20
6.8536376198
 30
0.0
 10
12.645249482
 20
6.8438228736
 30
0.0
 10
12.6369977158
 20
6.8244158328
 30
0.0
 10
12.6231158761
 20
6.7960337114
 30
0.0
 10
12.6077789468
 20
6.768484602
 30
0.0
 10
12.5910259066
 20
6.7418389904
 30
0.0
 10
12.5728988937
 20
6.7161638291
 30
0.0
 10
12.5534433528
 20
6.6915236957
 30
0.0
 10
12.5327091397
 20
6.6679815208
 30
0.0
 10
12.5180656879
 20
6.6530552751
 30
0.0
 10
12.5105516178
 20
6.6457972263
 30
0.0
  0
SPLINE
  5
379
100
AcDbEntity
  8
0
100
AcDbSpline
 62
7
  6
CONTINUOUS
 70
0
 71
3
 72
93
 73
89
 74
0
 42
0.0000001
 43
0.0000001
 44
0.0000000001
 40
0.0
 40
0.0
 40
0.0
 40
0.0
 40
0.0039801937
 40
0.0081241041
 40
0.0124359148
 40
0.0169192388
 40
0.0215771093
 40
0.0264118321
 40
0.0314250806
 40
0.0366180335
 40
0.0419913997
 40
0.0475455037
 40
0.0532802467
 40
0.0591952311
 40
0.0652897068
 40
0.0715626757
 40
0.0780128495
 40
0.0846387141
 40
0.0984099719
 40
0.1128604892
 40
0.1279709624
 40
0.1437195013
 40
0.1600819063
 40
0.1770319017
 40
0.1945413332
 40
0.212580342
 40
0.2311175185
 40
0.2501200437
 40
0.2695538184
 40
0.2893835857
 40
0.3095730469
 40
0.3300849725
 40
0.3508813107
 40
0.3719232934
 40
0.3931715401
 40
0.4145861598
 40
0.4361268527
 40
0.4577530102
 40
0.4794238156
 40
0.5010983429
 40
0.5227356572
 40
0.5442949141
 40
0.5657354594
 40
0.5870169296
 40
0.6080993521
 40
0.6289432461
 40
0.6495097251
 40
0.6697605996
 40
0.6896584831
 40
0.709166899
 40
0.7282503917
 40
0.7468746418
 40
0.765006588
 40
0.7826145549
 40
0.799668391
 40
0.8161396204
 40
0.8320016126
 40
0.8472297755
 40
0.8618017799
 40
0.8756978284
 40
0.8823871435
 40
0.8889013871
 40
0.8952389361
 40
0.901398445
 40
0.9073787802
 40
0.9131791231
 40
0.918798926
 40
0.9242379917
 40
0.9294964788
 40
0.9345749429
 40
0.9394744034
 40
0.9441963488
 40
0.9487428608
 40
0.9531166043
 40
0.9573209881
 40
0.9613601738
 40
0.9652392422
 40
0.9689642523
 40
0.9725423873
 40
0.9759820679
 40
0.9792930569
 40
0.9824865922
 40
0.9855754208
 40
0.9885738722
 40
0.9914977732
 40
0.9943643591
 40
0.9971920207
 40
1.0
 40
1.0
 40
1.0
 40
1.0
 10
12.4465648992
 20
9.9666302898
 30
0.0
 10
12.4449665714
 20
9.9650864236
 30
0.0
 10
12.441631591
 20
9.9620096197
 30
0.0
 10
12.4363366774
 20
9.9575157319
 30
0.0
 10
12.4306529471
 20
9.9530540989
 30
0.0
 10
12.4245835118
 20
9.9486270492
 30
0.0
 10
12.418131307
 20
9.9442366778
 30
0.0
 10
12.4112995251
 20
9.9398850876
 30
0.0
 10
12.4040915643
 20
9.9355744259
 30
0.0
 10
12.396511023
 20
9.9313068745
 30
0.0
 10
12.38856171
 20
9.9270845109
 30
0.0
 10
12.3802475809
 20
9.922909503
 30
0.0
 10
12.3715728238
 20
9.9187838786
 30
0.0
 10
12.3625417743
 20
9.914709783
 30
0.0
 10
12.3531589887
 20
9.9106892054
 30
0.0
 10
12.3434291773
 20
9.9067242324
 30
0.0
 10
12.3333572359
 20
9.9028168025
 30
0.0
 10
12.3192973477
 20
9.897619419
 30
0.0
 10
12.3008951552
 20
9.8912940668
 30
0.0
 10
12.2778067778
 20
9.8840582627
 30
0.0
 10
12.2534838017
 20
9.8770974444
 30
0.0
 10
12.2279753237
 20
9.8704257769
 30
0.0
 10
12.2013326552
 20
9.8640568476
 30
0.0
 10
12.1736095285
 20
9.8580036301
 30
0.0
 10
12.1448618829
 20
9.8522784556
 30
0.0
 10
12.1151477694
 20
9.8468929855
 30
0.0
 10
12.084527219
 20
9.8418581873
 30
0.0
 10
12.053062118
 20
9.8371843122
 30
0.0
 10
12.020816078
 20
9.8328808745
 30
0.0
 10
11.9878543045
 20
9.8289566326
 30
0.0
 10
11.9542434625
 20
9.8254195719
 30
0.0
 10
11.9200515397
 20
9.8222768878
 30
0.0
 10
11.885347707
 20
9.8195349718
 30
0.0
 10
11.8502021769
 20
9.8171993997
 30
0.0
 10
11.8146860596
 20
9.8152749205
 30
0.0
 10
11.7788712189
 20
9.8137654468
 30
0.0
 10
11.7428301255
 20
9.8126740475
 30
0.0
 10
11.7066357097
 20
9.8120029412
 30
0.0
 10
11.6703612138
 20
9.8117534926
 30
0.0
 10
11.6340800427
 20
9.8119262089
 30
0.0
 10
11.5978656153
 20
9.8125207396
 30
0.0
 10
11.5617912149
 20
9.8135358764
 30
0.0
 10
11.52592984
 20
9.8149695551
 30
0.0
 10
11.4903540561
 20
9.8168188606
 30
0.0
 10
11.4551358479
 20
9.8190800327
 30
0.0
 10
11.4203464731
 20
9.8217484735
 30
0.0
 10
11.3860563174
 20
9.8248187563
 30
0.0
 10
11.3523347508
 20
9.8282846367
 30
0.0
 10
11.3192499865
 20
9.8321390644
 30
0.0
 10
11.2868689406
 20
9.8363741972
 30
0.0
 10
11.2552570953
 20
9.8409814169
 30
0.0
 10
11.2244783632
 20
9.845951346
 30
0.0
 10
11.1945949542
 20
9.8512738652
 30
0.0
 10
11.1656672455
 20
9.8569381352
 30
0.0
 10
11.137753657
 20
9.8629326187
 30
0.0
 10
11.1109105191
 20
9.8692451039
 30
0.0
 10
11.0851919763
 20
9.8758627321
 30
0.0
 10
11.0606497762
 20
9.8827720232
 30
0.0
 10
11.0373334682
 20
9.8899589201
 30
0.0
 10
11.0187350298
 20
9.8962442594
 30
0.0
 10
11.0045138465
 20
9.9014108592
 30
0.0
 10
10.9943187646
 20
9.9052968437
 30
0.0
 10
10.9844639972
 20
9.9092411378
 30
0.0
 10
10.9749544828
 20
9.9132417148
 30
0.0
 10
10.965795024
 20
9.9172966073
 30
0.0
 10
10.9569902126
 20
9.9214037212
 30
0.0
 10
10.9485444807
 20
9.925561026
 30
0.0
 10
10.9404620597
 20
9.9297664143
 30
0.0
 10
10.9327469961
 20
9.9340177785
 30
0.0
 10
10.9254031582
 20
9.9383130191
 30
0.0
 10
10.9184341933
 20
9.9426499587
 30
0.0
 10
10.9118436033
 20
9.9470265144
 30
0.0
 10
10.9056346311
 20
9.9514404659
 30
0.0
 10
10.8998104069
 20
9.9558897434
 30
0.0
 10
10.8943737816
 20
9.9603721282
 30
0.0
 10
10.8893275074
 20
9.9648855537
 30
0.0
 10
10.8846740801
 20
9.9694278519
 30
0.0
 10
10.8804158801
 20
9.9739969512
 30
0.0
 10
10.8765551102
 20
9.978590763
 30
0.0
 10
10.8730938118
 20
9.9832071993
 30
0.0
 10
10.8700339765
 20
9.9878442248
 30
0.0
 10
10.8673773665
 20
9.9924996898
 30
0.0
 10
10.8651258216
 20
9.9971714906
 30
0.0
 10
10.8632808654
 20
10.0018573069
 30
0.0
 10
10.8618441198
 20
10.0065547248
 30
0.0
 10
10.8608167841
 20
10.0112612048
 30
0.0
 10
10.8601999764
 20
10.0159734631
 30
0.0
 10
10.8600627123
 20
10.019121619
 30
0.0
 10
10.8600627182
 20
10.0206893549
 30
0.0
  0
SPLINE
  5
37A
100
AcDbEntity
  8
0
100
AcDbSpline
 62
7
  6
CONTINUOUS
 70
0
 71
3
 72
23
 73
19
 74
0
 42
0.0000001
 43
0.0000001
 44
0.0000000001
 40
0.0
 40
0.0
 40
0.0
 40
0.0
 40
0.0637773819
 40
0.1273447421
 40
0.1907019992
 40
0.253856141
 40
0.3168131832
 40
0.3795820983
 40
0.4421733889
 40
0.504599339
 40
0.5668738661
 40
0.6290123801
 40
0.6910316522
 40
0.752949648
 40
0.8147853569
 40
0.876558605
 40
0.9382898554
 40
1.0
 40
1.0
 40
1.0
 40
1.0
 10
10.1606889501
 20
8.2214014412
 30
0.0
 10
10.1606889501
 20
8.2138336034
 30
0.0
 10
10.1603267351
 20
8.1987202841
 30
0.0
 10
10.1586918118
 20
8.1761422168
 30
0.0
 10
10.1559696988
 20
8.1537431619
 30
0.0
 10
10.1521668349
 20
8.1315756104
 30
0.0
 10
10.1472917818
 20
8.1096903173
 30
0.0
 10
10.1413557879
 20
8.0881378499
 30
0.0
 10
10.1343724563
 20
8.0669678715
 30
0.0
 10
10.1263578596
 20
8.0462292033
 30
0.0
 10
10.1173304382
 20
8.0259696706
 30
0.0
 10
10.1073109672
 20
8.0062360018
 30
0.0
 10
10.0963225171
 20
7.9870737224
 30
0.0
 10
10.0843903785
 20
7.9685270367
 30
0.0
 10
10.0715420887
 20
7.9506387733
 30
0.0
 10
10.057807129
 20
7.9334500515
 30
0.0
 10
10.0432177092
 20
7.9170010661
 30
0.0
 10
10.0329422914
 20
7.9065515917
 30
0.0
 10
10.0276755131
 20
7.9014642915
 30
0.0
  0
SPLINE
  5
37B
100
AcDbEntity
  8
0
100
AcDbSpline
 62
7
  6
CONTINUOUS
 70
0
 71
3
 72
26
 73
22
 74
0
 42
0.0000001
 43
0.0000001
 44
0.0000000001
 40
0.0
 40
0.0
 40
0.0
 40
0.0
 40
0.1610287712
 40
0.2396400732
 40
0.3165589812
 40
0.3914809527
 40
0.4641081814
 40
0.5341411194
 40
0.6012759208
 40
0.665202843
 40
0.7256076566
 40
0.7821781637
 40
0.8089365084
 40
0.8346284598
 40
0.8592244776
 40
0.8827001182
 40
0.9050390319
 40
0.9262348937
 40
0.946295269
 40
0.9652458049
 40
1.0
 40
1.0
 40
1.0
 40
1.0
 10
9.6602653777
 20
7.9775256883
 30
0.0
 10
9.6570537059
 20
7.9790728786
 30
0.0
 10
9.6523531889
 20
7.9815461276
 30
0.0
 10
9.6463416251
 20
7.9851503763
 30
0.0
 10
9.6420671601
 20
7.9879381096
 30
0.0
 10
9.6380127838
 20
7.9908137589
 30
0.0
 10
9.6341990761
 20
7.9937585444
 30
0.0
 10
9.6306464145
 20
7.9967525611
 30
0.0
 10
9.627375163
 20
7.9997746637
 30
0.0
 10
9.6244058956
 20
8.0028023307
 30
0.0
 10
9.6217598109
 20
8.0058113183
 30
0.0
 10
9.6198067534
 20
8.0083267449
 30
0.0
 10
9.6184314269
 20
8.0103106986
 30
0.0
 10
9.6175142147
 20
8.0117493346
 30
0.0
 10
9.6166948582
 20
8.0131625212
 30
0.0
 10
9.6159761222
 20
8.014546398
 30
0.0
 10
9.6153607627
 20
8.0158970789
 30
0.0
 10
9.6148513799
 20
8.0172104469
 30
0.0
 10
9.6144504827
 20
8.0184829782
 30
0.0
 10
9.6140747698
 20
8.0200727167
 30
0.0
 10
9.6139415141
 20
8.0212634767
 30
0.0
 10
9.6139415554
 20
8.0220328785
 30
0.0
  0
SPLINE
  5
37C
100
AcDbEntity
  8
0
100
AcDbSpline
 62
7
  6
CONTINUOUS
 70
0
 71
3
 72
45
 73
41
 74
0
 42
0.0000001
 43
0.0000001
 44
0.0000000001
 40
0.0
 40
0.0
 40
0.0
 40
0.0
 40
0.0310742614
 40
0.0623057426
 40
0.0936898446
 40
0.125217908
 40
0.1568785541
 40
0.1886576029
 40
0.220538447
 40
0.2525024129
 40
0.2845291516
 40
0.3165970575
 40
0.3486837056
 40
0.3807662986
 40
0.4128221195
 40
0.4448289838
 40
0.4767656829
 40
0.5086124157
 40
0.5403511993
 40
0.5719662505
 40
0.6034443338
 40
0.6347750718
 40
0.6659512006
 40
0.6969687676
 40
0.7278272698
 40
0.7585297197
 40
0.7890826279
 40
0.8194959081
 40
0.8346570226
 40
0.8497884117
 40
0.8648921795
 40
0.8799705898
 40
0.8950260592
 40
0.9100611439
 40
0.9250785187
 40
0.9400809684
 40
0.9550713684
 40
0.9700526647
 40
0.9850278616
 40
1.0
 40
1.0
 40
1.0
 40
1.0
 10
10.1606889501
 20
8.2214014412
 30
0.0
 10
10.1606889501
 20
8.2331429099
 30
0.0
 10
10.1598130586
 20
8.2566942882
 30
0.0
 10
10.1559024177
 20
8.2919086039
 30
0.0
 10
10.1494137036
 20
8.3269161443
 30
0.0
 10
10.1403827703
 20
8.3615221887
 30
0.0
 10
10.128859591
 20
8.3955373557
 30
0.0
 10
10.1149077463
 20
8.4287747818
 30
0.0
 10
10.098604071
 20
8.4610521182
 30
0.0
 10
10.0800382183
 20
8.4921922187
 30
0.0
 10
10.0593122617
 20
8.5220242303
 30
0.0
 10
10.0365400797
 20
8.550384477
 30
0.0
 10
10.011846703
 20
8.5771173221
 30
0.0
 10
9.9853676579
 20
8.6020760178
 30
0.0
 10
9.9572482924
 20
8.6251235739
 30
0.0
 10
9.9276429066
 20
8.6461334285
 30
0.0
 10
9.8967139204
 20
8.664990122
 30
0.0
 10
9.8646310351
 20
8.6815899819
 30
0.0
 10
9.8315703104
 20
8.6958417078
 30
0.0
 10
9.7977131729
 20
8.7076667977
 30
0.0
 10
9.7632454498
 20
8.7169999779
 30
0.0
 10
9.7283563898
 20
8.7237896712
 30
0.0
 10
9.6932376191
 20
8.7279982206
 30
0.0
 10
9.6580820639
 20
8.7296020562
 30
0.0
 10
9.623083069
 20
8.7285919281
 30
0.0
 10
9.5884327688
 20
8.7249728555
 30
0.0
 10
9.5543231351
 20
8.7187647714
 30
0.0
 10
9.526471057
 20
8.7114524862
 30
0.0
 10
9.5046562114
 20
8.7043481144
 30
0.0
 10
9.4885605346
 20
8.6984056913
 30
0.0
 10
9.4727378067
 20
8.6918524326
 30
0.0
 10
9.457209518
 20
8.6846971893
 30
0.0
 10
9.4419970988
 20
8.6769498781
 30
0.0
 10
9.4271214544
 20
8.6686211527
 30
0.0
 10
9.4126031077
 20
8.6597223989
 30
0.0
 10
9.3984619863
 20
8.6502659317
 30
0.0
 10
9.3847175908
 20
8.6402647427
 30
0.0
 10
9.3713887991
 20
8.6297324925
 30
0.0
 10
9.3584941444
 20
8.6186839967
 30
0.0
 10
9.3501981056
 20
8.6109833709
 30
0.0
 10
9.3461290953
 20
8.6070530219
 30
0.0
  0
SPLINE
  5
37D
100
AcDbEntity
  8
0
100
AcDbSpline
 62
7
  6
CONTINUOUS
 70
0
 71
3
 72
23
 73
19
 74
0
 42
0.0000001
 43
0.0000001
 44
0.0000000001
 40
0.0
 40
0.0
 40
0.0
 40
0.0
 40
0.0637771706
 40
0.1273448423
 40
0.190701976
 40
0.2538561364
 40
0.3168131911
 40
0.379582093
 40
0.4421733865
 40
0.504599335
 40
0.5668738647
 40
0.6290123811
 40
0.6910316516
 40
0.752949644
 40
0.8147853513
 40
0.8765586011
 40
0.9382898546
 40
1.0
 40
1.0
 40
1.0
 40
1.0
 10
12.4810398685
 20
7.1451158643
 30
0.0
 10
12.4810398685
 20
7.1388980691
 30
0.0
 10
12.4807422604
 20
7.1264807964
 30
0.0
 10
12.4793990033
 20
7.1079304183
 30
0.0
 10
12.4771624762
 20
7.0895270981
 30
0.0
 10
12.4740380135
 20
7.0713140104
 30
0.0
 10
12.470032618
 20
7.0533328195
 30
0.0
 10
12.4651555283
 20
7.0356250875
 30
0.0
 10
12.4594179505
 20
7.0182316099
 30
0.0
 10
12.4528330795
 20
7.0011924974
 30
0.0
 10
12.4454160643
 20
6.9845470457
 30
0.0
 10
12.43718396
 20
6.9683336538
 30
0.0
 10
12.4281557168
 20
6.9525897314
 30
0.0
 10
12.4183521409
 20
6.9373515818
 30
0.0
 10
12.4077958598
 20
6.9226543883
 30
0.0
 10
12.3965110806
 20
6.908531945
 30
0.0
 10
12.3845242691
 20
6.8950172721
 30
0.0
 10
12.3760818422
 20
6.8864319081
 30
0.0
 10
12.3717546155
 20
6.8822521134
 30
0.0
  0
SPLINE
  5
37E
100
AcDbEntity
  8
0
100
AcDbSpline
 62
7
  6
CONTINUOUS
 70
0
 71
3
 72
39
 73
35
 74
0
 42
0.0000001
 43
0.0000001
 44
0.0000000001
 40
0.0
 40
0.0
 40
0.0
 40
0.0
 40
0.0310753533
 40
0.062307914
 40
0.0936931276
 40
0.125222289
 40
0.1568840436
 40
0.1886642048
 40
0.2205461649
 40
0.252511249
 40
0.2845391082
 40
0.3166081364
 40
0.3486959074
 40
0.3807796231
 40
0.412836566
 40
0.44484455
 40
0.4767823665
 40
0.508630214
 40
0.5403701087
 40
0.5719862657
 40
0.6034654504
 40
0.634797285
 40
0.6659745047
 40
0.6969931573
 40
0.7278527396
 40
0.7585562634
 40
0.7891102405
 40
0.8195245856
 40
0.8498124374
 40
0.8799898958
 40
0.9100756749
 40
0.9400906815
 40
0.970057529
 40
1.0
 40
1.0
 40
1.0
 40
1.0
 10
12.4810398685
 20
7.1451158643
 30
0.0
 10
12.4810398685
 20
7.1547627808
 30
0.0
 10
12.4803202295
 20
7.1741128402
 30
0.0
 10
12.477107199
 20
7.2030452961
 30
0.0
 10
12.4717760004
 20
7.2318078601
 30
0.0
 10
12.4643560942
 20
7.2602405565
 30
0.0
 10
12.4548885403
 20
7.2881877814
 30
0.0
 10
12.4434255446
 20
7.3154959989
 30
0.0
 10
12.4300302589
 20
7.3420153934
 30
0.0
 10
12.4147763723
 20
7.3676004381
 30
0.0
 10
12.3977477199
 20
7.3921107449
 30
0.0
 10
12.3790378385
 20
7.4154118126
 30
0.0
 10
12.3587494868
 20
7.4373757899
 30
0.0
 10
12.3369940363
 20
7.4578821326
 30
0.0
 10
12.3138908771
 20
7.4768182617
 30
0.0
 10
12.2895667666
 20
7.4940801651
 30
0.0
 10
12.2641551785
 20
7.5095730143
 30
0.0
 10
12.2377955467
 20
7.5232116482
 30
0.0
 10
12.2106325082
 20
7.5349210264
 30
0.0
 10
12.182815121
 20
7.5446366338
 30
0.0
 10
12.1544960735
 20
7.5523048698
 30
0.0
 10
12.1258308541
 20
7.5578833598
 30
0.0
 10
12.0969768961
 20
7.5613411472
 30
0.0
 10
12.0680927324
 20
7.5626588808
 30
0.0
 10
12.0393371387
 20
7.5618289347
 30
0.0
 10
12.0108682645
 20
7.558855526
 30
0.0
 10
11.9828427657
 20
7.5537546485
 30
0.0
 10
11.9554149443
 20
7.5465540065
 30
0.0
 10
11.9287359157
 20
7.537292888
 30
0.0
 10
11.9029526972
 20
7.5260219737
 30
0.0
 10
11.8782075754
 20
7.512803237
 30
0.0
 10
11.8546365927
 20
7.4977088968
 30
0.0
 10
11.8323714702
 20
7.4808236049
 30
0.0
 10
11.8184744841
 20
7.4684291285
 30
0.0
 10
11.8117888593
 20
7.4619712883
 30
0.0
  0
SPLINE
  5
37F
100
AcDbEntity
  8
0
100
AcDbSpline
 62
7
  6
CONTINUOUS
 70
0
 71
3
 72
82
 73
78
 74
0
 42
0.0000001
 43
0.0000001
 44
0.0000000001
 40
0.0
 40
0.0
 40
0.0
 40
0.0
 40
0.0039143727
 40
0.0079857726
 40
0.0122181152
 40
0.0166147489
 40
0.0211785364
 40
0.0259117756
 40
0.0308160969
 40
0.0358926719
 40
0.041142244
 40
0.0465651599
 40
0.0521614627
 40
0.0579308153
 40
0.0699855569
 40
0.0827220335
 40
0.0961286926
 40
0.1101908438
 40
0.1248910481
 40
0.1402094259
 40
0.1561239315
 40
0.1726105705
 40
0.1896435834
 40
0.2071955981
 40
0.2252377695
 40
0.2437399208
 40
0.2626706627
 40
0.2819975026
 40
0.3016869439
 40
0.3217045866
 40
0.3420152336
 40
0.3625829839
 40
0.3833713242
 40
0.4043432163
 40
0.4466867346
 40
0.4893109605
 40
0.531909974
 40
0.5741780937
 40
0.5950936669
 40
0.615813441
 40
0.6363005425
 40
0.656518649
 40
0.6764320788
 40
0.6960058841
 40
0.7152059557
 40
0.7339991185
 40
0.7523532295
 40
0.7702372825
 40
0.787621523
 40
0.804477583
 40
0.8207786068
 40
0.836499394
 40
0.8516165656
 40
0.8661087616
 40
0.8799568838
 40
0.8931443611
 40
0.9056574837
 40
0.9174858285
 40
0.923141264
 40
0.9286234132
 40
0.9339321582
 40
0.9390677327
 40
0.9440307678
 40
0.9488222632
 40
0.9534437365
 40
0.9578971825
 40
0.962185183
 40
0.9663109917
 40
0.9702785441
 40
0.9740926424
 40
0.9777589686
 40
0.9812842279
 40
0.9879413164
 40
0.9910954236
 40
0.994147539
 40
0.9971108616
 40
1.0
 40
1.0
 40
1.0
 40
1.0
 10
12.2224700942
 20
9.9512616883
 30
0.0
 10
12.2213602536
 20
9.9501896645
 30
0.0
 10
12.2190469556
 20
9.9480529671
 30
0.0
 10
12.2153787564
 20
9.9449300369
 30
0.0
 10
12.2114470421
 20
9.9418288282
 30
0.0
 10
12.2072538672
 20
9.9387509637
 30
0.0
 10
12.2028012111
 20
9.9356977834
 30
0.0
 10
12.1980911185
 20
9.9326707263
 30
0.0
 10
12.1931258338
 20
9.9296711434
 30
0.0
 10
12.187907705
 20
9.9267004976
 30
0.0
 10
12.1824392199
 20
9.923760206
 30
0.0
 10
12.1767229977
 20
9.920851635
 30
0.0
 10
12.1707617321
 20
9.9179761959
 30
0.0
 10
12.1623672978
 20
9.9141319312
 30
0.0
 10
12.1512727928
 20
9.909429882
 30
0.0
 10
12.1372178461
 20
9.9040204891
 30
0.0
 10
12.1222598251
 20
9.8987750493
 30
0.0
 10
12.1064273515
 20
9.893703682
 30
0.0
 10
12.0897505559
 20
9.8888161816
 30
0.0
 10
12.0722613299
 20
9.8841219947
 30
0.0
 10
12.0539931507
 20
9.8796302055
 30
0.0
 10
12.0349810299
 20
9.8753495104
 30
0.0
 10
12.0152614336
 20
9.8712882016
 30
0.0
 10
11.9948722153
 20
9.8674541444
 30
0.0
 10
11.9738525387
 20
9.8638547546
 30
0.0
 10
11.952242793
 20
9.8604969977
 30
0.0
 10
11.9300845096
 20
9.8573873711
 30
0.0
 10
11.9074202828
 20
9.8545318947
 30
0.0
 10
11.8842936911
 20
9.8519360927
 30
0.0
 10
11.8607492115
 20
9.8496049799
 30
0.0
 10
11.8368321253
 20
9.8475430611
 30
0.0
 10
11.8125884446
 20
9.8457543295
 30
0.0
 10
11.788064764
 20
9.8442422218
 30
0.0
 10
11.7549515018
 20
9.8425937189
 30
0.0
 10
11.7132078353
 20
9.8412477343
 30
0.0
 10
11.6629191397
 20
9.8407721483
 30
0.0
 10
11.6126622836
 20
9.8414350296
 30
0.0
 10
11.5709858077
 20
9.8429367987
 30
0.0
 10
11.5379580128
 20
9.8447093526
 30
0.0
 10
11.5135213306
 20
9.8463128989
 30
0.0
 10
11.4893800654
 20
9.848191984
 30
0.0
 10
11.4655806146
 20
9.8503430015
 30
0.0
 10
11.4421687656
 20
9.8527617873
 30
0.0
 10
11.4191895442
 20
9.8554436716
 30
0.0
 10
11.3966871391
 20
9.8583834646
 30
0.0
 10
11.3747048116
 20
9.8615754766
 30
0.0
 10
11.3532848171
 20
9.8650135318
 30
0.0
 10
11.332468323
 20
9.8686909788
 30
0.0
 10
11.3122953243
 20
9.8726007056
 30
0.0
 10
11.2928045579
 20
9.8767351395
 30
0.0
 10
11.2740334267
 20
9.8810862728
 30
0.0
 10
11.2560179285
 20
9.8856456809
 30
0.0
 10
11.2387925841
 20
9.8904045388
 30
0.0
 10
11.2223903498
 20
9.8953536444
 30
0.0
 10
11.2068425645
 20
9.9004834232
 30
0.0
 10
11.1921787815
 20
9.9057839775
 30
0.0
 10
11.178427047
 20
9.9112450929
 30
0.0
 10
11.1675925069
 20
9.9159894087
 30
0.0
 10
11.1594106926
 20
9.9198659237
 30
0.0
 10
11.1536104709
 20
9.9227633417
 30
0.0
 10
11.1480570903
 20
9.9256929529
 30
0.0
 10
11.1427531933
 20
9.9286534018
 30
0.0
 10
11.1377012857
 20
9.9316432345
 30
0.0
 10
11.1329037934
 20
9.9346610997
 30
0.0
 10
11.1283629652
 20
9.9377055256
 30
0.0
 10
11.124080962
 20
9.9407751157
 30
0.0
 10
11.120059819
 20
9.9438684642
 30
0.0
 10
11.1163014123
 20
9.946984098
 30
0.0
 10
11.1128075504
 20
9.9501206928
 30
0.0
 10
11.1095799302
 20
9.9532767047
 30
0.0
 10
11.1066198746
 20
9.9564510617
 30
0.0
 10
11.1030998269
 20
9.9606255501
 30
0.0
 10
11.1000315973
 20
9.9649122156
 30
0.0
 10
11.0974858008
 20
9.9693010767
 30
0.0
 10
11.0958847655
 20
9.9725451759
 30
0.0
 10
11.0945591564
 20
9.9757986282
 30
0.0
 10
11.0938517336
 20
9.977997413
 30
0.0
 10
11.0935465697
 20
9.9790946639
 30
0.0
  0
SPLINE
  5
380
100
AcDbEntity
  8
0
100
AcDbSpline
 62
7
  6
CONTINUOUS
 70
0
 71
3
 72
15
 73
11
 74
0
 42
0.0000001
 43
0.0000001
 44
0.0000000001
 40
0.0
 40
0.0
 40
0.0
 40
0.0
 40
0.1431427736
 40
0.2803166142
 40
0.4118290254
 40
0.5380567657
 40
0.6594450646
 40
0.7765033405
 40
0.8898074065
 40
1.0
 40
1.0
 40
1.0
 40
1.0
 10
12.2224700942
 20
9.9512616883
 30
0.0
 10
12.223622869
 20
9.9523751834
 30
0.0
 10
12.2258302273
 20
9.9546085704
 30
0.0
 10
12.2288995704
 20
9.958052639
 30
0.0
 10
12.2316529387
 20
9.9615157966
 30
0.0
 10
12.2340884564
 20
9.9649961245
 30
0.0
 10
12.2362045844
 20
9.9684919082
 30
0.0
 10
12.2379998298
 20
9.9720015361
 30
0.0
 10
12.2394727284
 20
9.9755227617
 30
0.0
 10
12.240248162
 20
9.9779056825
 30
0.0
 10
12.2405787592
 20
9.9790943659
 30
0.0
  0
SPLINE
  5
381
100
AcDbEntity
  8
0
100
AcDbSpline
 62
7
  6
CONTINUOUS
 70
0
 71
3
 72
58
 73
54
 74
0
 42
0.0000001
 43
0.0000001
 44
0.0000000001
 40
0.0
 40
0.0
 40
0.0
 40
0.0
 40
0.014971111
 40
0.0299452811
 40
0.0449255502
 40
0.0599149211
 40
0.0749163417
 40
0.0899326866
 40
0.1049667392
 40
0.1200211759
 40
0.1350985513
 40
0.1502012824
 40
0.165331634
 40
0.1804917074
 40
0.1956834293
 40
0.2109085411
 40
0.2261685883
 40
0.2414649152
 40
0.2567986583
 40
0.2721707408
 40
0.2875818677
 40
0.3030325254
 40
0.318522981
 40
0.334053281
 40
0.3496232521
 40
0.365232506
 40
0.3808804426
 40
0.3965662542
 40
0.4122889298
 40
0.4280472648
 40
0.4438398679
 40
0.4596651681
 40
0.4914017738
 40
0.5232463224
 40
0.5551808304
 40
0.5871854993
 40
0.6192391213
 40
0.6513195142
 40
0.6834039616
 40
0.7154696684
 40
0.7474942105
 40
0.7794559844
 40
0.8113346428
 40
0.8431115119
 40
0.8747699871
 40
0.8905528157
 40
0.9063009566
 40
0.9220130615
 40
0.9376880001
 40
0.9533248253
 40
0.9689226351
 40
0.984481423
 40
1.0
 40
1.0
 40
1.0
 40
1.0
 10
9.0699422197
 20
8.7803158723
 30
0.0
 10
9.0766367875
 20
8.7867823353
 30
0.0
 10
9.0902859324
 20
8.7994518725
 30
0.0
 10
9.1115009496
 20
8.8176295868
 30
0.0
 10
9.1334303066
 20
8.8349578571
 30
0.0
 10
9.1560433895
 20
8.8514124574
 30
0.0
 10
9.1793091864
 20
8.8669708606
 30
0.0
 10
9.2031956619
 20
8.8816116112
 30
0.0
 10
9.2276699447
 20
8.8953145809
 30
0.0
 10
9.252698335
 20
8.9080609478
 30
0.0
 10
9.2782463897
 20
8.9198331867
 30
0.0
 10
9.3042789619
 20
8.9306150865
 30
0.0
 10
9.3307602213
 20
8.940391838
 30
0.0
 10
9.3576537196
 20
8.9491500309
 30
0.0
 10
9.3849224543
 20
8.9568776332
 30
0.0
 10
9.4125289148
 20
8.9635640034
 30
0.0
 10
9.440435114
 20
8.969199981
 30
0.0
 10
9.4686026574
 20
8.9737778554
 30
0.0
 10
9.4969927999
 20
8.9772913478
 30
0.0
 10
9.5255664937
 20
8.9797356161
 30
0.0
 10
9.5542844343
 20
8.9811073443
 30
0.0
 10
9.5831071247
 20
8.9814046852
 30
0.0
 10
9.6119949289
 20
8.9806272453
 30
0.0
 10
9.6409081202
 20
8.9787760847
 30
0.0
 10
9.6698069413
 20
8.9758537984
 30
0.0
 10
9.6986516583
 20
8.9718644387
 30
0.0
 10
9.7274026146
 20
8.9668135001
 30
0.0
 10
9.7560202679
 20
8.9607079228
 30
0.0
 10
9.784465311
 20
8.9535561358
 30
0.0
 10
9.8126985283
 20
8.9453680523
 30
0.0
 10
9.8406815357
 20
8.9361547311
 30
0.0
 10
9.8776376038
 20
8.922509224
 30
0.0
 10
9.9230137981
 20
8.902948923
 30
0.0
 10
9.9757973253
 20
8.8756382245
 30
0.0
 10
10.0266839051
 20
8.8446139763
 30
0.0
 10
10.0753924128
 20
8.8100473449
 30
0.0
 10
10.1216561417
 20
8.772128125
 30
0.0
 10
10.1652210452
 20
8.7310645479
 30
0.0
 10
10.205848134
 20
8.6870820915
 30
0.0
 10
10.2433143101
 20
8.6404221031
 30
0.0
 10
10.2774139356
 20
8.5913406575
 30
0.0
 10
10.3079595529
 20
8.5401071483
 30
0.0
 10
10.3347834963
 20
8.4870022264
 30
0.0
 10
10.3577375816
 20
8.4323191879
 30
0.0
 10
10.3735541638
 20
8.3856295775
 30
0.0
 10
10.3841500222
 20
8.3477929772
 30
0.0
 10
10.3910536754
 20
8.3192376694
 30
0.0
 10
10.3969115403
 20
8.2905184189
 30
0.0
 10
10.4017157002
 20
8.2616742372
 30
0.0
 10
10.4054594238
 20
8.2327450117
 30
0.0
 10
10.4081376962
 20
8.2037701185
 30
0.0
 10
10.4097466137
 20
8.1747902158
 30
0.0
 10
10.4101054403
 20
8.1554673006
 30
0.0
 10
10.4101054403
 20
8.145819285
 30
0.0
  0
SPLINE
  5
382
100
AcDbEntity
  8
0
100
AcDbSpline
 62
7
  6
CONTINUOUS
 70
0
 71
3
 72
39
 73
35
 74
0
 42
0.0000001
 43
0.0000001
 44
0.0000000001
 40
0.0
 40
0.0
 40
0.0
 40
0.0
 40
0.0306154392
 40
0.061336936
 40
0.0921623306
 40
0.1230894186
 40
0.1541144153
 40
0.1852328376
 40
0.2164392188
 40
0.2477272853
 40
0.2790899855
 40
0.3105195719
 40
0.342007675
 40
0.3735453844
 40
0.4051233338
 40
0.4367317885
 40
0.4683607356
 40
0.4999999758
 40
0.531639216
 40
0.5632681635
 40
0.594876619
 40
0.6264545697
 40
0.657992281
 40
0.6894803867
 40
0.7209099764
 40
0.7522726804
 40
0.7835607506
 40
0.814767137
 40
0.8458855595
 40
0.8769105732
 40
0.9078376282
 40
0.9386631213
 40
0.9693844403
 40
1.0
 40
1.0
 40
1.0
 40
1.0
 10
10.1942928382
 20
8.1693607815
 30
0.0
 10
10.1942928302
 20
8.1786642641
 30
0.0
 10
10.1938242823
 20
8.1973067664
 30
0.0
 10
10.1917262822
 20
8.2252455176
 30
0.0
 10
10.1882371293
 20
8.2531408824
 30
0.0
 10
10.1833657816
 20
8.2809216714
 30
0.0
 10
10.1771244706
 20
8.3085183412
 30
0.0
 10
10.1695290002
 20
8.3358613904
 30
0.0
 10
10.1605985034
 20
8.3628820915
 30
0.0
 10
10.1503554964
 20
8.3895124953
 30
0.0
 10
10.1388257762
 20
8.4156856479
 30
0.0
 10
10.1260383737
 20
8.4413357454
 30
0.0
 10
10.1120254745
 20
8.4663983011
 30
0.0
 10
10.0968223393
 20
8.490810306
 30
0.0
 10
10.0804672186
 20
8.5145103884
 30
0.0
 10
10.0630012535
 20
8.5374389664
 30
0.0
 10
10.0444683729
 20
8.559538396
 30
0.0
 10
10.0249151826
 20
8.5807531158
 30
0.0
 10
10.0043908493
 20
8.6010297856
 30
0.0
 10
9.9829469776
 20
8.6203174202
 30
0.0
 10
9.9606374806
 20
8.6385675162
 30
0.0
 10
9.9375184451
 20
8.6557341743
 30
0.0
 10
9.9136479918
 20
8.6717742135
 30
0.0
 10
9.8890861296
 20
8.6866472799
 30
0.0
 10
9.8638946058
 20
8.7003159469
 30
0.0
 10
9.8381367527
 20
8.7127458125
 30
0.0
 10
9.8118773294
 20
8.7239055846
 30
0.0
 10
9.7851823563
 20
8.7337671577
 30
0.0
 10
9.7581189591
 20
8.7423056844
 30
0.0
 10
9.7307551714
 20
8.7494996389
 30
0.0
 10
9.7031598733
 20
8.7553308668
 30
0.0
 10
9.6754022174
 20
8.75978465
 30
0.0
 10
9.64755295
 20
8.7628496756
 30
0.0
 10
9.6289379018
 20
8.7639640341
 30
0.0
 10
9.6196399714
 20
8.7642864597
 30
0.0
  0
SPLINE
  5
383
100
AcDbEntity
  8
0
100
AcDbSpline
 62
7
  6
CONTINUOUS
 70
0
 71
3
 72
39
 73
35
 74
0
 42
0.0000001
 43
0.0000001
 44
0.0000000001
 40
0.0
 40
0.0
 40
0.0
 40
0.0
 40
0.0299631712
 40
0.0599438077
 40
0.08995907
 40
0.120025516
 40
0.1501588177
 40
0.1803734969
 40
0.2106826857
 40
0.2410979164
 40
0.2716289434
 40
0.3022836025
 40
0.3330677049
 40
0.3639849685
 40
0.3950369846
 40
0.4262232195
 40
0.4575410514
 40
0.4889858369
 40
0.5205510059
 40
0.5522281817
 40
0.5840073247
 40
0.6158768968
 40
0.6478240431
 40
0.679834787
 40
0.7118942386
 40
0.7439868111
 40
0.7760964467
 40
0.8082068451
 40
0.8403016953
 40
0.8723649079
 40
0.9043808319
 40
0.9363345661
 40
0.968211796
 40
1.0
 40
1.0
 40
1.0
 40
1.0
 10
11.5802859165
 20
7.6088790974
 30
0.0
 10
11.5896773069
 20
7.617950467
 30
0.0
 10
11.609082128
 20
7.6354724186
 30
0.0
 10
11.6398980333
 20
7.6597488561
 30
0.0
 10
11.6723102587
 20
7.681931758
 30
0.0
 10
11.7061893771
 20
7.7019322364
 30
0.0
 10
11.7414023262
 20
7.7196720778
 30
0.0
 10
11.7778102377
 20
7.7350814671
 30
0.0
 10
11.815269723
 20
7.748099947
 30
0.0
 10
11.8536332449
 20
7.7586764753
 30
0.0
 10
11.8927497569
 20
7.7667696888
 30
0.0
 10
11.9324653017
 20
7.7723480057
 30
0.0
 10
11.9726236204
 20
7.7753897483
 30
0.0
 10
12.0130667656
 20
7.7758832119
 30
0.0
 10
12.0536357188
 20
7.7738267121
 30
0.0
 10
12.0941710169
 20
7.7692286071
 30
0.0
 10
12.1345133752
 20
7.7621072177
 30
0.0
 10
12.1745043061
 20
7.7524907544
 30
0.0
 10
12.213986734
 20
7.7404171983
 30
0.0
 10
12.2528056052
 20
7.7259341561
 30
0.0
 10
12.2908085034
 20
7.7090986971
 30
0.0
 10
12.3278462303
 20
7.6899770895
 30
0.0
 10
12.3637733862
 20
7.6686445453
 30
0.0
 10
12.3984489317
 20
7.6451849238
 30
0.0
 10
12.4317367382
 20
7.619690409
 30
0.0
 10
12.4635061373
 20
7.5922611731
 30
0.0
 10
12.4936324093
 20
7.5630049544
 30
0.0
 10
12.5219972696
 20
7.5320366369
 30
0.0
 10
12.5484893242
 20
7.4994778184
 30
0.0
 10
12.5730045157
 20
7.4654562826
 30
0.0
 10
12.5954465213
 20
7.430105722
 30
0.0
 10
12.6157272527
 20
7.3935644676
 30
0.0
 10
12.6337664257
 20
7.3559777542
 30
0.0
 10
12.6442684777
 20
7.3302776041
 30
0.0
 10
12.6491216383
 20
7.317303173
 30
0.0
  0
SPLINE
  5
384
100
AcDbEntity
  8
0
100
AcDbSpline
 62
7
  6
CONTINUOUS
 70
0
 71
3
 72
39
 73
35
 74
0
 42
0.0000001
 43
0.0000001
 44
0.0000000001
 40
0.0
 40
0.0
 40
0.0
 40
0.0
 40
0.0306153385
 40
0.0613369981
 40
0.0921623152
 40
0.1230894323
 40
0.1541144242
 40
0.1852328503
 40
0.2164392354
 40
0.2477273059
 40
0.2790900102
 40
0.3105195995
 40
0.3420077046
 40
0.3735454157
 40
0.405123367
 40
0.4367318243
 40
0.4683607745
 40
0.5000000174
 40
0.5316392594
 40
0.5632682078
 40
0.5948766634
 40
0.6264546138
 40
0.6579923247
 40
0.6894804295
 40
0.7209100174
 40
0.7522727185
 40
0.783560785
 40
0.8147671676
 40
0.8458855863
 40
0.8769105964
 40
0.9078376475
 40
0.9386631355
 40
0.969384448
 40
1.0
 40
1.0
 40
1.0
 40
1.0
 10
12.5101001439
 20
7.1036863269
 30
0.0
 10
12.5101001374
 20
7.1113313553
 30
0.0
 10
12.5097151009
 20
7.1266506797
 30
0.0
 10
12.507991102
 20
7.1496090959
 30
0.0
 10
12.5051238917
 20
7.1725318873
 30
0.0
 10
12.501120911
 20
7.1953604893
 30
0.0
 10
12.4959921563
 20
7.2180378101
 30
0.0
 10
12.4897506394
 20
7.2405067148
 30
0.0
 10
12.4824120695
 20
7.2627107326
 30
0.0
 10
12.473994946
 20
7.2845940227
 30
0.0
 10
12.4645204713
 20
7.3061015664
 30
0.0
 10
12.454012507
 20
7.3271792915
 30
0.0
 10
12.4424975043
 20
7.3477742084
 30
0.0
 10
12.4300044403
 20
7.3678345417
 30
0.0
 10
12.4165647447
 20
7.3873098593
 30
0.0
 10
12.4022122216
 20
7.4061511983
 30
0.0
 10
12.3869829641
 20
7.4243111856
 30
0.0
 10
12.3709152703
 20
7.4417441625
 30
0.0
 10
12.3540495478
 20
7.4584063006
 30
0.0
 10
12.336428204
 20
7.4742557047
 30
0.0
 10
12.3180955427
 20
7.4892525192
 30
0.0
 10
12.2990976526
 20
7.5033590267
 30
0.0
 10
12.2794822929
 20
7.5165397425
 30
0.0
 10
12.2592987737
 20
7.5287615028
 30
0.0
 10
12.2385978348
 20
7.5399935502
 30
0.0
 10
12.2174315227
 20
7.5502076204
 30
0.0
 10
12.195853053
 20
7.5593780011
 30
0.0
 10
12.1739166777
 20
7.5674815981
 30
0.0
 10
12.1516775563
 20
7.5744979927
 30
0.0
 10
12.129191594
 20
7.580409494
 30
0.0
 10
12.1065153925
 20
7.5852011812
 30
0.0
 10
12.0837057771
 20
7.5888609495
 30
0.0
 10
12.0608208859
 20
7.591379524
 30
0.0
 10
12.0455241356
 20
7.5922951509
 30
0.0
 10
12.0378836459
 20
7.5925600866
 30
0.0
  0
SPLINE
  5
385
100
AcDbEntity
  8
0
100
AcDbSpline
 62
7
  6
CONTINUOUS
 70
0
 71
3
 72
73
 73
69
 74
0
 42
0.0000001
 43
0.0000001
 44
0.0000000001
 40
0.0
 40
0.0
 40
0.0
 40
0.0
 40
0.0036899217
 40
0.0075220722
 40
0.0114999241
 40
0.0156263923
 40
0.0199038122
 40
0.0243340611
 40
0.0289186039
 40
0.0336584765
 40
0.0385544129
 40
0.0436068119
 40
0.0541807001
 40
0.0653786566
 40
0.0771951324
 40
0.089621585
 40
0.1026468929
 40
0.1162576909
 40
0.1304386228
 40
0.1451725279
 40
0.1604406229
 40
0.1762226663
 40
0.1924970827
 40
0.2092410562
 40
0.2264306365
 40
0.2440408462
 40
0.2620457622
 40
0.2804185807
 40
0.2991316963
 40
0.3181567872
 40
0.3374648822
 40
0.3768107074
 40
0.4169274633
 40
0.4575665897
 40
0.498475352
 40
0.5393988829
 40
0.5800822002
 40
0.6202722166
 40
0.659719788
 40
0.6790891832
 40
0.6981823705
 40
0.7169702342
 40
0.7354242897
 40
0.7535167596
 40
0.771220657
 40
0.7885098461
 40
0.8053591152
 40
0.8217442679
 40
0.8376422293
 40
0.8530311246
 40
0.8678903835
 40
0.8822008716
 40
0.8959450526
 40
0.909107133
 40
0.9216732551
 40
0.93363175
 40
0.9449734639
 40
0.9556921057
 40
0.9608169699
 40
0.9657853037
 40
0.9705973493
 40
0.9752536818
 40
0.9797551699
 40
0.9841030803
 40
0.9882991772
 40
0.992345623
 40
0.9962449193
 40
1.0
 40
1.0
 40
1.0
 40
1.0
 10
12.8449845748
 20
7.6785378708
 30
0.0
 10
12.8440543164
 20
7.679681678
 30
0.0
 10
12.8422061729
 20
7.6820529599
 30
0.0
 10
12.8395197739
 20
7.6857818976
 30
0.0
 10
12.8368685786
 20
7.6897475412
 30
0.0
 10
12.834253754
 20
7.6939482208
 30
0.0
 10
12.831676282
 20
7.6983822196
 30
0.0
 10
12.8291372117
 20
7.7030477241
 30
0.0
 10
12.8266376012
 20
7.7079428401
 30
0.0
 10
12.8241784261
 20
7.7130655368
 30
0.0
 10
12.8217607065
 20
7.7184137362
 30
0.0
 10
12.8185448357
 20
7.7259572129
 30
0.0
 10
12.8146463987
 20
7.7359440536
 30
0.0
 10
12.8102174102
 20
7.7486152651
 30
0.0
 10
12.8059765902
 20
7.7621283671
 30
0.0
 10
12.8019309913
 20
7.7764610552
 30
0.0
 10
12.7980873532
 20
7.7915898425
 30
0.0
 10
12.7944521096
 20
7.807489793
 30
0.0
 10
12.7910313627
 20
7.8241346675
 30
0.0
 10
12.7878308478
 20
7.841496938
 30
0.0
 10
12.7848559288
 20
7.8595478531
 30
0.0
 10
12.7821116005
 20
7.8782575002
 30
0.0
 10
12.7796024783
 20
7.8975948573
 30
0.0
 10
12.777332773
 20
7.9175278392
 30
0.0
 10
12.7753062876
 20
7.9380233555
 30
0.0
 10
12.773526425
 20
7.9590473768
 30
0.0
 10
12.771996182
 20
7.9805649898
 30
0.0
 10
12.7707181272
 20
8.0025404534
 30
0.0
 10
12.769694408
 20
8.0249372478
 30
0.0
 10
12.7689267221
 20
8.0477181911
 30
0.0
 10
12.7682420986
 20
8.0787485128
 30
0.0
 10
12.7680440082
 20
8.1182161917
 30
0.0
 10
12.7688375311
 20
8.1662007461
 30
0.0
 10
12.7706560824
 20
8.2147823297
 30
0.0
 10
12.7734876521
 20
8.2636382015
 30
0.0
 10
12.7773135471
 20
8.3124439867
 30
0.0
 10
12.7821082705
 20
8.3608756539
 30
0.0
 10
12.7878399133
 20
8.4086114654
 30
0.0
 10
12.7933981483
 20
8.4477816403
 30
0.0
 10
12.7982930747
 20
8.4785246138
 30
0.0
 10
12.8021506517
 20
8.5010724453
 30
0.0
 10
12.8062103209
 20
8.5232130397
 30
0.0
 10
12.8104653489
 20
8.5449096362
 30
0.0
 10
12.8149086402
 20
8.5661261822
 30
0.0
 10
12.8195327798
 20
8.5868274432
 30
0.0
 10
12.8243300545
 20
8.6069790436
 30
0.0
 10
12.8292924661
 20
8.626547523
 30
0.0
 10
12.834411742
 20
8.6455004007
 30
0.0
 10
12.8396793315
 20
8.6638062383
 30
0.0
 10
12.8450864429
 20
8.6814346855
 30
0.0
 10
12.8506240556
 20
8.698356527
 30
0.0
 10
12.8562829374
 20
8.7145437446
 30
0.0
 10
12.862053639
 20
8.7299695776
 30
0.0
 10
12.8679265405
 20
8.7446085689
 30
0.0
 10
12.8738918645
 20
8.758436582
 30
0.0
 10
12.8799397208
 20
8.7714309537
 30
0.0
 10
12.8860600583
 20
8.7835702375
 30
0.0
 10
12.8912876373
 20
8.7930948371
 30
0.0
 10
12.8955054572
 20
8.8002618964
 30
0.0
 10
12.8986332346
 20
8.8053305085
 30
0.0
 10
12.9017715557
 20
8.8101709814
 30
0.0
 10
12.9049191064
 20
8.8147813446
 30
0.0
 10
12.9080745963
 20
8.8191596955
 30
0.0
 10
12.9112367852
 20
8.8233042437
 30
0.0
 10
12.9144043883
 20
8.827213352
 30
0.0
 10
12.917576199
 20
8.8308853995
 30
0.0
 10
12.9207507459
 20
8.8343187334
 30
0.0
 10
12.9229080961
 20
8.8364877922
 30
0.0
 10
12.9239872468
 20
8.8375301718
 30
0.0
  0
SPLINE
  5
386
100
AcDbEntity
  8
0
100
AcDbSpline
 62
7
  6
CONTINUOUS
 70
0
 71
3
 72
32
 73
28
 74
0
 42
0.0000001
 43
0.0000001
 44
0.0000000001
 40
0.0
 40
0.0
 40
0.0
 40
0.0
 40
0.0137406178
 40
0.0272871374
 40
0.041099293
 40
0.055605973
 40
0.0711666213
 40
0.0880573684
 40
0.1064743302
 40
0.1265460375
 40
0.1483481577
 40
0.1719143066
 40
0.1972457588
 40
0.224318906
 40
0.2530894212
 40
0.2834969126
 40
0.315468138
 40
0.3489188221
 40
0.3837564191
 40
0.4198815266
 40
0.495564115
 40
0.5751003785
 40
0.6575935098
 40
0.7421566429
 40
0.8279378886
 40
0.9141329756
 40
1.0
 40
1.0
 40
1.0
 40
1.0
 10
9.7389415539
 20
7.973428648
 30
0.0
 10
9.7389415593
 20
7.9730387196
 30
0.0
 10
9.7388723447
 20
7.9722620708
 30
0.0
 10
9.7385443064
 20
7.9711353939
 30
0.0
 10
9.7379958874
 20
7.9700735515
 30
0.0
 10
9.7372324614
 20
7.9690823624
 30
0.0
 10
9.7362600132
 20
7.9681643782
 30
0.0
 10
9.735083805
 20
7.9673212461
 30
0.0
 10
9.7337087242
 20
7.9665546071
 30
0.0
 10
9.7321398737
 20
7.9658665696
 30
0.0
 10
9.7303829751
 20
7.9652597163
 30
0.0
 10
9.7284445883
 20
7.9647368263
 30
0.0
 10
9.7263321208
 20
7.9643007496
 30
0.0
 10
9.7240537939
 20
7.9639543271
 30
0.0
 10
9.7216185926
 20
7.9637002178
 30
0.0
 10
9.7190361874
 20
7.9635408712
 30
0.0
 10
9.7163168498
 20
7.9634785132
 30
0.0
 10
9.7134713806
 20
7.9635150029
 30
0.0
 10
9.7105109878
 20
7.9636518492
 30
0.0
 10
9.7063614972
 20
7.9639748112
 30
0.0
 10
9.7009693629
 20
7.9646416772
 30
0.0
 10
9.6943270905
 20
7.9658360701
 30
0.0
 10
9.6875103662
 20
7.9674309273
 30
0.0
 10
9.6806116213
 20
7.9694130928
 30
0.0
 10
9.6737182662
 20
7.9717630748
 30
0.0
 10
9.6669117352
 20
7.9744554891
 30
0.0
 10
9.6624606417
 20
7.9764681422
 30
0.0
 10
9.6602653777
 20
7.9775256883
 30
0.0
  0
SPLINE
  5
387
100
AcDbEntity
  8
0
100
AcDbSpline
 62
7
  6
CONTINUOUS
 70
0
 71
3
 72
18
 73
14
 74
0
 42
0.0000001
 43
0.0000001
 44
0.0000000001
 40
0.0
 40
0.0
 40
0.0
 40
0.0
 40
0.0548620054
 40
0.1099280215
 40
0.1653994864
 40
0.2214730884
 40
0.2783387317
 40
0.3361775333
 40
0.4554062979
 40
0.5804420875
 40
0.712334555
 40
0.8519570851
 40
1.0
 40
1.0
 40
1.0
 40
1.0
 10
12.4740627041
 20
10.0206885454
 30
0.0
 10
12.4740626998
 20
10.0195488447
 30
0.0
 10
12.4739903559
 20
10.0172645504
 30
0.0
 10
12.4736650573
 20
10.0138418276
 30
0.0
 10
12.4731231089
 20
10.0104210803
 30
0.0
 10
12.4723647311
 20
10.0070035453
 30
0.0
 10
12.4713901364
 20
10.0035901041
 30
0.0
 10
12.469787161
 20
9.9989999441
 30
0.0
 10
12.4672192721
 20
9.9932588607
 30
0.0
 10
12.4633107503
 20
9.9864786427
 30
0.0
 10
12.4585504238
 20
9.9797423149
 30
0.0
 10
12.4529455145
 20
9.9730566163
 30
0.0
 10
12.4487769209
 20
9.9687669388
 30
0.0
 10
12.4465648992
 20
9.9666302898
 30
0.0
  0
SPLINE
  5
388
100
AcDbEntity
  8
0
100
AcDbSpline
 62
7
  6
CONTINUOUS
 70
0
 71
3
 72
39
 73
35
 74
0
 42
0.0000001
 43
0.0000001
 44
0.0000000001
 40
0.0
 40
0.0
 40
0.0
 40
0.0
 40
0.0299634528
 40
0.0599484159
 40
0.0899710348
 40
0.1200468345
 40
0.1501904686
 40
0.1804154856
 40
0.2107341184
 40
0.2411571
 40
0.2716935077
 40
0.3023506382
 40
0.3331339153
 40
0.36404683
 40
0.3950909112
 40
0.4262657276
 40
0.4575689185
 40
0.4889962509
 40
0.5205417039
 40
0.5521975746
 40
0.5839546044
 40
0.615802123
 40
0.6477282085
 40
0.6797198599
 40
0.7117631827
 40
0.7438435816
 40
0.7759459604
 40
0.8080549268
 40
0.8401549992
 40
0.8722308186
 40
0.9042673353
 40
0.9362501167
 40
0.968165147
 40
1.0
 40
1.0
 40
1.0
 40
1.0
 10
11.5803665563
 20
7.6087989135
 30
0.0
 10
11.5713988008
 20
7.5997876298
 30
0.0
 10
11.5540417226
 20
7.5811654866
 30
0.0
 10
11.5298783222
 20
7.5515794998
 30
0.0
 10
11.5076671297
 20
7.5204406448
 30
0.0
 10
11.4874924777
 20
7.487866761
 30
0.0
 10
11.4694291478
 20
7.4539790973
 30
0.0
 10
11.453544517
 20
7.4189043103
 30
0.0
 10
11.4398976589
 20
7.3827733212
 30
0.0
 10
11.4285393053
 20
7.3457209971
 30
0.0
 10
11.4195116163
 20
7.3078855958
 30
0.0
 10
11.412848023
 20
7.2694082609
 30
0.0
 10
11.4085731316
 20
7.2304324819
 30
0.0
 10
11.4067026401
 20
7.1911035602
 30
0.0
 10
11.4072432891
 20
7.1515680686
 30
0.0
 10
11.4101928448
 20
7.1119733085
 30
0.0
 10
11.4155401127
 20
7.0724667653
 30
0.0
 10
11.4232649648
 20
7.0331955598
 30
0.0
 10
11.4333384422
 20
6.9943059057
 30
0.0
 10
11.4457228658
 20
6.955942571
 30
0.0
 10
11.460371979
 20
6.9182483452
 30
0.0
 10
11.4772311216
 20
6.8813635137
 30
0.0
 10
11.4962374324
 20
6.8454253414
 30
0.0
 10
11.5173200658
 20
6.8105675562
 30
0.0
 10
11.5404004749
 20
6.7769198636
 30
0.0
 10
11.5653927023
 20
6.7446074691
 30
0.0
 10
11.592203697
 20
6.7137506171
 30
0.0
 10
11.6207336622
 20
6.6844641462
 30
0.0
 10
11.6508764086
 20
6.6568570685
 30
0.0
 10
11.6825197851
 20
6.6310321412
 30
0.0
 10
11.7155459273
 20
6.6070855364
 30
0.0
 10
11.7498323462
 20
6.5851063195
 30
0.0
 10
11.7852498624
 20
6.5651769831
 30
0.0
 10
11.8095654781
 20
6.5532886519
 30
0.0
 10
11.8218673873
 20
6.5477113631
 30
0.0
  0
SPLINE
  5
389
100
AcDbEntity
  8
0
100
AcDbSpline
 62
7
  6
CONTINUOUS
 70
0
 71
3
 72
15
 73
11
 74
0
 42
0.0000001
 43
0.0000001
 44
0.0000000001
 40
0.0
 40
0.0
 40
0.0
 40
0.0
 40
0.124446372
 40
0.2489475905
 40
0.3735577767
 40
0.4983296406
 40
0.6233136822
 40
0.7485579602
 40
0.874106167
 40
1.0
 40
1.0
 40
1.0
 40
1.0
 10
12.5105516178
 20
6.6457972263
 30
0.0
 10
12.502388741
 20
6.6379124771
 30
0.0
 10
12.4855943585
 20
6.622612897
 30
0.0
 10
12.4590997761
 20
6.6011683994
 30
0.0
 10
12.4313751124
 20
6.5812868833
 30
0.0
 10
12.4025039368
 20
6.5630285224
 30
0.0
 10
12.3725719622
 20
6.5464472947
 30
0.0
 10
12.3416679898
 20
6.5315924639
 30
0.0
 10
12.3098853017
 20
6.5185084589
 30
0.0
 10
12.2882024323
 20
6.5110021935
 30
0.0
 10
12.2772507378
 20
6.5075560537
 30
0.0
  0
LINE
  5
38A
100
AcDbEntity
  8
0
100
AcDbLine
 62
7
  6
CONTINUOUS
 10
12.5109768764
 20
6.6463477854
 11
12.5104768871
 21
6.6458830174
  0
SPLINE
  5
38B
100
AcDbEntity
  8
0
100
AcDbSpline
 62
7
  6
CONTINUOUS
 70
0
 71
3
 72
15
 73
11
 74
0
 42
0.0000001
 43
0.0000001
 44
0.0000000001
 40
0.0
 40
0.0
 40
0.0
 40
0.0
 40
0.1244330017
 40
0.2489339573
 40
0.3735522128
 40
0.4983356974
 40
0.623330362
 40
0.7485796116
 40
0.8741238716
 40
1.0
 40
1.0
 40
1.0
 40
1.0
 10
12.5104768871
 20
6.6458830174
 30
0.0
 10
12.5025105137
 20
6.638486521
 30
0.0
 10
12.4861556065
 20
6.6241322824
 30
0.0
 10
12.4604507533
 20
6.6040002121
 30
0.0
 10
12.4336365091
 20
6.5853159475
 30
0.0
 10
12.4057870165
 20
6.5681313408
 30
0.0
 10
12.3769781083
 20
6.5524930132
 30
0.0
 10
12.3472881501
 20
6.5384435287
 30
0.0
 10
12.3167993634
 20
6.5260215118
 30
0.0
 10
12.2960226107
 20
6.5188568036
 30
0.0
 10
12.2855329406
 20
6.5155560478
 30
0.0
  0
SPLINE
  5
38C
100
AcDbEntity
  8
0
100
AcDbSpline
 62
7
  6
CONTINUOUS
 70
0
 71
3
 72
39
 73
35
 74
0
 42
0.0000001
 43
0.0000001
 44
0.0000000001
 40
0.0
 40
0.0
 40
0.0
 40
0.0
 40
0.029942471
 40
0.0599093185
 40
0.0899243251
 40
0.1200101042
 40
0.1501875626
 40
0.1804754144
 40
0.2108897595
 40
0.2414437366
 40
0.2721472604
 40
0.3030068427
 40
0.3340254953
 40
0.365202715
 40
0.3965345496
 40
0.4280137343
 40
0.4596298913
 40
0.491369786
 40
0.5232176335
 40
0.55515545
 40
0.587163434
 40
0.6192203769
 40
0.6513040926
 40
0.6833918636
 40
0.7154608918
 40
0.747488751
 40
0.7794538351
 40
0.8113357952
 40
0.8431159564
 40
0.874777711
 40
0.9063068724
 40
0.937692086
 40
0.9689246467
 40
1.0
 40
1.0
 40
1.0
 40
1.0
 10
12.3717546155
 20
6.8822521134
 30
0.0
 10
12.3650689908
 20
6.8757942732
 30
0.0
 10
12.3511720046
 20
6.8633997969
 30
0.0
 10
12.3289068821
 20
6.846514505
 30
0.0
 10
12.3053358994
 20
6.8314201648
 30
0.0
 10
12.2805907776
 20
6.8182014281
 30
0.0
 10
12.2548075591
 20
6.8069305138
 30
0.0
 10
12.2281285306
 20
6.7976693952
 30
0.0
 10
12.2007007091
 20
6.7904687533
 30
0.0
 10
12.1726752103
 20
6.7853678758
 30
0.0
 10
12.1442063362
 20
6.7823944671
 30
0.0
 10
12.1154507424
 20
6.7815645209
 30
0.0
 10
12.0865665787
 20
6.7828822546
 30
0.0
 10
12.0577126207
 20
6.7863400419
 30
0.0
 10
12.0290474013
 20
6.791918532
 30
0.0
 10
12.0007283539
 20
6.799586768
 30
0.0
 10
11.9729109667
 20
6.8093023754
 30
0.0
 10
11.9457479281
 20
6.8210117536
 30
0.0
 10
11.9193882964
 20
6.8346503874
 30
0.0
 10
11.8939767082
 20
6.8501432367
 30
0.0
 10
11.8696525977
 20
6.86740514
 30
0.0
 10
11.8465494385
 20
6.8863412691
 30
0.0
 10
11.824793988
 20
6.9068476118
 30
0.0
 10
11.8045056363
 20
6.9288115892
 30
0.0
 10
11.7857957549
 20
6.9521126569
 30
0.0
 10
11.7687671025
 20
6.9766229637
 30
0.0
 10
11.7535132159
 20
7.0022080083
 30
0.0
 10
11.7401179302
 20
7.0287274029
 30
0.0
 10
11.7286549345
 20
7.0560356204
 30
0.0
 10
11.7191873806
 20
7.0839828452
 30
0.0
 10
11.7117674745
 20
7.1124155416
 30
0.0
 10
11.7064362758
 20
7.1411781057
 30
0.0
 10
11.7032232453
 20
7.1701105615
 30
0.0
 10
11.7025036064
 20
7.1894606209
 30
0.0
 10
11.7025036064
 20
7.1991075375
 30
0.0
  0
SPLINE
  5
38D
100
AcDbEntity
  8
0
100
AcDbSpline
 62
7
  6
CONTINUOUS
 70
0
 71
3
 72
43
 73
39
 74
0
 42
0.0000001
 43
0.0000001
 44
0.0000000001
 40
0.0
 40
0.0
 40
0.0
 40
0.0
 40
0.0300109276
 40
0.0450538957
 40
0.0601225482
 40
0.0903383652
 40
0.1206728146
 40
0.1358892114
 40
0.1511381115
 40
0.1817318735
 40
0.2124618669
 40
0.2433294297
 40
0.2743336156
 40
0.3054712401
 40
0.3367369607
 40
0.3681233882
 40
0.399621228
 40
0.4312194451
 40
0.4629054523
 40
0.4946653162
 40
0.5264839794
 40
0.5583454947
 40
0.59023327
 40
0.6221303188
 40
0.6540195156
 40
0.6858838529
 40
0.717706696
 40
0.733599345
 40
0.7494756833
 40
0.7811683778
 40
0.8127743929
 40
0.8442810194
 40
0.8756770931
 40
0.906953143
 40
0.9381016937
 40
0.9536280673
 40
0.9691209421
 40
1.0
 40
1.0
 40
1.0
 40
1.0
 10
12.4409492643
 20
6.9760850727
 30
0.0
 10
12.4335672978
 20
6.9726496259
 30
0.0
 10
12.4223042968
 20
6.9678682543
 30
0.0
 10
12.4069834394
 20
6.9622632767
 30
0.0
 10
12.3914288488
 20
6.9571605238
 30
0.0
 10
12.3716213819
 20
6.951752989
 30
0.0
 10
12.3514582603
 20
6.947670842
 30
0.0
 10
12.3351458102
 20
6.9452028021
 30
0.0
 10
12.3186910603
 20
6.9432652695
 30
0.0
 10
12.2979480897
 20
6.941854074
 30
0.0
 10
12.2729188375
 20
6.9417824301
 30
0.0
 10
12.2478255344
 20
6.9433304769
 30
0.0
 10
12.222772964
 20
6.9464917045
 30
0.0
 10
12.1978648437
 20
6.9512528094
 30
0.0
 10
12.1732044985
 20
6.9575938978
 30
0.0
 10
12.1488941403
 20
6.9654885335
 30
0.0
 10
12.1250345285
 20
6.9749038602
 30
0.0
 10
12.1017245356
 20
6.9858007373
 30
0.0
 10
12.0790607475
 20
6.9981339034
 30
0.0
 10
12.0571370659
 20
7.0118521638
 30
0.0
 10
12.0360443233
 20
7.0268986038
 30
0.0
 10
12.0158699123
 20
7.0432108187
 30
0.0
 10
11.9966974162
 20
7.0607211865
 30
0.0
 10
11.9786063018
 20
7.0793570879
 30
0.0
 10
11.9616714633
 20
7.0990414277
 30
0.0
 10
11.9459633942
 20
7.1196921209
 30
0.0
 10
11.9339435436
 20
7.1376447632
 30
0.0
 10
11.9250040232
 20
7.152403823
 30
0.0
 10
11.9165331852
 20
7.1673962183
 30
0.0
 10
11.9068218868
 20
7.1865727012
 30
0.0
 10
11.8966166571
 20
7.2102001642
 30
0.0
 10
11.8879076497
 20
7.234334178
 30
0.0
 10
11.8807313694
 20
7.2588743875
 30
0.0
 10
11.8751176554
 20
7.2837186098
 30
0.0
 10
11.8717574381
 20
7.304614113
 30
0.0
 10
11.8698734265
 20
7.3213777969
 30
0.0
 10
11.8685289564
 20
7.3381194272
 30
0.0
 10
11.8681224533
 20
7.3507053188
 30
0.0
 10
11.8681224533
 20
7.3590830685
 30
0.0
  0
SPLINE
  5
38E
100
AcDbEntity
  8
0
100
AcDbSpline
 62
7
  6
CONTINUOUS
 70
0
 71
3
 72
39
 73
35
 74
0
 42
0.0000001
 43
0.0000001
 44
0.0000000001
 40
0.0
 40
0.0
 40
0.0
 40
0.0
 40
0.0318890004
 40
0.0636721955
 40
0.0953510611
 40
0.1269280522
 40
0.1584065907
 40
0.1897910433
 40
0.2210866864
 40
0.2522996626
 40
0.283436927
 40
0.3145061844
 40
0.345515819
 40
0.3764748152
 40
0.407392669
 40
0.4382792939
 40
0.4691449206
 40
0.4999999938
 40
0.5308550664
 40
0.5617206919
 40
0.5926073163
 40
0.6235251712
 40
0.6544841695
 40
0.685493806
 40
0.7165630635
 40
0.7477003275
 40
0.778913303
 40
0.8102089488
 40
0.8415934068
 40
0.8730719283
 40
0.9046489996
 40
0.9363276284
 40
0.9681113088
 40
1.0
 40
1.0
 40
1.0
 40
1.0
 10
12.0378836459
 20
7.5925600866
 30
0.0
 10
12.0305978382
 20
7.5928127235
 30
0.0
 10
12.0160358346
 20
7.5929685387
 30
0.0
 10
11.9942448043
 20
7.5921482199
 30
0.0
 10
11.9725899021
 20
7.5902753671
 30
0.0
 10
11.9511216908
 20
7.5873542174
 30
0.0
 10
11.9298894769
 20
7.5833914601
 30
0.0
 10
11.9089422497
 20
7.5783961902
 30
0.0
 10
11.8883282896
 20
7.5723798787
 30
0.0
 10
11.8680951327
 20
7.5653563492
 30
0.0
 10
11.8482894416
 20
7.5573417484
 30
0.0
 10
11.828956904
 20
7.5483545069
 30
0.0
 10
11.8101421121
 20
7.5384153255
 30
0.0
 10
11.791888466
 20
7.5275471045
 30
0.0
 10
11.7742380757
 20
7.5157748878
 30
0.0
 10
11.7572316634
 20
7.5031258075
 30
0.0
 10
11.7409084697
 20
7.4896290199
 30
0.0
 10
11.7253061593
 20
7.4753156437
 30
0.0
 10
11.7104607154
 20
7.4602187036
 30
0.0
 10
11.6964063749
 20
7.4443730288
 30
0.0
 10
11.6831755478
 20
7.4278151758
 30
0.0
 10
11.6707987416
 20
7.410583343
 30
0.0
 10
11.6593044952
 20
7.3927172805
 30
0.0
 10
11.648719298
 20
7.3742582077
 30
0.0
 10
11.6390675225
 20
7.3552487167
 30
0.0
 10
11.6303713897
 20
7.3357326596
 30
0.0
 10
11.6226509132
 20
7.3157550507
 30
0.0
 10
11.6159238564
 20
7.2953619599
 30
0.0
 10
11.610205702
 20
7.2746004168
 30
0.0
 10
11.6055095539
 20
7.2535182623
 30
0.0
 10
11.6018462478
 20
7.2321642078
 30
0.0
 10
11.5992240311
 20
7.2105871456
 30
0.0
 10
11.5976491063
 20
7.1888376405
 30
0.0
 10
11.597300184
 20
7.1742789446
 30
0.0
 10
11.597300184
 20
7.1669888288
 30
0.0
  0
SPLINE
  5
38F
100
AcDbEntity
  8
0
100
AcDbSpline
 62
7
  6
CONTINUOUS
 70
0
 71
3
 72
39
 73
35
 74
0
 42
0.0000001
 43
0.0000001
 44
0.0000000001
 40
0.0
 40
0.0
 40
0.0
 40
0.0
 40
0.0318412703
 40
0.063579286
 40
0.0952159898
 40
0.1267542464
 40
0.1581978286
 40
0.1895513885
 40
0.2208204205
 40
0.252011216
 40
0.2831308105
 40
0.3141869248
 40
0.3451878927
 40
0.3761425834
 40
0.4070603161
 40
0.4379507719
 40
0.4688239016
 40
0.4996898273
 40
0.530558742
 40
0.5614408083
 40
0.5923460581
 40
0.623284296
 40
0.6542650041
 40
0.6852972492
 40
0.7163895957
 40
0.7475500252
 40
0.7787858626
 40
0.8101037229
 40
0.8415094266
 40
0.8730079745
 40
0.9046036132
 40
0.9362991162
 40
0.9680980836
 40
1.0
 40
1.0
 40
1.0
 40
1.0
 10
12.0544324182
 20
7.5918224294
 30
0.0
 10
12.0477165007
 20
7.5918693131
 30
0.0
 10
12.0343020197
 20
7.59164607
 30
0.0
 10
12.0142529093
 20
7.5903556489
 30
0.0
 10
11.9943516477
 20
7.5881130298
 30
0.0
 10
11.9746430574
 20
7.5849231452
 30
0.0
 10
11.9551707877
 20
7.5807930627
 30
0.0
 10
11.9359781679
 20
7.5757319256
 30
0.0
 10
11.9171078604
 20
7.5697509435
 30
0.0
 10
11.8986018373
 20
7.56286336
 30
0.0
 10
11.8805012592
 20
7.5550844527
 30
0.0
 10
11.86284638
 20
7.5464315063
 30
0.0
 10
11.8456764702
 20
7.5369237389
 30
0.0
 10
11.8290297274
 20
7.5265822697
 30
0.0
 10
11.8129431971
 20
7.5154300649
 30
0.0
 10
11.7974526691
 20
7.5034919181
 30
0.0
 10
11.782592595
 20
7.4907943887
 30
0.0
 10
11.7683960304
 20
7.4773657165
 30
0.0
 10
11.7548945563
 20
7.463235767
 30
0.0
 10
11.7421182172
 20
7.4484359597
 30
0.0
 10
11.7300954208
 20
7.4329992264
 30
0.0
 10
11.7188528844
 20
7.4169599209
 30
0.0
 10
11.7084155953
 20
7.4003537277
 30
0.0
 10
11.6988067497
 20
7.3832175875
 30
0.0
 10
11.6900477103
 20
7.3655896126
 30
0.0
 10
11.682157917
 20
7.3475090228
 30
0.0
 10
11.6751548662
 20
7.3290160387
 30
0.0
 10
11.6690540945
 20
7.3101517865
 30
0.0
 10
11.6638691321
 20
7.2909582166
 30
0.0
 10
11.659611468
 20
7.27147797
 30
0.0
 10
11.6562905724
 20
7.2517544673
 30
0.0
 10
11.653913625
 20
7.2318312195
 30
0.0
 10
11.6524860924
 20
7.2117532996
 30
0.0
 10
11.6521698005
 20
7.1983150701
 30
0.0
 10
11.6521698005
 20
7.1915861972
 30
0.0
  0
SPLINE
  5
390
100
AcDbEntity
  8
0
100
AcDbSpline
 62
7
  6
CONTINUOUS
 70
0
 71
3
 72
23
 73
19
 74
0
 42
0.0000001
 43
0.0000001
 44
0.0000000001
 40
0.0
 40
0.0
 40
0.0
 40
0.0
 40
0.0617101454
 40
0.1234413989
 40
0.1852146487
 40
0.247050356
 40
0.3089683484
 40
0.3709876189
 40
0.4331261353
 40
0.495400665
 40
0.5578266135
 40
0.620417907
 40
0.6831868089
 40
0.7461438636
 40
0.809298024
 40
0.8726551577
 40
0.9362228294
 40
1.0
 40
1.0
 40
1.0
 40
1.0
 10
11.8117888593
 20
7.4619712883
 30
0.0
 10
11.8074616327
 20
7.4577914937
 30
0.0
 10
11.7990192057
 20
7.4492061296
 30
0.0
 10
11.7870323942
 20
7.4356914568
 30
0.0
 10
11.775747615
 20
7.4215690135
 30
0.0
 10
11.7651913339
 20
7.4068718199
 30
0.0
 10
11.755387758
 20
7.3916336704
 30
0.0
 10
11.7463595148
 20
7.375889748
 30
0.0
 10
11.7381274105
 20
7.359676356
 30
0.0
 10
11.7307103954
 20
7.3430309044
 30
0.0
 10
11.7241255243
 20
7.3259917919
 30
0.0
 10
11.7183879466
 20
7.3085983143
 30
0.0
 10
11.7135108568
 20
7.2908905823
 30
0.0
 10
11.7095054613
 20
7.2729093914
 30
0.0
 10
11.7063809986
 20
7.2546963036
 30
0.0
 10
11.7041444716
 20
7.2362929835
 30
0.0
 10
11.7028012144
 20
7.2177426054
 30
0.0
 10
11.7025036064
 20
7.2053253326
 30
0.0
 10
11.7025036064
 20
7.1991075375
 30
0.0
  0
SPLINE
  5
391
100
AcDbEntity
  8
0
100
AcDbSpline
 62
7
  6
CONTINUOUS
 70
0
 71
3
 72
17
 73
13
 74
0
 42
0.0000001
 43
0.0000001
 44
0.0000000001
 40
0.0
 40
0.0
 40
0.0
 40
0.0
 40
0.123553616
 40
0.1854645723
 40
0.2474672991
 40
0.3717534354
 40
0.4964606427
 40
0.5589882029
 40
0.6216315594
 40
0.7472615265
 40
0.8733815731
 40
1.0
 40
1.0
 40
1.0
 40
1.0
 10
11.9080939056
 20
7.5281292508
 30
0.0
 10
11.9048174642
 20
7.5216956431
 30
0.0
 10
11.9001898422
 20
7.5118861287
 30
0.0
 10
11.8946146291
 20
7.4985416665
 30
0.0
 10
11.8894260893
 20
7.4849958083
 30
0.0
 10
11.8836892879
 20
7.4677399755
 30
0.0
 10
11.8789784247
 20
7.4501446947
 30
0.0
 10
11.8758280289
 20
7.4358850816
 30
0.0
 10
11.873087418
 20
7.4214862222
 30
0.0
 10
11.87044634
 20
7.4032938751
 30
0.0
 10
11.8685437723
 20
7.3812544378
 30
0.0
 10
11.8681224533
 20
7.3664820208
 30
0.0
 10
11.8681224533
 20
7.3590830685
 30
0.0
  0
SPLINE
  5
392
100
AcDbEntity
  8
0
100
AcDbSpline
 62
7
  6
CONTINUOUS
 70
0
 71
3
 72
41
 73
37
 74
0
 42
0.0000001
 43
0.0000001
 44
0.0000000001
 40
0.0
 40
0.0
 40
0.0
 40
0.0
 40
0.0299353222
 40
0.0599404545
 40
0.0900330643
 40
0.1202290167
 40
0.1505420675
 40
0.1809836091
 40
0.2115624723
 40
0.2422847854
 40
0.2731538931
 40
0.3041703313
 40
0.335331857
 40
0.3666335289
 40
0.3980678337
 40
0.4296248554
 40
0.4612924808
 40
0.4930566381
 40
0.5249015613
 40
0.5568100797
 40
0.588763923
 40
0.6207440415
 40
0.6527309352
 40
0.6847049878
 40
0.7166468029
 40
0.748537537
 40
0.7803592264
 40
0.8120951038
 40
0.8437298972
 40
0.8595072483
 40
0.8752544358
 40
0.9066486054
 40
0.9379076279
 40
0.9534862539
 40
0.9690289598
 40
1.0
 40
1.0
 40
1.0
 40
1.0
 10
12.4705968938
 20
7.05633323
 30
0.0
 10
12.4643085648
 20
7.0521534312
 30
0.0
 10
12.451404257
 20
7.0442444401
 30
0.0
 10
12.4312084524
 20
7.0338173152
 30
0.0
 10
12.4102459294
 20
7.0248613039
 30
0.0
 10
12.3886176586
 20
7.0174196892
 30
0.0
 10
12.3664260427
 20
7.0115273792
 30
0.0
 10
12.3437765744
 20
7.0072122072
 30
0.0
 10
12.3207767499
 20
7.004494419
 30
0.0
 10
12.2975357137
 20
7.003386689
 30
0.0
 10
12.2741636967
 20
7.0038940408
 30
0.0
 10
12.2507715061
 20
7.0060138478
 30
0.0
 10
12.2274700007
 20
7.0097358518
 30
0.0
 10
12.2043695722
 20
7.0150422197
 30
0.0
 10
12.1815796274
 20
7.0219076337
 30
0.0
 10
12.1592080766
 20
7.030299416
 30
0.0
 10
12.1373608296
 20
7.0401776859
 30
0.0
 10
12.1161413006
 20
7.0514955507
 30
0.0
 10
12.0956499205
 20
7.064199321
 30
0.0
 10
12.0759836692
 20
7.0782287718
 30
0.0
 10
12.0572356228
 20
7.0935174269
 30
0.0
 10
12.0394945169
 20
7.1099928708
 30
0.0
 10
12.0228443314
 20
7.1275770906
 30
0.0
 10
12.0073638977
 20
7.1461868368
 30
0.0
 10
11.9931265231
 20
7.1657340335
 30
0.0
 10
11.9801996702
 20
7.1861261177
 30
0.0
 10
11.9686445507
 20
7.2072667454
 30
0.0
 10
11.9585161486
 20
7.2290552207
 30
0.0
 10
11.9512976034
 20
7.2476851936
 30
0.0
 10
11.9462828283
 20
7.2628089936
 30
0.0
 10
11.9417882688
 20
7.2780322199
 30
0.0
 10
11.9371354446
 20
7.2972684188
 30
0.0
 10
11.9337881295
 20
7.3167313174
 30
0.0
 10
11.9319108444
 20
7.3323562619
 30
0.0
 10
11.9305711612
 20
7.3479628715
 30
0.0
 10
11.9301658379
 20
7.3597003867
 30
0.0
 10
11.9301658379
 20
7.3675123797
 30
0.0
  0
SPLINE
  5
393
100
AcDbEntity
  8
0
100
AcDbSpline
 62
7
  6
CONTINUOUS
 70
0
 71
3
 72
39
 73
35
 74
0
 42
0.0000001
 43
0.0000001
 44
0.0000000001
 40
0.0
 40
0.0
 40
0.0
 40
0.0
 40
0.0302323074
 40
0.0605788337
 40
0.0910442438
 40
0.1216315602
 40
0.1523421415
 40
0.1831756833
 40
0.2141302425
 40
0.2452022819
 40
0.2763867342
 40
0.3076770846
 40
0.3390654679
 40
0.3705427815
 40
0.4020988091
 40
0.4337223571
 40
0.4654013983
 40
0.4971232252
 40
0.5288746071
 40
0.5606419536
 40
0.5924114805
 40
0.6241693764
 40
0.6559019718
 40
0.6875959046
 40
0.7192382849
 40
0.750816854
 40
0.7823201399
 40
0.813737601
 40
0.8450597773
 40
0.8762783758
 40
0.9073865189
 40
0.9383784753
 40
0.969250661
 40
1.0
 40
1.0
 40
1.0
 40
1.0
 10
12.4804184663
 20
7.1228833424
 30
0.0
 10
12.4741094055
 20
7.121473093
 30
0.0
 10
12.4613793201
 20
7.1190264795
 30
0.0
 10
12.4420651639
 20
7.1164947695
 30
0.0
 10
12.4225589236
 20
7.115102265
 30
0.0
 10
12.4029270957
 20
7.1148537578
 30
0.0
 10
12.3832354403
 20
7.115749935
 30
0.0
 10
12.3635502104
 20
7.1177877082
 30
0.0
 10
12.3439375401
 20
7.1209601383
 30
0.0
 10
12.3244633284
 20
7.1252564822
 30
0.0
 10
12.3051929913
 20
7.1306622266
 30
0.0
 10
12.2861912516
 20
7.1371591402
 30
0.0
 10
12.2675219216
 20
7.1447253352
 30
0.0
 10
12.2492476906
 20
7.1533353418
 30
0.0
 10
12.2314299171
 20
7.162960194
 30
0.0
 10
12.2141284236
 20
7.173567527
 30
0.0
 10
12.1974012981
 20
7.1851216856
 30
0.0
 10
12.1813047005
 20
7.1975838438
 30
0.0
 10
12.165892675
 20
7.2109121343
 30
0.0
 10
12.1512169708
 20
7.2250617885
 30
0.0
 10
12.1373268687
 20
7.2399852864
 30
0.0
 10
12.1242690172
 20
7.2556325142
 30
0.0
 10
12.1120872746
 20
7.2719509313
 30
0.0
 10
12.1008225644
 20
7.2888857463
 30
0.0
 10
12.0905127383
 20
7.3063801006
 30
0.0
 10
12.0811924494
 20
7.324375257
 30
0.0
 10
12.0728930384
 20
7.3428107958
 30
0.0
 10
12.0656424219
 20
7.3616248177
 30
0.0
 10
12.0594650157
 20
7.3807541405
 30
0.0
 10
12.0543816111
 20
7.4001345479
 30
0.0
 10
12.0504093965
 20
7.4197008609
 30
0.0
 10
12.0475617186
 20
7.4393876464
 30
0.0
 10
12.0458483285
 20
7.4591278167
 30
0.0
 10
12.0454653294
 20
7.4723078284
 30
0.0
 10
12.0454653294
 20
7.4788831428
 30
0.0
  0
SPLINE
  5
394
100
AcDbEntity
  8
0
100
AcDbSpline
 62
7
  6
CONTINUOUS
 70
0
 71
3
 72
11
 73
7
 74
0
 42
0.0000001
 43
0.0000001
 44
0.0000000001
 40
0.0
 40
0.0
 40
0.0
 40
0.0
 40
0.2484406392
 40
0.4978952895
 40
0.7484066658
 40
1.0
 40
1.0
 40
1.0
 40
1.0
 10
12.055991888
 20
7.5620411917
 30
0.0
 10
12.054243449
 20
7.5553053234
 30
0.0
 10
12.0511751237
 20
7.5416888214
 30
0.0
 10
12.0478828846
 20
7.520971415
 30
0.0
 10
12.0459034977
 20
7.4999990639
 30
0.0
 10
12.0454653294
 20
7.4859305451
 30
0.0
 10
12.0454653294
 20
7.4788831428
 30
0.0
  0
SPLINE
  5
395
100
AcDbEntity
  8
0
100
AcDbSpline
 62
7
  6
CONTINUOUS
 70
0
 71
3
 72
45
 73
41
 74
0
 42
0.0000001
 43
0.0000001
 44
0.0000000001
 40
0.0
 40
0.0
 40
0.0
 40
0.0
 40
0.0149825846
 40
0.0299857609
 40
0.0450114072
 40
0.0600612927
 40
0.0902358495
 40
0.120525708
 40
0.1357191614
 40
0.1509448829
 40
0.1662037226
 40
0.1814963912
 40
0.2121810533
 40
0.2430057768
 40
0.2739707496
 40
0.3050737525
 40
0.3363102292
 40
0.367673392
 40
0.3991543617
 40
0.4307423358
 40
0.4624247835
 40
0.4941876619
 40
0.5260156509
 40
0.5578924038
 40
0.5898008082
 40
0.6217232573
 40
0.6536419247
 40
0.685539043
 40
0.7173971814
 40
0.7333082412
 40
0.7492033151
 40
0.7809339095
 40
0.8125779521
 40
0.8441220114
 40
0.875554271
 40
0.9068646947
 40
0.9380453595
 40
0.9535869129
 40
0.9690942444
 40
1.0
 40
1.0
 40
1.0
 40
1.0
 10
12.449810062
 20
6.9947050452
 30
0.0
 10
12.4462480981
 20
6.9928522635
 30
0.0
 10
12.4390539774
 20
6.9892681595
 30
0.0
 10
12.4280749976
 20
6.9842669984
 30
0.0
 10
12.416912357
 20
6.9796423758
 30
0.0
 10
12.4017889233
 20
6.9739807549
 30
0.0
 10
12.3824795738
 20
6.967869854
 30
0.0
 10
12.36276057
 20
6.9630842931
 30
0.0
 10
12.3467736728
 20
6.9600551569
 30
0.0
 10
12.3346744268
 20
6.9581835204
 30
0.0
 10
12.322492699
 20
6.9567166667
 30
0.0
 10
12.3061413062
 20
6.9553012191
 30
0.0
 10
12.2855569871
 20
6.9545540037
 30
0.0
 10
12.2607693758
 20
6.9552929683
 30
0.0
 10
12.2359712987
 20
6.9576628298
 30
0.0
 10
12.2112705384
 20
6.9616532593
 30
0.0
 10
12.186773498
 20
6.9672468363
 30
0.0
 10
12.1625859242
 20
6.9744192671
 30
0.0
 10
12.1388121387
 20
6.983139458
 30
0.0
 10
12.1155546786
 20
6.993369661
 30
0.0
 10
12.0929138365
 20
7.0050656359
 30
0.0
 10
12.0709872386
 20
7.0181768419
 30
0.0
 10
12.0498694264
 20
7.0326466567
 30
0.0
 10
12.0296514562
 20
7.048412615
 30
0.0
 10
12.0104204999
 20
7.0654066932
 30
0.0
 10
11.99225951
 20
7.0835555401
 30
0.0
 10
11.9752467272
 20
7.1027810169
 30
0.0
 10
11.9594558575
 20
7.1229996884
 30
0.0
 10
11.9473655365
 20
7.1406129495
 30
0.0
 10
11.9383700847
 20
7.155112236
 30
0.0
 10
11.9298438755
 20
7.169852842
 30
0.0
 10
11.9200656449
 20
7.1887278278
 30
0.0
 10
11.9097859716
 20
7.2120119848
 30
0.0
 10
11.9010103722
 20
7.2358191145
 30
0.0
 10
11.8937771212
 20
7.2600461917
 30
0.0
 10
11.8881175201
 20
7.2845882327
 30
0.0
 10
11.8847291607
 20
7.3052388462
 30
0.0
 10
11.8828292449
 20
7.321809147
 30
0.0
 10
11.8814734196
 20
7.3383583025
 30
0.0
 10
11.8810634055
 20
7.3508009713
 30
0.0
 10
11.8810634055
 20
7.3590830693
 30
0.0
  0
SPLINE
  5
396
100
AcDbEntity
  8
0
100
AcDbSpline
 62
7
  6
CONTINUOUS
 70
0
 71
3
 72
44
 73
40
 74
0
 42
0.0000001
 43
0.0000001
 44
0.0000000001
 40
0.0
 40
0.0
 40
0.0
 40
0.0
 40
0.0299900321
 40
0.0450209003
 40
0.0600764891
 40
0.0902637095
 40
0.1205673838
 40
0.1357679857
 40
0.1510009517
 40
0.1662670755
 40
0.1815670069
 40
0.2122659753
 40
0.2431042845
 40
0.2740817537
 40
0.3051958484
 40
0.3364417536
 40
0.3678124823
 40
0.399299015
 40
0.430890468
 40
0.4625742854
 40
0.494336453
 40
0.5261617288
 40
0.5580338884
 40
0.5899359811
 40
0.6218505945
 40
0.653760123
 40
0.6856470395
 40
0.7174941656
 40
0.7333994726
 40
0.7492886876
 40
0.781007419
 40
0.8126395471
 40
0.8441718706
 40
0.875592781
 40
0.9068924241
 40
0.9380630109
 40
0.9535997893
 40
0.9691026235
 40
1.0
 40
1.0
 40
1.0
 40
1.0
 10
12.4511316927
 20
6.9979281169
 30
0.0
 10
12.4439939095
 20
6.9943406411
 30
0.0
 10
12.4330871453
 20
6.9893243916
 30
0.0
 10
12.4182206844
 20
6.9833954613
 30
0.0
 10
12.4031096437
 20
6.9779616363
 30
0.0
 10
12.3838327998
 20
6.9721278681
 30
0.0
 10
12.3641671109
 20
6.9676066317
 30
0.0
 10
12.3482343302
 20
6.9647807299
 30
0.0
 10
12.3361812779
 20
6.9630573875
 30
0.0
 10
12.3240511412
 20
6.9617343619
 30
0.0
 10
12.3077755454
 20
6.9605047196
 30
0.0
 10
12.2872985834
 20
6.959977737
 30
0.0
 10
12.2626574283
 20
6.9609602486
 30
0.0
 10
12.2380217726
 20
6.9635522623
 30
0.0
 10
12.213497356
 20
6.9677426285
 30
0.0
 10
12.1891885045
 20
6.973513299
 30
0.0
 10
12.1651988456
 20
6.980839534
 30
0.0
 10
12.1416305598
 20
6.9896899774
 30
0.0
 10
12.1185840342
 20
7.0000268011
 30
0.0
 10
12.0961574169
 20
7.0118058655
 30
0.0
 10
12.0744462097
 20
7.0249769081
 30
0.0
 10
12.0535428632
 20
7.0394837578
 30
0.0
 10
12.0335363896
 20
7.0552645693
 30
0.0
 10
12.0145119781
 20
7.0722521017
 30
0.0
 10
11.9965506702
 20
7.0903739431
 30
0.0
 10
11.9797288869
 20
7.1095530412
 30
0.0
 10
11.9641185939
 20
7.1297071922
 30
0.0
 10
11.9521687777
 20
7.1472527387
 30
0.0
 10
11.94327894
 20
7.1616901533
 30
0.0
 10
11.9348536246
 20
7.1763640456
 30
0.0
 10
11.9251921508
 20
7.1951470632
 30
0.0
 10
11.915036525
 20
7.2183088545
 30
0.0
 10
11.9063677807
 20
7.2419833392
 30
0.0
 10
11.899223264
 20
7.2660693418
 30
0.0
 10
11.8936335091
 20
7.290463783
 30
0.0
 10
11.8902871753
 20
7.3109872679
 30
0.0
 10
11.8884108672
 20
7.327454592
 30
0.0
 10
11.8870718881
 20
7.3439006898
 30
0.0
 10
11.8866669927
 20
7.3562654121
 30
0.0
 10
11.8866669927
 20
7.3644957192
 30
0.0
  0
SPLINE
  5
397
100
AcDbEntity
  8
0
100
AcDbSpline
 62
7
  6
CONTINUOUS
 70
0
 71
3
 72
15
 73
11
 74
0
 42
0.0000001
 43
0.0000001
 44
0.0000000001
 40
0.0
 40
0.0
 40
0.0
 40
0.0
 40
0.1235077436
 40
0.2473632139
 40
0.3716140542
 40
0.4963016463
 40
0.6214606071
 40
0.7471181031
 40
0.8732940838
 40
1.0
 40
1.0
 40
1.0
 40
1.0
 10
11.9302601943
 20
7.5375004276
 30
0.0
 10
11.9266951804
 20
7.5309913689
 30
0.0
 10
11.9199729289
 20
7.5177211148
 30
0.0
 10
11.9111710552
 20
7.4971836405
 30
0.0
 10
11.9036680977
 20
7.4760607716
 30
0.0
 10
11.8974921898
 20
7.4544314424
 30
0.0
 10
11.8926658167
 20
7.4323751905
 30
0.0
 10
11.8892066611
 20
7.4099730816
 30
0.0
 10
11.8871273413
 20
7.387308742
 30
0.0
 10
11.8866669927
 20
7.372109292
 30
0.0
 10
11.8866669927
 20
7.3644957192
 30
0.0
  0
SPLINE
  5
398
100
AcDbEntity
  8
0
100
AcDbSpline
 62
7
  6
CONTINUOUS
 70
0
 71
3
 72
29
 73
25
 74
0
 42
0.0000001
 43
0.0000001
 44
0.0000000001
 40
0.0
 40
0.0
 40
0.0
 40
0.0
 40
0.0755849261
 40
0.1466145423
 40
0.2134284043
 40
0.2764668694
 40
0.3362691012
 40
0.3651660615
 40
0.3935048179
 40
0.4213819954
 40
0.4488995596
 40
0.4761640064
 40
0.503285025
 40
0.5303741997
 40
0.5575435754
 40
0.5849040881
 40
0.6125642198
 40
0.6406286477
 40
0.6691970702
 40
0.7281928859
 40
0.7902532206
 40
0.8559467831
 40
0.9257384363
 40
1.0
 40
1.0
 40
1.0
 40
1.0
 10
12.9239872468
 20
7.674555408
 30
0.0
 10
12.9223140881
 20
7.6729392608
 30
0.0
 10
12.9189700547
 20
7.6699036678
 30
0.0
 10
12.9137948347
 20
7.6658483884
 30
0.0
 10
12.9086256059
 20
7.6624424678
 30
0.0
 10
12.9034676032
 20
7.6596912397
 30
0.0
 10
12.8991321342
 20
7.657928079
 30
0.0
 10
12.895688658
 20
7.656865055
 30
0.0
 10
12.8931425255
 20
7.6562425087
 30
0.0
 10
12.8906045389
 20
7.6557860449
 30
0.0
 10
12.8880753994
 20
7.6554958988
 30
0.0
 10
12.8855559332
 20
7.6553721916
 30
0.0
 10
12.88304695
 20
7.6554149929
 30
0.0
 10
12.8805492806
 20
7.6556243655
 30
0.0
 10
12.8780637545
 20
7.6560002079
 30
0.0
 10
12.8755911702
 20
7.6565423366
 30
0.0
 10
12.8731323394
 20
7.6572505518
 30
0.0
 10
12.8706879601
 20
7.6581246143
 30
0.0
 10
12.8674145256
 20
7.6595252698
 30
0.0
 10
12.8633490622
 20
7.6617107597
 30
0.0
 10
12.8585982189
 20
7.6649621819
 30
0.0
 10
12.8539256615
 20
7.6688650977
 30
0.0
 10
12.8493357003
 20
7.6734134787
 30
0.0
 10
12.8464266557
 20
7.6767647479
 30
0.0
 10
12.8449845748
 20
7.6785378708
 30
0.0
  0
SPLINE
  5
399
100
AcDbEntity
  8
0
100
AcDbSpline
 62
7
  6
CONTINUOUS
 70
0
 71
3
 72
83
 73
79
 74
0
 42
0.0000001
 43
0.0000001
 44
0.0000000001
 40
0.0
 40
0.0
 40
0.0
 40
0.0
 40
0.0039884097
 40
0.0081453951
 40
0.0124746186
 40
0.0169791614
 40
0.0216616097
 40
0.0265239718
 40
0.0315675691
 40
0.0367932644
 40
0.042201484
 40
0.0477922575
 40
0.0535653099
 40
0.0595199779
 40
0.0719697837
 40
0.0851316862
 40
0.098991495
 40
0.1135318501
 40
0.1287326108
 40
0.1445711562
 40
0.1610226585
 40
0.1780603021
 40
0.1956554688
 40
0.2137778955
 40
0.232395813
 40
0.2514760916
 40
0.2709843678
 40
0.29088516
 40
0.3111419767
 40
0.3317174197
 40
0.3525732979
 40
0.3736707312
 40
0.4164311769
 40
0.4596784221
 40
0.5030866968
 40
0.5463286871
 40
0.589078675
 40
0.6101689609
 40
0.6310164291
 40
0.6515822205
 40
0.6718281726
 40
0.6917169195
 40
0.7112119951
 40
0.730277944
 40
0.7488804433
 40
0.7669864122
 40
0.7845641338
 40
0.8015833871
 40
0.8180155988
 40
0.8338340188
 40
0.8490138961
 40
0.8635326921
 40
0.8773703389
 40
0.8905095606
 40
0.9029362808
 40
0.9146401102
 40
0.9202191733
 40
0.9256156542
 40
0.9308296162
 40
0.9358615409
 40
0.9407122971
 40
0.9453833039
 40
0.9498764865
 40
0.9541944013
 40
0.9583403271
 40
0.9623182846
 40
0.9661332455
 40
0.9697911516
 40
0.9732990923
 40
0.9766654451
 40
0.9798999492
 40
0.9830139088
 40
0.9860202118
 40
0.9889334125
 40
0.991769705
 40
0.9945467681
 40
0.997283572
 40
1.0
 40
1.0
 40
1.0
 40
1.0
 10
12.864099842
 20
7.7385960184
 30
0.0
 10
12.8651667307
 20
7.7396265539
 30
0.0
 10
12.8672993423
 20
7.741779508
 30
0.0
 10
12.8704313804
 20
7.7452035912
 30
0.0
 10
12.873560111
 20
7.748886401
 30
0.0
 10
12.8766838299
 20
7.7528259382
 30
0.0
 10
12.8798011005
 20
7.7570202612
 30
0.0
 10
12.8829103862
 20
7.7614673587
 30
0.0
 10
12.8860102242
 20
7.7661650143
 30
0.0
 10
12.8890990309
 20
7.7711109092
 30
0.0
 10
12.8921752677
 20
7.7763025764
 30
0.0
 10
12.8952374287
 20
7.7817374179
 30
0.0
 10
12.8982839633
 20
7.7874127538
 30
0.0
 10
12.9023841347
 20
7.7954158836
 30
0.0
 10
12.9074495293
 20
7.8060095025
 30
0.0
 10
12.9133549807
 20
7.8194514431
 30
0.0
 10
12.9191623708
 20
7.8337784539
 30
0.0
 10
12.9248599868
 20
7.848961872
 30
0.0
 10
12.9304363294
 20
7.8649714686
 30
0.0
 10
12.935880139
 20
7.8817752251
 30
0.0
 10
12.9411804163
 20
7.8993395022
 30
0.0
 10
12.9463264491
 20
7.9176290975
 30
0.0
 10
12.9513078362
 20
7.9366073293
 30
0.0
 10
12.9561145081
 20
7.9562361075
 30
0.0
 10
12.9607367602
 20
7.9764760119
 30
0.0
 10
12.965165259
 20
7.9972863801
 30
0.0
 10
12.9693910636
 20
8.0186253961
 30
0.0
 10
12.9734056417
 20
8.0404501737
 30
0.0
 10
12.9772008901
 20
8.062716844
 30
0.0
 10
12.9807691487
 20
8.085380629
 30
0.0
 10
12.9841032525
 20
8.1083959904
 30
0.0
 10
12.9882458201
 20
8.1396288962
 30
0.0
 10
12.9927850477
 20
8.1792066961
 30
0.0
 10
12.997181348
 20
8.2271404236
 30
0.0
 10
13.0005152739
 20
8.2753394084
 30
0.0
 10
13.0027599925
 20
8.3234161025
 30
0.0
 10
13.0037124703
 20
8.3632334675
 30
0.0
 10
13.0039087773
 20
8.3947296135
 30
0.0
 10
13.0037745313
 20
8.4179754548
 30
0.0
 10
13.003359858
 20
8.4409039128
 30
0.0
 10
13.0026655897
 20
8.4634689216
 30
0.0
 10
13.0016931551
 20
8.4856251017
 30
0.0
 10
13.0004445358
 20
8.5073279103
 30
0.0
 10
12.9989222735
 20
8.5285337204
 30
0.0
 10
12.9971294741
 20
8.5491999166
 30
0.0
 10
12.99506979
 20
8.5692849803
 30
0.0
 10
12.9927474145
 20
8.588748571
 30
0.0
 10
12.9901670725
 20
8.6075516101
 30
0.0
 10
12.9873340116
 20
8.6256563686
 30
0.0
 10
12.984254004
 20
8.6430265533
 30
0.0
 10
12.9809333195
 20
8.6596273812
 30
0.0
 10
12.9773787127
 20
8.6754256621
 30
0.0
 10
12.9735974039
 20
8.6903898468
 30
0.0
 10
12.9695970544
 20
8.7044902202
 30
0.0
 10
12.9653857531
 20
8.7176986239
 30
0.0
 10
12.9616503676
 20
8.728100596
 30
0.0
 10
12.9585532017
 20
8.735946655
 30
0.0
 10
12.9562200158
 20
8.7414978101
 30
0.0
 10
12.9538405512
 20
8.7468070937
 30
0.0
 10
12.9514160028
 20
8.7518718924
 30
0.0
 10
12.9489475148
 20
8.7566896711
 30
0.0
 10
12.946436353
 20
8.7612580676
 30
0.0
 10
12.9438837133
 20
8.7655748178
 30
0.0
 10
12.9412908157
 20
8.7696377865
 30
0.0
 10
12.9386589434
 20
8.7734450012
 30
0.0
 10
12.9359892649
 20
8.7769945475
 30
0.0
 10
12.9332830742
 20
8.7802847087
 30
0.0
 10
12.9305415659
 20
8.7833138278
 30
0.0
 10
12.9277659463
 20
8.7860803545
 30
0.0
 10
12.9249574741
 20
8.7885828923
 30
0.0
 10
12.9221172939
 20
8.7908200048
 30
0.0
 10
12.9192466935
 20
8.7927904519
 30
0.0
 10
12.9163469144
 20
8.794492949
 30
0.0
 10
12.9134192948
 20
8.7959262724
 30
0.0
 10
12.9104653589
 20
8.7970893596
 30
0.0
 10
12.9074865993
 20
8.7979810872
 30
0.0
 10
12.9044851673
 20
8.7986006742
 30
0.0
 10
12.9024670813
 20
8.7988322146
 30
0.0
 10
12.9014592374
 20
8.7989021029
 30
0.0
  0
SPLINE
  5
39A
100
AcDbEntity
  8
0
100
AcDbSpline
 62
7
  6
CONTINUOUS
 70
0
 71
3
 72
95
 73
91
 74
0
 42
0.0000001
 43
0.0000001
 44
0.0000000001
 40
0.0
 40
0.0
 40
0.0
 40
0.0
 40
0.0039488186
 40
0.0077209214
 40
0.0113256445
 40
0.0147745623
 40
0.0212567379
 40
0.0243282751
 40
0.0273113629
 40
0.0302282336
 40
0.0331028199
 40
0.0359602143
 40
0.0388260038
 40
0.0417255309
 40
0.0446832014
 40
0.0477218699
 40
0.0508624604
 40
0.054123679
 40
0.0575219936
 40
0.0610716364
 40
0.0647847726
 40
0.0686716672
 40
0.0727408686
 40
0.0769994465
 40
0.0814531065
 40
0.0861064471
 40
0.0909629987
 40
0.0960254618
 40
0.1012957099
 40
0.1067749705
 40
0.1124638402
 40
0.1183623842
 40
0.1244701939
 40
0.1307863998
 40
0.1373097798
 40
0.1440387018
 40
0.1509712635
 40
0.165437612
 40
0.1806882179
 40
0.1966981085
 40
0.213438923
 40
0.2308792972
 40
0.2489851807
 40
0.267720107
 40
0.2870454315
 40
0.3069205425
 40
0.3273030537
 40
0.3481489841
 40
0.3694129279
 40
0.3910482169
 40
0.4130070784
 40
0.4352407884
 40
0.4576998231
 40
0.4803340076
 40
0.5030926647
 40
0.5259247619
 40
0.5487790575
 40
0.5716042467
 40
0.5943491077
 40
0.6169626475
 40
0.6393942481
 40
0.6615938139
 40
0.6835119196
 40
0.7050999601
 40
0.7263103021
 40
0.7470964384
 40
0.7674131453
 40
0.7872166469
 40
0.8064647855
 40
0.8251172028
 40
0.8431355353
 40
0.8604836278
 40
0.8771277739
 40
0.893036993
 40
0.9081833566
 40
0.9225423822
 40
0.9294203032
 40
0.9360940384
 40
0.9425617647
 40
0.9488219437
 40
0.9548734598
 40
0.9607155432
 40
0.9663479326
 40
0.9717708198
 40
0.9769849626
 40
0.9819917154
 40
0.9867932039
 40
0.9913924565
 40
0.9957932256
 40
1.0
 40
1.0
 40
1.0
 40
1.0
 10
12.9254591415
 20
8.838925957
 30
0.0
 10
12.9267011382
 20
8.840081832
 30
0.0
 10
12.9291840767
 20
8.8422844013
 30
0.0
 10
12.9329937457
 20
8.8453156732
 30
0.0
 10
12.9367999774
 20
8.8479950869
 30
0.0
 10
12.9417625033
 20
8.8510322516
 30
0.0
 10
12.9468255713
 20
8.8534544254
 30
0.0
 10
12.9519422523
 20
8.8551559402
 30
0.0
 10
12.9556974593
 20
8.8560494008
 30
0.0
 10
12.9594354071
 20
8.8565812489
 30
0.0
 10
12.9631534422
 20
8.856750689
 30
0.0
 10
12.9668484295
 20
8.856557276
 30
0.0
 10
12.970517216
 20
8.8560010638
 30
0.0
 10
12.9741567573
 20
8.8550828407
 30
0.0
 10
12.9777641981
 20
8.8538036535
 30
0.0
 10
12.9813370793
 20
8.8521651453
 30
0.0
 10
12.9848731369
 20
8.8501689096
 30
0.0
 10
12.9883704674
 20
8.8478168744
 30
0.0
 10
12.99182721
 20
8.8451108423
 30
0.0
 10
12.9952416771
 20
8.8420528003
 30
0.0
 10
12.9986121533
 20
8.8386447388
 30
0.0
 10
13.0019369277
 20
8.8348887763
 30
0.0
 10
13.0052143114
 20
8.8307871905
 30
0.0
 10
13.0084425072
 20
8.8263423673
 30
0.0
 10
13.0116198282
 20
8.8215569461
 30
0.0
 10
13.0147444243
 20
8.8164336761
 30
0.0
 10
13.0178146103
 20
8.810975586
 30
0.0
 10
13.0208285458
 20
8.8051858358
 30
0.0
 10
13.0237845458
 20
8.7990678458
 30
0.0
 10
13.0266808339
 20
8.7926251985
 30
0.0
 10
13.0295157285
 20
8.7858617021
 30
0.0
 10
13.0322875484
 20
8.7787813527
 30
0.0
 10
13.0349946272
 20
8.7713883421
 30
0.0
 10
13.03763539
 20
8.7636870624
 30
0.0
 10
13.0402082014
 20
8.7556820856
 30
0.0
 10
13.0427116092
 20
8.7473781708
 30
0.0
 10
13.04600158
 20
8.7357487183
 30
0.0
 10
13.049916511
 20
8.7204935395
 30
0.0
 10
13.0542506111
 20
8.7013282103
 30
0.0
 10
13.0582745725
 20
8.681098198
 30
0.0
 10
13.0619786545
 20
8.6598517804
 30
0.0
 10
13.0653538594
 20
8.6376395076
 30
0.0
 10
13.0683919944
 20
8.6145143703
 30
0.0
 10
13.0710856831
 20
8.5905315704
 30
0.0
 10
13.0734283853
 20
8.5657484029
 30
0.0
 10
13.0754144121
 20
8.5402241029
 30
0.0
 10
13.0770389384
 20
8.5140197002
 30
0.0
 10
13.0782980141
 20
8.4871978683
 30
0.0
 10
13.0791885722
 20
8.459822771
 30
0.0
 10
13.0797084358
 20
8.4319599064
 30
0.0
 10
13.0798563223
 20
8.4036759479
 30
0.0
 10
13.079631846
 20
8.3750385832
 30
0.0
 10
13.0790355184
 20
8.3461163507
 30
0.0
 10
13.078068748
 20
8.3169784748
 30
0.0
 10
13.076733835
 20
8.2876946981
 30
0.0
 10
13.0750339656
 20
8.2583351139
 30
0.0
 10
13.0729732045
 20
8.2289699975
 30
0.0
 10
13.0705564846
 20
8.1996696375
 30
0.0
 10
13.0677895957
 20
8.1705041663
 30
0.0
 10
13.06467917
 20
8.1415433925
 30
0.0
 10
13.061232667
 20
8.1128566323
 30
0.0
 10
13.0574583553
 20
8.0845125431
 30
0.0
 10
13.0533652931
 20
8.0565789579
 30
0.0
 10
13.048963308
 20
8.0291227209
 30
0.0
 10
13.0442629727
 20
8.0022095262
 30
0.0
 10
13.0392755801
 20
7.975903759
 30
0.0
 10
13.0340131166
 20
7.950268339
 30
0.0
 10
13.028488234
 20
7.9253645674
 30
0.0
 10
13.0227142191
 20
7.9012519766
 30
0.0
 10
13.0167049626
 20
7.8779881824
 30
0.0
 10
13.0104749257
 20
7.8556287422
 30
0.0
 10
13.0040391043
 20
7.8342270064
 30
0.0
 10
12.9974129914
 20
7.8138340059
 30
0.0
 10
12.9906125347
 20
7.7944982228
 30
0.0
 10
12.9836540982
 20
7.7762657745
 30
0.0
 10
12.9776547491
 20
7.7618273802
 30
0.0
 10
12.972779097
 20
7.7508706539
 30
0.0
 10
12.9691457837
 20
7.7430736661
 30
0.0
 10
12.9654855803
 20
7.7355835662
 30
0.0
 10
12.9618005818
 20
7.7284048194
 30
0.0
 10
12.95809306
 20
7.7215416709
 30
0.0
 10
12.9543651544
 20
7.7149982106
 30
0.0
 10
12.9506191301
 20
7.7087782884
 30
0.0
 10
12.9468571553
 20
7.7028855985
 30
0.0
 10
12.9430814848
 20
7.697323616
 30
0.0
 10
12.9392943309
 20
7.6920956058
 30
0.0
 10
12.9354978456
 20
7.6872046205
 30
0.0
 10
12.9316941613
 20
7.6826534483
 30
0.0
 10
12.9278856156
 20
7.6784450132
 30
0.0
 10
12.9252872833
 20
7.675811147
 30
0.0
 10
12.9239872468
 20
7.674555408
 30
0.0
  0
SPLINE
  5
39B
100
AcDbEntity
  8
0
100
AcDbSpline
 62
7
  6
CONTINUOUS
 70
0
 71
3
 72
71
 73
67
 74
0
 42
0.0000001
 43
0.0000001
 44
0.0000000001
 40
0.0
 40
0.0
 40
0.0
 40
0.0
 40
0.0155842919
 40
0.0311159123
 40
0.0465952598
 40
0.0620238813
 40
0.0774034486
 40
0.0927362826
 40
0.1080251225
 40
0.1232731733
 40
0.1384840556
 40
0.1536617767
 40
0.1688106903
 40
0.1839354535
 40
0.1990409785
 40
0.2141323822
 40
0.2292149319
 40
0.2442939893
 40
0.2593749538
 40
0.274463204
 40
0.2895640408
 40
0.3046826306
 40
0.3198239512
 40
0.3349927397
 40
0.3501934437
 40
0.3654301769
 40
0.3807066779
 40
0.3960262749
 40
0.4113918551
 40
0.4268058386
 40
0.442270159
 40
0.4577862486
 40
0.4733550295
 40
0.4889769099
 40
0.5046517846
 40
0.5203790424
 40
0.5361575756
 40
0.551985796
 40
0.5678616541
 40
0.5837826616
 40
0.5997459183
 40
0.6157481418
 40
0.6317856998
 40
0.6478546444
 40
0.6639507499
 40
0.6800695506
 40
0.6962063816
 40
0.7123564199
 40
0.7285147273
 40
0.7446762937
 40
0.7608360805
 40
0.7769890649
 40
0.7931302833
 40
0.8092548746
 40
0.8253581232
 40
0.8414355006
 40
0.857482706
 40
0.8734957058
 40
0.8894707712
 40
0.9054045127
 40
0.9212939185
 40
0.9371363636
 40
0.9529297087
 40
0.9686721119
 40
0.9843625862
 40
1.0
 40
1.0
 40
1.0
 40
1.0
 10
10.1942928382
 20
8.1693603065
 30
0.0
 10
10.1942928382
 20
8.1602888913
 30
0.0
 10
10.1938489099
 20
8.1421735033
 30
0.0
 10
10.1918449349
 20
8.1151145218
 30
0.0
 10
10.1885086378
 20
8.0882778496
 30
0.0
 10
10.1838481322
 20
8.0617291274
 30
0.0
 10
10.1778744792
 20
8.0355320174
 30
0.0
 10
10.1706020679
 20
8.0097497711
 30
0.0
 10
10.1620483372
 20
7.9844445185
 30
0.0
 10
10.1522338568
 20
7.9596772874
 30
0.0
 10
10.1411822281
 20
7.9355078074
 30
0.0
 10
10.1289200469
 20
7.9119943775
 30
0.0
 10
10.1154768408
 20
7.8891937171
 30
0.0
 10
10.1008849949
 20
7.8671608303
 30
0.0
 10
10.0851796731
 20
7.8459488717
 30
0.0
 10
10.0683987331
 20
7.8256090164
 30
0.0
 10
10.0505826355
 20
7.8061903347
 30
0.0
 10
10.0317743452
 20
7.7877396719
 30
0.0
 10
10.0120192268
 20
7.7703015338
 30
0.0
 10
9.9913649341
 20
7.7539179779
 30
0.0
 10
9.969861293
 20
7.7386285116
 30
0.0
 10
9.9475601834
 20
7.7244699905
 30
0.0
 10
9.9245154092
 20
7.7114765319
 30
0.0
 10
9.9007825645
 20
7.6996794344
 30
0.0
 10
9.876418899
 20
7.689107103
 30
0.0
 10
9.8514831771
 20
7.6797849809
 30
0.0
 10
9.8260355356
 20
7.67173549
 30
0.0
 10
9.8001373369
 20
7.6649779778
 30
0.0
 10
9.7738510206
 20
7.6595286721
 30
0.0
 10
9.7472399518
 20
7.6554006448
 30
0.0
 10
9.7203682693
 20
7.6526037765
 30
0.0
 10
9.693300729
 20
7.6511447354
 30
0.0
 10
9.6661025482
 20
7.6510269674
 30
0.0
 10
9.6388392479
 20
7.6522506882
 30
0.0
 10
9.6115764963
 20
7.6548128845
 30
0.0
 10
9.5843799516
 20
7.6587073227
 30
0.0
 10
9.557315104
 20
7.6639245651
 30
0.0
 10
9.5304471199
 20
7.670451993
 30
0.0
 10
9.5038406859
 20
7.6782738391
 30
0.0
 10
9.4775598532
 20
7.6873712216
 30
0.0
 10
9.4516678828
 20
7.6977221896
 30
0.0
 10
9.4262270962
 20
7.7093017818
 30
0.0
 10
9.4012987258
 20
7.7220820849
 30
0.0
 10
9.3769427687
 20
7.7360323019
 30
0.0
 10
9.3532178431
 20
7.7511188254
 30
0.0
 10
9.3301810487
 20
7.7673053191
 30
0.0
 10
9.3078878298
 20
7.784552804
 30
0.0
 10
9.2863918431
 20
7.8028197527
 30
0.0
 10
9.2657448274
 20
7.8220621869
 30
0.0
 10
9.2459964773
 20
7.8422337808
 30
0.0
 10
9.2271943279
 20
7.863285977
 30
0.0
 10
9.2093836402
 20
7.8851681021
 30
0.0
 10
9.1926072931
 20
7.9078274881
 30
0.0
 10
9.1769056809
 20
7.9312095983
 30
0.0
 10
9.1623166159
 20
7.9552581581
 30
0.0
 10
9.1488752386
 20
7.9799152891
 30
0.0
 10
9.1366139327
 20
8.005121648
 30
0.0
 10
9.1255622466
 20
8.0308165677
 30
0.0
 10
9.1157468186
 20
8.0569382008
 30
0.0
 10
9.1071913125
 20
8.0834236733
 30
0.0
 10
9.099916379
 20
8.1102092217
 30
0.0
 10
9.093939555
 20
8.1372303954
 30
0.0
 10
9.0892753405
 20
8.1644220354
 30
0.0
 10
9.0859349225
 20
8.1917190014
 30
0.0
 10
9.083926544
 20
8.219054576
 30
0.0
 10
9.0834780721
 20
8.2372932355
 30
0.0
 10
9.0834780721
 20
8.2463955722
 30
0.0
  0
SPLINE
  5
39C
100
AcDbEntity
  8
0
100
AcDbSpline
 62
7
  6
CONTINUOUS
 70
0
 71
3
 72
71
 73
67
 74
0
 42
0.0000001
 43
0.0000001
 44
0.0000000001
 40
0.0
 40
0.0
 40
0.0
 40
0.0
 40
0.0155466301
 40
0.0310409494
 40
0.0464847557
 40
0.0618794385
 40
0.0772271241
 40
0.0925303431
 40
0.1077920777
 40
0.1230157276
 40
0.1382050765
 40
0.1533642585
 40
0.168497717
 40
0.1836101605
 40
0.1987065156
 40
0.2137918761
 40
0.2288714508
 40
0.243950509
 40
0.2590343257
 40
0.2741281258
 40
0.2892370302
 40
0.3043660021
 40
0.3195197967
 40
0.3347029123
 40
0.3499195467
 40
0.3651735553
 40
0.3804684148
 40
0.3958071914
 40
0.411192513
 40
0.4266265476
 40
0.4421109857
 40
0.4576470297
 40
0.4732353865
 40
0.488876266
 40
0.5045693842
 40
0.5203139702
 40
0.5361087784
 40
0.5519521039
 40
0.5678418027
 40
0.5837753153
 40
0.5997496919
 40
0.6157616226
 40
0.6318074679
 40
0.6478832929
 40
0.6639849028
 40
0.6801078808
 40
0.6962476268
 40
0.7123993977
 40
0.7285583479
 40
0.7447195705
 40
0.7608781392
 40
0.7770291501
 40
0.7931677635
 40
0.8092892459
 40
0.8253890101
 40
0.8414626557
 40
0.8575060071
 40
0.8735151511
 40
0.8894864721
 40
0.905416686
 40
0.9213028755
 40
0.9371424981
 40
0.9529334947
 40
0.9686740456
 40
0.9843632918
 40
1.0
 40
1.0
 40
1.0
 40
1.0
 10
10.1939693886
 20
8.188028844
 30
0.0
 10
10.1936733504
 20
8.1796614091
 30
0.0
 10
10.1926753016
 20
8.1629661574
 30
0.0
 10
10.1899553799
 20
8.1380701876
 30
0.0
 10
10.1860215918
 20
8.1134191001
 30
0.0
 10
10.1808830131
 20
8.0890714869
 30
0.0
 10
10.1745517495
 20
8.0650845982
 30
0.0
 10
10.1670426403
 20
8.0415150081
 30
0.0
 10
10.1583733395
 20
8.0184182647
 30
0.0
 10
10.1485642329
 20
7.9958488246
 30
0.0
 10
10.1376383972
 20
7.9738599033
 30
0.0
 10
10.1256215486
 20
7.9525033555
 30
0.0
 10
10.1125419811
 20
7.9318295499
 30
0.0
 10
10.0984305019
 20
7.9118872491
 30
0.0
 10
10.0833203579
 20
7.8927234941
 30
0.0
 10
10.067247168
 20
7.8743834828
 30
0.0
 10
10.0502488281
 20
7.8569104675
 30
0.0
 10
10.0323654206
 20
7.840345653
 30
0.0
 10
10.0136391188
 20
7.8247280984
 30
0.0
 10
9.9941140866
 20
7.8100946236
 30
0.0
 10
9.9738363733
 20
7.7964797222
 30
0.0
 10
9.9528538027
 20
7.7839154812
 30
0.0
 10
9.9312158639
 20
7.7724314972
 30
0.0
 10
9.9089735909
 20
7.7620548059
 30
0.0
 10
9.8861794365
 20
7.7528098275
 30
0.0
 10
9.8628871478
 20
7.7447183077
 30
0.0
 10
9.8391516388
 20
7.7377992689
 30
0.0
 10
9.8150288601
 20
7.7320689657
 30
0.0
 10
9.7905756668
 20
7.7275408492
 30
0.0
 10
9.7658496844
 20
7.724225535
 30
0.0
 10
9.7409091739
 20
7.7221307683
 30
0.0
 10
9.7158128912
 20
7.7212614201
 30
0.0
 10
9.6906199494
 20
7.7216194763
 30
0.0
 10
9.6653896801
 20
7.7232040348
 30
0.0
 10
9.6401814946
 20
7.7260113088
 30
0.0
 10
9.6150547453
 20
7.7300346363
 30
0.0
 10
9.5900685872
 20
7.7352644983
 30
0.0
 10
9.5652818372
 20
7.7416885308
 30
0.0
 10
9.5407528361
 20
7.7492915601
 30
0.0
 10
9.5165393133
 20
7.7580556445
 30
0.0
 10
9.4926982518
 20
7.7679601159
 30
0.0
 10
9.4692857558
 20
7.7789816284
 30
0.0
 10
9.4463569191
 20
7.7910942134
 30
0.0
 10
9.4239656977
 20
7.804269341
 30
0.0
 10
9.4021647815
 20
7.8184759836
 30
0.0
 10
9.381005466
 20
7.8336806827
 30
0.0
 10
9.3605375385
 20
7.8498476386
 30
0.0
 10
9.3408091604
 20
7.8669387925
 30
0.0
 10
9.3218667555
 20
7.8849139158
 30
0.0
 10
9.3037549016
 20
7.9037307043
 30
0.0
 10
9.2865162256
 20
7.9233448764
 30
0.0
 10
9.2701913058
 20
7.943710278
 30
0.0
 10
9.2548185657
 20
7.9647789823
 30
0.0
 10
9.2404341912
 20
7.9865014097
 30
0.0
 10
9.2270720475
 20
8.0088264448
 30
0.0
 10
9.2147636
 20
8.0317015552
 30
0.0
 10
9.20353784
 20
8.0550729148
 30
0.0
 10
9.1934212172
 20
8.0788855286
 30
0.0
 10
9.1844375795
 20
8.1030833617
 30
0.0
 10
9.1766081052
 20
8.12760947
 30
0.0
 10
9.1699512673
 20
8.1524061217
 30
0.0
 10
9.1644827478
 20
8.1774149861
 30
0.0
 10
9.1602155295
 20
8.2025770889
 30
0.0
 10
9.1571595886
 20
8.2278335293
 30
0.0
 10
9.1553223412
 20
8.2531239165
 30
0.0
 10
9.1549121012
 20
8.2699973794
 30
0.0
 10
9.1549121012
 20
8.2784185613
 30
0.0
  0
SPLINE
  5
39D
100
AcDbEntity
  8
0
100
AcDbSpline
 62
7
  6
CONTINUOUS
 70
0
 71
3
 72
28
 73
24
 74
0
 42
0.0000001
 43
0.0000001
 44
0.0000000001
 40
0.0
 40
0.0
 40
0.0
 40
0.0
 40
0.088756492
 40
0.1756046599
 40
0.2601152642
 40
0.3418835696
 40
0.4204985084
 40
0.4955658442
 40
0.5667132706
 40
0.6336009828
 40
0.6959346271
 40
0.7534806713
 40
0.8060868991
 40
0.8305239161
 40
0.8537207563
 40
0.8756957115
 40
0.8964786373
 40
0.91611492
 40
0.9346662102
 40
0.9522142621
 40
0.9688630372
 40
0.9847405534
 40
1.0
 40
1.0
 40
1.0
 40
1.0
 10
9.7001093433
 20
8.0050563456
 30
0.0
 10
9.7014658423
 20
8.0043618331
 30
0.0
 10
9.704140005
 20
8.0029687361
 30
0.0
 10
9.7080687198
 20
8.0008441714
 30
0.0
 10
9.7118560649
 20
7.9987116623
 30
0.0
 10
9.7154801357
 20
7.9965787677
 30
0.0
 10
9.7189191083
 20
7.9944527748
 30
0.0
 10
9.7221511628
 20
7.9923409876
 30
0.0
 10
9.7251549699
 20
7.990250586
 30
0.0
 10
9.7279099431
 20
7.9881886493
 30
0.0
 10
9.7303966806
 20
7.9861620812
 30
0.0
 10
9.7325969961
 20
7.9841776807
 30
0.0
 10
9.7342163226
 20
7.9825260816
 30
0.0
 10
9.7353468838
 20
7.9812277519
 30
0.0
 10
9.7360920866
 20
7.9802927829
 30
0.0
 10
9.736754146
 20
7.9793734039
 30
0.0
 10
9.7373315828
 20
7.9784703049
 30
0.0
 10
9.7378232184
 20
7.9775843029
 30
0.0
 10
9.7382278445
 20
7.9767160823
 30
0.0
 10
9.7385444307
 20
7.9758663968
 30
0.0
 10
9.7387720424
 20
7.9750359511
 30
0.0
 10
9.7389097018
 20
7.9742256877
 30
0.0
 10
9.7389415502
 20
7.9736906537
 30
0.0
 10
9.7389415539
 20
7.973428648
 30
0.0
  0
SPLINE
  5
39E
100
AcDbEntity
  8
0
100
AcDbSpline
 62
7
  6
CONTINUOUS
 70
0
 71
3
 72
39
 73
35
 74
0
 42
0.0000001
 43
0.0000001
 44
0.0000000001
 40
0.0
 40
0.0
 40
0.0
 40
0.0
 40
0.0318475703
 40
0.063775983
 40
0.0957725582
 40
0.1278229924
 40
0.1599125496
 40
0.1920258722
 40
0.2241472923
 40
0.2562610287
 40
0.288351406
 40
0.3204030696
 40
0.3524011977
 40
0.3843317086
 40
0.4161814608
 40
0.4479384436
 40
0.479591955
 40
0.5111327658
 40
0.5425532673
 40
0.5738475991
 40
0.6050117571
 40
0.6360436748
 40
0.6669432785
 40
0.6977125141
 40
0.7283553425
 40
0.7588777043
 40
0.7892874494
 40
0.819594233
 40
0.8498093788
 40
0.8799457099
 40
0.9100173503
 40
0.9400394999
 40
0.9700281866
 40
1.0
 40
1.0
 40
1.0
 40
1.0
 10
11.8135851845
 20
6.5397113691
 30
0.0
 10
11.8011670976
 20
6.545341329
 30
0.0
 10
11.7766245948
 20
6.5573489438
 30
0.0
 10
11.7408880804
 20
6.5774962432
 30
0.0
 10
11.706306595
 20
6.5997307711
 30
0.0
 10
11.6730128963
 20
6.6239674979
 30
0.0
 10
11.6411328024
 20
6.6501145748
 30
0.0
 10
11.6107873101
 20
6.6780727889
 30
0.0
 10
11.5820914585
 20
6.7077361036
 30
0.0
 10
11.5551540741
 20
6.7389920132
 30
0.0
 10
11.5300773246
 20
6.771721995
 30
0.0
 10
11.5069563469
 20
6.805801948
 30
0.0
 10
11.4858788847
 20
6.84110266
 30
0.0
 10
11.4669249625
 20
6.8774902944
 30
0.0
 10
11.4501665607
 20
6.9148268812
 30
0.0
 10
11.4356673535
 20
6.9529708449
 30
0.0
 10
11.4234824773
 20
6.9917775396
 30
0.0
 10
11.4136583187
 20
7.0310997903
 30
0.0
 10
11.4062323379
 20
7.0707884447
 30
0.0
 10
11.4012329218
 20
7.1106929324
 30
0.0
 10
11.398679247
 20
7.1506618283
 30
0.0
 10
11.3985812289
 20
7.1905434286
 30
0.0
 10
11.4009394763
 20
7.2301863201
 30
0.0
 10
11.4057452811
 20
7.2694399503
 30
0.0
 10
11.412980646
 20
7.3081551959
 30
0.0
 10
11.4226183272
 20
7.346184931
 30
0.0
 10
11.4346219222
 20
7.3833845918
 30
0.0
 10
11.4489460247
 20
7.4196127274
 30
0.0
 10
11.4655363695
 20
7.4547315304
 30
0.0
 10
11.4843300814
 20
7.4886074148
 30
0.0
 10
11.5052557254
 20
7.5211113534
 30
0.0
 10
11.5282342394
 20
7.5521200543
 30
0.0
 10
11.5531766878
 20
7.5815139791
 30
0.0
 10
11.5710566821
 20
7.5999643581
 30
0.0
 10
11.5802859165
 20
7.6088790974
 30
0.0
  0
SPLINE
  5
39F
100
AcDbEntity
  8
0
100
AcDbSpline
 62
7
  6
CONTINUOUS
 70
0
 71
3
 72
15
 73
11
 74
0
 42
0.0000001
 43
0.0000001
 44
0.0000000001
 40
0.0
 40
0.0
 40
0.0
 40
0.0
 40
0.127007311
 40
0.253360783
 40
0.3790851423
 40
0.504215772
 40
0.6288035743
 40
0.752911946
 40
0.8766158365
 40
1.0
 40
1.0
 40
1.0
 40
1.0
 10
11.9301658379
 20
7.3675123797
 30
0.0
 10
11.9301658379
 20
7.3759522736
 30
0.0
 10
11.9307941757
 20
7.3927956335
 30
0.0
 10
11.9336339584
 20
7.4178492752
 30
0.0
 10
11.938352887
 20
7.4424926973
 30
0.0
 10
11.9449250341
 20
7.4665862558
 30
0.0
 10
11.9533138009
 20
7.4899953328
 30
0.0
 10
11.9634728618
 20
7.5125890974
 30
0.0
 10
11.9753443291
 20
7.5342392671
 30
0.0
 10
11.984368462
 20
7.5479812005
 30
0.0
 10
11.9891391656
 20
7.5546494907
 30
0.0
  0
SPLINE
  5
3A0
100
AcDbEntity
  8
0
100
AcDbSpline
 62
7
  6
CONTINUOUS
 70
0
 71
3
 72
11
 73
7
 74
0
 42
0.0000001
 43
0.0000001
 44
0.0000000001
 40
0.0
 40
0.0
 40
0.0
 40
0.0
 40
0.2495988796
 40
0.4994899153
 40
0.7496448063
 40
1.0
 40
1.0
 40
1.0
 40
1.0
 10
9.6926177317
 20
8.0107259886
 30
0.0
 10
9.693324877
 20
8.0103840242
 30
0.0
 10
9.6946993368
 20
8.0096131279
 30
0.0
 10
9.6966297217
 20
8.0082513506
 30
0.0
 10
9.6984361341
 20
8.0067264455
 30
0.0
 10
9.6995633053
 20
8.0056243081
 30
0.0
 10
9.7001093433
 20
8.0050563456
 30
0.0
  0
SPLINE
  5
3A1
100
AcDbEntity
  8
0
100
AcDbSpline
 62
7
  6
CONTINUOUS
 70
0
 71
3
 72
71
 73
67
 74
0
 42
0.0000001
 43
0.0000001
 44
0.0000000001
 40
0.0
 40
0.0
 40
0.0
 40
0.0
 40
0.0155842357
 40
0.031115943
 40
0.0465952487
 40
0.0620238831
 40
0.0774034484
 40
0.0927362827
 40
0.1080251234
 40
0.1232731737
 40
0.1384840555
 40
0.1536617759
 40
0.1688106894
 40
0.1839354528
 40
0.1990409785
 40
0.2141323826
 40
0.2292149324
 40
0.2442939897
 40
0.2593749538
 40
0.2744632037
 40
0.2895640404
 40
0.3046826304
 40
0.3198239511
 40
0.3349927396
 40
0.3501934435
 40
0.3654301766
 40
0.3807066777
 40
0.3960262752
 40
0.4113918557
 40
0.4268058391
 40
0.4422701589
 40
0.4577862478
 40
0.4733550285
 40
0.4889769092
 40
0.5046517848
 40
0.5203790431
 40
0.5361575763
 40
0.5519857963
 40
0.5678616538
 40
0.5837826609
 40
0.5997459179
 40
0.6157481418
 40
0.6317856999
 40
0.6478546445
 40
0.6639507499
 40
0.6800695506
 40
0.6962063818
 40
0.7123564201
 40
0.7285147273
 40
0.7446762933
 40
0.7608360799
 40
0.7769890645
 40
0.7931302835
 40
0.8092548753
 40
0.8253581239
 40
0.8414355006
 40
0.8574827053
 40
0.873495705
 40
0.8894707706
 40
0.9054045132
 40
0.921293919
 40
0.9371363616
 40
0.9529297193
 40
0.9686720808
 40
0.9843626423
 40
1.0
 40
1.0
 40
1.0
 40
1.0
 10
12.5101001439
 20
7.1036859365
 30
0.0
 10
12.5101001439
 20
7.0962316267
 30
0.0
 10
12.5097353397
 20
7.0813454894
 30
0.0
 10
12.5080886135
 20
7.0591100693
 30
0.0
 10
12.5053470258
 20
7.0370573004
 30
0.0
 10
12.5015173223
 20
7.0152411889
 30
0.0
 10
12.4966085394
 20
6.9937139926
 30
0.0
 10
12.4906325204
 20
6.9725277107
 30
0.0
 10
12.4836035808
 20
6.9517333955
 30
0.0
 10
12.4755386272
 20
6.9313811971
 30
0.0
 10
12.4664570645
 20
6.911520194
 30
0.0
 10
12.4563807516
 20
6.8921982888
 30
0.0
 10
12.4453339508
 20
6.8734620899
 30
0.0
 10
12.4333432695
 20
6.8553567981
 30
0.0
 10
12.4204375964
 20
6.8379260974
 30
0.0
 10
12.4066480362
 20
6.8212120459
 30
0.0
 10
12.3920078452
 20
6.805254961
 30
0.0
 10
12.3765523329
 20
6.7900933342
 30
0.0
 10
12.3603187787
 20
6.775763735
 30
0.0
 10
12.3433463411
 20
6.7623007233
 30
0.0
 10
12.3256759623
 20
6.7497367643
 30
0.0
 10
12.3073502679
 20
6.7381021533
 30
0.0
 10
12.2884134732
 20
6.7274249231
 30
0.0
 10
12.2689112653
 20
6.7177307884
 30
0.0
 10
12.2488906887
 20
6.7090430887
 30
0.0
 10
12.2284000319
 20
6.7013827323
 30
0.0
 10
12.2074887102
 20
6.6947681464
 30
0.0
 10
12.1862071457
 20
6.6892152368
 30
0.0
 10
12.1646066486
 20
6.6847373393
 30
0.0
 10
12.1427392915
 20
6.6813451836
 30
0.0
 10
12.1206577795
 20
6.6790468859
 30
0.0
 10
12.0984153238
 20
6.677847927
 30
0.0
 10
12.0760655147
 20
6.6777511423
 30
0.0
 10
12.0536621933
 20
6.6787567153
 30
0.0
 10
12.0312593232
 20
6.6808621787
 30
0.0
 10
12.008910859
 20
6.684062401
 30
0.0
 10
11.9866706162
 20
6.6883496206
 30
0.0
 10
11.9645921434
 20
6.693713465
 30
0.0
 10
11.9427285946
 20
6.7001409761
 30
0.0
 10
11.921132603
 20
6.7076166416
 30
0.0
 10
11.8998561566
 20
6.7161224348
 30
0.0
 10
11.8789504682
 20
6.7256378428
 30
0.0
 10
11.8584658525
 20
6.7361399216
 30
0.0
 10
11.8384516102
 20
6.7476033618
 30
0.0
 10
11.8189559096
 20
6.7600005468
 30
0.0
 10
11.8000256722
 20
6.7733016192
 30
0.0
 10
11.7817064619
 20
6.7874745527
 30
0.0
 10
11.7640423731
 20
6.8024852246
 30
0.0
 10
11.7470759153
 20
6.8182974882
 30
0.0
 10
11.7308479229
 20
6.8348732751
 30
0.0
 10
11.7153974568
 20
6.8521726844
 30
0.0
 10
11.7007617113
 20
6.8701540779
 30
0.0
 10
11.6869759254
 20
6.8887741791
 30
0.0
 10
11.6740733005
 20
6.9079881776
 30
0.0
 10
11.6620849043
 20
6.9277498257
 30
0.0
 10
11.6510396062
 20
6.9480115583
 30
0.0
 10
11.6409640125
 20
6.9687246093
 30
0.0
 10
11.6318824028
 20
6.9898391269
 30
0.0
 10
11.6238166707
 20
7.0113042914
 30
0.0
 10
11.6167862722
 20
7.0330684398
 30
0.0
 10
11.6108081804
 20
7.055079174
 30
0.0
 10
11.6058967918
 20
7.0772835351
 30
0.0
 10
11.6020640404
 20
7.0996279567
 30
0.0
 10
11.5993190667
 20
7.1220589672
 30
0.0
 10
11.5976687217
 20
7.1445216749
 30
0.0
 10
11.597300184
 20
7.1595091093
 30
0.0
 10
11.597300184
 20
7.1669888288
 30
0.0
  0
SPLINE
  5
3A2
100
AcDbEntity
  8
0
100
AcDbSpline
 62
7
  6
CONTINUOUS
 70
0
 71
3
 72
93
 73
89
 74
0
 42
0.0000001
 43
0.0000001
 44
0.0000000001
 40
0.0
 40
0.0
 40
0.0
 40
0.0
 40
0.0039801937
 40
0.0081241041
 40
0.0124359148
 40
0.0169192388
 40
0.0215771093
 40
0.0264118321
 40
0.0314250806
 40
0.0366180335
 40
0.0419913997
 40
0.0475455037
 40
0.0532802467
 40
0.0591952311
 40
0.0652897068
 40
0.0715626757
 40
0.0780128495
 40
0.0846387141
 40
0.0984099719
 40
0.1128604892
 40
0.1279709624
 40
0.1437195013
 40
0.1600819063
 40
0.1770319017
 40
0.1945413332
 40
0.212580342
 40
0.2311175185
 40
0.2501200437
 40
0.2695538184
 40
0.2893835857
 40
0.3095730469
 40
0.3300849725
 40
0.3508813107
 40
0.3719232934
 40
0.3931715401
 40
0.4145861598
 40
0.4361268527
 40
0.4577530102
 40
0.4794238156
 40
0.5010983429
 40
0.5227356572
 40
0.5442949141
 40
0.5657354594
 40
0.5870169296
 40
0.6080993521
 40
0.6289432461
 40
0.6495097251
 40
0.6697605996
 40
0.6896584831
 40
0.709166899
 40
0.7282503917
 40
0.7468746418
 40
0.765006588
 40
0.7826145549
 40
0.799668391
 40
0.8161396204
 40
0.8320016126
 40
0.8472297755
 40
0.8618017799
 40
0.8756978284
 40
0.8823871435
 40
0.8889013871
 40
0.8952389361
 40
0.901398445
 40
0.9073787802
 40
0.9131791231
 40
0.918798926
 40
0.9242379917
 40
0.9294964788
 40
0.9345749429
 40
0.9394744034
 40
0.9441963488
 40
0.9487428608
 40
0.9531166043
 40
0.9573209881
 40
0.9613601738
 40
0.9652392422
 40
0.9689642523
 40
0.9725423873
 40
0.9759820679
 40
0.9792930569
 40
0.9824865922
 40
0.9855754208
 40
0.9885738722
 40
0.9914977732
 40
0.9943643591
 40
0.9971920207
 40
1.0
 40
1.0
 40
1.0
 40
1.0
 10
10.8875605232
 20
10.0747476105
 30
0.0
 10
10.8891588509
 20
10.0762914767
 30
0.0
 10
10.8924938313
 20
10.0793682806
 30
0.0
 10
10.8977887449
 20
10.0838621684
 30
0.0
 10
10.9034724752
 20
10.0883238014
 30
0.0
 10
10.9095419105
 20
10.092750851
 30
0.0
 10
10.9159941153
 20
10.0971412224
 30
0.0
 10
10.9228258972
 20
10.1014928127
 30
0.0
 10
10.930033858
 20
10.1058034744
 30
0.0
 10
10.9376143993
 20
10.1100710258
 30
0.0
 10
10.9455637123
 20
10.1142933894
 30
0.0
 10
10.9538778415
 20
10.1184683973
 30
0.0
 10
10.9625525985
 20
10.1225940217
 30
0.0
 10
10.971583648
 20
10.1266681173
 30
0.0
 10
10.9809664337
 20
10.1306886949
 30
0.0
 10
10.990696245
 20
10.1346536679
 30
0.0
 10
11.0007681864
 20
10.1385610978
 30
0.0
 10
11.0148280746
 20
10.1437584813
 30
0.0
 10
11.0332302672
 20
10.1500838335
 30
0.0
 10
11.0563186445
 20
10.1573196376
 30
0.0
 10
11.0806416206
 20
10.1642804559
 30
0.0
 10
11.1061500986
 20
10.1709521234
 30
0.0
 10
11.1327927671
 20
10.1773210527
 30
0.0
 10
11.1605158938
 20
10.1833742701
 30
0.0
 10
11.1892635394
 20
10.1890994446
 30
0.0
 10
11.2189776529
 20
10.1944849148
 30
0.0
 10
11.2495982033
 20
10.199519713
 30
0.0
 10
11.2810633043
 20
10.2041935881
 30
0.0
 10
11.3133093443
 20
10.2084970258
 30
0.0
 10
11.3462711178
 20
10.2124212676
 30
0.0
 10
11.3798819598
 20
10.2159583284
 30
0.0
 10
11.4140738826
 20
10.2191010125
 30
0.0
 10
11.4487777153
 20
10.2218429285
 30
0.0
 10
11.4839232454
 20
10.2241785006
 30
0.0
 10
11.5194393627
 20
10.2261029798
 30
0.0
 10
11.5552542034
 20
10.2276124535
 30
0.0
 10
11.5912952968
 20
10.2287038528
 30
0.0
 10
11.6274897126
 20
10.2293749591
 30
0.0
 10
11.6637642085
 20
10.2296244077
 30
0.0
 10
11.7000453796
 20
10.2294516914
 30
0.0
 10
11.736259807
 20
10.2288571607
 30
0.0
 10
11.7723342074
 20
10.2278420239
 30
0.0
 10
11.8081955823
 20
10.2264083452
 30
0.0
 10
11.8437713663
 20
10.2245590397
 30
0.0
 10
11.8789895745
 20
10.2222978676
 30
0.0
 10
11.9137789492
 20
10.2196294268
 30
0.0
 10
11.9480691049
 20
10.2165591439
 30
0.0
 10
11.9817906715
 20
10.2130932635
 30
0.0
 10
12.0148754359
 20
10.2092388359
 30
0.0
 10
12.0472564818
 20
10.2050037031
 30
0.0
 10
12.078868327
 20
10.2003964833
 30
0.0
 10
12.1096470591
 20
10.1954265543
 30
0.0
 10
12.1395304681
 20
10.1901040351
 30
0.0
 10
12.1684581768
 20
10.1844397651
 30
0.0
 10
12.1963717653
 20
10.1784452816
 30
0.0
 10
12.2232149032
 20
10.1721327964
 30
0.0
 10
12.248933446
 20
10.1655151682
 30
0.0
 10
12.2734756461
 20
10.1586058771
 30
0.0
 10
12.2967919541
 20
10.1514189802
 30
0.0
 10
12.3153903925
 20
10.1451336409
 30
0.0
 10
12.3296115758
 20
10.1399670411
 30
0.0
 10
12.3398066577
 20
10.1360810566
 30
0.0
 10
12.3496614251
 20
10.1321367625
 30
0.0
 10
12.3591709395
 20
10.1281361855
 30
0.0
 10
12.3683303983
 20
10.124081293
 30
0.0
 10
12.3771352097
 20
10.1199741791
 30
0.0
 10
12.3855809416
 20
10.1158168743
 30
0.0
 10
12.3936633627
 20
10.111611486
 30
0.0
 10
12.4013784262
 20
10.1073601218
 30
0.0
 10
12.4087222641
 20
10.1030648812
 30
0.0
 10
12.415691229
 20
10.0987279416
 30
0.0
 10
12.422281819
 20
10.0943513859
 30
0.0
 10
12.4284907912
 20
10.0899374344
 30
0.0
 10
12.4343150154
 20
10.0854881569
 30
0.0
 10
12.4397516407
 20
10.081005772
 30
0.0
 10
12.4447979149
 20
10.0764923466
 30
0.0
 10
12.4494513422
 20
10.0719500484
 30
0.0
 10
12.4537095422
 20
10.0673809491
 30
0.0
 10
12.4575703121
 20
10.0627871373
 30
0.0
 10
12.4610316105
 20
10.058170701
 30
0.0
 10
12.4640914458
 20
10.0535336755
 30
0.0
 10
12.4667480558
 20
10.0488782104
 30
0.0
 10
12.4689996007
 20
10.0442064097
 30
0.0
 10
12.4708445569
 20
10.0395205934
 30
0.0
 10
12.4722813025
 20
10.0348231755
 30
0.0
 10
12.4733086383
 20
10.0301166955
 30
0.0
 10
12.473925446
 20
10.0254044372
 30
0.0
 10
12.47406271
 20
10.0222562813
 30
0.0
 10
12.4740627041
 20
10.0206885454
 30
0.0
  0
SPLINE
  5
3A3
100
AcDbEntity
  8
0
100
AcDbSpline
 62
7
  6
CONTINUOUS
 70
0
 71
3
 72
71
 73
67
 74
0
 42
0.0000001
 43
0.0000001
 44
0.0000000001
 40
0.0
 40
0.0
 40
0.0
 40
0.0
 40
0.0155126345
 40
0.0309746536
 40
0.0463874799
 40
0.0617528732
 40
0.0770731933
 40
0.0923511726
 40
0.1075899783
 40
0.122793162
 40
0.13796463
 40
0.1531086077
 40
0.1682295969
 40
0.1833323321
 40
0.1984217341
 40
0.2135028602
 40
0.2285808527
 40
0.2436608859
 40
0.2587481129
 40
0.2738476127
 40
0.2889643391
 40
0.3041030706
 40
0.3192683628
 40
0.3344645026
 40
0.3496954668
 40
0.3649648841
 40
0.3802760032
 40
0.3956316636
 40
0.411034271
 40
0.4264857773
 40
0.4419876661
 40
0.4575409443
 40
0.4731461379
 40
0.4888032908
 40
0.5045119692
 40
0.5202712692
 40
0.5360798308
 40
0.551935855
 40
0.5678371231
 40
0.5837810192
 40
0.5997645553
 40
0.6157844013
 40
0.6318369162
 40
0.6479181811
 40
0.6640240329
 40
0.6801501006
 40
0.6962918429
 40
0.7124445883
 40
0.7286035735
 40
0.7447639831
 40
0.7609209889
 40
0.777069791
 40
0.7932056588
 40
0.8093239702
 40
0.82542025
 40
0.8414902077
 40
0.8575297751
 40
0.8735351433
 40
0.8895027946
 40
0.905429539
 40
0.9213125353
 40
0.9371493184
 40
0.9529378978
 40
0.9686764317
 40
0.9843643197
 40
1.0
 40
1.0
 40
1.0
 40
1.0
 10
12.5091598544
 20
7.1037670961
 30
0.0
 10
12.5087059701
 20
7.0969546792
 30
0.0
 10
12.5074701305
 20
7.0833716618
 30
0.0
 10
12.5046290713
 20
7.0631460986
 30
0.0
 10
12.5008101772
 20
7.0431475618
 30
0.0
 10
12.4960222166
 20
7.0234228809
 30
0.0
 10
12.4902762334
 20
7.0040174721
 30
0.0
 10
12.4835854276
 20
6.9849762065
 30
0.0
 10
12.4759652115
 20
6.9663430811
 30
0.0
 10
12.4674331662
 20
6.9481611556
 30
0.0
 10
12.4580089779
 20
6.9304724496
 30
0.0
 10
12.447714394
 20
6.9133178504
 30
0.0
 10
12.4365731741
 20
6.8967370171
 30
0.0
 10
12.4246110335
 20
6.8807682917
 30
0.0
 10
12.4118556138
 20
6.8654485863
 30
0.0
 10
12.3983363946
 20
6.8508133091
 30
0.0
 10
12.3840846187
 20
6.8368962894
 30
0.0
 10
12.3691332231
 20
6.8237296966
 30
0.0
 10
12.3535167586
 20
6.8113439709
 30
0.0
 10
12.3372713284
 20
6.7997677306
 30
0.0
 10
12.3204344974
 20
6.7890277048
 30
0.0
 10
12.3030451894
 20
6.7791486924
 30
0.0
 10
12.2851436007
 20
6.7701535005
 30
0.0
 10
12.2667711054
 20
6.7620628967
 30
0.0
 10
12.247970166
 20
6.7548955505
 30
0.0
 10
12.2287842393
 20
6.7486679687
 30
0.0
 10
12.2092576599
 20
6.7433944924
 30
0.0
 10
12.1894355409
 20
6.7390872602
 30
0.0
 10
12.16936367
 20
6.7357561825
 30
0.0
 10
12.149088406
 20
6.7334089209
 30
0.0
 10
12.1286565748
 20
6.7320508344
 30
0.0
 10
12.108115354
 20
6.7316850034
 30
0.0
 10
12.0875121649
 20
6.7323122248
 30
0.0
 10
12.0668945656
 20
6.73393101
 30
0.0
 10
12.0463101439
 20
6.7365375945
 30
0.0
 10
12.0258064043
 20
6.740125913
 30
0.0
 10
12.0054306575
 20
6.7446876323
 30
0.0
 10
11.9852299142
 20
6.750212186
 30
0.0
 10
11.9652507786
 20
6.7566867945
 30
0.0
 10
11.9455393443
 20
6.7640964997
 30
0.0
 10
11.9261410835
 20
6.7724241788
 30
0.0
 10
11.9071007355
 20
6.7816505788
 30
0.0
 10
11.8884622153
 20
6.7917543881
 30
0.0
 10
11.8702685121
 20
6.8027122798
 30
0.0
 10
11.8525615931
 20
6.814498967
 30
0.0
 10
11.8353823057
 20
6.8270872549
 30
0.0
 10
11.8187702652
 20
6.8404480808
 30
0.0
 10
11.8027637832
 20
6.8545506121
 30
0.0
 10
11.7873997791
 20
6.869362313
 30
0.0
 10
11.7727136965
 20
6.8848490187
 30
0.0
 10
11.7587394261
 20
6.9009750146
 30
0.0
 10
11.7455091997
 20
6.9177030954
 30
0.0
 10
11.7330535348
 20
6.9349946706
 30
0.0
 10
11.7214011713
 20
6.9528098573
 30
0.0
 10
11.7105790037
 20
6.9711075676
 30
0.0
 10
11.7006120257
 20
6.9898456052
 30
0.0
 10
11.6915232469
 20
7.0089807486
 30
0.0
 10
11.6833336447
 20
7.0284688554
 30
0.0
 10
11.6760621327
 20
7.0482649738
 30
0.0
 10
11.6697255179
 20
7.0683234421
 30
0.0
 10
11.6643384655
 20
7.0885979846
 30
0.0
 10
11.6599134254
 20
7.1090418584
 30
0.0
 10
11.6564606963
 20
7.12960778
 30
0.0
 10
11.6539881349
 20
7.150248628
 30
0.0
 10
11.6525017058
 20
7.1709159444
 30
0.0
 10
11.6521698005
 20
7.184704521
 30
0.0
 10
11.6521698005
 20
7.1915861972
 30
0.0
  0
SPLINE
  5
3A4
100
AcDbEntity
  8
0
100
AcDbSpline
 62
7
  6
CONTINUOUS
 70
0
 71
3
 72
11
 73
7
 74
0
 42
0.0000001
 43
0.0000001
 44
0.0000000001
 40
0.0
 40
0.0
 40
0.0
 40
0.0
 40
0.2497366663
 40
0.4996019682
 40
0.7496816646
 40
1.0
 40
1.0
 40
1.0
 40
1.0
 10
9.6848673015
 20
8.0124001579
 30
0.0
 10
9.6855332031
 20
8.0124311595
 30
0.0
 10
9.6868712621
 20
8.0124039715
 30
0.0
 10
9.6888540966
 20
8.0120954179
 30
0.0
 10
9.6907823934
 20
8.0115366985
 30
0.0
 10
9.6920161997
 20
8.0110168801
 30
0.0
 10
9.6926177317
 20
8.0107259886
 30
0.0
  0
SPLINE
  5
3A5
100
AcDbEntity
  8
0
100
AcDbSpline
 62
7
  6
CONTINUOUS
 70
0
 71
3
 72
19
 73
15
 74
0
 42
0.0000001
 43
0.0000001
 44
0.0000000001
 40
0.0
 40
0.0
 40
0.0
 40
0.0
 40
0.1504602541
 40
0.2916987487
 40
0.4244197399
 40
0.4878838165
 40
0.5495801819
 40
0.6682271511
 40
0.7255606398
 40
0.7817998923
 40
0.8371467013
 40
0.8918136246
 40
0.9460221895
 40
1.0
 40
1.0
 40
1.0
 40
1.0
 10
12.864099842
 20
7.7385960184
 30
0.0
 10
12.862573217
 20
7.7371214118
 30
0.0
 10
12.8595220486
 20
7.7343546228
 30
0.0
 10
12.854797621
 20
7.7306675404
 30
0.0
 10
12.8508070806
 20
7.7280598396
 30
0.0
 10
12.8476248956
 20
7.7262939721
 30
0.0
 10
12.844536583
 20
7.7247779543
 30
0.0
 10
12.8414121177
 20
7.7235387308
 30
0.0
 10
12.8382700694
 20
7.7226062098
 30
0.0
 10
12.8359469221
 20
7.7220687121
 30
0.0
 10
12.833631513
 20
7.7216855923
 30
0.0
 10
12.8313244478
 20
7.7214570582
 30
0.0
 10
12.8290266596
 20
7.7213832213
 30
0.0
 10
12.8275000756
 20
7.7214372121
 30
0.0
 10
12.8267404466
 20
7.7214898882
 30
0.0
  0
SPLINE
  5
3A6
100
AcDbEntity
  8
0
100
AcDbSpline
 62
7
  6
CONTINUOUS
 70
0
 71
3
 72
23
 73
19
 74
0
 42
0.0000001
 43
0.0000001
 44
0.0000000001
 40
0.0
 40
0.0
 40
0.0
 40
0.0
 40
0.0626771038
 40
0.1255153431
 40
0.1884774732
 40
0.2515224658
 40
0.3146082028
 40
0.3776917349
 40
0.4407301499
 40
0.5036813989
 40
0.5665050994
 40
0.6291633171
 40
0.69162132
 40
0.753848281
 40
0.8158179263
 40
0.8775091633
 40
0.9389060422
 40
1.0
 40
1.0
 40
1.0
 40
1.0
 10
9.6848673015
 20
8.0124001579
 30
0.0
 10
9.6743266167
 20
8.0176949892
 30
0.0
 10
9.6535769129
 20
8.0290301361
 30
0.0
 10
9.6236618965
 20
8.048139656
 30
0.0
 10
9.5950605611
 20
8.0692838664
 30
0.0
 10
9.5679253876
 20
8.0923505426
 30
0.0
 10
9.5423986826
 20
8.1172183781
 30
0.0
 10
9.5186149372
 20
8.1437563718
 30
0.0
 10
9.4966993705
 20
8.1718248794
 30
0.0
 10
9.4767674136
 20
8.2012761584
 30
0.0
 10
9.4589240598
 20
8.2319551967
 30
0.0
 10
9.4432634146
 20
8.2637005617
 30
0.0
 10
9.4298681218
 20
8.2963451673
 30
0.0
 10
9.4188088957
 20
8.3297172174
 30
0.0
 10
9.4101442491
 20
8.3636408694
 30
0.0
 10
9.4039201945
 20
8.3979380818
 30
0.0
 10
9.4001697073
 20
8.4324258764
 30
0.0
 10
9.3993298518
 20
8.4554871132
 30
0.0
 10
9.3993298518
 20
8.4669849815
 30
0.0
  0
SPLINE
  5
3A7
100
AcDbEntity
  8
0
100
AcDbSpline
 62
7
  6
CONTINUOUS
 70
0
 71
3
 72
21
 73
17
 74
0
 42
0.0000001
 43
0.0000001
 44
0.0000000001
 40
0.0
 40
0.0
 40
0.0
 40
0.0
 40
0.1270887401
 40
0.2534763958
 40
0.3164293939
 40
0.3792191153
 40
0.4418519824
 40
0.5043352253
 40
0.5666771555
 40
0.628887068
 40
0.6909751463
 40
0.7529524348
 40
0.8148307567
 40
0.876622622
 40
0.9383411531
 40
1.0
 40
1.0
 40
1.0
 40
1.0
 10
9.4541994894
 20
8.4669849847
 30
0.0
 10
9.4541994894
 20
8.4782641815
 30
0.0
 10
9.455100916
 20
8.5007704477
 30
0.0
 10
9.4585024019
 20
8.5286798374
 30
0.0
 10
9.4625739504
 20
8.5506885185
 30
0.0
 10
9.466291886
 20
8.5669933865
 30
0.0
 10
9.470671814
 20
8.5830896257
 30
0.0
 10
9.4757067383
 20
8.5989515631
 30
0.0
 10
9.4813885025
 20
8.6145535389
 30
0.0
 10
9.4877079695
 20
8.6298703991
 30
0.0
 10
9.4946549969
 20
8.6448774028
 30
0.0
 10
9.5022183529
 20
8.6595503574
 30
0.0
 10
9.5103858237
 20
8.6738655657
 30
0.0
 10
9.5191443459
 20
8.687799986
 30
0.0
 10
9.5284795374
 20
8.701330819
 30
0.0
 10
9.5350806748
 20
8.7100721261
 30
0.0
 10
9.5384714979
 20
8.71436723
 30
0.0
  0
SPLINE
  5
3A8
100
AcDbEntity
  8
0
100
AcDbSpline
 62
7
  6
CONTINUOUS
 70
0
 71
3
 72
58
 73
54
 74
0
 42
0.0000001
 43
0.0000001
 44
0.0000000001
 40
0.0
 40
0.0
 40
0.0
 40
0.0
 40
0.014971111
 40
0.0299452811
 40
0.0449255502
 40
0.0599149211
 40
0.0749163417
 40
0.0899326866
 40
0.1049667392
 40
0.1200211759
 40
0.1350985513
 40
0.1502012824
 40
0.165331634
 40
0.1804917074
 40
0.1956834293
 40
0.2109085411
 40
0.2261685883
 40
0.2414649152
 40
0.2567986583
 40
0.2721707408
 40
0.2875818677
 40
0.3030325254
 40
0.318522981
 40
0.334053281
 40
0.3496232521
 40
0.365232506
 40
0.3808804426
 40
0.3965662542
 40
0.4122889298
 40
0.4280472648
 40
0.4438398679
 40
0.4596651681
 40
0.4914017738
 40
0.5232463224
 40
0.5551808304
 40
0.5871854993
 40
0.6192391213
 40
0.6513195142
 40
0.6834039616
 40
0.7154696684
 40
0.7474942105
 40
0.7794559844
 40
0.8113346428
 40
0.8431115119
 40
0.8747699871
 40
0.8905528157
 40
0.9063009566
 40
0.9220130615
 40
0.9376880001
 40
0.9533248253
 40
0.9689226351
 40
0.984481423
 40
1.0
 40
1.0
 40
1.0
 40
1.0
 10
10.191264285
 20
7.6194400183
 30
0.0
 10
10.1845697172
 20
7.6129735553
 30
0.0
 10
10.1709205723
 20
7.6003040181
 30
0.0
 10
10.1497055551
 20
7.5821263039
 30
0.0
 10
10.1277761981
 20
7.5647980336
 30
0.0
 10
10.1051631152
 20
7.5483434332
 30
0.0
 10
10.0818973182
 20
7.53278503
 30
0.0
 10
10.0580108428
 20
7.5181442795
 30
0.0
 10
10.03353656
 20
7.5044413097
 30
0.0
 10
10.0085081697
 20
7.4916949429
 30
0.0
 10
9.982960115
 20
7.4799227039
 30
0.0
 10
9.9569275428
 20
7.4691408041
 30
0.0
 10
9.9304462833
 20
7.4593640526
 30
0.0
 10
9.9035527851
 20
7.4506058597
 30
0.0
 10
9.8762840504
 20
7.4428782574
 30
0.0
 10
9.8486775899
 20
7.4361918872
 30
0.0
 10
9.8207713906
 20
7.4305559096
 30
0.0
 10
9.7926038473
 20
7.4259780352
 30
0.0
 10
9.7642137048
 20
7.4224645428
 30
0.0
 10
9.7356400109
 20
7.4200202745
 30
0.0
 10
9.7069220704
 20
7.4186485463
 30
0.0
 10
9.67809938
 20
7.4183512054
 30
0.0
 10
9.6492115757
 20
7.4191286454
 30
0.0
 10
9.6202983845
 20
7.4209798059
 30
0.0
 10
9.5913995634
 20
7.4239020922
 30
0.0
 10
9.5625548464
 20
7.4278914519
 30
0.0
 10
9.5338038901
 20
7.4329423905
 30
0.0
 10
9.5051862368
 20
7.4390479679
 30
0.0
 10
9.4767411937
 20
7.4461997548
 30
0.0
 10
9.4485079764
 20
7.4543878383
 30
0.0
 10
9.4205249689
 20
7.4636011596
 30
0.0
 10
9.3835689009
 20
7.4772466666
 30
0.0
 10
9.3381927066
 20
7.4968069676
 30
0.0
 10
9.2854091794
 20
7.5241176661
 30
0.0
 10
9.2345225996
 20
7.5551419143
 30
0.0
 10
9.1858140919
 20
7.5897085457
 30
0.0
 10
9.139550363
 20
7.6276277656
 30
0.0
 10
9.0959854595
 20
7.6686913427
 30
0.0
 10
9.0553583707
 20
7.7126737991
 30
0.0
 10
9.0178921945
 20
7.7593337876
 30
0.0
 10
8.9837925691
 20
7.8084152331
 30
0.0
 10
8.9532469517
 20
7.8596487423
 30
0.0
 10
8.9264230084
 20
7.9127536643
 30
0.0
 10
8.9034689231
 20
7.9674367027
 30
0.0
 10
8.8876523408
 20
8.0141263131
 30
0.0
 10
8.8770564825
 20
8.0519629134
 30
0.0
 10
8.8701528293
 20
8.0805182212
 30
0.0
 10
8.8642949644
 20
8.1092374717
 30
0.0
 10
8.8594908045
 20
8.1380816535
 30
0.0
 10
8.8557470809
 20
8.1670108789
 30
0.0
 10
8.8530688085
 20
8.1959857722
 30
0.0
 10
8.851459891
 20
8.2249656748
 30
0.0
 10
8.8511010643
 20
8.2442885901
 30
0.0
 10
8.8511010643
 20
8.2539366057
 30
0.0
  0
SPLINE
  5
3A9
100
AcDbEntity
  8
0
100
AcDbSpline
 62
7
  6
CONTINUOUS
 70
0
 71
3
 72
57
 73
53
 74
0
 42
0.0000001
 43
0.0000001
 44
0.0000000001
 40
0.0
 40
0.0
 40
0.0
 40
0.0
 40
0.0149679853
 40
0.0299402381
 40
0.0449197457
 40
0.059909452
 40
0.0749122403
 40
0.0899309153
 40
0.1049681858
 40
0.1200266502
 40
0.1351087821
 40
0.1502169147
 40
0.1653532275
 40
0.1805197362
 40
0.195718282
 40
0.2109505197
 40
0.2262179106
 40
0.241521717
 40
0.2568629956
 40
0.2722425909
 40
0.2876611346
 40
0.3031190439
 40
0.3186165199
 40
0.3341535463
 40
0.3497298945
 40
0.3653451258
 40
0.3809985932
 40
0.3966894469
 40
0.4124166427
 40
0.4281789468
 40
0.4597980908
 40
0.4915385322
 40
0.5233844468
 40
0.5553178918
 40
0.5873191784
 40
0.6193672772
 40
0.651440236
 40
0.6835156156
 40
0.7155709292
 40
0.7475840829
 40
0.7795338135
 40
0.811400109
 40
0.8431646194
 40
0.8748110347
 40
0.8905879971
 40
0.90633044
 40
0.922037039
 40
0.9377066939
 40
0.9533384596
 40
0.9689314569
 40
0.9844857293
 40
1.0
 40
1.0
 40
1.0
 40
1.0
 10
10.1912013583
 20
7.6195103564
 30
0.0
 10
10.1844451292
 20
7.6131950213
 30
0.0
 10
10.1706797186
 20
7.6008280551
 30
0.0
 10
10.1493122923
 20
7.5831044595
 30
0.0
 10
10.1272514774
 20
7.5662289514
 30
0.0
 10
10.1045276857
 20
7.5502248094
 30
0.0
 10
10.0811716789
 20
7.5351136613
 30
0.0
 10
10.0572151987
 20
7.5209160875
 30
0.0
 10
10.0326907948
 20
7.5076513445
 30
0.0
 10
10.0076318017
 20
7.4953374152
 30
0.0
 10
9.9820722562
 20
7.4839910203
 30
0.0
 10
9.9560468672
 20
7.4736275914
 30
0.0
 10
9.9295910043
 20
7.4642611527
 30
0.0
 10
9.9027406068
 20
7.4559043942
 30
0.0
 10
9.8755321364
 20
7.4485686705
 30
0.0
 10
9.8480025452
 20
7.4422639394
 30
0.0
 10
9.8201892311
 20
7.4369987026
 30
0.0
 10
9.7921299627
 20
7.4327800867
 30
0.0
 10
9.7638628367
 20
7.429613836
 30
0.0
 10
9.7354262386
 20
7.4275042127
 30
0.0
 10
9.7068587792
 20
7.4264540309
 30
0.0
 10
9.6781992404
 20
7.4264647051
 30
0.0
 10
9.6494865302
 20
7.4275362362
 30
0.0
 10
9.620759626
 20
7.4296671103
 30
0.0
 10
9.5920575168
 20
7.4328544028
 30
0.0
 10
9.5634191702
 20
7.4370937893
 30
0.0
 10
9.5348834286
 20
7.4423795234
 30
0.0
 10
9.5064891301
 20
7.4487043274
 30
0.0
 10
9.4782743707
 20
7.456059772
 30
0.0
 10
9.4409110186
 20
7.4672379323
 30
0.0
 10
9.3948469009
 20
7.4837422681
 30
0.0
 10
9.3409611562
 20
7.507452888
 30
0.0
 10
9.288691924
 20
7.5349633098
 30
0.0
 10
9.2383242724
 20
7.5661236278
 30
0.0
 10
9.1901304608
 20
7.6007648259
 30
0.0
 10
9.1443717372
 20
7.6386990719
 30
0.0
 10
9.101295856
 20
7.6797206306
 30
0.0
 10
9.0611363022
 20
7.7236072931
 30
0.0
 10
9.0241105998
 20
7.7701211718
 30
0.0
 10
8.9904195516
 20
7.8190104091
 30
0.0
 10
8.960245822
 20
7.8700099798
 30
0.0
 10
8.9337530802
 20
7.9228441932
 30
0.0
 10
8.9110856605
 20
7.9772249082
 30
0.0
 10
8.8954686299
 20
8.0236402628
 30
0.0
 10
8.88500712
 20
8.0612472217
 30
0.0
 10
8.878191293
 20
8.0896261629
 30
0.0
 10
8.8724081534
 20
8.1181654393
 30
0.0
 10
8.8676654181
 20
8.1468267773
 30
0.0
 10
8.863969644
 20
8.1755710496
 30
0.0
 10
8.8613257302
 20
8.204359659
 30
0.0
 10
8.8597374814
 20
8.2331526936
 30
0.0
 10
8.8593832671
 20
8.2523508191
 30
0.0
 10
8.8593832671
 20
8.2619365997
 30
0.0
  0
SPLINE
  5
3AA
100
AcDbEntity
  8
0
100
AcDbSpline
 62
7
  6
CONTINUOUS
 70
0
 71
3
 72
45
 73
41
 74
0
 42
0.0000001
 43
0.0000001
 44
0.0000000001
 40
0.0
 40
0.0
 40
0.0
 40
0.0
 40
0.0149721384
 40
0.0299473353
 40
0.0449286316
 40
0.0599190316
 40
0.0749214813
 40
0.0899388561
 40
0.1049739408
 40
0.1200294102
 40
0.1351078205
 40
0.1502115883
 40
0.1653429774
 40
0.1805040919
 40
0.2109173721
 40
0.2414702803
 40
0.2721727302
 40
0.3030312324
 40
0.3340487994
 40
0.3652249282
 40
0.3965556662
 40
0.4280337495
 40
0.4596488007
 40
0.4913875843
 40
0.5232343171
 40
0.5551710162
 40
0.5871778805
 40
0.6192337014
 40
0.6513162944
 40
0.6834029425
 40
0.7154708484
 40
0.7474975871
 40
0.779461553
 40
0.8113423971
 40
0.8431214459
 40
0.874782092
 40
0.9063101554
 40
0.9376942574
 40
0.9689257386
 40
1.0
 40
1.0
 40
1.0
 40
1.0
 10
10.0276755131
 20
7.9014642915
 30
0.0
 10
10.0236065028
 20
7.8975339425
 30
0.0
 10
10.0153104639
 20
7.8898333167
 30
0.0
 10
10.0024158092
 20
7.8787848209
 30
0.0
 10
9.9890870176
 20
7.8682525707
 30
0.0
 10
9.975342622
 20
7.8582513817
 30
0.0
 10
9.9612015007
 20
7.8487949145
 30
0.0
 10
9.9466831539
 20
7.8398961607
 30
0.0
 10
9.9318075096
 20
7.8315674353
 30
0.0
 10
9.9165950904
 20
7.8238201241
 30
0.0
 10
9.9010668017
 20
7.8166648808
 30
0.0
 10
9.8852440738
 20
7.8101116221
 30
0.0
 10
9.869148397
 20
7.804169199
 30
0.0
 10
9.8473335513
 20
7.7970648272
 30
0.0
 10
9.8194814732
 20
7.789752542
 30
0.0
 10
9.7853718396
 20
7.7835444579
 30
0.0
 10
9.7507215394
 20
7.7799253853
 30
0.0
 10
9.7157225445
 20
7.7789152572
 30
0.0
 10
9.6805669892
 20
7.7805190928
 30
0.0
 10
9.6454482186
 20
7.7847276422
 30
0.0
 10
9.6105591586
 20
7.7915173355
 30
0.0
 10
9.5760914354
 20
7.8008505157
 30
0.0
 10
9.542234298
 20
7.8126756056
 30
0.0
 10
9.5091735733
 20
7.8269273315
 30
0.0
 10
9.477090688
 20
7.8435271914
 30
0.0
 10
9.4461617018
 20
7.8623838849
 30
0.0
 10
9.4165563159
 20
7.8833937395
 30
0.0
 10
9.3884369504
 20
7.9064412956
 30
0.0
 10
9.3619579054
 20
7.9313999913
 30
0.0
 10
9.3372645287
 20
7.9581328364
 30
0.0
 10
9.3144923467
 20
7.9864930831
 30
0.0
 10
9.29376639
 20
8.0163250947
 30
0.0
 10
9.2752005374
 20
8.0474651952
 30
0.0
 10
9.2588968621
 20
8.0797425316
 30
0.0
 10
9.2449450174
 20
8.1129799577
 30
0.0
 10
9.2334218381
 20
8.1469951247
 30
0.0
 10
9.2243909048
 20
8.1816011691
 30
0.0
 10
9.2179021907
 20
8.2166087095
 30
0.0
 10
9.2139915498
 20
8.2518230252
 30
0.0
 10
9.2131156583
 20
8.2753744035
 30
0.0
 10
9.2131156583
 20
8.2871158722
 30
0.0
  0
SPLINE
  5
3AB
100
AcDbEntity
  8
0
100
AcDbSpline
 62
7
  6
CONTINUOUS
 70
0
 71
3
 72
25
 73
21
 74
0
 42
0.0000001
 43
0.0000001
 44
0.0000000001
 40
0.0
 40
0.0
 40
0.0
 40
0.0
 40
0.0609314581
 40
0.0914580173
 40
0.12202638
 40
0.1832915645
 40
0.2447510209
 40
0.2755615524
 40
0.3064260244
 40
0.3683161224
 40
0.4304370205
 40
0.4927951513
 40
0.5553939627
 40
0.6182339086
 40
0.6813124787
 40
0.7446242588
 40
0.80816104
 40
0.8719119118
 40
0.9358635033
 40
1.0
 40
1.0
 40
1.0
 40
1.0
 10
10.1066885741
 20
8.0057185346
 30
0.0
 10
10.0990434343
 20
8.001916753
 30
0.0
 10
10.0873961138
 20
7.9965468326
 30
0.0
 10
10.0715666424
 20
7.9900756552
 30
0.0
 10
10.0555106703
 20
7.9840528881
 30
0.0
 10
10.0350755124
 20
7.9773911848
 30
0.0
 10
10.0142562503
 20
7.9719152
 30
0.0
 10
9.9973934345
 20
7.9682490296
 30
0.0
 10
9.980373193
 20
7.9650564913
 30
0.0
 10
9.9588780963
 20
7.9619720112
 30
0.0
 10
9.93284497
 20
7.9597329033
 30
0.0
 10
9.9066275685
 20
7.9589590916
 30
0.0
 10
9.8803074075
 20
7.959652961
 30
0.0
 10
9.8539656245
 20
7.961812237
 30
0.0
 10
9.8276835952
 20
7.9654301569
 30
0.0
 10
9.8015424245
 20
7.97049546
 30
0.0
 10
9.7756228655
 20
7.9769923924
 30
0.0
 10
9.7500046635
 20
7.9849009244
 30
0.0
 10
9.7247677682
 20
7.9941961629
 30
0.0
 10
9.708269333
 20
8.0012897361
 30
0.0
 10
9.7001093433
 20
8.0050563456
 30
0.0
  0
SPLINE
  5
3AC
100
AcDbEntity
  8
0
100
AcDbSpline
 62
7
  6
CONTINUOUS
 70
0
 71
3
 72
39
 73
35
 74
0
 42
0.0000001
 43
0.0000001
 44
0.0000000001
 40
0.0
 40
0.0
 40
0.0
 40
0.0
 40
0.0299269168
 40
0.0599129896
 40
0.089977639
 40
0.1201386025
 40
0.1504114841
 40
0.1808095446
 40
0.2113434253
 40
0.2420209673
 40
0.2728470911
 40
0.3038237393
 40
0.3349498797
 40
0.3662215675
 40
0.3976320638
 40
0.4291720002
 40
0.4608295861
 40
0.4925908534
 40
0.5244399357
 40
0.5563593732
 40
0.5883304381
 40
0.620333477
 40
0.6523482654
 40
0.6843543699
 40
0.7163315117
 40
0.7482599285
 40
0.780120731
 40
0.8118962478
 40
0.8435703536
 40
0.8751287766
 40
0.9065593733
 40
0.937852462
 40
0.969000617
 40
1.0
 40
1.0
 40
1.0
 40
1.0
 10
10.1417166606
 20
8.0900648145
 30
0.0
 10
10.1340015998
 20
8.0843918635
 30
0.0
 10
10.118122592
 20
8.0736114337
 30
0.0
 10
10.0931361621
 20
8.0592548299
 30
0.0
 10
10.0670809413
 20
8.0467662138
 30
0.0
 10
10.0400875638
 20
8.0362083334
 30
0.0
 10
10.012289047
 20
8.0276328155
 30
0.0
 10
9.9838229525
 20
8.0210818713
 30
0.0
 10
9.9548299207
 20
8.0165875267
 30
0.0
 10
9.9254531669
 20
8.0141716649
 30
0.0
 10
9.8958377173
 20
8.0138459006
 30
0.0
 10
9.8661297137
 20
8.0156115538
 30
0.0
 10
9.836475694
 20
8.0194596224
 30
0.0
 10
9.8070218696
 20
8.0253708311
 30
0.0
 10
9.7779134163
 20
8.033315778
 30
0.0
 10
9.7492937696
 20
8.0432550762
 30
0.0
 10
9.721303932
 20
8.0551395561
 30
0.0
 10
9.6940817663
 20
8.0689104628
 30
0.0
 10
9.6677613395
 20
8.0844997935
 30
0.0
 10
9.6424722737
 20
8.1018306315
 30
0.0
 10
9.6183391213
 20
8.1208175277
 30
0.0
 10
9.5954807405
 20
8.1413668909
 30
0.0
 10
9.574009708
 20
8.1633774461
 30
0.0
 10
9.5540317954
 20
8.1867407582
 30
0.0
 10
9.5356454496
 20
8.2113417528
 30
0.0
 10
9.5189413166
 20
8.2370592767
 30
0.0
 10
9.5040017548
 20
8.2637666611
 30
0.0
 10
9.4909004699
 20
8.2913323732
 30
0.0
 10
9.4797021541
 20
8.3196206367
 30
0.0
 10
9.4704621816
 20
8.3484921521
 30
0.0
 10
9.4632262733
 20
8.3778045519
 30
0.0
 10
9.4580303628
 20
8.4074138504
 30
0.0
 10
9.454900208
 20
8.4371722444
 30
0.0
 10
9.4541994894
 20
8.4570655601
 30
0.0
 10
9.4541994894
 20
8.4669849847
 30
0.0
  0
SPLINE
  5
3AD
100
AcDbEntity
  8
0
100
AcDbSpline
 62
7
  6
CONTINUOUS
 70
0
 71
3
 72
25
 73
21
 74
0
 42
0.0000001
 43
0.0000001
 44
0.0000000001
 40
0.0
 40
0.0
 40
0.0
 40
0.0
 40
0.0616978913
 40
0.0925580883
 40
0.123427501
 40
0.1851990059
 40
0.247036806
 40
0.2779889162
 40
0.3089646064
 40
0.3709907411
 40
0.4331370861
 40
0.4954195106
 40
0.5578525818
 40
0.6204494299
 40
0.6832216521
 40
0.7461791627
 40
0.8093302803
 40
0.8726812044
 40
0.9362371098
 40
1.0
 40
1.0
 40
1.0
 40
1.0
 10
9.070012113
 20
8.7802523014
 30
0.0
 10
9.0616543086
 20
8.771910286
 30
0.0
 10
9.0494287655
 20
8.7590764415
 30
0.0
 10
9.0337918592
 20
8.741366952
 30
0.0
 10
9.0185963697
 20
8.7232582123
 30
0.0
 10
9.0004518433
 20
8.699897629
 30
0.0
 10
8.9834946966
 20
8.6756420755
 30
0.0
 10
8.9706601146
 20
8.6557299436
 30
0.0
 10
8.9583089651
 20
8.6354722044
 30
0.0
 10
8.9438056969
 20
8.6095453112
 30
0.0
 10
8.9279492574
 20
8.5775593284
 30
0.0
 10
8.9136665602
 20
8.544754967
 30
0.0
 10
8.9009894801
 20
8.5112053842
 30
0.0
 10
8.8899459449
 20
8.4769847713
 30
0.0
 10
8.880560371
 20
8.442168969
 30
0.0
 10
8.8728534427
 20
8.4068350442
 30
0.0
 10
8.86684219
 20
8.3710613455
 30
0.0
 10
8.8625397745
 20
8.334926728
 30
0.0
 10
8.8599557369
 20
8.2985123217
 30
0.0
 10
8.8593832671
 20
8.2741403878
 30
0.0
 10
8.8593832671
 20
8.2619365997
 30
0.0
  0
SPLINE
  5
3AE
100
AcDbEntity
  8
0
100
AcDbSpline
 62
7
  6
CONTINUOUS
 70
0
 71
3
 72
39
 73
35
 74
0
 42
0.0000001
 43
0.0000001
 44
0.0000000001
 40
0.0
 40
0.0
 40
0.0
 40
0.0
 40
0.0318890086
 40
0.0636722101
 40
0.0953510803
 40
0.1269280754
 40
0.1584066186
 40
0.1897910761
 40
0.2210867236
 40
0.2522997033
 40
0.2834369699
 40
0.3145062288
 40
0.3455158649
 40
0.376474862
 40
0.4073927159
 40
0.4382793397
 40
0.4691449646
 40
0.5000000362
 40
0.5308551076
 40
0.5617207319
 40
0.5926073544
 40
0.623525206
 40
0.6544842001
 40
0.6854938321
 40
0.7165630863
 40
0.7477003478
 40
0.7789133224
 40
0.8102089637
 40
0.8415934204
 40
0.8730719395
 40
0.9046489851
 40
0.9363276969
 40
0.9681111878
 40
1.0
 40
1.0
 40
1.0
 40
1.0
 10
9.6196399714
 20
8.7642864597
 30
0.0
 10
9.6107736202
 20
8.7645939193
 30
0.0
 10
9.5930526157
 20
8.7647836352
 30
0.0
 10
9.5665343536
 20
8.7637854363
 30
0.0
 10
9.5401817489
 20
8.7615063788
 30
0.0
 10
9.51405633
 20
8.7579516185
 30
0.0
 10
9.4882180983
 20
8.7531292998
 30
0.0
 10
9.4627266725
 20
8.7470504758
 30
0.0
 10
9.437640809
 20
8.7397291016
 30
0.0
 10
9.4130183578
 20
8.7311819991
 30
0.0
 10
9.3889161043
 20
8.7214288201
 30
0.0
 10
9.3653896426
 20
8.7104920054
 30
0.0
 10
9.3424932401
 20
8.6983967405
 30
0.0
 10
9.320279716
 20
8.6851708873
 30
0.0
 10
9.2988003171
 20
8.6708449222
 30
0.0
 10
9.2781045985
 20
8.6554518658
 30
0.0
 10
9.2582403082
 20
8.6390272069
 30
0.0
 10
9.2392532748
 20
8.6216088204
 30
0.0
 10
9.2211873019
 20
8.6032368787
 30
0.0
 10
9.20408406
 20
8.5839537633
 30
0.0
 10
9.1879829879
 20
8.5638039651
 30
0.0
 10
9.1729212071
 20
8.5428339741
 30
0.0
 10
9.1589334347
 20
8.5210921726
 30
0.0
 10
9.1460519036
 20
8.4986287209
 30
0.0
 10
9.1343062883
 20
8.4754954411
 30
0.0
 10
9.1237236369
 20
8.4517456958
 30
0.0
 10
9.1143283122
 20
8.4274342644
 30
0.0
 10
9.1061419204
 20
8.402617216
 30
0.0
 10
9.099183287
 20
8.377351788
 30
0.0
 10
9.0934683653
 20
8.351696203
 30
0.0
 10
9.0890103315
 20
8.3257097104
 30
0.0
 10
9.0858192822
 20
8.2994518778
 30
0.0
 10
9.0839026749
 20
8.2729841565
 30
0.0
 10
9.0834780721
 20
8.2552671981
 30
0.0
 10
9.0834780721
 20
8.2463955722
 30
0.0
  0
SPLINE
  5
3AF
100
AcDbEntity
  8
0
100
AcDbSpline
 62
7
  6
CONTINUOUS
 70
0
 71
3
 72
39
 73
35
 74
0
 42
0.0000001
 43
0.0000001
 44
0.0000000001
 40
0.0
 40
0.0
 40
0.0
 40
0.0
 40
0.0318260376
 40
0.0635496865
 40
0.0951730296
 40
0.1266990561
 40
0.158131641
 40
0.1894755183
 40
0.2207362435
 40
0.2519201489
 40
0.2830342902
 40
0.314086386
 40
0.3450847477
 40
0.3760382031
 40
0.4069560132
 40
0.4378477837
 40
0.4687233734
 40
0.4995927989
 40
0.5304661373
 40
0.561353428
 40
0.5922645742
 40
0.623209247
 40
0.6541967916
 40
0.6852361388
 40
0.7163357217
 40
0.7475033982
 40
0.7787463779
 40
0.8100711622
 40
0.8414834868
 40
0.8729882456
 40
0.904589621
 40
0.9362904326
 40
0.9680938705
 40
1.0
 40
1.0
 40
1.0
 40
1.0
 10
9.6377073335
 20
8.7633156142
 30
0.0
 10
9.6296229251
 20
8.7633008591
 30
0.0
 10
9.6134781707
 20
8.7628917529
 30
0.0
 10
9.5893576913
 20
8.7611338909
 30
0.0
 10
9.565423527
 20
8.7582366699
 30
0.0
 10
9.5417289581
 20
8.7542064039
 30
0.0
 10
9.5183258556
 20
8.7490519037
 30
0.0
 10
9.4952656955
 20
8.7427844457
 30
0.0
 10
9.4725991449
 20
8.7354177527
 30
0.0
 10
9.4503760323
 20
8.7269679617
 30
0.0
 10
9.4286452127
 20
8.7174535994
 30
0.0
 10
9.4074544584
 20
8.7068955519
 30
0.0
 10
9.3868503595
 20
8.695316999
 30
0.0
 10
9.3668782204
 20
8.6827433671
 30
0.0
 10
9.3475819599
 20
8.6692022734
 30
0.0
 10
9.3290040148
 20
8.6547234652
 30
0.0
 10
9.3111852417
 20
8.6393387598
 30
0.0
 10
9.2941648139
 20
8.6230819852
 30
0.0
 10
9.2779801492
 20
8.6059888856
 30
0.0
 10
9.2626668248
 20
8.5880970455
 30
0.0
 10
9.2482585002
 20
8.5694458055
 30
0.0
 10
9.234786843
 20
8.5500761755
 30
0.0
 10
9.2222814564
 20
8.5300307462
 30
0.0
 10
9.210769797
 20
8.5093536032
 30
0.0
 10
9.2002771342
 20
8.4880902143
 30
0.0
 10
9.1908264948
 20
8.46628733
 30
0.0
 10
9.1824386118
 20
8.4439928809
 30
0.0
 10
9.1751318812
 20
8.4212558696
 30
0.0
 10
9.1689223295
 20
8.3981262754
 30
0.0
 10
9.163823516
 20
8.3746549
 30
0.0
 10
9.1598466572
 20
8.3508934277
 30
0.0
 10
9.1570002998
 20
8.3268937284
 30
0.0
 10
9.1552908445
 20
8.3027093933
 30
0.0
 10
9.1549121012
 20
8.2865233281
 30
0.0
 10
9.1549121012
 20
8.2784185613
 30
0.0
  0
SPLINE
  5
3B0
100
AcDbEntity
  8
0
100
AcDbSpline
 62
7
  6
CONTINUOUS
 70
0
 71
3
 72
15
 73
11
 74
0
 42
0.0000001
 43
0.0000001
 44
0.0000000001
 40
0.0
 40
0.0
 40
0.0
 40
0.0
 40
0.1267426523
 40
0.2529409672
 40
0.3786084412
 40
0.5037658684
 40
0.6284428975
 40
0.7526767535
 40
0.8765120477
 40
1.0
 40
1.0
 40
1.0
 40
1.0
 10
11.8810634055
 20
7.3590830693
 30
0.0
 10
11.8810634055
 20
7.3668953786
 30
0.0
 10
11.8815480825
 20
7.3824909292
 30
0.0
 10
11.8837374785
 20
7.4057399219
 30
0.0
 10
11.8873793118
 20
7.4287082576
 30
0.0
 10
11.8924596499
 20
7.4513056809
 30
0.0
 10
11.8989588585
 20
7.4734447009
 30
0.0
 10
11.9068520372
 20
7.4950395947
 30
0.0
 10
11.916108032
 20
7.5160053646
 30
0.0
 10
11.9231737707
 20
7.5295285875
 30
0.0
 10
11.9269197928
 20
7.5361546859
 30
0.0
  0
SPLINE
  5
3B1
100
AcDbEntity
  8
0
100
AcDbSpline
 62
7
  6
CONTINUOUS
 70
0
 71
3
 72
27
 73
23
 74
0
 42
0.0000001
 43
0.0000001
 44
0.0000000001
 40
0.0
 40
0.0
 40
0.0
 40
0.0
 40
0.0637766796
 40
0.095588271
 40
0.1273466077
 40
0.1907030374
 40
0.2538558037
 40
0.2853602204
 40
0.316816446
 40
0.3795841254
 40
0.4421741849
 40
0.504598913
 40
0.5668722186
 40
0.6290095134
 40
0.6910275664
 40
0.7219999742
 40
0.7529493985
 40
0.8147838932
 40
0.8765559292
 40
0.9074274494
 40
0.9382910677
 40
1.0
 40
1.0
 40
1.0
 40
1.0
 10
8.8511010643
 20
8.2539366057
 30
0.0
 10
8.8511010643
 20
8.2663877579
 30
0.0
 10
8.8515484294
 20
8.2850536543
 30
0.0
 10
8.8530452535
 20
8.3098722391
 30
0.0
 10
8.8551362769
 20
8.3345659744
 30
0.0
 10
8.8588653406
 20
8.3652518303
 30
0.0
 10
8.8640836687
 20
8.395669757
 30
0.0
 10
8.8691416753
 20
8.4197680532
 30
0.0
 10
8.8747762681
 20
8.4436607844
 30
0.0
 10
8.8829091314
 20
8.4731898526
 30
0.0
 10
8.894398412
 20
8.5080196006
 30
0.0
 10
8.9075844699
 20
8.5421401374
 30
0.0
 10
8.9224369397
 20
8.5754723614
 30
0.0
 10
8.9389213376
 20
8.6079390378
 30
0.0
 10
8.9539942436
 20
8.6342238722
 30
0.0
 10
8.9668269105
 20
8.6547401981
 30
0.0
 10
8.9801597741
 20
8.6748921333
 30
0.0
 10
8.9977704549
 20
8.6994111744
 30
0.0
 10
9.0166059463
 20
8.7229828949
 30
0.0
 10
9.0323744254
 20
8.7412278559
 30
0.0
 10
9.0485979481
 20
8.7590520026
 30
0.0
 10
9.0612770298
 20
8.7719459323
 30
0.0
 10
9.0699422197
 20
8.7803158723
 30
0.0
  0
SPLINE
  5
3B2
100
AcDbEntity
  8
0
100
AcDbSpline
 62
7
  6
CONTINUOUS
 70
0
 71
3
 72
23
 73
19
 74
0
 42
0.0000001
 43
0.0000001
 44
0.0000000001
 40
0.0
 40
0.0
 40
0.0
 40
0.0
 40
0.0617101446
 40
0.123441395
 40
0.1852146431
 40
0.247050352
 40
0.3089683478
 40
0.3709876199
 40
0.4331261339
 40
0.495400661
 40
0.5578266111
 40
0.6204179017
 40
0.6831868168
 40
0.746143859
 40
0.8092980008
 40
0.8726552579
 40
0.9362226181
 40
1.0
 40
1.0
 40
1.0
 40
1.0
 10
9.3461290953
 20
8.6070530219
 30
0.0
 10
9.340862317
 20
8.6019657217
 30
0.0
 10
9.3305868991
 20
8.5915162473
 30
0.0
 10
9.3159974793
 20
8.5750672619
 30
0.0
 10
9.3022625197
 20
8.5578785401
 30
0.0
 10
9.2894142299
 20
8.5399902767
 30
0.0
 10
9.2774820913
 20
8.521443591
 30
0.0
 10
9.2664936412
 20
8.5022813116
 30
0.0
 10
9.2564741702
 20
8.4825476428
 30
0.0
 10
9.2474467487
 20
8.4622881101
 30
0.0
 10
9.239432152
 20
8.4415494419
 30
0.0
 10
9.2324488205
 20
8.4203794635
 30
0.0
 10
9.2265128266
 20
8.3988269961
 30
0.0
 10
9.2216377734
 20
8.376941703
 30
0.0
 10
9.2178349095
 20
8.3547741515
 30
0.0
 10
9.2151127966
 20
8.3323750966
 30
0.0
 10
9.2134778732
 20
8.3097970293
 30
0.0
 10
9.2131156583
 20
8.29468371
 30
0.0
 10
9.2131156583
 20
8.2871158722
 30
0.0
  0
SPLINE
  5
3B3
100
AcDbEntity
  8
0
100
AcDbSpline
 62
7
  6
CONTINUOUS
 70
0
 71
3
 72
15
 73
11
 74
0
 42
0.0000001
 43
0.0000001
 44
0.0000000001
 40
0.0
 40
0.0
 40
0.0
 40
0.0
 40
0.1235143231
 40
0.2473763573
 40
0.3716326271
 40
0.4963235681
 40
0.6214828434
 40
0.7471372888
 40
0.8733055492
 40
1.0
 40
1.0
 40
1.0
 40
1.0
 10
9.4531977899
 20
8.6826622041
 30
0.0
 10
9.4487909951
 20
8.6745339933
 30
0.0
 10
9.4404823696
 20
8.6579681171
 30
0.0
 10
9.4296048732
 20
8.6323442614
 30
0.0
 10
9.4203337564
 20
8.6060020005
 30
0.0
 10
9.4127031972
 20
8.5790381576
 30
0.0
 10
9.4067404975
 20
8.5515502259
 30
0.0
 10
9.4024671891
 20
8.5236375983
 30
0.0
 10
9.3998985363
 20
8.4954027
 30
0.0
 10
9.3993298518
 20
8.4764689907
 30
0.0
 10
9.3993298518
 20
8.4669849815
 30
0.0
  0
SPLINE
  5
3B4
100
AcDbEntity
  8
0
100
AcDbSpline
 62
7
  6
CONTINUOUS
 70
0
 71
3
 72
33
 73
29
 74
0
 42
0.0000001
 43
0.0000001
 44
0.0000000001
 40
0.0
 40
0.0
 40
0.0
 40
0.0
 40
0.0172116515
 40
0.0334895696
 40
0.049193897
 40
0.0647531463
 40
0.0806233023
 40
0.0972357684
 40
0.1149556634
 40
0.1340614075
 40
0.1547452311
 40
0.1771240777
 40
0.201253621
 40
0.2271432635
 40
0.2547673992
 40
0.2840753014
 40
0.3149985388
 40
0.3474567254
 40
0.3813620741
 40
0.416621775
 40
0.4531415043
 40
0.4908253685
 40
0.5693034428
 40
0.6513087047
 40
0.7361059642
 40
0.8229715145
 40
0.9111806372
 40
1.0
 40
1.0
 40
1.0
 40
1.0
 10
9.6139415554
 20
8.0220328785
 30
0.0
 10
9.6139415795
 20
8.0224831455
 30
0.0
 10
9.6139994435
 20
8.0233609933
 30
0.0
 10
9.6142853024
 20
8.0246216969
 30
0.0
 10
9.6147702971
 20
8.0257744436
 30
0.0
 10
9.6154543382
 20
8.0268089609
 30
0.0
 10
9.6163330199
 20
8.0277169915
 30
0.0
 10
9.6173992507
 20
8.0284936878
 30
0.0
 10
9.6186453642
 20
8.0291375551
 30
0.0
 10
9.6200639193
 20
8.0296493858
 30
0.0
 10
9.621647711
 20
8.0300308552
 30
0.0
 10
9.6233892247
 20
8.0302841691
 30
0.0
 10
9.6252804158
 20
8.0304122935
 30
0.0
 10
9.6273127842
 20
8.0304186243
 30
0.0
 10
9.6294774887
 20
8.0303071586
 30
0.0
 10
9.6317655327
 20
8.0300824619
 30
0.0
 10
9.6341679096
 20
8.029749359
 30
0.0
 10
9.6366757546
 20
8.0293130475
 30
0.0
 10
9.6392804059
 20
8.0287788179
 30
0.0
 10
9.641973489
 20
8.0281520454
 30
0.0
 10
9.6447469281
 20
8.0274380974
 30
0.0
 10
9.6485938017
 20
8.0263622675
 30
0.0
 10
9.6535462963
 20
8.024826103
 30
0.0
 10
9.6596156135
 20
8.0227411714
 30
0.0
 10
9.6658354759
 20
8.0204260984
 30
0.0
 10
9.6721533406
 20
8.0179142085
 30
0.0
 10
9.6785168548
 20
8.0152362805
 30
0.0
 10
9.6827514971
 20
8.0133605419
 30
0.0
 10
9.6848673015
 20
8.0124001579
 30
0.0
  0
SPLINE
  5
3B5
100
AcDbEntity
  8
0
100
AcDbSpline
 62
7
  6
CONTINUOUS
 70
0
 71
3
 72
18
 73
14
 74
0
 42
0.0000001
 43
0.0000001
 44
0.0000000001
 40
0.0
 40
0.0
 40
0.0
 40
0.0
 40
0.0548620054
 40
0.1099280215
 40
0.1653994864
 40
0.2214730884
 40
0.2783387317
 40
0.3361775333
 40
0.4554062979
 40
0.5804420875
 40
0.712334555
 40
0.8519570851
 40
1.0
 40
1.0
 40
1.0
 40
1.0
 10
10.8600627182
 20
10.0206893549
 30
0.0
 10
10.8600627226
 20
10.0218290556
 30
0.0
 10
10.8601350664
 20
10.0241133499
 30
0.0
 10
10.860460365
 20
10.0275360727
 30
0.0
 10
10.8610023135
 20
10.03095682
 30
0.0
 10
10.8617606912
 20
10.034374355
 30
0.0
 10
10.8627352859
 20
10.0377877962
 30
0.0
 10
10.8643382613
 20
10.0423779562
 30
0.0
 10
10.8669061502
 20
10.0481190395
 30
0.0
 10
10.870814672
 20
10.0548992576
 30
0.0
 10
10.8755749985
 20
10.0616355854
 30
0.0
 10
10.8811799078
 20
10.068321284
 30
0.0
 10
10.8853485014
 20
10.0726109614
 30
0.0
 10
10.8875605232
 20
10.0747476105
 30
0.0
  0
SPLINE
  5
3B6
100
AcDbEntity
  8
0
100
AcDbSpline
 62
7
  6
CONTINUOUS
 70
0
 71
3
 72
15
 73
11
 74
0
 42
0.0000001
 43
0.0000001
 44
0.0000000001
 40
0.0
 40
0.0
 40
0.0
 40
0.0
 40
0.110264193
 40
0.2236520798
 40
0.3407881606
 40
0.462230399
 40
0.5884727074
 40
0.7199472533
 40
0.8570228261
 40
1.0
 40
1.0
 40
1.0
 40
1.0
 10
10.8622657839
 20
10.0052021723
 30
0.0
 10
10.8627378912
 20
10.0068524209
 30
0.0
 10
10.8638390087
 20
10.0101601805
 30
0.0
 10
10.8659150293
 20
10.0150475546
 30
0.0
 10
10.8684337036
 20
10.0199188459
 30
0.0
 10
10.8713928924
 20
10.0247710784
 30
0.0
 10
10.874790655
 20
10.0296019817
 30
0.0
 10
10.8786248438
 20
10.034409279
 30
0.0
 10
10.882892986
 20
10.0391903532
 30
0.0
 10
10.8859596889
 20
10.0422916942
 30
0.0
 10
10.8875605232
 20
10.0438379815
 30
0.0
  0
SPLINE
  5
3B7
100
AcDbEntity
  8
0
100
AcDbSpline
 62
7
  6
CONTINUOUS
 70
0
 71
3
 72
22
 73
18
 74
0
 42
0.0000001
 43
0.0000001
 44
0.0000000001
 40
0.0
 40
0.0
 40
0.0
 40
0.0
 40
0.0576520631
 40
0.1144883958
 40
0.1708363973
 40
0.2270328789
 40
0.2834176181
 40
0.3403267291
 40
0.3980863172
 40
0.4570068723
 40
0.5173793173
 40
0.5794709579
 40
0.7097013004
 40
0.7783128283
 40
0.8494732223
 40
0.923328149
 40
1.0
 40
1.0
 40
1.0
 40
1.0
 10
11.0935465697
 20
9.9790946639
 30
0.0
 10
11.093262207
 20
9.9801171223
 30
0.0
 10
11.0927730399
 20
9.9821695771
 30
0.0
 10
11.092283808
 20
9.9852792229
 30
0.0
 10
11.0920458583
 20
9.9883915109
 30
0.0
 10
11.0920595247
 20
9.9915045183
 30
0.0
 10
11.0923246777
 20
9.994616587
 30
0.0
 10
11.0928411665
 20
9.9977260041
 30
0.0
 10
11.0936085434
 20
10.0008311501
 30
0.0
 10
11.0946261467
 20
10.0039304734
 30
0.0
 10
11.0958934104
 20
10.007022618
 30
0.0
 10
11.0979469161
 20
10.0111996568
 30
0.0
 10
11.1004830806
 20
10.0152951392
 30
0.0
 10
11.1034399662
 20
10.0192918774
 30
0.0
 10
11.105941418
 20
10.0223286228
 30
0.0
 10
11.108686219
 20
10.0253502736
 30
0.0
 10
11.1106401844
 20
10.0273164004
 30
0.0
 10
11.1116553281
 20
10.028296954
 30
0.0
  0
SPLINE
  5
3B8
100
AcDbEntity
  8
0
100
AcDbSpline
 62
7
  6
CONTINUOUS
 70
0
 71
3
 72
91
 73
87
 74
0
 42
0.0000001
 43
0.0000001
 44
0.0000000001
 40
0.0
 40
0.0
 40
0.0
 40
0.0
 40
0.0028932622
 40
0.0058618372
 40
0.0089201825
 40
0.0120813812
 40
0.015357076
 40
0.01875754
 40
0.0222917279
 40
0.0259673663
 40
0.0297910895
 40
0.0337684906
 40
0.0379042983
 40
0.0422023948
 40
0.0466659718
 40
0.0512975645
 40
0.0560991333
 40
0.061072147
 40
0.0662175816
 40
0.0715360443
 40
0.0770277257
 40
0.0826925162
 40
0.0885299764
 40
0.094539392
 40
0.1007198044
 40
0.1070699886
 40
0.1202734472
 40
0.1341364039
 40
0.148642224
 40
0.1637717621
 40
0.1795036359
 40
0.1958144536
 40
0.2126790059
 40
0.2300704334
 40
0.2479603708
 40
0.2663190816
 40
0.2851155807
 40
0.304317748
 40
0.323892435
 40
0.3438055661
 40
0.3640222372
 40
0.3845068101
 40
0.4052230057
 40
0.426133997
 40
0.4472025004
 40
0.4683908646
 40
0.4896611601
 40
0.5109752673
 40
0.532294965
 40
0.5535820188
 40
0.5747982702
 40
0.595905725
 40
0.6168666414
 40
0.637643619
 40
0.6581996884
 40
0.6784984007
 40
0.6985039203
 40
0.7181811187
 40
0.7374956682
 40
0.7564141389
 40
0.7749040994
 40
0.7929342217
 40
0.8104743923
 40
0.827495831
 40
0.8439712233
 40
0.8598748615
 40
0.8751828039
 40
0.8898730591
 40
0.9039258022
 40
0.9173236328
 40
0.9237724456
 40
0.9300522955
 40
0.9361618232
 40
0.9420999376
 40
0.9478657612
 40
0.9534586983
 40
0.9588784447
 40
0.9641249981
 40
0.9691987464
 40
0.974100419
 40
0.9788312003
 40
0.9833927155
 40
0.9877872109
 40
0.992017571
 40
0.9960871917
 40
1.0
 40
1.0
 40
1.0
 40
1.0
 10
12.4718783876
 20
10.0051364776
 30
0.0
 10
12.4714399657
 20
10.0066756001
 30
0.0
 10
12.4704269726
 20
10.0097596734
 30
0.0
 10
12.468537361
 20
10.0143220125
 30
0.0
 10
12.4662619554
 20
10.0188709798
 30
0.0
 10
12.4636022714
 20
10.0234040408
 30
0.0
 10
12.4605599691
 20
10.0279193591
 30
0.0
 10
12.4571367144
 20
10.0324149287
 30
0.0
 10
12.4533343136
 20
10.0368888288
 30
0.0
 10
12.4491547115
 20
10.04133916
 30
0.0
 10
12.4445999059
 20
10.0457639256
 30
0.0
 10
12.4396721488
 20
10.0501612471
 30
0.0
 10
12.4343737278
 20
10.0545290777
 30
0.0
 10
12.4287072003
 20
10.0588655054
 30
0.0
 10
12.4226752145
 20
10.0631684978
 30
0.0
 10
12.4162806319
 20
10.0674360784
 30
0.0
 10
12.4095264822
 20
10.071666273
 30
0.0
 10
12.4024159451
 20
10.075857051
 30
0.0
 10
12.394952419
 20
10.080006498
 30
0.0
 10
12.3871394213
 20
10.0841125757
 30
0.0
 10
12.3789806937
 20
10.0881733971
 30
0.0
 10
12.3704801059
 20
10.0921869763
 30
0.0
 10
12.3616417204
 20
10.0961514217
 30
0.0
 10
12.3524697596
 20
10.1000648303
 30
0.0
 10
12.3429685894
 20
10.1039253287
 30
0.0
 10
12.3296946524
 20
10.1090665133
 30
0.0
 10
12.3123029961
 20
10.1153345417
 30
0.0
 10
12.2904575533
 20
10.1225219423
 30
0.0
 10
12.267415577
 20
10.1294556599
 30
0.0
 10
12.2432212219
 20
10.1361223081
 30
0.0
 10
12.217920667
 20
10.1425090022
 30
0.0
 10
12.1915623417
 20
10.1486033934
 30
0.0
 10
12.1641967281
 20
10.1543936959
 30
0.0
 10
12.1358762832
 20
10.1598687113
 30
0.0
 10
12.1066553252
 20
10.1650178543
 30
0.0
 10
12.0765899251
 20
10.1698311728
 30
0.0
 10
12.0457377929
 20
10.1742993648
 30
0.0
 10
12.0141581626
 20
10.1784137967
 30
0.0
 10
11.9819116763
 20
10.1821665201
 30
0.0
 10
11.9490602656
 20
10.185550286
 30
0.0
 10
11.915667032
 20
10.1885585588
 30
0.0
 10
11.8817961251
 20
10.1911855287
 30
0.0
 10
11.8475126178
 20
10.1934261257
 30
0.0
 10
11.8128823797
 20
10.1952760254
 30
0.0
 10
11.7779719488
 20
10.1967316578
 30
0.0
 10
11.7428484034
 20
10.1977902135
 30
0.0
 10
11.7075792327
 20
10.1984496491
 30
0.0
 10
11.6722322072
 20
10.1987086912
 30
0.0
 10
11.6368752482
 20
10.1985668383
 30
0.0
 10
11.6015762961
 20
10.1980243647
 30
0.0
 10
11.5664031793
 20
10.1970823188
 30
0.0
 10
11.5314234826
 20
10.1957425192
 30
0.0
 10
11.4967044179
 20
10.194007552
 30
0.0
 10
11.4623126943
 20
10.1918807656
 30
0.0
 10
11.4283143897
 20
10.1893662648
 30
0.0
 10
11.3947748234
 20
10.1864689026
 30
0.0
 10
11.3617584281
 20
10.1831942723
 30
0.0
 10
11.3293286248
 20
10.1795486993
 30
0.0
 10
11.2975476995
 20
10.1755392251
 30
0.0
 10
11.2664766835
 20
10.1711735956
 30
0.0
 10
11.2361752343
 20
10.1664602457
 30
0.0
 10
11.206701519
 20
10.1614082836
 30
0.0
 10
11.1781120995
 20
10.156027474
 30
0.0
 10
11.1504618187
 20
10.150328218
 30
0.0
 10
11.1238036895
 20
10.144321537
 30
0.0
 10
11.098188781
 20
10.1380190478
 30
0.0
 10
11.0736661385
 20
10.1314329373
 30
0.0
 10
11.0502825908
 20
10.1245759375
 30
0.0
 10
11.0280829595
 20
10.1174612888
 30
0.0
 10
11.0103868524
 20
10.1112527786
 30
0.0
 10
10.9968630808
 20
10.1061573841
 30
0.0
 10
10.9871715168
 20
10.1023286902
 30
0.0
 10
10.9778065269
 20
10.0984459893
 30
0.0
 10
10.9687725654
 20
10.0945111663
 30
0.0
 10
10.9600739583
 20
10.0905260802
 30
0.0
 10
10.9517148566
 20
10.0864926444
 30
0.0
 10
10.943699238
 20
10.0824128064
 30
0.0
 10
10.9360309335
 20
10.0782884632
 30
0.0
 10
10.9287135619
 20
10.0741216326
 30
0.0
 10
10.9217506321
 20
10.069914215
 30
0.0
 10
10.915145428
 20
10.0656682776
 30
0.0
 10
10.9089010865
 20
10.0613857627
 30
0.0
 10
10.903020519
 20
10.0570686454
 30
0.0
 10
10.8975064466
 20
10.052718847
 30
0.0
 10
10.8923617437
 20
10.0483385592
 30
0.0
 10
10.8891171972
 20
10.0453416133
 30
0.0
 10
10.8875605232
 20
10.0438379815
 30
0.0
  0
SPLINE
  5
3B9
100
AcDbEntity
  8
0
100
AcDbSpline
 62
7
  6
CONTINUOUS
 70
0
 71
3
 72
90
 73
86
 74
0
 42
0.0000001
 43
0.0000001
 44
0.0000000001
 40
0.0
 40
0.0
 40
0.0
 40
0.0
 40
0.0029209419
 40
0.0057980511
 40
0.0086517457
 40
0.01150299
 40
0.0143728107
 40
0.0172817878
 40
0.020249618
 40
0.0232947186
 40
0.0264340043
 40
0.0296827237
 40
0.0330544105
 40
0.0365609547
 40
0.0402126207
 40
0.0440182495
 40
0.0479853132
 40
0.0521200995
 40
0.0564278372
 40
0.0609127705
 40
0.0655783544
 40
0.0704272423
 40
0.0754614712
 40
0.0806824686
 40
0.08609113
 40
0.0916879157
 40
0.0974728091
 40
0.1034454692
 40
0.10960516
 40
0.1159508537
 40
0.1291942435
 40
0.143162479
 40
0.157838175
 40
0.1732007411
 40
0.1892267636
 40
0.2058903154
 40
0.2231632129
 40
0.2410152345
 40
0.2594143071
 40
0.2783266836
 40
0.2977170997
 40
0.3175489185
 40
0.3377842642
 40
0.3583841504
 40
0.3793086006
 40
0.4005167723
 40
0.4219670762
 40
0.4436172912
 40
0.4654246779
 40
0.4873460911
 40
0.5313562743
 40
0.575299618
 40
0.5971376476
 40
0.6188285969
 40
0.6403296197
 40
0.661598363
 40
0.68259308
 40
0.7032727448
 40
0.7235971681
 40
0.7435271169
 40
0.7630244403
 40
0.7820521996
 40
0.8005747985
 40
0.8185581233
 40
0.8359696952
 40
0.8527788371
 40
0.8689568636
 40
0.8844772979
 40
0.8993161144
 40
0.9134520328
 40
0.9268668793
 40
0.9332994175
 40
0.9395465526
 40
0.945607082
 40
0.9514801643
 40
0.9571652425
 40
0.9626621542
 40
0.9679711484
 40
0.9730928803
 40
0.9780285333
 40
0.9827797967
 40
0.9873491149
 40
0.9917396439
 40
0.9959551358
 40
1.0
 40
1.0
 40
1.0
 40
1.0
 10
12.2405787592
 20
9.9790943659
 30
0.0
 10
12.2408929314
 20
9.9802239923
 30
0.0
 10
12.241424445
 20
9.9824932761
 30
0.0
 10
12.2419220063
 20
9.9859346634
 30
0.0
 10
12.2421118346
 20
9.9893789834
 30
0.0
 10
12.2419936262
 20
9.9928235282
 30
0.0
 10
12.2415674761
 20
9.996265939
 30
0.0
 10
12.2408339893
 20
9.9997038639
 30
0.0
 10
12.2397938406
 20
10.0031350756
 30
0.0
 10
12.2384481576
 20
10.0065575705
 30
0.0
 10
12.2367980524
 20
10.0099694618
 30
0.0
 10
12.2348448119
 20
10.0133690094
 30
0.0
 10
12.2325898292
 20
10.0167545976
 30
0.0
 10
12.2300344587
 20
10.0201245713
 30
0.0
 10
12.2271802873
 20
10.0234774209
 30
0.0
 10
12.2240288455
 20
10.0268115029
 30
0.0
 10
12.2205818855
 20
10.0301252674
 30
0.0
 10
12.2168412281
 20
10.0334171008
 30
0.0
 10
12.2128088222
 20
10.0366853532
 30
0.0
 10
12.2084868116
 20
10.0399284487
 30
0.0
 10
12.2038774087
 20
10.0431446749
 30
0.0
 10
12.1989830575
 20
10.0463324532
 30
0.0
 10
12.1938062914
 20
10.0494900947
 30
0.0
 10
12.1883498283
 20
10.0526159711
 30
0.0
 10
12.1826165363
 20
10.0557084708
 30
0.0
 10
12.1766094101
 20
10.0587659219
 30
0.0
 10
12.1703316318
 20
10.0617867785
 30
0.0
 10
12.1637864926
 20
10.0647693791
 30
0.0
 10
12.1569774512
 20
10.0677122155
 30
0.0
 10
12.1474151219
 20
10.0716367845
 30
0.0
 10
12.1348199683
 20
10.0764205992
 30
0.0
 10
12.1189211211
 20
10.0818995048
 30
0.0
 10
12.1020630463
 20
10.0871838175
 30
0.0
 10
12.0842814408
 20
10.0922622496
 30
0.0
 10
12.065613795
 20
10.0971239413
 30
0.0
 10
12.0460996049
 20
10.1017584874
 30
0.0
 10
12.0257801885
 20
10.1061559657
 30
0.0
 10
12.0046986163
 20
10.1103069594
 30
0.0
 10
11.9828996076
 20
10.1142025863
 30
0.0
 10
11.960429429
 20
10.1178345113
 30
0.0
 10
11.9373357887
 20
10.1211949648
 30
0.0
 10
11.9136677313
 20
10.1242767587
 30
0.0
 10
11.8894755322
 20
10.1270733019
 30
0.0
 10
11.8648105905
 20
10.1295786125
 30
0.0
 10
11.839725319
 20
10.1317873373
 30
0.0
 10
11.814273031
 20
10.1336947574
 30
0.0
 10
11.7885078195
 20
10.1352967995
 30
0.0
 10
11.7624844593
 20
10.1365900338
 30
0.0
 10
11.7362582225
 20
10.1375717229
 30
0.0
 10
11.7010493062
 20
10.1384634463
 30
0.0
 10
11.6569409048
 20
10.1387871277
 30
0.0
 10
11.6128707215
 20
10.1380618151
 30
0.0
 10
11.5777785144
 20
10.136848455
 30
0.0
 10
11.5517025405
 20
10.1356280829
 30
0.0
 10
11.5258718246
 20
10.1340982189
 30
0.0
 10
11.5003412286
 20
10.1322621069
 30
0.0
 10
11.4751650252
 20
10.130123678
 30
0.0
 10
11.4503967161
 20
10.1276875005
 30
0.0
 10
11.4260889361
 20
10.1249587811
 30
0.0
 10
11.4022933346
 20
10.1219433509
 30
0.0
 10
11.3790604632
 20
10.118647657
 30
0.0
 10
11.3564396647
 20
10.1150787511
 30
0.0
 10
11.3344789675
 20
10.111244269
 30
0.0
 10
11.3132249826
 20
10.107152416
 30
0.0
 10
11.2927228008
 20
10.1028119496
 30
0.0
 10
11.2730158928
 20
10.098232159
 30
0.0
 10
11.2541459997
 20
10.0934228467
 30
0.0
 10
11.2361530574
 20
10.0883943091
 30
0.0
 10
11.2190750175
 20
10.0831573047
 30
0.0
 10
11.2029480519
 20
10.0777230194
 30
0.0
 10
11.1901566653
 20
10.0729756783
 30
0.0
 10
11.1804332648
 20
10.0690790397
 30
0.0
 10
11.1735016066
 20
10.0661554403
 30
0.0
 10
11.166832194
 20
10.0631912954
 30
0.0
 10
11.1604285248
 20
10.0601882042
 30
0.0
 10
11.1542939874
 20
10.0571477254
 30
0.0
 10
11.1484318085
 20
10.0540714653
 30
0.0
 10
11.1428450585
 20
10.0509610617
 30
0.0
 10
11.1375366985
 20
10.0478180947
 30
0.0
 10
11.1325094911
 20
10.0446442851
 30
0.0
 10
11.1277660811
 20
10.0414412101
 30
0.0
 10
11.1233088948
 20
10.0382105201
 30
0.0
 10
11.1191402257
 20
10.0349537841
 30
0.0
 10
11.1152624754
 20
10.0316728362
 30
0.0
 10
11.1128231512
 20
10.0294249845
 30
0.0
 10
11.1116553281
 20
10.028296954
 30
0.0
  0
SPLINE
  5
3BA
100
AcDbEntity
  8
0
100
AcDbSpline
 62
7
  6
CONTINUOUS
 70
0
 71
3
 72
57
 73
53
 74
0
 42
0.0000001
 43
0.0000001
 44
0.0000000001
 40
0.0
 40
0.0
 40
0.0
 40
0.0
 40
0.0092939873
 40
0.0191030925
 40
0.0294273511
 40
0.0402643396
 40
0.0516094244
 40
0.0634561206
 40
0.0757962989
 40
0.0886203009
 40
0.1019171805
 40
0.11567478
 40
0.1298798112
 40
0.1445180234
 40
0.1595742136
 40
0.1750323128
 40
0.1908754971
 40
0.207086173
 40
0.2236460757
 40
0.2405363339
 40
0.2752288623
 40
0.3110024177
 40
0.3476877415
 40
0.3851096038
 40
0.4230880437
 40
0.4614395595
 40
0.4999782971
 40
0.5385172333
 40
0.5768693408
 40
0.6148487654
 40
0.652272002
 40
0.6889590716
 40
0.7247347331
 40
0.7594297299
 40
0.7763213408
 40
0.7928826939
 40
0.8090948801
 40
0.824939657
 40
0.8403994333
 40
0.8554573491
 40
0.8700973686
 40
0.8843042715
 40
0.898063782
 40
0.9113626501
 40
0.9241886792
 40
0.9365309162
 40
0.9483797361
 40
0.9597269538
 40
0.9705660984
 40
0.9808925513
 40
0.9907038241
 40
1.0
 40
1.0
 40
1.0
 40
1.0
 10
12.1591132714
 20
9.9128036464
 30
0.0
 10
12.1564224901
 20
9.9143783539
 30
0.0
 10
12.1508208191
 20
9.9174948553
 30
0.0
 10
12.1420169933
 20
9.9219645
 30
0.0
 10
12.1325965519
 20
9.9263493794
 30
0.0
 10
12.1225717136
 20
9.9306437061
 30
0.0
 10
12.1119552694
 20
9.9348420071
 30
0.0
 10
12.1007608795
 20
9.938938821
 30
0.0
 10
12.0890029582
 20
9.9429287989
 30
0.0
 10
12.0766966997
 20
9.946806776
 30
0.0
 10
12.0638580152
 20
9.9505676753
 30
0.0
 10
12.050503528
 20
9.9542065779
 30
0.0
 10
12.0366505528
 20
9.9577187597
 30
0.0
 10
12.0223170534
 20
9.9610996073
 30
0.0
 10
12.0075216331
 20
9.964344709
 30
0.0
 10
11.9922835052
 20
9.9674498434
 30
0.0
 10
11.9766224572
 20
9.9704109284
 30
0.0
 10
11.9605588438
 20
9.9732241056
 30
0.0
 10
11.9441135211
 20
9.9758857338
 30
0.0
 10
11.9215044693
 20
9.9792577774
 30
0.0
 10
11.892445048
 20
9.9830575062
 30
0.0
 10
11.8567065979
 20
9.9869233661
 30
0.0
 10
11.8199825764
 20
9.9901145908
 30
0.0
 10
11.7824638991
 20
9.9926144206
 30
0.0
 10
11.7443454524
 20
9.9944096825
 30
0.0
 10
11.7058253367
 20
9.9954909317
 30
0.0
 10
11.667103749
 20
9.9958524929
 30
0.0
 10
11.6283819484
 20
9.9954924645
 30
0.0
 10
11.5898611948
 20
9.994412727
 30
0.0
 10
11.5517416867
 20
9.9926189675
 30
0.0
 10
11.5142215306
 20
9.9901206242
 30
0.0
 10
11.4774956239
 20
9.9869308474
 30
0.0
 10
11.4417548908
 20
9.9830663848
 30
0.0
 10
11.412693312
 20
9.9792678251
 30
0.0
 10
11.3900823395
 20
9.975896673
 30
0.0
 10
11.3736354436
 20
9.9732357091
 30
0.0
 10
11.3575701704
 20
9.9704231556
 30
0.0
 10
11.3419073741
 20
9.9674626878
 30
0.0
 10
11.3266674112
 20
9.9643581673
 30
0.0
 10
11.3118700768
 20
9.9611136357
 30
0.0
 10
11.2975345803
 20
9.9577333593
 30
0.0
 10
11.2836795302
 20
9.9542217317
 30
0.0
 10
11.2703228976
 20
9.9505833403
 30
0.0
 10
11.25748199
 20
9.94682296
 30
0.0
 10
11.2451734422
 20
9.942945469
 30
0.0
 10
11.2334131699
 20
9.9389559396
 30
0.0
 10
11.2222163566
 20
9.9348595856
 30
0.0
 10
11.211597437
 20
9.9306616962
 30
0.0
 10
11.20157007
 20
9.9263677526
 30
0.0
 10
11.1921470342
 20
9.9219832683
 30
0.0
 10
11.1833405796
 20
9.9175139509
 30
0.0
 10
11.1777370983
 20
9.9143977005
 30
0.0
 10
11.1750454052
 20
9.9128230975
 30
0.0
  0
SPLINE
  5
3BB
100
AcDbEntity
  8
0
100
AcDbSpline
 62
7
  6
CONTINUOUS
 70
0
 71
3
 72
45
 73
41
 74
0
 42
0.0000001
 43
0.0000001
 44
0.0000000001
 40
0.0
 40
0.0
 40
0.0
 40
0.0
 40
0.0112410261
 40
0.0228649616
 40
0.03486549
 40
0.0472354837
 40
0.0599672531
 40
0.0730524121
 40
0.1002461918
 40
0.1287401903
 40
0.1584496623
 40
0.189283385
 40
0.2211444292
 40
0.2539308504
 40
0.2875363236
 40
0.3218507413
 40
0.3567607849
 40
0.3921504788
 40
0.4279017329
 40
0.4638948762
 40
0.5000091868
 40
0.536123418
 40
0.5721163234
 40
0.6078671823
 40
0.6432563253
 40
0.6781656648
 40
0.7124792281
 40
0.7460837007
 40
0.7788689796
 40
0.8107287452
 40
0.8415610589
 40
0.8712689987
 40
0.8997613496
 40
0.9269533754
 40
0.9400376209
 40
0.9527684541
 40
0.9651374907
 40
0.9771370425
 40
0.9887599839
 40
1.0
 40
1.0
 40
1.0
 40
1.0
 10
12.0688680865
 20
9.8833895601
 30
0.0
 10
12.0660056241
 20
9.8844477071
 30
0.0
 10
12.0601603438
 20
9.8865386679
 30
0.0
 10
12.0511873986
 20
9.8895538948
 30
0.0
 10
12.0418689915
 20
9.892498229
 30
0.0
 10
12.0322135375
 20
9.895369057
 30
0.0
 10
12.0222296632
 20
9.8981637604
 30
0.0
 10
12.008312941
 20
9.9018322862
 30
0.0
 10
11.99015665
 20
9.9061967115
 30
0.0
 10
11.967479055
 20
9.9110276361
 30
0.0
 10
11.9437217662
 20
9.915499433
 30
0.0
 10
11.9189701255
 20
9.9195958691
 30
0.0
 10
11.893312903
 20
9.9233020406
 30
0.0
 10
11.8668422452
 20
9.9266044822
 30
0.0
 10
11.839653248
 20
9.929491198
 30
0.0
 10
11.8118436274
 20
9.9319517085
 30
0.0
 10
11.7835133537
 20
9.9339770842
 30
0.0
 10
11.754764288
 20
9.9355599775
 30
0.0
 10
11.7256998101
 20
9.9366946475
 30
0.0
 10
11.6964244437
 20
9.9373769796
 30
0.0
 10
11.6670434762
 20
9.9376044999
 30
0.0
 10
11.6376625779
 20
9.9373763835
 30
0.0
 10
11.6083874187
 20
9.9366934575
 30
0.0
 10
11.5793232856
 20
9.935558198
 30
0.0
 10
11.5505747006
 20
9.9339747215
 30
0.0
 10
11.522245042
 20
9.9319487713
 30
0.0
 10
11.4944361687
 20
9.929487697
 30
0.0
 10
11.4672480481
 20
9.9266004299
 30
0.0
 10
11.4407783932
 20
9.9232974519
 30
0.0
 10
11.4151222962
 20
9.9195907606
 30
0.0
 10
11.3903718994
 20
9.9154938232
 30
0.0
 10
11.3666159685
 20
9.9110215456
 30
0.0
 10
11.3439398403
 20
9.9061901622
 30
0.0
 10
11.3257848435
 20
9.9018253627
 30
0.0
 10
11.3118692091
 20
9.8981565479
 30
0.0
 10
11.3018861828
 20
9.8953616419
 30
0.0
 10
11.2922315997
 20
9.8924906181
 30
0.0
 10
11.2829140858
 20
9.8895460949
 30
0.0
 10
11.2739420554
 20
9.886530686
 30
0.0
 10
11.2680973967
 20
9.8844396023
 30
0.0
 10
11.265235249
 20
9.8833813948
 30
0.0
  0
SPLINE
  5
3BC
100
AcDbEntity
  8
0
100
AcDbSpline
 62
4
  6
CONTINUOUS
 70
0
 71
3
 72
359
 73
355
 74
0
 42
0.0000001
 43
0.0000001
 44
0.0000000001
 40
0.0
 40
0.0
 40
0.0
 40
0.0
 40
0.015625
 40
0.0234375
 40
0.03125
 40
0.0390625
 40
0.04296875
 40
0.046875
 40
0.05078125
 40
0.0546875
 40
0.056640625
 40
0.05859375
 40
0.0595703125
 40
0.060546875
 40
0.0615234375
 40
0.0620117188
 40
0.0625
 40
0.0629882812
 40
0.0634765625
 40
0.064453125
 40
0.0654296875
 40
0.06640625
 40
0.068359375
 40
0.0703125
 40
0.07421875
 40
0.078125
 40
0.08203125
 40
0.0859375
 40
0.09375
 40
0.1015625
 40
0.10546875
 40
0.109375
 40
0.11328125
 40
0.1171875
 40
0.119140625
 40
0.12109375
 40
0.1220703125
 40
0.123046875
 40
0.1240234375
 40
0.1245117188
 40
0.125
 40
0.1254882812
 40
0.1259765625
 40
0.126953125
 40
0.1279296875
 40
0.12890625
 40
0.130859375
 40
0.1328125
 40
0.13671875
 40
0.140625
 40
0.14453125
 40
0.1484375
 40
0.15625
 40
0.1640625
 40
0.16796875
 40
0.171875
 40
0.17578125
 40
0.1796875
 40
0.181640625
 40
0.18359375
 40
0.1845703125
 40
0.185546875
 40
0.1865234375
 40
0.1870117188
 40
0.1875
 40
0.1879882812
 40
0.1884765625
 40
0.189453125
 40
0.1904296875
 40
0.19140625
 40
0.193359375
 40
0.1953125
 40
0.19921875
 40
0.203125
 40
0.20703125
 40
0.2109375
 40
0.21875
 40
0.2265625
 40
0.23046875
 40
0.234375
 40
0.23828125
 40
0.2421875
 40
0.244140625
 40
0.24609375
 40
0.2470703125
 40
0.248046875
 40
0.2490234375
 40
0.2495117188
 40
0.25
 40
0.2504882812
 40
0.2509765625
 40
0.251953125
 40
0.2529296875
 40
0.25390625
 40
0.255859375
 40
0.2578125
 40
0.26171875
 40
0.265625
 40
0.26953125
 40
0.2734375
 40
0.28125
 40
0.2890625
 40
0.29296875
 40
0.296875
 40
0.30078125
 40
0.3046875
 40
0.306640625
 40
0.30859375
 40
0.3095703125
 40
0.310546875
 40
0.3115234375
 40
0.3120117188
 40
0.3125
 40
0.3129882812
 40
0.3134765625
 40
0.314453125
 40
0.3154296875
 40
0.31640625
 40
0.318359375
 40
0.3203125
 40
0.32421875
 40
0.328125
 40
0.33203125
 40
0.3359375
 40
0.34375
 40
0.3515625
 40
0.35546875
 40
0.359375
 40
0.36328125
 40
0.3671875
 40
0.369140625
 40
0.37109375
 40
0.3720703125
 40
0.373046875
 40
0.3740234375
 40
0.3745117188
 40
0.375
 40
0.3754882812
 40
0.3759765625
 40
0.376953125
 40
0.3779296875
 40
0.37890625
 40
0.380859375
 40
0.3828125
 40
0.38671875
 40
0.390625
 40
0.39453125
 40
0.3984375
 40
0.40625
 40
0.4140625
 40
0.41796875
 40
0.421875
 40
0.42578125
 40
0.4296875
 40
0.431640625
 40
0.43359375
 40
0.4345703125
 40
0.435546875
 40
0.4365234375
 40
0.4370117188
 40
0.4375
 40
0.4379882812
 40
0.4384765625
 40
0.439453125
 40
0.4404296875
 40
0.44140625
 40
0.443359375
 40
0.4453125
 40
0.44921875
 40
0.453125
 40
0.45703125
 40
0.4609375
 40
0.46875
 40
0.4765625
 40
0.48046875
 40
0.484375
 40
0.48828125
 40
0.4921875
 40
0.494140625
 40
0.49609375
 40
0.4970703125
 40
0.498046875
 40
0.4990234375
 40
0.4995117188
 40
0.5
 40
0.5004882812
 40
0.5009765625
 40
0.501953125
 40
0.5029296875
 40
0.50390625
 40
0.505859375
 40
0.5078125
 40
0.51171875
 40
0.515625
 40
0.51953125
 40
0.5234375
 40
0.53125
 40
0.5390625
 40
0.54296875
 40
0.546875
 40
0.55078125
 40
0.5546875
 40
0.556640625
 40
0.55859375
 40
0.560546875
 40
0.5615234375
 40
0.5620117188
 40
0.5625
 40
0.5629882812
 40
0.5634765625
 40
0.564453125
 40
0.56640625
 40
0.568359375
 40
0.5703125
 40
0.57421875
 40
0.578125
 40
0.58203125
 40
0.5859375
 40
0.59375
 40
0.6015625
 40
0.60546875
 40
0.609375
 40
0.61328125
 40
0.6171875
 40
0.619140625
 40
0.62109375
 40
0.623046875
 40
0.6240234375
 40
0.6245117188
 40
0.625
 40
0.6254882812
 40
0.6259765625
 40
0.626953125
 40
0.62890625
 40
0.630859375
 40
0.6328125
 40
0.63671875
 40
0.640625
 40
0.64453125
 40
0.6484375
 40
0.65625
 40
0.6640625
 40
0.66796875
 40
0.671875
 40
0.67578125
 40
0.6796875
 40
0.681640625
 40
0.68359375
 40
0.685546875
 40
0.6865234375
 40
0.6870117188
 40
0.6875
 40
0.6879882812
 40
0.6884765625
 40
0.689453125
 40
0.69140625
 40
0.693359375
 40
0.6953125
 40
0.69921875
 40
0.703125
 40
0.70703125
 40
0.7109375
 40
0.71875
 40
0.7265625
 40
0.73046875
 40
0.734375
 40
0.73828125
 40
0.7421875
 40
0.744140625
 40
0.74609375
 40
0.748046875
 40
0.7490234375
 40
0.7495117188
 40
0.75
 40
0.7504882812
 40
0.7509765625
 40
0.751953125
 40
0.75390625
 40
0.755859375
 40
0.7578125
 40
0.76171875
 40
0.765625
 40
0.76953125
 40
0.7734375
 40
0.78125
 40
0.7890625
 40
0.79296875
 40
0.796875
 40
0.80078125
 40
0.8046875
 40
0.806640625
 40
0.80859375
 40
0.810546875
 40
0.8115234375
 40
0.8120117188
 40
0.8125
 40
0.8129882812
 40
0.8134765625
 40
0.814453125
 40
0.81640625
 40
0.818359375
 40
0.8203125
 40
0.82421875
 40
0.828125
 40
0.83203125
 40
0.8359375
 40
0.84375
 40
0.8515625
 40
0.85546875
 40
0.859375
 40
0.86328125
 40
0.8671875
 40
0.869140625
 40
0.87109375
 40
0.873046875
 40
0.8740234375
 40
0.8745117188
 40
0.875
 40
0.8754882812
 40
0.8759765625
 40
0.876953125
 40
0.87890625
 40
0.880859375
 40
0.8828125
 40
0.88671875
 40
0.890625
 40
0.89453125
 40
0.8984375
 40
0.90625
 40
0.9140625
 40
0.91796875
 40
0.921875
 40
0.92578125
 40
0.9296875
 40
0.931640625
 40
0.93359375
 40
0.935546875
 40
0.9365234375
 40
0.9370117188
 40
0.9375
 40
0.9379882812
 40
0.9384765625
 40
0.939453125
 40
0.94140625
 40
0.943359375
 40
0.9453125
 40
0.94921875
 40
0.953125
 40
0.95703125
 40
0.9609375
 40
0.96875
 40
0.9765625
 40
0.984375
 40
1.0
 40
1.0
 40
1.0
 40
1.0
 10
11.2002328131
 20
8.3228459724
 30
0.0
 10
11.203366
 20
8.3229358968
 30
0.0
 10
11.2080657804
 20
8.3230707834
 30
0.0
 10
11.2143321542
 20
8.3232506323
 30
0.0
 10
11.2190319346
 20
8.3233855188
 30
0.0
 10
11.2229484182
 20
8.3234979247
 30
0.0
 10
11.2260816053
 20
8.3235878482
 30
0.0
 10
11.2284314949
 20
8.3236552944
 30
0.0
 10
11.2307813871
 20
8.3237227271
 30
0.0
 10
11.2327396226
 20
8.3237789627
 30
0.0
 10
11.2343062291
 20
8.323823858
 30
0.0
 10
11.2352853168
 20
8.3238521295
 30
0.0
 10
11.2360686817
 20
8.3238742614
 30
0.0
 10
11.2366559459
 20
8.3238921891
 30
0.0
 10
11.2371461583
 20
8.323902902
 30
0.0
 10
11.2375364766
 20
8.3239209522
 30
0.0
 10
11.2378342748
 20
8.3239085865
 30
0.0
 10
11.2381127608
 20
8.3239950941
 30
0.0
 10
11.2384908215
 20
8.3240758998
 30
0.0
 10
11.2389610828
 20
8.3241887567
 30
0.0
 10
11.239526387
 20
8.3243191129
 30
0.0
 10
11.24027978
 20
8.3244946927
 30
0.0
 10
11.2412216398
 20
8.3247135609
 30
0.0
 10
11.2427285491
 20
8.325064089
 30
0.0
 10
11.2446122085
 20
8.3255021328
 30
0.0
 10
11.2468725901
 20
8.3260278352
 30
0.0
 10
11.2491329742
 20
8.3265535243
 30
0.0
 10
11.2521468188
 20
8.3272544478
 30
0.0
 10
11.255914125
 20
8.3281306004
 30
0.0
 10
11.2596814308
 20
8.3290067542
 30
0.0
 10
11.2626952759
 20
8.3297076758
 30
0.0
 10
11.2649556584
 20
8.3302333704
 30
0.0
 10
11.2672160461
 20
8.3307590522
 30
0.0
 10
11.2690996865
 20
8.3311971602
 30
0.0
 10
11.2706066345
 20
8.3315475575
 30
0.0
 10
11.2715483959
 20
8.3317667585
 30
0.0
 10
11.2723019909
 20
8.3319416552
 30
0.0
 10
11.272866678
 20
8.3320740984
 30
0.0
 10
11.2733388703
 20
8.3321804256
 30
0.0
 10
11.2737129914
 20
8.332274553
 30
0.0
 10
11.2740035085
 20
8.3323203771
 30
0.0
 10
11.2742561368
 20
8.3324607541
 30
0.0
 10
11.2746062095
 20
8.3326148949
 30
0.0
 10
11.2750392596
 20
8.3328189029
 30
0.0
 10
11.2755608633
 20
8.333058862
 30
0.0
 10
11.2762556561
 20
8.3333805016
 30
0.0
 10
11.2771243795
 20
8.333781971
 30
0.0
 10
11.278514207
 20
8.3344246463
 30
0.0
 10
11.280251536
 20
8.3352278792
 30
0.0
 10
11.2823363117
 20
8.3361918063
 30
0.0
 10
11.2844210925
 20
8.3371557207
 30
0.0
 10
11.2872007984
 20
8.3384409444
 30
0.0
 10
11.2906754314
 20
8.3400474722
 30
0.0
 10
11.294150064
 20
8.3416540012
 30
0.0
 10
11.2969297707
 20
8.3429392231
 30
0.0
 10
11.2990145491
 20
8.3439031428
 30
0.0
 10
11.301099334
 20
8.34486705
 30
0.0
 10
11.3028366343
 20
8.345670345
 30
0.0
 10
11.3042265202
 20
8.3463128937
 30
0.0
 10
11.3050950949
 20
8.3467146852
 30
0.0
 10
11.305790193
 20
8.3470356638
 30
0.0
 10
11.3063108639
 20
8.3472776423
 30
0.0
 10
11.3067468325
 20
8.3474753319
 30
0.0
 10
11.3070909508
 20
8.3476423634
 30
0.0
 10
11.3073617637
 20
8.3477433731
 30
0.0
 10
11.3075840084
 20
8.3479369982
 30
0.0
 10
11.3078973002
 20
8.3481628133
 30
0.0
 10
11.3082830942
 20
8.3484561818
 30
0.0
 10
11.3087485384
 20
8.348803473
 30
0.0
 10
11.3093682606
 20
8.3492681874
 30
0.0
 10
11.3101432112
 20
8.3498485121
 30
0.0
 10
11.3113829656
 20
8.3507773493
 30
0.0
 10
11.3129327158
 20
8.3519382869
 30
0.0
 10
11.3147923915
 20
8.3533314586
 30
0.0
 10
11.3166520738
 20
8.3547246179
 30
0.0
 10
11.3191316479
 20
8.3565821679
 30
0.0
 10
11.3222311164
 20
8.3589041039
 30
0.0
 10
11.3253305842
 20
8.3612260408
 30
0.0
 10
11.3278101595
 20
8.3630835893
 30
0.0
 10
11.3296698382
 20
8.3644767532
 30
0.0
 10
11.3315295274
 20
8.3658699075
 30
0.0
 10
11.3330792357
 20
8.3670308992
 30
0.0
 10
11.3343190756
 20
8.367959626
 30
0.0
 10
11.3350938086
 20
8.3685402317
 30
0.0
 10
11.3357139773
 20
8.3690043695
 30
0.0
 10
11.3361780572
 20
8.3693534222
 30
0.0
 10
11.33656812
 20
8.3696412792
 30
0.0
 10
11.3368727026
 20
8.3698783388
 30
0.0
 10
11.3371215447
 20
8.3700376238
 30
0.0
 10
11.3372925002
 20
8.3702675605
 30
0.0
 10
11.3375476477
 20
8.3705494632
 30
0.0
 10
11.3378572475
 20
8.370910309
 30
0.0
 10
11.3382327628
 20
8.3713396996
 30
0.0
 10
11.3387320543
 20
8.3719134864
 30
0.0
 10
11.3393566465
 20
8.3726302864
 30
0.0
 10
11.340355727
 20
8.3737774086
 30
0.0
 10
11.3416046692
 20
8.3752112283
 30
0.0
 10
11.3431033606
 20
8.3769318475
 30
0.0
 10
11.3446020625
 20
8.3786524572
 30
0.0
 10
11.3466003281
 20
8.3809466068
 30
0.0
 10
11.3490981614
 20
8.3838142925
 30
0.0
 10
11.3515959937
 20
8.3866819791
 30
0.0
 10
11.3535942608
 20
8.3889761274
 30
0.0
 10
11.3550929581
 20
8.3906967408
 30
0.0
 10
11.3565916666
 20
8.392417346
 30
0.0
 10
11.3578405556
 20
8.3938512094
 30
0.0
 10
11.3588397446
 20
8.3949982426
 30
0.0
 10
11.3594640607
 20
8.3957152691
 30
0.0
 10
11.359963919
 20
8.3962885908
 30
0.0
 10
11.3603377025
 20
8.3967194023
 30
0.0
 10
11.3606527208
 20
8.3970758025
 30
0.0
 10
11.3608968137
 20
8.3973667751
 30
0.0
 10
11.3611015292
 20
8.3975690128
 30
0.0
 10
11.3612236221
 20
8.3978322914
 30
0.0
 10
11.3614152737
 20
8.3981620072
 30
0.0
 10
11.3616449361
 20
8.3985814676
 30
0.0
 10
11.3619247695
 20
8.3990816887
 30
0.0
 10
11.3622964002
 20
8.3997497439
 30
0.0
 10
11.3627614455
 20
8.4005844384
 30
0.0
 10
11.3635052346
 20
8.401920159
 30
0.0
 10
11.3644350683
 20
8.4035897378
 30
0.0
 10
11.365550827
 20
8.4055932632
 30
0.0
 10
11.3666665968
 20
8.4075967803
 30
0.0
 10
11.3681542861
 20
8.4102681394
 30
0.0
 10
11.3700138991
 20
8.4136073372
 30
0.0
 10
11.3718735111
 20
8.4169465357
 30
0.0
 10
11.373361202
 20
8.4196178938
 30
0.0
 10
11.3744769669
 20
8.4216214139
 30
0.0
 10
11.3755927442
 20
8.4236249281
 30
0.0
 10
11.3765225201
 20
8.4252945419
 30
0.0
 10
11.3772664271
 20
8.426630191
 30
0.0
 10
11.3777311723
 20
8.4274650673
 30
0.0
 10
11.378103419
 20
8.4281327495
 30
0.0
 10
11.3783813705
 20
8.4286341101
 30
0.0
 10
11.3786169208
 20
8.4290500051
 30
0.0
 10
11.3787965601
 20
8.4293869949
 30
0.0
 10
11.3789553378
 20
8.4296280592
 30
0.0
 10
11.379022323
 20
8.4299136989
 30
0.0
 10
11.379143701
 20
8.430278981
 30
0.0
 10
11.3792844223
 20
8.4307409259
 30
0.0
 10
11.3794579967
 20
8.4312929731
 30
0.0
 10
11.3796877846
 20
8.4320298348
 30
0.0
 10
11.3799755825
 20
8.4329506383
 30
0.0
 10
11.3804357446
 20
8.4344240769
 30
0.0
 10
11.3810110551
 20
8.4362658227
 30
0.0
 10
11.3817013814
 20
8.4384759401
 30
0.0
 10
11.3823917201
 20
8.4406860515
 30
0.0
 10
11.3833121674
 20
8.4436328688
 30
0.0
 10
11.3844627281
 20
8.4473163897
 30
0.0
 10
11.3856132877
 20
8.450999911
 30
0.0
 10
11.3865337367
 20
8.4539467276
 30
0.0
 10
11.38722407
 20
8.4561568412
 30
0.0
 10
11.3879144165
 20
8.4583669501
 30
0.0
 10
11.3884896643
 20
8.4602087224
 30
0.0
 10
11.3889499543
 20
8.4616821069
 30
0.0
 10
11.3892374266
 20
8.4626030483
 30
0.0
 10
11.3894678828
 20
8.463339627
 30
0.0
 10
11.3896394154
 20
8.4638925385
 30
0.0
 10
11.3897865251
 20
8.4643517794
 30
0.0
 10
11.3898948695
 20
8.4647225781
 30
0.0
 10
11.3900016583
 20
8.4649913707
 30
0.0
 10
11.390010997
 20
8.4652956858
 30
0.0
 10
11.3900574892
 20
8.4656890309
 30
0.0
 10
11.3901039253
 20
8.4661849695
 30
0.0
 10
11.3901646477
 20
8.4667782736
 30
0.0
 10
11.3902438647
 20
8.4675699823
 30
0.0
 10
11.3903434839
 20
8.4685594001
 30
0.0
 10
11.3905025405
 20
8.4701425905
 30
0.0
 10
11.3907014759
 20
8.4721215366
 30
0.0
 10
11.3909401492
 20
8.4744962899
 30
0.0
 10
11.3911788357
 20
8.4768710384
 30
0.0
 10
11.3914970797
 20
8.4800373714
 30
0.0
 10
11.3918948864
 20
8.483995287
 30
0.0
 10
11.392292692
 20
8.4879532029
 30
0.0
 10
11.3926109379
 20
8.4911195356
 30
0.0
 10
11.3928496187
 20
8.493494285
 30
0.0
 10
11.3930883132
 20
8.4958690347
 30
0.0
 10
11.3932871827
 20
8.497847992
 30
0.0
 10
11.3934463736
 20
8.4994311596
 30
0.0
 10
11.393545651
 20
8.5004206353
 30
0.0
 10
11.3936255697
 20
8.5012122252
 30
0.0
 10
11.3936841486
 20
8.5018058919
 30
0.0
 10
11.3937372911
 20
8.5023006961
 30
0.0
 10
11.393770101
 20
8.5026963557
 30
0.0
 10
11.3938212246
 20
8.5029936024
 30
0.0
 10
11.3937711353
 20
8.503288933
 30
0.0
 10
11.3937397046
 20
8.5036833765
 30
0.0
 10
11.3936882861
 20
8.5041762012
 30
0.0
 10
11.3936317759
 20
8.5047676892
 30
0.0
 10
11.3935546156
 20
8.5055563054
 30
0.0
 10
11.3934587861
 20
8.5065420875
 30
0.0
 10
11.3933051118
 20
8.5081193323
 30
0.0
 10
11.3931131381
 20
8.5100908905
 30
0.0
 10
11.3928827185
 20
8.5124567594
 30
0.0
 10
11.3926523126
 20
8.5148226285
 30
0.0
 10
11.3923451001
 20
8.5179771206
 30
0.0
 10
11.3919610855
 20
8.5219202357
 30
0.0
 10
11.3915770725
 20
8.5258633511
 30
0.0
 10
11.3912698574
 20
8.5290178428
 30
0.0
 10
11.391039459
 20
8.5313837132
 30
0.0
 10
11.3908090117
 20
8.5337495773
 30
0.0
 10
11.3906171242
 20
8.5357211503
 30
0.0
 10
11.3904632741
 20
8.5372983649
 30
0.0
 10
11.3903488156
 20
8.5384813954
 30
0.0
 10
11.3902504783
 20
8.539466874
 30
0.0
 10
11.3901874418
 20
8.5401574551
 30
0.0
 10
11.3901423652
 20
8.5405509079
 30
0.0
 10
11.390134068
 20
8.5408492794
 30
0.0
 10
11.3900282579
 20
8.5411351055
 30
0.0
 10
11.3899211913
 20
8.5415205829
 30
0.0
 10
11.3897179773
 20
8.5421931294
 30
0.0
 10
11.3894359569
 20
8.5431549762
 30
0.0
 10
11.3890939859
 20
8.5443087361
 30
0.0
 10
11.3886392635
 20
8.545847242
 30
0.0
 10
11.3880704353
 20
8.5477703196
 30
0.0
 10
11.3873880238
 20
8.5500780362
 30
0.0
 10
11.3867055635
 20
8.5523857466
 30
0.0
 10
11.3857956335
 20
8.5554626959
 30
0.0
 10
11.3846582146
 20
8.5593088817
 30
0.0
 10
11.3835207999
 20
8.5631550684
 30
0.0
 10
11.3826108633
 20
8.5662320162
 30
0.0
 10
11.381928423
 20
8.5685397312
 30
0.0
 10
11.3812459366
 20
8.5708474304
 30
0.0
 10
11.3806773411
 20
8.5727705622
 30
0.0
 10
11.3802221442
 20
8.5743089577
 30
0.0
 10
11.3798816222
 20
8.5754630546
 30
0.0
 10
11.3795950685
 20
8.5764238471
 30
0.0
 10
11.3793999471
 20
8.5770982757
 30
0.0
 10
11.3792799142
 20
8.5774807375
 30
0.0
 10
11.3792139327
 20
8.5777758264
 30
0.0
 10
11.3790560458
 20
8.5780394083
 30
0.0
 10
11.3788775876
 20
8.5784018408
 30
0.0
 10
11.3785503494
 20
8.5790309772
 30
0.0
 10
11.3780906752
 20
8.5799324205
 30
0.0
 10
11.3775357236
 20
8.5810130066
 30
0.0
 10
11.3767969558
 20
8.5824541883
 30
0.0
 10
11.3758730954
 20
8.5842555282
 30
0.0
 10
11.3747646346
 20
8.5864171948
 30
0.0
 10
11.3736561279
 20
8.5885788457
 30
0.0
 10
11.3721781351
 20
8.5914610525
 30
0.0
 10
11.3703306381
 20
8.5950638088
 30
0.0
 10
11.368483145
 20
8.5986665668
 30
0.0
 10
11.3670051458
 20
8.6015487709
 30
0.0
 10
11.3658966582
 20
8.6037104296
 30
0.0
 10
11.3647881259
 20
8.6058720671
 30
0.0
 10
11.363864488
 20
8.6076734977
 30
0.0
 10
11.3631252665
 20
8.6091144944
 30
0.0
 10
11.3625717005
 20
8.6101956456
 30
0.0
 10
11.3621076913
 20
8.6110953209
 30
0.0
 10
11.3617881918
 20
8.6117276135
 30
0.0
 10
11.3615973343
 20
8.6120849889
 30
0.0
 10
11.3614775339
 20
8.6123641046
 30
0.0
 10
11.3612685057
 20
8.6126008508
 30
0.0
 10
11.3610209252
 20
8.6129312913
 30
0.0
 10
11.3605731581
 20
8.6135026765
 30
0.0
 10
11.3599410723
 20
8.6143225409
 30
0.0
 10
11.3591793241
 20
8.6153048373
 30
0.0
 10
11.3581647935
 20
8.6166151042
 30
0.0
 10
11.3568962412
 20
8.618252753
 30
0.0
 10
11.3553741453
 20
8.6202180108
 30
0.0
 10
11.3538520047
 20
8.6221832474
 30
0.0
 10
11.3518224996
 20
8.6248035704
 30
0.0
 10
11.3492856124
 20
8.6280789711
 30
0.0
 10
11.3467487286
 20
8.6313543743
 30
0.0
 10
11.3447192181
 20
8.6339746932
 30
0.0
 10
11.3431970938
 20
8.635939942
 30
0.0
 10
11.3416749368
 20
8.6379051541
 30
0.0
 10
11.3404065743
 20
8.639542945
 30
0.0
 10
11.3393916568
 20
8.640852922
 30
0.0
 10
11.3386310902
 20
8.6418361036
 30
0.0
 10
11.3379953076
 20
8.6426531987
 30
0.0
 10
11.3375541398
 20
8.6432295276
 30
0.0
 10
11.3372959856
 20
8.643552047
 30
0.0
 10
11.3371194363
 20
8.6438131244
 30
0.0
 10
11.3368776508
 20
8.6440008562
 30
0.0
 10
11.3365780253
 20
8.6442767491
 30
0.0
 10
11.3360430787
 20
8.6447476416
 30
0.0
 10
11.3352844121
 20
8.6454265772
 30
0.0
 10
11.3343716397
 20
8.6462386323
 30
0.0
 10
11.3331554385
 20
8.6473223044
 30
0.0
 10
11.3316349026
 20
8.6486765746
 30
0.0
 10
11.3298103815
 20
8.6503018361
 30
0.0
 10
11.3279858278
 20
8.6519270608
 30
0.0
 10
11.3255531009
 20
8.65409404
 30
0.0
 10
11.322512188
 20
8.6568027591
 30
0.0
 10
11.3194712778
 20
8.6595114816
 30
0.0
 10
11.3170385467
 20
8.6616784554
 30
0.0
 10
11.3152140057
 20
8.6633036961
 30
0.0
 10
11.313389437
 20
8.6649288975
 30
0.0
 10
11.3118690492
 20
8.6662833546
 30
0.0
 10
11.3106525461
 20
8.6673666456
 30
0.0
 10
11.3097406956
 20
8.6681798644
 30
0.0
 10
11.3089791443
 20
8.6688551594
 30
0.0
 10
11.3084493474
 20
8.6693325509
 30
0.0
 10
11.3081414708
 20
8.6695980309
 30
0.0
 10
11.3079250301
 20
8.6698177477
 30
0.0
 10
11.3076532902
 20
8.6699586947
 30
0.0
 10
11.3073102594
 20
8.6701740998
 30
0.0
 10
11.3067009684
 20
8.6705382573
 30
0.0
 10
11.3058352511
 20
8.6710651751
 30
0.0
 10
11.3047943793
 20
8.6716946117
 30
0.0
 10
11.3034072527
 20
8.6725348612
 30
0.0
 10
11.3016731035
 20
8.6735848296
 30
0.0
 10
11.2995922277
 20
8.674844939
 30
0.0
 10
11.2975113242
 20
8.676105009
 30
0.0
 10
11.294736796
 20
8.6777851161
 30
0.0
 10
11.2912686321
 20
8.6798852447
 30
0.0
 10
11.2878004704
 20
8.6819853771
 30
0.0
 10
11.2850259388
 20
8.6836654783
 30
0.0
 10
11.2829450452
 20
8.6849255659
 30
0.0
 10
11.2808641325
 20
8.686185609
 30
0.0
 10
11.2791300981
 20
8.6872357837
 30
0.0
 10
11.2777427373
 20
8.6880756126
 30
0.0
 10
11.2767025807
 20
8.6887063335
 30
0.0
 10
11.2758346258
 20
8.6892292332
 30
0.0
 10
11.2752293294
 20
8.6896005636
 30
0.0
 10
11.2748798981
 20
8.6898044759
 30
0.0
 10
11.2746278184
 20
8.6899807254
 30
0.0
 10
11.2743375375
 20
8.6900678516
 30
0.0
 10
11.2739638212
 20
8.6902151072
 30
0.0
 10
11.2733036094
 20
8.6904583202
 30
0.0
 10
11.2723636955
 20
8.6908133398
 30
0.0
 10
11.2712344094
 20
8.6912361221
 30
0.0
 10
11.26972918
 20
8.6918009641
 30
0.0
 10
11.2678474767
 20
8.692506628
 30
0.0
 10
11.2655895042
 20
8.6933535913
 30
0.0
 10
11.2633315125
 20
8.6942005099
 30
0.0
 10
11.2603208637
 20
8.6953297505
 30
0.0
 10
11.2565575502
 20
8.6967412953
 30
0.0
 10
11.2527942381
 20
8.6981528442
 30
0.0
 10
11.2497835869
 20
8.6992820782
 30
0.0
 10
11.2475256023
 20
8.7001290164
 30
0.0
 10
11.2452676033
 20
8.7009759068
 30
0.0
 10
11.2433859823
 20
8.7016817974
 30
0.0
 10
11.2418805852
 20
8.702246177
 30
0.0
 10
11.2407518113
 20
8.7026703711
 30
0.0
 10
11.2398102949
 20
8.7030209738
 30
0.0
 10
11.2391529438
 20
8.7032720718
 30
0.0
 10
11.2387746439
 20
8.7034066936
 30
0.0
 10
11.2384984424
 20
8.7035326265
 30
0.0
 10
11.2381934826
 20
8.7035631248
 30
0.0
 10
11.2377969006
 20
8.7036370778
 30
0.0
 10
11.2370982085
 20
8.7037509858
 30
0.0
 10
11.2361025204
 20
8.7039218203
 30
0.0
 10
11.2349066487
 20
8.7041233509
 30
0.0
 10
11.2333125185
 20
8.7043932707
 30
0.0
 10
11.2313197304
 20
8.7047302544
 30
0.0
 10
11.2289284385
 20
8.7051348132
 30
0.0
 10
11.2265371321
 20
8.7055393244
 30
0.0
 10
11.2233487287
 20
8.7060786892
 30
0.0
 10
11.2193632226
 20
8.7067528895
 30
0.0
 10
11.2145806161
 20
8.7075619323
 30
0.0
 10
11.2082038072
 20
8.7086406552
 30
0.0
 10
11.2034212006
 20
8.7094496975
 30
0.0
 10
11.2002327961
 20
8.7099890591
 30
0.0
  0
SPLINE
  5
3BD
100
AcDbEntity
  8
0
100
AcDbSpline
 62
4
  6
CONTINUOUS
 70
0
 71
3
 72
359
 73
355
 74
0
 42
0.0000001
 43
0.0000001
 44
0.0000000001
 40
0.0
 40
0.0
 40
0.0
 40
0.0
 40
0.015625
 40
0.0234375
 40
0.03125
 40
0.0390625
 40
0.04296875
 40
0.046875
 40
0.05078125
 40
0.0546875
 40
0.056640625
 40
0.05859375
 40
0.0595703125
 40
0.060546875
 40
0.0615234375
 40
0.0620117188
 40
0.0625
 40
0.0629882812
 40
0.0634765625
 40
0.064453125
 40
0.0654296875
 40
0.06640625
 40
0.068359375
 40
0.0703125
 40
0.07421875
 40
0.078125
 40
0.08203125
 40
0.0859375
 40
0.09375
 40
0.1015625
 40
0.10546875
 40
0.109375
 40
0.11328125
 40
0.1171875
 40
0.119140625
 40
0.12109375
 40
0.1220703125
 40
0.123046875
 40
0.1240234375
 40
0.1245117188
 40
0.125
 40
0.1254882812
 40
0.1259765625
 40
0.126953125
 40
0.1279296875
 40
0.12890625
 40
0.130859375
 40
0.1328125
 40
0.13671875
 40
0.140625
 40
0.14453125
 40
0.1484375
 40
0.15625
 40
0.1640625
 40
0.16796875
 40
0.171875
 40
0.17578125
 40
0.1796875
 40
0.181640625
 40
0.18359375
 40
0.1845703125
 40
0.185546875
 40
0.1865234375
 40
0.1870117188
 40
0.1875
 40
0.1879882812
 40
0.1884765625
 40
0.189453125
 40
0.1904296875
 40
0.19140625
 40
0.193359375
 40
0.1953125
 40
0.19921875
 40
0.203125
 40
0.20703125
 40
0.2109375
 40
0.21875
 40
0.2265625
 40
0.23046875
 40
0.234375
 40
0.23828125
 40
0.2421875
 40
0.244140625
 40
0.24609375
 40
0.2470703125
 40
0.248046875
 40
0.2490234375
 40
0.2495117188
 40
0.25
 40
0.2504882812
 40
0.2509765625
 40
0.251953125
 40
0.2529296875
 40
0.25390625
 40
0.255859375
 40
0.2578125
 40
0.26171875
 40
0.265625
 40
0.26953125
 40
0.2734375
 40
0.28125
 40
0.2890625
 40
0.29296875
 40
0.296875
 40
0.30078125
 40
0.3046875
 40
0.306640625
 40
0.30859375
 40
0.3095703125
 40
0.310546875
 40
0.3115234375
 40
0.3120117188
 40
0.3125
 40
0.3129882812
 40
0.3134765625
 40
0.314453125
 40
0.3154296875
 40
0.31640625
 40
0.318359375
 40
0.3203125
 40
0.32421875
 40
0.328125
 40
0.33203125
 40
0.3359375
 40
0.34375
 40
0.3515625
 40
0.35546875
 40
0.359375
 40
0.36328125
 40
0.3671875
 40
0.369140625
 40
0.37109375
 40
0.3720703125
 40
0.373046875
 40
0.3740234375
 40
0.3745117188
 40
0.375
 40
0.3754882812
 40
0.3759765625
 40
0.376953125
 40
0.3779296875
 40
0.37890625
 40
0.380859375
 40
0.3828125
 40
0.38671875
 40
0.390625
 40
0.39453125
 40
0.3984375
 40
0.40625
 40
0.4140625
 40
0.41796875
 40
0.421875
 40
0.42578125
 40
0.4296875
 40
0.431640625
 40
0.43359375
 40
0.4345703125
 40
0.435546875
 40
0.4365234375
 40
0.4370117188
 40
0.4375
 40
0.4379882812
 40
0.4384765625
 40
0.439453125
 40
0.4404296875
 40
0.44140625
 40
0.443359375
 40
0.4453125
 40
0.44921875
 40
0.453125
 40
0.45703125
 40
0.4609375
 40
0.46875
 40
0.4765625
 40
0.48046875
 40
0.484375
 40
0.48828125
 40
0.4921875
 40
0.494140625
 40
0.49609375
 40
0.4970703125
 40
0.498046875
 40
0.4990234375
 40
0.4995117188
 40
0.5
 40
0.5004882812
 40
0.5009765625
 40
0.501953125
 40
0.5029296875
 40
0.50390625
 40
0.505859375
 40
0.5078125
 40
0.51171875
 40
0.515625
 40
0.51953125
 40
0.5234375
 40
0.53125
 40
0.5390625
 40
0.54296875
 40
0.546875
 40
0.55078125
 40
0.5546875
 40
0.556640625
 40
0.55859375
 40
0.560546875
 40
0.5615234375
 40
0.5620117188
 40
0.5625
 40
0.5629882812
 40
0.5634765625
 40
0.564453125
 40
0.56640625
 40
0.568359375
 40
0.5703125
 40
0.57421875
 40
0.578125
 40
0.58203125
 40
0.5859375
 40
0.59375
 40
0.6015625
 40
0.60546875
 40
0.609375
 40
0.61328125
 40
0.6171875
 40
0.619140625
 40
0.62109375
 40
0.623046875
 40
0.6240234375
 40
0.6245117188
 40
0.625
 40
0.6254882812
 40
0.6259765625
 40
0.626953125
 40
0.62890625
 40
0.630859375
 40
0.6328125
 40
0.63671875
 40
0.640625
 40
0.64453125
 40
0.6484375
 40
0.65625
 40
0.6640625
 40
0.66796875
 40
0.671875
 40
0.67578125
 40
0.6796875
 40
0.681640625
 40
0.68359375
 40
0.685546875
 40
0.6865234375
 40
0.6870117188
 40
0.6875
 40
0.6879882812
 40
0.6884765625
 40
0.689453125
 40
0.69140625
 40
0.693359375
 40
0.6953125
 40
0.69921875
 40
0.703125
 40
0.70703125
 40
0.7109375
 40
0.71875
 40
0.7265625
 40
0.73046875
 40
0.734375
 40
0.73828125
 40
0.7421875
 40
0.744140625
 40
0.74609375
 40
0.748046875
 40
0.7490234375
 40
0.7495117188
 40
0.75
 40
0.7504882812
 40
0.7509765625
 40
0.751953125
 40
0.75390625
 40
0.755859375
 40
0.7578125
 40
0.76171875
 40
0.765625
 40
0.76953125
 40
0.7734375
 40
0.78125
 40
0.7890625
 40
0.79296875
 40
0.796875
 40
0.80078125
 40
0.8046875
 40
0.806640625
 40
0.80859375
 40
0.810546875
 40
0.8115234375
 40
0.8120117188
 40
0.8125
 40
0.8129882812
 40
0.8134765625
 40
0.814453125
 40
0.81640625
 40
0.818359375
 40
0.8203125
 40
0.82421875
 40
0.828125
 40
0.83203125
 40
0.8359375
 40
0.84375
 40
0.8515625
 40
0.85546875
 40
0.859375
 40
0.86328125
 40
0.8671875
 40
0.869140625
 40
0.87109375
 40
0.873046875
 40
0.8740234375
 40
0.8745117188
 40
0.875
 40
0.8754882812
 40
0.8759765625
 40
0.876953125
 40
0.87890625
 40
0.880859375
 40
0.8828125
 40
0.88671875
 40
0.890625
 40
0.89453125
 40
0.8984375
 40
0.90625
 40
0.9140625
 40
0.91796875
 40
0.921875
 40
0.92578125
 40
0.9296875
 40
0.931640625
 40
0.93359375
 40
0.935546875
 40
0.9365234375
 40
0.9370117188
 40
0.9375
 40
0.9379882812
 40
0.9384765625
 40
0.939453125
 40
0.94140625
 40
0.943359375
 40
0.9453125
 40
0.94921875
 40
0.953125
 40
0.95703125
 40
0.9609375
 40
0.96875
 40
0.9765625
 40
0.984375
 40
1.0
 40
1.0
 40
1.0
 40
1.0
 10
11.2002328131
 20
8.7099890579
 30
0.0
 10
11.1970996261
 20
8.7098991335
 30
0.0
 10
11.1923998458
 20
8.7097642469
 30
0.0
 10
11.1861334719
 20
8.709584398
 30
0.0
 10
11.1814336915
 20
8.7094495115
 30
0.0
 10
11.177517208
 20
8.7093371056
 30
0.0
 10
11.1743840209
 20
8.7092471821
 30
0.0
 10
11.1720341312
 20
8.7091797359
 30
0.0
 10
11.169684239
 20
8.7091123032
 30
0.0
 10
11.1677260036
 20
8.7090560676
 30
0.0
 10
11.1661593971
 20
8.7090111723
 30
0.0
 10
11.1651803094
 20
8.7089829008
 30
0.0
 10
11.1643969444
 20
8.7089607689
 30
0.0
 10
11.1638096803
 20
8.7089428412
 30
0.0
 10
11.1633194679
 20
8.7089321283
 30
0.0
 10
11.1629291496
 20
8.7089140781
 30
0.0
 10
11.1626313513
 20
8.7089264438
 30
0.0
 10
11.1623528653
 20
8.7088399362
 30
0.0
 10
11.1619748047
 20
8.7087591305
 30
0.0
 10
11.1615045434
 20
8.7086462736
 30
0.0
 10
11.1609392391
 20
8.7085159174
 30
0.0
 10
11.1601858461
 20
8.7083403376
 30
0.0
 10
11.1592439864
 20
8.7081214694
 30
0.0
 10
11.157737077
 20
8.7077709413
 30
0.0
 10
11.1558534176
 20
8.7073328975
 30
0.0
 10
11.1535930361
 20
8.7068071951
 30
0.0
 10
11.1513326519
 20
8.706281506
 30
0.0
 10
11.1483188073
 20
8.7055805825
 30
0.0
 10
11.1445515012
 20
8.7047044299
 30
0.0
 10
11.1407841954
 20
8.7038282761
 30
0.0
 10
11.1377703502
 20
8.7031273545
 30
0.0
 10
11.1355099677
 20
8.7026016599
 30
0.0
 10
11.13324958
 20
8.702075978
 30
0.0
 10
11.1313659396
 20
8.7016378701
 30
0.0
 10
11.1298589916
 20
8.7012874728
 30
0.0
 10
11.1289172303
 20
8.7010682718
 30
0.0
 10
11.1281636353
 20
8.7008933751
 30
0.0
 10
11.1275989482
 20
8.7007609319
 30
0.0
 10
11.1271267559
 20
8.7006546047
 30
0.0
 10
11.1267526348
 20
8.7005604773
 30
0.0
 10
11.1264621176
 20
8.7005146532
 30
0.0
 10
11.1262094893
 20
8.7003742762
 30
0.0
 10
11.1258594166
 20
8.7002201354
 30
0.0
 10
11.1254263665
 20
8.7000161274
 30
0.0
 10
11.1249047628
 20
8.6997761683
 30
0.0
 10
11.12420997
 20
8.6994545287
 30
0.0
 10
11.1233412466
 20
8.6990530593
 30
0.0
 10
11.1219514191
 20
8.698410384
 30
0.0
 10
11.1202140901
 20
8.6976071511
 30
0.0
 10
11.1181293145
 20
8.696643224
 30
0.0
 10
11.1160445337
 20
8.6956793096
 30
0.0
 10
11.1132648278
 20
8.6943940859
 30
0.0
 10
11.1097901947
 20
8.692787558
 30
0.0
 10
11.1063155621
 20
8.691181029
 30
0.0
 10
11.1035358554
 20
8.6898958072
 30
0.0
 10
11.1014510771
 20
8.6889318875
 30
0.0
 10
11.0993662922
 20
8.6879679803
 30
0.0
 10
11.0976289919
 20
8.6871646853
 30
0.0
 10
11.0962391059
 20
8.6865221366
 30
0.0
 10
11.0953705312
 20
8.6861203451
 30
0.0
 10
11.0946754331
 20
8.6857993665
 30
0.0
 10
11.0941547622
 20
8.685557388
 30
0.0
 10
11.0937187936
 20
8.6853596984
 30
0.0
 10
11.0933746753
 20
8.6851926669
 30
0.0
 10
11.0931038625
 20
8.6850916572
 30
0.0
 10
11.0928816177
 20
8.6848980321
 30
0.0
 10
11.0925683259
 20
8.684672217
 30
0.0
 10
11.0921825319
 20
8.6843788485
 30
0.0
 10
11.0917170877
 20
8.6840315573
 30
0.0
 10
11.0910973656
 20
8.6835668429
 30
0.0
 10
11.090322415
 20
8.6829865182
 30
0.0
 10
11.0890826605
 20
8.6820576809
 30
0.0
 10
11.0875329103
 20
8.6808967434
 30
0.0
 10
11.0856732346
 20
8.6795035717
 30
0.0
 10
11.0838135523
 20
8.6781104124
 30
0.0
 10
11.0813339782
 20
8.6762528624
 30
0.0
 10
11.0782345097
 20
8.6739309264
 30
0.0
 10
11.0751350419
 20
8.6716089895
 30
0.0
 10
11.0726554667
 20
8.669751441
 30
0.0
 10
11.070795788
 20
8.6683582771
 30
0.0
 10
11.0689360987
 20
8.6669651228
 30
0.0
 10
11.0673863905
 20
8.6658041311
 30
0.0
 10
11.0661465505
 20
8.6648754043
 30
0.0
 10
11.0653718175
 20
8.6642947986
 30
0.0
 10
11.0647516488
 20
8.6638306608
 30
0.0
 10
11.0642875689
 20
8.6634816081
 30
0.0
 10
11.0638975061
 20
8.6631937511
 30
0.0
 10
11.0635929235
 20
8.6629566915
 30
0.0
 10
11.0633440815
 20
8.6627974065
 30
0.0
 10
11.0631731259
 20
8.6625674698
 30
0.0
 10
11.0629179785
 20
8.6622855671
 30
0.0
 10
11.0626083786
 20
8.6619247213
 30
0.0
 10
11.0622328633
 20
8.6614953307
 30
0.0
 10
11.0617335718
 20
8.6609215439
 30
0.0
 10
11.0611089796
 20
8.6602047439
 30
0.0
 10
11.0601098991
 20
8.6590576217
 30
0.0
 10
11.0588609569
 20
8.657623802
 30
0.0
 10
11.0573622655
 20
8.6559031828
 30
0.0
 10
11.0558635636
 20
8.6541825731
 30
0.0
 10
11.0538652981
 20
8.6518884235
 30
0.0
 10
11.0513674648
 20
8.6490207378
 30
0.0
 10
11.0488696324
 20
8.6461530512
 30
0.0
 10
11.0468713654
 20
8.6438589029
 30
0.0
 10
11.045372668
 20
8.6421382894
 30
0.0
 10
11.0438739595
 20
8.6404176843
 30
0.0
 10
11.0426250705
 20
8.6389838209
 30
0.0
 10
11.0416258815
 20
8.6378367877
 30
0.0
 10
11.0410015654
 20
8.6371197612
 30
0.0
 10
11.0405017071
 20
8.6365464395
 30
0.0
 10
11.0401279236
 20
8.636115628
 30
0.0
 10
11.0398129054
 20
8.6357592278
 30
0.0
 10
11.0395688125
 20
8.6354682552
 30
0.0
 10
11.0393640969
 20
8.6352660175
 30
0.0
 10
11.0392420041
 20
8.6350027389
 30
0.0
 10
11.0390503524
 20
8.6346730231
 30
0.0
 10
11.03882069
 20
8.6342535627
 30
0.0
 10
11.0385408567
 20
8.6337533416
 30
0.0
 10
11.038169226
 20
8.6330852864
 30
0.0
 10
11.0377041807
 20
8.6322505919
 30
0.0
 10
11.0369603915
 20
8.6309148713
 30
0.0
 10
11.0360305579
 20
8.6292452925
 30
0.0
 10
11.0349147991
 20
8.6272417671
 30
0.0
 10
11.0337990293
 20
8.62523825
 30
0.0
 10
11.03231134
 20
8.6225668909
 30
0.0
 10
11.030451727
 20
8.6192276931
 30
0.0
 10
11.028592115
 20
8.6158884946
 30
0.0
 10
11.0271044241
 20
8.6132171365
 30
0.0
 10
11.0259886592
 20
8.6112136164
 30
0.0
 10
11.0248728819
 20
8.6092101022
 30
0.0
 10
11.0239431061
 20
8.6075404884
 30
0.0
 10
11.023199199
 20
8.6062048393
 30
0.0
 10
11.0227344538
 20
8.605369963
 30
0.0
 10
11.0223622071
 20
8.6047022808
 30
0.0
 10
11.0220842556
 20
8.6042009202
 30
0.0
 10
11.0218487054
 20
8.6037850252
 30
0.0
 10
11.0216690661
 20
8.6034480354
 30
0.0
 10
11.0215102883
 20
8.6032069711
 30
0.0
 10
11.0214433031
 20
8.6029213314
 30
0.0
 10
11.0213219252
 20
8.6025560493
 30
0.0
 10
11.0211812038
 20
8.6020941044
 30
0.0
 10
11.0210076294
 20
8.6015420572
 30
0.0
 10
11.0207778416
 20
8.6008051955
 30
0.0
 10
11.0204900436
 20
8.5998843919
 30
0.0
 10
11.0200298816
 20
8.5984109534
 30
0.0
 10
11.0194545711
 20
8.5965692076
 30
0.0
 10
11.0187642447
 20
8.5943590902
 30
0.0
 10
11.018073906
 20
8.5921489788
 30
0.0
 10
11.0171534588
 20
8.5892021615
 30
0.0
 10
11.0160028981
 20
8.5855186406
 30
0.0
 10
11.0148523385
 20
8.5818351193
 30
0.0
 10
11.0139318894
 20
8.5788883027
 30
0.0
 10
11.0132415561
 20
8.5766781891
 30
0.0
 10
11.0125512096
 20
8.5744680802
 30
0.0
 10
11.0119759618
 20
8.5726263079
 30
0.0
 10
11.0115156719
 20
8.5711529234
 30
0.0
 10
11.0112281995
 20
8.570231982
 30
0.0
 10
11.0109977433
 20
8.5694954033
 30
0.0
 10
11.0108262107
 20
8.5689424918
 30
0.0
 10
11.010679101
 20
8.5684832508
 30
0.0
 10
11.0105707566
 20
8.5681124522
 30
0.0
 10
11.0104639678
 20
8.5678436596
 30
0.0
 10
11.0104546291
 20
8.5675393445
 30
0.0
 10
11.0104081369
 20
8.5671459994
 30
0.0
 10
11.0103617008
 20
8.5666500607
 30
0.0
 10
11.0103009785
 20
8.5660567566
 30
0.0
 10
11.0102217614
 20
8.565265048
 30
0.0
 10
11.0101221422
 20
8.5642756302
 30
0.0
 10
11.0099630856
 20
8.5626924398
 30
0.0
 10
11.0097641502
 20
8.5607134937
 30
0.0
 10
11.0095254769
 20
8.5583387404
 30
0.0
 10
11.0092867904
 20
8.5559639919
 30
0.0
 10
11.0089685464
 20
8.5527976589
 30
0.0
 10
11.0085707397
 20
8.5488397433
 30
0.0
 10
11.0081729341
 20
8.5448818274
 30
0.0
 10
11.0078546882
 20
8.5417154947
 30
0.0
 10
11.0076160074
 20
8.5393407453
 30
0.0
 10
11.0073773129
 20
8.5369659956
 30
0.0
 10
11.0071784434
 20
8.5349870383
 30
0.0
 10
11.0070192525
 20
8.5334038707
 30
0.0
 10
11.0069199751
 20
8.532414395
 30
0.0
 10
11.0068400564
 20
8.5316228051
 30
0.0
 10
11.0067814775
 20
8.5310291384
 30
0.0
 10
11.0067283351
 20
8.5305343342
 30
0.0
 10
11.0066955252
 20
8.5301386746
 30
0.0
 10
11.0066444015
 20
8.5298414279
 30
0.0
 10
11.0066944908
 20
8.5295460973
 30
0.0
 10
11.0067259215
 20
8.5291516538
 30
0.0
 10
11.0067773401
 20
8.5286588291
 30
0.0
 10
11.0068338502
 20
8.5280673411
 30
0.0
 10
11.0069110106
 20
8.5272787249
 30
0.0
 10
11.0070068401
 20
8.5262929428
 30
0.0
 10
11.0071605143
 20
8.524715698
 30
0.0
 10
11.0073524881
 20
8.5227441398
 30
0.0
 10
11.0075829076
 20
8.5203782709
 30
0.0
 10
11.0078133135
 20
8.5180124018
 30
0.0
 10
11.008120526
 20
8.5148579097
 30
0.0
 10
11.0085045406
 20
8.5109147946
 30
0.0
 10
11.0088885537
 20
8.5069716792
 30
0.0
 10
11.0091957687
 20
8.5038171875
 30
0.0
 10
11.0094261672
 20
8.5014513171
 30
0.0
 10
11.0096566144
 20
8.499085453
 30
0.0
 10
11.0098485019
 20
8.49711388
 30
0.0
 10
11.010002352
 20
8.4955366654
 30
0.0
 10
11.0101168105
 20
8.4943536348
 30
0.0
 10
11.0102151479
 20
8.4933681563
 30
0.0
 10
11.0102781843
 20
8.4926775752
 30
0.0
 10
11.0103232609
 20
8.4922841224
 30
0.0
 10
11.0103315582
 20
8.4919857509
 30
0.0
 10
11.0104373682
 20
8.4916999248
 30
0.0
 10
11.0105444348
 20
8.4913144474
 30
0.0
 10
11.0107476488
 20
8.4906419009
 30
0.0
 10
11.0110296693
 20
8.4896800541
 30
0.0
 10
11.0113716402
 20
8.4885262942
 30
0.0
 10
11.0118263627
 20
8.4869877883
 30
0.0
 10
11.0123951908
 20
8.4850647107
 30
0.0
 10
11.0130776023
 20
8.4827569941
 30
0.0
 10
11.0137600627
 20
8.4804492837
 30
0.0
 10
11.0146699926
 20
8.4773723344
 30
0.0
 10
11.0158074115
 20
8.4735261486
 30
0.0
 10
11.0169448262
 20
8.4696799619
 30
0.0
 10
11.0178547628
 20
8.4666030141
 30
0.0
 10
11.0185372032
 20
8.4642952991
 30
0.0
 10
11.0192196895
 20
8.4619875999
 30
0.0
 10
11.019788285
 20
8.4600644681
 30
0.0
 10
11.0202434819
 20
8.4585260726
 30
0.0
 10
11.0205840039
 20
8.4573719757
 30
0.0
 10
11.0208705576
 20
8.4564111832
 30
0.0
 10
11.021065679
 20
8.4557367546
 30
0.0
 10
11.021185712
 20
8.4553542927
 30
0.0
 10
11.0212516934
 20
8.4550592039
 30
0.0
 10
11.0214095803
 20
8.454795622
 30
0.0
 10
11.0215880386
 20
8.4544331895
 30
0.0
 10
11.0219152767
 20
8.4538040531
 30
0.0
 10
11.022374951
 20
8.4529026098
 30
0.0
 10
11.0229299025
 20
8.4518220237
 30
0.0
 10
11.0236686703
 20
8.450380842
 30
0.0
 10
11.0245925307
 20
8.4485795021
 30
0.0
 10
11.0257009915
 20
8.4464178355
 30
0.0
 10
11.0268094982
 20
8.4442561845
 30
0.0
 10
11.028287491
 20
8.4413739778
 30
0.0
 10
11.0301349881
 20
8.4377712215
 30
0.0
 10
11.0319824811
 20
8.4341684635
 30
0.0
 10
11.0334604803
 20
8.4312862594
 30
0.0
 10
11.034568968
 20
8.4291246007
 30
0.0
 10
11.0356775002
 20
8.4269629632
 30
0.0
 10
11.0366011382
 20
8.4251615326
 30
0.0
 10
11.0373403597
 20
8.4237205359
 30
0.0
 10
11.0378939256
 20
8.4226393847
 30
0.0
 10
11.0383579349
 20
8.4217397094
 30
0.0
 10
11.0386774344
 20
8.4211074168
 30
0.0
 10
11.0388682919
 20
8.4207500414
 30
0.0
 10
11.0389880922
 20
8.4204709257
 30
0.0
 10
11.0391971204
 20
8.4202341795
 30
0.0
 10
11.0394447009
 20
8.419903739
 30
0.0
 10
11.039892468
 20
8.4193323538
 30
0.0
 10
11.0405245539
 20
8.4185124894
 30
0.0
 10
11.041286302
 20
8.4175301929
 30
0.0
 10
11.0423008326
 20
8.4162199261
 30
0.0
 10
11.0435693849
 20
8.4145822773
 30
0.0
 10
11.0450914808
 20
8.4126170195
 30
0.0
 10
11.0466136214
 20
8.4106517829
 30
0.0
 10
11.0486431266
 20
8.4080314599
 30
0.0
 10
11.0511800137
 20
8.4047560592
 30
0.0
 10
11.0537168975
 20
8.401480656
 30
0.0
 10
11.055746408
 20
8.3988603371
 30
0.0
 10
11.0572685324
 20
8.3968950883
 30
0.0
 10
11.0587906893
 20
8.3949298762
 30
0.0
 10
11.0600590518
 20
8.3932920852
 30
0.0
 10
11.0610739694
 20
8.3919821083
 30
0.0
 10
11.0618345359
 20
8.3909989267
 30
0.0
 10
11.0624703185
 20
8.3901818316
 30
0.0
 10
11.0629114864
 20
8.3896055027
 30
0.0
 10
11.0631696405
 20
8.3892829833
 30
0.0
 10
11.0633461899
 20
8.3890219059
 30
0.0
 10
11.0635879753
 20
8.3888341741
 30
0.0
 10
11.0638876008
 20
8.3885582812
 30
0.0
 10
11.0644225474
 20
8.3880873887
 30
0.0
 10
11.065181214
 20
8.3874084531
 30
0.0
 10
11.0660939865
 20
8.386596398
 30
0.0
 10
11.0673101876
 20
8.3855127259
 30
0.0
 10
11.0688307235
 20
8.3841584557
 30
0.0
 10
11.0706552446
 20
8.3825331942
 30
0.0
 10
11.0724797984
 20
8.3809079695
 30
0.0
 10
11.0749125252
 20
8.3787409903
 30
0.0
 10
11.0779534381
 20
8.3760322712
 30
0.0
 10
11.0809943483
 20
8.3733235487
 30
0.0
 10
11.0834270794
 20
8.3711565749
 30
0.0
 10
11.0852516204
 20
8.3695313341
 30
0.0
 10
11.0870761892
 20
8.3679061328
 30
0.0
 10
11.088596577
 20
8.3665516757
 30
0.0
 10
11.0898130801
 20
8.3654683847
 30
0.0
 10
11.0907249305
 20
8.3646551659
 30
0.0
 10
11.0914864818
 20
8.3639798709
 30
0.0
 10
11.0920162787
 20
8.3635024794
 30
0.0
 10
11.0923241553
 20
8.3632369994
 30
0.0
 10
11.092540596
 20
8.3630172826
 30
0.0
 10
11.0928123359
 20
8.3628763356
 30
0.0
 10
11.0931553667
 20
8.3626609304
 30
0.0
 10
11.0937646578
 20
8.3622967729
 30
0.0
 10
11.094630375
 20
8.3617698552
 30
0.0
 10
11.0956712468
 20
8.3611404186
 30
0.0
 10
11.0970583734
 20
8.3603001691
 30
0.0
 10
11.0987925227
 20
8.3592502007
 30
0.0
 10
11.1008733985
 20
8.3579900913
 30
0.0
 10
11.1029543019
 20
8.3567300213
 30
0.0
 10
11.1057288301
 20
8.3550499142
 30
0.0
 10
11.109196994
 20
8.3529497856
 30
0.0
 10
11.1126651558
 20
8.3508496532
 30
0.0
 10
11.1154396873
 20
8.349169552
 30
0.0
 10
11.1175205809
 20
8.3479094644
 30
0.0
 10
11.1196014936
 20
8.3466494213
 30
0.0
 10
11.121335528
 20
8.3455992466
 30
0.0
 10
11.1227228888
 20
8.3447594177
 30
0.0
 10
11.1237630454
 20
8.3441286968
 30
0.0
 10
11.1246310003
 20
8.3436057971
 30
0.0
 10
11.1252362967
 20
8.3432344667
 30
0.0
 10
11.125585728
 20
8.3430305544
 30
0.0
 10
11.1258378077
 20
8.3428543049
 30
0.0
 10
11.1261280887
 20
8.3427671786
 30
0.0
 10
11.1265018049
 20
8.3426199231
 30
0.0
 10
11.1271620167
 20
8.3423767101
 30
0.0
 10
11.1281019307
 20
8.3420216905
 30
0.0
 10
11.1292312167
 20
8.3415989082
 30
0.0
 10
11.1307364461
 20
8.3410340662
 30
0.0
 10
11.1326181494
 20
8.3403284023
 30
0.0
 10
11.134876122
 20
8.339481439
 30
0.0
 10
11.1371341136
 20
8.3386345203
 30
0.0
 10
11.1401447625
 20
8.3375052798
 30
0.0
 10
11.143908076
 20
8.336093735
 30
0.0
 10
11.147671388
 20
8.3346821861
 30
0.0
 10
11.1506820392
 20
8.333552952
 30
0.0
 10
11.1529400238
 20
8.3327060139
 30
0.0
 10
11.1551980228
 20
8.3318591235
 30
0.0
 10
11.1570796438
 20
8.3311532329
 30
0.0
 10
11.158585041
 20
8.3305888533
 30
0.0
 10
11.1597138148
 20
8.3301646592
 30
0.0
 10
11.1606553312
 20
8.3298140565
 30
0.0
 10
11.1613126823
 20
8.3295629585
 30
0.0
 10
11.1616909822
 20
8.3294283367
 30
0.0
 10
11.1619671837
 20
8.3293024038
 30
0.0
 10
11.1622721436
 20
8.3292719055
 30
0.0
 10
11.1626687255
 20
8.3291979525
 30
0.0
 10
11.1633674176
 20
8.3290840444
 30
0.0
 10
11.1643631058
 20
8.32891321
 30
0.0
 10
11.1655589774
 20
8.3287116794
 30
0.0
 10
11.1671531076
 20
8.3284417596
 30
0.0
 10
11.1691458957
 20
8.3281047759
 30
0.0
 10
11.1715371877
 20
8.3277002171
 30
0.0
 10
11.173928494
 20
8.3272957059
 30
0.0
 10
11.1771168975
 20
8.3267563411
 30
0.0
 10
11.1811024035
 20
8.3260821408
 30
0.0
 10
11.18588501
 20
8.325273098
 30
0.0
 10
11.1922618189
 20
8.3241943751
 30
0.0
 10
11.1970444256
 20
8.3233853328
 30
0.0
 10
11.20023283
 20
8.3228459712
 30
0.0
  0
ENDSEC
  0
SECTION
  2
OBJECTS
  0
DICTIONARY
  5
C
100
AcDbDictionary
280
0
281
1
  3
ACAD_GROUP
350
D
  3
ACAD_MLINESTYLE
350
17
  3
ACAD_LAYOUT
350
1A
  3
ACAD_PLOTSETTINGS
350
19
  3
ACAD_PLOTSTYLENAME
350
E
  3
ACAD_IMAGE_DICT
350
       3BF
  3
ACAD_IMAGE_VARS
350
       3C0
  3
ACAD_TABLESTYLE
350
       3C1
  0
IMAGEDEF_REACTOR
  5
3BE
100
AcDbRasterImageDefReactor
 90
2
330
285
  0
DICTIONARY
  5
D
102
{ACAD_REACTORS
330
C
102
}
100
AcDbDictionary
280
0
281
1
  0
ACDBDICTIONARYWDFLT
  5
E
102
{ACAD_REACTORS
330
C
102
}
100
AcDbDictionary
281
1
  3
Normal
350
F
100
AcDbDictionaryWithDefault
340
F
  0
DICTIONARY
  5
3BF
330
C
100
AcDbDictionary
281
1
  3
B5L_assy_2_img_1
350
       3C4
  0
RASTERVARIABLES
  5
3C0
330
C
100
AcDbRasterVariables
 90
0
 70
0
 71
1
 72
5
  0
DICTIONARY
  5
17
102
{ACAD_REACTORS
330
C
102
}
100
AcDbDictionary
280
0
281
1
  3
Standard
350
18
  0
DICTIONARY
  5
3C1
330
C
100
AcDbDictionary
281
1
  3
Standard
350
       3C5
  3
Standard1
350
       3C6
  0
DICTIONARY
  5
19
102
{ACAD_REACTORS
330
C
102
}
100
AcDbDictionary
281
1
  0
DICTIONARY
  5
1A
102
{ACAD_REACTORS
330
C
102
}
100
AcDbDictionary
281
1
  3
Model
350
3C2
  3
Layout1
350
3C3
  0
ACDBPLACEHOLDER
  5
F
102
{ACAD_REACTORS
330
E
102
}
  0
MLINESTYLE
  5
18
102
{ACAD_REACTORS
330
17
102
}
100
AcDbMlineStyle
  2
STANDARD
 70
0
  3

 62
256
 51
90.0
 52
90.0
 71
2
 49
0.5
 62
256
  6
BYLAYER
 49
-0.5
 62
256
  6
BYLAYER
  0
LAYOUT
  5
3C2
102
{ACAD_REACTORS
330
1A
102
}
100
AcDbPlotSettings
  1

  2
none_device
  4
ANSI_C_(22.00_x_17.00_Inches)
  6

 40
0.0
 41
0.0
 42
0.0
 43
0.0
 44
558.8
 45
431.8
 46
0.0
 47
0.0
 48
0.0
 49
0.0
140
0.0
141
0.0
142
1.0
143
1.0
 70
1024
 72
0
 73
0
 74
0
  7

 75
0
147
1.0
148
0.0
149
0.0
100
AcDbLayout
  1
Model
 70
0
 71
0
 10
0.0
 20
0.0
 11
22.0
 21
17.0
 12
0.0
 22
0.0
 32
0.0
 14
0.0
 24
0.0
 34
0.0
 15
0.0
 25
0.0
 35
0.0
146
0.0
 13
0.0
 23
0.0
 33
0.0
 16
1.0
 26
0.0
 36
0.0
 17
0.0
 27
1.0
 37
0.0
 76
0
330
20C
345
0
346
0
  0
LAYOUT
  5
3C3
102
{ACAD_REACTORS
330
1A
102
}
100
AcDbPlotSettings
  1

  2
none_device
  4
ANSI_C_(22.00_x_17.00_Inches)
  6

 40
0.0
 41
0.0
 42
0.0
 43
0.0
 44
558.8
 45
431.8
 46
0.0
 47
0.0
 48
0.0
 49
0.0
140
0.0
141
0.0
142
1.0
143
1.0
 70
0
 72
0
 73
0
 74
0
  7

 75
0
147
1.0
148
0.0
149
0.0
100
AcDbLayout
  1
Layout1
 70
0
 71
1
 10
0.0
 20
0.0
 11
22.0
 21
17.0
 12
0.0
 22
0.0
 32
0.0
 14
0.0
 24
0.0
 34
0.0
 15
0.0
 25
0.0
 35
0.0
146
0.0
 13
0.0
 23
0.0
 33
0.0
 16
1.0
 26
0.0
 36
0.0
 17
0.0
 27
1.0
 37
0.0
 76
0
330
20D
345
0
346
0
  0
IMAGEDEF
  5
3C4
102
{ACAD_REACTORS
330
3BF
330
3BE
102
}
100
AcDbRasterImageDef
 90
0
  1
B5L_assy_2_img_1.png
 10
369.0
 20
92.0
 11
0.0066666667
 21
0.0066666667
280
1
281
0
  0
TABLESTYLE
  5
3C5
102
{ACAD_REACTORS
330
3C1
330
288
330
289
102
}
330
3C1
100
AcDbTableStyle
  3
Standard
 70
0
 71
0
 40
0.06
 41
0.06
280
1
281
1
  7
Standard
140
0.18
170
1
 62
0
 63
7
283
0
  7
Standard
140
0.18
170
1
 62
0
 63
7
283
0
  7
Standard
140
0.18
170
1
 62
0
 63
7
283
0
  0
TABLESTYLE
  5
3C6
102
{ACAD_REACTORS
330
3C1
330
287
102
}
330
3C1
100
AcDbTableStyle
  3
Standard1
 70
1
 71
0
 40
0.06
 41
0.06
280
1
281
1
  7
Standard
140
0.18
170
1
 62
0
 63
7
283
0
  7
Standard
140
0.18
170
1
 62
0
 63
7
283
0
  7
Standard
140
0.18
170
1
 62
0
 63
7
283
0
  0
ENDSEC
  0
EOF
