999
DXF file: B4W_assy_2.dxf
999
Pro/ENGINEER 2014200 by Parametric Technology Corporation
  0
SECTION
  2
HEADER
  9
$ACADVER
  1
AC1021
  9
$DWGCODEPAGE
  3
ANSI_1252
  9
$EXTMAX
 10
22.0
 20
17.0
 30
0.0
  9
$EXTMIN
 10
0.0
 20
0.0
 30
0.0
  9
$LIMMIN
 10
0.0
 20
0.0
  9
$LIMMAX
 10
22.0
 20
17.0
  9
$VIEWCTR
 10
11.0
 20
8.5
  9
$VIEWSIZE
 40
17.0
  9
$CLAYER
  8
0
  9
$LTSCALE
 40
1.21
  9
$CELTYPE
  6
BYLAYER
  9
$DIMSCALE
 40
1.0
  9
$DIMASZ
 40
0.1875
  9
$DIMEXO
 40
0.0625
  9
$DIMDLI
 40
0.836
  9
$DIMEXE
 40
0.125
  9
$DIMCEN
 40
0.198
  9
$DIMLFAC
 40
1.0
  9
$DIMBLK
  1
_FILLED
  9
$DIMTXT
 40
0.1
  9
$DIMTOL
 70
0
  9
$DIMLIM
 70
0
  9
$DIMTFAC
 40
1.0
  9
$DIMGAP
 40
0.09
  9
$DIMDSEP
 70
46
  9
$AUNITS
 70
0
  9
$PDMODE
 70
3
  9
$PDSIZE
 40
0.3125
  9
$HANDSEED
  5
38A
  9
$TILEMODE
 70
1
  9
$MEASUREMENT
 70
0
  9
$INSUNITS
 70
1
  0
ENDSEC
  0
SECTION
  2
CLASSES
  0
CLASS
  1
ACDBDICTIONARYWDFLT
  2
AcDbDictionaryWithDefault
  3
AutoCAD 2000
 90
0
 91
1
280
0
281
0
  0
CLASS
  1
ACDBPLACEHOLDER
  2
AcDbPlaceHolder
  3
AutoCAD 2000
 90
0
 91
1
280
0
281
0
  0
CLASS
  1
LAYOUT
  2
AcDbLayout
  3
AutoCAD 2000
 90
0
 91
0
280
0
281
0
  0
CLASS
  1
RASTERVARIABLES
  2
AcDbRasterVariables
  3
ISM
 90
0
 91
1
280
0
281
0
  0
CLASS
  1
IMAGEDEF
  2
AcDbRasterImageDef
  3
ISM
 90
0
 91
1
280
0
281
0
  0
CLASS
  1
IMAGEDEF_REACTOR
  2
AcDbRasterImageDefReactor
  3
ISM
 90
0
 91
1
280
0
281
0
  0
CLASS
  1
IMAGE
  2
AcDbRasterImage
  3
ISM
 90
127
 91
1
280
0
281
1
  0
CLASS
  1
TABLESTYLE
  2
AcDbTableStyle
  3
ObjectDBX Classes
 90
2047
 91
1
280
0
281
0
  0
CLASS
  1
ACAD_TABLE
  2
AcDbTable
  3
ObjectDBX Classes
 90
1025
 91
3
280
0
281
1
  0
ENDSEC
  0
SECTION
  2
TABLES
  0
TABLE
  2
VPORT
  5
8
100
AcDbSymbolTable
 70
2
  0
VPORT
  5
1F4
100
AcDbSymbolTableRecord
100
AcDbViewportTableRecord
  2
*ACTIVE
 70
0
 10
0.0
 20
0.0
 11
1.0
 21
1.0
 12
11.0
 22
8.5
 13
0.0
 23
0.0
 14
1.0
 24
1.0
 15
0.0
 25
0.0
 16
0.0
 26
0.0
 36
1.0
 17
0.0
 27
0.0
 37
0.0
 40
17.0
 41
1.2941176471
 42
50.0
 43
0.0
 44
0.0
 50
0.0
 51
0.0
 71
0
 72
100
 73
1
 74
1
 75
0
 76
0
 77
0
 78
0
  0
ENDTAB
  0
TABLE
  2
LTYPE
  5
5
100
AcDbSymbolTable
 70
6
  0
LTYPE
  5
14
100
AcDbSymbolTableRecord
100
AcDbLinetypeTableRecord
  2
BYBLOCK
 70
0
  3

 72
65
 73
0
 40
0.0
  0
LTYPE
  5
15
100
AcDbSymbolTableRecord
100
AcDbLinetypeTableRecord
  2
BYLAYER
 70
0
  3

 72
65
 73
0
 40
0.0
  0
LTYPE
  5
16
100
AcDbSymbolTableRecord
100
AcDbLinetypeTableRecord
  2
CONTINUOUS
 70
64
  3
Solid line
 72
65
 73
0
 40
0.0
  0
LTYPE
  5
1F5
100
AcDbSymbolTableRecord
100
AcDbLinetypeTableRecord
  2
CENTER
 70
64
  3
____ _ ____ _ ____ _ ____ _ ____ _ ____ _ ____
 72
65
 73
4
 40
0.6
 49
0.375
 74
0
 49
-0.075
 74
0
 49
0.075
 74
0
 49
-0.075
 74
0
  0
LTYPE
  5
1F6
100
AcDbSymbolTableRecord
100
AcDbLinetypeTableRecord
  2
HIDDEN
 70
64
  3
- - - - - - - - - - - - - - - - - - - -
 72
65
 73
2
 40
0.2
 49
0.1
 74
0
 49
-0.1
 74
0
  0
LTYPE
  5
1F7
100
AcDbSymbolTableRecord
100
AcDbLinetypeTableRecord
  2
PHANTOM
 70
64
  3
_____ _ _ _____ _ _ _____ _ _ _____
 72
65
 73
6
 40
0.8
 49
0.45
 74
0
 49
-0.05
 74
0
 49
0.1
 74
0
 49
-0.05
 74
0
 49
0.1
 74
0
 49
-0.05
 74
0
  0
LTYPE
  5
1F8
100
AcDbSymbolTableRecord
100
AcDbLinetypeTableRecord
  2
DOT
 70
64
  3
. . . . . . . . . . . . . . . . . . . .
 72
65
 73
2
 40
0.2
 49
0.1
 74
0
 49
-0.1
 74
0
  0
LTYPE
  5
1F9
100
AcDbSymbolTableRecord
100
AcDbLinetypeTableRecord
  2
DASHED
 70
64
  3
- - - - - - - - - - - - - - - - - - - -
 72
65
 73
2
 40
0.2
 49
0.1
 74
0
 49
-0.1
 74
0
  0
ENDTAB
  0
TABLE
  2
LAYER
  5
2
100
AcDbSymbolTable
 70
36
  0
LAYER
  5
10
100
AcDbSymbolTableRecord
100
AcDbLayerTableRecord
  2
0
 70
0
 62
7
  6
CONTINUOUS
370
-3
390
F
  0
LAYER
  5
1FA
100
AcDbSymbolTableRecord
100
AcDbLayerTableRecord
  2
DEFAULT_1
 70
0
 62
7
  6
CENTER
370
-3
390
F
  0
LAYER
  5
1FB
100
AcDbSymbolTableRecord
100
AcDbLayerTableRecord
  2
DEFAULT_2
 70
0
 62
8
  6
HIDDEN
370
-3
390
F
  0
LAYER
  5
1FC
100
AcDbSymbolTableRecord
100
AcDbLayerTableRecord
  2
DEFAULT_3
 70
0
 62
7
  6
PHANTOM
370
-3
390
F
  0
LAYER
  5
1FD
100
AcDbSymbolTableRecord
100
AcDbLayerTableRecord
  2
01___PRT_ALL_DTM_PLN
 70
0
 62
7
  6
CONTINUOUS
370
-3
390
F
  0
LAYER
  5
1FE
100
AcDbSymbolTableRecord
100
AcDbLayerTableRecord
  2
01___PRT_DEF_DTM_PLN
 70
0
 62
7
  6
CONTINUOUS
370
-3
390
F
  0
LAYER
  5
1FF
100
AcDbSymbolTableRecord
100
AcDbLayerTableRecord
  2
02___PRT_ALL_AXES
 70
0
 62
7
  6
CONTINUOUS
370
-3
390
F
  0
LAYER
  5
200
100
AcDbSymbolTableRecord
100
AcDbLayerTableRecord
  2
03___PRT_ALL_CURVES
 70
0
 62
7
  6
CONTINUOUS
370
-3
390
F
  0
LAYER
  5
201
100
AcDbSymbolTableRecord
100
AcDbLayerTableRecord
  2
04___PRT_ALL_DTM_PNT
 70
0
 62
7
  6
CONTINUOUS
370
-3
390
F
  0
LAYER
  5
202
100
AcDbSymbolTableRecord
100
AcDbLayerTableRecord
  2
05___PRT_ALL_DTM_CSYS
 70
0
 62
7
  6
CONTINUOUS
370
-3
390
F
  0
LAYER
  5
203
100
AcDbSymbolTableRecord
100
AcDbLayerTableRecord
  2
05___PRT_DEF_DTM_CSYS
 70
0
 62
7
  6
CONTINUOUS
370
-3
390
F
  0
LAYER
  5
204
100
AcDbSymbolTableRecord
100
AcDbLayerTableRecord
  2
06___PRT_ALL_SURFS
 70
0
 62
7
  6
CONTINUOUS
370
-3
390
F
  0
LAYER
  5
205
100
AcDbSymbolTableRecord
100
AcDbLayerTableRecord
  2
DATUM_PLANES
 70
0
 62
7
  6
CONTINUOUS
370
-3
390
F
  0
LAYER
  5
206
100
AcDbSymbolTableRecord
100
AcDbLayerTableRecord
  2
PORT_AREAS
 70
0
 62
7
  6
CONTINUOUS
370
-3
390
F
  0
LAYER
  5
207
100
AcDbSymbolTableRecord
100
AcDbLayerTableRecord
  2
SUNNBOMCOSMETIC
 70
0
 62
7
  6
CONTINUOUS
370
-3
390
F
  0
LAYER
  5
208
100
AcDbSymbolTableRecord
100
AcDbLayerTableRecord
  2
SUNNBOMSTAMPING
 70
0
 62
7
  6
CONTINUOUS
370
-3
390
F
  0
LAYER
  5
209
100
AcDbSymbolTableRecord
100
AcDbLayerTableRecord
  2
THREADS
 70
0
 62
7
  6
CONTINUOUS
370
-3
390
F
  0
ENDTAB
  0
TABLE
  2
STYLE
  5
3
100
AcDbSymbolTable
 70
1
  0
STYLE
  5
11
100
AcDbSymbolTableRecord
100
AcDbTextStyleTableRecord
  2
STANDARD
 70
0
 40
0.0
 41
0.8
 50
0.0
 71
0
 42
0.2
  3
txt
  4

  0
STYLE
  5
20A
100
AcDbSymbolTableRecord
100
AcDbTextStyleTableRecord
  2
TEXTSTYLE_1
 70
0
 40
0.0
 41
0.8
 50
0.0
 71
0
 42
0.2
  3
gdt
  4

  0
ENDTAB
  0
TABLE
  2
VIEW
  5
6
100
AcDbSymbolTable
 70
0
  0
ENDTAB
  0
TABLE
  2
UCS
  5
7
100
AcDbSymbolTable
 70
0
  0
ENDTAB
  0
TABLE
  2
APPID
  5
9
100
AcDbSymbolTable
 70
1
  0
APPID
  5
20B
100
AcDbSymbolTableRecord
100
AcDbRegAppTableRecord
  2
ACAD
 70
0
  0
ENDTAB
  0
TABLE
  2
BLOCK_RECORD
  5
1
100
AcDbSymbolTable
 70
0
  0
BLOCK_RECORD
  5
20C
100
AcDbSymbolTableRecord
100
AcDbBlockTableRecord
  2
*Model_Space
  0
BLOCK_RECORD
  5
20D
100
AcDbSymbolTableRecord
100
AcDbBlockTableRecord
  2
*Paper_Space
  0
BLOCK_RECORD
  5
20E
100
AcDbSymbolTableRecord
100
AcDbBlockTableRecord
  2
SUN_FIRST_THIRD_ANGLE_BL0
  0
BLOCK_RECORD
  5
20F
100
AcDbSymbolTableRecord
100
AcDbBlockTableRecord
  2
*T1
  0
BLOCK_RECORD
  5
210
100
AcDbSymbolTableRecord
100
AcDbBlockTableRecord
  2
*T2
  0
BLOCK_RECORD
  5
211
100
AcDbSymbolTableRecord
100
AcDbBlockTableRecord
  2
*T3
  0
ENDTAB
  0
TABLE
  2
DIMSTYLE
  5
A
100
AcDbSymbolTable
 70
1
100
AcDbDimStyleTable
 71
0
  0
DIMSTYLE
105
212
100
AcDbSymbolTableRecord
100
AcDbDimStyleTableRecord
  2
STANDARD
 70
0
  3

  4

 40
1.0
 41
0.1875
 42
0.0625
 43
0.38
 44
0.125
 45
0.0
 46
0.0
 47
0.001
 48
0.001
140
0.1
141
0.09
142
0.0
143
25.4
144
1.0
145
0.0
146
1.0
147
0.09
 71
0.0
 72
0.0
 73
1
 74
1
 75
0
 76
0
 77
0
 78
4
170
0
171
2
172
0
173
0
174
0
175
0
176
0
177
0
178
0
270
2
271
3
272
3
273
2
274
2
275
0
280
0
281
0
282
0
283
1
284
4
285
0
286
0
287
3
288
0
340
11
278
46
  0
ENDTAB
  0
ENDSEC
  0
SECTION
  2
BLOCKS
  0
BLOCK
  5
20
100
AcDbEntity
  8
0
100
AcDbBlockBegin
  2
*Model_Space
 70
0
 10
0.0
 20
0.0
 30
0.0
  3
*Model_Space
  1

  0
ENDBLK
  5
21
100
AcDbEntity
  8
0
100
AcDbBlockEnd
  0
BLOCK
  5
1C
100
AcDbEntity
  8
0
100
AcDbBlockBegin
  2
*Paper_Space
 70
0
 10
0.0
 20
0.0
 30
0.0
  3
*Paper_Space
  1

  0
ENDBLK
  5
1D
100
AcDbEntity
  8
0
100
AcDbBlockEnd
  0
BLOCK
  5
213
100
AcDbEntity
  8
0
100
AcDbBlockBegin
 62
2
  6
CONTINUOUS
  2
SUN_FIRST_THIRD_ANGLE_BL0
 70
64
 10
20.4816717061
 20
1.2289683772
  3
SUN_FIRST_THIRD_ANGLE_BL0
  1

  0
TEXT
  5
214
100
AcDbEntity
  8
0
100
AcDbText
 62
2
  6
CONTINUOUS
 10
19.4750896608
 20
1.4136269581
  7
STANDARD
 40
0.08
  1
FIRST ANGLE
 41
0.8
 72
0
100
AcDbText
  0
TEXT
  5
215
100
AcDbEntity
  8
0
100
AcDbText
 62
2
  6
CONTINUOUS
 10
20.7842537513
 20
1.4047600029
  7
STANDARD
 40
0.08
  1
THIRD ANGLE
 41
0.8
 72
0
100
AcDbText
  0
LINE
  5
216
100
AcDbEntity
  8
0
100
AcDbLine
 62
7
  6
CONTINUOUS
 10
19.4767170086
 20
1.1727031207
 11
19.6334271527
 21
1.1717972817
  0
LINE
  5
217
100
AcDbEntity
  8
0
100
AcDbLine
 62
7
  6
CONTINUOUS
 10
19.6596964832
 20
1.1717972817
 11
19.6950230232
 21
1.171593082
  0
LINE
  5
218
100
AcDbEntity
  8
0
100
AcDbLine
 62
7
  6
CONTINUOUS
 10
19.7194818561
 20
1.1708914427
 11
19.8852396156
 21
1.1699333054
  0
LINE
  5
219
100
AcDbEntity
  8
0
100
AcDbLine
 62
7
  6
CONTINUOUS
 10
19.4758111696
 20
1.2723454088
 11
19.88525039
 21
1.3511534004
  0
LINE
  5
21A
100
AcDbEntity
  8
0
100
AcDbLine
 62
7
  6
CONTINUOUS
 10
19.88525039
 20
1.3511534004
 11
19.8831348489
 21
0.9851647912
  0
LINE
  5
21B
100
AcDbEntity
  8
0
100
AcDbLine
 62
7
  6
CONTINUOUS
 10
19.8831348489
 20
0.9851647912
 11
19.4767170086
 21
1.0658141206
  0
LINE
  5
21C
100
AcDbEntity
  8
0
100
AcDbLine
 62
7
  6
CONTINUOUS
 10
19.4767170086
 20
1.0658141206
 11
19.4779056764
 21
1.2714536432
  0
CIRCLE
  5
21D
100
AcDbEntity
  8
0
100
AcDbCircle
 62
7
  6
CONTINUOUS
 10
20.2068232291
 20
1.1717972817
 40
0.175742101
  0
CIRCLE
  5
21E
100
AcDbEntity
  8
0
100
AcDbCircle
 62
7
  6
CONTINUOUS
 10
20.2068232291
 20
1.1717972817
 40
0.1005522074
  0
LINE
  5
21F
100
AcDbEntity
  8
0
100
AcDbLine
 62
7
  6
CONTINUOUS
 10
20.2077290681
 20
1.3756110529
 11
20.2071171714
 21
1.2379342989
  0
LINE
  5
220
100
AcDbEntity
  8
0
100
AcDbLine
 62
7
  6
CONTINUOUS
 10
20.2077290681
 20
1.2016899681
 11
20.2074674401
 21
1.1428236749
  0
LINE
  5
221
100
AcDbEntity
  8
0
100
AcDbLine
 62
7
  6
CONTINUOUS
 10
20.208634907
 20
1.101141841
 11
20.2080230104
 21
0.963465087
  0
LINE
  5
222
100
AcDbEntity
  8
0
100
AcDbLine
 62
7
  6
CONTINUOUS
 10
20.0066328138
 20
1.1745147986
 11
20.1443095678
 21
1.1739029019
  0
LINE
  5
223
100
AcDbEntity
  8
0
100
AcDbLine
 62
7
  6
CONTINUOUS
 10
20.1832714155
 20
1.1727031207
 11
20.238153505
 21
1.172335442
  0
LINE
  5
224
100
AcDbEntity
  8
0
100
AcDbLine
 62
7
  6
CONTINUOUS
 10
20.2756669918
 20
1.1717972817
 11
20.407916871
 21
1.1712095044
  0
CIRCLE
  5
225
100
AcDbEntity
  8
0
100
AcDbCircle
 62
7
  6
CONTINUOUS
 10
20.7509457401
 20
1.1693297793
 40
0.1722024983
  0
CIRCLE
  5
226
100
AcDbEntity
  8
0
100
AcDbCircle
 62
7
  6
CONTINUOUS
 10
20.7509457401
 20
1.1693297793
 40
0.0985164967
  0
LINE
  5
227
100
AcDbEntity
  8
0
100
AcDbLine
 62
7
  6
CONTINUOUS
 10
20.7169767782
 20
1.170462078
 11
20.7825395137
 21
1.1682766535
  0
LINE
  5
228
100
AcDbEntity
  8
0
100
AcDbLine
 62
7
  6
CONTINUOUS
 10
20.8177513651
 20
1.1693297793
 11
20.947965719
 21
1.1693297793
  0
LINE
  5
229
100
AcDbEntity
  8
0
100
AcDbLine
 62
7
  6
CONTINUOUS
 10
20.6875370113
 20
1.170462078
 11
20.5573226574
 21
1.170462078
  0
LINE
  5
22A
100
AcDbEntity
  8
0
100
AcDbLine
 62
7
  6
CONTINUOUS
 10
20.7486811426
 20
1.1987695462
 11
20.7486811426
 21
1.1432869085
  0
LINE
  5
22B
100
AcDbEntity
  8
0
100
AcDbLine
 62
7
  6
CONTINUOUS
 10
20.7498134414
 20
1.1059210505
 11
20.7498134414
 21
0.9757066966
  0
LINE
  5
22C
100
AcDbEntity
  8
0
100
AcDbLine
 62
7
  6
CONTINUOUS
 10
20.7486811426
 20
1.2338708068
 11
20.7486811426
 21
1.3640851607
  0
LINE
  5
22D
100
AcDbEntity
  8
0
100
AcDbLine
 62
7
  6
CONTINUOUS
 10
21.0702539817
 20
1.2701043662
 11
21.4790138229
 21
1.3448360823
  0
LINE
  5
22E
100
AcDbEntity
  8
0
100
AcDbLine
 62
7
  6
CONTINUOUS
 10
21.4790138229
 20
1.3448360823
 11
21.4790138229
 21
0.9779712941
  0
LINE
  5
22F
100
AcDbEntity
  8
0
100
AcDbLine
 62
7
  6
CONTINUOUS
 10
21.4790138229
 20
0.9779712941
 11
21.069121683
 21
1.0617614
  0
LINE
  5
230
100
AcDbEntity
  8
0
100
AcDbLine
 62
7
  6
CONTINUOUS
 10
21.0702539817
 20
1.2701043662
 11
21.069121683
 21
1.0617614
  0
LINE
  5
231
100
AcDbEntity
  8
0
100
AcDbLine
 62
7
  6
CONTINUOUS
 10
21.4790138229
 20
1.1693297793
 11
21.3159628059
 21
1.1693297793
  0
LINE
  5
232
100
AcDbEntity
  8
0
100
AcDbLine
 62
7
  6
CONTINUOUS
 10
21.2876553377
 20
1.1693297793
 11
21.2502894796
 21
1.1693297793
  0
LINE
  5
233
100
AcDbEntity
  8
0
100
AcDbLine
 62
7
  6
CONTINUOUS
 10
21.2208497126
 20
1.1659328831
 11
21.0713862804
 21
1.1659328831
  0
LINE
  5
234
100
AcDbEntity
  8
0
100
AcDbLine
 62
7
  6
CONTINUOUS
 10
20.4796138713
 20
1.5284908897
 11
20.4766766948
 21
0.9294458646
  0
ENDBLK
  5
235
100
AcDbEntity
  8
0
  6
BYBLOCK
 62
0
100
AcDbBlockEnd
  0
BLOCK
  5
236
100
AcDbEntity
  8
0
100
AcDbBlockBegin
  2
*T1
 70
1
 10
0.0
 20
0.0
  3
*T1
  1

  0
LINE
  5
237
100
AcDbEntity
  8
0
100
AcDbLine
 62
2
  6
CONTINUOUS
 10
9.275
 20
0.0
 11
-0.0
 21
0.0
  0
LINE
  5
238
100
AcDbEntity
  8
0
100
AcDbLine
 62
2
  6
CONTINUOUS
 10
9.275
 20
0.0
 11
9.275
 21
1.25
  0
LINE
  5
239
100
AcDbEntity
  8
0
100
AcDbLine
 62
2
  6
CONTINUOUS
 10
9.275
 20
0.625
 11
-0.0
 21
0.625
  0
LINE
  5
23A
100
AcDbEntity
  8
0
100
AcDbLine
 62
2
  6
CONTINUOUS
 10
9.275
 20
1.25
 11
-0.0
 21
1.25
  0
LINE
  5
23B
100
AcDbEntity
  8
0
100
AcDbLine
 62
2
  6
CONTINUOUS
 10
6.8
 20
0.0
 11
6.8
 21
1.25
  0
LINE
  5
23C
100
AcDbEntity
  8
0
100
AcDbLine
 62
2
  6
CONTINUOUS
 10
6.4
 20
0.0
 11
6.4
 21
0.625
  0
LINE
  5
23D
100
AcDbEntity
  8
0
100
AcDbLine
 62
2
  6
CONTINUOUS
 10
5.9
 20
0.0
 11
5.9
 21
0.625
  0
LINE
  5
23E
100
AcDbEntity
  8
0
100
AcDbLine
 62
2
  6
CONTINUOUS
 10
5.2
 20
0.0
 11
5.2
 21
0.625
  0
LINE
  5
23F
100
AcDbEntity
  8
0
100
AcDbLine
 62
2
  6
CONTINUOUS
 10
4.1
 20
0.0
 11
4.1
 21
1.25
  0
LINE
  5
240
100
AcDbEntity
  8
0
100
AcDbLine
 62
2
  6
CONTINUOUS
 10
-0.0
 20
0.0
 11
-0.0
 21
1.25
  0
MTEXT
  5
241
100
AcDbEntity
  8
0
100
AcDbMText
 62
2
  6
CONTINUOUS
  7
STANDARD
 71
2
 72
1
 10
6.6
 20
0.325
 30
0.0
 11
1.0
 21
0.0
 31
0.0
 44
0.9
  1
2
 40
0.125
 41
0.2
  0
MTEXT
  5
242
100
AcDbEntity
  8
0
100
AcDbMText
 62
2
  6
CONTINUOUS
  7
STANDARD
 71
2
 72
1
 10
6.15
 20
0.325
 30
0.0
 11
1.0
 21
0.0
 31
0.0
 44
0.9
  1
C
 40
0.125
 41
0.2
  0
MTEXT
  5
243
100
AcDbEntity
  8
0
100
AcDbMText
 62
2
  6
CONTINUOUS
  7
STANDARD
 71
2
 72
1
 10
5.55
 20
0.325
 30
0.0
 11
1.0
 21
0.0
 31
0.0
 44
0.9
  1
1.000
 40
0.125
 41
1.0
  0
MTEXT
  5
244
100
AcDbEntity
  8
0
100
AcDbMText
 62
2
  6
CONTINUOUS
  7
STANDARD
 71
2
 72
1
 10
4.65
 20
0.325
 30
0.0
 11
1.0
 21
0.0
 31
0.0
 44
0.9
  1
Sep-12-23
 40
0.125
 41
1.8
  0
MTEXT
  5
245
100
AcDbEntity
  8
0
100
AcDbMText
 62
2
  6
CONTINUOUS
  7
STANDARD
 71
2
 72
1
 10
2.05
 20
0.4625
 30
0.0
 11
1.0
 21
0.0
 31
0.0
 44
0.9
  1
T-2A Line mount\P(See Technical Data for Body Features)
 40
0.125
 41
7.6
  0
MTEXT
  5
246
100
AcDbEntity
  8
0
100
AcDbMText
 62
2
  6
CONTINUOUS
  7
STANDARD
 71
1
 72
1
 10
6.45
 20
0.5625
 30
0.0
 11
1.0
 21
0.0
 31
0.0
 44
0.9
  1
SHEET
 40
0.06
 41
0.48
  0
MTEXT
  5
247
100
AcDbEntity
  8
0
100
AcDbMText
 62
2
  6
CONTINUOUS
  7
STANDARD
 71
1
 72
1
 10
5.95
 20
0.5625
 30
0.0
 11
1.0
 21
0.0
 31
0.0
 44
0.9
  1
DWG SIZE
 40
0.06
 41
0.768
  0
MTEXT
  5
248
100
AcDbEntity
  8
0
100
AcDbMText
 62
2
  6
CONTINUOUS
  7
STANDARD
 71
1
 72
1
 10
5.25
 20
0.5625
 30
0.0
 11
1.0
 21
0.0
 31
0.0
 44
0.9
  1
SCALE
 40
0.06
 41
0.48
  0
MTEXT
  5
249
100
AcDbEntity
  8
0
100
AcDbMText
 62
2
  6
CONTINUOUS
  7
STANDARD
 71
1
 72
1
 10
4.15
 20
0.5625
 30
0.0
 11
1.0
 21
0.0
 31
0.0
 44
0.9
  1
DATE
 40
0.06
 41
0.384
  0
MTEXT
  5
24A
100
AcDbEntity
  8
0
100
AcDbMText
 62
2
  6
CONTINUOUS
  7
STANDARD
 71
1
 72
1
 10
0.05
 20
0.5625
 30
0.0
 11
1.0
 21
0.0
 31
0.0
 44
0.9
  1
DESCRIPTION
 40
0.06
 41
1.056
  0
MTEXT
  5
24B
100
AcDbEntity
  8
0
100
AcDbMText
 62
2
  6
CONTINUOUS
  7
STANDARD
 71
2
 72
1
 10
5.45
 20
1.0375
 30
0.0
 11
1.0
 21
0.0
 31
0.0
 44
0.9
  1
ALL DIMENSIONS IN INCH\PVIEWS ARE THIRD ANGLE
 40
0.12
 41
4.224
  0
MTEXT
  5
24C
100
AcDbEntity
  8
0
100
AcDbMText
 62
2
  6
CONTINUOUS
  7
STANDARD
 71
2
 72
1
 10
2.05
 20
0.95
 30
0.0
 11
1.0
 21
0.0
 31
0.0
 44
0.9
  1
B4W
 40
0.125
 41
0.6
  0
MTEXT
  5
24D
100
AcDbEntity
  8
0
100
AcDbMText
 62
2
  6
CONTINUOUS
  7
STANDARD
 71
1
 72
1
 10
0.05
 20
1.1875
 30
0.0
 11
1.0
 21
0.0
 31
0.0
 44
0.9
  1
MODEL
 40
0.06
 41
0.48
  0
ENDBLK
  5
24E
100
AcDbEntity
  8
0
  6
BYBLOCK
 62
0
100
AcDbBlockEnd
  0
BLOCK
  5
24F
100
AcDbEntity
  8
0
100
AcDbBlockBegin
  2
*T2
 70
1
 10
0.0
 20
0.0
  3
*T2
  1

  0
LINE
  5
250
100
AcDbEntity
  8
0
100
AcDbLine
 62
2
  6
CONTINUOUS
 10
0.0
 20
0.0
 11
9.055
 21
0.0
  0
LINE
  5
251
100
AcDbEntity
  8
0
100
AcDbLine
 62
2
  6
CONTINUOUS
 10
0.0
 20
0.0
 11
0.0
 21
-2.844
  0
LINE
  5
252
100
AcDbEntity
  8
0
100
AcDbLine
 62
2
  6
CONTINUOUS
 10
0.0
 20
-0.344
 11
9.055
 21
-0.344
  0
LINE
  5
253
100
AcDbEntity
  8
0
100
AcDbLine
 62
2
  6
CONTINUOUS
 10
0.0
 20
-0.594
 11
9.055
 21
-0.594
  0
LINE
  5
254
100
AcDbEntity
  8
0
100
AcDbLine
 62
2
  6
CONTINUOUS
 10
0.0
 20
-0.844
 11
9.055
 21
-0.844
  0
LINE
  5
255
100
AcDbEntity
  8
0
100
AcDbLine
 62
2
  6
CONTINUOUS
 10
0.0
 20
-1.094
 11
9.055
 21
-1.094
  0
LINE
  5
256
100
AcDbEntity
  8
0
100
AcDbLine
 62
2
  6
CONTINUOUS
 10
0.0
 20
-1.344
 11
9.055
 21
-1.344
  0
LINE
  5
257
100
AcDbEntity
  8
0
100
AcDbLine
 62
2
  6
CONTINUOUS
 10
0.0
 20
-1.594
 11
9.055
 21
-1.594
  0
LINE
  5
258
100
AcDbEntity
  8
0
100
AcDbLine
 62
2
  6
CONTINUOUS
 10
0.0
 20
-1.844
 11
9.055
 21
-1.844
  0
LINE
  5
259
100
AcDbEntity
  8
0
100
AcDbLine
 62
2
  6
CONTINUOUS
 10
0.0
 20
-2.094
 11
9.055
 21
-2.094
  0
LINE
  5
25A
100
AcDbEntity
  8
0
100
AcDbLine
 62
2
  6
CONTINUOUS
 10
0.0
 20
-2.344
 11
9.055
 21
-2.344
  0
LINE
  5
25B
100
AcDbEntity
  8
0
100
AcDbLine
 62
2
  6
CONTINUOUS
 10
0.0
 20
-2.594
 11
9.055
 21
-2.594
  0
LINE
  5
25C
100
AcDbEntity
  8
0
100
AcDbLine
 62
2
  6
CONTINUOUS
 10
0.0
 20
-2.844
 11
9.055
 21
-2.844
  0
LINE
  5
25D
100
AcDbEntity
  8
0
100
AcDbLine
 62
2
  6
CONTINUOUS
 10
3.055
 20
0.0
 11
3.055
 21
-2.844
  0
LINE
  5
25E
100
AcDbEntity
  8
0
100
AcDbLine
 62
2
  6
CONTINUOUS
 10
9.055
 20
0.0
 11
9.055
 21
-2.844
  0
MTEXT
  5
25F
100
AcDbEntity
  8
0
100
AcDbMText
 62
2
  6
CONTINUOUS
  7
STANDARD
 71
2
 72
1
 10
1.5275
 20
-0.0995
 30
0.0
 11
1.0
 21
0.0
 31
0.0
 44
0.9
  1
Technical Data
 40
0.145
 41
3.248
  0
MTEXT
  5
260
100
AcDbEntity
  8
0
100
AcDbMText
 62
2
  6
CONTINUOUS
  7
STANDARD
 71
2
 72
1
 10
4.555
 20
-0.0995
 30
0.0
 11
1.0
 21
0.0
 31
0.0
 44
0.9
  1
U.S. Units
 40
0.145
 41
2.32
  0
MTEXT
  5
261
100
AcDbEntity
  8
0
100
AcDbMText
 62
2
  6
CONTINUOUS
  7
STANDARD
 71
2
 72
1
 10
7.555
 20
-0.0995
 30
0.0
 11
1.0
 21
0.0
 31
0.0
 44
0.9
  1
Metric Units
 40
0.145
 41
2.784
  0
MTEXT
  5
262
100
AcDbEntity
  8
0
100
AcDbMText
 62
2
  6
CONTINUOUS
  7
STANDARD
 71
2
 72
1
 10
1.5275
 20
-0.4065
 30
0.0
 11
1.0
 21
0.0
 31
0.0
 44
0.9
  1
Cavity
 40
0.125
 41
1.2
  0
MTEXT
  5
263
100
AcDbEntity
  8
0
100
AcDbMText
 62
2
  6
CONTINUOUS
  7
STANDARD
 71
2
 72
1
 10
6.055
 20
-0.4065
 30
0.0
 11
1.0
 21
0.0
 31
0.0
 44
0.9
  1
T-2A
 40
0.125
 41
0.8
  0
MTEXT
  5
264
100
AcDbEntity
  8
0
100
AcDbMText
 62
2
  6
CONTINUOUS
  7
STANDARD
 71
2
 72
1
 10
1.5275
 20
-0.6565
 30
0.0
 11
1.0
 21
0.0
 31
0.0
 44
0.9
  1
Body Features
 40
0.125
 41
2.6
  0
MTEXT
  5
265
100
AcDbEntity
  8
0
100
AcDbMText
 62
2
  6
CONTINUOUS
  7
STANDARD
 71
2
 72
1
 10
6.055
 20
-0.6565
 30
0.0
 11
1.0
 21
0.0
 31
0.0
 44
0.9
  1
Ninety degree with reverse flow check - reducing
 40
0.125
 41
9.6
  0
MTEXT
  5
266
100
AcDbEntity
  8
0
100
AcDbMText
 62
2
  6
CONTINUOUS
  7
STANDARD
 71
2
 72
1
 10
1.5275
 20
-0.9065
 30
0.0
 11
1.0
 21
0.0
 31
0.0
 44
0.9
  1
Body Type
 40
0.125
 41
1.8
  0
MTEXT
  5
267
100
AcDbEntity
  8
0
100
AcDbMText
 62
2
  6
CONTINUOUS
  7
STANDARD
 71
2
 72
1
 10
6.055
 20
-0.9065
 30
0.0
 11
1.0
 21
0.0
 31
0.0
 44
0.9
  1
Line mount
 40
0.125
 41
2.0
  0
MTEXT
  5
268
100
AcDbEntity
  8
0
100
AcDbMText
 62
2
  6
CONTINUOUS
  7
STANDARD
 71
2
 72
1
 10
1.5275
 20
-1.1565
 30
0.0
 11
1.0
 21
0.0
 31
0.0
 44
0.9
  1
Interface
 40
0.125
 41
1.8
  0
MTEXT
  5
269
100
AcDbEntity
  8
0
100
AcDbMText
 62
2
  6
CONTINUOUS
  7
STANDARD
 71
2
 72
1
 10
6.055
 20
-1.1565
 30
0.0
 11
1.0
 21
0.0
 31
0.0
 44
0.9
  1
None
 40
0.125
 41
0.8
  0
MTEXT
  5
26A
100
AcDbEntity
  8
0
100
AcDbMText
 62
2
  6
CONTINUOUS
  7
STANDARD
 71
2
 72
1
 10
1.5275
 20
-1.4065
 30
0.0
 11
1.0
 21
0.0
 31
0.0
 44
0.9
  1
Open Cavity Quantity
 40
0.125
 41
4.0
  0
MTEXT
  5
26B
100
AcDbEntity
  8
0
100
AcDbMText
 62
2
  6
CONTINUOUS
  7
STANDARD
 71
2
 72
1
 10
6.055
 20
-1.4065
 30
0.0
 11
1.0
 21
0.0
 31
0.0
 44
0.9
  1
1
 40
0.125
 41
0.2
  0
MTEXT
  5
26C
100
AcDbEntity
  8
0
100
AcDbMText
 62
2
  6
CONTINUOUS
  7
STANDARD
 71
2
 72
1
 10
1.5275
 20
-1.6565
 30
0.0
 11
1.0
 21
0.0
 31
0.0
 44
0.9
  1
Weight
 40
0.125
 41
1.2
  0
MTEXT
  5
26D
100
AcDbEntity
  8
0
100
AcDbMText
 62
2
  6
CONTINUOUS
  7
STANDARD
 71
2
 72
1
 10
4.555
 20
-1.6565
 30
0.0
 11
1.0
 21
0.0
 31
0.0
 44
0.9
  1
1.880 lb.
 40
0.125
 41
1.8
  0
MTEXT
  5
26E
100
AcDbEntity
  8
0
100
AcDbMText
 62
2
  6
CONTINUOUS
  7
STANDARD
 71
2
 72
1
 10
7.555
 20
-1.6565
 30
0.0
 11
1.0
 21
0.0
 31
0.0
 44
0.9
  1
0,853 kg.
 40
0.125
 41
1.8
  0
MTEXT
  5
26F
100
AcDbEntity
  8
0
100
AcDbMText
 62
2
  6
CONTINUOUS
  7
STANDARD
 71
2
 72
1
 10
1.5275
 20
-1.9065
 30
0.0
 11
1.0
 21
0.0
 31
0.0
 44
0.9
  1
Mounting Hole Diameter
 40
0.125
 41
4.4
  0
MTEXT
  5
270
100
AcDbEntity
  8
0
100
AcDbMText
 62
2
  6
CONTINUOUS
  7
STANDARD
 71
2
 72
1
 10
4.555
 20
-1.9065
 30
0.0
 11
1.0
 21
0.0
 31
0.0
 44
0.9
  1
.42 in.
 40
0.125
 41
1.4
  0
MTEXT
  5
271
100
AcDbEntity
  8
0
100
AcDbMText
 62
2
  6
CONTINUOUS
  7
STANDARD
 71
2
 72
1
 10
7.555
 20
-1.9065
 30
0.0
 11
1.0
 21
0.0
 31
0.0
 44
0.9
  1
10,7 mm
 40
0.125
 41
1.4
  0
MTEXT
  5
272
100
AcDbEntity
  8
0
100
AcDbMText
 62
2
  6
CONTINUOUS
  7
STANDARD
 71
2
 72
1
 10
1.5275
 20
-2.1565
 30
0.0
 11
1.0
 21
0.0
 31
0.0
 44
0.9
  1
Mounting Hole Depth
 40
0.125
 41
3.8
  0
MTEXT
  5
273
100
AcDbEntity
  8
0
100
AcDbMText
 62
2
  6
CONTINUOUS
  7
STANDARD
 71
2
 72
1
 10
6.055
 20
-2.1565
 30
0.0
 11
1.0
 21
0.0
 31
0.0
 44
0.9
  1
Through
 40
0.125
 41
1.4
  0
MTEXT
  5
274
100
AcDbEntity
  8
0
100
AcDbMText
 62
2
  6
CONTINUOUS
  7
STANDARD
 71
2
 72
1
 10
1.5275
 20
-2.4065
 30
0.0
 11
1.0
 21
0.0
 31
0.0
 44
0.9
  1
Mounting Hole Quantity
 40
0.125
 41
4.4
  0
MTEXT
  5
275
100
AcDbEntity
  8
0
100
AcDbMText
 62
2
  6
CONTINUOUS
  7
STANDARD
 71
2
 72
1
 10
6.055
 20
-2.4065
 30
0.0
 11
1.0
 21
0.0
 31
0.0
 44
0.9
  1
2
 40
0.125
 41
0.2
  0
MTEXT
  5
276
100
AcDbEntity
  8
0
100
AcDbMText
 62
2
  6
CONTINUOUS
  7
STANDARD
 71
2
 72
1
 10
1.5275
 20
-2.6565
 30
0.0
 11
1.0
 21
0.0
 31
0.0
 44
0.9
  1
Includes integral cartridge(s)
 40
0.125
 41
6.0
  0
MTEXT
  5
277
100
AcDbEntity
  8
0
100
AcDbMText
 62
2
  6
CONTINUOUS
  7
STANDARD
 71
2
 72
1
 10
6.055
 20
-2.6565
 30
0.0
 11
1.0
 21
0.0
 31
0.0
 44
0.9
  1
Yes (see Included Components)
 40
0.125
 41
5.8
  0
ENDBLK
  5
278
100
AcDbEntity
  8
0
  6
BYBLOCK
 62
0
100
AcDbBlockEnd
  0
BLOCK
  5
279
100
AcDbEntity
  8
0
100
AcDbBlockBegin
  2
*T3
 70
1
 10
0.0
 20
0.0
  3
*T3
  1

  0
LINE
  5
27A
100
AcDbEntity
  8
0
100
AcDbLine
 62
2
  6
CONTINUOUS
 10
0.0
 20
0.0
 11
4.6
 21
0.0
  0
LINE
  5
27B
100
AcDbEntity
  8
0
100
AcDbLine
 62
2
  6
CONTINUOUS
 10
0.0
 20
0.0
 11
0.0
 21
-1.43775
  0
LINE
  5
27C
100
AcDbEntity
  8
0
100
AcDbLine
 62
2
  6
CONTINUOUS
 10
0.0
 20
-0.34375
 11
4.6
 21
-0.34375
  0
LINE
  5
27D
100
AcDbEntity
  8
0
100
AcDbLine
 62
2
  6
CONTINUOUS
 10
0.0
 20
-0.68775
 11
4.6
 21
-0.68775
  0
LINE
  5
27E
100
AcDbEntity
  8
0
100
AcDbLine
 62
2
  6
CONTINUOUS
 10
0.0
 20
-0.93775
 11
4.6
 21
-0.93775
  0
LINE
  5
27F
100
AcDbEntity
  8
0
100
AcDbLine
 62
2
  6
CONTINUOUS
 10
0.0
 20
-1.18775
 11
4.6
 21
-1.18775
  0
LINE
  5
280
100
AcDbEntity
  8
0
100
AcDbLine
 62
2
  6
CONTINUOUS
 10
0.0
 20
-1.43775
 11
4.6
 21
-1.43775
  0
LINE
  5
281
100
AcDbEntity
  8
0
100
AcDbLine
 62
2
  6
CONTINUOUS
 10
1.3
 20
-0.34375
 11
1.3
 21
-1.43775
  0
LINE
  5
282
100
AcDbEntity
  8
0
100
AcDbLine
 62
2
  6
CONTINUOUS
 10
3.3
 20
-0.34375
 11
3.3
 21
-1.43775
  0
LINE
  5
283
100
AcDbEntity
  8
0
100
AcDbLine
 62
2
  6
CONTINUOUS
 10
4.6
 20
0.0
 11
4.6
 21
-1.43775
  0
MTEXT
  5
284
100
AcDbEntity
  8
0
100
AcDbMText
 62
2
  6
CONTINUOUS
  7
STANDARD
 71
2
 72
1
 10
2.3
 20
-0.099375
 30
0.0
 11
1.0
 21
0.0
 31
0.0
 44
0.9
  1
Port Headings
 40
0.145
 41
3.016
  0
MTEXT
  5
285
100
AcDbEntity
  8
0
100
AcDbMText
 62
2
  6
CONTINUOUS
  7
STANDARD
 71
2
 72
1
 10
0.65
 20
-0.44325
 30
0.0
 11
1.0
 21
0.0
 31
0.0
 44
0.9
  1
Product
 40
0.145
 41
1.624
  0
MTEXT
  5
286
100
AcDbEntity
  8
0
100
AcDbMText
 62
2
  6
CONTINUOUS
  7
STANDARD
 71
2
 72
1
 10
2.3
 20
-0.44325
 30
0.0
 11
1.0
 21
0.0
 31
0.0
 44
0.9
  1
Port
 40
0.145
 41
0.928
  0
MTEXT
  5
287
100
AcDbEntity
  8
0
100
AcDbMText
 62
2
  6
CONTINUOUS
  7
STANDARD
 71
2
 72
1
 10
3.95
 20
-0.44325
 30
0.0
 11
1.0
 21
0.0
 31
0.0
 44
0.9
  1
Size
 40
0.145
 41
0.928
  0
MTEXT
  5
288
100
AcDbEntity
  8
0
100
AcDbMText
 62
2
  6
CONTINUOUS
  7
STANDARD
 71
2
 72
1
 10
0.65
 20
-0.75025
 30
0.0
 11
1.0
 21
0.0
 31
0.0
 44
0.9
  1
B4W
 40
0.125
 41
0.6
  0
MTEXT
  5
289
100
AcDbEntity
  8
0
100
AcDbMText
 62
2
  6
CONTINUOUS
  7
STANDARD
 71
2
 72
1
 10
2.3
 20
-0.75025
 30
0.0
 11
1.0
 21
0.0
 31
0.0
 44
0.9
  1
Ports 1 &  2
 40
0.125
 41
2.4
  0
MTEXT
  5
28A
100
AcDbEntity
  8
0
100
AcDbMText
 62
2
  6
CONTINUOUS
  7
STANDARD
 71
2
 72
1
 10
3.95
 20
-0.75025
 30
0.0
 11
1.0
 21
0.0
 31
0.0
 44
0.9
  1
3/4" BSPP
 40
0.125
 41
1.8
  0
MTEXT
  5
28B
100
AcDbEntity
  8
0
100
AcDbMText
 62
2
  6
CONTINUOUS
  7
STANDARD
 71
2
 72
1
 10
0.65
 20
-1.00025
 30
0.0
 11
1.0
 21
0.0
 31
0.0
 44
0.9
  1
B4W
 40
0.125
 41
0.6
  0
MTEXT
  5
28C
100
AcDbEntity
  8
0
100
AcDbMText
 62
2
  6
CONTINUOUS
  7
STANDARD
 71
2
 72
1
 10
2.3
 20
-1.00025
 30
0.0
 11
1.0
 21
0.0
 31
0.0
 44
0.9
  1
Port 3
 40
0.125
 41
1.2
  0
MTEXT
  5
28D
100
AcDbEntity
  8
0
100
AcDbMText
 62
2
  6
CONTINUOUS
  7
STANDARD
 71
2
 72
1
 10
3.95
 20
-1.00025
 30
0.0
 11
1.0
 21
0.0
 31
0.0
 44
0.9
  1
1/2" BSPP
 40
0.125
 41
1.8
  0
MTEXT
  5
28E
100
AcDbEntity
  8
0
100
AcDbMText
 62
2
  6
CONTINUOUS
  7
STANDARD
 71
2
 72
1
 10
0.65
 20
-1.25025
 30
0.0
 11
1.0
 21
0.0
 31
0.0
 44
0.9
  1
B4W
 40
0.125
 41
0.6
  0
MTEXT
  5
28F
100
AcDbEntity
  8
0
100
AcDbMText
 62
2
  6
CONTINUOUS
  7
STANDARD
 71
2
 72
1
 10
2.3
 20
-1.25025
 30
0.0
 11
1.0
 21
0.0
 31
0.0
 44
0.9
  1
Gage Port
 40
0.125
 41
1.8
  0
MTEXT
  5
290
100
AcDbEntity
  8
0
100
AcDbMText
 62
2
  6
CONTINUOUS
  7
STANDARD
 71
2
 72
1
 10
3.95
 20
-1.25025
 30
0.0
 11
1.0
 21
0.0
 31
0.0
 44
0.9
  1
1/4" BSPP
 40
0.125
 41
1.8
  0
ENDBLK
  5
291
100
AcDbEntity
  8
0
  6
BYBLOCK
 62
0
100
AcDbBlockEnd
  0
ENDSEC
  0
SECTION
  2
ENTITIES
  0
IMAGE
  5
292
100
AcDbEntity
  8
0
100
AcDbRasterImage
 62
7
  6
CONTINUOUS
 10
19.2297077316
 20
0.3094318264
 30
0.0
 11
0.0066666667
 21
0.0
 31
0.0
 12
0.0
 22
0.0066666667
 32
0.0
 13
369.0
 23
92.0
340
       387
 70
9
280
0
281
50
282
50
283
0
360
       381
 71
1
 91
2
 14
-0.5
 24
-0.5
 14
368.5
 24
91.5
  0
INSERT
  5
293
100
AcDbEntity
  8
0
100
AcDbBlockReference
 62
2
  6
CONTINUOUS
  2
SUN_FIRST_THIRD_ANGLE_BL0
 10
20.4816717061
 20
1.2289683772
  0
ACAD_TABLE
  5
294
100
AcDbEntity
  8
0
 62
2
  6
CONTINUOUS
100
AcDbBlockReference
  2
*T1
 10
12.42375
 20
0.30125
 30
0.0
100
AcDbTable
342
       389
343
20F
 11
1.0
 21
0.0
 31
0.0
 90
6
 91
4
 92
6
 93
20
 94
0
 95
0
 96
0
 70
1
 41
0.0
141
0.525
141
0.1
141
0.525
141
0.1
142
4.1
142
1.1
142
0.7
142
0.5
142
0.4
142
2.475
171
1
172
0
173
0
174
0
175
1
176
1
 91
33
178
0
145
0.0
301
CELL_VALUE
 90
4
  1
T-2A Line mount\P(See Technical Data for Body Features)
304
ACVALUE_END
170
2
140
0.125
171
1
172
0
173
0
174
0
175
1
176
1
 91
33
178
0
145
0.0
301
CELL_VALUE
 90
4
  1
Sep-12-23
304
ACVALUE_END
170
5
140
0.125
171
1
172
0
173
0
174
0
175
1
176
1
 91
33
178
0
145
0.0
301
CELL_VALUE
 90
4
  1
1.000
304
ACVALUE_END
170
5
140
0.125
171
1
172
0
173
0
174
0
175
1
176
1
 91
33
178
0
145
0.0
301
CELL_VALUE
 90
4
  1
C
304
ACVALUE_END
170
5
140
0.125
171
1
172
0
173
0
174
0
175
1
176
1
 91
33
178
0
145
0.0
301
CELL_VALUE
 90
4
  1
2
304
ACVALUE_END
170
5
140
0.125
171
1
172
0
173
0
174
0
175
1
176
1
 91
33
178
0
145
0.0
301
CELL_VALUE
 90
4
  1
 
304
ACVALUE_END
170
1
140
0.125
171
1
172
0
173
0
174
0
175
1
176
1
 91
33
178
0
145
0.0
301
CELL_VALUE
 90
4
  1
DESCRIPTION
304
ACVALUE_END
170
1
140
0.06
171
1
172
0
173
0
174
0
175
1
176
1
 91
33
178
0
145
0.0
301
CELL_VALUE
 90
4
  1
DATE
304
ACVALUE_END
170
1
140
0.06
171
1
172
0
173
0
174
0
175
1
176
1
 91
33
178
0
145
0.0
301
CELL_VALUE
 90
4
  1
SCALE
304
ACVALUE_END
170
1
140
0.06
171
1
172
0
173
0
174
0
175
1
176
1
 91
33
178
0
145
0.0
301
CELL_VALUE
 90
4
  1
DWG SIZE
304
ACVALUE_END
170
1
140
0.06
171
1
172
0
173
0
174
0
175
1
176
1
 91
33
178
0
145
0.0
301
CELL_VALUE
 90
4
  1
SHEET
304
ACVALUE_END
170
1
140
0.06
171
1
172
0
173
0
174
0
175
1
176
1
 91
33
178
0
145
0.0
301
CELL_VALUE
 90
4
  1
 
304
ACVALUE_END
170
1
140
0.125
171
1
172
0
173
0
174
0
175
1
176
1
 91
33
178
0
145
0.0
301
CELL_VALUE
 90
4
  1
B4W
304
ACVALUE_END
170
5
140
0.125
171
1
172
0
173
0
174
0
175
4
176
1
 91
33
178
0
145
0.0
301
CELL_VALUE
 90
4
  1
ALL DIMENSIONS IN INCH\PVIEWS ARE THIRD ANGLE
304
ACVALUE_END
170
5
140
0.12
171
1
172
0
173
1
174
0
175
1
176
1
 91
1
178
0
145
0.0
170
1
171
1
172
0
173
1
174
0
175
1
176
1
 91
1
178
0
145
0.0
170
1
171
1
172
0
173
1
174
0
175
1
176
1
 91
1
178
0
145
0.0
170
5
171
1
172
0
173
0
174
0
175
1
176
1
 91
33
178
0
145
0.0
301
CELL_VALUE
 90
4
  1
 
304
ACVALUE_END
170
1
140
0.125
171
1
172
0
173
0
174
0
175
1
176
1
 91
33
178
0
145
0.0
301
CELL_VALUE
 90
4
  1
MODEL
304
ACVALUE_END
170
1
140
0.06
171
1
172
0
173
0
174
0
175
1
176
1
 91
33
178
0
145
0.0
301
CELL_VALUE
 90
4
  1
 
304
ACVALUE_END
170
1
140
0.125
171
1
172
0
173
0
174
0
175
1
176
1
 91
33
178
0
145
0.0
301
CELL_VALUE
 90
4
  1
 
304
ACVALUE_END
170
1
140
0.125
171
1
172
0
173
0
174
0
175
1
176
1
 91
33
178
0
145
0.0
301
CELL_VALUE
 90
4
  1
 
304
ACVALUE_END
170
1
140
0.125
171
1
172
0
173
0
174
0
175
1
176
1
 91
33
178
0
145
0.0
301
CELL_VALUE
 90
4
  1
 
304
ACVALUE_END
170
1
140
0.125
171
1
172
0
173
0
174
0
175
1
176
1
 91
33
178
0
145
0.0
301
CELL_VALUE
 90
4
  1
 
304
ACVALUE_END
170
1
140
0.125
  0
ACAD_TABLE
  5
295
100
AcDbEntity
  8
0
 62
2
  6
CONTINUOUS
100
AcDbBlockReference
  2
*T2
 10
12.4237499994
 20
16.47875
 30
0.0
100
AcDbTable
342
       388
343
210
 11
1.0
 21
0.0
 31
0.0
 90
22
 91
11
 92
3
 93
16
 94
0
 95
0
 96
0
 41
0.028
141
0.344
141
0.25
141
0.25
141
0.25
141
0.25
141
0.25
141
0.25
141
0.25
141
0.25
141
0.25
141
0.25
142
3.055
142
3.0
142
3.0
171
1
172
0
173
0
174
0
175
1
176
1
 91
33
178
0
145
0.0
301
CELL_VALUE
 90
4
  1
Technical Data
304
ACVALUE_END
170
5
140
0.145
171
1
172
0
173
0
174
0
175
1
176
1
 91
33
178
0
145
0.0
301
CELL_VALUE
 90
4
  1
U.S. Units
304
ACVALUE_END
170
5
140
0.145
171
1
172
0
173
0
174
0
175
1
176
1
 91
33
178
0
145
0.0
301
CELL_VALUE
 90
4
  1
Metric Units
304
ACVALUE_END
170
5
140
0.145
171
1
172
0
173
0
174
0
175
1
176
1
 91
33
178
0
145
0.0
301
CELL_VALUE
 90
4
  1
Cavity
304
ACVALUE_END
170
5
140
0.125
171
1
172
0
173
0
174
0
175
2
176
1
 91
33
178
0
145
0.0
301
CELL_VALUE
 90
4
  1
T-2A
304
ACVALUE_END
170
5
140
0.125
171
1
172
0
173
1
174
0
175
1
176
1
 91
1
178
0
145
0.0
170
1
171
1
172
0
173
0
174
0
175
1
176
1
 91
33
178
0
145
0.0
301
CELL_VALUE
 90
4
  1
Body Features
304
ACVALUE_END
170
5
140
0.125
171
1
172
0
173
0
174
0
175
2
176
1
 91
33
178
0
145
0.0
301
CELL_VALUE
 90
4
  1
Ninety degree with reverse flow check - reducing
304
ACVALUE_END
170
5
140
0.125
171
1
172
0
173
1
174
0
175
1
176
1
 91
1
178
0
145
0.0
170
1
171
1
172
0
173
0
174
0
175
1
176
1
 91
33
178
0
145
0.0
301
CELL_VALUE
 90
4
  1
Body Type
304
ACVALUE_END
170
5
140
0.125
171
1
172
0
173
0
174
0
175
2
176
1
 91
33
178
0
145
0.0
301
CELL_VALUE
 90
4
  1
Line mount
304
ACVALUE_END
170
5
140
0.125
171
1
172
0
173
1
174
0
175
1
176
1
 91
1
178
0
145
0.0
170
1
171
1
172
0
173
0
174
0
175
1
176
1
 91
33
178
0
145
0.0
301
CELL_VALUE
 90
4
  1
Interface
304
ACVALUE_END
170
5
140
0.125
171
1
172
0
173
0
174
0
175
2
176
1
 91
33
178
0
145
0.0
301
CELL_VALUE
 90
4
  1
None
304
ACVALUE_END
170
5
140
0.125
171
1
172
0
173
1
174
0
175
1
176
1
 91
1
178
0
145
0.0
170
1
171
1
172
0
173
0
174
0
175
1
176
1
 91
33
178
0
145
0.0
301
CELL_VALUE
 90
4
  1
Open Cavity Quantity
304
ACVALUE_END
170
5
140
0.125
171
1
172
0
173
0
174
0
175
2
176
1
 91
33
178
0
145
0.0
301
CELL_VALUE
 90
4
  1
1
304
ACVALUE_END
170
5
140
0.125
171
1
172
0
173
1
174
0
175
1
176
1
 91
1
178
0
145
0.0
170
1
171
1
172
0
173
0
174
0
175
1
176
1
 91
33
178
0
145
0.0
301
CELL_VALUE
 90
4
  1
Weight
304
ACVALUE_END
170
5
140
0.125
171
1
172
0
173
0
174
0
175
1
176
1
 91
33
178
0
145
0.0
301
CELL_VALUE
 90
4
  1
1.880 lb.
304
ACVALUE_END
170
5
140
0.125
171
1
172
0
173
0
174
0
175
1
176
1
 91
33
178
0
145
0.0
301
CELL_VALUE
 90
4
  1
0,853 kg.
304
ACVALUE_END
170
5
140
0.125
171
1
172
0
173
0
174
0
175
1
176
1
 91
33
178
0
145
0.0
301
CELL_VALUE
 90
4
  1
Mounting Hole Diameter
304
ACVALUE_END
170
5
140
0.125
171
1
172
0
173
0
174
0
175
1
176
1
 91
33
178
0
145
0.0
301
CELL_VALUE
 90
4
  1
.42 in.
304
ACVALUE_END
170
5
140
0.125
171
1
172
0
173
0
174
0
175
1
176
1
 91
33
178
0
145
0.0
301
CELL_VALUE
 90
4
  1
10,7 mm
304
ACVALUE_END
170
5
140
0.125
171
1
172
0
173
0
174
0
175
1
176
1
 91
33
178
0
145
0.0
301
CELL_VALUE
 90
4
  1
Mounting Hole Depth
304
ACVALUE_END
170
5
140
0.125
171
1
172
0
173
0
174
0
175
2
176
1
 91
33
178
0
145
0.0
301
CELL_VALUE
 90
4
  1
Through
304
ACVALUE_END
170
5
140
0.125
171
1
172
0
173
1
174
0
175
1
176
1
 91
1
178
0
145
0.0
170
1
171
1
172
0
173
0
174
0
175
1
176
1
 91
33
178
0
145
0.0
301
CELL_VALUE
 90
4
  1
Mounting Hole Quantity
304
ACVALUE_END
170
5
140
0.125
171
1
172
0
173
0
174
0
175
2
176
1
 91
33
178
0
145
0.0
301
CELL_VALUE
 90
4
  1
2
304
ACVALUE_END
170
5
140
0.125
171
1
172
0
173
1
174
0
175
1
176
1
 91
1
178
0
145
0.0
170
1
171
1
172
0
173
0
174
0
175
1
176
1
 91
33
178
0
145
0.0
301
CELL_VALUE
 90
4
  1
Includes integral cartridge(s)
304
ACVALUE_END
170
5
140
0.125
171
1
172
0
173
0
174
0
175
2
176
1
 91
33
178
0
145
0.0
301
CELL_VALUE
 90
4
  1
Yes (see Included Components)
304
ACVALUE_END
170
5
140
0.125
171
1
172
0
173
1
174
0
175
1
176
1
 91
1
178
0
145
0.0
170
1
  0
ACAD_TABLE
  5
296
100
AcDbEntity
  8
0
 62
2
  6
CONTINUOUS
100
AcDbBlockReference
  2
*T3
 10
0.52125
 20
1.959
 30
0.0
100
AcDbTable
342
       388
343
211
 11
1.0
 21
0.0
 31
0.0
 90
22
 91
5
 92
3
 93
16
 94
0
 95
0
 96
0
 41
0.05
141
0.34375
141
0.344
141
0.25
141
0.25
141
0.25
142
1.3
142
2.0
142
1.3
171
1
172
0
173
0
174
0
175
3
176
1
 91
33
178
0
145
0.0
301
CELL_VALUE
 90
4
  1
Port Headings
304
ACVALUE_END
170
5
140
0.145
171
1
172
0
173
1
174
0
175
1
176
1
 91
1
178
0
145
0.0
170
1
171
1
172
0
173
1
174
0
175
1
176
1
 91
1
178
0
145
0.0
170
1
171
1
172
0
173
0
174
0
175
1
176
1
 91
33
178
0
145
0.0
301
CELL_VALUE
 90
4
  1
Product
304
ACVALUE_END
170
5
140
0.145
171
1
172
0
173
0
174
0
175
1
176
1
 91
33
178
0
145
0.0
301
CELL_VALUE
 90
4
  1
Port
304
ACVALUE_END
170
5
140
0.145
171
1
172
0
173
0
174
0
175
1
176
1
 91
33
178
0
145
0.0
301
CELL_VALUE
 90
4
  1
Size
304
ACVALUE_END
170
5
140
0.145
171
1
172
0
173
0
174
0
175
1
176
1
 91
33
178
0
145
0.0
301
CELL_VALUE
 90
4
  1
B4W
304
ACVALUE_END
170
5
140
0.125
171
1
172
0
173
0
174
0
175
1
176
1
 91
33
178
0
145
0.0
301
CELL_VALUE
 90
4
  1
Ports 1 &  2
304
ACVALUE_END
170
5
140
0.125
171
1
172
0
173
0
174
0
175
1
176
1
 91
33
178
0
145
0.0
301
CELL_VALUE
 90
4
  1
3/4" BSPP
304
ACVALUE_END
170
5
140
0.125
171
1
172
0
173
0
174
0
175
1
176
1
 91
33
178
0
145
0.0
301
CELL_VALUE
 90
4
  1
B4W
304
ACVALUE_END
170
5
140
0.125
171
1
172
0
173
0
174
0
175
1
176
1
 91
33
178
0
145
0.0
301
CELL_VALUE
 90
4
  1
Port 3
304
ACVALUE_END
170
5
140
0.125
171
1
172
0
173
0
174
0
175
1
176
1
 91
33
178
0
145
0.0
301
CELL_VALUE
 90
4
  1
1/2" BSPP
304
ACVALUE_END
170
5
140
0.125
171
1
172
0
173
0
174
0
175
1
176
1
 91
33
178
0
145
0.0
301
CELL_VALUE
 90
4
  1
B4W
304
ACVALUE_END
170
5
140
0.125
171
1
172
0
173
0
174
0
175
1
176
1
 91
33
178
0
145
0.0
301
CELL_VALUE
 90
4
  1
Gage Port
304
ACVALUE_END
170
5
140
0.125
171
1
172
0
173
0
174
0
175
1
176
1
 91
33
178
0
145
0.0
301
CELL_VALUE
 90
4
  1
1/4" BSPP
304
ACVALUE_END
170
5
140
0.125
  0
MTEXT
  5
297
100
AcDbEntity
  8
0
100
AcDbMText
 62
2
  6
CONTINUOUS
  7
STANDARD
 71
1
 72
1
 10
0.52125
 20
5.75995
 30
0.0
 11
1.0
 21
0.0
 31
0.0
 44
0.6
  3
Notes\P \P1. Important: Carefully consider\P   the maximum system pressure. The\P   pressure rating of the manifold is\P   dependent on the manifold material,\P   with the port type/size a secondary\P   consideration. Manifolds\P   constructed of alu
  3
minum are not\P   rated for pressures higher than\P   3000 psi (210 bar), regardless of\P   the port type/size specified.\P2. This drawing is for reference\P   only. It is generated by an\P   automated process and does not fall\P   under Sun's docume
  1
nt control\P   process.
 40
0.1
 41
3.04
  0
LINE
  5
298
100
AcDbEntity
  8
0
100
AcDbLine
 62
7
  6
CONTINUOUS
 10
0.30125
 20
0.30125
 11
0.30125
 21
16.69875
  0
LINE
  5
299
100
AcDbEntity
  8
0
100
AcDbLine
 62
7
  6
CONTINUOUS
 10
0.30125
 20
0.30125
 11
21.69875
 21
0.30125
  0
LINE
  5
29A
100
AcDbEntity
  8
0
100
AcDbLine
 62
7
  6
CONTINUOUS
 10
0.30125
 20
16.69875
 11
21.69875
 21
16.69875
  0
LINE
  5
29B
100
AcDbEntity
  8
0
100
AcDbLine
 62
7
  6
CONTINUOUS
 10
21.69875
 20
0.30125
 11
21.69875
 21
16.69875
  0
LINE
  5
29C
100
AcDbEntity
  8
0
100
AcDbLine
 62
7
  6
CONTINUOUS
 10
9.4433734597
 20
10.9566713866
 11
9.0551452125
 21
10.5816716739
  0
LINE
  5
29D
100
AcDbEntity
  8
0
100
AcDbLine
 62
4
  6
CONTINUOUS
 10
9.2821377478
 20
10.0491593385
 11
9.2748933038
 21
10.0400024861
  0
LINE
  5
29E
100
AcDbEntity
  8
0
100
AcDbLine
 62
4
  6
CONTINUOUS
 10
9.2893821917
 20
9.9907013829
 11
9.2748933038
 21
9.9723876737
  0
LINE
  5
29F
100
AcDbEntity
  8
0
100
AcDbLine
 62
4
  6
CONTINUOUS
 10
9.23142664
 20
10.0719946853
 11
9.2459155279
 21
10.0806491338
  0
LINE
  5
2A0
100
AcDbEntity
  8
0
100
AcDbLine
 62
4
  6
CONTINUOUS
 10
9.2748933038
 20
10.0400024861
 11
9.2604044159
 21
10.0313480306
  0
LINE
  5
2A1
100
AcDbEntity
  8
0
100
AcDbLine
 62
4
  6
CONTINUOUS
 10
9.2748933038
 20
9.9723876737
 11
9.2604044159
 21
9.9637332226
  0
LINE
  5
2A2
100
AcDbEntity
  8
0
100
AcDbLine
 62
7
  6
CONTINUOUS
 10
9.0551452125
 20
6.7179681398
 11
9.0551452125
 21
10.5816716739
  0
LINE
  5
2A3
100
AcDbEntity
  8
0
100
AcDbLine
 62
7
  6
CONTINUOUS
 10
9.0551452125
 20
6.7179681398
 11
12.5566265403
 21
6.475139585
  0
LINE
  5
2A4
100
AcDbEntity
  8
0
100
AcDbLine
 62
7
  6
CONTINUOUS
 10
11.2739877806
 20
6.1296039888
 11
11.29320567
 21
6.1201107194
  0
LINE
  5
2A5
100
AcDbEntity
  8
0
100
AcDbLine
 62
4
  6
CONTINUOUS
 10
9.2821377478
 20
10.0588185948
 11
9.2821377478
 21
10.0491593385
  0
LINE
  5
2A6
100
AcDbEntity
  8
0
100
AcDbLine
 62
4
  6
CONTINUOUS
 10
9.2821377478
 20
7.8748601565
 11
9.2821377478
 21
7.7589490531
  0
LINE
  5
2A7
100
AcDbEntity
  8
0
100
AcDbLine
 62
4
  6
CONTINUOUS
 10
9.2893821917
 20
10.0003606426
 11
9.2893821917
 21
9.9907013829
  0
LINE
  5
2A8
100
AcDbEntity
  8
0
100
AcDbLine
 62
4
  6
CONTINUOUS
 10
10.2557911207
 20
9.5904362668
 11
10.2557911207
 21
9.5324807138
  0
LINE
  5
2A9
100
AcDbEntity
  8
0
100
AcDbLine
 62
4
  6
CONTINUOUS
 10
10.3137466737
 20
9.5284614826
 11
10.3137466737
 21
9.4705059296
  0
LINE
  5
2AA
100
AcDbEntity
  8
0
100
AcDbLine
 62
4
  6
CONTINUOUS
 10
10.3427244502
 20
9.4684963139
 11
10.3427244502
 21
9.58440742
  0
LINE
  5
2AB
100
AcDbEntity
  8
0
100
AcDbLine
 62
4
  6
CONTINUOUS
 10
10.3900548243
 20
8.8740673006
 11
10.3900548243
 21
8.9899784067
  0
LINE
  5
2AC
100
AcDbEntity
  8
0
100
AcDbLine
 62
4
  6
CONTINUOUS
 10
10.4006800032
 20
9.5803881887
 11
10.4006800032
 21
9.4644770827
  0
LINE
  5
2AD
100
AcDbEntity
  8
0
100
AcDbLine
 62
4
  6
CONTINUOUS
 10
10.7143299397
 20
9.1810974597
 11
10.6977712112
 21
9.165687083
  0
LINE
  5
2AE
100
AcDbEntity
  8
0
100
AcDbLine
 62
4
  6
CONTINUOUS
 10
10.4480103704
 20
8.8866068
 11
10.4314516419
 21
8.8711964216
  0
LINE
  5
2AF
100
AcDbEntity
  8
0
100
AcDbLine
 62
4
  6
CONTINUOUS
 10
10.7226093039
 20
9.1225677326
 11
10.7060505755
 21
9.1071573541
  0
LINE
  5
2B0
100
AcDbEntity
  8
0
100
AcDbLine
 62
4
  6
CONTINUOUS
 10
10.3679765162
 20
8.9473529333
 11
10.3238199036
 21
8.9283368968
  0
LINE
  5
2B1
100
AcDbEntity
  8
0
100
AcDbLine
 62
4
  6
CONTINUOUS
 10
10.4296577797
 20
9.5783785731
 11
10.4296577797
 21
9.4624674671
  0
LINE
  5
2B2
100
AcDbEntity
  8
0
100
AcDbLine
 62
4
  6
CONTINUOUS
 10
10.4480103704
 20
8.9694004474
 11
10.4480103704
 21
8.8866068
  0
LINE
  5
2B3
100
AcDbEntity
  8
0
100
AcDbLine
 62
4
  6
CONTINUOUS
 10
10.4876133328
 20
9.5743593418
 11
10.4876133328
 21
9.4584482358
  0
LINE
  5
2B4
100
AcDbEntity
  8
0
100
AcDbLine
 62
4
  6
CONTINUOUS
 10
10.5571598765
 20
8.2172400574
 11
10.5571598765
 21
8.1786030235
  0
LINE
  5
2B5
100
AcDbEntity
  8
0
100
AcDbLine
 62
4
  6
CONTINUOUS
 10
10.6035244388
 20
9.4504097733
 11
10.6035244388
 21
9.5663208793
  0
LINE
  5
2B6
100
AcDbEntity
  8
0
100
AcDbLine
 62
4
  6
CONTINUOUS
 10
10.4847154369
 20
8.2222640964
 11
10.4919598808
 21
8.2507394684
  0
LINE
  5
2B7
100
AcDbEntity
  8
0
100
AcDbLine
 62
4
  6
CONTINUOUS
 10
10.7557267608
 20
9.1285503933
 11
10.7805648569
 21
9.2179008772
  0
LINE
  5
2B8
100
AcDbEntity
  8
0
100
AcDbLine
 62
4
  6
CONTINUOUS
 10
10.4949267711
 20
8.8667944064
 11
10.528044228
 21
8.980408809
  0
LINE
  5
2B9
100
AcDbEntity
  8
0
100
AcDbLine
 62
4
  6
CONTINUOUS
 10
10.8674982129
 20
8.9403088667
 11
10.8840569345
 21
8.955719244
  0
LINE
  5
2BA
100
AcDbEntity
  8
0
100
AcDbLine
 62
4
  6
CONTINUOUS
 10
10.5209376567
 20
8.1617965252
 11
10.5064487688
 21
8.1724605919
  0
LINE
  5
2BB
100
AcDbEntity
  8
0
100
AcDbLine
 62
4
  6
CONTINUOUS
 10
10.5354265446
 20
8.2767028208
 11
10.5499154326
 21
8.2660387567
  0
LINE
  5
2BC
100
AcDbEntity
  8
0
100
AcDbLine
 62
4
  6
CONTINUOUS
 10
10.5064487688
 20
8.1724605919
 11
10.4919598808
 21
8.1927839166
  0
LINE
  5
2BD
100
AcDbEntity
  8
0
100
AcDbLine
 62
4
  6
CONTINUOUS
 10
9.23142664
 20
9.9754020971
 11
9.224182196
 21
9.9855637599
  0
LINE
  5
2BE
100
AcDbEntity
  8
0
100
AcDbLine
 62
4
  6
CONTINUOUS
 10
9.2748933038
 20
10.0206839665
 11
9.2893821917
 21
10.0003606426
  0
LINE
  5
2BF
100
AcDbEntity
  8
0
100
AcDbLine
 62
4
  6
CONTINUOUS
 10
10.5499154326
 20
8.2660387567
 11
10.5571598765
 21
8.2558770896
  0
LINE
  5
2C0
100
AcDbEntity
  8
0
100
AcDbLine
 62
4
  6
CONTINUOUS
 10
9.2748933038
 20
10.0689802619
 11
9.2821377478
 21
10.0588185948
  0
LINE
  5
2C1
100
AcDbEntity
  8
0
100
AcDbLine
 62
4
  6
CONTINUOUS
 10
10.4919598808
 20
8.1927839166
 11
10.4847154369
 21
8.2222640964
  0
LINE
  5
2C2
100
AcDbEntity
  8
0
100
AcDbLine
 62
4
  6
CONTINUOUS
 10
10.6273966125
 20
8.8576075917
 11
10.6273966125
 21
8.9735186977
  0
LINE
  5
2C3
100
AcDbEntity
  8
0
100
AcDbLine
 62
4
  6
CONTINUOUS
 10
10.6614799918
 20
9.446390542
 11
10.6614799918
 21
9.5043460951
  0
LINE
  5
2C4
100
AcDbEntity
  8
0
100
AcDbLine
 62
4
  6
CONTINUOUS
 10
10.6646537509
 20
9.1100282336
 11
10.6646537509
 21
9.2259393397
  0
LINE
  5
2C5
100
AcDbEntity
  8
0
100
AcDbLine
 62
4
  6
CONTINUOUS
 10
10.6936315263
 20
8.8530141848
 11
10.6936315263
 21
8.9689252909
  0
LINE
  5
2C6
100
AcDbEntity
  8
0
100
AcDbLine
 62
4
  6
CONTINUOUS
 10
10.7088103601
 20
9.4431081699
 11
10.7088103601
 21
9.5010637229
  0
LINE
  5
2C7
100
AcDbEntity
  8
0
100
AcDbLine
 62
4
  6
CONTINUOUS
 10
10.7143299397
 20
9.2059355558
 11
10.7143299397
 21
9.1810974597
  0
LINE
  5
2C8
100
AcDbEntity
  8
0
100
AcDbLine
 62
4
  6
CONTINUOUS
 10
10.7226093039
 20
9.147405827
 11
10.7226093039
 21
9.1225677326
  0
LINE
  5
2C9
100
AcDbEntity
  8
0
100
AcDbLine
 62
4
  6
CONTINUOUS
 10
10.7667659131
 20
9.4970444916
 11
10.7667659131
 21
9.3811333856
  0
LINE
  5
2CA
100
AcDbEntity
  8
0
100
AcDbLine
 62
4
  6
CONTINUOUS
 10
10.7943638007
 20
9.1010328111
 11
10.7943638007
 21
9.1589883641
  0
LINE
  5
2CB
100
AcDbEntity
  8
0
100
AcDbLine
 62
4
  6
CONTINUOUS
 10
10.8054029484
 20
9.4364094511
 11
10.8054029484
 21
9.4943650041
  0
LINE
  5
2CC
100
AcDbEntity
  8
0
100
AcDbLine
 62
4
  6
CONTINUOUS
 10
10.9213140452
 20
9.0922287818
 11
10.9461521552
 21
9.206417359
  0
LINE
  5
2CD
100
AcDbEntity
  8
0
100
AcDbLine
 62
4
  6
CONTINUOUS
 10
10.8716378668
 20
9.0956738364
 11
10.8964759629
 21
9.1767449578
  0
LINE
  5
2CE
100
AcDbEntity
  8
0
100
AcDbLine
 62
4
  6
CONTINUOUS
 10
10.4919598808
 20
8.2507394684
 11
10.5064487688
 21
8.2690531801
  0
LINE
  5
2CF
100
AcDbEntity
  8
0
100
AcDbLine
 62
7
  6
CONTINUOUS
 10
12.5566265403
 20
10.3388431191
 11
12.9448547875
 21
10.7138428318
  0
LINE
  5
2D0
100
AcDbEntity
  8
0
100
AcDbLine
 62
4
  6
CONTINUOUS
 10
10.9640907644
 20
8.9336101506
 11
10.980649486
 21
8.9490205278
  0
LINE
  5
2D1
100
AcDbEntity
  8
0
100
AcDbLine
 62
4
  6
CONTINUOUS
 10
11.0220463174
 20
8.8467972719
 11
11.0054875959
 21
8.831386893
  0
LINE
  5
2D2
100
AcDbEntity
  8
0
100
AcDbLine
 62
4
  6
CONTINUOUS
 10
11.2869859726
 20
8.861541103
 11
11.2428293634
 21
8.8425250679
  0
LINE
  5
2D3
100
AcDbEntity
  8
0
100
AcDbLine
 62
4
  6
CONTINUOUS
 10
10.5354265446
 20
8.1607917174
 11
10.5209376567
 21
8.1617965252
  0
LINE
  5
2D4
100
AcDbEntity
  8
0
100
AcDbLine
 62
4
  6
CONTINUOUS
 10
10.5281821007
 20
8.219249673
 11
10.5571598765
 21
8.2172400574
  0
LINE
  5
2D5
100
AcDbEntity
  8
0
100
AcDbLine
 62
4
  6
CONTINUOUS
 10
10.5209376567
 20
8.2777076286
 11
10.5354265446
 21
8.2767028208
  0
LINE
  5
2D6
100
AcDbEntity
  8
0
100
AcDbLine
 62
4
  6
CONTINUOUS
 10
10.528044228
 20
8.980408809
 11
10.5611616987
 21
8.8622009986
  0
LINE
  5
2D7
100
AcDbEntity
  8
0
100
AcDbLine
 62
4
  6
CONTINUOUS
 10
10.8633585014
 20
9.5483013259
 11
10.8633585014
 21
9.4323902199
  0
LINE
  5
2D8
100
AcDbEntity
  8
0
100
AcDbLine
 62
4
  6
CONTINUOUS
 10
10.8674982129
 20
8.8575152193
 11
10.8674982129
 21
8.9403088667
  0
LINE
  5
2D9
100
AcDbEntity
  8
0
100
AcDbLine
 62
4
  6
CONTINUOUS
 10
10.9019955368
 20
9.4876662854
 11
10.9019955368
 21
9.4297107324
  0
LINE
  5
2DA
100
AcDbEntity
  8
0
100
AcDbLine
 62
4
  6
CONTINUOUS
 10
10.9640907644
 20
8.8508165031
 11
10.9640907644
 21
8.9336101506
  0
LINE
  5
2DB
100
AcDbEntity
  8
0
100
AcDbLine
 62
4
  6
CONTINUOUS
 10
10.9985881251
 20
9.4230120136
 11
10.9985881251
 21
9.4616490489
  0
LINE
  5
2DC
100
AcDbEntity
  8
0
100
AcDbLine
 62
4
  6
CONTINUOUS
 10
11.0220463174
 20
8.9295909193
 11
11.0220463174
 21
8.8467972719
  0
LINE
  5
2DD
100
AcDbEntity
  8
0
100
AcDbLine
 62
4
  6
CONTINUOUS
 10
10.5571598765
 20
8.1786030235
 11
10.5499154326
 21
8.1694461685
  0
LINE
  5
2DE
100
AcDbEntity
  8
0
100
AcDbLine
 62
4
  6
CONTINUOUS
 10
11.1131193135
 20
8.8404813382
 11
11.096560592
 21
8.8250709592
  0
LINE
  5
2DF
100
AcDbEntity
  8
0
100
AcDbLine
 62
4
  6
CONTINUOUS
 10
10.5064487688
 20
8.2690531801
 11
10.5209376567
 21
8.2777076286
  0
LINE
  5
2E0
100
AcDbEntity
  8
0
100
AcDbLine
 62
4
  6
CONTINUOUS
 10
10.4314516419
 20
8.9871075276
 11
10.4480103704
 21
8.9694004474
  0
LINE
  5
2E1
100
AcDbEntity
  8
0
100
AcDbLine
 62
4
  6
CONTINUOUS
 10
10.8467997707
 20
9.2133074703
 11
10.8716378668
 21
9.0956738364
  0
LINE
  5
2E2
100
AcDbEntity
  8
0
100
AcDbLine
 62
4
  6
CONTINUOUS
 10
11.0551637605
 20
8.8279418392
 11
11.0551637605
 21
8.9438529453
  0
LINE
  5
2E3
100
AcDbEntity
  8
0
100
AcDbLine
 62
4
  6
CONTINUOUS
 10
11.0565436782
 20
9.4769483354
 11
11.0565436782
 21
9.4189927823
  0
LINE
  5
2E4
100
AcDbEntity
  8
0
100
AcDbLine
 62
4
  6
CONTINUOUS
 10
11.0951807135
 20
9.4742688479
 11
11.0951807135
 21
9.4163132948
  0
LINE
  5
2E5
100
AcDbEntity
  8
0
100
AcDbLine
 62
4
  6
CONTINUOUS
 10
11.1131193135
 20
8.9232749856
 11
11.1131193135
 21
8.8404813382
  0
LINE
  5
2E6
100
AcDbEntity
  8
0
100
AcDbLine
 62
4
  6
CONTINUOUS
 10
11.1531362665
 20
9.4122940636
 11
11.1531362665
 21
9.4702496166
  0
LINE
  5
2E7
100
AcDbEntity
  8
0
100
AcDbLine
 62
4
  6
CONTINUOUS
 10
11.1600357557
 20
8.8206689417
 11
11.1600357557
 21
8.9365800477
  0
LINE
  5
2E8
100
AcDbEntity
  8
0
100
AcDbLine
 62
7
  6
CONTINUOUS
 10
11.1657875035
 20
6.5715945998
 11
11.1657875035
 21
6.2662836504
  0
LINE
  5
2E9
100
AcDbEntity
  8
0
100
AcDbLine
 62
4
  6
CONTINUOUS
 10
11.1917733018
 20
9.4096145761
 11
11.1917733018
 21
9.5255256821
  0
LINE
  5
2EA
100
AcDbEntity
  8
0
100
AcDbLine
 62
4
  6
CONTINUOUS
 10
11.2304103372
 20
9.4069350886
 11
11.2304103372
 21
9.4648906416
  0
LINE
  5
2EB
100
AcDbEntity
  8
0
100
AcDbLine
 62
4
  6
CONTINUOUS
 10
10.5499154326
 20
8.1694461685
 11
10.5354265446
 21
8.1607917174
  0
LINE
  5
2EC
100
AcDbEntity
  8
0
100
AcDbLine
 62
4
  6
CONTINUOUS
 10
10.3238199036
 20
8.9283368968
 11
10.3679765162
 21
8.903196319
  0
LINE
  5
2ED
100
AcDbEntity
  8
0
100
AcDbLine
 62
4
  6
CONTINUOUS
 10
9.2459155279
 20
9.9647380304
 11
9.23142664
 21
9.9754020971
  0
LINE
  5
2EE
100
AcDbEntity
  8
0
100
AcDbLine
 62
4
  6
CONTINUOUS
 10
9.2604044159
 20
10.0313480306
 11
9.2748933038
 21
10.0206839665
  0
LINE
  5
2EF
100
AcDbEntity
  8
0
100
AcDbLine
 62
4
  6
CONTINUOUS
 10
10.8840569345
 20
8.8398081379
 11
10.8674982129
 21
8.8575152193
  0
LINE
  5
2F0
100
AcDbEntity
  8
0
100
AcDbLine
 62
4
  6
CONTINUOUS
 10
10.980649486
 20
8.8331094217
 11
10.9640907644
 21
8.8508165031
  0
LINE
  5
2F1
100
AcDbEntity
  8
0
100
AcDbLine
 62
4
  6
CONTINUOUS
 10
10.8964759629
 20
9.1767449578
 11
10.9213140452
 21
9.0922287818
  0
LINE
  5
2F2
100
AcDbEntity
  8
0
100
AcDbLine
 62
4
  6
CONTINUOUS
 10
11.2690473725
 20
9.4622111541
 11
11.2690473725
 21
9.4042556011
  0
LINE
  5
2F3
100
AcDbEntity
  8
0
100
AcDbLine
 62
7
  6
CONTINUOUS
 10
11.317207443
 20
6.5044269117
 11
11.317207443
 21
6.1200234704
  0
LINE
  5
2F4
100
AcDbEntity
  8
0
100
AcDbLine
 62
7
  6
CONTINUOUS
 10
11.3566802209
 20
6.4942106179
 11
11.3566802209
 21
6.1098071766
  0
LINE
  5
2F5
100
AcDbEntity
  8
0
100
AcDbLine
 62
4
  6
CONTINUOUS
 10
11.3656399609
 20
9.4555124353
 11
11.3656399609
 21
9.4265346588
  0
LINE
  5
2F6
100
AcDbEntity
  8
0
100
AcDbLine
 62
4
  6
CONTINUOUS
 10
11.4235955139
 20
9.4225154276
 11
11.4235955139
 21
9.3935376511
  0
LINE
  5
2F7
100
AcDbEntity
  8
0
100
AcDbLine
 62
4
  6
CONTINUOUS
 10
12.3223895133
 20
8.9525630941
 11
12.3368784013
 21
8.9612175426
  0
LINE
  5
2F8
100
AcDbEntity
  8
0
100
AcDbLine
 62
4
  6
CONTINUOUS
 10
12.3658561771
 20
8.9109116316
 11
12.3368784013
 21
8.8936027311
  0
LINE
  5
2F9
100
AcDbEntity
  8
0
100
AcDbLine
 62
4
  6
CONTINUOUS
 10
11.096560592
 20
8.8250709592
 11
11.0551637605
 21
8.8279418392
  0
LINE
  5
2FA
100
AcDbEntity
  8
0
100
AcDbLine
 62
4
  6
CONTINUOUS
 10
11.0054875959
 20
8.831386893
 11
10.980649486
 21
8.8331094217
  0
LINE
  5
2FB
100
AcDbEntity
  8
0
100
AcDbLine
 62
4
  6
CONTINUOUS
 10
10.9171743775
 20
8.8375114355
 11
10.8840569345
 21
8.8398081379
  0
LINE
  5
2FC
100
AcDbEntity
  8
0
100
AcDbLine
 62
4
  6
CONTINUOUS
 10
10.4314516419
 20
8.8711964216
 11
10.3900548243
 21
8.8740673006
  0
LINE
  5
2FD
100
AcDbEntity
  8
0
100
AcDbLine
 62
4
  6
CONTINUOUS
 10
10.6936315263
 20
8.8530141848
 11
10.7433077185
 21
8.8495691292
  0
LINE
  5
2FE
100
AcDbEntity
  8
0
100
AcDbLine
 62
4
  6
CONTINUOUS
 10
11.1600357557
 20
8.8206689417
 11
11.2097119203
 21
8.817223888
  0
LINE
  5
2FF
100
AcDbEntity
  8
0
100
AcDbLine
 62
4
  6
CONTINUOUS
 10
10.5059659234
 20
8.899146299
 11
10.5501225326
 21
8.8960840277
  0
LINE
  5
300
100
AcDbEntity
  8
0
100
AcDbLine
 62
4
  6
CONTINUOUS
 10
11.1931531988
 20
8.8846071599
 11
11.1600357557
 21
8.8869038624
  0
LINE
  5
301
100
AcDbEntity
  8
0
100
AcDbLine
 62
4
  6
CONTINUOUS
 10
10.726748997
 20
8.9169524011
 11
10.6936315263
 21
8.9192491055
  0
LINE
  5
302
100
AcDbEntity
  8
0
100
AcDbLine
 62
4
  6
CONTINUOUS
 10
12.3151450694
 20
8.8468136509
 11
12.3731006211
 21
8.8427944197
  0
LINE
  5
303
100
AcDbEntity
  8
0
100
AcDbLine
 62
4
  6
CONTINUOUS
 10
9.2604044159
 20
10.079644326
 11
9.2748933038
 21
10.0689802619
  0
LINE
  5
304
100
AcDbEntity
  8
0
100
AcDbLine
 62
4
  6
CONTINUOUS
 10
10.6977712112
 20
9.2208828445
 11
10.7143299397
 21
9.2059355558
  0
LINE
  5
305
100
AcDbEntity
  8
0
100
AcDbLine
 62
4
  6
CONTINUOUS
 10
10.7060505755
 20
9.1651129071
 11
10.7226093039
 21
9.147405827
  0
LINE
  5
306
100
AcDbEntity
  8
0
100
AcDbLine
 62
4
  6
CONTINUOUS
 10
11.0054875959
 20
8.947297999
 11
11.0220463174
 21
8.9295909193
  0
LINE
  5
307
100
AcDbEntity
  8
0
100
AcDbLine
 62
4
  6
CONTINUOUS
 10
11.096560592
 20
8.9409820653
 11
11.1131193135
 21
8.9232749856
  0
LINE
  5
308
100
AcDbEntity
  8
0
100
AcDbLine
 62
7
  6
CONTINUOUS
 10
12.7365695571
 20
9.5269667963
 11
12.735285849
 21
9.5257495943
  0
LINE
  5
309
100
AcDbEntity
  8
0
100
AcDbLine
 62
4
  6
CONTINUOUS
 10
10.3900548243
 20
8.9899784067
 11
10.4314516419
 21
8.9871075276
  0
LINE
  5
30A
100
AcDbEntity
  8
0
100
AcDbLine
 62
4
  6
CONTINUOUS
 10
10.5942791418
 20
8.9758154021
 11
10.6605140555
 21
8.9712219953
  0
LINE
  5
30B
100
AcDbEntity
  8
0
100
AcDbLine
 62
4
  6
CONTINUOUS
 10
10.6936315263
 20
8.9689252909
 11
10.7433077185
 21
8.9654802352
  0
LINE
  5
30C
100
AcDbEntity
  8
0
100
AcDbLine
 62
4
  6
CONTINUOUS
 10
10.8840569345
 20
8.955719244
 11
10.9171743775
 21
8.9534225415
  0
LINE
  5
30D
100
AcDbEntity
  8
0
100
AcDbLine
 62
4
  6
CONTINUOUS
 10
10.980649486
 20
8.9490205278
 11
11.0054875959
 21
8.947297999
  0
LINE
  5
30E
100
AcDbEntity
  8
0
100
AcDbLine
 62
4
  6
CONTINUOUS
 10
11.0551637605
 20
8.9438529453
 11
11.096560592
 21
8.9409820653
  0
LINE
  5
30F
100
AcDbEntity
  8
0
100
AcDbLine
 62
4
  6
CONTINUOUS
 10
11.1600357557
 20
8.9365800477
 11
11.2097119203
 21
8.933134994
  0
LINE
  5
310
100
AcDbEntity
  8
0
100
AcDbLine
 62
4
  6
CONTINUOUS
 10
12.3368784013
 20
8.9612175426
 11
12.3513672892
 21
8.9602127348
  0
LINE
  5
311
100
AcDbEntity
  8
0
100
AcDbLine
 62
4
  6
CONTINUOUS
 10
10.7060505755
 20
9.1071573541
 11
10.6646537509
 21
9.1100282336
  0
LINE
  5
312
100
AcDbEntity
  8
0
100
AcDbLine
 62
4
  6
CONTINUOUS
 10
10.8136823138
 20
9.1245311621
 11
10.7557267608
 21
9.1285503933
  0
LINE
  5
313
100
AcDbEntity
  8
0
100
AcDbLine
 62
4
  6
CONTINUOUS
 10
10.6646537509
 20
9.1679837867
 11
10.7060505755
 21
9.1651129071
  0
LINE
  5
314
100
AcDbEntity
  8
0
100
AcDbLine
 62
4
  6
CONTINUOUS
 10
10.6894918453
 20
9.224216812
 11
10.6977712112
 21
9.2208828445
  0
LINE
  5
315
100
AcDbEntity
  8
0
100
AcDbLine
 62
4
  6
CONTINUOUS
 10
11.2428293634
 20
8.8866816823
 11
11.2869859726
 21
8.861541103
  0
LINE
  5
316
100
AcDbEntity
  8
0
100
AcDbLine
 62
4
  6
CONTINUOUS
 10
12.3151450694
 20
8.9434062348
 11
12.3223895133
 21
8.9525630941
  0
LINE
  5
317
100
AcDbEntity
  8
0
100
AcDbLine
 62
4
  6
CONTINUOUS
 10
12.3368784013
 20
8.8936027311
 11
12.3223895133
 21
8.8752890228
  0
LINE
  5
318
100
AcDbEntity
  8
0
100
AcDbLine
 62
4
  6
CONTINUOUS
 10
12.3731006211
 20
8.920068491
 11
12.3658561771
 21
8.9109116316
  0
LINE
  5
319
100
AcDbEntity
  8
0
100
AcDbLine
 62
4
  6
CONTINUOUS
 10
10.6646537509
 20
9.2259393397
 11
10.6894918453
 21
9.224216812
  0
LINE
  5
31A
100
AcDbEntity
  8
0
100
AcDbLine
 62
4
  6
CONTINUOUS
 10
10.7667659131
 20
9.3811333856
 11
10.7281288778
 21
9.3838128731
  0
LINE
  5
31B
100
AcDbEntity
  8
0
100
AcDbLine
 62
7
  6
CONTINUOUS
 10
11.9217866955
 20
6.4550203508
 11
11.9217866955
 21
6.0706169095
  0
LINE
  5
31C
100
AcDbEntity
  8
0
100
AcDbLine
 62
7
  6
CONTINUOUS
 10
11.9757074978
 20
6.4587597778
 11
11.9757074978
 21
6.0743563364
  0
LINE
  5
31D
100
AcDbEntity
  8
0
100
AcDbLine
 62
4
  6
CONTINUOUS
 10
11.4235955139
 20
9.3935376511
 11
11.3656399609
 21
9.3975568823
  0
LINE
  5
31E
100
AcDbEntity
  8
0
100
AcDbLine
 62
4
  6
CONTINUOUS
 10
11.0565436782
 20
9.4189927823
 11
10.9985881251
 21
9.4230120136
  0
LINE
  5
31F
100
AcDbEntity
  8
0
100
AcDbLine
 62
4
  6
CONTINUOUS
 10
10.8633585014
 20
9.4323902199
 11
10.8054029484
 21
9.4364094511
  0
LINE
  5
320
100
AcDbEntity
  8
0
100
AcDbLine
 62
4
  6
CONTINUOUS
 10
10.7667659131
 20
9.4390889386
 11
10.7088103601
 21
9.4431081699
  0
LINE
  5
321
100
AcDbEntity
  8
0
100
AcDbLine
 62
4
  6
CONTINUOUS
 10
10.4006800032
 20
9.4644770827
 11
10.3427244502
 21
9.4684963139
  0
LINE
  5
322
100
AcDbEntity
  8
0
100
AcDbLine
 62
4
  6
CONTINUOUS
 10
10.3137466737
 20
9.4705059296
 11
10.2557911207
 21
9.4745251608
  0
LINE
  5
323
100
AcDbEntity
  8
0
100
AcDbLine
 62
4
  6
CONTINUOUS
 10
11.0951807135
 20
9.4163132948
 11
11.1531362665
 21
9.4122940636
  0
LINE
  5
324
100
AcDbEntity
  8
0
100
AcDbLine
 62
4
  6
CONTINUOUS
 10
11.2690473725
 20
9.4042556011
 11
11.3270029255
 21
9.4002363698
  0
LINE
  5
325
100
AcDbEntity
  8
0
100
AcDbLine
 62
4
  6
CONTINUOUS
 10
11.3656399609
 20
9.4265346588
 11
11.4235955139
 21
9.4225154276
  0
LINE
  5
326
100
AcDbEntity
  8
0
100
AcDbLine
 62
4
  6
CONTINUOUS
 10
10.9985881251
 20
9.4616490489
 11
11.0565436782
 21
9.4576298177
  0
LINE
  5
327
100
AcDbEntity
  8
0
100
AcDbLine
 62
4
  6
CONTINUOUS
 10
11.0565436782
 20
9.4769483354
 11
11.0179066428
 21
9.4796278229
  0
LINE
  5
328
100
AcDbEntity
  8
0
100
AcDbLine
 62
4
  6
CONTINUOUS
 10
10.6614799918
 20
9.5043460951
 11
10.6035244388
 21
9.5083653263
  0
LINE
  5
329
100
AcDbEntity
  8
0
100
AcDbLine
 62
4
  6
CONTINUOUS
 10
10.2557911207
 20
9.5324807138
 11
10.3137466737
 21
9.5284614826
  0
LINE
  5
32A
100
AcDbEntity
  8
0
100
AcDbLine
 62
4
  6
CONTINUOUS
 10
10.8054029484
 20
9.4943650041
 11
10.8633585014
 21
9.4903457729
  0
LINE
  5
32B
100
AcDbEntity
  8
0
100
AcDbLine
 62
4
  6
CONTINUOUS
 10
10.9019955368
 20
9.4876662854
 11
10.9599510898
 21
9.4836470541
  0
LINE
  5
32C
100
AcDbEntity
  8
0
100
AcDbLine
 62
4
  6
CONTINUOUS
 10
11.2690473725
 20
9.4622111541
 11
11.3270029255
 21
9.4581919228
  0
LINE
  5
32D
100
AcDbEntity
  8
0
100
AcDbLine
 62
4
  6
CONTINUOUS
 10
11.3656399609
 20
9.4555124353
 11
11.4235955139
 21
9.4514932041
  0
LINE
  5
32E
100
AcDbEntity
  8
0
100
AcDbLine
 62
4
  6
CONTINUOUS
 10
11.2231658931
 20
9.494370822
 11
11.2376547813
 21
9.4933660142
  0
LINE
  5
32F
100
AcDbEntity
  8
0
100
AcDbLine
 62
4
  6
CONTINUOUS
 10
10.3137466737
 20
9.5864170356
 11
10.2557911207
 21
9.5904362668
  0
LINE
  5
330
100
AcDbEntity
  8
0
100
AcDbLine
 62
4
  6
CONTINUOUS
 10
10.4296577797
 20
9.5783785731
 11
10.4876133328
 21
9.5743593418
  0
LINE
  5
331
100
AcDbEntity
  8
0
100
AcDbLine
 62
4
  6
CONTINUOUS
 10
12.3223895133
 20
8.8752890228
 11
12.3151450694
 21
8.8468136509
  0
LINE
  5
332
100
AcDbEntity
  8
0
100
AcDbLine
 62
4
  6
CONTINUOUS
 10
12.3513672892
 20
8.9602127348
 11
12.3658561771
 21
8.9495486707
  0
LINE
  5
333
100
AcDbEntity
  8
0
100
AcDbLine
 62
4
  6
CONTINUOUS
 10
12.3731006211
 20
8.9393870036
 11
12.3731006211
 21
8.920068491
  0
LINE
  5
334
100
AcDbEntity
  8
0
100
AcDbLine
 62
7
  6
CONTINUOUS
 10
12.3893940328
 20
6.4867371987
 11
12.3893940328
 21
6.1814262494
  0
LINE
  5
335
100
AcDbEntity
  8
0
100
AcDbLine
 62
7
  6
CONTINUOUS
 10
12.4038420572
 20
6.4857352249
 11
12.4038420572
 21
6.1953819701
  0
LINE
  5
336
100
AcDbEntity
  8
0
100
AcDbLine
 62
4
  6
CONTINUOUS
 10
9.2604044159
 20
9.9637332226
 11
9.2459155279
 21
9.9647380304
  0
LINE
  5
337
100
AcDbEntity
  8
0
100
AcDbLine
 62
4
  6
CONTINUOUS
 10
9.2459155279
 20
10.0323528384
 11
9.2604044159
 21
10.0313480306
  0
LINE
  5
338
100
AcDbEntity
  8
0
100
AcDbLine
 62
4
  6
CONTINUOUS
 10
9.2459155279
 20
10.0806491338
 11
9.2604044159
 21
10.079644326
  0
LINE
  5
339
100
AcDbEntity
  8
0
100
AcDbLine
 62
4
  6
CONTINUOUS
 10
12.3658561771
 20
8.9495486707
 11
12.3731006211
 21
8.9393870036
  0
LINE
  5
33A
100
AcDbEntity
  8
0
100
AcDbLine
 62
7
  6
CONTINUOUS
 10
12.5566265403
 20
6.475139585
 11
12.5566265403
 21
10.3388431191
  0
LINE
  5
33B
100
AcDbEntity
  8
0
100
AcDbLine
 62
7
  6
CONTINUOUS
 10
12.9448547875
 20
6.8501392977
 11
12.9448547875
 21
10.7138428318
  0
LINE
  5
33C
100
AcDbEntity
  8
0
100
AcDbLine
 62
7
  6
CONTINUOUS
 10
9.0551452125
 20
10.5816716739
 11
12.5566265403
 21
10.3388431191
  0
LINE
  5
33D
100
AcDbEntity
  8
0
100
AcDbLine
 62
7
  6
CONTINUOUS
 10
12.9448547875
 20
10.7138428318
 11
9.4433734597
 21
10.9566713866
  0
LINE
  5
33E
100
AcDbEntity
  8
0
100
AcDbLine
 62
7
  6
CONTINUOUS
 10
12.5566265403
 20
6.475139585
 11
12.9448547875
 21
6.8501392977
  0
LINE
  5
33F
100
AcDbEntity
  8
0
100
AcDbLine
 62
7
  6
CONTINUOUS
 10
12.3070979012
 20
6.1352630932
 11
12.2764238907
 21
6.1201107194
  0
ARC
  5
340
100
AcDbEntity
  8
0
100
AcDbCircle
 62
7
  6
CONTINUOUS
 10
11.7958543029
 20
8.2771297941
 40
2.210103635
100
AcDbArc
 50
273.2665005552
 51
274.6677615151
  0
ARC
  5
341
100
AcDbEntity
  8
0
100
AcDbCircle
 62
7
  6
CONTINUOUS
 10
11.7958543029
 20
8.6615332355
 40
2.210103635
100
AcDbArc
 50
273.2665005552
 51
274.6677615151
  0
ARC
  5
342
100
AcDbEntity
  8
0
100
AcDbCircle
 62
7
  6
CONTINUOUS
 10
11.5758797294
 20
7.4224973516
 40
0.9538158545
100
AcDbArc
 50
254.2644742826
 51
256.7139235525
  0
ARC
  5
343
100
AcDbEntity
  8
0
100
AcDbCircle
 62
7
  6
CONTINUOUS
 10
11.5758797294
 20
7.0380939102
 40
0.9538158545
100
AcDbArc
 50
254.2644742826
 51
256.7139235525
  0
ARC
  5
344
100
AcDbEntity
  8
0
100
AcDbCircle
 62
7
  6
CONTINUOUS
 10
11.9682168996
 20
6.8201582944
 40
0.7641475746
100
AcDbArc
 50
293.7608747297
 51
296.3085175792
  0
SPLINE
  5
345
100
AcDbEntity
  8
0
100
AcDbSpline
 62
7
  6
CONTINUOUS
 70
0
 71
3
 72
9
 73
5
 74
0
 42
0.0000001
 43
0.0000001
 44
0.0000000001
 40
0.0
 40
0.0
 40
0.0
 40
0.0
 40
0.2426770998
 40
1.0
 40
1.0
 40
1.0
 40
1.0
 10
12.3972117905
 20
6.1883629334
 30
0.0
 10
12.3966036
 20
6.1877754665
 30
0.0
 10
12.3940705486
 20
6.1853825853
 30
0.0
 10
12.3914348349
 20
6.1830991158
 30
0.0
 10
12.3893940328
 20
6.1814262494
 30
0.0
  0
SPLINE
  5
346
100
AcDbEntity
  8
0
100
AcDbSpline
 62
7
  6
CONTINUOUS
 70
0
 71
3
 72
9
 73
5
 74
0
 42
0.0000001
 43
0.0000001
 44
0.0000000001
 40
0.0
 40
0.0
 40
0.0
 40
0.0
 40
0.2426666479
 40
1.0
 40
1.0
 40
1.0
 40
1.0
 10
12.4038420572
 20
6.1953819701
 30
0.0
 10
12.4033344294
 20
6.1947881972
 30
0.0
 10
12.4012107336
 20
6.1923686127
 30
0.0
 10
12.3989653251
 20
6.1900567179
 30
0.0
 10
12.3972117905
 20
6.1883629334
 30
0.0
  0
SPLINE
  5
347
100
AcDbEntity
  8
0
100
AcDbSpline
 62
7
  6
CONTINUOUS
 70
0
 71
3
 72
9
 73
5
 74
0
 42
0.0000001
 43
0.0000001
 44
0.0000000001
 40
0.0
 40
0.0
 40
0.0
 40
0.0
 40
0.504378312
 40
1.0
 40
1.0
 40
1.0
 40
1.0
 10
12.3893940328
 20
6.1814262494
 30
0.0
 10
12.3758902826
 20
6.1730173957
 30
0.0
 10
12.3487774452
 20
6.1568827397
 30
0.0
 10
12.3209046487
 20
6.1420855449
 30
0.0
 10
12.3068905107
 20
6.1351607025
 30
0.0
  0
SPLINE
  5
348
100
AcDbEntity
  8
0
100
AcDbSpline
 62
7
  6
CONTINUOUS
 70
0
 71
3
 72
23
 73
19
 74
0
 42
0.0000001
 43
0.0000001
 44
0.0000000001
 40
0.0
 40
0.0
 40
0.0
 40
0.0
 40
0.0436203086
 40
0.0892268542
 40
0.137068591
 40
0.187353676
 40
0.2402538462
 40
0.2958872461
 40
0.3543311569
 40
0.4156094827
 40
0.4797102731
 40
0.5465788188
 40
0.6161346312
 40
0.6882694307
 40
0.7628606873
 40
0.8397744221
 40
0.9188692703
 40
1.0
 40
1.0
 40
1.0
 40
1.0
 10
11.2741960138
 20
6.1295011619
 30
0.0
 10
11.2718860781
 20
6.1306417304
 30
0.0
 10
11.2672489544
 20
6.1331568269
 30
0.0
 10
11.260421665
 20
6.1375178789
 30
0.0
 10
11.2535852761
 20
6.1425601655
 30
0.0
 10
11.2467437264
 20
6.1482910978
 30
0.0
 10
11.2399026282
 20
6.1547147486
 30
0.0
 10
11.2330650877
 20
6.161826321
 30
0.0
 10
11.2262368285
 20
6.169617133
 30
0.0
 10
11.2194205844
 20
6.1780705355
 30
0.0
 10
11.2126214159
 20
6.1871664414
 30
0.0
 10
11.2058415657
 20
6.1968788233
 30
0.0
 10
11.1990848988
 20
6.2071793714
 30
0.0
 10
11.1923530118
 20
6.2180363255
 30
0.0
 10
11.1856482948
 20
6.229417179
 30
0.0
 10
11.1789716456
 20
6.2412882614
 30
0.0
 10
11.1723241531
 20
6.2536161005
 30
0.0
 10
11.1679650351
 20
6.2620155176
 30
0.0
 10
11.1657875035
 20
6.2662836504
 30
0.0
  0
SPLINE
  5
349
100
AcDbEntity
  8
0
100
AcDbSpline
 62
7
  6
CONTINUOUS
 70
0
 71
3
 72
47
 73
43
 74
0
 42
0.0000001
 43
0.0000001
 44
0.0000000001
 40
0.0
 40
0.0
 40
0.0
 40
0.0
 40
0.0099874638
 40
0.0204476834
 40
0.0313771515
 40
0.0427708334
 40
0.0546218702
 40
0.0669225517
 40
0.0796641282
 40
0.0928362942
 40
0.1204271347
 40
0.1495984091
 40
0.1802407165
 40
0.2122338314
 40
0.2454489836
 40
0.2797497839
 40
0.3149929168
 40
0.3510298084
 40
0.3877071885
 40
0.4248680172
 40
0.4623527228
 40
0.4999997959
 40
0.5376468789
 40
0.575131606
 40
0.6122924455
 40
0.6489698269
 40
0.6850067267
 40
0.7202498875
 40
0.7545507276
 40
0.7877659112
 40
0.8197590481
 40
0.8504013805
 40
0.8795726993
 40
0.9071635849
 40
0.9203357726
 40
0.933077377
 40
0.9453780958
 40
0.9572291635
 40
0.968622847
 40
0.9795522717
 40
0.9900124597
 40
1.0
 40
1.0
 40
1.0
 40
1.0
 10
12.2764277761
 20
6.120112674
 30
0.0
 10
12.2734372418
 20
6.1186353963
 30
0.0
 10
12.2672635354
 20
6.1157134805
 30
0.0
 10
12.257661337
 20
6.1115140368
 30
0.0
 10
12.2475131589
 20
6.107401202
 30
0.0
 10
12.2368307109
 20
6.1033799922
 30
0.0
 10
12.2256263352
 20
6.099454687
 30
0.0
 10
12.2139128346
 20
6.0956299679
 30
0.0
 10
12.2017035786
 20
6.0919103971
 30
0.0
 10
12.1845157498
 20
6.0870208653
 30
0.0
 10
12.1618854375
 20
6.0812253838
 30
0.0
 10
12.1333941592
 20
6.0748567116
 30
0.0
 10
12.1032941102
 20
6.0690011877
 30
0.0
 10
12.071724104
 20
6.063685846
 30
0.0
 10
12.038829446
 20
6.0589356896
 30
0.0
 10
12.0047617949
 20
6.0547731575
 30
0.0
 10
11.9696783364
 20
6.0512174295
 30
0.0
 10
11.9337410155
 20
6.0482852591
 30
0.0
 10
11.8971157546
 20
6.0459904745
 30
0.0
 10
11.8599717221
 20
6.044343527
 30
0.0
 10
11.8224804982
 20
6.043352291
 30
0.0
 10
11.7848152579
 20
6.0430214344
 30
0.0
 10
11.7471500103
 20
6.0433522743
 30
0.0
 10
11.7096587719
 20
6.0443434943
 30
0.0
 10
11.6725147274
 20
6.045990425
 30
0.0
 10
11.6358894587
 20
6.0482851935
 30
0.0
 10
11.599952124
 20
6.051217347
 30
0.0
 10
11.5648686384
 20
6.0547730604
 30
0.0
 10
11.5308009522
 20
6.0589355779
 30
0.0
 10
11.4979062609
 20
6.0636857209
 30
0.0
 10
11.4663362255
 20
6.0690010468
 30
0.0
 10
11.4362361426
 20
6.0748565564
 30
0.0
 10
11.407744823
 20
6.081225219
 30
0.0
 10
11.385114469
 20
6.0870206871
 30
0.0
 10
11.3679266045
 20
6.0919102094
 30
0.0
 10
11.3557173178
 20
6.0956297787
 30
0.0
 10
11.3440037857
 20
6.099454505
 30
0.0
 10
11.3327993863
 20
6.1033798128
 30
0.0
 10
11.3221169355
 20
6.1074010043
 30
0.0
 10
11.3119687634
 20
6.1115137881
 30
0.0
 10
11.3023665475
 20
6.1157131934
 30
0.0
 10
11.2961928263
 20
6.1186351141
 30
0.0
 10
11.2932022733
 20
6.1201124117
 30
0.0
  0
SPLINE
  5
34A
100
AcDbEntity
  8
0
100
AcDbSpline
 62
7
  6
CONTINUOUS
 70
0
 71
3
 72
15
 73
11
 74
0
 42
0.0000001
 43
0.0000001
 44
0.0000000001
 40
0.0
 40
0.0
 40
0.0
 40
0.0
 40
0.1299708166
 40
0.2593283487
 40
0.3876617857
 40
0.5145654289
 40
0.6396384778
 40
0.7624890516
 40
0.8827334041
 40
1.0
 40
1.0
 40
1.0
 40
1.0
 10
11.7695936258
 20
6.5295845285
 30
0.0
 10
11.7591427977
 20
6.5296610609
 30
0.0
 10
11.7382912601
 20
6.5299712049
 30
0.0
 10
11.7071318432
 20
6.5309081742
 30
0.0
 10
11.6762368199
 20
6.5323134805
 30
0.0
 10
11.6457114732
 20
6.5341818654
 30
0.0
 10
11.6156596761
 20
6.5365073986
 30
0.0
 10
11.5861836752
 20
6.5392816127
 30
0.0
 10
11.5573839181
 20
6.5424954177
 30
0.0
 10
11.5384433216
 20
6.5449567437
 30
0.0
 10
11.5291046195
 20
6.5462624977
 30
0.0
  0
SPLINE
  5
34B
100
AcDbEntity
  8
0
100
AcDbSpline
 62
7
  6
CONTINUOUS
 70
0
 71
3
 72
10
 73
6
 74
0
 42
0.0000001
 43
0.0000001
 44
0.0000000001
 40
0.0
 40
0.0
 40
0.0
 40
0.0
 40
0.4950633206
 40
0.7463873743
 40
1.0
 40
1.0
 40
1.0
 40
1.0
 10
12.0671270389
 20
6.50936208
 30
0.0
 10
12.051567169
 20
6.5019147807
 30
0.0
 10
12.0284765004
 20
6.4899021548
 30
0.0
 10
11.9982496342
 20
6.4725644433
 30
0.0
 10
11.9832090059
 20
6.4634310049
 30
0.0
 10
11.9757074978
 20
6.4587597778
 30
0.0
  0
SPLINE
  5
34C
100
AcDbEntity
  8
0
100
AcDbSpline
 62
7
  6
CONTINUOUS
 70
0
 71
3
 72
21
 73
17
 74
0
 42
0.0000001
 43
0.0000001
 44
0.0000000001
 40
0.0
 40
0.0
 40
0.0
 40
0.0
 40
0.1230212981
 40
0.1847065752
 40
0.2465215318
 40
0.3084771567
 40
0.3705832678
 40
0.432847904
 40
0.4952752623
 40
0.5578663069
 40
0.6206183946
 40
0.6835249868
 40
0.7465773451
 40
0.8097643485
 40
0.8730733734
 40
1.0
 40
1.0
 40
1.0
 40
1.0
 10
11.9217866955
 20
6.0706169095
 30
0.0
 10
11.8987075145
 20
6.0660695533
 30
0.0
 10
11.863875073
 20
6.060097147
 30
0.0
 10
11.817103858
 20
6.0541869996
 30
0.0
 10
11.7817925494
 20
6.0508597856
 30
0.0
 10
11.7463081066
 20
6.048725378
 30
0.0
 10
11.7106833855
 20
6.0478546417
 30
0.0
 10
11.674960174
 20
6.0483035369
 30
0.0
 10
11.6391865523
 20
6.0501055356
 30
0.0
 10
11.6034140261
 20
6.0532688215
 30
0.0
 10
11.5676940862
 20
6.0577777721
 30
0.0
 10
11.5320744728
 20
6.0635920139
 30
0.0
 10
11.4965963333
 20
6.070649728
 30
0.0
 10
11.4612921426
 20
6.0788754177
 30
0.0
 10
11.4144482164
 20
6.0912949697
 30
0.0
 10
11.3796878067
 20
6.1020827641
 30
0.0
 10
11.3566802209
 20
6.1098071766
 30
0.0
  0
SPLINE
  5
34D
100
AcDbEntity
  8
0
100
AcDbSpline
 62
7
  6
CONTINUOUS
 70
0
 71
3
 72
21
 73
17
 74
0
 42
0.0000001
 43
0.0000001
 44
0.0000000001
 40
0.0
 40
0.0
 40
0.0
 40
0.0
 40
0.1269266266
 40
0.1902356515
 40
0.253422655
 40
0.3164750132
 40
0.3793816055
 40
0.4421336932
 40
0.5047247377
 40
0.567152096
 40
0.6294167323
 40
0.6915228434
 40
0.7534784683
 40
0.8152934248
 40
0.8769787019
 40
1.0
 40
1.0
 40
1.0
 40
1.0
 10
11.9217866955
 20
6.4550203508
 30
0.0
 10
11.8987791097
 20
6.4627447634
 30
0.0
 10
11.8640187
 20
6.4735325577
 30
0.0
 10
11.8171747739
 20
6.4859521098
 30
0.0
 10
11.7818705831
 20
6.4941777995
 30
0.0
 10
11.7463924436
 20
6.5012355135
 30
0.0
 10
11.7107728302
 20
6.5070497553
 30
0.0
 10
11.6750528903
 20
6.5115587059
 30
0.0
 10
11.6392803641
 20
6.5147219918
 30
0.0
 10
11.6035067424
 20
6.5165239906
 30
0.0
 10
11.5677835309
 20
6.5169728858
 30
0.0
 10
11.5321588098
 20
6.5161021494
 30
0.0
 10
11.496674367
 20
6.5139677418
 30
0.0
 10
11.4613630584
 20
6.5106405278
 30
0.0
 10
11.4145918435
 20
6.5047303804
 30
0.0
 10
11.3797594019
 20
6.4987579741
 30
0.0
 10
11.3566802209
 20
6.4942106179
 30
0.0
  0
SPLINE
  5
34E
100
AcDbEntity
  8
0
100
AcDbSpline
 62
7
  6
CONTINUOUS
 70
0
 71
3
 72
11
 73
7
 74
0
 42
0.0000001
 43
0.0000001
 44
0.0000000001
 40
0.0
 40
0.0
 40
0.0
 40
0.0
 40
0.2465919593
 40
0.494712682
 40
0.7454424776
 40
1.0
 40
1.0
 40
1.0
 40
1.0
 10
11.317207443
 20
6.1200234704
 30
0.0
 10
11.3152650301
 20
6.1199686357
 30
0.0
 10
11.3113637204
 20
6.1199759822
 30
0.0
 10
11.3054980292
 20
6.120359504
 30
0.0
 10
11.2996079572
 20
6.1211377864
 30
0.0
 10
11.2957015001
 20
6.1219273342
 30
0.0
 10
11.293750055
 20
6.1223917956
 30
0.0
  0
SPLINE
  5
34F
100
AcDbEntity
  8
0
100
AcDbSpline
 62
7
  6
CONTINUOUS
 70
0
 71
3
 72
10
 73
6
 74
0
 42
0.0000001
 43
0.0000001
 44
0.0000000001
 40
0.0
 40
0.0
 40
0.0
 40
0.0
 40
0.2418255986
 40
0.4885199497
 40
1.0
 40
1.0
 40
1.0
 40
1.0
 10
11.293750055
 20
6.1223917956
 30
0.0
 10
11.2921155375
 20
6.1227808253
 30
0.0
 10
11.2888352272
 20
6.1236616859
 30
0.0
 10
11.2822363268
 20
6.1258439912
 30
0.0
 10
11.2773824484
 20
6.1279278075
 30
0.0
 10
11.2741960138
 20
6.1295011619
 30
0.0
  0
SPLINE
  5
350
100
AcDbEntity
  8
0
100
AcDbSpline
 62
7
  6
CONTINUOUS
 70
0
 71
3
 72
11
 73
7
 74
0
 42
0.0000001
 43
0.0000001
 44
0.0000000001
 40
0.0
 40
0.0
 40
0.0
 40
0.0
 40
0.2633952514
 40
0.5183435581
 40
0.764111363
 40
1.0
 40
1.0
 40
1.0
 40
1.0
 10
11.317207443
 20
6.5044269117
 30
0.0
 10
11.3144909565
 20
6.5097514385
 30
0.0
 10
11.3090541588
 20
6.5201837483
 30
0.0
 10
11.3007279916
 20
6.5353962342
 30
0.0
 10
11.2923575312
 20
6.5498678773
 30
0.0
 10
11.2866260542
 20
6.5591776171
 30
0.0
 10
11.2837455337
 20
6.5636897717
 30
0.0
  0
LINE
  5
351
100
AcDbEntity
  8
0
100
AcDbLine
 62
7
  6
CONTINUOUS
 10
12.2761075525
 20
6.1207836726
 11
12.2753784385
 21
6.120463785
  0
SPLINE
  5
352
100
AcDbEntity
  8
0
100
AcDbSpline
 62
7
  6
CONTINUOUS
 70
0
 71
3
 72
15
 73
11
 74
0
 42
0.0000001
 43
0.0000001
 44
0.0000000001
 40
0.0
 40
0.0
 40
0.0
 40
0.0
 40
0.1321602046
 40
0.2618009952
 40
0.3890353631
 40
0.5141096583
 40
0.6373677171
 40
0.75919507
 40
0.8799649792
 40
1.0
 40
1.0
 40
1.0
 40
1.0
 10
12.2753784385
 20
6.120463785
 30
0.0
 10
12.2629973351
 20
6.1150400428
 30
0.0
 10
12.2381565712
 20
6.1049930537
 30
0.0
 10
12.2003625081
 20
6.0924596163
 30
0.0
 10
12.1624917387
 20
6.0827423268
 30
0.0
 10
12.124665363
 20
6.0758738226
 30
0.0
 10
12.0869979771
 20
6.0717739941
 30
0.0
 10
12.0495823951
 20
6.0702673062
 30
0.0
 10
12.0124815585
 20
6.0711141539
 30
0.0
 10
11.9879171391
 20
6.0730735039
 30
0.0
 10
11.9757074978
 20
6.0743563364
 30
0.0
  0
SPLINE
  5
353
100
AcDbEntity
  8
0
100
AcDbSpline
 62
7
  6
CONTINUOUS
 70
0
 71
3
 72
91
 73
87
 74
0
 42
0.0000001
 43
0.0000001
 44
0.0000000001
 40
0.0
 40
0.0
 40
0.0
 40
0.0
 40
0.0039801824
 40
0.0081241125
 40
0.0124359604
 40
0.0169193082
 40
0.0215771808
 40
0.0264119179
 40
0.0314251804
 40
0.036618156
 40
0.0419915391
 40
0.0475456573
 40
0.0532804234
 40
0.0591954189
 40
0.0652899227
 40
0.0715629017
 40
0.0780131034
 40
0.0846389837
 40
0.0984102885
 40
0.1128608532
 40
0.1279713725
 40
0.1437199568
 40
0.1600824082
 40
0.1770324532
 40
0.1945419392
 40
0.2125810061
 40
0.2311182422
 40
0.2501208275
 40
0.2695546626
 40
0.2893844909
 40
0.3095740146
 40
0.330086005
 40
0.35088241
 40
0.3719244606
 40
0.3931727759
 40
0.4145874652
 40
0.4361282289
 40
0.4577544586
 40
0.4794253371
 40
0.501099938
 40
0.5227373261
 40
0.5442966575
 40
0.5657372785
 40
0.5870188258
 40
0.6081013261
 40
0.6289452975
 40
0.6495118524
 40
0.6697628021
 40
0.6896607608
 40
0.7091692527
 40
0.7282528228
 40
0.7468771515
 40
0.7650091753
 40
0.7826172172
 40
0.7996711268
 40
0.8161424293
 40
0.8320044948
 40
0.8472327309
 40
0.8618048077
 40
0.8757009255
 40
0.8889041429
 40
0.8952417292
 40
0.9014012652
 40
0.9073816417
 40
0.9131820083
 40
0.9188018518
 40
0.9242409423
 40
0.9294994633
 40
0.9345779585
 40
0.9394774438
 40
0.944199427
 40
0.9487459568
 40
0.95311974
 40
0.9573241405
 40
0.9613633601
 40
0.9652424499
 40
0.9689674846
 40
0.9725456466
 40
0.9759853437
 40
0.9824865016
 40
0.9855753543
 40
0.9885738189
 40
0.9914977372
 40
0.9943643366
 40
0.9971920099
 40
1.0
 40
1.0
 40
1.0
 40
1.0
 10
11.3327614669
 20
10.6246801667
 30
0.0
 10
11.331460235
 20
10.6234232732
 30
0.0
 10
11.3287451456
 20
10.6209183757
 30
0.0
 10
11.3244344186
 20
10.6172597843
 30
0.0
 10
11.3198071389
 20
10.6136274365
 30
0.0
 10
11.314865845
 20
10.6100232608
 30
0.0
 10
11.3096129459
 20
10.6064489405
 30
0.0
 10
11.3040510155
 20
10.6029062145
 30
0.0
 10
11.2981828355
 20
10.5993967815
 30
0.0
 10
11.2920113174
 20
10.5959224626
 30
0.0
 10
11.2855395778
 20
10.5924849255
 30
0.0
 10
11.2787708338
 20
10.5890859387
 30
0.0
 10
11.2717084888
 20
10.5857271739
 30
0.0
 10
11.2643560854
 20
10.5824103285
 30
0.0
 10
11.2567173144
 20
10.5791370929
 30
0.0
 10
11.2487960313
 20
10.5759090842
 30
0.0
 10
11.2405962023
 20
10.5727279621
 30
0.0
 10
11.22914969
 20
10.5684966221
 30
0.0
 10
11.2141679895
 20
10.5633469993
 30
0.0
 10
11.1953711488
 20
10.5574561414
 30
0.0
 10
11.1755691923
 20
10.5517891585
 30
0.0
 10
11.1548020923
 20
10.546357578
 30
0.0
 10
11.1331116198
 20
10.5411724639
 30
0.0
 10
11.1105415167
 20
10.5362443788
 30
0.0
 10
11.087137323
 20
10.531583364
 30
0.0
 10
11.0629463005
 20
10.5271989121
 30
0.0
 10
11.0380173241
 20
10.5230999511
 30
0.0
 10
11.0124007783
 20
10.519294826
 30
0.0
 10
10.9861484514
 20
10.5157912825
 30
0.0
 10
10.9593134282
 20
10.5125964509
 30
0.0
 10
10.9319499812
 20
10.5097168325
 30
0.0
 10
10.9041134599
 20
10.5071582872
 30
0.0
 10
10.8758601784
 20
10.5049260182
 30
0.0
 10
10.8472472988
 20
10.5030245639
 30
0.0
 10
10.8183327144
 20
10.5014577901
 30
0.0
 10
10.789174931
 20
10.500228882
 30
0.0
 10
10.7598329482
 20
10.4993403384
 30
0.0
 10
10.7303661405
 20
10.4987939664
 30
0.0
 10
10.7008341362
 20
10.4985908782
 30
0.0
 10
10.6712966968
 20
10.4987314864
 30
0.0
 10
10.6418135943
 20
10.4992155038
 30
0.0
 10
10.61244449
 20
10.5000419456
 30
0.0
 10
10.583248813
 20
10.5012091317
 30
0.0
 10
10.5542856406
 20
10.5027146893
 30
0.0
 10
10.5256135781
 20
10.5045555582
 30
0.0
 10
10.4972906393
 20
10.5067279966
 30
0.0
 10
10.4693741277
 20
10.5092275871
 30
0.0
 10
10.4419205187
 20
10.5120492438
 30
0.0
 10
10.4149853449
 20
10.5151872263
 30
0.0
 10
10.3886230835
 20
10.5186351496
 30
0.0
 10
10.3628870443
 20
10.5223859972
 30
0.0
 10
10.3378292608
 20
10.5264321348
 30
0.0
 10
10.3135003816
 20
10.5307653261
 30
0.0
 10
10.2899495632
 20
10.5353767473
 30
0.0
 10
10.2672243643
 20
10.5402570042
 30
0.0
 10
10.2453706486
 20
10.5453961543
 30
0.0
 10
10.2244324783
 20
10.5507837286
 30
0.0
 10
10.2044520426
 20
10.5564087539
 30
0.0
 10
10.1854694722
 20
10.5622597813
 30
0.0
 10
10.1675230508
 20
10.5683249129
 30
0.0
 10
10.1532729097
 20
10.5736170477
 30
0.0
 10
10.142427083
 20
10.5779578996
 30
0.0
 10
10.1346851197
 20
10.581214902
 30
0.0
 10
10.1272281432
 20
10.5845160673
 30
0.0
 10
10.1200599037
 20
10.5878597948
 30
0.0
 10
10.1131839874
 20
10.5912443405
 30
0.0
 10
10.1066038633
 20
10.5946680684
 30
0.0
 10
10.1003228069
 20
10.5981292046
 30
0.0
 10
10.0943439745
 20
10.6016260645
 30
0.0
 10
10.0886703448
 20
10.6051568918
 30
0.0
 10
10.0833047388
 20
10.6087199314
 30
0.0
 10
10.0782498481
 20
10.6123134733
 30
0.0
 10
10.0735081517
 20
10.6159357079
 30
0.0
 10
10.0690820498
 20
10.6195849647
 30
0.0
 10
10.0649737102
 20
10.6232594291
 30
0.0
 10
10.0611852045
 20
10.6269574641
 30
0.0
 10
10.0577185198
 20
10.6306772074
 30
0.0
 10
10.0545751524
 20
10.6344174057
 30
0.0
 10
10.0508876857
 20
10.6393353352
 30
0.0
 10
10.0477564261
 20
10.6443858233
 30
0.0
 10
10.0452703421
 20
10.649544152
 30
0.0
 10
10.0437682613
 20
10.6533591211
 30
0.0
 10
10.0425985362
 20
10.6571833726
 30
0.0
 10
10.041762126
 20
10.661015049
 30
0.0
 10
10.0412599549
 20
10.6648514186
 30
0.0
 10
10.0411481612
 20
10.667414414
 30
0.0
 10
10.0411481614
 20
10.6686907489
 30
0.0
  0
SPLINE
  5
354
100
AcDbEntity
  8
0
100
AcDbSpline
 62
7
  6
CONTINUOUS
 70
0
 71
3
 72
18
 73
14
 74
0
 42
0.0000001
 43
0.0000001
 44
0.0000000001
 40
0.0
 40
0.0
 40
0.0
 40
0.0
 40
0.150467608
 40
0.291710008
 40
0.4244359371
 40
0.549562455
 40
0.6682139939
 40
0.7255497488
 40
0.7817912909
 40
0.8371402503
 40
0.8918093826
 40
0.9460201179
 40
1.0
 40
1.0
 40
1.0
 40
1.0
 10
12.7507406639
 20
9.6888851994
 30
0.0
 10
12.7527054919
 20
9.6907830776
 30
0.0
 10
12.756632358
 20
9.6943439856
 30
0.0
 10
12.7627130785
 20
9.6990895034
 30
0.0
 10
12.7687866568
 20
9.7030584152
 30
0.0
 10
12.7748468048
 20
9.7062442065
 30
0.0
 10
12.7799402925
 20
9.7082643577
 30
0.0
 10
12.7839842966
 20
9.7094646107
 30
0.0
 10
12.7869742235
 20
9.7101564195
 30
0.0
 10
12.7899542309
 20
9.7106494893
 30
0.0
 10
12.7929234841
 20
9.7109436458
 30
0.0
 10
12.7958808019
 20
9.7110387357
 30
0.0
 10
12.7978455588
 20
9.7109692445
 30
0.0
 10
12.7988232216
 20
9.7109014475
 30
0.0
  0
SPLINE
  5
355
100
AcDbEntity
  8
0
100
AcDbSpline
 62
7
  6
CONTINUOUS
 70
0
 71
3
 72
23
 73
19
 74
0
 42
0.0000001
 43
0.0000001
 44
0.0000000001
 40
0.0
 40
0.0
 40
0.0
 40
0.0
 40
0.0637774716
 40
0.1273446947
 40
0.1907020108
 40
0.2538561385
 40
0.3168131788
 40
0.379582097
 40
0.4421733871
 40
0.5045993393
 40
0.5668738666
 40
0.62901238
 40
0.6910316508
 40
0.7529496465
 40
0.8147853569
 40
0.8765586065
 40
0.938289857
 40
1.0
 40
1.0
 40
1.0
 40
1.0
 10
10.9290414265
 20
7.6138263193
 30
0.0
 10
10.9290414265
 20
7.6070376346
 30
0.0
 10
10.9287165085
 20
7.5934803439
 30
0.0
 10
10.9272499074
 20
7.5732268484
 30
0.0
 10
10.924808064
 20
7.5531339443
 30
0.0
 10
10.9213967302
 20
7.5332486954
 30
0.0
 10
10.9170236015
 20
7.5136166498
 30
0.0
 10
10.9116987695
 20
7.4942831596
 30
0.0
 10
10.9054344327
 20
7.4752927768
 30
0.0
 10
10.8982450031
 20
7.4566892989
 30
0.0
 10
10.8901470235
 20
7.4385156269
 30
0.0
 10
10.8811591329
 20
7.4208136774
 30
0.0
 10
10.8713020291
 20
7.4036242873
 30
0.0
 10
10.860598406
 20
7.386987104
 30
0.0
 10
10.8490729572
 20
7.3709405509
 30
0.0
 10
10.836752118
 20
7.3555215229
 30
0.0
 10
10.8236647935
 20
7.3407660673
 30
0.0
 10
10.8144472971
 20
7.3313924473
 30
0.0
 10
10.8097227809
 20
7.3268289108
 30
0.0
  0
SPLINE
  5
356
100
AcDbEntity
  8
0
100
AcDbSpline
 62
7
  6
CONTINUOUS
 70
0
 71
3
 72
21
 73
17
 74
0
 42
0.0000001
 43
0.0000001
 44
0.0000000001
 40
0.0
 40
0.0
 40
0.0
 40
0.0
 40
0.1273175725
 40
0.2538000026
 40
0.3167619332
 40
0.3795354925
 40
0.4421314982
 40
0.5045621433
 40
0.5668413429
 40
0.6289845306
 40
0.6910084612
 40
0.7529311022
 40
0.8147714553
 40
0.8765493457
 40
0.9382852283
 40
1.0
 40
1.0
 40
1.0
 40
1.0
 10
11.5530295473
 20
10.0462206006
 30
0.0
 10
11.5530295473
 20
10.0397222743
 30
0.0
 10
11.5524092399
 20
10.0267598838
 30
0.0
 10
11.5500665607
 20
10.010735567
 30
0.0
 10
11.5472665211
 20
9.9981658876
 30
0.0
 10
11.5447130337
 20
9.988894491
 30
0.0
 10
11.5417090478
 20
9.9797878217
 30
0.0
 10
11.5382614124
 20
9.9708666426
 30
0.0
 10
11.534378108
 20
9.9621515801
 30
0.0
 10
11.5300680656
 20
9.9536627163
 30
0.0
 10
11.5253411718
 20
9.9454196605
 30
0.0
 10
11.520208343
 20
9.9374414072
 30
0.0
 10
11.5146814352
 20
9.9297463695
 30
0.0
 10
11.5087730949
 20
9.9223522597
 30
0.0
 10
11.5024971779
 20
9.9152763731
 30
0.0
 10
11.4980770277
 20
9.9107812868
 30
0.0
 10
11.4958114247
 20
9.9085928706
 30
0.0
  0
SPLINE
  5
357
100
AcDbEntity
  8
0
100
AcDbSpline
 62
7
  6
CONTINUOUS
 70
0
 71
3
 72
21
 73
17
 74
0
 42
0.0000001
 43
0.0000001
 44
0.0000000001
 40
0.0
 40
0.0
 40
0.0
 40
0.0
 40
0.1273175725
 40
0.2538000026
 40
0.3167619332
 40
0.3795354925
 40
0.4421314982
 40
0.5045621433
 40
0.5668413429
 40
0.6289845306
 40
0.6910084612
 40
0.7529311022
 40
0.8147714553
 40
0.8765493457
 40
0.9382852283
 40
1.0
 40
1.0
 40
1.0
 40
1.0
 10
10.4663629283
 20
6.9823220651
 30
0.0
 10
10.4663629283
 20
6.9758237388
 30
0.0
 10
10.4657426209
 20
6.9628613483
 30
0.0
 10
10.4633999418
 20
6.9468370315
 30
0.0
 10
10.4605999021
 20
6.9342673522
 30
0.0
 10
10.4580464147
 20
6.9249959556
 30
0.0
 10
10.4550424288
 20
6.9158892863
 30
0.0
 10
10.4515947935
 20
6.9069681071
 30
0.0
 10
10.447711489
 20
6.8982530446
 30
0.0
 10
10.4434014467
 20
6.8897641809
 30
0.0
 10
10.4386745529
 20
6.881521125
 30
0.0
 10
10.4335417241
 20
6.8735428718
 30
0.0
 10
10.4280148163
 20
6.865847834
 30
0.0
 10
10.422106476
 20
6.8584537242
 30
0.0
 10
10.4158305589
 20
6.8513778376
 30
0.0
 10
10.4114104087
 20
6.8468827514
 30
0.0
 10
10.4091448058
 20
6.8446943351
 30
0.0
  0
SPLINE
  5
358
100
AcDbEntity
  8
0
100
AcDbSpline
 62
7
  6
CONTINUOUS
 70
0
 71
3
 72
38
 73
34
 74
0
 42
0.0000001
 43
0.0000001
 44
0.0000000001
 40
0.0
 40
0.0
 40
0.0
 40
0.0
 40
0.0321880772
 40
0.0641052868
 40
0.0957532718
 40
0.1271443966
 40
0.1583025542
 40
0.1892608582
 40
0.2200598069
 40
0.2507449779
 40
0.2813650772
 40
0.3119703329
 40
0.342611265
 40
0.3733377387
 40
0.4041982583
 40
0.4352394499
 40
0.4665053504
 40
0.4980363555
 40
0.5620073231
 40
0.5945054929
 40
0.6273383297
 40
0.6604712032
 40
0.693829469
 40
0.7272875705
 40
0.7606635073
 40
0.793725285
 40
0.8262144799
 40
0.857884969
 40
0.8885431637
 40
0.9180754658
 40
0.9464547908
 40
0.9737287408
 40
1.0
 40
1.0
 40
1.0
 40
1.0
 10
10.3902746939
 20
7.7684175871
 30
0.0
 10
10.3902746939
 20
7.7635721562
 30
0.0
 10
10.3906464903
 20
7.7539177072
 30
0.0
 10
10.3923279971
 20
7.7395876517
 30
0.0
 10
10.3951079599
 20
7.7255510885
 30
0.0
 10
10.3989498086
 20
7.7118864763
 30
0.0
 10
10.4038059216
 20
7.6986595773
 30
0.0
 10
10.4096210907
 20
7.6859240432
 30
0.0
 10
10.4163356934
 20
7.6737209914
 30
0.0
 10
10.4238887132
 20
7.6620799588
 30
0.0
 10
10.4322201623
 20
7.6510202709
 30
0.0
 10
10.4412729179
 20
7.6405527258
 30
0.0
 10
10.4509939591
 20
7.6306813466
 30
0.0
 10
10.4613350501
 20
7.6214050719
 30
0.0
 10
10.472253048
 20
7.6127192578
 30
0.0
 10
10.4837096068
 20
7.6046171131
 30
0.0
 10
10.4956714272
 20
7.5970905367
 30
0.0
 10
10.5123305224
 20
7.5877693325
 30
0.0
 10
10.5298280399
 20
7.5796182849
 30
0.0
 10
10.5479908326
 20
7.572607937
 30
0.0
 10
10.5620435916
 20
7.567878484
 30
0.0
 10
10.5764077842
 20
7.563713008
 30
0.0
 10
10.5910234989
 20
7.5601231831
 30
0.0
 10
10.6058093306
 20
7.5571257029
 30
0.0
 10
10.6206610019
 20
7.554740291
 30
0.0
 10
10.6354537661
 20
7.552987072
 30
0.0
 10
10.6500518897
 20
7.551883015
 30
0.0
 10
10.6643233241
 20
7.5514388424
 30
0.0
 10
10.6781552965
 20
7.5516576097
 30
0.0
 10
10.6914651546
 20
7.5525353661
 30
0.0
 10
10.7042038837
 20
7.554063679
 30
0.0
 10
10.7163510705
 20
7.5562324379
 30
0.0
 10
10.7241909298
 20
7.5581321979
 30
0.0
 10
10.7280017488
 20
7.5591893879
 30
0.0
  0
SPLINE
  5
359
100
AcDbEntity
  8
0
100
AcDbSpline
 62
7
  6
CONTINUOUS
 70
0
 71
3
 72
15
 73
11
 74
0
 42
0.0000001
 43
0.0000001
 44
0.0000000001
 40
0.0
 40
0.0
 40
0.0
 40
0.0
 40
0.1264868284
 40
0.2527318615
 40
0.3786480913
 40
0.5041408801
 40
0.6291131096
 40
0.7534693471
 40
0.877123234
 40
1.0
 40
1.0
 40
1.0
 40
1.0
 10
10.4147228071
 20
7.8649830556
 30
0.0
 10
10.412779258
 20
7.8612155485
 30
0.0
 10
10.4090941717
 20
7.8535833708
 30
0.0
 10
10.4042055009
 20
7.8418654275
 30
0.0
 10
10.3999947122
 20
7.8299216876
 30
0.0
 10
10.3964955968
 20
7.8177944815
 30
0.0
 10
10.3937383361
 20
7.8055305983
 30
0.0
 10
10.391748381
 20
7.7931810084
 30
0.0
 10
10.390545139
 20
7.7808009084
 30
0.0
 10
10.3902746939
 20
7.7725358735
 30
0.0
 10
10.3902746939
 20
7.7684175871
 30
0.0
  0
SPLINE
  5
35A
100
AcDbEntity
  8
0
100
AcDbSpline
 62
7
  6
CONTINUOUS
 70
0
 71
3
 72
21
 73
17
 74
0
 42
0.0000001
 43
0.0000001
 44
0.0000000001
 40
0.0
 40
0.0
 40
0.0
 40
0.0
 40
0.12731758
 40
0.2538000122
 40
0.3167619425
 40
0.3795355005
 40
0.4421315041
 40
0.5045621466
 40
0.5668413435
 40
0.6289845285
 40
0.6910084568
 40
0.7529310961
 40
0.8147714484
 40
0.8765493394
 40
0.9382852242
 40
1.0
 40
1.0
 40
1.0
 40
1.0
 10
10.7429322868
 20
7.6390586841
 30
0.0
 10
10.7429322868
 20
7.6318211647
 30
0.0
 10
10.7422414142
 20
7.6173842857
 30
0.0
 10
10.7396322353
 20
7.5995371846
 30
0.0
 10
10.7365136673
 20
7.5855376931
 30
0.0
 10
10.7336696992
 20
7.5752116689
 30
0.0
 10
10.7303239849
 20
7.565069112
 30
0.0
 10
10.7264841525
 20
7.5551331475
 30
0.0
 10
10.7221590904
 20
7.5454267483
 30
0.0
 10
10.7173587459
 20
7.5359722813
 30
0.0
 10
10.7120941302
 20
7.5267915862
 30
0.0
 10
10.7063774019
 20
7.5179058189
 30
0.0
 10
10.7002217658
 20
7.5093354868
 30
0.0
 10
10.6936413072
 20
7.5011003174
 30
0.0
 10
10.6866514582
 20
7.4932195736
 30
0.0
 10
10.6817284842
 20
7.488213191
 30
0.0
 10
10.6792051529
 20
7.4857758531
 30
0.0
  0
SPLINE
  5
35B
100
AcDbEntity
  8
0
100
AcDbSpline
 62
7
  6
CONTINUOUS
 70
0
 71
3
 72
41
 73
37
 74
0
 42
0.0000001
 43
0.0000001
 44
0.0000000001
 40
0.0
 40
0.0
 40
0.0
 40
0.0
 40
0.0310750003
 40
0.046674464
 40
0.062312494
 40
0.0936974057
 40
0.1252262387
 40
0.1568876805
 40
0.1886675201
 40
0.2205491599
 40
0.2525139229
 40
0.268523588
 40
0.2845462912
 40
0.3166149974
 40
0.3487024468
 40
0.3807858411
 40
0.4128424624
 40
0.4448501254
 40
0.4767876212
 40
0.5086351486
 40
0.5403747235
 40
0.5719905626
 40
0.6034694315
 40
0.6348009518
 40
0.6659778585
 40
0.6969962
 40
0.7278554736
 40
0.7585586902
 40
0.7891123605
 40
0.8195263996
 40
0.849813947
 40
0.8799911023
 40
0.9100765789
 40
0.9400912834
 40
0.9700578297
 40
1.0
 40
1.0
 40
1.0
 40
1.0
 10
10.7429322868
 20
7.6390586841
 30
0.0
 10
10.7429322868
 20
7.6446840498
 30
0.0
 10
10.7426178418
 20
7.6531375617
 30
0.0
 10
10.7415793484
 20
7.6643715761
 30
0.0
 10
10.7401242064
 20
7.6756163455
 30
0.0
 10
10.7375302502
 20
7.6896113119
 30
0.0
 10
10.733203528
 20
7.7061908897
 30
0.0
 10
10.7276827514
 20
7.722487715
 30
0.0
 10
10.7209983327
 20
7.7384119144
 30
0.0
 10
10.7131873705
 20
7.7538758162
 30
0.0
 10
10.705777949
 20
7.7663033619
 30
0.0
 10
10.6993333976
 20
7.7759329503
 30
0.0
 10
10.692547409
 20
7.7853482691
 30
0.0
 10
10.6834520482
 20
7.7966756412
 30
0.0
 10
10.6716215644
 20
7.8094831559
 30
0.0
 10
10.6589353307
 20
7.8214410185
 30
0.0
 10
10.645463273
 20
7.8324831518
 30
0.0
 10
10.6312792356
 20
7.8425490318
 30
0.0
 10
10.6164610662
 20
7.8515833241
 30
0.0
 10
10.6010900635
 20
7.8595363708
 30
0.0
 10
10.5852505719
 20
7.8663644122
 30
0.0
 10
10.5690295152
 20
7.8720298397
 30
0.0
 10
10.5525159294
 20
7.8765014003
 30
0.0
 10
10.5358004797
 20
7.8797543704
 30
0.0
 10
10.5189749705
 20
7.8817706966
 30
0.0
 10
10.5021318478
 20
7.8825390994
 30
0.0
 10
10.4853636972
 20
7.8820551444
 30
0.0
 10
10.46876274
 20
7.8803212745
 30
0.0
 10
10.4524203284
 20
7.8773468122
 30
0.0
 10
10.4364264408
 20
7.8731479161
 30
0.0
 10
10.4208691919
 20
7.8677475112
 30
0.0
 10
10.4058343113
 20
7.8611751461
 30
0.0
 10
10.3914047736
 20
7.8534669501
 30
0.0
 10
10.3776599135
 20
7.8446650325
 30
0.0
 10
10.3646765223
 20
7.8348187787
 30
0.0
 10
10.3565728373
 20
7.8275912141
 30
0.0
 10
10.3526742555
 20
7.8238254933
 30
0.0
  0
SPLINE
  5
35C
100
AcDbEntity
  8
0
100
AcDbSpline
 62
7
  6
CONTINUOUS
 70
0
 71
3
 72
18
 73
14
 74
0
 42
0.0000001
 43
0.0000001
 44
0.0000000001
 40
0.0
 40
0.0
 40
0.0
 40
0.0
 40
0.0548620589
 40
0.1099280789
 40
0.165399508
 40
0.2214731255
 40
0.2783387361
 40
0.3361775086
 40
0.4554063416
 40
0.5804417492
 40
0.7123343341
 40
0.8519577333
 40
1.0
 40
1.0
 40
1.0
 40
1.0
 10
11.3551481614
 20
10.668690749
 30
0.0
 10
11.3551481613
 20
10.6677628817
 30
0.0
 10
11.3550892591
 20
10.6659031647
 30
0.0
 10
11.3548244565
 20
10.6631166149
 30
0.0
 10
11.3543832695
 20
10.6603316708
 30
0.0
 10
11.3537658437
 20
10.6575493497
 30
0.0
 10
11.3529724184
 20
10.6547703539
 30
0.0
 10
11.3516674113
 20
10.6510333496
 30
0.0
 10
11.3495768121
 20
10.6463593577
 30
0.0
 10
11.3463947897
 20
10.6408393554
 30
0.0
 10
11.3425192589
 20
10.6353550827
 30
0.0
 10
11.3379561161
 20
10.6299120438
 30
0.0
 10
11.3345623359
 20
10.6264196728
 30
0.0
 10
11.3327614669
 20
10.6246801667
 30
0.0
  0
SPLINE
  5
35D
100
AcDbEntity
  8
0
100
AcDbSpline
 62
7
  6
CONTINUOUS
 70
0
 71
3
 72
44
 73
40
 74
0
 42
0.0000001
 43
0.0000001
 44
0.0000000001
 40
0.0
 40
0.0
 40
0.0
 40
0.0
 40
0.0149722236
 40
0.0299475067
 40
0.0449288886
 40
0.0599193736
 40
0.0749219097
 40
0.08993937
 40
0.1049745397
 40
0.1200300961
 40
0.1351085917
 40
0.1502124449
 40
0.1804994096
 40
0.2109128633
 40
0.2414659442
 40
0.2721685685
 40
0.3030272475
 40
0.3340449904
 40
0.3652212956
 40
0.396552213
 40
0.4280304762
 40
0.4596457066
 40
0.4913846713
 40
0.5232315866
 40
0.555168468
 40
0.587175515
 40
0.6192315195
 40
0.6513142962
 40
0.6834011282
 40
0.7154692177
 40
0.7474961397
 40
0.7794602892
 40
0.8113413161
 40
0.8431205468
 40
0.8747813742
 40
0.9063096205
 40
0.9376938957
 40
0.9689255646
 40
1.0
 40
1.0
 40
1.0
 40
1.0
 10
10.1983452946
 20
7.9597724528
 30
0.0
 10
10.2019953688
 20
7.963298157
 30
0.0
 10
10.2094372757
 20
7.9702059648
 30
0.0
 10
10.2210043327
 20
7.9801169741
 30
0.0
 10
10.2329608605
 20
7.9895648501
 30
0.0
 10
10.2452901616
 20
7.9985363958
 30
0.0
 10
10.2579753703
 20
8.007019269
 30
0.0
 10
10.2709989724
 20
8.0150018291
 30
0.0
 10
10.2843430667
 20
8.0224731148
 30
0.0
 10
10.2979892398
 20
8.029422771
 30
0.0
 10
10.3119189662
 20
8.0358413856
 30
0.0
 10
10.3308589606
 20
8.0436858925
 30
0.0
 10
10.3551584323
 20
8.05212123
 30
0.0
 10
10.3851037309
 20
8.059982679
 30
0.0
 10
10.4157024849
 20
8.0655520018
 30
0.0
 10
10.4467850844
 20
8.0687983935
 30
0.0
 10
10.4781807937
 20
8.0697045354
 30
0.0
 10
10.5097168598
 20
8.0682658518
 30
0.0
 10
10.5412199564
 20
8.0644906378
 30
0.0
 10
10.5725169799
 20
8.0583999725
 30
0.0
 10
10.6034360485
 20
8.0500277017
 30
0.0
 10
10.6338074094
 20
8.0394201176
 30
0.0
 10
10.6634643419
 20
8.0266356964
 30
0.0
 10
10.6922441
 20
8.0117448788
 30
0.0
 10
10.7199887784
 20
7.994829615
 30
0.0
 10
10.7465461325
 20
7.9759828703
 30
0.0
 10
10.7717704386
 20
7.9553081872
 30
0.0
 10
10.7955233101
 20
7.9329191356
 30
0.0
 10
10.8176743839
 20
7.9089386164
 30
0.0
 10
10.8381020368
 20
7.8834982225
 30
0.0
 10
10.8566941288
 20
7.8567375872
 30
0.0
 10
10.8733485308
 20
7.8288035501
 30
0.0
 10
10.8879736597
 20
7.7998493601
 30
0.0
 10
10.900489075
 20
7.7700339192
 30
0.0
 10
10.9108258762
 20
7.7395208126
 30
0.0
 10
10.9189270326
 20
7.7084776673
 30
0.0
 10
10.9247476971
 20
7.6770743566
 30
0.0
 10
10.9282557113
 20
7.6454855611
 30
0.0
 10
10.9290414265
 20
7.6243589337
 30
0.0
 10
10.9290414265
 20
7.6138263193
 30
0.0
  0
SPLINE
  5
35E
100
AcDbEntity
  8
0
100
AcDbSpline
 62
7
  6
CONTINUOUS
 70
0
 71
3
 72
41
 73
37
 74
0
 42
0.0000001
 43
0.0000001
 44
0.0000000001
 40
0.0
 40
0.0
 40
0.0
 40
0.0
 40
0.0299421722
 40
0.0599087187
 40
0.0899234222
 40
0.1200088965
 40
0.1501860486
 40
0.1804735921
 40
0.2108876267
 40
0.2414412921
 40
0.2721445039
 40
0.3030037728
 40
0.3340221097
 40
0.3651990124
 40
0.3965305293
 40
0.4280093954
 40
0.4596252325
 40
0.4913648061
 40
0.523212333
 40
0.5551498293
 40
0.5871574933
 40
0.6192141165
 40
0.6512975132
 40
0.6833849656
 40
0.7154536753
 40
0.7314763803
 40
0.7474860474
 40
0.7794508144
 40
0.8113324582
 40
0.8431123019
 40
0.8747737477
 40
0.9063025846
 40
0.9376874998
 40
0.9533255315
 40
0.9689249968
 40
1.0
 40
1.0
 40
1.0
 40
1.0
 10
11.202626947
 20
10.2121169238
 30
0.0
 10
11.2061273649
 20
10.2154980862
 30
0.0
 10
11.2134034202
 20
10.2219875683
 30
0.0
 10
11.2250608267
 20
10.2308283247
 30
0.0
 10
11.2374019421
 20
10.2387313994
 30
0.0
 10
11.2503578173
 20
10.2456524502
 30
0.0
 10
11.26385722
 20
10.2515536676
 30
0.0
 10
11.2778256489
 20
10.2564026116
 30
0.0
 10
11.2921861295
 20
10.2601727509
 30
0.0
 10
11.3068595458
 20
10.2628435011
 30
0.0
 10
11.3217651081
 20
10.2644003536
 30
0.0
 10
11.3368207933
 20
10.2648349377
 30
0.0
 10
11.351943798
 20
10.2641450594
 30
0.0
 10
11.3670509917
 20
10.2623347004
 30
0.0
 10
11.3820593691
 20
10.2594139876
 30
0.0
 10
11.396886501
 20
10.2553991309
 30
0.0
 10
11.411450981
 20
10.2503123285
 30
0.0
 10
11.4256728657
 20
10.2441816418
 30
0.0
 10
11.4394741079
 20
10.2370408385
 30
0.0
 10
11.4527789767
 20
10.2289292092
 30
0.0
 10
11.4655144756
 20
10.2198913405
 30
0.0
 10
11.4776107069
 20
10.209976916
 30
0.0
 10
11.4890013671
 20
10.1992402785
 30
0.0
 10
11.4996236714
 20
10.1877407573
 30
0.0
 10
11.5077901757
 20
10.1775702129
 30
0.0
 10
11.513883151
 20
10.1691164483
 30
0.0
 10
11.5196695583
 20
10.1604702957
 30
0.0
 10
11.5263222995
 20
10.1493119296
 30
0.0
 10
11.5333355749
 20
10.1354272967
 30
0.0
 10
11.5393373541
 20
10.1211293727
 30
0.0
 10
11.5442943272
 20
10.106496876
 30
0.0
 10
11.5481791876
 20
10.0916105018
 30
0.0
 10
11.5505082389
 20
10.0790447827
 30
0.0
 10
11.5518147761
 20
10.0689483941
 30
0.0
 10
11.5527472146
 20
10.0588616621
 30
0.0
 10
11.5530295473
 20
10.0512714715
 30
0.0
 10
11.5530295473
 20
10.0462206006
 30
0.0
  0
SPLINE
  5
35F
100
AcDbEntity
  8
0
100
AcDbSpline
 62
7
  6
CONTINUOUS
 70
0
 71
3
 72
41
 73
37
 74
0
 42
0.0000001
 43
0.0000001
 44
0.0000000001
 40
0.0
 40
0.0
 40
0.0
 40
0.0
 40
0.0299421722
 40
0.0599087187
 40
0.0899234222
 40
0.1200088965
 40
0.1501860486
 40
0.1804735921
 40
0.2108876267
 40
0.2414412921
 40
0.2721445039
 40
0.3030037728
 40
0.3340221097
 40
0.3651990124
 40
0.3965305293
 40
0.4280093954
 40
0.4596252325
 40
0.4913648061
 40
0.523212333
 40
0.5551498293
 40
0.5871574933
 40
0.6192141165
 40
0.6512975132
 40
0.6833849656
 40
0.7154536753
 40
0.7314763803
 40
0.7474860474
 40
0.7794508144
 40
0.8113324582
 40
0.8431123019
 40
0.8747737477
 40
0.9063025846
 40
0.9376874998
 40
0.9533255315
 40
0.9689249968
 40
1.0
 40
1.0
 40
1.0
 40
1.0
 10
10.115960328
 20
7.1482183883
 30
0.0
 10
10.1194607459
 20
7.1515995507
 30
0.0
 10
10.1267368012
 20
7.1580890328
 30
0.0
 10
10.1383942077
 20
7.1669297892
 30
0.0
 10
10.1507353231
 20
7.174832864
 30
0.0
 10
10.1636911984
 20
7.1817539148
 30
0.0
 10
10.177190601
 20
7.1876551322
 30
0.0
 10
10.1911590299
 20
7.1925040761
 30
0.0
 10
10.2055195106
 20
7.1962742154
 30
0.0
 10
10.2201929268
 20
7.1989449656
 30
0.0
 10
10.2350984891
 20
7.2005018181
 30
0.0
 10
10.2501541743
 20
7.2009364022
 30
0.0
 10
10.2652771791
 20
7.200246524
 30
0.0
 10
10.2803843728
 20
7.1984361649
 30
0.0
 10
10.2953927501
 20
7.1955154521
 30
0.0
 10
10.310219882
 20
7.1915005954
 30
0.0
 10
10.324784362
 20
7.186413793
 30
0.0
 10
10.3390062467
 20
7.1802831063
 30
0.0
 10
10.352807489
 20
7.173142303
 30
0.0
 10
10.3661123578
 20
7.1650306737
 30
0.0
 10
10.3788478567
 20
7.1559928051
 30
0.0
 10
10.390944088
 20
7.1460783805
 30
0.0
 10
10.4023347481
 20
7.135341743
 30
0.0
 10
10.4129570524
 20
7.1238422218
 30
0.0
 10
10.4211235568
 20
7.1136716774
 30
0.0
 10
10.4272165321
 20
7.1052179128
 30
0.0
 10
10.4330029394
 20
7.0965717603
 30
0.0
 10
10.4396556805
 20
7.0854133941
 30
0.0
 10
10.4466689559
 20
7.0715287613
 30
0.0
 10
10.4526707351
 20
7.0572308372
 30
0.0
 10
10.4576277083
 20
7.0425983405
 30
0.0
 10
10.4615125686
 20
7.0277119664
 30
0.0
 10
10.4638416199
 20
7.0151462472
 30
0.0
 10
10.4651481571
 20
7.0050498587
 30
0.0
 10
10.4660805956
 20
6.9949631266
 30
0.0
 10
10.4663629283
 20
6.987372936
 30
0.0
 10
10.4663629283
 20
6.9823220651
 30
0.0
  0
SPLINE
  5
360
100
AcDbEntity
  8
0
100
AcDbSpline
 62
7
  6
CONTINUOUS
 70
0
 71
3
 72
92
 73
88
 74
0
 42
0.0000001
 43
0.0000001
 44
0.0000000001
 40
0.0
 40
0.0
 40
0.0
 40
0.0
 40
0.0027164136
 40
0.0054531999
 40
0.0082302488
 40
0.0110665156
 40
0.0139797
 40
0.0169859759
 40
0.0200999097
 40
0.0233343921
 40
0.0267007085
 40
0.030208627
 40
0.0338664962
 40
0.0376814269
 40
0.0416593531
 40
0.0458052407
 40
0.0501231229
 40
0.0546162682
 40
0.0592872359
 40
0.0641379574
 40
0.0691698402
 40
0.0743837612
 40
0.0797802065
 40
0.0853592201
 40
0.0911205286
 40
0.0970635116
 40
0.1031872593
 40
0.1094906055
 40
0.1226297411
 40
0.1364672907
 40
0.1509859854
 40
0.1661657644
 40
0.1819840906
 40
0.1984162077
 40
0.2154353587
 40
0.2330129748
 40
0.2511188396
 40
0.2697212359
 40
0.2887870798
 40
0.3082820459
 40
0.3281706839
 40
0.3484165301
 40
0.3689822167
 40
0.3898295783
 40
0.4109197545
 40
0.4322132911
 40
0.4536702402
 40
0.4752502592
 40
0.4969127091
 40
0.5186167533
 40
0.5403214559
 40
0.56198588
 40
0.5835691848
 40
0.6050307242
 40
0.626330144
 40
0.6474274812
 40
0.6682832628
 40
0.6888586082
 40
0.7091153287
 40
0.729016031
 40
0.7485242218
 40
0.7676044158
 40
0.7862222477
 40
0.8043445896
 40
0.8219396778
 40
0.8389772466
 40
0.8554286739
 40
0.871267144
 40
0.8864678337
 40
0.9010081287
 40
0.9148678812
 40
0.9215371855
 40
0.928030107
 40
0.9343449535
 40
0.9404803007
 40
0.946434946
 40
0.9522079623
 40
0.9577987256
 40
0.9632069066
 40
0.9684325773
 40
0.9734761504
 40
0.9783385002
 40
0.9830209469
 40
0.987525443
 40
0.9918546017
 40
0.9960115601
 40
1.0
 40
1.0
 40
1.0
 40
1.0
 10
12.7026581062
 20
8.3242319732
 30
0.0
 10
12.7013609736
 20
8.324321924
 30
0.0
 10
12.6987636212
 20
8.3246198928
 30
0.0
 10
12.6949006513
 20
8.3254172612
 30
0.0
 10
12.6910668925
 20
8.3265649754
 30
0.0
 10
12.6872650337
 20
8.3280618136
 30
0.0
 10
12.6834970989
 20
8.3299065766
 30
0.0
 10
12.6797649546
 20
8.3320976956
 30
0.0
 10
12.6760703777
 20
8.3346337071
 30
0.0
 10
12.6724149733
 20
8.3375129451
 30
0.0
 10
12.66880033
 20
8.3407337474
 30
0.0
 10
12.6652280276
 20
8.3442943682
 30
0.0
 10
12.6616995766
 20
8.3481929123
 30
0.0
 10
12.6582166117
 20
8.3524274535
 30
0.0
 10
12.654780633
 20
8.356995828
 30
0.0
 10
12.6513933
 20
8.3618958246
 30
0.0
 10
12.6480561461
 20
8.3671249966
 30
0.0
 10
12.6447707946
 20
8.3726807894
 30
0.0
 10
12.641538826
 20
8.3785604613
 30
0.0
 10
12.6383617908
 20
8.3847611028
 30
0.0
 10
12.6352412962
 20
8.3912796621
 30
0.0
 10
12.6321788215
 20
8.3981128883
 30
0.0
 10
12.6291759537
 20
8.4052574061
 30
0.0
 10
12.6262341296
 20
8.4127096435
 30
0.0
 10
12.6233548615
 20
8.4204658972
 30
0.0
 10
12.6205395768
 20
8.4285222869
 30
0.0
 10
12.6177896598
 20
8.4368747994
 30
0.0
 10
12.6141619318
 20
8.4485628731
 30
0.0
 10
12.6098134429
 20
8.4638906813
 30
0.0
 10
12.604946732
 20
8.4831500122
 30
0.0
 10
12.6003718051
 20
8.5034829826
 30
0.0
 10
12.5960979452
 20
8.5248488328
 30
0.0
 10
12.5921338507
 20
8.5472048937
 30
0.0
 10
12.5884875878
 20
8.570506379
 30
0.0
 10
12.5851665771
 20
8.5947065765
 30
0.0
 10
12.5821775783
 20
8.6197569283
 30
0.0
 10
12.5795266757
 20
8.6456071434
 30
0.0
 10
12.5772192659
 20
8.6722053021
 30
0.0
 10
12.5752600478
 20
8.6994979653
 30
0.0
 10
12.5736530132
 20
8.7274302843
 30
0.0
 10
12.5724014399
 20
8.7559461129
 30
0.0
 10
12.571507883
 20
8.784988122
 30
0.0
 10
12.5709741714
 20
8.8144979175
 30
0.0
 10
12.5708014064
 20
8.8444161595
 30
0.0
 10
12.5709899588
 20
8.8746826831
 30
0.0
 10
12.5715394688
 20
8.90523662
 30
0.0
 10
12.5724488473
 20
8.9360165216
 30
0.0
 10
12.5737162778
 20
8.9669604822
 30
0.0
 10
12.5753392206
 20
8.9980062648
 30
0.0
 10
12.5773144151
 20
9.0290914264
 30
0.0
 10
12.5796378896
 20
9.0601534448
 30
0.0
 10
12.5823049687
 20
9.0911298453
 30
0.0
 10
12.5853102833
 20
9.1219583258
 30
0.0
 10
12.588647781
 20
9.1525768831
 30
0.0
 10
12.5923107383
 20
9.1829239373
 30
0.0
 10
12.5962917742
 20
9.2129384563
 30
0.0
 10
12.600582864
 20
9.2425600803
 30
0.0
 10
12.6051753538
 20
9.2717292441
 30
0.0
 10
12.6100599803
 20
9.3003872981
 30
0.0
 10
12.6152268888
 20
9.3284766263
 30
0.0
 10
12.6206656528
 20
9.3559407633
 30
0.0
 10
12.6263652946
 20
9.3827245094
 30
0.0
 10
12.6323143069
 20
9.4087740433
 30
0.0
 10
12.6385006767
 20
9.4340370335
 30
0.0
 10
12.6449119073
 20
9.4584627486
 30
0.0
 10
12.6515350433
 20
9.4820021627
 30
0.0
 10
12.6583567
 20
9.504608064
 30
0.0
 10
12.6653630906
 20
9.5262351344
 30
0.0
 10
12.6725400565
 20
9.5468401242
 30
0.0
 10
12.6798731009
 20
9.5663816905
 30
0.0
 10
12.6861798329
 20
9.5819408663
 30
0.0
 10
12.6913005466
 20
9.5938189395
 30
0.0
 10
12.6951216023
 20
9.6023233173
 30
0.0
 10
12.6989705588
 20
9.610533694
 30
0.0
 10
12.7028454718
 20
9.6184459767
 30
0.0
 10
12.7067444081
 20
9.6260562018
 30
0.0
 10
12.710665419
 20
9.6333605637
 30
0.0
 10
12.7146065126
 20
9.640355427
 30
0.0
 10
12.7185657686
 20
9.6470372885
 30
0.0
 10
12.7225411593
 20
9.6534028497
 30
0.0
 10
12.7265307729
 20
9.6594489155
 30
0.0
 10
12.7305325644
 20
9.6651725019
 30
0.0
 10
12.7345446
 20
9.6705707668
 30
0.0
 10
12.7385649401
 20
9.6756410755
 30
0.0
 10
12.7425916962
 20
9.6803809771
 30
0.0
 10
12.7466227501
 20
9.6847879005
 30
0.0
 10
12.7493675205
 20
9.6875588447
 30
0.0
 10
12.7507406639
 20
9.6888851994
 30
0.0
  0
SPLINE
  5
361
100
AcDbEntity
  8
0
100
AcDbSpline
 62
7
  6
CONTINUOUS
 70
0
 71
3
 72
70
 73
66
 74
0
 42
0.0000001
 43
0.0000001
 44
0.0000000001
 40
0.0
 40
0.0
 40
0.0
 40
0.0
 40
0.0036899051
 40
0.0075220418
 40
0.0114998956
 40
0.0156263395
 40
0.0199037557
 40
0.0243340015
 40
0.0336576924
 40
0.0436054189
 40
0.0541792962
 40
0.0653772534
 40
0.0771937156
 40
0.0896201506
 40
0.1026454618
 40
0.1162562683
 40
0.1304371962
 40
0.1451710994
 40
0.1604392098
 40
0.1762212694
 40
0.1924956937
 40
0.2092396816
 40
0.2264292867
 40
0.2440395206
 40
0.2620444578
 40
0.2804173044
 40
0.2991304525
 40
0.318155576
 40
0.3374637049
 40
0.3768096073
 40
0.4169264479
 40
0.4575656647
 40
0.4984745241
 40
0.5393981564
 40
0.5800815765
 40
0.6202717029
 40
0.6597193762
 40
0.6790888282
 40
0.6981820735
 40
0.7169699851
 40
0.7354240887
 40
0.753516617
 40
0.7712205693
 40
0.7885098005
 40
0.8053591153
 40
0.8217443254
 40
0.8376423341
 40
0.8530312655
 40
0.8678905668
 40
0.882201107
 40
0.8959453254
 40
0.9091074363
 40
0.9216735959
 40
0.9336321327
 40
0.9449738746
 40
0.9556925405
 40
0.9657852172
 40
0.9705972752
 40
0.9752536194
 40
0.9797551075
 40
0.9841030311
 40
0.9882991542
 40
0.9923456263
 40
0.9962449315
 40
1.0
 40
1.0
 40
1.0
 40
1.0
 10
12.6663885018
 20
8.515000097
 30
0.0
 10
12.6655772319
 20
8.5159975951
 30
0.0
 10
12.6639654661
 20
8.5180655454
 30
0.0
 10
12.6616226645
 20
8.5213174989
 30
0.0
 10
12.6593105902
 20
8.5247758979
 30
0.0
 10
12.6570301925
 20
8.5284392418
 30
0.0
 10
12.6547823823
 20
8.532306091
 30
0.0
 10
12.6517787015
 20
8.5378254562
 30
0.0
 10
12.6481223635
 20
8.5452350353
 30
0.0
 10
12.6439509551
 20
8.5547647254
 30
0.0
 10
12.6399307055
 20
8.5650632837
 30
0.0
 10
12.6360682068
 20
8.5761138237
 30
0.0
 10
12.6323698004
 20
8.5878984446
 30
0.0
 10
12.6288416379
 20
8.6003978547
 30
0.0
 10
12.6254896198
 20
8.6135915395
 30
0.0
 10
12.6223193416
 20
8.6274577573
 30
0.0
 10
12.6193361131
 20
8.6419736126
 30
0.0
 10
12.6165449466
 20
8.6571151063
 30
0.0
 10
12.6139505328
 20
8.672857171
 30
0.0
 10
12.6115572136
 20
8.6891737136
 30
0.0
 10
12.609369007
 20
8.7060376759
 30
0.0
 10
12.6073895978
 20
8.7234210815
 30
0.0
 10
12.6056223056
 20
8.7412950754
 30
0.0
 10
12.6040700891
 20
8.7596299764
 30
0.0
 10
12.6027355585
 20
8.7783953357
 30
0.0
 10
12.6016209648
 20
8.7975599863
 30
0.0
 10
12.6007281774
 20
8.8170920801
 30
0.0
 10
12.6000586729
 20
8.8369591891
 30
0.0
 10
12.5994616016
 20
8.8640205295
 30
0.0
 10
12.5992888338
 20
8.8984400388
 30
0.0
 10
12.5999808433
 20
8.9402870656
 30
0.0
 10
12.6015667705
 20
8.9826547643
 30
0.0
 10
12.6040361563
 20
9.0252616729
 30
0.0
 10
12.6073726724
 20
9.067824907
 30
0.0
 10
12.6115541208
 20
9.1100618782
 30
0.0
 10
12.6165526253
 20
9.1516920025
 30
0.0
 10
12.6213999336
 20
9.1858520851
 30
0.0
 10
12.6256687571
 20
9.2126628584
 30
0.0
 10
12.6290329174
 20
9.2323266961
 30
0.0
 10
12.6325733324
 20
9.2516353807
 30
0.0
 10
12.6362841167
 20
9.2705568587
 30
0.0
 10
12.6401590744
 20
9.289059693
 30
0.0
 10
12.6441917525
 20
9.3071131487
 30
0.0
 10
12.6483754307
 20
9.3246872429
 30
0.0
 10
12.65270312
 20
9.3417528038
 30
0.0
 10
12.6571675993
 20
9.3582815081
 30
0.0
 10
12.6617614305
 20
9.3742459282
 30
0.0
 10
12.6664769439
 20
9.3896195944
 30
0.0
 10
12.6713062623
 20
9.4043770385
 30
0.0
 10
12.6762413291
 20
9.4184938268
 30
0.0
 10
12.6812739253
 20
9.4319466104
 30
0.0
 10
12.6863956502
 20
9.4447131852
 30
0.0
 10
12.6915979739
 20
9.4567725309
 30
0.0
 10
12.6968722587
 20
9.4681048157
 30
0.0
 10
12.7022097971
 20
9.4786915504
 30
0.0
 10
12.7076017446
 20
9.4885153197
 30
0.0
 10
12.7122033791
 20
9.4961700979
 30
0.0
 10
12.7159116696
 20
9.5018898006
 30
0.0
 10
12.7186566376
 20
9.5059104749
 30
0.0
 10
12.7214085182
 20
9.5097288035
 30
0.0
 10
12.724166245
 20
9.5133432425
 30
0.0
 10
12.726928699
 20
9.5167523627
 30
0.0
 10
12.7296948276
 20
9.5199547379
 30
0.0
 10
12.7324633279
 20
9.5229489277
 30
0.0
 10
12.7343447335
 20
9.5248405465
 30
0.0
 10
12.735285849
 20
9.5257495943
 30
0.0
  0
SPLINE
  5
362
100
AcDbEntity
  8
0
100
AcDbSpline
 62
7
  6
CONTINUOUS
 70
0
 71
3
 72
11
 73
7
 74
0
 42
0.0000001
 43
0.0000001
 44
0.0000000001
 40
0.0
 40
0.0
 40
0.0
 40
0.0
 40
0.245573719
 40
0.4929428202
 40
0.7438601116
 40
1.0
 40
1.0
 40
1.0
 40
1.0
 10
12.658610833
 20
8.5428030596
 30
0.0
 10
12.6577265008
 20
8.5428643829
 30
0.0
 10
12.6559558593
 20
8.5430664758
 30
0.0
 10
12.6533220265
 20
8.5436054812
 30
0.0
 10
12.6507079281
 20
8.5443801111
 30
0.0
 10
12.6490001569
 20
8.5450451832
 30
0.0
 10
12.6481523884
 20
8.5454141928
 30
0.0
  0
SPLINE
  5
363
100
AcDbEntity
  8
0
100
AcDbSpline
 62
7
  6
CONTINUOUS
 70
0
 71
3
 72
11
 73
7
 74
0
 42
0.0000001
 43
0.0000001
 44
0.0000000001
 40
0.0
 40
0.0
 40
0.0
 40
0.0
 40
0.245566553
 40
0.4929310987
 40
0.7438502789
 40
1.0
 40
1.0
 40
1.0
 40
1.0
 10
12.7250275355
 20
9.5005027981
 30
0.0
 10
12.7241424431
 20
9.5005641742
 30
0.0
 10
12.7223593097
 20
9.5006083901
 30
0.0
 10
12.7196739482
 20
9.5004377053
 30
0.0
 10
12.7169756018
 20
9.5000304201
 30
0.0
 10
12.7151908466
 20
9.499606643
 30
0.0
 10
12.7142994964
 20
9.4993577246
 30
0.0
  0
SPLINE
  5
364
100
AcDbEntity
  8
0
100
AcDbSpline
 62
7
  6
CONTINUOUS
 70
0
 71
3
 72
21
 73
17
 74
0
 42
0.0000001
 43
0.0000001
 44
0.0000000001
 40
0.0
 40
0.0
 40
0.0
 40
0.0
 40
0.1273175725
 40
0.2538000026
 40
0.3167619332
 40
0.3795354925
 40
0.4421314982
 40
0.5045621433
 40
0.5668413429
 40
0.6289845306
 40
0.6910084612
 40
0.7529311022
 40
0.8147714553
 40
0.8765493457
 40
0.9382852283
 40
1.0
 40
1.0
 40
1.0
 40
1.0
 10
10.0587422055
 20
7.0105906583
 30
0.0
 10
10.0587422055
 20
7.0170889846
 30
0.0
 10
10.0593625129
 20
7.030051375
 30
0.0
 10
10.061705192
 20
7.0460756919
 30
0.0
 10
10.0645052317
 20
7.0586453712
 30
0.0
 10
10.0670587191
 20
7.0679167678
 30
0.0
 10
10.070062705
 20
7.0770234371
 30
0.0
 10
10.0735103403
 20
7.0859446162
 30
0.0
 10
10.0773936448
 20
7.0946596788
 30
0.0
 10
10.0817036871
 20
7.1031485425
 30
0.0
 10
10.0864305809
 20
7.1113915984
 30
0.0
 10
10.0915634097
 20
7.1193698516
 30
0.0
 10
10.0970903175
 20
7.1270648894
 30
0.0
 10
10.1029986578
 20
7.1344589992
 30
0.0
 10
10.1092745749
 20
7.1415348858
 30
0.0
 10
10.1136947251
 20
7.146029972
 30
0.0
 10
10.115960328
 20
7.1482183883
 30
0.0
  0
SPLINE
  5
365
100
AcDbEntity
  8
0
100
AcDbSpline
 62
7
  6
CONTINUOUS
 70
0
 71
3
 72
91
 73
87
 74
0
 42
0.0000001
 43
0.0000001
 44
0.0000000001
 40
0.0
 40
0.0
 40
0.0
 40
0.0
 40
0.0039801824
 40
0.0081241125
 40
0.0124359604
 40
0.0169193082
 40
0.0215771808
 40
0.0264119179
 40
0.0314251804
 40
0.036618156
 40
0.0419915391
 40
0.0475456573
 40
0.0532804234
 40
0.0591954189
 40
0.0652899227
 40
0.0715629017
 40
0.0780131034
 40
0.0846389837
 40
0.0984102885
 40
0.1128608532
 40
0.1279713725
 40
0.1437199568
 40
0.1600824082
 40
0.1770324532
 40
0.1945419392
 40
0.2125810061
 40
0.2311182422
 40
0.2501208275
 40
0.2695546626
 40
0.2893844909
 40
0.3095740146
 40
0.330086005
 40
0.35088241
 40
0.3719244606
 40
0.3931727759
 40
0.4145874652
 40
0.4361282289
 40
0.4577544586
 40
0.4794253371
 40
0.501099938
 40
0.5227373261
 40
0.5442966575
 40
0.5657372785
 40
0.5870188258
 40
0.6081013261
 40
0.6289452975
 40
0.6495118524
 40
0.6697628021
 40
0.6896607608
 40
0.7091692527
 40
0.7282528228
 40
0.7468771515
 40
0.7650091753
 40
0.7826172172
 40
0.7996711268
 40
0.8161424293
 40
0.8320044948
 40
0.8472327309
 40
0.8618048077
 40
0.8757009255
 40
0.8889041429
 40
0.8952417292
 40
0.9014012652
 40
0.9073816417
 40
0.9131820083
 40
0.9188018518
 40
0.9242409423
 40
0.9294994633
 40
0.9345779585
 40
0.9394774438
 40
0.944199427
 40
0.9487459568
 40
0.95311974
 40
0.9573241405
 40
0.9613633601
 40
0.9652424499
 40
0.9689674846
 40
0.9725456466
 40
0.9759853437
 40
0.9824865016
 40
0.9855753543
 40
0.9885738189
 40
0.9914977372
 40
0.9943643366
 40
0.9971920099
 40
1.0
 40
1.0
 40
1.0
 40
1.0
 10
10.0635348559
 20
10.7127013312
 30
0.0
 10
10.0648360878
 20
10.7139582247
 30
0.0
 10
10.0675511772
 20
10.7164631222
 30
0.0
 10
10.0718619042
 20
10.7201217136
 30
0.0
 10
10.0764891839
 20
10.7237540614
 30
0.0
 10
10.0814304778
 20
10.7273582371
 30
0.0
 10
10.0866833769
 20
10.7309325574
 30
0.0
 10
10.0922453073
 20
10.7344752834
 30
0.0
 10
10.0981134873
 20
10.7379847164
 30
0.0
 10
10.1042850054
 20
10.7414590353
 30
0.0
 10
10.110756745
 20
10.7448965724
 30
0.0
 10
10.117525489
 20
10.7482955592
 30
0.0
 10
10.124587834
 20
10.751654324
 30
0.0
 10
10.1319402374
 20
10.7549711694
 30
0.0
 10
10.1395790084
 20
10.758244405
 30
0.0
 10
10.1475002915
 20
10.7614724137
 30
0.0
 10
10.1557001205
 20
10.7646535358
 30
0.0
 10
10.1671466328
 20
10.7688848758
 30
0.0
 10
10.1821283333
 20
10.7740344986
 30
0.0
 10
10.200925174
 20
10.7799253565
 30
0.0
 10
10.2207271305
 20
10.7855923394
 30
0.0
 10
10.2414942305
 20
10.7910239199
 30
0.0
 10
10.263184703
 20
10.796209034
 30
0.0
 10
10.2857548061
 20
10.8011371191
 30
0.0
 10
10.3091589998
 20
10.8057981339
 30
0.0
 10
10.3333500223
 20
10.8101825858
 30
0.0
 10
10.3582789987
 20
10.8142815468
 30
0.0
 10
10.3838955445
 20
10.8180866719
 30
0.0
 10
10.4101478714
 20
10.8215902154
 30
0.0
 10
10.4369828946
 20
10.824785047
 30
0.0
 10
10.4643463416
 20
10.8276646654
 30
0.0
 10
10.4921828629
 20
10.8302232107
 30
0.0
 10
10.5204361444
 20
10.8324554797
 30
0.0
 10
10.549049024
 20
10.834356934
 30
0.0
 10
10.5779636084
 20
10.8359237078
 30
0.0
 10
10.6071213918
 20
10.8371526159
 30
0.0
 10
10.6364633746
 20
10.8380411594
 30
0.0
 10
10.6659301823
 20
10.8385875315
 30
0.0
 10
10.6954621866
 20
10.8387906197
 30
0.0
 10
10.724999626
 20
10.8386500115
 30
0.0
 10
10.7544827285
 20
10.8381659941
 30
0.0
 10
10.7838518328
 20
10.8373395523
 30
0.0
 10
10.8130475098
 20
10.8361723662
 30
0.0
 10
10.8420106821
 20
10.8346668086
 30
0.0
 10
10.8706827447
 20
10.8328259397
 30
0.0
 10
10.8990056835
 20
10.8306535013
 30
0.0
 10
10.9269221951
 20
10.8281539108
 30
0.0
 10
10.9543758041
 20
10.8253322541
 30
0.0
 10
10.9813109779
 20
10.8221942716
 30
0.0
 10
11.0076732393
 20
10.8187463483
 30
0.0
 10
11.0334092785
 20
10.8149955007
 30
0.0
 10
11.058467062
 20
10.8109493631
 30
0.0
 10
11.0827959412
 20
10.8066161718
 30
0.0
 10
11.1063467596
 20
10.8020047506
 30
0.0
 10
11.1290719585
 20
10.7971244937
 30
0.0
 10
11.1509256742
 20
10.7919853436
 30
0.0
 10
11.1718638445
 20
10.7865977693
 30
0.0
 10
11.1918442802
 20
10.780972744
 30
0.0
 10
11.2108268506
 20
10.7751217166
 30
0.0
 10
11.228773272
 20
10.769056585
 30
0.0
 10
11.2430234131
 20
10.7637644502
 30
0.0
 10
11.2538692398
 20
10.7594235983
 30
0.0
 10
11.2616112031
 20
10.7561665959
 30
0.0
 10
11.2690681796
 20
10.7528654306
 30
0.0
 10
11.2762364191
 20
10.7495217031
 30
0.0
 10
11.2831123354
 20
10.7461371574
 30
0.0
 10
11.2896924595
 20
10.7427134295
 30
0.0
 10
11.2959735159
 20
10.7392522933
 30
0.0
 10
11.3019523483
 20
10.7357554334
 30
0.0
 10
11.307625978
 20
10.7322246061
 30
0.0
 10
11.312991584
 20
10.7286615665
 30
0.0
 10
11.3180464747
 20
10.7250680246
 30
0.0
 10
11.3227881711
 20
10.72144579
 30
0.0
 10
11.327214273
 20
10.7177965332
 30
0.0
 10
11.3313226126
 20
10.7141220688
 30
0.0
 10
11.3351111183
 20
10.7104240338
 30
0.0
 10
11.338577803
 20
10.7067042905
 30
0.0
 10
11.3417211703
 20
10.7029640922
 30
0.0
 10
11.3454086371
 20
10.6980461627
 30
0.0
 10
11.3485398967
 20
10.6929956746
 30
0.0
 10
11.3510259807
 20
10.6878373459
 30
0.0
 10
11.3525280615
 20
10.6840223768
 30
0.0
 10
11.3536977866
 20
10.6801981253
 30
0.0
 10
11.3545341968
 20
10.6763664489
 30
0.0
 10
11.3550363679
 20
10.6725300793
 30
0.0
 10
11.3551481616
 20
10.6699670839
 30
0.0
 10
11.3551481614
 20
10.668690749
 30
0.0
  0
SPLINE
  5
366
100
AcDbEntity
  8
0
100
AcDbSpline
 62
7
  6
CONTINUOUS
 70
0
 71
3
 72
64
 73
60
 74
0
 42
0.0000001
 43
0.0000001
 44
0.0000000001
 40
0.0
 40
0.0
 40
0.0
 40
0.0
 40
0.0155849423
 40
0.031117901
 40
0.0465980248
 40
0.0620275802
 40
0.0774080885
 40
0.092741825
 40
0.1080315843
 40
0.1232805473
 40
0.1384923382
 40
0.1536709665
 40
0.1688207867
 40
0.1839464552
 40
0.1990528834
 40
0.2141451895
 40
0.2292286421
 40
0.2443086021
 40
0.2593904681
 40
0.27447962
 40
0.2895813603
 40
0.3047008548
 40
0.3198430804
 40
0.3350127757
 40
0.3502143898
 40
0.3654520353
 40
0.3807294495
 40
0.3960499624
 40
0.4114164624
 40
0.426831368
 40
0.4422966121
 40
0.4578136293
 40
0.4733833427
 40
0.4890061576
 40
0.5046819692
 40
0.520410168
 40
0.5361896463
 40
0.552018813
 40
0.5678956195
 40
0.5838175796
 40
0.5997817917
 40
0.6157849717
 40
0.6318234885
 40
0.6478933955
 40
0.6801016685
 40
0.7123819661
 40
0.7446952952
 40
0.7770015176
 40
0.8092607375
 40
0.8414347007
 40
0.8734881382
 40
0.8894641594
 40
0.9053988579
 40
0.9212891999
 40
0.9371326152
 40
0.9529269152
 40
0.9686701087
 40
0.9843619314
 40
1.0
 40
1.0
 40
1.0
 40
1.0
 10
10.7641454984
 20
7.6295490742
 30
0.0
 10
10.7641454984
 20
7.6253684107
 30
0.0
 10
10.7639408737
 20
7.617019547
 30
0.0
 10
10.7630173515
 20
7.6045488885
 30
0.0
 10
10.7614797221
 20
7.5921806135
 30
0.0
 10
10.7593318608
 20
7.5799451438
 30
0.0
 10
10.7565787746
 20
7.5678716905
 30
0.0
 10
10.7532271305
 20
7.5559894385
 30
0.0
 10
10.7492849928
 20
7.5443270152
 30
0.0
 10
10.7447617949
 20
7.5329125518
 30
0.0
 10
10.7396684206
 20
7.5217735817
 30
0.0
 10
10.7340171573
 20
7.5109369572
 30
0.0
 10
10.7278216086
 20
7.5004288173
 30
0.0
 10
10.7210966668
 20
7.4902745326
 30
0.0
 10
10.7138585533
 20
7.4804985933
 30
0.0
 10
10.706124734
 20
7.4711245694
 30
0.0
 10
10.6979138472
 20
7.46217508
 30
0.0
 10
10.6892456676
 20
7.4536717417
 30
0.0
 10
10.6801411283
 20
7.445635043
 30
0.0
 10
10.6706221995
 20
7.4380843543
 30
0.0
 10
10.6607118321
 20
7.4310378956
 30
0.0
 10
10.6504339218
 20
7.4245126761
 30
0.0
 10
10.6398132866
 20
7.4185243883
 30
0.0
 10
10.6288755481
 20
7.4130874512
 30
0.0
 10
10.617647077
 20
7.408214982
 30
0.0
 10
10.6061549557
 20
7.4039187152
 30
0.0
 10
10.5944269125
 20
7.4002089512
 30
0.0
 10
10.5824912245
 20
7.3970946061
 30
0.0
 10
10.5703766597
 20
7.3945831936
 30
0.0
 10
10.5581124264
 20
7.3926807242
 30
0.0
 10
10.5457280875
 20
7.391391726
 30
0.0
 10
10.5332534831
 20
7.3907192808
 30
0.0
 10
10.5207186689
 20
7.3906650151
 30
0.0
 10
10.5081538442
 20
7.3912289992
 30
0.0
 10
10.4955892715
 20
7.392409829
 30
0.0
 10
10.48305521
 20
7.3942046474
 30
0.0
 10
10.4705818483
 20
7.3966091328
 30
0.0
 10
10.4581992146
 20
7.3996174317
 30
0.0
 10
10.4459371152
 20
7.4032222709
 30
0.0
 10
10.4338250805
 20
7.4074149691
 30
0.0
 10
10.4218922516
 20
7.4121854368
 30
0.0
 10
10.4101674154
 20
7.4175220823
 30
0.0
 10
10.3986785018
 20
7.4234122507
 30
0.0
 10
10.383702895
 20
7.4319896102
 30
0.0
 10
10.3657131483
 20
7.444022938
 30
0.0
 10
10.3455186274
 20
7.4604034333
 30
0.0
 10
10.3268879335
 20
7.4785819493
 30
0.0
 10
10.3100012069
 20
7.4983831308
 30
0.0
 10
10.2950201256
 20
7.5196175265
 30
0.0
 10
10.2820893284
 20
7.542079952
 30
0.0
 10
10.2731136446
 20
7.561670203
 30
0.0
 10
10.2670765396
 20
7.5777369902
 30
0.0
 10
10.2631334823
 20
7.5899435388
 30
0.0
 10
10.2597807031
 20
7.6022881298
 30
0.0
 10
10.2570261484
 20
7.6147413834
 30
0.0
 10
10.2548765794
 20
7.6272731502
 30
0.0
 10
10.2533370506
 20
7.6398535611
 30
0.0
 10
10.2524114986
 20
7.6524516927
 30
0.0
 10
10.2522047801
 20
7.660857369
 30
0.0
 10
10.2522047801
 20
7.6650522836
 30
0.0
  0
SPLINE
  5
367
100
AcDbEntity
  8
0
100
AcDbSpline
 62
7
  6
CONTINUOUS
 70
0
 71
3
 72
64
 73
60
 74
0
 42
0.0000001
 43
0.0000001
 44
0.0000000001
 40
0.0
 40
0.0
 40
0.0
 40
0.0
 40
0.0156380686
 40
0.0313298913
 40
0.0470730848
 40
0.0628673848
 40
0.0787108001
 40
0.0946011421
 40
0.1105358406
 40
0.1265118618
 40
0.1585652993
 40
0.1907392625
 40
0.2229984824
 40
0.2553047048
 40
0.2876180339
 40
0.3198983315
 40
0.3521066045
 40
0.3681765115
 40
0.3842150283
 40
0.4002182083
 40
0.4161824204
 40
0.4321043805
 40
0.447981187
 40
0.4638103537
 40
0.479589832
 40
0.4953180308
 40
0.5109938424
 40
0.5266166573
 40
0.5421863707
 40
0.5577033879
 40
0.573168632
 40
0.5885835376
 40
0.6039500376
 40
0.6192705505
 40
0.6345479647
 40
0.6497856102
 40
0.6649872243
 40
0.6801569196
 40
0.6952991452
 40
0.7104186397
 40
0.72552038
 40
0.7406095319
 40
0.7556913979
 40
0.7707713579
 40
0.7858548105
 40
0.8009471166
 40
0.8160535448
 40
0.8311792133
 40
0.8463290335
 40
0.8615076618
 40
0.8767194527
 40
0.8919684157
 40
0.907258175
 40
0.9225919115
 40
0.9379724198
 40
0.9534019752
 40
0.968882099
 40
0.9844150577
 40
1.0
 40
1.0
 40
1.0
 40
1.0
 10
10.7641454984
 20
7.6295490742
 30
0.0
 10
10.7641454984
 20
7.6337439889
 30
0.0
 10
10.7639387799
 20
7.6421496652
 30
0.0
 10
10.7630132279
 20
7.6547477967
 30
0.0
 10
10.7614736992
 20
7.6673282077
 30
0.0
 10
10.7593241302
 20
7.6798599744
 30
0.0
 10
10.7565695755
 20
7.6923132281
 30
0.0
 10
10.7532167962
 20
7.7046578191
 30
0.0
 10
10.7492737389
 20
7.7168643676
 30
0.0
 10
10.7432366339
 20
7.7329311548
 30
0.0
 10
10.7342609501
 20
7.7525214058
 30
0.0
 10
10.721330153
 20
7.7749838314
 30
0.0
 10
10.7063490717
 20
7.796218227
 30
0.0
 10
10.6894623451
 20
7.8160194085
 30
0.0
 10
10.6708316512
 20
7.8341979246
 30
0.0
 10
10.6506371302
 20
7.8505784198
 30
0.0
 10
10.6326473835
 20
7.8626117477
 30
0.0
 10
10.6176717768
 20
7.8711891071
 30
0.0
 10
10.6061828632
 20
7.8770792755
 30
0.0
 10
10.5944580269
 20
7.8824159211
 30
0.0
 10
10.582525198
 20
7.8871863888
 30
0.0
 10
10.5704131633
 20
7.8913790869
 30
0.0
 10
10.5581510639
 20
7.8949839261
 30
0.0
 10
10.5457684302
 20
7.897992225
 30
0.0
 10
10.5332950686
 20
7.9003967104
 30
0.0
 10
10.5207610071
 20
7.9021915288
 30
0.0
 10
10.5081964343
 20
7.9033723587
 30
0.0
 10
10.4956316096
 20
7.9039363427
 30
0.0
 10
10.4830967954
 20
7.903882077
 30
0.0
 10
10.470622191
 20
7.9032096319
 30
0.0
 10
10.4582378521
 20
7.9019206337
 30
0.0
 10
10.4459736189
 20
7.9000181643
 30
0.0
 10
10.433859054
 20
7.8975067517
 30
0.0
 10
10.4219233661
 20
7.8943924067
 30
0.0
 10
10.4101953229
 20
7.8906826427
 30
0.0
 10
10.3987032016
 20
7.8863863758
 30
0.0
 10
10.3874747305
 20
7.8815139066
 30
0.0
 10
10.3765369919
 20
7.8760769696
 30
0.0
 10
10.3659163568
 20
7.8700886818
 30
0.0
 10
10.3556384465
 20
7.8635634623
 30
0.0
 10
10.3457280791
 20
7.8565170036
 30
0.0
 10
10.3362091502
 20
7.8489663149
 30
0.0
 10
10.3271046109
 20
7.8409296162
 30
0.0
 10
10.3184364314
 20
7.8324262778
 30
0.0
 10
10.3102255445
 20
7.8234767885
 30
0.0
 10
10.3024917252
 20
7.8141027646
 30
0.0
 10
10.2952536117
 20
7.8043268252
 30
0.0
 10
10.2885286699
 20
7.7941725405
 30
0.0
 10
10.2823331212
 20
7.7836644007
 30
0.0
 10
10.2766818579
 20
7.7728277761
 30
0.0
 10
10.2715884837
 20
7.761688806
 30
0.0
 10
10.2670652858
 20
7.7502743427
 30
0.0
 10
10.2631231481
 20
7.7386119194
 30
0.0
 10
10.2597715039
 20
7.7267296674
 30
0.0
 10
10.2570184178
 20
7.714656214
 30
0.0
 10
10.2548705565
 20
7.7024207443
 30
0.0
 10
10.253332927
 20
7.6900524694
 30
0.0
 10
10.2524094049
 20
7.6775818108
 30
0.0
 10
10.2522047801
 20
7.6692329471
 30
0.0
 10
10.2522047801
 20
7.6650522836
 30
0.0
  0
SPLINE
  5
368
100
AcDbEntity
  8
0
100
AcDbSpline
 62
7
  6
CONTINUOUS
 70
0
 71
3
 72
44
 73
40
 74
0
 42
0.0000001
 43
0.0000001
 44
0.0000000001
 40
0.0
 40
0.0
 40
0.0
 40
0.0
 40
0.0149722236
 40
0.0299475067
 40
0.0449288886
 40
0.0599193736
 40
0.0749219097
 40
0.08993937
 40
0.1049745397
 40
0.1200300961
 40
0.1351085917
 40
0.1502124449
 40
0.1804994096
 40
0.2109128633
 40
0.2414659442
 40
0.2721685685
 40
0.3030272475
 40
0.3340449904
 40
0.3652212956
 40
0.396552213
 40
0.4280304762
 40
0.4596457066
 40
0.4913846713
 40
0.5232315866
 40
0.555168468
 40
0.587175515
 40
0.6192315195
 40
0.6513142962
 40
0.6834011282
 40
0.7154692177
 40
0.7474961397
 40
0.7794602892
 40
0.8113413161
 40
0.8431205468
 40
0.8747813742
 40
0.9063096205
 40
0.9376938957
 40
0.9689255646
 40
1.0
 40
1.0
 40
1.0
 40
1.0
 10
10.8097227809
 20
7.3268289108
 30
0.0
 10
10.8060727067
 20
7.3233032066
 30
0.0
 10
10.7986307998
 20
7.3163953988
 30
0.0
 10
10.7870637428
 20
7.3064843895
 30
0.0
 10
10.775107215
 20
7.2970365134
 30
0.0
 10
10.7627779139
 20
7.2880649678
 30
0.0
 10
10.7500927052
 20
7.2795820945
 30
0.0
 10
10.7370691031
 20
7.2715995345
 30
0.0
 10
10.7237250089
 20
7.2641282488
 30
0.0
 10
10.7100788357
 20
7.2571785926
 30
0.0
 10
10.6961491094
 20
7.250759978
 30
0.0
 10
10.677209115
 20
7.2429154711
 30
0.0
 10
10.6529096433
 20
7.2344801336
 30
0.0
 10
10.6229643446
 20
7.2266186846
 30
0.0
 10
10.5923655906
 20
7.2210493618
 30
0.0
 10
10.5612829911
 20
7.21780297
 30
0.0
 10
10.5298872818
 20
7.2168968281
 30
0.0
 10
10.4983512158
 20
7.2183355118
 30
0.0
 10
10.4668481191
 20
7.2221107258
 30
0.0
 10
10.4355510956
 20
7.2282013911
 30
0.0
 10
10.4046320271
 20
7.2365736619
 30
0.0
 10
10.3742606661
 20
7.2471812459
 30
0.0
 10
10.3446037336
 20
7.2599656671
 30
0.0
 10
10.3158239755
 20
7.2748564847
 30
0.0
 10
10.2880792972
 20
7.2917717486
 30
0.0
 10
10.261521943
 20
7.3106184933
 30
0.0
 10
10.2362976369
 20
7.3312931764
 30
0.0
 10
10.2125447655
 20
7.353682228
 30
0.0
 10
10.1903936916
 20
7.3776627472
 30
0.0
 10
10.1699660387
 20
7.4031031411
 30
0.0
 10
10.1513739468
 20
7.4298637764
 30
0.0
 10
10.1347195448
 20
7.4577978135
 30
0.0
 10
10.1200944158
 20
7.4867520035
 30
0.0
 10
10.1075790005
 20
7.5165674444
 30
0.0
 10
10.0972421993
 20
7.547080551
 30
0.0
 10
10.0891410429
 20
7.5781236962
 30
0.0
 10
10.0833203784
 20
7.609527007
 30
0.0
 10
10.0798123642
 20
7.6411158024
 30
0.0
 10
10.079026649
 20
7.6622424299
 30
0.0
 10
10.079026649
 20
7.6727750443
 30
0.0
  0
SPLINE
  5
369
100
AcDbEntity
  8
0
100
AcDbSpline
 62
7
  6
CONTINUOUS
 70
0
 71
3
 72
41
 73
37
 74
0
 42
0.0000001
 43
0.0000001
 44
0.0000000001
 40
0.0
 40
0.0
 40
0.0
 40
0.0
 40
0.014969515
 40
0.0299431984
 40
0.0449240414
 40
0.0599149947
 40
0.0899329146
 40
0.1200248653
 40
0.1502111691
 40
0.1805099223
 40
0.2109365945
 40
0.2415037013
 40
0.2722205606
 40
0.30309313
 40
0.3341239224
 40
0.3653120023
 40
0.3966530609
 40
0.428139556
 40
0.4597609115
 40
0.4915037758
 40
0.5233523275
 40
0.5552886188
 40
0.5872929499
 40
0.6193442737
 40
0.6514206177
 40
0.6834995176
 40
0.7155584589
 40
0.7475753191
 40
0.7795288037
 40
0.8113988721
 40
0.8431671462
 40
0.87481729
 40
0.9063353607
 40
0.937710179
 40
0.9689332276
 40
1.0
 40
1.0
 40
1.0
 40
1.0
 10
10.8096943626
 20
7.3268615734
 30
0.0
 10
10.8060133985
 20
7.3234114263
 30
0.0
 10
10.7985132372
 20
7.3166548806
 30
0.0
 10
10.7868698455
 20
7.3069709514
 30
0.0
 10
10.7748472595
 20
7.2977493577
 30
0.0
 10
10.7583289272
 20
7.286083768
 30
0.0
 10
10.736803805
 20
7.2727140264
 30
0.0
 10
10.7097470601
 20
7.2587181143
 30
0.0
 10
10.681594543
 20
7.2468351233
 30
0.0
 10
10.6525006408
 20
7.2371302357
 30
0.0
 10
10.6226235354
 20
7.2296557623
 30
0.0
 10
10.5921259481
 20
7.2244520214
 30
0.0
 10
10.5611737809
 20
7.221546906
 30
0.0
 10
10.5299353393
 20
7.2209558454
 30
0.0
 10
10.4985803941
 20
7.2226816631
 30
0.0
 10
10.467279262
 20
7.226714573
 30
0.0
 10
10.4362018887
 20
7.2330323204
 30
0.0
 10
10.4055169513
 20
7.2416003132
 30
0.0
 10
10.3753909343
 20
7.2523717371
 30
0.0
 10
10.3459872415
 20
7.2652878639
 30
0.0
 10
10.3174653385
 20
7.2802784076
 30
0.0
 10
10.289979906
 20
7.2972618965
 30
0.0
 10
10.2636799649
 20
7.3161460389
 30
0.0
 10
10.2387081149
 20
7.3368282974
 30
0.0
 10
10.2151997843
 20
7.3591964449
 30
0.0
 10
10.1932824906
 20
7.3831291436
 30
0.0
 10
10.1730751076
 20
7.4084965599
 30
0.0
 10
10.1546872896
 20
7.4351611246
 30
0.0
 10
10.1382188893
 20
7.4629782619
 30
0.0
 10
10.1237593712
 20
7.4917971345
 30
0.0
 10
10.1113873189
 20
7.5214614387
 30
0.0
 10
10.1011700709
 20
7.5518103412
 30
0.0
 10
10.0931633384
 20
7.5826790773
 30
0.0
 10
10.087410901
 20
7.6139007
 30
0.0
 10
10.0839441708
 20
7.6453035906
 30
0.0
 10
10.0831677505
 20
7.6663047687
 30
0.0
 10
10.0831677505
 20
7.6767750414
 30
0.0
  0
SPLINE
  5
36A
100
AcDbEntity
  8
0
100
AcDbSpline
 62
7
  6
CONTINUOUS
 70
0
 71
3
 72
41
 73
37
 74
0
 42
0.0000001
 43
0.0000001
 44
0.0000000001
 40
0.0
 40
0.0
 40
0.0
 40
0.0
 40
0.0299421703
 40
0.0599087166
 40
0.0899234211
 40
0.1200088977
 40
0.150186053
 40
0.1804736004
 40
0.2108876395
 40
0.2414413098
 40
0.2721445264
 40
0.3030038
 40
0.3340221415
 40
0.3651990482
 40
0.3965305685
 40
0.4280094374
 40
0.4596252765
 40
0.4913648514
 40
0.5232123788
 40
0.5551498746
 40
0.5871575376
 40
0.6192141589
 40
0.6512975532
 40
0.6833850026
 40
0.7154537088
 40
0.731476412
 40
0.7474860771
 40
0.7794508401
 40
0.8113324799
 40
0.8431123195
 40
0.8747737613
 40
0.9063025943
 40
0.937687506
 40
0.953325536
 40
0.9689249997
 40
1.0
 40
1.0
 40
1.0
 40
1.0
 10
10.6792051529
 20
7.4857758531
 30
0.0
 10
10.6753065711
 20
7.4820101322
 30
0.0
 10
10.6672028862
 20
7.4747825676
 30
0.0
 10
10.6542194949
 20
7.4649363138
 30
0.0
 10
10.6404746348
 20
7.4561343963
 30
0.0
 10
10.6260450972
 20
7.4484262003
 30
0.0
 10
10.6110102165
 20
7.4418538351
 30
0.0
 10
10.5954529676
 20
7.4364534303
 30
0.0
 10
10.57945908
 20
7.4322545341
 30
0.0
 10
10.5631166684
 20
7.4292800718
 30
0.0
 10
10.5465157112
 20
7.4275462019
 30
0.0
 10
10.5297475607
 20
7.4270622469
 30
0.0
 10
10.5129044379
 20
7.4278306498
 30
0.0
 10
10.4960789287
 20
7.4298469759
 30
0.0
 10
10.479363479
 20
7.4330999461
 30
0.0
 10
10.4628498932
 20
7.4375715066
 30
0.0
 10
10.4466288366
 20
7.4432369342
 30
0.0
 10
10.4307893449
 20
7.4500649756
 30
0.0
 10
10.4154183423
 20
7.4580180223
 30
0.0
 10
10.4006001729
 20
7.4670523146
 30
0.0
 10
10.3864161355
 20
7.4771181946
 30
0.0
 10
10.3729440777
 20
7.4881603278
 30
0.0
 10
10.3602578441
 20
7.5001181904
 30
0.0
 10
10.3484273602
 20
7.5129257051
 30
0.0
 10
10.3393319994
 20
7.5242530772
 30
0.0
 10
10.3325460108
 20
7.5336683961
 30
0.0
 10
10.3261014594
 20
7.5432979844
 30
0.0
 10
10.318692038
 20
7.5557255301
 30
0.0
 10
10.3108810757
 20
7.571189432
 30
0.0
 10
10.3041966571
 20
7.5871136314
 30
0.0
 10
10.2986758804
 20
7.6034104567
 30
0.0
 10
10.2943491583
 20
7.6199900345
 30
0.0
 10
10.291755202
 20
7.6339850008
 30
0.0
 10
10.2903000601
 20
7.6452297702
 30
0.0
 10
10.2892615666
 20
7.6564637846
 30
0.0
 10
10.2889471216
 20
7.6649172966
 30
0.0
 10
10.2889471216
 20
7.6705426622
 30
0.0
  0
SPLINE
  5
36B
100
AcDbEntity
  8
0
100
AcDbSpline
 62
7
  6
CONTINUOUS
 70
0
 71
3
 72
18
 73
14
 74
0
 42
0.0000001
 43
0.0000001
 44
0.0000000001
 40
0.0
 40
0.0
 40
0.0
 40
0.0
 40
0.0548620589
 40
0.1099280789
 40
0.165399508
 40
0.2214731255
 40
0.2783387361
 40
0.3361775086
 40
0.4554063416
 40
0.5804417492
 40
0.7123343341
 40
0.8519577333
 40
1.0
 40
1.0
 40
1.0
 40
1.0
 10
10.0411481614
 20
10.6686907489
 30
0.0
 10
10.0411481615
 20
10.6696186162
 30
0.0
 10
10.0412070637
 20
10.6714783332
 30
0.0
 10
10.0414718663
 20
10.674264883
 30
0.0
 10
10.0419130533
 20
10.6770498271
 30
0.0
 10
10.0425304791
 20
10.6798321482
 30
0.0
 10
10.0433239044
 20
10.682611144
 30
0.0
 10
10.0446289115
 20
10.6863481483
 30
0.0
 10
10.0467195107
 20
10.6910221402
 30
0.0
 10
10.0499015331
 20
10.6965421425
 30
0.0
 10
10.0537770639
 20
10.7020264152
 30
0.0
 10
10.0583402067
 20
10.7074694541
 30
0.0
 10
10.0617339869
 20
10.7109618251
 30
0.0
 10
10.0635348559
 20
10.7127013312
 30
0.0
  0
SPLINE
  5
36C
100
AcDbEntity
  8
0
100
AcDbSpline
 62
7
  6
CONTINUOUS
 70
0
 71
3
 72
23
 73
19
 74
0
 42
0.0000001
 43
0.0000001
 44
0.0000000001
 40
0.0
 40
0.0
 40
0.0
 40
0.0
 40
0.0616994066
 40
0.1234251728
 40
0.1851973399
 40
0.2470354942
 40
0.308958575
 40
0.3709846904
 40
0.4331309438
 40
0.495413278
 40
0.5578463251
 40
0.6204432928
 40
0.6832158168
 40
0.7461738608
 40
0.8093259207
 40
0.8726776
 40
0.9362358155
 40
1.0
 40
1.0
 40
1.0
 40
1.0
 10
10.1983772997
 20
7.9597432683
 30
0.0
 10
10.1938065539
 20
7.9551935392
 30
0.0
 10
10.1848913931
 20
7.9458594366
 30
0.0
 10
10.1722395676
 20
7.9311978969
 30
0.0
 10
10.1603336537
 20
7.9159054287
 30
0.0
 10
10.1492005682
 20
7.900016491
 30
0.0
 10
10.1388649213
 20
7.8835662901
 30
0.0
 10
10.1293497128
 20
7.8665914289
 30
0.0
 10
10.1206760581
 20
7.8491296432
 30
0.0
 10
10.1128631969
 20
7.8312197635
 30
0.0
 10
10.1059284547
 20
7.8129016038
 30
0.0
 10
10.0998872093
 20
7.7942158783
 30
0.0
 10
10.094752859
 20
7.7752041177
 30
0.0
 10
10.0905367588
 20
7.7559085404
 30
0.0
 10
10.0872482813
 20
7.7363721249
 30
0.0
 10
10.0848945487
 20
7.7166379644
 30
0.0
 10
10.0834809495
 20
7.6967506554
 30
0.0
 10
10.0831677505
 20
7.6834400303
 30
0.0
 10
10.0831677505
 20
7.6767750414
 30
0.0
  0
SPLINE
  5
36D
100
AcDbEntity
  8
0
100
AcDbSpline
 62
7
  6
CONTINUOUS
 70
0
 71
3
 72
9
 73
5
 74
0
 42
0.0000001
 43
0.0000001
 44
0.0000000001
 40
0.0
 40
0.0
 40
0.0
 40
0.0
 40
0.4862217708
 40
1.0
 40
1.0
 40
1.0
 40
1.0
 10
10.054273172
 20
10.6348951546
 30
0.0
 10
10.0556511668
 20
10.6366525813
 30
0.0
 10
10.0586281809
 20
10.6401564017
 30
0.0
 10
10.0618375434
 20
10.6434470412
 30
0.0
 10
10.0635348559
 20
10.6450865193
 30
0.0
  0
SPLINE
  5
36E
100
AcDbEntity
  8
0
100
AcDbSpline
 62
7
  6
CONTINUOUS
 70
0
 71
3
 72
21
 73
17
 74
0
 42
0.0000001
 43
0.0000001
 44
0.0000000001
 40
0.0
 40
0.0
 40
0.0
 40
0.0
 40
0.0617147758
 40
0.1234506606
 40
0.1852285516
 40
0.2470689039
 40
0.3089915432
 40
0.3710154715
 40
0.4331586565
 40
0.4954378534
 40
0.5578684959
 40
0.6204644995
 40
0.6832380575
 40
0.7461999878
 40
0.87268242
 40
1.0
 40
1.0
 40
1.0
 40
1.0
 10
10.3526742555
 20
7.8238254933
 30
0.0
 10
10.3501509242
 20
7.8213881553
 30
0.0
 10
10.3452279502
 20
7.8163817727
 30
0.0
 10
10.3382381012
 20
7.8085010289
 30
0.0
 10
10.3316576426
 20
7.8002658595
 30
0.0
 10
10.3255020065
 20
7.7916955275
 30
0.0
 10
10.3197852782
 20
7.7828097601
 30
0.0
 10
10.3145206626
 20
7.7736290651
 30
0.0
 10
10.3097203181
 20
7.764174598
 30
0.0
 10
10.305395256
 20
7.7544681988
 30
0.0
 10
10.3015554236
 20
7.7445322343
 30
0.0
 10
10.2982097092
 20
7.7343896775
 30
0.0
 10
10.2953657411
 20
7.7240636533
 30
0.0
 10
10.2922471732
 20
7.7100641618
 30
0.0
 10
10.2896379943
 20
7.6922170607
 30
0.0
 10
10.2889471216
 20
7.6777801816
 30
0.0
 10
10.2889471216
 20
7.6705426622
 30
0.0
  0
SPLINE
  5
36F
100
AcDbEntity
  8
0
100
AcDbSpline
 62
7
  6
CONTINUOUS
 70
0
 71
3
 72
41
 73
37
 74
0
 42
0.0000001
 43
0.0000001
 44
0.0000000001
 40
0.0
 40
0.0
 40
0.0
 40
0.0
 40
0.0299421722
 40
0.0599087187
 40
0.0899234222
 40
0.1200088965
 40
0.1501860486
 40
0.1804735921
 40
0.2108876267
 40
0.2414412921
 40
0.2721445039
 40
0.3030037728
 40
0.3340221097
 40
0.3651990124
 40
0.3965305293
 40
0.4280093954
 40
0.4596252325
 40
0.4913648061
 40
0.523212333
 40
0.5551498293
 40
0.5871574933
 40
0.6192141165
 40
0.6512975132
 40
0.6833849656
 40
0.7154536753
 40
0.7314763803
 40
0.7474860474
 40
0.7794508144
 40
0.8113324582
 40
0.8431123019
 40
0.8747737477
 40
0.9063025846
 40
0.9376874998
 40
0.9533255315
 40
0.9689249968
 40
1.0
 40
1.0
 40
1.0
 40
1.0
 10
11.4958114247
 20
9.9085928706
 30
0.0
 10
11.4923110068
 20
9.9052117082
 30
0.0
 10
11.4850349515
 20
9.8987222261
 30
0.0
 10
11.473377545
 20
9.8898814696
 30
0.0
 10
11.4610364296
 20
9.8819783949
 30
0.0
 10
11.4480805544
 20
9.8750573441
 30
0.0
 10
11.4345811517
 20
9.8691561267
 30
0.0
 10
11.4206127228
 20
9.8643071828
 30
0.0
 10
11.4062522422
 20
9.8605370435
 30
0.0
 10
11.3915788259
 20
9.8578662932
 30
0.0
 10
11.3766732636
 20
9.8563094407
 30
0.0
 10
11.3616175784
 20
9.8558748566
 30
0.0
 10
11.3464945737
 20
9.8565647349
 30
0.0
 10
11.33138738
 20
9.8583750939
 30
0.0
 10
11.3163790026
 20
9.8612958067
 30
0.0
 10
11.3015518707
 20
9.8653106635
 30
0.0
 10
11.2869873907
 20
9.8703974659
 30
0.0
 10
11.272765506
 20
9.8765281525
 30
0.0
 10
11.2589642638
 20
9.8836689559
 30
0.0
 10
11.245659395
 20
9.8917805851
 30
0.0
 10
11.2329238961
 20
9.9008184538
 30
0.0
 10
11.2208276648
 20
9.9107328783
 30
0.0
 10
11.2094370046
 20
9.9214695158
 30
0.0
 10
11.1988147003
 20
9.932969037
 30
0.0
 10
11.190648196
 20
9.9431395814
 30
0.0
 10
11.1845552207
 20
9.9515933461
 30
0.0
 10
11.1787688134
 20
9.9602394986
 30
0.0
 10
11.1721160722
 20
9.9713978648
 30
0.0
 10
11.1651027968
 20
9.9852824976
 30
0.0
 10
11.1591010176
 20
9.9995804216
 30
0.0
 10
11.1541440445
 20
10.0142129183
 30
0.0
 10
11.1502591841
 20
10.0290992925
 30
0.0
 10
11.1479301328
 20
10.0416650116
 30
0.0
 10
11.1466235956
 20
10.0517614002
 30
0.0
 10
11.1456911571
 20
10.0618481322
 30
0.0
 10
11.1454088244
 20
10.0694383228
 30
0.0
 10
11.1454088244
 20
10.0744891937
 30
0.0
  0
SPLINE
  5
370
100
AcDbEntity
  8
0
100
AcDbSpline
 62
7
  6
CONTINUOUS
 70
0
 71
3
 72
88
 73
84
 74
0
 42
0.0000001
 43
0.0000001
 44
0.0000000001
 40
0.0
 40
0.0
 40
0.0
 40
0.0
 40
0.003944109
 40
0.0080521233
 40
0.0123275772
 40
0.0167734812
 40
0.0213923639
 40
0.0261861571
 40
0.031156164
 40
0.0363032696
 40
0.0416279163
 40
0.047130213
 40
0.052809915
 40
0.0586664543
 40
0.0646990166
 40
0.0709064851
 40
0.0838402882
 40
0.0974551242
 40
0.1117347736
 40
0.126660352
 40
0.1422106096
 40
0.1583621779
 40
0.1750897725
 40
0.1923663697
 40
0.2101633664
 40
0.2284507196
 40
0.2471970724
 40
0.2663698715
 40
0.285935476
 40
0.3058592602
 40
0.3261057184
 40
0.3466385638
 40
0.3674208241
 40
0.3884149354
 40
0.4095828344
 40
0.4308860499
 40
0.4522857956
 40
0.4952180532
 40
0.5380671288
 40
0.5593630805
 40
0.5805213205
 40
0.6015034018
 40
0.6222712894
 40
0.6427874525
 40
0.6630149572
 40
0.6829175606
 40
0.7024598106
 40
0.7216071427
 40
0.7403259804
 40
0.7585838396
 40
0.7763494394
 40
0.7935928197
 40
0.8102854722
 40
0.8264004817
 40
0.8419126784
 40
0.8567988164
 40
0.8710377825
 40
0.884610845
 40
0.8975019603
 40
0.9036878156
 40
0.9096986028
 40
0.915533268
 40
0.9211909916
 40
0.9266712804
 40
0.9319739022
 40
0.9370990118
 40
0.942047114
 40
0.9468191402
 40
0.9514165091
 40
0.9558411286
 40
0.9600955458
 40
0.9641829291
 40
0.9681072327
 40
0.9718732472
 40
0.9754867125
 40
0.9789544699
 40
0.9822845209
 40
0.9854862254
 40
0.9885703446
 40
0.9915491727
 40
0.9944365635
 40
0.9972478971
 40
1.0
 40
1.0
 40
1.0
 40
1.0
 10
12.735285849
 20
8.3473200164
 30
0.0
 10
12.7366359233
 20
8.348624088
 30
0.0
 10
12.7393346391
 20
8.3513465271
 30
0.0
 10
12.7432994613
 20
8.3556726223
 30
0.0
 10
12.74726021
 20
8.3603209177
 30
0.0
 10
12.7512148421
 20
8.3652889707
 30
0.0
 10
12.7551615743
 20
8.3705744414
 30
0.0
 10
12.7590985433
 20
8.3761748515
 30
0.0
 10
12.7630239354
 20
8.3820875012
 30
0.0
 10
12.7669357906
 20
8.3883095739
 30
0.0
 10
12.7708322807
 20
8.3948380462
 30
0.0
 10
12.7747115001
 20
8.4016697907
 30
0.0
 10
12.7785715819
 20
8.4088015132
 30
0.0
 10
12.7824106742
 20
8.4162297611
 30
0.0
 10
12.7862268964
 20
8.4239509655
 30
0.0
 10
12.7913525439
 20
8.4347801833
 30
0.0
 10
12.7976779645
 20
8.449031133
 30
0.0
 10
12.8050480128
 20
8.4670122995
 30
0.0
 10
12.8122835143
 20
8.4860653767
 30
0.0
 10
12.8193703415
 20
8.5061534252
 30
0.0
 10
12.8262946515
 20
8.5272376631
 30
0.0
 10
12.8330429087
 20
8.5492772516
 30
0.0
 10
12.839601921
 20
8.5722294693
 30
0.0
 10
12.8459588701
 20
8.5960497786
 30
0.0
 10
12.8521013327
 20
8.6206919298
 30
0.0
 10
12.8580173069
 20
8.6461080555
 30
0.0
 10
12.8636952355
 20
8.6722487683
 30
0.0
 10
12.8691240284
 20
8.6990632588
 30
0.0
 10
12.8742930835
 20
8.7264993948
 30
0.0
 10
12.8791923126
 20
8.7545038239
 30
0.0
 10
12.8838121557
 20
8.7830220804
 30
0.0
 10
12.8881435998
 20
8.8119986948
 30
0.0
 10
12.892178195
 20
8.8413773015
 30
0.0
 10
12.8959080748
 20
8.8711007532
 30
0.0
 10
12.8993259571
 20
8.9011112144
 30
0.0
 10
12.9024252095
 20
8.9313503387
 30
0.0
 10
12.9061283288
 20
8.9719372331
 30
0.0
 10
12.9099197883
 20
9.0228092343
 30
0.0
 10
12.9125886902
 20
9.0737030418
 30
0.0
 10
12.914035761
 20
9.1142747582
 30
0.0
 10
12.914771544
 20
9.1444565114
 30
0.0
 10
12.9151586575
 20
9.1743934003
 30
0.0
 10
12.9151963401
 20
9.2040272258
 30
0.0
 10
12.9148845441
 20
9.2333003264
 30
0.0
 10
12.9142238966
 20
9.2621557583
 30
0.0
 10
12.9132157083
 20
9.2905373912
 30
0.0
 10
12.9118619749
 20
9.3183900239
 30
0.0
 10
12.910165369
 20
9.3456594919
 30
0.0
 10
12.9081292348
 20
9.3722927736
 30
0.0
 10
12.9057575825
 20
9.3982380935
 30
0.0
 10
12.9030550806
 20
9.4234450253
 30
0.0
 10
12.9000270466
 20
9.4478645939
 30
0.0
 10
12.8966794408
 20
9.4714493784
 30
0.0
 10
12.893018855
 20
9.4941536077
 30
0.0
 10
12.8890524953
 20
9.5159332618
 30
0.0
 10
12.8847881656
 20
9.5367461392
 30
0.0
 10
12.8802342555
 20
9.5565520368
 30
0.0
 10
12.8753996964
 20
9.5753125432
 30
0.0
 10
12.8710877632
 20
9.5902436157
 30
0.0
 10
12.8674949144
 20
9.6016302689
 30
0.0
 10
12.8647731197
 20
9.6097689676
 30
0.0
 10
12.8619884468
 20
9.6176201994
 30
0.0
 10
12.8591421748
 20
9.6251801702
 30
0.0
 10
12.8562357494
 20
9.6324452403
 30
0.0
 10
12.8532705126
 20
9.6394118926
 30
0.0
 10
12.8502479408
 20
9.6460767849
 30
0.0
 10
12.8471694644
 20
9.6524367097
 30
0.0
 10
12.8440365422
 20
9.6584886105
 30
0.0
 10
12.840850705
 20
9.6642296082
 30
0.0
 10
12.8376133882
 20
9.669656932
 30
0.0
 10
12.8343261755
 20
9.6747680273
 30
0.0
 10
12.8309905212
 20
9.6795604298
 30
0.0
 10
12.8276079782
 20
9.6840318719
 30
0.0
 10
12.8241800594
 20
9.6881802182
 30
0.0
 10
12.8207082348
 20
9.6920034371
 30
0.0
 10
12.8171940646
 20
9.6954997052
 30
0.0
 10
12.8136389615
 20
9.6986671904
 30
0.0
 10
12.8100444899
 20
9.7015042899
 30
0.0
 10
12.8064121054
 20
9.7040093669
 30
0.0
 10
12.8027434147
 20
9.7061808986
 30
0.0
 10
12.7990399769
 20
9.7080174831
 30
0.0
 10
12.7953039215
 20
9.7095175684
 30
0.0
 10
12.792770403
 20
9.7102993892
 30
0.0
 10
12.791503398
 20
9.710631296
 30
0.0
  0
SPLINE
  5
371
100
AcDbEntity
  8
0
100
AcDbSpline
 62
7
  6
CONTINUOUS
 70
0
 71
3
 72
18
 73
14
 74
0
 42
0.0000001
 43
0.0000001
 44
0.0000000001
 40
0.0
 40
0.0
 40
0.0
 40
0.0
 40
0.150467608
 40
0.291710008
 40
0.4244359371
 40
0.549562455
 40
0.6682139939
 40
0.7255497488
 40
0.7817912909
 40
0.8371402503
 40
0.8918093826
 40
0.9460201179
 40
1.0
 40
1.0
 40
1.0
 40
1.0
 10
12.7507406639
 20
8.3462482213
 30
0.0
 10
12.7487758359
 20
8.3443503431
 30
0.0
 10
12.7448489698
 20
8.3407894351
 30
0.0
 10
12.7387682493
 20
8.3360439173
 30
0.0
 10
12.732694671
 20
8.3320750055
 30
0.0
 10
12.726634523
 20
8.3288892143
 30
0.0
 10
12.7215410353
 20
8.326869063
 30
0.0
 10
12.7174970311
 20
8.32566881
 30
0.0
 10
12.7145071043
 20
8.3249770012
 30
0.0
 10
12.7115270969
 20
8.3244839314
 30
0.0
 10
12.7085578437
 20
8.3241897749
 30
0.0
 10
12.7056005259
 20
8.324094685
 30
0.0
 10
12.703635769
 20
8.3241641762
 30
0.0
 10
12.7026581062
 20
8.3242319732
 30
0.0
  0
SPLINE
  5
372
100
AcDbEntity
  8
0
100
AcDbSpline
 62
7
  6
CONTINUOUS
 70
0
 71
3
 72
15
 73
11
 74
0
 42
0.0000001
 43
0.0000001
 44
0.0000000001
 40
0.0
 40
0.0
 40
0.0
 40
0.0
 40
0.1475175283
 40
0.2873887654
 40
0.4200666523
 40
0.5461288402
 40
0.6662700222
 40
0.7813085293
 40
0.8921937785
 40
1.0
 40
1.0
 40
1.0
 40
1.0
 10
12.735285849
 20
8.3473200164
 30
0.0
 10
12.7336251313
 20
8.3457158861
 30
0.0
 10
12.7303054482
 20
8.3426761753
 30
0.0
 10
12.7251915504
 20
8.3385368048
 30
0.0
 10
12.7200828292
 20
8.3349460556
 30
0.0
 10
12.7149829879
 20
8.3319074832
 30
0.0
 10
12.7098953562
 20
8.3294242945
 30
0.0
 10
12.7048232752
 20
8.3274997105
 30
0.0
 10
12.6997716263
 20
8.3261370119
 30
0.0
 10
12.6963830683
 20
8.3255992404
 30
0.0
 10
12.694704341
 20
8.3254285581
 30
0.0
  0
SPLINE
  5
373
100
AcDbEntity
  8
0
100
AcDbSpline
 62
7
  6
CONTINUOUS
 70
0
 71
3
 72
28
 73
24
 74
0
 42
0.0000001
 43
0.0000001
 44
0.0000000001
 40
0.0
 40
0.0
 40
0.0
 40
0.0
 40
0.0755865963
 40
0.1466184767
 40
0.2134342721
 40
0.2764743415
 40
0.3362782293
 40
0.3934901579
 40
0.4213681045
 40
0.4488864282
 40
0.476151598
 40
0.5032733404
 40
0.5303632319
 40
0.5575333204
 40
0.5848945514
 40
0.6125553576
 40
0.6406204677
 40
0.6691896304
 40
0.728186774
 40
0.7902486338
 40
0.8559435843
 40
0.9257367535
 40
1.0
 40
1.0
 40
1.0
 40
1.0
 10
12.735285849
 20
8.5115274166
 30
0.0
 10
12.7338267132
 20
8.5101179995
 30
0.0
 10
12.7309104247
 20
8.507470699
 30
0.0
 10
12.7263971437
 20
8.5039341163
 30
0.0
 10
12.7218892301
 20
8.5009638652
 30
0.0
 10
12.7173905853
 20
8.4985644664
 30
0.0
 10
12.7129055991
 20
8.4967401687
 30
0.0
 10
12.7091494993
 20
8.4956940547
 30
0.0
 10
12.706173209
 20
8.4951588332
 30
0.0
 10
12.7039675322
 20
8.4949057507
 30
0.0
 10
12.7017703453
 20
8.4947978749
 30
0.0
 10
12.6995822877
 20
8.4948351969
 30
0.0
 10
12.6974040974
 20
8.4950177538
 30
0.0
 10
12.6952364974
 20
8.4953455156
 30
0.0
 10
12.6930801882
 20
8.4958183007
 30
0.0
 10
12.6909358654
 20
8.4964358957
 30
0.0
 10
12.6888041464
 20
8.4971981347
 30
0.0
 10
12.685949433
 20
8.4984196325
 30
0.0
 10
12.6824039663
 20
8.5003255076
 30
0.0
 10
12.6782608302
 20
8.5031610317
 30
0.0
 10
12.6741859262
 20
8.5065646576
 30
0.0
 10
12.670183071
 20
8.510531209
 30
0.0
 10
12.6676461233
 20
8.5134537866
 30
0.0
 10
12.6663885018
 20
8.515000097
 30
0.0
  0
SPLINE
  5
374
100
AcDbEntity
  8
0
100
AcDbSpline
 62
7
  6
CONTINUOUS
 70
0
 71
3
 72
41
 73
37
 74
0
 42
0.0000001
 43
0.0000001
 44
0.0000000001
 40
0.0
 40
0.0
 40
0.0
 40
0.0
 40
0.0299421722
 40
0.0599087187
 40
0.0899234222
 40
0.1200088965
 40
0.1501860486
 40
0.1804735921
 40
0.2108876267
 40
0.2414412921
 40
0.2721445039
 40
0.3030037728
 40
0.3340221097
 40
0.3651990124
 40
0.3965305293
 40
0.4280093954
 40
0.4596252325
 40
0.4913648061
 40
0.523212333
 40
0.5551498293
 40
0.5871574933
 40
0.6192141165
 40
0.6512975132
 40
0.6833849656
 40
0.7154536753
 40
0.7314763803
 40
0.7474860474
 40
0.7794508144
 40
0.8113324582
 40
0.8431123019
 40
0.8747737477
 40
0.9063025846
 40
0.9376874998
 40
0.9533255315
 40
0.9689249968
 40
1.0
 40
1.0
 40
1.0
 40
1.0
 10
10.4091448058
 20
6.8446943351
 30
0.0
 10
10.4056443878
 20
6.8413131727
 30
0.0
 10
10.3983683326
 20
6.8348236906
 30
0.0
 10
10.386710926
 20
6.8259829342
 30
0.0
 10
10.3743698107
 20
6.8180798594
 30
0.0
 10
10.3614139354
 20
6.8111588086
 30
0.0
 10
10.3479145328
 20
6.8052575912
 30
0.0
 10
10.3339461038
 20
6.8004086473
 30
0.0
 10
10.3195856232
 20
6.796638508
 30
0.0
 10
10.304912207
 20
6.7939677578
 30
0.0
 10
10.2900066447
 20
6.7924109052
 30
0.0
 10
10.2749509595
 20
6.7919763212
 30
0.0
 10
10.2598279547
 20
6.7926661994
 30
0.0
 10
10.244720761
 20
6.7944765585
 30
0.0
 10
10.2297123836
 20
6.7973972713
 30
0.0
 10
10.2148852517
 20
6.801412128
 30
0.0
 10
10.2003207718
 20
6.8064989304
 30
0.0
 10
10.1860988871
 20
6.8126296171
 30
0.0
 10
10.1722976448
 20
6.8197704204
 30
0.0
 10
10.158992776
 20
6.8278820497
 30
0.0
 10
10.1462572771
 20
6.8369199183
 30
0.0
 10
10.1341610458
 20
6.8468343429
 30
0.0
 10
10.1227703856
 20
6.8575709804
 30
0.0
 10
10.1121480814
 20
6.8690705016
 30
0.0
 10
10.103981577
 20
6.879241046
 30
0.0
 10
10.0978886017
 20
6.8876948106
 30
0.0
 10
10.0921021944
 20
6.8963409631
 30
0.0
 10
10.0854494532
 20
6.9074993293
 30
0.0
 10
10.0784361779
 20
6.9213839621
 30
0.0
 10
10.0724343987
 20
6.9356818861
 30
0.0
 10
10.0674774255
 20
6.9503143829
 30
0.0
 10
10.0635925652
 20
6.965200757
 30
0.0
 10
10.0612635138
 20
6.9777664762
 30
0.0
 10
10.0599569766
 20
6.9878628647
 30
0.0
 10
10.0590245382
 20
6.9979495967
 30
0.0
 10
10.0587422055
 20
7.0055397874
 30
0.0
 10
10.0587422055
 20
7.0105906583
 30
0.0
  0
SPLINE
  5
375
100
AcDbEntity
  8
0
100
AcDbSpline
 62
7
  6
CONTINUOUS
 70
0
 71
3
 72
18
 73
14
 74
0
 42
0.0000001
 43
0.0000001
 44
0.0000000001
 40
0.0
 40
0.0
 40
0.0
 40
0.0
 40
0.15046785
 40
0.2917141997
 40
0.4244423494
 40
0.4879097388
 40
0.5496092867
 40
0.6682625295
 40
0.7817883371
 40
0.8371380783
 40
0.8918079093
 40
0.9460193322
 40
1.0
 40
1.0
 40
1.0
 40
1.0
 10
12.6918191843
 20
8.5580085048
 30
0.0
 10
12.6904621877
 20
8.5566977466
 30
0.0
 10
12.6877500339
 20
8.5542383808
 30
0.0
 10
12.6835505539
 20
8.55096097
 30
0.0
 10
12.6800033756
 20
8.5486430097
 30
0.0
 10
12.6771748161
 20
8.5470733544
 30
0.0
 10
12.674429469
 20
8.5457257565
 30
0.0
 10
12.6709969163
 20
8.5443640479
 30
0.0
 10
12.6675033025
 20
8.5434348024
 30
0.0
 10
12.6647362559
 20
8.5429770364
 30
0.0
 10
12.6626854923
 20
8.5427738635
 30
0.0
 10
12.6606430242
 20
8.5427082429
 30
0.0
 10
12.6592860588
 20
8.5427562366
 30
0.0
 10
12.658610833
 20
8.5428030596
 30
0.0
  0
SPLINE
  5
376
100
AcDbEntity
  8
0
100
AcDbSpline
 62
7
  6
CONTINUOUS
 70
0
 71
3
 72
23
 73
19
 74
0
 42
0.0000001
 43
0.0000001
 44
0.0000000001
 40
0.0
 40
0.0
 40
0.0
 40
0.0
 40
0.0637774716
 40
0.1273446947
 40
0.1907020108
 40
0.2538561385
 40
0.3168131788
 40
0.379582097
 40
0.4421733871
 40
0.5045993393
 40
0.5668738666
 40
0.62901238
 40
0.6910316508
 40
0.7529496465
 40
0.8147853569
 40
0.8765586065
 40
0.938289857
 40
1.0
 40
1.0
 40
1.0
 40
1.0
 10
10.079026649
 20
7.6727750443
 30
0.0
 10
10.079026649
 20
7.6795637289
 30
0.0
 10
10.0793515671
 20
7.6931210197
 30
0.0
 10
10.0808181681
 20
7.7133745152
 30
0.0
 10
10.0832600116
 20
7.7334674193
 30
0.0
 10
10.0866713453
 20
7.7533526682
 30
0.0
 10
10.091044474
 20
7.7729847138
 30
0.0
 10
10.096369306
 20
7.792318204
 30
0.0
 10
10.1026336428
 20
7.8113085868
 30
0.0
 10
10.1098230725
 20
7.8299120647
 30
0.0
 10
10.117921052
 20
7.8480857367
 30
0.0
 10
10.1269089426
 20
7.8657876862
 30
0.0
 10
10.1367660464
 20
7.8829770763
 30
0.0
 10
10.1474696696
 20
7.8996142595
 30
0.0
 10
10.1589951184
 20
7.9156608127
 30
0.0
 10
10.1713159576
 20
7.9310798407
 30
0.0
 10
10.1844032821
 20
7.9458352962
 30
0.0
 10
10.1936207785
 20
7.9552089163
 30
0.0
 10
10.1983452946
 20
7.9597724528
 30
0.0
  0
SPLINE
  5
377
100
AcDbEntity
  8
0
100
AcDbSpline
 62
7
  6
CONTINUOUS
 70
0
 71
3
 72
92
 73
88
 74
0
 42
0.0000001
 43
0.0000001
 44
0.0000000001
 40
0.0
 40
0.0
 40
0.0
 40
0.0
 40
0.0027164136
 40
0.0054531999
 40
0.0082302488
 40
0.0110665156
 40
0.0139797
 40
0.0169859759
 40
0.0200999097
 40
0.0233343921
 40
0.0267007085
 40
0.030208627
 40
0.0338664962
 40
0.0376814269
 40
0.0416593531
 40
0.0458052407
 40
0.0501231229
 40
0.0546162682
 40
0.0592872359
 40
0.0641379574
 40
0.0691698402
 40
0.0743837612
 40
0.0797802065
 40
0.0853592201
 40
0.0911205286
 40
0.0970635116
 40
0.1031872593
 40
0.1094906055
 40
0.1226297411
 40
0.1364672907
 40
0.1509859854
 40
0.1661657644
 40
0.1819840906
 40
0.1984162077
 40
0.2154353587
 40
0.2330129748
 40
0.2511188396
 40
0.2697212359
 40
0.2887870798
 40
0.3082820459
 40
0.3281706839
 40
0.3484165301
 40
0.3689822167
 40
0.3898295783
 40
0.4109197545
 40
0.4322132911
 40
0.4536702402
 40
0.4752502592
 40
0.4969127091
 40
0.5186167533
 40
0.5403214559
 40
0.56198588
 40
0.5835691848
 40
0.6050307242
 40
0.626330144
 40
0.6474274812
 40
0.6682832628
 40
0.6888586082
 40
0.7091153287
 40
0.729016031
 40
0.7485242218
 40
0.7676044158
 40
0.7862222477
 40
0.8043445896
 40
0.8219396778
 40
0.8389772466
 40
0.8554286739
 40
0.871267144
 40
0.8864678337
 40
0.9010081287
 40
0.9148678812
 40
0.9215371855
 40
0.928030107
 40
0.9343449535
 40
0.9404803007
 40
0.946434946
 40
0.9522079623
 40
0.9577987256
 40
0.9632069066
 40
0.9684325773
 40
0.9734761504
 40
0.9783385002
 40
0.9830209469
 40
0.987525443
 40
0.9918546017
 40
0.9960115601
 40
1.0
 40
1.0
 40
1.0
 40
1.0
 10
12.7988232216
 20
9.7109014475
 30
0.0
 10
12.8001203542
 20
9.7108114967
 30
0.0
 10
12.8027177066
 20
9.7105135279
 30
0.0
 10
12.8065806764
 20
9.7097161595
 30
0.0
 10
12.8104144353
 20
9.7085684453
 30
0.0
 10
12.8142162941
 20
9.7070716071
 30
0.0
 10
12.8179842289
 20
9.7052268441
 30
0.0
 10
12.8217163732
 20
9.7030357251
 30
0.0
 10
12.82541095
 20
9.7004997136
 30
0.0
 10
12.8290663544
 20
9.6976204756
 30
0.0
 10
12.8326809978
 20
9.6943996734
 30
0.0
 10
12.8362533002
 20
9.6908390525
 30
0.0
 10
12.8397817511
 20
9.6869405084
 30
0.0
 10
12.8432647161
 20
9.6827059672
 30
0.0
 10
12.8467006948
 20
9.6781375927
 30
0.0
 10
12.8500880277
 20
9.6732375961
 30
0.0
 10
12.8534251817
 20
9.6680084241
 30
0.0
 10
12.8567105332
 20
9.6624526314
 30
0.0
 10
12.8599425018
 20
9.6565729594
 30
0.0
 10
12.863119537
 20
9.6503723179
 30
0.0
 10
12.8662400316
 20
9.6438537586
 30
0.0
 10
12.8693025062
 20
9.6370205324
 30
0.0
 10
12.8723053741
 20
9.6298760146
 30
0.0
 10
12.8752471982
 20
9.6224237773
 30
0.0
 10
12.8781264663
 20
9.6146675236
 30
0.0
 10
12.880941751
 20
9.6066111338
 30
0.0
 10
12.883691668
 20
9.5982586213
 30
0.0
 10
12.887319396
 20
9.5865705476
 30
0.0
 10
12.8916678849
 20
9.5712427394
 30
0.0
 10
12.8965345957
 20
9.5519834085
 30
0.0
 10
12.9011095226
 20
9.5316504381
 30
0.0
 10
12.9053833826
 20
9.5102845879
 30
0.0
 10
12.909347477
 20
9.487928527
 30
0.0
 10
12.91299374
 20
9.4646270417
 30
0.0
 10
12.9163147507
 20
9.4404268442
 30
0.0
 10
12.9193037495
 20
9.4153764924
 30
0.0
 10
12.9219546521
 20
9.3895262773
 30
0.0
 10
12.9242620619
 20
9.3629281186
 30
0.0
 10
12.92622128
 20
9.3356354554
 30
0.0
 10
12.9278283146
 20
9.3077031364
 30
0.0
 10
12.9290798878
 20
9.2791873078
 30
0.0
 10
12.9299734448
 20
9.2501452987
 30
0.0
 10
12.9305071563
 20
9.2206355032
 30
0.0
 10
12.9306799213
 20
9.1907172612
 30
0.0
 10
12.930491369
 20
9.1604507377
 30
0.0
 10
12.9299418589
 20
9.1298968007
 30
0.0
 10
12.9290324805
 20
9.0991168991
 30
0.0
 10
12.9277650499
 20
9.0681729385
 30
0.0
 10
12.9261421072
 20
9.0371271559
 30
0.0
 10
12.9241669126
 20
9.0060419943
 30
0.0
 10
12.9218434382
 20
8.9749799759
 30
0.0
 10
12.9191763591
 20
8.9440035754
 30
0.0
 10
12.9161710445
 20
8.9131750949
 30
0.0
 10
12.9128335468
 20
8.8825565376
 30
0.0
 10
12.9091705894
 20
8.8522094834
 30
0.0
 10
12.9051895535
 20
8.8221949644
 30
0.0
 10
12.9008984637
 20
8.7925733404
 30
0.0
 10
12.896305974
 20
8.7634041766
 30
0.0
 10
12.8914213475
 20
8.7347461226
 30
0.0
 10
12.886254439
 20
8.7066567944
 30
0.0
 10
12.880815675
 20
8.6791926574
 30
0.0
 10
12.8751160332
 20
8.6524089113
 30
0.0
 10
12.8691670208
 20
8.6263593774
 30
0.0
 10
12.862980651
 20
8.6010963872
 30
0.0
 10
12.8565694205
 20
8.5766706721
 30
0.0
 10
12.8499462845
 20
8.553131258
 30
0.0
 10
12.8431246278
 20
8.5305253567
 30
0.0
 10
12.8361182372
 20
8.5088982863
 30
0.0
 10
12.8289412712
 20
8.4882932965
 30
0.0
 10
12.8216082269
 20
8.4687517302
 30
0.0
 10
12.8153014948
 20
8.4531925544
 30
0.0
 10
12.8101807812
 20
8.4413144812
 30
0.0
 10
12.8063597255
 20
8.4328101034
 30
0.0
 10
12.802510769
 20
8.4245997267
 30
0.0
 10
12.798635856
 20
8.416687444
 30
0.0
 10
12.7947369197
 20
8.409077219
 30
0.0
 10
12.7908159088
 20
8.4017728571
 30
0.0
 10
12.7868748151
 20
8.3947779937
 30
0.0
 10
12.7829155592
 20
8.3880961322
 30
0.0
 10
12.7789401685
 20
8.381730571
 30
0.0
 10
12.7749505549
 20
8.3756845052
 30
0.0
 10
12.7709487634
 20
8.3699609188
 30
0.0
 10
12.7669367277
 20
8.3645626539
 30
0.0
 10
12.7629163877
 20
8.3594923452
 30
0.0
 10
12.7588896315
 20
8.3547524436
 30
0.0
 10
12.7548585777
 20
8.3503455203
 30
0.0
 10
12.7521138073
 20
8.347574576
 30
0.0
 10
12.7507406639
 20
8.3462482213
 30
0.0
  0
SPLINE
  5
378
100
AcDbEntity
  8
0
100
AcDbSpline
 62
7
  6
CONTINUOUS
 70
0
 71
3
 72
95
 73
91
 74
0
 42
0.0000001
 43
0.0000001
 44
0.0000000001
 40
0.0
 40
0.0
 40
0.0
 40
0.0
 40
0.0042067524
 40
0.0086075264
 40
0.0132067984
 40
0.0180082937
 40
0.0230150337
 40
0.0282291753
 40
0.0336520592
 40
0.0392844537
 40
0.0451265343
 40
0.0511780479
 40
0.0574382294
 40
0.0639059483
 40
0.0705796906
 40
0.0774576001
 40
0.0918166241
 40
0.1069629889
 40
0.122872209
 40
0.1395163532
 40
0.1568644406
 40
0.1748827659
 40
0.1935351756
 40
0.2127833077
 40
0.2325868055
 40
0.2529035112
 40
0.2736896465
 40
0.2948999865
 40
0.3164880233
 40
0.338406124
 40
0.3606056844
 40
0.3830372803
 40
0.4056508168
 40
0.4283956754
 40
0.4512208623
 40
0.4740751553
 40
0.4969072499
 40
0.5196659048
 40
0.5423000877
 40
0.5647591214
 40
0.5869928308
 40
0.6089516914
 40
0.63058698
 40
0.6518509241
 40
0.6726968561
 40
0.6930793701
 40
0.7129544846
 40
0.7322798121
 40
0.7510147391
 40
0.769120622
 40
0.7865609974
 40
0.8033018162
 40
0.8193117142
 40
0.8345623301
 40
0.8490286892
 40
0.8559612403
 40
0.8626901816
 40
0.8692135492
 40
0.8755297718
 40
0.8816375758
 40
0.8875361274
 40
0.8932250025
 40
0.89870426
 40
0.9039745234
 40
0.9090369759
 40
0.9138935463
 40
0.9185468765
 40
0.9230005513
 40
0.9272591262
 40
0.9313283338
 40
0.9352152342
 40
0.9389283686
 40
0.9424780221
 40
0.9458763313
 40
0.9491375598
 40
0.9522781467
 40
0.9553168206
 40
0.9582744908
 40
0.9611740191
 40
0.9640398091
 40
0.9668972035
 40
0.9697717872
 40
0.9726886572
 40
0.9756717418
 40
0.9787432814
 40
0.9852254384
 40
0.9886743512
 40
0.992279084
 40
0.9960511993
 40
1.0
 40
1.0
 40
1.0
 40
1.0
 10
12.735285849
 20
8.5115274166
 30
0.0
 10
12.7364195958
 20
8.5126225319
 30
0.0
 10
12.7386855768
 20
8.5149195051
 30
0.0
 10
12.7420069833
 20
8.518589652
 30
0.0
 10
12.7453241617
 20
8.5225587023
 30
0.0
 10
12.7486350494
 20
8.5268241027
 30
0.0
 10
12.7519378029
 20
8.5313834077
 30
0.0
 10
12.7552305259
 20
8.536233974
 30
0.0
 10
12.7585113272
 20
8.5413729413
 30
0.0
 10
12.7617782024
 20
8.546797295
 30
0.0
 10
12.7650292858
 20
8.5525037984
 30
0.0
 10
12.7682625896
 20
8.5584891005
 30
0.0
 10
12.7714762436
 20
8.5647496353
 30
0.0
 10
12.7746682925
 20
8.571281694
 30
0.0
 10
12.7778368651
 20
8.5780813938
 30
0.0
 10
12.7820889023
 20
8.587636668
 30
0.0
 10
12.7873208828
 20
8.6002282892
 30
0.0
 10
12.7933892869
 20
8.6161286783
 30
0.0
 10
12.7993199145
 20
8.6329912793
 30
0.0
 10
12.8050985001
 20
8.6507758688
 30
0.0
 10
12.8107111346
 20
8.6694401659
 30
0.0
 10
12.8161443067
 20
8.6889396677
 30
0.0
 10
12.8213849384
 20
8.7092278497
 30
0.0
 10
12.8264204176
 20
8.7302562626
 30
0.0
 10
12.8312386293
 20
8.7519746614
 30
0.0
 10
12.8358279854
 20
8.7743311281
 30
0.0
 10
12.8401774539
 20
8.7972722005
 30
0.0
 10
12.844276582
 20
8.8207430052
 30
0.0
 10
12.848115522
 20
8.8446873915
 30
0.0
 10
12.8516850539
 20
8.8690480684
 30
0.0
 10
12.8549766072
 20
8.8937667423
 30
0.0
 10
12.8579822812
 20
8.9187842579
 30
0.0
 10
12.8606948635
 20
8.9440407401
 30
0.0
 10
12.8631078484
 20
8.9694757385
 30
0.0
 10
12.865215453
 20
8.9950283727
 30
0.0
 10
12.8670126287
 20
9.0206374804
 30
0.0
 10
12.8684950738
 20
9.0462417636
 30
0.0
 10
12.8696592439
 20
9.071779936
 30
0.0
 10
12.8705023599
 20
9.09719087
 30
0.0
 10
12.8710224158
 20
9.1224137434
 30
0.0
 10
12.8712181822
 20
9.147388186
 30
0.0
 10
12.871089213
 20
9.1720544257
 30
0.0
 10
12.8706358456
 20
9.1963534328
 30
0.0
 10
12.8698591985
 20
9.2202270624
 30
0.0
 10
12.8687611706
 20
9.2436181945
 30
0.0
 10
12.8673444362
 20
9.2664708723
 30
0.0
 10
12.8656124399
 20
9.2887304379
 30
0.0
 10
12.8635693889
 20
9.3103436662
 30
0.0
 10
12.8612202432
 20
9.3312588979
 30
0.0
 10
12.8585707078
 20
9.3514261674
 30
0.0
 10
12.8556272171
 20
9.3707973358
 30
0.0
 10
12.852396916
 20
9.3893261918
 30
0.0
 10
12.8488876533
 20
9.4069686522
 30
0.0
 10
12.845107915
 20
9.4236826108
 30
0.0
 10
12.8416937514
 20
9.436986554
 30
0.0
 10
12.8388245654
 20
9.4471285174
 30
0.0
 10
12.8366413911
 20
9.4543703106
 30
0.0
 10
12.834397633
 20
9.4613513948
 30
0.0
 10
12.8320946685
 20
9.4680676348
 30
0.0
 10
12.8297338286
 20
9.474515029
 30
0.0
 10
12.8273165521
 20
9.4806897575
 30
0.0
 10
12.824844267
 20
9.486588162
 30
0.0
 10
12.8223184194
 20
9.4922067492
 30
0.0
 10
12.8197405408
 20
9.4975422197
 30
0.0
 10
12.8171120765
 20
9.5025914127
 30
0.0
 10
12.8144346268
 20
9.507351395
 30
0.0
 10
12.8117096553
 20
9.5118193526
 30
0.0
 10
12.8089387653
 20
9.5159927043
 30
0.0
 10
12.806123462
 20
9.5198690001
 30
0.0
 10
12.8032652859
 20
9.5234459732
 30
0.0
 10
12.8003657816
 20
9.5267215348
 30
0.0
 10
12.797426397
 20
9.5296936718
 30
0.0
 10
12.7944486904
 20
9.5323606009
 30
0.0
 10
12.7914340628
 20
9.5347204865
 30
0.0
 10
12.788384093
 20
9.5367717216
 30
0.0
 10
12.7853003016
 20
9.5385125975
 30
0.0
 10
12.7821844332
 20
9.5399415636
 30
0.0
 10
12.7790384028
 20
9.5410571245
 30
0.0
 10
12.7758643881
 20
9.5418579122
 30
0.0
 10
12.7726648663
 20
9.5423429986
 30
0.0
 10
12.7694424948
 20
9.5425116599
 30
0.0
 10
12.7662000221
 20
9.542363927
 30
0.0
 10
12.762940189
 20
9.5419000876
 30
0.0
 10
12.7596652935
 20
9.5411209365
 30
0.0
 10
12.7552030832
 20
9.5396370448
 30
0.0
 10
12.7507876134
 20
9.5375247153
 30
0.0
 10
12.7464598309
 20
9.5348760317
 30
0.0
 10
12.7431404336
 20
9.5325393365
 30
0.0
 10
12.7398180473
 20
9.5298957841
 30
0.0
 10
12.7376526909
 20
9.527974946
 30
0.0
 10
12.7365695575
 20
9.526966922
 30
0.0
  0
SPLINE
  5
379
100
AcDbEntity
  8
0
100
AcDbSpline
 62
7
  6
CONTINUOUS
 70
0
 71
3
 72
82
 73
78
 74
0
 42
0.0000001
 43
0.0000001
 44
0.0000000001
 40
0.0
 40
0.0
 40
0.0
 40
0.0
 40
0.0039884
 40
0.0081453884
 40
0.0124746242
 40
0.0169791769
 40
0.0216616252
 40
0.0265239851
 40
0.0315675859
 40
0.0367932823
 40
0.0422015086
 40
0.0477922846
 40
0.0595194712
 40
0.0719692824
 40
0.0851311888
 40
0.0989910042
 40
0.1135313725
 40
0.1287321429
 40
0.1445706935
 40
0.1610222007
 40
0.1780598543
 40
0.1956550367
 40
0.2137774734
 40
0.2323953967
 40
0.2514756824
 40
0.2709839717
 40
0.2908847794
 40
0.3111416059
 40
0.3317170565
 40
0.3525729446
 40
0.3736703921
 40
0.4164308614
 40
0.4596781291
 40
0.5030864271
 40
0.5463284421
 40
0.5890784518
 40
0.6101687463
 40
0.6310162279
 40
0.6515820352
 40
0.6718279979
 40
0.6917167499
 40
0.7112118329
 40
0.7302777975
 40
0.7488803131
 40
0.7669862887
 40
0.7845640124
 40
0.8015832729
 40
0.8180155019
 40
0.8338339356
 40
0.8490138157
 40
0.8635326121
 40
0.8773702664
 40
0.8905095049
 40
0.9029362342
 40
0.9146400637
 40
0.9202191345
 40
0.925615608
 40
0.9308295837
 40
0.9358615024
 40
0.9407122641
 40
0.9453832787
 40
0.9498764542
 40
0.9541943802
 40
0.958340302
 40
0.962318263
 40
0.9661332307
 40
0.9697911315
 40
0.97329908
 40
0.9766654313
 40
0.9798999372
 40
0.9830139016
 40
0.9860202023
 40
0.9889334071
 40
0.9917697001
 40
0.9945467646
 40
0.9972835707
 40
1.0
 40
1.0
 40
1.0
 40
1.0
 10
12.6918191843
 20
8.5580085048
 30
0.0
 10
12.692767527
 20
8.5589245335
 30
0.0
 10
12.6946631785
 20
8.5608382686
 30
0.0
 10
12.6974472115
 20
8.5638818983
 30
0.0
 10
12.700228312
 20
8.5671555093
 30
0.0
 10
12.7030049527
 20
8.570657325
 30
0.0
 10
12.7057758609
 20
8.5743856114
 30
0.0
 10
12.7085396687
 20
8.5783385854
 30
0.0
 10
12.711295077
 20
8.5825142799
 30
0.0
 10
12.7140406841
 20
8.586910628
 30
0.0
 10
12.7167751308
 20
8.5915254481
 30
0.0
 10
12.7204632524
 20
8.5980714156
 30
0.0
 10
12.725026312
 20
8.6067934031
 30
0.0
 10
12.7303522311
 20
8.6179315023
 30
0.0
 10
12.7356015327
 20
8.6298800209
 30
0.0
 10
12.7407636556
 20
8.642615104
 30
0.0
 10
12.7458282007
 20
8.6561114898
 30
0.0
 10
12.750784949
 20
8.6703422405
 30
0.0
 10
12.7556238924
 20
8.6852789113
 30
0.0
 10
12.7603352518
 20
8.7008915989
 30
0.0
 10
12.7649095037
 20
8.717149018
 30
0.0
 10
12.7693373989
 20
8.734018561
 30
0.0
 10
12.7736099965
 20
8.7514663644
 30
0.0
 10
12.7777186672
 20
8.7694573875
 30
0.0
 10
12.7816551131
 20
8.7879554904
 30
0.0
 10
12.7854113827
 20
8.8069235062
 30
0.0
 10
12.7889798919
 20
8.8263233114
 30
0.0
 10
12.792353447
 20
8.846115907
 30
0.0
 10
12.7955252354
 20
8.8662614912
 30
0.0
 10
12.7984888861
 20
8.886719589
 30
0.0
 10
12.8021711635
 20
8.9144821732
 30
0.0
 10
12.8062060294
 20
8.9496624408
 30
0.0
 10
12.8101138635
 20
8.9922701973
 30
0.0
 10
12.8130773378
 20
9.0351137405
 30
0.0
 10
12.815072657
 20
9.0778485789
 30
0.0
 10
12.8159192982
 20
9.1132417915
 30
0.0
 10
12.8160937888
 20
9.141238365
 30
0.0
 10
12.8159744627
 20
9.1619013364
 30
0.0
 10
12.815605869
 20
9.1822821901
 30
0.0
 10
12.8149887403
 20
9.2023399754
 30
0.0
 10
12.8141243492
 20
9.2220343544
 30
0.0
 10
12.8130144632
 20
9.2413257385
 30
0.0
 10
12.8116613457
 20
9.2601753506
 30
0.0
 10
12.8100677506
 20
9.278545306
 30
0.0
 10
12.8082369174
 20
9.2963986942
 30
0.0
 10
12.8061725793
 20
9.313699659
 30
0.0
 10
12.8038789404
 20
9.3304134709
 30
0.0
 10
12.8013606698
 20
9.3465065943
 30
0.0
 10
12.798622888
 20
9.3619467618
 30
0.0
 10
12.7956711649
 20
9.37670305
 30
0.0
 10
12.7925115107
 20
9.390745961
 30
0.0
 10
12.7891503467
 20
9.4040474591
 30
0.0
 10
12.7855944864
 20
9.4165811301
 30
0.0
 10
12.7818511109
 20
9.4283219368
 30
0.0
 10
12.7785307561
 20
9.4375681299
 30
0.0
 10
12.7757777336
 20
9.4445424059
 30
0.0
 10
12.7737037733
 20
9.4494767605
 30
0.0
 10
12.7715887126
 20
9.4541961292
 30
0.0
 10
12.7694335442
 20
9.4586981678
 30
0.0
 10
12.7672393362
 20
9.4629806389
 30
0.0
 10
12.7650072019
 20
9.4670414408
 30
0.0
 10
12.7627381712
 20
9.4708785432
 30
0.0
 10
12.7604333912
 20
9.4744900797
 30
0.0
 10
12.7580939373
 20
9.4778742642
 30
0.0
 10
12.755720891
 20
9.4810294168
 30
0.0
 10
12.7533153984
 20
9.483954013
 30
0.0
 10
12.7508784858
 20
9.4866465498
 30
0.0
 10
12.7484112833
 20
9.4891056971
 30
0.0
 10
12.7459148551
 20
9.4913301677
 30
0.0
 10
12.7433902502
 20
9.4933187107
 30
0.0
 10
12.7408386134
 20
9.4950702315
 30
0.0
 10
12.7382610211
 20
9.4965835444
 30
0.0
 10
12.7356587011
 20
9.4978576247
 30
0.0
 10
12.7330329764
 20
9.498891473
 30
0.0
 10
12.73038519
 20
9.4996841163
 30
0.0
 10
12.7277172526
 20
9.5002348738
 30
0.0
 10
12.7259233966
 20
9.5004406753
 30
0.0
 10
12.7250275355
 20
9.5005027981
 30
0.0
  0
SPLINE
  5
37A
100
AcDbEntity
  8
0
100
AcDbSpline
 62
7
  6
CONTINUOUS
 70
0
 71
3
 72
79
 73
75
 74
0
 42
0.0000001
 43
0.0000001
 44
0.0000000001
 40
0.0
 40
0.0
 40
0.0
 40
0.0
 40
0.0069315574
 40
0.0105986767
 40
0.0144066877
 40
0.0183600657
 40
0.022462566
 40
0.026717331
 40
0.0311268813
 40
0.0356932613
 40
0.0404180349
 40
0.0453023372
 40
0.0503469664
 40
0.0555523326
 40
0.060918574
 40
0.06644554
 40
0.0721328008
 40
0.0839850491
 40
0.0964680903
 40
0.1095712258
 40
0.1232811587
 40
0.1375823026
 40
0.1524570208
 40
0.1678858364
 40
0.1838476189
 40
0.2003197345
 40
0.2172781737
 40
0.2346976581
 40
0.252551756
 40
0.2708129854
 40
0.2894529036
 40
0.308442189
 40
0.327750719
 40
0.3473476593
 40
0.3672015419
 40
0.3872803383
 40
0.4075515304
 40
0.4485384014
 40
0.4898957113
 40
0.531353215
 40
0.572639826
 40
0.6134858936
 40
0.6336607498
 40
0.6536261848
 40
0.6733499231
 40
0.6928002158
 40
0.711945919
 40
0.7307565654
 40
0.7492024402
 40
0.7672546618
 40
0.7848852768
 40
0.8020673462
 40
0.818775033
 40
0.8349837026
 40
0.8506700379
 40
0.8658121762
 40
0.8803898387
 40
0.8943844882
 40
0.90777952
 40
0.9205605005
 40
0.9327154537
 40
0.944235197
 40
0.949755112
 40
0.9551143006
 40
0.9603126017
 40
0.9653501843
 40
0.9702274804
 40
0.9749452775
 40
0.9795047293
 40
0.9839073988
 40
0.9881554274
 40
0.9922514367
 40
0.9961984568
 40
1.0
 40
1.0
 40
1.0
 40
1.0
 10
11.3420638879
 20
10.6348431395
 30
0.0
 10
11.3401743136
 20
10.6372568867
 30
0.0
 10
11.3370840284
 20
10.6407937899
 30
0.0
 10
11.332584042
 20
10.6453053295
 30
0.0
 10
11.3288676925
 20
10.6487329939
 30
0.0
 10
11.3248755767
 20
10.6521392378
 30
0.0
 10
11.3206091603
 20
10.6555229296
 30
0.0
 10
11.3160703305
 20
10.6588825303
 30
0.0
 10
11.3112610622
 20
10.6622167048
 30
0.0
 10
11.3061834118
 20
10.6655239882
 30
0.0
 10
11.3008395782
 20
10.6688029753
 30
0.0
 10
11.2952318859
 20
10.6720522862
 30
0.0
 10
11.2893627407
 20
10.675270464
 30
0.0
 10
11.2832347114
 20
10.6784561698
 30
0.0
 10
11.2768504496
 20
10.6816079831
 30
0.0
 10
11.2702127226
 20
10.6847245536
 30
0.0
 10
11.2608998845
 20
10.6888885391
 30
0.0
 10
11.2486370498
 20
10.6939852677
 30
0.0
 10
11.2331545056
 20
10.699858295
 30
0.0
 10
11.2167356934
 20
10.7055591904
 30
0.0
 10
11.1994092626
 20
10.7110779375
 30
0.0
 10
11.1812052779
 20
10.7164048268
 30
0.0
 10
11.1621554646
 20
10.7215304777
 30
0.0
 10
11.1422930552
 20
10.7264458647
 30
0.0
 10
11.1216527382
 20
10.7311423239
 30
0.0
 10
11.1002705828
 20
10.7356115758
 30
0.0
 10
11.078183979
 20
10.739845736
 30
0.0
 10
11.0554315724
 20
10.7438373469
 30
0.0
 10
11.0320531899
 20
10.7475793782
 30
0.0
 10
11.0080897616
 20
10.751065237
 30
0.0
 10
10.9835832479
 20
10.7542887802
 30
0.0
 10
10.9585765701
 20
10.7572443261
 30
0.0
 10
10.9331135361
 20
10.7599266763
 30
0.0
 10
10.9072387544
 20
10.7623311116
 30
0.0
 10
10.8809975682
 20
10.7644533921
 30
0.0
 10
10.8544359167
 20
10.7662898032
 30
0.0
 10
10.8185246592
 20
10.768360287
 30
0.0
 10
10.7731777377
 20
10.7702067208
 30
0.0
 10
10.7184334407
 20
10.7712369543
 30
0.0
 10
10.6635469445
 20
10.7710822136
 30
0.0
 10
10.6089028625
 20
10.7697436207
 30
0.0
 10
10.5637033292
 20
10.7676411191
 30
0.0
 10
10.5279596854
 20
10.7653671888
 30
0.0
 10
10.501559507
 20
10.763381129
 30
0.0
 10
10.4755038677
 20
10.7611110882
 30
0.0
 10
10.4498383829
 20
10.7585610341
 30
0.0
 10
10.4246080262
 20
10.7557354687
 30
0.0
 10
10.3998569921
 20
10.7526393657
 30
0.0
 10
10.3756286371
 20
10.749278177
 30
0.0
 10
10.3519653959
 20
10.7456578164
 30
0.0
 10
10.3289087016
 20
10.7417846644
 30
0.0
 10
10.3064989116
 20
10.7376655495
 30
0.0
 10
10.2847752412
 20
10.7333077308
 30
0.0
 10
10.2637756937
 20
10.7287188868
 30
0.0
 10
10.2435369859
 20
10.7239071003
 30
0.0
 10
10.2240944717
 20
10.7188808589
 30
0.0
 10
10.2054820824
 20
10.713649023
 30
0.0
 10
10.1877322593
 20
10.7082208084
 30
0.0
 10
10.1708759147
 20
10.7026057653
 30
0.0
 10
10.1549422621
 20
10.6968137515
 30
0.0
 10
10.139959076
 20
10.6908549421
 30
0.0
 10
10.1281238459
 20
10.6856880511
 30
0.0
 10
10.1191603938
 20
10.6814704162
 30
0.0
 10
10.1127873072
 20
10.6783170798
 30
0.0
 10
10.1066705888
 20
10.6751299192
 30
0.0
 10
10.1008128618
 20
10.6719103419
 30
0.0
 10
10.0952166889
 20
10.6686597026
 30
0.0
 10
10.0898844964
 20
10.6653794276
 30
0.0
 10
10.0848185868
 20
10.6620709632
 30
0.0
 10
10.0800211583
 20
10.6587356588
 30
0.0
 10
10.0754942171
 20
10.655374947
 30
0.0
 10
10.071239718
 20
10.6519901634
 30
0.0
 10
10.0672596898
 20
10.6485829342
 30
0.0
 10
10.0647440574
 20
10.6462545183
 30
0.0
 10
10.0635348559
 20
10.6450865193
 30
0.0
  0
SPLINE
  5
37B
100
AcDbEntity
  8
0
100
AcDbSpline
 62
7
  6
CONTINUOUS
 70
0
 71
3
 72
54
 73
50
 74
0
 42
0.0000001
 43
0.0000001
 44
0.0000000001
 40
0.0
 40
0.0
 40
0.0
 40
0.0
 40
0.0099472337
 40
0.0203698704
 40
0.0312644864
 40
0.0426260491
 40
0.0544480896
 40
0.0667227976
 40
0.0794412503
 40
0.0925934343
 40
0.1061683672
 40
0.1201542188
 40
0.1345382898
 40
0.1493071622
 40
0.1644467127
 40
0.1799421393
 40
0.1957780755
 40
0.2119385556
 40
0.2451662193
 40
0.2794882552
 40
0.3147604925
 40
0.3508330981
 40
0.3875515635
 40
0.424757678
 40
0.4622904654
 40
0.4999871083
 40
0.5376838689
 40
0.5752170109
 40
0.6124237148
 40
0.6491429955
 40
0.6852166394
 40
0.7204901413
 40
0.7548136583
 40
0.7880429977
 40
0.8200406729
 40
0.8355371161
 40
0.8506777018
 40
0.8654476672
 40
0.8798328731
 40
0.8938198766
 40
0.9073960261
 40
0.9205494374
 40
0.9332691503
 40
0.9455451651
 40
0.9573685051
 40
0.9687314146
 40
0.9796273864
 40
0.9900513765
 40
1.0
 40
1.0
 40
1.0
 40
1.0
 10
11.1774439653
 20
10.5524432501
 30
0.0
 10
11.1745450543
 20
10.5538889378
 30
0.0
 10
11.1685579462
 20
10.5567484948
 30
0.0
 10
11.1592410033
 20
10.5608576283
 30
0.0
 10
11.1493879443
 20
10.5648824088
 30
0.0
 10
11.1390102443
 20
10.5688180939
 30
0.0
 10
11.1281198263
 20
10.5726601046
 30
0.0
 10
11.1167292957
 20
10.5764039975
 30
0.0
 10
11.1048518258
 20
10.5800453738
 30
0.0
 10
11.0925011833
 20
10.5835799934
 30
0.0
 10
11.0796916947
 20
10.5870037428
 30
0.0
 10
11.0664382234
 20
10.5903125883
 30
0.0
 10
11.052756166
 20
10.5935026956
 30
0.0
 10
11.0386614189
 20
10.5965703217
 30
0.0
 10
11.0241703628
 20
10.5995118733
 30
0.0
 10
11.0092998532
 20
10.6023239339
 30
0.0
 10
10.9940671643
 20
10.6050032105
 30
0.0
 10
10.9731035509
 20
10.6084259694
 30
0.0
 10
10.9461222955
 20
10.6123388411
 30
0.0
 10
10.9128843023
 20
10.6164169246
 30
0.0
 10
10.8786474572
 20
10.6199006838
 30
0.0
 10
10.8435710575
 20
10.6227737469
 30
0.0
 10
10.8078181659
 20
10.6250225914
 30
0.0
 10
10.7715550826
 20
10.6266366428
 30
0.0
 10
10.7349504897
 20
10.6276083078
 30
0.0
 10
10.6981746782
 20
10.6279330124
 30
0.0
 10
10.661398743
 20
10.627609237
 30
0.0
 10
10.6247937797
 20
10.6266385057
 30
0.0
 10
10.588530081
 20
10.6250253809
 30
0.0
 10
10.5527763382
 20
10.6227774403
 30
0.0
 10
10.5176988377
 20
10.6199052638
 30
0.0
 10
10.4834607003
 20
10.616422368
 30
0.0
 10
10.4502210286
 20
10.6123451623
 30
0.0
 10
10.4181344397
 20
10.6076928103
 30
0.0
 10
10.3922112365
 20
10.6033094907
 30
0.0
 10
10.3721682854
 20
10.5995201881
 30
0.0
 10
10.3576761023
 20
10.5965789719
 30
0.0
 10
10.3435801915
 20
10.5935117142
 30
0.0
 10
10.3298969202
 20
10.5903219614
 30
0.0
 10
10.3166421939
 20
10.5870134347
 30
0.0
 10
10.3038314014
 20
10.5835900297
 30
0.0
 10
10.2914794171
 20
10.5800557146
 30
0.0
 10
10.2796005646
 20
10.5764146336
 30
0.0
 10
10.2682086075
 20
10.5726710491
 30
0.0
 10
10.2573167351
 20
10.5688292925
 30
0.0
 10
10.246937537
 20
10.5648938839
 30
0.0
 10
10.2370829472
 20
10.5608693581
 30
0.0
 10
10.2277644523
 20
10.5567604379
 30
0.0
 10
10.2217762666
 20
10.5539010655
 30
0.0
 10
10.2188768132
 20
10.5524554515
 30
0.0
  0
SPLINE
  5
37C
100
AcDbEntity
  8
0
100
AcDbSpline
 62
7
  6
CONTINUOUS
 70
0
 71
3
 72
21
 73
17
 74
0
 42
0.0000001
 43
0.0000001
 44
0.0000000001
 40
0.0
 40
0.0
 40
0.0
 40
0.0
 40
0.1273175725
 40
0.2538000026
 40
0.3167619332
 40
0.3795354925
 40
0.4421314982
 40
0.5045621433
 40
0.5668413429
 40
0.6289845306
 40
0.6910084612
 40
0.7529311022
 40
0.8147714553
 40
0.8765493457
 40
0.9382852283
 40
1.0
 40
1.0
 40
1.0
 40
1.0
 10
11.1454088244
 20
10.0744891937
 30
0.0
 10
11.1454088244
 20
10.0809875201
 30
0.0
 10
11.1460291319
 20
10.0939499105
 30
0.0
 10
11.148371811
 20
10.1099742273
 30
0.0
 10
11.1511718506
 20
10.1225439067
 30
0.0
 10
11.153725338
 20
10.1318153033
 30
0.0
 10
11.1567293239
 20
10.1409219726
 30
0.0
 10
11.1601769593
 20
10.1498431517
 30
0.0
 10
11.1640602637
 20
10.1585582142
 30
0.0
 10
11.1683703061
 20
10.167047078
 30
0.0
 10
11.1730971999
 20
10.1752901339
 30
0.0
 10
11.1782300287
 20
10.1832683871
 30
0.0
 10
11.1837569365
 20
10.1909634248
 30
0.0
 10
11.1896652768
 20
10.1983575346
 30
0.0
 10
11.1959411939
 20
10.2054334212
 30
0.0
 10
11.200361344
 20
10.2099285075
 30
0.0
 10
11.202626947
 20
10.2121169238
 30
0.0
  0
SPLINE
  5
37D
100
AcDbEntity
  8
0
100
AcDbSpline
 62
4
  6
CONTINUOUS
 70
0
 71
3
 72
330
 73
326
 74
0
 42
0.0000001
 43
0.0000001
 44
0.0000000001
 40
0.0
 40
0.0
 40
0.0
 40
0.0
 40
0.015625
 40
0.0234375
 40
0.03125
 40
0.0390625
 40
0.04296875
 40
0.046875
 40
0.05078125
 40
0.0546875
 40
0.056640625
 40
0.05859375
 40
0.060546875
 40
0.0615234375
 40
0.0620117188
 40
0.0625
 40
0.0629882812
 40
0.0634765625
 40
0.064453125
 40
0.06640625
 40
0.068359375
 40
0.0703125
 40
0.07421875
 40
0.078125
 40
0.08203125
 40
0.0859375
 40
0.09375
 40
0.1015625
 40
0.10546875
 40
0.109375
 40
0.11328125
 40
0.1171875
 40
0.119140625
 40
0.12109375
 40
0.123046875
 40
0.1240234375
 40
0.1245117188
 40
0.125
 40
0.1254882812
 40
0.1259765625
 40
0.126953125
 40
0.12890625
 40
0.130859375
 40
0.1328125
 40
0.13671875
 40
0.140625
 40
0.14453125
 40
0.1484375
 40
0.15625
 40
0.1640625
 40
0.16796875
 40
0.171875
 40
0.17578125
 40
0.1796875
 40
0.181640625
 40
0.18359375
 40
0.185546875
 40
0.1865234375
 40
0.1870117188
 40
0.1875
 40
0.1879882812
 40
0.1884765625
 40
0.189453125
 40
0.19140625
 40
0.193359375
 40
0.1953125
 40
0.19921875
 40
0.203125
 40
0.20703125
 40
0.2109375
 40
0.21875
 40
0.2265625
 40
0.23046875
 40
0.234375
 40
0.23828125
 40
0.2421875
 40
0.244140625
 40
0.24609375
 40
0.248046875
 40
0.2490234375
 40
0.2495117188
 40
0.25
 40
0.2504882812
 40
0.2509765625
 40
0.251953125
 40
0.25390625
 40
0.255859375
 40
0.2578125
 40
0.26171875
 40
0.265625
 40
0.26953125
 40
0.2734375
 40
0.28125
 40
0.2890625
 40
0.29296875
 40
0.296875
 40
0.30078125
 40
0.3046875
 40
0.306640625
 40
0.30859375
 40
0.310546875
 40
0.3115234375
 40
0.3120117188
 40
0.3125
 40
0.3129882812
 40
0.3134765625
 40
0.314453125
 40
0.31640625
 40
0.318359375
 40
0.3203125
 40
0.32421875
 40
0.328125
 40
0.33203125
 40
0.3359375
 40
0.34375
 40
0.3515625
 40
0.35546875
 40
0.359375
 40
0.36328125
 40
0.3671875
 40
0.369140625
 40
0.37109375
 40
0.373046875
 40
0.3740234375
 40
0.3745117188
 40
0.375
 40
0.3754882812
 40
0.3759765625
 40
0.376953125
 40
0.37890625
 40
0.380859375
 40
0.3828125
 40
0.38671875
 40
0.390625
 40
0.39453125
 40
0.3984375
 40
0.40625
 40
0.4140625
 40
0.41796875
 40
0.421875
 40
0.42578125
 40
0.4296875
 40
0.431640625
 40
0.43359375
 40
0.435546875
 40
0.4365234375
 40
0.4370117188
 40
0.4375
 40
0.4379882812
 40
0.4384765625
 40
0.439453125
 40
0.44140625
 40
0.443359375
 40
0.4453125
 40
0.44921875
 40
0.453125
 40
0.45703125
 40
0.4609375
 40
0.46875
 40
0.4765625
 40
0.48046875
 40
0.484375
 40
0.48828125
 40
0.4921875
 40
0.494140625
 40
0.49609375
 40
0.498046875
 40
0.4990234375
 40
0.4995117188
 40
0.5
 40
0.5004882812
 40
0.5009765625
 40
0.501953125
 40
0.50390625
 40
0.505859375
 40
0.5078125
 40
0.51171875
 40
0.515625
 40
0.51953125
 40
0.5234375
 40
0.53125
 40
0.5390625
 40
0.546875
 40
0.55078125
 40
0.5546875
 40
0.556640625
 40
0.55859375
 40
0.560546875
 40
0.5615234375
 40
0.5620117188
 40
0.5625
 40
0.5629882812
 40
0.5634765625
 40
0.564453125
 40
0.56640625
 40
0.568359375
 40
0.5703125
 40
0.57421875
 40
0.578125
 40
0.5859375
 40
0.59375
 40
0.6015625
 40
0.609375
 40
0.61328125
 40
0.6171875
 40
0.619140625
 40
0.62109375
 40
0.623046875
 40
0.6240234375
 40
0.6245117188
 40
0.625
 40
0.6254882812
 40
0.6259765625
 40
0.626953125
 40
0.62890625
 40
0.630859375
 40
0.6328125
 40
0.63671875
 40
0.640625
 40
0.6484375
 40
0.65625
 40
0.6640625
 40
0.671875
 40
0.67578125
 40
0.6796875
 40
0.681640625
 40
0.68359375
 40
0.685546875
 40
0.6865234375
 40
0.6870117188
 40
0.6875
 40
0.6879882812
 40
0.6884765625
 40
0.689453125
 40
0.69140625
 40
0.693359375
 40
0.6953125
 40
0.69921875
 40
0.703125
 40
0.7109375
 40
0.71875
 40
0.7265625
 40
0.734375
 40
0.73828125
 40
0.7421875
 40
0.744140625
 40
0.74609375
 40
0.748046875
 40
0.7490234375
 40
0.7495117188
 40
0.75
 40
0.7504882812
 40
0.7509765625
 40
0.751953125
 40
0.75390625
 40
0.755859375
 40
0.7578125
 40
0.76171875
 40
0.765625
 40
0.7734375
 40
0.78125
 40
0.7890625
 40
0.796875
 40
0.80078125
 40
0.8046875
 40
0.806640625
 40
0.80859375
 40
0.810546875
 40
0.8115234375
 40
0.8120117188
 40
0.8125
 40
0.8129882812
 40
0.8134765625
 40
0.814453125
 40
0.81640625
 40
0.818359375
 40
0.8203125
 40
0.82421875
 40
0.828125
 40
0.8359375
 40
0.84375
 40
0.8515625
 40
0.859375
 40
0.86328125
 40
0.8671875
 40
0.869140625
 40
0.87109375
 40
0.873046875
 40
0.8740234375
 40
0.8745117188
 40
0.875
 40
0.8754882812
 40
0.8759765625
 40
0.876953125
 40
0.87890625
 40
0.880859375
 40
0.8828125
 40
0.88671875
 40
0.890625
 40
0.8984375
 40
0.90625
 40
0.9140625
 40
0.921875
 40
0.92578125
 40
0.9296875
 40
0.931640625
 40
0.93359375
 40
0.935546875
 40
0.9365234375
 40
0.9370117188
 40
0.9375
 40
0.9379882812
 40
0.9384765625
 40
0.939453125
 40
0.94140625
 40
0.943359375
 40
0.9453125
 40
0.94921875
 40
0.953125
 40
0.95703125
 40
0.9609375
 40
0.96875
 40
0.9765625
 40
0.984375
 40
1.0
 40
1.0
 40
1.0
 40
1.0
 10
10.3717022267
 20
9.3505755923
 30
0.0
 10
10.3745164665
 20
9.3506563627
 30
0.0
 10
10.3787378262
 20
9.3507775184
 30
0.0
 10
10.3843663059
 20
9.3509390591
 30
0.0
 10
10.3885876655
 20
9.3510602153
 30
0.0
 10
10.3921054656
 20
9.3511611768
 30
0.0
 10
10.3949197048
 20
9.3512419503
 30
0.0
 10
10.3970303865
 20
9.3513025188
 30
0.0
 10
10.3991410595
 20
9.3513631317
 30
0.0
 10
10.4008999807
 20
9.3514135041
 30
0.0
 10
10.4023070571
 20
9.3514541117
 30
0.0
 10
10.4033625297
 20
9.3514837215
 30
0.0
 10
10.4042415646
 20
9.3515110872
 30
0.0
 10
10.4048579205
 20
9.3515249623
 30
0.0
 10
10.4052085133
 20
9.3515411366
 30
0.0
 10
10.4054759949
 20
9.3515300393
 30
0.0
 10
10.4057261339
 20
9.3516077311
 30
0.0
 10
10.4060657018
 20
9.3516803495
 30
0.0
 10
10.4066571273
 20
9.3518218616
 30
0.0
 10
10.4075034943
 20
9.3520164777
 30
0.0
 10
10.408518504
 20
9.352253246
 30
0.0
 10
10.4098720706
 20
9.3525678092
 30
0.0
 10
10.4115639532
 20
9.3529614002
 30
0.0
 10
10.4135942448
 20
9.3534335436
 30
0.0
 10
10.4156245277
 20
9.3539057313
 30
0.0
 10
10.4183315746
 20
9.3545352993
 30
0.0
 10
10.421715382
 20
9.3553222652
 30
0.0
 10
10.4250991905
 20
9.3561092273
 30
0.0
 10
10.4278062356
 20
9.3567388014
 30
0.0
 10
10.4298365239
 20
9.3572109709
 30
0.0
 10
10.4318667952
 20
9.3576831828
 30
0.0
 10
10.4335587409
 20
9.3580765604
 30
0.0
 10
10.4349121788
 20
9.3583915587
 30
0.0
 10
10.4359275814
 20
9.3586269984
 30
0.0
 10
10.4367727191
 20
9.3588257715
 30
0.0
 10
10.4373663391
 20
9.3589598625
 30
0.0
 10
10.4377023908
 20
9.3590443713
 30
0.0
 10
10.4379633307
 20
9.3590855399
 30
0.0
 10
10.438190246
 20
9.3592116178
 30
0.0
 10
10.4385046679
 20
9.3593501044
 30
0.0
 10
10.4390493766
 20
9.3596062552
 30
0.0
 10
10.4398304228
 20
9.3599649706
 30
0.0
 10
10.4407664409
 20
9.360398517
 30
0.0
 10
10.4420148972
 20
9.3609755001
 30
0.0
 10
10.4435753193
 20
9.3616970993
 30
0.0
 10
10.4454478894
 20
9.3625628595
 30
0.0
 10
10.4473204425
 20
9.3634286623
 30
0.0
 10
10.4498171859
 20
9.364583051
 30
0.0
 10
10.4529381129
 20
9.3660260425
 30
0.0
 10
10.4560590416
 20
9.3674690303
 30
0.0
 10
10.4585557823
 20
9.368623425
 30
0.0
 10
10.4604283435
 20
9.36948921
 30
0.0
 10
10.462300883
 20
9.3703550367
 30
0.0
 10
10.4638614004
 20
9.3710764293
 30
0.0
 10
10.4651096623
 20
9.3716538335
 30
0.0
 10
10.4660462742
 20
9.3720860942
 30
0.0
 10
10.4668254624
 20
9.3724488321
 30
0.0
 10
10.4673734881
 20
9.372697802
 30
0.0
 10
10.4676825953
 20
9.3728477942
 30
0.0
 10
10.4679258356
 20
9.3729385306
 30
0.0
 10
10.4681254614
 20
9.3731124363
 30
0.0
 10
10.4684068423
 20
9.3733153002
 30
0.0
 10
10.4688921708
 20
9.3736838286
 30
0.0
 10
10.469589203
 20
9.374203231
 30
0.0
 10
10.4704240554
 20
9.3748295388
 30
0.0
 10
10.4715377461
 20
9.3756635591
 30
0.0
 10
10.4729296693
 20
9.3767064471
 30
0.0
 10
10.4746000586
 20
9.3779577573
 30
0.0
 10
10.4762704261
 20
9.3792091091
 30
0.0
 10
10.4784975905
 20
9.3808775636
 30
0.0
 10
10.4812815429
 20
9.382963137
 30
0.0
 10
10.4840654979
 20
9.3850487073
 30
0.0
 10
10.4862926583
 20
9.3867171669
 30
0.0
 10
10.4879630377
 20
9.3879685033
 30
0.0
 10
10.4896333822
 20
9.3892198713
 30
0.0
 10
10.4910254449
 20
9.3902625793
 30
0.0
 10
10.4921388511
 20
9.3910969669
 30
0.0
 10
10.4929745722
 20
9.3917221531
 30
0.0
 10
10.4936688867
 20
9.3922450644
 30
0.0
 10
10.4941590667
 20
9.3926073288
 30
0.0
 10
10.4944326742
 20
9.3928202291
 30
0.0
 10
10.4946561775
 20
9.3929633064
 30
0.0
 10
10.4948097379
 20
9.3931698295
 30
0.0
 10
10.495038882
 20
9.393423063
 30
0.0
 10
10.4954285173
 20
9.3938765326
 30
0.0
 10
10.4959910818
 20
9.3945189557
 30
0.0
 10
10.4966636155
 20
9.3952921709
 30
0.0
 10
10.4975612157
 20
9.3963223184
 30
0.0
 10
10.498682911
 20
9.3976102794
 30
0.0
 10
10.5000290761
 20
9.399155714
 30
0.0
 10
10.5013752062
 20
9.4007011803
 30
0.0
 10
10.5031700587
 20
9.4027617909
 30
0.0
 10
10.5054136196
 20
9.4053375583
 30
0.0
 10
10.5076571837
 20
9.4079133232
 30
0.0
 10
10.5094520311
 20
9.409973938
 30
0.0
 10
10.5107981764
 20
9.4115193918
 30
0.0
 10
10.5121442846
 20
9.4130648731
 30
0.0
 10
10.5132661569
 20
9.4143526888
 30
0.0
 10
10.5141633961
 20
9.4153831326
 30
0.0
 10
10.5148370324
 20
9.4161554431
 30
0.0
 10
10.5153961473
 20
9.4168006965
 30
0.0
 10
10.5157919406
 20
9.4172491136
 30
0.0
 10
10.5160112179
 20
9.4175104425
 30
0.0
 10
10.5161950861
 20
9.4176920991
 30
0.0
 10
10.5163047584
 20
9.417928571
 30
0.0
 10
10.5164768684
 20
9.4182247467
 30
0.0
 10
10.5167660029
 20
9.4187519625
 30
0.0
 10
10.5171853563
 20
9.4195004706
 30
0.0
 10
10.5176858819
 20
9.4204006739
 30
0.0
 10
10.518354192
 20
9.4216002485
 30
0.0
 10
10.5191892563
 20
9.4230999558
 30
0.0
 10
10.520191472
 20
9.424899502
 30
0.0
 10
10.5211936506
 20
9.4266990757
 30
0.0
 10
10.5225299017
 20
9.4290984976
 30
0.0
 10
10.5242002108
 20
9.4320977786
 30
0.0
 10
10.5258705232
 20
9.4350970575
 30
0.0
 10
10.5272067689
 20
9.4374964828
 30
0.0
 10
10.528208964
 20
9.4392960465
 30
0.0
 10
10.5292111178
 20
9.4410956302
 30
0.0
 10
10.5300463744
 20
9.4425952209
 30
0.0
 10
10.5307142922
 20
9.4437950331
 30
0.0
 10
10.531216016
 20
9.4446945109
 30
0.0
 10
10.5316316209
 20
9.4454452888
 30
0.0
 10
10.531927447
 20
9.4459684526
 30
0.0
 10
10.5320888354
 20
9.4462711208
 30
0.0
 10
10.5322314412
 20
9.4464876499
 30
0.0
 10
10.5322916165
 20
9.4467442081
 30
0.0
 10
10.5324006029
 20
9.4470723232
 30
0.0
 10
10.5325779327
 20
9.44765303
 30
0.0
 10
10.5328382648
 20
9.44847921
 30
0.0
 10
10.5331476654
 20
9.4494720818
 30
0.0
 10
10.5335612468
 20
9.4507954023
 30
0.0
 10
10.5340778642
 20
9.4524497274
 30
0.0
 10
10.5346979591
 20
9.4544348428
 30
0.0
 10
10.5353180128
 20
9.4564199782
 30
0.0
 10
10.5361447656
 20
9.4590668184
 30
0.0
 10
10.537178201
 20
9.4623753712
 30
0.0
 10
10.5382116402
 20
9.4656839224
 30
0.0
 10
10.539038387
 20
9.4683307651
 30
0.0
 10
10.5396584586
 20
9.4703158929
 30
0.0
 10
10.5402784864
 20
9.4723010367
 30
0.0
 10
10.5407953126
 20
9.4739552735
 30
0.0
 10
10.5412084683
 20
9.4752787742
 30
0.0
 10
10.5415191689
 20
9.4762710958
 30
0.0
 10
10.5417754338
 20
9.4770989972
 30
0.0
 10
10.5419600241
 20
9.4776766309
 30
0.0
 10
10.5420573774
 20
9.4780096698
 30
0.0
 10
10.542153286
 20
9.4782511037
 30
0.0
 10
10.5421616835
 20
9.4785244372
 30
0.0
 10
10.5422034051
 20
9.478877755
 30
0.0
 10
10.5422621957
 20
9.4795012454
 30
0.0
 10
10.5423536178
 20
9.4803892355
 30
0.0
 10
10.5424601417
 20
9.4814559838
 30
0.0
 10
10.5426032853
 20
9.4828779096
 30
0.0
 10
10.5427818332
 20
9.484655456
 30
0.0
 10
10.5429962543
 20
9.486788452
 30
0.0
 10
10.5432106317
 20
9.4889214639
 30
0.0
 10
10.5434964835
 20
9.4917654742
 30
0.0
 10
10.5438537925
 20
9.4953204891
 30
0.0
 10
10.5442111054
 20
9.4988755032
 30
0.0
 10
10.544496951
 20
9.5017195146
 30
0.0
 10
10.5447113471
 20
9.5038525234
 30
0.0
 10
10.5449256978
 20
9.5059855313
 30
0.0
 10
10.5451044649
 20
9.5077630406
 30
0.0
 10
10.5452471616
 20
9.509185042
 30
0.0
 10
10.5453550501
 20
9.5102515594
 30
0.0
 10
10.5454422026
 20
9.5111402718
 30
0.0
 10
10.5455086152
 20
9.5117624728
 30
0.0
 10
10.5455381245
 20
9.5121178565
 30
0.0
 10
10.5455840341
 20
9.5123848443
 30
0.0
 10
10.5455390536
 20
9.5126501116
 30
0.0
 10
10.545510783
 20
9.5130044014
 30
0.0
 10
10.5454465383
 20
9.5136241289
 30
0.0
 10
10.5453624827
 20
9.5145096002
 30
0.0
 10
10.5452583105
 20
9.5155721031
 30
0.0
 10
10.5451205688
 20
9.5169887955
 30
0.0
 10
10.5449479956
 20
9.5187596535
 30
0.0
 10
10.5447410775
 20
9.5208846864
 30
0.0
 10
10.544534114
 20
9.5230097184
 30
0.0
 10
10.5442581783
 20
9.5258430946
 30
0.0
 10
10.5439132551
 20
9.5293848151
 30
0.0
 10
10.5434993409
 20
9.5336348785
 30
0.0
 10
10.5431544381
 20
9.5371766015
 30
0.0
 10
10.5428784576
 20
9.5400099723
 30
0.0
 10
10.5427061027
 20
9.5417808462
 30
0.0
 10
10.5425679141
 20
9.543197506
 30
0.0
 10
10.5424651071
 20
9.5442601083
 30
0.0
 10
10.5423767801
 20
9.5451452687
 30
0.0
 10
10.5423201606
 20
9.5457655512
 30
0.0
 10
10.5422796726
 20
9.5461189518
 30
0.0
 10
10.54227222
 20
9.5463869503
 30
0.0
 10
10.542177181
 20
9.5466436802
 30
0.0
 10
10.5420810134
 20
9.5469899174
 30
0.0
 10
10.5418984859
 20
9.5475940012
 30
0.0
 10
10.5416451741
 20
9.5484579354
 30
0.0
 10
10.5413380145
 20
9.5494942467
 30
0.0
 10
10.5409295811
 20
9.5508761383
 30
0.0
 10
10.5404186583
 20
9.5526034536
 30
0.0
 10
10.5396013949
 20
9.5553671857
 30
0.0
 10
10.5385797421
 20
9.5588218412
 30
0.0
 10
10.5373537922
 20
9.5629674325
 30
0.0
 10
10.536127826
 20
9.5671130201
 30
0.0
 10
10.535106214
 20
9.570567685
 30
0.0
 10
10.5342888689
 20
9.5733313981
 30
0.0
 10
10.5337781537
 20
9.5750587617
 30
0.0
 10
10.5333692943
 20
9.5764405542
 30
0.0
 10
10.5330634362
 20
9.5774771682
 30
0.0
 10
10.5328060526
 20
9.5783401554
 30
0.0
 10
10.5326307938
 20
9.5789459297
 30
0.0
 10
10.5325229798
 20
9.5792894583
 30
0.0
 10
10.532463715
 20
9.5795545082
 30
0.0
 10
10.5323219004
 20
9.5797912584
 30
0.0
 10
10.5321616086
 20
9.5801167965
 30
0.0
 10
10.5318676821
 20
9.5806818891
 30
0.0
 10
10.531454801
 20
9.5814915688
 30
0.0
 10
10.5309563416
 20
9.5824621551
 30
0.0
 10
10.5302927776
 20
9.5837566297
 30
0.0
 10
10.5294629635
 20
9.5853745999
 30
0.0
 10
10.5281354617
 20
9.587963421
 30
0.0
 10
10.5264760152
 20
9.5911994236
 30
0.0
 10
10.524484711
 20
9.5950826378
 30
0.0
 10
10.5224933912
 20
9.5989658456
 30
0.0
 10
10.5208339837
 20
9.6022018641
 30
0.0
 10
10.5195064038
 20
9.6047906534
 30
0.0
 10
10.5186767882
 20
9.6064087045
 30
0.0
 10
10.5180128169
 20
9.607703013
 30
0.0
 10
10.5175156019
 20
9.6086741069
 30
0.0
 10
10.5170988272
 20
9.6094821985
 30
0.0
 10
10.5168118516
 20
9.610050126
 30
0.0
 10
10.5166404227
 20
9.6103711219
 30
0.0
 10
10.5165328175
 20
9.6106218246
 30
0.0
 10
10.5163450677
 20
9.6108344709
 30
0.0
 10
10.51612269
 20
9.6111312738
 30
0.0
 10
10.515720504
 20
9.611644494
 30
0.0
 10
10.5151527621
 20
9.6123808992
 30
0.0
 10
10.5144685572
 20
9.6132632014
 30
0.0
 10
10.5135573021
 20
9.6144400878
 30
0.0
 10
10.5124178845
 20
9.6159110302
 30
0.0
 10
10.5105950113
 20
9.6182646306
 30
0.0
 10
10.5083163527
 20
9.6212065991
 30
0.0
 10
10.5055819924
 20
9.6247369766
 30
0.0
 10
10.5028476189
 20
9.6282673441
 30
0.0
 10
10.5005689935
 20
9.6312093375
 30
0.0
 10
10.4987460537
 20
9.633562888
 30
0.0
 10
10.4976068054
 20
9.6350339572
 30
0.0
 10
10.4966952029
 20
9.6362105834
 30
0.0
 10
10.4960120593
 20
9.6370936806
 30
0.0
 10
10.495440997
 20
9.6378275984
 30
0.0
 10
10.4950447385
 20
9.6383452591
 30
0.0
 10
10.4948128635
 20
9.6386349472
 30
0.0
 10
10.4946542862
 20
9.6388694478
 30
0.0
 10
10.4944371137
 20
9.6390380692
 30
0.0
 10
10.494167989
 20
9.6392858772
 30
0.0
 10
10.493687498
 20
9.6397088346
 30
0.0
 10
10.4930060609
 20
9.6403186569
 30
0.0
 10
10.4921862054
 20
9.6410480478
 30
0.0
 10
10.4910938091
 20
9.6420214059
 30
0.0
 10
10.4897280588
 20
9.6432378169
 30
0.0
 10
10.4875430008
 20
9.6451842347
 30
0.0
 10
10.4848116291
 20
9.6476172017
 30
0.0
 10
10.4815340053
 20
9.6505367874
 30
0.0
 10
10.4782563712
 20
9.65345636
 30
0.0
 10
10.4755250255
 20
9.6558893598
 30
0.0
 10
10.4733399155
 20
9.657835712
 30
0.0
 10
10.4719742973
 20
9.6590522897
 30
0.0
 10
10.4708816299
 20
9.6600253057
 30
0.0
 10
10.4700626025
 20
9.6607557417
 30
0.0
 10
10.4693785744
 20
9.6613622942
 30
0.0
 10
10.4689027088
 20
9.6617910889
 30
0.0
 10
10.468626173
 20
9.662029544
 30
0.0
 10
10.4684317651
 20
9.6622268944
 30
0.0
 10
10.4681876874
 20
9.6623534935
 30
0.0
 10
10.4678795759
 20
9.6625469712
 30
0.0
 10
10.4673323085
 20
9.6628740588
 30
0.0
 10
10.4665547181
 20
9.6633473382
 30
0.0
 10
10.4656198033
 20
9.6639127005
 30
0.0
 10
10.4643738812
 20
9.6646674155
 30
0.0
 10
10.4628162624
 20
9.6656105016
 30
0.0
 10
10.4603241932
 20
9.6671196113
 30
0.0
 10
10.4572090651
 20
9.669005939
 30
0.0
 10
10.45347093
 20
9.6712695597
 30
0.0
 10
10.4497327869
 20
9.6735331659
 30
0.0
 10
10.4466176789
 20
9.6754195298
 30
0.0
 10
10.4441255694
 20
9.6769285672
 30
0.0
 10
10.4425680532
 20
9.6778718372
 30
0.0
 10
10.4413219207
 20
9.6786261747
 30
0.0
 10
10.4403876483
 20
9.6791926904
 30
0.0
 10
10.4396080481
 20
9.6796623608
 30
0.0
 10
10.4390643687
 20
9.6799958912
 30
0.0
 10
10.4387505082
 20
9.6801790459
 30
0.0
 10
10.4385240893
 20
9.6803373539
 30
0.0
 10
10.4382633579
 20
9.6804156109
 30
0.0
 10
10.4379276846
 20
9.6805478764
 30
0.0
 10
10.43733468
 20
9.6807663312
 30
0.0
 10
10.4364904459
 20
9.6810852111
 30
0.0
 10
10.4354761171
 20
9.6814649557
 30
0.0
 10
10.4341241146
 20
9.6819722987
 30
0.0
 10
10.4324339622
 20
9.6826061293
 30
0.0
 10
10.4297298018
 20
9.6836204528
 30
0.0
 10
10.4263495725
 20
9.68488829
 30
0.0
 10
10.4222933103
 20
9.6864097255
 30
0.0
 10
10.4182370424
 20
9.6879311451
 30
0.0
 10
10.4148568275
 20
9.6891990221
 30
0.0
 10
10.4121526382
 20
9.6902132661
 30
0.0
 10
10.4104625592
 20
9.6908472989
 30
0.0
 10
10.4091104061
 20
9.6913542268
 30
0.0
 10
10.4080965374
 20
9.6917352394
 30
0.0
 10
10.4072508639
 20
9.6920501521
 30
0.0
 10
10.4066604288
 20
9.6922756892
 30
0.0
 10
10.4063206385
 20
9.692396607
 30
0.0
 10
10.4060725533
 20
9.6925097203
 30
0.0
 10
10.4057986372
 20
9.692537114
 30
0.0
 10
10.4054424259
 20
9.6926035389
 30
0.0
 10
10.4048148581
 20
9.6927058515
 30
0.0
 10
10.4039205274
 20
9.6928592957
 30
0.0
 10
10.4028463912
 20
9.6930403111
 30
0.0
 10
10.4014145377
 20
9.6932827541
 30
0.0
 10
10.3996246082
 20
9.6935854341
 30
0.0
 10
10.3974767411
 20
9.6939488103
 30
0.0
 10
10.3953288611
 20
9.6943121436
 30
0.0
 10
10.3924650256
 20
9.6947966031
 30
0.0
 10
10.3888852297
 20
9.6954021722
 30
0.0
 10
10.3845894753
 20
9.6961288574
 30
0.0
 10
10.3788618025
 20
9.6970977702
 30
0.0
 10
10.3745660479
 20
9.6978244549
 30
0.0
 10
10.3717022115
 20
9.6983089114
 30
0.0
  0
SPLINE
  5
37E
100
AcDbEntity
  8
0
100
AcDbSpline
 62
4
  6
CONTINUOUS
 70
0
 71
3
 72
330
 73
326
 74
0
 42
0.0000001
 43
0.0000001
 44
0.0000000001
 40
0.0
 40
0.0
 40
0.0
 40
0.0
 40
0.015625
 40
0.0234375
 40
0.03125
 40
0.0390625
 40
0.04296875
 40
0.046875
 40
0.05078125
 40
0.0546875
 40
0.056640625
 40
0.05859375
 40
0.060546875
 40
0.0615234375
 40
0.0620117188
 40
0.0625
 40
0.0629882812
 40
0.0634765625
 40
0.064453125
 40
0.06640625
 40
0.068359375
 40
0.0703125
 40
0.07421875
 40
0.078125
 40
0.08203125
 40
0.0859375
 40
0.09375
 40
0.1015625
 40
0.10546875
 40
0.109375
 40
0.11328125
 40
0.1171875
 40
0.119140625
 40
0.12109375
 40
0.123046875
 40
0.1240234375
 40
0.1245117188
 40
0.125
 40
0.1254882812
 40
0.1259765625
 40
0.126953125
 40
0.12890625
 40
0.130859375
 40
0.1328125
 40
0.13671875
 40
0.140625
 40
0.14453125
 40
0.1484375
 40
0.15625
 40
0.1640625
 40
0.16796875
 40
0.171875
 40
0.17578125
 40
0.1796875
 40
0.181640625
 40
0.18359375
 40
0.185546875
 40
0.1865234375
 40
0.1870117188
 40
0.1875
 40
0.1879882812
 40
0.1884765625
 40
0.189453125
 40
0.19140625
 40
0.193359375
 40
0.1953125
 40
0.19921875
 40
0.203125
 40
0.20703125
 40
0.2109375
 40
0.21875
 40
0.2265625
 40
0.23046875
 40
0.234375
 40
0.23828125
 40
0.2421875
 40
0.244140625
 40
0.24609375
 40
0.248046875
 40
0.2490234375
 40
0.2495117188
 40
0.25
 40
0.2504882812
 40
0.2509765625
 40
0.251953125
 40
0.25390625
 40
0.255859375
 40
0.2578125
 40
0.26171875
 40
0.265625
 40
0.26953125
 40
0.2734375
 40
0.28125
 40
0.2890625
 40
0.29296875
 40
0.296875
 40
0.30078125
 40
0.3046875
 40
0.306640625
 40
0.30859375
 40
0.310546875
 40
0.3115234375
 40
0.3120117188
 40
0.3125
 40
0.3129882812
 40
0.3134765625
 40
0.314453125
 40
0.31640625
 40
0.318359375
 40
0.3203125
 40
0.32421875
 40
0.328125
 40
0.33203125
 40
0.3359375
 40
0.34375
 40
0.3515625
 40
0.35546875
 40
0.359375
 40
0.36328125
 40
0.3671875
 40
0.369140625
 40
0.37109375
 40
0.373046875
 40
0.3740234375
 40
0.3745117188
 40
0.375
 40
0.3754882812
 40
0.3759765625
 40
0.376953125
 40
0.37890625
 40
0.380859375
 40
0.3828125
 40
0.38671875
 40
0.390625
 40
0.39453125
 40
0.3984375
 40
0.40625
 40
0.4140625
 40
0.41796875
 40
0.421875
 40
0.42578125
 40
0.4296875
 40
0.431640625
 40
0.43359375
 40
0.435546875
 40
0.4365234375
 40
0.4370117188
 40
0.4375
 40
0.4379882812
 40
0.4384765625
 40
0.439453125
 40
0.44140625
 40
0.443359375
 40
0.4453125
 40
0.44921875
 40
0.453125
 40
0.45703125
 40
0.4609375
 40
0.46875
 40
0.4765625
 40
0.48046875
 40
0.484375
 40
0.48828125
 40
0.4921875
 40
0.494140625
 40
0.49609375
 40
0.498046875
 40
0.4990234375
 40
0.4995117188
 40
0.5
 40
0.5004882812
 40
0.5009765625
 40
0.501953125
 40
0.50390625
 40
0.505859375
 40
0.5078125
 40
0.51171875
 40
0.515625
 40
0.51953125
 40
0.5234375
 40
0.53125
 40
0.5390625
 40
0.546875
 40
0.55078125
 40
0.5546875
 40
0.556640625
 40
0.55859375
 40
0.560546875
 40
0.5615234375
 40
0.5620117188
 40
0.5625
 40
0.5629882812
 40
0.5634765625
 40
0.564453125
 40
0.56640625
 40
0.568359375
 40
0.5703125
 40
0.57421875
 40
0.578125
 40
0.5859375
 40
0.59375
 40
0.6015625
 40
0.609375
 40
0.61328125
 40
0.6171875
 40
0.619140625
 40
0.62109375
 40
0.623046875
 40
0.6240234375
 40
0.6245117188
 40
0.625
 40
0.6254882812
 40
0.6259765625
 40
0.626953125
 40
0.62890625
 40
0.630859375
 40
0.6328125
 40
0.63671875
 40
0.640625
 40
0.6484375
 40
0.65625
 40
0.6640625
 40
0.671875
 40
0.67578125
 40
0.6796875
 40
0.681640625
 40
0.68359375
 40
0.685546875
 40
0.6865234375
 40
0.6870117188
 40
0.6875
 40
0.6879882812
 40
0.6884765625
 40
0.689453125
 40
0.69140625
 40
0.693359375
 40
0.6953125
 40
0.69921875
 40
0.703125
 40
0.7109375
 40
0.71875
 40
0.7265625
 40
0.734375
 40
0.73828125
 40
0.7421875
 40
0.744140625
 40
0.74609375
 40
0.748046875
 40
0.7490234375
 40
0.7495117188
 40
0.75
 40
0.7504882812
 40
0.7509765625
 40
0.751953125
 40
0.75390625
 40
0.755859375
 40
0.7578125
 40
0.76171875
 40
0.765625
 40
0.7734375
 40
0.78125
 40
0.7890625
 40
0.796875
 40
0.80078125
 40
0.8046875
 40
0.806640625
 40
0.80859375
 40
0.810546875
 40
0.8115234375
 40
0.8120117188
 40
0.8125
 40
0.8129882812
 40
0.8134765625
 40
0.814453125
 40
0.81640625
 40
0.818359375
 40
0.8203125
 40
0.82421875
 40
0.828125
 40
0.8359375
 40
0.84375
 40
0.8515625
 40
0.859375
 40
0.86328125
 40
0.8671875
 40
0.869140625
 40
0.87109375
 40
0.873046875
 40
0.8740234375
 40
0.8745117188
 40
0.875
 40
0.8754882812
 40
0.8759765625
 40
0.876953125
 40
0.87890625
 40
0.880859375
 40
0.8828125
 40
0.88671875
 40
0.890625
 40
0.8984375
 40
0.90625
 40
0.9140625
 40
0.921875
 40
0.92578125
 40
0.9296875
 40
0.931640625
 40
0.93359375
 40
0.935546875
 40
0.9365234375
 40
0.9370117188
 40
0.9375
 40
0.9379882812
 40
0.9384765625
 40
0.939453125
 40
0.94140625
 40
0.943359375
 40
0.9453125
 40
0.94921875
 40
0.953125
 40
0.95703125
 40
0.9609375
 40
0.96875
 40
0.9765625
 40
0.984375
 40
1.0
 40
1.0
 40
1.0
 40
1.0
 10
10.3717022267
 20
9.6983089104
 30
0.0
 10
10.3688879869
 20
9.6982281399
 30
0.0
 10
10.3646666272
 20
9.6981069842
 30
0.0
 10
10.3590381476
 20
9.6979454435
 30
0.0
 10
10.3548167879
 20
9.6978242874
 30
0.0
 10
10.3512989879
 20
9.6977233258
 30
0.0
 10
10.3484847487
 20
9.6976425524
 30
0.0
 10
10.346374067
 20
9.6975819839
 30
0.0
 10
10.344263394
 20
9.697521371
 30
0.0
 10
10.3425044728
 20
9.6974709985
 30
0.0
 10
10.3410973963
 20
9.6974303909
 30
0.0
 10
10.3400419238
 20
9.6974007812
 30
0.0
 10
10.3391628889
 20
9.6973734155
 30
0.0
 10
10.338546533
 20
9.6973595403
 30
0.0
 10
10.3381959402
 20
9.6973433661
 30
0.0
 10
10.3379284586
 20
9.6973544634
 30
0.0
 10
10.3376783196
 20
9.6972767715
 30
0.0
 10
10.3373387516
 20
9.6972041531
 30
0.0
 10
10.3367473262
 20
9.697062641
 30
0.0
 10
10.3359009592
 20
9.696868025
 30
0.0
 10
10.3348859495
 20
9.6966312566
 30
0.0
 10
10.3335323829
 20
9.6963166934
 30
0.0
 10
10.3318405003
 20
9.6959231024
 30
0.0
 10
10.3298102087
 20
9.6954509591
 30
0.0
 10
10.3277799258
 20
9.6949787714
 30
0.0
 10
10.3250728789
 20
9.6943492033
 30
0.0
 10
10.3216890715
 20
9.6935622374
 30
0.0
 10
10.318305263
 20
9.6927752754
 30
0.0
 10
10.3155982179
 20
9.6921457012
 30
0.0
 10
10.3135679296
 20
9.6916735318
 30
0.0
 10
10.3115376583
 20
9.6912013199
 30
0.0
 10
10.3098457126
 20
9.6908079422
 30
0.0
 10
10.3084922746
 20
9.6904929439
 30
0.0
 10
10.307476872
 20
9.6902575043
 30
0.0
 10
10.3066317343
 20
9.6900587312
 30
0.0
 10
10.3060381143
 20
9.6899246401
 30
0.0
 10
10.3057020626
 20
9.6898401313
 30
0.0
 10
10.3054411228
 20
9.6897989628
 30
0.0
 10
10.3052142075
 20
9.6896728848
 30
0.0
 10
10.3048997856
 20
9.6895343982
 30
0.0
 10
10.3043550769
 20
9.6892782474
 30
0.0
 10
10.3035740306
 20
9.6889195321
 30
0.0
 10
10.3026380126
 20
9.6884859857
 30
0.0
 10
10.3013895562
 20
9.6879090025
 30
0.0
 10
10.2998291341
 20
9.6871874034
 30
0.0
 10
10.2979565641
 20
9.6863216431
 30
0.0
 10
10.296084011
 20
9.6854558404
 30
0.0
 10
10.2935872676
 20
9.6843014516
 30
0.0
 10
10.2904663406
 20
9.6828584601
 30
0.0
 10
10.2873454119
 20
9.6814154723
 30
0.0
 10
10.2848486712
 20
9.6802610777
 30
0.0
 10
10.2829761099
 20
9.6793952926
 30
0.0
 10
10.2811035705
 20
9.678529466
 30
0.0
 10
10.279543053
 20
9.6778080733
 30
0.0
 10
10.2782947912
 20
9.6772306691
 30
0.0
 10
10.2773581792
 20
9.6767984084
 30
0.0
 10
10.2765789911
 20
9.6764356706
 30
0.0
 10
10.2760309654
 20
9.6761867007
 30
0.0
 10
10.2757218582
 20
9.6760367084
 30
0.0
 10
10.2754786178
 20
9.6759459721
 30
0.0
 10
10.2752789921
 20
9.6757720663
 30
0.0
 10
10.2749976111
 20
9.6755692024
 30
0.0
 10
10.2745122826
 20
9.6752006741
 30
0.0
 10
10.2738152504
 20
9.6746812716
 30
0.0
 10
10.272980398
 20
9.6740549639
 30
0.0
 10
10.2718667074
 20
9.6732209435
 30
0.0
 10
10.2704747842
 20
9.6721780555
 30
0.0
 10
10.2688043948
 20
9.6709267453
 30
0.0
 10
10.2671340273
 20
9.6696753935
 30
0.0
 10
10.264906863
 20
9.668006939
 30
0.0
 10
10.2621229105
 20
9.6659213656
 30
0.0
 10
10.2593389556
 20
9.6638357954
 30
0.0
 10
10.2571117952
 20
9.6621673357
 30
0.0
 10
10.2554414157
 20
9.6609159994
 30
0.0
 10
10.2537710712
 20
9.6596646313
 30
0.0
 10
10.2523790086
 20
9.6586219234
 30
0.0
 10
10.2512656023
 20
9.6577875358
 30
0.0
 10
10.2504298813
 20
9.6571623496
 30
0.0
 10
10.2497355668
 20
9.6566394382
 30
0.0
 10
10.2492453867
 20
9.6562771738
 30
0.0
 10
10.2489717792
 20
9.6560642735
 30
0.0
 10
10.248748276
 20
9.6559211963
 30
0.0
 10
10.2485947155
 20
9.6557146732
 30
0.0
 10
10.2483655714
 20
9.6554614397
 30
0.0
 10
10.2479759362
 20
9.65500797
 30
0.0
 10
10.2474133717
 20
9.6543655469
 30
0.0
 10
10.246740838
 20
9.6535923318
 30
0.0
 10
10.2458432378
 20
9.6525621842
 30
0.0
 10
10.2447215424
 20
9.6512742233
 30
0.0
 10
10.2433753773
 20
9.6497287887
 30
0.0
 10
10.2420292472
 20
9.6481833224
 30
0.0
 10
10.2402343948
 20
9.6461227117
 30
0.0
 10
10.2379908339
 20
9.6435469443
 30
0.0
 10
10.2357472698
 20
9.6409711795
 30
0.0
 10
10.2339524224
 20
9.6389105647
 30
0.0
 10
10.2326062771
 20
9.6373651108
 30
0.0
 10
10.2312601689
 20
9.6358196295
 30
0.0
 10
10.2301382965
 20
9.6345318138
 30
0.0
 10
10.2292410574
 20
9.6335013701
 30
0.0
 10
10.2285674211
 20
9.6327290596
 30
0.0
 10
10.2280083062
 20
9.6320838062
 30
0.0
 10
10.2276125128
 20
9.631635389
 30
0.0
 10
10.2273932356
 20
9.6313740601
 30
0.0
 10
10.2272093674
 20
9.6311924036
 30
0.0
 10
10.2270996951
 20
9.6309559317
 30
0.0
 10
10.226927585
 20
9.630659756
 30
0.0
 10
10.2266384506
 20
9.6301325401
 30
0.0
 10
10.2262190972
 20
9.629384032
 30
0.0
 10
10.2257185716
 20
9.6284838288
 30
0.0
 10
10.2250502614
 20
9.6272842541
 30
0.0
 10
10.2242151972
 20
9.6257845469
 30
0.0
 10
10.2232129815
 20
9.6239850006
 30
0.0
 10
10.2222108029
 20
9.622185427
 30
0.0
 10
10.2208745517
 20
9.619786005
 30
0.0
 10
10.2192042427
 20
9.616786724
 30
0.0
 10
10.2175339303
 20
9.6137874451
 30
0.0
 10
10.2161976846
 20
9.6113880199
 30
0.0
 10
10.2151954895
 20
9.6095884562
 30
0.0
 10
10.2141933356
 20
9.6077888725
 30
0.0
 10
10.213358079
 20
9.6062892817
 30
0.0
 10
10.2126901612
 20
9.6050894695
 30
0.0
 10
10.2121884375
 20
9.6041899918
 30
0.0
 10
10.2117728326
 20
9.6034392138
 30
0.0
 10
10.2114770065
 20
9.60291605
 30
0.0
 10
10.2113156181
 20
9.6026133819
 30
0.0
 10
10.2111730123
 20
9.6023968527
 30
0.0
 10
10.211112837
 20
9.6021402945
 30
0.0
 10
10.2110038506
 20
9.6018121795
 30
0.0
 10
10.2108265208
 20
9.6012314727
 30
0.0
 10
10.2105661887
 20
9.6004052927
 30
0.0
 10
10.210256788
 20
9.5994124209
 30
0.0
 10
10.2098432066
 20
9.5980891004
 30
0.0
 10
10.2093265892
 20
9.5964347752
 30
0.0
 10
10.2087064943
 20
9.5944496598
 30
0.0
 10
10.2080864406
 20
9.5924645245
 30
0.0
 10
10.2072596879
 20
9.5898176843
 30
0.0
 10
10.2062262524
 20
9.5865091315
 30
0.0
 10
10.2051928132
 20
9.5832005802
 30
0.0
 10
10.2043660665
 20
9.5805537375
 30
0.0
 10
10.2037459949
 20
9.5785686097
 30
0.0
 10
10.203125967
 20
9.576583466
 30
0.0
 10
10.2026091409
 20
9.5749292292
 30
0.0
 10
10.2021959852
 20
9.5736057285
 30
0.0
 10
10.2018852846
 20
9.5726134069
 30
0.0
 10
10.2016290196
 20
9.5717855055
 30
0.0
 10
10.2014444293
 20
9.5712078717
 30
0.0
 10
10.2013470761
 20
9.5708748329
 30
0.0
 10
10.2012511675
 20
9.570633399
 30
0.0
 10
10.2012427699
 20
9.5703600654
 30
0.0
 10
10.2012010484
 20
9.5700067476
 30
0.0
 10
10.2011422577
 20
9.5693832573
 30
0.0
 10
10.2010508357
 20
9.5684952671
 30
0.0
 10
10.2009443118
 20
9.5674285188
 30
0.0
 10
10.2008011682
 20
9.566006593
 30
0.0
 10
10.2006226202
 20
9.5642290467
 30
0.0
 10
10.2004081991
 20
9.5620960507
 30
0.0
 10
10.2001938218
 20
9.5599630388
 30
0.0
 10
10.19990797
 20
9.5571190284
 30
0.0
 10
10.199550661
 20
9.5535640136
 30
0.0
 10
10.199193348
 20
9.5500089994
 30
0.0
 10
10.1989075025
 20
9.547164988
 30
0.0
 10
10.1986931064
 20
9.5450319793
 30
0.0
 10
10.1984787557
 20
9.5428989714
 30
0.0
 10
10.1982999886
 20
9.5411214621
 30
0.0
 10
10.1981572919
 20
9.5396994607
 30
0.0
 10
10.1980494033
 20
9.5386329432
 30
0.0
 10
10.1979622508
 20
9.5377442308
 30
0.0
 10
10.1978958383
 20
9.5371220298
 30
0.0
 10
10.197866329
 20
9.5367666462
 30
0.0
 10
10.1978204193
 20
9.5364996583
 30
0.0
 10
10.1978653999
 20
9.5362343911
 30
0.0
 10
10.1978936704
 20
9.5358801013
 30
0.0
 10
10.1979579152
 20
9.5352603737
 30
0.0
 10
10.1980419707
 20
9.5343749025
 30
0.0
 10
10.198146143
 20
9.5333123996
 30
0.0
 10
10.1982838846
 20
9.5318957071
 30
0.0
 10
10.1984564579
 20
9.5301248491
 30
0.0
 10
10.198663376
 20
9.5279998163
 30
0.0
 10
10.1988703395
 20
9.5258747843
 30
0.0
 10
10.1991462752
 20
9.523041408
 30
0.0
 10
10.1994911984
 20
9.5194996876
 30
0.0
 10
10.1999051125
 20
9.5152496241
 30
0.0
 10
10.2002500153
 20
9.5117079012
 30
0.0
 10
10.2005259959
 20
9.5088745304
 30
0.0
 10
10.2006983507
 20
9.5071036565
 30
0.0
 10
10.2008365393
 20
9.5056869966
 30
0.0
 10
10.2009393463
 20
9.5046243943
 30
0.0
 10
10.2010276733
 20
9.5037392339
 30
0.0
 10
10.2010842929
 20
9.5031189515
 30
0.0
 10
10.2011247809
 20
9.5027655508
 30
0.0
 10
10.2011322335
 20
9.5024975524
 30
0.0
 10
10.2012272725
 20
9.5022408224
 30
0.0
 10
10.20132344
 20
9.5018945852
 30
0.0
 10
10.2015059676
 20
9.5012905014
 30
0.0
 10
10.2017592794
 20
9.5004265672
 30
0.0
 10
10.2020664389
 20
9.4993902559
 30
0.0
 10
10.2024748724
 20
9.4980083644
 30
0.0
 10
10.2029857951
 20
9.496281049
 30
0.0
 10
10.2038030585
 20
9.493517317
 30
0.0
 10
10.2048247114
 20
9.4900626615
 30
0.0
 10
10.2060506613
 20
9.4859170701
 30
0.0
 10
10.2072766275
 20
9.4817714826
 30
0.0
 10
10.2082982395
 20
9.4783168176
 30
0.0
 10
10.2091155846
 20
9.4755531046
 30
0.0
 10
10.2096262998
 20
9.4738257409
 30
0.0
 10
10.2100351592
 20
9.4724439484
 30
0.0
 10
10.2103410173
 20
9.4714073345
 30
0.0
 10
10.2105984009
 20
9.4705443472
 30
0.0
 10
10.2107736596
 20
9.4699385729
 30
0.0
 10
10.2108814736
 20
9.4695950443
 30
0.0
 10
10.2109407384
 20
9.4693299944
 30
0.0
 10
10.211082553
 20
9.4690932443
 30
0.0
 10
10.2112428449
 20
9.4687677061
 30
0.0
 10
10.2115367714
 20
9.4682026135
 30
0.0
 10
10.2119496524
 20
9.4673929339
 30
0.0
 10
10.2124481119
 20
9.4664223475
 30
0.0
 10
10.2131116759
 20
9.4651278729
 30
0.0
 10
10.21394149
 20
9.4635099027
 30
0.0
 10
10.2152689917
 20
9.4609210816
 30
0.0
 10
10.2169284383
 20
9.4576850791
 30
0.0
 10
10.2189197425
 20
9.4538018649
 30
0.0
 10
10.2209110623
 20
9.449918657
 30
0.0
 10
10.2225704698
 20
9.4466826385
 30
0.0
 10
10.2238980496
 20
9.4440938493
 30
0.0
 10
10.2247276652
 20
9.4424757981
 30
0.0
 10
10.2253916366
 20
9.4411814897
 30
0.0
 10
10.2258888515
 20
9.4402103957
 30
0.0
 10
10.2263056263
 20
9.4394023042
 30
0.0
 10
10.2265926019
 20
9.4388343766
 30
0.0
 10
10.2267640308
 20
9.4385133808
 30
0.0
 10
10.2268716359
 20
9.438262678
 30
0.0
 10
10.2270593858
 20
9.4380500318
 30
0.0
 10
10.2272817635
 20
9.4377532289
 30
0.0
 10
10.2276839495
 20
9.4372400087
 30
0.0
 10
10.2282516913
 20
9.4365036035
 30
0.0
 10
10.2289358962
 20
9.4356213012
 30
0.0
 10
10.2298471514
 20
9.4344444149
 30
0.0
 10
10.2309865689
 20
9.4329734725
 30
0.0
 10
10.2328094421
 20
9.430619872
 30
0.0
 10
10.2350881008
 20
9.4276779036
 30
0.0
 10
10.237822461
 20
9.4241475261
 30
0.0
 10
10.2405568346
 20
9.4206171586
 30
0.0
 10
10.2428354599
 20
9.4176751652
 30
0.0
 10
10.2446583997
 20
9.4153216146
 30
0.0
 10
10.245797648
 20
9.4138505454
 30
0.0
 10
10.2467092505
 20
9.4126739193
 30
0.0
 10
10.2473923942
 20
9.411790822
 30
0.0
 10
10.2479634564
 20
9.4110569043
 30
0.0
 10
10.248359715
 20
9.4105392436
 30
0.0
 10
10.24859159
 20
9.4102495555
 30
0.0
 10
10.2487501672
 20
9.4100150549
 30
0.0
 10
10.2489673398
 20
9.4098464334
 30
0.0
 10
10.2492364645
 20
9.4095986255
 30
0.0
 10
10.2497169555
 20
9.4091756681
 30
0.0
 10
10.2503983925
 20
9.4085658457
 30
0.0
 10
10.251218248
 20
9.4078364548
 30
0.0
 10
10.2523106444
 20
9.4068630968
 30
0.0
 10
10.2536763947
 20
9.4056466858
 30
0.0
 10
10.2558614527
 20
9.4037002679
 30
0.0
 10
10.2585928244
 20
9.401267301
 30
0.0
 10
10.2618704481
 20
9.3983477152
 30
0.0
 10
10.2651480823
 20
9.3954281426
 30
0.0
 10
10.267879428
 20
9.3929951429
 30
0.0
 10
10.2700645379
 20
9.3910487906
 30
0.0
 10
10.2714301562
 20
9.3898322129
 30
0.0
 10
10.2725228236
 20
9.3888591969
 30
0.0
 10
10.273341851
 20
9.3881287609
 30
0.0
 10
10.2740258791
 20
9.3875222085
 30
0.0
 10
10.2745017446
 20
9.3870934138
 30
0.0
 10
10.2747782805
 20
9.3868549587
 30
0.0
 10
10.2749726883
 20
9.3866576082
 30
0.0
 10
10.275216766
 20
9.3865310091
 30
0.0
 10
10.2755248776
 20
9.3863375314
 30
0.0
 10
10.276072145
 20
9.3860104439
 30
0.0
 10
10.2768497353
 20
9.3855371644
 30
0.0
 10
10.2777846501
 20
9.3849718022
 30
0.0
 10
10.2790305723
 20
9.3842170871
 30
0.0
 10
10.280588191
 20
9.3832740011
 30
0.0
 10
10.2830802602
 20
9.3817648913
 30
0.0
 10
10.2861953883
 20
9.3798785636
 30
0.0
 10
10.2899335234
 20
9.3776149429
 30
0.0
 10
10.2936716666
 20
9.3753513367
 30
0.0
 10
10.2967867745
 20
9.3734649728
 30
0.0
 10
10.299278884
 20
9.3719559355
 30
0.0
 10
10.3008364003
 20
9.3710126654
 30
0.0
 10
10.3020825327
 20
9.370258328
 30
0.0
 10
10.3030168052
 20
9.3696918122
 30
0.0
 10
10.3037964054
 20
9.3692221419
 30
0.0
 10
10.3043400848
 20
9.3688886115
 30
0.0
 10
10.3046539453
 20
9.3687054568
 30
0.0
 10
10.3048803641
 20
9.3685471488
 30
0.0
 10
10.3051410956
 20
9.3684688917
 30
0.0
 10
10.3054767688
 20
9.3683366263
 30
0.0
 10
10.3060697735
 20
9.3681181715
 30
0.0
 10
10.3069140076
 20
9.3677992915
 30
0.0
 10
10.3079283364
 20
9.3674195469
 30
0.0
 10
10.3092803389
 20
9.3669122039
 30
0.0
 10
10.3109704913
 20
9.3662783734
 30
0.0
 10
10.3136746517
 20
9.3652640498
 30
0.0
 10
10.317054881
 20
9.3639962126
 30
0.0
 10
10.3211111432
 20
9.3624747771
 30
0.0
 10
10.3251674111
 20
9.3609533575
 30
0.0
 10
10.328547626
 20
9.3596854805
 30
0.0
 10
10.3312518152
 20
9.3586712365
 30
0.0
 10
10.3329418943
 20
9.3580372038
 30
0.0
 10
10.3342940474
 20
9.3575302758
 30
0.0
 10
10.3353079161
 20
9.3571492632
 30
0.0
 10
10.3361535896
 20
9.3568343506
 30
0.0
 10
10.3367440247
 20
9.3566088135
 30
0.0
 10
10.337083815
 20
9.3564878957
 30
0.0
 10
10.3373319002
 20
9.3563747823
 30
0.0
 10
10.3376058163
 20
9.3563473886
 30
0.0
 10
10.3379620276
 20
9.3562809637
 30
0.0
 10
10.3385895954
 20
9.3561786511
 30
0.0
 10
10.339483926
 20
9.356025207
 30
0.0
 10
10.3405580623
 20
9.3558441915
 30
0.0
 10
10.3419899158
 20
9.3556017486
 30
0.0
 10
10.3437798452
 20
9.3552990686
 30
0.0
 10
10.3459277123
 20
9.3549356924
 30
0.0
 10
10.3480755923
 20
9.354572359
 30
0.0
 10
10.3509394278
 20
9.3540878996
 30
0.0
 10
10.3545192237
 20
9.3534823304
 30
0.0
 10
10.3588149782
 20
9.3527556453
 30
0.0
 10
10.364542651
 20
9.3517867325
 30
0.0
 10
10.3688384055
 20
9.3510600477
 30
0.0
 10
10.3717022419
 20
9.3505755912
 30
0.0
  0
SPLINE
  5
37F
100
AcDbEntity
  8
0
100
AcDbSpline
 62
7
  6
CONTINUOUS
 70
0
 71
3
 72
140
 73
136
 74
0
 42
0.0000001
 43
0.0000001
 44
0.0000000001
 40
0.0
 40
0.0
 40
0.0
 40
0.0
 40
0.03125
 40
0.046875
 40
0.0546875
 40
0.0625
 40
0.0703125
 40
0.078125
 40
0.09375
 40
0.109375
 40
0.1171875
 40
0.125
 40
0.1328125
 40
0.140625
 40
0.15625
 40
0.171875
 40
0.1796875
 40
0.1875
 40
0.1953125
 40
0.203125
 40
0.21875
 40
0.234375
 40
0.2421875
 40
0.24609375
 40
0.25
 40
0.25390625
 40
0.2578125
 40
0.265625
 40
0.28125
 40
0.296875
 40
0.3046875
 40
0.30859375
 40
0.3125
 40
0.31640625
 40
0.3203125
 40
0.328125
 40
0.34375
 40
0.359375
 40
0.3671875
 40
0.37109375
 40
0.373046875
 40
0.375
 40
0.376953125
 40
0.37890625
 40
0.3828125
 40
0.390625
 40
0.40625
 40
0.421875
 40
0.4296875
 40
0.43359375
 40
0.435546875
 40
0.4375
 40
0.439453125
 40
0.44140625
 40
0.4453125
 40
0.453125
 40
0.46875
 40
0.4765625
 40
0.484375
 40
0.4921875
 40
0.49609375
 40
0.498046875
 40
0.5
 40
0.501953125
 40
0.50390625
 40
0.5078125
 40
0.515625
 40
0.53125
 40
0.546875
 40
0.5546875
 40
0.55859375
 40
0.560546875
 40
0.5625
 40
0.564453125
 40
0.56640625
 40
0.5703125
 40
0.578125
 40
0.59375
 40
0.609375
 40
0.6171875
 40
0.62109375
 40
0.623046875
 40
0.625
 40
0.626953125
 40
0.62890625
 40
0.6328125
 40
0.640625
 40
0.65625
 40
0.671875
 40
0.6796875
 40
0.68359375
 40
0.685546875
 40
0.6875
 40
0.689453125
 40
0.69140625
 40
0.6953125
 40
0.703125
 40
0.7109375
 40
0.71875
 40
0.734375
 40
0.7421875
 40
0.74609375
 40
0.748046875
 40
0.75
 40
0.751953125
 40
0.75390625
 40
0.7578125
 40
0.765625
 40
0.78125
 40
0.796875
 40
0.8046875
 40
0.80859375
 40
0.8125
 40
0.81640625
 40
0.8203125
 40
0.828125
 40
0.84375
 40
0.859375
 40
0.8671875
 40
0.87109375
 40
0.875
 40
0.87890625
 40
0.8828125
 40
0.890625
 40
0.90625
 40
0.921875
 40
0.9296875
 40
0.93359375
 40
0.9375
 40
0.94140625
 40
0.9453125
 40
0.953125
 40
0.96875
 40
0.984375
 40
1.0
 40
1.0
 40
1.0
 40
1.0
 10
10.6901247776
 20
10.6609407549
 30
0.0
 10
10.6911195942
 20
10.6608981299
 30
0.0
 10
10.6926121345
 20
10.6608354224
 30
0.0
 10
10.6943523278
 20
10.6607579584
 30
0.0
 10
10.6953483007
 20
10.6607198437
 30
0.0
 10
10.6960908653
 20
10.6606740363
 30
0.0
 10
10.6968503022
 20
10.6606940393
 30
0.0
 10
10.6978570404
 20
10.6606976192
 30
0.0
 10
10.6991171145
 20
10.6607107491
 30
0.0
 10
10.7003778885
 20
10.6607181225
 30
0.0
 10
10.701383507
 20
10.6607309126
 30
0.0
 10
10.7021463031
 20
10.6607232852
 30
0.0
 10
10.7028762708
 20
10.6607810919
 30
0.0
 10
10.7038611229
 20
10.6608352081
 30
0.0
 10
10.7050875459
 20
10.6609114641
 30
0.0
 10
10.7063180849
 20
10.6609819763
 30
0.0
 10
10.7072963514
 20
10.6610452825
 30
0.0
 10
10.7080460757
 20
10.6610755193
 30
0.0
 10
10.7087347847
 20
10.6611712794
 30
0.0
 10
10.7096742985
 20
10.6612760986
 30
0.0
 10
10.7108419655
 20
10.6614147721
 30
0.0
 10
10.7120099896
 20
10.6615514239
 30
0.0
 10
10.7128315642
 20
10.6616459709
 30
0.0
 10
10.7132941435
 20
10.6617025059
 30
0.0
 10
10.713660623
 20
10.6617376996
 30
0.0
 10
10.7139523686
 20
10.6618004696
 30
0.0
 10
10.714367439
 20
10.6618745416
 30
0.0
 10
10.7150815801
 20
10.662008675
 30
0.0
 10
10.7161088419
 20
10.6621977398
 30
0.0
 10
10.7171311621
 20
10.6623884363
 30
0.0
 10
10.7178522214
 20
10.6625202852
 30
0.0
 10
10.7182564204
 20
10.662597947
 30
0.0
 10
10.7185815214
 20
10.6626497029
 30
0.0
 10
10.7188227328
 20
10.6627262607
 30
0.0
 10
10.7191736064
 20
10.6628196872
 30
0.0
 10
10.7197740354
 20
10.6629872078
 30
0.0
 10
10.7206386422
 20
10.6632244689
 30
0.0
 10
10.7215017489
 20
10.6634622808
 30
0.0
 10
10.722104278
 20
10.6636290303
 30
0.0
 10
10.7224084047
 20
10.6637118387
 30
0.0
 10
10.7225775199
 20
10.6637600885
 30
0.0
 10
10.722717553
 20
10.6637936456
 30
0.0
 10
10.7228071351
 20
10.6638372584
 30
0.0
 10
10.7229441745
 20
10.6638919015
 30
0.0
 10
10.7231758073
 20
10.6639891585
 30
0.0
 10
10.7236449236
 20
10.6641825079
 30
0.0
 10
10.7243117189
 20
10.6644593799
 30
0.0
 10
10.7249808535
 20
10.6647358359
 30
0.0
 10
10.7254466949
 20
10.6649297677
 30
0.0
 10
10.7256828307
 20
10.6650262239
 30
0.0
 10
10.7258126184
 20
10.6650821565
 30
0.0
 10
10.7259244818
 20
10.6651218075
 30
0.0
 10
10.7259808285
 20
10.6651702447
 30
0.0
 10
10.7260753205
 20
10.6652317633
 30
0.0
 10
10.7262316773
 20
10.6653408458
 30
0.0
 10
10.7265507845
 20
10.6655579977
 30
0.0
 10
10.7269127987
 20
10.6658066046
 30
0.0
 10
10.7272755453
 20
10.6660550695
 30
0.0
 10
10.7275480877
 20
10.6662414109
 30
0.0
 10
10.7277732932
 20
10.6663967789
 30
0.0
 10
10.7279347437
 20
10.6665053642
 30
0.0
 10
10.7280210494
 20
10.6665676833
 30
0.0
 10
10.7281025461
 20
10.6666136609
 30
0.0
 10
10.7281199489
 20
10.6666625501
 30
0.0
 10
10.7281655077
 20
10.6667267201
 30
0.0
 10
10.7282348362
 20
10.6668394901
 30
0.0
 10
10.7283809209
 20
10.6670646938
 30
0.0
 10
10.7285853721
 20
10.6673865956
 30
0.0
 10
10.7287926407
 20
10.6677084091
 30
0.0
 10
10.728934781
 20
10.6679337365
 30
0.0
 10
10.7290095332
 20
10.6680463363
 30
0.0
 10
10.7290463577
 20
10.6681107804
 30
0.0
 10
10.729090597
 20
10.6681588277
 30
0.0
 10
10.7290712985
 20
10.6682079673
 30
0.0
 10
10.7290677282
 20
10.6682731058
 30
0.0
 10
10.729051171
 20
10.6683872752
 30
0.0
 10
10.7290254201
 20
10.6686154897
 30
0.0
 10
10.7289844276
 20
10.6689415639
 30
0.0
 10
10.7289462317
 20
10.6692676609
 30
0.0
 10
10.7289165656
 20
10.6694958436
 30
0.0
 10
10.7289053919
 20
10.6696100568
 30
0.0
 10
10.7288931522
 20
10.6696751247
 30
0.0
 10
10.7289004911
 20
10.669724481
 30
0.0
 10
10.7288446826
 20
10.6697717145
 30
0.0
 10
10.7287922962
 20
10.669835433
 30
0.0
 10
10.7286903741
 20
10.6699465958
 30
0.0
 10
10.7284938486
 20
10.6701691686
 30
0.0
 10
10.7282089151
 20
10.6704869786
 30
0.0
 10
10.7279267722
 20
10.6708049226
 30
0.0
 10
10.72772634
 20
10.6710273078
 30
0.0
 10
10.7276297896
 20
10.6711387285
 30
0.0
 10
10.7275687527
 20
10.6712020316
 30
0.0
 10
10.7275395234
 20
10.6712505415
 30
0.0
 10
10.7274470331
 20
10.6712951039
 30
0.0
 10
10.7273457787
 20
10.6713558974
 30
0.0
 10
10.7271583034
 20
10.6714616447
 30
0.0
 10
10.7268958491
 20
10.6716130462
 30
0.0
 10
10.7265786371
 20
10.6717945906
 30
0.0
 10
10.7261563272
 20
10.67203667
 30
0.0
 10
10.7257347139
 20
10.6722789031
 30
0.0
 10
10.725363554
 20
10.6724904405
 30
0.0
 10
10.7251810417
 20
10.6725967668
 30
0.0
 10
10.7250718114
 20
10.6726566283
 30
0.0
 10
10.7250038247
 20
10.6727040542
 30
0.0
 10
10.7248825627
 20
10.6727418091
 30
0.0
 10
10.7247394606
 20
10.6727955218
 30
0.0
 10
10.7244803998
 20
10.6728879524
 30
0.0
 10
10.7239683156
 20
10.6730739052
 30
0.0
 10
10.7232343442
 20
10.6733391481
 30
0.0
 10
10.7224985631
 20
10.6736039279
 30
0.0
 10
10.7219890125
 20
10.673790529
 30
0.0
 10
10.7216889617
 20
10.6738951454
 30
0.0
 10
10.7214889901
 20
10.6739792873
 30
0.0
 10
10.7211931923
 20
10.6740417169
 30
0.0
 10
10.7208322281
 20
10.6741325325
 30
0.0
 10
10.7201848865
 20
10.6742879041
 30
0.0
 10
10.7192689188
 20
10.6745119293
 30
0.0
 10
10.7183475449
 20
10.6747344644
 30
0.0
 10
10.7177077719
 20
10.6748919221
 30
0.0
 10
10.7173349143
 20
10.6749794596
 30
0.0
 10
10.7170756077
 20
10.6750519467
 30
0.0
 10
10.7167385913
 20
10.675098317
 30
0.0
 10
10.7163163489
 20
10.6751692567
 30
0.0
 10
10.7155647251
 20
10.6752891272
 30
0.0
 10
10.7144981581
 20
10.6754628332
 30
0.0
 10
10.7134270552
 20
10.6756348303
 30
0.0
 10
10.7126817818
 20
10.6757570932
 30
0.0
 10
10.7122495601
 20
10.6758242734
 30
0.0
 10
10.7119431621
 20
10.6758821787
 30
0.0
 10
10.7115688664
 20
10.6759113455
 30
0.0
 10
10.711093489
 20
10.675960259
 30
0.0
 10
10.7102505436
 20
10.6760411869
 30
0.0
 10
10.7090521086
 20
10.6761592415
 30
0.0
 10
10.7076115
 20
10.6762998545
 30
0.0
 10
10.7066515678
 20
10.676393797
 30
0.0
 10
10.7061715426
 20
10.6764407432
 30
0.0
  0
SPLINE
  5
380
100
AcDbEntity
  8
0
100
AcDbSpline
 62
7
  6
CONTINUOUS
 70
0
 71
3
 72
140
 73
136
 74
0
 42
0.0000001
 43
0.0000001
 44
0.0000000001
 40
0.0
 40
0.0
 40
0.0
 40
0.0
 40
0.03125
 40
0.046875
 40
0.0546875
 40
0.0625
 40
0.0703125
 40
0.078125
 40
0.09375
 40
0.109375
 40
0.1171875
 40
0.125
 40
0.1328125
 40
0.140625
 40
0.15625
 40
0.171875
 40
0.1796875
 40
0.1875
 40
0.1953125
 40
0.203125
 40
0.21875
 40
0.234375
 40
0.2421875
 40
0.24609375
 40
0.25
 40
0.25390625
 40
0.2578125
 40
0.265625
 40
0.28125
 40
0.296875
 40
0.3046875
 40
0.30859375
 40
0.3125
 40
0.31640625
 40
0.3203125
 40
0.328125
 40
0.34375
 40
0.359375
 40
0.3671875
 40
0.37109375
 40
0.373046875
 40
0.375
 40
0.376953125
 40
0.37890625
 40
0.3828125
 40
0.390625
 40
0.40625
 40
0.421875
 40
0.4296875
 40
0.43359375
 40
0.435546875
 40
0.4375
 40
0.439453125
 40
0.44140625
 40
0.4453125
 40
0.453125
 40
0.46875
 40
0.4765625
 40
0.484375
 40
0.4921875
 40
0.49609375
 40
0.498046875
 40
0.5
 40
0.501953125
 40
0.50390625
 40
0.5078125
 40
0.515625
 40
0.53125
 40
0.546875
 40
0.5546875
 40
0.55859375
 40
0.560546875
 40
0.5625
 40
0.564453125
 40
0.56640625
 40
0.5703125
 40
0.578125
 40
0.59375
 40
0.609375
 40
0.6171875
 40
0.62109375
 40
0.623046875
 40
0.625
 40
0.626953125
 40
0.62890625
 40
0.6328125
 40
0.640625
 40
0.65625
 40
0.671875
 40
0.6796875
 40
0.68359375
 40
0.685546875
 40
0.6875
 40
0.689453125
 40
0.69140625
 40
0.6953125
 40
0.703125
 40
0.7109375
 40
0.71875
 40
0.734375
 40
0.7421875
 40
0.74609375
 40
0.748046875
 40
0.75
 40
0.751953125
 40
0.75390625
 40
0.7578125
 40
0.765625
 40
0.78125
 40
0.796875
 40
0.8046875
 40
0.80859375
 40
0.8125
 40
0.81640625
 40
0.8203125
 40
0.828125
 40
0.84375
 40
0.859375
 40
0.8671875
 40
0.87109375
 40
0.875
 40
0.87890625
 40
0.8828125
 40
0.890625
 40
0.90625
 40
0.921875
 40
0.9296875
 40
0.93359375
 40
0.9375
 40
0.94140625
 40
0.9453125
 40
0.953125
 40
0.96875
 40
0.984375
 40
1.0
 40
1.0
 40
1.0
 40
1.0
 10
10.7061715452
 20
10.676440743
 30
0.0
 10
10.7051767286
 20
10.676483368
 30
0.0
 10
10.7036841883
 20
10.6765460755
 30
0.0
 10
10.701943995
 20
10.6766235395
 30
0.0
 10
10.7009480221
 20
10.6766616542
 30
0.0
 10
10.7002054575
 20
10.6767074616
 30
0.0
 10
10.6994460206
 20
10.6766874586
 30
0.0
 10
10.6984392824
 20
10.6766838787
 30
0.0
 10
10.6971792083
 20
10.6766707488
 30
0.0
 10
10.6959184343
 20
10.6766633754
 30
0.0
 10
10.6949128158
 20
10.6766505853
 30
0.0
 10
10.6941500197
 20
10.6766582127
 30
0.0
 10
10.693420052
 20
10.676600406
 30
0.0
 10
10.6924351999
 20
10.6765462898
 30
0.0
 10
10.6912087769
 20
10.6764700338
 30
0.0
 10
10.6899782379
 20
10.6763995216
 30
0.0
 10
10.6889999714
 20
10.6763362154
 30
0.0
 10
10.6882502471
 20
10.6763059786
 30
0.0
 10
10.6875615381
 20
10.6762102185
 30
0.0
 10
10.6866220243
 20
10.6761053993
 30
0.0
 10
10.6854543573
 20
10.6759667258
 30
0.0
 10
10.6842863332
 20
10.675830074
 30
0.0
 10
10.6834647586
 20
10.675735527
 30
0.0
 10
10.6830021793
 20
10.675678992
 30
0.0
 10
10.6826356998
 20
10.6756437983
 30
0.0
 10
10.6823439542
 20
10.6755810283
 30
0.0
 10
10.6819288838
 20
10.6755069563
 30
0.0
 10
10.6812147427
 20
10.6753728229
 30
0.0
 10
10.6801874809
 20
10.6751837581
 30
0.0
 10
10.6791651607
 20
10.6749930616
 30
0.0
 10
10.6784441014
 20
10.6748612127
 30
0.0
 10
10.6780399024
 20
10.6747835509
 30
0.0
 10
10.6777148014
 20
10.674731795
 30
0.0
 10
10.67747359
 20
10.6746552372
 30
0.0
 10
10.6771227164
 20
10.6745618107
 30
0.0
 10
10.6765222874
 20
10.6743942901
 30
0.0
 10
10.6756576806
 20
10.674157029
 30
0.0
 10
10.6747945739
 20
10.6739192171
 30
0.0
 10
10.6741920448
 20
10.6737524676
 30
0.0
 10
10.6738879181
 20
10.6736696592
 30
0.0
 10
10.6737188029
 20
10.6736214094
 30
0.0
 10
10.6735787698
 20
10.6735878523
 30
0.0
 10
10.6734891877
 20
10.6735442395
 30
0.0
 10
10.6733521483
 20
10.6734895964
 30
0.0
 10
10.6731205155
 20
10.6733923394
 30
0.0
 10
10.6726513992
 20
10.67319899
 30
0.0
 10
10.6719846039
 20
10.672922118
 30
0.0
 10
10.6713154693
 20
10.672645662
 30
0.0
 10
10.6708496279
 20
10.6724517302
 30
0.0
 10
10.6706134921
 20
10.672355274
 30
0.0
 10
10.6704837043
 20
10.6722993414
 30
0.0
 10
10.670371841
 20
10.6722596904
 30
0.0
 10
10.6703154943
 20
10.6722112532
 30
0.0
 10
10.6702210023
 20
10.6721497346
 30
0.0
 10
10.6700646455
 20
10.6720406521
 30
0.0
 10
10.6697455383
 20
10.6718235002
 30
0.0
 10
10.6693835241
 20
10.6715748933
 30
0.0
 10
10.6690207774
 20
10.6713264284
 30
0.0
 10
10.6687482351
 20
10.671140087
 30
0.0
 10
10.6685230296
 20
10.670984719
 30
0.0
 10
10.6683615791
 20
10.6708761337
 30
0.0
 10
10.6682752734
 20
10.6708138146
 30
0.0
 10
10.6681937767
 20
10.670767837
 30
0.0
 10
10.6681763739
 20
10.6707189478
 30
0.0
 10
10.6681308151
 20
10.6706547778
 30
0.0
 10
10.6680614866
 20
10.6705420078
 30
0.0
 10
10.6679154019
 20
10.6703168041
 30
0.0
 10
10.6677109507
 20
10.6699949023
 30
0.0
 10
10.6675036821
 20
10.6696730888
 30
0.0
 10
10.6673615418
 20
10.6694477614
 30
0.0
 10
10.6672867896
 20
10.6693351616
 30
0.0
 10
10.6672499651
 20
10.6692707175
 30
0.0
 10
10.6672057258
 20
10.6692226702
 30
0.0
 10
10.6672250243
 20
10.6691735306
 30
0.0
 10
10.6672285946
 20
10.6691083921
 30
0.0
 10
10.6672451518
 20
10.6689942227
 30
0.0
 10
10.6672709027
 20
10.6687660082
 30
0.0
 10
10.6673118952
 20
10.668439934
 30
0.0
 10
10.6673500911
 20
10.668113837
 30
0.0
 10
10.6673797572
 20
10.6678856543
 30
0.0
 10
10.6673909309
 20
10.6677714411
 30
0.0
 10
10.6674031706
 20
10.6677063732
 30
0.0
 10
10.6673958317
 20
10.6676570169
 30
0.0
 10
10.6674516402
 20
10.6676097834
 30
0.0
 10
10.6675040266
 20
10.6675460649
 30
0.0
 10
10.6676059487
 20
10.6674349021
 30
0.0
 10
10.6678024742
 20
10.6672123293
 30
0.0
 10
10.6680874077
 20
10.6668945193
 30
0.0
 10
10.6683695506
 20
10.6665765753
 30
0.0
 10
10.6685699828
 20
10.6663541901
 30
0.0
 10
10.6686665332
 20
10.6662427694
 30
0.0
 10
10.6687275701
 20
10.6661794663
 30
0.0
 10
10.6687567994
 20
10.6661309564
 30
0.0
 10
10.6688492897
 20
10.666086394
 30
0.0
 10
10.6689505441
 20
10.6660256005
 30
0.0
 10
10.6691380194
 20
10.6659198532
 30
0.0
 10
10.6694004737
 20
10.6657684517
 30
0.0
 10
10.6697176857
 20
10.6655869073
 30
0.0
 10
10.6701399956
 20
10.6653448279
 30
0.0
 10
10.6705616089
 20
10.6651025948
 30
0.0
 10
10.6709327688
 20
10.6648910574
 30
0.0
 10
10.6711152811
 20
10.6647847311
 30
0.0
 10
10.6712245114
 20
10.6647248696
 30
0.0
 10
10.6712924981
 20
10.6646774437
 30
0.0
 10
10.6714137601
 20
10.6646396888
 30
0.0
 10
10.6715568622
 20
10.6645859761
 30
0.0
 10
10.671815923
 20
10.6644935455
 30
0.0
 10
10.6723280072
 20
10.6643075927
 30
0.0
 10
10.6730619786
 20
10.6640423498
 30
0.0
 10
10.6737977597
 20
10.66377757
 30
0.0
 10
10.6743073103
 20
10.6635909689
 30
0.0
 10
10.6746073611
 20
10.6634863525
 30
0.0
 10
10.6748073327
 20
10.6634022106
 30
0.0
 10
10.6751031305
 20
10.663339781
 30
0.0
 10
10.6754640947
 20
10.6632489654
 30
0.0
 10
10.6761114363
 20
10.6630935938
 30
0.0
 10
10.677027404
 20
10.6628695686
 30
0.0
 10
10.6779487779
 20
10.6626470335
 30
0.0
 10
10.6785885509
 20
10.6624895758
 30
0.0
 10
10.6789614085
 20
10.6624020383
 30
0.0
 10
10.6792207151
 20
10.6623295512
 30
0.0
 10
10.6795577315
 20
10.6622831809
 30
0.0
 10
10.6799799739
 20
10.6622122412
 30
0.0
 10
10.6807315977
 20
10.6620923707
 30
0.0
 10
10.6817981647
 20
10.6619186647
 30
0.0
 10
10.6828692676
 20
10.6617466676
 30
0.0
 10
10.683614541
 20
10.6616244047
 30
0.0
 10
10.6840467627
 20
10.6615572245
 30
0.0
 10
10.6843531607
 20
10.6614993192
 30
0.0
 10
10.6847274564
 20
10.6614701524
 30
0.0
 10
10.6852028338
 20
10.6614212389
 30
0.0
 10
10.6860457792
 20
10.661340311
 30
0.0
 10
10.6872442142
 20
10.6612222564
 30
0.0
 10
10.6886848228
 20
10.6610816434
 30
0.0
 10
10.689644755
 20
10.6609877009
 30
0.0
 10
10.6901247802
 20
10.6609407547
 30
0.0
  0
ENDSEC
  0
SECTION
  2
OBJECTS
  0
DICTIONARY
  5
C
100
AcDbDictionary
280
0
281
1
  3
ACAD_GROUP
350
D
  3
ACAD_MLINESTYLE
350
17
  3
ACAD_LAYOUT
350
1A
  3
ACAD_PLOTSETTINGS
350
19
  3
ACAD_PLOTSTYLENAME
350
E
  3
ACAD_IMAGE_DICT
350
       382
  3
ACAD_IMAGE_VARS
350
       383
  3
ACAD_TABLESTYLE
350
       384
  0
IMAGEDEF_REACTOR
  5
381
100
AcDbRasterImageDefReactor
 90
2
330
292
  0
DICTIONARY
  5
D
102
{ACAD_REACTORS
330
C
102
}
100
AcDbDictionary
280
0
281
1
  0
ACDBDICTIONARYWDFLT
  5
E
102
{ACAD_REACTORS
330
C
102
}
100
AcDbDictionary
281
1
  3
Normal
350
F
100
AcDbDictionaryWithDefault
340
F
  0
DICTIONARY
  5
382
330
C
100
AcDbDictionary
281
1
  3
B4W_assy_2_img_1
350
       387
  0
RASTERVARIABLES
  5
383
330
C
100
AcDbRasterVariables
 90
0
 70
0
 71
1
 72
5
  0
DICTIONARY
  5
17
102
{ACAD_REACTORS
330
C
102
}
100
AcDbDictionary
280
0
281
1
  3
Standard
350
18
  0
DICTIONARY
  5
384
330
C
100
AcDbDictionary
281
1
  3
Standard
350
       388
  3
Standard1
350
       389
  0
DICTIONARY
  5
19
102
{ACAD_REACTORS
330
C
102
}
100
AcDbDictionary
281
1
  0
DICTIONARY
  5
1A
102
{ACAD_REACTORS
330
C
102
}
100
AcDbDictionary
281
1
  3
Model
350
385
  3
Layout1
350
386
  0
ACDBPLACEHOLDER
  5
F
102
{ACAD_REACTORS
330
E
102
}
  0
MLINESTYLE
  5
18
102
{ACAD_REACTORS
330
17
102
}
100
AcDbMlineStyle
  2
STANDARD
 70
0
  3

 62
256
 51
90.0
 52
90.0
 71
2
 49
0.5
 62
256
  6
BYLAYER
 49
-0.5
 62
256
  6
BYLAYER
  0
LAYOUT
  5
385
102
{ACAD_REACTORS
330
1A
102
}
100
AcDbPlotSettings
  1

  2
none_device
  4
ANSI_C_(22.00_x_17.00_Inches)
  6

 40
0.0
 41
0.0
 42
0.0
 43
0.0
 44
558.8
 45
431.8
 46
0.0
 47
0.0
 48
0.0
 49
0.0
140
0.0
141
0.0
142
1.0
143
1.0
 70
1024
 72
0
 73
0
 74
0
  7

 75
0
147
1.0
148
0.0
149
0.0
100
AcDbLayout
  1
Model
 70
0
 71
0
 10
0.0
 20
0.0
 11
22.0
 21
17.0
 12
0.0
 22
0.0
 32
0.0
 14
0.0
 24
0.0
 34
0.0
 15
0.0
 25
0.0
 35
0.0
146
0.0
 13
0.0
 23
0.0
 33
0.0
 16
1.0
 26
0.0
 36
0.0
 17
0.0
 27
1.0
 37
0.0
 76
0
330
20C
345
0
346
0
  0
LAYOUT
  5
386
102
{ACAD_REACTORS
330
1A
102
}
100
AcDbPlotSettings
  1

  2
none_device
  4
ANSI_C_(22.00_x_17.00_Inches)
  6

 40
0.0
 41
0.0
 42
0.0
 43
0.0
 44
558.8
 45
431.8
 46
0.0
 47
0.0
 48
0.0
 49
0.0
140
0.0
141
0.0
142
1.0
143
1.0
 70
0
 72
0
 73
0
 74
0
  7

 75
0
147
1.0
148
0.0
149
0.0
100
AcDbLayout
  1
Layout1
 70
0
 71
1
 10
0.0
 20
0.0
 11
22.0
 21
17.0
 12
0.0
 22
0.0
 32
0.0
 14
0.0
 24
0.0
 34
0.0
 15
0.0
 25
0.0
 35
0.0
146
0.0
 13
0.0
 23
0.0
 33
0.0
 16
1.0
 26
0.0
 36
0.0
 17
0.0
 27
1.0
 37
0.0
 76
0
330
20D
345
0
346
0
  0
IMAGEDEF
  5
387
102
{ACAD_REACTORS
330
382
330
381
102
}
100
AcDbRasterImageDef
 90
0
  1
B4W_assy_2_img_1.png
 10
369.0
 20
92.0
 11
0.0066666667
 21
0.0066666667
280
1
281
0
  0
TABLESTYLE
  5
388
102
{ACAD_REACTORS
330
384
330
295
330
296
102
}
330
384
100
AcDbTableStyle
  3
Standard
 70
0
 71
0
 40
0.06
 41
0.06
280
1
281
1
  7
Standard
140
0.18
170
1
 62
0
 63
7
283
0
  7
Standard
140
0.18
170
1
 62
0
 63
7
283
0
  7
Standard
140
0.18
170
1
 62
0
 63
7
283
0
  0
TABLESTYLE
  5
389
102
{ACAD_REACTORS
330
384
330
294
102
}
330
384
100
AcDbTableStyle
  3
Standard1
 70
1
 71
0
 40
0.06
 41
0.06
280
1
281
1
  7
Standard
140
0.18
170
1
 62
0
 63
7
283
0
  7
Standard
140
0.18
170
1
 62
0
 63
7
283
0
  7
Standard
140
0.18
170
1
 62
0
 63
7
283
0
  0
ENDSEC
  0
EOF
