999
DXF file: B4V_assy_2.dxf
999
Pro/ENGINEER 2014200 by Parametric Technology Corporation
  0
SECTION
  2
HEADER
  9
$ACADVER
  1
AC1021
  9
$DWGCODEPAGE
  3
ANSI_1252
  9
$EXTMAX
 10
22.0
 20
17.0
 30
0.0
  9
$EXTMIN
 10
0.0
 20
0.0
 30
0.0
  9
$LIMMIN
 10
0.0
 20
0.0
  9
$LIMMAX
 10
22.0
 20
17.0
  9
$VIEWCTR
 10
11.0
 20
8.5
  9
$VIEWSIZE
 40
17.0
  9
$CLAYER
  8
0
  9
$LTSCALE
 40
1.21
  9
$CELTYPE
  6
BYLAYER
  9
$DIMSCALE
 40
1.0
  9
$DIMASZ
 40
0.1875
  9
$DIMEXO
 40
0.0625
  9
$DIMDLI
 40
0.836
  9
$DIMEXE
 40
0.125
  9
$DIMCEN
 40
0.198
  9
$DIMLFAC
 40
1.0
  9
$DIMBLK
  1
_FILLED
  9
$DIMTXT
 40
0.1
  9
$DIMTOL
 70
0
  9
$DIMLIM
 70
0
  9
$DIMTFAC
 40
1.0
  9
$DIMGAP
 40
0.09
  9
$DIMDSEP
 70
46
  9
$AUNITS
 70
0
  9
$PDMODE
 70
3
  9
$PDSIZE
 40
0.3125
  9
$HANDSEED
  5
3A2
  9
$TILEMODE
 70
1
  9
$MEASUREMENT
 70
0
  9
$INSUNITS
 70
1
  0
ENDSEC
  0
SECTION
  2
CLASSES
  0
CLASS
  1
ACDBDICTIONARYWDFLT
  2
AcDbDictionaryWithDefault
  3
AutoCAD 2000
 90
0
 91
1
280
0
281
0
  0
CLASS
  1
ACDBPLACEHOLDER
  2
AcDbPlaceHolder
  3
AutoCAD 2000
 90
0
 91
1
280
0
281
0
  0
CLASS
  1
LAYOUT
  2
AcDbLayout
  3
AutoCAD 2000
 90
0
 91
0
280
0
281
0
  0
CLASS
  1
RASTERVARIABLES
  2
AcDbRasterVariables
  3
ISM
 90
0
 91
1
280
0
281
0
  0
CLASS
  1
IMAGEDEF
  2
AcDbRasterImageDef
  3
ISM
 90
0
 91
1
280
0
281
0
  0
CLASS
  1
IMAGEDEF_REACTOR
  2
AcDbRasterImageDefReactor
  3
ISM
 90
0
 91
1
280
0
281
0
  0
CLASS
  1
IMAGE
  2
AcDbRasterImage
  3
ISM
 90
127
 91
1
280
0
281
1
  0
CLASS
  1
TABLESTYLE
  2
AcDbTableStyle
  3
ObjectDBX Classes
 90
2047
 91
1
280
0
281
0
  0
CLASS
  1
ACAD_TABLE
  2
AcDbTable
  3
ObjectDBX Classes
 90
1025
 91
3
280
0
281
1
  0
ENDSEC
  0
SECTION
  2
TABLES
  0
TABLE
  2
VPORT
  5
8
100
AcDbSymbolTable
 70
2
  0
VPORT
  5
1F4
100
AcDbSymbolTableRecord
100
AcDbViewportTableRecord
  2
*ACTIVE
 70
0
 10
0.0
 20
0.0
 11
1.0
 21
1.0
 12
11.0
 22
8.5
 13
0.0
 23
0.0
 14
1.0
 24
1.0
 15
0.0
 25
0.0
 16
0.0
 26
0.0
 36
1.0
 17
0.0
 27
0.0
 37
0.0
 40
17.0
 41
1.2941176471
 42
50.0
 43
0.0
 44
0.0
 50
0.0
 51
0.0
 71
0
 72
100
 73
1
 74
1
 75
0
 76
0
 77
0
 78
0
  0
ENDTAB
  0
TABLE
  2
LTYPE
  5
5
100
AcDbSymbolTable
 70
6
  0
LTYPE
  5
14
100
AcDbSymbolTableRecord
100
AcDbLinetypeTableRecord
  2
BYBLOCK
 70
0
  3

 72
65
 73
0
 40
0.0
  0
LTYPE
  5
15
100
AcDbSymbolTableRecord
100
AcDbLinetypeTableRecord
  2
BYLAYER
 70
0
  3

 72
65
 73
0
 40
0.0
  0
LTYPE
  5
16
100
AcDbSymbolTableRecord
100
AcDbLinetypeTableRecord
  2
CONTINUOUS
 70
64
  3
Solid line
 72
65
 73
0
 40
0.0
  0
LTYPE
  5
1F5
100
AcDbSymbolTableRecord
100
AcDbLinetypeTableRecord
  2
CENTER
 70
64
  3
____ _ ____ _ ____ _ ____ _ ____ _ ____ _ ____
 72
65
 73
4
 40
0.6
 49
0.375
 74
0
 49
-0.075
 74
0
 49
0.075
 74
0
 49
-0.075
 74
0
  0
LTYPE
  5
1F6
100
AcDbSymbolTableRecord
100
AcDbLinetypeTableRecord
  2
HIDDEN
 70
64
  3
- - - - - - - - - - - - - - - - - - - -
 72
65
 73
2
 40
0.2
 49
0.1
 74
0
 49
-0.1
 74
0
  0
LTYPE
  5
1F7
100
AcDbSymbolTableRecord
100
AcDbLinetypeTableRecord
  2
PHANTOM
 70
64
  3
_____ _ _ _____ _ _ _____ _ _ _____
 72
65
 73
6
 40
0.8
 49
0.45
 74
0
 49
-0.05
 74
0
 49
0.1
 74
0
 49
-0.05
 74
0
 49
0.1
 74
0
 49
-0.05
 74
0
  0
LTYPE
  5
1F8
100
AcDbSymbolTableRecord
100
AcDbLinetypeTableRecord
  2
DOT
 70
64
  3
. . . . . . . . . . . . . . . . . . . .
 72
65
 73
2
 40
0.2
 49
0.1
 74
0
 49
-0.1
 74
0
  0
LTYPE
  5
1F9
100
AcDbSymbolTableRecord
100
AcDbLinetypeTableRecord
  2
DASHED
 70
64
  3
- - - - - - - - - - - - - - - - - - - -
 72
65
 73
2
 40
0.2
 49
0.1
 74
0
 49
-0.1
 74
0
  0
ENDTAB
  0
TABLE
  2
LAYER
  5
2
100
AcDbSymbolTable
 70
36
  0
LAYER
  5
10
100
AcDbSymbolTableRecord
100
AcDbLayerTableRecord
  2
0
 70
0
 62
7
  6
CONTINUOUS
370
-3
390
F
  0
LAYER
  5
1FA
100
AcDbSymbolTableRecord
100
AcDbLayerTableRecord
  2
DEFAULT_1
 70
0
 62
7
  6
CENTER
370
-3
390
F
  0
LAYER
  5
1FB
100
AcDbSymbolTableRecord
100
AcDbLayerTableRecord
  2
DEFAULT_2
 70
0
 62
8
  6
HIDDEN
370
-3
390
F
  0
LAYER
  5
1FC
100
AcDbSymbolTableRecord
100
AcDbLayerTableRecord
  2
DEFAULT_3
 70
0
 62
7
  6
PHANTOM
370
-3
390
F
  0
LAYER
  5
1FD
100
AcDbSymbolTableRecord
100
AcDbLayerTableRecord
  2
01___PRT_ALL_DTM_PLN
 70
0
 62
7
  6
CONTINUOUS
370
-3
390
F
  0
LAYER
  5
1FE
100
AcDbSymbolTableRecord
100
AcDbLayerTableRecord
  2
01___PRT_DEF_DTM_PLN
 70
0
 62
7
  6
CONTINUOUS
370
-3
390
F
  0
LAYER
  5
1FF
100
AcDbSymbolTableRecord
100
AcDbLayerTableRecord
  2
02___PRT_ALL_AXES
 70
0
 62
7
  6
CONTINUOUS
370
-3
390
F
  0
LAYER
  5
200
100
AcDbSymbolTableRecord
100
AcDbLayerTableRecord
  2
03___PRT_ALL_CURVES
 70
0
 62
7
  6
CONTINUOUS
370
-3
390
F
  0
LAYER
  5
201
100
AcDbSymbolTableRecord
100
AcDbLayerTableRecord
  2
04___PRT_ALL_DTM_PNT
 70
0
 62
7
  6
CONTINUOUS
370
-3
390
F
  0
LAYER
  5
202
100
AcDbSymbolTableRecord
100
AcDbLayerTableRecord
  2
05___PRT_ALL_DTM_CSYS
 70
0
 62
7
  6
CONTINUOUS
370
-3
390
F
  0
LAYER
  5
203
100
AcDbSymbolTableRecord
100
AcDbLayerTableRecord
  2
05___PRT_DEF_DTM_CSYS
 70
0
 62
7
  6
CONTINUOUS
370
-3
390
F
  0
LAYER
  5
204
100
AcDbSymbolTableRecord
100
AcDbLayerTableRecord
  2
06___PRT_ALL_SURFS
 70
0
 62
7
  6
CONTINUOUS
370
-3
390
F
  0
LAYER
  5
205
100
AcDbSymbolTableRecord
100
AcDbLayerTableRecord
  2
DATUM_PLANES
 70
0
 62
7
  6
CONTINUOUS
370
-3
390
F
  0
LAYER
  5
206
100
AcDbSymbolTableRecord
100
AcDbLayerTableRecord
  2
PORT_AREAS
 70
0
 62
7
  6
CONTINUOUS
370
-3
390
F
  0
LAYER
  5
207
100
AcDbSymbolTableRecord
100
AcDbLayerTableRecord
  2
SUNNBOMCOSMETIC
 70
0
 62
7
  6
CONTINUOUS
370
-3
390
F
  0
LAYER
  5
208
100
AcDbSymbolTableRecord
100
AcDbLayerTableRecord
  2
SUNNBOMSTAMPING
 70
0
 62
7
  6
CONTINUOUS
370
-3
390
F
  0
LAYER
  5
209
100
AcDbSymbolTableRecord
100
AcDbLayerTableRecord
  2
THREADS
 70
0
 62
7
  6
CONTINUOUS
370
-3
390
F
  0
ENDTAB
  0
TABLE
  2
STYLE
  5
3
100
AcDbSymbolTable
 70
1
  0
STYLE
  5
11
100
AcDbSymbolTableRecord
100
AcDbTextStyleTableRecord
  2
STANDARD
 70
0
 40
0.0
 41
0.8
 50
0.0
 71
0
 42
0.2
  3
txt
  4

  0
STYLE
  5
20A
100
AcDbSymbolTableRecord
100
AcDbTextStyleTableRecord
  2
TEXTSTYLE_1
 70
0
 40
0.0
 41
0.8
 50
0.0
 71
0
 42
0.2
  3
gdt
  4

  0
ENDTAB
  0
TABLE
  2
VIEW
  5
6
100
AcDbSymbolTable
 70
0
  0
ENDTAB
  0
TABLE
  2
UCS
  5
7
100
AcDbSymbolTable
 70
0
  0
ENDTAB
  0
TABLE
  2
APPID
  5
9
100
AcDbSymbolTable
 70
1
  0
APPID
  5
20B
100
AcDbSymbolTableRecord
100
AcDbRegAppTableRecord
  2
ACAD
 70
0
  0
ENDTAB
  0
TABLE
  2
BLOCK_RECORD
  5
1
100
AcDbSymbolTable
 70
0
  0
BLOCK_RECORD
  5
20C
100
AcDbSymbolTableRecord
100
AcDbBlockTableRecord
  2
*Model_Space
  0
BLOCK_RECORD
  5
20D
100
AcDbSymbolTableRecord
100
AcDbBlockTableRecord
  2
*Paper_Space
  0
BLOCK_RECORD
  5
20E
100
AcDbSymbolTableRecord
100
AcDbBlockTableRecord
  2
SUN_FIRST_THIRD_ANGLE_BL0
  0
BLOCK_RECORD
  5
20F
100
AcDbSymbolTableRecord
100
AcDbBlockTableRecord
  2
*T1
  0
BLOCK_RECORD
  5
210
100
AcDbSymbolTableRecord
100
AcDbBlockTableRecord
  2
*T2
  0
BLOCK_RECORD
  5
211
100
AcDbSymbolTableRecord
100
AcDbBlockTableRecord
  2
*T3
  0
ENDTAB
  0
TABLE
  2
DIMSTYLE
  5
A
100
AcDbSymbolTable
 70
1
100
AcDbDimStyleTable
 71
0
  0
DIMSTYLE
105
212
100
AcDbSymbolTableRecord
100
AcDbDimStyleTableRecord
  2
STANDARD
 70
0
  3

  4

 40
1.0
 41
0.1875
 42
0.0625
 43
0.38
 44
0.125
 45
0.0
 46
0.0
 47
0.001
 48
0.001
140
0.1
141
0.09
142
0.0
143
25.4
144
1.0
145
0.0
146
1.0
147
0.09
 71
0.0
 72
0.0
 73
1
 74
1
 75
0
 76
0
 77
0
 78
4
170
0
171
2
172
0
173
0
174
0
175
0
176
0
177
0
178
0
270
2
271
3
272
3
273
2
274
2
275
0
280
0
281
0
282
0
283
1
284
4
285
0
286
0
287
3
288
0
340
11
278
46
  0
ENDTAB
  0
ENDSEC
  0
SECTION
  2
BLOCKS
  0
BLOCK
  5
20
100
AcDbEntity
  8
0
100
AcDbBlockBegin
  2
*Model_Space
 70
0
 10
0.0
 20
0.0
 30
0.0
  3
*Model_Space
  1

  0
ENDBLK
  5
21
100
AcDbEntity
  8
0
100
AcDbBlockEnd
  0
BLOCK
  5
1C
100
AcDbEntity
  8
0
100
AcDbBlockBegin
  2
*Paper_Space
 70
0
 10
0.0
 20
0.0
 30
0.0
  3
*Paper_Space
  1

  0
ENDBLK
  5
1D
100
AcDbEntity
  8
0
100
AcDbBlockEnd
  0
BLOCK
  5
213
100
AcDbEntity
  8
0
100
AcDbBlockBegin
 62
2
  6
CONTINUOUS
  2
SUN_FIRST_THIRD_ANGLE_BL0
 70
64
 10
20.4816717061
 20
1.2289683772
  3
SUN_FIRST_THIRD_ANGLE_BL0
  1

  0
TEXT
  5
214
100
AcDbEntity
  8
0
100
AcDbText
 62
2
  6
CONTINUOUS
 10
19.4750896608
 20
1.4136269581
  7
STANDARD
 40
0.08
  1
FIRST ANGLE
 41
0.8
 72
0
100
AcDbText
  0
TEXT
  5
215
100
AcDbEntity
  8
0
100
AcDbText
 62
2
  6
CONTINUOUS
 10
20.7842537513
 20
1.4047600029
  7
STANDARD
 40
0.08
  1
THIRD ANGLE
 41
0.8
 72
0
100
AcDbText
  0
LINE
  5
216
100
AcDbEntity
  8
0
100
AcDbLine
 62
7
  6
CONTINUOUS
 10
19.4767170086
 20
1.1727031207
 11
19.6334271527
 21
1.1717972817
  0
LINE
  5
217
100
AcDbEntity
  8
0
100
AcDbLine
 62
7
  6
CONTINUOUS
 10
19.6596964832
 20
1.1717972817
 11
19.6950230232
 21
1.171593082
  0
LINE
  5
218
100
AcDbEntity
  8
0
100
AcDbLine
 62
7
  6
CONTINUOUS
 10
19.7194818561
 20
1.1708914427
 11
19.8852396156
 21
1.1699333054
  0
LINE
  5
219
100
AcDbEntity
  8
0
100
AcDbLine
 62
7
  6
CONTINUOUS
 10
19.4758111696
 20
1.2723454088
 11
19.88525039
 21
1.3511534004
  0
LINE
  5
21A
100
AcDbEntity
  8
0
100
AcDbLine
 62
7
  6
CONTINUOUS
 10
19.88525039
 20
1.3511534004
 11
19.8831348489
 21
0.9851647912
  0
LINE
  5
21B
100
AcDbEntity
  8
0
100
AcDbLine
 62
7
  6
CONTINUOUS
 10
19.8831348489
 20
0.9851647912
 11
19.4767170086
 21
1.0658141206
  0
LINE
  5
21C
100
AcDbEntity
  8
0
100
AcDbLine
 62
7
  6
CONTINUOUS
 10
19.4767170086
 20
1.0658141206
 11
19.4779056764
 21
1.2714536432
  0
CIRCLE
  5
21D
100
AcDbEntity
  8
0
100
AcDbCircle
 62
7
  6
CONTINUOUS
 10
20.2068232291
 20
1.1717972817
 40
0.175742101
  0
CIRCLE
  5
21E
100
AcDbEntity
  8
0
100
AcDbCircle
 62
7
  6
CONTINUOUS
 10
20.2068232291
 20
1.1717972817
 40
0.1005522074
  0
LINE
  5
21F
100
AcDbEntity
  8
0
100
AcDbLine
 62
7
  6
CONTINUOUS
 10
20.2077290681
 20
1.3756110529
 11
20.2071171714
 21
1.2379342989
  0
LINE
  5
220
100
AcDbEntity
  8
0
100
AcDbLine
 62
7
  6
CONTINUOUS
 10
20.2077290681
 20
1.2016899681
 11
20.2074674401
 21
1.1428236749
  0
LINE
  5
221
100
AcDbEntity
  8
0
100
AcDbLine
 62
7
  6
CONTINUOUS
 10
20.208634907
 20
1.101141841
 11
20.2080230104
 21
0.963465087
  0
LINE
  5
222
100
AcDbEntity
  8
0
100
AcDbLine
 62
7
  6
CONTINUOUS
 10
20.0066328138
 20
1.1745147986
 11
20.1443095678
 21
1.1739029019
  0
LINE
  5
223
100
AcDbEntity
  8
0
100
AcDbLine
 62
7
  6
CONTINUOUS
 10
20.1832714155
 20
1.1727031207
 11
20.238153505
 21
1.172335442
  0
LINE
  5
224
100
AcDbEntity
  8
0
100
AcDbLine
 62
7
  6
CONTINUOUS
 10
20.2756669918
 20
1.1717972817
 11
20.407916871
 21
1.1712095044
  0
CIRCLE
  5
225
100
AcDbEntity
  8
0
100
AcDbCircle
 62
7
  6
CONTINUOUS
 10
20.7509457401
 20
1.1693297793
 40
0.1722024983
  0
CIRCLE
  5
226
100
AcDbEntity
  8
0
100
AcDbCircle
 62
7
  6
CONTINUOUS
 10
20.7509457401
 20
1.1693297793
 40
0.0985164967
  0
LINE
  5
227
100
AcDbEntity
  8
0
100
AcDbLine
 62
7
  6
CONTINUOUS
 10
20.7169767782
 20
1.170462078
 11
20.7825395137
 21
1.1682766535
  0
LINE
  5
228
100
AcDbEntity
  8
0
100
AcDbLine
 62
7
  6
CONTINUOUS
 10
20.8177513651
 20
1.1693297793
 11
20.947965719
 21
1.1693297793
  0
LINE
  5
229
100
AcDbEntity
  8
0
100
AcDbLine
 62
7
  6
CONTINUOUS
 10
20.6875370113
 20
1.170462078
 11
20.5573226574
 21
1.170462078
  0
LINE
  5
22A
100
AcDbEntity
  8
0
100
AcDbLine
 62
7
  6
CONTINUOUS
 10
20.7486811426
 20
1.1987695462
 11
20.7486811426
 21
1.1432869085
  0
LINE
  5
22B
100
AcDbEntity
  8
0
100
AcDbLine
 62
7
  6
CONTINUOUS
 10
20.7498134414
 20
1.1059210505
 11
20.7498134414
 21
0.9757066966
  0
LINE
  5
22C
100
AcDbEntity
  8
0
100
AcDbLine
 62
7
  6
CONTINUOUS
 10
20.7486811426
 20
1.2338708068
 11
20.7486811426
 21
1.3640851607
  0
LINE
  5
22D
100
AcDbEntity
  8
0
100
AcDbLine
 62
7
  6
CONTINUOUS
 10
21.0702539817
 20
1.2701043662
 11
21.4790138229
 21
1.3448360823
  0
LINE
  5
22E
100
AcDbEntity
  8
0
100
AcDbLine
 62
7
  6
CONTINUOUS
 10
21.4790138229
 20
1.3448360823
 11
21.4790138229
 21
0.9779712941
  0
LINE
  5
22F
100
AcDbEntity
  8
0
100
AcDbLine
 62
7
  6
CONTINUOUS
 10
21.4790138229
 20
0.9779712941
 11
21.069121683
 21
1.0617614
  0
LINE
  5
230
100
AcDbEntity
  8
0
100
AcDbLine
 62
7
  6
CONTINUOUS
 10
21.0702539817
 20
1.2701043662
 11
21.069121683
 21
1.0617614
  0
LINE
  5
231
100
AcDbEntity
  8
0
100
AcDbLine
 62
7
  6
CONTINUOUS
 10
21.4790138229
 20
1.1693297793
 11
21.3159628059
 21
1.1693297793
  0
LINE
  5
232
100
AcDbEntity
  8
0
100
AcDbLine
 62
7
  6
CONTINUOUS
 10
21.2876553377
 20
1.1693297793
 11
21.2502894796
 21
1.1693297793
  0
LINE
  5
233
100
AcDbEntity
  8
0
100
AcDbLine
 62
7
  6
CONTINUOUS
 10
21.2208497126
 20
1.1659328831
 11
21.0713862804
 21
1.1659328831
  0
LINE
  5
234
100
AcDbEntity
  8
0
100
AcDbLine
 62
7
  6
CONTINUOUS
 10
20.4796138713
 20
1.5284908897
 11
20.4766766948
 21
0.9294458646
  0
ENDBLK
  5
235
100
AcDbEntity
  8
0
  6
BYBLOCK
 62
0
100
AcDbBlockEnd
  0
BLOCK
  5
236
100
AcDbEntity
  8
0
100
AcDbBlockBegin
  2
*T1
 70
1
 10
0.0
 20
0.0
  3
*T1
  1

  0
LINE
  5
237
100
AcDbEntity
  8
0
100
AcDbLine
 62
2
  6
CONTINUOUS
 10
9.275
 20
0.0
 11
-0.0
 21
0.0
  0
LINE
  5
238
100
AcDbEntity
  8
0
100
AcDbLine
 62
2
  6
CONTINUOUS
 10
9.275
 20
0.0
 11
9.275
 21
1.25
  0
LINE
  5
239
100
AcDbEntity
  8
0
100
AcDbLine
 62
2
  6
CONTINUOUS
 10
9.275
 20
0.625
 11
-0.0
 21
0.625
  0
LINE
  5
23A
100
AcDbEntity
  8
0
100
AcDbLine
 62
2
  6
CONTINUOUS
 10
9.275
 20
1.25
 11
-0.0
 21
1.25
  0
LINE
  5
23B
100
AcDbEntity
  8
0
100
AcDbLine
 62
2
  6
CONTINUOUS
 10
6.8
 20
0.0
 11
6.8
 21
1.25
  0
LINE
  5
23C
100
AcDbEntity
  8
0
100
AcDbLine
 62
2
  6
CONTINUOUS
 10
6.4
 20
0.0
 11
6.4
 21
0.625
  0
LINE
  5
23D
100
AcDbEntity
  8
0
100
AcDbLine
 62
2
  6
CONTINUOUS
 10
5.9
 20
0.0
 11
5.9
 21
0.625
  0
LINE
  5
23E
100
AcDbEntity
  8
0
100
AcDbLine
 62
2
  6
CONTINUOUS
 10
5.2
 20
0.0
 11
5.2
 21
0.625
  0
LINE
  5
23F
100
AcDbEntity
  8
0
100
AcDbLine
 62
2
  6
CONTINUOUS
 10
4.1
 20
0.0
 11
4.1
 21
1.25
  0
LINE
  5
240
100
AcDbEntity
  8
0
100
AcDbLine
 62
2
  6
CONTINUOUS
 10
-0.0
 20
0.0
 11
-0.0
 21
1.25
  0
MTEXT
  5
241
100
AcDbEntity
  8
0
100
AcDbMText
 62
2
  6
CONTINUOUS
  7
STANDARD
 71
2
 72
1
 10
6.6
 20
0.325
 30
0.0
 11
1.0
 21
0.0
 31
0.0
 44
0.9
  1
2
 40
0.125
 41
0.2
  0
MTEXT
  5
242
100
AcDbEntity
  8
0
100
AcDbMText
 62
2
  6
CONTINUOUS
  7
STANDARD
 71
2
 72
1
 10
6.15
 20
0.325
 30
0.0
 11
1.0
 21
0.0
 31
0.0
 44
0.9
  1
C
 40
0.125
 41
0.2
  0
MTEXT
  5
243
100
AcDbEntity
  8
0
100
AcDbMText
 62
2
  6
CONTINUOUS
  7
STANDARD
 71
2
 72
1
 10
5.55
 20
0.325
 30
0.0
 11
1.0
 21
0.0
 31
0.0
 44
0.9
  1
1.000
 40
0.125
 41
1.0
  0
MTEXT
  5
244
100
AcDbEntity
  8
0
100
AcDbMText
 62
2
  6
CONTINUOUS
  7
STANDARD
 71
2
 72
1
 10
4.65
 20
0.325
 30
0.0
 11
1.0
 21
0.0
 31
0.0
 44
0.9
  1
Jun-30-21
 40
0.125
 41
1.8
  0
MTEXT
  5
245
100
AcDbEntity
  8
0
100
AcDbMText
 62
2
  6
CONTINUOUS
  7
STANDARD
 71
2
 72
1
 10
2.05
 20
0.4625
 30
0.0
 11
1.0
 21
0.0
 31
0.0
 44
0.9
  1
T-2A Line mount\P(See Technical Data for Body Features)
 40
0.125
 41
7.6
  0
MTEXT
  5
246
100
AcDbEntity
  8
0
100
AcDbMText
 62
2
  6
CONTINUOUS
  7
STANDARD
 71
1
 72
1
 10
6.45
 20
0.5625
 30
0.0
 11
1.0
 21
0.0
 31
0.0
 44
0.9
  1
SHEET
 40
0.06
 41
0.48
  0
MTEXT
  5
247
100
AcDbEntity
  8
0
100
AcDbMText
 62
2
  6
CONTINUOUS
  7
STANDARD
 71
1
 72
1
 10
5.95
 20
0.5625
 30
0.0
 11
1.0
 21
0.0
 31
0.0
 44
0.9
  1
DWG SIZE
 40
0.06
 41
0.768
  0
MTEXT
  5
248
100
AcDbEntity
  8
0
100
AcDbMText
 62
2
  6
CONTINUOUS
  7
STANDARD
 71
1
 72
1
 10
5.25
 20
0.5625
 30
0.0
 11
1.0
 21
0.0
 31
0.0
 44
0.9
  1
SCALE
 40
0.06
 41
0.48
  0
MTEXT
  5
249
100
AcDbEntity
  8
0
100
AcDbMText
 62
2
  6
CONTINUOUS
  7
STANDARD
 71
1
 72
1
 10
4.15
 20
0.5625
 30
0.0
 11
1.0
 21
0.0
 31
0.0
 44
0.9
  1
DATE
 40
0.06
 41
0.384
  0
MTEXT
  5
24A
100
AcDbEntity
  8
0
100
AcDbMText
 62
2
  6
CONTINUOUS
  7
STANDARD
 71
1
 72
1
 10
0.05
 20
0.5625
 30
0.0
 11
1.0
 21
0.0
 31
0.0
 44
0.9
  1
DESCRIPTION
 40
0.06
 41
1.056
  0
MTEXT
  5
24B
100
AcDbEntity
  8
0
100
AcDbMText
 62
2
  6
CONTINUOUS
  7
STANDARD
 71
2
 72
1
 10
5.45
 20
1.0375
 30
0.0
 11
1.0
 21
0.0
 31
0.0
 44
0.9
  1
ALL DIMENSIONS IN INCH\PVIEWS ARE THIRD ANGLE
 40
0.12
 41
4.224
  0
MTEXT
  5
24C
100
AcDbEntity
  8
0
100
AcDbMText
 62
2
  6
CONTINUOUS
  7
STANDARD
 71
2
 72
1
 10
2.05
 20
0.95
 30
0.0
 11
1.0
 21
0.0
 31
0.0
 44
0.9
  1
B4V
 40
0.125
 41
0.6
  0
MTEXT
  5
24D
100
AcDbEntity
  8
0
100
AcDbMText
 62
2
  6
CONTINUOUS
  7
STANDARD
 71
1
 72
1
 10
0.05
 20
1.1875
 30
0.0
 11
1.0
 21
0.0
 31
0.0
 44
0.9
  1
MODEL
 40
0.06
 41
0.48
  0
ENDBLK
  5
24E
100
AcDbEntity
  8
0
  6
BYBLOCK
 62
0
100
AcDbBlockEnd
  0
BLOCK
  5
24F
100
AcDbEntity
  8
0
100
AcDbBlockBegin
  2
*T2
 70
1
 10
0.0
 20
0.0
  3
*T2
  1

  0
LINE
  5
250
100
AcDbEntity
  8
0
100
AcDbLine
 62
2
  6
CONTINUOUS
 10
0.0
 20
0.0
 11
9.055
 21
0.0
  0
LINE
  5
251
100
AcDbEntity
  8
0
100
AcDbLine
 62
2
  6
CONTINUOUS
 10
0.0
 20
0.0
 11
0.0
 21
-2.844
  0
LINE
  5
252
100
AcDbEntity
  8
0
100
AcDbLine
 62
2
  6
CONTINUOUS
 10
0.0
 20
-0.344
 11
9.055
 21
-0.344
  0
LINE
  5
253
100
AcDbEntity
  8
0
100
AcDbLine
 62
2
  6
CONTINUOUS
 10
0.0
 20
-0.594
 11
9.055
 21
-0.594
  0
LINE
  5
254
100
AcDbEntity
  8
0
100
AcDbLine
 62
2
  6
CONTINUOUS
 10
0.0
 20
-0.844
 11
9.055
 21
-0.844
  0
LINE
  5
255
100
AcDbEntity
  8
0
100
AcDbLine
 62
2
  6
CONTINUOUS
 10
0.0
 20
-1.094
 11
9.055
 21
-1.094
  0
LINE
  5
256
100
AcDbEntity
  8
0
100
AcDbLine
 62
2
  6
CONTINUOUS
 10
0.0
 20
-1.344
 11
9.055
 21
-1.344
  0
LINE
  5
257
100
AcDbEntity
  8
0
100
AcDbLine
 62
2
  6
CONTINUOUS
 10
0.0
 20
-1.594
 11
9.055
 21
-1.594
  0
LINE
  5
258
100
AcDbEntity
  8
0
100
AcDbLine
 62
2
  6
CONTINUOUS
 10
0.0
 20
-1.844
 11
9.055
 21
-1.844
  0
LINE
  5
259
100
AcDbEntity
  8
0
100
AcDbLine
 62
2
  6
CONTINUOUS
 10
0.0
 20
-2.094
 11
9.055
 21
-2.094
  0
LINE
  5
25A
100
AcDbEntity
  8
0
100
AcDbLine
 62
2
  6
CONTINUOUS
 10
0.0
 20
-2.344
 11
9.055
 21
-2.344
  0
LINE
  5
25B
100
AcDbEntity
  8
0
100
AcDbLine
 62
2
  6
CONTINUOUS
 10
0.0
 20
-2.594
 11
9.055
 21
-2.594
  0
LINE
  5
25C
100
AcDbEntity
  8
0
100
AcDbLine
 62
2
  6
CONTINUOUS
 10
0.0
 20
-2.844
 11
9.055
 21
-2.844
  0
LINE
  5
25D
100
AcDbEntity
  8
0
100
AcDbLine
 62
2
  6
CONTINUOUS
 10
3.055
 20
0.0
 11
3.055
 21
-2.844
  0
LINE
  5
25E
100
AcDbEntity
  8
0
100
AcDbLine
 62
2
  6
CONTINUOUS
 10
9.055
 20
0.0
 11
9.055
 21
-2.844
  0
MTEXT
  5
25F
100
AcDbEntity
  8
0
100
AcDbMText
 62
2
  6
CONTINUOUS
  7
STANDARD
 71
2
 72
1
 10
1.5275
 20
-0.0995
 30
0.0
 11
1.0
 21
0.0
 31
0.0
 44
0.9
  1
Technical Data
 40
0.145
 41
3.248
  0
MTEXT
  5
260
100
AcDbEntity
  8
0
100
AcDbMText
 62
2
  6
CONTINUOUS
  7
STANDARD
 71
2
 72
1
 10
4.555
 20
-0.0995
 30
0.0
 11
1.0
 21
0.0
 31
0.0
 44
0.9
  1
U.S. Units
 40
0.145
 41
2.32
  0
MTEXT
  5
261
100
AcDbEntity
  8
0
100
AcDbMText
 62
2
  6
CONTINUOUS
  7
STANDARD
 71
2
 72
1
 10
7.555
 20
-0.0995
 30
0.0
 11
1.0
 21
0.0
 31
0.0
 44
0.9
  1
Metric Units
 40
0.145
 41
2.784
  0
MTEXT
  5
262
100
AcDbEntity
  8
0
100
AcDbMText
 62
2
  6
CONTINUOUS
  7
STANDARD
 71
2
 72
1
 10
1.5275
 20
-0.4065
 30
0.0
 11
1.0
 21
0.0
 31
0.0
 44
0.9
  1
Cavity
 40
0.125
 41
1.2
  0
MTEXT
  5
263
100
AcDbEntity
  8
0
100
AcDbMText
 62
2
  6
CONTINUOUS
  7
STANDARD
 71
2
 72
1
 10
6.055
 20
-0.4065
 30
0.0
 11
1.0
 21
0.0
 31
0.0
 44
0.9
  1
T-2A
 40
0.125
 41
0.8
  0
MTEXT
  5
264
100
AcDbEntity
  8
0
100
AcDbMText
 62
2
  6
CONTINUOUS
  7
STANDARD
 71
2
 72
1
 10
1.5275
 20
-0.6565
 30
0.0
 11
1.0
 21
0.0
 31
0.0
 44
0.9
  1
Body Features
 40
0.125
 41
2.6
  0
MTEXT
  5
265
100
AcDbEntity
  8
0
100
AcDbMText
 62
2
  6
CONTINUOUS
  7
STANDARD
 71
2
 72
1
 10
6.055
 20
-0.6565
 30
0.0
 11
1.0
 21
0.0
 31
0.0
 44
0.9
  1
Ninety degree with reverse flow check - reducing
 40
0.125
 41
9.6
  0
MTEXT
  5
266
100
AcDbEntity
  8
0
100
AcDbMText
 62
2
  6
CONTINUOUS
  7
STANDARD
 71
2
 72
1
 10
1.5275
 20
-0.9065
 30
0.0
 11
1.0
 21
0.0
 31
0.0
 44
0.9
  1
Body Type
 40
0.125
 41
1.8
  0
MTEXT
  5
267
100
AcDbEntity
  8
0
100
AcDbMText
 62
2
  6
CONTINUOUS
  7
STANDARD
 71
2
 72
1
 10
6.055
 20
-0.9065
 30
0.0
 11
1.0
 21
0.0
 31
0.0
 44
0.9
  1
Line mount
 40
0.125
 41
2.0
  0
MTEXT
  5
268
100
AcDbEntity
  8
0
100
AcDbMText
 62
2
  6
CONTINUOUS
  7
STANDARD
 71
2
 72
1
 10
1.5275
 20
-1.1565
 30
0.0
 11
1.0
 21
0.0
 31
0.0
 44
0.9
  1
Interface
 40
0.125
 41
1.8
  0
MTEXT
  5
269
100
AcDbEntity
  8
0
100
AcDbMText
 62
2
  6
CONTINUOUS
  7
STANDARD
 71
2
 72
1
 10
6.055
 20
-1.1565
 30
0.0
 11
1.0
 21
0.0
 31
0.0
 44
0.9
  1
None
 40
0.125
 41
0.8
  0
MTEXT
  5
26A
100
AcDbEntity
  8
0
100
AcDbMText
 62
2
  6
CONTINUOUS
  7
STANDARD
 71
2
 72
1
 10
1.5275
 20
-1.4065
 30
0.0
 11
1.0
 21
0.0
 31
0.0
 44
0.9
  1
Open Cavity Quantity
 40
0.125
 41
4.0
  0
MTEXT
  5
26B
100
AcDbEntity
  8
0
100
AcDbMText
 62
2
  6
CONTINUOUS
  7
STANDARD
 71
2
 72
1
 10
6.055
 20
-1.4065
 30
0.0
 11
1.0
 21
0.0
 31
0.0
 44
0.9
  1
1
 40
0.125
 41
0.2
  0
MTEXT
  5
26C
100
AcDbEntity
  8
0
100
AcDbMText
 62
2
  6
CONTINUOUS
  7
STANDARD
 71
2
 72
1
 10
1.5275
 20
-1.6565
 30
0.0
 11
1.0
 21
0.0
 31
0.0
 44
0.9
  1
Weight
 40
0.125
 41
1.2
  0
MTEXT
  5
26D
100
AcDbEntity
  8
0
100
AcDbMText
 62
2
  6
CONTINUOUS
  7
STANDARD
 71
2
 72
1
 10
4.555
 20
-1.6565
 30
0.0
 11
1.0
 21
0.0
 31
0.0
 44
0.9
  1
1.932 lb.
 40
0.125
 41
1.8
  0
MTEXT
  5
26E
100
AcDbEntity
  8
0
100
AcDbMText
 62
2
  6
CONTINUOUS
  7
STANDARD
 71
2
 72
1
 10
7.555
 20
-1.6565
 30
0.0
 11
1.0
 21
0.0
 31
0.0
 44
0.9
  1
0,876 kg.
 40
0.125
 41
1.8
  0
MTEXT
  5
26F
100
AcDbEntity
  8
0
100
AcDbMText
 62
2
  6
CONTINUOUS
  7
STANDARD
 71
2
 72
1
 10
1.5275
 20
-1.9065
 30
0.0
 11
1.0
 21
0.0
 31
0.0
 44
0.9
  1
Mounting Hole Diameter
 40
0.125
 41
4.4
  0
MTEXT
  5
270
100
AcDbEntity
  8
0
100
AcDbMText
 62
2
  6
CONTINUOUS
  7
STANDARD
 71
2
 72
1
 10
4.555
 20
-1.9065
 30
0.0
 11
1.0
 21
0.0
 31
0.0
 44
0.9
  1
.42 in.
 40
0.125
 41
1.4
  0
MTEXT
  5
271
100
AcDbEntity
  8
0
100
AcDbMText
 62
2
  6
CONTINUOUS
  7
STANDARD
 71
2
 72
1
 10
7.555
 20
-1.9065
 30
0.0
 11
1.0
 21
0.0
 31
0.0
 44
0.9
  1
10,7 mm
 40
0.125
 41
1.4
  0
MTEXT
  5
272
100
AcDbEntity
  8
0
100
AcDbMText
 62
2
  6
CONTINUOUS
  7
STANDARD
 71
2
 72
1
 10
1.5275
 20
-2.1565
 30
0.0
 11
1.0
 21
0.0
 31
0.0
 44
0.9
  1
Mounting Hole Depth
 40
0.125
 41
3.8
  0
MTEXT
  5
273
100
AcDbEntity
  8
0
100
AcDbMText
 62
2
  6
CONTINUOUS
  7
STANDARD
 71
2
 72
1
 10
6.055
 20
-2.1565
 30
0.0
 11
1.0
 21
0.0
 31
0.0
 44
0.9
  1
Through
 40
0.125
 41
1.4
  0
MTEXT
  5
274
100
AcDbEntity
  8
0
100
AcDbMText
 62
2
  6
CONTINUOUS
  7
STANDARD
 71
2
 72
1
 10
1.5275
 20
-2.4065
 30
0.0
 11
1.0
 21
0.0
 31
0.0
 44
0.9
  1
Mounting Hole Quantity
 40
0.125
 41
4.4
  0
MTEXT
  5
275
100
AcDbEntity
  8
0
100
AcDbMText
 62
2
  6
CONTINUOUS
  7
STANDARD
 71
2
 72
1
 10
6.055
 20
-2.4065
 30
0.0
 11
1.0
 21
0.0
 31
0.0
 44
0.9
  1
2
 40
0.125
 41
0.2
  0
MTEXT
  5
276
100
AcDbEntity
  8
0
100
AcDbMText
 62
2
  6
CONTINUOUS
  7
STANDARD
 71
2
 72
1
 10
1.5275
 20
-2.6565
 30
0.0
 11
1.0
 21
0.0
 31
0.0
 44
0.9
  1
Includes integral cartridge(s)
 40
0.125
 41
6.0
  0
MTEXT
  5
277
100
AcDbEntity
  8
0
100
AcDbMText
 62
2
  6
CONTINUOUS
  7
STANDARD
 71
2
 72
1
 10
6.055
 20
-2.6565
 30
0.0
 11
1.0
 21
0.0
 31
0.0
 44
0.9
  1
Yes (see Included Components)
 40
0.125
 41
5.8
  0
ENDBLK
  5
278
100
AcDbEntity
  8
0
  6
BYBLOCK
 62
0
100
AcDbBlockEnd
  0
BLOCK
  5
279
100
AcDbEntity
  8
0
100
AcDbBlockBegin
  2
*T3
 70
1
 10
0.0
 20
0.0
  3
*T3
  1

  0
LINE
  5
27A
100
AcDbEntity
  8
0
100
AcDbLine
 62
2
  6
CONTINUOUS
 10
0.0
 20
0.0
 11
4.6
 21
0.0
  0
LINE
  5
27B
100
AcDbEntity
  8
0
100
AcDbLine
 62
2
  6
CONTINUOUS
 10
0.0
 20
0.0
 11
0.0
 21
-1.43775
  0
LINE
  5
27C
100
AcDbEntity
  8
0
100
AcDbLine
 62
2
  6
CONTINUOUS
 10
0.0
 20
-0.34375
 11
4.6
 21
-0.34375
  0
LINE
  5
27D
100
AcDbEntity
  8
0
100
AcDbLine
 62
2
  6
CONTINUOUS
 10
0.0
 20
-0.68775
 11
4.6
 21
-0.68775
  0
LINE
  5
27E
100
AcDbEntity
  8
0
100
AcDbLine
 62
2
  6
CONTINUOUS
 10
0.0
 20
-0.93775
 11
4.6
 21
-0.93775
  0
LINE
  5
27F
100
AcDbEntity
  8
0
100
AcDbLine
 62
2
  6
CONTINUOUS
 10
0.0
 20
-1.18775
 11
4.6
 21
-1.18775
  0
LINE
  5
280
100
AcDbEntity
  8
0
100
AcDbLine
 62
2
  6
CONTINUOUS
 10
0.0
 20
-1.43775
 11
4.6
 21
-1.43775
  0
LINE
  5
281
100
AcDbEntity
  8
0
100
AcDbLine
 62
2
  6
CONTINUOUS
 10
1.3
 20
-0.34375
 11
1.3
 21
-1.43775
  0
LINE
  5
282
100
AcDbEntity
  8
0
100
AcDbLine
 62
2
  6
CONTINUOUS
 10
3.3
 20
-0.34375
 11
3.3
 21
-1.43775
  0
LINE
  5
283
100
AcDbEntity
  8
0
100
AcDbLine
 62
2
  6
CONTINUOUS
 10
4.6
 20
0.0
 11
4.6
 21
-1.43775
  0
MTEXT
  5
284
100
AcDbEntity
  8
0
100
AcDbMText
 62
2
  6
CONTINUOUS
  7
STANDARD
 71
2
 72
1
 10
2.3
 20
-0.099375
 30
0.0
 11
1.0
 21
0.0
 31
0.0
 44
0.9
  1
Port Headings
 40
0.145
 41
3.016
  0
MTEXT
  5
285
100
AcDbEntity
  8
0
100
AcDbMText
 62
2
  6
CONTINUOUS
  7
STANDARD
 71
2
 72
1
 10
0.65
 20
-0.44325
 30
0.0
 11
1.0
 21
0.0
 31
0.0
 44
0.9
  1
Product
 40
0.145
 41
1.624
  0
MTEXT
  5
286
100
AcDbEntity
  8
0
100
AcDbMText
 62
2
  6
CONTINUOUS
  7
STANDARD
 71
2
 72
1
 10
2.3
 20
-0.44325
 30
0.0
 11
1.0
 21
0.0
 31
0.0
 44
0.9
  1
Port
 40
0.145
 41
0.928
  0
MTEXT
  5
287
100
AcDbEntity
  8
0
100
AcDbMText
 62
2
  6
CONTINUOUS
  7
STANDARD
 71
2
 72
1
 10
3.95
 20
-0.44325
 30
0.0
 11
1.0
 21
0.0
 31
0.0
 44
0.9
  1
Size
 40
0.145
 41
0.928
  0
MTEXT
  5
288
100
AcDbEntity
  8
0
100
AcDbMText
 62
2
  6
CONTINUOUS
  7
STANDARD
 71
2
 72
1
 10
0.65
 20
-0.75025
 30
0.0
 11
1.0
 21
0.0
 31
0.0
 44
0.9
  1
B4V
 40
0.125
 41
0.6
  0
MTEXT
  5
289
100
AcDbEntity
  8
0
100
AcDbMText
 62
2
  6
CONTINUOUS
  7
STANDARD
 71
2
 72
1
 10
2.3
 20
-0.75025
 30
0.0
 11
1.0
 21
0.0
 31
0.0
 44
0.9
  1
Ports 1 &  2
 40
0.125
 41
2.4
  0
MTEXT
  5
28A
100
AcDbEntity
  8
0
100
AcDbMText
 62
2
  6
CONTINUOUS
  7
STANDARD
 71
2
 72
1
 10
3.95
 20
-0.75025
 30
0.0
 11
1.0
 21
0.0
 31
0.0
 44
0.9
  1
1/2" BSPP
 40
0.125
 41
1.8
  0
MTEXT
  5
28B
100
AcDbEntity
  8
0
100
AcDbMText
 62
2
  6
CONTINUOUS
  7
STANDARD
 71
2
 72
1
 10
0.65
 20
-1.00025
 30
0.0
 11
1.0
 21
0.0
 31
0.0
 44
0.9
  1
B4V
 40
0.125
 41
0.6
  0
MTEXT
  5
28C
100
AcDbEntity
  8
0
100
AcDbMText
 62
2
  6
CONTINUOUS
  7
STANDARD
 71
2
 72
1
 10
2.3
 20
-1.00025
 30
0.0
 11
1.0
 21
0.0
 31
0.0
 44
0.9
  1
Port 3
 40
0.125
 41
1.2
  0
MTEXT
  5
28D
100
AcDbEntity
  8
0
100
AcDbMText
 62
2
  6
CONTINUOUS
  7
STANDARD
 71
2
 72
1
 10
3.95
 20
-1.00025
 30
0.0
 11
1.0
 21
0.0
 31
0.0
 44
0.9
  1
1/2" BSPP
 40
0.125
 41
1.8
  0
MTEXT
  5
28E
100
AcDbEntity
  8
0
100
AcDbMText
 62
2
  6
CONTINUOUS
  7
STANDARD
 71
2
 72
1
 10
0.65
 20
-1.25025
 30
0.0
 11
1.0
 21
0.0
 31
0.0
 44
0.9
  1
B4V
 40
0.125
 41
0.6
  0
MTEXT
  5
28F
100
AcDbEntity
  8
0
100
AcDbMText
 62
2
  6
CONTINUOUS
  7
STANDARD
 71
2
 72
1
 10
2.3
 20
-1.25025
 30
0.0
 11
1.0
 21
0.0
 31
0.0
 44
0.9
  1
Gage Port
 40
0.125
 41
1.8
  0
MTEXT
  5
290
100
AcDbEntity
  8
0
100
AcDbMText
 62
2
  6
CONTINUOUS
  7
STANDARD
 71
2
 72
1
 10
3.95
 20
-1.25025
 30
0.0
 11
1.0
 21
0.0
 31
0.0
 44
0.9
  1
1/4" BSPP
 40
0.125
 41
1.8
  0
ENDBLK
  5
291
100
AcDbEntity
  8
0
  6
BYBLOCK
 62
0
100
AcDbBlockEnd
  0
ENDSEC
  0
SECTION
  2
ENTITIES
  0
IMAGE
  5
292
100
AcDbEntity
  8
0
100
AcDbRasterImage
 62
7
  6
CONTINUOUS
 10
19.2297077316
 20
0.3094318264
 30
0.0
 11
0.0066666667
 21
0.0
 31
0.0
 12
0.0
 22
0.0066666667
 32
0.0
 13
369.0
 23
92.0
340
       39F
 70
9
280
0
281
50
282
50
283
0
360
       399
 71
1
 91
2
 14
-0.5
 24
-0.5
 14
368.5
 24
91.5
  0
INSERT
  5
293
100
AcDbEntity
  8
0
100
AcDbBlockReference
 62
2
  6
CONTINUOUS
  2
SUN_FIRST_THIRD_ANGLE_BL0
 10
20.4816717061
 20
1.2289683772
  0
ACAD_TABLE
  5
294
100
AcDbEntity
  8
0
 62
2
  6
CONTINUOUS
100
AcDbBlockReference
  2
*T1
 10
12.42375
 20
0.30125
 30
0.0
100
AcDbTable
342
       3A1
343
20F
 11
1.0
 21
0.0
 31
0.0
 90
6
 91
4
 92
6
 93
20
 94
0
 95
0
 96
0
 70
1
 41
0.0
141
0.525
141
0.1
141
0.525
141
0.1
142
4.1
142
1.1
142
0.7
142
0.5
142
0.4
142
2.475
171
1
172
0
173
0
174
0
175
1
176
1
 91
33
178
0
145
0.0
301
CELL_VALUE
 90
4
  1
T-2A Line mount\P(See Technical Data for Body Features)
304
ACVALUE_END
170
2
140
0.125
171
1
172
0
173
0
174
0
175
1
176
1
 91
33
178
0
145
0.0
301
CELL_VALUE
 90
4
  1
Jun-30-21
304
ACVALUE_END
170
5
140
0.125
171
1
172
0
173
0
174
0
175
1
176
1
 91
33
178
0
145
0.0
301
CELL_VALUE
 90
4
  1
1.000
304
ACVALUE_END
170
5
140
0.125
171
1
172
0
173
0
174
0
175
1
176
1
 91
33
178
0
145
0.0
301
CELL_VALUE
 90
4
  1
C
304
ACVALUE_END
170
5
140
0.125
171
1
172
0
173
0
174
0
175
1
176
1
 91
33
178
0
145
0.0
301
CELL_VALUE
 90
4
  1
2
304
ACVALUE_END
170
5
140
0.125
171
1
172
0
173
0
174
0
175
1
176
1
 91
33
178
0
145
0.0
301
CELL_VALUE
 90
4
  1
 
304
ACVALUE_END
170
1
140
0.125
171
1
172
0
173
0
174
0
175
1
176
1
 91
33
178
0
145
0.0
301
CELL_VALUE
 90
4
  1
DESCRIPTION
304
ACVALUE_END
170
1
140
0.06
171
1
172
0
173
0
174
0
175
1
176
1
 91
33
178
0
145
0.0
301
CELL_VALUE
 90
4
  1
DATE
304
ACVALUE_END
170
1
140
0.06
171
1
172
0
173
0
174
0
175
1
176
1
 91
33
178
0
145
0.0
301
CELL_VALUE
 90
4
  1
SCALE
304
ACVALUE_END
170
1
140
0.06
171
1
172
0
173
0
174
0
175
1
176
1
 91
33
178
0
145
0.0
301
CELL_VALUE
 90
4
  1
DWG SIZE
304
ACVALUE_END
170
1
140
0.06
171
1
172
0
173
0
174
0
175
1
176
1
 91
33
178
0
145
0.0
301
CELL_VALUE
 90
4
  1
SHEET
304
ACVALUE_END
170
1
140
0.06
171
1
172
0
173
0
174
0
175
1
176
1
 91
33
178
0
145
0.0
301
CELL_VALUE
 90
4
  1
 
304
ACVALUE_END
170
1
140
0.125
171
1
172
0
173
0
174
0
175
1
176
1
 91
33
178
0
145
0.0
301
CELL_VALUE
 90
4
  1
B4V
304
ACVALUE_END
170
5
140
0.125
171
1
172
0
173
0
174
0
175
4
176
1
 91
33
178
0
145
0.0
301
CELL_VALUE
 90
4
  1
ALL DIMENSIONS IN INCH\PVIEWS ARE THIRD ANGLE
304
ACVALUE_END
170
5
140
0.12
171
1
172
0
173
1
174
0
175
1
176
1
 91
1
178
0
145
0.0
170
1
171
1
172
0
173
1
174
0
175
1
176
1
 91
1
178
0
145
0.0
170
1
171
1
172
0
173
1
174
0
175
1
176
1
 91
1
178
0
145
0.0
170
5
171
1
172
0
173
0
174
0
175
1
176
1
 91
33
178
0
145
0.0
301
CELL_VALUE
 90
4
  1
 
304
ACVALUE_END
170
1
140
0.125
171
1
172
0
173
0
174
0
175
1
176
1
 91
33
178
0
145
0.0
301
CELL_VALUE
 90
4
  1
MODEL
304
ACVALUE_END
170
1
140
0.06
171
1
172
0
173
0
174
0
175
1
176
1
 91
33
178
0
145
0.0
301
CELL_VALUE
 90
4
  1
 
304
ACVALUE_END
170
1
140
0.125
171
1
172
0
173
0
174
0
175
1
176
1
 91
33
178
0
145
0.0
301
CELL_VALUE
 90
4
  1
 
304
ACVALUE_END
170
1
140
0.125
171
1
172
0
173
0
174
0
175
1
176
1
 91
33
178
0
145
0.0
301
CELL_VALUE
 90
4
  1
 
304
ACVALUE_END
170
1
140
0.125
171
1
172
0
173
0
174
0
175
1
176
1
 91
33
178
0
145
0.0
301
CELL_VALUE
 90
4
  1
 
304
ACVALUE_END
170
1
140
0.125
171
1
172
0
173
0
174
0
175
1
176
1
 91
33
178
0
145
0.0
301
CELL_VALUE
 90
4
  1
 
304
ACVALUE_END
170
1
140
0.125
  0
ACAD_TABLE
  5
295
100
AcDbEntity
  8
0
 62
2
  6
CONTINUOUS
100
AcDbBlockReference
  2
*T2
 10
12.4237499994
 20
16.47875
 30
0.0
100
AcDbTable
342
       3A0
343
210
 11
1.0
 21
0.0
 31
0.0
 90
22
 91
11
 92
3
 93
16
 94
0
 95
0
 96
0
 41
0.028
141
0.344
141
0.25
141
0.25
141
0.25
141
0.25
141
0.25
141
0.25
141
0.25
141
0.25
141
0.25
141
0.25
142
3.055
142
3.0
142
3.0
171
1
172
0
173
0
174
0
175
1
176
1
 91
33
178
0
145
0.0
301
CELL_VALUE
 90
4
  1
Technical Data
304
ACVALUE_END
170
5
140
0.145
171
1
172
0
173
0
174
0
175
1
176
1
 91
33
178
0
145
0.0
301
CELL_VALUE
 90
4
  1
U.S. Units
304
ACVALUE_END
170
5
140
0.145
171
1
172
0
173
0
174
0
175
1
176
1
 91
33
178
0
145
0.0
301
CELL_VALUE
 90
4
  1
Metric Units
304
ACVALUE_END
170
5
140
0.145
171
1
172
0
173
0
174
0
175
1
176
1
 91
33
178
0
145
0.0
301
CELL_VALUE
 90
4
  1
Cavity
304
ACVALUE_END
170
5
140
0.125
171
1
172
0
173
0
174
0
175
2
176
1
 91
33
178
0
145
0.0
301
CELL_VALUE
 90
4
  1
T-2A
304
ACVALUE_END
170
5
140
0.125
171
1
172
0
173
1
174
0
175
1
176
1
 91
1
178
0
145
0.0
170
1
171
1
172
0
173
0
174
0
175
1
176
1
 91
33
178
0
145
0.0
301
CELL_VALUE
 90
4
  1
Body Features
304
ACVALUE_END
170
5
140
0.125
171
1
172
0
173
0
174
0
175
2
176
1
 91
33
178
0
145
0.0
301
CELL_VALUE
 90
4
  1
Ninety degree with reverse flow check - reducing
304
ACVALUE_END
170
5
140
0.125
171
1
172
0
173
1
174
0
175
1
176
1
 91
1
178
0
145
0.0
170
1
171
1
172
0
173
0
174
0
175
1
176
1
 91
33
178
0
145
0.0
301
CELL_VALUE
 90
4
  1
Body Type
304
ACVALUE_END
170
5
140
0.125
171
1
172
0
173
0
174
0
175
2
176
1
 91
33
178
0
145
0.0
301
CELL_VALUE
 90
4
  1
Line mount
304
ACVALUE_END
170
5
140
0.125
171
1
172
0
173
1
174
0
175
1
176
1
 91
1
178
0
145
0.0
170
1
171
1
172
0
173
0
174
0
175
1
176
1
 91
33
178
0
145
0.0
301
CELL_VALUE
 90
4
  1
Interface
304
ACVALUE_END
170
5
140
0.125
171
1
172
0
173
0
174
0
175
2
176
1
 91
33
178
0
145
0.0
301
CELL_VALUE
 90
4
  1
None
304
ACVALUE_END
170
5
140
0.125
171
1
172
0
173
1
174
0
175
1
176
1
 91
1
178
0
145
0.0
170
1
171
1
172
0
173
0
174
0
175
1
176
1
 91
33
178
0
145
0.0
301
CELL_VALUE
 90
4
  1
Open Cavity Quantity
304
ACVALUE_END
170
5
140
0.125
171
1
172
0
173
0
174
0
175
2
176
1
 91
33
178
0
145
0.0
301
CELL_VALUE
 90
4
  1
1
304
ACVALUE_END
170
5
140
0.125
171
1
172
0
173
1
174
0
175
1
176
1
 91
1
178
0
145
0.0
170
1
171
1
172
0
173
0
174
0
175
1
176
1
 91
33
178
0
145
0.0
301
CELL_VALUE
 90
4
  1
Weight
304
ACVALUE_END
170
5
140
0.125
171
1
172
0
173
0
174
0
175
1
176
1
 91
33
178
0
145
0.0
301
CELL_VALUE
 90
4
  1
1.932 lb.
304
ACVALUE_END
170
5
140
0.125
171
1
172
0
173
0
174
0
175
1
176
1
 91
33
178
0
145
0.0
301
CELL_VALUE
 90
4
  1
0,876 kg.
304
ACVALUE_END
170
5
140
0.125
171
1
172
0
173
0
174
0
175
1
176
1
 91
33
178
0
145
0.0
301
CELL_VALUE
 90
4
  1
Mounting Hole Diameter
304
ACVALUE_END
170
5
140
0.125
171
1
172
0
173
0
174
0
175
1
176
1
 91
33
178
0
145
0.0
301
CELL_VALUE
 90
4
  1
.42 in.
304
ACVALUE_END
170
5
140
0.125
171
1
172
0
173
0
174
0
175
1
176
1
 91
33
178
0
145
0.0
301
CELL_VALUE
 90
4
  1
10,7 mm
304
ACVALUE_END
170
5
140
0.125
171
1
172
0
173
0
174
0
175
1
176
1
 91
33
178
0
145
0.0
301
CELL_VALUE
 90
4
  1
Mounting Hole Depth
304
ACVALUE_END
170
5
140
0.125
171
1
172
0
173
0
174
0
175
2
176
1
 91
33
178
0
145
0.0
301
CELL_VALUE
 90
4
  1
Through
304
ACVALUE_END
170
5
140
0.125
171
1
172
0
173
1
174
0
175
1
176
1
 91
1
178
0
145
0.0
170
1
171
1
172
0
173
0
174
0
175
1
176
1
 91
33
178
0
145
0.0
301
CELL_VALUE
 90
4
  1
Mounting Hole Quantity
304
ACVALUE_END
170
5
140
0.125
171
1
172
0
173
0
174
0
175
2
176
1
 91
33
178
0
145
0.0
301
CELL_VALUE
 90
4
  1
2
304
ACVALUE_END
170
5
140
0.125
171
1
172
0
173
1
174
0
175
1
176
1
 91
1
178
0
145
0.0
170
1
171
1
172
0
173
0
174
0
175
1
176
1
 91
33
178
0
145
0.0
301
CELL_VALUE
 90
4
  1
Includes integral cartridge(s)
304
ACVALUE_END
170
5
140
0.125
171
1
172
0
173
0
174
0
175
2
176
1
 91
33
178
0
145
0.0
301
CELL_VALUE
 90
4
  1
Yes (see Included Components)
304
ACVALUE_END
170
5
140
0.125
171
1
172
0
173
1
174
0
175
1
176
1
 91
1
178
0
145
0.0
170
1
  0
ACAD_TABLE
  5
296
100
AcDbEntity
  8
0
 62
2
  6
CONTINUOUS
100
AcDbBlockReference
  2
*T3
 10
0.52125
 20
1.959
 30
0.0
100
AcDbTable
342
       3A0
343
211
 11
1.0
 21
0.0
 31
0.0
 90
22
 91
5
 92
3
 93
16
 94
0
 95
0
 96
0
 41
0.05
141
0.34375
141
0.344
141
0.25
141
0.25
141
0.25
142
1.3
142
2.0
142
1.3
171
1
172
0
173
0
174
0
175
3
176
1
 91
33
178
0
145
0.0
301
CELL_VALUE
 90
4
  1
Port Headings
304
ACVALUE_END
170
5
140
0.145
171
1
172
0
173
1
174
0
175
1
176
1
 91
1
178
0
145
0.0
170
1
171
1
172
0
173
1
174
0
175
1
176
1
 91
1
178
0
145
0.0
170
1
171
1
172
0
173
0
174
0
175
1
176
1
 91
33
178
0
145
0.0
301
CELL_VALUE
 90
4
  1
Product
304
ACVALUE_END
170
5
140
0.145
171
1
172
0
173
0
174
0
175
1
176
1
 91
33
178
0
145
0.0
301
CELL_VALUE
 90
4
  1
Port
304
ACVALUE_END
170
5
140
0.145
171
1
172
0
173
0
174
0
175
1
176
1
 91
33
178
0
145
0.0
301
CELL_VALUE
 90
4
  1
Size
304
ACVALUE_END
170
5
140
0.145
171
1
172
0
173
0
174
0
175
1
176
1
 91
33
178
0
145
0.0
301
CELL_VALUE
 90
4
  1
B4V
304
ACVALUE_END
170
5
140
0.125
171
1
172
0
173
0
174
0
175
1
176
1
 91
33
178
0
145
0.0
301
CELL_VALUE
 90
4
  1
Ports 1 &  2
304
ACVALUE_END
170
5
140
0.125
171
1
172
0
173
0
174
0
175
1
176
1
 91
33
178
0
145
0.0
301
CELL_VALUE
 90
4
  1
1/2" BSPP
304
ACVALUE_END
170
5
140
0.125
171
1
172
0
173
0
174
0
175
1
176
1
 91
33
178
0
145
0.0
301
CELL_VALUE
 90
4
  1
B4V
304
ACVALUE_END
170
5
140
0.125
171
1
172
0
173
0
174
0
175
1
176
1
 91
33
178
0
145
0.0
301
CELL_VALUE
 90
4
  1
Port 3
304
ACVALUE_END
170
5
140
0.125
171
1
172
0
173
0
174
0
175
1
176
1
 91
33
178
0
145
0.0
301
CELL_VALUE
 90
4
  1
1/2" BSPP
304
ACVALUE_END
170
5
140
0.125
171
1
172
0
173
0
174
0
175
1
176
1
 91
33
178
0
145
0.0
301
CELL_VALUE
 90
4
  1
B4V
304
ACVALUE_END
170
5
140
0.125
171
1
172
0
173
0
174
0
175
1
176
1
 91
33
178
0
145
0.0
301
CELL_VALUE
 90
4
  1
Gage Port
304
ACVALUE_END
170
5
140
0.125
171
1
172
0
173
0
174
0
175
1
176
1
 91
33
178
0
145
0.0
301
CELL_VALUE
 90
4
  1
1/4" BSPP
304
ACVALUE_END
170
5
140
0.125
  0
MTEXT
  5
297
100
AcDbEntity
  8
0
100
AcDbMText
 62
2
  6
CONTINUOUS
  7
STANDARD
 71
1
 72
1
 10
0.52125
 20
5.75995
 30
0.0
 11
1.0
 21
0.0
 31
0.0
 44
0.6
  3
Notes\P \P1. Important: Carefully consider\P   the maximum system pressure. The\P   pressure rating of the manifold is\P   dependent on the manifold material,\P   with the port type/size a secondary\P   consideration. Manifolds\P   constructed of alu
  1
minum are not\P   rated for pressures higher than\P   3000 psi (210 bar), regardless of\P   the port type/size specified.
 40
0.1
 41
3.04
  0
LINE
  5
298
100
AcDbEntity
  8
0
100
AcDbLine
 62
7
  6
CONTINUOUS
 10
0.30125
 20
0.30125
 11
0.30125
 21
16.69875
  0
LINE
  5
299
100
AcDbEntity
  8
0
100
AcDbLine
 62
7
  6
CONTINUOUS
 10
0.30125
 20
0.30125
 11
21.69875
 21
0.30125
  0
LINE
  5
29A
100
AcDbEntity
  8
0
100
AcDbLine
 62
7
  6
CONTINUOUS
 10
0.30125
 20
16.69875
 11
21.69875
 21
16.69875
  0
LINE
  5
29B
100
AcDbEntity
  8
0
100
AcDbLine
 62
7
  6
CONTINUOUS
 10
21.69875
 20
0.30125
 11
21.69875
 21
16.69875
  0
LINE
  5
29C
100
AcDbEntity
  8
0
100
AcDbLine
 62
7
  6
CONTINUOUS
 10
9.4433734597
 20
10.9566713866
 11
9.0551452125
 21
10.5816716739
  0
LINE
  5
29D
100
AcDbEntity
  8
0
100
AcDbLine
 62
4
  6
CONTINUOUS
 10
9.306285987
 20
10.0474846524
 11
9.299041543
 21
10.0383278
  0
LINE
  5
29E
100
AcDbEntity
  8
0
100
AcDbLine
 62
4
  6
CONTINUOUS
 10
9.3135304309
 20
9.9890266968
 11
9.299041543
 21
9.9707129876
  0
LINE
  5
29F
100
AcDbEntity
  8
0
100
AcDbLine
 62
4
  6
CONTINUOUS
 10
9.2555748792
 20
10.0703199992
 11
9.2700637671
 21
10.0789744477
  0
LINE
  5
2A0
100
AcDbEntity
  8
0
100
AcDbLine
 62
4
  6
CONTINUOUS
 10
9.299041543
 20
10.0383278
 11
9.2845526551
 21
10.0296733445
  0
LINE
  5
2A1
100
AcDbEntity
  8
0
100
AcDbLine
 62
4
  6
CONTINUOUS
 10
9.299041543
 20
9.9707129876
 11
9.2845526551
 21
9.9620585365
  0
LINE
  5
2A2
100
AcDbEntity
  8
0
100
AcDbLine
 62
7
  6
CONTINUOUS
 10
9.0551452125
 20
6.7179681398
 11
9.0551452125
 21
10.5816716739
  0
LINE
  5
2A3
100
AcDbEntity
  8
0
100
AcDbLine
 62
7
  6
CONTINUOUS
 10
9.0551452125
 20
6.7179681398
 11
12.5566265403
 21
6.475139585
  0
LINE
  5
2A4
100
AcDbEntity
  8
0
100
AcDbLine
 62
7
  6
CONTINUOUS
 10
11.2739877806
 20
6.1296039888
 11
11.29320567
 21
6.1201107194
  0
LINE
  5
2A5
100
AcDbEntity
  8
0
100
AcDbLine
 62
4
  6
CONTINUOUS
 10
9.306285987
 20
10.0571439087
 11
9.306285987
 21
10.0474846524
  0
LINE
  5
2A6
100
AcDbEntity
  8
0
100
AcDbLine
 62
4
  6
CONTINUOUS
 10
9.306285987
 20
7.8731854704
 11
9.306285987
 21
7.757274367
  0
LINE
  5
2A7
100
AcDbEntity
  8
0
100
AcDbLine
 62
4
  6
CONTINUOUS
 10
9.3135304309
 20
9.9986859566
 11
9.3135304309
 21
9.9890266968
  0
LINE
  5
2A8
100
AcDbEntity
  8
0
100
AcDbLine
 62
4
  6
CONTINUOUS
 10
10.2640704391
 20
9.4525626293
 11
10.2806291689
 21
9.4679730056
  0
LINE
  5
2A9
100
AcDbEntity
  8
0
100
AcDbLine
 62
4
  6
CONTINUOUS
 10
10.3054672627
 20
9.3503393745
 11
10.3220259908
 21
9.3657497526
  0
LINE
  5
2AA
100
AcDbEntity
  8
0
100
AcDbLine
 62
4
  6
CONTINUOUS
 10
10.3965402775
 20
9.3440234395
 11
10.4130989987
 21
9.3594338181
  0
LINE
  5
2AB
100
AcDbEntity
  8
0
100
AcDbLine
 62
4
  6
CONTINUOUS
 10
10.7829106269
 20
9.3917428445
 11
10.7994693481
 21
9.3988738608
  0
LINE
  5
2AC
100
AcDbEntity
  8
0
100
AcDbLine
 62
4
  6
CONTINUOUS
 10
10.2640704391
 20
9.4360039013
 11
10.2640704391
 21
9.4525626293
  0
LINE
  5
2AD
100
AcDbEntity
  8
0
100
AcDbLine
 62
4
  6
CONTINUOUS
 10
10.3220259908
 20
9.3657497526
 11
10.3220259908
 21
9.3823084824
  0
LINE
  5
2AE
100
AcDbEntity
  8
0
100
AcDbLine
 62
4
  6
CONTINUOUS
 10
10.3494858945
 20
8.1949371254
 11
10.3494858945
 21
8.1563000915
  0
LINE
  5
2AF
100
AcDbEntity
  8
0
100
AcDbLine
 62
4
  6
CONTINUOUS
 10
10.355143447
 20
9.4628054229
 11
10.355143447
 21
9.3634530492
  0
LINE
  5
2B0
100
AcDbEntity
  8
0
100
AcDbLine
 62
4
  6
CONTINUOUS
 10
10.3910207075
 20
8.7532595955
 11
10.3910207075
 21
8.8691706989
  0
LINE
  5
2B1
100
AcDbEntity
  8
0
100
AcDbLine
 62
4
  6
CONTINUOUS
 10
10.2770414548
 20
8.1999611644
 11
10.2842858988
 21
8.2284365363
  0
LINE
  5
2B2
100
AcDbEntity
  8
0
100
AcDbLine
 62
4
  6
CONTINUOUS
 10
10.9402185609
 20
9.3394366821
 11
10.956777282
 21
9.3465676949
  0
LINE
  5
2B3
100
AcDbEntity
  8
0
100
AcDbLine
 62
4
  6
CONTINUOUS
 10
10.3132636746
 20
8.1394935932
 11
10.2987747867
 21
8.1501576599
  0
LINE
  5
2B4
100
AcDbEntity
  8
0
100
AcDbLine
 62
4
  6
CONTINUOUS
 10
10.2987747867
 20
8.1501576599
 11
10.2842858988
 21
8.1704809846
  0
LINE
  5
2B5
100
AcDbEntity
  8
0
100
AcDbLine
 62
4
  6
CONTINUOUS
 10
10.3422414505
 20
8.2437358247
 11
10.3494858945
 21
8.2335741576
  0
LINE
  5
2B6
100
AcDbEntity
  8
0
100
AcDbLine
 62
4
  6
CONTINUOUS
 10
10.2842858988
 20
8.1704809846
 11
10.2770414548
 21
8.1999611644
  0
LINE
  5
2B7
100
AcDbEntity
  8
0
100
AcDbLine
 62
4
  6
CONTINUOUS
 10
10.4130989987
 20
9.3594338181
 11
10.4130989987
 21
9.4587861917
  0
LINE
  5
2B8
100
AcDbEntity
  8
0
100
AcDbLine
 62
4
  6
CONTINUOUS
 10
10.4462164548
 20
9.3405783849
 11
10.4462164548
 21
9.4564894883
  0
LINE
  5
2B9
100
AcDbEntity
  8
0
100
AcDbLine
 62
4
  6
CONTINUOUS
 10
10.4489762523
 20
8.8485927401
 11
10.4489762523
 21
8.7657990946
  0
LINE
  5
2BA
100
AcDbEntity
  8
0
100
AcDbLine
 62
4
  6
CONTINUOUS
 10
10.5041720066
 20
9.3365591537
 11
10.5041720066
 21
9.4524702572
  0
LINE
  5
2BB
100
AcDbEntity
  8
0
100
AcDbLine
 62
4
  6
CONTINUOUS
 10
10.4958926519
 20
8.7459867014
 11
10.5290101081
 21
8.8596011015
  0
LINE
  5
2BC
100
AcDbEntity
  8
0
100
AcDbLine
 62
4
  6
CONTINUOUS
 10
10.7277148528
 20
9.2934585228
 11
10.7608322952
 21
9.4015533495
  0
LINE
  5
2BD
100
AcDbEntity
  8
0
100
AcDbLine
 62
4
  6
CONTINUOUS
 10
10.2842858988
 20
8.2284365363
 11
10.2987747867
 21
8.2467502481
  0
LINE
  5
2BE
100
AcDbEntity
  8
0
100
AcDbLine
 62
4
  6
CONTINUOUS
 10
10.7318545574
 20
9.059141395
 11
10.7152958294
 21
9.0437310187
  0
LINE
  5
2BF
100
AcDbEntity
  8
0
100
AcDbLine
 62
4
  6
CONTINUOUS
 10
10.4489762523
 20
8.7657990946
 11
10.4324175242
 21
8.7503887165
  0
LINE
  5
2C0
100
AcDbEntity
  8
0
100
AcDbLine
 62
4
  6
CONTINUOUS
 10
10.7401339215
 20
9.0006116692
 11
10.7235751934
 21
8.9852012911
  0
LINE
  5
2C1
100
AcDbEntity
  8
0
100
AcDbLine
 62
4
  6
CONTINUOUS
 10
11.2244767089
 20
9.3611201328
 11
11.2327560418
 21
9.3688253266
  0
LINE
  5
2C2
100
AcDbEntity
  8
0
100
AcDbLine
 62
4
  6
CONTINUOUS
 10
11.298991037
 20
9.3559525465
 11
11.30727037
 21
9.3636577403
  0
LINE
  5
2C3
100
AcDbEntity
  8
0
100
AcDbLine
 62
4
  6
CONTINUOUS
 10
10.3689423999
 20
8.8265452265
 11
10.3247857882
 21
8.8075291904
  0
LINE
  5
2C4
100
AcDbEntity
  8
0
100
AcDbLine
 62
4
  6
CONTINUOUS
 10
10.3277525626
 20
8.1384887854
 11
10.3132636746
 21
8.1394935932
  0
LINE
  5
2C5
100
AcDbEntity
  8
0
100
AcDbLine
 62
4
  6
CONTINUOUS
 10
10.3277525626
 20
8.2543998888
 11
10.3422414505
 21
8.2437358247
  0
LINE
  5
2C6
100
AcDbEntity
  8
0
100
AcDbLine
 62
4
  6
CONTINUOUS
 10
9.2555748792
 20
9.973727411
 11
9.2483304353
 21
9.9838890738
  0
LINE
  5
2C7
100
AcDbEntity
  8
0
100
AcDbLine
 62
4
  6
CONTINUOUS
 10
9.299041543
 20
10.0190092804
 11
9.3135304309
 21
9.9986859566
  0
LINE
  5
2C8
100
AcDbEntity
  8
0
100
AcDbLine
 62
4
  6
CONTINUOUS
 10
9.299041543
 20
10.0673055758
 11
9.306285987
 21
10.0571439087
  0
LINE
  5
2C9
100
AcDbEntity
  8
0
100
AcDbLine
 62
4
  6
CONTINUOUS
 10
10.6283624903
 20
8.7367998869
 11
10.6283624903
 21
8.8527109904
  0
LINE
  5
2CA
100
AcDbEntity
  8
0
100
AcDbLine
 62
4
  6
CONTINUOUS
 10
10.6283624706
 20
9.3279465158
 11
10.6283624706
 21
9.4438576192
  0
LINE
  5
2CB
100
AcDbEntity
  8
0
100
AcDbLine
 62
4
  6
CONTINUOUS
 10
10.6780386617
 20
9.39901574
 11
10.6780386617
 21
9.3245014602
  0
LINE
  5
2CC
100
AcDbEntity
  8
0
100
AcDbLine
 62
4
  6
CONTINUOUS
 10
10.6821783698
 20
8.9880721706
 11
10.6821783698
 21
9.103983274
  0
LINE
  5
2CD
100
AcDbEntity
  8
0
100
AcDbLine
 62
4
  6
CONTINUOUS
 10
10.6945974026
 20
8.7322064802
 11
10.6945974026
 21
8.8481175836
  0
LINE
  5
2CE
100
AcDbEntity
  8
0
100
AcDbLine
 62
4
  6
CONTINUOUS
 10
10.7318545574
 20
9.0839794906
 11
10.7318545574
 21
9.059141395
  0
LINE
  5
2CF
100
AcDbEntity
  8
0
100
AcDbLine
 62
4
  6
CONTINUOUS
 10
10.7401339215
 20
9.025449763
 11
10.7401339215
 21
9.0006116692
  0
LINE
  5
2D0
100
AcDbEntity
  8
0
100
AcDbLine
 62
4
  6
CONTINUOUS
 10
10.7829106269
 20
9.3255079297
 11
10.7829106269
 21
9.3917428445
  0
LINE
  5
2D1
100
AcDbEntity
  8
0
100
AcDbLine
 62
4
  6
CONTINUOUS
 10
10.8118884167
 20
8.9790767483
 11
10.8118884167
 21
9.0370323
  0
LINE
  5
2D2
100
AcDbEntity
  8
0
100
AcDbLine
 62
4
  6
CONTINUOUS
 10
10.7732513776
 20
9.0065943299
 11
10.7980894732
 21
9.0959448117
  0
LINE
  5
2D3
100
AcDbEntity
  8
0
100
AcDbLine
 62
4
  6
CONTINUOUS
 10
10.8974418416
 20
8.9731435981
 11
10.9305592978
 21
9.0867579981
  0
LINE
  5
2D4
100
AcDbEntity
  8
0
100
AcDbLine
 62
4
  6
CONTINUOUS
 10
10.3494858945
 20
8.1563000915
 11
10.3422414505
 21
8.1471432365
  0
LINE
  5
2D5
100
AcDbEntity
  8
0
100
AcDbLine
 62
7
  6
CONTINUOUS
 10
12.5566265403
 20
10.3388431191
 11
12.9448547875
 21
10.7138428318
  0
LINE
  5
2D6
100
AcDbEntity
  8
0
100
AcDbLine
 62
4
  6
CONTINUOUS
 10
11.3403878123
 20
9.2785673906
 11
11.3486671453
 21
9.2862725818
  0
LINE
  5
2D7
100
AcDbEntity
  8
0
100
AcDbLine
 62
4
  6
CONTINUOUS
 10
10.8684640854
 20
8.8195011601
 11
10.8850228066
 21
8.834911537
  0
LINE
  5
2D8
100
AcDbEntity
  8
0
100
AcDbLine
 62
4
  6
CONTINUOUS
 10
10.9650566348
 20
8.8128024441
 11
10.9816153559
 21
8.8282128209
  0
LINE
  5
2D9
100
AcDbEntity
  8
0
100
AcDbLine
 62
4
  6
CONTINUOUS
 10
10.3205081186
 20
8.196946741
 11
10.3494858945
 21
8.1949371254
  0
LINE
  5
2DA
100
AcDbEntity
  8
0
100
AcDbLine
 62
4
  6
CONTINUOUS
 10
10.3132636746
 20
8.2554046966
 11
10.3277525626
 21
8.2543998888
  0
LINE
  5
2DB
100
AcDbEntity
  8
0
100
AcDbLine
 62
4
  6
CONTINUOUS
 10
10.5290101081
 20
8.8596011015
 11
10.562127578
 21
8.7413932937
  0
LINE
  5
2DC
100
AcDbEntity
  8
0
100
AcDbLine
 62
4
  6
CONTINUOUS
 10
10.8325867904
 20
9.4296946145
 11
10.8325867904
 21
9.3137835111
  0
LINE
  5
2DD
100
AcDbEntity
  8
0
100
AcDbLine
 62
4
  6
CONTINUOUS
 10
10.865704288
 20
9.3114868049
 11
10.865704288
 21
9.3942804521
  0
LINE
  5
2DE
100
AcDbEntity
  8
0
100
AcDbLine
 62
4
  6
CONTINUOUS
 10
10.8684640854
 20
8.7367075146
 11
10.8684640854
 21
8.8195011601
  0
LINE
  5
2DF
100
AcDbEntity
  8
0
100
AcDbLine
 62
4
  6
CONTINUOUS
 10
10.9043412856
 20
9.3833215998
 11
10.9043412856
 21
9.3667628717
  0
LINE
  5
2E0
100
AcDbEntity
  8
0
100
AcDbLine
 62
4
  6
CONTINUOUS
 10
10.9402185609
 20
9.3145985874
 11
10.9402185609
 21
9.3394366821
  0
LINE
  5
2E1
100
AcDbEntity
  8
0
100
AcDbLine
 62
4
  6
CONTINUOUS
 10
10.9650566348
 20
8.7300087985
 11
10.9650566348
 21
8.8128024441
  0
LINE
  5
2E2
100
AcDbEntity
  8
0
100
AcDbLine
 62
4
  6
CONTINUOUS
 10
10.9898947244
 20
9.3028741688
 11
10.9898947244
 21
9.3691090881
  0
LINE
  5
2E3
100
AcDbEntity
  8
0
100
AcDbLine
 62
4
  6
CONTINUOUS
 10
11.0230121667
 20
9.3833711137
 11
11.0230121667
 21
9.3088568313
  0
LINE
  5
2E4
100
AcDbEntity
  8
0
100
AcDbLine
 62
4
  6
CONTINUOUS
 10
11.0230121865
 20
8.8087832129
 11
11.0230121865
 21
8.7259895673
  0
LINE
  5
2E5
100
AcDbEntity
  8
0
100
AcDbLine
 62
4
  6
CONTINUOUS
 10
11.1830798783
 20
9.4053878363
 11
11.1803201007
 21
9.3972998601
  0
LINE
  5
2E6
100
AcDbEntity
  8
0
100
AcDbLine
 62
4
  6
CONTINUOUS
 10
11.0230121865
 20
8.7259895673
 11
11.0064534653
 21
8.7105791888
  0
LINE
  5
2E7
100
AcDbEntity
  8
0
100
AcDbLine
 62
4
  6
CONTINUOUS
 10
11.1140851805
 20
8.7196736338
 11
11.0975264594
 21
8.7042632552
  0
LINE
  5
2E8
100
AcDbEntity
  8
0
100
AcDbLine
 62
4
  6
CONTINUOUS
 10
10.2987747867
 20
8.2467502481
 11
10.3132636746
 21
8.2554046966
  0
LINE
  5
2E9
100
AcDbEntity
  8
0
100
AcDbLine
 62
4
  6
CONTINUOUS
 10
10.3422414505
 20
8.1471432365
 11
10.3277525626
 21
8.1384887854
  0
LINE
  5
2EA
100
AcDbEntity
  8
0
100
AcDbLine
 62
4
  6
CONTINUOUS
 10
11.2879518357
 20
8.7407333981
 11
11.2437952275
 21
8.7217173635
  0
LINE
  5
2EB
100
AcDbEntity
  8
0
100
AcDbLine
 62
4
  6
CONTINUOUS
 10
10.3247857882
 20
8.8075291904
 11
10.3689423999
 21
8.7823886132
  0
LINE
  5
2EC
100
AcDbEntity
  8
0
100
AcDbLine
 62
4
  6
CONTINUOUS
 10
10.4324175242
 20
8.8662998199
 11
10.4489762523
 21
8.8485927401
  0
LINE
  5
2ED
100
AcDbEntity
  8
0
100
AcDbLine
 62
4
  6
CONTINUOUS
 10
10.4462164548
 20
9.4564894883
 11
10.5041720066
 21
9.3365591537
  0
LINE
  5
2EE
100
AcDbEntity
  8
0
100
AcDbLine
 62
4
  6
CONTINUOUS
 10
10.7111561317
 20
9.4049984032
 11
10.735994241
 21
9.3204822272
  0
LINE
  5
2EF
100
AcDbEntity
  8
0
100
AcDbLine
 62
4
  6
CONTINUOUS
 10
11.0561296288
 20
8.7071341351
 11
11.0561296288
 21
8.8230452385
  0
LINE
  5
2F0
100
AcDbEntity
  8
0
100
AcDbLine
 62
4
  6
CONTINUOUS
 10
11.0726883855
 20
9.2971324089
 11
11.0726883855
 21
9.3799260562
  0
LINE
  5
2F1
100
AcDbEntity
  8
0
100
AcDbLine
 62
4
  6
CONTINUOUS
 10
11.1058058278
 20
9.3031150714
 11
11.1058058278
 21
9.4107468099
  0
LINE
  5
2F2
100
AcDbEntity
  8
0
100
AcDbLine
 62
4
  6
CONTINUOUS
 10
11.1140851805
 20
8.8024672793
 11
11.1140851805
 21
8.7196736338
  0
LINE
  5
2F3
100
AcDbEntity
  8
0
100
AcDbLine
 62
4
  6
CONTINUOUS
 10
11.1610016217
 20
8.6998612377
 11
11.1610016217
 21
8.8157723411
  0
LINE
  5
2F4
100
AcDbEntity
  8
0
100
AcDbLine
 62
7
  6
CONTINUOUS
 10
11.1657875035
 20
6.5715945998
 11
11.1657875035
 21
6.2662836504
  0
LINE
  5
2F5
100
AcDbEntity
  8
0
100
AcDbLine
 62
4
  6
CONTINUOUS
 10
11.1803201007
 20
9.2896681241
 11
11.1803201007
 21
9.3724617714
  0
LINE
  5
2F6
100
AcDbEntity
  8
0
100
AcDbLine
 62
4
  6
CONTINUOUS
 10
11.1803201007
 20
9.3972998601
 11
11.1803201007
 21
9.4055792276
  0
LINE
  5
2F7
100
AcDbEntity
  8
0
100
AcDbLine
 62
4
  6
CONTINUOUS
 10
11.2244767089
 20
9.2948852179
 11
11.2244767089
 21
9.3611201328
  0
LINE
  5
2F8
100
AcDbEntity
  8
0
100
AcDbLine
 62
4
  6
CONTINUOUS
 10
11.0975264594
 20
8.7042632552
 11
11.0561296288
 21
8.7071341351
  0
LINE
  5
2F9
100
AcDbEntity
  8
0
100
AcDbLine
 62
4
  6
CONTINUOUS
 10
11.0064534653
 20
8.7105791888
 11
10.9816153559
 21
8.7123017175
  0
LINE
  5
2FA
100
AcDbEntity
  8
0
100
AcDbLine
 62
4
  6
CONTINUOUS
 10
10.9181402489
 20
8.7167037311
 11
10.8850228066
 21
8.7190004335
  0
LINE
  5
2FB
100
AcDbEntity
  8
0
100
AcDbLine
 62
4
  6
CONTINUOUS
 10
10.4324175242
 20
8.7503887165
 11
10.3910207075
 21
8.7532595955
  0
LINE
  5
2FC
100
AcDbEntity
  8
0
100
AcDbLine
 62
4
  6
CONTINUOUS
 10
10.6945974026
 20
8.7322064802
 11
10.7442735938
 21
8.7287614246
  0
LINE
  5
2FD
100
AcDbEntity
  8
0
100
AcDbLine
 62
4
  6
CONTINUOUS
 10
11.1610016217
 20
8.6998612377
 11
11.2106777852
 21
8.6964161841
  0
LINE
  5
2FE
100
AcDbEntity
  8
0
100
AcDbLine
 62
4
  6
CONTINUOUS
 10
9.2700637671
 20
9.9630633443
 11
9.2555748792
 21
9.973727411
  0
LINE
  5
2FF
100
AcDbEntity
  8
0
100
AcDbLine
 62
4
  6
CONTINUOUS
 10
9.2845526551
 20
10.0296733445
 11
9.299041543
 21
10.0190092804
  0
LINE
  5
300
100
AcDbEntity
  8
0
100
AcDbLine
 62
4
  6
CONTINUOUS
 10
10.3220259908
 20
9.3823084824
 11
10.2640704391
 21
9.4360039013
  0
LINE
  5
301
100
AcDbEntity
  8
0
100
AcDbLine
 62
4
  6
CONTINUOUS
 10
10.2640704391
 20
9.3614896189
 11
10.272349804
 21
9.3526360781
  0
LINE
  5
302
100
AcDbEntity
  8
0
100
AcDbLine
 62
4
  6
CONTINUOUS
 10
10.8850228066
 20
8.7190004335
 11
10.8684640854
 21
8.7367075146
  0
LINE
  5
303
100
AcDbEntity
  8
0
100
AcDbLine
 62
4
  6
CONTINUOUS
 10
10.355143447
 20
9.3634530492
 11
10.371702175
 21
9.3457459678
  0
LINE
  5
304
100
AcDbEntity
  8
0
100
AcDbLine
 62
4
  6
CONTINUOUS
 10
10.9816153559
 20
8.7123017175
 11
10.9650566348
 21
8.7300087985
  0
LINE
  5
305
100
AcDbEntity
  8
0
100
AcDbLine
 62
4
  6
CONTINUOUS
 10
10.3137466268
 20
9.4656763021
 11
10.3220259908
 21
9.4568227588
  0
LINE
  5
306
100
AcDbEntity
  8
0
100
AcDbLine
 62
4
  6
CONTINUOUS
 10
10.7235751934
 20
9.0431568428
 11
10.7401339215
 21
9.025449763
  0
LINE
  5
307
100
AcDbEntity
  8
0
100
AcDbLine
 62
4
  6
CONTINUOUS
 10
11.0064534653
 20
8.8264902922
 11
11.0230121865
 21
8.8087832129
  0
LINE
  5
308
100
AcDbEntity
  8
0
100
AcDbLine
 62
4
  6
CONTINUOUS
 10
10.8643243855
 20
9.0913514049
 11
10.8974418416
 21
8.9731435981
  0
LINE
  5
309
100
AcDbEntity
  8
0
100
AcDbLine
 62
4
  6
CONTINUOUS
 10
11.298991037
 20
9.3311144544
 11
11.298991037
 21
9.3559525465
  0
LINE
  5
30A
100
AcDbEntity
  8
0
100
AcDbLine
 62
7
  6
CONTINUOUS
 10
11.317207443
 20
6.5044269117
 11
11.317207443
 21
6.1200234704
  0
LINE
  5
30B
100
AcDbEntity
  8
0
100
AcDbLine
 62
4
  6
CONTINUOUS
 10
11.3486671453
 20
9.2862725818
 11
11.3486671453
 21
9.3111106766
  0
LINE
  5
30C
100
AcDbEntity
  8
0
100
AcDbLine
 62
7
  6
CONTINUOUS
 10
11.3566802209
 20
6.4942106179
 11
11.3566802209
 21
6.1098071766
  0
LINE
  5
30D
100
AcDbEntity
  8
0
100
AcDbLine
 62
4
  6
CONTINUOUS
 10
12.3030709853
 20
8.9539028386
 11
12.3175598732
 21
8.9625572871
  0
LINE
  5
30E
100
AcDbEntity
  8
0
100
AcDbLine
 62
4
  6
CONTINUOUS
 10
12.3465376491
 20
8.9122513761
 11
12.3175598732
 21
8.8949424756
  0
LINE
  5
30F
100
AcDbEntity
  8
0
100
AcDbLine
 62
4
  6
CONTINUOUS
 10
10.506931804
 20
8.7783385932
 11
10.5510884122
 21
8.7752763221
  0
LINE
  5
310
100
AcDbEntity
  8
0
100
AcDbLine
 62
4
  6
CONTINUOUS
 10
11.194119064
 20
8.7637994545
 11
11.1610016217
 21
8.7660961569
  0
LINE
  5
311
100
AcDbEntity
  8
0
100
AcDbLine
 62
4
  6
CONTINUOUS
 10
10.7277148726
 20
8.796144695
 11
10.6945974026
 21
8.7984413994
  0
LINE
  5
312
100
AcDbEntity
  8
0
100
AcDbLine
 62
4
  6
CONTINUOUS
 10
10.3910207075
 20
8.8691706989
 11
10.4324175242
 21
8.8662998199
  0
LINE
  5
313
100
AcDbEntity
  8
0
100
AcDbLine
 62
4
  6
CONTINUOUS
 10
10.5952450204
 20
8.8550076947
 11
10.6614799327
 21
8.8504142879
  0
LINE
  5
314
100
AcDbEntity
  8
0
100
AcDbLine
 62
4
  6
CONTINUOUS
 10
10.6945974026
 20
8.8481175836
 11
10.7442735938
 21
8.844672528
  0
LINE
  5
315
100
AcDbEntity
  8
0
100
AcDbLine
 62
4
  6
CONTINUOUS
 10
10.8850228066
 20
8.834911537
 11
10.9181402489
 21
8.8326148345
  0
LINE
  5
316
100
AcDbEntity
  8
0
100
AcDbLine
 62
4
  6
CONTINUOUS
 10
10.9816153559
 20
8.8282128209
 11
11.0064534653
 21
8.8264902922
  0
LINE
  5
317
100
AcDbEntity
  8
0
100
AcDbLine
 62
4
  6
CONTINUOUS
 10
11.0561296288
 20
8.8230452385
 11
11.0975264594
 21
8.8201743586
  0
LINE
  5
318
100
AcDbEntity
  8
0
100
AcDbLine
 62
4
  6
CONTINUOUS
 10
11.1610016217
 20
8.8157723411
 11
11.2106777852
 21
8.8123272875
  0
LINE
  5
319
100
AcDbEntity
  8
0
100
AcDbLine
 62
4
  6
CONTINUOUS
 10
12.2958265413
 20
8.8481533953
 11
12.3537820931
 21
8.8441341642
  0
LINE
  5
31A
100
AcDbEntity
  8
0
100
AcDbLine
 62
4
  6
CONTINUOUS
 10
11.2437952275
 20
8.7658739769
 11
11.2879518357
 21
8.7407333981
  0
LINE
  5
31B
100
AcDbEntity
  8
0
100
AcDbLine
 62
4
  6
CONTINUOUS
 10
9.2845526551
 20
10.0779696399
 11
9.299041543
 21
10.0673055758
  0
LINE
  5
31C
100
AcDbEntity
  8
0
100
AcDbLine
 62
4
  6
CONTINUOUS
 10
10.7152958294
 20
9.0989267789
 11
10.7318545574
 21
9.0839794906
  0
LINE
  5
31D
100
AcDbEntity
  8
0
100
AcDbLine
 62
4
  6
CONTINUOUS
 10
11.0975264594
 20
8.8201743586
 11
11.1140851805
 21
8.8024672793
  0
LINE
  5
31E
100
AcDbEntity
  8
0
100
AcDbLine
 62
4
  6
CONTINUOUS
 10
10.6697593011
 20
9.4078692831
 11
10.6780386617
 21
9.39901574
  0
LINE
  5
31F
100
AcDbEntity
  8
0
100
AcDbLine
 62
4
  6
CONTINUOUS
 10
10.8988217303
 20
9.3919837497
 11
10.9043412856
 21
9.3833215998
  0
LINE
  5
320
100
AcDbEntity
  8
0
100
AcDbLine
 62
4
  6
CONTINUOUS
 10
10.9898947244
 20
9.3691090881
 11
10.9816153914
 21
9.3862419898
  0
LINE
  5
321
100
AcDbEntity
  8
0
100
AcDbLine
 62
7
  6
CONTINUOUS
 10
12.7363006981
 20
9.4204599948
 11
12.735285849
 21
9.4194977471
  0
LINE
  5
322
100
AcDbEntity
  8
0
100
AcDbLine
 62
4
  6
CONTINUOUS
 10
10.7235751934
 20
8.9852012911
 11
10.6821783698
 21
8.9880721706
  0
LINE
  5
323
100
AcDbEntity
  8
0
100
AcDbLine
 62
4
  6
CONTINUOUS
 10
10.8312069293
 20
9.0025750987
 11
10.7732513776
 21
9.0065943299
  0
LINE
  5
324
100
AcDbEntity
  8
0
100
AcDbLine
 62
4
  6
CONTINUOUS
 10
10.6821783698
 20
9.0460277223
 11
10.7235751934
 21
9.0431568428
  0
LINE
  5
325
100
AcDbEntity
  8
0
100
AcDbLine
 62
4
  6
CONTINUOUS
 10
12.3175598732
 20
8.9625572871
 11
12.3320487612
 21
8.9615524793
  0
LINE
  5
326
100
AcDbEntity
  8
0
100
AcDbLine
 62
4
  6
CONTINUOUS
 10
10.6821783698
 20
9.103983274
 11
10.7070164636
 21
9.1022607463
  0
LINE
  5
327
100
AcDbEntity
  8
0
100
AcDbLine
 62
4
  6
CONTINUOUS
 10
10.7070164636
 20
9.1022607463
 11
10.7152958294
 21
9.0989267789
  0
LINE
  5
328
100
AcDbEntity
  8
0
100
AcDbLine
 62
4
  6
CONTINUOUS
 10
10.7994693481
 20
9.3160802135
 11
10.7829106269
 21
9.3255079297
  0
LINE
  5
329
100
AcDbEntity
  8
0
100
AcDbLine
 62
4
  6
CONTINUOUS
 10
11.0230121667
 20
9.3088568313
 11
11.0312915549
 21
9.3000032889
  0
LINE
  5
32A
100
AcDbEntity
  8
0
100
AcDbLine
 62
4
  6
CONTINUOUS
 10
11.114085216
 20
9.294261529
 11
11.1058058278
 21
9.3031150714
  0
LINE
  5
32B
100
AcDbEntity
  8
0
100
AcDbLine
 62
4
  6
CONTINUOUS
 10
12.2958265413
 20
8.9447459792
 11
12.3030709853
 21
8.9539028386
  0
LINE
  5
32C
100
AcDbEntity
  8
0
100
AcDbLine
 62
4
  6
CONTINUOUS
 10
12.3175598732
 20
8.8949424756
 11
12.3030709853
 21
8.8766287673
  0
LINE
  5
32D
100
AcDbEntity
  8
0
100
AcDbLine
 62
4
  6
CONTINUOUS
 10
12.3537820931
 20
8.9214082354
 11
12.3465376491
 21
8.9122513761
  0
LINE
  5
32E
100
AcDbEntity
  8
0
100
AcDbLine
 62
4
  6
CONTINUOUS
 10
10.7111561317
 20
9.2946068741
 11
10.7277148528
 21
9.2934585228
  0
LINE
  5
32F
100
AcDbEntity
  8
0
100
AcDbLine
 62
4
  6
CONTINUOUS
 10
11.2658735947
 20
9.2837349692
 11
11.2327560418
 21
9.2860316793
  0
LINE
  5
330
100
AcDbEntity
  8
0
100
AcDbLine
 62
4
  6
CONTINUOUS
 10
11.1306439372
 20
9.2931131778
 11
11.114085216
 21
9.294261529
  0
LINE
  5
331
100
AcDbEntity
  8
0
100
AcDbLine
 62
4
  6
CONTINUOUS
 10
10.9898947244
 20
9.3028741688
 11
10.956777282
 21
9.3051708713
  0
LINE
  5
332
100
AcDbEntity
  8
0
100
AcDbLine
 62
4
  6
CONTINUOUS
 10
10.8325867904
 20
9.3137835111
 11
10.7994693481
 21
9.3160802135
  0
LINE
  5
333
100
AcDbEntity
  8
0
100
AcDbLine
 62
4
  6
CONTINUOUS
 10
10.272349804
 20
9.3526360781
 11
10.3054672627
 21
9.3503393745
  0
LINE
  5
334
100
AcDbEntity
  8
0
100
AcDbLine
 62
4
  6
CONTINUOUS
 10
10.371702175
 20
9.3457459678
 11
10.3965402775
 21
9.3440234395
  0
LINE
  5
335
100
AcDbEntity
  8
0
100
AcDbLine
 62
4
  6
CONTINUOUS
 10
11.0312915549
 20
9.3000032889
 11
11.0726883855
 21
9.2971324089
  0
LINE
  5
336
100
AcDbEntity
  8
0
100
AcDbLine
 62
4
  6
CONTINUOUS
 10
11.30727037
 20
9.2808640931
 11
11.3403878123
 21
9.2785673906
  0
LINE
  5
337
100
AcDbEntity
  8
0
100
AcDbLine
 62
4
  6
CONTINUOUS
 10
10.956777282
 20
9.3465676949
 11
10.9898947244
 21
9.3442709925
  0
LINE
  5
338
100
AcDbEntity
  8
0
100
AcDbLine
 62
4
  6
CONTINUOUS
 10
10.956777282
 20
9.3051708713
 11
10.9402185609
 21
9.3145985874
  0
LINE
  5
339
100
AcDbEntity
  8
0
100
AcDbLine
 62
4
  6
CONTINUOUS
 10
11.30727037
 20
9.3250207047
 11
11.298991037
 21
9.3311144544
  0
LINE
  5
33A
100
AcDbEntity
  8
0
100
AcDbLine
 62
4
  6
CONTINUOUS
 10
11.3486671453
 20
9.3111106766
 11
11.3403878123
 21
9.3172044263
  0
LINE
  5
33B
100
AcDbEntity
  8
0
100
AcDbLine
 62
4
  6
CONTINUOUS
 10
11.2327560418
 20
9.2860316793
 11
11.2244767089
 21
9.2948852179
  0
LINE
  5
33C
100
AcDbEntity
  8
0
100
AcDbLine
 62
4
  6
CONTINUOUS
 10
11.298991037
 20
9.2897176317
 11
11.30727037
 21
9.2808640931
  0
LINE
  5
33D
100
AcDbEntity
  8
0
100
AcDbLine
 62
4
  6
CONTINUOUS
 10
11.3403878123
 20
9.3613610379
 11
11.3486671453
 21
9.3525074967
  0
LINE
  5
33E
100
AcDbEntity
  8
0
100
AcDbLine
 62
7
  6
CONTINUOUS
 10
11.9217866955
 20
6.4550203508
 11
11.9217866955
 21
6.0706169095
  0
LINE
  5
33F
100
AcDbEntity
  8
0
100
AcDbLine
 62
7
  6
CONTINUOUS
 10
11.9757074978
 20
6.4587597778
 11
11.9757074978
 21
6.0743563364
  0
LINE
  5
340
100
AcDbEntity
  8
0
100
AcDbLine
 62
4
  6
CONTINUOUS
 10
10.9816153914
 20
9.3862419898
 11
10.9402185609
 21
9.3891128698
  0
LINE
  5
341
100
AcDbEntity
  8
0
100
AcDbLine
 62
4
  6
CONTINUOUS
 10
10.6283624706
 20
9.4107401631
 11
10.6697593011
 21
9.4078692831
  0
LINE
  5
342
100
AcDbEntity
  8
0
100
AcDbLine
 62
4
  6
CONTINUOUS
 10
10.7994693481
 20
9.3988738608
 11
10.8325867904
 21
9.3965771584
  0
LINE
  5
343
100
AcDbEntity
  8
0
100
AcDbLine
 62
4
  6
CONTINUOUS
 10
10.865704288
 20
9.3942804521
 11
10.8988217303
 21
9.3919837497
  0
LINE
  5
344
100
AcDbEntity
  8
0
100
AcDbLine
 62
4
  6
CONTINUOUS
 10
11.2327560418
 20
9.3688253266
 11
11.2658735947
 21
9.3665286165
  0
LINE
  5
345
100
AcDbEntity
  8
0
100
AcDbLine
 62
4
  6
CONTINUOUS
 10
11.30727037
 20
9.3636577403
 11
11.3403878123
 21
9.3613610379
  0
LINE
  5
346
100
AcDbEntity
  8
0
100
AcDbLine
 62
4
  6
CONTINUOUS
 10
10.2806291689
 20
9.4679730056
 11
10.3137466268
 21
9.4656763021
  0
LINE
  5
347
100
AcDbEntity
  8
0
100
AcDbLine
 62
4
  6
CONTINUOUS
 10
11.1803201007
 20
9.4055792276
 11
11.1830798783
 21
9.4053878363
  0
LINE
  5
348
100
AcDbEntity
  8
0
100
AcDbLine
 62
4
  6
CONTINUOUS
 10
11.3403878123
 20
9.3172044263
 11
11.30727037
 21
9.3250207047
  0
LINE
  5
349
100
AcDbEntity
  8
0
100
AcDbLine
 62
4
  6
CONTINUOUS
 10
12.3030709853
 20
8.8766287673
 11
12.2958265413
 21
8.8481533953
  0
LINE
  5
34A
100
AcDbEntity
  8
0
100
AcDbLine
 62
4
  6
CONTINUOUS
 10
12.3320487612
 20
8.9615524793
 11
12.3465376491
 21
8.9508884152
  0
LINE
  5
34B
100
AcDbEntity
  8
0
100
AcDbLine
 62
4
  6
CONTINUOUS
 10
12.3537820931
 20
8.9407267481
 11
12.3537820931
 21
8.9214082354
  0
LINE
  5
34C
100
AcDbEntity
  8
0
100
AcDbLine
 62
7
  6
CONTINUOUS
 10
12.3893940328
 20
6.4867371987
 11
12.3893940328
 21
6.1814262494
  0
LINE
  5
34D
100
AcDbEntity
  8
0
100
AcDbLine
 62
7
  6
CONTINUOUS
 10
12.4038420572
 20
6.4857352249
 11
12.4038420572
 21
6.1953819701
  0
LINE
  5
34E
100
AcDbEntity
  8
0
100
AcDbLine
 62
4
  6
CONTINUOUS
 10
9.2845526551
 20
9.9620585365
 11
9.2700637671
 21
9.9630633443
  0
LINE
  5
34F
100
AcDbEntity
  8
0
100
AcDbLine
 62
4
  6
CONTINUOUS
 10
9.2700637671
 20
10.0306781523
 11
9.2845526551
 21
10.0296733445
  0
LINE
  5
350
100
AcDbEntity
  8
0
100
AcDbLine
 62
4
  6
CONTINUOUS
 10
9.2700637671
 20
10.0789744477
 11
9.2845526551
 21
10.0779696399
  0
LINE
  5
351
100
AcDbEntity
  8
0
100
AcDbLine
 62
4
  6
CONTINUOUS
 10
12.3465376491
 20
8.9508884152
 11
12.3537820931
 21
8.9407267481
  0
LINE
  5
352
100
AcDbEntity
  8
0
100
AcDbLine
 62
7
  6
CONTINUOUS
 10
12.5566265403
 20
6.475139585
 11
12.5566265403
 21
10.3388431191
  0
LINE
  5
353
100
AcDbEntity
  8
0
100
AcDbLine
 62
7
  6
CONTINUOUS
 10
12.9448547875
 20
6.8501392977
 11
12.9448547875
 21
10.7138428318
  0
LINE
  5
354
100
AcDbEntity
  8
0
100
AcDbLine
 62
7
  6
CONTINUOUS
 10
9.0551452125
 20
10.5816716739
 11
12.5566265403
 21
10.3388431191
  0
LINE
  5
355
100
AcDbEntity
  8
0
100
AcDbLine
 62
7
  6
CONTINUOUS
 10
12.9448547875
 20
10.7138428318
 11
9.4433734597
 21
10.9566713866
  0
LINE
  5
356
100
AcDbEntity
  8
0
100
AcDbLine
 62
7
  6
CONTINUOUS
 10
12.5566265403
 20
6.475139585
 11
12.9448547875
 21
6.8501392977
  0
LINE
  5
357
100
AcDbEntity
  8
0
100
AcDbLine
 62
7
  6
CONTINUOUS
 10
12.3070979012
 20
6.1352630932
 11
12.2764238907
 21
6.1201107194
  0
ARC
  5
358
100
AcDbEntity
  8
0
100
AcDbCircle
 62
7
  6
CONTINUOUS
 10
11.7958543029
 20
8.2771297941
 40
2.210103635
100
AcDbArc
 50
273.2665005552
 51
274.6677615151
  0
ARC
  5
359
100
AcDbEntity
  8
0
100
AcDbCircle
 62
7
  6
CONTINUOUS
 10
11.7958543029
 20
8.6615332355
 40
2.210103635
100
AcDbArc
 50
273.2665005552
 51
274.6677615151
  0
ARC
  5
35A
100
AcDbEntity
  8
0
100
AcDbCircle
 62
7
  6
CONTINUOUS
 10
11.5758797294
 20
7.4224973516
 40
0.9538158545
100
AcDbArc
 50
254.2644742826
 51
256.7139235525
  0
ARC
  5
35B
100
AcDbEntity
  8
0
100
AcDbCircle
 62
7
  6
CONTINUOUS
 10
11.5758797294
 20
7.0380939102
 40
0.9538158545
100
AcDbArc
 50
254.2644742826
 51
256.7139235525
  0
ARC
  5
35C
100
AcDbEntity
  8
0
100
AcDbCircle
 62
7
  6
CONTINUOUS
 10
11.9682168996
 20
6.8201582944
 40
0.7641475746
100
AcDbArc
 50
293.7608747297
 51
296.3085175792
  0
SPLINE
  5
35D
100
AcDbEntity
  8
0
100
AcDbSpline
 62
7
  6
CONTINUOUS
 70
0
 71
3
 72
9
 73
5
 74
0
 42
0.0000001
 43
0.0000001
 44
0.0000000001
 40
0.0
 40
0.0
 40
0.0
 40
0.0
 40
0.2426770998
 40
1.0
 40
1.0
 40
1.0
 40
1.0
 10
12.3972117905
 20
6.1883629334
 30
0.0
 10
12.3966036
 20
6.1877754665
 30
0.0
 10
12.3940705486
 20
6.1853825853
 30
0.0
 10
12.3914348349
 20
6.1830991158
 30
0.0
 10
12.3893940328
 20
6.1814262494
 30
0.0
  0
SPLINE
  5
35E
100
AcDbEntity
  8
0
100
AcDbSpline
 62
7
  6
CONTINUOUS
 70
0
 71
3
 72
9
 73
5
 74
0
 42
0.0000001
 43
0.0000001
 44
0.0000000001
 40
0.0
 40
0.0
 40
0.0
 40
0.0
 40
0.2426666479
 40
1.0
 40
1.0
 40
1.0
 40
1.0
 10
12.4038420572
 20
6.1953819701
 30
0.0
 10
12.4033344294
 20
6.1947881972
 30
0.0
 10
12.4012107336
 20
6.1923686127
 30
0.0
 10
12.3989653251
 20
6.1900567179
 30
0.0
 10
12.3972117905
 20
6.1883629334
 30
0.0
  0
SPLINE
  5
35F
100
AcDbEntity
  8
0
100
AcDbSpline
 62
7
  6
CONTINUOUS
 70
0
 71
3
 72
9
 73
5
 74
0
 42
0.0000001
 43
0.0000001
 44
0.0000000001
 40
0.0
 40
0.0
 40
0.0
 40
0.0
 40
0.504378312
 40
1.0
 40
1.0
 40
1.0
 40
1.0
 10
12.3893940328
 20
6.1814262494
 30
0.0
 10
12.3758902826
 20
6.1730173957
 30
0.0
 10
12.3487774452
 20
6.1568827397
 30
0.0
 10
12.3209046487
 20
6.1420855449
 30
0.0
 10
12.3068905107
 20
6.1351607025
 30
0.0
  0
SPLINE
  5
360
100
AcDbEntity
  8
0
100
AcDbSpline
 62
7
  6
CONTINUOUS
 70
0
 71
3
 72
23
 73
19
 74
0
 42
0.0000001
 43
0.0000001
 44
0.0000000001
 40
0.0
 40
0.0
 40
0.0
 40
0.0
 40
0.0436203086
 40
0.0892268542
 40
0.137068591
 40
0.187353676
 40
0.2402538462
 40
0.2958872461
 40
0.3543311569
 40
0.4156094827
 40
0.4797102731
 40
0.5465788188
 40
0.6161346312
 40
0.6882694307
 40
0.7628606873
 40
0.8397744221
 40
0.9188692703
 40
1.0
 40
1.0
 40
1.0
 40
1.0
 10
11.2741960138
 20
6.1295011619
 30
0.0
 10
11.2718860781
 20
6.1306417304
 30
0.0
 10
11.2672489544
 20
6.1331568269
 30
0.0
 10
11.260421665
 20
6.1375178789
 30
0.0
 10
11.2535852761
 20
6.1425601655
 30
0.0
 10
11.2467437264
 20
6.1482910978
 30
0.0
 10
11.2399026282
 20
6.1547147486
 30
0.0
 10
11.2330650877
 20
6.161826321
 30
0.0
 10
11.2262368285
 20
6.169617133
 30
0.0
 10
11.2194205844
 20
6.1780705355
 30
0.0
 10
11.2126214159
 20
6.1871664414
 30
0.0
 10
11.2058415657
 20
6.1968788233
 30
0.0
 10
11.1990848988
 20
6.2071793714
 30
0.0
 10
11.1923530118
 20
6.2180363255
 30
0.0
 10
11.1856482948
 20
6.229417179
 30
0.0
 10
11.1789716456
 20
6.2412882614
 30
0.0
 10
11.1723241531
 20
6.2536161005
 30
0.0
 10
11.1679650351
 20
6.2620155176
 30
0.0
 10
11.1657875035
 20
6.2662836504
 30
0.0
  0
SPLINE
  5
361
100
AcDbEntity
  8
0
100
AcDbSpline
 62
7
  6
CONTINUOUS
 70
0
 71
3
 72
47
 73
43
 74
0
 42
0.0000001
 43
0.0000001
 44
0.0000000001
 40
0.0
 40
0.0
 40
0.0
 40
0.0
 40
0.0099874638
 40
0.0204476834
 40
0.0313771515
 40
0.0427708334
 40
0.0546218702
 40
0.0669225517
 40
0.0796641282
 40
0.0928362942
 40
0.1204271347
 40
0.1495984091
 40
0.1802407165
 40
0.2122338314
 40
0.2454489836
 40
0.2797497839
 40
0.3149929168
 40
0.3510298084
 40
0.3877071885
 40
0.4248680172
 40
0.4623527228
 40
0.4999997959
 40
0.5376468789
 40
0.575131606
 40
0.6122924455
 40
0.6489698269
 40
0.6850067267
 40
0.7202498875
 40
0.7545507276
 40
0.7877659112
 40
0.8197590481
 40
0.8504013805
 40
0.8795726993
 40
0.9071635849
 40
0.9203357726
 40
0.933077377
 40
0.9453780958
 40
0.9572291635
 40
0.968622847
 40
0.9795522717
 40
0.9900124597
 40
1.0
 40
1.0
 40
1.0
 40
1.0
 10
12.2764277761
 20
6.120112674
 30
0.0
 10
12.2734372418
 20
6.1186353963
 30
0.0
 10
12.2672635354
 20
6.1157134805
 30
0.0
 10
12.257661337
 20
6.1115140368
 30
0.0
 10
12.2475131589
 20
6.107401202
 30
0.0
 10
12.2368307109
 20
6.1033799922
 30
0.0
 10
12.2256263352
 20
6.099454687
 30
0.0
 10
12.2139128346
 20
6.0956299679
 30
0.0
 10
12.2017035786
 20
6.0919103971
 30
0.0
 10
12.1845157498
 20
6.0870208653
 30
0.0
 10
12.1618854375
 20
6.0812253838
 30
0.0
 10
12.1333941592
 20
6.0748567116
 30
0.0
 10
12.1032941102
 20
6.0690011877
 30
0.0
 10
12.071724104
 20
6.063685846
 30
0.0
 10
12.038829446
 20
6.0589356896
 30
0.0
 10
12.0047617949
 20
6.0547731575
 30
0.0
 10
11.9696783364
 20
6.0512174295
 30
0.0
 10
11.9337410155
 20
6.0482852591
 30
0.0
 10
11.8971157546
 20
6.0459904745
 30
0.0
 10
11.8599717221
 20
6.044343527
 30
0.0
 10
11.8224804982
 20
6.043352291
 30
0.0
 10
11.7848152579
 20
6.0430214344
 30
0.0
 10
11.7471500103
 20
6.0433522743
 30
0.0
 10
11.7096587719
 20
6.0443434943
 30
0.0
 10
11.6725147274
 20
6.045990425
 30
0.0
 10
11.6358894587
 20
6.0482851935
 30
0.0
 10
11.599952124
 20
6.051217347
 30
0.0
 10
11.5648686384
 20
6.0547730604
 30
0.0
 10
11.5308009522
 20
6.0589355779
 30
0.0
 10
11.4979062609
 20
6.0636857209
 30
0.0
 10
11.4663362255
 20
6.0690010468
 30
0.0
 10
11.4362361426
 20
6.0748565564
 30
0.0
 10
11.407744823
 20
6.081225219
 30
0.0
 10
11.385114469
 20
6.0870206871
 30
0.0
 10
11.3679266045
 20
6.0919102094
 30
0.0
 10
11.3557173178
 20
6.0956297787
 30
0.0
 10
11.3440037857
 20
6.099454505
 30
0.0
 10
11.3327993863
 20
6.1033798128
 30
0.0
 10
11.3221169355
 20
6.1074010043
 30
0.0
 10
11.3119687634
 20
6.1115137881
 30
0.0
 10
11.3023665475
 20
6.1157131934
 30
0.0
 10
11.2961928263
 20
6.1186351141
 30
0.0
 10
11.2932022733
 20
6.1201124117
 30
0.0
  0
SPLINE
  5
362
100
AcDbEntity
  8
0
100
AcDbSpline
 62
7
  6
CONTINUOUS
 70
0
 71
3
 72
15
 73
11
 74
0
 42
0.0000001
 43
0.0000001
 44
0.0000000001
 40
0.0
 40
0.0
 40
0.0
 40
0.0
 40
0.1299708166
 40
0.2593283487
 40
0.3876617857
 40
0.5145654289
 40
0.6396384778
 40
0.7624890516
 40
0.8827334041
 40
1.0
 40
1.0
 40
1.0
 40
1.0
 10
11.7695936258
 20
6.5295845285
 30
0.0
 10
11.7591427977
 20
6.5296610609
 30
0.0
 10
11.7382912601
 20
6.5299712049
 30
0.0
 10
11.7071318432
 20
6.5309081742
 30
0.0
 10
11.6762368199
 20
6.5323134805
 30
0.0
 10
11.6457114732
 20
6.5341818654
 30
0.0
 10
11.6156596761
 20
6.5365073986
 30
0.0
 10
11.5861836752
 20
6.5392816127
 30
0.0
 10
11.5573839181
 20
6.5424954177
 30
0.0
 10
11.5384433216
 20
6.5449567437
 30
0.0
 10
11.5291046195
 20
6.5462624977
 30
0.0
  0
SPLINE
  5
363
100
AcDbEntity
  8
0
100
AcDbSpline
 62
7
  6
CONTINUOUS
 70
0
 71
3
 72
10
 73
6
 74
0
 42
0.0000001
 43
0.0000001
 44
0.0000000001
 40
0.0
 40
0.0
 40
0.0
 40
0.0
 40
0.4950633206
 40
0.7463873743
 40
1.0
 40
1.0
 40
1.0
 40
1.0
 10
12.0671270389
 20
6.50936208
 30
0.0
 10
12.051567169
 20
6.5019147807
 30
0.0
 10
12.0284765004
 20
6.4899021548
 30
0.0
 10
11.9982496342
 20
6.4725644433
 30
0.0
 10
11.9832090059
 20
6.4634310049
 30
0.0
 10
11.9757074978
 20
6.4587597778
 30
0.0
  0
SPLINE
  5
364
100
AcDbEntity
  8
0
100
AcDbSpline
 62
7
  6
CONTINUOUS
 70
0
 71
3
 72
21
 73
17
 74
0
 42
0.0000001
 43
0.0000001
 44
0.0000000001
 40
0.0
 40
0.0
 40
0.0
 40
0.0
 40
0.1230212981
 40
0.1847065752
 40
0.2465215318
 40
0.3084771567
 40
0.3705832678
 40
0.432847904
 40
0.4952752623
 40
0.5578663069
 40
0.6206183946
 40
0.6835249868
 40
0.7465773451
 40
0.8097643485
 40
0.8730733734
 40
1.0
 40
1.0
 40
1.0
 40
1.0
 10
11.9217866955
 20
6.0706169095
 30
0.0
 10
11.8987075145
 20
6.0660695533
 30
0.0
 10
11.863875073
 20
6.060097147
 30
0.0
 10
11.817103858
 20
6.0541869996
 30
0.0
 10
11.7817925494
 20
6.0508597856
 30
0.0
 10
11.7463081066
 20
6.048725378
 30
0.0
 10
11.7106833855
 20
6.0478546417
 30
0.0
 10
11.674960174
 20
6.0483035369
 30
0.0
 10
11.6391865523
 20
6.0501055356
 30
0.0
 10
11.6034140261
 20
6.0532688215
 30
0.0
 10
11.5676940862
 20
6.0577777721
 30
0.0
 10
11.5320744728
 20
6.0635920139
 30
0.0
 10
11.4965963333
 20
6.070649728
 30
0.0
 10
11.4612921426
 20
6.0788754177
 30
0.0
 10
11.4144482164
 20
6.0912949697
 30
0.0
 10
11.3796878067
 20
6.1020827641
 30
0.0
 10
11.3566802209
 20
6.1098071766
 30
0.0
  0
SPLINE
  5
365
100
AcDbEntity
  8
0
100
AcDbSpline
 62
7
  6
CONTINUOUS
 70
0
 71
3
 72
21
 73
17
 74
0
 42
0.0000001
 43
0.0000001
 44
0.0000000001
 40
0.0
 40
0.0
 40
0.0
 40
0.0
 40
0.1269266266
 40
0.1902356515
 40
0.253422655
 40
0.3164750132
 40
0.3793816055
 40
0.4421336932
 40
0.5047247377
 40
0.567152096
 40
0.6294167323
 40
0.6915228434
 40
0.7534784683
 40
0.8152934248
 40
0.8769787019
 40
1.0
 40
1.0
 40
1.0
 40
1.0
 10
11.9217866955
 20
6.4550203508
 30
0.0
 10
11.8987791097
 20
6.4627447634
 30
0.0
 10
11.8640187
 20
6.4735325577
 30
0.0
 10
11.8171747739
 20
6.4859521098
 30
0.0
 10
11.7818705831
 20
6.4941777995
 30
0.0
 10
11.7463924436
 20
6.5012355135
 30
0.0
 10
11.7107728302
 20
6.5070497553
 30
0.0
 10
11.6750528903
 20
6.5115587059
 30
0.0
 10
11.6392803641
 20
6.5147219918
 30
0.0
 10
11.6035067424
 20
6.5165239906
 30
0.0
 10
11.5677835309
 20
6.5169728858
 30
0.0
 10
11.5321588098
 20
6.5161021494
 30
0.0
 10
11.496674367
 20
6.5139677418
 30
0.0
 10
11.4613630584
 20
6.5106405278
 30
0.0
 10
11.4145918435
 20
6.5047303804
 30
0.0
 10
11.3797594019
 20
6.4987579741
 30
0.0
 10
11.3566802209
 20
6.4942106179
 30
0.0
  0
SPLINE
  5
366
100
AcDbEntity
  8
0
100
AcDbSpline
 62
7
  6
CONTINUOUS
 70
0
 71
3
 72
11
 73
7
 74
0
 42
0.0000001
 43
0.0000001
 44
0.0000000001
 40
0.0
 40
0.0
 40
0.0
 40
0.0
 40
0.2465919593
 40
0.494712682
 40
0.7454424776
 40
1.0
 40
1.0
 40
1.0
 40
1.0
 10
11.317207443
 20
6.1200234704
 30
0.0
 10
11.3152650301
 20
6.1199686357
 30
0.0
 10
11.3113637204
 20
6.1199759822
 30
0.0
 10
11.3054980292
 20
6.120359504
 30
0.0
 10
11.2996079572
 20
6.1211377864
 30
0.0
 10
11.2957015001
 20
6.1219273342
 30
0.0
 10
11.293750055
 20
6.1223917956
 30
0.0
  0
SPLINE
  5
367
100
AcDbEntity
  8
0
100
AcDbSpline
 62
7
  6
CONTINUOUS
 70
0
 71
3
 72
10
 73
6
 74
0
 42
0.0000001
 43
0.0000001
 44
0.0000000001
 40
0.0
 40
0.0
 40
0.0
 40
0.0
 40
0.2418255986
 40
0.4885199497
 40
1.0
 40
1.0
 40
1.0
 40
1.0
 10
11.293750055
 20
6.1223917956
 30
0.0
 10
11.2921155375
 20
6.1227808253
 30
0.0
 10
11.2888352272
 20
6.1236616859
 30
0.0
 10
11.2822363268
 20
6.1258439912
 30
0.0
 10
11.2773824484
 20
6.1279278075
 30
0.0
 10
11.2741960138
 20
6.1295011619
 30
0.0
  0
SPLINE
  5
368
100
AcDbEntity
  8
0
100
AcDbSpline
 62
7
  6
CONTINUOUS
 70
0
 71
3
 72
11
 73
7
 74
0
 42
0.0000001
 43
0.0000001
 44
0.0000000001
 40
0.0
 40
0.0
 40
0.0
 40
0.0
 40
0.2633952514
 40
0.5183435581
 40
0.764111363
 40
1.0
 40
1.0
 40
1.0
 40
1.0
 10
11.317207443
 20
6.5044269117
 30
0.0
 10
11.3144909565
 20
6.5097514385
 30
0.0
 10
11.3090541588
 20
6.5201837483
 30
0.0
 10
11.3007279916
 20
6.5353962342
 30
0.0
 10
11.2923575312
 20
6.5498678773
 30
0.0
 10
11.2866260542
 20
6.5591776171
 30
0.0
 10
11.2837455337
 20
6.5636897717
 30
0.0
  0
LINE
  5
369
100
AcDbEntity
  8
0
100
AcDbLine
 62
7
  6
CONTINUOUS
 10
12.2761075525
 20
6.1207836726
 11
12.2753784385
 21
6.120463785
  0
SPLINE
  5
36A
100
AcDbEntity
  8
0
100
AcDbSpline
 62
7
  6
CONTINUOUS
 70
0
 71
3
 72
15
 73
11
 74
0
 42
0.0000001
 43
0.0000001
 44
0.0000000001
 40
0.0
 40
0.0
 40
0.0
 40
0.0
 40
0.1321602046
 40
0.2618009952
 40
0.3890353631
 40
0.5141096583
 40
0.6373677171
 40
0.75919507
 40
0.8799649792
 40
1.0
 40
1.0
 40
1.0
 40
1.0
 10
12.2753784385
 20
6.120463785
 30
0.0
 10
12.2629973351
 20
6.1150400428
 30
0.0
 10
12.2381565712
 20
6.1049930537
 30
0.0
 10
12.2003625081
 20
6.0924596163
 30
0.0
 10
12.1624917387
 20
6.0827423268
 30
0.0
 10
12.124665363
 20
6.0758738226
 30
0.0
 10
12.0869979771
 20
6.0717739941
 30
0.0
 10
12.0495823951
 20
6.0702673062
 30
0.0
 10
12.0124815585
 20
6.0711141539
 30
0.0
 10
11.9879171391
 20
6.0730735039
 30
0.0
 10
11.9757074978
 20
6.0743563364
 30
0.0
  0
SPLINE
  5
36B
100
AcDbEntity
  8
0
100
AcDbSpline
 62
7
  6
CONTINUOUS
 70
0
 71
3
 72
91
 73
87
 74
0
 42
0.0000001
 43
0.0000001
 44
0.0000000001
 40
0.0
 40
0.0
 40
0.0
 40
0.0
 40
0.0039801824
 40
0.0081241125
 40
0.0124359604
 40
0.0169193082
 40
0.0215771808
 40
0.0264119179
 40
0.0314251804
 40
0.036618156
 40
0.0419915391
 40
0.0475456573
 40
0.0532804234
 40
0.0591954189
 40
0.0652899227
 40
0.0715629017
 40
0.0780131034
 40
0.0846389837
 40
0.0984102885
 40
0.1128608532
 40
0.1279713725
 40
0.1437199568
 40
0.1600824082
 40
0.1770324532
 40
0.1945419392
 40
0.2125810061
 40
0.2311182422
 40
0.2501208275
 40
0.2695546626
 40
0.2893844909
 40
0.3095740146
 40
0.330086005
 40
0.35088241
 40
0.3719244606
 40
0.3931727759
 40
0.4145874652
 40
0.4361282289
 40
0.4577544586
 40
0.4794253371
 40
0.501099938
 40
0.5227373261
 40
0.5442966575
 40
0.5657372785
 40
0.5870188258
 40
0.6081013261
 40
0.6289452975
 40
0.6495118524
 40
0.6697628021
 40
0.6896607608
 40
0.7091692527
 40
0.7282528228
 40
0.7468771515
 40
0.7650091753
 40
0.7826172172
 40
0.7996711268
 40
0.8161424293
 40
0.8320044948
 40
0.8472327309
 40
0.8618048077
 40
0.8757009255
 40
0.8889041429
 40
0.8952417292
 40
0.9014012652
 40
0.9073816417
 40
0.9131820083
 40
0.9188018518
 40
0.9242409423
 40
0.9294994633
 40
0.9345779585
 40
0.9394774438
 40
0.944199427
 40
0.9487459568
 40
0.95311974
 40
0.9573241405
 40
0.9613633601
 40
0.9652424499
 40
0.9689674846
 40
0.9725456466
 40
0.9759853437
 40
0.9824865016
 40
0.9855753543
 40
0.9885738189
 40
0.9914977372
 40
0.9943643366
 40
0.9971920099
 40
1.0
 40
1.0
 40
1.0
 40
1.0
 10
11.3327614669
 20
10.6246801667
 30
0.0
 10
11.331460235
 20
10.6234232732
 30
0.0
 10
11.3287451456
 20
10.6209183757
 30
0.0
 10
11.3244344186
 20
10.6172597843
 30
0.0
 10
11.3198071389
 20
10.6136274365
 30
0.0
 10
11.314865845
 20
10.6100232608
 30
0.0
 10
11.3096129459
 20
10.6064489405
 30
0.0
 10
11.3040510155
 20
10.6029062145
 30
0.0
 10
11.2981828355
 20
10.5993967815
 30
0.0
 10
11.2920113174
 20
10.5959224626
 30
0.0
 10
11.2855395778
 20
10.5924849255
 30
0.0
 10
11.2787708338
 20
10.5890859387
 30
0.0
 10
11.2717084888
 20
10.5857271739
 30
0.0
 10
11.2643560854
 20
10.5824103285
 30
0.0
 10
11.2567173144
 20
10.5791370929
 30
0.0
 10
11.2487960313
 20
10.5759090842
 30
0.0
 10
11.2405962023
 20
10.5727279621
 30
0.0
 10
11.22914969
 20
10.5684966221
 30
0.0
 10
11.2141679895
 20
10.5633469993
 30
0.0
 10
11.1953711488
 20
10.5574561414
 30
0.0
 10
11.1755691923
 20
10.5517891585
 30
0.0
 10
11.1548020923
 20
10.546357578
 30
0.0
 10
11.1331116198
 20
10.5411724639
 30
0.0
 10
11.1105415167
 20
10.5362443788
 30
0.0
 10
11.087137323
 20
10.531583364
 30
0.0
 10
11.0629463005
 20
10.5271989121
 30
0.0
 10
11.0380173241
 20
10.5230999511
 30
0.0
 10
11.0124007783
 20
10.519294826
 30
0.0
 10
10.9861484514
 20
10.5157912825
 30
0.0
 10
10.9593134282
 20
10.5125964509
 30
0.0
 10
10.9319499812
 20
10.5097168325
 30
0.0
 10
10.9041134599
 20
10.5071582872
 30
0.0
 10
10.8758601784
 20
10.5049260182
 30
0.0
 10
10.8472472988
 20
10.5030245639
 30
0.0
 10
10.8183327144
 20
10.5014577901
 30
0.0
 10
10.789174931
 20
10.500228882
 30
0.0
 10
10.7598329482
 20
10.4993403384
 30
0.0
 10
10.7303661405
 20
10.4987939664
 30
0.0
 10
10.7008341362
 20
10.4985908782
 30
0.0
 10
10.6712966968
 20
10.4987314864
 30
0.0
 10
10.6418135943
 20
10.4992155038
 30
0.0
 10
10.61244449
 20
10.5000419456
 30
0.0
 10
10.583248813
 20
10.5012091317
 30
0.0
 10
10.5542856406
 20
10.5027146893
 30
0.0
 10
10.5256135781
 20
10.5045555582
 30
0.0
 10
10.4972906393
 20
10.5067279966
 30
0.0
 10
10.4693741277
 20
10.5092275871
 30
0.0
 10
10.4419205187
 20
10.5120492438
 30
0.0
 10
10.4149853449
 20
10.5151872263
 30
0.0
 10
10.3886230835
 20
10.5186351496
 30
0.0
 10
10.3628870443
 20
10.5223859972
 30
0.0
 10
10.3378292608
 20
10.5264321348
 30
0.0
 10
10.3135003816
 20
10.5307653261
 30
0.0
 10
10.2899495632
 20
10.5353767473
 30
0.0
 10
10.2672243643
 20
10.5402570042
 30
0.0
 10
10.2453706486
 20
10.5453961543
 30
0.0
 10
10.2244324783
 20
10.5507837286
 30
0.0
 10
10.2044520426
 20
10.5564087539
 30
0.0
 10
10.1854694722
 20
10.5622597813
 30
0.0
 10
10.1675230508
 20
10.5683249129
 30
0.0
 10
10.1532729097
 20
10.5736170477
 30
0.0
 10
10.142427083
 20
10.5779578996
 30
0.0
 10
10.1346851197
 20
10.581214902
 30
0.0
 10
10.1272281432
 20
10.5845160673
 30
0.0
 10
10.1200599037
 20
10.5878597948
 30
0.0
 10
10.1131839874
 20
10.5912443405
 30
0.0
 10
10.1066038633
 20
10.5946680684
 30
0.0
 10
10.1003228069
 20
10.5981292046
 30
0.0
 10
10.0943439745
 20
10.6016260645
 30
0.0
 10
10.0886703448
 20
10.6051568918
 30
0.0
 10
10.0833047388
 20
10.6087199314
 30
0.0
 10
10.0782498481
 20
10.6123134733
 30
0.0
 10
10.0735081517
 20
10.6159357079
 30
0.0
 10
10.0690820498
 20
10.6195849647
 30
0.0
 10
10.0649737102
 20
10.6232594291
 30
0.0
 10
10.0611852045
 20
10.6269574641
 30
0.0
 10
10.0577185198
 20
10.6306772074
 30
0.0
 10
10.0545751524
 20
10.6344174057
 30
0.0
 10
10.0508876857
 20
10.6393353352
 30
0.0
 10
10.0477564261
 20
10.6443858233
 30
0.0
 10
10.0452703421
 20
10.649544152
 30
0.0
 10
10.0437682613
 20
10.6533591211
 30
0.0
 10
10.0425985362
 20
10.6571833726
 30
0.0
 10
10.041762126
 20
10.661015049
 30
0.0
 10
10.0412599549
 20
10.6648514186
 30
0.0
 10
10.0411481612
 20
10.667414414
 30
0.0
 10
10.0411481614
 20
10.6686907489
 30
0.0
  0
SPLINE
  5
36C
100
AcDbEntity
  8
0
100
AcDbSpline
 62
7
  6
CONTINUOUS
 70
0
 71
3
 72
19
 73
15
 74
0
 42
0.0000001
 43
0.0000001
 44
0.0000000001
 40
0.0
 40
0.0
 40
0.0
 40
0.0
 40
0.1504611406
 40
0.2916985742
 40
0.4244193292
 40
0.4878835935
 40
0.5495802133
 40
0.6682271463
 40
0.7255606136
 40
0.7817999183
 40
0.8371467056
 40
0.8918136429
 40
0.9460222308
 40
1.0
 40
1.0
 40
1.0
 40
1.0
 10
12.7507406639
 20
9.5922926111
 30
0.0
 10
12.7524227799
 20
9.5939174105
 30
0.0
 10
12.7557846893
 20
9.5969659937
 30
0.0
 10
12.7609902865
 20
9.6010285754
 30
0.0
 10
12.765387224
 20
9.6039018676
 30
0.0
 10
12.7688935083
 20
9.6058475787
 30
0.0
 10
12.7722963474
 20
9.6075180249
 30
0.0
 10
12.7757390329
 20
9.608883457
 30
0.0
 10
12.779201083
 20
9.609910963
 30
0.0
 10
12.7817608282
 20
9.6105032312
 30
0.0
 10
12.7843120551
 20
9.6109253657
 30
0.0
 10
12.7868540851
 20
9.6111771824
 30
0.0
 10
12.7893858931
 20
9.611258577
 30
0.0
 10
12.7910679549
 20
9.6111990961
 30
0.0
 10
12.7919049485
 20
9.6111410532
 30
0.0
  0
SPLINE
  5
36D
100
AcDbEntity
  8
0
100
AcDbSpline
 62
7
  6
CONTINUOUS
 70
0
 71
3
 72
23
 73
19
 74
0
 42
0.0000001
 43
0.0000001
 44
0.0000000001
 40
0.0
 40
0.0
 40
0.0
 40
0.0
 40
0.0637774716
 40
0.1273446947
 40
0.1907020108
 40
0.2538561385
 40
0.3168131788
 40
0.379582097
 40
0.4421733871
 40
0.5045993393
 40
0.5668738666
 40
0.62901238
 40
0.6910316508
 40
0.7529496465
 40
0.8147853569
 40
0.8765586065
 40
0.938289857
 40
1.0
 40
1.0
 40
1.0
 40
1.0
 10
10.9290414265
 20
7.6138263193
 30
0.0
 10
10.9290414265
 20
7.6070376346
 30
0.0
 10
10.9287165085
 20
7.5934803439
 30
0.0
 10
10.9272499074
 20
7.5732268484
 30
0.0
 10
10.924808064
 20
7.5531339443
 30
0.0
 10
10.9213967302
 20
7.5332486954
 30
0.0
 10
10.9170236015
 20
7.5136166498
 30
0.0
 10
10.9116987695
 20
7.4942831596
 30
0.0
 10
10.9054344327
 20
7.4752927768
 30
0.0
 10
10.8982450031
 20
7.4566892989
 30
0.0
 10
10.8901470235
 20
7.4385156269
 30
0.0
 10
10.8811591329
 20
7.4208136774
 30
0.0
 10
10.8713020291
 20
7.4036242873
 30
0.0
 10
10.860598406
 20
7.386987104
 30
0.0
 10
10.8490729572
 20
7.3709405509
 30
0.0
 10
10.836752118
 20
7.3555215229
 30
0.0
 10
10.8236647935
 20
7.3407660673
 30
0.0
 10
10.8144472971
 20
7.3313924473
 30
0.0
 10
10.8097227809
 20
7.3268289108
 30
0.0
  0
SPLINE
  5
36E
100
AcDbEntity
  8
0
100
AcDbSpline
 62
7
  6
CONTINUOUS
 70
0
 71
3
 72
21
 73
17
 74
0
 42
0.0000001
 43
0.0000001
 44
0.0000000001
 40
0.0
 40
0.0
 40
0.0
 40
0.0
 40
0.1273175725
 40
0.2538000026
 40
0.3167619332
 40
0.3795354925
 40
0.4421314982
 40
0.5045621433
 40
0.5668413429
 40
0.6289845306
 40
0.6910084612
 40
0.7529311022
 40
0.8147714553
 40
0.8765493457
 40
0.9382852283
 40
1.0
 40
1.0
 40
1.0
 40
1.0
 10
11.5530295473
 20
10.0462206006
 30
0.0
 10
11.5530295473
 20
10.0397222743
 30
0.0
 10
11.5524092399
 20
10.0267598838
 30
0.0
 10
11.5500665607
 20
10.010735567
 30
0.0
 10
11.5472665211
 20
9.9981658876
 30
0.0
 10
11.5447130337
 20
9.988894491
 30
0.0
 10
11.5417090478
 20
9.9797878217
 30
0.0
 10
11.5382614124
 20
9.9708666426
 30
0.0
 10
11.534378108
 20
9.9621515801
 30
0.0
 10
11.5300680656
 20
9.9536627163
 30
0.0
 10
11.5253411718
 20
9.9454196605
 30
0.0
 10
11.520208343
 20
9.9374414072
 30
0.0
 10
11.5146814352
 20
9.9297463695
 30
0.0
 10
11.5087730949
 20
9.9223522597
 30
0.0
 10
11.5024971779
 20
9.9152763731
 30
0.0
 10
11.4980770277
 20
9.9107812868
 30
0.0
 10
11.4958114247
 20
9.9085928706
 30
0.0
  0
SPLINE
  5
36F
100
AcDbEntity
  8
0
100
AcDbSpline
 62
7
  6
CONTINUOUS
 70
0
 71
3
 72
21
 73
17
 74
0
 42
0.0000001
 43
0.0000001
 44
0.0000000001
 40
0.0
 40
0.0
 40
0.0
 40
0.0
 40
0.1273175725
 40
0.2538000026
 40
0.3167619332
 40
0.3795354925
 40
0.4421314982
 40
0.5045621433
 40
0.5668413429
 40
0.6289845306
 40
0.6910084612
 40
0.7529311022
 40
0.8147714553
 40
0.8765493457
 40
0.9382852283
 40
1.0
 40
1.0
 40
1.0
 40
1.0
 10
10.4663629283
 20
6.9823220651
 30
0.0
 10
10.4663629283
 20
6.9758237388
 30
0.0
 10
10.4657426209
 20
6.9628613483
 30
0.0
 10
10.4633999418
 20
6.9468370315
 30
0.0
 10
10.4605999021
 20
6.9342673522
 30
0.0
 10
10.4580464147
 20
6.9249959556
 30
0.0
 10
10.4550424288
 20
6.9158892863
 30
0.0
 10
10.4515947935
 20
6.9069681071
 30
0.0
 10
10.447711489
 20
6.8982530446
 30
0.0
 10
10.4434014467
 20
6.8897641809
 30
0.0
 10
10.4386745529
 20
6.881521125
 30
0.0
 10
10.4335417241
 20
6.8735428718
 30
0.0
 10
10.4280148163
 20
6.865847834
 30
0.0
 10
10.422106476
 20
6.8584537242
 30
0.0
 10
10.4158305589
 20
6.8513778376
 30
0.0
 10
10.4114104087
 20
6.8468827514
 30
0.0
 10
10.4091448058
 20
6.8446943351
 30
0.0
  0
SPLINE
  5
370
100
AcDbEntity
  8
0
100
AcDbSpline
 62
7
  6
CONTINUOUS
 70
0
 71
3
 72
38
 73
34
 74
0
 42
0.0000001
 43
0.0000001
 44
0.0000000001
 40
0.0
 40
0.0
 40
0.0
 40
0.0
 40
0.0321880772
 40
0.0641052868
 40
0.0957532718
 40
0.1271443966
 40
0.1583025542
 40
0.1892608582
 40
0.2200598069
 40
0.2507449779
 40
0.2813650772
 40
0.3119703329
 40
0.342611265
 40
0.3733377387
 40
0.4041982583
 40
0.4352394499
 40
0.4665053504
 40
0.4980363555
 40
0.5620073231
 40
0.5945054929
 40
0.6273383297
 40
0.6604712032
 40
0.693829469
 40
0.7272875705
 40
0.7606635073
 40
0.793725285
 40
0.8262144799
 40
0.857884969
 40
0.8885431637
 40
0.9180754658
 40
0.9464547908
 40
0.9737287408
 40
1.0
 40
1.0
 40
1.0
 40
1.0
 10
10.3902746939
 20
7.7684175871
 30
0.0
 10
10.3902746939
 20
7.7635721562
 30
0.0
 10
10.3906464903
 20
7.7539177072
 30
0.0
 10
10.3923279971
 20
7.7395876517
 30
0.0
 10
10.3951079599
 20
7.7255510885
 30
0.0
 10
10.3989498086
 20
7.7118864763
 30
0.0
 10
10.4038059216
 20
7.6986595773
 30
0.0
 10
10.4096210907
 20
7.6859240432
 30
0.0
 10
10.4163356934
 20
7.6737209914
 30
0.0
 10
10.4238887132
 20
7.6620799588
 30
0.0
 10
10.4322201623
 20
7.6510202709
 30
0.0
 10
10.4412729179
 20
7.6405527258
 30
0.0
 10
10.4509939591
 20
7.6306813466
 30
0.0
 10
10.4613350501
 20
7.6214050719
 30
0.0
 10
10.472253048
 20
7.6127192578
 30
0.0
 10
10.4837096068
 20
7.6046171131
 30
0.0
 10
10.4956714272
 20
7.5970905367
 30
0.0
 10
10.5123305224
 20
7.5877693325
 30
0.0
 10
10.5298280399
 20
7.5796182849
 30
0.0
 10
10.5479908326
 20
7.572607937
 30
0.0
 10
10.5620435916
 20
7.567878484
 30
0.0
 10
10.5764077842
 20
7.563713008
 30
0.0
 10
10.5910234989
 20
7.5601231831
 30
0.0
 10
10.6058093306
 20
7.5571257029
 30
0.0
 10
10.6206610019
 20
7.554740291
 30
0.0
 10
10.6354537661
 20
7.552987072
 30
0.0
 10
10.6500518897
 20
7.551883015
 30
0.0
 10
10.6643233241
 20
7.5514388424
 30
0.0
 10
10.6781552965
 20
7.5516576097
 30
0.0
 10
10.6914651546
 20
7.5525353661
 30
0.0
 10
10.7042038837
 20
7.554063679
 30
0.0
 10
10.7163510705
 20
7.5562324379
 30
0.0
 10
10.7241909298
 20
7.5581321979
 30
0.0
 10
10.7280017488
 20
7.5591893879
 30
0.0
  0
SPLINE
  5
371
100
AcDbEntity
  8
0
100
AcDbSpline
 62
7
  6
CONTINUOUS
 70
0
 71
3
 72
15
 73
11
 74
0
 42
0.0000001
 43
0.0000001
 44
0.0000000001
 40
0.0
 40
0.0
 40
0.0
 40
0.0
 40
0.1264868284
 40
0.2527318615
 40
0.3786480913
 40
0.5041408801
 40
0.6291131096
 40
0.7534693471
 40
0.877123234
 40
1.0
 40
1.0
 40
1.0
 40
1.0
 10
10.4147228071
 20
7.8649830556
 30
0.0
 10
10.412779258
 20
7.8612155485
 30
0.0
 10
10.4090941717
 20
7.8535833708
 30
0.0
 10
10.4042055009
 20
7.8418654275
 30
0.0
 10
10.3999947122
 20
7.8299216876
 30
0.0
 10
10.3964955968
 20
7.8177944815
 30
0.0
 10
10.3937383361
 20
7.8055305983
 30
0.0
 10
10.391748381
 20
7.7931810084
 30
0.0
 10
10.390545139
 20
7.7808009084
 30
0.0
 10
10.3902746939
 20
7.7725358735
 30
0.0
 10
10.3902746939
 20
7.7684175871
 30
0.0
  0
SPLINE
  5
372
100
AcDbEntity
  8
0
100
AcDbSpline
 62
7
  6
CONTINUOUS
 70
0
 71
3
 72
21
 73
17
 74
0
 42
0.0000001
 43
0.0000001
 44
0.0000000001
 40
0.0
 40
0.0
 40
0.0
 40
0.0
 40
0.12731758
 40
0.2538000122
 40
0.3167619425
 40
0.3795355005
 40
0.4421315041
 40
0.5045621466
 40
0.5668413435
 40
0.6289845285
 40
0.6910084568
 40
0.7529310961
 40
0.8147714484
 40
0.8765493394
 40
0.9382852242
 40
1.0
 40
1.0
 40
1.0
 40
1.0
 10
10.7429322868
 20
7.6390586841
 30
0.0
 10
10.7429322868
 20
7.6318211647
 30
0.0
 10
10.7422414142
 20
7.6173842857
 30
0.0
 10
10.7396322353
 20
7.5995371846
 30
0.0
 10
10.7365136673
 20
7.5855376931
 30
0.0
 10
10.7336696992
 20
7.5752116689
 30
0.0
 10
10.7303239849
 20
7.565069112
 30
0.0
 10
10.7264841525
 20
7.5551331475
 30
0.0
 10
10.7221590904
 20
7.5454267483
 30
0.0
 10
10.7173587459
 20
7.5359722813
 30
0.0
 10
10.7120941302
 20
7.5267915862
 30
0.0
 10
10.7063774019
 20
7.5179058189
 30
0.0
 10
10.7002217658
 20
7.5093354868
 30
0.0
 10
10.6936413072
 20
7.5011003174
 30
0.0
 10
10.6866514582
 20
7.4932195736
 30
0.0
 10
10.6817284842
 20
7.488213191
 30
0.0
 10
10.6792051529
 20
7.4857758531
 30
0.0
  0
SPLINE
  5
373
100
AcDbEntity
  8
0
100
AcDbSpline
 62
7
  6
CONTINUOUS
 70
0
 71
3
 72
41
 73
37
 74
0
 42
0.0000001
 43
0.0000001
 44
0.0000000001
 40
0.0
 40
0.0
 40
0.0
 40
0.0
 40
0.0310750003
 40
0.046674464
 40
0.062312494
 40
0.0936974057
 40
0.1252262387
 40
0.1568876805
 40
0.1886675201
 40
0.2205491599
 40
0.2525139229
 40
0.268523588
 40
0.2845462912
 40
0.3166149974
 40
0.3487024468
 40
0.3807858411
 40
0.4128424624
 40
0.4448501254
 40
0.4767876212
 40
0.5086351486
 40
0.5403747235
 40
0.5719905626
 40
0.6034694315
 40
0.6348009518
 40
0.6659778585
 40
0.6969962
 40
0.7278554736
 40
0.7585586902
 40
0.7891123605
 40
0.8195263996
 40
0.849813947
 40
0.8799911023
 40
0.9100765789
 40
0.9400912834
 40
0.9700578297
 40
1.0
 40
1.0
 40
1.0
 40
1.0
 10
10.7429322868
 20
7.6390586841
 30
0.0
 10
10.7429322868
 20
7.6446840498
 30
0.0
 10
10.7426178418
 20
7.6531375617
 30
0.0
 10
10.7415793484
 20
7.6643715761
 30
0.0
 10
10.7401242064
 20
7.6756163455
 30
0.0
 10
10.7375302502
 20
7.6896113119
 30
0.0
 10
10.733203528
 20
7.7061908897
 30
0.0
 10
10.7276827514
 20
7.722487715
 30
0.0
 10
10.7209983327
 20
7.7384119144
 30
0.0
 10
10.7131873705
 20
7.7538758162
 30
0.0
 10
10.705777949
 20
7.7663033619
 30
0.0
 10
10.6993333976
 20
7.7759329503
 30
0.0
 10
10.692547409
 20
7.7853482691
 30
0.0
 10
10.6834520482
 20
7.7966756412
 30
0.0
 10
10.6716215644
 20
7.8094831559
 30
0.0
 10
10.6589353307
 20
7.8214410185
 30
0.0
 10
10.645463273
 20
7.8324831518
 30
0.0
 10
10.6312792356
 20
7.8425490318
 30
0.0
 10
10.6164610662
 20
7.8515833241
 30
0.0
 10
10.6010900635
 20
7.8595363708
 30
0.0
 10
10.5852505719
 20
7.8663644122
 30
0.0
 10
10.5690295152
 20
7.8720298397
 30
0.0
 10
10.5525159294
 20
7.8765014003
 30
0.0
 10
10.5358004797
 20
7.8797543704
 30
0.0
 10
10.5189749705
 20
7.8817706966
 30
0.0
 10
10.5021318478
 20
7.8825390994
 30
0.0
 10
10.4853636972
 20
7.8820551444
 30
0.0
 10
10.46876274
 20
7.8803212745
 30
0.0
 10
10.4524203284
 20
7.8773468122
 30
0.0
 10
10.4364264408
 20
7.8731479161
 30
0.0
 10
10.4208691919
 20
7.8677475112
 30
0.0
 10
10.4058343113
 20
7.8611751461
 30
0.0
 10
10.3914047736
 20
7.8534669501
 30
0.0
 10
10.3776599135
 20
7.8446650325
 30
0.0
 10
10.3646765223
 20
7.8348187787
 30
0.0
 10
10.3565728373
 20
7.8275912141
 30
0.0
 10
10.3526742555
 20
7.8238254933
 30
0.0
  0
SPLINE
  5
374
100
AcDbEntity
  8
0
100
AcDbSpline
 62
7
  6
CONTINUOUS
 70
0
 71
3
 72
18
 73
14
 74
0
 42
0.0000001
 43
0.0000001
 44
0.0000000001
 40
0.0
 40
0.0
 40
0.0
 40
0.0
 40
0.0548620589
 40
0.1099280789
 40
0.165399508
 40
0.2214731255
 40
0.2783387361
 40
0.3361775086
 40
0.4554063416
 40
0.5804417492
 40
0.7123343341
 40
0.8519577333
 40
1.0
 40
1.0
 40
1.0
 40
1.0
 10
11.3551481614
 20
10.668690749
 30
0.0
 10
11.3551481613
 20
10.6677628817
 30
0.0
 10
11.3550892591
 20
10.6659031647
 30
0.0
 10
11.3548244565
 20
10.6631166149
 30
0.0
 10
11.3543832695
 20
10.6603316708
 30
0.0
 10
11.3537658437
 20
10.6575493497
 30
0.0
 10
11.3529724184
 20
10.6547703539
 30
0.0
 10
11.3516674113
 20
10.6510333496
 30
0.0
 10
11.3495768121
 20
10.6463593577
 30
0.0
 10
11.3463947897
 20
10.6408393554
 30
0.0
 10
11.3425192589
 20
10.6353550827
 30
0.0
 10
11.3379561161
 20
10.6299120438
 30
0.0
 10
11.3345623359
 20
10.6264196728
 30
0.0
 10
11.3327614669
 20
10.6246801667
 30
0.0
  0
SPLINE
  5
375
100
AcDbEntity
  8
0
100
AcDbSpline
 62
7
  6
CONTINUOUS
 70
0
 71
3
 72
44
 73
40
 74
0
 42
0.0000001
 43
0.0000001
 44
0.0000000001
 40
0.0
 40
0.0
 40
0.0
 40
0.0
 40
0.0149722236
 40
0.0299475067
 40
0.0449288886
 40
0.0599193736
 40
0.0749219097
 40
0.08993937
 40
0.1049745397
 40
0.1200300961
 40
0.1351085917
 40
0.1502124449
 40
0.1804994096
 40
0.2109128633
 40
0.2414659442
 40
0.2721685685
 40
0.3030272475
 40
0.3340449904
 40
0.3652212956
 40
0.396552213
 40
0.4280304762
 40
0.4596457066
 40
0.4913846713
 40
0.5232315866
 40
0.555168468
 40
0.587175515
 40
0.6192315195
 40
0.6513142962
 40
0.6834011282
 40
0.7154692177
 40
0.7474961397
 40
0.7794602892
 40
0.8113413161
 40
0.8431205468
 40
0.8747813742
 40
0.9063096205
 40
0.9376938957
 40
0.9689255646
 40
1.0
 40
1.0
 40
1.0
 40
1.0
 10
10.1983452946
 20
7.9597724528
 30
0.0
 10
10.2019953688
 20
7.963298157
 30
0.0
 10
10.2094372757
 20
7.9702059648
 30
0.0
 10
10.2210043327
 20
7.9801169741
 30
0.0
 10
10.2329608605
 20
7.9895648501
 30
0.0
 10
10.2452901616
 20
7.9985363958
 30
0.0
 10
10.2579753703
 20
8.007019269
 30
0.0
 10
10.2709989724
 20
8.0150018291
 30
0.0
 10
10.2843430667
 20
8.0224731148
 30
0.0
 10
10.2979892398
 20
8.029422771
 30
0.0
 10
10.3119189662
 20
8.0358413856
 30
0.0
 10
10.3308589606
 20
8.0436858925
 30
0.0
 10
10.3551584323
 20
8.05212123
 30
0.0
 10
10.3851037309
 20
8.059982679
 30
0.0
 10
10.4157024849
 20
8.0655520018
 30
0.0
 10
10.4467850844
 20
8.0687983935
 30
0.0
 10
10.4781807937
 20
8.0697045354
 30
0.0
 10
10.5097168598
 20
8.0682658518
 30
0.0
 10
10.5412199564
 20
8.0644906378
 30
0.0
 10
10.5725169799
 20
8.0583999725
 30
0.0
 10
10.6034360485
 20
8.0500277017
 30
0.0
 10
10.6338074094
 20
8.0394201176
 30
0.0
 10
10.6634643419
 20
8.0266356964
 30
0.0
 10
10.6922441
 20
8.0117448788
 30
0.0
 10
10.7199887784
 20
7.994829615
 30
0.0
 10
10.7465461325
 20
7.9759828703
 30
0.0
 10
10.7717704386
 20
7.9553081872
 30
0.0
 10
10.7955233101
 20
7.9329191356
 30
0.0
 10
10.8176743839
 20
7.9089386164
 30
0.0
 10
10.8381020368
 20
7.8834982225
 30
0.0
 10
10.8566941288
 20
7.8567375872
 30
0.0
 10
10.8733485308
 20
7.8288035501
 30
0.0
 10
10.8879736597
 20
7.7998493601
 30
0.0
 10
10.900489075
 20
7.7700339192
 30
0.0
 10
10.9108258762
 20
7.7395208126
 30
0.0
 10
10.9189270326
 20
7.7084776673
 30
0.0
 10
10.9247476971
 20
7.6770743566
 30
0.0
 10
10.9282557113
 20
7.6454855611
 30
0.0
 10
10.9290414265
 20
7.6243589337
 30
0.0
 10
10.9290414265
 20
7.6138263193
 30
0.0
  0
SPLINE
  5
376
100
AcDbEntity
  8
0
100
AcDbSpline
 62
7
  6
CONTINUOUS
 70
0
 71
3
 72
41
 73
37
 74
0
 42
0.0000001
 43
0.0000001
 44
0.0000000001
 40
0.0
 40
0.0
 40
0.0
 40
0.0
 40
0.0299421722
 40
0.0599087187
 40
0.0899234222
 40
0.1200088965
 40
0.1501860486
 40
0.1804735921
 40
0.2108876267
 40
0.2414412921
 40
0.2721445039
 40
0.3030037728
 40
0.3340221097
 40
0.3651990124
 40
0.3965305293
 40
0.4280093954
 40
0.4596252325
 40
0.4913648061
 40
0.523212333
 40
0.5551498293
 40
0.5871574933
 40
0.6192141165
 40
0.6512975132
 40
0.6833849656
 40
0.7154536753
 40
0.7314763803
 40
0.7474860474
 40
0.7794508144
 40
0.8113324582
 40
0.8431123019
 40
0.8747737477
 40
0.9063025846
 40
0.9376874998
 40
0.9533255315
 40
0.9689249968
 40
1.0
 40
1.0
 40
1.0
 40
1.0
 10
11.202626947
 20
10.2121169238
 30
0.0
 10
11.2061273649
 20
10.2154980862
 30
0.0
 10
11.2134034202
 20
10.2219875683
 30
0.0
 10
11.2250608267
 20
10.2308283247
 30
0.0
 10
11.2374019421
 20
10.2387313994
 30
0.0
 10
11.2503578173
 20
10.2456524502
 30
0.0
 10
11.26385722
 20
10.2515536676
 30
0.0
 10
11.2778256489
 20
10.2564026116
 30
0.0
 10
11.2921861295
 20
10.2601727509
 30
0.0
 10
11.3068595458
 20
10.2628435011
 30
0.0
 10
11.3217651081
 20
10.2644003536
 30
0.0
 10
11.3368207933
 20
10.2648349377
 30
0.0
 10
11.351943798
 20
10.2641450594
 30
0.0
 10
11.3670509917
 20
10.2623347004
 30
0.0
 10
11.3820593691
 20
10.2594139876
 30
0.0
 10
11.396886501
 20
10.2553991309
 30
0.0
 10
11.411450981
 20
10.2503123285
 30
0.0
 10
11.4256728657
 20
10.2441816418
 30
0.0
 10
11.4394741079
 20
10.2370408385
 30
0.0
 10
11.4527789767
 20
10.2289292092
 30
0.0
 10
11.4655144756
 20
10.2198913405
 30
0.0
 10
11.4776107069
 20
10.209976916
 30
0.0
 10
11.4890013671
 20
10.1992402785
 30
0.0
 10
11.4996236714
 20
10.1877407573
 30
0.0
 10
11.5077901757
 20
10.1775702129
 30
0.0
 10
11.513883151
 20
10.1691164483
 30
0.0
 10
11.5196695583
 20
10.1604702957
 30
0.0
 10
11.5263222995
 20
10.1493119296
 30
0.0
 10
11.5333355749
 20
10.1354272967
 30
0.0
 10
11.5393373541
 20
10.1211293727
 30
0.0
 10
11.5442943272
 20
10.106496876
 30
0.0
 10
11.5481791876
 20
10.0916105018
 30
0.0
 10
11.5505082389
 20
10.0790447827
 30
0.0
 10
11.5518147761
 20
10.0689483941
 30
0.0
 10
11.5527472146
 20
10.0588616621
 30
0.0
 10
11.5530295473
 20
10.0512714715
 30
0.0
 10
11.5530295473
 20
10.0462206006
 30
0.0
  0
SPLINE
  5
377
100
AcDbEntity
  8
0
100
AcDbSpline
 62
7
  6
CONTINUOUS
 70
0
 71
3
 72
41
 73
37
 74
0
 42
0.0000001
 43
0.0000001
 44
0.0000000001
 40
0.0
 40
0.0
 40
0.0
 40
0.0
 40
0.0299421722
 40
0.0599087187
 40
0.0899234222
 40
0.1200088965
 40
0.1501860486
 40
0.1804735921
 40
0.2108876267
 40
0.2414412921
 40
0.2721445039
 40
0.3030037728
 40
0.3340221097
 40
0.3651990124
 40
0.3965305293
 40
0.4280093954
 40
0.4596252325
 40
0.4913648061
 40
0.523212333
 40
0.5551498293
 40
0.5871574933
 40
0.6192141165
 40
0.6512975132
 40
0.6833849656
 40
0.7154536753
 40
0.7314763803
 40
0.7474860474
 40
0.7794508144
 40
0.8113324582
 40
0.8431123019
 40
0.8747737477
 40
0.9063025846
 40
0.9376874998
 40
0.9533255315
 40
0.9689249968
 40
1.0
 40
1.0
 40
1.0
 40
1.0
 10
10.115960328
 20
7.1482183883
 30
0.0
 10
10.1194607459
 20
7.1515995507
 30
0.0
 10
10.1267368012
 20
7.1580890328
 30
0.0
 10
10.1383942077
 20
7.1669297892
 30
0.0
 10
10.1507353231
 20
7.174832864
 30
0.0
 10
10.1636911984
 20
7.1817539148
 30
0.0
 10
10.177190601
 20
7.1876551322
 30
0.0
 10
10.1911590299
 20
7.1925040761
 30
0.0
 10
10.2055195106
 20
7.1962742154
 30
0.0
 10
10.2201929268
 20
7.1989449656
 30
0.0
 10
10.2350984891
 20
7.2005018181
 30
0.0
 10
10.2501541743
 20
7.2009364022
 30
0.0
 10
10.2652771791
 20
7.200246524
 30
0.0
 10
10.2803843728
 20
7.1984361649
 30
0.0
 10
10.2953927501
 20
7.1955154521
 30
0.0
 10
10.310219882
 20
7.1915005954
 30
0.0
 10
10.324784362
 20
7.186413793
 30
0.0
 10
10.3390062467
 20
7.1802831063
 30
0.0
 10
10.352807489
 20
7.173142303
 30
0.0
 10
10.3661123578
 20
7.1650306737
 30
0.0
 10
10.3788478567
 20
7.1559928051
 30
0.0
 10
10.390944088
 20
7.1460783805
 30
0.0
 10
10.4023347481
 20
7.135341743
 30
0.0
 10
10.4129570524
 20
7.1238422218
 30
0.0
 10
10.4211235568
 20
7.1136716774
 30
0.0
 10
10.4272165321
 20
7.1052179128
 30
0.0
 10
10.4330029394
 20
7.0965717603
 30
0.0
 10
10.4396556805
 20
7.0854133941
 30
0.0
 10
10.4466689559
 20
7.0715287613
 30
0.0
 10
10.4526707351
 20
7.0572308372
 30
0.0
 10
10.4576277083
 20
7.0425983405
 30
0.0
 10
10.4615125686
 20
7.0277119664
 30
0.0
 10
10.4638416199
 20
7.0151462472
 30
0.0
 10
10.4651481571
 20
7.0050498587
 30
0.0
 10
10.4660805956
 20
6.9949631266
 30
0.0
 10
10.4663629283
 20
6.987372936
 30
0.0
 10
10.4663629283
 20
6.9823220651
 30
0.0
  0
SPLINE
  5
378
100
AcDbEntity
  8
0
100
AcDbSpline
 62
7
  6
CONTINUOUS
 70
0
 71
3
 72
88
 73
84
 74
0
 42
0.0000001
 43
0.0000001
 44
0.0000000001
 40
0.0
 40
0.0
 40
0.0
 40
0.0
 40
0.0027164206
 40
0.0054532135
 40
0.00823027
 40
0.0110665466
 40
0.0139797362
 40
0.0169860264
 40
0.0200999638
 40
0.0233344621
 40
0.0267007864
 40
0.030208716
 40
0.033866602
 40
0.0376815365
 40
0.0416594862
 40
0.0458053757
 40
0.0501232805
 40
0.0546164357
 40
0.0592874172
 40
0.0641381604
 40
0.0691700473
 40
0.0743839976
 40
0.0797804461
 40
0.085359486
 40
0.0911208072
 40
0.097063806
 40
0.1031875785
 40
0.1094909314
 40
0.1226301057
 40
0.1364676988
 40
0.1509864378
 40
0.1661662591
 40
0.1819846247
 40
0.1984167804
 40
0.2154359739
 40
0.2330136371
 40
0.2511195505
 40
0.2697219952
 40
0.2887878869
 40
0.3082829001
 40
0.3281715858
 40
0.3484174815
 40
0.3689832185
 40
0.3898306305
 40
0.410920857
 40
0.4322144439
 40
0.4536714439
 40
0.4969133241
 40
0.5403214886
 40
0.5835686279
 40
0.6050302166
 40
0.6263296837
 40
0.6474270673
 40
0.6682828961
 40
0.6888582896
 40
0.7091150586
 40
0.7290158075
 40
0.7485240405
 40
0.7676042737
 40
0.7862221443
 40
0.8043445271
 40
0.8219396585
 40
0.8389772699
 40
0.8554287349
 40
0.8712672375
 40
0.8864679574
 40
0.9010082824
 40
0.9148680665
 40
0.9280299429
 40
0.9343448017
 40
0.9404801679
 40
0.9464348204
 40
0.9522078552
 40
0.9577986253
 40
0.9632068219
 40
0.9684325067
 40
0.9734760906
 40
0.9783384494
 40
0.9830208978
 40
0.9875254123
 40
0.9918545974
 40
0.9960115688
 40
1.0
 40
1.0
 40
1.0
 40
1.0
 10
12.7095763793
 20
8.4239923675
 30
0.0
 10
12.7084658845
 20
8.4240693769
 30
0.0
 10
12.7062422545
 20
8.4243244948
 30
0.0
 10
12.7029351066
 20
8.4250071259
 30
0.0
 10
12.6996529678
 20
8.4259897097
 30
0.0
 10
12.6963981482
 20
8.4272711972
 30
0.0
 10
12.6931723485
 20
8.4288505068
 30
0.0
 10
12.6899772254
 20
8.4307263944
 30
0.0
 10
12.6868142206
 20
8.4328974873
 30
0.0
 10
12.6836847948
 20
8.4353624765
 30
0.0
 10
12.6805902343
 20
8.4381198476
 30
0.0
 10
12.6775319328
 20
8.441168156
 30
0.0
 10
12.6745111883
 20
8.4445057742
 30
0.0
 10
12.6715293456
 20
8.4481310177
 30
0.0
 10
12.6685877849
 20
8.4520420962
 30
0.0
 10
12.6656878083
 20
8.4562370448
 30
0.0
 10
12.6628308463
 20
8.460713836
 30
0.0
 10
12.6600181962
 20
8.4654702329
 30
0.0
 10
12.6572512592
 20
8.4705039142
 30
0.0
 10
12.6545313678
 20
8.4758123865
 30
0.0
 10
12.6518598415
 20
8.4813930203
 30
0.0
 10
12.6492380423
 20
8.4872430614
 30
0.0
 10
12.6466672144
 20
8.4933595875
 30
0.0
 10
12.6441486976
 20
8.4997395699
 30
0.0
 10
12.6416837036
 20
8.5063798172
 30
0.0
 10
12.6392734959
 20
8.5132770181
 30
0.0
 10
12.6369192636
 20
8.520427735
 30
0.0
 10
12.6338134942
 20
8.5304340688
 30
0.0
 10
12.6300907005
 20
8.5435564433
 30
0.0
 10
12.6259242383
 20
8.5600446573
 30
0.0
 10
12.6220075804
 20
8.5774520306
 30
0.0
 10
12.6183486681
 20
8.5957436633
 30
0.0
 10
12.6149549486
 20
8.6148830256
 30
0.0
 10
12.6118333276
 20
8.6348317778
 30
0.0
 10
12.6089901619
 20
8.6555499327
 30
0.0
 10
12.6064312389
 20
8.6769959202
 30
0.0
 10
12.6041617655
 20
8.6991266834
 30
0.0
 10
12.6021863609
 20
8.7218977712
 30
0.0
 10
12.6005090475
 20
8.7452634326
 30
0.0
 10
12.5991332426
 20
8.7691767112
 30
0.0
 10
12.5980617527
 20
8.7935895407
 30
0.0
 10
12.5972967676
 20
8.8184528417
 30
0.0
 10
12.5968398522
 20
8.8437166211
 30
0.0
 10
12.5966919468
 20
8.8693300794
 30
0.0
 10
12.596853375
 20
8.8952416971
 30
0.0
 10
12.5973238051
 20
8.9213994077
 30
0.0
 10
12.5983645675
 20
8.956623519
 30
0.0
 10
12.6004310821
 20
9.000880628
 30
0.0
 10
12.6041045384
 20
9.0539884858
 30
0.0
 10
12.6081513022
 20
9.0981126665
 30
0.0
 10
12.6119704959
 20
9.1331510628
 30
0.0
 10
12.615106431
 20
9.1591316518
 30
0.0
 10
12.6185146533
 20
9.1848275206
 30
0.0
 10
12.6221883212
 20
9.2101870358
 30
0.0
 10
12.6261200192
 20
9.2351591928
 30
0.0
 10
12.6303018198
 20
9.2596937823
 30
0.0
 10
12.6347252871
 20
9.2837414754
 30
0.0
 10
12.6393814968
 20
9.3072539298
 30
0.0
 10
12.6442610484
 20
9.3301838892
 30
0.0
 10
12.649354089
 20
9.3524852794
 30
0.0
 10
12.6546503328
 20
9.3741133014
 30
0.0
 10
12.6601390815
 20
9.3950245231
 30
0.0
 10
12.6658092454
 20
9.4151769707
 30
0.0
 10
12.6716493681
 20
9.4345302172
 30
0.0
 10
12.6776476457
 20
9.4530454794
 30
0.0
 10
12.683791955
 20
9.4706856814
 30
0.0
 10
12.6900698856
 20
9.4874156134
 30
0.0
 10
12.6964687639
 20
9.5032017457
 30
0.0
 10
12.7019643619
 20
9.5157111423
 30
0.0
 10
12.7064194944
 20
9.5252147159
 30
0.0
 10
12.7097368711
 20
9.5319885459
 30
0.0
 10
12.7130748175
 20
9.5385037673
 30
0.0
 10
12.716431642
 20
9.544757144
 30
0.0
 10
12.7198056803
 20
9.5507455467
 30
0.0
 10
12.7231952533
 20
9.5564659906
 30
0.0
 10
12.7265986472
 20
9.5619156433
 30
0.0
 10
12.7300142182
 20
9.5670917678
 30
0.0
 10
12.7334402025
 20
9.5719918159
 30
0.0
 10
12.7368749697
 20
9.5766133468
 30
0.0
 10
12.7403168437
 20
9.5809541211
 30
0.0
 10
12.7437642217
 20
9.5850120266
 30
0.0
 10
12.7472152672
 20
9.5887848603
 30
0.0
 10
12.7495651006
 20
9.5911571041
 30
0.0
 10
12.7507406639
 20
9.5922926111
 30
0.0
  0
SPLINE
  5
379
100
AcDbEntity
  8
0
100
AcDbSpline
 62
7
  6
CONTINUOUS
 70
0
 71
3
 72
61
 73
57
 74
0
 42
0.0000001
 43
0.0000001
 44
0.0000000001
 40
0.0
 40
0.0
 40
0.0
 40
0.0
 40
0.0075207904
 40
0.0156241007
 40
0.0243309689
 40
0.0336547603
 40
0.0436025954
 40
0.0541765643
 40
0.0653746271
 40
0.0771912105
 40
0.08961776
 40
0.1026431866
 40
0.1162541224
 40
0.1304351787
 40
0.1451692134
 40
0.1604374622
 40
0.1762196584
 40
0.1924942253
 40
0.2092383649
 40
0.2264281143
 40
0.2440384956
 40
0.2620435953
 40
0.2804165963
 40
0.2991298957
 40
0.3374628296
 40
0.3768090534
 40
0.4169262264
 40
0.4575657766
 40
0.4984749676
 40
0.5393989304
 40
0.5800826787
 40
0.6202731264
 40
0.6597211135
 40
0.6981834743
 40
0.7169715328
 40
0.7354257875
 40
0.7535184594
 40
0.7712225432
 40
0.7885119167
 40
0.8053613716
 40
0.8217466988
 40
0.8376448326
 40
0.8530338991
 40
0.8678933099
 40
0.8822039526
 40
0.8959482935
 40
0.9091105101
 40
0.9216767558
 40
0.9336353927
 40
0.9449772332
 40
0.9556959738
 40
0.9657887367
 40
0.9752565375
 40
0.9841051853
 40
0.9923468797
 40
1.0
 40
1.0
 40
1.0
 40
1.0
 10
12.6808240207
 20
8.6205244655
 30
0.0
 10
12.679516953
 20
8.6221315765
 30
0.0
 10
12.6769416112
 20
8.6255855902
 30
0.0
 10
12.67331745
 20
8.631227921
 30
0.0
 10
12.6697967449
 20
8.6375109608
 30
0.0
 10
12.6663851166
 20
8.6444244366
 30
0.0
 10
12.6630877002
 20
8.6519575812
 30
0.0
 10
12.6599097921
 20
8.6600983151
 30
0.0
 10
12.656856581
 20
8.668833526
 30
0.0
 10
12.6539330911
 20
8.6781489991
 30
0.0
 10
12.6511441651
 20
8.6880294959
 30
0.0
 10
12.6484944756
 20
8.6984587964
 30
0.0
 10
12.6459884554
 20
8.7094197201
 30
0.0
 10
12.6436302878
 20
8.7208941656
 30
0.0
 10
12.6414239409
 20
8.732863162
 30
0.0
 10
12.6393731257
 20
8.7453068943
 30
0.0
 10
12.6374812662
 20
8.7582047364
 30
0.0
 10
12.6357515444
 20
8.7715353008
 30
0.0
 10
12.6341868781
 20
8.7852764724
 30
0.0
 10
12.6327898772
 20
8.7994054392
 30
0.0
 10
12.631562886
 20
8.8138987431
 30
0.0
 10
12.6305079866
 20
8.8287323107
 30
0.0
 10
12.6296269169
 20
8.8438815223
 30
0.0
 10
12.6286784156
 20
8.8646337962
 30
0.0
 10
12.6279464241
 20
8.8911767151
 30
0.0
 10
12.6277834154
 20
8.9236246949
 30
0.0
 10
12.628330481
 20
8.9567038633
 30
0.0
 10
12.6295841145
 20
8.9901944799
 30
0.0
 10
12.6315361063
 20
9.0238742171
 30
0.0
 10
12.6341735524
 20
9.0575194282
 30
0.0
 10
12.6374788912
 20
9.0909067025
 30
0.0
 10
12.641430073
 20
9.1238144094
 30
0.0
 10
12.6460007359
 20
9.1560239609
 30
0.0
 10
12.6503333257
 20
9.1823065011
 30
0.0
 10
12.6540940702
 20
9.2028171282
 30
0.0
 10
12.6570273666
 20
9.2177741084
 30
0.0
 10
12.6600904236
 20
9.2324001448
 30
0.0
 10
12.6632781674
 20
9.2466709602
 30
0.0
 10
12.6665852601
 20
9.2605628555
 30
0.0
 10
12.670006189
 20
9.2740527671
 30
0.0
 10
12.6735352619
 20
9.2871183009
 30
0.0
 10
12.6771665751
 20
9.2997377861
 30
0.0
 10
12.6808940655
 20
9.3118902989
 30
0.0
 10
12.6847115306
 20
9.3235556957
 30
0.0
 10
12.6886125892
 20
9.3347146688
 30
0.0
 10
12.6925907251
 20
9.3453487713
 30
0.0
 10
12.6966393247
 20
9.3554404392
 30
0.0
 10
12.7007516441
 20
9.3649730501
 30
0.0
 10
12.7049208376
 20
9.3739309544
 30
0.0
 10
12.7091400199
 20
9.3822994877
 30
0.0
 10
12.7134022507
 20
9.3900650298
 30
0.0
 10
12.7177005837
 20
9.3972150473
 30
0.0
 10
12.7220280755
 20
9.4037380345
 30
0.0
 10
12.7263781191
 20
9.4096238639
 30
0.0
 10
12.7307437116
 20
9.4148627497
 30
0.0
 10
12.7337696763
 20
9.4180332366
 30
0.0
 10
12.735285849
 20
9.4194977471
 30
0.0
  0
SPLINE
  5
37A
100
AcDbEntity
  8
0
100
AcDbSpline
 62
7
  6
CONTINUOUS
 70
0
 71
3
 72
9
 73
5
 74
0
 42
0.0000001
 43
0.0000001
 44
0.0000000001
 40
0.0
 40
0.0
 40
0.0
 40
0.0
 40
0.4959985505
 40
1.0
 40
1.0
 40
1.0
 40
1.0
 10
12.6707047898
 20
8.6472165397
 30
0.0
 10
12.6696736266
 20
8.6472880518
 30
0.0
 10
12.6676020097
 20
8.6475707872
 30
0.0
 10
12.6655855329
 20
8.648121315
 30
0.0
 10
12.6645911372
 20
8.6484594635
 30
0.0
  0
SPLINE
  5
37B
100
AcDbEntity
  8
0
100
AcDbSpline
 62
7
  6
CONTINUOUS
 70
0
 71
3
 72
9
 73
5
 74
0
 42
0.0000001
 43
0.0000001
 44
0.0000000001
 40
0.0
 40
0.0
 40
0.0
 40
0.0
 40
0.4959410583
 40
1.0
 40
1.0
 40
1.0
 40
1.0
 10
12.7225928376
 20
9.3954194461
 30
0.0
 10
12.7215540895
 20
9.3954914843
 30
0.0
 10
12.7194475474
 20
9.3954964171
 30
0.0
 10
12.7173591905
 20
9.3952245135
 30
0.0
 10
12.7163201733
 20
9.3950234804
 30
0.0
  0
SPLINE
  5
37C
100
AcDbEntity
  8
0
100
AcDbSpline
 62
7
  6
CONTINUOUS
 70
0
 71
3
 72
64
 73
60
 74
0
 42
0.0000001
 43
0.0000001
 44
0.0000000001
 40
0.0
 40
0.0
 40
0.0
 40
0.0
 40
0.0155849423
 40
0.031117901
 40
0.0465980248
 40
0.0620275802
 40
0.0774080885
 40
0.092741825
 40
0.1080315843
 40
0.1232805473
 40
0.1384923382
 40
0.1536709665
 40
0.1688207867
 40
0.1839464552
 40
0.1990528834
 40
0.2141451895
 40
0.2292286421
 40
0.2443086021
 40
0.2593904681
 40
0.27447962
 40
0.2895813603
 40
0.3047008548
 40
0.3198430804
 40
0.3350127757
 40
0.3502143898
 40
0.3654520353
 40
0.3807294495
 40
0.3960499624
 40
0.4114164624
 40
0.426831368
 40
0.4422966121
 40
0.4578136293
 40
0.4733833427
 40
0.4890061576
 40
0.5046819692
 40
0.520410168
 40
0.5361896463
 40
0.552018813
 40
0.5678956195
 40
0.5838175796
 40
0.5997817917
 40
0.6157849717
 40
0.6318234885
 40
0.6478933955
 40
0.6801016685
 40
0.7123819661
 40
0.7446952952
 40
0.7770015176
 40
0.8092607375
 40
0.8414347007
 40
0.8734881382
 40
0.8894641594
 40
0.9053988579
 40
0.9212891999
 40
0.9371326152
 40
0.9529269152
 40
0.9686701087
 40
0.9843619314
 40
1.0
 40
1.0
 40
1.0
 40
1.0
 10
10.7641454984
 20
7.6295490742
 30
0.0
 10
10.7641454984
 20
7.6253684107
 30
0.0
 10
10.7639408737
 20
7.617019547
 30
0.0
 10
10.7630173515
 20
7.6045488885
 30
0.0
 10
10.7614797221
 20
7.5921806135
 30
0.0
 10
10.7593318608
 20
7.5799451438
 30
0.0
 10
10.7565787746
 20
7.5678716905
 30
0.0
 10
10.7532271305
 20
7.5559894385
 30
0.0
 10
10.7492849928
 20
7.5443270152
 30
0.0
 10
10.7447617949
 20
7.5329125518
 30
0.0
 10
10.7396684206
 20
7.5217735817
 30
0.0
 10
10.7340171573
 20
7.5109369572
 30
0.0
 10
10.7278216086
 20
7.5004288173
 30
0.0
 10
10.7210966668
 20
7.4902745326
 30
0.0
 10
10.7138585533
 20
7.4804985933
 30
0.0
 10
10.706124734
 20
7.4711245694
 30
0.0
 10
10.6979138472
 20
7.46217508
 30
0.0
 10
10.6892456676
 20
7.4536717417
 30
0.0
 10
10.6801411283
 20
7.445635043
 30
0.0
 10
10.6706221995
 20
7.4380843543
 30
0.0
 10
10.6607118321
 20
7.4310378956
 30
0.0
 10
10.6504339218
 20
7.4245126761
 30
0.0
 10
10.6398132866
 20
7.4185243883
 30
0.0
 10
10.6288755481
 20
7.4130874512
 30
0.0
 10
10.617647077
 20
7.408214982
 30
0.0
 10
10.6061549557
 20
7.4039187152
 30
0.0
 10
10.5944269125
 20
7.4002089512
 30
0.0
 10
10.5824912245
 20
7.3970946061
 30
0.0
 10
10.5703766597
 20
7.3945831936
 30
0.0
 10
10.5581124264
 20
7.3926807242
 30
0.0
 10
10.5457280875
 20
7.391391726
 30
0.0
 10
10.5332534831
 20
7.3907192808
 30
0.0
 10
10.5207186689
 20
7.3906650151
 30
0.0
 10
10.5081538442
 20
7.3912289992
 30
0.0
 10
10.4955892715
 20
7.392409829
 30
0.0
 10
10.48305521
 20
7.3942046474
 30
0.0
 10
10.4705818483
 20
7.3966091328
 30
0.0
 10
10.4581992146
 20
7.3996174317
 30
0.0
 10
10.4459371152
 20
7.4032222709
 30
0.0
 10
10.4338250805
 20
7.4074149691
 30
0.0
 10
10.4218922516
 20
7.4121854368
 30
0.0
 10
10.4101674154
 20
7.4175220823
 30
0.0
 10
10.3986785018
 20
7.4234122507
 30
0.0
 10
10.383702895
 20
7.4319896102
 30
0.0
 10
10.3657131483
 20
7.444022938
 30
0.0
 10
10.3455186274
 20
7.4604034333
 30
0.0
 10
10.3268879335
 20
7.4785819493
 30
0.0
 10
10.3100012069
 20
7.4983831308
 30
0.0
 10
10.2950201256
 20
7.5196175265
 30
0.0
 10
10.2820893284
 20
7.542079952
 30
0.0
 10
10.2731136446
 20
7.561670203
 30
0.0
 10
10.2670765396
 20
7.5777369902
 30
0.0
 10
10.2631334823
 20
7.5899435388
 30
0.0
 10
10.2597807031
 20
7.6022881298
 30
0.0
 10
10.2570261484
 20
7.6147413834
 30
0.0
 10
10.2548765794
 20
7.6272731502
 30
0.0
 10
10.2533370506
 20
7.6398535611
 30
0.0
 10
10.2524114986
 20
7.6524516927
 30
0.0
 10
10.2522047801
 20
7.660857369
 30
0.0
 10
10.2522047801
 20
7.6650522836
 30
0.0
  0
SPLINE
  5
37D
100
AcDbEntity
  8
0
100
AcDbSpline
 62
7
  6
CONTINUOUS
 70
0
 71
3
 72
91
 73
87
 74
0
 42
0.0000001
 43
0.0000001
 44
0.0000000001
 40
0.0
 40
0.0
 40
0.0
 40
0.0
 40
0.0039801824
 40
0.0081241125
 40
0.0124359604
 40
0.0169193082
 40
0.0215771808
 40
0.0264119179
 40
0.0314251804
 40
0.036618156
 40
0.0419915391
 40
0.0475456573
 40
0.0532804234
 40
0.0591954189
 40
0.0652899227
 40
0.0715629017
 40
0.0780131034
 40
0.0846389837
 40
0.0984102885
 40
0.1128608532
 40
0.1279713725
 40
0.1437199568
 40
0.1600824082
 40
0.1770324532
 40
0.1945419392
 40
0.2125810061
 40
0.2311182422
 40
0.2501208275
 40
0.2695546626
 40
0.2893844909
 40
0.3095740146
 40
0.330086005
 40
0.35088241
 40
0.3719244606
 40
0.3931727759
 40
0.4145874652
 40
0.4361282289
 40
0.4577544586
 40
0.4794253371
 40
0.501099938
 40
0.5227373261
 40
0.5442966575
 40
0.5657372785
 40
0.5870188258
 40
0.6081013261
 40
0.6289452975
 40
0.6495118524
 40
0.6697628021
 40
0.6896607608
 40
0.7091692527
 40
0.7282528228
 40
0.7468771515
 40
0.7650091753
 40
0.7826172172
 40
0.7996711268
 40
0.8161424293
 40
0.8320044948
 40
0.8472327309
 40
0.8618048077
 40
0.8757009255
 40
0.8889041429
 40
0.8952417292
 40
0.9014012652
 40
0.9073816417
 40
0.9131820083
 40
0.9188018518
 40
0.9242409423
 40
0.9294994633
 40
0.9345779585
 40
0.9394774438
 40
0.944199427
 40
0.9487459568
 40
0.95311974
 40
0.9573241405
 40
0.9613633601
 40
0.9652424499
 40
0.9689674846
 40
0.9725456466
 40
0.9759853437
 40
0.9824865016
 40
0.9855753543
 40
0.9885738189
 40
0.9914977372
 40
0.9943643366
 40
0.9971920099
 40
1.0
 40
1.0
 40
1.0
 40
1.0
 10
10.0635348559
 20
10.7127013312
 30
0.0
 10
10.0648360878
 20
10.7139582247
 30
0.0
 10
10.0675511772
 20
10.7164631222
 30
0.0
 10
10.0718619042
 20
10.7201217136
 30
0.0
 10
10.0764891839
 20
10.7237540614
 30
0.0
 10
10.0814304778
 20
10.7273582371
 30
0.0
 10
10.0866833769
 20
10.7309325574
 30
0.0
 10
10.0922453073
 20
10.7344752834
 30
0.0
 10
10.0981134873
 20
10.7379847164
 30
0.0
 10
10.1042850054
 20
10.7414590353
 30
0.0
 10
10.110756745
 20
10.7448965724
 30
0.0
 10
10.117525489
 20
10.7482955592
 30
0.0
 10
10.124587834
 20
10.751654324
 30
0.0
 10
10.1319402374
 20
10.7549711694
 30
0.0
 10
10.1395790084
 20
10.758244405
 30
0.0
 10
10.1475002915
 20
10.7614724137
 30
0.0
 10
10.1557001205
 20
10.7646535358
 30
0.0
 10
10.1671466328
 20
10.7688848758
 30
0.0
 10
10.1821283333
 20
10.7740344986
 30
0.0
 10
10.200925174
 20
10.7799253565
 30
0.0
 10
10.2207271305
 20
10.7855923394
 30
0.0
 10
10.2414942305
 20
10.7910239199
 30
0.0
 10
10.263184703
 20
10.796209034
 30
0.0
 10
10.2857548061
 20
10.8011371191
 30
0.0
 10
10.3091589998
 20
10.8057981339
 30
0.0
 10
10.3333500223
 20
10.8101825858
 30
0.0
 10
10.3582789987
 20
10.8142815468
 30
0.0
 10
10.3838955445
 20
10.8180866719
 30
0.0
 10
10.4101478714
 20
10.8215902154
 30
0.0
 10
10.4369828946
 20
10.824785047
 30
0.0
 10
10.4643463416
 20
10.8276646654
 30
0.0
 10
10.4921828629
 20
10.8302232107
 30
0.0
 10
10.5204361444
 20
10.8324554797
 30
0.0
 10
10.549049024
 20
10.834356934
 30
0.0
 10
10.5779636084
 20
10.8359237078
 30
0.0
 10
10.6071213918
 20
10.8371526159
 30
0.0
 10
10.6364633746
 20
10.8380411594
 30
0.0
 10
10.6659301823
 20
10.8385875315
 30
0.0
 10
10.6954621866
 20
10.8387906197
 30
0.0
 10
10.724999626
 20
10.8386500115
 30
0.0
 10
10.7544827285
 20
10.8381659941
 30
0.0
 10
10.7838518328
 20
10.8373395523
 30
0.0
 10
10.8130475098
 20
10.8361723662
 30
0.0
 10
10.8420106821
 20
10.8346668086
 30
0.0
 10
10.8706827447
 20
10.8328259397
 30
0.0
 10
10.8990056835
 20
10.8306535013
 30
0.0
 10
10.9269221951
 20
10.8281539108
 30
0.0
 10
10.9543758041
 20
10.8253322541
 30
0.0
 10
10.9813109779
 20
10.8221942716
 30
0.0
 10
11.0076732393
 20
10.8187463483
 30
0.0
 10
11.0334092785
 20
10.8149955007
 30
0.0
 10
11.058467062
 20
10.8109493631
 30
0.0
 10
11.0827959412
 20
10.8066161718
 30
0.0
 10
11.1063467596
 20
10.8020047506
 30
0.0
 10
11.1290719585
 20
10.7971244937
 30
0.0
 10
11.1509256742
 20
10.7919853436
 30
0.0
 10
11.1718638445
 20
10.7865977693
 30
0.0
 10
11.1918442802
 20
10.780972744
 30
0.0
 10
11.2108268506
 20
10.7751217166
 30
0.0
 10
11.228773272
 20
10.769056585
 30
0.0
 10
11.2430234131
 20
10.7637644502
 30
0.0
 10
11.2538692398
 20
10.7594235983
 30
0.0
 10
11.2616112031
 20
10.7561665959
 30
0.0
 10
11.2690681796
 20
10.7528654306
 30
0.0
 10
11.2762364191
 20
10.7495217031
 30
0.0
 10
11.2831123354
 20
10.7461371574
 30
0.0
 10
11.2896924595
 20
10.7427134295
 30
0.0
 10
11.2959735159
 20
10.7392522933
 30
0.0
 10
11.3019523483
 20
10.7357554334
 30
0.0
 10
11.307625978
 20
10.7322246061
 30
0.0
 10
11.312991584
 20
10.7286615665
 30
0.0
 10
11.3180464747
 20
10.7250680246
 30
0.0
 10
11.3227881711
 20
10.72144579
 30
0.0
 10
11.327214273
 20
10.7177965332
 30
0.0
 10
11.3313226126
 20
10.7141220688
 30
0.0
 10
11.3351111183
 20
10.7104240338
 30
0.0
 10
11.338577803
 20
10.7067042905
 30
0.0
 10
11.3417211703
 20
10.7029640922
 30
0.0
 10
11.3454086371
 20
10.6980461627
 30
0.0
 10
11.3485398967
 20
10.6929956746
 30
0.0
 10
11.3510259807
 20
10.6878373459
 30
0.0
 10
11.3525280615
 20
10.6840223768
 30
0.0
 10
11.3536977866
 20
10.6801981253
 30
0.0
 10
11.3545341968
 20
10.6763664489
 30
0.0
 10
11.3550363679
 20
10.6725300793
 30
0.0
 10
11.3551481616
 20
10.6699670839
 30
0.0
 10
11.3551481614
 20
10.668690749
 30
0.0
  0
SPLINE
  5
37E
100
AcDbEntity
  8
0
100
AcDbSpline
 62
7
  6
CONTINUOUS
 70
0
 71
3
 72
64
 73
60
 74
0
 42
0.0000001
 43
0.0000001
 44
0.0000000001
 40
0.0
 40
0.0
 40
0.0
 40
0.0
 40
0.0156380686
 40
0.0313298913
 40
0.0470730848
 40
0.0628673848
 40
0.0787108001
 40
0.0946011421
 40
0.1105358406
 40
0.1265118618
 40
0.1585652993
 40
0.1907392625
 40
0.2229984824
 40
0.2553047048
 40
0.2876180339
 40
0.3198983315
 40
0.3521066045
 40
0.3681765115
 40
0.3842150283
 40
0.4002182083
 40
0.4161824204
 40
0.4321043805
 40
0.447981187
 40
0.4638103537
 40
0.479589832
 40
0.4953180308
 40
0.5109938424
 40
0.5266166573
 40
0.5421863707
 40
0.5577033879
 40
0.573168632
 40
0.5885835376
 40
0.6039500376
 40
0.6192705505
 40
0.6345479647
 40
0.6497856102
 40
0.6649872243
 40
0.6801569196
 40
0.6952991452
 40
0.7104186397
 40
0.72552038
 40
0.7406095319
 40
0.7556913979
 40
0.7707713579
 40
0.7858548105
 40
0.8009471166
 40
0.8160535448
 40
0.8311792133
 40
0.8463290335
 40
0.8615076618
 40
0.8767194527
 40
0.8919684157
 40
0.907258175
 40
0.9225919115
 40
0.9379724198
 40
0.9534019752
 40
0.968882099
 40
0.9844150577
 40
1.0
 40
1.0
 40
1.0
 40
1.0
 10
10.7641454984
 20
7.6295490742
 30
0.0
 10
10.7641454984
 20
7.6337439889
 30
0.0
 10
10.7639387799
 20
7.6421496652
 30
0.0
 10
10.7630132279
 20
7.6547477967
 30
0.0
 10
10.7614736992
 20
7.6673282077
 30
0.0
 10
10.7593241302
 20
7.6798599744
 30
0.0
 10
10.7565695755
 20
7.6923132281
 30
0.0
 10
10.7532167962
 20
7.7046578191
 30
0.0
 10
10.7492737389
 20
7.7168643676
 30
0.0
 10
10.7432366339
 20
7.7329311548
 30
0.0
 10
10.7342609501
 20
7.7525214058
 30
0.0
 10
10.721330153
 20
7.7749838314
 30
0.0
 10
10.7063490717
 20
7.796218227
 30
0.0
 10
10.6894623451
 20
7.8160194085
 30
0.0
 10
10.6708316512
 20
7.8341979246
 30
0.0
 10
10.6506371302
 20
7.8505784198
 30
0.0
 10
10.6326473835
 20
7.8626117477
 30
0.0
 10
10.6176717768
 20
7.8711891071
 30
0.0
 10
10.6061828632
 20
7.8770792755
 30
0.0
 10
10.5944580269
 20
7.8824159211
 30
0.0
 10
10.582525198
 20
7.8871863888
 30
0.0
 10
10.5704131633
 20
7.8913790869
 30
0.0
 10
10.5581510639
 20
7.8949839261
 30
0.0
 10
10.5457684302
 20
7.897992225
 30
0.0
 10
10.5332950686
 20
7.9003967104
 30
0.0
 10
10.5207610071
 20
7.9021915288
 30
0.0
 10
10.5081964343
 20
7.9033723587
 30
0.0
 10
10.4956316096
 20
7.9039363427
 30
0.0
 10
10.4830967954
 20
7.903882077
 30
0.0
 10
10.470622191
 20
7.9032096319
 30
0.0
 10
10.4582378521
 20
7.9019206337
 30
0.0
 10
10.4459736189
 20
7.9000181643
 30
0.0
 10
10.433859054
 20
7.8975067517
 30
0.0
 10
10.4219233661
 20
7.8943924067
 30
0.0
 10
10.4101953229
 20
7.8906826427
 30
0.0
 10
10.3987032016
 20
7.8863863758
 30
0.0
 10
10.3874747305
 20
7.8815139066
 30
0.0
 10
10.3765369919
 20
7.8760769696
 30
0.0
 10
10.3659163568
 20
7.8700886818
 30
0.0
 10
10.3556384465
 20
7.8635634623
 30
0.0
 10
10.3457280791
 20
7.8565170036
 30
0.0
 10
10.3362091502
 20
7.8489663149
 30
0.0
 10
10.3271046109
 20
7.8409296162
 30
0.0
 10
10.3184364314
 20
7.8324262778
 30
0.0
 10
10.3102255445
 20
7.8234767885
 30
0.0
 10
10.3024917252
 20
7.8141027646
 30
0.0
 10
10.2952536117
 20
7.8043268252
 30
0.0
 10
10.2885286699
 20
7.7941725405
 30
0.0
 10
10.2823331212
 20
7.7836644007
 30
0.0
 10
10.2766818579
 20
7.7728277761
 30
0.0
 10
10.2715884837
 20
7.761688806
 30
0.0
 10
10.2670652858
 20
7.7502743427
 30
0.0
 10
10.2631231481
 20
7.7386119194
 30
0.0
 10
10.2597715039
 20
7.7267296674
 30
0.0
 10
10.2570184178
 20
7.714656214
 30
0.0
 10
10.2548705565
 20
7.7024207443
 30
0.0
 10
10.253332927
 20
7.6900524694
 30
0.0
 10
10.2524094049
 20
7.6775818108
 30
0.0
 10
10.2522047801
 20
7.6692329471
 30
0.0
 10
10.2522047801
 20
7.6650522836
 30
0.0
  0
SPLINE
  5
37F
100
AcDbEntity
  8
0
100
AcDbSpline
 62
7
  6
CONTINUOUS
 70
0
 71
3
 72
44
 73
40
 74
0
 42
0.0000001
 43
0.0000001
 44
0.0000000001
 40
0.0
 40
0.0
 40
0.0
 40
0.0
 40
0.0149722236
 40
0.0299475067
 40
0.0449288886
 40
0.0599193736
 40
0.0749219097
 40
0.08993937
 40
0.1049745397
 40
0.1200300961
 40
0.1351085917
 40
0.1502124449
 40
0.1804994096
 40
0.2109128633
 40
0.2414659442
 40
0.2721685685
 40
0.3030272475
 40
0.3340449904
 40
0.3652212956
 40
0.396552213
 40
0.4280304762
 40
0.4596457066
 40
0.4913846713
 40
0.5232315866
 40
0.555168468
 40
0.587175515
 40
0.6192315195
 40
0.6513142962
 40
0.6834011282
 40
0.7154692177
 40
0.7474961397
 40
0.7794602892
 40
0.8113413161
 40
0.8431205468
 40
0.8747813742
 40
0.9063096205
 40
0.9376938957
 40
0.9689255646
 40
1.0
 40
1.0
 40
1.0
 40
1.0
 10
10.8097227809
 20
7.3268289108
 30
0.0
 10
10.8060727067
 20
7.3233032066
 30
0.0
 10
10.7986307998
 20
7.3163953988
 30
0.0
 10
10.7870637428
 20
7.3064843895
 30
0.0
 10
10.775107215
 20
7.2970365134
 30
0.0
 10
10.7627779139
 20
7.2880649678
 30
0.0
 10
10.7500927052
 20
7.2795820945
 30
0.0
 10
10.7370691031
 20
7.2715995345
 30
0.0
 10
10.7237250089
 20
7.2641282488
 30
0.0
 10
10.7100788357
 20
7.2571785926
 30
0.0
 10
10.6961491094
 20
7.250759978
 30
0.0
 10
10.677209115
 20
7.2429154711
 30
0.0
 10
10.6529096433
 20
7.2344801336
 30
0.0
 10
10.6229643446
 20
7.2266186846
 30
0.0
 10
10.5923655906
 20
7.2210493618
 30
0.0
 10
10.5612829911
 20
7.21780297
 30
0.0
 10
10.5298872818
 20
7.2168968281
 30
0.0
 10
10.4983512158
 20
7.2183355118
 30
0.0
 10
10.4668481191
 20
7.2221107258
 30
0.0
 10
10.4355510956
 20
7.2282013911
 30
0.0
 10
10.4046320271
 20
7.2365736619
 30
0.0
 10
10.3742606661
 20
7.2471812459
 30
0.0
 10
10.3446037336
 20
7.2599656671
 30
0.0
 10
10.3158239755
 20
7.2748564847
 30
0.0
 10
10.2880792972
 20
7.2917717486
 30
0.0
 10
10.261521943
 20
7.3106184933
 30
0.0
 10
10.2362976369
 20
7.3312931764
 30
0.0
 10
10.2125447655
 20
7.353682228
 30
0.0
 10
10.1903936916
 20
7.3776627472
 30
0.0
 10
10.1699660387
 20
7.4031031411
 30
0.0
 10
10.1513739468
 20
7.4298637764
 30
0.0
 10
10.1347195448
 20
7.4577978135
 30
0.0
 10
10.1200944158
 20
7.4867520035
 30
0.0
 10
10.1075790005
 20
7.5165674444
 30
0.0
 10
10.0972421993
 20
7.547080551
 30
0.0
 10
10.0891410429
 20
7.5781236962
 30
0.0
 10
10.0833203784
 20
7.609527007
 30
0.0
 10
10.0798123642
 20
7.6411158024
 30
0.0
 10
10.079026649
 20
7.6622424299
 30
0.0
 10
10.079026649
 20
7.6727750443
 30
0.0
  0
SPLINE
  5
380
100
AcDbEntity
  8
0
100
AcDbSpline
 62
7
  6
CONTINUOUS
 70
0
 71
3
 72
41
 73
37
 74
0
 42
0.0000001
 43
0.0000001
 44
0.0000000001
 40
0.0
 40
0.0
 40
0.0
 40
0.0
 40
0.014969515
 40
0.0299431984
 40
0.0449240414
 40
0.0599149947
 40
0.0899329146
 40
0.1200248653
 40
0.1502111691
 40
0.1805099223
 40
0.2109365945
 40
0.2415037013
 40
0.2722205606
 40
0.30309313
 40
0.3341239224
 40
0.3653120023
 40
0.3966530609
 40
0.428139556
 40
0.4597609115
 40
0.4915037758
 40
0.5233523275
 40
0.5552886188
 40
0.5872929499
 40
0.6193442737
 40
0.6514206177
 40
0.6834995176
 40
0.7155584589
 40
0.7475753191
 40
0.7795288037
 40
0.8113988721
 40
0.8431671462
 40
0.87481729
 40
0.9063353607
 40
0.937710179
 40
0.9689332276
 40
1.0
 40
1.0
 40
1.0
 40
1.0
 10
10.8096943626
 20
7.3268615734
 30
0.0
 10
10.8060133985
 20
7.3234114263
 30
0.0
 10
10.7985132372
 20
7.3166548806
 30
0.0
 10
10.7868698455
 20
7.3069709514
 30
0.0
 10
10.7748472595
 20
7.2977493577
 30
0.0
 10
10.7583289272
 20
7.286083768
 30
0.0
 10
10.736803805
 20
7.2727140264
 30
0.0
 10
10.7097470601
 20
7.2587181143
 30
0.0
 10
10.681594543
 20
7.2468351233
 30
0.0
 10
10.6525006408
 20
7.2371302357
 30
0.0
 10
10.6226235354
 20
7.2296557623
 30
0.0
 10
10.5921259481
 20
7.2244520214
 30
0.0
 10
10.5611737809
 20
7.221546906
 30
0.0
 10
10.5299353393
 20
7.2209558454
 30
0.0
 10
10.4985803941
 20
7.2226816631
 30
0.0
 10
10.467279262
 20
7.226714573
 30
0.0
 10
10.4362018887
 20
7.2330323204
 30
0.0
 10
10.4055169513
 20
7.2416003132
 30
0.0
 10
10.3753909343
 20
7.2523717371
 30
0.0
 10
10.3459872415
 20
7.2652878639
 30
0.0
 10
10.3174653385
 20
7.2802784076
 30
0.0
 10
10.289979906
 20
7.2972618965
 30
0.0
 10
10.2636799649
 20
7.3161460389
 30
0.0
 10
10.2387081149
 20
7.3368282974
 30
0.0
 10
10.2151997843
 20
7.3591964449
 30
0.0
 10
10.1932824906
 20
7.3831291436
 30
0.0
 10
10.1730751076
 20
7.4084965599
 30
0.0
 10
10.1546872896
 20
7.4351611246
 30
0.0
 10
10.1382188893
 20
7.4629782619
 30
0.0
 10
10.1237593712
 20
7.4917971345
 30
0.0
 10
10.1113873189
 20
7.5214614387
 30
0.0
 10
10.1011700709
 20
7.5518103412
 30
0.0
 10
10.0931633384
 20
7.5826790773
 30
0.0
 10
10.087410901
 20
7.6139007
 30
0.0
 10
10.0839441708
 20
7.6453035906
 30
0.0
 10
10.0831677505
 20
7.6663047687
 30
0.0
 10
10.0831677505
 20
7.6767750414
 30
0.0
  0
SPLINE
  5
381
100
AcDbEntity
  8
0
100
AcDbSpline
 62
7
  6
CONTINUOUS
 70
0
 71
3
 72
41
 73
37
 74
0
 42
0.0000001
 43
0.0000001
 44
0.0000000001
 40
0.0
 40
0.0
 40
0.0
 40
0.0
 40
0.0299421703
 40
0.0599087166
 40
0.0899234211
 40
0.1200088977
 40
0.150186053
 40
0.1804736004
 40
0.2108876395
 40
0.2414413098
 40
0.2721445264
 40
0.3030038
 40
0.3340221415
 40
0.3651990482
 40
0.3965305685
 40
0.4280094374
 40
0.4596252765
 40
0.4913648514
 40
0.5232123788
 40
0.5551498746
 40
0.5871575376
 40
0.6192141589
 40
0.6512975532
 40
0.6833850026
 40
0.7154537088
 40
0.731476412
 40
0.7474860771
 40
0.7794508401
 40
0.8113324799
 40
0.8431123195
 40
0.8747737613
 40
0.9063025943
 40
0.937687506
 40
0.953325536
 40
0.9689249997
 40
1.0
 40
1.0
 40
1.0
 40
1.0
 10
10.6792051529
 20
7.4857758531
 30
0.0
 10
10.6753065711
 20
7.4820101322
 30
0.0
 10
10.6672028862
 20
7.4747825676
 30
0.0
 10
10.6542194949
 20
7.4649363138
 30
0.0
 10
10.6404746348
 20
7.4561343963
 30
0.0
 10
10.6260450972
 20
7.4484262003
 30
0.0
 10
10.6110102165
 20
7.4418538351
 30
0.0
 10
10.5954529676
 20
7.4364534303
 30
0.0
 10
10.57945908
 20
7.4322545341
 30
0.0
 10
10.5631166684
 20
7.4292800718
 30
0.0
 10
10.5465157112
 20
7.4275462019
 30
0.0
 10
10.5297475607
 20
7.4270622469
 30
0.0
 10
10.5129044379
 20
7.4278306498
 30
0.0
 10
10.4960789287
 20
7.4298469759
 30
0.0
 10
10.479363479
 20
7.4330999461
 30
0.0
 10
10.4628498932
 20
7.4375715066
 30
0.0
 10
10.4466288366
 20
7.4432369342
 30
0.0
 10
10.4307893449
 20
7.4500649756
 30
0.0
 10
10.4154183423
 20
7.4580180223
 30
0.0
 10
10.4006001729
 20
7.4670523146
 30
0.0
 10
10.3864161355
 20
7.4771181946
 30
0.0
 10
10.3729440777
 20
7.4881603278
 30
0.0
 10
10.3602578441
 20
7.5001181904
 30
0.0
 10
10.3484273602
 20
7.5129257051
 30
0.0
 10
10.3393319994
 20
7.5242530772
 30
0.0
 10
10.3325460108
 20
7.5336683961
 30
0.0
 10
10.3261014594
 20
7.5432979844
 30
0.0
 10
10.318692038
 20
7.5557255301
 30
0.0
 10
10.3108810757
 20
7.571189432
 30
0.0
 10
10.3041966571
 20
7.5871136314
 30
0.0
 10
10.2986758804
 20
7.6034104567
 30
0.0
 10
10.2943491583
 20
7.6199900345
 30
0.0
 10
10.291755202
 20
7.6339850008
 30
0.0
 10
10.2903000601
 20
7.6452297702
 30
0.0
 10
10.2892615666
 20
7.6564637846
 30
0.0
 10
10.2889471216
 20
7.6649172966
 30
0.0
 10
10.2889471216
 20
7.6705426622
 30
0.0
  0
SPLINE
  5
382
100
AcDbEntity
  8
0
100
AcDbSpline
 62
7
  6
CONTINUOUS
 70
0
 71
3
 72
18
 73
14
 74
0
 42
0.0000001
 43
0.0000001
 44
0.0000000001
 40
0.0
 40
0.0
 40
0.0
 40
0.0
 40
0.0548620589
 40
0.1099280789
 40
0.165399508
 40
0.2214731255
 40
0.2783387361
 40
0.3361775086
 40
0.4554063416
 40
0.5804417492
 40
0.7123343341
 40
0.8519577333
 40
1.0
 40
1.0
 40
1.0
 40
1.0
 10
10.0411481614
 20
10.6686907489
 30
0.0
 10
10.0411481615
 20
10.6696186162
 30
0.0
 10
10.0412070637
 20
10.6714783332
 30
0.0
 10
10.0414718663
 20
10.674264883
 30
0.0
 10
10.0419130533
 20
10.6770498271
 30
0.0
 10
10.0425304791
 20
10.6798321482
 30
0.0
 10
10.0433239044
 20
10.682611144
 30
0.0
 10
10.0446289115
 20
10.6863481483
 30
0.0
 10
10.0467195107
 20
10.6910221402
 30
0.0
 10
10.0499015331
 20
10.6965421425
 30
0.0
 10
10.0537770639
 20
10.7020264152
 30
0.0
 10
10.0583402067
 20
10.7074694541
 30
0.0
 10
10.0617339869
 20
10.7109618251
 30
0.0
 10
10.0635348559
 20
10.7127013312
 30
0.0
  0
SPLINE
  5
383
100
AcDbEntity
  8
0
100
AcDbSpline
 62
7
  6
CONTINUOUS
 70
0
 71
3
 72
23
 73
19
 74
0
 42
0.0000001
 43
0.0000001
 44
0.0000000001
 40
0.0
 40
0.0
 40
0.0
 40
0.0
 40
0.0616994066
 40
0.1234251728
 40
0.1851973399
 40
0.2470354942
 40
0.308958575
 40
0.3709846904
 40
0.4331309438
 40
0.495413278
 40
0.5578463251
 40
0.6204432928
 40
0.6832158168
 40
0.7461738608
 40
0.8093259207
 40
0.8726776
 40
0.9362358155
 40
1.0
 40
1.0
 40
1.0
 40
1.0
 10
10.1983772997
 20
7.9597432683
 30
0.0
 10
10.1938065539
 20
7.9551935392
 30
0.0
 10
10.1848913931
 20
7.9458594366
 30
0.0
 10
10.1722395676
 20
7.9311978969
 30
0.0
 10
10.1603336537
 20
7.9159054287
 30
0.0
 10
10.1492005682
 20
7.900016491
 30
0.0
 10
10.1388649213
 20
7.8835662901
 30
0.0
 10
10.1293497128
 20
7.8665914289
 30
0.0
 10
10.1206760581
 20
7.8491296432
 30
0.0
 10
10.1128631969
 20
7.8312197635
 30
0.0
 10
10.1059284547
 20
7.8129016038
 30
0.0
 10
10.0998872093
 20
7.7942158783
 30
0.0
 10
10.094752859
 20
7.7752041177
 30
0.0
 10
10.0905367588
 20
7.7559085404
 30
0.0
 10
10.0872482813
 20
7.7363721249
 30
0.0
 10
10.0848945487
 20
7.7166379644
 30
0.0
 10
10.0834809495
 20
7.6967506554
 30
0.0
 10
10.0831677505
 20
7.6834400303
 30
0.0
 10
10.0831677505
 20
7.6767750414
 30
0.0
  0
SPLINE
  5
384
100
AcDbEntity
  8
0
100
AcDbSpline
 62
7
  6
CONTINUOUS
 70
0
 71
3
 72
9
 73
5
 74
0
 42
0.0000001
 43
0.0000001
 44
0.0000000001
 40
0.0
 40
0.0
 40
0.0
 40
0.0
 40
0.4862217708
 40
1.0
 40
1.0
 40
1.0
 40
1.0
 10
10.054273172
 20
10.6348951546
 30
0.0
 10
10.0556511668
 20
10.6366525813
 30
0.0
 10
10.0586281809
 20
10.6401564017
 30
0.0
 10
10.0618375434
 20
10.6434470412
 30
0.0
 10
10.0635348559
 20
10.6450865193
 30
0.0
  0
SPLINE
  5
385
100
AcDbEntity
  8
0
100
AcDbSpline
 62
7
  6
CONTINUOUS
 70
0
 71
3
 72
21
 73
17
 74
0
 42
0.0000001
 43
0.0000001
 44
0.0000000001
 40
0.0
 40
0.0
 40
0.0
 40
0.0
 40
0.0617147758
 40
0.1234506606
 40
0.1852285516
 40
0.2470689039
 40
0.3089915432
 40
0.3710154715
 40
0.4331586565
 40
0.4954378534
 40
0.5578684959
 40
0.6204644995
 40
0.6832380575
 40
0.7461999878
 40
0.87268242
 40
1.0
 40
1.0
 40
1.0
 40
1.0
 10
10.3526742555
 20
7.8238254933
 30
0.0
 10
10.3501509242
 20
7.8213881553
 30
0.0
 10
10.3452279502
 20
7.8163817727
 30
0.0
 10
10.3382381012
 20
7.8085010289
 30
0.0
 10
10.3316576426
 20
7.8002658595
 30
0.0
 10
10.3255020065
 20
7.7916955275
 30
0.0
 10
10.3197852782
 20
7.7828097601
 30
0.0
 10
10.3145206626
 20
7.7736290651
 30
0.0
 10
10.3097203181
 20
7.764174598
 30
0.0
 10
10.305395256
 20
7.7544681988
 30
0.0
 10
10.3015554236
 20
7.7445322343
 30
0.0
 10
10.2982097092
 20
7.7343896775
 30
0.0
 10
10.2953657411
 20
7.7240636533
 30
0.0
 10
10.2922471732
 20
7.7100641618
 30
0.0
 10
10.2896379943
 20
7.6922170607
 30
0.0
 10
10.2889471216
 20
7.6777801816
 30
0.0
 10
10.2889471216
 20
7.6705426622
 30
0.0
  0
SPLINE
  5
386
100
AcDbEntity
  8
0
100
AcDbSpline
 62
7
  6
CONTINUOUS
 70
0
 71
3
 72
41
 73
37
 74
0
 42
0.0000001
 43
0.0000001
 44
0.0000000001
 40
0.0
 40
0.0
 40
0.0
 40
0.0
 40
0.0299421722
 40
0.0599087187
 40
0.0899234222
 40
0.1200088965
 40
0.1501860486
 40
0.1804735921
 40
0.2108876267
 40
0.2414412921
 40
0.2721445039
 40
0.3030037728
 40
0.3340221097
 40
0.3651990124
 40
0.3965305293
 40
0.4280093954
 40
0.4596252325
 40
0.4913648061
 40
0.523212333
 40
0.5551498293
 40
0.5871574933
 40
0.6192141165
 40
0.6512975132
 40
0.6833849656
 40
0.7154536753
 40
0.7314763803
 40
0.7474860474
 40
0.7794508144
 40
0.8113324582
 40
0.8431123019
 40
0.8747737477
 40
0.9063025846
 40
0.9376874998
 40
0.9533255315
 40
0.9689249968
 40
1.0
 40
1.0
 40
1.0
 40
1.0
 10
11.4958114247
 20
9.9085928706
 30
0.0
 10
11.4923110068
 20
9.9052117082
 30
0.0
 10
11.4850349515
 20
9.8987222261
 30
0.0
 10
11.473377545
 20
9.8898814696
 30
0.0
 10
11.4610364296
 20
9.8819783949
 30
0.0
 10
11.4480805544
 20
9.8750573441
 30
0.0
 10
11.4345811517
 20
9.8691561267
 30
0.0
 10
11.4206127228
 20
9.8643071828
 30
0.0
 10
11.4062522422
 20
9.8605370435
 30
0.0
 10
11.3915788259
 20
9.8578662932
 30
0.0
 10
11.3766732636
 20
9.8563094407
 30
0.0
 10
11.3616175784
 20
9.8558748566
 30
0.0
 10
11.3464945737
 20
9.8565647349
 30
0.0
 10
11.33138738
 20
9.8583750939
 30
0.0
 10
11.3163790026
 20
9.8612958067
 30
0.0
 10
11.3015518707
 20
9.8653106635
 30
0.0
 10
11.2869873907
 20
9.8703974659
 30
0.0
 10
11.272765506
 20
9.8765281525
 30
0.0
 10
11.2589642638
 20
9.8836689559
 30
0.0
 10
11.245659395
 20
9.8917805851
 30
0.0
 10
11.2329238961
 20
9.9008184538
 30
0.0
 10
11.2208276648
 20
9.9107328783
 30
0.0
 10
11.2094370046
 20
9.9214695158
 30
0.0
 10
11.1988147003
 20
9.932969037
 30
0.0
 10
11.190648196
 20
9.9431395814
 30
0.0
 10
11.1845552207
 20
9.9515933461
 30
0.0
 10
11.1787688134
 20
9.9602394986
 30
0.0
 10
11.1721160722
 20
9.9713978648
 30
0.0
 10
11.1651027968
 20
9.9852824976
 30
0.0
 10
11.1591010176
 20
9.9995804216
 30
0.0
 10
11.1541440445
 20
10.0142129183
 30
0.0
 10
11.1502591841
 20
10.0290992925
 30
0.0
 10
11.1479301328
 20
10.0416650116
 30
0.0
 10
11.1466235956
 20
10.0517614002
 30
0.0
 10
11.1456911571
 20
10.0618481322
 30
0.0
 10
11.1454088244
 20
10.0694383228
 30
0.0
 10
11.1454088244
 20
10.0744891937
 30
0.0
  0
SPLINE
  5
387
100
AcDbEntity
  8
0
100
AcDbSpline
 62
7
  6
CONTINUOUS
 70
0
 71
3
 72
84
 73
80
 74
0
 42
0.0000001
 43
0.0000001
 44
0.0000000001
 40
0.0
 40
0.0
 40
0.0
 40
0.0
 40
0.0039381593
 40
0.0080396305
 40
0.0123079222
 40
0.0167460082
 40
0.0213563952
 40
0.0261410312
 40
0.0311012198
 40
0.0362378404
 40
0.0415513475
 40
0.047041836
 40
0.0527090935
 40
0.058552547
 40
0.0707641096
 40
0.083667493
 40
0.0972496519
 40
0.1114945201
 40
0.1263833834
 40
0.14189517
 40
0.1580066933
 40
0.1746928669
 40
0.1919268812
 40
0.209680357
 40
0.2279234802
 40
0.2466251212
 40
0.2657529602
 40
0.2852735975
 40
0.3051526576
 40
0.3253548875
 40
0.3458442495
 40
0.3665840198
 40
0.3875368853
 40
0.4086650341
 40
0.4512933199
 40
0.4941604997
 40
0.5369553113
 40
0.5793671541
 40
0.6003336375
 40
0.6210896795
 40
0.6415979282
 40
0.6618216145
 40
0.6817246507
 40
0.7012717256
 40
0.7204283978
 40
0.7391611951
 40
0.7574377165
 40
0.7752267462
 40
0.7924983746
 40
0.8092241163
 40
0.8253770451
 40
0.8409319463
 40
0.8558654929
 40
0.8701564594
 40
0.8837859555
 40
0.8967377162
 40
0.9089984667
 40
0.9148667331
 40
0.920558905
 40
0.9260743715
 40
0.9314128648
 40
0.9365744324
 40
0.9415594723
 40
0.9463688302
 40
0.9510037517
 40
0.9554660371
 40
0.95975803
 40
0.9638827111
 40
0.9678438157
 40
0.9716458484
 40
0.9752942817
 40
0.9787955915
 40
0.9821574139
 40
0.9853886802
 40
0.9884996784
 40
0.991502219
 40
0.9944096264
 40
0.9972367747
 40
1.0
 40
1.0
 40
1.0
 40
1.0
 10
12.735285849
 20
8.4439126047
 30
0.0
 10
12.7364390154
 20
8.445026478
 30
0.0
 10
12.7387441359
 20
8.4473516341
 30
0.0
 10
12.7421308756
 20
8.4510460092
 30
0.0
 10
12.745514166
 20
8.4550150028
 30
0.0
 10
12.7488922432
 20
8.459256538
 30
0.0
 10
12.7522636041
 20
8.4637686088
 30
0.0
 10
12.7556266517
 20
8.4685491245
 30
0.0
 10
12.7589798584
 20
8.4735957887
 30
0.0
 10
12.7623215653
 20
8.4789062052
 30
0.0
 10
12.7656501881
 20
8.4844778154
 30
0.0
 10
12.7689641394
 20
8.4903079428
 30
0.0
 10
12.7722618168
 20
8.4963938127
 30
0.0
 10
12.7767002199
 20
8.5049717281
 30
0.0
 10
12.7821858083
 20
8.5163219282
 30
0.0
 10
12.7885856055
 20
8.5307201089
 30
0.0
 10
12.7948831929
 20
8.5460618785
 30
0.0
 10
12.8010663439
 20
8.5623176747
 30
0.0
 10
12.8071230475
 20
8.5794563366
 30
0.0
 10
12.8130415222
 20
8.5974448636
 30
0.0
 10
12.8188102574
 20
8.61624858
 30
0.0
 10
12.8244180276
 20
8.6358311923
 30
0.0
 10
12.8298539208
 20
8.6561548771
 30
0.0
 10
12.8351073594
 20
8.677180356
 30
0.0
 10
12.8401681209
 20
8.6988669728
 30
0.0
 10
12.8450263671
 20
8.7211727724
 30
0.0
 10
12.8496726538
 20
8.7440545891
 30
0.0
 10
12.85409795
 20
8.7674681352
 30
0.0
 10
12.8582936553
 20
8.7913680884
 30
0.0
 10
12.8622516141
 20
8.8157081772
 30
0.0
 10
12.8659641417
 20
8.840441273
 30
0.0
 10
12.8694240244
 20
8.865519469
 30
0.0
 10
12.8726245736
 20
8.8908942338
 30
0.0
 10
12.8765492455
 20
8.9251571479
 30
0.0
 10
12.8807598892
 20
8.9683643494
 30
0.0
 10
12.8846794613
 20
9.0204499661
 30
0.0
 10
12.887449992
 20
9.0725210981
 30
0.0
 10
12.8887887164
 20
9.1157289239
 30
0.0
 10
12.8892622595
 20
9.1499785647
 30
0.0
 10
12.8893182166
 20
9.1753141302
 30
0.0
 10
12.8890763191
 20
9.200346176
 30
0.0
 10
12.8885370268
 20
9.2250262623
 30
0.0
 10
12.8877014146
 20
9.2493065867
 30
0.0
 10
12.8865711295
 20
9.27314014
 30
0.0
 10
12.8851483931
 20
9.2964807806
 30
0.0
 10
12.8834359961
 20
9.3192833263
 30
0.0
 10
12.8814372931
 20
9.3415036432
 30
0.0
 10
12.8791561993
 20
9.3630987373
 30
0.0
 10
12.8765971889
 20
9.3840268413
 30
0.0
 10
12.8737652777
 20
9.4042474973
 30
0.0
 10
12.8706660145
 20
9.4237216353
 30
0.0
 10
12.8673054704
 20
9.4424116522
 30
0.0
 10
12.8636902238
 20
9.4602815034
 30
0.0
 10
12.8598273561
 20
9.4772967611
 30
0.0
 10
12.8557244281
 20
9.4934247807
 30
0.0
 10
12.8513894366
 20
9.5086344668
 30
0.0
 10
12.8475364331
 20
9.5206897924
 30
0.0
 10
12.8443349938
 20
9.5298445836
 30
0.0
 10
12.8419163085
 20
9.5363625841
 30
0.0
 10
12.8394460405
 20
9.5426299711
 30
0.0
 10
12.8369253804
 20
9.5486437503
 30
0.0
 10
12.8343555488
 20
9.5544010386
 30
0.0
 10
12.8317377377
 20
9.5598990677
 30
0.0
 10
12.8290732514
 20
9.5651352307
 30
0.0
 10
12.8263632915
 20
9.570107009
 30
0.0
 10
12.8236091747
 20
9.5748120532
 30
0.0
 10
12.8208121751
 20
9.5792481275
 30
0.0
 10
12.8179735529
 20
9.5834131101
 30
0.0
 10
12.8150946565
 20
9.5873050589
 30
0.0
 10
12.8121767058
 20
9.5909220799
 30
0.0
 10
12.8092210399
 20
9.5942624764
 30
0.0
 10
12.8062289102
 20
9.5973246123
 30
0.0
 10
12.8032015697
 20
9.600106944
 30
0.0
 10
12.8001403366
 20
9.6026080834
 30
0.0
 10
12.7970464183
 20
9.6048265885
 30
0.0
 10
12.7939212123
 20
9.606761212
 30
0.0
 10
12.7907659741
 20
9.6084106795
 30
0.0
 10
12.7875825076
 20
9.609773701
 30
0.0
 10
12.7854215422
 20
9.6104976967
 30
0.0
 10
12.7843405975
 20
9.6108092512
 30
0.0
  0
SPLINE
  5
388
100
AcDbEntity
  8
0
100
AcDbSpline
 62
7
  6
CONTINUOUS
 70
0
 71
3
 72
15
 73
11
 74
0
 42
0.0000001
 43
0.0000001
 44
0.0000000001
 40
0.0
 40
0.0
 40
0.0
 40
0.0
 40
0.1467660377
 40
0.2862317028
 40
0.4188026751
 40
0.5449949406
 40
0.665427751
 40
0.7808277255
 40
0.8920342487
 40
1.0
 40
1.0
 40
1.0
 40
1.0
 10
12.735285849
 20
8.4439126047
 30
0.0
 10
12.7339212217
 20
8.4425944759
 30
0.0
 10
12.7311932875
 20
8.4400912697
 30
0.0
 10
12.7269956719
 20
8.4366669053
 30
0.0
 10
12.7228020718
 20
8.43367417
 30
0.0
 10
12.7186153802
 20
8.4311157202
 30
0.0
 10
12.7144381045
 20
8.4289939915
 30
0.0
 10
12.7102728036
 20
8.427311223
 30
0.0
 10
12.7061230104
 20
8.4260699733
 30
0.0
 10
12.7033352933
 20
8.4255317355
 30
0.0
 10
12.7019527901
 20
8.4253402638
 30
0.0
  0
SPLINE
  5
389
100
AcDbEntity
  8
0
100
AcDbSpline
 62
7
  6
CONTINUOUS
 70
0
 71
3
 72
41
 73
37
 74
0
 42
0.0000001
 43
0.0000001
 44
0.0000000001
 40
0.0
 40
0.0
 40
0.0
 40
0.0
 40
0.0299421722
 40
0.0599087187
 40
0.0899234222
 40
0.1200088965
 40
0.1501860486
 40
0.1804735921
 40
0.2108876267
 40
0.2414412921
 40
0.2721445039
 40
0.3030037728
 40
0.3340221097
 40
0.3651990124
 40
0.3965305293
 40
0.4280093954
 40
0.4596252325
 40
0.4913648061
 40
0.523212333
 40
0.5551498293
 40
0.5871574933
 40
0.6192141165
 40
0.6512975132
 40
0.6833849656
 40
0.7154536753
 40
0.7314763803
 40
0.7474860474
 40
0.7794508144
 40
0.8113324582
 40
0.8431123019
 40
0.8747737477
 40
0.9063025846
 40
0.9376874998
 40
0.9533255315
 40
0.9689249968
 40
1.0
 40
1.0
 40
1.0
 40
1.0
 10
10.4091448058
 20
6.8446943351
 30
0.0
 10
10.4056443878
 20
6.8413131727
 30
0.0
 10
10.3983683326
 20
6.8348236906
 30
0.0
 10
10.386710926
 20
6.8259829342
 30
0.0
 10
10.3743698107
 20
6.8180798594
 30
0.0
 10
10.3614139354
 20
6.8111588086
 30
0.0
 10
10.3479145328
 20
6.8052575912
 30
0.0
 10
10.3339461038
 20
6.8004086473
 30
0.0
 10
10.3195856232
 20
6.796638508
 30
0.0
 10
10.304912207
 20
6.7939677578
 30
0.0
 10
10.2900066447
 20
6.7924109052
 30
0.0
 10
10.2749509595
 20
6.7919763212
 30
0.0
 10
10.2598279547
 20
6.7926661994
 30
0.0
 10
10.244720761
 20
6.7944765585
 30
0.0
 10
10.2297123836
 20
6.7973972713
 30
0.0
 10
10.2148852517
 20
6.801412128
 30
0.0
 10
10.2003207718
 20
6.8064989304
 30
0.0
 10
10.1860988871
 20
6.8126296171
 30
0.0
 10
10.1722976448
 20
6.8197704204
 30
0.0
 10
10.158992776
 20
6.8278820497
 30
0.0
 10
10.1462572771
 20
6.8369199183
 30
0.0
 10
10.1341610458
 20
6.8468343429
 30
0.0
 10
10.1227703856
 20
6.8575709804
 30
0.0
 10
10.1121480814
 20
6.8690705016
 30
0.0
 10
10.103981577
 20
6.879241046
 30
0.0
 10
10.0978886017
 20
6.8876948106
 30
0.0
 10
10.0921021944
 20
6.8963409631
 30
0.0
 10
10.0854494532
 20
6.9074993293
 30
0.0
 10
10.0784361779
 20
6.9213839621
 30
0.0
 10
10.0724343987
 20
6.9356818861
 30
0.0
 10
10.0674774255
 20
6.9503143829
 30
0.0
 10
10.0635925652
 20
6.965200757
 30
0.0
 10
10.0612635138
 20
6.9777664762
 30
0.0
 10
10.0599569766
 20
6.9878628647
 30
0.0
 10
10.0590245382
 20
6.9979495967
 30
0.0
 10
10.0587422055
 20
7.0055397874
 30
0.0
 10
10.0587422055
 20
7.0105906583
 30
0.0
  0
SPLINE
  5
38A
100
AcDbEntity
  8
0
100
AcDbSpline
 62
7
  6
CONTINUOUS
 70
0
 71
3
 72
23
 73
19
 74
0
 42
0.0000001
 43
0.0000001
 44
0.0000000001
 40
0.0
 40
0.0
 40
0.0
 40
0.0
 40
0.0755966894
 40
0.1466391965
 40
0.2134647074
 40
0.2765134986
 40
0.3363257304
 40
0.3935458535
 40
0.4489219493
 40
0.5032869296
 40
0.5575247817
 40
0.6125261135
 40
0.6691421681
 40
0.7281478382
 40
0.7902185594
 40
0.8559229117
 40
0.9257262624
 40
1.0
 40
1.0
 40
1.0
 40
1.0
 10
12.735285849
 20
8.6177792637
 30
0.0
 10
12.7341324439
 20
8.6166651599
 30
0.0
 10
12.7318271759
 20
8.6145725348
 30
0.0
 10
12.7282595391
 20
8.6117769313
 30
0.0
 10
12.7246960946
 20
8.6094290135
 30
0.0
 10
12.7211400973
 20
8.6075323408
 30
0.0
 10
12.7175945426
 20
8.6060902848
 30
0.0
 10
12.7140630517
 20
8.6051064985
 30
0.0
 10
12.7105502887
 20
8.6045843213
 30
0.0
 10
12.7070620885
 20
8.60452636
 30
0.0
 10
12.7036051521
 20
8.6049333304
 30
0.0
 10
12.700186201
 20
8.6058041626
 30
0.0
 10
12.6968110091
 20
8.6071357937
 30
0.0
 10
12.6934840851
 20
8.6089244293
 30
0.0
 10
12.6902087753
 20
8.611165928
 30
0.0
 10
12.6869877191
 20
8.6138564052
 30
0.0
 10
12.6838235527
 20
8.6169919167
 30
0.0
 10
12.6818181407
 20
8.6193021406
 30
0.0
 10
12.6808240207
 20
8.6205244655
 30
0.0
  0
SPLINE
  5
38B
100
AcDbEntity
  8
0
100
AcDbSpline
 62
7
  6
CONTINUOUS
 70
0
 71
3
 72
19
 73
15
 74
0
 42
0.0000001
 43
0.0000001
 44
0.0000000001
 40
0.0
 40
0.0
 40
0.0
 40
0.0
 40
0.1504611406
 40
0.2916985742
 40
0.4244193292
 40
0.4878835935
 40
0.5495802133
 40
0.6682271463
 40
0.7255606136
 40
0.7817999183
 40
0.8371467056
 40
0.8918136429
 40
0.9460222308
 40
1.0
 40
1.0
 40
1.0
 40
1.0
 10
12.7507406639
 20
8.4428408097
 30
0.0
 10
12.7490585478
 20
8.4412160102
 30
0.0
 10
12.7456966385
 20
8.438167427
 30
0.0
 10
12.7404910412
 20
8.4341048453
 30
0.0
 10
12.7360941038
 20
8.4312315532
 30
0.0
 10
12.7325878195
 20
8.429285842
 30
0.0
 10
12.7291849803
 20
8.4276153958
 30
0.0
 10
12.7257422949
 20
8.4262499638
 30
0.0
 10
12.7222802448
 20
8.4252224577
 30
0.0
 10
12.7197204995
 20
8.4246301895
 30
0.0
 10
12.7171692726
 20
8.424208055
 30
0.0
 10
12.7146272426
 20
8.4239562383
 30
0.0
 10
12.7120954346
 20
8.4238748437
 30
0.0
 10
12.7104133729
 20
8.4239343246
 30
0.0
 10
12.7095763793
 20
8.4239923675
 30
0.0
  0
SPLINE
  5
38C
100
AcDbEntity
  8
0
100
AcDbSpline
 62
7
  6
CONTINUOUS
 70
0
 71
3
 72
18
 73
14
 74
0
 42
0.0000001
 43
0.0000001
 44
0.0000000001
 40
0.0
 40
0.0
 40
0.0
 40
0.0
 40
0.1504665368
 40
0.2917140793
 40
0.424442781
 40
0.4879100458
 40
0.5496093226
 40
0.6682623342
 40
0.7817883693
 40
0.8371380845
 40
0.8918079515
 40
0.946019356
 40
1.0
 40
1.0
 40
1.0
 40
1.0
 10
12.6966488137
 20
8.6590957866
 30
0.0
 10
12.6955886694
 20
8.6580717658
 30
0.0
 10
12.6934697946
 20
8.6561503938
 30
0.0
 10
12.6901889571
 20
8.6535899018
 30
0.0
 10
12.6874177063
 20
8.6517789933
 30
0.0
 10
12.6852078964
 20
8.6505526937
 30
0.0
 10
12.6830630984
 20
8.6494998869
 30
0.0
 10
12.680381414
 20
8.6484360698
 30
0.0
 10
12.6776520339
 20
8.6477100737
 30
0.0
 10
12.6754902732
 20
8.647352464
 30
0.0
 10
12.6738881164
 20
8.647193719
 30
0.0
 10
12.6722924378
 20
8.6471424484
 30
0.0
 10
12.6712323094
 20
8.6471799557
 30
0.0
 10
12.6707047898
 20
8.6472165397
 30
0.0
  0
SPLINE
  5
38D
100
AcDbEntity
  8
0
100
AcDbSpline
 62
7
  6
CONTINUOUS
 70
0
 71
3
 72
23
 73
19
 74
0
 42
0.0000001
 43
0.0000001
 44
0.0000000001
 40
0.0
 40
0.0
 40
0.0
 40
0.0
 40
0.0637774716
 40
0.1273446947
 40
0.1907020108
 40
0.2538561385
 40
0.3168131788
 40
0.379582097
 40
0.4421733871
 40
0.5045993393
 40
0.5668738666
 40
0.62901238
 40
0.6910316508
 40
0.7529496465
 40
0.8147853569
 40
0.8765586065
 40
0.938289857
 40
1.0
 40
1.0
 40
1.0
 40
1.0
 10
10.079026649
 20
7.6727750443
 30
0.0
 10
10.079026649
 20
7.6795637289
 30
0.0
 10
10.0793515671
 20
7.6931210197
 30
0.0
 10
10.0808181681
 20
7.7133745152
 30
0.0
 10
10.0832600116
 20
7.7334674193
 30
0.0
 10
10.0866713453
 20
7.7533526682
 30
0.0
 10
10.091044474
 20
7.7729847138
 30
0.0
 10
10.096369306
 20
7.792318204
 30
0.0
 10
10.1026336428
 20
7.8113085868
 30
0.0
 10
10.1098230725
 20
7.8299120647
 30
0.0
 10
10.117921052
 20
7.8480857367
 30
0.0
 10
10.1269089426
 20
7.8657876862
 30
0.0
 10
10.1367660464
 20
7.8829770763
 30
0.0
 10
10.1474696696
 20
7.8996142595
 30
0.0
 10
10.1589951184
 20
7.9156608127
 30
0.0
 10
10.1713159576
 20
7.9310798407
 30
0.0
 10
10.1844032821
 20
7.9458352962
 30
0.0
 10
10.1936207785
 20
7.9552089163
 30
0.0
 10
10.1983452946
 20
7.9597724528
 30
0.0
  0
SPLINE
  5
38E
100
AcDbEntity
  8
0
100
AcDbSpline
 62
7
  6
CONTINUOUS
 70
0
 71
3
 72
88
 73
84
 74
0
 42
0.0000001
 43
0.0000001
 44
0.0000000001
 40
0.0
 40
0.0
 40
0.0
 40
0.0
 40
0.0027164206
 40
0.0054532135
 40
0.00823027
 40
0.0110665466
 40
0.0139797362
 40
0.0169860264
 40
0.0200999638
 40
0.0233344621
 40
0.0267007864
 40
0.030208716
 40
0.033866602
 40
0.0376815365
 40
0.0416594862
 40
0.0458053757
 40
0.0501232805
 40
0.0546164357
 40
0.0592874172
 40
0.0641381604
 40
0.0691700473
 40
0.0743839976
 40
0.0797804461
 40
0.085359486
 40
0.0911208072
 40
0.097063806
 40
0.1031875785
 40
0.1094909314
 40
0.1226301057
 40
0.1364676988
 40
0.1509864378
 40
0.1661662591
 40
0.1819846247
 40
0.1984167804
 40
0.2154359739
 40
0.2330136371
 40
0.2511195505
 40
0.2697219952
 40
0.2887878869
 40
0.3082829001
 40
0.3281715858
 40
0.3484174815
 40
0.3689832185
 40
0.3898306305
 40
0.410920857
 40
0.4322144439
 40
0.4536714439
 40
0.4969133241
 40
0.5403214886
 40
0.5835686279
 40
0.6050302166
 40
0.6263296837
 40
0.6474270673
 40
0.6682828961
 40
0.6888582896
 40
0.7091150586
 40
0.7290158075
 40
0.7485240405
 40
0.7676042737
 40
0.7862221443
 40
0.8043445271
 40
0.8219396585
 40
0.8389772699
 40
0.8554287349
 40
0.8712672375
 40
0.8864679574
 40
0.9010082824
 40
0.9148680665
 40
0.9280299429
 40
0.9343448017
 40
0.9404801679
 40
0.9464348204
 40
0.9522078552
 40
0.9577986253
 40
0.9632068219
 40
0.9684325067
 40
0.9734760906
 40
0.9783384494
 40
0.9830208978
 40
0.9875254123
 40
0.9918545974
 40
0.9960115688
 40
1.0
 40
1.0
 40
1.0
 40
1.0
 10
12.7919049485
 20
9.6111410532
 30
0.0
 10
12.7930154433
 20
9.6110640438
 30
0.0
 10
12.7952390733
 20
9.6108089259
 30
0.0
 10
12.7985462211
 20
9.6101262948
 30
0.0
 10
12.80182836
 20
9.609143711
 30
0.0
 10
12.8050831796
 20
9.6078622236
 30
0.0
 10
12.8083089792
 20
9.6062829139
 30
0.0
 10
12.8115041024
 20
9.6044070263
 30
0.0
 10
12.8146671071
 20
9.6022359334
 30
0.0
 10
12.817796533
 20
9.5997709442
 30
0.0
 10
12.8208910934
 20
9.5970135731
 30
0.0
 10
12.823949395
 20
9.5939652647
 30
0.0
 10
12.8269701394
 20
9.5906276465
 30
0.0
 10
12.8299519821
 20
9.587002403
 30
0.0
 10
12.8328935429
 20
9.5830913245
 30
0.0
 10
12.8357935195
 20
9.5788963759
 30
0.0
 10
12.8386504815
 20
9.5744195847
 30
0.0
 10
12.8414631316
 20
9.5696631878
 30
0.0
 10
12.8442300686
 20
9.5646295065
 30
0.0
 10
12.84694996
 20
9.5593210342
 30
0.0
 10
12.8496214863
 20
9.5537404004
 30
0.0
 10
12.8522432855
 20
9.5478903593
 30
0.0
 10
12.8548141133
 20
9.5417738332
 30
0.0
 10
12.8573326302
 20
9.5353938508
 30
0.0
 10
12.8597976242
 20
9.5287536035
 30
0.0
 10
12.8622078319
 20
9.5218564026
 30
0.0
 10
12.8645620641
 20
9.5147056858
 30
0.0
 10
12.8676678336
 20
9.5046993519
 30
0.0
 10
12.8713906273
 20
9.4915769774
 30
0.0
 10
12.8755570894
 20
9.4750887634
 30
0.0
 10
12.8794737473
 20
9.4576813901
 30
0.0
 10
12.8831326597
 20
9.4393897574
 30
0.0
 10
12.8865263792
 20
9.4202503951
 30
0.0
 10
12.8896480002
 20
9.4003016429
 30
0.0
 10
12.8924911659
 20
9.379583488
 30
0.0
 10
12.8950500888
 20
9.3581375006
 30
0.0
 10
12.8973195623
 20
9.3360067373
 30
0.0
 10
12.8992949669
 20
9.3132356495
 30
0.0
 10
12.9009722803
 20
9.2898699881
 30
0.0
 10
12.9023480852
 20
9.2659567095
 30
0.0
 10
12.903419575
 20
9.2415438801
 30
0.0
 10
12.9041845602
 20
9.2166805791
 30
0.0
 10
12.9046414756
 20
9.1914167996
 30
0.0
 10
12.904789381
 20
9.1658033413
 30
0.0
 10
12.9046279528
 20
9.1398917237
 30
0.0
 10
12.9041575227
 20
9.113734013
 30
0.0
 10
12.9031167602
 20
9.0785099017
 30
0.0
 10
12.9010502456
 20
9.0342527927
 30
0.0
 10
12.8973767894
 20
8.9811449349
 30
0.0
 10
12.8933300256
 20
8.9370207542
 30
0.0
 10
12.8895108319
 20
8.9019823579
 30
0.0
 10
12.8863748968
 20
8.8760017689
 30
0.0
 10
12.8829666745
 20
8.8503059001
 30
0.0
 10
12.8792930065
 20
8.8249463849
 30
0.0
 10
12.8753613086
 20
8.7999742279
 30
0.0
 10
12.871179508
 20
8.7754396384
 30
0.0
 10
12.8667560407
 20
8.7513919453
 30
0.0
 10
12.862099831
 20
8.7278794909
 30
0.0
 10
12.8572202794
 20
8.7049495315
 30
0.0
 10
12.8521272388
 20
8.6826481413
 30
0.0
 10
12.8468309949
 20
8.6610201194
 30
0.0
 10
12.8413422463
 20
8.6401088976
 30
0.0
 10
12.8356720824
 20
8.61995645
 30
0.0
 10
12.8298319597
 20
8.6006032035
 30
0.0
 10
12.8238336821
 20
8.5820879413
 30
0.0
 10
12.8176893728
 20
8.5644477393
 30
0.0
 10
12.8114114422
 20
8.5477178073
 30
0.0
 10
12.8050125639
 20
8.531931675
 30
0.0
 10
12.7995169659
 20
8.5194222785
 30
0.0
 10
12.7950618333
 20
8.5099187048
 30
0.0
 10
12.7917444566
 20
8.5031448748
 30
0.0
 10
12.7884065102
 20
8.4966296534
 30
0.0
 10
12.7850496857
 20
8.4903762767
 30
0.0
 10
12.7816756475
 20
8.484387874
 30
0.0
 10
12.7782860744
 20
8.4786674301
 30
0.0
 10
12.7748826805
 20
8.4732177774
 30
0.0
 10
12.7714671096
 20
8.468041653
 30
0.0
 10
12.7680411253
 20
8.4631416048
 30
0.0
 10
12.764606358
 20
8.458520074
 30
0.0
 10
12.7611644841
 20
8.4541792996
 30
0.0
 10
12.7577171061
 20
8.4501213941
 30
0.0
 10
12.7542660606
 20
8.4463485604
 30
0.0
 10
12.7519162272
 20
8.4439763166
 30
0.0
 10
12.7507406639
 20
8.4428408097
 30
0.0
  0
SPLINE
  5
38F
100
AcDbEntity
  8
0
100
AcDbSpline
 62
7
  6
CONTINUOUS
 70
0
 71
3
 72
89
 73
85
 74
0
 42
0.0000001
 43
0.0000001
 44
0.0000000001
 40
0.0
 40
0.0
 40
0.0
 40
0.0
 40
0.0042067312
 40
0.0086075293
 40
0.0132068539
 40
0.0180083867
 40
0.0230151278
 40
0.0282292848
 40
0.0336521891
 40
0.0392846084
 40
0.0451267211
 40
0.0511782441
 40
0.0574384617
 40
0.0639061948
 40
0.0774573948
 40
0.0918164794
 40
0.1069629005
 40
0.1228721746
 40
0.1395163763
 40
0.1568645309
 40
0.1748829317
 40
0.1935354184
 40
0.2127836256
 40
0.2325871965
 40
0.2529039765
 40
0.2736901923
 40
0.2949006167
 40
0.3164887388
 40
0.3384069248
 40
0.3606065716
 40
0.383038256
 40
0.4056518828
 40
0.4512212465
 40
0.4969069626
 40
0.5422991122
 40
0.5647582359
 40
0.5869920364
 40
0.6089509909
 40
0.6305863744
 40
0.6518504102
 40
0.6726964287
 40
0.6930790271
 40
0.7129542265
 40
0.7322796411
 40
0.7510146561
 40
0.769120622
 40
0.7865610755
 40
0.8033019713
 40
0.8193119467
 40
0.834562639
 40
0.8490290691
 40
0.8626901233
 40
0.8755291723
 40
0.8816370224
 40
0.8875355927
 40
0.8932245052
 40
0.8987037916
 40
0.9039740757
 40
0.9090365708
 40
0.9138931509
 40
0.9185465243
 40
0.9230002124
 40
0.9272588158
 40
0.9313280509
 40
0.9352149632
 40
0.9389281337
 40
0.9424777932
 40
0.9458761324
 40
0.9491373738
 40
0.9522779783
 40
0.9553166717
 40
0.958274352
 40
0.9611738974
 40
0.9640396987
 40
0.9668971039
 40
0.9697716967
 40
0.9726885767
 40
0.9756716704
 40
0.9787432265
 40
0.9852253757
 40
0.9886742972
 40
0.9922790667
 40
0.9960512155
 40
1.0
 40
1.0
 40
1.0
 40
1.0
 10
12.735285849
 20
8.6177792637
 30
0.0
 10
12.7361820404
 20
8.6186449182
 30
0.0
 10
12.737973235
 20
8.6204606157
 30
0.0
 10
12.7405987266
 20
8.6233617794
 30
0.0
 10
12.7432208951
 20
8.6264992251
 30
0.0
 10
12.7458380729
 20
8.6298709331
 30
0.0
 10
12.7484488259
 20
8.6334749472
 30
0.0
 10
12.7510516304
 20
8.6373092031
 30
0.0
 10
12.7536450272
 20
8.6413714295
 30
0.0
 10
12.75622742
 20
8.6456592496
 30
0.0
 10
12.7587973135
 20
8.6501701078
 30
0.0
 10
12.7613531744
 20
8.6549013372
 30
0.0
 10
12.7638934872
 20
8.6598501459
 30
0.0
 10
12.7673110878
 20
8.6668438682
 30
0.0
 10
12.7715239769
 20
8.6761164888
 30
0.0
 10
12.7764182873
 20
8.6878950786
 30
0.0
 10
12.7812152157
 20
8.7004640593
 30
0.0
 10
12.7859032362
 20
8.713793499
 30
0.0
 10
12.7904710719
 20
8.7278517898
 30
0.0
 10
12.7949077247
 20
8.7426054615
 30
0.0
 10
12.7992025147
 20
8.75801935
 30
0.0
 10
12.8033451066
 20
8.77405667
 30
0.0
 10
12.8073255318
 20
8.7906791216
 30
0.0
 10
12.8111342143
 20
8.8078469872
 30
0.0
 10
12.8147619935
 20
8.8255192296
 30
0.0
 10
12.8182001447
 20
8.8436535911
 30
0.0
 10
12.8214404069
 20
8.8622066951
 30
0.0
 10
12.8244749968
 20
8.8811341536
 30
0.0
 10
12.8272966287
 20
8.900390681
 30
0.0
 10
12.8298985201
 20
8.9199301887
 30
0.0
 10
12.8322744532
 20
8.9397059527
 30
0.0
 10
12.8351405387
 20
8.966392406
 30
0.0
 10
12.8381171753
 20
8.9999915571
 30
0.0
 10
12.8407047188
 20
9.0403863788
 30
0.0
 10
12.8420322514
 20
9.0739927167
 30
0.0
 10
12.8425823787
 20
9.1006701166
 30
0.0
 10
12.8427371149
 20
9.1204118382
 30
0.0
 10
12.8426351776
 20
9.1399099046
 30
0.0
 10
12.8422768069
 20
9.1591176919
 30
0.0
 10
12.8416628899
 20
9.1779892256
 30
0.0
 10
12.840794926
 20
9.1964793555
 30
0.0
 10
12.8396750327
 20
9.2145438497
 30
0.0
 10
12.8383059339
 20
9.2321395052
 30
0.0
 10
12.8366909557
 20
9.24922425
 30
0.0
 10
12.8348340187
 20
9.2657572469
 30
0.0
 10
12.8327396281
 20
9.2816989977
 30
0.0
 10
12.8304128717
 20
9.2970114468
 30
0.0
 10
12.8278594004
 20
9.3116580764
 30
0.0
 10
12.8250854131
 20
9.3256040088
 30
0.0
 10
12.8220976382
 20
9.3388160723
 30
0.0
 10
12.8189033134
 20
9.3512629961
 30
0.0
 10
12.8155101451
 20
9.3629151834
 30
0.0
 10
12.8124752383
 20
9.3720870265
 30
0.0
 10
12.8099448185
 20
9.3789978654
 30
0.0
 10
12.808033986
 20
9.3838788482
 30
0.0
 10
12.8060797199
 20
9.3885414033
 30
0.0
 10
12.8040831003
 20
9.3929827701
 30
0.0
 10
12.8020453361
 20
9.3972003333
 30
0.0
 10
12.7999676261
 20
9.4011916176
 30
0.0
 10
12.7978511361
 20
9.4049542641
 30
0.0
 10
12.7956971439
 20
9.4084860998
 30
0.0
 10
12.7935068017
 20
9.411785032
 30
0.0
 10
12.7912813805
 20
9.414849162
 30
0.0
 10
12.7890220723
 20
9.4176766903
 30
0.0
 10
12.7867300606
 20
9.4202659321
 30
0.0
 10
12.7844065832
 20
9.4226153744
 30
0.0
 10
12.7820527441
 20
9.4247234927
 30
0.0
 10
12.7796697821
 20
9.4265889645
 30
0.0
 10
12.7772588408
 20
9.4282104097
 30
0.0
 10
12.7748211804
 20
9.4295865381
 30
0.0
 10
12.7723581718
 20
9.4307161353
 30
0.0
 10
12.7698712979
 20
9.4315979301
 30
0.0
 10
12.7673623287
 20
9.43223099
 30
0.0
 10
12.7648331766
 20
9.4326144051
 30
0.0
 10
12.7622859742
 20
9.4327477685
 30
0.0
 10
12.7597228774
 20
9.4326309911
 30
0.0
 10
12.7571460606
 20
9.4322643416
 30
0.0
 10
12.7545573276
 20
9.4316484688
 30
0.0
 10
12.7510300725
 20
9.430475474
 30
0.0
 10
12.747539745
 20
9.4288057676
 30
0.0
 10
12.7441187351
 20
9.4267120585
 30
0.0
 10
12.7414948192
 20
9.4248649565
 30
0.0
 10
12.7388685502
 20
9.4227752914
 30
0.0
 10
12.7371568846
 20
9.4212569254
 30
0.0
 10
12.7363006984
 20
9.4204601156
 30
0.0
  0
SPLINE
  5
390
100
AcDbEntity
  8
0
100
AcDbSpline
 62
7
  6
CONTINUOUS
 70
0
 71
3
 72
78
 73
74
 74
0
 42
0.0000001
 43
0.0000001
 44
0.0000000001
 40
0.0
 40
0.0
 40
0.0
 40
0.0
 40
0.0039883708
 40
0.0081453713
 40
0.0124746514
 40
0.0169792446
 40
0.0216617048
 40
0.0265240573
 40
0.0315676738
 40
0.0367933803
 40
0.0477917732
 40
0.0595189875
 40
0.0719688241
 40
0.0851307675
 40
0.098990636
 40
0.1135310453
 40
0.1287318459
 40
0.144570439
 40
0.1610220047
 40
0.17805971
 40
0.1956549318
 40
0.2137774167
 40
0.2323953998
 40
0.2514757423
 40
0.2709840821
 40
0.2908849441
 40
0.3111418307
 40
0.3317173399
 40
0.3736700372
 40
0.4164306268
 40
0.4596780178
 40
0.5030864378
 40
0.5463285753
 40
0.5890787058
 40
0.6310158441
 40
0.6515817044
 40
0.6718277277
 40
0.6917165425
 40
0.711211677
 40
0.7302776898
 40
0.7488802598
 40
0.766986293
 40
0.7845640637
 40
0.8015833694
 40
0.8180156465
 40
0.8338341259
 40
0.8490140463
 40
0.8635328858
 40
0.8773705842
 40
0.8905098544
 40
0.9029366124
 40
0.9146404815
 40
0.925615406
 40
0.9308293801
 40
0.935861322
 40
0.9407121007
 40
0.9453831132
 40
0.9498763212
 40
0.9541942469
 40
0.9583401792
 40
0.9623181651
 40
0.9661331254
 40
0.9697910493
 40
0.9732990064
 40
0.9766653582
 40
0.9798998867
 40
0.9830138495
 40
0.9860201614
 40
0.988933379
 40
0.9917696733
 40
0.9945467499
 40
0.9972835631
 40
1.0
 40
1.0
 40
1.0
 40
1.0
 10
12.6966488137
 20
8.6590957866
 30
0.0
 10
12.6973896989
 20
8.6598114268
 30
0.0
 10
12.6988706678
 20
8.6613065265
 30
0.0
 10
12.7010456901
 20
8.6636843624
 30
0.0
 10
12.7032184421
 20
8.6662418767
 30
0.0
 10
12.7053876998
 20
8.6689776838
 30
0.0
 10
12.7075524733
 20
8.6718904088
 30
0.0
 10
12.7097116941
 20
8.6749786628
 30
0.0
 10
12.7118643591
 20
8.6782409269
 30
0.0
 10
12.7147741366
 20
8.6829002504
 30
0.0
 10
12.7183794394
 20
8.6891574361
 30
0.0
 10
12.7225918673
 20
8.6972088963
 30
0.0
 10
12.7267527625
 20
8.7059106536
 30
0.0
 10
12.7308537759
 20
8.7152453982
 30
0.0
 10
12.7348866784
 20
8.7251946991
 30
0.0
 10
12.7388433543
 20
8.7357387474
 30
0.0
 10
12.7427158197
 20
8.7468565161
 30
0.0
 10
12.7464962455
 20
8.7585257887
 30
0.0
 10
12.7501769892
 20
8.7707232062
 30
0.0
 10
12.7537506215
 20
8.7834243166
 30
0.0
 10
12.7572099203
 20
8.7966036428
 30
0.0
 10
12.7605478886
 20
8.8102347371
 30
0.0
 10
12.7637577835
 20
8.8242902267
 30
0.0
 10
12.7668331298
 20
8.8387418711
 30
0.0
 10
12.7697677196
 20
8.8535606326
 30
0.0
 10
12.7725556151
 20
8.8687167256
 30
0.0
 10
12.7751912171
 20
8.8841797046
 30
0.0
 10
12.7785165373
 20
8.9053008557
 30
0.0
 10
12.7822474389
 20
8.932239462
 30
0.0
 10
12.7860135548
 20
8.9650753345
 30
0.0
 10
12.7890665262
 20
8.9983627632
 30
0.0
 10
12.7913817412
 20
9.031834222
 30
0.0
 10
12.7929406168
 20
9.0652209295
 30
0.0
 10
12.7937306858
 20
9.0982545526
 30
0.0
 10
12.7937435644
 20
9.1254410787
 30
0.0
 10
12.7933571667
 20
9.1468095886
 30
0.0
 10
12.7928750257
 20
9.1624797494
 30
0.0
 10
12.7921997283
 20
9.1778659809
 30
0.0
 10
12.7913326253
 20
9.1929373748
 30
0.0
 10
12.7902754994
 20
9.2076636317
 30
0.0
 10
12.7890305044
 20
9.22201516
 30
0.0
 10
12.7876001703
 20
9.2359631214
 30
0.0
 10
12.7859874035
 20
9.2494794999
 30
0.0
 10
12.7841954968
 20
9.2625371641
 30
0.0
 10
12.7822280992
 20
9.2751099169
 30
0.0
 10
12.7800892079
 20
9.2871725476
 30
0.0
 10
12.7777831722
 20
9.2987008983
 30
0.0
 10
12.775314693
 20
9.3096719207
 30
0.0
 10
12.772688787
 20
9.3200637278
 30
0.0
 10
12.7699107694
 20
9.3298556194
 30
0.0
 10
12.7669862497
 20
9.3390282461
 30
0.0
 10
12.7639211151
 20
9.3475633504
 30
0.0
 10
12.7612103747
 20
9.3542405165
 30
0.0
 10
12.7589687616
 20
9.3592423607
 30
0.0
 10
12.7572850306
 20
9.362759585
 30
0.0
 10
12.755570816
 20
9.3661052676
 30
0.0
 10
12.7538269385
 20
9.3692777594
 30
0.0
 10
12.7520542849
 20
9.3722755087
 30
0.0
 10
12.7502536592
 20
9.3750970136
 30
0.0
 10
12.7484259573
 20
9.3777409044
 30
0.0
 10
12.7465720371
 20
9.3802058828
 30
0.0
 10
12.7446927167
 20
9.3824907022
 30
0.0
 10
12.7427888995
 20
9.3845942621
 30
0.0
 10
12.740861396
 20
9.3865154719
 30
0.0
 10
12.7389110441
 20
9.3882533198
 30
0.0
 10
12.7369387227
 20
9.3898069001
 30
0.0
 10
12.7349452353
 20
9.3911752489
 30
0.0
 10
12.7329314977
 20
9.3923575306
 30
0.0
 10
12.730898444
 20
9.3933529276
 30
0.0
 10
12.7288470815
 20
9.3941605833
 30
0.0
 10
12.7267785101
 20
9.3947798696
 30
0.0
 10
12.7246941789
 20
9.3952101364
 30
0.0
 10
12.7232927288
 20
9.3953709081
 30
0.0
 10
12.7225928376
 20
9.3954194461
 30
0.0
  0
SPLINE
  5
391
100
AcDbEntity
  8
0
100
AcDbSpline
 62
7
  6
CONTINUOUS
 70
0
 71
3
 72
79
 73
75
 74
0
 42
0.0000001
 43
0.0000001
 44
0.0000000001
 40
0.0
 40
0.0
 40
0.0
 40
0.0
 40
0.0069315574
 40
0.0105986767
 40
0.0144066877
 40
0.0183600657
 40
0.022462566
 40
0.026717331
 40
0.0311268813
 40
0.0356932613
 40
0.0404180349
 40
0.0453023372
 40
0.0503469664
 40
0.0555523326
 40
0.060918574
 40
0.06644554
 40
0.0721328008
 40
0.0839850491
 40
0.0964680903
 40
0.1095712258
 40
0.1232811587
 40
0.1375823026
 40
0.1524570208
 40
0.1678858364
 40
0.1838476189
 40
0.2003197345
 40
0.2172781737
 40
0.2346976581
 40
0.252551756
 40
0.2708129854
 40
0.2894529036
 40
0.308442189
 40
0.327750719
 40
0.3473476593
 40
0.3672015419
 40
0.3872803383
 40
0.4075515304
 40
0.4485384014
 40
0.4898957113
 40
0.531353215
 40
0.572639826
 40
0.6134858936
 40
0.6336607498
 40
0.6536261848
 40
0.6733499231
 40
0.6928002158
 40
0.711945919
 40
0.7307565654
 40
0.7492024402
 40
0.7672546618
 40
0.7848852768
 40
0.8020673462
 40
0.818775033
 40
0.8349837026
 40
0.8506700379
 40
0.8658121762
 40
0.8803898387
 40
0.8943844882
 40
0.90777952
 40
0.9205605005
 40
0.9327154537
 40
0.944235197
 40
0.949755112
 40
0.9551143006
 40
0.9603126017
 40
0.9653501843
 40
0.9702274804
 40
0.9749452775
 40
0.9795047293
 40
0.9839073988
 40
0.9881554274
 40
0.9922514367
 40
0.9961984568
 40
1.0
 40
1.0
 40
1.0
 40
1.0
 10
11.3420638879
 20
10.6348431395
 30
0.0
 10
11.3401743136
 20
10.6372568867
 30
0.0
 10
11.3370840284
 20
10.6407937899
 30
0.0
 10
11.332584042
 20
10.6453053295
 30
0.0
 10
11.3288676925
 20
10.6487329939
 30
0.0
 10
11.3248755767
 20
10.6521392378
 30
0.0
 10
11.3206091603
 20
10.6555229296
 30
0.0
 10
11.3160703305
 20
10.6588825303
 30
0.0
 10
11.3112610622
 20
10.6622167048
 30
0.0
 10
11.3061834118
 20
10.6655239882
 30
0.0
 10
11.3008395782
 20
10.6688029753
 30
0.0
 10
11.2952318859
 20
10.6720522862
 30
0.0
 10
11.2893627407
 20
10.675270464
 30
0.0
 10
11.2832347114
 20
10.6784561698
 30
0.0
 10
11.2768504496
 20
10.6816079831
 30
0.0
 10
11.2702127226
 20
10.6847245536
 30
0.0
 10
11.2608998845
 20
10.6888885391
 30
0.0
 10
11.2486370498
 20
10.6939852677
 30
0.0
 10
11.2331545056
 20
10.699858295
 30
0.0
 10
11.2167356934
 20
10.7055591904
 30
0.0
 10
11.1994092626
 20
10.7110779375
 30
0.0
 10
11.1812052779
 20
10.7164048268
 30
0.0
 10
11.1621554646
 20
10.7215304777
 30
0.0
 10
11.1422930552
 20
10.7264458647
 30
0.0
 10
11.1216527382
 20
10.7311423239
 30
0.0
 10
11.1002705828
 20
10.7356115758
 30
0.0
 10
11.078183979
 20
10.739845736
 30
0.0
 10
11.0554315724
 20
10.7438373469
 30
0.0
 10
11.0320531899
 20
10.7475793782
 30
0.0
 10
11.0080897616
 20
10.751065237
 30
0.0
 10
10.9835832479
 20
10.7542887802
 30
0.0
 10
10.9585765701
 20
10.7572443261
 30
0.0
 10
10.9331135361
 20
10.7599266763
 30
0.0
 10
10.9072387544
 20
10.7623311116
 30
0.0
 10
10.8809975682
 20
10.7644533921
 30
0.0
 10
10.8544359167
 20
10.7662898032
 30
0.0
 10
10.8185246592
 20
10.768360287
 30
0.0
 10
10.7731777377
 20
10.7702067208
 30
0.0
 10
10.7184334407
 20
10.7712369543
 30
0.0
 10
10.6635469445
 20
10.7710822136
 30
0.0
 10
10.6089028625
 20
10.7697436207
 30
0.0
 10
10.5637033292
 20
10.7676411191
 30
0.0
 10
10.5279596854
 20
10.7653671888
 30
0.0
 10
10.501559507
 20
10.763381129
 30
0.0
 10
10.4755038677
 20
10.7611110882
 30
0.0
 10
10.4498383829
 20
10.7585610341
 30
0.0
 10
10.4246080262
 20
10.7557354687
 30
0.0
 10
10.3998569921
 20
10.7526393657
 30
0.0
 10
10.3756286371
 20
10.749278177
 30
0.0
 10
10.3519653959
 20
10.7456578164
 30
0.0
 10
10.3289087016
 20
10.7417846644
 30
0.0
 10
10.3064989116
 20
10.7376655495
 30
0.0
 10
10.2847752412
 20
10.7333077308
 30
0.0
 10
10.2637756937
 20
10.7287188868
 30
0.0
 10
10.2435369859
 20
10.7239071003
 30
0.0
 10
10.2240944717
 20
10.7188808589
 30
0.0
 10
10.2054820824
 20
10.713649023
 30
0.0
 10
10.1877322593
 20
10.7082208084
 30
0.0
 10
10.1708759147
 20
10.7026057653
 30
0.0
 10
10.1549422621
 20
10.6968137515
 30
0.0
 10
10.139959076
 20
10.6908549421
 30
0.0
 10
10.1281238459
 20
10.6856880511
 30
0.0
 10
10.1191603938
 20
10.6814704162
 30
0.0
 10
10.1127873072
 20
10.6783170798
 30
0.0
 10
10.1066705888
 20
10.6751299192
 30
0.0
 10
10.1008128618
 20
10.6719103419
 30
0.0
 10
10.0952166889
 20
10.6686597026
 30
0.0
 10
10.0898844964
 20
10.6653794276
 30
0.0
 10
10.0848185868
 20
10.6620709632
 30
0.0
 10
10.0800211583
 20
10.6587356588
 30
0.0
 10
10.0754942171
 20
10.655374947
 30
0.0
 10
10.071239718
 20
10.6519901634
 30
0.0
 10
10.0672596898
 20
10.6485829342
 30
0.0
 10
10.0647440574
 20
10.6462545183
 30
0.0
 10
10.0635348559
 20
10.6450865193
 30
0.0
  0
SPLINE
  5
392
100
AcDbEntity
  8
0
100
AcDbSpline
 62
7
  6
CONTINUOUS
 70
0
 71
3
 72
54
 73
50
 74
0
 42
0.0000001
 43
0.0000001
 44
0.0000000001
 40
0.0
 40
0.0
 40
0.0
 40
0.0
 40
0.0099472337
 40
0.0203698704
 40
0.0312644864
 40
0.0426260491
 40
0.0544480896
 40
0.0667227976
 40
0.0794412503
 40
0.0925934343
 40
0.1061683672
 40
0.1201542188
 40
0.1345382898
 40
0.1493071622
 40
0.1644467127
 40
0.1799421393
 40
0.1957780755
 40
0.2119385556
 40
0.2451662193
 40
0.2794882552
 40
0.3147604925
 40
0.3508330981
 40
0.3875515635
 40
0.424757678
 40
0.4622904654
 40
0.4999871083
 40
0.5376838689
 40
0.5752170109
 40
0.6124237148
 40
0.6491429955
 40
0.6852166394
 40
0.7204901413
 40
0.7548136583
 40
0.7880429977
 40
0.8200406729
 40
0.8355371161
 40
0.8506777018
 40
0.8654476672
 40
0.8798328731
 40
0.8938198766
 40
0.9073960261
 40
0.9205494374
 40
0.9332691503
 40
0.9455451651
 40
0.9573685051
 40
0.9687314146
 40
0.9796273864
 40
0.9900513765
 40
1.0
 40
1.0
 40
1.0
 40
1.0
 10
11.1774439653
 20
10.5524432501
 30
0.0
 10
11.1745450543
 20
10.5538889378
 30
0.0
 10
11.1685579462
 20
10.5567484948
 30
0.0
 10
11.1592410033
 20
10.5608576283
 30
0.0
 10
11.1493879443
 20
10.5648824088
 30
0.0
 10
11.1390102443
 20
10.5688180939
 30
0.0
 10
11.1281198263
 20
10.5726601046
 30
0.0
 10
11.1167292957
 20
10.5764039975
 30
0.0
 10
11.1048518258
 20
10.5800453738
 30
0.0
 10
11.0925011833
 20
10.5835799934
 30
0.0
 10
11.0796916947
 20
10.5870037428
 30
0.0
 10
11.0664382234
 20
10.5903125883
 30
0.0
 10
11.052756166
 20
10.5935026956
 30
0.0
 10
11.0386614189
 20
10.5965703217
 30
0.0
 10
11.0241703628
 20
10.5995118733
 30
0.0
 10
11.0092998532
 20
10.6023239339
 30
0.0
 10
10.9940671643
 20
10.6050032105
 30
0.0
 10
10.9731035509
 20
10.6084259694
 30
0.0
 10
10.9461222955
 20
10.6123388411
 30
0.0
 10
10.9128843023
 20
10.6164169246
 30
0.0
 10
10.8786474572
 20
10.6199006838
 30
0.0
 10
10.8435710575
 20
10.6227737469
 30
0.0
 10
10.8078181659
 20
10.6250225914
 30
0.0
 10
10.7715550826
 20
10.6266366428
 30
0.0
 10
10.7349504897
 20
10.6276083078
 30
0.0
 10
10.6981746782
 20
10.6279330124
 30
0.0
 10
10.661398743
 20
10.627609237
 30
0.0
 10
10.6247937797
 20
10.6266385057
 30
0.0
 10
10.588530081
 20
10.6250253809
 30
0.0
 10
10.5527763382
 20
10.6227774403
 30
0.0
 10
10.5176988377
 20
10.6199052638
 30
0.0
 10
10.4834607003
 20
10.616422368
 30
0.0
 10
10.4502210286
 20
10.6123451623
 30
0.0
 10
10.4181344397
 20
10.6076928103
 30
0.0
 10
10.3922112365
 20
10.6033094907
 30
0.0
 10
10.3721682854
 20
10.5995201881
 30
0.0
 10
10.3576761023
 20
10.5965789719
 30
0.0
 10
10.3435801915
 20
10.5935117142
 30
0.0
 10
10.3298969202
 20
10.5903219614
 30
0.0
 10
10.3166421939
 20
10.5870134347
 30
0.0
 10
10.3038314014
 20
10.5835900297
 30
0.0
 10
10.2914794171
 20
10.5800557146
 30
0.0
 10
10.2796005646
 20
10.5764146336
 30
0.0
 10
10.2682086075
 20
10.5726710491
 30
0.0
 10
10.2573167351
 20
10.5688292925
 30
0.0
 10
10.246937537
 20
10.5648938839
 30
0.0
 10
10.2370829472
 20
10.5608693581
 30
0.0
 10
10.2277644523
 20
10.5567604379
 30
0.0
 10
10.2217762666
 20
10.5539010655
 30
0.0
 10
10.2188768132
 20
10.5524554515
 30
0.0
  0
SPLINE
  5
393
100
AcDbEntity
  8
0
100
AcDbSpline
 62
7
  6
CONTINUOUS
 70
0
 71
3
 72
21
 73
17
 74
0
 42
0.0000001
 43
0.0000001
 44
0.0000000001
 40
0.0
 40
0.0
 40
0.0
 40
0.0
 40
0.1273175725
 40
0.2538000026
 40
0.3167619332
 40
0.3795354925
 40
0.4421314982
 40
0.5045621433
 40
0.5668413429
 40
0.6289845306
 40
0.6910084612
 40
0.7529311022
 40
0.8147714553
 40
0.8765493457
 40
0.9382852283
 40
1.0
 40
1.0
 40
1.0
 40
1.0
 10
11.1454088244
 20
10.0744891937
 30
0.0
 10
11.1454088244
 20
10.0809875201
 30
0.0
 10
11.1460291319
 20
10.0939499105
 30
0.0
 10
11.148371811
 20
10.1099742273
 30
0.0
 10
11.1511718506
 20
10.1225439067
 30
0.0
 10
11.153725338
 20
10.1318153033
 30
0.0
 10
11.1567293239
 20
10.1409219726
 30
0.0
 10
11.1601769593
 20
10.1498431517
 30
0.0
 10
11.1640602637
 20
10.1585582142
 30
0.0
 10
11.1683703061
 20
10.167047078
 30
0.0
 10
11.1730971999
 20
10.1752901339
 30
0.0
 10
11.1782300287
 20
10.1832683871
 30
0.0
 10
11.1837569365
 20
10.1909634248
 30
0.0
 10
11.1896652768
 20
10.1983575346
 30
0.0
 10
11.1959411939
 20
10.2054334212
 30
0.0
 10
11.200361344
 20
10.2099285075
 30
0.0
 10
11.202626947
 20
10.2121169238
 30
0.0
  0
SPLINE
  5
394
100
AcDbEntity
  8
0
100
AcDbSpline
 62
7
  6
CONTINUOUS
 70
0
 71
3
 72
21
 73
17
 74
0
 42
0.0000001
 43
0.0000001
 44
0.0000000001
 40
0.0
 40
0.0
 40
0.0
 40
0.0
 40
0.1273175725
 40
0.2538000026
 40
0.3167619332
 40
0.3795354925
 40
0.4421314982
 40
0.5045621433
 40
0.5668413429
 40
0.6289845306
 40
0.6910084612
 40
0.7529311022
 40
0.8147714553
 40
0.8765493457
 40
0.9382852283
 40
1.0
 40
1.0
 40
1.0
 40
1.0
 10
10.0587422055
 20
7.0105906583
 30
0.0
 10
10.0587422055
 20
7.0170889846
 30
0.0
 10
10.0593625129
 20
7.030051375
 30
0.0
 10
10.061705192
 20
7.0460756919
 30
0.0
 10
10.0645052317
 20
7.0586453712
 30
0.0
 10
10.0670587191
 20
7.0679167678
 30
0.0
 10
10.070062705
 20
7.0770234371
 30
0.0
 10
10.0735103403
 20
7.0859446162
 30
0.0
 10
10.0773936448
 20
7.0946596788
 30
0.0
 10
10.0817036871
 20
7.1031485425
 30
0.0
 10
10.0864305809
 20
7.1113915984
 30
0.0
 10
10.0915634097
 20
7.1193698516
 30
0.0
 10
10.0970903175
 20
7.1270648894
 30
0.0
 10
10.1029986578
 20
7.1344589992
 30
0.0
 10
10.1092745749
 20
7.1415348858
 30
0.0
 10
10.1136947251
 20
7.146029972
 30
0.0
 10
10.115960328
 20
7.1482183883
 30
0.0
  0
SPLINE
  5
395
100
AcDbEntity
  8
0
100
AcDbSpline
 62
4
  6
CONTINUOUS
 70
0
 71
3
 72
387
 73
383
 74
0
 42
0.0000001
 43
0.0000001
 44
0.0000000001
 40
0.0
 40
0.0
 40
0.0
 40
0.0
 40
0.015625
 40
0.0234375
 40
0.03125
 40
0.0390625
 40
0.04296875
 40
0.046875
 40
0.05078125
 40
0.0546875
 40
0.056640625
 40
0.05859375
 40
0.0595703125
 40
0.060546875
 40
0.0615234375
 40
0.0620117188
 40
0.0625
 40
0.0629882812
 40
0.0634765625
 40
0.064453125
 40
0.0654296875
 40
0.06640625
 40
0.068359375
 40
0.0703125
 40
0.07421875
 40
0.078125
 40
0.08203125
 40
0.0859375
 40
0.09375
 40
0.1015625
 40
0.10546875
 40
0.109375
 40
0.11328125
 40
0.1171875
 40
0.119140625
 40
0.12109375
 40
0.1220703125
 40
0.123046875
 40
0.1240234375
 40
0.1245117188
 40
0.1247558594
 40
0.125
 40
0.1252441406
 40
0.1254882812
 40
0.1259765625
 40
0.126953125
 40
0.1279296875
 40
0.12890625
 40
0.130859375
 40
0.1328125
 40
0.13671875
 40
0.140625
 40
0.14453125
 40
0.1484375
 40
0.15625
 40
0.1640625
 40
0.16796875
 40
0.171875
 40
0.17578125
 40
0.1796875
 40
0.181640625
 40
0.18359375
 40
0.1845703125
 40
0.185546875
 40
0.1865234375
 40
0.1870117188
 40
0.1872558594
 40
0.1875
 40
0.1877441406
 40
0.1879882812
 40
0.1884765625
 40
0.189453125
 40
0.1904296875
 40
0.19140625
 40
0.193359375
 40
0.1953125
 40
0.19921875
 40
0.203125
 40
0.20703125
 40
0.2109375
 40
0.21875
 40
0.2265625
 40
0.23046875
 40
0.234375
 40
0.23828125
 40
0.2421875
 40
0.244140625
 40
0.24609375
 40
0.2470703125
 40
0.248046875
 40
0.2490234375
 40
0.2495117188
 40
0.2497558594
 40
0.25
 40
0.2502441406
 40
0.2504882812
 40
0.2509765625
 40
0.251953125
 40
0.2529296875
 40
0.25390625
 40
0.255859375
 40
0.2578125
 40
0.26171875
 40
0.265625
 40
0.26953125
 40
0.2734375
 40
0.28125
 40
0.2890625
 40
0.29296875
 40
0.296875
 40
0.30078125
 40
0.3046875
 40
0.306640625
 40
0.30859375
 40
0.3095703125
 40
0.310546875
 40
0.3115234375
 40
0.3120117188
 40
0.3122558594
 40
0.3125
 40
0.3127441406
 40
0.3129882812
 40
0.3134765625
 40
0.314453125
 40
0.3154296875
 40
0.31640625
 40
0.318359375
 40
0.3203125
 40
0.32421875
 40
0.328125
 40
0.33203125
 40
0.3359375
 40
0.34375
 40
0.3515625
 40
0.35546875
 40
0.359375
 40
0.36328125
 40
0.3671875
 40
0.369140625
 40
0.37109375
 40
0.3720703125
 40
0.373046875
 40
0.3740234375
 40
0.3745117188
 40
0.3747558594
 40
0.375
 40
0.3752441406
 40
0.3754882812
 40
0.3759765625
 40
0.376953125
 40
0.3779296875
 40
0.37890625
 40
0.380859375
 40
0.3828125
 40
0.38671875
 40
0.390625
 40
0.39453125
 40
0.3984375
 40
0.40625
 40
0.4140625
 40
0.41796875
 40
0.421875
 40
0.42578125
 40
0.4296875
 40
0.431640625
 40
0.43359375
 40
0.4345703125
 40
0.435546875
 40
0.4365234375
 40
0.4370117188
 40
0.4372558594
 40
0.4375
 40
0.4377441406
 40
0.4379882812
 40
0.4384765625
 40
0.439453125
 40
0.4404296875
 40
0.44140625
 40
0.443359375
 40
0.4453125
 40
0.44921875
 40
0.453125
 40
0.45703125
 40
0.4609375
 40
0.46875
 40
0.4765625
 40
0.48046875
 40
0.484375
 40
0.48828125
 40
0.4921875
 40
0.494140625
 40
0.49609375
 40
0.4970703125
 40
0.498046875
 40
0.4990234375
 40
0.4995117188
 40
0.4997558594
 40
0.5
 40
0.5002441406
 40
0.5004882812
 40
0.5009765625
 40
0.501953125
 40
0.5029296875
 40
0.50390625
 40
0.505859375
 40
0.5078125
 40
0.51171875
 40
0.515625
 40
0.51953125
 40
0.5234375
 40
0.53125
 40
0.5390625
 40
0.54296875
 40
0.546875
 40
0.55078125
 40
0.5546875
 40
0.556640625
 40
0.55859375
 40
0.5595703125
 40
0.560546875
 40
0.5615234375
 40
0.5620117188
 40
0.5625
 40
0.5629882812
 40
0.5634765625
 40
0.564453125
 40
0.5654296875
 40
0.56640625
 40
0.568359375
 40
0.5703125
 40
0.57421875
 40
0.578125
 40
0.58203125
 40
0.5859375
 40
0.59375
 40
0.6015625
 40
0.60546875
 40
0.609375
 40
0.61328125
 40
0.6171875
 40
0.619140625
 40
0.62109375
 40
0.6220703125
 40
0.623046875
 40
0.6240234375
 40
0.6245117188
 40
0.625
 40
0.6254882812
 40
0.6259765625
 40
0.626953125
 40
0.6279296875
 40
0.62890625
 40
0.630859375
 40
0.6328125
 40
0.63671875
 40
0.640625
 40
0.64453125
 40
0.6484375
 40
0.65625
 40
0.6640625
 40
0.66796875
 40
0.671875
 40
0.67578125
 40
0.6796875
 40
0.681640625
 40
0.68359375
 40
0.6845703125
 40
0.685546875
 40
0.6865234375
 40
0.6870117188
 40
0.6875
 40
0.6879882812
 40
0.6884765625
 40
0.689453125
 40
0.6904296875
 40
0.69140625
 40
0.693359375
 40
0.6953125
 40
0.69921875
 40
0.703125
 40
0.70703125
 40
0.7109375
 40
0.71875
 40
0.7265625
 40
0.73046875
 40
0.734375
 40
0.73828125
 40
0.7421875
 40
0.744140625
 40
0.74609375
 40
0.7470703125
 40
0.748046875
 40
0.7490234375
 40
0.7495117188
 40
0.75
 40
0.7504882812
 40
0.7509765625
 40
0.751953125
 40
0.7529296875
 40
0.75390625
 40
0.755859375
 40
0.7578125
 40
0.76171875
 40
0.765625
 40
0.76953125
 40
0.7734375
 40
0.78125
 40
0.7890625
 40
0.79296875
 40
0.796875
 40
0.80078125
 40
0.8046875
 40
0.806640625
 40
0.80859375
 40
0.8095703125
 40
0.810546875
 40
0.8115234375
 40
0.8120117188
 40
0.8125
 40
0.8129882812
 40
0.8134765625
 40
0.814453125
 40
0.8154296875
 40
0.81640625
 40
0.818359375
 40
0.8203125
 40
0.82421875
 40
0.828125
 40
0.83203125
 40
0.8359375
 40
0.84375
 40
0.8515625
 40
0.85546875
 40
0.859375
 40
0.86328125
 40
0.8671875
 40
0.869140625
 40
0.87109375
 40
0.8720703125
 40
0.873046875
 40
0.8740234375
 40
0.8745117188
 40
0.875
 40
0.8754882812
 40
0.8759765625
 40
0.876953125
 40
0.8779296875
 40
0.87890625
 40
0.880859375
 40
0.8828125
 40
0.88671875
 40
0.890625
 40
0.89453125
 40
0.8984375
 40
0.90625
 40
0.9140625
 40
0.91796875
 40
0.921875
 40
0.92578125
 40
0.9296875
 40
0.931640625
 40
0.93359375
 40
0.9345703125
 40
0.935546875
 40
0.9365234375
 40
0.9370117188
 40
0.9375
 40
0.9379882812
 40
0.9384765625
 40
0.939453125
 40
0.9404296875
 40
0.94140625
 40
0.943359375
 40
0.9453125
 40
0.94921875
 40
0.953125
 40
0.95703125
 40
0.9609375
 40
0.96875
 40
0.9765625
 40
0.984375
 40
1.0
 40
1.0
 40
1.0
 40
1.0
 10
10.3809750547
 20
9.2094869003
 30
0.0
 10
10.3841082416
 20
9.2095768248
 30
0.0
 10
10.388808022
 20
9.2097117114
 30
0.0
 10
10.3950743958
 20
9.2098915602
 30
0.0
 10
10.3997741762
 20
9.2100264467
 30
0.0
 10
10.4036906598
 20
9.2101388527
 30
0.0
 10
10.4068238469
 20
9.2102287762
 30
0.0
 10
10.4091737365
 20
9.2102962223
 30
0.0
 10
10.4115236288
 20
9.2103636551
 30
0.0
 10
10.4134818642
 20
9.2104198906
 30
0.0
 10
10.4150484707
 20
9.210464786
 30
0.0
 10
10.4160275584
 20
9.2104930574
 30
0.0
 10
10.4168109233
 20
9.2105151894
 30
0.0
 10
10.4173981875
 20
9.210533117
 30
0.0
 10
10.4178883999
 20
9.21054383
 30
0.0
 10
10.4182787182
 20
9.2105618801
 30
0.0
 10
10.4185765164
 20
9.2105495144
 30
0.0
 10
10.4188550024
 20
9.210636022
 30
0.0
 10
10.4192330631
 20
9.2107168277
 30
0.0
 10
10.4197033244
 20
9.2108296846
 30
0.0
 10
10.4202686287
 20
9.2109600408
 30
0.0
 10
10.4210220217
 20
9.2111356206
 30
0.0
 10
10.4219638814
 20
9.2113544888
 30
0.0
 10
10.4234707908
 20
9.2117050169
 30
0.0
 10
10.4253544502
 20
9.2121430607
 30
0.0
 10
10.4276148317
 20
9.2126687632
 30
0.0
 10
10.4298752159
 20
9.2131944523
 30
0.0
 10
10.4328890605
 20
9.2138953757
 30
0.0
 10
10.4366563665
 20
9.2147715285
 30
0.0
 10
10.4404236726
 20
9.2156476817
 30
0.0
 10
10.4434375173
 20
9.2163486045
 30
0.0
 10
10.4456979012
 20
9.2168742955
 30
0.0
 10
10.4479582834
 20
9.2173999909
 30
0.0
 10
10.4498419409
 20
9.2178380564
 30
0.0
 10
10.4513488542
 20
9.2181885404
 30
0.0
 10
10.4522907038
 20
9.218407521
 30
0.0
 10
10.4530441176
 20
9.21858287
 30
0.0
 10
10.4536093584
 20
9.2187139314
 30
0.0
 10
10.4540798183
 20
9.2188245817
 30
0.0
 10
10.4544102668
 20
9.2188992258
 30
0.0
 10
10.4545973356
 20
9.218946269
 30
0.0
 10
10.4547425921
 20
9.2189691861
 30
0.0
 10
10.4548689083
 20
9.2190393695
 30
0.0
 10
10.4550439364
 20
9.2191164604
 30
0.0
 10
10.4553471576
 20
9.219259051
 30
0.0
 10
10.45578194
 20
9.2194587359
 30
0.0
 10
10.4563029901
 20
9.2197000767
 30
0.0
 10
10.456997964
 20
9.2200212641
 30
0.0
 10
10.4578665992
 20
9.2204229538
 30
0.0
 10
10.4592564614
 20
9.2210655425
 30
0.0
 10
10.4609937733
 20
9.2218688179
 30
0.0
 10
10.4630785545
 20
9.2228327314
 30
0.0
 10
10.4651633338
 20
9.2237966494
 30
0.0
 10
10.4679430402
 20
9.2250818718
 30
0.0
 10
10.471417673
 20
9.2266884005
 30
0.0
 10
10.4748923059
 20
9.2282949287
 30
0.0
 10
10.477672012
 20
9.2295801518
 30
0.0
 10
10.4797567922
 20
9.2305440679
 30
0.0
 10
10.4818415701
 20
9.2315079885
 30
0.0
 10
10.4835788922
 20
9.2323112418
 30
0.0
 10
10.4849687337
 20
9.2329538754
 30
0.0
 10
10.4858374215
 20
9.2333554511
 30
0.0
 10
10.4865322873
 20
9.2336768727
 30
0.0
 10
10.4870536679
 20
9.2339174978
 30
0.0
 10
10.487487416
 20
9.2341194219
 30
0.0
 10
10.4877924836
 20
9.2342580151
 30
0.0
 10
10.4879645533
 20
9.2343415108
 30
0.0
 10
10.4880999571
 20
9.2343920207
 30
0.0
 10
10.4882110821
 20
9.2344888282
 30
0.0
 10
10.4883677175
 20
9.2346017558
 30
0.0
 10
10.4886378837
 20
9.2348069032
 30
0.0
 10
10.4890258983
 20
9.2350960373
 30
0.0
 10
10.4894906328
 20
9.2354446819
 30
0.0
 10
10.4901105872
 20
9.2359089532
 30
0.0
 10
10.4908854246
 20
9.2364894938
 30
0.0
 10
10.4921252235
 20
9.2374182462
 30
0.0
 10
10.4936749519
 20
9.2385792253
 30
0.0
 10
10.4955346347
 20
9.2399723837
 30
0.0
 10
10.4973943151
 20
9.2413655465
 30
0.0
 10
10.4998738898
 20
9.2432230954
 30
0.0
 10
10.5029733579
 20
9.2455450321
 30
0.0
 10
10.5060728262
 20
9.2478669684
 30
0.0
 10
10.5085524005
 20
9.2497245178
 30
0.0
 10
10.5104120822
 20
9.2511176789
 30
0.0
 10
10.5122717602
 20
9.2525108435
 30
0.0
 10
10.5138215034
 20
9.2536718034
 30
0.0
 10
10.515061272
 20
9.2546005949
 30
0.0
 10
10.5158361866
 20
9.255181036
 30
0.0
 10
10.5164559827
 20
9.2556455117
 30
0.0
 10
10.5169212008
 20
9.255993532
 30
0.0
 10
10.5173077025
 20
9.2562846193
 30
0.0
 10
10.5175805694
 20
9.2564862798
 30
0.0
 10
10.5177328776
 20
9.2566047943
 30
0.0
 10
10.5178572944
 20
9.2566844407
 30
0.0
 10
10.5179427763
 20
9.2567994052
 30
0.0
 10
10.5180703332
 20
9.2569403718
 30
0.0
 10
10.5182872302
 20
9.2571928033
 30
0.0
 10
10.5186003911
 20
9.2575504188
 30
0.0
 10
10.5189747682
 20
9.2579808419
 30
0.0
 10
10.5194744322
 20
9.2585542907
 30
0.0
 10
10.5200988429
 20
9.2592712553
 30
0.0
 10
10.5210979947
 20
9.2604183128
 30
0.0
 10
10.522346902
 20
9.2618521642
 30
0.0
 10
10.5238456046
 20
9.2635727733
 30
0.0
 10
10.5253443036
 20
9.2652933857
 30
0.0
 10
10.5273425701
 20
9.2675875344
 30
0.0
 10
10.5298404028
 20
9.2704552207
 30
0.0
 10
10.5323382358
 20
9.2733229067
 30
0.0
 10
10.5343365017
 20
9.2756170558
 30
0.0
 10
10.5358352023
 20
9.2773376669
 30
0.0
 10
10.5373338989
 20
9.2790582809
 30
0.0
 10
10.538582825
 20
9.2804921168
 30
0.0
 10
10.5395819383
 20
9.2816392059
 30
0.0
 10
10.5402064469
 20
9.2823560902
 30
0.0
 10
10.5407059101
 20
9.2829297039
 30
0.0
 10
10.5410809009
 20
9.2833596234
 30
0.0
 10
10.5413921416
 20
9.2837188144
 30
0.0
 10
10.5416124665
 20
9.2839684333
 30
0.0
 10
10.5417345308
 20
9.2841139064
 30
0.0
 10
10.5418368842
 20
9.2842150285
 30
0.0
 10
10.541897935
 20
9.2843466646
 30
0.0
 10
10.541993743
 20
9.2845115357
 30
0.0
 10
10.5421546945
 20
9.2848050192
 30
0.0
 10
10.5423881345
 20
9.2852216887
 30
0.0
 10
10.5426667605
 20
9.2857228018
 30
0.0
 10
10.5430387864
 20
9.286390565
 30
0.0
 10
10.5435036391
 20
9.2872254018
 30
0.0
 10
10.544247504
 20
9.2885610664
 30
0.0
 10
10.5451773005
 20
9.2902306727
 30
0.0
 10
10.5462930711
 20
9.2922341893
 30
0.0
 10
10.5474088378
 20
9.2942377088
 30
0.0
 10
10.5488965281
 20
9.2969090671
 30
0.0
 10
10.5507561405
 20
9.3002482653
 30
0.0
 10
10.5526157532
 20
9.3035874634
 30
0.0
 10
10.5541034429
 20
9.306258822
 30
0.0
 10
10.5552192114
 20
9.3082623405
 30
0.0
 10
10.5563349754
 20
9.3102658611
 30
0.0
 10
10.5572647925
 20
9.3119354549
 30
0.0
 10
10.5580086155
 20
9.3132711448
 30
0.0
 10
10.5584735746
 20
9.3141059172
 30
0.0
 10
10.5588453822
 20
9.3147738126
 30
0.0
 10
10.5591246751
 20
9.3152745219
 30
0.0
 10
10.5593560285
 20
9.3156924549
 30
0.0
 10
10.559520705
 20
9.3159836828
 30
0.0
 10
10.5596105445
 20
9.316152168
 30
0.0
 10
10.5596899284
 20
9.3162727026
 30
0.0
 10
10.559723426
 20
9.31641552
 30
0.0
 10
10.5597840951
 20
9.3165981707
 30
0.0
 10
10.5598828087
 20
9.3169214308
 30
0.0
 10
10.5600277269
 20
9.3173813377
 30
0.0
 10
10.5601999599
 20
9.3179340363
 30
0.0
 10
10.5604301868
 20
9.3186706847
 30
0.0
 10
10.5607177709
 20
9.3195915922
 30
0.0
 10
10.561178017
 20
9.3210649899
 30
0.0
 10
10.5617532863
 20
9.3229067557
 30
0.0
 10
10.5624436258
 20
9.3251168667
 30
0.0
 10
10.563133961
 20
9.3273269798
 30
0.0
 10
10.5640544094
 20
9.3302737965
 30
0.0
 10
10.5652049694
 20
9.3339573177
 30
0.0
 10
10.5663555298
 20
9.3376408388
 30
0.0
 10
10.5672759776
 20
9.3405876558
 30
0.0
 10
10.5679663147
 20
9.3427977681
 30
0.0
 10
10.5686566471
 20
9.3450078821
 30
0.0
 10
10.5692319386
 20
9.3468496385
 30
0.0
 10
10.5696921393
 20
9.3483230554
 30
0.0
 10
10.5699798388
 20
9.349243914
 30
0.0
 10
10.5702098289
 20
9.3499806627
 30
0.0
 10
10.5703827855
 20
9.350533055
 30
0.0
 10
10.5705254397
 20
9.3509939202
 30
0.0
 10
10.5706281949
 20
9.3513154696
 30
0.0
 10
10.5706823883
 20
9.3515008612
 30
0.0
 10
10.5707357774
 20
9.3516352594
 30
0.0
 10
10.570740452
 20
9.3517874151
 30
0.0
 10
10.570763677
 20
9.3519840953
 30
0.0
 10
10.5707964038
 20
9.3523311716
 30
0.0
 10
10.5708472954
 20
9.3528254861
 30
0.0
 10
10.5709065937
 20
9.3534193093
 30
0.0
 10
10.5709862769
 20
9.354210848
 30
0.0
 10
10.571085669
 20
9.3552003487
 30
0.0
 10
10.5712448148
 20
9.3567835065
 30
0.0
 10
10.5714437065
 20
9.3587624686
 30
0.0
 10
10.5716823938
 20
9.3611372167
 30
0.0
 10
10.5719210766
 20
9.3635119666
 30
0.0
 10
10.5722393218
 20
9.3666782991
 30
0.0
 10
10.5726371278
 20
9.370636215
 30
0.0
 10
10.5730349342
 20
9.3745941308
 30
0.0
 10
10.5733531787
 20
9.3777604635
 30
0.0
 10
10.5735918635
 20
9.380135213
 30
0.0
 10
10.5738305433
 20
9.3825099624
 30
0.0
 10
10.5740294583
 20
9.3844889206
 30
0.0
 10
10.5741885565
 20
9.3860720865
 30
0.0
 10
10.5742880698
 20
9.3870615666
 30
0.0
 10
10.5743675043
 20
9.3878531473
 30
0.0
 10
10.5744275623
 20
9.3884468421
 30
0.0
 10
10.5744760772
 20
9.3889415586
 30
0.0
 10
10.5745130468
 20
9.3892879172
 30
0.0
 10
10.5745294737
 20
9.3894857474
 30
0.0
 10
10.57455503
 20
9.3896343706
 30
0.0
 10
10.5745299909
 20
9.389782036
 30
0.0
 10
10.5745142536
 20
9.3899792574
 30
0.0
 10
10.5744784907
 20
9.390324239
 30
0.0
 10
10.5744316997
 20
9.3908171513
 30
0.0
 10
10.5743737105
 20
9.3914086113
 30
0.0
 10
10.5742970343
 20
9.3921972367
 30
0.0
 10
10.5742009689
 20
9.3931830143
 30
0.0
 10
10.5740473874
 20
9.3947602609
 30
0.0
 10
10.5738553682
 20
9.3967318182
 30
0.0
 10
10.5736249633
 20
9.3990976874
 30
0.0
 10
10.5733945535
 20
9.4014635564
 30
0.0
 10
10.5730873422
 20
9.4046180486
 30
0.0
 10
10.5727033275
 20
9.4085611637
 30
0.0
 10
10.5723193126
 20
9.4125042788
 30
0.0
 10
10.5720121018
 20
9.4156587711
 30
0.0
 10
10.5717816903
 20
9.4180246398
 30
0.0
 10
10.5715512919
 20
9.4203905102
 30
0.0
 10
10.5713592523
 20
9.4223620636
 30
0.0
 10
10.5712057124
 20
9.4239393182
 30
0.0
 10
10.571109541
 20
9.4249250754
 30
0.0
 10
10.5710330825
 20
9.4257137427
 30
0.0
 10
10.570974428
 20
9.4263050746
 30
0.0
 10
10.5709297187
 20
9.4267983876
 30
0.0
 10
10.5708845998
 20
9.4271918349
 30
0.0
 10
10.5708763131
 20
9.4274902078
 30
0.0
 10
10.5707704925
 20
9.4277760325
 30
0.0
 10
10.5706634682
 20
9.4281615153
 30
0.0
 10
10.5705179986
 20
9.428641865
 30
0.0
 10
10.5703484384
 20
9.4292189283
 30
0.0
 10
10.5701206106
 20
9.4299881212
 30
0.0
 10
10.5698364242
 20
9.4309496893
 30
0.0
 10
10.5693813916
 20
9.4324881553
 30
0.0
 10
10.5688127155
 20
9.4344112525
 30
0.0
 10
10.5681302551
 20
9.4367189628
 30
0.0
 10
10.5674478078
 20
9.4390266749
 30
0.0
 10
10.5665378735
 20
9.4421036236
 30
0.0
 10
10.5654004573
 20
9.4459498099
 30
0.0
 10
10.5642630401
 20
9.4497959958
 30
0.0
 10
10.5633531075
 20
9.452872945
 30
0.0
 10
10.5626706549
 20
9.4551806558
 30
0.0
 10
10.5619882146
 20
9.4574883708
 30
0.0
 10
10.5614194758
 20
9.4594114534
 30
0.0
 10
10.5609645712
 20
9.4609499492
 30
0.0
 10
10.5606800589
 20
9.4619114415
 30
0.0
 10
10.5604529002
 20
9.46268079
 30
0.0
 10
10.5602812958
 20
9.4632573779
 30
0.0
 10
10.5601422219
 20
9.463739215
 30
0.0
 10
10.5600221492
 20
9.4641216632
 30
0.0
 10
10.5599561777
 20
9.4644167555
 30
0.0
 10
10.5597982808
 20
9.4646803339
 30
0.0
 10
10.5596198624
 20
9.4650427801
 30
0.0
 10
10.5593858223
 20
9.4654920609
 30
0.0
 10
10.5591096899
 20
9.4660328144
 30
0.0
 10
10.5587398662
 20
9.4667532546
 30
0.0
 10
10.5582781506
 20
9.4676539981
 30
0.0
 10
10.5575390904
 20
9.4690950796
 30
0.0
 10
10.5566153734
 20
9.4708964685
 30
0.0
 10
10.5555068666
 20
9.4730581194
 30
0.0
 10
10.5543983721
 20
9.4752197746
 30
0.0
 10
10.5529203752
 20
9.4781019799
 30
0.0
 10
10.5510728807
 20
9.4817047372
 30
0.0
 10
10.5492253851
 20
9.485307494
 30
0.0
 10
10.5477473899
 20
9.4881897
 30
0.0
 10
10.5466388904
 20
9.4903513531
 30
0.0
 10
10.5455304029
 20
9.4925130118
 30
0.0
 10
10.5446066257
 20
9.4943143763
 30
0.0
 10
10.5438676881
 20
9.4957555078
 30
0.0
 10
10.5434056607
 20
9.4966561241
 30
0.0
 10
10.5430364769
 20
9.4973768252
 30
0.0
 10
10.5427583897
 20
9.4979167815
 30
0.0
 10
10.5425304656
 20
9.4983685567
 30
0.0
 10
10.5423395695
 20
9.4987259137
 30
0.0
 10
10.5422197788
 20
9.4990050341
 30
0.0
 10
10.542010741
 20
9.4992417757
 30
0.0
 10
10.541763199
 20
9.4995722345
 30
0.0
 10
10.5414430756
 20
9.4999802292
 30
0.0
 10
10.5410635057
 20
9.5004719967
 30
0.0
 10
10.5405558135
 20
9.5011269274
 30
0.0
 10
10.5399217457
 20
9.5019458507
 30
0.0
 10
10.5389069313
 20
9.5032559828
 30
0.0
 10
10.5376385182
 20
9.5048936977
 30
0.0
 10
10.5361163775
 20
9.5068589343
 30
0.0
 10
10.5345942488
 20
9.5088241765
 30
0.0
 10
10.5325647397
 20
9.5114444976
 30
0.0
 10
10.5300278549
 20
9.5147198996
 30
0.0
 10
10.5274909692
 20
9.517995301
 30
0.0
 10
10.5254614616
 20
9.5206156231
 30
0.0
 10
10.5239393285
 20
9.5225808621
 30
0.0
 10
10.5224172043
 20
9.524546111
 30
0.0
 10
10.52114874
 20
9.5261837876
 30
0.0
 10
10.52013403
 20
9.5274939979
 30
0.0
 10
10.5194996964
 20
9.5283127221
 30
0.0
 10
10.5189925498
 20
9.5289680616
 30
0.0
 10
10.5186113129
 20
9.5294585803
 30
0.0
 10
10.518296405
 20
9.529870482
 30
0.0
 10
10.5180382225
 20
9.5301929697
 30
0.0
 10
10.5178616803
 20
9.5304540549
 30
0.0
 10
10.5176198878
 20
9.5306417788
 30
0.0
 10
10.5173202905
 20
9.5309177035
 30
0.0
 10
10.5169379739
 20
9.5312538171
 30
0.0
 10
10.5164825412
 20
9.5316609167
 30
0.0
 10
10.5158741285
 20
9.5322024018
 30
0.0
 10
10.5151140129
 20
9.5328797082
 30
0.0
 10
10.5138976042
 20
9.5339631469
 30
0.0
 10
10.5123771701
 20
9.5353175316
 30
0.0
 10
10.5105526163
 20
9.5369427562
 30
0.0
 10
10.5087280712
 20
9.5385679908
 30
0.0
 10
10.5062953415
 20
9.5407349667
 30
0.0
 10
10.5032544304
 20
9.5434436879
 30
0.0
 10
10.5002135186
 20
9.5461524082
 30
0.0
 10
10.4977807899
 20
9.5483193855
 30
0.0
 10
10.4959562415
 20
9.5499446157
 30
0.0
 10
10.4941317005
 20
9.5515698566
 30
0.0
 10
10.4926112264
 20
9.5529241908
 30
0.0
 10
10.4913948992
 20
9.5540077324
 30
0.0
 10
10.4906345762
 20
9.5546847771
 30
0.0
 10
10.4900265893
 20
9.5552267994
 30
0.0
 10
10.4895698558
 20
9.5556322575
 30
0.0
 10
10.489191609
 20
9.5559735072
 30
0.0
 10
10.4888837085
 20
9.5562389531
 30
0.0
 10
10.4886672737
 20
9.5564586785
 30
0.0
 10
10.4883955279
 20
9.556599617
 30
0.0
 10
10.488052521
 20
9.5568150562
 30
0.0
 10
10.4876171335
 20
9.5570749129
 30
0.0
 10
10.4870975059
 20
9.5573907825
 30
0.0
 10
10.486403678
 20
9.5578105303
 30
0.0
 10
10.4855367325
 20
9.5583356985
 30
0.0
 10
10.48414943
 20
9.5591756974
 30
0.0
 10
10.482415367
 20
9.5602257887
 30
0.0
 10
10.4803344635
 20
9.5614858586
 30
0.0
 10
10.4782535674
 20
9.5627459391
 30
0.0
 10
10.4754790367
 20
9.5644260427
 30
0.0
 10
10.4720108743
 20
9.5665261736
 30
0.0
 10
10.4685427114
 20
9.5686263035
 30
0.0
 10
10.4657681815
 20
9.5703064087
 30
0.0
 10
10.4636872828
 20
9.5715664844
 30
0.0
 10
10.4616063893
 20
9.5728265722
 30
0.0
 10
10.4598722953
 20
9.5738766079
 30
0.0
 10
10.458485056
 20
9.5747167203
 30
0.0
 10
10.4576179496
 20
9.5752415995
 30
0.0
 10
10.456924452
 20
9.5756619404
 30
0.0
 10
10.4564038153
 20
9.5759759982
 30
0.0
 10
10.4559715848
 20
9.5762415237
 30
0.0
 10
10.455622137
 20
9.5764453974
 30
0.0
 10
10.4553700614
 20
9.5766216566
 30
0.0
 10
10.4550797763
 20
9.5767087731
 30
0.0
 10
10.4547060766
 20
9.5768560672
 30
0.0
 10
10.4542343727
 20
9.5770295014
 30
0.0
 10
10.453670288
 20
9.5772421952
 30
0.0
 10
10.4529174906
 20
9.5775241897
 30
0.0
 10
10.4519767281
 20
9.5778772298
 30
0.0
 10
10.4504713772
 20
9.5784417882
 30
0.0
 10
10.4485897335
 20
9.5791475912
 30
0.0
 10
10.4463317418
 20
9.5799945098
 30
0.0
 10
10.4440737552
 20
9.5808414404
 30
0.0
 10
10.4410631047
 20
9.5819706769
 30
0.0
 10
10.4372997922
 20
9.5833822243
 30
0.0
 10
10.4335364793
 20
9.5847937705
 30
0.0
 10
10.4305258294
 20
9.5859230088
 30
0.0
 10
10.4282678409
 20
9.5867699342
 30
0.0
 10
10.4260098563
 20
9.5876168724
 30
0.0
 10
10.4241281904
 20
9.5883226142
 30
0.0
 10
10.4226228848
 20
9.5888872974
 30
0.0
 10
10.4216820071
 20
9.5892400199
 30
0.0
 10
10.4209294462
 20
9.5895226664
 30
0.0
 10
10.4203646389
 20
9.5897333685
 30
0.0
 10
10.4198951958
 20
9.5899130342
 30
0.0
 10
10.4195168835
 20
9.5900476147
 30
0.0
 10
10.4192406851
 20
9.5901735578
 30
0.0
 10
10.4189357221
 20
9.5902040458
 30
0.0
 10
10.4185391526
 20
9.5902780402
 30
0.0
 10
10.4180399934
 20
9.5903590931
 30
0.0
 10
10.417442478
 20
9.5904612533
 30
0.0
 10
10.4166452753
 20
9.5905957566
 30
0.0
 10
10.4156489484
 20
9.5907644713
 30
0.0
 10
10.4140547267
 20
9.5910340875
 30
0.0
 10
10.4120619835
 20
9.5913712201
 30
0.0
 10
10.4096706771
 20
9.5917757311
 30
0.0
 10
10.4072793746
 20
9.5921802549
 30
0.0
 10
10.4040909699
 20
9.5927196156
 30
0.0
 10
10.4001054644
 20
9.5933938179
 30
0.0
 10
10.3953228577
 20
9.5942028601
 30
0.0
 10
10.3889460489
 20
9.5952815832
 30
0.0
 10
10.3841634422
 20
9.5960906255
 30
0.0
 10
10.3809750378
 20
9.596629987
 30
0.0
  0
SPLINE
  5
396
100
AcDbEntity
  8
0
100
AcDbSpline
 62
4
  6
CONTINUOUS
 70
0
 71
3
 72
387
 73
383
 74
0
 42
0.0000001
 43
0.0000001
 44
0.0000000001
 40
0.0
 40
0.0
 40
0.0
 40
0.0
 40
0.015625
 40
0.0234375
 40
0.03125
 40
0.0390625
 40
0.04296875
 40
0.046875
 40
0.05078125
 40
0.0546875
 40
0.056640625
 40
0.05859375
 40
0.0595703125
 40
0.060546875
 40
0.0615234375
 40
0.0620117188
 40
0.0625
 40
0.0629882812
 40
0.0634765625
 40
0.064453125
 40
0.0654296875
 40
0.06640625
 40
0.068359375
 40
0.0703125
 40
0.07421875
 40
0.078125
 40
0.08203125
 40
0.0859375
 40
0.09375
 40
0.1015625
 40
0.10546875
 40
0.109375
 40
0.11328125
 40
0.1171875
 40
0.119140625
 40
0.12109375
 40
0.1220703125
 40
0.123046875
 40
0.1240234375
 40
0.1245117188
 40
0.1247558594
 40
0.125
 40
0.1252441406
 40
0.1254882812
 40
0.1259765625
 40
0.126953125
 40
0.1279296875
 40
0.12890625
 40
0.130859375
 40
0.1328125
 40
0.13671875
 40
0.140625
 40
0.14453125
 40
0.1484375
 40
0.15625
 40
0.1640625
 40
0.16796875
 40
0.171875
 40
0.17578125
 40
0.1796875
 40
0.181640625
 40
0.18359375
 40
0.1845703125
 40
0.185546875
 40
0.1865234375
 40
0.1870117188
 40
0.1872558594
 40
0.1875
 40
0.1877441406
 40
0.1879882812
 40
0.1884765625
 40
0.189453125
 40
0.1904296875
 40
0.19140625
 40
0.193359375
 40
0.1953125
 40
0.19921875
 40
0.203125
 40
0.20703125
 40
0.2109375
 40
0.21875
 40
0.2265625
 40
0.23046875
 40
0.234375
 40
0.23828125
 40
0.2421875
 40
0.244140625
 40
0.24609375
 40
0.2470703125
 40
0.248046875
 40
0.2490234375
 40
0.2495117188
 40
0.2497558594
 40
0.25
 40
0.2502441406
 40
0.2504882812
 40
0.2509765625
 40
0.251953125
 40
0.2529296875
 40
0.25390625
 40
0.255859375
 40
0.2578125
 40
0.26171875
 40
0.265625
 40
0.26953125
 40
0.2734375
 40
0.28125
 40
0.2890625
 40
0.29296875
 40
0.296875
 40
0.30078125
 40
0.3046875
 40
0.306640625
 40
0.30859375
 40
0.3095703125
 40
0.310546875
 40
0.3115234375
 40
0.3120117188
 40
0.3122558594
 40
0.3125
 40
0.3127441406
 40
0.3129882812
 40
0.3134765625
 40
0.314453125
 40
0.3154296875
 40
0.31640625
 40
0.318359375
 40
0.3203125
 40
0.32421875
 40
0.328125
 40
0.33203125
 40
0.3359375
 40
0.34375
 40
0.3515625
 40
0.35546875
 40
0.359375
 40
0.36328125
 40
0.3671875
 40
0.369140625
 40
0.37109375
 40
0.3720703125
 40
0.373046875
 40
0.3740234375
 40
0.3745117188
 40
0.3747558594
 40
0.375
 40
0.3752441406
 40
0.3754882812
 40
0.3759765625
 40
0.376953125
 40
0.3779296875
 40
0.37890625
 40
0.380859375
 40
0.3828125
 40
0.38671875
 40
0.390625
 40
0.39453125
 40
0.3984375
 40
0.40625
 40
0.4140625
 40
0.41796875
 40
0.421875
 40
0.42578125
 40
0.4296875
 40
0.431640625
 40
0.43359375
 40
0.4345703125
 40
0.435546875
 40
0.4365234375
 40
0.4370117188
 40
0.4372558594
 40
0.4375
 40
0.4377441406
 40
0.4379882812
 40
0.4384765625
 40
0.439453125
 40
0.4404296875
 40
0.44140625
 40
0.443359375
 40
0.4453125
 40
0.44921875
 40
0.453125
 40
0.45703125
 40
0.4609375
 40
0.46875
 40
0.4765625
 40
0.48046875
 40
0.484375
 40
0.48828125
 40
0.4921875
 40
0.494140625
 40
0.49609375
 40
0.4970703125
 40
0.498046875
 40
0.4990234375
 40
0.4995117188
 40
0.4997558594
 40
0.5
 40
0.5002441406
 40
0.5004882812
 40
0.5009765625
 40
0.501953125
 40
0.5029296875
 40
0.50390625
 40
0.505859375
 40
0.5078125
 40
0.51171875
 40
0.515625
 40
0.51953125
 40
0.5234375
 40
0.53125
 40
0.5390625
 40
0.54296875
 40
0.546875
 40
0.55078125
 40
0.5546875
 40
0.556640625
 40
0.55859375
 40
0.5595703125
 40
0.560546875
 40
0.5615234375
 40
0.5620117188
 40
0.5625
 40
0.5629882812
 40
0.5634765625
 40
0.564453125
 40
0.5654296875
 40
0.56640625
 40
0.568359375
 40
0.5703125
 40
0.57421875
 40
0.578125
 40
0.58203125
 40
0.5859375
 40
0.59375
 40
0.6015625
 40
0.60546875
 40
0.609375
 40
0.61328125
 40
0.6171875
 40
0.619140625
 40
0.62109375
 40
0.6220703125
 40
0.623046875
 40
0.6240234375
 40
0.6245117188
 40
0.625
 40
0.6254882812
 40
0.6259765625
 40
0.626953125
 40
0.6279296875
 40
0.62890625
 40
0.630859375
 40
0.6328125
 40
0.63671875
 40
0.640625
 40
0.64453125
 40
0.6484375
 40
0.65625
 40
0.6640625
 40
0.66796875
 40
0.671875
 40
0.67578125
 40
0.6796875
 40
0.681640625
 40
0.68359375
 40
0.6845703125
 40
0.685546875
 40
0.6865234375
 40
0.6870117188
 40
0.6875
 40
0.6879882812
 40
0.6884765625
 40
0.689453125
 40
0.6904296875
 40
0.69140625
 40
0.693359375
 40
0.6953125
 40
0.69921875
 40
0.703125
 40
0.70703125
 40
0.7109375
 40
0.71875
 40
0.7265625
 40
0.73046875
 40
0.734375
 40
0.73828125
 40
0.7421875
 40
0.744140625
 40
0.74609375
 40
0.7470703125
 40
0.748046875
 40
0.7490234375
 40
0.7495117188
 40
0.75
 40
0.7504882812
 40
0.7509765625
 40
0.751953125
 40
0.7529296875
 40
0.75390625
 40
0.755859375
 40
0.7578125
 40
0.76171875
 40
0.765625
 40
0.76953125
 40
0.7734375
 40
0.78125
 40
0.7890625
 40
0.79296875
 40
0.796875
 40
0.80078125
 40
0.8046875
 40
0.806640625
 40
0.80859375
 40
0.8095703125
 40
0.810546875
 40
0.8115234375
 40
0.8120117188
 40
0.8125
 40
0.8129882812
 40
0.8134765625
 40
0.814453125
 40
0.8154296875
 40
0.81640625
 40
0.818359375
 40
0.8203125
 40
0.82421875
 40
0.828125
 40
0.83203125
 40
0.8359375
 40
0.84375
 40
0.8515625
 40
0.85546875
 40
0.859375
 40
0.86328125
 40
0.8671875
 40
0.869140625
 40
0.87109375
 40
0.8720703125
 40
0.873046875
 40
0.8740234375
 40
0.8745117188
 40
0.875
 40
0.8754882812
 40
0.8759765625
 40
0.876953125
 40
0.8779296875
 40
0.87890625
 40
0.880859375
 40
0.8828125
 40
0.88671875
 40
0.890625
 40
0.89453125
 40
0.8984375
 40
0.90625
 40
0.9140625
 40
0.91796875
 40
0.921875
 40
0.92578125
 40
0.9296875
 40
0.931640625
 40
0.93359375
 40
0.9345703125
 40
0.935546875
 40
0.9365234375
 40
0.9370117188
 40
0.9375
 40
0.9379882812
 40
0.9384765625
 40
0.939453125
 40
0.9404296875
 40
0.94140625
 40
0.943359375
 40
0.9453125
 40
0.94921875
 40
0.953125
 40
0.95703125
 40
0.9609375
 40
0.96875
 40
0.9765625
 40
0.984375
 40
1.0
 40
1.0
 40
1.0
 40
1.0
 10
10.3809750547
 20
9.5966299858
 30
0.0
 10
10.3778418678
 20
9.5965400614
 30
0.0
 10
10.3731420874
 20
9.5964051748
 30
0.0
 10
10.3668757136
 20
9.5962253259
 30
0.0
 10
10.3621759332
 20
9.5960904394
 30
0.0
 10
10.3582594496
 20
9.5959780335
 30
0.0
 10
10.3551262625
 20
9.59588811
 30
0.0
 10
10.3527763729
 20
9.5958206639
 30
0.0
 10
10.3504264806
 20
9.5957532311
 30
0.0
 10
10.3484682452
 20
9.5956969956
 30
0.0
 10
10.3469016387
 20
9.5956521002
 30
0.0
 10
10.345922551
 20
9.5956238287
 30
0.0
 10
10.3451391861
 20
9.5956016968
 30
0.0
 10
10.3445519219
 20
9.5955837692
 30
0.0
 10
10.3440617095
 20
9.5955730562
 30
0.0
 10
10.3436713912
 20
9.5955550061
 30
0.0
 10
10.343373593
 20
9.5955673717
 30
0.0
 10
10.343095107
 20
9.5954808642
 30
0.0
 10
10.3427170463
 20
9.5954000584
 30
0.0
 10
10.342246785
 20
9.5952872016
 30
0.0
 10
10.3416814807
 20
9.5951568454
 30
0.0
 10
10.3409280877
 20
9.5949812656
 30
0.0
 10
10.339986228
 20
9.5947623974
 30
0.0
 10
10.3384793187
 20
9.5944118693
 30
0.0
 10
10.3365956593
 20
9.5939738254
 30
0.0
 10
10.3343352777
 20
9.593448123
 30
0.0
 10
10.3320748936
 20
9.5929224339
 30
0.0
 10
10.329061049
 20
9.5922215104
 30
0.0
 10
10.3252937429
 20
9.5913453577
 30
0.0
 10
10.3215264368
 20
9.5904692045
 30
0.0
 10
10.3185125922
 20
9.5897682817
 30
0.0
 10
10.3162522082
 20
9.5892425907
 30
0.0
 10
10.313991826
 20
9.5887168952
 30
0.0
 10
10.3121081686
 20
9.5882788297
 30
0.0
 10
10.3106012552
 20
9.5879283458
 30
0.0
 10
10.3096594056
 20
9.5877093652
 30
0.0
 10
10.3089059918
 20
9.5875340162
 30
0.0
 10
10.3083407511
 20
9.5874029548
 30
0.0
 10
10.3078702911
 20
9.5872923044
 30
0.0
 10
10.3075398426
 20
9.5872176604
 30
0.0
 10
10.3073527739
 20
9.5871706172
 30
0.0
 10
10.3072075174
 20
9.5871477
 30
0.0
 10
10.3070812012
 20
9.5870775166
 30
0.0
 10
10.306906173
 20
9.5870004257
 30
0.0
 10
10.3066029518
 20
9.5868578351
 30
0.0
 10
10.3061681694
 20
9.5866581503
 30
0.0
 10
10.3056471194
 20
9.5864168095
 30
0.0
 10
10.3049521454
 20
9.5860956221
 30
0.0
 10
10.3040835103
 20
9.5856939323
 30
0.0
 10
10.3026936481
 20
9.5850513436
 30
0.0
 10
10.3009563361
 20
9.5842480683
 30
0.0
 10
10.298871555
 20
9.5832841548
 30
0.0
 10
10.2967867756
 20
9.5823202368
 30
0.0
 10
10.2940070692
 20
9.5810350143
 30
0.0
 10
10.2905324365
 20
9.5794284857
 30
0.0
 10
10.2870578035
 20
9.5778219574
 30
0.0
 10
10.2842780974
 20
9.5765367344
 30
0.0
 10
10.2821933172
 20
9.5755728182
 30
0.0
 10
10.2801085394
 20
9.5746088977
 30
0.0
 10
10.2783712172
 20
9.5738056443
 30
0.0
 10
10.2769813757
 20
9.5731630107
 30
0.0
 10
10.2761126879
 20
9.5727614351
 30
0.0
 10
10.2754178221
 20
9.5724400135
 30
0.0
 10
10.2748964415
 20
9.5721993884
 30
0.0
 10
10.2744626934
 20
9.5719974643
 30
0.0
 10
10.2741576258
 20
9.5718588711
 30
0.0
 10
10.2739855561
 20
9.5717753754
 30
0.0
 10
10.2738501523
 20
9.5717248655
 30
0.0
 10
10.2737390273
 20
9.5716280579
 30
0.0
 10
10.2735823919
 20
9.5715151304
 30
0.0
 10
10.2733122257
 20
9.5713099829
 30
0.0
 10
10.2729242112
 20
9.5710208489
 30
0.0
 10
10.2724594767
 20
9.5706722043
 30
0.0
 10
10.2718395222
 20
9.5702079329
 30
0.0
 10
10.2710646848
 20
9.5696273923
 30
0.0
 10
10.2698248859
 20
9.5686986399
 30
0.0
 10
10.2682751575
 20
9.5675376608
 30
0.0
 10
10.2664154748
 20
9.5661445024
 30
0.0
 10
10.2645557943
 20
9.5647513396
 30
0.0
 10
10.2620762196
 20
9.5628937907
 30
0.0
 10
10.2589767516
 20
9.5605718541
 30
0.0
 10
10.2558772832
 20
9.5582499178
 30
0.0
 10
10.2533977089
 20
9.5563923684
 30
0.0
 10
10.2515380272
 20
9.5549992072
 30
0.0
 10
10.2496783493
 20
9.5536060427
 30
0.0
 10
10.248128606
 20
9.5524450827
 30
0.0
 10
10.2468888374
 20
9.5515162912
 30
0.0
 10
10.2461139229
 20
9.5509358502
 30
0.0
 10
10.2454941267
 20
9.5504713745
 30
0.0
 10
10.2450289087
 20
9.5501233541
 30
0.0
 10
10.2446424069
 20
9.5498322668
 30
0.0
 10
10.24436954
 20
9.5496306063
 30
0.0
 10
10.2442172319
 20
9.5495120918
 30
0.0
 10
10.2440928151
 20
9.5494324455
 30
0.0
 10
10.2440073331
 20
9.549317481
 30
0.0
 10
10.2438797762
 20
9.5491765143
 30
0.0
 10
10.2436628793
 20
9.5489240829
 30
0.0
 10
10.2433497184
 20
9.5485664674
 30
0.0
 10
10.2429753413
 20
9.5481360443
 30
0.0
 10
10.2424756772
 20
9.5475625955
 30
0.0
 10
10.2418512665
 20
9.5468456308
 30
0.0
 10
10.2408521147
 20
9.5456985733
 30
0.0
 10
10.2396032074
 20
9.5442647219
 30
0.0
 10
10.2381045048
 20
9.5425441129
 30
0.0
 10
10.2366058059
 20
9.5408235005
 30
0.0
 10
10.2346075393
 20
9.5385293518
 30
0.0
 10
10.2321097067
 20
9.5356616655
 30
0.0
 10
10.2296118737
 20
9.5327939795
 30
0.0
 10
10.2276136077
 20
9.5304998303
 30
0.0
 10
10.2261149071
 20
9.5287792192
 30
0.0
 10
10.2246162106
 20
9.5270586052
 30
0.0
 10
10.2233672844
 20
9.5256247693
 30
0.0
 10
10.2223681711
 20
9.5244776802
 30
0.0
 10
10.2217436625
 20
9.5237607959
 30
0.0
 10
10.2212441994
 20
9.5231871823
 30
0.0
 10
10.2208692085
 20
9.5227572628
 30
0.0
 10
10.2205579679
 20
9.5223980717
 30
0.0
 10
10.2203376429
 20
9.5221484528
 30
0.0
 10
10.2202155786
 20
9.5220029797
 30
0.0
 10
10.2201132253
 20
9.5219018576
 30
0.0
 10
10.2200521744
 20
9.5217702216
 30
0.0
 10
10.2199563665
 20
9.5216053505
 30
0.0
 10
10.2197954149
 20
9.521311867
 30
0.0
 10
10.2195619749
 20
9.5208951975
 30
0.0
 10
10.219283349
 20
9.5203940843
 30
0.0
 10
10.218911323
 20
9.5197263211
 30
0.0
 10
10.2184464703
 20
9.5188914844
 30
0.0
 10
10.2177026055
 20
9.5175558197
 30
0.0
 10
10.2167728089
 20
9.5158862135
 30
0.0
 10
10.2156570383
 20
9.5138826969
 30
0.0
 10
10.2145412716
 20
9.5118791774
 30
0.0
 10
10.2130535813
 20
9.5092078191
 30
0.0
 10
10.2111939689
 20
9.5058686208
 30
0.0
 10
10.2093343562
 20
9.5025294228
 30
0.0
 10
10.2078466665
 20
9.4998580641
 30
0.0
 10
10.2067308981
 20
9.4978545457
 30
0.0
 10
10.205615134
 20
9.4958510251
 30
0.0
 10
10.204685317
 20
9.4941814313
 30
0.0
 10
10.2039414939
 20
9.4928457413
 30
0.0
 10
10.2034765348
 20
9.492010969
 30
0.0
 10
10.2031047272
 20
9.4913430735
 30
0.0
 10
10.2028254343
 20
9.4908423643
 30
0.0
 10
10.202594081
 20
9.4904244312
 30
0.0
 10
10.2024294044
 20
9.4901332034
 30
0.0
 10
10.2023395649
 20
9.4899647181
 30
0.0
 10
10.202260181
 20
9.4898441836
 30
0.0
 10
10.2022266834
 20
9.4897013662
 30
0.0
 10
10.2021660143
 20
9.4895187155
 30
0.0
 10
10.2020673007
 20
9.4891954554
 30
0.0
 10
10.2019223825
 20
9.4887355485
 30
0.0
 10
10.2017501495
 20
9.4881828499
 30
0.0
 10
10.2015199226
 20
9.4874462015
 30
0.0
 10
10.2012323385
 20
9.486525294
 30
0.0
 10
10.2007720925
 20
9.4850518962
 30
0.0
 10
10.2001968232
 20
9.4832101304
 30
0.0
 10
10.1995064836
 20
9.4810000195
 30
0.0
 10
10.1988161484
 20
9.4787899064
 30
0.0
 10
10.1978957
 20
9.4758430896
 30
0.0
 10
10.19674514
 20
9.4721595684
 30
0.0
 10
10.1955945796
 20
9.4684760474
 30
0.0
 10
10.1946741318
 20
9.4655292304
 30
0.0
 10
10.1939837948
 20
9.4633191181
 30
0.0
 10
10.1932934623
 20
9.4611090041
 30
0.0
 10
10.1927181708
 20
9.4592672477
 30
0.0
 10
10.1922579701
 20
9.4577938307
 30
0.0
 10
10.1919702706
 20
9.4568729721
 30
0.0
 10
10.1917402806
 20
9.4561362234
 30
0.0
 10
10.1915673239
 20
9.4555838311
 30
0.0
 10
10.1914246698
 20
9.455122966
 30
0.0
 10
10.1913219145
 20
9.4548014166
 30
0.0
 10
10.1912677212
 20
9.4546160249
 30
0.0
 10
10.1912143321
 20
9.4544816267
 30
0.0
 10
10.1912096574
 20
9.454329471
 30
0.0
 10
10.1911864324
 20
9.4541327908
 30
0.0
 10
10.1911537057
 20
9.4537857145
 30
0.0
 10
10.191102814
 20
9.4532914
 30
0.0
 10
10.1910435157
 20
9.4526975768
 30
0.0
 10
10.1909638325
 20
9.4519060381
 30
0.0
 10
10.1908644404
 20
9.4509165375
 30
0.0
 10
10.1907052946
 20
9.4493333797
 30
0.0
 10
10.190506403
 20
9.4473544176
 30
0.0
 10
10.1902677156
 20
9.4449796694
 30
0.0
 10
10.1900290329
 20
9.4426049196
 30
0.0
 10
10.1897107876
 20
9.439438587
 30
0.0
 10
10.1893129816
 20
9.4354806711
 30
0.0
 10
10.1889151753
 20
9.4315227553
 30
0.0
 10
10.1885969307
 20
9.4283564227
 30
0.0
 10
10.188358246
 20
9.4259816731
 30
0.0
 10
10.1881195661
 20
9.4236069237
 30
0.0
 10
10.1879206511
 20
9.4216279656
 30
0.0
 10
10.1877615529
 20
9.4200447997
 30
0.0
 10
10.1876620396
 20
9.4190553196
 30
0.0
 10
10.1875826051
 20
9.4182637388
 30
0.0
 10
10.1875225472
 20
9.4176700441
 30
0.0
 10
10.1874740323
 20
9.4171753275
 30
0.0
 10
10.1874370626
 20
9.416828969
 30
0.0
 10
10.1874206357
 20
9.4166311388
 30
0.0
 10
10.1873950794
 20
9.4164825155
 30
0.0
 10
10.1874201186
 20
9.4163348501
 30
0.0
 10
10.1874358558
 20
9.4161376288
 30
0.0
 10
10.1874716187
 20
9.4157926471
 30
0.0
 10
10.1875184097
 20
9.4152997348
 30
0.0
 10
10.1875763989
 20
9.4147082749
 30
0.0
 10
10.1876530751
 20
9.4139196494
 30
0.0
 10
10.1877491405
 20
9.4129338718
 30
0.0
 10
10.1879027221
 20
9.4113566253
 30
0.0
 10
10.1880947412
 20
9.4093850679
 30
0.0
 10
10.1883251462
 20
9.4070191988
 30
0.0
 10
10.1885555559
 20
9.4046533297
 30
0.0
 10
10.1888627673
 20
9.4014988376
 30
0.0
 10
10.1892467819
 20
9.3975557224
 30
0.0
 10
10.1896307969
 20
9.3936126073
 30
0.0
 10
10.1899380076
 20
9.3904581151
 30
0.0
 10
10.1901684191
 20
9.3880922464
 30
0.0
 10
10.1903988175
 20
9.3857263759
 30
0.0
 10
10.1905908571
 20
9.3837548225
 30
0.0
 10
10.190744397
 20
9.382177568
 30
0.0
 10
10.1908405685
 20
9.3811918108
 30
0.0
 10
10.1909170269
 20
9.3804031434
 30
0.0
 10
10.1909756815
 20
9.3798118116
 30
0.0
 10
10.1910203908
 20
9.3793184986
 30
0.0
 10
10.1910655096
 20
9.3789250513
 30
0.0
 10
10.1910737963
 20
9.3786266784
 30
0.0
 10
10.1911796169
 20
9.3783408537
 30
0.0
 10
10.1912866413
 20
9.3779553708
 30
0.0
 10
10.1914321109
 20
9.3774750212
 30
0.0
 10
10.191601671
 20
9.3768979579
 30
0.0
 10
10.1918294988
 20
9.376128765
 30
0.0
 10
10.1921136852
 20
9.3751671968
 30
0.0
 10
10.1925687178
 20
9.3736287309
 30
0.0
 10
10.1931373939
 20
9.3717056337
 30
0.0
 10
10.1938198543
 20
9.3693979233
 30
0.0
 10
10.1945023016
 20
9.3670902113
 30
0.0
 10
10.1954122359
 20
9.3640132625
 30
0.0
 10
10.1965496521
 20
9.3601670763
 30
0.0
 10
10.1976870694
 20
9.3563208903
 30
0.0
 10
10.1985970019
 20
9.3532439411
 30
0.0
 10
10.1992794545
 20
9.3509362304
 30
0.0
 10
10.1999618948
 20
9.3486285153
 30
0.0
 10
10.2005306336
 20
9.3467054327
 30
0.0
 10
10.2009855382
 20
9.345166937
 30
0.0
 10
10.2012700505
 20
9.3442054447
 30
0.0
 10
10.2014972092
 20
9.3434360961
 30
0.0
 10
10.2016688136
 20
9.3428595082
 30
0.0
 10
10.2018078875
 20
9.3423776711
 30
0.0
 10
10.2019279602
 20
9.3419952229
 30
0.0
 10
10.2019939318
 20
9.3417001307
 30
0.0
 10
10.2021518286
 20
9.3414365522
 30
0.0
 10
10.2023302471
 20
9.3410741061
 30
0.0
 10
10.2025642871
 20
9.3406248253
 30
0.0
 10
10.2028404196
 20
9.3400840717
 30
0.0
 10
10.2032102432
 20
9.3393636316
 30
0.0
 10
10.2036719588
 20
9.3384628881
 30
0.0
 10
10.204411019
 20
9.3370218066
 30
0.0
 10
10.205334736
 20
9.3352204176
 30
0.0
 10
10.2064432429
 20
9.3330587667
 30
0.0
 10
10.2075517373
 20
9.3308971116
 30
0.0
 10
10.2090297342
 20
9.3280149063
 30
0.0
 10
10.2108772287
 20
9.324412149
 30
0.0
 10
10.2127247243
 20
9.3208093922
 30
0.0
 10
10.2142027195
 20
9.3179271861
 30
0.0
 10
10.2153112191
 20
9.3157655331
 30
0.0
 10
10.2164197066
 20
9.3136038743
 30
0.0
 10
10.2173434837
 20
9.3118025099
 30
0.0
 10
10.2180824214
 20
9.3103613784
 30
0.0
 10
10.2185444487
 20
9.309460762
 30
0.0
 10
10.2189136325
 20
9.308740061
 30
0.0
 10
10.2191917197
 20
9.3082001046
 30
0.0
 10
10.2194196438
 20
9.3077483294
 30
0.0
 10
10.2196105399
 20
9.3073909724
 30
0.0
 10
10.2197303307
 20
9.3071118521
 30
0.0
 10
10.2199393685
 20
9.3068751105
 30
0.0
 10
10.2201869104
 20
9.3065446516
 30
0.0
 10
10.2205070338
 20
9.306136657
 30
0.0
 10
10.2208866037
 20
9.3056448895
 30
0.0
 10
10.2213942959
 20
9.3049899588
 30
0.0
 10
10.2220283637
 20
9.3041710354
 30
0.0
 10
10.2230431782
 20
9.3028609034
 30
0.0
 10
10.2243115912
 20
9.3012231884
 30
0.0
 10
10.2258337319
 20
9.2992579519
 30
0.0
 10
10.2273558606
 20
9.2972927096
 30
0.0
 10
10.2293853697
 20
9.2946723886
 30
0.0
 10
10.2319222545
 20
9.2913969865
 30
0.0
 10
10.2344591402
 20
9.2881215851
 30
0.0
 10
10.2364886479
 20
9.285501263
 30
0.0
 10
10.2380107809
 20
9.283536024
 30
0.0
 10
10.2395329052
 20
9.2815707751
 30
0.0
 10
10.2408013694
 20
9.2799330986
 30
0.0
 10
10.2418160795
 20
9.2786228883
 30
0.0
 10
10.242450413
 20
9.277804164
 30
0.0
 10
10.2429575597
 20
9.2771488246
 30
0.0
 10
10.2433387965
 20
9.2766583059
 30
0.0
 10
10.2436537045
 20
9.2762464041
 30
0.0
 10
10.2439118869
 20
9.2759239165
 30
0.0
 10
10.2440884292
 20
9.2756628312
 30
0.0
 10
10.2443302217
 20
9.2754751073
 30
0.0
 10
10.2446298189
 20
9.2751991827
 30
0.0
 10
10.2450121355
 20
9.2748630691
 30
0.0
 10
10.2454675682
 20
9.2744559695
 30
0.0
 10
10.2460759809
 20
9.2739144844
 30
0.0
 10
10.2468360965
 20
9.273237178
 30
0.0
 10
10.2480525052
 20
9.2721537393
 30
0.0
 10
10.2495729393
 20
9.2707993546
 30
0.0
 10
10.2513974932
 20
9.2691741299
 30
0.0
 10
10.2532220382
 20
9.2675488954
 30
0.0
 10
10.255654768
 20
9.2653819195
 30
0.0
 10
10.2586956791
 20
9.2626731983
 30
0.0
 10
10.2617365909
 20
9.259964478
 30
0.0
 10
10.2641693195
 20
9.2577975006
 30
0.0
 10
10.2659938679
 20
9.2561722704
 30
0.0
 10
10.2678184089
 20
9.2545470296
 30
0.0
 10
10.269338883
 20
9.2531926953
 30
0.0
 10
10.2705552102
 20
9.2521091537
 30
0.0
 10
10.2713155332
 20
9.2514321091
 30
0.0
 10
10.2719235202
 20
9.2508900867
 30
0.0
 10
10.2723802537
 20
9.2504846287
 30
0.0
 10
10.2727585004
 20
9.2501433789
 30
0.0
 10
10.273066401
 20
9.249877933
 30
0.0
 10
10.2732828357
 20
9.2496582077
 30
0.0
 10
10.2735545815
 20
9.2495172692
 30
0.0
 10
10.2738975884
 20
9.24930183
 30
0.0
 10
10.2743329759
 20
9.2490419733
 30
0.0
 10
10.2748526035
 20
9.2487261037
 30
0.0
 10
10.2755464314
 20
9.2483063558
 30
0.0
 10
10.2764133769
 20
9.2477811877
 30
0.0
 10
10.2778006794
 20
9.2469411888
 30
0.0
 10
10.2795347424
 20
9.2458910974
 30
0.0
 10
10.281615646
 20
9.2446310276
 30
0.0
 10
10.283696542
 20
9.2433709471
 30
0.0
 10
10.2864710727
 20
9.2416908435
 30
0.0
 10
10.2899392351
 20
9.2395907126
 30
0.0
 10
10.2934073981
 20
9.2374905826
 30
0.0
 10
10.2961819279
 20
9.2358104775
 30
0.0
 10
10.2982628266
 20
9.2345504017
 30
0.0
 10
10.3003437201
 20
9.233290314
 30
0.0
 10
10.3020778142
 20
9.2322402783
 30
0.0
 10
10.3034650534
 20
9.2314001659
 30
0.0
 10
10.3043321598
 20
9.2308752866
 30
0.0
 10
10.3050256574
 20
9.2304549457
 30
0.0
 10
10.3055462941
 20
9.230140888
 30
0.0
 10
10.3059785246
 20
9.2298753624
 30
0.0
 10
10.3063279724
 20
9.2296714888
 30
0.0
 10
10.306580048
 20
9.2294952296
 30
0.0
 10
10.3068703331
 20
9.229408113
 30
0.0
 10
10.3072440328
 20
9.2292608189
 30
0.0
 10
10.3077157367
 20
9.2290873848
 30
0.0
 10
10.3082798214
 20
9.228874691
 30
0.0
 10
10.3090326189
 20
9.2285926964
 30
0.0
 10
10.3099733813
 20
9.2282396564
 30
0.0
 10
10.3114787322
 20
9.2276750979
 30
0.0
 10
10.3133603759
 20
9.226969295
 30
0.0
 10
10.3156183676
 20
9.2261223764
 30
0.0
 10
10.3178763542
 20
9.2252754458
 30
0.0
 10
10.3208870047
 20
9.2241462092
 30
0.0
 10
10.3246503172
 20
9.2227346619
 30
0.0
 10
10.3284136302
 20
9.2213231157
 30
0.0
 10
10.3314242801
 20
9.2201938773
 30
0.0
 10
10.3336822685
 20
9.219346952
 30
0.0
 10
10.3359402531
 20
9.2185000137
 30
0.0
 10
10.337821919
 20
9.217794272
 30
0.0
 10
10.3393272246
 20
9.2172295887
 30
0.0
 10
10.3402681023
 20
9.2168768663
 30
0.0
 10
10.3410206633
 20
9.2165942198
 30
0.0
 10
10.3415854705
 20
9.2163835177
 30
0.0
 10
10.3420549136
 20
9.216203852
 30
0.0
 10
10.3424332259
 20
9.2160692715
 30
0.0
 10
10.3427094243
 20
9.2159433283
 30
0.0
 10
10.3430143873
 20
9.2159128403
 30
0.0
 10
10.3434109568
 20
9.215838846
 30
0.0
 10
10.343910116
 20
9.2157577931
 30
0.0
 10
10.3445076315
 20
9.2156556329
 30
0.0
 10
10.3453048342
 20
9.2155211296
 30
0.0
 10
10.3463011611
 20
9.2153524149
 30
0.0
 10
10.3478953827
 20
9.2150827987
 30
0.0
 10
10.349888126
 20
9.2147456661
 30
0.0
 10
10.3522794324
 20
9.2143411551
 30
0.0
 10
10.3546707349
 20
9.2139366312
 30
0.0
 10
10.3578591396
 20
9.2133972706
 30
0.0
 10
10.361844645
 20
9.2127230682
 30
0.0
 10
10.3666272517
 20
9.2119140261
 30
0.0
 10
10.3730040605
 20
9.210835303
 30
0.0
 10
10.3777866672
 20
9.2100262607
 30
0.0
 10
10.3809750716
 20
9.2094868992
 30
0.0
  0
SPLINE
  5
397
100
AcDbEntity
  8
0
100
AcDbSpline
 62
7
  6
CONTINUOUS
 70
0
 71
3
 72
140
 73
136
 74
0
 42
0.0000001
 43
0.0000001
 44
0.0000000001
 40
0.0
 40
0.0
 40
0.0
 40
0.0
 40
0.03125
 40
0.046875
 40
0.0546875
 40
0.0625
 40
0.0703125
 40
0.078125
 40
0.09375
 40
0.109375
 40
0.1171875
 40
0.125
 40
0.1328125
 40
0.140625
 40
0.15625
 40
0.171875
 40
0.1796875
 40
0.1875
 40
0.1953125
 40
0.203125
 40
0.21875
 40
0.234375
 40
0.2421875
 40
0.24609375
 40
0.25
 40
0.25390625
 40
0.2578125
 40
0.265625
 40
0.28125
 40
0.296875
 40
0.3046875
 40
0.30859375
 40
0.3125
 40
0.31640625
 40
0.3203125
 40
0.328125
 40
0.34375
 40
0.359375
 40
0.3671875
 40
0.37109375
 40
0.373046875
 40
0.375
 40
0.376953125
 40
0.37890625
 40
0.3828125
 40
0.390625
 40
0.40625
 40
0.421875
 40
0.4296875
 40
0.43359375
 40
0.435546875
 40
0.4375
 40
0.439453125
 40
0.44140625
 40
0.4453125
 40
0.453125
 40
0.46875
 40
0.4765625
 40
0.484375
 40
0.4921875
 40
0.49609375
 40
0.498046875
 40
0.5
 40
0.501953125
 40
0.50390625
 40
0.5078125
 40
0.515625
 40
0.53125
 40
0.546875
 40
0.5546875
 40
0.55859375
 40
0.560546875
 40
0.5625
 40
0.564453125
 40
0.56640625
 40
0.5703125
 40
0.578125
 40
0.59375
 40
0.609375
 40
0.6171875
 40
0.62109375
 40
0.623046875
 40
0.625
 40
0.626953125
 40
0.62890625
 40
0.6328125
 40
0.640625
 40
0.65625
 40
0.671875
 40
0.6796875
 40
0.68359375
 40
0.685546875
 40
0.6875
 40
0.689453125
 40
0.69140625
 40
0.6953125
 40
0.703125
 40
0.7109375
 40
0.71875
 40
0.734375
 40
0.7421875
 40
0.74609375
 40
0.748046875
 40
0.75
 40
0.751953125
 40
0.75390625
 40
0.7578125
 40
0.765625
 40
0.78125
 40
0.796875
 40
0.8046875
 40
0.80859375
 40
0.8125
 40
0.81640625
 40
0.8203125
 40
0.828125
 40
0.84375
 40
0.859375
 40
0.8671875
 40
0.87109375
 40
0.875
 40
0.87890625
 40
0.8828125
 40
0.890625
 40
0.90625
 40
0.921875
 40
0.9296875
 40
0.93359375
 40
0.9375
 40
0.94140625
 40
0.9453125
 40
0.953125
 40
0.96875
 40
0.984375
 40
1.0
 40
1.0
 40
1.0
 40
1.0
 10
10.6901247776
 20
10.6609407549
 30
0.0
 10
10.6911195942
 20
10.6608981299
 30
0.0
 10
10.6926121345
 20
10.6608354224
 30
0.0
 10
10.6943523278
 20
10.6607579584
 30
0.0
 10
10.6953483007
 20
10.6607198437
 30
0.0
 10
10.6960908653
 20
10.6606740363
 30
0.0
 10
10.6968503022
 20
10.6606940393
 30
0.0
 10
10.6978570404
 20
10.6606976192
 30
0.0
 10
10.6991171145
 20
10.6607107491
 30
0.0
 10
10.7003778885
 20
10.6607181225
 30
0.0
 10
10.701383507
 20
10.6607309126
 30
0.0
 10
10.7021463031
 20
10.6607232852
 30
0.0
 10
10.7028762708
 20
10.6607810919
 30
0.0
 10
10.7038611229
 20
10.6608352081
 30
0.0
 10
10.7050875459
 20
10.6609114641
 30
0.0
 10
10.7063180849
 20
10.6609819763
 30
0.0
 10
10.7072963514
 20
10.6610452825
 30
0.0
 10
10.7080460757
 20
10.6610755193
 30
0.0
 10
10.7087347847
 20
10.6611712794
 30
0.0
 10
10.7096742985
 20
10.6612760986
 30
0.0
 10
10.7108419655
 20
10.6614147721
 30
0.0
 10
10.7120099896
 20
10.6615514239
 30
0.0
 10
10.7128315642
 20
10.6616459709
 30
0.0
 10
10.7132941435
 20
10.6617025059
 30
0.0
 10
10.713660623
 20
10.6617376996
 30
0.0
 10
10.7139523686
 20
10.6618004696
 30
0.0
 10
10.714367439
 20
10.6618745416
 30
0.0
 10
10.7150815801
 20
10.662008675
 30
0.0
 10
10.7161088419
 20
10.6621977398
 30
0.0
 10
10.7171311621
 20
10.6623884363
 30
0.0
 10
10.7178522214
 20
10.6625202852
 30
0.0
 10
10.7182564204
 20
10.662597947
 30
0.0
 10
10.7185815214
 20
10.6626497029
 30
0.0
 10
10.7188227328
 20
10.6627262607
 30
0.0
 10
10.7191736064
 20
10.6628196872
 30
0.0
 10
10.7197740354
 20
10.6629872078
 30
0.0
 10
10.7206386422
 20
10.6632244689
 30
0.0
 10
10.7215017489
 20
10.6634622808
 30
0.0
 10
10.722104278
 20
10.6636290303
 30
0.0
 10
10.7224084047
 20
10.6637118387
 30
0.0
 10
10.7225775199
 20
10.6637600885
 30
0.0
 10
10.722717553
 20
10.6637936456
 30
0.0
 10
10.7228071351
 20
10.6638372584
 30
0.0
 10
10.7229441745
 20
10.6638919015
 30
0.0
 10
10.7231758073
 20
10.6639891585
 30
0.0
 10
10.7236449236
 20
10.6641825079
 30
0.0
 10
10.7243117189
 20
10.6644593799
 30
0.0
 10
10.7249808535
 20
10.6647358359
 30
0.0
 10
10.7254466949
 20
10.6649297677
 30
0.0
 10
10.7256828307
 20
10.6650262239
 30
0.0
 10
10.7258126184
 20
10.6650821565
 30
0.0
 10
10.7259244818
 20
10.6651218075
 30
0.0
 10
10.7259808285
 20
10.6651702447
 30
0.0
 10
10.7260753205
 20
10.6652317633
 30
0.0
 10
10.7262316773
 20
10.6653408458
 30
0.0
 10
10.7265507845
 20
10.6655579977
 30
0.0
 10
10.7269127987
 20
10.6658066046
 30
0.0
 10
10.7272755453
 20
10.6660550695
 30
0.0
 10
10.7275480877
 20
10.6662414109
 30
0.0
 10
10.7277732932
 20
10.6663967789
 30
0.0
 10
10.7279347437
 20
10.6665053642
 30
0.0
 10
10.7280210494
 20
10.6665676833
 30
0.0
 10
10.7281025461
 20
10.6666136609
 30
0.0
 10
10.7281199489
 20
10.6666625501
 30
0.0
 10
10.7281655077
 20
10.6667267201
 30
0.0
 10
10.7282348362
 20
10.6668394901
 30
0.0
 10
10.7283809209
 20
10.6670646938
 30
0.0
 10
10.7285853721
 20
10.6673865956
 30
0.0
 10
10.7287926407
 20
10.6677084091
 30
0.0
 10
10.728934781
 20
10.6679337365
 30
0.0
 10
10.7290095332
 20
10.6680463363
 30
0.0
 10
10.7290463577
 20
10.6681107804
 30
0.0
 10
10.729090597
 20
10.6681588277
 30
0.0
 10
10.7290712985
 20
10.6682079673
 30
0.0
 10
10.7290677282
 20
10.6682731058
 30
0.0
 10
10.729051171
 20
10.6683872752
 30
0.0
 10
10.7290254201
 20
10.6686154897
 30
0.0
 10
10.7289844276
 20
10.6689415639
 30
0.0
 10
10.7289462317
 20
10.6692676609
 30
0.0
 10
10.7289165656
 20
10.6694958436
 30
0.0
 10
10.7289053919
 20
10.6696100568
 30
0.0
 10
10.7288931522
 20
10.6696751247
 30
0.0
 10
10.7289004911
 20
10.669724481
 30
0.0
 10
10.7288446826
 20
10.6697717145
 30
0.0
 10
10.7287922962
 20
10.669835433
 30
0.0
 10
10.7286903741
 20
10.6699465958
 30
0.0
 10
10.7284938486
 20
10.6701691686
 30
0.0
 10
10.7282089151
 20
10.6704869786
 30
0.0
 10
10.7279267722
 20
10.6708049226
 30
0.0
 10
10.72772634
 20
10.6710273078
 30
0.0
 10
10.7276297896
 20
10.6711387285
 30
0.0
 10
10.7275687527
 20
10.6712020316
 30
0.0
 10
10.7275395234
 20
10.6712505415
 30
0.0
 10
10.7274470331
 20
10.6712951039
 30
0.0
 10
10.7273457787
 20
10.6713558974
 30
0.0
 10
10.7271583034
 20
10.6714616447
 30
0.0
 10
10.7268958491
 20
10.6716130462
 30
0.0
 10
10.7265786371
 20
10.6717945906
 30
0.0
 10
10.7261563272
 20
10.67203667
 30
0.0
 10
10.7257347139
 20
10.6722789031
 30
0.0
 10
10.725363554
 20
10.6724904405
 30
0.0
 10
10.7251810417
 20
10.6725967668
 30
0.0
 10
10.7250718114
 20
10.6726566283
 30
0.0
 10
10.7250038247
 20
10.6727040542
 30
0.0
 10
10.7248825627
 20
10.6727418091
 30
0.0
 10
10.7247394606
 20
10.6727955218
 30
0.0
 10
10.7244803998
 20
10.6728879524
 30
0.0
 10
10.7239683156
 20
10.6730739052
 30
0.0
 10
10.7232343442
 20
10.6733391481
 30
0.0
 10
10.7224985631
 20
10.6736039279
 30
0.0
 10
10.7219890125
 20
10.673790529
 30
0.0
 10
10.7216889617
 20
10.6738951454
 30
0.0
 10
10.7214889901
 20
10.6739792873
 30
0.0
 10
10.7211931923
 20
10.6740417169
 30
0.0
 10
10.7208322281
 20
10.6741325325
 30
0.0
 10
10.7201848865
 20
10.6742879041
 30
0.0
 10
10.7192689188
 20
10.6745119293
 30
0.0
 10
10.7183475449
 20
10.6747344644
 30
0.0
 10
10.7177077719
 20
10.6748919221
 30
0.0
 10
10.7173349143
 20
10.6749794596
 30
0.0
 10
10.7170756077
 20
10.6750519467
 30
0.0
 10
10.7167385913
 20
10.675098317
 30
0.0
 10
10.7163163489
 20
10.6751692567
 30
0.0
 10
10.7155647251
 20
10.6752891272
 30
0.0
 10
10.7144981581
 20
10.6754628332
 30
0.0
 10
10.7134270552
 20
10.6756348303
 30
0.0
 10
10.7126817818
 20
10.6757570932
 30
0.0
 10
10.7122495601
 20
10.6758242734
 30
0.0
 10
10.7119431621
 20
10.6758821787
 30
0.0
 10
10.7115688664
 20
10.6759113455
 30
0.0
 10
10.711093489
 20
10.675960259
 30
0.0
 10
10.7102505436
 20
10.6760411869
 30
0.0
 10
10.7090521086
 20
10.6761592415
 30
0.0
 10
10.7076115
 20
10.6762998545
 30
0.0
 10
10.7066515678
 20
10.676393797
 30
0.0
 10
10.7061715426
 20
10.6764407432
 30
0.0
  0
SPLINE
  5
398
100
AcDbEntity
  8
0
100
AcDbSpline
 62
7
  6
CONTINUOUS
 70
0
 71
3
 72
140
 73
136
 74
0
 42
0.0000001
 43
0.0000001
 44
0.0000000001
 40
0.0
 40
0.0
 40
0.0
 40
0.0
 40
0.03125
 40
0.046875
 40
0.0546875
 40
0.0625
 40
0.0703125
 40
0.078125
 40
0.09375
 40
0.109375
 40
0.1171875
 40
0.125
 40
0.1328125
 40
0.140625
 40
0.15625
 40
0.171875
 40
0.1796875
 40
0.1875
 40
0.1953125
 40
0.203125
 40
0.21875
 40
0.234375
 40
0.2421875
 40
0.24609375
 40
0.25
 40
0.25390625
 40
0.2578125
 40
0.265625
 40
0.28125
 40
0.296875
 40
0.3046875
 40
0.30859375
 40
0.3125
 40
0.31640625
 40
0.3203125
 40
0.328125
 40
0.34375
 40
0.359375
 40
0.3671875
 40
0.37109375
 40
0.373046875
 40
0.375
 40
0.376953125
 40
0.37890625
 40
0.3828125
 40
0.390625
 40
0.40625
 40
0.421875
 40
0.4296875
 40
0.43359375
 40
0.435546875
 40
0.4375
 40
0.439453125
 40
0.44140625
 40
0.4453125
 40
0.453125
 40
0.46875
 40
0.4765625
 40
0.484375
 40
0.4921875
 40
0.49609375
 40
0.498046875
 40
0.5
 40
0.501953125
 40
0.50390625
 40
0.5078125
 40
0.515625
 40
0.53125
 40
0.546875
 40
0.5546875
 40
0.55859375
 40
0.560546875
 40
0.5625
 40
0.564453125
 40
0.56640625
 40
0.5703125
 40
0.578125
 40
0.59375
 40
0.609375
 40
0.6171875
 40
0.62109375
 40
0.623046875
 40
0.625
 40
0.626953125
 40
0.62890625
 40
0.6328125
 40
0.640625
 40
0.65625
 40
0.671875
 40
0.6796875
 40
0.68359375
 40
0.685546875
 40
0.6875
 40
0.689453125
 40
0.69140625
 40
0.6953125
 40
0.703125
 40
0.7109375
 40
0.71875
 40
0.734375
 40
0.7421875
 40
0.74609375
 40
0.748046875
 40
0.75
 40
0.751953125
 40
0.75390625
 40
0.7578125
 40
0.765625
 40
0.78125
 40
0.796875
 40
0.8046875
 40
0.80859375
 40
0.8125
 40
0.81640625
 40
0.8203125
 40
0.828125
 40
0.84375
 40
0.859375
 40
0.8671875
 40
0.87109375
 40
0.875
 40
0.87890625
 40
0.8828125
 40
0.890625
 40
0.90625
 40
0.921875
 40
0.9296875
 40
0.93359375
 40
0.9375
 40
0.94140625
 40
0.9453125
 40
0.953125
 40
0.96875
 40
0.984375
 40
1.0
 40
1.0
 40
1.0
 40
1.0
 10
10.7061715452
 20
10.676440743
 30
0.0
 10
10.7051767286
 20
10.676483368
 30
0.0
 10
10.7036841883
 20
10.6765460755
 30
0.0
 10
10.701943995
 20
10.6766235395
 30
0.0
 10
10.7009480221
 20
10.6766616542
 30
0.0
 10
10.7002054575
 20
10.6767074616
 30
0.0
 10
10.6994460206
 20
10.6766874586
 30
0.0
 10
10.6984392824
 20
10.6766838787
 30
0.0
 10
10.6971792083
 20
10.6766707488
 30
0.0
 10
10.6959184343
 20
10.6766633754
 30
0.0
 10
10.6949128158
 20
10.6766505853
 30
0.0
 10
10.6941500197
 20
10.6766582127
 30
0.0
 10
10.693420052
 20
10.676600406
 30
0.0
 10
10.6924351999
 20
10.6765462898
 30
0.0
 10
10.6912087769
 20
10.6764700338
 30
0.0
 10
10.6899782379
 20
10.6763995216
 30
0.0
 10
10.6889999714
 20
10.6763362154
 30
0.0
 10
10.6882502471
 20
10.6763059786
 30
0.0
 10
10.6875615381
 20
10.6762102185
 30
0.0
 10
10.6866220243
 20
10.6761053993
 30
0.0
 10
10.6854543573
 20
10.6759667258
 30
0.0
 10
10.6842863332
 20
10.675830074
 30
0.0
 10
10.6834647586
 20
10.675735527
 30
0.0
 10
10.6830021793
 20
10.675678992
 30
0.0
 10
10.6826356998
 20
10.6756437983
 30
0.0
 10
10.6823439542
 20
10.6755810283
 30
0.0
 10
10.6819288838
 20
10.6755069563
 30
0.0
 10
10.6812147427
 20
10.6753728229
 30
0.0
 10
10.6801874809
 20
10.6751837581
 30
0.0
 10
10.6791651607
 20
10.6749930616
 30
0.0
 10
10.6784441014
 20
10.6748612127
 30
0.0
 10
10.6780399024
 20
10.6747835509
 30
0.0
 10
10.6777148014
 20
10.674731795
 30
0.0
 10
10.67747359
 20
10.6746552372
 30
0.0
 10
10.6771227164
 20
10.6745618107
 30
0.0
 10
10.6765222874
 20
10.6743942901
 30
0.0
 10
10.6756576806
 20
10.674157029
 30
0.0
 10
10.6747945739
 20
10.6739192171
 30
0.0
 10
10.6741920448
 20
10.6737524676
 30
0.0
 10
10.6738879181
 20
10.6736696592
 30
0.0
 10
10.6737188029
 20
10.6736214094
 30
0.0
 10
10.6735787698
 20
10.6735878523
 30
0.0
 10
10.6734891877
 20
10.6735442395
 30
0.0
 10
10.6733521483
 20
10.6734895964
 30
0.0
 10
10.6731205155
 20
10.6733923394
 30
0.0
 10
10.6726513992
 20
10.67319899
 30
0.0
 10
10.6719846039
 20
10.672922118
 30
0.0
 10
10.6713154693
 20
10.672645662
 30
0.0
 10
10.6708496279
 20
10.6724517302
 30
0.0
 10
10.6706134921
 20
10.672355274
 30
0.0
 10
10.6704837043
 20
10.6722993414
 30
0.0
 10
10.670371841
 20
10.6722596904
 30
0.0
 10
10.6703154943
 20
10.6722112532
 30
0.0
 10
10.6702210023
 20
10.6721497346
 30
0.0
 10
10.6700646455
 20
10.6720406521
 30
0.0
 10
10.6697455383
 20
10.6718235002
 30
0.0
 10
10.6693835241
 20
10.6715748933
 30
0.0
 10
10.6690207774
 20
10.6713264284
 30
0.0
 10
10.6687482351
 20
10.671140087
 30
0.0
 10
10.6685230296
 20
10.670984719
 30
0.0
 10
10.6683615791
 20
10.6708761337
 30
0.0
 10
10.6682752734
 20
10.6708138146
 30
0.0
 10
10.6681937767
 20
10.670767837
 30
0.0
 10
10.6681763739
 20
10.6707189478
 30
0.0
 10
10.6681308151
 20
10.6706547778
 30
0.0
 10
10.6680614866
 20
10.6705420078
 30
0.0
 10
10.6679154019
 20
10.6703168041
 30
0.0
 10
10.6677109507
 20
10.6699949023
 30
0.0
 10
10.6675036821
 20
10.6696730888
 30
0.0
 10
10.6673615418
 20
10.6694477614
 30
0.0
 10
10.6672867896
 20
10.6693351616
 30
0.0
 10
10.6672499651
 20
10.6692707175
 30
0.0
 10
10.6672057258
 20
10.6692226702
 30
0.0
 10
10.6672250243
 20
10.6691735306
 30
0.0
 10
10.6672285946
 20
10.6691083921
 30
0.0
 10
10.6672451518
 20
10.6689942227
 30
0.0
 10
10.6672709027
 20
10.6687660082
 30
0.0
 10
10.6673118952
 20
10.668439934
 30
0.0
 10
10.6673500911
 20
10.668113837
 30
0.0
 10
10.6673797572
 20
10.6678856543
 30
0.0
 10
10.6673909309
 20
10.6677714411
 30
0.0
 10
10.6674031706
 20
10.6677063732
 30
0.0
 10
10.6673958317
 20
10.6676570169
 30
0.0
 10
10.6674516402
 20
10.6676097834
 30
0.0
 10
10.6675040266
 20
10.6675460649
 30
0.0
 10
10.6676059487
 20
10.6674349021
 30
0.0
 10
10.6678024742
 20
10.6672123293
 30
0.0
 10
10.6680874077
 20
10.6668945193
 30
0.0
 10
10.6683695506
 20
10.6665765753
 30
0.0
 10
10.6685699828
 20
10.6663541901
 30
0.0
 10
10.6686665332
 20
10.6662427694
 30
0.0
 10
10.6687275701
 20
10.6661794663
 30
0.0
 10
10.6687567994
 20
10.6661309564
 30
0.0
 10
10.6688492897
 20
10.666086394
 30
0.0
 10
10.6689505441
 20
10.6660256005
 30
0.0
 10
10.6691380194
 20
10.6659198532
 30
0.0
 10
10.6694004737
 20
10.6657684517
 30
0.0
 10
10.6697176857
 20
10.6655869073
 30
0.0
 10
10.6701399956
 20
10.6653448279
 30
0.0
 10
10.6705616089
 20
10.6651025948
 30
0.0
 10
10.6709327688
 20
10.6648910574
 30
0.0
 10
10.6711152811
 20
10.6647847311
 30
0.0
 10
10.6712245114
 20
10.6647248696
 30
0.0
 10
10.6712924981
 20
10.6646774437
 30
0.0
 10
10.6714137601
 20
10.6646396888
 30
0.0
 10
10.6715568622
 20
10.6645859761
 30
0.0
 10
10.671815923
 20
10.6644935455
 30
0.0
 10
10.6723280072
 20
10.6643075927
 30
0.0
 10
10.6730619786
 20
10.6640423498
 30
0.0
 10
10.6737977597
 20
10.66377757
 30
0.0
 10
10.6743073103
 20
10.6635909689
 30
0.0
 10
10.6746073611
 20
10.6634863525
 30
0.0
 10
10.6748073327
 20
10.6634022106
 30
0.0
 10
10.6751031305
 20
10.663339781
 30
0.0
 10
10.6754640947
 20
10.6632489654
 30
0.0
 10
10.6761114363
 20
10.6630935938
 30
0.0
 10
10.677027404
 20
10.6628695686
 30
0.0
 10
10.6779487779
 20
10.6626470335
 30
0.0
 10
10.6785885509
 20
10.6624895758
 30
0.0
 10
10.6789614085
 20
10.6624020383
 30
0.0
 10
10.6792207151
 20
10.6623295512
 30
0.0
 10
10.6795577315
 20
10.6622831809
 30
0.0
 10
10.6799799739
 20
10.6622122412
 30
0.0
 10
10.6807315977
 20
10.6620923707
 30
0.0
 10
10.6817981647
 20
10.6619186647
 30
0.0
 10
10.6828692676
 20
10.6617466676
 30
0.0
 10
10.683614541
 20
10.6616244047
 30
0.0
 10
10.6840467627
 20
10.6615572245
 30
0.0
 10
10.6843531607
 20
10.6614993192
 30
0.0
 10
10.6847274564
 20
10.6614701524
 30
0.0
 10
10.6852028338
 20
10.6614212389
 30
0.0
 10
10.6860457792
 20
10.661340311
 30
0.0
 10
10.6872442142
 20
10.6612222564
 30
0.0
 10
10.6886848228
 20
10.6610816434
 30
0.0
 10
10.689644755
 20
10.6609877009
 30
0.0
 10
10.6901247802
 20
10.6609407547
 30
0.0
  0
ENDSEC
  0
SECTION
  2
OBJECTS
  0
DICTIONARY
  5
C
100
AcDbDictionary
280
0
281
1
  3
ACAD_GROUP
350
D
  3
ACAD_MLINESTYLE
350
17
  3
ACAD_LAYOUT
350
1A
  3
ACAD_PLOTSETTINGS
350
19
  3
ACAD_PLOTSTYLENAME
350
E
  3
ACAD_IMAGE_DICT
350
       39A
  3
ACAD_IMAGE_VARS
350
       39B
  3
ACAD_TABLESTYLE
350
       39C
  0
IMAGEDEF_REACTOR
  5
399
100
AcDbRasterImageDefReactor
 90
2
330
292
  0
DICTIONARY
  5
D
102
{ACAD_REACTORS
330
C
102
}
100
AcDbDictionary
280
0
281
1
  0
ACDBDICTIONARYWDFLT
  5
E
102
{ACAD_REACTORS
330
C
102
}
100
AcDbDictionary
281
1
  3
Normal
350
F
100
AcDbDictionaryWithDefault
340
F
  0
DICTIONARY
  5
39A
330
C
100
AcDbDictionary
281
1
  3
B4V_assy_2_img_1
350
       39F
  0
RASTERVARIABLES
  5
39B
330
C
100
AcDbRasterVariables
 90
0
 70
0
 71
1
 72
5
  0
DICTIONARY
  5
17
102
{ACAD_REACTORS
330
C
102
}
100
AcDbDictionary
280
0
281
1
  3
Standard
350
18
  0
DICTIONARY
  5
39C
330
C
100
AcDbDictionary
281
1
  3
Standard
350
       3A0
  3
Standard1
350
       3A1
  0
DICTIONARY
  5
19
102
{ACAD_REACTORS
330
C
102
}
100
AcDbDictionary
281
1
  0
DICTIONARY
  5
1A
102
{ACAD_REACTORS
330
C
102
}
100
AcDbDictionary
281
1
  3
Model
350
39D
  3
Layout1
350
39E
  0
ACDBPLACEHOLDER
  5
F
102
{ACAD_REACTORS
330
E
102
}
  0
MLINESTYLE
  5
18
102
{ACAD_REACTORS
330
17
102
}
100
AcDbMlineStyle
  2
STANDARD
 70
0
  3

 62
256
 51
90.0
 52
90.0
 71
2
 49
0.5
 62
256
  6
BYLAYER
 49
-0.5
 62
256
  6
BYLAYER
  0
LAYOUT
  5
39D
102
{ACAD_REACTORS
330
1A
102
}
100
AcDbPlotSettings
  1

  2
none_device
  4
ANSI_C_(22.00_x_17.00_Inches)
  6

 40
0.0
 41
0.0
 42
0.0
 43
0.0
 44
558.8
 45
431.8
 46
0.0
 47
0.0
 48
0.0
 49
0.0
140
0.0
141
0.0
142
1.0
143
1.0
 70
1024
 72
0
 73
0
 74
0
  7

 75
0
147
1.0
148
0.0
149
0.0
100
AcDbLayout
  1
Model
 70
0
 71
0
 10
0.0
 20
0.0
 11
22.0
 21
17.0
 12
0.0
 22
0.0
 32
0.0
 14
0.0
 24
0.0
 34
0.0
 15
0.0
 25
0.0
 35
0.0
146
0.0
 13
0.0
 23
0.0
 33
0.0
 16
1.0
 26
0.0
 36
0.0
 17
0.0
 27
1.0
 37
0.0
 76
0
330
20C
345
0
346
0
  0
LAYOUT
  5
39E
102
{ACAD_REACTORS
330
1A
102
}
100
AcDbPlotSettings
  1

  2
none_device
  4
ANSI_C_(22.00_x_17.00_Inches)
  6

 40
0.0
 41
0.0
 42
0.0
 43
0.0
 44
558.8
 45
431.8
 46
0.0
 47
0.0
 48
0.0
 49
0.0
140
0.0
141
0.0
142
1.0
143
1.0
 70
0
 72
0
 73
0
 74
0
  7

 75
0
147
1.0
148
0.0
149
0.0
100
AcDbLayout
  1
Layout1
 70
0
 71
1
 10
0.0
 20
0.0
 11
22.0
 21
17.0
 12
0.0
 22
0.0
 32
0.0
 14
0.0
 24
0.0
 34
0.0
 15
0.0
 25
0.0
 35
0.0
146
0.0
 13
0.0
 23
0.0
 33
0.0
 16
1.0
 26
0.0
 36
0.0
 17
0.0
 27
1.0
 37
0.0
 76
0
330
20D
345
0
346
0
  0
IMAGEDEF
  5
39F
102
{ACAD_REACTORS
330
39A
330
399
102
}
100
AcDbRasterImageDef
 90
0
  1
B4V_assy_2_img_1.png
 10
369.0
 20
92.0
 11
0.0066666667
 21
0.0066666667
280
1
281
0
  0
TABLESTYLE
  5
3A0
102
{ACAD_REACTORS
330
39C
330
295
330
296
102
}
330
39C
100
AcDbTableStyle
  3
Standard
 70
0
 71
0
 40
0.06
 41
0.06
280
1
281
1
  7
Standard
140
0.18
170
1
 62
0
 63
7
283
0
  7
Standard
140
0.18
170
1
 62
0
 63
7
283
0
  7
Standard
140
0.18
170
1
 62
0
 63
7
283
0
  0
TABLESTYLE
  5
3A1
102
{ACAD_REACTORS
330
39C
330
294
102
}
330
39C
100
AcDbTableStyle
  3
Standard1
 70
1
 71
0
 40
0.06
 41
0.06
280
1
281
1
  7
Standard
140
0.18
170
1
 62
0
 63
7
283
0
  7
Standard
140
0.18
170
1
 62
0
 63
7
283
0
  7
Standard
140
0.18
170
1
 62
0
 63
7
283
0
  0
ENDSEC
  0
EOF
