999
DXF file: B4U_assy_2.dxf
999
Pro/ENGINEER 2014200 by Parametric Technology Corporation
  0
SECTION
  2
HEADER
  9
$ACADVER
  1
AC1021
  9
$DWGCODEPAGE
  3
ANSI_1252
  9
$EXTMAX
 10
22.0
 20
17.0
 30
0.0
  9
$EXTMIN
 10
0.0
 20
0.0
 30
0.0
  9
$LIMMIN
 10
0.0
 20
0.0
  9
$LIMMAX
 10
22.0
 20
17.0
  9
$VIEWCTR
 10
11.0
 20
8.5
  9
$VIEWSIZE
 40
17.0
  9
$CLAYER
  8
0
  9
$LTSCALE
 40
1.21
  9
$CELTYPE
  6
BYLAYER
  9
$DIMSCALE
 40
1.0
  9
$DIMASZ
 40
0.1875
  9
$DIMEXO
 40
0.0625
  9
$DIMDLI
 40
0.836
  9
$DIMEXE
 40
0.125
  9
$DIMCEN
 40
0.198
  9
$DIMLFAC
 40
1.0
  9
$DIMBLK
  1
_FILLED
  9
$DIMTXT
 40
0.1
  9
$DIMTOL
 70
0
  9
$DIMLIM
 70
0
  9
$DIMTFAC
 40
1.0
  9
$DIMGAP
 40
0.09
  9
$DIMDSEP
 70
46
  9
$AUNITS
 70
0
  9
$PDMODE
 70
3
  9
$PDSIZE
 40
0.3125
  9
$HANDSEED
  5
3AB
  9
$TILEMODE
 70
1
  9
$MEASUREMENT
 70
0
  9
$INSUNITS
 70
1
  0
ENDSEC
  0
SECTION
  2
CLASSES
  0
CLASS
  1
ACDBDICTIONARYWDFLT
  2
AcDbDictionaryWithDefault
  3
AutoCAD 2000
 90
0
 91
1
280
0
281
0
  0
CLASS
  1
ACDBPLACEHOLDER
  2
AcDbPlaceHolder
  3
AutoCAD 2000
 90
0
 91
1
280
0
281
0
  0
CLASS
  1
LAYOUT
  2
AcDbLayout
  3
AutoCAD 2000
 90
0
 91
0
280
0
281
0
  0
CLASS
  1
RASTERVARIABLES
  2
AcDbRasterVariables
  3
ISM
 90
0
 91
1
280
0
281
0
  0
CLASS
  1
IMAGEDEF
  2
AcDbRasterImageDef
  3
ISM
 90
0
 91
1
280
0
281
0
  0
CLASS
  1
IMAGEDEF_REACTOR
  2
AcDbRasterImageDefReactor
  3
ISM
 90
0
 91
1
280
0
281
0
  0
CLASS
  1
IMAGE
  2
AcDbRasterImage
  3
ISM
 90
127
 91
1
280
0
281
1
  0
CLASS
  1
TABLESTYLE
  2
AcDbTableStyle
  3
ObjectDBX Classes
 90
2047
 91
1
280
0
281
0
  0
CLASS
  1
ACAD_TABLE
  2
AcDbTable
  3
ObjectDBX Classes
 90
1025
 91
3
280
0
281
1
  0
ENDSEC
  0
SECTION
  2
TABLES
  0
TABLE
  2
VPORT
  5
8
100
AcDbSymbolTable
 70
2
  0
VPORT
  5
1F4
100
AcDbSymbolTableRecord
100
AcDbViewportTableRecord
  2
*ACTIVE
 70
0
 10
0.0
 20
0.0
 11
1.0
 21
1.0
 12
11.0
 22
8.5
 13
0.0
 23
0.0
 14
1.0
 24
1.0
 15
0.0
 25
0.0
 16
0.0
 26
0.0
 36
1.0
 17
0.0
 27
0.0
 37
0.0
 40
17.0
 41
1.2941176471
 42
50.0
 43
0.0
 44
0.0
 50
0.0
 51
0.0
 71
0
 72
100
 73
1
 74
1
 75
0
 76
0
 77
0
 78
0
  0
ENDTAB
  0
TABLE
  2
LTYPE
  5
5
100
AcDbSymbolTable
 70
6
  0
LTYPE
  5
14
100
AcDbSymbolTableRecord
100
AcDbLinetypeTableRecord
  2
BYBLOCK
 70
0
  3

 72
65
 73
0
 40
0.0
  0
LTYPE
  5
15
100
AcDbSymbolTableRecord
100
AcDbLinetypeTableRecord
  2
BYLAYER
 70
0
  3

 72
65
 73
0
 40
0.0
  0
LTYPE
  5
16
100
AcDbSymbolTableRecord
100
AcDbLinetypeTableRecord
  2
CONTINUOUS
 70
64
  3
Solid line
 72
65
 73
0
 40
0.0
  0
LTYPE
  5
1F5
100
AcDbSymbolTableRecord
100
AcDbLinetypeTableRecord
  2
CENTER
 70
64
  3
____ _ ____ _ ____ _ ____ _ ____ _ ____ _ ____
 72
65
 73
4
 40
0.6
 49
0.375
 74
0
 49
-0.075
 74
0
 49
0.075
 74
0
 49
-0.075
 74
0
  0
LTYPE
  5
1F6
100
AcDbSymbolTableRecord
100
AcDbLinetypeTableRecord
  2
HIDDEN
 70
64
  3
- - - - - - - - - - - - - - - - - - - -
 72
65
 73
2
 40
0.2
 49
0.1
 74
0
 49
-0.1
 74
0
  0
LTYPE
  5
1F7
100
AcDbSymbolTableRecord
100
AcDbLinetypeTableRecord
  2
PHANTOM
 70
64
  3
_____ _ _ _____ _ _ _____ _ _ _____
 72
65
 73
6
 40
0.8
 49
0.45
 74
0
 49
-0.05
 74
0
 49
0.1
 74
0
 49
-0.05
 74
0
 49
0.1
 74
0
 49
-0.05
 74
0
  0
LTYPE
  5
1F8
100
AcDbSymbolTableRecord
100
AcDbLinetypeTableRecord
  2
DOT
 70
64
  3
. . . . . . . . . . . . . . . . . . . .
 72
65
 73
2
 40
0.2
 49
0.1
 74
0
 49
-0.1
 74
0
  0
LTYPE
  5
1F9
100
AcDbSymbolTableRecord
100
AcDbLinetypeTableRecord
  2
DASHED
 70
64
  3
- - - - - - - - - - - - - - - - - - - -
 72
65
 73
2
 40
0.2
 49
0.1
 74
0
 49
-0.1
 74
0
  0
ENDTAB
  0
TABLE
  2
LAYER
  5
2
100
AcDbSymbolTable
 70
36
  0
LAYER
  5
10
100
AcDbSymbolTableRecord
100
AcDbLayerTableRecord
  2
0
 70
0
 62
7
  6
CONTINUOUS
370
-3
390
F
  0
LAYER
  5
1FA
100
AcDbSymbolTableRecord
100
AcDbLayerTableRecord
  2
DEFAULT_1
 70
0
 62
7
  6
CENTER
370
-3
390
F
  0
LAYER
  5
1FB
100
AcDbSymbolTableRecord
100
AcDbLayerTableRecord
  2
DEFAULT_2
 70
0
 62
8
  6
HIDDEN
370
-3
390
F
  0
LAYER
  5
1FC
100
AcDbSymbolTableRecord
100
AcDbLayerTableRecord
  2
DEFAULT_3
 70
0
 62
7
  6
PHANTOM
370
-3
390
F
  0
LAYER
  5
1FD
100
AcDbSymbolTableRecord
100
AcDbLayerTableRecord
  2
01___PRT_ALL_DTM_PLN
 70
0
 62
7
  6
CONTINUOUS
370
-3
390
F
  0
LAYER
  5
1FE
100
AcDbSymbolTableRecord
100
AcDbLayerTableRecord
  2
01___PRT_DEF_DTM_PLN
 70
0
 62
7
  6
CONTINUOUS
370
-3
390
F
  0
LAYER
  5
1FF
100
AcDbSymbolTableRecord
100
AcDbLayerTableRecord
  2
02___PRT_ALL_AXES
 70
0
 62
7
  6
CONTINUOUS
370
-3
390
F
  0
LAYER
  5
200
100
AcDbSymbolTableRecord
100
AcDbLayerTableRecord
  2
03___PRT_ALL_CURVES
 70
0
 62
7
  6
CONTINUOUS
370
-3
390
F
  0
LAYER
  5
201
100
AcDbSymbolTableRecord
100
AcDbLayerTableRecord
  2
04___PRT_ALL_DTM_PNT
 70
0
 62
7
  6
CONTINUOUS
370
-3
390
F
  0
LAYER
  5
202
100
AcDbSymbolTableRecord
100
AcDbLayerTableRecord
  2
05___PRT_ALL_DTM_CSYS
 70
0
 62
7
  6
CONTINUOUS
370
-3
390
F
  0
LAYER
  5
203
100
AcDbSymbolTableRecord
100
AcDbLayerTableRecord
  2
05___PRT_DEF_DTM_CSYS
 70
0
 62
7
  6
CONTINUOUS
370
-3
390
F
  0
LAYER
  5
204
100
AcDbSymbolTableRecord
100
AcDbLayerTableRecord
  2
06___PRT_ALL_SURFS
 70
0
 62
7
  6
CONTINUOUS
370
-3
390
F
  0
LAYER
  5
205
100
AcDbSymbolTableRecord
100
AcDbLayerTableRecord
  2
DATUM_PLANES
 70
0
 62
7
  6
CONTINUOUS
370
-3
390
F
  0
LAYER
  5
206
100
AcDbSymbolTableRecord
100
AcDbLayerTableRecord
  2
PORT_AREAS
 70
0
 62
7
  6
CONTINUOUS
370
-3
390
F
  0
LAYER
  5
207
100
AcDbSymbolTableRecord
100
AcDbLayerTableRecord
  2
SUNNBOMCOSMETIC
 70
0
 62
7
  6
CONTINUOUS
370
-3
390
F
  0
LAYER
  5
208
100
AcDbSymbolTableRecord
100
AcDbLayerTableRecord
  2
SUNNBOMSTAMPING
 70
0
 62
7
  6
CONTINUOUS
370
-3
390
F
  0
LAYER
  5
209
100
AcDbSymbolTableRecord
100
AcDbLayerTableRecord
  2
THREADS
 70
0
 62
7
  6
CONTINUOUS
370
-3
390
F
  0
ENDTAB
  0
TABLE
  2
STYLE
  5
3
100
AcDbSymbolTable
 70
1
  0
STYLE
  5
11
100
AcDbSymbolTableRecord
100
AcDbTextStyleTableRecord
  2
STANDARD
 70
0
 40
0.0
 41
0.8
 50
0.0
 71
0
 42
0.2
  3
txt
  4

  0
STYLE
  5
20A
100
AcDbSymbolTableRecord
100
AcDbTextStyleTableRecord
  2
TEXTSTYLE_1
 70
0
 40
0.0
 41
0.8
 50
0.0
 71
0
 42
0.2
  3
gdt
  4

  0
ENDTAB
  0
TABLE
  2
VIEW
  5
6
100
AcDbSymbolTable
 70
0
  0
ENDTAB
  0
TABLE
  2
UCS
  5
7
100
AcDbSymbolTable
 70
0
  0
ENDTAB
  0
TABLE
  2
APPID
  5
9
100
AcDbSymbolTable
 70
1
  0
APPID
  5
20B
100
AcDbSymbolTableRecord
100
AcDbRegAppTableRecord
  2
ACAD
 70
0
  0
ENDTAB
  0
TABLE
  2
BLOCK_RECORD
  5
1
100
AcDbSymbolTable
 70
0
  0
BLOCK_RECORD
  5
20C
100
AcDbSymbolTableRecord
100
AcDbBlockTableRecord
  2
*Model_Space
  0
BLOCK_RECORD
  5
20D
100
AcDbSymbolTableRecord
100
AcDbBlockTableRecord
  2
*Paper_Space
  0
BLOCK_RECORD
  5
20E
100
AcDbSymbolTableRecord
100
AcDbBlockTableRecord
  2
SUN_FIRST_THIRD_ANGLE_BL0
  0
BLOCK_RECORD
  5
20F
100
AcDbSymbolTableRecord
100
AcDbBlockTableRecord
  2
*T1
  0
BLOCK_RECORD
  5
210
100
AcDbSymbolTableRecord
100
AcDbBlockTableRecord
  2
*T2
  0
BLOCK_RECORD
  5
211
100
AcDbSymbolTableRecord
100
AcDbBlockTableRecord
  2
*T3
  0
ENDTAB
  0
TABLE
  2
DIMSTYLE
  5
A
100
AcDbSymbolTable
 70
1
100
AcDbDimStyleTable
 71
0
  0
DIMSTYLE
105
212
100
AcDbSymbolTableRecord
100
AcDbDimStyleTableRecord
  2
STANDARD
 70
0
  3

  4

 40
1.0
 41
0.1875
 42
0.0625
 43
0.38
 44
0.125
 45
0.0
 46
0.0
 47
0.001
 48
0.001
140
0.1
141
0.09
142
0.0
143
25.4
144
1.0
145
0.0
146
1.0
147
0.09
 71
0.0
 72
0.0
 73
1
 74
1
 75
0
 76
0
 77
0
 78
4
170
0
171
2
172
0
173
0
174
0
175
0
176
0
177
0
178
0
270
2
271
3
272
3
273
2
274
2
275
0
280
0
281
0
282
0
283
1
284
4
285
0
286
0
287
3
288
0
340
11
278
46
  0
ENDTAB
  0
ENDSEC
  0
SECTION
  2
BLOCKS
  0
BLOCK
  5
20
100
AcDbEntity
  8
0
100
AcDbBlockBegin
  2
*Model_Space
 70
0
 10
0.0
 20
0.0
 30
0.0
  3
*Model_Space
  1

  0
ENDBLK
  5
21
100
AcDbEntity
  8
0
100
AcDbBlockEnd
  0
BLOCK
  5
1C
100
AcDbEntity
  8
0
100
AcDbBlockBegin
  2
*Paper_Space
 70
0
 10
0.0
 20
0.0
 30
0.0
  3
*Paper_Space
  1

  0
ENDBLK
  5
1D
100
AcDbEntity
  8
0
100
AcDbBlockEnd
  0
BLOCK
  5
213
100
AcDbEntity
  8
0
100
AcDbBlockBegin
 62
2
  6
CONTINUOUS
  2
SUN_FIRST_THIRD_ANGLE_BL0
 70
64
 10
20.4816717061
 20
1.2289683772
  3
SUN_FIRST_THIRD_ANGLE_BL0
  1

  0
TEXT
  5
214
100
AcDbEntity
  8
0
100
AcDbText
 62
2
  6
CONTINUOUS
 10
19.4750896608
 20
1.4136269581
  7
STANDARD
 40
0.08
  1
FIRST ANGLE
 41
0.8
 72
0
100
AcDbText
  0
TEXT
  5
215
100
AcDbEntity
  8
0
100
AcDbText
 62
2
  6
CONTINUOUS
 10
20.7842537513
 20
1.4047600029
  7
STANDARD
 40
0.08
  1
THIRD ANGLE
 41
0.8
 72
0
100
AcDbText
  0
LINE
  5
216
100
AcDbEntity
  8
0
100
AcDbLine
 62
7
  6
CONTINUOUS
 10
19.4767170086
 20
1.1727031207
 11
19.6334271527
 21
1.1717972817
  0
LINE
  5
217
100
AcDbEntity
  8
0
100
AcDbLine
 62
7
  6
CONTINUOUS
 10
19.6596964832
 20
1.1717972817
 11
19.6950230232
 21
1.171593082
  0
LINE
  5
218
100
AcDbEntity
  8
0
100
AcDbLine
 62
7
  6
CONTINUOUS
 10
19.7194818561
 20
1.1708914427
 11
19.8852396156
 21
1.1699333054
  0
LINE
  5
219
100
AcDbEntity
  8
0
100
AcDbLine
 62
7
  6
CONTINUOUS
 10
19.4758111696
 20
1.2723454088
 11
19.88525039
 21
1.3511534004
  0
LINE
  5
21A
100
AcDbEntity
  8
0
100
AcDbLine
 62
7
  6
CONTINUOUS
 10
19.88525039
 20
1.3511534004
 11
19.8831348489
 21
0.9851647912
  0
LINE
  5
21B
100
AcDbEntity
  8
0
100
AcDbLine
 62
7
  6
CONTINUOUS
 10
19.8831348489
 20
0.9851647912
 11
19.4767170086
 21
1.0658141206
  0
LINE
  5
21C
100
AcDbEntity
  8
0
100
AcDbLine
 62
7
  6
CONTINUOUS
 10
19.4767170086
 20
1.0658141206
 11
19.4779056764
 21
1.2714536432
  0
CIRCLE
  5
21D
100
AcDbEntity
  8
0
100
AcDbCircle
 62
7
  6
CONTINUOUS
 10
20.2068232291
 20
1.1717972817
 40
0.175742101
  0
CIRCLE
  5
21E
100
AcDbEntity
  8
0
100
AcDbCircle
 62
7
  6
CONTINUOUS
 10
20.2068232291
 20
1.1717972817
 40
0.1005522074
  0
LINE
  5
21F
100
AcDbEntity
  8
0
100
AcDbLine
 62
7
  6
CONTINUOUS
 10
20.2077290681
 20
1.3756110529
 11
20.2071171714
 21
1.2379342989
  0
LINE
  5
220
100
AcDbEntity
  8
0
100
AcDbLine
 62
7
  6
CONTINUOUS
 10
20.2077290681
 20
1.2016899681
 11
20.2074674401
 21
1.1428236749
  0
LINE
  5
221
100
AcDbEntity
  8
0
100
AcDbLine
 62
7
  6
CONTINUOUS
 10
20.208634907
 20
1.101141841
 11
20.2080230104
 21
0.963465087
  0
LINE
  5
222
100
AcDbEntity
  8
0
100
AcDbLine
 62
7
  6
CONTINUOUS
 10
20.0066328138
 20
1.1745147986
 11
20.1443095678
 21
1.1739029019
  0
LINE
  5
223
100
AcDbEntity
  8
0
100
AcDbLine
 62
7
  6
CONTINUOUS
 10
20.1832714155
 20
1.1727031207
 11
20.238153505
 21
1.172335442
  0
LINE
  5
224
100
AcDbEntity
  8
0
100
AcDbLine
 62
7
  6
CONTINUOUS
 10
20.2756669918
 20
1.1717972817
 11
20.407916871
 21
1.1712095044
  0
CIRCLE
  5
225
100
AcDbEntity
  8
0
100
AcDbCircle
 62
7
  6
CONTINUOUS
 10
20.7509457401
 20
1.1693297793
 40
0.1722024983
  0
CIRCLE
  5
226
100
AcDbEntity
  8
0
100
AcDbCircle
 62
7
  6
CONTINUOUS
 10
20.7509457401
 20
1.1693297793
 40
0.0985164967
  0
LINE
  5
227
100
AcDbEntity
  8
0
100
AcDbLine
 62
7
  6
CONTINUOUS
 10
20.7169767782
 20
1.170462078
 11
20.7825395137
 21
1.1682766535
  0
LINE
  5
228
100
AcDbEntity
  8
0
100
AcDbLine
 62
7
  6
CONTINUOUS
 10
20.8177513651
 20
1.1693297793
 11
20.947965719
 21
1.1693297793
  0
LINE
  5
229
100
AcDbEntity
  8
0
100
AcDbLine
 62
7
  6
CONTINUOUS
 10
20.6875370113
 20
1.170462078
 11
20.5573226574
 21
1.170462078
  0
LINE
  5
22A
100
AcDbEntity
  8
0
100
AcDbLine
 62
7
  6
CONTINUOUS
 10
20.7486811426
 20
1.1987695462
 11
20.7486811426
 21
1.1432869085
  0
LINE
  5
22B
100
AcDbEntity
  8
0
100
AcDbLine
 62
7
  6
CONTINUOUS
 10
20.7498134414
 20
1.1059210505
 11
20.7498134414
 21
0.9757066966
  0
LINE
  5
22C
100
AcDbEntity
  8
0
100
AcDbLine
 62
7
  6
CONTINUOUS
 10
20.7486811426
 20
1.2338708068
 11
20.7486811426
 21
1.3640851607
  0
LINE
  5
22D
100
AcDbEntity
  8
0
100
AcDbLine
 62
7
  6
CONTINUOUS
 10
21.0702539817
 20
1.2701043662
 11
21.4790138229
 21
1.3448360823
  0
LINE
  5
22E
100
AcDbEntity
  8
0
100
AcDbLine
 62
7
  6
CONTINUOUS
 10
21.4790138229
 20
1.3448360823
 11
21.4790138229
 21
0.9779712941
  0
LINE
  5
22F
100
AcDbEntity
  8
0
100
AcDbLine
 62
7
  6
CONTINUOUS
 10
21.4790138229
 20
0.9779712941
 11
21.069121683
 21
1.0617614
  0
LINE
  5
230
100
AcDbEntity
  8
0
100
AcDbLine
 62
7
  6
CONTINUOUS
 10
21.0702539817
 20
1.2701043662
 11
21.069121683
 21
1.0617614
  0
LINE
  5
231
100
AcDbEntity
  8
0
100
AcDbLine
 62
7
  6
CONTINUOUS
 10
21.4790138229
 20
1.1693297793
 11
21.3159628059
 21
1.1693297793
  0
LINE
  5
232
100
AcDbEntity
  8
0
100
AcDbLine
 62
7
  6
CONTINUOUS
 10
21.2876553377
 20
1.1693297793
 11
21.2502894796
 21
1.1693297793
  0
LINE
  5
233
100
AcDbEntity
  8
0
100
AcDbLine
 62
7
  6
CONTINUOUS
 10
21.2208497126
 20
1.1659328831
 11
21.0713862804
 21
1.1659328831
  0
LINE
  5
234
100
AcDbEntity
  8
0
100
AcDbLine
 62
7
  6
CONTINUOUS
 10
20.4796138713
 20
1.5284908897
 11
20.4766766948
 21
0.9294458646
  0
ENDBLK
  5
235
100
AcDbEntity
  8
0
  6
BYBLOCK
 62
0
100
AcDbBlockEnd
  0
BLOCK
  5
236
100
AcDbEntity
  8
0
100
AcDbBlockBegin
  2
*T1
 70
1
 10
0.0
 20
0.0
  3
*T1
  1

  0
LINE
  5
237
100
AcDbEntity
  8
0
100
AcDbLine
 62
2
  6
CONTINUOUS
 10
9.275
 20
0.0
 11
-0.0
 21
0.0
  0
LINE
  5
238
100
AcDbEntity
  8
0
100
AcDbLine
 62
2
  6
CONTINUOUS
 10
9.275
 20
0.0
 11
9.275
 21
1.25
  0
LINE
  5
239
100
AcDbEntity
  8
0
100
AcDbLine
 62
2
  6
CONTINUOUS
 10
9.275
 20
0.625
 11
-0.0
 21
0.625
  0
LINE
  5
23A
100
AcDbEntity
  8
0
100
AcDbLine
 62
2
  6
CONTINUOUS
 10
9.275
 20
1.25
 11
-0.0
 21
1.25
  0
LINE
  5
23B
100
AcDbEntity
  8
0
100
AcDbLine
 62
2
  6
CONTINUOUS
 10
6.8
 20
0.0
 11
6.8
 21
1.25
  0
LINE
  5
23C
100
AcDbEntity
  8
0
100
AcDbLine
 62
2
  6
CONTINUOUS
 10
6.4
 20
0.0
 11
6.4
 21
0.625
  0
LINE
  5
23D
100
AcDbEntity
  8
0
100
AcDbLine
 62
2
  6
CONTINUOUS
 10
5.9
 20
0.0
 11
5.9
 21
0.625
  0
LINE
  5
23E
100
AcDbEntity
  8
0
100
AcDbLine
 62
2
  6
CONTINUOUS
 10
5.2
 20
0.0
 11
5.2
 21
0.625
  0
LINE
  5
23F
100
AcDbEntity
  8
0
100
AcDbLine
 62
2
  6
CONTINUOUS
 10
4.1
 20
0.0
 11
4.1
 21
1.25
  0
LINE
  5
240
100
AcDbEntity
  8
0
100
AcDbLine
 62
2
  6
CONTINUOUS
 10
-0.0
 20
0.0
 11
-0.0
 21
1.25
  0
MTEXT
  5
241
100
AcDbEntity
  8
0
100
AcDbMText
 62
2
  6
CONTINUOUS
  7
STANDARD
 71
2
 72
1
 10
6.6
 20
0.325
 30
0.0
 11
1.0
 21
0.0
 31
0.0
 44
0.9
  1
2
 40
0.125
 41
0.2
  0
MTEXT
  5
242
100
AcDbEntity
  8
0
100
AcDbMText
 62
2
  6
CONTINUOUS
  7
STANDARD
 71
2
 72
1
 10
6.15
 20
0.325
 30
0.0
 11
1.0
 21
0.0
 31
0.0
 44
0.9
  1
C
 40
0.125
 41
0.2
  0
MTEXT
  5
243
100
AcDbEntity
  8
0
100
AcDbMText
 62
2
  6
CONTINUOUS
  7
STANDARD
 71
2
 72
1
 10
5.55
 20
0.325
 30
0.0
 11
1.0
 21
0.0
 31
0.0
 44
0.9
  1
1.000
 40
0.125
 41
1.0
  0
MTEXT
  5
244
100
AcDbEntity
  8
0
100
AcDbMText
 62
2
  6
CONTINUOUS
  7
STANDARD
 71
2
 72
1
 10
4.65
 20
0.325
 30
0.0
 11
1.0
 21
0.0
 31
0.0
 44
0.9
  1
Jan-27-20
 40
0.125
 41
1.8
  0
MTEXT
  5
245
100
AcDbEntity
  8
0
100
AcDbMText
 62
2
  6
CONTINUOUS
  7
STANDARD
 71
2
 72
1
 10
2.05
 20
0.4625
 30
0.0
 11
1.0
 21
0.0
 31
0.0
 44
0.9
  1
T-2A Line mount\P(See Technical Data for Body Features)
 40
0.125
 41
7.6
  0
MTEXT
  5
246
100
AcDbEntity
  8
0
100
AcDbMText
 62
2
  6
CONTINUOUS
  7
STANDARD
 71
1
 72
1
 10
6.45
 20
0.5625
 30
0.0
 11
1.0
 21
0.0
 31
0.0
 44
0.9
  1
SHEET
 40
0.06
 41
0.48
  0
MTEXT
  5
247
100
AcDbEntity
  8
0
100
AcDbMText
 62
2
  6
CONTINUOUS
  7
STANDARD
 71
1
 72
1
 10
5.95
 20
0.5625
 30
0.0
 11
1.0
 21
0.0
 31
0.0
 44
0.9
  1
DWG SIZE
 40
0.06
 41
0.768
  0
MTEXT
  5
248
100
AcDbEntity
  8
0
100
AcDbMText
 62
2
  6
CONTINUOUS
  7
STANDARD
 71
1
 72
1
 10
5.25
 20
0.5625
 30
0.0
 11
1.0
 21
0.0
 31
0.0
 44
0.9
  1
SCALE
 40
0.06
 41
0.48
  0
MTEXT
  5
249
100
AcDbEntity
  8
0
100
AcDbMText
 62
2
  6
CONTINUOUS
  7
STANDARD
 71
1
 72
1
 10
4.15
 20
0.5625
 30
0.0
 11
1.0
 21
0.0
 31
0.0
 44
0.9
  1
DATE
 40
0.06
 41
0.384
  0
MTEXT
  5
24A
100
AcDbEntity
  8
0
100
AcDbMText
 62
2
  6
CONTINUOUS
  7
STANDARD
 71
1
 72
1
 10
0.05
 20
0.5625
 30
0.0
 11
1.0
 21
0.0
 31
0.0
 44
0.9
  1
DESCRIPTION
 40
0.06
 41
1.056
  0
MTEXT
  5
24B
100
AcDbEntity
  8
0
100
AcDbMText
 62
2
  6
CONTINUOUS
  7
STANDARD
 71
2
 72
1
 10
5.45
 20
1.0375
 30
0.0
 11
1.0
 21
0.0
 31
0.0
 44
0.9
  1
ALL DIMENSIONS IN INCH\PVIEWS ARE THIRD ANGLE
 40
0.12
 41
4.224
  0
MTEXT
  5
24C
100
AcDbEntity
  8
0
100
AcDbMText
 62
2
  6
CONTINUOUS
  7
STANDARD
 71
2
 72
1
 10
2.05
 20
0.95
 30
0.0
 11
1.0
 21
0.0
 31
0.0
 44
0.9
  1
B4U
 40
0.125
 41
0.6
  0
MTEXT
  5
24D
100
AcDbEntity
  8
0
100
AcDbMText
 62
2
  6
CONTINUOUS
  7
STANDARD
 71
1
 72
1
 10
0.05
 20
1.1875
 30
0.0
 11
1.0
 21
0.0
 31
0.0
 44
0.9
  1
MODEL
 40
0.06
 41
0.48
  0
ENDBLK
  5
24E
100
AcDbEntity
  8
0
  6
BYBLOCK
 62
0
100
AcDbBlockEnd
  0
BLOCK
  5
24F
100
AcDbEntity
  8
0
100
AcDbBlockBegin
  2
*T2
 70
1
 10
0.0
 20
0.0
  3
*T2
  1

  0
LINE
  5
250
100
AcDbEntity
  8
0
100
AcDbLine
 62
2
  6
CONTINUOUS
 10
0.0
 20
0.0
 11
9.055
 21
0.0
  0
LINE
  5
251
100
AcDbEntity
  8
0
100
AcDbLine
 62
2
  6
CONTINUOUS
 10
0.0
 20
0.0
 11
0.0
 21
-2.594
  0
LINE
  5
252
100
AcDbEntity
  8
0
100
AcDbLine
 62
2
  6
CONTINUOUS
 10
0.0
 20
-0.344
 11
9.055
 21
-0.344
  0
LINE
  5
253
100
AcDbEntity
  8
0
100
AcDbLine
 62
2
  6
CONTINUOUS
 10
0.0
 20
-0.594
 11
9.055
 21
-0.594
  0
LINE
  5
254
100
AcDbEntity
  8
0
100
AcDbLine
 62
2
  6
CONTINUOUS
 10
0.0
 20
-0.844
 11
9.055
 21
-0.844
  0
LINE
  5
255
100
AcDbEntity
  8
0
100
AcDbLine
 62
2
  6
CONTINUOUS
 10
0.0
 20
-1.094
 11
9.055
 21
-1.094
  0
LINE
  5
256
100
AcDbEntity
  8
0
100
AcDbLine
 62
2
  6
CONTINUOUS
 10
0.0
 20
-1.344
 11
9.055
 21
-1.344
  0
LINE
  5
257
100
AcDbEntity
  8
0
100
AcDbLine
 62
2
  6
CONTINUOUS
 10
0.0
 20
-1.594
 11
9.055
 21
-1.594
  0
LINE
  5
258
100
AcDbEntity
  8
0
100
AcDbLine
 62
2
  6
CONTINUOUS
 10
0.0
 20
-1.844
 11
9.055
 21
-1.844
  0
LINE
  5
259
100
AcDbEntity
  8
0
100
AcDbLine
 62
2
  6
CONTINUOUS
 10
0.0
 20
-2.094
 11
9.055
 21
-2.094
  0
LINE
  5
25A
100
AcDbEntity
  8
0
100
AcDbLine
 62
2
  6
CONTINUOUS
 10
0.0
 20
-2.344
 11
9.055
 21
-2.344
  0
LINE
  5
25B
100
AcDbEntity
  8
0
100
AcDbLine
 62
2
  6
CONTINUOUS
 10
0.0
 20
-2.594
 11
9.055
 21
-2.594
  0
LINE
  5
25C
100
AcDbEntity
  8
0
100
AcDbLine
 62
2
  6
CONTINUOUS
 10
3.055
 20
0.0
 11
3.055
 21
-2.594
  0
LINE
  5
25D
100
AcDbEntity
  8
0
100
AcDbLine
 62
2
  6
CONTINUOUS
 10
9.055
 20
0.0
 11
9.055
 21
-2.594
  0
MTEXT
  5
25E
100
AcDbEntity
  8
0
100
AcDbMText
 62
2
  6
CONTINUOUS
  7
STANDARD
 71
2
 72
1
 10
1.5275
 20
-0.0995
 30
0.0
 11
1.0
 21
0.0
 31
0.0
 44
0.9
  1
Technical Data
 40
0.145
 41
3.248
  0
MTEXT
  5
25F
100
AcDbEntity
  8
0
100
AcDbMText
 62
2
  6
CONTINUOUS
  7
STANDARD
 71
2
 72
1
 10
4.555
 20
-0.0995
 30
0.0
 11
1.0
 21
0.0
 31
0.0
 44
0.9
  1
U.S. Units
 40
0.145
 41
2.32
  0
MTEXT
  5
260
100
AcDbEntity
  8
0
100
AcDbMText
 62
2
  6
CONTINUOUS
  7
STANDARD
 71
2
 72
1
 10
7.555
 20
-0.0995
 30
0.0
 11
1.0
 21
0.0
 31
0.0
 44
0.9
  1
Metric Units
 40
0.145
 41
2.784
  0
MTEXT
  5
261
100
AcDbEntity
  8
0
100
AcDbMText
 62
2
  6
CONTINUOUS
  7
STANDARD
 71
2
 72
1
 10
1.5275
 20
-0.4065
 30
0.0
 11
1.0
 21
0.0
 31
0.0
 44
0.9
  1
Cavity
 40
0.125
 41
1.2
  0
MTEXT
  5
262
100
AcDbEntity
  8
0
100
AcDbMText
 62
2
  6
CONTINUOUS
  7
STANDARD
 71
2
 72
1
 10
6.055
 20
-0.4065
 30
0.0
 11
1.0
 21
0.0
 31
0.0
 44
0.9
  1
T-2A
 40
0.125
 41
0.8
  0
MTEXT
  5
263
100
AcDbEntity
  8
0
100
AcDbMText
 62
2
  6
CONTINUOUS
  7
STANDARD
 71
2
 72
1
 10
1.5275
 20
-0.6565
 30
0.0
 11
1.0
 21
0.0
 31
0.0
 44
0.9
  1
Body Features
 40
0.125
 41
2.6
  0
MTEXT
  5
264
100
AcDbEntity
  8
0
100
AcDbMText
 62
2
  6
CONTINUOUS
  7
STANDARD
 71
2
 72
1
 10
6.055
 20
-0.6565
 30
0.0
 11
1.0
 21
0.0
 31
0.0
 44
0.9
  1
Ninety degree with reverse flow check - reducing
 40
0.125
 41
9.6
  0
MTEXT
  5
265
100
AcDbEntity
  8
0
100
AcDbMText
 62
2
  6
CONTINUOUS
  7
STANDARD
 71
2
 72
1
 10
1.5275
 20
-0.9065
 30
0.0
 11
1.0
 21
0.0
 31
0.0
 44
0.9
  1
Body Type
 40
0.125
 41
1.8
  0
MTEXT
  5
266
100
AcDbEntity
  8
0
100
AcDbMText
 62
2
  6
CONTINUOUS
  7
STANDARD
 71
2
 72
1
 10
6.055
 20
-0.9065
 30
0.0
 11
1.0
 21
0.0
 31
0.0
 44
0.9
  1
Line mount
 40
0.125
 41
2.0
  0
MTEXT
  5
267
100
AcDbEntity
  8
0
100
AcDbMText
 62
2
  6
CONTINUOUS
  7
STANDARD
 71
2
 72
1
 10
1.5275
 20
-1.1565
 30
0.0
 11
1.0
 21
0.0
 31
0.0
 44
0.9
  1
Interface
 40
0.125
 41
1.8
  0
MTEXT
  5
268
100
AcDbEntity
  8
0
100
AcDbMText
 62
2
  6
CONTINUOUS
  7
STANDARD
 71
2
 72
1
 10
6.055
 20
-1.1565
 30
0.0
 11
1.0
 21
0.0
 31
0.0
 44
0.9
  1
None
 40
0.125
 41
0.8
  0
MTEXT
  5
269
100
AcDbEntity
  8
0
100
AcDbMText
 62
2
  6
CONTINUOUS
  7
STANDARD
 71
2
 72
1
 10
1.5275
 20
-1.4065
 30
0.0
 11
1.0
 21
0.0
 31
0.0
 44
0.9
  1
Open Cavity Quantity
 40
0.125
 41
4.0
  0
MTEXT
  5
26A
100
AcDbEntity
  8
0
100
AcDbMText
 62
2
  6
CONTINUOUS
  7
STANDARD
 71
2
 72
1
 10
6.055
 20
-1.4065
 30
0.0
 11
1.0
 21
0.0
 31
0.0
 44
0.9
  1
1
 40
0.125
 41
0.2
  0
MTEXT
  5
26B
100
AcDbEntity
  8
0
100
AcDbMText
 62
2
  6
CONTINUOUS
  7
STANDARD
 71
2
 72
1
 10
1.5275
 20
-1.6565
 30
0.0
 11
1.0
 21
0.0
 31
0.0
 44
0.9
  1
Weight
 40
0.125
 41
1.2
  0
MTEXT
  5
26C
100
AcDbEntity
  8
0
100
AcDbMText
 62
2
  6
CONTINUOUS
  7
STANDARD
 71
2
 72
1
 10
4.555
 20
-1.6565
 30
0.0
 11
1.0
 21
0.0
 31
0.0
 44
0.9
  1
1.982 lb.
 40
0.125
 41
1.8
  0
MTEXT
  5
26D
100
AcDbEntity
  8
0
100
AcDbMText
 62
2
  6
CONTINUOUS
  7
STANDARD
 71
2
 72
1
 10
7.555
 20
-1.6565
 30
0.0
 11
1.0
 21
0.0
 31
0.0
 44
0.9
  1
0,899 kg.
 40
0.125
 41
1.8
  0
MTEXT
  5
26E
100
AcDbEntity
  8
0
100
AcDbMText
 62
2
  6
CONTINUOUS
  7
STANDARD
 71
2
 72
1
 10
1.5275
 20
-1.9065
 30
0.0
 11
1.0
 21
0.0
 31
0.0
 44
0.9
  1
Mounting Hole Diameter
 40
0.125
 41
4.4
  0
MTEXT
  5
26F
100
AcDbEntity
  8
0
100
AcDbMText
 62
2
  6
CONTINUOUS
  7
STANDARD
 71
2
 72
1
 10
4.555
 20
-1.9065
 30
0.0
 11
1.0
 21
0.0
 31
0.0
 44
0.9
  1
.42 in.
 40
0.125
 41
1.4
  0
MTEXT
  5
270
100
AcDbEntity
  8
0
100
AcDbMText
 62
2
  6
CONTINUOUS
  7
STANDARD
 71
2
 72
1
 10
7.555
 20
-1.9065
 30
0.0
 11
1.0
 21
0.0
 31
0.0
 44
0.9
  1
10,7 mm
 40
0.125
 41
1.4
  0
MTEXT
  5
271
100
AcDbEntity
  8
0
100
AcDbMText
 62
2
  6
CONTINUOUS
  7
STANDARD
 71
2
 72
1
 10
1.5275
 20
-2.1565
 30
0.0
 11
1.0
 21
0.0
 31
0.0
 44
0.9
  1
Mounting Hole Depth
 40
0.125
 41
3.8
  0
MTEXT
  5
272
100
AcDbEntity
  8
0
100
AcDbMText
 62
2
  6
CONTINUOUS
  7
STANDARD
 71
2
 72
1
 10
6.055
 20
-2.1565
 30
0.0
 11
1.0
 21
0.0
 31
0.0
 44
0.9
  1
Through
 40
0.125
 41
1.4
  0
MTEXT
  5
273
100
AcDbEntity
  8
0
100
AcDbMText
 62
2
  6
CONTINUOUS
  7
STANDARD
 71
2
 72
1
 10
1.5275
 20
-2.4065
 30
0.0
 11
1.0
 21
0.0
 31
0.0
 44
0.9
  1
Mounting Hole Quantity
 40
0.125
 41
4.4
  0
MTEXT
  5
274
100
AcDbEntity
  8
0
100
AcDbMText
 62
2
  6
CONTINUOUS
  7
STANDARD
 71
2
 72
1
 10
6.055
 20
-2.4065
 30
0.0
 11
1.0
 21
0.0
 31
0.0
 44
0.9
  1
2
 40
0.125
 41
0.2
  0
ENDBLK
  5
275
100
AcDbEntity
  8
0
  6
BYBLOCK
 62
0
100
AcDbBlockEnd
  0
BLOCK
  5
276
100
AcDbEntity
  8
0
100
AcDbBlockBegin
  2
*T3
 70
1
 10
0.0
 20
0.0
  3
*T3
  1

  0
LINE
  5
277
100
AcDbEntity
  8
0
100
AcDbLine
 62
2
  6
CONTINUOUS
 10
0.0
 20
0.0
 11
4.6
 21
0.0
  0
LINE
  5
278
100
AcDbEntity
  8
0
100
AcDbLine
 62
2
  6
CONTINUOUS
 10
0.0
 20
0.0
 11
0.0
 21
-1.43775
  0
LINE
  5
279
100
AcDbEntity
  8
0
100
AcDbLine
 62
2
  6
CONTINUOUS
 10
0.0
 20
-0.34375
 11
4.6
 21
-0.34375
  0
LINE
  5
27A
100
AcDbEntity
  8
0
100
AcDbLine
 62
2
  6
CONTINUOUS
 10
0.0
 20
-0.68775
 11
4.6
 21
-0.68775
  0
LINE
  5
27B
100
AcDbEntity
  8
0
100
AcDbLine
 62
2
  6
CONTINUOUS
 10
0.0
 20
-0.93775
 11
4.6
 21
-0.93775
  0
LINE
  5
27C
100
AcDbEntity
  8
0
100
AcDbLine
 62
2
  6
CONTINUOUS
 10
0.0
 20
-1.18775
 11
4.6
 21
-1.18775
  0
LINE
  5
27D
100
AcDbEntity
  8
0
100
AcDbLine
 62
2
  6
CONTINUOUS
 10
0.0
 20
-1.43775
 11
4.6
 21
-1.43775
  0
LINE
  5
27E
100
AcDbEntity
  8
0
100
AcDbLine
 62
2
  6
CONTINUOUS
 10
1.3
 20
-0.34375
 11
1.3
 21
-1.43775
  0
LINE
  5
27F
100
AcDbEntity
  8
0
100
AcDbLine
 62
2
  6
CONTINUOUS
 10
3.3
 20
-0.34375
 11
3.3
 21
-1.43775
  0
LINE
  5
280
100
AcDbEntity
  8
0
100
AcDbLine
 62
2
  6
CONTINUOUS
 10
4.6
 20
0.0
 11
4.6
 21
-1.43775
  0
MTEXT
  5
281
100
AcDbEntity
  8
0
100
AcDbMText
 62
2
  6
CONTINUOUS
  7
STANDARD
 71
2
 72
1
 10
2.3
 20
-0.099375
 30
0.0
 11
1.0
 21
0.0
 31
0.0
 44
0.9
  1
Port Headings
 40
0.145
 41
3.016
  0
MTEXT
  5
282
100
AcDbEntity
  8
0
100
AcDbMText
 62
2
  6
CONTINUOUS
  7
STANDARD
 71
2
 72
1
 10
0.65
 20
-0.44325
 30
0.0
 11
1.0
 21
0.0
 31
0.0
 44
0.9
  1
Product
 40
0.145
 41
1.624
  0
MTEXT
  5
283
100
AcDbEntity
  8
0
100
AcDbMText
 62
2
  6
CONTINUOUS
  7
STANDARD
 71
2
 72
1
 10
2.3
 20
-0.44325
 30
0.0
 11
1.0
 21
0.0
 31
0.0
 44
0.9
  1
Port
 40
0.145
 41
0.928
  0
MTEXT
  5
284
100
AcDbEntity
  8
0
100
AcDbMText
 62
2
  6
CONTINUOUS
  7
STANDARD
 71
2
 72
1
 10
3.95
 20
-0.44325
 30
0.0
 11
1.0
 21
0.0
 31
0.0
 44
0.9
  1
Size
 40
0.145
 41
0.928
  0
MTEXT
  5
285
100
AcDbEntity
  8
0
100
AcDbMText
 62
2
  6
CONTINUOUS
  7
STANDARD
 71
2
 72
1
 10
0.65
 20
-0.75025
 30
0.0
 11
1.0
 21
0.0
 31
0.0
 44
0.9
  1
B4U
 40
0.125
 41
0.6
  0
MTEXT
  5
286
100
AcDbEntity
  8
0
100
AcDbMText
 62
2
  6
CONTINUOUS
  7
STANDARD
 71
2
 72
1
 10
2.3
 20
-0.75025
 30
0.0
 11
1.0
 21
0.0
 31
0.0
 44
0.9
  1
Ports 1 &  2
 40
0.125
 41
2.4
  0
MTEXT
  5
287
100
AcDbEntity
  8
0
100
AcDbMText
 62
2
  6
CONTINUOUS
  7
STANDARD
 71
2
 72
1
 10
3.95
 20
-0.75025
 30
0.0
 11
1.0
 21
0.0
 31
0.0
 44
0.9
  1
3/8" BSPP
 40
0.125
 41
1.8
  0
MTEXT
  5
288
100
AcDbEntity
  8
0
100
AcDbMText
 62
2
  6
CONTINUOUS
  7
STANDARD
 71
2
 72
1
 10
0.65
 20
-1.00025
 30
0.0
 11
1.0
 21
0.0
 31
0.0
 44
0.9
  1
B4U
 40
0.125
 41
0.6
  0
MTEXT
  5
289
100
AcDbEntity
  8
0
100
AcDbMText
 62
2
  6
CONTINUOUS
  7
STANDARD
 71
2
 72
1
 10
2.3
 20
-1.00025
 30
0.0
 11
1.0
 21
0.0
 31
0.0
 44
0.9
  1
Port 3
 40
0.125
 41
1.2
  0
MTEXT
  5
28A
100
AcDbEntity
  8
0
100
AcDbMText
 62
2
  6
CONTINUOUS
  7
STANDARD
 71
2
 72
1
 10
3.95
 20
-1.00025
 30
0.0
 11
1.0
 21
0.0
 31
0.0
 44
0.9
  1
3/8" BSPP
 40
0.125
 41
1.8
  0
MTEXT
  5
28B
100
AcDbEntity
  8
0
100
AcDbMText
 62
2
  6
CONTINUOUS
  7
STANDARD
 71
2
 72
1
 10
0.65
 20
-1.25025
 30
0.0
 11
1.0
 21
0.0
 31
0.0
 44
0.9
  1
B4U
 40
0.125
 41
0.6
  0
MTEXT
  5
28C
100
AcDbEntity
  8
0
100
AcDbMText
 62
2
  6
CONTINUOUS
  7
STANDARD
 71
2
 72
1
 10
2.3
 20
-1.25025
 30
0.0
 11
1.0
 21
0.0
 31
0.0
 44
0.9
  1
Gage Port
 40
0.125
 41
1.8
  0
MTEXT
  5
28D
100
AcDbEntity
  8
0
100
AcDbMText
 62
2
  6
CONTINUOUS
  7
STANDARD
 71
2
 72
1
 10
3.95
 20
-1.25025
 30
0.0
 11
1.0
 21
0.0
 31
0.0
 44
0.9
  1
1/4" BSPP
 40
0.125
 41
1.8
  0
ENDBLK
  5
28E
100
AcDbEntity
  8
0
  6
BYBLOCK
 62
0
100
AcDbBlockEnd
  0
ENDSEC
  0
SECTION
  2
ENTITIES
  0
IMAGE
  5
28F
100
AcDbEntity
  8
0
100
AcDbRasterImage
 62
7
  6
CONTINUOUS
 10
19.2297077316
 20
0.3094318264
 30
0.0
 11
0.0066666667
 21
0.0
 31
0.0
 12
0.0
 22
0.0066666667
 32
0.0
 13
369.0
 23
92.0
340
       3A8
 70
9
280
0
281
50
282
50
283
0
360
       3A2
 71
1
 91
2
 14
-0.5
 24
-0.5
 14
368.5
 24
91.5
  0
INSERT
  5
290
100
AcDbEntity
  8
0
100
AcDbBlockReference
 62
2
  6
CONTINUOUS
  2
SUN_FIRST_THIRD_ANGLE_BL0
 10
20.4816717061
 20
1.2289683772
  0
ACAD_TABLE
  5
291
100
AcDbEntity
  8
0
 62
2
  6
CONTINUOUS
100
AcDbBlockReference
  2
*T1
 10
12.42375
 20
0.30125
 30
0.0
100
AcDbTable
342
       3AA
343
20F
 11
1.0
 21
0.0
 31
0.0
 90
6
 91
4
 92
6
 93
20
 94
0
 95
0
 96
0
 70
1
 41
0.0
141
0.525
141
0.1
141
0.525
141
0.1
142
4.1
142
1.1
142
0.7
142
0.5
142
0.4
142
2.475
171
1
172
0
173
0
174
0
175
1
176
1
 91
33
178
0
145
0.0
301
CELL_VALUE
 90
4
  1
T-2A Line mount\P(See Technical Data for Body Features)
304
ACVALUE_END
170
2
140
0.125
171
1
172
0
173
0
174
0
175
1
176
1
 91
33
178
0
145
0.0
301
CELL_VALUE
 90
4
  1
Jan-27-20
304
ACVALUE_END
170
5
140
0.125
171
1
172
0
173
0
174
0
175
1
176
1
 91
33
178
0
145
0.0
301
CELL_VALUE
 90
4
  1
1.000
304
ACVALUE_END
170
5
140
0.125
171
1
172
0
173
0
174
0
175
1
176
1
 91
33
178
0
145
0.0
301
CELL_VALUE
 90
4
  1
C
304
ACVALUE_END
170
5
140
0.125
171
1
172
0
173
0
174
0
175
1
176
1
 91
33
178
0
145
0.0
301
CELL_VALUE
 90
4
  1
2
304
ACVALUE_END
170
5
140
0.125
171
1
172
0
173
0
174
0
175
1
176
1
 91
33
178
0
145
0.0
301
CELL_VALUE
 90
4
  1
 
304
ACVALUE_END
170
1
140
0.125
171
1
172
0
173
0
174
0
175
1
176
1
 91
33
178
0
145
0.0
301
CELL_VALUE
 90
4
  1
DESCRIPTION
304
ACVALUE_END
170
1
140
0.06
171
1
172
0
173
0
174
0
175
1
176
1
 91
33
178
0
145
0.0
301
CELL_VALUE
 90
4
  1
DATE
304
ACVALUE_END
170
1
140
0.06
171
1
172
0
173
0
174
0
175
1
176
1
 91
33
178
0
145
0.0
301
CELL_VALUE
 90
4
  1
SCALE
304
ACVALUE_END
170
1
140
0.06
171
1
172
0
173
0
174
0
175
1
176
1
 91
33
178
0
145
0.0
301
CELL_VALUE
 90
4
  1
DWG SIZE
304
ACVALUE_END
170
1
140
0.06
171
1
172
0
173
0
174
0
175
1
176
1
 91
33
178
0
145
0.0
301
CELL_VALUE
 90
4
  1
SHEET
304
ACVALUE_END
170
1
140
0.06
171
1
172
0
173
0
174
0
175
1
176
1
 91
33
178
0
145
0.0
301
CELL_VALUE
 90
4
  1
 
304
ACVALUE_END
170
1
140
0.125
171
1
172
0
173
0
174
0
175
1
176
1
 91
33
178
0
145
0.0
301
CELL_VALUE
 90
4
  1
B4U
304
ACVALUE_END
170
5
140
0.125
171
1
172
0
173
0
174
0
175
4
176
1
 91
33
178
0
145
0.0
301
CELL_VALUE
 90
4
  1
ALL DIMENSIONS IN INCH\PVIEWS ARE THIRD ANGLE
304
ACVALUE_END
170
5
140
0.12
171
1
172
0
173
1
174
0
175
1
176
1
 91
1
178
0
145
0.0
170
1
171
1
172
0
173
1
174
0
175
1
176
1
 91
1
178
0
145
0.0
170
1
171
1
172
0
173
1
174
0
175
1
176
1
 91
1
178
0
145
0.0
170
5
171
1
172
0
173
0
174
0
175
1
176
1
 91
33
178
0
145
0.0
301
CELL_VALUE
 90
4
  1
 
304
ACVALUE_END
170
1
140
0.125
171
1
172
0
173
0
174
0
175
1
176
1
 91
33
178
0
145
0.0
301
CELL_VALUE
 90
4
  1
MODEL
304
ACVALUE_END
170
1
140
0.06
171
1
172
0
173
0
174
0
175
1
176
1
 91
33
178
0
145
0.0
301
CELL_VALUE
 90
4
  1
 
304
ACVALUE_END
170
1
140
0.125
171
1
172
0
173
0
174
0
175
1
176
1
 91
33
178
0
145
0.0
301
CELL_VALUE
 90
4
  1
 
304
ACVALUE_END
170
1
140
0.125
171
1
172
0
173
0
174
0
175
1
176
1
 91
33
178
0
145
0.0
301
CELL_VALUE
 90
4
  1
 
304
ACVALUE_END
170
1
140
0.125
171
1
172
0
173
0
174
0
175
1
176
1
 91
33
178
0
145
0.0
301
CELL_VALUE
 90
4
  1
 
304
ACVALUE_END
170
1
140
0.125
171
1
172
0
173
0
174
0
175
1
176
1
 91
33
178
0
145
0.0
301
CELL_VALUE
 90
4
  1
 
304
ACVALUE_END
170
1
140
0.125
  0
ACAD_TABLE
  5
292
100
AcDbEntity
  8
0
 62
2
  6
CONTINUOUS
100
AcDbBlockReference
  2
*T2
 10
12.4237499994
 20
16.47875
 30
0.0
100
AcDbTable
342
       3A9
343
210
 11
1.0
 21
0.0
 31
0.0
 90
22
 91
10
 92
3
 93
16
 94
0
 95
0
 96
0
 41
0.028
141
0.344
141
0.25
141
0.25
141
0.25
141
0.25
141
0.25
141
0.25
141
0.25
141
0.25
141
0.25
142
3.055
142
3.0
142
3.0
171
1
172
0
173
0
174
0
175
1
176
1
 91
33
178
0
145
0.0
301
CELL_VALUE
 90
4
  1
Technical Data
304
ACVALUE_END
170
5
140
0.145
171
1
172
0
173
0
174
0
175
1
176
1
 91
33
178
0
145
0.0
301
CELL_VALUE
 90
4
  1
U.S. Units
304
ACVALUE_END
170
5
140
0.145
171
1
172
0
173
0
174
0
175
1
176
1
 91
33
178
0
145
0.0
301
CELL_VALUE
 90
4
  1
Metric Units
304
ACVALUE_END
170
5
140
0.145
171
1
172
0
173
0
174
0
175
1
176
1
 91
33
178
0
145
0.0
301
CELL_VALUE
 90
4
  1
Cavity
304
ACVALUE_END
170
5
140
0.125
171
1
172
0
173
0
174
0
175
2
176
1
 91
33
178
0
145
0.0
301
CELL_VALUE
 90
4
  1
T-2A
304
ACVALUE_END
170
5
140
0.125
171
1
172
0
173
1
174
0
175
1
176
1
 91
1
178
0
145
0.0
170
1
171
1
172
0
173
0
174
0
175
1
176
1
 91
33
178
0
145
0.0
301
CELL_VALUE
 90
4
  1
Body Features
304
ACVALUE_END
170
5
140
0.125
171
1
172
0
173
0
174
0
175
2
176
1
 91
33
178
0
145
0.0
301
CELL_VALUE
 90
4
  1
Ninety degree with reverse flow check - reducing
304
ACVALUE_END
170
5
140
0.125
171
1
172
0
173
1
174
0
175
1
176
1
 91
1
178
0
145
0.0
170
1
171
1
172
0
173
0
174
0
175
1
176
1
 91
33
178
0
145
0.0
301
CELL_VALUE
 90
4
  1
Body Type
304
ACVALUE_END
170
5
140
0.125
171
1
172
0
173
0
174
0
175
2
176
1
 91
33
178
0
145
0.0
301
CELL_VALUE
 90
4
  1
Line mount
304
ACVALUE_END
170
5
140
0.125
171
1
172
0
173
1
174
0
175
1
176
1
 91
1
178
0
145
0.0
170
1
171
1
172
0
173
0
174
0
175
1
176
1
 91
33
178
0
145
0.0
301
CELL_VALUE
 90
4
  1
Interface
304
ACVALUE_END
170
5
140
0.125
171
1
172
0
173
0
174
0
175
2
176
1
 91
33
178
0
145
0.0
301
CELL_VALUE
 90
4
  1
None
304
ACVALUE_END
170
5
140
0.125
171
1
172
0
173
1
174
0
175
1
176
1
 91
1
178
0
145
0.0
170
1
171
1
172
0
173
0
174
0
175
1
176
1
 91
33
178
0
145
0.0
301
CELL_VALUE
 90
4
  1
Open Cavity Quantity
304
ACVALUE_END
170
5
140
0.125
171
1
172
0
173
0
174
0
175
2
176
1
 91
33
178
0
145
0.0
301
CELL_VALUE
 90
4
  1
1
304
ACVALUE_END
170
5
140
0.125
171
1
172
0
173
1
174
0
175
1
176
1
 91
1
178
0
145
0.0
170
1
171
1
172
0
173
0
174
0
175
1
176
1
 91
33
178
0
145
0.0
301
CELL_VALUE
 90
4
  1
Weight
304
ACVALUE_END
170
5
140
0.125
171
1
172
0
173
0
174
0
175
1
176
1
 91
33
178
0
145
0.0
301
CELL_VALUE
 90
4
  1
1.982 lb.
304
ACVALUE_END
170
5
140
0.125
171
1
172
0
173
0
174
0
175
1
176
1
 91
33
178
0
145
0.0
301
CELL_VALUE
 90
4
  1
0,899 kg.
304
ACVALUE_END
170
5
140
0.125
171
1
172
0
173
0
174
0
175
1
176
1
 91
33
178
0
145
0.0
301
CELL_VALUE
 90
4
  1
Mounting Hole Diameter
304
ACVALUE_END
170
5
140
0.125
171
1
172
0
173
0
174
0
175
1
176
1
 91
33
178
0
145
0.0
301
CELL_VALUE
 90
4
  1
.42 in.
304
ACVALUE_END
170
5
140
0.125
171
1
172
0
173
0
174
0
175
1
176
1
 91
33
178
0
145
0.0
301
CELL_VALUE
 90
4
  1
10,7 mm
304
ACVALUE_END
170
5
140
0.125
171
1
172
0
173
0
174
0
175
1
176
1
 91
33
178
0
145
0.0
301
CELL_VALUE
 90
4
  1
Mounting Hole Depth
304
ACVALUE_END
170
5
140
0.125
171
1
172
0
173
0
174
0
175
2
176
1
 91
33
178
0
145
0.0
301
CELL_VALUE
 90
4
  1
Through
304
ACVALUE_END
170
5
140
0.125
171
1
172
0
173
1
174
0
175
1
176
1
 91
1
178
0
145
0.0
170
1
171
1
172
0
173
0
174
0
175
1
176
1
 91
33
178
0
145
0.0
301
CELL_VALUE
 90
4
  1
Mounting Hole Quantity
304
ACVALUE_END
170
5
140
0.125
171
1
172
0
173
0
174
0
175
2
176
1
 91
33
178
0
145
0.0
301
CELL_VALUE
 90
4
  1
2
304
ACVALUE_END
170
5
140
0.125
171
1
172
0
173
1
174
0
175
1
176
1
 91
1
178
0
145
0.0
170
1
  0
ACAD_TABLE
  5
293
100
AcDbEntity
  8
0
 62
2
  6
CONTINUOUS
100
AcDbBlockReference
  2
*T3
 10
0.52125
 20
1.959
 30
0.0
100
AcDbTable
342
       3A9
343
211
 11
1.0
 21
0.0
 31
0.0
 90
22
 91
5
 92
3
 93
16
 94
0
 95
0
 96
0
 41
0.05
141
0.34375
141
0.344
141
0.25
141
0.25
141
0.25
142
1.3
142
2.0
142
1.3
171
1
172
0
173
0
174
0
175
3
176
1
 91
33
178
0
145
0.0
301
CELL_VALUE
 90
4
  1
Port Headings
304
ACVALUE_END
170
5
140
0.145
171
1
172
0
173
1
174
0
175
1
176
1
 91
1
178
0
145
0.0
170
1
171
1
172
0
173
1
174
0
175
1
176
1
 91
1
178
0
145
0.0
170
1
171
1
172
0
173
0
174
0
175
1
176
1
 91
33
178
0
145
0.0
301
CELL_VALUE
 90
4
  1
Product
304
ACVALUE_END
170
5
140
0.145
171
1
172
0
173
0
174
0
175
1
176
1
 91
33
178
0
145
0.0
301
CELL_VALUE
 90
4
  1
Port
304
ACVALUE_END
170
5
140
0.145
171
1
172
0
173
0
174
0
175
1
176
1
 91
33
178
0
145
0.0
301
CELL_VALUE
 90
4
  1
Size
304
ACVALUE_END
170
5
140
0.145
171
1
172
0
173
0
174
0
175
1
176
1
 91
33
178
0
145
0.0
301
CELL_VALUE
 90
4
  1
B4U
304
ACVALUE_END
170
5
140
0.125
171
1
172
0
173
0
174
0
175
1
176
1
 91
33
178
0
145
0.0
301
CELL_VALUE
 90
4
  1
Ports 1 &  2
304
ACVALUE_END
170
5
140
0.125
171
1
172
0
173
0
174
0
175
1
176
1
 91
33
178
0
145
0.0
301
CELL_VALUE
 90
4
  1
3/8" BSPP
304
ACVALUE_END
170
5
140
0.125
171
1
172
0
173
0
174
0
175
1
176
1
 91
33
178
0
145
0.0
301
CELL_VALUE
 90
4
  1
B4U
304
ACVALUE_END
170
5
140
0.125
171
1
172
0
173
0
174
0
175
1
176
1
 91
33
178
0
145
0.0
301
CELL_VALUE
 90
4
  1
Port 3
304
ACVALUE_END
170
5
140
0.125
171
1
172
0
173
0
174
0
175
1
176
1
 91
33
178
0
145
0.0
301
CELL_VALUE
 90
4
  1
3/8" BSPP
304
ACVALUE_END
170
5
140
0.125
171
1
172
0
173
0
174
0
175
1
176
1
 91
33
178
0
145
0.0
301
CELL_VALUE
 90
4
  1
B4U
304
ACVALUE_END
170
5
140
0.125
171
1
172
0
173
0
174
0
175
1
176
1
 91
33
178
0
145
0.0
301
CELL_VALUE
 90
4
  1
Gage Port
304
ACVALUE_END
170
5
140
0.125
171
1
172
0
173
0
174
0
175
1
176
1
 91
33
178
0
145
0.0
301
CELL_VALUE
 90
4
  1
1/4" BSPP
304
ACVALUE_END
170
5
140
0.125
  0
MTEXT
  5
294
100
AcDbEntity
  8
0
100
AcDbMText
 62
2
  6
CONTINUOUS
  7
STANDARD
 71
1
 72
1
 10
0.52125
 20
5.75995
 30
0.0
 11
1.0
 21
0.0
 31
0.0
 44
0.6
  3
Notes\P \P1. Important: Carefully consider\P   the maximum system pressure. The\P   pressure rating of the manifold is\P   dependent on the manifold material,\P   with the port type/size a secondary\P   consideration. Manifolds\P   constructed of alu
  1
minum are not\P   rated for pressures higher than\P   3000 psi (210 bar), regardless of\P   the port type/size specified.
 40
0.1
 41
3.04
  0
LINE
  5
295
100
AcDbEntity
  8
0
100
AcDbLine
 62
7
  6
CONTINUOUS
 10
0.30125
 20
0.30125
 11
0.30125
 21
16.69875
  0
LINE
  5
296
100
AcDbEntity
  8
0
100
AcDbLine
 62
7
  6
CONTINUOUS
 10
0.30125
 20
0.30125
 11
21.69875
 21
0.30125
  0
LINE
  5
297
100
AcDbEntity
  8
0
100
AcDbLine
 62
7
  6
CONTINUOUS
 10
0.30125
 20
16.69875
 11
21.69875
 21
16.69875
  0
LINE
  5
298
100
AcDbEntity
  8
0
100
AcDbLine
 62
7
  6
CONTINUOUS
 10
21.69875
 20
0.30125
 11
21.69875
 21
16.69875
  0
LINE
  5
299
100
AcDbEntity
  8
0
100
AcDbLine
 62
7
  6
CONTINUOUS
 10
9.4433734597
 20
10.9566713866
 11
9.0551452125
 21
10.5816716739
  0
LINE
  5
29A
100
AcDbEntity
  8
0
100
AcDbLine
 62
4
  6
CONTINUOUS
 10
9.2821377478
 20
10.0491593385
 11
9.2748933038
 21
10.0400024861
  0
LINE
  5
29B
100
AcDbEntity
  8
0
100
AcDbLine
 62
4
  6
CONTINUOUS
 10
9.2893821917
 20
9.9907013829
 11
9.2748933038
 21
9.9723876737
  0
LINE
  5
29C
100
AcDbEntity
  8
0
100
AcDbLine
 62
4
  6
CONTINUOUS
 10
9.23142664
 20
10.0719946853
 11
9.2459155279
 21
10.0806491338
  0
LINE
  5
29D
100
AcDbEntity
  8
0
100
AcDbLine
 62
4
  6
CONTINUOUS
 10
9.2748933038
 20
10.0400024861
 11
9.2604044159
 21
10.0313480306
  0
LINE
  5
29E
100
AcDbEntity
  8
0
100
AcDbLine
 62
4
  6
CONTINUOUS
 10
9.2748933038
 20
9.9723876737
 11
9.2604044159
 21
9.9637332226
  0
LINE
  5
29F
100
AcDbEntity
  8
0
100
AcDbLine
 62
7
  6
CONTINUOUS
 10
9.0551452125
 20
6.7179681398
 11
9.0551452125
 21
10.5816716739
  0
LINE
  5
2A0
100
AcDbEntity
  8
0
100
AcDbLine
 62
7
  6
CONTINUOUS
 10
9.0551452125
 20
6.7179681398
 11
12.5566265403
 21
6.475139585
  0
LINE
  5
2A1
100
AcDbEntity
  8
0
100
AcDbLine
 62
7
  6
CONTINUOUS
 10
11.2739877806
 20
6.1296039888
 11
11.29320567
 21
6.1201107194
  0
LINE
  5
2A2
100
AcDbEntity
  8
0
100
AcDbLine
 62
4
  6
CONTINUOUS
 10
9.2821377478
 20
10.0588185948
 11
9.2821377478
 21
10.0491593385
  0
LINE
  5
2A3
100
AcDbEntity
  8
0
100
AcDbLine
 62
4
  6
CONTINUOUS
 10
9.2821377478
 20
7.8748601565
 11
9.2821377478
 21
7.7589490531
  0
LINE
  5
2A4
100
AcDbEntity
  8
0
100
AcDbLine
 62
4
  6
CONTINUOUS
 10
9.2893821917
 20
10.0003606426
 11
9.2893821917
 21
9.9907013829
  0
LINE
  5
2A5
100
AcDbEntity
  8
0
100
AcDbLine
 62
4
  6
CONTINUOUS
 10
10.2640704391
 20
9.1869329193
 11
10.2806291689
 21
9.2023432955
  0
LINE
  5
2A6
100
AcDbEntity
  8
0
100
AcDbLine
 62
4
  6
CONTINUOUS
 10
10.3054672627
 20
9.0847096644
 11
10.3220259908
 21
9.1001200425
  0
LINE
  5
2A7
100
AcDbEntity
  8
0
100
AcDbLine
 62
4
  6
CONTINUOUS
 10
10.3965402775
 20
9.0783937294
 11
10.4130989987
 21
9.093804108
  0
LINE
  5
2A8
100
AcDbEntity
  8
0
100
AcDbLine
 62
4
  6
CONTINUOUS
 10
10.2640704391
 20
9.1703741912
 11
10.2640704391
 21
9.1869329193
  0
LINE
  5
2A9
100
AcDbEntity
  8
0
100
AcDbLine
 62
4
  6
CONTINUOUS
 10
10.3220259908
 20
9.1001200425
 11
10.3220259908
 21
9.1166787723
  0
LINE
  5
2AA
100
AcDbEntity
  8
0
100
AcDbLine
 62
4
  6
CONTINUOUS
 10
10.3494858945
 20
8.1949371254
 11
10.3494858945
 21
8.1563000915
  0
LINE
  5
2AB
100
AcDbEntity
  8
0
100
AcDbLine
 62
4
  6
CONTINUOUS
 10
10.355143447
 20
9.1971757128
 11
10.355143447
 21
9.0978233392
  0
LINE
  5
2AC
100
AcDbEntity
  8
0
100
AcDbLine
 62
4
  6
CONTINUOUS
 10
10.3910207075
 20
8.4876298854
 11
10.3910207075
 21
8.6035409888
  0
LINE
  5
2AD
100
AcDbEntity
  8
0
100
AcDbLine
 62
4
  6
CONTINUOUS
 10
10.2770414548
 20
8.1999611644
 11
10.2842858988
 21
8.2284365363
  0
LINE
  5
2AE
100
AcDbEntity
  8
0
100
AcDbLine
 62
4
  6
CONTINUOUS
 10
10.7829106269
 20
9.1261131345
 11
10.7994693481
 21
9.1332441507
  0
LINE
  5
2AF
100
AcDbEntity
  8
0
100
AcDbLine
 62
4
  6
CONTINUOUS
 10
10.3132636746
 20
8.1394935932
 11
10.2987747867
 21
8.1501576599
  0
LINE
  5
2B0
100
AcDbEntity
  8
0
100
AcDbLine
 62
4
  6
CONTINUOUS
 10
10.2987747867
 20
8.1501576599
 11
10.2842858988
 21
8.1704809846
  0
LINE
  5
2B1
100
AcDbEntity
  8
0
100
AcDbLine
 62
4
  6
CONTINUOUS
 10
10.3422414505
 20
8.2437358247
 11
10.3494858945
 21
8.2335741576
  0
LINE
  5
2B2
100
AcDbEntity
  8
0
100
AcDbLine
 62
4
  6
CONTINUOUS
 10
10.2842858988
 20
8.1704809846
 11
10.2770414548
 21
8.1999611644
  0
LINE
  5
2B3
100
AcDbEntity
  8
0
100
AcDbLine
 62
4
  6
CONTINUOUS
 10
10.4130989987
 20
9.093804108
 11
10.4130989987
 21
9.1931564816
  0
LINE
  5
2B4
100
AcDbEntity
  8
0
100
AcDbLine
 62
4
  6
CONTINUOUS
 10
10.4462164548
 20
9.0749486748
 11
10.4462164548
 21
9.1908597782
  0
LINE
  5
2B5
100
AcDbEntity
  8
0
100
AcDbLine
 62
4
  6
CONTINUOUS
 10
10.4489762523
 20
8.5829630301
 11
10.4489762523
 21
8.5001693845
  0
LINE
  5
2B6
100
AcDbEntity
  8
0
100
AcDbLine
 62
4
  6
CONTINUOUS
 10
10.5041720066
 20
9.0709294436
 11
10.5041720066
 21
9.1868405471
  0
LINE
  5
2B7
100
AcDbEntity
  8
0
100
AcDbLine
 62
4
  6
CONTINUOUS
 10
10.4958926519
 20
8.4803569913
 11
10.5290101081
 21
8.5939713914
  0
LINE
  5
2B8
100
AcDbEntity
  8
0
100
AcDbLine
 62
4
  6
CONTINUOUS
 10
10.7277148528
 20
9.0278288128
 11
10.7608322952
 21
9.1359236395
  0
LINE
  5
2B9
100
AcDbEntity
  8
0
100
AcDbLine
 62
4
  6
CONTINUOUS
 10
10.2842858988
 20
8.2284365363
 11
10.2987747867
 21
8.2467502481
  0
LINE
  5
2BA
100
AcDbEntity
  8
0
100
AcDbLine
 62
4
  6
CONTINUOUS
 10
10.7359942194
 20
8.7932245984
 11
10.7194354913
 21
8.777814222
  0
LINE
  5
2BB
100
AcDbEntity
  8
0
100
AcDbLine
 62
4
  6
CONTINUOUS
 10
10.9402185609
 20
9.073806972
 11
10.956777282
 21
9.0809379848
  0
LINE
  5
2BC
100
AcDbEntity
  8
0
100
AcDbLine
 62
4
  6
CONTINUOUS
 10
10.3277525626
 20
8.1384887854
 11
10.3132636746
 21
8.1394935932
  0
LINE
  5
2BD
100
AcDbEntity
  8
0
100
AcDbLine
 62
4
  6
CONTINUOUS
 10
10.3277525626
 20
8.2543998888
 11
10.3422414505
 21
8.2437358247
  0
LINE
  5
2BE
100
AcDbEntity
  8
0
100
AcDbLine
 62
4
  6
CONTINUOUS
 10
9.23142664
 20
9.9754020971
 11
9.224182196
 21
9.9855637599
  0
LINE
  5
2BF
100
AcDbEntity
  8
0
100
AcDbLine
 62
4
  6
CONTINUOUS
 10
9.2748933038
 20
10.0206839665
 11
9.2893821917
 21
10.0003606426
  0
LINE
  5
2C0
100
AcDbEntity
  8
0
100
AcDbLine
 62
4
  6
CONTINUOUS
 10
9.2748933038
 20
10.0689802619
 11
9.2821377478
 21
10.0588185948
  0
LINE
  5
2C1
100
AcDbEntity
  8
0
100
AcDbLine
 62
4
  6
CONTINUOUS
 10
10.5290101081
 20
8.5939713914
 11
10.562127578
 21
8.4757635836
  0
LINE
  5
2C2
100
AcDbEntity
  8
0
100
AcDbLine
 62
4
  6
CONTINUOUS
 10
10.6283624903
 20
8.4711701768
 11
10.6283624903
 21
8.5870812803
  0
LINE
  5
2C3
100
AcDbEntity
  8
0
100
AcDbLine
 62
4
  6
CONTINUOUS
 10
10.6283624706
 20
9.0623168057
 11
10.6283624706
 21
9.1782279091
  0
LINE
  5
2C4
100
AcDbEntity
  8
0
100
AcDbLine
 62
4
  6
CONTINUOUS
 10
10.6780386617
 20
9.1333860299
 11
10.6780386617
 21
9.0588717502
  0
LINE
  5
2C5
100
AcDbEntity
  8
0
100
AcDbLine
 62
4
  6
CONTINUOUS
 10
10.6863180317
 20
8.7221553739
 11
10.6863180317
 21
8.8380664774
  0
LINE
  5
2C6
100
AcDbEntity
  8
0
100
AcDbLine
 62
4
  6
CONTINUOUS
 10
10.6945974026
 20
8.4665767701
 11
10.6945974026
 21
8.5824878735
  0
LINE
  5
2C7
100
AcDbEntity
  8
0
100
AcDbLine
 62
4
  6
CONTINUOUS
 10
10.7359942194
 20
8.818062694
 11
10.7359942194
 21
8.7932245984
  0
LINE
  5
2C8
100
AcDbEntity
  8
0
100
AcDbLine
 62
4
  6
CONTINUOUS
 10
10.7442735834
 20
8.7595329664
 11
10.7442735834
 21
8.7346948726
  0
LINE
  5
2C9
100
AcDbEntity
  8
0
100
AcDbLine
 62
4
  6
CONTINUOUS
 10
10.7829106269
 20
9.0598782196
 11
10.7829106269
 21
9.1261131345
  0
LINE
  5
2CA
100
AcDbEntity
  8
0
100
AcDbLine
 62
4
  6
CONTINUOUS
 10
10.8160280787
 20
8.7131599516
 11
10.8160280787
 21
8.7711155034
  0
LINE
  5
2CB
100
AcDbEntity
  8
0
100
AcDbLine
 62
4
  6
CONTINUOUS
 10
10.7773910396
 20
8.7406775332
 11
10.8022291352
 21
8.8300280151
  0
LINE
  5
2CC
100
AcDbEntity
  8
0
100
AcDbLine
 62
4
  6
CONTINUOUS
 10
10.3494858945
 20
8.1563000915
 11
10.3422414505
 21
8.1471432365
  0
LINE
  5
2CD
100
AcDbEntity
  8
0
100
AcDbLine
 62
7
  6
CONTINUOUS
 10
12.5566265403
 20
10.3388431191
 11
12.9448547875
 21
10.7138428318
  0
LINE
  5
2CE
100
AcDbEntity
  8
0
100
AcDbLine
 62
4
  6
CONTINUOUS
 10
10.4489762523
 20
8.5001693845
 11
10.4324175242
 21
8.4847590064
  0
LINE
  5
2CF
100
AcDbEntity
  8
0
100
AcDbLine
 62
4
  6
CONTINUOUS
 10
10.7442735834
 20
8.7346948726
 11
10.7277148554
 21
8.7192844945
  0
LINE
  5
2D0
100
AcDbEntity
  8
0
100
AcDbLine
 62
4
  6
CONTINUOUS
 10
11.2244767089
 20
9.0954904227
 11
11.2327560418
 21
9.1031956165
  0
LINE
  5
2D1
100
AcDbEntity
  8
0
100
AcDbLine
 62
4
  6
CONTINUOUS
 10
11.298991037
 20
9.0903228365
 11
11.30727037
 21
9.0980280303
  0
LINE
  5
2D2
100
AcDbEntity
  8
0
100
AcDbLine
 62
4
  6
CONTINUOUS
 10
10.909860878
 20
8.7066526249
 11
10.9264195992
 21
8.7220630035
  0
LINE
  5
2D3
100
AcDbEntity
  8
0
100
AcDbLine
 62
4
  6
CONTINUOUS
 10
10.3689423999
 20
8.5609155165
 11
10.3247857882
 21
8.5418994803
  0
LINE
  5
2D4
100
AcDbEntity
  8
0
100
AcDbLine
 62
4
  6
CONTINUOUS
 10
10.3205081186
 20
8.196946741
 11
10.3494858945
 21
8.1949371254
  0
LINE
  5
2D5
100
AcDbEntity
  8
0
100
AcDbLine
 62
4
  6
CONTINUOUS
 10
10.3132636746
 20
8.2554046966
 11
10.3277525626
 21
8.2543998888
  0
LINE
  5
2D6
100
AcDbEntity
  8
0
100
AcDbLine
 62
4
  6
CONTINUOUS
 10
10.3247857882
 20
8.5418994803
 11
10.3689423999
 21
8.5167589031
  0
LINE
  5
2D7
100
AcDbEntity
  8
0
100
AcDbLine
 62
4
  6
CONTINUOUS
 10
10.4324175242
 20
8.6006701098
 11
10.4489762523
 21
8.5829630301
  0
LINE
  5
2D8
100
AcDbEntity
  8
0
100
AcDbLine
 62
4
  6
CONTINUOUS
 10
10.4462164548
 20
9.1908597782
 11
10.5041720066
 21
9.0709294436
  0
LINE
  5
2D9
100
AcDbEntity
  8
0
100
AcDbLine
 62
4
  6
CONTINUOUS
 10
10.8325867904
 20
9.1640649045
 11
10.8325867904
 21
9.048153801
  0
LINE
  5
2DA
100
AcDbEntity
  8
0
100
AcDbLine
 62
4
  6
CONTINUOUS
 10
10.865704288
 20
9.0458570948
 11
10.865704288
 21
9.1286507421
  0
LINE
  5
2DB
100
AcDbEntity
  8
0
100
AcDbLine
 62
4
  6
CONTINUOUS
 10
10.8684640475
 20
8.8254346083
 11
10.8684640475
 21
8.7260822347
  0
LINE
  5
2DC
100
AcDbEntity
  8
0
100
AcDbLine
 62
4
  6
CONTINUOUS
 10
10.8684640854
 20
8.4710778045
 11
10.8684640854
 21
8.55387145
  0
LINE
  5
2DD
100
AcDbEntity
  8
0
100
AcDbLine
 62
4
  6
CONTINUOUS
 10
10.9043412856
 20
9.1176918897
 11
10.9043412856
 21
9.1011331616
  0
LINE
  5
2DE
100
AcDbEntity
  8
0
100
AcDbLine
 62
4
  6
CONTINUOUS
 10
10.9264195992
 20
8.7220630035
 11
10.9264195992
 21
8.8214153771
  0
LINE
  5
2DF
100
AcDbEntity
  8
0
100
AcDbLine
 62
4
  6
CONTINUOUS
 10
10.9402185609
 20
9.0489688773
 11
10.9402185609
 21
9.073806972
  0
LINE
  5
2E0
100
AcDbEntity
  8
0
100
AcDbLine
 62
4
  6
CONTINUOUS
 10
10.9650566348
 20
8.4643790884
 11
10.9650566348
 21
8.547172734
  0
LINE
  5
2E1
100
AcDbEntity
  8
0
100
AcDbLine
 62
4
  6
CONTINUOUS
 10
10.9898947244
 20
9.0372444588
 11
10.9898947244
 21
9.103479378
  0
LINE
  5
2E2
100
AcDbEntity
  8
0
100
AcDbLine
 62
4
  6
CONTINUOUS
 10
11.0230121667
 20
9.1177414036
 11
11.0230121667
 21
9.0432271212
  0
LINE
  5
2E3
100
AcDbEntity
  8
0
100
AcDbLine
 62
4
  6
CONTINUOUS
 10
11.0230121865
 20
8.5431535028
 11
11.0230121865
 21
8.4603598573
  0
LINE
  5
2E4
100
AcDbEntity
  8
0
100
AcDbLine
 62
4
  6
CONTINUOUS
 10
11.1830798783
 20
9.1397581263
 11
11.1803201007
 21
9.13167015
  0
LINE
  5
2E5
100
AcDbEntity
  8
0
100
AcDbLine
 62
4
  6
CONTINUOUS
 10
11.3403878123
 20
9.0129376805
 11
11.3486671453
 21
9.0206428718
  0
LINE
  5
2E6
100
AcDbEntity
  8
0
100
AcDbLine
 62
4
  6
CONTINUOUS
 10
10.8684640854
 20
8.55387145
 11
10.8850228066
 21
8.5692818269
  0
LINE
  5
2E7
100
AcDbEntity
  8
0
100
AcDbLine
 62
4
  6
CONTINUOUS
 10
10.9650566348
 20
8.547172734
 11
10.9816153559
 21
8.5625831108
  0
LINE
  5
2E8
100
AcDbEntity
  8
0
100
AcDbLine
 62
4
  6
CONTINUOUS
 10
10.2987747867
 20
8.2467502481
 11
10.3132636746
 21
8.2554046966
  0
LINE
  5
2E9
100
AcDbEntity
  8
0
100
AcDbLine
 62
4
  6
CONTINUOUS
 10
10.3422414505
 20
8.1471432365
 11
10.3277525626
 21
8.1384887854
  0
LINE
  5
2EA
100
AcDbEntity
  8
0
100
AcDbLine
 62
4
  6
CONTINUOUS
 10
11.0975264594
 20
8.4386335451
 11
11.0561296288
 21
8.441504425
  0
LINE
  5
2EB
100
AcDbEntity
  8
0
100
AcDbLine
 62
4
  6
CONTINUOUS
 10
11.0064534653
 20
8.4449494787
 11
10.9816153559
 21
8.4466720074
  0
LINE
  5
2EC
100
AcDbEntity
  8
0
100
AcDbLine
 62
4
  6
CONTINUOUS
 10
10.9181402489
 20
8.451074021
 11
10.8850228066
 21
8.4533707235
  0
LINE
  5
2ED
100
AcDbEntity
  8
0
100
AcDbLine
 62
4
  6
CONTINUOUS
 10
10.4324175242
 20
8.4847590064
 11
10.3910207075
 21
8.4876298854
  0
LINE
  5
2EE
100
AcDbEntity
  8
0
100
AcDbLine
 62
4
  6
CONTINUOUS
 10
10.6945974026
 20
8.4665767701
 11
10.7442735938
 21
8.4631317145
  0
LINE
  5
2EF
100
AcDbEntity
  8
0
100
AcDbLine
 62
4
  6
CONTINUOUS
 10
11.1610016217
 20
8.4342315276
 11
11.2106777852
 21
8.430786474
  0
LINE
  5
2F0
100
AcDbEntity
  8
0
100
AcDbLine
 62
4
  6
CONTINUOUS
 10
10.506931804
 20
8.5127088831
 11
10.5510884122
 21
8.509646612
  0
LINE
  5
2F1
100
AcDbEntity
  8
0
100
AcDbLine
 62
4
  6
CONTINUOUS
 10
11.194119064
 20
8.4981697444
 11
11.1610016217
 21
8.5004664468
  0
LINE
  5
2F2
100
AcDbEntity
  8
0
100
AcDbLine
 62
4
  6
CONTINUOUS
 10
10.7277148726
 20
8.5305149849
 11
10.6945974026
 21
8.5328116893
  0
LINE
  5
2F3
100
AcDbEntity
  8
0
100
AcDbLine
 62
4
  6
CONTINUOUS
 10
10.3220259908
 20
9.1166787723
 11
10.2640704391
 21
9.1703741912
  0
LINE
  5
2F4
100
AcDbEntity
  8
0
100
AcDbLine
 62
4
  6
CONTINUOUS
 10
10.2640704391
 20
9.0958599088
 11
10.272349804
 21
9.087006368
  0
LINE
  5
2F5
100
AcDbEntity
  8
0
100
AcDbLine
 62
4
  6
CONTINUOUS
 10
10.8850228066
 20
8.4533707235
 11
10.8684640854
 21
8.4710778045
  0
LINE
  5
2F6
100
AcDbEntity
  8
0
100
AcDbLine
 62
4
  6
CONTINUOUS
 10
10.355143447
 20
9.0978233392
 11
10.371702175
 21
9.0801162577
  0
LINE
  5
2F7
100
AcDbEntity
  8
0
100
AcDbLine
 62
4
  6
CONTINUOUS
 10
10.9816153559
 20
8.4466720074
 11
10.9650566348
 21
8.4643790884
  0
LINE
  5
2F8
100
AcDbEntity
  8
0
100
AcDbLine
 62
4
  6
CONTINUOUS
 10
10.3137466268
 20
9.200046592
 11
10.3220259908
 21
9.1911930487
  0
LINE
  5
2F9
100
AcDbEntity
  8
0
100
AcDbLine
 62
4
  6
CONTINUOUS
 10
10.7277148554
 20
8.7772400462
 11
10.7442735834
 21
8.7595329664
  0
LINE
  5
2FA
100
AcDbEntity
  8
0
100
AcDbLine
 62
4
  6
CONTINUOUS
 10
10.7111561317
 20
9.1393686931
 11
10.735994241
 21
9.0548525171
  0
LINE
  5
2FB
100
AcDbEntity
  8
0
100
AcDbLine
 62
4
  6
CONTINUOUS
 10
11.0561296288
 20
8.441504425
 11
11.0561296288
 21
8.5574155285
  0
LINE
  5
2FC
100
AcDbEntity
  8
0
100
AcDbLine
 62
4
  6
CONTINUOUS
 10
11.0726883855
 20
9.0315026989
 11
11.0726883855
 21
9.1142963461
  0
LINE
  5
2FD
100
AcDbEntity
  8
0
100
AcDbLine
 62
4
  6
CONTINUOUS
 10
11.1058058278
 20
9.0374853613
 11
11.1058058278
 21
9.1451170999
  0
LINE
  5
2FE
100
AcDbEntity
  8
0
100
AcDbLine
 62
4
  6
CONTINUOUS
 10
11.1140851805
 20
8.5368375692
 11
11.1140851805
 21
8.4540439237
  0
LINE
  5
2FF
100
AcDbEntity
  8
0
100
AcDbLine
 62
4
  6
CONTINUOUS
 10
11.1610016217
 20
8.4342315276
 11
11.1610016217
 21
8.5501426311
  0
LINE
  5
300
100
AcDbEntity
  8
0
100
AcDbLine
 62
7
  6
CONTINUOUS
 10
11.1657875035
 20
6.5715945998
 11
11.1657875035
 21
6.2662836504
  0
LINE
  5
301
100
AcDbEntity
  8
0
100
AcDbLine
 62
4
  6
CONTINUOUS
 10
11.1803201007
 20
9.0240384141
 11
11.1803201007
 21
9.1068320613
  0
LINE
  5
302
100
AcDbEntity
  8
0
100
AcDbLine
 62
4
  6
CONTINUOUS
 10
11.1803201007
 20
9.13167015
 11
11.1803201007
 21
9.1399495175
  0
LINE
  5
303
100
AcDbEntity
  8
0
100
AcDbLine
 62
4
  6
CONTINUOUS
 10
11.2244767089
 20
9.0292555078
 11
11.2244767089
 21
9.0954904227
  0
LINE
  5
304
100
AcDbEntity
  8
0
100
AcDbLine
 62
4
  6
CONTINUOUS
 10
11.0230121865
 20
8.4603598573
 11
11.0064534653
 21
8.4449494787
  0
LINE
  5
305
100
AcDbEntity
  8
0
100
AcDbLine
 62
4
  6
CONTINUOUS
 10
11.1140851805
 20
8.4540439237
 11
11.0975264594
 21
8.4386335451
  0
LINE
  5
306
100
AcDbEntity
  8
0
100
AcDbLine
 62
4
  6
CONTINUOUS
 10
11.2879518357
 20
8.4751036881
 11
11.2437952275
 21
8.4560876534
  0
LINE
  5
307
100
AcDbEntity
  8
0
100
AcDbLine
 62
4
  6
CONTINUOUS
 10
10.3910207075
 20
8.6035409888
 11
10.4324175242
 21
8.6006701098
  0
LINE
  5
308
100
AcDbEntity
  8
0
100
AcDbLine
 62
4
  6
CONTINUOUS
 10
10.5952450204
 20
8.5893779846
 11
10.6614799327
 21
8.5847845778
  0
LINE
  5
309
100
AcDbEntity
  8
0
100
AcDbLine
 62
4
  6
CONTINUOUS
 10
10.6945974026
 20
8.5824878735
 11
10.7442735938
 21
8.5790428179
  0
LINE
  5
30A
100
AcDbEntity
  8
0
100
AcDbLine
 62
4
  6
CONTINUOUS
 10
10.8850228066
 20
8.5692818269
 11
10.9181402489
 21
8.5669851245
  0
LINE
  5
30B
100
AcDbEntity
  8
0
100
AcDbLine
 62
4
  6
CONTINUOUS
 10
10.9816153559
 20
8.5625831108
 11
11.0064534653
 21
8.5608605821
  0
LINE
  5
30C
100
AcDbEntity
  8
0
100
AcDbLine
 62
4
  6
CONTINUOUS
 10
11.0561296288
 20
8.5574155285
 11
11.0975264594
 21
8.5545446485
  0
LINE
  5
30D
100
AcDbEntity
  8
0
100
AcDbLine
 62
4
  6
CONTINUOUS
 10
11.1610016217
 20
8.5501426311
 11
11.2106777852
 21
8.5466975774
  0
LINE
  5
30E
100
AcDbEntity
  8
0
100
AcDbLine
 62
4
  6
CONTINUOUS
 10
10.7277148554
 20
8.7192844945
 11
10.6863180317
 21
8.7221553739
  0
LINE
  5
30F
100
AcDbEntity
  8
0
100
AcDbLine
 62
4
  6
CONTINUOUS
 10
10.8850227824
 20
8.7083751527
 11
10.909860878
 21
8.7066526249
  0
LINE
  5
310
100
AcDbEntity
  8
0
100
AcDbLine
 62
4
  6
CONTINUOUS
 10
10.8353465913
 20
8.7366583021
 11
10.7773910396
 21
8.7406775332
  0
LINE
  5
311
100
AcDbEntity
  8
0
100
AcDbLine
 62
4
  6
CONTINUOUS
 10
10.7111561256
 20
8.8363439497
 11
10.7194354913
 21
8.8330099823
  0
LINE
  5
312
100
AcDbEntity
  8
0
100
AcDbLine
 62
4
  6
CONTINUOUS
 10
11.2437952275
 20
8.5002442668
 11
11.2879518357
 21
8.4751036881
  0
LINE
  5
313
100
AcDbEntity
  8
0
100
AcDbLine
 62
4
  6
CONTINUOUS
 10
9.2459155279
 20
9.9647380304
 11
9.23142664
 21
9.9754020971
  0
LINE
  5
314
100
AcDbEntity
  8
0
100
AcDbLine
 62
4
  6
CONTINUOUS
 10
9.2604044159
 20
10.0313480306
 11
9.2748933038
 21
10.0206839665
  0
LINE
  5
315
100
AcDbEntity
  8
0
100
AcDbLine
 62
4
  6
CONTINUOUS
 10
10.7194354913
 20
8.8330099823
 11
10.7359942194
 21
8.818062694
  0
LINE
  5
316
100
AcDbEntity
  8
0
100
AcDbLine
 62
4
  6
CONTINUOUS
 10
11.0064534653
 20
8.5608605821
 11
11.0230121865
 21
8.5431535028
  0
LINE
  5
317
100
AcDbEntity
  8
0
100
AcDbLine
 62
4
  6
CONTINUOUS
 10
10.8684640475
 20
8.7260822347
 11
10.8850227824
 21
8.7083751527
  0
LINE
  5
318
100
AcDbEntity
  8
0
100
AcDbLine
 62
4
  6
CONTINUOUS
 10
11.0975264594
 20
8.5545446485
 11
11.1140851805
 21
8.5368375692
  0
LINE
  5
319
100
AcDbEntity
  8
0
100
AcDbLine
 62
4
  6
CONTINUOUS
 10
10.6697593011
 20
9.142239573
 11
10.6780386617
 21
9.1333860299
  0
LINE
  5
31A
100
AcDbEntity
  8
0
100
AcDbLine
 62
4
  6
CONTINUOUS
 10
11.298991037
 20
9.0654847443
 11
11.298991037
 21
9.0903228365
  0
LINE
  5
31B
100
AcDbEntity
  8
0
100
AcDbLine
 62
7
  6
CONTINUOUS
 10
11.317207443
 20
6.5044269117
 11
11.317207443
 21
6.1200234704
  0
LINE
  5
31C
100
AcDbEntity
  8
0
100
AcDbLine
 62
4
  6
CONTINUOUS
 10
11.3486671453
 20
9.0206428718
 11
11.3486671453
 21
9.0454809665
  0
LINE
  5
31D
100
AcDbEntity
  8
0
100
AcDbLine
 62
7
  6
CONTINUOUS
 10
11.3566802209
 20
6.4942106179
 11
11.3566802209
 21
6.1098071766
  0
LINE
  5
31E
100
AcDbEntity
  8
0
100
AcDbLine
 62
4
  6
CONTINUOUS
 10
12.341708027
 20
8.9512233506
 11
12.3561969149
 21
8.9598777991
  0
LINE
  5
31F
100
AcDbEntity
  8
0
100
AcDbLine
 62
4
  6
CONTINUOUS
 10
12.3851746908
 20
8.9095718882
 11
12.3561969149
 21
8.8922629877
  0
LINE
  5
320
100
AcDbEntity
  8
0
100
AcDbLine
 62
4
  6
CONTINUOUS
 10
10.6863180317
 20
8.7801109257
 11
10.7277148554
 21
8.7772400462
  0
LINE
  5
321
100
AcDbEntity
  8
0
100
AcDbLine
 62
4
  6
CONTINUOUS
 10
10.6863180317
 20
8.8380664774
 11
10.7111561256
 21
8.8363439497
  0
LINE
  5
322
100
AcDbEntity
  8
0
100
AcDbLine
 62
4
  6
CONTINUOUS
 10
12.334463583
 20
8.8454739074
 11
12.3924191347
 21
8.8414546762
  0
LINE
  5
323
100
AcDbEntity
  8
0
100
AcDbLine
 62
4
  6
CONTINUOUS
 10
10.7994693481
 20
9.0504505035
 11
10.7829106269
 21
9.0598782196
  0
LINE
  5
324
100
AcDbEntity
  8
0
100
AcDbLine
 62
4
  6
CONTINUOUS
 10
9.2604044159
 20
10.079644326
 11
9.2748933038
 21
10.0689802619
  0
LINE
  5
325
100
AcDbEntity
  8
0
100
AcDbLine
 62
4
  6
CONTINUOUS
 10
11.0230121667
 20
9.0432271212
 11
11.0312915549
 21
9.0343735788
  0
LINE
  5
326
100
AcDbEntity
  8
0
100
AcDbLine
 62
4
  6
CONTINUOUS
 10
11.114085216
 20
9.0286318189
 11
11.1058058278
 21
9.0374853613
  0
LINE
  5
327
100
AcDbEntity
  8
0
100
AcDbLine
 62
4
  6
CONTINUOUS
 10
10.8988217303
 20
9.1263540396
 11
10.9043412856
 21
9.1176918897
  0
LINE
  5
328
100
AcDbEntity
  8
0
100
AcDbLine
 62
4
  6
CONTINUOUS
 10
10.9898947244
 20
9.103479378
 11
10.9816153914
 21
9.1206122797
  0
LINE
  5
329
100
AcDbEntity
  8
0
100
AcDbLine
 62
7
  6
CONTINUOUS
 10
12.7206503549
 20
9.3440722998
 11
12.7198310349
 21
9.3432954714
  0
LINE
  5
32A
100
AcDbEntity
  8
0
100
AcDbLine
 62
4
  6
CONTINUOUS
 10
10.7111561317
 20
9.028977164
 11
10.7277148528
 21
9.0278288128
  0
LINE
  5
32B
100
AcDbEntity
  8
0
100
AcDbLine
 62
4
  6
CONTINUOUS
 10
11.2658735947
 20
9.0181052591
 11
11.2327560418
 21
9.0204019692
  0
LINE
  5
32C
100
AcDbEntity
  8
0
100
AcDbLine
 62
4
  6
CONTINUOUS
 10
11.1306439372
 20
9.0274834677
 11
11.114085216
 21
9.0286318189
  0
LINE
  5
32D
100
AcDbEntity
  8
0
100
AcDbLine
 62
4
  6
CONTINUOUS
 10
10.9898947244
 20
9.0372444588
 11
10.956777282
 21
9.0395411612
  0
LINE
  5
32E
100
AcDbEntity
  8
0
100
AcDbLine
 62
4
  6
CONTINUOUS
 10
10.8325867904
 20
9.048153801
 11
10.7994693481
 21
9.0504505035
  0
LINE
  5
32F
100
AcDbEntity
  8
0
100
AcDbLine
 62
4
  6
CONTINUOUS
 10
10.272349804
 20
9.087006368
 11
10.3054672627
 21
9.0847096644
  0
LINE
  5
330
100
AcDbEntity
  8
0
100
AcDbLine
 62
4
  6
CONTINUOUS
 10
10.371702175
 20
9.0801162577
 11
10.3965402775
 21
9.0783937294
  0
LINE
  5
331
100
AcDbEntity
  8
0
100
AcDbLine
 62
4
  6
CONTINUOUS
 10
11.0312915549
 20
9.0343735788
 11
11.0726883855
 21
9.0315026989
  0
LINE
  5
332
100
AcDbEntity
  8
0
100
AcDbLine
 62
4
  6
CONTINUOUS
 10
11.30727037
 20
9.015234383
 11
11.3403878123
 21
9.0129376805
  0
LINE
  5
333
100
AcDbEntity
  8
0
100
AcDbLine
 62
4
  6
CONTINUOUS
 10
12.3561969149
 20
8.9598777991
 11
12.3706858028
 21
8.9588729914
  0
LINE
  5
334
100
AcDbEntity
  8
0
100
AcDbLine
 62
4
  6
CONTINUOUS
 10
10.956777282
 20
9.0809379848
 11
10.9898947244
 21
9.0786412824
  0
LINE
  5
335
100
AcDbEntity
  8
0
100
AcDbLine
 62
4
  6
CONTINUOUS
 10
10.9816153914
 20
9.1206122797
 11
10.9402185609
 21
9.1234831597
  0
LINE
  5
336
100
AcDbEntity
  8
0
100
AcDbLine
 62
4
  6
CONTINUOUS
 10
10.6283624706
 20
9.145110453
 11
10.6697593011
 21
9.142239573
  0
LINE
  5
337
100
AcDbEntity
  8
0
100
AcDbLine
 62
4
  6
CONTINUOUS
 10
10.7994693481
 20
9.1332441507
 11
10.8325867904
 21
9.1309474483
  0
LINE
  5
338
100
AcDbEntity
  8
0
100
AcDbLine
 62
4
  6
CONTINUOUS
 10
10.865704288
 20
9.1286507421
 11
10.8988217303
 21
9.1263540396
  0
LINE
  5
339
100
AcDbEntity
  8
0
100
AcDbLine
 62
4
  6
CONTINUOUS
 10
11.2327560418
 20
9.1031956165
 11
11.2658735947
 21
9.1008989064
  0
LINE
  5
33A
100
AcDbEntity
  8
0
100
AcDbLine
 62
4
  6
CONTINUOUS
 10
11.30727037
 20
9.0980280303
 11
11.3403878123
 21
9.0957313278
  0
LINE
  5
33B
100
AcDbEntity
  8
0
100
AcDbLine
 62
4
  6
CONTINUOUS
 10
10.2806291689
 20
9.2023432955
 11
10.3137466268
 21
9.200046592
  0
LINE
  5
33C
100
AcDbEntity
  8
0
100
AcDbLine
 62
4
  6
CONTINUOUS
 10
11.1803201007
 20
9.1399495175
 11
11.1830798783
 21
9.1397581263
  0
LINE
  5
33D
100
AcDbEntity
  8
0
100
AcDbLine
 62
4
  6
CONTINUOUS
 10
11.3403878123
 20
9.0515747162
 11
11.30727037
 21
9.0593909946
  0
LINE
  5
33E
100
AcDbEntity
  8
0
100
AcDbLine
 62
4
  6
CONTINUOUS
 10
10.956777282
 20
9.0395411612
 11
10.9402185609
 21
9.0489688773
  0
LINE
  5
33F
100
AcDbEntity
  8
0
100
AcDbLine
 62
4
  6
CONTINUOUS
 10
11.30727037
 20
9.0593909946
 11
11.298991037
 21
9.0654847443
  0
LINE
  5
340
100
AcDbEntity
  8
0
100
AcDbLine
 62
4
  6
CONTINUOUS
 10
11.3486671453
 20
9.0454809665
 11
11.3403878123
 21
9.0515747162
  0
LINE
  5
341
100
AcDbEntity
  8
0
100
AcDbLine
 62
4
  6
CONTINUOUS
 10
11.2327560418
 20
9.0204019692
 11
11.2244767089
 21
9.0292555078
  0
LINE
  5
342
100
AcDbEntity
  8
0
100
AcDbLine
 62
4
  6
CONTINUOUS
 10
11.298991037
 20
9.0240879216
 11
11.30727037
 21
9.015234383
  0
LINE
  5
343
100
AcDbEntity
  8
0
100
AcDbLine
 62
4
  6
CONTINUOUS
 10
12.334463583
 20
8.9420664913
 11
12.341708027
 21
8.9512233506
  0
LINE
  5
344
100
AcDbEntity
  8
0
100
AcDbLine
 62
4
  6
CONTINUOUS
 10
12.3561969149
 20
8.8922629877
 11
12.341708027
 21
8.8739492794
  0
LINE
  5
345
100
AcDbEntity
  8
0
100
AcDbLine
 62
4
  6
CONTINUOUS
 10
12.3924191347
 20
8.9187287475
 11
12.3851746908
 21
8.9095718882
  0
LINE
  5
346
100
AcDbEntity
  8
0
100
AcDbLine
 62
4
  6
CONTINUOUS
 10
11.3403878123
 20
9.0957313278
 11
11.3486671453
 21
9.0868777867
  0
LINE
  5
347
100
AcDbEntity
  8
0
100
AcDbLine
 62
7
  6
CONTINUOUS
 10
11.9217866955
 20
6.4550203508
 11
11.9217866955
 21
6.0706169095
  0
LINE
  5
348
100
AcDbEntity
  8
0
100
AcDbLine
 62
7
  6
CONTINUOUS
 10
11.9757074978
 20
6.4587597778
 11
11.9757074978
 21
6.0743563364
  0
LINE
  5
349
100
AcDbEntity
  8
0
100
AcDbLine
 62
4
  6
CONTINUOUS
 10
12.341708027
 20
8.8739492794
 11
12.334463583
 21
8.8454739074
  0
LINE
  5
34A
100
AcDbEntity
  8
0
100
AcDbLine
 62
4
  6
CONTINUOUS
 10
12.3706858028
 20
8.9588729914
 11
12.3851746908
 21
8.9482089272
  0
LINE
  5
34B
100
AcDbEntity
  8
0
100
AcDbLine
 62
7
  6
CONTINUOUS
 10
12.3893940328
 20
6.4867371987
 11
12.3893940328
 21
6.1814262494
  0
LINE
  5
34C
100
AcDbEntity
  8
0
100
AcDbLine
 62
4
  6
CONTINUOUS
 10
12.3924191347
 20
8.9380472601
 11
12.3924191347
 21
8.9187287475
  0
LINE
  5
34D
100
AcDbEntity
  8
0
100
AcDbLine
 62
7
  6
CONTINUOUS
 10
12.4038420572
 20
6.4857352249
 11
12.4038420572
 21
6.1953819701
  0
LINE
  5
34E
100
AcDbEntity
  8
0
100
AcDbLine
 62
4
  6
CONTINUOUS
 10
9.2604044159
 20
9.9637332226
 11
9.2459155279
 21
9.9647380304
  0
LINE
  5
34F
100
AcDbEntity
  8
0
100
AcDbLine
 62
4
  6
CONTINUOUS
 10
9.2459155279
 20
10.0323528384
 11
9.2604044159
 21
10.0313480306
  0
LINE
  5
350
100
AcDbEntity
  8
0
100
AcDbLine
 62
4
  6
CONTINUOUS
 10
9.2459155279
 20
10.0806491338
 11
9.2604044159
 21
10.079644326
  0
LINE
  5
351
100
AcDbEntity
  8
0
100
AcDbLine
 62
4
  6
CONTINUOUS
 10
12.3851746908
 20
8.9482089272
 11
12.3924191347
 21
8.9380472601
  0
LINE
  5
352
100
AcDbEntity
  8
0
100
AcDbLine
 62
7
  6
CONTINUOUS
 10
12.5566265403
 20
6.475139585
 11
12.5566265403
 21
10.3388431191
  0
LINE
  5
353
100
AcDbEntity
  8
0
100
AcDbLine
 62
7
  6
CONTINUOUS
 10
12.9448547875
 20
6.8501392977
 11
12.9448547875
 21
10.7138428318
  0
LINE
  5
354
100
AcDbEntity
  8
0
100
AcDbLine
 62
7
  6
CONTINUOUS
 10
9.0551452125
 20
10.5816716739
 11
12.5566265403
 21
10.3388431191
  0
LINE
  5
355
100
AcDbEntity
  8
0
100
AcDbLine
 62
7
  6
CONTINUOUS
 10
12.9448547875
 20
10.7138428318
 11
9.4433734597
 21
10.9566713866
  0
LINE
  5
356
100
AcDbEntity
  8
0
100
AcDbLine
 62
7
  6
CONTINUOUS
 10
12.5566265403
 20
6.475139585
 11
12.9448547875
 21
6.8501392977
  0
LINE
  5
357
100
AcDbEntity
  8
0
100
AcDbLine
 62
7
  6
CONTINUOUS
 10
12.3070979012
 20
6.1352630932
 11
12.2764238907
 21
6.1201107194
  0
ARC
  5
358
100
AcDbEntity
  8
0
100
AcDbCircle
 62
7
  6
CONTINUOUS
 10
11.7958543029
 20
8.2771297941
 40
2.210103635
100
AcDbArc
 50
273.2665005552
 51
274.6677615151
  0
ARC
  5
359
100
AcDbEntity
  8
0
100
AcDbCircle
 62
7
  6
CONTINUOUS
 10
11.7958543029
 20
8.6615332355
 40
2.210103635
100
AcDbArc
 50
273.2665005552
 51
274.6677615151
  0
ARC
  5
35A
100
AcDbEntity
  8
0
100
AcDbCircle
 62
7
  6
CONTINUOUS
 10
10.7522001944
 20
8.935239457
 40
1.3721031834
100
AcDbArc
 50
264.6139348263
 51
267.4479030194
  0
ARC
  5
35B
100
AcDbEntity
  8
0
100
AcDbCircle
 62
7
  6
CONTINUOUS
 10
10.6886831612
 20
6.7040248465
 40
1.1559000352
100
AcDbArc
 50
93.5951198822
 51
96.0586773765
  0
ARC
  5
35C
100
AcDbEntity
  8
0
100
AcDbCircle
 62
7
  6
CONTINUOUS
 10
11.5758797294
 20
7.4224973516
 40
0.9538158545
100
AcDbArc
 50
254.2644742826
 51
256.7139235525
  0
ARC
  5
35D
100
AcDbEntity
  8
0
100
AcDbCircle
 62
7
  6
CONTINUOUS
 10
11.5758797294
 20
7.0380939102
 40
0.9538158545
100
AcDbArc
 50
254.2644742826
 51
256.7139235525
  0
ARC
  5
35E
100
AcDbEntity
  8
0
100
AcDbCircle
 62
7
  6
CONTINUOUS
 10
11.9682168996
 20
6.8201582944
 40
0.7641475746
100
AcDbArc
 50
293.7608747297
 51
296.3085175792
  0
ARC
  5
35F
100
AcDbEntity
  8
0
100
AcDbCircle
 62
7
  6
CONTINUOUS
 10
10.5518371818
 20
7.6103877461
 40
0.3831161474
100
AcDbArc
 50
312.2851290132
 51
313.3961311964
  0
ARC
  5
360
100
AcDbEntity
  8
0
100
AcDbCircle
 62
7
  6
CONTINUOUS
 10
10.4727518789
 20
7.6922619068
 40
0.3830512509
100
AcDbArc
 50
134.93354529
 51
135.7283146029
  0
ARC
  5
361
100
AcDbEntity
  8
0
100
AcDbCircle
 62
7
  6
CONTINUOUS
 10
10.5899893032
 20
7.8024860305
 40
0.1820832529
100
AcDbArc
 50
158.309571746
 51
160.6794355749
  0
ARC
  5
362
100
AcDbEntity
  8
0
100
AcDbCircle
 62
7
  6
CONTINUOUS
 10
12.7054736503
 20
9.3023475483
 40
0.0190332747
100
AcDbArc
 50
86.0678824027
 51
96.9904811724
  0
ARC
  5
363
100
AcDbEntity
  8
0
100
AcDbCircle
 62
7
  6
CONTINUOUS
 10
12.6665946711
 20
8.7417436883
 40
0.0190163084
100
AcDbArc
 50
255.4735357941
 51
266.0007523238
  0
SPLINE
  5
364
100
AcDbEntity
  8
0
100
AcDbSpline
 62
7
  6
CONTINUOUS
 70
0
 71
3
 72
9
 73
5
 74
0
 42
0.0000001
 43
0.0000001
 44
0.0000000001
 40
0.0
 40
0.0
 40
0.0
 40
0.0
 40
0.2426770998
 40
1.0
 40
1.0
 40
1.0
 40
1.0
 10
12.3972117905
 20
6.1883629334
 30
0.0
 10
12.3966036
 20
6.1877754665
 30
0.0
 10
12.3940705486
 20
6.1853825853
 30
0.0
 10
12.3914348349
 20
6.1830991158
 30
0.0
 10
12.3893940328
 20
6.1814262494
 30
0.0
  0
SPLINE
  5
365
100
AcDbEntity
  8
0
100
AcDbSpline
 62
7
  6
CONTINUOUS
 70
0
 71
3
 72
9
 73
5
 74
0
 42
0.0000001
 43
0.0000001
 44
0.0000000001
 40
0.0
 40
0.0
 40
0.0
 40
0.0
 40
0.2426666479
 40
1.0
 40
1.0
 40
1.0
 40
1.0
 10
12.4038420572
 20
6.1953819701
 30
0.0
 10
12.4033344294
 20
6.1947881972
 30
0.0
 10
12.4012107336
 20
6.1923686127
 30
0.0
 10
12.3989653251
 20
6.1900567179
 30
0.0
 10
12.3972117905
 20
6.1883629334
 30
0.0
  0
SPLINE
  5
366
100
AcDbEntity
  8
0
100
AcDbSpline
 62
7
  6
CONTINUOUS
 70
0
 71
3
 72
9
 73
5
 74
0
 42
0.0000001
 43
0.0000001
 44
0.0000000001
 40
0.0
 40
0.0
 40
0.0
 40
0.0
 40
0.504378312
 40
1.0
 40
1.0
 40
1.0
 40
1.0
 10
12.3893940328
 20
6.1814262494
 30
0.0
 10
12.3758902826
 20
6.1730173957
 30
0.0
 10
12.3487774452
 20
6.1568827397
 30
0.0
 10
12.3209046487
 20
6.1420855449
 30
0.0
 10
12.3068905107
 20
6.1351607025
 30
0.0
  0
SPLINE
  5
367
100
AcDbEntity
  8
0
100
AcDbSpline
 62
7
  6
CONTINUOUS
 70
0
 71
3
 72
23
 73
19
 74
0
 42
0.0000001
 43
0.0000001
 44
0.0000000001
 40
0.0
 40
0.0
 40
0.0
 40
0.0
 40
0.0436203086
 40
0.0892268542
 40
0.137068591
 40
0.187353676
 40
0.2402538462
 40
0.2958872461
 40
0.3543311569
 40
0.4156094827
 40
0.4797102731
 40
0.5465788188
 40
0.6161346312
 40
0.6882694307
 40
0.7628606873
 40
0.8397744221
 40
0.9188692703
 40
1.0
 40
1.0
 40
1.0
 40
1.0
 10
11.2741960138
 20
6.1295011619
 30
0.0
 10
11.2718860781
 20
6.1306417304
 30
0.0
 10
11.2672489544
 20
6.1331568269
 30
0.0
 10
11.260421665
 20
6.1375178789
 30
0.0
 10
11.2535852761
 20
6.1425601655
 30
0.0
 10
11.2467437264
 20
6.1482910978
 30
0.0
 10
11.2399026282
 20
6.1547147486
 30
0.0
 10
11.2330650877
 20
6.161826321
 30
0.0
 10
11.2262368285
 20
6.169617133
 30
0.0
 10
11.2194205844
 20
6.1780705355
 30
0.0
 10
11.2126214159
 20
6.1871664414
 30
0.0
 10
11.2058415657
 20
6.1968788233
 30
0.0
 10
11.1990848988
 20
6.2071793714
 30
0.0
 10
11.1923530118
 20
6.2180363255
 30
0.0
 10
11.1856482948
 20
6.229417179
 30
0.0
 10
11.1789716456
 20
6.2412882614
 30
0.0
 10
11.1723241531
 20
6.2536161005
 30
0.0
 10
11.1679650351
 20
6.2620155176
 30
0.0
 10
11.1657875035
 20
6.2662836504
 30
0.0
  0
SPLINE
  5
368
100
AcDbEntity
  8
0
100
AcDbSpline
 62
7
  6
CONTINUOUS
 70
0
 71
3
 72
47
 73
43
 74
0
 42
0.0000001
 43
0.0000001
 44
0.0000000001
 40
0.0
 40
0.0
 40
0.0
 40
0.0
 40
0.0099874638
 40
0.0204476834
 40
0.0313771515
 40
0.0427708334
 40
0.0546218702
 40
0.0669225517
 40
0.0796641282
 40
0.0928362942
 40
0.1204271347
 40
0.1495984091
 40
0.1802407165
 40
0.2122338314
 40
0.2454489836
 40
0.2797497839
 40
0.3149929168
 40
0.3510298084
 40
0.3877071885
 40
0.4248680172
 40
0.4623527228
 40
0.4999997959
 40
0.5376468789
 40
0.575131606
 40
0.6122924455
 40
0.6489698269
 40
0.6850067267
 40
0.7202498875
 40
0.7545507276
 40
0.7877659112
 40
0.8197590481
 40
0.8504013805
 40
0.8795726993
 40
0.9071635849
 40
0.9203357726
 40
0.933077377
 40
0.9453780958
 40
0.9572291635
 40
0.968622847
 40
0.9795522717
 40
0.9900124597
 40
1.0
 40
1.0
 40
1.0
 40
1.0
 10
12.2764277761
 20
6.120112674
 30
0.0
 10
12.2734372418
 20
6.1186353963
 30
0.0
 10
12.2672635354
 20
6.1157134805
 30
0.0
 10
12.257661337
 20
6.1115140368
 30
0.0
 10
12.2475131589
 20
6.107401202
 30
0.0
 10
12.2368307109
 20
6.1033799922
 30
0.0
 10
12.2256263352
 20
6.099454687
 30
0.0
 10
12.2139128346
 20
6.0956299679
 30
0.0
 10
12.2017035786
 20
6.0919103971
 30
0.0
 10
12.1845157498
 20
6.0870208653
 30
0.0
 10
12.1618854375
 20
6.0812253838
 30
0.0
 10
12.1333941592
 20
6.0748567116
 30
0.0
 10
12.1032941102
 20
6.0690011877
 30
0.0
 10
12.071724104
 20
6.063685846
 30
0.0
 10
12.038829446
 20
6.0589356896
 30
0.0
 10
12.0047617949
 20
6.0547731575
 30
0.0
 10
11.9696783364
 20
6.0512174295
 30
0.0
 10
11.9337410155
 20
6.0482852591
 30
0.0
 10
11.8971157546
 20
6.0459904745
 30
0.0
 10
11.8599717221
 20
6.044343527
 30
0.0
 10
11.8224804982
 20
6.043352291
 30
0.0
 10
11.7848152579
 20
6.0430214344
 30
0.0
 10
11.7471500103
 20
6.0433522743
 30
0.0
 10
11.7096587719
 20
6.0443434943
 30
0.0
 10
11.6725147274
 20
6.045990425
 30
0.0
 10
11.6358894587
 20
6.0482851935
 30
0.0
 10
11.599952124
 20
6.051217347
 30
0.0
 10
11.5648686384
 20
6.0547730604
 30
0.0
 10
11.5308009522
 20
6.0589355779
 30
0.0
 10
11.4979062609
 20
6.0636857209
 30
0.0
 10
11.4663362255
 20
6.0690010468
 30
0.0
 10
11.4362361426
 20
6.0748565564
 30
0.0
 10
11.407744823
 20
6.081225219
 30
0.0
 10
11.385114469
 20
6.0870206871
 30
0.0
 10
11.3679266045
 20
6.0919102094
 30
0.0
 10
11.3557173178
 20
6.0956297787
 30
0.0
 10
11.3440037857
 20
6.099454505
 30
0.0
 10
11.3327993863
 20
6.1033798128
 30
0.0
 10
11.3221169355
 20
6.1074010043
 30
0.0
 10
11.3119687634
 20
6.1115137881
 30
0.0
 10
11.3023665475
 20
6.1157131934
 30
0.0
 10
11.2961928263
 20
6.1186351141
 30
0.0
 10
11.2932022733
 20
6.1201124117
 30
0.0
  0
SPLINE
  5
369
100
AcDbEntity
  8
0
100
AcDbSpline
 62
7
  6
CONTINUOUS
 70
0
 71
3
 72
15
 73
11
 74
0
 42
0.0000001
 43
0.0000001
 44
0.0000000001
 40
0.0
 40
0.0
 40
0.0
 40
0.0
 40
0.1299708166
 40
0.2593283487
 40
0.3876617857
 40
0.5145654289
 40
0.6396384778
 40
0.7624890516
 40
0.8827334041
 40
1.0
 40
1.0
 40
1.0
 40
1.0
 10
11.7695936258
 20
6.5295845285
 30
0.0
 10
11.7591427977
 20
6.5296610609
 30
0.0
 10
11.7382912601
 20
6.5299712049
 30
0.0
 10
11.7071318432
 20
6.5309081742
 30
0.0
 10
11.6762368199
 20
6.5323134805
 30
0.0
 10
11.6457114732
 20
6.5341818654
 30
0.0
 10
11.6156596761
 20
6.5365073986
 30
0.0
 10
11.5861836752
 20
6.5392816127
 30
0.0
 10
11.5573839181
 20
6.5424954177
 30
0.0
 10
11.5384433216
 20
6.5449567437
 30
0.0
 10
11.5291046195
 20
6.5462624977
 30
0.0
  0
SPLINE
  5
36A
100
AcDbEntity
  8
0
100
AcDbSpline
 62
7
  6
CONTINUOUS
 70
0
 71
3
 72
10
 73
6
 74
0
 42
0.0000001
 43
0.0000001
 44
0.0000000001
 40
0.0
 40
0.0
 40
0.0
 40
0.0
 40
0.4950633206
 40
0.7463873743
 40
1.0
 40
1.0
 40
1.0
 40
1.0
 10
12.0671270389
 20
6.50936208
 30
0.0
 10
12.051567169
 20
6.5019147807
 30
0.0
 10
12.0284765004
 20
6.4899021548
 30
0.0
 10
11.9982496342
 20
6.4725644433
 30
0.0
 10
11.9832090059
 20
6.4634310049
 30
0.0
 10
11.9757074978
 20
6.4587597778
 30
0.0
  0
SPLINE
  5
36B
100
AcDbEntity
  8
0
100
AcDbSpline
 62
7
  6
CONTINUOUS
 70
0
 71
3
 72
21
 73
17
 74
0
 42
0.0000001
 43
0.0000001
 44
0.0000000001
 40
0.0
 40
0.0
 40
0.0
 40
0.0
 40
0.1230212981
 40
0.1847065752
 40
0.2465215318
 40
0.3084771567
 40
0.3705832678
 40
0.432847904
 40
0.4952752623
 40
0.5578663069
 40
0.6206183946
 40
0.6835249868
 40
0.7465773451
 40
0.8097643485
 40
0.8730733734
 40
1.0
 40
1.0
 40
1.0
 40
1.0
 10
11.9217866955
 20
6.0706169095
 30
0.0
 10
11.8987075145
 20
6.0660695533
 30
0.0
 10
11.863875073
 20
6.060097147
 30
0.0
 10
11.817103858
 20
6.0541869996
 30
0.0
 10
11.7817925494
 20
6.0508597856
 30
0.0
 10
11.7463081066
 20
6.048725378
 30
0.0
 10
11.7106833855
 20
6.0478546417
 30
0.0
 10
11.674960174
 20
6.0483035369
 30
0.0
 10
11.6391865523
 20
6.0501055356
 30
0.0
 10
11.6034140261
 20
6.0532688215
 30
0.0
 10
11.5676940862
 20
6.0577777721
 30
0.0
 10
11.5320744728
 20
6.0635920139
 30
0.0
 10
11.4965963333
 20
6.070649728
 30
0.0
 10
11.4612921426
 20
6.0788754177
 30
0.0
 10
11.4144482164
 20
6.0912949697
 30
0.0
 10
11.3796878067
 20
6.1020827641
 30
0.0
 10
11.3566802209
 20
6.1098071766
 30
0.0
  0
SPLINE
  5
36C
100
AcDbEntity
  8
0
100
AcDbSpline
 62
7
  6
CONTINUOUS
 70
0
 71
3
 72
21
 73
17
 74
0
 42
0.0000001
 43
0.0000001
 44
0.0000000001
 40
0.0
 40
0.0
 40
0.0
 40
0.0
 40
0.1269266266
 40
0.1902356515
 40
0.253422655
 40
0.3164750132
 40
0.3793816055
 40
0.4421336932
 40
0.5047247377
 40
0.567152096
 40
0.6294167323
 40
0.6915228434
 40
0.7534784683
 40
0.8152934248
 40
0.8769787019
 40
1.0
 40
1.0
 40
1.0
 40
1.0
 10
11.9217866955
 20
6.4550203508
 30
0.0
 10
11.8987791097
 20
6.4627447634
 30
0.0
 10
11.8640187
 20
6.4735325577
 30
0.0
 10
11.8171747739
 20
6.4859521098
 30
0.0
 10
11.7818705831
 20
6.4941777995
 30
0.0
 10
11.7463924436
 20
6.5012355135
 30
0.0
 10
11.7107728302
 20
6.5070497553
 30
0.0
 10
11.6750528903
 20
6.5115587059
 30
0.0
 10
11.6392803641
 20
6.5147219918
 30
0.0
 10
11.6035067424
 20
6.5165239906
 30
0.0
 10
11.5677835309
 20
6.5169728858
 30
0.0
 10
11.5321588098
 20
6.5161021494
 30
0.0
 10
11.496674367
 20
6.5139677418
 30
0.0
 10
11.4613630584
 20
6.5106405278
 30
0.0
 10
11.4145918435
 20
6.5047303804
 30
0.0
 10
11.3797594019
 20
6.4987579741
 30
0.0
 10
11.3566802209
 20
6.4942106179
 30
0.0
  0
SPLINE
  5
36D
100
AcDbEntity
  8
0
100
AcDbSpline
 62
7
  6
CONTINUOUS
 70
0
 71
3
 72
11
 73
7
 74
0
 42
0.0000001
 43
0.0000001
 44
0.0000000001
 40
0.0
 40
0.0
 40
0.0
 40
0.0
 40
0.2465919593
 40
0.494712682
 40
0.7454424776
 40
1.0
 40
1.0
 40
1.0
 40
1.0
 10
11.317207443
 20
6.1200234704
 30
0.0
 10
11.3152650301
 20
6.1199686357
 30
0.0
 10
11.3113637204
 20
6.1199759822
 30
0.0
 10
11.3054980292
 20
6.120359504
 30
0.0
 10
11.2996079572
 20
6.1211377864
 30
0.0
 10
11.2957015001
 20
6.1219273342
 30
0.0
 10
11.293750055
 20
6.1223917956
 30
0.0
  0
SPLINE
  5
36E
100
AcDbEntity
  8
0
100
AcDbSpline
 62
7
  6
CONTINUOUS
 70
0
 71
3
 72
10
 73
6
 74
0
 42
0.0000001
 43
0.0000001
 44
0.0000000001
 40
0.0
 40
0.0
 40
0.0
 40
0.0
 40
0.2418255986
 40
0.4885199497
 40
1.0
 40
1.0
 40
1.0
 40
1.0
 10
11.293750055
 20
6.1223917956
 30
0.0
 10
11.2921155375
 20
6.1227808253
 30
0.0
 10
11.2888352272
 20
6.1236616859
 30
0.0
 10
11.2822363268
 20
6.1258439912
 30
0.0
 10
11.2773824484
 20
6.1279278075
 30
0.0
 10
11.2741960138
 20
6.1295011619
 30
0.0
  0
SPLINE
  5
36F
100
AcDbEntity
  8
0
100
AcDbSpline
 62
7
  6
CONTINUOUS
 70
0
 71
3
 72
11
 73
7
 74
0
 42
0.0000001
 43
0.0000001
 44
0.0000000001
 40
0.0
 40
0.0
 40
0.0
 40
0.0
 40
0.2633952514
 40
0.5183435581
 40
0.764111363
 40
1.0
 40
1.0
 40
1.0
 40
1.0
 10
11.317207443
 20
6.5044269117
 30
0.0
 10
11.3144909565
 20
6.5097514385
 30
0.0
 10
11.3090541588
 20
6.5201837483
 30
0.0
 10
11.3007279916
 20
6.5353962342
 30
0.0
 10
11.2923575312
 20
6.5498678773
 30
0.0
 10
11.2866260542
 20
6.5591776171
 30
0.0
 10
11.2837455337
 20
6.5636897717
 30
0.0
  0
LINE
  5
370
100
AcDbEntity
  8
0
100
AcDbLine
 62
7
  6
CONTINUOUS
 10
12.2761075525
 20
6.1207836726
 11
12.2753784385
 21
6.120463785
  0
SPLINE
  5
371
100
AcDbEntity
  8
0
100
AcDbSpline
 62
7
  6
CONTINUOUS
 70
0
 71
3
 72
15
 73
11
 74
0
 42
0.0000001
 43
0.0000001
 44
0.0000000001
 40
0.0
 40
0.0
 40
0.0
 40
0.0
 40
0.1321602046
 40
0.2618009952
 40
0.3890353631
 40
0.5141096583
 40
0.6373677171
 40
0.75919507
 40
0.8799649792
 40
1.0
 40
1.0
 40
1.0
 40
1.0
 10
12.2753784385
 20
6.120463785
 30
0.0
 10
12.2629973351
 20
6.1150400428
 30
0.0
 10
12.2381565712
 20
6.1049930537
 30
0.0
 10
12.2003625081
 20
6.0924596163
 30
0.0
 10
12.1624917387
 20
6.0827423268
 30
0.0
 10
12.124665363
 20
6.0758738226
 30
0.0
 10
12.0869979771
 20
6.0717739941
 30
0.0
 10
12.0495823951
 20
6.0702673062
 30
0.0
 10
12.0124815585
 20
6.0711141539
 30
0.0
 10
11.9879171391
 20
6.0730735039
 30
0.0
 10
11.9757074978
 20
6.0743563364
 30
0.0
  0
SPLINE
  5
372
100
AcDbEntity
  8
0
100
AcDbSpline
 62
7
  6
CONTINUOUS
 70
0
 71
3
 72
91
 73
87
 74
0
 42
0.0000001
 43
0.0000001
 44
0.0000000001
 40
0.0
 40
0.0
 40
0.0
 40
0.0
 40
0.0039801824
 40
0.0081241125
 40
0.0124359604
 40
0.0169193082
 40
0.0215771808
 40
0.0264119179
 40
0.0314251804
 40
0.036618156
 40
0.0419915391
 40
0.0475456573
 40
0.0532804234
 40
0.0591954189
 40
0.0652899227
 40
0.0715629017
 40
0.0780131034
 40
0.0846389837
 40
0.0984102885
 40
0.1128608532
 40
0.1279713725
 40
0.1437199568
 40
0.1600824082
 40
0.1770324532
 40
0.1945419392
 40
0.2125810061
 40
0.2311182422
 40
0.2501208275
 40
0.2695546626
 40
0.2893844909
 40
0.3095740146
 40
0.330086005
 40
0.35088241
 40
0.3719244606
 40
0.3931727759
 40
0.4145874652
 40
0.4361282289
 40
0.4577544586
 40
0.4794253371
 40
0.501099938
 40
0.5227373261
 40
0.5442966575
 40
0.5657372785
 40
0.5870188258
 40
0.6081013261
 40
0.6289452975
 40
0.6495118524
 40
0.6697628021
 40
0.6896607608
 40
0.7091692527
 40
0.7282528228
 40
0.7468771515
 40
0.7650091753
 40
0.7826172172
 40
0.7996711268
 40
0.8161424293
 40
0.8320044948
 40
0.8472327309
 40
0.8618048077
 40
0.8757009255
 40
0.8889041429
 40
0.8952417292
 40
0.9014012652
 40
0.9073816417
 40
0.9131820083
 40
0.9188018518
 40
0.9242409423
 40
0.9294994633
 40
0.9345779585
 40
0.9394774438
 40
0.944199427
 40
0.9487459568
 40
0.95311974
 40
0.9573241405
 40
0.9613633601
 40
0.9652424499
 40
0.9689674846
 40
0.9725456466
 40
0.9759853437
 40
0.9824865016
 40
0.9855753543
 40
0.9885738189
 40
0.9914977372
 40
0.9943643366
 40
0.9971920099
 40
1.0
 40
1.0
 40
1.0
 40
1.0
 10
11.3327614669
 20
10.6246801667
 30
0.0
 10
11.331460235
 20
10.6234232732
 30
0.0
 10
11.3287451456
 20
10.6209183757
 30
0.0
 10
11.3244344186
 20
10.6172597843
 30
0.0
 10
11.3198071389
 20
10.6136274365
 30
0.0
 10
11.314865845
 20
10.6100232608
 30
0.0
 10
11.3096129459
 20
10.6064489405
 30
0.0
 10
11.3040510155
 20
10.6029062145
 30
0.0
 10
11.2981828355
 20
10.5993967815
 30
0.0
 10
11.2920113174
 20
10.5959224626
 30
0.0
 10
11.2855395778
 20
10.5924849255
 30
0.0
 10
11.2787708338
 20
10.5890859387
 30
0.0
 10
11.2717084888
 20
10.5857271739
 30
0.0
 10
11.2643560854
 20
10.5824103285
 30
0.0
 10
11.2567173144
 20
10.5791370929
 30
0.0
 10
11.2487960313
 20
10.5759090842
 30
0.0
 10
11.2405962023
 20
10.5727279621
 30
0.0
 10
11.22914969
 20
10.5684966221
 30
0.0
 10
11.2141679895
 20
10.5633469993
 30
0.0
 10
11.1953711488
 20
10.5574561414
 30
0.0
 10
11.1755691923
 20
10.5517891585
 30
0.0
 10
11.1548020923
 20
10.546357578
 30
0.0
 10
11.1331116198
 20
10.5411724639
 30
0.0
 10
11.1105415167
 20
10.5362443788
 30
0.0
 10
11.087137323
 20
10.531583364
 30
0.0
 10
11.0629463005
 20
10.5271989121
 30
0.0
 10
11.0380173241
 20
10.5230999511
 30
0.0
 10
11.0124007783
 20
10.519294826
 30
0.0
 10
10.9861484514
 20
10.5157912825
 30
0.0
 10
10.9593134282
 20
10.5125964509
 30
0.0
 10
10.9319499812
 20
10.5097168325
 30
0.0
 10
10.9041134599
 20
10.5071582872
 30
0.0
 10
10.8758601784
 20
10.5049260182
 30
0.0
 10
10.8472472988
 20
10.5030245639
 30
0.0
 10
10.8183327144
 20
10.5014577901
 30
0.0
 10
10.789174931
 20
10.500228882
 30
0.0
 10
10.7598329482
 20
10.4993403384
 30
0.0
 10
10.7303661405
 20
10.4987939664
 30
0.0
 10
10.7008341362
 20
10.4985908782
 30
0.0
 10
10.6712966968
 20
10.4987314864
 30
0.0
 10
10.6418135943
 20
10.4992155038
 30
0.0
 10
10.61244449
 20
10.5000419456
 30
0.0
 10
10.583248813
 20
10.5012091317
 30
0.0
 10
10.5542856406
 20
10.5027146893
 30
0.0
 10
10.5256135781
 20
10.5045555582
 30
0.0
 10
10.4972906393
 20
10.5067279966
 30
0.0
 10
10.4693741277
 20
10.5092275871
 30
0.0
 10
10.4419205187
 20
10.5120492438
 30
0.0
 10
10.4149853449
 20
10.5151872263
 30
0.0
 10
10.3886230835
 20
10.5186351496
 30
0.0
 10
10.3628870443
 20
10.5223859972
 30
0.0
 10
10.3378292608
 20
10.5264321348
 30
0.0
 10
10.3135003816
 20
10.5307653261
 30
0.0
 10
10.2899495632
 20
10.5353767473
 30
0.0
 10
10.2672243643
 20
10.5402570042
 30
0.0
 10
10.2453706486
 20
10.5453961543
 30
0.0
 10
10.2244324783
 20
10.5507837286
 30
0.0
 10
10.2044520426
 20
10.5564087539
 30
0.0
 10
10.1854694722
 20
10.5622597813
 30
0.0
 10
10.1675230508
 20
10.5683249129
 30
0.0
 10
10.1532729097
 20
10.5736170477
 30
0.0
 10
10.142427083
 20
10.5779578996
 30
0.0
 10
10.1346851197
 20
10.581214902
 30
0.0
 10
10.1272281432
 20
10.5845160673
 30
0.0
 10
10.1200599037
 20
10.5878597948
 30
0.0
 10
10.1131839874
 20
10.5912443405
 30
0.0
 10
10.1066038633
 20
10.5946680684
 30
0.0
 10
10.1003228069
 20
10.5981292046
 30
0.0
 10
10.0943439745
 20
10.6016260645
 30
0.0
 10
10.0886703448
 20
10.6051568918
 30
0.0
 10
10.0833047388
 20
10.6087199314
 30
0.0
 10
10.0782498481
 20
10.6123134733
 30
0.0
 10
10.0735081517
 20
10.6159357079
 30
0.0
 10
10.0690820498
 20
10.6195849647
 30
0.0
 10
10.0649737102
 20
10.6232594291
 30
0.0
 10
10.0611852045
 20
10.6269574641
 30
0.0
 10
10.0577185198
 20
10.6306772074
 30
0.0
 10
10.0545751524
 20
10.6344174057
 30
0.0
 10
10.0508876857
 20
10.6393353352
 30
0.0
 10
10.0477564261
 20
10.6443858233
 30
0.0
 10
10.0452703421
 20
10.649544152
 30
0.0
 10
10.0437682613
 20
10.6533591211
 30
0.0
 10
10.0425985362
 20
10.6571833726
 30
0.0
 10
10.041762126
 20
10.661015049
 30
0.0
 10
10.0412599549
 20
10.6648514186
 30
0.0
 10
10.0411481612
 20
10.667414414
 30
0.0
 10
10.0411481614
 20
10.6686907489
 30
0.0
  0
SPLINE
  5
373
100
AcDbEntity
  8
0
100
AcDbSpline
 62
7
  6
CONTINUOUS
 70
0
 71
3
 72
18
 73
14
 74
0
 42
0.0000001
 43
0.0000001
 44
0.0000000001
 40
0.0
 40
0.0
 40
0.0
 40
0.0
 40
0.1504683897
 40
0.2917144302
 40
0.4244424337
 40
0.4879098403
 40
0.5496094316
 40
0.6682625858
 40
0.7817882724
 40
0.8371379912
 40
0.8918078094
 40
0.9460192717
 40
1.0
 40
1.0
 40
1.0
 40
1.0
 10
12.7507406639
 20
9.476381505
 30
0.0
 10
12.7520835418
 20
9.4776786255
 30
0.0
 10
12.7547674685
 20
9.4801123981
 30
0.0
 10
12.7589232489
 20
9.4833556889
 30
0.0
 10
12.7624335071
 20
9.4856495166
 30
0.0
 10
12.7652326332
 20
9.487202822
 30
0.0
 10
12.76794941
 20
9.488536387
 30
0.0
 10
12.7713462427
 20
9.4898839043
 30
0.0
 10
12.7748034989
 20
9.4908034532
 30
0.0
 10
12.7775417477
 20
9.4912564357
 30
0.0
 10
12.7795711699
 20
9.4914574664
 30
0.0
 10
12.7815923814
 20
9.49152239
 30
0.0
 10
12.7829352247
 20
9.4914748846
 30
0.0
 10
12.7836034229
 20
9.4914285413
 30
0.0
  0
SPLINE
  5
374
100
AcDbEntity
  8
0
100
AcDbSpline
 62
7
  6
CONTINUOUS
 70
0
 71
3
 72
23
 73
19
 74
0
 42
0.0000001
 43
0.0000001
 44
0.0000000001
 40
0.0
 40
0.0
 40
0.0
 40
0.0
 40
0.0637774716
 40
0.1273446947
 40
0.1907020108
 40
0.2538561385
 40
0.3168131788
 40
0.379582097
 40
0.4421733871
 40
0.5045993393
 40
0.5668738666
 40
0.62901238
 40
0.6910316508
 40
0.7529496465
 40
0.8147853569
 40
0.8765586065
 40
0.938289857
 40
1.0
 40
1.0
 40
1.0
 40
1.0
 10
10.9290414265
 20
7.6138263193
 30
0.0
 10
10.9290414265
 20
7.6070376346
 30
0.0
 10
10.9287165085
 20
7.5934803439
 30
0.0
 10
10.9272499074
 20
7.5732268484
 30
0.0
 10
10.924808064
 20
7.5531339443
 30
0.0
 10
10.9213967302
 20
7.5332486954
 30
0.0
 10
10.9170236015
 20
7.5136166498
 30
0.0
 10
10.9116987695
 20
7.4942831596
 30
0.0
 10
10.9054344327
 20
7.4752927768
 30
0.0
 10
10.8982450031
 20
7.4566892989
 30
0.0
 10
10.8901470235
 20
7.4385156269
 30
0.0
 10
10.8811591329
 20
7.4208136774
 30
0.0
 10
10.8713020291
 20
7.4036242873
 30
0.0
 10
10.860598406
 20
7.386987104
 30
0.0
 10
10.8490729572
 20
7.3709405509
 30
0.0
 10
10.836752118
 20
7.3555215229
 30
0.0
 10
10.8236647935
 20
7.3407660673
 30
0.0
 10
10.8144472971
 20
7.3313924473
 30
0.0
 10
10.8097227809
 20
7.3268289108
 30
0.0
  0
SPLINE
  5
375
100
AcDbEntity
  8
0
100
AcDbSpline
 62
7
  6
CONTINUOUS
 70
0
 71
3
 72
21
 73
17
 74
0
 42
0.0000001
 43
0.0000001
 44
0.0000000001
 40
0.0
 40
0.0
 40
0.0
 40
0.0
 40
0.1273175725
 40
0.2538000026
 40
0.3167619332
 40
0.3795354925
 40
0.4421314982
 40
0.5045621433
 40
0.5668413429
 40
0.6289845306
 40
0.6910084612
 40
0.7529311022
 40
0.8147714553
 40
0.8765493457
 40
0.9382852283
 40
1.0
 40
1.0
 40
1.0
 40
1.0
 10
11.5530295473
 20
10.0462206006
 30
0.0
 10
11.5530295473
 20
10.0397222743
 30
0.0
 10
11.5524092399
 20
10.0267598838
 30
0.0
 10
11.5500665607
 20
10.010735567
 30
0.0
 10
11.5472665211
 20
9.9981658876
 30
0.0
 10
11.5447130337
 20
9.988894491
 30
0.0
 10
11.5417090478
 20
9.9797878217
 30
0.0
 10
11.5382614124
 20
9.9708666426
 30
0.0
 10
11.534378108
 20
9.9621515801
 30
0.0
 10
11.5300680656
 20
9.9536627163
 30
0.0
 10
11.5253411718
 20
9.9454196605
 30
0.0
 10
11.520208343
 20
9.9374414072
 30
0.0
 10
11.5146814352
 20
9.9297463695
 30
0.0
 10
11.5087730949
 20
9.9223522597
 30
0.0
 10
11.5024971779
 20
9.9152763731
 30
0.0
 10
11.4980770277
 20
9.9107812868
 30
0.0
 10
11.4958114247
 20
9.9085928706
 30
0.0
  0
SPLINE
  5
376
100
AcDbEntity
  8
0
100
AcDbSpline
 62
7
  6
CONTINUOUS
 70
0
 71
3
 72
21
 73
17
 74
0
 42
0.0000001
 43
0.0000001
 44
0.0000000001
 40
0.0
 40
0.0
 40
0.0
 40
0.0
 40
0.1273175725
 40
0.2538000026
 40
0.3167619332
 40
0.3795354925
 40
0.4421314982
 40
0.5045621433
 40
0.5668413429
 40
0.6289845306
 40
0.6910084612
 40
0.7529311022
 40
0.8147714553
 40
0.8765493457
 40
0.9382852283
 40
1.0
 40
1.0
 40
1.0
 40
1.0
 10
10.4663629283
 20
6.9823220651
 30
0.0
 10
10.4663629283
 20
6.9758237388
 30
0.0
 10
10.4657426209
 20
6.9628613483
 30
0.0
 10
10.4633999418
 20
6.9468370315
 30
0.0
 10
10.4605999021
 20
6.9342673522
 30
0.0
 10
10.4580464147
 20
6.9249959556
 30
0.0
 10
10.4550424288
 20
6.9158892863
 30
0.0
 10
10.4515947935
 20
6.9069681071
 30
0.0
 10
10.447711489
 20
6.8982530446
 30
0.0
 10
10.4434014467
 20
6.8897641809
 30
0.0
 10
10.4386745529
 20
6.881521125
 30
0.0
 10
10.4335417241
 20
6.8735428718
 30
0.0
 10
10.4280148163
 20
6.865847834
 30
0.0
 10
10.422106476
 20
6.8584537242
 30
0.0
 10
10.4158305589
 20
6.8513778376
 30
0.0
 10
10.4114104087
 20
6.8468827514
 30
0.0
 10
10.4091448058
 20
6.8446943351
 30
0.0
  0
SPLINE
  5
377
100
AcDbEntity
  8
0
100
AcDbSpline
 62
7
  6
CONTINUOUS
 70
0
 71
3
 72
11
 73
7
 74
0
 42
0.0000001
 43
0.0000001
 44
0.0000000001
 40
0.0
 40
0.0
 40
0.0
 40
0.0
 40
0.2677158284
 40
0.5229561715
 40
0.7666071758
 40
1.0
 40
1.0
 40
1.0
 40
1.0
 10
10.6911035603
 20
7.5644984911
 30
0.0
 10
10.6950080247
 20
7.56459833
 30
0.0
 10
10.70263231
 20
7.5649437584
 30
0.0
 10
10.7137756656
 20
7.5659423071
 30
0.0
 10
10.7243625463
 20
7.5674061149
 30
0.0
 10
10.7312017083
 20
7.568716999
 30
0.0
 10
10.734526293
 20
7.5694526262
 30
0.0
  0
SPLINE
  5
378
100
AcDbEntity
  8
0
100
AcDbSpline
 62
7
  6
CONTINUOUS
 70
0
 71
3
 72
33
 73
29
 74
0
 42
0.0000001
 43
0.0000001
 44
0.0000000001
 40
0.0
 40
0.0
 40
0.0
 40
0.0
 40
0.0323033798
 40
0.064367669
 40
0.0961850421
 40
0.1277557692
 40
0.1590847422
 40
0.1901829186
 40
0.2210659914
 40
0.2517539123
 40
0.2822700035
 40
0.312640151
 40
0.3428919896
 40
0.3730541694
 40
0.4031559927
 40
0.4332271857
 40
0.463297208
 40
0.4933952247
 40
0.5537779164
 40
0.6146207007
 40
0.6761505165
 40
0.7385901075
 40
0.8021449827
 40
0.8669632129
 40
0.8998567852
 40
0.9330399577
 40
0.9664540654
 40
1.0
 40
1.0
 40
1.0
 40
1.0
 10
10.3984274871
 20
7.7762925811
 30
0.0
 10
10.3984274871
 20
7.7726910037
 30
0.0
 10
10.3986367515
 20
7.7655126583
 30
0.0
 10
10.3995834734
 20
7.7548245896
 30
0.0
 10
10.4011537301
 20
7.7442923771
 30
0.0
 10
10.4033339874
 20
7.7339532542
 30
0.0
 10
10.4061063838
 20
7.7238401341
 30
0.0
 10
10.4094492204
 20
7.7139820649
 30
0.0
 10
10.4133380492
 20
7.7044036369
 30
0.0
 10
10.4177464825
 20
7.695125023
 30
0.0
 10
10.4226470613
 20
7.6861620772
 30
0.0
 10
10.4280120285
 20
7.6775266468
 30
0.0
 10
10.433813996
 20
7.6692269933
 30
0.0
 10
10.4400264338
 20
7.6612682343
 30
0.0
 10
10.4466240602
 20
7.6536527379
 30
0.0
 10
10.4535830926
 20
7.6463806723
 30
0.0
 10
10.46088172
 20
7.6394502597
 30
0.0
 10
10.4710482578
 20
7.6306528754
 30
0.0
 10
10.4845345829
 20
7.6204774709
 30
0.0
 10
10.501777408
 20
7.6095821145
 30
0.0
 10
10.520006106
 20
7.5999350753
 30
0.0
 10
10.5391488404
 20
7.5914874195
 30
0.0
 10
10.559148854
 20
7.5841945925
 30
0.0
 10
10.5763964598
 20
7.5790756529
 30
0.0
 10
10.5905522447
 20
7.5755210937
 30
0.0
 10
10.6013825714
 20
7.5731170584
 30
0.0
 10
10.6123446146
 20
7.5709904593
 30
0.0
 10
10.6197092661
 20
7.5697612328
 30
0.0
 10
10.6234060121
 20
7.5691933321
 30
0.0
  0
SPLINE
  5
379
100
AcDbEntity
  8
0
100
AcDbSpline
 62
7
  6
CONTINUOUS
 70
0
 71
3
 72
15
 73
11
 74
0
 42
0.0000001
 43
0.0000001
 44
0.0000000001
 40
0.0
 40
0.0
 40
0.0
 40
0.0
 40
0.1264939748
 40
0.2527577636
 40
0.3786906478
 40
0.5041984659
 40
0.6291786799
 40
0.7535315985
 40
0.8771671038
 40
1.0
 40
1.0
 40
1.0
 40
1.0
 10
10.418160567
 20
7.8627288424
 30
0.0
 10
10.4165859602
 20
7.8593066723
 30
0.0
 10
10.4136028448
 20
7.8523919754
 30
0.0
 10
10.4096513266
 20
7.8418245027
 30
0.0
 10
10.4062527308
 20
7.8310966802
 30
0.0
 10
10.4034323184
 20
7.8202418162
 30
0.0
 10
10.4012125367
 20
7.8092961241
 30
0.0
 10
10.3996119862
 20
7.7982988762
 30
0.0
 10
10.3986448612
 20
7.7872922893
 30
0.0
 10
10.3984274871
 20
7.7799505984
 30
0.0
 10
10.3984274871
 20
7.7762925811
 30
0.0
  0
SPLINE
  5
37A
100
AcDbEntity
  8
0
100
AcDbSpline
 62
7
  6
CONTINUOUS
 70
0
 71
3
 72
21
 73
17
 74
0
 42
0.0000001
 43
0.0000001
 44
0.0000000001
 40
0.0
 40
0.0
 40
0.0
 40
0.0
 40
0.12731758
 40
0.2538000122
 40
0.3167619425
 40
0.3795355005
 40
0.4421315041
 40
0.5045621466
 40
0.5668413435
 40
0.6289845285
 40
0.6910084568
 40
0.7529310961
 40
0.8147714484
 40
0.8765493394
 40
0.9382852242
 40
1.0
 40
1.0
 40
1.0
 40
1.0
 10
10.7470733881
 20
7.643058681
 30
0.0
 10
10.7470733881
 20
7.6358211616
 30
0.0
 10
10.7463825155
 20
7.6213842826
 30
0.0
 10
10.7437733366
 20
7.6035371815
 30
0.0
 10
10.7406547686
 20
7.58953769
 30
0.0
 10
10.7378108005
 20
7.5792116658
 30
0.0
 10
10.7344650862
 20
7.569069109
 30
0.0
 10
10.7306252538
 20
7.5591331445
 30
0.0
 10
10.7263001917
 20
7.5494267453
 30
0.0
 10
10.7214998472
 20
7.5399722782
 30
0.0
 10
10.7162352315
 20
7.5307915832
 30
0.0
 10
10.7105185032
 20
7.5219058158
 30
0.0
 10
10.7043628671
 20
7.5133354838
 30
0.0
 10
10.6977824085
 20
7.5051003144
 30
0.0
 10
10.6907925595
 20
7.4972195706
 30
0.0
 10
10.6858695855
 20
7.492213188
 30
0.0
 10
10.6833462542
 20
7.48977585
 30
0.0
  0
SPLINE
  5
37B
100
AcDbEntity
  8
0
100
AcDbSpline
 62
7
  6
CONTINUOUS
 70
0
 71
3
 72
41
 73
37
 74
0
 42
0.0000001
 43
0.0000001
 44
0.0000000001
 40
0.0
 40
0.0
 40
0.0
 40
0.0
 40
0.0310750003
 40
0.046674464
 40
0.062312494
 40
0.0936974057
 40
0.1252262387
 40
0.1568876805
 40
0.1886675201
 40
0.2205491599
 40
0.2525139229
 40
0.268523588
 40
0.2845462912
 40
0.3166149974
 40
0.3487024468
 40
0.3807858411
 40
0.4128424624
 40
0.4448501254
 40
0.4767876212
 40
0.5086351486
 40
0.5403747235
 40
0.5719905626
 40
0.6034694315
 40
0.6348009518
 40
0.6659778585
 40
0.6969962
 40
0.7278554736
 40
0.7585586902
 40
0.7891123605
 40
0.8195263996
 40
0.849813947
 40
0.8799911023
 40
0.9100765789
 40
0.9400912834
 40
0.9700578297
 40
1.0
 40
1.0
 40
1.0
 40
1.0
 10
10.7470733881
 20
7.643058681
 30
0.0
 10
10.7470733881
 20
7.6486840467
 30
0.0
 10
10.7467589431
 20
7.6571375586
 30
0.0
 10
10.7457204497
 20
7.6683715731
 30
0.0
 10
10.7442653077
 20
7.6796163425
 30
0.0
 10
10.7416713515
 20
7.6936113088
 30
0.0
 10
10.7373446293
 20
7.7101908866
 30
0.0
 10
10.7318238527
 20
7.7264877119
 30
0.0
 10
10.725139434
 20
7.7424119113
 30
0.0
 10
10.7173284718
 20
7.7578758131
 30
0.0
 10
10.7099190503
 20
7.7703033589
 30
0.0
 10
10.7034744989
 20
7.7799329472
 30
0.0
 10
10.6966885103
 20
7.7893482661
 30
0.0
 10
10.6875931495
 20
7.8006756382
 30
0.0
 10
10.6757626657
 20
7.8134831529
 30
0.0
 10
10.663076432
 20
7.8254410154
 30
0.0
 10
10.6496043743
 20
7.8364831487
 30
0.0
 10
10.6354203369
 20
7.8465490287
 30
0.0
 10
10.6206021675
 20
7.855583321
 30
0.0
 10
10.6052311648
 20
7.8635363677
 30
0.0
 10
10.5893916732
 20
7.8703644091
 30
0.0
 10
10.5731706165
 20
7.8760298367
 30
0.0
 10
10.5566570307
 20
7.8805013972
 30
0.0
 10
10.539941581
 20
7.8837543674
 30
0.0
 10
10.5231160718
 20
7.8857706935
 30
0.0
 10
10.5062729491
 20
7.8865390964
 30
0.0
 10
10.4895047985
 20
7.8860551413
 30
0.0
 10
10.4729038413
 20
7.8843212715
 30
0.0
 10
10.4565614297
 20
7.8813468092
 30
0.0
 10
10.4405675421
 20
7.877147913
 30
0.0
 10
10.4250102932
 20
7.8717475081
 30
0.0
 10
10.4099754126
 20
7.865175143
 30
0.0
 10
10.3955458749
 20
7.857466947
 30
0.0
 10
10.3818010148
 20
7.8486650295
 30
0.0
 10
10.3688176236
 20
7.8388187757
 30
0.0
 10
10.3607139386
 20
7.8315912111
 30
0.0
 10
10.3568153568
 20
7.8278254902
 30
0.0
  0
SPLINE
  5
37C
100
AcDbEntity
  8
0
100
AcDbSpline
 62
7
  6
CONTINUOUS
 70
0
 71
3
 72
18
 73
14
 74
0
 42
0.0000001
 43
0.0000001
 44
0.0000000001
 40
0.0
 40
0.0
 40
0.0
 40
0.0
 40
0.0548620589
 40
0.1099280789
 40
0.165399508
 40
0.2214731255
 40
0.2783387361
 40
0.3361775086
 40
0.4554063416
 40
0.5804417492
 40
0.7123343341
 40
0.8519577333
 40
1.0
 40
1.0
 40
1.0
 40
1.0
 10
11.3551481614
 20
10.668690749
 30
0.0
 10
11.3551481613
 20
10.6677628817
 30
0.0
 10
11.3550892591
 20
10.6659031647
 30
0.0
 10
11.3548244565
 20
10.6631166149
 30
0.0
 10
11.3543832695
 20
10.6603316708
 30
0.0
 10
11.3537658437
 20
10.6575493497
 30
0.0
 10
11.3529724184
 20
10.6547703539
 30
0.0
 10
11.3516674113
 20
10.6510333496
 30
0.0
 10
11.3495768121
 20
10.6463593577
 30
0.0
 10
11.3463947897
 20
10.6408393554
 30
0.0
 10
11.3425192589
 20
10.6353550827
 30
0.0
 10
11.3379561161
 20
10.6299120438
 30
0.0
 10
11.3345623359
 20
10.6264196728
 30
0.0
 10
11.3327614669
 20
10.6246801667
 30
0.0
  0
SPLINE
  5
37D
100
AcDbEntity
  8
0
100
AcDbSpline
 62
7
  6
CONTINUOUS
 70
0
 71
3
 72
44
 73
40
 74
0
 42
0.0000001
 43
0.0000001
 44
0.0000000001
 40
0.0
 40
0.0
 40
0.0
 40
0.0
 40
0.0149722236
 40
0.0299475067
 40
0.0449288886
 40
0.0599193736
 40
0.0749219097
 40
0.08993937
 40
0.1049745397
 40
0.1200300961
 40
0.1351085917
 40
0.1502124449
 40
0.1804994096
 40
0.2109128633
 40
0.2414659442
 40
0.2721685685
 40
0.3030272475
 40
0.3340449904
 40
0.3652212956
 40
0.396552213
 40
0.4280304762
 40
0.4596457066
 40
0.4913846713
 40
0.5232315866
 40
0.555168468
 40
0.587175515
 40
0.6192315195
 40
0.6513142962
 40
0.6834011282
 40
0.7154692177
 40
0.7474961397
 40
0.7794602892
 40
0.8113413161
 40
0.8431205468
 40
0.8747813742
 40
0.9063096205
 40
0.9376938957
 40
0.9689255646
 40
1.0
 40
1.0
 40
1.0
 40
1.0
 10
10.1983452946
 20
7.9597724528
 30
0.0
 10
10.2019953688
 20
7.963298157
 30
0.0
 10
10.2094372757
 20
7.9702059648
 30
0.0
 10
10.2210043327
 20
7.9801169741
 30
0.0
 10
10.2329608605
 20
7.9895648501
 30
0.0
 10
10.2452901616
 20
7.9985363958
 30
0.0
 10
10.2579753703
 20
8.007019269
 30
0.0
 10
10.2709989724
 20
8.0150018291
 30
0.0
 10
10.2843430667
 20
8.0224731148
 30
0.0
 10
10.2979892398
 20
8.029422771
 30
0.0
 10
10.3119189662
 20
8.0358413856
 30
0.0
 10
10.3308589606
 20
8.0436858925
 30
0.0
 10
10.3551584323
 20
8.05212123
 30
0.0
 10
10.3851037309
 20
8.059982679
 30
0.0
 10
10.4157024849
 20
8.0655520018
 30
0.0
 10
10.4467850844
 20
8.0687983935
 30
0.0
 10
10.4781807937
 20
8.0697045354
 30
0.0
 10
10.5097168598
 20
8.0682658518
 30
0.0
 10
10.5412199564
 20
8.0644906378
 30
0.0
 10
10.5725169799
 20
8.0583999725
 30
0.0
 10
10.6034360485
 20
8.0500277017
 30
0.0
 10
10.6338074094
 20
8.0394201176
 30
0.0
 10
10.6634643419
 20
8.0266356964
 30
0.0
 10
10.6922441
 20
8.0117448788
 30
0.0
 10
10.7199887784
 20
7.994829615
 30
0.0
 10
10.7465461325
 20
7.9759828703
 30
0.0
 10
10.7717704386
 20
7.9553081872
 30
0.0
 10
10.7955233101
 20
7.9329191356
 30
0.0
 10
10.8176743839
 20
7.9089386164
 30
0.0
 10
10.8381020368
 20
7.8834982225
 30
0.0
 10
10.8566941288
 20
7.8567375872
 30
0.0
 10
10.8733485308
 20
7.8288035501
 30
0.0
 10
10.8879736597
 20
7.7998493601
 30
0.0
 10
10.900489075
 20
7.7700339192
 30
0.0
 10
10.9108258762
 20
7.7395208126
 30
0.0
 10
10.9189270326
 20
7.7084776673
 30
0.0
 10
10.9247476971
 20
7.6770743566
 30
0.0
 10
10.9282557113
 20
7.6454855611
 30
0.0
 10
10.9290414265
 20
7.6243589337
 30
0.0
 10
10.9290414265
 20
7.6138263193
 30
0.0
  0
SPLINE
  5
37E
100
AcDbEntity
  8
0
100
AcDbSpline
 62
7
  6
CONTINUOUS
 70
0
 71
3
 72
41
 73
37
 74
0
 42
0.0000001
 43
0.0000001
 44
0.0000000001
 40
0.0
 40
0.0
 40
0.0
 40
0.0
 40
0.0299421722
 40
0.0599087187
 40
0.0899234222
 40
0.1200088965
 40
0.1501860486
 40
0.1804735921
 40
0.2108876267
 40
0.2414412921
 40
0.2721445039
 40
0.3030037728
 40
0.3340221097
 40
0.3651990124
 40
0.3965305293
 40
0.4280093954
 40
0.4596252325
 40
0.4913648061
 40
0.523212333
 40
0.5551498293
 40
0.5871574933
 40
0.6192141165
 40
0.6512975132
 40
0.6833849656
 40
0.7154536753
 40
0.7314763803
 40
0.7474860474
 40
0.7794508144
 40
0.8113324582
 40
0.8431123019
 40
0.8747737477
 40
0.9063025846
 40
0.9376874998
 40
0.9533255315
 40
0.9689249968
 40
1.0
 40
1.0
 40
1.0
 40
1.0
 10
11.202626947
 20
10.2121169238
 30
0.0
 10
11.2061273649
 20
10.2154980862
 30
0.0
 10
11.2134034202
 20
10.2219875683
 30
0.0
 10
11.2250608267
 20
10.2308283247
 30
0.0
 10
11.2374019421
 20
10.2387313994
 30
0.0
 10
11.2503578173
 20
10.2456524502
 30
0.0
 10
11.26385722
 20
10.2515536676
 30
0.0
 10
11.2778256489
 20
10.2564026116
 30
0.0
 10
11.2921861295
 20
10.2601727509
 30
0.0
 10
11.3068595458
 20
10.2628435011
 30
0.0
 10
11.3217651081
 20
10.2644003536
 30
0.0
 10
11.3368207933
 20
10.2648349377
 30
0.0
 10
11.351943798
 20
10.2641450594
 30
0.0
 10
11.3670509917
 20
10.2623347004
 30
0.0
 10
11.3820593691
 20
10.2594139876
 30
0.0
 10
11.396886501
 20
10.2553991309
 30
0.0
 10
11.411450981
 20
10.2503123285
 30
0.0
 10
11.4256728657
 20
10.2441816418
 30
0.0
 10
11.4394741079
 20
10.2370408385
 30
0.0
 10
11.4527789767
 20
10.2289292092
 30
0.0
 10
11.4655144756
 20
10.2198913405
 30
0.0
 10
11.4776107069
 20
10.209976916
 30
0.0
 10
11.4890013671
 20
10.1992402785
 30
0.0
 10
11.4996236714
 20
10.1877407573
 30
0.0
 10
11.5077901757
 20
10.1775702129
 30
0.0
 10
11.513883151
 20
10.1691164483
 30
0.0
 10
11.5196695583
 20
10.1604702957
 30
0.0
 10
11.5263222995
 20
10.1493119296
 30
0.0
 10
11.5333355749
 20
10.1354272967
 30
0.0
 10
11.5393373541
 20
10.1211293727
 30
0.0
 10
11.5442943272
 20
10.106496876
 30
0.0
 10
11.5481791876
 20
10.0916105018
 30
0.0
 10
11.5505082389
 20
10.0790447827
 30
0.0
 10
11.5518147761
 20
10.0689483941
 30
0.0
 10
11.5527472146
 20
10.0588616621
 30
0.0
 10
11.5530295473
 20
10.0512714715
 30
0.0
 10
11.5530295473
 20
10.0462206006
 30
0.0
  0
SPLINE
  5
37F
100
AcDbEntity
  8
0
100
AcDbSpline
 62
7
  6
CONTINUOUS
 70
0
 71
3
 72
41
 73
37
 74
0
 42
0.0000001
 43
0.0000001
 44
0.0000000001
 40
0.0
 40
0.0
 40
0.0
 40
0.0
 40
0.0299421722
 40
0.0599087187
 40
0.0899234222
 40
0.1200088965
 40
0.1501860486
 40
0.1804735921
 40
0.2108876267
 40
0.2414412921
 40
0.2721445039
 40
0.3030037728
 40
0.3340221097
 40
0.3651990124
 40
0.3965305293
 40
0.4280093954
 40
0.4596252325
 40
0.4913648061
 40
0.523212333
 40
0.5551498293
 40
0.5871574933
 40
0.6192141165
 40
0.6512975132
 40
0.6833849656
 40
0.7154536753
 40
0.7314763803
 40
0.7474860474
 40
0.7794508144
 40
0.8113324582
 40
0.8431123019
 40
0.8747737477
 40
0.9063025846
 40
0.9376874998
 40
0.9533255315
 40
0.9689249968
 40
1.0
 40
1.0
 40
1.0
 40
1.0
 10
10.115960328
 20
7.1482183883
 30
0.0
 10
10.1194607459
 20
7.1515995507
 30
0.0
 10
10.1267368012
 20
7.1580890328
 30
0.0
 10
10.1383942077
 20
7.1669297892
 30
0.0
 10
10.1507353231
 20
7.174832864
 30
0.0
 10
10.1636911984
 20
7.1817539148
 30
0.0
 10
10.177190601
 20
7.1876551322
 30
0.0
 10
10.1911590299
 20
7.1925040761
 30
0.0
 10
10.2055195106
 20
7.1962742154
 30
0.0
 10
10.2201929268
 20
7.1989449656
 30
0.0
 10
10.2350984891
 20
7.2005018181
 30
0.0
 10
10.2501541743
 20
7.2009364022
 30
0.0
 10
10.2652771791
 20
7.200246524
 30
0.0
 10
10.2803843728
 20
7.1984361649
 30
0.0
 10
10.2953927501
 20
7.1955154521
 30
0.0
 10
10.310219882
 20
7.1915005954
 30
0.0
 10
10.324784362
 20
7.186413793
 30
0.0
 10
10.3390062467
 20
7.1802831063
 30
0.0
 10
10.352807489
 20
7.173142303
 30
0.0
 10
10.3661123578
 20
7.1650306737
 30
0.0
 10
10.3788478567
 20
7.1559928051
 30
0.0
 10
10.390944088
 20
7.1460783805
 30
0.0
 10
10.4023347481
 20
7.135341743
 30
0.0
 10
10.4129570524
 20
7.1238422218
 30
0.0
 10
10.4211235568
 20
7.1136716774
 30
0.0
 10
10.4272165321
 20
7.1052179128
 30
0.0
 10
10.4330029394
 20
7.0965717603
 30
0.0
 10
10.4396556805
 20
7.0854133941
 30
0.0
 10
10.4466689559
 20
7.0715287613
 30
0.0
 10
10.4526707351
 20
7.0572308372
 30
0.0
 10
10.4576277083
 20
7.0425983405
 30
0.0
 10
10.4615125686
 20
7.0277119664
 30
0.0
 10
10.4638416199
 20
7.0151462472
 30
0.0
 10
10.4651481571
 20
7.0050498587
 30
0.0
 10
10.4660805956
 20
6.9949631266
 30
0.0
 10
10.4663629283
 20
6.987372936
 30
0.0
 10
10.4663629283
 20
6.9823220651
 30
0.0
  0
SPLINE
  5
380
100
AcDbEntity
  8
0
100
AcDbSpline
 62
7
  6
CONTINUOUS
 70
0
 71
3
 72
82
 73
78
 74
0
 42
0.0000001
 43
0.0000001
 44
0.0000000001
 40
0.0
 40
0.0
 40
0.0
 40
0.0
 40
0.0027164291
 40
0.0054532364
 40
0.0082303053
 40
0.0110666058
 40
0.0139798164
 40
0.016986131
 40
0.0201001037
 40
0.0233346222
 40
0.0267009905
 40
0.0302089475
 40
0.0338668707
 40
0.0376818493
 40
0.0416598249
 40
0.0458057691
 40
0.0501237025
 40
0.0546169039
 40
0.0592879295
 40
0.0641387045
 40
0.069170648
 40
0.0743846285
 40
0.0797811279
 40
0.0853602093
 40
0.0970640744
 40
0.1094908292
 40
0.122630084
 40
0.1364677626
 40
0.1509865887
 40
0.1661664945
 40
0.1819849411
 40
0.1984171777
 40
0.2154364542
 40
0.233014197
 40
0.2511201854
 40
0.2697227022
 40
0.2887886669
 40
0.3082837565
 40
0.3281725155
 40
0.3484184781
 40
0.3689842782
 40
0.3898317536
 40
0.4109220451
 40
0.4536720397
 40
0.4969140311
 40
0.540322302
 40
0.5835695392
 40
0.6263299734
 40
0.6474273998
 40
0.6682832705
 40
0.6888587055
 40
0.7091155138
 40
0.7290162972
 40
0.7485245643
 40
0.7676048337
 40
0.786222742
 40
0.8043451595
 40
0.821940317
 40
0.8389779517
 40
0.8554294454
 40
0.8712679825
 40
0.8864687352
 40
0.9010090829
 40
0.9148688848
 40
0.9280307811
 40
0.9404805813
 40
0.9522077554
 40
0.9577985268
 40
0.9632067444
 40
0.9684324379
 40
0.9734760336
 40
0.9783383943
 40
0.9830208414
 40
0.9875253833
 40
0.9918546059
 40
0.9960115907
 40
1.0
 40
1.0
 40
1.0
 40
1.0
 10
12.7178779048
 20
8.5437048794
 30
0.0
 10
12.7169913767
 20
8.543766365
 30
0.0
 10
12.7152162107
 20
8.5439700544
 30
0.0
 10
12.7125760672
 20
8.5445150902
 30
0.0
 10
12.709955867
 20
8.5452995084
 30
0.0
 10
12.7073575027
 20
8.5463226219
 30
0.0
 10
12.7047822871
 20
8.5475834427
 30
0.0
 10
12.702231561
 20
8.549081036
 30
0.0
 10
12.6997065013
 20
8.5508143255
 30
0.0
 10
12.6972082002
 20
8.5527821812
 30
0.0
 10
12.6947377905
 20
8.5549835123
 30
0.0
 10
12.692296279
 20
8.5574170552
 30
0.0
 10
12.6898847729
 20
8.5600815817
 30
0.0
 10
12.6875043332
 20
8.5629757279
 30
0.0
 10
12.6851560108
 20
8.5660980363
 30
0.0
 10
12.6828409439
 20
8.5694469968
 30
0.0
 10
12.6805601602
 20
8.5730209256
 30
0.0
 10
12.6783147888
 20
8.5768180874
 30
0.0
 10
12.6761059026
 20
8.5808366041
 30
0.0
 10
12.6739345536
 20
8.5850744841
 30
0.0
 10
12.6718018551
 20
8.5895296497
 30
0.0
 10
12.6697088138
 20
8.5941998707
 30
0.0
 10
12.6676564806
 20
8.5990828484
 30
0.0
 10
12.6649321304
 20
8.6059844963
 30
0.0
 10
12.6616463854
 20
8.6151344048
 30
0.0
 10
12.6579420126
 20
8.6267529364
 30
0.0
 10
12.6544231993
 20
8.6391560682
 30
0.0
 10
12.6510970606
 20
8.6523190315
 30
0.0
 10
12.6479703356
 20
8.6662156877
 30
0.0
 10
12.6450493755
 20
8.6808182854
 30
0.0
 10
12.6423401217
 20
8.6960976295
 30
0.0
 10
12.6398480895
 20
8.7120231238
 30
0.0
 10
12.637578356
 20
8.7285628439
 30
0.0
 10
12.6355355372
 20
8.7456836021
 30
0.0
 10
12.6337237894
 20
8.7633510239
 30
0.0
 10
12.6321468008
 20
8.7815296246
 30
0.0
 10
12.6308077844
 20
8.8001828834
 30
0.0
 10
12.6297094722
 20
8.8192733144
 30
0.0
 10
12.6288540998
 20
8.8387625422
 30
0.0
 10
12.6282434103
 20
8.8586113857
 30
0.0
 10
12.6278786604
 20
8.8787799279
 30
0.0
 10
12.6277605822
 20
8.8992276479
 30
0.0
 10
12.6279332705
 20
8.9269325731
 30
0.0
 10
12.6287711103
 20
8.9619570805
 30
0.0
 10
12.6307456439
 20
9.0042467287
 30
0.0
 10
12.6336782743
 20
9.0466439423
 30
0.0
 10
12.6375453986
 20
9.0888078236
 30
0.0
 10
12.6415382429
 20
9.1236215889
 30
0.0
 10
12.6451821712
 20
9.1510949448
 30
0.0
 10
12.6481149493
 20
9.1713399128
 30
0.0
 10
12.6512536965
 20
9.1912756237
 30
0.0
 10
12.6545921101
 20
9.2108620205
 30
0.0
 10
12.6581234521
 20
9.2300597153
 30
0.0
 10
12.6618405947
 20
9.24883012
 30
0.0
 10
12.6657360327
 20
9.2671355108
 30
0.0
 10
12.6698019013
 20
9.284939105
 30
0.0
 10
12.6740299907
 20
9.3022051349
 30
0.0
 10
12.6784117643
 20
9.3188989256
 30
0.0
 10
12.6829383647
 20
9.334986972
 30
0.0
 10
12.6876006427
 20
9.3504370076
 30
0.0
 10
12.6923891757
 20
9.3652180687
 30
0.0
 10
12.6972942881
 20
9.3793005604
 30
0.0
 10
12.7023060769
 20
9.3926563358
 30
0.0
 10
12.7074144222
 20
9.4052587436
 30
0.0
 10
12.7126090383
 20
9.4170827836
 30
0.0
 10
12.7178794729
 20
9.4281048474
 30
0.0
 10
12.722395
 20
9.436735967
 30
0.0
 10
12.7260446974
 20
9.4432137383
 30
0.0
 10
12.7287506611
 20
9.4477804786
 30
0.0
 10
12.7314676601
 20
9.452131028
 30
0.0
 10
12.734194368
 20
9.4562632199
 30
0.0
 10
12.7369293849
 20
9.4601750136
 30
0.0
 10
12.739671426
 20
9.4638644598
 30
0.0
 10
12.742419139
 20
9.4673297894
 30
0.0
 10
12.7451712605
 20
9.4705692943
 30
0.0
 10
12.7479262914
 20
9.4735812161
 30
0.0
 10
12.7498021979
 20
9.4754750164
 30
0.0
 10
12.7507406639
 20
9.476381505
 30
0.0
  0
SPLINE
  5
381
100
AcDbEntity
  8
0
100
AcDbSpline
 62
7
  6
CONTINUOUS
 70
0
 71
3
 72
59
 73
55
 74
0
 42
0.0000001
 43
0.0000001
 44
0.0000000001
 40
0.0
 40
0.0
 40
0.0
 40
0.0
 40
0.00752076
 40
0.0156240666
 40
0.0243309413
 40
0.0336547039
 40
0.0436025395
 40
0.0541765155
 40
0.0653745583
 40
0.0771911466
 40
0.089617703
 40
0.1026431225
 40
0.1162540672
 40
0.1304351301
 40
0.1451691714
 40
0.1604374328
 40
0.1762196364
 40
0.1924942222
 40
0.2092383782
 40
0.226428137
 40
0.2440385466
 40
0.262043667
 40
0.2991292985
 40
0.3374622769
 40
0.3768085668
 40
0.4169258033
 40
0.4575654184
 40
0.4984746816
 40
0.5393987187
 40
0.5800825437
 40
0.6202730676
 40
0.6597211312
 40
0.6981835666
 40
0.7354252551
 40
0.7535179533
 40
0.7712220793
 40
0.7885114956
 40
0.8053609692
 40
0.8217463397
 40
0.8376445148
 40
0.8530335937
 40
0.8678930469
 40
0.8822037273
 40
0.8959480769
 40
0.9091103322
 40
0.9216766102
 40
0.9336352556
 40
0.9449771264
 40
0.9556958935
 40
0.9657886741
 40
0.9752564781
 40
0.9841051463
 40
0.9923469186
 40
1.0
 40
1.0
 40
1.0
 40
1.0
 10
12.6758679996
 20
8.698340994
 30
0.0
 10
12.6748129001
 20
8.699638292
 30
0.0
 10
12.6727339885
 20
8.7024264411
 30
0.0
 10
12.6698084647
 20
8.7069810831
 30
0.0
 10
12.6669664572
 20
8.7120529236
 30
0.0
 10
12.6642124677
 20
8.7176336557
 30
0.0
 10
12.6615507001
 20
8.7237146159
 30
0.0
 10
12.6589854037
 20
8.730286041
 30
0.0
 10
12.6565207445
 20
8.7373373383
 30
0.0
 10
12.6541608199
 20
8.7448570468
 30
0.0
 10
12.6519095163
 20
8.7528328601
 30
0.0
 10
12.6497705978
 20
8.7612516816
 30
0.0
 10
12.647747665
 20
8.7700996474
 30
0.0
 10
12.645844078
 20
8.7793621443
 30
0.0
 10
12.6440630443
 20
8.7890238576
 30
0.0
 10
12.6424075646
 20
8.7990687919
 30
0.0
 10
12.6408803917
 20
8.8094802982
 30
0.0
 10
12.6394841086
 20
8.820241112
 30
0.0
 10
12.6382210604
 20
8.8313333805
 30
0.0
 10
12.6370933527
 20
8.8427386862
 30
0.0
 10
12.6361028789
 20
8.8544381104
 30
0.0
 10
12.6349562466
 20
8.8705624005
 30
0.0
 10
12.6338871711
 20
8.8913093648
 30
0.0
 10
12.6331835185
 20
8.9168190502
 30
0.0
 10
12.6330519719
 20
8.943012102
 30
0.0
 10
12.633493561
 20
8.9697145498
 30
0.0
 10
12.6345055198
 20
8.9967491653
 30
0.0
 10
12.6360812266
 20
9.0239364374
 30
0.0
 10
12.6382102434
 20
9.0510958423
 30
0.0
 10
12.6408784012
 20
9.078047043
 30
0.0
 10
12.644067915
 20
9.1046110895
 30
0.0
 10
12.6477574615
 20
9.1306116895
 30
0.0
 10
12.6519223644
 20
9.1558761721
 30
0.0
 10
12.6558022831
 20
9.1763695357
 30
0.0
 10
12.6591310755
 20
9.1922647254
 30
0.0
 10
12.6617043249
 20
9.203784561
 30
0.0
 10
12.664373897
 20
9.2149985099
 30
0.0
 10
12.6671353834
 20
9.2258879648
 30
0.0
 10
12.6699841471
 20
9.2364348537
 30
0.0
 10
12.6729154435
 20
9.2466216783
 30
0.0
 10
12.6759243962
 20
9.2564315436
 30
0.0
 10
12.6790059577
 20
9.2658482011
 30
0.0
 10
12.6821550013
 20
9.2748560578
 30
0.0
 10
12.6853662828
 20
9.2834402161
 30
0.0
 10
12.6886344225
 20
9.2915865131
 30
0.0
 10
12.6919540034
 20
9.2992815224
 30
0.0
 10
12.6953195112
 20
9.3065126025
 30
0.0
 10
12.69872535
 20
9.3132679344
 30
0.0
 10
12.7021659465
 20
9.3195365142
 30
0.0
 10
12.705635698
 20
9.3253082106
 30
0.0
 10
12.7091289636
 20
9.3305737639
 30
0.0
 10
12.7126404543
 20
9.3353249887
 30
0.0
 10
12.7161645007
 20
9.3395539658
 30
0.0
 10
12.7186071441
 20
9.3421132836
 30
0.0
 10
12.7198310349
 20
9.3432954714
 30
0.0
  0
SPLINE
  5
382
100
AcDbEntity
  8
0
100
AcDbSpline
 62
7
  6
CONTINUOUS
 70
0
 71
3
 72
21
 73
17
 74
0
 42
0.0000001
 43
0.0000001
 44
0.0000000001
 40
0.0
 40
0.0
 40
0.0
 40
0.0
 40
0.1273175725
 40
0.2538000026
 40
0.3167619332
 40
0.3795354925
 40
0.4421314982
 40
0.5045621433
 40
0.5668413429
 40
0.6289845306
 40
0.6910084612
 40
0.7529311022
 40
0.8147714553
 40
0.8765493457
 40
0.9382852283
 40
1.0
 40
1.0
 40
1.0
 40
1.0
 10
10.0587422055
 20
7.0105906583
 30
0.0
 10
10.0587422055
 20
7.0170889846
 30
0.0
 10
10.0593625129
 20
7.030051375
 30
0.0
 10
10.061705192
 20
7.0460756919
 30
0.0
 10
10.0645052317
 20
7.0586453712
 30
0.0
 10
10.0670587191
 20
7.0679167678
 30
0.0
 10
10.070062705
 20
7.0770234371
 30
0.0
 10
10.0735103403
 20
7.0859446162
 30
0.0
 10
10.0773936448
 20
7.0946596788
 30
0.0
 10
10.0817036871
 20
7.1031485425
 30
0.0
 10
10.0864305809
 20
7.1113915984
 30
0.0
 10
10.0915634097
 20
7.1193698516
 30
0.0
 10
10.0970903175
 20
7.1270648894
 30
0.0
 10
10.1029986578
 20
7.1344589992
 30
0.0
 10
10.1092745749
 20
7.1415348858
 30
0.0
 10
10.1136947251
 20
7.146029972
 30
0.0
 10
10.115960328
 20
7.1482183883
 30
0.0
  0
SPLINE
  5
383
100
AcDbEntity
  8
0
100
AcDbSpline
 62
7
  6
CONTINUOUS
 70
0
 71
3
 72
91
 73
87
 74
0
 42
0.0000001
 43
0.0000001
 44
0.0000000001
 40
0.0
 40
0.0
 40
0.0
 40
0.0
 40
0.0039801824
 40
0.0081241125
 40
0.0124359604
 40
0.0169193082
 40
0.0215771808
 40
0.0264119179
 40
0.0314251804
 40
0.036618156
 40
0.0419915391
 40
0.0475456573
 40
0.0532804234
 40
0.0591954189
 40
0.0652899227
 40
0.0715629017
 40
0.0780131034
 40
0.0846389837
 40
0.0984102885
 40
0.1128608532
 40
0.1279713725
 40
0.1437199568
 40
0.1600824082
 40
0.1770324532
 40
0.1945419392
 40
0.2125810061
 40
0.2311182422
 40
0.2501208275
 40
0.2695546626
 40
0.2893844909
 40
0.3095740146
 40
0.330086005
 40
0.35088241
 40
0.3719244606
 40
0.3931727759
 40
0.4145874652
 40
0.4361282289
 40
0.4577544586
 40
0.4794253371
 40
0.501099938
 40
0.5227373261
 40
0.5442966575
 40
0.5657372785
 40
0.5870188258
 40
0.6081013261
 40
0.6289452975
 40
0.6495118524
 40
0.6697628021
 40
0.6896607608
 40
0.7091692527
 40
0.7282528228
 40
0.7468771515
 40
0.7650091753
 40
0.7826172172
 40
0.7996711268
 40
0.8161424293
 40
0.8320044948
 40
0.8472327309
 40
0.8618048077
 40
0.8757009255
 40
0.8889041429
 40
0.8952417292
 40
0.9014012652
 40
0.9073816417
 40
0.9131820083
 40
0.9188018518
 40
0.9242409423
 40
0.9294994633
 40
0.9345779585
 40
0.9394774438
 40
0.944199427
 40
0.9487459568
 40
0.95311974
 40
0.9573241405
 40
0.9613633601
 40
0.9652424499
 40
0.9689674846
 40
0.9725456466
 40
0.9759853437
 40
0.9824865016
 40
0.9855753543
 40
0.9885738189
 40
0.9914977372
 40
0.9943643366
 40
0.9971920099
 40
1.0
 40
1.0
 40
1.0
 40
1.0
 10
10.0635348559
 20
10.7127013312
 30
0.0
 10
10.0648360878
 20
10.7139582247
 30
0.0
 10
10.0675511772
 20
10.7164631222
 30
0.0
 10
10.0718619042
 20
10.7201217136
 30
0.0
 10
10.0764891839
 20
10.7237540614
 30
0.0
 10
10.0814304778
 20
10.7273582371
 30
0.0
 10
10.0866833769
 20
10.7309325574
 30
0.0
 10
10.0922453073
 20
10.7344752834
 30
0.0
 10
10.0981134873
 20
10.7379847164
 30
0.0
 10
10.1042850054
 20
10.7414590353
 30
0.0
 10
10.110756745
 20
10.7448965724
 30
0.0
 10
10.117525489
 20
10.7482955592
 30
0.0
 10
10.124587834
 20
10.751654324
 30
0.0
 10
10.1319402374
 20
10.7549711694
 30
0.0
 10
10.1395790084
 20
10.758244405
 30
0.0
 10
10.1475002915
 20
10.7614724137
 30
0.0
 10
10.1557001205
 20
10.7646535358
 30
0.0
 10
10.1671466328
 20
10.7688848758
 30
0.0
 10
10.1821283333
 20
10.7740344986
 30
0.0
 10
10.200925174
 20
10.7799253565
 30
0.0
 10
10.2207271305
 20
10.7855923394
 30
0.0
 10
10.2414942305
 20
10.7910239199
 30
0.0
 10
10.263184703
 20
10.796209034
 30
0.0
 10
10.2857548061
 20
10.8011371191
 30
0.0
 10
10.3091589998
 20
10.8057981339
 30
0.0
 10
10.3333500223
 20
10.8101825858
 30
0.0
 10
10.3582789987
 20
10.8142815468
 30
0.0
 10
10.3838955445
 20
10.8180866719
 30
0.0
 10
10.4101478714
 20
10.8215902154
 30
0.0
 10
10.4369828946
 20
10.824785047
 30
0.0
 10
10.4643463416
 20
10.8276646654
 30
0.0
 10
10.4921828629
 20
10.8302232107
 30
0.0
 10
10.5204361444
 20
10.8324554797
 30
0.0
 10
10.549049024
 20
10.834356934
 30
0.0
 10
10.5779636084
 20
10.8359237078
 30
0.0
 10
10.6071213918
 20
10.8371526159
 30
0.0
 10
10.6364633746
 20
10.8380411594
 30
0.0
 10
10.6659301823
 20
10.8385875315
 30
0.0
 10
10.6954621866
 20
10.8387906197
 30
0.0
 10
10.724999626
 20
10.8386500115
 30
0.0
 10
10.7544827285
 20
10.8381659941
 30
0.0
 10
10.7838518328
 20
10.8373395523
 30
0.0
 10
10.8130475098
 20
10.8361723662
 30
0.0
 10
10.8420106821
 20
10.8346668086
 30
0.0
 10
10.8706827447
 20
10.8328259397
 30
0.0
 10
10.8990056835
 20
10.8306535013
 30
0.0
 10
10.9269221951
 20
10.8281539108
 30
0.0
 10
10.9543758041
 20
10.8253322541
 30
0.0
 10
10.9813109779
 20
10.8221942716
 30
0.0
 10
11.0076732393
 20
10.8187463483
 30
0.0
 10
11.0334092785
 20
10.8149955007
 30
0.0
 10
11.058467062
 20
10.8109493631
 30
0.0
 10
11.0827959412
 20
10.8066161718
 30
0.0
 10
11.1063467596
 20
10.8020047506
 30
0.0
 10
11.1290719585
 20
10.7971244937
 30
0.0
 10
11.1509256742
 20
10.7919853436
 30
0.0
 10
11.1718638445
 20
10.7865977693
 30
0.0
 10
11.1918442802
 20
10.780972744
 30
0.0
 10
11.2108268506
 20
10.7751217166
 30
0.0
 10
11.228773272
 20
10.769056585
 30
0.0
 10
11.2430234131
 20
10.7637644502
 30
0.0
 10
11.2538692398
 20
10.7594235983
 30
0.0
 10
11.2616112031
 20
10.7561665959
 30
0.0
 10
11.2690681796
 20
10.7528654306
 30
0.0
 10
11.2762364191
 20
10.7495217031
 30
0.0
 10
11.2831123354
 20
10.7461371574
 30
0.0
 10
11.2896924595
 20
10.7427134295
 30
0.0
 10
11.2959735159
 20
10.7392522933
 30
0.0
 10
11.3019523483
 20
10.7357554334
 30
0.0
 10
11.307625978
 20
10.7322246061
 30
0.0
 10
11.312991584
 20
10.7286615665
 30
0.0
 10
11.3180464747
 20
10.7250680246
 30
0.0
 10
11.3227881711
 20
10.72144579
 30
0.0
 10
11.327214273
 20
10.7177965332
 30
0.0
 10
11.3313226126
 20
10.7141220688
 30
0.0
 10
11.3351111183
 20
10.7104240338
 30
0.0
 10
11.338577803
 20
10.7067042905
 30
0.0
 10
11.3417211703
 20
10.7029640922
 30
0.0
 10
11.3454086371
 20
10.6980461627
 30
0.0
 10
11.3485398967
 20
10.6929956746
 30
0.0
 10
11.3510259807
 20
10.6878373459
 30
0.0
 10
11.3525280615
 20
10.6840223768
 30
0.0
 10
11.3536977866
 20
10.6801981253
 30
0.0
 10
11.3545341968
 20
10.6763664489
 30
0.0
 10
11.3550363679
 20
10.6725300793
 30
0.0
 10
11.3551481616
 20
10.6699670839
 30
0.0
 10
11.3551481614
 20
10.668690749
 30
0.0
  0
SPLINE
  5
384
100
AcDbEntity
  8
0
100
AcDbSpline
 62
7
  6
CONTINUOUS
 70
0
 71
3
 72
64
 73
60
 74
0
 42
0.0000001
 43
0.0000001
 44
0.0000000001
 40
0.0
 40
0.0
 40
0.0
 40
0.0
 40
0.0155849423
 40
0.031117901
 40
0.0465980248
 40
0.0620275802
 40
0.0774080885
 40
0.092741825
 40
0.1080315843
 40
0.1232805473
 40
0.1384923382
 40
0.1536709665
 40
0.1688207867
 40
0.1839464552
 40
0.1990528834
 40
0.2141451895
 40
0.2292286421
 40
0.2443086021
 40
0.2593904681
 40
0.27447962
 40
0.2895813603
 40
0.3047008548
 40
0.3198430804
 40
0.3350127757
 40
0.3502143898
 40
0.3654520353
 40
0.3807294495
 40
0.3960499624
 40
0.4114164624
 40
0.426831368
 40
0.4422966121
 40
0.4578136293
 40
0.4733833427
 40
0.4890061576
 40
0.5046819692
 40
0.520410168
 40
0.5361896463
 40
0.552018813
 40
0.5678956195
 40
0.5838175796
 40
0.5997817917
 40
0.6157849717
 40
0.6318234885
 40
0.6478933955
 40
0.6801016685
 40
0.7123819661
 40
0.7446952952
 40
0.7770015176
 40
0.8092607375
 40
0.8414347007
 40
0.8734881382
 40
0.8894641594
 40
0.9053988579
 40
0.9212891999
 40
0.9371326152
 40
0.9529269152
 40
0.9686701087
 40
0.9843619314
 40
1.0
 40
1.0
 40
1.0
 40
1.0
 10
10.7682865997
 20
7.6335490712
 30
0.0
 10
10.7682865997
 20
7.6293684077
 30
0.0
 10
10.768081975
 20
7.6210195439
 30
0.0
 10
10.7671584528
 20
7.6085488854
 30
0.0
 10
10.7656208234
 20
7.5961806105
 30
0.0
 10
10.7634729621
 20
7.5839451408
 30
0.0
 10
10.7607198759
 20
7.5718716874
 30
0.0
 10
10.7573682318
 20
7.5599894354
 30
0.0
 10
10.7534260941
 20
7.5483270121
 30
0.0
 10
10.7489028962
 20
7.5369125487
 30
0.0
 10
10.7438095219
 20
7.5257735786
 30
0.0
 10
10.7381582586
 20
7.5149369541
 30
0.0
 10
10.7319627099
 20
7.5044288142
 30
0.0
 10
10.7252377681
 20
7.4942745295
 30
0.0
 10
10.7179996546
 20
7.4844985902
 30
0.0
 10
10.7102658353
 20
7.4751245663
 30
0.0
 10
10.7020549485
 20
7.466175077
 30
0.0
 10
10.6933867689
 20
7.4576717386
 30
0.0
 10
10.6842822296
 20
7.4496350399
 30
0.0
 10
10.6747633008
 20
7.4420843512
 30
0.0
 10
10.6648529334
 20
7.4350378925
 30
0.0
 10
10.6545750231
 20
7.428512673
 30
0.0
 10
10.6439543879
 20
7.4225243852
 30
0.0
 10
10.6330166494
 20
7.4170874482
 30
0.0
 10
10.6217881783
 20
7.412214979
 30
0.0
 10
10.610296057
 20
7.4079187121
 30
0.0
 10
10.5985680138
 20
7.4042089481
 30
0.0
 10
10.5866323258
 20
7.401094603
 30
0.0
 10
10.574517761
 20
7.3985831905
 30
0.0
 10
10.5622535277
 20
7.3966807211
 30
0.0
 10
10.5498691888
 20
7.3953917229
 30
0.0
 10
10.5373945844
 20
7.3947192778
 30
0.0
 10
10.5248597702
 20
7.3946650121
 30
0.0
 10
10.5122949455
 20
7.3952289961
 30
0.0
 10
10.4997303728
 20
7.3964098259
 30
0.0
 10
10.4871963113
 20
7.3982046444
 30
0.0
 10
10.4747229496
 20
7.4006091297
 30
0.0
 10
10.4623403159
 20
7.4036174287
 30
0.0
 10
10.4500782165
 20
7.4072222679
 30
0.0
 10
10.4379661818
 20
7.411414966
 30
0.0
 10
10.4260333529
 20
7.4161854337
 30
0.0
 10
10.4143085167
 20
7.4215220792
 30
0.0
 10
10.4028196031
 20
7.4274122476
 30
0.0
 10
10.3878439963
 20
7.4359896071
 30
0.0
 10
10.3698542496
 20
7.448022935
 30
0.0
 10
10.3496597287
 20
7.4644034302
 30
0.0
 10
10.3310290348
 20
7.4825819463
 30
0.0
 10
10.3141423082
 20
7.5023831278
 30
0.0
 10
10.2991612269
 20
7.5236175234
 30
0.0
 10
10.2862304297
 20
7.5460799489
 30
0.0
 10
10.2772547459
 20
7.5656701999
 30
0.0
 10
10.2712176409
 20
7.5817369871
 30
0.0
 10
10.2672745836
 20
7.5939435357
 30
0.0
 10
10.2639218044
 20
7.6062881267
 30
0.0
 10
10.2611672497
 20
7.6187413804
 30
0.0
 10
10.2590176807
 20
7.6312731471
 30
0.0
 10
10.2574781519
 20
7.6438535581
 30
0.0
 10
10.2565525999
 20
7.6564516896
 30
0.0
 10
10.2563458814
 20
7.6648573659
 30
0.0
 10
10.2563458814
 20
7.6690522806
 30
0.0
  0
SPLINE
  5
385
100
AcDbEntity
  8
0
100
AcDbSpline
 62
7
  6
CONTINUOUS
 70
0
 71
3
 72
44
 73
40
 74
0
 42
0.0000001
 43
0.0000001
 44
0.0000000001
 40
0.0
 40
0.0
 40
0.0
 40
0.0
 40
0.0149722236
 40
0.0299475067
 40
0.0449288886
 40
0.0599193736
 40
0.0749219097
 40
0.08993937
 40
0.1049745397
 40
0.1200300961
 40
0.1351085917
 40
0.1502124449
 40
0.1804994096
 40
0.2109128633
 40
0.2414659442
 40
0.2721685685
 40
0.3030272475
 40
0.3340449904
 40
0.3652212956
 40
0.396552213
 40
0.4280304762
 40
0.4596457066
 40
0.4913846713
 40
0.5232315866
 40
0.555168468
 40
0.587175515
 40
0.6192315195
 40
0.6513142962
 40
0.6834011282
 40
0.7154692177
 40
0.7474961397
 40
0.7794602892
 40
0.8113413161
 40
0.8431205468
 40
0.8747813742
 40
0.9063096205
 40
0.9376938957
 40
0.9689255646
 40
1.0
 40
1.0
 40
1.0
 40
1.0
 10
10.8097227809
 20
7.3268289108
 30
0.0
 10
10.8060727067
 20
7.3233032066
 30
0.0
 10
10.7986307998
 20
7.3163953988
 30
0.0
 10
10.7870637428
 20
7.3064843895
 30
0.0
 10
10.775107215
 20
7.2970365134
 30
0.0
 10
10.7627779139
 20
7.2880649678
 30
0.0
 10
10.7500927052
 20
7.2795820945
 30
0.0
 10
10.7370691031
 20
7.2715995345
 30
0.0
 10
10.7237250089
 20
7.2641282488
 30
0.0
 10
10.7100788357
 20
7.2571785926
 30
0.0
 10
10.6961491094
 20
7.250759978
 30
0.0
 10
10.677209115
 20
7.2429154711
 30
0.0
 10
10.6529096433
 20
7.2344801336
 30
0.0
 10
10.6229643446
 20
7.2266186846
 30
0.0
 10
10.5923655906
 20
7.2210493618
 30
0.0
 10
10.5612829911
 20
7.21780297
 30
0.0
 10
10.5298872818
 20
7.2168968281
 30
0.0
 10
10.4983512158
 20
7.2183355118
 30
0.0
 10
10.4668481191
 20
7.2221107258
 30
0.0
 10
10.4355510956
 20
7.2282013911
 30
0.0
 10
10.4046320271
 20
7.2365736619
 30
0.0
 10
10.3742606661
 20
7.2471812459
 30
0.0
 10
10.3446037336
 20
7.2599656671
 30
0.0
 10
10.3158239755
 20
7.2748564847
 30
0.0
 10
10.2880792972
 20
7.2917717486
 30
0.0
 10
10.261521943
 20
7.3106184933
 30
0.0
 10
10.2362976369
 20
7.3312931764
 30
0.0
 10
10.2125447655
 20
7.353682228
 30
0.0
 10
10.1903936916
 20
7.3776627472
 30
0.0
 10
10.1699660387
 20
7.4031031411
 30
0.0
 10
10.1513739468
 20
7.4298637764
 30
0.0
 10
10.1347195448
 20
7.4577978135
 30
0.0
 10
10.1200944158
 20
7.4867520035
 30
0.0
 10
10.1075790005
 20
7.5165674444
 30
0.0
 10
10.0972421993
 20
7.547080551
 30
0.0
 10
10.0891410429
 20
7.5781236962
 30
0.0
 10
10.0833203784
 20
7.609527007
 30
0.0
 10
10.0798123642
 20
7.6411158024
 30
0.0
 10
10.079026649
 20
7.6622424299
 30
0.0
 10
10.079026649
 20
7.6727750443
 30
0.0
  0
SPLINE
  5
386
100
AcDbEntity
  8
0
100
AcDbSpline
 62
7
  6
CONTINUOUS
 70
0
 71
3
 72
39
 73
35
 74
0
 42
0.0000001
 43
0.0000001
 44
0.0000000001
 40
0.0
 40
0.0
 40
0.0
 40
0.0
 40
0.0299337048
 40
0.0599001886
 40
0.089922317
 40
0.1200216387
 40
0.1502178894
 40
0.1805285485
 40
0.2109684575
 40
0.2415495158
 40
0.2722804546
 40
0.3031666873
 40
0.3342102381
 40
0.3654097519
 40
0.3967605748
 40
0.4282548964
 40
0.4598819527
 40
0.4916282854
 40
0.5234780426
 40
0.5554133172
 40
0.5874145164
 40
0.6194607586
 40
0.6515302853
 40
0.683600886
 40
0.7156503294
 40
0.7476567948
 40
0.7795992972
 40
0.811458103
 40
0.8432151267
 40
0.8748543016
 40
0.9063619201
 40
0.9377270001
 40
0.9689411653
 40
1.0
 40
1.0
 40
1.0
 40
1.0
 10
10.8096055878
 20
7.3269562177
 30
0.0
 10
10.8021846846
 20
7.3202072357
 30
0.0
 10
10.7867970561
 20
7.3072798773
 30
0.0
 10
10.7622527206
 20
7.289748241
 30
0.0
 10
10.736364425
 20
7.2741586724
 30
0.0
 10
10.7092734438
 20
7.260596531
 30
0.0
 10
10.6811251851
 20
7.2491341345
 30
0.0
 10
10.6520713112
 20
7.2398330119
 30
0.0
 10
10.6222681462
 20
7.2327427953
 30
0.0
 10
10.5918759976
 20
7.2279012368
 30
0.0
 10
10.5610582349
 20
7.2253339859
 30
0.0
 10
10.5299804327
 20
7.2250544771
 30
0.0
 10
10.4988094774
 20
7.2270637976
 30
0.0
 10
10.4677126691
 20
7.2313507897
 30
0.0
 10
10.436856842
 20
7.2378921251
 30
0.0
 10
10.4064074815
 20
7.2466524161
 30
0.0
 10
10.3765278285
 20
7.2575843648
 30
0.0
 10
10.3473780352
 20
7.2706291043
 30
0.0
 10
10.3191143269
 20
7.2857165116
 30
0.0
 10
10.2918881604
 20
7.302765544
 30
0.0
 10
10.2658454039
 20
7.3216846574
 30
0.0
 10
10.2411256002
 20
7.3423723533
 30
0.0
 10
10.2178612352
 20
7.3647177134
 30
0.0
 10
10.1961769959
 20
7.3886009413
 30
0.0
 10
10.1761891085
 20
7.4138940122
 30
0.0
 10
10.1580047603
 20
7.4404613862
 30
0.0
 10
10.1417215368
 20
7.4681607186
 30
0.0
 10
10.1274268379
 20
7.4968435784
 30
0.0
 10
10.1151974406
 20
7.5263562431
 30
0.0
 10
10.1050991235
 20
7.5565405927
 30
0.0
 10
10.0971862955
 20
7.5872346928
 30
0.0
 10
10.0915017069
 20
7.6182745007
 30
0.0
 10
10.0880760322
 20
7.6494914175
 30
0.0
 10
10.0873088518
 20
7.6703671233
 30
0.0
 10
10.0873088518
 20
7.6807750384
 30
0.0
  0
SPLINE
  5
387
100
AcDbEntity
  8
0
100
AcDbSpline
 62
7
  6
CONTINUOUS
 70
0
 71
3
 72
11
 73
7
 74
0
 42
0.0000001
 43
0.0000001
 44
0.0000000001
 40
0.0
 40
0.0
 40
0.0
 40
0.0
 40
0.248073658
 40
0.4974340383
 40
0.7480845215
 40
1.0
 40
1.0
 40
1.0
 40
1.0
 10
10.6911035603
 20
7.5644984911
 30
0.0
 10
10.6854912034
 20
7.5640413407
 30
0.0
 10
10.6741979189
 20
7.5635535357
 30
0.0
 10
10.6572108806
 20
7.5640991379
 30
0.0
 10
10.6402249479
 20
7.5659161065
 30
0.0
 10
10.6289904292
 20
7.5679638961
 30
0.0
 10
10.6234060121
 20
7.5691933321
 30
0.0
  0
SPLINE
  5
388
100
AcDbEntity
  8
0
100
AcDbSpline
 62
7
  6
CONTINUOUS
 70
0
 71
3
 72
41
 73
37
 74
0
 42
0.0000001
 43
0.0000001
 44
0.0000000001
 40
0.0
 40
0.0
 40
0.0
 40
0.0
 40
0.0299421703
 40
0.0599087166
 40
0.0899234211
 40
0.1200088977
 40
0.150186053
 40
0.1804736004
 40
0.2108876395
 40
0.2414413098
 40
0.2721445264
 40
0.3030038
 40
0.3340221415
 40
0.3651990482
 40
0.3965305685
 40
0.4280094374
 40
0.4596252765
 40
0.4913648514
 40
0.5232123788
 40
0.5551498746
 40
0.5871575376
 40
0.6192141589
 40
0.6512975532
 40
0.6833850026
 40
0.7154537088
 40
0.731476412
 40
0.7474860771
 40
0.7794508401
 40
0.8113324799
 40
0.8431123195
 40
0.8747737613
 40
0.9063025943
 40
0.937687506
 40
0.953325536
 40
0.9689249997
 40
1.0
 40
1.0
 40
1.0
 40
1.0
 10
10.6833462542
 20
7.48977585
 30
0.0
 10
10.6794476724
 20
7.4860101292
 30
0.0
 10
10.6713439875
 20
7.4787825646
 30
0.0
 10
10.6583605962
 20
7.4689363108
 30
0.0
 10
10.6446157361
 20
7.4601343932
 30
0.0
 10
10.6301861985
 20
7.4524261972
 30
0.0
 10
10.6151513178
 20
7.4458538321
 30
0.0
 10
10.5995940689
 20
7.4404534272
 30
0.0
 10
10.5836001813
 20
7.436254531
 30
0.0
 10
10.5672577697
 20
7.4332800687
 30
0.0
 10
10.5506568125
 20
7.4315461989
 30
0.0
 10
10.533888662
 20
7.4310622438
 30
0.0
 10
10.5170455392
 20
7.4318306467
 30
0.0
 10
10.50022003
 20
7.4338469729
 30
0.0
 10
10.4835045803
 20
7.437099943
 30
0.0
 10
10.4669909945
 20
7.4415715036
 30
0.0
 10
10.4507699379
 20
7.4472369311
 30
0.0
 10
10.4349304462
 20
7.4540649725
 30
0.0
 10
10.4195594436
 20
7.4620180192
 30
0.0
 10
10.4047412742
 20
7.4710523115
 30
0.0
 10
10.3905572368
 20
7.4811181915
 30
0.0
 10
10.377085179
 20
7.4921603248
 30
0.0
 10
10.3643989454
 20
7.5041181874
 30
0.0
 10
10.3525684615
 20
7.516925702
 30
0.0
 10
10.3434731007
 20
7.5282530741
 30
0.0
 10
10.3366871121
 20
7.537668393
 30
0.0
 10
10.3302425607
 20
7.5472979814
 30
0.0
 10
10.3228331393
 20
7.5597255271
 30
0.0
 10
10.315022177
 20
7.5751894289
 30
0.0
 10
10.3083377584
 20
7.5911136283
 30
0.0
 10
10.3028169817
 20
7.6074104536
 30
0.0
 10
10.2984902596
 20
7.6239900314
 30
0.0
 10
10.2958963033
 20
7.6379849978
 30
0.0
 10
10.2944411614
 20
7.6492297671
 30
0.0
 10
10.2934026679
 20
7.6604637816
 30
0.0
 10
10.2930882229
 20
7.6689172935
 30
0.0
 10
10.2930882229
 20
7.6745426592
 30
0.0
  0
SPLINE
  5
389
100
AcDbEntity
  8
0
100
AcDbSpline
 62
7
  6
CONTINUOUS
 70
0
 71
3
 72
23
 73
19
 74
0
 42
0.0000001
 43
0.0000001
 44
0.0000000001
 40
0.0
 40
0.0
 40
0.0
 40
0.0
 40
0.061689847
 40
0.1234110747
 40
0.1851828804
 40
0.247023984
 40
0.3089524534
 40
0.3709855351
 40
0.4331394952
 40
0.4954294722
 40
0.5578693431
 40
0.6204716283
 40
0.6832473346
 40
0.7462059129
 40
0.8093553883
 40
0.8727009797
 40
0.936249534
 40
1.0
 40
1.0
 40
1.0
 40
1.0
 10
10.1984727073
 20
7.959655244
 30
0.0
 10
10.194054023
 20
7.9551227742
 30
0.0
 10
10.1854376497
 20
7.9458347598
 30
0.0
 10
10.1732157228
 20
7.9312759307
 30
0.0
 10
10.1617190348
 20
7.9161177971
 30
0.0
 10
10.1509726144
 20
7.9003932626
 30
0.0
 10
10.1409993354
 20
7.8841358881
 30
0.0
 10
10.1318205653
 20
7.8673805174
 30
0.0
 10
10.1234559393
 20
7.8501630147
 30
0.0
 10
10.1159233305
 20
7.832520256
 30
0.0
 10
10.1092388183
 20
7.81449002
 30
0.0
 10
10.1034166786
 20
7.7961109052
 30
0.0
 10
10.0984693418
 20
7.7774222555
 30
0.0
 10
10.0944073614
 20
7.7584640387
 30
0.0
 10
10.0912394356
 20
7.7392769333
 30
0.0
 10
10.088972158
 20
7.7199016847
 30
0.0
 10
10.0876105494
 20
7.7003804905
 30
0.0
 10
10.0873088518
 20
7.6873164096
 30
0.0
 10
10.0873088518
 20
7.6807750384
 30
0.0
  0
SPLINE
  5
38A
100
AcDbEntity
  8
0
100
AcDbSpline
 62
7
  6
CONTINUOUS
 70
0
 71
3
 72
21
 73
17
 74
0
 42
0.0000001
 43
0.0000001
 44
0.0000000001
 40
0.0
 40
0.0
 40
0.0
 40
0.0
 40
0.0617147758
 40
0.1234506606
 40
0.1852285516
 40
0.2470689039
 40
0.3089915432
 40
0.3710154715
 40
0.4331586565
 40
0.4954378534
 40
0.5578684959
 40
0.6204644995
 40
0.6832380575
 40
0.7461999878
 40
0.87268242
 40
1.0
 40
1.0
 40
1.0
 40
1.0
 10
10.3568153568
 20
7.8278254902
 30
0.0
 10
10.3542920255
 20
7.8253881523
 30
0.0
 10
10.3493690515
 20
7.8203817697
 30
0.0
 10
10.3423792025
 20
7.8125010258
 30
0.0
 10
10.3357987439
 20
7.8042658565
 30
0.0
 10
10.3296431078
 20
7.7956955244
 30
0.0
 10
10.3239263795
 20
7.7868097571
 30
0.0
 10
10.3186617639
 20
7.777629062
 30
0.0
 10
10.3138614194
 20
7.768174595
 30
0.0
 10
10.3095363573
 20
7.7584681958
 30
0.0
 10
10.3056965249
 20
7.7485322312
 30
0.0
 10
10.3023508105
 20
7.7383896744
 30
0.0
 10
10.2995068424
 20
7.7280636502
 30
0.0
 10
10.2963882745
 20
7.7140641587
 30
0.0
 10
10.2937790956
 20
7.6962170576
 30
0.0
 10
10.2930882229
 20
7.6817801786
 30
0.0
 10
10.2930882229
 20
7.6745426592
 30
0.0
  0
SPLINE
  5
38B
100
AcDbEntity
  8
0
100
AcDbSpline
 62
7
  6
CONTINUOUS
 70
0
 71
3
 72
41
 73
37
 74
0
 42
0.0000001
 43
0.0000001
 44
0.0000000001
 40
0.0
 40
0.0
 40
0.0
 40
0.0
 40
0.0299421722
 40
0.0599087187
 40
0.0899234222
 40
0.1200088965
 40
0.1501860486
 40
0.1804735921
 40
0.2108876267
 40
0.2414412921
 40
0.2721445039
 40
0.3030037728
 40
0.3340221097
 40
0.3651990124
 40
0.3965305293
 40
0.4280093954
 40
0.4596252325
 40
0.4913648061
 40
0.523212333
 40
0.5551498293
 40
0.5871574933
 40
0.6192141165
 40
0.6512975132
 40
0.6833849656
 40
0.7154536753
 40
0.7314763803
 40
0.7474860474
 40
0.7794508144
 40
0.8113324582
 40
0.8431123019
 40
0.8747737477
 40
0.9063025846
 40
0.9376874998
 40
0.9533255315
 40
0.9689249968
 40
1.0
 40
1.0
 40
1.0
 40
1.0
 10
11.4958114247
 20
9.9085928706
 30
0.0
 10
11.4923110068
 20
9.9052117082
 30
0.0
 10
11.4850349515
 20
9.8987222261
 30
0.0
 10
11.473377545
 20
9.8898814696
 30
0.0
 10
11.4610364296
 20
9.8819783949
 30
0.0
 10
11.4480805544
 20
9.8750573441
 30
0.0
 10
11.4345811517
 20
9.8691561267
 30
0.0
 10
11.4206127228
 20
9.8643071828
 30
0.0
 10
11.4062522422
 20
9.8605370435
 30
0.0
 10
11.3915788259
 20
9.8578662932
 30
0.0
 10
11.3766732636
 20
9.8563094407
 30
0.0
 10
11.3616175784
 20
9.8558748566
 30
0.0
 10
11.3464945737
 20
9.8565647349
 30
0.0
 10
11.33138738
 20
9.8583750939
 30
0.0
 10
11.3163790026
 20
9.8612958067
 30
0.0
 10
11.3015518707
 20
9.8653106635
 30
0.0
 10
11.2869873907
 20
9.8703974659
 30
0.0
 10
11.272765506
 20
9.8765281525
 30
0.0
 10
11.2589642638
 20
9.8836689559
 30
0.0
 10
11.245659395
 20
9.8917805851
 30
0.0
 10
11.2329238961
 20
9.9008184538
 30
0.0
 10
11.2208276648
 20
9.9107328783
 30
0.0
 10
11.2094370046
 20
9.9214695158
 30
0.0
 10
11.1988147003
 20
9.932969037
 30
0.0
 10
11.190648196
 20
9.9431395814
 30
0.0
 10
11.1845552207
 20
9.9515933461
 30
0.0
 10
11.1787688134
 20
9.9602394986
 30
0.0
 10
11.1721160722
 20
9.9713978648
 30
0.0
 10
11.1651027968
 20
9.9852824976
 30
0.0
 10
11.1591010176
 20
9.9995804216
 30
0.0
 10
11.1541440445
 20
10.0142129183
 30
0.0
 10
11.1502591841
 20
10.0290992925
 30
0.0
 10
11.1479301328
 20
10.0416650116
 30
0.0
 10
11.1466235956
 20
10.0517614002
 30
0.0
 10
11.1456911571
 20
10.0618481322
 30
0.0
 10
11.1454088244
 20
10.0694383228
 30
0.0
 10
11.1454088244
 20
10.0744891937
 30
0.0
  0
SPLINE
  5
38C
100
AcDbEntity
  8
0
100
AcDbSpline
 62
7
  6
CONTINUOUS
 70
0
 71
3
 72
18
 73
14
 74
0
 42
0.0000001
 43
0.0000001
 44
0.0000000001
 40
0.0
 40
0.0
 40
0.0
 40
0.0
 40
0.1504683897
 40
0.2917144302
 40
0.4244424337
 40
0.4879098403
 40
0.5496094316
 40
0.6682625858
 40
0.7817882724
 40
0.8371379912
 40
0.8918078094
 40
0.9460192717
 40
1.0
 40
1.0
 40
1.0
 40
1.0
 10
12.7507406639
 20
8.5587519157
 30
0.0
 10
12.749397786
 20
8.5574547952
 30
0.0
 10
12.7467138592
 20
8.5550210226
 30
0.0
 10
12.7425580789
 20
8.5517777318
 30
0.0
 10
12.7390478207
 20
8.5494839041
 30
0.0
 10
12.7362486946
 20
8.5479305987
 30
0.0
 10
12.7335319178
 20
8.5465970337
 30
0.0
 10
12.730135085
 20
8.5452495164
 30
0.0
 10
12.7266778289
 20
8.5443299676
 30
0.0
 10
12.72393958
 20
8.543876985
 30
0.0
 10
12.7219101579
 20
8.5436759543
 30
0.0
 10
12.7198889464
 20
8.5436110307
 30
0.0
 10
12.7185461031
 20
8.5436585361
 30
0.0
 10
12.7178779048
 20
8.5437048794
 30
0.0
  0
SPLINE
  5
38D
100
AcDbEntity
  8
0
100
AcDbSpline
 62
7
  6
CONTINUOUS
 70
0
 71
3
 72
18
 73
14
 74
0
 42
0.0000001
 43
0.0000001
 44
0.0000000001
 40
0.0
 40
0.0
 40
0.0
 40
0.0
 40
0.0548620589
 40
0.1099280789
 40
0.165399508
 40
0.2214731255
 40
0.2783387361
 40
0.3361775086
 40
0.4554063416
 40
0.5804417492
 40
0.7123343341
 40
0.8519577333
 40
1.0
 40
1.0
 40
1.0
 40
1.0
 10
10.0411481614
 20
10.6686907489
 30
0.0
 10
10.0411481615
 20
10.6696186162
 30
0.0
 10
10.0412070637
 20
10.6714783332
 30
0.0
 10
10.0414718663
 20
10.674264883
 30
0.0
 10
10.0419130533
 20
10.6770498271
 30
0.0
 10
10.0425304791
 20
10.6798321482
 30
0.0
 10
10.0433239044
 20
10.682611144
 30
0.0
 10
10.0446289115
 20
10.6863481483
 30
0.0
 10
10.0467195107
 20
10.6910221402
 30
0.0
 10
10.0499015331
 20
10.6965421425
 30
0.0
 10
10.0537770639
 20
10.7020264152
 30
0.0
 10
10.0583402067
 20
10.7074694541
 30
0.0
 10
10.0617339869
 20
10.7109618251
 30
0.0
 10
10.0635348559
 20
10.7127013312
 30
0.0
  0
SPLINE
  5
38E
100
AcDbEntity
  8
0
100
AcDbSpline
 62
7
  6
CONTINUOUS
 70
0
 71
3
 72
9
 73
5
 74
0
 42
0.0000001
 43
0.0000001
 44
0.0000000001
 40
0.0
 40
0.0
 40
0.0
 40
0.0
 40
0.4862217708
 40
1.0
 40
1.0
 40
1.0
 40
1.0
 10
10.054273172
 20
10.6348951546
 30
0.0
 10
10.0556511668
 20
10.6366525813
 30
0.0
 10
10.0586281809
 20
10.6401564017
 30
0.0
 10
10.0618375434
 20
10.6434470412
 30
0.0
 10
10.0635348559
 20
10.6450865193
 30
0.0
  0
SPLINE
  5
38F
100
AcDbEntity
  8
0
100
AcDbSpline
 62
7
  6
CONTINUOUS
 70
0
 71
3
 72
41
 73
37
 74
0
 42
0.0000001
 43
0.0000001
 44
0.0000000001
 40
0.0
 40
0.0
 40
0.0
 40
0.0
 40
0.0299421722
 40
0.0599087187
 40
0.0899234222
 40
0.1200088965
 40
0.1501860486
 40
0.1804735921
 40
0.2108876267
 40
0.2414412921
 40
0.2721445039
 40
0.3030037728
 40
0.3340221097
 40
0.3651990124
 40
0.3965305293
 40
0.4280093954
 40
0.4596252325
 40
0.4913648061
 40
0.523212333
 40
0.5551498293
 40
0.5871574933
 40
0.6192141165
 40
0.6512975132
 40
0.6833849656
 40
0.7154536753
 40
0.7314763803
 40
0.7474860474
 40
0.7794508144
 40
0.8113324582
 40
0.8431123019
 40
0.8747737477
 40
0.9063025846
 40
0.9376874998
 40
0.9533255315
 40
0.9689249968
 40
1.0
 40
1.0
 40
1.0
 40
1.0
 10
10.4091448058
 20
6.8446943351
 30
0.0
 10
10.4056443878
 20
6.8413131727
 30
0.0
 10
10.3983683326
 20
6.8348236906
 30
0.0
 10
10.386710926
 20
6.8259829342
 30
0.0
 10
10.3743698107
 20
6.8180798594
 30
0.0
 10
10.3614139354
 20
6.8111588086
 30
0.0
 10
10.3479145328
 20
6.8052575912
 30
0.0
 10
10.3339461038
 20
6.8004086473
 30
0.0
 10
10.3195856232
 20
6.796638508
 30
0.0
 10
10.304912207
 20
6.7939677578
 30
0.0
 10
10.2900066447
 20
6.7924109052
 30
0.0
 10
10.2749509595
 20
6.7919763212
 30
0.0
 10
10.2598279547
 20
6.7926661994
 30
0.0
 10
10.244720761
 20
6.7944765585
 30
0.0
 10
10.2297123836
 20
6.7973972713
 30
0.0
 10
10.2148852517
 20
6.801412128
 30
0.0
 10
10.2003207718
 20
6.8064989304
 30
0.0
 10
10.1860988871
 20
6.8126296171
 30
0.0
 10
10.1722976448
 20
6.8197704204
 30
0.0
 10
10.158992776
 20
6.8278820497
 30
0.0
 10
10.1462572771
 20
6.8369199183
 30
0.0
 10
10.1341610458
 20
6.8468343429
 30
0.0
 10
10.1227703856
 20
6.8575709804
 30
0.0
 10
10.1121480814
 20
6.8690705016
 30
0.0
 10
10.103981577
 20
6.879241046
 30
0.0
 10
10.0978886017
 20
6.8876948106
 30
0.0
 10
10.0921021944
 20
6.8963409631
 30
0.0
 10
10.0854494532
 20
6.9074993293
 30
0.0
 10
10.0784361779
 20
6.9213839621
 30
0.0
 10
10.0724343987
 20
6.9356818861
 30
0.0
 10
10.0674774255
 20
6.9503143829
 30
0.0
 10
10.0635925652
 20
6.965200757
 30
0.0
 10
10.0612635138
 20
6.9777664762
 30
0.0
 10
10.0599569766
 20
6.9878628647
 30
0.0
 10
10.0590245382
 20
6.9979495967
 30
0.0
 10
10.0587422055
 20
7.0055397874
 30
0.0
 10
10.0587422055
 20
7.0105906583
 30
0.0
  0
SPLINE
  5
390
100
AcDbEntity
  8
0
100
AcDbSpline
 62
7
  6
CONTINUOUS
 70
0
 71
3
 72
64
 73
60
 74
0
 42
0.0000001
 43
0.0000001
 44
0.0000000001
 40
0.0
 40
0.0
 40
0.0
 40
0.0
 40
0.0156380686
 40
0.0313298913
 40
0.0470730848
 40
0.0628673848
 40
0.0787108001
 40
0.0946011421
 40
0.1105358406
 40
0.1265118618
 40
0.1585652993
 40
0.1907392625
 40
0.2229984824
 40
0.2553047048
 40
0.2876180339
 40
0.3198983315
 40
0.3521066045
 40
0.3681765115
 40
0.3842150283
 40
0.4002182083
 40
0.4161824204
 40
0.4321043805
 40
0.447981187
 40
0.4638103537
 40
0.479589832
 40
0.4953180308
 40
0.5109938424
 40
0.5266166573
 40
0.5421863707
 40
0.5577033879
 40
0.573168632
 40
0.5885835376
 40
0.6039500376
 40
0.6192705505
 40
0.6345479647
 40
0.6497856102
 40
0.6649872243
 40
0.6801569196
 40
0.6952991452
 40
0.7104186397
 40
0.72552038
 40
0.7406095319
 40
0.7556913979
 40
0.7707713579
 40
0.7858548105
 40
0.8009471166
 40
0.8160535448
 40
0.8311792133
 40
0.8463290335
 40
0.8615076618
 40
0.8767194527
 40
0.8919684157
 40
0.907258175
 40
0.9225919115
 40
0.9379724198
 40
0.9534019752
 40
0.968882099
 40
0.9844150577
 40
1.0
 40
1.0
 40
1.0
 40
1.0
 10
10.7682865997
 20
7.6335490712
 30
0.0
 10
10.7682865997
 20
7.6377439858
 30
0.0
 10
10.7680798812
 20
7.6461496621
 30
0.0
 10
10.7671543292
 20
7.6587477937
 30
0.0
 10
10.7656148005
 20
7.6713282046
 30
0.0
 10
10.7634652315
 20
7.6838599713
 30
0.0
 10
10.7607106768
 20
7.696313225
 30
0.0
 10
10.7573578975
 20
7.708657816
 30
0.0
 10
10.7534148403
 20
7.7208643646
 30
0.0
 10
10.7473777352
 20
7.7369311518
 30
0.0
 10
10.7384020514
 20
7.7565214028
 30
0.0
 10
10.7254712543
 20
7.7789838283
 30
0.0
 10
10.710490173
 20
7.8002182239
 30
0.0
 10
10.6936034464
 20
7.8200194054
 30
0.0
 10
10.6749727525
 20
7.8381979215
 30
0.0
 10
10.6547782315
 20
7.8545784168
 30
0.0
 10
10.6367884848
 20
7.8666117446
 30
0.0
 10
10.6218128781
 20
7.8751891041
 30
0.0
 10
10.6103239645
 20
7.8810792725
 30
0.0
 10
10.5985991282
 20
7.886415918
 30
0.0
 10
10.5866662993
 20
7.8911863857
 30
0.0
 10
10.5745542646
 20
7.8953790838
 30
0.0
 10
10.5622921652
 20
7.8989839231
 30
0.0
 10
10.5499095315
 20
7.901992222
 30
0.0
 10
10.5374361699
 20
7.9043967074
 30
0.0
 10
10.5249021084
 20
7.9061915258
 30
0.0
 10
10.5123375356
 20
7.9073723556
 30
0.0
 10
10.4997727109
 20
7.9079363396
 30
0.0
 10
10.4872378967
 20
7.907882074
 30
0.0
 10
10.4747632923
 20
7.9072096288
 30
0.0
 10
10.4623789534
 20
7.9059206306
 30
0.0
 10
10.4501147202
 20
7.9040181612
 30
0.0
 10
10.4380001553
 20
7.9015067487
 30
0.0
 10
10.4260644674
 20
7.8983924036
 30
0.0
 10
10.4143364242
 20
7.8946826396
 30
0.0
 10
10.4028443029
 20
7.8903863727
 30
0.0
 10
10.3916158318
 20
7.8855139036
 30
0.0
 10
10.3806780932
 20
7.8800769665
 30
0.0
 10
10.3700574581
 20
7.8740886787
 30
0.0
 10
10.3597795478
 20
7.8675634592
 30
0.0
 10
10.3498691804
 20
7.8605170005
 30
0.0
 10
10.3403502515
 20
7.8529663118
 30
0.0
 10
10.3312457122
 20
7.8449296131
 30
0.0
 10
10.3225775327
 20
7.8364262748
 30
0.0
 10
10.3143666458
 20
7.8274767854
 30
0.0
 10
10.3066328265
 20
7.8181027615
 30
0.0
 10
10.2993947131
 20
7.8083268222
 30
0.0
 10
10.2926697712
 20
7.7981725375
 30
0.0
 10
10.2864742225
 20
7.7876643976
 30
0.0
 10
10.2808229592
 20
7.7768277731
 30
0.0
 10
10.275729585
 20
7.765688803
 30
0.0
 10
10.2712063871
 20
7.7542743396
 30
0.0
 10
10.2672642494
 20
7.7426119163
 30
0.0
 10
10.2639126053
 20
7.7307296643
 30
0.0
 10
10.2611595191
 20
7.7186562109
 30
0.0
 10
10.2590116578
 20
7.7064207412
 30
0.0
 10
10.2574740283
 20
7.6940524663
 30
0.0
 10
10.2565505062
 20
7.6815818078
 30
0.0
 10
10.2563458814
 20
7.6732329441
 30
0.0
 10
10.2563458814
 20
7.6690522806
 30
0.0
  0
SPLINE
  5
391
100
AcDbEntity
  8
0
100
AcDbSpline
 62
7
  6
CONTINUOUS
 70
0
 71
3
 72
23
 73
19
 74
0
 42
0.0000001
 43
0.0000001
 44
0.0000000001
 40
0.0
 40
0.0
 40
0.0
 40
0.0
 40
0.0637774716
 40
0.1273446947
 40
0.1907020108
 40
0.2538561385
 40
0.3168131788
 40
0.379582097
 40
0.4421733871
 40
0.5045993393
 40
0.5668738666
 40
0.62901238
 40
0.6910316508
 40
0.7529496465
 40
0.8147853569
 40
0.8765586065
 40
0.938289857
 40
1.0
 40
1.0
 40
1.0
 40
1.0
 10
10.079026649
 20
7.6727750443
 30
0.0
 10
10.079026649
 20
7.6795637289
 30
0.0
 10
10.0793515671
 20
7.6931210197
 30
0.0
 10
10.0808181681
 20
7.7133745152
 30
0.0
 10
10.0832600116
 20
7.7334674193
 30
0.0
 10
10.0866713453
 20
7.7533526682
 30
0.0
 10
10.091044474
 20
7.7729847138
 30
0.0
 10
10.096369306
 20
7.792318204
 30
0.0
 10
10.1026336428
 20
7.8113085868
 30
0.0
 10
10.1098230725
 20
7.8299120647
 30
0.0
 10
10.117921052
 20
7.8480857367
 30
0.0
 10
10.1269089426
 20
7.8657876862
 30
0.0
 10
10.1367660464
 20
7.8829770763
 30
0.0
 10
10.1474696696
 20
7.8996142595
 30
0.0
 10
10.1589951184
 20
7.9156608127
 30
0.0
 10
10.1713159576
 20
7.9310798407
 30
0.0
 10
10.1844032821
 20
7.9458352962
 30
0.0
 10
10.1936207785
 20
7.9552089163
 30
0.0
 10
10.1983452946
 20
7.9597724528
 30
0.0
  0
SPLINE
  5
392
100
AcDbEntity
  8
0
100
AcDbSpline
 62
7
  6
CONTINUOUS
 70
0
 71
3
 72
73
 73
69
 74
0
 42
0.0000001
 43
0.0000001
 44
0.0000000001
 40
0.0
 40
0.0
 40
0.0
 40
0.0
 40
0.0038656492
 40
0.0078871614
 40
0.0120678101
 40
0.016410353
 40
0.0209171431
 40
0.025590074
 40
0.0304304663
 40
0.0354391771
 40
0.0459626626
 40
0.057161395
 40
0.0690309661
 40
0.0815631552
 40
0.0947465032
 40
0.1085667109
 40
0.1230070168
 40
0.1380484814
 40
0.1536702011
 40
0.1698494749
 40
0.1865619962
 40
0.2037819998
 40
0.2214823761
 40
0.2396347674
 40
0.2582096986
 40
0.2771766789
 40
0.2965042846
 40
0.3161602365
 40
0.3563237071
 40
0.3973960814
 40
0.4390974562
 40
0.4811424094
 40
0.523242508
 40
0.5651088401
 40
0.6064545394
 40
0.6469972908
 40
0.6668815811
 40
0.6864626573
 40
0.7057076579
 40
0.7245845101
 40
0.7430620022
 40
0.7611098663
 40
0.7786988801
 40
0.7958009872
 40
0.8123893838
 40
0.8284386267
 40
0.8439247738
 40
0.8588255531
 40
0.8731205046
 40
0.8867911694
 40
0.8998213405
 40
0.9121973784
 40
0.9239085432
 40
0.9349474496
 40
0.9453106793
 40
0.950239504
 40
0.9550003652
 40
0.9595943801
 40
0.9640230566
 40
0.9682884289
 40
0.9723931041
 40
0.9763402696
 40
0.9801338739
 40
0.9837786325
 40
0.9872801386
 40
0.9906450238
 40
0.9938809773
 40
1.0
 40
1.0
 40
1.0
 40
1.0
 10
12.7198310349
 20
8.5608955057
 30
0.0
 10
12.7207254727
 20
8.5617594664
 30
0.0
 10
12.7225134735
 20
8.5635608008
 30
0.0
 10
12.7251419986
 20
8.5664188293
 30
0.0
 10
12.7277680265
 20
8.5694841525
 30
0.0
 10
12.7303902141
 20
8.5727552546
 30
0.0
 10
12.733007468
 20
8.5762306414
 30
0.0
 10
12.7356186104
 20
8.5799088024
 30
0.0
 10
12.7382225394
 20
8.5837880871
 30
0.0
 10
12.7417413332
 20
8.5893177491
 30
0.0
 10
12.7461046369
 20
8.5967311695
 30
0.0
 10
12.7512101517
 20
8.6062581243
 30
0.0
 10
12.7562588777
 20
8.6165401702
 30
0.0
 10
12.7612416049
 20
8.6275586818
 30
0.0
 10
12.7661492441
 20
8.639293867
 30
0.0
 10
12.7709728143
 20
8.6517244674
 30
0.0
 10
12.7757034658
 20
8.6648279257
 30
0.0
 10
12.7803325044
 20
8.678580415
 30
0.0
 10
12.7848514129
 20
8.6929568896
 30
0.0
 10
12.7892518922
 20
8.7079311257
 30
0.0
 10
12.793525853
 20
8.7234757878
 30
0.0
 10
12.7976654348
 20
8.7395624879
 30
0.0
 10
12.801663021
 20
8.7561618325
 30
0.0
 10
12.8055112735
 20
8.773243471
 30
0.0
 10
12.8092031252
 20
8.7907761655
 30
0.0
 10
12.8127317839
 20
8.8087278437
 30
0.0
 10
12.8160907915
 20
8.8270656909
 30
0.0
 10
12.8203655425
 20
8.8521660773
 30
0.0
 10
12.8252310262
 20
8.8842590957
 30
0.0
 10
12.8302633087
 20
8.9234892166
 30
0.0
 10
12.8344931672
 20
8.9634226437
 30
0.0
 10
12.8378894957
 20
9.003767264
 30
0.0
 10
12.8404274123
 20
9.0442281254
 30
0.0
 10
12.8420883722
 20
9.0845094124
 30
0.0
 10
12.8428603506
 20
9.1243164394
 30
0.0
 10
12.8427578572
 20
9.157059318
 30
0.0
 10
12.8422184832
 20
9.1827924464
 30
0.0
 10
12.8415928152
 20
9.2016694446
 30
0.0
 10
12.8407446495
 20
9.220213336
 30
0.0
 10
12.8396755448
 20
9.2383902186
 30
0.0
 10
12.8383874906
 20
9.2561668314
 30
0.0
 10
12.836882867
 20
9.2735106553
 30
0.0
 10
12.8351644527
 20
9.2903899687
 30
0.0
 10
12.8332354372
 20
9.3067739142
 30
0.0
 10
12.8310993928
 20
9.3226325512
 30
0.0
 10
12.8287602689
 20
9.3379369068
 30
0.0
 10
12.8262223865
 20
9.35265904
 30
0.0
 10
12.8234904517
 20
9.3667721037
 30
0.0
 10
12.8205695202
 20
9.380250392
 30
0.0
 10
12.817464987
 20
9.3930693845
 30
0.0
 10
12.8141825727
 20
9.4052058197
 30
0.0
 10
12.8107283341
 20
9.4166377282
 30
0.0
 10
12.807108597
 20
9.4273445846
 30
0.0
 10
12.8033299696
 20
9.4373069908
 30
0.0
 10
12.8000009559
 20
9.4450993054
 30
0.0
 10
12.7972552818
 20
9.4509373892
 30
0.0
 10
12.7951950595
 20
9.4550452423
 30
0.0
 10
12.7931003784
 20
9.4589540464
 30
0.0
 10
12.7909721072
 20
9.4626620345
 30
0.0
 10
12.7888111976
 20
9.4661675372
 30
0.0
 10
12.7866186292
 20
9.4694690004
 30
0.0
 10
12.7843952969
 20
9.4725649128
 30
0.0
 10
12.782142199
 20
9.4754539013
 30
0.0
 10
12.7798602535
 20
9.4781346829
 30
0.0
 10
12.7775504604
 20
9.4806059333
 30
0.0
 10
12.7752134864
 20
9.4828667956
 30
0.0
 10
12.7721213413
 20
9.4855484066
 30
0.0
 10
12.7696772115
 20
9.4873222726
 30
0.0
 10
12.7680069745
 20
9.4883639794
 30
0.0
  0
SPLINE
  5
393
100
AcDbEntity
  8
0
100
AcDbSpline
 62
7
  6
CONTINUOUS
 70
0
 71
3
 72
11
 73
7
 74
0
 42
0.0000001
 43
0.0000001
 44
0.0000000001
 40
0.0
 40
0.0
 40
0.0
 40
0.0
 40
0.2747967508
 40
0.4055979616
 40
0.5321930077
 40
1.0
 40
1.0
 40
1.0
 40
1.0
 10
12.7198310349
 20
8.5608955057
 30
0.0
 10
12.7184389717
 20
8.5595508759
 30
0.0
 10
12.7163183027
 20
8.5576321904
 30
0.0
 10
12.7133948445
 20
8.5552842361
 30
0.0
 10
12.7092850586
 20
8.5522534471
 30
0.0
 10
12.7056416807
 20
8.550114004
 30
0.0
 10
12.7026240865
 20
8.5487911471
 30
0.0
  0
SPLINE
  5
394
100
AcDbEntity
  8
0
100
AcDbSpline
 62
7
  6
CONTINUOUS
 70
0
 71
3
 72
82
 73
78
 74
0
 42
0.0000001
 43
0.0000001
 44
0.0000000001
 40
0.0
 40
0.0
 40
0.0
 40
0.0
 40
0.0027164291
 40
0.0054532364
 40
0.0082303053
 40
0.0110666058
 40
0.0139798164
 40
0.016986131
 40
0.0201001037
 40
0.0233346222
 40
0.0267009905
 40
0.0302089475
 40
0.0338668707
 40
0.0376818493
 40
0.0416598249
 40
0.0458057691
 40
0.0501237025
 40
0.0546169039
 40
0.0592879295
 40
0.0641387045
 40
0.069170648
 40
0.0743846285
 40
0.0797811279
 40
0.0853602093
 40
0.0970640744
 40
0.1094908292
 40
0.122630084
 40
0.1364677626
 40
0.1509865887
 40
0.1661664945
 40
0.1819849411
 40
0.1984171777
 40
0.2154364542
 40
0.233014197
 40
0.2511201854
 40
0.2697227022
 40
0.2887886669
 40
0.3082837565
 40
0.3281725155
 40
0.3484184781
 40
0.3689842782
 40
0.3898317536
 40
0.4109220451
 40
0.4536720397
 40
0.4969140311
 40
0.540322302
 40
0.5835695392
 40
0.6263299734
 40
0.6474273998
 40
0.6682832705
 40
0.6888587055
 40
0.7091155138
 40
0.7290162972
 40
0.7485245643
 40
0.7676048337
 40
0.786222742
 40
0.8043451595
 40
0.821940317
 40
0.8389779517
 40
0.8554294454
 40
0.8712679825
 40
0.8864687352
 40
0.9010090829
 40
0.9148688848
 40
0.9280307811
 40
0.9404805813
 40
0.9522077554
 40
0.9577985268
 40
0.9632067444
 40
0.9684324379
 40
0.9734760336
 40
0.9783383943
 40
0.9830208414
 40
0.9875253833
 40
0.9918546059
 40
0.9960115907
 40
1.0
 40
1.0
 40
1.0
 40
1.0
 10
12.7836034229
 20
9.4914285413
 30
0.0
 10
12.7844899511
 20
9.4913670557
 30
0.0
 10
12.786265117
 20
9.4911633663
 30
0.0
 10
12.7889052606
 20
9.4906183305
 30
0.0
 10
12.7915254607
 20
9.4898339124
 30
0.0
 10
12.794123825
 20
9.4888107988
 30
0.0
 10
12.7966990407
 20
9.4875499781
 30
0.0
 10
12.7992497668
 20
9.4860523847
 30
0.0
 10
12.8017748265
 20
9.4843190952
 30
0.0
 10
12.8042731275
 20
9.4823512395
 30
0.0
 10
12.8067435373
 20
9.4801499084
 30
0.0
 10
12.8091850488
 20
9.4777163655
 30
0.0
 10
12.8115965549
 20
9.475051839
 30
0.0
 10
12.8139769946
 20
9.4721576928
 30
0.0
 10
12.816325317
 20
9.4690353844
 30
0.0
 10
12.8186403839
 20
9.4656864239
 30
0.0
 10
12.8209211675
 20
9.4621124951
 30
0.0
 10
12.823166539
 20
9.4583153333
 30
0.0
 10
12.8253754251
 20
9.4542968166
 30
0.0
 10
12.8275467742
 20
9.4500589366
 30
0.0
 10
12.8296794726
 20
9.445603771
 30
0.0
 10
12.831772514
 20
9.44093355
 30
0.0
 10
12.8338248472
 20
9.4360505723
 30
0.0
 10
12.8365491973
 20
9.4291489244
 30
0.0
 10
12.8398349423
 20
9.4199990159
 30
0.0
 10
12.8435393151
 20
9.4083804843
 30
0.0
 10
12.8470581285
 20
9.3959773525
 30
0.0
 10
12.8503842672
 20
9.3828143892
 30
0.0
 10
12.8535109922
 20
9.368917733
 30
0.0
 10
12.8564319523
 20
9.3543151353
 30
0.0
 10
12.8591412061
 20
9.3390357912
 30
0.0
 10
12.8616332383
 20
9.3231102969
 30
0.0
 10
12.8639029718
 20
9.3065705768
 30
0.0
 10
12.8659457905
 20
9.2894498186
 30
0.0
 10
12.8677575384
 20
9.2717823968
 30
0.0
 10
12.8693345269
 20
9.2536037961
 30
0.0
 10
12.8706735433
 20
9.2349505373
 30
0.0
 10
12.8717718556
 20
9.2158601063
 30
0.0
 10
12.8726272279
 20
9.1963708785
 30
0.0
 10
12.8732379174
 20
9.176522035
 30
0.0
 10
12.8736026674
 20
9.1563534929
 30
0.0
 10
12.8737207456
 20
9.1359057729
 30
0.0
 10
12.8735480573
 20
9.1082008477
 30
0.0
 10
12.8727102175
 20
9.0731763402
 30
0.0
 10
12.8707356839
 20
9.030886692
 30
0.0
 10
12.8678030534
 20
8.9884894784
 30
0.0
 10
12.8639359292
 20
8.9463255971
 30
0.0
 10
12.8599430849
 20
8.9115118318
 30
0.0
 10
12.8562991566
 20
8.8840384759
 30
0.0
 10
12.8533663784
 20
8.8637935079
 30
0.0
 10
12.8502276312
 20
8.843857797
 30
0.0
 10
12.8468892177
 20
8.8242714002
 30
0.0
 10
12.8433578756
 20
8.8050737054
 30
0.0
 10
12.839640733
 20
8.7863033007
 30
0.0
 10
12.835745295
 20
8.76799791
 30
0.0
 10
12.8316794264
 20
8.7501943157
 30
0.0
 10
12.827451337
 20
8.7329282858
 30
0.0
 10
12.8230695635
 20
8.7162344952
 30
0.0
 10
12.8185429631
 20
8.7001464487
 30
0.0
 10
12.8138806851
 20
8.6846964131
 30
0.0
 10
12.809092152
 20
8.669915352
 30
0.0
 10
12.8041870397
 20
8.6558328603
 30
0.0
 10
12.7991752508
 20
8.6424770849
 30
0.0
 10
12.7940669056
 20
8.6298746771
 30
0.0
 10
12.7888722895
 20
8.6180506371
 30
0.0
 10
12.7836018548
 20
8.6070285734
 30
0.0
 10
12.7790863278
 20
8.5983974537
 30
0.0
 10
12.7754366304
 20
8.5919196824
 30
0.0
 10
12.7727306666
 20
8.5873529421
 30
0.0
 10
12.7700136677
 20
8.5830023927
 30
0.0
 10
12.7672869598
 20
8.5788702009
 30
0.0
 10
12.7645519428
 20
8.5749584071
 30
0.0
 10
12.7618099018
 20
8.5712689609
 30
0.0
 10
12.7590621888
 20
8.5678036314
 30
0.0
 10
12.7563100673
 20
8.5645641264
 30
0.0
 10
12.7535550364
 20
8.5615522046
 30
0.0
 10
12.7516791299
 20
8.5596584043
 30
0.0
 10
12.7507406639
 20
8.5587519157
 30
0.0
  0
SPLINE
  5
395
100
AcDbEntity
  8
0
100
AcDbSpline
 62
7
  6
CONTINUOUS
 70
0
 71
3
 72
23
 73
19
 74
0
 42
0.0000001
 43
0.0000001
 44
0.0000000001
 40
0.0
 40
0.0
 40
0.0
 40
0.0
 40
0.075595957
 40
0.1466391305
 40
0.2134651345
 40
0.2765138419
 40
0.3363259052
 40
0.3935462661
 40
0.4489224105
 40
0.5032874244
 40
0.5575253055
 40
0.6125266122
 40
0.6691426489
 40
0.72814827
 40
0.7902188159
 40
0.8559231893
 40
0.9257261654
 40
1.0
 40
1.0
 40
1.0
 40
1.0
 10
12.7198310349
 20
8.6961251294
 30
0.0
 10
12.7188999854
 20
8.6952258047
 30
0.0
 10
12.717039109
 20
8.6935365906
 30
0.0
 10
12.7141592237
 20
8.6912798904
 30
0.0
 10
12.7112827013
 20
8.6893845847
 30
0.0
 10
12.7084122129
 20
8.6878535214
 30
0.0
 10
12.70555014
 20
8.6866894837
 30
0.0
 10
12.7026994383
 20
8.6858953031
 30
0.0
 10
12.6998638358
 20
8.6854738143
 30
0.0
 10
12.6970480694
 20
8.685426985
 30
0.0
 10
12.6942575418
 20
8.6857555219
 30
0.0
 10
12.6914976696
 20
8.6864584486
 30
0.0
 10
12.6887731253
 20
8.6875333707
 30
0.0
 10
12.6860875487
 20
8.6889771967
 30
0.0
 10
12.6834436165
 20
8.6907865626
 30
0.0
 10
12.6808435166
 20
8.6929583949
 30
0.0
 10
12.6782892844
 20
8.6954894187
 30
0.0
 10
12.6766704818
 20
8.6973543018
 30
0.0
 10
12.6758679996
 20
8.698340994
 30
0.0
  0
SPLINE
  5
396
100
AcDbEntity
  8
0
100
AcDbSpline
 62
7
  6
CONTINUOUS
 70
0
 71
3
 72
17
 73
13
 74
0
 42
0.0000001
 43
0.0000001
 44
0.0000000001
 40
0.0
 40
0.0
 40
0.0
 40
0.0
 40
0.1504736539
 40
0.2917307076
 40
0.4244680508
 40
0.4879389415
 40
0.549641562
 40
0.6683009725
 40
0.7818339752
 40
0.8918016529
 40
0.9460162415
 40
1.0
 40
1.0
 40
1.0
 40
1.0
 10
12.686023629
 20
8.7322770869
 30
0.0
 10
12.6851755229
 20
8.7314578793
 30
0.0
 10
12.6834804205
 20
8.7299207897
 30
0.0
 10
12.6808557534
 20
8.7278723842
 30
0.0
 10
12.6786387423
 20
8.7264236497
 30
0.0
 10
12.6768708813
 20
8.7254426091
 30
0.0
 10
12.675155086
 20
8.7246003573
 30
0.0
 10
12.6730094924
 20
8.7237493357
 30
0.0
 10
12.6704122134
 20
8.7230581835
 30
0.0
 10
12.6682483029
 20
8.7227693068
 30
0.0
 10
12.6665385577
 20
8.7227144222
 30
0.0
 10
12.6656904247
 20
8.7227444147
 30
0.0
 10
12.6652684096
 20
8.7227736853
 30
0.0
  0
SPLINE
  5
397
100
AcDbEntity
  8
0
100
AcDbSpline
 62
7
  6
CONTINUOUS
 70
0
 71
3
 72
86
 73
82
 74
0
 42
0.0000001
 43
0.0000001
 44
0.0000000001
 40
0.0
 40
0.0
 40
0.0
 40
0.0
 40
0.0042066939
 40
0.0086075053
 40
0.0132068793
 40
0.0180084508
 40
0.0230151899
 40
0.028229341
 40
0.03365226
 40
0.0392846843
 40
0.0451268252
 40
0.0511783534
 40
0.0639057188
 40
0.0774569446
 40
0.0918160466
 40
0.1069624917
 40
0.1228718078
 40
0.1395160534
 40
0.1568642397
 40
0.174882665
 40
0.1935351863
 40
0.2127834395
 40
0.2325870553
 40
0.2529038745
 40
0.2736901272
 40
0.2949005956
 40
0.3164887641
 40
0.3384069956
 40
0.3606066877
 40
0.4056512024
 40
0.4512206631
 40
0.4969064809
 40
0.5422987311
 40
0.5869908507
 40
0.6089498534
 40
0.6305852845
 40
0.6518493747
 40
0.6726954533
 40
0.6930781046
 40
0.7129533506
 40
0.7322788133
 40
0.7510138824
 40
0.769119904
 40
0.786560406
 40
0.8033013498
 40
0.8193113767
 40
0.8345621201
 40
0.849028591
 40
0.8626896873
 40
0.8755287865
 40
0.8816366556
 40
0.8875352606
 40
0.8932241763
 40
0.8987035023
 40
0.9039737967
 40
0.9090363082
 40
0.9138929237
 40
0.9185462948
 40
0.9230000213
 40
0.9272586329
 40
0.9313278822
 40
0.9352148257
 40
0.9389279931
 40
0.9424776833
 40
0.9458760299
 40
0.9491372829
 40
0.952277908
 40
0.955316603
 40
0.9582742993
 40
0.9611738518
 40
0.9640396603
 40
0.9668970701
 40
0.9697716686
 40
0.972688551
 40
0.9756716546
 40
0.9787432143
 40
0.9852253372
 40
0.9886742653
 40
0.9922790753
 40
0.9960512477
 40
1.0
 40
1.0
 40
1.0
 40
1.0
 10
12.7198310349
 20
8.6961251294
 30
0.0
 10
12.7205544582
 20
8.6968239027
 30
0.0
 10
12.7220003525
 20
8.6982895803
 30
0.0
 10
12.724119722
 20
8.7006314832
 30
0.0
 10
12.7262364306
 20
8.703164125
 30
0.0
 10
12.7283490952
 20
8.7058858776
 30
0.0
 10
12.7304565731
 20
8.7087951375
 30
0.0
 10
12.7325576252
 20
8.7118902545
 30
0.0
 10
12.7346510793
 20
8.7151694003
 30
0.0
 10
12.736735673
 20
8.7186306441
 30
0.0
 10
12.7388101676
 20
8.7222719459
 30
0.0
 10
12.7416082434
 20
8.7274516614
 30
0.0
 10
12.7450635113
 20
8.7343688714
 30
0.0
 10
12.749083483
 20
8.7432165155
 30
0.0
 10
12.7530343164
 20
8.7527246318
 30
0.0
 10
12.7569065365
 20
8.7628706346
 30
0.0
 10
12.7606908373
 20
8.7736305509
 30
0.0
 10
12.7643781215
 20
8.7849788052
 30
0.0
 10
12.7679595158
 20
8.7968883872
 30
0.0
 10
12.7714263982
 20
8.8093309096
 30
0.0
 10
12.7747704186
 20
8.8222766877
 30
0.0
 10
12.777983529
 20
8.8356948058
 30
0.0
 10
12.7810580053
 20
8.8495531974
 30
0.0
 10
12.7839864538
 20
8.863818733
 30
0.0
 10
12.7867618321
 20
8.8784573023
 30
0.0
 10
12.7893774659
 20
8.8934338958
 30
0.0
 10
12.7918270695
 20
8.9087126754
 30
0.0
 10
12.794104788
 20
8.9242571078
 30
0.0
 10
12.7969186999
 20
8.9453893019
 30
0.0
 10
12.7999632072
 20
8.9721931654
 30
0.0
 10
12.8028394536
 20
9.0046576441
 30
0.0
 10
12.8049282132
 20
9.0372657326
 30
0.0
 10
12.8062095268
 20
9.0697054876
 30
0.0
 10
12.8065968188
 20
9.0964948122
 30
0.0
 10
12.8064865298
 20
9.1176038432
 30
0.0
 10
12.8061972284
 20
9.1331089368
 30
0.0
 10
12.8057016657
 20
9.1483425788
 30
0.0
 10
12.8050010277
 20
9.1632683486
 30
0.0
 10
12.8040970205
 20
9.1778505303
 30
0.0
 10
12.802991845
 20
9.1920542502
 30
0.0
 10
12.8016881902
 20
9.2058455495
 30
0.0
 10
12.8001892223
 20
9.2191914657
 30
0.0
 10
12.7984985764
 20
9.2320601126
 30
0.0
 10
12.7966203536
 20
9.2444207681
 30
0.0
 10
12.7945591211
 20
9.2562439555
 30
0.0
 10
12.7923198836
 20
9.2675015223
 30
0.0
 10
12.7899080717
 20
9.2781666891
 30
0.0
 10
12.787329522
 20
9.2882142114
 30
0.0
 10
12.7845904589
 20
9.2976202001
 30
0.0
 10
12.7821406066
 20
9.3050239878
 30
0.0
 10
12.7800979714
 20
9.3106026238
 30
0.0
 10
12.7785555108
 20
9.3145427044
 30
0.0
 10
12.7769779505
 20
9.3183064536
 30
0.0
 10
12.7753662447
 20
9.3218916662
 30
0.0
 10
12.7737212942
 20
9.3252962081
 30
0.0
 10
12.7720441021
 20
9.3285180912
 30
0.0
 10
12.7703356347
 20
9.3315554256
 30
0.0
 10
12.7685968415
 20
9.3344064178
 30
0.0
 10
12.7668287634
 20
9.337069433
 30
0.0
 10
12.7650323279
 20
9.3395428882
 30
0.0
 10
12.763208544
 20
9.3418253521
 30
0.0
 10
12.7613583929
 20
9.3439154918
 30
0.0
 10
12.7594827837
 20
9.3458120083
 30
0.0
 10
12.7575827268
 20
9.3475137776
 30
0.0
 10
12.7556591194
 20
9.3490196367
 30
0.0
 10
12.7537129358
 20
9.3503285138
 30
0.0
 10
12.7517452051
 20
9.3514394056
 30
0.0
 10
12.7497569742
 20
9.3523512148
 30
0.0
 10
12.747749515
 20
9.353063072
 30
0.0
 10
12.7457241967
 20
9.3535740877
 30
0.0
 10
12.7436825953
 20
9.3538835942
 30
0.0
 10
12.741626422
 20
9.3539912899
 30
0.0
 10
12.7395574199
 20
9.3538969972
 30
0.0
 10
12.7374773352
 20
9.3536010663
 30
0.0
 10
12.7353876377
 20
9.3531039085
 30
0.0
 10
12.7325403421
 20
9.3521570506
 30
0.0
 10
12.729722852
 20
9.3508092362
 30
0.0
 10
12.7269613079
 20
9.3491191498
 30
0.0
 10
12.7248431983
 20
9.3476281104
 30
0.0
 10
12.722723195
 20
9.3459412756
 30
0.0
 10
12.7213414882
 20
9.344715618
 30
0.0
 10
12.7206503552
 20
9.3440724195
 30
0.0
  0
SPLINE
  5
398
100
AcDbEntity
  8
0
100
AcDbSpline
 62
7
  6
CONTINUOUS
 70
0
 71
3
 72
69
 73
65
 74
0
 42
0.0000001
 43
0.0000001
 44
0.0000000001
 40
0.0
 40
0.0
 40
0.0
 40
0.0
 40
0.0081437965
 40
0.0169765758
 40
0.0265204758
 40
0.0367891088
 40
0.0477876403
 40
0.0595149743
 40
0.0719649581
 40
0.0851270709
 40
0.0989870869
 40
0.1135276528
 40
0.1287286474
 40
0.1445674277
 40
0.1610191659
 40
0.1780570727
 40
0.195652511
 40
0.2137751983
 40
0.2323933893
 40
0.2514739612
 40
0.2709825288
 40
0.2908836149
 40
0.3317156668
 40
0.3736688492
 40
0.4164299326
 40
0.4596778256
 40
0.5030867488
 40
0.5463293845
 40
0.5890800127
 40
0.6310176361
 40
0.6718291669
 40
0.69171821
 40
0.7112135814
 40
0.7302798108
 40
0.7488825889
 40
0.7669888376
 40
0.7845668148
 40
0.8015863124
 40
0.8180187809
 40
0.8338374449
 40
0.8490175379
 40
0.86353655
 40
0.8773744107
 40
0.8905138216
 40
0.9029407293
 40
0.9146447463
 40
0.9256197833
 40
0.9358649989
 40
0.9453859065
 40
0.9498791457
 40
0.9541971428
 40
0.9583431172
 40
0.9623211355
 40
0.9661361624
 40
0.9697941142
 40
0.9733021093
 40
0.9766685162
 40
0.9830136519
 40
0.9860200056
 40
0.9889332458
 40
0.9917695792
 40
0.9945466887
 40
0.9972835312
 40
1.0
 40
1.0
 40
1.0
 40
1.0
 10
12.686023629
 20
8.7322770869
 30
0.0
 10
12.6872338572
 20
8.7334460777
 30
0.0
 10
12.6896480235
 20
8.7359968203
 30
0.0
 10
12.693117005
 20
8.7402432235
 30
0.0
 10
12.696571076
 20
8.7450534064
 30
0.0
 10
12.7000035618
 20
8.7504177847
 30
0.0
 10
12.7034081165
 20
8.7563263407
 30
0.0
 10
12.7067780783
 20
8.7627675931
 30
0.0
 10
12.7101067894
 20
8.7697289748
 30
0.0
 10
12.7133875931
 20
8.777196783
 30
0.0
 10
12.7166139206
 20
8.7851562173
 30
0.0
 10
12.7197792673
 20
8.793591453
 30
0.0
 10
12.7228772308
 20
8.802485673
 30
0.0
 10
12.7259015696
 20
8.8118210923
 30
0.0
 10
12.7288461736
 20
8.8215790214
 30
0.0
 10
12.731705077
 20
8.8317399103
 30
0.0
 10
12.7344725097
 20
8.8422833749
 30
0.0
 10
12.737142888
 20
8.8531882486
 30
0.0
 10
12.7397108093
 20
8.8644326385
 30
0.0
 10
12.7421710773
 20
8.8759939531
 30
0.0
 10
12.7445187625
 20
8.8878489732
 30
0.0
 10
12.7475180904
 20
8.9041548219
 30
0.0
 10
12.7509435208
 20
8.9250953474
 30
0.0
 10
12.7545025468
 20
8.9507919477
 30
0.0
 10
12.7575154192
 20
8.9770607472
 30
0.0
 10
12.7599577952
 20
9.0036906611
 30
0.0
 10
12.7618099773
 20
9.0304678419
 30
0.0
 10
12.7630570598
 20
9.0571771797
 30
0.0
 10
12.7636891566
 20
9.083604176
 30
0.0
 10
12.7637013059
 20
9.1095364563
 30
0.0
 10
12.7631908555
 20
9.1307392141
 30
0.0
 10
12.7624643671
 20
9.1472932315
 30
0.0
 10
12.7617706796
 20
9.1593503599
 30
0.0
 10
12.7609249784
 20
9.171131362
 30
0.0
 10
12.7599289778
 20
9.1826125839
 30
0.0
 10
12.7587847147
 20
9.1937709534
 30
0.0
 10
12.7574945023
 20
9.2045840572
 30
0.0
 10
12.7560609737
 20
9.2150301878
 30
0.0
 10
12.754487057
 20
9.2250883896
 30
0.0
 10
12.7527759449
 20
9.2347384942
 30
0.0
 10
12.750931114
 20
9.2439611746
 30
0.0
 10
12.7489563327
 20
9.2527379942
 30
0.0
 10
12.7468556103
 20
9.2610514376
 30
0.0
 10
12.7446331894
 20
9.268884955
 30
0.0
 10
12.7422935761
 20
9.276223035
 30
0.0
 10
12.7398414758
 20
9.2830512015
 30
0.0
 10
12.7372817201
 20
9.2893561703
 30
0.0
 10
12.7346193525
 20
9.2951255186
 30
0.0
 10
12.7322761893
 20
9.2995600085
 30
0.0
 10
12.7303480066
 20
9.3028208535
 30
0.0
 10
12.72890751
 20
9.305078072
 30
0.0
 10
12.7274453475
 20
9.3071931827
 30
0.0
 10
12.7259621963
 20
9.3091651509
 30
0.0
 10
12.7244587571
 20
9.3109930342
 30
0.0
 10
12.7229357197
 20
9.3126758424
 30
0.0
 10
12.7213935958
 20
9.3142128982
 30
0.0
 10
12.7193537698
 20
9.3160305729
 30
0.0
 10
12.7172367633
 20
9.3176024723
 30
0.0
 10
12.7150498231
 20
9.3188864749
 30
0.0
 10
12.7134233147
 20
9.3196827856
 30
0.0
 10
12.7117822488
 20
9.3203289273
 30
0.0
 10
12.7101273871
 20
9.3208243626
 30
0.0
 10
12.708459918
 20
9.3211685467
 30
0.0
 10
12.7073387611
 20
9.3212971836
 30
0.0
 10
12.7067788484
 20
9.3213360186
 30
0.0
  0
SPLINE
  5
399
100
AcDbEntity
  8
0
100
AcDbSpline
 62
7
  6
CONTINUOUS
 70
0
 71
3
 72
9
 73
5
 74
0
 42
0.0000001
 43
0.0000001
 44
0.0000000001
 40
0.0
 40
0.0
 40
0.0
 40
0.0
 40
0.4989910154
 40
1.0
 40
1.0
 40
1.0
 40
1.0
 10
10.5730529978
 20
7.875721383
 30
0.0
 10
10.5721998385
 20
7.8719655992
 30
0.0
 10
10.5702680065
 20
7.864487886
 30
0.0
 10
10.5679375547
 20
7.8571257616
 30
0.0
 10
10.5666814825
 20
7.8534683997
 30
0.0
  0
SPLINE
  5
39A
100
AcDbEntity
  8
0
100
AcDbSpline
 62
7
  6
CONTINUOUS
 70
0
 71
3
 72
79
 73
75
 74
0
 42
0.0000001
 43
0.0000001
 44
0.0000000001
 40
0.0
 40
0.0
 40
0.0
 40
0.0
 40
0.0069315574
 40
0.0105986767
 40
0.0144066877
 40
0.0183600657
 40
0.022462566
 40
0.026717331
 40
0.0311268813
 40
0.0356932613
 40
0.0404180349
 40
0.0453023372
 40
0.0503469664
 40
0.0555523326
 40
0.060918574
 40
0.06644554
 40
0.0721328008
 40
0.0839850491
 40
0.0964680903
 40
0.1095712258
 40
0.1232811587
 40
0.1375823026
 40
0.1524570208
 40
0.1678858364
 40
0.1838476189
 40
0.2003197345
 40
0.2172781737
 40
0.2346976581
 40
0.252551756
 40
0.2708129854
 40
0.2894529036
 40
0.308442189
 40
0.327750719
 40
0.3473476593
 40
0.3672015419
 40
0.3872803383
 40
0.4075515304
 40
0.4485384014
 40
0.4898957113
 40
0.531353215
 40
0.572639826
 40
0.6134858936
 40
0.6336607498
 40
0.6536261848
 40
0.6733499231
 40
0.6928002158
 40
0.711945919
 40
0.7307565654
 40
0.7492024402
 40
0.7672546618
 40
0.7848852768
 40
0.8020673462
 40
0.818775033
 40
0.8349837026
 40
0.8506700379
 40
0.8658121762
 40
0.8803898387
 40
0.8943844882
 40
0.90777952
 40
0.9205605005
 40
0.9327154537
 40
0.944235197
 40
0.949755112
 40
0.9551143006
 40
0.9603126017
 40
0.9653501843
 40
0.9702274804
 40
0.9749452775
 40
0.9795047293
 40
0.9839073988
 40
0.9881554274
 40
0.9922514367
 40
0.9961984568
 40
1.0
 40
1.0
 40
1.0
 40
1.0
 10
11.3420638879
 20
10.6348431395
 30
0.0
 10
11.3401743136
 20
10.6372568867
 30
0.0
 10
11.3370840284
 20
10.6407937899
 30
0.0
 10
11.332584042
 20
10.6453053295
 30
0.0
 10
11.3288676925
 20
10.6487329939
 30
0.0
 10
11.3248755767
 20
10.6521392378
 30
0.0
 10
11.3206091603
 20
10.6555229296
 30
0.0
 10
11.3160703305
 20
10.6588825303
 30
0.0
 10
11.3112610622
 20
10.6622167048
 30
0.0
 10
11.3061834118
 20
10.6655239882
 30
0.0
 10
11.3008395782
 20
10.6688029753
 30
0.0
 10
11.2952318859
 20
10.6720522862
 30
0.0
 10
11.2893627407
 20
10.675270464
 30
0.0
 10
11.2832347114
 20
10.6784561698
 30
0.0
 10
11.2768504496
 20
10.6816079831
 30
0.0
 10
11.2702127226
 20
10.6847245536
 30
0.0
 10
11.2608998845
 20
10.6888885391
 30
0.0
 10
11.2486370498
 20
10.6939852677
 30
0.0
 10
11.2331545056
 20
10.699858295
 30
0.0
 10
11.2167356934
 20
10.7055591904
 30
0.0
 10
11.1994092626
 20
10.7110779375
 30
0.0
 10
11.1812052779
 20
10.7164048268
 30
0.0
 10
11.1621554646
 20
10.7215304777
 30
0.0
 10
11.1422930552
 20
10.7264458647
 30
0.0
 10
11.1216527382
 20
10.7311423239
 30
0.0
 10
11.1002705828
 20
10.7356115758
 30
0.0
 10
11.078183979
 20
10.739845736
 30
0.0
 10
11.0554315724
 20
10.7438373469
 30
0.0
 10
11.0320531899
 20
10.7475793782
 30
0.0
 10
11.0080897616
 20
10.751065237
 30
0.0
 10
10.9835832479
 20
10.7542887802
 30
0.0
 10
10.9585765701
 20
10.7572443261
 30
0.0
 10
10.9331135361
 20
10.7599266763
 30
0.0
 10
10.9072387544
 20
10.7623311116
 30
0.0
 10
10.8809975682
 20
10.7644533921
 30
0.0
 10
10.8544359167
 20
10.7662898032
 30
0.0
 10
10.8185246592
 20
10.768360287
 30
0.0
 10
10.7731777377
 20
10.7702067208
 30
0.0
 10
10.7184334407
 20
10.7712369543
 30
0.0
 10
10.6635469445
 20
10.7710822136
 30
0.0
 10
10.6089028625
 20
10.7697436207
 30
0.0
 10
10.5637033292
 20
10.7676411191
 30
0.0
 10
10.5279596854
 20
10.7653671888
 30
0.0
 10
10.501559507
 20
10.763381129
 30
0.0
 10
10.4755038677
 20
10.7611110882
 30
0.0
 10
10.4498383829
 20
10.7585610341
 30
0.0
 10
10.4246080262
 20
10.7557354687
 30
0.0
 10
10.3998569921
 20
10.7526393657
 30
0.0
 10
10.3756286371
 20
10.749278177
 30
0.0
 10
10.3519653959
 20
10.7456578164
 30
0.0
 10
10.3289087016
 20
10.7417846644
 30
0.0
 10
10.3064989116
 20
10.7376655495
 30
0.0
 10
10.2847752412
 20
10.7333077308
 30
0.0
 10
10.2637756937
 20
10.7287188868
 30
0.0
 10
10.2435369859
 20
10.7239071003
 30
0.0
 10
10.2240944717
 20
10.7188808589
 30
0.0
 10
10.2054820824
 20
10.713649023
 30
0.0
 10
10.1877322593
 20
10.7082208084
 30
0.0
 10
10.1708759147
 20
10.7026057653
 30
0.0
 10
10.1549422621
 20
10.6968137515
 30
0.0
 10
10.139959076
 20
10.6908549421
 30
0.0
 10
10.1281238459
 20
10.6856880511
 30
0.0
 10
10.1191603938
 20
10.6814704162
 30
0.0
 10
10.1127873072
 20
10.6783170798
 30
0.0
 10
10.1066705888
 20
10.6751299192
 30
0.0
 10
10.1008128618
 20
10.6719103419
 30
0.0
 10
10.0952166889
 20
10.6686597026
 30
0.0
 10
10.0898844964
 20
10.6653794276
 30
0.0
 10
10.0848185868
 20
10.6620709632
 30
0.0
 10
10.0800211583
 20
10.6587356588
 30
0.0
 10
10.0754942171
 20
10.655374947
 30
0.0
 10
10.071239718
 20
10.6519901634
 30
0.0
 10
10.0672596898
 20
10.6485829342
 30
0.0
 10
10.0647440574
 20
10.6462545183
 30
0.0
 10
10.0635348559
 20
10.6450865193
 30
0.0
  0
SPLINE
  5
39B
100
AcDbEntity
  8
0
100
AcDbSpline
 62
7
  6
CONTINUOUS
 70
0
 71
3
 72
21
 73
17
 74
0
 42
0.0000001
 43
0.0000001
 44
0.0000000001
 40
0.0
 40
0.0
 40
0.0
 40
0.0
 40
0.1273175725
 40
0.2538000026
 40
0.3167619332
 40
0.3795354925
 40
0.4421314982
 40
0.5045621433
 40
0.5668413429
 40
0.6289845306
 40
0.6910084612
 40
0.7529311022
 40
0.8147714553
 40
0.8765493457
 40
0.9382852283
 40
1.0
 40
1.0
 40
1.0
 40
1.0
 10
11.1454088244
 20
10.0744891937
 30
0.0
 10
11.1454088244
 20
10.0809875201
 30
0.0
 10
11.1460291319
 20
10.0939499105
 30
0.0
 10
11.148371811
 20
10.1099742273
 30
0.0
 10
11.1511718506
 20
10.1225439067
 30
0.0
 10
11.153725338
 20
10.1318153033
 30
0.0
 10
11.1567293239
 20
10.1409219726
 30
0.0
 10
11.1601769593
 20
10.1498431517
 30
0.0
 10
11.1640602637
 20
10.1585582142
 30
0.0
 10
11.1683703061
 20
10.167047078
 30
0.0
 10
11.1730971999
 20
10.1752901339
 30
0.0
 10
11.1782300287
 20
10.1832683871
 30
0.0
 10
11.1837569365
 20
10.1909634248
 30
0.0
 10
11.1896652768
 20
10.1983575346
 30
0.0
 10
11.1959411939
 20
10.2054334212
 30
0.0
 10
11.200361344
 20
10.2099285075
 30
0.0
 10
11.202626947
 20
10.2121169238
 30
0.0
  0
SPLINE
  5
39C
100
AcDbEntity
  8
0
100
AcDbSpline
 62
7
  6
CONTINUOUS
 70
0
 71
3
 72
54
 73
50
 74
0
 42
0.0000001
 43
0.0000001
 44
0.0000000001
 40
0.0
 40
0.0
 40
0.0
 40
0.0
 40
0.0099472337
 40
0.0203698704
 40
0.0312644864
 40
0.0426260491
 40
0.0544480896
 40
0.0667227976
 40
0.0794412503
 40
0.0925934343
 40
0.1061683672
 40
0.1201542188
 40
0.1345382898
 40
0.1493071622
 40
0.1644467127
 40
0.1799421393
 40
0.1957780755
 40
0.2119385556
 40
0.2451662193
 40
0.2794882552
 40
0.3147604925
 40
0.3508330981
 40
0.3875515635
 40
0.424757678
 40
0.4622904654
 40
0.4999871083
 40
0.5376838689
 40
0.5752170109
 40
0.6124237148
 40
0.6491429955
 40
0.6852166394
 40
0.7204901413
 40
0.7548136583
 40
0.7880429977
 40
0.8200406729
 40
0.8355371161
 40
0.8506777018
 40
0.8654476672
 40
0.8798328731
 40
0.8938198766
 40
0.9073960261
 40
0.9205494374
 40
0.9332691503
 40
0.9455451651
 40
0.9573685051
 40
0.9687314146
 40
0.9796273864
 40
0.9900513765
 40
1.0
 40
1.0
 40
1.0
 40
1.0
 10
11.1774439653
 20
10.5524432501
 30
0.0
 10
11.1745450543
 20
10.5538889378
 30
0.0
 10
11.1685579462
 20
10.5567484948
 30
0.0
 10
11.1592410033
 20
10.5608576283
 30
0.0
 10
11.1493879443
 20
10.5648824088
 30
0.0
 10
11.1390102443
 20
10.5688180939
 30
0.0
 10
11.1281198263
 20
10.5726601046
 30
0.0
 10
11.1167292957
 20
10.5764039975
 30
0.0
 10
11.1048518258
 20
10.5800453738
 30
0.0
 10
11.0925011833
 20
10.5835799934
 30
0.0
 10
11.0796916947
 20
10.5870037428
 30
0.0
 10
11.0664382234
 20
10.5903125883
 30
0.0
 10
11.052756166
 20
10.5935026956
 30
0.0
 10
11.0386614189
 20
10.5965703217
 30
0.0
 10
11.0241703628
 20
10.5995118733
 30
0.0
 10
11.0092998532
 20
10.6023239339
 30
0.0
 10
10.9940671643
 20
10.6050032105
 30
0.0
 10
10.9731035509
 20
10.6084259694
 30
0.0
 10
10.9461222955
 20
10.6123388411
 30
0.0
 10
10.9128843023
 20
10.6164169246
 30
0.0
 10
10.8786474572
 20
10.6199006838
 30
0.0
 10
10.8435710575
 20
10.6227737469
 30
0.0
 10
10.8078181659
 20
10.6250225914
 30
0.0
 10
10.7715550826
 20
10.6266366428
 30
0.0
 10
10.7349504897
 20
10.6276083078
 30
0.0
 10
10.6981746782
 20
10.6279330124
 30
0.0
 10
10.661398743
 20
10.627609237
 30
0.0
 10
10.6247937797
 20
10.6266385057
 30
0.0
 10
10.588530081
 20
10.6250253809
 30
0.0
 10
10.5527763382
 20
10.6227774403
 30
0.0
 10
10.5176988377
 20
10.6199052638
 30
0.0
 10
10.4834607003
 20
10.616422368
 30
0.0
 10
10.4502210286
 20
10.6123451623
 30
0.0
 10
10.4181344397
 20
10.6076928103
 30
0.0
 10
10.3922112365
 20
10.6033094907
 30
0.0
 10
10.3721682854
 20
10.5995201881
 30
0.0
 10
10.3576761023
 20
10.5965789719
 30
0.0
 10
10.3435801915
 20
10.5935117142
 30
0.0
 10
10.3298969202
 20
10.5903219614
 30
0.0
 10
10.3166421939
 20
10.5870134347
 30
0.0
 10
10.3038314014
 20
10.5835900297
 30
0.0
 10
10.2914794171
 20
10.5800557146
 30
0.0
 10
10.2796005646
 20
10.5764146336
 30
0.0
 10
10.2682086075
 20
10.5726710491
 30
0.0
 10
10.2573167351
 20
10.5688292925
 30
0.0
 10
10.246937537
 20
10.5648938839
 30
0.0
 10
10.2370829472
 20
10.5608693581
 30
0.0
 10
10.2277644523
 20
10.5567604379
 30
0.0
 10
10.2217762666
 20
10.5539010655
 30
0.0
 10
10.2188768132
 20
10.5524554515
 30
0.0
  0
SPLINE
  5
39D
100
AcDbEntity
  8
0
100
AcDbSpline
 62
7
  6
CONTINUOUS
 70
0
 71
3
 72
15
 73
11
 74
0
 42
0.0000001
 43
0.0000001
 44
0.0000000001
 40
0.0
 40
0.0
 40
0.0
 40
0.0
 40
0.125821386
 40
0.2513848335
 40
0.3766927344
 40
0.5017544303
 40
0.6265857147
 40
0.7512114245
 40
0.8756670204
 40
1.0
 40
1.0
 40
1.0
 40
1.0
 10
10.5666814825
 20
7.8534683997
 30
0.0
 10
10.5715520678
 20
7.851056174
 30
0.0
 10
10.5813003628
 20
7.8462710723
 30
0.0
 10
10.5959714011
 20
7.8392314423
 30
0.0
 10
10.6106902711
 20
7.8323693296
 30
0.0
 10
10.6254735855
 20
7.8257234245
 30
0.0
 10
10.6403405024
 20
7.819340288
 30
0.0
 10
10.6553124857
 20
7.8132756982
 30
0.0
 10
10.6704121003
 20
7.8075959347
 30
0.0
 10
10.6805827311
 20
7.8041161265
 30
0.0
 10
10.6856946427
 20
7.8024683995
 30
0.0
  0
SPLINE
  5
39E
100
AcDbEntity
  8
0
100
AcDbSpline
 62
4
  6
CONTINUOUS
 70
0
 71
3
 72
387
 73
383
 74
0
 42
0.0000001
 43
0.0000001
 44
0.0000000001
 40
0.0
 40
0.0
 40
0.0
 40
0.0
 40
0.015625
 40
0.0234375
 40
0.03125
 40
0.0390625
 40
0.04296875
 40
0.046875
 40
0.05078125
 40
0.0546875
 40
0.056640625
 40
0.05859375
 40
0.0595703125
 40
0.060546875
 40
0.0615234375
 40
0.0620117188
 40
0.0625
 40
0.0629882812
 40
0.0634765625
 40
0.064453125
 40
0.0654296875
 40
0.06640625
 40
0.068359375
 40
0.0703125
 40
0.07421875
 40
0.078125
 40
0.08203125
 40
0.0859375
 40
0.09375
 40
0.1015625
 40
0.10546875
 40
0.109375
 40
0.11328125
 40
0.1171875
 40
0.119140625
 40
0.12109375
 40
0.1220703125
 40
0.123046875
 40
0.1240234375
 40
0.1245117188
 40
0.1247558594
 40
0.125
 40
0.1252441406
 40
0.1254882812
 40
0.1259765625
 40
0.126953125
 40
0.1279296875
 40
0.12890625
 40
0.130859375
 40
0.1328125
 40
0.13671875
 40
0.140625
 40
0.14453125
 40
0.1484375
 40
0.15625
 40
0.1640625
 40
0.16796875
 40
0.171875
 40
0.17578125
 40
0.1796875
 40
0.181640625
 40
0.18359375
 40
0.1845703125
 40
0.185546875
 40
0.1865234375
 40
0.1870117188
 40
0.1872558594
 40
0.1875
 40
0.1877441406
 40
0.1879882812
 40
0.1884765625
 40
0.189453125
 40
0.1904296875
 40
0.19140625
 40
0.193359375
 40
0.1953125
 40
0.19921875
 40
0.203125
 40
0.20703125
 40
0.2109375
 40
0.21875
 40
0.2265625
 40
0.23046875
 40
0.234375
 40
0.23828125
 40
0.2421875
 40
0.244140625
 40
0.24609375
 40
0.2470703125
 40
0.248046875
 40
0.2490234375
 40
0.2495117188
 40
0.2497558594
 40
0.25
 40
0.2502441406
 40
0.2504882812
 40
0.2509765625
 40
0.251953125
 40
0.2529296875
 40
0.25390625
 40
0.255859375
 40
0.2578125
 40
0.26171875
 40
0.265625
 40
0.26953125
 40
0.2734375
 40
0.28125
 40
0.2890625
 40
0.29296875
 40
0.296875
 40
0.30078125
 40
0.3046875
 40
0.306640625
 40
0.30859375
 40
0.3095703125
 40
0.310546875
 40
0.3115234375
 40
0.3120117188
 40
0.3122558594
 40
0.3125
 40
0.3127441406
 40
0.3129882812
 40
0.3134765625
 40
0.314453125
 40
0.3154296875
 40
0.31640625
 40
0.318359375
 40
0.3203125
 40
0.32421875
 40
0.328125
 40
0.33203125
 40
0.3359375
 40
0.34375
 40
0.3515625
 40
0.35546875
 40
0.359375
 40
0.36328125
 40
0.3671875
 40
0.369140625
 40
0.37109375
 40
0.3720703125
 40
0.373046875
 40
0.3740234375
 40
0.3745117188
 40
0.3747558594
 40
0.375
 40
0.3752441406
 40
0.3754882812
 40
0.3759765625
 40
0.376953125
 40
0.3779296875
 40
0.37890625
 40
0.380859375
 40
0.3828125
 40
0.38671875
 40
0.390625
 40
0.39453125
 40
0.3984375
 40
0.40625
 40
0.4140625
 40
0.41796875
 40
0.421875
 40
0.42578125
 40
0.4296875
 40
0.431640625
 40
0.43359375
 40
0.4345703125
 40
0.435546875
 40
0.4365234375
 40
0.4370117188
 40
0.4372558594
 40
0.4375
 40
0.4377441406
 40
0.4379882812
 40
0.4384765625
 40
0.439453125
 40
0.4404296875
 40
0.44140625
 40
0.443359375
 40
0.4453125
 40
0.44921875
 40
0.453125
 40
0.45703125
 40
0.4609375
 40
0.46875
 40
0.4765625
 40
0.48046875
 40
0.484375
 40
0.48828125
 40
0.4921875
 40
0.494140625
 40
0.49609375
 40
0.4970703125
 40
0.498046875
 40
0.4990234375
 40
0.4995117188
 40
0.4997558594
 40
0.5
 40
0.5002441406
 40
0.5004882812
 40
0.5009765625
 40
0.501953125
 40
0.5029296875
 40
0.50390625
 40
0.505859375
 40
0.5078125
 40
0.51171875
 40
0.515625
 40
0.51953125
 40
0.5234375
 40
0.53125
 40
0.5390625
 40
0.54296875
 40
0.546875
 40
0.55078125
 40
0.5546875
 40
0.556640625
 40
0.55859375
 40
0.5595703125
 40
0.560546875
 40
0.5615234375
 40
0.5620117188
 40
0.5625
 40
0.5629882812
 40
0.5634765625
 40
0.564453125
 40
0.5654296875
 40
0.56640625
 40
0.568359375
 40
0.5703125
 40
0.57421875
 40
0.578125
 40
0.58203125
 40
0.5859375
 40
0.59375
 40
0.6015625
 40
0.60546875
 40
0.609375
 40
0.61328125
 40
0.6171875
 40
0.619140625
 40
0.62109375
 40
0.6220703125
 40
0.623046875
 40
0.6240234375
 40
0.6245117188
 40
0.625
 40
0.6254882812
 40
0.6259765625
 40
0.626953125
 40
0.6279296875
 40
0.62890625
 40
0.630859375
 40
0.6328125
 40
0.63671875
 40
0.640625
 40
0.64453125
 40
0.6484375
 40
0.65625
 40
0.6640625
 40
0.66796875
 40
0.671875
 40
0.67578125
 40
0.6796875
 40
0.681640625
 40
0.68359375
 40
0.6845703125
 40
0.685546875
 40
0.6865234375
 40
0.6870117188
 40
0.6875
 40
0.6879882812
 40
0.6884765625
 40
0.689453125
 40
0.6904296875
 40
0.69140625
 40
0.693359375
 40
0.6953125
 40
0.69921875
 40
0.703125
 40
0.70703125
 40
0.7109375
 40
0.71875
 40
0.7265625
 40
0.73046875
 40
0.734375
 40
0.73828125
 40
0.7421875
 40
0.744140625
 40
0.74609375
 40
0.7470703125
 40
0.748046875
 40
0.7490234375
 40
0.7495117188
 40
0.75
 40
0.7504882812
 40
0.7509765625
 40
0.751953125
 40
0.7529296875
 40
0.75390625
 40
0.755859375
 40
0.7578125
 40
0.76171875
 40
0.765625
 40
0.76953125
 40
0.7734375
 40
0.78125
 40
0.7890625
 40
0.79296875
 40
0.796875
 40
0.80078125
 40
0.8046875
 40
0.806640625
 40
0.80859375
 40
0.8095703125
 40
0.810546875
 40
0.8115234375
 40
0.8120117188
 40
0.8125
 40
0.8129882812
 40
0.8134765625
 40
0.814453125
 40
0.8154296875
 40
0.81640625
 40
0.818359375
 40
0.8203125
 40
0.82421875
 40
0.828125
 40
0.83203125
 40
0.8359375
 40
0.84375
 40
0.8515625
 40
0.85546875
 40
0.859375
 40
0.86328125
 40
0.8671875
 40
0.869140625
 40
0.87109375
 40
0.8720703125
 40
0.873046875
 40
0.8740234375
 40
0.8745117188
 40
0.875
 40
0.8754882812
 40
0.8759765625
 40
0.876953125
 40
0.8779296875
 40
0.87890625
 40
0.880859375
 40
0.8828125
 40
0.88671875
 40
0.890625
 40
0.89453125
 40
0.8984375
 40
0.90625
 40
0.9140625
 40
0.91796875
 40
0.921875
 40
0.92578125
 40
0.9296875
 40
0.931640625
 40
0.93359375
 40
0.9345703125
 40
0.935546875
 40
0.9365234375
 40
0.9370117188
 40
0.9375
 40
0.9379882812
 40
0.9384765625
 40
0.939453125
 40
0.9404296875
 40
0.94140625
 40
0.943359375
 40
0.9453125
 40
0.94921875
 40
0.953125
 40
0.95703125
 40
0.9609375
 40
0.96875
 40
0.9765625
 40
0.984375
 40
1.0
 40
1.0
 40
1.0
 40
1.0
 10
10.3809750547
 20
8.9438571903
 30
0.0
 10
10.3841082416
 20
8.9439471147
 30
0.0
 10
10.388808022
 20
8.9440820013
 30
0.0
 10
10.3950743958
 20
8.9442618501
 30
0.0
 10
10.3997741762
 20
8.9443967366
 30
0.0
 10
10.4036906598
 20
8.9445091426
 30
0.0
 10
10.4068238469
 20
8.9445990661
 30
0.0
 10
10.4091737365
 20
8.9446665122
 30
0.0
 10
10.4115236288
 20
8.944733945
 30
0.0
 10
10.4134818642
 20
8.9447901805
 30
0.0
 10
10.4150484707
 20
8.9448350759
 30
0.0
 10
10.4160275584
 20
8.9448633474
 30
0.0
 10
10.4168109233
 20
8.9448854793
 30
0.0
 10
10.4173981875
 20
8.9449034069
 30
0.0
 10
10.4178883999
 20
8.9449141199
 30
0.0
 10
10.4182787182
 20
8.94493217
 30
0.0
 10
10.4185765164
 20
8.9449198043
 30
0.0
 10
10.4188550024
 20
8.9450063119
 30
0.0
 10
10.4192330631
 20
8.9450871176
 30
0.0
 10
10.4197033244
 20
8.9451999745
 30
0.0
 10
10.4202686287
 20
8.9453303307
 30
0.0
 10
10.4210220217
 20
8.9455059105
 30
0.0
 10
10.4219638814
 20
8.9457247787
 30
0.0
 10
10.4234707908
 20
8.9460753068
 30
0.0
 10
10.4253544502
 20
8.9465133506
 30
0.0
 10
10.4276148317
 20
8.9470390531
 30
0.0
 10
10.4298752159
 20
8.9475647422
 30
0.0
 10
10.4328890605
 20
8.9482656656
 30
0.0
 10
10.4366563665
 20
8.9491418184
 30
0.0
 10
10.4404236726
 20
8.9500179716
 30
0.0
 10
10.4434375173
 20
8.9507188944
 30
0.0
 10
10.4456979012
 20
8.9512445854
 30
0.0
 10
10.4479582834
 20
8.9517702809
 30
0.0
 10
10.4498419409
 20
8.9522083463
 30
0.0
 10
10.4513488542
 20
8.9525588303
 30
0.0
 10
10.4522907038
 20
8.9527778109
 30
0.0
 10
10.4530441176
 20
8.9529531599
 30
0.0
 10
10.4536093584
 20
8.9530842213
 30
0.0
 10
10.4540798183
 20
8.9531948717
 30
0.0
 10
10.4544102668
 20
8.9532695157
 30
0.0
 10
10.4545973356
 20
8.9533165589
 30
0.0
 10
10.4547425921
 20
8.9533394761
 30
0.0
 10
10.4548689083
 20
8.9534096595
 30
0.0
 10
10.4550439364
 20
8.9534867503
 30
0.0
 10
10.4553471576
 20
8.9536293409
 30
0.0
 10
10.45578194
 20
8.9538290258
 30
0.0
 10
10.4563029901
 20
8.9540703666
 30
0.0
 10
10.456997964
 20
8.954391554
 30
0.0
 10
10.4578665992
 20
8.9547932437
 30
0.0
 10
10.4592564614
 20
8.9554358325
 30
0.0
 10
10.4609937733
 20
8.9562391078
 30
0.0
 10
10.4630785545
 20
8.9572030213
 30
0.0
 10
10.4651633338
 20
8.9581669393
 30
0.0
 10
10.4679430402
 20
8.9594521617
 30
0.0
 10
10.471417673
 20
8.9610586904
 30
0.0
 10
10.4748923059
 20
8.9626652186
 30
0.0
 10
10.477672012
 20
8.9639504417
 30
0.0
 10
10.4797567922
 20
8.9649143579
 30
0.0
 10
10.4818415701
 20
8.9658782784
 30
0.0
 10
10.4835788922
 20
8.9666815318
 30
0.0
 10
10.4849687337
 20
8.9673241653
 30
0.0
 10
10.4858374215
 20
8.967725741
 30
0.0
 10
10.4865322873
 20
8.9680471626
 30
0.0
 10
10.4870536679
 20
8.9682877877
 30
0.0
 10
10.487487416
 20
8.9684897118
 30
0.0
 10
10.4877924836
 20
8.968628305
 30
0.0
 10
10.4879645533
 20
8.9687118007
 30
0.0
 10
10.4880999571
 20
8.9687623106
 30
0.0
 10
10.4882110821
 20
8.9688591181
 30
0.0
 10
10.4883677175
 20
8.9689720457
 30
0.0
 10
10.4886378837
 20
8.9691771931
 30
0.0
 10
10.4890258983
 20
8.9694663272
 30
0.0
 10
10.4894906328
 20
8.9698149718
 30
0.0
 10
10.4901105872
 20
8.9702792432
 30
0.0
 10
10.4908854246
 20
8.9708597838
 30
0.0
 10
10.4921252235
 20
8.9717885361
 30
0.0
 10
10.4936749519
 20
8.9729495153
 30
0.0
 10
10.4955346347
 20
8.9743426736
 30
0.0
 10
10.4973943151
 20
8.9757358365
 30
0.0
 10
10.4998738898
 20
8.9775933853
 30
0.0
 10
10.5029733579
 20
8.979915322
 30
0.0
 10
10.5060728262
 20
8.9822372583
 30
0.0
 10
10.5085524005
 20
8.9840948077
 30
0.0
 10
10.5104120822
 20
8.9854879689
 30
0.0
 10
10.5122717602
 20
8.9868811334
 30
0.0
 10
10.5138215034
 20
8.9880420933
 30
0.0
 10
10.515061272
 20
8.9889708849
 30
0.0
 10
10.5158361866
 20
8.9895513259
 30
0.0
 10
10.5164559827
 20
8.9900158016
 30
0.0
 10
10.5169212008
 20
8.9903638219
 30
0.0
 10
10.5173077025
 20
8.9906549092
 30
0.0
 10
10.5175805694
 20
8.9908565698
 30
0.0
 10
10.5177328776
 20
8.9909750842
 30
0.0
 10
10.5178572944
 20
8.9910547306
 30
0.0
 10
10.5179427763
 20
8.9911696951
 30
0.0
 10
10.5180703332
 20
8.9913106617
 30
0.0
 10
10.5182872302
 20
8.9915630932
 30
0.0
 10
10.5186003911
 20
8.9919207087
 30
0.0
 10
10.5189747682
 20
8.9923511318
 30
0.0
 10
10.5194744322
 20
8.9929245806
 30
0.0
 10
10.5200988429
 20
8.9936415452
 30
0.0
 10
10.5210979947
 20
8.9947886028
 30
0.0
 10
10.522346902
 20
8.9962224541
 30
0.0
 10
10.5238456046
 20
8.9979430632
 30
0.0
 10
10.5253443036
 20
8.9996636756
 30
0.0
 10
10.5273425701
 20
9.0019578243
 30
0.0
 10
10.5298404028
 20
9.0048255106
 30
0.0
 10
10.5323382358
 20
9.0076931966
 30
0.0
 10
10.5343365017
 20
9.0099873457
 30
0.0
 10
10.5358352023
 20
9.0117079568
 30
0.0
 10
10.5373338989
 20
9.0134285708
 30
0.0
 10
10.538582825
 20
9.0148624067
 30
0.0
 10
10.5395819383
 20
9.0160094958
 30
0.0
 10
10.5402064469
 20
9.0167263802
 30
0.0
 10
10.5407059101
 20
9.0172999938
 30
0.0
 10
10.5410809009
 20
9.0177299133
 30
0.0
 10
10.5413921416
 20
9.0180891043
 30
0.0
 10
10.5416124665
 20
9.0183387232
 30
0.0
 10
10.5417345308
 20
9.0184841963
 30
0.0
 10
10.5418368842
 20
9.0185853185
 30
0.0
 10
10.541897935
 20
9.0187169545
 30
0.0
 10
10.541993743
 20
9.0188818256
 30
0.0
 10
10.5421546945
 20
9.0191753091
 30
0.0
 10
10.5423881345
 20
9.0195919786
 30
0.0
 10
10.5426667605
 20
9.0200930917
 30
0.0
 10
10.5430387864
 20
9.020760855
 30
0.0
 10
10.5435036391
 20
9.0215956917
 30
0.0
 10
10.544247504
 20
9.0229313563
 30
0.0
 10
10.5451773005
 20
9.0246009626
 30
0.0
 10
10.5462930711
 20
9.0266044792
 30
0.0
 10
10.5474088378
 20
9.0286079987
 30
0.0
 10
10.5488965281
 20
9.031279357
 30
0.0
 10
10.5507561405
 20
9.0346185553
 30
0.0
 10
10.5526157532
 20
9.0379577533
 30
0.0
 10
10.5541034429
 20
9.040629112
 30
0.0
 10
10.5552192114
 20
9.0426326304
 30
0.0
 10
10.5563349754
 20
9.044636151
 30
0.0
 10
10.5572647925
 20
9.0463057448
 30
0.0
 10
10.5580086155
 20
9.0476414347
 30
0.0
 10
10.5584735746
 20
9.0484762071
 30
0.0
 10
10.5588453822
 20
9.0491441025
 30
0.0
 10
10.5591246751
 20
9.0496448118
 30
0.0
 10
10.5593560285
 20
9.0500627448
 30
0.0
 10
10.559520705
 20
9.0503539727
 30
0.0
 10
10.5596105445
 20
9.0505224579
 30
0.0
 10
10.5596899284
 20
9.0506429925
 30
0.0
 10
10.559723426
 20
9.0507858099
 30
0.0
 10
10.5597840951
 20
9.0509684606
 30
0.0
 10
10.5598828087
 20
9.0512917207
 30
0.0
 10
10.5600277269
 20
9.0517516276
 30
0.0
 10
10.5601999599
 20
9.0523043262
 30
0.0
 10
10.5604301868
 20
9.0530409746
 30
0.0
 10
10.5607177709
 20
9.0539618821
 30
0.0
 10
10.561178017
 20
9.0554352798
 30
0.0
 10
10.5617532863
 20
9.0572770456
 30
0.0
 10
10.5624436258
 20
9.0594871566
 30
0.0
 10
10.563133961
 20
9.0616972697
 30
0.0
 10
10.5640544094
 20
9.0646440865
 30
0.0
 10
10.5652049694
 20
9.0683276076
 30
0.0
 10
10.5663555298
 20
9.0720111287
 30
0.0
 10
10.5672759776
 20
9.0749579457
 30
0.0
 10
10.5679663147
 20
9.077168058
 30
0.0
 10
10.5686566471
 20
9.079378172
 30
0.0
 10
10.5692319386
 20
9.0812199284
 30
0.0
 10
10.5696921393
 20
9.0826933453
 30
0.0
 10
10.5699798388
 20
9.0836142039
 30
0.0
 10
10.5702098289
 20
9.0843509526
 30
0.0
 10
10.5703827855
 20
9.084903345
 30
0.0
 10
10.5705254397
 20
9.0853642101
 30
0.0
 10
10.5706281949
 20
9.0856857595
 30
0.0
 10
10.5706823883
 20
9.0858711511
 30
0.0
 10
10.5707357774
 20
9.0860055494
 30
0.0
 10
10.570740452
 20
9.086157705
 30
0.0
 10
10.570763677
 20
9.0863543852
 30
0.0
 10
10.5707964038
 20
9.0867014615
 30
0.0
 10
10.5708472954
 20
9.087195776
 30
0.0
 10
10.5709065937
 20
9.0877895992
 30
0.0
 10
10.5709862769
 20
9.088581138
 30
0.0
 10
10.571085669
 20
9.0895706386
 30
0.0
 10
10.5712448148
 20
9.0911537964
 30
0.0
 10
10.5714437065
 20
9.0931327585
 30
0.0
 10
10.5716823938
 20
9.0955075066
 30
0.0
 10
10.5719210766
 20
9.0978822565
 30
0.0
 10
10.5722393218
 20
9.101048589
 30
0.0
 10
10.5726371278
 20
9.1050065049
 30
0.0
 10
10.5730349342
 20
9.1089644208
 30
0.0
 10
10.5733531787
 20
9.1121307534
 30
0.0
 10
10.5735918635
 20
9.1145055029
 30
0.0
 10
10.5738305433
 20
9.1168802524
 30
0.0
 10
10.5740294583
 20
9.1188592105
 30
0.0
 10
10.5741885565
 20
9.1204423764
 30
0.0
 10
10.5742880698
 20
9.1214318565
 30
0.0
 10
10.5743675043
 20
9.1222234373
 30
0.0
 10
10.5744275623
 20
9.122817132
 30
0.0
 10
10.5744760772
 20
9.1233118485
 30
0.0
 10
10.5745130468
 20
9.1236582071
 30
0.0
 10
10.5745294737
 20
9.1238560373
 30
0.0
 10
10.57455503
 20
9.1240046605
 30
0.0
 10
10.5745299909
 20
9.124152326
 30
0.0
 10
10.5745142536
 20
9.1243495473
 30
0.0
 10
10.5744784907
 20
9.1246945289
 30
0.0
 10
10.5744316997
 20
9.1251874413
 30
0.0
 10
10.5743737105
 20
9.1257789012
 30
0.0
 10
10.5742970343
 20
9.1265675266
 30
0.0
 10
10.5742009689
 20
9.1275533043
 30
0.0
 10
10.5740473874
 20
9.1291305508
 30
0.0
 10
10.5738553682
 20
9.1311021081
 30
0.0
 10
10.5736249633
 20
9.1334679773
 30
0.0
 10
10.5733945535
 20
9.1358338464
 30
0.0
 10
10.5730873422
 20
9.1389883385
 30
0.0
 10
10.5727033275
 20
9.1429314536
 30
0.0
 10
10.5723193126
 20
9.1468745687
 30
0.0
 10
10.5720121018
 20
9.150029061
 30
0.0
 10
10.5717816903
 20
9.1523949297
 30
0.0
 10
10.5715512919
 20
9.1547608001
 30
0.0
 10
10.5713592523
 20
9.1567323535
 30
0.0
 10
10.5712057124
 20
9.1583096081
 30
0.0
 10
10.571109541
 20
9.1592953653
 30
0.0
 10
10.5710330825
 20
9.1600840326
 30
0.0
 10
10.570974428
 20
9.1606753645
 30
0.0
 10
10.5709297187
 20
9.1611686775
 30
0.0
 10
10.5708845998
 20
9.1615621248
 30
0.0
 10
10.5708763131
 20
9.1618604977
 30
0.0
 10
10.5707704925
 20
9.1621463224
 30
0.0
 10
10.5706634682
 20
9.1625318052
 30
0.0
 10
10.5705179986
 20
9.1630121549
 30
0.0
 10
10.5703484384
 20
9.1635892182
 30
0.0
 10
10.5701206106
 20
9.1643584111
 30
0.0
 10
10.5698364242
 20
9.1653199792
 30
0.0
 10
10.5693813916
 20
9.1668584452
 30
0.0
 10
10.5688127155
 20
9.1687815424
 30
0.0
 10
10.5681302551
 20
9.1710892527
 30
0.0
 10
10.5674478078
 20
9.1733969648
 30
0.0
 10
10.5665378735
 20
9.1764739136
 30
0.0
 10
10.5654004573
 20
9.1803200998
 30
0.0
 10
10.5642630401
 20
9.1841662857
 30
0.0
 10
10.5633531075
 20
9.1872432349
 30
0.0
 10
10.5626706549
 20
9.1895509457
 30
0.0
 10
10.5619882146
 20
9.1918586607
 30
0.0
 10
10.5614194758
 20
9.1937817433
 30
0.0
 10
10.5609645712
 20
9.1953202391
 30
0.0
 10
10.5606800589
 20
9.1962817314
 30
0.0
 10
10.5604529002
 20
9.1970510799
 30
0.0
 10
10.5602812958
 20
9.1976276678
 30
0.0
 10
10.5601422219
 20
9.1981095049
 30
0.0
 10
10.5600221492
 20
9.1984919531
 30
0.0
 10
10.5599561777
 20
9.1987870454
 30
0.0
 10
10.5597982808
 20
9.1990506239
 30
0.0
 10
10.5596198624
 20
9.19941307
 30
0.0
 10
10.5593858223
 20
9.1998623508
 30
0.0
 10
10.5591096899
 20
9.2004031044
 30
0.0
 10
10.5587398662
 20
9.2011235445
 30
0.0
 10
10.5582781506
 20
9.202024288
 30
0.0
 10
10.5575390904
 20
9.2034653695
 30
0.0
 10
10.5566153734
 20
9.2052667585
 30
0.0
 10
10.5555068666
 20
9.2074284093
 30
0.0
 10
10.5543983721
 20
9.2095900645
 30
0.0
 10
10.5529203752
 20
9.2124722698
 30
0.0
 10
10.5510728807
 20
9.2160750271
 30
0.0
 10
10.5492253851
 20
9.2196777839
 30
0.0
 10
10.5477473899
 20
9.2225599899
 30
0.0
 10
10.5466388904
 20
9.224721643
 30
0.0
 10
10.5455304029
 20
9.2268833017
 30
0.0
 10
10.5446066257
 20
9.2286846662
 30
0.0
 10
10.5438676881
 20
9.2301257977
 30
0.0
 10
10.5434056607
 20
9.231026414
 30
0.0
 10
10.5430364769
 20
9.2317471151
 30
0.0
 10
10.5427583897
 20
9.2322870714
 30
0.0
 10
10.5425304656
 20
9.2327388467
 30
0.0
 10
10.5423395695
 20
9.2330962037
 30
0.0
 10
10.5422197788
 20
9.233375324
 30
0.0
 10
10.542010741
 20
9.2336120656
 30
0.0
 10
10.541763199
 20
9.2339425245
 30
0.0
 10
10.5414430756
 20
9.2343505191
 30
0.0
 10
10.5410635057
 20
9.2348422866
 30
0.0
 10
10.5405558135
 20
9.2354972173
 30
0.0
 10
10.5399217457
 20
9.2363161406
 30
0.0
 10
10.5389069313
 20
9.2376262727
 30
0.0
 10
10.5376385182
 20
9.2392639876
 30
0.0
 10
10.5361163775
 20
9.2412292242
 30
0.0
 10
10.5345942488
 20
9.2431944665
 30
0.0
 10
10.5325647397
 20
9.2458147875
 30
0.0
 10
10.5300278549
 20
9.2490901896
 30
0.0
 10
10.5274909692
 20
9.2523655909
 30
0.0
 10
10.5254614616
 20
9.2549859131
 30
0.0
 10
10.5239393285
 20
9.256951152
 30
0.0
 10
10.5224172043
 20
9.2589164009
 30
0.0
 10
10.52114874
 20
9.2605540775
 30
0.0
 10
10.52013403
 20
9.2618642878
 30
0.0
 10
10.5194996964
 20
9.262683012
 30
0.0
 10
10.5189925498
 20
9.2633383515
 30
0.0
 10
10.5186113129
 20
9.2638288702
 30
0.0
 10
10.518296405
 20
9.2642407719
 30
0.0
 10
10.5180382225
 20
9.2645632596
 30
0.0
 10
10.5178616803
 20
9.2648243449
 30
0.0
 10
10.5176198878
 20
9.2650120688
 30
0.0
 10
10.5173202905
 20
9.2652879934
 30
0.0
 10
10.5169379739
 20
9.265624107
 30
0.0
 10
10.5164825412
 20
9.2660312066
 30
0.0
 10
10.5158741285
 20
9.2665726917
 30
0.0
 10
10.5151140129
 20
9.2672499981
 30
0.0
 10
10.5138976042
 20
9.2683334368
 30
0.0
 10
10.5123771701
 20
9.2696878215
 30
0.0
 10
10.5105526163
 20
9.2713130461
 30
0.0
 10
10.5087280712
 20
9.2729382807
 30
0.0
 10
10.5062953415
 20
9.2751052566
 30
0.0
 10
10.5032544304
 20
9.2778139778
 30
0.0
 10
10.5002135186
 20
9.2805226981
 30
0.0
 10
10.4977807899
 20
9.2826896754
 30
0.0
 10
10.4959562415
 20
9.2843149057
 30
0.0
 10
10.4941317005
 20
9.2859401465
 30
0.0
 10
10.4926112264
 20
9.2872944808
 30
0.0
 10
10.4913948992
 20
9.2883780223
 30
0.0
 10
10.4906345762
 20
9.289055067
 30
0.0
 10
10.4900265893
 20
9.2895970894
 30
0.0
 10
10.4895698558
 20
9.2900025474
 30
0.0
 10
10.489191609
 20
9.2903437972
 30
0.0
 10
10.4888837085
 20
9.290609243
 30
0.0
 10
10.4886672737
 20
9.2908289684
 30
0.0
 10
10.4883955279
 20
9.2909699069
 30
0.0
 10
10.488052521
 20
9.2911853461
 30
0.0
 10
10.4876171335
 20
9.2914452028
 30
0.0
 10
10.4870975059
 20
9.2917610724
 30
0.0
 10
10.486403678
 20
9.2921808202
 30
0.0
 10
10.4855367325
 20
9.2927059884
 30
0.0
 10
10.48414943
 20
9.2935459873
 30
0.0
 10
10.482415367
 20
9.2945960786
 30
0.0
 10
10.4803344635
 20
9.2958561485
 30
0.0
 10
10.4782535674
 20
9.297116229
 30
0.0
 10
10.4754790367
 20
9.2987963326
 30
0.0
 10
10.4720108743
 20
9.3008964635
 30
0.0
 10
10.4685427114
 20
9.3029965934
 30
0.0
 10
10.4657681815
 20
9.3046766986
 30
0.0
 10
10.4636872828
 20
9.3059367743
 30
0.0
 10
10.4616063893
 20
9.3071968621
 30
0.0
 10
10.4598722953
 20
9.3082468978
 30
0.0
 10
10.458485056
 20
9.3090870102
 30
0.0
 10
10.4576179496
 20
9.3096118894
 30
0.0
 10
10.456924452
 20
9.3100322303
 30
0.0
 10
10.4564038153
 20
9.3103462881
 30
0.0
 10
10.4559715848
 20
9.3106118136
 30
0.0
 10
10.455622137
 20
9.3108156873
 30
0.0
 10
10.4553700614
 20
9.3109919465
 30
0.0
 10
10.4550797763
 20
9.3110790631
 30
0.0
 10
10.4547060766
 20
9.3112263572
 30
0.0
 10
10.4542343727
 20
9.3113997913
 30
0.0
 10
10.453670288
 20
9.3116124851
 30
0.0
 10
10.4529174906
 20
9.3118944796
 30
0.0
 10
10.4519767281
 20
9.3122475197
 30
0.0
 10
10.4504713772
 20
9.3128120781
 30
0.0
 10
10.4485897335
 20
9.3135178811
 30
0.0
 10
10.4463317418
 20
9.3143647997
 30
0.0
 10
10.4440737552
 20
9.3152117303
 30
0.0
 10
10.4410631047
 20
9.3163409669
 30
0.0
 10
10.4372997922
 20
9.3177525142
 30
0.0
 10
10.4335364793
 20
9.3191640604
 30
0.0
 10
10.4305258294
 20
9.3202932987
 30
0.0
 10
10.4282678409
 20
9.3211402241
 30
0.0
 10
10.4260098563
 20
9.3219871624
 30
0.0
 10
10.4241281904
 20
9.3226929041
 30
0.0
 10
10.4226228848
 20
9.3232575874
 30
0.0
 10
10.4216820071
 20
9.3236103098
 30
0.0
 10
10.4209294462
 20
9.3238929563
 30
0.0
 10
10.4203646389
 20
9.3241036584
 30
0.0
 10
10.4198951958
 20
9.3242833241
 30
0.0
 10
10.4195168835
 20
9.3244179046
 30
0.0
 10
10.4192406851
 20
9.3245438477
 30
0.0
 10
10.4189357221
 20
9.3245743357
 30
0.0
 10
10.4185391526
 20
9.3246483301
 30
0.0
 10
10.4180399934
 20
9.324729383
 30
0.0
 10
10.417442478
 20
9.3248315432
 30
0.0
 10
10.4166452753
 20
9.3249660465
 30
0.0
 10
10.4156489484
 20
9.3251347612
 30
0.0
 10
10.4140547267
 20
9.3254043774
 30
0.0
 10
10.4120619835
 20
9.32574151
 30
0.0
 10
10.4096706771
 20
9.326146021
 30
0.0
 10
10.4072793746
 20
9.3265505448
 30
0.0
 10
10.4040909699
 20
9.3270899055
 30
0.0
 10
10.4001054644
 20
9.3277641078
 30
0.0
 10
10.3953228577
 20
9.32857315
 30
0.0
 10
10.3889460489
 20
9.3296518731
 30
0.0
 10
10.3841634422
 20
9.3304609154
 30
0.0
 10
10.3809750378
 20
9.3310002769
 30
0.0
  0
SPLINE
  5
39F
100
AcDbEntity
  8
0
100
AcDbSpline
 62
4
  6
CONTINUOUS
 70
0
 71
3
 72
387
 73
383
 74
0
 42
0.0000001
 43
0.0000001
 44
0.0000000001
 40
0.0
 40
0.0
 40
0.0
 40
0.0
 40
0.015625
 40
0.0234375
 40
0.03125
 40
0.0390625
 40
0.04296875
 40
0.046875
 40
0.05078125
 40
0.0546875
 40
0.056640625
 40
0.05859375
 40
0.0595703125
 40
0.060546875
 40
0.0615234375
 40
0.0620117188
 40
0.0625
 40
0.0629882812
 40
0.0634765625
 40
0.064453125
 40
0.0654296875
 40
0.06640625
 40
0.068359375
 40
0.0703125
 40
0.07421875
 40
0.078125
 40
0.08203125
 40
0.0859375
 40
0.09375
 40
0.1015625
 40
0.10546875
 40
0.109375
 40
0.11328125
 40
0.1171875
 40
0.119140625
 40
0.12109375
 40
0.1220703125
 40
0.123046875
 40
0.1240234375
 40
0.1245117188
 40
0.1247558594
 40
0.125
 40
0.1252441406
 40
0.1254882812
 40
0.1259765625
 40
0.126953125
 40
0.1279296875
 40
0.12890625
 40
0.130859375
 40
0.1328125
 40
0.13671875
 40
0.140625
 40
0.14453125
 40
0.1484375
 40
0.15625
 40
0.1640625
 40
0.16796875
 40
0.171875
 40
0.17578125
 40
0.1796875
 40
0.181640625
 40
0.18359375
 40
0.1845703125
 40
0.185546875
 40
0.1865234375
 40
0.1870117188
 40
0.1872558594
 40
0.1875
 40
0.1877441406
 40
0.1879882812
 40
0.1884765625
 40
0.189453125
 40
0.1904296875
 40
0.19140625
 40
0.193359375
 40
0.1953125
 40
0.19921875
 40
0.203125
 40
0.20703125
 40
0.2109375
 40
0.21875
 40
0.2265625
 40
0.23046875
 40
0.234375
 40
0.23828125
 40
0.2421875
 40
0.244140625
 40
0.24609375
 40
0.2470703125
 40
0.248046875
 40
0.2490234375
 40
0.2495117188
 40
0.2497558594
 40
0.25
 40
0.2502441406
 40
0.2504882812
 40
0.2509765625
 40
0.251953125
 40
0.2529296875
 40
0.25390625
 40
0.255859375
 40
0.2578125
 40
0.26171875
 40
0.265625
 40
0.26953125
 40
0.2734375
 40
0.28125
 40
0.2890625
 40
0.29296875
 40
0.296875
 40
0.30078125
 40
0.3046875
 40
0.306640625
 40
0.30859375
 40
0.3095703125
 40
0.310546875
 40
0.3115234375
 40
0.3120117188
 40
0.3122558594
 40
0.3125
 40
0.3127441406
 40
0.3129882812
 40
0.3134765625
 40
0.314453125
 40
0.3154296875
 40
0.31640625
 40
0.318359375
 40
0.3203125
 40
0.32421875
 40
0.328125
 40
0.33203125
 40
0.3359375
 40
0.34375
 40
0.3515625
 40
0.35546875
 40
0.359375
 40
0.36328125
 40
0.3671875
 40
0.369140625
 40
0.37109375
 40
0.3720703125
 40
0.373046875
 40
0.3740234375
 40
0.3745117188
 40
0.3747558594
 40
0.375
 40
0.3752441406
 40
0.3754882812
 40
0.3759765625
 40
0.376953125
 40
0.3779296875
 40
0.37890625
 40
0.380859375
 40
0.3828125
 40
0.38671875
 40
0.390625
 40
0.39453125
 40
0.3984375
 40
0.40625
 40
0.4140625
 40
0.41796875
 40
0.421875
 40
0.42578125
 40
0.4296875
 40
0.431640625
 40
0.43359375
 40
0.4345703125
 40
0.435546875
 40
0.4365234375
 40
0.4370117188
 40
0.4372558594
 40
0.4375
 40
0.4377441406
 40
0.4379882812
 40
0.4384765625
 40
0.439453125
 40
0.4404296875
 40
0.44140625
 40
0.443359375
 40
0.4453125
 40
0.44921875
 40
0.453125
 40
0.45703125
 40
0.4609375
 40
0.46875
 40
0.4765625
 40
0.48046875
 40
0.484375
 40
0.48828125
 40
0.4921875
 40
0.494140625
 40
0.49609375
 40
0.4970703125
 40
0.498046875
 40
0.4990234375
 40
0.4995117188
 40
0.4997558594
 40
0.5
 40
0.5002441406
 40
0.5004882812
 40
0.5009765625
 40
0.501953125
 40
0.5029296875
 40
0.50390625
 40
0.505859375
 40
0.5078125
 40
0.51171875
 40
0.515625
 40
0.51953125
 40
0.5234375
 40
0.53125
 40
0.5390625
 40
0.54296875
 40
0.546875
 40
0.55078125
 40
0.5546875
 40
0.556640625
 40
0.55859375
 40
0.5595703125
 40
0.560546875
 40
0.5615234375
 40
0.5620117188
 40
0.5625
 40
0.5629882812
 40
0.5634765625
 40
0.564453125
 40
0.5654296875
 40
0.56640625
 40
0.568359375
 40
0.5703125
 40
0.57421875
 40
0.578125
 40
0.58203125
 40
0.5859375
 40
0.59375
 40
0.6015625
 40
0.60546875
 40
0.609375
 40
0.61328125
 40
0.6171875
 40
0.619140625
 40
0.62109375
 40
0.6220703125
 40
0.623046875
 40
0.6240234375
 40
0.6245117188
 40
0.625
 40
0.6254882812
 40
0.6259765625
 40
0.626953125
 40
0.6279296875
 40
0.62890625
 40
0.630859375
 40
0.6328125
 40
0.63671875
 40
0.640625
 40
0.64453125
 40
0.6484375
 40
0.65625
 40
0.6640625
 40
0.66796875
 40
0.671875
 40
0.67578125
 40
0.6796875
 40
0.681640625
 40
0.68359375
 40
0.6845703125
 40
0.685546875
 40
0.6865234375
 40
0.6870117188
 40
0.6875
 40
0.6879882812
 40
0.6884765625
 40
0.689453125
 40
0.6904296875
 40
0.69140625
 40
0.693359375
 40
0.6953125
 40
0.69921875
 40
0.703125
 40
0.70703125
 40
0.7109375
 40
0.71875
 40
0.7265625
 40
0.73046875
 40
0.734375
 40
0.73828125
 40
0.7421875
 40
0.744140625
 40
0.74609375
 40
0.7470703125
 40
0.748046875
 40
0.7490234375
 40
0.7495117188
 40
0.75
 40
0.7504882812
 40
0.7509765625
 40
0.751953125
 40
0.7529296875
 40
0.75390625
 40
0.755859375
 40
0.7578125
 40
0.76171875
 40
0.765625
 40
0.76953125
 40
0.7734375
 40
0.78125
 40
0.7890625
 40
0.79296875
 40
0.796875
 40
0.80078125
 40
0.8046875
 40
0.806640625
 40
0.80859375
 40
0.8095703125
 40
0.810546875
 40
0.8115234375
 40
0.8120117188
 40
0.8125
 40
0.8129882812
 40
0.8134765625
 40
0.814453125
 40
0.8154296875
 40
0.81640625
 40
0.818359375
 40
0.8203125
 40
0.82421875
 40
0.828125
 40
0.83203125
 40
0.8359375
 40
0.84375
 40
0.8515625
 40
0.85546875
 40
0.859375
 40
0.86328125
 40
0.8671875
 40
0.869140625
 40
0.87109375
 40
0.8720703125
 40
0.873046875
 40
0.8740234375
 40
0.8745117188
 40
0.875
 40
0.8754882812
 40
0.8759765625
 40
0.876953125
 40
0.8779296875
 40
0.87890625
 40
0.880859375
 40
0.8828125
 40
0.88671875
 40
0.890625
 40
0.89453125
 40
0.8984375
 40
0.90625
 40
0.9140625
 40
0.91796875
 40
0.921875
 40
0.92578125
 40
0.9296875
 40
0.931640625
 40
0.93359375
 40
0.9345703125
 40
0.935546875
 40
0.9365234375
 40
0.9370117188
 40
0.9375
 40
0.9379882812
 40
0.9384765625
 40
0.939453125
 40
0.9404296875
 40
0.94140625
 40
0.943359375
 40
0.9453125
 40
0.94921875
 40
0.953125
 40
0.95703125
 40
0.9609375
 40
0.96875
 40
0.9765625
 40
0.984375
 40
1.0
 40
1.0
 40
1.0
 40
1.0
 10
10.3809750547
 20
9.3310002757
 30
0.0
 10
10.3778418678
 20
9.3309103513
 30
0.0
 10
10.3731420874
 20
9.3307754647
 30
0.0
 10
10.3668757136
 20
9.3305956158
 30
0.0
 10
10.3621759332
 20
9.3304607294
 30
0.0
 10
10.3582594496
 20
9.3303483234
 30
0.0
 10
10.3551262625
 20
9.3302583999
 30
0.0
 10
10.3527763729
 20
9.3301909538
 30
0.0
 10
10.3504264806
 20
9.330123521
 30
0.0
 10
10.3484682452
 20
9.3300672855
 30
0.0
 10
10.3469016387
 20
9.3300223901
 30
0.0
 10
10.345922551
 20
9.3299941186
 30
0.0
 10
10.3451391861
 20
9.3299719867
 30
0.0
 10
10.3445519219
 20
9.3299540591
 30
0.0
 10
10.3440617095
 20
9.3299433461
 30
0.0
 10
10.3436713912
 20
9.329925296
 30
0.0
 10
10.343373593
 20
9.3299376616
 30
0.0
 10
10.343095107
 20
9.3298511541
 30
0.0
 10
10.3427170463
 20
9.3297703483
 30
0.0
 10
10.342246785
 20
9.3296574915
 30
0.0
 10
10.3416814807
 20
9.3295271353
 30
0.0
 10
10.3409280877
 20
9.3293515555
 30
0.0
 10
10.339986228
 20
9.3291326873
 30
0.0
 10
10.3384793187
 20
9.3287821592
 30
0.0
 10
10.3365956593
 20
9.3283441154
 30
0.0
 10
10.3343352777
 20
9.3278184129
 30
0.0
 10
10.3320748936
 20
9.3272927238
 30
0.0
 10
10.329061049
 20
9.3265918003
 30
0.0
 10
10.3252937429
 20
9.3257156476
 30
0.0
 10
10.3215264368
 20
9.3248394944
 30
0.0
 10
10.3185125922
 20
9.3241385716
 30
0.0
 10
10.3162522082
 20
9.3236128806
 30
0.0
 10
10.313991826
 20
9.3230871851
 30
0.0
 10
10.3121081686
 20
9.3226491196
 30
0.0
 10
10.3106012552
 20
9.3222986357
 30
0.0
 10
10.3096594056
 20
9.3220796551
 30
0.0
 10
10.3089059918
 20
9.3219043061
 30
0.0
 10
10.3083407511
 20
9.3217732447
 30
0.0
 10
10.3078702911
 20
9.3216625943
 30
0.0
 10
10.3075398426
 20
9.3215879503
 30
0.0
 10
10.3073527739
 20
9.3215409071
 30
0.0
 10
10.3072075174
 20
9.3215179899
 30
0.0
 10
10.3070812012
 20
9.3214478065
 30
0.0
 10
10.306906173
 20
9.3213707157
 30
0.0
 10
10.3066029518
 20
9.321228125
 30
0.0
 10
10.3061681694
 20
9.3210284402
 30
0.0
 10
10.3056471194
 20
9.3207870994
 30
0.0
 10
10.3049521454
 20
9.320465912
 30
0.0
 10
10.3040835103
 20
9.3200642223
 30
0.0
 10
10.3026936481
 20
9.3194216335
 30
0.0
 10
10.3009563361
 20
9.3186183582
 30
0.0
 10
10.298871555
 20
9.3176544447
 30
0.0
 10
10.2967867756
 20
9.3166905267
 30
0.0
 10
10.2940070692
 20
9.3154053042
 30
0.0
 10
10.2905324365
 20
9.3137987756
 30
0.0
 10
10.2870578035
 20
9.3121922473
 30
0.0
 10
10.2842780974
 20
9.3109070243
 30
0.0
 10
10.2821933172
 20
9.3099431081
 30
0.0
 10
10.2801085394
 20
9.3089791876
 30
0.0
 10
10.2783712172
 20
9.3081759342
 30
0.0
 10
10.2769813757
 20
9.3075333007
 30
0.0
 10
10.2761126879
 20
9.307131725
 30
0.0
 10
10.2754178221
 20
9.3068103034
 30
0.0
 10
10.2748964415
 20
9.3065696783
 30
0.0
 10
10.2744626934
 20
9.3063677542
 30
0.0
 10
10.2741576258
 20
9.306229161
 30
0.0
 10
10.2739855561
 20
9.3061456653
 30
0.0
 10
10.2738501523
 20
9.3060951554
 30
0.0
 10
10.2737390273
 20
9.3059983479
 30
0.0
 10
10.2735823919
 20
9.3058854203
 30
0.0
 10
10.2733122257
 20
9.3056802728
 30
0.0
 10
10.2729242112
 20
9.3053911388
 30
0.0
 10
10.2724594767
 20
9.3050424942
 30
0.0
 10
10.2718395222
 20
9.3045782228
 30
0.0
 10
10.2710646848
 20
9.3039976822
 30
0.0
 10
10.2698248859
 20
9.3030689298
 30
0.0
 10
10.2682751575
 20
9.3019079507
 30
0.0
 10
10.2664154748
 20
9.3005147923
 30
0.0
 10
10.2645557943
 20
9.2991216295
 30
0.0
 10
10.2620762196
 20
9.2972640807
 30
0.0
 10
10.2589767516
 20
9.294942144
 30
0.0
 10
10.2558772832
 20
9.2926202077
 30
0.0
 10
10.2533977089
 20
9.2907626583
 30
0.0
 10
10.2515380272
 20
9.2893694971
 30
0.0
 10
10.2496783493
 20
9.2879763326
 30
0.0
 10
10.248128606
 20
9.2868153726
 30
0.0
 10
10.2468888374
 20
9.2858865811
 30
0.0
 10
10.2461139229
 20
9.2853061401
 30
0.0
 10
10.2454941267
 20
9.2848416644
 30
0.0
 10
10.2450289087
 20
9.2844936441
 30
0.0
 10
10.2446424069
 20
9.2842025567
 30
0.0
 10
10.24436954
 20
9.2840008962
 30
0.0
 10
10.2442172319
 20
9.2838823817
 30
0.0
 10
10.2440928151
 20
9.2838027354
 30
0.0
 10
10.2440073331
 20
9.2836877709
 30
0.0
 10
10.2438797762
 20
9.2835468042
 30
0.0
 10
10.2436628793
 20
9.2832943728
 30
0.0
 10
10.2433497184
 20
9.2829367573
 30
0.0
 10
10.2429753413
 20
9.2825063342
 30
0.0
 10
10.2424756772
 20
9.2819328854
 30
0.0
 10
10.2418512665
 20
9.2812159208
 30
0.0
 10
10.2408521147
 20
9.2800688632
 30
0.0
 10
10.2396032074
 20
9.2786350118
 30
0.0
 10
10.2381045048
 20
9.2769144028
 30
0.0
 10
10.2366058059
 20
9.2751937904
 30
0.0
 10
10.2346075393
 20
9.2728996417
 30
0.0
 10
10.2321097067
 20
9.2700319554
 30
0.0
 10
10.2296118737
 20
9.2671642694
 30
0.0
 10
10.2276136077
 20
9.2648701202
 30
0.0
 10
10.2261149071
 20
9.2631495091
 30
0.0
 10
10.2246162106
 20
9.2614288951
 30
0.0
 10
10.2233672844
 20
9.2599950592
 30
0.0
 10
10.2223681711
 20
9.2588479701
 30
0.0
 10
10.2217436625
 20
9.2581310858
 30
0.0
 10
10.2212441994
 20
9.2575574722
 30
0.0
 10
10.2208692085
 20
9.2571275527
 30
0.0
 10
10.2205579679
 20
9.2567683616
 30
0.0
 10
10.2203376429
 20
9.2565187428
 30
0.0
 10
10.2202155786
 20
9.2563732697
 30
0.0
 10
10.2201132253
 20
9.2562721475
 30
0.0
 10
10.2200521744
 20
9.2561405115
 30
0.0
 10
10.2199563665
 20
9.2559756404
 30
0.0
 10
10.2197954149
 20
9.2556821569
 30
0.0
 10
10.2195619749
 20
9.2552654874
 30
0.0
 10
10.219283349
 20
9.2547643743
 30
0.0
 10
10.218911323
 20
9.254096611
 30
0.0
 10
10.2184464703
 20
9.2532617743
 30
0.0
 10
10.2177026055
 20
9.2519261096
 30
0.0
 10
10.2167728089
 20
9.2502565034
 30
0.0
 10
10.2156570383
 20
9.2482529868
 30
0.0
 10
10.2145412716
 20
9.2462494673
 30
0.0
 10
10.2130535813
 20
9.243578109
 30
0.0
 10
10.2111939689
 20
9.2402389107
 30
0.0
 10
10.2093343562
 20
9.2368997127
 30
0.0
 10
10.2078466665
 20
9.234228354
 30
0.0
 10
10.2067308981
 20
9.2322248356
 30
0.0
 10
10.205615134
 20
9.230221315
 30
0.0
 10
10.204685317
 20
9.2285517212
 30
0.0
 10
10.2039414939
 20
9.2272160312
 30
0.0
 10
10.2034765348
 20
9.2263812589
 30
0.0
 10
10.2031047272
 20
9.2257133635
 30
0.0
 10
10.2028254343
 20
9.2252126542
 30
0.0
 10
10.202594081
 20
9.2247947211
 30
0.0
 10
10.2024294044
 20
9.2245034933
 30
0.0
 10
10.2023395649
 20
9.224335008
 30
0.0
 10
10.202260181
 20
9.2242144735
 30
0.0
 10
10.2022266834
 20
9.2240716561
 30
0.0
 10
10.2021660143
 20
9.2238890054
 30
0.0
 10
10.2020673007
 20
9.2235657453
 30
0.0
 10
10.2019223825
 20
9.2231058384
 30
0.0
 10
10.2017501495
 20
9.2225531398
 30
0.0
 10
10.2015199226
 20
9.2218164914
 30
0.0
 10
10.2012323385
 20
9.2208955839
 30
0.0
 10
10.2007720925
 20
9.2194221861
 30
0.0
 10
10.2001968232
 20
9.2175804204
 30
0.0
 10
10.1995064836
 20
9.2153703094
 30
0.0
 10
10.1988161484
 20
9.2131601963
 30
0.0
 10
10.1978957
 20
9.2102133795
 30
0.0
 10
10.19674514
 20
9.2065298583
 30
0.0
 10
10.1955945796
 20
9.2028463373
 30
0.0
 10
10.1946741318
 20
9.1998995203
 30
0.0
 10
10.1939837948
 20
9.197689408
 30
0.0
 10
10.1932934623
 20
9.195479294
 30
0.0
 10
10.1927181708
 20
9.1936375376
 30
0.0
 10
10.1922579701
 20
9.1921641207
 30
0.0
 10
10.1919702706
 20
9.191243262
 30
0.0
 10
10.1917402806
 20
9.1905065134
 30
0.0
 10
10.1915673239
 20
9.189954121
 30
0.0
 10
10.1914246698
 20
9.1894932559
 30
0.0
 10
10.1913219145
 20
9.1891717065
 30
0.0
 10
10.1912677212
 20
9.1889863148
 30
0.0
 10
10.1912143321
 20
9.1888519166
 30
0.0
 10
10.1912096574
 20
9.188699761
 30
0.0
 10
10.1911864324
 20
9.1885030807
 30
0.0
 10
10.1911537057
 20
9.1881560044
 30
0.0
 10
10.191102814
 20
9.1876616899
 30
0.0
 10
10.1910435157
 20
9.1870678667
 30
0.0
 10
10.1909638325
 20
9.186276328
 30
0.0
 10
10.1908644404
 20
9.1852868274
 30
0.0
 10
10.1907052946
 20
9.1837036696
 30
0.0
 10
10.190506403
 20
9.1817247075
 30
0.0
 10
10.1902677156
 20
9.1793499593
 30
0.0
 10
10.1900290329
 20
9.1769752095
 30
0.0
 10
10.1897107876
 20
9.1738088769
 30
0.0
 10
10.1893129816
 20
9.169850961
 30
0.0
 10
10.1889151753
 20
9.1658930452
 30
0.0
 10
10.1885969307
 20
9.1627267126
 30
0.0
 10
10.188358246
 20
9.1603519631
 30
0.0
 10
10.1881195661
 20
9.1579772136
 30
0.0
 10
10.1879206511
 20
9.1559982555
 30
0.0
 10
10.1877615529
 20
9.1544150896
 30
0.0
 10
10.1876620396
 20
9.1534256095
 30
0.0
 10
10.1875826051
 20
9.1526340287
 30
0.0
 10
10.1875225472
 20
9.152040334
 30
0.0
 10
10.1874740323
 20
9.1515456175
 30
0.0
 10
10.1874370626
 20
9.1511992589
 30
0.0
 10
10.1874206357
 20
9.1510014287
 30
0.0
 10
10.1873950794
 20
9.1508528054
 30
0.0
 10
10.1874201186
 20
9.15070514
 30
0.0
 10
10.1874358558
 20
9.1505079187
 30
0.0
 10
10.1874716187
 20
9.150162937
 30
0.0
 10
10.1875184097
 20
9.1496700247
 30
0.0
 10
10.1875763989
 20
9.1490785648
 30
0.0
 10
10.1876530751
 20
9.1482899394
 30
0.0
 10
10.1877491405
 20
9.1473041617
 30
0.0
 10
10.1879027221
 20
9.1457269152
 30
0.0
 10
10.1880947412
 20
9.1437553579
 30
0.0
 10
10.1883251462
 20
9.1413894887
 30
0.0
 10
10.1885555559
 20
9.1390236196
 30
0.0
 10
10.1888627673
 20
9.1358691275
 30
0.0
 10
10.1892467819
 20
9.1319260123
 30
0.0
 10
10.1896307969
 20
9.1279828973
 30
0.0
 10
10.1899380076
 20
9.124828405
 30
0.0
 10
10.1901684191
 20
9.1224625363
 30
0.0
 10
10.1903988175
 20
9.1200966659
 30
0.0
 10
10.1905908571
 20
9.1181251124
 30
0.0
 10
10.190744397
 20
9.1165478579
 30
0.0
 10
10.1908405685
 20
9.1155621007
 30
0.0
 10
10.1909170269
 20
9.1147734334
 30
0.0
 10
10.1909756815
 20
9.1141821015
 30
0.0
 10
10.1910203908
 20
9.1136887885
 30
0.0
 10
10.1910655096
 20
9.1132953412
 30
0.0
 10
10.1910737963
 20
9.1129969683
 30
0.0
 10
10.1911796169
 20
9.1127111436
 30
0.0
 10
10.1912866413
 20
9.1123256608
 30
0.0
 10
10.1914321109
 20
9.1118453111
 30
0.0
 10
10.191601671
 20
9.1112682478
 30
0.0
 10
10.1918294988
 20
9.1104990549
 30
0.0
 10
10.1921136852
 20
9.1095374868
 30
0.0
 10
10.1925687178
 20
9.1079990208
 30
0.0
 10
10.1931373939
 20
9.1060759236
 30
0.0
 10
10.1938198543
 20
9.1037682132
 30
0.0
 10
10.1945023016
 20
9.1014605012
 30
0.0
 10
10.1954122359
 20
9.0983835524
 30
0.0
 10
10.1965496521
 20
9.0945373662
 30
0.0
 10
10.1976870694
 20
9.0906911802
 30
0.0
 10
10.1985970019
 20
9.0876142311
 30
0.0
 10
10.1992794545
 20
9.0853065203
 30
0.0
 10
10.1999618948
 20
9.0829988052
 30
0.0
 10
10.2005306336
 20
9.0810757226
 30
0.0
 10
10.2009855382
 20
9.0795372269
 30
0.0
 10
10.2012700505
 20
9.0785757346
 30
0.0
 10
10.2014972092
 20
9.0778063861
 30
0.0
 10
10.2016688136
 20
9.0772297982
 30
0.0
 10
10.2018078875
 20
9.0767479611
 30
0.0
 10
10.2019279602
 20
9.0763655129
 30
0.0
 10
10.2019939318
 20
9.0760704206
 30
0.0
 10
10.2021518286
 20
9.0758068421
 30
0.0
 10
10.2023302471
 20
9.075444396
 30
0.0
 10
10.2025642871
 20
9.0749951152
 30
0.0
 10
10.2028404196
 20
9.0744543616
 30
0.0
 10
10.2032102432
 20
9.0737339215
 30
0.0
 10
10.2036719588
 20
9.072833178
 30
0.0
 10
10.204411019
 20
9.0713920965
 30
0.0
 10
10.205334736
 20
9.0695907075
 30
0.0
 10
10.2064432429
 20
9.0674290566
 30
0.0
 10
10.2075517373
 20
9.0652674015
 30
0.0
 10
10.2090297342
 20
9.0623851962
 30
0.0
 10
10.2108772287
 20
9.0587824389
 30
0.0
 10
10.2127247243
 20
9.0551796821
 30
0.0
 10
10.2142027195
 20
9.052297476
 30
0.0
 10
10.2153112191
 20
9.050135823
 30
0.0
 10
10.2164197066
 20
9.0479741643
 30
0.0
 10
10.2173434837
 20
9.0461727998
 30
0.0
 10
10.2180824214
 20
9.0447316683
 30
0.0
 10
10.2185444487
 20
9.0438310519
 30
0.0
 10
10.2189136325
 20
9.0431103509
 30
0.0
 10
10.2191917197
 20
9.0425703946
 30
0.0
 10
10.2194196438
 20
9.0421186193
 30
0.0
 10
10.2196105399
 20
9.0417612623
 30
0.0
 10
10.2197303307
 20
9.041482142
 30
0.0
 10
10.2199393685
 20
9.0412454004
 30
0.0
 10
10.2201869104
 20
9.0409149415
 30
0.0
 10
10.2205070338
 20
9.0405069469
 30
0.0
 10
10.2208866037
 20
9.0400151794
 30
0.0
 10
10.2213942959
 20
9.0393602487
 30
0.0
 10
10.2220283637
 20
9.0385413253
 30
0.0
 10
10.2230431782
 20
9.0372311933
 30
0.0
 10
10.2243115912
 20
9.0355934783
 30
0.0
 10
10.2258337319
 20
9.0336282418
 30
0.0
 10
10.2273558606
 20
9.0316629995
 30
0.0
 10
10.2293853697
 20
9.0290426785
 30
0.0
 10
10.2319222545
 20
9.0257672764
 30
0.0
 10
10.2344591402
 20
9.022491875
 30
0.0
 10
10.2364886479
 20
9.0198715529
 30
0.0
 10
10.2380107809
 20
9.0179063139
 30
0.0
 10
10.2395329052
 20
9.0159410651
 30
0.0
 10
10.2408013694
 20
9.0143033885
 30
0.0
 10
10.2418160795
 20
9.0129931782
 30
0.0
 10
10.242450413
 20
9.012174454
 30
0.0
 10
10.2429575597
 20
9.0115191145
 30
0.0
 10
10.2433387965
 20
9.0110285958
 30
0.0
 10
10.2436537045
 20
9.0106166941
 30
0.0
 10
10.2439118869
 20
9.0102942064
 30
0.0
 10
10.2440884292
 20
9.0100331211
 30
0.0
 10
10.2443302217
 20
9.0098453972
 30
0.0
 10
10.2446298189
 20
9.0095694726
 30
0.0
 10
10.2450121355
 20
9.009233359
 30
0.0
 10
10.2454675682
 20
9.0088262594
 30
0.0
 10
10.2460759809
 20
9.0082847743
 30
0.0
 10
10.2468360965
 20
9.0076074679
 30
0.0
 10
10.2480525052
 20
9.0065240292
 30
0.0
 10
10.2495729393
 20
9.0051696445
 30
0.0
 10
10.2513974932
 20
9.0035444198
 30
0.0
 10
10.2532220382
 20
9.0019191853
 30
0.0
 10
10.255654768
 20
8.9997522094
 30
0.0
 10
10.2586956791
 20
8.9970434882
 30
0.0
 10
10.2617365909
 20
8.9943347679
 30
0.0
 10
10.2641693195
 20
8.9921677905
 30
0.0
 10
10.2659938679
 20
8.9905425603
 30
0.0
 10
10.2678184089
 20
8.9889173195
 30
0.0
 10
10.269338883
 20
8.9875629852
 30
0.0
 10
10.2705552102
 20
8.9864794437
 30
0.0
 10
10.2713155332
 20
8.985802399
 30
0.0
 10
10.2719235202
 20
8.9852603766
 30
0.0
 10
10.2723802537
 20
8.9848549186
 30
0.0
 10
10.2727585004
 20
8.9845136688
 30
0.0
 10
10.273066401
 20
8.984248223
 30
0.0
 10
10.2732828357
 20
8.9840284976
 30
0.0
 10
10.2735545815
 20
8.9838875591
 30
0.0
 10
10.2738975884
 20
8.9836721199
 30
0.0
 10
10.2743329759
 20
8.9834122632
 30
0.0
 10
10.2748526035
 20
8.9830963936
 30
0.0
 10
10.2755464314
 20
8.9826766457
 30
0.0
 10
10.2764133769
 20
8.9821514776
 30
0.0
 10
10.2778006794
 20
8.9813114787
 30
0.0
 10
10.2795347424
 20
8.9802613873
 30
0.0
 10
10.281615646
 20
8.9790013175
 30
0.0
 10
10.283696542
 20
8.977741237
 30
0.0
 10
10.2864710727
 20
8.9760611334
 30
0.0
 10
10.2899392351
 20
8.9739610025
 30
0.0
 10
10.2934073981
 20
8.9718608726
 30
0.0
 10
10.2961819279
 20
8.9701807674
 30
0.0
 10
10.2982628266
 20
8.9689206916
 30
0.0
 10
10.3003437201
 20
8.9676606039
 30
0.0
 10
10.3020778142
 20
8.9666105682
 30
0.0
 10
10.3034650534
 20
8.9657704558
 30
0.0
 10
10.3043321598
 20
8.9652455765
 30
0.0
 10
10.3050256574
 20
8.9648252356
 30
0.0
 10
10.3055462941
 20
8.9645111779
 30
0.0
 10
10.3059785246
 20
8.9642456523
 30
0.0
 10
10.3063279724
 20
8.9640417787
 30
0.0
 10
10.306580048
 20
8.9638655195
 30
0.0
 10
10.3068703331
 20
8.9637784029
 30
0.0
 10
10.3072440328
 20
8.9636311088
 30
0.0
 10
10.3077157367
 20
8.9634576747
 30
0.0
 10
10.3082798214
 20
8.9632449809
 30
0.0
 10
10.3090326189
 20
8.9629629864
 30
0.0
 10
10.3099733813
 20
8.9626099463
 30
0.0
 10
10.3114787322
 20
8.9620453878
 30
0.0
 10
10.3133603759
 20
8.9613395849
 30
0.0
 10
10.3156183676
 20
8.9604926663
 30
0.0
 10
10.3178763542
 20
8.9596457357
 30
0.0
 10
10.3208870047
 20
8.9585164991
 30
0.0
 10
10.3246503172
 20
8.9571049518
 30
0.0
 10
10.3284136302
 20
8.9556934056
 30
0.0
 10
10.3314242801
 20
8.9545641672
 30
0.0
 10
10.3336822685
 20
8.9537172419
 30
0.0
 10
10.3359402531
 20
8.9528703036
 30
0.0
 10
10.337821919
 20
8.9521645619
 30
0.0
 10
10.3393272246
 20
8.9515998786
 30
0.0
 10
10.3402681023
 20
8.9512471562
 30
0.0
 10
10.3410206633
 20
8.9509645097
 30
0.0
 10
10.3415854705
 20
8.9507538076
 30
0.0
 10
10.3420549136
 20
8.9505741419
 30
0.0
 10
10.3424332259
 20
8.9504395614
 30
0.0
 10
10.3427094243
 20
8.9503136182
 30
0.0
 10
10.3430143873
 20
8.9502831303
 30
0.0
 10
10.3434109568
 20
8.9502091359
 30
0.0
 10
10.343910116
 20
8.950128083
 30
0.0
 10
10.3445076315
 20
8.9500259228
 30
0.0
 10
10.3453048342
 20
8.9498914195
 30
0.0
 10
10.3463011611
 20
8.9497227048
 30
0.0
 10
10.3478953827
 20
8.9494530886
 30
0.0
 10
10.349888126
 20
8.949115956
 30
0.0
 10
10.3522794324
 20
8.948711445
 30
0.0
 10
10.3546707349
 20
8.9483069211
 30
0.0
 10
10.3578591396
 20
8.9477675605
 30
0.0
 10
10.361844645
 20
8.9470933582
 30
0.0
 10
10.3666272517
 20
8.946284316
 30
0.0
 10
10.3730040605
 20
8.9452055929
 30
0.0
 10
10.3777866672
 20
8.9443965506
 30
0.0
 10
10.3809750716
 20
8.9438571891
 30
0.0
  0
SPLINE
  5
3A0
100
AcDbEntity
  8
0
100
AcDbSpline
 62
7
  6
CONTINUOUS
 70
0
 71
3
 72
140
 73
136
 74
0
 42
0.0000001
 43
0.0000001
 44
0.0000000001
 40
0.0
 40
0.0
 40
0.0
 40
0.0
 40
0.03125
 40
0.046875
 40
0.0546875
 40
0.0625
 40
0.0703125
 40
0.078125
 40
0.09375
 40
0.109375
 40
0.1171875
 40
0.125
 40
0.1328125
 40
0.140625
 40
0.15625
 40
0.171875
 40
0.1796875
 40
0.1875
 40
0.1953125
 40
0.203125
 40
0.21875
 40
0.234375
 40
0.2421875
 40
0.24609375
 40
0.25
 40
0.25390625
 40
0.2578125
 40
0.265625
 40
0.28125
 40
0.296875
 40
0.3046875
 40
0.30859375
 40
0.3125
 40
0.31640625
 40
0.3203125
 40
0.328125
 40
0.34375
 40
0.359375
 40
0.3671875
 40
0.37109375
 40
0.373046875
 40
0.375
 40
0.376953125
 40
0.37890625
 40
0.3828125
 40
0.390625
 40
0.40625
 40
0.421875
 40
0.4296875
 40
0.43359375
 40
0.435546875
 40
0.4375
 40
0.439453125
 40
0.44140625
 40
0.4453125
 40
0.453125
 40
0.46875
 40
0.4765625
 40
0.484375
 40
0.4921875
 40
0.49609375
 40
0.498046875
 40
0.5
 40
0.501953125
 40
0.50390625
 40
0.5078125
 40
0.515625
 40
0.53125
 40
0.546875
 40
0.5546875
 40
0.55859375
 40
0.560546875
 40
0.5625
 40
0.564453125
 40
0.56640625
 40
0.5703125
 40
0.578125
 40
0.59375
 40
0.609375
 40
0.6171875
 40
0.62109375
 40
0.623046875
 40
0.625
 40
0.626953125
 40
0.62890625
 40
0.6328125
 40
0.640625
 40
0.65625
 40
0.671875
 40
0.6796875
 40
0.68359375
 40
0.685546875
 40
0.6875
 40
0.689453125
 40
0.69140625
 40
0.6953125
 40
0.703125
 40
0.7109375
 40
0.71875
 40
0.734375
 40
0.7421875
 40
0.74609375
 40
0.748046875
 40
0.75
 40
0.751953125
 40
0.75390625
 40
0.7578125
 40
0.765625
 40
0.78125
 40
0.796875
 40
0.8046875
 40
0.80859375
 40
0.8125
 40
0.81640625
 40
0.8203125
 40
0.828125
 40
0.84375
 40
0.859375
 40
0.8671875
 40
0.87109375
 40
0.875
 40
0.87890625
 40
0.8828125
 40
0.890625
 40
0.90625
 40
0.921875
 40
0.9296875
 40
0.93359375
 40
0.9375
 40
0.94140625
 40
0.9453125
 40
0.953125
 40
0.96875
 40
0.984375
 40
1.0
 40
1.0
 40
1.0
 40
1.0
 10
10.6901247776
 20
10.6609407549
 30
0.0
 10
10.6911195942
 20
10.6608981299
 30
0.0
 10
10.6926121345
 20
10.6608354224
 30
0.0
 10
10.6943523278
 20
10.6607579584
 30
0.0
 10
10.6953483007
 20
10.6607198437
 30
0.0
 10
10.6960908653
 20
10.6606740363
 30
0.0
 10
10.6968503022
 20
10.6606940393
 30
0.0
 10
10.6978570404
 20
10.6606976192
 30
0.0
 10
10.6991171145
 20
10.6607107491
 30
0.0
 10
10.7003778885
 20
10.6607181225
 30
0.0
 10
10.701383507
 20
10.6607309126
 30
0.0
 10
10.7021463031
 20
10.6607232852
 30
0.0
 10
10.7028762708
 20
10.6607810919
 30
0.0
 10
10.7038611229
 20
10.6608352081
 30
0.0
 10
10.7050875459
 20
10.6609114641
 30
0.0
 10
10.7063180849
 20
10.6609819763
 30
0.0
 10
10.7072963514
 20
10.6610452825
 30
0.0
 10
10.7080460757
 20
10.6610755193
 30
0.0
 10
10.7087347847
 20
10.6611712794
 30
0.0
 10
10.7096742985
 20
10.6612760986
 30
0.0
 10
10.7108419655
 20
10.6614147721
 30
0.0
 10
10.7120099896
 20
10.6615514239
 30
0.0
 10
10.7128315642
 20
10.6616459709
 30
0.0
 10
10.7132941435
 20
10.6617025059
 30
0.0
 10
10.713660623
 20
10.6617376996
 30
0.0
 10
10.7139523686
 20
10.6618004696
 30
0.0
 10
10.714367439
 20
10.6618745416
 30
0.0
 10
10.7150815801
 20
10.662008675
 30
0.0
 10
10.7161088419
 20
10.6621977398
 30
0.0
 10
10.7171311621
 20
10.6623884363
 30
0.0
 10
10.7178522214
 20
10.6625202852
 30
0.0
 10
10.7182564204
 20
10.662597947
 30
0.0
 10
10.7185815214
 20
10.6626497029
 30
0.0
 10
10.7188227328
 20
10.6627262607
 30
0.0
 10
10.7191736064
 20
10.6628196872
 30
0.0
 10
10.7197740354
 20
10.6629872078
 30
0.0
 10
10.7206386422
 20
10.6632244689
 30
0.0
 10
10.7215017489
 20
10.6634622808
 30
0.0
 10
10.722104278
 20
10.6636290303
 30
0.0
 10
10.7224084047
 20
10.6637118387
 30
0.0
 10
10.7225775199
 20
10.6637600885
 30
0.0
 10
10.722717553
 20
10.6637936456
 30
0.0
 10
10.7228071351
 20
10.6638372584
 30
0.0
 10
10.7229441745
 20
10.6638919015
 30
0.0
 10
10.7231758073
 20
10.6639891585
 30
0.0
 10
10.7236449236
 20
10.6641825079
 30
0.0
 10
10.7243117189
 20
10.6644593799
 30
0.0
 10
10.7249808535
 20
10.6647358359
 30
0.0
 10
10.7254466949
 20
10.6649297677
 30
0.0
 10
10.7256828307
 20
10.6650262239
 30
0.0
 10
10.7258126184
 20
10.6650821565
 30
0.0
 10
10.7259244818
 20
10.6651218075
 30
0.0
 10
10.7259808285
 20
10.6651702447
 30
0.0
 10
10.7260753205
 20
10.6652317633
 30
0.0
 10
10.7262316773
 20
10.6653408458
 30
0.0
 10
10.7265507845
 20
10.6655579977
 30
0.0
 10
10.7269127987
 20
10.6658066046
 30
0.0
 10
10.7272755453
 20
10.6660550695
 30
0.0
 10
10.7275480877
 20
10.6662414109
 30
0.0
 10
10.7277732932
 20
10.6663967789
 30
0.0
 10
10.7279347437
 20
10.6665053642
 30
0.0
 10
10.7280210494
 20
10.6665676833
 30
0.0
 10
10.7281025461
 20
10.6666136609
 30
0.0
 10
10.7281199489
 20
10.6666625501
 30
0.0
 10
10.7281655077
 20
10.6667267201
 30
0.0
 10
10.7282348362
 20
10.6668394901
 30
0.0
 10
10.7283809209
 20
10.6670646938
 30
0.0
 10
10.7285853721
 20
10.6673865956
 30
0.0
 10
10.7287926407
 20
10.6677084091
 30
0.0
 10
10.728934781
 20
10.6679337365
 30
0.0
 10
10.7290095332
 20
10.6680463363
 30
0.0
 10
10.7290463577
 20
10.6681107804
 30
0.0
 10
10.729090597
 20
10.6681588277
 30
0.0
 10
10.7290712985
 20
10.6682079673
 30
0.0
 10
10.7290677282
 20
10.6682731058
 30
0.0
 10
10.729051171
 20
10.6683872752
 30
0.0
 10
10.7290254201
 20
10.6686154897
 30
0.0
 10
10.7289844276
 20
10.6689415639
 30
0.0
 10
10.7289462317
 20
10.6692676609
 30
0.0
 10
10.7289165656
 20
10.6694958436
 30
0.0
 10
10.7289053919
 20
10.6696100568
 30
0.0
 10
10.7288931522
 20
10.6696751247
 30
0.0
 10
10.7289004911
 20
10.669724481
 30
0.0
 10
10.7288446826
 20
10.6697717145
 30
0.0
 10
10.7287922962
 20
10.669835433
 30
0.0
 10
10.7286903741
 20
10.6699465958
 30
0.0
 10
10.7284938486
 20
10.6701691686
 30
0.0
 10
10.7282089151
 20
10.6704869786
 30
0.0
 10
10.7279267722
 20
10.6708049226
 30
0.0
 10
10.72772634
 20
10.6710273078
 30
0.0
 10
10.7276297896
 20
10.6711387285
 30
0.0
 10
10.7275687527
 20
10.6712020316
 30
0.0
 10
10.7275395234
 20
10.6712505415
 30
0.0
 10
10.7274470331
 20
10.6712951039
 30
0.0
 10
10.7273457787
 20
10.6713558974
 30
0.0
 10
10.7271583034
 20
10.6714616447
 30
0.0
 10
10.7268958491
 20
10.6716130462
 30
0.0
 10
10.7265786371
 20
10.6717945906
 30
0.0
 10
10.7261563272
 20
10.67203667
 30
0.0
 10
10.7257347139
 20
10.6722789031
 30
0.0
 10
10.725363554
 20
10.6724904405
 30
0.0
 10
10.7251810417
 20
10.6725967668
 30
0.0
 10
10.7250718114
 20
10.6726566283
 30
0.0
 10
10.7250038247
 20
10.6727040542
 30
0.0
 10
10.7248825627
 20
10.6727418091
 30
0.0
 10
10.7247394606
 20
10.6727955218
 30
0.0
 10
10.7244803998
 20
10.6728879524
 30
0.0
 10
10.7239683156
 20
10.6730739052
 30
0.0
 10
10.7232343442
 20
10.6733391481
 30
0.0
 10
10.7224985631
 20
10.6736039279
 30
0.0
 10
10.7219890125
 20
10.673790529
 30
0.0
 10
10.7216889617
 20
10.6738951454
 30
0.0
 10
10.7214889901
 20
10.6739792873
 30
0.0
 10
10.7211931923
 20
10.6740417169
 30
0.0
 10
10.7208322281
 20
10.6741325325
 30
0.0
 10
10.7201848865
 20
10.6742879041
 30
0.0
 10
10.7192689188
 20
10.6745119293
 30
0.0
 10
10.7183475449
 20
10.6747344644
 30
0.0
 10
10.7177077719
 20
10.6748919221
 30
0.0
 10
10.7173349143
 20
10.6749794596
 30
0.0
 10
10.7170756077
 20
10.6750519467
 30
0.0
 10
10.7167385913
 20
10.675098317
 30
0.0
 10
10.7163163489
 20
10.6751692567
 30
0.0
 10
10.7155647251
 20
10.6752891272
 30
0.0
 10
10.7144981581
 20
10.6754628332
 30
0.0
 10
10.7134270552
 20
10.6756348303
 30
0.0
 10
10.7126817818
 20
10.6757570932
 30
0.0
 10
10.7122495601
 20
10.6758242734
 30
0.0
 10
10.7119431621
 20
10.6758821787
 30
0.0
 10
10.7115688664
 20
10.6759113455
 30
0.0
 10
10.711093489
 20
10.675960259
 30
0.0
 10
10.7102505436
 20
10.6760411869
 30
0.0
 10
10.7090521086
 20
10.6761592415
 30
0.0
 10
10.7076115
 20
10.6762998545
 30
0.0
 10
10.7066515678
 20
10.676393797
 30
0.0
 10
10.7061715426
 20
10.6764407432
 30
0.0
  0
SPLINE
  5
3A1
100
AcDbEntity
  8
0
100
AcDbSpline
 62
7
  6
CONTINUOUS
 70
0
 71
3
 72
140
 73
136
 74
0
 42
0.0000001
 43
0.0000001
 44
0.0000000001
 40
0.0
 40
0.0
 40
0.0
 40
0.0
 40
0.03125
 40
0.046875
 40
0.0546875
 40
0.0625
 40
0.0703125
 40
0.078125
 40
0.09375
 40
0.109375
 40
0.1171875
 40
0.125
 40
0.1328125
 40
0.140625
 40
0.15625
 40
0.171875
 40
0.1796875
 40
0.1875
 40
0.1953125
 40
0.203125
 40
0.21875
 40
0.234375
 40
0.2421875
 40
0.24609375
 40
0.25
 40
0.25390625
 40
0.2578125
 40
0.265625
 40
0.28125
 40
0.296875
 40
0.3046875
 40
0.30859375
 40
0.3125
 40
0.31640625
 40
0.3203125
 40
0.328125
 40
0.34375
 40
0.359375
 40
0.3671875
 40
0.37109375
 40
0.373046875
 40
0.375
 40
0.376953125
 40
0.37890625
 40
0.3828125
 40
0.390625
 40
0.40625
 40
0.421875
 40
0.4296875
 40
0.43359375
 40
0.435546875
 40
0.4375
 40
0.439453125
 40
0.44140625
 40
0.4453125
 40
0.453125
 40
0.46875
 40
0.4765625
 40
0.484375
 40
0.4921875
 40
0.49609375
 40
0.498046875
 40
0.5
 40
0.501953125
 40
0.50390625
 40
0.5078125
 40
0.515625
 40
0.53125
 40
0.546875
 40
0.5546875
 40
0.55859375
 40
0.560546875
 40
0.5625
 40
0.564453125
 40
0.56640625
 40
0.5703125
 40
0.578125
 40
0.59375
 40
0.609375
 40
0.6171875
 40
0.62109375
 40
0.623046875
 40
0.625
 40
0.626953125
 40
0.62890625
 40
0.6328125
 40
0.640625
 40
0.65625
 40
0.671875
 40
0.6796875
 40
0.68359375
 40
0.685546875
 40
0.6875
 40
0.689453125
 40
0.69140625
 40
0.6953125
 40
0.703125
 40
0.7109375
 40
0.71875
 40
0.734375
 40
0.7421875
 40
0.74609375
 40
0.748046875
 40
0.75
 40
0.751953125
 40
0.75390625
 40
0.7578125
 40
0.765625
 40
0.78125
 40
0.796875
 40
0.8046875
 40
0.80859375
 40
0.8125
 40
0.81640625
 40
0.8203125
 40
0.828125
 40
0.84375
 40
0.859375
 40
0.8671875
 40
0.87109375
 40
0.875
 40
0.87890625
 40
0.8828125
 40
0.890625
 40
0.90625
 40
0.921875
 40
0.9296875
 40
0.93359375
 40
0.9375
 40
0.94140625
 40
0.9453125
 40
0.953125
 40
0.96875
 40
0.984375
 40
1.0
 40
1.0
 40
1.0
 40
1.0
 10
10.7061715452
 20
10.676440743
 30
0.0
 10
10.7051767286
 20
10.676483368
 30
0.0
 10
10.7036841883
 20
10.6765460755
 30
0.0
 10
10.701943995
 20
10.6766235395
 30
0.0
 10
10.7009480221
 20
10.6766616542
 30
0.0
 10
10.7002054575
 20
10.6767074616
 30
0.0
 10
10.6994460206
 20
10.6766874586
 30
0.0
 10
10.6984392824
 20
10.6766838787
 30
0.0
 10
10.6971792083
 20
10.6766707488
 30
0.0
 10
10.6959184343
 20
10.6766633754
 30
0.0
 10
10.6949128158
 20
10.6766505853
 30
0.0
 10
10.6941500197
 20
10.6766582127
 30
0.0
 10
10.693420052
 20
10.676600406
 30
0.0
 10
10.6924351999
 20
10.6765462898
 30
0.0
 10
10.6912087769
 20
10.6764700338
 30
0.0
 10
10.6899782379
 20
10.6763995216
 30
0.0
 10
10.6889999714
 20
10.6763362154
 30
0.0
 10
10.6882502471
 20
10.6763059786
 30
0.0
 10
10.6875615381
 20
10.6762102185
 30
0.0
 10
10.6866220243
 20
10.6761053993
 30
0.0
 10
10.6854543573
 20
10.6759667258
 30
0.0
 10
10.6842863332
 20
10.675830074
 30
0.0
 10
10.6834647586
 20
10.675735527
 30
0.0
 10
10.6830021793
 20
10.675678992
 30
0.0
 10
10.6826356998
 20
10.6756437983
 30
0.0
 10
10.6823439542
 20
10.6755810283
 30
0.0
 10
10.6819288838
 20
10.6755069563
 30
0.0
 10
10.6812147427
 20
10.6753728229
 30
0.0
 10
10.6801874809
 20
10.6751837581
 30
0.0
 10
10.6791651607
 20
10.6749930616
 30
0.0
 10
10.6784441014
 20
10.6748612127
 30
0.0
 10
10.6780399024
 20
10.6747835509
 30
0.0
 10
10.6777148014
 20
10.674731795
 30
0.0
 10
10.67747359
 20
10.6746552372
 30
0.0
 10
10.6771227164
 20
10.6745618107
 30
0.0
 10
10.6765222874
 20
10.6743942901
 30
0.0
 10
10.6756576806
 20
10.674157029
 30
0.0
 10
10.6747945739
 20
10.6739192171
 30
0.0
 10
10.6741920448
 20
10.6737524676
 30
0.0
 10
10.6738879181
 20
10.6736696592
 30
0.0
 10
10.6737188029
 20
10.6736214094
 30
0.0
 10
10.6735787698
 20
10.6735878523
 30
0.0
 10
10.6734891877
 20
10.6735442395
 30
0.0
 10
10.6733521483
 20
10.6734895964
 30
0.0
 10
10.6731205155
 20
10.6733923394
 30
0.0
 10
10.6726513992
 20
10.67319899
 30
0.0
 10
10.6719846039
 20
10.672922118
 30
0.0
 10
10.6713154693
 20
10.672645662
 30
0.0
 10
10.6708496279
 20
10.6724517302
 30
0.0
 10
10.6706134921
 20
10.672355274
 30
0.0
 10
10.6704837043
 20
10.6722993414
 30
0.0
 10
10.670371841
 20
10.6722596904
 30
0.0
 10
10.6703154943
 20
10.6722112532
 30
0.0
 10
10.6702210023
 20
10.6721497346
 30
0.0
 10
10.6700646455
 20
10.6720406521
 30
0.0
 10
10.6697455383
 20
10.6718235002
 30
0.0
 10
10.6693835241
 20
10.6715748933
 30
0.0
 10
10.6690207774
 20
10.6713264284
 30
0.0
 10
10.6687482351
 20
10.671140087
 30
0.0
 10
10.6685230296
 20
10.670984719
 30
0.0
 10
10.6683615791
 20
10.6708761337
 30
0.0
 10
10.6682752734
 20
10.6708138146
 30
0.0
 10
10.6681937767
 20
10.670767837
 30
0.0
 10
10.6681763739
 20
10.6707189478
 30
0.0
 10
10.6681308151
 20
10.6706547778
 30
0.0
 10
10.6680614866
 20
10.6705420078
 30
0.0
 10
10.6679154019
 20
10.6703168041
 30
0.0
 10
10.6677109507
 20
10.6699949023
 30
0.0
 10
10.6675036821
 20
10.6696730888
 30
0.0
 10
10.6673615418
 20
10.6694477614
 30
0.0
 10
10.6672867896
 20
10.6693351616
 30
0.0
 10
10.6672499651
 20
10.6692707175
 30
0.0
 10
10.6672057258
 20
10.6692226702
 30
0.0
 10
10.6672250243
 20
10.6691735306
 30
0.0
 10
10.6672285946
 20
10.6691083921
 30
0.0
 10
10.6672451518
 20
10.6689942227
 30
0.0
 10
10.6672709027
 20
10.6687660082
 30
0.0
 10
10.6673118952
 20
10.668439934
 30
0.0
 10
10.6673500911
 20
10.668113837
 30
0.0
 10
10.6673797572
 20
10.6678856543
 30
0.0
 10
10.6673909309
 20
10.6677714411
 30
0.0
 10
10.6674031706
 20
10.6677063732
 30
0.0
 10
10.6673958317
 20
10.6676570169
 30
0.0
 10
10.6674516402
 20
10.6676097834
 30
0.0
 10
10.6675040266
 20
10.6675460649
 30
0.0
 10
10.6676059487
 20
10.6674349021
 30
0.0
 10
10.6678024742
 20
10.6672123293
 30
0.0
 10
10.6680874077
 20
10.6668945193
 30
0.0
 10
10.6683695506
 20
10.6665765753
 30
0.0
 10
10.6685699828
 20
10.6663541901
 30
0.0
 10
10.6686665332
 20
10.6662427694
 30
0.0
 10
10.6687275701
 20
10.6661794663
 30
0.0
 10
10.6687567994
 20
10.6661309564
 30
0.0
 10
10.6688492897
 20
10.666086394
 30
0.0
 10
10.6689505441
 20
10.6660256005
 30
0.0
 10
10.6691380194
 20
10.6659198532
 30
0.0
 10
10.6694004737
 20
10.6657684517
 30
0.0
 10
10.6697176857
 20
10.6655869073
 30
0.0
 10
10.6701399956
 20
10.6653448279
 30
0.0
 10
10.6705616089
 20
10.6651025948
 30
0.0
 10
10.6709327688
 20
10.6648910574
 30
0.0
 10
10.6711152811
 20
10.6647847311
 30
0.0
 10
10.6712245114
 20
10.6647248696
 30
0.0
 10
10.6712924981
 20
10.6646774437
 30
0.0
 10
10.6714137601
 20
10.6646396888
 30
0.0
 10
10.6715568622
 20
10.6645859761
 30
0.0
 10
10.671815923
 20
10.6644935455
 30
0.0
 10
10.6723280072
 20
10.6643075927
 30
0.0
 10
10.6730619786
 20
10.6640423498
 30
0.0
 10
10.6737977597
 20
10.66377757
 30
0.0
 10
10.6743073103
 20
10.6635909689
 30
0.0
 10
10.6746073611
 20
10.6634863525
 30
0.0
 10
10.6748073327
 20
10.6634022106
 30
0.0
 10
10.6751031305
 20
10.663339781
 30
0.0
 10
10.6754640947
 20
10.6632489654
 30
0.0
 10
10.6761114363
 20
10.6630935938
 30
0.0
 10
10.677027404
 20
10.6628695686
 30
0.0
 10
10.6779487779
 20
10.6626470335
 30
0.0
 10
10.6785885509
 20
10.6624895758
 30
0.0
 10
10.6789614085
 20
10.6624020383
 30
0.0
 10
10.6792207151
 20
10.6623295512
 30
0.0
 10
10.6795577315
 20
10.6622831809
 30
0.0
 10
10.6799799739
 20
10.6622122412
 30
0.0
 10
10.6807315977
 20
10.6620923707
 30
0.0
 10
10.6817981647
 20
10.6619186647
 30
0.0
 10
10.6828692676
 20
10.6617466676
 30
0.0
 10
10.683614541
 20
10.6616244047
 30
0.0
 10
10.6840467627
 20
10.6615572245
 30
0.0
 10
10.6843531607
 20
10.6614993192
 30
0.0
 10
10.6847274564
 20
10.6614701524
 30
0.0
 10
10.6852028338
 20
10.6614212389
 30
0.0
 10
10.6860457792
 20
10.661340311
 30
0.0
 10
10.6872442142
 20
10.6612222564
 30
0.0
 10
10.6886848228
 20
10.6610816434
 30
0.0
 10
10.689644755
 20
10.6609877009
 30
0.0
 10
10.6901247802
 20
10.6609407547
 30
0.0
  0
ENDSEC
  0
SECTION
  2
OBJECTS
  0
DICTIONARY
  5
C
100
AcDbDictionary
280
0
281
1
  3
ACAD_GROUP
350
D
  3
ACAD_MLINESTYLE
350
17
  3
ACAD_LAYOUT
350
1A
  3
ACAD_PLOTSETTINGS
350
19
  3
ACAD_PLOTSTYLENAME
350
E
  3
ACAD_IMAGE_DICT
350
       3A3
  3
ACAD_IMAGE_VARS
350
       3A4
  3
ACAD_TABLESTYLE
350
       3A5
  0
IMAGEDEF_REACTOR
  5
3A2
100
AcDbRasterImageDefReactor
 90
2
330
28F
  0
DICTIONARY
  5
D
102
{ACAD_REACTORS
330
C
102
}
100
AcDbDictionary
280
0
281
1
  0
ACDBDICTIONARYWDFLT
  5
E
102
{ACAD_REACTORS
330
C
102
}
100
AcDbDictionary
281
1
  3
Normal
350
F
100
AcDbDictionaryWithDefault
340
F
  0
DICTIONARY
  5
3A3
330
C
100
AcDbDictionary
281
1
  3
B4U_assy_2_img_1
350
       3A8
  0
RASTERVARIABLES
  5
3A4
330
C
100
AcDbRasterVariables
 90
0
 70
0
 71
1
 72
5
  0
DICTIONARY
  5
17
102
{ACAD_REACTORS
330
C
102
}
100
AcDbDictionary
280
0
281
1
  3
Standard
350
18
  0
DICTIONARY
  5
3A5
330
C
100
AcDbDictionary
281
1
  3
Standard
350
       3A9
  3
Standard1
350
       3AA
  0
DICTIONARY
  5
19
102
{ACAD_REACTORS
330
C
102
}
100
AcDbDictionary
281
1
  0
DICTIONARY
  5
1A
102
{ACAD_REACTORS
330
C
102
}
100
AcDbDictionary
281
1
  3
Model
350
3A6
  3
Layout1
350
3A7
  0
ACDBPLACEHOLDER
  5
F
102
{ACAD_REACTORS
330
E
102
}
  0
MLINESTYLE
  5
18
102
{ACAD_REACTORS
330
17
102
}
100
AcDbMlineStyle
  2
STANDARD
 70
0
  3

 62
256
 51
90.0
 52
90.0
 71
2
 49
0.5
 62
256
  6
BYLAYER
 49
-0.5
 62
256
  6
BYLAYER
  0
LAYOUT
  5
3A6
102
{ACAD_REACTORS
330
1A
102
}
100
AcDbPlotSettings
  1

  2
none_device
  4
ANSI_C_(22.00_x_17.00_Inches)
  6

 40
0.0
 41
0.0
 42
0.0
 43
0.0
 44
558.8
 45
431.8
 46
0.0
 47
0.0
 48
0.0
 49
0.0
140
0.0
141
0.0
142
1.0
143
1.0
 70
1024
 72
0
 73
0
 74
0
  7

 75
0
147
1.0
148
0.0
149
0.0
100
AcDbLayout
  1
Model
 70
0
 71
0
 10
0.0
 20
0.0
 11
22.0
 21
17.0
 12
0.0
 22
0.0
 32
0.0
 14
0.0
 24
0.0
 34
0.0
 15
0.0
 25
0.0
 35
0.0
146
0.0
 13
0.0
 23
0.0
 33
0.0
 16
1.0
 26
0.0
 36
0.0
 17
0.0
 27
1.0
 37
0.0
 76
0
330
20C
345
0
346
0
  0
LAYOUT
  5
3A7
102
{ACAD_REACTORS
330
1A
102
}
100
AcDbPlotSettings
  1

  2
none_device
  4
ANSI_C_(22.00_x_17.00_Inches)
  6

 40
0.0
 41
0.0
 42
0.0
 43
0.0
 44
558.8
 45
431.8
 46
0.0
 47
0.0
 48
0.0
 49
0.0
140
0.0
141
0.0
142
1.0
143
1.0
 70
0
 72
0
 73
0
 74
0
  7

 75
0
147
1.0
148
0.0
149
0.0
100
AcDbLayout
  1
Layout1
 70
0
 71
1
 10
0.0
 20
0.0
 11
22.0
 21
17.0
 12
0.0
 22
0.0
 32
0.0
 14
0.0
 24
0.0
 34
0.0
 15
0.0
 25
0.0
 35
0.0
146
0.0
 13
0.0
 23
0.0
 33
0.0
 16
1.0
 26
0.0
 36
0.0
 17
0.0
 27
1.0
 37
0.0
 76
0
330
20D
345
0
346
0
  0
IMAGEDEF
  5
3A8
102
{ACAD_REACTORS
330
3A3
330
3A2
102
}
100
AcDbRasterImageDef
 90
0
  1
B4U_assy_2_img_1.png
 10
369.0
 20
92.0
 11
0.0066666667
 21
0.0066666667
280
1
281
0
  0
TABLESTYLE
  5
3A9
102
{ACAD_REACTORS
330
3A5
330
292
330
293
102
}
330
3A5
100
AcDbTableStyle
  3
Standard
 70
0
 71
0
 40
0.06
 41
0.06
280
1
281
1
  7
Standard
140
0.18
170
1
 62
0
 63
7
283
0
  7
Standard
140
0.18
170
1
 62
0
 63
7
283
0
  7
Standard
140
0.18
170
1
 62
0
 63
7
283
0
  0
TABLESTYLE
  5
3AA
102
{ACAD_REACTORS
330
3A5
330
291
102
}
330
3A5
100
AcDbTableStyle
  3
Standard1
 70
1
 71
0
 40
0.06
 41
0.06
280
1
281
1
  7
Standard
140
0.18
170
1
 62
0
 63
7
283
0
  7
Standard
140
0.18
170
1
 62
0
 63
7
283
0
  7
Standard
140
0.18
170
1
 62
0
 63
7
283
0
  0
ENDSEC
  0
EOF
