999
DXF file: B4L_assy_2.dxf
999
Pro/ENGINEER 2014200 by Parametric Technology Corporation
  0
SECTION
  2
HEADER
  9
$ACADVER
  1
AC1021
  9
$DWGCODEPAGE
  3
ANSI_1252
  9
$EXTMAX
 10
22.0
 20
17.0
 30
0.0
  9
$EXTMIN
 10
0.0
 20
0.0
 30
0.0
  9
$LIMMIN
 10
0.0
 20
0.0
  9
$LIMMAX
 10
22.0
 20
17.0
  9
$VIEWCTR
 10
11.0
 20
8.5
  9
$VIEWSIZE
 40
17.0
  9
$CLAYER
  8
0
  9
$LTSCALE
 40
1.21
  9
$CELTYPE
  6
BYLAYER
  9
$DIMSCALE
 40
1.0
  9
$DIMASZ
 40
0.1875
  9
$DIMEXO
 40
0.0625
  9
$DIMDLI
 40
0.836
  9
$DIMEXE
 40
0.125
  9
$DIMCEN
 40
0.198
  9
$DIMLFAC
 40
1.0
  9
$DIMBLK
  1
_FILLED
  9
$DIMTXT
 40
0.1
  9
$DIMTOL
 70
0
  9
$DIMLIM
 70
0
  9
$DIMTFAC
 40
1.0
  9
$DIMGAP
 40
0.09
  9
$DIMDSEP
 70
46
  9
$AUNITS
 70
0
  9
$PDMODE
 70
3
  9
$PDSIZE
 40
0.3125
  9
$HANDSEED
  5
3A8
  9
$TILEMODE
 70
1
  9
$MEASUREMENT
 70
0
  9
$INSUNITS
 70
1
  0
ENDSEC
  0
SECTION
  2
CLASSES
  0
CLASS
  1
ACDBDICTIONARYWDFLT
  2
AcDbDictionaryWithDefault
  3
AutoCAD 2000
 90
0
 91
1
280
0
281
0
  0
CLASS
  1
ACDBPLACEHOLDER
  2
AcDbPlaceHolder
  3
AutoCAD 2000
 90
0
 91
1
280
0
281
0
  0
CLASS
  1
LAYOUT
  2
AcDbLayout
  3
AutoCAD 2000
 90
0
 91
0
280
0
281
0
  0
CLASS
  1
RASTERVARIABLES
  2
AcDbRasterVariables
  3
ISM
 90
0
 91
1
280
0
281
0
  0
CLASS
  1
IMAGEDEF
  2
AcDbRasterImageDef
  3
ISM
 90
0
 91
1
280
0
281
0
  0
CLASS
  1
IMAGEDEF_REACTOR
  2
AcDbRasterImageDefReactor
  3
ISM
 90
0
 91
1
280
0
281
0
  0
CLASS
  1
IMAGE
  2
AcDbRasterImage
  3
ISM
 90
127
 91
1
280
0
281
1
  0
CLASS
  1
TABLESTYLE
  2
AcDbTableStyle
  3
ObjectDBX Classes
 90
2047
 91
1
280
0
281
0
  0
CLASS
  1
ACAD_TABLE
  2
AcDbTable
  3
ObjectDBX Classes
 90
1025
 91
3
280
0
281
1
  0
ENDSEC
  0
SECTION
  2
TABLES
  0
TABLE
  2
VPORT
  5
8
100
AcDbSymbolTable
 70
2
  0
VPORT
  5
1F4
100
AcDbSymbolTableRecord
100
AcDbViewportTableRecord
  2
*ACTIVE
 70
0
 10
0.0
 20
0.0
 11
1.0
 21
1.0
 12
11.0
 22
8.5
 13
0.0
 23
0.0
 14
1.0
 24
1.0
 15
0.0
 25
0.0
 16
0.0
 26
0.0
 36
1.0
 17
0.0
 27
0.0
 37
0.0
 40
17.0
 41
1.2941176471
 42
50.0
 43
0.0
 44
0.0
 50
0.0
 51
0.0
 71
0
 72
100
 73
1
 74
1
 75
0
 76
0
 77
0
 78
0
  0
ENDTAB
  0
TABLE
  2
LTYPE
  5
5
100
AcDbSymbolTable
 70
6
  0
LTYPE
  5
14
100
AcDbSymbolTableRecord
100
AcDbLinetypeTableRecord
  2
BYBLOCK
 70
0
  3

 72
65
 73
0
 40
0.0
  0
LTYPE
  5
15
100
AcDbSymbolTableRecord
100
AcDbLinetypeTableRecord
  2
BYLAYER
 70
0
  3

 72
65
 73
0
 40
0.0
  0
LTYPE
  5
16
100
AcDbSymbolTableRecord
100
AcDbLinetypeTableRecord
  2
CONTINUOUS
 70
64
  3
Solid line
 72
65
 73
0
 40
0.0
  0
LTYPE
  5
1F5
100
AcDbSymbolTableRecord
100
AcDbLinetypeTableRecord
  2
CENTER
 70
64
  3
____ _ ____ _ ____ _ ____ _ ____ _ ____ _ ____
 72
65
 73
4
 40
0.6
 49
0.375
 74
0
 49
-0.075
 74
0
 49
0.075
 74
0
 49
-0.075
 74
0
  0
LTYPE
  5
1F6
100
AcDbSymbolTableRecord
100
AcDbLinetypeTableRecord
  2
HIDDEN
 70
64
  3
- - - - - - - - - - - - - - - - - - - -
 72
65
 73
2
 40
0.2
 49
0.1
 74
0
 49
-0.1
 74
0
  0
LTYPE
  5
1F7
100
AcDbSymbolTableRecord
100
AcDbLinetypeTableRecord
  2
PHANTOM
 70
64
  3
_____ _ _ _____ _ _ _____ _ _ _____
 72
65
 73
6
 40
0.8
 49
0.45
 74
0
 49
-0.05
 74
0
 49
0.1
 74
0
 49
-0.05
 74
0
 49
0.1
 74
0
 49
-0.05
 74
0
  0
LTYPE
  5
1F8
100
AcDbSymbolTableRecord
100
AcDbLinetypeTableRecord
  2
DOT
 70
64
  3
. . . . . . . . . . . . . . . . . . . .
 72
65
 73
2
 40
0.2
 49
0.1
 74
0
 49
-0.1
 74
0
  0
LTYPE
  5
1F9
100
AcDbSymbolTableRecord
100
AcDbLinetypeTableRecord
  2
DASHED
 70
64
  3
- - - - - - - - - - - - - - - - - - - -
 72
65
 73
2
 40
0.2
 49
0.1
 74
0
 49
-0.1
 74
0
  0
ENDTAB
  0
TABLE
  2
LAYER
  5
2
100
AcDbSymbolTable
 70
36
  0
LAYER
  5
10
100
AcDbSymbolTableRecord
100
AcDbLayerTableRecord
  2
0
 70
0
 62
7
  6
CONTINUOUS
370
-3
390
F
  0
LAYER
  5
1FA
100
AcDbSymbolTableRecord
100
AcDbLayerTableRecord
  2
DEFAULT_1
 70
0
 62
7
  6
CENTER
370
-3
390
F
  0
LAYER
  5
1FB
100
AcDbSymbolTableRecord
100
AcDbLayerTableRecord
  2
DEFAULT_2
 70
0
 62
8
  6
HIDDEN
370
-3
390
F
  0
LAYER
  5
1FC
100
AcDbSymbolTableRecord
100
AcDbLayerTableRecord
  2
DEFAULT_3
 70
0
 62
7
  6
PHANTOM
370
-3
390
F
  0
LAYER
  5
1FD
100
AcDbSymbolTableRecord
100
AcDbLayerTableRecord
  2
01___PRT_ALL_DTM_PLN
 70
0
 62
7
  6
CONTINUOUS
370
-3
390
F
  0
LAYER
  5
1FE
100
AcDbSymbolTableRecord
100
AcDbLayerTableRecord
  2
01___PRT_DEF_DTM_PLN
 70
0
 62
7
  6
CONTINUOUS
370
-3
390
F
  0
LAYER
  5
1FF
100
AcDbSymbolTableRecord
100
AcDbLayerTableRecord
  2
02___PRT_ALL_AXES
 70
0
 62
7
  6
CONTINUOUS
370
-3
390
F
  0
LAYER
  5
200
100
AcDbSymbolTableRecord
100
AcDbLayerTableRecord
  2
03___PRT_ALL_CURVES
 70
0
 62
7
  6
CONTINUOUS
370
-3
390
F
  0
LAYER
  5
201
100
AcDbSymbolTableRecord
100
AcDbLayerTableRecord
  2
04___PRT_ALL_DTM_PNT
 70
0
 62
7
  6
CONTINUOUS
370
-3
390
F
  0
LAYER
  5
202
100
AcDbSymbolTableRecord
100
AcDbLayerTableRecord
  2
05___PRT_ALL_DTM_CSYS
 70
0
 62
7
  6
CONTINUOUS
370
-3
390
F
  0
LAYER
  5
203
100
AcDbSymbolTableRecord
100
AcDbLayerTableRecord
  2
05___PRT_DEF_DTM_CSYS
 70
0
 62
7
  6
CONTINUOUS
370
-3
390
F
  0
LAYER
  5
204
100
AcDbSymbolTableRecord
100
AcDbLayerTableRecord
  2
06___PRT_ALL_SURFS
 70
0
 62
7
  6
CONTINUOUS
370
-3
390
F
  0
LAYER
  5
205
100
AcDbSymbolTableRecord
100
AcDbLayerTableRecord
  2
DATUM_PLANES
 70
0
 62
7
  6
CONTINUOUS
370
-3
390
F
  0
LAYER
  5
206
100
AcDbSymbolTableRecord
100
AcDbLayerTableRecord
  2
PORT_AREAS
 70
0
 62
7
  6
CONTINUOUS
370
-3
390
F
  0
LAYER
  5
207
100
AcDbSymbolTableRecord
100
AcDbLayerTableRecord
  2
SUNNBOMCOSMETIC
 70
0
 62
7
  6
CONTINUOUS
370
-3
390
F
  0
LAYER
  5
208
100
AcDbSymbolTableRecord
100
AcDbLayerTableRecord
  2
SUNNBOMSTAMPING
 70
0
 62
7
  6
CONTINUOUS
370
-3
390
F
  0
LAYER
  5
209
100
AcDbSymbolTableRecord
100
AcDbLayerTableRecord
  2
THREADS
 70
0
 62
7
  6
CONTINUOUS
370
-3
390
F
  0
ENDTAB
  0
TABLE
  2
STYLE
  5
3
100
AcDbSymbolTable
 70
1
  0
STYLE
  5
11
100
AcDbSymbolTableRecord
100
AcDbTextStyleTableRecord
  2
STANDARD
 70
0
 40
0.0
 41
0.8
 50
0.0
 71
0
 42
0.2
  3
txt
  4

  0
STYLE
  5
20A
100
AcDbSymbolTableRecord
100
AcDbTextStyleTableRecord
  2
TEXTSTYLE_1
 70
0
 40
0.0
 41
0.8
 50
0.0
 71
0
 42
0.2
  3
gdt
  4

  0
ENDTAB
  0
TABLE
  2
VIEW
  5
6
100
AcDbSymbolTable
 70
0
  0
ENDTAB
  0
TABLE
  2
UCS
  5
7
100
AcDbSymbolTable
 70
0
  0
ENDTAB
  0
TABLE
  2
APPID
  5
9
100
AcDbSymbolTable
 70
1
  0
APPID
  5
20B
100
AcDbSymbolTableRecord
100
AcDbRegAppTableRecord
  2
ACAD
 70
0
  0
ENDTAB
  0
TABLE
  2
BLOCK_RECORD
  5
1
100
AcDbSymbolTable
 70
0
  0
BLOCK_RECORD
  5
20C
100
AcDbSymbolTableRecord
100
AcDbBlockTableRecord
  2
*Model_Space
  0
BLOCK_RECORD
  5
20D
100
AcDbSymbolTableRecord
100
AcDbBlockTableRecord
  2
*Paper_Space
  0
BLOCK_RECORD
  5
20E
100
AcDbSymbolTableRecord
100
AcDbBlockTableRecord
  2
SUN_FIRST_THIRD_ANGLE_BL0
  0
BLOCK_RECORD
  5
20F
100
AcDbSymbolTableRecord
100
AcDbBlockTableRecord
  2
*T1
  0
BLOCK_RECORD
  5
210
100
AcDbSymbolTableRecord
100
AcDbBlockTableRecord
  2
*T2
  0
BLOCK_RECORD
  5
211
100
AcDbSymbolTableRecord
100
AcDbBlockTableRecord
  2
*T3
  0
ENDTAB
  0
TABLE
  2
DIMSTYLE
  5
A
100
AcDbSymbolTable
 70
1
100
AcDbDimStyleTable
 71
0
  0
DIMSTYLE
105
212
100
AcDbSymbolTableRecord
100
AcDbDimStyleTableRecord
  2
STANDARD
 70
0
  3

  4

 40
1.0
 41
0.1875
 42
0.0625
 43
0.38
 44
0.125
 45
0.0
 46
0.0
 47
0.001
 48
0.001
140
0.1
141
0.09
142
0.0
143
25.4
144
1.0
145
0.0
146
1.0
147
0.09
 71
0.0
 72
0.0
 73
1
 74
1
 75
0
 76
0
 77
0
 78
4
170
0
171
2
172
0
173
0
174
0
175
0
176
0
177
0
178
0
270
2
271
3
272
3
273
2
274
2
275
0
280
0
281
0
282
0
283
1
284
4
285
0
286
0
287
3
288
0
340
11
278
46
  0
ENDTAB
  0
ENDSEC
  0
SECTION
  2
BLOCKS
  0
BLOCK
  5
20
100
AcDbEntity
  8
0
100
AcDbBlockBegin
  2
*Model_Space
 70
0
 10
0.0
 20
0.0
 30
0.0
  3
*Model_Space
  1

  0
ENDBLK
  5
21
100
AcDbEntity
  8
0
100
AcDbBlockEnd
  0
BLOCK
  5
1C
100
AcDbEntity
  8
0
100
AcDbBlockBegin
  2
*Paper_Space
 70
0
 10
0.0
 20
0.0
 30
0.0
  3
*Paper_Space
  1

  0
ENDBLK
  5
1D
100
AcDbEntity
  8
0
100
AcDbBlockEnd
  0
BLOCK
  5
213
100
AcDbEntity
  8
0
100
AcDbBlockBegin
 62
2
  6
CONTINUOUS
  2
SUN_FIRST_THIRD_ANGLE_BL0
 70
64
 10
20.4816717061
 20
1.2289683772
  3
SUN_FIRST_THIRD_ANGLE_BL0
  1

  0
TEXT
  5
214
100
AcDbEntity
  8
0
100
AcDbText
 62
2
  6
CONTINUOUS
 10
19.4750896608
 20
1.4136269581
  7
STANDARD
 40
0.08
  1
FIRST ANGLE
 41
0.8
 72
0
100
AcDbText
  0
TEXT
  5
215
100
AcDbEntity
  8
0
100
AcDbText
 62
2
  6
CONTINUOUS
 10
20.7842537513
 20
1.4047600029
  7
STANDARD
 40
0.08
  1
THIRD ANGLE
 41
0.8
 72
0
100
AcDbText
  0
LINE
  5
216
100
AcDbEntity
  8
0
100
AcDbLine
 62
7
  6
CONTINUOUS
 10
19.4767170086
 20
1.1727031207
 11
19.6334271527
 21
1.1717972817
  0
LINE
  5
217
100
AcDbEntity
  8
0
100
AcDbLine
 62
7
  6
CONTINUOUS
 10
19.6596964832
 20
1.1717972817
 11
19.6950230232
 21
1.171593082
  0
LINE
  5
218
100
AcDbEntity
  8
0
100
AcDbLine
 62
7
  6
CONTINUOUS
 10
19.7194818561
 20
1.1708914427
 11
19.8852396156
 21
1.1699333054
  0
LINE
  5
219
100
AcDbEntity
  8
0
100
AcDbLine
 62
7
  6
CONTINUOUS
 10
19.4758111696
 20
1.2723454088
 11
19.88525039
 21
1.3511534004
  0
LINE
  5
21A
100
AcDbEntity
  8
0
100
AcDbLine
 62
7
  6
CONTINUOUS
 10
19.88525039
 20
1.3511534004
 11
19.8831348489
 21
0.9851647912
  0
LINE
  5
21B
100
AcDbEntity
  8
0
100
AcDbLine
 62
7
  6
CONTINUOUS
 10
19.8831348489
 20
0.9851647912
 11
19.4767170086
 21
1.0658141206
  0
LINE
  5
21C
100
AcDbEntity
  8
0
100
AcDbLine
 62
7
  6
CONTINUOUS
 10
19.4767170086
 20
1.0658141206
 11
19.4779056764
 21
1.2714536432
  0
CIRCLE
  5
21D
100
AcDbEntity
  8
0
100
AcDbCircle
 62
7
  6
CONTINUOUS
 10
20.2068232291
 20
1.1717972817
 40
0.175742101
  0
CIRCLE
  5
21E
100
AcDbEntity
  8
0
100
AcDbCircle
 62
7
  6
CONTINUOUS
 10
20.2068232291
 20
1.1717972817
 40
0.1005522074
  0
LINE
  5
21F
100
AcDbEntity
  8
0
100
AcDbLine
 62
7
  6
CONTINUOUS
 10
20.2077290681
 20
1.3756110529
 11
20.2071171714
 21
1.2379342989
  0
LINE
  5
220
100
AcDbEntity
  8
0
100
AcDbLine
 62
7
  6
CONTINUOUS
 10
20.2077290681
 20
1.2016899681
 11
20.2074674401
 21
1.1428236749
  0
LINE
  5
221
100
AcDbEntity
  8
0
100
AcDbLine
 62
7
  6
CONTINUOUS
 10
20.208634907
 20
1.101141841
 11
20.2080230104
 21
0.963465087
  0
LINE
  5
222
100
AcDbEntity
  8
0
100
AcDbLine
 62
7
  6
CONTINUOUS
 10
20.0066328138
 20
1.1745147986
 11
20.1443095678
 21
1.1739029019
  0
LINE
  5
223
100
AcDbEntity
  8
0
100
AcDbLine
 62
7
  6
CONTINUOUS
 10
20.1832714155
 20
1.1727031207
 11
20.238153505
 21
1.172335442
  0
LINE
  5
224
100
AcDbEntity
  8
0
100
AcDbLine
 62
7
  6
CONTINUOUS
 10
20.2756669918
 20
1.1717972817
 11
20.407916871
 21
1.1712095044
  0
CIRCLE
  5
225
100
AcDbEntity
  8
0
100
AcDbCircle
 62
7
  6
CONTINUOUS
 10
20.7509457401
 20
1.1693297793
 40
0.1722024983
  0
CIRCLE
  5
226
100
AcDbEntity
  8
0
100
AcDbCircle
 62
7
  6
CONTINUOUS
 10
20.7509457401
 20
1.1693297793
 40
0.0985164967
  0
LINE
  5
227
100
AcDbEntity
  8
0
100
AcDbLine
 62
7
  6
CONTINUOUS
 10
20.7169767782
 20
1.170462078
 11
20.7825395137
 21
1.1682766535
  0
LINE
  5
228
100
AcDbEntity
  8
0
100
AcDbLine
 62
7
  6
CONTINUOUS
 10
20.8177513651
 20
1.1693297793
 11
20.947965719
 21
1.1693297793
  0
LINE
  5
229
100
AcDbEntity
  8
0
100
AcDbLine
 62
7
  6
CONTINUOUS
 10
20.6875370113
 20
1.170462078
 11
20.5573226574
 21
1.170462078
  0
LINE
  5
22A
100
AcDbEntity
  8
0
100
AcDbLine
 62
7
  6
CONTINUOUS
 10
20.7486811426
 20
1.1987695462
 11
20.7486811426
 21
1.1432869085
  0
LINE
  5
22B
100
AcDbEntity
  8
0
100
AcDbLine
 62
7
  6
CONTINUOUS
 10
20.7498134414
 20
1.1059210505
 11
20.7498134414
 21
0.9757066966
  0
LINE
  5
22C
100
AcDbEntity
  8
0
100
AcDbLine
 62
7
  6
CONTINUOUS
 10
20.7486811426
 20
1.2338708068
 11
20.7486811426
 21
1.3640851607
  0
LINE
  5
22D
100
AcDbEntity
  8
0
100
AcDbLine
 62
7
  6
CONTINUOUS
 10
21.0702539817
 20
1.2701043662
 11
21.4790138229
 21
1.3448360823
  0
LINE
  5
22E
100
AcDbEntity
  8
0
100
AcDbLine
 62
7
  6
CONTINUOUS
 10
21.4790138229
 20
1.3448360823
 11
21.4790138229
 21
0.9779712941
  0
LINE
  5
22F
100
AcDbEntity
  8
0
100
AcDbLine
 62
7
  6
CONTINUOUS
 10
21.4790138229
 20
0.9779712941
 11
21.069121683
 21
1.0617614
  0
LINE
  5
230
100
AcDbEntity
  8
0
100
AcDbLine
 62
7
  6
CONTINUOUS
 10
21.0702539817
 20
1.2701043662
 11
21.069121683
 21
1.0617614
  0
LINE
  5
231
100
AcDbEntity
  8
0
100
AcDbLine
 62
7
  6
CONTINUOUS
 10
21.4790138229
 20
1.1693297793
 11
21.3159628059
 21
1.1693297793
  0
LINE
  5
232
100
AcDbEntity
  8
0
100
AcDbLine
 62
7
  6
CONTINUOUS
 10
21.2876553377
 20
1.1693297793
 11
21.2502894796
 21
1.1693297793
  0
LINE
  5
233
100
AcDbEntity
  8
0
100
AcDbLine
 62
7
  6
CONTINUOUS
 10
21.2208497126
 20
1.1659328831
 11
21.0713862804
 21
1.1659328831
  0
LINE
  5
234
100
AcDbEntity
  8
0
100
AcDbLine
 62
7
  6
CONTINUOUS
 10
20.4796138713
 20
1.5284908897
 11
20.4766766948
 21
0.9294458646
  0
ENDBLK
  5
235
100
AcDbEntity
  8
0
  6
BYBLOCK
 62
0
100
AcDbBlockEnd
  0
BLOCK
  5
236
100
AcDbEntity
  8
0
100
AcDbBlockBegin
  2
*T1
 70
1
 10
0.0
 20
0.0
  3
*T1
  1

  0
LINE
  5
237
100
AcDbEntity
  8
0
100
AcDbLine
 62
2
  6
CONTINUOUS
 10
9.275
 20
0.0
 11
-0.0
 21
0.0
  0
LINE
  5
238
100
AcDbEntity
  8
0
100
AcDbLine
 62
2
  6
CONTINUOUS
 10
9.275
 20
0.0
 11
9.275
 21
1.25
  0
LINE
  5
239
100
AcDbEntity
  8
0
100
AcDbLine
 62
2
  6
CONTINUOUS
 10
9.275
 20
0.625
 11
-0.0
 21
0.625
  0
LINE
  5
23A
100
AcDbEntity
  8
0
100
AcDbLine
 62
2
  6
CONTINUOUS
 10
9.275
 20
1.25
 11
-0.0
 21
1.25
  0
LINE
  5
23B
100
AcDbEntity
  8
0
100
AcDbLine
 62
2
  6
CONTINUOUS
 10
6.8
 20
0.0
 11
6.8
 21
1.25
  0
LINE
  5
23C
100
AcDbEntity
  8
0
100
AcDbLine
 62
2
  6
CONTINUOUS
 10
6.4
 20
0.0
 11
6.4
 21
0.625
  0
LINE
  5
23D
100
AcDbEntity
  8
0
100
AcDbLine
 62
2
  6
CONTINUOUS
 10
5.9
 20
0.0
 11
5.9
 21
0.625
  0
LINE
  5
23E
100
AcDbEntity
  8
0
100
AcDbLine
 62
2
  6
CONTINUOUS
 10
5.2
 20
0.0
 11
5.2
 21
0.625
  0
LINE
  5
23F
100
AcDbEntity
  8
0
100
AcDbLine
 62
2
  6
CONTINUOUS
 10
4.1
 20
0.0
 11
4.1
 21
1.25
  0
LINE
  5
240
100
AcDbEntity
  8
0
100
AcDbLine
 62
2
  6
CONTINUOUS
 10
-0.0
 20
0.0
 11
-0.0
 21
1.25
  0
MTEXT
  5
241
100
AcDbEntity
  8
0
100
AcDbMText
 62
2
  6
CONTINUOUS
  7
STANDARD
 71
2
 72
1
 10
6.6
 20
0.325
 30
0.0
 11
1.0
 21
0.0
 31
0.0
 44
0.9
  1
2
 40
0.125
 41
0.2
  0
MTEXT
  5
242
100
AcDbEntity
  8
0
100
AcDbMText
 62
2
  6
CONTINUOUS
  7
STANDARD
 71
2
 72
1
 10
6.15
 20
0.325
 30
0.0
 11
1.0
 21
0.0
 31
0.0
 44
0.9
  1
C
 40
0.125
 41
0.2
  0
MTEXT
  5
243
100
AcDbEntity
  8
0
100
AcDbMText
 62
2
  6
CONTINUOUS
  7
STANDARD
 71
2
 72
1
 10
5.55
 20
0.325
 30
0.0
 11
1.0
 21
0.0
 31
0.0
 44
0.9
  1
1.000
 40
0.125
 41
1.0
  0
MTEXT
  5
244
100
AcDbEntity
  8
0
100
AcDbMText
 62
2
  6
CONTINUOUS
  7
STANDARD
 71
2
 72
1
 10
4.65
 20
0.325
 30
0.0
 11
1.0
 21
0.0
 31
0.0
 44
0.9
  1
Aug-02-19
 40
0.125
 41
1.8
  0
MTEXT
  5
245
100
AcDbEntity
  8
0
100
AcDbMText
 62
2
  6
CONTINUOUS
  7
STANDARD
 71
2
 72
1
 10
2.05
 20
0.4625
 30
0.0
 11
1.0
 21
0.0
 31
0.0
 44
0.9
  1
T-2A Line mount\P(See Technical Data for Body Features)
 40
0.125
 41
7.6
  0
MTEXT
  5
246
100
AcDbEntity
  8
0
100
AcDbMText
 62
2
  6
CONTINUOUS
  7
STANDARD
 71
1
 72
1
 10
6.45
 20
0.5625
 30
0.0
 11
1.0
 21
0.0
 31
0.0
 44
0.9
  1
SHEET
 40
0.06
 41
0.48
  0
MTEXT
  5
247
100
AcDbEntity
  8
0
100
AcDbMText
 62
2
  6
CONTINUOUS
  7
STANDARD
 71
1
 72
1
 10
5.95
 20
0.5625
 30
0.0
 11
1.0
 21
0.0
 31
0.0
 44
0.9
  1
DWG SIZE
 40
0.06
 41
0.768
  0
MTEXT
  5
248
100
AcDbEntity
  8
0
100
AcDbMText
 62
2
  6
CONTINUOUS
  7
STANDARD
 71
1
 72
1
 10
5.25
 20
0.5625
 30
0.0
 11
1.0
 21
0.0
 31
0.0
 44
0.9
  1
SCALE
 40
0.06
 41
0.48
  0
MTEXT
  5
249
100
AcDbEntity
  8
0
100
AcDbMText
 62
2
  6
CONTINUOUS
  7
STANDARD
 71
1
 72
1
 10
4.15
 20
0.5625
 30
0.0
 11
1.0
 21
0.0
 31
0.0
 44
0.9
  1
DATE
 40
0.06
 41
0.384
  0
MTEXT
  5
24A
100
AcDbEntity
  8
0
100
AcDbMText
 62
2
  6
CONTINUOUS
  7
STANDARD
 71
1
 72
1
 10
0.05
 20
0.5625
 30
0.0
 11
1.0
 21
0.0
 31
0.0
 44
0.9
  1
DESCRIPTION
 40
0.06
 41
1.056
  0
MTEXT
  5
24B
100
AcDbEntity
  8
0
100
AcDbMText
 62
2
  6
CONTINUOUS
  7
STANDARD
 71
2
 72
1
 10
5.45
 20
1.0375
 30
0.0
 11
1.0
 21
0.0
 31
0.0
 44
0.9
  1
ALL DIMENSIONS IN INCH\PVIEWS ARE THIRD ANGLE
 40
0.12
 41
4.224
  0
MTEXT
  5
24C
100
AcDbEntity
  8
0
100
AcDbMText
 62
2
  6
CONTINUOUS
  7
STANDARD
 71
2
 72
1
 10
2.05
 20
0.95
 30
0.0
 11
1.0
 21
0.0
 31
0.0
 44
0.9
  1
B4L
 40
0.125
 41
0.6
  0
MTEXT
  5
24D
100
AcDbEntity
  8
0
100
AcDbMText
 62
2
  6
CONTINUOUS
  7
STANDARD
 71
1
 72
1
 10
0.05
 20
1.1875
 30
0.0
 11
1.0
 21
0.0
 31
0.0
 44
0.9
  1
MODEL
 40
0.06
 41
0.48
  0
ENDBLK
  5
24E
100
AcDbEntity
  8
0
  6
BYBLOCK
 62
0
100
AcDbBlockEnd
  0
BLOCK
  5
24F
100
AcDbEntity
  8
0
100
AcDbBlockBegin
  2
*T2
 70
1
 10
0.0
 20
0.0
  3
*T2
  1

  0
LINE
  5
250
100
AcDbEntity
  8
0
100
AcDbLine
 62
2
  6
CONTINUOUS
 10
0.0
 20
0.0
 11
9.055
 21
0.0
  0
LINE
  5
251
100
AcDbEntity
  8
0
100
AcDbLine
 62
2
  6
CONTINUOUS
 10
0.0
 20
0.0
 11
0.0
 21
-2.594
  0
LINE
  5
252
100
AcDbEntity
  8
0
100
AcDbLine
 62
2
  6
CONTINUOUS
 10
0.0
 20
-0.344
 11
9.055
 21
-0.344
  0
LINE
  5
253
100
AcDbEntity
  8
0
100
AcDbLine
 62
2
  6
CONTINUOUS
 10
0.0
 20
-0.594
 11
9.055
 21
-0.594
  0
LINE
  5
254
100
AcDbEntity
  8
0
100
AcDbLine
 62
2
  6
CONTINUOUS
 10
0.0
 20
-0.844
 11
9.055
 21
-0.844
  0
LINE
  5
255
100
AcDbEntity
  8
0
100
AcDbLine
 62
2
  6
CONTINUOUS
 10
0.0
 20
-1.094
 11
9.055
 21
-1.094
  0
LINE
  5
256
100
AcDbEntity
  8
0
100
AcDbLine
 62
2
  6
CONTINUOUS
 10
0.0
 20
-1.344
 11
9.055
 21
-1.344
  0
LINE
  5
257
100
AcDbEntity
  8
0
100
AcDbLine
 62
2
  6
CONTINUOUS
 10
0.0
 20
-1.594
 11
9.055
 21
-1.594
  0
LINE
  5
258
100
AcDbEntity
  8
0
100
AcDbLine
 62
2
  6
CONTINUOUS
 10
0.0
 20
-1.844
 11
9.055
 21
-1.844
  0
LINE
  5
259
100
AcDbEntity
  8
0
100
AcDbLine
 62
2
  6
CONTINUOUS
 10
0.0
 20
-2.094
 11
9.055
 21
-2.094
  0
LINE
  5
25A
100
AcDbEntity
  8
0
100
AcDbLine
 62
2
  6
CONTINUOUS
 10
0.0
 20
-2.344
 11
9.055
 21
-2.344
  0
LINE
  5
25B
100
AcDbEntity
  8
0
100
AcDbLine
 62
2
  6
CONTINUOUS
 10
0.0
 20
-2.594
 11
9.055
 21
-2.594
  0
LINE
  5
25C
100
AcDbEntity
  8
0
100
AcDbLine
 62
2
  6
CONTINUOUS
 10
3.055
 20
0.0
 11
3.055
 21
-2.594
  0
LINE
  5
25D
100
AcDbEntity
  8
0
100
AcDbLine
 62
2
  6
CONTINUOUS
 10
9.055
 20
0.0
 11
9.055
 21
-2.594
  0
MTEXT
  5
25E
100
AcDbEntity
  8
0
100
AcDbMText
 62
2
  6
CONTINUOUS
  7
STANDARD
 71
2
 72
1
 10
1.5275
 20
-0.0995
 30
0.0
 11
1.0
 21
0.0
 31
0.0
 44
0.9
  1
Technical Data
 40
0.145
 41
3.248
  0
MTEXT
  5
25F
100
AcDbEntity
  8
0
100
AcDbMText
 62
2
  6
CONTINUOUS
  7
STANDARD
 71
2
 72
1
 10
4.555
 20
-0.0995
 30
0.0
 11
1.0
 21
0.0
 31
0.0
 44
0.9
  1
U.S. Units
 40
0.145
 41
2.32
  0
MTEXT
  5
260
100
AcDbEntity
  8
0
100
AcDbMText
 62
2
  6
CONTINUOUS
  7
STANDARD
 71
2
 72
1
 10
7.555
 20
-0.0995
 30
0.0
 11
1.0
 21
0.0
 31
0.0
 44
0.9
  1
Metric Units
 40
0.145
 41
2.784
  0
MTEXT
  5
261
100
AcDbEntity
  8
0
100
AcDbMText
 62
2
  6
CONTINUOUS
  7
STANDARD
 71
2
 72
1
 10
1.5275
 20
-0.4065
 30
0.0
 11
1.0
 21
0.0
 31
0.0
 44
0.9
  1
Cavity
 40
0.125
 41
1.2
  0
MTEXT
  5
262
100
AcDbEntity
  8
0
100
AcDbMText
 62
2
  6
CONTINUOUS
  7
STANDARD
 71
2
 72
1
 10
6.055
 20
-0.4065
 30
0.0
 11
1.0
 21
0.0
 31
0.0
 44
0.9
  1
T-2A
 40
0.125
 41
0.8
  0
MTEXT
  5
263
100
AcDbEntity
  8
0
100
AcDbMText
 62
2
  6
CONTINUOUS
  7
STANDARD
 71
2
 72
1
 10
1.5275
 20
-0.6565
 30
0.0
 11
1.0
 21
0.0
 31
0.0
 44
0.9
  1
Body Features
 40
0.125
 41
2.6
  0
MTEXT
  5
264
100
AcDbEntity
  8
0
100
AcDbMText
 62
2
  6
CONTINUOUS
  7
STANDARD
 71
2
 72
1
 10
6.055
 20
-0.6565
 30
0.0
 11
1.0
 21
0.0
 31
0.0
 44
0.9
  1
Ninety degree with reverse flow check - reducing
 40
0.125
 41
9.6
  0
MTEXT
  5
265
100
AcDbEntity
  8
0
100
AcDbMText
 62
2
  6
CONTINUOUS
  7
STANDARD
 71
2
 72
1
 10
1.5275
 20
-0.9065
 30
0.0
 11
1.0
 21
0.0
 31
0.0
 44
0.9
  1
Body Type
 40
0.125
 41
1.8
  0
MTEXT
  5
266
100
AcDbEntity
  8
0
100
AcDbMText
 62
2
  6
CONTINUOUS
  7
STANDARD
 71
2
 72
1
 10
6.055
 20
-0.9065
 30
0.0
 11
1.0
 21
0.0
 31
0.0
 44
0.9
  1
Line mount
 40
0.125
 41
2.0
  0
MTEXT
  5
267
100
AcDbEntity
  8
0
100
AcDbMText
 62
2
  6
CONTINUOUS
  7
STANDARD
 71
2
 72
1
 10
1.5275
 20
-1.1565
 30
0.0
 11
1.0
 21
0.0
 31
0.0
 44
0.9
  1
Interface
 40
0.125
 41
1.8
  0
MTEXT
  5
268
100
AcDbEntity
  8
0
100
AcDbMText
 62
2
  6
CONTINUOUS
  7
STANDARD
 71
2
 72
1
 10
6.055
 20
-1.1565
 30
0.0
 11
1.0
 21
0.0
 31
0.0
 44
0.9
  1
None
 40
0.125
 41
0.8
  0
MTEXT
  5
269
100
AcDbEntity
  8
0
100
AcDbMText
 62
2
  6
CONTINUOUS
  7
STANDARD
 71
2
 72
1
 10
1.5275
 20
-1.4065
 30
0.0
 11
1.0
 21
0.0
 31
0.0
 44
0.9
  1
Open Cavity Quantity
 40
0.125
 41
4.0
  0
MTEXT
  5
26A
100
AcDbEntity
  8
0
100
AcDbMText
 62
2
  6
CONTINUOUS
  7
STANDARD
 71
2
 72
1
 10
6.055
 20
-1.4065
 30
0.0
 11
1.0
 21
0.0
 31
0.0
 44
0.9
  1
1
 40
0.125
 41
0.2
  0
MTEXT
  5
26B
100
AcDbEntity
  8
0
100
AcDbMText
 62
2
  6
CONTINUOUS
  7
STANDARD
 71
2
 72
1
 10
1.5275
 20
-1.6565
 30
0.0
 11
1.0
 21
0.0
 31
0.0
 44
0.9
  1
Weight
 40
0.125
 41
1.2
  0
MTEXT
  5
26C
100
AcDbEntity
  8
0
100
AcDbMText
 62
2
  6
CONTINUOUS
  7
STANDARD
 71
2
 72
1
 10
4.555
 20
-1.6565
 30
0.0
 11
1.0
 21
0.0
 31
0.0
 44
0.9
  1
1.859 lb.
 40
0.125
 41
1.8
  0
MTEXT
  5
26D
100
AcDbEntity
  8
0
100
AcDbMText
 62
2
  6
CONTINUOUS
  7
STANDARD
 71
2
 72
1
 10
7.555
 20
-1.6565
 30
0.0
 11
1.0
 21
0.0
 31
0.0
 44
0.9
  1
0,843 kg.
 40
0.125
 41
1.8
  0
MTEXT
  5
26E
100
AcDbEntity
  8
0
100
AcDbMText
 62
2
  6
CONTINUOUS
  7
STANDARD
 71
2
 72
1
 10
1.5275
 20
-1.9065
 30
0.0
 11
1.0
 21
0.0
 31
0.0
 44
0.9
  1
Mounting Hole Diameter
 40
0.125
 41
4.4
  0
MTEXT
  5
26F
100
AcDbEntity
  8
0
100
AcDbMText
 62
2
  6
CONTINUOUS
  7
STANDARD
 71
2
 72
1
 10
4.555
 20
-1.9065
 30
0.0
 11
1.0
 21
0.0
 31
0.0
 44
0.9
  1
.42 in.
 40
0.125
 41
1.4
  0
MTEXT
  5
270
100
AcDbEntity
  8
0
100
AcDbMText
 62
2
  6
CONTINUOUS
  7
STANDARD
 71
2
 72
1
 10
7.555
 20
-1.9065
 30
0.0
 11
1.0
 21
0.0
 31
0.0
 44
0.9
  1
10,7 mm
 40
0.125
 41
1.4
  0
MTEXT
  5
271
100
AcDbEntity
  8
0
100
AcDbMText
 62
2
  6
CONTINUOUS
  7
STANDARD
 71
2
 72
1
 10
1.5275
 20
-2.1565
 30
0.0
 11
1.0
 21
0.0
 31
0.0
 44
0.9
  1
Mounting Hole Depth
 40
0.125
 41
3.8
  0
MTEXT
  5
272
100
AcDbEntity
  8
0
100
AcDbMText
 62
2
  6
CONTINUOUS
  7
STANDARD
 71
2
 72
1
 10
6.055
 20
-2.1565
 30
0.0
 11
1.0
 21
0.0
 31
0.0
 44
0.9
  1
Through
 40
0.125
 41
1.4
  0
MTEXT
  5
273
100
AcDbEntity
  8
0
100
AcDbMText
 62
2
  6
CONTINUOUS
  7
STANDARD
 71
2
 72
1
 10
1.5275
 20
-2.4065
 30
0.0
 11
1.0
 21
0.0
 31
0.0
 44
0.9
  1
Mounting Hole Quantity
 40
0.125
 41
4.4
  0
MTEXT
  5
274
100
AcDbEntity
  8
0
100
AcDbMText
 62
2
  6
CONTINUOUS
  7
STANDARD
 71
2
 72
1
 10
6.055
 20
-2.4065
 30
0.0
 11
1.0
 21
0.0
 31
0.0
 44
0.9
  1
2
 40
0.125
 41
0.2
  0
ENDBLK
  5
275
100
AcDbEntity
  8
0
  6
BYBLOCK
 62
0
100
AcDbBlockEnd
  0
BLOCK
  5
276
100
AcDbEntity
  8
0
100
AcDbBlockBegin
  2
*T3
 70
1
 10
0.0
 20
0.0
  3
*T3
  1

  0
LINE
  5
277
100
AcDbEntity
  8
0
100
AcDbLine
 62
2
  6
CONTINUOUS
 10
0.0
 20
0.0
 11
4.6
 21
0.0
  0
LINE
  5
278
100
AcDbEntity
  8
0
100
AcDbLine
 62
2
  6
CONTINUOUS
 10
0.0
 20
0.0
 11
0.0
 21
-1.43775
  0
LINE
  5
279
100
AcDbEntity
  8
0
100
AcDbLine
 62
2
  6
CONTINUOUS
 10
0.0
 20
-0.34375
 11
4.6
 21
-0.34375
  0
LINE
  5
27A
100
AcDbEntity
  8
0
100
AcDbLine
 62
2
  6
CONTINUOUS
 10
0.0
 20
-0.68775
 11
4.6
 21
-0.68775
  0
LINE
  5
27B
100
AcDbEntity
  8
0
100
AcDbLine
 62
2
  6
CONTINUOUS
 10
0.0
 20
-0.93775
 11
4.6
 21
-0.93775
  0
LINE
  5
27C
100
AcDbEntity
  8
0
100
AcDbLine
 62
2
  6
CONTINUOUS
 10
0.0
 20
-1.18775
 11
4.6
 21
-1.18775
  0
LINE
  5
27D
100
AcDbEntity
  8
0
100
AcDbLine
 62
2
  6
CONTINUOUS
 10
0.0
 20
-1.43775
 11
4.6
 21
-1.43775
  0
LINE
  5
27E
100
AcDbEntity
  8
0
100
AcDbLine
 62
2
  6
CONTINUOUS
 10
1.3
 20
-0.34375
 11
1.3
 21
-1.43775
  0
LINE
  5
27F
100
AcDbEntity
  8
0
100
AcDbLine
 62
2
  6
CONTINUOUS
 10
3.3
 20
-0.34375
 11
3.3
 21
-1.43775
  0
LINE
  5
280
100
AcDbEntity
  8
0
100
AcDbLine
 62
2
  6
CONTINUOUS
 10
4.6
 20
0.0
 11
4.6
 21
-1.43775
  0
MTEXT
  5
281
100
AcDbEntity
  8
0
100
AcDbMText
 62
2
  6
CONTINUOUS
  7
STANDARD
 71
2
 72
1
 10
2.3
 20
-0.099375
 30
0.0
 11
1.0
 21
0.0
 31
0.0
 44
0.9
  1
Port Headings
 40
0.145
 41
3.016
  0
MTEXT
  5
282
100
AcDbEntity
  8
0
100
AcDbMText
 62
2
  6
CONTINUOUS
  7
STANDARD
 71
2
 72
1
 10
0.65
 20
-0.44325
 30
0.0
 11
1.0
 21
0.0
 31
0.0
 44
0.9
  1
Product
 40
0.145
 41
1.624
  0
MTEXT
  5
283
100
AcDbEntity
  8
0
100
AcDbMText
 62
2
  6
CONTINUOUS
  7
STANDARD
 71
2
 72
1
 10
2.3
 20
-0.44325
 30
0.0
 11
1.0
 21
0.0
 31
0.0
 44
0.9
  1
Port
 40
0.145
 41
0.928
  0
MTEXT
  5
284
100
AcDbEntity
  8
0
100
AcDbMText
 62
2
  6
CONTINUOUS
  7
STANDARD
 71
2
 72
1
 10
3.95
 20
-0.44325
 30
0.0
 11
1.0
 21
0.0
 31
0.0
 44
0.9
  1
Size
 40
0.145
 41
0.928
  0
MTEXT
  5
285
100
AcDbEntity
  8
0
100
AcDbMText
 62
2
  6
CONTINUOUS
  7
STANDARD
 71
2
 72
1
 10
0.65
 20
-0.75025
 30
0.0
 11
1.0
 21
0.0
 31
0.0
 44
0.9
  1
B4L
 40
0.125
 41
0.6
  0
MTEXT
  5
286
100
AcDbEntity
  8
0
100
AcDbMText
 62
2
  6
CONTINUOUS
  7
STANDARD
 71
2
 72
1
 10
2.3
 20
-0.75025
 30
0.0
 11
1.0
 21
0.0
 31
0.0
 44
0.9
  1
Ports 1 &  2
 40
0.125
 41
2.4
  0
MTEXT
  5
287
100
AcDbEntity
  8
0
100
AcDbMText
 62
2
  6
CONTINUOUS
  7
STANDARD
 71
2
 72
1
 10
3.95
 20
-0.75025
 30
0.0
 11
1.0
 21
0.0
 31
0.0
 44
0.9
  1
SAE 12
 40
0.125
 41
1.2
  0
MTEXT
  5
288
100
AcDbEntity
  8
0
100
AcDbMText
 62
2
  6
CONTINUOUS
  7
STANDARD
 71
2
 72
1
 10
0.65
 20
-1.00025
 30
0.0
 11
1.0
 21
0.0
 31
0.0
 44
0.9
  1
B4L
 40
0.125
 41
0.6
  0
MTEXT
  5
289
100
AcDbEntity
  8
0
100
AcDbMText
 62
2
  6
CONTINUOUS
  7
STANDARD
 71
2
 72
1
 10
2.3
 20
-1.00025
 30
0.0
 11
1.0
 21
0.0
 31
0.0
 44
0.9
  1
Port 3
 40
0.125
 41
1.2
  0
MTEXT
  5
28A
100
AcDbEntity
  8
0
100
AcDbMText
 62
2
  6
CONTINUOUS
  7
STANDARD
 71
2
 72
1
 10
3.95
 20
-1.00025
 30
0.0
 11
1.0
 21
0.0
 31
0.0
 44
0.9
  1
SAE 10
 40
0.125
 41
1.2
  0
MTEXT
  5
28B
100
AcDbEntity
  8
0
100
AcDbMText
 62
2
  6
CONTINUOUS
  7
STANDARD
 71
2
 72
1
 10
0.65
 20
-1.25025
 30
0.0
 11
1.0
 21
0.0
 31
0.0
 44
0.9
  1
B4L
 40
0.125
 41
0.6
  0
MTEXT
  5
28C
100
AcDbEntity
  8
0
100
AcDbMText
 62
2
  6
CONTINUOUS
  7
STANDARD
 71
2
 72
1
 10
2.3
 20
-1.25025
 30
0.0
 11
1.0
 21
0.0
 31
0.0
 44
0.9
  1
Gage Port
 40
0.125
 41
1.8
  0
MTEXT
  5
28D
100
AcDbEntity
  8
0
100
AcDbMText
 62
2
  6
CONTINUOUS
  7
STANDARD
 71
2
 72
1
 10
3.95
 20
-1.25025
 30
0.0
 11
1.0
 21
0.0
 31
0.0
 44
0.9
  1
1/4" NPTF
 40
0.125
 41
1.8
  0
ENDBLK
  5
28E
100
AcDbEntity
  8
0
  6
BYBLOCK
 62
0
100
AcDbBlockEnd
  0
ENDSEC
  0
SECTION
  2
ENTITIES
  0
IMAGE
  5
28F
100
AcDbEntity
  8
0
100
AcDbRasterImage
 62
7
  6
CONTINUOUS
 10
19.2297077316
 20
0.3094318264
 30
0.0
 11
0.0066666667
 21
0.0
 31
0.0
 12
0.0
 22
0.0066666667
 32
0.0
 13
369.0
 23
92.0
340
       3A5
 70
9
280
0
281
50
282
50
283
0
360
       39F
 71
1
 91
2
 14
-0.5
 24
-0.5
 14
368.5
 24
91.5
  0
INSERT
  5
290
100
AcDbEntity
  8
0
100
AcDbBlockReference
 62
2
  6
CONTINUOUS
  2
SUN_FIRST_THIRD_ANGLE_BL0
 10
20.4816717061
 20
1.2289683772
  0
ACAD_TABLE
  5
291
100
AcDbEntity
  8
0
 62
2
  6
CONTINUOUS
100
AcDbBlockReference
  2
*T1
 10
12.42375
 20
0.30125
 30
0.0
100
AcDbTable
342
       3A7
343
20F
 11
1.0
 21
0.0
 31
0.0
 90
6
 91
4
 92
6
 93
20
 94
0
 95
0
 96
0
 70
1
 41
0.0
141
0.525
141
0.1
141
0.525
141
0.1
142
4.1
142
1.1
142
0.7
142
0.5
142
0.4
142
2.475
171
1
172
0
173
0
174
0
175
1
176
1
 91
33
178
0
145
0.0
301
CELL_VALUE
 90
4
  1
T-2A Line mount\P(See Technical Data for Body Features)
304
ACVALUE_END
170
2
140
0.125
171
1
172
0
173
0
174
0
175
1
176
1
 91
33
178
0
145
0.0
301
CELL_VALUE
 90
4
  1
Aug-02-19
304
ACVALUE_END
170
5
140
0.125
171
1
172
0
173
0
174
0
175
1
176
1
 91
33
178
0
145
0.0
301
CELL_VALUE
 90
4
  1
1.000
304
ACVALUE_END
170
5
140
0.125
171
1
172
0
173
0
174
0
175
1
176
1
 91
33
178
0
145
0.0
301
CELL_VALUE
 90
4
  1
C
304
ACVALUE_END
170
5
140
0.125
171
1
172
0
173
0
174
0
175
1
176
1
 91
33
178
0
145
0.0
301
CELL_VALUE
 90
4
  1
2
304
ACVALUE_END
170
5
140
0.125
171
1
172
0
173
0
174
0
175
1
176
1
 91
33
178
0
145
0.0
301
CELL_VALUE
 90
4
  1
 
304
ACVALUE_END
170
1
140
0.125
171
1
172
0
173
0
174
0
175
1
176
1
 91
33
178
0
145
0.0
301
CELL_VALUE
 90
4
  1
DESCRIPTION
304
ACVALUE_END
170
1
140
0.06
171
1
172
0
173
0
174
0
175
1
176
1
 91
33
178
0
145
0.0
301
CELL_VALUE
 90
4
  1
DATE
304
ACVALUE_END
170
1
140
0.06
171
1
172
0
173
0
174
0
175
1
176
1
 91
33
178
0
145
0.0
301
CELL_VALUE
 90
4
  1
SCALE
304
ACVALUE_END
170
1
140
0.06
171
1
172
0
173
0
174
0
175
1
176
1
 91
33
178
0
145
0.0
301
CELL_VALUE
 90
4
  1
DWG SIZE
304
ACVALUE_END
170
1
140
0.06
171
1
172
0
173
0
174
0
175
1
176
1
 91
33
178
0
145
0.0
301
CELL_VALUE
 90
4
  1
SHEET
304
ACVALUE_END
170
1
140
0.06
171
1
172
0
173
0
174
0
175
1
176
1
 91
33
178
0
145
0.0
301
CELL_VALUE
 90
4
  1
 
304
ACVALUE_END
170
1
140
0.125
171
1
172
0
173
0
174
0
175
1
176
1
 91
33
178
0
145
0.0
301
CELL_VALUE
 90
4
  1
B4L
304
ACVALUE_END
170
5
140
0.125
171
1
172
0
173
0
174
0
175
4
176
1
 91
33
178
0
145
0.0
301
CELL_VALUE
 90
4
  1
ALL DIMENSIONS IN INCH\PVIEWS ARE THIRD ANGLE
304
ACVALUE_END
170
5
140
0.12
171
1
172
0
173
1
174
0
175
1
176
1
 91
1
178
0
145
0.0
170
1
171
1
172
0
173
1
174
0
175
1
176
1
 91
1
178
0
145
0.0
170
1
171
1
172
0
173
1
174
0
175
1
176
1
 91
1
178
0
145
0.0
170
5
171
1
172
0
173
0
174
0
175
1
176
1
 91
33
178
0
145
0.0
301
CELL_VALUE
 90
4
  1
 
304
ACVALUE_END
170
1
140
0.125
171
1
172
0
173
0
174
0
175
1
176
1
 91
33
178
0
145
0.0
301
CELL_VALUE
 90
4
  1
MODEL
304
ACVALUE_END
170
1
140
0.06
171
1
172
0
173
0
174
0
175
1
176
1
 91
33
178
0
145
0.0
301
CELL_VALUE
 90
4
  1
 
304
ACVALUE_END
170
1
140
0.125
171
1
172
0
173
0
174
0
175
1
176
1
 91
33
178
0
145
0.0
301
CELL_VALUE
 90
4
  1
 
304
ACVALUE_END
170
1
140
0.125
171
1
172
0
173
0
174
0
175
1
176
1
 91
33
178
0
145
0.0
301
CELL_VALUE
 90
4
  1
 
304
ACVALUE_END
170
1
140
0.125
171
1
172
0
173
0
174
0
175
1
176
1
 91
33
178
0
145
0.0
301
CELL_VALUE
 90
4
  1
 
304
ACVALUE_END
170
1
140
0.125
171
1
172
0
173
0
174
0
175
1
176
1
 91
33
178
0
145
0.0
301
CELL_VALUE
 90
4
  1
 
304
ACVALUE_END
170
1
140
0.125
  0
ACAD_TABLE
  5
292
100
AcDbEntity
  8
0
 62
2
  6
CONTINUOUS
100
AcDbBlockReference
  2
*T2
 10
12.4237499994
 20
16.47875
 30
0.0
100
AcDbTable
342
       3A6
343
210
 11
1.0
 21
0.0
 31
0.0
 90
22
 91
10
 92
3
 93
16
 94
0
 95
0
 96
0
 41
0.028
141
0.344
141
0.25
141
0.25
141
0.25
141
0.25
141
0.25
141
0.25
141
0.25
141
0.25
141
0.25
142
3.055
142
3.0
142
3.0
171
1
172
0
173
0
174
0
175
1
176
1
 91
33
178
0
145
0.0
301
CELL_VALUE
 90
4
  1
Technical Data
304
ACVALUE_END
170
5
140
0.145
171
1
172
0
173
0
174
0
175
1
176
1
 91
33
178
0
145
0.0
301
CELL_VALUE
 90
4
  1
U.S. Units
304
ACVALUE_END
170
5
140
0.145
171
1
172
0
173
0
174
0
175
1
176
1
 91
33
178
0
145
0.0
301
CELL_VALUE
 90
4
  1
Metric Units
304
ACVALUE_END
170
5
140
0.145
171
1
172
0
173
0
174
0
175
1
176
1
 91
33
178
0
145
0.0
301
CELL_VALUE
 90
4
  1
Cavity
304
ACVALUE_END
170
5
140
0.125
171
1
172
0
173
0
174
0
175
2
176
1
 91
33
178
0
145
0.0
301
CELL_VALUE
 90
4
  1
T-2A
304
ACVALUE_END
170
5
140
0.125
171
1
172
0
173
1
174
0
175
1
176
1
 91
1
178
0
145
0.0
170
1
171
1
172
0
173
0
174
0
175
1
176
1
 91
33
178
0
145
0.0
301
CELL_VALUE
 90
4
  1
Body Features
304
ACVALUE_END
170
5
140
0.125
171
1
172
0
173
0
174
0
175
2
176
1
 91
33
178
0
145
0.0
301
CELL_VALUE
 90
4
  1
Ninety degree with reverse flow check - reducing
304
ACVALUE_END
170
5
140
0.125
171
1
172
0
173
1
174
0
175
1
176
1
 91
1
178
0
145
0.0
170
1
171
1
172
0
173
0
174
0
175
1
176
1
 91
33
178
0
145
0.0
301
CELL_VALUE
 90
4
  1
Body Type
304
ACVALUE_END
170
5
140
0.125
171
1
172
0
173
0
174
0
175
2
176
1
 91
33
178
0
145
0.0
301
CELL_VALUE
 90
4
  1
Line mount
304
ACVALUE_END
170
5
140
0.125
171
1
172
0
173
1
174
0
175
1
176
1
 91
1
178
0
145
0.0
170
1
171
1
172
0
173
0
174
0
175
1
176
1
 91
33
178
0
145
0.0
301
CELL_VALUE
 90
4
  1
Interface
304
ACVALUE_END
170
5
140
0.125
171
1
172
0
173
0
174
0
175
2
176
1
 91
33
178
0
145
0.0
301
CELL_VALUE
 90
4
  1
None
304
ACVALUE_END
170
5
140
0.125
171
1
172
0
173
1
174
0
175
1
176
1
 91
1
178
0
145
0.0
170
1
171
1
172
0
173
0
174
0
175
1
176
1
 91
33
178
0
145
0.0
301
CELL_VALUE
 90
4
  1
Open Cavity Quantity
304
ACVALUE_END
170
5
140
0.125
171
1
172
0
173
0
174
0
175
2
176
1
 91
33
178
0
145
0.0
301
CELL_VALUE
 90
4
  1
1
304
ACVALUE_END
170
5
140
0.125
171
1
172
0
173
1
174
0
175
1
176
1
 91
1
178
0
145
0.0
170
1
171
1
172
0
173
0
174
0
175
1
176
1
 91
33
178
0
145
0.0
301
CELL_VALUE
 90
4
  1
Weight
304
ACVALUE_END
170
5
140
0.125
171
1
172
0
173
0
174
0
175
1
176
1
 91
33
178
0
145
0.0
301
CELL_VALUE
 90
4
  1
1.859 lb.
304
ACVALUE_END
170
5
140
0.125
171
1
172
0
173
0
174
0
175
1
176
1
 91
33
178
0
145
0.0
301
CELL_VALUE
 90
4
  1
0,843 kg.
304
ACVALUE_END
170
5
140
0.125
171
1
172
0
173
0
174
0
175
1
176
1
 91
33
178
0
145
0.0
301
CELL_VALUE
 90
4
  1
Mounting Hole Diameter
304
ACVALUE_END
170
5
140
0.125
171
1
172
0
173
0
174
0
175
1
176
1
 91
33
178
0
145
0.0
301
CELL_VALUE
 90
4
  1
.42 in.
304
ACVALUE_END
170
5
140
0.125
171
1
172
0
173
0
174
0
175
1
176
1
 91
33
178
0
145
0.0
301
CELL_VALUE
 90
4
  1
10,7 mm
304
ACVALUE_END
170
5
140
0.125
171
1
172
0
173
0
174
0
175
1
176
1
 91
33
178
0
145
0.0
301
CELL_VALUE
 90
4
  1
Mounting Hole Depth
304
ACVALUE_END
170
5
140
0.125
171
1
172
0
173
0
174
0
175
2
176
1
 91
33
178
0
145
0.0
301
CELL_VALUE
 90
4
  1
Through
304
ACVALUE_END
170
5
140
0.125
171
1
172
0
173
1
174
0
175
1
176
1
 91
1
178
0
145
0.0
170
1
171
1
172
0
173
0
174
0
175
1
176
1
 91
33
178
0
145
0.0
301
CELL_VALUE
 90
4
  1
Mounting Hole Quantity
304
ACVALUE_END
170
5
140
0.125
171
1
172
0
173
0
174
0
175
2
176
1
 91
33
178
0
145
0.0
301
CELL_VALUE
 90
4
  1
2
304
ACVALUE_END
170
5
140
0.125
171
1
172
0
173
1
174
0
175
1
176
1
 91
1
178
0
145
0.0
170
1
  0
ACAD_TABLE
  5
293
100
AcDbEntity
  8
0
 62
2
  6
CONTINUOUS
100
AcDbBlockReference
  2
*T3
 10
0.52125
 20
1.959
 30
0.0
100
AcDbTable
342
       3A6
343
211
 11
1.0
 21
0.0
 31
0.0
 90
22
 91
5
 92
3
 93
16
 94
0
 95
0
 96
0
 41
0.05
141
0.34375
141
0.344
141
0.25
141
0.25
141
0.25
142
1.3
142
2.0
142
1.3
171
1
172
0
173
0
174
0
175
3
176
1
 91
33
178
0
145
0.0
301
CELL_VALUE
 90
4
  1
Port Headings
304
ACVALUE_END
170
5
140
0.145
171
1
172
0
173
1
174
0
175
1
176
1
 91
1
178
0
145
0.0
170
1
171
1
172
0
173
1
174
0
175
1
176
1
 91
1
178
0
145
0.0
170
1
171
1
172
0
173
0
174
0
175
1
176
1
 91
33
178
0
145
0.0
301
CELL_VALUE
 90
4
  1
Product
304
ACVALUE_END
170
5
140
0.145
171
1
172
0
173
0
174
0
175
1
176
1
 91
33
178
0
145
0.0
301
CELL_VALUE
 90
4
  1
Port
304
ACVALUE_END
170
5
140
0.145
171
1
172
0
173
0
174
0
175
1
176
1
 91
33
178
0
145
0.0
301
CELL_VALUE
 90
4
  1
Size
304
ACVALUE_END
170
5
140
0.145
171
1
172
0
173
0
174
0
175
1
176
1
 91
33
178
0
145
0.0
301
CELL_VALUE
 90
4
  1
B4L
304
ACVALUE_END
170
5
140
0.125
171
1
172
0
173
0
174
0
175
1
176
1
 91
33
178
0
145
0.0
301
CELL_VALUE
 90
4
  1
Ports 1 &  2
304
ACVALUE_END
170
5
140
0.125
171
1
172
0
173
0
174
0
175
1
176
1
 91
33
178
0
145
0.0
301
CELL_VALUE
 90
4
  1
SAE 12
304
ACVALUE_END
170
5
140
0.125
171
1
172
0
173
0
174
0
175
1
176
1
 91
33
178
0
145
0.0
301
CELL_VALUE
 90
4
  1
B4L
304
ACVALUE_END
170
5
140
0.125
171
1
172
0
173
0
174
0
175
1
176
1
 91
33
178
0
145
0.0
301
CELL_VALUE
 90
4
  1
Port 3
304
ACVALUE_END
170
5
140
0.125
171
1
172
0
173
0
174
0
175
1
176
1
 91
33
178
0
145
0.0
301
CELL_VALUE
 90
4
  1
SAE 10
304
ACVALUE_END
170
5
140
0.125
171
1
172
0
173
0
174
0
175
1
176
1
 91
33
178
0
145
0.0
301
CELL_VALUE
 90
4
  1
B4L
304
ACVALUE_END
170
5
140
0.125
171
1
172
0
173
0
174
0
175
1
176
1
 91
33
178
0
145
0.0
301
CELL_VALUE
 90
4
  1
Gage Port
304
ACVALUE_END
170
5
140
0.125
171
1
172
0
173
0
174
0
175
1
176
1
 91
33
178
0
145
0.0
301
CELL_VALUE
 90
4
  1
1/4" NPTF
304
ACVALUE_END
170
5
140
0.125
  0
MTEXT
  5
294
100
AcDbEntity
  8
0
100
AcDbMText
 62
2
  6
CONTINUOUS
  7
STANDARD
 71
1
 72
1
 10
0.52125
 20
5.75995
 30
0.0
 11
1.0
 21
0.0
 31
0.0
 44
0.6
  3
Notes\P \P1. Important: Carefully consider\P   the maximum system pressure. The\P   pressure rating of the manifold is\P   dependent on the manifold material,\P   with the port type/size a secondary\P   consideration. Manifolds\P   constructed of alu
  1
minum are not\P   rated for pressures higher than\P   3000 psi (210 bar), regardless of\P   the port type/size specified.
 40
0.1
 41
3.04
  0
LINE
  5
295
100
AcDbEntity
  8
0
100
AcDbLine
 62
7
  6
CONTINUOUS
 10
0.30125
 20
0.30125
 11
0.30125
 21
16.69875
  0
LINE
  5
296
100
AcDbEntity
  8
0
100
AcDbLine
 62
7
  6
CONTINUOUS
 10
0.30125
 20
0.30125
 11
21.69875
 21
0.30125
  0
LINE
  5
297
100
AcDbEntity
  8
0
100
AcDbLine
 62
7
  6
CONTINUOUS
 10
0.30125
 20
16.69875
 11
21.69875
 21
16.69875
  0
LINE
  5
298
100
AcDbEntity
  8
0
100
AcDbLine
 62
7
  6
CONTINUOUS
 10
21.69875
 20
0.30125
 11
21.69875
 21
16.69875
  0
LINE
  5
299
100
AcDbEntity
  8
0
100
AcDbLine
 62
7
  6
CONTINUOUS
 10
9.4433734597
 20
10.9566713866
 11
9.2838815019
 21
10.8026139764
  0
LINE
  5
29A
100
AcDbEntity
  8
0
100
AcDbLine
 62
7
  6
CONTINUOUS
 10
9.2146371703
 20
10.7357290842
 11
9.0551452125
 21
10.5816716739
  0
LINE
  5
29B
100
AcDbEntity
  8
0
100
AcDbLine
 62
7
  6
CONTINUOUS
 10
9.3147911309
 20
10.8004703863
 11
9.2455467993
 21
10.7335854941
  0
LINE
  5
29C
100
AcDbEntity
  8
0
100
AcDbLine
 62
4
  6
CONTINUOUS
 10
9.3545822351
 20
10.0441352962
 11
9.3473377911
 21
10.0349784438
  0
LINE
  5
29D
100
AcDbEntity
  8
0
100
AcDbLine
 62
4
  6
CONTINUOUS
 10
9.361826679
 20
9.9856773406
 11
9.3473377911
 21
9.9673636314
  0
LINE
  5
29E
100
AcDbEntity
  8
0
100
AcDbLine
 62
4
  6
CONTINUOUS
 10
9.3038711273
 20
10.066970643
 11
9.3183600153
 21
10.0756250916
  0
LINE
  5
29F
100
AcDbEntity
  8
0
100
AcDbLine
 62
4
  6
CONTINUOUS
 10
9.3473377911
 20
10.0349784438
 11
9.3328489032
 21
10.0263239884
  0
LINE
  5
2A0
100
AcDbEntity
  8
0
100
AcDbLine
 62
4
  6
CONTINUOUS
 10
9.3473377911
 20
9.9673636314
 11
9.3328489032
 21
9.9587091803
  0
LINE
  5
2A1
100
AcDbEntity
  8
0
100
AcDbLine
 62
7
  6
CONTINUOUS
 10
9.0551452125
 20
6.7179681398
 11
9.0551452125
 21
7.4560247011
  0
LINE
  5
2A2
100
AcDbEntity
  8
0
100
AcDbLine
 62
7
  6
CONTINUOUS
 10
9.0551452125
 20
8.0315382251
 11
9.0551452125
 21
10.5816716739
  0
LINE
  5
2A3
100
AcDbEntity
  8
0
100
AcDbLine
 62
7
  6
CONTINUOUS
 10
9.0860548415
 20
8.0293946351
 11
9.0860548415
 21
7.453881111
  0
LINE
  5
2A4
100
AcDbEntity
  8
0
100
AcDbLine
 62
7
  6
CONTINUOUS
 10
9.0551452125
 20
6.7179681398
 11
12.5566265403
 21
6.475139585
  0
LINE
  5
2A5
100
AcDbEntity
  8
0
100
AcDbLine
 62
7
  6
CONTINUOUS
 10
11.2739877806
 20
6.1296039888
 11
11.29320567
 21
6.1201107194
  0
LINE
  5
2A6
100
AcDbEntity
  8
0
100
AcDbLine
 62
4
  6
CONTINUOUS
 10
9.3545822351
 20
10.0537945525
 11
9.3545822351
 21
10.0441352962
  0
LINE
  5
2A7
100
AcDbEntity
  8
0
100
AcDbLine
 62
4
  6
CONTINUOUS
 10
9.3545822351
 20
7.8698361143
 11
9.3545822351
 21
7.7539250108
  0
LINE
  5
2A8
100
AcDbEntity
  8
0
100
AcDbLine
 62
4
  6
CONTINUOUS
 10
9.361826679
 20
9.9953366004
 11
9.361826679
 21
9.9856773406
  0
LINE
  5
2A9
100
AcDbEntity
  8
0
100
AcDbLine
 62
7
  6
CONTINUOUS
 10
9.0551452125
 20
7.4560247011
 11
9.0860548415
 21
7.453881111
  0
LINE
  5
2AA
100
AcDbEntity
  8
0
100
AcDbLine
 62
4
  6
CONTINUOUS
 10
10.2640704391
 20
8.9695996876
 11
10.2806291689
 21
8.9850100638
  0
LINE
  5
2AB
100
AcDbEntity
  8
0
100
AcDbLine
 62
4
  6
CONTINUOUS
 10
10.3132636746
 20
7.958865418
 11
10.2987747867
 21
7.9695294846
  0
LINE
  5
2AC
100
AcDbEntity
  8
0
100
AcDbLine
 62
4
  6
CONTINUOUS
 10
10.2987747867
 20
7.9695294846
 11
10.2842858988
 21
7.9898528094
  0
LINE
  5
2AD
100
AcDbEntity
  8
0
100
AcDbLine
 62
4
  6
CONTINUOUS
 10
10.2842858988
 20
7.9898528094
 11
10.2770414548
 21
8.0193329891
  0
LINE
  5
2AE
100
AcDbEntity
  8
0
100
AcDbLine
 62
4
  6
CONTINUOUS
 10
10.2640704391
 20
8.9530409595
 11
10.2640704391
 21
8.9695996876
  0
LINE
  5
2AF
100
AcDbEntity
  8
0
100
AcDbLine
 62
4
  6
CONTINUOUS
 10
10.3220259908
 20
8.8827868109
 11
10.3220259908
 21
8.8993455407
  0
LINE
  5
2B0
100
AcDbEntity
  8
0
100
AcDbLine
 62
4
  6
CONTINUOUS
 10
10.3494858945
 20
8.0143089502
 11
10.3494858945
 21
7.9756719163
  0
LINE
  5
2B1
100
AcDbEntity
  8
0
100
AcDbLine
 62
4
  6
CONTINUOUS
 10
10.355143447
 20
8.9798424811
 11
10.355143447
 21
8.8804901075
  0
LINE
  5
2B2
100
AcDbEntity
  8
0
100
AcDbLine
 62
4
  6
CONTINUOUS
 10
10.3910207075
 20
8.2702966537
 11
10.3910207075
 21
8.3862077571
  0
LINE
  5
2B3
100
AcDbEntity
  8
0
100
AcDbLine
 62
4
  6
CONTINUOUS
 10
10.3054672627
 20
8.8673764328
 11
10.3220259908
 21
8.8827868109
  0
LINE
  5
2B4
100
AcDbEntity
  8
0
100
AcDbLine
 62
4
  6
CONTINUOUS
 10
10.3965402775
 20
8.8610604977
 11
10.4130989987
 21
8.8764708763
  0
LINE
  5
2B5
100
AcDbEntity
  8
0
100
AcDbLine
 62
7
  6
CONTINUOUS
 10
9.0551452125
 20
8.0315382251
 11
9.0860548415
 21
8.0293946351
  0
LINE
  5
2B6
100
AcDbEntity
  8
0
100
AcDbLine
 62
4
  6
CONTINUOUS
 10
10.3277525626
 20
8.0737717136
 11
10.3422414505
 21
8.0631076495
  0
LINE
  5
2B7
100
AcDbEntity
  8
0
100
AcDbLine
 62
4
  6
CONTINUOUS
 10
10.3422414505
 20
8.0631076495
 11
10.3494858945
 21
8.0529459824
  0
LINE
  5
2B8
100
AcDbEntity
  8
0
100
AcDbLine
 62
4
  6
CONTINUOUS
 10
10.4130989987
 20
8.8764708763
 11
10.4130989987
 21
8.97582325
  0
LINE
  5
2B9
100
AcDbEntity
  8
0
100
AcDbLine
 62
4
  6
CONTINUOUS
 10
10.4462164548
 20
8.8576154431
 11
10.4462164548
 21
8.9735265466
  0
LINE
  5
2BA
100
AcDbEntity
  8
0
100
AcDbLine
 62
4
  6
CONTINUOUS
 10
10.4489762523
 20
8.3656297984
 11
10.4489762523
 21
8.2828361528
  0
LINE
  5
2BB
100
AcDbEntity
  8
0
100
AcDbLine
 62
4
  6
CONTINUOUS
 10
10.5041720066
 20
8.853596212
 11
10.5041720066
 21
8.9695073154
  0
LINE
  5
2BC
100
AcDbEntity
  8
0
100
AcDbLine
 62
4
  6
CONTINUOUS
 10
10.2770414548
 20
8.0193329891
 11
10.2842858988
 21
8.0478083611
  0
LINE
  5
2BD
100
AcDbEntity
  8
0
100
AcDbLine
 62
4
  6
CONTINUOUS
 10
10.4958926519
 20
8.2630237597
 11
10.5290101081
 21
8.3766381597
  0
LINE
  5
2BE
100
AcDbEntity
  8
0
100
AcDbLine
 62
4
  6
CONTINUOUS
 10
10.7829106269
 20
8.9087799028
 11
10.7994693481
 21
8.9159109191
  0
LINE
  5
2BF
100
AcDbEntity
  8
0
100
AcDbLine
 62
4
  6
CONTINUOUS
 10
10.3277525626
 20
7.9578606102
 11
10.3132636746
 21
7.958865418
  0
LINE
  5
2C0
100
AcDbEntity
  8
0
100
AcDbLine
 62
4
  6
CONTINUOUS
 10
10.3205081186
 20
8.0163185658
 11
10.3494858945
 21
8.0143089502
  0
LINE
  5
2C1
100
AcDbEntity
  8
0
100
AcDbLine
 62
4
  6
CONTINUOUS
 10
10.3132636746
 20
8.0747765214
 11
10.3277525626
 21
8.0737717136
  0
LINE
  5
2C2
100
AcDbEntity
  8
0
100
AcDbLine
 62
4
  6
CONTINUOUS
 10
10.3247857882
 20
8.3245662486
 11
10.3689423999
 21
8.2994256714
  0
LINE
  5
2C3
100
AcDbEntity
  8
0
100
AcDbLine
 62
4
  6
CONTINUOUS
 10
10.4324175242
 20
8.3833368782
 11
10.4489762523
 21
8.3656297984
  0
LINE
  5
2C4
100
AcDbEntity
  8
0
100
AcDbLine
 62
4
  6
CONTINUOUS
 10
9.3038711273
 20
9.9703780548
 11
9.2966266834
 21
9.9805397176
  0
LINE
  5
2C5
100
AcDbEntity
  8
0
100
AcDbLine
 62
4
  6
CONTINUOUS
 10
9.3473377911
 20
10.0156599243
 11
9.361826679
 21
9.9953366004
  0
LINE
  5
2C6
100
AcDbEntity
  8
0
100
AcDbLine
 62
4
  6
CONTINUOUS
 10
9.3473377911
 20
10.0639562197
 11
9.3545822351
 21
10.0537945525
  0
LINE
  5
2C7
100
AcDbEntity
  8
0
100
AcDbLine
 62
4
  6
CONTINUOUS
 10
10.5290101081
 20
8.3766381597
 11
10.562127578
 21
8.2584303519
  0
LINE
  5
2C8
100
AcDbEntity
  8
0
100
AcDbLine
 62
4
  6
CONTINUOUS
 10
10.6283624903
 20
8.2538369452
 11
10.6283624903
 21
8.3697480486
  0
LINE
  5
2C9
100
AcDbEntity
  8
0
100
AcDbLine
 62
4
  6
CONTINUOUS
 10
10.6283624706
 20
8.844983574
 11
10.6283624706
 21
8.9608946775
  0
LINE
  5
2CA
100
AcDbEntity
  8
0
100
AcDbLine
 62
4
  6
CONTINUOUS
 10
10.6780386617
 20
8.9160527983
 11
10.6780386617
 21
8.8415385185
  0
LINE
  5
2CB
100
AcDbEntity
  8
0
100
AcDbLine
 62
4
  6
CONTINUOUS
 10
10.6945973556
 20
8.5042479692
 11
10.6945973556
 21
8.6201590726
  0
LINE
  5
2CC
100
AcDbEntity
  8
0
100
AcDbLine
 62
4
  6
CONTINUOUS
 10
10.6945974026
 20
8.2492435384
 11
10.6945974026
 21
8.3651546418
  0
LINE
  5
2CD
100
AcDbEntity
  8
0
100
AcDbLine
 62
4
  6
CONTINUOUS
 10
10.7442735433
 20
8.6001552892
 11
10.7442735433
 21
8.5753171937
  0
LINE
  5
2CE
100
AcDbEntity
  8
0
100
AcDbLine
 62
4
  6
CONTINUOUS
 10
10.7525529074
 20
8.5416255617
 11
10.7525529074
 21
8.5167874678
  0
LINE
  5
2CF
100
AcDbEntity
  8
0
100
AcDbLine
 62
4
  6
CONTINUOUS
 10
10.7829106269
 20
8.8425449879
 11
10.7829106269
 21
8.9087799028
  0
LINE
  5
2D0
100
AcDbEntity
  8
0
100
AcDbLine
 62
4
  6
CONTINUOUS
 10
10.7856703635
 20
8.5227701285
 11
10.8105084591
 21
8.6121206103
  0
LINE
  5
2D1
100
AcDbEntity
  8
0
100
AcDbLine
 62
4
  6
CONTINUOUS
 10
10.7277148528
 20
8.8104955811
 11
10.7608322952
 21
8.9185904078
  0
LINE
  5
2D2
100
AcDbEntity
  8
0
100
AcDbLine
 62
4
  6
CONTINUOUS
 10
10.2842858988
 20
8.0478083611
 11
10.2987747867
 21
8.0661220729
  0
LINE
  5
2D3
100
AcDbEntity
  8
0
100
AcDbLine
 62
4
  6
CONTINUOUS
 10
10.3494858945
 20
7.9756719163
 11
10.3422414505
 21
7.9665150613
  0
LINE
  5
2D4
100
AcDbEntity
  8
0
100
AcDbLine
 62
7
  6
CONTINUOUS
 10
12.5566265403
 20
10.3388431191
 11
12.9448547875
 21
10.7138428318
  0
LINE
  5
2D5
100
AcDbEntity
  8
0
100
AcDbLine
 62
4
  6
CONTINUOUS
 10
10.7442735433
 20
8.5753171937
 11
10.7277148152
 21
8.5599068173
  0
LINE
  5
2D6
100
AcDbEntity
  8
0
100
AcDbLine
 62
4
  6
CONTINUOUS
 10
10.4489762523
 20
8.2828361528
 11
10.4324175242
 21
8.2674257747
  0
LINE
  5
2D7
100
AcDbEntity
  8
0
100
AcDbLine
 62
4
  6
CONTINUOUS
 10
10.7525529074
 20
8.5167874678
 11
10.7359941793
 21
8.5013770897
  0
LINE
  5
2D8
100
AcDbEntity
  8
0
100
AcDbLine
 62
4
  6
CONTINUOUS
 10
10.9402185609
 20
8.8564737403
 11
10.956777282
 21
8.8636047531
  0
LINE
  5
2D9
100
AcDbEntity
  8
0
100
AcDbLine
 62
4
  6
CONTINUOUS
 10
11.0975264594
 20
8.2213003134
 11
11.0561296288
 21
8.2241711934
  0
LINE
  5
2DA
100
AcDbEntity
  8
0
100
AcDbLine
 62
4
  6
CONTINUOUS
 10
11.0064534653
 20
8.227616247
 11
10.9816153559
 21
8.2293387757
  0
LINE
  5
2DB
100
AcDbEntity
  8
0
100
AcDbLine
 62
4
  6
CONTINUOUS
 10
10.9181402489
 20
8.2337407894
 11
10.8850228066
 21
8.2360374918
  0
LINE
  5
2DC
100
AcDbEntity
  8
0
100
AcDbLine
 62
4
  6
CONTINUOUS
 10
10.4324175242
 20
8.2674257747
 11
10.3910207075
 21
8.2702966537
  0
LINE
  5
2DD
100
AcDbEntity
  8
0
100
AcDbLine
 62
4
  6
CONTINUOUS
 10
10.6945974026
 20
8.2492435384
 11
10.7442735938
 21
8.2457984828
  0
LINE
  5
2DE
100
AcDbEntity
  8
0
100
AcDbLine
 62
4
  6
CONTINUOUS
 10
11.1610016217
 20
8.2168982959
 11
11.2106777852
 21
8.2134532423
  0
LINE
  5
2DF
100
AcDbEntity
  8
0
100
AcDbLine
 62
4
  6
CONTINUOUS
 10
10.506931804
 20
8.2953756515
 11
10.5510884122
 21
8.2923133803
  0
LINE
  5
2E0
100
AcDbEntity
  8
0
100
AcDbLine
 62
4
  6
CONTINUOUS
 10
11.194119064
 20
8.2808365127
 11
11.1610016217
 21
8.2831332152
  0
LINE
  5
2E1
100
AcDbEntity
  8
0
100
AcDbLine
 62
4
  6
CONTINUOUS
 10
10.7277148726
 20
8.3131817533
 11
10.6945974026
 21
8.3154784576
  0
LINE
  5
2E2
100
AcDbEntity
  8
0
100
AcDbLine
 62
4
  6
CONTINUOUS
 10
10.2640704391
 20
8.8785266771
 11
10.272349804
 21
8.8696731363
  0
LINE
  5
2E3
100
AcDbEntity
  8
0
100
AcDbLine
 62
4
  6
CONTINUOUS
 10
10.8850228066
 20
8.2360374918
 11
10.8684640854
 21
8.2537445728
  0
LINE
  5
2E4
100
AcDbEntity
  8
0
100
AcDbLine
 62
4
  6
CONTINUOUS
 10
10.355143447
 20
8.8804901075
 11
10.371702175
 21
8.862783026
  0
LINE
  5
2E5
100
AcDbEntity
  8
0
100
AcDbLine
 62
4
  6
CONTINUOUS
 10
10.9816153559
 20
8.2293387757
 11
10.9650566348
 21
8.2470458567
  0
LINE
  5
2E6
100
AcDbEntity
  8
0
100
AcDbLine
 62
4
  6
CONTINUOUS
 10
10.4462164548
 20
8.9735265466
 11
10.5041720066
 21
8.853596212
  0
LINE
  5
2E7
100
AcDbEntity
  8
0
100
AcDbLine
 62
4
  6
CONTINUOUS
 10
10.8243074026
 20
8.4952525469
 11
10.8243074026
 21
8.5532080986
  0
LINE
  5
2E8
100
AcDbEntity
  8
0
100
AcDbLine
 62
4
  6
CONTINUOUS
 10
10.8325867904
 20
8.9467316728
 11
10.8325867904
 21
8.8308205694
  0
LINE
  5
2E9
100
AcDbEntity
  8
0
100
AcDbLine
 62
4
  6
CONTINUOUS
 10
10.865704288
 20
8.8285238631
 11
10.865704288
 21
8.9113175104
  0
LINE
  5
2EA
100
AcDbEntity
  8
0
100
AcDbLine
 62
4
  6
CONTINUOUS
 10
10.8684640854
 20
8.2537445728
 11
10.8684640854
 21
8.3365382183
  0
LINE
  5
2EB
100
AcDbEntity
  8
0
100
AcDbLine
 62
4
  6
CONTINUOUS
 10
10.8767433714
 20
8.6075272035
 11
10.8767433714
 21
8.4916161001
  0
LINE
  5
2EC
100
AcDbEntity
  8
0
100
AcDbLine
 62
4
  6
CONTINUOUS
 10
10.9043412856
 20
8.900358658
 11
10.9043412856
 21
8.8837999299
  0
LINE
  5
2ED
100
AcDbEntity
  8
0
100
AcDbLine
 62
4
  6
CONTINUOUS
 10
10.9402185609
 20
8.8316356456
 11
10.9402185609
 21
8.8564737403
  0
LINE
  5
2EE
100
AcDbEntity
  8
0
100
AcDbLine
 62
4
  6
CONTINUOUS
 10
10.9650566348
 20
8.2470458567
 11
10.9650566348
 21
8.3298395023
  0
LINE
  5
2EF
100
AcDbEntity
  8
0
100
AcDbLine
 62
4
  6
CONTINUOUS
 10
10.9898947244
 20
8.8199112271
 11
10.9898947244
 21
8.8861461463
  0
LINE
  5
2F0
100
AcDbEntity
  8
0
100
AcDbLine
 62
4
  6
CONTINUOUS
 10
11.0230121667
 20
8.9004081719
 11
11.0230121667
 21
8.8258938896
  0
LINE
  5
2F1
100
AcDbEntity
  8
0
100
AcDbLine
 62
4
  6
CONTINUOUS
 10
11.0230121865
 20
8.3258202711
 11
11.0230121865
 21
8.2430266256
  0
LINE
  5
2F2
100
AcDbEntity
  8
0
100
AcDbLine
 62
4
  6
CONTINUOUS
 10
11.2244767089
 20
8.878157191
 11
11.2327560418
 21
8.8858623848
  0
LINE
  5
2F3
100
AcDbEntity
  8
0
100
AcDbLine
 62
4
  6
CONTINUOUS
 10
11.298991037
 20
8.8729896048
 11
11.30727037
 21
8.8806947986
  0
LINE
  5
2F4
100
AcDbEntity
  8
0
100
AcDbLine
 62
4
  6
CONTINUOUS
 10
11.3403878123
 20
8.7956044489
 11
11.3486671453
 21
8.8033096401
  0
LINE
  5
2F5
100
AcDbEntity
  8
0
100
AcDbLine
 62
4
  6
CONTINUOUS
 10
10.2987747867
 20
8.0661220729
 11
10.3132636746
 21
8.0747765214
  0
LINE
  5
2F6
100
AcDbEntity
  8
0
100
AcDbLine
 62
4
  6
CONTINUOUS
 10
10.3689423999
 20
8.3435822848
 11
10.3247857882
 21
8.3245662486
  0
LINE
  5
2F7
100
AcDbEntity
  8
0
100
AcDbLine
 62
4
  6
CONTINUOUS
 10
10.3910207075
 20
8.3862077571
 11
10.4324175242
 21
8.3833368782
  0
LINE
  5
2F8
100
AcDbEntity
  8
0
100
AcDbLine
 62
4
  6
CONTINUOUS
 10
10.5952450204
 20
8.3720447529
 11
10.6614799327
 21
8.3674513462
  0
LINE
  5
2F9
100
AcDbEntity
  8
0
100
AcDbLine
 62
4
  6
CONTINUOUS
 10
10.6945974026
 20
8.3651546418
 11
10.7442735938
 21
8.3617095863
  0
LINE
  5
2FA
100
AcDbEntity
  8
0
100
AcDbLine
 62
4
  6
CONTINUOUS
 10
10.8850228066
 20
8.3519485952
 11
10.9181402489
 21
8.3496518928
  0
LINE
  5
2FB
100
AcDbEntity
  8
0
100
AcDbLine
 62
4
  6
CONTINUOUS
 10
10.9816153559
 20
8.3452498792
 11
11.0064534653
 21
8.3435273504
  0
LINE
  5
2FC
100
AcDbEntity
  8
0
100
AcDbLine
 62
4
  6
CONTINUOUS
 10
11.0561296288
 20
8.3400822968
 11
11.0975264594
 21
8.3372114168
  0
LINE
  5
2FD
100
AcDbEntity
  8
0
100
AcDbLine
 62
4
  6
CONTINUOUS
 10
11.1610016217
 20
8.3328093994
 11
11.2106777852
 21
8.3293643457
  0
LINE
  5
2FE
100
AcDbEntity
  8
0
100
AcDbLine
 62
4
  6
CONTINUOUS
 10
10.7359941793
 20
8.5013770897
 11
10.6945973556
 21
8.5042479692
  0
LINE
  5
2FF
100
AcDbEntity
  8
0
100
AcDbLine
 62
4
  6
CONTINUOUS
 10
10.8767433714
 20
8.4916161001
 11
10.9181402019
 21
8.4887452202
  0
LINE
  5
300
100
AcDbEntity
  8
0
100
AcDbLine
 62
4
  6
CONTINUOUS
 10
10.8436259152
 20
8.5187508973
 11
10.7856703635
 21
8.5227701285
  0
LINE
  5
301
100
AcDbEntity
  8
0
100
AcDbLine
 62
4
  6
CONTINUOUS
 10
10.7194354495
 20
8.618436545
 11
10.7277148152
 21
8.6151025775
  0
LINE
  5
302
100
AcDbEntity
  8
0
100
AcDbLine
 62
4
  6
CONTINUOUS
 10
11.2437952275
 20
8.2829110351
 11
11.2879518357
 21
8.2577704564
  0
LINE
  5
303
100
AcDbEntity
  8
0
100
AcDbLine
 62
4
  6
CONTINUOUS
 10
10.7277148152
 20
8.6151025775
 11
10.7442735433
 21
8.6001552892
  0
LINE
  5
304
100
AcDbEntity
  8
0
100
AcDbLine
 62
4
  6
CONTINUOUS
 10
10.3220259908
 20
8.8993455407
 11
10.2640704391
 21
8.9530409595
  0
LINE
  5
305
100
AcDbEntity
  8
0
100
AcDbLine
 62
4
  6
CONTINUOUS
 10
10.3137466268
 20
8.9827133603
 11
10.3220259908
 21
8.973859817
  0
LINE
  5
306
100
AcDbEntity
  8
0
100
AcDbLine
 62
4
  6
CONTINUOUS
 10
10.7359941793
 20
8.5593326415
 11
10.7525529074
 21
8.5416255617
  0
LINE
  5
307
100
AcDbEntity
  8
0
100
AcDbLine
 62
4
  6
CONTINUOUS
 10
11.0064534653
 20
8.3435273504
 11
11.0230121865
 21
8.3258202711
  0
LINE
  5
308
100
AcDbEntity
  8
0
100
AcDbLine
 62
4
  6
CONTINUOUS
 10
11.0975264594
 20
8.3372114168
 11
11.1140851805
 21
8.3195043375
  0
LINE
  5
309
100
AcDbEntity
  8
0
100
AcDbLine
 62
4
  6
CONTINUOUS
 10
10.7111561317
 20
8.9220354614
 11
10.735994241
 21
8.8375192854
  0
LINE
  5
30A
100
AcDbEntity
  8
0
100
AcDbLine
 62
4
  6
CONTINUOUS
 10
11.0561296288
 20
8.2241711934
 11
11.0561296288
 21
8.3400822968
  0
LINE
  5
30B
100
AcDbEntity
  8
0
100
AcDbLine
 62
4
  6
CONTINUOUS
 10
11.0726883855
 20
8.8141694672
 11
11.0726883855
 21
8.8969631145
  0
LINE
  5
30C
100
AcDbEntity
  8
0
100
AcDbLine
 62
4
  6
CONTINUOUS
 10
11.1058058278
 20
8.8201521297
 11
11.1058058278
 21
8.9277838682
  0
LINE
  5
30D
100
AcDbEntity
  8
0
100
AcDbLine
 62
4
  6
CONTINUOUS
 10
11.1140851805
 20
8.3195043375
 11
11.1140851805
 21
8.236710692
  0
LINE
  5
30E
100
AcDbEntity
  8
0
100
AcDbLine
 62
4
  6
CONTINUOUS
 10
11.1610016217
 20
8.2168982959
 11
11.1610016217
 21
8.3328093994
  0
LINE
  5
30F
100
AcDbEntity
  8
0
100
AcDbLine
 62
7
  6
CONTINUOUS
 10
11.1657875035
 20
6.5715945998
 11
11.1657875035
 21
6.2662836504
  0
LINE
  5
310
100
AcDbEntity
  8
0
100
AcDbLine
 62
4
  6
CONTINUOUS
 10
11.1803201007
 20
8.8067051824
 11
11.1803201007
 21
8.8894988297
  0
LINE
  5
311
100
AcDbEntity
  8
0
100
AcDbLine
 62
4
  6
CONTINUOUS
 10
11.1803201007
 20
8.9143369183
 11
11.1803201007
 21
8.9226162858
  0
LINE
  5
312
100
AcDbEntity
  8
0
100
AcDbLine
 62
4
  6
CONTINUOUS
 10
11.2244767089
 20
8.8119222761
 11
11.2244767089
 21
8.878157191
  0
LINE
  5
313
100
AcDbEntity
  8
0
100
AcDbLine
 62
4
  6
CONTINUOUS
 10
11.1830798783
 20
8.9224248946
 11
11.1803201007
 21
8.9143369183
  0
LINE
  5
314
100
AcDbEntity
  8
0
100
AcDbLine
 62
4
  6
CONTINUOUS
 10
10.8684640854
 20
8.3365382183
 11
10.8850228066
 21
8.3519485952
  0
LINE
  5
315
100
AcDbEntity
  8
0
100
AcDbLine
 62
4
  6
CONTINUOUS
 10
10.9650566348
 20
8.3298395023
 11
10.9816153559
 21
8.3452498792
  0
LINE
  5
316
100
AcDbEntity
  8
0
100
AcDbLine
 62
4
  6
CONTINUOUS
 10
11.0230121865
 20
8.2430266256
 11
11.0064534653
 21
8.227616247
  0
LINE
  5
317
100
AcDbEntity
  8
0
100
AcDbLine
 62
4
  6
CONTINUOUS
 10
10.3422414505
 20
7.9665150613
 11
10.3277525626
 21
7.9578606102
  0
LINE
  5
318
100
AcDbEntity
  8
0
100
AcDbLine
 62
4
  6
CONTINUOUS
 10
10.6945973556
 20
8.5622035209
 11
10.7359941793
 21
8.5593326415
  0
LINE
  5
319
100
AcDbEntity
  8
0
100
AcDbLine
 62
4
  6
CONTINUOUS
 10
10.6945973556
 20
8.6201590726
 11
10.7194354495
 21
8.618436545
  0
LINE
  5
31A
100
AcDbEntity
  8
0
100
AcDbLine
 62
7
  6
CONTINUOUS
 10
12.5566265403
 20
8.542310092
 11
12.5257169112
 21
8.544453682
  0
LINE
  5
31B
100
AcDbEntity
  8
0
100
AcDbLine
 62
4
  6
CONTINUOUS
 10
10.7994693481
 20
8.8331172718
 11
10.7829106269
 21
8.8425449879
  0
LINE
  5
31C
100
AcDbEntity
  8
0
100
AcDbLine
 62
4
  6
CONTINUOUS
 10
9.3183600153
 20
9.9597139881
 11
9.3038711273
 21
9.9703780548
  0
LINE
  5
31D
100
AcDbEntity
  8
0
100
AcDbLine
 62
4
  6
CONTINUOUS
 10
10.6697593011
 20
8.9249063414
 11
10.6780386617
 21
8.9160527983
  0
LINE
  5
31E
100
AcDbEntity
  8
0
100
AcDbLine
 62
4
  6
CONTINUOUS
 10
10.8988217303
 20
8.909020808
 11
10.9043412856
 21
8.900358658
  0
LINE
  5
31F
100
AcDbEntity
  8
0
100
AcDbLine
 62
4
  6
CONTINUOUS
 10
10.9898947244
 20
8.8861461463
 11
10.9816153914
 21
8.9032790481
  0
LINE
  5
320
100
AcDbEntity
  8
0
100
AcDbLine
 62
4
  6
CONTINUOUS
 10
11.298991037
 20
8.8481515127
 11
11.298991037
 21
8.8729896048
  0
LINE
  5
321
100
AcDbEntity
  8
0
100
AcDbLine
 62
7
  6
CONTINUOUS
 10
11.317207443
 20
6.5044269117
 11
11.317207443
 21
6.1200234704
  0
LINE
  5
322
100
AcDbEntity
  8
0
100
AcDbLine
 62
4
  6
CONTINUOUS
 10
11.3486671453
 20
8.8033096401
 11
11.3486671453
 21
8.8281477348
  0
LINE
  5
323
100
AcDbEntity
  8
0
100
AcDbLine
 62
7
  6
CONTINUOUS
 10
11.3566802209
 20
6.4942106179
 11
11.3566802209
 21
6.1098071766
  0
LINE
  5
324
100
AcDbEntity
  8
0
100
AcDbLine
 62
4
  6
CONTINUOUS
 10
11.1140851805
 20
8.236710692
 11
11.0975264594
 21
8.2213003134
  0
LINE
  5
325
100
AcDbEntity
  8
0
100
AcDbLine
 62
4
  6
CONTINUOUS
 10
12.2625021023
 20
8.9567163002
 11
12.2769909903
 21
8.9653707487
  0
LINE
  5
326
100
AcDbEntity
  8
0
100
AcDbLine
 62
4
  6
CONTINUOUS
 10
12.3059687661
 20
8.9150648377
 11
12.2769909903
 21
8.8977559372
  0
LINE
  5
327
100
AcDbEntity
  8
0
100
AcDbLine
 62
4
  6
CONTINUOUS
 10
11.2879518357
 20
8.2577704564
 11
11.2437952275
 21
8.2387544217
  0
LINE
  5
328
100
AcDbEntity
  8
0
100
AcDbLine
 62
4
  6
CONTINUOUS
 10
10.7111561317
 20
8.8116439323
 11
10.7277148528
 21
8.8104955811
  0
LINE
  5
329
100
AcDbEntity
  8
0
100
AcDbLine
 62
4
  6
CONTINUOUS
 10
11.2658735947
 20
8.8007720274
 11
11.2327560418
 21
8.8030687375
  0
LINE
  5
32A
100
AcDbEntity
  8
0
100
AcDbLine
 62
4
  6
CONTINUOUS
 10
11.1306439372
 20
8.810150236
 11
11.114085216
 21
8.8112985872
  0
LINE
  5
32B
100
AcDbEntity
  8
0
100
AcDbLine
 62
4
  6
CONTINUOUS
 10
10.9898947244
 20
8.8199112271
 11
10.956777282
 21
8.8222079295
  0
LINE
  5
32C
100
AcDbEntity
  8
0
100
AcDbLine
 62
4
  6
CONTINUOUS
 10
10.8325867904
 20
8.8308205694
 11
10.7994693481
 21
8.8331172718
  0
LINE
  5
32D
100
AcDbEntity
  8
0
100
AcDbLine
 62
4
  6
CONTINUOUS
 10
10.272349804
 20
8.8696731363
 11
10.3054672627
 21
8.8673764328
  0
LINE
  5
32E
100
AcDbEntity
  8
0
100
AcDbLine
 62
4
  6
CONTINUOUS
 10
10.371702175
 20
8.862783026
 11
10.3965402775
 21
8.8610604977
  0
LINE
  5
32F
100
AcDbEntity
  8
0
100
AcDbLine
 62
4
  6
CONTINUOUS
 10
11.0312915549
 20
8.8170403471
 11
11.0726883855
 21
8.8141694672
  0
LINE
  5
330
100
AcDbEntity
  8
0
100
AcDbLine
 62
4
  6
CONTINUOUS
 10
11.30727037
 20
8.7979011513
 11
11.3403878123
 21
8.7956044489
  0
LINE
  5
331
100
AcDbEntity
  8
0
100
AcDbLine
 62
4
  6
CONTINUOUS
 10
10.956777282
 20
8.8636047531
 11
10.9898947244
 21
8.8613080507
  0
LINE
  5
332
100
AcDbEntity
  8
0
100
AcDbLine
 62
4
  6
CONTINUOUS
 10
10.9816153914
 20
8.9032790481
 11
10.9402185609
 21
8.906149928
  0
LINE
  5
333
100
AcDbEntity
  8
0
100
AcDbLine
 62
4
  6
CONTINUOUS
 10
10.6283624706
 20
8.9277772213
 11
10.6697593011
 21
8.9249063414
  0
LINE
  5
334
100
AcDbEntity
  8
0
100
AcDbLine
 62
4
  6
CONTINUOUS
 10
10.7994693481
 20
8.9159109191
 11
10.8325867904
 21
8.9136142166
  0
LINE
  5
335
100
AcDbEntity
  8
0
100
AcDbLine
 62
4
  6
CONTINUOUS
 10
10.865704288
 20
8.9113175104
 11
10.8988217303
 21
8.909020808
  0
LINE
  5
336
100
AcDbEntity
  8
0
100
AcDbLine
 62
4
  6
CONTINUOUS
 10
11.2327560418
 20
8.8858623848
 11
11.2658735947
 21
8.8835656747
  0
LINE
  5
337
100
AcDbEntity
  8
0
100
AcDbLine
 62
4
  6
CONTINUOUS
 10
11.30727037
 20
8.8806947986
 11
11.3403878123
 21
8.8783980962
  0
LINE
  5
338
100
AcDbEntity
  8
0
100
AcDbLine
 62
4
  6
CONTINUOUS
 10
10.2806291689
 20
8.9850100638
 11
10.3137466268
 21
8.9827133603
  0
LINE
  5
339
100
AcDbEntity
  8
0
100
AcDbLine
 62
4
  6
CONTINUOUS
 10
11.1803201007
 20
8.9226162858
 11
11.1830798783
 21
8.9224248946
  0
LINE
  5
33A
100
AcDbEntity
  8
0
100
AcDbLine
 62
4
  6
CONTINUOUS
 10
12.2552576584
 20
8.8509668569
 11
12.3132132101
 21
8.8469476258
  0
LINE
  5
33B
100
AcDbEntity
  8
0
100
AcDbLine
 62
4
  6
CONTINUOUS
 10
11.3403878123
 20
8.8342414845
 11
11.30727037
 21
8.842057763
  0
LINE
  5
33C
100
AcDbEntity
  8
0
100
AcDbLine
 62
4
  6
CONTINUOUS
 10
10.956777282
 20
8.8222079295
 11
10.9402185609
 21
8.8316356456
  0
LINE
  5
33D
100
AcDbEntity
  8
0
100
AcDbLine
 62
4
  6
CONTINUOUS
 10
9.3328489032
 20
10.0263239884
 11
9.3473377911
 21
10.0156599243
  0
LINE
  5
33E
100
AcDbEntity
  8
0
100
AcDbLine
 62
4
  6
CONTINUOUS
 10
9.3328489032
 20
10.0746202838
 11
9.3473377911
 21
10.0639562197
  0
LINE
  5
33F
100
AcDbEntity
  8
0
100
AcDbLine
 62
4
  6
CONTINUOUS
 10
11.0230121667
 20
8.8258938896
 11
11.0312915549
 21
8.8170403471
  0
LINE
  5
340
100
AcDbEntity
  8
0
100
AcDbLine
 62
4
  6
CONTINUOUS
 10
11.114085216
 20
8.8112985872
 11
11.1058058278
 21
8.8201521297
  0
LINE
  5
341
100
AcDbEntity
  8
0
100
AcDbLine
 62
4
  6
CONTINUOUS
 10
11.2327560418
 20
8.8030687375
 11
11.2244767089
 21
8.8119222761
  0
LINE
  5
342
100
AcDbEntity
  8
0
100
AcDbLine
 62
4
  6
CONTINUOUS
 10
11.298991037
 20
8.8067546899
 11
11.30727037
 21
8.7979011513
  0
LINE
  5
343
100
AcDbEntity
  8
0
100
AcDbLine
 62
7
  6
CONTINUOUS
 10
12.9448547875
 20
8.9173098047
 11
12.9139451585
 21
8.9194533948
  0
LINE
  5
344
100
AcDbEntity
  8
0
100
AcDbLine
 62
4
  6
CONTINUOUS
 10
12.2769909903
 20
8.9653707487
 11
12.2914798782
 21
8.9643659409
  0
LINE
  5
345
100
AcDbEntity
  8
0
100
AcDbLine
 62
4
  6
CONTINUOUS
 10
11.30727037
 20
8.842057763
 11
11.298991037
 21
8.8481515127
  0
LINE
  5
346
100
AcDbEntity
  8
0
100
AcDbLine
 62
4
  6
CONTINUOUS
 10
11.3486671453
 20
8.8281477348
 11
11.3403878123
 21
8.8342414845
  0
LINE
  5
347
100
AcDbEntity
  8
0
100
AcDbLine
 62
4
  6
CONTINUOUS
 10
11.3403878123
 20
8.8783980962
 11
11.3486671453
 21
8.869544555
  0
LINE
  5
348
100
AcDbEntity
  8
0
100
AcDbLine
 62
4
  6
CONTINUOUS
 10
12.2552576584
 20
8.9475594408
 11
12.2625021023
 21
8.9567163002
  0
LINE
  5
349
100
AcDbEntity
  8
0
100
AcDbLine
 62
4
  6
CONTINUOUS
 10
12.2769909903
 20
8.8977559372
 11
12.2625021023
 21
8.8794422289
  0
LINE
  5
34A
100
AcDbEntity
  8
0
100
AcDbLine
 62
4
  6
CONTINUOUS
 10
12.3132132101
 20
8.924221697
 11
12.3059687661
 21
8.9150648377
  0
LINE
  5
34B
100
AcDbEntity
  8
0
100
AcDbLine
 62
7
  6
CONTINUOUS
 10
12.5566265403
 20
9.117823616
 11
12.5257169112
 21
9.1199672061
  0
LINE
  5
34C
100
AcDbEntity
  8
0
100
AcDbLine
 62
7
  6
CONTINUOUS
 10
11.9217866955
 20
6.4550203508
 11
11.9217866955
 21
6.0706169095
  0
LINE
  5
34D
100
AcDbEntity
  8
0
100
AcDbLine
 62
7
  6
CONTINUOUS
 10
11.9757074978
 20
6.4587597778
 11
11.9757074978
 21
6.0743563364
  0
LINE
  5
34E
100
AcDbEntity
  8
0
100
AcDbLine
 62
4
  6
CONTINUOUS
 10
12.2625021023
 20
8.8794422289
 11
12.2552576584
 21
8.8509668569
  0
LINE
  5
34F
100
AcDbEntity
  8
0
100
AcDbLine
 62
7
  6
CONTINUOUS
 10
12.9448547875
 20
9.4928233288
 11
12.9139451585
 21
9.4949669188
  0
LINE
  5
350
100
AcDbEntity
  8
0
100
AcDbLine
 62
4
  6
CONTINUOUS
 10
12.2914798782
 20
8.9643659409
 11
12.3059687661
 21
8.9537018768
  0
LINE
  5
351
100
AcDbEntity
  8
0
100
AcDbLine
 62
4
  6
CONTINUOUS
 10
12.3132132101
 20
8.9435402097
 11
12.3132132101
 21
8.924221697
  0
LINE
  5
352
100
AcDbEntity
  8
0
100
AcDbLine
 62
7
  6
CONTINUOUS
 10
12.3893940328
 20
6.4867371987
 11
12.3893940328
 21
6.1814262494
  0
LINE
  5
353
100
AcDbEntity
  8
0
100
AcDbLine
 62
7
  6
CONTINUOUS
 10
12.4038420572
 20
6.4857352249
 11
12.4038420572
 21
6.1953819701
  0
LINE
  5
354
100
AcDbEntity
  8
0
100
AcDbLine
 62
4
  6
CONTINUOUS
 10
9.3328489032
 20
9.9587091803
 11
9.3183600153
 21
9.9597139881
  0
LINE
  5
355
100
AcDbEntity
  8
0
100
AcDbLine
 62
4
  6
CONTINUOUS
 10
9.3183600153
 20
10.0273287962
 11
9.3328489032
 21
10.0263239884
  0
LINE
  5
356
100
AcDbEntity
  8
0
100
AcDbLine
 62
4
  6
CONTINUOUS
 10
9.3183600153
 20
10.0756250916
 11
9.3328489032
 21
10.0746202838
  0
LINE
  5
357
100
AcDbEntity
  8
0
100
AcDbLine
 62
4
  6
CONTINUOUS
 10
12.3059687661
 20
8.9537018768
 11
12.3132132101
 21
8.9435402097
  0
LINE
  5
358
100
AcDbEntity
  8
0
100
AcDbLine
 62
7
  6
CONTINUOUS
 10
12.5257169112
 20
9.1199672061
 11
12.5257169112
 21
8.544453682
  0
LINE
  5
359
100
AcDbEntity
  8
0
100
AcDbLine
 62
7
  6
CONTINUOUS
 10
12.5566265403
 20
6.475139585
 11
12.5566265403
 21
8.542310092
  0
LINE
  5
35A
100
AcDbEntity
  8
0
100
AcDbLine
 62
7
  6
CONTINUOUS
 10
12.5566265403
 20
9.117823616
 11
12.5566265403
 21
10.3388431191
  0
LINE
  5
35B
100
AcDbEntity
  8
0
100
AcDbLine
 62
7
  6
CONTINUOUS
 10
12.9139451585
 20
9.4949669188
 11
12.9139451585
 21
8.9194533948
  0
LINE
  5
35C
100
AcDbEntity
  8
0
100
AcDbLine
 62
7
  6
CONTINUOUS
 10
12.9448547875
 20
6.8501392977
 11
12.9448547875
 21
8.9173098047
  0
LINE
  5
35D
100
AcDbEntity
  8
0
100
AcDbLine
 62
7
  6
CONTINUOUS
 10
12.9448547875
 20
9.4928233288
 11
12.9448547875
 21
10.7138428318
  0
LINE
  5
35E
100
AcDbEntity
  8
0
100
AcDbLine
 62
7
  6
CONTINUOUS
 10
9.0551452125
 20
10.5816716739
 11
12.5566265403
 21
10.3388431191
  0
LINE
  5
35F
100
AcDbEntity
  8
0
100
AcDbLine
 62
7
  6
CONTINUOUS
 10
9.2146371703
 20
10.7357290842
 11
9.2455467993
 21
10.7335854941
  0
LINE
  5
360
100
AcDbEntity
  8
0
100
AcDbLine
 62
7
  6
CONTINUOUS
 10
9.2838815019
 20
10.8026139764
 11
9.3147911309
 21
10.8004703863
  0
LINE
  5
361
100
AcDbEntity
  8
0
100
AcDbLine
 62
7
  6
CONTINUOUS
 10
12.9448547875
 20
10.7138428318
 11
9.4433734597
 21
10.9566713866
  0
LINE
  5
362
100
AcDbEntity
  8
0
100
AcDbLine
 62
7
  6
CONTINUOUS
 10
12.5566265403
 20
6.475139585
 11
12.9448547875
 21
6.8501392977
  0
LINE
  5
363
100
AcDbEntity
  8
0
100
AcDbLine
 62
7
  6
CONTINUOUS
 10
12.3070979012
 20
6.1352630932
 11
12.2764238907
 21
6.1201107194
  0
ARC
  5
364
100
AcDbEntity
  8
0
100
AcDbCircle
 62
7
  6
CONTINUOUS
 10
11.7958543029
 20
8.2771297941
 40
2.210103635
100
AcDbArc
 50
273.2665005552
 51
274.6677615151
  0
ARC
  5
365
100
AcDbEntity
  8
0
100
AcDbCircle
 62
7
  6
CONTINUOUS
 10
11.7958543029
 20
8.6615332355
 40
2.210103635
100
AcDbArc
 50
273.2665005552
 51
274.6677615151
  0
ARC
  5
366
100
AcDbEntity
  8
0
100
AcDbCircle
 62
7
  6
CONTINUOUS
 10
11.5758797294
 20
7.4224973516
 40
0.9538158545
100
AcDbArc
 50
254.2644742826
 51
256.7139235525
  0
ARC
  5
367
100
AcDbEntity
  8
0
100
AcDbCircle
 62
7
  6
CONTINUOUS
 10
11.5758797294
 20
7.0380939102
 40
0.9538158545
100
AcDbArc
 50
254.2644742826
 51
256.7139235525
  0
ARC
  5
368
100
AcDbEntity
  8
0
100
AcDbCircle
 62
7
  6
CONTINUOUS
 10
11.9682168996
 20
6.8201582944
 40
0.7641475746
100
AcDbArc
 50
293.7608747297
 51
296.3085175792
  0
SPLINE
  5
369
100
AcDbEntity
  8
0
100
AcDbSpline
 62
7
  6
CONTINUOUS
 70
0
 71
3
 72
9
 73
5
 74
0
 42
0.0000001
 43
0.0000001
 44
0.0000000001
 40
0.0
 40
0.0
 40
0.0
 40
0.0
 40
0.2426770998
 40
1.0
 40
1.0
 40
1.0
 40
1.0
 10
12.3972117905
 20
6.1883629334
 30
0.0
 10
12.3966036
 20
6.1877754665
 30
0.0
 10
12.3940705486
 20
6.1853825853
 30
0.0
 10
12.3914348349
 20
6.1830991158
 30
0.0
 10
12.3893940328
 20
6.1814262494
 30
0.0
  0
SPLINE
  5
36A
100
AcDbEntity
  8
0
100
AcDbSpline
 62
7
  6
CONTINUOUS
 70
0
 71
3
 72
9
 73
5
 74
0
 42
0.0000001
 43
0.0000001
 44
0.0000000001
 40
0.0
 40
0.0
 40
0.0
 40
0.0
 40
0.2426666479
 40
1.0
 40
1.0
 40
1.0
 40
1.0
 10
12.4038420572
 20
6.1953819701
 30
0.0
 10
12.4033344294
 20
6.1947881972
 30
0.0
 10
12.4012107336
 20
6.1923686127
 30
0.0
 10
12.3989653251
 20
6.1900567179
 30
0.0
 10
12.3972117905
 20
6.1883629334
 30
0.0
  0
SPLINE
  5
36B
100
AcDbEntity
  8
0
100
AcDbSpline
 62
7
  6
CONTINUOUS
 70
0
 71
3
 72
9
 73
5
 74
0
 42
0.0000001
 43
0.0000001
 44
0.0000000001
 40
0.0
 40
0.0
 40
0.0
 40
0.0
 40
0.504378312
 40
1.0
 40
1.0
 40
1.0
 40
1.0
 10
12.3893940328
 20
6.1814262494
 30
0.0
 10
12.3758902826
 20
6.1730173957
 30
0.0
 10
12.3487774452
 20
6.1568827397
 30
0.0
 10
12.3209046487
 20
6.1420855449
 30
0.0
 10
12.3068905107
 20
6.1351607025
 30
0.0
  0
SPLINE
  5
36C
100
AcDbEntity
  8
0
100
AcDbSpline
 62
7
  6
CONTINUOUS
 70
0
 71
3
 72
23
 73
19
 74
0
 42
0.0000001
 43
0.0000001
 44
0.0000000001
 40
0.0
 40
0.0
 40
0.0
 40
0.0
 40
0.0436203086
 40
0.0892268542
 40
0.137068591
 40
0.187353676
 40
0.2402538462
 40
0.2958872461
 40
0.3543311569
 40
0.4156094827
 40
0.4797102731
 40
0.5465788188
 40
0.6161346312
 40
0.6882694307
 40
0.7628606873
 40
0.8397744221
 40
0.9188692703
 40
1.0
 40
1.0
 40
1.0
 40
1.0
 10
11.2741960138
 20
6.1295011619
 30
0.0
 10
11.2718860781
 20
6.1306417304
 30
0.0
 10
11.2672489544
 20
6.1331568269
 30
0.0
 10
11.260421665
 20
6.1375178789
 30
0.0
 10
11.2535852761
 20
6.1425601655
 30
0.0
 10
11.2467437264
 20
6.1482910978
 30
0.0
 10
11.2399026282
 20
6.1547147486
 30
0.0
 10
11.2330650877
 20
6.161826321
 30
0.0
 10
11.2262368285
 20
6.169617133
 30
0.0
 10
11.2194205844
 20
6.1780705355
 30
0.0
 10
11.2126214159
 20
6.1871664414
 30
0.0
 10
11.2058415657
 20
6.1968788233
 30
0.0
 10
11.1990848988
 20
6.2071793714
 30
0.0
 10
11.1923530118
 20
6.2180363255
 30
0.0
 10
11.1856482948
 20
6.229417179
 30
0.0
 10
11.1789716456
 20
6.2412882614
 30
0.0
 10
11.1723241531
 20
6.2536161005
 30
0.0
 10
11.1679650351
 20
6.2620155176
 30
0.0
 10
11.1657875035
 20
6.2662836504
 30
0.0
  0
SPLINE
  5
36D
100
AcDbEntity
  8
0
100
AcDbSpline
 62
7
  6
CONTINUOUS
 70
0
 71
3
 72
47
 73
43
 74
0
 42
0.0000001
 43
0.0000001
 44
0.0000000001
 40
0.0
 40
0.0
 40
0.0
 40
0.0
 40
0.0099874638
 40
0.0204476834
 40
0.0313771515
 40
0.0427708334
 40
0.0546218702
 40
0.0669225517
 40
0.0796641282
 40
0.0928362942
 40
0.1204271347
 40
0.1495984091
 40
0.1802407165
 40
0.2122338314
 40
0.2454489836
 40
0.2797497839
 40
0.3149929168
 40
0.3510298084
 40
0.3877071885
 40
0.4248680172
 40
0.4623527228
 40
0.4999997959
 40
0.5376468789
 40
0.575131606
 40
0.6122924455
 40
0.6489698269
 40
0.6850067267
 40
0.7202498875
 40
0.7545507276
 40
0.7877659112
 40
0.8197590481
 40
0.8504013805
 40
0.8795726993
 40
0.9071635849
 40
0.9203357726
 40
0.933077377
 40
0.9453780958
 40
0.9572291635
 40
0.968622847
 40
0.9795522717
 40
0.9900124597
 40
1.0
 40
1.0
 40
1.0
 40
1.0
 10
12.2764277761
 20
6.120112674
 30
0.0
 10
12.2734372418
 20
6.1186353963
 30
0.0
 10
12.2672635354
 20
6.1157134805
 30
0.0
 10
12.257661337
 20
6.1115140368
 30
0.0
 10
12.2475131589
 20
6.107401202
 30
0.0
 10
12.2368307109
 20
6.1033799922
 30
0.0
 10
12.2256263352
 20
6.099454687
 30
0.0
 10
12.2139128346
 20
6.0956299679
 30
0.0
 10
12.2017035786
 20
6.0919103971
 30
0.0
 10
12.1845157498
 20
6.0870208653
 30
0.0
 10
12.1618854375
 20
6.0812253838
 30
0.0
 10
12.1333941592
 20
6.0748567116
 30
0.0
 10
12.1032941102
 20
6.0690011877
 30
0.0
 10
12.071724104
 20
6.063685846
 30
0.0
 10
12.038829446
 20
6.0589356896
 30
0.0
 10
12.0047617949
 20
6.0547731575
 30
0.0
 10
11.9696783364
 20
6.0512174295
 30
0.0
 10
11.9337410155
 20
6.0482852591
 30
0.0
 10
11.8971157546
 20
6.0459904745
 30
0.0
 10
11.8599717221
 20
6.044343527
 30
0.0
 10
11.8224804982
 20
6.043352291
 30
0.0
 10
11.7848152579
 20
6.0430214344
 30
0.0
 10
11.7471500103
 20
6.0433522743
 30
0.0
 10
11.7096587719
 20
6.0443434943
 30
0.0
 10
11.6725147274
 20
6.045990425
 30
0.0
 10
11.6358894587
 20
6.0482851935
 30
0.0
 10
11.599952124
 20
6.051217347
 30
0.0
 10
11.5648686384
 20
6.0547730604
 30
0.0
 10
11.5308009522
 20
6.0589355779
 30
0.0
 10
11.4979062609
 20
6.0636857209
 30
0.0
 10
11.4663362255
 20
6.0690010468
 30
0.0
 10
11.4362361426
 20
6.0748565564
 30
0.0
 10
11.407744823
 20
6.081225219
 30
0.0
 10
11.385114469
 20
6.0870206871
 30
0.0
 10
11.3679266045
 20
6.0919102094
 30
0.0
 10
11.3557173178
 20
6.0956297787
 30
0.0
 10
11.3440037857
 20
6.099454505
 30
0.0
 10
11.3327993863
 20
6.1033798128
 30
0.0
 10
11.3221169355
 20
6.1074010043
 30
0.0
 10
11.3119687634
 20
6.1115137881
 30
0.0
 10
11.3023665475
 20
6.1157131934
 30
0.0
 10
11.2961928263
 20
6.1186351141
 30
0.0
 10
11.2932022733
 20
6.1201124117
 30
0.0
  0
SPLINE
  5
36E
100
AcDbEntity
  8
0
100
AcDbSpline
 62
7
  6
CONTINUOUS
 70
0
 71
3
 72
15
 73
11
 74
0
 42
0.0000001
 43
0.0000001
 44
0.0000000001
 40
0.0
 40
0.0
 40
0.0
 40
0.0
 40
0.1299708166
 40
0.2593283487
 40
0.3876617857
 40
0.5145654289
 40
0.6396384778
 40
0.7624890516
 40
0.8827334041
 40
1.0
 40
1.0
 40
1.0
 40
1.0
 10
11.7695936258
 20
6.5295845285
 30
0.0
 10
11.7591427977
 20
6.5296610609
 30
0.0
 10
11.7382912601
 20
6.5299712049
 30
0.0
 10
11.7071318432
 20
6.5309081742
 30
0.0
 10
11.6762368199
 20
6.5323134805
 30
0.0
 10
11.6457114732
 20
6.5341818654
 30
0.0
 10
11.6156596761
 20
6.5365073986
 30
0.0
 10
11.5861836752
 20
6.5392816127
 30
0.0
 10
11.5573839181
 20
6.5424954177
 30
0.0
 10
11.5384433216
 20
6.5449567437
 30
0.0
 10
11.5291046195
 20
6.5462624977
 30
0.0
  0
SPLINE
  5
36F
100
AcDbEntity
  8
0
100
AcDbSpline
 62
7
  6
CONTINUOUS
 70
0
 71
3
 72
10
 73
6
 74
0
 42
0.0000001
 43
0.0000001
 44
0.0000000001
 40
0.0
 40
0.0
 40
0.0
 40
0.0
 40
0.4950633206
 40
0.7463873743
 40
1.0
 40
1.0
 40
1.0
 40
1.0
 10
12.0671270389
 20
6.50936208
 30
0.0
 10
12.051567169
 20
6.5019147807
 30
0.0
 10
12.0284765004
 20
6.4899021548
 30
0.0
 10
11.9982496342
 20
6.4725644433
 30
0.0
 10
11.9832090059
 20
6.4634310049
 30
0.0
 10
11.9757074978
 20
6.4587597778
 30
0.0
  0
SPLINE
  5
370
100
AcDbEntity
  8
0
100
AcDbSpline
 62
7
  6
CONTINUOUS
 70
0
 71
3
 72
21
 73
17
 74
0
 42
0.0000001
 43
0.0000001
 44
0.0000000001
 40
0.0
 40
0.0
 40
0.0
 40
0.0
 40
0.1230212981
 40
0.1847065752
 40
0.2465215318
 40
0.3084771567
 40
0.3705832678
 40
0.432847904
 40
0.4952752623
 40
0.5578663069
 40
0.6206183946
 40
0.6835249868
 40
0.7465773451
 40
0.8097643485
 40
0.8730733734
 40
1.0
 40
1.0
 40
1.0
 40
1.0
 10
11.9217866955
 20
6.0706169095
 30
0.0
 10
11.8987075145
 20
6.0660695533
 30
0.0
 10
11.863875073
 20
6.060097147
 30
0.0
 10
11.817103858
 20
6.0541869996
 30
0.0
 10
11.7817925494
 20
6.0508597856
 30
0.0
 10
11.7463081066
 20
6.048725378
 30
0.0
 10
11.7106833855
 20
6.0478546417
 30
0.0
 10
11.674960174
 20
6.0483035369
 30
0.0
 10
11.6391865523
 20
6.0501055356
 30
0.0
 10
11.6034140261
 20
6.0532688215
 30
0.0
 10
11.5676940862
 20
6.0577777721
 30
0.0
 10
11.5320744728
 20
6.0635920139
 30
0.0
 10
11.4965963333
 20
6.070649728
 30
0.0
 10
11.4612921426
 20
6.0788754177
 30
0.0
 10
11.4144482164
 20
6.0912949697
 30
0.0
 10
11.3796878067
 20
6.1020827641
 30
0.0
 10
11.3566802209
 20
6.1098071766
 30
0.0
  0
SPLINE
  5
371
100
AcDbEntity
  8
0
100
AcDbSpline
 62
7
  6
CONTINUOUS
 70
0
 71
3
 72
21
 73
17
 74
0
 42
0.0000001
 43
0.0000001
 44
0.0000000001
 40
0.0
 40
0.0
 40
0.0
 40
0.0
 40
0.1269266266
 40
0.1902356515
 40
0.253422655
 40
0.3164750132
 40
0.3793816055
 40
0.4421336932
 40
0.5047247377
 40
0.567152096
 40
0.6294167323
 40
0.6915228434
 40
0.7534784683
 40
0.8152934248
 40
0.8769787019
 40
1.0
 40
1.0
 40
1.0
 40
1.0
 10
11.9217866955
 20
6.4550203508
 30
0.0
 10
11.8987791097
 20
6.4627447634
 30
0.0
 10
11.8640187
 20
6.4735325577
 30
0.0
 10
11.8171747739
 20
6.4859521098
 30
0.0
 10
11.7818705831
 20
6.4941777995
 30
0.0
 10
11.7463924436
 20
6.5012355135
 30
0.0
 10
11.7107728302
 20
6.5070497553
 30
0.0
 10
11.6750528903
 20
6.5115587059
 30
0.0
 10
11.6392803641
 20
6.5147219918
 30
0.0
 10
11.6035067424
 20
6.5165239906
 30
0.0
 10
11.5677835309
 20
6.5169728858
 30
0.0
 10
11.5321588098
 20
6.5161021494
 30
0.0
 10
11.496674367
 20
6.5139677418
 30
0.0
 10
11.4613630584
 20
6.5106405278
 30
0.0
 10
11.4145918435
 20
6.5047303804
 30
0.0
 10
11.3797594019
 20
6.4987579741
 30
0.0
 10
11.3566802209
 20
6.4942106179
 30
0.0
  0
SPLINE
  5
372
100
AcDbEntity
  8
0
100
AcDbSpline
 62
7
  6
CONTINUOUS
 70
0
 71
3
 72
11
 73
7
 74
0
 42
0.0000001
 43
0.0000001
 44
0.0000000001
 40
0.0
 40
0.0
 40
0.0
 40
0.0
 40
0.2465919593
 40
0.494712682
 40
0.7454424776
 40
1.0
 40
1.0
 40
1.0
 40
1.0
 10
11.317207443
 20
6.1200234704
 30
0.0
 10
11.3152650301
 20
6.1199686357
 30
0.0
 10
11.3113637204
 20
6.1199759822
 30
0.0
 10
11.3054980292
 20
6.120359504
 30
0.0
 10
11.2996079572
 20
6.1211377864
 30
0.0
 10
11.2957015001
 20
6.1219273342
 30
0.0
 10
11.293750055
 20
6.1223917956
 30
0.0
  0
SPLINE
  5
373
100
AcDbEntity
  8
0
100
AcDbSpline
 62
7
  6
CONTINUOUS
 70
0
 71
3
 72
10
 73
6
 74
0
 42
0.0000001
 43
0.0000001
 44
0.0000000001
 40
0.0
 40
0.0
 40
0.0
 40
0.0
 40
0.2418255986
 40
0.4885199497
 40
1.0
 40
1.0
 40
1.0
 40
1.0
 10
11.293750055
 20
6.1223917956
 30
0.0
 10
11.2921155375
 20
6.1227808253
 30
0.0
 10
11.2888352272
 20
6.1236616859
 30
0.0
 10
11.2822363268
 20
6.1258439912
 30
0.0
 10
11.2773824484
 20
6.1279278075
 30
0.0
 10
11.2741960138
 20
6.1295011619
 30
0.0
  0
SPLINE
  5
374
100
AcDbEntity
  8
0
100
AcDbSpline
 62
7
  6
CONTINUOUS
 70
0
 71
3
 72
11
 73
7
 74
0
 42
0.0000001
 43
0.0000001
 44
0.0000000001
 40
0.0
 40
0.0
 40
0.0
 40
0.0
 40
0.2633952514
 40
0.5183435581
 40
0.764111363
 40
1.0
 40
1.0
 40
1.0
 40
1.0
 10
11.317207443
 20
6.5044269117
 30
0.0
 10
11.3144909565
 20
6.5097514385
 30
0.0
 10
11.3090541588
 20
6.5201837483
 30
0.0
 10
11.3007279916
 20
6.5353962342
 30
0.0
 10
11.2923575312
 20
6.5498678773
 30
0.0
 10
11.2866260542
 20
6.5591776171
 30
0.0
 10
11.2837455337
 20
6.5636897717
 30
0.0
  0
LINE
  5
375
100
AcDbEntity
  8
0
100
AcDbLine
 62
7
  6
CONTINUOUS
 10
12.2761075525
 20
6.1207836726
 11
12.2753784385
 21
6.120463785
  0
SPLINE
  5
376
100
AcDbEntity
  8
0
100
AcDbSpline
 62
7
  6
CONTINUOUS
 70
0
 71
3
 72
15
 73
11
 74
0
 42
0.0000001
 43
0.0000001
 44
0.0000000001
 40
0.0
 40
0.0
 40
0.0
 40
0.0
 40
0.1321602046
 40
0.2618009952
 40
0.3890353631
 40
0.5141096583
 40
0.6373677171
 40
0.75919507
 40
0.8799649792
 40
1.0
 40
1.0
 40
1.0
 40
1.0
 10
12.2753784385
 20
6.120463785
 30
0.0
 10
12.2629973351
 20
6.1150400428
 30
0.0
 10
12.2381565712
 20
6.1049930537
 30
0.0
 10
12.2003625081
 20
6.0924596163
 30
0.0
 10
12.1624917387
 20
6.0827423268
 30
0.0
 10
12.124665363
 20
6.0758738226
 30
0.0
 10
12.0869979771
 20
6.0717739941
 30
0.0
 10
12.0495823951
 20
6.0702673062
 30
0.0
 10
12.0124815585
 20
6.0711141539
 30
0.0
 10
11.9879171391
 20
6.0730735039
 30
0.0
 10
11.9757074978
 20
6.0743563364
 30
0.0
  0
SPLINE
  5
377
100
AcDbEntity
  8
0
100
AcDbSpline
 62
7
  6
CONTINUOUS
 70
0
 71
3
 72
91
 73
87
 74
0
 42
0.0000001
 43
0.0000001
 44
0.0000000001
 40
0.0
 40
0.0
 40
0.0
 40
0.0
 40
0.0039801824
 40
0.0081241125
 40
0.0124359604
 40
0.0169193082
 40
0.0215771808
 40
0.0264119179
 40
0.0314251804
 40
0.036618156
 40
0.0419915391
 40
0.0475456573
 40
0.0532804234
 40
0.0591954189
 40
0.0652899227
 40
0.0715629017
 40
0.0780131034
 40
0.0846389837
 40
0.0984102885
 40
0.1128608532
 40
0.1279713725
 40
0.1437199568
 40
0.1600824082
 40
0.1770324532
 40
0.1945419392
 40
0.2125810061
 40
0.2311182422
 40
0.2501208275
 40
0.2695546626
 40
0.2893844909
 40
0.3095740146
 40
0.330086005
 40
0.35088241
 40
0.3719244606
 40
0.3931727759
 40
0.4145874652
 40
0.4361282289
 40
0.4577544586
 40
0.4794253371
 40
0.501099938
 40
0.5227373261
 40
0.5442966575
 40
0.5657372785
 40
0.5870188258
 40
0.6081013261
 40
0.6289452975
 40
0.6495118524
 40
0.6697628021
 40
0.6896607608
 40
0.7091692527
 40
0.7282528228
 40
0.7468771515
 40
0.7650091753
 40
0.7826172172
 40
0.7996711268
 40
0.8161424293
 40
0.8320044948
 40
0.8472327309
 40
0.8618048077
 40
0.8757009255
 40
0.8889041429
 40
0.8952417292
 40
0.9014012652
 40
0.9073816417
 40
0.9131820083
 40
0.9188018518
 40
0.9242409423
 40
0.9294994633
 40
0.9345779585
 40
0.9394774438
 40
0.944199427
 40
0.9487459568
 40
0.95311974
 40
0.9573241405
 40
0.9613633601
 40
0.9652424499
 40
0.9689674846
 40
0.9725456466
 40
0.9759853437
 40
0.9824865016
 40
0.9855753543
 40
0.9885738189
 40
0.9914977372
 40
0.9943643366
 40
0.9971920099
 40
1.0
 40
1.0
 40
1.0
 40
1.0
 10
11.3327614669
 20
10.6246801667
 30
0.0
 10
11.331460235
 20
10.6234232732
 30
0.0
 10
11.3287451456
 20
10.6209183757
 30
0.0
 10
11.3244344186
 20
10.6172597843
 30
0.0
 10
11.3198071389
 20
10.6136274365
 30
0.0
 10
11.314865845
 20
10.6100232608
 30
0.0
 10
11.3096129459
 20
10.6064489405
 30
0.0
 10
11.3040510155
 20
10.6029062145
 30
0.0
 10
11.2981828355
 20
10.5993967815
 30
0.0
 10
11.2920113174
 20
10.5959224626
 30
0.0
 10
11.2855395778
 20
10.5924849255
 30
0.0
 10
11.2787708338
 20
10.5890859387
 30
0.0
 10
11.2717084888
 20
10.5857271739
 30
0.0
 10
11.2643560854
 20
10.5824103285
 30
0.0
 10
11.2567173144
 20
10.5791370929
 30
0.0
 10
11.2487960313
 20
10.5759090842
 30
0.0
 10
11.2405962023
 20
10.5727279621
 30
0.0
 10
11.22914969
 20
10.5684966221
 30
0.0
 10
11.2141679895
 20
10.5633469993
 30
0.0
 10
11.1953711488
 20
10.5574561414
 30
0.0
 10
11.1755691923
 20
10.5517891585
 30
0.0
 10
11.1548020923
 20
10.546357578
 30
0.0
 10
11.1331116198
 20
10.5411724639
 30
0.0
 10
11.1105415167
 20
10.5362443788
 30
0.0
 10
11.087137323
 20
10.531583364
 30
0.0
 10
11.0629463005
 20
10.5271989121
 30
0.0
 10
11.0380173241
 20
10.5230999511
 30
0.0
 10
11.0124007783
 20
10.519294826
 30
0.0
 10
10.9861484514
 20
10.5157912825
 30
0.0
 10
10.9593134282
 20
10.5125964509
 30
0.0
 10
10.9319499812
 20
10.5097168325
 30
0.0
 10
10.9041134599
 20
10.5071582872
 30
0.0
 10
10.8758601784
 20
10.5049260182
 30
0.0
 10
10.8472472988
 20
10.5030245639
 30
0.0
 10
10.8183327144
 20
10.5014577901
 30
0.0
 10
10.789174931
 20
10.500228882
 30
0.0
 10
10.7598329482
 20
10.4993403384
 30
0.0
 10
10.7303661405
 20
10.4987939664
 30
0.0
 10
10.7008341362
 20
10.4985908782
 30
0.0
 10
10.6712966968
 20
10.4987314864
 30
0.0
 10
10.6418135943
 20
10.4992155038
 30
0.0
 10
10.61244449
 20
10.5000419456
 30
0.0
 10
10.583248813
 20
10.5012091317
 30
0.0
 10
10.5542856406
 20
10.5027146893
 30
0.0
 10
10.5256135781
 20
10.5045555582
 30
0.0
 10
10.4972906393
 20
10.5067279966
 30
0.0
 10
10.4693741277
 20
10.5092275871
 30
0.0
 10
10.4419205187
 20
10.5120492438
 30
0.0
 10
10.4149853449
 20
10.5151872263
 30
0.0
 10
10.3886230835
 20
10.5186351496
 30
0.0
 10
10.3628870443
 20
10.5223859972
 30
0.0
 10
10.3378292608
 20
10.5264321348
 30
0.0
 10
10.3135003816
 20
10.5307653261
 30
0.0
 10
10.2899495632
 20
10.5353767473
 30
0.0
 10
10.2672243643
 20
10.5402570042
 30
0.0
 10
10.2453706486
 20
10.5453961543
 30
0.0
 10
10.2244324783
 20
10.5507837286
 30
0.0
 10
10.2044520426
 20
10.5564087539
 30
0.0
 10
10.1854694722
 20
10.5622597813
 30
0.0
 10
10.1675230508
 20
10.5683249129
 30
0.0
 10
10.1532729097
 20
10.5736170477
 30
0.0
 10
10.142427083
 20
10.5779578996
 30
0.0
 10
10.1346851197
 20
10.581214902
 30
0.0
 10
10.1272281432
 20
10.5845160673
 30
0.0
 10
10.1200599037
 20
10.5878597948
 30
0.0
 10
10.1131839874
 20
10.5912443405
 30
0.0
 10
10.1066038633
 20
10.5946680684
 30
0.0
 10
10.1003228069
 20
10.5981292046
 30
0.0
 10
10.0943439745
 20
10.6016260645
 30
0.0
 10
10.0886703448
 20
10.6051568918
 30
0.0
 10
10.0833047388
 20
10.6087199314
 30
0.0
 10
10.0782498481
 20
10.6123134733
 30
0.0
 10
10.0735081517
 20
10.6159357079
 30
0.0
 10
10.0690820498
 20
10.6195849647
 30
0.0
 10
10.0649737102
 20
10.6232594291
 30
0.0
 10
10.0611852045
 20
10.6269574641
 30
0.0
 10
10.0577185198
 20
10.6306772074
 30
0.0
 10
10.0545751524
 20
10.6344174057
 30
0.0
 10
10.0508876857
 20
10.6393353352
 30
0.0
 10
10.0477564261
 20
10.6443858233
 30
0.0
 10
10.0452703421
 20
10.649544152
 30
0.0
 10
10.0437682613
 20
10.6533591211
 30
0.0
 10
10.0425985362
 20
10.6571833726
 30
0.0
 10
10.041762126
 20
10.661015049
 30
0.0
 10
10.0412599549
 20
10.6648514186
 30
0.0
 10
10.0411481612
 20
10.667414414
 30
0.0
 10
10.0411481614
 20
10.6686907489
 30
0.0
  0
SPLINE
  5
378
100
AcDbEntity
  8
0
100
AcDbSpline
 62
7
  6
CONTINUOUS
 70
0
 71
3
 72
21
 73
17
 74
0
 42
0.0000001
 43
0.0000001
 44
0.0000000001
 40
0.0
 40
0.0
 40
0.0
 40
0.0
 40
0.1273175725
 40
0.2538000026
 40
0.3167619332
 40
0.3795354925
 40
0.4421314982
 40
0.5045621433
 40
0.5668413429
 40
0.6289845306
 40
0.6910084612
 40
0.7529311022
 40
0.8147714553
 40
0.8765493457
 40
0.9382852283
 40
1.0
 40
1.0
 40
1.0
 40
1.0
 10
11.5530295473
 20
10.0462206006
 30
0.0
 10
11.5530295473
 20
10.0397222743
 30
0.0
 10
11.5524092399
 20
10.0267598838
 30
0.0
 10
11.5500665607
 20
10.010735567
 30
0.0
 10
11.5472665211
 20
9.9981658876
 30
0.0
 10
11.5447130337
 20
9.988894491
 30
0.0
 10
11.5417090478
 20
9.9797878217
 30
0.0
 10
11.5382614124
 20
9.9708666426
 30
0.0
 10
11.534378108
 20
9.9621515801
 30
0.0
 10
11.5300680656
 20
9.9536627163
 30
0.0
 10
11.5253411718
 20
9.9454196605
 30
0.0
 10
11.520208343
 20
9.9374414072
 30
0.0
 10
11.5146814352
 20
9.9297463695
 30
0.0
 10
11.5087730949
 20
9.9223522597
 30
0.0
 10
11.5024971779
 20
9.9152763731
 30
0.0
 10
11.4980770277
 20
9.9107812868
 30
0.0
 10
11.4958114247
 20
9.9085928706
 30
0.0
  0
SPLINE
  5
379
100
AcDbEntity
  8
0
100
AcDbSpline
 62
7
  6
CONTINUOUS
 70
0
 71
3
 72
21
 73
17
 74
0
 42
0.0000001
 43
0.0000001
 44
0.0000000001
 40
0.0
 40
0.0
 40
0.0
 40
0.0
 40
0.1273175725
 40
0.2538000026
 40
0.3167619332
 40
0.3795354925
 40
0.4421314982
 40
0.5045621433
 40
0.5668413429
 40
0.6289845306
 40
0.6910084612
 40
0.7529311022
 40
0.8147714553
 40
0.8765493457
 40
0.9382852283
 40
1.0
 40
1.0
 40
1.0
 40
1.0
 10
10.4663629283
 20
6.9823220651
 30
0.0
 10
10.4663629283
 20
6.9758237388
 30
0.0
 10
10.4657426209
 20
6.9628613483
 30
0.0
 10
10.4633999418
 20
6.9468370315
 30
0.0
 10
10.4605999021
 20
6.9342673522
 30
0.0
 10
10.4580464147
 20
6.9249959556
 30
0.0
 10
10.4550424288
 20
6.9158892863
 30
0.0
 10
10.4515947935
 20
6.9069681071
 30
0.0
 10
10.447711489
 20
6.8982530446
 30
0.0
 10
10.4434014467
 20
6.8897641809
 30
0.0
 10
10.4386745529
 20
6.881521125
 30
0.0
 10
10.4335417241
 20
6.8735428718
 30
0.0
 10
10.4280148163
 20
6.865847834
 30
0.0
 10
10.422106476
 20
6.8584537242
 30
0.0
 10
10.4158305589
 20
6.8513778376
 30
0.0
 10
10.4114104087
 20
6.8468827514
 30
0.0
 10
10.4091448058
 20
6.8446943351
 30
0.0
  0
SPLINE
  5
37A
100
AcDbEntity
  8
0
100
AcDbSpline
 62
7
  6
CONTINUOUS
 70
0
 71
3
 72
38
 73
34
 74
0
 42
0.0000001
 43
0.0000001
 44
0.0000000001
 40
0.0
 40
0.0
 40
0.0
 40
0.0
 40
0.0318263563
 40
0.0634363662
 40
0.0948360603
 40
0.1260400775
 40
0.157071836
 40
0.187961932
 40
0.218746706
 40
0.2494664915
 40
0.2801640131
 40
0.3108829635
 40
0.3416668588
 40
0.3725579492
 40
0.403596302
 40
0.4348188996
 40
0.4662585357
 40
0.4979423438
 40
0.5620909321
 40
0.5945779391
 40
0.6273078884
 40
0.6602322741
 40
0.6932732486
 40
0.7263203078
 40
0.7592311633
 40
0.7918389717
 40
0.823966686
 40
0.855446893
 40
0.8861420003
 40
0.915959812
 40
0.9448606247
 40
0.9728556897
 40
1.0
 40
1.0
 40
1.0
 40
1.0
 10
10.4134569151
 20
7.7668098946
 30
0.0
 10
10.4134569151
 20
7.7625210372
 30
0.0
 10
10.4137760089
 20
7.7539688847
 30
0.0
 10
10.4152176458
 20
7.7412587725
 30
0.0
 10
10.4176036602
 20
7.7287763606
 30
0.0
 10
10.4209068707
 20
7.7165858908
 30
0.0
 10
10.4250916213
 20
7.7047423782
 30
0.0
 10
10.4301160934
 20
7.6932921735
 30
0.0
 10
10.4359345364
 20
7.6822724361
 30
0.0
 10
10.4424994248
 20
7.6717116804
 30
0.0
 10
10.4497632533
 20
7.6616306338
 30
0.0
 10
10.4576799423
 20
7.6520433841
 30
0.0
 10
10.4662058208
 20
7.6429586511
 30
0.0
 10
10.4753001831
 20
7.6343810757
 30
0.0
 10
10.4849255322
 20
7.6263124208
 30
0.0
 10
10.495047271
 20
7.618752789
 30
0.0
 10
10.5056339098
 20
7.6117012819
 30
0.0
 10
10.5203863769
 20
7.6029421997
 30
0.0
 10
10.5359040303
 20
7.5952394852
 30
0.0
 10
10.5520244841
 20
7.5885920271
 30
0.0
 10
10.5644719902
 20
7.5841090313
 30
0.0
 10
10.5771773226
 20
7.5801623413
 30
0.0
 10
10.590085061
 20
7.5767663278
 30
0.0
 10
10.6031270475
 20
7.5739379728
 30
0.0
 10
10.6162232117
 20
7.5716949766
 30
0.0
 10
10.6292836139
 20
7.5700538507
 30
0.0
 10
10.6422134953
 20
7.5690277166
 30
0.0
 10
10.6549201721
 20
7.5686245636
 30
0.0
 10
10.6673203468
 20
7.5688464586
 30
0.0
 10
10.679345743
 20
7.5696899269
 30
0.0
 10
10.6909462141
 20
7.5711474611
 30
0.0
 10
10.7020884728
 20
7.5732091516
 30
0.0
 10
10.7093043824
 20
7.5750059285
 30
0.0
 10
10.7128233258
 20
7.576004614
 30
0.0
  0
SPLINE
  5
37B
100
AcDbEntity
  8
0
100
AcDbSpline
 62
7
  6
CONTINUOUS
 70
0
 71
3
 72
15
 73
11
 74
0
 42
0.0000001
 43
0.0000001
 44
0.0000000001
 40
0.0
 40
0.0
 40
0.0
 40
0.0
 40
0.126443772
 40
0.2526066269
 40
0.3784221035
 40
0.5038221636
 40
0.6287394364
 40
0.7531092432
 40
0.8768786349
 40
1.0
 40
1.0
 40
1.0
 40
1.0
 10
10.4336200918
 20
7.8503468821
 30
0.0
 10
10.4320053677
 20
7.8470696793
 30
0.0
 10
10.4289486806
 20
7.8404375175
 30
0.0
 10
10.4249053875
 20
7.8302731683
 30
0.0
 10
10.4214328746
 20
7.819931149
 30
0.0
 10
10.4185548005
 20
7.8094453192
 30
0.0
 10
10.4162920432
 20
7.7988521828
 30
0.0
 10
10.4146619386
 20
7.7881907459
 30
0.0
 10
10.4136776848
 20
7.7775027389
 30
0.0
 10
10.4134569151
 20
7.7703673068
 30
0.0
 10
10.4134569151
 20
7.7668098946
 30
0.0
  0
SPLINE
  5
37C
100
AcDbEntity
  8
0
100
AcDbSpline
 62
7
  6
CONTINUOUS
 70
0
 71
3
 72
21
 73
17
 74
0
 42
0.0000001
 43
0.0000001
 44
0.0000000001
 40
0.0
 40
0.0
 40
0.0
 40
0.0
 40
0.1273176368
 40
0.2537999758
 40
0.3167619477
 40
0.3795355043
 40
0.4421314993
 40
0.504562144
 40
0.5668413432
 40
0.6289845282
 40
0.6910084527
 40
0.7529310934
 40
0.8147714494
 40
0.8765493364
 40
0.9382852193
 40
1.0
 40
1.0
 40
1.0
 40
1.0
 10
10.7257028986
 20
7.646416372
 30
0.0
 10
10.7257028986
 20
7.6399180007
 30
0.0
 10
10.7250825861
 20
7.6269555277
 30
0.0
 10
10.7227398671
 20
7.6109311106
 30
0.0
 10
10.719939797
 20
7.5983613562
 30
0.0
 10
10.7173862836
 20
7.5890899009
 30
0.0
 10
10.7143822468
 20
7.579983184
 30
0.0
 10
10.71093457
 20
7.571061956
 30
0.0
 10
10.7070512276
 20
7.5623468432
 30
0.0
 10
10.7027411206
 20
7.5538579439
 30
0.0
 10
10.6980141633
 20
7.5456148549
 30
0.0
 10
10.6928812846
 20
7.5376365616
 30
0.0
 10
10.6873543071
 20
7.5299414982
 30
0.0
 10
10.6814458797
 20
7.5225473807
 30
0.0
 10
10.6751699057
 20
7.5154714627
 30
0.0
 10
10.6707496961
 20
7.5109763775
 30
0.0
 10
10.6684840723
 20
7.508787953
 30
0.0
  0
SPLINE
  5
37D
100
AcDbEntity
  8
0
100
AcDbSpline
 62
7
  6
CONTINUOUS
 70
0
 71
3
 72
40
 73
36
 74
0
 42
0.0000001
 43
0.0000001
 44
0.0000000001
 40
0.0
 40
0.0
 40
0.0
 40
0.0
 40
0.0310751297
 40
0.046674719
 40
0.0623128023
 40
0.0936978569
 40
0.1252268442
 40
0.1568884391
 40
0.1886684324
 40
0.2205502263
 40
0.2525151435
 40
0.2845428352
 40
0.3166116956
 40
0.348699299
 40
0.3807828474
 40
0.4128396233
 40
0.4448474412
 40
0.4767850923
 40
0.5086327748
 40
0.5403725043
 40
0.571988497
 40
0.6034675183
 40
0.6347991897
 40
0.665976246
 40
0.6969947359
 40
0.7278541571
 40
0.7585575208
 40
0.7891113379
 40
0.8195255236
 40
0.8498132176
 40
0.8799905191
 40
0.9100761418
 40
0.9400909923
 40
0.9700576842
 40
1.0
 40
1.0
 40
1.0
 40
1.0
 10
10.7257028986
 20
7.646416372
 30
0.0
 10
10.7257028986
 20
7.6514672289
 30
0.0
 10
10.7254205669
 20
7.6590574082
 30
0.0
 10
10.7244881317
 20
7.6691441202
 30
0.0
 10
10.7231816031
 20
7.679240491
 30
0.0
 10
10.7208525596
 20
7.6918061803
 30
0.0
 10
10.7169677203
 20
7.7066925193
 30
0.0
 10
10.712010755
 20
7.7213250052
 30
0.0
 10
10.706009043
 20
7.7356228389
 30
0.0
 10
10.6989956299
 20
7.7495076877
 30
0.0
 10
10.691009099
 20
7.7629033267
 30
0.0
 10
10.6820933509
 20
7.7757362646
 30
0.0
 10
10.6722973646
 20
7.7879360832
 30
0.0
 10
10.6616749309
 20
7.7994358361
 30
0.0
 10
10.6502843596
 20
7.8101724067
 30
0.0
 10
10.6381881623
 20
7.8200868533
 30
0.0
 10
10.6254527136
 20
7.8291247282
 30
0.0
 10
10.6121478903
 20
7.8372363749
 30
0.0
 10
10.5983466933
 20
7.8443771982
 30
0.0
 10
10.5841248515
 20
7.8505079085
 30
0.0
 10
10.5695604124
 20
7.8555947376
 30
0.0
 10
10.5547333193
 20
7.8596096246
 30
0.0
 10
10.5397249786
 20
7.8625303717
 30
0.0
 10
10.524617819
 20
7.8643407698
 30
0.0
 10
10.5094948455
 20
7.8650306927
 30
0.0
 10
10.4944391877
 20
7.8645961598
 30
0.0
 10
10.4795336481
 20
7.8630393664
 30
0.0
 10
10.4648602486
 20
7.860368682
 30
0.0
 10
10.4504997784
 20
7.8565986134
 30
0.0
 10
10.4365313534
 20
7.8517497437
 30
0.0
 10
10.4230319478
 20
7.8458486029
 30
0.0
 10
10.4100760635
 20
7.8389276292
 30
0.0
 10
10.3977349312
 20
7.8310246335
 30
0.0
 10
10.3860775079
 20
7.8221839492
 30
0.0
 10
10.378801422
 20
7.81569453
 30
0.0
 10
10.375301002
 20
7.8123133841
 30
0.0
  0
SPLINE
  5
37E
100
AcDbEntity
  8
0
100
AcDbSpline
 62
7
  6
CONTINUOUS
 70
0
 71
3
 72
53
 73
49
 74
0
 42
0.0000001
 43
0.0000001
 44
0.0000000001
 40
0.0
 40
0.0
 40
0.0
 40
0.0
 40
0.0470070544
 40
0.0937046499
 40
0.1400010014
 40
0.1858064076
 40
0.2310317616
 40
0.2755897135
 40
0.319394533
 40
0.3623624895
 40
0.4044120594
 40
0.4454641992
 40
0.4854426133
 40
0.5242740406
 40
0.5618885616
 40
0.5982199325
 40
0.6332059563
 40
0.6667889012
 40
0.6989159866
 40
0.7295399598
 40
0.7442756073
 40
0.7586206343
 40
0.7725710796
 40
0.7861234007
 40
0.7992746958
 40
0.812022586
 40
0.8243654093
 40
0.8363021794
 40
0.847832722
 40
0.8589577412
 40
0.8696788909
 40
0.8799989615
 40
0.8899219027
 40
0.8994531231
 40
0.9085995043
 40
0.9173697867
 40
0.9257746306
 40
0.9338270441
 40
0.9415425379
 40
0.9489395416
 40
0.9560396456
 40
0.9628679257
 40
0.9694531727
 40
0.9758279852
 40
0.9820287704
 40
0.9880954155
 40
0.9940708108
 40
1.0
 40
1.0
 40
1.0
 40
1.0
 10
12.5566265403
 20
9.117823616
 30
0.0
 10
12.5577987017
 20
9.1299690719
 30
0.0
 10
12.560274794
 20
9.1541668086
 30
0.0
 10
12.5643961145
 20
9.1902740152
 30
0.0
 10
12.5689061919
 20
9.2260204285
 30
0.0
 10
12.5737955389
 20
9.2613311927
 30
0.0
 10
12.57905394
 20
9.2961326229
 30
0.0
 10
12.5846703602
 20
9.330351965
 30
0.0
 10
12.5906330329
 20
9.3639177454
 30
0.0
 10
12.5969294526
 20
9.3967598443
 30
0.0
 10
12.6035464144
 20
9.4288096716
 30
0.0
 10
12.6104700359
 20
9.4600003032
 30
0.0
 10
12.6176857877
 20
9.4902666275
 30
0.0
 10
12.625178523
 20
9.5195454845
 30
0.0
 10
12.6329325099
 20
9.5477758013
 30
0.0
 10
12.6409314641
 20
9.574898734
 30
0.0
 10
12.6491585841
 20
9.6008577747
 30
0.0
 10
12.6575965923
 20
9.6255989665
 30
0.0
 10
12.6662277658
 20
9.6490707284
 30
0.0
 10
12.673658463
 20
9.6677644855
 30
0.0
 10
12.6796960738
 20
9.682038473
 30
0.0
 10
12.684203176
 20
9.692259116
 30
0.0
 10
12.6887449049
 20
9.7021272903
 30
0.0
 10
12.6933189755
 20
9.7116378576
 30
0.0
 10
12.6979229405
 20
9.7207858864
 30
0.0
 10
12.7025544484
 20
9.7295666136
 30
0.0
 10
12.7072110547
 20
9.7379754951
 30
0.0
 10
12.7118903614
 20
9.7460081687
 30
0.0
 10
12.71658994
 20
9.7536604805
 30
0.0
 10
12.7213073513
 20
9.7609284857
 30
0.0
 10
12.7260401985
 20
9.7678084242
 30
0.0
 10
12.7307860154
 20
9.7742967812
 30
0.0
 10
12.7355424491
 20
9.7803901924
 30
0.0
 10
12.7403070332
 20
9.7860855763
 30
0.0
 10
12.7450774669
 20
9.7913799644
 30
0.0
 10
12.7498513242
 20
9.7962706939
 30
0.0
 10
12.7546263601
 20
9.8007551841
 30
0.0
 10
12.7594002322
 20
9.8048311467
 30
0.0
 10
12.7641707482
 20
9.808496361
 30
0.0
 10
12.7689356677
 20
9.8117488311
 30
0.0
 10
12.7736928182
 20
9.8145866377
 30
0.0
 10
12.7784400055
 20
9.8170079691
 30
0.0
 10
12.7831749632
 20
9.8190111435
 30
0.0
 10
12.7878953686
 20
9.820594473
 30
0.0
 10
12.7925986175
 20
9.8217565538
 30
0.0
 10
12.7972821143
 20
9.8224959666
 30
0.0
 10
12.801942316
 20
9.8228118925
 30
0.0
 10
12.8050367065
 20
9.8227395402
 30
0.0
 10
12.8065720922
 20
9.8226330625
 30
0.0
  0
SPLINE
  5
37F
100
AcDbEntity
  8
0
100
AcDbSpline
 62
7
  6
CONTINUOUS
 70
0
 71
3
 72
18
 73
14
 74
0
 42
0.0000001
 43
0.0000001
 44
0.0000000001
 40
0.0
 40
0.0
 40
0.0
 40
0.0
 40
0.0548620589
 40
0.1099280789
 40
0.165399508
 40
0.2214731255
 40
0.2783387361
 40
0.3361775086
 40
0.4554063416
 40
0.5804417492
 40
0.7123343341
 40
0.8519577333
 40
1.0
 40
1.0
 40
1.0
 40
1.0
 10
11.3551481614
 20
10.668690749
 30
0.0
 10
11.3551481613
 20
10.6677628817
 30
0.0
 10
11.3550892591
 20
10.6659031647
 30
0.0
 10
11.3548244565
 20
10.6631166149
 30
0.0
 10
11.3543832695
 20
10.6603316708
 30
0.0
 10
11.3537658437
 20
10.6575493497
 30
0.0
 10
11.3529724184
 20
10.6547703539
 30
0.0
 10
11.3516674113
 20
10.6510333496
 30
0.0
 10
11.3495768121
 20
10.6463593577
 30
0.0
 10
11.3463947897
 20
10.6408393554
 30
0.0
 10
11.3425192589
 20
10.6353550827
 30
0.0
 10
11.3379561161
 20
10.6299120438
 30
0.0
 10
11.3345623359
 20
10.6264196728
 30
0.0
 10
11.3327614669
 20
10.6246801667
 30
0.0
  0
SPLINE
  5
380
100
AcDbEntity
  8
0
100
AcDbSpline
 62
7
  6
CONTINUOUS
 70
0
 71
3
 72
9
 73
5
 74
0
 42
0.0000001
 43
0.0000001
 44
0.0000000001
 40
0.0
 40
0.0
 40
0.0
 40
0.0
 40
0.5056175571
 40
1.0
 40
1.0
 40
1.0
 40
1.0
 10
9.3126716048
 20
10.7986042962
 30
0.0
 10
9.311621772
 20
10.7991309337
 30
0.0
 10
9.3095096903
 20
10.800102998
 30
0.0
 10
9.3073331872
 20
10.8009214486
 30
0.0
 10
9.3062438119
 20
10.8012849487
 30
0.0
  0
SPLINE
  5
381
100
AcDbEntity
  8
0
100
AcDbSpline
 62
7
  6
CONTINUOUS
 70
0
 71
3
 72
44
 73
40
 74
0
 42
0.0000001
 43
0.0000001
 44
0.0000000001
 40
0.0
 40
0.0
 40
0.0
 40
0.0
 40
0.0149722504
 40
0.0299475576
 40
0.0449289656
 40
0.0599194752
 40
0.0899336509
 40
0.1200185962
 40
0.1350971147
 40
0.150200993
 40
0.1804880038
 40
0.2109015036
 40
0.2414546317
 40
0.2721573035
 40
0.3030160297
 40
0.3340338212
 40
0.3652101756
 40
0.3965411416
 40
0.4280194541
 40
0.4596347352
 40
0.4913737507
 40
0.5232207176
 40
0.5551576521
 40
0.5871647534
 40
0.6192208128
 40
0.6513036453
 40
0.6833905334
 40
0.7154586792
 40
0.7314811024
 40
0.747490488
 40
0.7794546928
 40
0.811335776
 40
0.8431150609
 40
0.8747759499
 40
0.9063042323
 40
0.9376885956
 40
0.9533263523
 40
0.9689255432
 40
1.0
 40
1.0
 40
1.0
 40
1.0
 10
11.202626947
 20
10.2121169238
 30
0.0
 10
11.2043773228
 20
10.2138076662
 30
0.0
 10
11.2079460483
 20
10.2171203013
 30
0.0
 10
11.2134929527
 20
10.2218730945
 30
0.0
 10
11.2192267012
 20
10.2264038727
 30
0.0
 10
11.2271122701
 20
10.232141955
 30
0.0
 10
11.2374018925
 20
10.2387314523
 30
0.0
 10
11.2481917394
 20
10.2444952348
 30
0.0
 10
11.2570905621
 20
10.2485956934
 30
0.0
 10
11.2661732524
 20
10.2523575626
 30
0.0
 10
11.277825905
 20
10.2564027289
 30
0.0
 10
11.2921860605
 20
10.2601727192
 30
0.0
 10
11.3068595644
 20
10.2628435096
 30
0.0
 10
11.321765103
 20
10.2644003513
 30
0.0
 10
11.3368207946
 20
10.2648349383
 30
0.0
 10
11.3519437977
 20
10.2641450592
 30
0.0
 10
11.3670509918
 20
10.2623347004
 30
0.0
 10
11.3820593691
 20
10.2594139876
 30
0.0
 10
11.396886501
 20
10.2553991309
 30
0.0
 10
11.411450981
 20
10.2503123285
 30
0.0
 10
11.4256728657
 20
10.2441816418
 30
0.0
 10
11.4394741079
 20
10.2370408385
 30
0.0
 10
11.4527789767
 20
10.2289292092
 30
0.0
 10
11.4655144756
 20
10.2198913405
 30
0.0
 10
11.4776107069
 20
10.209976916
 30
0.0
 10
11.4890013671
 20
10.1992402785
 30
0.0
 10
11.4996236714
 20
10.1877407573
 30
0.0
 10
11.5077901757
 20
10.1775702129
 30
0.0
 10
11.513883151
 20
10.1691164483
 30
0.0
 10
11.5196695583
 20
10.1604702957
 30
0.0
 10
11.5263222995
 20
10.1493119296
 30
0.0
 10
11.5333355749
 20
10.1354272967
 30
0.0
 10
11.5393373541
 20
10.1211293727
 30
0.0
 10
11.5442943272
 20
10.106496876
 30
0.0
 10
11.5481791876
 20
10.0916105018
 30
0.0
 10
11.5505082389
 20
10.0790447827
 30
0.0
 10
11.5518147761
 20
10.0689483941
 30
0.0
 10
11.5527472146
 20
10.0588616621
 30
0.0
 10
11.5530295473
 20
10.0512714715
 30
0.0
 10
11.5530295473
 20
10.0462206006
 30
0.0
  0
SPLINE
  5
382
100
AcDbEntity
  8
0
100
AcDbSpline
 62
7
  6
CONTINUOUS
 70
0
 71
3
 72
44
 73
40
 74
0
 42
0.0000001
 43
0.0000001
 44
0.0000000001
 40
0.0
 40
0.0
 40
0.0
 40
0.0
 40
0.0149722504
 40
0.0299475576
 40
0.0449289656
 40
0.0599194752
 40
0.0899336509
 40
0.1200185962
 40
0.1350971147
 40
0.150200993
 40
0.1804880038
 40
0.2109015036
 40
0.2414546317
 40
0.2721573035
 40
0.3030160297
 40
0.3340338212
 40
0.3652101756
 40
0.3965411416
 40
0.4280194541
 40
0.4596347352
 40
0.4913737507
 40
0.5232207176
 40
0.5551576521
 40
0.5871647534
 40
0.6192208128
 40
0.6513036453
 40
0.6833905334
 40
0.7154586792
 40
0.7314811024
 40
0.747490488
 40
0.7794546928
 40
0.811335776
 40
0.8431150609
 40
0.8747759499
 40
0.9063042323
 40
0.9376885956
 40
0.9533263523
 40
0.9689255432
 40
1.0
 40
1.0
 40
1.0
 40
1.0
 10
10.115960328
 20
7.1482183883
 30
0.0
 10
10.1177107039
 20
7.1499091307
 30
0.0
 10
10.1212794293
 20
7.1532217659
 30
0.0
 10
10.1268263337
 20
7.1579745591
 30
0.0
 10
10.1325600822
 20
7.1625053372
 30
0.0
 10
10.1404456512
 20
7.1682434195
 30
0.0
 10
10.1507352735
 20
7.1748329168
 30
0.0
 10
10.1615251205
 20
7.1805966994
 30
0.0
 10
10.1704239431
 20
7.1846971579
 30
0.0
 10
10.1795066335
 20
7.1884590271
 30
0.0
 10
10.191159286
 20
7.1925041934
 30
0.0
 10
10.2055194415
 20
7.1962741838
 30
0.0
 10
10.2201929454
 20
7.1989449742
 30
0.0
 10
10.2350984841
 20
7.2005018158
 30
0.0
 10
10.2501541757
 20
7.2009364028
 30
0.0
 10
10.2652771787
 20
7.2002465238
 30
0.0
 10
10.2803843729
 20
7.198436165
 30
0.0
 10
10.2953927501
 20
7.1955154521
 30
0.0
 10
10.310219882
 20
7.1915005954
 30
0.0
 10
10.324784362
 20
7.186413793
 30
0.0
 10
10.3390062467
 20
7.1802831063
 30
0.0
 10
10.352807489
 20
7.173142303
 30
0.0
 10
10.3661123578
 20
7.1650306737
 30
0.0
 10
10.3788478567
 20
7.1559928051
 30
0.0
 10
10.390944088
 20
7.1460783805
 30
0.0
 10
10.4023347481
 20
7.135341743
 30
0.0
 10
10.4129570524
 20
7.1238422218
 30
0.0
 10
10.4211235568
 20
7.1136716774
 30
0.0
 10
10.4272165321
 20
7.1052179128
 30
0.0
 10
10.4330029394
 20
7.0965717603
 30
0.0
 10
10.4396556805
 20
7.0854133941
 30
0.0
 10
10.4466689559
 20
7.0715287613
 30
0.0
 10
10.4526707351
 20
7.0572308372
 30
0.0
 10
10.4576277083
 20
7.0425983405
 30
0.0
 10
10.4615125686
 20
7.0277119664
 30
0.0
 10
10.4638416199
 20
7.0151462472
 30
0.0
 10
10.4651481571
 20
7.0050498587
 30
0.0
 10
10.4660805956
 20
6.9949631266
 30
0.0
 10
10.4663629283
 20
6.987372936
 30
0.0
 10
10.4663629283
 20
6.9823220651
 30
0.0
  0
SPLINE
  5
383
100
AcDbEntity
  8
0
100
AcDbSpline
 62
7
  6
CONTINUOUS
 70
0
 71
3
 72
41
 73
37
 74
0
 42
0.0000001
 43
0.0000001
 44
0.0000000001
 40
0.0
 40
0.0
 40
0.0
 40
0.0
 40
0.0077464617
 40
0.0155169813
 40
0.0233353842
 40
0.031225009
 40
0.0392085129
 40
0.0473077097
 40
0.0639299763
 40
0.0812499768
 40
0.099400385
 40
0.1184940753
 40
0.1386250614
 40
0.1598705402
 40
0.1822926717
 40
0.2059408052
 40
0.2308532388
 40
0.2570587702
 40
0.2845782825
 40
0.3134255801
 40
0.3436086809
 40
0.3751303278
 40
0.4079887853
 40
0.4421783948
 40
0.4776898408
 40
0.5145108176
 40
0.5526259982
 40
0.5920176035
 40
0.6326654433
 40
0.674547106
 40
0.7176382797
 40
0.7619127688
 40
0.8073426614
 40
0.8538978984
 40
0.9015480703
 40
1.0
 40
1.0
 40
1.0
 40
1.0
 10
12.6949092356
 20
8.2125003582
 30
0.0
 10
12.6939422642
 20
8.2125674168
 30
0.0
 10
12.6920087333
 20
8.2127576777
 30
0.0
 10
12.6891226214
 20
8.213210457
 30
0.0
 10
12.6862494082
 20
8.213830715
 30
0.0
 10
12.6833898975
 20
8.2146182068
 30
0.0
 10
12.6805446316
 20
8.2155727491
 30
0.0
 10
12.676738503
 20
8.2170806019
 30
0.0
 10
12.6720061185
 20
8.2194001637
 30
0.0
 10
12.666448734
 20
8.2228234409
 30
0.0
 10
12.6609664606
 20
8.2269062316
 30
0.0
 10
12.6555634139
 20
8.2316439313
 30
0.0
 10
12.6502428078
 20
8.2370319643
 30
0.0
 10
12.6450082175
 20
8.2430656663
 30
0.0
 10
12.6398631351
 20
8.2497399913
 30
0.0
 10
12.6348112435
 20
8.2570495608
 30
0.0
 10
12.6298562871
 20
8.2649885205
 30
0.0
 10
12.625002003
 20
8.2735504956
 30
0.0
 10
12.6202522466
 20
8.2827286336
 30
0.0
 10
12.6156107324
 20
8.2925155027
 30
0.0
 10
12.6110812562
 20
8.3029031862
 30
0.0
 10
12.6066674791
 20
8.3138832167
 30
0.0
 10
12.6023730201
 20
8.3254466229
 30
0.0
 10
12.5982014484
 20
8.3375839325
 30
0.0
 10
12.5941561683
 20
8.3502851653
 30
0.0
 10
12.5902405898
 20
8.3635398732
 30
0.0
 10
12.5864579204
 20
8.3773371203
 30
0.0
 10
12.5828113363
 20
8.39166552
 30
0.0
 10
12.5793038712
 20
8.4065132288
 30
0.0
 10
12.5759384295
 20
8.4218679619
 30
0.0
 10
12.5727178511
 20
8.4377170198
 30
0.0
 10
12.5696447795
 20
8.4540472866
 30
0.0
 10
12.5667218351
 20
8.4708451762
 30
0.0
 10
12.5639513783
 20
8.4880968275
 30
0.0
 10
12.5604255948
 20
8.5119447369
 30
0.0
 10
12.5580777418
 20
8.5300768434
 30
0.0
 10
12.5566265403
 20
8.542310092
 30
0.0
  0
SPLINE
  5
384
100
AcDbEntity
  8
0
100
AcDbSpline
 62
7
  6
CONTINUOUS
 70
0
 71
3
 72
83
 73
79
 74
0
 42
0.0000001
 43
0.0000001
 44
0.0000000001
 40
0.0
 40
0.0
 40
0.0
 40
0.0
 40
0.0027966274
 40
0.0056681461
 40
0.0086296659
 40
0.0116947757
 40
0.0181797909
 40
0.0216223684
 40
0.0252083851
 40
0.0289445752
 40
0.0328366458
 40
0.0368893699
 40
0.0411066527
 40
0.0454917104
 40
0.0500470552
 40
0.0547746421
 40
0.0596759177
 40
0.0647518255
 40
0.0700029493
 40
0.0754294515
 40
0.0810311785
 40
0.0868076851
 40
0.0927582026
 40
0.1051767035
 40
0.1182764386
 40
0.1320434419
 40
0.1464609294
 40
0.1615096311
 40
0.1771680491
 40
0.1934126868
 40
0.2102182489
 40
0.2275578043
 40
0.2454029277
 40
0.2637238194
 40
0.2824894327
 40
0.3016675911
 40
0.3212250915
 40
0.3411278016
 40
0.3613407495
 40
0.3818282263
 40
0.4025538804
 40
0.423480806
 40
0.4657879389
 40
0.5084473041
 40
0.5511526804
 40
0.5935974215
 40
0.6146271388
 40
0.6354779459
 40
0.6561126425
 40
0.6764945342
 40
0.6965875184
 40
0.716356173
 40
0.7357658478
 40
0.7547827656
 40
0.7733741246
 40
0.791508192
 40
0.8091544094
 40
0.8262835062
 40
0.8428676344
 40
0.8588805034
 40
0.874297523
 40
0.8890959742
 40
0.9032552126
 40
0.9167569247
 40
0.9295854156
 40
0.9417279674
 40
0.947539209
 40
0.9531758181
 40
0.9586372491
 40
0.9639233179
 40
0.9690341214
 40
0.9739701321
 40
0.9787322239
 40
0.9833217025
 40
0.9877405118
 40
0.9919911252
 40
0.9960764682
 40
1.0
 40
1.0
 40
1.0
 40
1.0
 10
12.6702244966
 20
8.4481504294
 30
0.0
 10
12.6691891784
 20
8.4485164639
 30
0.0
 10
12.6671206543
 20
8.4493454888
 30
0.0
 10
12.6640804109
 20
8.4508486623
 30
0.0
 10
12.6610680678
 20
8.4526248865
 30
0.0
 10
12.6570154084
 20
8.4554073887
 30
0.0
 10
12.6531005943
 20
8.4587012335
 30
0.0
 10
12.6493271497
 20
8.4624337139
 30
0.0
 10
12.6464747945
 20
8.4655556744
 30
0.0
 10
12.6436582882
 20
8.468942312
 30
0.0
 10
12.6408785881
 20
8.4725923179
 30
0.0
 10
12.6381370213
 20
8.4765039016
 30
0.0
 10
12.6354347375
 20
8.4806752197
 30
0.0
 10
12.6327730346
 20
8.4851043433
 30
0.0
 10
12.6301530845
 20
8.4897891688
 30
0.0
 10
12.627576116
 20
8.4947275009
 30
0.0
 10
12.6250433586
 20
8.4999170208
 30
0.0
 10
12.622555951
 20
8.5053552604
 30
0.0
 10
12.6201151262
 20
8.5110396657
 30
0.0
 10
12.6177220001
 20
8.5169675298
 30
0.0
 10
12.6153777246
 20
8.5231360398
 30
0.0
 10
12.6130834198
 20
8.5295422784
 30
0.0
 10
12.6100491762
 20
8.5385250306
 30
0.0
 10
12.6063997599
 20
8.5503328066
 30
0.0
 10
12.6022965558
 20
8.565204888
 30
0.0
 10
12.5984173526
 20
8.5809464362
 30
0.0
 10
12.5947696306
 20
8.5975274228
 30
0.0
 10
12.5913604571
 20
8.6149163628
 30
0.0
 10
12.5881964301
 20
8.6330801074
 30
0.0
 10
12.5852836746
 20
8.6519840002
 30
0.0
 10
12.5826278337
 20
8.6715919358
 30
0.0
 10
12.5802340545
 20
8.6918664438
 30
0.0
 10
12.578106981
 20
8.7127687579
 30
0.0
 10
12.5762507316
 20
8.7342588906
 30
0.0
 10
12.5746689002
 20
8.7562957151
 30
0.0
 10
12.573364554
 20
8.7788370515
 30
0.0
 10
12.5723402255
 20
8.8018397497
 30
0.0
 10
12.571597911
 20
8.8252597674
 30
0.0
 10
12.5711390509
 20
8.8490522588
 30
0.0
 10
12.5709645484
 20
8.873171648
 30
0.0
 10
12.5710747327
 20
8.897571779
 30
0.0
 10
12.5716029827
 20
8.9305356196
 30
0.0
 10
12.5729759473
 20
8.9720966503
 30
0.0
 10
12.5757344787
 20
9.0221560427
 30
0.0
 10
12.5795891387
 20
9.072197164
 30
0.0
 10
12.5837024731
 20
9.1136898987
 30
0.0
 10
12.587523436
 20
9.1465802963
 30
0.0
 10
12.5906335323
 20
9.1709301621
 30
0.0
 10
12.5939906526
 20
9.1949903766
 30
0.0
 10
12.5975883733
 20
9.218714896
 30
0.0
 10
12.6014197772
 20
9.2420582797
 30
0.0
 10
12.6054775071
 20
9.2649758299
 30
0.0
 10
12.6097537706
 20
9.2874236635
 30
0.0
 10
12.6142403505
 20
9.3093588063
 30
0.0
 10
12.618928618
 20
9.3307392763
 30
0.0
 10
12.6238095584
 20
9.3515241622
 30
0.0
 10
12.6288737851
 20
9.3716736996
 30
0.0
 10
12.6341115617
 20
9.3911493518
 30
0.0
 10
12.6395128098
 20
9.4099138932
 30
0.0
 10
12.6450671317
 20
9.4279314863
 30
0.0
 10
12.6507638391
 20
9.4451677461
 30
0.0
 10
12.6565919719
 20
9.4615898166
 30
0.0
 10
12.6625403273
 20
9.4771664216
 30
0.0
 10
12.6685974799
 20
9.491868031
 30
0.0
 10
12.6747517966
 20
9.5056666335
 30
0.0
 10
12.6800259062
 20
9.5165450407
 30
0.0
 10
12.6842926701
 20
9.5247673241
 30
0.0
 10
12.6874627807
 20
9.5306017128
 30
0.0
 10
12.6906483644
 20
9.5361915354
 30
0.0
 10
12.6938478836
 20
9.5415341685
 30
0.0
 10
12.6970598521
 20
9.5466270621
 30
0.0
 10
12.7002827387
 20
9.5514677993
 30
0.0
 10
12.703514981
 20
9.5560541015
 30
0.0
 10
12.7067551291
 20
9.5603837918
 30
0.0
 10
12.7100016613
 20
9.5644548938
 30
0.0
 10
12.7132531549
 20
9.5682654919
 30
0.0
 10
12.716507916
 20
9.5718136142
 30
0.0
 10
12.7187229461
 20
9.5740473518
 30
0.0
 10
12.7198310349
 20
9.5751176834
 30
0.0
  0
SPLINE
  5
385
100
AcDbEntity
  8
0
100
AcDbSpline
 62
7
  6
CONTINUOUS
 70
0
 71
3
 72
15
 73
11
 74
0
 42
0.0000001
 43
0.0000001
 44
0.0000000001
 40
0.0
 40
0.0
 40
0.0
 40
0.0
 40
0.1084409115
 40
0.2203197468
 40
0.3363915422
 40
0.4573221093
 40
0.5836913596
 40
0.7159974707
 40
0.8546566544
 40
1.0
 40
1.0
 40
1.0
 40
1.0
 10
12.7495954556
 20
9.5926461962
 30
0.0
 10
12.748356006
 20
9.5923931998
 30
0.0
 10
12.7458609958
 20
9.5917588049
 30
0.0
 10
12.7421546115
 20
9.5904559448
 30
0.0
 10
12.7384362152
 20
9.5887907215
 30
0.0
 10
12.7347084293
 20
9.5867649183
 30
0.0
 10
12.7309731793
 20
9.5843801877
 30
0.0
 10
12.7272324381
 20
9.5816383177
 30
0.0
 10
12.7234884881
 20
9.5785413634
 30
0.0
 10
12.7210505228
 20
9.5762956184
 30
0.0
 10
12.7198310349
 20
9.5751176834
 30
0.0
  0
SPLINE
  5
386
100
AcDbEntity
  8
0
100
AcDbSpline
 62
7
  6
CONTINUOUS
 70
0
 71
3
 72
21
 73
17
 74
0
 42
0.0000001
 43
0.0000001
 44
0.0000000001
 40
0.0
 40
0.0
 40
0.0
 40
0.0
 40
0.1273175725
 40
0.2538000026
 40
0.3167619332
 40
0.3795354925
 40
0.4421314982
 40
0.5045621433
 40
0.5668413429
 40
0.6289845306
 40
0.6910084612
 40
0.7529311022
 40
0.8147714553
 40
0.8765493457
 40
0.9382852283
 40
1.0
 40
1.0
 40
1.0
 40
1.0
 10
11.1454088244
 20
10.0744891937
 30
0.0
 10
11.1454088244
 20
10.0809875201
 30
0.0
 10
11.1460291319
 20
10.0939499105
 30
0.0
 10
11.148371811
 20
10.1099742273
 30
0.0
 10
11.1511718506
 20
10.1225439067
 30
0.0
 10
11.153725338
 20
10.1318153033
 30
0.0
 10
11.1567293239
 20
10.1409219726
 30
0.0
 10
11.1601769593
 20
10.1498431517
 30
0.0
 10
11.1640602637
 20
10.1585582142
 30
0.0
 10
11.1683703061
 20
10.167047078
 30
0.0
 10
11.1730971999
 20
10.1752901339
 30
0.0
 10
11.1782300287
 20
10.1832683871
 30
0.0
 10
11.1837569365
 20
10.1909634248
 30
0.0
 10
11.1896652768
 20
10.1983575346
 30
0.0
 10
11.1959411939
 20
10.2054334212
 30
0.0
 10
11.200361344
 20
10.2099285075
 30
0.0
 10
11.202626947
 20
10.2121169238
 30
0.0
  0
SPLINE
  5
387
100
AcDbEntity
  8
0
100
AcDbSpline
 62
7
  6
CONTINUOUS
 70
0
 71
3
 72
53
 73
49
 74
0
 42
0.0000001
 43
0.0000001
 44
0.0000000001
 40
0.0
 40
0.0
 40
0.0
 40
0.0
 40
0.0470070544
 40
0.0937046499
 40
0.1400010014
 40
0.1858064076
 40
0.2310317616
 40
0.2755897135
 40
0.319394533
 40
0.3623624895
 40
0.4044120594
 40
0.4454641992
 40
0.4854426133
 40
0.5242740406
 40
0.5618885616
 40
0.5982199325
 40
0.6332059563
 40
0.6667889012
 40
0.6989159866
 40
0.7295399598
 40
0.7442756073
 40
0.7586206343
 40
0.7725710796
 40
0.7861234007
 40
0.7992746958
 40
0.812022586
 40
0.8243654093
 40
0.8363021794
 40
0.847832722
 40
0.8589577412
 40
0.8696788909
 40
0.8799989615
 40
0.8899219027
 40
0.8994531231
 40
0.9085995043
 40
0.9173697867
 40
0.9257746306
 40
0.9338270441
 40
0.9415425379
 40
0.9489395416
 40
0.9560396456
 40
0.9628679257
 40
0.9694531727
 40
0.9758279852
 40
0.9820287704
 40
0.9880954155
 40
0.9940708108
 40
1.0
 40
1.0
 40
1.0
 40
1.0
 10
12.9448547875
 20
8.9173098047
 30
0.0
 10
12.9436826261
 20
8.9051643488
 30
0.0
 10
12.9412065338
 20
8.8809666121
 30
0.0
 10
12.9370852132
 20
8.8448594055
 30
0.0
 10
12.9325751359
 20
8.8091129922
 30
0.0
 10
12.9276857889
 20
8.7738022281
 30
0.0
 10
12.9224273877
 20
8.7390007978
 30
0.0
 10
12.9168109675
 20
8.7047814558
 30
0.0
 10
12.9108482949
 20
8.6712156754
 30
0.0
 10
12.9045518752
 20
8.6383735764
 30
0.0
 10
12.8979349134
 20
8.6063237492
 30
0.0
 10
12.8910112919
 20
8.5751331175
 30
0.0
 10
12.8837955401
 20
8.5448667932
 30
0.0
 10
12.8763028048
 20
8.5155879363
 30
0.0
 10
12.8685488179
 20
8.4873576195
 30
0.0
 10
12.8605498637
 20
8.4602346867
 30
0.0
 10
12.8523227437
 20
8.434275646
 30
0.0
 10
12.8438847355
 20
8.4095344542
 30
0.0
 10
12.835253562
 20
8.3860626923
 30
0.0
 10
12.8278228648
 20
8.3673689352
 30
0.0
 10
12.821785254
 20
8.3530949477
 30
0.0
 10
12.8172781517
 20
8.3428743047
 30
0.0
 10
12.8127364229
 20
8.3330061304
 30
0.0
 10
12.8081623523
 20
8.3234955631
 30
0.0
 10
12.8035583873
 20
8.3143475343
 30
0.0
 10
12.7989268794
 20
8.3055668071
 30
0.0
 10
12.7942702731
 20
8.2971579256
 30
0.0
 10
12.7895909664
 20
8.289125252
 30
0.0
 10
12.7848913878
 20
8.2814729402
 30
0.0
 10
12.7801739765
 20
8.274204935
 30
0.0
 10
12.7754411292
 20
8.2673249965
 30
0.0
 10
12.7706953124
 20
8.2608366395
 30
0.0
 10
12.7659388787
 20
8.2547432283
 30
0.0
 10
12.7611742946
 20
8.2490478444
 30
0.0
 10
12.7564038609
 20
8.2437534563
 30
0.0
 10
12.7516300035
 20
8.2388627268
 30
0.0
 10
12.7468549677
 20
8.2343782366
 30
0.0
 10
12.7420810955
 20
8.230302274
 30
0.0
 10
12.7373105796
 20
8.2266370598
 30
0.0
 10
12.73254566
 20
8.2233845896
 30
0.0
 10
12.7277885096
 20
8.220546783
 30
0.0
 10
12.7230413223
 20
8.2181254516
 30
0.0
 10
12.7183063645
 20
8.2161222773
 30
0.0
 10
12.7135859592
 20
8.2145389477
 30
0.0
 10
12.7088827103
 20
8.2133768669
 30
0.0
 10
12.7041992135
 20
8.2126374541
 30
0.0
 10
12.6995390118
 20
8.2123215282
 30
0.0
 10
12.6964446212
 20
8.2123938806
 30
0.0
 10
12.6949092356
 20
8.2125003582
 30
0.0
  0
SPLINE
  5
388
100
AcDbEntity
  8
0
100
AcDbSpline
 62
7
  6
CONTINUOUS
 70
0
 71
3
 72
37
 73
33
 74
0
 42
0.0000001
 43
0.0000001
 44
0.0000000001
 40
0.0
 40
0.0
 40
0.0
 40
0.0
 40
0.0943239575
 40
0.1849459598
 40
0.2288046152
 40
0.2716620274
 40
0.3134948989
 40
0.3542815334
 40
0.3940014696
 40
0.4326355663
 40
0.4701662409
 40
0.5065774649
 40
0.5418550614
 40
0.5759866054
 40
0.6089619162
 40
0.6407729016
 40
0.6714141904
 40
0.7008830041
 40
0.7291799061
 40
0.7563088046
 40
0.7822777905
 40
0.8070993923
 40
0.8307915047
 40
0.853378006
 40
0.8748898123
 40
0.895365931
 40
0.9148546641
 40
0.9334150541
 40
0.9511181229
 40
0.9680483549
 40
0.9843044663
 40
1.0
 40
1.0
 40
1.0
 40
1.0
 10
12.9139451585
 20
9.4949669188
 30
0.0
 10
12.912613546
 20
9.5061920632
 30
0.0
 10
12.9097862738
 20
9.5281768645
 30
0.0
 10
12.9057023569
 20
9.5552936581
 30
0.0
 10
12.902163445
 20
9.5762497266
 30
0.0
 10
12.8994113397
 20
9.5914077305
 30
0.0
 10
12.8965343345
 20
9.6061676309
 30
0.0
 10
12.8935344374
 20
9.6205191697
 30
0.0
 10
12.8904137468
 20
9.6344523829
 30
0.0
 10
12.8871744347
 20
9.6479575932
 30
0.0
 10
12.8838187824
 20
9.6610254211
 30
0.0
 10
12.8803491064
 20
9.6736467979
 30
0.0
 10
12.8767678666
 20
9.6858129773
 30
0.0
 10
12.8730775115
 20
9.6975155276
 30
0.0
 10
12.869280668
 20
9.70874636
 30
0.0
 10
12.8653799108
 20
9.7194977066
 30
0.0
 10
12.861378013
 20
9.7297621663
 30
0.0
 10
12.8572776679
 20
9.739532661
 30
0.0
 10
12.8530817651
 20
9.7488025024
 30
0.0
 10
12.848793105
 20
9.7575653291
 30
0.0
 10
12.8444146522
 20
9.765815184
 30
0.0
 10
12.8399492898
 20
9.7735464441
 30
0.0
 10
12.8354000025
 20
9.7807538886
 30
0.0
 10
12.8307697118
 20
9.7874326373
 30
0.0
 10
12.8260613523
 20
9.7935781767
 30
0.0
 10
12.8212778198
 20
9.7991863299
 30
0.0
 10
12.8164219346
 20
9.8042531882
 30
0.0
 10
12.8114965083
 20
9.8087751508
 30
0.0
 10
12.806504309
 20
9.8127486815
 30
0.0
 10
12.8014479983
 20
9.81617057
 30
0.0
 10
12.796331165
 20
9.8190371725
 30
0.0
 10
12.7928280451
 20
9.8205998174
 30
0.0
 10
12.7910746147
 20
9.8212806316
 30
0.0
  0
SPLINE
  5
389
100
AcDbEntity
  8
0
100
AcDbSpline
 62
7
  6
CONTINUOUS
 70
0
 71
3
 72
91
 73
87
 74
0
 42
0.0000001
 43
0.0000001
 44
0.0000000001
 40
0.0
 40
0.0
 40
0.0
 40
0.0
 40
0.0039801824
 40
0.0081241125
 40
0.0124359604
 40
0.0169193082
 40
0.0215771808
 40
0.0264119179
 40
0.0314251804
 40
0.036618156
 40
0.0419915391
 40
0.0475456573
 40
0.0532804234
 40
0.0591954189
 40
0.0652899227
 40
0.0715629017
 40
0.0780131034
 40
0.0846389837
 40
0.0984102885
 40
0.1128608532
 40
0.1279713725
 40
0.1437199568
 40
0.1600824082
 40
0.1770324532
 40
0.1945419392
 40
0.2125810061
 40
0.2311182422
 40
0.2501208275
 40
0.2695546626
 40
0.2893844909
 40
0.3095740146
 40
0.330086005
 40
0.35088241
 40
0.3719244606
 40
0.3931727759
 40
0.4145874652
 40
0.4361282289
 40
0.4577544586
 40
0.4794253371
 40
0.501099938
 40
0.5227373261
 40
0.5442966575
 40
0.5657372785
 40
0.5870188258
 40
0.6081013261
 40
0.6289452975
 40
0.6495118524
 40
0.6697628021
 40
0.6896607608
 40
0.7091692527
 40
0.7282528228
 40
0.7468771515
 40
0.7650091753
 40
0.7826172172
 40
0.7996711268
 40
0.8161424293
 40
0.8320044948
 40
0.8472327309
 40
0.8618048077
 40
0.8757009255
 40
0.8889041429
 40
0.8952417292
 40
0.9014012652
 40
0.9073816417
 40
0.9131820083
 40
0.9188018518
 40
0.9242409423
 40
0.9294994633
 40
0.9345779585
 40
0.9394774438
 40
0.944199427
 40
0.9487459568
 40
0.95311974
 40
0.9573241405
 40
0.9613633601
 40
0.9652424499
 40
0.9689674846
 40
0.9725456466
 40
0.9759853437
 40
0.9824865016
 40
0.9855753543
 40
0.9885738189
 40
0.9914977372
 40
0.9943643366
 40
0.9971920099
 40
1.0
 40
1.0
 40
1.0
 40
1.0
 10
10.0635348559
 20
10.7127013312
 30
0.0
 10
10.0648360878
 20
10.7139582247
 30
0.0
 10
10.0675511772
 20
10.7164631222
 30
0.0
 10
10.0718619042
 20
10.7201217136
 30
0.0
 10
10.0764891839
 20
10.7237540614
 30
0.0
 10
10.0814304778
 20
10.7273582371
 30
0.0
 10
10.0866833769
 20
10.7309325574
 30
0.0
 10
10.0922453073
 20
10.7344752834
 30
0.0
 10
10.0981134873
 20
10.7379847164
 30
0.0
 10
10.1042850054
 20
10.7414590353
 30
0.0
 10
10.110756745
 20
10.7448965724
 30
0.0
 10
10.117525489
 20
10.7482955592
 30
0.0
 10
10.124587834
 20
10.751654324
 30
0.0
 10
10.1319402374
 20
10.7549711694
 30
0.0
 10
10.1395790084
 20
10.758244405
 30
0.0
 10
10.1475002915
 20
10.7614724137
 30
0.0
 10
10.1557001205
 20
10.7646535358
 30
0.0
 10
10.1671466328
 20
10.7688848758
 30
0.0
 10
10.1821283333
 20
10.7740344986
 30
0.0
 10
10.200925174
 20
10.7799253565
 30
0.0
 10
10.2207271305
 20
10.7855923394
 30
0.0
 10
10.2414942305
 20
10.7910239199
 30
0.0
 10
10.263184703
 20
10.796209034
 30
0.0
 10
10.2857548061
 20
10.8011371191
 30
0.0
 10
10.3091589998
 20
10.8057981339
 30
0.0
 10
10.3333500223
 20
10.8101825858
 30
0.0
 10
10.3582789987
 20
10.8142815468
 30
0.0
 10
10.3838955445
 20
10.8180866719
 30
0.0
 10
10.4101478714
 20
10.8215902154
 30
0.0
 10
10.4369828946
 20
10.824785047
 30
0.0
 10
10.4643463416
 20
10.8276646654
 30
0.0
 10
10.4921828629
 20
10.8302232107
 30
0.0
 10
10.5204361444
 20
10.8324554797
 30
0.0
 10
10.549049024
 20
10.834356934
 30
0.0
 10
10.5779636084
 20
10.8359237078
 30
0.0
 10
10.6071213918
 20
10.8371526159
 30
0.0
 10
10.6364633746
 20
10.8380411594
 30
0.0
 10
10.6659301823
 20
10.8385875315
 30
0.0
 10
10.6954621866
 20
10.8387906197
 30
0.0
 10
10.724999626
 20
10.8386500115
 30
0.0
 10
10.7544827285
 20
10.8381659941
 30
0.0
 10
10.7838518328
 20
10.8373395523
 30
0.0
 10
10.8130475098
 20
10.8361723662
 30
0.0
 10
10.8420106821
 20
10.8346668086
 30
0.0
 10
10.8706827447
 20
10.8328259397
 30
0.0
 10
10.8990056835
 20
10.8306535013
 30
0.0
 10
10.9269221951
 20
10.8281539108
 30
0.0
 10
10.9543758041
 20
10.8253322541
 30
0.0
 10
10.9813109779
 20
10.8221942716
 30
0.0
 10
11.0076732393
 20
10.8187463483
 30
0.0
 10
11.0334092785
 20
10.8149955007
 30
0.0
 10
11.058467062
 20
10.8109493631
 30
0.0
 10
11.0827959412
 20
10.8066161718
 30
0.0
 10
11.1063467596
 20
10.8020047506
 30
0.0
 10
11.1290719585
 20
10.7971244937
 30
0.0
 10
11.1509256742
 20
10.7919853436
 30
0.0
 10
11.1718638445
 20
10.7865977693
 30
0.0
 10
11.1918442802
 20
10.780972744
 30
0.0
 10
11.2108268506
 20
10.7751217166
 30
0.0
 10
11.228773272
 20
10.769056585
 30
0.0
 10
11.2430234131
 20
10.7637644502
 30
0.0
 10
11.2538692398
 20
10.7594235983
 30
0.0
 10
11.2616112031
 20
10.7561665959
 30
0.0
 10
11.2690681796
 20
10.7528654306
 30
0.0
 10
11.2762364191
 20
10.7495217031
 30
0.0
 10
11.2831123354
 20
10.7461371574
 30
0.0
 10
11.2896924595
 20
10.7427134295
 30
0.0
 10
11.2959735159
 20
10.7392522933
 30
0.0
 10
11.3019523483
 20
10.7357554334
 30
0.0
 10
11.307625978
 20
10.7322246061
 30
0.0
 10
11.312991584
 20
10.7286615665
 30
0.0
 10
11.3180464747
 20
10.7250680246
 30
0.0
 10
11.3227881711
 20
10.72144579
 30
0.0
 10
11.327214273
 20
10.7177965332
 30
0.0
 10
11.3313226126
 20
10.7141220688
 30
0.0
 10
11.3351111183
 20
10.7104240338
 30
0.0
 10
11.338577803
 20
10.7067042905
 30
0.0
 10
11.3417211703
 20
10.7029640922
 30
0.0
 10
11.3454086371
 20
10.6980461627
 30
0.0
 10
11.3485398967
 20
10.6929956746
 30
0.0
 10
11.3510259807
 20
10.6878373459
 30
0.0
 10
11.3525280615
 20
10.6840223768
 30
0.0
 10
11.3536977866
 20
10.6801981253
 30
0.0
 10
11.3545341968
 20
10.6763664489
 30
0.0
 10
11.3550363679
 20
10.6725300793
 30
0.0
 10
11.3551481616
 20
10.6699670839
 30
0.0
 10
11.3551481614
 20
10.668690749
 30
0.0
  0
SPLINE
  5
38A
100
AcDbEntity
  8
0
100
AcDbSpline
 62
7
  6
CONTINUOUS
 70
0
 71
3
 72
23
 73
19
 74
0
 42
0.0000001
 43
0.0000001
 44
0.0000000001
 40
0.0
 40
0.0
 40
0.0
 40
0.0
 40
0.0781370857
 40
0.1532319508
 40
0.2254044596
 40
0.2947997439
 40
0.3615916163
 40
0.4259789877
 40
0.4881875989
 40
0.5484708552
 40
0.6071108481
 40
0.6644178291
 40
0.7207261421
 40
0.7763901376
 40
0.831777592
 40
0.8872622863
 40
0.9432158635
 40
1.0
 40
1.0
 40
1.0
 40
1.0
 10
12.7198310349
 20
8.4643029174
 30
0.0
 10
12.7187981824
 20
8.4633052584
 30
0.0
 10
12.7167330933
 20
8.4613891591
 30
0.0
 10
12.7135734694
 20
8.4587079941
 30
0.0
 10
12.7104159411
 20
8.4562793592
 30
0.0
 10
12.7072619358
 20
8.45410461
 30
0.0
 10
12.7041127608
 20
8.4521847412
 30
0.0
 10
12.7009696107
 20
8.4505207917
 30
0.0
 10
12.6978337941
 20
8.4491136532
 30
0.0
 10
12.6947066467
 20
8.4479642359
 30
0.0
 10
12.6915895646
 20
8.4470734528
 30
0.0
 10
12.688484082
 20
8.4464419485
 30
0.0
 10
12.6853917888
 20
8.4460704088
 30
0.0
 10
12.6823144119
 20
8.4459592343
 30
0.0
 10
12.6792537605
 20
8.4461085731
 30
0.0
 10
12.676211607
 20
8.4465184848
 30
0.0
 10
12.67318997
 20
8.4471884613
 30
0.0
 10
12.6712083944
 20
8.4478025744
 30
0.0
 10
12.6702244966
 20
8.4481504294
 30
0.0
  0
SPLINE
  5
38B
100
AcDbEntity
  8
0
100
AcDbSpline
 62
7
  6
CONTINUOUS
 70
0
 71
3
 72
18
 73
14
 74
0
 42
0.0000001
 43
0.0000001
 44
0.0000000001
 40
0.0
 40
0.0
 40
0.0
 40
0.0
 40
0.0548620589
 40
0.1099280789
 40
0.165399508
 40
0.2214731255
 40
0.2783387361
 40
0.3361775086
 40
0.4554063416
 40
0.5804417492
 40
0.7123343341
 40
0.8519577333
 40
1.0
 40
1.0
 40
1.0
 40
1.0
 10
10.0411481614
 20
10.6686907489
 30
0.0
 10
10.0411481615
 20
10.6696186162
 30
0.0
 10
10.0412070637
 20
10.6714783332
 30
0.0
 10
10.0414718663
 20
10.674264883
 30
0.0
 10
10.0419130533
 20
10.6770498271
 30
0.0
 10
10.0425304791
 20
10.6798321482
 30
0.0
 10
10.0433239044
 20
10.682611144
 30
0.0
 10
10.0446289115
 20
10.6863481483
 30
0.0
 10
10.0467195107
 20
10.6910221402
 30
0.0
 10
10.0499015331
 20
10.6965421425
 30
0.0
 10
10.0537770639
 20
10.7020264152
 30
0.0
 10
10.0583402067
 20
10.7074694541
 30
0.0
 10
10.0617339869
 20
10.7109618251
 30
0.0
 10
10.0635348559
 20
10.7127013312
 30
0.0
  0
SPLINE
  5
38C
100
AcDbEntity
  8
0
100
AcDbSpline
 62
7
  6
CONTINUOUS
 70
0
 71
3
 72
9
 73
5
 74
0
 42
0.0000001
 43
0.0000001
 44
0.0000000001
 40
0.0
 40
0.0
 40
0.0
 40
0.0
 40
0.4862217708
 40
1.0
 40
1.0
 40
1.0
 40
1.0
 10
10.054273172
 20
10.6348951546
 30
0.0
 10
10.0556511668
 20
10.6366525813
 30
0.0
 10
10.0586281809
 20
10.6401564017
 30
0.0
 10
10.0618375434
 20
10.6434470412
 30
0.0
 10
10.0635348559
 20
10.6450865193
 30
0.0
  0
SPLINE
  5
38D
100
AcDbEntity
  8
0
100
AcDbSpline
 62
7
  6
CONTINUOUS
 70
0
 71
3
 72
40
 73
36
 74
0
 42
0.0000001
 43
0.0000001
 44
0.0000000001
 40
0.0
 40
0.0
 40
0.0
 40
0.0
 40
0.0299423158
 40
0.0599090077
 40
0.0899238582
 40
0.1200094809
 40
0.1501867824
 40
0.1804744764
 40
0.2108886621
 40
0.2414424792
 40
0.2721458429
 40
0.3030052641
 40
0.334023754
 40
0.3652008103
 40
0.3965324817
 40
0.428011503
 40
0.4596274957
 40
0.4913672252
 40
0.5232149077
 40
0.5551525588
 40
0.5871603767
 40
0.6192171526
 40
0.651300701
 40
0.6833883044
 40
0.7154571648
 40
0.7474848565
 40
0.7794497737
 40
0.8113315676
 40
0.8431115609
 40
0.8747731558
 40
0.9063021431
 40
0.9376871977
 40
0.953325281
 40
0.9689248703
 40
1.0
 40
1.0
 40
1.0
 40
1.0
 10
10.6684840723
 20
7.508787953
 30
0.0
 10
10.6649836523
 20
7.5054068071
 30
0.0
 10
10.6577075664
 20
7.498917388
 30
0.0
 10
10.646050143
 20
7.4900767037
 30
0.0
 10
10.6337090107
 20
7.4821737079
 30
0.0
 10
10.6207531265
 20
7.4752527343
 30
0.0
 10
10.6072537209
 20
7.4693515934
 30
0.0
 10
10.5932852959
 20
7.4645027237
 30
0.0
 10
10.5789248256
 20
7.4607326552
 30
0.0
 10
10.5642514262
 20
7.4580619708
 30
0.0
 10
10.5493458866
 20
7.4565051773
 30
0.0
 10
10.5342902288
 20
7.4560706445
 30
0.0
 10
10.5191672552
 20
7.4567605674
 30
0.0
 10
10.5040600957
 20
7.4585709655
 30
0.0
 10
10.489051755
 20
7.4614917126
 30
0.0
 10
10.4742246619
 20
7.4655065996
 30
0.0
 10
10.4596602228
 20
7.4705934287
 30
0.0
 10
10.445438381
 20
7.476724139
 30
0.0
 10
10.4316371839
 20
7.4838649623
 30
0.0
 10
10.4183323607
 20
7.491976609
 30
0.0
 10
10.405596912
 20
7.5010144839
 30
0.0
 10
10.3935007147
 20
7.5109289304
 30
0.0
 10
10.3821101434
 20
7.5216655011
 30
0.0
 10
10.3714877097
 20
7.5331652539
 30
0.0
 10
10.3616917234
 20
7.5453650726
 30
0.0
 10
10.3527759753
 20
7.5581980104
 30
0.0
 10
10.3447894444
 20
7.5715936495
 30
0.0
 10
10.3377760312
 20
7.5854784982
 30
0.0
 10
10.3317743193
 20
7.599776332
 30
0.0
 10
10.326817354
 20
7.6144088178
 30
0.0
 10
10.3229325147
 20
7.6292951569
 30
0.0
 10
10.3206034712
 20
7.6418608462
 30
0.0
 10
10.3192969426
 20
7.651957217
 30
0.0
 10
10.3183645074
 20
7.662043929
 30
0.0
 10
10.3180821757
 20
7.6696341083
 30
0.0
 10
10.3180821757
 20
7.6746849652
 30
0.0
  0
SPLINE
  5
38E
100
AcDbEntity
  8
0
100
AcDbSpline
 62
7
  6
CONTINUOUS
 70
0
 71
3
 72
21
 73
17
 74
0
 42
0.0000001
 43
0.0000001
 44
0.0000000001
 40
0.0
 40
0.0
 40
0.0
 40
0.0
 40
0.0617147807
 40
0.1234506636
 40
0.1852285506
 40
0.2470689066
 40
0.3089915473
 40
0.3710154718
 40
0.4331586568
 40
0.495437856
 40
0.5578685007
 40
0.6204644957
 40
0.6832380523
 40
0.7462000242
 40
0.8726823632
 40
1.0
 40
1.0
 40
1.0
 40
1.0
 10
10.375301002
 20
7.8123133841
 30
0.0
 10
10.3730353782
 20
7.8101249597
 30
0.0
 10
10.3686151685
 20
7.8056298744
 30
0.0
 10
10.3623391946
 20
7.7985539565
 30
0.0
 10
10.3564307672
 20
7.791159839
 30
0.0
 10
10.3509037897
 20
7.7834647756
 30
0.0
 10
10.345770911
 20
7.7754864823
 30
0.0
 10
10.3410439537
 20
7.7672433933
 30
0.0
 10
10.3367338467
 20
7.758754494
 30
0.0
 10
10.3328505043
 20
7.7500393811
 30
0.0
 10
10.3294028274
 20
7.7411181531
 30
0.0
 10
10.3263987907
 20
7.7320114363
 30
0.0
 10
10.3238452773
 20
7.722739981
 30
0.0
 10
10.3210452072
 20
7.7101702266
 30
0.0
 10
10.3187024882
 20
7.6941458094
 30
0.0
 10
10.3180821757
 20
7.6811833365
 30
0.0
 10
10.3180821757
 20
7.6746849652
 30
0.0
  0
SPLINE
  5
38F
100
AcDbEntity
  8
0
100
AcDbSpline
 62
7
  6
CONTINUOUS
 70
0
 71
3
 72
44
 73
40
 74
0
 42
0.0000001
 43
0.0000001
 44
0.0000000001
 40
0.0
 40
0.0
 40
0.0
 40
0.0
 40
0.0149722504
 40
0.0299475576
 40
0.0449289656
 40
0.0599194752
 40
0.0899336509
 40
0.1200185962
 40
0.1350971147
 40
0.150200993
 40
0.1804880038
 40
0.2109015036
 40
0.2414546317
 40
0.2721573035
 40
0.3030160297
 40
0.3340338212
 40
0.3652101756
 40
0.3965411416
 40
0.4280194541
 40
0.4596347352
 40
0.4913737507
 40
0.5232207176
 40
0.5551576521
 40
0.5871647534
 40
0.6192208128
 40
0.6513036453
 40
0.6833905334
 40
0.7154586792
 40
0.7314811024
 40
0.747490488
 40
0.7794546928
 40
0.811335776
 40
0.8431150609
 40
0.8747759499
 40
0.9063042323
 40
0.9376885956
 40
0.9533263523
 40
0.9689255432
 40
1.0
 40
1.0
 40
1.0
 40
1.0
 10
11.4958114247
 20
9.9085928706
 30
0.0
 10
11.4940610489
 20
9.9069021281
 30
0.0
 10
11.4904923234
 20
9.903589493
 30
0.0
 10
11.4849454191
 20
9.8988366998
 30
0.0
 10
11.4792116706
 20
9.8943059216
 30
0.0
 10
11.4713261016
 20
9.8885678393
 30
0.0
 10
11.4610364792
 20
9.8819783421
 30
0.0
 10
11.4502466323
 20
9.8762145595
 30
0.0
 10
11.4413478096
 20
9.8721141009
 30
0.0
 10
11.4322651193
 20
9.8683522317
 30
0.0
 10
11.4206124667
 20
9.8643070655
 30
0.0
 10
11.4062523112
 20
9.8605370751
 30
0.0
 10
11.3915788073
 20
9.8578662847
 30
0.0
 10
11.3766732687
 20
9.856309443
 30
0.0
 10
11.3616175771
 20
9.855874856
 30
0.0
 10
11.346494574
 20
9.8565647351
 30
0.0
 10
11.3313873799
 20
9.8583750939
 30
0.0
 10
11.3163790026
 20
9.8612958067
 30
0.0
 10
11.3015518707
 20
9.8653106634
 30
0.0
 10
11.2869873907
 20
9.8703974659
 30
0.0
 10
11.272765506
 20
9.8765281525
 30
0.0
 10
11.2589642638
 20
9.8836689559
 30
0.0
 10
11.245659395
 20
9.8917805851
 30
0.0
 10
11.2329238961
 20
9.9008184538
 30
0.0
 10
11.2208276648
 20
9.9107328783
 30
0.0
 10
11.2094370046
 20
9.9214695158
 30
0.0
 10
11.1988147003
 20
9.932969037
 30
0.0
 10
11.190648196
 20
9.9431395814
 30
0.0
 10
11.1845552207
 20
9.9515933461
 30
0.0
 10
11.1787688134
 20
9.9602394986
 30
0.0
 10
11.1721160722
 20
9.9713978648
 30
0.0
 10
11.1651027968
 20
9.9852824976
 30
0.0
 10
11.1591010176
 20
9.9995804216
 30
0.0
 10
11.1541440445
 20
10.0142129183
 30
0.0
 10
11.1502591841
 20
10.0290992925
 30
0.0
 10
11.1479301328
 20
10.0416650116
 30
0.0
 10
11.1466235956
 20
10.0517614002
 30
0.0
 10
11.1456911571
 20
10.0618481322
 30
0.0
 10
11.1454088244
 20
10.0694383228
 30
0.0
 10
11.1454088244
 20
10.0744891937
 30
0.0
  0
SPLINE
  5
390
100
AcDbEntity
  8
0
100
AcDbSpline
 62
7
  6
CONTINUOUS
 70
0
 71
3
 72
21
 73
17
 74
0
 42
0.0000001
 43
0.0000001
 44
0.0000000001
 40
0.0
 40
0.0
 40
0.0
 40
0.0
 40
0.1273175725
 40
0.2538000026
 40
0.3167619332
 40
0.3795354925
 40
0.4421314982
 40
0.5045621433
 40
0.5668413429
 40
0.6289845306
 40
0.6910084612
 40
0.7529311022
 40
0.8147714553
 40
0.8765493457
 40
0.9382852283
 40
1.0
 40
1.0
 40
1.0
 40
1.0
 10
10.0587422055
 20
7.0105906583
 30
0.0
 10
10.0587422055
 20
7.0170889846
 30
0.0
 10
10.0593625129
 20
7.030051375
 30
0.0
 10
10.061705192
 20
7.0460756919
 30
0.0
 10
10.0645052317
 20
7.0586453712
 30
0.0
 10
10.0670587191
 20
7.0679167678
 30
0.0
 10
10.070062705
 20
7.0770234371
 30
0.0
 10
10.0735103403
 20
7.0859446162
 30
0.0
 10
10.0773936448
 20
7.0946596788
 30
0.0
 10
10.0817036871
 20
7.1031485425
 30
0.0
 10
10.0864305809
 20
7.1113915984
 30
0.0
 10
10.0915634097
 20
7.1193698516
 30
0.0
 10
10.0970903175
 20
7.1270648894
 30
0.0
 10
10.1029986578
 20
7.1344589992
 30
0.0
 10
10.1092745749
 20
7.1415348858
 30
0.0
 10
10.1136947251
 20
7.146029972
 30
0.0
 10
10.115960328
 20
7.1482183883
 30
0.0
  0
SPLINE
  5
391
100
AcDbEntity
  8
0
100
AcDbSpline
 62
7
  6
CONTINUOUS
 70
0
 71
3
 72
89
 73
85
 74
0
 42
0.0000001
 43
0.0000001
 44
0.0000000001
 40
0.0
 40
0.0
 40
0.0
 40
0.0
 40
0.0040523249
 40
0.0082800557
 40
0.0126870713
 40
0.0172766357
 40
0.0220514614
 40
0.0270135953
 40
0.032164365
 40
0.0375046266
 40
0.0430347406
 40
0.0487546863
 40
0.0546640628
 40
0.0607620913
 40
0.0670477327
 40
0.073519604
 40
0.087014987
 40
0.1012329454
 40
0.1161543462
 40
0.1317571056
 40
0.1480165228
 40
0.1649055523
 40
0.1823950297
 40
0.2004538786
 40
0.2190492882
 40
0.2381468709
 40
0.2577108074
 40
0.2777039801
 40
0.2980880985
 40
0.3188238272
 40
0.3398709067
 40
0.361188268
 40
0.3827341465
 40
0.404466193
 40
0.4263415838
 40
0.4703486785
 40
0.5144083299
 40
0.5363492875
 40
0.5581728959
 40
0.5798361023
 40
0.6012962601
 40
0.6225112384
 40
0.6434395328
 40
0.6640403792
 40
0.6842738726
 40
0.7041010824
 40
0.7234841713
 40
0.7423865195
 40
0.7607728553
 40
0.778609395
 40
0.7958640003
 40
0.8125063385
 40
0.828508064
 40
0.8438430291
 40
0.8584875306
 40
0.8724206079
 40
0.8856244154
 40
0.8919484742
 40
0.8980851786
 40
0.9040334286
 40
0.9097923722
 40
0.9153615472
 40
0.9207408276
 40
0.9259305025
 40
0.9309313418
 40
0.9357445775
 40
0.9403720736
 40
0.9448162879
 40
0.9490804422
 40
0.9531685819
 40
0.9570856708
 40
0.9608377822
 40
0.964432143
 40
0.9678773767
 40
0.9711835783
 40
0.9774235928
 40
0.9803901921
 40
0.9832753695
 40
0.9860978509
 40
0.9888777795
 40
0.9916363177
 40
0.9943951655
 40
0.9971760117
 40
1.0
 40
1.0
 40
1.0
 40
1.0
 10
12.7198310349
 20
8.4643029174
 30
0.0
 10
12.7209950582
 20
8.4654272777
 30
0.0
 10
12.7233217584
 20
8.4677787167
 30
0.0
 10
12.7267370685
 20
8.4715231171
 30
0.0
 10
12.7301485732
 20
8.4755563377
 30
0.0
 10
12.7335543608
 20
8.4798760841
 30
0.0
 10
12.7369527751
 20
8.484480148
 30
0.0
 10
12.7403420725
 20
8.4893661966
 30
0.0
 10
12.743720569
 20
8.4945316768
 30
0.0
 10
12.7470864341
 20
8.4999739231
 30
0.0
 10
12.7504379556
 20
8.5056900716
 30
0.0
 10
12.7537733677
 20
8.5116771493
 30
0.0
 10
12.7570909144
 20
8.5179320329
 30
0.0
 10
12.7603888854
 20
8.5244514347
 30
0.0
 10
12.7636655164
 20
8.5312319617
 30
0.0
 10
12.7680651386
 20
8.5407492733
 30
0.0
 10
12.7734887829
 20
8.5532808593
 30
0.0
 10
12.7797975685
 20
8.5690981976
 30
0.0
 10
12.7859809968
 20
8.5858648487
 30
0.0
 10
12.7920259718
 20
8.6035455714
 30
0.0
 10
12.7979196822
 20
8.6221033471
 30
0.0
 10
12.8036496305
 20
8.6414991957
 30
0.0
 10
12.8092036714
 20
8.6616923444
 30
0.0
 10
12.8145700323
 20
8.6826403035
 30
0.0
 10
12.8197373403
 20
8.7042989713
 30
0.0
 10
12.8246946464
 20
8.7266227306
 30
0.0
 10
12.8294314486
 20
8.7495645476
 30
0.0
 10
12.8339377133
 20
8.7730760716
 30
0.0
 10
12.8382039031
 20
8.7971077375
 30
0.0
 10
12.8422209902
 20
8.8216088756
 30
0.0
 10
12.8459804748
 20
8.8465278203
 30
0.0
 10
12.849474406
 20
8.8718120246
 30
0.0
 10
12.8526953862
 20
8.8974081549
 30
0.0
 10
12.8556366319
 20
8.9232622614
 30
0.0
 10
12.8591837892
 20
8.9580732378
 30
0.0
 10
12.8628741994
 20
9.0018295521
 30
0.0
 10
12.8655636259
 20
9.0456849895
 30
0.0
 10
12.8671041338
 20
9.08072611
 30
0.0
 10
12.8679477265
 20
9.106842963
 30
0.0
 10
12.868479403
 20
9.132775952
 30
0.0
 10
12.8686980336
 20
9.1584704181
 30
0.0
 10
12.8686031801
 20
9.1838721555
 30
0.0
 10
12.8681950606
 20
9.2089275913
 30
0.0
 10
12.8674745593
 20
9.2335838832
 30
0.0
 10
12.8664432286
 20
9.2577890382
 30
0.0
 10
12.8651032811
 20
9.2814920223
 30
0.0
 10
12.8634575846
 20
9.3046428683
 30
0.0
 10
12.8615096569
 20
9.327192781
 30
0.0
 10
12.8592636593
 20
9.3490942434
 30
0.0
 10
12.8567243867
 20
9.3703011214
 30
0.0
 10
12.8538972662
 20
9.3907687694
 30
0.0
 10
12.8507883385
 20
9.4104541259
 30
0.0
 10
12.8474042451
 20
9.4293158162
 30
0.0
 10
12.8437522113
 20
9.4473142231
 30
0.0
 10
12.8398400334
 20
9.4644116664
 30
0.0
 10
12.835676036
 20
9.4805722138
 30
0.0
 10
12.831952035
 20
9.493408764
 30
0.0
 10
12.828844105
 20
9.5031763339
 30
0.0
 10
12.8264892578
 20
9.5101414531
 30
0.0
 10
12.8240782796
 20
9.5168480139
 30
0.0
 10
12.8216123546
 20
9.5232925032
 30
0.0
 10
12.8190928279
 20
9.5294715572
 30
0.0
 10
12.8165209983
 20
9.5353819477
 30
0.0
 10
12.813898192
 20
9.5410205881
 30
0.0
 10
12.8112258154
 20
9.5463845615
 30
0.0
 10
12.8085051811
 20
9.5514710604
 30
0.0
 10
12.80573775
 20
9.5562774781
 30
0.0
 10
12.8029248727
 20
9.5608013117
 30
0.0
 10
12.8000679798
 20
9.5650402349
 30
0.0
 10
12.7971684942
 20
9.5689920763
 30
0.0
 10
12.794227781
 20
9.5726547516
 30
0.0
 10
12.7912472714
 20
9.5760264273
 30
0.0
 10
12.78822841
 20
9.5791051783
 30
0.0
 10
12.7851721617
 20
9.5818896727
 30
0.0
 10
12.7811288001
 20
9.5851440812
 30
0.0
 10
12.7769314208
 20
9.5878937553
 30
0.0
 10
12.7726060204
 20
9.5900509433
 30
0.0
 10
12.7693861647
 20
9.5913403398
 30
0.0
 10
12.7661386201
 20
9.5923266151
 30
0.0
 10
12.7628652899
 20
9.5930089081
 30
0.0
 10
12.7595684873
 20
9.5933864964
 30
0.0
 10
12.756250492
 20
9.5934589296
 30
0.0
 10
12.7529140211
 20
9.5932264244
 30
0.0
 10
12.7507004846
 20
9.5928717546
 30
0.0
 10
12.7495954556
 20
9.5926461962
 30
0.0
  0
SPLINE
  5
392
100
AcDbEntity
  8
0
100
AcDbSpline
 62
7
  6
CONTINUOUS
 70
0
 71
3
 72
44
 73
40
 74
0
 42
0.0000001
 43
0.0000001
 44
0.0000000001
 40
0.0
 40
0.0
 40
0.0
 40
0.0
 40
0.0149722504
 40
0.0299475576
 40
0.0449289656
 40
0.0599194752
 40
0.0899336509
 40
0.1200185962
 40
0.1350971147
 40
0.150200993
 40
0.1804880038
 40
0.2109015036
 40
0.2414546317
 40
0.2721573035
 40
0.3030160297
 40
0.3340338212
 40
0.3652101756
 40
0.3965411416
 40
0.4280194541
 40
0.4596347352
 40
0.4913737507
 40
0.5232207176
 40
0.5551576521
 40
0.5871647534
 40
0.6192208128
 40
0.6513036453
 40
0.6833905334
 40
0.7154586792
 40
0.7314811024
 40
0.747490488
 40
0.7794546928
 40
0.811335776
 40
0.8431150609
 40
0.8747759499
 40
0.9063042323
 40
0.9376885956
 40
0.9533263523
 40
0.9689255432
 40
1.0
 40
1.0
 40
1.0
 40
1.0
 10
10.4091448058
 20
6.8446943351
 30
0.0
 10
10.4073944299
 20
6.8430035927
 30
0.0
 10
10.4038257044
 20
6.8396909575
 30
0.0
 10
10.3982788001
 20
6.8349381643
 30
0.0
 10
10.3925450516
 20
6.8304073862
 30
0.0
 10
10.3846594826
 20
6.8246693039
 30
0.0
 10
10.3743698603
 20
6.8180798066
 30
0.0
 10
10.3635800133
 20
6.812316024
 30
0.0
 10
10.3546811906
 20
6.8082155655
 30
0.0
 10
10.3455985003
 20
6.8044536963
 30
0.0
 10
10.3339458478
 20
6.80040853
 30
0.0
 10
10.3195856923
 20
6.7966385396
 30
0.0
 10
10.3049121883
 20
6.7939677492
 30
0.0
 10
10.2900066497
 20
6.7924109076
 30
0.0
 10
10.2749509581
 20
6.7919763206
 30
0.0
 10
10.2598279551
 20
6.7926661996
 30
0.0
 10
10.2447207609
 20
6.7944765584
 30
0.0
 10
10.2297123837
 20
6.7973972713
 30
0.0
 10
10.2148852517
 20
6.801412128
 30
0.0
 10
10.2003207718
 20
6.8064989304
 30
0.0
 10
10.1860988871
 20
6.8126296171
 30
0.0
 10
10.1722976448
 20
6.8197704204
 30
0.0
 10
10.158992776
 20
6.8278820497
 30
0.0
 10
10.1462572771
 20
6.8369199183
 30
0.0
 10
10.1341610458
 20
6.8468343429
 30
0.0
 10
10.1227703856
 20
6.8575709804
 30
0.0
 10
10.1121480814
 20
6.8690705016
 30
0.0
 10
10.103981577
 20
6.879241046
 30
0.0
 10
10.0978886017
 20
6.8876948106
 30
0.0
 10
10.0921021944
 20
6.8963409631
 30
0.0
 10
10.0854494532
 20
6.9074993293
 30
0.0
 10
10.0784361779
 20
6.9213839621
 30
0.0
 10
10.0724343987
 20
6.9356818861
 30
0.0
 10
10.0674774255
 20
6.9503143829
 30
0.0
 10
10.0635925652
 20
6.965200757
 30
0.0
 10
10.0612635138
 20
6.9777664762
 30
0.0
 10
10.0599569766
 20
6.9878628647
 30
0.0
 10
10.0590245382
 20
6.9979495967
 30
0.0
 10
10.0587422055
 20
7.0055397874
 30
0.0
 10
10.0587422055
 20
7.0105906583
 30
0.0
  0
SPLINE
  5
393
100
AcDbEntity
  8
0
100
AcDbSpline
 62
7
  6
CONTINUOUS
 70
0
 71
3
 72
51
 73
47
 74
0
 42
0.0000001
 43
0.0000001
 44
0.0000000001
 40
0.0
 40
0.0
 40
0.0
 40
0.0
 40
0.0060458445
 40
0.0122610369
 40
0.0186764003
 40
0.0253195698
 40
0.0322150772
 40
0.0393843911
 40
0.0468461371
 40
0.0546163423
 40
0.0627086095
 40
0.0711344795
 40
0.0799035084
 40
0.0890236407
 40
0.0985012564
 40
0.1083414392
 40
0.1185480849
 40
0.1291240011
 40
0.1400711127
 40
0.1513904124
 40
0.1630822193
 40
0.1751460757
 40
0.1875809568
 40
0.2003852304
 40
0.213556733
 40
0.2270928522
 40
0.2552453644
 40
0.2848140196
 40
0.3157633667
 40
0.3480527862
 40
0.3816370461
 40
0.416466759
 40
0.4524887759
 40
0.489646528
 40
0.5278803257
 40
0.5671276279
 40
0.6073232887
 40
0.6483997875
 40
0.6902874449
 40
0.7329146264
 40
0.7762079567
 40
0.8200924635
 40
0.8644919585
 40
0.9093286314
 40
0.9545247649
 40
1.0
 40
1.0
 40
1.0
 40
1.0
 10
12.6794934104
 20
8.2159199056
 30
0.0
 10
12.6809917588
 20
8.2162665368
 30
0.0
 10
12.6840031838
 20
8.2170926277
 30
0.0
 10
12.6884800613
 20
8.2186946864
 30
0.0
 10
12.69297004
 20
8.220673667
 30
0.0
 10
12.6974707703
 20
8.223028035
 30
0.0
 10
12.7019804022
 20
8.2257564483
 30
0.0
 10
12.7064970291
 20
8.2288573486
 30
0.0
 10
12.7110187757
 20
8.2323291285
 30
0.0
 10
12.7155437042
 20
8.2361701001
 30
0.0
 10
12.7200699387
 20
8.2403783735
 30
0.0
 10
12.7245954548
 20
8.24495203
 30
0.0
 10
12.7291183384
 20
8.2498888853
 30
0.0
 10
12.7336365192
 20
8.255186704
 30
0.0
 10
12.7381480114
 20
8.2608430094
 30
0.0
 10
12.7426507514
 20
8.2668552058
 30
0.0
 10
12.7471426746
 20
8.2732205185
 30
0.0
 10
12.7516217493
 20
8.279935988
 30
0.0
 10
12.7560858548
 20
8.2869985272
 30
0.0
 10
12.7605329832
 20
8.2944048306
 30
0.0
 10
12.7649610038
 20
8.3021514819
 30
0.0
 10
12.7693679035
 20
8.310234854
 30
0.0
 10
12.7737515909
 20
8.3186511936
 30
0.0
 10
12.77811002
 20
8.3273965663
 30
0.0
 10
12.7824411868
 20
8.3364668954
 30
0.0
 10
12.7882530962
 20
8.3491547316
 30
0.0
 10
12.7954233047
 20
8.3658054715
 30
0.0
 10
12.8037781051
 20
8.3867593761
 30
0.0
 10
12.8119765371
 20
8.4089005241
 30
0.0
 10
12.8200031402
 20
8.4321874643
 30
0.0
 10
12.8278427817
 20
8.4565767644
 30
0.0
 10
12.8354806739
 20
8.4820228025
 30
0.0
 10
12.8429024103
 20
8.5084779512
 30
0.0
 10
12.8500939919
 20
8.5358926521
 30
0.0
 10
12.8570418565
 20
8.5642155224
 30
0.0
 10
12.8637329037
 20
8.5933934546
 30
0.0
 10
12.8701545201
 20
8.6233717202
 30
0.0
 10
12.8762946027
 20
8.6540940751
 30
0.0
 10
12.8821415809
 20
8.6855028662
 30
0.0
 10
12.8876844424
 20
8.7175391435
 30
0.0
 10
12.8929127457
 20
8.7501427627
 30
0.0
 10
12.8978166563
 20
8.7832525384
 30
0.0
 10
12.9023869208
 20
8.8168062435
 30
0.0
 10
12.9066149812
 20
8.8507410266
 30
0.0
 10
12.9104928218
 20
8.8849929568
 30
0.0
 10
12.9128339068
 20
8.9079390607
 30
0.0
 10
12.9139451585
 20
8.9194533948
 30
0.0
  0
SPLINE
  5
394
100
AcDbEntity
  8
0
100
AcDbSpline
 62
7
  6
CONTINUOUS
 70
0
 71
3
 72
41
 73
37
 74
0
 42
0.0000001
 43
0.0000001
 44
0.0000000001
 40
0.0
 40
0.0
 40
0.0
 40
0.0
 40
0.0077464617
 40
0.0155169813
 40
0.0233353842
 40
0.031225009
 40
0.0392085129
 40
0.0473077097
 40
0.0639299763
 40
0.0812499768
 40
0.099400385
 40
0.1184940753
 40
0.1386250614
 40
0.1598705402
 40
0.1822926717
 40
0.2059408052
 40
0.2308532388
 40
0.2570587702
 40
0.2845782825
 40
0.3134255801
 40
0.3436086809
 40
0.3751303278
 40
0.4079887853
 40
0.4421783948
 40
0.4776898408
 40
0.5145108176
 40
0.5526259982
 40
0.5920176035
 40
0.6326654433
 40
0.674547106
 40
0.7176382797
 40
0.7619127688
 40
0.8073426614
 40
0.8538978984
 40
0.9015480703
 40
1.0
 40
1.0
 40
1.0
 40
1.0
 10
12.8065720922
 20
9.8226330625
 30
0.0
 10
12.8075390636
 20
9.8225660039
 30
0.0
 10
12.8094725945
 20
9.822375743
 30
0.0
 10
12.8123587064
 20
9.8219229637
 30
0.0
 10
12.8152319196
 20
9.8213027057
 30
0.0
 10
12.8180914303
 20
9.8205152139
 30
0.0
 10
12.8209366962
 20
9.8195606716
 30
0.0
 10
12.8247428247
 20
9.8180528188
 30
0.0
 10
12.8294752092
 20
9.815733257
 30
0.0
 10
12.8350325938
 20
9.8123099798
 30
0.0
 10
12.8405148672
 20
9.8082271891
 30
0.0
 10
12.8459179138
 20
9.8034894894
 30
0.0
 10
12.85123852
 20
9.7981014564
 30
0.0
 10
12.8564731102
 20
9.7920677544
 30
0.0
 10
12.8616181927
 20
9.7853934294
 30
0.0
 10
12.8666700842
 20
9.7780838599
 30
0.0
 10
12.8716250406
 20
9.7701449002
 30
0.0
 10
12.8764793248
 20
9.7615829251
 30
0.0
 10
12.8812290811
 20
9.7524047871
 30
0.0
 10
12.8858705954
 20
9.742617918
 30
0.0
 10
12.8904000716
 20
9.7322302345
 30
0.0
 10
12.8948138486
 20
9.7212502041
 30
0.0
 10
12.8991083077
 20
9.7096867978
 30
0.0
 10
12.9032798794
 20
9.6975494882
 30
0.0
 10
12.9073251595
 20
9.6848482554
 30
0.0
 10
12.911240738
 20
9.6715935475
 30
0.0
 10
12.9150234074
 20
9.6577963004
 30
0.0
 10
12.9186699915
 20
9.6434679007
 30
0.0
 10
12.9221774565
 20
9.6286201919
 30
0.0
 10
12.9255428983
 20
9.6132654588
 30
0.0
 10
12.9287634767
 20
9.5974164009
 30
0.0
 10
12.9318365483
 20
9.5810861341
 30
0.0
 10
12.9347594927
 20
9.5642882446
 30
0.0
 10
12.9375299495
 20
9.5470365932
 30
0.0
 10
12.941055733
 20
9.5231886838
 30
0.0
 10
12.943403586
 20
9.5050565773
 30
0.0
 10
12.9448547875
 20
9.4928233288
 30
0.0
  0
SPLINE
  5
395
100
AcDbEntity
  8
0
100
AcDbSpline
 62
7
  6
CONTINUOUS
 70
0
 71
3
 72
55
 73
51
 74
0
 42
0.0000001
 43
0.0000001
 44
0.0000000001
 40
0.0
 40
0.0
 40
0.0
 40
0.0
 40
0.0094795518
 40
0.0194667834
 40
0.0299598126
 40
0.0409546518
 40
0.0524454519
 40
0.0644248164
 40
0.0768838878
 40
0.089812518
 40
0.1031994446
 40
0.1170322955
 40
0.1312977557
 40
0.1459816338
 40
0.1610688697
 40
0.1765436816
 40
0.1923895625
 40
0.2085893294
 40
0.241978323
 40
0.2765624711
 40
0.3121851601
 40
0.3486832036
 40
0.3858879801
 40
0.4236265552
 40
0.4617227832
 40
0.4999983802
 40
0.5382739916
 40
0.5763702649
 40
0.6141089147
 40
0.6513137892
 40
0.6878119599
 40
0.7234348112
 40
0.7580191451
 40
0.791408338
 40
0.8076082277
 40
0.823454216
 40
0.8389291579
 40
0.8540165267
 40
0.8687005272
 40
0.8829661404
 40
0.8967991292
 40
0.9101861969
 40
0.9231149943
 40
0.9355742074
 40
0.9475537338
 40
0.9590447037
 40
0.97003969
 40
0.9805328971
 40
0.9905202962
 40
1.0
 40
1.0
 40
1.0
 40
1.0
 10
12.6099072368
 20
8.5392152838
 30
0.0
 10
12.6115697084
 20
8.5418775443
 30
0.0
 10
12.6148772701
 20
8.5474116242
 30
0.0
 10
12.61967382
 20
8.5560964781
 30
0.0
 10
12.6244293245
 20
8.5653714027
 30
0.0
 10
12.6291377683
 20
8.5752248321
 30
0.0
 10
12.6337933587
 20
8.5856446453
 30
0.0
 10
12.6383902451
 20
8.5966179463
 30
0.0
 10
12.6429226907
 20
8.6081311287
 30
0.0
 10
12.6473850401
 20
8.6201698853
 30
0.0
 10
12.6517716687
 20
8.6327192516
 30
0.0
 10
12.6560771062
 20
8.6457635956
 30
0.0
 10
12.660295952
 20
8.6592866642
 30
0.0
 10
12.6644228948
 20
8.6732716008
 30
0.0
 10
12.6684527936
 20
8.6877009551
 30
0.0
 10
12.6723805682
 20
8.7025567193
 30
0.0
 10
12.6762013223
 20
8.7178203651
 30
0.0
 10
12.6811967909
 20
8.7389026399
 30
0.0
 10
12.6871263253
 20
8.7661372435
 30
0.0
 10
12.6936732629
 20
8.799810076
 30
0.0
 10
12.6996882793
 20
8.8346270131
 30
0.0
 10
12.7051411272
 20
8.8704141628
 30
0.0
 10
12.710004379
 20
8.9069929345
 30
0.0
 10
12.7142536159
 20
8.9441806712
 30
0.0
 10
12.7178675152
 20
8.9817916599
 30
0.0
 10
12.7208279599
 20
9.0196380484
 30
0.0
 10
12.7231201472
 20
9.0575307967
 30
0.0
 10
12.724732653
 20
9.0952806301
 30
0.0
 10
12.7256574795
 20
9.1326989929
 30
0.0
 10
12.7258900987
 20
9.1695990061
 30
0.0
 10
12.7254294969
 20
9.2057963923
 30
0.0
 10
12.7242781902
 20
9.2411104849
 30
0.0
 10
12.722442127
 20
9.2753648767
 30
0.0
 10
12.720328803
 20
9.3031574339
 30
0.0
 10
12.7182913711
 20
9.3247275997
 30
0.0
 10
12.716614173
 20
9.3403726566
 30
0.0
 10
12.714774698
 20
9.3556285158
 30
0.0
 10
12.7127752122
 20
9.3704761497
 30
0.0
 10
12.7106182452
 20
9.3848970214
 30
0.0
 10
12.7083065307
 20
9.3988731402
 30
0.0
 10
12.7058429478
 20
9.4123870735
 30
0.0
 10
12.7032306234
 20
9.4254219801
 30
0.0
 10
12.7004728459
 20
9.4379616257
 30
0.0
 10
12.6975730584
 20
9.4499904046
 30
0.0
 10
12.6945349434
 20
9.461493373
 30
0.0
 10
12.6913622904
 20
9.4724562616
 30
0.0
 10
12.6880590747
 20
9.4828654813
 30
0.0
 10
12.6846294334
 20
9.4927082454
 30
0.0
 10
12.681077659
 20
9.5019722482
 30
0.0
 10
12.6785656912
 20
9.507910041
 30
0.0
 10
12.6772866365
 20
9.5107763589
 30
0.0
  0
SPLINE
  5
396
100
AcDbEntity
  8
0
100
AcDbSpline
 62
7
  6
CONTINUOUS
 70
0
 71
3
 72
43
 73
39
 74
0
 42
0.0000001
 43
0.0000001
 44
0.0000000001
 40
0.0
 40
0.0
 40
0.0
 40
0.0
 40
0.0115627088
 40
0.0234841412
 40
0.0357575093
 40
0.0483755319
 40
0.0746131214
 40
0.1021294075
 40
0.1308494588
 40
0.1606923873
 40
0.1915720245
 40
0.2233975216
 40
0.2560738967
 40
0.2895025469
 40
0.3235817335
 40
0.3582070519
 40
0.3932718879
 40
0.4286678674
 40
0.4642853
 40
0.5000136194
 40
0.5357418223
 40
0.5713589059
 40
0.6067543053
 40
0.6418183324
 40
0.6764426162
 40
0.7105205468
 40
0.7439477246
 40
0.7766224172
 40
0.8084460284
 40
0.8393235848
 40
0.8691642465
 40
0.8978818556
 40
0.9253955359
 40
0.9516303692
 40
0.9642469463
 40
0.9765188684
 40
0.9884387926
 40
1.0
 40
1.0
 40
1.0
 40
1.0
 10
12.5875982755
 20
8.6373389575
 30
0.0
 10
12.5887481561
 20
8.640158642
 30
0.0
 10
12.5910320657
 20
8.6459066243
 30
0.0
 10
12.5943633263
 20
8.6547151684
 30
0.0
 10
12.5976502541
 20
8.663836352
 30
0.0
 10
12.6020270084
 20
8.6765708604
 30
0.0
 10
12.6073557864
 20
8.6932208144
 30
0.0
 10
12.6134509243
 20
8.7140703716
 30
0.0
 10
12.6193066869
 20
8.7359726622
 30
0.0
 10
12.6249035442
 20
8.7588552427
 30
0.0
 10
12.6302228199
 20
8.782642555
 30
0.0
 10
12.6352467784
 20
8.8072559355
 30
0.0
 10
12.6399586768
 20
8.8326139616
 30
0.0
 10
12.644342821
 20
8.8586327098
 30
0.0
 10
12.6483846164
 20
8.8852260469
 30
0.0
 10
12.6520706151
 20
8.9123059183
 30
0.0
 10
12.6553885597
 20
8.9397826449
 30
0.0
 10
12.6583274234
 20
8.967565223
 30
0.0
 10
12.6608774453
 20
8.9955616287
 30
0.0
 10
12.6630301634
 20
9.0236791249
 30
0.0
 10
12.6647784414
 20
9.0518245709
 30
0.0
 10
12.6661164931
 20
9.0799047326
 30
0.0
 10
12.6670399018
 20
9.1078265934
 30
0.0
 10
12.6675456346
 20
9.1354976643
 30
0.0
 10
12.6676320543
 20
9.162826293
 30
0.0
 10
12.6672989247
 20
9.1897219693
 30
0.0
 10
12.6665474131
 20
9.2160956288
 30
0.0
 10
12.6653800879
 20
9.2418599522
 30
0.0
 10
12.6638009113
 20
9.2669296575
 30
0.0
 10
12.6618152297
 20
9.2912217957
 30
0.0
 10
12.6594297527
 20
9.3146560138
 30
0.0
 10
12.6566525526
 20
9.3371549055
 30
0.0
 10
12.6534929697
 20
9.3586440307
 30
0.0
 10
12.6505128607
 20
9.3758682332
 30
0.0
 10
12.6479352995
 20
9.3890833687
 30
0.0
 10
12.6459385432
 20
9.398569695
 30
0.0
 10
12.6438546936
 20
9.4077524626
 30
0.0
 10
12.6423858427
 20
9.4137598094
 30
0.0
 10
12.6416360708
 20
9.416710789
 30
0.0
  0
SPLINE
  5
397
100
AcDbEntity
  8
0
100
AcDbSpline
 62
7
  6
CONTINUOUS
 70
0
 71
3
 72
67
 73
63
 74
0
 42
0.0000001
 43
0.0000001
 44
0.0000000001
 40
0.0
 40
0.0
 40
0.0
 40
0.0
 40
0.0155846213
 40
0.0311170668
 40
0.0465968192
 40
0.0620259865
 40
0.0774060849
 40
0.0927394311
 40
0.1080287937
 40
0.1232773619
 40
0.1384887615
 40
0.1536669979
 40
0.1688164255
 40
0.1839417028
 40
0.199047742
 40
0.2141396589
 40
0.2292227208
 40
0.2443022904
 40
0.2593837676
 40
0.2744725309
 40
0.2895738804
 40
0.3046929831
 40
0.319834818
 40
0.3350041228
 40
0.3502053439
 40
0.3654425945
 40
0.3807196143
 40
0.3960397325
 40
0.4114058354
 40
0.426820342
 40
0.4422851868
 40
0.4578018036
 40
0.4733711146
 40
0.4889935259
 40
0.5046689328
 40
0.520396725
 40
0.5361757955
 40
0.5520045539
 40
0.5678809505
 40
0.5838024983
 40
0.599766298
 40
0.6157690657
 40
0.6318071682
 40
0.6478766587
 40
0.663973312
 40
0.6800926609
 40
0.7123721235
 40
0.7446846192
 40
0.7769900058
 40
0.8092483936
 40
0.8253521889
 40
0.8414301118
 40
0.8574778627
 40
0.8734914072
 40
0.889467014
 40
0.9054013002
 40
0.9212912382
 40
0.9371342307
 40
0.9529281326
 40
0.9686709488
 40
0.9843622542
 40
1.0
 40
1.0
 40
1.0
 40
1.0
 10
10.7744932852
 20
7.6245442693
 30
0.0
 10
10.7744932852
 20
7.6201269413
 30
0.0
 10
10.7742770877
 20
7.6113055086
 30
0.0
 10
10.7733012766
 20
7.5981289651
 30
0.0
 10
10.7716766134
 20
7.58506062
 30
0.0
 10
10.7694071787
 20
7.5721325683
 30
0.0
 10
10.7664982634
 20
7.5593757094
 30
0.0
 10
10.7629569008
 20
7.54682088
 30
0.0
 10
10.7587916082
 20
7.5344983238
 30
0.0
 10
10.7540123901
 20
7.5224377555
 30
0.0
 10
10.7486307272
 20
7.5106682698
 30
0.0
 10
10.7426595685
 20
7.4992182572
 30
0.0
 10
10.7361133122
 20
7.4881153274
 30
0.0
 10
10.7290077276
 20
7.4773862631
 30
0.0
 10
10.7213599252
 20
7.4670569561
 30
0.0
 10
10.7131883278
 20
7.4571523381
 30
0.0
 10
10.7045126587
 20
7.4476962888
 30
0.0
 10
10.6953538425
 20
7.4387116152
 30
0.0
 10
10.6857339644
 20
7.4302199936
 30
0.0
 10
10.6756762148
 20
7.4222419228
 30
0.0
 10
10.6652048727
 20
7.4147966239
 30
0.0
 10
10.6543452057
 20
7.4079020354
 30
0.0
 10
10.6431234098
 20
7.4015747734
 30
0.0
 10
10.6315665449
 20
7.3958301017
 30
0.0
 10
10.6197024949
 20
7.3906818453
 30
0.0
 10
10.6075598828
 20
7.3861423777
 30
0.0
 10
10.5951679907
 20
7.3822226169
 30
0.0
 10
10.5825566936
 20
7.3789320021
 30
0.0
 10
10.5697563975
 20
7.3762784407
 30
0.0
 10
10.5567979644
 20
7.3742682734
 30
0.0
 10
10.5437126253
 20
7.3729063096
 30
0.0
 10
10.5305319105
 20
7.3721958099
 30
0.0
 10
10.5172875786
 20
7.3721384715
 30
0.0
 10
10.5040115371
 20
7.3727343752
 30
0.0
 10
10.4907357624
 20
7.3739820484
 30
0.0
 10
10.4774922261
 20
7.3758784613
 30
0.0
 10
10.4643128235
 20
7.3784190415
 30
0.0
 10
10.4512292861
 20
7.3815976251
 30
0.0
 10
10.4382731096
 20
7.3854065215
 30
0.0
 10
10.425475483
 20
7.3898365383
 30
0.0
 10
10.4128672182
 20
7.3948770106
 30
0.0
 10
10.4004786682
 20
7.4005157736
 30
0.0
 10
10.3883396233
 20
7.4067392359
 30
0.0
 10
10.3764793733
 20
7.4135323358
 30
0.0
 10
10.3649261891
 20
7.4208789677
 30
0.0
 10
10.3499642162
 20
7.4313916733
 30
0.0
 10
10.3321697707
 20
7.4458248223
 30
0.0
 10
10.3124854107
 20
7.4650318569
 30
0.0
 10
10.2946430161
 20
7.4859532726
 30
0.0
 10
10.2814420105
 20
7.5046649617
 30
0.0
 10
10.2719658536
 20
7.5202856912
 30
0.0
 10
10.2654203468
 20
7.532292826
 30
0.0
 10
10.2594496523
 20
7.5445671728
 30
0.0
 10
10.2540679514
 20
7.5570794945
 30
0.0
 10
10.2492882743
 20
7.5697995937
 30
0.0
 10
10.2451221164
 20
7.5826968668
 30
0.0
 10
10.2415795261
 20
7.5957402612
 30
0.0
 10
10.2386690666
 20
7.6088984034
 30
0.0
 10
10.2363978255
 20
7.6221395274
 30
0.0
 10
10.2347711561
 20
7.6354320153
 30
0.0
 10
10.2337932002
 20
7.6487432477
 30
0.0
 10
10.2335747904
 20
7.6576247086
 30
0.0
 10
10.2335747904
 20
7.6620570943
 30
0.0
  0
SPLINE
  5
398
100
AcDbEntity
  8
0
100
AcDbSpline
 62
7
  6
CONTINUOUS
 70
0
 71
3
 72
79
 73
75
 74
0
 42
0.0000001
 43
0.0000001
 44
0.0000000001
 40
0.0
 40
0.0
 40
0.0
 40
0.0
 40
0.0069315574
 40
0.0105986767
 40
0.0144066877
 40
0.0183600657
 40
0.022462566
 40
0.026717331
 40
0.0311268813
 40
0.0356932613
 40
0.0404180349
 40
0.0453023372
 40
0.0503469664
 40
0.0555523326
 40
0.060918574
 40
0.06644554
 40
0.0721328008
 40
0.0839850491
 40
0.0964680903
 40
0.1095712258
 40
0.1232811587
 40
0.1375823026
 40
0.1524570208
 40
0.1678858364
 40
0.1838476189
 40
0.2003197345
 40
0.2172781737
 40
0.2346976581
 40
0.252551756
 40
0.2708129854
 40
0.2894529036
 40
0.308442189
 40
0.327750719
 40
0.3473476593
 40
0.3672015419
 40
0.3872803383
 40
0.4075515304
 40
0.4485384014
 40
0.4898957113
 40
0.531353215
 40
0.572639826
 40
0.6134858936
 40
0.6336607498
 40
0.6536261848
 40
0.6733499231
 40
0.6928002158
 40
0.711945919
 40
0.7307565654
 40
0.7492024402
 40
0.7672546618
 40
0.7848852768
 40
0.8020673462
 40
0.818775033
 40
0.8349837026
 40
0.8506700379
 40
0.8658121762
 40
0.8803898387
 40
0.8943844882
 40
0.90777952
 40
0.9205605005
 40
0.9327154537
 40
0.944235197
 40
0.949755112
 40
0.9551143006
 40
0.9603126017
 40
0.9653501843
 40
0.9702274804
 40
0.9749452775
 40
0.9795047293
 40
0.9839073988
 40
0.9881554274
 40
0.9922514367
 40
0.9961984568
 40
1.0
 40
1.0
 40
1.0
 40
1.0
 10
11.3420638879
 20
10.6348431395
 30
0.0
 10
11.3401743136
 20
10.6372568867
 30
0.0
 10
11.3370840284
 20
10.6407937899
 30
0.0
 10
11.332584042
 20
10.6453053295
 30
0.0
 10
11.3288676925
 20
10.6487329939
 30
0.0
 10
11.3248755767
 20
10.6521392378
 30
0.0
 10
11.3206091603
 20
10.6555229296
 30
0.0
 10
11.3160703305
 20
10.6588825303
 30
0.0
 10
11.3112610622
 20
10.6622167048
 30
0.0
 10
11.3061834118
 20
10.6655239882
 30
0.0
 10
11.3008395782
 20
10.6688029753
 30
0.0
 10
11.2952318859
 20
10.6720522862
 30
0.0
 10
11.2893627407
 20
10.675270464
 30
0.0
 10
11.2832347114
 20
10.6784561698
 30
0.0
 10
11.2768504496
 20
10.6816079831
 30
0.0
 10
11.2702127226
 20
10.6847245536
 30
0.0
 10
11.2608998845
 20
10.6888885391
 30
0.0
 10
11.2486370498
 20
10.6939852677
 30
0.0
 10
11.2331545056
 20
10.699858295
 30
0.0
 10
11.2167356934
 20
10.7055591904
 30
0.0
 10
11.1994092626
 20
10.7110779375
 30
0.0
 10
11.1812052779
 20
10.7164048268
 30
0.0
 10
11.1621554646
 20
10.7215304777
 30
0.0
 10
11.1422930552
 20
10.7264458647
 30
0.0
 10
11.1216527382
 20
10.7311423239
 30
0.0
 10
11.1002705828
 20
10.7356115758
 30
0.0
 10
11.078183979
 20
10.739845736
 30
0.0
 10
11.0554315724
 20
10.7438373469
 30
0.0
 10
11.0320531899
 20
10.7475793782
 30
0.0
 10
11.0080897616
 20
10.751065237
 30
0.0
 10
10.9835832479
 20
10.7542887802
 30
0.0
 10
10.9585765701
 20
10.7572443261
 30
0.0
 10
10.9331135361
 20
10.7599266763
 30
0.0
 10
10.9072387544
 20
10.7623311116
 30
0.0
 10
10.8809975682
 20
10.7644533921
 30
0.0
 10
10.8544359167
 20
10.7662898032
 30
0.0
 10
10.8185246592
 20
10.768360287
 30
0.0
 10
10.7731777377
 20
10.7702067208
 30
0.0
 10
10.7184334407
 20
10.7712369543
 30
0.0
 10
10.6635469445
 20
10.7710822136
 30
0.0
 10
10.6089028625
 20
10.7697436207
 30
0.0
 10
10.5637033292
 20
10.7676411191
 30
0.0
 10
10.5279596854
 20
10.7653671888
 30
0.0
 10
10.501559507
 20
10.763381129
 30
0.0
 10
10.4755038677
 20
10.7611110882
 30
0.0
 10
10.4498383829
 20
10.7585610341
 30
0.0
 10
10.4246080262
 20
10.7557354687
 30
0.0
 10
10.3998569921
 20
10.7526393657
 30
0.0
 10
10.3756286371
 20
10.749278177
 30
0.0
 10
10.3519653959
 20
10.7456578164
 30
0.0
 10
10.3289087016
 20
10.7417846644
 30
0.0
 10
10.3064989116
 20
10.7376655495
 30
0.0
 10
10.2847752412
 20
10.7333077308
 30
0.0
 10
10.2637756937
 20
10.7287188868
 30
0.0
 10
10.2435369859
 20
10.7239071003
 30
0.0
 10
10.2240944717
 20
10.7188808589
 30
0.0
 10
10.2054820824
 20
10.713649023
 30
0.0
 10
10.1877322593
 20
10.7082208084
 30
0.0
 10
10.1708759147
 20
10.7026057653
 30
0.0
 10
10.1549422621
 20
10.6968137515
 30
0.0
 10
10.139959076
 20
10.6908549421
 30
0.0
 10
10.1281238459
 20
10.6856880511
 30
0.0
 10
10.1191603938
 20
10.6814704162
 30
0.0
 10
10.1127873072
 20
10.6783170798
 30
0.0
 10
10.1066705888
 20
10.6751299192
 30
0.0
 10
10.1008128618
 20
10.6719103419
 30
0.0
 10
10.0952166889
 20
10.6686597026
 30
0.0
 10
10.0898844964
 20
10.6653794276
 30
0.0
 10
10.0848185868
 20
10.6620709632
 30
0.0
 10
10.0800211583
 20
10.6587356588
 30
0.0
 10
10.0754942171
 20
10.655374947
 30
0.0
 10
10.071239718
 20
10.6519901634
 30
0.0
 10
10.0672596898
 20
10.6485829342
 30
0.0
 10
10.0647440574
 20
10.6462545183
 30
0.0
 10
10.0635348559
 20
10.6450865193
 30
0.0
  0
SPLINE
  5
399
100
AcDbEntity
  8
0
100
AcDbSpline
 62
7
  6
CONTINUOUS
 70
0
 71
3
 72
54
 73
50
 74
0
 42
0.0000001
 43
0.0000001
 44
0.0000000001
 40
0.0
 40
0.0
 40
0.0
 40
0.0
 40
0.0099472337
 40
0.0203698704
 40
0.0312644864
 40
0.0426260491
 40
0.0544480896
 40
0.0667227976
 40
0.0794412503
 40
0.0925934343
 40
0.1061683672
 40
0.1201542188
 40
0.1345382898
 40
0.1493071622
 40
0.1644467127
 40
0.1799421393
 40
0.1957780755
 40
0.2119385556
 40
0.2451662193
 40
0.2794882552
 40
0.3147604925
 40
0.3508330981
 40
0.3875515635
 40
0.424757678
 40
0.4622904654
 40
0.4999871083
 40
0.5376838689
 40
0.5752170109
 40
0.6124237148
 40
0.6491429955
 40
0.6852166394
 40
0.7204901413
 40
0.7548136583
 40
0.7880429977
 40
0.8200406729
 40
0.8355371161
 40
0.8506777018
 40
0.8654476672
 40
0.8798328731
 40
0.8938198766
 40
0.9073960261
 40
0.9205494374
 40
0.9332691503
 40
0.9455451651
 40
0.9573685051
 40
0.9687314146
 40
0.9796273864
 40
0.9900513765
 40
1.0
 40
1.0
 40
1.0
 40
1.0
 10
11.1774439653
 20
10.5524432501
 30
0.0
 10
11.1745450543
 20
10.5538889378
 30
0.0
 10
11.1685579462
 20
10.5567484948
 30
0.0
 10
11.1592410033
 20
10.5608576283
 30
0.0
 10
11.1493879443
 20
10.5648824088
 30
0.0
 10
11.1390102443
 20
10.5688180939
 30
0.0
 10
11.1281198263
 20
10.5726601046
 30
0.0
 10
11.1167292957
 20
10.5764039975
 30
0.0
 10
11.1048518258
 20
10.5800453738
 30
0.0
 10
11.0925011833
 20
10.5835799934
 30
0.0
 10
11.0796916947
 20
10.5870037428
 30
0.0
 10
11.0664382234
 20
10.5903125883
 30
0.0
 10
11.052756166
 20
10.5935026956
 30
0.0
 10
11.0386614189
 20
10.5965703217
 30
0.0
 10
11.0241703628
 20
10.5995118733
 30
0.0
 10
11.0092998532
 20
10.6023239339
 30
0.0
 10
10.9940671643
 20
10.6050032105
 30
0.0
 10
10.9731035509
 20
10.6084259694
 30
0.0
 10
10.9461222955
 20
10.6123388411
 30
0.0
 10
10.9128843023
 20
10.6164169246
 30
0.0
 10
10.8786474572
 20
10.6199006838
 30
0.0
 10
10.8435710575
 20
10.6227737469
 30
0.0
 10
10.8078181659
 20
10.6250225914
 30
0.0
 10
10.7715550826
 20
10.6266366428
 30
0.0
 10
10.7349504897
 20
10.6276083078
 30
0.0
 10
10.6981746782
 20
10.6279330124
 30
0.0
 10
10.661398743
 20
10.627609237
 30
0.0
 10
10.6247937797
 20
10.6266385057
 30
0.0
 10
10.588530081
 20
10.6250253809
 30
0.0
 10
10.5527763382
 20
10.6227774403
 30
0.0
 10
10.5176988377
 20
10.6199052638
 30
0.0
 10
10.4834607003
 20
10.616422368
 30
0.0
 10
10.4502210286
 20
10.6123451623
 30
0.0
 10
10.4181344397
 20
10.6076928103
 30
0.0
 10
10.3922112365
 20
10.6033094907
 30
0.0
 10
10.3721682854
 20
10.5995201881
 30
0.0
 10
10.3576761023
 20
10.5965789719
 30
0.0
 10
10.3435801915
 20
10.5935117142
 30
0.0
 10
10.3298969202
 20
10.5903219614
 30
0.0
 10
10.3166421939
 20
10.5870134347
 30
0.0
 10
10.3038314014
 20
10.5835900297
 30
0.0
 10
10.2914794171
 20
10.5800557146
 30
0.0
 10
10.2796005646
 20
10.5764146336
 30
0.0
 10
10.2682086075
 20
10.5726710491
 30
0.0
 10
10.2573167351
 20
10.5688292925
 30
0.0
 10
10.246937537
 20
10.5648938839
 30
0.0
 10
10.2370829472
 20
10.5608693581
 30
0.0
 10
10.2277644523
 20
10.5567604379
 30
0.0
 10
10.2217762666
 20
10.5539010655
 30
0.0
 10
10.2188768132
 20
10.5524554515
 30
0.0
  0
SPLINE
  5
39A
100
AcDbEntity
  8
0
100
AcDbSpline
 62
7
  6
CONTINUOUS
 70
0
 71
3
 72
67
 73
63
 74
0
 42
0.0000001
 43
0.0000001
 44
0.0000000001
 40
0.0
 40
0.0
 40
0.0
 40
0.0
 40
0.0155846213
 40
0.0311170668
 40
0.0465968192
 40
0.0620259865
 40
0.0774060849
 40
0.0927394311
 40
0.1080287937
 40
0.1232773619
 40
0.1384887615
 40
0.1536669979
 40
0.1688164255
 40
0.1839417028
 40
0.199047742
 40
0.2141396589
 40
0.2292227208
 40
0.2443022904
 40
0.2593837676
 40
0.2744725309
 40
0.2895738804
 40
0.3046929831
 40
0.319834818
 40
0.3350041228
 40
0.3502053439
 40
0.3654425945
 40
0.3807196143
 40
0.3960397325
 40
0.4114058354
 40
0.426820342
 40
0.4422851868
 40
0.4578018036
 40
0.4733711146
 40
0.4889935259
 40
0.5046689328
 40
0.520396725
 40
0.5361757955
 40
0.5520045539
 40
0.5678809505
 40
0.5838024983
 40
0.599766298
 40
0.6157690657
 40
0.6318071682
 40
0.6478766587
 40
0.663973312
 40
0.6800926609
 40
0.7123721235
 40
0.7446846192
 40
0.7769900058
 40
0.8092483936
 40
0.8253521889
 40
0.8414301118
 40
0.8574778627
 40
0.8734914072
 40
0.889467014
 40
0.9054013002
 40
0.9212912382
 40
0.9371342307
 40
0.9529281326
 40
0.9686709488
 40
0.9843622542
 40
1.0
 40
1.0
 40
1.0
 40
1.0
 10
10.2335747904
 20
7.6620570943
 30
0.0
 10
10.2335747904
 20
7.6664744223
 30
0.0
 10
10.2337909879
 20
7.675295855
 30
0.0
 10
10.234766799
 20
7.6884723985
 30
0.0
 10
10.2363914622
 20
7.7015407436
 30
0.0
 10
10.2386608969
 20
7.7144687953
 30
0.0
 10
10.2415698121
 20
7.7272256542
 30
0.0
 10
10.2451111748
 20
7.7397804836
 30
0.0
 10
10.2492764673
 20
7.7521030398
 30
0.0
 10
10.2540556854
 20
7.7641636081
 30
0.0
 10
10.2594373484
 20
7.7759330937
 30
0.0
 10
10.2654085071
 20
7.7873831064
 30
0.0
 10
10.2719547633
 20
7.7984860362
 30
0.0
 10
10.2790603479
 20
7.8092151005
 30
0.0
 10
10.2867081504
 20
7.8195444075
 30
0.0
 10
10.2948797477
 20
7.8294490255
 30
0.0
 10
10.3035554168
 20
7.8389050748
 30
0.0
 10
10.312714233
 20
7.8478897483
 30
0.0
 10
10.3223341112
 20
7.85638137
 30
0.0
 10
10.3323918607
 20
7.8643594408
 30
0.0
 10
10.3428632028
 20
7.8718047397
 30
0.0
 10
10.3537228698
 20
7.8786993282
 30
0.0
 10
10.3649446657
 20
7.8850265902
 30
0.0
 10
10.3765015306
 20
7.8907712619
 30
0.0
 10
10.3883655806
 20
7.8959195183
 30
0.0
 10
10.4005081928
 20
7.9004589859
 30
0.0
 10
10.4129000848
 20
7.9043787467
 30
0.0
 10
10.425511382
 20
7.9076693615
 30
0.0
 10
10.438311678
 20
7.9103229228
 30
0.0
 10
10.4512701111
 20
7.9123330902
 30
0.0
 10
10.4643554503
 20
7.913695054
 30
0.0
 10
10.477536165
 20
7.9144055537
 30
0.0
 10
10.4907804969
 20
7.9144628921
 30
0.0
 10
10.5040565384
 20
7.9138669884
 30
0.0
 10
10.5173323131
 20
7.9126193152
 30
0.0
 10
10.5305758495
 20
7.9107229023
 30
0.0
 10
10.543755252
 20
7.9081823221
 30
0.0
 10
10.5568387894
 20
7.9050037385
 30
0.0
 10
10.5697949659
 20
7.901194842
 30
0.0
 10
10.5825925925
 20
7.8967648253
 30
0.0
 10
10.5952008574
 20
7.891724353
 30
0.0
 10
10.6075894073
 20
7.88608559
 30
0.0
 10
10.6197284523
 20
7.8798621277
 30
0.0
 10
10.6315887022
 20
7.8730690278
 30
0.0
 10
10.6431418864
 20
7.8657223958
 30
0.0
 10
10.6581038594
 20
7.8552096903
 30
0.0
 10
10.6758983048
 20
7.8407765413
 30
0.0
 10
10.6955826648
 20
7.8215695067
 30
0.0
 10
10.7134250595
 20
7.800648091
 30
0.0
 10
10.726626065
 20
7.7819364019
 30
0.0
 10
10.7361022219
 20
7.7663156724
 30
0.0
 10
10.7426477288
 20
7.7543085376
 30
0.0
 10
10.7486184232
 20
7.7420341908
 30
0.0
 10
10.7540001242
 20
7.7295218691
 30
0.0
 10
10.7587798013
 20
7.7168017699
 30
0.0
 10
10.7629459591
 20
7.7039044968
 30
0.0
 10
10.7664885494
 20
7.6908611024
 30
0.0
 10
10.7693990089
 20
7.6777029602
 30
0.0
 10
10.7716702501
 20
7.6644618362
 30
0.0
 10
10.7732969195
 20
7.6511693483
 30
0.0
 10
10.7742748754
 20
7.6378581159
 30
0.0
 10
10.7744932852
 20
7.628976655
 30
0.0
 10
10.7744932852
 20
7.6245442693
 30
0.0
  0
SPLINE
  5
39B
100
AcDbEntity
  8
0
100
AcDbSpline
 62
4
  6
CONTINUOUS
 70
0
 71
3
 72
385
 73
381
 74
0
 42
0.0000001
 43
0.0000001
 44
0.0000000001
 40
0.0
 40
0.0
 40
0.0
 40
0.0
 40
0.015625
 40
0.0234375
 40
0.03125
 40
0.0390625
 40
0.04296875
 40
0.046875
 40
0.05078125
 40
0.0546875
 40
0.056640625
 40
0.05859375
 40
0.0595703125
 40
0.060546875
 40
0.0615234375
 40
0.0620117188
 40
0.0625
 40
0.0629882812
 40
0.0634765625
 40
0.064453125
 40
0.0654296875
 40
0.06640625
 40
0.068359375
 40
0.0703125
 40
0.07421875
 40
0.078125
 40
0.08203125
 40
0.0859375
 40
0.09375
 40
0.1015625
 40
0.10546875
 40
0.109375
 40
0.11328125
 40
0.1171875
 40
0.119140625
 40
0.12109375
 40
0.1220703125
 40
0.123046875
 40
0.1240234375
 40
0.1245117188
 40
0.1247558594
 40
0.125
 40
0.1252441406
 40
0.1254882812
 40
0.1259765625
 40
0.126953125
 40
0.1279296875
 40
0.12890625
 40
0.130859375
 40
0.1328125
 40
0.13671875
 40
0.140625
 40
0.14453125
 40
0.1484375
 40
0.15625
 40
0.1640625
 40
0.16796875
 40
0.171875
 40
0.17578125
 40
0.1796875
 40
0.181640625
 40
0.18359375
 40
0.1845703125
 40
0.185546875
 40
0.1865234375
 40
0.1870117188
 40
0.1872558594
 40
0.1875
 40
0.1877441406
 40
0.1879882812
 40
0.1884765625
 40
0.189453125
 40
0.1904296875
 40
0.19140625
 40
0.193359375
 40
0.1953125
 40
0.19921875
 40
0.203125
 40
0.20703125
 40
0.2109375
 40
0.21875
 40
0.2265625
 40
0.23046875
 40
0.234375
 40
0.23828125
 40
0.2421875
 40
0.244140625
 40
0.24609375
 40
0.2470703125
 40
0.248046875
 40
0.2490234375
 40
0.2495117188
 40
0.2497558594
 40
0.25
 40
0.2502441406
 40
0.2504882812
 40
0.2509765625
 40
0.251953125
 40
0.2529296875
 40
0.25390625
 40
0.255859375
 40
0.2578125
 40
0.26171875
 40
0.265625
 40
0.26953125
 40
0.2734375
 40
0.28125
 40
0.2890625
 40
0.29296875
 40
0.296875
 40
0.30078125
 40
0.3046875
 40
0.306640625
 40
0.30859375
 40
0.3095703125
 40
0.310546875
 40
0.3115234375
 40
0.3120117188
 40
0.3122558594
 40
0.3125
 40
0.3127441406
 40
0.3129882812
 40
0.3134765625
 40
0.314453125
 40
0.3154296875
 40
0.31640625
 40
0.318359375
 40
0.3203125
 40
0.32421875
 40
0.328125
 40
0.33203125
 40
0.3359375
 40
0.34375
 40
0.3515625
 40
0.35546875
 40
0.359375
 40
0.36328125
 40
0.3671875
 40
0.369140625
 40
0.37109375
 40
0.3720703125
 40
0.373046875
 40
0.3740234375
 40
0.3745117188
 40
0.3747558594
 40
0.375
 40
0.3752441406
 40
0.3754882812
 40
0.3759765625
 40
0.376953125
 40
0.3779296875
 40
0.37890625
 40
0.380859375
 40
0.3828125
 40
0.38671875
 40
0.390625
 40
0.39453125
 40
0.3984375
 40
0.40625
 40
0.4140625
 40
0.41796875
 40
0.421875
 40
0.42578125
 40
0.4296875
 40
0.431640625
 40
0.43359375
 40
0.4345703125
 40
0.435546875
 40
0.4365234375
 40
0.4370117188
 40
0.4372558594
 40
0.4375
 40
0.4377441406
 40
0.4379882812
 40
0.4384765625
 40
0.439453125
 40
0.4404296875
 40
0.44140625
 40
0.443359375
 40
0.4453125
 40
0.44921875
 40
0.453125
 40
0.45703125
 40
0.4609375
 40
0.46875
 40
0.4765625
 40
0.48046875
 40
0.484375
 40
0.48828125
 40
0.4921875
 40
0.494140625
 40
0.49609375
 40
0.4970703125
 40
0.498046875
 40
0.4990234375
 40
0.4995117188
 40
0.5
 40
0.5004882812
 40
0.5009765625
 40
0.501953125
 40
0.5029296875
 40
0.50390625
 40
0.505859375
 40
0.5078125
 40
0.51171875
 40
0.515625
 40
0.51953125
 40
0.5234375
 40
0.53125
 40
0.5390625
 40
0.54296875
 40
0.546875
 40
0.55078125
 40
0.5546875
 40
0.556640625
 40
0.55859375
 40
0.5595703125
 40
0.560546875
 40
0.5615234375
 40
0.5620117188
 40
0.5625
 40
0.5629882812
 40
0.5634765625
 40
0.564453125
 40
0.5654296875
 40
0.56640625
 40
0.568359375
 40
0.5703125
 40
0.57421875
 40
0.578125
 40
0.58203125
 40
0.5859375
 40
0.59375
 40
0.6015625
 40
0.60546875
 40
0.609375
 40
0.61328125
 40
0.6171875
 40
0.619140625
 40
0.62109375
 40
0.6220703125
 40
0.623046875
 40
0.6240234375
 40
0.6245117188
 40
0.625
 40
0.6254882812
 40
0.6259765625
 40
0.626953125
 40
0.6279296875
 40
0.62890625
 40
0.630859375
 40
0.6328125
 40
0.63671875
 40
0.640625
 40
0.64453125
 40
0.6484375
 40
0.65625
 40
0.6640625
 40
0.66796875
 40
0.671875
 40
0.67578125
 40
0.6796875
 40
0.681640625
 40
0.68359375
 40
0.6845703125
 40
0.685546875
 40
0.6865234375
 40
0.6870117188
 40
0.6875
 40
0.6879882812
 40
0.6884765625
 40
0.689453125
 40
0.6904296875
 40
0.69140625
 40
0.693359375
 40
0.6953125
 40
0.69921875
 40
0.703125
 40
0.70703125
 40
0.7109375
 40
0.71875
 40
0.7265625
 40
0.73046875
 40
0.734375
 40
0.73828125
 40
0.7421875
 40
0.744140625
 40
0.74609375
 40
0.7470703125
 40
0.748046875
 40
0.7490234375
 40
0.7495117188
 40
0.75
 40
0.7504882812
 40
0.7509765625
 40
0.751953125
 40
0.7529296875
 40
0.75390625
 40
0.755859375
 40
0.7578125
 40
0.76171875
 40
0.765625
 40
0.76953125
 40
0.7734375
 40
0.78125
 40
0.7890625
 40
0.79296875
 40
0.796875
 40
0.80078125
 40
0.8046875
 40
0.806640625
 40
0.80859375
 40
0.8095703125
 40
0.810546875
 40
0.8115234375
 40
0.8120117188
 40
0.8125
 40
0.8129882812
 40
0.8134765625
 40
0.814453125
 40
0.8154296875
 40
0.81640625
 40
0.818359375
 40
0.8203125
 40
0.82421875
 40
0.828125
 40
0.83203125
 40
0.8359375
 40
0.84375
 40
0.8515625
 40
0.85546875
 40
0.859375
 40
0.86328125
 40
0.8671875
 40
0.869140625
 40
0.87109375
 40
0.8720703125
 40
0.873046875
 40
0.8740234375
 40
0.8745117188
 40
0.875
 40
0.8754882812
 40
0.8759765625
 40
0.876953125
 40
0.8779296875
 40
0.87890625
 40
0.880859375
 40
0.8828125
 40
0.88671875
 40
0.890625
 40
0.89453125
 40
0.8984375
 40
0.90625
 40
0.9140625
 40
0.91796875
 40
0.921875
 40
0.92578125
 40
0.9296875
 40
0.931640625
 40
0.93359375
 40
0.9345703125
 40
0.935546875
 40
0.9365234375
 40
0.9370117188
 40
0.9375
 40
0.9379882812
 40
0.9384765625
 40
0.939453125
 40
0.9404296875
 40
0.94140625
 40
0.943359375
 40
0.9453125
 40
0.94921875
 40
0.953125
 40
0.95703125
 40
0.9609375
 40
0.96875
 40
0.9765625
 40
0.984375
 40
1.0
 40
1.0
 40
1.0
 40
1.0
 10
10.3809750547
 20
8.7265239586
 30
0.0
 10
10.3841082416
 20
8.726613883
 30
0.0
 10
10.388808022
 20
8.7267487696
 30
0.0
 10
10.3950743958
 20
8.7269286185
 30
0.0
 10
10.3997741762
 20
8.7270635049
 30
0.0
 10
10.4036906598
 20
8.7271759109
 30
0.0
 10
10.4068238469
 20
8.7272658344
 30
0.0
 10
10.4091737365
 20
8.7273332805
 30
0.0
 10
10.4115236288
 20
8.7274007133
 30
0.0
 10
10.4134818642
 20
8.7274569488
 30
0.0
 10
10.4150484707
 20
8.7275018442
 30
0.0
 10
10.4160275584
 20
8.7275301157
 30
0.0
 10
10.4168109233
 20
8.7275522476
 30
0.0
 10
10.4173981875
 20
8.7275701752
 30
0.0
 10
10.4178883999
 20
8.7275808882
 30
0.0
 10
10.4182787182
 20
8.7275989383
 30
0.0
 10
10.4185765164
 20
8.7275865727
 30
0.0
 10
10.4188550024
 20
8.7276730802
 30
0.0
 10
10.4192330631
 20
8.727753886
 30
0.0
 10
10.4197033244
 20
8.7278667428
 30
0.0
 10
10.4202686287
 20
8.727997099
 30
0.0
 10
10.4210220217
 20
8.7281726788
 30
0.0
 10
10.4219638814
 20
8.728391547
 30
0.0
 10
10.4234707908
 20
8.7287420751
 30
0.0
 10
10.4253544502
 20
8.729180119
 30
0.0
 10
10.4276148317
 20
8.7297058214
 30
0.0
 10
10.4298752159
 20
8.7302315105
 30
0.0
 10
10.4328890605
 20
8.730932434
 30
0.0
 10
10.4366563665
 20
8.7318085867
 30
0.0
 10
10.4404236726
 20
8.7326847399
 30
0.0
 10
10.4434375173
 20
8.7333856627
 30
0.0
 10
10.4456979012
 20
8.7339113537
 30
0.0
 10
10.4479582834
 20
8.7344370492
 30
0.0
 10
10.4498419409
 20
8.7348751147
 30
0.0
 10
10.4513488542
 20
8.7352255986
 30
0.0
 10
10.4522907038
 20
8.7354445792
 30
0.0
 10
10.4530441176
 20
8.7356199282
 30
0.0
 10
10.4536093584
 20
8.7357509896
 30
0.0
 10
10.4540798183
 20
8.73586164
 30
0.0
 10
10.4544102668
 20
8.735936284
 30
0.0
 10
10.4545973356
 20
8.7359833272
 30
0.0
 10
10.4547425921
 20
8.7360062444
 30
0.0
 10
10.4548689083
 20
8.7360764278
 30
0.0
 10
10.4550439364
 20
8.7361535187
 30
0.0
 10
10.4553471576
 20
8.7362961093
 30
0.0
 10
10.45578194
 20
8.7364957941
 30
0.0
 10
10.4563029901
 20
8.7367371349
 30
0.0
 10
10.456997964
 20
8.7370583223
 30
0.0
 10
10.4578665992
 20
8.7374600121
 30
0.0
 10
10.4592564614
 20
8.7381026008
 30
0.0
 10
10.4609937733
 20
8.7389058761
 30
0.0
 10
10.4630785545
 20
8.7398697896
 30
0.0
 10
10.4651633338
 20
8.7408337076
 30
0.0
 10
10.4679430402
 20
8.7421189301
 30
0.0
 10
10.471417673
 20
8.7437254587
 30
0.0
 10
10.4748923059
 20
8.745331987
 30
0.0
 10
10.477672012
 20
8.74661721
 30
0.0
 10
10.4797567922
 20
8.7475811262
 30
0.0
 10
10.4818415701
 20
8.7485450467
 30
0.0
 10
10.4835788922
 20
8.7493483001
 30
0.0
 10
10.4849687337
 20
8.7499909337
 30
0.0
 10
10.4858374215
 20
8.7503925093
 30
0.0
 10
10.4865322873
 20
8.7507139309
 30
0.0
 10
10.4870536679
 20
8.750954556
 30
0.0
 10
10.487487416
 20
8.7511564801
 30
0.0
 10
10.4877924836
 20
8.7512950733
 30
0.0
 10
10.4879645533
 20
8.751378569
 30
0.0
 10
10.4880999571
 20
8.7514290789
 30
0.0
 10
10.4882110821
 20
8.7515258864
 30
0.0
 10
10.4883677175
 20
8.751638814
 30
0.0
 10
10.4886378837
 20
8.7518439615
 30
0.0
 10
10.4890258983
 20
8.7521330955
 30
0.0
 10
10.4894906328
 20
8.7524817401
 30
0.0
 10
10.4901105872
 20
8.7529460115
 30
0.0
 10
10.4908854246
 20
8.7535265521
 30
0.0
 10
10.4921252235
 20
8.7544553045
 30
0.0
 10
10.4936749519
 20
8.7556162836
 30
0.0
 10
10.4955346347
 20
8.757009442
 30
0.0
 10
10.4973943151
 20
8.7584026048
 30
0.0
 10
10.4998738898
 20
8.7602601536
 30
0.0
 10
10.5029733579
 20
8.7625820903
 30
0.0
 10
10.5060728262
 20
8.7649040266
 30
0.0
 10
10.5085524005
 20
8.766761576
 30
0.0
 10
10.5104120822
 20
8.7681547372
 30
0.0
 10
10.5122717602
 20
8.7695479017
 30
0.0
 10
10.5138215034
 20
8.7707088617
 30
0.0
 10
10.515061272
 20
8.7716376532
 30
0.0
 10
10.5158361866
 20
8.7722180942
 30
0.0
 10
10.5164559827
 20
8.7726825699
 30
0.0
 10
10.5169212008
 20
8.7730305903
 30
0.0
 10
10.5173077025
 20
8.7733216776
 30
0.0
 10
10.5175805694
 20
8.7735233381
 30
0.0
 10
10.5177328776
 20
8.7736418526
 30
0.0
 10
10.5178572944
 20
8.7737214989
 30
0.0
 10
10.5179427763
 20
8.7738364634
 30
0.0
 10
10.5180703332
 20
8.7739774301
 30
0.0
 10
10.5182872302
 20
8.7742298615
 30
0.0
 10
10.5186003911
 20
8.774587477
 30
0.0
 10
10.5189747682
 20
8.7750179001
 30
0.0
 10
10.5194744322
 20
8.7755913489
 30
0.0
 10
10.5200988429
 20
8.7763083135
 30
0.0
 10
10.5210979947
 20
8.7774553711
 30
0.0
 10
10.522346902
 20
8.7788892225
 30
0.0
 10
10.5238456046
 20
8.7806098315
 30
0.0
 10
10.5253443036
 20
8.7823304439
 30
0.0
 10
10.5273425701
 20
8.7846245926
 30
0.0
 10
10.5298404028
 20
8.7874922789
 30
0.0
 10
10.5323382358
 20
8.7903599649
 30
0.0
 10
10.5343365017
 20
8.7926541141
 30
0.0
 10
10.5358352023
 20
8.7943747252
 30
0.0
 10
10.5373338989
 20
8.7960953392
 30
0.0
 10
10.538582825
 20
8.7975291751
 30
0.0
 10
10.5395819383
 20
8.7986762642
 30
0.0
 10
10.5402064469
 20
8.7993931485
 30
0.0
 10
10.5407059101
 20
8.7999667621
 30
0.0
 10
10.5410809009
 20
8.8003966816
 30
0.0
 10
10.5413921416
 20
8.8007558727
 30
0.0
 10
10.5416124665
 20
8.8010054916
 30
0.0
 10
10.5417345308
 20
8.8011509647
 30
0.0
 10
10.5418368842
 20
8.8012520868
 30
0.0
 10
10.541897935
 20
8.8013837228
 30
0.0
 10
10.541993743
 20
8.8015485939
 30
0.0
 10
10.5421546945
 20
8.8018420774
 30
0.0
 10
10.5423881345
 20
8.8022587469
 30
0.0
 10
10.5426667605
 20
8.8027598601
 30
0.0
 10
10.5430387864
 20
8.8034276233
 30
0.0
 10
10.5435036391
 20
8.80426246
 30
0.0
 10
10.544247504
 20
8.8055981247
 30
0.0
 10
10.5451773005
 20
8.8072677309
 30
0.0
 10
10.5462930711
 20
8.8092712475
 30
0.0
 10
10.5474088378
 20
8.811274767
 30
0.0
 10
10.5488965281
 20
8.8139461253
 30
0.0
 10
10.5507561405
 20
8.8172853236
 30
0.0
 10
10.5526157532
 20
8.8206245216
 30
0.0
 10
10.5541034429
 20
8.8232958803
 30
0.0
 10
10.5552192114
 20
8.8252993987
 30
0.0
 10
10.5563349754
 20
8.8273029193
 30
0.0
 10
10.5572647925
 20
8.8289725131
 30
0.0
 10
10.5580086155
 20
8.8303082031
 30
0.0
 10
10.5584735746
 20
8.8311429754
 30
0.0
 10
10.5588453822
 20
8.8318108708
 30
0.0
 10
10.5591246751
 20
8.8323115801
 30
0.0
 10
10.5593560285
 20
8.8327295132
 30
0.0
 10
10.559520705
 20
8.833020741
 30
0.0
 10
10.5596105445
 20
8.8331892263
 30
0.0
 10
10.5596899284
 20
8.8333097608
 30
0.0
 10
10.559723426
 20
8.8334525782
 30
0.0
 10
10.5597840951
 20
8.8336352289
 30
0.0
 10
10.5598828087
 20
8.833958489
 30
0.0
 10
10.5600277269
 20
8.8344183959
 30
0.0
 10
10.5601999599
 20
8.8349710945
 30
0.0
 10
10.5604301868
 20
8.8357077429
 30
0.0
 10
10.5607177709
 20
8.8366286504
 30
0.0
 10
10.561178017
 20
8.8381020482
 30
0.0
 10
10.5617532863
 20
8.8399438139
 30
0.0
 10
10.5624436258
 20
8.8421539249
 30
0.0
 10
10.563133961
 20
8.844364038
 30
0.0
 10
10.5640544094
 20
8.8473108548
 30
0.0
 10
10.5652049694
 20
8.850994376
 30
0.0
 10
10.5663555298
 20
8.854677897
 30
0.0
 10
10.5672759776
 20
8.857624714
 30
0.0
 10
10.5679663147
 20
8.8598348263
 30
0.0
 10
10.5686566471
 20
8.8620449403
 30
0.0
 10
10.5692319386
 20
8.8638866967
 30
0.0
 10
10.5696921393
 20
8.8653601137
 30
0.0
 10
10.5699798388
 20
8.8662809723
 30
0.0
 10
10.5702098289
 20
8.867017721
 30
0.0
 10
10.5703827855
 20
8.8675701133
 30
0.0
 10
10.5705254397
 20
8.8680309784
 30
0.0
 10
10.5706281949
 20
8.8683525278
 30
0.0
 10
10.5706823883
 20
8.8685379195
 30
0.0
 10
10.5707357774
 20
8.8686723177
 30
0.0
 10
10.570740452
 20
8.8688244733
 30
0.0
 10
10.570763677
 20
8.8690211536
 30
0.0
 10
10.5707964038
 20
8.8693682299
 30
0.0
 10
10.5708472954
 20
8.8698625444
 30
0.0
 10
10.5709065937
 20
8.8704563676
 30
0.0
 10
10.5709862769
 20
8.8712479063
 30
0.0
 10
10.571085669
 20
8.8722374069
 30
0.0
 10
10.5712448148
 20
8.8738205647
 30
0.0
 10
10.5714437065
 20
8.8757995268
 30
0.0
 10
10.5716823938
 20
8.878174275
 30
0.0
 10
10.5719210766
 20
8.8805490248
 30
0.0
 10
10.5722393218
 20
8.8837153574
 30
0.0
 10
10.5726371279
 20
8.8876732733
 30
0.0
 10
10.5730349337
 20
8.8916311891
 30
0.0
 10
10.5733531796
 20
8.8947975218
 30
0.0
 10
10.5735918604
 20
8.8971722712
 30
0.0
 10
10.5738305549
 20
8.8995470209
 30
0.0
 10
10.5740294244
 20
8.9015259782
 30
0.0
 10
10.5741886153
 20
8.9031091458
 30
0.0
 10
10.5742878927
 20
8.9040986215
 30
0.0
 10
10.5743678114
 20
8.9048902114
 30
0.0
 10
10.5744263902
 20
8.9054838781
 30
0.0
 10
10.5744795327
 20
8.9059786823
 30
0.0
 10
10.5745123426
 20
8.9063743419
 30
0.0
 10
10.5745634663
 20
8.9066715886
 30
0.0
 10
10.574513377
 20
8.9069669192
 30
0.0
 10
10.5744819463
 20
8.9073613627
 30
0.0
 10
10.5744305277
 20
8.9078541874
 30
0.0
 10
10.5743740176
 20
8.9084456753
 30
0.0
 10
10.5742968572
 20
8.9092342916
 30
0.0
 10
10.5742010277
 20
8.9102200737
 30
0.0
 10
10.5740473534
 20
8.9117973185
 30
0.0
 10
10.5738553797
 20
8.9137688767
 30
0.0
 10
10.5736249602
 20
8.9161347455
 30
0.0
 10
10.5733945543
 20
8.9185006147
 30
0.0
 10
10.5730873417
 20
8.9216551068
 30
0.0
 10
10.5727033277
 20
8.925598222
 30
0.0
 10
10.5723193125
 20
8.9295413371
 30
0.0
 10
10.5720121018
 20
8.9326958293
 30
0.0
 10
10.5717816903
 20
8.935061698
 30
0.0
 10
10.5715512919
 20
8.9374275685
 30
0.0
 10
10.5713592523
 20
8.9393991219
 30
0.0
 10
10.5712057124
 20
8.9409763764
 30
0.0
 10
10.571109541
 20
8.9419621336
 30
0.0
 10
10.5710330825
 20
8.942750801
 30
0.0
 10
10.570974428
 20
8.9433421328
 30
0.0
 10
10.5709297187
 20
8.9438354458
 30
0.0
 10
10.5708845998
 20
8.9442288931
 30
0.0
 10
10.5708763131
 20
8.944527266
 30
0.0
 10
10.5707704925
 20
8.9448130907
 30
0.0
 10
10.5706634682
 20
8.9451985735
 30
0.0
 10
10.5705179986
 20
8.9456789232
 30
0.0
 10
10.5703484384
 20
8.9462559865
 30
0.0
 10
10.5701206106
 20
8.9470251794
 30
0.0
 10
10.5698364242
 20
8.9479867476
 30
0.0
 10
10.5693813916
 20
8.9495252135
 30
0.0
 10
10.5688127155
 20
8.9514483107
 30
0.0
 10
10.5681302551
 20
8.9537560211
 30
0.0
 10
10.5674478078
 20
8.9560637331
 30
0.0
 10
10.5665378735
 20
8.9591406819
 30
0.0
 10
10.5654004573
 20
8.9629868681
 30
0.0
 10
10.5642630401
 20
8.9668330541
 30
0.0
 10
10.5633531075
 20
8.9699100033
 30
0.0
 10
10.5626706549
 20
8.972217714
 30
0.0
 10
10.5619882146
 20
8.9745254291
 30
0.0
 10
10.5614194758
 20
8.9764485117
 30
0.0
 10
10.5609645712
 20
8.9779870074
 30
0.0
 10
10.5606800589
 20
8.9789484997
 30
0.0
 10
10.5604529002
 20
8.9797178483
 30
0.0
 10
10.5602812958
 20
8.9802944362
 30
0.0
 10
10.5601422219
 20
8.9807762733
 30
0.0
 10
10.5600221492
 20
8.9811587214
 30
0.0
 10
10.5599561777
 20
8.9814538137
 30
0.0
 10
10.5597982808
 20
8.9817173922
 30
0.0
 10
10.5596198624
 20
8.9820798383
 30
0.0
 10
10.5593858223
 20
8.9825291191
 30
0.0
 10
10.5591096899
 20
8.9830698727
 30
0.0
 10
10.5587398662
 20
8.9837903128
 30
0.0
 10
10.5582781506
 20
8.9846910563
 30
0.0
 10
10.5575390904
 20
8.9861321378
 30
0.0
 10
10.5566153734
 20
8.9879335268
 30
0.0
 10
10.5555068666
 20
8.9900951777
 30
0.0
 10
10.5543983721
 20
8.9922568328
 30
0.0
 10
10.5529203752
 20
8.9951390381
 30
0.0
 10
10.5510728807
 20
8.9987417954
 30
0.0
 10
10.5492253851
 20
9.0023445522
 30
0.0
 10
10.5477473899
 20
9.0052267583
 30
0.0
 10
10.5466388904
 20
9.0073884113
 30
0.0
 10
10.5455304029
 20
9.0095500701
 30
0.0
 10
10.5446066257
 20
9.0113514345
 30
0.0
 10
10.5438676881
 20
9.012792566
 30
0.0
 10
10.5434056607
 20
9.0136931824
 30
0.0
 10
10.5430364769
 20
9.0144138834
 30
0.0
 10
10.5427583897
 20
9.0149538397
 30
0.0
 10
10.5425304656
 20
9.015405615
 30
0.0
 10
10.5423395695
 20
9.015762972
 30
0.0
 10
10.5422197788
 20
9.0160420923
 30
0.0
 10
10.542010741
 20
9.0162788339
 30
0.0
 10
10.541763199
 20
9.0166092928
 30
0.0
 10
10.5414430756
 20
9.0170172874
 30
0.0
 10
10.5410635057
 20
9.0175090549
 30
0.0
 10
10.5405558135
 20
9.0181639856
 30
0.0
 10
10.5399217457
 20
9.018982909
 30
0.0
 10
10.5389069313
 20
9.020293041
 30
0.0
 10
10.5376385182
 20
9.021930756
 30
0.0
 10
10.5361163775
 20
9.0238959925
 30
0.0
 10
10.5345942488
 20
9.0258612348
 30
0.0
 10
10.5325647397
 20
9.0284815558
 30
0.0
 10
10.5300278549
 20
9.0317569579
 30
0.0
 10
10.5274909692
 20
9.0350323593
 30
0.0
 10
10.5254614616
 20
9.0376526814
 30
0.0
 10
10.5239393285
 20
9.0396179204
 30
0.0
 10
10.5224172043
 20
9.0415831693
 30
0.0
 10
10.52114874
 20
9.0432208458
 30
0.0
 10
10.52013403
 20
9.0445310561
 30
0.0
 10
10.5194996964
 20
9.0453497804
 30
0.0
 10
10.5189925498
 20
9.0460051198
 30
0.0
 10
10.5186113129
 20
9.0464956385
 30
0.0
 10
10.518296405
 20
9.0469075403
 30
0.0
 10
10.5180382225
 20
9.0472300279
 30
0.0
 10
10.5178616803
 20
9.0474911132
 30
0.0
 10
10.5176198878
 20
9.0476788371
 30
0.0
 10
10.5173202905
 20
9.0479547617
 30
0.0
 10
10.5169379739
 20
9.0482908753
 30
0.0
 10
10.5164825412
 20
9.0486979749
 30
0.0
 10
10.5158741285
 20
9.04923946
 30
0.0
 10
10.5151140129
 20
9.0499167664
 30
0.0
 10
10.5138976042
 20
9.0510002051
 30
0.0
 10
10.5123771701
 20
9.0523545898
 30
0.0
 10
10.5105526163
 20
9.0539798145
 30
0.0
 10
10.5087280712
 20
9.055605049
 30
0.0
 10
10.5062953415
 20
9.0577720249
 30
0.0
 10
10.5032544304
 20
9.0604807461
 30
0.0
 10
10.5002135186
 20
9.0631894664
 30
0.0
 10
10.4977807899
 20
9.0653564438
 30
0.0
 10
10.4959562415
 20
9.066981674
 30
0.0
 10
10.4941317005
 20
9.0686069148
 30
0.0
 10
10.4926112264
 20
9.0699612491
 30
0.0
 10
10.4913948992
 20
9.0710447907
 30
0.0
 10
10.4906345762
 20
9.0717218353
 30
0.0
 10
10.4900265893
 20
9.0722638577
 30
0.0
 10
10.4895698558
 20
9.0726693157
 30
0.0
 10
10.489191609
 20
9.0730105655
 30
0.0
 10
10.4888837085
 20
9.0732760114
 30
0.0
 10
10.4886672737
 20
9.0734957367
 30
0.0
 10
10.4883955279
 20
9.0736366752
 30
0.0
 10
10.488052521
 20
9.0738521144
 30
0.0
 10
10.4876171335
 20
9.0741119711
 30
0.0
 10
10.4870975059
 20
9.0744278407
 30
0.0
 10
10.486403678
 20
9.0748475886
 30
0.0
 10
10.4855367325
 20
9.0753727567
 30
0.0
 10
10.48414943
 20
9.0762127556
 30
0.0
 10
10.482415367
 20
9.077262847
 30
0.0
 10
10.4803344635
 20
9.0785229168
 30
0.0
 10
10.4782535674
 20
9.0797829973
 30
0.0
 10
10.4754790367
 20
9.0814631009
 30
0.0
 10
10.4720108743
 20
9.0835632318
 30
0.0
 10
10.4685427114
 20
9.0856633618
 30
0.0
 10
10.4657681815
 20
9.0873434669
 30
0.0
 10
10.4636872828
 20
9.0886035427
 30
0.0
 10
10.4616063893
 20
9.0898636304
 30
0.0
 10
10.4598722953
 20
9.0909136661
 30
0.0
 10
10.458485056
 20
9.0917537785
 30
0.0
 10
10.4576179496
 20
9.0922786578
 30
0.0
 10
10.456924452
 20
9.0926989987
 30
0.0
 10
10.4564038153
 20
9.0930130564
 30
0.0
 10
10.4559715848
 20
9.093278582
 30
0.0
 10
10.455622137
 20
9.0934824556
 30
0.0
 10
10.4553700614
 20
9.0936587148
 30
0.0
 10
10.4550797763
 20
9.0937458314
 30
0.0
 10
10.4547060766
 20
9.0938931255
 30
0.0
 10
10.4542343727
 20
9.0940665596
 30
0.0
 10
10.453670288
 20
9.0942792534
 30
0.0
 10
10.4529174906
 20
9.094561248
 30
0.0
 10
10.4519767281
 20
9.094914288
 30
0.0
 10
10.4504713772
 20
9.0954788465
 30
0.0
 10
10.4485897335
 20
9.0961846494
 30
0.0
 10
10.4463317418
 20
9.097031568
 30
0.0
 10
10.4440737552
 20
9.0978784986
 30
0.0
 10
10.4410631047
 20
9.0990077352
 30
0.0
 10
10.4372997922
 20
9.1004192825
 30
0.0
 10
10.4335364793
 20
9.1018308287
 30
0.0
 10
10.4305258294
 20
9.1029600671
 30
0.0
 10
10.4282678409
 20
9.1038069924
 30
0.0
 10
10.4260098563
 20
9.1046539307
 30
0.0
 10
10.4241281904
 20
9.1053596724
 30
0.0
 10
10.4226228848
 20
9.1059243557
 30
0.0
 10
10.4216820071
 20
9.1062770781
 30
0.0
 10
10.4209294462
 20
9.1065597246
 30
0.0
 10
10.4203646389
 20
9.1067704267
 30
0.0
 10
10.4198951958
 20
9.1069500924
 30
0.0
 10
10.4195168835
 20
9.1070846729
 30
0.0
 10
10.4192406851
 20
9.1072106161
 30
0.0
 10
10.4189357221
 20
9.107241104
 30
0.0
 10
10.4185391526
 20
9.1073150984
 30
0.0
 10
10.4180399934
 20
9.1073961513
 30
0.0
 10
10.417442478
 20
9.1074983115
 30
0.0
 10
10.4166452753
 20
9.1076328148
 30
0.0
 10
10.4156489484
 20
9.1078015295
 30
0.0
 10
10.4140547267
 20
9.1080711457
 30
0.0
 10
10.4120619835
 20
9.1084082783
 30
0.0
 10
10.4096706771
 20
9.1088127893
 30
0.0
 10
10.4072793746
 20
9.1092173132
 30
0.0
 10
10.4040909699
 20
9.1097566738
 30
0.0
 10
10.4001054644
 20
9.1104308762
 30
0.0
 10
10.3953228577
 20
9.1112399183
 30
0.0
 10
10.3889460489
 20
9.1123186414
 30
0.0
 10
10.3841634422
 20
9.1131276837
 30
0.0
 10
10.3809750378
 20
9.1136670452
 30
0.0
  0
SPLINE
  5
39C
100
AcDbEntity
  8
0
100
AcDbSpline
 62
4
  6
CONTINUOUS
 70
0
 71
3
 72
385
 73
381
 74
0
 42
0.0000001
 43
0.0000001
 44
0.0000000001
 40
0.0
 40
0.0
 40
0.0
 40
0.0
 40
0.015625
 40
0.0234375
 40
0.03125
 40
0.0390625
 40
0.04296875
 40
0.046875
 40
0.05078125
 40
0.0546875
 40
0.056640625
 40
0.05859375
 40
0.0595703125
 40
0.060546875
 40
0.0615234375
 40
0.0620117188
 40
0.0625
 40
0.0629882812
 40
0.0634765625
 40
0.064453125
 40
0.0654296875
 40
0.06640625
 40
0.068359375
 40
0.0703125
 40
0.07421875
 40
0.078125
 40
0.08203125
 40
0.0859375
 40
0.09375
 40
0.1015625
 40
0.10546875
 40
0.109375
 40
0.11328125
 40
0.1171875
 40
0.119140625
 40
0.12109375
 40
0.1220703125
 40
0.123046875
 40
0.1240234375
 40
0.1245117188
 40
0.1247558594
 40
0.125
 40
0.1252441406
 40
0.1254882812
 40
0.1259765625
 40
0.126953125
 40
0.1279296875
 40
0.12890625
 40
0.130859375
 40
0.1328125
 40
0.13671875
 40
0.140625
 40
0.14453125
 40
0.1484375
 40
0.15625
 40
0.1640625
 40
0.16796875
 40
0.171875
 40
0.17578125
 40
0.1796875
 40
0.181640625
 40
0.18359375
 40
0.1845703125
 40
0.185546875
 40
0.1865234375
 40
0.1870117188
 40
0.1872558594
 40
0.1875
 40
0.1877441406
 40
0.1879882812
 40
0.1884765625
 40
0.189453125
 40
0.1904296875
 40
0.19140625
 40
0.193359375
 40
0.1953125
 40
0.19921875
 40
0.203125
 40
0.20703125
 40
0.2109375
 40
0.21875
 40
0.2265625
 40
0.23046875
 40
0.234375
 40
0.23828125
 40
0.2421875
 40
0.244140625
 40
0.24609375
 40
0.2470703125
 40
0.248046875
 40
0.2490234375
 40
0.2495117188
 40
0.2497558594
 40
0.25
 40
0.2502441406
 40
0.2504882812
 40
0.2509765625
 40
0.251953125
 40
0.2529296875
 40
0.25390625
 40
0.255859375
 40
0.2578125
 40
0.26171875
 40
0.265625
 40
0.26953125
 40
0.2734375
 40
0.28125
 40
0.2890625
 40
0.29296875
 40
0.296875
 40
0.30078125
 40
0.3046875
 40
0.306640625
 40
0.30859375
 40
0.3095703125
 40
0.310546875
 40
0.3115234375
 40
0.3120117188
 40
0.3122558594
 40
0.3125
 40
0.3127441406
 40
0.3129882812
 40
0.3134765625
 40
0.314453125
 40
0.3154296875
 40
0.31640625
 40
0.318359375
 40
0.3203125
 40
0.32421875
 40
0.328125
 40
0.33203125
 40
0.3359375
 40
0.34375
 40
0.3515625
 40
0.35546875
 40
0.359375
 40
0.36328125
 40
0.3671875
 40
0.369140625
 40
0.37109375
 40
0.3720703125
 40
0.373046875
 40
0.3740234375
 40
0.3745117188
 40
0.3747558594
 40
0.375
 40
0.3752441406
 40
0.3754882812
 40
0.3759765625
 40
0.376953125
 40
0.3779296875
 40
0.37890625
 40
0.380859375
 40
0.3828125
 40
0.38671875
 40
0.390625
 40
0.39453125
 40
0.3984375
 40
0.40625
 40
0.4140625
 40
0.41796875
 40
0.421875
 40
0.42578125
 40
0.4296875
 40
0.431640625
 40
0.43359375
 40
0.4345703125
 40
0.435546875
 40
0.4365234375
 40
0.4370117188
 40
0.4372558594
 40
0.4375
 40
0.4377441406
 40
0.4379882812
 40
0.4384765625
 40
0.439453125
 40
0.4404296875
 40
0.44140625
 40
0.443359375
 40
0.4453125
 40
0.44921875
 40
0.453125
 40
0.45703125
 40
0.4609375
 40
0.46875
 40
0.4765625
 40
0.48046875
 40
0.484375
 40
0.48828125
 40
0.4921875
 40
0.494140625
 40
0.49609375
 40
0.4970703125
 40
0.498046875
 40
0.4990234375
 40
0.4995117188
 40
0.5
 40
0.5004882812
 40
0.5009765625
 40
0.501953125
 40
0.5029296875
 40
0.50390625
 40
0.505859375
 40
0.5078125
 40
0.51171875
 40
0.515625
 40
0.51953125
 40
0.5234375
 40
0.53125
 40
0.5390625
 40
0.54296875
 40
0.546875
 40
0.55078125
 40
0.5546875
 40
0.556640625
 40
0.55859375
 40
0.5595703125
 40
0.560546875
 40
0.5615234375
 40
0.5620117188
 40
0.5625
 40
0.5629882812
 40
0.5634765625
 40
0.564453125
 40
0.5654296875
 40
0.56640625
 40
0.568359375
 40
0.5703125
 40
0.57421875
 40
0.578125
 40
0.58203125
 40
0.5859375
 40
0.59375
 40
0.6015625
 40
0.60546875
 40
0.609375
 40
0.61328125
 40
0.6171875
 40
0.619140625
 40
0.62109375
 40
0.6220703125
 40
0.623046875
 40
0.6240234375
 40
0.6245117188
 40
0.625
 40
0.6254882812
 40
0.6259765625
 40
0.626953125
 40
0.6279296875
 40
0.62890625
 40
0.630859375
 40
0.6328125
 40
0.63671875
 40
0.640625
 40
0.64453125
 40
0.6484375
 40
0.65625
 40
0.6640625
 40
0.66796875
 40
0.671875
 40
0.67578125
 40
0.6796875
 40
0.681640625
 40
0.68359375
 40
0.6845703125
 40
0.685546875
 40
0.6865234375
 40
0.6870117188
 40
0.6875
 40
0.6879882812
 40
0.6884765625
 40
0.689453125
 40
0.6904296875
 40
0.69140625
 40
0.693359375
 40
0.6953125
 40
0.69921875
 40
0.703125
 40
0.70703125
 40
0.7109375
 40
0.71875
 40
0.7265625
 40
0.73046875
 40
0.734375
 40
0.73828125
 40
0.7421875
 40
0.744140625
 40
0.74609375
 40
0.7470703125
 40
0.748046875
 40
0.7490234375
 40
0.7495117188
 40
0.75
 40
0.7504882812
 40
0.7509765625
 40
0.751953125
 40
0.7529296875
 40
0.75390625
 40
0.755859375
 40
0.7578125
 40
0.76171875
 40
0.765625
 40
0.76953125
 40
0.7734375
 40
0.78125
 40
0.7890625
 40
0.79296875
 40
0.796875
 40
0.80078125
 40
0.8046875
 40
0.806640625
 40
0.80859375
 40
0.8095703125
 40
0.810546875
 40
0.8115234375
 40
0.8120117188
 40
0.8125
 40
0.8129882812
 40
0.8134765625
 40
0.814453125
 40
0.8154296875
 40
0.81640625
 40
0.818359375
 40
0.8203125
 40
0.82421875
 40
0.828125
 40
0.83203125
 40
0.8359375
 40
0.84375
 40
0.8515625
 40
0.85546875
 40
0.859375
 40
0.86328125
 40
0.8671875
 40
0.869140625
 40
0.87109375
 40
0.8720703125
 40
0.873046875
 40
0.8740234375
 40
0.8745117188
 40
0.875
 40
0.8754882812
 40
0.8759765625
 40
0.876953125
 40
0.8779296875
 40
0.87890625
 40
0.880859375
 40
0.8828125
 40
0.88671875
 40
0.890625
 40
0.89453125
 40
0.8984375
 40
0.90625
 40
0.9140625
 40
0.91796875
 40
0.921875
 40
0.92578125
 40
0.9296875
 40
0.931640625
 40
0.93359375
 40
0.9345703125
 40
0.935546875
 40
0.9365234375
 40
0.9370117188
 40
0.9375
 40
0.9379882812
 40
0.9384765625
 40
0.939453125
 40
0.9404296875
 40
0.94140625
 40
0.943359375
 40
0.9453125
 40
0.94921875
 40
0.953125
 40
0.95703125
 40
0.9609375
 40
0.96875
 40
0.9765625
 40
0.984375
 40
1.0
 40
1.0
 40
1.0
 40
1.0
 10
10.3809750547
 20
9.113667044
 30
0.0
 10
10.3778418678
 20
9.1135771196
 30
0.0
 10
10.3731420874
 20
9.113442233
 30
0.0
 10
10.3668757136
 20
9.1132623842
 30
0.0
 10
10.3621759332
 20
9.1131274977
 30
0.0
 10
10.3582594496
 20
9.1130150917
 30
0.0
 10
10.3551262625
 20
9.1129251682
 30
0.0
 10
10.3527763729
 20
9.1128577221
 30
0.0
 10
10.3504264806
 20
9.1127902893
 30
0.0
 10
10.3484682452
 20
9.1127340538
 30
0.0
 10
10.3469016387
 20
9.1126891584
 30
0.0
 10
10.345922551
 20
9.1126608869
 30
0.0
 10
10.3451391861
 20
9.112638755
 30
0.0
 10
10.3445519219
 20
9.1126208274
 30
0.0
 10
10.3440617095
 20
9.1126101144
 30
0.0
 10
10.3436713912
 20
9.1125920643
 30
0.0
 10
10.343373593
 20
9.11260443
 30
0.0
 10
10.343095107
 20
9.1125179224
 30
0.0
 10
10.3427170463
 20
9.1124371167
 30
0.0
 10
10.342246785
 20
9.1123242598
 30
0.0
 10
10.3416814807
 20
9.1121939036
 30
0.0
 10
10.3409280877
 20
9.1120183238
 30
0.0
 10
10.339986228
 20
9.1117994556
 30
0.0
 10
10.3384793187
 20
9.1114489275
 30
0.0
 10
10.3365956593
 20
9.1110108837
 30
0.0
 10
10.3343352777
 20
9.1104851812
 30
0.0
 10
10.3320748936
 20
9.1099594921
 30
0.0
 10
10.329061049
 20
9.1092585687
 30
0.0
 10
10.3252937429
 20
9.1083824159
 30
0.0
 10
10.3215264368
 20
9.1075062627
 30
0.0
 10
10.3185125922
 20
9.1068053399
 30
0.0
 10
10.3162522082
 20
9.1062796489
 30
0.0
 10
10.313991826
 20
9.1057539535
 30
0.0
 10
10.3121081686
 20
9.105315888
 30
0.0
 10
10.3106012552
 20
9.104965404
 30
0.0
 10
10.3096594056
 20
9.1047464234
 30
0.0
 10
10.3089059918
 20
9.1045710744
 30
0.0
 10
10.3083407511
 20
9.104440013
 30
0.0
 10
10.3078702911
 20
9.1043293626
 30
0.0
 10
10.3075398426
 20
9.1042547186
 30
0.0
 10
10.3073527739
 20
9.1042076754
 30
0.0
 10
10.3072075174
 20
9.1041847582
 30
0.0
 10
10.3070812012
 20
9.1041145749
 30
0.0
 10
10.306906173
 20
9.104037484
 30
0.0
 10
10.3066029518
 20
9.1038948934
 30
0.0
 10
10.3061681694
 20
9.1036952085
 30
0.0
 10
10.3056471194
 20
9.1034538677
 30
0.0
 10
10.3049521454
 20
9.1031326803
 30
0.0
 10
10.3040835103
 20
9.1027309906
 30
0.0
 10
10.3026936481
 20
9.1020884019
 30
0.0
 10
10.3009563361
 20
9.1012851265
 30
0.0
 10
10.298871555
 20
9.100321213
 30
0.0
 10
10.2967867756
 20
9.099357295
 30
0.0
 10
10.2940070692
 20
9.0980720726
 30
0.0
 10
10.2905324365
 20
9.0964655439
 30
0.0
 10
10.2870578035
 20
9.0948590157
 30
0.0
 10
10.2842780974
 20
9.0935737926
 30
0.0
 10
10.2821933172
 20
9.0926098765
 30
0.0
 10
10.2801085394
 20
9.0916459559
 30
0.0
 10
10.2783712172
 20
9.0908427025
 30
0.0
 10
10.2769813757
 20
9.090200069
 30
0.0
 10
10.2761126879
 20
9.0897984933
 30
0.0
 10
10.2754178221
 20
9.0894770717
 30
0.0
 10
10.2748964415
 20
9.0892364466
 30
0.0
 10
10.2744626934
 20
9.0890345225
 30
0.0
 10
10.2741576258
 20
9.0888959293
 30
0.0
 10
10.2739855561
 20
9.0888124336
 30
0.0
 10
10.2738501523
 20
9.0887619237
 30
0.0
 10
10.2737390273
 20
9.0886651162
 30
0.0
 10
10.2735823919
 20
9.0885521886
 30
0.0
 10
10.2733122257
 20
9.0883470412
 30
0.0
 10
10.2729242112
 20
9.0880579071
 30
0.0
 10
10.2724594767
 20
9.0877092625
 30
0.0
 10
10.2718395222
 20
9.0872449911
 30
0.0
 10
10.2710646848
 20
9.0866644506
 30
0.0
 10
10.2698248859
 20
9.0857356982
 30
0.0
 10
10.2682751575
 20
9.084574719
 30
0.0
 10
10.2664154748
 20
9.0831815607
 30
0.0
 10
10.2645557943
 20
9.0817883979
 30
0.0
 10
10.2620762196
 20
9.079930849
 30
0.0
 10
10.2589767516
 20
9.0776089123
 30
0.0
 10
10.2558772832
 20
9.075286976
 30
0.0
 10
10.2533977089
 20
9.0734294266
 30
0.0
 10
10.2515380272
 20
9.0720362654
 30
0.0
 10
10.2496783493
 20
9.0706431009
 30
0.0
 10
10.248128606
 20
9.069482141
 30
0.0
 10
10.2468888374
 20
9.0685533495
 30
0.0
 10
10.2461139229
 20
9.0679729084
 30
0.0
 10
10.2454941267
 20
9.0675084327
 30
0.0
 10
10.2450289087
 20
9.0671604124
 30
0.0
 10
10.2446424069
 20
9.0668693251
 30
0.0
 10
10.24436954
 20
9.0666676645
 30
0.0
 10
10.2442172319
 20
9.0665491501
 30
0.0
 10
10.2440928151
 20
9.0664695037
 30
0.0
 10
10.2440073331
 20
9.0663545392
 30
0.0
 10
10.2438797762
 20
9.0662135726
 30
0.0
 10
10.2436628793
 20
9.0659611411
 30
0.0
 10
10.2433497184
 20
9.0656035256
 30
0.0
 10
10.2429753413
 20
9.0651731025
 30
0.0
 10
10.2424756772
 20
9.0645996537
 30
0.0
 10
10.2418512665
 20
9.0638826891
 30
0.0
 10
10.2408521147
 20
9.0627356315
 30
0.0
 10
10.2396032074
 20
9.0613017802
 30
0.0
 10
10.2381045048
 20
9.0595811711
 30
0.0
 10
10.2366058059
 20
9.0578605587
 30
0.0
 10
10.2346075393
 20
9.05556641
 30
0.0
 10
10.2321097067
 20
9.0526987237
 30
0.0
 10
10.2296118737
 20
9.0498310377
 30
0.0
 10
10.2276136077
 20
9.0475368886
 30
0.0
 10
10.2261149071
 20
9.0458162775
 30
0.0
 10
10.2246162106
 20
9.0440956635
 30
0.0
 10
10.2233672844
 20
9.0426618276
 30
0.0
 10
10.2223681711
 20
9.0415147385
 30
0.0
 10
10.2217436625
 20
9.0407978542
 30
0.0
 10
10.2212441994
 20
9.0402242405
 30
0.0
 10
10.2208692085
 20
9.039794321
 30
0.0
 10
10.2205579679
 20
9.03943513
 30
0.0
 10
10.2203376429
 20
9.0391855111
 30
0.0
 10
10.2202155786
 20
9.039040038
 30
0.0
 10
10.2201132253
 20
9.0389389158
 30
0.0
 10
10.2200521744
 20
9.0388072798
 30
0.0
 10
10.2199563665
 20
9.0386424087
 30
0.0
 10
10.2197954149
 20
9.0383489252
 30
0.0
 10
10.2195619749
 20
9.0379322557
 30
0.0
 10
10.219283349
 20
9.0374311426
 30
0.0
 10
10.218911323
 20
9.0367633793
 30
0.0
 10
10.2184464703
 20
9.0359285426
 30
0.0
 10
10.2177026055
 20
9.034592878
 30
0.0
 10
10.2167728089
 20
9.0329232717
 30
0.0
 10
10.2156570383
 20
9.0309197551
 30
0.0
 10
10.2145412716
 20
9.0289162356
 30
0.0
 10
10.2130535813
 20
9.0262448773
 30
0.0
 10
10.2111939689
 20
9.0229056791
 30
0.0
 10
10.2093343562
 20
9.019566481
 30
0.0
 10
10.2078466665
 20
9.0168951223
 30
0.0
 10
10.2067308981
 20
9.0148916039
 30
0.0
 10
10.205615134
 20
9.0128880833
 30
0.0
 10
10.204685317
 20
9.0112184895
 30
0.0
 10
10.2039414939
 20
9.0098827996
 30
0.0
 10
10.2034765348
 20
9.0090480272
 30
0.0
 10
10.2031047272
 20
9.0083801318
 30
0.0
 10
10.2028254343
 20
9.0078794225
 30
0.0
 10
10.202594081
 20
9.0074614895
 30
0.0
 10
10.2024294044
 20
9.0071702616
 30
0.0
 10
10.2023395649
 20
9.0070017764
 30
0.0
 10
10.202260181
 20
9.0068812418
 30
0.0
 10
10.2022266834
 20
9.0067384244
 30
0.0
 10
10.2021660143
 20
9.0065557737
 30
0.0
 10
10.2020673007
 20
9.0062325136
 30
0.0
 10
10.2019223825
 20
9.0057726067
 30
0.0
 10
10.2017501495
 20
9.0052199081
 30
0.0
 10
10.2015199226
 20
9.0044832597
 30
0.0
 10
10.2012323385
 20
9.0035623522
 30
0.0
 10
10.2007720925
 20
9.0020889545
 30
0.0
 10
10.2001968232
 20
9.0002471887
 30
0.0
 10
10.1995064836
 20
8.9980370777
 30
0.0
 10
10.1988161484
 20
8.9958269646
 30
0.0
 10
10.1978957
 20
8.9928801479
 30
0.0
 10
10.19674514
 20
8.9891966267
 30
0.0
 10
10.1955945796
 20
8.9855131056
 30
0.0
 10
10.1946741318
 20
8.9825662886
 30
0.0
 10
10.1939837948
 20
8.9803561763
 30
0.0
 10
10.1932934623
 20
8.9781460623
 30
0.0
 10
10.1927181708
 20
8.9763043059
 30
0.0
 10
10.1922579701
 20
8.974830889
 30
0.0
 10
10.1919702706
 20
8.9739100304
 30
0.0
 10
10.1917402806
 20
8.9731732817
 30
0.0
 10
10.1915673239
 20
8.9726208893
 30
0.0
 10
10.1914246698
 20
8.9721600242
 30
0.0
 10
10.1913219145
 20
8.9718384748
 30
0.0
 10
10.1912677212
 20
8.9716530832
 30
0.0
 10
10.1912143321
 20
8.971518685
 30
0.0
 10
10.1912096574
 20
8.9713665293
 30
0.0
 10
10.1911864324
 20
8.9711698491
 30
0.0
 10
10.1911537057
 20
8.9708227728
 30
0.0
 10
10.191102814
 20
8.9703284583
 30
0.0
 10
10.1910435157
 20
8.9697346351
 30
0.0
 10
10.1909638325
 20
8.9689430964
 30
0.0
 10
10.1908644404
 20
8.9679535957
 30
0.0
 10
10.1907052946
 20
8.9663704379
 30
0.0
 10
10.190506403
 20
8.9643914758
 30
0.0
 10
10.1902677156
 20
8.9620167277
 30
0.0
 10
10.1900290329
 20
8.9596419778
 30
0.0
 10
10.1897107876
 20
8.9564756453
 30
0.0
 10
10.1893129815
 20
8.9525177294
 30
0.0
 10
10.1889151757
 20
8.9485598136
 30
0.0
 10
10.1885969299
 20
8.9453934809
 30
0.0
 10
10.188358249
 20
8.9430187314
 30
0.0
 10
10.1881195546
 20
8.9406439817
 30
0.0
 10
10.187920685
 20
8.9386650245
 30
0.0
 10
10.1877614941
 20
8.9370818568
 30
0.0
 10
10.1876622167
 20
8.9360923812
 30
0.0
 10
10.1875822981
 20
8.9353007912
 30
0.0
 10
10.1875237192
 20
8.9347071245
 30
0.0
 10
10.1874705767
 20
8.9342123204
 30
0.0
 10
10.1874377668
 20
8.9338166608
 30
0.0
 10
10.1873866432
 20
8.9335194141
 30
0.0
 10
10.1874367325
 20
8.9332240834
 30
0.0
 10
10.1874681632
 20
8.9328296399
 30
0.0
 10
10.1875195817
 20
8.9323368152
 30
0.0
 10
10.1875760919
 20
8.9317453273
 30
0.0
 10
10.1876532522
 20
8.930956711
 30
0.0
 10
10.1877490817
 20
8.9299709289
 30
0.0
 10
10.187902756
 20
8.9283936842
 30
0.0
 10
10.1880947297
 20
8.926422126
 30
0.0
 10
10.1883251492
 20
8.9240562571
 30
0.0
 10
10.1885555551
 20
8.9216903879
 30
0.0
 10
10.1888627677
 20
8.9185358958
 30
0.0
 10
10.1892467817
 20
8.9145927807
 30
0.0
 10
10.1896307969
 20
8.9106496656
 30
0.0
 10
10.1899380076
 20
8.9074951733
 30
0.0
 10
10.1901684191
 20
8.9051293046
 30
0.0
 10
10.1903988175
 20
8.9027634342
 30
0.0
 10
10.1905908571
 20
8.9007918808
 30
0.0
 10
10.190744397
 20
8.8992146262
 30
0.0
 10
10.1908405685
 20
8.898228869
 30
0.0
 10
10.1909170269
 20
8.8974402017
 30
0.0
 10
10.1909756815
 20
8.8968488698
 30
0.0
 10
10.1910203908
 20
8.8963555568
 30
0.0
 10
10.1910655096
 20
8.8959621095
 30
0.0
 10
10.1910737963
 20
8.8956637366
 30
0.0
 10
10.1911796169
 20
8.8953779119
 30
0.0
 10
10.1912866413
 20
8.8949924291
 30
0.0
 10
10.1914321109
 20
8.8945120794
 30
0.0
 10
10.191601671
 20
8.8939350161
 30
0.0
 10
10.1918294988
 20
8.8931658232
 30
0.0
 10
10.1921136852
 20
8.8922042551
 30
0.0
 10
10.1925687178
 20
8.8906657891
 30
0.0
 10
10.1931373939
 20
8.8887426919
 30
0.0
 10
10.1938198543
 20
8.8864349816
 30
0.0
 10
10.1945023016
 20
8.8841272695
 30
0.0
 10
10.1954122359
 20
8.8810503208
 30
0.0
 10
10.1965496521
 20
8.8772041345
 30
0.0
 10
10.1976870694
 20
8.8733579486
 30
0.0
 10
10.1985970019
 20
8.8702809994
 30
0.0
 10
10.1992794545
 20
8.8679732886
 30
0.0
 10
10.1999618948
 20
8.8656655736
 30
0.0
 10
10.2005306336
 20
8.863742491
 30
0.0
 10
10.2009855382
 20
8.8622039952
 30
0.0
 10
10.2012700505
 20
8.8612425029
 30
0.0
 10
10.2014972092
 20
8.8604731544
 30
0.0
 10
10.2016688136
 20
8.8598965665
 30
0.0
 10
10.2018078875
 20
8.8594147294
 30
0.0
 10
10.2019279602
 20
8.8590322812
 30
0.0
 10
10.2019939318
 20
8.8587371889
 30
0.0
 10
10.2021518286
 20
8.8584736104
 30
0.0
 10
10.2023302471
 20
8.8581111643
 30
0.0
 10
10.2025642871
 20
8.8576618835
 30
0.0
 10
10.2028404196
 20
8.8571211299
 30
0.0
 10
10.2032102432
 20
8.8564006898
 30
0.0
 10
10.2036719588
 20
8.8554999463
 30
0.0
 10
10.204411019
 20
8.8540588648
 30
0.0
 10
10.205334736
 20
8.8522574758
 30
0.0
 10
10.2064432429
 20
8.850095825
 30
0.0
 10
10.2075517373
 20
8.8479341698
 30
0.0
 10
10.2090297342
 20
8.8450519645
 30
0.0
 10
10.2108772287
 20
8.8414492072
 30
0.0
 10
10.2127247243
 20
8.8378464504
 30
0.0
 10
10.2142027195
 20
8.8349642444
 30
0.0
 10
10.2153112191
 20
8.8328025913
 30
0.0
 10
10.2164197066
 20
8.8306409326
 30
0.0
 10
10.2173434837
 20
8.8288395681
 30
0.0
 10
10.2180824214
 20
8.8273984366
 30
0.0
 10
10.2185444487
 20
8.8264978203
 30
0.0
 10
10.2189136325
 20
8.8257771192
 30
0.0
 10
10.2191917197
 20
8.8252371629
 30
0.0
 10
10.2194196438
 20
8.8247853876
 30
0.0
 10
10.2196105399
 20
8.8244280306
 30
0.0
 10
10.2197303307
 20
8.8241489103
 30
0.0
 10
10.2199393685
 20
8.8239121687
 30
0.0
 10
10.2201869104
 20
8.8235817098
 30
0.0
 10
10.2205070338
 20
8.8231737152
 30
0.0
 10
10.2208866037
 20
8.8226819477
 30
0.0
 10
10.2213942959
 20
8.822027017
 30
0.0
 10
10.2220283637
 20
8.8212080937
 30
0.0
 10
10.2230431782
 20
8.8198979616
 30
0.0
 10
10.2243115912
 20
8.8182602467
 30
0.0
 10
10.2258337319
 20
8.8162950101
 30
0.0
 10
10.2273558606
 20
8.8143297678
 30
0.0
 10
10.2293853697
 20
8.8117094468
 30
0.0
 10
10.2319222545
 20
8.8084340448
 30
0.0
 10
10.2344591402
 20
8.8051586434
 30
0.0
 10
10.2364886479
 20
8.8025383213
 30
0.0
 10
10.2380107809
 20
8.8005730823
 30
0.0
 10
10.2395329052
 20
8.7986078334
 30
0.0
 10
10.2408013694
 20
8.7969701568
 30
0.0
 10
10.2418160795
 20
8.7956599465
 30
0.0
 10
10.242450413
 20
8.7948412223
 30
0.0
 10
10.2429575597
 20
8.7941858828
 30
0.0
 10
10.2433387965
 20
8.7936953641
 30
0.0
 10
10.2436537045
 20
8.7932834624
 30
0.0
 10
10.2439118869
 20
8.7929609747
 30
0.0
 10
10.2440884292
 20
8.7926998894
 30
0.0
 10
10.2443302217
 20
8.7925121655
 30
0.0
 10
10.2446298189
 20
8.7922362409
 30
0.0
 10
10.2450121355
 20
8.7919001273
 30
0.0
 10
10.2454675682
 20
8.7914930277
 30
0.0
 10
10.2460759809
 20
8.7909515426
 30
0.0
 10
10.2468360965
 20
8.7902742362
 30
0.0
 10
10.2480525052
 20
8.7891907975
 30
0.0
 10
10.2495729393
 20
8.7878364128
 30
0.0
 10
10.2513974932
 20
8.7862111882
 30
0.0
 10
10.2532220382
 20
8.7845859536
 30
0.0
 10
10.255654768
 20
8.7824189777
 30
0.0
 10
10.2586956791
 20
8.7797102565
 30
0.0
 10
10.2617365909
 20
8.7770015362
 30
0.0
 10
10.2641693195
 20
8.7748345589
 30
0.0
 10
10.2659938679
 20
8.7732093287
 30
0.0
 10
10.2678184089
 20
8.7715840878
 30
0.0
 10
10.269338883
 20
8.7702297535
 30
0.0
 10
10.2705552102
 20
8.769146212
 30
0.0
 10
10.2713155332
 20
8.7684691673
 30
0.0
 10
10.2719235202
 20
8.7679271449
 30
0.0
 10
10.2723802537
 20
8.7675216869
 30
0.0
 10
10.2727585004
 20
8.7671804371
 30
0.0
 10
10.273066401
 20
8.7669149913
 30
0.0
 10
10.2732828357
 20
8.7666952659
 30
0.0
 10
10.2735545815
 20
8.7665543274
 30
0.0
 10
10.2738975884
 20
8.7663388882
 30
0.0
 10
10.2743329759
 20
8.7660790315
 30
0.0
 10
10.2748526035
 20
8.7657631619
 30
0.0
 10
10.2755464314
 20
8.7653434141
 30
0.0
 10
10.2764133769
 20
8.7648182459
 30
0.0
 10
10.2778006794
 20
8.763978247
 30
0.0
 10
10.2795347424
 20
8.7629281557
 30
0.0
 10
10.281615646
 20
8.7616680858
 30
0.0
 10
10.283696542
 20
8.7604080053
 30
0.0
 10
10.2864710727
 20
8.7587279017
 30
0.0
 10
10.2899392351
 20
8.7566277708
 30
0.0
 10
10.2934073981
 20
8.7545276409
 30
0.0
 10
10.2961819279
 20
8.7528475357
 30
0.0
 10
10.2982628266
 20
8.75158746
 30
0.0
 10
10.3003437201
 20
8.7503273722
 30
0.0
 10
10.3020778142
 20
8.7492773365
 30
0.0
 10
10.3034650534
 20
8.7484372241
 30
0.0
 10
10.3043321598
 20
8.7479123449
 30
0.0
 10
10.3050256574
 20
8.747492004
 30
0.0
 10
10.3055462941
 20
8.7471779462
 30
0.0
 10
10.3059785246
 20
8.7469124207
 30
0.0
 10
10.3063279724
 20
8.746708547
 30
0.0
 10
10.306580048
 20
8.7465322878
 30
0.0
 10
10.3068703331
 20
8.7464451713
 30
0.0
 10
10.3072440328
 20
8.7462978771
 30
0.0
 10
10.3077157367
 20
8.746124443
 30
0.0
 10
10.3082798214
 20
8.7459117492
 30
0.0
 10
10.3090326189
 20
8.7456297547
 30
0.0
 10
10.3099733813
 20
8.7452767146
 30
0.0
 10
10.3114787322
 20
8.7447121562
 30
0.0
 10
10.3133603759
 20
8.7440063532
 30
0.0
 10
10.3156183676
 20
8.7431594346
 30
0.0
 10
10.3178763542
 20
8.742312504
 30
0.0
 10
10.3208870047
 20
8.7411832674
 30
0.0
 10
10.3246503172
 20
8.7397717201
 30
0.0
 10
10.3284136302
 20
8.7383601739
 30
0.0
 10
10.3314242801
 20
8.7372309356
 30
0.0
 10
10.3336822685
 20
8.7363840102
 30
0.0
 10
10.3359402531
 20
8.735537072
 30
0.0
 10
10.337821919
 20
8.7348313302
 30
0.0
 10
10.3393272246
 20
8.734266647
 30
0.0
 10
10.3402681023
 20
8.7339139245
 30
0.0
 10
10.3410206633
 20
8.733631278
 30
0.0
 10
10.3415854705
 20
8.7334205759
 30
0.0
 10
10.3420549136
 20
8.7332409102
 30
0.0
 10
10.3424332259
 20
8.7331063297
 30
0.0
 10
10.3427094243
 20
8.7329803866
 30
0.0
 10
10.3430143873
 20
8.7329498986
 30
0.0
 10
10.3434109568
 20
8.7328759042
 30
0.0
 10
10.343910116
 20
8.7327948513
 30
0.0
 10
10.3445076315
 20
8.7326926911
 30
0.0
 10
10.3453048342
 20
8.7325581878
 30
0.0
 10
10.3463011611
 20
8.7323894731
 30
0.0
 10
10.3478953827
 20
8.7321198569
 30
0.0
 10
10.349888126
 20
8.7317827243
 30
0.0
 10
10.3522794324
 20
8.7313782133
 30
0.0
 10
10.3546707349
 20
8.7309736895
 30
0.0
 10
10.3578591396
 20
8.7304343288
 30
0.0
 10
10.361844645
 20
8.7297601265
 30
0.0
 10
10.3666272517
 20
8.7289510843
 30
0.0
 10
10.3730040605
 20
8.7278723612
 30
0.0
 10
10.3777866672
 20
8.7270633189
 30
0.0
 10
10.3809750716
 20
8.7265239574
 30
0.0
  0
SPLINE
  5
39D
100
AcDbEntity
  8
0
100
AcDbSpline
 62
7
  6
CONTINUOUS
 70
0
 71
3
 72
140
 73
136
 74
0
 42
0.0000001
 43
0.0000001
 44
0.0000000001
 40
0.0
 40
0.0
 40
0.0
 40
0.0
 40
0.03125
 40
0.046875
 40
0.0546875
 40
0.0625
 40
0.0703125
 40
0.078125
 40
0.09375
 40
0.109375
 40
0.1171875
 40
0.125
 40
0.1328125
 40
0.140625
 40
0.15625
 40
0.171875
 40
0.1796875
 40
0.1875
 40
0.1953125
 40
0.203125
 40
0.21875
 40
0.234375
 40
0.2421875
 40
0.24609375
 40
0.25
 40
0.25390625
 40
0.2578125
 40
0.265625
 40
0.28125
 40
0.296875
 40
0.3046875
 40
0.30859375
 40
0.3125
 40
0.31640625
 40
0.3203125
 40
0.328125
 40
0.34375
 40
0.359375
 40
0.3671875
 40
0.37109375
 40
0.373046875
 40
0.375
 40
0.376953125
 40
0.37890625
 40
0.3828125
 40
0.390625
 40
0.40625
 40
0.421875
 40
0.4296875
 40
0.43359375
 40
0.435546875
 40
0.4375
 40
0.439453125
 40
0.44140625
 40
0.4453125
 40
0.453125
 40
0.46875
 40
0.4765625
 40
0.484375
 40
0.4921875
 40
0.49609375
 40
0.498046875
 40
0.5
 40
0.501953125
 40
0.50390625
 40
0.5078125
 40
0.515625
 40
0.53125
 40
0.546875
 40
0.5546875
 40
0.55859375
 40
0.560546875
 40
0.5625
 40
0.564453125
 40
0.56640625
 40
0.5703125
 40
0.578125
 40
0.59375
 40
0.609375
 40
0.6171875
 40
0.62109375
 40
0.623046875
 40
0.625
 40
0.626953125
 40
0.62890625
 40
0.6328125
 40
0.640625
 40
0.65625
 40
0.671875
 40
0.6796875
 40
0.68359375
 40
0.685546875
 40
0.6875
 40
0.689453125
 40
0.69140625
 40
0.6953125
 40
0.703125
 40
0.7109375
 40
0.71875
 40
0.734375
 40
0.7421875
 40
0.74609375
 40
0.748046875
 40
0.75
 40
0.751953125
 40
0.75390625
 40
0.7578125
 40
0.765625
 40
0.78125
 40
0.796875
 40
0.8046875
 40
0.80859375
 40
0.8125
 40
0.81640625
 40
0.8203125
 40
0.828125
 40
0.84375
 40
0.859375
 40
0.8671875
 40
0.87109375
 40
0.875
 40
0.87890625
 40
0.8828125
 40
0.890625
 40
0.90625
 40
0.921875
 40
0.9296875
 40
0.93359375
 40
0.9375
 40
0.94140625
 40
0.9453125
 40
0.953125
 40
0.96875
 40
0.984375
 40
1.0
 40
1.0
 40
1.0
 40
1.0
 10
10.6901247776
 20
10.6609407549
 30
0.0
 10
10.6911195942
 20
10.6608981299
 30
0.0
 10
10.6926121345
 20
10.6608354224
 30
0.0
 10
10.6943523278
 20
10.6607579584
 30
0.0
 10
10.6953483007
 20
10.6607198437
 30
0.0
 10
10.6960908653
 20
10.6606740363
 30
0.0
 10
10.6968503022
 20
10.6606940393
 30
0.0
 10
10.6978570404
 20
10.6606976192
 30
0.0
 10
10.6991171145
 20
10.6607107491
 30
0.0
 10
10.7003778885
 20
10.6607181225
 30
0.0
 10
10.701383507
 20
10.6607309126
 30
0.0
 10
10.7021463031
 20
10.6607232852
 30
0.0
 10
10.7028762708
 20
10.6607810919
 30
0.0
 10
10.7038611229
 20
10.6608352081
 30
0.0
 10
10.7050875459
 20
10.6609114641
 30
0.0
 10
10.7063180849
 20
10.6609819763
 30
0.0
 10
10.7072963514
 20
10.6610452825
 30
0.0
 10
10.7080460757
 20
10.6610755193
 30
0.0
 10
10.7087347847
 20
10.6611712794
 30
0.0
 10
10.7096742985
 20
10.6612760986
 30
0.0
 10
10.7108419655
 20
10.6614147721
 30
0.0
 10
10.7120099896
 20
10.6615514239
 30
0.0
 10
10.7128315642
 20
10.6616459709
 30
0.0
 10
10.7132941435
 20
10.6617025059
 30
0.0
 10
10.713660623
 20
10.6617376996
 30
0.0
 10
10.7139523686
 20
10.6618004696
 30
0.0
 10
10.714367439
 20
10.6618745416
 30
0.0
 10
10.7150815801
 20
10.662008675
 30
0.0
 10
10.7161088419
 20
10.6621977398
 30
0.0
 10
10.7171311621
 20
10.6623884363
 30
0.0
 10
10.7178522214
 20
10.6625202852
 30
0.0
 10
10.7182564204
 20
10.662597947
 30
0.0
 10
10.7185815214
 20
10.6626497029
 30
0.0
 10
10.7188227328
 20
10.6627262607
 30
0.0
 10
10.7191736064
 20
10.6628196872
 30
0.0
 10
10.7197740354
 20
10.6629872078
 30
0.0
 10
10.7206386422
 20
10.6632244689
 30
0.0
 10
10.7215017489
 20
10.6634622808
 30
0.0
 10
10.722104278
 20
10.6636290303
 30
0.0
 10
10.7224084047
 20
10.6637118387
 30
0.0
 10
10.7225775199
 20
10.6637600885
 30
0.0
 10
10.722717553
 20
10.6637936456
 30
0.0
 10
10.7228071351
 20
10.6638372584
 30
0.0
 10
10.7229441745
 20
10.6638919015
 30
0.0
 10
10.7231758073
 20
10.6639891585
 30
0.0
 10
10.7236449236
 20
10.6641825079
 30
0.0
 10
10.7243117189
 20
10.6644593799
 30
0.0
 10
10.7249808535
 20
10.6647358359
 30
0.0
 10
10.7254466949
 20
10.6649297677
 30
0.0
 10
10.7256828307
 20
10.6650262239
 30
0.0
 10
10.7258126184
 20
10.6650821565
 30
0.0
 10
10.7259244818
 20
10.6651218075
 30
0.0
 10
10.7259808285
 20
10.6651702447
 30
0.0
 10
10.7260753205
 20
10.6652317633
 30
0.0
 10
10.7262316773
 20
10.6653408458
 30
0.0
 10
10.7265507845
 20
10.6655579977
 30
0.0
 10
10.7269127987
 20
10.6658066046
 30
0.0
 10
10.7272755453
 20
10.6660550695
 30
0.0
 10
10.7275480877
 20
10.6662414109
 30
0.0
 10
10.7277732932
 20
10.6663967789
 30
0.0
 10
10.7279347437
 20
10.6665053642
 30
0.0
 10
10.7280210494
 20
10.6665676833
 30
0.0
 10
10.7281025461
 20
10.6666136609
 30
0.0
 10
10.7281199489
 20
10.6666625501
 30
0.0
 10
10.7281655077
 20
10.6667267201
 30
0.0
 10
10.7282348362
 20
10.6668394901
 30
0.0
 10
10.7283809209
 20
10.6670646938
 30
0.0
 10
10.7285853721
 20
10.6673865956
 30
0.0
 10
10.7287926407
 20
10.6677084091
 30
0.0
 10
10.728934781
 20
10.6679337365
 30
0.0
 10
10.7290095332
 20
10.6680463363
 30
0.0
 10
10.7290463577
 20
10.6681107804
 30
0.0
 10
10.729090597
 20
10.6681588277
 30
0.0
 10
10.7290712985
 20
10.6682079673
 30
0.0
 10
10.7290677282
 20
10.6682731058
 30
0.0
 10
10.729051171
 20
10.6683872752
 30
0.0
 10
10.7290254201
 20
10.6686154897
 30
0.0
 10
10.7289844276
 20
10.6689415639
 30
0.0
 10
10.7289462317
 20
10.6692676609
 30
0.0
 10
10.7289165656
 20
10.6694958436
 30
0.0
 10
10.7289053919
 20
10.6696100568
 30
0.0
 10
10.7288931522
 20
10.6696751247
 30
0.0
 10
10.7289004911
 20
10.669724481
 30
0.0
 10
10.7288446826
 20
10.6697717145
 30
0.0
 10
10.7287922962
 20
10.669835433
 30
0.0
 10
10.7286903741
 20
10.6699465958
 30
0.0
 10
10.7284938486
 20
10.6701691686
 30
0.0
 10
10.7282089151
 20
10.6704869786
 30
0.0
 10
10.7279267722
 20
10.6708049226
 30
0.0
 10
10.72772634
 20
10.6710273078
 30
0.0
 10
10.7276297896
 20
10.6711387285
 30
0.0
 10
10.7275687527
 20
10.6712020316
 30
0.0
 10
10.7275395234
 20
10.6712505415
 30
0.0
 10
10.7274470331
 20
10.6712951039
 30
0.0
 10
10.7273457787
 20
10.6713558974
 30
0.0
 10
10.7271583034
 20
10.6714616447
 30
0.0
 10
10.7268958491
 20
10.6716130462
 30
0.0
 10
10.7265786371
 20
10.6717945906
 30
0.0
 10
10.7261563272
 20
10.67203667
 30
0.0
 10
10.7257347139
 20
10.6722789031
 30
0.0
 10
10.725363554
 20
10.6724904405
 30
0.0
 10
10.7251810417
 20
10.6725967668
 30
0.0
 10
10.7250718114
 20
10.6726566283
 30
0.0
 10
10.7250038247
 20
10.6727040542
 30
0.0
 10
10.7248825627
 20
10.6727418091
 30
0.0
 10
10.7247394606
 20
10.6727955218
 30
0.0
 10
10.7244803998
 20
10.6728879524
 30
0.0
 10
10.7239683156
 20
10.6730739052
 30
0.0
 10
10.7232343442
 20
10.6733391481
 30
0.0
 10
10.7224985631
 20
10.6736039279
 30
0.0
 10
10.7219890125
 20
10.673790529
 30
0.0
 10
10.7216889617
 20
10.6738951454
 30
0.0
 10
10.7214889901
 20
10.6739792873
 30
0.0
 10
10.7211931923
 20
10.6740417169
 30
0.0
 10
10.7208322281
 20
10.6741325325
 30
0.0
 10
10.7201848865
 20
10.6742879041
 30
0.0
 10
10.7192689188
 20
10.6745119293
 30
0.0
 10
10.7183475449
 20
10.6747344644
 30
0.0
 10
10.7177077719
 20
10.6748919221
 30
0.0
 10
10.7173349143
 20
10.6749794596
 30
0.0
 10
10.7170756077
 20
10.6750519467
 30
0.0
 10
10.7167385913
 20
10.675098317
 30
0.0
 10
10.7163163489
 20
10.6751692567
 30
0.0
 10
10.7155647251
 20
10.6752891272
 30
0.0
 10
10.7144981581
 20
10.6754628332
 30
0.0
 10
10.7134270552
 20
10.6756348303
 30
0.0
 10
10.7126817818
 20
10.6757570932
 30
0.0
 10
10.7122495601
 20
10.6758242734
 30
0.0
 10
10.7119431621
 20
10.6758821787
 30
0.0
 10
10.7115688664
 20
10.6759113455
 30
0.0
 10
10.711093489
 20
10.675960259
 30
0.0
 10
10.7102505436
 20
10.6760411869
 30
0.0
 10
10.7090521086
 20
10.6761592415
 30
0.0
 10
10.7076115
 20
10.6762998545
 30
0.0
 10
10.7066515678
 20
10.676393797
 30
0.0
 10
10.7061715426
 20
10.6764407432
 30
0.0
  0
SPLINE
  5
39E
100
AcDbEntity
  8
0
100
AcDbSpline
 62
7
  6
CONTINUOUS
 70
0
 71
3
 72
140
 73
136
 74
0
 42
0.0000001
 43
0.0000001
 44
0.0000000001
 40
0.0
 40
0.0
 40
0.0
 40
0.0
 40
0.03125
 40
0.046875
 40
0.0546875
 40
0.0625
 40
0.0703125
 40
0.078125
 40
0.09375
 40
0.109375
 40
0.1171875
 40
0.125
 40
0.1328125
 40
0.140625
 40
0.15625
 40
0.171875
 40
0.1796875
 40
0.1875
 40
0.1953125
 40
0.203125
 40
0.21875
 40
0.234375
 40
0.2421875
 40
0.24609375
 40
0.25
 40
0.25390625
 40
0.2578125
 40
0.265625
 40
0.28125
 40
0.296875
 40
0.3046875
 40
0.30859375
 40
0.3125
 40
0.31640625
 40
0.3203125
 40
0.328125
 40
0.34375
 40
0.359375
 40
0.3671875
 40
0.37109375
 40
0.373046875
 40
0.375
 40
0.376953125
 40
0.37890625
 40
0.3828125
 40
0.390625
 40
0.40625
 40
0.421875
 40
0.4296875
 40
0.43359375
 40
0.435546875
 40
0.4375
 40
0.439453125
 40
0.44140625
 40
0.4453125
 40
0.453125
 40
0.46875
 40
0.4765625
 40
0.484375
 40
0.4921875
 40
0.49609375
 40
0.498046875
 40
0.5
 40
0.501953125
 40
0.50390625
 40
0.5078125
 40
0.515625
 40
0.53125
 40
0.546875
 40
0.5546875
 40
0.55859375
 40
0.560546875
 40
0.5625
 40
0.564453125
 40
0.56640625
 40
0.5703125
 40
0.578125
 40
0.59375
 40
0.609375
 40
0.6171875
 40
0.62109375
 40
0.623046875
 40
0.625
 40
0.626953125
 40
0.62890625
 40
0.6328125
 40
0.640625
 40
0.65625
 40
0.671875
 40
0.6796875
 40
0.68359375
 40
0.685546875
 40
0.6875
 40
0.689453125
 40
0.69140625
 40
0.6953125
 40
0.703125
 40
0.7109375
 40
0.71875
 40
0.734375
 40
0.7421875
 40
0.74609375
 40
0.748046875
 40
0.75
 40
0.751953125
 40
0.75390625
 40
0.7578125
 40
0.765625
 40
0.78125
 40
0.796875
 40
0.8046875
 40
0.80859375
 40
0.8125
 40
0.81640625
 40
0.8203125
 40
0.828125
 40
0.84375
 40
0.859375
 40
0.8671875
 40
0.87109375
 40
0.875
 40
0.87890625
 40
0.8828125
 40
0.890625
 40
0.90625
 40
0.921875
 40
0.9296875
 40
0.93359375
 40
0.9375
 40
0.94140625
 40
0.9453125
 40
0.953125
 40
0.96875
 40
0.984375
 40
1.0
 40
1.0
 40
1.0
 40
1.0
 10
10.7061715452
 20
10.676440743
 30
0.0
 10
10.7051767286
 20
10.676483368
 30
0.0
 10
10.7036841883
 20
10.6765460755
 30
0.0
 10
10.701943995
 20
10.6766235395
 30
0.0
 10
10.7009480221
 20
10.6766616542
 30
0.0
 10
10.7002054575
 20
10.6767074616
 30
0.0
 10
10.6994460206
 20
10.6766874586
 30
0.0
 10
10.6984392824
 20
10.6766838787
 30
0.0
 10
10.6971792083
 20
10.6766707488
 30
0.0
 10
10.6959184343
 20
10.6766633754
 30
0.0
 10
10.6949128158
 20
10.6766505853
 30
0.0
 10
10.6941500197
 20
10.6766582127
 30
0.0
 10
10.693420052
 20
10.676600406
 30
0.0
 10
10.6924351999
 20
10.6765462898
 30
0.0
 10
10.6912087769
 20
10.6764700338
 30
0.0
 10
10.6899782379
 20
10.6763995216
 30
0.0
 10
10.6889999714
 20
10.6763362154
 30
0.0
 10
10.6882502471
 20
10.6763059786
 30
0.0
 10
10.6875615381
 20
10.6762102185
 30
0.0
 10
10.6866220243
 20
10.6761053993
 30
0.0
 10
10.6854543573
 20
10.6759667258
 30
0.0
 10
10.6842863332
 20
10.675830074
 30
0.0
 10
10.6834647586
 20
10.675735527
 30
0.0
 10
10.6830021793
 20
10.675678992
 30
0.0
 10
10.6826356998
 20
10.6756437983
 30
0.0
 10
10.6823439542
 20
10.6755810283
 30
0.0
 10
10.6819288838
 20
10.6755069563
 30
0.0
 10
10.6812147427
 20
10.6753728229
 30
0.0
 10
10.6801874809
 20
10.6751837581
 30
0.0
 10
10.6791651607
 20
10.6749930616
 30
0.0
 10
10.6784441014
 20
10.6748612127
 30
0.0
 10
10.6780399024
 20
10.6747835509
 30
0.0
 10
10.6777148014
 20
10.674731795
 30
0.0
 10
10.67747359
 20
10.6746552372
 30
0.0
 10
10.6771227164
 20
10.6745618107
 30
0.0
 10
10.6765222874
 20
10.6743942901
 30
0.0
 10
10.6756576806
 20
10.674157029
 30
0.0
 10
10.6747945739
 20
10.6739192171
 30
0.0
 10
10.6741920448
 20
10.6737524676
 30
0.0
 10
10.6738879181
 20
10.6736696592
 30
0.0
 10
10.6737188029
 20
10.6736214094
 30
0.0
 10
10.6735787698
 20
10.6735878523
 30
0.0
 10
10.6734891877
 20
10.6735442395
 30
0.0
 10
10.6733521483
 20
10.6734895964
 30
0.0
 10
10.6731205155
 20
10.6733923394
 30
0.0
 10
10.6726513992
 20
10.67319899
 30
0.0
 10
10.6719846039
 20
10.672922118
 30
0.0
 10
10.6713154693
 20
10.672645662
 30
0.0
 10
10.6708496279
 20
10.6724517302
 30
0.0
 10
10.6706134921
 20
10.672355274
 30
0.0
 10
10.6704837043
 20
10.6722993414
 30
0.0
 10
10.670371841
 20
10.6722596904
 30
0.0
 10
10.6703154943
 20
10.6722112532
 30
0.0
 10
10.6702210023
 20
10.6721497346
 30
0.0
 10
10.6700646455
 20
10.6720406521
 30
0.0
 10
10.6697455383
 20
10.6718235002
 30
0.0
 10
10.6693835241
 20
10.6715748933
 30
0.0
 10
10.6690207774
 20
10.6713264284
 30
0.0
 10
10.6687482351
 20
10.671140087
 30
0.0
 10
10.6685230296
 20
10.670984719
 30
0.0
 10
10.6683615791
 20
10.6708761337
 30
0.0
 10
10.6682752734
 20
10.6708138146
 30
0.0
 10
10.6681937767
 20
10.670767837
 30
0.0
 10
10.6681763739
 20
10.6707189478
 30
0.0
 10
10.6681308151
 20
10.6706547778
 30
0.0
 10
10.6680614866
 20
10.6705420078
 30
0.0
 10
10.6679154019
 20
10.6703168041
 30
0.0
 10
10.6677109507
 20
10.6699949023
 30
0.0
 10
10.6675036821
 20
10.6696730888
 30
0.0
 10
10.6673615418
 20
10.6694477614
 30
0.0
 10
10.6672867896
 20
10.6693351616
 30
0.0
 10
10.6672499651
 20
10.6692707175
 30
0.0
 10
10.6672057258
 20
10.6692226702
 30
0.0
 10
10.6672250243
 20
10.6691735306
 30
0.0
 10
10.6672285946
 20
10.6691083921
 30
0.0
 10
10.6672451518
 20
10.6689942227
 30
0.0
 10
10.6672709027
 20
10.6687660082
 30
0.0
 10
10.6673118952
 20
10.668439934
 30
0.0
 10
10.6673500911
 20
10.668113837
 30
0.0
 10
10.6673797572
 20
10.6678856543
 30
0.0
 10
10.6673909309
 20
10.6677714411
 30
0.0
 10
10.6674031706
 20
10.6677063732
 30
0.0
 10
10.6673958317
 20
10.6676570169
 30
0.0
 10
10.6674516402
 20
10.6676097834
 30
0.0
 10
10.6675040266
 20
10.6675460649
 30
0.0
 10
10.6676059487
 20
10.6674349021
 30
0.0
 10
10.6678024742
 20
10.6672123293
 30
0.0
 10
10.6680874077
 20
10.6668945193
 30
0.0
 10
10.6683695506
 20
10.6665765753
 30
0.0
 10
10.6685699828
 20
10.6663541901
 30
0.0
 10
10.6686665332
 20
10.6662427694
 30
0.0
 10
10.6687275701
 20
10.6661794663
 30
0.0
 10
10.6687567994
 20
10.6661309564
 30
0.0
 10
10.6688492897
 20
10.666086394
 30
0.0
 10
10.6689505441
 20
10.6660256005
 30
0.0
 10
10.6691380194
 20
10.6659198532
 30
0.0
 10
10.6694004737
 20
10.6657684517
 30
0.0
 10
10.6697176857
 20
10.6655869073
 30
0.0
 10
10.6701399956
 20
10.6653448279
 30
0.0
 10
10.6705616089
 20
10.6651025948
 30
0.0
 10
10.6709327688
 20
10.6648910574
 30
0.0
 10
10.6711152811
 20
10.6647847311
 30
0.0
 10
10.6712245114
 20
10.6647248696
 30
0.0
 10
10.6712924981
 20
10.6646774437
 30
0.0
 10
10.6714137601
 20
10.6646396888
 30
0.0
 10
10.6715568622
 20
10.6645859761
 30
0.0
 10
10.671815923
 20
10.6644935455
 30
0.0
 10
10.6723280072
 20
10.6643075927
 30
0.0
 10
10.6730619786
 20
10.6640423498
 30
0.0
 10
10.6737977597
 20
10.66377757
 30
0.0
 10
10.6743073103
 20
10.6635909689
 30
0.0
 10
10.6746073611
 20
10.6634863525
 30
0.0
 10
10.6748073327
 20
10.6634022106
 30
0.0
 10
10.6751031305
 20
10.663339781
 30
0.0
 10
10.6754640947
 20
10.6632489654
 30
0.0
 10
10.6761114363
 20
10.6630935938
 30
0.0
 10
10.677027404
 20
10.6628695686
 30
0.0
 10
10.6779487779
 20
10.6626470335
 30
0.0
 10
10.6785885509
 20
10.6624895758
 30
0.0
 10
10.6789614085
 20
10.6624020383
 30
0.0
 10
10.6792207151
 20
10.6623295512
 30
0.0
 10
10.6795577315
 20
10.6622831809
 30
0.0
 10
10.6799799739
 20
10.6622122412
 30
0.0
 10
10.6807315977
 20
10.6620923707
 30
0.0
 10
10.6817981647
 20
10.6619186647
 30
0.0
 10
10.6828692676
 20
10.6617466676
 30
0.0
 10
10.683614541
 20
10.6616244047
 30
0.0
 10
10.6840467627
 20
10.6615572245
 30
0.0
 10
10.6843531607
 20
10.6614993192
 30
0.0
 10
10.6847274564
 20
10.6614701524
 30
0.0
 10
10.6852028338
 20
10.6614212389
 30
0.0
 10
10.6860457792
 20
10.661340311
 30
0.0
 10
10.6872442142
 20
10.6612222564
 30
0.0
 10
10.6886848228
 20
10.6610816434
 30
0.0
 10
10.689644755
 20
10.6609877009
 30
0.0
 10
10.6901247802
 20
10.6609407547
 30
0.0
  0
ENDSEC
  0
SECTION
  2
OBJECTS
  0
DICTIONARY
  5
C
100
AcDbDictionary
280
0
281
1
  3
ACAD_GROUP
350
D
  3
ACAD_MLINESTYLE
350
17
  3
ACAD_LAYOUT
350
1A
  3
ACAD_PLOTSETTINGS
350
19
  3
ACAD_PLOTSTYLENAME
350
E
  3
ACAD_IMAGE_DICT
350
       3A0
  3
ACAD_IMAGE_VARS
350
       3A1
  3
ACAD_TABLESTYLE
350
       3A2
  0
IMAGEDEF_REACTOR
  5
39F
100
AcDbRasterImageDefReactor
 90
2
330
28F
  0
DICTIONARY
  5
D
102
{ACAD_REACTORS
330
C
102
}
100
AcDbDictionary
280
0
281
1
  0
ACDBDICTIONARYWDFLT
  5
E
102
{ACAD_REACTORS
330
C
102
}
100
AcDbDictionary
281
1
  3
Normal
350
F
100
AcDbDictionaryWithDefault
340
F
  0
DICTIONARY
  5
3A0
330
C
100
AcDbDictionary
281
1
  3
B4L_assy_2_img_1
350
       3A5
  0
RASTERVARIABLES
  5
3A1
330
C
100
AcDbRasterVariables
 90
0
 70
0
 71
1
 72
5
  0
DICTIONARY
  5
17
102
{ACAD_REACTORS
330
C
102
}
100
AcDbDictionary
280
0
281
1
  3
Standard
350
18
  0
DICTIONARY
  5
3A2
330
C
100
AcDbDictionary
281
1
  3
Standard
350
       3A6
  3
Standard1
350
       3A7
  0
DICTIONARY
  5
19
102
{ACAD_REACTORS
330
C
102
}
100
AcDbDictionary
281
1
  0
DICTIONARY
  5
1A
102
{ACAD_REACTORS
330
C
102
}
100
AcDbDictionary
281
1
  3
Model
350
3A3
  3
Layout1
350
3A4
  0
ACDBPLACEHOLDER
  5
F
102
{ACAD_REACTORS
330
E
102
}
  0
MLINESTYLE
  5
18
102
{ACAD_REACTORS
330
17
102
}
100
AcDbMlineStyle
  2
STANDARD
 70
0
  3

 62
256
 51
90.0
 52
90.0
 71
2
 49
0.5
 62
256
  6
BYLAYER
 49
-0.5
 62
256
  6
BYLAYER
  0
LAYOUT
  5
3A3
102
{ACAD_REACTORS
330
1A
102
}
100
AcDbPlotSettings
  1

  2
none_device
  4
ANSI_C_(22.00_x_17.00_Inches)
  6

 40
0.0
 41
0.0
 42
0.0
 43
0.0
 44
558.8
 45
431.8
 46
0.0
 47
0.0
 48
0.0
 49
0.0
140
0.0
141
0.0
142
1.0
143
1.0
 70
1024
 72
0
 73
0
 74
0
  7

 75
0
147
1.0
148
0.0
149
0.0
100
AcDbLayout
  1
Model
 70
0
 71
0
 10
0.0
 20
0.0
 11
22.0
 21
17.0
 12
0.0
 22
0.0
 32
0.0
 14
0.0
 24
0.0
 34
0.0
 15
0.0
 25
0.0
 35
0.0
146
0.0
 13
0.0
 23
0.0
 33
0.0
 16
1.0
 26
0.0
 36
0.0
 17
0.0
 27
1.0
 37
0.0
 76
0
330
20C
345
0
346
0
  0
LAYOUT
  5
3A4
102
{ACAD_REACTORS
330
1A
102
}
100
AcDbPlotSettings
  1

  2
none_device
  4
ANSI_C_(22.00_x_17.00_Inches)
  6

 40
0.0
 41
0.0
 42
0.0
 43
0.0
 44
558.8
 45
431.8
 46
0.0
 47
0.0
 48
0.0
 49
0.0
140
0.0
141
0.0
142
1.0
143
1.0
 70
0
 72
0
 73
0
 74
0
  7

 75
0
147
1.0
148
0.0
149
0.0
100
AcDbLayout
  1
Layout1
 70
0
 71
1
 10
0.0
 20
0.0
 11
22.0
 21
17.0
 12
0.0
 22
0.0
 32
0.0
 14
0.0
 24
0.0
 34
0.0
 15
0.0
 25
0.0
 35
0.0
146
0.0
 13
0.0
 23
0.0
 33
0.0
 16
1.0
 26
0.0
 36
0.0
 17
0.0
 27
1.0
 37
0.0
 76
0
330
20D
345
0
346
0
  0
IMAGEDEF
  5
3A5
102
{ACAD_REACTORS
330
3A0
330
39F
102
}
100
AcDbRasterImageDef
 90
0
  1
B4L_assy_2_img_1.png
 10
369.0
 20
92.0
 11
0.0066666667
 21
0.0066666667
280
1
281
0
  0
TABLESTYLE
  5
3A6
102
{ACAD_REACTORS
330
3A2
330
292
330
293
102
}
330
3A2
100
AcDbTableStyle
  3
Standard
 70
0
 71
0
 40
0.06
 41
0.06
280
1
281
1
  7
Standard
140
0.18
170
1
 62
0
 63
7
283
0
  7
Standard
140
0.18
170
1
 62
0
 63
7
283
0
  7
Standard
140
0.18
170
1
 62
0
 63
7
283
0
  0
TABLESTYLE
  5
3A7
102
{ACAD_REACTORS
330
3A2
330
291
102
}
330
3A2
100
AcDbTableStyle
  3
Standard1
 70
1
 71
0
 40
0.06
 41
0.06
280
1
281
1
  7
Standard
140
0.18
170
1
 62
0
 63
7
283
0
  7
Standard
140
0.18
170
1
 62
0
 63
7
283
0
  7
Standard
140
0.18
170
1
 62
0
 63
7
283
0
  0
ENDSEC
  0
EOF
