999
DXF file: B4B_assy_2.dxf
999
Pro/ENGINEER 2014200 by Parametric Technology Corporation
  0
SECTION
  2
HEADER
  9
$ACADVER
  1
AC1021
  9
$DWGCODEPAGE
  3
ANSI_1252
  9
$EXTMAX
 10
22.0
 20
17.0
 30
0.0
  9
$EXTMIN
 10
0.0
 20
0.0
 30
0.0
  9
$LIMMIN
 10
0.0
 20
0.0
  9
$LIMMAX
 10
22.0
 20
17.0
  9
$VIEWCTR
 10
11.0
 20
8.5
  9
$VIEWSIZE
 40
17.0
  9
$CLAYER
  8
0
  9
$LTSCALE
 40
1.21
  9
$CELTYPE
  6
BYLAYER
  9
$DIMSCALE
 40
1.0
  9
$DIMASZ
 40
0.1875
  9
$DIMEXO
 40
0.0625
  9
$DIMDLI
 40
0.836
  9
$DIMEXE
 40
0.125
  9
$DIMCEN
 40
0.198
  9
$DIMLFAC
 40
1.0
  9
$DIMBLK
  1
_FILLED
  9
$DIMTXT
 40
0.1
  9
$DIMTOL
 70
0
  9
$DIMLIM
 70
0
  9
$DIMTFAC
 40
1.0
  9
$DIMGAP
 40
0.09
  9
$DIMDSEP
 70
46
  9
$AUNITS
 70
0
  9
$PDMODE
 70
3
  9
$PDSIZE
 40
0.3125
  9
$HANDSEED
  5
3A4
  9
$TILEMODE
 70
1
  9
$MEASUREMENT
 70
0
  9
$INSUNITS
 70
1
  0
ENDSEC
  0
SECTION
  2
CLASSES
  0
CLASS
  1
ACDBDICTIONARYWDFLT
  2
AcDbDictionaryWithDefault
  3
AutoCAD 2000
 90
0
 91
1
280
0
281
0
  0
CLASS
  1
ACDBPLACEHOLDER
  2
AcDbPlaceHolder
  3
AutoCAD 2000
 90
0
 91
1
280
0
281
0
  0
CLASS
  1
LAYOUT
  2
AcDbLayout
  3
AutoCAD 2000
 90
0
 91
0
280
0
281
0
  0
CLASS
  1
RASTERVARIABLES
  2
AcDbRasterVariables
  3
ISM
 90
0
 91
1
280
0
281
0
  0
CLASS
  1
IMAGEDEF
  2
AcDbRasterImageDef
  3
ISM
 90
0
 91
1
280
0
281
0
  0
CLASS
  1
IMAGEDEF_REACTOR
  2
AcDbRasterImageDefReactor
  3
ISM
 90
0
 91
1
280
0
281
0
  0
CLASS
  1
IMAGE
  2
AcDbRasterImage
  3
ISM
 90
127
 91
1
280
0
281
1
  0
CLASS
  1
TABLESTYLE
  2
AcDbTableStyle
  3
ObjectDBX Classes
 90
2047
 91
1
280
0
281
0
  0
CLASS
  1
ACAD_TABLE
  2
AcDbTable
  3
ObjectDBX Classes
 90
1025
 91
3
280
0
281
1
  0
ENDSEC
  0
SECTION
  2
TABLES
  0
TABLE
  2
VPORT
  5
8
100
AcDbSymbolTable
 70
2
  0
VPORT
  5
1F4
100
AcDbSymbolTableRecord
100
AcDbViewportTableRecord
  2
*ACTIVE
 70
0
 10
0.0
 20
0.0
 11
1.0
 21
1.0
 12
11.0
 22
8.5
 13
0.0
 23
0.0
 14
1.0
 24
1.0
 15
0.0
 25
0.0
 16
0.0
 26
0.0
 36
1.0
 17
0.0
 27
0.0
 37
0.0
 40
17.0
 41
1.2941176471
 42
50.0
 43
0.0
 44
0.0
 50
0.0
 51
0.0
 71
0
 72
100
 73
1
 74
1
 75
0
 76
0
 77
0
 78
0
  0
ENDTAB
  0
TABLE
  2
LTYPE
  5
5
100
AcDbSymbolTable
 70
6
  0
LTYPE
  5
14
100
AcDbSymbolTableRecord
100
AcDbLinetypeTableRecord
  2
BYBLOCK
 70
0
  3

 72
65
 73
0
 40
0.0
  0
LTYPE
  5
15
100
AcDbSymbolTableRecord
100
AcDbLinetypeTableRecord
  2
BYLAYER
 70
0
  3

 72
65
 73
0
 40
0.0
  0
LTYPE
  5
16
100
AcDbSymbolTableRecord
100
AcDbLinetypeTableRecord
  2
CONTINUOUS
 70
64
  3
Solid line
 72
65
 73
0
 40
0.0
  0
LTYPE
  5
1F5
100
AcDbSymbolTableRecord
100
AcDbLinetypeTableRecord
  2
CENTER
 70
64
  3
____ _ ____ _ ____ _ ____ _ ____ _ ____ _ ____
 72
65
 73
4
 40
0.6
 49
0.375
 74
0
 49
-0.075
 74
0
 49
0.075
 74
0
 49
-0.075
 74
0
  0
LTYPE
  5
1F6
100
AcDbSymbolTableRecord
100
AcDbLinetypeTableRecord
  2
HIDDEN
 70
64
  3
- - - - - - - - - - - - - - - - - - - -
 72
65
 73
2
 40
0.2
 49
0.1
 74
0
 49
-0.1
 74
0
  0
LTYPE
  5
1F7
100
AcDbSymbolTableRecord
100
AcDbLinetypeTableRecord
  2
PHANTOM
 70
64
  3
_____ _ _ _____ _ _ _____ _ _ _____
 72
65
 73
6
 40
0.8
 49
0.45
 74
0
 49
-0.05
 74
0
 49
0.1
 74
0
 49
-0.05
 74
0
 49
0.1
 74
0
 49
-0.05
 74
0
  0
LTYPE
  5
1F8
100
AcDbSymbolTableRecord
100
AcDbLinetypeTableRecord
  2
DOT
 70
64
  3
. . . . . . . . . . . . . . . . . . . .
 72
65
 73
2
 40
0.2
 49
0.1
 74
0
 49
-0.1
 74
0
  0
LTYPE
  5
1F9
100
AcDbSymbolTableRecord
100
AcDbLinetypeTableRecord
  2
DASHED
 70
64
  3
- - - - - - - - - - - - - - - - - - - -
 72
65
 73
2
 40
0.2
 49
0.1
 74
0
 49
-0.1
 74
0
  0
ENDTAB
  0
TABLE
  2
LAYER
  5
2
100
AcDbSymbolTable
 70
36
  0
LAYER
  5
10
100
AcDbSymbolTableRecord
100
AcDbLayerTableRecord
  2
0
 70
0
 62
7
  6
CONTINUOUS
370
-3
390
F
  0
LAYER
  5
1FA
100
AcDbSymbolTableRecord
100
AcDbLayerTableRecord
  2
DEFAULT_1
 70
0
 62
7
  6
CENTER
370
-3
390
F
  0
LAYER
  5
1FB
100
AcDbSymbolTableRecord
100
AcDbLayerTableRecord
  2
DEFAULT_2
 70
0
 62
8
  6
HIDDEN
370
-3
390
F
  0
LAYER
  5
1FC
100
AcDbSymbolTableRecord
100
AcDbLayerTableRecord
  2
DEFAULT_3
 70
0
 62
7
  6
PHANTOM
370
-3
390
F
  0
LAYER
  5
1FD
100
AcDbSymbolTableRecord
100
AcDbLayerTableRecord
  2
01___PRT_ALL_DTM_PLN
 70
0
 62
7
  6
CONTINUOUS
370
-3
390
F
  0
LAYER
  5
1FE
100
AcDbSymbolTableRecord
100
AcDbLayerTableRecord
  2
01___PRT_DEF_DTM_PLN
 70
0
 62
7
  6
CONTINUOUS
370
-3
390
F
  0
LAYER
  5
1FF
100
AcDbSymbolTableRecord
100
AcDbLayerTableRecord
  2
02___PRT_ALL_AXES
 70
0
 62
7
  6
CONTINUOUS
370
-3
390
F
  0
LAYER
  5
200
100
AcDbSymbolTableRecord
100
AcDbLayerTableRecord
  2
03___PRT_ALL_CURVES
 70
0
 62
7
  6
CONTINUOUS
370
-3
390
F
  0
LAYER
  5
201
100
AcDbSymbolTableRecord
100
AcDbLayerTableRecord
  2
04___PRT_ALL_DTM_PNT
 70
0
 62
7
  6
CONTINUOUS
370
-3
390
F
  0
LAYER
  5
202
100
AcDbSymbolTableRecord
100
AcDbLayerTableRecord
  2
05___PRT_ALL_DTM_CSYS
 70
0
 62
7
  6
CONTINUOUS
370
-3
390
F
  0
LAYER
  5
203
100
AcDbSymbolTableRecord
100
AcDbLayerTableRecord
  2
05___PRT_DEF_DTM_CSYS
 70
0
 62
7
  6
CONTINUOUS
370
-3
390
F
  0
LAYER
  5
204
100
AcDbSymbolTableRecord
100
AcDbLayerTableRecord
  2
06___PRT_ALL_SURFS
 70
0
 62
7
  6
CONTINUOUS
370
-3
390
F
  0
LAYER
  5
205
100
AcDbSymbolTableRecord
100
AcDbLayerTableRecord
  2
DATUM_PLANES
 70
0
 62
7
  6
CONTINUOUS
370
-3
390
F
  0
LAYER
  5
206
100
AcDbSymbolTableRecord
100
AcDbLayerTableRecord
  2
PORT_AREAS
 70
0
 62
7
  6
CONTINUOUS
370
-3
390
F
  0
LAYER
  5
207
100
AcDbSymbolTableRecord
100
AcDbLayerTableRecord
  2
SUNNBOMCOSMETIC
 70
0
 62
7
  6
CONTINUOUS
370
-3
390
F
  0
LAYER
  5
208
100
AcDbSymbolTableRecord
100
AcDbLayerTableRecord
  2
SUNNBOMSTAMPING
 70
0
 62
7
  6
CONTINUOUS
370
-3
390
F
  0
LAYER
  5
209
100
AcDbSymbolTableRecord
100
AcDbLayerTableRecord
  2
THREADS
 70
0
 62
7
  6
CONTINUOUS
370
-3
390
F
  0
ENDTAB
  0
TABLE
  2
STYLE
  5
3
100
AcDbSymbolTable
 70
1
  0
STYLE
  5
11
100
AcDbSymbolTableRecord
100
AcDbTextStyleTableRecord
  2
STANDARD
 70
0
 40
0.0
 41
0.8
 50
0.0
 71
0
 42
0.2
  3
txt
  4

  0
STYLE
  5
20A
100
AcDbSymbolTableRecord
100
AcDbTextStyleTableRecord
  2
TEXTSTYLE_1
 70
0
 40
0.0
 41
0.8
 50
0.0
 71
0
 42
0.2
  3
gdt
  4

  0
ENDTAB
  0
TABLE
  2
VIEW
  5
6
100
AcDbSymbolTable
 70
0
  0
ENDTAB
  0
TABLE
  2
UCS
  5
7
100
AcDbSymbolTable
 70
0
  0
ENDTAB
  0
TABLE
  2
APPID
  5
9
100
AcDbSymbolTable
 70
1
  0
APPID
  5
20B
100
AcDbSymbolTableRecord
100
AcDbRegAppTableRecord
  2
ACAD
 70
0
  0
ENDTAB
  0
TABLE
  2
BLOCK_RECORD
  5
1
100
AcDbSymbolTable
 70
0
  0
BLOCK_RECORD
  5
20C
100
AcDbSymbolTableRecord
100
AcDbBlockTableRecord
  2
*Model_Space
  0
BLOCK_RECORD
  5
20D
100
AcDbSymbolTableRecord
100
AcDbBlockTableRecord
  2
*Paper_Space
  0
BLOCK_RECORD
  5
20E
100
AcDbSymbolTableRecord
100
AcDbBlockTableRecord
  2
SUN_FIRST_THIRD_ANGLE_BL0
  0
BLOCK_RECORD
  5
20F
100
AcDbSymbolTableRecord
100
AcDbBlockTableRecord
  2
*T1
  0
BLOCK_RECORD
  5
210
100
AcDbSymbolTableRecord
100
AcDbBlockTableRecord
  2
*T2
  0
BLOCK_RECORD
  5
211
100
AcDbSymbolTableRecord
100
AcDbBlockTableRecord
  2
*T3
  0
ENDTAB
  0
TABLE
  2
DIMSTYLE
  5
A
100
AcDbSymbolTable
 70
1
100
AcDbDimStyleTable
 71
0
  0
DIMSTYLE
105
212
100
AcDbSymbolTableRecord
100
AcDbDimStyleTableRecord
  2
STANDARD
 70
0
  3

  4

 40
1.0
 41
0.1875
 42
0.0625
 43
0.38
 44
0.125
 45
0.0
 46
0.0
 47
0.001
 48
0.001
140
0.1
141
0.09
142
0.0
143
25.4
144
1.0
145
0.0
146
1.0
147
0.09
 71
0.0
 72
0.0
 73
1
 74
1
 75
0
 76
0
 77
0
 78
4
170
0
171
2
172
0
173
0
174
0
175
0
176
0
177
0
178
0
270
2
271
3
272
3
273
2
274
2
275
0
280
0
281
0
282
0
283
1
284
4
285
0
286
0
287
3
288
0
340
11
278
46
  0
ENDTAB
  0
ENDSEC
  0
SECTION
  2
BLOCKS
  0
BLOCK
  5
20
100
AcDbEntity
  8
0
100
AcDbBlockBegin
  2
*Model_Space
 70
0
 10
0.0
 20
0.0
 30
0.0
  3
*Model_Space
  1

  0
ENDBLK
  5
21
100
AcDbEntity
  8
0
100
AcDbBlockEnd
  0
BLOCK
  5
1C
100
AcDbEntity
  8
0
100
AcDbBlockBegin
  2
*Paper_Space
 70
0
 10
0.0
 20
0.0
 30
0.0
  3
*Paper_Space
  1

  0
ENDBLK
  5
1D
100
AcDbEntity
  8
0
100
AcDbBlockEnd
  0
BLOCK
  5
213
100
AcDbEntity
  8
0
100
AcDbBlockBegin
 62
2
  6
CONTINUOUS
  2
SUN_FIRST_THIRD_ANGLE_BL0
 70
64
 10
20.4816717061
 20
1.2289683772
  3
SUN_FIRST_THIRD_ANGLE_BL0
  1

  0
TEXT
  5
214
100
AcDbEntity
  8
0
100
AcDbText
 62
2
  6
CONTINUOUS
 10
19.4750896608
 20
1.4136269581
  7
STANDARD
 40
0.08
  1
FIRST ANGLE
 41
0.8
 72
0
100
AcDbText
  0
TEXT
  5
215
100
AcDbEntity
  8
0
100
AcDbText
 62
2
  6
CONTINUOUS
 10
20.7842537513
 20
1.4047600029
  7
STANDARD
 40
0.08
  1
THIRD ANGLE
 41
0.8
 72
0
100
AcDbText
  0
LINE
  5
216
100
AcDbEntity
  8
0
100
AcDbLine
 62
7
  6
CONTINUOUS
 10
19.4767170086
 20
1.1727031207
 11
19.6334271527
 21
1.1717972817
  0
LINE
  5
217
100
AcDbEntity
  8
0
100
AcDbLine
 62
7
  6
CONTINUOUS
 10
19.6596964832
 20
1.1717972817
 11
19.6950230232
 21
1.171593082
  0
LINE
  5
218
100
AcDbEntity
  8
0
100
AcDbLine
 62
7
  6
CONTINUOUS
 10
19.7194818561
 20
1.1708914427
 11
19.8852396156
 21
1.1699333054
  0
LINE
  5
219
100
AcDbEntity
  8
0
100
AcDbLine
 62
7
  6
CONTINUOUS
 10
19.4758111696
 20
1.2723454088
 11
19.88525039
 21
1.3511534004
  0
LINE
  5
21A
100
AcDbEntity
  8
0
100
AcDbLine
 62
7
  6
CONTINUOUS
 10
19.88525039
 20
1.3511534004
 11
19.8831348489
 21
0.9851647912
  0
LINE
  5
21B
100
AcDbEntity
  8
0
100
AcDbLine
 62
7
  6
CONTINUOUS
 10
19.8831348489
 20
0.9851647912
 11
19.4767170086
 21
1.0658141206
  0
LINE
  5
21C
100
AcDbEntity
  8
0
100
AcDbLine
 62
7
  6
CONTINUOUS
 10
19.4767170086
 20
1.0658141206
 11
19.4779056764
 21
1.2714536432
  0
CIRCLE
  5
21D
100
AcDbEntity
  8
0
100
AcDbCircle
 62
7
  6
CONTINUOUS
 10
20.2068232291
 20
1.1717972817
 40
0.175742101
  0
CIRCLE
  5
21E
100
AcDbEntity
  8
0
100
AcDbCircle
 62
7
  6
CONTINUOUS
 10
20.2068232291
 20
1.1717972817
 40
0.1005522074
  0
LINE
  5
21F
100
AcDbEntity
  8
0
100
AcDbLine
 62
7
  6
CONTINUOUS
 10
20.2077290681
 20
1.3756110529
 11
20.2071171714
 21
1.2379342989
  0
LINE
  5
220
100
AcDbEntity
  8
0
100
AcDbLine
 62
7
  6
CONTINUOUS
 10
20.2077290681
 20
1.2016899681
 11
20.2074674401
 21
1.1428236749
  0
LINE
  5
221
100
AcDbEntity
  8
0
100
AcDbLine
 62
7
  6
CONTINUOUS
 10
20.208634907
 20
1.101141841
 11
20.2080230104
 21
0.963465087
  0
LINE
  5
222
100
AcDbEntity
  8
0
100
AcDbLine
 62
7
  6
CONTINUOUS
 10
20.0066328138
 20
1.1745147986
 11
20.1443095678
 21
1.1739029019
  0
LINE
  5
223
100
AcDbEntity
  8
0
100
AcDbLine
 62
7
  6
CONTINUOUS
 10
20.1832714155
 20
1.1727031207
 11
20.238153505
 21
1.172335442
  0
LINE
  5
224
100
AcDbEntity
  8
0
100
AcDbLine
 62
7
  6
CONTINUOUS
 10
20.2756669918
 20
1.1717972817
 11
20.407916871
 21
1.1712095044
  0
CIRCLE
  5
225
100
AcDbEntity
  8
0
100
AcDbCircle
 62
7
  6
CONTINUOUS
 10
20.7509457401
 20
1.1693297793
 40
0.1722024983
  0
CIRCLE
  5
226
100
AcDbEntity
  8
0
100
AcDbCircle
 62
7
  6
CONTINUOUS
 10
20.7509457401
 20
1.1693297793
 40
0.0985164967
  0
LINE
  5
227
100
AcDbEntity
  8
0
100
AcDbLine
 62
7
  6
CONTINUOUS
 10
20.7169767782
 20
1.170462078
 11
20.7825395137
 21
1.1682766535
  0
LINE
  5
228
100
AcDbEntity
  8
0
100
AcDbLine
 62
7
  6
CONTINUOUS
 10
20.8177513651
 20
1.1693297793
 11
20.947965719
 21
1.1693297793
  0
LINE
  5
229
100
AcDbEntity
  8
0
100
AcDbLine
 62
7
  6
CONTINUOUS
 10
20.6875370113
 20
1.170462078
 11
20.5573226574
 21
1.170462078
  0
LINE
  5
22A
100
AcDbEntity
  8
0
100
AcDbLine
 62
7
  6
CONTINUOUS
 10
20.7486811426
 20
1.1987695462
 11
20.7486811426
 21
1.1432869085
  0
LINE
  5
22B
100
AcDbEntity
  8
0
100
AcDbLine
 62
7
  6
CONTINUOUS
 10
20.7498134414
 20
1.1059210505
 11
20.7498134414
 21
0.9757066966
  0
LINE
  5
22C
100
AcDbEntity
  8
0
100
AcDbLine
 62
7
  6
CONTINUOUS
 10
20.7486811426
 20
1.2338708068
 11
20.7486811426
 21
1.3640851607
  0
LINE
  5
22D
100
AcDbEntity
  8
0
100
AcDbLine
 62
7
  6
CONTINUOUS
 10
21.0702539817
 20
1.2701043662
 11
21.4790138229
 21
1.3448360823
  0
LINE
  5
22E
100
AcDbEntity
  8
0
100
AcDbLine
 62
7
  6
CONTINUOUS
 10
21.4790138229
 20
1.3448360823
 11
21.4790138229
 21
0.9779712941
  0
LINE
  5
22F
100
AcDbEntity
  8
0
100
AcDbLine
 62
7
  6
CONTINUOUS
 10
21.4790138229
 20
0.9779712941
 11
21.069121683
 21
1.0617614
  0
LINE
  5
230
100
AcDbEntity
  8
0
100
AcDbLine
 62
7
  6
CONTINUOUS
 10
21.0702539817
 20
1.2701043662
 11
21.069121683
 21
1.0617614
  0
LINE
  5
231
100
AcDbEntity
  8
0
100
AcDbLine
 62
7
  6
CONTINUOUS
 10
21.4790138229
 20
1.1693297793
 11
21.3159628059
 21
1.1693297793
  0
LINE
  5
232
100
AcDbEntity
  8
0
100
AcDbLine
 62
7
  6
CONTINUOUS
 10
21.2876553377
 20
1.1693297793
 11
21.2502894796
 21
1.1693297793
  0
LINE
  5
233
100
AcDbEntity
  8
0
100
AcDbLine
 62
7
  6
CONTINUOUS
 10
21.2208497126
 20
1.1659328831
 11
21.0713862804
 21
1.1659328831
  0
LINE
  5
234
100
AcDbEntity
  8
0
100
AcDbLine
 62
7
  6
CONTINUOUS
 10
20.4796138713
 20
1.5284908897
 11
20.4766766948
 21
0.9294458646
  0
ENDBLK
  5
235
100
AcDbEntity
  8
0
  6
BYBLOCK
 62
0
100
AcDbBlockEnd
  0
BLOCK
  5
236
100
AcDbEntity
  8
0
100
AcDbBlockBegin
  2
*T1
 70
1
 10
0.0
 20
0.0
  3
*T1
  1

  0
LINE
  5
237
100
AcDbEntity
  8
0
100
AcDbLine
 62
2
  6
CONTINUOUS
 10
9.275
 20
0.0
 11
-0.0
 21
0.0
  0
LINE
  5
238
100
AcDbEntity
  8
0
100
AcDbLine
 62
2
  6
CONTINUOUS
 10
9.275
 20
0.0
 11
9.275
 21
1.25
  0
LINE
  5
239
100
AcDbEntity
  8
0
100
AcDbLine
 62
2
  6
CONTINUOUS
 10
9.275
 20
0.625
 11
-0.0
 21
0.625
  0
LINE
  5
23A
100
AcDbEntity
  8
0
100
AcDbLine
 62
2
  6
CONTINUOUS
 10
9.275
 20
1.25
 11
-0.0
 21
1.25
  0
LINE
  5
23B
100
AcDbEntity
  8
0
100
AcDbLine
 62
2
  6
CONTINUOUS
 10
6.8
 20
0.0
 11
6.8
 21
1.25
  0
LINE
  5
23C
100
AcDbEntity
  8
0
100
AcDbLine
 62
2
  6
CONTINUOUS
 10
6.4
 20
0.0
 11
6.4
 21
0.625
  0
LINE
  5
23D
100
AcDbEntity
  8
0
100
AcDbLine
 62
2
  6
CONTINUOUS
 10
5.9
 20
0.0
 11
5.9
 21
0.625
  0
LINE
  5
23E
100
AcDbEntity
  8
0
100
AcDbLine
 62
2
  6
CONTINUOUS
 10
5.2
 20
0.0
 11
5.2
 21
0.625
  0
LINE
  5
23F
100
AcDbEntity
  8
0
100
AcDbLine
 62
2
  6
CONTINUOUS
 10
4.1
 20
0.0
 11
4.1
 21
1.25
  0
LINE
  5
240
100
AcDbEntity
  8
0
100
AcDbLine
 62
2
  6
CONTINUOUS
 10
-0.0
 20
0.0
 11
-0.0
 21
1.25
  0
MTEXT
  5
241
100
AcDbEntity
  8
0
100
AcDbMText
 62
2
  6
CONTINUOUS
  7
STANDARD
 71
2
 72
1
 10
6.6
 20
0.325
 30
0.0
 11
1.0
 21
0.0
 31
0.0
 44
0.9
  1
2
 40
0.125
 41
0.2
  0
MTEXT
  5
242
100
AcDbEntity
  8
0
100
AcDbMText
 62
2
  6
CONTINUOUS
  7
STANDARD
 71
2
 72
1
 10
6.15
 20
0.325
 30
0.0
 11
1.0
 21
0.0
 31
0.0
 44
0.9
  1
C
 40
0.125
 41
0.2
  0
MTEXT
  5
243
100
AcDbEntity
  8
0
100
AcDbMText
 62
2
  6
CONTINUOUS
  7
STANDARD
 71
2
 72
1
 10
5.55
 20
0.325
 30
0.0
 11
1.0
 21
0.0
 31
0.0
 44
0.9
  1
1.000
 40
0.125
 41
1.0
  0
MTEXT
  5
244
100
AcDbEntity
  8
0
100
AcDbMText
 62
2
  6
CONTINUOUS
  7
STANDARD
 71
2
 72
1
 10
4.65
 20
0.325
 30
0.0
 11
1.0
 21
0.0
 31
0.0
 44
0.9
  1
Sep-27-21
 40
0.125
 41
1.8
  0
MTEXT
  5
245
100
AcDbEntity
  8
0
100
AcDbMText
 62
2
  6
CONTINUOUS
  7
STANDARD
 71
2
 72
1
 10
2.05
 20
0.4625
 30
0.0
 11
1.0
 21
0.0
 31
0.0
 44
0.9
  1
T-2A Line mount\P(See Technical Data for Body Features)
 40
0.125
 41
7.6
  0
MTEXT
  5
246
100
AcDbEntity
  8
0
100
AcDbMText
 62
2
  6
CONTINUOUS
  7
STANDARD
 71
1
 72
1
 10
6.45
 20
0.5625
 30
0.0
 11
1.0
 21
0.0
 31
0.0
 44
0.9
  1
SHEET
 40
0.06
 41
0.48
  0
MTEXT
  5
247
100
AcDbEntity
  8
0
100
AcDbMText
 62
2
  6
CONTINUOUS
  7
STANDARD
 71
1
 72
1
 10
5.95
 20
0.5625
 30
0.0
 11
1.0
 21
0.0
 31
0.0
 44
0.9
  1
DWG SIZE
 40
0.06
 41
0.768
  0
MTEXT
  5
248
100
AcDbEntity
  8
0
100
AcDbMText
 62
2
  6
CONTINUOUS
  7
STANDARD
 71
1
 72
1
 10
5.25
 20
0.5625
 30
0.0
 11
1.0
 21
0.0
 31
0.0
 44
0.9
  1
SCALE
 40
0.06
 41
0.48
  0
MTEXT
  5
249
100
AcDbEntity
  8
0
100
AcDbMText
 62
2
  6
CONTINUOUS
  7
STANDARD
 71
1
 72
1
 10
4.15
 20
0.5625
 30
0.0
 11
1.0
 21
0.0
 31
0.0
 44
0.9
  1
DATE
 40
0.06
 41
0.384
  0
MTEXT
  5
24A
100
AcDbEntity
  8
0
100
AcDbMText
 62
2
  6
CONTINUOUS
  7
STANDARD
 71
1
 72
1
 10
0.05
 20
0.5625
 30
0.0
 11
1.0
 21
0.0
 31
0.0
 44
0.9
  1
DESCRIPTION
 40
0.06
 41
1.056
  0
MTEXT
  5
24B
100
AcDbEntity
  8
0
100
AcDbMText
 62
2
  6
CONTINUOUS
  7
STANDARD
 71
2
 72
1
 10
5.45
 20
1.0375
 30
0.0
 11
1.0
 21
0.0
 31
0.0
 44
0.9
  1
ALL DIMENSIONS IN INCH\PVIEWS ARE THIRD ANGLE
 40
0.12
 41
4.224
  0
MTEXT
  5
24C
100
AcDbEntity
  8
0
100
AcDbMText
 62
2
  6
CONTINUOUS
  7
STANDARD
 71
2
 72
1
 10
2.05
 20
0.95
 30
0.0
 11
1.0
 21
0.0
 31
0.0
 44
0.9
  1
B4B
 40
0.125
 41
0.6
  0
MTEXT
  5
24D
100
AcDbEntity
  8
0
100
AcDbMText
 62
2
  6
CONTINUOUS
  7
STANDARD
 71
1
 72
1
 10
0.05
 20
1.1875
 30
0.0
 11
1.0
 21
0.0
 31
0.0
 44
0.9
  1
MODEL
 40
0.06
 41
0.48
  0
ENDBLK
  5
24E
100
AcDbEntity
  8
0
  6
BYBLOCK
 62
0
100
AcDbBlockEnd
  0
BLOCK
  5
24F
100
AcDbEntity
  8
0
100
AcDbBlockBegin
  2
*T2
 70
1
 10
0.0
 20
0.0
  3
*T2
  1

  0
LINE
  5
250
100
AcDbEntity
  8
0
100
AcDbLine
 62
2
  6
CONTINUOUS
 10
0.0
 20
0.0
 11
9.055
 21
0.0
  0
LINE
  5
251
100
AcDbEntity
  8
0
100
AcDbLine
 62
2
  6
CONTINUOUS
 10
0.0
 20
0.0
 11
0.0
 21
-2.844
  0
LINE
  5
252
100
AcDbEntity
  8
0
100
AcDbLine
 62
2
  6
CONTINUOUS
 10
0.0
 20
-0.344
 11
9.055
 21
-0.344
  0
LINE
  5
253
100
AcDbEntity
  8
0
100
AcDbLine
 62
2
  6
CONTINUOUS
 10
0.0
 20
-0.594
 11
9.055
 21
-0.594
  0
LINE
  5
254
100
AcDbEntity
  8
0
100
AcDbLine
 62
2
  6
CONTINUOUS
 10
0.0
 20
-0.844
 11
9.055
 21
-0.844
  0
LINE
  5
255
100
AcDbEntity
  8
0
100
AcDbLine
 62
2
  6
CONTINUOUS
 10
0.0
 20
-1.094
 11
9.055
 21
-1.094
  0
LINE
  5
256
100
AcDbEntity
  8
0
100
AcDbLine
 62
2
  6
CONTINUOUS
 10
0.0
 20
-1.344
 11
9.055
 21
-1.344
  0
LINE
  5
257
100
AcDbEntity
  8
0
100
AcDbLine
 62
2
  6
CONTINUOUS
 10
0.0
 20
-1.594
 11
9.055
 21
-1.594
  0
LINE
  5
258
100
AcDbEntity
  8
0
100
AcDbLine
 62
2
  6
CONTINUOUS
 10
0.0
 20
-1.844
 11
9.055
 21
-1.844
  0
LINE
  5
259
100
AcDbEntity
  8
0
100
AcDbLine
 62
2
  6
CONTINUOUS
 10
0.0
 20
-2.094
 11
9.055
 21
-2.094
  0
LINE
  5
25A
100
AcDbEntity
  8
0
100
AcDbLine
 62
2
  6
CONTINUOUS
 10
0.0
 20
-2.344
 11
9.055
 21
-2.344
  0
LINE
  5
25B
100
AcDbEntity
  8
0
100
AcDbLine
 62
2
  6
CONTINUOUS
 10
0.0
 20
-2.594
 11
9.055
 21
-2.594
  0
LINE
  5
25C
100
AcDbEntity
  8
0
100
AcDbLine
 62
2
  6
CONTINUOUS
 10
0.0
 20
-2.844
 11
9.055
 21
-2.844
  0
LINE
  5
25D
100
AcDbEntity
  8
0
100
AcDbLine
 62
2
  6
CONTINUOUS
 10
3.055
 20
0.0
 11
3.055
 21
-2.844
  0
LINE
  5
25E
100
AcDbEntity
  8
0
100
AcDbLine
 62
2
  6
CONTINUOUS
 10
9.055
 20
0.0
 11
9.055
 21
-2.844
  0
MTEXT
  5
25F
100
AcDbEntity
  8
0
100
AcDbMText
 62
2
  6
CONTINUOUS
  7
STANDARD
 71
2
 72
1
 10
1.5275
 20
-0.0995
 30
0.0
 11
1.0
 21
0.0
 31
0.0
 44
0.9
  1
Technical Data
 40
0.145
 41
3.248
  0
MTEXT
  5
260
100
AcDbEntity
  8
0
100
AcDbMText
 62
2
  6
CONTINUOUS
  7
STANDARD
 71
2
 72
1
 10
4.555
 20
-0.0995
 30
0.0
 11
1.0
 21
0.0
 31
0.0
 44
0.9
  1
U.S. Units
 40
0.145
 41
2.32
  0
MTEXT
  5
261
100
AcDbEntity
  8
0
100
AcDbMText
 62
2
  6
CONTINUOUS
  7
STANDARD
 71
2
 72
1
 10
7.555
 20
-0.0995
 30
0.0
 11
1.0
 21
0.0
 31
0.0
 44
0.9
  1
Metric Units
 40
0.145
 41
2.784
  0
MTEXT
  5
262
100
AcDbEntity
  8
0
100
AcDbMText
 62
2
  6
CONTINUOUS
  7
STANDARD
 71
2
 72
1
 10
1.5275
 20
-0.4065
 30
0.0
 11
1.0
 21
0.0
 31
0.0
 44
0.9
  1
Cavity
 40
0.125
 41
1.2
  0
MTEXT
  5
263
100
AcDbEntity
  8
0
100
AcDbMText
 62
2
  6
CONTINUOUS
  7
STANDARD
 71
2
 72
1
 10
6.055
 20
-0.4065
 30
0.0
 11
1.0
 21
0.0
 31
0.0
 44
0.9
  1
T-2A
 40
0.125
 41
0.8
  0
MTEXT
  5
264
100
AcDbEntity
  8
0
100
AcDbMText
 62
2
  6
CONTINUOUS
  7
STANDARD
 71
2
 72
1
 10
1.5275
 20
-0.6565
 30
0.0
 11
1.0
 21
0.0
 31
0.0
 44
0.9
  1
Body Features
 40
0.125
 41
2.6
  0
MTEXT
  5
265
100
AcDbEntity
  8
0
100
AcDbMText
 62
2
  6
CONTINUOUS
  7
STANDARD
 71
2
 72
1
 10
6.055
 20
-0.6565
 30
0.0
 11
1.0
 21
0.0
 31
0.0
 44
0.9
  1
Ninety degree with reverse flow check - reducing
 40
0.125
 41
9.6
  0
MTEXT
  5
266
100
AcDbEntity
  8
0
100
AcDbMText
 62
2
  6
CONTINUOUS
  7
STANDARD
 71
2
 72
1
 10
1.5275
 20
-0.9065
 30
0.0
 11
1.0
 21
0.0
 31
0.0
 44
0.9
  1
Body Type
 40
0.125
 41
1.8
  0
MTEXT
  5
267
100
AcDbEntity
  8
0
100
AcDbMText
 62
2
  6
CONTINUOUS
  7
STANDARD
 71
2
 72
1
 10
6.055
 20
-0.9065
 30
0.0
 11
1.0
 21
0.0
 31
0.0
 44
0.9
  1
Line mount
 40
0.125
 41
2.0
  0
MTEXT
  5
268
100
AcDbEntity
  8
0
100
AcDbMText
 62
2
  6
CONTINUOUS
  7
STANDARD
 71
2
 72
1
 10
1.5275
 20
-1.1565
 30
0.0
 11
1.0
 21
0.0
 31
0.0
 44
0.9
  1
Interface
 40
0.125
 41
1.8
  0
MTEXT
  5
269
100
AcDbEntity
  8
0
100
AcDbMText
 62
2
  6
CONTINUOUS
  7
STANDARD
 71
2
 72
1
 10
6.055
 20
-1.1565
 30
0.0
 11
1.0
 21
0.0
 31
0.0
 44
0.9
  1
None
 40
0.125
 41
0.8
  0
MTEXT
  5
26A
100
AcDbEntity
  8
0
100
AcDbMText
 62
2
  6
CONTINUOUS
  7
STANDARD
 71
2
 72
1
 10
1.5275
 20
-1.4065
 30
0.0
 11
1.0
 21
0.0
 31
0.0
 44
0.9
  1
Open Cavity Quantity
 40
0.125
 41
4.0
  0
MTEXT
  5
26B
100
AcDbEntity
  8
0
100
AcDbMText
 62
2
  6
CONTINUOUS
  7
STANDARD
 71
2
 72
1
 10
6.055
 20
-1.4065
 30
0.0
 11
1.0
 21
0.0
 31
0.0
 44
0.9
  1
1
 40
0.125
 41
0.2
  0
MTEXT
  5
26C
100
AcDbEntity
  8
0
100
AcDbMText
 62
2
  6
CONTINUOUS
  7
STANDARD
 71
2
 72
1
 10
1.5275
 20
-1.6565
 30
0.0
 11
1.0
 21
0.0
 31
0.0
 44
0.9
  1
Weight
 40
0.125
 41
1.2
  0
MTEXT
  5
26D
100
AcDbEntity
  8
0
100
AcDbMText
 62
2
  6
CONTINUOUS
  7
STANDARD
 71
2
 72
1
 10
4.555
 20
-1.6565
 30
0.0
 11
1.0
 21
0.0
 31
0.0
 44
0.9
  1
1.991 lb.
 40
0.125
 41
1.8
  0
MTEXT
  5
26E
100
AcDbEntity
  8
0
100
AcDbMText
 62
2
  6
CONTINUOUS
  7
STANDARD
 71
2
 72
1
 10
7.555
 20
-1.6565
 30
0.0
 11
1.0
 21
0.0
 31
0.0
 44
0.9
  1
0,903 kg.
 40
0.125
 41
1.8
  0
MTEXT
  5
26F
100
AcDbEntity
  8
0
100
AcDbMText
 62
2
  6
CONTINUOUS
  7
STANDARD
 71
2
 72
1
 10
1.5275
 20
-1.9065
 30
0.0
 11
1.0
 21
0.0
 31
0.0
 44
0.9
  1
Mounting Hole Diameter
 40
0.125
 41
4.4
  0
MTEXT
  5
270
100
AcDbEntity
  8
0
100
AcDbMText
 62
2
  6
CONTINUOUS
  7
STANDARD
 71
2
 72
1
 10
4.555
 20
-1.9065
 30
0.0
 11
1.0
 21
0.0
 31
0.0
 44
0.9
  1
.42 in.
 40
0.125
 41
1.4
  0
MTEXT
  5
271
100
AcDbEntity
  8
0
100
AcDbMText
 62
2
  6
CONTINUOUS
  7
STANDARD
 71
2
 72
1
 10
7.555
 20
-1.9065
 30
0.0
 11
1.0
 21
0.0
 31
0.0
 44
0.9
  1
10,7 mm
 40
0.125
 41
1.4
  0
MTEXT
  5
272
100
AcDbEntity
  8
0
100
AcDbMText
 62
2
  6
CONTINUOUS
  7
STANDARD
 71
2
 72
1
 10
1.5275
 20
-2.1565
 30
0.0
 11
1.0
 21
0.0
 31
0.0
 44
0.9
  1
Mounting Hole Depth
 40
0.125
 41
3.8
  0
MTEXT
  5
273
100
AcDbEntity
  8
0
100
AcDbMText
 62
2
  6
CONTINUOUS
  7
STANDARD
 71
2
 72
1
 10
6.055
 20
-2.1565
 30
0.0
 11
1.0
 21
0.0
 31
0.0
 44
0.9
  1
Through
 40
0.125
 41
1.4
  0
MTEXT
  5
274
100
AcDbEntity
  8
0
100
AcDbMText
 62
2
  6
CONTINUOUS
  7
STANDARD
 71
2
 72
1
 10
1.5275
 20
-2.4065
 30
0.0
 11
1.0
 21
0.0
 31
0.0
 44
0.9
  1
Mounting Hole Quantity
 40
0.125
 41
4.4
  0
MTEXT
  5
275
100
AcDbEntity
  8
0
100
AcDbMText
 62
2
  6
CONTINUOUS
  7
STANDARD
 71
2
 72
1
 10
6.055
 20
-2.4065
 30
0.0
 11
1.0
 21
0.0
 31
0.0
 44
0.9
  1
2
 40
0.125
 41
0.2
  0
MTEXT
  5
276
100
AcDbEntity
  8
0
100
AcDbMText
 62
2
  6
CONTINUOUS
  7
STANDARD
 71
2
 72
1
 10
1.5275
 20
-2.6565
 30
0.0
 11
1.0
 21
0.0
 31
0.0
 44
0.9
  1
Includes integral cartridge(s)
 40
0.125
 41
6.0
  0
MTEXT
  5
277
100
AcDbEntity
  8
0
100
AcDbMText
 62
2
  6
CONTINUOUS
  7
STANDARD
 71
2
 72
1
 10
6.055
 20
-2.6565
 30
0.0
 11
1.0
 21
0.0
 31
0.0
 44
0.9
  1
Yes (see Included Components)
 40
0.125
 41
5.8
  0
ENDBLK
  5
278
100
AcDbEntity
  8
0
  6
BYBLOCK
 62
0
100
AcDbBlockEnd
  0
BLOCK
  5
279
100
AcDbEntity
  8
0
100
AcDbBlockBegin
  2
*T3
 70
1
 10
0.0
 20
0.0
  3
*T3
  1

  0
LINE
  5
27A
100
AcDbEntity
  8
0
100
AcDbLine
 62
2
  6
CONTINUOUS
 10
0.0
 20
0.0
 11
4.6
 21
0.0
  0
LINE
  5
27B
100
AcDbEntity
  8
0
100
AcDbLine
 62
2
  6
CONTINUOUS
 10
0.0
 20
0.0
 11
0.0
 21
-1.43775
  0
LINE
  5
27C
100
AcDbEntity
  8
0
100
AcDbLine
 62
2
  6
CONTINUOUS
 10
0.0
 20
-0.34375
 11
4.6
 21
-0.34375
  0
LINE
  5
27D
100
AcDbEntity
  8
0
100
AcDbLine
 62
2
  6
CONTINUOUS
 10
0.0
 20
-0.68775
 11
4.6
 21
-0.68775
  0
LINE
  5
27E
100
AcDbEntity
  8
0
100
AcDbLine
 62
2
  6
CONTINUOUS
 10
0.0
 20
-0.93775
 11
4.6
 21
-0.93775
  0
LINE
  5
27F
100
AcDbEntity
  8
0
100
AcDbLine
 62
2
  6
CONTINUOUS
 10
0.0
 20
-1.18775
 11
4.6
 21
-1.18775
  0
LINE
  5
280
100
AcDbEntity
  8
0
100
AcDbLine
 62
2
  6
CONTINUOUS
 10
0.0
 20
-1.43775
 11
4.6
 21
-1.43775
  0
LINE
  5
281
100
AcDbEntity
  8
0
100
AcDbLine
 62
2
  6
CONTINUOUS
 10
1.3
 20
-0.34375
 11
1.3
 21
-1.43775
  0
LINE
  5
282
100
AcDbEntity
  8
0
100
AcDbLine
 62
2
  6
CONTINUOUS
 10
3.3
 20
-0.34375
 11
3.3
 21
-1.43775
  0
LINE
  5
283
100
AcDbEntity
  8
0
100
AcDbLine
 62
2
  6
CONTINUOUS
 10
4.6
 20
0.0
 11
4.6
 21
-1.43775
  0
MTEXT
  5
284
100
AcDbEntity
  8
0
100
AcDbMText
 62
2
  6
CONTINUOUS
  7
STANDARD
 71
2
 72
1
 10
2.3
 20
-0.099375
 30
0.0
 11
1.0
 21
0.0
 31
0.0
 44
0.9
  1
Port Headings
 40
0.145
 41
3.016
  0
MTEXT
  5
285
100
AcDbEntity
  8
0
100
AcDbMText
 62
2
  6
CONTINUOUS
  7
STANDARD
 71
2
 72
1
 10
0.65
 20
-0.44325
 30
0.0
 11
1.0
 21
0.0
 31
0.0
 44
0.9
  1
Product
 40
0.145
 41
1.624
  0
MTEXT
  5
286
100
AcDbEntity
  8
0
100
AcDbMText
 62
2
  6
CONTINUOUS
  7
STANDARD
 71
2
 72
1
 10
2.3
 20
-0.44325
 30
0.0
 11
1.0
 21
0.0
 31
0.0
 44
0.9
  1
Port
 40
0.145
 41
0.928
  0
MTEXT
  5
287
100
AcDbEntity
  8
0
100
AcDbMText
 62
2
  6
CONTINUOUS
  7
STANDARD
 71
2
 72
1
 10
3.95
 20
-0.44325
 30
0.0
 11
1.0
 21
0.0
 31
0.0
 44
0.9
  1
Size
 40
0.145
 41
0.928
  0
MTEXT
  5
288
100
AcDbEntity
  8
0
100
AcDbMText
 62
2
  6
CONTINUOUS
  7
STANDARD
 71
2
 72
1
 10
0.65
 20
-0.75025
 30
0.0
 11
1.0
 21
0.0
 31
0.0
 44
0.9
  1
B4B
 40
0.125
 41
0.6
  0
MTEXT
  5
289
100
AcDbEntity
  8
0
100
AcDbMText
 62
2
  6
CONTINUOUS
  7
STANDARD
 71
2
 72
1
 10
2.3
 20
-0.75025
 30
0.0
 11
1.0
 21
0.0
 31
0.0
 44
0.9
  1
Ports 1 &  2
 40
0.125
 41
2.4
  0
MTEXT
  5
28A
100
AcDbEntity
  8
0
100
AcDbMText
 62
2
  6
CONTINUOUS
  7
STANDARD
 71
2
 72
1
 10
3.95
 20
-0.75025
 30
0.0
 11
1.0
 21
0.0
 31
0.0
 44
0.9
  1
3/8" NPTF
 40
0.125
 41
1.8
  0
MTEXT
  5
28B
100
AcDbEntity
  8
0
100
AcDbMText
 62
2
  6
CONTINUOUS
  7
STANDARD
 71
2
 72
1
 10
0.65
 20
-1.00025
 30
0.0
 11
1.0
 21
0.0
 31
0.0
 44
0.9
  1
B4B
 40
0.125
 41
0.6
  0
MTEXT
  5
28C
100
AcDbEntity
  8
0
100
AcDbMText
 62
2
  6
CONTINUOUS
  7
STANDARD
 71
2
 72
1
 10
2.3
 20
-1.00025
 30
0.0
 11
1.0
 21
0.0
 31
0.0
 44
0.9
  1
Port 3
 40
0.125
 41
1.2
  0
MTEXT
  5
28D
100
AcDbEntity
  8
0
100
AcDbMText
 62
2
  6
CONTINUOUS
  7
STANDARD
 71
2
 72
1
 10
3.95
 20
-1.00025
 30
0.0
 11
1.0
 21
0.0
 31
0.0
 44
0.9
  1
3/8" NPTF
 40
0.125
 41
1.8
  0
MTEXT
  5
28E
100
AcDbEntity
  8
0
100
AcDbMText
 62
2
  6
CONTINUOUS
  7
STANDARD
 71
2
 72
1
 10
0.65
 20
-1.25025
 30
0.0
 11
1.0
 21
0.0
 31
0.0
 44
0.9
  1
B4B
 40
0.125
 41
0.6
  0
MTEXT
  5
28F
100
AcDbEntity
  8
0
100
AcDbMText
 62
2
  6
CONTINUOUS
  7
STANDARD
 71
2
 72
1
 10
2.3
 20
-1.25025
 30
0.0
 11
1.0
 21
0.0
 31
0.0
 44
0.9
  1
Gage Port
 40
0.125
 41
1.8
  0
MTEXT
  5
290
100
AcDbEntity
  8
0
100
AcDbMText
 62
2
  6
CONTINUOUS
  7
STANDARD
 71
2
 72
1
 10
3.95
 20
-1.25025
 30
0.0
 11
1.0
 21
0.0
 31
0.0
 44
0.9
  1
1/4" NPTF
 40
0.125
 41
1.8
  0
ENDBLK
  5
291
100
AcDbEntity
  8
0
  6
BYBLOCK
 62
0
100
AcDbBlockEnd
  0
ENDSEC
  0
SECTION
  2
ENTITIES
  0
IMAGE
  5
292
100
AcDbEntity
  8
0
100
AcDbRasterImage
 62
7
  6
CONTINUOUS
 10
19.2297077316
 20
0.3094318264
 30
0.0
 11
0.0066666667
 21
0.0
 31
0.0
 12
0.0
 22
0.0066666667
 32
0.0
 13
369.0
 23
92.0
340
       3A1
 70
9
280
0
281
50
282
50
283
0
360
       39B
 71
1
 91
2
 14
-0.5
 24
-0.5
 14
368.5
 24
91.5
  0
INSERT
  5
293
100
AcDbEntity
  8
0
100
AcDbBlockReference
 62
2
  6
CONTINUOUS
  2
SUN_FIRST_THIRD_ANGLE_BL0
 10
20.4816717061
 20
1.2289683772
  0
ACAD_TABLE
  5
294
100
AcDbEntity
  8
0
 62
2
  6
CONTINUOUS
100
AcDbBlockReference
  2
*T1
 10
12.42375
 20
0.30125
 30
0.0
100
AcDbTable
342
       3A3
343
20F
 11
1.0
 21
0.0
 31
0.0
 90
6
 91
4
 92
6
 93
20
 94
0
 95
0
 96
0
 70
1
 41
0.0
141
0.525
141
0.1
141
0.525
141
0.1
142
4.1
142
1.1
142
0.7
142
0.5
142
0.4
142
2.475
171
1
172
0
173
0
174
0
175
1
176
1
 91
33
178
0
145
0.0
301
CELL_VALUE
 90
4
  1
T-2A Line mount\P(See Technical Data for Body Features)
304
ACVALUE_END
170
2
140
0.125
171
1
172
0
173
0
174
0
175
1
176
1
 91
33
178
0
145
0.0
301
CELL_VALUE
 90
4
  1
Sep-27-21
304
ACVALUE_END
170
5
140
0.125
171
1
172
0
173
0
174
0
175
1
176
1
 91
33
178
0
145
0.0
301
CELL_VALUE
 90
4
  1
1.000
304
ACVALUE_END
170
5
140
0.125
171
1
172
0
173
0
174
0
175
1
176
1
 91
33
178
0
145
0.0
301
CELL_VALUE
 90
4
  1
C
304
ACVALUE_END
170
5
140
0.125
171
1
172
0
173
0
174
0
175
1
176
1
 91
33
178
0
145
0.0
301
CELL_VALUE
 90
4
  1
2
304
ACVALUE_END
170
5
140
0.125
171
1
172
0
173
0
174
0
175
1
176
1
 91
33
178
0
145
0.0
301
CELL_VALUE
 90
4
  1
 
304
ACVALUE_END
170
1
140
0.125
171
1
172
0
173
0
174
0
175
1
176
1
 91
33
178
0
145
0.0
301
CELL_VALUE
 90
4
  1
DESCRIPTION
304
ACVALUE_END
170
1
140
0.06
171
1
172
0
173
0
174
0
175
1
176
1
 91
33
178
0
145
0.0
301
CELL_VALUE
 90
4
  1
DATE
304
ACVALUE_END
170
1
140
0.06
171
1
172
0
173
0
174
0
175
1
176
1
 91
33
178
0
145
0.0
301
CELL_VALUE
 90
4
  1
SCALE
304
ACVALUE_END
170
1
140
0.06
171
1
172
0
173
0
174
0
175
1
176
1
 91
33
178
0
145
0.0
301
CELL_VALUE
 90
4
  1
DWG SIZE
304
ACVALUE_END
170
1
140
0.06
171
1
172
0
173
0
174
0
175
1
176
1
 91
33
178
0
145
0.0
301
CELL_VALUE
 90
4
  1
SHEET
304
ACVALUE_END
170
1
140
0.06
171
1
172
0
173
0
174
0
175
1
176
1
 91
33
178
0
145
0.0
301
CELL_VALUE
 90
4
  1
 
304
ACVALUE_END
170
1
140
0.125
171
1
172
0
173
0
174
0
175
1
176
1
 91
33
178
0
145
0.0
301
CELL_VALUE
 90
4
  1
B4B
304
ACVALUE_END
170
5
140
0.125
171
1
172
0
173
0
174
0
175
4
176
1
 91
33
178
0
145
0.0
301
CELL_VALUE
 90
4
  1
ALL DIMENSIONS IN INCH\PVIEWS ARE THIRD ANGLE
304
ACVALUE_END
170
5
140
0.12
171
1
172
0
173
1
174
0
175
1
176
1
 91
1
178
0
145
0.0
170
1
171
1
172
0
173
1
174
0
175
1
176
1
 91
1
178
0
145
0.0
170
1
171
1
172
0
173
1
174
0
175
1
176
1
 91
1
178
0
145
0.0
170
5
171
1
172
0
173
0
174
0
175
1
176
1
 91
33
178
0
145
0.0
301
CELL_VALUE
 90
4
  1
 
304
ACVALUE_END
170
1
140
0.125
171
1
172
0
173
0
174
0
175
1
176
1
 91
33
178
0
145
0.0
301
CELL_VALUE
 90
4
  1
MODEL
304
ACVALUE_END
170
1
140
0.06
171
1
172
0
173
0
174
0
175
1
176
1
 91
33
178
0
145
0.0
301
CELL_VALUE
 90
4
  1
 
304
ACVALUE_END
170
1
140
0.125
171
1
172
0
173
0
174
0
175
1
176
1
 91
33
178
0
145
0.0
301
CELL_VALUE
 90
4
  1
 
304
ACVALUE_END
170
1
140
0.125
171
1
172
0
173
0
174
0
175
1
176
1
 91
33
178
0
145
0.0
301
CELL_VALUE
 90
4
  1
 
304
ACVALUE_END
170
1
140
0.125
171
1
172
0
173
0
174
0
175
1
176
1
 91
33
178
0
145
0.0
301
CELL_VALUE
 90
4
  1
 
304
ACVALUE_END
170
1
140
0.125
171
1
172
0
173
0
174
0
175
1
176
1
 91
33
178
0
145
0.0
301
CELL_VALUE
 90
4
  1
 
304
ACVALUE_END
170
1
140
0.125
  0
ACAD_TABLE
  5
295
100
AcDbEntity
  8
0
 62
2
  6
CONTINUOUS
100
AcDbBlockReference
  2
*T2
 10
12.4237499994
 20
16.47875
 30
0.0
100
AcDbTable
342
       3A2
343
210
 11
1.0
 21
0.0
 31
0.0
 90
22
 91
11
 92
3
 93
16
 94
0
 95
0
 96
0
 41
0.028
141
0.344
141
0.25
141
0.25
141
0.25
141
0.25
141
0.25
141
0.25
141
0.25
141
0.25
141
0.25
141
0.25
142
3.055
142
3.0
142
3.0
171
1
172
0
173
0
174
0
175
1
176
1
 91
33
178
0
145
0.0
301
CELL_VALUE
 90
4
  1
Technical Data
304
ACVALUE_END
170
5
140
0.145
171
1
172
0
173
0
174
0
175
1
176
1
 91
33
178
0
145
0.0
301
CELL_VALUE
 90
4
  1
U.S. Units
304
ACVALUE_END
170
5
140
0.145
171
1
172
0
173
0
174
0
175
1
176
1
 91
33
178
0
145
0.0
301
CELL_VALUE
 90
4
  1
Metric Units
304
ACVALUE_END
170
5
140
0.145
171
1
172
0
173
0
174
0
175
1
176
1
 91
33
178
0
145
0.0
301
CELL_VALUE
 90
4
  1
Cavity
304
ACVALUE_END
170
5
140
0.125
171
1
172
0
173
0
174
0
175
2
176
1
 91
33
178
0
145
0.0
301
CELL_VALUE
 90
4
  1
T-2A
304
ACVALUE_END
170
5
140
0.125
171
1
172
0
173
1
174
0
175
1
176
1
 91
1
178
0
145
0.0
170
1
171
1
172
0
173
0
174
0
175
1
176
1
 91
33
178
0
145
0.0
301
CELL_VALUE
 90
4
  1
Body Features
304
ACVALUE_END
170
5
140
0.125
171
1
172
0
173
0
174
0
175
2
176
1
 91
33
178
0
145
0.0
301
CELL_VALUE
 90
4
  1
Ninety degree with reverse flow check - reducing
304
ACVALUE_END
170
5
140
0.125
171
1
172
0
173
1
174
0
175
1
176
1
 91
1
178
0
145
0.0
170
1
171
1
172
0
173
0
174
0
175
1
176
1
 91
33
178
0
145
0.0
301
CELL_VALUE
 90
4
  1
Body Type
304
ACVALUE_END
170
5
140
0.125
171
1
172
0
173
0
174
0
175
2
176
1
 91
33
178
0
145
0.0
301
CELL_VALUE
 90
4
  1
Line mount
304
ACVALUE_END
170
5
140
0.125
171
1
172
0
173
1
174
0
175
1
176
1
 91
1
178
0
145
0.0
170
1
171
1
172
0
173
0
174
0
175
1
176
1
 91
33
178
0
145
0.0
301
CELL_VALUE
 90
4
  1
Interface
304
ACVALUE_END
170
5
140
0.125
171
1
172
0
173
0
174
0
175
2
176
1
 91
33
178
0
145
0.0
301
CELL_VALUE
 90
4
  1
None
304
ACVALUE_END
170
5
140
0.125
171
1
172
0
173
1
174
0
175
1
176
1
 91
1
178
0
145
0.0
170
1
171
1
172
0
173
0
174
0
175
1
176
1
 91
33
178
0
145
0.0
301
CELL_VALUE
 90
4
  1
Open Cavity Quantity
304
ACVALUE_END
170
5
140
0.125
171
1
172
0
173
0
174
0
175
2
176
1
 91
33
178
0
145
0.0
301
CELL_VALUE
 90
4
  1
1
304
ACVALUE_END
170
5
140
0.125
171
1
172
0
173
1
174
0
175
1
176
1
 91
1
178
0
145
0.0
170
1
171
1
172
0
173
0
174
0
175
1
176
1
 91
33
178
0
145
0.0
301
CELL_VALUE
 90
4
  1
Weight
304
ACVALUE_END
170
5
140
0.125
171
1
172
0
173
0
174
0
175
1
176
1
 91
33
178
0
145
0.0
301
CELL_VALUE
 90
4
  1
1.991 lb.
304
ACVALUE_END
170
5
140
0.125
171
1
172
0
173
0
174
0
175
1
176
1
 91
33
178
0
145
0.0
301
CELL_VALUE
 90
4
  1
0,903 kg.
304
ACVALUE_END
170
5
140
0.125
171
1
172
0
173
0
174
0
175
1
176
1
 91
33
178
0
145
0.0
301
CELL_VALUE
 90
4
  1
Mounting Hole Diameter
304
ACVALUE_END
170
5
140
0.125
171
1
172
0
173
0
174
0
175
1
176
1
 91
33
178
0
145
0.0
301
CELL_VALUE
 90
4
  1
.42 in.
304
ACVALUE_END
170
5
140
0.125
171
1
172
0
173
0
174
0
175
1
176
1
 91
33
178
0
145
0.0
301
CELL_VALUE
 90
4
  1
10,7 mm
304
ACVALUE_END
170
5
140
0.125
171
1
172
0
173
0
174
0
175
1
176
1
 91
33
178
0
145
0.0
301
CELL_VALUE
 90
4
  1
Mounting Hole Depth
304
ACVALUE_END
170
5
140
0.125
171
1
172
0
173
0
174
0
175
2
176
1
 91
33
178
0
145
0.0
301
CELL_VALUE
 90
4
  1
Through
304
ACVALUE_END
170
5
140
0.125
171
1
172
0
173
1
174
0
175
1
176
1
 91
1
178
0
145
0.0
170
1
171
1
172
0
173
0
174
0
175
1
176
1
 91
33
178
0
145
0.0
301
CELL_VALUE
 90
4
  1
Mounting Hole Quantity
304
ACVALUE_END
170
5
140
0.125
171
1
172
0
173
0
174
0
175
2
176
1
 91
33
178
0
145
0.0
301
CELL_VALUE
 90
4
  1
2
304
ACVALUE_END
170
5
140
0.125
171
1
172
0
173
1
174
0
175
1
176
1
 91
1
178
0
145
0.0
170
1
171
1
172
0
173
0
174
0
175
1
176
1
 91
33
178
0
145
0.0
301
CELL_VALUE
 90
4
  1
Includes integral cartridge(s)
304
ACVALUE_END
170
5
140
0.125
171
1
172
0
173
0
174
0
175
2
176
1
 91
33
178
0
145
0.0
301
CELL_VALUE
 90
4
  1
Yes (see Included Components)
304
ACVALUE_END
170
5
140
0.125
171
1
172
0
173
1
174
0
175
1
176
1
 91
1
178
0
145
0.0
170
1
  0
ACAD_TABLE
  5
296
100
AcDbEntity
  8
0
 62
2
  6
CONTINUOUS
100
AcDbBlockReference
  2
*T3
 10
0.52125
 20
1.959
 30
0.0
100
AcDbTable
342
       3A2
343
211
 11
1.0
 21
0.0
 31
0.0
 90
22
 91
5
 92
3
 93
16
 94
0
 95
0
 96
0
 41
0.05
141
0.34375
141
0.344
141
0.25
141
0.25
141
0.25
142
1.3
142
2.0
142
1.3
171
1
172
0
173
0
174
0
175
3
176
1
 91
33
178
0
145
0.0
301
CELL_VALUE
 90
4
  1
Port Headings
304
ACVALUE_END
170
5
140
0.145
171
1
172
0
173
1
174
0
175
1
176
1
 91
1
178
0
145
0.0
170
1
171
1
172
0
173
1
174
0
175
1
176
1
 91
1
178
0
145
0.0
170
1
171
1
172
0
173
0
174
0
175
1
176
1
 91
33
178
0
145
0.0
301
CELL_VALUE
 90
4
  1
Product
304
ACVALUE_END
170
5
140
0.145
171
1
172
0
173
0
174
0
175
1
176
1
 91
33
178
0
145
0.0
301
CELL_VALUE
 90
4
  1
Port
304
ACVALUE_END
170
5
140
0.145
171
1
172
0
173
0
174
0
175
1
176
1
 91
33
178
0
145
0.0
301
CELL_VALUE
 90
4
  1
Size
304
ACVALUE_END
170
5
140
0.145
171
1
172
0
173
0
174
0
175
1
176
1
 91
33
178
0
145
0.0
301
CELL_VALUE
 90
4
  1
B4B
304
ACVALUE_END
170
5
140
0.125
171
1
172
0
173
0
174
0
175
1
176
1
 91
33
178
0
145
0.0
301
CELL_VALUE
 90
4
  1
Ports 1 &  2
304
ACVALUE_END
170
5
140
0.125
171
1
172
0
173
0
174
0
175
1
176
1
 91
33
178
0
145
0.0
301
CELL_VALUE
 90
4
  1
3/8" NPTF
304
ACVALUE_END
170
5
140
0.125
171
1
172
0
173
0
174
0
175
1
176
1
 91
33
178
0
145
0.0
301
CELL_VALUE
 90
4
  1
B4B
304
ACVALUE_END
170
5
140
0.125
171
1
172
0
173
0
174
0
175
1
176
1
 91
33
178
0
145
0.0
301
CELL_VALUE
 90
4
  1
Port 3
304
ACVALUE_END
170
5
140
0.125
171
1
172
0
173
0
174
0
175
1
176
1
 91
33
178
0
145
0.0
301
CELL_VALUE
 90
4
  1
3/8" NPTF
304
ACVALUE_END
170
5
140
0.125
171
1
172
0
173
0
174
0
175
1
176
1
 91
33
178
0
145
0.0
301
CELL_VALUE
 90
4
  1
B4B
304
ACVALUE_END
170
5
140
0.125
171
1
172
0
173
0
174
0
175
1
176
1
 91
33
178
0
145
0.0
301
CELL_VALUE
 90
4
  1
Gage Port
304
ACVALUE_END
170
5
140
0.125
171
1
172
0
173
0
174
0
175
1
176
1
 91
33
178
0
145
0.0
301
CELL_VALUE
 90
4
  1
1/4" NPTF
304
ACVALUE_END
170
5
140
0.125
  0
MTEXT
  5
297
100
AcDbEntity
  8
0
100
AcDbMText
 62
2
  6
CONTINUOUS
  7
STANDARD
 71
1
 72
1
 10
0.52125
 20
5.75995
 30
0.0
 11
1.0
 21
0.0
 31
0.0
 44
0.6
  3
Notes\P \P1. Important: Carefully consider\P   the maximum system pressure. The\P   pressure rating of the manifold is\P   dependent on the manifold material,\P   with the port type/size a secondary\P   consideration. Manifolds\P   constructed of alu
  1
minum are not\P   rated for pressures higher than\P   3000 psi (210 bar), regardless of\P   the port type/size specified.
 40
0.1
 41
3.04
  0
LINE
  5
298
100
AcDbEntity
  8
0
100
AcDbLine
 62
7
  6
CONTINUOUS
 10
0.30125
 20
0.30125
 11
0.30125
 21
16.69875
  0
LINE
  5
299
100
AcDbEntity
  8
0
100
AcDbLine
 62
7
  6
CONTINUOUS
 10
0.30125
 20
0.30125
 11
21.69875
 21
0.30125
  0
LINE
  5
29A
100
AcDbEntity
  8
0
100
AcDbLine
 62
7
  6
CONTINUOUS
 10
0.30125
 20
16.69875
 11
21.69875
 21
16.69875
  0
LINE
  5
29B
100
AcDbEntity
  8
0
100
AcDbLine
 62
7
  6
CONTINUOUS
 10
21.69875
 20
0.30125
 11
21.69875
 21
16.69875
  0
LINE
  5
29C
100
AcDbEntity
  8
0
100
AcDbLine
 62
7
  6
CONTINUOUS
 10
9.4433734597
 20
10.9566713866
 11
9.0551452125
 21
10.5816716739
  0
LINE
  5
29D
100
AcDbEntity
  8
0
100
AcDbLine
 62
4
  6
CONTINUOUS
 10
9.306285987
 20
10.0474846524
 11
9.299041543
 21
10.0383278
  0
LINE
  5
29E
100
AcDbEntity
  8
0
100
AcDbLine
 62
4
  6
CONTINUOUS
 10
9.3135304309
 20
9.9890266968
 11
9.299041543
 21
9.9707129876
  0
LINE
  5
29F
100
AcDbEntity
  8
0
100
AcDbLine
 62
4
  6
CONTINUOUS
 10
9.2555748792
 20
10.0703199992
 11
9.2700637671
 21
10.0789744477
  0
LINE
  5
2A0
100
AcDbEntity
  8
0
100
AcDbLine
 62
4
  6
CONTINUOUS
 10
9.299041543
 20
10.0383278
 11
9.2845526551
 21
10.0296733445
  0
LINE
  5
2A1
100
AcDbEntity
  8
0
100
AcDbLine
 62
4
  6
CONTINUOUS
 10
9.299041543
 20
9.9707129876
 11
9.2845526551
 21
9.9620585365
  0
LINE
  5
2A2
100
AcDbEntity
  8
0
100
AcDbLine
 62
7
  6
CONTINUOUS
 10
9.0551452125
 20
6.7179681398
 11
9.0551452125
 21
10.5816716739
  0
LINE
  5
2A3
100
AcDbEntity
  8
0
100
AcDbLine
 62
7
  6
CONTINUOUS
 10
9.0551452125
 20
6.7179681398
 11
12.5566265403
 21
6.475139585
  0
LINE
  5
2A4
100
AcDbEntity
  8
0
100
AcDbLine
 62
7
  6
CONTINUOUS
 10
11.2739877806
 20
6.1296039888
 11
11.29320567
 21
6.1201107194
  0
LINE
  5
2A5
100
AcDbEntity
  8
0
100
AcDbLine
 62
4
  6
CONTINUOUS
 10
9.306285987
 20
10.0571439087
 11
9.306285987
 21
10.0474846524
  0
LINE
  5
2A6
100
AcDbEntity
  8
0
100
AcDbLine
 62
4
  6
CONTINUOUS
 10
9.306285987
 20
7.8731854704
 11
9.306285987
 21
7.757274367
  0
LINE
  5
2A7
100
AcDbEntity
  8
0
100
AcDbLine
 62
4
  6
CONTINUOUS
 10
9.3135304309
 20
9.9986859566
 11
9.3135304309
 21
9.9890266968
  0
LINE
  5
2A8
100
AcDbEntity
  8
0
100
AcDbLine
 62
4
  6
CONTINUOUS
 10
10.2640704391
 20
9.1386366711
 11
10.2806291689
 21
9.1540470474
  0
LINE
  5
2A9
100
AcDbEntity
  8
0
100
AcDbLine
 62
4
  6
CONTINUOUS
 10
10.3054672627
 20
9.0364134163
 11
10.3220259908
 21
9.0518237944
  0
LINE
  5
2AA
100
AcDbEntity
  8
0
100
AcDbLine
 62
4
  6
CONTINUOUS
 10
10.2640704391
 20
9.1220779431
 11
10.2640704391
 21
9.1386366711
  0
LINE
  5
2AB
100
AcDbEntity
  8
0
100
AcDbLine
 62
4
  6
CONTINUOUS
 10
10.3220259908
 20
9.0518237944
 11
10.3220259908
 21
9.0683825242
  0
LINE
  5
2AC
100
AcDbEntity
  8
0
100
AcDbLine
 62
4
  6
CONTINUOUS
 10
10.355143447
 20
9.1488794647
 11
10.355143447
 21
9.049527091
  0
LINE
  5
2AD
100
AcDbEntity
  8
0
100
AcDbLine
 62
4
  6
CONTINUOUS
 10
10.3910207075
 20
8.4393336373
 11
10.3910207075
 21
8.5552447407
  0
LINE
  5
2AE
100
AcDbEntity
  8
0
100
AcDbLine
 62
4
  6
CONTINUOUS
 10
10.3965402775
 20
9.0300974813
 11
10.4130989987
 21
9.0455078599
  0
LINE
  5
2AF
100
AcDbEntity
  8
0
100
AcDbLine
 62
4
  6
CONTINUOUS
 10
10.7829106269
 20
9.0778168863
 11
10.7994693481
 21
9.0849479026
  0
LINE
  5
2B0
100
AcDbEntity
  8
0
100
AcDbLine
 62
4
  6
CONTINUOUS
 10
10.5595748855
 20
7.9852503008
 11
10.5450859976
 21
7.9959143675
  0
LINE
  5
2B1
100
AcDbEntity
  8
0
100
AcDbLine
 62
4
  6
CONTINUOUS
 10
10.5450859976
 20
7.9959143675
 11
10.5305971096
 21
8.0162376922
  0
LINE
  5
2B2
100
AcDbEntity
  8
0
100
AcDbLine
 62
4
  6
CONTINUOUS
 10
10.4130989987
 20
9.0455078599
 11
10.4130989987
 21
9.1448602335
  0
LINE
  5
2B3
100
AcDbEntity
  8
0
100
AcDbLine
 62
4
  6
CONTINUOUS
 10
10.4462164548
 20
9.0266524267
 11
10.4462164548
 21
9.1425635301
  0
LINE
  5
2B4
100
AcDbEntity
  8
0
100
AcDbLine
 62
4
  6
CONTINUOUS
 10
10.4489762523
 20
8.5346667819
 11
10.4489762523
 21
8.4518731364
  0
LINE
  5
2B5
100
AcDbEntity
  8
0
100
AcDbLine
 62
4
  6
CONTINUOUS
 10
10.5041720066
 20
9.0226331955
 11
10.5041720066
 21
9.138544299
  0
LINE
  5
2B6
100
AcDbEntity
  8
0
100
AcDbLine
 62
4
  6
CONTINUOUS
 10
10.5957971053
 20
8.040693833
 11
10.5957971053
 21
8.0020567991
  0
LINE
  5
2B7
100
AcDbEntity
  8
0
100
AcDbLine
 62
4
  6
CONTINUOUS
 10
10.4958926519
 20
8.4320607432
 11
10.5290101081
 21
8.5456751433
  0
LINE
  5
2B8
100
AcDbEntity
  8
0
100
AcDbLine
 62
4
  6
CONTINUOUS
 10
10.7277148528
 20
8.9795325646
 11
10.7608322952
 21
9.0876273913
  0
LINE
  5
2B9
100
AcDbEntity
  8
0
100
AcDbLine
 62
4
  6
CONTINUOUS
 10
10.9402185609
 20
9.0255107239
 11
10.956777282
 21
9.0326417367
  0
LINE
  5
2BA
100
AcDbEntity
  8
0
100
AcDbLine
 62
4
  6
CONTINUOUS
 10
10.5740637734
 20
7.984245493
 11
10.5595748855
 21
7.9852503008
  0
LINE
  5
2BB
100
AcDbEntity
  8
0
100
AcDbLine
 62
4
  6
CONTINUOUS
 10
10.5668193294
 20
8.0427034486
 11
10.5957971053
 21
8.040693833
  0
LINE
  5
2BC
100
AcDbEntity
  8
0
100
AcDbLine
 62
4
  6
CONTINUOUS
 10
10.5595748855
 20
8.1011614042
 11
10.5740637734
 21
8.1001565964
  0
LINE
  5
2BD
100
AcDbEntity
  8
0
100
AcDbLine
 62
4
  6
CONTINUOUS
 10
10.5740637734
 20
8.1001565964
 11
10.5885526613
 21
8.0894925323
  0
LINE
  5
2BE
100
AcDbEntity
  8
0
100
AcDbLine
 62
4
  6
CONTINUOUS
 10
10.5885526613
 20
8.0894925323
 11
10.5957971053
 21
8.0793308652
  0
LINE
  5
2BF
100
AcDbEntity
  8
0
100
AcDbLine
 62
4
  6
CONTINUOUS
 10
9.2555748792
 20
9.973727411
 11
9.2483304353
 21
9.9838890738
  0
LINE
  5
2C0
100
AcDbEntity
  8
0
100
AcDbLine
 62
4
  6
CONTINUOUS
 10
9.299041543
 20
10.0190092804
 11
9.3135304309
 21
9.9986859566
  0
LINE
  5
2C1
100
AcDbEntity
  8
0
100
AcDbLine
 62
4
  6
CONTINUOUS
 10
9.299041543
 20
10.0673055758
 11
9.306285987
 21
10.0571439087
  0
LINE
  5
2C2
100
AcDbEntity
  8
0
100
AcDbLine
 62
4
  6
CONTINUOUS
 10
10.5290101081
 20
8.5456751433
 11
10.562127578
 21
8.4274673355
  0
LINE
  5
2C3
100
AcDbEntity
  8
0
100
AcDbLine
 62
4
  6
CONTINUOUS
 10
10.5305971096
 20
8.0162376922
 11
10.5233526657
 21
8.045717872
  0
LINE
  5
2C4
100
AcDbEntity
  8
0
100
AcDbLine
 62
4
  6
CONTINUOUS
 10
10.6283624903
 20
8.4228739287
 11
10.6283624903
 21
8.5387850322
  0
LINE
  5
2C5
100
AcDbEntity
  8
0
100
AcDbLine
 62
4
  6
CONTINUOUS
 10
10.6283624706
 20
9.0140205576
 11
10.6283624706
 21
9.129931661
  0
LINE
  5
2C6
100
AcDbEntity
  8
0
100
AcDbLine
 62
4
  6
CONTINUOUS
 10
10.6780386617
 20
9.0850897818
 11
10.6780386617
 21
9.010575502
  0
LINE
  5
2C7
100
AcDbEntity
  8
0
100
AcDbLine
 62
4
  6
CONTINUOUS
 10
10.6863180317
 20
8.6738591258
 11
10.6863180317
 21
8.7897702293
  0
LINE
  5
2C8
100
AcDbEntity
  8
0
100
AcDbLine
 62
4
  6
CONTINUOUS
 10
10.6945974026
 20
8.418280522
 11
10.6945974026
 21
8.5341916254
  0
LINE
  5
2C9
100
AcDbEntity
  8
0
100
AcDbLine
 62
4
  6
CONTINUOUS
 10
10.7359942194
 20
8.7697664459
 11
10.7359942194
 21
8.7449283503
  0
LINE
  5
2CA
100
AcDbEntity
  8
0
100
AcDbLine
 62
4
  6
CONTINUOUS
 10
10.7442735834
 20
8.7112367183
 11
10.7442735834
 21
8.6863986245
  0
LINE
  5
2CB
100
AcDbEntity
  8
0
100
AcDbLine
 62
4
  6
CONTINUOUS
 10
10.7829106269
 20
9.0115819715
 11
10.7829106269
 21
9.0778168863
  0
LINE
  5
2CC
100
AcDbEntity
  8
0
100
AcDbLine
 62
4
  6
CONTINUOUS
 10
10.8160280787
 20
8.6648637035
 11
10.8160280787
 21
8.7228192552
  0
LINE
  5
2CD
100
AcDbEntity
  8
0
100
AcDbLine
 62
4
  6
CONTINUOUS
 10
10.5233526657
 20
8.045717872
 11
10.5305971096
 21
8.0741932439
  0
LINE
  5
2CE
100
AcDbEntity
  8
0
100
AcDbLine
 62
4
  6
CONTINUOUS
 10
10.7773910396
 20
8.6923812851
 11
10.8022291352
 21
8.7817317669
  0
LINE
  5
2CF
100
AcDbEntity
  8
0
100
AcDbLine
 62
7
  6
CONTINUOUS
 10
12.5566265403
 20
10.3388431191
 11
12.9448547875
 21
10.7138428318
  0
LINE
  5
2D0
100
AcDbEntity
  8
0
100
AcDbLine
 62
4
  6
CONTINUOUS
 10
10.7359942194
 20
8.7449283503
 11
10.7194354913
 21
8.7295179739
  0
LINE
  5
2D1
100
AcDbEntity
  8
0
100
AcDbLine
 62
4
  6
CONTINUOUS
 10
10.4489762523
 20
8.4518731364
 11
10.4324175242
 21
8.4364627583
  0
LINE
  5
2D2
100
AcDbEntity
  8
0
100
AcDbLine
 62
4
  6
CONTINUOUS
 10
10.7442735834
 20
8.6863986245
 11
10.7277148554
 21
8.6709882464
  0
LINE
  5
2D3
100
AcDbEntity
  8
0
100
AcDbLine
 62
4
  6
CONTINUOUS
 10
11.2244767089
 20
9.0471941745
 11
11.2327560418
 21
9.0548993684
  0
LINE
  5
2D4
100
AcDbEntity
  8
0
100
AcDbLine
 62
4
  6
CONTINUOUS
 10
10.9181402386
 20
8.732296481
 11
10.9015815036
 21
8.7168861051
  0
LINE
  5
2D5
100
AcDbEntity
  8
0
100
AcDbLine
 62
4
  6
CONTINUOUS
 10
11.298991037
 20
9.0420265883
 11
11.30727037
 21
9.0497317821
  0
LINE
  5
2D6
100
AcDbEntity
  8
0
100
AcDbLine
 62
4
  6
CONTINUOUS
 10
10.3689423999
 20
8.5126192683
 11
10.3247857882
 21
8.4936032322
  0
LINE
  5
2D7
100
AcDbEntity
  8
0
100
AcDbLine
 62
4
  6
CONTINUOUS
 10
10.3247857882
 20
8.4936032322
 11
10.3689423999
 21
8.468462655
  0
LINE
  5
2D8
100
AcDbEntity
  8
0
100
AcDbLine
 62
4
  6
CONTINUOUS
 10
10.4324175242
 20
8.5523738617
 11
10.4489762523
 21
8.5346667819
  0
LINE
  5
2D9
100
AcDbEntity
  8
0
100
AcDbLine
 62
4
  6
CONTINUOUS
 10
10.4462164548
 20
9.1425635301
 11
10.5041720066
 21
9.0226331955
  0
LINE
  5
2DA
100
AcDbEntity
  8
0
100
AcDbLine
 62
4
  6
CONTINUOUS
 10
10.8325867904
 20
9.1157686563
 11
10.8325867904
 21
8.9998575529
  0
LINE
  5
2DB
100
AcDbEntity
  8
0
100
AcDbLine
 62
4
  6
CONTINUOUS
 10
10.865704288
 20
8.9975608467
 11
10.865704288
 21
9.0803544939
  0
LINE
  5
2DC
100
AcDbEntity
  8
0
100
AcDbLine
 62
4
  6
CONTINUOUS
 10
10.8684640475
 20
8.6612272567
 11
10.8684640475
 21
8.7771383602
  0
LINE
  5
2DD
100
AcDbEntity
  8
0
100
AcDbLine
 62
4
  6
CONTINUOUS
 10
10.8684640854
 20
8.4227815564
 11
10.8684640854
 21
8.5055752019
  0
LINE
  5
2DE
100
AcDbEntity
  8
0
100
AcDbLine
 62
4
  6
CONTINUOUS
 10
10.9043412856
 20
9.0693956416
 11
10.9043412856
 21
9.0528369135
  0
LINE
  5
2DF
100
AcDbEntity
  8
0
100
AcDbLine
 62
4
  6
CONTINUOUS
 10
10.9181402386
 20
8.7571345765
 11
10.9181402386
 21
8.732296481
  0
LINE
  5
2E0
100
AcDbEntity
  8
0
100
AcDbLine
 62
4
  6
CONTINUOUS
 10
10.9264195992
 20
8.6986048492
 11
10.9264195992
 21
8.6737667554
  0
LINE
  5
2E1
100
AcDbEntity
  8
0
100
AcDbLine
 62
4
  6
CONTINUOUS
 10
10.9402185609
 20
9.0006726292
 11
10.9402185609
 21
9.0255107239
  0
LINE
  5
2E2
100
AcDbEntity
  8
0
100
AcDbLine
 62
4
  6
CONTINUOUS
 10
10.9650566348
 20
8.4160828403
 11
10.9650566348
 21
8.4988764859
  0
LINE
  5
2E3
100
AcDbEntity
  8
0
100
AcDbLine
 62
4
  6
CONTINUOUS
 10
10.9898947244
 20
8.9889482106
 11
10.9898947244
 21
9.0551831298
  0
LINE
  5
2E4
100
AcDbEntity
  8
0
100
AcDbLine
 62
4
  6
CONTINUOUS
 10
11.0230121667
 20
9.0694451555
 11
11.0230121667
 21
8.9949308731
  0
LINE
  5
2E5
100
AcDbEntity
  8
0
100
AcDbLine
 62
4
  6
CONTINUOUS
 10
11.0230121865
 20
8.4948572547
 11
11.0230121865
 21
8.4120636091
  0
LINE
  5
2E6
100
AcDbEntity
  8
0
100
AcDbLine
 62
4
  6
CONTINUOUS
 10
11.1830798783
 20
9.0914618781
 11
11.1803201007
 21
9.0833739019
  0
LINE
  5
2E7
100
AcDbEntity
  8
0
100
AcDbLine
 62
4
  6
CONTINUOUS
 10
10.5305971096
 20
8.0741932439
 11
10.5450859976
 21
8.0925069557
  0
LINE
  5
2E8
100
AcDbEntity
  8
0
100
AcDbLine
 62
4
  6
CONTINUOUS
 10
10.5957971053
 20
8.0020567991
 11
10.5885526613
 21
7.9928999441
  0
LINE
  5
2E9
100
AcDbEntity
  8
0
100
AcDbLine
 62
4
  6
CONTINUOUS
 10
10.9264195992
 20
8.6737667554
 11
10.909860878
 21
8.6583563768
  0
LINE
  5
2EA
100
AcDbEntity
  8
0
100
AcDbLine
 62
4
  6
CONTINUOUS
 10
11.3403878123
 20
8.9646414324
 11
11.3486671453
 21
8.9723466236
  0
LINE
  5
2EB
100
AcDbEntity
  8
0
100
AcDbLine
 62
4
  6
CONTINUOUS
 10
10.8684640854
 20
8.5055752019
 11
10.8850228066
 21
8.5209855788
  0
LINE
  5
2EC
100
AcDbEntity
  8
0
100
AcDbLine
 62
4
  6
CONTINUOUS
 10
10.9650566348
 20
8.4988764859
 11
10.9816153559
 21
8.5142868627
  0
LINE
  5
2ED
100
AcDbEntity
  8
0
100
AcDbLine
 62
4
  6
CONTINUOUS
 10
11.0975264594
 20
8.390337297
 11
11.0561296288
 21
8.3932081769
  0
LINE
  5
2EE
100
AcDbEntity
  8
0
100
AcDbLine
 62
4
  6
CONTINUOUS
 10
11.0064534653
 20
8.3966532306
 11
10.9816153559
 21
8.3983757593
  0
LINE
  5
2EF
100
AcDbEntity
  8
0
100
AcDbLine
 62
4
  6
CONTINUOUS
 10
10.9181402489
 20
8.4027777729
 11
10.8850228066
 21
8.4050744753
  0
LINE
  5
2F0
100
AcDbEntity
  8
0
100
AcDbLine
 62
4
  6
CONTINUOUS
 10
10.4324175242
 20
8.4364627583
 11
10.3910207075
 21
8.4393336373
  0
LINE
  5
2F1
100
AcDbEntity
  8
0
100
AcDbLine
 62
4
  6
CONTINUOUS
 10
10.6945974026
 20
8.418280522
 11
10.7442735938
 21
8.4148354664
  0
LINE
  5
2F2
100
AcDbEntity
  8
0
100
AcDbLine
 62
4
  6
CONTINUOUS
 10
11.1610016217
 20
8.3859352795
 11
11.2106777852
 21
8.3824902259
  0
LINE
  5
2F3
100
AcDbEntity
  8
0
100
AcDbLine
 62
4
  6
CONTINUOUS
 10
10.506931804
 20
8.464412635
 11
10.5510884122
 21
8.4613503638
  0
LINE
  5
2F4
100
AcDbEntity
  8
0
100
AcDbLine
 62
4
  6
CONTINUOUS
 10
11.194119064
 20
8.4498734963
 11
11.1610016217
 21
8.4521701987
  0
LINE
  5
2F5
100
AcDbEntity
  8
0
100
AcDbLine
 62
4
  6
CONTINUOUS
 10
10.7277148726
 20
8.4822187368
 11
10.6945974026
 21
8.4845154412
  0
LINE
  5
2F6
100
AcDbEntity
  8
0
100
AcDbLine
 62
4
  6
CONTINUOUS
 10
10.3910207075
 20
8.5552447407
 11
10.4324175242
 21
8.5523738617
  0
LINE
  5
2F7
100
AcDbEntity
  8
0
100
AcDbLine
 62
4
  6
CONTINUOUS
 10
10.5952450204
 20
8.5410817365
 11
10.6614799327
 21
8.5364883297
  0
LINE
  5
2F8
100
AcDbEntity
  8
0
100
AcDbLine
 62
4
  6
CONTINUOUS
 10
10.6945974026
 20
8.5341916254
 11
10.7442735938
 21
8.5307465698
  0
LINE
  5
2F9
100
AcDbEntity
  8
0
100
AcDbLine
 62
4
  6
CONTINUOUS
 10
10.8850228066
 20
8.5209855788
 11
10.9181402489
 21
8.5186888763
  0
LINE
  5
2FA
100
AcDbEntity
  8
0
100
AcDbLine
 62
4
  6
CONTINUOUS
 10
10.9816153559
 20
8.5142868627
 11
11.0064534653
 21
8.512564334
  0
LINE
  5
2FB
100
AcDbEntity
  8
0
100
AcDbLine
 62
4
  6
CONTINUOUS
 10
11.0561296288
 20
8.5091192803
 11
11.0975264594
 21
8.5062484004
  0
LINE
  5
2FC
100
AcDbEntity
  8
0
100
AcDbLine
 62
4
  6
CONTINUOUS
 10
11.1610016217
 20
8.5018463829
 11
11.2106777852
 21
8.4984013293
  0
LINE
  5
2FD
100
AcDbEntity
  8
0
100
AcDbLine
 62
4
  6
CONTINUOUS
 10
10.7194354913
 20
8.7847137342
 11
10.7359942194
 21
8.7697664459
  0
LINE
  5
2FE
100
AcDbEntity
  8
0
100
AcDbLine
 62
4
  6
CONTINUOUS
 10
10.3220259908
 20
9.0683825242
 11
10.2640704391
 21
9.1220779431
  0
LINE
  5
2FF
100
AcDbEntity
  8
0
100
AcDbLine
 62
4
  6
CONTINUOUS
 10
10.2640704391
 20
9.0475636607
 11
10.272349804
 21
9.0387101199
  0
LINE
  5
300
100
AcDbEntity
  8
0
100
AcDbLine
 62
4
  6
CONTINUOUS
 10
10.8850228066
 20
8.4050744753
 11
10.8684640854
 21
8.4227815564
  0
LINE
  5
301
100
AcDbEntity
  8
0
100
AcDbLine
 62
4
  6
CONTINUOUS
 10
10.355143447
 20
9.049527091
 11
10.371702175
 21
9.0318200095
  0
LINE
  5
302
100
AcDbEntity
  8
0
100
AcDbLine
 62
4
  6
CONTINUOUS
 10
10.9816153559
 20
8.3983757593
 11
10.9650566348
 21
8.4160828403
  0
LINE
  5
303
100
AcDbEntity
  8
0
100
AcDbLine
 62
4
  6
CONTINUOUS
 10
10.3137466268
 20
9.1517503439
 11
10.3220259908
 21
9.1428968006
  0
LINE
  5
304
100
AcDbEntity
  8
0
100
AcDbLine
 62
4
  6
CONTINUOUS
 10
10.7277148554
 20
8.7289437981
 11
10.7442735834
 21
8.7112367183
  0
LINE
  5
305
100
AcDbEntity
  8
0
100
AcDbLine
 62
4
  6
CONTINUOUS
 10
11.0064534653
 20
8.512564334
 11
11.0230121865
 21
8.4948572547
  0
LINE
  5
306
100
AcDbEntity
  8
0
100
AcDbLine
 62
4
  6
CONTINUOUS
 10
10.7111561317
 20
9.091072445
 11
10.735994241
 21
9.006556269
  0
LINE
  5
307
100
AcDbEntity
  8
0
100
AcDbLine
 62
4
  6
CONTINUOUS
 10
11.0561296288
 20
8.3932081769
 11
11.0561296288
 21
8.5091192803
  0
LINE
  5
308
100
AcDbEntity
  8
0
100
AcDbLine
 62
4
  6
CONTINUOUS
 10
11.0726883855
 20
8.9832064507
 11
11.0726883855
 21
9.066000098
  0
LINE
  5
309
100
AcDbEntity
  8
0
100
AcDbLine
 62
4
  6
CONTINUOUS
 10
11.1058058278
 20
8.9891891132
 11
11.1058058278
 21
9.0968208517
  0
LINE
  5
30A
100
AcDbEntity
  8
0
100
AcDbLine
 62
4
  6
CONTINUOUS
 10
11.1140851805
 20
8.4885413211
 11
11.1140851805
 21
8.4057476756
  0
LINE
  5
30B
100
AcDbEntity
  8
0
100
AcDbLine
 62
4
  6
CONTINUOUS
 10
11.1610016217
 20
8.3859352795
 11
11.1610016217
 21
8.5018463829
  0
LINE
  5
30C
100
AcDbEntity
  8
0
100
AcDbLine
 62
7
  6
CONTINUOUS
 10
11.1657875035
 20
6.5715945998
 11
11.1657875035
 21
6.2662836504
  0
LINE
  5
30D
100
AcDbEntity
  8
0
100
AcDbLine
 62
4
  6
CONTINUOUS
 10
11.1803201007
 20
8.9757421659
 11
11.1803201007
 21
9.0585358132
  0
LINE
  5
30E
100
AcDbEntity
  8
0
100
AcDbLine
 62
4
  6
CONTINUOUS
 10
11.1803201007
 20
9.0833739019
 11
11.1803201007
 21
9.0916532694
  0
LINE
  5
30F
100
AcDbEntity
  8
0
100
AcDbLine
 62
4
  6
CONTINUOUS
 10
11.2244767089
 20
8.9809592597
 11
11.2244767089
 21
9.0471941745
  0
LINE
  5
310
100
AcDbEntity
  8
0
100
AcDbLine
 62
4
  6
CONTINUOUS
 10
11.0230121865
 20
8.4120636091
 11
11.0064534653
 21
8.3966532306
  0
LINE
  5
311
100
AcDbEntity
  8
0
100
AcDbLine
 62
4
  6
CONTINUOUS
 10
11.1140851805
 20
8.4057476756
 11
11.0975264594
 21
8.390337297
  0
LINE
  5
312
100
AcDbEntity
  8
0
100
AcDbLine
 62
4
  6
CONTINUOUS
 10
10.5450859976
 20
8.0925069557
 11
10.5595748855
 21
8.1011614042
  0
LINE
  5
313
100
AcDbEntity
  8
0
100
AcDbLine
 62
4
  6
CONTINUOUS
 10
10.5885526613
 20
7.9928999441
 11
10.5740637734
 21
7.984245493
  0
LINE
  5
314
100
AcDbEntity
  8
0
100
AcDbLine
 62
4
  6
CONTINUOUS
 10
11.2879518357
 20
8.4268074399
 11
11.2437952275
 21
8.4077914053
  0
LINE
  5
315
100
AcDbEntity
  8
0
100
AcDbLine
 62
4
  6
CONTINUOUS
 10
10.909860878
 20
8.6583563768
 11
10.8684640475
 21
8.6612272567
  0
LINE
  5
316
100
AcDbEntity
  8
0
100
AcDbLine
 62
4
  6
CONTINUOUS
 10
10.7277148554
 20
8.6709882464
 11
10.6863180317
 21
8.6738591258
  0
LINE
  5
317
100
AcDbEntity
  8
0
100
AcDbLine
 62
4
  6
CONTINUOUS
 10
10.8353465913
 20
8.688362054
 11
10.7773910396
 21
8.6923812851
  0
LINE
  5
318
100
AcDbEntity
  8
0
100
AcDbLine
 62
4
  6
CONTINUOUS
 10
10.6863180317
 20
8.7318146775
 11
10.7277148554
 21
8.7289437981
  0
LINE
  5
319
100
AcDbEntity
  8
0
100
AcDbLine
 62
4
  6
CONTINUOUS
 10
10.8684640475
 20
8.7191828084
 11
10.909860878
 21
8.7163119285
  0
LINE
  5
31A
100
AcDbEntity
  8
0
100
AcDbLine
 62
4
  6
CONTINUOUS
 10
10.7111561256
 20
8.7880477016
 11
10.7194354913
 21
8.7847137342
  0
LINE
  5
31B
100
AcDbEntity
  8
0
100
AcDbLine
 62
4
  6
CONTINUOUS
 10
10.893302143
 20
8.7754158324
 11
10.9015815036
 21
8.7720818653
  0
LINE
  5
31C
100
AcDbEntity
  8
0
100
AcDbLine
 62
4
  6
CONTINUOUS
 10
11.2437952275
 20
8.4519480187
 11
11.2879518357
 21
8.4268074399
  0
LINE
  5
31D
100
AcDbEntity
  8
0
100
AcDbLine
 62
4
  6
CONTINUOUS
 10
9.2700637671
 20
9.9630633443
 11
9.2555748792
 21
9.973727411
  0
LINE
  5
31E
100
AcDbEntity
  8
0
100
AcDbLine
 62
4
  6
CONTINUOUS
 10
9.2845526551
 20
10.0296733445
 11
9.299041543
 21
10.0190092804
  0
LINE
  5
31F
100
AcDbEntity
  8
0
100
AcDbLine
 62
4
  6
CONTINUOUS
 10
10.9015815036
 20
8.7720818653
 11
10.9181402386
 21
8.7571345765
  0
LINE
  5
320
100
AcDbEntity
  8
0
100
AcDbLine
 62
4
  6
CONTINUOUS
 10
11.0975264594
 20
8.5062484004
 11
11.1140851805
 21
8.4885413211
  0
LINE
  5
321
100
AcDbEntity
  8
0
100
AcDbLine
 62
4
  6
CONTINUOUS
 10
10.909860878
 20
8.7163119285
 11
10.9264195992
 21
8.6986048492
  0
LINE
  5
322
100
AcDbEntity
  8
0
100
AcDbLine
 62
4
  6
CONTINUOUS
 10
10.6697593011
 20
9.0939433249
 11
10.6780386617
 21
9.0850897818
  0
LINE
  5
323
100
AcDbEntity
  8
0
100
AcDbLine
 62
4
  6
CONTINUOUS
 10
10.8988217303
 20
9.0780577915
 11
10.9043412856
 21
9.0693956416
  0
LINE
  5
324
100
AcDbEntity
  8
0
100
AcDbLine
 62
4
  6
CONTINUOUS
 10
10.9898947244
 20
9.0551831298
 11
10.9816153914
 21
9.0723160316
  0
LINE
  5
325
100
AcDbEntity
  8
0
100
AcDbLine
 62
4
  6
CONTINUOUS
 10
11.298991037
 20
9.0171884962
 11
11.298991037
 21
9.0420265883
  0
LINE
  5
326
100
AcDbEntity
  8
0
100
AcDbLine
 62
7
  6
CONTINUOUS
 10
11.317207443
 20
6.5044269117
 11
11.317207443
 21
6.1200234704
  0
LINE
  5
327
100
AcDbEntity
  8
0
100
AcDbLine
 62
4
  6
CONTINUOUS
 10
11.3486671453
 20
8.9723466236
 11
11.3486671453
 21
8.9971847183
  0
LINE
  5
328
100
AcDbEntity
  8
0
100
AcDbLine
 62
7
  6
CONTINUOUS
 10
11.3566802209
 20
6.4942106179
 11
11.3566802209
 21
6.1098071766
  0
LINE
  5
329
100
AcDbEntity
  8
0
100
AcDbLine
 62
4
  6
CONTINUOUS
 10
12.3127302637
 20
8.9532329653
 11
12.3272191516
 21
8.9618874139
  0
LINE
  5
32A
100
AcDbEntity
  8
0
100
AcDbLine
 62
4
  6
CONTINUOUS
 10
12.3561969275
 20
8.9115815029
 11
12.3272191516
 21
8.8942726024
  0
LINE
  5
32B
100
AcDbEntity
  8
0
100
AcDbLine
 62
4
  6
CONTINUOUS
 10
10.6863180317
 20
8.7897702293
 11
10.7111561256
 21
8.7880477016
  0
LINE
  5
32C
100
AcDbEntity
  8
0
100
AcDbLine
 62
4
  6
CONTINUOUS
 10
10.8684640475
 20
8.7771383602
 11
10.893302143
 21
8.7754158324
  0
LINE
  5
32D
100
AcDbEntity
  8
0
100
AcDbLine
 62
4
  6
CONTINUOUS
 10
12.3054858198
 20
8.8474835221
 11
12.3634413715
 21
8.8434642909
  0
LINE
  5
32E
100
AcDbEntity
  8
0
100
AcDbLine
 62
4
  6
CONTINUOUS
 10
10.7994693481
 20
9.0021542553
 11
10.7829106269
 21
9.0115819715
  0
LINE
  5
32F
100
AcDbEntity
  8
0
100
AcDbLine
 62
4
  6
CONTINUOUS
 10
10.956777282
 20
8.9912449131
 11
10.9402185609
 21
9.0006726292
  0
LINE
  5
330
100
AcDbEntity
  8
0
100
AcDbLine
 62
4
  6
CONTINUOUS
 10
9.2845526551
 20
10.0779696399
 11
9.299041543
 21
10.0673055758
  0
LINE
  5
331
100
AcDbEntity
  8
0
100
AcDbLine
 62
4
  6
CONTINUOUS
 10
11.0230121667
 20
8.9949308731
 11
11.0312915549
 21
8.9860773307
  0
LINE
  5
332
100
AcDbEntity
  8
0
100
AcDbLine
 62
4
  6
CONTINUOUS
 10
11.114085216
 20
8.9803355708
 11
11.1058058278
 21
8.9891891132
  0
LINE
  5
333
100
AcDbEntity
  8
0
100
AcDbLine
 62
7
  6
CONTINUOUS
 10
12.7507406639
 20
9.3556407696
 11
12.7515965949
 21
9.3564523283
  0
LINE
  5
334
100
AcDbEntity
  8
0
100
AcDbLine
 62
4
  6
CONTINUOUS
 10
10.7111561317
 20
8.9806809158
 11
10.7277148528
 21
8.9795325646
  0
LINE
  5
335
100
AcDbEntity
  8
0
100
AcDbLine
 62
4
  6
CONTINUOUS
 10
11.2658735947
 20
8.969809011
 11
11.2327560418
 21
8.9721057211
  0
LINE
  5
336
100
AcDbEntity
  8
0
100
AcDbLine
 62
4
  6
CONTINUOUS
 10
11.1306439372
 20
8.9791872196
 11
11.114085216
 21
8.9803355708
  0
LINE
  5
337
100
AcDbEntity
  8
0
100
AcDbLine
 62
4
  6
CONTINUOUS
 10
10.9898947244
 20
8.9889482106
 11
10.956777282
 21
8.9912449131
  0
LINE
  5
338
100
AcDbEntity
  8
0
100
AcDbLine
 62
4
  6
CONTINUOUS
 10
10.8325867904
 20
8.9998575529
 11
10.7994693481
 21
9.0021542553
  0
LINE
  5
339
100
AcDbEntity
  8
0
100
AcDbLine
 62
4
  6
CONTINUOUS
 10
10.272349804
 20
9.0387101199
 11
10.3054672627
 21
9.0364134163
  0
LINE
  5
33A
100
AcDbEntity
  8
0
100
AcDbLine
 62
4
  6
CONTINUOUS
 10
10.371702175
 20
9.0318200095
 11
10.3965402775
 21
9.0300974813
  0
LINE
  5
33B
100
AcDbEntity
  8
0
100
AcDbLine
 62
4
  6
CONTINUOUS
 10
11.0312915549
 20
8.9860773307
 11
11.0726883855
 21
8.9832064507
  0
LINE
  5
33C
100
AcDbEntity
  8
0
100
AcDbLine
 62
4
  6
CONTINUOUS
 10
11.30727037
 20
8.9669381349
 11
11.3403878123
 21
8.9646414324
  0
LINE
  5
33D
100
AcDbEntity
  8
0
100
AcDbLine
 62
4
  6
CONTINUOUS
 10
10.956777282
 20
9.0326417367
 11
10.9898947244
 21
9.0303450343
  0
LINE
  5
33E
100
AcDbEntity
  8
0
100
AcDbLine
 62
4
  6
CONTINUOUS
 10
12.3272191516
 20
8.9618874139
 11
12.3417080396
 21
8.9608826061
  0
LINE
  5
33F
100
AcDbEntity
  8
0
100
AcDbLine
 62
4
  6
CONTINUOUS
 10
10.9816153914
 20
9.0723160316
 11
10.9402185609
 21
9.0751869116
  0
LINE
  5
340
100
AcDbEntity
  8
0
100
AcDbLine
 62
4
  6
CONTINUOUS
 10
10.6283624706
 20
9.0968142049
 11
10.6697593011
 21
9.0939433249
  0
LINE
  5
341
100
AcDbEntity
  8
0
100
AcDbLine
 62
4
  6
CONTINUOUS
 10
10.7994693481
 20
9.0849479026
 11
10.8325867904
 21
9.0826512002
  0
LINE
  5
342
100
AcDbEntity
  8
0
100
AcDbLine
 62
4
  6
CONTINUOUS
 10
10.865704288
 20
9.0803544939
 11
10.8988217303
 21
9.0780577915
  0
LINE
  5
343
100
AcDbEntity
  8
0
100
AcDbLine
 62
4
  6
CONTINUOUS
 10
11.2327560418
 20
9.0548993684
 11
11.2658735947
 21
9.0526026583
  0
LINE
  5
344
100
AcDbEntity
  8
0
100
AcDbLine
 62
4
  6
CONTINUOUS
 10
11.30727037
 20
9.0497317821
 11
11.3403878123
 21
9.0474350797
  0
LINE
  5
345
100
AcDbEntity
  8
0
100
AcDbLine
 62
4
  6
CONTINUOUS
 10
10.2806291689
 20
9.1540470474
 11
10.3137466268
 21
9.1517503439
  0
LINE
  5
346
100
AcDbEntity
  8
0
100
AcDbLine
 62
4
  6
CONTINUOUS
 10
11.1803201007
 20
9.0916532694
 11
11.1830798783
 21
9.0914618781
  0
LINE
  5
347
100
AcDbEntity
  8
0
100
AcDbLine
 62
4
  6
CONTINUOUS
 10
11.3403878123
 20
9.0032784681
 11
11.30727037
 21
9.0110947465
  0
LINE
  5
348
100
AcDbEntity
  8
0
100
AcDbLine
 62
4
  6
CONTINUOUS
 10
11.30727037
 20
9.0110947465
 11
11.298991037
 21
9.0171884962
  0
LINE
  5
349
100
AcDbEntity
  8
0
100
AcDbLine
 62
4
  6
CONTINUOUS
 10
11.3486671453
 20
8.9971847183
 11
11.3403878123
 21
9.0032784681
  0
LINE
  5
34A
100
AcDbEntity
  8
0
100
AcDbLine
 62
4
  6
CONTINUOUS
 10
11.2327560418
 20
8.9721057211
 11
11.2244767089
 21
8.9809592597
  0
LINE
  5
34B
100
AcDbEntity
  8
0
100
AcDbLine
 62
4
  6
CONTINUOUS
 10
11.298991037
 20
8.9757916735
 11
11.30727037
 21
8.9669381349
  0
LINE
  5
34C
100
AcDbEntity
  8
0
100
AcDbLine
 62
4
  6
CONTINUOUS
 10
11.3403878123
 20
9.0474350797
 11
11.3486671453
 21
9.0385815385
  0
LINE
  5
34D
100
AcDbEntity
  8
0
100
AcDbLine
 62
4
  6
CONTINUOUS
 10
12.3054858198
 20
8.944076106
 11
12.3127302637
 21
8.9532329653
  0
LINE
  5
34E
100
AcDbEntity
  8
0
100
AcDbLine
 62
4
  6
CONTINUOUS
 10
12.3272191516
 20
8.8942726024
 11
12.3127302637
 21
8.8759588941
  0
LINE
  5
34F
100
AcDbEntity
  8
0
100
AcDbLine
 62
4
  6
CONTINUOUS
 10
12.3634413715
 20
8.9207383622
 11
12.3561969275
 21
8.9115815029
  0
LINE
  5
350
100
AcDbEntity
  8
0
100
AcDbLine
 62
7
  6
CONTINUOUS
 10
11.9217866955
 20
6.4550203508
 11
11.9217866955
 21
6.0706169095
  0
LINE
  5
351
100
AcDbEntity
  8
0
100
AcDbLine
 62
7
  6
CONTINUOUS
 10
11.9757074978
 20
6.4587597778
 11
11.9757074978
 21
6.0743563364
  0
LINE
  5
352
100
AcDbEntity
  8
0
100
AcDbLine
 62
4
  6
CONTINUOUS
 10
12.3127302637
 20
8.8759588941
 11
12.3054858198
 21
8.8474835221
  0
LINE
  5
353
100
AcDbEntity
  8
0
100
AcDbLine
 62
4
  6
CONTINUOUS
 10
12.3417080396
 20
8.9608826061
 11
12.3561969275
 21
8.950218542
  0
LINE
  5
354
100
AcDbEntity
  8
0
100
AcDbLine
 62
4
  6
CONTINUOUS
 10
12.3634413715
 20
8.9400568748
 11
12.3634413715
 21
8.9207383622
  0
LINE
  5
355
100
AcDbEntity
  8
0
100
AcDbLine
 62
7
  6
CONTINUOUS
 10
12.3893940328
 20
6.4867371987
 11
12.3893940328
 21
6.1814262494
  0
LINE
  5
356
100
AcDbEntity
  8
0
100
AcDbLine
 62
7
  6
CONTINUOUS
 10
12.4038420572
 20
6.4857352249
 11
12.4038420572
 21
6.1953819701
  0
LINE
  5
357
100
AcDbEntity
  8
0
100
AcDbLine
 62
4
  6
CONTINUOUS
 10
9.2845526551
 20
9.9620585365
 11
9.2700637671
 21
9.9630633443
  0
LINE
  5
358
100
AcDbEntity
  8
0
100
AcDbLine
 62
4
  6
CONTINUOUS
 10
9.2700637671
 20
10.0306781523
 11
9.2845526551
 21
10.0296733445
  0
LINE
  5
359
100
AcDbEntity
  8
0
100
AcDbLine
 62
4
  6
CONTINUOUS
 10
9.2700637671
 20
10.0789744477
 11
9.2845526551
 21
10.0779696399
  0
LINE
  5
35A
100
AcDbEntity
  8
0
100
AcDbLine
 62
4
  6
CONTINUOUS
 10
12.3561969275
 20
8.950218542
 11
12.3634413715
 21
8.9400568748
  0
LINE
  5
35B
100
AcDbEntity
  8
0
100
AcDbLine
 62
7
  6
CONTINUOUS
 10
12.5566265403
 20
6.475139585
 11
12.5566265403
 21
10.3388431191
  0
LINE
  5
35C
100
AcDbEntity
  8
0
100
AcDbLine
 62
7
  6
CONTINUOUS
 10
12.9448547875
 20
6.8501392977
 11
12.9448547875
 21
10.7138428318
  0
LINE
  5
35D
100
AcDbEntity
  8
0
100
AcDbLine
 62
7
  6
CONTINUOUS
 10
9.0551452125
 20
10.5816716739
 11
12.5566265403
 21
10.3388431191
  0
LINE
  5
35E
100
AcDbEntity
  8
0
100
AcDbLine
 62
7
  6
CONTINUOUS
 10
12.9448547875
 20
10.7138428318
 11
9.4433734597
 21
10.9566713866
  0
LINE
  5
35F
100
AcDbEntity
  8
0
100
AcDbLine
 62
7
  6
CONTINUOUS
 10
12.5566265403
 20
6.475139585
 11
12.9448547875
 21
6.8501392977
  0
LINE
  5
360
100
AcDbEntity
  8
0
100
AcDbLine
 62
7
  6
CONTINUOUS
 10
12.3070979012
 20
6.1352630932
 11
12.2764238907
 21
6.1201107194
  0
ARC
  5
361
100
AcDbEntity
  8
0
100
AcDbCircle
 62
7
  6
CONTINUOUS
 10
11.7958543029
 20
8.2771297941
 40
2.210103635
100
AcDbArc
 50
273.2665005552
 51
274.6677615151
  0
ARC
  5
362
100
AcDbEntity
  8
0
100
AcDbCircle
 62
7
  6
CONTINUOUS
 10
11.7958543029
 20
8.6615332355
 40
2.210103635
100
AcDbArc
 50
273.2665005552
 51
274.6677615151
  0
ARC
  5
363
100
AcDbEntity
  8
0
100
AcDbCircle
 62
7
  6
CONTINUOUS
 10
10.6818520041
 20
6.7736407321
 40
1.0859521356
100
AcDbArc
 50
95.7366273534
 51
96.0879460054
  0
ARC
  5
364
100
AcDbEntity
  8
0
100
AcDbCircle
 62
7
  6
CONTINUOUS
 10
11.5758797294
 20
7.4224973516
 40
0.9538158545
100
AcDbArc
 50
254.2644742826
 51
256.7139235525
  0
ARC
  5
365
100
AcDbEntity
  8
0
100
AcDbCircle
 62
7
  6
CONTINUOUS
 10
11.5758797294
 20
7.0380939102
 40
0.9538158545
100
AcDbArc
 50
254.2644742826
 51
256.7139235525
  0
ARC
  5
366
100
AcDbEntity
  8
0
100
AcDbCircle
 62
7
  6
CONTINUOUS
 10
11.9682168996
 20
6.8201582944
 40
0.7641475746
100
AcDbArc
 50
293.7608747297
 51
296.3085175792
  0
ARC
  5
367
100
AcDbEntity
  8
0
100
AcDbCircle
 62
7
  6
CONTINUOUS
 10
10.6629467636
 20
8.0761824692
 40
0.4297711056
100
AcDbArc
 50
237.319437336
 51
237.7591184877
  0
ARC
  5
368
100
AcDbEntity
  8
0
100
AcDbCircle
 62
7
  6
CONTINUOUS
 10
10.7108043543
 20
7.7788218395
 40
0.2872217307
100
AcDbArc
 50
189.8419892637
 51
192.9517505153
  0
ARC
  5
369
100
AcDbEntity
  8
0
100
AcDbCircle
 62
7
  6
CONTINUOUS
 10
10.3437401884
 20
7.9300426142
 40
0.2357253295
100
AcDbArc
 50
341.0438102642
 51
341.6748121947
  0
ARC
  5
36A
100
AcDbEntity
  8
0
100
AcDbCircle
 62
7
  6
CONTINUOUS
 10
10.5862684613
 20
7.774473615
 40
0.1646570145
100
AcDbArc
 50
179.9264838485
 51
195.7691081024
  0
SPLINE
  5
36B
100
AcDbEntity
  8
0
100
AcDbSpline
 62
7
  6
CONTINUOUS
 70
0
 71
3
 72
9
 73
5
 74
0
 42
0.0000001
 43
0.0000001
 44
0.0000000001
 40
0.0
 40
0.0
 40
0.0
 40
0.0
 40
0.2426770998
 40
1.0
 40
1.0
 40
1.0
 40
1.0
 10
12.3972117905
 20
6.1883629334
 30
0.0
 10
12.3966036
 20
6.1877754665
 30
0.0
 10
12.3940705486
 20
6.1853825853
 30
0.0
 10
12.3914348349
 20
6.1830991158
 30
0.0
 10
12.3893940328
 20
6.1814262494
 30
0.0
  0
SPLINE
  5
36C
100
AcDbEntity
  8
0
100
AcDbSpline
 62
7
  6
CONTINUOUS
 70
0
 71
3
 72
9
 73
5
 74
0
 42
0.0000001
 43
0.0000001
 44
0.0000000001
 40
0.0
 40
0.0
 40
0.0
 40
0.0
 40
0.2426666479
 40
1.0
 40
1.0
 40
1.0
 40
1.0
 10
12.4038420572
 20
6.1953819701
 30
0.0
 10
12.4033344294
 20
6.1947881972
 30
0.0
 10
12.4012107336
 20
6.1923686127
 30
0.0
 10
12.3989653251
 20
6.1900567179
 30
0.0
 10
12.3972117905
 20
6.1883629334
 30
0.0
  0
SPLINE
  5
36D
100
AcDbEntity
  8
0
100
AcDbSpline
 62
7
  6
CONTINUOUS
 70
0
 71
3
 72
9
 73
5
 74
0
 42
0.0000001
 43
0.0000001
 44
0.0000000001
 40
0.0
 40
0.0
 40
0.0
 40
0.0
 40
0.504378312
 40
1.0
 40
1.0
 40
1.0
 40
1.0
 10
12.3893940328
 20
6.1814262494
 30
0.0
 10
12.3758902826
 20
6.1730173957
 30
0.0
 10
12.3487774452
 20
6.1568827397
 30
0.0
 10
12.3209046487
 20
6.1420855449
 30
0.0
 10
12.3068905107
 20
6.1351607025
 30
0.0
  0
SPLINE
  5
36E
100
AcDbEntity
  8
0
100
AcDbSpline
 62
7
  6
CONTINUOUS
 70
0
 71
3
 72
23
 73
19
 74
0
 42
0.0000001
 43
0.0000001
 44
0.0000000001
 40
0.0
 40
0.0
 40
0.0
 40
0.0
 40
0.0436203086
 40
0.0892268542
 40
0.137068591
 40
0.187353676
 40
0.2402538462
 40
0.2958872461
 40
0.3543311569
 40
0.4156094827
 40
0.4797102731
 40
0.5465788188
 40
0.6161346312
 40
0.6882694307
 40
0.7628606873
 40
0.8397744221
 40
0.9188692703
 40
1.0
 40
1.0
 40
1.0
 40
1.0
 10
11.2741960138
 20
6.1295011619
 30
0.0
 10
11.2718860781
 20
6.1306417304
 30
0.0
 10
11.2672489544
 20
6.1331568269
 30
0.0
 10
11.260421665
 20
6.1375178789
 30
0.0
 10
11.2535852761
 20
6.1425601655
 30
0.0
 10
11.2467437264
 20
6.1482910978
 30
0.0
 10
11.2399026282
 20
6.1547147486
 30
0.0
 10
11.2330650877
 20
6.161826321
 30
0.0
 10
11.2262368285
 20
6.169617133
 30
0.0
 10
11.2194205844
 20
6.1780705355
 30
0.0
 10
11.2126214159
 20
6.1871664414
 30
0.0
 10
11.2058415657
 20
6.1968788233
 30
0.0
 10
11.1990848988
 20
6.2071793714
 30
0.0
 10
11.1923530118
 20
6.2180363255
 30
0.0
 10
11.1856482948
 20
6.229417179
 30
0.0
 10
11.1789716456
 20
6.2412882614
 30
0.0
 10
11.1723241531
 20
6.2536161005
 30
0.0
 10
11.1679650351
 20
6.2620155176
 30
0.0
 10
11.1657875035
 20
6.2662836504
 30
0.0
  0
SPLINE
  5
36F
100
AcDbEntity
  8
0
100
AcDbSpline
 62
7
  6
CONTINUOUS
 70
0
 71
3
 72
47
 73
43
 74
0
 42
0.0000001
 43
0.0000001
 44
0.0000000001
 40
0.0
 40
0.0
 40
0.0
 40
0.0
 40
0.0099874638
 40
0.0204476834
 40
0.0313771515
 40
0.0427708334
 40
0.0546218702
 40
0.0669225517
 40
0.0796641282
 40
0.0928362942
 40
0.1204271347
 40
0.1495984091
 40
0.1802407165
 40
0.2122338314
 40
0.2454489836
 40
0.2797497839
 40
0.3149929168
 40
0.3510298084
 40
0.3877071885
 40
0.4248680172
 40
0.4623527228
 40
0.4999997959
 40
0.5376468789
 40
0.575131606
 40
0.6122924455
 40
0.6489698269
 40
0.6850067267
 40
0.7202498875
 40
0.7545507276
 40
0.7877659112
 40
0.8197590481
 40
0.8504013805
 40
0.8795726993
 40
0.9071635849
 40
0.9203357726
 40
0.933077377
 40
0.9453780958
 40
0.9572291635
 40
0.968622847
 40
0.9795522717
 40
0.9900124597
 40
1.0
 40
1.0
 40
1.0
 40
1.0
 10
12.2764277761
 20
6.120112674
 30
0.0
 10
12.2734372418
 20
6.1186353963
 30
0.0
 10
12.2672635354
 20
6.1157134805
 30
0.0
 10
12.257661337
 20
6.1115140368
 30
0.0
 10
12.2475131589
 20
6.107401202
 30
0.0
 10
12.2368307109
 20
6.1033799922
 30
0.0
 10
12.2256263352
 20
6.099454687
 30
0.0
 10
12.2139128346
 20
6.0956299679
 30
0.0
 10
12.2017035786
 20
6.0919103971
 30
0.0
 10
12.1845157498
 20
6.0870208653
 30
0.0
 10
12.1618854375
 20
6.0812253838
 30
0.0
 10
12.1333941592
 20
6.0748567116
 30
0.0
 10
12.1032941102
 20
6.0690011877
 30
0.0
 10
12.071724104
 20
6.063685846
 30
0.0
 10
12.038829446
 20
6.0589356896
 30
0.0
 10
12.0047617949
 20
6.0547731575
 30
0.0
 10
11.9696783364
 20
6.0512174295
 30
0.0
 10
11.9337410155
 20
6.0482852591
 30
0.0
 10
11.8971157546
 20
6.0459904745
 30
0.0
 10
11.8599717221
 20
6.044343527
 30
0.0
 10
11.8224804982
 20
6.043352291
 30
0.0
 10
11.7848152579
 20
6.0430214344
 30
0.0
 10
11.7471500103
 20
6.0433522743
 30
0.0
 10
11.7096587719
 20
6.0443434943
 30
0.0
 10
11.6725147274
 20
6.045990425
 30
0.0
 10
11.6358894587
 20
6.0482851935
 30
0.0
 10
11.599952124
 20
6.051217347
 30
0.0
 10
11.5648686384
 20
6.0547730604
 30
0.0
 10
11.5308009522
 20
6.0589355779
 30
0.0
 10
11.4979062609
 20
6.0636857209
 30
0.0
 10
11.4663362255
 20
6.0690010468
 30
0.0
 10
11.4362361426
 20
6.0748565564
 30
0.0
 10
11.407744823
 20
6.081225219
 30
0.0
 10
11.385114469
 20
6.0870206871
 30
0.0
 10
11.3679266045
 20
6.0919102094
 30
0.0
 10
11.3557173178
 20
6.0956297787
 30
0.0
 10
11.3440037857
 20
6.099454505
 30
0.0
 10
11.3327993863
 20
6.1033798128
 30
0.0
 10
11.3221169355
 20
6.1074010043
 30
0.0
 10
11.3119687634
 20
6.1115137881
 30
0.0
 10
11.3023665475
 20
6.1157131934
 30
0.0
 10
11.2961928263
 20
6.1186351141
 30
0.0
 10
11.2932022733
 20
6.1201124117
 30
0.0
  0
SPLINE
  5
370
100
AcDbEntity
  8
0
100
AcDbSpline
 62
7
  6
CONTINUOUS
 70
0
 71
3
 72
15
 73
11
 74
0
 42
0.0000001
 43
0.0000001
 44
0.0000000001
 40
0.0
 40
0.0
 40
0.0
 40
0.0
 40
0.1299708166
 40
0.2593283487
 40
0.3876617857
 40
0.5145654289
 40
0.6396384778
 40
0.7624890516
 40
0.8827334041
 40
1.0
 40
1.0
 40
1.0
 40
1.0
 10
11.7695936258
 20
6.5295845285
 30
0.0
 10
11.7591427977
 20
6.5296610609
 30
0.0
 10
11.7382912601
 20
6.5299712049
 30
0.0
 10
11.7071318432
 20
6.5309081742
 30
0.0
 10
11.6762368199
 20
6.5323134805
 30
0.0
 10
11.6457114732
 20
6.5341818654
 30
0.0
 10
11.6156596761
 20
6.5365073986
 30
0.0
 10
11.5861836752
 20
6.5392816127
 30
0.0
 10
11.5573839181
 20
6.5424954177
 30
0.0
 10
11.5384433216
 20
6.5449567437
 30
0.0
 10
11.5291046195
 20
6.5462624977
 30
0.0
  0
SPLINE
  5
371
100
AcDbEntity
  8
0
100
AcDbSpline
 62
7
  6
CONTINUOUS
 70
0
 71
3
 72
10
 73
6
 74
0
 42
0.0000001
 43
0.0000001
 44
0.0000000001
 40
0.0
 40
0.0
 40
0.0
 40
0.0
 40
0.4950633206
 40
0.7463873743
 40
1.0
 40
1.0
 40
1.0
 40
1.0
 10
12.0671270389
 20
6.50936208
 30
0.0
 10
12.051567169
 20
6.5019147807
 30
0.0
 10
12.0284765004
 20
6.4899021548
 30
0.0
 10
11.9982496342
 20
6.4725644433
 30
0.0
 10
11.9832090059
 20
6.4634310049
 30
0.0
 10
11.9757074978
 20
6.4587597778
 30
0.0
  0
SPLINE
  5
372
100
AcDbEntity
  8
0
100
AcDbSpline
 62
7
  6
CONTINUOUS
 70
0
 71
3
 72
21
 73
17
 74
0
 42
0.0000001
 43
0.0000001
 44
0.0000000001
 40
0.0
 40
0.0
 40
0.0
 40
0.0
 40
0.1230212981
 40
0.1847065752
 40
0.2465215318
 40
0.3084771567
 40
0.3705832678
 40
0.432847904
 40
0.4952752623
 40
0.5578663069
 40
0.6206183946
 40
0.6835249868
 40
0.7465773451
 40
0.8097643485
 40
0.8730733734
 40
1.0
 40
1.0
 40
1.0
 40
1.0
 10
11.9217866955
 20
6.0706169095
 30
0.0
 10
11.8987075145
 20
6.0660695533
 30
0.0
 10
11.863875073
 20
6.060097147
 30
0.0
 10
11.817103858
 20
6.0541869996
 30
0.0
 10
11.7817925494
 20
6.0508597856
 30
0.0
 10
11.7463081066
 20
6.048725378
 30
0.0
 10
11.7106833855
 20
6.0478546417
 30
0.0
 10
11.674960174
 20
6.0483035369
 30
0.0
 10
11.6391865523
 20
6.0501055356
 30
0.0
 10
11.6034140261
 20
6.0532688215
 30
0.0
 10
11.5676940862
 20
6.0577777721
 30
0.0
 10
11.5320744728
 20
6.0635920139
 30
0.0
 10
11.4965963333
 20
6.070649728
 30
0.0
 10
11.4612921426
 20
6.0788754177
 30
0.0
 10
11.4144482164
 20
6.0912949697
 30
0.0
 10
11.3796878067
 20
6.1020827641
 30
0.0
 10
11.3566802209
 20
6.1098071766
 30
0.0
  0
SPLINE
  5
373
100
AcDbEntity
  8
0
100
AcDbSpline
 62
7
  6
CONTINUOUS
 70
0
 71
3
 72
21
 73
17
 74
0
 42
0.0000001
 43
0.0000001
 44
0.0000000001
 40
0.0
 40
0.0
 40
0.0
 40
0.0
 40
0.1269266266
 40
0.1902356515
 40
0.253422655
 40
0.3164750132
 40
0.3793816055
 40
0.4421336932
 40
0.5047247377
 40
0.567152096
 40
0.6294167323
 40
0.6915228434
 40
0.7534784683
 40
0.8152934248
 40
0.8769787019
 40
1.0
 40
1.0
 40
1.0
 40
1.0
 10
11.9217866955
 20
6.4550203508
 30
0.0
 10
11.8987791097
 20
6.4627447634
 30
0.0
 10
11.8640187
 20
6.4735325577
 30
0.0
 10
11.8171747739
 20
6.4859521098
 30
0.0
 10
11.7818705831
 20
6.4941777995
 30
0.0
 10
11.7463924436
 20
6.5012355135
 30
0.0
 10
11.7107728302
 20
6.5070497553
 30
0.0
 10
11.6750528903
 20
6.5115587059
 30
0.0
 10
11.6392803641
 20
6.5147219918
 30
0.0
 10
11.6035067424
 20
6.5165239906
 30
0.0
 10
11.5677835309
 20
6.5169728858
 30
0.0
 10
11.5321588098
 20
6.5161021494
 30
0.0
 10
11.496674367
 20
6.5139677418
 30
0.0
 10
11.4613630584
 20
6.5106405278
 30
0.0
 10
11.4145918435
 20
6.5047303804
 30
0.0
 10
11.3797594019
 20
6.4987579741
 30
0.0
 10
11.3566802209
 20
6.4942106179
 30
0.0
  0
SPLINE
  5
374
100
AcDbEntity
  8
0
100
AcDbSpline
 62
7
  6
CONTINUOUS
 70
0
 71
3
 72
11
 73
7
 74
0
 42
0.0000001
 43
0.0000001
 44
0.0000000001
 40
0.0
 40
0.0
 40
0.0
 40
0.0
 40
0.2465919593
 40
0.494712682
 40
0.7454424776
 40
1.0
 40
1.0
 40
1.0
 40
1.0
 10
11.317207443
 20
6.1200234704
 30
0.0
 10
11.3152650301
 20
6.1199686357
 30
0.0
 10
11.3113637204
 20
6.1199759822
 30
0.0
 10
11.3054980292
 20
6.120359504
 30
0.0
 10
11.2996079572
 20
6.1211377864
 30
0.0
 10
11.2957015001
 20
6.1219273342
 30
0.0
 10
11.293750055
 20
6.1223917956
 30
0.0
  0
SPLINE
  5
375
100
AcDbEntity
  8
0
100
AcDbSpline
 62
7
  6
CONTINUOUS
 70
0
 71
3
 72
10
 73
6
 74
0
 42
0.0000001
 43
0.0000001
 44
0.0000000001
 40
0.0
 40
0.0
 40
0.0
 40
0.0
 40
0.2418255986
 40
0.4885199497
 40
1.0
 40
1.0
 40
1.0
 40
1.0
 10
11.293750055
 20
6.1223917956
 30
0.0
 10
11.2921155375
 20
6.1227808253
 30
0.0
 10
11.2888352272
 20
6.1236616859
 30
0.0
 10
11.2822363268
 20
6.1258439912
 30
0.0
 10
11.2773824484
 20
6.1279278075
 30
0.0
 10
11.2741960138
 20
6.1295011619
 30
0.0
  0
SPLINE
  5
376
100
AcDbEntity
  8
0
100
AcDbSpline
 62
7
  6
CONTINUOUS
 70
0
 71
3
 72
11
 73
7
 74
0
 42
0.0000001
 43
0.0000001
 44
0.0000000001
 40
0.0
 40
0.0
 40
0.0
 40
0.0
 40
0.2633952514
 40
0.5183435581
 40
0.764111363
 40
1.0
 40
1.0
 40
1.0
 40
1.0
 10
11.317207443
 20
6.5044269117
 30
0.0
 10
11.3144909565
 20
6.5097514385
 30
0.0
 10
11.3090541588
 20
6.5201837483
 30
0.0
 10
11.3007279916
 20
6.5353962342
 30
0.0
 10
11.2923575312
 20
6.5498678773
 30
0.0
 10
11.2866260542
 20
6.5591776171
 30
0.0
 10
11.2837455337
 20
6.5636897717
 30
0.0
  0
LINE
  5
377
100
AcDbEntity
  8
0
100
AcDbLine
 62
7
  6
CONTINUOUS
 10
12.2761075525
 20
6.1207836726
 11
12.2753784385
 21
6.120463785
  0
SPLINE
  5
378
100
AcDbEntity
  8
0
100
AcDbSpline
 62
7
  6
CONTINUOUS
 70
0
 71
3
 72
15
 73
11
 74
0
 42
0.0000001
 43
0.0000001
 44
0.0000000001
 40
0.0
 40
0.0
 40
0.0
 40
0.0
 40
0.1321602046
 40
0.2618009952
 40
0.3890353631
 40
0.5141096583
 40
0.6373677171
 40
0.75919507
 40
0.8799649792
 40
1.0
 40
1.0
 40
1.0
 40
1.0
 10
12.2753784385
 20
6.120463785
 30
0.0
 10
12.2629973351
 20
6.1150400428
 30
0.0
 10
12.2381565712
 20
6.1049930537
 30
0.0
 10
12.2003625081
 20
6.0924596163
 30
0.0
 10
12.1624917387
 20
6.0827423268
 30
0.0
 10
12.124665363
 20
6.0758738226
 30
0.0
 10
12.0869979771
 20
6.0717739941
 30
0.0
 10
12.0495823951
 20
6.0702673062
 30
0.0
 10
12.0124815585
 20
6.0711141539
 30
0.0
 10
11.9879171391
 20
6.0730735039
 30
0.0
 10
11.9757074978
 20
6.0743563364
 30
0.0
  0
SPLINE
  5
379
100
AcDbEntity
  8
0
100
AcDbSpline
 62
7
  6
CONTINUOUS
 70
0
 71
3
 72
91
 73
87
 74
0
 42
0.0000001
 43
0.0000001
 44
0.0000000001
 40
0.0
 40
0.0
 40
0.0
 40
0.0
 40
0.0039801824
 40
0.0081241125
 40
0.0124359604
 40
0.0169193082
 40
0.0215771808
 40
0.0264119179
 40
0.0314251804
 40
0.036618156
 40
0.0419915391
 40
0.0475456573
 40
0.0532804234
 40
0.0591954189
 40
0.0652899227
 40
0.0715629017
 40
0.0780131034
 40
0.0846389837
 40
0.0984102885
 40
0.1128608532
 40
0.1279713725
 40
0.1437199568
 40
0.1600824082
 40
0.1770324532
 40
0.1945419392
 40
0.2125810061
 40
0.2311182422
 40
0.2501208275
 40
0.2695546626
 40
0.2893844909
 40
0.3095740146
 40
0.330086005
 40
0.35088241
 40
0.3719244606
 40
0.3931727759
 40
0.4145874652
 40
0.4361282289
 40
0.4577544586
 40
0.4794253371
 40
0.501099938
 40
0.5227373261
 40
0.5442966575
 40
0.5657372785
 40
0.5870188258
 40
0.6081013261
 40
0.6289452975
 40
0.6495118524
 40
0.6697628021
 40
0.6896607608
 40
0.7091692527
 40
0.7282528228
 40
0.7468771515
 40
0.7650091753
 40
0.7826172172
 40
0.7996711268
 40
0.8161424293
 40
0.8320044948
 40
0.8472327309
 40
0.8618048077
 40
0.8757009255
 40
0.8889041429
 40
0.8952417292
 40
0.9014012652
 40
0.9073816417
 40
0.9131820083
 40
0.9188018518
 40
0.9242409423
 40
0.9294994633
 40
0.9345779585
 40
0.9394774438
 40
0.944199427
 40
0.9487459568
 40
0.95311974
 40
0.9573241405
 40
0.9613633601
 40
0.9652424499
 40
0.9689674846
 40
0.9725456466
 40
0.9759853437
 40
0.9824865016
 40
0.9855753543
 40
0.9885738189
 40
0.9914977372
 40
0.9943643366
 40
0.9971920099
 40
1.0
 40
1.0
 40
1.0
 40
1.0
 10
11.3327614669
 20
10.6246801667
 30
0.0
 10
11.331460235
 20
10.6234232732
 30
0.0
 10
11.3287451456
 20
10.6209183757
 30
0.0
 10
11.3244344186
 20
10.6172597843
 30
0.0
 10
11.3198071389
 20
10.6136274365
 30
0.0
 10
11.314865845
 20
10.6100232608
 30
0.0
 10
11.3096129459
 20
10.6064489405
 30
0.0
 10
11.3040510155
 20
10.6029062145
 30
0.0
 10
11.2981828355
 20
10.5993967815
 30
0.0
 10
11.2920113174
 20
10.5959224626
 30
0.0
 10
11.2855395778
 20
10.5924849255
 30
0.0
 10
11.2787708338
 20
10.5890859387
 30
0.0
 10
11.2717084888
 20
10.5857271739
 30
0.0
 10
11.2643560854
 20
10.5824103285
 30
0.0
 10
11.2567173144
 20
10.5791370929
 30
0.0
 10
11.2487960313
 20
10.5759090842
 30
0.0
 10
11.2405962023
 20
10.5727279621
 30
0.0
 10
11.22914969
 20
10.5684966221
 30
0.0
 10
11.2141679895
 20
10.5633469993
 30
0.0
 10
11.1953711488
 20
10.5574561414
 30
0.0
 10
11.1755691923
 20
10.5517891585
 30
0.0
 10
11.1548020923
 20
10.546357578
 30
0.0
 10
11.1331116198
 20
10.5411724639
 30
0.0
 10
11.1105415167
 20
10.5362443788
 30
0.0
 10
11.087137323
 20
10.531583364
 30
0.0
 10
11.0629463005
 20
10.5271989121
 30
0.0
 10
11.0380173241
 20
10.5230999511
 30
0.0
 10
11.0124007783
 20
10.519294826
 30
0.0
 10
10.9861484514
 20
10.5157912825
 30
0.0
 10
10.9593134282
 20
10.5125964509
 30
0.0
 10
10.9319499812
 20
10.5097168325
 30
0.0
 10
10.9041134599
 20
10.5071582872
 30
0.0
 10
10.8758601784
 20
10.5049260182
 30
0.0
 10
10.8472472988
 20
10.5030245639
 30
0.0
 10
10.8183327144
 20
10.5014577901
 30
0.0
 10
10.789174931
 20
10.500228882
 30
0.0
 10
10.7598329482
 20
10.4993403384
 30
0.0
 10
10.7303661405
 20
10.4987939664
 30
0.0
 10
10.7008341362
 20
10.4985908782
 30
0.0
 10
10.6712966968
 20
10.4987314864
 30
0.0
 10
10.6418135943
 20
10.4992155038
 30
0.0
 10
10.61244449
 20
10.5000419456
 30
0.0
 10
10.583248813
 20
10.5012091317
 30
0.0
 10
10.5542856406
 20
10.5027146893
 30
0.0
 10
10.5256135781
 20
10.5045555582
 30
0.0
 10
10.4972906393
 20
10.5067279966
 30
0.0
 10
10.4693741277
 20
10.5092275871
 30
0.0
 10
10.4419205187
 20
10.5120492438
 30
0.0
 10
10.4149853449
 20
10.5151872263
 30
0.0
 10
10.3886230835
 20
10.5186351496
 30
0.0
 10
10.3628870443
 20
10.5223859972
 30
0.0
 10
10.3378292608
 20
10.5264321348
 30
0.0
 10
10.3135003816
 20
10.5307653261
 30
0.0
 10
10.2899495632
 20
10.5353767473
 30
0.0
 10
10.2672243643
 20
10.5402570042
 30
0.0
 10
10.2453706486
 20
10.5453961543
 30
0.0
 10
10.2244324783
 20
10.5507837286
 30
0.0
 10
10.2044520426
 20
10.5564087539
 30
0.0
 10
10.1854694722
 20
10.5622597813
 30
0.0
 10
10.1675230508
 20
10.5683249129
 30
0.0
 10
10.1532729097
 20
10.5736170477
 30
0.0
 10
10.142427083
 20
10.5779578996
 30
0.0
 10
10.1346851197
 20
10.581214902
 30
0.0
 10
10.1272281432
 20
10.5845160673
 30
0.0
 10
10.1200599037
 20
10.5878597948
 30
0.0
 10
10.1131839874
 20
10.5912443405
 30
0.0
 10
10.1066038633
 20
10.5946680684
 30
0.0
 10
10.1003228069
 20
10.5981292046
 30
0.0
 10
10.0943439745
 20
10.6016260645
 30
0.0
 10
10.0886703448
 20
10.6051568918
 30
0.0
 10
10.0833047388
 20
10.6087199314
 30
0.0
 10
10.0782498481
 20
10.6123134733
 30
0.0
 10
10.0735081517
 20
10.6159357079
 30
0.0
 10
10.0690820498
 20
10.6195849647
 30
0.0
 10
10.0649737102
 20
10.6232594291
 30
0.0
 10
10.0611852045
 20
10.6269574641
 30
0.0
 10
10.0577185198
 20
10.6306772074
 30
0.0
 10
10.0545751524
 20
10.6344174057
 30
0.0
 10
10.0508876857
 20
10.6393353352
 30
0.0
 10
10.0477564261
 20
10.6443858233
 30
0.0
 10
10.0452703421
 20
10.649544152
 30
0.0
 10
10.0437682613
 20
10.6533591211
 30
0.0
 10
10.0425985362
 20
10.6571833726
 30
0.0
 10
10.041762126
 20
10.661015049
 30
0.0
 10
10.0412599549
 20
10.6648514186
 30
0.0
 10
10.0411481612
 20
10.667414414
 30
0.0
 10
10.0411481614
 20
10.6686907489
 30
0.0
  0
SPLINE
  5
37A
100
AcDbEntity
  8
0
100
AcDbSpline
 62
7
  6
CONTINUOUS
 70
0
 71
3
 72
21
 73
17
 74
0
 42
0.0000001
 43
0.0000001
 44
0.0000000001
 40
0.0
 40
0.0
 40
0.0
 40
0.0
 40
0.1273175725
 40
0.2538000026
 40
0.3167619332
 40
0.3795354925
 40
0.4421314982
 40
0.5045621433
 40
0.5668413429
 40
0.6289845306
 40
0.6910084612
 40
0.7529311022
 40
0.8147714553
 40
0.8765493457
 40
0.9382852283
 40
1.0
 40
1.0
 40
1.0
 40
1.0
 10
11.5530295473
 20
10.0462206006
 30
0.0
 10
11.5530295473
 20
10.0397222743
 30
0.0
 10
11.5524092399
 20
10.0267598838
 30
0.0
 10
11.5500665607
 20
10.010735567
 30
0.0
 10
11.5472665211
 20
9.9981658876
 30
0.0
 10
11.5447130337
 20
9.988894491
 30
0.0
 10
11.5417090478
 20
9.9797878217
 30
0.0
 10
11.5382614124
 20
9.9708666426
 30
0.0
 10
11.534378108
 20
9.9621515801
 30
0.0
 10
11.5300680656
 20
9.9536627163
 30
0.0
 10
11.5253411718
 20
9.9454196605
 30
0.0
 10
11.520208343
 20
9.9374414072
 30
0.0
 10
11.5146814352
 20
9.9297463695
 30
0.0
 10
11.5087730949
 20
9.9223522597
 30
0.0
 10
11.5024971779
 20
9.9152763731
 30
0.0
 10
11.4980770277
 20
9.9107812868
 30
0.0
 10
11.4958114247
 20
9.9085928706
 30
0.0
  0
SPLINE
  5
37B
100
AcDbEntity
  8
0
100
AcDbSpline
 62
7
  6
CONTINUOUS
 70
0
 71
3
 72
21
 73
17
 74
0
 42
0.0000001
 43
0.0000001
 44
0.0000000001
 40
0.0
 40
0.0
 40
0.0
 40
0.0
 40
0.1273175725
 40
0.2538000026
 40
0.3167619332
 40
0.3795354925
 40
0.4421314982
 40
0.5045621433
 40
0.5668413429
 40
0.6289845306
 40
0.6910084612
 40
0.7529311022
 40
0.8147714553
 40
0.8765493457
 40
0.9382852283
 40
1.0
 40
1.0
 40
1.0
 40
1.0
 10
10.4663629283
 20
6.9823220651
 30
0.0
 10
10.4663629283
 20
6.9758237388
 30
0.0
 10
10.4657426209
 20
6.9628613483
 30
0.0
 10
10.4633999418
 20
6.9468370315
 30
0.0
 10
10.4605999021
 20
6.9342673522
 30
0.0
 10
10.4580464147
 20
6.9249959556
 30
0.0
 10
10.4550424288
 20
6.9158892863
 30
0.0
 10
10.4515947935
 20
6.9069681071
 30
0.0
 10
10.447711489
 20
6.8982530446
 30
0.0
 10
10.4434014467
 20
6.8897641809
 30
0.0
 10
10.4386745529
 20
6.881521125
 30
0.0
 10
10.4335417241
 20
6.8735428718
 30
0.0
 10
10.4280148163
 20
6.865847834
 30
0.0
 10
10.422106476
 20
6.8584537242
 30
0.0
 10
10.4158305589
 20
6.8513778376
 30
0.0
 10
10.4114104087
 20
6.8468827514
 30
0.0
 10
10.4091448058
 20
6.8446943351
 30
0.0
  0
SPLINE
  5
37C
100
AcDbEntity
  8
0
100
AcDbSpline
 62
7
  6
CONTINUOUS
 70
0
 71
3
 72
34
 73
30
 74
0
 42
0.0000001
 43
0.0000001
 44
0.0000000001
 40
0.0
 40
0.0
 40
0.0
 40
0.0
 40
0.0308961988
 40
0.0616558314
 40
0.0923063167
 40
0.12288079
 40
0.1534114819
 40
0.1839320328
 40
0.2144762521
 40
0.2450775527
 40
0.2757685542
 40
0.3065811646
 40
0.3686776711
 40
0.4316088833
 40
0.4955533472
 40
0.560597914
 40
0.5935190815
 40
0.6266591201
 40
0.6599554349
 40
0.6933162033
 40
0.7266187022
 40
0.7597122628
 40
0.7924276372
 40
0.8245927179
 40
0.8560513599
 40
0.8866805238
 40
0.9164015596
 40
0.9451833953
 40
1.0
 40
1.0
 40
1.0
 40
1.0
 10
10.4336725113
 20
7.7126765952
 30
0.0
 10
10.4349630894
 20
7.709502802
 30
0.0
 10
10.4377370202
 20
7.7032479364
 30
0.0
 10
10.4424561409
 20
7.6941578509
 30
0.0
 10
10.4476941269
 20
7.6853979703
 30
0.0
 10
10.4534207933
 20
7.6769806902
 30
0.0
 10
10.4596073275
 20
7.6689139314
 30
0.0
 10
10.4662258815
 20
7.6612025633
 30
0.0
 10
10.4732503898
 20
7.6538486842
 30
0.0
 10
10.4806566201
 20
7.6468523684
 30
0.0
 10
10.4884225533
 20
7.6402118986
 30
0.0
 10
10.4992559019
 20
7.6318083415
 30
0.0
 10
10.5136297573
 20
7.6221696342
 30
0.0
 10
10.5319842138
 20
7.6120105449
 30
0.0
 10
10.5513800755
 20
7.603200311
 30
0.0
 10
10.5682473063
 20
7.5969984276
 30
0.0
 10
10.5821385561
 20
7.5927005453
 30
0.0
 10
10.5927719251
 20
7.5898061538
 30
0.0
 10
10.6035441258
 20
7.5872609693
 30
0.0
 10
10.6144130812
 20
7.5850737745
 30
0.0
 10
10.6253268629
 20
7.5832546111
 30
0.0
 10
10.6362248583
 20
7.5818137364
 30
0.0
 10
10.6470404764
 20
7.5807604275
 30
0.0
 10
10.6577057505
 20
7.5801017717
 30
0.0
 10
10.6681569595
 20
7.5798418223
 30
0.0
 10
10.6783394598
 20
7.5799812928
 30
0.0
 10
10.688212229
 20
7.5805181172
 30
0.0
 10
10.7007213335
 20
7.5817379913
 30
0.0
 10
10.7098855124
 20
7.5832554979
 30
0.0
 10
10.7158230754
 20
7.5845580212
 30
0.0
  0
SPLINE
  5
37D
100
AcDbEntity
  8
0
100
AcDbSpline
 62
7
  6
CONTINUOUS
 70
0
 71
3
 72
11
 73
7
 74
0
 42
0.0000001
 43
0.0000001
 44
0.0000000001
 40
0.0
 40
0.0
 40
0.0
 40
0.0
 40
0.2520891022
 40
0.5029097225
 40
0.7522674442
 40
1.0
 40
1.0
 40
1.0
 40
1.0
 10
10.4278096958
 20
7.8209234755
 30
0.0
 10
10.4267933562
 20
7.8171264455
 30
0.0
 10
10.4249999992
 20
7.8094863975
 30
0.0
 10
10.4230528722
 20
7.7979113507
 30
0.0
 10
10.4218746774
 20
7.7863009787
 30
0.0
 10
10.4216097083
 20
7.7785476566
 30
0.0
 10
10.4216097083
 20
7.7746848886
 30
0.0
  0
SPLINE
  5
37E
100
AcDbEntity
  8
0
100
AcDbSpline
 62
7
  6
CONTINUOUS
 70
0
 71
3
 72
21
 73
17
 74
0
 42
0.0000001
 43
0.0000001
 44
0.0000000001
 40
0.0
 40
0.0
 40
0.0
 40
0.0
 40
0.1273176368
 40
0.2537999758
 40
0.3167619477
 40
0.3795355043
 40
0.4421314993
 40
0.504562144
 40
0.5668413432
 40
0.6289845282
 40
0.6910084527
 40
0.7529310934
 40
0.8147714494
 40
0.8765493364
 40
0.9382852193
 40
1.0
 40
1.0
 40
1.0
 40
1.0
 10
10.7257028986
 20
7.646416372
 30
0.0
 10
10.7257028986
 20
7.6399180007
 30
0.0
 10
10.7250825861
 20
7.6269555277
 30
0.0
 10
10.7227398671
 20
7.6109311106
 30
0.0
 10
10.719939797
 20
7.5983613562
 30
0.0
 10
10.7173862836
 20
7.5890899009
 30
0.0
 10
10.7143822468
 20
7.579983184
 30
0.0
 10
10.71093457
 20
7.571061956
 30
0.0
 10
10.7070512276
 20
7.5623468432
 30
0.0
 10
10.7027411206
 20
7.5538579439
 30
0.0
 10
10.6980141633
 20
7.5456148549
 30
0.0
 10
10.6928812846
 20
7.5376365616
 30
0.0
 10
10.6873543071
 20
7.5299414982
 30
0.0
 10
10.6814458797
 20
7.5225473807
 30
0.0
 10
10.6751699057
 20
7.5154714627
 30
0.0
 10
10.6707496961
 20
7.5109763775
 30
0.0
 10
10.6684840723
 20
7.508787953
 30
0.0
  0
SPLINE
  5
37F
100
AcDbEntity
  8
0
100
AcDbSpline
 62
7
  6
CONTINUOUS
 70
0
 71
3
 72
40
 73
36
 74
0
 42
0.0000001
 43
0.0000001
 44
0.0000000001
 40
0.0
 40
0.0
 40
0.0
 40
0.0
 40
0.0310751297
 40
0.046674719
 40
0.0623128023
 40
0.0936978569
 40
0.1252268442
 40
0.1568884391
 40
0.1886684324
 40
0.2205502263
 40
0.2525151435
 40
0.2845428352
 40
0.3166116956
 40
0.348699299
 40
0.3807828474
 40
0.4128396233
 40
0.4448474412
 40
0.4767850923
 40
0.5086327748
 40
0.5403725043
 40
0.571988497
 40
0.6034675183
 40
0.6347991897
 40
0.665976246
 40
0.6969947359
 40
0.7278541571
 40
0.7585575208
 40
0.7891113379
 40
0.8195255236
 40
0.8498132176
 40
0.8799905191
 40
0.9100761418
 40
0.9400909923
 40
0.9700576842
 40
1.0
 40
1.0
 40
1.0
 40
1.0
 10
10.7257028986
 20
7.646416372
 30
0.0
 10
10.7257028986
 20
7.6514672289
 30
0.0
 10
10.7254205669
 20
7.6590574082
 30
0.0
 10
10.7244881317
 20
7.6691441202
 30
0.0
 10
10.7231816031
 20
7.679240491
 30
0.0
 10
10.7208525596
 20
7.6918061803
 30
0.0
 10
10.7169677203
 20
7.7066925193
 30
0.0
 10
10.712010755
 20
7.7213250052
 30
0.0
 10
10.706009043
 20
7.7356228389
 30
0.0
 10
10.6989956299
 20
7.7495076877
 30
0.0
 10
10.691009099
 20
7.7629033267
 30
0.0
 10
10.6820933509
 20
7.7757362646
 30
0.0
 10
10.6722973646
 20
7.7879360832
 30
0.0
 10
10.6616749309
 20
7.7994358361
 30
0.0
 10
10.6502843596
 20
7.8101724067
 30
0.0
 10
10.6381881623
 20
7.8200868533
 30
0.0
 10
10.6254527136
 20
7.8291247282
 30
0.0
 10
10.6121478903
 20
7.8372363749
 30
0.0
 10
10.5983466933
 20
7.8443771982
 30
0.0
 10
10.5841248515
 20
7.8505079085
 30
0.0
 10
10.5695604124
 20
7.8555947376
 30
0.0
 10
10.5547333193
 20
7.8596096246
 30
0.0
 10
10.5397249786
 20
7.8625303717
 30
0.0
 10
10.524617819
 20
7.8643407698
 30
0.0
 10
10.5094948455
 20
7.8650306927
 30
0.0
 10
10.4944391877
 20
7.8645961598
 30
0.0
 10
10.4795336481
 20
7.8630393664
 30
0.0
 10
10.4648602486
 20
7.860368682
 30
0.0
 10
10.4504997784
 20
7.8565986134
 30
0.0
 10
10.4365313534
 20
7.8517497437
 30
0.0
 10
10.4230319478
 20
7.8458486029
 30
0.0
 10
10.4100760635
 20
7.8389276292
 30
0.0
 10
10.3977349312
 20
7.8310246335
 30
0.0
 10
10.3860775079
 20
7.8221839492
 30
0.0
 10
10.378801422
 20
7.81569453
 30
0.0
 10
10.375301002
 20
7.8123133841
 30
0.0
  0
SPLINE
  5
380
100
AcDbEntity
  8
0
100
AcDbSpline
 62
7
  6
CONTINUOUS
 70
0
 71
3
 72
18
 73
14
 74
0
 42
0.0000001
 43
0.0000001
 44
0.0000000001
 40
0.0
 40
0.0
 40
0.0
 40
0.0
 40
0.0548620589
 40
0.1099280789
 40
0.165399508
 40
0.2214731255
 40
0.2783387361
 40
0.3361775086
 40
0.4554063416
 40
0.5804417492
 40
0.7123343341
 40
0.8519577333
 40
1.0
 40
1.0
 40
1.0
 40
1.0
 10
11.3551481614
 20
10.668690749
 30
0.0
 10
11.3551481613
 20
10.6677628817
 30
0.0
 10
11.3550892591
 20
10.6659031647
 30
0.0
 10
11.3548244565
 20
10.6631166149
 30
0.0
 10
11.3543832695
 20
10.6603316708
 30
0.0
 10
11.3537658437
 20
10.6575493497
 30
0.0
 10
11.3529724184
 20
10.6547703539
 30
0.0
 10
11.3516674113
 20
10.6510333496
 30
0.0
 10
11.3495768121
 20
10.6463593577
 30
0.0
 10
11.3463947897
 20
10.6408393554
 30
0.0
 10
11.3425192589
 20
10.6353550827
 30
0.0
 10
11.3379561161
 20
10.6299120438
 30
0.0
 10
11.3345623359
 20
10.6264196728
 30
0.0
 10
11.3327614669
 20
10.6246801667
 30
0.0
  0
SPLINE
  5
381
100
AcDbEntity
  8
0
100
AcDbSpline
 62
7
  6
CONTINUOUS
 70
0
 71
3
 72
9
 73
5
 74
0
 42
0.0000001
 43
0.0000001
 44
0.0000000001
 40
0.0
 40
0.0
 40
0.0
 40
0.0
 40
0.4907600327
 40
1.0
 40
1.0
 40
1.0
 40
1.0
 10
10.4364817845
 20
7.8514873513
 30
0.0
 10
10.4346235573
 20
7.8466285441
 30
0.0
 10
10.4312948674
 20
7.8365480915
 30
0.0
 10
10.4288460334
 20
7.8262209651
 30
0.0
 10
10.4278096958
 20
7.8209234755
 30
0.0
  0
SPLINE
  5
382
100
AcDbEntity
  8
0
100
AcDbSpline
 62
7
  6
CONTINUOUS
 70
0
 71
3
 72
41
 73
37
 74
0
 42
0.0000001
 43
0.0000001
 44
0.0000000001
 40
0.0
 40
0.0
 40
0.0
 40
0.0
 40
0.0299421722
 40
0.0599087187
 40
0.0899234222
 40
0.1200088965
 40
0.1501860486
 40
0.1804735921
 40
0.2108876267
 40
0.2414412921
 40
0.2721445039
 40
0.3030037728
 40
0.3340221097
 40
0.3651990124
 40
0.3965305293
 40
0.4280093954
 40
0.4596252325
 40
0.4913648061
 40
0.523212333
 40
0.5551498293
 40
0.5871574933
 40
0.6192141165
 40
0.6512975132
 40
0.6833849656
 40
0.7154536753
 40
0.7314763803
 40
0.7474860474
 40
0.7794508144
 40
0.8113324582
 40
0.8431123019
 40
0.8747737477
 40
0.9063025846
 40
0.9376874998
 40
0.9533255315
 40
0.9689249968
 40
1.0
 40
1.0
 40
1.0
 40
1.0
 10
11.202626947
 20
10.2121169238
 30
0.0
 10
11.2061273649
 20
10.2154980862
 30
0.0
 10
11.2134034202
 20
10.2219875683
 30
0.0
 10
11.2250608267
 20
10.2308283247
 30
0.0
 10
11.2374019421
 20
10.2387313994
 30
0.0
 10
11.2503578173
 20
10.2456524502
 30
0.0
 10
11.26385722
 20
10.2515536676
 30
0.0
 10
11.2778256489
 20
10.2564026116
 30
0.0
 10
11.2921861295
 20
10.2601727509
 30
0.0
 10
11.3068595458
 20
10.2628435011
 30
0.0
 10
11.3217651081
 20
10.2644003536
 30
0.0
 10
11.3368207933
 20
10.2648349377
 30
0.0
 10
11.351943798
 20
10.2641450594
 30
0.0
 10
11.3670509917
 20
10.2623347004
 30
0.0
 10
11.3820593691
 20
10.2594139876
 30
0.0
 10
11.396886501
 20
10.2553991309
 30
0.0
 10
11.411450981
 20
10.2503123285
 30
0.0
 10
11.4256728657
 20
10.2441816418
 30
0.0
 10
11.4394741079
 20
10.2370408385
 30
0.0
 10
11.4527789767
 20
10.2289292092
 30
0.0
 10
11.4655144756
 20
10.2198913405
 30
0.0
 10
11.4776107069
 20
10.209976916
 30
0.0
 10
11.4890013671
 20
10.1992402785
 30
0.0
 10
11.4996236714
 20
10.1877407573
 30
0.0
 10
11.5077901757
 20
10.1775702129
 30
0.0
 10
11.513883151
 20
10.1691164483
 30
0.0
 10
11.5196695583
 20
10.1604702957
 30
0.0
 10
11.5263222995
 20
10.1493119296
 30
0.0
 10
11.5333355749
 20
10.1354272967
 30
0.0
 10
11.5393373541
 20
10.1211293727
 30
0.0
 10
11.5442943272
 20
10.106496876
 30
0.0
 10
11.5481791876
 20
10.0916105018
 30
0.0
 10
11.5505082389
 20
10.0790447827
 30
0.0
 10
11.5518147761
 20
10.0689483941
 30
0.0
 10
11.5527472146
 20
10.0588616621
 30
0.0
 10
11.5530295473
 20
10.0512714715
 30
0.0
 10
11.5530295473
 20
10.0462206006
 30
0.0
  0
SPLINE
  5
383
100
AcDbEntity
  8
0
100
AcDbSpline
 62
7
  6
CONTINUOUS
 70
0
 71
3
 72
41
 73
37
 74
0
 42
0.0000001
 43
0.0000001
 44
0.0000000001
 40
0.0
 40
0.0
 40
0.0
 40
0.0
 40
0.0299421722
 40
0.0599087187
 40
0.0899234222
 40
0.1200088965
 40
0.1501860486
 40
0.1804735921
 40
0.2108876267
 40
0.2414412921
 40
0.2721445039
 40
0.3030037728
 40
0.3340221097
 40
0.3651990124
 40
0.3965305293
 40
0.4280093954
 40
0.4596252325
 40
0.4913648061
 40
0.523212333
 40
0.5551498293
 40
0.5871574933
 40
0.6192141165
 40
0.6512975132
 40
0.6833849656
 40
0.7154536753
 40
0.7314763803
 40
0.7474860474
 40
0.7794508144
 40
0.8113324582
 40
0.8431123019
 40
0.8747737477
 40
0.9063025846
 40
0.9376874998
 40
0.9533255315
 40
0.9689249968
 40
1.0
 40
1.0
 40
1.0
 40
1.0
 10
10.115960328
 20
7.1482183883
 30
0.0
 10
10.1194607459
 20
7.1515995507
 30
0.0
 10
10.1267368012
 20
7.1580890328
 30
0.0
 10
10.1383942077
 20
7.1669297892
 30
0.0
 10
10.1507353231
 20
7.174832864
 30
0.0
 10
10.1636911984
 20
7.1817539148
 30
0.0
 10
10.177190601
 20
7.1876551322
 30
0.0
 10
10.1911590299
 20
7.1925040761
 30
0.0
 10
10.2055195106
 20
7.1962742154
 30
0.0
 10
10.2201929268
 20
7.1989449656
 30
0.0
 10
10.2350984891
 20
7.2005018181
 30
0.0
 10
10.2501541743
 20
7.2009364022
 30
0.0
 10
10.2652771791
 20
7.200246524
 30
0.0
 10
10.2803843728
 20
7.1984361649
 30
0.0
 10
10.2953927501
 20
7.1955154521
 30
0.0
 10
10.310219882
 20
7.1915005954
 30
0.0
 10
10.324784362
 20
7.186413793
 30
0.0
 10
10.3390062467
 20
7.1802831063
 30
0.0
 10
10.352807489
 20
7.173142303
 30
0.0
 10
10.3661123578
 20
7.1650306737
 30
0.0
 10
10.3788478567
 20
7.1559928051
 30
0.0
 10
10.390944088
 20
7.1460783805
 30
0.0
 10
10.4023347481
 20
7.135341743
 30
0.0
 10
10.4129570524
 20
7.1238422218
 30
0.0
 10
10.4211235568
 20
7.1136716774
 30
0.0
 10
10.4272165321
 20
7.1052179128
 30
0.0
 10
10.4330029394
 20
7.0965717603
 30
0.0
 10
10.4396556805
 20
7.0854133941
 30
0.0
 10
10.4466689559
 20
7.0715287613
 30
0.0
 10
10.4526707351
 20
7.0572308372
 30
0.0
 10
10.4576277083
 20
7.0425983405
 30
0.0
 10
10.4615125686
 20
7.0277119664
 30
0.0
 10
10.4638416199
 20
7.0151462472
 30
0.0
 10
10.4651481571
 20
7.0050498587
 30
0.0
 10
10.4660805956
 20
6.9949631266
 30
0.0
 10
10.4663629283
 20
6.987372936
 30
0.0
 10
10.4663629283
 20
6.9823220651
 30
0.0
  0
SPLINE
  5
384
100
AcDbEntity
  8
0
100
AcDbSpline
 62
7
  6
CONTINUOUS
 70
0
 71
3
 72
59
 73
55
 74
0
 42
0.0000001
 43
0.0000001
 44
0.0000000001
 40
0.0
 40
0.0
 40
0.0
 40
0.0
 40
0.0075208311
 40
0.0156241766
 40
0.0243311007
 40
0.0336549386
 40
0.0436028077
 40
0.0541768317
 40
0.0653749453
 40
0.0771915599
 40
0.08961816
 40
0.10264364
 40
0.1162546046
 40
0.1304357049
 40
0.1451697937
 40
0.1604380695
 40
0.1762203028
 40
0.1924949219
 40
0.2092390877
 40
0.2264288677
 40
0.2440392968
 40
0.2620444227
 40
0.2991300734
 40
0.337463055
 40
0.3768093382
 40
0.4169265582
 40
0.4575661491
 40
0.4984753803
 40
0.5393993789
 40
0.5800831581
 40
0.6202736296
 40
0.6597216473
 40
0.6981840261
 40
0.7354256484
 40
0.7535183302
 40
0.7712224299
 40
0.7885118037
 40
0.8053612647
 40
0.8217466086
 40
0.8376447426
 40
0.8530338123
 40
0.8678932395
 40
0.8822038834
 40
0.8959482262
 40
0.9091104572
 40
0.9216767058
 40
0.9336353451
 40
0.9449771968
 40
0.955695942
 40
0.9657887114
 40
0.9752565152
 40
0.9841051685
 40
0.9923468893
 40
1.0
 40
1.0
 40
1.0
 40
1.0
 10
12.7048087988
 20
8.681808136
 30
0.0
 10
12.7037064522
 20
8.6831635385
 30
0.0
 10
12.7015344906
 20
8.6860765855
 30
0.0
 10
12.6984779655
 20
8.6908351988
 30
0.0
 10
12.6955087153
 20
8.6961341827
 30
0.0
 10
12.6926314469
 20
8.7019648502
 30
0.0
 10
12.6898504924
 20
8.7083181245
 30
0.0
 10
12.6871703449
 20
8.71518383
 30
0.0
 10
12.68459536
 20
8.7225508975
 30
0.0
 10
12.6821297648
 20
8.7304073362
 30
0.0
 10
12.6797776714
 20
8.7387403047
 30
0.0
 10
12.677543009
 20
8.7475361182
 30
0.0
 10
12.6754294969
 20
8.7567802821
 30
0.0
 10
12.6734406906
 20
8.7664575385
 30
0.0
 10
12.6715799337
 20
8.7765518858
 30
0.0
 10
12.66985033
 20
8.7870466071
 30
0.0
 10
12.6682547924
 20
8.7979243126
 30
0.0
 10
12.6667960098
 20
8.809166965
 30
0.0
 10
12.6654764113
 20
8.8207559088
 30
0.0
 10
12.664298225
 20
8.8326719043
 30
0.0
 10
12.6632634179
 20
8.8448951861
 30
0.0
 10
12.662065453
 20
8.8617414575
 30
0.0
 10
12.6609485346
 20
8.8834173819
 30
0.0
 10
12.6602133932
 20
8.9100692762
 30
0.0
 10
12.6600759766
 20
8.9374351261
 30
0.0
 10
12.6605373544
 20
8.9653331736
 30
0.0
 10
12.661594641
 20
8.9935782555
 30
0.0
 10
12.6632409177
 20
9.0219828238
 30
0.0
 10
12.6654652693
 20
9.0503582724
 30
0.0
 10
12.6682529068
 20
9.0785161892
 30
0.0
 10
12.6715852475
 20
9.1062696141
 30
0.0
 10
12.6754399937
 20
9.1334343634
 30
0.0
 10
12.6797913858
 20
9.1598300314
 30
0.0
 10
12.6838450442
 20
9.1812409563
 30
0.0
 10
12.6873228753
 20
9.1978478345
 30
0.0
 10
12.6900113422
 20
9.2098834546
 30
0.0
 10
12.6928004575
 20
9.2215994894
 30
0.0
 10
12.6956855786
 20
9.2329765066
 30
0.0
 10
12.6986618969
 20
9.2439956167
 30
0.0
 10
12.7017244532
 20
9.2546385383
 30
0.0
 10
12.7048681198
 20
9.264887629
 30
0.0
 10
12.7080876599
 20
9.2747259028
 30
0.0
 10
12.7113777106
 20
9.2841370695
 30
0.0
 10
12.714732765
 20
9.2931055745
 30
0.0
 10
12.718147238
 20
9.3016166093
 30
0.0
 10
12.7216154587
 20
9.3096561479
 30
0.0
 10
12.7251316456
 20
9.3172109939
 30
0.0
 10
12.7286899843
 20
9.324268785
 30
0.0
 10
12.7322846349
 20
9.3308180282
 30
0.0
 10
12.7359097343
 20
9.3368481522
 30
0.0
 10
12.7395594181
 20
9.3423494612
 30
0.0
 10
12.7432281288
 20
9.3473134101
 30
0.0
 10
12.7469099535
 20
9.3517317401
 30
0.0
 10
12.7494619681
 20
9.3544056442
 30
0.0
 10
12.7507406639
 20
9.3556407696
 30
0.0
  0
SPLINE
  5
385
100
AcDbEntity
  8
0
100
AcDbSpline
 62
7
  6
CONTINUOUS
 70
0
 71
3
 72
41
 73
37
 74
0
 42
0.0000001
 43
0.0000001
 44
0.0000000001
 40
0.0
 40
0.0
 40
0.0
 40
0.0
 40
0.0299421722
 40
0.0599087187
 40
0.0899234222
 40
0.1200088965
 40
0.1501860486
 40
0.1804735921
 40
0.2108876267
 40
0.2414412921
 40
0.2721445039
 40
0.3030037728
 40
0.3340221097
 40
0.3651990124
 40
0.3965305293
 40
0.4280093954
 40
0.4596252325
 40
0.4913648061
 40
0.523212333
 40
0.5551498293
 40
0.5871574933
 40
0.6192141165
 40
0.6512975132
 40
0.6833849656
 40
0.7154536753
 40
0.7314763803
 40
0.7474860474
 40
0.7794508144
 40
0.8113324582
 40
0.8431123019
 40
0.8747737477
 40
0.9063025846
 40
0.9376874998
 40
0.9533255315
 40
0.9689249968
 40
1.0
 40
1.0
 40
1.0
 40
1.0
 10
11.4958114247
 20
9.9085928706
 30
0.0
 10
11.4923110068
 20
9.9052117082
 30
0.0
 10
11.4850349515
 20
9.8987222261
 30
0.0
 10
11.473377545
 20
9.8898814696
 30
0.0
 10
11.4610364296
 20
9.8819783949
 30
0.0
 10
11.4480805544
 20
9.8750573441
 30
0.0
 10
11.4345811517
 20
9.8691561267
 30
0.0
 10
11.4206127228
 20
9.8643071828
 30
0.0
 10
11.4062522422
 20
9.8605370435
 30
0.0
 10
11.3915788259
 20
9.8578662932
 30
0.0
 10
11.3766732636
 20
9.8563094407
 30
0.0
 10
11.3616175784
 20
9.8558748566
 30
0.0
 10
11.3464945737
 20
9.8565647349
 30
0.0
 10
11.33138738
 20
9.8583750939
 30
0.0
 10
11.3163790026
 20
9.8612958067
 30
0.0
 10
11.3015518707
 20
9.8653106635
 30
0.0
 10
11.2869873907
 20
9.8703974659
 30
0.0
 10
11.272765506
 20
9.8765281525
 30
0.0
 10
11.2589642638
 20
9.8836689559
 30
0.0
 10
11.245659395
 20
9.8917805851
 30
0.0
 10
11.2329238961
 20
9.9008184538
 30
0.0
 10
11.2208276648
 20
9.9107328783
 30
0.0
 10
11.2094370046
 20
9.9214695158
 30
0.0
 10
11.1988147003
 20
9.932969037
 30
0.0
 10
11.190648196
 20
9.9431395814
 30
0.0
 10
11.1845552207
 20
9.9515933461
 30
0.0
 10
11.1787688134
 20
9.9602394986
 30
0.0
 10
11.1721160722
 20
9.9713978648
 30
0.0
 10
11.1651027968
 20
9.9852824976
 30
0.0
 10
11.1591010176
 20
9.9995804216
 30
0.0
 10
11.1541440445
 20
10.0142129183
 30
0.0
 10
11.1502591841
 20
10.0290992925
 30
0.0
 10
11.1479301328
 20
10.0416650116
 30
0.0
 10
11.1466235956
 20
10.0517614002
 30
0.0
 10
11.1456911571
 20
10.0618481322
 30
0.0
 10
11.1454088244
 20
10.0694383228
 30
0.0
 10
11.1454088244
 20
10.0744891937
 30
0.0
  0
SPLINE
  5
386
100
AcDbEntity
  8
0
100
AcDbSpline
 62
7
  6
CONTINUOUS
 70
0
 71
3
 72
41
 73
37
 74
0
 42
0.0000001
 43
0.0000001
 44
0.0000000001
 40
0.0
 40
0.0
 40
0.0
 40
0.0
 40
0.0299421722
 40
0.0599087187
 40
0.0899234222
 40
0.1200088965
 40
0.1501860486
 40
0.1804735921
 40
0.2108876267
 40
0.2414412921
 40
0.2721445039
 40
0.3030037728
 40
0.3340221097
 40
0.3651990124
 40
0.3965305293
 40
0.4280093954
 40
0.4596252325
 40
0.4913648061
 40
0.523212333
 40
0.5551498293
 40
0.5871574933
 40
0.6192141165
 40
0.6512975132
 40
0.6833849656
 40
0.7154536753
 40
0.7314763803
 40
0.7474860474
 40
0.7794508144
 40
0.8113324582
 40
0.8431123019
 40
0.8747737477
 40
0.9063025846
 40
0.9376874998
 40
0.9533255315
 40
0.9689249968
 40
1.0
 40
1.0
 40
1.0
 40
1.0
 10
10.4091448058
 20
6.8446943351
 30
0.0
 10
10.4056443878
 20
6.8413131727
 30
0.0
 10
10.3983683326
 20
6.8348236906
 30
0.0
 10
10.386710926
 20
6.8259829342
 30
0.0
 10
10.3743698107
 20
6.8180798594
 30
0.0
 10
10.3614139354
 20
6.8111588086
 30
0.0
 10
10.3479145328
 20
6.8052575912
 30
0.0
 10
10.3339461038
 20
6.8004086473
 30
0.0
 10
10.3195856232
 20
6.796638508
 30
0.0
 10
10.304912207
 20
6.7939677578
 30
0.0
 10
10.2900066447
 20
6.7924109052
 30
0.0
 10
10.2749509595
 20
6.7919763212
 30
0.0
 10
10.2598279547
 20
6.7926661994
 30
0.0
 10
10.244720761
 20
6.7944765585
 30
0.0
 10
10.2297123836
 20
6.7973972713
 30
0.0
 10
10.2148852517
 20
6.801412128
 30
0.0
 10
10.2003207718
 20
6.8064989304
 30
0.0
 10
10.1860988871
 20
6.8126296171
 30
0.0
 10
10.1722976448
 20
6.8197704204
 30
0.0
 10
10.158992776
 20
6.8278820497
 30
0.0
 10
10.1462572771
 20
6.8369199183
 30
0.0
 10
10.1341610458
 20
6.8468343429
 30
0.0
 10
10.1227703856
 20
6.8575709804
 30
0.0
 10
10.1121480814
 20
6.8690705016
 30
0.0
 10
10.103981577
 20
6.879241046
 30
0.0
 10
10.0978886017
 20
6.8876948106
 30
0.0
 10
10.0921021944
 20
6.8963409631
 30
0.0
 10
10.0854494532
 20
6.9074993293
 30
0.0
 10
10.0784361779
 20
6.9213839621
 30
0.0
 10
10.0724343987
 20
6.9356818861
 30
0.0
 10
10.0674774255
 20
6.9503143829
 30
0.0
 10
10.0635925652
 20
6.965200757
 30
0.0
 10
10.0612635138
 20
6.9777664762
 30
0.0
 10
10.0599569766
 20
6.9878628647
 30
0.0
 10
10.0590245382
 20
6.9979495967
 30
0.0
 10
10.0587422055
 20
7.0055397874
 30
0.0
 10
10.0587422055
 20
7.0105906583
 30
0.0
  0
SPLINE
  5
387
100
AcDbEntity
  8
0
100
AcDbSpline
 62
7
  6
CONTINUOUS
 70
0
 71
3
 72
18
 73
14
 74
0
 42
0.0000001
 43
0.0000001
 44
0.0000000001
 40
0.0
 40
0.0
 40
0.0
 40
0.0
 40
0.0548620589
 40
0.1099280789
 40
0.165399508
 40
0.2214731255
 40
0.2783387361
 40
0.3361775086
 40
0.4554063416
 40
0.5804417492
 40
0.7123343341
 40
0.8519577333
 40
1.0
 40
1.0
 40
1.0
 40
1.0
 10
10.0411481614
 20
10.6686907489
 30
0.0
 10
10.0411481615
 20
10.6696186162
 30
0.0
 10
10.0412070637
 20
10.6714783332
 30
0.0
 10
10.0414718663
 20
10.674264883
 30
0.0
 10
10.0419130533
 20
10.6770498271
 30
0.0
 10
10.0425304791
 20
10.6798321482
 30
0.0
 10
10.0433239044
 20
10.682611144
 30
0.0
 10
10.0446289115
 20
10.6863481483
 30
0.0
 10
10.0467195107
 20
10.6910221402
 30
0.0
 10
10.0499015331
 20
10.6965421425
 30
0.0
 10
10.0537770639
 20
10.7020264152
 30
0.0
 10
10.0583402067
 20
10.7074694541
 30
0.0
 10
10.0617339869
 20
10.7109618251
 30
0.0
 10
10.0635348559
 20
10.7127013312
 30
0.0
  0
SPLINE
  5
388
100
AcDbEntity
  8
0
100
AcDbSpline
 62
7
  6
CONTINUOUS
 70
0
 71
3
 72
9
 73
5
 74
0
 42
0.0000001
 43
0.0000001
 44
0.0000000001
 40
0.0
 40
0.0
 40
0.0
 40
0.0
 40
0.4862217708
 40
1.0
 40
1.0
 40
1.0
 40
1.0
 10
10.054273172
 20
10.6348951546
 30
0.0
 10
10.0556511668
 20
10.6366525813
 30
0.0
 10
10.0586281809
 20
10.6401564017
 30
0.0
 10
10.0618375434
 20
10.6434470412
 30
0.0
 10
10.0635348559
 20
10.6450865193
 30
0.0
  0
SPLINE
  5
389
100
AcDbEntity
  8
0
100
AcDbSpline
 62
7
  6
CONTINUOUS
 70
0
 71
3
 72
91
 73
87
 74
0
 42
0.0000001
 43
0.0000001
 44
0.0000000001
 40
0.0
 40
0.0
 40
0.0
 40
0.0
 40
0.0039801824
 40
0.0081241125
 40
0.0124359604
 40
0.0169193082
 40
0.0215771808
 40
0.0264119179
 40
0.0314251804
 40
0.036618156
 40
0.0419915391
 40
0.0475456573
 40
0.0532804234
 40
0.0591954189
 40
0.0652899227
 40
0.0715629017
 40
0.0780131034
 40
0.0846389837
 40
0.0984102885
 40
0.1128608532
 40
0.1279713725
 40
0.1437199568
 40
0.1600824082
 40
0.1770324532
 40
0.1945419392
 40
0.2125810061
 40
0.2311182422
 40
0.2501208275
 40
0.2695546626
 40
0.2893844909
 40
0.3095740146
 40
0.330086005
 40
0.35088241
 40
0.3719244606
 40
0.3931727759
 40
0.4145874652
 40
0.4361282289
 40
0.4577544586
 40
0.4794253371
 40
0.501099938
 40
0.5227373261
 40
0.5442966575
 40
0.5657372785
 40
0.5870188258
 40
0.6081013261
 40
0.6289452975
 40
0.6495118524
 40
0.6697628021
 40
0.6896607608
 40
0.7091692527
 40
0.7282528228
 40
0.7468771515
 40
0.7650091753
 40
0.7826172172
 40
0.7996711268
 40
0.8161424293
 40
0.8320044948
 40
0.8472327309
 40
0.8618048077
 40
0.8757009255
 40
0.8889041429
 40
0.8952417292
 40
0.9014012652
 40
0.9073816417
 40
0.9131820083
 40
0.9188018518
 40
0.9242409423
 40
0.9294994633
 40
0.9345779585
 40
0.9394774438
 40
0.944199427
 40
0.9487459568
 40
0.95311974
 40
0.9573241405
 40
0.9613633601
 40
0.9652424499
 40
0.9689674846
 40
0.9725456466
 40
0.9759853437
 40
0.9824865016
 40
0.9855753543
 40
0.9885738189
 40
0.9914977372
 40
0.9943643366
 40
0.9971920099
 40
1.0
 40
1.0
 40
1.0
 40
1.0
 10
10.0635348559
 20
10.7127013312
 30
0.0
 10
10.0648360878
 20
10.7139582247
 30
0.0
 10
10.0675511772
 20
10.7164631222
 30
0.0
 10
10.0718619042
 20
10.7201217136
 30
0.0
 10
10.0764891839
 20
10.7237540614
 30
0.0
 10
10.0814304778
 20
10.7273582371
 30
0.0
 10
10.0866833769
 20
10.7309325574
 30
0.0
 10
10.0922453073
 20
10.7344752834
 30
0.0
 10
10.0981134873
 20
10.7379847164
 30
0.0
 10
10.1042850054
 20
10.7414590353
 30
0.0
 10
10.110756745
 20
10.7448965724
 30
0.0
 10
10.117525489
 20
10.7482955592
 30
0.0
 10
10.124587834
 20
10.751654324
 30
0.0
 10
10.1319402374
 20
10.7549711694
 30
0.0
 10
10.1395790084
 20
10.758244405
 30
0.0
 10
10.1475002915
 20
10.7614724137
 30
0.0
 10
10.1557001205
 20
10.7646535358
 30
0.0
 10
10.1671466328
 20
10.7688848758
 30
0.0
 10
10.1821283333
 20
10.7740344986
 30
0.0
 10
10.200925174
 20
10.7799253565
 30
0.0
 10
10.2207271305
 20
10.7855923394
 30
0.0
 10
10.2414942305
 20
10.7910239199
 30
0.0
 10
10.263184703
 20
10.796209034
 30
0.0
 10
10.2857548061
 20
10.8011371191
 30
0.0
 10
10.3091589998
 20
10.8057981339
 30
0.0
 10
10.3333500223
 20
10.8101825858
 30
0.0
 10
10.3582789987
 20
10.8142815468
 30
0.0
 10
10.3838955445
 20
10.8180866719
 30
0.0
 10
10.4101478714
 20
10.8215902154
 30
0.0
 10
10.4369828946
 20
10.824785047
 30
0.0
 10
10.4643463416
 20
10.8276646654
 30
0.0
 10
10.4921828629
 20
10.8302232107
 30
0.0
 10
10.5204361444
 20
10.8324554797
 30
0.0
 10
10.549049024
 20
10.834356934
 30
0.0
 10
10.5779636084
 20
10.8359237078
 30
0.0
 10
10.6071213918
 20
10.8371526159
 30
0.0
 10
10.6364633746
 20
10.8380411594
 30
0.0
 10
10.6659301823
 20
10.8385875315
 30
0.0
 10
10.6954621866
 20
10.8387906197
 30
0.0
 10
10.724999626
 20
10.8386500115
 30
0.0
 10
10.7544827285
 20
10.8381659941
 30
0.0
 10
10.7838518328
 20
10.8373395523
 30
0.0
 10
10.8130475098
 20
10.8361723662
 30
0.0
 10
10.8420106821
 20
10.8346668086
 30
0.0
 10
10.8706827447
 20
10.8328259397
 30
0.0
 10
10.8990056835
 20
10.8306535013
 30
0.0
 10
10.9269221951
 20
10.8281539108
 30
0.0
 10
10.9543758041
 20
10.8253322541
 30
0.0
 10
10.9813109779
 20
10.8221942716
 30
0.0
 10
11.0076732393
 20
10.8187463483
 30
0.0
 10
11.0334092785
 20
10.8149955007
 30
0.0
 10
11.058467062
 20
10.8109493631
 30
0.0
 10
11.0827959412
 20
10.8066161718
 30
0.0
 10
11.1063467596
 20
10.8020047506
 30
0.0
 10
11.1290719585
 20
10.7971244937
 30
0.0
 10
11.1509256742
 20
10.7919853436
 30
0.0
 10
11.1718638445
 20
10.7865977693
 30
0.0
 10
11.1918442802
 20
10.780972744
 30
0.0
 10
11.2108268506
 20
10.7751217166
 30
0.0
 10
11.228773272
 20
10.769056585
 30
0.0
 10
11.2430234131
 20
10.7637644502
 30
0.0
 10
11.2538692398
 20
10.7594235983
 30
0.0
 10
11.2616112031
 20
10.7561665959
 30
0.0
 10
11.2690681796
 20
10.7528654306
 30
0.0
 10
11.2762364191
 20
10.7495217031
 30
0.0
 10
11.2831123354
 20
10.7461371574
 30
0.0
 10
11.2896924595
 20
10.7427134295
 30
0.0
 10
11.2959735159
 20
10.7392522933
 30
0.0
 10
11.3019523483
 20
10.7357554334
 30
0.0
 10
11.307625978
 20
10.7322246061
 30
0.0
 10
11.312991584
 20
10.7286615665
 30
0.0
 10
11.3180464747
 20
10.7250680246
 30
0.0
 10
11.3227881711
 20
10.72144579
 30
0.0
 10
11.327214273
 20
10.7177965332
 30
0.0
 10
11.3313226126
 20
10.7141220688
 30
0.0
 10
11.3351111183
 20
10.7104240338
 30
0.0
 10
11.338577803
 20
10.7067042905
 30
0.0
 10
11.3417211703
 20
10.7029640922
 30
0.0
 10
11.3454086371
 20
10.6980461627
 30
0.0
 10
11.3485398967
 20
10.6929956746
 30
0.0
 10
11.3510259807
 20
10.6878373459
 30
0.0
 10
11.3525280615
 20
10.6840223768
 30
0.0
 10
11.3536977866
 20
10.6801981253
 30
0.0
 10
11.3545341968
 20
10.6763664489
 30
0.0
 10
11.3550363679
 20
10.6725300793
 30
0.0
 10
11.3551481616
 20
10.6699670839
 30
0.0
 10
11.3551481614
 20
10.668690749
 30
0.0
  0
SPLINE
  5
38A
100
AcDbEntity
  8
0
100
AcDbSpline
 62
7
  6
CONTINUOUS
 70
0
 71
3
 72
9
 73
5
 74
0
 42
0.0000001
 43
0.0000001
 44
0.0000000001
 40
0.0
 40
0.0
 40
0.0
 40
0.0
 40
0.5194672246
 40
1.0
 40
1.0
 40
1.0
 40
1.0
 10
12.6840917779
 20
8.750763653
 30
0.0
 10
12.6831180968
 20
8.7498231492
 30
0.0
 10
12.6811728251
 20
8.7480838288
 30
0.0
 10
12.6790715936
 20
8.7465334611
 30
0.0
 10
12.6780232781
 20
8.7458484633
 30
0.0
  0
SPLINE
  5
38B
100
AcDbEntity
  8
0
100
AcDbSpline
 62
7
  6
CONTINUOUS
 70
0
 71
3
 72
86
 73
82
 74
0
 42
0.0000001
 43
0.0000001
 44
0.0000000001
 40
0.0
 40
0.0
 40
0.0
 40
0.0
 40
0.0039487813
 40
0.0077209445
 40
0.011325732
 40
0.0147746608
 40
0.0212568124
 40
0.0243283759
 40
0.0273114768
 40
0.0302283625
 40
0.0331029617
 40
0.0359603732
 40
0.0388261812
 40
0.0417257346
 40
0.0446834242
 40
0.0477221231
 40
0.0508627408
 40
0.054123987
 40
0.0575223396
 40
0.0610720112
 40
0.0647851874
 40
0.0686721197
 40
0.072741357
 40
0.0769999805
 40
0.0814536809
 40
0.0861070632
 40
0.0909636681
 40
0.096026164
 40
0.1012964747
 40
0.1067757715
 40
0.1124646985
 40
0.1183632958
 40
0.1244711473
 40
0.1373102364
 40
0.1509713383
 40
0.1654378083
 40
0.1806885339
 40
0.1966985437
 40
0.2134394829
 40
0.2308799908
 40
0.2489860087
 40
0.267721067
 40
0.2870465225
 40
0.3069217681
 40
0.3273044219
 40
0.3481504979
 40
0.3694145856
 40
0.3910500168
 40
0.413009021
 40
0.4577011427
 40
0.503093399
 40
0.5487792232
 40
0.5943486924
 40
0.6393932156
 40
0.6615929174
 40
0.6835111542
 40
0.7050993227
 40
0.7263097923
 40
0.7470960568
 40
0.7674128897
 40
0.7872165083
 40
0.8064647562
 40
0.8251172808
 40
0.8431357212
 40
0.8604839205
 40
0.8771281651
 40
0.893037474
 40
0.9081839258
 40
0.9225430408
 40
0.9360942738
 40
0.9488216383
 40
0.9548731704
 40
0.9607153018
 40
0.9663477328
 40
0.9717706505
 40
0.9769848157
 40
0.981991563
 40
0.9867931153
 40
0.9913924634
 40
0.9957932734
 40
1.0
 40
1.0
 40
1.0
 40
1.0
 10
12.7515965952
 20
9.3564524373
 30
0.0
 10
12.7523186783
 20
9.3571244425
 30
0.0
 10
12.7537622521
 20
9.3584049885
 30
0.0
 10
12.7559771786
 20
9.360167356
 30
0.0
 10
12.7581901229
 20
9.361725154
 30
0.0
 10
12.7610753133
 20
9.363490928
 30
0.0
 10
12.764018963
 20
9.3648991047
 30
0.0
 10
12.7669937529
 20
9.3658883762
 30
0.0
 10
12.769177022
 20
9.3664077855
 30
0.0
 10
12.7713502414
 20
9.3667169972
 30
0.0
 10
12.7735118884
 20
9.3668154932
 30
0.0
 10
12.77566013
 20
9.3667030003
 30
0.0
 10
12.7777931506
 20
9.3663796468
 30
0.0
 10
12.7799091481
 20
9.3658457332
 30
0.0
 10
12.7820065077
 20
9.3651020415
 30
0.0
 10
12.7840837506
 20
9.3641493798
 30
0.0
 10
12.7861395981
 20
9.3629887705
 30
0.0
 10
12.7881729317
 20
9.3616212986
 30
0.0
 10
12.7901826521
 20
9.3600479977
 30
0.0
 10
12.7921678148
 20
9.3582700627
 30
0.0
 10
12.7941273834
 20
9.3562886104
 30
0.0
 10
12.7960603894
 20
9.3541048989
 30
0.0
 10
12.797965846
 20
9.3517202457
 30
0.0
 10
12.7998426946
 20
9.3491360291
 30
0.0
 10
12.8016899733
 20
9.3463537967
 30
0.0
 10
12.8035065995
 20
9.3433751402
 30
0.0
 10
12.8052915753
 20
9.3402018158
 30
0.0
 10
12.8070438789
 20
9.3368356778
 30
0.0
 10
12.8087624587
 20
9.3332786891
 30
0.0
 10
12.8104463622
 20
9.3295329587
 30
0.0
 10
12.8120945393
 20
9.325600681
 30
0.0
 10
12.8137060732
 20
9.3214841853
 30
0.0
 10
12.8158401785
 20
9.3156557712
 30
0.0
 10
12.8183997269
 20
9.3079204755
 30
0.0
 10
12.8212614319
 20
9.2980933222
 30
0.0
 10
12.8239554386
 20
9.2875959127
 30
0.0
 10
12.8264752501
 20
9.2764532105
 30
0.0
 10
12.8288147589
 20
9.2646915832
 30
0.0
 10
12.8309682883
 20
9.252339002
 30
0.0
 10
12.8329306074
 20
9.2394248826
 30
0.0
 10
12.8346969567
 20
9.2259800283
 30
0.0
 10
12.8362630487
 20
9.212036538
 30
0.0
 10
12.8376250807
 20
9.1976277208
 30
0.0
 10
12.8387797436
 20
9.1827880128
 30
0.0
 10
12.8397242278
 20
9.1675528955
 30
0.0
 10
12.8404562414
 20
9.1519588063
 30
0.0
 10
12.8409739971
 20
9.13604306
 30
0.0
 10
12.8412762545
 20
9.1198437065
 30
0.0
 10
12.8413914832
 20
9.097789491
 30
0.0
 10
12.8409868561
 20
9.069800638
 30
0.0
 10
12.8396481681
 20
9.0359083483
 30
0.0
 10
12.8374658913
 20
9.0018401855
 30
0.0
 10
12.8344608555
 20
8.9679220628
 30
0.0
 10
12.8312800261
 20
8.9399180158
 30
0.0
 10
12.8283401256
 20
8.917839594
 30
0.0
 10
12.8259604187
 20
8.9015991363
 30
0.0
 10
12.8234011277
 20
8.8856362289
 30
0.0
 10
12.8206683736
 20
8.8699890365
 30
0.0
 10
12.8177687289
 20
8.854694999
 30
0.0
 10
12.8147091596
 20
8.839790698
 30
0.0
 10
12.8114970181
 20
8.8253117768
 30
0.0
 10
12.8081400315
 20
8.8112928465
 30
0.0
 10
12.804646278
 20
8.7977674016
 30
0.0
 10
12.8010241655
 20
8.7847677402
 30
0.0
 10
12.7972824124
 20
8.7723248837
 30
0.0
 10
12.793430023
 20
8.7604684964
 30
0.0
 10
12.7894762698
 20
8.7492267936
 30
0.0
 10
12.7854306679
 20
8.7386264867
 30
0.0
 10
12.7813029326
 20
8.7286926246
 30
0.0
 10
12.7771029644
 20
8.7194488093
 30
0.0
 10
12.773492974
 20
8.7122218739
 30
0.0
 10
12.7705696174
 20
8.7068102283
 30
0.0
 10
12.7684022265
 20
8.703005887
 30
0.0
 10
12.7662243042
 20
8.6993896558
 30
0.0
 10
12.7640371037
 20
8.6959636822
 30
0.0
 10
12.7618419708
 20
8.6927299735
 30
0.0
 10
12.7596401296
 20
8.6896904456
 30
0.0
 10
12.7574328707
 20
8.6868468325
 30
0.0
 10
12.7552213974
 20
8.6842007924
 30
0.0
 10
12.7530071282
 20
8.6817540278
 30
0.0
 10
12.7514964852
 20
8.6802227185
 30
0.0
 10
12.7507406639
 20
8.6794926511
 30
0.0
  0
SPLINE
  5
38C
100
AcDbEntity
  8
0
100
AcDbSpline
 62
7
  6
CONTINUOUS
 70
0
 71
3
 72
58
 73
54
 74
0
 42
0.0000001
 43
0.0000001
 44
0.0000000001
 40
0.0
 40
0.0
 40
0.0
 40
0.0
 40
0.0077824417
 40
0.0161804878
 40
0.0252132902
 40
0.0348935112
 40
0.0452268843
 40
0.0562139119
 40
0.0678508857
 40
0.0801304135
 40
0.0930420935
 40
0.1065727941
 40
0.1207070349
 40
0.1354273175
 40
0.1507141905
 40
0.1665465517
 40
0.1829017955
 40
0.1997558392
 40
0.217083377
 40
0.2348579211
 40
0.2716358349
 40
0.3098585794
 40
0.3492811255
 40
0.3896478928
 40
0.4306952
 40
0.4721536009
 40
0.5137501865
 40
0.5552108977
 40
0.5962628095
 40
0.6366364252
 40
0.6760680111
 40
0.7143019255
 40
0.7510930192
 40
0.7688748617
 40
0.786210158
 40
0.8030724186
 40
0.8194362624
 40
0.8352776402
 40
0.8505739084
 40
0.8653038918
 40
0.879448183
 40
0.8929892055
 40
0.9059114221
 40
0.9182017266
 40
0.9298496077
 40
0.9408476316
 40
0.9511920363
 40
0.9608832592
 40
0.9699269756
 40
0.9783352706
 40
0.9861280998
 40
0.9933354908
 40
1.0
 40
1.0
 40
1.0
 40
1.0
 10
12.6840917779
 20
8.750763653
 30
0.0
 10
12.6851484948
 20
8.7517843632
 30
0.0
 10
12.6872572134
 20
8.7539990317
 30
0.0
 10
12.6902960669
 20
8.75766636
 30
0.0
 10
12.6933234787
 20
8.7617963571
 30
0.0
 10
12.69633429
 20
8.7663817581
 30
0.0
 10
12.699323694
 20
8.7714150379
 30
0.0
 10
12.702286538
 20
8.7768876731
 30
0.0
 10
12.7052177261
 20
8.7827903092
 30
0.0
 10
12.7081121828
 20
8.7891127833
 30
0.0
 10
12.710964806
 20
8.7958441718
 30
0.0
 10
12.7137705972
 20
8.8029727762
 30
0.0
 10
12.7165246288
 20
8.8104861762
 30
0.0
 10
12.719222015
 20
8.8183712643
 30
0.0
 10
12.7218580213
 20
8.8266142471
 30
0.0
 10
12.7244279947
 20
8.8352006951
 30
0.0
 10
12.7269273797
 20
8.8441155699
 30
0.0
 10
12.7293517861
 20
8.8533432325
 30
0.0
 10
12.7316969495
 20
8.8628675102
 30
0.0
 10
12.7347472551
 20
8.8760902798
 30
0.0
 10
12.7383220725
 20
8.893238219
 30
0.0
 10
12.7421874403
 20
8.9144927307
 30
0.0
 10
12.745648157
 20
8.9365028834
 30
0.0
 10
12.7486797403
 20
8.9591141805
 30
0.0
 10
12.7512607272
 20
8.9821680243
 30
0.0
 10
12.7533728805
 20
9.0055026115
 30
0.0
 10
12.7550013242
 20
9.0289541519
 30
0.0
 10
12.7561346321
 20
9.0523580173
 30
0.0
 10
12.7567648998
 20
9.0755499232
 30
0.0
 10
12.756887807
 20
9.09836708
 30
0.0
 10
12.7565026982
 20
9.1206494195
 30
0.0
 10
12.7556124762
 20
9.142240509
 30
0.0
 10
12.7544424561
 20
9.1597239712
 30
0.0
 10
12.7532493705
 20
9.1732468124
 30
0.0
 10
12.752243383
 20
9.1830082593
 30
0.0
 10
12.7511179505
 20
9.192487154
 30
0.0
 10
12.7498750223
 20
9.2016668798
 30
0.0
 10
12.7485168223
 20
9.2105313348
 30
0.0
 10
12.7470457745
 20
9.2190649849
 30
0.0
 10
12.7454644619
 20
9.2272528831
 30
0.0
 10
12.7437757149
 20
9.2350807099
 30
0.0
 10
12.7419825305
 20
9.2425347939
 30
0.0
 10
12.7400880583
 20
9.2496021379
 30
0.0
 10
12.7380956799
 20
9.2562704643
 30
0.0
 10
12.7360088888
 20
9.2625282266
 30
0.0
 10
12.733831318
 20
9.2683646428
 30
0.0
 10
12.7315667707
 20
9.2737697493
 30
0.0
 10
12.7292190685
 20
9.278734386
 30
0.0
 10
12.7267920745
 20
9.2832502687
 30
0.0
 10
12.7242896974
 20
9.2873099399
 30
0.0
 10
12.7217153858
 20
9.2909069101
 30
0.0
 10
12.7190730894
 20
9.2940348446
 30
0.0
 10
12.7171988344
 20
9.2958716347
 30
0.0
 10
12.7162515277
 20
9.2966995969
 30
0.0
  0
SPLINE
  5
38D
100
AcDbEntity
  8
0
100
AcDbSpline
 62
7
  6
CONTINUOUS
 70
0
 71
3
 72
23
 73
19
 74
0
 42
0.0000001
 43
0.0000001
 44
0.0000000001
 40
0.0
 40
0.0
 40
0.0
 40
0.0
 40
0.0755963493
 40
0.1466389404
 40
0.2134644447
 40
0.2765130444
 40
0.3363250756
 40
0.3935451244
 40
0.4489211068
 40
0.5032859965
 40
0.5575238004
 40
0.612525131
 40
0.6691411996
 40
0.728147006
 40
0.7902177883
 40
0.855922422
 40
0.9257258939
 40
1.0
 40
1.0
 40
1.0
 40
1.0
 10
12.7507406639
 20
8.6794926511
 30
0.0
 10
12.7497679111
 20
8.678553044
 30
0.0
 10
12.7478236988
 20
8.6767881743
 30
0.0
 10
12.7448148355
 20
8.6744304229
 30
0.0
 10
12.741809501
 20
8.6724502457
 30
0.0
 10
12.7388104546
 20
8.6708506364
 30
0.0
 10
12.735820211
 20
8.6696344569
 30
0.0
 10
12.7328418339
 20
8.6688047537
 30
0.0
 10
12.7298792464
 20
8.6683643814
 30
0.0
 10
12.7269373778
 20
8.6683155078
 30
0.0
 10
12.7240218754
 20
8.6686587539
 30
0.0
 10
12.7211384122
 20
8.6693932176
 30
0.0
 10
12.718291847
 20
8.6705162941
 30
0.0
 10
12.7154860057
 20
8.6720248267
 30
0.0
 10
12.7127236722
 20
8.673915263
 30
0.0
 10
12.7100071244
 20
8.6761843936
 30
0.0
 10
12.7073385231
 20
8.6788288247
 30
0.0
 10
12.7056472198
 20
8.6807772461
 30
0.0
 10
12.7048087988
 20
8.681808136
 30
0.0
  0
SPLINE
  5
38E
100
AcDbEntity
  8
0
100
AcDbSpline
 62
7
  6
CONTINUOUS
 70
0
 71
3
 72
21
 73
17
 74
0
 42
0.0000001
 43
0.0000001
 44
0.0000000001
 40
0.0
 40
0.0
 40
0.0
 40
0.0
 40
0.1273175725
 40
0.2538000026
 40
0.3167619332
 40
0.3795354925
 40
0.4421314982
 40
0.5045621433
 40
0.5668413429
 40
0.6289845306
 40
0.6910084612
 40
0.7529311022
 40
0.8147714553
 40
0.8765493457
 40
0.9382852283
 40
1.0
 40
1.0
 40
1.0
 40
1.0
 10
10.0587422055
 20
7.0105906583
 30
0.0
 10
10.0587422055
 20
7.0170889846
 30
0.0
 10
10.0593625129
 20
7.030051375
 30
0.0
 10
10.061705192
 20
7.0460756919
 30
0.0
 10
10.0645052317
 20
7.0586453712
 30
0.0
 10
10.0670587191
 20
7.0679167678
 30
0.0
 10
10.070062705
 20
7.0770234371
 30
0.0
 10
10.0735103403
 20
7.0859446162
 30
0.0
 10
10.0773936448
 20
7.0946596788
 30
0.0
 10
10.0817036871
 20
7.1031485425
 30
0.0
 10
10.0864305809
 20
7.1113915984
 30
0.0
 10
10.0915634097
 20
7.1193698516
 30
0.0
 10
10.0970903175
 20
7.1270648894
 30
0.0
 10
10.1029986578
 20
7.1344589992
 30
0.0
 10
10.1092745749
 20
7.1415348858
 30
0.0
 10
10.1136947251
 20
7.146029972
 30
0.0
 10
10.115960328
 20
7.1482183883
 30
0.0
  0
SPLINE
  5
38F
100
AcDbEntity
  8
0
100
AcDbSpline
 62
7
  6
CONTINUOUS
 70
0
 71
3
 72
67
 73
63
 74
0
 42
0.0000001
 43
0.0000001
 44
0.0000000001
 40
0.0
 40
0.0
 40
0.0
 40
0.0
 40
0.0155846213
 40
0.0311170668
 40
0.0465968192
 40
0.0620259865
 40
0.0774060849
 40
0.0927394311
 40
0.1080287937
 40
0.1232773619
 40
0.1384887615
 40
0.1536669979
 40
0.1688164255
 40
0.1839417028
 40
0.199047742
 40
0.2141396589
 40
0.2292227208
 40
0.2443022904
 40
0.2593837676
 40
0.2744725309
 40
0.2895738804
 40
0.3046929831
 40
0.319834818
 40
0.3350041228
 40
0.3502053439
 40
0.3654425945
 40
0.3807196143
 40
0.3960397325
 40
0.4114058354
 40
0.426820342
 40
0.4422851868
 40
0.4578018036
 40
0.4733711146
 40
0.4889935259
 40
0.5046689328
 40
0.520396725
 40
0.5361757955
 40
0.5520045539
 40
0.5678809505
 40
0.5838024983
 40
0.599766298
 40
0.6157690657
 40
0.6318071682
 40
0.6478766587
 40
0.663973312
 40
0.6800926609
 40
0.7123721235
 40
0.7446846192
 40
0.7769900058
 40
0.8092483936
 40
0.8253521889
 40
0.8414301118
 40
0.8574778627
 40
0.8734914072
 40
0.889467014
 40
0.9054013002
 40
0.9212912382
 40
0.9371342307
 40
0.9529281326
 40
0.9686709488
 40
0.9843622542
 40
1.0
 40
1.0
 40
1.0
 40
1.0
 10
10.7744932852
 20
7.6245442693
 30
0.0
 10
10.7744932852
 20
7.6201269413
 30
0.0
 10
10.7742770877
 20
7.6113055086
 30
0.0
 10
10.7733012766
 20
7.5981289651
 30
0.0
 10
10.7716766134
 20
7.58506062
 30
0.0
 10
10.7694071787
 20
7.5721325683
 30
0.0
 10
10.7664982634
 20
7.5593757094
 30
0.0
 10
10.7629569008
 20
7.54682088
 30
0.0
 10
10.7587916082
 20
7.5344983238
 30
0.0
 10
10.7540123901
 20
7.5224377555
 30
0.0
 10
10.7486307272
 20
7.5106682698
 30
0.0
 10
10.7426595685
 20
7.4992182572
 30
0.0
 10
10.7361133122
 20
7.4881153274
 30
0.0
 10
10.7290077276
 20
7.4773862631
 30
0.0
 10
10.7213599252
 20
7.4670569561
 30
0.0
 10
10.7131883278
 20
7.4571523381
 30
0.0
 10
10.7045126587
 20
7.4476962888
 30
0.0
 10
10.6953538425
 20
7.4387116152
 30
0.0
 10
10.6857339644
 20
7.4302199936
 30
0.0
 10
10.6756762148
 20
7.4222419228
 30
0.0
 10
10.6652048727
 20
7.4147966239
 30
0.0
 10
10.6543452057
 20
7.4079020354
 30
0.0
 10
10.6431234098
 20
7.4015747734
 30
0.0
 10
10.6315665449
 20
7.3958301017
 30
0.0
 10
10.6197024949
 20
7.3906818453
 30
0.0
 10
10.6075598828
 20
7.3861423777
 30
0.0
 10
10.5951679907
 20
7.3822226169
 30
0.0
 10
10.5825566936
 20
7.3789320021
 30
0.0
 10
10.5697563975
 20
7.3762784407
 30
0.0
 10
10.5567979644
 20
7.3742682734
 30
0.0
 10
10.5437126253
 20
7.3729063096
 30
0.0
 10
10.5305319105
 20
7.3721958099
 30
0.0
 10
10.5172875786
 20
7.3721384715
 30
0.0
 10
10.5040115371
 20
7.3727343752
 30
0.0
 10
10.4907357624
 20
7.3739820484
 30
0.0
 10
10.4774922261
 20
7.3758784613
 30
0.0
 10
10.4643128235
 20
7.3784190415
 30
0.0
 10
10.4512292861
 20
7.3815976251
 30
0.0
 10
10.4382731096
 20
7.3854065215
 30
0.0
 10
10.425475483
 20
7.3898365383
 30
0.0
 10
10.4128672182
 20
7.3948770106
 30
0.0
 10
10.4004786682
 20
7.4005157736
 30
0.0
 10
10.3883396233
 20
7.4067392359
 30
0.0
 10
10.3764793733
 20
7.4135323358
 30
0.0
 10
10.3649261891
 20
7.4208789677
 30
0.0
 10
10.3499642162
 20
7.4313916733
 30
0.0
 10
10.3321697707
 20
7.4458248223
 30
0.0
 10
10.3124854107
 20
7.4650318569
 30
0.0
 10
10.2946430161
 20
7.4859532726
 30
0.0
 10
10.2814420105
 20
7.5046649617
 30
0.0
 10
10.2719658536
 20
7.5202856912
 30
0.0
 10
10.2654203468
 20
7.532292826
 30
0.0
 10
10.2594496523
 20
7.5445671728
 30
0.0
 10
10.2540679514
 20
7.5570794945
 30
0.0
 10
10.2492882743
 20
7.5697995937
 30
0.0
 10
10.2451221164
 20
7.5826968668
 30
0.0
 10
10.2415795261
 20
7.5957402612
 30
0.0
 10
10.2386690666
 20
7.6088984034
 30
0.0
 10
10.2363978255
 20
7.6221395274
 30
0.0
 10
10.2347711561
 20
7.6354320153
 30
0.0
 10
10.2337932002
 20
7.6487432477
 30
0.0
 10
10.2335747904
 20
7.6576247086
 30
0.0
 10
10.2335747904
 20
7.6620570943
 30
0.0
  0
SPLINE
  5
390
100
AcDbEntity
  8
0
100
AcDbSpline
 62
7
  6
CONTINUOUS
 70
0
 71
3
 72
79
 73
75
 74
0
 42
0.0000001
 43
0.0000001
 44
0.0000000001
 40
0.0
 40
0.0
 40
0.0
 40
0.0
 40
0.0069315574
 40
0.0105986767
 40
0.0144066877
 40
0.0183600657
 40
0.022462566
 40
0.026717331
 40
0.0311268813
 40
0.0356932613
 40
0.0404180349
 40
0.0453023372
 40
0.0503469664
 40
0.0555523326
 40
0.060918574
 40
0.06644554
 40
0.0721328008
 40
0.0839850491
 40
0.0964680903
 40
0.1095712258
 40
0.1232811587
 40
0.1375823026
 40
0.1524570208
 40
0.1678858364
 40
0.1838476189
 40
0.2003197345
 40
0.2172781737
 40
0.2346976581
 40
0.252551756
 40
0.2708129854
 40
0.2894529036
 40
0.308442189
 40
0.327750719
 40
0.3473476593
 40
0.3672015419
 40
0.3872803383
 40
0.4075515304
 40
0.4485384014
 40
0.4898957113
 40
0.531353215
 40
0.572639826
 40
0.6134858936
 40
0.6336607498
 40
0.6536261848
 40
0.6733499231
 40
0.6928002158
 40
0.711945919
 40
0.7307565654
 40
0.7492024402
 40
0.7672546618
 40
0.7848852768
 40
0.8020673462
 40
0.818775033
 40
0.8349837026
 40
0.8506700379
 40
0.8658121762
 40
0.8803898387
 40
0.8943844882
 40
0.90777952
 40
0.9205605005
 40
0.9327154537
 40
0.944235197
 40
0.949755112
 40
0.9551143006
 40
0.9603126017
 40
0.9653501843
 40
0.9702274804
 40
0.9749452775
 40
0.9795047293
 40
0.9839073988
 40
0.9881554274
 40
0.9922514367
 40
0.9961984568
 40
1.0
 40
1.0
 40
1.0
 40
1.0
 10
11.3420638879
 20
10.6348431395
 30
0.0
 10
11.3401743136
 20
10.6372568867
 30
0.0
 10
11.3370840284
 20
10.6407937899
 30
0.0
 10
11.332584042
 20
10.6453053295
 30
0.0
 10
11.3288676925
 20
10.6487329939
 30
0.0
 10
11.3248755767
 20
10.6521392378
 30
0.0
 10
11.3206091603
 20
10.6555229296
 30
0.0
 10
11.3160703305
 20
10.6588825303
 30
0.0
 10
11.3112610622
 20
10.6622167048
 30
0.0
 10
11.3061834118
 20
10.6655239882
 30
0.0
 10
11.3008395782
 20
10.6688029753
 30
0.0
 10
11.2952318859
 20
10.6720522862
 30
0.0
 10
11.2893627407
 20
10.675270464
 30
0.0
 10
11.2832347114
 20
10.6784561698
 30
0.0
 10
11.2768504496
 20
10.6816079831
 30
0.0
 10
11.2702127226
 20
10.6847245536
 30
0.0
 10
11.2608998845
 20
10.6888885391
 30
0.0
 10
11.2486370498
 20
10.6939852677
 30
0.0
 10
11.2331545056
 20
10.699858295
 30
0.0
 10
11.2167356934
 20
10.7055591904
 30
0.0
 10
11.1994092626
 20
10.7110779375
 30
0.0
 10
11.1812052779
 20
10.7164048268
 30
0.0
 10
11.1621554646
 20
10.7215304777
 30
0.0
 10
11.1422930552
 20
10.7264458647
 30
0.0
 10
11.1216527382
 20
10.7311423239
 30
0.0
 10
11.1002705828
 20
10.7356115758
 30
0.0
 10
11.078183979
 20
10.739845736
 30
0.0
 10
11.0554315724
 20
10.7438373469
 30
0.0
 10
11.0320531899
 20
10.7475793782
 30
0.0
 10
11.0080897616
 20
10.751065237
 30
0.0
 10
10.9835832479
 20
10.7542887802
 30
0.0
 10
10.9585765701
 20
10.7572443261
 30
0.0
 10
10.9331135361
 20
10.7599266763
 30
0.0
 10
10.9072387544
 20
10.7623311116
 30
0.0
 10
10.8809975682
 20
10.7644533921
 30
0.0
 10
10.8544359167
 20
10.7662898032
 30
0.0
 10
10.8185246592
 20
10.768360287
 30
0.0
 10
10.7731777377
 20
10.7702067208
 30
0.0
 10
10.7184334407
 20
10.7712369543
 30
0.0
 10
10.6635469445
 20
10.7710822136
 30
0.0
 10
10.6089028625
 20
10.7697436207
 30
0.0
 10
10.5637033292
 20
10.7676411191
 30
0.0
 10
10.5279596854
 20
10.7653671888
 30
0.0
 10
10.501559507
 20
10.763381129
 30
0.0
 10
10.4755038677
 20
10.7611110882
 30
0.0
 10
10.4498383829
 20
10.7585610341
 30
0.0
 10
10.4246080262
 20
10.7557354687
 30
0.0
 10
10.3998569921
 20
10.7526393657
 30
0.0
 10
10.3756286371
 20
10.749278177
 30
0.0
 10
10.3519653959
 20
10.7456578164
 30
0.0
 10
10.3289087016
 20
10.7417846644
 30
0.0
 10
10.3064989116
 20
10.7376655495
 30
0.0
 10
10.2847752412
 20
10.7333077308
 30
0.0
 10
10.2637756937
 20
10.7287188868
 30
0.0
 10
10.2435369859
 20
10.7239071003
 30
0.0
 10
10.2240944717
 20
10.7188808589
 30
0.0
 10
10.2054820824
 20
10.713649023
 30
0.0
 10
10.1877322593
 20
10.7082208084
 30
0.0
 10
10.1708759147
 20
10.7026057653
 30
0.0
 10
10.1549422621
 20
10.6968137515
 30
0.0
 10
10.139959076
 20
10.6908549421
 30
0.0
 10
10.1281238459
 20
10.6856880511
 30
0.0
 10
10.1191603938
 20
10.6814704162
 30
0.0
 10
10.1127873072
 20
10.6783170798
 30
0.0
 10
10.1066705888
 20
10.6751299192
 30
0.0
 10
10.1008128618
 20
10.6719103419
 30
0.0
 10
10.0952166889
 20
10.6686597026
 30
0.0
 10
10.0898844964
 20
10.6653794276
 30
0.0
 10
10.0848185868
 20
10.6620709632
 30
0.0
 10
10.0800211583
 20
10.6587356588
 30
0.0
 10
10.0754942171
 20
10.655374947
 30
0.0
 10
10.071239718
 20
10.6519901634
 30
0.0
 10
10.0672596898
 20
10.6485829342
 30
0.0
 10
10.0647440574
 20
10.6462545183
 30
0.0
 10
10.0635348559
 20
10.6450865193
 30
0.0
  0
SPLINE
  5
391
100
AcDbEntity
  8
0
100
AcDbSpline
 62
7
  6
CONTINUOUS
 70
0
 71
3
 72
54
 73
50
 74
0
 42
0.0000001
 43
0.0000001
 44
0.0000000001
 40
0.0
 40
0.0
 40
0.0
 40
0.0
 40
0.0099472337
 40
0.0203698704
 40
0.0312644864
 40
0.0426260491
 40
0.0544480896
 40
0.0667227976
 40
0.0794412503
 40
0.0925934343
 40
0.1061683672
 40
0.1201542188
 40
0.1345382898
 40
0.1493071622
 40
0.1644467127
 40
0.1799421393
 40
0.1957780755
 40
0.2119385556
 40
0.2451662193
 40
0.2794882552
 40
0.3147604925
 40
0.3508330981
 40
0.3875515635
 40
0.424757678
 40
0.4622904654
 40
0.4999871083
 40
0.5376838689
 40
0.5752170109
 40
0.6124237148
 40
0.6491429955
 40
0.6852166394
 40
0.7204901413
 40
0.7548136583
 40
0.7880429977
 40
0.8200406729
 40
0.8355371161
 40
0.8506777018
 40
0.8654476672
 40
0.8798328731
 40
0.8938198766
 40
0.9073960261
 40
0.9205494374
 40
0.9332691503
 40
0.9455451651
 40
0.9573685051
 40
0.9687314146
 40
0.9796273864
 40
0.9900513765
 40
1.0
 40
1.0
 40
1.0
 40
1.0
 10
11.1774439653
 20
10.5524432501
 30
0.0
 10
11.1745450543
 20
10.5538889378
 30
0.0
 10
11.1685579462
 20
10.5567484948
 30
0.0
 10
11.1592410033
 20
10.5608576283
 30
0.0
 10
11.1493879443
 20
10.5648824088
 30
0.0
 10
11.1390102443
 20
10.5688180939
 30
0.0
 10
11.1281198263
 20
10.5726601046
 30
0.0
 10
11.1167292957
 20
10.5764039975
 30
0.0
 10
11.1048518258
 20
10.5800453738
 30
0.0
 10
11.0925011833
 20
10.5835799934
 30
0.0
 10
11.0796916947
 20
10.5870037428
 30
0.0
 10
11.0664382234
 20
10.5903125883
 30
0.0
 10
11.052756166
 20
10.5935026956
 30
0.0
 10
11.0386614189
 20
10.5965703217
 30
0.0
 10
11.0241703628
 20
10.5995118733
 30
0.0
 10
11.0092998532
 20
10.6023239339
 30
0.0
 10
10.9940671643
 20
10.6050032105
 30
0.0
 10
10.9731035509
 20
10.6084259694
 30
0.0
 10
10.9461222955
 20
10.6123388411
 30
0.0
 10
10.9128843023
 20
10.6164169246
 30
0.0
 10
10.8786474572
 20
10.6199006838
 30
0.0
 10
10.8435710575
 20
10.6227737469
 30
0.0
 10
10.8078181659
 20
10.6250225914
 30
0.0
 10
10.7715550826
 20
10.6266366428
 30
0.0
 10
10.7349504897
 20
10.6276083078
 30
0.0
 10
10.6981746782
 20
10.6279330124
 30
0.0
 10
10.661398743
 20
10.627609237
 30
0.0
 10
10.6247937797
 20
10.6266385057
 30
0.0
 10
10.588530081
 20
10.6250253809
 30
0.0
 10
10.5527763382
 20
10.6227774403
 30
0.0
 10
10.5176988377
 20
10.6199052638
 30
0.0
 10
10.4834607003
 20
10.616422368
 30
0.0
 10
10.4502210286
 20
10.6123451623
 30
0.0
 10
10.4181344397
 20
10.6076928103
 30
0.0
 10
10.3922112365
 20
10.6033094907
 30
0.0
 10
10.3721682854
 20
10.5995201881
 30
0.0
 10
10.3576761023
 20
10.5965789719
 30
0.0
 10
10.3435801915
 20
10.5935117142
 30
0.0
 10
10.3298969202
 20
10.5903219614
 30
0.0
 10
10.3166421939
 20
10.5870134347
 30
0.0
 10
10.3038314014
 20
10.5835900297
 30
0.0
 10
10.2914794171
 20
10.5800557146
 30
0.0
 10
10.2796005646
 20
10.5764146336
 30
0.0
 10
10.2682086075
 20
10.5726710491
 30
0.0
 10
10.2573167351
 20
10.5688292925
 30
0.0
 10
10.246937537
 20
10.5648938839
 30
0.0
 10
10.2370829472
 20
10.5608693581
 30
0.0
 10
10.2277644523
 20
10.5567604379
 30
0.0
 10
10.2217762666
 20
10.5539010655
 30
0.0
 10
10.2188768132
 20
10.5524554515
 30
0.0
  0
SPLINE
  5
392
100
AcDbEntity
  8
0
100
AcDbSpline
 62
7
  6
CONTINUOUS
 70
0
 71
3
 72
11
 73
7
 74
0
 42
0.0000001
 43
0.0000001
 44
0.0000000001
 40
0.0
 40
0.0
 40
0.0
 40
0.0
 40
0.2508989236
 40
0.5011865616
 40
0.7508755506
 40
1.0
 40
1.0
 40
1.0
 40
1.0
 10
10.5666814825
 20
7.8534683997
 30
0.0
 10
10.5724677469
 20
7.8506026711
 30
0.0
 10
10.5840503203
 20
7.8449267001
 30
0.0
 10
10.6014963326
 20
7.8366151277
 30
0.0
 10
10.6190182785
 20
7.8285731763
 30
0.0
 10
10.6307828526
 20
7.8234332273
 30
0.0
 10
10.6366876219
 20
7.8209353699
 30
0.0
  0
SPLINE
  5
393
100
AcDbEntity
  8
0
100
AcDbSpline
 62
7
  6
CONTINUOUS
 70
0
 71
3
 72
67
 73
63
 74
0
 42
0.0000001
 43
0.0000001
 44
0.0000000001
 40
0.0
 40
0.0
 40
0.0
 40
0.0
 40
0.0155846213
 40
0.0311170668
 40
0.0465968192
 40
0.0620259865
 40
0.0774060849
 40
0.0927394311
 40
0.1080287937
 40
0.1232773619
 40
0.1384887615
 40
0.1536669979
 40
0.1688164255
 40
0.1839417028
 40
0.199047742
 40
0.2141396589
 40
0.2292227208
 40
0.2443022904
 40
0.2593837676
 40
0.2744725309
 40
0.2895738804
 40
0.3046929831
 40
0.319834818
 40
0.3350041228
 40
0.3502053439
 40
0.3654425945
 40
0.3807196143
 40
0.3960397325
 40
0.4114058354
 40
0.426820342
 40
0.4422851868
 40
0.4578018036
 40
0.4733711146
 40
0.4889935259
 40
0.5046689328
 40
0.520396725
 40
0.5361757955
 40
0.5520045539
 40
0.5678809505
 40
0.5838024983
 40
0.599766298
 40
0.6157690657
 40
0.6318071682
 40
0.6478766587
 40
0.663973312
 40
0.6800926609
 40
0.7123721235
 40
0.7446846192
 40
0.7769900058
 40
0.8092483936
 40
0.8253521889
 40
0.8414301118
 40
0.8574778627
 40
0.8734914072
 40
0.889467014
 40
0.9054013002
 40
0.9212912382
 40
0.9371342307
 40
0.9529281326
 40
0.9686709488
 40
0.9843622542
 40
1.0
 40
1.0
 40
1.0
 40
1.0
 10
10.2335747904
 20
7.6620570943
 30
0.0
 10
10.2335747904
 20
7.6664744223
 30
0.0
 10
10.2337909879
 20
7.675295855
 30
0.0
 10
10.234766799
 20
7.6884723985
 30
0.0
 10
10.2363914622
 20
7.7015407436
 30
0.0
 10
10.2386608969
 20
7.7144687953
 30
0.0
 10
10.2415698121
 20
7.7272256542
 30
0.0
 10
10.2451111748
 20
7.7397804836
 30
0.0
 10
10.2492764673
 20
7.7521030398
 30
0.0
 10
10.2540556854
 20
7.7641636081
 30
0.0
 10
10.2594373484
 20
7.7759330937
 30
0.0
 10
10.2654085071
 20
7.7873831064
 30
0.0
 10
10.2719547633
 20
7.7984860362
 30
0.0
 10
10.2790603479
 20
7.8092151005
 30
0.0
 10
10.2867081504
 20
7.8195444075
 30
0.0
 10
10.2948797477
 20
7.8294490255
 30
0.0
 10
10.3035554168
 20
7.8389050748
 30
0.0
 10
10.312714233
 20
7.8478897483
 30
0.0
 10
10.3223341112
 20
7.85638137
 30
0.0
 10
10.3323918607
 20
7.8643594408
 30
0.0
 10
10.3428632028
 20
7.8718047397
 30
0.0
 10
10.3537228698
 20
7.8786993282
 30
0.0
 10
10.3649446657
 20
7.8850265902
 30
0.0
 10
10.3765015306
 20
7.8907712619
 30
0.0
 10
10.3883655806
 20
7.8959195183
 30
0.0
 10
10.4005081928
 20
7.9004589859
 30
0.0
 10
10.4129000848
 20
7.9043787467
 30
0.0
 10
10.425511382
 20
7.9076693615
 30
0.0
 10
10.438311678
 20
7.9103229228
 30
0.0
 10
10.4512701111
 20
7.9123330902
 30
0.0
 10
10.4643554503
 20
7.913695054
 30
0.0
 10
10.477536165
 20
7.9144055537
 30
0.0
 10
10.4907804969
 20
7.9144628921
 30
0.0
 10
10.5040565384
 20
7.9138669884
 30
0.0
 10
10.5173323131
 20
7.9126193152
 30
0.0
 10
10.5305758495
 20
7.9107229023
 30
0.0
 10
10.543755252
 20
7.9081823221
 30
0.0
 10
10.5568387894
 20
7.9050037385
 30
0.0
 10
10.5697949659
 20
7.901194842
 30
0.0
 10
10.5825925925
 20
7.8967648253
 30
0.0
 10
10.5952008574
 20
7.891724353
 30
0.0
 10
10.6075894073
 20
7.88608559
 30
0.0
 10
10.6197284523
 20
7.8798621277
 30
0.0
 10
10.6315887022
 20
7.8730690278
 30
0.0
 10
10.6431418864
 20
7.8657223958
 30
0.0
 10
10.6581038594
 20
7.8552096903
 30
0.0
 10
10.6758983048
 20
7.8407765413
 30
0.0
 10
10.6955826648
 20
7.8215695067
 30
0.0
 10
10.7134250595
 20
7.800648091
 30
0.0
 10
10.726626065
 20
7.7819364019
 30
0.0
 10
10.7361022219
 20
7.7663156724
 30
0.0
 10
10.7426477288
 20
7.7543085376
 30
0.0
 10
10.7486184232
 20
7.7420341908
 30
0.0
 10
10.7540001242
 20
7.7295218691
 30
0.0
 10
10.7587798013
 20
7.7168017699
 30
0.0
 10
10.7629459591
 20
7.7039044968
 30
0.0
 10
10.7664885494
 20
7.6908611024
 30
0.0
 10
10.7693990089
 20
7.6777029602
 30
0.0
 10
10.7716702501
 20
7.6644618362
 30
0.0
 10
10.7732969195
 20
7.6511693483
 30
0.0
 10
10.7742748754
 20
7.6378581159
 30
0.0
 10
10.7744932852
 20
7.628976655
 30
0.0
 10
10.7744932852
 20
7.6245442693
 30
0.0
  0
SPLINE
  5
394
100
AcDbEntity
  8
0
100
AcDbSpline
 62
7
  6
CONTINUOUS
 70
0
 71
3
 72
21
 73
17
 74
0
 42
0.0000001
 43
0.0000001
 44
0.0000000001
 40
0.0
 40
0.0
 40
0.0
 40
0.0
 40
0.1273175725
 40
0.2538000026
 40
0.3167619332
 40
0.3795354925
 40
0.4421314982
 40
0.5045621433
 40
0.5668413429
 40
0.6289845306
 40
0.6910084612
 40
0.7529311022
 40
0.8147714553
 40
0.8765493457
 40
0.9382852283
 40
1.0
 40
1.0
 40
1.0
 40
1.0
 10
11.1454088244
 20
10.0744891937
 30
0.0
 10
11.1454088244
 20
10.0809875201
 30
0.0
 10
11.1460291319
 20
10.0939499105
 30
0.0
 10
11.148371811
 20
10.1099742273
 30
0.0
 10
11.1511718506
 20
10.1225439067
 30
0.0
 10
11.153725338
 20
10.1318153033
 30
0.0
 10
11.1567293239
 20
10.1409219726
 30
0.0
 10
11.1601769593
 20
10.1498431517
 30
0.0
 10
11.1640602637
 20
10.1585582142
 30
0.0
 10
11.1683703061
 20
10.167047078
 30
0.0
 10
11.1730971999
 20
10.1752901339
 30
0.0
 10
11.1782300287
 20
10.1832683871
 30
0.0
 10
11.1837569365
 20
10.1909634248
 30
0.0
 10
11.1896652768
 20
10.1983575346
 30
0.0
 10
11.1959411939
 20
10.2054334212
 30
0.0
 10
11.200361344
 20
10.2099285075
 30
0.0
 10
11.202626947
 20
10.2121169238
 30
0.0
  0
SPLINE
  5
395
100
AcDbEntity
  8
0
100
AcDbSpline
 62
7
  6
CONTINUOUS
 70
0
 71
3
 72
40
 73
36
 74
0
 42
0.0000001
 43
0.0000001
 44
0.0000000001
 40
0.0
 40
0.0
 40
0.0
 40
0.0
 40
0.0299423158
 40
0.0599090077
 40
0.0899238582
 40
0.1200094809
 40
0.1501867824
 40
0.1804744764
 40
0.2108886621
 40
0.2414424792
 40
0.2721458429
 40
0.3030052641
 40
0.334023754
 40
0.3652008103
 40
0.3965324817
 40
0.428011503
 40
0.4596274957
 40
0.4913672252
 40
0.5232149077
 40
0.5551525588
 40
0.5871603767
 40
0.6192171526
 40
0.651300701
 40
0.6833883044
 40
0.7154571648
 40
0.7474848565
 40
0.7794497737
 40
0.8113315676
 40
0.8431115609
 40
0.8747731558
 40
0.9063021431
 40
0.9376871977
 40
0.953325281
 40
0.9689248703
 40
1.0
 40
1.0
 40
1.0
 40
1.0
 10
10.6684840723
 20
7.508787953
 30
0.0
 10
10.6649836523
 20
7.5054068071
 30
0.0
 10
10.6577075664
 20
7.498917388
 30
0.0
 10
10.646050143
 20
7.4900767037
 30
0.0
 10
10.6337090107
 20
7.4821737079
 30
0.0
 10
10.6207531265
 20
7.4752527343
 30
0.0
 10
10.6072537209
 20
7.4693515934
 30
0.0
 10
10.5932852959
 20
7.4645027237
 30
0.0
 10
10.5789248256
 20
7.4607326552
 30
0.0
 10
10.5642514262
 20
7.4580619708
 30
0.0
 10
10.5493458866
 20
7.4565051773
 30
0.0
 10
10.5342902288
 20
7.4560706445
 30
0.0
 10
10.5191672552
 20
7.4567605674
 30
0.0
 10
10.5040600957
 20
7.4585709655
 30
0.0
 10
10.489051755
 20
7.4614917126
 30
0.0
 10
10.4742246619
 20
7.4655065996
 30
0.0
 10
10.4596602228
 20
7.4705934287
 30
0.0
 10
10.445438381
 20
7.476724139
 30
0.0
 10
10.4316371839
 20
7.4838649623
 30
0.0
 10
10.4183323607
 20
7.491976609
 30
0.0
 10
10.405596912
 20
7.5010144839
 30
0.0
 10
10.3935007147
 20
7.5109289304
 30
0.0
 10
10.3821101434
 20
7.5216655011
 30
0.0
 10
10.3714877097
 20
7.5331652539
 30
0.0
 10
10.3616917234
 20
7.5453650726
 30
0.0
 10
10.3527759753
 20
7.5581980104
 30
0.0
 10
10.3447894444
 20
7.5715936495
 30
0.0
 10
10.3377760312
 20
7.5854784982
 30
0.0
 10
10.3317743193
 20
7.599776332
 30
0.0
 10
10.326817354
 20
7.6144088178
 30
0.0
 10
10.3229325147
 20
7.6292951569
 30
0.0
 10
10.3206034712
 20
7.6418608462
 30
0.0
 10
10.3192969426
 20
7.651957217
 30
0.0
 10
10.3183645074
 20
7.662043929
 30
0.0
 10
10.3180821757
 20
7.6696341083
 30
0.0
 10
10.3180821757
 20
7.6746849652
 30
0.0
  0
SPLINE
  5
396
100
AcDbEntity
  8
0
100
AcDbSpline
 62
7
  6
CONTINUOUS
 70
0
 71
3
 72
21
 73
17
 74
0
 42
0.0000001
 43
0.0000001
 44
0.0000000001
 40
0.0
 40
0.0
 40
0.0
 40
0.0
 40
0.0617147807
 40
0.1234506636
 40
0.1852285506
 40
0.2470689066
 40
0.3089915473
 40
0.3710154718
 40
0.4331586568
 40
0.495437856
 40
0.5578685007
 40
0.6204644957
 40
0.6832380523
 40
0.7462000242
 40
0.8726823632
 40
1.0
 40
1.0
 40
1.0
 40
1.0
 10
10.375301002
 20
7.8123133841
 30
0.0
 10
10.3730353782
 20
7.8101249597
 30
0.0
 10
10.3686151685
 20
7.8056298744
 30
0.0
 10
10.3623391946
 20
7.7985539565
 30
0.0
 10
10.3564307672
 20
7.791159839
 30
0.0
 10
10.3509037897
 20
7.7834647756
 30
0.0
 10
10.345770911
 20
7.7754864823
 30
0.0
 10
10.3410439537
 20
7.7672433933
 30
0.0
 10
10.3367338467
 20
7.758754494
 30
0.0
 10
10.3328505043
 20
7.7500393811
 30
0.0
 10
10.3294028274
 20
7.7411181531
 30
0.0
 10
10.3263987907
 20
7.7320114363
 30
0.0
 10
10.3238452773
 20
7.722739981
 30
0.0
 10
10.3210452072
 20
7.7101702266
 30
0.0
 10
10.3187024882
 20
7.6941458094
 30
0.0
 10
10.3180821757
 20
7.6811833365
 30
0.0
 10
10.3180821757
 20
7.6746849652
 30
0.0
  0
SPLINE
  5
397
100
AcDbEntity
  8
0
100
AcDbSpline
 62
4
  6
CONTINUOUS
 70
0
 71
3
 72
387
 73
383
 74
0
 42
0.0000001
 43
0.0000001
 44
0.0000000001
 40
0.0
 40
0.0
 40
0.0
 40
0.0
 40
0.015625
 40
0.0234375
 40
0.03125
 40
0.0390625
 40
0.04296875
 40
0.046875
 40
0.05078125
 40
0.0546875
 40
0.056640625
 40
0.05859375
 40
0.0595703125
 40
0.060546875
 40
0.0615234375
 40
0.0620117188
 40
0.0625
 40
0.0629882812
 40
0.0634765625
 40
0.064453125
 40
0.0654296875
 40
0.06640625
 40
0.068359375
 40
0.0703125
 40
0.07421875
 40
0.078125
 40
0.08203125
 40
0.0859375
 40
0.09375
 40
0.1015625
 40
0.10546875
 40
0.109375
 40
0.11328125
 40
0.1171875
 40
0.119140625
 40
0.12109375
 40
0.1220703125
 40
0.123046875
 40
0.1240234375
 40
0.1245117188
 40
0.1247558594
 40
0.125
 40
0.1252441406
 40
0.1254882812
 40
0.1259765625
 40
0.126953125
 40
0.1279296875
 40
0.12890625
 40
0.130859375
 40
0.1328125
 40
0.13671875
 40
0.140625
 40
0.14453125
 40
0.1484375
 40
0.15625
 40
0.1640625
 40
0.16796875
 40
0.171875
 40
0.17578125
 40
0.1796875
 40
0.181640625
 40
0.18359375
 40
0.1845703125
 40
0.185546875
 40
0.1865234375
 40
0.1870117188
 40
0.1872558594
 40
0.1875
 40
0.1877441406
 40
0.1879882812
 40
0.1884765625
 40
0.189453125
 40
0.1904296875
 40
0.19140625
 40
0.193359375
 40
0.1953125
 40
0.19921875
 40
0.203125
 40
0.20703125
 40
0.2109375
 40
0.21875
 40
0.2265625
 40
0.23046875
 40
0.234375
 40
0.23828125
 40
0.2421875
 40
0.244140625
 40
0.24609375
 40
0.2470703125
 40
0.248046875
 40
0.2490234375
 40
0.2495117188
 40
0.2497558594
 40
0.25
 40
0.2502441406
 40
0.2504882812
 40
0.2509765625
 40
0.251953125
 40
0.2529296875
 40
0.25390625
 40
0.255859375
 40
0.2578125
 40
0.26171875
 40
0.265625
 40
0.26953125
 40
0.2734375
 40
0.28125
 40
0.2890625
 40
0.29296875
 40
0.296875
 40
0.30078125
 40
0.3046875
 40
0.306640625
 40
0.30859375
 40
0.3095703125
 40
0.310546875
 40
0.3115234375
 40
0.3120117188
 40
0.3122558594
 40
0.3125
 40
0.3127441406
 40
0.3129882812
 40
0.3134765625
 40
0.314453125
 40
0.3154296875
 40
0.31640625
 40
0.318359375
 40
0.3203125
 40
0.32421875
 40
0.328125
 40
0.33203125
 40
0.3359375
 40
0.34375
 40
0.3515625
 40
0.35546875
 40
0.359375
 40
0.36328125
 40
0.3671875
 40
0.369140625
 40
0.37109375
 40
0.3720703125
 40
0.373046875
 40
0.3740234375
 40
0.3745117188
 40
0.3747558594
 40
0.375
 40
0.3752441406
 40
0.3754882812
 40
0.3759765625
 40
0.376953125
 40
0.3779296875
 40
0.37890625
 40
0.380859375
 40
0.3828125
 40
0.38671875
 40
0.390625
 40
0.39453125
 40
0.3984375
 40
0.40625
 40
0.4140625
 40
0.41796875
 40
0.421875
 40
0.42578125
 40
0.4296875
 40
0.431640625
 40
0.43359375
 40
0.4345703125
 40
0.435546875
 40
0.4365234375
 40
0.4370117188
 40
0.4372558594
 40
0.4375
 40
0.4377441406
 40
0.4379882812
 40
0.4384765625
 40
0.439453125
 40
0.4404296875
 40
0.44140625
 40
0.443359375
 40
0.4453125
 40
0.44921875
 40
0.453125
 40
0.45703125
 40
0.4609375
 40
0.46875
 40
0.4765625
 40
0.48046875
 40
0.484375
 40
0.48828125
 40
0.4921875
 40
0.494140625
 40
0.49609375
 40
0.4970703125
 40
0.498046875
 40
0.4990234375
 40
0.4995117188
 40
0.4997558594
 40
0.5
 40
0.5002441406
 40
0.5004882812
 40
0.5009765625
 40
0.501953125
 40
0.5029296875
 40
0.50390625
 40
0.505859375
 40
0.5078125
 40
0.51171875
 40
0.515625
 40
0.51953125
 40
0.5234375
 40
0.53125
 40
0.5390625
 40
0.54296875
 40
0.546875
 40
0.55078125
 40
0.5546875
 40
0.556640625
 40
0.55859375
 40
0.5595703125
 40
0.560546875
 40
0.5615234375
 40
0.5620117188
 40
0.5625
 40
0.5629882812
 40
0.5634765625
 40
0.564453125
 40
0.5654296875
 40
0.56640625
 40
0.568359375
 40
0.5703125
 40
0.57421875
 40
0.578125
 40
0.58203125
 40
0.5859375
 40
0.59375
 40
0.6015625
 40
0.60546875
 40
0.609375
 40
0.61328125
 40
0.6171875
 40
0.619140625
 40
0.62109375
 40
0.6220703125
 40
0.623046875
 40
0.6240234375
 40
0.6245117188
 40
0.625
 40
0.6254882812
 40
0.6259765625
 40
0.626953125
 40
0.6279296875
 40
0.62890625
 40
0.630859375
 40
0.6328125
 40
0.63671875
 40
0.640625
 40
0.64453125
 40
0.6484375
 40
0.65625
 40
0.6640625
 40
0.66796875
 40
0.671875
 40
0.67578125
 40
0.6796875
 40
0.681640625
 40
0.68359375
 40
0.6845703125
 40
0.685546875
 40
0.6865234375
 40
0.6870117188
 40
0.6875
 40
0.6879882812
 40
0.6884765625
 40
0.689453125
 40
0.6904296875
 40
0.69140625
 40
0.693359375
 40
0.6953125
 40
0.69921875
 40
0.703125
 40
0.70703125
 40
0.7109375
 40
0.71875
 40
0.7265625
 40
0.73046875
 40
0.734375
 40
0.73828125
 40
0.7421875
 40
0.744140625
 40
0.74609375
 40
0.7470703125
 40
0.748046875
 40
0.7490234375
 40
0.7495117188
 40
0.75
 40
0.7504882812
 40
0.7509765625
 40
0.751953125
 40
0.7529296875
 40
0.75390625
 40
0.755859375
 40
0.7578125
 40
0.76171875
 40
0.765625
 40
0.76953125
 40
0.7734375
 40
0.78125
 40
0.7890625
 40
0.79296875
 40
0.796875
 40
0.80078125
 40
0.8046875
 40
0.806640625
 40
0.80859375
 40
0.8095703125
 40
0.810546875
 40
0.8115234375
 40
0.8120117188
 40
0.8125
 40
0.8129882812
 40
0.8134765625
 40
0.814453125
 40
0.8154296875
 40
0.81640625
 40
0.818359375
 40
0.8203125
 40
0.82421875
 40
0.828125
 40
0.83203125
 40
0.8359375
 40
0.84375
 40
0.8515625
 40
0.85546875
 40
0.859375
 40
0.86328125
 40
0.8671875
 40
0.869140625
 40
0.87109375
 40
0.8720703125
 40
0.873046875
 40
0.8740234375
 40
0.8745117188
 40
0.875
 40
0.8754882812
 40
0.8759765625
 40
0.876953125
 40
0.8779296875
 40
0.87890625
 40
0.880859375
 40
0.8828125
 40
0.88671875
 40
0.890625
 40
0.89453125
 40
0.8984375
 40
0.90625
 40
0.9140625
 40
0.91796875
 40
0.921875
 40
0.92578125
 40
0.9296875
 40
0.931640625
 40
0.93359375
 40
0.9345703125
 40
0.935546875
 40
0.9365234375
 40
0.9370117188
 40
0.9375
 40
0.9379882812
 40
0.9384765625
 40
0.939453125
 40
0.9404296875
 40
0.94140625
 40
0.943359375
 40
0.9453125
 40
0.94921875
 40
0.953125
 40
0.95703125
 40
0.9609375
 40
0.96875
 40
0.9765625
 40
0.984375
 40
1.0
 40
1.0
 40
1.0
 40
1.0
 10
10.3809750547
 20
8.8955609421
 30
0.0
 10
10.3841082416
 20
8.8956508666
 30
0.0
 10
10.388808022
 20
8.8957857532
 30
0.0
 10
10.3950743958
 20
8.895965602
 30
0.0
 10
10.3997741762
 20
8.8961004885
 30
0.0
 10
10.4036906598
 20
8.8962128945
 30
0.0
 10
10.4068238469
 20
8.896302818
 30
0.0
 10
10.4091737365
 20
8.8963702641
 30
0.0
 10
10.4115236288
 20
8.8964376969
 30
0.0
 10
10.4134818642
 20
8.8964939324
 30
0.0
 10
10.4150484707
 20
8.8965388278
 30
0.0
 10
10.4160275584
 20
8.8965670992
 30
0.0
 10
10.4168109233
 20
8.8965892312
 30
0.0
 10
10.4173981875
 20
8.8966071588
 30
0.0
 10
10.4178883999
 20
8.8966178717
 30
0.0
 10
10.4182787182
 20
8.8966359219
 30
0.0
 10
10.4185765164
 20
8.8966235562
 30
0.0
 10
10.4188550024
 20
8.8967100638
 30
0.0
 10
10.4192330631
 20
8.8967908695
 30
0.0
 10
10.4197033244
 20
8.8969037264
 30
0.0
 10
10.4202686287
 20
8.8970340826
 30
0.0
 10
10.4210220217
 20
8.8972096624
 30
0.0
 10
10.4219638814
 20
8.8974285306
 30
0.0
 10
10.4234707908
 20
8.8977790587
 30
0.0
 10
10.4253544502
 20
8.8982171025
 30
0.0
 10
10.4276148317
 20
8.898742805
 30
0.0
 10
10.4298752159
 20
8.8992684941
 30
0.0
 10
10.4328890605
 20
8.8999694175
 30
0.0
 10
10.4366563665
 20
8.9008455703
 30
0.0
 10
10.4404236726
 20
8.9017217235
 30
0.0
 10
10.4434375173
 20
8.9024226463
 30
0.0
 10
10.4456979012
 20
8.9029483373
 30
0.0
 10
10.4479582834
 20
8.9034740327
 30
0.0
 10
10.4498419409
 20
8.9039120982
 30
0.0
 10
10.4513488542
 20
8.9042625821
 30
0.0
 10
10.4522907038
 20
8.9044815628
 30
0.0
 10
10.4530441176
 20
8.9046569118
 30
0.0
 10
10.4536093584
 20
8.9047879732
 30
0.0
 10
10.4540798183
 20
8.9048986235
 30
0.0
 10
10.4544102668
 20
8.9049732676
 30
0.0
 10
10.4545973356
 20
8.9050203108
 30
0.0
 10
10.4547425921
 20
8.9050432279
 30
0.0
 10
10.4548689083
 20
8.9051134113
 30
0.0
 10
10.4550439364
 20
8.9051905022
 30
0.0
 10
10.4553471576
 20
8.9053330928
 30
0.0
 10
10.45578194
 20
8.9055327777
 30
0.0
 10
10.4563029901
 20
8.9057741185
 30
0.0
 10
10.456997964
 20
8.9060953058
 30
0.0
 10
10.4578665992
 20
8.9064969956
 30
0.0
 10
10.4592564614
 20
8.9071395843
 30
0.0
 10
10.4609937733
 20
8.9079428597
 30
0.0
 10
10.4630785545
 20
8.9089067732
 30
0.0
 10
10.4651633338
 20
8.9098706912
 30
0.0
 10
10.4679430402
 20
8.9111559136
 30
0.0
 10
10.471417673
 20
8.9127624423
 30
0.0
 10
10.4748923059
 20
8.9143689705
 30
0.0
 10
10.477672012
 20
8.9156541936
 30
0.0
 10
10.4797567922
 20
8.9166181097
 30
0.0
 10
10.4818415701
 20
8.9175820303
 30
0.0
 10
10.4835788922
 20
8.9183852836
 30
0.0
 10
10.4849687337
 20
8.9190279172
 30
0.0
 10
10.4858374215
 20
8.9194294929
 30
0.0
 10
10.4865322873
 20
8.9197509145
 30
0.0
 10
10.4870536679
 20
8.9199915396
 30
0.0
 10
10.487487416
 20
8.9201934637
 30
0.0
 10
10.4877924836
 20
8.9203320569
 30
0.0
 10
10.4879645533
 20
8.9204155526
 30
0.0
 10
10.4880999571
 20
8.9204660625
 30
0.0
 10
10.4882110821
 20
8.92056287
 30
0.0
 10
10.4883677175
 20
8.9206757976
 30
0.0
 10
10.4886378837
 20
8.920880945
 30
0.0
 10
10.4890258983
 20
8.9211700791
 30
0.0
 10
10.4894906328
 20
8.9215187237
 30
0.0
 10
10.4901105872
 20
8.921982995
 30
0.0
 10
10.4908854246
 20
8.9225635356
 30
0.0
 10
10.4921252235
 20
8.923492288
 30
0.0
 10
10.4936749519
 20
8.9246532671
 30
0.0
 10
10.4955346347
 20
8.9260464255
 30
0.0
 10
10.4973943151
 20
8.9274395883
 30
0.0
 10
10.4998738898
 20
8.9292971372
 30
0.0
 10
10.5029733579
 20
8.9316190739
 30
0.0
 10
10.5060728262
 20
8.9339410102
 30
0.0
 10
10.5085524005
 20
8.9357985596
 30
0.0
 10
10.5104120822
 20
8.9371917207
 30
0.0
 10
10.5122717602
 20
8.9385848853
 30
0.0
 10
10.5138215034
 20
8.9397458452
 30
0.0
 10
10.515061272
 20
8.9406746367
 30
0.0
 10
10.5158361866
 20
8.9412550778
 30
0.0
 10
10.5164559827
 20
8.9417195535
 30
0.0
 10
10.5169212008
 20
8.9420675738
 30
0.0
 10
10.5173077025
 20
8.9423586611
 30
0.0
 10
10.5175805694
 20
8.9425603216
 30
0.0
 10
10.5177328776
 20
8.9426788361
 30
0.0
 10
10.5178572944
 20
8.9427584825
 30
0.0
 10
10.5179427763
 20
8.942873447
 30
0.0
 10
10.5180703332
 20
8.9430144136
 30
0.0
 10
10.5182872302
 20
8.9432668451
 30
0.0
 10
10.5186003911
 20
8.9436244606
 30
0.0
 10
10.5189747682
 20
8.9440548837
 30
0.0
 10
10.5194744322
 20
8.9446283325
 30
0.0
 10
10.5200988429
 20
8.9453452971
 30
0.0
 10
10.5210979947
 20
8.9464923546
 30
0.0
 10
10.522346902
 20
8.947926206
 30
0.0
 10
10.5238456046
 20
8.9496468151
 30
0.0
 10
10.5253443036
 20
8.9513674275
 30
0.0
 10
10.5273425701
 20
8.9536615762
 30
0.0
 10
10.5298404028
 20
8.9565292625
 30
0.0
 10
10.5323382358
 20
8.9593969485
 30
0.0
 10
10.5343365017
 20
8.9616910976
 30
0.0
 10
10.5358352023
 20
8.9634117087
 30
0.0
 10
10.5373338989
 20
8.9651323227
 30
0.0
 10
10.538582825
 20
8.9665661586
 30
0.0
 10
10.5395819383
 20
8.9677132477
 30
0.0
 10
10.5402064469
 20
8.968430132
 30
0.0
 10
10.5407059101
 20
8.9690037457
 30
0.0
 10
10.5410809009
 20
8.9694336652
 30
0.0
 10
10.5413921416
 20
8.9697928562
 30
0.0
 10
10.5416124665
 20
8.9700424751
 30
0.0
 10
10.5417345308
 20
8.9701879482
 30
0.0
 10
10.5418368842
 20
8.9702890703
 30
0.0
 10
10.541897935
 20
8.9704207064
 30
0.0
 10
10.541993743
 20
8.9705855775
 30
0.0
 10
10.5421546945
 20
8.970879061
 30
0.0
 10
10.5423881345
 20
8.9712957305
 30
0.0
 10
10.5426667605
 20
8.9717968436
 30
0.0
 10
10.5430387864
 20
8.9724646068
 30
0.0
 10
10.5435036391
 20
8.9732994436
 30
0.0
 10
10.544247504
 20
8.9746351082
 30
0.0
 10
10.5451773005
 20
8.9763047145
 30
0.0
 10
10.5462930711
 20
8.9783082311
 30
0.0
 10
10.5474088378
 20
8.9803117506
 30
0.0
 10
10.5488965281
 20
8.9829831089
 30
0.0
 10
10.5507561405
 20
8.9863223071
 30
0.0
 10
10.5526157532
 20
8.9896615052
 30
0.0
 10
10.5541034429
 20
8.9923328638
 30
0.0
 10
10.5552192114
 20
8.9943363823
 30
0.0
 10
10.5563349754
 20
8.9963399029
 30
0.0
 10
10.5572647925
 20
8.9980094967
 30
0.0
 10
10.5580086155
 20
8.9993451866
 30
0.0
 10
10.5584735746
 20
9.000179959
 30
0.0
 10
10.5588453822
 20
9.0008478544
 30
0.0
 10
10.5591246751
 20
9.0013485637
 30
0.0
 10
10.5593560285
 20
9.0017664967
 30
0.0
 10
10.559520705
 20
9.0020577246
 30
0.0
 10
10.5596105445
 20
9.0022262098
 30
0.0
 10
10.5596899284
 20
9.0023467444
 30
0.0
 10
10.559723426
 20
9.0024895618
 30
0.0
 10
10.5597840951
 20
9.0026722125
 30
0.0
 10
10.5598828087
 20
9.0029954726
 30
0.0
 10
10.5600277269
 20
9.0034553795
 30
0.0
 10
10.5601999599
 20
9.0040080781
 30
0.0
 10
10.5604301868
 20
9.0047447265
 30
0.0
 10
10.5607177709
 20
9.005665634
 30
0.0
 10
10.561178017
 20
9.0071390317
 30
0.0
 10
10.5617532863
 20
9.0089807975
 30
0.0
 10
10.5624436258
 20
9.0111909085
 30
0.0
 10
10.563133961
 20
9.0134010216
 30
0.0
 10
10.5640544094
 20
9.0163478383
 30
0.0
 10
10.5652049694
 20
9.0200313595
 30
0.0
 10
10.5663555298
 20
9.0237148806
 30
0.0
 10
10.5672759776
 20
9.0266616976
 30
0.0
 10
10.5679663147
 20
9.0288718099
 30
0.0
 10
10.5686566471
 20
9.0310819239
 30
0.0
 10
10.5692319386
 20
9.0329236803
 30
0.0
 10
10.5696921393
 20
9.0343970972
 30
0.0
 10
10.5699798388
 20
9.0353179558
 30
0.0
 10
10.5702098289
 20
9.0360547045
 30
0.0
 10
10.5703827855
 20
9.0366070968
 30
0.0
 10
10.5705254397
 20
9.037067962
 30
0.0
 10
10.5706281949
 20
9.0373895114
 30
0.0
 10
10.5706823883
 20
9.037574903
 30
0.0
 10
10.5707357774
 20
9.0377093012
 30
0.0
 10
10.570740452
 20
9.0378614569
 30
0.0
 10
10.570763677
 20
9.0380581371
 30
0.0
 10
10.5707964038
 20
9.0384052134
 30
0.0
 10
10.5708472954
 20
9.0388995279
 30
0.0
 10
10.5709065937
 20
9.0394933511
 30
0.0
 10
10.5709862769
 20
9.0402848898
 30
0.0
 10
10.571085669
 20
9.0412743905
 30
0.0
 10
10.5712448148
 20
9.0428575483
 30
0.0
 10
10.5714437065
 20
9.0448365104
 30
0.0
 10
10.5716823938
 20
9.0472112585
 30
0.0
 10
10.5719210766
 20
9.0495860084
 30
0.0
 10
10.5722393218
 20
9.0527523409
 30
0.0
 10
10.5726371278
 20
9.0567102568
 30
0.0
 10
10.5730349342
 20
9.0606681726
 30
0.0
 10
10.5733531787
 20
9.0638345053
 30
0.0
 10
10.5735918635
 20
9.0662092548
 30
0.0
 10
10.5738305433
 20
9.0685840042
 30
0.0
 10
10.5740294583
 20
9.0705629624
 30
0.0
 10
10.5741885565
 20
9.0721461283
 30
0.0
 10
10.5742880698
 20
9.0731356084
 30
0.0
 10
10.5743675043
 20
9.0739271891
 30
0.0
 10
10.5744275623
 20
9.0745208838
 30
0.0
 10
10.5744760772
 20
9.0750156004
 30
0.0
 10
10.5745130468
 20
9.075361959
 30
0.0
 10
10.5745294737
 20
9.0755597892
 30
0.0
 10
10.57455503
 20
9.0757084124
 30
0.0
 10
10.5745299909
 20
9.0758560778
 30
0.0
 10
10.5745142536
 20
9.0760532992
 30
0.0
 10
10.5744784907
 20
9.0763982808
 30
0.0
 10
10.5744316997
 20
9.0768911931
 30
0.0
 10
10.5743737105
 20
9.0774826531
 30
0.0
 10
10.5742970343
 20
9.0782712785
 30
0.0
 10
10.5742009689
 20
9.0792570561
 30
0.0
 10
10.5740473874
 20
9.0808343027
 30
0.0
 10
10.5738553682
 20
9.08280586
 30
0.0
 10
10.5736249633
 20
9.0851717292
 30
0.0
 10
10.5733945535
 20
9.0875375982
 30
0.0
 10
10.5730873422
 20
9.0906920904
 30
0.0
 10
10.5727033275
 20
9.0946352055
 30
0.0
 10
10.5723193126
 20
9.0985783206
 30
0.0
 10
10.5720121018
 20
9.1017328128
 30
0.0
 10
10.5717816903
 20
9.1040986816
 30
0.0
 10
10.5715512919
 20
9.106464552
 30
0.0
 10
10.5713592523
 20
9.1084361054
 30
0.0
 10
10.5712057124
 20
9.11001336
 30
0.0
 10
10.571109541
 20
9.1109991172
 30
0.0
 10
10.5710330825
 20
9.1117877845
 30
0.0
 10
10.570974428
 20
9.1123791164
 30
0.0
 10
10.5709297187
 20
9.1128724294
 30
0.0
 10
10.5708845998
 20
9.1132658767
 30
0.0
 10
10.5708763131
 20
9.1135642496
 30
0.0
 10
10.5707704925
 20
9.1138500743
 30
0.0
 10
10.5706634682
 20
9.1142355571
 30
0.0
 10
10.5705179986
 20
9.1147159068
 30
0.0
 10
10.5703484384
 20
9.1152929701
 30
0.0
 10
10.5701206106
 20
9.116062163
 30
0.0
 10
10.5698364242
 20
9.1170237311
 30
0.0
 10
10.5693813916
 20
9.1185621971
 30
0.0
 10
10.5688127155
 20
9.1204852943
 30
0.0
 10
10.5681302551
 20
9.1227930046
 30
0.0
 10
10.5674478078
 20
9.1251007167
 30
0.0
 10
10.5665378735
 20
9.1281776654
 30
0.0
 10
10.5654004573
 20
9.1320238517
 30
0.0
 10
10.5642630401
 20
9.1358700376
 30
0.0
 10
10.5633531075
 20
9.1389469868
 30
0.0
 10
10.5626706549
 20
9.1412546976
 30
0.0
 10
10.5619882146
 20
9.1435624126
 30
0.0
 10
10.5614194758
 20
9.1454854952
 30
0.0
 10
10.5609645712
 20
9.147023991
 30
0.0
 10
10.5606800589
 20
9.1479854833
 30
0.0
 10
10.5604529002
 20
9.1487548318
 30
0.0
 10
10.5602812958
 20
9.1493314197
 30
0.0
 10
10.5601422219
 20
9.1498132568
 30
0.0
 10
10.5600221492
 20
9.150195705
 30
0.0
 10
10.5599561777
 20
9.1504907973
 30
0.0
 10
10.5597982808
 20
9.1507543757
 30
0.0
 10
10.5596198624
 20
9.1511168219
 30
0.0
 10
10.5593858223
 20
9.1515661027
 30
0.0
 10
10.5591096899
 20
9.1521068562
 30
0.0
 10
10.5587398662
 20
9.1528272964
 30
0.0
 10
10.5582781506
 20
9.1537280398
 30
0.0
 10
10.5575390904
 20
9.1551691214
 30
0.0
 10
10.5566153734
 20
9.1569705103
 30
0.0
 10
10.5555068666
 20
9.1591321612
 30
0.0
 10
10.5543983721
 20
9.1612938164
 30
0.0
 10
10.5529203752
 20
9.1641760217
 30
0.0
 10
10.5510728807
 20
9.167778779
 30
0.0
 10
10.5492253851
 20
9.1713815358
 30
0.0
 10
10.5477473899
 20
9.1742637418
 30
0.0
 10
10.5466388904
 20
9.1764253949
 30
0.0
 10
10.5455304029
 20
9.1785870536
 30
0.0
 10
10.5446066257
 20
9.1803884181
 30
0.0
 10
10.5438676881
 20
9.1818295496
 30
0.0
 10
10.5434056607
 20
9.1827301659
 30
0.0
 10
10.5430364769
 20
9.183450867
 30
0.0
 10
10.5427583897
 20
9.1839908233
 30
0.0
 10
10.5425304656
 20
9.1844425985
 30
0.0
 10
10.5423395695
 20
9.1847999555
 30
0.0
 10
10.5422197788
 20
9.1850790759
 30
0.0
 10
10.542010741
 20
9.1853158175
 30
0.0
 10
10.541763199
 20
9.1856462763
 30
0.0
 10
10.5414430756
 20
9.186054271
 30
0.0
 10
10.5410635057
 20
9.1865460385
 30
0.0
 10
10.5405558135
 20
9.1872009692
 30
0.0
 10
10.5399217457
 20
9.1880198925
 30
0.0
 10
10.5389069313
 20
9.1893300246
 30
0.0
 10
10.5376385182
 20
9.1909677395
 30
0.0
 10
10.5361163775
 20
9.1929329761
 30
0.0
 10
10.5345942488
 20
9.1948982183
 30
0.0
 10
10.5325647397
 20
9.1975185394
 30
0.0
 10
10.5300278549
 20
9.2007939414
 30
0.0
 10
10.5274909692
 20
9.2040693428
 30
0.0
 10
10.5254614616
 20
9.2066896649
 30
0.0
 10
10.5239393285
 20
9.2086549039
 30
0.0
 10
10.5224172043
 20
9.2106201528
 30
0.0
 10
10.52114874
 20
9.2122578294
 30
0.0
 10
10.52013403
 20
9.2135680397
 30
0.0
 10
10.5194996964
 20
9.2143867639
 30
0.0
 10
10.5189925498
 20
9.2150421034
 30
0.0
 10
10.5186113129
 20
9.2155326221
 30
0.0
 10
10.518296405
 20
9.2159445238
 30
0.0
 10
10.5180382225
 20
9.2162670115
 30
0.0
 10
10.5178616803
 20
9.2165280967
 30
0.0
 10
10.5176198878
 20
9.2167158206
 30
0.0
 10
10.5173202905
 20
9.2169917453
 30
0.0
 10
10.5169379739
 20
9.2173278589
 30
0.0
 10
10.5164825412
 20
9.2177349585
 30
0.0
 10
10.5158741285
 20
9.2182764436
 30
0.0
 10
10.5151140129
 20
9.21895375
 30
0.0
 10
10.5138976042
 20
9.2200371887
 30
0.0
 10
10.5123771701
 20
9.2213915734
 30
0.0
 10
10.5105526163
 20
9.223016798
 30
0.0
 10
10.5087280712
 20
9.2246420326
 30
0.0
 10
10.5062953415
 20
9.2268090085
 30
0.0
 10
10.5032544304
 20
9.2295177297
 30
0.0
 10
10.5002135186
 20
9.23222645
 30
0.0
 10
10.4977807899
 20
9.2343934273
 30
0.0
 10
10.4959562415
 20
9.2360186575
 30
0.0
 10
10.4941317005
 20
9.2376438984
 30
0.0
 10
10.4926112264
 20
9.2389982326
 30
0.0
 10
10.4913948992
 20
9.2400817742
 30
0.0
 10
10.4906345762
 20
9.2407588189
 30
0.0
 10
10.4900265893
 20
9.2413008412
 30
0.0
 10
10.4895698558
 20
9.2417062993
 30
0.0
 10
10.489191609
 20
9.242047549
 30
0.0
 10
10.4888837085
 20
9.2423129949
 30
0.0
 10
10.4886672737
 20
9.2425327203
 30
0.0
 10
10.4883955279
 20
9.2426736587
 30
0.0
 10
10.488052521
 20
9.242889098
 30
0.0
 10
10.4876171335
 20
9.2431489546
 30
0.0
 10
10.4870975059
 20
9.2434648243
 30
0.0
 10
10.486403678
 20
9.2438845721
 30
0.0
 10
10.4855367325
 20
9.2444097403
 30
0.0
 10
10.48414943
 20
9.2452497392
 30
0.0
 10
10.482415367
 20
9.2462998305
 30
0.0
 10
10.4803344635
 20
9.2475599004
 30
0.0
 10
10.4782535674
 20
9.2488199809
 30
0.0
 10
10.4754790367
 20
9.2505000845
 30
0.0
 10
10.4720108743
 20
9.2526002154
 30
0.0
 10
10.4685427114
 20
9.2547003453
 30
0.0
 10
10.4657681815
 20
9.2563804505
 30
0.0
 10
10.4636872828
 20
9.2576405262
 30
0.0
 10
10.4616063893
 20
9.258900614
 30
0.0
 10
10.4598722953
 20
9.2599506496
 30
0.0
 10
10.458485056
 20
9.2607907621
 30
0.0
 10
10.4576179496
 20
9.2613156413
 30
0.0
 10
10.456924452
 20
9.2617359822
 30
0.0
 10
10.4564038153
 20
9.26205004
 30
0.0
 10
10.4559715848
 20
9.2623155655
 30
0.0
 10
10.455622137
 20
9.2625194391
 30
0.0
 10
10.4553700614
 20
9.2626956984
 30
0.0
 10
10.4550797763
 20
9.2627828149
 30
0.0
 10
10.4547060766
 20
9.262930109
 30
0.0
 10
10.4542343727
 20
9.2631035432
 30
0.0
 10
10.453670288
 20
9.263316237
 30
0.0
 10
10.4529174906
 20
9.2635982315
 30
0.0
 10
10.4519767281
 20
9.2639512716
 30
0.0
 10
10.4504713772
 20
9.26451583
 30
0.0
 10
10.4485897335
 20
9.265221633
 30
0.0
 10
10.4463317418
 20
9.2660685516
 30
0.0
 10
10.4440737552
 20
9.2669154822
 30
0.0
 10
10.4410631047
 20
9.2680447187
 30
0.0
 10
10.4372997922
 20
9.2694562661
 30
0.0
 10
10.4335364793
 20
9.2708678123
 30
0.0
 10
10.4305258294
 20
9.2719970506
 30
0.0
 10
10.4282678409
 20
9.272843976
 30
0.0
 10
10.4260098563
 20
9.2736909142
 30
0.0
 10
10.4241281904
 20
9.274396656
 30
0.0
 10
10.4226228848
 20
9.2749613392
 30
0.0
 10
10.4216820071
 20
9.2753140617
 30
0.0
 10
10.4209294462
 20
9.2755967082
 30
0.0
 10
10.4203646389
 20
9.2758074103
 30
0.0
 10
10.4198951958
 20
9.275987076
 30
0.0
 10
10.4195168835
 20
9.2761216565
 30
0.0
 10
10.4192406851
 20
9.2762475996
 30
0.0
 10
10.4189357221
 20
9.2762780876
 30
0.0
 10
10.4185391526
 20
9.276352082
 30
0.0
 10
10.4180399934
 20
9.2764331349
 30
0.0
 10
10.417442478
 20
9.2765352951
 30
0.0
 10
10.4166452753
 20
9.2766697984
 30
0.0
 10
10.4156489484
 20
9.2768385131
 30
0.0
 10
10.4140547267
 20
9.2771081293
 30
0.0
 10
10.4120619835
 20
9.2774452619
 30
0.0
 10
10.4096706771
 20
9.2778497729
 30
0.0
 10
10.4072793746
 20
9.2782542967
 30
0.0
 10
10.4040909699
 20
9.2787936574
 30
0.0
 10
10.4001054644
 20
9.2794678597
 30
0.0
 10
10.3953228577
 20
9.2802769019
 30
0.0
 10
10.3889460489
 20
9.281355625
 30
0.0
 10
10.3841634422
 20
9.2821646672
 30
0.0
 10
10.3809750378
 20
9.2827040288
 30
0.0
  0
SPLINE
  5
398
100
AcDbEntity
  8
0
100
AcDbSpline
 62
4
  6
CONTINUOUS
 70
0
 71
3
 72
387
 73
383
 74
0
 42
0.0000001
 43
0.0000001
 44
0.0000000001
 40
0.0
 40
0.0
 40
0.0
 40
0.0
 40
0.015625
 40
0.0234375
 40
0.03125
 40
0.0390625
 40
0.04296875
 40
0.046875
 40
0.05078125
 40
0.0546875
 40
0.056640625
 40
0.05859375
 40
0.0595703125
 40
0.060546875
 40
0.0615234375
 40
0.0620117188
 40
0.0625
 40
0.0629882812
 40
0.0634765625
 40
0.064453125
 40
0.0654296875
 40
0.06640625
 40
0.068359375
 40
0.0703125
 40
0.07421875
 40
0.078125
 40
0.08203125
 40
0.0859375
 40
0.09375
 40
0.1015625
 40
0.10546875
 40
0.109375
 40
0.11328125
 40
0.1171875
 40
0.119140625
 40
0.12109375
 40
0.1220703125
 40
0.123046875
 40
0.1240234375
 40
0.1245117188
 40
0.1247558594
 40
0.125
 40
0.1252441406
 40
0.1254882812
 40
0.1259765625
 40
0.126953125
 40
0.1279296875
 40
0.12890625
 40
0.130859375
 40
0.1328125
 40
0.13671875
 40
0.140625
 40
0.14453125
 40
0.1484375
 40
0.15625
 40
0.1640625
 40
0.16796875
 40
0.171875
 40
0.17578125
 40
0.1796875
 40
0.181640625
 40
0.18359375
 40
0.1845703125
 40
0.185546875
 40
0.1865234375
 40
0.1870117188
 40
0.1872558594
 40
0.1875
 40
0.1877441406
 40
0.1879882812
 40
0.1884765625
 40
0.189453125
 40
0.1904296875
 40
0.19140625
 40
0.193359375
 40
0.1953125
 40
0.19921875
 40
0.203125
 40
0.20703125
 40
0.2109375
 40
0.21875
 40
0.2265625
 40
0.23046875
 40
0.234375
 40
0.23828125
 40
0.2421875
 40
0.244140625
 40
0.24609375
 40
0.2470703125
 40
0.248046875
 40
0.2490234375
 40
0.2495117188
 40
0.2497558594
 40
0.25
 40
0.2502441406
 40
0.2504882812
 40
0.2509765625
 40
0.251953125
 40
0.2529296875
 40
0.25390625
 40
0.255859375
 40
0.2578125
 40
0.26171875
 40
0.265625
 40
0.26953125
 40
0.2734375
 40
0.28125
 40
0.2890625
 40
0.29296875
 40
0.296875
 40
0.30078125
 40
0.3046875
 40
0.306640625
 40
0.30859375
 40
0.3095703125
 40
0.310546875
 40
0.3115234375
 40
0.3120117188
 40
0.3122558594
 40
0.3125
 40
0.3127441406
 40
0.3129882812
 40
0.3134765625
 40
0.314453125
 40
0.3154296875
 40
0.31640625
 40
0.318359375
 40
0.3203125
 40
0.32421875
 40
0.328125
 40
0.33203125
 40
0.3359375
 40
0.34375
 40
0.3515625
 40
0.35546875
 40
0.359375
 40
0.36328125
 40
0.3671875
 40
0.369140625
 40
0.37109375
 40
0.3720703125
 40
0.373046875
 40
0.3740234375
 40
0.3745117188
 40
0.3747558594
 40
0.375
 40
0.3752441406
 40
0.3754882812
 40
0.3759765625
 40
0.376953125
 40
0.3779296875
 40
0.37890625
 40
0.380859375
 40
0.3828125
 40
0.38671875
 40
0.390625
 40
0.39453125
 40
0.3984375
 40
0.40625
 40
0.4140625
 40
0.41796875
 40
0.421875
 40
0.42578125
 40
0.4296875
 40
0.431640625
 40
0.43359375
 40
0.4345703125
 40
0.435546875
 40
0.4365234375
 40
0.4370117188
 40
0.4372558594
 40
0.4375
 40
0.4377441406
 40
0.4379882812
 40
0.4384765625
 40
0.439453125
 40
0.4404296875
 40
0.44140625
 40
0.443359375
 40
0.4453125
 40
0.44921875
 40
0.453125
 40
0.45703125
 40
0.4609375
 40
0.46875
 40
0.4765625
 40
0.48046875
 40
0.484375
 40
0.48828125
 40
0.4921875
 40
0.494140625
 40
0.49609375
 40
0.4970703125
 40
0.498046875
 40
0.4990234375
 40
0.4995117188
 40
0.4997558594
 40
0.5
 40
0.5002441406
 40
0.5004882812
 40
0.5009765625
 40
0.501953125
 40
0.5029296875
 40
0.50390625
 40
0.505859375
 40
0.5078125
 40
0.51171875
 40
0.515625
 40
0.51953125
 40
0.5234375
 40
0.53125
 40
0.5390625
 40
0.54296875
 40
0.546875
 40
0.55078125
 40
0.5546875
 40
0.556640625
 40
0.55859375
 40
0.5595703125
 40
0.560546875
 40
0.5615234375
 40
0.5620117188
 40
0.5625
 40
0.5629882812
 40
0.5634765625
 40
0.564453125
 40
0.5654296875
 40
0.56640625
 40
0.568359375
 40
0.5703125
 40
0.57421875
 40
0.578125
 40
0.58203125
 40
0.5859375
 40
0.59375
 40
0.6015625
 40
0.60546875
 40
0.609375
 40
0.61328125
 40
0.6171875
 40
0.619140625
 40
0.62109375
 40
0.6220703125
 40
0.623046875
 40
0.6240234375
 40
0.6245117188
 40
0.625
 40
0.6254882812
 40
0.6259765625
 40
0.626953125
 40
0.6279296875
 40
0.62890625
 40
0.630859375
 40
0.6328125
 40
0.63671875
 40
0.640625
 40
0.64453125
 40
0.6484375
 40
0.65625
 40
0.6640625
 40
0.66796875
 40
0.671875
 40
0.67578125
 40
0.6796875
 40
0.681640625
 40
0.68359375
 40
0.6845703125
 40
0.685546875
 40
0.6865234375
 40
0.6870117188
 40
0.6875
 40
0.6879882812
 40
0.6884765625
 40
0.689453125
 40
0.6904296875
 40
0.69140625
 40
0.693359375
 40
0.6953125
 40
0.69921875
 40
0.703125
 40
0.70703125
 40
0.7109375
 40
0.71875
 40
0.7265625
 40
0.73046875
 40
0.734375
 40
0.73828125
 40
0.7421875
 40
0.744140625
 40
0.74609375
 40
0.7470703125
 40
0.748046875
 40
0.7490234375
 40
0.7495117188
 40
0.75
 40
0.7504882812
 40
0.7509765625
 40
0.751953125
 40
0.7529296875
 40
0.75390625
 40
0.755859375
 40
0.7578125
 40
0.76171875
 40
0.765625
 40
0.76953125
 40
0.7734375
 40
0.78125
 40
0.7890625
 40
0.79296875
 40
0.796875
 40
0.80078125
 40
0.8046875
 40
0.806640625
 40
0.80859375
 40
0.8095703125
 40
0.810546875
 40
0.8115234375
 40
0.8120117188
 40
0.8125
 40
0.8129882812
 40
0.8134765625
 40
0.814453125
 40
0.8154296875
 40
0.81640625
 40
0.818359375
 40
0.8203125
 40
0.82421875
 40
0.828125
 40
0.83203125
 40
0.8359375
 40
0.84375
 40
0.8515625
 40
0.85546875
 40
0.859375
 40
0.86328125
 40
0.8671875
 40
0.869140625
 40
0.87109375
 40
0.8720703125
 40
0.873046875
 40
0.8740234375
 40
0.8745117188
 40
0.875
 40
0.8754882812
 40
0.8759765625
 40
0.876953125
 40
0.8779296875
 40
0.87890625
 40
0.880859375
 40
0.8828125
 40
0.88671875
 40
0.890625
 40
0.89453125
 40
0.8984375
 40
0.90625
 40
0.9140625
 40
0.91796875
 40
0.921875
 40
0.92578125
 40
0.9296875
 40
0.931640625
 40
0.93359375
 40
0.9345703125
 40
0.935546875
 40
0.9365234375
 40
0.9370117188
 40
0.9375
 40
0.9379882812
 40
0.9384765625
 40
0.939453125
 40
0.9404296875
 40
0.94140625
 40
0.943359375
 40
0.9453125
 40
0.94921875
 40
0.953125
 40
0.95703125
 40
0.9609375
 40
0.96875
 40
0.9765625
 40
0.984375
 40
1.0
 40
1.0
 40
1.0
 40
1.0
 10
10.3809750547
 20
9.2827040276
 30
0.0
 10
10.3778418678
 20
9.2826141032
 30
0.0
 10
10.3731420874
 20
9.2824792166
 30
0.0
 10
10.3668757136
 20
9.2822993677
 30
0.0
 10
10.3621759332
 20
9.2821644812
 30
0.0
 10
10.3582594496
 20
9.2820520753
 30
0.0
 10
10.3551262625
 20
9.2819621518
 30
0.0
 10
10.3527763729
 20
9.2818947057
 30
0.0
 10
10.3504264806
 20
9.2818272729
 30
0.0
 10
10.3484682452
 20
9.2817710374
 30
0.0
 10
10.3469016387
 20
9.281726142
 30
0.0
 10
10.345922551
 20
9.2816978705
 30
0.0
 10
10.3451391861
 20
9.2816757386
 30
0.0
 10
10.3445519219
 20
9.281657811
 30
0.0
 10
10.3440617095
 20
9.281647098
 30
0.0
 10
10.3436713912
 20
9.2816290479
 30
0.0
 10
10.343373593
 20
9.2816414135
 30
0.0
 10
10.343095107
 20
9.281554906
 30
0.0
 10
10.3427170463
 20
9.2814741002
 30
0.0
 10
10.342246785
 20
9.2813612434
 30
0.0
 10
10.3416814807
 20
9.2812308872
 30
0.0
 10
10.3409280877
 20
9.2810553074
 30
0.0
 10
10.339986228
 20
9.2808364392
 30
0.0
 10
10.3384793187
 20
9.280485911
 30
0.0
 10
10.3365956593
 20
9.2800478672
 30
0.0
 10
10.3343352777
 20
9.2795221648
 30
0.0
 10
10.3320748936
 20
9.2789964757
 30
0.0
 10
10.329061049
 20
9.2782955522
 30
0.0
 10
10.3252937429
 20
9.2774193995
 30
0.0
 10
10.3215264368
 20
9.2765432463
 30
0.0
 10
10.3185125922
 20
9.2758423235
 30
0.0
 10
10.3162522082
 20
9.2753166325
 30
0.0
 10
10.313991826
 20
9.274790937
 30
0.0
 10
10.3121081686
 20
9.2743528715
 30
0.0
 10
10.3106012552
 20
9.2740023876
 30
0.0
 10
10.3096594056
 20
9.273783407
 30
0.0
 10
10.3089059918
 20
9.273608058
 30
0.0
 10
10.3083407511
 20
9.2734769966
 30
0.0
 10
10.3078702911
 20
9.2733663462
 30
0.0
 10
10.3075398426
 20
9.2732917022
 30
0.0
 10
10.3073527739
 20
9.273244659
 30
0.0
 10
10.3072075174
 20
9.2732217418
 30
0.0
 10
10.3070812012
 20
9.2731515584
 30
0.0
 10
10.306906173
 20
9.2730744675
 30
0.0
 10
10.3066029518
 20
9.2729318769
 30
0.0
 10
10.3061681694
 20
9.2727321921
 30
0.0
 10
10.3056471194
 20
9.2724908512
 30
0.0
 10
10.3049521454
 20
9.2721696639
 30
0.0
 10
10.3040835103
 20
9.2717679741
 30
0.0
 10
10.3026936481
 20
9.2711253854
 30
0.0
 10
10.3009563361
 20
9.2703221101
 30
0.0
 10
10.298871555
 20
9.2693581966
 30
0.0
 10
10.2967867756
 20
9.2683942786
 30
0.0
 10
10.2940070692
 20
9.2671090561
 30
0.0
 10
10.2905324365
 20
9.2655025275
 30
0.0
 10
10.2870578035
 20
9.2638959992
 30
0.0
 10
10.2842780974
 20
9.2626107762
 30
0.0
 10
10.2821933172
 20
9.26164686
 30
0.0
 10
10.2801085394
 20
9.2606829394
 30
0.0
 10
10.2783712172
 20
9.2598796861
 30
0.0
 10
10.2769813757
 20
9.2592370525
 30
0.0
 10
10.2761126879
 20
9.2588354769
 30
0.0
 10
10.2754178221
 20
9.2585140553
 30
0.0
 10
10.2748964415
 20
9.2582734302
 30
0.0
 10
10.2744626934
 20
9.2580715061
 30
0.0
 10
10.2741576258
 20
9.2579329128
 30
0.0
 10
10.2739855561
 20
9.2578494172
 30
0.0
 10
10.2738501523
 20
9.2577989073
 30
0.0
 10
10.2737390273
 20
9.2577020997
 30
0.0
 10
10.2735823919
 20
9.2575891722
 30
0.0
 10
10.2733122257
 20
9.2573840247
 30
0.0
 10
10.2729242112
 20
9.2570948907
 30
0.0
 10
10.2724594767
 20
9.2567462461
 30
0.0
 10
10.2718395222
 20
9.2562819747
 30
0.0
 10
10.2710646848
 20
9.2557014341
 30
0.0
 10
10.2698248859
 20
9.2547726817
 30
0.0
 10
10.2682751575
 20
9.2536117026
 30
0.0
 10
10.2664154748
 20
9.2522185442
 30
0.0
 10
10.2645557943
 20
9.2508253814
 30
0.0
 10
10.2620762196
 20
9.2489678325
 30
0.0
 10
10.2589767516
 20
9.2466458959
 30
0.0
 10
10.2558772832
 20
9.2443239596
 30
0.0
 10
10.2533977089
 20
9.2424664102
 30
0.0
 10
10.2515380272
 20
9.241073249
 30
0.0
 10
10.2496783493
 20
9.2396800845
 30
0.0
 10
10.248128606
 20
9.2385191245
 30
0.0
 10
10.2468888374
 20
9.237590333
 30
0.0
 10
10.2461139229
 20
9.237009892
 30
0.0
 10
10.2454941267
 20
9.2365454163
 30
0.0
 10
10.2450289087
 20
9.2361973959
 30
0.0
 10
10.2446424069
 20
9.2359063086
 30
0.0
 10
10.24436954
 20
9.2357046481
 30
0.0
 10
10.2442172319
 20
9.2355861336
 30
0.0
 10
10.2440928151
 20
9.2355064873
 30
0.0
 10
10.2440073331
 20
9.2353915228
 30
0.0
 10
10.2438797762
 20
9.2352505561
 30
0.0
 10
10.2436628793
 20
9.2349981247
 30
0.0
 10
10.2433497184
 20
9.2346405091
 30
0.0
 10
10.2429753413
 20
9.2342100861
 30
0.0
 10
10.2424756772
 20
9.2336366373
 30
0.0
 10
10.2418512665
 20
9.2329196726
 30
0.0
 10
10.2408521147
 20
9.2317726151
 30
0.0
 10
10.2396032074
 20
9.2303387637
 30
0.0
 10
10.2381045048
 20
9.2286181547
 30
0.0
 10
10.2366058059
 20
9.2268975423
 30
0.0
 10
10.2346075393
 20
9.2246033936
 30
0.0
 10
10.2321097067
 20
9.2217357073
 30
0.0
 10
10.2296118737
 20
9.2188680213
 30
0.0
 10
10.2276136077
 20
9.2165738721
 30
0.0
 10
10.2261149071
 20
9.214853261
 30
0.0
 10
10.2246162106
 20
9.213132647
 30
0.0
 10
10.2233672844
 20
9.2116988111
 30
0.0
 10
10.2223681711
 20
9.210551722
 30
0.0
 10
10.2217436625
 20
9.2098348377
 30
0.0
 10
10.2212441994
 20
9.2092612241
 30
0.0
 10
10.2208692085
 20
9.2088313046
 30
0.0
 10
10.2205579679
 20
9.2084721135
 30
0.0
 10
10.2203376429
 20
9.2082224946
 30
0.0
 10
10.2202155786
 20
9.2080770215
 30
0.0
 10
10.2201132253
 20
9.2079758994
 30
0.0
 10
10.2200521744
 20
9.2078442634
 30
0.0
 10
10.2199563665
 20
9.2076793923
 30
0.0
 10
10.2197954149
 20
9.2073859088
 30
0.0
 10
10.2195619749
 20
9.2069692393
 30
0.0
 10
10.219283349
 20
9.2064681261
 30
0.0
 10
10.218911323
 20
9.2058003629
 30
0.0
 10
10.2184464703
 20
9.2049655262
 30
0.0
 10
10.2177026055
 20
9.2036298615
 30
0.0
 10
10.2167728089
 20
9.2019602553
 30
0.0
 10
10.2156570383
 20
9.1999567387
 30
0.0
 10
10.2145412716
 20
9.1979532192
 30
0.0
 10
10.2130535813
 20
9.1952818609
 30
0.0
 10
10.2111939689
 20
9.1919426626
 30
0.0
 10
10.2093343562
 20
9.1886034646
 30
0.0
 10
10.2078466665
 20
9.1859321059
 30
0.0
 10
10.2067308981
 20
9.1839285875
 30
0.0
 10
10.205615134
 20
9.1819250669
 30
0.0
 10
10.204685317
 20
9.1802554731
 30
0.0
 10
10.2039414939
 20
9.1789197831
 30
0.0
 10
10.2034765348
 20
9.1780850108
 30
0.0
 10
10.2031047272
 20
9.1774171153
 30
0.0
 10
10.2028254343
 20
9.1769164061
 30
0.0
 10
10.202594081
 20
9.176498473
 30
0.0
 10
10.2024294044
 20
9.1762072452
 30
0.0
 10
10.2023395649
 20
9.1760387599
 30
0.0
 10
10.202260181
 20
9.1759182254
 30
0.0
 10
10.2022266834
 20
9.175775408
 30
0.0
 10
10.2021660143
 20
9.1755927572
 30
0.0
 10
10.2020673007
 20
9.1752694971
 30
0.0
 10
10.2019223825
 20
9.1748095903
 30
0.0
 10
10.2017501495
 20
9.1742568917
 30
0.0
 10
10.2015199226
 20
9.1735202433
 30
0.0
 10
10.2012323385
 20
9.1725993358
 30
0.0
 10
10.2007720925
 20
9.171125938
 30
0.0
 10
10.2001968232
 20
9.1692841722
 30
0.0
 10
10.1995064836
 20
9.1670740613
 30
0.0
 10
10.1988161484
 20
9.1648639481
 30
0.0
 10
10.1978957
 20
9.1619171314
 30
0.0
 10
10.19674514
 20
9.1582336102
 30
0.0
 10
10.1955945796
 20
9.1545500892
 30
0.0
 10
10.1946741318
 20
9.1516032722
 30
0.0
 10
10.1939837948
 20
9.1493931599
 30
0.0
 10
10.1932934623
 20
9.1471830459
 30
0.0
 10
10.1927181708
 20
9.1453412895
 30
0.0
 10
10.1922579701
 20
9.1438678725
 30
0.0
 10
10.1919702706
 20
9.1429470139
 30
0.0
 10
10.1917402806
 20
9.1422102652
 30
0.0
 10
10.1915673239
 20
9.1416578729
 30
0.0
 10
10.1914246698
 20
9.1411970078
 30
0.0
 10
10.1913219145
 20
9.1408754583
 30
0.0
 10
10.1912677212
 20
9.1406900667
 30
0.0
 10
10.1912143321
 20
9.1405556685
 30
0.0
 10
10.1912096574
 20
9.1404035128
 30
0.0
 10
10.1911864324
 20
9.1402068326
 30
0.0
 10
10.1911537057
 20
9.1398597563
 30
0.0
 10
10.191102814
 20
9.1393654418
 30
0.0
 10
10.1910435157
 20
9.1387716186
 30
0.0
 10
10.1909638325
 20
9.1379800799
 30
0.0
 10
10.1908644404
 20
9.1369905793
 30
0.0
 10
10.1907052946
 20
9.1354074215
 30
0.0
 10
10.190506403
 20
9.1334284594
 30
0.0
 10
10.1902677156
 20
9.1310537112
 30
0.0
 10
10.1900290329
 20
9.1286789614
 30
0.0
 10
10.1897107876
 20
9.1255126288
 30
0.0
 10
10.1893129816
 20
9.1215547129
 30
0.0
 10
10.1889151753
 20
9.1175967971
 30
0.0
 10
10.1885969307
 20
9.1144304645
 30
0.0
 10
10.188358246
 20
9.1120557149
 30
0.0
 10
10.1881195661
 20
9.1096809655
 30
0.0
 10
10.1879206511
 20
9.1077020074
 30
0.0
 10
10.1877615529
 20
9.1061188415
 30
0.0
 10
10.1876620396
 20
9.1051293614
 30
0.0
 10
10.1875826051
 20
9.1043377806
 30
0.0
 10
10.1875225472
 20
9.1037440859
 30
0.0
 10
10.1874740323
 20
9.1032493693
 30
0.0
 10
10.1874370626
 20
9.1029030108
 30
0.0
 10
10.1874206357
 20
9.1027051806
 30
0.0
 10
10.1873950794
 20
9.1025565573
 30
0.0
 10
10.1874201186
 20
9.1024088919
 30
0.0
 10
10.1874358558
 20
9.1022116706
 30
0.0
 10
10.1874716187
 20
9.1018666889
 30
0.0
 10
10.1875184097
 20
9.1013737766
 30
0.0
 10
10.1875763989
 20
9.1007823167
 30
0.0
 10
10.1876530751
 20
9.0999936912
 30
0.0
 10
10.1877491405
 20
9.0990079136
 30
0.0
 10
10.1879027221
 20
9.0974306671
 30
0.0
 10
10.1880947412
 20
9.0954591097
 30
0.0
 10
10.1883251462
 20
9.0930932406
 30
0.0
 10
10.1885555559
 20
9.0907273715
 30
0.0
 10
10.1888627673
 20
9.0875728794
 30
0.0
 10
10.1892467819
 20
9.0836297642
 30
0.0
 10
10.1896307969
 20
9.0796866491
 30
0.0
 10
10.1899380076
 20
9.0765321569
 30
0.0
 10
10.1901684191
 20
9.0741662882
 30
0.0
 10
10.1903988175
 20
9.0718004177
 30
0.0
 10
10.1905908571
 20
9.0698288643
 30
0.0
 10
10.190744397
 20
9.0682516098
 30
0.0
 10
10.1908405685
 20
9.0672658526
 30
0.0
 10
10.1909170269
 20
9.0664771852
 30
0.0
 10
10.1909756815
 20
9.0658858534
 30
0.0
 10
10.1910203908
 20
9.0653925404
 30
0.0
 10
10.1910655096
 20
9.0649990931
 30
0.0
 10
10.1910737963
 20
9.0647007202
 30
0.0
 10
10.1911796169
 20
9.0644148955
 30
0.0
 10
10.1912866413
 20
9.0640294126
 30
0.0
 10
10.1914321109
 20
9.063549063
 30
0.0
 10
10.191601671
 20
9.0629719997
 30
0.0
 10
10.1918294988
 20
9.0622028068
 30
0.0
 10
10.1921136852
 20
9.0612412386
 30
0.0
 10
10.1925687178
 20
9.0597027727
 30
0.0
 10
10.1931373939
 20
9.0577796755
 30
0.0
 10
10.1938198543
 20
9.0554719651
 30
0.0
 10
10.1945023016
 20
9.0531642531
 30
0.0
 10
10.1954122359
 20
9.0500873043
 30
0.0
 10
10.1965496521
 20
9.0462411181
 30
0.0
 10
10.1976870694
 20
9.0423949321
 30
0.0
 10
10.1985970019
 20
9.0393179829
 30
0.0
 10
10.1992794545
 20
9.0370102722
 30
0.0
 10
10.1999618948
 20
9.0347025571
 30
0.0
 10
10.2005306336
 20
9.0327794745
 30
0.0
 10
10.2009855382
 20
9.0312409788
 30
0.0
 10
10.2012700505
 20
9.0302794865
 30
0.0
 10
10.2014972092
 20
9.0295101379
 30
0.0
 10
10.2016688136
 20
9.02893355
 30
0.0
 10
10.2018078875
 20
9.0284517129
 30
0.0
 10
10.2019279602
 20
9.0280692647
 30
0.0
 10
10.2019939318
 20
9.0277741725
 30
0.0
 10
10.2021518286
 20
9.027510594
 30
0.0
 10
10.2023302471
 20
9.0271481479
 30
0.0
 10
10.2025642871
 20
9.0266988671
 30
0.0
 10
10.2028404196
 20
9.0261581135
 30
0.0
 10
10.2032102432
 20
9.0254376734
 30
0.0
 10
10.2036719588
 20
9.0245369299
 30
0.0
 10
10.204411019
 20
9.0230958484
 30
0.0
 10
10.205334736
 20
9.0212944594
 30
0.0
 10
10.2064432429
 20
9.0191328085
 30
0.0
 10
10.2075517373
 20
9.0169711534
 30
0.0
 10
10.2090297342
 20
9.0140889481
 30
0.0
 10
10.2108772287
 20
9.0104861908
 30
0.0
 10
10.2127247243
 20
9.006883434
 30
0.0
 10
10.2142027195
 20
9.0040012279
 30
0.0
 10
10.2153112191
 20
9.0018395749
 30
0.0
 10
10.2164197066
 20
8.9996779161
 30
0.0
 10
10.2173434837
 20
8.9978765517
 30
0.0
 10
10.2180824214
 20
8.9964354202
 30
0.0
 10
10.2185444487
 20
8.9955348038
 30
0.0
 10
10.2189136325
 20
8.9948141028
 30
0.0
 10
10.2191917197
 20
8.9942741464
 30
0.0
 10
10.2194196438
 20
8.9938223712
 30
0.0
 10
10.2196105399
 20
8.9934650142
 30
0.0
 10
10.2197303307
 20
8.9931858939
 30
0.0
 10
10.2199393685
 20
8.9929491523
 30
0.0
 10
10.2201869104
 20
8.9926186934
 30
0.0
 10
10.2205070338
 20
8.9922106988
 30
0.0
 10
10.2208866037
 20
8.9917189313
 30
0.0
 10
10.2213942959
 20
8.9910640006
 30
0.0
 10
10.2220283637
 20
8.9902450772
 30
0.0
 10
10.2230431782
 20
8.9889349452
 30
0.0
 10
10.2243115912
 20
8.9872972302
 30
0.0
 10
10.2258337319
 20
8.9853319937
 30
0.0
 10
10.2273558606
 20
8.9833667514
 30
0.0
 10
10.2293853697
 20
8.9807464304
 30
0.0
 10
10.2319222545
 20
8.9774710283
 30
0.0
 10
10.2344591402
 20
8.9741956269
 30
0.0
 10
10.2364886479
 20
8.9715753048
 30
0.0
 10
10.2380107809
 20
8.9696100658
 30
0.0
 10
10.2395329052
 20
8.9676448169
 30
0.0
 10
10.2408013694
 20
8.9660071404
 30
0.0
 10
10.2418160795
 20
8.9646969301
 30
0.0
 10
10.242450413
 20
8.9638782058
 30
0.0
 10
10.2429575597
 20
8.9632228664
 30
0.0
 10
10.2433387965
 20
8.9627323477
 30
0.0
 10
10.2436537045
 20
8.9623204459
 30
0.0
 10
10.2439118869
 20
8.9619979583
 30
0.0
 10
10.2440884292
 20
8.961736873
 30
0.0
 10
10.2443302217
 20
8.9615491491
 30
0.0
 10
10.2446298189
 20
8.9612732245
 30
0.0
 10
10.2450121355
 20
8.9609371109
 30
0.0
 10
10.2454675682
 20
8.9605300113
 30
0.0
 10
10.2460759809
 20
8.9599885262
 30
0.0
 10
10.2468360965
 20
8.9593112198
 30
0.0
 10
10.2480525052
 20
8.9582277811
 30
0.0
 10
10.2495729393
 20
8.9568733964
 30
0.0
 10
10.2513974932
 20
8.9552481717
 30
0.0
 10
10.2532220382
 20
8.9536229372
 30
0.0
 10
10.255654768
 20
8.9514559613
 30
0.0
 10
10.2586956791
 20
8.9487472401
 30
0.0
 10
10.2617365909
 20
8.9460385198
 30
0.0
 10
10.2641693195
 20
8.9438715424
 30
0.0
 10
10.2659938679
 20
8.9422463122
 30
0.0
 10
10.2678184089
 20
8.9406210714
 30
0.0
 10
10.269338883
 20
8.9392667371
 30
0.0
 10
10.2705552102
 20
8.9381831955
 30
0.0
 10
10.2713155332
 20
8.9375061509
 30
0.0
 10
10.2719235202
 20
8.9369641285
 30
0.0
 10
10.2723802537
 20
8.9365586705
 30
0.0
 10
10.2727585004
 20
8.9362174207
 30
0.0
 10
10.273066401
 20
8.9359519748
 30
0.0
 10
10.2732828357
 20
8.9357322495
 30
0.0
 10
10.2735545815
 20
8.935591311
 30
0.0
 10
10.2738975884
 20
8.9353758717
 30
0.0
 10
10.2743329759
 20
8.9351160151
 30
0.0
 10
10.2748526035
 20
8.9348001455
 30
0.0
 10
10.2755464314
 20
8.9343803976
 30
0.0
 10
10.2764133769
 20
8.9338552295
 30
0.0
 10
10.2778006794
 20
8.9330152306
 30
0.0
 10
10.2795347424
 20
8.9319651392
 30
0.0
 10
10.281615646
 20
8.9307050694
 30
0.0
 10
10.283696542
 20
8.9294449889
 30
0.0
 10
10.2864710727
 20
8.9277648853
 30
0.0
 10
10.2899392351
 20
8.9256647544
 30
0.0
 10
10.2934073981
 20
8.9235646244
 30
0.0
 10
10.2961819279
 20
8.9218845192
 30
0.0
 10
10.2982628266
 20
8.9206244435
 30
0.0
 10
10.3003437201
 20
8.9193643558
 30
0.0
 10
10.3020778142
 20
8.9183143201
 30
0.0
 10
10.3034650534
 20
8.9174742077
 30
0.0
 10
10.3043321598
 20
8.9169493284
 30
0.0
 10
10.3050256574
 20
8.9165289875
 30
0.0
 10
10.3055462941
 20
8.9162149298
 30
0.0
 10
10.3059785246
 20
8.9159494042
 30
0.0
 10
10.3063279724
 20
8.9157455306
 30
0.0
 10
10.306580048
 20
8.9155692714
 30
0.0
 10
10.3068703331
 20
8.9154821548
 30
0.0
 10
10.3072440328
 20
8.9153348607
 30
0.0
 10
10.3077157367
 20
8.9151614266
 30
0.0
 10
10.3082798214
 20
8.9149487328
 30
0.0
 10
10.3090326189
 20
8.9146667382
 30
0.0
 10
10.3099733813
 20
8.9143136982
 30
0.0
 10
10.3114787322
 20
8.9137491397
 30
0.0
 10
10.3133603759
 20
8.9130433368
 30
0.0
 10
10.3156183676
 20
8.9121964182
 30
0.0
 10
10.3178763542
 20
8.9113494876
 30
0.0
 10
10.3208870047
 20
8.910220251
 30
0.0
 10
10.3246503172
 20
8.9088087037
 30
0.0
 10
10.3284136302
 20
8.9073971575
 30
0.0
 10
10.3314242801
 20
8.9062679191
 30
0.0
 10
10.3336822685
 20
8.9054209938
 30
0.0
 10
10.3359402531
 20
8.9045740555
 30
0.0
 10
10.337821919
 20
8.9038683138
 30
0.0
 10
10.3393272246
 20
8.9033036305
 30
0.0
 10
10.3402681023
 20
8.902950908
 30
0.0
 10
10.3410206633
 20
8.9026682616
 30
0.0
 10
10.3415854705
 20
8.9024575595
 30
0.0
 10
10.3420549136
 20
8.9022778938
 30
0.0
 10
10.3424332259
 20
8.9021433133
 30
0.0
 10
10.3427094243
 20
8.9020173701
 30
0.0
 10
10.3430143873
 20
8.9019868821
 30
0.0
 10
10.3434109568
 20
8.9019128878
 30
0.0
 10
10.343910116
 20
8.9018318349
 30
0.0
 10
10.3445076315
 20
8.9017296747
 30
0.0
 10
10.3453048342
 20
8.9015951714
 30
0.0
 10
10.3463011611
 20
8.9014264567
 30
0.0
 10
10.3478953827
 20
8.9011568405
 30
0.0
 10
10.349888126
 20
8.9008197079
 30
0.0
 10
10.3522794324
 20
8.9004151969
 30
0.0
 10
10.3546707349
 20
8.900010673
 30
0.0
 10
10.3578591396
 20
8.8994713124
 30
0.0
 10
10.361844645
 20
8.89879711
 30
0.0
 10
10.3666272517
 20
8.8979880679
 30
0.0
 10
10.3730040605
 20
8.8969093448
 30
0.0
 10
10.3777866672
 20
8.8961003025
 30
0.0
 10
10.3809750716
 20
8.895560941
 30
0.0
  0
SPLINE
  5
399
100
AcDbEntity
  8
0
100
AcDbSpline
 62
7
  6
CONTINUOUS
 70
0
 71
3
 72
140
 73
136
 74
0
 42
0.0000001
 43
0.0000001
 44
0.0000000001
 40
0.0
 40
0.0
 40
0.0
 40
0.0
 40
0.03125
 40
0.046875
 40
0.0546875
 40
0.0625
 40
0.0703125
 40
0.078125
 40
0.09375
 40
0.109375
 40
0.1171875
 40
0.125
 40
0.1328125
 40
0.140625
 40
0.15625
 40
0.171875
 40
0.1796875
 40
0.1875
 40
0.1953125
 40
0.203125
 40
0.21875
 40
0.234375
 40
0.2421875
 40
0.24609375
 40
0.25
 40
0.25390625
 40
0.2578125
 40
0.265625
 40
0.28125
 40
0.296875
 40
0.3046875
 40
0.30859375
 40
0.3125
 40
0.31640625
 40
0.3203125
 40
0.328125
 40
0.34375
 40
0.359375
 40
0.3671875
 40
0.37109375
 40
0.373046875
 40
0.375
 40
0.376953125
 40
0.37890625
 40
0.3828125
 40
0.390625
 40
0.40625
 40
0.421875
 40
0.4296875
 40
0.43359375
 40
0.435546875
 40
0.4375
 40
0.439453125
 40
0.44140625
 40
0.4453125
 40
0.453125
 40
0.46875
 40
0.4765625
 40
0.484375
 40
0.4921875
 40
0.49609375
 40
0.498046875
 40
0.5
 40
0.501953125
 40
0.50390625
 40
0.5078125
 40
0.515625
 40
0.53125
 40
0.546875
 40
0.5546875
 40
0.55859375
 40
0.560546875
 40
0.5625
 40
0.564453125
 40
0.56640625
 40
0.5703125
 40
0.578125
 40
0.59375
 40
0.609375
 40
0.6171875
 40
0.62109375
 40
0.623046875
 40
0.625
 40
0.626953125
 40
0.62890625
 40
0.6328125
 40
0.640625
 40
0.65625
 40
0.671875
 40
0.6796875
 40
0.68359375
 40
0.685546875
 40
0.6875
 40
0.689453125
 40
0.69140625
 40
0.6953125
 40
0.703125
 40
0.7109375
 40
0.71875
 40
0.734375
 40
0.7421875
 40
0.74609375
 40
0.748046875
 40
0.75
 40
0.751953125
 40
0.75390625
 40
0.7578125
 40
0.765625
 40
0.78125
 40
0.796875
 40
0.8046875
 40
0.80859375
 40
0.8125
 40
0.81640625
 40
0.8203125
 40
0.828125
 40
0.84375
 40
0.859375
 40
0.8671875
 40
0.87109375
 40
0.875
 40
0.87890625
 40
0.8828125
 40
0.890625
 40
0.90625
 40
0.921875
 40
0.9296875
 40
0.93359375
 40
0.9375
 40
0.94140625
 40
0.9453125
 40
0.953125
 40
0.96875
 40
0.984375
 40
1.0
 40
1.0
 40
1.0
 40
1.0
 10
10.7061715452
 20
10.676440743
 30
0.0
 10
10.7051767286
 20
10.676483368
 30
0.0
 10
10.7036841883
 20
10.6765460755
 30
0.0
 10
10.701943995
 20
10.6766235395
 30
0.0
 10
10.7009480221
 20
10.6766616542
 30
0.0
 10
10.7002054575
 20
10.6767074616
 30
0.0
 10
10.6994460206
 20
10.6766874586
 30
0.0
 10
10.6984392824
 20
10.6766838787
 30
0.0
 10
10.6971792083
 20
10.6766707488
 30
0.0
 10
10.6959184343
 20
10.6766633754
 30
0.0
 10
10.6949128158
 20
10.6766505853
 30
0.0
 10
10.6941500197
 20
10.6766582127
 30
0.0
 10
10.693420052
 20
10.676600406
 30
0.0
 10
10.6924351999
 20
10.6765462898
 30
0.0
 10
10.6912087769
 20
10.6764700338
 30
0.0
 10
10.6899782379
 20
10.6763995216
 30
0.0
 10
10.6889999714
 20
10.6763362154
 30
0.0
 10
10.6882502471
 20
10.6763059786
 30
0.0
 10
10.6875615381
 20
10.6762102185
 30
0.0
 10
10.6866220243
 20
10.6761053993
 30
0.0
 10
10.6854543573
 20
10.6759667258
 30
0.0
 10
10.6842863332
 20
10.675830074
 30
0.0
 10
10.6834647586
 20
10.675735527
 30
0.0
 10
10.6830021793
 20
10.675678992
 30
0.0
 10
10.6826356998
 20
10.6756437983
 30
0.0
 10
10.6823439542
 20
10.6755810283
 30
0.0
 10
10.6819288838
 20
10.6755069563
 30
0.0
 10
10.6812147427
 20
10.6753728229
 30
0.0
 10
10.6801874809
 20
10.6751837581
 30
0.0
 10
10.6791651607
 20
10.6749930616
 30
0.0
 10
10.6784441014
 20
10.6748612127
 30
0.0
 10
10.6780399024
 20
10.6747835509
 30
0.0
 10
10.6777148014
 20
10.674731795
 30
0.0
 10
10.67747359
 20
10.6746552372
 30
0.0
 10
10.6771227164
 20
10.6745618107
 30
0.0
 10
10.6765222874
 20
10.6743942901
 30
0.0
 10
10.6756576806
 20
10.674157029
 30
0.0
 10
10.6747945739
 20
10.6739192171
 30
0.0
 10
10.6741920448
 20
10.6737524676
 30
0.0
 10
10.6738879181
 20
10.6736696592
 30
0.0
 10
10.6737188029
 20
10.6736214094
 30
0.0
 10
10.6735787698
 20
10.6735878523
 30
0.0
 10
10.6734891877
 20
10.6735442395
 30
0.0
 10
10.6733521483
 20
10.6734895964
 30
0.0
 10
10.6731205155
 20
10.6733923394
 30
0.0
 10
10.6726513992
 20
10.67319899
 30
0.0
 10
10.6719846039
 20
10.672922118
 30
0.0
 10
10.6713154693
 20
10.672645662
 30
0.0
 10
10.6708496279
 20
10.6724517302
 30
0.0
 10
10.6706134921
 20
10.672355274
 30
0.0
 10
10.6704837043
 20
10.6722993414
 30
0.0
 10
10.670371841
 20
10.6722596904
 30
0.0
 10
10.6703154943
 20
10.6722112532
 30
0.0
 10
10.6702210023
 20
10.6721497346
 30
0.0
 10
10.6700646455
 20
10.6720406521
 30
0.0
 10
10.6697455383
 20
10.6718235002
 30
0.0
 10
10.6693835241
 20
10.6715748933
 30
0.0
 10
10.6690207774
 20
10.6713264284
 30
0.0
 10
10.6687482351
 20
10.671140087
 30
0.0
 10
10.6685230296
 20
10.670984719
 30
0.0
 10
10.6683615791
 20
10.6708761337
 30
0.0
 10
10.6682752734
 20
10.6708138146
 30
0.0
 10
10.6681937767
 20
10.670767837
 30
0.0
 10
10.6681763739
 20
10.6707189478
 30
0.0
 10
10.6681308151
 20
10.6706547778
 30
0.0
 10
10.6680614866
 20
10.6705420078
 30
0.0
 10
10.6679154019
 20
10.6703168041
 30
0.0
 10
10.6677109507
 20
10.6699949023
 30
0.0
 10
10.6675036821
 20
10.6696730888
 30
0.0
 10
10.6673615418
 20
10.6694477614
 30
0.0
 10
10.6672867896
 20
10.6693351616
 30
0.0
 10
10.6672499651
 20
10.6692707175
 30
0.0
 10
10.6672057258
 20
10.6692226702
 30
0.0
 10
10.6672250243
 20
10.6691735306
 30
0.0
 10
10.6672285946
 20
10.6691083921
 30
0.0
 10
10.6672451518
 20
10.6689942227
 30
0.0
 10
10.6672709027
 20
10.6687660082
 30
0.0
 10
10.6673118952
 20
10.668439934
 30
0.0
 10
10.6673500911
 20
10.668113837
 30
0.0
 10
10.6673797572
 20
10.6678856543
 30
0.0
 10
10.6673909309
 20
10.6677714411
 30
0.0
 10
10.6674031706
 20
10.6677063732
 30
0.0
 10
10.6673958317
 20
10.6676570169
 30
0.0
 10
10.6674516402
 20
10.6676097834
 30
0.0
 10
10.6675040266
 20
10.6675460649
 30
0.0
 10
10.6676059487
 20
10.6674349021
 30
0.0
 10
10.6678024742
 20
10.6672123293
 30
0.0
 10
10.6680874077
 20
10.6668945193
 30
0.0
 10
10.6683695506
 20
10.6665765753
 30
0.0
 10
10.6685699828
 20
10.6663541901
 30
0.0
 10
10.6686665332
 20
10.6662427694
 30
0.0
 10
10.6687275701
 20
10.6661794663
 30
0.0
 10
10.6687567994
 20
10.6661309564
 30
0.0
 10
10.6688492897
 20
10.666086394
 30
0.0
 10
10.6689505441
 20
10.6660256005
 30
0.0
 10
10.6691380194
 20
10.6659198532
 30
0.0
 10
10.6694004737
 20
10.6657684517
 30
0.0
 10
10.6697176857
 20
10.6655869073
 30
0.0
 10
10.6701399956
 20
10.6653448279
 30
0.0
 10
10.6705616089
 20
10.6651025948
 30
0.0
 10
10.6709327688
 20
10.6648910574
 30
0.0
 10
10.6711152811
 20
10.6647847311
 30
0.0
 10
10.6712245114
 20
10.6647248696
 30
0.0
 10
10.6712924981
 20
10.6646774437
 30
0.0
 10
10.6714137601
 20
10.6646396888
 30
0.0
 10
10.6715568622
 20
10.6645859761
 30
0.0
 10
10.671815923
 20
10.6644935455
 30
0.0
 10
10.6723280072
 20
10.6643075927
 30
0.0
 10
10.6730619786
 20
10.6640423498
 30
0.0
 10
10.6737977597
 20
10.66377757
 30
0.0
 10
10.6743073103
 20
10.6635909689
 30
0.0
 10
10.6746073611
 20
10.6634863525
 30
0.0
 10
10.6748073327
 20
10.6634022106
 30
0.0
 10
10.6751031305
 20
10.663339781
 30
0.0
 10
10.6754640947
 20
10.6632489654
 30
0.0
 10
10.6761114363
 20
10.6630935938
 30
0.0
 10
10.677027404
 20
10.6628695686
 30
0.0
 10
10.6779487779
 20
10.6626470335
 30
0.0
 10
10.6785885509
 20
10.6624895758
 30
0.0
 10
10.6789614085
 20
10.6624020383
 30
0.0
 10
10.6792207151
 20
10.6623295512
 30
0.0
 10
10.6795577315
 20
10.6622831809
 30
0.0
 10
10.6799799739
 20
10.6622122412
 30
0.0
 10
10.6807315977
 20
10.6620923707
 30
0.0
 10
10.6817981647
 20
10.6619186647
 30
0.0
 10
10.6828692676
 20
10.6617466676
 30
0.0
 10
10.683614541
 20
10.6616244047
 30
0.0
 10
10.6840467627
 20
10.6615572245
 30
0.0
 10
10.6843531607
 20
10.6614993192
 30
0.0
 10
10.6847274564
 20
10.6614701524
 30
0.0
 10
10.6852028338
 20
10.6614212389
 30
0.0
 10
10.6860457792
 20
10.661340311
 30
0.0
 10
10.6872442142
 20
10.6612222564
 30
0.0
 10
10.6886848228
 20
10.6610816434
 30
0.0
 10
10.689644755
 20
10.6609877009
 30
0.0
 10
10.6901247802
 20
10.6609407547
 30
0.0
  0
SPLINE
  5
39A
100
AcDbEntity
  8
0
100
AcDbSpline
 62
7
  6
CONTINUOUS
 70
0
 71
3
 72
140
 73
136
 74
0
 42
0.0000001
 43
0.0000001
 44
0.0000000001
 40
0.0
 40
0.0
 40
0.0
 40
0.0
 40
0.03125
 40
0.046875
 40
0.0546875
 40
0.0625
 40
0.0703125
 40
0.078125
 40
0.09375
 40
0.109375
 40
0.1171875
 40
0.125
 40
0.1328125
 40
0.140625
 40
0.15625
 40
0.171875
 40
0.1796875
 40
0.1875
 40
0.1953125
 40
0.203125
 40
0.21875
 40
0.234375
 40
0.2421875
 40
0.24609375
 40
0.25
 40
0.25390625
 40
0.2578125
 40
0.265625
 40
0.28125
 40
0.296875
 40
0.3046875
 40
0.30859375
 40
0.3125
 40
0.31640625
 40
0.3203125
 40
0.328125
 40
0.34375
 40
0.359375
 40
0.3671875
 40
0.37109375
 40
0.373046875
 40
0.375
 40
0.376953125
 40
0.37890625
 40
0.3828125
 40
0.390625
 40
0.40625
 40
0.421875
 40
0.4296875
 40
0.43359375
 40
0.435546875
 40
0.4375
 40
0.439453125
 40
0.44140625
 40
0.4453125
 40
0.453125
 40
0.46875
 40
0.4765625
 40
0.484375
 40
0.4921875
 40
0.49609375
 40
0.498046875
 40
0.5
 40
0.501953125
 40
0.50390625
 40
0.5078125
 40
0.515625
 40
0.53125
 40
0.546875
 40
0.5546875
 40
0.55859375
 40
0.560546875
 40
0.5625
 40
0.564453125
 40
0.56640625
 40
0.5703125
 40
0.578125
 40
0.59375
 40
0.609375
 40
0.6171875
 40
0.62109375
 40
0.623046875
 40
0.625
 40
0.626953125
 40
0.62890625
 40
0.6328125
 40
0.640625
 40
0.65625
 40
0.671875
 40
0.6796875
 40
0.68359375
 40
0.685546875
 40
0.6875
 40
0.689453125
 40
0.69140625
 40
0.6953125
 40
0.703125
 40
0.7109375
 40
0.71875
 40
0.734375
 40
0.7421875
 40
0.74609375
 40
0.748046875
 40
0.75
 40
0.751953125
 40
0.75390625
 40
0.7578125
 40
0.765625
 40
0.78125
 40
0.796875
 40
0.8046875
 40
0.80859375
 40
0.8125
 40
0.81640625
 40
0.8203125
 40
0.828125
 40
0.84375
 40
0.859375
 40
0.8671875
 40
0.87109375
 40
0.875
 40
0.87890625
 40
0.8828125
 40
0.890625
 40
0.90625
 40
0.921875
 40
0.9296875
 40
0.93359375
 40
0.9375
 40
0.94140625
 40
0.9453125
 40
0.953125
 40
0.96875
 40
0.984375
 40
1.0
 40
1.0
 40
1.0
 40
1.0
 10
10.6901247776
 20
10.6609407549
 30
0.0
 10
10.6911195942
 20
10.6608981299
 30
0.0
 10
10.6926121345
 20
10.6608354224
 30
0.0
 10
10.6943523278
 20
10.6607579584
 30
0.0
 10
10.6953483007
 20
10.6607198437
 30
0.0
 10
10.6960908653
 20
10.6606740363
 30
0.0
 10
10.6968503022
 20
10.6606940393
 30
0.0
 10
10.6978570404
 20
10.6606976192
 30
0.0
 10
10.6991171145
 20
10.6607107491
 30
0.0
 10
10.7003778885
 20
10.6607181225
 30
0.0
 10
10.701383507
 20
10.6607309126
 30
0.0
 10
10.7021463031
 20
10.6607232852
 30
0.0
 10
10.7028762708
 20
10.6607810919
 30
0.0
 10
10.7038611229
 20
10.6608352081
 30
0.0
 10
10.7050875459
 20
10.6609114641
 30
0.0
 10
10.7063180849
 20
10.6609819763
 30
0.0
 10
10.7072963514
 20
10.6610452825
 30
0.0
 10
10.7080460757
 20
10.6610755193
 30
0.0
 10
10.7087347847
 20
10.6611712794
 30
0.0
 10
10.7096742985
 20
10.6612760986
 30
0.0
 10
10.7108419655
 20
10.6614147721
 30
0.0
 10
10.7120099896
 20
10.6615514239
 30
0.0
 10
10.7128315642
 20
10.6616459709
 30
0.0
 10
10.7132941435
 20
10.6617025059
 30
0.0
 10
10.713660623
 20
10.6617376996
 30
0.0
 10
10.7139523686
 20
10.6618004696
 30
0.0
 10
10.714367439
 20
10.6618745416
 30
0.0
 10
10.7150815801
 20
10.662008675
 30
0.0
 10
10.7161088419
 20
10.6621977398
 30
0.0
 10
10.7171311621
 20
10.6623884363
 30
0.0
 10
10.7178522214
 20
10.6625202852
 30
0.0
 10
10.7182564204
 20
10.662597947
 30
0.0
 10
10.7185815214
 20
10.6626497029
 30
0.0
 10
10.7188227328
 20
10.6627262607
 30
0.0
 10
10.7191736064
 20
10.6628196872
 30
0.0
 10
10.7197740354
 20
10.6629872078
 30
0.0
 10
10.7206386422
 20
10.6632244689
 30
0.0
 10
10.7215017489
 20
10.6634622808
 30
0.0
 10
10.722104278
 20
10.6636290303
 30
0.0
 10
10.7224084047
 20
10.6637118387
 30
0.0
 10
10.7225775199
 20
10.6637600885
 30
0.0
 10
10.722717553
 20
10.6637936456
 30
0.0
 10
10.7228071351
 20
10.6638372584
 30
0.0
 10
10.7229441745
 20
10.6638919015
 30
0.0
 10
10.7231758073
 20
10.6639891585
 30
0.0
 10
10.7236449236
 20
10.6641825079
 30
0.0
 10
10.7243117189
 20
10.6644593799
 30
0.0
 10
10.7249808535
 20
10.6647358359
 30
0.0
 10
10.7254466949
 20
10.6649297677
 30
0.0
 10
10.7256828307
 20
10.6650262239
 30
0.0
 10
10.7258126184
 20
10.6650821565
 30
0.0
 10
10.7259244818
 20
10.6651218075
 30
0.0
 10
10.7259808285
 20
10.6651702447
 30
0.0
 10
10.7260753205
 20
10.6652317633
 30
0.0
 10
10.7262316773
 20
10.6653408458
 30
0.0
 10
10.7265507845
 20
10.6655579977
 30
0.0
 10
10.7269127987
 20
10.6658066046
 30
0.0
 10
10.7272755453
 20
10.6660550695
 30
0.0
 10
10.7275480877
 20
10.6662414109
 30
0.0
 10
10.7277732932
 20
10.6663967789
 30
0.0
 10
10.7279347437
 20
10.6665053642
 30
0.0
 10
10.7280210494
 20
10.6665676833
 30
0.0
 10
10.7281025461
 20
10.6666136609
 30
0.0
 10
10.7281199489
 20
10.6666625501
 30
0.0
 10
10.7281655077
 20
10.6667267201
 30
0.0
 10
10.7282348362
 20
10.6668394901
 30
0.0
 10
10.7283809209
 20
10.6670646938
 30
0.0
 10
10.7285853721
 20
10.6673865956
 30
0.0
 10
10.7287926407
 20
10.6677084091
 30
0.0
 10
10.728934781
 20
10.6679337365
 30
0.0
 10
10.7290095332
 20
10.6680463363
 30
0.0
 10
10.7290463577
 20
10.6681107804
 30
0.0
 10
10.729090597
 20
10.6681588277
 30
0.0
 10
10.7290712985
 20
10.6682079673
 30
0.0
 10
10.7290677282
 20
10.6682731058
 30
0.0
 10
10.729051171
 20
10.6683872752
 30
0.0
 10
10.7290254201
 20
10.6686154897
 30
0.0
 10
10.7289844276
 20
10.6689415639
 30
0.0
 10
10.7289462317
 20
10.6692676609
 30
0.0
 10
10.7289165656
 20
10.6694958436
 30
0.0
 10
10.7289053919
 20
10.6696100568
 30
0.0
 10
10.7288931522
 20
10.6696751247
 30
0.0
 10
10.7289004911
 20
10.669724481
 30
0.0
 10
10.7288446826
 20
10.6697717145
 30
0.0
 10
10.7287922962
 20
10.669835433
 30
0.0
 10
10.7286903741
 20
10.6699465958
 30
0.0
 10
10.7284938486
 20
10.6701691686
 30
0.0
 10
10.7282089151
 20
10.6704869786
 30
0.0
 10
10.7279267722
 20
10.6708049226
 30
0.0
 10
10.72772634
 20
10.6710273078
 30
0.0
 10
10.7276297896
 20
10.6711387285
 30
0.0
 10
10.7275687527
 20
10.6712020316
 30
0.0
 10
10.7275395234
 20
10.6712505415
 30
0.0
 10
10.7274470331
 20
10.6712951039
 30
0.0
 10
10.7273457787
 20
10.6713558974
 30
0.0
 10
10.7271583034
 20
10.6714616447
 30
0.0
 10
10.7268958491
 20
10.6716130462
 30
0.0
 10
10.7265786371
 20
10.6717945906
 30
0.0
 10
10.7261563272
 20
10.67203667
 30
0.0
 10
10.7257347139
 20
10.6722789031
 30
0.0
 10
10.725363554
 20
10.6724904405
 30
0.0
 10
10.7251810417
 20
10.6725967668
 30
0.0
 10
10.7250718114
 20
10.6726566283
 30
0.0
 10
10.7250038247
 20
10.6727040542
 30
0.0
 10
10.7248825627
 20
10.6727418091
 30
0.0
 10
10.7247394606
 20
10.6727955218
 30
0.0
 10
10.7244803998
 20
10.6728879524
 30
0.0
 10
10.7239683156
 20
10.6730739052
 30
0.0
 10
10.7232343442
 20
10.6733391481
 30
0.0
 10
10.7224985631
 20
10.6736039279
 30
0.0
 10
10.7219890125
 20
10.673790529
 30
0.0
 10
10.7216889617
 20
10.6738951454
 30
0.0
 10
10.7214889901
 20
10.6739792873
 30
0.0
 10
10.7211931923
 20
10.6740417169
 30
0.0
 10
10.7208322281
 20
10.6741325325
 30
0.0
 10
10.7201848865
 20
10.6742879041
 30
0.0
 10
10.7192689188
 20
10.6745119293
 30
0.0
 10
10.7183475449
 20
10.6747344644
 30
0.0
 10
10.7177077719
 20
10.6748919221
 30
0.0
 10
10.7173349143
 20
10.6749794596
 30
0.0
 10
10.7170756077
 20
10.6750519467
 30
0.0
 10
10.7167385913
 20
10.675098317
 30
0.0
 10
10.7163163489
 20
10.6751692567
 30
0.0
 10
10.7155647251
 20
10.6752891272
 30
0.0
 10
10.7144981581
 20
10.6754628332
 30
0.0
 10
10.7134270552
 20
10.6756348303
 30
0.0
 10
10.7126817818
 20
10.6757570932
 30
0.0
 10
10.7122495601
 20
10.6758242734
 30
0.0
 10
10.7119431621
 20
10.6758821787
 30
0.0
 10
10.7115688664
 20
10.6759113455
 30
0.0
 10
10.711093489
 20
10.675960259
 30
0.0
 10
10.7102505436
 20
10.6760411869
 30
0.0
 10
10.7090521086
 20
10.6761592415
 30
0.0
 10
10.7076115
 20
10.6762998545
 30
0.0
 10
10.7066515678
 20
10.676393797
 30
0.0
 10
10.7061715426
 20
10.6764407432
 30
0.0
  0
ENDSEC
  0
SECTION
  2
OBJECTS
  0
DICTIONARY
  5
C
100
AcDbDictionary
280
0
281
1
  3
ACAD_GROUP
350
D
  3
ACAD_MLINESTYLE
350
17
  3
ACAD_LAYOUT
350
1A
  3
ACAD_PLOTSETTINGS
350
19
  3
ACAD_PLOTSTYLENAME
350
E
  3
ACAD_IMAGE_DICT
350
       39C
  3
ACAD_IMAGE_VARS
350
       39D
  3
ACAD_TABLESTYLE
350
       39E
  0
IMAGEDEF_REACTOR
  5
39B
100
AcDbRasterImageDefReactor
 90
2
330
292
  0
DICTIONARY
  5
D
102
{ACAD_REACTORS
330
C
102
}
100
AcDbDictionary
280
0
281
1
  0
ACDBDICTIONARYWDFLT
  5
E
102
{ACAD_REACTORS
330
C
102
}
100
AcDbDictionary
281
1
  3
Normal
350
F
100
AcDbDictionaryWithDefault
340
F
  0
DICTIONARY
  5
39C
330
C
100
AcDbDictionary
281
1
  3
B4B_assy_2_img_1
350
       3A1
  0
RASTERVARIABLES
  5
39D
330
C
100
AcDbRasterVariables
 90
0
 70
0
 71
1
 72
5
  0
DICTIONARY
  5
17
102
{ACAD_REACTORS
330
C
102
}
100
AcDbDictionary
280
0
281
1
  3
Standard
350
18
  0
DICTIONARY
  5
39E
330
C
100
AcDbDictionary
281
1
  3
Standard
350
       3A2
  3
Standard1
350
       3A3
  0
DICTIONARY
  5
19
102
{ACAD_REACTORS
330
C
102
}
100
AcDbDictionary
281
1
  0
DICTIONARY
  5
1A
102
{ACAD_REACTORS
330
C
102
}
100
AcDbDictionary
281
1
  3
Model
350
39F
  3
Layout1
350
3A0
  0
ACDBPLACEHOLDER
  5
F
102
{ACAD_REACTORS
330
E
102
}
  0
MLINESTYLE
  5
18
102
{ACAD_REACTORS
330
17
102
}
100
AcDbMlineStyle
  2
STANDARD
 70
0
  3

 62
256
 51
90.0
 52
90.0
 71
2
 49
0.5
 62
256
  6
BYLAYER
 49
-0.5
 62
256
  6
BYLAYER
  0
LAYOUT
  5
39F
102
{ACAD_REACTORS
330
1A
102
}
100
AcDbPlotSettings
  1

  2
none_device
  4
ANSI_C_(22.00_x_17.00_Inches)
  6

 40
0.0
 41
0.0
 42
0.0
 43
0.0
 44
558.8
 45
431.8
 46
0.0
 47
0.0
 48
0.0
 49
0.0
140
0.0
141
0.0
142
1.0
143
1.0
 70
1024
 72
0
 73
0
 74
0
  7

 75
0
147
1.0
148
0.0
149
0.0
100
AcDbLayout
  1
Model
 70
0
 71
0
 10
0.0
 20
0.0
 11
22.0
 21
17.0
 12
0.0
 22
0.0
 32
0.0
 14
0.0
 24
0.0
 34
0.0
 15
0.0
 25
0.0
 35
0.0
146
0.0
 13
0.0
 23
0.0
 33
0.0
 16
1.0
 26
0.0
 36
0.0
 17
0.0
 27
1.0
 37
0.0
 76
0
330
20C
345
0
346
0
  0
LAYOUT
  5
3A0
102
{ACAD_REACTORS
330
1A
102
}
100
AcDbPlotSettings
  1

  2
none_device
  4
ANSI_C_(22.00_x_17.00_Inches)
  6

 40
0.0
 41
0.0
 42
0.0
 43
0.0
 44
558.8
 45
431.8
 46
0.0
 47
0.0
 48
0.0
 49
0.0
140
0.0
141
0.0
142
1.0
143
1.0
 70
0
 72
0
 73
0
 74
0
  7

 75
0
147
1.0
148
0.0
149
0.0
100
AcDbLayout
  1
Layout1
 70
0
 71
1
 10
0.0
 20
0.0
 11
22.0
 21
17.0
 12
0.0
 22
0.0
 32
0.0
 14
0.0
 24
0.0
 34
0.0
 15
0.0
 25
0.0
 35
0.0
146
0.0
 13
0.0
 23
0.0
 33
0.0
 16
1.0
 26
0.0
 36
0.0
 17
0.0
 27
1.0
 37
0.0
 76
0
330
20D
345
0
346
0
  0
IMAGEDEF
  5
3A1
102
{ACAD_REACTORS
330
39C
330
39B
102
}
100
AcDbRasterImageDef
 90
0
  1
B4B_assy_2_img_1.png
 10
369.0
 20
92.0
 11
0.0066666667
 21
0.0066666667
280
1
281
0
  0
TABLESTYLE
  5
3A2
102
{ACAD_REACTORS
330
39E
330
295
330
296
102
}
330
39E
100
AcDbTableStyle
  3
Standard
 70
0
 71
0
 40
0.06
 41
0.06
280
1
281
1
  7
Standard
140
0.18
170
1
 62
0
 63
7
283
0
  7
Standard
140
0.18
170
1
 62
0
 63
7
283
0
  7
Standard
140
0.18
170
1
 62
0
 63
7
283
0
  0
TABLESTYLE
  5
3A3
102
{ACAD_REACTORS
330
39E
330
294
102
}
330
39E
100
AcDbTableStyle
  3
Standard1
 70
1
 71
0
 40
0.06
 41
0.06
280
1
281
1
  7
Standard
140
0.18
170
1
 62
0
 63
7
283
0
  7
Standard
140
0.18
170
1
 62
0
 63
7
283
0
  7
Standard
140
0.18
170
1
 62
0
 63
7
283
0
  0
ENDSEC
  0
EOF
