999
DXF file: B3W_assy_2.dxf
999
Pro/ENGINEER 2014200 by Parametric Technology Corporation
  0
SECTION
  2
HEADER
  9
$ACADVER
  1
AC1021
  9
$DWGCODEPAGE
  3
ANSI_1252
  9
$EXTMAX
 10
22.0
 20
17.0
 30
0.0
  9
$EXTMIN
 10
0.0
 20
0.0
 30
0.0
  9
$LIMMIN
 10
0.0
 20
0.0
  9
$LIMMAX
 10
22.0
 20
17.0
  9
$VIEWCTR
 10
11.0
 20
8.5
  9
$VIEWSIZE
 40
17.0
  9
$CLAYER
  8
0
  9
$LTSCALE
 40
1.21
  9
$CELTYPE
  6
BYLAYER
  9
$DIMSCALE
 40
1.0
  9
$DIMASZ
 40
0.1875
  9
$DIMEXO
 40
0.0625
  9
$DIMDLI
 40
0.836
  9
$DIMEXE
 40
0.125
  9
$DIMCEN
 40
0.198
  9
$DIMLFAC
 40
1.0
  9
$DIMBLK
  1
_FILLED
  9
$DIMTXT
 40
0.1
  9
$DIMTOL
 70
0
  9
$DIMLIM
 70
0
  9
$DIMTFAC
 40
1.0
  9
$DIMGAP
 40
0.09
  9
$DIMDSEP
 70
46
  9
$AUNITS
 70
0
  9
$PDMODE
 70
3
  9
$PDSIZE
 40
0.3125
  9
$HANDSEED
  5
3C0
  9
$TILEMODE
 70
1
  9
$MEASUREMENT
 70
0
  9
$INSUNITS
 70
1
  0
ENDSEC
  0
SECTION
  2
CLASSES
  0
CLASS
  1
ACDBDICTIONARYWDFLT
  2
AcDbDictionaryWithDefault
  3
AutoCAD 2000
 90
0
 91
1
280
0
281
0
  0
CLASS
  1
ACDBPLACEHOLDER
  2
AcDbPlaceHolder
  3
AutoCAD 2000
 90
0
 91
1
280
0
281
0
  0
CLASS
  1
LAYOUT
  2
AcDbLayout
  3
AutoCAD 2000
 90
0
 91
0
280
0
281
0
  0
CLASS
  1
RASTERVARIABLES
  2
AcDbRasterVariables
  3
ISM
 90
0
 91
1
280
0
281
0
  0
CLASS
  1
IMAGEDEF
  2
AcDbRasterImageDef
  3
ISM
 90
0
 91
1
280
0
281
0
  0
CLASS
  1
IMAGEDEF_REACTOR
  2
AcDbRasterImageDefReactor
  3
ISM
 90
0
 91
1
280
0
281
0
  0
CLASS
  1
IMAGE
  2
AcDbRasterImage
  3
ISM
 90
127
 91
1
280
0
281
1
  0
CLASS
  1
TABLESTYLE
  2
AcDbTableStyle
  3
ObjectDBX Classes
 90
2047
 91
1
280
0
281
0
  0
CLASS
  1
ACAD_TABLE
  2
AcDbTable
  3
ObjectDBX Classes
 90
1025
 91
3
280
0
281
1
  0
ENDSEC
  0
SECTION
  2
TABLES
  0
TABLE
  2
VPORT
  5
8
100
AcDbSymbolTable
 70
2
  0
VPORT
  5
1F4
100
AcDbSymbolTableRecord
100
AcDbViewportTableRecord
  2
*ACTIVE
 70
0
 10
0.0
 20
0.0
 11
1.0
 21
1.0
 12
11.0
 22
8.5
 13
0.0
 23
0.0
 14
1.0
 24
1.0
 15
0.0
 25
0.0
 16
0.0
 26
0.0
 36
1.0
 17
0.0
 27
0.0
 37
0.0
 40
17.0
 41
1.2941176471
 42
50.0
 43
0.0
 44
0.0
 50
0.0
 51
0.0
 71
0
 72
100
 73
1
 74
1
 75
0
 76
0
 77
0
 78
0
  0
ENDTAB
  0
TABLE
  2
LTYPE
  5
5
100
AcDbSymbolTable
 70
6
  0
LTYPE
  5
14
100
AcDbSymbolTableRecord
100
AcDbLinetypeTableRecord
  2
BYBLOCK
 70
0
  3

 72
65
 73
0
 40
0.0
  0
LTYPE
  5
15
100
AcDbSymbolTableRecord
100
AcDbLinetypeTableRecord
  2
BYLAYER
 70
0
  3

 72
65
 73
0
 40
0.0
  0
LTYPE
  5
16
100
AcDbSymbolTableRecord
100
AcDbLinetypeTableRecord
  2
CONTINUOUS
 70
64
  3
Solid line
 72
65
 73
0
 40
0.0
  0
LTYPE
  5
1F5
100
AcDbSymbolTableRecord
100
AcDbLinetypeTableRecord
  2
CENTER
 70
64
  3
____ _ ____ _ ____ _ ____ _ ____ _ ____ _ ____
 72
65
 73
4
 40
0.6
 49
0.375
 74
0
 49
-0.075
 74
0
 49
0.075
 74
0
 49
-0.075
 74
0
  0
LTYPE
  5
1F6
100
AcDbSymbolTableRecord
100
AcDbLinetypeTableRecord
  2
HIDDEN
 70
64
  3
- - - - - - - - - - - - - - - - - - - -
 72
65
 73
2
 40
0.2
 49
0.1
 74
0
 49
-0.1
 74
0
  0
LTYPE
  5
1F7
100
AcDbSymbolTableRecord
100
AcDbLinetypeTableRecord
  2
PHANTOM
 70
64
  3
_____ _ _ _____ _ _ _____ _ _ _____
 72
65
 73
6
 40
0.8
 49
0.45
 74
0
 49
-0.05
 74
0
 49
0.1
 74
0
 49
-0.05
 74
0
 49
0.1
 74
0
 49
-0.05
 74
0
  0
LTYPE
  5
1F8
100
AcDbSymbolTableRecord
100
AcDbLinetypeTableRecord
  2
DOT
 70
64
  3
. . . . . . . . . . . . . . . . . . . .
 72
65
 73
2
 40
0.2
 49
0.1
 74
0
 49
-0.1
 74
0
  0
LTYPE
  5
1F9
100
AcDbSymbolTableRecord
100
AcDbLinetypeTableRecord
  2
DASHED
 70
64
  3
- - - - - - - - - - - - - - - - - - - -
 72
65
 73
2
 40
0.2
 49
0.1
 74
0
 49
-0.1
 74
0
  0
ENDTAB
  0
TABLE
  2
LAYER
  5
2
100
AcDbSymbolTable
 70
36
  0
LAYER
  5
10
100
AcDbSymbolTableRecord
100
AcDbLayerTableRecord
  2
0
 70
0
 62
7
  6
CONTINUOUS
370
-3
390
F
  0
LAYER
  5
1FA
100
AcDbSymbolTableRecord
100
AcDbLayerTableRecord
  2
DEFAULT_1
 70
0
 62
7
  6
CENTER
370
-3
390
F
  0
LAYER
  5
1FB
100
AcDbSymbolTableRecord
100
AcDbLayerTableRecord
  2
DEFAULT_2
 70
0
 62
8
  6
HIDDEN
370
-3
390
F
  0
LAYER
  5
1FC
100
AcDbSymbolTableRecord
100
AcDbLayerTableRecord
  2
DEFAULT_3
 70
0
 62
7
  6
PHANTOM
370
-3
390
F
  0
LAYER
  5
1FD
100
AcDbSymbolTableRecord
100
AcDbLayerTableRecord
  2
01___PRT_ALL_DTM_PLN
 70
0
 62
7
  6
CONTINUOUS
370
-3
390
F
  0
LAYER
  5
1FE
100
AcDbSymbolTableRecord
100
AcDbLayerTableRecord
  2
01___PRT_DEF_DTM_PLN
 70
0
 62
7
  6
CONTINUOUS
370
-3
390
F
  0
LAYER
  5
1FF
100
AcDbSymbolTableRecord
100
AcDbLayerTableRecord
  2
02___PRT_ALL_AXES
 70
0
 62
7
  6
CONTINUOUS
370
-3
390
F
  0
LAYER
  5
200
100
AcDbSymbolTableRecord
100
AcDbLayerTableRecord
  2
03___PRT_ALL_CURVES
 70
0
 62
7
  6
CONTINUOUS
370
-3
390
F
  0
LAYER
  5
201
100
AcDbSymbolTableRecord
100
AcDbLayerTableRecord
  2
04___PRT_ALL_DTM_PNT
 70
0
 62
7
  6
CONTINUOUS
370
-3
390
F
  0
LAYER
  5
202
100
AcDbSymbolTableRecord
100
AcDbLayerTableRecord
  2
05___PRT_ALL_DTM_CSYS
 70
0
 62
7
  6
CONTINUOUS
370
-3
390
F
  0
LAYER
  5
203
100
AcDbSymbolTableRecord
100
AcDbLayerTableRecord
  2
05___PRT_DEF_DTM_CSYS
 70
0
 62
7
  6
CONTINUOUS
370
-3
390
F
  0
LAYER
  5
204
100
AcDbSymbolTableRecord
100
AcDbLayerTableRecord
  2
06___PRT_ALL_SURFS
 70
0
 62
7
  6
CONTINUOUS
370
-3
390
F
  0
LAYER
  5
205
100
AcDbSymbolTableRecord
100
AcDbLayerTableRecord
  2
DATUM_PLANES
 70
0
 62
7
  6
CONTINUOUS
370
-3
390
F
  0
LAYER
  5
206
100
AcDbSymbolTableRecord
100
AcDbLayerTableRecord
  2
PORT_AREAS
 70
0
 62
7
  6
CONTINUOUS
370
-3
390
F
  0
LAYER
  5
207
100
AcDbSymbolTableRecord
100
AcDbLayerTableRecord
  2
SUNNBOMCOSMETIC
 70
0
 62
7
  6
CONTINUOUS
370
-3
390
F
  0
LAYER
  5
208
100
AcDbSymbolTableRecord
100
AcDbLayerTableRecord
  2
SUNNBOMSTAMPING
 70
0
 62
7
  6
CONTINUOUS
370
-3
390
F
  0
LAYER
  5
209
100
AcDbSymbolTableRecord
100
AcDbLayerTableRecord
  2
THREADS
 70
0
 62
7
  6
CONTINUOUS
370
-3
390
F
  0
ENDTAB
  0
TABLE
  2
STYLE
  5
3
100
AcDbSymbolTable
 70
1
  0
STYLE
  5
11
100
AcDbSymbolTableRecord
100
AcDbTextStyleTableRecord
  2
STANDARD
 70
0
 40
0.0
 41
0.8
 50
0.0
 71
0
 42
0.2
  3
txt
  4

  0
STYLE
  5
20A
100
AcDbSymbolTableRecord
100
AcDbTextStyleTableRecord
  2
TEXTSTYLE_1
 70
0
 40
0.0
 41
0.8
 50
0.0
 71
0
 42
0.2
  3
gdt
  4

  0
ENDTAB
  0
TABLE
  2
VIEW
  5
6
100
AcDbSymbolTable
 70
0
  0
ENDTAB
  0
TABLE
  2
UCS
  5
7
100
AcDbSymbolTable
 70
0
  0
ENDTAB
  0
TABLE
  2
APPID
  5
9
100
AcDbSymbolTable
 70
1
  0
APPID
  5
20B
100
AcDbSymbolTableRecord
100
AcDbRegAppTableRecord
  2
ACAD
 70
0
  0
ENDTAB
  0
TABLE
  2
BLOCK_RECORD
  5
1
100
AcDbSymbolTable
 70
0
  0
BLOCK_RECORD
  5
20C
100
AcDbSymbolTableRecord
100
AcDbBlockTableRecord
  2
*Model_Space
  0
BLOCK_RECORD
  5
20D
100
AcDbSymbolTableRecord
100
AcDbBlockTableRecord
  2
*Paper_Space
  0
BLOCK_RECORD
  5
20E
100
AcDbSymbolTableRecord
100
AcDbBlockTableRecord
  2
SUN_FIRST_THIRD_ANGLE_BL0
  0
BLOCK_RECORD
  5
20F
100
AcDbSymbolTableRecord
100
AcDbBlockTableRecord
  2
*T1
  0
BLOCK_RECORD
  5
210
100
AcDbSymbolTableRecord
100
AcDbBlockTableRecord
  2
*T2
  0
BLOCK_RECORD
  5
211
100
AcDbSymbolTableRecord
100
AcDbBlockTableRecord
  2
*T3
  0
ENDTAB
  0
TABLE
  2
DIMSTYLE
  5
A
100
AcDbSymbolTable
 70
1
100
AcDbDimStyleTable
 71
0
  0
DIMSTYLE
105
212
100
AcDbSymbolTableRecord
100
AcDbDimStyleTableRecord
  2
STANDARD
 70
0
  3

  4

 40
1.0
 41
0.1875
 42
0.0625
 43
0.38
 44
0.125
 45
0.0
 46
0.0
 47
0.001
 48
0.001
140
0.1
141
0.09
142
0.0
143
25.4
144
1.0
145
0.0
146
1.0
147
0.09
 71
0.0
 72
0.0
 73
1
 74
1
 75
0
 76
0
 77
0
 78
4
170
0
171
2
172
0
173
0
174
0
175
0
176
0
177
0
178
0
270
2
271
3
272
3
273
2
274
2
275
0
280
0
281
0
282
0
283
1
284
4
285
0
286
0
287
3
288
0
340
11
278
46
  0
ENDTAB
  0
ENDSEC
  0
SECTION
  2
BLOCKS
  0
BLOCK
  5
20
100
AcDbEntity
  8
0
100
AcDbBlockBegin
  2
*Model_Space
 70
0
 10
0.0
 20
0.0
 30
0.0
  3
*Model_Space
  1

  0
ENDBLK
  5
21
100
AcDbEntity
  8
0
100
AcDbBlockEnd
  0
BLOCK
  5
1C
100
AcDbEntity
  8
0
100
AcDbBlockBegin
  2
*Paper_Space
 70
0
 10
0.0
 20
0.0
 30
0.0
  3
*Paper_Space
  1

  0
ENDBLK
  5
1D
100
AcDbEntity
  8
0
100
AcDbBlockEnd
  0
BLOCK
  5
213
100
AcDbEntity
  8
0
100
AcDbBlockBegin
 62
2
  6
CONTINUOUS
  2
SUN_FIRST_THIRD_ANGLE_BL0
 70
64
 10
20.4816717061
 20
1.2289683772
  3
SUN_FIRST_THIRD_ANGLE_BL0
  1

  0
TEXT
  5
214
100
AcDbEntity
  8
0
100
AcDbText
 62
2
  6
CONTINUOUS
 10
19.4750896608
 20
1.4136269581
  7
STANDARD
 40
0.08
  1
FIRST ANGLE
 41
0.8
 72
0
100
AcDbText
  0
TEXT
  5
215
100
AcDbEntity
  8
0
100
AcDbText
 62
2
  6
CONTINUOUS
 10
20.7842537513
 20
1.4047600029
  7
STANDARD
 40
0.08
  1
THIRD ANGLE
 41
0.8
 72
0
100
AcDbText
  0
LINE
  5
216
100
AcDbEntity
  8
0
100
AcDbLine
 62
7
  6
CONTINUOUS
 10
19.4767170086
 20
1.1727031207
 11
19.6334271527
 21
1.1717972817
  0
LINE
  5
217
100
AcDbEntity
  8
0
100
AcDbLine
 62
7
  6
CONTINUOUS
 10
19.6596964832
 20
1.1717972817
 11
19.6950230232
 21
1.171593082
  0
LINE
  5
218
100
AcDbEntity
  8
0
100
AcDbLine
 62
7
  6
CONTINUOUS
 10
19.7194818561
 20
1.1708914427
 11
19.8852396156
 21
1.1699333054
  0
LINE
  5
219
100
AcDbEntity
  8
0
100
AcDbLine
 62
7
  6
CONTINUOUS
 10
19.4758111696
 20
1.2723454088
 11
19.88525039
 21
1.3511534004
  0
LINE
  5
21A
100
AcDbEntity
  8
0
100
AcDbLine
 62
7
  6
CONTINUOUS
 10
19.88525039
 20
1.3511534004
 11
19.8831348489
 21
0.9851647912
  0
LINE
  5
21B
100
AcDbEntity
  8
0
100
AcDbLine
 62
7
  6
CONTINUOUS
 10
19.8831348489
 20
0.9851647912
 11
19.4767170086
 21
1.0658141206
  0
LINE
  5
21C
100
AcDbEntity
  8
0
100
AcDbLine
 62
7
  6
CONTINUOUS
 10
19.4767170086
 20
1.0658141206
 11
19.4779056764
 21
1.2714536432
  0
CIRCLE
  5
21D
100
AcDbEntity
  8
0
100
AcDbCircle
 62
7
  6
CONTINUOUS
 10
20.2068232291
 20
1.1717972817
 40
0.175742101
  0
CIRCLE
  5
21E
100
AcDbEntity
  8
0
100
AcDbCircle
 62
7
  6
CONTINUOUS
 10
20.2068232291
 20
1.1717972817
 40
0.1005522074
  0
LINE
  5
21F
100
AcDbEntity
  8
0
100
AcDbLine
 62
7
  6
CONTINUOUS
 10
20.2077290681
 20
1.3756110529
 11
20.2071171714
 21
1.2379342989
  0
LINE
  5
220
100
AcDbEntity
  8
0
100
AcDbLine
 62
7
  6
CONTINUOUS
 10
20.2077290681
 20
1.2016899681
 11
20.2074674401
 21
1.1428236749
  0
LINE
  5
221
100
AcDbEntity
  8
0
100
AcDbLine
 62
7
  6
CONTINUOUS
 10
20.208634907
 20
1.101141841
 11
20.2080230104
 21
0.963465087
  0
LINE
  5
222
100
AcDbEntity
  8
0
100
AcDbLine
 62
7
  6
CONTINUOUS
 10
20.0066328138
 20
1.1745147986
 11
20.1443095678
 21
1.1739029019
  0
LINE
  5
223
100
AcDbEntity
  8
0
100
AcDbLine
 62
7
  6
CONTINUOUS
 10
20.1832714155
 20
1.1727031207
 11
20.238153505
 21
1.172335442
  0
LINE
  5
224
100
AcDbEntity
  8
0
100
AcDbLine
 62
7
  6
CONTINUOUS
 10
20.2756669918
 20
1.1717972817
 11
20.407916871
 21
1.1712095044
  0
CIRCLE
  5
225
100
AcDbEntity
  8
0
100
AcDbCircle
 62
7
  6
CONTINUOUS
 10
20.7509457401
 20
1.1693297793
 40
0.1722024983
  0
CIRCLE
  5
226
100
AcDbEntity
  8
0
100
AcDbCircle
 62
7
  6
CONTINUOUS
 10
20.7509457401
 20
1.1693297793
 40
0.0985164967
  0
LINE
  5
227
100
AcDbEntity
  8
0
100
AcDbLine
 62
7
  6
CONTINUOUS
 10
20.7169767782
 20
1.170462078
 11
20.7825395137
 21
1.1682766535
  0
LINE
  5
228
100
AcDbEntity
  8
0
100
AcDbLine
 62
7
  6
CONTINUOUS
 10
20.8177513651
 20
1.1693297793
 11
20.947965719
 21
1.1693297793
  0
LINE
  5
229
100
AcDbEntity
  8
0
100
AcDbLine
 62
7
  6
CONTINUOUS
 10
20.6875370113
 20
1.170462078
 11
20.5573226574
 21
1.170462078
  0
LINE
  5
22A
100
AcDbEntity
  8
0
100
AcDbLine
 62
7
  6
CONTINUOUS
 10
20.7486811426
 20
1.1987695462
 11
20.7486811426
 21
1.1432869085
  0
LINE
  5
22B
100
AcDbEntity
  8
0
100
AcDbLine
 62
7
  6
CONTINUOUS
 10
20.7498134414
 20
1.1059210505
 11
20.7498134414
 21
0.9757066966
  0
LINE
  5
22C
100
AcDbEntity
  8
0
100
AcDbLine
 62
7
  6
CONTINUOUS
 10
20.7486811426
 20
1.2338708068
 11
20.7486811426
 21
1.3640851607
  0
LINE
  5
22D
100
AcDbEntity
  8
0
100
AcDbLine
 62
7
  6
CONTINUOUS
 10
21.0702539817
 20
1.2701043662
 11
21.4790138229
 21
1.3448360823
  0
LINE
  5
22E
100
AcDbEntity
  8
0
100
AcDbLine
 62
7
  6
CONTINUOUS
 10
21.4790138229
 20
1.3448360823
 11
21.4790138229
 21
0.9779712941
  0
LINE
  5
22F
100
AcDbEntity
  8
0
100
AcDbLine
 62
7
  6
CONTINUOUS
 10
21.4790138229
 20
0.9779712941
 11
21.069121683
 21
1.0617614
  0
LINE
  5
230
100
AcDbEntity
  8
0
100
AcDbLine
 62
7
  6
CONTINUOUS
 10
21.0702539817
 20
1.2701043662
 11
21.069121683
 21
1.0617614
  0
LINE
  5
231
100
AcDbEntity
  8
0
100
AcDbLine
 62
7
  6
CONTINUOUS
 10
21.4790138229
 20
1.1693297793
 11
21.3159628059
 21
1.1693297793
  0
LINE
  5
232
100
AcDbEntity
  8
0
100
AcDbLine
 62
7
  6
CONTINUOUS
 10
21.2876553377
 20
1.1693297793
 11
21.2502894796
 21
1.1693297793
  0
LINE
  5
233
100
AcDbEntity
  8
0
100
AcDbLine
 62
7
  6
CONTINUOUS
 10
21.2208497126
 20
1.1659328831
 11
21.0713862804
 21
1.1659328831
  0
LINE
  5
234
100
AcDbEntity
  8
0
100
AcDbLine
 62
7
  6
CONTINUOUS
 10
20.4796138713
 20
1.5284908897
 11
20.4766766948
 21
0.9294458646
  0
ENDBLK
  5
235
100
AcDbEntity
  8
0
  6
BYBLOCK
 62
0
100
AcDbBlockEnd
  0
BLOCK
  5
236
100
AcDbEntity
  8
0
100
AcDbBlockBegin
  2
*T1
 70
1
 10
0.0
 20
0.0
  3
*T1
  1

  0
LINE
  5
237
100
AcDbEntity
  8
0
100
AcDbLine
 62
2
  6
CONTINUOUS
 10
9.275
 20
0.0
 11
-0.0
 21
0.0
  0
LINE
  5
238
100
AcDbEntity
  8
0
100
AcDbLine
 62
2
  6
CONTINUOUS
 10
9.275
 20
0.0
 11
9.275
 21
1.25
  0
LINE
  5
239
100
AcDbEntity
  8
0
100
AcDbLine
 62
2
  6
CONTINUOUS
 10
9.275
 20
0.625
 11
-0.0
 21
0.625
  0
LINE
  5
23A
100
AcDbEntity
  8
0
100
AcDbLine
 62
2
  6
CONTINUOUS
 10
9.275
 20
1.25
 11
-0.0
 21
1.25
  0
LINE
  5
23B
100
AcDbEntity
  8
0
100
AcDbLine
 62
2
  6
CONTINUOUS
 10
6.8
 20
0.0
 11
6.8
 21
1.25
  0
LINE
  5
23C
100
AcDbEntity
  8
0
100
AcDbLine
 62
2
  6
CONTINUOUS
 10
6.4
 20
0.0
 11
6.4
 21
0.625
  0
LINE
  5
23D
100
AcDbEntity
  8
0
100
AcDbLine
 62
2
  6
CONTINUOUS
 10
5.9
 20
0.0
 11
5.9
 21
0.625
  0
LINE
  5
23E
100
AcDbEntity
  8
0
100
AcDbLine
 62
2
  6
CONTINUOUS
 10
5.2
 20
0.0
 11
5.2
 21
0.625
  0
LINE
  5
23F
100
AcDbEntity
  8
0
100
AcDbLine
 62
2
  6
CONTINUOUS
 10
4.1
 20
0.0
 11
4.1
 21
1.25
  0
LINE
  5
240
100
AcDbEntity
  8
0
100
AcDbLine
 62
2
  6
CONTINUOUS
 10
-0.0
 20
0.0
 11
-0.0
 21
1.25
  0
MTEXT
  5
241
100
AcDbEntity
  8
0
100
AcDbMText
 62
2
  6
CONTINUOUS
  7
STANDARD
 71
2
 72
1
 10
6.6
 20
0.325
 30
0.0
 11
1.0
 21
0.0
 31
0.0
 44
0.9
  1
2
 40
0.125
 41
0.2
  0
MTEXT
  5
242
100
AcDbEntity
  8
0
100
AcDbMText
 62
2
  6
CONTINUOUS
  7
STANDARD
 71
2
 72
1
 10
6.15
 20
0.325
 30
0.0
 11
1.0
 21
0.0
 31
0.0
 44
0.9
  1
C
 40
0.125
 41
0.2
  0
MTEXT
  5
243
100
AcDbEntity
  8
0
100
AcDbMText
 62
2
  6
CONTINUOUS
  7
STANDARD
 71
2
 72
1
 10
5.55
 20
0.325
 30
0.0
 11
1.0
 21
0.0
 31
0.0
 44
0.9
  1
1.000
 40
0.125
 41
1.0
  0
MTEXT
  5
244
100
AcDbEntity
  8
0
100
AcDbMText
 62
2
  6
CONTINUOUS
  7
STANDARD
 71
2
 72
1
 10
4.65
 20
0.325
 30
0.0
 11
1.0
 21
0.0
 31
0.0
 44
0.9
  1
Oct-29-21
 40
0.125
 41
1.8
  0
MTEXT
  5
245
100
AcDbEntity
  8
0
100
AcDbMText
 62
2
  6
CONTINUOUS
  7
STANDARD
 71
2
 72
1
 10
2.05
 20
0.4625
 30
0.0
 11
1.0
 21
0.0
 31
0.0
 44
0.9
  1
T-2A Line mount\PThrough port 2 with reverse flow check
 40
0.125
 41
7.6
  0
MTEXT
  5
246
100
AcDbEntity
  8
0
100
AcDbMText
 62
2
  6
CONTINUOUS
  7
STANDARD
 71
1
 72
1
 10
6.45
 20
0.5625
 30
0.0
 11
1.0
 21
0.0
 31
0.0
 44
0.9
  1
SHEET
 40
0.06
 41
0.48
  0
MTEXT
  5
247
100
AcDbEntity
  8
0
100
AcDbMText
 62
2
  6
CONTINUOUS
  7
STANDARD
 71
1
 72
1
 10
5.95
 20
0.5625
 30
0.0
 11
1.0
 21
0.0
 31
0.0
 44
0.9
  1
DWG SIZE
 40
0.06
 41
0.768
  0
MTEXT
  5
248
100
AcDbEntity
  8
0
100
AcDbMText
 62
2
  6
CONTINUOUS
  7
STANDARD
 71
1
 72
1
 10
5.25
 20
0.5625
 30
0.0
 11
1.0
 21
0.0
 31
0.0
 44
0.9
  1
SCALE
 40
0.06
 41
0.48
  0
MTEXT
  5
249
100
AcDbEntity
  8
0
100
AcDbMText
 62
2
  6
CONTINUOUS
  7
STANDARD
 71
1
 72
1
 10
4.15
 20
0.5625
 30
0.0
 11
1.0
 21
0.0
 31
0.0
 44
0.9
  1
DATE
 40
0.06
 41
0.384
  0
MTEXT
  5
24A
100
AcDbEntity
  8
0
100
AcDbMText
 62
2
  6
CONTINUOUS
  7
STANDARD
 71
1
 72
1
 10
0.05
 20
0.5625
 30
0.0
 11
1.0
 21
0.0
 31
0.0
 44
0.9
  1
DESCRIPTION
 40
0.06
 41
1.056
  0
MTEXT
  5
24B
100
AcDbEntity
  8
0
100
AcDbMText
 62
2
  6
CONTINUOUS
  7
STANDARD
 71
2
 72
1
 10
5.45
 20
1.0375
 30
0.0
 11
1.0
 21
0.0
 31
0.0
 44
0.9
  1
ALL DIMENSIONS IN INCH\PVIEWS ARE THIRD ANGLE
 40
0.12
 41
4.224
  0
MTEXT
  5
24C
100
AcDbEntity
  8
0
100
AcDbMText
 62
2
  6
CONTINUOUS
  7
STANDARD
 71
2
 72
1
 10
2.05
 20
0.95
 30
0.0
 11
1.0
 21
0.0
 31
0.0
 44
0.9
  1
B3W
 40
0.125
 41
0.6
  0
MTEXT
  5
24D
100
AcDbEntity
  8
0
100
AcDbMText
 62
2
  6
CONTINUOUS
  7
STANDARD
 71
1
 72
1
 10
0.05
 20
1.1875
 30
0.0
 11
1.0
 21
0.0
 31
0.0
 44
0.9
  1
MODEL
 40
0.06
 41
0.48
  0
ENDBLK
  5
24E
100
AcDbEntity
  8
0
  6
BYBLOCK
 62
0
100
AcDbBlockEnd
  0
BLOCK
  5
24F
100
AcDbEntity
  8
0
100
AcDbBlockBegin
  2
*T2
 70
1
 10
0.0
 20
0.0
  3
*T2
  1

  0
LINE
  5
250
100
AcDbEntity
  8
0
100
AcDbLine
 62
2
  6
CONTINUOUS
 10
0.0
 20
0.0
 11
9.055
 21
0.0
  0
LINE
  5
251
100
AcDbEntity
  8
0
100
AcDbLine
 62
2
  6
CONTINUOUS
 10
0.0
 20
0.0
 11
0.0
 21
-2.594
  0
LINE
  5
252
100
AcDbEntity
  8
0
100
AcDbLine
 62
2
  6
CONTINUOUS
 10
0.0
 20
-0.344
 11
9.055
 21
-0.344
  0
LINE
  5
253
100
AcDbEntity
  8
0
100
AcDbLine
 62
2
  6
CONTINUOUS
 10
0.0
 20
-0.594
 11
9.055
 21
-0.594
  0
LINE
  5
254
100
AcDbEntity
  8
0
100
AcDbLine
 62
2
  6
CONTINUOUS
 10
0.0
 20
-0.844
 11
9.055
 21
-0.844
  0
LINE
  5
255
100
AcDbEntity
  8
0
100
AcDbLine
 62
2
  6
CONTINUOUS
 10
0.0
 20
-1.094
 11
9.055
 21
-1.094
  0
LINE
  5
256
100
AcDbEntity
  8
0
100
AcDbLine
 62
2
  6
CONTINUOUS
 10
0.0
 20
-1.344
 11
9.055
 21
-1.344
  0
LINE
  5
257
100
AcDbEntity
  8
0
100
AcDbLine
 62
2
  6
CONTINUOUS
 10
0.0
 20
-1.594
 11
9.055
 21
-1.594
  0
LINE
  5
258
100
AcDbEntity
  8
0
100
AcDbLine
 62
2
  6
CONTINUOUS
 10
0.0
 20
-1.844
 11
9.055
 21
-1.844
  0
LINE
  5
259
100
AcDbEntity
  8
0
100
AcDbLine
 62
2
  6
CONTINUOUS
 10
0.0
 20
-2.094
 11
9.055
 21
-2.094
  0
LINE
  5
25A
100
AcDbEntity
  8
0
100
AcDbLine
 62
2
  6
CONTINUOUS
 10
0.0
 20
-2.344
 11
9.055
 21
-2.344
  0
LINE
  5
25B
100
AcDbEntity
  8
0
100
AcDbLine
 62
2
  6
CONTINUOUS
 10
0.0
 20
-2.594
 11
9.055
 21
-2.594
  0
LINE
  5
25C
100
AcDbEntity
  8
0
100
AcDbLine
 62
2
  6
CONTINUOUS
 10
3.055
 20
0.0
 11
3.055
 21
-2.594
  0
LINE
  5
25D
100
AcDbEntity
  8
0
100
AcDbLine
 62
2
  6
CONTINUOUS
 10
9.055
 20
0.0
 11
9.055
 21
-2.594
  0
MTEXT
  5
25E
100
AcDbEntity
  8
0
100
AcDbMText
 62
2
  6
CONTINUOUS
  7
STANDARD
 71
2
 72
1
 10
1.5275
 20
-0.0995
 30
0.0
 11
1.0
 21
0.0
 31
0.0
 44
0.9
  1
Technical Data
 40
0.145
 41
3.248
  0
MTEXT
  5
25F
100
AcDbEntity
  8
0
100
AcDbMText
 62
2
  6
CONTINUOUS
  7
STANDARD
 71
2
 72
1
 10
4.555
 20
-0.0995
 30
0.0
 11
1.0
 21
0.0
 31
0.0
 44
0.9
  1
U.S. Units
 40
0.145
 41
2.32
  0
MTEXT
  5
260
100
AcDbEntity
  8
0
100
AcDbMText
 62
2
  6
CONTINUOUS
  7
STANDARD
 71
2
 72
1
 10
7.555
 20
-0.0995
 30
0.0
 11
1.0
 21
0.0
 31
0.0
 44
0.9
  1
Metric Units
 40
0.145
 41
2.784
  0
MTEXT
  5
261
100
AcDbEntity
  8
0
100
AcDbMText
 62
2
  6
CONTINUOUS
  7
STANDARD
 71
2
 72
1
 10
1.5275
 20
-0.4065
 30
0.0
 11
1.0
 21
0.0
 31
0.0
 44
0.9
  1
Cavity
 40
0.125
 41
1.2
  0
MTEXT
  5
262
100
AcDbEntity
  8
0
100
AcDbMText
 62
2
  6
CONTINUOUS
  7
STANDARD
 71
2
 72
1
 10
6.055
 20
-0.4065
 30
0.0
 11
1.0
 21
0.0
 31
0.0
 44
0.9
  1
T-2A
 40
0.125
 41
0.8
  0
MTEXT
  5
263
100
AcDbEntity
  8
0
100
AcDbMText
 62
2
  6
CONTINUOUS
  7
STANDARD
 71
2
 72
1
 10
1.5275
 20
-0.6565
 30
0.0
 11
1.0
 21
0.0
 31
0.0
 44
0.9
  1
Body Features
 40
0.125
 41
2.6
  0
MTEXT
  5
264
100
AcDbEntity
  8
0
100
AcDbMText
 62
2
  6
CONTINUOUS
  7
STANDARD
 71
2
 72
1
 10
6.055
 20
-0.6565
 30
0.0
 11
1.0
 21
0.0
 31
0.0
 44
0.9
  1
Through port 2 with reverse flow check
 40
0.125
 41
7.6
  0
MTEXT
  5
265
100
AcDbEntity
  8
0
100
AcDbMText
 62
2
  6
CONTINUOUS
  7
STANDARD
 71
2
 72
1
 10
1.5275
 20
-0.9065
 30
0.0
 11
1.0
 21
0.0
 31
0.0
 44
0.9
  1
Body Type
 40
0.125
 41
1.8
  0
MTEXT
  5
266
100
AcDbEntity
  8
0
100
AcDbMText
 62
2
  6
CONTINUOUS
  7
STANDARD
 71
2
 72
1
 10
6.055
 20
-0.9065
 30
0.0
 11
1.0
 21
0.0
 31
0.0
 44
0.9
  1
Line mount
 40
0.125
 41
2.0
  0
MTEXT
  5
267
100
AcDbEntity
  8
0
100
AcDbMText
 62
2
  6
CONTINUOUS
  7
STANDARD
 71
2
 72
1
 10
1.5275
 20
-1.1565
 30
0.0
 11
1.0
 21
0.0
 31
0.0
 44
0.9
  1
Interface
 40
0.125
 41
1.8
  0
MTEXT
  5
268
100
AcDbEntity
  8
0
100
AcDbMText
 62
2
  6
CONTINUOUS
  7
STANDARD
 71
2
 72
1
 10
6.055
 20
-1.1565
 30
0.0
 11
1.0
 21
0.0
 31
0.0
 44
0.9
  1
None
 40
0.125
 41
0.8
  0
MTEXT
  5
269
100
AcDbEntity
  8
0
100
AcDbMText
 62
2
  6
CONTINUOUS
  7
STANDARD
 71
2
 72
1
 10
1.5275
 20
-1.4065
 30
0.0
 11
1.0
 21
0.0
 31
0.0
 44
0.9
  1
Open Cavity Quantity
 40
0.125
 41
4.0
  0
MTEXT
  5
26A
100
AcDbEntity
  8
0
100
AcDbMText
 62
2
  6
CONTINUOUS
  7
STANDARD
 71
2
 72
1
 10
6.055
 20
-1.4065
 30
0.0
 11
1.0
 21
0.0
 31
0.0
 44
0.9
  1
1
 40
0.125
 41
0.2
  0
MTEXT
  5
26B
100
AcDbEntity
  8
0
100
AcDbMText
 62
2
  6
CONTINUOUS
  7
STANDARD
 71
2
 72
1
 10
1.5275
 20
-1.6565
 30
0.0
 11
1.0
 21
0.0
 31
0.0
 44
0.9
  1
Weight
 40
0.125
 41
1.2
  0
MTEXT
  5
26C
100
AcDbEntity
  8
0
100
AcDbMText
 62
2
  6
CONTINUOUS
  7
STANDARD
 71
2
 72
1
 10
4.555
 20
-1.6565
 30
0.0
 11
1.0
 21
0.0
 31
0.0
 44
0.9
  1
3.353 lb.
 40
0.125
 41
1.8
  0
MTEXT
  5
26D
100
AcDbEntity
  8
0
100
AcDbMText
 62
2
  6
CONTINUOUS
  7
STANDARD
 71
2
 72
1
 10
7.555
 20
-1.6565
 30
0.0
 11
1.0
 21
0.0
 31
0.0
 44
0.9
  1
1,521 kg.
 40
0.125
 41
1.8
  0
MTEXT
  5
26E
100
AcDbEntity
  8
0
100
AcDbMText
 62
2
  6
CONTINUOUS
  7
STANDARD
 71
2
 72
1
 10
1.5275
 20
-1.9065
 30
0.0
 11
1.0
 21
0.0
 31
0.0
 44
0.9
  1
Mounting Hole Thread
 40
0.125
 41
4.0
  0
MTEXT
  5
26F
100
AcDbEntity
  8
0
100
AcDbMText
 62
2
  6
CONTINUOUS
  7
STANDARD
 71
2
 72
1
 10
6.055
 20
-1.9065
 30
0.0
 11
1.0
 21
0.0
 31
0.0
 44
0.9
  1
M10x1.5 - 6H
 40
0.125
 41
2.4
  0
MTEXT
  5
270
100
AcDbEntity
  8
0
100
AcDbMText
 62
2
  6
CONTINUOUS
  7
STANDARD
 71
2
 72
1
 10
1.5275
 20
-2.1565
 30
0.0
 11
1.0
 21
0.0
 31
0.0
 44
0.9
  1
Mounting Hole Depth
 40
0.125
 41
3.8
  0
MTEXT
  5
271
100
AcDbEntity
  8
0
100
AcDbMText
 62
2
  6
CONTINUOUS
  7
STANDARD
 71
2
 72
1
 10
4.555
 20
-2.1565
 30
0.0
 11
1.0
 21
0.0
 31
0.0
 44
0.9
  1
.62 in.
 40
0.125
 41
1.4
  0
MTEXT
  5
272
100
AcDbEntity
  8
0
100
AcDbMText
 62
2
  6
CONTINUOUS
  7
STANDARD
 71
2
 72
1
 10
7.555
 20
-2.1565
 30
0.0
 11
1.0
 21
0.0
 31
0.0
 44
0.9
  1
15,7 mm
 40
0.125
 41
1.4
  0
MTEXT
  5
273
100
AcDbEntity
  8
0
100
AcDbMText
 62
2
  6
CONTINUOUS
  7
STANDARD
 71
2
 72
1
 10
1.5275
 20
-2.4065
 30
0.0
 11
1.0
 21
0.0
 31
0.0
 44
0.9
  1
Mounting Hole Quantity
 40
0.125
 41
4.4
  0
MTEXT
  5
274
100
AcDbEntity
  8
0
100
AcDbMText
 62
2
  6
CONTINUOUS
  7
STANDARD
 71
2
 72
1
 10
6.055
 20
-2.4065
 30
0.0
 11
1.0
 21
0.0
 31
0.0
 44
0.9
  1
2
 40
0.125
 41
0.2
  0
ENDBLK
  5
275
100
AcDbEntity
  8
0
  6
BYBLOCK
 62
0
100
AcDbBlockEnd
  0
BLOCK
  5
276
100
AcDbEntity
  8
0
100
AcDbBlockBegin
  2
*T3
 70
1
 10
0.0
 20
0.0
  3
*T3
  1

  0
LINE
  5
277
100
AcDbEntity
  8
0
100
AcDbLine
 62
2
  6
CONTINUOUS
 10
0.0
 20
0.0
 11
4.6
 21
0.0
  0
LINE
  5
278
100
AcDbEntity
  8
0
100
AcDbLine
 62
2
  6
CONTINUOUS
 10
0.0
 20
0.0
 11
0.0
 21
-1.43775
  0
LINE
  5
279
100
AcDbEntity
  8
0
100
AcDbLine
 62
2
  6
CONTINUOUS
 10
0.0
 20
-0.34375
 11
4.6
 21
-0.34375
  0
LINE
  5
27A
100
AcDbEntity
  8
0
100
AcDbLine
 62
2
  6
CONTINUOUS
 10
0.0
 20
-0.68775
 11
4.6
 21
-0.68775
  0
LINE
  5
27B
100
AcDbEntity
  8
0
100
AcDbLine
 62
2
  6
CONTINUOUS
 10
0.0
 20
-0.93775
 11
4.6
 21
-0.93775
  0
LINE
  5
27C
100
AcDbEntity
  8
0
100
AcDbLine
 62
2
  6
CONTINUOUS
 10
0.0
 20
-1.18775
 11
4.6
 21
-1.18775
  0
LINE
  5
27D
100
AcDbEntity
  8
0
100
AcDbLine
 62
2
  6
CONTINUOUS
 10
0.0
 20
-1.43775
 11
4.6
 21
-1.43775
  0
LINE
  5
27E
100
AcDbEntity
  8
0
100
AcDbLine
 62
2
  6
CONTINUOUS
 10
1.3
 20
-0.34375
 11
1.3
 21
-1.43775
  0
LINE
  5
27F
100
AcDbEntity
  8
0
100
AcDbLine
 62
2
  6
CONTINUOUS
 10
3.3
 20
-0.34375
 11
3.3
 21
-1.43775
  0
LINE
  5
280
100
AcDbEntity
  8
0
100
AcDbLine
 62
2
  6
CONTINUOUS
 10
4.6
 20
0.0
 11
4.6
 21
-1.43775
  0
MTEXT
  5
281
100
AcDbEntity
  8
0
100
AcDbMText
 62
2
  6
CONTINUOUS
  7
STANDARD
 71
2
 72
1
 10
2.3
 20
-0.099375
 30
0.0
 11
1.0
 21
0.0
 31
0.0
 44
0.9
  1
Port Headings
 40
0.145
 41
3.016
  0
MTEXT
  5
282
100
AcDbEntity
  8
0
100
AcDbMText
 62
2
  6
CONTINUOUS
  7
STANDARD
 71
2
 72
1
 10
0.65
 20
-0.44325
 30
0.0
 11
1.0
 21
0.0
 31
0.0
 44
0.9
  1
Product
 40
0.145
 41
1.624
  0
MTEXT
  5
283
100
AcDbEntity
  8
0
100
AcDbMText
 62
2
  6
CONTINUOUS
  7
STANDARD
 71
2
 72
1
 10
2.3
 20
-0.44325
 30
0.0
 11
1.0
 21
0.0
 31
0.0
 44
0.9
  1
Port
 40
0.145
 41
0.928
  0
MTEXT
  5
284
100
AcDbEntity
  8
0
100
AcDbMText
 62
2
  6
CONTINUOUS
  7
STANDARD
 71
2
 72
1
 10
3.95
 20
-0.44325
 30
0.0
 11
1.0
 21
0.0
 31
0.0
 44
0.9
  1
Size
 40
0.145
 41
0.928
  0
MTEXT
  5
285
100
AcDbEntity
  8
0
100
AcDbMText
 62
2
  6
CONTINUOUS
  7
STANDARD
 71
2
 72
1
 10
0.65
 20
-0.75025
 30
0.0
 11
1.0
 21
0.0
 31
0.0
 44
0.9
  1
B3W
 40
0.125
 41
0.6
  0
MTEXT
  5
286
100
AcDbEntity
  8
0
100
AcDbMText
 62
2
  6
CONTINUOUS
  7
STANDARD
 71
2
 72
1
 10
2.3
 20
-0.75025
 30
0.0
 11
1.0
 21
0.0
 31
0.0
 44
0.9
  1
Ports 1 &  2
 40
0.125
 41
2.4
  0
MTEXT
  5
287
100
AcDbEntity
  8
0
100
AcDbMText
 62
2
  6
CONTINUOUS
  7
STANDARD
 71
2
 72
1
 10
3.95
 20
-0.75025
 30
0.0
 11
1.0
 21
0.0
 31
0.0
 44
0.9
  1
3/4" BSPP
 40
0.125
 41
1.8
  0
MTEXT
  5
288
100
AcDbEntity
  8
0
100
AcDbMText
 62
2
  6
CONTINUOUS
  7
STANDARD
 71
2
 72
1
 10
0.65
 20
-1.00025
 30
0.0
 11
1.0
 21
0.0
 31
0.0
 44
0.9
  1
B3W
 40
0.125
 41
0.6
  0
MTEXT
  5
289
100
AcDbEntity
  8
0
100
AcDbMText
 62
2
  6
CONTINUOUS
  7
STANDARD
 71
2
 72
1
 10
2.3
 20
-1.00025
 30
0.0
 11
1.0
 21
0.0
 31
0.0
 44
0.9
  1
Port 3
 40
0.125
 41
1.2
  0
MTEXT
  5
28A
100
AcDbEntity
  8
0
100
AcDbMText
 62
2
  6
CONTINUOUS
  7
STANDARD
 71
2
 72
1
 10
3.95
 20
-1.00025
 30
0.0
 11
1.0
 21
0.0
 31
0.0
 44
0.9
  1
1/4" BSPP
 40
0.125
 41
1.8
  0
MTEXT
  5
28B
100
AcDbEntity
  8
0
100
AcDbMText
 62
2
  6
CONTINUOUS
  7
STANDARD
 71
2
 72
1
 10
0.65
 20
-1.25025
 30
0.0
 11
1.0
 21
0.0
 31
0.0
 44
0.9
  1
B3W
 40
0.125
 41
0.6
  0
MTEXT
  5
28C
100
AcDbEntity
  8
0
100
AcDbMText
 62
2
  6
CONTINUOUS
  7
STANDARD
 71
2
 72
1
 10
2.3
 20
-1.25025
 30
0.0
 11
1.0
 21
0.0
 31
0.0
 44
0.9
  1
Gage Port
 40
0.125
 41
1.8
  0
MTEXT
  5
28D
100
AcDbEntity
  8
0
100
AcDbMText
 62
2
  6
CONTINUOUS
  7
STANDARD
 71
2
 72
1
 10
3.95
 20
-1.25025
 30
0.0
 11
1.0
 21
0.0
 31
0.0
 44
0.9
  1
1/4" BSPP
 40
0.125
 41
1.8
  0
ENDBLK
  5
28E
100
AcDbEntity
  8
0
  6
BYBLOCK
 62
0
100
AcDbBlockEnd
  0
ENDSEC
  0
SECTION
  2
ENTITIES
  0
IMAGE
  5
28F
100
AcDbEntity
  8
0
100
AcDbRasterImage
 62
7
  6
CONTINUOUS
 10
19.2297077316
 20
0.3094318264
 30
0.0
 11
0.0066666667
 21
0.0
 31
0.0
 12
0.0
 22
0.0066666667
 32
0.0
 13
369.0
 23
92.0
340
       3BD
 70
9
280
0
281
50
282
50
283
0
360
       3B7
 71
1
 91
2
 14
-0.5
 24
-0.5
 14
368.5
 24
91.5
  0
INSERT
  5
290
100
AcDbEntity
  8
0
100
AcDbBlockReference
 62
2
  6
CONTINUOUS
  2
SUN_FIRST_THIRD_ANGLE_BL0
 10
20.4816717061
 20
1.2289683772
  0
ACAD_TABLE
  5
291
100
AcDbEntity
  8
0
 62
2
  6
CONTINUOUS
100
AcDbBlockReference
  2
*T1
 10
12.42375
 20
0.30125
 30
0.0
100
AcDbTable
342
       3BF
343
20F
 11
1.0
 21
0.0
 31
0.0
 90
6
 91
4
 92
6
 93
20
 94
0
 95
0
 96
0
 70
1
 41
0.0
141
0.525
141
0.1
141
0.525
141
0.1
142
4.1
142
1.1
142
0.7
142
0.5
142
0.4
142
2.475
171
1
172
0
173
0
174
0
175
1
176
1
 91
33
178
0
145
0.0
301
CELL_VALUE
 90
4
  1
T-2A Line mount\PThrough port 2 with reverse flow check
304
ACVALUE_END
170
2
140
0.125
171
1
172
0
173
0
174
0
175
1
176
1
 91
33
178
0
145
0.0
301
CELL_VALUE
 90
4
  1
Oct-29-21
304
ACVALUE_END
170
5
140
0.125
171
1
172
0
173
0
174
0
175
1
176
1
 91
33
178
0
145
0.0
301
CELL_VALUE
 90
4
  1
1.000
304
ACVALUE_END
170
5
140
0.125
171
1
172
0
173
0
174
0
175
1
176
1
 91
33
178
0
145
0.0
301
CELL_VALUE
 90
4
  1
C
304
ACVALUE_END
170
5
140
0.125
171
1
172
0
173
0
174
0
175
1
176
1
 91
33
178
0
145
0.0
301
CELL_VALUE
 90
4
  1
2
304
ACVALUE_END
170
5
140
0.125
171
1
172
0
173
0
174
0
175
1
176
1
 91
33
178
0
145
0.0
301
CELL_VALUE
 90
4
  1
 
304
ACVALUE_END
170
1
140
0.125
171
1
172
0
173
0
174
0
175
1
176
1
 91
33
178
0
145
0.0
301
CELL_VALUE
 90
4
  1
DESCRIPTION
304
ACVALUE_END
170
1
140
0.06
171
1
172
0
173
0
174
0
175
1
176
1
 91
33
178
0
145
0.0
301
CELL_VALUE
 90
4
  1
DATE
304
ACVALUE_END
170
1
140
0.06
171
1
172
0
173
0
174
0
175
1
176
1
 91
33
178
0
145
0.0
301
CELL_VALUE
 90
4
  1
SCALE
304
ACVALUE_END
170
1
140
0.06
171
1
172
0
173
0
174
0
175
1
176
1
 91
33
178
0
145
0.0
301
CELL_VALUE
 90
4
  1
DWG SIZE
304
ACVALUE_END
170
1
140
0.06
171
1
172
0
173
0
174
0
175
1
176
1
 91
33
178
0
145
0.0
301
CELL_VALUE
 90
4
  1
SHEET
304
ACVALUE_END
170
1
140
0.06
171
1
172
0
173
0
174
0
175
1
176
1
 91
33
178
0
145
0.0
301
CELL_VALUE
 90
4
  1
 
304
ACVALUE_END
170
1
140
0.125
171
1
172
0
173
0
174
0
175
1
176
1
 91
33
178
0
145
0.0
301
CELL_VALUE
 90
4
  1
B3W
304
ACVALUE_END
170
5
140
0.125
171
1
172
0
173
0
174
0
175
4
176
1
 91
33
178
0
145
0.0
301
CELL_VALUE
 90
4
  1
ALL DIMENSIONS IN INCH\PVIEWS ARE THIRD ANGLE
304
ACVALUE_END
170
5
140
0.12
171
1
172
0
173
1
174
0
175
1
176
1
 91
1
178
0
145
0.0
170
1
171
1
172
0
173
1
174
0
175
1
176
1
 91
1
178
0
145
0.0
170
1
171
1
172
0
173
1
174
0
175
1
176
1
 91
1
178
0
145
0.0
170
5
171
1
172
0
173
0
174
0
175
1
176
1
 91
33
178
0
145
0.0
301
CELL_VALUE
 90
4
  1
 
304
ACVALUE_END
170
1
140
0.125
171
1
172
0
173
0
174
0
175
1
176
1
 91
33
178
0
145
0.0
301
CELL_VALUE
 90
4
  1
MODEL
304
ACVALUE_END
170
1
140
0.06
171
1
172
0
173
0
174
0
175
1
176
1
 91
33
178
0
145
0.0
301
CELL_VALUE
 90
4
  1
 
304
ACVALUE_END
170
1
140
0.125
171
1
172
0
173
0
174
0
175
1
176
1
 91
33
178
0
145
0.0
301
CELL_VALUE
 90
4
  1
 
304
ACVALUE_END
170
1
140
0.125
171
1
172
0
173
0
174
0
175
1
176
1
 91
33
178
0
145
0.0
301
CELL_VALUE
 90
4
  1
 
304
ACVALUE_END
170
1
140
0.125
171
1
172
0
173
0
174
0
175
1
176
1
 91
33
178
0
145
0.0
301
CELL_VALUE
 90
4
  1
 
304
ACVALUE_END
170
1
140
0.125
171
1
172
0
173
0
174
0
175
1
176
1
 91
33
178
0
145
0.0
301
CELL_VALUE
 90
4
  1
 
304
ACVALUE_END
170
1
140
0.125
  0
ACAD_TABLE
  5
292
100
AcDbEntity
  8
0
 62
2
  6
CONTINUOUS
100
AcDbBlockReference
  2
*T2
 10
12.4237499994
 20
16.47875
 30
0.0
100
AcDbTable
342
       3BE
343
210
 11
1.0
 21
0.0
 31
0.0
 90
22
 91
10
 92
3
 93
16
 94
0
 95
0
 96
0
 41
0.028
141
0.344
141
0.25
141
0.25
141
0.25
141
0.25
141
0.25
141
0.25
141
0.25
141
0.25
141
0.25
142
3.055
142
3.0
142
3.0
171
1
172
0
173
0
174
0
175
1
176
1
 91
33
178
0
145
0.0
301
CELL_VALUE
 90
4
  1
Technical Data
304
ACVALUE_END
170
5
140
0.145
171
1
172
0
173
0
174
0
175
1
176
1
 91
33
178
0
145
0.0
301
CELL_VALUE
 90
4
  1
U.S. Units
304
ACVALUE_END
170
5
140
0.145
171
1
172
0
173
0
174
0
175
1
176
1
 91
33
178
0
145
0.0
301
CELL_VALUE
 90
4
  1
Metric Units
304
ACVALUE_END
170
5
140
0.145
171
1
172
0
173
0
174
0
175
1
176
1
 91
33
178
0
145
0.0
301
CELL_VALUE
 90
4
  1
Cavity
304
ACVALUE_END
170
5
140
0.125
171
1
172
0
173
0
174
0
175
2
176
1
 91
33
178
0
145
0.0
301
CELL_VALUE
 90
4
  1
T-2A
304
ACVALUE_END
170
5
140
0.125
171
1
172
0
173
1
174
0
175
1
176
1
 91
1
178
0
145
0.0
170
1
171
1
172
0
173
0
174
0
175
1
176
1
 91
33
178
0
145
0.0
301
CELL_VALUE
 90
4
  1
Body Features
304
ACVALUE_END
170
5
140
0.125
171
1
172
0
173
0
174
0
175
2
176
1
 91
33
178
0
145
0.0
301
CELL_VALUE
 90
4
  1
Through port 2 with reverse flow check
304
ACVALUE_END
170
5
140
0.125
171
1
172
0
173
1
174
0
175
1
176
1
 91
1
178
0
145
0.0
170
1
171
1
172
0
173
0
174
0
175
1
176
1
 91
33
178
0
145
0.0
301
CELL_VALUE
 90
4
  1
Body Type
304
ACVALUE_END
170
5
140
0.125
171
1
172
0
173
0
174
0
175
2
176
1
 91
33
178
0
145
0.0
301
CELL_VALUE
 90
4
  1
Line mount
304
ACVALUE_END
170
5
140
0.125
171
1
172
0
173
1
174
0
175
1
176
1
 91
1
178
0
145
0.0
170
1
171
1
172
0
173
0
174
0
175
1
176
1
 91
33
178
0
145
0.0
301
CELL_VALUE
 90
4
  1
Interface
304
ACVALUE_END
170
5
140
0.125
171
1
172
0
173
0
174
0
175
2
176
1
 91
33
178
0
145
0.0
301
CELL_VALUE
 90
4
  1
None
304
ACVALUE_END
170
5
140
0.125
171
1
172
0
173
1
174
0
175
1
176
1
 91
1
178
0
145
0.0
170
1
171
1
172
0
173
0
174
0
175
1
176
1
 91
33
178
0
145
0.0
301
CELL_VALUE
 90
4
  1
Open Cavity Quantity
304
ACVALUE_END
170
5
140
0.125
171
1
172
0
173
0
174
0
175
2
176
1
 91
33
178
0
145
0.0
301
CELL_VALUE
 90
4
  1
1
304
ACVALUE_END
170
5
140
0.125
171
1
172
0
173
1
174
0
175
1
176
1
 91
1
178
0
145
0.0
170
1
171
1
172
0
173
0
174
0
175
1
176
1
 91
33
178
0
145
0.0
301
CELL_VALUE
 90
4
  1
Weight
304
ACVALUE_END
170
5
140
0.125
171
1
172
0
173
0
174
0
175
1
176
1
 91
33
178
0
145
0.0
301
CELL_VALUE
 90
4
  1
3.353 lb.
304
ACVALUE_END
170
5
140
0.125
171
1
172
0
173
0
174
0
175
1
176
1
 91
33
178
0
145
0.0
301
CELL_VALUE
 90
4
  1
1,521 kg.
304
ACVALUE_END
170
5
140
0.125
171
1
172
0
173
0
174
0
175
1
176
1
 91
33
178
0
145
0.0
301
CELL_VALUE
 90
4
  1
Mounting Hole Thread
304
ACVALUE_END
170
5
140
0.125
171
1
172
0
173
0
174
0
175
2
176
1
 91
33
178
0
145
0.0
301
CELL_VALUE
 90
4
  1
M10x1.5 - 6H
304
ACVALUE_END
170
5
140
0.125
171
1
172
0
173
1
174
0
175
1
176
1
 91
1
178
0
145
0.0
170
1
171
1
172
0
173
0
174
0
175
1
176
1
 91
33
178
0
145
0.0
301
CELL_VALUE
 90
4
  1
Mounting Hole Depth
304
ACVALUE_END
170
5
140
0.125
171
1
172
0
173
0
174
0
175
1
176
1
 91
33
178
0
145
0.0
301
CELL_VALUE
 90
4
  1
.62 in.
304
ACVALUE_END
170
5
140
0.125
171
1
172
0
173
0
174
0
175
1
176
1
 91
33
178
0
145
0.0
301
CELL_VALUE
 90
4
  1
15,7 mm
304
ACVALUE_END
170
5
140
0.125
171
1
172
0
173
0
174
0
175
1
176
1
 91
33
178
0
145
0.0
301
CELL_VALUE
 90
4
  1
Mounting Hole Quantity
304
ACVALUE_END
170
5
140
0.125
171
1
172
0
173
0
174
0
175
2
176
1
 91
33
178
0
145
0.0
301
CELL_VALUE
 90
4
  1
2
304
ACVALUE_END
170
5
140
0.125
171
1
172
0
173
1
174
0
175
1
176
1
 91
1
178
0
145
0.0
170
1
  0
ACAD_TABLE
  5
293
100
AcDbEntity
  8
0
 62
2
  6
CONTINUOUS
100
AcDbBlockReference
  2
*T3
 10
0.52125
 20
1.959
 30
0.0
100
AcDbTable
342
       3BE
343
211
 11
1.0
 21
0.0
 31
0.0
 90
22
 91
5
 92
3
 93
16
 94
0
 95
0
 96
0
 41
0.05
141
0.34375
141
0.344
141
0.25
141
0.25
141
0.25
142
1.3
142
2.0
142
1.3
171
1
172
0
173
0
174
0
175
3
176
1
 91
33
178
0
145
0.0
301
CELL_VALUE
 90
4
  1
Port Headings
304
ACVALUE_END
170
5
140
0.145
171
1
172
0
173
1
174
0
175
1
176
1
 91
1
178
0
145
0.0
170
1
171
1
172
0
173
1
174
0
175
1
176
1
 91
1
178
0
145
0.0
170
1
171
1
172
0
173
0
174
0
175
1
176
1
 91
33
178
0
145
0.0
301
CELL_VALUE
 90
4
  1
Product
304
ACVALUE_END
170
5
140
0.145
171
1
172
0
173
0
174
0
175
1
176
1
 91
33
178
0
145
0.0
301
CELL_VALUE
 90
4
  1
Port
304
ACVALUE_END
170
5
140
0.145
171
1
172
0
173
0
174
0
175
1
176
1
 91
33
178
0
145
0.0
301
CELL_VALUE
 90
4
  1
Size
304
ACVALUE_END
170
5
140
0.145
171
1
172
0
173
0
174
0
175
1
176
1
 91
33
178
0
145
0.0
301
CELL_VALUE
 90
4
  1
B3W
304
ACVALUE_END
170
5
140
0.125
171
1
172
0
173
0
174
0
175
1
176
1
 91
33
178
0
145
0.0
301
CELL_VALUE
 90
4
  1
Ports 1 &  2
304
ACVALUE_END
170
5
140
0.125
171
1
172
0
173
0
174
0
175
1
176
1
 91
33
178
0
145
0.0
301
CELL_VALUE
 90
4
  1
3/4" BSPP
304
ACVALUE_END
170
5
140
0.125
171
1
172
0
173
0
174
0
175
1
176
1
 91
33
178
0
145
0.0
301
CELL_VALUE
 90
4
  1
B3W
304
ACVALUE_END
170
5
140
0.125
171
1
172
0
173
0
174
0
175
1
176
1
 91
33
178
0
145
0.0
301
CELL_VALUE
 90
4
  1
Port 3
304
ACVALUE_END
170
5
140
0.125
171
1
172
0
173
0
174
0
175
1
176
1
 91
33
178
0
145
0.0
301
CELL_VALUE
 90
4
  1
1/4" BSPP
304
ACVALUE_END
170
5
140
0.125
171
1
172
0
173
0
174
0
175
1
176
1
 91
33
178
0
145
0.0
301
CELL_VALUE
 90
4
  1
B3W
304
ACVALUE_END
170
5
140
0.125
171
1
172
0
173
0
174
0
175
1
176
1
 91
33
178
0
145
0.0
301
CELL_VALUE
 90
4
  1
Gage Port
304
ACVALUE_END
170
5
140
0.125
171
1
172
0
173
0
174
0
175
1
176
1
 91
33
178
0
145
0.0
301
CELL_VALUE
 90
4
  1
1/4" BSPP
304
ACVALUE_END
170
5
140
0.125
  0
MTEXT
  5
294
100
AcDbEntity
  8
0
100
AcDbMText
 62
2
  6
CONTINUOUS
  7
STANDARD
 71
1
 72
1
 10
0.52125
 20
5.75995
 30
0.0
 11
1.0
 21
0.0
 31
0.0
 44
0.6
  3
Notes\P \P1. Important: Carefully consider\P   the maximum system pressure. The\P   pressure rating of the manifold is\P   dependent on the manifold material,\P   with the port type/size a secondary\P   consideration. Manifolds\P   constructed of alu
  1
minum are not\P   rated for pressures higher than\P   3000 psi (210 bar), regardless of\P   the port type/size specified.
 40
0.1
 41
3.04
  0
LINE
  5
295
100
AcDbEntity
  8
0
100
AcDbLine
 62
7
  6
CONTINUOUS
 10
0.30125
 20
0.30125
 11
0.30125
 21
16.69875
  0
LINE
  5
296
100
AcDbEntity
  8
0
100
AcDbLine
 62
7
  6
CONTINUOUS
 10
0.30125
 20
0.30125
 11
21.69875
 21
0.30125
  0
LINE
  5
297
100
AcDbEntity
  8
0
100
AcDbLine
 62
7
  6
CONTINUOUS
 10
0.30125
 20
16.69875
 11
21.69875
 21
16.69875
  0
LINE
  5
298
100
AcDbEntity
  8
0
100
AcDbLine
 62
7
  6
CONTINUOUS
 10
21.69875
 20
0.30125
 11
21.69875
 21
16.69875
  0
LINE
  5
299
100
AcDbEntity
  8
0
100
AcDbLine
 62
7
  6
CONTINUOUS
 10
8.7108543054
 20
9.3834429817
 11
8.6905076777
 21
9.3489455842
  0
LINE
  5
29A
100
AcDbEntity
  8
0
100
AcDbLine
 62
7
  6
CONTINUOUS
 10
9.5618745988
 20
10.5182332808
 11
8.7854181043
 21
9.7682338553
  0
LINE
  5
29B
100
AcDbEntity
  8
0
100
AcDbLine
 62
4
  6
CONTINUOUS
 10
9.4084402993
 20
6.8156583536
 11
9.3987810404
 21
6.8235726694
  0
LINE
  5
29C
100
AcDbEntity
  8
0
100
AcDbLine
 62
7
  6
CONTINUOUS
 10
8.7854181043
 20
6.7497154693
 11
8.7854181043
 21
9.7682338553
  0
LINE
  5
29D
100
AcDbEntity
  8
0
100
AcDbLine
 62
4
  6
CONTINUOUS
 10
9.476055109
 20
6.8761692463
 11
9.4953736286
 21
6.8603406145
  0
LINE
  5
29E
100
AcDbEntity
  8
0
100
AcDbLine
 62
4
  6
CONTINUOUS
 10
9.3987810404
 20
6.8235726694
 11
9.3891217815
 21
6.8387314293
  0
LINE
  5
29F
100
AcDbEntity
  8
0
100
AcDbLine
 62
4
  6
CONTINUOUS
 10
9.4953736286
 20
6.8603406145
 11
9.5050328849
 21
6.8451818549
  0
LINE
  5
2A0
100
AcDbEntity
  8
0
100
AcDbLine
 62
7
  6
CONTINUOUS
 10
8.6297402216
 20
8.3394828065
 11
8.6218207415
 21
8.3585100702
  0
LINE
  5
2A1
100
AcDbEntity
  8
0
100
AcDbLine
 62
7
  6
CONTINUOUS
 10
8.7854181043
 20
6.7497154693
 11
12.6491216383
 21
6.4817667192
  0
LINE
  5
2A2
100
AcDbEntity
  8
0
100
AcDbLine
 62
4
  6
CONTINUOUS
 10
9.4470773332
 20
6.8854233058
 11
9.476055109
 21
6.8761692463
  0
LINE
  5
2A3
100
AcDbEntity
  8
0
100
AcDbLine
 62
4
  6
CONTINUOUS
 10
9.4470773332
 20
6.8129788662
 11
9.4084402993
 21
6.8156583536
  0
LINE
  5
2A4
100
AcDbEntity
  8
0
100
AcDbLine
 62
4
  6
CONTINUOUS
 10
11.2668816771
 20
6.7012638942
 11
11.2475631644
 21
6.7026036376
  0
LINE
  5
2A5
100
AcDbEntity
  8
0
100
AcDbLine
 62
4
  6
CONTINUOUS
 10
9.3891217815
 20
6.8387314293
 11
9.3891217815
 21
6.8532203172
  0
LINE
  5
2A6
100
AcDbEntity
  8
0
100
AcDbLine
 62
4
  6
CONTINUOUS
 10
9.4470773332
 20
6.8419566421
 11
9.4470773332
 21
6.8129788662
  0
LINE
  5
2A7
100
AcDbEntity
  8
0
100
AcDbLine
 62
4
  6
CONTINUOUS
 10
9.5050328849
 20
6.8451818549
 11
9.5050328849
 21
6.8306929669
  0
LINE
  5
2A8
100
AcDbEntity
  8
0
100
AcDbLine
 62
4
  6
CONTINUOUS
 10
11.199266869
 20
6.7566641049
 11
11.1702890932
 21
6.7659181644
  0
LINE
  5
2A9
100
AcDbEntity
  8
0
100
AcDbLine
 62
7
  6
CONTINUOUS
 10
9.6139415981
 20
8.0395279285
 11
9.614010836
 21
8.0325803504
  0
LINE
  5
2AA
100
AcDbEntity
  8
0
100
AcDbLine
 62
4
  6
CONTINUOUS
 10
9.4180995573
 20
6.8801884775
 11
9.4470773332
 21
6.8854233058
  0
LINE
  5
2AB
100
AcDbEntity
  8
0
100
AcDbLine
 62
4
  6
CONTINUOUS
 10
11.2475631644
 20
6.7026036376
 11
11.2379039012
 21
6.7105179538
  0
LINE
  5
2AC
100
AcDbEntity
  8
0
100
AcDbLine
 62
4
  6
CONTINUOUS
 10
11.2185853851
 20
6.7408354733
 11
11.199266869
 21
6.7566641049
  0
LINE
  5
2AD
100
AcDbEntity
  8
0
100
AcDbLine
 62
4
  6
CONTINUOUS
 10
11.2668816771
 20
6.759219446
 11
11.2765409403
 21
6.7513051298
  0
LINE
  5
2AE
100
AcDbEntity
  8
0
100
AcDbLine
 62
4
  6
CONTINUOUS
 10
11.1505566263
 20
7.5521704798
 11
11.175394721
 21
7.5504479521
  0
LINE
  5
2AF
100
AcDbEntity
  8
0
100
AcDbLine
 62
4
  6
CONTINUOUS
 10
11.191953449
 20
7.5989757087
 11
11.2167915411
 21
7.5972531811
  0
LINE
  5
2B0
100
AcDbEntity
  8
0
100
AcDbLine
 62
4
  6
CONTINUOUS
 10
11.2765409403
 20
9.4240220567
 11
11.2668816771
 21
9.4174474849
  0
LINE
  5
2B1
100
AcDbEntity
  8
0
100
AcDbLine
 62
4
  6
CONTINUOUS
 10
11.1505566263
 20
7.6763609162
 11
11.2167915411
 21
7.6717675093
  0
LINE
  5
2B2
100
AcDbEntity
  8
0
100
AcDbLine
 62
4
  6
CONTINUOUS
 10
11.1422772613
 20
7.7210917003
 11
11.2250709086
 21
7.7153499414
  0
LINE
  5
2B3
100
AcDbEntity
  8
0
100
AcDbLine
 62
4
  6
CONTINUOUS
 10
11.2499089973
 20
7.7136274141
 11
11.2581883648
 21
7.713053238
  0
LINE
  5
2B4
100
AcDbEntity
  8
0
100
AcDbLine
 62
4
  6
CONTINUOUS
 10
10.5511306338
 20
7.7814063372
 11
10.6670417373
 21
7.7733678749
  0
LINE
  5
2B5
100
AcDbEntity
  8
0
100
AcDbLine
 62
4
  6
CONTINUOUS
 10
10.6504830092
 20
7.8214326677
 11
10.5676893636
 21
7.8271744265
  0
LINE
  5
2B6
100
AcDbEntity
  8
0
100
AcDbLine
 62
4
  6
CONTINUOUS
 10
11.1505566263
 20
7.7950317973
 11
11.2581883648
 21
7.7875675109
  0
LINE
  5
2B7
100
AcDbEntity
  8
0
100
AcDbLine
 62
4
  6
CONTINUOUS
 10
11.1422772613
 20
7.8287234155
 11
11.2250709086
 21
7.8229816566
  0
LINE
  5
2B8
100
AcDbEntity
  8
0
100
AcDbLine
 62
4
  6
CONTINUOUS
 10
10.5511306338
 20
7.8862783301
 11
10.6670417373
 21
7.8782398677
  0
LINE
  5
2B9
100
AcDbEntity
  8
0
100
AcDbLine
 62
4
  6
CONTINUOUS
 10
10.6504830092
 20
7.9125056618
 11
10.5676893636
 21
7.9182474206
  0
LINE
  5
2BA
100
AcDbEntity
  8
0
100
AcDbLine
 62
4
  6
CONTINUOUS
 10
11.2250709086
 20
7.8726578754
 11
11.1505566263
 21
7.8778254584
  0
LINE
  5
2BB
100
AcDbEntity
  8
0
100
AcDbLine
 62
4
  6
CONTINUOUS
 10
11.2581883648
 20
7.7102934604
 11
11.2499089973
 21
7.7136274141
  0
LINE
  5
2BC
100
AcDbEntity
  8
0
100
AcDbLine
 62
4
  6
CONTINUOUS
 10
10.5676893636
 20
7.8271744265
 11
10.5511306338
 21
7.8448814995
  0
LINE
  5
2BD
100
AcDbEntity
  8
0
100
AcDbLine
 62
4
  6
CONTINUOUS
 10
10.5676893636
 20
7.9182474206
 11
10.5511306338
 21
7.9359544936
  0
LINE
  5
2BE
100
AcDbEntity
  8
0
100
AcDbLine
 62
4
  6
CONTINUOUS
 10
10.6504830092
 20
7.9704612135
 11
10.6670417373
 21
7.9527541406
  0
LINE
  5
2BF
100
AcDbEntity
  8
0
100
AcDbLine
 62
4
  6
CONTINUOUS
 10
11.2379039012
 20
6.7105179538
 11
11.2185853851
 21
6.7408354733
  0
LINE
  5
2C0
100
AcDbEntity
  8
0
100
AcDbLine
 62
4
  6
CONTINUOUS
 10
11.2765409403
 20
6.7513051298
 11
11.2862001966
 21
6.7361463702
  0
LINE
  5
2C1
100
AcDbEntity
  8
0
100
AcDbLine
 62
4
  6
CONTINUOUS
 10
10.6008068215
 20
7.6510110679
 11
10.5787285157
 21
7.6966988118
  0
LINE
  5
2C2
100
AcDbEntity
  8
0
100
AcDbLine
 62
4
  6
CONTINUOUS
 10
10.5511306338
 20
8.2478105562
 11
10.5511306338
 21
8.1981343651
  0
LINE
  5
2C3
100
AcDbEntity
  8
0
100
AcDbLine
 62
4
  6
CONTINUOUS
 10
10.5511306338
 20
7.7814063372
 11
10.5511306338
 21
7.7317301737
  0
LINE
  5
2C4
100
AcDbEntity
  8
0
100
AcDbLine
 62
4
  6
CONTINUOUS
 10
10.5511306338
 20
7.8448814995
 11
10.5511306338
 21
7.8862783301
  0
LINE
  5
2C5
100
AcDbEntity
  8
0
100
AcDbLine
 62
4
  6
CONTINUOUS
 10
10.5511306338
 20
7.9359544936
 11
10.5511306338
 21
7.9607926029
  0
LINE
  5
2C6
100
AcDbEntity
  8
0
100
AcDbLine
 62
4
  6
CONTINUOUS
 10
10.5511306338
 20
8.02426771
 11
10.5511306338
 21
8.0573851523
  0
LINE
  5
2C7
100
AcDbEntity
  8
0
100
AcDbLine
 62
4
  6
CONTINUOUS
 10
10.5511306338
 20
8.5099904347
 11
10.5511306338
 21
8.5513872514
  0
LINE
  5
2C8
100
AcDbEntity
  8
0
100
AcDbLine
 62
4
  6
CONTINUOUS
 10
10.5842480935
 20
8.4331794513
 11
10.5842480935
 21
8.3890228431
  0
LINE
  5
2C9
100
AcDbEntity
  8
0
100
AcDbLine
 62
4
  6
CONTINUOUS
 10
10.6008068215
 20
8.6141771153
 11
10.5787285157
 21
8.5715516394
  0
LINE
  5
2CA
100
AcDbEntity
  8
0
100
AcDbLine
 62
4
  6
CONTINUOUS
 10
10.8889287087
 20
8.0256794678
 11
10.8061350614
 21
8.006583145
  0
LINE
  5
2CB
100
AcDbEntity
  8
0
100
AcDbLine
 62
4
  6
CONTINUOUS
 10
10.9220461648
 20
8.0730589556
 11
10.8061350614
 21
8.0562593223
  0
LINE
  5
2CC
100
AcDbEntity
  8
0
100
AcDbLine
 62
4
  6
CONTINUOUS
 10
11.1422772613
 20
7.9115170766
 11
11.2085121806
 21
7.9069236694
  0
LINE
  5
2CD
100
AcDbEntity
  8
0
100
AcDbLine
 62
4
  6
CONTINUOUS
 10
10.5676893636
 20
7.9762029723
 11
10.6504830092
 21
7.9704612135
  0
LINE
  5
2CE
100
AcDbEntity
  8
0
100
AcDbLine
 62
4
  6
CONTINUOUS
 10
11.1505566263
 20
7.9606190642
 11
11.175394721
 21
7.9588965365
  0
LINE
  5
2CF
100
AcDbEntity
  8
0
100
AcDbLine
 62
4
  6
CONTINUOUS
 10
11.2167915411
 20
7.9919029325
 11
11.2002328131
 21
7.9930512842
  0
LINE
  5
2D0
100
AcDbEntity
  8
0
100
AcDbLine
 62
4
  6
CONTINUOUS
 10
12.14490835
 20
7.931332523
 11
12.1352490902
 21
7.932002395
  0
LINE
  5
2D1
100
AcDbEntity
  8
0
100
AcDbLine
 62
4
  6
CONTINUOUS
 10
12.2028638983
 20
7.9345577361
 11
12.193204642
 21
7.9352276078
  0
LINE
  5
2D2
100
AcDbEntity
  8
0
100
AcDbLine
 62
4
  6
CONTINUOUS
 10
10.5676893636
 20
8.0727955216
 11
10.6504830092
 21
8.0670537628
  0
LINE
  5
2D3
100
AcDbEntity
  8
0
100
AcDbLine
 62
4
  6
CONTINUOUS
 10
11.1422772613
 20
8.035707513
 11
11.2250709086
 21
8.0299657541
  0
LINE
  5
2D4
100
AcDbEntity
  8
0
100
AcDbLine
 62
7
  6
CONTINUOUS
 10
8.7854181043
 20
8.2254819272
 11
8.7548988344
 21
8.2275984458
  0
LINE
  5
2D5
100
AcDbEntity
  8
0
100
AcDbLine
 62
4
  6
CONTINUOUS
 10
11.2581883648
 20
8.0607865483
 11
11.1422772613
 21
8.0688250106
  0
LINE
  5
2D6
100
AcDbEntity
  8
0
100
AcDbLine
 62
4
  6
CONTINUOUS
 10
10.8144144263
 20
8.1136406981
 11
10.8558112491
 21
8.1107698187
  0
LINE
  5
2D7
100
AcDbEntity
  8
0
100
AcDbLine
 62
4
  6
CONTINUOUS
 10
10.8806493412
 20
8.1118070826
 11
10.9054874368
 21
8.1100845549
  0
LINE
  5
2D8
100
AcDbEntity
  8
0
100
AcDbLine
 62
4
  6
CONTINUOUS
 10
10.8061350614
 20
8.006583145
 11
10.9220461648
 21
7.9737065733
  0
LINE
  5
2D9
100
AcDbEntity
  8
0
100
AcDbLine
 62
4
  6
CONTINUOUS
 10
10.8061350614
 20
8.0562593223
 11
10.8889287087
 21
8.0256794678
  0
LINE
  5
2DA
100
AcDbEntity
  8
0
100
AcDbLine
 62
4
  6
CONTINUOUS
 10
10.6504830092
 20
8.0670537628
 11
10.6670417373
 21
8.04934669
  0
LINE
  5
2DB
100
AcDbEntity
  8
0
100
AcDbLine
 62
4
  6
CONTINUOUS
 10
11.1422772613
 20
7.5610239887
 11
11.1505566263
 21
7.5521704798
  0
LINE
  5
2DC
100
AcDbEntity
  8
0
100
AcDbLine
 62
4
  6
CONTINUOUS
 10
11.2167915411
 20
7.5972531811
 11
11.2250709086
 21
7.5883996721
  0
LINE
  5
2DD
100
AcDbEntity
  8
0
100
AcDbLine
 62
4
  6
CONTINUOUS
 10
11.2167915411
 20
7.6717675093
 11
11.2250709086
 21
7.6629140002
  0
LINE
  5
2DE
100
AcDbEntity
  8
0
100
AcDbLine
 62
4
  6
CONTINUOUS
 10
10.8061350614
 20
8.1224942346
 11
10.8144144263
 21
8.1136406981
  0
LINE
  5
2DF
100
AcDbEntity
  8
0
100
AcDbLine
 62
4
  6
CONTINUOUS
 10
10.6173655531
 20
7.7436954876
 11
10.6173655531
 21
7.77681293
  0
LINE
  5
2E0
100
AcDbEntity
  8
0
100
AcDbLine
 62
4
  6
CONTINUOUS
 10
10.6173655531
 20
8.210099679
 11
10.6173655531
 21
8.243217149
  0
LINE
  5
2E1
100
AcDbEntity
  8
0
100
AcDbLine
 62
4
  6
CONTINUOUS
 10
10.6670417373
 20
8.5433487891
 11
10.6670417373
 21
8.5019519724
  0
LINE
  5
2E2
100
AcDbEntity
  8
0
100
AcDbLine
 62
4
  6
CONTINUOUS
 10
10.6670417373
 20
8.3391244762
 11
10.6670417373
 21
8.2728895639
  0
LINE
  5
2E3
100
AcDbEntity
  8
0
100
AcDbLine
 62
4
  6
CONTINUOUS
 10
10.6670417373
 20
8.2397720939
 11
10.6670417373
 21
8.1900959028
  0
LINE
  5
2E4
100
AcDbEntity
  8
0
100
AcDbLine
 62
4
  6
CONTINUOUS
 10
10.6670417373
 20
8.04934669
 11
10.6670417373
 21
8.0162292476
  0
LINE
  5
2E5
100
AcDbEntity
  8
0
100
AcDbLine
 62
4
  6
CONTINUOUS
 10
10.6670417373
 20
7.9527541406
 11
10.6670417373
 21
7.9279160312
  0
LINE
  5
2E6
100
AcDbEntity
  8
0
100
AcDbLine
 62
4
  6
CONTINUOUS
 10
10.6670417373
 20
7.8782398677
 11
10.6670417373
 21
7.8368430372
  0
LINE
  5
2E7
100
AcDbEntity
  8
0
100
AcDbLine
 62
4
  6
CONTINUOUS
 10
10.6670417373
 20
7.7733678749
 11
10.6670417373
 21
7.7236917114
  0
LINE
  5
2E8
100
AcDbEntity
  8
0
100
AcDbLine
 62
4
  6
CONTINUOUS
 10
10.8061350614
 20
8.1638910652
 11
10.8061350614
 21
8.1224942346
  0
LINE
  5
2E9
100
AcDbEntity
  8
0
100
AcDbLine
 62
4
  6
CONTINUOUS
 10
10.8061350614
 20
8.2135672494
 11
10.8061350614
 21
8.254964073
  0
LINE
  5
2EA
100
AcDbEntity
  8
0
100
AcDbLine
 62
4
  6
CONTINUOUS
 10
9.3891217815
 20
6.8532203172
 11
9.3987810404
 21
6.8670393332
  0
LINE
  5
2EB
100
AcDbEntity
  8
0
100
AcDbLine
 62
4
  6
CONTINUOUS
 10
11.2862001966
 20
9.4378410729
 11
11.2765409403
 21
9.4240220567
  0
LINE
  5
2EC
100
AcDbEntity
  8
0
100
AcDbLine
 62
4
  6
CONTINUOUS
 10
9.5050328849
 20
6.8306929669
 11
9.4953736286
 21
6.8168739507
  0
LINE
  5
2ED
100
AcDbEntity
  8
0
100
AcDbLine
 62
7
  6
CONTINUOUS
 10
12.1741738
 20
9.9700658618
 11
12.1728638445
 21
9.9688242417
  0
LINE
  5
2EE
100
AcDbEntity
  8
0
100
AcDbLine
 62
4
  6
CONTINUOUS
 10
10.6670417373
 20
8.5019519724
 11
10.6504830092
 21
8.486541596
  0
LINE
  5
2EF
100
AcDbEntity
  8
0
100
AcDbLine
 62
4
  6
CONTINUOUS
 10
11.2250709086
 20
8.1845139104
 11
11.1422772613
 21
8.16541756
  0
LINE
  5
2F0
100
AcDbEntity
  8
0
100
AcDbLine
 62
4
  6
CONTINUOUS
 10
11.1505566263
 20
8.1179269982
 11
11.2167915411
 21
8.1133335913
  0
LINE
  5
2F1
100
AcDbEntity
  8
0
100
AcDbLine
 62
4
  6
CONTINUOUS
 10
10.847531885
 20
8.1941376418
 11
10.8226937912
 21
8.1958601695
  0
LINE
  5
2F2
100
AcDbEntity
  8
0
100
AcDbLine
 62
4
  6
CONTINUOUS
 10
10.9054874368
 20
8.1983977747
 11
10.8806493412
 21
8.2001203025
  0
LINE
  5
2F3
100
AcDbEntity
  8
0
100
AcDbLine
 62
4
  6
CONTINUOUS
 10
10.5511306338
 20
8.2478105562
 11
10.6670417373
 21
8.2397720939
  0
LINE
  5
2F4
100
AcDbEntity
  8
0
100
AcDbLine
 62
7
  6
CONTINUOUS
 10
8.7854181043
 20
8.3722759929
 11
8.6237655366
 21
8.3834866365
  0
LINE
  5
2F5
100
AcDbEntity
  8
0
100
AcDbLine
 62
4
  6
CONTINUOUS
 10
11.2167915411
 20
8.2182055565
 11
11.1422772613
 21
8.2233731393
  0
LINE
  5
2F6
100
AcDbEntity
  8
0
100
AcDbLine
 62
7
  6
CONTINUOUS
 10
10.0948805038
 20
8.3008668802
 11
9.970128483
 21
8.3095184622
  0
LINE
  5
2F7
100
AcDbEntity
  8
0
100
AcDbLine
 62
4
  6
CONTINUOUS
 10
10.8061350614
 20
8.254964073
 11
10.9220461648
 21
8.2469256107
  0
LINE
  5
2F8
100
AcDbEntity
  8
0
100
AcDbLine
 62
7
  6
CONTINUOUS
 10
8.7854181043
 20
8.4114939357
 11
8.6165415244
 21
8.4232055663
  0
LINE
  5
2F9
100
AcDbEntity
  8
0
100
AcDbLine
 62
4
  6
CONTINUOUS
 10
10.5511306338
 20
8.3140454685
 11
10.6670417373
 21
8.3060070062
  0
LINE
  5
2FA
100
AcDbEntity
  8
0
100
AcDbLine
 62
4
  6
CONTINUOUS
 10
11.1422772613
 20
8.2730493305
 11
11.2581883648
 21
8.2650108681
  0
LINE
  5
2FB
100
AcDbEntity
  8
0
100
AcDbLine
 62
4
  6
CONTINUOUS
 10
10.5511306338
 20
8.446515307
 11
10.6670417373
 21
8.4053593885
  0
LINE
  5
2FC
100
AcDbEntity
  8
0
100
AcDbLine
 62
4
  6
CONTINUOUS
 10
11.1146793795
 20
8.1756108678
 11
11.2250709086
 21
8.1348377469
  0
LINE
  5
2FD
100
AcDbEntity
  8
0
100
AcDbLine
 62
4
  6
CONTINUOUS
 10
10.8226937912
 20
8.1958601695
 11
10.8061350614
 21
8.2135672494
  0
LINE
  5
2FE
100
AcDbEntity
  8
0
100
AcDbLine
 62
4
  6
CONTINUOUS
 10
10.5676893636
 20
8.4922833548
 11
10.5511306338
 21
8.5099904347
  0
LINE
  5
2FF
100
AcDbEntity
  8
0
100
AcDbLine
 62
4
  6
CONTINUOUS
 10
10.8806493412
 20
8.2001203025
 11
10.8640906131
 21
8.2178273823
  0
LINE
  5
300
100
AcDbEntity
  8
0
100
AcDbLine
 62
4
  6
CONTINUOUS
 10
10.8723699806
 20
8.1261802018
 11
10.8806493412
 21
8.1118070826
  0
LINE
  5
301
100
AcDbEntity
  8
0
100
AcDbLine
 62
4
  6
CONTINUOUS
 10
10.6228851291
 20
8.5684893678
 11
10.6008068215
 21
8.6141771153
  0
LINE
  5
302
100
AcDbEntity
  8
0
100
AcDbLine
 62
4
  6
CONTINUOUS
 10
10.8640906131
 20
8.2095480182
 11
10.8640906131
 21
8.2509448419
  0
LINE
  5
303
100
AcDbEntity
  8
0
100
AcDbLine
 62
4
  6
CONTINUOUS
 10
10.8723699806
 20
8.1261802018
 11
10.8723699806
 21
8.1427389298
  0
LINE
  5
304
100
AcDbEntity
  8
0
100
AcDbLine
 62
4
  6
CONTINUOUS
 10
10.9220461648
 20
8.2469256107
 11
10.9220461648
 21
8.2220875169
  0
LINE
  5
305
100
AcDbEntity
  8
0
100
AcDbLine
 62
4
  6
CONTINUOUS
 10
10.9220461648
 20
8.1227351467
 11
10.9220461648
 21
8.1558526028
  0
LINE
  5
306
100
AcDbEntity
  8
0
100
AcDbLine
 62
4
  6
CONTINUOUS
 10
10.9220461648
 20
8.2220875169
 11
10.9192863734
 21
8.2139995433
  0
LINE
  5
307
100
AcDbEntity
  8
0
100
AcDbLine
 62
4
  6
CONTINUOUS
 10
11.1505566263
 20
8.636767186
 11
11.1422772613
 21
8.629061997
  0
LINE
  5
308
100
AcDbEntity
  8
0
100
AcDbLine
 62
4
  6
CONTINUOUS
 10
10.5511306338
 20
8.0573851523
 11
10.5676893636
 21
8.0727955216
  0
LINE
  5
309
100
AcDbEntity
  8
0
100
AcDbLine
 62
4
  6
CONTINUOUS
 10
10.6670417373
 20
8.4053593885
 11
10.5511306338
 21
8.3802803808
  0
LINE
  5
30A
100
AcDbEntity
  8
0
100
AcDbLine
 62
4
  6
CONTINUOUS
 10
11.1422772613
 20
8.3972397945
 11
11.2581883648
 21
8.3892013321
  0
LINE
  5
30B
100
AcDbEntity
  8
0
100
AcDbLine
 62
4
  6
CONTINUOUS
 10
10.6504830092
 20
8.486541596
 11
10.5676893636
 21
8.4922833548
  0
LINE
  5
30C
100
AcDbEntity
  8
0
100
AcDbLine
 62
4
  6
CONTINUOUS
 10
11.1422772613
 20
8.4551953462
 11
11.2581883648
 21
8.4471568839
  0
LINE
  5
30D
100
AcDbEntity
  8
0
100
AcDbLine
 62
4
  6
CONTINUOUS
 10
11.1588359912
 20
8.4871644505
 11
11.2581883648
 21
8.48027434
  0
LINE
  5
30E
100
AcDbEntity
  8
0
100
AcDbLine
 62
4
  6
CONTINUOUS
 10
10.5511306338
 20
8.5513872514
 11
10.6670417373
 21
8.5433487891
  0
LINE
  5
30F
100
AcDbEntity
  8
0
100
AcDbLine
 62
4
  6
CONTINUOUS
 10
11.175394721
 20
7.9588965365
 11
11.183674085
 21
7.9417636395
  0
LINE
  5
310
100
AcDbEntity
  8
0
100
AcDbLine
 62
4
  6
CONTINUOUS
 10
11.2167915411
 20
8.1133335913
 11
11.2250709086
 21
8.096200694
  0
LINE
  5
311
100
AcDbEntity
  8
0
100
AcDbLine
 62
4
  6
CONTINUOUS
 10
11.1146793795
 20
8.192169589
 11
11.1146793795
 21
8.1756108678
  0
LINE
  5
312
100
AcDbEntity
  8
0
100
AcDbLine
 62
4
  6
CONTINUOUS
 10
11.1422772613
 20
8.629061997
 11
11.1422772613
 21
8.5959445383
  0
LINE
  5
313
100
AcDbEntity
  8
0
100
AcDbLine
 62
4
  6
CONTINUOUS
 10
11.1422772613
 20
8.529709626
 11
11.1422772613
 21
8.5048715235
  0
LINE
  5
314
100
AcDbEntity
  8
0
100
AcDbLine
 62
4
  6
CONTINUOUS
 10
11.1422772613
 20
7.8701202461
 11
11.1422772613
 21
7.8287234155
  0
LINE
  5
315
100
AcDbEntity
  8
0
100
AcDbLine
 62
4
  6
CONTINUOUS
 10
11.1422772613
 20
7.594141431
 11
11.1422772613
 21
7.5610239887
  0
LINE
  5
316
100
AcDbEntity
  8
0
100
AcDbLine
 62
4
  6
CONTINUOUS
 10
11.1422772613
 20
7.6355382063
 11
11.1422772613
 21
7.6686557592
  0
LINE
  5
317
100
AcDbEntity
  8
0
100
AcDbLine
 62
4
  6
CONTINUOUS
 10
11.1422772613
 20
7.7707678638
 11
11.1422772613
 21
7.787326585
  0
LINE
  5
318
100
AcDbEntity
  8
0
100
AcDbLine
 62
4
  6
CONTINUOUS
 10
11.1422772613
 20
7.9115170766
 11
11.1422772613
 21
7.944634519
  0
LINE
  5
319
100
AcDbEntity
  8
0
100
AcDbLine
 62
4
  6
CONTINUOUS
 10
11.1422772613
 20
8.0688250106
 11
11.1422772613
 21
8.101942453
  0
LINE
  5
31A
100
AcDbEntity
  8
0
100
AcDbLine
 62
4
  6
CONTINUOUS
 10
11.1702890932
 20
9.4821017551
 11
11.1702890932
 21
9.4241462034
  0
LINE
  5
31B
100
AcDbEntity
  8
0
100
AcDbLine
 62
4
  6
CONTINUOUS
 10
11.1702890932
 20
6.7659181644
 11
11.1702890932
 21
6.7079626127
  0
LINE
  5
31C
100
AcDbEntity
  8
0
100
AcDbLine
 62
4
  6
CONTINUOUS
 10
11.183674085
 20
7.9417636395
 11
11.183674085
 21
7.9086461972
  0
LINE
  5
31D
100
AcDbEntity
  8
0
100
AcDbLine
 62
4
  6
CONTINUOUS
 10
11.2250709086
 20
8.2673075715
 11
11.2250709086
 21
8.225910741
  0
LINE
  5
31E
100
AcDbEntity
  8
0
100
AcDbLine
 62
4
  6
CONTINUOUS
 10
11.2250709086
 20
8.096200694
 11
11.2250709086
 21
8.0630832517
  0
LINE
  5
31F
100
AcDbEntity
  8
0
100
AcDbLine
 62
4
  6
CONTINUOUS
 10
11.2250709086
 20
8.0299657541
 11
11.2250709086
 21
7.9968483118
  0
LINE
  5
320
100
AcDbEntity
  8
0
100
AcDbLine
 62
4
  6
CONTINUOUS
 10
11.2250709086
 20
7.6629140002
 11
11.2250709086
 21
7.6297964474
  0
LINE
  5
321
100
AcDbEntity
  8
0
100
AcDbLine
 62
4
  6
CONTINUOUS
 10
11.2250709086
 20
7.5883996721
 11
11.2250709086
 21
7.5552822298
  0
LINE
  5
322
100
AcDbEntity
  8
0
100
AcDbLine
 62
4
  6
CONTINUOUS
 10
11.2250709086
 20
7.9140546507
 11
11.2250709086
 21
7.9554514812
  0
LINE
  5
323
100
AcDbEntity
  8
0
100
AcDbLine
 62
4
  6
CONTINUOUS
 10
10.6228851291
 20
7.6936365402
 11
10.6008068215
 21
7.6510110679
  0
LINE
  5
324
100
AcDbEntity
  8
0
100
AcDbLine
 62
4
  6
CONTINUOUS
 10
10.9192863734
 20
8.2139995433
 11
10.9054874368
 21
8.1983977747
  0
LINE
  5
325
100
AcDbEntity
  8
0
100
AcDbLine
 62
4
  6
CONTINUOUS
 10
11.175394721
 20
8.5770891066
 11
11.2250709086
 21
8.631599603
  0
LINE
  5
326
100
AcDbEntity
  8
0
100
AcDbLine
 62
4
  6
CONTINUOUS
 10
11.1588359912
 20
8.5451200022
 11
11.1422772613
 21
8.529709626
  0
LINE
  5
327
100
AcDbEntity
  8
0
100
AcDbLine
 62
4
  6
CONTINUOUS
 10
10.5511306338
 20
7.9607926029
 11
10.5676893636
 21
7.9762029723
  0
LINE
  5
328
100
AcDbEntity
  8
0
100
AcDbLine
 62
4
  6
CONTINUOUS
 10
11.2581883648
 20
8.5796267119
 11
11.2499089973
 21
8.571921524
  0
LINE
  5
329
100
AcDbEntity
  8
0
100
AcDbLine
 62
4
  6
CONTINUOUS
 10
10.8640906131
 20
8.2095480182
 11
10.847531885
 21
8.1941376418
  0
LINE
  5
32A
100
AcDbEntity
  8
0
100
AcDbLine
 62
4
  6
CONTINUOUS
 10
10.8558112491
 20
8.1107698187
 11
10.8723699806
 21
8.1261802018
  0
LINE
  5
32B
100
AcDbEntity
  8
0
100
AcDbLine
 62
4
  6
CONTINUOUS
 10
10.6670417373
 20
7.9279160312
 11
10.6504830092
 21
7.9125056618
  0
LINE
  5
32C
100
AcDbEntity
  8
0
100
AcDbLine
 62
4
  6
CONTINUOUS
 10
11.2581883648
 20
8.4471568839
 11
11.1422772613
 21
8.3972397945
  0
LINE
  5
32D
100
AcDbEntity
  8
0
100
AcDbLine
 62
4
  6
CONTINUOUS
 10
11.2581883648
 20
8.5382298917
 11
11.1588359912
 21
8.5451200022
  0
LINE
  5
32E
100
AcDbEntity
  8
0
100
AcDbLine
 62
4
  6
CONTINUOUS
 10
11.1588359912
 20
8.5782374584
 11
11.175394721
 21
8.5770891066
  0
LINE
  5
32F
100
AcDbEntity
  8
0
100
AcDbLine
 62
4
  6
CONTINUOUS
 10
11.2250709086
 20
8.631599603
 11
11.2416296367
 21
8.6304512513
  0
LINE
  5
330
100
AcDbEntity
  8
0
100
AcDbLine
 62
4
  6
CONTINUOUS
 10
11.1422772613
 20
8.5048715235
 11
11.1588359912
 21
8.4871644505
  0
LINE
  5
331
100
AcDbEntity
  8
0
100
AcDbLine
 62
4
  6
CONTINUOUS
 10
11.1422772613
 20
8.5959445383
 11
11.1588359912
 21
8.5782374584
  0
LINE
  5
332
100
AcDbEntity
  8
0
100
AcDbLine
 62
4
  6
CONTINUOUS
 10
11.2581883648
 20
8.6127441698
 11
11.2581883648
 21
8.5796267119
  0
LINE
  5
333
100
AcDbEntity
  8
0
100
AcDbLine
 62
4
  6
CONTINUOUS
 10
11.2581883648
 20
7.713053238
 11
11.2581883648
 21
7.7102934604
  0
LINE
  5
334
100
AcDbEntity
  8
0
100
AcDbLine
 62
4
  6
CONTINUOUS
 10
11.2862001966
 20
9.4523299609
 11
11.2862001966
 21
9.4378410729
  0
LINE
  5
335
100
AcDbEntity
  8
0
100
AcDbLine
 62
4
  6
CONTINUOUS
 10
11.2862001966
 20
6.7361463702
 11
11.2862001966
 21
6.7216574822
  0
LINE
  5
336
100
AcDbEntity
  8
0
100
AcDbLine
 62
4
  6
CONTINUOUS
 10
11.180914297
 20
7.5583445012
 11
11.186433873
 21
7.5910791596
  0
LINE
  5
337
100
AcDbEntity
  8
0
100
AcDbLine
 62
4
  6
CONTINUOUS
 10
11.1422772613
 20
8.101942453
 11
11.1505566263
 21
8.1179269982
  0
LINE
  5
338
100
AcDbEntity
  8
0
100
AcDbLine
 62
4
  6
CONTINUOUS
 10
11.1422772613
 20
7.944634519
 11
11.1505566263
 21
7.9606190642
  0
LINE
  5
339
100
AcDbEntity
  8
0
100
AcDbLine
 62
7
  6
CONTINUOUS
 10
12.6491216383
 20
9.5002851052
 11
13.4255781329
 21
10.2502845307
  0
LINE
  5
33A
100
AcDbEntity
  8
0
100
AcDbLine
 62
4
  6
CONTINUOUS
 10
10.6670417373
 20
7.8368430372
 11
10.6504830092
 21
7.8214326677
  0
LINE
  5
33B
100
AcDbEntity
  8
0
100
AcDbLine
 62
4
  6
CONTINUOUS
 10
11.2250709086
 20
8.225910741
 11
11.2167915411
 21
8.2182055565
  0
LINE
  5
33C
100
AcDbEntity
  8
0
100
AcDbLine
 62
4
  6
CONTINUOUS
 10
10.9054874368
 20
8.1100845549
 11
10.9220461648
 21
8.1227351467
  0
LINE
  5
33D
100
AcDbEntity
  8
0
100
AcDbLine
 62
7
  6
CONTINUOUS
 10
8.7854181043
 20
8.9766004102
 11
8.6165415244
 21
8.9883120408
  0
LINE
  5
33E
100
AcDbEntity
  8
0
100
AcDbLine
 62
7
  6
CONTINUOUS
 10
8.7854181043
 20
9.0307760476
 11
8.6237655366
 21
9.0419866913
  0
LINE
  5
33F
100
AcDbEntity
  8
0
100
AcDbLine
 62
4
  6
CONTINUOUS
 10
12.1352490902
 20
7.932002395
 11
12.1159305733
 21
7.9478310266
  0
LINE
  5
340
100
AcDbEntity
  8
0
100
AcDbLine
 62
4
  6
CONTINUOUS
 10
12.193204642
 20
7.9352276078
 11
12.1835453856
 21
7.9431419234
  0
LINE
  5
341
100
AcDbEntity
  8
0
100
AcDbLine
 62
4
  6
CONTINUOUS
 10
11.2416296367
 20
8.6304512513
 11
11.2581883648
 21
8.6127441698
  0
LINE
  5
342
100
AcDbEntity
  8
0
100
AcDbLine
 62
4
  6
CONTINUOUS
 10
11.1505566263
 20
7.8778254584
 11
11.1422772613
 21
7.8701202461
  0
LINE
  5
343
100
AcDbEntity
  8
0
100
AcDbLine
 62
4
  6
CONTINUOUS
 10
11.1422772613
 20
7.787326585
 11
11.1505566263
 21
7.7950317973
  0
LINE
  5
344
100
AcDbEntity
  8
0
100
AcDbLine
 62
4
  6
CONTINUOUS
 10
9.3987810404
 20
6.8670393332
 11
9.4180995573
 21
6.8801884775
  0
LINE
  5
345
100
AcDbEntity
  8
0
100
AcDbLine
 62
4
  6
CONTINUOUS
 10
9.4953736286
 20
6.8168739507
 11
9.4857143654
 21
6.8102993789
  0
LINE
  5
346
100
AcDbEntity
  8
0
100
AcDbLine
 62
4
  6
CONTINUOUS
 10
11.2250709086
 20
7.9968483118
 11
11.2167915411
 21
7.9919029325
  0
LINE
  5
347
100
AcDbEntity
  8
0
100
AcDbLine
 62
4
  6
CONTINUOUS
 10
11.2085121806
 20
7.9069236694
 11
11.2250709086
 21
7.9140546507
  0
LINE
  5
348
100
AcDbEntity
  8
0
100
AcDbLine
 62
4
  6
CONTINUOUS
 10
9.5050328849
 20
9.0566691719
 11
9.3891217815
 21
9.0647076342
  0
LINE
  5
349
100
AcDbEntity
  8
0
100
AcDbLine
 62
4
  6
CONTINUOUS
 10
12.1159305733
 20
7.9478310266
 11
12.1062713144
 21
7.9629897864
  0
LINE
  5
34A
100
AcDbEntity
  8
0
100
AcDbLine
 62
4
  6
CONTINUOUS
 10
11.186433873
 20
7.5910791596
 11
11.191953449
 21
7.5989757087
  0
LINE
  5
34B
100
AcDbEntity
  8
0
100
AcDbLine
 62
4
  6
CONTINUOUS
 10
11.175394721
 20
7.5504479521
 11
11.180914297
 21
7.5583445012
  0
LINE
  5
34C
100
AcDbEntity
  8
0
100
AcDbLine
 62
4
  6
CONTINUOUS
 10
11.1422772613
 20
7.6686557592
 11
11.1505566263
 21
7.6763609162
  0
LINE
  5
34D
100
AcDbEntity
  8
0
100
AcDbLine
 62
4
  6
CONTINUOUS
 10
11.1505566263
 20
7.6018465881
 11
11.1422772613
 21
7.594141431
  0
LINE
  5
34E
100
AcDbEntity
  8
0
100
AcDbLine
 62
4
  6
CONTINUOUS
 10
11.2250709086
 20
7.5552822298
 11
11.2167915411
 21
7.5475770729
  0
LINE
  5
34F
100
AcDbEntity
  8
0
100
AcDbLine
 62
7
  6
CONTINUOUS
 10
8.7854181043
 20
9.4490884565
 11
8.7548988344
 21
9.4512049751
  0
LINE
  5
350
100
AcDbEntity
  8
0
100
AcDbLine
 62
7
  6
CONTINUOUS
 10
8.7854181043
 20
9.4640461511
 11
8.7693468587
 21
9.4651606958
  0
LINE
  5
351
100
AcDbEntity
  8
0
100
AcDbLine
 62
4
  6
CONTINUOUS
 10
11.2475631644
 20
9.4187872283
 11
11.2379039012
 21
9.4267015445
  0
LINE
  5
352
100
AcDbEntity
  8
0
100
AcDbLine
 62
4
  6
CONTINUOUS
 10
11.2379039012
 20
9.4267015445
 11
11.2185853851
 21
9.457019064
  0
LINE
  5
353
100
AcDbEntity
  8
0
100
AcDbLine
 62
4
  6
CONTINUOUS
 10
12.1835453856
 20
7.9431419234
 11
12.1738861224
 21
7.9583006835
  0
LINE
  5
354
100
AcDbEntity
  8
0
100
AcDbLine
 62
4
  6
CONTINUOUS
 10
12.2125231615
 20
7.9845989716
 11
12.2221824178
 21
7.969440212
  0
LINE
  5
355
100
AcDbEntity
  8
0
100
AcDbLine
 62
4
  6
CONTINUOUS
 10
11.2765409403
 20
9.4674887205
 11
11.2862001966
 21
9.4523299609
  0
LINE
  5
356
100
AcDbEntity
  8
0
100
AcDbLine
 62
7
  6
CONTINUOUS
 10
12.9239872468
 20
8.8375301718
 11
12.9254591411
 21
8.8389258299
  0
LINE
  5
357
100
AcDbEntity
  8
0
100
AcDbLine
 62
4
  6
CONTINUOUS
 10
12.1159305733
 20
7.9912976904
 11
12.1255898322
 21
7.9978722625
  0
LINE
  5
358
100
AcDbEntity
  8
0
100
AcDbLine
 62
4
  6
CONTINUOUS
 10
11.2668816771
 20
9.4174474849
 11
11.2475631644
 21
9.4187872283
  0
LINE
  5
359
100
AcDbEntity
  8
0
100
AcDbLine
 62
4
  6
CONTINUOUS
 10
11.199266869
 20
9.4728476955
 11
11.1702890932
 21
9.4821017551
  0
LINE
  5
35A
100
AcDbEntity
  8
0
100
AcDbLine
 62
4
  6
CONTINUOUS
 10
11.2185853851
 20
9.457019064
 11
11.199266869
 21
9.4728476955
  0
LINE
  5
35B
100
AcDbEntity
  8
0
100
AcDbLine
 62
4
  6
CONTINUOUS
 10
11.2668816771
 20
9.4754030366
 11
11.2765409403
 21
9.4674887205
  0
LINE
  5
35C
100
AcDbEntity
  8
0
100
AcDbLine
 62
4
  6
CONTINUOUS
 10
12.1062713144
 20
7.9629897864
 11
12.1062713144
 21
7.9774786743
  0
LINE
  5
35D
100
AcDbEntity
  8
0
100
AcDbLine
 62
4
  6
CONTINUOUS
 10
12.1738861224
 20
7.9727895715
 11
12.1738861224
 21
7.9583006835
  0
LINE
  5
35E
100
AcDbEntity
  8
0
100
AcDbLine
 62
4
  6
CONTINUOUS
 10
12.2221824178
 20
7.969440212
 11
12.2221824178
 21
7.9549513241
  0
LINE
  5
35F
100
AcDbEntity
  8
0
100
AcDbLine
 62
4
  6
CONTINUOUS
 10
12.1062713144
 20
7.9774786743
 11
12.1159305733
 21
7.9912976904
  0
LINE
  5
360
100
AcDbEntity
  8
0
100
AcDbLine
 62
4
  6
CONTINUOUS
 10
11.2862001966
 20
6.7216574822
 11
11.2765409403
 21
6.707838466
  0
LINE
  5
361
100
AcDbEntity
  8
0
100
AcDbLine
 62
4
  6
CONTINUOUS
 10
12.1738861224
 20
7.9583006835
 11
12.1642268661
 21
7.9444816673
  0
LINE
  5
362
100
AcDbEntity
  8
0
100
AcDbLine
 62
4
  6
CONTINUOUS
 10
12.1642268661
 20
7.9444816673
 11
12.14490835
 21
7.931332523
  0
LINE
  5
363
100
AcDbEntity
  8
0
100
AcDbLine
 62
4
  6
CONTINUOUS
 10
12.2125231615
 20
7.9411323078
 11
12.2028638983
 21
7.9345577361
  0
LINE
  5
364
100
AcDbEntity
  8
0
100
AcDbLine
 62
7
  6
CONTINUOUS
 10
8.7854181043
 20
9.7682338553
 11
12.6491216383
 21
9.5002851052
  0
LINE
  5
365
100
AcDbEntity
  8
0
100
AcDbLine
 62
4
  6
CONTINUOUS
 10
12.2221824178
 20
7.9549513241
 11
12.2125231615
 21
7.9411323078
  0
LINE
  5
366
100
AcDbEntity
  8
0
100
AcDbLine
 62
7
  6
CONTINUOUS
 10
12.6491216383
 20
6.4817667192
 11
12.6491216383
 21
9.5002851052
  0
LINE
  5
367
100
AcDbEntity
  8
0
100
AcDbLine
 62
4
  6
CONTINUOUS
 10
11.2765409403
 20
6.707838466
 11
11.2668816771
 21
6.7012638942
  0
LINE
  5
368
100
AcDbEntity
  8
0
100
AcDbLine
 62
7
  6
CONTINUOUS
 10
13.4255781329
 20
10.2502845307
 11
9.5618745988
 21
10.5182332808
  0
LINE
  5
369
100
AcDbEntity
  8
0
100
AcDbLine
 62
7
  6
CONTINUOUS
 10
13.4255781329
 20
7.2317661447
 11
13.4255781329
 21
10.2502845307
  0
LINE
  5
36A
100
AcDbEntity
  8
0
100
AcDbLine
 62
7
  6
CONTINUOUS
 10
12.6491216383
 20
6.4817667192
 11
13.4255781329
 21
7.2317661447
  0
ARC
  5
36B
100
AcDbEntity
  8
0
100
AcDbCircle
 62
7
  6
CONTINUOUS
 10
10.9260404018
 20
8.7048025878
 40
2.3268353346
100
AcDbArc
 50
171.6678728683
 51
173.0014994771
  0
ARC
  5
36C
100
AcDbEntity
  8
0
100
AcDbCircle
 62
7
  6
CONTINUOUS
 10
9.5629315931
 20
8.5748169907
 40
0.9584571905
100
AcDbArc
 50
189.1014340788
 51
191.5149294916
  0
ARC
  5
36D
100
AcDbEntity
  8
0
100
AcDbCircle
 62
7
  6
CONTINUOUS
 10
9.378592017
 20
8.9883684543
 40
0.7758589224
100
AcDbArc
 50
149.406521743
 51
152.3502505567
  0
ARC
  5
36E
100
AcDbEntity
  8
0
100
AcDbCircle
 62
7
  6
CONTINUOUS
 10
12.8291386428
 20
7.7557187876
 40
0.0343128096
100
AcDbArc
 50
254.5577590326
 51
265.9922069207
  0
ARC
  5
36F
100
AcDbEntity
  8
0
100
AcDbCircle
 62
7
  6
CONTINUOUS
 10
12.8991097025
 20
8.7646792439
 40
0.0343034166
100
AcDbArc
 50
86.0725802886
 51
97.394487454
  0
SPLINE
  5
370
100
AcDbEntity
  8
0
100
AcDbSpline
 62
7
  6
CONTINUOUS
 70
0
 71
3
 72
9
 73
5
 74
0
 42
0.0000001
 43
0.0000001
 44
0.0000000001
 40
0.0
 40
0.0
 40
0.0
 40
0.0
 40
0.2576616456
 40
1.0
 40
1.0
 40
1.0
 40
1.0
 10
8.7548988344
 20
9.4512049751
 30
0.0
 10
8.7554944586
 20
9.4518782608
 30
0.0
 10
8.7578294164
 20
9.4544705269
 30
0.0
 10
8.7602600627
 20
9.4569772698
 30
0.0
 10
8.7621228466
 20
9.4587765809
 30
0.0
  0
SPLINE
  5
371
100
AcDbEntity
  8
0
100
AcDbSpline
 62
7
  6
CONTINUOUS
 70
0
 71
3
 72
9
 73
5
 74
0
 42
0.0000001
 43
0.0000001
 44
0.0000000001
 40
0.0
 40
0.0
 40
0.0
 40
0.0
 40
0.2578199612
 40
1.0
 40
1.0
 40
1.0
 40
1.0
 10
8.7621228466
 20
9.4587765809
 30
0.0
 10
8.7627188818
 20
9.4593523068
 30
0.0
 10
8.7650540846
 20
9.4615609131
 30
0.0
 10
8.7674854161
 20
9.4636688146
 30
0.0
 10
8.7693468587
 20
9.4651606958
 30
0.0
  0
SPLINE
  5
372
100
AcDbEntity
  8
0
100
AcDbSpline
 62
7
  6
CONTINUOUS
 70
0
 71
3
 72
23
 73
19
 74
0
 42
0.0000001
 43
0.0000001
 44
0.0000000001
 40
0.0
 40
0.0
 40
0.0
 40
0.0
 40
0.0814271046
 40
0.1607817343
 40
0.2379185405
 40
0.312696063
 40
0.3849800266
 40
0.4546476696
 40
0.5215900506
 40
0.5857253305
 40
0.6469976603
 40
0.7053923532
 40
0.760932103
 40
0.8136907295
 40
0.8637864076
 40
0.9113888908
 40
0.9567096643
 40
1.0
 40
1.0
 40
1.0
 40
1.0
 10
8.7548988344
 20
8.2275984458
 30
0.0
 10
8.7509062072
 20
8.2299561319
 30
0.0
 10
8.7430545204
 20
8.2346659342
 30
0.0
 10
8.7315465961
 20
8.2418166692
 30
0.0
 10
8.7204845454
 20
8.2489639597
 30
0.0
 10
8.7099003356
 20
8.2561045725
 30
0.0
 10
8.6998261306
 20
8.2632354727
 30
0.0
 10
8.6902929544
 20
8.2703523376
 30
0.0
 10
8.6813311304
 20
8.2774515639
 30
0.0
 10
8.67296781
 20
8.2845278581
 30
0.0
 10
8.6652278712
 20
8.2915772599
 30
0.0
 10
8.658130929
 20
8.2985940931
 30
0.0
 10
8.6516929279
 20
8.3055743663
 30
0.0
 10
8.6459230496
 20
8.3125127292
 30
0.0
 10
8.6408258786
 20
8.3194054405
 30
0.0
 10
8.6363988785
 20
8.3262482012
 30
0.0
 10
8.6326348181
 20
8.3330371549
 30
0.0
 10
8.6305139144
 20
8.3376218482
 30
0.0
 10
8.6295674919
 20
8.3398980554
 30
0.0
  0
SPLINE
  5
373
100
AcDbEntity
  8
0
100
AcDbSpline
 62
7
  6
CONTINUOUS
 70
0
 71
3
 72
9
 73
5
 74
0
 42
0.0000001
 43
0.0000001
 44
0.0000000001
 40
0.0
 40
0.0
 40
0.0
 40
0.0
 40
0.4964604369
 40
1.0
 40
1.0
 40
1.0
 40
1.0
 10
8.7107326849
 20
9.3832367614
 30
0.0
 10
8.7175505598
 20
9.3947921099
 30
0.0
 10
8.7318380245
 20
9.417743413
 30
0.0
 10
8.7470479893
 20
9.4400899442
 30
0.0
 10
8.7548988344
 20
9.4512049751
 30
0.0
  0
SPLINE
  5
374
100
AcDbEntity
  8
0
100
AcDbSpline
 62
7
  6
CONTINUOUS
 70
0
 71
3
 72
47
 73
43
 74
0
 42
0.0000001
 43
0.0000001
 44
0.0000000001
 40
0.0
 40
0.0
 40
0.0
 40
0.0
 40
0.0097390954
 40
0.0199695295
 40
0.0306881571
 40
0.0418903579
 40
0.0535693632
 40
0.0657172933
 40
0.0783253324
 40
0.0913829807
 40
0.1188003862
 40
0.1478697904
 40
0.1784776678
 40
0.2104990076
 40
0.2437996245
 40
0.2782371359
 40
0.3136617551
 40
0.3499180255
 40
0.3868455341
 40
0.4242797949
 40
0.462053577
 40
0.4999975974
 40
0.5379416192
 40
0.5757154697
 40
0.6131498368
 40
0.6500774863
 40
0.6863340113
 40
0.7217588358
 40
0.7561965785
 40
0.7894975871
 40
0.8215192438
 40
0.8521274831
 40
0.8811973937
 40
0.9086151749
 40
0.9216731274
 40
0.9342812907
 40
0.9464294722
 40
0.9581088203
 40
0.9693112294
 40
0.9800301946
 40
0.9902609526
 40
1.0
 40
1.0
 40
1.0
 40
1.0
 10
8.6218209507
 20
8.3585095681
 30
0.0
 10
8.6205593314
 20
8.3615407138
 30
0.0
 10
8.618082339
 20
8.3678020959
 30
0.0
 10
8.6145777141
 20
8.3775374146
 30
0.0
 10
8.611196345
 20
8.387836647
 30
0.0
 10
8.6079426491
 20
8.3986875675
 30
0.0
 10
8.6048201602
 20
8.4100772625
 30
0.0
 10
8.6018326729
 20
8.4219922072
 30
0.0
 10
8.5989840237
 20
8.4344183306
 30
0.0
 10
8.5953154155
 20
8.4519343968
 30
0.0
 10
8.591125915
 20
8.4750065615
 30
0.0
 10
8.5867783
 20
8.5040480813
 30
0.0
 10
8.5830541329
 20
8.5347398346
 30
0.0
 10
8.5799712995
 20
8.5669353359
 30
0.0
 10
8.5775450877
 20
8.6004811877
 30
0.0
 10
8.575787632
 20
8.6352172644
 30
0.0
 10
8.5747073641
 20
8.670977657
 30
0.0
 10
8.5743097631
 20
8.7075914706
 30
0.0
 10
8.5745970658
 20
8.7448837053
 30
0.0
 10
8.5755677882
 20
8.7826760786
 30
0.0
 10
8.5772174723
 20
8.8207878624
 30
0.0
 10
8.5795384194
 20
8.8590368034
 30
0.0
 10
8.5825193137
 20
8.8972400004
 30
0.0
 10
8.5861459904
 20
8.9352147457
 30
0.0
 10
8.5904011741
 20
8.9727794537
 30
0.0
 10
8.5952641968
 20
9.0097545383
 30
0.0
 10
8.6007118027
 20
9.0459632093
 30
0.0
 10
8.6067178793
 20
9.0812324087
 30
0.0
 10
8.6132532601
 20
9.1153936707
 30
0.0
 10
8.6202865836
 20
9.148283857
 30
0.0
 10
8.6277840056
 20
9.179745997
 30
0.0
 10
8.63570904
 20
9.2096302993
 30
0.0
 10
8.644023603
 20
9.2377941845
 30
0.0
 10
8.6513578792
 20
9.2600675715
 30
0.0
 10
8.6574090328
 20
9.2769099141
 30
0.0
 10
8.6619457238
 20
9.2888240922
 30
0.0
 10
8.6665492558
 20
9.3002128758
 30
0.0
 10
8.6712139332
 20
9.3110628661
 30
0.0
 10
8.6759344212
 20
9.3213610609
 30
0.0
 10
8.6807051046
 20
9.3310952652
 30
0.0
 10
8.6855198663
 20
9.3402539323
 30
0.0
 10
8.68883741
 20
9.3461135877
 30
0.0
 10
8.690505305
 20
9.3489415812
 30
0.0
  0
SPLINE
  5
375
100
AcDbEntity
  8
0
100
AcDbSpline
 62
7
  6
CONTINUOUS
 70
0
 71
3
 72
21
 73
17
 74
0
 42
0.0000001
 43
0.0000001
 44
0.0000000001
 40
0.0
 40
0.0
 40
0.0
 40
0.0
 40
0.1269527041
 40
0.1902689165
 40
0.2534593491
 40
0.3165116873
 40
0.37941528
 40
0.4421620112
 40
0.5047460954
 40
0.5671657261
 40
0.6294227274
 40
0.6915221182
 40
0.7534726662
 40
0.8152847883
 40
0.8769699244
 40
1.0
 40
1.0
 40
1.0
 40
1.0
 10
8.6165415244
 20
8.4232055663
 30
0.0
 10
8.6104130764
 20
8.4466367235
 30
0.0
 10
8.6020360607
 20
8.4819770128
 30
0.0
 10
8.5928648149
 20
8.529458426
 30
0.0
 10
8.5870874326
 20
8.5651633585
 30
0.0
 10
8.5824900878
 20
8.6009604484
 30
0.0
 10
8.5791460306
 20
8.6368121432
 30
0.0
 10
8.5771142326
 20
8.6726731997
 30
0.0
 10
8.576431762
 20
8.7084932933
 30
0.0
 10
8.5771106731
 20
8.7442200794
 30
0.0
 10
8.57913921
 20
8.7798028488
 30
0.0
 10
8.5824805624
 20
8.8151960568
 30
0.0
 10
8.5870758664
 20
8.8503619858
 30
0.0
 10
8.5928519732
 20
8.8852728509
 30
0.0
 10
8.6020059903
 20
8.931410463
 30
0.0
 10
8.6103939485
 20
8.9656604227
 30
0.0
 10
8.6165415244
 20
8.9883120408
 30
0.0
  0
SPLINE
  5
376
100
AcDbEntity
  8
0
100
AcDbSpline
 62
7
  6
CONTINUOUS
 70
0
 71
3
 72
15
 73
11
 74
0
 42
0.0000001
 43
0.0000001
 44
0.0000000001
 40
0.0
 40
0.0
 40
0.0
 40
0.0
 40
0.1201732322
 40
0.2410336384
 40
0.3629078784
 40
0.4861757754
 40
0.6112294411
 40
0.7384145049
 40
0.8679713593
 40
1.0
 40
1.0
 40
1.0
 40
1.0
 10
8.6237655366
 20
9.0419866913
 30
0.0
 10
8.6231777478
 20
9.0547006728
 30
0.0
 10
8.6226498044
 20
9.0802377531
 30
0.0
 10
8.6240862233
 20
9.1186698816
 30
0.0
 10
8.6280374847
 20
9.1572612399
 30
0.0
 10
8.6347556568
 20
9.1959231798
 30
0.0
 10
8.6444165454
 20
9.2345389112
 30
0.0
 10
8.6570854648
 20
9.2729763849
 30
0.0
 10
8.6727016837
 20
9.3111078299
 30
0.0
 10
8.6848501489
 20
9.3360293853
 30
0.0
 10
8.6913354316
 20
9.3484176916
 30
0.0
  0
SPLINE
  5
377
100
AcDbEntity
  8
0
100
AcDbSpline
 62
7
  6
CONTINUOUS
 70
0
 71
3
 72
9
 73
5
 74
0
 42
0.0000001
 43
0.0000001
 44
0.0000000001
 40
0.0
 40
0.0
 40
0.0
 40
0.0
 40
0.5118119473
 40
1.0
 40
1.0
 40
1.0
 40
1.0
 10
8.6295674919
 20
8.3398980554
 30
0.0
 10
8.6282758473
 20
8.343004544
 30
0.0
 10
8.6260768035
 20
8.3492159217
 30
0.0
 10
8.6246127232
 20
8.3556415616
 30
0.0
 10
8.6240876576
 20
8.3588073415
 30
0.0
  0
SPLINE
  5
378
100
AcDbEntity
  8
0
100
AcDbSpline
 62
7
  6
CONTINUOUS
 70
0
 71
3
 72
11
 73
7
 74
0
 42
0.0000001
 43
0.0000001
 44
0.0000000001
 40
0.0
 40
0.0
 40
0.0
 40
0.0
 40
0.2546540834
 40
0.5052032516
 40
0.7531996566
 40
1.0
 40
1.0
 40
1.0
 40
1.0
 10
8.6240876576
 20
8.3588073415
 30
0.0
 10
8.6237436613
 20
8.3608813997
 30
0.0
 10
8.623221447
 20
8.3650245473
 30
0.0
 10
8.6229240831
 20
8.3712415782
 30
0.0
 10
8.6230922637
 20
8.3773981545
 30
0.0
 10
8.6234961322
 20
8.3814669731
 30
0.0
 10
8.6237655366
 20
8.3834866365
 30
0.0
  0
SPLINE
  5
379
100
AcDbEntity
  8
0
100
AcDbSpline
 62
7
  6
CONTINUOUS
 70
0
 71
3
 72
23
 73
19
 74
0
 42
0.0000001
 43
0.0000001
 44
0.0000000001
 40
0.0
 40
0.0
 40
0.0
 40
0.0
 40
0.0398839915
 40
0.0831943713
 40
0.1299201439
 40
0.1800153915
 40
0.2334082993
 40
0.2900030228
 40
0.3496857904
 40
0.4123248743
 40
0.477775202
 40
0.545877553
 40
0.6164623271
 40
0.689348479
 40
0.7643468591
 40
0.8412591605
 40
0.9198807987
 40
1.0
 40
1.0
 40
1.0
 40
1.0
 10
9.8527925175
 20
8.3533828284
 30
0.0
 10
9.85106397
 20
8.3568280883
 30
0.0
 10
9.847704176
 20
8.3641392611
 30
0.0
 10
9.8430980312
 20
8.3758252371
 30
0.0
 10
9.8387311656
 20
8.3886495307
 30
0.0
 10
9.8346162759
 20
8.4025751177
 30
0.0
 10
9.8307656614
 20
8.4175624151
 30
0.0
 10
9.8271904742
 20
8.4335681358
 30
0.0
 10
9.8239016185
 20
8.4505459127
 30
0.0
 10
9.8209086327
 20
8.4684463788
 30
0.0
 10
9.81822069
 20
8.4872173458
 30
0.0
 10
9.8158455685
 20
8.5068040375
 30
0.0
 10
9.8137905803
 20
8.5271491783
 30
0.0
 10
9.8120616351
 20
8.5481932831
 30
0.0
 10
9.8106641076
 20
8.5698747213
 30
0.0
 10
9.8096019606
 20
8.5921300616
 30
0.0
 10
9.8088785928
 20
8.6148940283
 30
0.0
 10
9.8086256284
 20
8.6302340484
 30
0.0
 10
9.8085547114
 20
8.6379768024
 30
0.0
  0
SPLINE
  5
37A
100
AcDbEntity
  8
0
100
AcDbSpline
 62
7
  6
CONTINUOUS
 70
0
 71
3
 72
91
 73
87
 74
0
 42
0.0000001
 43
0.0000001
 44
0.0000000001
 40
0.0
 40
0.0
 40
0.0
 40
0.0
 40
0.0039801824
 40
0.0081241125
 40
0.0124359604
 40
0.0169193082
 40
0.0215771808
 40
0.0264119179
 40
0.0314251804
 40
0.036618156
 40
0.0419915391
 40
0.0475456573
 40
0.0532804234
 40
0.0591954189
 40
0.0652899227
 40
0.0715629017
 40
0.0780131034
 40
0.0846389837
 40
0.0984102885
 40
0.1128608532
 40
0.1279713725
 40
0.1437199568
 40
0.1600824082
 40
0.1770324532
 40
0.1945419392
 40
0.2125810061
 40
0.2311182422
 40
0.2501208275
 40
0.2695546626
 40
0.2893844909
 40
0.3095740146
 40
0.330086005
 40
0.35088241
 40
0.3719244606
 40
0.3931727759
 40
0.4145874652
 40
0.4361282289
 40
0.4577544586
 40
0.4794253371
 40
0.501099938
 40
0.5227373261
 40
0.5442966575
 40
0.5657372785
 40
0.5870188258
 40
0.6081013261
 40
0.6289452975
 40
0.6495118524
 40
0.6697628021
 40
0.6896607608
 40
0.7091692527
 40
0.7282528228
 40
0.7468771515
 40
0.7650091753
 40
0.7826172172
 40
0.7996711268
 40
0.8161424293
 40
0.8320044948
 40
0.8472327309
 40
0.8618048077
 40
0.8757009255
 40
0.8889041429
 40
0.8952417292
 40
0.9014012652
 40
0.9073816417
 40
0.9131820083
 40
0.9188018518
 40
0.9242409423
 40
0.9294994633
 40
0.9345779585
 40
0.9394774438
 40
0.944199427
 40
0.9487459568
 40
0.95311974
 40
0.9573241405
 40
0.9613633601
 40
0.9652424499
 40
0.9689674846
 40
0.9725456466
 40
0.9759853437
 40
0.9824865016
 40
0.9855753543
 40
0.9885738189
 40
0.9914977372
 40
0.9943643366
 40
0.9971920099
 40
1.0
 40
1.0
 40
1.0
 40
1.0
 10
12.3383812002
 20
9.9741328548
 30
0.0
 10
12.3370047068
 20
9.9728032642
 30
0.0
 10
12.3341325803
 20
9.9701534868
 30
0.0
 10
12.3295725266
 20
9.9662832874
 30
0.0
 10
12.3246776113
 20
9.9624408494
 30
0.0
 10
12.3194505196
 20
9.958628213
 30
0.0
 10
12.3138937998
 20
9.9548471588
 30
0.0
 10
12.3080101748
 20
9.9510995263
 30
0.0
 10
12.3018025871
 20
9.9473871124
 30
0.0
 10
12.2952741167
 20
9.9437118436
 30
0.0
 10
12.2884280603
 20
9.9400754839
 30
0.0
 10
12.2812678212
 20
9.9364799043
 30
0.0
 10
12.2737969997
 20
9.932926873
 30
0.0
 10
12.2660193431
 20
9.9294181858
 30
0.0
 10
12.2579387558
 20
9.9259556306
 30
0.0
 10
12.2495593163
 20
9.9225409182
 30
0.0
 10
12.2408852202
 20
9.9191758043
 30
0.0
 10
12.2287766569
 20
9.9146997292
 30
0.0
 10
12.212928435
 20
9.9092522591
 30
0.0
 10
12.1930444102
 20
9.9030206819
 30
0.0
 10
12.1720971351
 20
9.8970259282
 30
0.0
 10
12.1501288938
 20
9.8912801925
 30
0.0
 10
12.1271838734
 20
9.8857951783
 30
0.0
 10
12.1033083458
 20
9.8805820594
 30
0.0
 10
12.0785504849
 20
9.8756514577
 30
0.0
 10
12.052960286
 20
9.871013415
 30
0.0
 10
12.026589451
 20
9.8666773755
 30
0.0
 10
11.9994912785
 20
9.8626521671
 30
0.0
 10
11.9717205521
 20
9.8589459833
 30
0.0
 10
11.9433334271
 20
9.8555663669
 30
0.0
 10
11.914387315
 20
9.8525201953
 30
0.0
 10
11.8849407667
 20
9.8498136671
 30
0.0
 10
11.8550533532
 20
9.8474522867
 30
0.0
 10
11.824785543
 20
9.8454408549
 30
0.0
 10
11.7941985778
 20
9.8437834609
 30
0.0
 10
11.7633543471
 20
9.8424834745
 30
0.0
 10
11.7323152634
 20
9.8415435387
 30
0.0
 10
11.701144135
 20
9.8409655652
 30
0.0
 10
11.6699040392
 20
9.8407507307
 30
0.0
 10
11.6386581938
 20
9.8408994715
 30
0.0
 10
11.6074698282
 20
9.8414114838
 30
0.0
 10
11.5764020542
 20
9.8422857259
 30
0.0
 10
11.5455177384
 20
9.8435204205
 30
0.0
 10
11.5148793749
 20
9.8451130575
 30
0.0
 10
11.4845489587
 20
9.8470603998
 30
0.0
 10
11.454587859
 20
9.8493584892
 30
0.0
 10
11.4250566937
 20
9.8520026526
 30
0.0
 10
11.3960152048
 20
9.8549875102
 30
0.0
 10
11.3675221367
 20
9.8583069894
 30
0.0
 10
11.3396351173
 20
9.8619543359
 30
0.0
 10
11.3124105401
 20
9.8659221275
 30
0.0
 10
11.285903448
 20
9.8702022883
 30
0.0
 10
11.260167419
 20
9.8747861055
 30
0.0
 10
11.2352544528
 20
9.8796642452
 30
0.0
 10
11.2112148589
 20
9.8848267696
 30
0.0
 10
11.1880971534
 20
9.8902631613
 30
0.0
 10
11.1659479474
 20
9.8959623457
 30
0.0
 10
11.1448118702
 20
9.9019127149
 30
0.0
 10
11.1247313732
 20
9.9081021579
 30
0.0
 10
11.1057469549
 20
9.9145180886
 30
0.0
 10
11.0906726047
 20
9.9201163133
 30
0.0
 10
11.0791994699
 20
9.9247082344
 30
0.0
 10
11.0710097219
 20
9.9281536174
 30
0.0
 10
11.0631214438
 20
9.9316457177
 30
0.0
 10
11.0555386029
 20
9.9351828419
 30
0.0
 10
11.0482649929
 20
9.9387631451
 30
0.0
 10
11.0413042832
 20
9.9423848969
 30
0.0
 10
11.0346599389
 20
9.9460462205
 30
0.0
 10
11.0283352988
 20
9.9497453342
 30
0.0
 10
11.022333514
 20
9.9534803798
 30
0.0
 10
11.0166575685
 20
9.9572495008
 30
0.0
 10
11.0113103098
 20
9.9610508884
 30
0.0
 10
11.00629436
 20
9.9648826281
 30
0.0
 10
11.0016122583
 20
9.9687429531
 30
0.0
 10
10.9972662978
 20
9.9726299436
 30
0.0
 10
10.99325867
 20
9.976541868
 30
0.0
 10
10.9895914768
 20
9.9804767563
 30
0.0
 10
10.9862663014
 20
9.9844332827
 30
0.0
 10
10.9823655565
 20
9.9896356586
 30
0.0
 10
10.979053189
 20
9.9949782602
 30
0.0
 10
10.9764233133
 20
10.0004349397
 30
0.0
 10
10.9748343541
 20
10.0044705614
 30
0.0
 10
10.9735969737
 20
10.0085160026
 30
0.0
 10
10.9727121866
 20
10.012569298
 30
0.0
 10
10.9721809707
 20
10.016627558
 30
0.0
 10
10.9720627109
 20
10.0193387937
 30
0.0
 10
10.9720627112
 20
10.0206889501
 30
0.0
  0
SPLINE
  5
37B
100
AcDbEntity
  8
0
100
AcDbSpline
 62
7
  6
CONTINUOUS
 70
0
 71
3
 72
25
 73
21
 74
0
 42
0.0000001
 43
0.0000001
 44
0.0000000001
 40
0.0
 40
0.0
 40
0.0
 40
0.0
 40
0.06377716
 40
0.127343222
 40
0.190700148
 40
0.2538535537
 40
0.3168099705
 40
0.3795782475
 40
0.4421688972
 40
0.5045942157
 40
0.5668681101
 40
0.629005993
 40
0.6910246336
 40
0.7219973337
 40
0.7529470518
 40
0.8147821333
 40
0.8765547559
 40
0.9074265679
 40
0.9382904805
 40
1.0
 40
1.0
 40
1.0
 40
1.0
 10
10.3019217414
 20
8.15332185
 30
0.0
 10
10.3019217414
 20
8.1425987215
 30
0.0
 10
10.3014085373
 20
8.1211843216
 30
0.0
 10
10.2990919205
 20
8.0891928886
 30
0.0
 10
10.2952349381
 20
8.0574551808
 30
0.0
 10
10.2898465122
 20
8.0260453968
 30
0.0
 10
10.2829389096
 20
7.9950356011
 30
0.0
 10
10.2745280272
 20
7.9644973833
 30
0.0
 10
10.2646331575
 20
7.9345011156
 30
0.0
 10
10.2532770759
 20
7.905116008
 30
0.0
 10
10.2404858271
 20
7.876409712
 30
0.0
 10
10.2262891253
 20
7.8484488779
 30
0.0
 10
10.2133080599
 20
7.8258119269
 30
0.0
 10
10.2022562579
 20
7.8081429638
 30
0.0
 10
10.190773777
 20
7.7907877571
 30
0.0
 10
10.1756070733
 20
7.7696715863
 30
0.0
 10
10.1593855884
 20
7.7493712344
 30
0.0
 10
10.145805426
 20
7.7336584191
 30
0.0
 10
10.1318334328
 20
7.7183079639
 30
0.0
 10
10.1209139283
 20
7.7072035431
 30
0.0
 10
10.1134513048
 20
7.6999952157
 30
0.0
  0
SPLINE
  5
37C
100
AcDbEntity
  8
0
100
AcDbSpline
 62
7
  6
CONTINUOUS
 70
0
 71
3
 72
23
 73
19
 74
0
 42
0.0000001
 43
0.0000001
 44
0.0000000001
 40
0.0
 40
0.0
 40
0.0
 40
0.0
 40
0.063777379
 40
0.1273447372
 40
0.1907019931
 40
0.2538561345
 40
0.3168131769
 40
0.3795820929
 40
0.4421733849
 40
0.5045993366
 40
0.5668738654
 40
0.6290123812
 40
0.6910316548
 40
0.7529496517
 40
0.8147853612
 40
0.8765586089
 40
0.9382898579
 40
1.0
 40
1.0
 40
1.0
 40
1.0
 10
12.5911660853
 20
7.3918244517
 30
0.0
 10
12.5911660853
 20
7.3850357973
 30
0.0
 10
12.5908411653
 20
7.3714785429
 30
0.0
 10
12.5893745795
 20
7.3512251093
 30
0.0
 10
12.5869327448
 20
7.3311322559
 30
0.0
 10
12.5835214371
 20
7.3112470689
 30
0.0
 10
12.5791483364
 20
7.2916150773
 30
0.0
 10
12.5738235329
 20
7.2722816415
 30
0.0
 10
12.567559229
 20
7.2532913112
 30
0.0
 10
12.5603698423
 20
7.2346878807
 30
0.0
 10
12.5522719142
 20
7.2165142508
 30
0.0
 10
12.5432840808
 20
7.1988123384
 30
0.0
 10
12.5334270369
 20
7.1816229816
 30
0.0
 10
12.5227234689
 20
7.1649858329
 30
0.0
 10
12.5111980786
 20
7.1489393112
 30
0.0
 10
12.4988773117
 20
7.1335203019
 30
0.0
 10
12.4857900612
 20
7.1187648611
 30
0.0
 10
12.4765726294
 20
7.1093912327
 30
0.0
 10
12.4718481332
 20
7.1048277041
 30
0.0
  0
SPLINE
  5
37D
100
AcDbEntity
  8
0
100
AcDbSpline
 62
7
  6
CONTINUOUS
 70
0
 71
3
 72
11
 73
7
 74
0
 42
0.0000001
 43
0.0000001
 44
0.0000000001
 40
0.0
 40
0.0
 40
0.0
 40
0.0
 40
0.2508933445
 40
0.4982502416
 40
0.7464701764
 40
1.0
 40
1.0
 40
1.0
 40
1.0
 10
9.7380076928
 20
8.0233186386
 30
0.0
 10
9.738160996
 20
8.0235682455
 30
0.0
 10
9.7384330396
 20
8.0240848629
 30
0.0
 10
9.7387280721
 20
8.0249079484
 30
0.0
 10
9.7389041149
 20
8.0257675229
 30
0.0
 10
9.7389415511
 20
8.0263541904
 30
0.0
 10
9.7389415558
 20
8.0266501942
 30
0.0
  0
SPLINE
  5
37E
100
AcDbEntity
  8
0
100
AcDbSpline
 62
7
  6
CONTINUOUS
 70
0
 71
3
 72
11
 73
7
 74
0
 42
0.0000001
 43
0.0000001
 44
0.0000000001
 40
0.0
 40
0.0
 40
0.0
 40
0.0
 40
0.2505675042
 40
0.500710625
 40
0.7504994374
 40
1.0
 40
1.0
 40
1.0
 40
1.0
 10
9.7290371582
 20
7.9754160099
 30
0.0
 10
9.7302151041
 20
7.9793194369
 30
0.0
 10
9.7323359637
 20
7.9871917227
 30
0.0
 10
9.7348657825
 20
7.9991445452
 30
0.0
 10
9.7367799406
 20
8.0111932696
 30
0.0
 10
9.7376626383
 20
8.0192733992
 30
0.0
 10
9.7380076928
 20
8.0233186386
 30
0.0
  0
SPLINE
  5
37F
100
AcDbEntity
  8
0
100
AcDbSpline
 62
7
  6
CONTINUOUS
 70
0
 71
3
 72
21
 73
17
 74
0
 42
0.0000001
 43
0.0000001
 44
0.0000000001
 40
0.0
 40
0.0
 40
0.0
 40
0.0
 40
0.1434107278
 40
0.2868718552
 40
0.3578639872
 40
0.4279144418
 40
0.4966742684
 40
0.5637849344
 40
0.6288834076
 40
0.6916077224
 40
0.7516042823
 40
0.8085356569
 40
0.8620901444
 40
0.9119916786
 40
0.958015359
 40
1.0
 40
1.0
 40
1.0
 40
1.0
 10
9.6602653777
 20
7.9885169675
 30
0.0
 10
9.6633176046
 20
7.9870141891
 30
0.0
 10
9.6695269893
 20
7.9842145508
 30
0.0
 10
9.6774889375
 20
7.9812489362
 30
0.0
 10
9.6839271385
 20
7.9792197661
 30
0.0
 10
9.6887240362
 20
7.9778885963
 30
0.0
 10
9.6934753982
 20
7.9767491498
 30
0.0
 10
9.6981498842
 20
7.975806137
 30
0.0
 10
9.702715265
 20
7.9750626179
 30
0.0
 10
9.7071389426
 20
7.9745199382
 30
0.0
 10
9.7113883829
 20
7.9741777372
 30
0.0
 10
9.7154316458
 20
7.9740339774
 30
0.0
 10
9.7192378206
 20
7.9740850819
 30
0.0
 10
9.7227777757
 20
7.9743260627
 30
0.0
 10
9.7260239345
 20
7.9747507392
 30
0.0
 10
9.7280716913
 20
7.9751712926
 30
0.0
 10
9.7290371582
 20
7.9754160099
 30
0.0
  0
SPLINE
  5
380
100
AcDbEntity
  8
0
100
AcDbSpline
 62
7
  6
CONTINUOUS
 70
0
 71
3
 72
27
 73
23
 74
0
 42
0.0000001
 43
0.0000001
 44
0.0000000001
 40
0.0
 40
0.0
 40
0.0
 40
0.0
 40
0.0177883306
 40
0.0366040144
 40
0.056481596
 40
0.077440917
 40
0.0994873407
 40
0.1226129245
 40
0.1468000978
 40
0.1720254187
 40
0.2254648047
 40
0.2826787591
 40
0.3433810959
 40
0.4072800454
 40
0.4740871826
 40
0.5435209869
 40
0.6153065675
 40
0.6891736031
 40
0.7648534641
 40
0.8420714863
 40
0.9205530458
 40
1.0
 40
1.0
 40
1.0
 40
1.0
 10
9.614010836
 20
8.0325803504
 30
0.0
 10
9.6140528274
 20
8.032192913
 30
0.0
 10
9.6141758444
 20
8.0313993404
 30
0.0
 10
9.6144611406
 20
8.0301942107
 30
0.0
 10
9.614850283
 20
8.028945621
 30
0.0
 10
9.6153409085
 20
8.027657474
 30
0.0
 10
9.6159307258
 20
8.0263334429
 30
0.0
 10
9.6166172337
 20
8.0249772219
 30
0.0
 10
9.6173979567
 20
8.0235924928
 30
0.0
 10
9.618584041
 20
8.0216760392
 30
0.0
 10
9.6202936368
 20
8.0192358245
 30
0.0
 10
9.6226403628
 20
8.0163029849
 30
0.0
 10
9.6253008648
 20
8.0133360293
 30
0.0
 10
9.6282556396
 20
8.0103582419
 30
0.0
 10
9.6314859155
 20
8.0073911992
 30
0.0
 10
9.6349732901
 20
8.0044551116
 30
0.0
 10
9.6386996438
 20
8.001568943
 30
0.0
 10
9.6426468626
 20
7.9987505747
 30
0.0
 10
9.6467965105
 20
7.9960170255
 30
0.0
 10
9.6511296212
 20
7.9933843851
 30
0.0
 10
9.6556261131
 20
7.9908682355
 30
0.0
 10
9.6587038616
 20
7.9892857873
 30
0.0
 10
9.6602653777
 20
7.9885169675
 30
0.0
  0
SPLINE
  5
381
100
AcDbEntity
  8
0
100
AcDbSpline
 62
7
  6
CONTINUOUS
 70
0
 71
3
 72
11
 73
7
 74
0
 42
0.0000001
 43
0.0000001
 44
0.0000000001
 40
0.0
 40
0.0
 40
0.0
 40
0.0
 40
0.2581339555
 40
0.5093670625
 40
0.7558819029
 40
1.0
 40
1.0
 40
1.0
 40
1.0
 10
12.1443368283
 20
9.9485464091
 30
0.0
 10
12.1447834189
 20
9.9496263401
 30
0.0
 10
12.145571834
 20
9.9517974327
 30
0.0
 10
12.1464312977
 20
9.9551152177
 30
0.0
 10
12.1469477184
 20
9.9584394301
 30
0.0
 10
12.1470626959
 20
9.9606622942
 30
0.0
 10
12.147062696
 20
9.9617674705
 30
0.0
  0
SPLINE
  5
382
100
AcDbEntity
  8
0
100
AcDbSpline
 62
7
  6
CONTINUOUS
 70
0
 71
3
 72
23
 73
19
 74
0
 42
0.0000001
 43
0.0000001
 44
0.0000000001
 40
0.0
 40
0.0
 40
0.0
 40
0.0
 40
0.0637773819
 40
0.1273447421
 40
0.1907019992
 40
0.253856141
 40
0.3168131832
 40
0.3795820983
 40
0.4421733889
 40
0.504599339
 40
0.5668738661
 40
0.6290123801
 40
0.6910316522
 40
0.752949648
 40
0.8147853569
 40
0.876558605
 40
0.9382898554
 40
1.0
 40
1.0
 40
1.0
 40
1.0
 10
10.1100356254
 20
8.1829740838
 30
0.0
 10
10.1100356254
 20
8.1755682486
 30
0.0
 10
10.1096811643
 20
8.160778456
 30
0.0
 10
10.1080812393
 20
8.1386837113
 30
0.0
 10
10.1054173979
 20
8.1167641468
 30
0.0
 10
10.1016959408
 20
8.0950711301
 30
0.0
 10
10.0969252466
 20
8.0736543295
 30
0.0
 10
10.0911163229
 20
8.0525632299
 30
0.0
 10
10.0842824816
 20
8.0318464315
 30
0.0
 10
10.0764394513
 20
8.0115517103
 30
0.0
 10
10.0676052774
 20
7.991725868
 30
0.0
 10
10.0578002904
 20
7.9724146324
 30
0.0
 10
10.0470470671
 20
7.9536625547
 30
0.0
 10
10.0353703565
 20
7.9355128928
 30
0.0
 10
10.0227971066
 20
7.9180075586
 30
0.0
 10
10.0093561675
 20
7.9011867911
 30
0.0
 10
9.9950790594
 20
7.8850899247
 30
0.0
 10
9.9850236046
 20
7.8748641394
 30
0.0
 10
9.9798695708
 20
7.8698857416
 30
0.0
  0
SPLINE
  5
383
100
AcDbEntity
  8
0
100
AcDbSpline
 62
7
  6
CONTINUOUS
 70
0
 71
3
 72
45
 73
41
 74
0
 42
0.0000001
 43
0.0000001
 44
0.0000000001
 40
0.0
 40
0.0
 40
0.0
 40
0.0
 40
0.0310742614
 40
0.0623057426
 40
0.0936898446
 40
0.125217908
 40
0.1568785541
 40
0.1886576029
 40
0.220538447
 40
0.2525024129
 40
0.2845291516
 40
0.3165970575
 40
0.3486837056
 40
0.3807662986
 40
0.4128221195
 40
0.4448289838
 40
0.4767656829
 40
0.5086124157
 40
0.5403511993
 40
0.5719662505
 40
0.6034443338
 40
0.6347750718
 40
0.6659512006
 40
0.6969687676
 40
0.7278272698
 40
0.7585297197
 40
0.7890826279
 40
0.8194959081
 40
0.8346570226
 40
0.8497884117
 40
0.8648921795
 40
0.8799705898
 40
0.8950260592
 40
0.9100611439
 40
0.9250785187
 40
0.9400809684
 40
0.9550713684
 40
0.9700526647
 40
0.9850278616
 40
1.0
 40
1.0
 40
1.0
 40
1.0
 10
10.1100356254
 20
8.1829740838
 30
0.0
 10
10.1100356254
 20
8.1944642061
 30
0.0
 10
10.1091784839
 20
8.2175114264
 30
0.0
 10
10.105351557
 20
8.2519719189
 30
0.0
 10
10.099001745
 20
8.2862300624
 30
0.0
 10
10.0901641344
 20
8.3200953045
 30
0.0
 10
10.0788876287
 20
8.3533823182
 30
0.0
 10
10.0652344474
 20
8.3859082398
 30
0.0
 10
10.0492797804
 20
8.417494624
 30
0.0
 10
10.0311113619
 20
8.4479681168
 30
0.0
 10
10.0108290801
 20
8.4771615227
 30
0.0
 10
9.9885443761
 20
8.5049146693
 30
0.0
 10
9.9643796038
 20
8.5310752516
 30
0.0
 10
9.9384673884
 20
8.5554996634
 30
0.0
 10
9.9109499665
 20
8.5780538466
 30
0.0
 10
9.8819783351
 20
8.598613949
 30
0.0
 10
9.8517114373
 20
8.6170669824
 30
0.0
 10
9.8203153416
 20
8.6333114936
 30
0.0
 10
9.7879623388
 20
8.6472581367
 30
0.0
 10
9.7548299719
 20
8.6588300902
 30
0.0
 10
9.7211000899
 20
8.6679634775
 30
0.0
 10
9.6869578906
 20
8.6746078257
 30
0.0
 10
9.6525908979
 20
8.6787262838
 30
0.0
 10
9.618187908
 20
8.6802957865
 30
0.0
 10
9.583938127
 20
8.679307282
 30
0.0
 10
9.5500295764
 20
8.6757656818
 30
0.0
 10
9.5166501184
 20
8.6696904925
 30
0.0
 10
9.4893942622
 20
8.6625347394
 30
0.0
 10
9.4680464009
 20
8.655582449
 30
0.0
 10
9.4522952799
 20
8.6497672337
 30
0.0
 10
9.4368112649
 20
8.6433542588
 30
0.0
 10
9.421615386
 20
8.6363521859
 30
0.0
 10
9.406728615
 20
8.6287707192
 30
0.0
 10
9.3921714094
 20
8.6206202847
 30
0.0
 10
9.377963853
 20
8.6119120241
 30
0.0
 10
9.3641254468
 20
8.6026579888
 30
0.0
 10
9.3506752738
 20
8.5928708926
 30
0.0
 10
9.3376318079
 20
8.5825641034
 30
0.0
 10
9.3250131856
 20
8.5717521198
 30
0.0
 10
9.3168947378
 20
8.5642163392
 30
0.0
 10
9.3129128317
 20
8.5603701261
 30
0.0
  0
SPLINE
  5
384
100
AcDbEntity
  8
0
100
AcDbSpline
 62
7
  6
CONTINUOUS
 70
0
 71
3
 72
21
 73
17
 74
0
 42
0.0000001
 43
0.0000001
 44
0.0000000001
 40
0.0
 40
0.0
 40
0.0
 40
0.0
 40
0.1273176368
 40
0.2537999758
 40
0.3167619477
 40
0.3795355043
 40
0.4421314993
 40
0.504562144
 40
0.5668413432
 40
0.6289845282
 40
0.6910084527
 40
0.7529310934
 40
0.8147714494
 40
0.8765493364
 40
0.9382852193
 40
1.0
 40
1.0
 40
1.0
 40
1.0
 10
12.4050569457
 20
7.4170568166
 30
0.0
 10
12.4050569457
 20
7.409819294
 30
0.0
 10
12.4043660763
 20
7.3953824166
 30
0.0
 10
12.4017568869
 20
7.3775353168
 30
0.0
 10
12.3986383254
 20
7.3635358273
 30
0.0
 10
12.395794365
 20
7.3532097989
 30
0.0
 10
12.3924486369
 20
7.343067247
 30
0.0
 10
12.3886088072
 20
7.3331312822
 30
0.0
 10
12.3842837576
 20
7.3234248769
 30
0.0
 10
12.3794834014
 20
7.3139704156
 30
0.0
 10
12.3742187808
 20
7.304789724
 30
0.0
 10
12.3685020675
 20
7.2959039471
 30
0.0
 10
12.3623464291
 20
7.2873336158
 30
0.0
 10
12.3557659531
 20
7.2790984613
 30
0.0
 10
12.3487761243
 20
7.2712176996
 30
0.0
 10
12.3438531419
 20
7.266211325
 30
0.0
 10
12.3413298168
 20
7.2637739803
 30
0.0
  0
SPLINE
  5
385
100
AcDbEntity
  8
0
100
AcDbSpline
 62
7
  6
CONTINUOUS
 70
0
 71
3
 72
41
 73
37
 74
0
 42
0.0000001
 43
0.0000001
 44
0.0000000001
 40
0.0
 40
0.0
 40
0.0
 40
0.0
 40
0.0310749795
 40
0.0466744934
 40
0.0623125012
 40
0.0936974042
 40
0.1252262392
 40
0.1568876811
 40
0.1886675208
 40
0.2205491607
 40
0.2525139234
 40
0.2685235891
 40
0.284546292
 40
0.3166149974
 40
0.3487024458
 40
0.3807858392
 40
0.4128424602
 40
0.4448501235
 40
0.4767876202
 40
0.5086351488
 40
0.540374725
 40
0.5719905649
 40
0.6034694342
 40
0.6348009542
 40
0.6659778599
 40
0.6969961999
 40
0.727855472
 40
0.7585586874
 40
0.7891123568
 40
0.8195263956
 40
0.8498139432
 40
0.879991099
 40
0.9100765763
 40
0.9400912818
 40
0.9700578289
 40
1.0
 40
1.0
 40
1.0
 40
1.0
 10
12.4050569457
 20
7.4170568166
 30
0.0
 10
12.4050569457
 20
7.4226821785
 30
0.0
 10
12.4047425004
 20
7.4311356957
 30
0.0
 10
12.4037040062
 20
7.4423697114
 30
0.0
 10
12.4022488677
 20
7.4536144847
 30
0.0
 10
12.3996549101
 20
7.4676094456
 30
0.0
 10
12.3953281898
 20
7.4841890225
 30
0.0
 10
12.3898074124
 20
7.5004858481
 30
0.0
 10
12.3831229913
 20
7.5164100463
 30
0.0
 10
12.3753120311
 20
7.5318739499
 30
0.0
 10
12.3679025951
 20
7.5443014859
 30
0.0
 10
12.3614580678
 20
7.5539310907
 30
0.0
 10
12.3546720525
 20
7.5633463904
 30
0.0
 10
12.345576703
 20
7.57467377
 30
0.0
 10
12.333746215
 20
7.587481281
 30
0.0
 10
12.3210599842
 20
7.5994391454
 30
0.0
 10
12.3075879294
 20
7.6104812821
 30
0.0
 10
12.2934038953
 20
7.620547167
 30
0.0
 10
12.2785857282
 20
7.629581464
 30
0.0
 10
12.2632147265
 20
7.6375345141
 30
0.0
 10
12.2473752345
 20
7.6443625562
 30
0.0
 10
12.2311541767
 20
7.650027982
 30
0.0
 10
12.2146405896
 20
7.6544995386
 30
0.0
 10
12.197925139
 20
7.6577525034
 30
0.0
 10
12.1810996296
 20
7.6597688235
 30
0.0
 10
12.1642565074
 20
7.6605372211
 30
0.0
 10
12.1474883578
 20
7.6600532627
 30
0.0
 10
12.1308874013
 20
7.6583193933
 30
0.0
 10
12.1145449896
 20
7.6553449343
 30
0.0
 10
12.098551101
 20
7.6511460428
 30
0.0
 10
12.0829938503
 20
7.6457456429
 30
0.0
 10
12.0679589673
 20
7.6391732822
 30
0.0
 10
12.053529428
 20
7.6314650888
 30
0.0
 10
12.039784565
 20
7.6226631741
 30
0.0
 10
12.0268011788
 20
7.6128169144
 30
0.0
 10
12.0186974812
 20
7.6055893622
 30
0.0
 10
12.0147989092
 20
7.601823631
 30
0.0
  0
SPLINE
  5
386
100
AcDbEntity
  8
0
100
AcDbSpline
 62
7
  6
CONTINUOUS
 70
0
 71
3
 72
64
 73
60
 74
0
 42
0.0000001
 43
0.0000001
 44
0.0000000001
 40
0.0
 40
0.0
 40
0.0
 40
0.0
 40
0.0077404978
 40
0.0160540659
 40
0.0249602
 40
0.0344716245
 40
0.0445948592
 40
0.0553316784
 40
0.0666798634
 40
0.0786338211
 40
0.0911850511
 40
0.1043225229
 40
0.1180330228
 40
0.1323013827
 40
0.1471106433
 40
0.1624422713
 40
0.1782763091
 40
0.1945914592
 40
0.2113652093
 40
0.2285739597
 40
0.2461930937
 40
0.2641970392
 40
0.2825593834
 40
0.3012529457
 40
0.320249821
 40
0.3395214654
 40
0.3787715139
 40
0.4187652161
 40
0.4592580124
 40
0.5000013389
 40
0.5407446479
 40
0.581237392
 40
0.6212310112
 40
0.6604809382
 40
0.6797525141
 40
0.6987493112
 40
0.7174427819
 40
0.7358050336
 40
0.753808881
 40
0.7714279019
 40
0.7886365346
 40
0.8054101674
 40
0.8217251893
 40
0.8375590854
 40
0.8528905768
 40
0.8676996965
 40
0.881967899
 40
0.8956782429
 40
0.9088155624
 40
0.9213666297
 40
0.933320415
 40
0.944668437
 40
0.9554050968
 40
0.9655281528
 40
0.9750393943
 40
0.9839454382
 40
0.988175625
 40
0.9922597779
 40
1.0
 40
1.0
 40
1.0
 40
1.0
 10
12.172863978
 20
9.968824232
 30
0.0
 10
12.1708892248
 20
9.9669865943
 30
0.0
 10
12.1666382113
 20
9.9633401393
 30
0.0
 10
12.1596645399
 20
9.9581322174
 30
0.0
 10
12.1518825711
 20
9.9530028193
 30
0.0
 10
12.1433050544
 20
9.9479600372
 30
0.0
 10
12.1339452331
 20
9.9430115552
 30
0.0
 10
12.1238180916
 20
9.9381652524
 30
0.0
 10
12.1129398589
 20
9.9334289269
 30
0.0
 10
12.1013280914
 20
9.9288103252
 30
0.0
 10
12.0890016388
 20
9.9243170234
 30
0.0
 10
12.0759805932
 20
9.9199564123
 30
0.0
 10
12.0622862245
 20
9.915735704
 30
0.0
 10
12.0479409494
 20
9.9116618977
 30
0.0
 10
12.0329683005
 20
9.9077417235
 30
0.0
 10
12.0173928626
 20
9.9039816757
 30
0.0
 10
12.0012402253
 20
9.9003880008
 30
0.0
 10
11.9845369527
 20
9.8969666511
 30
0.0
 10
11.9673105327
 20
9.8937232859
 30
0.0
 10
11.9495893169
 20
9.8906632865
 30
0.0
 10
11.9314024813
 20
9.8877917338
 30
0.0
 10
11.9127799834
 20
9.8851133703
 30
0.0
 10
11.8937524986
 20
9.8826326299
 30
0.0
 10
11.8743513791
 20
9.8803536402
 30
0.0
 10
11.8546085669
 20
9.8782801459
 30
0.0
 10
11.8277093821
 20
9.8757789743
 30
0.0
 10
11.7934713079
 20
9.8731985088
 30
0.0
 10
11.7517994888
 20
9.870985
 30
0.0
 10
11.7095695779
 20
9.869651012
 30
0.0
 10
11.6670597968
 20
9.86920538
 30
0.0
 10
11.624550035
 20
9.8696511317
 30
0.0
 10
11.5823201814
 20
9.8709852478
 30
0.0
 10
11.5406484577
 20
9.8731988662
 30
0.0
 10
11.5064104871
 20
9.8757794401
 30
0.0
 10
11.4795114029
 20
9.878280684
 30
0.0
 10
11.4597686799
 20
9.8803542337
 30
0.0
 10
11.4403676597
 20
9.8826332854
 30
0.0
 10
11.4213402809
 20
9.8851140777
 30
0.0
 10
11.4027178971
 20
9.8877924906
 30
0.0
 10
11.3845311864
 20
9.8906641005
 30
0.0
 10
11.3668101028
 20
9.893724152
 30
0.0
 10
11.3495838201
 20
9.8969675624
 30
0.0
 10
11.3328806948
 20
9.9003889592
 30
0.0
 10
11.3167282144
 20
9.9039826872
 30
0.0
 10
11.3011529368
 20
9.907742776
 30
0.0
 10
11.2861804545
 20
9.9116629886
 30
0.0
 10
11.2718353574
 20
9.9157368426
 30
0.0
 10
11.2581411708
 20
9.9199575907
 30
0.0
 10
11.2451203091
 20
9.9243182337
 30
0.0
 10
11.2327940497
 20
9.9288115709
 30
0.0
 10
11.2211824862
 20
9.9334302135
 30
0.0
 10
11.2103044496
 20
9.9381665652
 30
0.0
 10
11.2001775241
 20
9.9430128907
 30
0.0
 10
11.1908178896
 20
9.9479614157
 30
0.0
 10
11.1822406954
 20
9.9530041935
 30
0.0
 10
11.1756472674
 20
9.9573501694
 30
0.0
 10
11.1707889
 20
9.9608746841
 30
0.0
 10
11.1663658653
 20
9.9643018288
 30
0.0
 10
11.1632346545
 20
9.9669879468
 30
0.0
 10
11.1612600143
 20
9.968825565
 30
0.0
  0
SPLINE
  5
387
100
AcDbEntity
  8
0
100
AcDbSpline
 62
7
  6
CONTINUOUS
 70
0
 71
3
 72
11
 73
7
 74
0
 42
0.0000001
 43
0.0000001
 44
0.0000000001
 40
0.0
 40
0.0
 40
0.0
 40
0.0
 40
0.2580891287
 40
0.509315264
 40
0.7558493912
 40
1.0
 40
1.0
 40
1.0
 40
1.0
 10
11.1897728967
 20
9.9485844113
 30
0.0
 10
11.1893288413
 20
9.9496613468
 30
0.0
 10
11.1885449337
 20
9.9518263766
 30
0.0
 10
11.1876904558
 20
9.9551345657
 30
0.0
 10
11.1871770332
 20
9.9584491229
 30
0.0
 10
11.1870627262
 20
9.9606654896
 30
0.0
 10
11.1870627263
 20
9.9617674705
 30
0.0
  0
SPLINE
  5
388
100
AcDbEntity
  8
0
100
AcDbSpline
 62
7
  6
CONTINUOUS
 70
0
 71
3
 72
18
 73
14
 74
0
 42
0.0000001
 43
0.0000001
 44
0.0000000001
 40
0.0
 40
0.0
 40
0.0
 40
0.0
 40
0.0548620589
 40
0.1099280789
 40
0.165399508
 40
0.2214731255
 40
0.2783387361
 40
0.3361775086
 40
0.4554063416
 40
0.5804417492
 40
0.7123343341
 40
0.8519577333
 40
1.0
 40
1.0
 40
1.0
 40
1.0
 10
12.3620627112
 20
10.0206889502
 30
0.0
 10
12.362062711
 20
10.0197074162
 30
0.0
 10
12.3620004021
 20
10.0177401357
 30
0.0
 10
12.3617202836
 20
10.0147924156
 30
0.0
 10
12.361253579
 20
10.0118463942
 30
0.0
 10
12.3606004421
 20
10.0089031473
 30
0.0
 10
12.3597611261
 20
10.0059634181
 30
0.0
 10
12.3583806391
 20
10.0020102704
 30
0.0
 10
12.3561691224
 20
9.9970659411
 30
0.0
 10
12.3528030562
 20
9.9912266693
 30
0.0
 10
12.3487033699
 20
9.9854251936
 30
0.0
 10
12.343876301
 20
9.9796673367
 30
0.0
 10
12.3402862291
 20
9.9759729715
 30
0.0
 10
12.3383812002
 20
9.9741328548
 30
0.0
  0
SPLINE
  5
389
100
AcDbEntity
  8
0
100
AcDbSpline
 62
7
  6
CONTINUOUS
 70
0
 71
3
 72
51
 73
47
 74
0
 42
0.0000001
 43
0.0000001
 44
0.0000000001
 40
0.0
 40
0.0
 40
0.0
 40
0.0
 40
0.0149716485
 40
0.0299463565
 40
0.0449271644
 40
0.0599170744
 40
0.0749190346
 40
0.0899359198
 40
0.1049705137
 40
0.1200254925
 40
0.1351034109
 40
0.1502066862
 40
0.1653375828
 40
0.1804982023
 40
0.1956904722
 40
0.2109161327
 40
0.2261767296
 40
0.241473608
 40
0.2568079046
 40
0.2721805407
 40
0.2875922226
 40
0.303043438
 40
0.3185344523
 40
0.334065311
 40
0.3496358431
 40
0.3652456603
 40
0.3965753769
 40
0.4280524346
 40
0.4596664537
 40
0.4914042018
 40
0.5232498957
 40
0.555185552
 40
0.5871913712
 40
0.619246145
 40
0.65132769
 40
0.68341329
 40
0.7154801477
 40
0.7475058396
 40
0.7794687608
 40
0.8113485629
 40
0.8431265731
 40
0.8747861836
 40
0.9063132226
 40
0.9376962675
 40
0.9689267871
 40
1.0
 40
1.0
 40
1.0
 40
1.0
 10
9.1477551999
 20
8.6997606749
 30
0.0
 10
9.1535206594
 20
8.7053296708
 30
0.0
 10
9.1652755405
 20
8.7162407866
 30
0.0
 10
9.1835462246
 20
8.7318956445
 30
0.0
 10
9.2024321228
 20
8.746818931
 30
0.0
 10
9.2219068595
 20
8.7609897897
 30
0.0
 10
9.2419437125
 20
8.7743888405
 30
0.0
 10
9.262515095
 20
8.7869976044
 30
0.0
 10
9.2835927111
 20
8.7987987245
 30
0.0
 10
9.3051475254
 20
8.8097760119
 30
0.0
 10
9.3271498772
 20
8.8199143723
 30
0.0
 10
9.3495695058
 20
8.8291998252
 30
0.0
 10
9.3723755427
 20
8.8376196413
 30
0.0
 10
9.3955365999
 20
8.8451622723
 30
0.0
 10
9.4190208202
 20
8.8518173244
 30
0.0
 10
9.4427958916
 20
8.8575756515
 30
0.0
 10
9.466829094
 20
8.862429393
 30
0.0
 10
9.4910873693
 20
8.8663718808
 30
0.0
 10
9.5155373532
 20
8.8693976684
 30
0.0
 10
9.5401454067
 20
8.8715026573
 30
0.0
 10
9.5648776867
 20
8.8726839839
 30
0.0
 10
9.5897001729
 20
8.8729400035
 30
0.0
 10
9.6145787555
 20
8.8722703844
 30
0.0
 10
9.6394791147
 20
8.8706761289
 30
0.0
 10
9.6643674228
 20
8.8681593317
 30
0.0
 10
9.6975260578
 20
8.8635733711
 30
0.0
 10
9.7387770826
 20
8.8555458291
 30
0.0
 10
9.7876139678
 20
8.8423214869
 30
0.0
 10
9.835587143
 20
8.8255662481
 30
0.0
 10
9.8824314568
 20
8.8053726346
 30
0.0
 10
9.9278903496
 20
8.7818519005
 30
0.0
 10
9.9717142433
 20
8.7551334414
 30
0.0
 10
10.0136627001
 20
8.7253641183
 30
0.0
 10
10.0535055991
 20
8.6927075567
 30
0.0
 10
10.091024241
 20
8.6573430081
 30
0.0
 10
10.1260127997
 20
8.619464703
 30
0.0
 10
10.1582791537
 20
8.5792804749
 30
0.0
 10
10.1876461453
 20
8.5370108612
 30
0.0
 10
10.2139524737
 20
8.4928878122
 30
0.0
 10
10.2370534627
 20
8.4471533845
 30
0.0
 10
10.2568221324
 20
8.4000586028
 30
0.0
 10
10.2731495072
 20
8.3518617956
 30
0.0
 10
10.2859456136
 20
8.3028277993
 30
0.0
 10
10.2951396514
 20
8.2532248887
 30
0.0
 10
10.3006806574
 20
8.2033290007
 30
0.0
 10
10.3019217414
 20
8.1699585593
 30
0.0
 10
10.3019217414
 20
8.15332185
 30
0.0
  0
SPLINE
  5
38A
100
AcDbEntity
  8
0
100
AcDbSpline
 62
7
  6
CONTINUOUS
 70
0
 71
3
 72
41
 73
37
 74
0
 42
0.0000001
 43
0.0000001
 44
0.0000000001
 40
0.0
 40
0.0
 40
0.0
 40
0.0
 40
0.0149724862
 40
0.0299480307
 40
0.0449296746
 40
0.0599204222
 40
0.0899350731
 40
0.1200204959
 40
0.1501975964
 40
0.1804850878
 40
0.2108990702
 40
0.2414526838
 40
0.2721558423
 40
0.303015057
 40
0.3340333403
 40
0.3652101893
 40
0.3965416515
 40
0.4280204628
 40
0.4596362457
 40
0.4913757643
 40
0.5232232351
 40
0.5551606749
 40
0.587168282
 40
0.6192248472
 40
0.6513081855
 40
0.6833955794
 40
0.7154642309
 40
0.7474917144
 40
0.779456424
 40
0.8113380097
 40
0.8431177978
 40
0.8747791805
 40
0.9063079772
 40
0.937692809
 40
0.9689250164
 40
1.0
 40
1.0
 40
1.0
 40
1.0
 10
11.86046926
 20
7.7377699244
 30
0.0
 10
11.8641193335
 20
7.7412956367
 30
0.0
 10
11.8715612408
 20
7.7482034753
 30
0.0
 10
11.8831282475
 20
7.7581144858
 30
0.0
 10
11.8950849122
 20
7.7675625207
 30
0.0
 10
11.9115286682
 20
7.7795281421
 30
0.0
 10
11.9329863038
 20
7.7932694708
 30
0.0
 10
11.9600027699
 20
7.8077015093
 30
0.0
 10
11.9881533329
 20
7.8200074127
 30
0.0
 10
12.0172817648
 20
7.8301188789
 30
0.0
 10
12.0472277951
 20
7.8379807326
 30
0.0
 10
12.0778263764
 20
7.843549999
 30
0.0
 10
12.1089090483
 20
7.8467964727
 30
0.0
 10
12.1403047685
 20
7.8477026921
 30
0.0
 10
12.1718408688
 20
7.8462640411
 30
0.0
 10
12.2033439944
 20
7.8424888476
 30
0.0
 10
12.2346410586
 20
7.8363982462
 30
0.0
 10
12.2655601699
 20
7.828026019
 30
0.0
 10
12.2959315613
 20
7.8174184323
 30
0.0
 10
12.3255885374
 20
7.8046340394
 30
0.0
 10
12.3543683498
 20
7.7897432602
 30
0.0
 10
12.3821130644
 20
7.7728279952
 30
0.0
 10
12.4086704511
 20
7.7539812434
 30
0.0
 10
12.4338948114
 20
7.7333065774
 30
0.0
 10
12.4576477305
 20
7.7109175288
 30
0.0
 10
12.4797988245
 20
7.6869369844
 30
0.0
 10
12.5002265195
 20
7.6614965837
 30
0.0
 10
12.5188186572
 20
7.6347359402
 30
0.0
 10
12.5354730827
 20
7.6068018789
 30
0.0
 10
12.5500982315
 20
7.577847663
 30
0.0
 10
12.56261368
 20
7.548032201
 30
0.0
 10
12.5729505039
 20
7.5175190682
 30
0.0
 10
12.5810516682
 20
7.4864758904
 30
0.0
 10
12.5868723446
 20
7.4550725513
 30
0.0
 10
12.5903803702
 20
7.4234837247
 30
0.0
 10
12.5911660853
 20
7.4023570778
 30
0.0
 10
12.5911660853
 20
7.3918244517
 30
0.0
  0
SPLINE
  5
38B
100
AcDbEntity
  8
0
100
AcDbSpline
 62
7
  6
CONTINUOUS
 70
0
 71
3
 72
73
 73
69
 74
0
 42
0.0000001
 43
0.0000001
 44
0.0000000001
 40
0.0
 40
0.0
 40
0.0
 40
0.0
 40
0.0036899217
 40
0.0075220722
 40
0.0114999241
 40
0.0156263923
 40
0.0199038122
 40
0.0243340611
 40
0.0289186039
 40
0.0336584765
 40
0.0385544129
 40
0.0436068119
 40
0.0541807001
 40
0.0653786566
 40
0.0771951324
 40
0.089621585
 40
0.1026468929
 40
0.1162576909
 40
0.1304386228
 40
0.1451725279
 40
0.1604406229
 40
0.1762226663
 40
0.1924970827
 40
0.2092410562
 40
0.2264306365
 40
0.2440408462
 40
0.2620457622
 40
0.2804185807
 40
0.2991316963
 40
0.3181567872
 40
0.3374648822
 40
0.3768107074
 40
0.4169274633
 40
0.4575665897
 40
0.498475352
 40
0.5393988829
 40
0.5800822002
 40
0.6202722166
 40
0.659719788
 40
0.6790891832
 40
0.6981823705
 40
0.7169702342
 40
0.7354242897
 40
0.7535167596
 40
0.771220657
 40
0.7885098461
 40
0.8053591152
 40
0.8217442679
 40
0.8376422293
 40
0.8530311246
 40
0.8678903835
 40
0.8822008716
 40
0.8959450526
 40
0.909107133
 40
0.9216732551
 40
0.93363175
 40
0.9449734639
 40
0.9556921057
 40
0.9608169699
 40
0.9657853037
 40
0.9705973493
 40
0.9752536818
 40
0.9797551699
 40
0.9841030803
 40
0.9882991772
 40
0.992345623
 40
0.9962449193
 40
1.0
 40
1.0
 40
1.0
 40
1.0
 10
12.8449845748
 20
7.6785378708
 30
0.0
 10
12.8440543164
 20
7.679681678
 30
0.0
 10
12.8422061729
 20
7.6820529599
 30
0.0
 10
12.8395197739
 20
7.6857818976
 30
0.0
 10
12.8368685786
 20
7.6897475412
 30
0.0
 10
12.834253754
 20
7.6939482208
 30
0.0
 10
12.831676282
 20
7.6983822196
 30
0.0
 10
12.8291372117
 20
7.7030477241
 30
0.0
 10
12.8266376012
 20
7.7079428401
 30
0.0
 10
12.8241784261
 20
7.7130655368
 30
0.0
 10
12.8217607065
 20
7.7184137362
 30
0.0
 10
12.8185448357
 20
7.7259572129
 30
0.0
 10
12.8146463987
 20
7.7359440536
 30
0.0
 10
12.8102174102
 20
7.7486152651
 30
0.0
 10
12.8059765902
 20
7.7621283671
 30
0.0
 10
12.8019309913
 20
7.7764610552
 30
0.0
 10
12.7980873532
 20
7.7915898425
 30
0.0
 10
12.7944521096
 20
7.807489793
 30
0.0
 10
12.7910313627
 20
7.8241346675
 30
0.0
 10
12.7878308478
 20
7.841496938
 30
0.0
 10
12.7848559288
 20
7.8595478531
 30
0.0
 10
12.7821116005
 20
7.8782575002
 30
0.0
 10
12.7796024783
 20
7.8975948573
 30
0.0
 10
12.777332773
 20
7.9175278392
 30
0.0
 10
12.7753062876
 20
7.9380233555
 30
0.0
 10
12.773526425
 20
7.9590473768
 30
0.0
 10
12.771996182
 20
7.9805649898
 30
0.0
 10
12.7707181272
 20
8.0025404534
 30
0.0
 10
12.769694408
 20
8.0249372478
 30
0.0
 10
12.7689267221
 20
8.0477181911
 30
0.0
 10
12.7682420986
 20
8.0787485128
 30
0.0
 10
12.7680440082
 20
8.1182161917
 30
0.0
 10
12.7688375311
 20
8.1662007461
 30
0.0
 10
12.7706560824
 20
8.2147823297
 30
0.0
 10
12.7734876521
 20
8.2636382015
 30
0.0
 10
12.7773135471
 20
8.3124439867
 30
0.0
 10
12.7821082705
 20
8.3608756539
 30
0.0
 10
12.7878399133
 20
8.4086114654
 30
0.0
 10
12.7933981483
 20
8.4477816403
 30
0.0
 10
12.7982930747
 20
8.4785246138
 30
0.0
 10
12.8021506517
 20
8.5010724453
 30
0.0
 10
12.8062103209
 20
8.5232130397
 30
0.0
 10
12.8104653489
 20
8.5449096362
 30
0.0
 10
12.8149086402
 20
8.5661261822
 30
0.0
 10
12.8195327798
 20
8.5868274432
 30
0.0
 10
12.8243300545
 20
8.6069790436
 30
0.0
 10
12.8292924661
 20
8.626547523
 30
0.0
 10
12.834411742
 20
8.6455004007
 30
0.0
 10
12.8396793315
 20
8.6638062383
 30
0.0
 10
12.8450864429
 20
8.6814346855
 30
0.0
 10
12.8506240556
 20
8.698356527
 30
0.0
 10
12.8562829374
 20
8.7145437446
 30
0.0
 10
12.862053639
 20
8.7299695776
 30
0.0
 10
12.8679265405
 20
8.7446085689
 30
0.0
 10
12.8738918645
 20
8.758436582
 30
0.0
 10
12.8799397208
 20
8.7714309537
 30
0.0
 10
12.8860600583
 20
8.7835702375
 30
0.0
 10
12.8912876373
 20
8.7930948371
 30
0.0
 10
12.8955054572
 20
8.8002618964
 30
0.0
 10
12.8986332346
 20
8.8053305085
 30
0.0
 10
12.9017715557
 20
8.8101709814
 30
0.0
 10
12.9049191064
 20
8.8147813446
 30
0.0
 10
12.9080745963
 20
8.8191596955
 30
0.0
 10
12.9112367852
 20
8.8233042437
 30
0.0
 10
12.9144043883
 20
8.827213352
 30
0.0
 10
12.917576199
 20
8.8308853995
 30
0.0
 10
12.9207507459
 20
8.8343187334
 30
0.0
 10
12.9229080961
 20
8.8364877922
 30
0.0
 10
12.9239872468
 20
8.8375301718
 30
0.0
  0
SPLINE
  5
38C
100
AcDbEntity
  8
0
100
AcDbSpline
 62
7
  6
CONTINUOUS
 70
0
 71
3
 72
71
 73
67
 74
0
 42
0.0000001
 43
0.0000001
 44
0.0000000001
 40
0.0
 40
0.0
 40
0.0
 40
0.0
 40
0.0156373785
 40
0.031327908
 40
0.0470702843
 40
0.0628636379
 40
0.078706081
 40
0.0945954869
 40
0.110529229
 40
0.1265042947
 40
0.1425172947
 40
0.1585644997
 40
0.1746418765
 40
0.1907451247
 40
0.2068697161
 40
0.223010935
 40
0.23916392
 40
0.2553237071
 40
0.2714852732
 40
0.2876435801
 40
0.3037936179
 40
0.3199304487
 40
0.3360492498
 40
0.3521453559
 40
0.3682143008
 40
0.3842518587
 40
0.4002540819
 40
0.4162173382
 40
0.4321383455
 40
0.4480142037
 40
0.4638424245
 40
0.4796209578
 40
0.4953482155
 40
0.5110230902
 40
0.5266449705
 40
0.5422137516
 40
0.5577298414
 40
0.5731941618
 40
0.588608145
 40
0.6039737248
 40
0.6192933216
 40
0.6345698226
 40
0.6498065561
 40
0.6650072606
 40
0.6801760496
 40
0.6953173702
 40
0.7104359597
 40
0.7255367959
 40
0.7406250456
 40
0.7557060099
 40
0.7707850676
 40
0.7858676178
 40
0.800959022
 40
0.8160645473
 40
0.8311893104
 40
0.8463382237
 40
0.8615159442
 40
0.8767268262
 40
0.8919748769
 40
0.9072637173
 40
0.9225965518
 40
0.9379761174
 40
0.9534047476
 40
0.9688840681
 40
0.9844157435
 40
1.0
 40
1.0
 40
1.0
 40
1.0
 10
10.1418554427
 20
8.168709669
 30
0.0
 10
10.1418554427
 20
8.1770204794
 30
0.0
 10
10.1414459608
 20
8.1936731786
 30
0.0
 10
10.1396122368
 20
8.218631744
 30
0.0
 10
10.1365622741
 20
8.2435550786
 30
0.0
 10
10.1323036547
 20
8.2683822188
 30
0.0
 10
10.1268465551
 20
8.293053729
 30
0.0
 10
10.1202042296
 20
8.3175100999
 30
0.0
 10
10.1123926814
 20
8.3416924887
 30
0.0
 10
10.1034307614
 20
8.3655426733
 30
0.0
 10
10.0933400831
 20
8.3890032485
 30
0.0
 10
10.0821449751
 20
8.4120177482
 30
0.0
 10
10.0698724165
 20
8.4345307817
 30
0.0
 10
10.0565519727
 20
8.4564881658
 30
0.0
 10
10.0422157254
 20
8.4778370541
 30
0.0
 10
10.0268981954
 20
8.4985260627
 30
0.0
 10
10.0106362593
 20
8.5185053922
 30
0.0
 10
9.9934690717
 20
8.5377269562
 30
0.0
 10
9.9754379631
 20
8.5561444917
 30
0.0
 10
9.9565863378
 20
8.573713667
 30
0.0
 10
9.9369595706
 20
8.590392188
 30
0.0
 10
9.9166048987
 20
8.6061398993
 30
0.0
 10
9.8955713091
 20
8.6209188802
 30
0.0
 10
9.8739094207
 20
8.6346935337
 30
0.0
 10
9.8516713696
 20
8.6474306837
 30
0.0
 10
9.8289106806
 20
8.6590996499
 30
0.0
 10
9.8056821346
 20
8.669672316
 30
0.0
 10
9.78204164
 20
8.6791231984
 30
0.0
 10
9.7580460981
 20
8.6874295063
 30
0.0
 10
9.7337532689
 20
8.6945711982
 30
0.0
 10
9.7092216317
 20
8.7005310268
 30
0.0
 10
9.6845102486
 20
8.7052945939
 30
0.0
 10
9.6596786204
 20
8.7088503828
 30
0.0
 10
9.634786543
 20
8.7111897782
 30
0.0
 10
9.6098939646
 20
8.7123070896
 30
0.0
 10
9.5850608428
 20
8.7121995649
 30
0.0
 10
9.5603470014
 20
8.7108673992
 30
0.0
 10
9.5358119872
 20
8.7083137336
 30
0.0
 10
9.5115149258
 20
8.7045446586
 30
0.0
 10
9.4875143773
 20
8.6995692031
 30
0.0
 10
9.4638681959
 20
8.6933993022
 30
0.0
 10
9.4406333912
 20
8.6860497723
 30
0.0
 10
9.4178659901
 20
8.6775382762
 30
0.0
 10
9.3956209011
 20
8.6678852831
 30
0.0
 10
9.3739517822
 20
8.6571140186
 30
0.0
 10
9.3529109064
 20
8.6452504167
 30
0.0
 10
9.3325490299
 20
8.6323230628
 30
0.0
 10
9.312915274
 20
8.6183631121
 30
0.0
 10
9.2940570045
 20
8.6034042174
 30
0.0
 10
9.2760197162
 20
8.5874824469
 30
0.0
 10
9.2588469216
 20
8.570636197
 30
0.0
 10
9.242580046
 20
8.5529060989
 30
0.0
 10
9.2272583225
 20
8.534334922
 30
0.0
 10
9.2129186883
 20
8.5149674756
 30
0.0
 10
9.1995957055
 20
8.4948504877
 30
0.0
 10
9.1873214771
 20
8.4740324922
 30
0.0
 10
9.1761255699
 20
8.4525637107
 30
0.0
 10
9.1660349439
 20
8.4304959292
 30
0.0
 10
9.1570738889
 20
8.4078823732
 30
0.0
 10
9.1492639618
 20
8.3847775765
 30
0.0
 10
9.1426239393
 20
8.3612372636
 30
0.0
 10
9.137169735
 20
8.337318159
 30
0.0
 10
9.132914502
 20
8.3130780303
 30
0.0
 10
9.1298683017
 20
8.2885749641
 30
0.0
 10
9.1280385985
 20
8.2638689404
 30
0.0
 10
9.127633265
 20
8.2473287935
 30
0.0
 10
9.127633265
 20
8.2390462159
 30
0.0
  0
SPLINE
  5
38D
100
AcDbEntity
  8
0
100
AcDbSpline
 62
7
  6
CONTINUOUS
 70
0
 71
3
 72
91
 73
87
 74
0
 42
0.0000001
 43
0.0000001
 44
0.0000000001
 40
0.0
 40
0.0
 40
0.0
 40
0.0
 40
0.0039801824
 40
0.0081241125
 40
0.0124359604
 40
0.0169193082
 40
0.0215771808
 40
0.0264119179
 40
0.0314251804
 40
0.036618156
 40
0.0419915391
 40
0.0475456573
 40
0.0532804234
 40
0.0591954189
 40
0.0652899227
 40
0.0715629017
 40
0.0780131034
 40
0.0846389837
 40
0.0984102885
 40
0.1128608532
 40
0.1279713725
 40
0.1437199568
 40
0.1600824082
 40
0.1770324532
 40
0.1945419392
 40
0.2125810061
 40
0.2311182422
 40
0.2501208275
 40
0.2695546626
 40
0.2893844909
 40
0.3095740146
 40
0.330086005
 40
0.35088241
 40
0.3719244606
 40
0.3931727759
 40
0.4145874652
 40
0.4361282289
 40
0.4577544586
 40
0.4794253371
 40
0.501099938
 40
0.5227373261
 40
0.5442966575
 40
0.5657372785
 40
0.5870188258
 40
0.6081013261
 40
0.6289452975
 40
0.6495118524
 40
0.6697628021
 40
0.6896607608
 40
0.7091692527
 40
0.7282528228
 40
0.7468771515
 40
0.7650091753
 40
0.7826172172
 40
0.7996711268
 40
0.8161424293
 40
0.8320044948
 40
0.8472327309
 40
0.8618048077
 40
0.8757009255
 40
0.8889041429
 40
0.8952417292
 40
0.9014012652
 40
0.9073816417
 40
0.9131820083
 40
0.9188018518
 40
0.9242409423
 40
0.9294994633
 40
0.9345779585
 40
0.9394774438
 40
0.944199427
 40
0.9487459568
 40
0.95311974
 40
0.9573241405
 40
0.9613633601
 40
0.9652424499
 40
0.9689674846
 40
0.9725456466
 40
0.9759853437
 40
0.9824865016
 40
0.9855753543
 40
0.9885738189
 40
0.9914977372
 40
0.9943643366
 40
0.9971920099
 40
1.0
 40
1.0
 40
1.0
 40
1.0
 10
10.9957442221
 20
10.0672450455
 30
0.0
 10
10.9971207155
 20
10.0685746361
 30
0.0
 10
10.999992842
 20
10.0712244135
 30
0.0
 10
11.0045528957
 20
10.0750946129
 30
0.0
 10
11.009447811
 20
10.0789370509
 30
0.0
 10
11.0146749028
 20
10.0827496872
 30
0.0
 10
11.0202316225
 20
10.0865307415
 30
0.0
 10
11.0261152476
 20
10.0902783739
 30
0.0
 10
11.0323228352
 20
10.0939907879
 30
0.0
 10
11.0388513056
 20
10.0976660567
 30
0.0
 10
11.045697362
 20
10.1013024164
 30
0.0
 10
11.0528576011
 20
10.104897996
 30
0.0
 10
11.0603284226
 20
10.1084510272
 30
0.0
 10
11.0681060793
 20
10.1119597145
 30
0.0
 10
11.0761866665
 20
10.1154222697
 30
0.0
 10
11.084566106
 20
10.1188369821
 30
0.0
 10
11.0932402021
 20
10.122202096
 30
0.0
 10
11.1053487654
 20
10.1266781711
 30
0.0
 10
11.1211969873
 20
10.1321256412
 30
0.0
 10
11.1410810122
 20
10.1383572184
 30
0.0
 10
11.1620282873
 20
10.1443519721
 30
0.0
 10
11.1839965286
 20
10.1500977078
 30
0.0
 10
11.2069415489
 20
10.155582722
 30
0.0
 10
11.2308170766
 20
10.1607958409
 30
0.0
 10
11.2555749374
 20
10.1657264426
 30
0.0
 10
11.2811651363
 20
10.1703644853
 30
0.0
 10
11.3075359713
 20
10.1747005247
 30
0.0
 10
11.3346341438
 20
10.1787257331
 30
0.0
 10
11.3624048702
 20
10.182431917
 30
0.0
 10
11.3907919952
 20
10.1858115334
 30
0.0
 10
11.4197381073
 20
10.188857705
 30
0.0
 10
11.4491846556
 20
10.1915642332
 30
0.0
 10
11.4790720692
 20
10.1939256136
 30
0.0
 10
11.5093398793
 20
10.1959370454
 30
0.0
 10
11.5399268446
 20
10.1975944394
 30
0.0
 10
11.5707710752
 20
10.1988944258
 30
0.0
 10
11.6018101589
 20
10.1998343616
 30
0.0
 10
11.6329812874
 20
10.200412335
 30
0.0
 10
11.6642213831
 20
10.2006271696
 30
0.0
 10
11.6954672285
 20
10.2004784287
 30
0.0
 10
11.7266555941
 20
10.1999664165
 30
0.0
 10
11.7577233682
 20
10.1990921743
 30
0.0
 10
11.7886076839
 20
10.1978574798
 30
0.0
 10
11.8192460474
 20
10.1962648427
 30
0.0
 10
11.8495764637
 20
10.1943175005
 30
0.0
 10
11.8795375633
 20
10.1920194111
 30
0.0
 10
11.9090687286
 20
10.1893752477
 30
0.0
 10
11.9381102176
 20
10.1863903901
 30
0.0
 10
11.9666032857
 20
10.1830709109
 30
0.0
 10
11.994490305
 20
10.1794235644
 30
0.0
 10
12.0217148823
 20
10.1754557727
 30
0.0
 10
12.0482219744
 20
10.1711756119
 30
0.0
 10
12.0739580033
 20
10.1665917948
 30
0.0
 10
12.0988709696
 20
10.1617136551
 30
0.0
 10
12.1229105634
 20
10.1565511307
 30
0.0
 10
12.1460282689
 20
10.151114739
 30
0.0
 10
12.1681774749
 20
10.1454155546
 30
0.0
 10
12.1893135522
 20
10.1394651854
 30
0.0
 10
12.2093940491
 20
10.1332757424
 30
0.0
 10
12.2283784674
 20
10.1268598117
 30
0.0
 10
12.2434528176
 20
10.121261587
 30
0.0
 10
12.2549259524
 20
10.1166696659
 30
0.0
 10
12.2631157004
 20
10.1132242829
 30
0.0
 10
12.2710039785
 20
10.1097321826
 30
0.0
 10
12.2785868194
 20
10.1061950584
 30
0.0
 10
12.2858604294
 20
10.1026147552
 30
0.0
 10
12.2928211391
 20
10.0989930034
 30
0.0
 10
12.2994654834
 20
10.0953316797
 30
0.0
 10
12.3057901235
 20
10.0916325661
 30
0.0
 10
12.3117919083
 20
10.0878975205
 30
0.0
 10
12.3174678538
 20
10.0841283995
 30
0.0
 10
12.3228151126
 20
10.0803270119
 30
0.0
 10
12.3278310623
 20
10.0764952722
 30
0.0
 10
12.3325131641
 20
10.0726349472
 30
0.0
 10
12.3368591245
 20
10.0687479567
 30
0.0
 10
12.3408667523
 20
10.0648360323
 30
0.0
 10
12.3445339455
 20
10.060901144
 30
0.0
 10
12.3478591209
 20
10.0569446176
 30
0.0
 10
12.3517598658
 20
10.0517422417
 30
0.0
 10
12.3550722333
 20
10.0463996401
 30
0.0
 10
12.357702109
 20
10.0409429606
 30
0.0
 10
12.3592910682
 20
10.0369073389
 30
0.0
 10
12.3605284486
 20
10.0328618977
 30
0.0
 10
12.3614132357
 20
10.0288086023
 30
0.0
 10
12.3619444516
 20
10.0247503423
 30
0.0
 10
12.3620627114
 20
10.0220391066
 30
0.0
 10
12.3620627112
 20
10.0206889502
 30
0.0
  0
SPLINE
  5
38E
100
AcDbEntity
  8
0
100
AcDbSpline
 62
7
  6
CONTINUOUS
 70
0
 71
3
 72
29
 73
25
 74
0
 42
0.0000001
 43
0.0000001
 44
0.0000000001
 40
0.0
 40
0.0
 40
0.0
 40
0.0
 40
0.0755849261
 40
0.1466145423
 40
0.2134284043
 40
0.2764668694
 40
0.3362691012
 40
0.3651660615
 40
0.3935048179
 40
0.4213819954
 40
0.4488995596
 40
0.4761640064
 40
0.503285025
 40
0.5303741997
 40
0.5575435754
 40
0.5849040881
 40
0.6125642198
 40
0.6406286477
 40
0.6691970702
 40
0.7281928859
 40
0.7902532206
 40
0.8559467831
 40
0.9257384363
 40
1.0
 40
1.0
 40
1.0
 40
1.0
 10
12.9239872468
 20
7.674555408
 30
0.0
 10
12.9223140881
 20
7.6729392608
 30
0.0
 10
12.9189700547
 20
7.6699036678
 30
0.0
 10
12.9137948347
 20
7.6658483884
 30
0.0
 10
12.9086256059
 20
7.6624424678
 30
0.0
 10
12.9034676032
 20
7.6596912397
 30
0.0
 10
12.8991321342
 20
7.657928079
 30
0.0
 10
12.895688658
 20
7.656865055
 30
0.0
 10
12.8931425255
 20
7.6562425087
 30
0.0
 10
12.8906045389
 20
7.6557860449
 30
0.0
 10
12.8880753994
 20
7.6554958988
 30
0.0
 10
12.8855559332
 20
7.6553721916
 30
0.0
 10
12.88304695
 20
7.6554149929
 30
0.0
 10
12.8805492806
 20
7.6556243655
 30
0.0
 10
12.8780637545
 20
7.6560002079
 30
0.0
 10
12.8755911702
 20
7.6565423366
 30
0.0
 10
12.8731323394
 20
7.6572505518
 30
0.0
 10
12.8706879601
 20
7.6581246143
 30
0.0
 10
12.8674145256
 20
7.6595252698
 30
0.0
 10
12.8633490622
 20
7.6617107597
 30
0.0
 10
12.8585982189
 20
7.6649621819
 30
0.0
 10
12.8539256615
 20
7.6688650977
 30
0.0
 10
12.8493357003
 20
7.6734134787
 30
0.0
 10
12.8464266557
 20
7.6767647479
 30
0.0
 10
12.8449845748
 20
7.6785378708
 30
0.0
  0
SPLINE
  5
38F
100
AcDbEntity
  8
0
100
AcDbSpline
 62
7
  6
CONTINUOUS
 70
0
 71
3
 72
29
 73
25
 74
0
 42
0.0000001
 43
0.0000001
 44
0.0000000001
 40
0.0
 40
0.0
 40
0.0
 40
0.0
 40
0.0775482602
 40
0.1553168017
 40
0.2328083569
 40
0.3095495004
 40
0.3850755285
 40
0.4589270439
 40
0.5306388143
 40
0.5997317485
 40
0.6657056301
 40
0.6973615812
 40
0.7280399862
 40
0.7576727474
 40
0.7861918437
 40
0.81353072
 40
0.839626014
 40
0.8644200084
 40
0.88786419
 40
0.9099238344
 40
0.930583723
 40
0.9498551197
 40
0.9677863089
 40
1.0
 40
1.0
 40
1.0
 40
1.0
 10
9.6926177317
 20
8.064734943
 30
0.0
 10
9.6907908062
 20
8.0657253994
 30
0.0
 10
9.6871171071
 20
8.0676822076
 30
0.0
 10
9.681569731
 20
8.0705373181
 30
0.0
 10
9.6760018999
 20
8.0733041137
 30
0.0
 10
9.6704481056
 20
8.0759626601
 30
0.0
 10
9.6649412584
 20
8.0784916887
 30
0.0
 10
9.6595136203
 20
8.0808681613
 30
0.0
 10
9.6541975479
 20
8.083066927
 30
0.0
 10
9.6490265767
 20
8.0850602219
 30
0.0
 10
9.6448116182
 20
8.0865447446
 30
0.0
 10
9.6415379613
 20
8.0875969576
 30
0.0
 10
9.6391764785
 20
8.0883028646
 30
0.0
 10
9.6368803583
 20
8.0889318496
 30
0.0
 10
9.6346553873
 20
8.0894790809
 30
0.0
 10
9.6325076752
 20
8.0899397308
 30
0.0
 10
9.6304435942
 20
8.0903088687
 30
0.0
 10
9.6284697713
 20
8.0905817338
 30
0.0
 10
9.626593021
 20
8.0907535737
 30
0.0
 10
9.624820164
 20
8.0908200405
 30
0.0
 10
9.6231583402
 20
8.0907769982
 30
0.0
 10
9.621613389
 20
8.0906206479
 30
0.0
 10
9.6197859306
 20
8.0902703002
 30
0.0
 10
9.6185029085
 20
8.0898144453
 30
0.0
 10
9.6177417767
 20
8.0894071359
 30
0.0
  0
SPLINE
  5
390
100
AcDbEntity
  8
0
100
AcDbSpline
 62
7
  6
CONTINUOUS
 70
0
 71
3
 72
71
 73
67
 74
0
 42
0.0000001
 43
0.0000001
 44
0.0000000001
 40
0.0
 40
0.0
 40
0.0
 40
0.0
 40
0.0155842565
 40
0.0311159319
 40
0.0465952524
 40
0.0620238826
 40
0.0774034482
 40
0.0927362827
 40
0.1080251231
 40
0.1232731738
 40
0.1384840558
 40
0.1536617763
 40
0.1688106896
 40
0.1839354527
 40
0.199040978
 40
0.2141323822
 40
0.2292149324
 40
0.2442939901
 40
0.2593749544
 40
0.2744632041
 40
0.2895640403
 40
0.3046826298
 40
0.3198239504
 40
0.3349927394
 40
0.3501934439
 40
0.3654301774
 40
0.3807066784
 40
0.3960262752
 40
0.411391855
 40
0.4268058382
 40
0.4422701586
 40
0.4577862484
 40
0.4733550295
 40
0.4889769098
 40
0.5046517845
 40
0.5203790422
 40
0.5361575755
 40
0.5519857963
 40
0.5678616545
 40
0.5837826618
 40
0.5997459181
 40
0.6157481413
 40
0.6317856992
 40
0.6478546441
 40
0.6639507502
 40
0.6800695513
 40
0.6962063821
 40
0.7123564199
 40
0.7285147268
 40
0.7446762929
 40
0.76083608
 40
0.776989065
 40
0.7931302839
 40
0.8092548753
 40
0.8253581235
 40
0.8414355003
 40
0.8574827053
 40
0.8734957053
 40
0.889470771
 40
0.9054045131
 40
0.921293919
 40
0.9371363621
 40
0.9529297157
 40
0.968672092
 40
0.9843626215
 40
1.0
 40
1.0
 40
1.0
 40
1.0
 10
10.1418554427
 20
8.168709669
 30
0.0
 10
10.1418554427
 20
8.1604270914
 30
0.0
 10
10.1414501092
 20
8.1438869444
 30
0.0
 10
10.139620406
 20
8.1191809207
 30
0.0
 10
10.1365742056
 20
8.0946778545
 30
0.0
 10
10.1323189727
 20
8.0704377259
 30
0.0
 10
10.1268647684
 20
8.0465186212
 30
0.0
 10
10.1202247458
 20
8.0229783084
 30
0.0
 10
10.1124148188
 20
7.9998735116
 30
0.0
 10
10.1034537638
 20
7.9772599557
 30
0.0
 10
10.0933631378
 20
7.9551921742
 30
0.0
 10
10.0821672306
 20
7.9337233926
 30
0.0
 10
10.0698930022
 20
7.9129053972
 30
0.0
 10
10.0565700194
 20
7.8927884093
 30
0.0
 10
10.0422303851
 20
7.8734209629
 30
0.0
 10
10.0269086617
 20
7.854849786
 30
0.0
 10
10.0106417861
 20
7.8371196878
 30
0.0
 10
9.9934689915
 20
7.820273438
 30
0.0
 10
9.9754317032
 20
7.8043516674
 30
0.0
 10
9.9565734337
 20
7.7893927728
 30
0.0
 10
9.9369396778
 20
7.7754328221
 30
0.0
 10
9.9165778013
 20
7.7625054682
 30
0.0
 10
9.8955369255
 20
7.7506418662
 30
0.0
 10
9.8738678066
 20
7.7398706018
 30
0.0
 10
9.8516227176
 20
7.7302176087
 30
0.0
 10
9.8288553165
 20
7.7217061126
 30
0.0
 10
9.8056205118
 20
7.7143565827
 30
0.0
 10
9.7819743304
 20
7.7081866818
 30
0.0
 10
9.7579737819
 20
7.7032112263
 30
0.0
 10
9.7336767205
 20
7.6994421513
 30
0.0
 10
9.7091417063
 20
7.6968884856
 30
0.0
 10
9.6844278649
 20
7.69555632
 30
0.0
 10
9.6595947431
 20
7.6954487952
 30
0.0
 10
9.6347021647
 20
7.6965661066
 30
0.0
 10
9.6098100872
 20
7.6989055021
 30
0.0
 10
9.5849784591
 20
7.702461291
 30
0.0
 10
9.5602670759
 20
7.707224858
 30
0.0
 10
9.5357354388
 20
7.7131846867
 30
0.0
 10
9.5114426095
 20
7.7203263785
 30
0.0
 10
9.4874470677
 20
7.7286326865
 30
0.0
 10
9.4638065731
 20
7.7380835688
 30
0.0
 10
9.4405780271
 20
7.748656235
 30
0.0
 10
9.417817338
 20
7.7603252012
 30
0.0
 10
9.395579287
 20
7.7730623511
 30
0.0
 10
9.3739173985
 20
7.7868370047
 30
0.0
 10
9.352883809
 20
7.8016159856
 30
0.0
 10
9.3325291371
 20
7.8173636968
 30
0.0
 10
9.3129023699
 20
7.8340422179
 30
0.0
 10
9.2940507446
 20
7.8516113932
 30
0.0
 10
9.276019636
 20
7.8700289287
 30
0.0
 10
9.2588524484
 20
7.8892504927
 30
0.0
 10
9.2425905123
 20
7.9092298222
 30
0.0
 10
9.2272729823
 20
7.9299188308
 30
0.0
 10
9.212936735
 20
7.951267719
 30
0.0
 10
9.1996162912
 20
7.9732251032
 30
0.0
 10
9.1873437325
 20
7.9957381367
 30
0.0
 10
9.1761486246
 20
8.0187526363
 30
0.0
 10
9.1660579463
 20
8.0422132116
 30
0.0
 10
9.1570960263
 20
8.0660633961
 30
0.0
 10
9.1492844781
 20
8.090245785
 30
0.0
 10
9.1426421526
 20
8.1147021559
 30
0.0
 10
9.137185053
 20
8.1393736661
 30
0.0
 10
9.1329264336
 20
8.1642008062
 30
0.0
 10
9.1298764709
 20
8.1891241409
 30
0.0
 10
9.1280427469
 20
8.2140827062
 30
0.0
 10
9.127633265
 20
8.2307354055
 30
0.0
 10
9.127633265
 20
8.2390462159
 30
0.0
  0
SPLINE
  5
391
100
AcDbEntity
  8
0
100
AcDbSpline
 62
7
  6
CONTINUOUS
 70
0
 71
3
 72
18
 73
14
 74
0
 42
0.0000001
 43
0.0000001
 44
0.0000000001
 40
0.0
 40
0.0
 40
0.0
 40
0.0
 40
0.0548620589
 40
0.1099280789
 40
0.165399508
 40
0.2214731255
 40
0.2783387361
 40
0.3361775086
 40
0.4554063416
 40
0.5804417492
 40
0.7123343341
 40
0.8519577333
 40
1.0
 40
1.0
 40
1.0
 40
1.0
 10
10.9720627112
 20
10.0206889501
 30
0.0
 10
10.9720627113
 20
10.021670484
 30
0.0
 10
10.9721250202
 20
10.0236377646
 30
0.0
 10
10.9724051387
 20
10.0265854847
 30
0.0
 10
10.9728718433
 20
10.0295315061
 30
0.0
 10
10.9735249802
 20
10.032474753
 30
0.0
 10
10.9743642962
 20
10.0354144822
 30
0.0
 10
10.9757447832
 20
10.0393676299
 30
0.0
 10
10.9779562999
 20
10.0443119592
 30
0.0
 10
10.9813223661
 20
10.0501512309
 30
0.0
 10
10.9854220524
 20
10.0559527067
 30
0.0
 10
10.9902491214
 20
10.0617105636
 30
0.0
 10
10.9938391932
 20
10.0654049288
 30
0.0
 10
10.9957442221
 20
10.0672450455
 30
0.0
  0
SPLINE
  5
392
100
AcDbEntity
  8
0
100
AcDbSpline
 62
7
  6
CONTINUOUS
 70
0
 71
3
 72
15
 73
11
 74
0
 42
0.0000001
 43
0.0000001
 44
0.0000000001
 40
0.0
 40
0.0
 40
0.0
 40
0.0
 40
0.1095484765
 40
0.2218880003
 40
0.3379558225
 40
0.4585900869
 40
0.5845263153
 40
0.7164000087
 40
0.8547481102
 40
1.0
 40
1.0
 40
1.0
 40
1.0
 10
10.9727503005
 20
10.0132335807
 30
0.0
 10
10.97303277
 20
10.0148759356
 30
0.0
 10
10.9737774242
 20
10.0181750777
 30
0.0
 10
10.9753981974
 20
10.0230617326
 30
0.0
 10
10.9775314604
 20
10.0279318691
 30
0.0
 10
10.9801741681
 20
10.0327812984
 30
0.0
 10
10.9833235845
 20
10.0376069707
 30
0.0
 10
10.9869767417
 20
10.042405961
 30
0.0
 10
10.9911303775
 20
10.0471749573
 30
0.0
 10
10.9941549609
 20
10.0502551221
 30
0.0
 10
10.9957442221
 20
10.0517902306
 30
0.0
  0
SPLINE
  5
393
100
AcDbEntity
  8
0
100
AcDbSpline
 62
7
  6
CONTINUOUS
 70
0
 71
3
 72
95
 73
91
 74
0
 42
0.0000001
 43
0.0000001
 44
0.0000000001
 40
0.0
 40
0.0
 40
0.0
 40
0.0
 40
0.0040125626
 40
0.0078523424
 40
0.0115286395
 40
0.0150528985
 40
0.0184386962
 40
0.021701614
 40
0.0248592961
 40
0.0279314399
 40
0.0309396944
 40
0.0339072471
 40
0.0368583502
 40
0.039817692
 40
0.0428097423
 40
0.0458580989
 40
0.0489849711
 40
0.0522107404
 40
0.0555537819
 40
0.0590303214
 40
0.0626545007
 40
0.0664384806
 40
0.0703925595
 40
0.0745254264
 40
0.0788442327
 40
0.0833548802
 40
0.0880620737
 40
0.0929695289
 40
0.0980800766
 40
0.1033957307
 40
0.1089178668
 40
0.1146471773
 40
0.1205838714
 40
0.1267276144
 40
0.1330776554
 40
0.139632843
 40
0.1533516573
 40
0.1678685958
 40
0.1831629892
 40
0.1992102196
 40
0.2159822107
 40
0.2334478203
 40
0.2515731708
 40
0.2703219317
 40
0.2896555632
 40
0.3095335328
 40
0.3299135134
 40
0.3507515671
 40
0.3720023166
 40
0.3936191133
 40
0.4155542006
 40
0.4377588702
 40
0.4601836162
 40
0.4827782857
 40
0.5054922295
 40
0.5282744503
 40
0.5510737534
 40
0.5738388952
 40
0.5965187316
 40
0.6190623659
 40
0.6414192971
 40
0.6635395693
 40
0.6853739238
 40
0.7068739529
 40
0.7279922542
 40
0.7486825874
 40
0.7689000366
 40
0.7886011786
 40
0.8077442597
 40
0.8262893863
 40
0.844198732
 40
0.8614367594
 40
0.8779704737
 40
0.8937697153
 40
0.9088075088
 40
0.9230604872
 40
0.9298867427
 40
0.9365099852
 40
0.9429285493
 40
0.9491411613
 40
0.9551469249
 40
0.9609453584
 40
0.9665365059
 40
0.9719208727
 40
0.9770995984
 40
0.9820744277
 40
0.9868479844
 40
0.9914237863
 40
0.9958060995
 40
1.0
 40
1.0
 40
1.0
 40
1.0
 10
12.1741738
 20
9.9700658618
 30
0.0
 10
12.1752610606
 20
9.971116075
 30
0.0
 10
12.1773399874
 20
9.9732227285
 30
0.0
 10
12.180222445
 20
9.9764744192
 30
0.0
 10
12.1827965361
 20
9.9797447047
 30
0.0
 10
12.1850603627
 20
9.983031658
 30
0.0
 10
12.1870123757
 20
9.9863335896
 30
0.0
 10
12.1886510249
 20
9.9896487762
 30
0.0
 10
12.1899749222
 20
9.992975301
 30
0.0
 10
12.1909825548
 20
9.9963111494
 30
0.0
 10
12.1916728622
 20
9.9996539994
 30
0.0
 10
12.1920448274
 20
10.003001384
 30
0.0
 10
12.1920979867
 20
10.006350607
 30
0.0
 10
12.1918322484
 20
10.0096989113
 30
0.0
 10
12.1912479493
 20
10.013043559
 30
0.0
 10
12.1903459866
 20
10.0163820071
 30
0.0
 10
12.1891273443
 20
10.0197118673
 30
0.0
 10
12.1875934685
 20
10.0230310665
 30
0.0
 10
12.1857456991
 20
10.0263376211
 30
0.0
 10
12.1835856278
 20
10.0296297578
 30
0.0
 10
12.1811148304
 20
10.0329057349
 30
0.0
 10
12.1783349622
 20
10.0361638198
 30
0.0
 10
12.1752478489
 20
10.0394023574
 30
0.0
 10
12.1718553211
 20
10.0426195451
 30
0.0
 10
12.1681594829
 20
10.0458137164
 30
0.0
 10
12.164162474
 20
10.0489830296
 30
0.0
 10
12.1598666886
 20
10.0521257467
 30
0.0
 10
12.1552746468
 20
10.0552400542
 30
0.0
 10
12.1503890516
 20
10.0583241315
 30
0.0
 10
12.1452128114
 20
10.0613762243
 30
0.0
 10
12.1397489641
 20
10.0643944676
 30
0.0
 10
12.134000783
 20
10.067377147
 30
0.0
 10
12.1279716634
 20
10.0703224248
 30
0.0
 10
12.1216652172
 20
10.0732285793
 30
0.0
 10
12.1150851937
 20
10.0760938832
 30
0.0
 10
12.1058111518
 20
10.0799155439
 30
0.0
 10
12.0935538615
 20
10.0845657784
 30
0.0
 10
12.0780353704
 20
10.0898751258
 30
0.0
 10
12.0615287772
 20
10.0949820976
 30
0.0
 10
12.0440736409
 20
10.0998743262
 30
0.0
 10
12.0257116255
 20
10.1045399464
 30
0.0
 10
12.00648673
 20
10.108967637
 30
0.0
 10
11.9864450642
 20
10.1131466529
 30
0.0
 10
11.965634751
 20
10.1170668522
 30
0.0
 10
11.9441057929
 20
10.1207187228
 30
0.0
 10
11.9219099467
 20
10.1240934055
 30
0.0
 10
11.8991005939
 20
10.1271827157
 30
0.0
 10
11.8757326093
 20
10.1299791617
 30
0.0
 10
11.8518622267
 20
10.132475966
 30
0.0
 10
11.8275469
 20
10.1346670801
 30
0.0
 10
11.8028451617
 20
10.1365471965
 30
0.0
 10
11.7778164796
 20
10.1381117616
 30
0.0
 10
11.7525211129
 20
10.1393569862
 30
0.0
 10
11.7270199664
 20
10.1402798542
 30
0.0
 10
11.7013744438
 20
10.1408781294
 30
0.0
 10
11.6756462988
 20
10.141150363
 30
0.0
 10
11.649897485
 20
10.1410958979
 30
0.0
 10
11.6241900052
 20
10.1407148668
 30
0.0
 10
11.5985857621
 20
10.1400081924
 30
0.0
 10
11.5731464084
 20
10.1389775855
 30
0.0
 10
11.5479331986
 20
10.1376255407
 30
0.0
 10
11.5230068404
 20
10.1359553306
 30
0.0
 10
11.4984273466
 20
10.1339709995
 30
0.0
 10
11.4742538885
 20
10.131677356
 30
0.0
 10
11.4505446525
 20
10.129079958
 30
0.0
 10
11.4273566991
 20
10.1261851001
 30
0.0
 10
11.4047458238
 20
10.1229997992
 30
0.0
 10
11.3827664211
 20
10.1195317779
 30
0.0
 10
11.3614713491
 20
10.115789446
 30
0.0
 10
11.340911796
 20
10.1117818814
 30
0.0
 10
11.3211371507
 20
10.1075188113
 30
0.0
 10
11.3021948711
 20
10.1030105835
 30
0.0
 10
11.2841303862
 20
10.0982681395
 30
0.0
 10
11.266986885
 20
10.0933029883
 30
0.0
 10
11.2508055039
 20
10.088127156
 30
0.0
 10
11.237976545
 20
10.0835859111
 30
0.0
 10
11.2282321894
 20
10.0798476497
 30
0.0
 10
11.2212935572
 20
10.077039528
 30
0.0
 10
11.2146232224
 20
10.0741882513
 30
0.0
 10
11.2082251627
 20
10.0712955245
 30
0.0
 10
11.2021031981
 20
10.0683630966
 30
0.0
 10
11.1962609897
 20
10.065392681
 30
0.0
 10
11.1907019919
 20
10.0623861021
 30
0.0
 10
11.1854295414
 20
10.0593450721
 30
0.0
 10
11.1804467464
 20
10.0562714742
 30
0.0
 10
11.1757565662
 20
10.0531670564
 30
0.0
 10
11.1713617292
 20
10.0500336129
 30
0.0
 10
11.1672647773
 20
10.0468728752
 30
0.0
 10
11.1634683756
 20
10.0436868265
 30
0.0
 10
11.161088019
 20
10.0415000837
 30
0.0
 10
11.1599516223
 20
10.0404024087
 30
0.0
  0
SPLINE
  5
394
100
AcDbEntity
  8
0
100
AcDbSpline
 62
7
  6
CONTINUOUS
 70
0
 71
3
 72
28
 73
24
 74
0
 42
0.0000001
 43
0.0000001
 44
0.0000000001
 40
0.0
 40
0.0
 40
0.0
 40
0.0
 40
0.0749520608
 40
0.1455485262
 40
0.2121308283
 40
0.275125475
 40
0.3350523044
 40
0.3925296037
 40
0.420581609
 40
0.4482948902
 40
0.4757698527
 40
0.5031098256
 40
0.5304198497
 40
0.557805299
 40
0.5853706474
 40
0.6132181373
 40
0.6414466038
 40
0.6701506388
 40
0.7293149641
 40
0.7913805549
 40
0.8568964844
 40
0.9263177729
 40
1.0
 40
1.0
 40
1.0
 40
1.0
 10
11.1612600143
 20
9.968825565
 30
0.0
 10
11.1597440244
 20
9.9702363591
 30
0.0
 10
11.1568842143
 20
9.973068767
 30
0.0
 10
11.1530253936
 20
9.9774876723
 30
0.0
 10
11.1497349117
 20
9.9819416033
 30
0.0
 10
11.1470174985
 20
9.9864267267
 30
0.0
 10
11.1448779327
 20
9.9909386523
 30
0.0
 10
11.143569632
 20
9.9947492377
 30
0.0
 10
11.1428267513
 20
9.9977903317
 30
0.0
 10
11.1424197815
 20
10.0000554967
 30
0.0
 10
11.1421589208
 20
10.0023222751
 30
0.0
 10
11.1420442804
 20
10.0045900155
 30
0.0
 10
11.1420758732
 20
10.0068579588
 30
0.0
 10
11.1422536762
 20
10.0091253764
 30
0.0
 10
11.1425776612
 20
10.0113915352
 30
0.0
 10
11.1430476487
 20
10.0136557023
 30
0.0
 10
11.1436634471
 20
10.0159172513
 30
0.0
 10
11.1446886976
 20
10.0189583617
 30
0.0
 10
11.1463509789
 20
10.0227629112
 30
0.0
 10
11.1489046379
 20
10.0272557896
 30
0.0
 10
11.1520328996
 20
10.0317191155
 30
0.0
 10
11.155730772
 20
10.0361482266
 30
0.0
 10
11.1584873636
 20
10.0389880433
 30
0.0
 10
11.1599516223
 20
10.0404024087
 30
0.0
  0
SPLINE
  5
395
100
AcDbEntity
  8
0
100
AcDbSpline
 62
7
  6
CONTINUOUS
 70
0
 71
3
 72
18
 73
14
 74
0
 42
0.0000001
 43
0.0000001
 44
0.0000000001
 40
0.0
 40
0.0
 40
0.0
 40
0.0
 40
0.0548626421
 40
0.1099292106
 40
0.1654012798
 40
0.2214755109
 40
0.3361334555
 40
0.4553634493
 40
0.5171048472
 40
0.5804364722
 40
0.7123312612
 40
0.8519581829
 40
1.0
 40
1.0
 40
1.0
 40
1.0
 10
11.1870627263
 20
9.9617674705
 30
0.0
 10
11.1870627264
 20
9.9624453642
 30
0.0
 10
11.1871057442
 20
9.9638040628
 30
0.0
 10
11.1872991871
 20
9.9658398902
 30
0.0
 10
11.1876215695
 20
9.9678745836
 30
0.0
 10
11.1882273212
 20
9.9706046944
 30
0.0
 10
11.189318627
 20
9.9740264581
 30
0.0
 10
11.1908132537
 20
9.9773674454
 30
0.0
 10
11.1922514379
 20
9.9800226167
 30
0.0
 10
11.193898224
 20
9.9827386402
 30
0.0
 10
11.1962893904
 20
9.9861224365
 30
0.0
 10
11.1996231166
 20
9.9900989141
 30
0.0
 10
11.2021026021
 20
9.9926504664
 30
0.0
 10
11.2034182871
 20
9.9939213205
 30
0.0
  0
SPLINE
  5
396
100
AcDbEntity
  8
0
100
AcDbSpline
 62
7
  6
CONTINUOUS
 70
0
 71
3
 72
23
 73
19
 74
0
 42
0.0000001
 43
0.0000001
 44
0.0000000001
 40
0.0
 40
0.0
 40
0.0
 40
0.0
 40
0.063777379
 40
0.1273447372
 40
0.1907019931
 40
0.2538561345
 40
0.3168131769
 40
0.3795820929
 40
0.4421733849
 40
0.5045993366
 40
0.5668738654
 40
0.6290123812
 40
0.6910316548
 40
0.7529496517
 40
0.8147853612
 40
0.8765586089
 40
0.9382898579
 40
1.0
 40
1.0
 40
1.0
 40
1.0
 10
11.7411513078
 20
7.4507731768
 30
0.0
 10
11.7411513078
 20
7.4575618312
 30
0.0
 10
11.7414762278
 20
7.4711190856
 30
0.0
 10
11.7429428137
 20
7.4913725192
 30
0.0
 10
11.7453846483
 20
7.5114653727
 30
0.0
 10
11.7487959561
 20
7.5313505596
 30
0.0
 10
11.7531690568
 20
7.5509825512
 30
0.0
 10
11.7584938603
 20
7.5703159871
 30
0.0
 10
11.7647581642
 20
7.5893063173
 30
0.0
 10
11.7719475509
 20
7.6079097478
 30
0.0
 10
11.780045479
 20
7.6260833777
 30
0.0
 10
11.7890333124
 20
7.6437852901
 30
0.0
 10
11.7988903563
 20
7.660974647
 30
0.0
 10
11.8095939243
 20
7.6776117956
 30
0.0
 10
11.8211193145
 20
7.6936583173
 30
0.0
 10
11.8334400814
 20
7.7090773267
 30
0.0
 10
11.8465273319
 20
7.7238327674
 30
0.0
 10
11.8557447638
 20
7.7332063958
 30
0.0
 10
11.86046926
 20
7.7377699244
 30
0.0
  0
SPLINE
  5
397
100
AcDbEntity
  8
0
100
AcDbSpline
 62
7
  6
CONTINUOUS
 70
0
 71
3
 72
11
 73
7
 74
0
 42
0.0000001
 43
0.0000001
 44
0.0000000001
 40
0.0
 40
0.0
 40
0.0
 40
0.0
 40
0.2501739798
 40
0.5002396178
 40
0.7501819389
 40
1.0
 40
1.0
 40
1.0
 40
1.0
 10
9.6177417767
 20
8.0894071359
 30
0.0
 10
9.6171011271
 20
8.0852811545
 30
0.0
 10
9.615991414
 20
8.0770034946
 30
0.0
 10
9.6148131008
 20
8.0645355562
 30
0.0
 10
9.6141053763
 20
8.0520381247
 30
0.0
 10
9.6139438022
 20
8.0436963643
 30
0.0
 10
9.6139415374
 20
8.0395268826
 30
0.0
  0
SPLINE
  5
398
100
AcDbEntity
  8
0
100
AcDbSpline
 62
7
  6
CONTINUOUS
 70
0
 71
3
 72
62
 73
58
 74
0
 42
0.0000001
 43
0.0000001
 44
0.0000000001
 40
0.0
 40
0.0
 40
0.0
 40
0.0
 40
0.0155852136
 40
0.0311184428
 40
0.046598836
 40
0.0620286601
 40
0.0774094361
 40
0.0927434397
 40
0.1080334652
 40
0.1232826936
 40
0.1384947494
 40
0.1536736418
 40
0.1688237258
 40
0.1839496577
 40
0.1990563489
 40
0.2141489177
 40
0.2292326329
 40
0.2443128555
 40
0.259394984
 40
0.2744843987
 40
0.2895864018
 40
0.3047061596
 40
0.3198486488
 40
0.3350186082
 40
0.350220487
 40
0.3654583977
 40
0.3807360779
 40
0.3960568575
 40
0.4114236251
 40
0.4268387991
 40
0.4423043124
 40
0.4578215997
 40
0.4733915842
 40
0.4890146711
 40
0.5046907556
 40
0.5204192283
 40
0.5361989812
 40
0.5520284236
 40
0.5679055065
 40
0.5838277438
 40
0.6157869302
 40
0.6478872654
 40
0.6800960991
 40
0.7123769587
 40
0.7446908504
 40
0.7769976352
 40
0.8092574168
 40
0.8414319401
 40
0.8734859356
 40
0.889462235
 40
0.9053972109
 40
0.9212878296
 40
0.9371315206
 40
0.9529260956
 40
0.9686695633
 40
0.9843616592
 40
1.0
 40
1.0
 40
1.0
 40
1.0
 10
12.4262701572
 20
7.4075472067
 30
0.0
 10
12.4262701572
 20
7.4033665432
 30
0.0
 10
12.4260655325
 20
7.3950176795
 30
0.0
 10
12.4251420103
 20
7.3825470209
 30
0.0
 10
12.4236043809
 20
7.370178746
 30
0.0
 10
12.4214565196
 20
7.3579432763
 30
0.0
 10
12.4187034334
 20
7.3458698229
 30
0.0
 10
12.4153517893
 20
7.3339875709
 30
0.0
 10
12.4114096516
 20
7.3223251476
 30
0.0
 10
12.4068864537
 20
7.3109106843
 30
0.0
 10
12.4017930794
 20
7.2997717142
 30
0.0
 10
12.3961418161
 20
7.2889350896
 30
0.0
 10
12.3899462674
 20
7.2784269498
 30
0.0
 10
12.3832213256
 20
7.2682726651
 30
0.0
 10
12.3759832121
 20
7.2584967257
 30
0.0
 10
12.3682493928
 20
7.2491227018
 30
0.0
 10
12.360038506
 20
7.2401732125
 30
0.0
 10
12.3513703265
 20
7.2316698741
 30
0.0
 10
12.3422657872
 20
7.2236331754
 30
0.0
 10
12.3327468583
 20
7.2160824867
 30
0.0
 10
12.3228364909
 20
7.209036028
 30
0.0
 10
12.3125585806
 20
7.2025108085
 30
0.0
 10
12.3019379454
 20
7.1965225207
 30
0.0
 10
12.2910002069
 20
7.1910855837
 30
0.0
 10
12.2797717358
 20
7.1862131145
 30
0.0
 10
12.2682796145
 20
7.1819168476
 30
0.0
 10
12.2565515713
 20
7.1782070836
 30
0.0
 10
12.2446158833
 20
7.1750927386
 30
0.0
 10
12.2325013185
 20
7.172581326
 30
0.0
 10
12.2202370852
 20
7.1706788566
 30
0.0
 10
12.2078527463
 20
7.1693898584
 30
0.0
 10
12.195378142
 20
7.1687174133
 30
0.0
 10
12.1828433277
 20
7.1686631476
 30
0.0
 10
12.1702785032
 20
7.1692271316
 30
0.0
 10
12.1577139295
 20
7.1704079619
 30
0.0
 10
12.1451798718
 20
7.1722027784
 30
0.0
 10
12.1327064959
 20
7.1746072707
 30
0.0
 10
12.1203239157
 20
7.177615544
 30
0.0
 10
12.1080616155
 20
7.1812204792
 30
0.0
 10
12.091894621
 20
7.1868167083
 30
0.0
 10
12.0721347847
 20
7.195262315
 30
0.0
 10
12.0494050514
 20
7.2075945257
 30
0.0
 10
12.0278383933
 20
7.2220207407
 30
0.0
 10
12.0076431288
 20
7.2384016543
 30
0.0
 10
11.9890126345
 20
7.2565800581
 30
0.0
 10
11.9721258544
 20
7.2763812697
 30
0.0
 10
11.9571447874
 20
7.2976156572
 30
0.0
 10
11.9442139864
 20
7.3200780849
 30
0.0
 10
11.9352383036
 20
7.3396683354
 30
0.0
 10
11.9292011984
 20
7.3557351227
 30
0.0
 10
11.9252581411
 20
7.3679416712
 30
0.0
 10
11.9219053619
 20
7.3802862623
 30
0.0
 10
11.9191508072
 20
7.3927395159
 30
0.0
 10
11.9170012382
 20
7.4052712826
 30
0.0
 10
11.9154617094
 20
7.4178516936
 30
0.0
 10
11.9145361575
 20
7.4304498251
 30
0.0
 10
11.914329439
 20
7.4388555014
 30
0.0
 10
11.914329439
 20
7.4430504161
 30
0.0
  0
SPLINE
  5
399
100
AcDbEntity
  8
0
100
AcDbSpline
 62
7
  6
CONTINUOUS
 70
0
 71
3
 72
88
 73
84
 74
0
 42
0.0000001
 43
0.0000001
 44
0.0000000001
 40
0.0
 40
0.0
 40
0.0
 40
0.0
 40
0.0028317
 40
0.0057159521
 40
0.0086695861
 40
0.0117081678
 40
0.0148458188
 40
0.0180951984
 40
0.0214674989
 40
0.0249724912
 40
0.0286186645
 40
0.0324132599
 40
0.0363624631
 40
0.0404714522
 40
0.0447445308
 40
0.049185241
 40
0.0537963886
 40
0.0585802092
 40
0.0635383399
 40
0.0686719526
 40
0.073981772
 40
0.0794681015
 40
0.0851309262
 40
0.0909698515
 40
0.0969842299
 40
0.1031731119
 40
0.1160689768
 40
0.1296456795
 40
0.1438877535
 40
0.1587769189
 40
0.1742924054
 40
0.1904112125
 40
0.2071083377
 40
0.2243569683
 40
0.2421286471
 40
0.2603934192
 40
0.2791199641
 40
0.2982757151
 40
0.3178269804
 40
0.3377390538
 40
0.3579763201
 40
0.3785023556
 40
0.3992800267
 40
0.4202715858
 40
0.4414387702
 40
0.4627428982
 40
0.5056050097
 40
0.548544342
 40
0.5699448196
 40
0.5912465732
 40
0.6124106006
 40
0.6333982267
 40
0.6541711976
 40
0.6746917791
 40
0.6949228515
 40
0.7148280061
 40
0.7343716437
 40
0.7535190764
 40
0.772236633
 40
0.790491775
 40
0.8082532084
 40
0.8254910061
 40
0.8421767407
 40
0.8582836328
 40
0.8737867176
 40
0.8886630425
 40
0.9028918849
 40
0.9164550168
 40
0.9293370295
 40
0.9355188958
 40
0.9415262264
 40
0.9473580654
 40
0.9530137819
 40
0.9584929999
 40
0.9637957034
 40
0.9689222406
 40
0.9738733277
 40
0.9786501502
 40
0.9832543464
 40
0.9876882277
 40
0.9919547315
 40
0.9960573136
 40
1.0
 40
1.0
 40
1.0
 40
1.0
 10
12.361481349
 20
10.012589968
 30
0.0
 10
12.3612697794
 20
10.0139279334
 30
0.0
 10
12.3607283616
 20
10.0166118877
 30
0.0
 10
12.3595792938
 20
10.0206010904
 30
0.0
 10
12.3580884393
 20
10.0245813981
 30
0.0
 10
12.3562569353
 20
10.0285503459
 30
0.0
 10
12.3540861743
 20
10.0325061795
 30
0.0
 10
12.3515775227
 20
10.0364470445
 30
0.0
 10
12.3487324607
 20
10.0403711902
 30
0.0
 10
12.345552609
 20
10.0442769402
 30
0.0
 10
12.3420395645
 20
10.0481625127
 30
0.0
 10
12.338195181
 20
10.0520262621
 30
0.0
 10
12.3340213078
 20
10.0558663955
 30
0.0
 10
12.3295200126
 20
10.0596811948
 30
0.0
 10
12.3246934821
 20
10.0634689106
 30
0.0
 10
12.3195440249
 20
10.0672277292
 30
0.0
 10
12.3140741685
 20
10.0709559456
 30
0.0
 10
12.3082865192
 20
10.0746517132
 30
0.0
 10
12.3021839097
 20
10.0783133176
 30
0.0
 10
12.2957692856
 20
10.0819389663
 30
0.0
 10
12.2890457617
 20
10.0855268944
 30
0.0
 10
12.2820166231
 20
10.0890753976
 30
0.0
 10
12.2746852735
 20
10.092582686
 30
0.0
 10
12.2670553137
 20
10.0960471025
 30
0.0
 10
12.2591304445
 20
10.0994669284
 30
0.0
 10
12.2480232121
 20
10.1040276175
 30
0.0
 10
12.2334206992
 20
10.1095928805
 30
0.0
 10
12.2150182029
 20
10.1159789276
 30
0.0
 10
12.1955395328
 20
10.1221484736
 30
0.0
 10
12.1750228514
 20
10.12808933
 30
0.0
 10
12.1535081814
 20
10.1337897477
 30
0.0
 10
12.1310376419
 20
10.1392384502
 30
0.0
 10
12.1076552559
 20
10.1444246547
 30
0.0
 10
12.0834068773
 20
10.1493380964
 30
0.0
 10
12.0583400859
 20
10.1539690505
 30
0.0
 10
12.0325040916
 20
10.1583083517
 30
0.0
 10
12.0059496355
 20
10.1623474118
 30
0.0
 10
11.978728889
 20
10.1660782447
 30
0.0
 10
11.9508953452
 20
10.169493474
 30
0.0
 10
11.9225037097
 20
10.172586348
 30
0.0
 10
11.8936097909
 20
10.1753507523
 30
0.0
 10
11.8642703912
 20
10.1777812214
 30
0.0
 10
11.8345431914
 20
10.1798729513
 30
0.0
 10
11.8044866551
 20
10.181621804
 30
0.0
 10
11.7741598402
 20
10.1830243548
 30
0.0
 10
11.7333626948
 20
10.1844316354
 30
0.0
 10
11.6821296318
 20
10.1853059045
 30
0.0
 10
11.6308439349
 20
10.1850067632
 30
0.0
 10
11.5898860766
 20
10.1840600292
 30
0.0
 10
11.5593523039
 20
10.1829995196
 30
0.0
 10
11.5290303814
 20
10.1815899855
 30
0.0
 10
11.4989798898
 20
10.1798341825
 30
0.0
 10
11.4692599318
 20
10.1777355839
 30
0.0
 10
11.4399289404
 20
10.1752983369
 30
0.0
 10
11.4110445827
 20
10.1725272601
 30
0.0
 10
11.3826636416
 20
10.1694278309
 30
0.0
 10
11.3548419062
 20
10.1660061757
 30
0.0
 10
11.3276340601
 20
10.162269058
 30
0.0
 10
11.3010935704
 20
10.1582238652
 30
0.0
 10
11.275272578
 20
10.1538786013
 30
0.0
 10
11.2502217928
 20
10.1492418649
 30
0.0
 10
11.225990394
 20
10.1443228317
 30
0.0
 10
11.2026259299
 20
10.1391312368
 30
0.0
 10
11.1801742209
 20
10.1336773549
 30
0.0
 10
11.158679251
 20
10.1279719771
 30
0.0
 10
11.1381830956
 20
10.1220263957
 30
0.0
 10
11.1187257334
 20
10.115852368
 30
0.0
 10
11.1003452877
 20
10.1094620864
 30
0.0
 10
11.0857617139
 20
10.1038933702
 30
0.0
 10
11.0746700137
 20
10.0993300139
 30
0.0
 10
11.06675695
 20
10.0959083675
 30
0.0
 10
11.0591389522
 20
10.092442186
 30
0.0
 10
11.0518197141
 20
10.0889331997
 30
0.0
 10
11.0448028213
 20
10.0853830877
 30
0.0
 10
11.0380916858
 20
10.0817935914
 30
0.0
 10
11.0316895626
 20
10.078166471
 30
0.0
 10
11.0255995915
 20
10.0745034374
 30
0.0
 10
11.0198247064
 20
10.0708063429
 30
0.0
 10
11.0143677209
 20
10.0670768875
 30
0.0
 10
11.0092312174
 20
10.0633168519
 30
0.0
 10
11.0044176466
 20
10.0595279282
 30
0.0
 10
10.9999295778
 20
10.0557120992
 30
0.0
 10
10.9971007708
 20
10.0531005561
 30
0.0
 10
10.9957442221
 20
10.0517902306
 30
0.0
  0
SPLINE
  5
39A
100
AcDbEntity
  8
0
100
AcDbSpline
 62
7
  6
CONTINUOUS
 70
0
 71
3
 72
82
 73
78
 74
0
 42
0.0000001
 43
0.0000001
 44
0.0000000001
 40
0.0
 40
0.0
 40
0.0
 40
0.0
 40
0.0028079979
 40
0.0056356814
 40
0.008502289
 40
0.0114262126
 40
0.0144246917
 40
0.0175135474
 40
0.0207071092
 40
0.0240181354
 40
0.0274578391
 40
0.0310360161
 40
0.0347610594
 40
0.0386401597
 40
0.0426793942
 40
0.0468838043
 40
0.0512575997
 40
0.0558041486
 40
0.060526135
 40
0.0654256448
 40
0.0705041496
 40
0.0757626839
 40
0.0812018009
 40
0.0868216445
 40
0.0986018561
 40
0.1110985431
 40
0.1243017986
 40
0.1381979493
 40
0.1527700668
 40
0.1679983513
 40
0.1838604634
 40
0.2003318103
 40
0.217385769
 40
0.2349938686
 40
0.2531259472
 40
0.2717503255
 40
0.2908339458
 40
0.3103424963
 40
0.330240517
 40
0.3504915263
 40
0.3710581391
 40
0.3919021705
 40
0.4129847334
 40
0.4557062568
 40
0.4989023603
 40
0.5422472296
 40
0.585413606
 40
0.628075962
 40
0.6491180746
 40
0.6699145411
 40
0.6904265885
 40
0.7106161691
 40
0.7304460578
 40
0.7498799545
 40
0.7688825943
 40
0.7874198784
 40
0.8054589947
 40
0.8229685354
 40
0.8399186339
 40
0.8562811301
 40
0.8720297583
 40
0.8871403249
 40
0.9015909356
 40
0.9153622745
 40
0.9284379679
 40
0.9408049954
 40
0.9524542054
 40
0.9580083267
 40
0.9633817447
 40
0.9685747312
 40
0.9735880107
 40
0.9784227422
 40
0.9830806077
 40
0.9875640053
 40
0.9918759223
 40
0.9960198711
 40
1.0
 40
1.0
 40
1.0
 40
1.0
 10
12.147062696
 20
9.9617674705
 30
0.0
 10
12.1470626961
 20
9.9626999525
 30
0.0
 10
12.1469810567
 20
9.9645724627
 30
0.0
 10
12.1466141385
 20
9.9673752886
 30
0.0
 10
12.1460030716
 20
9.9701746804
 30
0.0
 10
12.1451484876
 20
9.9729686836
 30
0.0
 10
12.1440510867
 20
9.97575578
 30
0.0
 10
12.1427118604
 20
9.9785345433
 30
0.0
 10
12.1411317132
 20
9.9813035989
 30
0.0
 10
12.1393116966
 20
9.9840616609
 30
0.0
 10
12.1372529409
 20
9.9868075158
 30
0.0
 10
12.1349565339
 20
9.9895398733
 30
0.0
 10
12.1324237655
 20
9.9922575559
 30
0.0
 10
12.1296559181
 20
9.9949593012
 30
0.0
 10
12.1266543845
 20
9.9976438412
 30
0.0
 10
12.1234207069
 20
10.0003099675
 30
0.0
 10
12.1199564539
 20
10.0029563515
 30
0.0
 10
12.1162633774
 20
10.0055817586
 30
0.0
 10
12.1123433099
 20
10.0081849112
 30
0.0
 10
12.1081981832
 20
10.0107644926
 30
0.0
 10
12.1038300909
 20
10.0133192869
 30
0.0
 10
12.0992411927
 20
10.0158479697
 30
0.0
 10
12.0944337861
 20
10.0183493246
 30
0.0
 10
12.0876285442
 20
10.0216990354
 30
0.0
 10
12.0785832654
 20
10.0257987687
 30
0.0
 10
12.0670625957
 20
10.0305155189
 30
0.0
 10
12.0547340724
 20
10.0350941055
 30
0.0
 10
12.0416224648
 20
10.039525257
 30
0.0
 10
12.0277539428
 20
10.0437999804
 30
0.0
 10
12.0131563565
 20
10.0479095848
 30
0.0
 10
11.9978590646
 20
10.0518457119
 30
0.0
 10
11.981892881
 20
10.0556003446
 30
0.0
 10
11.9652899958
 20
10.0591658304
 30
0.0
 10
11.9480839147
 20
10.0625349005
 30
0.0
 10
11.9303093897
 20
10.0657007008
 30
0.0
 10
11.9120023365
 20
10.0686567857
 30
0.0
 10
11.8931997543
 20
10.0713971354
 30
0.0
 10
11.8739396542
 20
10.0739161648
 30
0.0
 10
11.8542609863
 20
10.0762087509
 30
0.0
 10
11.8342035527
 20
10.0782702355
 30
0.0
 10
11.8138079343
 20
10.080096418
 30
0.0
 10
11.7931153554
 20
10.0816836052
 30
0.0
 10
11.7650625064
 20
10.0834846393
 30
0.0
 10
11.7295633153
 20
10.0851112022
 30
0.0
 10
11.6866445197
 20
10.0860641913
 30
0.0
 10
11.6435672962
 20
10.08601875
 30
0.0
 10
11.6006801273
 20
10.084975268
 30
0.0
 10
11.5652274423
 20
10.0832735943
 30
0.0
 10
11.537227464
 20
10.0814129485
 30
0.0
 10
11.5165857759
 20
10.0797820522
 30
0.0
 10
11.4962485987
 20
10.0779127962
 30
0.0
 10
11.4762570386
 20
10.0758089632
 30
0.0
 10
11.4566515405
 20
10.0734748421
 30
0.0
 10
11.4374717555
 20
10.0709151797
 30
0.0
 10
11.4187564717
 20
10.0681351785
 30
0.0
 10
11.400543525
 20
10.0651404996
 30
0.0
 10
11.3828697207
 20
10.0619372458
 30
0.0
 10
11.3657707645
 20
10.0585319407
 30
0.0
 10
11.3492811887
 20
10.0549315164
 30
0.0
 10
11.3334342708
 20
10.0511433022
 30
0.0
 10
11.3182619551
 20
10.0471750234
 30
0.0
 10
11.3037947915
 20
10.0430347627
 30
0.0
 10
11.2900618636
 20
10.0387309456
 30
0.0
 10
11.2770907428
 20
10.0342723119
 30
0.0
 10
11.2649073018
 20
10.0296679033
 30
0.0
 10
11.2535360056
 20
10.0249270384
 30
0.0
 10
11.244618816
 20
10.0208076265
 30
0.0
 10
11.2379183082
 20
10.0174429621
 30
0.0
 10
11.2331900798
 20
10.0149315228
 30
0.0
 10
11.2286812171
 20
10.0123931864
 30
0.0
 10
11.2243939625
 20
10.0098292298
 30
0.0
 10
11.2203304569
 20
10.007240952
 30
0.0
 10
11.2164927293
 20
10.0046295685
 30
0.0
 10
11.2128826257
 20
10.0019963753
 30
0.0
 10
11.2095019507
 20
9.9993425691
 30
0.0
 10
11.2063525596
 20
9.996669629
 30
0.0
 10
11.2043689432
 20
9.9948395839
 30
0.0
 10
11.2034182871
 20
9.9939213205
 30
0.0
  0
SPLINE
  5
39B
100
AcDbEntity
  8
0
100
AcDbSpline
 62
7
  6
CONTINUOUS
 70
0
 71
3
 72
15
 73
11
 74
0
 42
0.0000001
 43
0.0000001
 44
0.0000000001
 40
0.0
 40
0.0
 40
0.0
 40
0.0
 40
0.1268739922
 40
0.2531511271
 40
0.3788503832
 40
0.503998512
 40
0.628634419
 40
0.7528066983
 40
0.8765732209
 40
1.0
 40
1.0
 40
1.0
 40
1.0
 10
9.435910336
 20
8.449319018
 30
0.0
 10
9.435910336
 20
8.4589052172
 30
0.0
 10
9.4365616495
 20
8.4780391387
 30
0.0
 10
9.4395045481
 20
8.5065340892
 30
0.0
 10
9.4443975035
 20
8.5346289913
 30
0.0
 10
9.4512181246
 20
8.5621913772
 30
0.0
 10
9.4599347717
 20
8.5890931133
 30
0.0
 10
9.4705073912
 20
8.6152091351
 30
0.0
 10
9.4828858701
 20
8.6404160559
 30
0.0
 10
9.4923174402
 20
8.6565592934
 30
0.0
 10
9.4973113374
 20
8.6644352308
 30
0.0
  0
SPLINE
  5
39C
100
AcDbEntity
  8
0
100
AcDbSpline
 62
7
  6
CONTINUOUS
 70
0
 71
3
 72
51
 73
47
 74
0
 42
0.0000001
 43
0.0000001
 44
0.0000000001
 40
0.0
 40
0.0
 40
0.0
 40
0.0
 40
0.0149716485
 40
0.0299463565
 40
0.0449271644
 40
0.0599170744
 40
0.0749190346
 40
0.0899359198
 40
0.1049705137
 40
0.1200254925
 40
0.1351034109
 40
0.1502066862
 40
0.1653375828
 40
0.1804982023
 40
0.1956904722
 40
0.2109161327
 40
0.2261767296
 40
0.241473608
 40
0.2568079046
 40
0.2721805407
 40
0.2875922226
 40
0.303043438
 40
0.3185344523
 40
0.334065311
 40
0.3496358431
 40
0.3652456603
 40
0.3965753769
 40
0.4280524346
 40
0.4596664537
 40
0.4914042018
 40
0.5232498957
 40
0.555185552
 40
0.5871913712
 40
0.619246145
 40
0.65132769
 40
0.68341329
 40
0.7154801477
 40
0.7475058396
 40
0.7794687608
 40
0.8113485629
 40
0.8431265731
 40
0.8747861836
 40
0.9063132226
 40
0.9376962675
 40
0.9689267871
 40
1.0
 40
1.0
 40
1.0
 40
1.0
 10
10.1134513048
 20
7.6999952157
 30
0.0
 10
10.1076858453
 20
7.6944262198
 30
0.0
 10
10.0959309642
 20
7.683515104
 30
0.0
 10
10.0776602801
 20
7.6678602462
 30
0.0
 10
10.0587743819
 20
7.6529369597
 30
0.0
 10
10.0392996452
 20
7.638766101
 30
0.0
 10
10.0192627921
 20
7.6253670502
 30
0.0
 10
9.9986914097
 20
7.6127582863
 30
0.0
 10
9.9776137936
 20
7.6009571661
 30
0.0
 10
9.9560589793
 20
7.5899798787
 30
0.0
 10
9.9340566274
 20
7.5798415183
 30
0.0
 10
9.9116369989
 20
7.5705560654
 30
0.0
 10
9.888830962
 20
7.5621362493
 30
0.0
 10
9.8656699048
 20
7.5545936183
 30
0.0
 10
9.8421856845
 20
7.5479385662
 30
0.0
 10
9.818410613
 20
7.5421802391
 30
0.0
 10
9.7943774107
 20
7.5373264976
 30
0.0
 10
9.7701191354
 20
7.5333840098
 30
0.0
 10
9.7456691515
 20
7.5303582222
 30
0.0
 10
9.721061098
 20
7.5282532333
 30
0.0
 10
9.696328818
 20
7.5270719067
 30
0.0
 10
9.6715063318
 20
7.5268158871
 30
0.0
 10
9.6466277491
 20
7.5274855062
 30
0.0
 10
9.62172739
 20
7.5290797617
 30
0.0
 10
9.5968390819
 20
7.5315965589
 30
0.0
 10
9.5636804469
 20
7.5361825195
 30
0.0
 10
9.5224294221
 20
7.5442100615
 30
0.0
 10
9.4735925369
 20
7.5574344037
 30
0.0
 10
9.4256193617
 20
7.5741896425
 30
0.0
 10
9.3787750479
 20
7.594383256
 30
0.0
 10
9.333316155
 20
7.6179039901
 30
0.0
 10
9.2894922614
 20
7.6446224492
 30
0.0
 10
9.2475438045
 20
7.6743917723
 30
0.0
 10
9.2077009056
 20
7.7070483339
 30
0.0
 10
9.1701822637
 20
7.7424128825
 30
0.0
 10
9.1351937049
 20
7.7802911877
 30
0.0
 10
9.102927351
 20
7.8204754157
 30
0.0
 10
9.0735603594
 20
7.8627450295
 30
0.0
 10
9.047254031
 20
7.9068680784
 30
0.0
 10
9.024153042
 20
7.9526025061
 30
0.0
 10
9.0043843723
 20
7.9996972878
 30
0.0
 10
8.9880569975
 20
8.047894095
 30
0.0
 10
8.9752608911
 20
8.0969280913
 30
0.0
 10
8.9660668532
 20
8.1465310019
 30
0.0
 10
8.9605258473
 20
8.1964268899
 30
0.0
 10
8.9592847633
 20
8.2297973313
 30
0.0
 10
8.9592847633
 20
8.2464340406
 30
0.0
  0
SPLINE
  5
39D
100
AcDbEntity
  8
0
100
AcDbSpline
 62
7
  6
CONTINUOUS
 70
0
 71
3
 72
50
 73
46
 74
0
 42
0.0000001
 43
0.0000001
 44
0.0000000001
 40
0.0
 40
0.0
 40
0.0
 40
0.0
 40
0.0149698077
 40
0.0299433792
 40
0.0449237242
 40
0.0599138113
 40
0.0749165514
 40
0.089934779
 40
0.1049712337
 40
0.1200285474
 40
0.1351092282
 40
0.1502156434
 40
0.1653500086
 40
0.1805143766
 40
0.1957106235
 40
0.2109404393
 40
0.2262053223
 40
0.2415065694
 40
0.2568452684
 40
0.2722222975
 40
0.2876383207
 40
0.3030937823
 40
0.3185889101
 40
0.3341237159
 40
0.3653061336
 40
0.3966421268
 40
0.4281242518
 40
0.4597420067
 40
0.4914820813
 40
0.5233286683
 40
0.5552638067
 40
0.5872677594
 40
0.6193194216
 40
0.6513967433
 40
0.6834771681
 40
0.715538079
 40
0.7475572437
 40
0.7795132544
 40
0.8113859597
 40
0.8431568726
 40
0.8748095586
 40
0.906329997
 40
0.9377068943
 40
0.9689317917
 40
1.0
 40
1.0
 40
1.0
 40
1.0
 10
10.1134329842
 20
7.7000156149
 30
0.0
 10
10.1076363809
 20
7.6945221856
 30
0.0
 10
10.0958227628
 20
7.6837623583
 30
0.0
 10
10.0774749704
 20
7.6683346295
 30
0.0
 10
10.0585224614
 20
7.6536378355
 30
0.0
 10
10.0389915255
 20
7.6396923371
 30
0.0
 10
10.0189087464
 20
7.6265170803
 30
0.0
 10
9.9983015532
 20
7.6141301269
 30
0.0
 10
9.9771981113
 20
7.6025483483
 30
0.0
 10
9.9556272614
 20
7.5917875285
 30
0.0
 10
9.9336184449
 20
7.5818623965
 30
0.0
 10
9.9112017289
 20
7.5727864898
 30
0.0
 10
9.8884077481
 20
7.5645721442
 30
0.0
 10
9.8652676207
 20
7.5572305908
 30
0.0
 10
9.8418129426
 20
7.5507718661
 30
0.0
 10
9.8180757596
 20
7.545204716
 30
0.0
 10
9.7940884797
 20
7.5405367329
 30
0.0
 10
9.7698838476
 20
7.536774323
 30
0.0
 10
9.7454949184
 20
7.5339225511
 30
0.0
 10
9.7209549948
 20
7.531985279
 30
0.0
 10
9.6962975434
 20
7.5309651926
 30
0.0
 10
9.6715563375
 20
7.5308636167
 30
0.0
 10
9.6467647288
 20
7.5316807079
 30
0.0
 10
9.6136501768
 20
7.5339959871
 30
0.0
 10
9.5722942651
 20
7.5391875333
 30
0.0
 10
9.5230797405
 20
7.5490358329
 30
0.0
 10
9.4744753428
 20
7.5624566502
 30
0.0
 10
9.4267477729
 20
7.5793763648
 30
0.0
 10
9.3801565249
 20
7.5997022697
 30
0.0
 10
9.3349555291
 20
7.6233233089
 30
0.0
 10
9.291390934
 20
7.6501105
 30
0.0
 10
9.2496999556
 20
7.6799176221
 30
0.0
 10
9.2101097023
 20
7.7125822202
 30
0.0
 10
9.1728357447
 20
7.7479261792
 30
0.0
 10
9.1380811355
 20
7.7857569392
 30
0.0
 10
9.1060352728
 20
7.8258684429
 30
0.0
 10
9.076872738
 20
7.8680421583
 30
0.0
 10
9.0507526275
 20
7.9120484564
 30
0.0
 10
9.0278174032
 20
7.9576476449
 30
0.0
 10
9.0081922814
 20
8.0045913546
 30
0.0
 10
8.9919846137
 20
8.052623984
 30
0.0
 10
8.9792830217
 20
8.1014835635
 30
0.0
 10
8.9701573169
 20
8.1509047666
 30
0.0
 10
8.9646576406
 20
8.2006147145
 30
0.0
 10
8.9634258648
 20
8.23385968
 30
0.0
 10
8.9634258648
 20
8.2504340378
 30
0.0
  0
SPLINE
  5
39E
100
AcDbEntity
  8
0
100
AcDbSpline
 62
7
  6
CONTINUOUS
 70
0
 71
3
 72
45
 73
41
 74
0
 42
0.0000001
 43
0.0000001
 44
0.0000000001
 40
0.0
 40
0.0
 40
0.0
 40
0.0
 40
0.0149721384
 40
0.0299473353
 40
0.0449286316
 40
0.0599190316
 40
0.0749214813
 40
0.0899388561
 40
0.1049739408
 40
0.1200294102
 40
0.1351078205
 40
0.1502115883
 40
0.1653429774
 40
0.1805040919
 40
0.2109173721
 40
0.2414702803
 40
0.2721727302
 40
0.3030312324
 40
0.3340487994
 40
0.3652249282
 40
0.3965556662
 40
0.4280337495
 40
0.4596488007
 40
0.4913875843
 40
0.5232343171
 40
0.5551710162
 40
0.5871778805
 40
0.6192337014
 40
0.6513162944
 40
0.6834029425
 40
0.7154708484
 40
0.7474975871
 40
0.779461553
 40
0.8113423971
 40
0.8431214459
 40
0.874782092
 40
0.9063101554
 40
0.9376942574
 40
0.9689257386
 40
1.0
 40
1.0
 40
1.0
 40
1.0
 10
9.9798695708
 20
7.8698857416
 30
0.0
 10
9.9758876648
 20
7.8660395284
 30
0.0
 10
9.9677692169
 20
7.8585037479
 30
0.0
 10
9.9551505946
 20
7.8476917642
 30
0.0
 10
9.9421071287
 20
7.837384975
 30
0.0
 10
9.9286569557
 20
7.8275978788
 30
0.0
 10
9.9148185495
 20
7.8183438436
 30
0.0
 10
9.9006109931
 20
7.809635583
 30
0.0
 10
9.8860537876
 20
7.8014851484
 30
0.0
 10
9.8711670165
 20
7.7939036817
 30
0.0
 10
9.8559711376
 20
7.7869016088
 30
0.0
 10
9.8404871226
 20
7.7804886339
 30
0.0
 10
9.8247360016
 20
7.7746734186
 30
0.0
 10
9.8033881404
 20
7.7677211282
 30
0.0
 10
9.7761322841
 20
7.7605653751
 30
0.0
 10
9.7427528261
 20
7.7544901858
 30
0.0
 10
9.7088442755
 20
7.7509485857
 30
0.0
 10
9.6745944945
 20
7.7499600811
 30
0.0
 10
9.6401915047
 20
7.7515295839
 30
0.0
 10
9.605824512
 20
7.7556480419
 30
0.0
 10
9.5716823126
 20
7.7622923902
 30
0.0
 10
9.5379524306
 20
7.7714257775
 30
0.0
 10
9.5048200637
 20
7.7829977309
 30
0.0
 10
9.472467061
 20
7.796944374
 30
0.0
 10
9.4410709652
 20
7.8131888852
 30
0.0
 10
9.4108040674
 20
7.8316419186
 30
0.0
 10
9.381832436
 20
7.852202021
 30
0.0
 10
9.3543150141
 20
7.8747562043
 30
0.0
 10
9.3284027988
 20
7.899180616
 30
0.0
 10
9.3042380265
 20
7.9253411984
 30
0.0
 10
9.2819533224
 20
7.9530943449
 30
0.0
 10
9.2616710406
 20
7.9822877509
 30
0.0
 10
9.2435026221
 20
8.0127612437
 30
0.0
 10
9.2275479551
 20
8.0443476279
 30
0.0
 10
9.2138947738
 20
8.0768735495
 30
0.0
 10
9.2026182681
 20
8.1101605631
 30
0.0
 10
9.1937806575
 20
8.1440258052
 30
0.0
 10
9.1874308456
 20
8.1782839488
 30
0.0
 10
9.1836039187
 20
8.2127444412
 30
0.0
 10
9.1827467772
 20
8.2357916616
 30
0.0
 10
9.1827467772
 20
8.2472817838
 30
0.0
  0
SPLINE
  5
39F
100
AcDbEntity
  8
0
100
AcDbSpline
 62
7
  6
CONTINUOUS
 70
0
 71
3
 72
23
 73
19
 74
0
 42
0.0000001
 43
0.0000001
 44
0.0000000001
 40
0.0
 40
0.0
 40
0.0
 40
0.0
 40
0.0611593673
 40
0.1224597127
 40
0.1839143244
 40
0.2455350545
 40
0.3073322195
 40
0.3693145198
 40
0.431488977
 40
0.4938608871
 40
0.556433785
 40
0.619209437
 40
0.6821878393
 40
0.7453671754
 40
0.8087441833
 40
0.8723129803
 40
0.9360685424
 40
1.0
 40
1.0
 40
1.0
 40
1.0
 10
10.0652120528
 20
7.9873112695
 30
0.0
 10
10.0588039212
 20
7.9844401123
 30
0.0
 10
10.0458289236
 20
7.9790065588
 30
0.0
 10
10.0259680122
 20
7.9718118264
 30
0.0
 10
10.0057287678
 20
7.9655785765
 30
0.0
 10
9.9851558587
 20
7.9603206124
 30
0.0
 10
9.9642938931
 20
7.9560492654
 30
0.0
 10
9.9431883149
 20
7.9527737974
 30
0.0
 10
9.9218850328
 20
7.9505012818
 30
0.0
 10
9.9004303935
 20
7.9492366187
 30
0.0
 10
9.878871062
 20
7.9489825165
 30
0.0
 10
9.8572539249
 20
7.9497394902
 30
0.0
 10
9.8356259996
 20
7.9515058613
 30
0.0
 10
9.8140342787
 20
7.9542777261
 30
0.0
 10
9.7925258129
 20
7.9580490391
 30
0.0
 10
9.7711470507
 20
7.9628115454
 30
0.0
 10
9.749945211
 20
7.9685547756
 30
0.0
 10
9.7359765136
 20
7.9730234906
 30
0.0
 10
9.7290371582
 20
7.9754160099
 30
0.0
  0
SPLINE
  5
3A0
100
AcDbEntity
  8
0
100
AcDbSpline
 62
7
  6
CONTINUOUS
 70
0
 71
3
 72
24
 73
20
 74
0
 42
0.0000001
 43
0.0000001
 44
0.0000000001
 40
0.0
 40
0.0
 40
0.0
 40
0.0
 40
0.0617029036
 40
0.123430267
 40
0.1852024427
 40
0.2470393363
 40
0.2779905723
 40
0.3089651428
 40
0.3709884252
 40
0.4331315362
 40
0.4954107189
 40
0.5578408909
 40
0.6204355042
 40
0.6832064492
 40
0.7461638728
 40
0.80931637
 40
0.8726701114
 40
0.9362308432
 40
1.0
 40
1.0
 40
1.0
 40
1.0
 10
9.147774575
 20
8.6997413255
 30
0.0
 10
9.1404660494
 20
8.6925461932
 30
0.0
 10
9.1262095864
 20
8.6777784376
 30
0.0
 10
9.1059740048
 20
8.6545637555
 30
0.0
 10
9.0869287887
 20
8.6303340748
 30
0.0
 10
9.0720899095
 20
8.6093481993
 30
0.0
 10
9.0608574628
 20
8.5921120509
 30
0.0
 10
9.0500473695
 20
8.5745715162
 30
0.0
 10
9.0373522079
 20
8.5521126527
 30
0.0
 10
9.0234707572
 20
8.5243912779
 30
0.0
 10
9.0109655835
 20
8.4959482326
 30
0.0
 10
8.9998650717
 20
8.4668480328
 30
0.0
 10
8.9901940913
 20
8.4371561341
 30
0.0
 10
8.9819743921
 20
8.4069394693
 30
0.0
 10
8.975224387
 20
8.3762660633
 30
0.0
 10
8.9699592708
 20
8.3452051145
 30
0.0
 10
8.9661907219
 20
8.3138262144
 30
0.0
 10
8.9639273052
 20
8.282201076
 30
0.0
 10
8.9634258648
 20
8.2610334283
 30
0.0
 10
8.9634258648
 20
8.2504340378
 30
0.0
  0
SPLINE
  5
3A1
100
AcDbEntity
  8
0
100
AcDbSpline
 62
7
  6
CONTINUOUS
 70
0
 71
3
 72
23
 73
19
 74
0
 42
0.0000001
 43
0.0000001
 44
0.0000000001
 40
0.0
 40
0.0
 40
0.0
 40
0.0
 40
0.0617101446
 40
0.123441395
 40
0.1852146431
 40
0.247050352
 40
0.3089683478
 40
0.3709876199
 40
0.4331261339
 40
0.495400661
 40
0.5578266111
 40
0.6204179017
 40
0.6831868168
 40
0.746143859
 40
0.8092980008
 40
0.8726552579
 40
0.9362226181
 40
1.0
 40
1.0
 40
1.0
 40
1.0
 10
9.3129128317
 20
8.5603701261
 30
0.0
 10
9.3077587979
 20
8.5553917283
 30
0.0
 10
9.2977033431
 20
8.545165943
 30
0.0
 10
9.2834262351
 20
8.5290690766
 30
0.0
 10
9.2699852959
 20
8.512248309
 30
0.0
 10
9.257412046
 20
8.4947429748
 30
0.0
 10
9.2457353354
 20
8.4765933129
 30
0.0
 10
9.2349821121
 20
8.4578412353
 30
0.0
 10
9.2251771252
 20
8.4385299997
 30
0.0
 10
9.2163429513
 20
8.4187041573
 30
0.0
 10
9.2084999209
 20
8.3984094362
 30
0.0
 10
9.2016660796
 20
8.3776926378
 30
0.0
 10
9.1958571559
 20
8.3566015381
 30
0.0
 10
9.1910864617
 20
8.3351847375
 30
0.0
 10
9.1873650046
 20
8.3134917208
 30
0.0
 10
9.1847011632
 20
8.2915721563
 30
0.0
 10
9.1831012383
 20
8.2694774116
 30
0.0
 10
9.1827467772
 20
8.254687619
 30
0.0
 10
9.1827467772
 20
8.2472817838
 30
0.0
  0
SPLINE
  5
3A2
100
AcDbEntity
  8
0
100
AcDbSpline
 62
7
  6
CONTINUOUS
 70
0
 71
3
 72
17
 73
13
 74
0
 42
0.0000001
 43
0.0000001
 44
0.0000000001
 40
0.0
 40
0.0
 40
0.0
 40
0.0
 40
0.123580961
 40
0.1855046301
 40
0.2475191208
 40
0.3718251663
 40
0.4965438237
 40
0.5590726684
 40
0.6217142377
 40
0.7473316145
 40
0.8734241726
 40
1.0
 40
1.0
 40
1.0
 40
1.0
 10
9.4332569389
 20
8.6416565397
 30
0.0
 10
9.4295848356
 20
8.6341708224
 30
0.0
 10
9.4244000349
 20
8.6227691867
 30
0.0
 10
9.4181555633
 20
8.6072789574
 30
0.0
 10
9.4123455141
 20
8.5915678964
 30
0.0
 10
9.4059236835
 20
8.5715761735
 30
0.0
 10
9.4006518344
 20
8.5512152019
 30
0.0
 10
9.397126921
 20
8.5347259974
 30
0.0
 10
9.3940609925
 20
8.5180837047
 30
0.0
 10
9.3911069037
 20
8.4970689214
 30
0.0
 10
9.3889789977
 20
8.4716227964
 30
0.0
 10
9.3885077482
 20
8.454571576
 30
0.0
 10
9.3885077482
 20
8.4460316316
 30
0.0
  0
SPLINE
  5
3A3
100
AcDbEntity
  8
0
100
AcDbSpline
 62
7
  6
CONTINUOUS
 70
0
 71
3
 72
23
 73
19
 74
0
 42
0.0000001
 43
0.0000001
 44
0.0000000001
 40
0.0
 40
0.0
 40
0.0
 40
0.0
 40
0.0610513249
 40
0.1222308038
 40
0.1835599408
 40
0.2450583048
 40
0.3067433164
 40
0.3686300415
 40
0.4307310274
 40
0.4930561724
 40
0.5556126338
 40
0.6184047687
 40
0.6814341221
 40
0.7446994117
 40
0.8081966589
 40
0.8719190307
 40
0.9358575215
 40
1.0
 40
1.0
 40
1.0
 40
1.0
 10
10.090475359
 20
8.0506921979
 30
0.0
 10
10.0840663231
 20
8.0469277663
 30
0.0
 10
10.071013311
 20
8.0397610702
 30
0.0
 10
10.0508259178
 20
8.0301475292
 30
0.0
 10
10.0300692305
 20
8.0216871309
 30
0.0
 10
10.0088055703
 20
8.0144053564
 30
0.0
 10
9.987097673
 20
8.008323554
 30
0.0
 10
9.965009866
 20
8.003459682
 30
0.0
 10
9.9426075095
 20
7.9998280416
 30
0.0
 10
9.9199569008
 20
7.9974392953
 30
0.0
 10
9.8971250516
 20
7.996300423
 30
0.0
 10
9.8741794947
 20
7.9964147066
 30
0.0
 10
9.8511880917
 20
7.9977817249
 30
0.0
 10
9.8282188011
 20
8.0003973536
 30
0.0
 10
9.8053395921
 20
8.0042537712
 30
0.0
 10
9.7826178516
 20
8.009339564
 30
0.0
 10
9.7601215448
 20
8.0156393667
 30
0.0
 10
9.7453391253
 20
8.0206292297
 30
0.0
 10
9.7380076928
 20
8.0233186386
 30
0.0
  0
SPLINE
  5
3A4
100
AcDbEntity
  8
0
100
AcDbSpline
 62
7
  6
CONTINUOUS
 70
0
 71
3
 72
23
 73
19
 74
0
 42
0.0000001
 43
0.0000001
 44
0.0000000001
 40
0.0
 40
0.0
 40
0.0
 40
0.0
 40
0.0630837414
 40
0.1262169454
 40
0.1893707399
 40
0.2525150867
 40
0.3156205593
 40
0.3786580629
 40
0.441599454
 40
0.5044178433
 40
0.5670879794
 40
0.6295865925
 40
0.6918927188
 40
0.7539880238
 40
0.8158570094
 40
0.8774874851
 40
0.9388701296
 40
1.0
 40
1.0
 40
1.0
 40
1.0
 10
9.6177417767
 20
8.0894071359
 30
0.0
 10
9.6107593565
 20
8.0947318134
 30
0.0
 10
9.5970867451
 20
8.1057823424
 30
0.0
 10
9.5775411706
 20
8.1234883462
 30
0.0
 10
9.5590153833
 20
8.1422717779
 30
0.0
 10
9.5415774923
 20
8.1620638614
 30
0.0
 10
9.5252905599
 20
8.1827929063
 30
0.0
 10
9.5102137779
 20
8.2043836673
 30
0.0
 10
9.4964018745
 20
8.2267578085
 30
0.0
 10
9.4839050249
 20
8.249834147
 30
0.0
 10
9.4727686378
 20
8.2735289513
 30
0.0
 10
9.4630332019
 20
8.2977562445
 30
0.0
 10
9.4547341308
 20
8.3224281035
 30
0.0
 10
9.44790165
 20
8.3474550102
 30
0.0
 10
9.4425606489
 20
8.3727460463
 30
0.0
 10
9.4387306686
 20
8.3982097
 30
0.0
 10
9.4364256873
 20
8.4237523237
 30
0.0
 10
9.435910336
 20
8.4408099657
 30
0.0
 10
9.435910336
 20
8.449319018
 30
0.0
  0
SPLINE
  5
3A5
100
AcDbEntity
  8
0
100
AcDbSpline
 62
7
  6
CONTINUOUS
 70
0
 71
3
 72
41
 73
37
 74
0
 42
0.0000001
 43
0.0000001
 44
0.0000000001
 40
0.0
 40
0.0
 40
0.0
 40
0.0
 40
0.0149724862
 40
0.0299480307
 40
0.0449296746
 40
0.0599204222
 40
0.0899350731
 40
0.1200204959
 40
0.1501975964
 40
0.1804850878
 40
0.2108990702
 40
0.2414526838
 40
0.2721558423
 40
0.303015057
 40
0.3340333403
 40
0.3652101893
 40
0.3965416515
 40
0.4280204628
 40
0.4596362457
 40
0.4913757643
 40
0.5232232351
 40
0.5551606749
 40
0.587168282
 40
0.6192248472
 40
0.6513081855
 40
0.6833955794
 40
0.7154642309
 40
0.7474917144
 40
0.779456424
 40
0.8113380097
 40
0.8431177978
 40
0.8747791805
 40
0.9063079772
 40
0.937692809
 40
0.9689250164
 40
1.0
 40
1.0
 40
1.0
 40
1.0
 10
12.4718481332
 20
7.1048277041
 30
0.0
 10
12.4681980597
 20
7.1013019918
 30
0.0
 10
12.4607561523
 20
7.0943941532
 30
0.0
 10
12.4491891457
 20
7.0844831427
 30
0.0
 10
12.437232481
 20
7.0750351078
 30
0.0
 10
12.420788725
 20
7.0630694864
 30
0.0
 10
12.3993310894
 20
7.0493281578
 30
0.0
 10
12.3723146233
 20
7.0348961192
 30
0.0
 10
12.3441640603
 20
7.0225902158
 30
0.0
 10
12.3150356284
 20
7.0124787496
 30
0.0
 10
12.2850895981
 20
7.0046168959
 30
0.0
 10
12.2544910168
 20
6.9990476296
 30
0.0
 10
12.2234083448
 20
6.9958011558
 30
0.0
 10
12.1920126246
 20
6.9948949364
 30
0.0
 10
12.1604765244
 20
6.9963335874
 30
0.0
 10
12.1289733988
 20
7.0001087809
 30
0.0
 10
12.0976763346
 20
7.0061993823
 30
0.0
 10
12.0667572233
 20
7.0145716095
 30
0.0
 10
12.0363858319
 20
7.0251791962
 30
0.0
 10
12.0067288558
 20
7.0379635891
 30
0.0
 10
11.9779490434
 20
7.0528543683
 30
0.0
 10
11.9502043288
 20
7.0697696333
 30
0.0
 10
11.9236469421
 20
7.0886163851
 30
0.0
 10
11.8984225818
 20
7.1092910512
 30
0.0
 10
11.8746696627
 20
7.1316800997
 30
0.0
 10
11.8525185687
 20
7.1556606442
 30
0.0
 10
11.8320908737
 20
7.1811010448
 30
0.0
 10
11.813498736
 20
7.2078616884
 30
0.0
 10
11.7968443104
 20
7.2357957496
 30
0.0
 10
11.7822191617
 20
7.2647499655
 30
0.0
 10
11.7697037131
 20
7.2945654276
 30
0.0
 10
11.7593668893
 20
7.3250785603
 30
0.0
 10
11.7512657249
 20
7.3561217381
 30
0.0
 10
11.7454450486
 20
7.3875250772
 30
0.0
 10
11.741937023
 20
7.4191139038
 30
0.0
 10
11.7411513078
 20
7.4402405507
 30
0.0
 10
11.7411513078
 20
7.4507731768
 30
0.0
  0
SPLINE
  5
3A6
100
AcDbEntity
  8
0
100
AcDbSpline
 62
7
  6
CONTINUOUS
 70
0
 71
3
 72
42
 73
38
 74
0
 42
0.0000001
 43
0.0000001
 44
0.0000000001
 40
0.0
 40
0.0
 40
0.0
 40
0.0
 40
0.0149694304
 40
0.0299430272
 40
0.044923784
 40
0.0599146508
 40
0.0749185143
 40
0.0899381866
 40
0.1200299593
 40
0.1502160839
 40
0.1805146556
 40
0.2109411437
 40
0.2415080661
 40
0.2722247412
 40
0.3030971247
 40
0.3341277295
 40
0.3653156228
 40
0.3966564959
 40
0.4281428043
 40
0.4597639728
 40
0.4915066516
 40
0.5233550191
 40
0.5552911259
 40
0.587295273
 40
0.6193464141
 40
0.6514225763
 40
0.6835012949
 40
0.7155600559
 40
0.7475767362
 40
0.7795300416
 40
0.8113999317
 40
0.8431680283
 40
0.874817995
 40
0.9063358863
 40
0.9377105349
 40
0.9689334007
 40
1.0
 40
1.0
 40
1.0
 40
1.0
 10
12.4718212787
 20
7.1048618117
 30
0.0
 10
12.4681403263
 20
7.1014116287
 30
0.0
 10
12.4606402018
 20
7.0946550104
 30
0.0
 10
12.4489968029
 20
7.0849709432
 30
0.0
 10
12.4369744275
 20
7.0757492842
 30
0.0
 10
12.4245896566
 20
7.0670029087
 30
0.0
 10
12.4118590483
 20
7.0587434632
 30
0.0
 10
12.3944386964
 20
7.0483900346
 30
0.0
 10
12.3718735453
 20
7.0367169614
 30
0.0
 10
12.3437218378
 20
7.0248343068
 30
0.0
 10
12.3146276935
 20
7.0151290634
 30
0.0
 10
12.2847506171
 20
7.0076543936
 30
0.0
 10
12.2542529574
 20
7.0024504464
 30
0.0
 10
12.2233007206
 20
6.9995451782
 30
0.0
 10
12.1920621937
 20
6.99895395
 30
0.0
 10
12.1607071498
 20
7.0006795866
 30
0.0
 10
12.1294059078
 20
7.0047123607
 30
0.0
 10
12.0983284218
 20
7.0110300154
 30
0.0
 10
12.0676433578
 20
7.0195978984
 30
0.0
 10
12.0375172011
 20
7.0303692128
 30
0.0
 10
12.0081133728
 20
7.0432852728
 30
0.0
 10
11.9795913441
 20
7.0582757879
 30
0.0
 10
11.9521057679
 20
7.0752592319
 30
0.0
 10
11.925805678
 20
7.0941433399
 30
0.0
 10
11.900833695
 20
7.1148255986
 30
0.0
 10
11.877325249
 20
7.1371937738
 30
0.0
 10
11.8554078222
 20
7.1611264906
 30
0.0
 10
11.8352003111
 20
7.1864939386
 30
0.0
 10
11.816812388
 20
7.2131585585
 30
0.0
 10
11.8003439007
 20
7.2409757657
 30
0.0
 10
11.7858842862
 20
7.2697947067
 30
0.0
 10
11.7735121502
 20
7.2994590898
 30
0.0
 10
11.7632948435
 20
7.3298080815
 30
0.0
 10
11.7552880643
 20
7.3606769135
 30
0.0
 10
11.7495355889
 20
7.3918986323
 30
0.0
 10
11.7460688331
 20
7.4233016229
 30
0.0
 10
11.7452924093
 20
7.4443028669
 30
0.0
 10
11.7452924093
 20
7.4547731739
 30
0.0
  0
SPLINE
  5
3A7
100
AcDbEntity
  8
0
100
AcDbSpline
 62
7
  6
CONTINUOUS
 70
0
 71
3
 72
41
 73
37
 74
0
 42
0.0000001
 43
0.0000001
 44
0.0000000001
 40
0.0
 40
0.0
 40
0.0
 40
0.0
 40
0.0299421711
 40
0.0599087182
 40
0.0899234237
 40
0.120008901
 40
0.1501860568
 40
0.1804736044
 40
0.2108876432
 40
0.2414413126
 40
0.272144528
 40
0.3030038001
 40
0.3340221401
 40
0.3651990458
 40
0.3965305658
 40
0.4280094351
 40
0.459625275
 40
0.4913648512
 40
0.5232123798
 40
0.5551498765
 40
0.5871575398
 40
0.6192141608
 40
0.6512975542
 40
0.6833850026
 40
0.715453708
 40
0.7314764109
 40
0.7474860766
 40
0.7794508393
 40
0.8113324792
 40
0.8431123189
 40
0.8747737608
 40
0.9063025958
 40
0.9376874988
 40
0.9533255066
 40
0.9689250205
 40
1.0
 40
1.0
 40
1.0
 40
1.0
 10
12.3413298168
 20
7.2637739803
 30
0.0
 10
12.3374312448
 20
7.260008249
 30
0.0
 10
12.3293275473
 20
7.2527806969
 30
0.0
 10
12.3163441611
 20
7.2429344371
 30
0.0
 10
12.3025992981
 20
7.2341325224
 30
0.0
 10
12.2881697587
 20
7.226424329
 30
0.0
 10
12.2731348758
 20
7.2198519684
 30
0.0
 10
12.2575776251
 20
7.2144515685
 30
0.0
 10
12.2415837365
 20
7.210252677
 30
0.0
 10
12.2252413248
 20
7.207278218
 30
0.0
 10
12.2086403683
 20
7.2055443486
 30
0.0
 10
12.1918722187
 20
7.2050603902
 30
0.0
 10
12.1750290965
 20
7.2058287877
 30
0.0
 10
12.1582035871
 20
7.2078451079
 30
0.0
 10
12.1414881365
 20
7.2110980727
 30
0.0
 10
12.1249745494
 20
7.2155696293
 30
0.0
 10
12.1087534916
 20
7.2212350551
 30
0.0
 10
12.0929139996
 20
7.2280630972
 30
0.0
 10
12.0775429979
 20
7.2360161473
 30
0.0
 10
12.0627248308
 20
7.2450504443
 30
0.0
 10
12.0485407967
 20
7.2551163291
 30
0.0
 10
12.0350687419
 20
7.2661584658
 30
0.0
 10
12.022382511
 20
7.2781163303
 30
0.0
 10
12.0105520231
 20
7.2909238413
 30
0.0
 10
12.0014566736
 20
7.3022512208
 30
0.0
 10
11.9946706583
 20
7.3116665206
 30
0.0
 10
11.988226131
 20
7.3212961254
 30
0.0
 10
11.980816695
 20
7.3337236614
 30
0.0
 10
11.9730057347
 20
7.349187565
 30
0.0
 10
11.9663213137
 20
7.3651117631
 30
0.0
 10
11.9608005363
 20
7.3814085887
 30
0.0
 10
11.956473816
 20
7.3979881657
 30
0.0
 10
11.9538798584
 20
7.4119831265
 30
0.0
 10
11.9524247198
 20
7.4232278999
 30
0.0
 10
11.9513862256
 20
7.4344619155
 30
0.0
 10
11.9510717804
 20
7.4429154328
 30
0.0
 10
11.9510717804
 20
7.4485407947
 30
0.0
  0
SPLINE
  5
3A8
100
AcDbEntity
  8
0
100
AcDbSpline
 62
7
  6
CONTINUOUS
 70
0
 71
3
 72
39
 73
35
 74
0
 42
0.0000001
 43
0.0000001
 44
0.0000000001
 40
0.0
 40
0.0
 40
0.0
 40
0.0
 40
0.030147504
 40
0.0604060808
 40
0.0907826504
 40
0.1212823595
 40
0.1519085247
 40
0.182662609
 40
0.2135442231
 40
0.2445511543
 40
0.2756794191
 40
0.3069233389
 40
0.3382756369
 40
0.3697275537
 40
0.4012689818
 40
0.4328886141
 40
0.464574103
 40
0.4963122301
 40
0.5280890843
 40
0.5598902459
 40
0.591700977
 40
0.6235064152
 40
0.6552917683
 40
0.6870425072
 40
0.7187445553
 40
0.7503844759
 40
0.7819496505
 40
0.8134284524
 40
0.8448104223
 40
0.8760863566
 40
0.9072486973
 40
0.9382908256
 40
0.9692093633
 40
1.0
 40
1.0
 40
1.0
 40
1.0
 10
12.3936054189
 20
7.3468281859
 30
0.0
 10
12.3893306096
 20
7.345552122
 30
0.0
 10
12.3806825931
 20
7.3432635125
 30
0.0
 10
12.3674991196
 20
7.3406392868
 30
0.0
 10
12.3541267629
 20
7.338826424
 30
0.0
 10
12.3406145069
 20
7.3378316077
 30
0.0
 10
12.327010985
 20
7.3376582965
 30
0.0
 10
12.3133653722
 20
7.3383070502
 30
0.0
 10
12.2997269202
 20
7.3397754466
 30
0.0
 10
12.2861448585
 20
7.3420581158
 30
0.0
 10
12.272668198
 20
7.3451467546
 30
0.0
 10
12.259345562
 20
7.3490301593
 30
0.0
 10
12.2462250118
 20
7.3536942687
 30
0.0
 10
12.2333538723
 20
7.3591222046
 30
0.0
 10
12.2207785608
 20
7.3652943362
 30
0.0
 10
12.2085444249
 20
7.3721883597
 30
0.0
 10
12.1966955799
 20
7.3797793765
 30
0.0
 10
12.1852747522
 20
7.3880399836
 30
0.0
 10
12.1743231264
 20
7.3969403706
 30
0.0
 10
12.1638801998
 20
7.406448428
 30
0.0
 10
12.1539836358
 20
7.4165298563
 30
0.0
 10
12.1446691251
 20
7.4271482873
 30
0.0
 10
12.1359702656
 20
7.4382654234
 30
0.0
 10
12.1279184412
 20
7.449841173
 30
0.0
 10
12.12054271
 20
7.4618337939
 30
0.0
 10
12.1138697001
 20
7.4742000419
 30
0.0
 10
12.1079235156
 20
7.486895325
 30
0.0
 10
12.1027256427
 20
7.4998738627
 30
0.0
 10
12.0982948785
 20
7.5130888386
 30
0.0
 10
12.0946472239
 20
7.5264926118
 30
0.0
 10
12.0917959596
 20
7.5400367437
 30
0.0
 10
12.0897513071
 20
7.5536726421
 30
0.0
 10
12.0885208899
 20
7.5673503319
 30
0.0
 10
12.0882457611
 20
7.5764843199
 30
0.0
 10
12.0882457611
 20
7.5810406932
 30
0.0
  0
SPLINE
  5
3A9
100
AcDbEntity
  8
0
100
AcDbSpline
 62
7
  6
CONTINUOUS
 70
0
 71
3
 72
23
 73
19
 74
0
 42
0.0000001
 43
0.0000001
 44
0.0000000001
 40
0.0
 40
0.0
 40
0.0
 40
0.0
 40
0.0616994054
 40
0.123425173
 40
0.1851973419
 40
0.2470354963
 40
0.3089585756
 40
0.3709846895
 40
0.4331309438
 40
0.4954132797
 40
0.5578463266
 40
0.6204432961
 40
0.6832158129
 40
0.7461738643
 40
0.8093259312
 40
0.8726775518
 40
0.9362359205
 40
1.0
 40
1.0
 40
1.0
 40
1.0
 10
11.8605018931
 20
7.7377413231
 30
0.0
 10
11.8559311548
 20
7.7331915896
 30
0.0
 10
11.8470159824
 20
7.7238575045
 30
0.0
 10
11.8343641633
 20
7.7091959663
 30
0.0
 10
11.822458262
 20
7.6939034959
 30
0.0
 10
11.8113251901
 20
7.6780145562
 30
0.0
 10
11.8009895523
 20
7.6615643577
 30
0.0
 10
11.7914743398
 20
7.6445895063
 30
0.0
 10
11.7828006867
 20
7.6271277264
 30
0.0
 10
11.7749878357
 20
7.6092178488
 30
0.0
 10
11.7680531022
 20
7.5908996923
 30
0.0
 10
11.7620118628
 20
7.5722139723
 30
0.0
 10
11.7568775085
 20
7.5532022191
 30
0.0
 10
11.75266141
 20
7.5339066471
 30
0.0
 10
11.74937294
 20
7.5143702417
 30
0.0
 10
11.747019204
 20
7.4946360773
 30
0.0
 10
11.7456056125
 20
7.4747487753
 30
0.0
 10
11.7452924093
 20
7.4614381496
 30
0.0
 10
11.7452924093
 20
7.4547731739
 30
0.0
  0
SPLINE
  5
3AA
100
AcDbEntity
  8
0
100
AcDbSpline
 62
7
  6
CONTINUOUS
 70
0
 71
3
 72
21
 73
17
 74
0
 42
0.0000001
 43
0.0000001
 44
0.0000000001
 40
0.0
 40
0.0
 40
0.0
 40
0.0
 40
0.0617147807
 40
0.1234506636
 40
0.1852285506
 40
0.2470689066
 40
0.3089915473
 40
0.3710154718
 40
0.4331586568
 40
0.495437856
 40
0.5578685007
 40
0.6204644957
 40
0.6832380523
 40
0.7462000242
 40
0.8726823632
 40
1.0
 40
1.0
 40
1.0
 40
1.0
 10
12.0147989092
 20
7.601823631
 30
0.0
 10
12.0122755841
 20
7.5993862862
 30
0.0
 10
12.0073526018
 20
7.5943799117
 30
0.0
 10
12.000362773
 20
7.58649915
 30
0.0
 10
11.9937822969
 20
7.5782639954
 30
0.0
 10
11.9876266585
 20
7.5696936641
 30
0.0
 10
11.9819099453
 20
7.5608078872
 30
0.0
 10
11.9766453246
 20
7.5516271957
 30
0.0
 10
11.9718449684
 20
7.5421727344
 30
0.0
 10
11.9675199188
 20
7.5324663291
 30
0.0
 10
11.9636800892
 20
7.5225303643
 30
0.0
 10
11.9603343611
 20
7.5123878123
 30
0.0
 10
11.9574904006
 20
7.5020617839
 30
0.0
 10
11.9543718391
 20
7.4880622944
 30
0.0
 10
11.9517626498
 20
7.4702151947
 30
0.0
 10
11.9510717804
 20
7.4557783173
 30
0.0
 10
11.9510717804
 20
7.4485407947
 30
0.0
  0
SPLINE
  5
3AB
100
AcDbEntity
  8
0
100
AcDbSpline
 62
7
  6
CONTINUOUS
 70
0
 71
3
 72
11
 73
7
 74
0
 42
0.0000001
 43
0.0000001
 44
0.0000000001
 40
0.0
 40
0.0
 40
0.0
 40
0.0
 40
0.2480712672
 40
0.497376656
 40
0.7480001115
 40
1.0
 40
1.0
 40
1.0
 40
1.0
 10
12.0996146768
 20
7.6511892723
 30
0.0
 10
12.0977319841
 20
7.6455970959
 30
0.0
 10
12.0944212744
 20
7.6342227573
 30
0.0
 10
12.0908625407
 20
7.6167710478
 30
0.0
 10
12.0887197605
 20
7.598995644
 30
0.0
 10
12.0882457611
 20
7.5870347294
 30
0.0
 10
12.0882457611
 20
7.5810406932
 30
0.0
  0
SPLINE
  5
3AC
100
AcDbEntity
  8
0
100
AcDbSpline
 62
7
  6
CONTINUOUS
 70
0
 71
3
 72
39
 73
35
 74
0
 42
0.0000001
 43
0.0000001
 44
0.0000000001
 40
0.0
 40
0.0
 40
0.0
 40
0.0
 40
0.0300579558
 40
0.0602193904
 40
0.0904942947
 40
0.1208907733
 40
0.1514149342
 40
0.1820708144
 40
0.2128603419
 40
0.2437833319
 40
0.2748375169
 40
0.306018608
 40
0.3373203846
 40
0.3687348101
 40
0.4002521715
 40
0.431861239
 40
0.4635494439
 40
0.495303072
 40
0.5271074678
 40
0.5589472494
 40
0.5908065305
 40
0.6226691474
 40
0.6545188886
 40
0.6863397253
 40
0.7181160398
 40
0.7498328507
 40
0.7814760317
 40
0.8130325172
 40
0.844490517
 40
0.8758396365
 40
0.907071254
 40
0.9381780525
 40
0.9691556946
 40
1.0
 40
1.0
 40
1.0
 40
1.0
 10
12.4029867546
 20
7.3864981801
 30
0.0
 10
12.3992659029
 20
7.3850186622
 30
0.0
 10
12.3917110941
 20
7.3823000839
 30
0.0
 10
12.3801168931
 20
7.3789681273
 30
0.0
 10
12.3682860238
 20
7.3763876668
 30
0.0
 10
12.3562657293
 20
7.374569053
 30
0.0
 10
12.3441031733
 20
7.3735192908
 30
0.0
 10
12.3318462808
 20
7.3732424486
 30
0.0
 10
12.3195432734
 20
7.3737395286
 30
0.0
 10
12.3072425544
 20
7.3750084977
 30
0.0
 10
12.2949925001
 20
7.377044289
 30
0.0
 10
12.2828412768
 20
7.3798388269
 30
0.0
 10
12.2708366513
 20
7.3833810593
 30
0.0
 10
12.2590258062
 20
7.3876570027
 30
0.0
 10
12.247455156
 20
7.3926497988
 30
0.0
 10
12.2361701652
 20
7.3983397763
 30
0.0
 10
12.2252151715
 20
7.404704532
 30
0.0
 10
12.2146332137
 20
7.4117190203
 30
0.0
 10
12.204465865
 20
7.4193556505
 30
0.0
 10
12.1947530703
 20
7.4275843953
 30
0.0
 10
12.1855329916
 20
7.4363729078
 30
0.0
 10
12.1768418586
 20
7.445686648
 30
0.0
 10
12.168713828
 20
7.455489017
 30
0.0
 10
12.1611808502
 20
7.4657414999
 30
0.0
 10
12.1542725448
 20
7.476403816
 30
0.0
 10
12.1480160802
 20
7.4874340733
 30
0.0
 10
12.1424360721
 20
7.4987889344
 30
0.0
 10
12.1375544821
 20
7.5104237867
 30
0.0
 10
12.1333905479
 20
7.5222929088
 30
0.0
 10
12.1299606644
 20
7.5343496786
 30
0.0
 10
12.1272784193
 20
7.5465466405
 30
0.0
 10
12.1253543371
 20
7.5588360806
 30
0.0
 10
12.1241961691
 20
7.5711689679
 30
0.0
 10
12.1239371213
 20
7.5794069355
 30
0.0
 10
12.1239371213
 20
7.5835159018
 30
0.0
  0
SPLINE
  5
3AD
100
AcDbEntity
  8
0
100
AcDbSpline
 62
7
  6
CONTINUOUS
 70
0
 71
3
 72
62
 73
58
 74
0
 42
0.0000001
 43
0.0000001
 44
0.0000000001
 40
0.0
 40
0.0
 40
0.0
 40
0.0
 40
0.0156383408
 40
0.0313304367
 40
0.0470739044
 40
0.0628684794
 40
0.0787121704
 40
0.0946027891
 40
0.110537765
 40
0.1265140644
 40
0.1585680599
 40
0.1907425832
 40
0.2230023648
 40
0.2553091496
 40
0.2876230413
 40
0.3199039009
 40
0.3521127346
 40
0.3842130698
 40
0.4161722562
 40
0.4320944935
 40
0.4479715764
 40
0.4638010188
 40
0.4795807717
 40
0.4953092444
 40
0.5109853289
 40
0.5266084158
 40
0.5421784003
 40
0.5576956876
 40
0.5731612009
 40
0.5885763749
 40
0.6039431425
 40
0.6192639221
 40
0.6345416023
 40
0.649779513
 40
0.6649813918
 40
0.6801513512
 40
0.6952938404
 40
0.7104135982
 40
0.7255156013
 40
0.740605016
 40
0.7556871445
 40
0.7707673671
 40
0.7858510823
 40
0.8009436511
 40
0.8160503423
 40
0.8311762742
 40
0.8463263582
 40
0.8615052506
 40
0.8767173064
 40
0.8919665348
 40
0.9072565603
 40
0.9225905639
 40
0.9379713399
 40
0.953401164
 40
0.9688815572
 40
0.9844147864
 40
1.0
 40
1.0
 40
1.0
 40
1.0
 10
12.4262701572
 20
7.4075472067
 30
0.0
 10
12.4262701572
 20
7.4117421213
 30
0.0
 10
12.4260634387
 20
7.4201477977
 30
0.0
 10
12.4251378868
 20
7.4327459292
 30
0.0
 10
12.423598358
 20
7.4453263401
 30
0.0
 10
12.421448789
 20
7.4578581069
 30
0.0
 10
12.4186942343
 20
7.4703113605
 30
0.0
 10
12.415341455
 20
7.4826559515
 30
0.0
 10
12.4113983978
 20
7.4948625001
 30
0.0
 10
12.4053612926
 20
7.5109292874
 30
0.0
 10
12.3963856098
 20
7.5305195378
 30
0.0
 10
12.3834548088
 20
7.5529819655
 30
0.0
 10
12.3684737418
 20
7.5742163531
 30
0.0
 10
12.3515869617
 20
7.5940175647
 30
0.0
 10
12.3329564673
 20
7.6121959685
 30
0.0
 10
12.3127612029
 20
7.6285768821
 30
0.0
 10
12.2911945448
 20
7.643003097
 30
0.0
 10
12.2684648115
 20
7.6553353078
 30
0.0
 10
12.2487049752
 20
7.6637809144
 30
0.0
 10
12.2325379807
 20
7.6693771436
 30
0.0
 10
12.2202756804
 20
7.6729820788
 30
0.0
 10
12.2078931003
 20
7.6759903521
 30
0.0
 10
12.1954197244
 20
7.6783948443
 30
0.0
 10
12.1828856667
 20
7.6801896609
 30
0.0
 10
12.1703210929
 20
7.6813704912
 30
0.0
 10
12.1577562685
 20
7.6819344751
 30
0.0
 10
12.1452214542
 20
7.6818802095
 30
0.0
 10
12.1327468498
 20
7.6812077643
 30
0.0
 10
12.1203625109
 20
7.6799187661
 30
0.0
 10
12.1080982777
 20
7.6780162967
 30
0.0
 10
12.0959837128
 20
7.6755048842
 30
0.0
 10
12.0840480249
 20
7.6723905392
 30
0.0
 10
12.0723199817
 20
7.6686807751
 30
0.0
 10
12.0608278604
 20
7.6643845083
 30
0.0
 10
12.0495993893
 20
7.6595120391
 30
0.0
 10
12.0386616508
 20
7.654075102
 30
0.0
 10
12.0280410156
 20
7.6480868142
 30
0.0
 10
12.0177631053
 20
7.6415615948
 30
0.0
 10
12.0078527379
 20
7.634515136
 30
0.0
 10
11.998333809
 20
7.6269644474
 30
0.0
 10
11.9892292697
 20
7.6189277486
 30
0.0
 10
11.9805610902
 20
7.6104244103
 30
0.0
 10
11.9723502033
 20
7.6014749209
 30
0.0
 10
11.9646163841
 20
7.592100897
 30
0.0
 10
11.9573782706
 20
7.5823249577
 30
0.0
 10
11.9506533287
 20
7.572170673
 30
0.0
 10
11.94445778
 20
7.5616625331
 30
0.0
 10
11.9388065168
 20
7.5508259086
 30
0.0
 10
11.9337131425
 20
7.5396869385
 30
0.0
 10
11.9291899446
 20
7.5282724751
 30
0.0
 10
11.9252478069
 20
7.5166100518
 30
0.0
 10
11.9218961628
 20
7.5047277998
 30
0.0
 10
11.9191430766
 20
7.4926543465
 30
0.0
 10
11.9169952153
 20
7.4804188768
 30
0.0
 10
11.9154575859
 20
7.4680506018
 30
0.0
 10
11.9145340637
 20
7.4555799433
 30
0.0
 10
11.914329439
 20
7.4472310796
 30
0.0
 10
11.914329439
 20
7.4430504161
 30
0.0
  0
SPLINE
  5
3AE
100
AcDbEntity
  8
0
100
AcDbSpline
 62
7
  6
CONTINUOUS
 70
0
 71
3
 72
19
 73
15
 74
0
 42
0.0000001
 43
0.0000001
 44
0.0000000001
 40
0.0
 40
0.0
 40
0.0
 40
0.0
 40
0.1504602541
 40
0.2916987487
 40
0.4244197399
 40
0.4878838165
 40
0.5495801819
 40
0.6682271511
 40
0.7255606398
 40
0.7817998923
 40
0.8371467013
 40
0.8918136246
 40
0.9460221895
 40
1.0
 40
1.0
 40
1.0
 40
1.0
 10
12.864099842
 20
7.7385960184
 30
0.0
 10
12.862573217
 20
7.7371214118
 30
0.0
 10
12.8595220486
 20
7.7343546228
 30
0.0
 10
12.854797621
 20
7.7306675404
 30
0.0
 10
12.8508070806
 20
7.7280598396
 30
0.0
 10
12.8476248956
 20
7.7262939721
 30
0.0
 10
12.844536583
 20
7.7247779543
 30
0.0
 10
12.8414121177
 20
7.7235387308
 30
0.0
 10
12.8382700694
 20
7.7226062098
 30
0.0
 10
12.8359469221
 20
7.7220687121
 30
0.0
 10
12.833631513
 20
7.7216855923
 30
0.0
 10
12.8313244478
 20
7.7214570582
 30
0.0
 10
12.8290266596
 20
7.7213832213
 30
0.0
 10
12.8275000756
 20
7.7214372121
 30
0.0
 10
12.8267404466
 20
7.7214898882
 30
0.0
  0
SPLINE
  5
3AF
100
AcDbEntity
  8
0
100
AcDbSpline
 62
7
  6
CONTINUOUS
 70
0
 71
3
 72
83
 73
79
 74
0
 42
0.0000001
 43
0.0000001
 44
0.0000000001
 40
0.0
 40
0.0
 40
0.0
 40
0.0
 40
0.0039884097
 40
0.0081453951
 40
0.0124746186
 40
0.0169791614
 40
0.0216616097
 40
0.0265239718
 40
0.0315675691
 40
0.0367932644
 40
0.042201484
 40
0.0477922575
 40
0.0535653099
 40
0.0595199779
 40
0.0719697837
 40
0.0851316862
 40
0.098991495
 40
0.1135318501
 40
0.1287326108
 40
0.1445711562
 40
0.1610226585
 40
0.1780603021
 40
0.1956554688
 40
0.2137778955
 40
0.232395813
 40
0.2514760916
 40
0.2709843678
 40
0.29088516
 40
0.3111419767
 40
0.3317174197
 40
0.3525732979
 40
0.3736707312
 40
0.4164311769
 40
0.4596784221
 40
0.5030866968
 40
0.5463286871
 40
0.589078675
 40
0.6101689609
 40
0.6310164291
 40
0.6515822205
 40
0.6718281726
 40
0.6917169195
 40
0.7112119951
 40
0.730277944
 40
0.7488804433
 40
0.7669864122
 40
0.7845641338
 40
0.8015833871
 40
0.8180155988
 40
0.8338340188
 40
0.8490138961
 40
0.8635326921
 40
0.8773703389
 40
0.8905095606
 40
0.9029362808
 40
0.9146401102
 40
0.9202191733
 40
0.9256156542
 40
0.9308296162
 40
0.9358615409
 40
0.9407122971
 40
0.9453833039
 40
0.9498764865
 40
0.9541944013
 40
0.9583403271
 40
0.9623182846
 40
0.9661332455
 40
0.9697911516
 40
0.9732990923
 40
0.9766654451
 40
0.9798999492
 40
0.9830139088
 40
0.9860202118
 40
0.9889334125
 40
0.991769705
 40
0.9945467681
 40
0.997283572
 40
1.0
 40
1.0
 40
1.0
 40
1.0
 10
12.864099842
 20
7.7385960184
 30
0.0
 10
12.8651667307
 20
7.7396265539
 30
0.0
 10
12.8672993423
 20
7.741779508
 30
0.0
 10
12.8704313804
 20
7.7452035912
 30
0.0
 10
12.873560111
 20
7.748886401
 30
0.0
 10
12.8766838299
 20
7.7528259382
 30
0.0
 10
12.8798011005
 20
7.7570202612
 30
0.0
 10
12.8829103862
 20
7.7614673587
 30
0.0
 10
12.8860102242
 20
7.7661650143
 30
0.0
 10
12.8890990309
 20
7.7711109092
 30
0.0
 10
12.8921752677
 20
7.7763025764
 30
0.0
 10
12.8952374287
 20
7.7817374179
 30
0.0
 10
12.8982839633
 20
7.7874127538
 30
0.0
 10
12.9023841347
 20
7.7954158836
 30
0.0
 10
12.9074495293
 20
7.8060095025
 30
0.0
 10
12.9133549807
 20
7.8194514431
 30
0.0
 10
12.9191623708
 20
7.8337784539
 30
0.0
 10
12.9248599868
 20
7.848961872
 30
0.0
 10
12.9304363294
 20
7.8649714686
 30
0.0
 10
12.935880139
 20
7.8817752251
 30
0.0
 10
12.9411804163
 20
7.8993395022
 30
0.0
 10
12.9463264491
 20
7.9176290975
 30
0.0
 10
12.9513078362
 20
7.9366073293
 30
0.0
 10
12.9561145081
 20
7.9562361075
 30
0.0
 10
12.9607367602
 20
7.9764760119
 30
0.0
 10
12.965165259
 20
7.9972863801
 30
0.0
 10
12.9693910636
 20
8.0186253961
 30
0.0
 10
12.9734056417
 20
8.0404501737
 30
0.0
 10
12.9772008901
 20
8.062716844
 30
0.0
 10
12.9807691487
 20
8.085380629
 30
0.0
 10
12.9841032525
 20
8.1083959904
 30
0.0
 10
12.9882458201
 20
8.1396288962
 30
0.0
 10
12.9927850477
 20
8.1792066961
 30
0.0
 10
12.997181348
 20
8.2271404236
 30
0.0
 10
13.0005152739
 20
8.2753394084
 30
0.0
 10
13.0027599925
 20
8.3234161025
 30
0.0
 10
13.0037124703
 20
8.3632334675
 30
0.0
 10
13.0039087773
 20
8.3947296135
 30
0.0
 10
13.0037745313
 20
8.4179754548
 30
0.0
 10
13.003359858
 20
8.4409039128
 30
0.0
 10
13.0026655897
 20
8.4634689216
 30
0.0
 10
13.0016931551
 20
8.4856251017
 30
0.0
 10
13.0004445358
 20
8.5073279103
 30
0.0
 10
12.9989222735
 20
8.5285337204
 30
0.0
 10
12.9971294741
 20
8.5491999166
 30
0.0
 10
12.99506979
 20
8.5692849803
 30
0.0
 10
12.9927474145
 20
8.588748571
 30
0.0
 10
12.9901670725
 20
8.6075516101
 30
0.0
 10
12.9873340116
 20
8.6256563686
 30
0.0
 10
12.984254004
 20
8.6430265533
 30
0.0
 10
12.9809333195
 20
8.6596273812
 30
0.0
 10
12.9773787127
 20
8.6754256621
 30
0.0
 10
12.9735974039
 20
8.6903898468
 30
0.0
 10
12.9695970544
 20
8.7044902202
 30
0.0
 10
12.9653857531
 20
8.7176986239
 30
0.0
 10
12.9616503676
 20
8.728100596
 30
0.0
 10
12.9585532017
 20
8.735946655
 30
0.0
 10
12.9562200158
 20
8.7414978101
 30
0.0
 10
12.9538405512
 20
8.7468070937
 30
0.0
 10
12.9514160028
 20
8.7518718924
 30
0.0
 10
12.9489475148
 20
8.7566896711
 30
0.0
 10
12.946436353
 20
8.7612580676
 30
0.0
 10
12.9438837133
 20
8.7655748178
 30
0.0
 10
12.9412908157
 20
8.7696377865
 30
0.0
 10
12.9386589434
 20
8.7734450012
 30
0.0
 10
12.9359892649
 20
8.7769945475
 30
0.0
 10
12.9332830742
 20
8.7802847087
 30
0.0
 10
12.9305415659
 20
8.7833138278
 30
0.0
 10
12.9277659463
 20
8.7860803545
 30
0.0
 10
12.9249574741
 20
8.7885828923
 30
0.0
 10
12.9221172939
 20
8.7908200048
 30
0.0
 10
12.9192466935
 20
8.7927904519
 30
0.0
 10
12.9163469144
 20
8.794492949
 30
0.0
 10
12.9134192948
 20
8.7959262724
 30
0.0
 10
12.9104653589
 20
8.7970893596
 30
0.0
 10
12.9074865993
 20
8.7979810872
 30
0.0
 10
12.9044851673
 20
8.7986006742
 30
0.0
 10
12.9024670813
 20
8.7988322146
 30
0.0
 10
12.9014592374
 20
8.7989021029
 30
0.0
  0
SPLINE
  5
3B0
100
AcDbEntity
  8
0
100
AcDbSpline
 62
7
  6
CONTINUOUS
 70
0
 71
3
 72
13
 73
9
 74
0
 42
0.0000001
 43
0.0000001
 44
0.0000000001
 40
0.0
 40
0.0
 40
0.0
 40
0.0
 40
0.2524265341
 40
0.5031222414
 40
0.6278958685
 40
0.7522832234
 40
0.8763087221
 40
1.0
 40
1.0
 40
1.0
 40
1.0
 10
12.1239371213
 20
7.5835159018
 30
0.0
 10
12.1239371213
 20
7.5900625577
 30
0.0
 10
12.124591483
 20
7.6031202382
 30
0.0
 10
12.1270633166
 20
7.6192462493
 30
0.0
 10
12.1300162809
 20
7.6318742757
 30
0.0
 10
12.1327081452
 20
7.6411757555
 30
0.0
 10
12.1358733639
 20
7.6502968086
 30
0.0
 10
12.1382972559
 20
7.6562503385
 30
0.0
 10
12.1395851022
 20
7.6591884
 30
0.0
  0
SPLINE
  5
3B1
100
AcDbEntity
  8
0
100
AcDbSpline
 62
7
  6
CONTINUOUS
 70
0
 71
3
 72
23
 73
19
 74
0
 42
0.0000001
 43
0.0000001
 44
0.0000000001
 40
0.0
 40
0.0
 40
0.0
 40
0.0
 40
0.0629657739
 40
0.1260161153
 40
0.1891190514
 40
0.2522404076
 40
0.3153464406
 40
0.3784034144
 40
0.4413783868
 40
0.5042396384
 40
0.5669571726
 40
0.6295031814
 40
0.6918524852
 40
0.7539829595
 40
0.8158758422
 40
0.8775163373
 40
0.9388929955
 40
1.0
 40
1.0
 40
1.0
 40
1.0
 10
9.614010836
 20
8.0325803504
 30
0.0
 10
9.6054569982
 20
8.0382941189
 30
0.0
 10
9.5886799379
 20
8.0502511729
 30
0.0
 10
9.5646332782
 20
8.0696787861
 30
0.0
 10
9.5417794532
 20
8.0905358772
 30
0.0
 10
9.5202144756
 20
8.1127352053
 30
0.0
 10
9.5000274793
 20
8.1361848276
 30
0.0
 10
9.4813023046
 20
8.160787459
 30
0.0
 10
9.4641166328
 20
8.1864410748
 30
0.0
 10
9.4485418142
 20
8.2130392899
 30
0.0
 10
9.4346425301
 20
8.2404718034
 30
0.0
 10
9.4224765309
 20
8.2686248495
 30
0.0
 10
9.412094396
 20
8.2973816572
 30
0.0
 10
9.4035393419
 20
8.3266229763
 30
0.0
 10
9.3968469915
 20
8.3562273981
 30
0.0
 10
9.3920453484
 20
8.3860724784
 30
0.0
 10
9.3891544323
 20
8.4160327796
 30
0.0
 10
9.3885077482
 20
8.4360486409
 30
0.0
 10
9.3885077482
 20
8.4460316316
 30
0.0
  0
SPLINE
  5
3B2
100
AcDbEntity
  8
0
100
AcDbSpline
 62
7
  6
CONTINUOUS
 70
0
 71
3
 72
25
 73
21
 74
0
 42
0.0000001
 43
0.0000001
 44
0.0000000001
 40
0.0
 40
0.0
 40
0.0
 40
0.0
 40
0.06377716
 40
0.127343222
 40
0.190700148
 40
0.2538535537
 40
0.3168099705
 40
0.3795782475
 40
0.4421688972
 40
0.5045942157
 40
0.5668681101
 40
0.629005993
 40
0.6910246336
 40
0.7219973337
 40
0.7529470518
 40
0.8147821333
 40
0.8765547559
 40
0.9074265679
 40
0.9382904805
 40
1.0
 40
1.0
 40
1.0
 40
1.0
 10
8.9592847633
 20
8.2464340406
 30
0.0
 10
8.9592847633
 20
8.2571571691
 30
0.0
 10
8.9597979673
 20
8.278571569
 30
0.0
 10
8.9621145841
 20
8.310563002
 30
0.0
 10
8.9659715666
 20
8.3423007099
 30
0.0
 10
8.9713599925
 20
8.3737104938
 30
0.0
 10
8.978267595
 20
8.4047202895
 30
0.0
 10
8.9866784775
 20
8.4352585073
 30
0.0
 10
8.9965733471
 20
8.4652547751
 30
0.0
 10
9.0079294287
 20
8.4946398826
 30
0.0
 10
9.0207206776
 20
8.5233461786
 30
0.0
 10
9.0349173794
 20
8.5513070127
 30
0.0
 10
9.0478984448
 20
8.5739439637
 30
0.0
 10
9.0589502468
 20
8.5916129268
 30
0.0
 10
9.0704327277
 20
8.6089681335
 30
0.0
 10
9.0855994314
 20
8.6300843043
 30
0.0
 10
9.1018209163
 20
8.6503846562
 30
0.0
 10
9.1154010787
 20
8.6660974715
 30
0.0
 10
9.1293730718
 20
8.6814479267
 30
0.0
 10
9.1402925763
 20
8.6925523475
 30
0.0
 10
9.1477551999
 20
8.6997606749
 30
0.0
  0
SPLINE
  5
3B3
100
AcDbEntity
  8
0
100
AcDbSpline
 62
7
  6
CONTINUOUS
 70
0
 71
3
 72
95
 73
91
 74
0
 42
0.0000001
 43
0.0000001
 44
0.0000000001
 40
0.0
 40
0.0
 40
0.0
 40
0.0
 40
0.0039488186
 40
0.0077209214
 40
0.0113256445
 40
0.0147745623
 40
0.0212567379
 40
0.0243282751
 40
0.0273113629
 40
0.0302282336
 40
0.0331028199
 40
0.0359602143
 40
0.0388260038
 40
0.0417255309
 40
0.0446832014
 40
0.0477218699
 40
0.0508624604
 40
0.054123679
 40
0.0575219936
 40
0.0610716364
 40
0.0647847726
 40
0.0686716672
 40
0.0727408686
 40
0.0769994465
 40
0.0814531065
 40
0.0861064471
 40
0.0909629987
 40
0.0960254618
 40
0.1012957099
 40
0.1067749705
 40
0.1124638402
 40
0.1183623842
 40
0.1244701939
 40
0.1307863998
 40
0.1373097798
 40
0.1440387018
 40
0.1509712635
 40
0.165437612
 40
0.1806882179
 40
0.1966981085
 40
0.213438923
 40
0.2308792972
 40
0.2489851807
 40
0.267720107
 40
0.2870454315
 40
0.3069205425
 40
0.3273030537
 40
0.3481489841
 40
0.3694129279
 40
0.3910482169
 40
0.4130070784
 40
0.4352407884
 40
0.4576998231
 40
0.4803340076
 40
0.5030926647
 40
0.5259247619
 40
0.5487790575
 40
0.5716042467
 40
0.5943491077
 40
0.6169626475
 40
0.6393942481
 40
0.6615938139
 40
0.6835119196
 40
0.7050999601
 40
0.7263103021
 40
0.7470964384
 40
0.7674131453
 40
0.7872166469
 40
0.8064647855
 40
0.8251172028
 40
0.8431355353
 40
0.8604836278
 40
0.8771277739
 40
0.893036993
 40
0.9081833566
 40
0.9225423822
 40
0.9294203032
 40
0.9360940384
 40
0.9425617647
 40
0.9488219437
 40
0.9548734598
 40
0.9607155432
 40
0.9663479326
 40
0.9717708198
 40
0.9769849626
 40
0.9819917154
 40
0.9867932039
 40
0.9913924565
 40
0.9957932256
 40
1.0
 40
1.0
 40
1.0
 40
1.0
 10
12.9254591415
 20
8.838925957
 30
0.0
 10
12.9267011382
 20
8.840081832
 30
0.0
 10
12.9291840767
 20
8.8422844013
 30
0.0
 10
12.9329937457
 20
8.8453156732
 30
0.0
 10
12.9367999774
 20
8.8479950869
 30
0.0
 10
12.9417625033
 20
8.8510322516
 30
0.0
 10
12.9468255713
 20
8.8534544254
 30
0.0
 10
12.9519422523
 20
8.8551559402
 30
0.0
 10
12.9556974593
 20
8.8560494008
 30
0.0
 10
12.9594354071
 20
8.8565812489
 30
0.0
 10
12.9631534422
 20
8.856750689
 30
0.0
 10
12.9668484295
 20
8.856557276
 30
0.0
 10
12.970517216
 20
8.8560010638
 30
0.0
 10
12.9741567573
 20
8.8550828407
 30
0.0
 10
12.9777641981
 20
8.8538036535
 30
0.0
 10
12.9813370793
 20
8.8521651453
 30
0.0
 10
12.9848731369
 20
8.8501689096
 30
0.0
 10
12.9883704674
 20
8.8478168744
 30
0.0
 10
12.99182721
 20
8.8451108423
 30
0.0
 10
12.9952416771
 20
8.8420528003
 30
0.0
 10
12.9986121533
 20
8.8386447388
 30
0.0
 10
13.0019369277
 20
8.8348887763
 30
0.0
 10
13.0052143114
 20
8.8307871905
 30
0.0
 10
13.0084425072
 20
8.8263423673
 30
0.0
 10
13.0116198282
 20
8.8215569461
 30
0.0
 10
13.0147444243
 20
8.8164336761
 30
0.0
 10
13.0178146103
 20
8.810975586
 30
0.0
 10
13.0208285458
 20
8.8051858358
 30
0.0
 10
13.0237845458
 20
8.7990678458
 30
0.0
 10
13.0266808339
 20
8.7926251985
 30
0.0
 10
13.0295157285
 20
8.7858617021
 30
0.0
 10
13.0322875484
 20
8.7787813527
 30
0.0
 10
13.0349946272
 20
8.7713883421
 30
0.0
 10
13.03763539
 20
8.7636870624
 30
0.0
 10
13.0402082014
 20
8.7556820856
 30
0.0
 10
13.0427116092
 20
8.7473781708
 30
0.0
 10
13.04600158
 20
8.7357487183
 30
0.0
 10
13.049916511
 20
8.7204935395
 30
0.0
 10
13.0542506111
 20
8.7013282103
 30
0.0
 10
13.0582745725
 20
8.681098198
 30
0.0
 10
13.0619786545
 20
8.6598517804
 30
0.0
 10
13.0653538594
 20
8.6376395076
 30
0.0
 10
13.0683919944
 20
8.6145143703
 30
0.0
 10
13.0710856831
 20
8.5905315704
 30
0.0
 10
13.0734283853
 20
8.5657484029
 30
0.0
 10
13.0754144121
 20
8.5402241029
 30
0.0
 10
13.0770389384
 20
8.5140197002
 30
0.0
 10
13.0782980141
 20
8.4871978683
 30
0.0
 10
13.0791885722
 20
8.459822771
 30
0.0
 10
13.0797084358
 20
8.4319599064
 30
0.0
 10
13.0798563223
 20
8.4036759479
 30
0.0
 10
13.079631846
 20
8.3750385832
 30
0.0
 10
13.0790355184
 20
8.3461163507
 30
0.0
 10
13.078068748
 20
8.3169784748
 30
0.0
 10
13.076733835
 20
8.2876946981
 30
0.0
 10
13.0750339656
 20
8.2583351139
 30
0.0
 10
13.0729732045
 20
8.2289699975
 30
0.0
 10
13.0705564846
 20
8.1996696375
 30
0.0
 10
13.0677895957
 20
8.1705041663
 30
0.0
 10
13.06467917
 20
8.1415433925
 30
0.0
 10
13.061232667
 20
8.1128566323
 30
0.0
 10
13.0574583553
 20
8.0845125431
 30
0.0
 10
13.0533652931
 20
8.0565789579
 30
0.0
 10
13.048963308
 20
8.0291227209
 30
0.0
 10
13.0442629727
 20
8.0022095262
 30
0.0
 10
13.0392755801
 20
7.975903759
 30
0.0
 10
13.0340131166
 20
7.950268339
 30
0.0
 10
13.028488234
 20
7.9253645674
 30
0.0
 10
13.0227142191
 20
7.9012519766
 30
0.0
 10
13.0167049626
 20
7.8779881824
 30
0.0
 10
13.0104749257
 20
7.8556287422
 30
0.0
 10
13.0040391043
 20
7.8342270064
 30
0.0
 10
12.9974129914
 20
7.8138340059
 30
0.0
 10
12.9906125347
 20
7.7944982228
 30
0.0
 10
12.9836540982
 20
7.7762657745
 30
0.0
 10
12.9776547491
 20
7.7618273802
 30
0.0
 10
12.972779097
 20
7.7508706539
 30
0.0
 10
12.9691457837
 20
7.7430736661
 30
0.0
 10
12.9654855803
 20
7.7355835662
 30
0.0
 10
12.9618005818
 20
7.7284048194
 30
0.0
 10
12.95809306
 20
7.7215416709
 30
0.0
 10
12.9543651544
 20
7.7149982106
 30
0.0
 10
12.9506191301
 20
7.7087782884
 30
0.0
 10
12.9468571553
 20
7.7028855985
 30
0.0
 10
12.9430814848
 20
7.697323616
 30
0.0
 10
12.9392943309
 20
7.6920956058
 30
0.0
 10
12.9354978456
 20
7.6872046205
 30
0.0
 10
12.9316941613
 20
7.6826534483
 30
0.0
 10
12.9278856156
 20
7.6784450132
 30
0.0
 10
12.9252872833
 20
7.675811147
 30
0.0
 10
12.9239872468
 20
7.674555408
 30
0.0
  0
SPLINE
  5
3B4
100
AcDbEntity
  8
0
100
AcDbSpline
 62
7
  6
CONTINUOUS
 70
0
 71
3
 72
31
 73
27
 74
0
 42
0.0000001
 43
0.0000001
 44
0.0000000001
 40
0.0
 40
0.0
 40
0.0
 40
0.0
 40
0.0147868335
 40
0.0302988467
 40
0.0467032093
 40
0.0641342738
 40
0.0826959931
 40
0.102465023
 40
0.1234946721
 40
0.145818968
 40
0.1694550721
 40
0.1944071022
 40
0.2206667068
 40
0.2482168054
 40
0.2770311199
 40
0.3070772919
 40
0.3383163181
 40
0.37070463
 40
0.438731608
 40
0.5107405722
 40
0.5862739404
 40
0.6648535908
 40
0.745994595
 40
0.8292108754
 40
0.9140361183
 40
1.0
 40
1.0
 40
1.0
 40
1.0
 10
9.7389415558
 20
8.0266501942
 30
0.0
 10
9.7389415605
 20
8.0269532451
 30
0.0
 10
9.7389009831
 20
8.0275747435
 30
0.0
 10
9.7387272576
 20
8.0285178715
 30
0.0
 10
9.7384407235
 20
8.0294895232
 30
0.0
 10
9.7380429158
 20
8.030488402
 30
0.0
 10
9.7375353705
 20
8.0315135383
 30
0.0
 10
9.7369198069
 20
8.0325638918
 30
0.0
 10
9.7361981212
 20
8.0336384201
 30
0.0
 10
9.7353723605
 20
8.0347359837
 30
0.0
 10
9.7344448776
 20
8.0358554848
 30
0.0
 10
9.7334181318
 20
8.0369956822
 30
0.0
 10
9.7322949182
 20
8.0381554337
 30
0.0
 10
9.7310781115
 20
8.0393334372
 30
0.0
 10
9.7297708819
 20
8.0405285067
 30
0.0
 10
9.7283764788
 20
8.0417393224
 30
0.0
 10
9.7268983716
 20
8.0429646547
 30
0.0
 10
9.724785937
 20
8.0446435827
 30
0.0
 10
9.7219579636
 20
8.046763836
 30
0.0
 10
9.7183437712
 20
8.0493057139
 30
0.0
 10
9.7144861397
 20
8.0518746265
 30
0.0
 10
9.7104160881
 20
8.0544599874
 30
0.0
 10
9.7061642508
 20
8.0570511022
 30
0.0
 10
9.7017603846
 20
8.0596373223
 30
0.0
 10
9.6972333114
 20
8.0622077551
 30
0.0
 10
9.6941665579
 20
8.0638952563
 30
0.0
 10
9.6926177317
 20
8.064734943
 30
0.0
  0
SPLINE
  5
3B5
100
AcDbEntity
  8
0
100
AcDbSpline
 62
4
  6
CONTINUOUS
 70
0
 71
3
 72
359
 73
355
 74
0
 42
0.0000001
 43
0.0000001
 44
0.0000000001
 40
0.0
 40
0.0
 40
0.0
 40
0.0
 40
0.015625
 40
0.0234375
 40
0.03125
 40
0.0390625
 40
0.04296875
 40
0.046875
 40
0.05078125
 40
0.0546875
 40
0.056640625
 40
0.05859375
 40
0.0595703125
 40
0.060546875
 40
0.0615234375
 40
0.0620117188
 40
0.0625
 40
0.0629882812
 40
0.0634765625
 40
0.064453125
 40
0.0654296875
 40
0.06640625
 40
0.068359375
 40
0.0703125
 40
0.07421875
 40
0.078125
 40
0.08203125
 40
0.0859375
 40
0.09375
 40
0.1015625
 40
0.10546875
 40
0.109375
 40
0.11328125
 40
0.1171875
 40
0.119140625
 40
0.12109375
 40
0.1220703125
 40
0.123046875
 40
0.1240234375
 40
0.1245117188
 40
0.125
 40
0.1254882812
 40
0.1259765625
 40
0.126953125
 40
0.1279296875
 40
0.12890625
 40
0.130859375
 40
0.1328125
 40
0.13671875
 40
0.140625
 40
0.14453125
 40
0.1484375
 40
0.15625
 40
0.1640625
 40
0.16796875
 40
0.171875
 40
0.17578125
 40
0.1796875
 40
0.181640625
 40
0.18359375
 40
0.1845703125
 40
0.185546875
 40
0.1865234375
 40
0.1870117188
 40
0.1875
 40
0.1879882812
 40
0.1884765625
 40
0.189453125
 40
0.1904296875
 40
0.19140625
 40
0.193359375
 40
0.1953125
 40
0.19921875
 40
0.203125
 40
0.20703125
 40
0.2109375
 40
0.21875
 40
0.2265625
 40
0.23046875
 40
0.234375
 40
0.23828125
 40
0.2421875
 40
0.244140625
 40
0.24609375
 40
0.2470703125
 40
0.248046875
 40
0.2490234375
 40
0.2495117188
 40
0.25
 40
0.2504882812
 40
0.2509765625
 40
0.251953125
 40
0.2529296875
 40
0.25390625
 40
0.255859375
 40
0.2578125
 40
0.26171875
 40
0.265625
 40
0.26953125
 40
0.2734375
 40
0.28125
 40
0.2890625
 40
0.29296875
 40
0.296875
 40
0.30078125
 40
0.3046875
 40
0.306640625
 40
0.30859375
 40
0.3095703125
 40
0.310546875
 40
0.3115234375
 40
0.3120117188
 40
0.3125
 40
0.3129882812
 40
0.3134765625
 40
0.314453125
 40
0.3154296875
 40
0.31640625
 40
0.318359375
 40
0.3203125
 40
0.32421875
 40
0.328125
 40
0.33203125
 40
0.3359375
 40
0.34375
 40
0.3515625
 40
0.35546875
 40
0.359375
 40
0.36328125
 40
0.3671875
 40
0.369140625
 40
0.37109375
 40
0.3720703125
 40
0.373046875
 40
0.3740234375
 40
0.3745117188
 40
0.375
 40
0.3754882812
 40
0.3759765625
 40
0.376953125
 40
0.3779296875
 40
0.37890625
 40
0.380859375
 40
0.3828125
 40
0.38671875
 40
0.390625
 40
0.39453125
 40
0.3984375
 40
0.40625
 40
0.4140625
 40
0.41796875
 40
0.421875
 40
0.42578125
 40
0.4296875
 40
0.431640625
 40
0.43359375
 40
0.4345703125
 40
0.435546875
 40
0.4365234375
 40
0.4370117188
 40
0.4375
 40
0.4379882812
 40
0.4384765625
 40
0.439453125
 40
0.4404296875
 40
0.44140625
 40
0.443359375
 40
0.4453125
 40
0.44921875
 40
0.453125
 40
0.45703125
 40
0.4609375
 40
0.46875
 40
0.4765625
 40
0.48046875
 40
0.484375
 40
0.48828125
 40
0.4921875
 40
0.494140625
 40
0.49609375
 40
0.4970703125
 40
0.498046875
 40
0.4990234375
 40
0.4995117188
 40
0.5
 40
0.5004882812
 40
0.5009765625
 40
0.501953125
 40
0.5029296875
 40
0.50390625
 40
0.505859375
 40
0.5078125
 40
0.51171875
 40
0.515625
 40
0.51953125
 40
0.5234375
 40
0.53125
 40
0.5390625
 40
0.54296875
 40
0.546875
 40
0.55078125
 40
0.5546875
 40
0.556640625
 40
0.55859375
 40
0.560546875
 40
0.5615234375
 40
0.5620117188
 40
0.5625
 40
0.5629882812
 40
0.5634765625
 40
0.564453125
 40
0.56640625
 40
0.568359375
 40
0.5703125
 40
0.57421875
 40
0.578125
 40
0.58203125
 40
0.5859375
 40
0.59375
 40
0.6015625
 40
0.60546875
 40
0.609375
 40
0.61328125
 40
0.6171875
 40
0.619140625
 40
0.62109375
 40
0.623046875
 40
0.6240234375
 40
0.6245117188
 40
0.625
 40
0.6254882812
 40
0.6259765625
 40
0.626953125
 40
0.62890625
 40
0.630859375
 40
0.6328125
 40
0.63671875
 40
0.640625
 40
0.64453125
 40
0.6484375
 40
0.65625
 40
0.6640625
 40
0.66796875
 40
0.671875
 40
0.67578125
 40
0.6796875
 40
0.681640625
 40
0.68359375
 40
0.685546875
 40
0.6865234375
 40
0.6870117188
 40
0.6875
 40
0.6879882812
 40
0.6884765625
 40
0.689453125
 40
0.69140625
 40
0.693359375
 40
0.6953125
 40
0.69921875
 40
0.703125
 40
0.70703125
 40
0.7109375
 40
0.71875
 40
0.7265625
 40
0.73046875
 40
0.734375
 40
0.73828125
 40
0.7421875
 40
0.744140625
 40
0.74609375
 40
0.748046875
 40
0.7490234375
 40
0.7495117188
 40
0.75
 40
0.7504882812
 40
0.7509765625
 40
0.751953125
 40
0.75390625
 40
0.755859375
 40
0.7578125
 40
0.76171875
 40
0.765625
 40
0.76953125
 40
0.7734375
 40
0.78125
 40
0.7890625
 40
0.79296875
 40
0.796875
 40
0.80078125
 40
0.8046875
 40
0.806640625
 40
0.80859375
 40
0.810546875
 40
0.8115234375
 40
0.8120117188
 40
0.8125
 40
0.8129882812
 40
0.8134765625
 40
0.814453125
 40
0.81640625
 40
0.818359375
 40
0.8203125
 40
0.82421875
 40
0.828125
 40
0.83203125
 40
0.8359375
 40
0.84375
 40
0.8515625
 40
0.85546875
 40
0.859375
 40
0.86328125
 40
0.8671875
 40
0.869140625
 40
0.87109375
 40
0.873046875
 40
0.8740234375
 40
0.8745117188
 40
0.875
 40
0.8754882812
 40
0.8759765625
 40
0.876953125
 40
0.87890625
 40
0.880859375
 40
0.8828125
 40
0.88671875
 40
0.890625
 40
0.89453125
 40
0.8984375
 40
0.90625
 40
0.9140625
 40
0.91796875
 40
0.921875
 40
0.92578125
 40
0.9296875
 40
0.931640625
 40
0.93359375
 40
0.935546875
 40
0.9365234375
 40
0.9370117188
 40
0.9375
 40
0.9379882812
 40
0.9384765625
 40
0.939453125
 40
0.94140625
 40
0.943359375
 40
0.9453125
 40
0.94921875
 40
0.953125
 40
0.95703125
 40
0.9609375
 40
0.96875
 40
0.9765625
 40
0.984375
 40
1.0
 40
1.0
 40
1.0
 40
1.0
 10
11.2002328131
 20
8.3228459724
 30
0.0
 10
11.203366
 20
8.3229358968
 30
0.0
 10
11.2080657804
 20
8.3230707834
 30
0.0
 10
11.2143321542
 20
8.3232506323
 30
0.0
 10
11.2190319346
 20
8.3233855188
 30
0.0
 10
11.2229484182
 20
8.3234979247
 30
0.0
 10
11.2260816053
 20
8.3235878482
 30
0.0
 10
11.2284314949
 20
8.3236552944
 30
0.0
 10
11.2307813871
 20
8.3237227271
 30
0.0
 10
11.2327396226
 20
8.3237789627
 30
0.0
 10
11.2343062291
 20
8.323823858
 30
0.0
 10
11.2352853168
 20
8.3238521295
 30
0.0
 10
11.2360686817
 20
8.3238742614
 30
0.0
 10
11.2366559459
 20
8.3238921891
 30
0.0
 10
11.2371461583
 20
8.323902902
 30
0.0
 10
11.2375364766
 20
8.3239209522
 30
0.0
 10
11.2378342748
 20
8.3239085865
 30
0.0
 10
11.2381127608
 20
8.3239950941
 30
0.0
 10
11.2384908215
 20
8.3240758998
 30
0.0
 10
11.2389610828
 20
8.3241887567
 30
0.0
 10
11.239526387
 20
8.3243191129
 30
0.0
 10
11.24027978
 20
8.3244946927
 30
0.0
 10
11.2412216398
 20
8.3247135609
 30
0.0
 10
11.2427285491
 20
8.325064089
 30
0.0
 10
11.2446122085
 20
8.3255021328
 30
0.0
 10
11.2468725901
 20
8.3260278352
 30
0.0
 10
11.2491329742
 20
8.3265535243
 30
0.0
 10
11.2521468188
 20
8.3272544478
 30
0.0
 10
11.255914125
 20
8.3281306004
 30
0.0
 10
11.2596814308
 20
8.3290067542
 30
0.0
 10
11.2626952759
 20
8.3297076758
 30
0.0
 10
11.2649556584
 20
8.3302333704
 30
0.0
 10
11.2672160461
 20
8.3307590522
 30
0.0
 10
11.2690996865
 20
8.3311971602
 30
0.0
 10
11.2706066345
 20
8.3315475575
 30
0.0
 10
11.2715483959
 20
8.3317667585
 30
0.0
 10
11.2723019909
 20
8.3319416552
 30
0.0
 10
11.272866678
 20
8.3320740984
 30
0.0
 10
11.2733388703
 20
8.3321804256
 30
0.0
 10
11.2737129914
 20
8.332274553
 30
0.0
 10
11.2740035085
 20
8.3323203771
 30
0.0
 10
11.2742561368
 20
8.3324607541
 30
0.0
 10
11.2746062095
 20
8.3326148949
 30
0.0
 10
11.2750392596
 20
8.3328189029
 30
0.0
 10
11.2755608633
 20
8.333058862
 30
0.0
 10
11.2762556561
 20
8.3333805016
 30
0.0
 10
11.2771243795
 20
8.333781971
 30
0.0
 10
11.278514207
 20
8.3344246463
 30
0.0
 10
11.280251536
 20
8.3352278792
 30
0.0
 10
11.2823363117
 20
8.3361918063
 30
0.0
 10
11.2844210925
 20
8.3371557207
 30
0.0
 10
11.2872007984
 20
8.3384409444
 30
0.0
 10
11.2906754314
 20
8.3400474722
 30
0.0
 10
11.294150064
 20
8.3416540012
 30
0.0
 10
11.2969297707
 20
8.3429392231
 30
0.0
 10
11.2990145491
 20
8.3439031428
 30
0.0
 10
11.301099334
 20
8.34486705
 30
0.0
 10
11.3028366343
 20
8.345670345
 30
0.0
 10
11.3042265202
 20
8.3463128937
 30
0.0
 10
11.3050950949
 20
8.3467146852
 30
0.0
 10
11.305790193
 20
8.3470356638
 30
0.0
 10
11.3063108639
 20
8.3472776423
 30
0.0
 10
11.3067468325
 20
8.3474753319
 30
0.0
 10
11.3070909508
 20
8.3476423634
 30
0.0
 10
11.3073617637
 20
8.3477433731
 30
0.0
 10
11.3075840084
 20
8.3479369982
 30
0.0
 10
11.3078973002
 20
8.3481628133
 30
0.0
 10
11.3082830942
 20
8.3484561818
 30
0.0
 10
11.3087485384
 20
8.348803473
 30
0.0
 10
11.3093682606
 20
8.3492681874
 30
0.0
 10
11.3101432112
 20
8.3498485121
 30
0.0
 10
11.3113829656
 20
8.3507773493
 30
0.0
 10
11.3129327158
 20
8.3519382869
 30
0.0
 10
11.3147923915
 20
8.3533314586
 30
0.0
 10
11.3166520738
 20
8.3547246179
 30
0.0
 10
11.3191316479
 20
8.3565821679
 30
0.0
 10
11.3222311164
 20
8.3589041039
 30
0.0
 10
11.3253305842
 20
8.3612260408
 30
0.0
 10
11.3278101595
 20
8.3630835893
 30
0.0
 10
11.3296698382
 20
8.3644767532
 30
0.0
 10
11.3315295274
 20
8.3658699075
 30
0.0
 10
11.3330792357
 20
8.3670308992
 30
0.0
 10
11.3343190756
 20
8.367959626
 30
0.0
 10
11.3350938086
 20
8.3685402317
 30
0.0
 10
11.3357139773
 20
8.3690043695
 30
0.0
 10
11.3361780572
 20
8.3693534222
 30
0.0
 10
11.33656812
 20
8.3696412792
 30
0.0
 10
11.3368727026
 20
8.3698783388
 30
0.0
 10
11.3371215447
 20
8.3700376238
 30
0.0
 10
11.3372925002
 20
8.3702675605
 30
0.0
 10
11.3375476477
 20
8.3705494632
 30
0.0
 10
11.3378572475
 20
8.370910309
 30
0.0
 10
11.3382327628
 20
8.3713396996
 30
0.0
 10
11.3387320543
 20
8.3719134864
 30
0.0
 10
11.3393566465
 20
8.3726302864
 30
0.0
 10
11.340355727
 20
8.3737774086
 30
0.0
 10
11.3416046692
 20
8.3752112283
 30
0.0
 10
11.3431033606
 20
8.3769318475
 30
0.0
 10
11.3446020625
 20
8.3786524572
 30
0.0
 10
11.3466003281
 20
8.3809466068
 30
0.0
 10
11.3490981614
 20
8.3838142925
 30
0.0
 10
11.3515959937
 20
8.3866819791
 30
0.0
 10
11.3535942608
 20
8.3889761274
 30
0.0
 10
11.3550929581
 20
8.3906967408
 30
0.0
 10
11.3565916666
 20
8.392417346
 30
0.0
 10
11.3578405556
 20
8.3938512094
 30
0.0
 10
11.3588397446
 20
8.3949982426
 30
0.0
 10
11.3594640607
 20
8.3957152691
 30
0.0
 10
11.359963919
 20
8.3962885908
 30
0.0
 10
11.3603377025
 20
8.3967194023
 30
0.0
 10
11.3606527208
 20
8.3970758025
 30
0.0
 10
11.3608968137
 20
8.3973667751
 30
0.0
 10
11.3611015292
 20
8.3975690128
 30
0.0
 10
11.3612236221
 20
8.3978322914
 30
0.0
 10
11.3614152737
 20
8.3981620072
 30
0.0
 10
11.3616449361
 20
8.3985814676
 30
0.0
 10
11.3619247695
 20
8.3990816887
 30
0.0
 10
11.3622964002
 20
8.3997497439
 30
0.0
 10
11.3627614455
 20
8.4005844384
 30
0.0
 10
11.3635052346
 20
8.401920159
 30
0.0
 10
11.3644350683
 20
8.4035897378
 30
0.0
 10
11.365550827
 20
8.4055932632
 30
0.0
 10
11.3666665968
 20
8.4075967803
 30
0.0
 10
11.3681542861
 20
8.4102681394
 30
0.0
 10
11.3700138991
 20
8.4136073372
 30
0.0
 10
11.3718735111
 20
8.4169465357
 30
0.0
 10
11.373361202
 20
8.4196178938
 30
0.0
 10
11.3744769669
 20
8.4216214139
 30
0.0
 10
11.3755927442
 20
8.4236249281
 30
0.0
 10
11.3765225201
 20
8.4252945419
 30
0.0
 10
11.3772664271
 20
8.426630191
 30
0.0
 10
11.3777311723
 20
8.4274650673
 30
0.0
 10
11.378103419
 20
8.4281327495
 30
0.0
 10
11.3783813705
 20
8.4286341101
 30
0.0
 10
11.3786169208
 20
8.4290500051
 30
0.0
 10
11.3787965601
 20
8.4293869949
 30
0.0
 10
11.3789553378
 20
8.4296280592
 30
0.0
 10
11.379022323
 20
8.4299136989
 30
0.0
 10
11.379143701
 20
8.430278981
 30
0.0
 10
11.3792844223
 20
8.4307409259
 30
0.0
 10
11.3794579967
 20
8.4312929731
 30
0.0
 10
11.3796877846
 20
8.4320298348
 30
0.0
 10
11.3799755825
 20
8.4329506383
 30
0.0
 10
11.3804357446
 20
8.4344240769
 30
0.0
 10
11.3810110551
 20
8.4362658227
 30
0.0
 10
11.3817013814
 20
8.4384759401
 30
0.0
 10
11.3823917201
 20
8.4406860515
 30
0.0
 10
11.3833121674
 20
8.4436328688
 30
0.0
 10
11.3844627281
 20
8.4473163897
 30
0.0
 10
11.3856132877
 20
8.450999911
 30
0.0
 10
11.3865337367
 20
8.4539467276
 30
0.0
 10
11.38722407
 20
8.4561568412
 30
0.0
 10
11.3879144165
 20
8.4583669501
 30
0.0
 10
11.3884896643
 20
8.4602087224
 30
0.0
 10
11.3889499543
 20
8.4616821069
 30
0.0
 10
11.3892374266
 20
8.4626030483
 30
0.0
 10
11.3894678828
 20
8.463339627
 30
0.0
 10
11.3896394154
 20
8.4638925385
 30
0.0
 10
11.3897865251
 20
8.4643517794
 30
0.0
 10
11.3898948695
 20
8.4647225781
 30
0.0
 10
11.3900016583
 20
8.4649913707
 30
0.0
 10
11.390010997
 20
8.4652956858
 30
0.0
 10
11.3900574892
 20
8.4656890309
 30
0.0
 10
11.3901039253
 20
8.4661849695
 30
0.0
 10
11.3901646477
 20
8.4667782736
 30
0.0
 10
11.3902438647
 20
8.4675699823
 30
0.0
 10
11.3903434839
 20
8.4685594001
 30
0.0
 10
11.3905025405
 20
8.4701425905
 30
0.0
 10
11.3907014759
 20
8.4721215366
 30
0.0
 10
11.3909401492
 20
8.4744962899
 30
0.0
 10
11.3911788357
 20
8.4768710384
 30
0.0
 10
11.3914970797
 20
8.4800373714
 30
0.0
 10
11.3918948864
 20
8.483995287
 30
0.0
 10
11.392292692
 20
8.4879532029
 30
0.0
 10
11.3926109379
 20
8.4911195356
 30
0.0
 10
11.3928496187
 20
8.493494285
 30
0.0
 10
11.3930883132
 20
8.4958690347
 30
0.0
 10
11.3932871827
 20
8.497847992
 30
0.0
 10
11.3934463736
 20
8.4994311596
 30
0.0
 10
11.393545651
 20
8.5004206353
 30
0.0
 10
11.3936255697
 20
8.5012122252
 30
0.0
 10
11.3936841486
 20
8.5018058919
 30
0.0
 10
11.3937372911
 20
8.5023006961
 30
0.0
 10
11.393770101
 20
8.5026963557
 30
0.0
 10
11.3938212246
 20
8.5029936024
 30
0.0
 10
11.3937711353
 20
8.503288933
 30
0.0
 10
11.3937397046
 20
8.5036833765
 30
0.0
 10
11.3936882861
 20
8.5041762012
 30
0.0
 10
11.3936317759
 20
8.5047676892
 30
0.0
 10
11.3935546156
 20
8.5055563054
 30
0.0
 10
11.3934587861
 20
8.5065420875
 30
0.0
 10
11.3933051118
 20
8.5081193323
 30
0.0
 10
11.3931131381
 20
8.5100908905
 30
0.0
 10
11.3928827185
 20
8.5124567594
 30
0.0
 10
11.3926523126
 20
8.5148226285
 30
0.0
 10
11.3923451001
 20
8.5179771206
 30
0.0
 10
11.3919610855
 20
8.5219202357
 30
0.0
 10
11.3915770725
 20
8.5258633511
 30
0.0
 10
11.3912698574
 20
8.5290178428
 30
0.0
 10
11.391039459
 20
8.5313837132
 30
0.0
 10
11.3908090117
 20
8.5337495773
 30
0.0
 10
11.3906171242
 20
8.5357211503
 30
0.0
 10
11.3904632741
 20
8.5372983649
 30
0.0
 10
11.3903488156
 20
8.5384813954
 30
0.0
 10
11.3902504783
 20
8.539466874
 30
0.0
 10
11.3901874418
 20
8.5401574551
 30
0.0
 10
11.3901423652
 20
8.5405509079
 30
0.0
 10
11.390134068
 20
8.5408492794
 30
0.0
 10
11.3900282579
 20
8.5411351055
 30
0.0
 10
11.3899211913
 20
8.5415205829
 30
0.0
 10
11.3897179773
 20
8.5421931294
 30
0.0
 10
11.3894359569
 20
8.5431549762
 30
0.0
 10
11.3890939859
 20
8.5443087361
 30
0.0
 10
11.3886392635
 20
8.545847242
 30
0.0
 10
11.3880704353
 20
8.5477703196
 30
0.0
 10
11.3873880238
 20
8.5500780362
 30
0.0
 10
11.3867055635
 20
8.5523857466
 30
0.0
 10
11.3857956335
 20
8.5554626959
 30
0.0
 10
11.3846582146
 20
8.5593088817
 30
0.0
 10
11.3835207999
 20
8.5631550684
 30
0.0
 10
11.3826108633
 20
8.5662320162
 30
0.0
 10
11.381928423
 20
8.5685397312
 30
0.0
 10
11.3812459366
 20
8.5708474304
 30
0.0
 10
11.3806773411
 20
8.5727705622
 30
0.0
 10
11.3802221442
 20
8.5743089577
 30
0.0
 10
11.3798816222
 20
8.5754630546
 30
0.0
 10
11.3795950685
 20
8.5764238471
 30
0.0
 10
11.3793999471
 20
8.5770982757
 30
0.0
 10
11.3792799142
 20
8.5774807375
 30
0.0
 10
11.3792139327
 20
8.5777758264
 30
0.0
 10
11.3790560458
 20
8.5780394083
 30
0.0
 10
11.3788775876
 20
8.5784018408
 30
0.0
 10
11.3785503494
 20
8.5790309772
 30
0.0
 10
11.3780906752
 20
8.5799324205
 30
0.0
 10
11.3775357236
 20
8.5810130066
 30
0.0
 10
11.3767969558
 20
8.5824541883
 30
0.0
 10
11.3758730954
 20
8.5842555282
 30
0.0
 10
11.3747646346
 20
8.5864171948
 30
0.0
 10
11.3736561279
 20
8.5885788457
 30
0.0
 10
11.3721781351
 20
8.5914610525
 30
0.0
 10
11.3703306381
 20
8.5950638088
 30
0.0
 10
11.368483145
 20
8.5986665668
 30
0.0
 10
11.3670051458
 20
8.6015487709
 30
0.0
 10
11.3658966582
 20
8.6037104296
 30
0.0
 10
11.3647881259
 20
8.6058720671
 30
0.0
 10
11.363864488
 20
8.6076734977
 30
0.0
 10
11.3631252665
 20
8.6091144944
 30
0.0
 10
11.3625717005
 20
8.6101956456
 30
0.0
 10
11.3621076913
 20
8.6110953209
 30
0.0
 10
11.3617881918
 20
8.6117276135
 30
0.0
 10
11.3615973343
 20
8.6120849889
 30
0.0
 10
11.3614775339
 20
8.6123641046
 30
0.0
 10
11.3612685057
 20
8.6126008508
 30
0.0
 10
11.3610209252
 20
8.6129312913
 30
0.0
 10
11.3605731581
 20
8.6135026765
 30
0.0
 10
11.3599410723
 20
8.6143225409
 30
0.0
 10
11.3591793241
 20
8.6153048373
 30
0.0
 10
11.3581647935
 20
8.6166151042
 30
0.0
 10
11.3568962412
 20
8.618252753
 30
0.0
 10
11.3553741453
 20
8.6202180108
 30
0.0
 10
11.3538520047
 20
8.6221832474
 30
0.0
 10
11.3518224996
 20
8.6248035704
 30
0.0
 10
11.3492856124
 20
8.6280789711
 30
0.0
 10
11.3467487286
 20
8.6313543743
 30
0.0
 10
11.3447192181
 20
8.6339746932
 30
0.0
 10
11.3431970938
 20
8.635939942
 30
0.0
 10
11.3416749368
 20
8.6379051541
 30
0.0
 10
11.3404065743
 20
8.639542945
 30
0.0
 10
11.3393916568
 20
8.640852922
 30
0.0
 10
11.3386310902
 20
8.6418361036
 30
0.0
 10
11.3379953076
 20
8.6426531987
 30
0.0
 10
11.3375541398
 20
8.6432295276
 30
0.0
 10
11.3372959856
 20
8.643552047
 30
0.0
 10
11.3371194363
 20
8.6438131244
 30
0.0
 10
11.3368776508
 20
8.6440008562
 30
0.0
 10
11.3365780253
 20
8.6442767491
 30
0.0
 10
11.3360430787
 20
8.6447476416
 30
0.0
 10
11.3352844121
 20
8.6454265772
 30
0.0
 10
11.3343716397
 20
8.6462386323
 30
0.0
 10
11.3331554385
 20
8.6473223044
 30
0.0
 10
11.3316349026
 20
8.6486765746
 30
0.0
 10
11.3298103815
 20
8.6503018361
 30
0.0
 10
11.3279858278
 20
8.6519270608
 30
0.0
 10
11.3255531009
 20
8.65409404
 30
0.0
 10
11.322512188
 20
8.6568027591
 30
0.0
 10
11.3194712778
 20
8.6595114816
 30
0.0
 10
11.3170385467
 20
8.6616784554
 30
0.0
 10
11.3152140057
 20
8.6633036961
 30
0.0
 10
11.313389437
 20
8.6649288975
 30
0.0
 10
11.3118690492
 20
8.6662833546
 30
0.0
 10
11.3106525461
 20
8.6673666456
 30
0.0
 10
11.3097406956
 20
8.6681798644
 30
0.0
 10
11.3089791443
 20
8.6688551594
 30
0.0
 10
11.3084493474
 20
8.6693325509
 30
0.0
 10
11.3081414708
 20
8.6695980309
 30
0.0
 10
11.3079250301
 20
8.6698177477
 30
0.0
 10
11.3076532902
 20
8.6699586947
 30
0.0
 10
11.3073102594
 20
8.6701740998
 30
0.0
 10
11.3067009684
 20
8.6705382573
 30
0.0
 10
11.3058352511
 20
8.6710651751
 30
0.0
 10
11.3047943793
 20
8.6716946117
 30
0.0
 10
11.3034072527
 20
8.6725348612
 30
0.0
 10
11.3016731035
 20
8.6735848296
 30
0.0
 10
11.2995922277
 20
8.674844939
 30
0.0
 10
11.2975113242
 20
8.676105009
 30
0.0
 10
11.294736796
 20
8.6777851161
 30
0.0
 10
11.2912686321
 20
8.6798852447
 30
0.0
 10
11.2878004704
 20
8.6819853771
 30
0.0
 10
11.2850259388
 20
8.6836654783
 30
0.0
 10
11.2829450452
 20
8.6849255659
 30
0.0
 10
11.2808641325
 20
8.686185609
 30
0.0
 10
11.2791300981
 20
8.6872357837
 30
0.0
 10
11.2777427373
 20
8.6880756126
 30
0.0
 10
11.2767025807
 20
8.6887063335
 30
0.0
 10
11.2758346258
 20
8.6892292332
 30
0.0
 10
11.2752293294
 20
8.6896005636
 30
0.0
 10
11.2748798981
 20
8.6898044759
 30
0.0
 10
11.2746278184
 20
8.6899807254
 30
0.0
 10
11.2743375375
 20
8.6900678516
 30
0.0
 10
11.2739638212
 20
8.6902151072
 30
0.0
 10
11.2733036094
 20
8.6904583202
 30
0.0
 10
11.2723636955
 20
8.6908133398
 30
0.0
 10
11.2712344094
 20
8.6912361221
 30
0.0
 10
11.26972918
 20
8.6918009641
 30
0.0
 10
11.2678474767
 20
8.692506628
 30
0.0
 10
11.2655895042
 20
8.6933535913
 30
0.0
 10
11.2633315125
 20
8.6942005099
 30
0.0
 10
11.2603208637
 20
8.6953297505
 30
0.0
 10
11.2565575502
 20
8.6967412953
 30
0.0
 10
11.2527942381
 20
8.6981528442
 30
0.0
 10
11.2497835869
 20
8.6992820782
 30
0.0
 10
11.2475256023
 20
8.7001290164
 30
0.0
 10
11.2452676033
 20
8.7009759068
 30
0.0
 10
11.2433859823
 20
8.7016817974
 30
0.0
 10
11.2418805852
 20
8.702246177
 30
0.0
 10
11.2407518113
 20
8.7026703711
 30
0.0
 10
11.2398102949
 20
8.7030209738
 30
0.0
 10
11.2391529438
 20
8.7032720718
 30
0.0
 10
11.2387746439
 20
8.7034066936
 30
0.0
 10
11.2384984424
 20
8.7035326265
 30
0.0
 10
11.2381934826
 20
8.7035631248
 30
0.0
 10
11.2377969006
 20
8.7036370778
 30
0.0
 10
11.2370982085
 20
8.7037509858
 30
0.0
 10
11.2361025204
 20
8.7039218203
 30
0.0
 10
11.2349066487
 20
8.7041233509
 30
0.0
 10
11.2333125185
 20
8.7043932707
 30
0.0
 10
11.2313197304
 20
8.7047302544
 30
0.0
 10
11.2289284385
 20
8.7051348132
 30
0.0
 10
11.2265371321
 20
8.7055393244
 30
0.0
 10
11.2233487287
 20
8.7060786892
 30
0.0
 10
11.2193632226
 20
8.7067528895
 30
0.0
 10
11.2145806161
 20
8.7075619323
 30
0.0
 10
11.2082038072
 20
8.7086406552
 30
0.0
 10
11.2034212006
 20
8.7094496975
 30
0.0
 10
11.2002327961
 20
8.7099890591
 30
0.0
  0
SPLINE
  5
3B6
100
AcDbEntity
  8
0
100
AcDbSpline
 62
4
  6
CONTINUOUS
 70
0
 71
3
 72
359
 73
355
 74
0
 42
0.0000001
 43
0.0000001
 44
0.0000000001
 40
0.0
 40
0.0
 40
0.0
 40
0.0
 40
0.015625
 40
0.0234375
 40
0.03125
 40
0.0390625
 40
0.04296875
 40
0.046875
 40
0.05078125
 40
0.0546875
 40
0.056640625
 40
0.05859375
 40
0.0595703125
 40
0.060546875
 40
0.0615234375
 40
0.0620117188
 40
0.0625
 40
0.0629882812
 40
0.0634765625
 40
0.064453125
 40
0.0654296875
 40
0.06640625
 40
0.068359375
 40
0.0703125
 40
0.07421875
 40
0.078125
 40
0.08203125
 40
0.0859375
 40
0.09375
 40
0.1015625
 40
0.10546875
 40
0.109375
 40
0.11328125
 40
0.1171875
 40
0.119140625
 40
0.12109375
 40
0.1220703125
 40
0.123046875
 40
0.1240234375
 40
0.1245117188
 40
0.125
 40
0.1254882812
 40
0.1259765625
 40
0.126953125
 40
0.1279296875
 40
0.12890625
 40
0.130859375
 40
0.1328125
 40
0.13671875
 40
0.140625
 40
0.14453125
 40
0.1484375
 40
0.15625
 40
0.1640625
 40
0.16796875
 40
0.171875
 40
0.17578125
 40
0.1796875
 40
0.181640625
 40
0.18359375
 40
0.1845703125
 40
0.185546875
 40
0.1865234375
 40
0.1870117188
 40
0.1875
 40
0.1879882812
 40
0.1884765625
 40
0.189453125
 40
0.1904296875
 40
0.19140625
 40
0.193359375
 40
0.1953125
 40
0.19921875
 40
0.203125
 40
0.20703125
 40
0.2109375
 40
0.21875
 40
0.2265625
 40
0.23046875
 40
0.234375
 40
0.23828125
 40
0.2421875
 40
0.244140625
 40
0.24609375
 40
0.2470703125
 40
0.248046875
 40
0.2490234375
 40
0.2495117188
 40
0.25
 40
0.2504882812
 40
0.2509765625
 40
0.251953125
 40
0.2529296875
 40
0.25390625
 40
0.255859375
 40
0.2578125
 40
0.26171875
 40
0.265625
 40
0.26953125
 40
0.2734375
 40
0.28125
 40
0.2890625
 40
0.29296875
 40
0.296875
 40
0.30078125
 40
0.3046875
 40
0.306640625
 40
0.30859375
 40
0.3095703125
 40
0.310546875
 40
0.3115234375
 40
0.3120117188
 40
0.3125
 40
0.3129882812
 40
0.3134765625
 40
0.314453125
 40
0.3154296875
 40
0.31640625
 40
0.318359375
 40
0.3203125
 40
0.32421875
 40
0.328125
 40
0.33203125
 40
0.3359375
 40
0.34375
 40
0.3515625
 40
0.35546875
 40
0.359375
 40
0.36328125
 40
0.3671875
 40
0.369140625
 40
0.37109375
 40
0.3720703125
 40
0.373046875
 40
0.3740234375
 40
0.3745117188
 40
0.375
 40
0.3754882812
 40
0.3759765625
 40
0.376953125
 40
0.3779296875
 40
0.37890625
 40
0.380859375
 40
0.3828125
 40
0.38671875
 40
0.390625
 40
0.39453125
 40
0.3984375
 40
0.40625
 40
0.4140625
 40
0.41796875
 40
0.421875
 40
0.42578125
 40
0.4296875
 40
0.431640625
 40
0.43359375
 40
0.4345703125
 40
0.435546875
 40
0.4365234375
 40
0.4370117188
 40
0.4375
 40
0.4379882812
 40
0.4384765625
 40
0.439453125
 40
0.4404296875
 40
0.44140625
 40
0.443359375
 40
0.4453125
 40
0.44921875
 40
0.453125
 40
0.45703125
 40
0.4609375
 40
0.46875
 40
0.4765625
 40
0.48046875
 40
0.484375
 40
0.48828125
 40
0.4921875
 40
0.494140625
 40
0.49609375
 40
0.4970703125
 40
0.498046875
 40
0.4990234375
 40
0.4995117188
 40
0.5
 40
0.5004882812
 40
0.5009765625
 40
0.501953125
 40
0.5029296875
 40
0.50390625
 40
0.505859375
 40
0.5078125
 40
0.51171875
 40
0.515625
 40
0.51953125
 40
0.5234375
 40
0.53125
 40
0.5390625
 40
0.54296875
 40
0.546875
 40
0.55078125
 40
0.5546875
 40
0.556640625
 40
0.55859375
 40
0.560546875
 40
0.5615234375
 40
0.5620117188
 40
0.5625
 40
0.5629882812
 40
0.5634765625
 40
0.564453125
 40
0.56640625
 40
0.568359375
 40
0.5703125
 40
0.57421875
 40
0.578125
 40
0.58203125
 40
0.5859375
 40
0.59375
 40
0.6015625
 40
0.60546875
 40
0.609375
 40
0.61328125
 40
0.6171875
 40
0.619140625
 40
0.62109375
 40
0.623046875
 40
0.6240234375
 40
0.6245117188
 40
0.625
 40
0.6254882812
 40
0.6259765625
 40
0.626953125
 40
0.62890625
 40
0.630859375
 40
0.6328125
 40
0.63671875
 40
0.640625
 40
0.64453125
 40
0.6484375
 40
0.65625
 40
0.6640625
 40
0.66796875
 40
0.671875
 40
0.67578125
 40
0.6796875
 40
0.681640625
 40
0.68359375
 40
0.685546875
 40
0.6865234375
 40
0.6870117188
 40
0.6875
 40
0.6879882812
 40
0.6884765625
 40
0.689453125
 40
0.69140625
 40
0.693359375
 40
0.6953125
 40
0.69921875
 40
0.703125
 40
0.70703125
 40
0.7109375
 40
0.71875
 40
0.7265625
 40
0.73046875
 40
0.734375
 40
0.73828125
 40
0.7421875
 40
0.744140625
 40
0.74609375
 40
0.748046875
 40
0.7490234375
 40
0.7495117188
 40
0.75
 40
0.7504882812
 40
0.7509765625
 40
0.751953125
 40
0.75390625
 40
0.755859375
 40
0.7578125
 40
0.76171875
 40
0.765625
 40
0.76953125
 40
0.7734375
 40
0.78125
 40
0.7890625
 40
0.79296875
 40
0.796875
 40
0.80078125
 40
0.8046875
 40
0.806640625
 40
0.80859375
 40
0.810546875
 40
0.8115234375
 40
0.8120117188
 40
0.8125
 40
0.8129882812
 40
0.8134765625
 40
0.814453125
 40
0.81640625
 40
0.818359375
 40
0.8203125
 40
0.82421875
 40
0.828125
 40
0.83203125
 40
0.8359375
 40
0.84375
 40
0.8515625
 40
0.85546875
 40
0.859375
 40
0.86328125
 40
0.8671875
 40
0.869140625
 40
0.87109375
 40
0.873046875
 40
0.8740234375
 40
0.8745117188
 40
0.875
 40
0.8754882812
 40
0.8759765625
 40
0.876953125
 40
0.87890625
 40
0.880859375
 40
0.8828125
 40
0.88671875
 40
0.890625
 40
0.89453125
 40
0.8984375
 40
0.90625
 40
0.9140625
 40
0.91796875
 40
0.921875
 40
0.92578125
 40
0.9296875
 40
0.931640625
 40
0.93359375
 40
0.935546875
 40
0.9365234375
 40
0.9370117188
 40
0.9375
 40
0.9379882812
 40
0.9384765625
 40
0.939453125
 40
0.94140625
 40
0.943359375
 40
0.9453125
 40
0.94921875
 40
0.953125
 40
0.95703125
 40
0.9609375
 40
0.96875
 40
0.9765625
 40
0.984375
 40
1.0
 40
1.0
 40
1.0
 40
1.0
 10
11.2002328131
 20
8.7099890579
 30
0.0
 10
11.1970996261
 20
8.7098991335
 30
0.0
 10
11.1923998458
 20
8.7097642469
 30
0.0
 10
11.1861334719
 20
8.709584398
 30
0.0
 10
11.1814336915
 20
8.7094495115
 30
0.0
 10
11.177517208
 20
8.7093371056
 30
0.0
 10
11.1743840209
 20
8.7092471821
 30
0.0
 10
11.1720341312
 20
8.7091797359
 30
0.0
 10
11.169684239
 20
8.7091123032
 30
0.0
 10
11.1677260036
 20
8.7090560676
 30
0.0
 10
11.1661593971
 20
8.7090111723
 30
0.0
 10
11.1651803094
 20
8.7089829008
 30
0.0
 10
11.1643969444
 20
8.7089607689
 30
0.0
 10
11.1638096803
 20
8.7089428412
 30
0.0
 10
11.1633194679
 20
8.7089321283
 30
0.0
 10
11.1629291496
 20
8.7089140781
 30
0.0
 10
11.1626313513
 20
8.7089264438
 30
0.0
 10
11.1623528653
 20
8.7088399362
 30
0.0
 10
11.1619748047
 20
8.7087591305
 30
0.0
 10
11.1615045434
 20
8.7086462736
 30
0.0
 10
11.1609392391
 20
8.7085159174
 30
0.0
 10
11.1601858461
 20
8.7083403376
 30
0.0
 10
11.1592439864
 20
8.7081214694
 30
0.0
 10
11.157737077
 20
8.7077709413
 30
0.0
 10
11.1558534176
 20
8.7073328975
 30
0.0
 10
11.1535930361
 20
8.7068071951
 30
0.0
 10
11.1513326519
 20
8.706281506
 30
0.0
 10
11.1483188073
 20
8.7055805825
 30
0.0
 10
11.1445515012
 20
8.7047044299
 30
0.0
 10
11.1407841954
 20
8.7038282761
 30
0.0
 10
11.1377703502
 20
8.7031273545
 30
0.0
 10
11.1355099677
 20
8.7026016599
 30
0.0
 10
11.13324958
 20
8.702075978
 30
0.0
 10
11.1313659396
 20
8.7016378701
 30
0.0
 10
11.1298589916
 20
8.7012874728
 30
0.0
 10
11.1289172303
 20
8.7010682718
 30
0.0
 10
11.1281636353
 20
8.7008933751
 30
0.0
 10
11.1275989482
 20
8.7007609319
 30
0.0
 10
11.1271267559
 20
8.7006546047
 30
0.0
 10
11.1267526348
 20
8.7005604773
 30
0.0
 10
11.1264621176
 20
8.7005146532
 30
0.0
 10
11.1262094893
 20
8.7003742762
 30
0.0
 10
11.1258594166
 20
8.7002201354
 30
0.0
 10
11.1254263665
 20
8.7000161274
 30
0.0
 10
11.1249047628
 20
8.6997761683
 30
0.0
 10
11.12420997
 20
8.6994545287
 30
0.0
 10
11.1233412466
 20
8.6990530593
 30
0.0
 10
11.1219514191
 20
8.698410384
 30
0.0
 10
11.1202140901
 20
8.6976071511
 30
0.0
 10
11.1181293145
 20
8.696643224
 30
0.0
 10
11.1160445337
 20
8.6956793096
 30
0.0
 10
11.1132648278
 20
8.6943940859
 30
0.0
 10
11.1097901947
 20
8.692787558
 30
0.0
 10
11.1063155621
 20
8.691181029
 30
0.0
 10
11.1035358554
 20
8.6898958072
 30
0.0
 10
11.1014510771
 20
8.6889318875
 30
0.0
 10
11.0993662922
 20
8.6879679803
 30
0.0
 10
11.0976289919
 20
8.6871646853
 30
0.0
 10
11.0962391059
 20
8.6865221366
 30
0.0
 10
11.0953705312
 20
8.6861203451
 30
0.0
 10
11.0946754331
 20
8.6857993665
 30
0.0
 10
11.0941547622
 20
8.685557388
 30
0.0
 10
11.0937187936
 20
8.6853596984
 30
0.0
 10
11.0933746753
 20
8.6851926669
 30
0.0
 10
11.0931038625
 20
8.6850916572
 30
0.0
 10
11.0928816177
 20
8.6848980321
 30
0.0
 10
11.0925683259
 20
8.684672217
 30
0.0
 10
11.0921825319
 20
8.6843788485
 30
0.0
 10
11.0917170877
 20
8.6840315573
 30
0.0
 10
11.0910973656
 20
8.6835668429
 30
0.0
 10
11.090322415
 20
8.6829865182
 30
0.0
 10
11.0890826605
 20
8.6820576809
 30
0.0
 10
11.0875329103
 20
8.6808967434
 30
0.0
 10
11.0856732346
 20
8.6795035717
 30
0.0
 10
11.0838135523
 20
8.6781104124
 30
0.0
 10
11.0813339782
 20
8.6762528624
 30
0.0
 10
11.0782345097
 20
8.6739309264
 30
0.0
 10
11.0751350419
 20
8.6716089895
 30
0.0
 10
11.0726554667
 20
8.669751441
 30
0.0
 10
11.070795788
 20
8.6683582771
 30
0.0
 10
11.0689360987
 20
8.6669651228
 30
0.0
 10
11.0673863905
 20
8.6658041311
 30
0.0
 10
11.0661465505
 20
8.6648754043
 30
0.0
 10
11.0653718175
 20
8.6642947986
 30
0.0
 10
11.0647516488
 20
8.6638306608
 30
0.0
 10
11.0642875689
 20
8.6634816081
 30
0.0
 10
11.0638975061
 20
8.6631937511
 30
0.0
 10
11.0635929235
 20
8.6629566915
 30
0.0
 10
11.0633440815
 20
8.6627974065
 30
0.0
 10
11.0631731259
 20
8.6625674698
 30
0.0
 10
11.0629179785
 20
8.6622855671
 30
0.0
 10
11.0626083786
 20
8.6619247213
 30
0.0
 10
11.0622328633
 20
8.6614953307
 30
0.0
 10
11.0617335718
 20
8.6609215439
 30
0.0
 10
11.0611089796
 20
8.6602047439
 30
0.0
 10
11.0601098991
 20
8.6590576217
 30
0.0
 10
11.0588609569
 20
8.657623802
 30
0.0
 10
11.0573622655
 20
8.6559031828
 30
0.0
 10
11.0558635636
 20
8.6541825731
 30
0.0
 10
11.0538652981
 20
8.6518884235
 30
0.0
 10
11.0513674648
 20
8.6490207378
 30
0.0
 10
11.0488696324
 20
8.6461530512
 30
0.0
 10
11.0468713654
 20
8.6438589029
 30
0.0
 10
11.045372668
 20
8.6421382894
 30
0.0
 10
11.0438739595
 20
8.6404176843
 30
0.0
 10
11.0426250705
 20
8.6389838209
 30
0.0
 10
11.0416258815
 20
8.6378367877
 30
0.0
 10
11.0410015654
 20
8.6371197612
 30
0.0
 10
11.0405017071
 20
8.6365464395
 30
0.0
 10
11.0401279236
 20
8.636115628
 30
0.0
 10
11.0398129054
 20
8.6357592278
 30
0.0
 10
11.0395688125
 20
8.6354682552
 30
0.0
 10
11.0393640969
 20
8.6352660175
 30
0.0
 10
11.0392420041
 20
8.6350027389
 30
0.0
 10
11.0390503524
 20
8.6346730231
 30
0.0
 10
11.03882069
 20
8.6342535627
 30
0.0
 10
11.0385408567
 20
8.6337533416
 30
0.0
 10
11.038169226
 20
8.6330852864
 30
0.0
 10
11.0377041807
 20
8.6322505919
 30
0.0
 10
11.0369603915
 20
8.6309148713
 30
0.0
 10
11.0360305579
 20
8.6292452925
 30
0.0
 10
11.0349147991
 20
8.6272417671
 30
0.0
 10
11.0337990293
 20
8.62523825
 30
0.0
 10
11.03231134
 20
8.6225668909
 30
0.0
 10
11.030451727
 20
8.6192276931
 30
0.0
 10
11.028592115
 20
8.6158884946
 30
0.0
 10
11.0271044241
 20
8.6132171365
 30
0.0
 10
11.0259886592
 20
8.6112136164
 30
0.0
 10
11.0248728819
 20
8.6092101022
 30
0.0
 10
11.0239431061
 20
8.6075404884
 30
0.0
 10
11.023199199
 20
8.6062048393
 30
0.0
 10
11.0227344538
 20
8.605369963
 30
0.0
 10
11.0223622071
 20
8.6047022808
 30
0.0
 10
11.0220842556
 20
8.6042009202
 30
0.0
 10
11.0218487054
 20
8.6037850252
 30
0.0
 10
11.0216690661
 20
8.6034480354
 30
0.0
 10
11.0215102883
 20
8.6032069711
 30
0.0
 10
11.0214433031
 20
8.6029213314
 30
0.0
 10
11.0213219252
 20
8.6025560493
 30
0.0
 10
11.0211812038
 20
8.6020941044
 30
0.0
 10
11.0210076294
 20
8.6015420572
 30
0.0
 10
11.0207778416
 20
8.6008051955
 30
0.0
 10
11.0204900436
 20
8.5998843919
 30
0.0
 10
11.0200298816
 20
8.5984109534
 30
0.0
 10
11.0194545711
 20
8.5965692076
 30
0.0
 10
11.0187642447
 20
8.5943590902
 30
0.0
 10
11.018073906
 20
8.5921489788
 30
0.0
 10
11.0171534588
 20
8.5892021615
 30
0.0
 10
11.0160028981
 20
8.5855186406
 30
0.0
 10
11.0148523385
 20
8.5818351193
 30
0.0
 10
11.0139318894
 20
8.5788883027
 30
0.0
 10
11.0132415561
 20
8.5766781891
 30
0.0
 10
11.0125512096
 20
8.5744680802
 30
0.0
 10
11.0119759618
 20
8.5726263079
 30
0.0
 10
11.0115156719
 20
8.5711529234
 30
0.0
 10
11.0112281995
 20
8.570231982
 30
0.0
 10
11.0109977433
 20
8.5694954033
 30
0.0
 10
11.0108262107
 20
8.5689424918
 30
0.0
 10
11.010679101
 20
8.5684832508
 30
0.0
 10
11.0105707566
 20
8.5681124522
 30
0.0
 10
11.0104639678
 20
8.5678436596
 30
0.0
 10
11.0104546291
 20
8.5675393445
 30
0.0
 10
11.0104081369
 20
8.5671459994
 30
0.0
 10
11.0103617008
 20
8.5666500607
 30
0.0
 10
11.0103009785
 20
8.5660567566
 30
0.0
 10
11.0102217614
 20
8.565265048
 30
0.0
 10
11.0101221422
 20
8.5642756302
 30
0.0
 10
11.0099630856
 20
8.5626924398
 30
0.0
 10
11.0097641502
 20
8.5607134937
 30
0.0
 10
11.0095254769
 20
8.5583387404
 30
0.0
 10
11.0092867904
 20
8.5559639919
 30
0.0
 10
11.0089685464
 20
8.5527976589
 30
0.0
 10
11.0085707397
 20
8.5488397433
 30
0.0
 10
11.0081729341
 20
8.5448818274
 30
0.0
 10
11.0078546882
 20
8.5417154947
 30
0.0
 10
11.0076160074
 20
8.5393407453
 30
0.0
 10
11.0073773129
 20
8.5369659956
 30
0.0
 10
11.0071784434
 20
8.5349870383
 30
0.0
 10
11.0070192525
 20
8.5334038707
 30
0.0
 10
11.0069199751
 20
8.532414395
 30
0.0
 10
11.0068400564
 20
8.5316228051
 30
0.0
 10
11.0067814775
 20
8.5310291384
 30
0.0
 10
11.0067283351
 20
8.5305343342
 30
0.0
 10
11.0066955252
 20
8.5301386746
 30
0.0
 10
11.0066444015
 20
8.5298414279
 30
0.0
 10
11.0066944908
 20
8.5295460973
 30
0.0
 10
11.0067259215
 20
8.5291516538
 30
0.0
 10
11.0067773401
 20
8.5286588291
 30
0.0
 10
11.0068338502
 20
8.5280673411
 30
0.0
 10
11.0069110106
 20
8.5272787249
 30
0.0
 10
11.0070068401
 20
8.5262929428
 30
0.0
 10
11.0071605143
 20
8.524715698
 30
0.0
 10
11.0073524881
 20
8.5227441398
 30
0.0
 10
11.0075829076
 20
8.5203782709
 30
0.0
 10
11.0078133135
 20
8.5180124018
 30
0.0
 10
11.008120526
 20
8.5148579097
 30
0.0
 10
11.0085045406
 20
8.5109147946
 30
0.0
 10
11.0088885537
 20
8.5069716792
 30
0.0
 10
11.0091957687
 20
8.5038171875
 30
0.0
 10
11.0094261672
 20
8.5014513171
 30
0.0
 10
11.0096566144
 20
8.499085453
 30
0.0
 10
11.0098485019
 20
8.49711388
 30
0.0
 10
11.010002352
 20
8.4955366654
 30
0.0
 10
11.0101168105
 20
8.4943536348
 30
0.0
 10
11.0102151479
 20
8.4933681563
 30
0.0
 10
11.0102781843
 20
8.4926775752
 30
0.0
 10
11.0103232609
 20
8.4922841224
 30
0.0
 10
11.0103315582
 20
8.4919857509
 30
0.0
 10
11.0104373682
 20
8.4916999248
 30
0.0
 10
11.0105444348
 20
8.4913144474
 30
0.0
 10
11.0107476488
 20
8.4906419009
 30
0.0
 10
11.0110296693
 20
8.4896800541
 30
0.0
 10
11.0113716402
 20
8.4885262942
 30
0.0
 10
11.0118263627
 20
8.4869877883
 30
0.0
 10
11.0123951908
 20
8.4850647107
 30
0.0
 10
11.0130776023
 20
8.4827569941
 30
0.0
 10
11.0137600627
 20
8.4804492837
 30
0.0
 10
11.0146699926
 20
8.4773723344
 30
0.0
 10
11.0158074115
 20
8.4735261486
 30
0.0
 10
11.0169448262
 20
8.4696799619
 30
0.0
 10
11.0178547628
 20
8.4666030141
 30
0.0
 10
11.0185372032
 20
8.4642952991
 30
0.0
 10
11.0192196895
 20
8.4619875999
 30
0.0
 10
11.019788285
 20
8.4600644681
 30
0.0
 10
11.0202434819
 20
8.4585260726
 30
0.0
 10
11.0205840039
 20
8.4573719757
 30
0.0
 10
11.0208705576
 20
8.4564111832
 30
0.0
 10
11.021065679
 20
8.4557367546
 30
0.0
 10
11.021185712
 20
8.4553542927
 30
0.0
 10
11.0212516934
 20
8.4550592039
 30
0.0
 10
11.0214095803
 20
8.454795622
 30
0.0
 10
11.0215880386
 20
8.4544331895
 30
0.0
 10
11.0219152767
 20
8.4538040531
 30
0.0
 10
11.022374951
 20
8.4529026098
 30
0.0
 10
11.0229299025
 20
8.4518220237
 30
0.0
 10
11.0236686703
 20
8.450380842
 30
0.0
 10
11.0245925307
 20
8.4485795021
 30
0.0
 10
11.0257009915
 20
8.4464178355
 30
0.0
 10
11.0268094982
 20
8.4442561845
 30
0.0
 10
11.028287491
 20
8.4413739778
 30
0.0
 10
11.0301349881
 20
8.4377712215
 30
0.0
 10
11.0319824811
 20
8.4341684635
 30
0.0
 10
11.0334604803
 20
8.4312862594
 30
0.0
 10
11.034568968
 20
8.4291246007
 30
0.0
 10
11.0356775002
 20
8.4269629632
 30
0.0
 10
11.0366011382
 20
8.4251615326
 30
0.0
 10
11.0373403597
 20
8.4237205359
 30
0.0
 10
11.0378939256
 20
8.4226393847
 30
0.0
 10
11.0383579349
 20
8.4217397094
 30
0.0
 10
11.0386774344
 20
8.4211074168
 30
0.0
 10
11.0388682919
 20
8.4207500414
 30
0.0
 10
11.0389880922
 20
8.4204709257
 30
0.0
 10
11.0391971204
 20
8.4202341795
 30
0.0
 10
11.0394447009
 20
8.419903739
 30
0.0
 10
11.039892468
 20
8.4193323538
 30
0.0
 10
11.0405245539
 20
8.4185124894
 30
0.0
 10
11.041286302
 20
8.4175301929
 30
0.0
 10
11.0423008326
 20
8.4162199261
 30
0.0
 10
11.0435693849
 20
8.4145822773
 30
0.0
 10
11.0450914808
 20
8.4126170195
 30
0.0
 10
11.0466136214
 20
8.4106517829
 30
0.0
 10
11.0486431266
 20
8.4080314599
 30
0.0
 10
11.0511800137
 20
8.4047560592
 30
0.0
 10
11.0537168975
 20
8.401480656
 30
0.0
 10
11.055746408
 20
8.3988603371
 30
0.0
 10
11.0572685324
 20
8.3968950883
 30
0.0
 10
11.0587906893
 20
8.3949298762
 30
0.0
 10
11.0600590518
 20
8.3932920852
 30
0.0
 10
11.0610739694
 20
8.3919821083
 30
0.0
 10
11.0618345359
 20
8.3909989267
 30
0.0
 10
11.0624703185
 20
8.3901818316
 30
0.0
 10
11.0629114864
 20
8.3896055027
 30
0.0
 10
11.0631696405
 20
8.3892829833
 30
0.0
 10
11.0633461899
 20
8.3890219059
 30
0.0
 10
11.0635879753
 20
8.3888341741
 30
0.0
 10
11.0638876008
 20
8.3885582812
 30
0.0
 10
11.0644225474
 20
8.3880873887
 30
0.0
 10
11.065181214
 20
8.3874084531
 30
0.0
 10
11.0660939865
 20
8.386596398
 30
0.0
 10
11.0673101876
 20
8.3855127259
 30
0.0
 10
11.0688307235
 20
8.3841584557
 30
0.0
 10
11.0706552446
 20
8.3825331942
 30
0.0
 10
11.0724797984
 20
8.3809079695
 30
0.0
 10
11.0749125252
 20
8.3787409903
 30
0.0
 10
11.0779534381
 20
8.3760322712
 30
0.0
 10
11.0809943483
 20
8.3733235487
 30
0.0
 10
11.0834270794
 20
8.3711565749
 30
0.0
 10
11.0852516204
 20
8.3695313341
 30
0.0
 10
11.0870761892
 20
8.3679061328
 30
0.0
 10
11.088596577
 20
8.3665516757
 30
0.0
 10
11.0898130801
 20
8.3654683847
 30
0.0
 10
11.0907249305
 20
8.3646551659
 30
0.0
 10
11.0914864818
 20
8.3639798709
 30
0.0
 10
11.0920162787
 20
8.3635024794
 30
0.0
 10
11.0923241553
 20
8.3632369994
 30
0.0
 10
11.092540596
 20
8.3630172826
 30
0.0
 10
11.0928123359
 20
8.3628763356
 30
0.0
 10
11.0931553667
 20
8.3626609304
 30
0.0
 10
11.0937646578
 20
8.3622967729
 30
0.0
 10
11.094630375
 20
8.3617698552
 30
0.0
 10
11.0956712468
 20
8.3611404186
 30
0.0
 10
11.0970583734
 20
8.3603001691
 30
0.0
 10
11.0987925227
 20
8.3592502007
 30
0.0
 10
11.1008733985
 20
8.3579900913
 30
0.0
 10
11.1029543019
 20
8.3567300213
 30
0.0
 10
11.1057288301
 20
8.3550499142
 30
0.0
 10
11.109196994
 20
8.3529497856
 30
0.0
 10
11.1126651558
 20
8.3508496532
 30
0.0
 10
11.1154396873
 20
8.349169552
 30
0.0
 10
11.1175205809
 20
8.3479094644
 30
0.0
 10
11.1196014936
 20
8.3466494213
 30
0.0
 10
11.121335528
 20
8.3455992466
 30
0.0
 10
11.1227228888
 20
8.3447594177
 30
0.0
 10
11.1237630454
 20
8.3441286968
 30
0.0
 10
11.1246310003
 20
8.3436057971
 30
0.0
 10
11.1252362967
 20
8.3432344667
 30
0.0
 10
11.125585728
 20
8.3430305544
 30
0.0
 10
11.1258378077
 20
8.3428543049
 30
0.0
 10
11.1261280887
 20
8.3427671786
 30
0.0
 10
11.1265018049
 20
8.3426199231
 30
0.0
 10
11.1271620167
 20
8.3423767101
 30
0.0
 10
11.1281019307
 20
8.3420216905
 30
0.0
 10
11.1292312167
 20
8.3415989082
 30
0.0
 10
11.1307364461
 20
8.3410340662
 30
0.0
 10
11.1326181494
 20
8.3403284023
 30
0.0
 10
11.134876122
 20
8.339481439
 30
0.0
 10
11.1371341136
 20
8.3386345203
 30
0.0
 10
11.1401447625
 20
8.3375052798
 30
0.0
 10
11.143908076
 20
8.336093735
 30
0.0
 10
11.147671388
 20
8.3346821861
 30
0.0
 10
11.1506820392
 20
8.333552952
 30
0.0
 10
11.1529400238
 20
8.3327060139
 30
0.0
 10
11.1551980228
 20
8.3318591235
 30
0.0
 10
11.1570796438
 20
8.3311532329
 30
0.0
 10
11.158585041
 20
8.3305888533
 30
0.0
 10
11.1597138148
 20
8.3301646592
 30
0.0
 10
11.1606553312
 20
8.3298140565
 30
0.0
 10
11.1613126823
 20
8.3295629585
 30
0.0
 10
11.1616909822
 20
8.3294283367
 30
0.0
 10
11.1619671837
 20
8.3293024038
 30
0.0
 10
11.1622721436
 20
8.3292719055
 30
0.0
 10
11.1626687255
 20
8.3291979525
 30
0.0
 10
11.1633674176
 20
8.3290840444
 30
0.0
 10
11.1643631058
 20
8.32891321
 30
0.0
 10
11.1655589774
 20
8.3287116794
 30
0.0
 10
11.1671531076
 20
8.3284417596
 30
0.0
 10
11.1691458957
 20
8.3281047759
 30
0.0
 10
11.1715371877
 20
8.3277002171
 30
0.0
 10
11.173928494
 20
8.3272957059
 30
0.0
 10
11.1771168975
 20
8.3267563411
 30
0.0
 10
11.1811024035
 20
8.3260821408
 30
0.0
 10
11.18588501
 20
8.325273098
 30
0.0
 10
11.1922618189
 20
8.3241943751
 30
0.0
 10
11.1970444256
 20
8.3233853328
 30
0.0
 10
11.20023283
 20
8.3228459712
 30
0.0
  0
ENDSEC
  0
SECTION
  2
OBJECTS
  0
DICTIONARY
  5
C
100
AcDbDictionary
280
0
281
1
  3
ACAD_GROUP
350
D
  3
ACAD_MLINESTYLE
350
17
  3
ACAD_LAYOUT
350
1A
  3
ACAD_PLOTSETTINGS
350
19
  3
ACAD_PLOTSTYLENAME
350
E
  3
ACAD_IMAGE_DICT
350
       3B8
  3
ACAD_IMAGE_VARS
350
       3B9
  3
ACAD_TABLESTYLE
350
       3BA
  0
IMAGEDEF_REACTOR
  5
3B7
100
AcDbRasterImageDefReactor
 90
2
330
28F
  0
DICTIONARY
  5
D
102
{ACAD_REACTORS
330
C
102
}
100
AcDbDictionary
280
0
281
1
  0
ACDBDICTIONARYWDFLT
  5
E
102
{ACAD_REACTORS
330
C
102
}
100
AcDbDictionary
281
1
  3
Normal
350
F
100
AcDbDictionaryWithDefault
340
F
  0
DICTIONARY
  5
3B8
330
C
100
AcDbDictionary
281
1
  3
B3W_assy_2_img_1
350
       3BD
  0
RASTERVARIABLES
  5
3B9
330
C
100
AcDbRasterVariables
 90
0
 70
0
 71
1
 72
5
  0
DICTIONARY
  5
17
102
{ACAD_REACTORS
330
C
102
}
100
AcDbDictionary
280
0
281
1
  3
Standard
350
18
  0
DICTIONARY
  5
3BA
330
C
100
AcDbDictionary
281
1
  3
Standard
350
       3BE
  3
Standard1
350
       3BF
  0
DICTIONARY
  5
19
102
{ACAD_REACTORS
330
C
102
}
100
AcDbDictionary
281
1
  0
DICTIONARY
  5
1A
102
{ACAD_REACTORS
330
C
102
}
100
AcDbDictionary
281
1
  3
Model
350
3BB
  3
Layout1
350
3BC
  0
ACDBPLACEHOLDER
  5
F
102
{ACAD_REACTORS
330
E
102
}
  0
MLINESTYLE
  5
18
102
{ACAD_REACTORS
330
17
102
}
100
AcDbMlineStyle
  2
STANDARD
 70
0
  3

 62
256
 51
90.0
 52
90.0
 71
2
 49
0.5
 62
256
  6
BYLAYER
 49
-0.5
 62
256
  6
BYLAYER
  0
LAYOUT
  5
3BB
102
{ACAD_REACTORS
330
1A
102
}
100
AcDbPlotSettings
  1

  2
none_device
  4
ANSI_C_(22.00_x_17.00_Inches)
  6

 40
0.0
 41
0.0
 42
0.0
 43
0.0
 44
558.8
 45
431.8
 46
0.0
 47
0.0
 48
0.0
 49
0.0
140
0.0
141
0.0
142
1.0
143
1.0
 70
1024
 72
0
 73
0
 74
0
  7

 75
0
147
1.0
148
0.0
149
0.0
100
AcDbLayout
  1
Model
 70
0
 71
0
 10
0.0
 20
0.0
 11
22.0
 21
17.0
 12
0.0
 22
0.0
 32
0.0
 14
0.0
 24
0.0
 34
0.0
 15
0.0
 25
0.0
 35
0.0
146
0.0
 13
0.0
 23
0.0
 33
0.0
 16
1.0
 26
0.0
 36
0.0
 17
0.0
 27
1.0
 37
0.0
 76
0
330
20C
345
0
346
0
  0
LAYOUT
  5
3BC
102
{ACAD_REACTORS
330
1A
102
}
100
AcDbPlotSettings
  1

  2
none_device
  4
ANSI_C_(22.00_x_17.00_Inches)
  6

 40
0.0
 41
0.0
 42
0.0
 43
0.0
 44
558.8
 45
431.8
 46
0.0
 47
0.0
 48
0.0
 49
0.0
140
0.0
141
0.0
142
1.0
143
1.0
 70
0
 72
0
 73
0
 74
0
  7

 75
0
147
1.0
148
0.0
149
0.0
100
AcDbLayout
  1
Layout1
 70
0
 71
1
 10
0.0
 20
0.0
 11
22.0
 21
17.0
 12
0.0
 22
0.0
 32
0.0
 14
0.0
 24
0.0
 34
0.0
 15
0.0
 25
0.0
 35
0.0
146
0.0
 13
0.0
 23
0.0
 33
0.0
 16
1.0
 26
0.0
 36
0.0
 17
0.0
 27
1.0
 37
0.0
 76
0
330
20D
345
0
346
0
  0
IMAGEDEF
  5
3BD
102
{ACAD_REACTORS
330
3B8
330
3B7
102
}
100
AcDbRasterImageDef
 90
0
  1
B3W_assy_2_img_1.png
 10
369.0
 20
92.0
 11
0.0066666667
 21
0.0066666667
280
1
281
0
  0
TABLESTYLE
  5
3BE
102
{ACAD_REACTORS
330
3BA
330
292
330
293
102
}
330
3BA
100
AcDbTableStyle
  3
Standard
 70
0
 71
0
 40
0.06
 41
0.06
280
1
281
1
  7
Standard
140
0.18
170
1
 62
0
 63
7
283
0
  7
Standard
140
0.18
170
1
 62
0
 63
7
283
0
  7
Standard
140
0.18
170
1
 62
0
 63
7
283
0
  0
TABLESTYLE
  5
3BF
102
{ACAD_REACTORS
330
3BA
330
291
102
}
330
3BA
100
AcDbTableStyle
  3
Standard1
 70
1
 71
0
 40
0.06
 41
0.06
280
1
281
1
  7
Standard
140
0.18
170
1
 62
0
 63
7
283
0
  7
Standard
140
0.18
170
1
 62
0
 63
7
283
0
  7
Standard
140
0.18
170
1
 62
0
 63
7
283
0
  0
ENDSEC
  0
EOF
