999
DXF file: B3U_assy_2.dxf
999
Pro/ENGINEER 2014200 by Parametric Technology Corporation
  0
SECTION
  2
HEADER
  9
$ACADVER
  1
AC1021
  9
$DWGCODEPAGE
  3
ANSI_1252
  9
$EXTMAX
 10
22.0
 20
17.0
 30
0.0
  9
$EXTMIN
 10
0.0
 20
0.0
 30
0.0
  9
$LIMMIN
 10
0.0
 20
0.0
  9
$LIMMAX
 10
22.0
 20
17.0
  9
$VIEWCTR
 10
11.0
 20
8.5
  9
$VIEWSIZE
 40
17.0
  9
$CLAYER
  8
0
  9
$LTSCALE
 40
1.21
  9
$CELTYPE
  6
BYLAYER
  9
$DIMSCALE
 40
1.0
  9
$DIMASZ
 40
0.1875
  9
$DIMEXO
 40
0.0625
  9
$DIMDLI
 40
0.836
  9
$DIMEXE
 40
0.125
  9
$DIMCEN
 40
0.198
  9
$DIMLFAC
 40
1.0
  9
$DIMBLK
  1
_FILLED
  9
$DIMTXT
 40
0.1
  9
$DIMTOL
 70
0
  9
$DIMLIM
 70
0
  9
$DIMTFAC
 40
1.0
  9
$DIMGAP
 40
0.09
  9
$DIMDSEP
 70
46
  9
$AUNITS
 70
0
  9
$PDMODE
 70
3
  9
$PDSIZE
 40
0.3125
  9
$HANDSEED
  5
3BC
  9
$TILEMODE
 70
1
  9
$MEASUREMENT
 70
0
  9
$INSUNITS
 70
1
  0
ENDSEC
  0
SECTION
  2
CLASSES
  0
CLASS
  1
ACDBDICTIONARYWDFLT
  2
AcDbDictionaryWithDefault
  3
AutoCAD 2000
 90
0
 91
1
280
0
281
0
  0
CLASS
  1
ACDBPLACEHOLDER
  2
AcDbPlaceHolder
  3
AutoCAD 2000
 90
0
 91
1
280
0
281
0
  0
CLASS
  1
LAYOUT
  2
AcDbLayout
  3
AutoCAD 2000
 90
0
 91
0
280
0
281
0
  0
CLASS
  1
RASTERVARIABLES
  2
AcDbRasterVariables
  3
ISM
 90
0
 91
1
280
0
281
0
  0
CLASS
  1
IMAGEDEF
  2
AcDbRasterImageDef
  3
ISM
 90
0
 91
1
280
0
281
0
  0
CLASS
  1
IMAGEDEF_REACTOR
  2
AcDbRasterImageDefReactor
  3
ISM
 90
0
 91
1
280
0
281
0
  0
CLASS
  1
IMAGE
  2
AcDbRasterImage
  3
ISM
 90
127
 91
1
280
0
281
1
  0
CLASS
  1
TABLESTYLE
  2
AcDbTableStyle
  3
ObjectDBX Classes
 90
2047
 91
1
280
0
281
0
  0
CLASS
  1
ACAD_TABLE
  2
AcDbTable
  3
ObjectDBX Classes
 90
1025
 91
3
280
0
281
1
  0
ENDSEC
  0
SECTION
  2
TABLES
  0
TABLE
  2
VPORT
  5
8
100
AcDbSymbolTable
 70
2
  0
VPORT
  5
1F4
100
AcDbSymbolTableRecord
100
AcDbViewportTableRecord
  2
*ACTIVE
 70
0
 10
0.0
 20
0.0
 11
1.0
 21
1.0
 12
11.0
 22
8.5
 13
0.0
 23
0.0
 14
1.0
 24
1.0
 15
0.0
 25
0.0
 16
0.0
 26
0.0
 36
1.0
 17
0.0
 27
0.0
 37
0.0
 40
17.0
 41
1.2941176471
 42
50.0
 43
0.0
 44
0.0
 50
0.0
 51
0.0
 71
0
 72
100
 73
1
 74
1
 75
0
 76
0
 77
0
 78
0
  0
ENDTAB
  0
TABLE
  2
LTYPE
  5
5
100
AcDbSymbolTable
 70
6
  0
LTYPE
  5
14
100
AcDbSymbolTableRecord
100
AcDbLinetypeTableRecord
  2
BYBLOCK
 70
0
  3

 72
65
 73
0
 40
0.0
  0
LTYPE
  5
15
100
AcDbSymbolTableRecord
100
AcDbLinetypeTableRecord
  2
BYLAYER
 70
0
  3

 72
65
 73
0
 40
0.0
  0
LTYPE
  5
16
100
AcDbSymbolTableRecord
100
AcDbLinetypeTableRecord
  2
CONTINUOUS
 70
64
  3
Solid line
 72
65
 73
0
 40
0.0
  0
LTYPE
  5
1F5
100
AcDbSymbolTableRecord
100
AcDbLinetypeTableRecord
  2
CENTER
 70
64
  3
____ _ ____ _ ____ _ ____ _ ____ _ ____ _ ____
 72
65
 73
4
 40
0.6
 49
0.375
 74
0
 49
-0.075
 74
0
 49
0.075
 74
0
 49
-0.075
 74
0
  0
LTYPE
  5
1F6
100
AcDbSymbolTableRecord
100
AcDbLinetypeTableRecord
  2
HIDDEN
 70
64
  3
- - - - - - - - - - - - - - - - - - - -
 72
65
 73
2
 40
0.2
 49
0.1
 74
0
 49
-0.1
 74
0
  0
LTYPE
  5
1F7
100
AcDbSymbolTableRecord
100
AcDbLinetypeTableRecord
  2
PHANTOM
 70
64
  3
_____ _ _ _____ _ _ _____ _ _ _____
 72
65
 73
6
 40
0.8
 49
0.45
 74
0
 49
-0.05
 74
0
 49
0.1
 74
0
 49
-0.05
 74
0
 49
0.1
 74
0
 49
-0.05
 74
0
  0
LTYPE
  5
1F8
100
AcDbSymbolTableRecord
100
AcDbLinetypeTableRecord
  2
DOT
 70
64
  3
. . . . . . . . . . . . . . . . . . . .
 72
65
 73
2
 40
0.2
 49
0.1
 74
0
 49
-0.1
 74
0
  0
LTYPE
  5
1F9
100
AcDbSymbolTableRecord
100
AcDbLinetypeTableRecord
  2
DASHED
 70
64
  3
- - - - - - - - - - - - - - - - - - - -
 72
65
 73
2
 40
0.2
 49
0.1
 74
0
 49
-0.1
 74
0
  0
ENDTAB
  0
TABLE
  2
LAYER
  5
2
100
AcDbSymbolTable
 70
36
  0
LAYER
  5
10
100
AcDbSymbolTableRecord
100
AcDbLayerTableRecord
  2
0
 70
0
 62
7
  6
CONTINUOUS
370
-3
390
F
  0
LAYER
  5
1FA
100
AcDbSymbolTableRecord
100
AcDbLayerTableRecord
  2
DEFAULT_1
 70
0
 62
7
  6
CENTER
370
-3
390
F
  0
LAYER
  5
1FB
100
AcDbSymbolTableRecord
100
AcDbLayerTableRecord
  2
DEFAULT_2
 70
0
 62
8
  6
HIDDEN
370
-3
390
F
  0
LAYER
  5
1FC
100
AcDbSymbolTableRecord
100
AcDbLayerTableRecord
  2
DEFAULT_3
 70
0
 62
7
  6
PHANTOM
370
-3
390
F
  0
LAYER
  5
1FD
100
AcDbSymbolTableRecord
100
AcDbLayerTableRecord
  2
01___PRT_ALL_DTM_PLN
 70
0
 62
7
  6
CONTINUOUS
370
-3
390
F
  0
LAYER
  5
1FE
100
AcDbSymbolTableRecord
100
AcDbLayerTableRecord
  2
01___PRT_DEF_DTM_PLN
 70
0
 62
7
  6
CONTINUOUS
370
-3
390
F
  0
LAYER
  5
1FF
100
AcDbSymbolTableRecord
100
AcDbLayerTableRecord
  2
02___PRT_ALL_AXES
 70
0
 62
7
  6
CONTINUOUS
370
-3
390
F
  0
LAYER
  5
200
100
AcDbSymbolTableRecord
100
AcDbLayerTableRecord
  2
03___PRT_ALL_CURVES
 70
0
 62
7
  6
CONTINUOUS
370
-3
390
F
  0
LAYER
  5
201
100
AcDbSymbolTableRecord
100
AcDbLayerTableRecord
  2
04___PRT_ALL_DTM_PNT
 70
0
 62
7
  6
CONTINUOUS
370
-3
390
F
  0
LAYER
  5
202
100
AcDbSymbolTableRecord
100
AcDbLayerTableRecord
  2
05___PRT_ALL_DTM_CSYS
 70
0
 62
7
  6
CONTINUOUS
370
-3
390
F
  0
LAYER
  5
203
100
AcDbSymbolTableRecord
100
AcDbLayerTableRecord
  2
05___PRT_DEF_DTM_CSYS
 70
0
 62
7
  6
CONTINUOUS
370
-3
390
F
  0
LAYER
  5
204
100
AcDbSymbolTableRecord
100
AcDbLayerTableRecord
  2
06___PRT_ALL_SURFS
 70
0
 62
7
  6
CONTINUOUS
370
-3
390
F
  0
LAYER
  5
205
100
AcDbSymbolTableRecord
100
AcDbLayerTableRecord
  2
DATUM_PLANES
 70
0
 62
7
  6
CONTINUOUS
370
-3
390
F
  0
LAYER
  5
206
100
AcDbSymbolTableRecord
100
AcDbLayerTableRecord
  2
PORT_AREAS
 70
0
 62
7
  6
CONTINUOUS
370
-3
390
F
  0
LAYER
  5
207
100
AcDbSymbolTableRecord
100
AcDbLayerTableRecord
  2
SUNNBOMCOSMETIC
 70
0
 62
7
  6
CONTINUOUS
370
-3
390
F
  0
LAYER
  5
208
100
AcDbSymbolTableRecord
100
AcDbLayerTableRecord
  2
SUNNBOMSTAMPING
 70
0
 62
7
  6
CONTINUOUS
370
-3
390
F
  0
LAYER
  5
209
100
AcDbSymbolTableRecord
100
AcDbLayerTableRecord
  2
THREADS
 70
0
 62
7
  6
CONTINUOUS
370
-3
390
F
  0
ENDTAB
  0
TABLE
  2
STYLE
  5
3
100
AcDbSymbolTable
 70
1
  0
STYLE
  5
11
100
AcDbSymbolTableRecord
100
AcDbTextStyleTableRecord
  2
STANDARD
 70
0
 40
0.0
 41
0.8
 50
0.0
 71
0
 42
0.2
  3
txt
  4

  0
STYLE
  5
20A
100
AcDbSymbolTableRecord
100
AcDbTextStyleTableRecord
  2
TEXTSTYLE_1
 70
0
 40
0.0
 41
0.8
 50
0.0
 71
0
 42
0.2
  3
gdt
  4

  0
ENDTAB
  0
TABLE
  2
VIEW
  5
6
100
AcDbSymbolTable
 70
0
  0
ENDTAB
  0
TABLE
  2
UCS
  5
7
100
AcDbSymbolTable
 70
0
  0
ENDTAB
  0
TABLE
  2
APPID
  5
9
100
AcDbSymbolTable
 70
1
  0
APPID
  5
20B
100
AcDbSymbolTableRecord
100
AcDbRegAppTableRecord
  2
ACAD
 70
0
  0
ENDTAB
  0
TABLE
  2
BLOCK_RECORD
  5
1
100
AcDbSymbolTable
 70
0
  0
BLOCK_RECORD
  5
20C
100
AcDbSymbolTableRecord
100
AcDbBlockTableRecord
  2
*Model_Space
  0
BLOCK_RECORD
  5
20D
100
AcDbSymbolTableRecord
100
AcDbBlockTableRecord
  2
*Paper_Space
  0
BLOCK_RECORD
  5
20E
100
AcDbSymbolTableRecord
100
AcDbBlockTableRecord
  2
SUN_FIRST_THIRD_ANGLE_BL0
  0
BLOCK_RECORD
  5
20F
100
AcDbSymbolTableRecord
100
AcDbBlockTableRecord
  2
*T1
  0
BLOCK_RECORD
  5
210
100
AcDbSymbolTableRecord
100
AcDbBlockTableRecord
  2
*T2
  0
BLOCK_RECORD
  5
211
100
AcDbSymbolTableRecord
100
AcDbBlockTableRecord
  2
*T3
  0
ENDTAB
  0
TABLE
  2
DIMSTYLE
  5
A
100
AcDbSymbolTable
 70
1
100
AcDbDimStyleTable
 71
0
  0
DIMSTYLE
105
212
100
AcDbSymbolTableRecord
100
AcDbDimStyleTableRecord
  2
STANDARD
 70
0
  3

  4

 40
1.0
 41
0.1875
 42
0.0625
 43
0.38
 44
0.125
 45
0.0
 46
0.0
 47
0.001
 48
0.001
140
0.1
141
0.09
142
0.0
143
25.4
144
1.0
145
0.0
146
1.0
147
0.09
 71
0.0
 72
0.0
 73
1
 74
1
 75
0
 76
0
 77
0
 78
4
170
0
171
2
172
0
173
0
174
0
175
0
176
0
177
0
178
0
270
2
271
3
272
3
273
2
274
2
275
0
280
0
281
0
282
0
283
1
284
4
285
0
286
0
287
3
288
0
340
11
278
46
  0
ENDTAB
  0
ENDSEC
  0
SECTION
  2
BLOCKS
  0
BLOCK
  5
20
100
AcDbEntity
  8
0
100
AcDbBlockBegin
  2
*Model_Space
 70
0
 10
0.0
 20
0.0
 30
0.0
  3
*Model_Space
  1

  0
ENDBLK
  5
21
100
AcDbEntity
  8
0
100
AcDbBlockEnd
  0
BLOCK
  5
1C
100
AcDbEntity
  8
0
100
AcDbBlockBegin
  2
*Paper_Space
 70
0
 10
0.0
 20
0.0
 30
0.0
  3
*Paper_Space
  1

  0
ENDBLK
  5
1D
100
AcDbEntity
  8
0
100
AcDbBlockEnd
  0
BLOCK
  5
213
100
AcDbEntity
  8
0
100
AcDbBlockBegin
 62
2
  6
CONTINUOUS
  2
SUN_FIRST_THIRD_ANGLE_BL0
 70
64
 10
20.4816717061
 20
1.2289683772
  3
SUN_FIRST_THIRD_ANGLE_BL0
  1

  0
TEXT
  5
214
100
AcDbEntity
  8
0
100
AcDbText
 62
2
  6
CONTINUOUS
 10
19.4750896608
 20
1.4136269581
  7
STANDARD
 40
0.08
  1
FIRST ANGLE
 41
0.8
 72
0
100
AcDbText
  0
TEXT
  5
215
100
AcDbEntity
  8
0
100
AcDbText
 62
2
  6
CONTINUOUS
 10
20.7842537513
 20
1.4047600029
  7
STANDARD
 40
0.08
  1
THIRD ANGLE
 41
0.8
 72
0
100
AcDbText
  0
LINE
  5
216
100
AcDbEntity
  8
0
100
AcDbLine
 62
7
  6
CONTINUOUS
 10
19.4767170086
 20
1.1727031207
 11
19.6334271527
 21
1.1717972817
  0
LINE
  5
217
100
AcDbEntity
  8
0
100
AcDbLine
 62
7
  6
CONTINUOUS
 10
19.6596964832
 20
1.1717972817
 11
19.6950230232
 21
1.171593082
  0
LINE
  5
218
100
AcDbEntity
  8
0
100
AcDbLine
 62
7
  6
CONTINUOUS
 10
19.7194818561
 20
1.1708914427
 11
19.8852396156
 21
1.1699333054
  0
LINE
  5
219
100
AcDbEntity
  8
0
100
AcDbLine
 62
7
  6
CONTINUOUS
 10
19.4758111696
 20
1.2723454088
 11
19.88525039
 21
1.3511534004
  0
LINE
  5
21A
100
AcDbEntity
  8
0
100
AcDbLine
 62
7
  6
CONTINUOUS
 10
19.88525039
 20
1.3511534004
 11
19.8831348489
 21
0.9851647912
  0
LINE
  5
21B
100
AcDbEntity
  8
0
100
AcDbLine
 62
7
  6
CONTINUOUS
 10
19.8831348489
 20
0.9851647912
 11
19.4767170086
 21
1.0658141206
  0
LINE
  5
21C
100
AcDbEntity
  8
0
100
AcDbLine
 62
7
  6
CONTINUOUS
 10
19.4767170086
 20
1.0658141206
 11
19.4779056764
 21
1.2714536432
  0
CIRCLE
  5
21D
100
AcDbEntity
  8
0
100
AcDbCircle
 62
7
  6
CONTINUOUS
 10
20.2068232291
 20
1.1717972817
 40
0.175742101
  0
CIRCLE
  5
21E
100
AcDbEntity
  8
0
100
AcDbCircle
 62
7
  6
CONTINUOUS
 10
20.2068232291
 20
1.1717972817
 40
0.1005522074
  0
LINE
  5
21F
100
AcDbEntity
  8
0
100
AcDbLine
 62
7
  6
CONTINUOUS
 10
20.2077290681
 20
1.3756110529
 11
20.2071171714
 21
1.2379342989
  0
LINE
  5
220
100
AcDbEntity
  8
0
100
AcDbLine
 62
7
  6
CONTINUOUS
 10
20.2077290681
 20
1.2016899681
 11
20.2074674401
 21
1.1428236749
  0
LINE
  5
221
100
AcDbEntity
  8
0
100
AcDbLine
 62
7
  6
CONTINUOUS
 10
20.208634907
 20
1.101141841
 11
20.2080230104
 21
0.963465087
  0
LINE
  5
222
100
AcDbEntity
  8
0
100
AcDbLine
 62
7
  6
CONTINUOUS
 10
20.0066328138
 20
1.1745147986
 11
20.1443095678
 21
1.1739029019
  0
LINE
  5
223
100
AcDbEntity
  8
0
100
AcDbLine
 62
7
  6
CONTINUOUS
 10
20.1832714155
 20
1.1727031207
 11
20.238153505
 21
1.172335442
  0
LINE
  5
224
100
AcDbEntity
  8
0
100
AcDbLine
 62
7
  6
CONTINUOUS
 10
20.2756669918
 20
1.1717972817
 11
20.407916871
 21
1.1712095044
  0
CIRCLE
  5
225
100
AcDbEntity
  8
0
100
AcDbCircle
 62
7
  6
CONTINUOUS
 10
20.7509457401
 20
1.1693297793
 40
0.1722024983
  0
CIRCLE
  5
226
100
AcDbEntity
  8
0
100
AcDbCircle
 62
7
  6
CONTINUOUS
 10
20.7509457401
 20
1.1693297793
 40
0.0985164967
  0
LINE
  5
227
100
AcDbEntity
  8
0
100
AcDbLine
 62
7
  6
CONTINUOUS
 10
20.7169767782
 20
1.170462078
 11
20.7825395137
 21
1.1682766535
  0
LINE
  5
228
100
AcDbEntity
  8
0
100
AcDbLine
 62
7
  6
CONTINUOUS
 10
20.8177513651
 20
1.1693297793
 11
20.947965719
 21
1.1693297793
  0
LINE
  5
229
100
AcDbEntity
  8
0
100
AcDbLine
 62
7
  6
CONTINUOUS
 10
20.6875370113
 20
1.170462078
 11
20.5573226574
 21
1.170462078
  0
LINE
  5
22A
100
AcDbEntity
  8
0
100
AcDbLine
 62
7
  6
CONTINUOUS
 10
20.7486811426
 20
1.1987695462
 11
20.7486811426
 21
1.1432869085
  0
LINE
  5
22B
100
AcDbEntity
  8
0
100
AcDbLine
 62
7
  6
CONTINUOUS
 10
20.7498134414
 20
1.1059210505
 11
20.7498134414
 21
0.9757066966
  0
LINE
  5
22C
100
AcDbEntity
  8
0
100
AcDbLine
 62
7
  6
CONTINUOUS
 10
20.7486811426
 20
1.2338708068
 11
20.7486811426
 21
1.3640851607
  0
LINE
  5
22D
100
AcDbEntity
  8
0
100
AcDbLine
 62
7
  6
CONTINUOUS
 10
21.0702539817
 20
1.2701043662
 11
21.4790138229
 21
1.3448360823
  0
LINE
  5
22E
100
AcDbEntity
  8
0
100
AcDbLine
 62
7
  6
CONTINUOUS
 10
21.4790138229
 20
1.3448360823
 11
21.4790138229
 21
0.9779712941
  0
LINE
  5
22F
100
AcDbEntity
  8
0
100
AcDbLine
 62
7
  6
CONTINUOUS
 10
21.4790138229
 20
0.9779712941
 11
21.069121683
 21
1.0617614
  0
LINE
  5
230
100
AcDbEntity
  8
0
100
AcDbLine
 62
7
  6
CONTINUOUS
 10
21.0702539817
 20
1.2701043662
 11
21.069121683
 21
1.0617614
  0
LINE
  5
231
100
AcDbEntity
  8
0
100
AcDbLine
 62
7
  6
CONTINUOUS
 10
21.4790138229
 20
1.1693297793
 11
21.3159628059
 21
1.1693297793
  0
LINE
  5
232
100
AcDbEntity
  8
0
100
AcDbLine
 62
7
  6
CONTINUOUS
 10
21.2876553377
 20
1.1693297793
 11
21.2502894796
 21
1.1693297793
  0
LINE
  5
233
100
AcDbEntity
  8
0
100
AcDbLine
 62
7
  6
CONTINUOUS
 10
21.2208497126
 20
1.1659328831
 11
21.0713862804
 21
1.1659328831
  0
LINE
  5
234
100
AcDbEntity
  8
0
100
AcDbLine
 62
7
  6
CONTINUOUS
 10
20.4796138713
 20
1.5284908897
 11
20.4766766948
 21
0.9294458646
  0
ENDBLK
  5
235
100
AcDbEntity
  8
0
  6
BYBLOCK
 62
0
100
AcDbBlockEnd
  0
BLOCK
  5
236
100
AcDbEntity
  8
0
100
AcDbBlockBegin
  2
*T1
 70
1
 10
0.0
 20
0.0
  3
*T1
  1

  0
LINE
  5
237
100
AcDbEntity
  8
0
100
AcDbLine
 62
2
  6
CONTINUOUS
 10
9.275
 20
0.0
 11
-0.0
 21
0.0
  0
LINE
  5
238
100
AcDbEntity
  8
0
100
AcDbLine
 62
2
  6
CONTINUOUS
 10
9.275
 20
0.0
 11
9.275
 21
1.25
  0
LINE
  5
239
100
AcDbEntity
  8
0
100
AcDbLine
 62
2
  6
CONTINUOUS
 10
9.275
 20
0.625
 11
-0.0
 21
0.625
  0
LINE
  5
23A
100
AcDbEntity
  8
0
100
AcDbLine
 62
2
  6
CONTINUOUS
 10
9.275
 20
1.25
 11
-0.0
 21
1.25
  0
LINE
  5
23B
100
AcDbEntity
  8
0
100
AcDbLine
 62
2
  6
CONTINUOUS
 10
6.8
 20
0.0
 11
6.8
 21
1.25
  0
LINE
  5
23C
100
AcDbEntity
  8
0
100
AcDbLine
 62
2
  6
CONTINUOUS
 10
6.4
 20
0.0
 11
6.4
 21
0.625
  0
LINE
  5
23D
100
AcDbEntity
  8
0
100
AcDbLine
 62
2
  6
CONTINUOUS
 10
5.9
 20
0.0
 11
5.9
 21
0.625
  0
LINE
  5
23E
100
AcDbEntity
  8
0
100
AcDbLine
 62
2
  6
CONTINUOUS
 10
5.2
 20
0.0
 11
5.2
 21
0.625
  0
LINE
  5
23F
100
AcDbEntity
  8
0
100
AcDbLine
 62
2
  6
CONTINUOUS
 10
4.1
 20
0.0
 11
4.1
 21
1.25
  0
LINE
  5
240
100
AcDbEntity
  8
0
100
AcDbLine
 62
2
  6
CONTINUOUS
 10
-0.0
 20
0.0
 11
-0.0
 21
1.25
  0
MTEXT
  5
241
100
AcDbEntity
  8
0
100
AcDbMText
 62
2
  6
CONTINUOUS
  7
STANDARD
 71
2
 72
1
 10
6.6
 20
0.325
 30
0.0
 11
1.0
 21
0.0
 31
0.0
 44
0.9
  1
2
 40
0.125
 41
0.2
  0
MTEXT
  5
242
100
AcDbEntity
  8
0
100
AcDbMText
 62
2
  6
CONTINUOUS
  7
STANDARD
 71
2
 72
1
 10
6.15
 20
0.325
 30
0.0
 11
1.0
 21
0.0
 31
0.0
 44
0.9
  1
C
 40
0.125
 41
0.2
  0
MTEXT
  5
243
100
AcDbEntity
  8
0
100
AcDbMText
 62
2
  6
CONTINUOUS
  7
STANDARD
 71
2
 72
1
 10
5.55
 20
0.325
 30
0.0
 11
1.0
 21
0.0
 31
0.0
 44
0.9
  1
1.000
 40
0.125
 41
1.0
  0
MTEXT
  5
244
100
AcDbEntity
  8
0
100
AcDbMText
 62
2
  6
CONTINUOUS
  7
STANDARD
 71
2
 72
1
 10
4.65
 20
0.325
 30
0.0
 11
1.0
 21
0.0
 31
0.0
 44
0.9
  1
Oct-01-21
 40
0.125
 41
1.8
  0
MTEXT
  5
245
100
AcDbEntity
  8
0
100
AcDbMText
 62
2
  6
CONTINUOUS
  7
STANDARD
 71
2
 72
1
 10
2.05
 20
0.4625
 30
0.0
 11
1.0
 21
0.0
 31
0.0
 44
0.9
  1
T-2A Line mount\PThrough port 2 with reverse flow check
 40
0.125
 41
7.6
  0
MTEXT
  5
246
100
AcDbEntity
  8
0
100
AcDbMText
 62
2
  6
CONTINUOUS
  7
STANDARD
 71
1
 72
1
 10
6.45
 20
0.5625
 30
0.0
 11
1.0
 21
0.0
 31
0.0
 44
0.9
  1
SHEET
 40
0.06
 41
0.48
  0
MTEXT
  5
247
100
AcDbEntity
  8
0
100
AcDbMText
 62
2
  6
CONTINUOUS
  7
STANDARD
 71
1
 72
1
 10
5.95
 20
0.5625
 30
0.0
 11
1.0
 21
0.0
 31
0.0
 44
0.9
  1
DWG SIZE
 40
0.06
 41
0.768
  0
MTEXT
  5
248
100
AcDbEntity
  8
0
100
AcDbMText
 62
2
  6
CONTINUOUS
  7
STANDARD
 71
1
 72
1
 10
5.25
 20
0.5625
 30
0.0
 11
1.0
 21
0.0
 31
0.0
 44
0.9
  1
SCALE
 40
0.06
 41
0.48
  0
MTEXT
  5
249
100
AcDbEntity
  8
0
100
AcDbMText
 62
2
  6
CONTINUOUS
  7
STANDARD
 71
1
 72
1
 10
4.15
 20
0.5625
 30
0.0
 11
1.0
 21
0.0
 31
0.0
 44
0.9
  1
DATE
 40
0.06
 41
0.384
  0
MTEXT
  5
24A
100
AcDbEntity
  8
0
100
AcDbMText
 62
2
  6
CONTINUOUS
  7
STANDARD
 71
1
 72
1
 10
0.05
 20
0.5625
 30
0.0
 11
1.0
 21
0.0
 31
0.0
 44
0.9
  1
DESCRIPTION
 40
0.06
 41
1.056
  0
MTEXT
  5
24B
100
AcDbEntity
  8
0
100
AcDbMText
 62
2
  6
CONTINUOUS
  7
STANDARD
 71
2
 72
1
 10
5.45
 20
1.0375
 30
0.0
 11
1.0
 21
0.0
 31
0.0
 44
0.9
  1
ALL DIMENSIONS IN INCH\PVIEWS ARE THIRD ANGLE
 40
0.12
 41
4.224
  0
MTEXT
  5
24C
100
AcDbEntity
  8
0
100
AcDbMText
 62
2
  6
CONTINUOUS
  7
STANDARD
 71
2
 72
1
 10
2.05
 20
0.95
 30
0.0
 11
1.0
 21
0.0
 31
0.0
 44
0.9
  1
B3U
 40
0.125
 41
0.6
  0
MTEXT
  5
24D
100
AcDbEntity
  8
0
100
AcDbMText
 62
2
  6
CONTINUOUS
  7
STANDARD
 71
1
 72
1
 10
0.05
 20
1.1875
 30
0.0
 11
1.0
 21
0.0
 31
0.0
 44
0.9
  1
MODEL
 40
0.06
 41
0.48
  0
ENDBLK
  5
24E
100
AcDbEntity
  8
0
  6
BYBLOCK
 62
0
100
AcDbBlockEnd
  0
BLOCK
  5
24F
100
AcDbEntity
  8
0
100
AcDbBlockBegin
  2
*T2
 70
1
 10
0.0
 20
0.0
  3
*T2
  1

  0
LINE
  5
250
100
AcDbEntity
  8
0
100
AcDbLine
 62
2
  6
CONTINUOUS
 10
0.0
 20
0.0
 11
9.055
 21
0.0
  0
LINE
  5
251
100
AcDbEntity
  8
0
100
AcDbLine
 62
2
  6
CONTINUOUS
 10
0.0
 20
0.0
 11
0.0
 21
-2.594
  0
LINE
  5
252
100
AcDbEntity
  8
0
100
AcDbLine
 62
2
  6
CONTINUOUS
 10
0.0
 20
-0.344
 11
9.055
 21
-0.344
  0
LINE
  5
253
100
AcDbEntity
  8
0
100
AcDbLine
 62
2
  6
CONTINUOUS
 10
0.0
 20
-0.594
 11
9.055
 21
-0.594
  0
LINE
  5
254
100
AcDbEntity
  8
0
100
AcDbLine
 62
2
  6
CONTINUOUS
 10
0.0
 20
-0.844
 11
9.055
 21
-0.844
  0
LINE
  5
255
100
AcDbEntity
  8
0
100
AcDbLine
 62
2
  6
CONTINUOUS
 10
0.0
 20
-1.094
 11
9.055
 21
-1.094
  0
LINE
  5
256
100
AcDbEntity
  8
0
100
AcDbLine
 62
2
  6
CONTINUOUS
 10
0.0
 20
-1.344
 11
9.055
 21
-1.344
  0
LINE
  5
257
100
AcDbEntity
  8
0
100
AcDbLine
 62
2
  6
CONTINUOUS
 10
0.0
 20
-1.594
 11
9.055
 21
-1.594
  0
LINE
  5
258
100
AcDbEntity
  8
0
100
AcDbLine
 62
2
  6
CONTINUOUS
 10
0.0
 20
-1.844
 11
9.055
 21
-1.844
  0
LINE
  5
259
100
AcDbEntity
  8
0
100
AcDbLine
 62
2
  6
CONTINUOUS
 10
0.0
 20
-2.094
 11
9.055
 21
-2.094
  0
LINE
  5
25A
100
AcDbEntity
  8
0
100
AcDbLine
 62
2
  6
CONTINUOUS
 10
0.0
 20
-2.344
 11
9.055
 21
-2.344
  0
LINE
  5
25B
100
AcDbEntity
  8
0
100
AcDbLine
 62
2
  6
CONTINUOUS
 10
0.0
 20
-2.594
 11
9.055
 21
-2.594
  0
LINE
  5
25C
100
AcDbEntity
  8
0
100
AcDbLine
 62
2
  6
CONTINUOUS
 10
3.055
 20
0.0
 11
3.055
 21
-2.594
  0
LINE
  5
25D
100
AcDbEntity
  8
0
100
AcDbLine
 62
2
  6
CONTINUOUS
 10
9.055
 20
0.0
 11
9.055
 21
-2.594
  0
MTEXT
  5
25E
100
AcDbEntity
  8
0
100
AcDbMText
 62
2
  6
CONTINUOUS
  7
STANDARD
 71
2
 72
1
 10
1.5275
 20
-0.0995
 30
0.0
 11
1.0
 21
0.0
 31
0.0
 44
0.9
  1
Technical Data
 40
0.145
 41
3.248
  0
MTEXT
  5
25F
100
AcDbEntity
  8
0
100
AcDbMText
 62
2
  6
CONTINUOUS
  7
STANDARD
 71
2
 72
1
 10
4.555
 20
-0.0995
 30
0.0
 11
1.0
 21
0.0
 31
0.0
 44
0.9
  1
U.S. Units
 40
0.145
 41
2.32
  0
MTEXT
  5
260
100
AcDbEntity
  8
0
100
AcDbMText
 62
2
  6
CONTINUOUS
  7
STANDARD
 71
2
 72
1
 10
7.555
 20
-0.0995
 30
0.0
 11
1.0
 21
0.0
 31
0.0
 44
0.9
  1
Metric Units
 40
0.145
 41
2.784
  0
MTEXT
  5
261
100
AcDbEntity
  8
0
100
AcDbMText
 62
2
  6
CONTINUOUS
  7
STANDARD
 71
2
 72
1
 10
1.5275
 20
-0.4065
 30
0.0
 11
1.0
 21
0.0
 31
0.0
 44
0.9
  1
Cavity
 40
0.125
 41
1.2
  0
MTEXT
  5
262
100
AcDbEntity
  8
0
100
AcDbMText
 62
2
  6
CONTINUOUS
  7
STANDARD
 71
2
 72
1
 10
6.055
 20
-0.4065
 30
0.0
 11
1.0
 21
0.0
 31
0.0
 44
0.9
  1
T-2A
 40
0.125
 41
0.8
  0
MTEXT
  5
263
100
AcDbEntity
  8
0
100
AcDbMText
 62
2
  6
CONTINUOUS
  7
STANDARD
 71
2
 72
1
 10
1.5275
 20
-0.6565
 30
0.0
 11
1.0
 21
0.0
 31
0.0
 44
0.9
  1
Body Features
 40
0.125
 41
2.6
  0
MTEXT
  5
264
100
AcDbEntity
  8
0
100
AcDbMText
 62
2
  6
CONTINUOUS
  7
STANDARD
 71
2
 72
1
 10
6.055
 20
-0.6565
 30
0.0
 11
1.0
 21
0.0
 31
0.0
 44
0.9
  1
Through port 2 with reverse flow check
 40
0.125
 41
7.6
  0
MTEXT
  5
265
100
AcDbEntity
  8
0
100
AcDbMText
 62
2
  6
CONTINUOUS
  7
STANDARD
 71
2
 72
1
 10
1.5275
 20
-0.9065
 30
0.0
 11
1.0
 21
0.0
 31
0.0
 44
0.9
  1
Body Type
 40
0.125
 41
1.8
  0
MTEXT
  5
266
100
AcDbEntity
  8
0
100
AcDbMText
 62
2
  6
CONTINUOUS
  7
STANDARD
 71
2
 72
1
 10
6.055
 20
-0.9065
 30
0.0
 11
1.0
 21
0.0
 31
0.0
 44
0.9
  1
Line mount
 40
0.125
 41
2.0
  0
MTEXT
  5
267
100
AcDbEntity
  8
0
100
AcDbMText
 62
2
  6
CONTINUOUS
  7
STANDARD
 71
2
 72
1
 10
1.5275
 20
-1.1565
 30
0.0
 11
1.0
 21
0.0
 31
0.0
 44
0.9
  1
Interface
 40
0.125
 41
1.8
  0
MTEXT
  5
268
100
AcDbEntity
  8
0
100
AcDbMText
 62
2
  6
CONTINUOUS
  7
STANDARD
 71
2
 72
1
 10
6.055
 20
-1.1565
 30
0.0
 11
1.0
 21
0.0
 31
0.0
 44
0.9
  1
None
 40
0.125
 41
0.8
  0
MTEXT
  5
269
100
AcDbEntity
  8
0
100
AcDbMText
 62
2
  6
CONTINUOUS
  7
STANDARD
 71
2
 72
1
 10
1.5275
 20
-1.4065
 30
0.0
 11
1.0
 21
0.0
 31
0.0
 44
0.9
  1
Open Cavity Quantity
 40
0.125
 41
4.0
  0
MTEXT
  5
26A
100
AcDbEntity
  8
0
100
AcDbMText
 62
2
  6
CONTINUOUS
  7
STANDARD
 71
2
 72
1
 10
6.055
 20
-1.4065
 30
0.0
 11
1.0
 21
0.0
 31
0.0
 44
0.9
  1
1
 40
0.125
 41
0.2
  0
MTEXT
  5
26B
100
AcDbEntity
  8
0
100
AcDbMText
 62
2
  6
CONTINUOUS
  7
STANDARD
 71
2
 72
1
 10
1.5275
 20
-1.6565
 30
0.0
 11
1.0
 21
0.0
 31
0.0
 44
0.9
  1
Weight
 40
0.125
 41
1.2
  0
MTEXT
  5
26C
100
AcDbEntity
  8
0
100
AcDbMText
 62
2
  6
CONTINUOUS
  7
STANDARD
 71
2
 72
1
 10
4.555
 20
-1.6565
 30
0.0
 11
1.0
 21
0.0
 31
0.0
 44
0.9
  1
3.511 lb.
 40
0.125
 41
1.8
  0
MTEXT
  5
26D
100
AcDbEntity
  8
0
100
AcDbMText
 62
2
  6
CONTINUOUS
  7
STANDARD
 71
2
 72
1
 10
7.555
 20
-1.6565
 30
0.0
 11
1.0
 21
0.0
 31
0.0
 44
0.9
  1
1,593 kg.
 40
0.125
 41
1.8
  0
MTEXT
  5
26E
100
AcDbEntity
  8
0
100
AcDbMText
 62
2
  6
CONTINUOUS
  7
STANDARD
 71
2
 72
1
 10
1.5275
 20
-1.9065
 30
0.0
 11
1.0
 21
0.0
 31
0.0
 44
0.9
  1
Mounting Hole Thread
 40
0.125
 41
4.0
  0
MTEXT
  5
26F
100
AcDbEntity
  8
0
100
AcDbMText
 62
2
  6
CONTINUOUS
  7
STANDARD
 71
2
 72
1
 10
6.055
 20
-1.9065
 30
0.0
 11
1.0
 21
0.0
 31
0.0
 44
0.9
  1
M10x1.5 - 6H
 40
0.125
 41
2.4
  0
MTEXT
  5
270
100
AcDbEntity
  8
0
100
AcDbMText
 62
2
  6
CONTINUOUS
  7
STANDARD
 71
2
 72
1
 10
1.5275
 20
-2.1565
 30
0.0
 11
1.0
 21
0.0
 31
0.0
 44
0.9
  1
Mounting Hole Depth
 40
0.125
 41
3.8
  0
MTEXT
  5
271
100
AcDbEntity
  8
0
100
AcDbMText
 62
2
  6
CONTINUOUS
  7
STANDARD
 71
2
 72
1
 10
4.555
 20
-2.1565
 30
0.0
 11
1.0
 21
0.0
 31
0.0
 44
0.9
  1
.62 in.
 40
0.125
 41
1.4
  0
MTEXT
  5
272
100
AcDbEntity
  8
0
100
AcDbMText
 62
2
  6
CONTINUOUS
  7
STANDARD
 71
2
 72
1
 10
7.555
 20
-2.1565
 30
0.0
 11
1.0
 21
0.0
 31
0.0
 44
0.9
  1
15,7 mm
 40
0.125
 41
1.4
  0
MTEXT
  5
273
100
AcDbEntity
  8
0
100
AcDbMText
 62
2
  6
CONTINUOUS
  7
STANDARD
 71
2
 72
1
 10
1.5275
 20
-2.4065
 30
0.0
 11
1.0
 21
0.0
 31
0.0
 44
0.9
  1
Mounting Hole Quantity
 40
0.125
 41
4.4
  0
MTEXT
  5
274
100
AcDbEntity
  8
0
100
AcDbMText
 62
2
  6
CONTINUOUS
  7
STANDARD
 71
2
 72
1
 10
6.055
 20
-2.4065
 30
0.0
 11
1.0
 21
0.0
 31
0.0
 44
0.9
  1
2
 40
0.125
 41
0.2
  0
ENDBLK
  5
275
100
AcDbEntity
  8
0
  6
BYBLOCK
 62
0
100
AcDbBlockEnd
  0
BLOCK
  5
276
100
AcDbEntity
  8
0
100
AcDbBlockBegin
  2
*T3
 70
1
 10
0.0
 20
0.0
  3
*T3
  1

  0
LINE
  5
277
100
AcDbEntity
  8
0
100
AcDbLine
 62
2
  6
CONTINUOUS
 10
0.0
 20
0.0
 11
4.6
 21
0.0
  0
LINE
  5
278
100
AcDbEntity
  8
0
100
AcDbLine
 62
2
  6
CONTINUOUS
 10
0.0
 20
0.0
 11
0.0
 21
-1.43775
  0
LINE
  5
279
100
AcDbEntity
  8
0
100
AcDbLine
 62
2
  6
CONTINUOUS
 10
0.0
 20
-0.34375
 11
4.6
 21
-0.34375
  0
LINE
  5
27A
100
AcDbEntity
  8
0
100
AcDbLine
 62
2
  6
CONTINUOUS
 10
0.0
 20
-0.68775
 11
4.6
 21
-0.68775
  0
LINE
  5
27B
100
AcDbEntity
  8
0
100
AcDbLine
 62
2
  6
CONTINUOUS
 10
0.0
 20
-0.93775
 11
4.6
 21
-0.93775
  0
LINE
  5
27C
100
AcDbEntity
  8
0
100
AcDbLine
 62
2
  6
CONTINUOUS
 10
0.0
 20
-1.18775
 11
4.6
 21
-1.18775
  0
LINE
  5
27D
100
AcDbEntity
  8
0
100
AcDbLine
 62
2
  6
CONTINUOUS
 10
0.0
 20
-1.43775
 11
4.6
 21
-1.43775
  0
LINE
  5
27E
100
AcDbEntity
  8
0
100
AcDbLine
 62
2
  6
CONTINUOUS
 10
1.3
 20
-0.34375
 11
1.3
 21
-1.43775
  0
LINE
  5
27F
100
AcDbEntity
  8
0
100
AcDbLine
 62
2
  6
CONTINUOUS
 10
3.3
 20
-0.34375
 11
3.3
 21
-1.43775
  0
LINE
  5
280
100
AcDbEntity
  8
0
100
AcDbLine
 62
2
  6
CONTINUOUS
 10
4.6
 20
0.0
 11
4.6
 21
-1.43775
  0
MTEXT
  5
281
100
AcDbEntity
  8
0
100
AcDbMText
 62
2
  6
CONTINUOUS
  7
STANDARD
 71
2
 72
1
 10
2.3
 20
-0.099375
 30
0.0
 11
1.0
 21
0.0
 31
0.0
 44
0.9
  1
Port Headings
 40
0.145
 41
3.016
  0
MTEXT
  5
282
100
AcDbEntity
  8
0
100
AcDbMText
 62
2
  6
CONTINUOUS
  7
STANDARD
 71
2
 72
1
 10
0.65
 20
-0.44325
 30
0.0
 11
1.0
 21
0.0
 31
0.0
 44
0.9
  1
Product
 40
0.145
 41
1.624
  0
MTEXT
  5
283
100
AcDbEntity
  8
0
100
AcDbMText
 62
2
  6
CONTINUOUS
  7
STANDARD
 71
2
 72
1
 10
2.3
 20
-0.44325
 30
0.0
 11
1.0
 21
0.0
 31
0.0
 44
0.9
  1
Port
 40
0.145
 41
0.928
  0
MTEXT
  5
284
100
AcDbEntity
  8
0
100
AcDbMText
 62
2
  6
CONTINUOUS
  7
STANDARD
 71
2
 72
1
 10
3.95
 20
-0.44325
 30
0.0
 11
1.0
 21
0.0
 31
0.0
 44
0.9
  1
Size
 40
0.145
 41
0.928
  0
MTEXT
  5
285
100
AcDbEntity
  8
0
100
AcDbMText
 62
2
  6
CONTINUOUS
  7
STANDARD
 71
2
 72
1
 10
0.65
 20
-0.75025
 30
0.0
 11
1.0
 21
0.0
 31
0.0
 44
0.9
  1
B3U
 40
0.125
 41
0.6
  0
MTEXT
  5
286
100
AcDbEntity
  8
0
100
AcDbMText
 62
2
  6
CONTINUOUS
  7
STANDARD
 71
2
 72
1
 10
2.3
 20
-0.75025
 30
0.0
 11
1.0
 21
0.0
 31
0.0
 44
0.9
  1
Ports 1 &  2
 40
0.125
 41
2.4
  0
MTEXT
  5
287
100
AcDbEntity
  8
0
100
AcDbMText
 62
2
  6
CONTINUOUS
  7
STANDARD
 71
2
 72
1
 10
3.95
 20
-0.75025
 30
0.0
 11
1.0
 21
0.0
 31
0.0
 44
0.9
  1
3/8" BSPP
 40
0.125
 41
1.8
  0
MTEXT
  5
288
100
AcDbEntity
  8
0
100
AcDbMText
 62
2
  6
CONTINUOUS
  7
STANDARD
 71
2
 72
1
 10
0.65
 20
-1.00025
 30
0.0
 11
1.0
 21
0.0
 31
0.0
 44
0.9
  1
B3U
 40
0.125
 41
0.6
  0
MTEXT
  5
289
100
AcDbEntity
  8
0
100
AcDbMText
 62
2
  6
CONTINUOUS
  7
STANDARD
 71
2
 72
1
 10
2.3
 20
-1.00025
 30
0.0
 11
1.0
 21
0.0
 31
0.0
 44
0.9
  1
Port 3
 40
0.125
 41
1.2
  0
MTEXT
  5
28A
100
AcDbEntity
  8
0
100
AcDbMText
 62
2
  6
CONTINUOUS
  7
STANDARD
 71
2
 72
1
 10
3.95
 20
-1.00025
 30
0.0
 11
1.0
 21
0.0
 31
0.0
 44
0.9
  1
1/4" BSPP
 40
0.125
 41
1.8
  0
MTEXT
  5
28B
100
AcDbEntity
  8
0
100
AcDbMText
 62
2
  6
CONTINUOUS
  7
STANDARD
 71
2
 72
1
 10
0.65
 20
-1.25025
 30
0.0
 11
1.0
 21
0.0
 31
0.0
 44
0.9
  1
B3U
 40
0.125
 41
0.6
  0
MTEXT
  5
28C
100
AcDbEntity
  8
0
100
AcDbMText
 62
2
  6
CONTINUOUS
  7
STANDARD
 71
2
 72
1
 10
2.3
 20
-1.25025
 30
0.0
 11
1.0
 21
0.0
 31
0.0
 44
0.9
  1
Gage Port
 40
0.125
 41
1.8
  0
MTEXT
  5
28D
100
AcDbEntity
  8
0
100
AcDbMText
 62
2
  6
CONTINUOUS
  7
STANDARD
 71
2
 72
1
 10
3.95
 20
-1.25025
 30
0.0
 11
1.0
 21
0.0
 31
0.0
 44
0.9
  1
1/4" BSPP
 40
0.125
 41
1.8
  0
ENDBLK
  5
28E
100
AcDbEntity
  8
0
  6
BYBLOCK
 62
0
100
AcDbBlockEnd
  0
ENDSEC
  0
SECTION
  2
ENTITIES
  0
IMAGE
  5
28F
100
AcDbEntity
  8
0
100
AcDbRasterImage
 62
7
  6
CONTINUOUS
 10
19.2297077316
 20
0.3094318264
 30
0.0
 11
0.0066666667
 21
0.0
 31
0.0
 12
0.0
 22
0.0066666667
 32
0.0
 13
369.0
 23
92.0
340
       3B9
 70
9
280
0
281
50
282
50
283
0
360
       3B3
 71
1
 91
2
 14
-0.5
 24
-0.5
 14
368.5
 24
91.5
  0
INSERT
  5
290
100
AcDbEntity
  8
0
100
AcDbBlockReference
 62
2
  6
CONTINUOUS
  2
SUN_FIRST_THIRD_ANGLE_BL0
 10
20.4816717061
 20
1.2289683772
  0
ACAD_TABLE
  5
291
100
AcDbEntity
  8
0
 62
2
  6
CONTINUOUS
100
AcDbBlockReference
  2
*T1
 10
12.42375
 20
0.30125
 30
0.0
100
AcDbTable
342
       3BB
343
20F
 11
1.0
 21
0.0
 31
0.0
 90
6
 91
4
 92
6
 93
20
 94
0
 95
0
 96
0
 70
1
 41
0.0
141
0.525
141
0.1
141
0.525
141
0.1
142
4.1
142
1.1
142
0.7
142
0.5
142
0.4
142
2.475
171
1
172
0
173
0
174
0
175
1
176
1
 91
33
178
0
145
0.0
301
CELL_VALUE
 90
4
  1
T-2A Line mount\PThrough port 2 with reverse flow check
304
ACVALUE_END
170
2
140
0.125
171
1
172
0
173
0
174
0
175
1
176
1
 91
33
178
0
145
0.0
301
CELL_VALUE
 90
4
  1
Oct-01-21
304
ACVALUE_END
170
5
140
0.125
171
1
172
0
173
0
174
0
175
1
176
1
 91
33
178
0
145
0.0
301
CELL_VALUE
 90
4
  1
1.000
304
ACVALUE_END
170
5
140
0.125
171
1
172
0
173
0
174
0
175
1
176
1
 91
33
178
0
145
0.0
301
CELL_VALUE
 90
4
  1
C
304
ACVALUE_END
170
5
140
0.125
171
1
172
0
173
0
174
0
175
1
176
1
 91
33
178
0
145
0.0
301
CELL_VALUE
 90
4
  1
2
304
ACVALUE_END
170
5
140
0.125
171
1
172
0
173
0
174
0
175
1
176
1
 91
33
178
0
145
0.0
301
CELL_VALUE
 90
4
  1
 
304
ACVALUE_END
170
1
140
0.125
171
1
172
0
173
0
174
0
175
1
176
1
 91
33
178
0
145
0.0
301
CELL_VALUE
 90
4
  1
DESCRIPTION
304
ACVALUE_END
170
1
140
0.06
171
1
172
0
173
0
174
0
175
1
176
1
 91
33
178
0
145
0.0
301
CELL_VALUE
 90
4
  1
DATE
304
ACVALUE_END
170
1
140
0.06
171
1
172
0
173
0
174
0
175
1
176
1
 91
33
178
0
145
0.0
301
CELL_VALUE
 90
4
  1
SCALE
304
ACVALUE_END
170
1
140
0.06
171
1
172
0
173
0
174
0
175
1
176
1
 91
33
178
0
145
0.0
301
CELL_VALUE
 90
4
  1
DWG SIZE
304
ACVALUE_END
170
1
140
0.06
171
1
172
0
173
0
174
0
175
1
176
1
 91
33
178
0
145
0.0
301
CELL_VALUE
 90
4
  1
SHEET
304
ACVALUE_END
170
1
140
0.06
171
1
172
0
173
0
174
0
175
1
176
1
 91
33
178
0
145
0.0
301
CELL_VALUE
 90
4
  1
 
304
ACVALUE_END
170
1
140
0.125
171
1
172
0
173
0
174
0
175
1
176
1
 91
33
178
0
145
0.0
301
CELL_VALUE
 90
4
  1
B3U
304
ACVALUE_END
170
5
140
0.125
171
1
172
0
173
0
174
0
175
4
176
1
 91
33
178
0
145
0.0
301
CELL_VALUE
 90
4
  1
ALL DIMENSIONS IN INCH\PVIEWS ARE THIRD ANGLE
304
ACVALUE_END
170
5
140
0.12
171
1
172
0
173
1
174
0
175
1
176
1
 91
1
178
0
145
0.0
170
1
171
1
172
0
173
1
174
0
175
1
176
1
 91
1
178
0
145
0.0
170
1
171
1
172
0
173
1
174
0
175
1
176
1
 91
1
178
0
145
0.0
170
5
171
1
172
0
173
0
174
0
175
1
176
1
 91
33
178
0
145
0.0
301
CELL_VALUE
 90
4
  1
 
304
ACVALUE_END
170
1
140
0.125
171
1
172
0
173
0
174
0
175
1
176
1
 91
33
178
0
145
0.0
301
CELL_VALUE
 90
4
  1
MODEL
304
ACVALUE_END
170
1
140
0.06
171
1
172
0
173
0
174
0
175
1
176
1
 91
33
178
0
145
0.0
301
CELL_VALUE
 90
4
  1
 
304
ACVALUE_END
170
1
140
0.125
171
1
172
0
173
0
174
0
175
1
176
1
 91
33
178
0
145
0.0
301
CELL_VALUE
 90
4
  1
 
304
ACVALUE_END
170
1
140
0.125
171
1
172
0
173
0
174
0
175
1
176
1
 91
33
178
0
145
0.0
301
CELL_VALUE
 90
4
  1
 
304
ACVALUE_END
170
1
140
0.125
171
1
172
0
173
0
174
0
175
1
176
1
 91
33
178
0
145
0.0
301
CELL_VALUE
 90
4
  1
 
304
ACVALUE_END
170
1
140
0.125
171
1
172
0
173
0
174
0
175
1
176
1
 91
33
178
0
145
0.0
301
CELL_VALUE
 90
4
  1
 
304
ACVALUE_END
170
1
140
0.125
  0
ACAD_TABLE
  5
292
100
AcDbEntity
  8
0
 62
2
  6
CONTINUOUS
100
AcDbBlockReference
  2
*T2
 10
12.4237499994
 20
16.47875
 30
0.0
100
AcDbTable
342
       3BA
343
210
 11
1.0
 21
0.0
 31
0.0
 90
22
 91
10
 92
3
 93
16
 94
0
 95
0
 96
0
 41
0.028
141
0.344
141
0.25
141
0.25
141
0.25
141
0.25
141
0.25
141
0.25
141
0.25
141
0.25
141
0.25
142
3.055
142
3.0
142
3.0
171
1
172
0
173
0
174
0
175
1
176
1
 91
33
178
0
145
0.0
301
CELL_VALUE
 90
4
  1
Technical Data
304
ACVALUE_END
170
5
140
0.145
171
1
172
0
173
0
174
0
175
1
176
1
 91
33
178
0
145
0.0
301
CELL_VALUE
 90
4
  1
U.S. Units
304
ACVALUE_END
170
5
140
0.145
171
1
172
0
173
0
174
0
175
1
176
1
 91
33
178
0
145
0.0
301
CELL_VALUE
 90
4
  1
Metric Units
304
ACVALUE_END
170
5
140
0.145
171
1
172
0
173
0
174
0
175
1
176
1
 91
33
178
0
145
0.0
301
CELL_VALUE
 90
4
  1
Cavity
304
ACVALUE_END
170
5
140
0.125
171
1
172
0
173
0
174
0
175
2
176
1
 91
33
178
0
145
0.0
301
CELL_VALUE
 90
4
  1
T-2A
304
ACVALUE_END
170
5
140
0.125
171
1
172
0
173
1
174
0
175
1
176
1
 91
1
178
0
145
0.0
170
1
171
1
172
0
173
0
174
0
175
1
176
1
 91
33
178
0
145
0.0
301
CELL_VALUE
 90
4
  1
Body Features
304
ACVALUE_END
170
5
140
0.125
171
1
172
0
173
0
174
0
175
2
176
1
 91
33
178
0
145
0.0
301
CELL_VALUE
 90
4
  1
Through port 2 with reverse flow check
304
ACVALUE_END
170
5
140
0.125
171
1
172
0
173
1
174
0
175
1
176
1
 91
1
178
0
145
0.0
170
1
171
1
172
0
173
0
174
0
175
1
176
1
 91
33
178
0
145
0.0
301
CELL_VALUE
 90
4
  1
Body Type
304
ACVALUE_END
170
5
140
0.125
171
1
172
0
173
0
174
0
175
2
176
1
 91
33
178
0
145
0.0
301
CELL_VALUE
 90
4
  1
Line mount
304
ACVALUE_END
170
5
140
0.125
171
1
172
0
173
1
174
0
175
1
176
1
 91
1
178
0
145
0.0
170
1
171
1
172
0
173
0
174
0
175
1
176
1
 91
33
178
0
145
0.0
301
CELL_VALUE
 90
4
  1
Interface
304
ACVALUE_END
170
5
140
0.125
171
1
172
0
173
0
174
0
175
2
176
1
 91
33
178
0
145
0.0
301
CELL_VALUE
 90
4
  1
None
304
ACVALUE_END
170
5
140
0.125
171
1
172
0
173
1
174
0
175
1
176
1
 91
1
178
0
145
0.0
170
1
171
1
172
0
173
0
174
0
175
1
176
1
 91
33
178
0
145
0.0
301
CELL_VALUE
 90
4
  1
Open Cavity Quantity
304
ACVALUE_END
170
5
140
0.125
171
1
172
0
173
0
174
0
175
2
176
1
 91
33
178
0
145
0.0
301
CELL_VALUE
 90
4
  1
1
304
ACVALUE_END
170
5
140
0.125
171
1
172
0
173
1
174
0
175
1
176
1
 91
1
178
0
145
0.0
170
1
171
1
172
0
173
0
174
0
175
1
176
1
 91
33
178
0
145
0.0
301
CELL_VALUE
 90
4
  1
Weight
304
ACVALUE_END
170
5
140
0.125
171
1
172
0
173
0
174
0
175
1
176
1
 91
33
178
0
145
0.0
301
CELL_VALUE
 90
4
  1
3.511 lb.
304
ACVALUE_END
170
5
140
0.125
171
1
172
0
173
0
174
0
175
1
176
1
 91
33
178
0
145
0.0
301
CELL_VALUE
 90
4
  1
1,593 kg.
304
ACVALUE_END
170
5
140
0.125
171
1
172
0
173
0
174
0
175
1
176
1
 91
33
178
0
145
0.0
301
CELL_VALUE
 90
4
  1
Mounting Hole Thread
304
ACVALUE_END
170
5
140
0.125
171
1
172
0
173
0
174
0
175
2
176
1
 91
33
178
0
145
0.0
301
CELL_VALUE
 90
4
  1
M10x1.5 - 6H
304
ACVALUE_END
170
5
140
0.125
171
1
172
0
173
1
174
0
175
1
176
1
 91
1
178
0
145
0.0
170
1
171
1
172
0
173
0
174
0
175
1
176
1
 91
33
178
0
145
0.0
301
CELL_VALUE
 90
4
  1
Mounting Hole Depth
304
ACVALUE_END
170
5
140
0.125
171
1
172
0
173
0
174
0
175
1
176
1
 91
33
178
0
145
0.0
301
CELL_VALUE
 90
4
  1
.62 in.
304
ACVALUE_END
170
5
140
0.125
171
1
172
0
173
0
174
0
175
1
176
1
 91
33
178
0
145
0.0
301
CELL_VALUE
 90
4
  1
15,7 mm
304
ACVALUE_END
170
5
140
0.125
171
1
172
0
173
0
174
0
175
1
176
1
 91
33
178
0
145
0.0
301
CELL_VALUE
 90
4
  1
Mounting Hole Quantity
304
ACVALUE_END
170
5
140
0.125
171
1
172
0
173
0
174
0
175
2
176
1
 91
33
178
0
145
0.0
301
CELL_VALUE
 90
4
  1
2
304
ACVALUE_END
170
5
140
0.125
171
1
172
0
173
1
174
0
175
1
176
1
 91
1
178
0
145
0.0
170
1
  0
ACAD_TABLE
  5
293
100
AcDbEntity
  8
0
 62
2
  6
CONTINUOUS
100
AcDbBlockReference
  2
*T3
 10
0.52125
 20
1.959
 30
0.0
100
AcDbTable
342
       3BA
343
211
 11
1.0
 21
0.0
 31
0.0
 90
22
 91
5
 92
3
 93
16
 94
0
 95
0
 96
0
 41
0.05
141
0.34375
141
0.344
141
0.25
141
0.25
141
0.25
142
1.3
142
2.0
142
1.3
171
1
172
0
173
0
174
0
175
3
176
1
 91
33
178
0
145
0.0
301
CELL_VALUE
 90
4
  1
Port Headings
304
ACVALUE_END
170
5
140
0.145
171
1
172
0
173
1
174
0
175
1
176
1
 91
1
178
0
145
0.0
170
1
171
1
172
0
173
1
174
0
175
1
176
1
 91
1
178
0
145
0.0
170
1
171
1
172
0
173
0
174
0
175
1
176
1
 91
33
178
0
145
0.0
301
CELL_VALUE
 90
4
  1
Product
304
ACVALUE_END
170
5
140
0.145
171
1
172
0
173
0
174
0
175
1
176
1
 91
33
178
0
145
0.0
301
CELL_VALUE
 90
4
  1
Port
304
ACVALUE_END
170
5
140
0.145
171
1
172
0
173
0
174
0
175
1
176
1
 91
33
178
0
145
0.0
301
CELL_VALUE
 90
4
  1
Size
304
ACVALUE_END
170
5
140
0.145
171
1
172
0
173
0
174
0
175
1
176
1
 91
33
178
0
145
0.0
301
CELL_VALUE
 90
4
  1
B3U
304
ACVALUE_END
170
5
140
0.125
171
1
172
0
173
0
174
0
175
1
176
1
 91
33
178
0
145
0.0
301
CELL_VALUE
 90
4
  1
Ports 1 &  2
304
ACVALUE_END
170
5
140
0.125
171
1
172
0
173
0
174
0
175
1
176
1
 91
33
178
0
145
0.0
301
CELL_VALUE
 90
4
  1
3/8" BSPP
304
ACVALUE_END
170
5
140
0.125
171
1
172
0
173
0
174
0
175
1
176
1
 91
33
178
0
145
0.0
301
CELL_VALUE
 90
4
  1
B3U
304
ACVALUE_END
170
5
140
0.125
171
1
172
0
173
0
174
0
175
1
176
1
 91
33
178
0
145
0.0
301
CELL_VALUE
 90
4
  1
Port 3
304
ACVALUE_END
170
5
140
0.125
171
1
172
0
173
0
174
0
175
1
176
1
 91
33
178
0
145
0.0
301
CELL_VALUE
 90
4
  1
1/4" BSPP
304
ACVALUE_END
170
5
140
0.125
171
1
172
0
173
0
174
0
175
1
176
1
 91
33
178
0
145
0.0
301
CELL_VALUE
 90
4
  1
B3U
304
ACVALUE_END
170
5
140
0.125
171
1
172
0
173
0
174
0
175
1
176
1
 91
33
178
0
145
0.0
301
CELL_VALUE
 90
4
  1
Gage Port
304
ACVALUE_END
170
5
140
0.125
171
1
172
0
173
0
174
0
175
1
176
1
 91
33
178
0
145
0.0
301
CELL_VALUE
 90
4
  1
1/4" BSPP
304
ACVALUE_END
170
5
140
0.125
  0
MTEXT
  5
294
100
AcDbEntity
  8
0
100
AcDbMText
 62
2
  6
CONTINUOUS
  7
STANDARD
 71
1
 72
1
 10
0.52125
 20
5.75995
 30
0.0
 11
1.0
 21
0.0
 31
0.0
 44
0.6
  3
Notes\P \P1. Important: Carefully consider\P   the maximum system pressure. The\P   pressure rating of the manifold is\P   dependent on the manifold material,\P   with the port type/size a secondary\P   consideration. Manifolds\P   constructed of alu
  1
minum are not\P   rated for pressures higher than\P   3000 psi (210 bar), regardless of\P   the port type/size specified.
 40
0.1
 41
3.04
  0
LINE
  5
295
100
AcDbEntity
  8
0
100
AcDbLine
 62
7
  6
CONTINUOUS
 10
0.30125
 20
0.30125
 11
0.30125
 21
16.69875
  0
LINE
  5
296
100
AcDbEntity
  8
0
100
AcDbLine
 62
7
  6
CONTINUOUS
 10
0.30125
 20
0.30125
 11
21.69875
 21
0.30125
  0
LINE
  5
297
100
AcDbEntity
  8
0
100
AcDbLine
 62
7
  6
CONTINUOUS
 10
0.30125
 20
16.69875
 11
21.69875
 21
16.69875
  0
LINE
  5
298
100
AcDbEntity
  8
0
100
AcDbLine
 62
7
  6
CONTINUOUS
 10
21.69875
 20
0.30125
 11
21.69875
 21
16.69875
  0
LINE
  5
299
100
AcDbEntity
  8
0
100
AcDbLine
 62
7
  6
CONTINUOUS
 10
8.7108543054
 20
9.3834429817
 11
8.6905076777
 21
9.3489455842
  0
LINE
  5
29A
100
AcDbEntity
  8
0
100
AcDbLine
 62
7
  6
CONTINUOUS
 10
9.5618745988
 20
10.5182332808
 11
8.7854181043
 21
9.7682338553
  0
LINE
  5
29B
100
AcDbEntity
  8
0
100
AcDbLine
 62
4
  6
CONTINUOUS
 10
9.4084402993
 20
6.8156583536
 11
9.3987810404
 21
6.8235726694
  0
LINE
  5
29C
100
AcDbEntity
  8
0
100
AcDbLine
 62
7
  6
CONTINUOUS
 10
8.7854181043
 20
6.7497154693
 11
8.7854181043
 21
9.7682338553
  0
LINE
  5
29D
100
AcDbEntity
  8
0
100
AcDbLine
 62
4
  6
CONTINUOUS
 10
9.476055109
 20
6.8761692463
 11
9.4953736286
 21
6.8603406145
  0
LINE
  5
29E
100
AcDbEntity
  8
0
100
AcDbLine
 62
4
  6
CONTINUOUS
 10
9.3987810404
 20
6.8235726694
 11
9.3891217815
 21
6.8387314293
  0
LINE
  5
29F
100
AcDbEntity
  8
0
100
AcDbLine
 62
4
  6
CONTINUOUS
 10
9.4953736286
 20
6.8603406145
 11
9.5050328849
 21
6.8451818549
  0
LINE
  5
2A0
100
AcDbEntity
  8
0
100
AcDbLine
 62
7
  6
CONTINUOUS
 10
8.6297402216
 20
8.3394828065
 11
8.6218207415
 21
8.3585100702
  0
LINE
  5
2A1
100
AcDbEntity
  8
0
100
AcDbLine
 62
7
  6
CONTINUOUS
 10
8.7854181043
 20
6.7497154693
 11
12.6491216383
 21
6.4817667192
  0
LINE
  5
2A2
100
AcDbEntity
  8
0
100
AcDbLine
 62
4
  6
CONTINUOUS
 10
9.4470773332
 20
6.8854233058
 11
9.476055109
 21
6.8761692463
  0
LINE
  5
2A3
100
AcDbEntity
  8
0
100
AcDbLine
 62
4
  6
CONTINUOUS
 10
9.4470773332
 20
6.8129788662
 11
9.4084402993
 21
6.8156583536
  0
LINE
  5
2A4
100
AcDbEntity
  8
0
100
AcDbLine
 62
4
  6
CONTINUOUS
 10
11.2668816771
 20
6.7012638942
 11
11.2475631644
 21
6.7026036376
  0
LINE
  5
2A5
100
AcDbEntity
  8
0
100
AcDbLine
 62
4
  6
CONTINUOUS
 10
9.3891217815
 20
6.8387314293
 11
9.3891217815
 21
6.8532203172
  0
LINE
  5
2A6
100
AcDbEntity
  8
0
100
AcDbLine
 62
4
  6
CONTINUOUS
 10
9.4470773332
 20
6.8419566421
 11
9.4470773332
 21
6.8129788662
  0
LINE
  5
2A7
100
AcDbEntity
  8
0
100
AcDbLine
 62
4
  6
CONTINUOUS
 10
9.5050328849
 20
6.8451818549
 11
9.5050328849
 21
6.8306929669
  0
LINE
  5
2A8
100
AcDbEntity
  8
0
100
AcDbLine
 62
4
  6
CONTINUOUS
 10
11.199266869
 20
6.7566641049
 11
11.1702890932
 21
6.7659181644
  0
LINE
  5
2A9
100
AcDbEntity
  8
0
100
AcDbLine
 62
4
  6
CONTINUOUS
 10
9.4180995573
 20
6.8801884775
 11
9.4470773332
 21
6.8854233058
  0
LINE
  5
2AA
100
AcDbEntity
  8
0
100
AcDbLine
 62
4
  6
CONTINUOUS
 10
11.2475631644
 20
6.7026036376
 11
11.2379039012
 21
6.7105179538
  0
LINE
  5
2AB
100
AcDbEntity
  8
0
100
AcDbLine
 62
4
  6
CONTINUOUS
 10
11.2185853851
 20
6.7408354733
 11
11.199266869
 21
6.7566641049
  0
LINE
  5
2AC
100
AcDbEntity
  8
0
100
AcDbLine
 62
4
  6
CONTINUOUS
 10
11.2668816771
 20
6.759219446
 11
11.2765409403
 21
6.7513051298
  0
LINE
  5
2AD
100
AcDbEntity
  8
0
100
AcDbLine
 62
4
  6
CONTINUOUS
 10
11.1505566263
 20
7.5521704798
 11
11.175394721
 21
7.5504479521
  0
LINE
  5
2AE
100
AcDbEntity
  8
0
100
AcDbLine
 62
4
  6
CONTINUOUS
 10
11.191953449
 20
7.5989757087
 11
11.2167915411
 21
7.5972531811
  0
LINE
  5
2AF
100
AcDbEntity
  8
0
100
AcDbLine
 62
4
  6
CONTINUOUS
 10
11.2765409403
 20
9.4240220567
 11
11.2668816771
 21
9.4174474849
  0
LINE
  5
2B0
100
AcDbEntity
  8
0
100
AcDbLine
 62
4
  6
CONTINUOUS
 10
11.1505566263
 20
7.6763609162
 11
11.2167915411
 21
7.6717675093
  0
LINE
  5
2B1
100
AcDbEntity
  8
0
100
AcDbLine
 62
4
  6
CONTINUOUS
 10
11.1422772613
 20
7.7210917003
 11
11.2250709086
 21
7.7153499414
  0
LINE
  5
2B2
100
AcDbEntity
  8
0
100
AcDbLine
 62
4
  6
CONTINUOUS
 10
11.2499089973
 20
7.7136274141
 11
11.2581883648
 21
7.713053238
  0
LINE
  5
2B3
100
AcDbEntity
  8
0
100
AcDbLine
 62
4
  6
CONTINUOUS
 10
10.5511306338
 20
7.7814063372
 11
10.6670417373
 21
7.7733678749
  0
LINE
  5
2B4
100
AcDbEntity
  8
0
100
AcDbLine
 62
4
  6
CONTINUOUS
 10
10.6504830092
 20
7.8214326677
 11
10.5676893636
 21
7.8271744265
  0
LINE
  5
2B5
100
AcDbEntity
  8
0
100
AcDbLine
 62
4
  6
CONTINUOUS
 10
11.1505566263
 20
7.7950317973
 11
11.2581883648
 21
7.7875675109
  0
LINE
  5
2B6
100
AcDbEntity
  8
0
100
AcDbLine
 62
4
  6
CONTINUOUS
 10
11.1422772613
 20
7.8287234155
 11
11.2250709086
 21
7.8229816566
  0
LINE
  5
2B7
100
AcDbEntity
  8
0
100
AcDbLine
 62
4
  6
CONTINUOUS
 10
10.5511306338
 20
7.8862783301
 11
10.6670417373
 21
7.8782398677
  0
LINE
  5
2B8
100
AcDbEntity
  8
0
100
AcDbLine
 62
4
  6
CONTINUOUS
 10
10.6504830092
 20
7.9125056618
 11
10.5676893636
 21
7.9182474206
  0
LINE
  5
2B9
100
AcDbEntity
  8
0
100
AcDbLine
 62
4
  6
CONTINUOUS
 10
11.2250709086
 20
7.8726578754
 11
11.1505566263
 21
7.8778254584
  0
LINE
  5
2BA
100
AcDbEntity
  8
0
100
AcDbLine
 62
4
  6
CONTINUOUS
 10
11.2581883648
 20
7.7102934604
 11
11.2499089973
 21
7.7136274141
  0
LINE
  5
2BB
100
AcDbEntity
  8
0
100
AcDbLine
 62
4
  6
CONTINUOUS
 10
10.5676893636
 20
7.8271744265
 11
10.5511306338
 21
7.8448814995
  0
LINE
  5
2BC
100
AcDbEntity
  8
0
100
AcDbLine
 62
4
  6
CONTINUOUS
 10
10.5676893636
 20
7.9182474206
 11
10.5511306338
 21
7.9359544936
  0
LINE
  5
2BD
100
AcDbEntity
  8
0
100
AcDbLine
 62
4
  6
CONTINUOUS
 10
10.6504830092
 20
7.9704612135
 11
10.6670417373
 21
7.9527541406
  0
LINE
  5
2BE
100
AcDbEntity
  8
0
100
AcDbLine
 62
4
  6
CONTINUOUS
 10
11.2379039012
 20
6.7105179538
 11
11.2185853851
 21
6.7408354733
  0
LINE
  5
2BF
100
AcDbEntity
  8
0
100
AcDbLine
 62
4
  6
CONTINUOUS
 10
11.2765409403
 20
6.7513051298
 11
11.2862001966
 21
6.7361463702
  0
LINE
  5
2C0
100
AcDbEntity
  8
0
100
AcDbLine
 62
4
  6
CONTINUOUS
 10
10.6008068215
 20
7.6510110679
 11
10.5787285157
 21
7.6966988118
  0
LINE
  5
2C1
100
AcDbEntity
  8
0
100
AcDbLine
 62
4
  6
CONTINUOUS
 10
10.5511306338
 20
8.2478105562
 11
10.5511306338
 21
8.1981343651
  0
LINE
  5
2C2
100
AcDbEntity
  8
0
100
AcDbLine
 62
4
  6
CONTINUOUS
 10
10.5511306338
 20
7.7814063372
 11
10.5511306338
 21
7.7317301737
  0
LINE
  5
2C3
100
AcDbEntity
  8
0
100
AcDbLine
 62
4
  6
CONTINUOUS
 10
10.5511306338
 20
7.8448814995
 11
10.5511306338
 21
7.8862783301
  0
LINE
  5
2C4
100
AcDbEntity
  8
0
100
AcDbLine
 62
4
  6
CONTINUOUS
 10
10.5511306338
 20
7.9359544936
 11
10.5511306338
 21
7.9607926029
  0
LINE
  5
2C5
100
AcDbEntity
  8
0
100
AcDbLine
 62
4
  6
CONTINUOUS
 10
10.5511306338
 20
8.02426771
 11
10.5511306338
 21
8.0573851523
  0
LINE
  5
2C6
100
AcDbEntity
  8
0
100
AcDbLine
 62
4
  6
CONTINUOUS
 10
10.5511306338
 20
8.5099904347
 11
10.5511306338
 21
8.5513872514
  0
LINE
  5
2C7
100
AcDbEntity
  8
0
100
AcDbLine
 62
4
  6
CONTINUOUS
 10
10.5842480935
 20
8.4331794513
 11
10.5842480935
 21
8.3890228431
  0
LINE
  5
2C8
100
AcDbEntity
  8
0
100
AcDbLine
 62
4
  6
CONTINUOUS
 10
10.6008068215
 20
8.6141771153
 11
10.5787285157
 21
8.5715516394
  0
LINE
  5
2C9
100
AcDbEntity
  8
0
100
AcDbLine
 62
7
  6
CONTINUOUS
 10
11.9906478821
 20
9.9827934274
 11
11.9898117496
 21
9.9820009618
  0
LINE
  5
2CA
100
AcDbEntity
  8
0
100
AcDbLine
 62
4
  6
CONTINUOUS
 10
11.1422772613
 20
7.9115170766
 11
11.2085121806
 21
7.9069236694
  0
LINE
  5
2CB
100
AcDbEntity
  8
0
100
AcDbLine
 62
4
  6
CONTINUOUS
 10
10.5676893636
 20
7.9762029723
 11
10.6504830092
 21
7.9704612135
  0
LINE
  5
2CC
100
AcDbEntity
  8
0
100
AcDbLine
 62
4
  6
CONTINUOUS
 10
11.1505566263
 20
7.9606190642
 11
11.175394721
 21
7.9588965365
  0
LINE
  5
2CD
100
AcDbEntity
  8
0
100
AcDbLine
 62
4
  6
CONTINUOUS
 10
10.8226937912
 20
8.0012950894
 11
10.9220461648
 21
7.9944049789
  0
LINE
  5
2CE
100
AcDbEntity
  8
0
100
AcDbLine
 62
4
  6
CONTINUOUS
 10
11.2167915411
 20
7.9919029325
 11
11.2002328131
 21
7.9930512842
  0
LINE
  5
2CF
100
AcDbEntity
  8
0
100
AcDbLine
 62
4
  6
CONTINUOUS
 10
12.14490835
 20
7.931332523
 11
12.1352490902
 21
7.932002395
  0
LINE
  5
2D0
100
AcDbEntity
  8
0
100
AcDbLine
 62
4
  6
CONTINUOUS
 10
12.2028638983
 20
7.9345577361
 11
12.193204642
 21
7.9352276078
  0
LINE
  5
2D1
100
AcDbEntity
  8
0
100
AcDbLine
 62
4
  6
CONTINUOUS
 10
10.5676893636
 20
8.0727955216
 11
10.6504830092
 21
8.0670537628
  0
LINE
  5
2D2
100
AcDbEntity
  8
0
100
AcDbLine
 62
4
  6
CONTINUOUS
 10
11.1422772613
 20
8.035707513
 11
11.2250709086
 21
8.0299657541
  0
LINE
  5
2D3
100
AcDbEntity
  8
0
100
AcDbLine
 62
4
  6
CONTINUOUS
 10
10.9220461648
 20
8.0523605306
 11
10.8226937912
 21
8.0592506411
  0
LINE
  5
2D4
100
AcDbEntity
  8
0
100
AcDbLine
 62
7
  6
CONTINUOUS
 10
8.7854181043
 20
8.2254819272
 11
8.7548988344
 21
8.2275984458
  0
LINE
  5
2D5
100
AcDbEntity
  8
0
100
AcDbLine
 62
4
  6
CONTINUOUS
 10
11.2581883648
 20
8.0607865483
 11
11.1422772613
 21
8.0688250106
  0
LINE
  5
2D6
100
AcDbEntity
  8
0
100
AcDbLine
 62
4
  6
CONTINUOUS
 10
10.8144144263
 20
8.0929422732
 11
10.8558112491
 21
8.0900713938
  0
LINE
  5
2D7
100
AcDbEntity
  8
0
100
AcDbLine
 62
4
  6
CONTINUOUS
 10
10.8806493412
 20
8.0911086577
 11
10.9054874368
 21
8.0893861299
  0
LINE
  5
2D8
100
AcDbEntity
  8
0
100
AcDbLine
 62
4
  6
CONTINUOUS
 10
10.6504830092
 20
8.0670537628
 11
10.6670417373
 21
8.04934669
  0
LINE
  5
2D9
100
AcDbEntity
  8
0
100
AcDbLine
 62
4
  6
CONTINUOUS
 10
11.1422772613
 20
7.5610239887
 11
11.1505566263
 21
7.5521704798
  0
LINE
  5
2DA
100
AcDbEntity
  8
0
100
AcDbLine
 62
4
  6
CONTINUOUS
 10
10.8061350614
 20
8.0190021762
 11
10.8226937912
 21
8.0012950894
  0
LINE
  5
2DB
100
AcDbEntity
  8
0
100
AcDbLine
 62
4
  6
CONTINUOUS
 10
11.2167915411
 20
7.5972531811
 11
11.2250709086
 21
7.5883996721
  0
LINE
  5
2DC
100
AcDbEntity
  8
0
100
AcDbLine
 62
4
  6
CONTINUOUS
 10
10.8061350614
 20
8.1017958097
 11
10.8144144263
 21
8.0929422732
  0
LINE
  5
2DD
100
AcDbEntity
  8
0
100
AcDbLine
 62
4
  6
CONTINUOUS
 10
11.2167915411
 20
7.6717675093
 11
11.2250709086
 21
7.6629140002
  0
LINE
  5
2DE
100
AcDbEntity
  8
0
100
AcDbLine
 62
4
  6
CONTINUOUS
 10
10.6173655531
 20
7.7436954876
 11
10.6173655531
 21
7.77681293
  0
LINE
  5
2DF
100
AcDbEntity
  8
0
100
AcDbLine
 62
4
  6
CONTINUOUS
 10
10.6173655531
 20
8.210099679
 11
10.6173655531
 21
8.243217149
  0
LINE
  5
2E0
100
AcDbEntity
  8
0
100
AcDbLine
 62
4
  6
CONTINUOUS
 10
10.6670417373
 20
8.5433487891
 11
10.6670417373
 21
8.5019519724
  0
LINE
  5
2E1
100
AcDbEntity
  8
0
100
AcDbLine
 62
4
  6
CONTINUOUS
 10
10.6670417373
 20
8.3391244762
 11
10.6670417373
 21
8.2728895639
  0
LINE
  5
2E2
100
AcDbEntity
  8
0
100
AcDbLine
 62
4
  6
CONTINUOUS
 10
10.6670417373
 20
8.2397720939
 11
10.6670417373
 21
8.1900959028
  0
LINE
  5
2E3
100
AcDbEntity
  8
0
100
AcDbLine
 62
4
  6
CONTINUOUS
 10
10.6670417373
 20
8.04934669
 11
10.6670417373
 21
8.0162292476
  0
LINE
  5
2E4
100
AcDbEntity
  8
0
100
AcDbLine
 62
4
  6
CONTINUOUS
 10
10.6670417373
 20
7.9527541406
 11
10.6670417373
 21
7.9279160312
  0
LINE
  5
2E5
100
AcDbEntity
  8
0
100
AcDbLine
 62
4
  6
CONTINUOUS
 10
10.6670417373
 20
7.8782398677
 11
10.6670417373
 21
7.8368430372
  0
LINE
  5
2E6
100
AcDbEntity
  8
0
100
AcDbLine
 62
4
  6
CONTINUOUS
 10
10.6670417373
 20
7.7733678749
 11
10.6670417373
 21
7.7236917114
  0
LINE
  5
2E7
100
AcDbEntity
  8
0
100
AcDbLine
 62
4
  6
CONTINUOUS
 10
10.8061350614
 20
8.1431926402
 11
10.8061350614
 21
8.1017958097
  0
LINE
  5
2E8
100
AcDbEntity
  8
0
100
AcDbLine
 62
4
  6
CONTINUOUS
 10
10.8061350614
 20
8.043840258
 11
10.8061350614
 21
8.0190021762
  0
LINE
  5
2E9
100
AcDbEntity
  8
0
100
AcDbLine
 62
4
  6
CONTINUOUS
 10
10.8061350614
 20
8.1928688244
 11
10.8061350614
 21
8.2342656481
  0
LINE
  5
2EA
100
AcDbEntity
  8
0
100
AcDbLine
 62
4
  6
CONTINUOUS
 10
9.3891217815
 20
6.8532203172
 11
9.3987810404
 21
6.8670393332
  0
LINE
  5
2EB
100
AcDbEntity
  8
0
100
AcDbLine
 62
4
  6
CONTINUOUS
 10
11.2862001966
 20
9.4378410729
 11
11.2765409403
 21
9.4240220567
  0
LINE
  5
2EC
100
AcDbEntity
  8
0
100
AcDbLine
 62
4
  6
CONTINUOUS
 10
9.5050328849
 20
6.8306929669
 11
9.4953736286
 21
6.8168739507
  0
LINE
  5
2ED
100
AcDbEntity
  8
0
100
AcDbLine
 62
4
  6
CONTINUOUS
 10
10.6670417373
 20
8.5019519724
 11
10.6504830092
 21
8.486541596
  0
LINE
  5
2EE
100
AcDbEntity
  8
0
100
AcDbLine
 62
4
  6
CONTINUOUS
 10
11.2250709086
 20
8.1845139104
 11
11.1422772613
 21
8.16541756
  0
LINE
  5
2EF
100
AcDbEntity
  8
0
100
AcDbLine
 62
4
  6
CONTINUOUS
 10
11.1505566263
 20
8.1179269982
 11
11.2167915411
 21
8.1133335913
  0
LINE
  5
2F0
100
AcDbEntity
  8
0
100
AcDbLine
 62
4
  6
CONTINUOUS
 10
10.847531885
 20
8.1734392169
 11
10.8226937912
 21
8.1751617446
  0
LINE
  5
2F1
100
AcDbEntity
  8
0
100
AcDbLine
 62
4
  6
CONTINUOUS
 10
10.9054874368
 20
8.1776993498
 11
10.8806493412
 21
8.1794218776
  0
LINE
  5
2F2
100
AcDbEntity
  8
0
100
AcDbLine
 62
4
  6
CONTINUOUS
 10
10.5511306338
 20
8.2478105562
 11
10.6670417373
 21
8.2397720939
  0
LINE
  5
2F3
100
AcDbEntity
  8
0
100
AcDbLine
 62
7
  6
CONTINUOUS
 10
8.7854181043
 20
8.3722759929
 11
8.6237655366
 21
8.3834866365
  0
LINE
  5
2F4
100
AcDbEntity
  8
0
100
AcDbLine
 62
4
  6
CONTINUOUS
 10
10.8061350614
 20
8.2342656481
 11
10.9220461648
 21
8.2262271858
  0
LINE
  5
2F5
100
AcDbEntity
  8
0
100
AcDbLine
 62
4
  6
CONTINUOUS
 10
11.2167915411
 20
8.2182055565
 11
11.1422772613
 21
8.2233731393
  0
LINE
  5
2F6
100
AcDbEntity
  8
0
100
AcDbLine
 62
7
  6
CONTINUOUS
 10
8.7854181043
 20
8.4114939357
 11
8.6165415244
 21
8.4232055663
  0
LINE
  5
2F7
100
AcDbEntity
  8
0
100
AcDbLine
 62
4
  6
CONTINUOUS
 10
10.5511306338
 20
8.3140454685
 11
10.6670417373
 21
8.3060070062
  0
LINE
  5
2F8
100
AcDbEntity
  8
0
100
AcDbLine
 62
4
  6
CONTINUOUS
 10
11.1422772613
 20
8.2730493305
 11
11.2581883648
 21
8.2650108681
  0
LINE
  5
2F9
100
AcDbEntity
  8
0
100
AcDbLine
 62
4
  6
CONTINUOUS
 10
10.5511306338
 20
8.446515307
 11
10.6670417373
 21
8.4053593885
  0
LINE
  5
2FA
100
AcDbEntity
  8
0
100
AcDbLine
 62
4
  6
CONTINUOUS
 10
11.1146793795
 20
8.1756108678
 11
11.2250709086
 21
8.1348377469
  0
LINE
  5
2FB
100
AcDbEntity
  8
0
100
AcDbLine
 62
4
  6
CONTINUOUS
 10
10.8226937912
 20
8.1751617446
 11
10.8061350614
 21
8.1928688244
  0
LINE
  5
2FC
100
AcDbEntity
  8
0
100
AcDbLine
 62
4
  6
CONTINUOUS
 10
10.5676893636
 20
8.4922833548
 11
10.5511306338
 21
8.5099904347
  0
LINE
  5
2FD
100
AcDbEntity
  8
0
100
AcDbLine
 62
4
  6
CONTINUOUS
 10
10.8806493412
 20
8.1794218776
 11
10.8640906131
 21
8.1971289573
  0
LINE
  5
2FE
100
AcDbEntity
  8
0
100
AcDbLine
 62
4
  6
CONTINUOUS
 10
10.8723699806
 20
8.1054817768
 11
10.8806493412
 21
8.0911086577
  0
LINE
  5
2FF
100
AcDbEntity
  8
0
100
AcDbLine
 62
4
  6
CONTINUOUS
 10
10.6228851291
 20
8.5684893678
 11
10.6008068215
 21
8.6141771153
  0
LINE
  5
300
100
AcDbEntity
  8
0
100
AcDbLine
 62
4
  6
CONTINUOUS
 10
10.8640906131
 20
8.1888495933
 11
10.8640906131
 21
8.2302464169
  0
LINE
  5
301
100
AcDbEntity
  8
0
100
AcDbLine
 62
4
  6
CONTINUOUS
 10
10.8723699806
 20
8.1054817768
 11
10.8723699806
 21
8.1220405049
  0
LINE
  5
302
100
AcDbEntity
  8
0
100
AcDbLine
 62
4
  6
CONTINUOUS
 10
10.9220461648
 20
8.2262271858
 11
10.9220461648
 21
8.2013890919
  0
LINE
  5
303
100
AcDbEntity
  8
0
100
AcDbLine
 62
4
  6
CONTINUOUS
 10
10.9220461648
 20
8.1020367217
 11
10.9220461648
 21
8.1351541779
  0
LINE
  5
304
100
AcDbEntity
  8
0
100
AcDbLine
 62
4
  6
CONTINUOUS
 10
10.9220461648
 20
8.2013890919
 11
10.9192863734
 21
8.1933011183
  0
LINE
  5
305
100
AcDbEntity
  8
0
100
AcDbLine
 62
4
  6
CONTINUOUS
 10
11.1505566263
 20
8.636767186
 11
11.1422772613
 21
8.629061997
  0
LINE
  5
306
100
AcDbEntity
  8
0
100
AcDbLine
 62
4
  6
CONTINUOUS
 10
10.5511306338
 20
8.0573851523
 11
10.5676893636
 21
8.0727955216
  0
LINE
  5
307
100
AcDbEntity
  8
0
100
AcDbLine
 62
4
  6
CONTINUOUS
 10
10.6670417373
 20
8.4053593885
 11
10.5511306338
 21
8.3802803808
  0
LINE
  5
308
100
AcDbEntity
  8
0
100
AcDbLine
 62
4
  6
CONTINUOUS
 10
11.1422772613
 20
8.3972397945
 11
11.2581883648
 21
8.3892013321
  0
LINE
  5
309
100
AcDbEntity
  8
0
100
AcDbLine
 62
4
  6
CONTINUOUS
 10
10.6504830092
 20
8.486541596
 11
10.5676893636
 21
8.4922833548
  0
LINE
  5
30A
100
AcDbEntity
  8
0
100
AcDbLine
 62
4
  6
CONTINUOUS
 10
11.1422772613
 20
8.4551953462
 11
11.2581883648
 21
8.4471568839
  0
LINE
  5
30B
100
AcDbEntity
  8
0
100
AcDbLine
 62
4
  6
CONTINUOUS
 10
11.1588359912
 20
8.4871644505
 11
11.2581883648
 21
8.48027434
  0
LINE
  5
30C
100
AcDbEntity
  8
0
100
AcDbLine
 62
4
  6
CONTINUOUS
 10
10.5511306338
 20
8.5513872514
 11
10.6670417373
 21
8.5433487891
  0
LINE
  5
30D
100
AcDbEntity
  8
0
100
AcDbLine
 62
4
  6
CONTINUOUS
 10
11.175394721
 20
7.9588965365
 11
11.183674085
 21
7.9417636395
  0
LINE
  5
30E
100
AcDbEntity
  8
0
100
AcDbLine
 62
4
  6
CONTINUOUS
 10
11.2167915411
 20
8.1133335913
 11
11.2250709086
 21
8.096200694
  0
LINE
  5
30F
100
AcDbEntity
  8
0
100
AcDbLine
 62
4
  6
CONTINUOUS
 10
11.1146793795
 20
8.192169589
 11
11.1146793795
 21
8.1756108678
  0
LINE
  5
310
100
AcDbEntity
  8
0
100
AcDbLine
 62
4
  6
CONTINUOUS
 10
11.1422772613
 20
8.629061997
 11
11.1422772613
 21
8.5959445383
  0
LINE
  5
311
100
AcDbEntity
  8
0
100
AcDbLine
 62
4
  6
CONTINUOUS
 10
11.1422772613
 20
8.529709626
 11
11.1422772613
 21
8.5048715235
  0
LINE
  5
312
100
AcDbEntity
  8
0
100
AcDbLine
 62
4
  6
CONTINUOUS
 10
11.1422772613
 20
7.8701202461
 11
11.1422772613
 21
7.8287234155
  0
LINE
  5
313
100
AcDbEntity
  8
0
100
AcDbLine
 62
4
  6
CONTINUOUS
 10
11.1422772613
 20
7.594141431
 11
11.1422772613
 21
7.5610239887
  0
LINE
  5
314
100
AcDbEntity
  8
0
100
AcDbLine
 62
4
  6
CONTINUOUS
 10
11.1422772613
 20
7.6355382063
 11
11.1422772613
 21
7.6686557592
  0
LINE
  5
315
100
AcDbEntity
  8
0
100
AcDbLine
 62
4
  6
CONTINUOUS
 10
11.1422772613
 20
7.7707678638
 11
11.1422772613
 21
7.787326585
  0
LINE
  5
316
100
AcDbEntity
  8
0
100
AcDbLine
 62
4
  6
CONTINUOUS
 10
11.1422772613
 20
7.9115170766
 11
11.1422772613
 21
7.944634519
  0
LINE
  5
317
100
AcDbEntity
  8
0
100
AcDbLine
 62
4
  6
CONTINUOUS
 10
11.1422772613
 20
8.0688250106
 11
11.1422772613
 21
8.101942453
  0
LINE
  5
318
100
AcDbEntity
  8
0
100
AcDbLine
 62
4
  6
CONTINUOUS
 10
11.1702890932
 20
9.4821017551
 11
11.1702890932
 21
9.4241462034
  0
LINE
  5
319
100
AcDbEntity
  8
0
100
AcDbLine
 62
4
  6
CONTINUOUS
 10
11.1702890932
 20
6.7659181644
 11
11.1702890932
 21
6.7079626127
  0
LINE
  5
31A
100
AcDbEntity
  8
0
100
AcDbLine
 62
4
  6
CONTINUOUS
 10
11.183674085
 20
7.9417636395
 11
11.183674085
 21
7.9086461972
  0
LINE
  5
31B
100
AcDbEntity
  8
0
100
AcDbLine
 62
4
  6
CONTINUOUS
 10
11.2250709086
 20
8.2673075715
 11
11.2250709086
 21
8.225910741
  0
LINE
  5
31C
100
AcDbEntity
  8
0
100
AcDbLine
 62
4
  6
CONTINUOUS
 10
11.2250709086
 20
8.096200694
 11
11.2250709086
 21
8.0630832517
  0
LINE
  5
31D
100
AcDbEntity
  8
0
100
AcDbLine
 62
4
  6
CONTINUOUS
 10
11.2250709086
 20
8.0299657541
 11
11.2250709086
 21
7.9968483118
  0
LINE
  5
31E
100
AcDbEntity
  8
0
100
AcDbLine
 62
4
  6
CONTINUOUS
 10
11.2250709086
 20
7.6629140002
 11
11.2250709086
 21
7.6297964474
  0
LINE
  5
31F
100
AcDbEntity
  8
0
100
AcDbLine
 62
4
  6
CONTINUOUS
 10
11.2250709086
 20
7.5883996721
 11
11.2250709086
 21
7.5552822298
  0
LINE
  5
320
100
AcDbEntity
  8
0
100
AcDbLine
 62
4
  6
CONTINUOUS
 10
11.2250709086
 20
7.9140546507
 11
11.2250709086
 21
7.9554514812
  0
LINE
  5
321
100
AcDbEntity
  8
0
100
AcDbLine
 62
4
  6
CONTINUOUS
 10
10.6228851291
 20
7.6936365402
 11
10.6008068215
 21
7.6510110679
  0
LINE
  5
322
100
AcDbEntity
  8
0
100
AcDbLine
 62
4
  6
CONTINUOUS
 10
10.9192863734
 20
8.1933011183
 11
10.9054874368
 21
8.1776993498
  0
LINE
  5
323
100
AcDbEntity
  8
0
100
AcDbLine
 62
4
  6
CONTINUOUS
 10
11.175394721
 20
8.5770891066
 11
11.2250709086
 21
8.631599603
  0
LINE
  5
324
100
AcDbEntity
  8
0
100
AcDbLine
 62
4
  6
CONTINUOUS
 10
11.1588359912
 20
8.5451200022
 11
11.1422772613
 21
8.529709626
  0
LINE
  5
325
100
AcDbEntity
  8
0
100
AcDbLine
 62
4
  6
CONTINUOUS
 10
10.5511306338
 20
7.9607926029
 11
10.5676893636
 21
7.9762029723
  0
LINE
  5
326
100
AcDbEntity
  8
0
100
AcDbLine
 62
4
  6
CONTINUOUS
 10
11.2581883648
 20
8.5796267119
 11
11.2499089973
 21
8.571921524
  0
LINE
  5
327
100
AcDbEntity
  8
0
100
AcDbLine
 62
4
  6
CONTINUOUS
 10
10.8640906131
 20
8.1888495933
 11
10.847531885
 21
8.1734392169
  0
LINE
  5
328
100
AcDbEntity
  8
0
100
AcDbLine
 62
4
  6
CONTINUOUS
 10
10.6670417373
 20
7.9279160312
 11
10.6504830092
 21
7.9125056618
  0
LINE
  5
329
100
AcDbEntity
  8
0
100
AcDbLine
 62
4
  6
CONTINUOUS
 10
10.8226937912
 20
8.0592506411
 11
10.8061350614
 21
8.043840258
  0
LINE
  5
32A
100
AcDbEntity
  8
0
100
AcDbLine
 62
4
  6
CONTINUOUS
 10
10.8558112491
 20
8.0900713938
 11
10.8723699806
 21
8.1054817768
  0
LINE
  5
32B
100
AcDbEntity
  8
0
100
AcDbLine
 62
4
  6
CONTINUOUS
 10
11.2581883648
 20
8.4471568839
 11
11.1422772613
 21
8.3972397945
  0
LINE
  5
32C
100
AcDbEntity
  8
0
100
AcDbLine
 62
4
  6
CONTINUOUS
 10
11.2581883648
 20
8.5382298917
 11
11.1588359912
 21
8.5451200022
  0
LINE
  5
32D
100
AcDbEntity
  8
0
100
AcDbLine
 62
4
  6
CONTINUOUS
 10
11.1588359912
 20
8.5782374584
 11
11.175394721
 21
8.5770891066
  0
LINE
  5
32E
100
AcDbEntity
  8
0
100
AcDbLine
 62
4
  6
CONTINUOUS
 10
11.2250709086
 20
8.631599603
 11
11.2416296367
 21
8.6304512513
  0
LINE
  5
32F
100
AcDbEntity
  8
0
100
AcDbLine
 62
4
  6
CONTINUOUS
 10
11.1422772613
 20
8.5048715235
 11
11.1588359912
 21
8.4871644505
  0
LINE
  5
330
100
AcDbEntity
  8
0
100
AcDbLine
 62
4
  6
CONTINUOUS
 10
11.1422772613
 20
8.5959445383
 11
11.1588359912
 21
8.5782374584
  0
LINE
  5
331
100
AcDbEntity
  8
0
100
AcDbLine
 62
4
  6
CONTINUOUS
 10
11.2581883648
 20
8.6127441698
 11
11.2581883648
 21
8.5796267119
  0
LINE
  5
332
100
AcDbEntity
  8
0
100
AcDbLine
 62
4
  6
CONTINUOUS
 10
11.2581883648
 20
7.713053238
 11
11.2581883648
 21
7.7102934604
  0
LINE
  5
333
100
AcDbEntity
  8
0
100
AcDbLine
 62
4
  6
CONTINUOUS
 10
11.2862001966
 20
9.4523299609
 11
11.2862001966
 21
9.4378410729
  0
LINE
  5
334
100
AcDbEntity
  8
0
100
AcDbLine
 62
4
  6
CONTINUOUS
 10
11.2862001966
 20
6.7361463702
 11
11.2862001966
 21
6.7216574822
  0
LINE
  5
335
100
AcDbEntity
  8
0
100
AcDbLine
 62
4
  6
CONTINUOUS
 10
11.180914297
 20
7.5583445012
 11
11.186433873
 21
7.5910791596
  0
LINE
  5
336
100
AcDbEntity
  8
0
100
AcDbLine
 62
4
  6
CONTINUOUS
 10
11.1422772613
 20
8.101942453
 11
11.1505566263
 21
8.1179269982
  0
LINE
  5
337
100
AcDbEntity
  8
0
100
AcDbLine
 62
4
  6
CONTINUOUS
 10
11.1422772613
 20
7.944634519
 11
11.1505566263
 21
7.9606190642
  0
LINE
  5
338
100
AcDbEntity
  8
0
100
AcDbLine
 62
7
  6
CONTINUOUS
 10
12.6491216383
 20
9.5002851052
 11
13.4255781329
 21
10.2502845307
  0
LINE
  5
339
100
AcDbEntity
  8
0
100
AcDbLine
 62
4
  6
CONTINUOUS
 10
10.6670417373
 20
7.8368430372
 11
10.6504830092
 21
7.8214326677
  0
LINE
  5
33A
100
AcDbEntity
  8
0
100
AcDbLine
 62
4
  6
CONTINUOUS
 10
11.2250709086
 20
8.225910741
 11
11.2167915411
 21
8.2182055565
  0
LINE
  5
33B
100
AcDbEntity
  8
0
100
AcDbLine
 62
4
  6
CONTINUOUS
 10
10.9054874368
 20
8.0893861299
 11
10.9220461648
 21
8.1020367217
  0
LINE
  5
33C
100
AcDbEntity
  8
0
100
AcDbLine
 62
7
  6
CONTINUOUS
 10
8.7854181043
 20
8.9766004102
 11
8.6165415244
 21
8.9883120408
  0
LINE
  5
33D
100
AcDbEntity
  8
0
100
AcDbLine
 62
7
  6
CONTINUOUS
 10
8.7854181043
 20
9.0307760476
 11
8.6237655366
 21
9.0419866913
  0
LINE
  5
33E
100
AcDbEntity
  8
0
100
AcDbLine
 62
4
  6
CONTINUOUS
 10
12.1352490902
 20
7.932002395
 11
12.1159305733
 21
7.9478310266
  0
LINE
  5
33F
100
AcDbEntity
  8
0
100
AcDbLine
 62
4
  6
CONTINUOUS
 10
12.193204642
 20
7.9352276078
 11
12.1835453856
 21
7.9431419234
  0
LINE
  5
340
100
AcDbEntity
  8
0
100
AcDbLine
 62
4
  6
CONTINUOUS
 10
11.2416296367
 20
8.6304512513
 11
11.2581883648
 21
8.6127441698
  0
LINE
  5
341
100
AcDbEntity
  8
0
100
AcDbLine
 62
4
  6
CONTINUOUS
 10
11.1505566263
 20
7.8778254584
 11
11.1422772613
 21
7.8701202461
  0
LINE
  5
342
100
AcDbEntity
  8
0
100
AcDbLine
 62
4
  6
CONTINUOUS
 10
11.1422772613
 20
7.787326585
 11
11.1505566263
 21
7.7950317973
  0
LINE
  5
343
100
AcDbEntity
  8
0
100
AcDbLine
 62
4
  6
CONTINUOUS
 10
9.3987810404
 20
6.8670393332
 11
9.4180995573
 21
6.8801884775
  0
LINE
  5
344
100
AcDbEntity
  8
0
100
AcDbLine
 62
4
  6
CONTINUOUS
 10
9.4953736286
 20
6.8168739507
 11
9.4857143654
 21
6.8102993789
  0
LINE
  5
345
100
AcDbEntity
  8
0
100
AcDbLine
 62
4
  6
CONTINUOUS
 10
11.2250709086
 20
7.9968483118
 11
11.2167915411
 21
7.9919029325
  0
LINE
  5
346
100
AcDbEntity
  8
0
100
AcDbLine
 62
4
  6
CONTINUOUS
 10
11.2085121806
 20
7.9069236694
 11
11.2250709086
 21
7.9140546507
  0
LINE
  5
347
100
AcDbEntity
  8
0
100
AcDbLine
 62
4
  6
CONTINUOUS
 10
9.5050328849
 20
9.0566691719
 11
9.3891217815
 21
9.0647076342
  0
LINE
  5
348
100
AcDbEntity
  8
0
100
AcDbLine
 62
4
  6
CONTINUOUS
 10
12.1159305733
 20
7.9478310266
 11
12.1062713144
 21
7.9629897864
  0
LINE
  5
349
100
AcDbEntity
  8
0
100
AcDbLine
 62
4
  6
CONTINUOUS
 10
11.186433873
 20
7.5910791596
 11
11.191953449
 21
7.5989757087
  0
LINE
  5
34A
100
AcDbEntity
  8
0
100
AcDbLine
 62
4
  6
CONTINUOUS
 10
11.175394721
 20
7.5504479521
 11
11.180914297
 21
7.5583445012
  0
LINE
  5
34B
100
AcDbEntity
  8
0
100
AcDbLine
 62
4
  6
CONTINUOUS
 10
11.1422772613
 20
7.6686557592
 11
11.1505566263
 21
7.6763609162
  0
LINE
  5
34C
100
AcDbEntity
  8
0
100
AcDbLine
 62
4
  6
CONTINUOUS
 10
11.1505566263
 20
7.6018465881
 11
11.1422772613
 21
7.594141431
  0
LINE
  5
34D
100
AcDbEntity
  8
0
100
AcDbLine
 62
4
  6
CONTINUOUS
 10
11.2250709086
 20
7.5552822298
 11
11.2167915411
 21
7.5475770729
  0
LINE
  5
34E
100
AcDbEntity
  8
0
100
AcDbLine
 62
7
  6
CONTINUOUS
 10
8.7854181043
 20
9.4490884565
 11
8.7548988344
 21
9.4512049751
  0
LINE
  5
34F
100
AcDbEntity
  8
0
100
AcDbLine
 62
7
  6
CONTINUOUS
 10
8.7854181043
 20
9.4640461511
 11
8.7693468587
 21
9.4651606958
  0
LINE
  5
350
100
AcDbEntity
  8
0
100
AcDbLine
 62
4
  6
CONTINUOUS
 10
11.2475631644
 20
9.4187872283
 11
11.2379039012
 21
9.4267015445
  0
LINE
  5
351
100
AcDbEntity
  8
0
100
AcDbLine
 62
4
  6
CONTINUOUS
 10
11.2379039012
 20
9.4267015445
 11
11.2185853851
 21
9.457019064
  0
LINE
  5
352
100
AcDbEntity
  8
0
100
AcDbLine
 62
4
  6
CONTINUOUS
 10
12.1835453856
 20
7.9431419234
 11
12.1738861224
 21
7.9583006835
  0
LINE
  5
353
100
AcDbEntity
  8
0
100
AcDbLine
 62
4
  6
CONTINUOUS
 10
12.2125231615
 20
7.9845989716
 11
12.2221824178
 21
7.969440212
  0
LINE
  5
354
100
AcDbEntity
  8
0
100
AcDbLine
 62
4
  6
CONTINUOUS
 10
11.2765409403
 20
9.4674887205
 11
11.2862001966
 21
9.4523299609
  0
LINE
  5
355
100
AcDbEntity
  8
0
100
AcDbLine
 62
7
  6
CONTINUOUS
 10
12.9239872468
 20
8.8375301718
 11
12.9254591411
 21
8.8389258299
  0
LINE
  5
356
100
AcDbEntity
  8
0
100
AcDbLine
 62
4
  6
CONTINUOUS
 10
12.1159305733
 20
7.9912976904
 11
12.1255898322
 21
7.9978722625
  0
LINE
  5
357
100
AcDbEntity
  8
0
100
AcDbLine
 62
4
  6
CONTINUOUS
 10
11.2668816771
 20
9.4174474849
 11
11.2475631644
 21
9.4187872283
  0
LINE
  5
358
100
AcDbEntity
  8
0
100
AcDbLine
 62
4
  6
CONTINUOUS
 10
11.199266869
 20
9.4728476955
 11
11.1702890932
 21
9.4821017551
  0
LINE
  5
359
100
AcDbEntity
  8
0
100
AcDbLine
 62
4
  6
CONTINUOUS
 10
11.2185853851
 20
9.457019064
 11
11.199266869
 21
9.4728476955
  0
LINE
  5
35A
100
AcDbEntity
  8
0
100
AcDbLine
 62
4
  6
CONTINUOUS
 10
11.2668816771
 20
9.4754030366
 11
11.2765409403
 21
9.4674887205
  0
LINE
  5
35B
100
AcDbEntity
  8
0
100
AcDbLine
 62
4
  6
CONTINUOUS
 10
12.1062713144
 20
7.9629897864
 11
12.1062713144
 21
7.9774786743
  0
LINE
  5
35C
100
AcDbEntity
  8
0
100
AcDbLine
 62
4
  6
CONTINUOUS
 10
12.1738861224
 20
7.9727895715
 11
12.1738861224
 21
7.9583006835
  0
LINE
  5
35D
100
AcDbEntity
  8
0
100
AcDbLine
 62
4
  6
CONTINUOUS
 10
12.2221824178
 20
7.969440212
 11
12.2221824178
 21
7.9549513241
  0
LINE
  5
35E
100
AcDbEntity
  8
0
100
AcDbLine
 62
4
  6
CONTINUOUS
 10
12.1062713144
 20
7.9774786743
 11
12.1159305733
 21
7.9912976904
  0
LINE
  5
35F
100
AcDbEntity
  8
0
100
AcDbLine
 62
4
  6
CONTINUOUS
 10
11.2862001966
 20
6.7216574822
 11
11.2765409403
 21
6.707838466
  0
LINE
  5
360
100
AcDbEntity
  8
0
100
AcDbLine
 62
4
  6
CONTINUOUS
 10
12.1738861224
 20
7.9583006835
 11
12.1642268661
 21
7.9444816673
  0
LINE
  5
361
100
AcDbEntity
  8
0
100
AcDbLine
 62
4
  6
CONTINUOUS
 10
12.1642268661
 20
7.9444816673
 11
12.14490835
 21
7.931332523
  0
LINE
  5
362
100
AcDbEntity
  8
0
100
AcDbLine
 62
4
  6
CONTINUOUS
 10
12.2125231615
 20
7.9411323078
 11
12.2028638983
 21
7.9345577361
  0
LINE
  5
363
100
AcDbEntity
  8
0
100
AcDbLine
 62
7
  6
CONTINUOUS
 10
8.7854181043
 20
9.7682338553
 11
12.6491216383
 21
9.5002851052
  0
LINE
  5
364
100
AcDbEntity
  8
0
100
AcDbLine
 62
4
  6
CONTINUOUS
 10
12.2221824178
 20
7.9549513241
 11
12.2125231615
 21
7.9411323078
  0
LINE
  5
365
100
AcDbEntity
  8
0
100
AcDbLine
 62
7
  6
CONTINUOUS
 10
12.6491216383
 20
6.4817667192
 11
12.6491216383
 21
9.5002851052
  0
LINE
  5
366
100
AcDbEntity
  8
0
100
AcDbLine
 62
4
  6
CONTINUOUS
 10
11.2765409403
 20
6.707838466
 11
11.2668816771
 21
6.7012638942
  0
LINE
  5
367
100
AcDbEntity
  8
0
100
AcDbLine
 62
7
  6
CONTINUOUS
 10
13.4255781329
 20
10.2502845307
 11
9.5618745988
 21
10.5182332808
  0
LINE
  5
368
100
AcDbEntity
  8
0
100
AcDbLine
 62
7
  6
CONTINUOUS
 10
13.4255781329
 20
7.2317661447
 11
13.4255781329
 21
10.2502845307
  0
LINE
  5
369
100
AcDbEntity
  8
0
100
AcDbLine
 62
7
  6
CONTINUOUS
 10
12.6491216383
 20
6.4817667192
 11
13.4255781329
 21
7.2317661447
  0
ARC
  5
36A
100
AcDbEntity
  8
0
100
AcDbCircle
 62
7
  6
CONTINUOUS
 10
10.9260404018
 20
8.7048025878
 40
2.3268353346
100
AcDbArc
 50
171.6678728683
 51
173.0014994771
  0
ARC
  5
36B
100
AcDbEntity
  8
0
100
AcDbCircle
 62
7
  6
CONTINUOUS
 10
9.5629315931
 20
8.5748169907
 40
0.9584571905
100
AcDbArc
 50
189.1014340788
 51
191.5149294916
  0
ARC
  5
36C
100
AcDbEntity
  8
0
100
AcDbCircle
 62
7
  6
CONTINUOUS
 10
9.378592017
 20
8.9883684543
 40
0.7758589224
100
AcDbArc
 50
149.406521743
 51
152.3502505567
  0
ARC
  5
36D
100
AcDbEntity
  8
0
100
AcDbCircle
 62
7
  6
CONTINUOUS
 10
12.8291386428
 20
7.7557187876
 40
0.0343128096
100
AcDbArc
 50
254.5577590326
 51
265.9922069207
  0
ARC
  5
36E
100
AcDbEntity
  8
0
100
AcDbCircle
 62
7
  6
CONTINUOUS
 10
12.8991097025
 20
8.7646792439
 40
0.0343034166
100
AcDbArc
 50
86.0725802885
 51
97.394487454
  0
SPLINE
  5
36F
100
AcDbEntity
  8
0
100
AcDbSpline
 62
7
  6
CONTINUOUS
 70
0
 71
3
 72
9
 73
5
 74
0
 42
0.0000001
 43
0.0000001
 44
0.0000000001
 40
0.0
 40
0.0
 40
0.0
 40
0.0
 40
0.2576616456
 40
1.0
 40
1.0
 40
1.0
 40
1.0
 10
8.7548988344
 20
9.4512049751
 30
0.0
 10
8.7554944586
 20
9.4518782608
 30
0.0
 10
8.7578294164
 20
9.4544705269
 30
0.0
 10
8.7602600627
 20
9.4569772698
 30
0.0
 10
8.7621228466
 20
9.4587765809
 30
0.0
  0
SPLINE
  5
370
100
AcDbEntity
  8
0
100
AcDbSpline
 62
7
  6
CONTINUOUS
 70
0
 71
3
 72
9
 73
5
 74
0
 42
0.0000001
 43
0.0000001
 44
0.0000000001
 40
0.0
 40
0.0
 40
0.0
 40
0.0
 40
0.2578199612
 40
1.0
 40
1.0
 40
1.0
 40
1.0
 10
8.7621228466
 20
9.4587765809
 30
0.0
 10
8.7627188818
 20
9.4593523068
 30
0.0
 10
8.7650540846
 20
9.4615609131
 30
0.0
 10
8.7674854161
 20
9.4636688146
 30
0.0
 10
8.7693468587
 20
9.4651606958
 30
0.0
  0
SPLINE
  5
371
100
AcDbEntity
  8
0
100
AcDbSpline
 62
7
  6
CONTINUOUS
 70
0
 71
3
 72
23
 73
19
 74
0
 42
0.0000001
 43
0.0000001
 44
0.0000000001
 40
0.0
 40
0.0
 40
0.0
 40
0.0
 40
0.0814271046
 40
0.1607817343
 40
0.2379185405
 40
0.312696063
 40
0.3849800266
 40
0.4546476696
 40
0.5215900506
 40
0.5857253305
 40
0.6469976603
 40
0.7053923532
 40
0.760932103
 40
0.8136907295
 40
0.8637864076
 40
0.9113888908
 40
0.9567096643
 40
1.0
 40
1.0
 40
1.0
 40
1.0
 10
8.7548988344
 20
8.2275984458
 30
0.0
 10
8.7509062072
 20
8.2299561319
 30
0.0
 10
8.7430545204
 20
8.2346659342
 30
0.0
 10
8.7315465961
 20
8.2418166692
 30
0.0
 10
8.7204845454
 20
8.2489639597
 30
0.0
 10
8.7099003356
 20
8.2561045725
 30
0.0
 10
8.6998261306
 20
8.2632354727
 30
0.0
 10
8.6902929544
 20
8.2703523376
 30
0.0
 10
8.6813311304
 20
8.2774515639
 30
0.0
 10
8.67296781
 20
8.2845278581
 30
0.0
 10
8.6652278712
 20
8.2915772599
 30
0.0
 10
8.658130929
 20
8.2985940931
 30
0.0
 10
8.6516929279
 20
8.3055743663
 30
0.0
 10
8.6459230496
 20
8.3125127292
 30
0.0
 10
8.6408258786
 20
8.3194054405
 30
0.0
 10
8.6363988785
 20
8.3262482012
 30
0.0
 10
8.6326348181
 20
8.3330371549
 30
0.0
 10
8.6305139144
 20
8.3376218482
 30
0.0
 10
8.6295674919
 20
8.3398980554
 30
0.0
  0
SPLINE
  5
372
100
AcDbEntity
  8
0
100
AcDbSpline
 62
7
  6
CONTINUOUS
 70
0
 71
3
 72
9
 73
5
 74
0
 42
0.0000001
 43
0.0000001
 44
0.0000000001
 40
0.0
 40
0.0
 40
0.0
 40
0.0
 40
0.4964604369
 40
1.0
 40
1.0
 40
1.0
 40
1.0
 10
8.7107326849
 20
9.3832367614
 30
0.0
 10
8.7175505598
 20
9.3947921099
 30
0.0
 10
8.7318380245
 20
9.417743413
 30
0.0
 10
8.7470479893
 20
9.4400899442
 30
0.0
 10
8.7548988344
 20
9.4512049751
 30
0.0
  0
SPLINE
  5
373
100
AcDbEntity
  8
0
100
AcDbSpline
 62
7
  6
CONTINUOUS
 70
0
 71
3
 72
47
 73
43
 74
0
 42
0.0000001
 43
0.0000001
 44
0.0000000001
 40
0.0
 40
0.0
 40
0.0
 40
0.0
 40
0.0097390954
 40
0.0199695295
 40
0.0306881571
 40
0.0418903579
 40
0.0535693632
 40
0.0657172933
 40
0.0783253324
 40
0.0913829807
 40
0.1188003862
 40
0.1478697904
 40
0.1784776678
 40
0.2104990076
 40
0.2437996245
 40
0.2782371359
 40
0.3136617551
 40
0.3499180255
 40
0.3868455341
 40
0.4242797949
 40
0.462053577
 40
0.4999975974
 40
0.5379416192
 40
0.5757154697
 40
0.6131498368
 40
0.6500774863
 40
0.6863340113
 40
0.7217588358
 40
0.7561965785
 40
0.7894975871
 40
0.8215192438
 40
0.8521274831
 40
0.8811973937
 40
0.9086151749
 40
0.9216731274
 40
0.9342812907
 40
0.9464294722
 40
0.9581088203
 40
0.9693112294
 40
0.9800301946
 40
0.9902609526
 40
1.0
 40
1.0
 40
1.0
 40
1.0
 10
8.6218209507
 20
8.3585095681
 30
0.0
 10
8.6205593314
 20
8.3615407138
 30
0.0
 10
8.618082339
 20
8.3678020959
 30
0.0
 10
8.6145777141
 20
8.3775374146
 30
0.0
 10
8.611196345
 20
8.387836647
 30
0.0
 10
8.6079426491
 20
8.3986875675
 30
0.0
 10
8.6048201602
 20
8.4100772625
 30
0.0
 10
8.6018326729
 20
8.4219922072
 30
0.0
 10
8.5989840237
 20
8.4344183306
 30
0.0
 10
8.5953154155
 20
8.4519343968
 30
0.0
 10
8.591125915
 20
8.4750065615
 30
0.0
 10
8.5867783
 20
8.5040480813
 30
0.0
 10
8.5830541329
 20
8.5347398346
 30
0.0
 10
8.5799712995
 20
8.5669353359
 30
0.0
 10
8.5775450877
 20
8.6004811877
 30
0.0
 10
8.575787632
 20
8.6352172644
 30
0.0
 10
8.5747073641
 20
8.670977657
 30
0.0
 10
8.5743097631
 20
8.7075914706
 30
0.0
 10
8.5745970658
 20
8.7448837053
 30
0.0
 10
8.5755677882
 20
8.7826760786
 30
0.0
 10
8.5772174723
 20
8.8207878624
 30
0.0
 10
8.5795384194
 20
8.8590368034
 30
0.0
 10
8.5825193137
 20
8.8972400004
 30
0.0
 10
8.5861459904
 20
8.9352147457
 30
0.0
 10
8.5904011741
 20
8.9727794537
 30
0.0
 10
8.5952641968
 20
9.0097545383
 30
0.0
 10
8.6007118027
 20
9.0459632093
 30
0.0
 10
8.6067178793
 20
9.0812324087
 30
0.0
 10
8.6132532601
 20
9.1153936707
 30
0.0
 10
8.6202865836
 20
9.148283857
 30
0.0
 10
8.6277840056
 20
9.179745997
 30
0.0
 10
8.63570904
 20
9.2096302993
 30
0.0
 10
8.644023603
 20
9.2377941845
 30
0.0
 10
8.6513578792
 20
9.2600675715
 30
0.0
 10
8.6574090328
 20
9.2769099141
 30
0.0
 10
8.6619457238
 20
9.2888240922
 30
0.0
 10
8.6665492558
 20
9.3002128758
 30
0.0
 10
8.6712139332
 20
9.3110628661
 30
0.0
 10
8.6759344212
 20
9.3213610609
 30
0.0
 10
8.6807051046
 20
9.3310952652
 30
0.0
 10
8.6855198663
 20
9.3402539323
 30
0.0
 10
8.68883741
 20
9.3461135877
 30
0.0
 10
8.690505305
 20
9.3489415812
 30
0.0
  0
SPLINE
  5
374
100
AcDbEntity
  8
0
100
AcDbSpline
 62
7
  6
CONTINUOUS
 70
0
 71
3
 72
21
 73
17
 74
0
 42
0.0000001
 43
0.0000001
 44
0.0000000001
 40
0.0
 40
0.0
 40
0.0
 40
0.0
 40
0.1269527041
 40
0.1902689165
 40
0.2534593491
 40
0.3165116873
 40
0.37941528
 40
0.4421620112
 40
0.5047460954
 40
0.5671657261
 40
0.6294227274
 40
0.6915221182
 40
0.7534726662
 40
0.8152847883
 40
0.8769699244
 40
1.0
 40
1.0
 40
1.0
 40
1.0
 10
8.6165415244
 20
8.4232055663
 30
0.0
 10
8.6104130764
 20
8.4466367235
 30
0.0
 10
8.6020360607
 20
8.4819770128
 30
0.0
 10
8.5928648149
 20
8.529458426
 30
0.0
 10
8.5870874326
 20
8.5651633585
 30
0.0
 10
8.5824900878
 20
8.6009604484
 30
0.0
 10
8.5791460306
 20
8.6368121432
 30
0.0
 10
8.5771142326
 20
8.6726731997
 30
0.0
 10
8.576431762
 20
8.7084932933
 30
0.0
 10
8.5771106731
 20
8.7442200794
 30
0.0
 10
8.57913921
 20
8.7798028488
 30
0.0
 10
8.5824805624
 20
8.8151960568
 30
0.0
 10
8.5870758664
 20
8.8503619858
 30
0.0
 10
8.5928519732
 20
8.8852728509
 30
0.0
 10
8.6020059903
 20
8.931410463
 30
0.0
 10
8.6103939485
 20
8.9656604227
 30
0.0
 10
8.6165415244
 20
8.9883120408
 30
0.0
  0
SPLINE
  5
375
100
AcDbEntity
  8
0
100
AcDbSpline
 62
7
  6
CONTINUOUS
 70
0
 71
3
 72
15
 73
11
 74
0
 42
0.0000001
 43
0.0000001
 44
0.0000000001
 40
0.0
 40
0.0
 40
0.0
 40
0.0
 40
0.1201732322
 40
0.2410336384
 40
0.3629078784
 40
0.4861757754
 40
0.6112294411
 40
0.7384145049
 40
0.8679713593
 40
1.0
 40
1.0
 40
1.0
 40
1.0
 10
8.6237655366
 20
9.0419866913
 30
0.0
 10
8.6231777478
 20
9.0547006728
 30
0.0
 10
8.6226498044
 20
9.0802377531
 30
0.0
 10
8.6240862233
 20
9.1186698816
 30
0.0
 10
8.6280374847
 20
9.1572612399
 30
0.0
 10
8.6347556568
 20
9.1959231798
 30
0.0
 10
8.6444165454
 20
9.2345389112
 30
0.0
 10
8.6570854648
 20
9.2729763849
 30
0.0
 10
8.6727016837
 20
9.3111078299
 30
0.0
 10
8.6848501489
 20
9.3360293853
 30
0.0
 10
8.6913354316
 20
9.3484176916
 30
0.0
  0
SPLINE
  5
376
100
AcDbEntity
  8
0
100
AcDbSpline
 62
7
  6
CONTINUOUS
 70
0
 71
3
 72
9
 73
5
 74
0
 42
0.0000001
 43
0.0000001
 44
0.0000000001
 40
0.0
 40
0.0
 40
0.0
 40
0.0
 40
0.5118119473
 40
1.0
 40
1.0
 40
1.0
 40
1.0
 10
8.6295674919
 20
8.3398980554
 30
0.0
 10
8.6282758473
 20
8.343004544
 30
0.0
 10
8.6260768035
 20
8.3492159217
 30
0.0
 10
8.6246127232
 20
8.3556415616
 30
0.0
 10
8.6240876576
 20
8.3588073415
 30
0.0
  0
SPLINE
  5
377
100
AcDbEntity
  8
0
100
AcDbSpline
 62
7
  6
CONTINUOUS
 70
0
 71
3
 72
11
 73
7
 74
0
 42
0.0000001
 43
0.0000001
 44
0.0000000001
 40
0.0
 40
0.0
 40
0.0
 40
0.0
 40
0.2546540834
 40
0.5052032516
 40
0.7531996566
 40
1.0
 40
1.0
 40
1.0
 40
1.0
 10
8.6240876576
 20
8.3588073415
 30
0.0
 10
8.6237436613
 20
8.3608813997
 30
0.0
 10
8.623221447
 20
8.3650245473
 30
0.0
 10
8.6229240831
 20
8.3712415782
 30
0.0
 10
8.6230922637
 20
8.3773981545
 30
0.0
 10
8.6234961322
 20
8.3814669731
 30
0.0
 10
8.6237655366
 20
8.3834866365
 30
0.0
  0
SPLINE
  5
378
100
AcDbEntity
  8
0
100
AcDbSpline
 62
7
  6
CONTINUOUS
 70
0
 71
3
 72
81
 73
77
 74
0
 42
0.0000001
 43
0.0000001
 44
0.0000000001
 40
0.0
 40
0.0
 40
0.0
 40
0.0
 40
0.0039801431
 40
0.0081240931
 40
0.0124360013
 40
0.0169193922
 40
0.021577261
 40
0.0264119999
 40
0.0314252802
 40
0.0366182702
 40
0.0419916862
 40
0.047545808
 40
0.0591950211
 40
0.0715620541
 40
0.0846377536
 40
0.0984090933
 40
0.1128597022
 40
0.1279702741
 40
0.1437189104
 40
0.1600814114
 40
0.1770315069
 40
0.1945410496
 40
0.2125801745
 40
0.2311174668
 40
0.2501201081
 40
0.269554004
 40
0.2893838995
 40
0.3095734898
 40
0.3300855437
 40
0.3508820118
 40
0.3719241296
 40
0.4145865037
 40
0.4577528935
 40
0.5010977816
 40
0.5442939046
 40
0.5870154516
 40
0.6080980225
 40
0.6289420667
 40
0.6495086979
 40
0.669759723
 40
0.6896577522
 40
0.7091663134
 40
0.7282499547
 40
0.7468743561
 40
0.7650064487
 40
0.7826145565
 40
0.7996685343
 40
0.8161399084
 40
0.8320020436
 40
0.8472303388
 40
0.8618024703
 40
0.8756986479
 40
0.888901932
 40
0.9013986383
 40
0.913178861
 40
0.9242371516
 40
0.9294957034
 40
0.9345742191
 40
0.9394737314
 40
0.9441957399
 40
0.9487422908
 40
0.9531160988
 40
0.9573205224
 40
0.9613597593
 40
0.9652388776
 40
0.9689639254
 40
0.9725421104
 40
0.9759818267
 40
0.9792928558
 40
0.982486429
 40
0.9855752896
 40
0.9885737732
 40
0.9914977037
 40
0.9943643137
 40
0.9971920004
 40
1.0
 40
1.0
 40
1.0
 40
1.0
 10
12.1258775058
 20
9.9888700361
 30
0.0
 10
12.1249367498
 20
9.9879613355
 30
0.0
 10
12.1229737948
 20
9.9861503507
 30
0.0
 10
12.1198572114
 20
9.9835052537
 30
0.0
 10
12.116511756
 20
9.9808790995
 30
0.0
 10
12.1129392649
 20
9.9782733385
 30
0.0
 10
12.1091415156
 20
9.9756891586
 30
0.0
 10
12.1051203384
 20
9.9731278424
 30
0.0
 10
12.1008777456
 20
9.9705905893
 30
0.0
 10
12.0964158505
 20
9.9680787008
 30
0.0
 10
12.0917368798
 20
9.9655934206
 30
0.0
 10
12.0851061742
 20
9.9622638071
 30
0.0
 10
12.076281878
 20
9.9581873052
 30
0.0
 10
12.0650290373
 20
9.9534958278
 30
0.0
 10
12.0529725132
 20
9.9489393852
 30
0.0
 10
12.0401365186
 20
9.9445271959
 30
0.0
 10
12.026546654
 20
9.9402682079
 30
0.0
 10
12.0122301984
 20
9.9361710776
 30
0.0
 10
11.9972159342
 20
9.932244138
 30
0.0
 10
11.9815340985
 20
9.928495387
 30
0.0
 10
11.9652163033
 20
9.9249324625
 30
0.0
 10
11.9482954737
 20
9.9215626287
 30
0.0
 10
11.9308057802
 20
9.9183927448
 30
0.0
 10
11.9127825608
 20
9.9154292635
 30
0.0
 10
11.8942622414
 20
9.9126782186
 30
0.0
 10
11.8752822604
 20
9.9101452133
 30
0.0
 10
11.8558809975
 20
9.9078354068
 30
0.0
 10
11.836097692
 20
9.9057534914
 30
0.0
 10
11.8159723717
 20
9.9039037077
 30
0.0
 10
11.7955457149
 20
9.9022897928
 30
0.0
 10
11.7678374188
 20
9.9004485223
 30
0.0
 10
11.7327540499
 20
9.8987645842
 30
0.0
 10
11.6903136424
 20
9.8977319509
 30
0.0
 10
11.647685159
 20
9.8976869882
 30
0.0
 10
11.6052134498
 20
9.8986300385
 30
0.0
 10
11.5700840543
 20
9.9002396479
 30
0.0
 10
11.5423234317
 20
9.9020219241
 30
0.0
 10
11.5218464047
 20
9.9035925719
 30
0.0
 10
11.5016632415
 20
9.9053997215
 30
0.0
 10
11.4818147417
 20
9.9074397263
 30
0.0
 10
11.4623410653
 20
9.9097084325
 30
0.0
 10
11.4432815941
 20
9.9122012201
 30
0.0
 10
11.4246748687
 20
9.9149130149
 30
0.0
 10
11.4065585088
 20
9.9178382976
 30
0.0
 10
11.3889691348
 20
9.9209711178
 30
0.0
 10
11.3719422853
 20
9.9243050949
 30
0.0
 10
11.3555123416
 20
9.9278334334
 30
0.0
 10
11.3397124607
 20
9.9315489454
 30
0.0
 10
11.3245745067
 20
9.935444063
 30
0.0
 10
11.3101289746
 20
9.9395108599
 30
0.0
 10
11.2964049148
 20
9.9437410526
 30
0.0
 10
11.2834298578
 20
9.9481260386
 30
0.0
 10
11.2712297865
 20
9.9526569174
 30
0.0
 10
11.2598289483
 20
9.9573245479
 30
0.0
 10
11.2492501839
 20
9.9621195179
 30
0.0
 10
11.2410037467
 20
9.9662804834
 30
0.0
 10
11.2348452044
 20
9.9696739947
 30
0.0
 10
11.230522599
 20
9.9722021909
 30
0.0
 10
11.2264206505
 20
9.974754909
 30
0.0
 10
11.2225413966
 20
9.9773309248
 30
0.0
 10
11.2188867884
 20
9.9799289964
 30
0.0
 10
11.21545861
 20
9.9825478077
 30
0.0
 10
11.2122586007
 20
9.9851861523
 30
0.0
 10
11.2092883351
 20
9.9878427419
 30
0.0
 10
11.2065492944
 20
9.9905163253
 30
0.0
 10
11.2040429065
 20
9.9932057064
 30
0.0
 10
11.2017704124
 20
9.9959096012
 30
0.0
 10
11.199733078
 20
9.9986268421
 30
0.0
 10
11.1979320252
 20
10.0013561849
 30
0.0
 10
11.1963683104
 20
10.0040963842
 30
0.0
 10
11.195043028
 20
10.0068462045
 30
0.0
 10
11.1939570545
 20
10.0096042693
 30
0.0
 10
11.1931113424
 20
10.0123691617
 30
0.0
 10
11.1925066451
 20
10.0151393959
 30
0.0
 10
11.1921435243
 20
10.017913022
 30
0.0
 10
11.1920627264
 20
10.019766027
 30
0.0
 10
11.1920627243
 20
10.0206887954
 30
0.0
  0
SPLINE
  5
379
100
AcDbEntity
  8
0
100
AcDbSpline
 62
7
  6
CONTINUOUS
 70
0
 71
3
 72
23
 73
19
 74
0
 42
0.0000001
 43
0.0000001
 44
0.0000000001
 40
0.0
 40
0.0
 40
0.0
 40
0.0
 40
0.0637774716
 40
0.1273446947
 40
0.1907020108
 40
0.2538561385
 40
0.3168131788
 40
0.379582097
 40
0.4421733871
 40
0.5045993393
 40
0.5668738666
 40
0.62901238
 40
0.6910316508
 40
0.7529496465
 40
0.8147853569
 40
0.8765586065
 40
0.938289857
 40
1.0
 40
1.0
 40
1.0
 40
1.0
 10
10.089418047
 20
8.1680590312
 30
0.0
 10
10.089418047
 20
8.1607303376
 30
0.0
 10
10.0890672832
 20
8.146094626
 30
0.0
 10
10.0874840207
 20
8.1242300569
 30
0.0
 10
10.0848479397
 20
8.1025388537
 30
0.0
 10
10.0811652498
 20
8.0810718237
 30
0.0
 10
10.0764442586
 20
8.059878138
 30
0.0
 10
10.0706958605
 20
8.0390067566
 30
0.0
 10
10.0639332242
 20
8.0185057752
 30
0.0
 10
10.0561719081
 20
7.9984224751
 30
0.0
 10
10.047429771
 20
7.9788031701
 30
0.0
 10
10.0377269346
 20
7.959693111
 30
0.0
 10
10.027085743
 20
7.941136383
 30
0.0
 10
10.0155306953
 20
7.9231757875
 30
0.0
 10
10.0030884494
 20
7.905852804
 30
0.0
 10
9.9897875435
 20
7.8892072624
 30
0.0
 10
9.9756591818
 20
7.8732780774
 30
0.0
 10
9.9657084754
 20
7.8631588285
 30
0.0
 10
9.9606081455
 20
7.8582322835
 30
0.0
  0
SPLINE
  5
37A
100
AcDbEntity
  8
0
100
AcDbSpline
 62
7
  6
CONTINUOUS
 70
0
 71
3
 72
23
 73
19
 74
0
 42
0.0000001
 43
0.0000001
 44
0.0000000001
 40
0.0
 40
0.0
 40
0.0
 40
0.0
 40
0.063777379
 40
0.1273447372
 40
0.1907019931
 40
0.2538561345
 40
0.3168131769
 40
0.3795820929
 40
0.4421733849
 40
0.5045993366
 40
0.5668738654
 40
0.6290123812
 40
0.6910316548
 40
0.7529496517
 40
0.8147853612
 40
0.8765586089
 40
0.9382898579
 40
1.0
 40
1.0
 40
1.0
 40
1.0
 10
12.5911660853
 20
7.3918244517
 30
0.0
 10
12.5911660853
 20
7.3850357973
 30
0.0
 10
12.5908411653
 20
7.3714785429
 30
0.0
 10
12.5893745795
 20
7.3512251093
 30
0.0
 10
12.5869327448
 20
7.3311322559
 30
0.0
 10
12.5835214371
 20
7.3112470689
 30
0.0
 10
12.5791483364
 20
7.2916150773
 30
0.0
 10
12.5738235329
 20
7.2722816415
 30
0.0
 10
12.567559229
 20
7.2532913112
 30
0.0
 10
12.5603698423
 20
7.2346878807
 30
0.0
 10
12.5522719142
 20
7.2165142508
 30
0.0
 10
12.5432840808
 20
7.1988123384
 30
0.0
 10
12.5334270369
 20
7.1816229816
 30
0.0
 10
12.5227234689
 20
7.1649858329
 30
0.0
 10
12.5111980786
 20
7.1489393112
 30
0.0
 10
12.4988773117
 20
7.1335203019
 30
0.0
 10
12.4857900612
 20
7.1187648611
 30
0.0
 10
12.4765726294
 20
7.1093912327
 30
0.0
 10
12.4718481332
 20
7.1048277041
 30
0.0
  0
SPLINE
  5
37B
100
AcDbEntity
  8
0
100
AcDbSpline
 62
7
  6
CONTINUOUS
 70
0
 71
3
 72
34
 73
30
 74
0
 42
0.0000001
 43
0.0000001
 44
0.0000000001
 40
0.0
 40
0.0
 40
0.0
 40
0.0
 40
0.1699901144
 40
0.2542831019
 40
0.3374682821
 40
0.4189299346
 40
0.4979217302
 40
0.5735756984
 40
0.6098598806
 40
0.6449458296
 40
0.6787087968
 40
0.7110267867
 40
0.7417846574
 40
0.7708776923
 40
0.7982166338
 40
0.8237340335
 40
0.8473911415
 40
0.8691874841
 40
0.88917397
 40
0.907468362
 40
0.9242739637
 40
0.9398978558
 40
0.9474021161
 40
0.9547758366
 40
0.9620852177
 40
0.9693984997
 40
0.976784046
 40
0.9843082731
 40
1.0
 40
1.0
 40
1.0
 40
1.0
 10
9.6602653777
 20
8.2129335251
 30
0.0
 10
9.6640378555
 20
8.209308479
 30
0.0
 10
9.6699654522
 20
8.2041683147
 30
0.0
 10
9.6783526992
 20
8.1980351553
 30
0.0
 10
9.6847914727
 20
8.1938737777
 30
0.0
 10
9.6913274878
 20
8.1901885146
 30
0.0
 10
9.6978761034
 20
8.1870269975
 30
0.0
 10
9.7033338559
 20
8.1848341909
 30
0.0
 10
9.7076213168
 20
8.1833842987
 30
0.0
 10
9.7107252317
 20
8.1824670131
 30
0.0
 10
9.7137457871
 20
8.181707462
 30
0.0
 10
9.7166662872
 20
8.181107523
 30
0.0
 10
9.7194699561
 20
8.1806682289
 30
0.0
 10
9.7221402736
 20
8.1803897829
 30
0.0
 10
9.7246612249
 20
8.1802715027
 30
0.0
 10
9.7270175968
 20
8.1803119445
 30
0.0
 10
9.7291952379
 20
8.1805090556
 30
0.0
 10
9.7311813039
 20
8.1808603725
 30
0.0
 10
9.7329643885
 20
8.1813632106
 30
0.0
 10
9.7345345696
 20
8.1820153295
 30
0.0
 10
9.7358825219
 20
8.1828145549
 30
0.0
 10
9.7368259673
 20
8.1836136716
 30
0.0
 10
9.7374483424
 20
8.1843182545
 30
0.0
 10
9.7378482922
 20
8.1848732026
 30
0.0
 10
9.7381868741
 20
8.1854608084
 30
0.0
 10
9.7384637108
 20
8.1860802909
 30
0.0
 10
9.7386784941
 20
8.1867309208
 30
0.0
 10
9.7388851383
 20
8.1876509795
 30
0.0
 10
9.738941516
 20
8.1883681856
 30
0.0
 10
9.7389415371
 20
8.1888511384
 30
0.0
  0
SPLINE
  5
37C
100
AcDbEntity
  8
0
100
AcDbSpline
 62
7
  6
CONTINUOUS
 70
0
 71
3
 72
9
 73
5
 74
0
 42
0.0000001
 43
0.0000001
 44
0.0000000001
 40
0.0
 40
0.0
 40
0.0
 40
0.0
 40
0.5036225311
 40
1.0
 40
1.0
 40
1.0
 40
1.0
 10
11.966426731
 20
9.9663735698
 30
0.0
 10
11.9666360457
 20
9.9672042321
 30
0.0
 10
11.9669548602
 20
9.9688798204
 30
0.0
 10
11.9670627119
 20
9.9705824241
 30
0.0
 10
11.9670627112
 20
9.9714267293
 30
0.0
  0
SPLINE
  5
37D
100
AcDbEntity
  8
0
100
AcDbSpline
 62
7
  6
CONTINUOUS
 70
0
 71
3
 72
23
 73
19
 74
0
 42
0.0000001
 43
0.0000001
 44
0.0000000001
 40
0.0
 40
0.0
 40
0.0
 40
0.0
 40
0.0637765977
 40
0.1273450691
 40
0.1907019728
 40
0.2538560883
 40
0.3168132203
 40
0.3795820796
 40
0.4421733855
 40
0.5045993402
 40
0.566873864
 40
0.6290123768
 40
0.6910316495
 40
0.7529496457
 40
0.8147853522
 40
0.8765585995
 40
0.9382898533
 40
1.0
 40
1.0
 40
1.0
 40
1.0
 10
9.933580778
 20
8.1925317795
 30
0.0
 10
9.933580778
 20
8.1879031895
 30
0.0
 10
9.9333592163
 20
8.1786595464
 30
0.0
 10
9.9323592984
 20
8.1648503306
 30
0.0
 10
9.9306943824
 20
8.1511505509
 30
0.0
 10
9.9283684822
 20
8.1375924352
 30
0.0
 10
9.9253867844
 20
8.1242069371
 30
0.0
 10
9.9217561948
 20
8.1110250002
 30
0.0
 10
9.9174850681
 20
8.0980769964
 30
0.0
 10
9.9125831771
 20
8.0853927928
 30
0.0
 10
9.9070618042
 20
8.0730016477
 30
0.0
 10
9.9009336866
 20
8.0609321267
 30
0.0
 10
9.8942129319
 20
8.0492120725
 30
0.0
 10
9.886914981
 20
8.0378685383
 30
0.0
 10
9.8790566955
 20
8.026927708
 30
0.0
 10
9.8706561147
 20
8.0164147245
 30
0.0
 10
9.8617329419
 20
8.0063541632
 30
0.0
 10
9.8554482493
 20
7.9999630807
 30
0.0
 10
9.8522269905
 20
7.9968515692
 30
0.0
  0
SPLINE
  5
37E
100
AcDbEntity
  8
0
100
AcDbSpline
 62
7
  6
CONTINUOUS
 70
0
 71
3
 72
39
 73
35
 74
0
 42
0.0000001
 43
0.0000001
 44
0.0000000001
 40
0.0
 40
0.0
 40
0.0
 40
0.0
 40
0.0310753389
 40
0.0623079046
 40
0.0936931359
 40
0.1252222867
 40
0.1568840447
 40
0.188664204
 40
0.2205461642
 40
0.252511249
 40
0.2845391085
 40
0.3166081366
 40
0.3486959074
 40
0.3807796228
 40
0.4128365654
 40
0.4448445498
 40
0.476782367
 40
0.5086302146
 40
0.5403701085
 40
0.5719862649
 40
0.6034654497
 40
0.6347972845
 40
0.6659745042
 40
0.696993157
 40
0.7278527401
 40
0.7585562641
 40
0.7891102404
 40
0.8195245845
 40
0.8498124362
 40
0.879989895
 40
0.9100756746
 40
0.9400906813
 40
0.9700575289
 40
1.0
 40
1.0
 40
1.0
 40
1.0
 10
9.933580778
 20
8.1925317795
 30
0.0
 10
9.933580778
 20
8.1997131035
 30
0.0
 10
9.933045069
 20
8.2141176121
 30
0.0
 10
9.9306532339
 20
8.2356554222
 30
0.0
 10
9.9266845967
 20
8.2570667626
 30
0.0
 10
9.9211610782
 20
8.2782325398
 30
0.0
 10
9.9141132795
 20
8.2990369255
 30
0.0
 10
9.905580044
 20
8.3193656287
 30
0.0
 10
9.8956083733
 20
8.3391071163
 30
0.0
 10
9.884253116
 20
8.3581530517
 30
0.0
 10
9.8715766913
 20
8.3763989316
 30
0.0
 10
9.8576487428
 20
8.3937446416
 30
0.0
 10
9.8425457525
 20
8.4100949976
 30
0.0
 10
9.8263506258
 20
8.4253602624
 30
0.0
 10
9.8091522418
 20
8.4394566327
 30
0.0
 10
9.7910449703
 20
8.4523066941
 30
0.0
 10
9.7721281607
 20
8.4638398421
 30
0.0
 10
9.7525056037
 20
8.4739926672
 30
0.0
 10
9.7322849739
 20
8.4827093121
 30
0.0
 10
9.7115772404
 20
8.4899417684
 30
0.0
 10
9.6904960661
 20
8.4956501405
 30
0.0
 10
9.669157194
 20
8.4998028678
 30
0.0
 10
9.6476778207
 20
8.5023769023
 30
0.0
 10
9.6261759618
 20
8.5033578438
 30
0.0
 10
9.6047698123
 20
8.5027400263
 30
0.0
 10
9.5835771018
 20
8.5005265707
 30
0.0
 10
9.5627144494
 20
8.4967293827
 30
0.0
 10
9.5422967204
 20
8.4913690911
 30
0.0
 10
9.5224364009
 20
8.484474962
 30
0.0
 10
9.5032429325
 20
8.4760847157
 30
0.0
 10
9.4848222429
 20
8.4662444707
 30
0.0
 10
9.4672756072
 20
8.4550079859
 30
0.0
 10
9.4507010814
 20
8.4424382812
 30
0.0
 10
9.4403559245
 20
8.4332116304
 30
0.0
 10
9.4353790354
 20
8.4284043023
 30
0.0
  0
SPLINE
  5
37F
100
AcDbEntity
  8
0
100
AcDbSpline
 62
7
  6
CONTINUOUS
 70
0
 71
3
 72
21
 73
17
 74
0
 42
0.0000001
 43
0.0000001
 44
0.0000000001
 40
0.0
 40
0.0
 40
0.0
 40
0.0
 40
0.1273176368
 40
0.2537999758
 40
0.3167619477
 40
0.3795355043
 40
0.4421314993
 40
0.504562144
 40
0.5668413432
 40
0.6289845282
 40
0.6910084527
 40
0.7529310934
 40
0.8147714494
 40
0.8765493364
 40
0.9382852193
 40
1.0
 40
1.0
 40
1.0
 40
1.0
 10
12.4050569457
 20
7.4170568166
 30
0.0
 10
12.4050569457
 20
7.409819294
 30
0.0
 10
12.4043660763
 20
7.3953824166
 30
0.0
 10
12.4017568869
 20
7.3775353168
 30
0.0
 10
12.3986383254
 20
7.3635358273
 30
0.0
 10
12.395794365
 20
7.3532097989
 30
0.0
 10
12.3924486369
 20
7.343067247
 30
0.0
 10
12.3886088072
 20
7.3331312822
 30
0.0
 10
12.3842837576
 20
7.3234248769
 30
0.0
 10
12.3794834014
 20
7.3139704156
 30
0.0
 10
12.3742187808
 20
7.304789724
 30
0.0
 10
12.3685020675
 20
7.2959039471
 30
0.0
 10
12.3623464291
 20
7.2873336158
 30
0.0
 10
12.3557659531
 20
7.2790984613
 30
0.0
 10
12.3487761243
 20
7.2712176996
 30
0.0
 10
12.3438531419
 20
7.266211325
 30
0.0
 10
12.3413298168
 20
7.2637739803
 30
0.0
  0
SPLINE
  5
380
100
AcDbEntity
  8
0
100
AcDbSpline
 62
7
  6
CONTINUOUS
 70
0
 71
3
 72
41
 73
37
 74
0
 42
0.0000001
 43
0.0000001
 44
0.0000000001
 40
0.0
 40
0.0
 40
0.0
 40
0.0
 40
0.0310749795
 40
0.0466744934
 40
0.0623125012
 40
0.0936974042
 40
0.1252262392
 40
0.1568876811
 40
0.1886675208
 40
0.2205491607
 40
0.2525139234
 40
0.2685235891
 40
0.284546292
 40
0.3166149974
 40
0.3487024458
 40
0.3807858392
 40
0.4128424602
 40
0.4448501235
 40
0.4767876202
 40
0.5086351488
 40
0.540374725
 40
0.5719905649
 40
0.6034694342
 40
0.6348009542
 40
0.6659778599
 40
0.6969961999
 40
0.727855472
 40
0.7585586874
 40
0.7891123568
 40
0.8195263956
 40
0.8498139432
 40
0.879991099
 40
0.9100765763
 40
0.9400912818
 40
0.9700578289
 40
1.0
 40
1.0
 40
1.0
 40
1.0
 10
12.4050569457
 20
7.4170568166
 30
0.0
 10
12.4050569457
 20
7.4226821785
 30
0.0
 10
12.4047425004
 20
7.4311356957
 30
0.0
 10
12.4037040062
 20
7.4423697114
 30
0.0
 10
12.4022488677
 20
7.4536144847
 30
0.0
 10
12.3996549101
 20
7.4676094456
 30
0.0
 10
12.3953281898
 20
7.4841890225
 30
0.0
 10
12.3898074124
 20
7.5004858481
 30
0.0
 10
12.3831229913
 20
7.5164100463
 30
0.0
 10
12.3753120311
 20
7.5318739499
 30
0.0
 10
12.3679025951
 20
7.5443014859
 30
0.0
 10
12.3614580678
 20
7.5539310907
 30
0.0
 10
12.3546720525
 20
7.5633463904
 30
0.0
 10
12.345576703
 20
7.57467377
 30
0.0
 10
12.333746215
 20
7.587481281
 30
0.0
 10
12.3210599842
 20
7.5994391454
 30
0.0
 10
12.3075879294
 20
7.6104812821
 30
0.0
 10
12.2934038953
 20
7.620547167
 30
0.0
 10
12.2785857282
 20
7.629581464
 30
0.0
 10
12.2632147265
 20
7.6375345141
 30
0.0
 10
12.2473752345
 20
7.6443625562
 30
0.0
 10
12.2311541767
 20
7.650027982
 30
0.0
 10
12.2146405896
 20
7.6544995386
 30
0.0
 10
12.197925139
 20
7.6577525034
 30
0.0
 10
12.1810996296
 20
7.6597688235
 30
0.0
 10
12.1642565074
 20
7.6605372211
 30
0.0
 10
12.1474883578
 20
7.6600532627
 30
0.0
 10
12.1308874013
 20
7.6583193933
 30
0.0
 10
12.1145449896
 20
7.6553449343
 30
0.0
 10
12.098551101
 20
7.6511460428
 30
0.0
 10
12.0829938503
 20
7.6457456429
 30
0.0
 10
12.0679589673
 20
7.6391732822
 30
0.0
 10
12.053529428
 20
7.6314650888
 30
0.0
 10
12.039784565
 20
7.6226631741
 30
0.0
 10
12.0268011788
 20
7.6128169144
 30
0.0
 10
12.0186974812
 20
7.6055893622
 30
0.0
 10
12.0147989092
 20
7.601823631
 30
0.0
  0
SPLINE
  5
381
100
AcDbEntity
  8
0
100
AcDbSpline
 62
7
  6
CONTINUOUS
 70
0
 71
3
 72
24
 73
20
 74
0
 42
0.0000001
 43
0.0000001
 44
0.0000000001
 40
0.0
 40
0.0
 40
0.0
 40
0.0
 40
0.0230730661
 40
0.0476343187
 40
0.0734350782
 40
0.1002714804
 40
0.1279735422
 40
0.1564071857
 40
0.1854636667
 40
0.2150563106
 40
0.2755771612
 40
0.3375534274
 40
0.4007024902
 40
0.4648269845
 40
0.5297832055
 40
0.5954631744
 40
0.7286261775
 40
0.8637118526
 40
1.0
 40
1.0
 40
1.0
 40
1.0
 10
9.6139415582
 20
8.3024187127
 30
0.0
 10
9.6139410232
 20
8.301627857
 30
0.0
 10
9.61399859
 20
8.2999948772
 30
0.0
 10
9.6142247531
 20
8.2974870842
 30
0.0
 10
9.6145808614
 20
8.2948643018
 30
0.0
 10
9.6150557269
 20
8.2921512541
 30
0.0
 10
9.6156396636
 20
8.2893673983
 30
0.0
 10
9.616324677
 20
8.2865284181
 30
0.0
 10
9.6171041487
 20
8.2836467604
 30
0.0
 10
9.6182709052
 20
8.2797318793
 30
0.0
 10
9.6199400393
 20
8.2747911385
 30
0.0
 10
9.6222393213
 20
8.2688558633
 30
0.0
 10
9.62483275
 20
8.2629081004
 30
0.0
 10
9.6277084947
 20
8.2569779755
 30
0.0
 10
9.6308587642
 20
8.2510902998
 30
0.0
 10
9.6354384982
 20
8.2432916728
 30
0.0
 10
9.6418247103
 20
8.2337765011
 30
0.0
 10
9.650481102
 20
8.222925298
 30
0.0
 10
9.6568970124
 20
8.2161702517
 30
0.0
 10
9.6602653777
 20
8.2129335251
 30
0.0
  0
SPLINE
  5
382
100
AcDbEntity
  8
0
100
AcDbSpline
 62
7
  6
CONTINUOUS
 70
0
 71
3
 72
58
 73
54
 74
0
 42
0.0000001
 43
0.0000001
 44
0.0000000001
 40
0.0
 40
0.0
 40
0.0
 40
0.0
 40
0.0077405343
 40
0.016054304
 40
0.0249604765
 40
0.0344719753
 40
0.0445953042
 40
0.0553321928
 40
0.0666804843
 40
0.0786345244
 40
0.091185836
 40
0.1043234146
 40
0.1180340016
 40
0.1323024564
 40
0.1471118155
 40
0.1624435354
 40
0.1782776806
 40
0.1945929211
 40
0.2113667676
 40
0.2285756307
 40
0.2641980525
 40
0.3012534074
 40
0.3395214483
 40
0.3787716908
 40
0.418765584
 40
0.4592585664
 40
0.5000020763
 40
0.5407455627
 40
0.5812384777
 40
0.6212322572
 40
0.6604823369
 40
0.6987501731
 40
0.735805291
 40
0.7538091908
 40
0.7714282733
 40
0.7886369777
 40
0.8054106547
 40
0.821725732
 40
0.8375596854
 40
0.852891219
 40
0.8677003905
 40
0.8819686285
 40
0.8956790162
 40
0.9088163833
 40
0.9213674653
 40
0.9333212947
 40
0.9446693557
 40
0.9554060211
 40
0.9655291152
 40
0.9750403835
 40
0.9839464354
 40
0.9922597638
 40
1.0
 40
1.0
 40
1.0
 40
1.0
 10
11.9898118776
 20
9.9820009526
 30
0.0
 10
11.9885517896
 20
9.9808283733
 30
0.0
 10
11.9858391963
 20
9.978501583
 30
0.0
 10
11.9813892997
 20
9.975178417
 30
0.0
 10
11.9764236205
 20
9.9719053616
 30
0.0
 10
11.9709503127
 20
9.9686876181
 30
0.0
 10
11.9649778374
 20
9.965530009
 30
0.0
 10
11.9585157311
 20
9.9624376018
 30
0.0
 10
11.9515743501
 20
9.9594154001
 30
0.0
 10
11.9441649158
 20
9.9564682896
 30
0.0
 10
11.9362994447
 20
9.9536011361
 30
0.0
 10
11.9279907528
 20
9.9508186691
 30
0.0
 10
11.9192524219
 20
9.9481254549
 30
0.0
 10
11.910098752
 20
9.9455259867
 30
0.0
 10
11.9005447586
 20
9.9430245521
 30
0.0
 10
11.8906061298
 20
9.9406252852
 30
0.0
 10
11.8802991924
 20
9.9383321929
 30
0.0
 10
11.8696409044
 20
9.9361490527
 30
0.0
 10
11.8586487851
 20
9.9340794628
 30
0.0
 10
11.8433958571
 20
9.9314457878
 30
0.0
 10
11.8236269851
 20
9.9284742396
 30
0.0
 10
11.7991394337
 20
9.925449632
 30
0.0
 10
11.7737823906
 20
9.9229469111
 30
0.0
 10
11.7477228191
 20
9.920982775
 30
0.0
 10
11.7211321651
 20
9.9195703786
 30
0.0
 10
11.6941854876
 20
9.9187191712
 30
0.0
 10
11.6670602076
 20
9.9184348408
 30
0.0
 10
11.6399349447
 20
9.9187192792
 30
0.0
 10
11.6129883134
 20
9.9195705861
 30
0.0
 10
11.5863977505
 20
9.9209830862
 30
0.0
 10
11.5603382607
 20
9.9229473165
 30
0.0
 10
11.5349814826
 20
9.9254501726
 30
0.0
 10
11.5143823764
 20
9.9279944393
 30
0.0
 10
11.4983850821
 20
9.9302952448
 30
0.0
 10
11.4867802359
 20
9.9321276235
 30
0.0
 10
11.4754725163
 20
9.9340802181
 30
0.0
 10
11.4644805269
 20
9.9361498373
 30
0.0
 10
11.453822362
 20
9.9383330142
 30
0.0
 10
11.4435155593
 20
9.9406261539
 30
0.0
 10
11.4335770686
 20
9.9430254574
 30
0.0
 10
11.4240232187
 20
9.945526922
 30
0.0
 10
11.4148697017
 20
9.9481264369
 30
0.0
 10
11.4061315249
 20
9.9508196771
 30
0.0
 10
11.3978229931
 20
9.9536021747
 30
0.0
 10
11.3899576911
 20
9.9564693686
 30
0.0
 10
11.3825484237
 20
9.9594164951
 30
0.0
 10
11.3756072183
 20
9.9624387309
 30
0.0
 10
11.3691452963
 20
9.965531168
 30
0.0
 10
11.3631729965
 20
9.9686887816
 30
0.0
 10
11.3576998635
 20
9.9719065674
 30
0.0
 10
11.3527344097
 20
9.9751796431
 30
0.0
 10
11.3482847154
 20
9.9785027607
 30
0.0
 10
11.3455723173
 20
9.9808295277
 30
0.0
 10
11.3443123142
 20
9.9820021009
 30
0.0
  0
SPLINE
  5
383
100
AcDbEntity
  8
0
100
AcDbSpline
 62
7
  6
CONTINUOUS
 70
0
 71
3
 72
9
 73
5
 74
0
 42
0.0000001
 43
0.0000001
 44
0.0000000001
 40
0.0
 40
0.0
 40
0.0
 40
0.0
 40
0.5035737502
 40
1.0
 40
1.0
 40
1.0
 40
1.0
 10
11.367690048
 20
9.9664079892
 30
0.0
 10
11.3674835467
 20
9.9672331418
 30
0.0
 10
11.3671690762
 20
9.9688974412
 30
0.0
 10
11.3670627119
 20
9.9705882029
 30
0.0
 10
11.3670627112
 20
9.9714267293
 30
0.0
  0
SPLINE
  5
384
100
AcDbEntity
  8
0
100
AcDbSpline
 62
7
  6
CONTINUOUS
 70
0
 71
3
 72
18
 73
14
 74
0
 42
0.0000001
 43
0.0000001
 44
0.0000000001
 40
0.0
 40
0.0
 40
0.0
 40
0.0
 40
0.0548626755
 40
0.1099292576
 40
0.1654013202
 40
0.2214755501
 40
0.3361333804
 40
0.4553634196
 40
0.5171048815
 40
0.5804365284
 40
0.7123311193
 40
0.8519577055
 40
1.0
 40
1.0
 40
1.0
 40
1.0
 10
12.142062698
 20
10.0206891049
 30
0.0
 10
12.1420626995
 20
10.0200182694
 30
0.0
 10
12.142020131
 20
10.0186737176
 30
0.0
 10
12.1418287165
 20
10.0166590866
 30
0.0
 10
12.1415097024
 20
10.0146455772
 30
0.0
 10
12.1409102603
 20
10.0119438949
 30
0.0
 10
12.139830339
 20
10.0085577544
 30
0.0
 10
12.1383512743
 20
10.0052515548
 30
0.0
 10
12.1369280698
 20
10.0026240264
 30
0.0
 10
12.135298437
 20
9.9999362811
 30
0.0
 10
12.1329321736
 20
9.9965877227
 30
0.0
 10
12.1296331666
 20
9.9926526452
 30
0.0
 10
12.1271794954
 20
9.9901276615
 30
0.0
 10
12.1258775058
 20
9.9888700361
 30
0.0
  0
SPLINE
  5
385
100
AcDbEntity
  8
0
100
AcDbSpline
 62
7
  6
CONTINUOUS
 70
0
 71
3
 72
44
 73
40
 74
0
 42
0.0000001
 43
0.0000001
 44
0.0000000001
 40
0.0
 40
0.0
 40
0.0
 40
0.0
 40
0.0149722236
 40
0.0299475067
 40
0.0449288886
 40
0.0599193736
 40
0.0749219097
 40
0.08993937
 40
0.1049745397
 40
0.1200300961
 40
0.1351085917
 40
0.1502124449
 40
0.1804994096
 40
0.2109128633
 40
0.2414659442
 40
0.2721685685
 40
0.3030272475
 40
0.3340449904
 40
0.3652212956
 40
0.396552213
 40
0.4280304762
 40
0.4596457066
 40
0.4913846713
 40
0.5232315866
 40
0.555168468
 40
0.587175515
 40
0.6192315195
 40
0.6513142962
 40
0.6834011282
 40
0.7154692177
 40
0.7474961397
 40
0.7794602892
 40
0.8113413161
 40
0.8431205468
 40
0.8747813742
 40
0.9063096205
 40
0.9376938957
 40
0.9689255646
 40
1.0
 40
1.0
 40
1.0
 40
1.0
 10
9.3005983592
 20
8.5415236071
 30
0.0
 10
9.3045387802
 20
8.5453297651
 30
0.0
 10
9.3125726569
 20
8.5527870577
 30
0.0
 10
9.3250598208
 20
8.5634864427
 30
0.0
 10
9.337967436
 20
8.5736858543
 30
0.0
 10
9.3512774769
 20
8.5833710456
 30
0.0
 10
9.3649717363
 20
8.5925286929
 30
0.0
 10
9.3790313068
 20
8.6011462293
 30
0.0
 10
9.3934368631
 20
8.6092118219
 30
0.0
 10
9.4081685273
 20
8.6167142916
 30
0.0
 10
9.4232063001
 20
8.6236434778
 30
0.0
 10
9.4436528849
 20
8.6321119796
 30
0.0
 10
9.4698852691
 20
8.6412183098
 30
0.0
 10
9.5022125802
 20
8.6497051013
 30
0.0
 10
9.535245326
 20
8.6557174385
 30
0.0
 10
9.568800405
 20
8.6592220659
 30
0.0
 10
9.6026935002
 20
8.6602002873
 30
0.0
 10
9.636738117
 20
8.6586471629
 30
0.0
 10
9.6707471418
 20
8.6545716478
 30
0.0
 10
9.7045337012
 20
8.6479964978
 30
0.0
 10
9.7379122412
 20
8.6389582509
 30
0.0
 10
9.7706995058
 20
8.6275068817
 30
0.0
 10
9.8027155125
 20
8.6137055179
 30
0.0
 10
9.8337845695
 20
8.5976302035
 30
0.0
 10
9.8637362109
 20
8.5793694073
 30
0.0
 10
9.8924060819
 20
8.5590234897
 30
0.0
 10
9.9196368669
 20
8.5367042295
 30
0.0
 10
9.9452791713
 20
8.5125342307
 30
0.0
 10
9.9691922624
 20
8.4866461702
 30
0.0
 10
9.9912448422
 20
8.4591821086
 30
0.0
 10
10.0113158506
 20
8.4302927863
 30
0.0
 10
10.0292950346
 20
8.4001367236
 30
0.0
 10
10.045083526
 20
8.3688793594
 30
0.0
 10
10.0585944858
 20
8.3366922356
 30
0.0
 10
10.0697535325
 20
8.3037519501
 30
0.0
 10
10.078499099
 20
8.2702394638
 30
0.0
 10
10.0847827709
 20
8.2363381624
 30
0.0
 10
10.0885698317
 20
8.2022366219
 30
0.0
 10
10.089418047
 20
8.1794294672
 30
0.0
 10
10.089418047
 20
8.1680590312
 30
0.0
  0
SPLINE
  5
386
100
AcDbEntity
  8
0
100
AcDbSpline
 62
7
  6
CONTINUOUS
 70
0
 71
3
 72
14
 73
10
 74
0
 42
0.0000001
 43
0.0000001
 44
0.0000000001
 40
0.0
 40
0.0
 40
0.0
 40
0.0
 40
0.23058237
 40
0.3507126732
 40
0.4741910924
 40
0.601014949
 40
0.7310788833
 40
0.8641822471
 40
1.0
 40
1.0
 40
1.0
 40
1.0
 10
9.9296891801
 20
8.146352153
 30
0.0
 10
9.924268327
 20
8.1454993843
 30
0.0
 10
9.9159782359
 20
8.1444735877
 30
0.0
 10
9.9047282833
 20
8.1435736812
 30
0.0
 10
9.8959231916
 20
8.1431159423
 30
0.0
 10
9.8868729863
 20
8.1428861645
 30
0.0
 10
9.8775908079
 20
8.1428854015
 30
0.0
 10
9.8680974673
 20
8.14311417
 30
0.0
 10
9.8617040405
 20
8.1434165836
 30
0.0
 10
9.8584772785
 20
8.1436050513
 30
0.0
  0
SPLINE
  5
387
100
AcDbEntity
  8
0
100
AcDbSpline
 62
7
  6
CONTINUOUS
 70
0
 71
3
 72
41
 73
37
 74
0
 42
0.0000001
 43
0.0000001
 44
0.0000000001
 40
0.0
 40
0.0
 40
0.0
 40
0.0
 40
0.0149724862
 40
0.0299480307
 40
0.0449296746
 40
0.0599204222
 40
0.0899350731
 40
0.1200204959
 40
0.1501975964
 40
0.1804850878
 40
0.2108990702
 40
0.2414526838
 40
0.2721558423
 40
0.303015057
 40
0.3340333403
 40
0.3652101893
 40
0.3965416515
 40
0.4280204628
 40
0.4596362457
 40
0.4913757643
 40
0.5232232351
 40
0.5551606749
 40
0.587168282
 40
0.6192248472
 40
0.6513081855
 40
0.6833955794
 40
0.7154642309
 40
0.7474917144
 40
0.779456424
 40
0.8113380097
 40
0.8431177978
 40
0.8747791805
 40
0.9063079772
 40
0.937692809
 40
0.9689250164
 40
1.0
 40
1.0
 40
1.0
 40
1.0
 10
11.86046926
 20
7.7377699244
 30
0.0
 10
11.8641193335
 20
7.7412956367
 30
0.0
 10
11.8715612408
 20
7.7482034753
 30
0.0
 10
11.8831282475
 20
7.7581144858
 30
0.0
 10
11.8950849122
 20
7.7675625207
 30
0.0
 10
11.9115286682
 20
7.7795281421
 30
0.0
 10
11.9329863038
 20
7.7932694708
 30
0.0
 10
11.9600027699
 20
7.8077015093
 30
0.0
 10
11.9881533329
 20
7.8200074127
 30
0.0
 10
12.0172817648
 20
7.8301188789
 30
0.0
 10
12.0472277951
 20
7.8379807326
 30
0.0
 10
12.0778263764
 20
7.843549999
 30
0.0
 10
12.1089090483
 20
7.8467964727
 30
0.0
 10
12.1403047685
 20
7.8477026921
 30
0.0
 10
12.1718408688
 20
7.8462640411
 30
0.0
 10
12.2033439944
 20
7.8424888476
 30
0.0
 10
12.2346410586
 20
7.8363982462
 30
0.0
 10
12.2655601699
 20
7.828026019
 30
0.0
 10
12.2959315613
 20
7.8174184323
 30
0.0
 10
12.3255885374
 20
7.8046340394
 30
0.0
 10
12.3543683498
 20
7.7897432602
 30
0.0
 10
12.3821130644
 20
7.7728279952
 30
0.0
 10
12.4086704511
 20
7.7539812434
 30
0.0
 10
12.4338948114
 20
7.7333065774
 30
0.0
 10
12.4576477305
 20
7.7109175288
 30
0.0
 10
12.4797988245
 20
7.6869369844
 30
0.0
 10
12.5002265195
 20
7.6614965837
 30
0.0
 10
12.5188186572
 20
7.6347359402
 30
0.0
 10
12.5354730827
 20
7.6068018789
 30
0.0
 10
12.5500982315
 20
7.577847663
 30
0.0
 10
12.56261368
 20
7.548032201
 30
0.0
 10
12.5729505039
 20
7.5175190682
 30
0.0
 10
12.5810516682
 20
7.4864758904
 30
0.0
 10
12.5868723446
 20
7.4550725513
 30
0.0
 10
12.5903803702
 20
7.4234837247
 30
0.0
 10
12.5911660853
 20
7.4023570778
 30
0.0
 10
12.5911660853
 20
7.3918244517
 30
0.0
  0
SPLINE
  5
388
100
AcDbEntity
  8
0
100
AcDbSpline
 62
7
  6
CONTINUOUS
 70
0
 71
3
 72
73
 73
69
 74
0
 42
0.0000001
 43
0.0000001
 44
0.0000000001
 40
0.0
 40
0.0
 40
0.0
 40
0.0
 40
0.0036899217
 40
0.0075220722
 40
0.0114999241
 40
0.0156263923
 40
0.0199038122
 40
0.0243340611
 40
0.0289186039
 40
0.0336584765
 40
0.0385544129
 40
0.0436068119
 40
0.0541807001
 40
0.0653786566
 40
0.0771951324
 40
0.089621585
 40
0.1026468929
 40
0.1162576909
 40
0.1304386228
 40
0.1451725279
 40
0.1604406229
 40
0.1762226663
 40
0.1924970827
 40
0.2092410562
 40
0.2264306365
 40
0.2440408462
 40
0.2620457622
 40
0.2804185807
 40
0.2991316963
 40
0.3181567872
 40
0.3374648822
 40
0.3768107074
 40
0.4169274633
 40
0.4575665897
 40
0.498475352
 40
0.5393988829
 40
0.5800822002
 40
0.6202722166
 40
0.659719788
 40
0.6790891832
 40
0.6981823705
 40
0.7169702342
 40
0.7354242897
 40
0.7535167596
 40
0.771220657
 40
0.7885098461
 40
0.8053591152
 40
0.8217442679
 40
0.8376422293
 40
0.8530311246
 40
0.8678903835
 40
0.8822008716
 40
0.8959450526
 40
0.909107133
 40
0.9216732551
 40
0.93363175
 40
0.9449734639
 40
0.9556921057
 40
0.9608169699
 40
0.9657853037
 40
0.9705973493
 40
0.9752536818
 40
0.9797551699
 40
0.9841030803
 40
0.9882991772
 40
0.992345623
 40
0.9962449193
 40
1.0
 40
1.0
 40
1.0
 40
1.0
 10
12.8449845748
 20
7.6785378708
 30
0.0
 10
12.8440543164
 20
7.679681678
 30
0.0
 10
12.8422061729
 20
7.6820529599
 30
0.0
 10
12.8395197739
 20
7.6857818976
 30
0.0
 10
12.8368685786
 20
7.6897475412
 30
0.0
 10
12.834253754
 20
7.6939482208
 30
0.0
 10
12.831676282
 20
7.6983822196
 30
0.0
 10
12.8291372117
 20
7.7030477241
 30
0.0
 10
12.8266376012
 20
7.7079428401
 30
0.0
 10
12.8241784261
 20
7.7130655368
 30
0.0
 10
12.8217607065
 20
7.7184137362
 30
0.0
 10
12.8185448357
 20
7.7259572129
 30
0.0
 10
12.8146463987
 20
7.7359440536
 30
0.0
 10
12.8102174102
 20
7.7486152651
 30
0.0
 10
12.8059765902
 20
7.7621283671
 30
0.0
 10
12.8019309913
 20
7.7764610552
 30
0.0
 10
12.7980873532
 20
7.7915898425
 30
0.0
 10
12.7944521096
 20
7.807489793
 30
0.0
 10
12.7910313627
 20
7.8241346675
 30
0.0
 10
12.7878308478
 20
7.841496938
 30
0.0
 10
12.7848559288
 20
7.8595478531
 30
0.0
 10
12.7821116005
 20
7.8782575002
 30
0.0
 10
12.7796024783
 20
7.8975948573
 30
0.0
 10
12.777332773
 20
7.9175278392
 30
0.0
 10
12.7753062876
 20
7.9380233555
 30
0.0
 10
12.773526425
 20
7.9590473768
 30
0.0
 10
12.771996182
 20
7.9805649898
 30
0.0
 10
12.7707181272
 20
8.0025404534
 30
0.0
 10
12.769694408
 20
8.0249372478
 30
0.0
 10
12.7689267221
 20
8.0477181911
 30
0.0
 10
12.7682420986
 20
8.0787485128
 30
0.0
 10
12.7680440082
 20
8.1182161917
 30
0.0
 10
12.7688375311
 20
8.1662007461
 30
0.0
 10
12.7706560824
 20
8.2147823297
 30
0.0
 10
12.7734876521
 20
8.2636382015
 30
0.0
 10
12.7773135471
 20
8.3124439867
 30
0.0
 10
12.7821082705
 20
8.3608756539
 30
0.0
 10
12.7878399133
 20
8.4086114654
 30
0.0
 10
12.7933981483
 20
8.4477816403
 30
0.0
 10
12.7982930747
 20
8.4785246138
 30
0.0
 10
12.8021506517
 20
8.5010724453
 30
0.0
 10
12.8062103209
 20
8.5232130397
 30
0.0
 10
12.8104653489
 20
8.5449096362
 30
0.0
 10
12.8149086402
 20
8.5661261822
 30
0.0
 10
12.8195327798
 20
8.5868274432
 30
0.0
 10
12.8243300545
 20
8.6069790436
 30
0.0
 10
12.8292924661
 20
8.626547523
 30
0.0
 10
12.834411742
 20
8.6455004007
 30
0.0
 10
12.8396793315
 20
8.6638062383
 30
0.0
 10
12.8450864429
 20
8.6814346855
 30
0.0
 10
12.8506240556
 20
8.698356527
 30
0.0
 10
12.8562829374
 20
8.7145437446
 30
0.0
 10
12.862053639
 20
8.7299695776
 30
0.0
 10
12.8679265405
 20
8.7446085689
 30
0.0
 10
12.8738918645
 20
8.758436582
 30
0.0
 10
12.8799397208
 20
8.7714309537
 30
0.0
 10
12.8860600583
 20
8.7835702375
 30
0.0
 10
12.8912876373
 20
8.7930948371
 30
0.0
 10
12.8955054572
 20
8.8002618964
 30
0.0
 10
12.8986332346
 20
8.8053305085
 30
0.0
 10
12.9017715557
 20
8.8101709814
 30
0.0
 10
12.9049191064
 20
8.8147813446
 30
0.0
 10
12.9080745963
 20
8.8191596955
 30
0.0
 10
12.9112367852
 20
8.8233042437
 30
0.0
 10
12.9144043883
 20
8.827213352
 30
0.0
 10
12.917576199
 20
8.8308853995
 30
0.0
 10
12.9207507459
 20
8.8343187334
 30
0.0
 10
12.9229080961
 20
8.8364877922
 30
0.0
 10
12.9239872468
 20
8.8375301718
 30
0.0
  0
SPLINE
  5
389
100
AcDbEntity
  8
0
100
AcDbSpline
 62
7
  6
CONTINUOUS
 70
0
 71
3
 72
23
 73
19
 74
0
 42
0.0000001
 43
0.0000001
 44
0.0000000001
 40
0.0
 40
0.0
 40
0.0
 40
0.0
 40
0.063777379
 40
0.1273447372
 40
0.1907019931
 40
0.2538561345
 40
0.3168131769
 40
0.3795820929
 40
0.4421733849
 40
0.5045993366
 40
0.5668738654
 40
0.6290123812
 40
0.6910316548
 40
0.7529496517
 40
0.8147853612
 40
0.8765586089
 40
0.9382898579
 40
1.0
 40
1.0
 40
1.0
 40
1.0
 10
11.7411513078
 20
7.4507731768
 30
0.0
 10
11.7411513078
 20
7.4575618312
 30
0.0
 10
11.7414762278
 20
7.4711190856
 30
0.0
 10
11.7429428137
 20
7.4913725192
 30
0.0
 10
11.7453846483
 20
7.5114653727
 30
0.0
 10
11.7487959561
 20
7.5313505596
 30
0.0
 10
11.7531690568
 20
7.5509825512
 30
0.0
 10
11.7584938603
 20
7.5703159871
 30
0.0
 10
11.7647581642
 20
7.5893063173
 30
0.0
 10
11.7719475509
 20
7.6079097478
 30
0.0
 10
11.780045479
 20
7.6260833777
 30
0.0
 10
11.7890333124
 20
7.6437852901
 30
0.0
 10
11.7988903563
 20
7.660974647
 30
0.0
 10
11.8095939243
 20
7.6776117956
 30
0.0
 10
11.8211193145
 20
7.6936583173
 30
0.0
 10
11.8334400814
 20
7.7090773267
 30
0.0
 10
11.8465273319
 20
7.7238327674
 30
0.0
 10
11.8557447638
 20
7.7332063958
 30
0.0
 10
11.86046926
 20
7.7377699244
 30
0.0
  0
SPLINE
  5
38A
100
AcDbEntity
  8
0
100
AcDbSpline
 62
7
  6
CONTINUOUS
 70
0
 71
3
 72
62
 73
58
 74
0
 42
0.0000001
 43
0.0000001
 44
0.0000000001
 40
0.0
 40
0.0
 40
0.0
 40
0.0
 40
0.0155852136
 40
0.0311184428
 40
0.046598836
 40
0.0620286601
 40
0.0774094361
 40
0.0927434397
 40
0.1080334652
 40
0.1232826936
 40
0.1384947494
 40
0.1536736418
 40
0.1688237258
 40
0.1839496577
 40
0.1990563489
 40
0.2141489177
 40
0.2292326329
 40
0.2443128555
 40
0.259394984
 40
0.2744843987
 40
0.2895864018
 40
0.3047061596
 40
0.3198486488
 40
0.3350186082
 40
0.350220487
 40
0.3654583977
 40
0.3807360779
 40
0.3960568575
 40
0.4114236251
 40
0.4268387991
 40
0.4423043124
 40
0.4578215997
 40
0.4733915842
 40
0.4890146711
 40
0.5046907556
 40
0.5204192283
 40
0.5361989812
 40
0.5520284236
 40
0.5679055065
 40
0.5838277438
 40
0.6157869302
 40
0.6478872654
 40
0.6800960991
 40
0.7123769587
 40
0.7446908504
 40
0.7769976352
 40
0.8092574168
 40
0.8414319401
 40
0.8734859356
 40
0.889462235
 40
0.9053972109
 40
0.9212878296
 40
0.9371315206
 40
0.9529260956
 40
0.9686695633
 40
0.9843616592
 40
1.0
 40
1.0
 40
1.0
 40
1.0
 10
12.4262701572
 20
7.4075472067
 30
0.0
 10
12.4262701572
 20
7.4033665432
 30
0.0
 10
12.4260655325
 20
7.3950176795
 30
0.0
 10
12.4251420103
 20
7.3825470209
 30
0.0
 10
12.4236043809
 20
7.370178746
 30
0.0
 10
12.4214565196
 20
7.3579432763
 30
0.0
 10
12.4187034334
 20
7.3458698229
 30
0.0
 10
12.4153517893
 20
7.3339875709
 30
0.0
 10
12.4114096516
 20
7.3223251476
 30
0.0
 10
12.4068864537
 20
7.3109106843
 30
0.0
 10
12.4017930794
 20
7.2997717142
 30
0.0
 10
12.3961418161
 20
7.2889350896
 30
0.0
 10
12.3899462674
 20
7.2784269498
 30
0.0
 10
12.3832213256
 20
7.2682726651
 30
0.0
 10
12.3759832121
 20
7.2584967257
 30
0.0
 10
12.3682493928
 20
7.2491227018
 30
0.0
 10
12.360038506
 20
7.2401732125
 30
0.0
 10
12.3513703265
 20
7.2316698741
 30
0.0
 10
12.3422657872
 20
7.2236331754
 30
0.0
 10
12.3327468583
 20
7.2160824867
 30
0.0
 10
12.3228364909
 20
7.209036028
 30
0.0
 10
12.3125585806
 20
7.2025108085
 30
0.0
 10
12.3019379454
 20
7.1965225207
 30
0.0
 10
12.2910002069
 20
7.1910855837
 30
0.0
 10
12.2797717358
 20
7.1862131145
 30
0.0
 10
12.2682796145
 20
7.1819168476
 30
0.0
 10
12.2565515713
 20
7.1782070836
 30
0.0
 10
12.2446158833
 20
7.1750927386
 30
0.0
 10
12.2325013185
 20
7.172581326
 30
0.0
 10
12.2202370852
 20
7.1706788566
 30
0.0
 10
12.2078527463
 20
7.1693898584
 30
0.0
 10
12.195378142
 20
7.1687174133
 30
0.0
 10
12.1828433277
 20
7.1686631476
 30
0.0
 10
12.1702785032
 20
7.1692271316
 30
0.0
 10
12.1577139295
 20
7.1704079619
 30
0.0
 10
12.1451798718
 20
7.1722027784
 30
0.0
 10
12.1327064959
 20
7.1746072707
 30
0.0
 10
12.1203239157
 20
7.177615544
 30
0.0
 10
12.1080616155
 20
7.1812204792
 30
0.0
 10
12.091894621
 20
7.1868167083
 30
0.0
 10
12.0721347847
 20
7.195262315
 30
0.0
 10
12.0494050514
 20
7.2075945257
 30
0.0
 10
12.0278383933
 20
7.2220207407
 30
0.0
 10
12.0076431288
 20
7.2384016543
 30
0.0
 10
11.9890126345
 20
7.2565800581
 30
0.0
 10
11.9721258544
 20
7.2763812697
 30
0.0
 10
11.9571447874
 20
7.2976156572
 30
0.0
 10
11.9442139864
 20
7.3200780849
 30
0.0
 10
11.9352383036
 20
7.3396683354
 30
0.0
 10
11.9292011984
 20
7.3557351227
 30
0.0
 10
11.9252581411
 20
7.3679416712
 30
0.0
 10
11.9219053619
 20
7.3802862623
 30
0.0
 10
11.9191508072
 20
7.3927395159
 30
0.0
 10
11.9170012382
 20
7.4052712826
 30
0.0
 10
11.9154617094
 20
7.4178516936
 30
0.0
 10
11.9145361575
 20
7.4304498251
 30
0.0
 10
11.914329439
 20
7.4388555014
 30
0.0
 10
11.914329439
 20
7.4430504161
 30
0.0
  0
SPLINE
  5
38B
100
AcDbEntity
  8
0
100
AcDbSpline
 62
7
  6
CONTINUOUS
 70
0
 71
3
 72
81
 73
77
 74
0
 42
0.0000001
 43
0.0000001
 44
0.0000000001
 40
0.0
 40
0.0
 40
0.0
 40
0.0
 40
0.0039801431
 40
0.0081240931
 40
0.0124360013
 40
0.0169193922
 40
0.021577261
 40
0.0264119999
 40
0.0314252802
 40
0.0366182702
 40
0.0419916862
 40
0.047545808
 40
0.0591950211
 40
0.0715620541
 40
0.0846377536
 40
0.0984090933
 40
0.1128597022
 40
0.1279702741
 40
0.1437189104
 40
0.1600814114
 40
0.1770315069
 40
0.1945410496
 40
0.2125801745
 40
0.2311174668
 40
0.2501201081
 40
0.269554004
 40
0.2893838995
 40
0.3095734898
 40
0.3300855437
 40
0.3508820118
 40
0.3719241296
 40
0.4145865037
 40
0.4577528935
 40
0.5010977816
 40
0.5442939046
 40
0.5870154516
 40
0.6080980225
 40
0.6289420667
 40
0.6495086979
 40
0.669759723
 40
0.6896577522
 40
0.7091663134
 40
0.7282499547
 40
0.7468743561
 40
0.7650064487
 40
0.7826145565
 40
0.7996685343
 40
0.8161399084
 40
0.8320020436
 40
0.8472303388
 40
0.8618024703
 40
0.8756986479
 40
0.888901932
 40
0.9013986383
 40
0.913178861
 40
0.9242371516
 40
0.9294957034
 40
0.9345742191
 40
0.9394737314
 40
0.9441957399
 40
0.9487422908
 40
0.9531160988
 40
0.9573205224
 40
0.9613597593
 40
0.9652388776
 40
0.9689639254
 40
0.9725421104
 40
0.9759818267
 40
0.9792928558
 40
0.982486429
 40
0.9855752896
 40
0.9885737732
 40
0.9914977037
 40
0.9943643137
 40
0.9971920004
 40
1.0
 40
1.0
 40
1.0
 40
1.0
 10
11.2082479165
 20
10.0525078642
 30
0.0
 10
11.2091886725
 20
10.0534165648
 30
0.0
 10
11.2111516276
 20
10.0552275496
 30
0.0
 10
11.2142682109
 20
10.0578726465
 30
0.0
 10
11.2176136663
 20
10.0604988008
 30
0.0
 10
11.2211861574
 20
10.0631045618
 30
0.0
 10
11.2249839067
 20
10.0656887416
 30
0.0
 10
11.2290050839
 20
10.0682500579
 30
0.0
 10
11.2332476767
 20
10.070787311
 30
0.0
 10
11.2377095718
 20
10.0732991995
 30
0.0
 10
11.2423885425
 20
10.0757844797
 30
0.0
 10
11.2490192481
 20
10.0791140931
 30
0.0
 10
11.2578435443
 20
10.0831905951
 30
0.0
 10
11.269096385
 20
10.0878820725
 30
0.0
 10
11.2811529091
 20
10.0924385151
 30
0.0
 10
11.2939889037
 20
10.0968507044
 30
0.0
 10
11.3075787684
 20
10.1011096923
 30
0.0
 10
11.3218952239
 20
10.1052068227
 30
0.0
 10
11.3369094881
 20
10.1091337623
 30
0.0
 10
11.3525913238
 20
10.1128825133
 30
0.0
 10
11.368909119
 20
10.1164454378
 30
0.0
 10
11.3858299486
 20
10.1198152715
 30
0.0
 10
11.4033196421
 20
10.1229851555
 30
0.0
 10
11.4213428615
 20
10.1259486368
 30
0.0
 10
11.439863181
 20
10.1286996817
 30
0.0
 10
11.4588431619
 20
10.131232687
 30
0.0
 10
11.4782444248
 20
10.1335424935
 30
0.0
 10
11.4980277303
 20
10.1356244089
 30
0.0
 10
11.5181530506
 20
10.1374741925
 30
0.0
 10
11.5385797074
 20
10.1390881075
 30
0.0
 10
11.5662880036
 20
10.140929378
 30
0.0
 10
11.6013713724
 20
10.1426133161
 30
0.0
 10
11.6438117799
 20
10.1436459494
 30
0.0
 10
11.6864402633
 20
10.1436909121
 30
0.0
 10
11.7289119725
 20
10.1427478618
 30
0.0
 10
11.764041368
 20
10.1411382524
 30
0.0
 10
11.7918019906
 20
10.1393559762
 30
0.0
 10
11.8122790177
 20
10.1377853284
 30
0.0
 10
11.8324621808
 20
10.1359781788
 30
0.0
 10
11.8523106806
 20
10.133938174
 30
0.0
 10
11.8717843571
 20
10.1316694678
 30
0.0
 10
11.8908438282
 20
10.1291766801
 30
0.0
 10
11.9094505536
 20
10.1264648853
 30
0.0
 10
11.9275669135
 20
10.1235396027
 30
0.0
 10
11.9451562875
 20
10.1204067825
 30
0.0
 10
11.962183137
 20
10.1170728054
 30
0.0
 10
11.9786130807
 20
10.1135444669
 30
0.0
 10
11.9944129616
 20
10.1098289549
 30
0.0
 10
12.0095509156
 20
10.1059338373
 30
0.0
 10
12.0239964477
 20
10.1018670404
 30
0.0
 10
12.0377205075
 20
10.0976368477
 30
0.0
 10
12.0506955645
 20
10.0932518617
 30
0.0
 10
12.0628956359
 20
10.0887209829
 30
0.0
 10
12.0742964741
 20
10.0840533524
 30
0.0
 10
12.0848752384
 20
10.0792583823
 30
0.0
 10
12.0931216756
 20
10.0750974169
 30
0.0
 10
12.0992802179
 20
10.0717039056
 30
0.0
 10
12.1036028233
 20
10.0691757094
 30
0.0
 10
12.1077047718
 20
10.0666229913
 30
0.0
 10
12.1115840257
 20
10.0640469755
 30
0.0
 10
12.1152386339
 20
10.0614489039
 30
0.0
 10
12.1186668123
 20
10.0588300926
 30
0.0
 10
12.1218668216
 20
10.0561917479
 30
0.0
 10
12.1248370872
 20
10.0535351584
 30
0.0
 10
12.1275761279
 20
10.050861575
 30
0.0
 10
12.1300825158
 20
10.0481721939
 30
0.0
 10
12.1323550099
 20
10.0454682991
 30
0.0
 10
12.1343923443
 20
10.0427510582
 30
0.0
 10
12.1361933971
 20
10.0400217154
 30
0.0
 10
12.1377571119
 20
10.0372815161
 30
0.0
 10
12.1390823943
 20
10.0345316958
 30
0.0
 10
12.1401683679
 20
10.031773631
 30
0.0
 10
12.1410140799
 20
10.0290087386
 30
0.0
 10
12.1416187773
 20
10.0262385043
 30
0.0
 10
12.141981898
 20
10.0234648783
 30
0.0
 10
12.1420626959
 20
10.0216118733
 30
0.0
 10
12.142062698
 20
10.0206891049
 30
0.0
  0
SPLINE
  5
38C
100
AcDbEntity
  8
0
100
AcDbSpline
 62
7
  6
CONTINUOUS
 70
0
 71
3
 72
18
 73
14
 74
0
 42
0.0000001
 43
0.0000001
 44
0.0000000001
 40
0.0
 40
0.0
 40
0.0
 40
0.0
 40
0.0548626755
 40
0.1099292576
 40
0.1654013202
 40
0.2214755501
 40
0.3361333804
 40
0.4553634196
 40
0.5171048815
 40
0.5804365284
 40
0.7123311193
 40
0.8519577055
 40
1.0
 40
1.0
 40
1.0
 40
1.0
 10
11.1920627243
 20
10.0206887954
 30
0.0
 10
11.1920627228
 20
10.0213596309
 30
0.0
 10
11.1921052913
 20
10.0227041827
 30
0.0
 10
11.1922967058
 20
10.0247188137
 30
0.0
 10
11.1926157199
 20
10.026732323
 30
0.0
 10
11.1932151621
 20
10.0294340054
 30
0.0
 10
11.1942950833
 20
10.0328201459
 30
0.0
 10
11.195774148
 20
10.0361263454
 30
0.0
 10
11.1971973526
 20
10.0387538739
 30
0.0
 10
11.1988269853
 20
10.0414416192
 30
0.0
 10
11.2011932488
 20
10.0447901776
 30
0.0
 10
11.2044922557
 20
10.0487252551
 30
0.0
 10
11.2069459269
 20
10.0512502388
 30
0.0
 10
11.2082479165
 20
10.0525078642
 30
0.0
  0
SPLINE
  5
38D
100
AcDbEntity
  8
0
100
AcDbSpline
 62
7
  6
CONTINUOUS
 70
0
 71
3
 72
15
 73
11
 74
0
 42
0.0000001
 43
0.0000001
 44
0.0000000001
 40
0.0
 40
0.0
 40
0.0
 40
0.0
 40
0.1099022763
 40
0.2228380452
 40
0.3395437069
 40
0.4606789608
 40
0.58682591
 40
0.7184910808
 40
0.856100582
 40
1.0
 40
1.0
 40
1.0
 40
1.0
 10
11.192986633
 20
10.0128982392
 30
0.0
 10
11.1932354275
 20
10.0139291555
 30
0.0
 10
11.1938369388
 20
10.0159971624
 30
0.0
 10
11.1950242062
 20
10.0190549126
 30
0.0
 10
11.1965054237
 20
10.0221024747
 30
0.0
 10
11.1982791916
 20
10.0251376639
 30
0.0
 10
11.2003440531
 20
10.0281589507
 30
0.0
 10
11.2026985319
 20
10.0311647088
 30
0.0
 10
11.205340827
 20
10.0341531276
 30
0.0
 10
11.2072491801
 20
10.036088344
 30
0.0
 10
11.2082479165
 20
10.0370530494
 30
0.0
  0
SPLINE
  5
38E
100
AcDbEntity
  8
0
100
AcDbSpline
 62
7
  6
CONTINUOUS
 70
0
 71
3
 72
50
 73
46
 74
0
 42
0.0000001
 43
0.0000001
 44
0.0000000001
 40
0.0
 40
0.0
 40
0.0
 40
0.0
 40
0.0816054514
 40
0.1627520693
 40
0.2429757364
 40
0.321888317
 40
0.3991461481
 40
0.4744150944
 40
0.5111919549
 40
0.5473302696
 40
0.5827698833
 40
0.6174442249
 40
0.6512687722
 40
0.6841476202
 40
0.7159552653
 40
0.746542036
 40
0.7613189982
 40
0.7757163587
 40
0.7897001107
 40
0.8032367106
 40
0.8162870405
 40
0.8288071567
 40
0.8407538301
 40
0.8520779659
 40
0.8627363866
 40
0.8726897357
 40
0.881917154
 40
0.8904262065
 40
0.8982755819
 40
0.9019942938
 40
0.9056047034
 40
0.9091372163
 40
0.9126271216
 40
0.9161137622
 40
0.9196378531
 40
0.9232393069
 40
0.9269558916
 40
0.9348505225
 40
0.9390849338
 40
0.9435302755
 40
0.9530839067
 40
0.9635451006
 40
0.9748896277
 40
0.9870645876
 40
1.0
 40
1.0
 40
1.0
 40
1.0
 10
9.6926177317
 20
8.2441835011
 30
0.0
 10
9.6904213037
 20
8.2462940908
 30
0.0
 10
9.6860431805
 20
8.2505058892
 30
0.0
 10
9.6795270236
 20
8.2568145399
 30
0.0
 10
9.67311041
 20
8.2630813894
 30
0.0
 10
9.6668273122
 20
8.2692770472
 30
0.0
 10
9.6607029275
 20
8.2753701147
 30
0.0
 10
9.6557097094
 20
8.2803700569
 30
0.0
 10
9.6518032468
 20
8.2842860842
 30
0.0
 10
9.6489452702
 20
8.2871480521
 30
0.0
 10
9.6461376779
 20
8.2899494156
 30
0.0
 10
9.6433825327
 20
8.2926810493
 30
0.0
 10
9.6406810601
 20
8.2953309952
 30
0.0
 10
9.6380361453
 20
8.2978856806
 30
0.0
 10
9.635450138
 20
8.300327107
 30
0.0
 10
9.6333242834
 20
8.3022712924
 30
0.0
 10
9.6316523765
 20
8.3037481573
 30
0.0
 10
9.6304306985
 20
8.3047983748
 30
0.0
 10
9.6292276587
 20
8.3057989661
 30
0.0
 10
9.62804473
 20
8.3067447094
 30
0.0
 10
9.6268835082
 20
8.3076295562
 30
0.0
 10
9.6257457524
 20
8.3084464515
 30
0.0
 10
9.6246340379
 20
8.3091879473
 30
0.0
 10
9.6235508906
 20
8.3098452089
 30
0.0
 10
9.6224997311
 20
8.3104089511
 30
0.0
 10
9.6214841535
 20
8.3108688483
 30
0.0
 10
9.6205081424
 20
8.3112139249
 30
0.0
 10
9.6195761747
 20
8.3114327401
 30
0.0
 10
9.6188262544
 20
8.3115005106
 30
0.0
 10
9.6182594732
 20
8.3114754977
 30
0.0
 10
9.6178573891
 20
8.311418237
 30
0.0
 10
9.6174717193
 20
8.3113213084
 30
0.0
 10
9.6171033905
 20
8.3111839236
 30
0.0
 10
9.6167535016
 20
8.3110053306
 30
0.0
 10
9.6164228939
 20
8.3107855979
 30
0.0
 10
9.6161122407
 20
8.3105249159
 30
0.0
 10
9.6157179338
 20
8.3101150503
 30
0.0
 10
9.6153742194
 20
8.3096289824
 30
0.0
 10
9.6150795243
 20
8.3090846415
 30
0.0
 10
9.6147995133
 20
8.3084636666
 30
0.0
 10
9.614507425
 20
8.3075962289
 30
0.0
 10
9.6142478923
 20
8.3064532892
 30
0.0
 10
9.614067734
 20
8.3051965809
 30
0.0
 10
9.613963244
 20
8.3038390669
 30
0.0
 10
9.6139418848
 20
8.302901559
 30
0.0
 10
9.6139415582
 20
8.3024187127
 30
0.0
  0
SPLINE
  5
38F
100
AcDbEntity
  8
0
100
AcDbSpline
 62
7
  6
CONTINUOUS
 70
0
 71
3
 72
23
 73
19
 74
0
 42
0.0000001
 43
0.0000001
 44
0.0000000001
 40
0.0
 40
0.0
 40
0.0
 40
0.0
 40
0.0749620871
 40
0.1455679182
 40
0.2121591966
 40
0.2751622103
 40
0.3350971303
 40
0.3925821595
 40
0.4483283727
 40
0.5031227165
 40
0.5577973738
 40
0.6131906295
 40
0.6701061447
 40
0.7292781019
 40
0.7913517931
 40
0.856877393
 40
0.9263092607
 40
1.0
 40
1.0
 40
1.0
 40
1.0
 10
11.3443123142
 20
9.9820021009
 30
0.0
 10
11.3433449731
 20
9.9829023195
 30
0.0
 10
11.3415201516
 20
9.9847096608
 30
0.0
 10
11.3390578837
 20
9.9875293405
 30
0.0
 10
11.3369582435
 20
9.9903713739
 30
0.0
 10
11.3352243128
 20
9.9932332541
 30
0.0
 10
11.3338590394
 20
9.9961124868
 30
0.0
 10
11.332865423
 20
9.9990060931
 30
0.0
 10
11.3322463369
 20
10.0019103773
 30
0.0
 10
11.3320038929
 20
10.0048207188
 30
0.0
 10
11.3321391323
 20
10.0077318347
 30
0.0
 10
11.3326514193
 20
10.010638353
 30
0.0
 10
11.3335389882
 20
10.0135353979
 30
0.0
 10
11.3347989901
 20
10.0164190396
 30
0.0
 10
11.3364285385
 20
10.0192861033
 30
0.0
 10
11.338424656
 20
10.0221340966
 30
0.0
 10
11.3407842774
 20
10.0249602906
 30
0.0
 10
11.3425432244
 20
10.0267723633
 30
0.0
 10
11.3434775402
 20
10.0276748431
 30
0.0
  0
SPLINE
  5
390
100
AcDbEntity
  8
0
100
AcDbSpline
 62
7
  6
CONTINUOUS
 70
0
 71
3
 72
16
 73
12
 74
0
 42
0.0000001
 43
0.0000001
 44
0.0000000001
 40
0.0
 40
0.0
 40
0.0
 40
0.0
 40
0.1098864251
 40
0.2213925505
 40
0.3360632443
 40
0.4553048854
 40
0.5170524264
 40
0.5803907344
 40
0.7123015689
 40
0.8519456354
 40
1.0
 40
1.0
 40
1.0
 40
1.0
 10
11.3670627112
 20
9.9714267293
 30
0.0
 10
11.3670627104
 20
9.9722752503
 30
0.0
 10
11.3671717074
 20
9.9739867112
 30
0.0
 10
11.3676602524
 20
9.9765416715
 30
0.0
 10
11.3684726796
 20
9.9790884657
 30
0.0
 10
11.369406783
 20
9.9811767315
 30
0.0
 10
11.3703056585
 20
9.9828361751
 30
0.0
 10
11.3713349007
 20
9.984533707
 30
0.0
 10
11.3728293998
 20
9.986648603
 30
0.0
 10
11.3749129986
 20
9.989133895
 30
0.0
 10
11.3764626611
 20
9.9907286192
 30
0.0
 10
11.3772849461
 20
9.9915228856
 30
0.0
  0
SPLINE
  5
391
100
AcDbEntity
  8
0
100
AcDbSpline
 62
7
  6
CONTINUOUS
 70
0
 71
3
 72
71
 73
67
 74
0
 42
0.0000001
 43
0.0000001
 44
0.0000000001
 40
0.0
 40
0.0
 40
0.0
 40
0.0
 40
0.0155840917
 40
0.0311160094
 40
0.0465952358
 40
0.0620238788
 40
0.0774034546
 40
0.0927362798
 40
0.1080251228
 40
0.1232731729
 40
0.1384840557
 40
0.1536617763
 40
0.1688106891
 40
0.1839354524
 40
0.1990409783
 40
0.2141323825
 40
0.2292149318
 40
0.2442939889
 40
0.2593749537
 40
0.2744632043
 40
0.2895640406
 40
0.3046826296
 40
0.31982395
 40
0.3349927393
 40
0.3501934439
 40
0.3654301767
 40
0.3807066774
 40
0.3960262751
 40
0.4113918558
 40
0.4268058386
 40
0.4422701579
 40
0.4577862475
 40
0.4733550294
 40
0.4889769098
 40
0.5046517841
 40
0.5203790419
 40
0.5361575761
 40
0.5519857968
 40
0.5678616538
 40
0.5837826606
 40
0.5997459179
 40
0.6157481418
 40
0.6317856993
 40
0.6478546438
 40
0.6639507501
 40
0.6800695513
 40
0.6962063816
 40
0.7123564192
 40
0.7285147269
 40
0.7446762936
 40
0.7608360801
 40
0.7769890643
 40
0.7931302834
 40
0.8092548754
 40
0.8253581235
 40
0.8414355
 40
0.8574827056
 40
0.873495706
 40
0.8894707699
 40
0.9054045147
 40
0.9212939128
 40
0.9371363668
 40
0.9529297321
 40
0.9686720133
 40
0.9843627856
 40
1.0
 40
1.0
 40
1.0
 40
1.0
 10
9.9583295248
 20
8.1814372346
 30
0.0
 10
9.9583295248
 20
8.1761522172
 30
0.0
 10
9.95807086
 20
8.1655980031
 30
0.0
 10
9.9569033717
 20
8.14983321
 30
0.0
 10
9.9549595782
 20
8.1341978685
 30
0.0
 10
9.9522443617
 20
8.118730378
 30
0.0
 10
9.9487640524
 20
8.1034677076
 30
0.0
 10
9.9445270649
 20
8.088446751
 30
0.0
 10
9.9395435899
 20
8.0737036927
 30
0.0
 10
9.9338255968
 20
8.0592740842
 30
0.0
 10
9.9273868215
 20
8.0451927353
 30
0.0
 10
9.9202427567
 20
8.031493613
 30
0.0
 10
9.9124106286
 20
8.0182097505
 30
0.0
 10
9.9039093042
 20
8.0053731915
 30
0.0
 10
9.8947592548
 20
7.9930149135
 30
0.0
 10
9.8849825223
 20
7.9811647455
 30
0.0
 10
9.8746027039
 20
7.9698512579
 30
0.0
 10
9.8636448346
 20
7.9591017378
 30
0.0
 10
9.8521353375
 20
7.9489421191
 30
0.0
 10
9.8401019586
 20
7.9393969272
 30
0.0
 10
9.8275737457
 20
7.9304891589
 30
0.0
 10
9.8145809298
 20
7.9222402762
 30
0.0
 10
9.8011548526
 20
7.9146701591
 30
0.0
 10
9.7873278892
 20
7.9077970698
 30
0.0
 10
9.7731334008
 20
7.9016375487
 30
0.0
 10
9.7586056327
 20
7.8962064
 30
0.0
 10
9.743779619
 20
7.8915166862
 30
0.0
 10
9.7286911027
 20
7.8875797007
 30
0.0
 10
9.7133764628
 20
7.884404904
 30
0.0
 10
9.6978726232
 20
7.8819998824
 30
0.0
 10
9.6822169496
 20
7.88037039
 30
0.0
 10
9.6664471659
 20
7.8795203278
 30
0.0
 10
9.6506012688
 20
7.8794517265
 30
0.0
 10
9.6347174334
 20
7.8801646828
 30
0.0
 10
9.6188339173
 20
7.8816574346
 30
0.0
 10
9.602988972
 20
7.8839263572
 30
0.0
 10
9.5872207582
 20
7.88696598
 30
0.0
 10
9.5715672402
 20
7.8907689282
 30
0.0
 10
9.5560661006
 20
7.8953260007
 30
0.0
 10
9.5407546542
 20
7.9006261995
 30
0.0
 10
9.5256697669
 20
7.9066567637
 30
0.0
 10
9.5108477478
 20
7.9134031443
 30
0.0
 10
9.4963242626
 20
7.9208490593
 30
0.0
 10
9.4821342646
 20
7.928976567
 30
0.0
 10
9.4683119148
 20
7.9377661049
 30
0.0
 10
9.4548904874
 20
7.9471965103
 30
0.0
 10
9.4419022686
 20
7.9572450495
 30
0.0
 10
9.429378515
 20
7.9678875258
 30
0.0
 10
9.4173493757
 20
7.9790983262
 30
0.0
 10
9.4058438221
 20
7.9908504791
 30
0.0
 10
9.3948895304
 20
8.0031156747
 30
0.0
 10
9.3845128638
 20
8.0158643866
 30
0.0
 10
9.3747388074
 20
8.0290659344
 30
0.0
 10
9.3655909191
 20
8.0426885607
 30
0.0
 10
9.3570912146
 20
8.0566994672
 30
0.0
 10
9.349260152
 20
8.0710649256
 30
0.0
 10
9.3421165975
 20
8.0857503638
 30
0.0
 10
9.3356777887
 20
8.1007204471
 30
0.0
 10
9.3299592433
 20
8.1159391415
 30
0.0
 10
9.3249747338
 20
8.1313698064
 30
0.0
 10
9.3207362774
 20
8.1469752965
 30
0.0
 10
9.3172541205
 20
8.1627180736
 30
0.0
 10
9.3145367427
 20
8.1785601327
 30
0.0
 10
9.3125905489
 20
8.1944636451
 30
0.0
 10
9.3114204946
 20
8.2103895838
 30
0.0
 10
9.3111591829
 20
8.2210156174
 30
0.0
 10
9.3111591829
 20
8.2263186503
 30
0.0
  0
SPLINE
  5
392
100
AcDbEntity
  8
0
100
AcDbSpline
 62
7
  6
CONTINUOUS
 70
0
 71
3
 72
79
 73
75
 74
0
 42
0.0000001
 43
0.0000001
 44
0.0000000001
 40
0.0
 40
0.0
 40
0.0
 40
0.0
 40
0.0028692053
 40
0.0058066606
 40
0.0088276212
 40
0.011945974
 40
0.0151741817
 40
0.0185232461
 40
0.0220028404
 40
0.0256213298
 40
0.0293858912
 40
0.0333026729
 40
0.0373768039
 40
0.041612587
 40
0.0460135621
 40
0.05058254
 40
0.0553217805
 40
0.0602329567
 40
0.0653172557
 40
0.0705754708
 40
0.0816140531
 40
0.0933483151
 40
0.1057723512
 40
0.1188762491
 40
0.1326466957
 40
0.1470674276
 40
0.162119568
 40
0.177781905
 40
0.1940311605
 40
0.2108421923
 40
0.2281881522
 40
0.2460406261
 40
0.2643697972
 40
0.2831445724
 40
0.3023326873
 40
0.3219008035
 40
0.3418146332
 40
0.3620390411
 40
0.3825381334
 40
0.424212797
 40
0.4665406595
 40
0.5092167977
 40
0.5519330358
 40
0.59438082
 40
0.6362541097
 40
0.6568814576
 40
0.6772530372
 40
0.6973325964
 40
0.717084583
 40
0.7364742541
 40
0.7554677785
 40
0.7740323243
 40
0.7921361614
 40
0.8097487897
 40
0.8268410676
 40
0.8433853216
 40
0.8593554862
 40
0.8747272824
 40
0.8894784183
 40
0.903588781
 40
0.917040692
 40
0.929819242
 40
0.9419127131
 40
0.9533130436
 40
0.9587522411
 40
0.9640171875
 40
0.9691082055
 40
0.9740260535
 40
0.9787718799
 40
0.9833473499
 40
0.9877547858
 40
0.9919970469
 40
0.9960774729
 40
1.0
 40
1.0
 40
1.0
 40
1.0
 10
12.1411238023
 20
10.0129600802
 30
0.0
 10
12.1409026749
 20
10.0138689916
 30
0.0
 10
12.1403799835
 20
10.0156909437
 30
0.0
 10
12.1393737798
 20
10.0183900712
 30
0.0
 10
12.1381383501
 20
10.021081877
 30
0.0
 10
12.1366746015
 20
10.0237648429
 30
0.0
 10
12.1349834125
 20
10.0264377988
 30
0.0
 10
12.1330658461
 20
10.0290996055
 30
0.0
 10
12.1309228852
 20
10.031749074
 30
0.0
 10
12.1285556628
 20
10.0343850701
 30
0.0
 10
12.1259653823
 20
10.0370064712
 30
0.0
 10
12.1231532602
 20
10.0396120639
 30
0.0
 10
12.1201206972
 20
10.0422007335
 30
0.0
 10
12.1168691241
 20
10.0447712846
 30
0.0
 10
12.1134000781
 20
10.0473225142
 30
0.0
 10
12.1097152413
 20
10.0498532876
 30
0.0
 10
12.1058163377
 20
10.0523623703
 30
0.0
 10
12.1017052436
 20
10.0548485956
 30
0.0
 10
12.0973839207
 20
10.0573108281
 30
0.0
 10
12.0912447558
 20
10.0606137628
 30
0.0
 10
12.0830491954
 20
10.064664202
 30
0.0
 10
12.0725649154
 20
10.0693346831
 30
0.0
 10
12.0612972532
 20
10.0738818747
 30
0.0
 10
12.0492678369
 20
10.0782969982
 30
0.0
 10
12.0364995705
 20
10.0825715211
 30
0.0
 10
12.0230169305
 20
10.0866971344
 30
0.0
 10
12.0088458135
 20
10.0906658094
 30
0.0
 10
11.9940135068
 20
10.0944698282
 30
0.0
 10
11.9785486044
 20
10.0981017796
 30
0.0
 10
11.9624809445
 20
10.1015545817
 30
0.0
 10
11.945841556
 20
10.1048215001
 30
0.0
 10
11.9286625984
 20
10.1078961797
 30
0.0
 10
11.9109772863
 20
10.1107726318
 30
0.0
 10
11.892819819
 20
10.1134452509
 30
0.0
 10
11.8742253207
 20
10.1159088252
 30
0.0
 10
11.8552297711
 20
10.1181585694
 30
0.0
 10
11.8358699416
 20
10.1201900996
 30
0.0
 10
11.816183269
 20
10.1219994862
 30
0.0
 10
11.7894031149
 20
10.1241225808
 30
0.0
 10
11.7553924805
 20
10.1261896176
 30
0.0
 10
11.7141175195
 20
10.1277272616
 30
0.0
 10
11.6724785701
 20
10.1283232067
 30
0.0
 10
11.6307977429
 20
10.1279728367
 30
0.0
 10
11.5893974686
 20
10.1266788325
 30
0.0
 10
11.555229339
 20
10.1248136144
 30
0.0
 10
11.5282820474
 20
10.1228502819
 30
0.0
 10
11.508440648
 20
10.1211576906
 30
0.0
 10
11.4889063757
 20
10.1192410738
 30
0.0
 10
11.4697170122
 20
10.1171041287
 30
0.0
 10
11.4509097045
 20
10.1147510211
 30
0.0
 10
11.4325208409
 20
10.1121863372
 30
0.0
 10
11.4145859991
 20
10.1094150708
 30
0.0
 10
11.3971398741
 20
10.1064426117
 30
0.0
 10
11.3802162022
 20
10.1032747478
 30
0.0
 10
11.363847691
 20
10.0999176589
 30
0.0
 10
11.3480659614
 20
10.0963778871
 30
0.0
 10
11.3329014875
 20
10.0926623243
 30
0.0
 10
11.3183835213
 20
10.0887782053
 30
0.0
 10
11.304540027
 20
10.0847331062
 30
0.0
 10
11.2913976222
 20
10.080534901
 30
0.0
 10
11.2789815504
 20
10.0761917471
 30
0.0
 10
11.2673155105
 20
10.0717120517
 30
0.0
 10
11.2564219186
 20
10.0671044929
 30
0.0
 10
11.2478756749
 20
10.0631054493
 30
0.0
 10
11.2414501144
 20
10.0598414239
 30
0.0
 10
11.2369126123
 20
10.0574054234
 30
0.0
 10
11.2325832106
 20
10.0549441594
 30
0.0
 10
11.228463962
 20
10.052458834
 30
0.0
 10
11.2245568424
 20
10.049950633
 30
0.0
 10
11.220863712
 20
10.0474206915
 30
0.0
 10
11.2173862691
 20
10.0448702077
 30
0.0
 10
11.2141261876
 20
10.0423002913
 30
0.0
 10
11.2110851802
 20
10.0397123287
 30
0.0
 10
11.2091677205
 20
10.0379415118
 30
0.0
 10
11.2082479165
 20
10.0370530494
 30
0.0
  0
SPLINE
  5
393
100
AcDbEntity
  8
0
100
AcDbSpline
 62
7
  6
CONTINUOUS
 70
0
 71
3
 72
65
 73
61
 74
0
 42
0.0000001
 43
0.0000001
 44
0.0000000001
 40
0.0
 40
0.0
 40
0.0
 40
0.0
 40
0.002808062
 40
0.0056358099
 40
0.0085024803
 40
0.0114264799
 40
0.014425022
 40
0.0175139465
 40
0.0240152791
 40
0.0310306145
 40
0.0386327962
 40
0.0468749629
 40
0.0557941964
 40
0.0654148493
 40
0.0757512811
 40
0.0868098227
 40
0.0985902931
 40
0.1110872549
 40
0.1242908308
 40
0.1381873052
 40
0.1527597463
 40
0.1679883874
 40
0.1838508657
 40
0.2003225857
 40
0.2173769478
 40
0.2349854529
 40
0.2531179371
 40
0.2717427503
 40
0.2908268203
 40
0.3103358119
 40
0.3302342873
 40
0.3710519755
 40
0.4129787241
 40
0.4557012297
 40
0.49889833
 40
0.5422441994
 40
0.5854115698
 40
0.6280749086
 40
0.6699136358
 40
0.7106153155
 40
0.7304456655
 40
0.7498799983
 40
0.7688830773
 40
0.7874208021
 40
0.8054603266
 40
0.8229702635
 40
0.8399207613
 40
0.8562836334
 40
0.8720326214
 40
0.8871435448
 40
0.9015944805
 40
0.9153661288
 40
0.9284421412
 40
0.9408094559
 40
0.9524589091
 40
0.9633860069
 40
0.9735916204
 40
0.9830833036
 40
0.991877583
 40
1.0
 40
1.0
 40
1.0
 40
1.0
 10
11.9670627112
 20
9.9714267293
 30
0.0
 10
11.9670627106
 20
9.9720095305
 30
0.0
 10
11.9670116567
 20
9.9731798481
 30
0.0
 10
11.9667823464
 20
9.9749316124
 30
0.0
 10
11.9664004522
 20
9.9766812424
 30
0.0
 10
11.9658663038
 20
9.9784274734
 30
0.0
 10
11.9651804346
 20
9.9801694524
 30
0.0
 10
11.9640452137
 20
9.982524947
 30
0.0
 10
11.9622234055
 20
9.9854632252
 30
0.0
 10
11.9594789909
 20
9.9888917032
 30
0.0
 10
11.9561468554
 20
9.9922790098
 30
0.0
 10
11.9522342971
 20
9.9956200981
 30
0.0
 10
11.9477487592
 20
9.9989102107
 30
0.0
 10
11.9426987185
 20
10.0021437998
 30
0.0
 10
11.9370937164
 20
10.005315022
 30
0.0
 10
11.9309445219
 20
10.00841786
 30
0.0
 10
11.9242631148
 20
10.0114462851
 30
0.0
 10
11.9170626246
 20
10.0143942669
 30
0.0
 10
11.9093573149
 20
10.0172558723
 30
0.0
 10
11.9011625522
 20
10.0200253418
 30
0.0
 10
11.8924947307
 20
10.0226970511
 30
0.0
 10
11.8833712388
 20
10.025265549
 30
0.0
 10
11.8738104316
 20
10.027725628
 30
0.0
 10
11.8638315672
 20
10.0300722786
 30
0.0
 10
11.8534547619
 20
10.032300701
 30
0.0
 10
11.8427009618
 20
10.0344063694
 30
0.0
 10
11.8315918868
 20
10.0363850016
 30
0.0
 10
11.8201499766
 20
10.038232553
 30
0.0
 10
11.8083983637
 20
10.0399452607
 30
0.0
 10
11.7963607899
 20
10.0415196754
 30
0.0
 10
11.7798218029
 20
10.0434464172
 30
0.0
 10
11.7586130938
 20
10.045478058
 30
0.0
 10
11.7326343359
 20
10.0473018801
 30
0.0
 10
11.7061256416
 20
10.048516578
 30
0.0
 10
11.6793013249
 20
10.0491121727
 30
0.0
 10
11.6523780953
 20
10.0490837773
 30
0.0
 10
11.6255735449
 20
10.0484316156
 30
0.0
 10
11.5991042195
 20
10.0471610542
 30
0.0
 10
11.5731841126
 20
10.045282533
 30
0.0
 10
11.5520364944
 20
10.0432058813
 30
0.0
 10
11.5355557404
 20
10.0412438529
 30
0.0
 10
11.5235683647
 20
10.0396440397
 30
0.0
 10
11.511871315
 20
10.0379065444
 30
0.0
 10
11.5004882197
 20
10.0360348772
 30
0.0
 10
11.4894420936
 20
10.0340328381
 30
0.0
 10
11.4787552481
 20
10.0319045191
 30
0.0
 10
11.4684492621
 20
10.0296542597
 30
0.0
 10
11.4585449379
 20
10.0272866241
 30
0.0
 10
11.4490622407
 20
10.024806447
 30
0.0
 10
11.4400202619
 20
10.0222187901
 30
0.0
 10
11.4314371868
 20
10.0195289006
 30
0.0
 10
11.423330231
 20
10.0167422493
 30
0.0
 10
11.4157155984
 20
10.0138645038
 30
0.0
 10
11.408608458
 20
10.0109014582
 30
0.0
 10
11.4020228782
 20
10.0078590519
 30
0.0
 10
11.3959717704
 20
10.0047433147
 30
0.0
 10
11.3904669456
 20
10.001560347
 30
0.0
 10
11.3855187338
 20
9.9983159689
 30
0.0
 10
11.3811370971
 20
9.9950164192
 30
0.0
 10
11.3784974457
 20
9.9926940704
 30
0.0
 10
11.3772849461
 20
9.9915228856
 30
0.0
  0
SPLINE
  5
394
100
AcDbEntity
  8
0
100
AcDbSpline
 62
7
  6
CONTINUOUS
 70
0
 71
3
 72
44
 73
40
 74
0
 42
0.0000001
 43
0.0000001
 44
0.0000000001
 40
0.0
 40
0.0
 40
0.0
 40
0.0
 40
0.0149722236
 40
0.0299475067
 40
0.0449288886
 40
0.0599193736
 40
0.0749219097
 40
0.08993937
 40
0.1049745397
 40
0.1200300961
 40
0.1351085917
 40
0.1502124449
 40
0.1804994096
 40
0.2109128633
 40
0.2414659442
 40
0.2721685685
 40
0.3030272475
 40
0.3340449904
 40
0.3652212956
 40
0.396552213
 40
0.4280304762
 40
0.4596457066
 40
0.4913846713
 40
0.5232315866
 40
0.555168468
 40
0.587175515
 40
0.6192315195
 40
0.6513142962
 40
0.6834011282
 40
0.7154692177
 40
0.7474961397
 40
0.7794602892
 40
0.8113413161
 40
0.8431205468
 40
0.8747813742
 40
0.9063096205
 40
0.9376938957
 40
0.9689255646
 40
1.0
 40
1.0
 40
1.0
 40
1.0
 10
9.9606081455
 20
7.8582322835
 30
0.0
 10
9.9566677245
 20
7.8544261255
 30
0.0
 10
9.9486338477
 20
7.846968833
 30
0.0
 10
9.9361466839
 20
7.8362694479
 30
0.0
 10
9.9232390687
 20
7.8260700363
 30
0.0
 10
9.9099290278
 20
7.816384845
 30
0.0
 10
9.8962347683
 20
7.8072271977
 30
0.0
 10
9.8821751979
 20
7.7986096613
 30
0.0
 10
9.8677696416
 20
7.7905440687
 30
0.0
 10
9.8530379774
 20
7.7830415991
 30
0.0
 10
9.8380002046
 20
7.7761124128
 30
0.0
 10
9.8175536198
 20
7.767643911
 30
0.0
 10
9.7913212356
 20
7.7585375808
 30
0.0
 10
9.7589939245
 20
7.7500507893
 30
0.0
 10
9.7259611787
 20
7.7440384521
 30
0.0
 10
9.6924060997
 20
7.7405338247
 30
0.0
 10
9.6585130045
 20
7.7395556033
 30
0.0
 10
9.6244683877
 20
7.7411087277
 30
0.0
 10
9.5904593629
 20
7.7451842429
 30
0.0
 10
9.5566728035
 20
7.7517593928
 30
0.0
 10
9.5232942635
 20
7.7607976398
 30
0.0
 10
9.4905069989
 20
7.7722490089
 30
0.0
 10
9.4584909922
 20
7.7860503727
 30
0.0
 10
9.4274219352
 20
7.8021256871
 30
0.0
 10
9.3974702937
 20
7.8203864833
 30
0.0
 10
9.3688004228
 20
7.8407324009
 30
0.0
 10
9.3415696378
 20
7.8630516611
 30
0.0
 10
9.3159273334
 20
7.8872216599
 30
0.0
 10
9.2920142423
 20
7.9131097204
 30
0.0
 10
9.2699616625
 20
7.940573782
 30
0.0
 10
9.2498906541
 20
7.9694631043
 30
0.0
 10
9.2319114701
 20
7.9996191671
 30
0.0
 10
9.2161229786
 20
8.0308765312
 30
0.0
 10
9.2026120189
 20
8.063063655
 30
0.0
 10
9.1914529722
 20
8.0960039405
 30
0.0
 10
9.1827074056
 20
8.1295164268
 30
0.0
 10
9.1764237338
 20
8.1634177282
 30
0.0
 10
9.1726366729
 20
8.1975192687
 30
0.0
 10
9.1717884577
 20
8.2203264234
 30
0.0
 10
9.1717884577
 20
8.2316968594
 30
0.0
  0
SPLINE
  5
395
100
AcDbEntity
  8
0
100
AcDbSpline
 62
7
  6
CONTINUOUS
 70
0
 71
3
 72
41
 73
37
 74
0
 42
0.0000001
 43
0.0000001
 44
0.0000000001
 40
0.0
 40
0.0
 40
0.0
 40
0.0
 40
0.0149697206
 40
0.0299435285
 40
0.0449244185
 40
0.0599153453
 40
0.089933004
 40
0.1200244566
 40
0.1502100688
 40
0.180507982
 40
0.2109337124
 40
0.2414998213
 40
0.2722156701
 40
0.303087257
 40
0.3341171314
 40
0.3653043891
 40
0.3966447472
 40
0.4281306836
 40
0.4597516365
 40
0.4914942626
 40
0.5233427431
 40
0.555279127
 40
0.5872837072
 40
0.6193354244
 40
0.6514122904
 40
0.6834918221
 40
0.7155514842
 40
0.747569132
 40
0.779523448
 40
0.8113943689
 40
0.843163495
 40
0.8748144701
 40
0.9063333342
 40
0.9377088933
 40
0.9689326197
 40
1.0
 40
1.0
 40
1.0
 40
1.0
 10
9.9605819831
 20
7.8582626936
 30
0.0
 10
9.9566106227
 20
7.8545320908
 30
0.0
 10
9.9485183951
 20
7.8472260555
 30
0.0
 10
9.9359547555
 20
7.8367537585
 30
0.0
 10
9.9229809317
 20
7.8267806282
 30
0.0
 10
9.9051543919
 20
7.8141632503
 30
0.0
 10
9.8819221943
 20
7.7997004919
 30
0.0
 10
9.852716169
 20
7.7845566497
 30
0.0
 10
9.8223241783
 20
7.771694869
 30
0.0
 10
9.7909130373
 20
7.7611857623
 30
0.0
 10
9.7586536763
 20
7.7530860296
 30
0.0
 10
9.7257219465
 20
7.7474394022
 30
0.0
 10
9.69229715
 20
7.7442761736
 30
0.0
 10
9.6585611974
 20
7.74361316
 30
0.0
 10
9.6246975941
 20
7.7454535513
 30
0.0
 10
9.5908904454
 20
7.7497868949
 30
0.0
 10
9.5573234645
 20
7.7565892534
 30
0.0
 10
9.5241790005
 20
7.7658233465
 30
0.0
 10
9.491637041
 20
7.7774386782
 30
0.0
 10
9.4598742479
 20
7.7913718606
 30
0.0
 10
9.4290630312
 20
7.8075470052
 30
0.0
 10
9.3993706337
 20
7.8258761254
 30
0.0
 10
9.370958183
 20
7.8462595306
 30
0.0
 10
9.3439798671
 20
7.8685864443
 30
0.0
 10
9.318582123
 20
7.8927356084
 30
0.0
 10
9.2949028382
 20
7.9185759103
 30
0.0
 10
9.2730705554
 20
7.9459670448
 30
0.0
 10
9.253203849
 20
7.974760338
 30
0.0
 10
9.2354106963
 20
8.0047995352
 30
0.0
 10
9.2197878443
 20
8.0359216085
 30
0.0
 10
9.2064202726
 20
8.0679576147
 30
0.0
 10
9.1953808012
 20
8.1007337097
 30
0.0
 10
9.1867296775
 20
8.1340717964
 30
0.0
 10
9.1805142463
 20
8.1677914153
 30
0.0
 10
9.1767684775
 20
8.2017070545
 30
0.0
 10
9.1759295592
 20
8.2243887612
 30
0.0
 10
9.1759295592
 20
8.2356968565
 30
0.0
  0
SPLINE
  5
396
100
AcDbEntity
  8
0
100
AcDbSpline
 62
7
  6
CONTINUOUS
 70
0
 71
3
 72
39
 73
35
 74
0
 42
0.0000001
 43
0.0000001
 44
0.0000000001
 40
0.0
 40
0.0
 40
0.0
 40
0.0
 40
0.0299424711
 40
0.0599093187
 40
0.0899243254
 40
0.120010105
 40
0.1501875638
 40
0.1804754155
 40
0.2108897596
 40
0.2414437359
 40
0.2721472599
 40
0.303006843
 40
0.3340254958
 40
0.3652027155
 40
0.3965345503
 40
0.4280137351
 40
0.4596298915
 40
0.4913697854
 40
0.523217633
 40
0.5551554502
 40
0.5871634346
 40
0.6192203772
 40
0.6513040926
 40
0.6833918634
 40
0.7154608915
 40
0.747488751
 40
0.7794538358
 40
0.811335796
 40
0.8431159553
 40
0.8747777133
 40
0.9063068641
 40
0.9376920954
 40
0.9689246611
 40
1.0
 40
1.0
 40
1.0
 40
1.0
 10
9.8522269905
 20
7.9968515692
 30
0.0
 10
9.8472501014
 20
7.9920442411
 30
0.0
 10
9.8369049445
 20
7.9828175903
 30
0.0
 10
9.8203304187
 20
7.9702478856
 30
0.0
 10
9.802783783
 20
7.9590114008
 30
0.0
 10
9.7843630934
 20
7.9491711558
 30
0.0
 10
9.765169625
 20
7.9407809095
 30
0.0
 10
9.7453093055
 20
7.9338867804
 30
0.0
 10
9.7248915764
 20
7.9285264887
 30
0.0
 10
9.7040289241
 20
7.9247293008
 30
0.0
 10
9.6828362136
 20
7.9225158452
 30
0.0
 10
9.6614300641
 20
7.9218980277
 30
0.0
 10
9.6399282052
 20
7.9228789691
 30
0.0
 10
9.6184488319
 20
7.9254530037
 30
0.0
 10
9.5971099598
 20
7.9296057309
 30
0.0
 10
9.5760287855
 20
7.9353141031
 30
0.0
 10
9.555321052
 20
7.9425465594
 30
0.0
 10
9.5351004222
 20
7.9512632043
 30
0.0
 10
9.5154778652
 20
7.9614160294
 30
0.0
 10
9.4965610556
 20
7.9729491774
 30
0.0
 10
9.4784537841
 20
7.9857992387
 30
0.0
 10
9.4612554001
 20
7.999895609
 30
0.0
 10
9.4450602734
 20
8.0151608739
 30
0.0
 10
9.429957283
 20
8.0315112299
 30
0.0
 10
9.4160293346
 20
8.0488569398
 30
0.0
 10
9.4033529099
 20
8.0671028198
 30
0.0
 10
9.3919976525
 20
8.0861487551
 30
0.0
 10
9.3820259819
 20
8.1058902428
 30
0.0
 10
9.3734927464
 20
8.126218946
 30
0.0
 10
9.3664449477
 20
8.1470233316
 30
0.0
 10
9.3609214292
 20
8.1681891089
 30
0.0
 10
9.356952792
 20
8.1896004493
 30
0.0
 10
9.3545609569
 20
8.2111382594
 30
0.0
 10
9.3540252479
 20
8.2255427679
 30
0.0
 10
9.3540252479
 20
8.232724092
 30
0.0
  0
SPLINE
  5
397
100
AcDbEntity
  8
0
100
AcDbSpline
 62
7
  6
CONTINUOUS
 70
0
 71
3
 72
41
 73
37
 74
0
 42
0.0000001
 43
0.0000001
 44
0.0000000001
 40
0.0
 40
0.0
 40
0.0
 40
0.0
 40
0.0300566459
 40
0.0451250746
 40
0.0602206667
 40
0.0904940393
 40
0.1208889395
 40
0.1361359154
 40
0.1514154021
 40
0.1820697296
 40
0.2128577699
 40
0.2437793682
 40
0.2748322826
 40
0.3060122451
 40
0.3373130515
 40
0.3687266772
 40
0.4002434171
 40
0.4318520449
 40
0.4635399915
 40
0.4952935372
 40
0.5270980174
 40
0.5589380375
 40
0.5907976958
 40
0.6226608108
 40
0.6545111518
 40
0.6863326701
 40
0.7181097276
 40
0.7498273224
 40
0.7814713074
 40
0.8130285982
 40
0.8444873789
 40
0.8758372631
 40
0.9070695316
 40
0.9381770875
 40
0.9691550573
 40
1.0
 40
1.0
 40
1.0
 40
1.0
 10
9.9103574664
 20
8.0804339494
 30
0.0
 10
9.9048584985
 20
8.0782397585
 30
0.0
 10
9.8964903555
 20
8.0752174361
 30
0.0
 10
9.8851474405
 20
8.0717407457
 30
0.0
 10
9.8736553421
 20
8.0686252114
 30
0.0
 10
9.8590667742
 20
8.0654265994
 30
0.0
 10
9.8442727231
 20
8.0631726436
 30
0.0
 10
9.8323344443
 20
8.0619366406
 30
0.0
 10
9.8203118571
 20
8.0610784524
 30
0.0
 10
9.8051923609
 20
8.0607225122
 30
0.0
 10
9.7870010125
 20
8.0614409983
 30
0.0
 10
9.7688116642
 20
8.0633015526
 30
0.0
 10
9.7506964025
 20
8.0662967721
 30
0.0
 10
9.7327264099
 20
8.0704147501
 30
0.0
 10
9.7149724419
 20
8.0756391822
 30
0.0
 10
9.6975043471
 20
8.0819494175
 30
0.0
 10
9.6803908509
 20
8.0893205453
 30
0.0
 10
9.6636992724
 20
8.0977234926
 30
0.0
 10
9.6474952667
 20
8.1071251395
 30
0.0
 10
9.6318425675
 20
8.1174884493
 30
0.0
 10
9.6168027397
 20
8.1287726136
 30
0.0
 10
9.6024349389
 20
8.1409332127
 30
0.0
 10
9.5887956807
 20
8.1539223888
 30
0.0
 10
9.5759386202
 20
8.1676890337
 30
0.0
 10
9.5639143425
 20
8.1821789879
 30
0.0
 10
9.5527701653
 20
8.1973352527
 30
0.0
 10
9.5425499535
 20
8.2130982121
 30
0.0
 10
9.533293948
 20
8.2294058661
 30
0.0
 10
9.5250386085
 20
8.2461940713
 30
0.0
 10
9.5178164676
 20
8.2633967938
 30
0.0
 10
9.5116560117
 20
8.2809463571
 30
0.0
 10
9.506581547
 20
8.2987737406
 30
0.0
 10
9.502613151
 20
8.3168087196
 30
0.0
 10
9.4997664988
 20
8.3349806021
 30
0.0
 10
9.4980529506
 20
8.3532168772
 30
0.0
 10
9.4976696994
 20
8.365398139
 30
0.0
 10
9.4976696994
 20
8.3714739857
 30
0.0
  0
SPLINE
  5
398
100
AcDbEntity
  8
0
100
AcDbSpline
 62
7
  6
CONTINUOUS
 70
0
 71
3
 72
23
 73
19
 74
0
 42
0.0000001
 43
0.0000001
 44
0.0000000001
 40
0.0
 40
0.0
 40
0.0
 40
0.0
 40
0.061700157
 40
0.1234262946
 40
0.1851985167
 40
0.2470364737
 40
0.3089591697
 40
0.370984777
 40
0.4331304616
 40
0.4954122266
 40
0.5578447604
 40
0.6204413224
 40
0.6832135953
 40
0.7461715815
 40
0.8093238119
 40
0.8726759194
 40
0.9362348259
 40
1.0
 40
1.0
 40
1.0
 40
1.0
 10
9.3006278184
 20
8.5414963855
 30
0.0
 10
9.2956813282
 20
8.5365835218
 30
0.0
 10
9.2860331049
 20
8.5265035474
 30
0.0
 10
9.2723404693
 20
8.5106679586
 30
0.0
 10
9.2594547195
 20
8.4941486957
 30
0.0
 10
9.2474050662
 20
8.4769830852
 30
0.0
 10
9.2362182197
 20
8.4592092658
 30
0.0
 10
9.2259191424
 20
8.4408668942
 30
0.0
 10
9.2165307501
 20
8.4219968591
 30
0.0
 10
9.2080739257
 20
8.4026412372
 30
0.0
 10
9.2005674747
 20
8.3828431742
 30
0.0
 10
9.1940280881
 20
8.362646794
 30
0.0
 10
9.1884703094
 20
8.3420971082
 30
0.0
 10
9.1839064623
 20
8.3212398757
 30
0.0
 10
9.1803467204
 20
8.3001216803
 30
0.0
 10
9.1777988157
 20
8.2787892332
 30
0.0
 10
9.1762685954
 20
8.2572908729
 30
0.0
 10
9.1759295592
 20
8.2429018445
 30
0.0
 10
9.1759295592
 20
8.2356968565
 30
0.0
  0
SPLINE
  5
399
100
AcDbEntity
  8
0
100
AcDbSpline
 62
7
  6
CONTINUOUS
 70
0
 71
3
 72
23
 73
19
 74
0
 42
0.0000001
 43
0.0000001
 44
0.0000000001
 40
0.0
 40
0.0
 40
0.0
 40
0.0
 40
0.0617101467
 40
0.1234414005
 40
0.1852146478
 40
0.2470503543
 40
0.3089683505
 40
0.3709876232
 40
0.433126136
 40
0.4954006598
 40
0.5578266145
 40
0.6204179204
 40
0.6831867797
 40
0.7461439117
 40
0.8092980272
 40
0.8726549309
 40
0.9362234023
 40
1.0
 40
1.0
 40
1.0
 40
1.0
 10
9.4353790354
 20
8.4284043023
 30
0.0
 10
9.4321577766
 20
8.4252927908
 30
0.0
 10
9.425873084
 20
8.4189017082
 30
0.0
 10
9.4169499112
 20
8.408841147
 30
0.0
 10
9.4085493304
 20
8.3983281635
 30
0.0
 10
9.4006910449
 20
8.3873873332
 30
0.0
 10
9.393393094
 20
8.3760437989
 30
0.0
 10
9.3866723393
 20
8.3643237447
 30
0.0
 10
9.3805442217
 20
8.3522542238
 30
0.0
 10
9.3750228488
 20
8.3398630787
 30
0.0
 10
9.3701209578
 20
8.3271788751
 30
0.0
 10
9.3658498311
 20
8.3142308712
 30
0.0
 10
9.3622192414
 20
8.3010489343
 30
0.0
 10
9.3592375437
 20
8.2876634362
 30
0.0
 10
9.3569116435
 20
8.2741053206
 30
0.0
 10
9.3552467275
 20
8.2604055409
 30
0.0
 10
9.3542468096
 20
8.2465963251
 30
0.0
 10
9.3540252479
 20
8.237352682
 30
0.0
 10
9.3540252479
 20
8.232724092
 30
0.0
  0
SPLINE
  5
39A
100
AcDbEntity
  8
0
100
AcDbSpline
 62
7
  6
CONTINUOUS
 70
0
 71
3
 72
15
 73
11
 74
0
 42
0.0000001
 43
0.0000001
 44
0.0000000001
 40
0.0
 40
0.0
 40
0.0
 40
0.0
 40
0.123669461
 40
0.247673301
 40
0.3720393953
 40
0.4967919294
 40
0.6219512015
 40
0.7475305656
 40
0.8735481384
 40
1.0
 40
1.0
 40
1.0
 40
1.0
 10
9.5208738796
 20
8.4834855199
 30
0.0
 10
9.5189642182
 20
8.4791375917
 30
0.0
 10
9.5153700434
 20
8.4703267558
 30
0.0
 10
9.5106763989
 20
8.4568271425
 30
0.0
 10
9.5066846752
 20
8.4430599085
 30
0.0
 10
9.5034051787
 20
8.4290604544
 30
0.0
 10
9.500846198
 20
8.4148642729
 30
0.0
 10
9.4990140307
 20
8.4005071231
 30
0.0
 10
9.497913512
 20
8.3860261066
 30
0.0
 10
9.4976696994
 20
8.3763296474
 30
0.0
 10
9.4976696994
 20
8.3714739857
 30
0.0
  0
SPLINE
  5
39B
100
AcDbEntity
  8
0
100
AcDbSpline
 62
7
  6
CONTINUOUS
 70
0
 71
3
 72
41
 73
37
 74
0
 42
0.0000001
 43
0.0000001
 44
0.0000000001
 40
0.0
 40
0.0
 40
0.0
 40
0.0
 40
0.0300047567
 40
0.0450441706
 40
0.0601089987
 40
0.0903164732
 40
0.1206419846
 40
0.1358538084
 40
0.151098106
 40
0.1816826739
 40
0.2124037742
 40
0.2432629966
 40
0.2742596153
 40
0.3053906326
 40
0.3366508564
 40
0.3680330117
 40
0.3995278807
 40
0.4311244692
 40
0.4628101962
 40
0.4945711016
 40
0.5263920715
 40
0.5582570756
 40
0.5901494149
 40
0.6220519767
 40
0.6539474938
 40
0.6858188056
 40
0.7176491173
 40
0.7494222567
 40
0.7811229228
 40
0.8127369255
 40
0.8442514142
 40
0.8756550845
 40
0.9069383875
 40
0.9380936532
 40
0.9691153553
 40
1.0
 40
1.0
 40
1.0
 40
1.0
 10
9.9202831587
 20
8.1068351077
 30
0.0
 10
9.9151384848
 20
8.1043850428
 30
0.0
 10
9.9072856236
 20
8.1009702067
 30
0.0
 10
9.8965972346
 20
8.096956922
 30
0.0
 10
9.8857420427
 20
8.0932957201
 30
0.0
 10
9.8719117494
 20
8.0893999502
 30
0.0
 10
9.857824233
 20
8.0864344293
 30
0.0
 10
9.8464223176
 20
8.084622056
 30
0.0
 10
9.8349178396
 20
8.083182129
 30
0.0
 10
9.8204095207
 20
8.0820921364
 30
0.0
 10
9.8028949663
 20
8.0819240886
 30
0.0
 10
9.7853279406
 20
8.0828948295
 30
0.0
 10
9.7677823996
 20
8.0850002457
 30
0.0
 10
9.7503315766
 20
8.0882313936
 30
0.0
 10
9.7330484541
 20
8.0925746576
 30
0.0
 10
9.7160052525
 20
8.0980117783
 30
0.0
 10
9.6992731878
 20
8.1045199393
 30
0.0
 10
9.6829221625
 20
8.1120718616
 30
0.0
 10
9.6670204801
 20
8.1206359193
 30
0.0
 10
9.6516345625
 20
8.1301762712
 30
0.0
 10
9.6368286747
 20
8.140653011
 30
0.0
 10
9.6226646596
 20
8.1520223328
 30
0.0
 10
9.6092016817
 20
8.1642367137
 30
0.0
 10
9.5964959821
 20
8.1772451109
 30
0.0
 10
9.5846006457
 20
8.1909931734
 30
0.0
 10
9.5735653806
 20
8.2054234673
 30
0.0
 10
9.5634363125
 20
8.2204757141
 30
0.0
 10
9.5542557928
 20
8.2360870401
 30
0.0
 10
9.5460622228
 20
8.2521922366
 30
0.0
 10
9.5388898932
 20
8.2687240315
 30
0.0
 10
9.5327688431
 20
8.2856133591
 30
0.0
 10
9.5277247292
 20
8.302789678
 30
0.0
 10
9.5237787291
 20
8.3201811439
 30
0.0
 10
9.520947429
 20
8.3377153424
 30
0.0
 10
9.5192427886
 20
8.3553179942
 30
0.0
 10
9.5188614445
 20
8.3670782507
 30
0.0
 10
9.5188614445
 20
8.3729436408
 30
0.0
  0
SPLINE
  5
39C
100
AcDbEntity
  8
0
100
AcDbSpline
 62
7
  6
CONTINUOUS
 70
0
 71
3
 72
62
 73
58
 74
0
 42
0.0000001
 43
0.0000001
 44
0.0000000001
 40
0.0
 40
0.0
 40
0.0
 40
0.0
 40
0.0156383408
 40
0.0313304367
 40
0.0470739044
 40
0.0628684794
 40
0.0787121704
 40
0.0946027891
 40
0.110537765
 40
0.1265140644
 40
0.1585680599
 40
0.1907425832
 40
0.2230023648
 40
0.2553091496
 40
0.2876230413
 40
0.3199039009
 40
0.3521127346
 40
0.3842130698
 40
0.4161722562
 40
0.4320944935
 40
0.4479715764
 40
0.4638010188
 40
0.4795807717
 40
0.4953092444
 40
0.5109853289
 40
0.5266084158
 40
0.5421784003
 40
0.5576956876
 40
0.5731612009
 40
0.5885763749
 40
0.6039431425
 40
0.6192639221
 40
0.6345416023
 40
0.649779513
 40
0.6649813918
 40
0.6801513512
 40
0.6952938404
 40
0.7104135982
 40
0.7255156013
 40
0.740605016
 40
0.7556871445
 40
0.7707673671
 40
0.7858510823
 40
0.8009436511
 40
0.8160503423
 40
0.8311762742
 40
0.8463263582
 40
0.8615052506
 40
0.8767173064
 40
0.8919665348
 40
0.9072565603
 40
0.9225905639
 40
0.9379713399
 40
0.953401164
 40
0.9688815572
 40
0.9844147864
 40
1.0
 40
1.0
 40
1.0
 40
1.0
 10
12.4262701572
 20
7.4075472067
 30
0.0
 10
12.4262701572
 20
7.4117421213
 30
0.0
 10
12.4260634387
 20
7.4201477977
 30
0.0
 10
12.4251378868
 20
7.4327459292
 30
0.0
 10
12.423598358
 20
7.4453263401
 30
0.0
 10
12.421448789
 20
7.4578581069
 30
0.0
 10
12.4186942343
 20
7.4703113605
 30
0.0
 10
12.415341455
 20
7.4826559515
 30
0.0
 10
12.4113983978
 20
7.4948625001
 30
0.0
 10
12.4053612926
 20
7.5109292874
 30
0.0
 10
12.3963856098
 20
7.5305195378
 30
0.0
 10
12.3834548088
 20
7.5529819655
 30
0.0
 10
12.3684737418
 20
7.5742163531
 30
0.0
 10
12.3515869617
 20
7.5940175647
 30
0.0
 10
12.3329564673
 20
7.6121959685
 30
0.0
 10
12.3127612029
 20
7.6285768821
 30
0.0
 10
12.2911945448
 20
7.643003097
 30
0.0
 10
12.2684648115
 20
7.6553353078
 30
0.0
 10
12.2487049752
 20
7.6637809144
 30
0.0
 10
12.2325379807
 20
7.6693771436
 30
0.0
 10
12.2202756804
 20
7.6729820788
 30
0.0
 10
12.2078931003
 20
7.6759903521
 30
0.0
 10
12.1954197244
 20
7.6783948443
 30
0.0
 10
12.1828856667
 20
7.6801896609
 30
0.0
 10
12.1703210929
 20
7.6813704912
 30
0.0
 10
12.1577562685
 20
7.6819344751
 30
0.0
 10
12.1452214542
 20
7.6818802095
 30
0.0
 10
12.1327468498
 20
7.6812077643
 30
0.0
 10
12.1203625109
 20
7.6799187661
 30
0.0
 10
12.1080982777
 20
7.6780162967
 30
0.0
 10
12.0959837128
 20
7.6755048842
 30
0.0
 10
12.0840480249
 20
7.6723905392
 30
0.0
 10
12.0723199817
 20
7.6686807751
 30
0.0
 10
12.0608278604
 20
7.6643845083
 30
0.0
 10
12.0495993893
 20
7.6595120391
 30
0.0
 10
12.0386616508
 20
7.654075102
 30
0.0
 10
12.0280410156
 20
7.6480868142
 30
0.0
 10
12.0177631053
 20
7.6415615948
 30
0.0
 10
12.0078527379
 20
7.634515136
 30
0.0
 10
11.998333809
 20
7.6269644474
 30
0.0
 10
11.9892292697
 20
7.6189277486
 30
0.0
 10
11.9805610902
 20
7.6104244103
 30
0.0
 10
11.9723502033
 20
7.6014749209
 30
0.0
 10
11.9646163841
 20
7.592100897
 30
0.0
 10
11.9573782706
 20
7.5823249577
 30
0.0
 10
11.9506533287
 20
7.572170673
 30
0.0
 10
11.94445778
 20
7.5616625331
 30
0.0
 10
11.9388065168
 20
7.5508259086
 30
0.0
 10
11.9337131425
 20
7.5396869385
 30
0.0
 10
11.9291899446
 20
7.5282724751
 30
0.0
 10
11.9252478069
 20
7.5166100518
 30
0.0
 10
11.9218961628
 20
7.5047277998
 30
0.0
 10
11.9191430766
 20
7.4926543465
 30
0.0
 10
11.9169952153
 20
7.4804188768
 30
0.0
 10
11.9154575859
 20
7.4680506018
 30
0.0
 10
11.9145340637
 20
7.4555799433
 30
0.0
 10
11.914329439
 20
7.4472310796
 30
0.0
 10
11.914329439
 20
7.4430504161
 30
0.0
  0
SPLINE
  5
39D
100
AcDbEntity
  8
0
100
AcDbSpline
 62
7
  6
CONTINUOUS
 70
0
 71
3
 72
41
 73
37
 74
0
 42
0.0000001
 43
0.0000001
 44
0.0000000001
 40
0.0
 40
0.0
 40
0.0
 40
0.0
 40
0.0149724862
 40
0.0299480307
 40
0.0449296746
 40
0.0599204222
 40
0.0899350731
 40
0.1200204959
 40
0.1501975964
 40
0.1804850878
 40
0.2108990702
 40
0.2414526838
 40
0.2721558423
 40
0.303015057
 40
0.3340333403
 40
0.3652101893
 40
0.3965416515
 40
0.4280204628
 40
0.4596362457
 40
0.4913757643
 40
0.5232232351
 40
0.5551606749
 40
0.587168282
 40
0.6192248472
 40
0.6513081855
 40
0.6833955794
 40
0.7154642309
 40
0.7474917144
 40
0.779456424
 40
0.8113380097
 40
0.8431177978
 40
0.8747791805
 40
0.9063079772
 40
0.937692809
 40
0.9689250164
 40
1.0
 40
1.0
 40
1.0
 40
1.0
 10
12.4718481332
 20
7.1048277041
 30
0.0
 10
12.4681980597
 20
7.1013019918
 30
0.0
 10
12.4607561523
 20
7.0943941532
 30
0.0
 10
12.4491891457
 20
7.0844831427
 30
0.0
 10
12.437232481
 20
7.0750351078
 30
0.0
 10
12.420788725
 20
7.0630694864
 30
0.0
 10
12.3993310894
 20
7.0493281578
 30
0.0
 10
12.3723146233
 20
7.0348961192
 30
0.0
 10
12.3441640603
 20
7.0225902158
 30
0.0
 10
12.3150356284
 20
7.0124787496
 30
0.0
 10
12.2850895981
 20
7.0046168959
 30
0.0
 10
12.2544910168
 20
6.9990476296
 30
0.0
 10
12.2234083448
 20
6.9958011558
 30
0.0
 10
12.1920126246
 20
6.9948949364
 30
0.0
 10
12.1604765244
 20
6.9963335874
 30
0.0
 10
12.1289733988
 20
7.0001087809
 30
0.0
 10
12.0976763346
 20
7.0061993823
 30
0.0
 10
12.0667572233
 20
7.0145716095
 30
0.0
 10
12.0363858319
 20
7.0251791962
 30
0.0
 10
12.0067288558
 20
7.0379635891
 30
0.0
 10
11.9779490434
 20
7.0528543683
 30
0.0
 10
11.9502043288
 20
7.0697696333
 30
0.0
 10
11.9236469421
 20
7.0886163851
 30
0.0
 10
11.8984225818
 20
7.1092910512
 30
0.0
 10
11.8746696627
 20
7.1316800997
 30
0.0
 10
11.8525185687
 20
7.1556606442
 30
0.0
 10
11.8320908737
 20
7.1811010448
 30
0.0
 10
11.813498736
 20
7.2078616884
 30
0.0
 10
11.7968443104
 20
7.2357957496
 30
0.0
 10
11.7822191617
 20
7.2647499655
 30
0.0
 10
11.7697037131
 20
7.2945654276
 30
0.0
 10
11.7593668893
 20
7.3250785603
 30
0.0
 10
11.7512657249
 20
7.3561217381
 30
0.0
 10
11.7454450486
 20
7.3875250772
 30
0.0
 10
11.741937023
 20
7.4191139038
 30
0.0
 10
11.7411513078
 20
7.4402405507
 30
0.0
 10
11.7411513078
 20
7.4507731768
 30
0.0
  0
SPLINE
  5
39E
100
AcDbEntity
  8
0
100
AcDbSpline
 62
7
  6
CONTINUOUS
 70
0
 71
3
 72
42
 73
38
 74
0
 42
0.0000001
 43
0.0000001
 44
0.0000000001
 40
0.0
 40
0.0
 40
0.0
 40
0.0
 40
0.0149694304
 40
0.0299430272
 40
0.044923784
 40
0.0599146508
 40
0.0749185143
 40
0.0899381866
 40
0.1200299593
 40
0.1502160839
 40
0.1805146556
 40
0.2109411437
 40
0.2415080661
 40
0.2722247412
 40
0.3030971247
 40
0.3341277295
 40
0.3653156228
 40
0.3966564959
 40
0.4281428043
 40
0.4597639728
 40
0.4915066516
 40
0.5233550191
 40
0.5552911259
 40
0.587295273
 40
0.6193464141
 40
0.6514225763
 40
0.6835012949
 40
0.7155600559
 40
0.7475767362
 40
0.7795300416
 40
0.8113999317
 40
0.8431680283
 40
0.874817995
 40
0.9063358863
 40
0.9377105349
 40
0.9689334007
 40
1.0
 40
1.0
 40
1.0
 40
1.0
 10
12.4718212787
 20
7.1048618117
 30
0.0
 10
12.4681403263
 20
7.1014116287
 30
0.0
 10
12.4606402018
 20
7.0946550104
 30
0.0
 10
12.4489968029
 20
7.0849709432
 30
0.0
 10
12.4369744275
 20
7.0757492842
 30
0.0
 10
12.4245896566
 20
7.0670029087
 30
0.0
 10
12.4118590483
 20
7.0587434632
 30
0.0
 10
12.3944386964
 20
7.0483900346
 30
0.0
 10
12.3718735453
 20
7.0367169614
 30
0.0
 10
12.3437218378
 20
7.0248343068
 30
0.0
 10
12.3146276935
 20
7.0151290634
 30
0.0
 10
12.2847506171
 20
7.0076543936
 30
0.0
 10
12.2542529574
 20
7.0024504464
 30
0.0
 10
12.2233007206
 20
6.9995451782
 30
0.0
 10
12.1920621937
 20
6.99895395
 30
0.0
 10
12.1607071498
 20
7.0006795866
 30
0.0
 10
12.1294059078
 20
7.0047123607
 30
0.0
 10
12.0983284218
 20
7.0110300154
 30
0.0
 10
12.0676433578
 20
7.0195978984
 30
0.0
 10
12.0375172011
 20
7.0303692128
 30
0.0
 10
12.0081133728
 20
7.0432852728
 30
0.0
 10
11.9795913441
 20
7.0582757879
 30
0.0
 10
11.9521057679
 20
7.0752592319
 30
0.0
 10
11.925805678
 20
7.0941433399
 30
0.0
 10
11.900833695
 20
7.1148255986
 30
0.0
 10
11.877325249
 20
7.1371937738
 30
0.0
 10
11.8554078222
 20
7.1611264906
 30
0.0
 10
11.8352003111
 20
7.1864939386
 30
0.0
 10
11.816812388
 20
7.2131585585
 30
0.0
 10
11.8003439007
 20
7.2409757657
 30
0.0
 10
11.7858842862
 20
7.2697947067
 30
0.0
 10
11.7735121502
 20
7.2994590898
 30
0.0
 10
11.7632948435
 20
7.3298080815
 30
0.0
 10
11.7552880643
 20
7.3606769135
 30
0.0
 10
11.7495355889
 20
7.3918986323
 30
0.0
 10
11.7460688331
 20
7.4233016229
 30
0.0
 10
11.7452924093
 20
7.4443028669
 30
0.0
 10
11.7452924093
 20
7.4547731739
 30
0.0
  0
SPLINE
  5
39F
100
AcDbEntity
  8
0
100
AcDbSpline
 62
7
  6
CONTINUOUS
 70
0
 71
3
 72
41
 73
37
 74
0
 42
0.0000001
 43
0.0000001
 44
0.0000000001
 40
0.0
 40
0.0
 40
0.0
 40
0.0
 40
0.0299421711
 40
0.0599087182
 40
0.0899234237
 40
0.120008901
 40
0.1501860568
 40
0.1804736044
 40
0.2108876432
 40
0.2414413126
 40
0.272144528
 40
0.3030038001
 40
0.3340221401
 40
0.3651990458
 40
0.3965305658
 40
0.4280094351
 40
0.459625275
 40
0.4913648512
 40
0.5232123798
 40
0.5551498765
 40
0.5871575398
 40
0.6192141608
 40
0.6512975542
 40
0.6833850026
 40
0.715453708
 40
0.7314764109
 40
0.7474860766
 40
0.7794508393
 40
0.8113324792
 40
0.8431123189
 40
0.8747737608
 40
0.9063025958
 40
0.9376874988
 40
0.9533255066
 40
0.9689250205
 40
1.0
 40
1.0
 40
1.0
 40
1.0
 10
12.3413298168
 20
7.2637739803
 30
0.0
 10
12.3374312448
 20
7.260008249
 30
0.0
 10
12.3293275473
 20
7.2527806969
 30
0.0
 10
12.3163441611
 20
7.2429344371
 30
0.0
 10
12.3025992981
 20
7.2341325224
 30
0.0
 10
12.2881697587
 20
7.226424329
 30
0.0
 10
12.2731348758
 20
7.2198519684
 30
0.0
 10
12.2575776251
 20
7.2144515685
 30
0.0
 10
12.2415837365
 20
7.210252677
 30
0.0
 10
12.2252413248
 20
7.207278218
 30
0.0
 10
12.2086403683
 20
7.2055443486
 30
0.0
 10
12.1918722187
 20
7.2050603902
 30
0.0
 10
12.1750290965
 20
7.2058287877
 30
0.0
 10
12.1582035871
 20
7.2078451079
 30
0.0
 10
12.1414881365
 20
7.2110980727
 30
0.0
 10
12.1249745494
 20
7.2155696293
 30
0.0
 10
12.1087534916
 20
7.2212350551
 30
0.0
 10
12.0929139996
 20
7.2280630972
 30
0.0
 10
12.0775429979
 20
7.2360161473
 30
0.0
 10
12.0627248308
 20
7.2450504443
 30
0.0
 10
12.0485407967
 20
7.2551163291
 30
0.0
 10
12.0350687419
 20
7.2661584658
 30
0.0
 10
12.022382511
 20
7.2781163303
 30
0.0
 10
12.0105520231
 20
7.2909238413
 30
0.0
 10
12.0014566736
 20
7.3022512208
 30
0.0
 10
11.9946706583
 20
7.3116665206
 30
0.0
 10
11.988226131
 20
7.3212961254
 30
0.0
 10
11.980816695
 20
7.3337236614
 30
0.0
 10
11.9730057347
 20
7.349187565
 30
0.0
 10
11.9663213137
 20
7.3651117631
 30
0.0
 10
11.9608005363
 20
7.3814085887
 30
0.0
 10
11.956473816
 20
7.3979881657
 30
0.0
 10
11.9538798584
 20
7.4119831265
 30
0.0
 10
11.9524247198
 20
7.4232278999
 30
0.0
 10
11.9513862256
 20
7.4344619155
 30
0.0
 10
11.9510717804
 20
7.4429154328
 30
0.0
 10
11.9510717804
 20
7.4485407947
 30
0.0
  0
SPLINE
  5
3A0
100
AcDbEntity
  8
0
100
AcDbSpline
 62
7
  6
CONTINUOUS
 70
0
 71
3
 72
39
 73
35
 74
0
 42
0.0000001
 43
0.0000001
 44
0.0000000001
 40
0.0
 40
0.0
 40
0.0
 40
0.0
 40
0.030147504
 40
0.0604060808
 40
0.0907826504
 40
0.1212823595
 40
0.1519085247
 40
0.182662609
 40
0.2135442231
 40
0.2445511543
 40
0.2756794191
 40
0.3069233389
 40
0.3382756369
 40
0.3697275537
 40
0.4012689818
 40
0.4328886141
 40
0.464574103
 40
0.4963122301
 40
0.5280890843
 40
0.5598902459
 40
0.591700977
 40
0.6235064152
 40
0.6552917683
 40
0.6870425072
 40
0.7187445553
 40
0.7503844759
 40
0.7819496505
 40
0.8134284524
 40
0.8448104223
 40
0.8760863566
 40
0.9072486973
 40
0.9382908256
 40
0.9692093633
 40
1.0
 40
1.0
 40
1.0
 40
1.0
 10
12.3936054189
 20
7.3468281859
 30
0.0
 10
12.3893306096
 20
7.345552122
 30
0.0
 10
12.3806825931
 20
7.3432635125
 30
0.0
 10
12.3674991196
 20
7.3406392868
 30
0.0
 10
12.3541267629
 20
7.338826424
 30
0.0
 10
12.3406145069
 20
7.3378316077
 30
0.0
 10
12.327010985
 20
7.3376582965
 30
0.0
 10
12.3133653722
 20
7.3383070502
 30
0.0
 10
12.2997269202
 20
7.3397754466
 30
0.0
 10
12.2861448585
 20
7.3420581158
 30
0.0
 10
12.272668198
 20
7.3451467546
 30
0.0
 10
12.259345562
 20
7.3490301593
 30
0.0
 10
12.2462250118
 20
7.3536942687
 30
0.0
 10
12.2333538723
 20
7.3591222046
 30
0.0
 10
12.2207785608
 20
7.3652943362
 30
0.0
 10
12.2085444249
 20
7.3721883597
 30
0.0
 10
12.1966955799
 20
7.3797793765
 30
0.0
 10
12.1852747522
 20
7.3880399836
 30
0.0
 10
12.1743231264
 20
7.3969403706
 30
0.0
 10
12.1638801998
 20
7.406448428
 30
0.0
 10
12.1539836358
 20
7.4165298563
 30
0.0
 10
12.1446691251
 20
7.4271482873
 30
0.0
 10
12.1359702656
 20
7.4382654234
 30
0.0
 10
12.1279184412
 20
7.449841173
 30
0.0
 10
12.12054271
 20
7.4618337939
 30
0.0
 10
12.1138697001
 20
7.4742000419
 30
0.0
 10
12.1079235156
 20
7.486895325
 30
0.0
 10
12.1027256427
 20
7.4998738627
 30
0.0
 10
12.0982948785
 20
7.5130888386
 30
0.0
 10
12.0946472239
 20
7.5264926118
 30
0.0
 10
12.0917959596
 20
7.5400367437
 30
0.0
 10
12.0897513071
 20
7.5536726421
 30
0.0
 10
12.0885208899
 20
7.5673503319
 30
0.0
 10
12.0882457611
 20
7.5764843199
 30
0.0
 10
12.0882457611
 20
7.5810406932
 30
0.0
  0
SPLINE
  5
3A1
100
AcDbEntity
  8
0
100
AcDbSpline
 62
7
  6
CONTINUOUS
 70
0
 71
3
 72
23
 73
19
 74
0
 42
0.0000001
 43
0.0000001
 44
0.0000000001
 40
0.0
 40
0.0
 40
0.0
 40
0.0
 40
0.0616994054
 40
0.123425173
 40
0.1851973419
 40
0.2470354963
 40
0.3089585756
 40
0.3709846895
 40
0.4331309438
 40
0.4954132797
 40
0.5578463266
 40
0.6204432961
 40
0.6832158129
 40
0.7461738643
 40
0.8093259312
 40
0.8726775518
 40
0.9362359205
 40
1.0
 40
1.0
 40
1.0
 40
1.0
 10
11.8605018931
 20
7.7377413231
 30
0.0
 10
11.8559311548
 20
7.7331915896
 30
0.0
 10
11.8470159824
 20
7.7238575045
 30
0.0
 10
11.8343641633
 20
7.7091959663
 30
0.0
 10
11.822458262
 20
7.6939034959
 30
0.0
 10
11.8113251901
 20
7.6780145562
 30
0.0
 10
11.8009895523
 20
7.6615643577
 30
0.0
 10
11.7914743398
 20
7.6445895063
 30
0.0
 10
11.7828006867
 20
7.6271277264
 30
0.0
 10
11.7749878357
 20
7.6092178488
 30
0.0
 10
11.7680531022
 20
7.5908996923
 30
0.0
 10
11.7620118628
 20
7.5722139723
 30
0.0
 10
11.7568775085
 20
7.5532022191
 30
0.0
 10
11.75266141
 20
7.5339066471
 30
0.0
 10
11.74937294
 20
7.5143702417
 30
0.0
 10
11.747019204
 20
7.4946360773
 30
0.0
 10
11.7456056125
 20
7.4747487753
 30
0.0
 10
11.7452924093
 20
7.4614381496
 30
0.0
 10
11.7452924093
 20
7.4547731739
 30
0.0
  0
SPLINE
  5
3A2
100
AcDbEntity
  8
0
100
AcDbSpline
 62
7
  6
CONTINUOUS
 70
0
 71
3
 72
21
 73
17
 74
0
 42
0.0000001
 43
0.0000001
 44
0.0000000001
 40
0.0
 40
0.0
 40
0.0
 40
0.0
 40
0.0617147807
 40
0.1234506636
 40
0.1852285506
 40
0.2470689066
 40
0.3089915473
 40
0.3710154718
 40
0.4331586568
 40
0.495437856
 40
0.5578685007
 40
0.6204644957
 40
0.6832380523
 40
0.7462000242
 40
0.8726823632
 40
1.0
 40
1.0
 40
1.0
 40
1.0
 10
12.0147989092
 20
7.601823631
 30
0.0
 10
12.0122755841
 20
7.5993862862
 30
0.0
 10
12.0073526018
 20
7.5943799117
 30
0.0
 10
12.000362773
 20
7.58649915
 30
0.0
 10
11.9937822969
 20
7.5782639954
 30
0.0
 10
11.9876266585
 20
7.5696936641
 30
0.0
 10
11.9819099453
 20
7.5608078872
 30
0.0
 10
11.9766453246
 20
7.5516271957
 30
0.0
 10
11.9718449684
 20
7.5421727344
 30
0.0
 10
11.9675199188
 20
7.5324663291
 30
0.0
 10
11.9636800892
 20
7.5225303643
 30
0.0
 10
11.9603343611
 20
7.5123878123
 30
0.0
 10
11.9574904006
 20
7.5020617839
 30
0.0
 10
11.9543718391
 20
7.4880622944
 30
0.0
 10
11.9517626498
 20
7.4702151947
 30
0.0
 10
11.9510717804
 20
7.4557783173
 30
0.0
 10
11.9510717804
 20
7.4485407947
 30
0.0
  0
SPLINE
  5
3A3
100
AcDbEntity
  8
0
100
AcDbSpline
 62
7
  6
CONTINUOUS
 70
0
 71
3
 72
11
 73
7
 74
0
 42
0.0000001
 43
0.0000001
 44
0.0000000001
 40
0.0
 40
0.0
 40
0.0
 40
0.0
 40
0.2480712672
 40
0.497376656
 40
0.7480001115
 40
1.0
 40
1.0
 40
1.0
 40
1.0
 10
12.0996146768
 20
7.6511892723
 30
0.0
 10
12.0977319841
 20
7.6455970959
 30
0.0
 10
12.0944212744
 20
7.6342227573
 30
0.0
 10
12.0908625407
 20
7.6167710478
 30
0.0
 10
12.0887197605
 20
7.598995644
 30
0.0
 10
12.0882457611
 20
7.5870347294
 30
0.0
 10
12.0882457611
 20
7.5810406932
 30
0.0
  0
SPLINE
  5
3A4
100
AcDbEntity
  8
0
100
AcDbSpline
 62
7
  6
CONTINUOUS
 70
0
 71
3
 72
39
 73
35
 74
0
 42
0.0000001
 43
0.0000001
 44
0.0000000001
 40
0.0
 40
0.0
 40
0.0
 40
0.0
 40
0.0300579558
 40
0.0602193904
 40
0.0904942947
 40
0.1208907733
 40
0.1514149342
 40
0.1820708144
 40
0.2128603419
 40
0.2437833319
 40
0.2748375169
 40
0.306018608
 40
0.3373203846
 40
0.3687348101
 40
0.4002521715
 40
0.431861239
 40
0.4635494439
 40
0.495303072
 40
0.5271074678
 40
0.5589472494
 40
0.5908065305
 40
0.6226691474
 40
0.6545188886
 40
0.6863397253
 40
0.7181160398
 40
0.7498328507
 40
0.7814760317
 40
0.8130325172
 40
0.844490517
 40
0.8758396365
 40
0.907071254
 40
0.9381780525
 40
0.9691556946
 40
1.0
 40
1.0
 40
1.0
 40
1.0
 10
12.4029867546
 20
7.3864981801
 30
0.0
 10
12.3992659029
 20
7.3850186622
 30
0.0
 10
12.3917110941
 20
7.3823000839
 30
0.0
 10
12.3801168931
 20
7.3789681273
 30
0.0
 10
12.3682860238
 20
7.3763876668
 30
0.0
 10
12.3562657293
 20
7.374569053
 30
0.0
 10
12.3441031733
 20
7.3735192908
 30
0.0
 10
12.3318462808
 20
7.3732424486
 30
0.0
 10
12.3195432734
 20
7.3737395286
 30
0.0
 10
12.3072425544
 20
7.3750084977
 30
0.0
 10
12.2949925001
 20
7.377044289
 30
0.0
 10
12.2828412768
 20
7.3798388269
 30
0.0
 10
12.2708366513
 20
7.3833810593
 30
0.0
 10
12.2590258062
 20
7.3876570027
 30
0.0
 10
12.247455156
 20
7.3926497988
 30
0.0
 10
12.2361701652
 20
7.3983397763
 30
0.0
 10
12.2252151715
 20
7.404704532
 30
0.0
 10
12.2146332137
 20
7.4117190203
 30
0.0
 10
12.204465865
 20
7.4193556505
 30
0.0
 10
12.1947530703
 20
7.4275843953
 30
0.0
 10
12.1855329916
 20
7.4363729078
 30
0.0
 10
12.1768418586
 20
7.445686648
 30
0.0
 10
12.168713828
 20
7.455489017
 30
0.0
 10
12.1611808502
 20
7.4657414999
 30
0.0
 10
12.1542725448
 20
7.476403816
 30
0.0
 10
12.1480160802
 20
7.4874340733
 30
0.0
 10
12.1424360721
 20
7.4987889344
 30
0.0
 10
12.1375544821
 20
7.5104237867
 30
0.0
 10
12.1333905479
 20
7.5222929088
 30
0.0
 10
12.1299606644
 20
7.5343496786
 30
0.0
 10
12.1272784193
 20
7.5465466405
 30
0.0
 10
12.1253543371
 20
7.5588360806
 30
0.0
 10
12.1241961691
 20
7.5711689679
 30
0.0
 10
12.1239371213
 20
7.5794069355
 30
0.0
 10
12.1239371213
 20
7.5835159018
 30
0.0
  0
SPLINE
  5
3A5
100
AcDbEntity
  8
0
100
AcDbSpline
 62
7
  6
CONTINUOUS
 70
0
 71
3
 72
19
 73
15
 74
0
 42
0.0000001
 43
0.0000001
 44
0.0000000001
 40
0.0
 40
0.0
 40
0.0
 40
0.0
 40
0.1504602541
 40
0.2916987487
 40
0.4244197399
 40
0.4878838165
 40
0.5495801819
 40
0.6682271511
 40
0.7255606398
 40
0.7817998923
 40
0.8371467013
 40
0.8918136246
 40
0.9460221895
 40
1.0
 40
1.0
 40
1.0
 40
1.0
 10
12.864099842
 20
7.7385960184
 30
0.0
 10
12.862573217
 20
7.7371214118
 30
0.0
 10
12.8595220486
 20
7.7343546228
 30
0.0
 10
12.854797621
 20
7.7306675404
 30
0.0
 10
12.8508070806
 20
7.7280598396
 30
0.0
 10
12.8476248956
 20
7.7262939721
 30
0.0
 10
12.844536583
 20
7.7247779543
 30
0.0
 10
12.8414121177
 20
7.7235387308
 30
0.0
 10
12.8382700694
 20
7.7226062098
 30
0.0
 10
12.8359469221
 20
7.7220687121
 30
0.0
 10
12.833631513
 20
7.7216855923
 30
0.0
 10
12.8313244478
 20
7.7214570582
 30
0.0
 10
12.8290266596
 20
7.7213832213
 30
0.0
 10
12.8275000756
 20
7.7214372121
 30
0.0
 10
12.8267404466
 20
7.7214898882
 30
0.0
  0
SPLINE
  5
3A6
100
AcDbEntity
  8
0
100
AcDbSpline
 62
7
  6
CONTINUOUS
 70
0
 71
3
 72
83
 73
79
 74
0
 42
0.0000001
 43
0.0000001
 44
0.0000000001
 40
0.0
 40
0.0
 40
0.0
 40
0.0
 40
0.0039884097
 40
0.0081453951
 40
0.0124746186
 40
0.0169791614
 40
0.0216616097
 40
0.0265239718
 40
0.0315675691
 40
0.0367932644
 40
0.042201484
 40
0.0477922575
 40
0.0535653099
 40
0.0595199779
 40
0.0719697837
 40
0.0851316862
 40
0.098991495
 40
0.1135318501
 40
0.1287326108
 40
0.1445711562
 40
0.1610226585
 40
0.1780603021
 40
0.1956554688
 40
0.2137778955
 40
0.232395813
 40
0.2514760916
 40
0.2709843678
 40
0.29088516
 40
0.3111419767
 40
0.3317174197
 40
0.3525732979
 40
0.3736707312
 40
0.4164311769
 40
0.4596784221
 40
0.5030866968
 40
0.5463286871
 40
0.589078675
 40
0.6101689609
 40
0.6310164291
 40
0.6515822205
 40
0.6718281726
 40
0.6917169195
 40
0.7112119951
 40
0.730277944
 40
0.7488804433
 40
0.7669864122
 40
0.7845641338
 40
0.8015833871
 40
0.8180155988
 40
0.8338340188
 40
0.8490138961
 40
0.8635326921
 40
0.8773703389
 40
0.8905095606
 40
0.9029362808
 40
0.9146401102
 40
0.9202191733
 40
0.9256156542
 40
0.9308296162
 40
0.9358615409
 40
0.9407122971
 40
0.9453833039
 40
0.9498764865
 40
0.9541944013
 40
0.9583403271
 40
0.9623182846
 40
0.9661332455
 40
0.9697911516
 40
0.9732990923
 40
0.9766654451
 40
0.9798999492
 40
0.9830139088
 40
0.9860202118
 40
0.9889334125
 40
0.991769705
 40
0.9945467681
 40
0.997283572
 40
1.0
 40
1.0
 40
1.0
 40
1.0
 10
12.864099842
 20
7.7385960184
 30
0.0
 10
12.8651667307
 20
7.7396265539
 30
0.0
 10
12.8672993423
 20
7.741779508
 30
0.0
 10
12.8704313804
 20
7.7452035912
 30
0.0
 10
12.873560111
 20
7.748886401
 30
0.0
 10
12.8766838299
 20
7.7528259382
 30
0.0
 10
12.8798011005
 20
7.7570202612
 30
0.0
 10
12.8829103862
 20
7.7614673587
 30
0.0
 10
12.8860102242
 20
7.7661650143
 30
0.0
 10
12.8890990309
 20
7.7711109092
 30
0.0
 10
12.8921752677
 20
7.7763025764
 30
0.0
 10
12.8952374287
 20
7.7817374179
 30
0.0
 10
12.8982839633
 20
7.7874127538
 30
0.0
 10
12.9023841347
 20
7.7954158836
 30
0.0
 10
12.9074495293
 20
7.8060095025
 30
0.0
 10
12.9133549807
 20
7.8194514431
 30
0.0
 10
12.9191623708
 20
7.8337784539
 30
0.0
 10
12.9248599868
 20
7.848961872
 30
0.0
 10
12.9304363294
 20
7.8649714686
 30
0.0
 10
12.935880139
 20
7.8817752251
 30
0.0
 10
12.9411804163
 20
7.8993395022
 30
0.0
 10
12.9463264491
 20
7.9176290975
 30
0.0
 10
12.9513078362
 20
7.9366073293
 30
0.0
 10
12.9561145081
 20
7.9562361075
 30
0.0
 10
12.9607367602
 20
7.9764760119
 30
0.0
 10
12.965165259
 20
7.9972863801
 30
0.0
 10
12.9693910636
 20
8.0186253961
 30
0.0
 10
12.9734056417
 20
8.0404501737
 30
0.0
 10
12.9772008901
 20
8.062716844
 30
0.0
 10
12.9807691487
 20
8.085380629
 30
0.0
 10
12.9841032525
 20
8.1083959904
 30
0.0
 10
12.9882458201
 20
8.1396288962
 30
0.0
 10
12.9927850477
 20
8.1792066961
 30
0.0
 10
12.997181348
 20
8.2271404236
 30
0.0
 10
13.0005152739
 20
8.2753394084
 30
0.0
 10
13.0027599925
 20
8.3234161025
 30
0.0
 10
13.0037124703
 20
8.3632334675
 30
0.0
 10
13.0039087773
 20
8.3947296135
 30
0.0
 10
13.0037745313
 20
8.4179754548
 30
0.0
 10
13.003359858
 20
8.4409039128
 30
0.0
 10
13.0026655897
 20
8.4634689216
 30
0.0
 10
13.0016931551
 20
8.4856251017
 30
0.0
 10
13.0004445358
 20
8.5073279103
 30
0.0
 10
12.9989222735
 20
8.5285337204
 30
0.0
 10
12.9971294741
 20
8.5491999166
 30
0.0
 10
12.99506979
 20
8.5692849803
 30
0.0
 10
12.9927474145
 20
8.588748571
 30
0.0
 10
12.9901670725
 20
8.6075516101
 30
0.0
 10
12.9873340116
 20
8.6256563686
 30
0.0
 10
12.984254004
 20
8.6430265533
 30
0.0
 10
12.9809333195
 20
8.6596273812
 30
0.0
 10
12.9773787127
 20
8.6754256621
 30
0.0
 10
12.9735974039
 20
8.6903898468
 30
0.0
 10
12.9695970544
 20
8.7044902202
 30
0.0
 10
12.9653857531
 20
8.7176986239
 30
0.0
 10
12.9616503676
 20
8.728100596
 30
0.0
 10
12.9585532017
 20
8.735946655
 30
0.0
 10
12.9562200158
 20
8.7414978101
 30
0.0
 10
12.9538405512
 20
8.7468070937
 30
0.0
 10
12.9514160028
 20
8.7518718924
 30
0.0
 10
12.9489475148
 20
8.7566896711
 30
0.0
 10
12.946436353
 20
8.7612580676
 30
0.0
 10
12.9438837133
 20
8.7655748178
 30
0.0
 10
12.9412908157
 20
8.7696377865
 30
0.0
 10
12.9386589434
 20
8.7734450012
 30
0.0
 10
12.9359892649
 20
8.7769945475
 30
0.0
 10
12.9332830742
 20
8.7802847087
 30
0.0
 10
12.9305415659
 20
8.7833138278
 30
0.0
 10
12.9277659463
 20
8.7860803545
 30
0.0
 10
12.9249574741
 20
8.7885828923
 30
0.0
 10
12.9221172939
 20
8.7908200048
 30
0.0
 10
12.9192466935
 20
8.7927904519
 30
0.0
 10
12.9163469144
 20
8.794492949
 30
0.0
 10
12.9134192948
 20
8.7959262724
 30
0.0
 10
12.9104653589
 20
8.7970893596
 30
0.0
 10
12.9074865993
 20
8.7979810872
 30
0.0
 10
12.9044851673
 20
8.7986006742
 30
0.0
 10
12.9024670813
 20
8.7988322146
 30
0.0
 10
12.9014592374
 20
8.7989021029
 30
0.0
  0
SPLINE
  5
3A7
100
AcDbEntity
  8
0
100
AcDbSpline
 62
7
  6
CONTINUOUS
 70
0
 71
3
 72
34
 73
30
 74
0
 42
0.0000001
 43
0.0000001
 44
0.0000000001
 40
0.0
 40
0.0
 40
0.0
 40
0.0
 40
0.0454819432
 40
0.0915896814
 40
0.1383285958
 40
0.1858042167
 40
0.2099008658
 40
0.2342928072
 40
0.259042659
 40
0.2842265443
 40
0.3099334812
 40
0.336263423
 40
0.3633240734
 40
0.3912267856
 40
0.4200816202
 40
0.4499918599
 40
0.4810492113
 40
0.5133299333
 40
0.5468918514
 40
0.5817728156
 40
0.6179911331
 40
0.655546728
 40
0.6944230289
 40
0.7345899525
 40
0.7760067768
 40
0.8186248217
 40
0.8623903771
 40
0.9072466987
 40
1.0
 40
1.0
 40
1.0
 40
1.0
 10
9.8584772785
 20
8.1436050513
 30
0.0
 10
9.8580436312
 20
8.1454649736
 30
0.0
 10
9.8573055229
 20
8.1492436897
 30
0.0
 10
9.8566486534
 20
8.1550216496
 30
0.0
 10
9.8565086499
 20
8.160920774
 30
0.0
 10
9.856893256
 20
8.1658843492
 30
0.0
 10
9.8575426728
 20
8.1698632341
 30
0.0
 10
9.8582178577
 20
8.1728655206
 30
0.0
 10
9.8590908996
 20
8.1758640432
 30
0.0
 10
9.860173678
 20
8.1788523642
 30
0.0
 10
9.8614775445
 20
8.1818237965
 30
0.0
 10
9.8630129755
 20
8.1847717026
 30
0.0
 10
9.8647890319
 20
8.1876897316
 30
0.0
 10
9.8668131296
 20
8.1905720214
 30
0.0
 10
9.8690907699
 20
8.19341338
 30
0.0
 10
9.8716251216
 20
8.1962096428
 30
0.0
 10
9.8744169931
 20
8.1989577939
 30
0.0
 10
9.8774648684
 20
8.2016560082
 30
0.0
 10
9.8807648999
 20
8.2043037515
 30
0.0
 10
9.8843110121
 20
8.2069018627
 30
0.0
 10
9.8880952992
 20
8.2094523065
 30
0.0
 10
9.892108296
 20
8.2119580806
 30
0.0
 10
9.8963392515
 20
8.2144231761
 30
0.0
 10
9.9007765615
 20
8.216852291
 30
0.0
 10
9.9054081159
 20
8.2192506336
 30
0.0
 10
9.9102215592
 20
8.2216238414
 30
0.0
 10
9.9152045888
 20
8.2239777732
 30
0.0
 10
9.9221361889
 20
8.2271336465
 30
0.0
 10
9.9274367716
 20
8.2294353902
 30
0.0
 10
9.9310204847
 20
8.2309605425
 30
0.0
  0
SPLINE
  5
3A8
100
AcDbEntity
  8
0
100
AcDbSpline
 62
7
  6
CONTINUOUS
 70
0
 71
3
 72
11
 73
7
 74
0
 42
0.0000001
 43
0.0000001
 44
0.0000000001
 40
0.0
 40
0.0
 40
0.0
 40
0.0
 40
0.2332068294
 40
0.4775942891
 40
0.733195338
 40
1.0
 40
1.0
 40
1.0
 40
1.0
 10
9.9214963176
 20
8.1452452931
 30
0.0
 10
9.9223899452
 20
8.146530039
 30
0.0
 10
9.9241710655
 20
8.1491954537
 30
0.0
 10
9.9267682922
 20
8.1533752443
 30
0.0
 10
9.9293511764
 20
8.1578265503
 30
0.0
 10
9.9310262814
 20
8.1609066872
 30
0.0
 10
9.931862006
 20
8.1624901109
 30
0.0
  0
SPLINE
  5
3A9
100
AcDbEntity
  8
0
100
AcDbSpline
 62
7
  6
CONTINUOUS
 70
0
 71
3
 72
85
 73
81
 74
0
 42
0.0000001
 43
0.0000001
 44
0.0000000001
 40
0.0
 40
0.0
 40
0.0
 40
0.0
 40
0.004012513
 40
0.0078523456
 40
0.0115287779
 40
0.0150531128
 40
0.021697217
 40
0.0248549269
 40
0.0279271257
 40
0.0309354167
 40
0.0339030059
 40
0.0368541415
 40
0.0398135197
 40
0.0428056022
 40
0.0458540028
 40
0.048980907
 40
0.0522067156
 40
0.0555498018
 40
0.059026375
 40
0.0626506055
 40
0.0664346284
 40
0.0703887521
 40
0.0745216729
 40
0.0788405306
 40
0.0833512267
 40
0.0880584868
 40
0.09296599
 40
0.0980766046
 40
0.1033923295
 40
0.1089145145
 40
0.114643915
 40
0.1267237129
 40
0.1396284509
 40
0.1533474369
 40
0.1678645593
 40
0.1831591363
 40
0.1992065536
 40
0.2159787486
 40
0.2334445726
 40
0.2515701374
 40
0.2703191161
 40
0.2896529812
 40
0.3095311988
 40
0.3299114271
 40
0.350749726
 40
0.372000727
 40
0.3936177865
 40
0.4155531388
 40
0.4601821082
 40
0.5054903314
 40
0.5510714819
 40
0.596516078
 40
0.6414162201
 40
0.6635367594
 40
0.6853713737
 40
0.7068716608
 40
0.7279902207
 40
0.7486808072
 40
0.7688984932
 40
0.7885998646
 40
0.8077431776
 40
0.8262885365
 40
0.8441980972
 40
0.8614363267
 40
0.8779702408
 40
0.8937696789
 40
0.9088076495
 40
0.9230607873
 40
0.936509889
 40
0.9491405489
 40
0.955146369
 40
0.9609449001
 40
0.9665361066
 40
0.9719205425
 40
0.9770993016
 40
0.9820741634
 40
0.9868478304
 40
0.9914237646
 40
0.9958061393
 40
1.0
 40
1.0
 40
1.0
 40
1.0
 10
11.9906478821
 20
9.9827934274
 30
0.0
 10
11.991341641
 20
9.9834635471
 30
0.0
 10
11.9926681826
 20
9.9848077953
 30
0.0
 10
11.9945074284
 20
9.9868826262
 30
0.0
 10
11.9961500908
 20
9.9889695992
 30
0.0
 10
11.9980387395
 20
9.991711582
 30
0.0
 10
11.9995850652
 20
9.9945334848
 30
0.0
 10
12.0007304347
 20
9.9974117744
 30
0.0
 10
12.0013735008
 20
9.9995404267
 30
0.0
 10
12.0018139247
 20
10.0016734782
 30
0.0
 10
12.0020513104
 20
10.0038094278
 30
0.0
 10
12.002085222
 20
10.0059465518
 30
0.0
 10
12.0019156299
 20
10.0080830836
 30
0.0
 10
12.0015428396
 20
10.0102172976
 30
0.0
 10
12.0009672526
 20
10.0123475323
 30
0.0
 10
12.0001896743
 20
10.0144723108
 30
0.0
 10
11.9992109075
 20
10.0165902738
 30
0.0
 10
11.9980318445
 20
10.0187001629
 30
0.0
 10
11.9966535317
 20
10.0208008732
 30
0.0
 10
11.9950769118
 20
10.0228912461
 30
0.0
 10
11.9933030977
 20
10.0249702201
 30
0.0
 10
11.9913332271
 20
10.0270367173
 30
0.0
 10
11.9891684672
 20
10.0290895854
 30
0.0
 10
11.9868101711
 20
10.0311277705
 30
0.0
 10
11.9842597035
 20
10.0331501021
 30
0.0
 10
11.9815185754
 20
10.0351554412
 30
0.0
 10
11.9785884237
 20
10.0371426796
 30
0.0
 10
11.9754709441
 20
10.0391106098
 30
0.0
 10
11.9721680078
 20
10.0410581233
 30
0.0
 10
11.9686815578
 20
10.0429840876
 30
0.0
 10
11.9637027859
 20
10.045567404
 30
0.0
 10
11.9570257869
 20
10.0487251043
 30
0.0
 10
11.948453223
 20
10.052346453
 30
0.0
 10
11.9392047389
 20
10.0558552801
 30
0.0
 10
11.9293023883
 20
10.0592431454
 30
0.0
 10
11.9187696297
 20
10.0625018805
 30
0.0
 10
11.9076315866
 20
10.0656235917
 30
0.0
 10
11.8959148732
 20
10.0686007002
 30
0.0
 10
11.8836475573
 20
10.0714259859
 30
0.0
 10
11.870859068
 20
10.0740925972
 30
0.0
 10
11.8575801096
 20
10.0765940618
 30
0.0
 10
11.8438425835
 20
10.0789243032
 30
0.0
 10
11.8296795159
 20
10.0810776672
 30
0.0
 10
11.8151249752
 20
10.0830489392
 30
0.0
 10
11.8002139764
 20
10.0848333422
 30
0.0
 10
11.7849824059
 20
10.0864265402
 30
0.0
 10
11.7694668927
 20
10.087824694
 30
0.0
 10
11.748329877
 20
10.089433408
 30
0.0
 10
11.7214753317
 20
10.0909274524
 30
0.0
 10
11.6889094494
 20
10.091892726
 30
0.0
 10
11.6561333761
 20
10.0920309283
 30
0.0
 10
11.6234625413
 20
10.0913406681
 30
0.0
 10
11.5964537058
 20
10.0900746945
 30
0.0
 10
11.5751413621
 20
10.0886467207
 30
0.0
 10
11.5594572859
 20
10.0873805097
 30
0.0
 10
11.5440323223
 20
10.0859169508
 30
0.0
 10
11.5289035681
 20
10.0842595654
 30
0.0
 10
11.5141074448
 20
10.0824123736
 30
0.0
 10
11.4996795559
 20
10.0803798438
 30
0.0
 10
11.4856546073
 20
10.0781669127
 30
0.0
 10
11.4720663224
 20
10.0757789495
 30
0.0
 10
11.458947366
 20
10.0732217468
 30
0.0
 10
11.4463292581
 20
10.0705015009
 30
0.0
 10
11.434242283
 20
10.0676248194
 30
0.0
 10
11.4227154155
 20
10.0645986891
 30
0.0
 10
11.4117762451
 20
10.0614304524
 30
0.0
 10
11.4014509232
 20
10.0581277811
 30
0.0
 10
11.3917639828
 20
10.0546986645
 30
0.0
 10
11.3827385655
 20
10.0511513812
 30
0.0
 10
11.3756721666
 20
10.0480540753
 30
0.0
 10
11.3703742698
 20
10.0455164275
 30
0.0
 10
11.3666463689
 20
10.0436210254
 30
0.0
 10
11.3630992082
 20
10.0417025179
 30
0.0
 10
11.3597348825
 20
10.0397620664
 30
0.0
 10
11.3565553905
 20
10.0378008324
 30
0.0
 10
11.3535626153
 20
10.0358199102
 30
0.0
 10
11.3507582639
 20
10.0338204695
 30
0.0
 10
11.348144005
 20
10.0318035804
 30
0.0
 10
11.3457215377
 20
10.0297705819
 30
0.0
 10
11.3442026539
 20
10.0283752492
 30
0.0
 10
11.3434775402
 20
10.0276748431
 30
0.0
  0
SPLINE
  5
3AA
100
AcDbEntity
  8
0
100
AcDbSpline
 62
7
  6
CONTINUOUS
 70
0
 71
3
 72
13
 73
9
 74
0
 42
0.0000001
 43
0.0000001
 44
0.0000000001
 40
0.0
 40
0.0
 40
0.0
 40
0.0
 40
0.2524265341
 40
0.5031222414
 40
0.6278958685
 40
0.7522832234
 40
0.8763087221
 40
1.0
 40
1.0
 40
1.0
 40
1.0
 10
12.1239371213
 20
7.5835159018
 30
0.0
 10
12.1239371213
 20
7.5900625577
 30
0.0
 10
12.124591483
 20
7.6031202382
 30
0.0
 10
12.1270633166
 20
7.6192462493
 30
0.0
 10
12.1300162809
 20
7.6318742757
 30
0.0
 10
12.1327081452
 20
7.6411757555
 30
0.0
 10
12.1358733639
 20
7.6502968086
 30
0.0
 10
12.1382972559
 20
7.6562503385
 30
0.0
 10
12.1395851022
 20
7.6591884
 30
0.0
  0
SPLINE
  5
3AB
100
AcDbEntity
  8
0
100
AcDbSpline
 62
7
  6
CONTINUOUS
 70
0
 71
3
 72
29
 73
25
 74
0
 42
0.0000001
 43
0.0000001
 44
0.0000000001
 40
0.0
 40
0.0
 40
0.0
 40
0.0
 40
0.0755849261
 40
0.1466145423
 40
0.2134284043
 40
0.2764668694
 40
0.3362691012
 40
0.3651660615
 40
0.3935048179
 40
0.4213819954
 40
0.4488995596
 40
0.4761640064
 40
0.503285025
 40
0.5303741997
 40
0.5575435754
 40
0.5849040881
 40
0.6125642198
 40
0.6406286477
 40
0.6691970702
 40
0.7281928859
 40
0.7902532206
 40
0.8559467831
 40
0.9257384363
 40
1.0
 40
1.0
 40
1.0
 40
1.0
 10
12.9239872468
 20
7.674555408
 30
0.0
 10
12.9223140881
 20
7.6729392608
 30
0.0
 10
12.9189700547
 20
7.6699036678
 30
0.0
 10
12.9137948347
 20
7.6658483884
 30
0.0
 10
12.9086256059
 20
7.6624424678
 30
0.0
 10
12.9034676032
 20
7.6596912397
 30
0.0
 10
12.8991321342
 20
7.657928079
 30
0.0
 10
12.895688658
 20
7.656865055
 30
0.0
 10
12.8931425255
 20
7.6562425087
 30
0.0
 10
12.8906045389
 20
7.6557860449
 30
0.0
 10
12.8880753994
 20
7.6554958988
 30
0.0
 10
12.8855559332
 20
7.6553721916
 30
0.0
 10
12.88304695
 20
7.6554149929
 30
0.0
 10
12.8805492806
 20
7.6556243655
 30
0.0
 10
12.8780637545
 20
7.6560002079
 30
0.0
 10
12.8755911702
 20
7.6565423366
 30
0.0
 10
12.8731323394
 20
7.6572505518
 30
0.0
 10
12.8706879601
 20
7.6581246143
 30
0.0
 10
12.8674145256
 20
7.6595252698
 30
0.0
 10
12.8633490622
 20
7.6617107597
 30
0.0
 10
12.8585982189
 20
7.6649621819
 30
0.0
 10
12.8539256615
 20
7.6688650977
 30
0.0
 10
12.8493357003
 20
7.6734134787
 30
0.0
 10
12.8464266557
 20
7.6767647479
 30
0.0
 10
12.8449845748
 20
7.6785378708
 30
0.0
  0
SPLINE
  5
3AC
100
AcDbEntity
  8
0
100
AcDbSpline
 62
7
  6
CONTINUOUS
 70
0
 71
3
 72
71
 73
67
 74
0
 42
0.0000001
 43
0.0000001
 44
0.0000000001
 40
0.0
 40
0.0
 40
0.0
 40
0.0
 40
0.0156372144
 40
0.0313279867
 40
0.0470702679
 40
0.0628636332
 40
0.0787060872
 40
0.0945954853
 40
0.1105292301
 40
0.126504294
 40
0.1425172944
 40
0.1585645
 40
0.1746418765
 40
0.1907451246
 40
0.2068697166
 40
0.2230109357
 40
0.2391639199
 40
0.2553237064
 40
0.2714852731
 40
0.2876435808
 40
0.3037936184
 40
0.3199304487
 40
0.3360492499
 40
0.3521453562
 40
0.3682143007
 40
0.3842518582
 40
0.4002540821
 40
0.4162173394
 40
0.4321383462
 40
0.4480142032
 40
0.4638424239
 40
0.4796209581
 40
0.4953482159
 40
0.5110230902
 40
0.5266449706
 40
0.5422137525
 40
0.5577298421
 40
0.5731941614
 40
0.5886081442
 40
0.6039737249
 40
0.6192933226
 40
0.6345698233
 40
0.6498065561
 40
0.6650072607
 40
0.68017605
 40
0.6953173704
 40
0.7104359594
 40
0.7255367957
 40
0.7406250463
 40
0.7557060111
 40
0.7707850682
 40
0.7858676175
 40
0.8009590217
 40
0.8160645476
 40
0.8311893109
 40
0.8463382237
 40
0.8615159443
 40
0.8767268271
 40
0.8919748772
 40
0.9072637202
 40
0.9225965454
 40
0.9379761212
 40
0.9534047642
 40
0.9688839906
 40
0.9844159083
 40
1.0
 40
1.0
 40
1.0
 40
1.0
 10
9.9583295248
 20
8.1814372346
 30
0.0
 10
9.9583295248
 20
8.1867402675
 30
0.0
 10
9.9580682131
 20
8.1973663011
 30
0.0
 10
9.9568981587
 20
8.2132922398
 30
0.0
 10
9.954951965
 20
8.2291957521
 30
0.0
 10
9.9522345872
 20
8.2450378112
 30
0.0
 10
9.9487524303
 20
8.2607805884
 30
0.0
 10
9.9445139738
 20
8.2763860785
 30
0.0
 10
9.9395294644
 20
8.2918167434
 30
0.0
 10
9.9338109189
 20
8.3070354377
 30
0.0
 10
9.9273721102
 20
8.3220055211
 30
0.0
 10
9.9202285557
 20
8.3366909593
 30
0.0
 10
9.9123974931
 20
8.3510564177
 30
0.0
 10
9.9038977886
 20
8.3650673242
 30
0.0
 10
9.8947499003
 20
8.3786899505
 30
0.0
 10
9.8849758439
 20
8.3918914983
 30
0.0
 10
9.8745991773
 20
8.4046402102
 30
0.0
 10
9.8636448856
 20
8.4169054058
 30
0.0
 10
9.852139332
 20
8.4286575586
 30
0.0
 10
9.8401101927
 20
8.4398683591
 30
0.0
 10
9.827586439
 20
8.4505108353
 30
0.0
 10
9.8145982203
 20
8.4605593745
 30
0.0
 10
9.8011767929
 20
8.46998978
 30
0.0
 10
9.7873544431
 20
8.4787793179
 30
0.0
 10
9.7731644451
 20
8.4869068255
 30
0.0
 10
9.7586409599
 20
8.4943527406
 30
0.0
 10
9.7438189408
 20
8.5010991212
 30
0.0
 10
9.7287340535
 20
8.5071296854
 30
0.0
 10
9.7134226071
 20
8.5124298842
 30
0.0
 10
9.6979214675
 20
8.5169869567
 30
0.0
 10
9.6822679495
 20
8.5207899049
 30
0.0
 10
9.6664997357
 20
8.5238295277
 30
0.0
 10
9.6506547904
 20
8.5260984502
 30
0.0
 10
9.6347712742
 20
8.5275912021
 30
0.0
 10
9.6188874389
 20
8.5283041583
 30
0.0
 10
9.6030415418
 20
8.5282355571
 30
0.0
 10
9.5872717581
 20
8.5273854948
 30
0.0
 10
9.5716160844
 20
8.5257560025
 30
0.0
 10
9.5561122448
 20
8.5233509808
 30
0.0
 10
9.5407976049
 20
8.5201761842
 30
0.0
 10
9.5257090887
 20
8.5162391987
 30
0.0
 10
9.510883075
 20
8.5115494849
 30
0.0
 10
9.4963553069
 20
8.5061183361
 30
0.0
 10
9.4821608185
 20
8.499958815
 30
0.0
 10
9.4683338551
 20
8.4930857257
 30
0.0
 10
9.4549077779
 20
8.4855156087
 30
0.0
 10
9.441914962
 20
8.477266726
 30
0.0
 10
9.4293867491
 20
8.4683589576
 30
0.0
 10
9.4173533702
 20
8.4588137658
 30
0.0
 10
9.4058438731
 20
8.4486541471
 30
0.0
 10
9.3948860038
 20
8.4379046269
 30
0.0
 10
9.3845061854
 20
8.4265911394
 30
0.0
 10
9.3747294529
 20
8.4147409714
 30
0.0
 10
9.3655794035
 20
8.4023826934
 30
0.0
 10
9.3570780791
 20
8.3895461343
 30
0.0
 10
9.349245951
 20
8.3762622719
 30
0.0
 10
9.3421018862
 20
8.3625631496
 30
0.0
 10
9.3356631109
 20
8.3484818007
 30
0.0
 10
9.3299451178
 20
8.3340521922
 30
0.0
 10
9.3249616428
 20
8.3193091339
 30
0.0
 10
9.3207246553
 20
8.3042881773
 30
0.0
 10
9.317244346
 20
8.2890255068
 30
0.0
 10
9.3145291294
 20
8.2735580164
 30
0.0
 10
9.312585336
 20
8.2579226749
 30
0.0
 10
9.3114178477
 20
8.2421578818
 30
0.0
 10
9.3111591829
 20
8.2316036677
 30
0.0
 10
9.3111591829
 20
8.2263186503
 30
0.0
  0
SPLINE
  5
3AD
100
AcDbEntity
  8
0
100
AcDbSpline
 62
7
  6
CONTINUOUS
 70
0
 71
3
 72
95
 73
91
 74
0
 42
0.0000001
 43
0.0000001
 44
0.0000000001
 40
0.0
 40
0.0
 40
0.0
 40
0.0
 40
0.0039488186
 40
0.0077209214
 40
0.0113256445
 40
0.0147745623
 40
0.0212567379
 40
0.0243282751
 40
0.0273113629
 40
0.0302282336
 40
0.0331028199
 40
0.0359602143
 40
0.0388260038
 40
0.0417255309
 40
0.0446832014
 40
0.0477218699
 40
0.0508624604
 40
0.054123679
 40
0.0575219936
 40
0.0610716364
 40
0.0647847726
 40
0.0686716672
 40
0.0727408686
 40
0.0769994465
 40
0.0814531065
 40
0.0861064471
 40
0.0909629987
 40
0.0960254618
 40
0.1012957099
 40
0.1067749705
 40
0.1124638402
 40
0.1183623842
 40
0.1244701939
 40
0.1307863998
 40
0.1373097798
 40
0.1440387018
 40
0.1509712635
 40
0.165437612
 40
0.1806882179
 40
0.1966981085
 40
0.213438923
 40
0.2308792972
 40
0.2489851807
 40
0.267720107
 40
0.2870454315
 40
0.3069205425
 40
0.3273030537
 40
0.3481489841
 40
0.3694129279
 40
0.3910482169
 40
0.4130070784
 40
0.4352407884
 40
0.4576998231
 40
0.4803340076
 40
0.5030926647
 40
0.5259247619
 40
0.5487790575
 40
0.5716042467
 40
0.5943491077
 40
0.6169626475
 40
0.6393942481
 40
0.6615938139
 40
0.6835119196
 40
0.7050999601
 40
0.7263103021
 40
0.7470964384
 40
0.7674131453
 40
0.7872166469
 40
0.8064647855
 40
0.8251172028
 40
0.8431355353
 40
0.8604836278
 40
0.8771277739
 40
0.893036993
 40
0.9081833566
 40
0.9225423822
 40
0.9294203032
 40
0.9360940384
 40
0.9425617647
 40
0.9488219437
 40
0.9548734598
 40
0.9607155432
 40
0.9663479326
 40
0.9717708198
 40
0.9769849626
 40
0.9819917154
 40
0.9867932039
 40
0.9913924565
 40
0.9957932256
 40
1.0
 40
1.0
 40
1.0
 40
1.0
 10
12.9254591415
 20
8.838925957
 30
0.0
 10
12.9267011382
 20
8.840081832
 30
0.0
 10
12.9291840767
 20
8.8422844013
 30
0.0
 10
12.9329937457
 20
8.8453156732
 30
0.0
 10
12.9367999774
 20
8.8479950869
 30
0.0
 10
12.9417625033
 20
8.8510322516
 30
0.0
 10
12.9468255713
 20
8.8534544254
 30
0.0
 10
12.9519422523
 20
8.8551559402
 30
0.0
 10
12.9556974593
 20
8.8560494008
 30
0.0
 10
12.9594354071
 20
8.8565812489
 30
0.0
 10
12.9631534422
 20
8.856750689
 30
0.0
 10
12.9668484295
 20
8.856557276
 30
0.0
 10
12.970517216
 20
8.8560010638
 30
0.0
 10
12.9741567573
 20
8.8550828407
 30
0.0
 10
12.9777641981
 20
8.8538036535
 30
0.0
 10
12.9813370793
 20
8.8521651453
 30
0.0
 10
12.9848731369
 20
8.8501689096
 30
0.0
 10
12.9883704674
 20
8.8478168744
 30
0.0
 10
12.99182721
 20
8.8451108423
 30
0.0
 10
12.9952416771
 20
8.8420528003
 30
0.0
 10
12.9986121533
 20
8.8386447388
 30
0.0
 10
13.0019369277
 20
8.8348887763
 30
0.0
 10
13.0052143114
 20
8.8307871905
 30
0.0
 10
13.0084425072
 20
8.8263423673
 30
0.0
 10
13.0116198282
 20
8.8215569461
 30
0.0
 10
13.0147444243
 20
8.8164336761
 30
0.0
 10
13.0178146103
 20
8.810975586
 30
0.0
 10
13.0208285458
 20
8.8051858358
 30
0.0
 10
13.0237845458
 20
8.7990678458
 30
0.0
 10
13.0266808339
 20
8.7926251985
 30
0.0
 10
13.0295157285
 20
8.7858617021
 30
0.0
 10
13.0322875484
 20
8.7787813527
 30
0.0
 10
13.0349946272
 20
8.7713883421
 30
0.0
 10
13.03763539
 20
8.7636870624
 30
0.0
 10
13.0402082014
 20
8.7556820856
 30
0.0
 10
13.0427116092
 20
8.7473781708
 30
0.0
 10
13.04600158
 20
8.7357487183
 30
0.0
 10
13.049916511
 20
8.7204935395
 30
0.0
 10
13.0542506111
 20
8.7013282103
 30
0.0
 10
13.0582745725
 20
8.681098198
 30
0.0
 10
13.0619786545
 20
8.6598517804
 30
0.0
 10
13.0653538594
 20
8.6376395076
 30
0.0
 10
13.0683919944
 20
8.6145143703
 30
0.0
 10
13.0710856831
 20
8.5905315704
 30
0.0
 10
13.0734283853
 20
8.5657484029
 30
0.0
 10
13.0754144121
 20
8.5402241029
 30
0.0
 10
13.0770389384
 20
8.5140197002
 30
0.0
 10
13.0782980141
 20
8.4871978683
 30
0.0
 10
13.0791885722
 20
8.459822771
 30
0.0
 10
13.0797084358
 20
8.4319599064
 30
0.0
 10
13.0798563223
 20
8.4036759479
 30
0.0
 10
13.079631846
 20
8.3750385832
 30
0.0
 10
13.0790355184
 20
8.3461163507
 30
0.0
 10
13.078068748
 20
8.3169784748
 30
0.0
 10
13.076733835
 20
8.2876946981
 30
0.0
 10
13.0750339656
 20
8.2583351139
 30
0.0
 10
13.0729732045
 20
8.2289699975
 30
0.0
 10
13.0705564846
 20
8.1996696375
 30
0.0
 10
13.0677895957
 20
8.1705041663
 30
0.0
 10
13.06467917
 20
8.1415433925
 30
0.0
 10
13.061232667
 20
8.1128566323
 30
0.0
 10
13.0574583553
 20
8.0845125431
 30
0.0
 10
13.0533652931
 20
8.0565789579
 30
0.0
 10
13.048963308
 20
8.0291227209
 30
0.0
 10
13.0442629727
 20
8.0022095262
 30
0.0
 10
13.0392755801
 20
7.975903759
 30
0.0
 10
13.0340131166
 20
7.950268339
 30
0.0
 10
13.028488234
 20
7.9253645674
 30
0.0
 10
13.0227142191
 20
7.9012519766
 30
0.0
 10
13.0167049626
 20
7.8779881824
 30
0.0
 10
13.0104749257
 20
7.8556287422
 30
0.0
 10
13.0040391043
 20
7.8342270064
 30
0.0
 10
12.9974129914
 20
7.8138340059
 30
0.0
 10
12.9906125347
 20
7.7944982228
 30
0.0
 10
12.9836540982
 20
7.7762657745
 30
0.0
 10
12.9776547491
 20
7.7618273802
 30
0.0
 10
12.972779097
 20
7.7508706539
 30
0.0
 10
12.9691457837
 20
7.7430736661
 30
0.0
 10
12.9654855803
 20
7.7355835662
 30
0.0
 10
12.9618005818
 20
7.7284048194
 30
0.0
 10
12.95809306
 20
7.7215416709
 30
0.0
 10
12.9543651544
 20
7.7149982106
 30
0.0
 10
12.9506191301
 20
7.7087782884
 30
0.0
 10
12.9468571553
 20
7.7028855985
 30
0.0
 10
12.9430814848
 20
7.697323616
 30
0.0
 10
12.9392943309
 20
7.6920956058
 30
0.0
 10
12.9354978456
 20
7.6872046205
 30
0.0
 10
12.9316941613
 20
7.6826534483
 30
0.0
 10
12.9278856156
 20
7.6784450132
 30
0.0
 10
12.9252872833
 20
7.675811147
 30
0.0
 10
12.9239872468
 20
7.674555408
 30
0.0
  0
SPLINE
  5
3AE
100
AcDbEntity
  8
0
100
AcDbSpline
 62
7
  6
CONTINUOUS
 70
0
 71
3
 72
27
 73
23
 74
0
 42
0.0000001
 43
0.0000001
 44
0.0000000001
 40
0.0
 40
0.0
 40
0.0
 40
0.0
 40
0.0321989774
 40
0.0499651434
 40
0.0689592594
 40
0.0892391466
 40
0.1108366015
 40
0.13376137
 40
0.1580056327
 40
0.1835468465
 40
0.2103507479
 40
0.2383733291
 40
0.2675632261
 40
0.329208552
 40
0.3947860515
 40
0.4637585119
 40
0.5355859105
 40
0.6097467803
 40
0.6857532912
 40
0.7631591376
 40
0.8415622634
 40
1.0
 40
1.0
 40
1.0
 40
1.0
 10
9.7389415371
 20
8.1888511384
 30
0.0
 10
9.7389415715
 20
8.1896362803
 30
0.0
 10
9.7387870619
 20
8.1908566056
 30
0.0
 10
9.7383587638
 20
8.1924831329
 30
0.0
 10
9.7379004975
 20
8.1937979759
 30
0.0
 10
9.7373191787
 20
8.1951646099
 30
0.0
 10
9.7366182062
 20
8.1965816113
 30
0.0
 10
9.7358016022
 20
8.198046787
 30
0.0
 10
9.7348736319
 20
8.1995580473
 30
0.0
 10
9.7338389678
 20
8.2011132236
 30
0.0
 10
9.7327025323
 20
8.2027100931
 30
0.0
 10
9.7314695485
 20
8.2043464517
 30
0.0
 10
9.72967102
 20
8.206619411
 30
0.0
 10
9.7272118392
 20
8.2095359059
 30
0.0
 10
9.7240170184
 20
8.2130975009
 30
0.0
 10
9.7205707326
 20
8.216765038
 30
0.0
 10
9.7169157968
 20
8.2205224193
 30
0.0
 10
9.7130924239
 20
8.2243545164
 30
0.0
 10
9.7091376601
 20
8.2282472763
 30
0.0
 10
9.7050849664
 20
8.2321878154
 30
0.0
 10
9.6995708085
 20
8.2375085139
 30
0.0
 10
9.6954034283
 20
8.241506672
 30
0.0
 10
9.6926177317
 20
8.2441835011
 30
0.0
  0
SPLINE
  5
3AF
100
AcDbEntity
  8
0
100
AcDbSpline
 62
7
  6
CONTINUOUS
 70
0
 71
3
 72
23
 73
19
 74
0
 42
0.0000001
 43
0.0000001
 44
0.0000000001
 40
0.0
 40
0.0
 40
0.0
 40
0.0
 40
0.0637774716
 40
0.1273446947
 40
0.1907020108
 40
0.2538561385
 40
0.3168131788
 40
0.379582097
 40
0.4421733871
 40
0.5045993393
 40
0.5668738666
 40
0.62901238
 40
0.6910316508
 40
0.7529496465
 40
0.8147853569
 40
0.8765586065
 40
0.938289857
 40
1.0
 40
1.0
 40
1.0
 40
1.0
 10
9.1717884577
 20
8.2316968594
 30
0.0
 10
9.1717884577
 20
8.239025553
 30
0.0
 10
9.1721392215
 20
8.2536612647
 30
0.0
 10
9.1737224839
 20
8.2755258337
 30
0.0
 10
9.1763585649
 20
8.2972170369
 30
0.0
 10
9.1800412548
 20
8.318684067
 30
0.0
 10
9.184762246
 20
8.3398777526
 30
0.0
 10
9.1905106442
 20
8.360749134
 30
0.0
 10
9.1972732805
 20
8.3812501155
 30
0.0
 10
9.2050345966
 20
8.4013334155
 30
0.0
 10
9.2137767337
 20
8.4209527205
 30
0.0
 10
9.2234795701
 20
8.4400627796
 30
0.0
 10
9.2341207617
 20
8.4586195076
 30
0.0
 10
9.2456758094
 20
8.4765801031
 30
0.0
 10
9.2581180553
 20
8.4939030866
 30
0.0
 10
9.2714189612
 20
8.5105486282
 30
0.0
 10
9.2855473229
 20
8.5264778132
 30
0.0
 10
9.2954980292
 20
8.5365970621
 30
0.0
 10
9.3005983592
 20
8.5415236071
 30
0.0
  0
SPLINE
  5
3B0
100
AcDbEntity
  8
0
100
AcDbSpline
 62
7
  6
CONTINUOUS
 70
0
 71
3
 72
15
 73
11
 74
0
 42
0.0000001
 43
0.0000001
 44
0.0000000001
 40
0.0
 40
0.0
 40
0.0
 40
0.0
 40
0.126644156
 40
0.2527830585
 40
0.3784226916
 40
0.5035834272
 40
0.6282878703
 40
0.7525669187
 40
0.8764569134
 40
1.0
 40
1.0
 40
1.0
 40
1.0
 10
9.5188614445
 20
8.3729436408
 30
0.0
 10
9.5188614445
 20
8.3781886469
 30
0.0
 10
9.5191650854
 20
8.3886603482
 30
0.0
 10
9.5205363281
 20
8.4042813744
 30
0.0
 10
9.5228180153
 20
8.419734139
 30
0.0
 10
9.5260023872
 20
8.4349657029
 30
0.0
 10
9.5300788446
 20
8.4499248408
 30
0.0
 10
9.5350337305
 20
8.4645611263
 30
0.0
 10
9.5408500601
 20
8.4788244464
 30
0.0
 10
9.5452953662
 20
8.4880660181
 30
0.0
 10
9.5476540578
 20
8.4926064923
 30
0.0
  0
SPLINE
  5
3B1
100
AcDbEntity
  8
0
100
AcDbSpline
 62
4
  6
CONTINUOUS
 70
0
 71
3
 72
359
 73
355
 74
0
 42
0.0000001
 43
0.0000001
 44
0.0000000001
 40
0.0
 40
0.0
 40
0.0
 40
0.0
 40
0.015625
 40
0.0234375
 40
0.03125
 40
0.0390625
 40
0.04296875
 40
0.046875
 40
0.05078125
 40
0.0546875
 40
0.056640625
 40
0.05859375
 40
0.0595703125
 40
0.060546875
 40
0.0615234375
 40
0.0620117188
 40
0.0625
 40
0.0629882812
 40
0.0634765625
 40
0.064453125
 40
0.0654296875
 40
0.06640625
 40
0.068359375
 40
0.0703125
 40
0.07421875
 40
0.078125
 40
0.08203125
 40
0.0859375
 40
0.09375
 40
0.1015625
 40
0.10546875
 40
0.109375
 40
0.11328125
 40
0.1171875
 40
0.119140625
 40
0.12109375
 40
0.1220703125
 40
0.123046875
 40
0.1240234375
 40
0.1245117188
 40
0.125
 40
0.1254882812
 40
0.1259765625
 40
0.126953125
 40
0.1279296875
 40
0.12890625
 40
0.130859375
 40
0.1328125
 40
0.13671875
 40
0.140625
 40
0.14453125
 40
0.1484375
 40
0.15625
 40
0.1640625
 40
0.16796875
 40
0.171875
 40
0.17578125
 40
0.1796875
 40
0.181640625
 40
0.18359375
 40
0.1845703125
 40
0.185546875
 40
0.1865234375
 40
0.1870117188
 40
0.1875
 40
0.1879882812
 40
0.1884765625
 40
0.189453125
 40
0.1904296875
 40
0.19140625
 40
0.193359375
 40
0.1953125
 40
0.19921875
 40
0.203125
 40
0.20703125
 40
0.2109375
 40
0.21875
 40
0.2265625
 40
0.23046875
 40
0.234375
 40
0.23828125
 40
0.2421875
 40
0.244140625
 40
0.24609375
 40
0.2470703125
 40
0.248046875
 40
0.2490234375
 40
0.2495117188
 40
0.25
 40
0.2504882812
 40
0.2509765625
 40
0.251953125
 40
0.2529296875
 40
0.25390625
 40
0.255859375
 40
0.2578125
 40
0.26171875
 40
0.265625
 40
0.26953125
 40
0.2734375
 40
0.28125
 40
0.2890625
 40
0.29296875
 40
0.296875
 40
0.30078125
 40
0.3046875
 40
0.306640625
 40
0.30859375
 40
0.3095703125
 40
0.310546875
 40
0.3115234375
 40
0.3120117188
 40
0.3125
 40
0.3129882812
 40
0.3134765625
 40
0.314453125
 40
0.3154296875
 40
0.31640625
 40
0.318359375
 40
0.3203125
 40
0.32421875
 40
0.328125
 40
0.33203125
 40
0.3359375
 40
0.34375
 40
0.3515625
 40
0.35546875
 40
0.359375
 40
0.36328125
 40
0.3671875
 40
0.369140625
 40
0.37109375
 40
0.3720703125
 40
0.373046875
 40
0.3740234375
 40
0.3745117188
 40
0.375
 40
0.3754882812
 40
0.3759765625
 40
0.376953125
 40
0.3779296875
 40
0.37890625
 40
0.380859375
 40
0.3828125
 40
0.38671875
 40
0.390625
 40
0.39453125
 40
0.3984375
 40
0.40625
 40
0.4140625
 40
0.41796875
 40
0.421875
 40
0.42578125
 40
0.4296875
 40
0.431640625
 40
0.43359375
 40
0.4345703125
 40
0.435546875
 40
0.4365234375
 40
0.4370117188
 40
0.4375
 40
0.4379882812
 40
0.4384765625
 40
0.439453125
 40
0.4404296875
 40
0.44140625
 40
0.443359375
 40
0.4453125
 40
0.44921875
 40
0.453125
 40
0.45703125
 40
0.4609375
 40
0.46875
 40
0.4765625
 40
0.48046875
 40
0.484375
 40
0.48828125
 40
0.4921875
 40
0.494140625
 40
0.49609375
 40
0.4970703125
 40
0.498046875
 40
0.4990234375
 40
0.4995117188
 40
0.5
 40
0.5004882812
 40
0.5009765625
 40
0.501953125
 40
0.5029296875
 40
0.50390625
 40
0.505859375
 40
0.5078125
 40
0.51171875
 40
0.515625
 40
0.51953125
 40
0.5234375
 40
0.53125
 40
0.5390625
 40
0.54296875
 40
0.546875
 40
0.55078125
 40
0.5546875
 40
0.556640625
 40
0.55859375
 40
0.560546875
 40
0.5615234375
 40
0.5620117188
 40
0.5625
 40
0.5629882812
 40
0.5634765625
 40
0.564453125
 40
0.56640625
 40
0.568359375
 40
0.5703125
 40
0.57421875
 40
0.578125
 40
0.58203125
 40
0.5859375
 40
0.59375
 40
0.6015625
 40
0.60546875
 40
0.609375
 40
0.61328125
 40
0.6171875
 40
0.619140625
 40
0.62109375
 40
0.623046875
 40
0.6240234375
 40
0.6245117188
 40
0.625
 40
0.6254882812
 40
0.6259765625
 40
0.626953125
 40
0.62890625
 40
0.630859375
 40
0.6328125
 40
0.63671875
 40
0.640625
 40
0.64453125
 40
0.6484375
 40
0.65625
 40
0.6640625
 40
0.66796875
 40
0.671875
 40
0.67578125
 40
0.6796875
 40
0.681640625
 40
0.68359375
 40
0.685546875
 40
0.6865234375
 40
0.6870117188
 40
0.6875
 40
0.6879882812
 40
0.6884765625
 40
0.689453125
 40
0.69140625
 40
0.693359375
 40
0.6953125
 40
0.69921875
 40
0.703125
 40
0.70703125
 40
0.7109375
 40
0.71875
 40
0.7265625
 40
0.73046875
 40
0.734375
 40
0.73828125
 40
0.7421875
 40
0.744140625
 40
0.74609375
 40
0.748046875
 40
0.7490234375
 40
0.7495117188
 40
0.75
 40
0.7504882812
 40
0.7509765625
 40
0.751953125
 40
0.75390625
 40
0.755859375
 40
0.7578125
 40
0.76171875
 40
0.765625
 40
0.76953125
 40
0.7734375
 40
0.78125
 40
0.7890625
 40
0.79296875
 40
0.796875
 40
0.80078125
 40
0.8046875
 40
0.806640625
 40
0.80859375
 40
0.810546875
 40
0.8115234375
 40
0.8120117188
 40
0.8125
 40
0.8129882812
 40
0.8134765625
 40
0.814453125
 40
0.81640625
 40
0.818359375
 40
0.8203125
 40
0.82421875
 40
0.828125
 40
0.83203125
 40
0.8359375
 40
0.84375
 40
0.8515625
 40
0.85546875
 40
0.859375
 40
0.86328125
 40
0.8671875
 40
0.869140625
 40
0.87109375
 40
0.873046875
 40
0.8740234375
 40
0.8745117188
 40
0.875
 40
0.8754882812
 40
0.8759765625
 40
0.876953125
 40
0.87890625
 40
0.880859375
 40
0.8828125
 40
0.88671875
 40
0.890625
 40
0.89453125
 40
0.8984375
 40
0.90625
 40
0.9140625
 40
0.91796875
 40
0.921875
 40
0.92578125
 40
0.9296875
 40
0.931640625
 40
0.93359375
 40
0.935546875
 40
0.9365234375
 40
0.9370117188
 40
0.9375
 40
0.9379882812
 40
0.9384765625
 40
0.939453125
 40
0.94140625
 40
0.943359375
 40
0.9453125
 40
0.94921875
 40
0.953125
 40
0.95703125
 40
0.9609375
 40
0.96875
 40
0.9765625
 40
0.984375
 40
1.0
 40
1.0
 40
1.0
 40
1.0
 10
11.2002328131
 20
8.3228459724
 30
0.0
 10
11.203366
 20
8.3229358968
 30
0.0
 10
11.2080657804
 20
8.3230707834
 30
0.0
 10
11.2143321542
 20
8.3232506323
 30
0.0
 10
11.2190319346
 20
8.3233855188
 30
0.0
 10
11.2229484182
 20
8.3234979247
 30
0.0
 10
11.2260816053
 20
8.3235878482
 30
0.0
 10
11.2284314949
 20
8.3236552944
 30
0.0
 10
11.2307813871
 20
8.3237227271
 30
0.0
 10
11.2327396226
 20
8.3237789627
 30
0.0
 10
11.2343062291
 20
8.323823858
 30
0.0
 10
11.2352853168
 20
8.3238521295
 30
0.0
 10
11.2360686817
 20
8.3238742614
 30
0.0
 10
11.2366559459
 20
8.3238921891
 30
0.0
 10
11.2371461583
 20
8.323902902
 30
0.0
 10
11.2375364766
 20
8.3239209522
 30
0.0
 10
11.2378342748
 20
8.3239085865
 30
0.0
 10
11.2381127608
 20
8.3239950941
 30
0.0
 10
11.2384908215
 20
8.3240758998
 30
0.0
 10
11.2389610828
 20
8.3241887567
 30
0.0
 10
11.239526387
 20
8.3243191129
 30
0.0
 10
11.24027978
 20
8.3244946927
 30
0.0
 10
11.2412216398
 20
8.3247135609
 30
0.0
 10
11.2427285491
 20
8.325064089
 30
0.0
 10
11.2446122085
 20
8.3255021328
 30
0.0
 10
11.2468725901
 20
8.3260278352
 30
0.0
 10
11.2491329742
 20
8.3265535243
 30
0.0
 10
11.2521468188
 20
8.3272544478
 30
0.0
 10
11.255914125
 20
8.3281306004
 30
0.0
 10
11.2596814308
 20
8.3290067542
 30
0.0
 10
11.2626952759
 20
8.3297076758
 30
0.0
 10
11.2649556584
 20
8.3302333704
 30
0.0
 10
11.2672160461
 20
8.3307590522
 30
0.0
 10
11.2690996865
 20
8.3311971602
 30
0.0
 10
11.2706066345
 20
8.3315475575
 30
0.0
 10
11.2715483959
 20
8.3317667585
 30
0.0
 10
11.2723019909
 20
8.3319416552
 30
0.0
 10
11.272866678
 20
8.3320740984
 30
0.0
 10
11.2733388703
 20
8.3321804256
 30
0.0
 10
11.2737129914
 20
8.332274553
 30
0.0
 10
11.2740035085
 20
8.3323203771
 30
0.0
 10
11.2742561368
 20
8.3324607541
 30
0.0
 10
11.2746062095
 20
8.3326148949
 30
0.0
 10
11.2750392596
 20
8.3328189029
 30
0.0
 10
11.2755608633
 20
8.333058862
 30
0.0
 10
11.2762556561
 20
8.3333805016
 30
0.0
 10
11.2771243795
 20
8.333781971
 30
0.0
 10
11.278514207
 20
8.3344246463
 30
0.0
 10
11.280251536
 20
8.3352278792
 30
0.0
 10
11.2823363117
 20
8.3361918063
 30
0.0
 10
11.2844210925
 20
8.3371557207
 30
0.0
 10
11.2872007984
 20
8.3384409444
 30
0.0
 10
11.2906754314
 20
8.3400474722
 30
0.0
 10
11.294150064
 20
8.3416540012
 30
0.0
 10
11.2969297707
 20
8.3429392231
 30
0.0
 10
11.2990145491
 20
8.3439031428
 30
0.0
 10
11.301099334
 20
8.34486705
 30
0.0
 10
11.3028366343
 20
8.345670345
 30
0.0
 10
11.3042265202
 20
8.3463128937
 30
0.0
 10
11.3050950949
 20
8.3467146852
 30
0.0
 10
11.305790193
 20
8.3470356638
 30
0.0
 10
11.3063108639
 20
8.3472776423
 30
0.0
 10
11.3067468325
 20
8.3474753319
 30
0.0
 10
11.3070909508
 20
8.3476423634
 30
0.0
 10
11.3073617637
 20
8.3477433731
 30
0.0
 10
11.3075840084
 20
8.3479369982
 30
0.0
 10
11.3078973002
 20
8.3481628133
 30
0.0
 10
11.3082830942
 20
8.3484561818
 30
0.0
 10
11.3087485384
 20
8.348803473
 30
0.0
 10
11.3093682606
 20
8.3492681874
 30
0.0
 10
11.3101432112
 20
8.3498485121
 30
0.0
 10
11.3113829656
 20
8.3507773493
 30
0.0
 10
11.3129327158
 20
8.3519382869
 30
0.0
 10
11.3147923915
 20
8.3533314586
 30
0.0
 10
11.3166520738
 20
8.3547246179
 30
0.0
 10
11.3191316479
 20
8.3565821679
 30
0.0
 10
11.3222311164
 20
8.3589041039
 30
0.0
 10
11.3253305842
 20
8.3612260408
 30
0.0
 10
11.3278101595
 20
8.3630835893
 30
0.0
 10
11.3296698382
 20
8.3644767532
 30
0.0
 10
11.3315295274
 20
8.3658699075
 30
0.0
 10
11.3330792357
 20
8.3670308992
 30
0.0
 10
11.3343190756
 20
8.367959626
 30
0.0
 10
11.3350938086
 20
8.3685402317
 30
0.0
 10
11.3357139773
 20
8.3690043695
 30
0.0
 10
11.3361780572
 20
8.3693534222
 30
0.0
 10
11.33656812
 20
8.3696412792
 30
0.0
 10
11.3368727026
 20
8.3698783388
 30
0.0
 10
11.3371215447
 20
8.3700376238
 30
0.0
 10
11.3372925002
 20
8.3702675605
 30
0.0
 10
11.3375476477
 20
8.3705494632
 30
0.0
 10
11.3378572475
 20
8.370910309
 30
0.0
 10
11.3382327628
 20
8.3713396996
 30
0.0
 10
11.3387320543
 20
8.3719134864
 30
0.0
 10
11.3393566465
 20
8.3726302864
 30
0.0
 10
11.340355727
 20
8.3737774086
 30
0.0
 10
11.3416046692
 20
8.3752112283
 30
0.0
 10
11.3431033606
 20
8.3769318475
 30
0.0
 10
11.3446020625
 20
8.3786524572
 30
0.0
 10
11.3466003281
 20
8.3809466068
 30
0.0
 10
11.3490981614
 20
8.3838142925
 30
0.0
 10
11.3515959937
 20
8.3866819791
 30
0.0
 10
11.3535942608
 20
8.3889761274
 30
0.0
 10
11.3550929581
 20
8.3906967408
 30
0.0
 10
11.3565916666
 20
8.392417346
 30
0.0
 10
11.3578405556
 20
8.3938512094
 30
0.0
 10
11.3588397446
 20
8.3949982426
 30
0.0
 10
11.3594640607
 20
8.3957152691
 30
0.0
 10
11.359963919
 20
8.3962885908
 30
0.0
 10
11.3603377025
 20
8.3967194023
 30
0.0
 10
11.3606527208
 20
8.3970758025
 30
0.0
 10
11.3608968137
 20
8.3973667751
 30
0.0
 10
11.3611015292
 20
8.3975690128
 30
0.0
 10
11.3612236221
 20
8.3978322914
 30
0.0
 10
11.3614152737
 20
8.3981620072
 30
0.0
 10
11.3616449361
 20
8.3985814676
 30
0.0
 10
11.3619247695
 20
8.3990816887
 30
0.0
 10
11.3622964002
 20
8.3997497439
 30
0.0
 10
11.3627614455
 20
8.4005844384
 30
0.0
 10
11.3635052346
 20
8.401920159
 30
0.0
 10
11.3644350683
 20
8.4035897378
 30
0.0
 10
11.365550827
 20
8.4055932632
 30
0.0
 10
11.3666665968
 20
8.4075967803
 30
0.0
 10
11.3681542861
 20
8.4102681394
 30
0.0
 10
11.3700138991
 20
8.4136073372
 30
0.0
 10
11.3718735111
 20
8.4169465357
 30
0.0
 10
11.373361202
 20
8.4196178938
 30
0.0
 10
11.3744769669
 20
8.4216214139
 30
0.0
 10
11.3755927442
 20
8.4236249281
 30
0.0
 10
11.3765225201
 20
8.4252945419
 30
0.0
 10
11.3772664271
 20
8.426630191
 30
0.0
 10
11.3777311723
 20
8.4274650673
 30
0.0
 10
11.378103419
 20
8.4281327495
 30
0.0
 10
11.3783813705
 20
8.4286341101
 30
0.0
 10
11.3786169208
 20
8.4290500051
 30
0.0
 10
11.3787965601
 20
8.4293869949
 30
0.0
 10
11.3789553378
 20
8.4296280592
 30
0.0
 10
11.379022323
 20
8.4299136989
 30
0.0
 10
11.379143701
 20
8.430278981
 30
0.0
 10
11.3792844223
 20
8.4307409259
 30
0.0
 10
11.3794579967
 20
8.4312929731
 30
0.0
 10
11.3796877846
 20
8.4320298348
 30
0.0
 10
11.3799755825
 20
8.4329506383
 30
0.0
 10
11.3804357446
 20
8.4344240769
 30
0.0
 10
11.3810110551
 20
8.4362658227
 30
0.0
 10
11.3817013814
 20
8.4384759401
 30
0.0
 10
11.3823917201
 20
8.4406860515
 30
0.0
 10
11.3833121674
 20
8.4436328688
 30
0.0
 10
11.3844627281
 20
8.4473163897
 30
0.0
 10
11.3856132877
 20
8.450999911
 30
0.0
 10
11.3865337367
 20
8.4539467276
 30
0.0
 10
11.38722407
 20
8.4561568412
 30
0.0
 10
11.3879144165
 20
8.4583669501
 30
0.0
 10
11.3884896643
 20
8.4602087224
 30
0.0
 10
11.3889499543
 20
8.4616821069
 30
0.0
 10
11.3892374266
 20
8.4626030483
 30
0.0
 10
11.3894678828
 20
8.463339627
 30
0.0
 10
11.3896394154
 20
8.4638925385
 30
0.0
 10
11.3897865251
 20
8.4643517794
 30
0.0
 10
11.3898948695
 20
8.4647225781
 30
0.0
 10
11.3900016583
 20
8.4649913707
 30
0.0
 10
11.390010997
 20
8.4652956858
 30
0.0
 10
11.3900574892
 20
8.4656890309
 30
0.0
 10
11.3901039253
 20
8.4661849695
 30
0.0
 10
11.3901646477
 20
8.4667782736
 30
0.0
 10
11.3902438647
 20
8.4675699823
 30
0.0
 10
11.3903434839
 20
8.4685594001
 30
0.0
 10
11.3905025405
 20
8.4701425905
 30
0.0
 10
11.3907014759
 20
8.4721215366
 30
0.0
 10
11.3909401492
 20
8.4744962899
 30
0.0
 10
11.3911788357
 20
8.4768710384
 30
0.0
 10
11.3914970797
 20
8.4800373714
 30
0.0
 10
11.3918948864
 20
8.483995287
 30
0.0
 10
11.392292692
 20
8.4879532029
 30
0.0
 10
11.3926109379
 20
8.4911195356
 30
0.0
 10
11.3928496187
 20
8.493494285
 30
0.0
 10
11.3930883132
 20
8.4958690347
 30
0.0
 10
11.3932871827
 20
8.497847992
 30
0.0
 10
11.3934463736
 20
8.4994311596
 30
0.0
 10
11.393545651
 20
8.5004206353
 30
0.0
 10
11.3936255697
 20
8.5012122252
 30
0.0
 10
11.3936841486
 20
8.5018058919
 30
0.0
 10
11.3937372911
 20
8.5023006961
 30
0.0
 10
11.393770101
 20
8.5026963557
 30
0.0
 10
11.3938212246
 20
8.5029936024
 30
0.0
 10
11.3937711353
 20
8.503288933
 30
0.0
 10
11.3937397046
 20
8.5036833765
 30
0.0
 10
11.3936882861
 20
8.5041762012
 30
0.0
 10
11.3936317759
 20
8.5047676892
 30
0.0
 10
11.3935546156
 20
8.5055563054
 30
0.0
 10
11.3934587861
 20
8.5065420875
 30
0.0
 10
11.3933051118
 20
8.5081193323
 30
0.0
 10
11.3931131381
 20
8.5100908905
 30
0.0
 10
11.3928827185
 20
8.5124567594
 30
0.0
 10
11.3926523126
 20
8.5148226285
 30
0.0
 10
11.3923451001
 20
8.5179771206
 30
0.0
 10
11.3919610855
 20
8.5219202357
 30
0.0
 10
11.3915770725
 20
8.5258633511
 30
0.0
 10
11.3912698574
 20
8.5290178428
 30
0.0
 10
11.391039459
 20
8.5313837132
 30
0.0
 10
11.3908090117
 20
8.5337495773
 30
0.0
 10
11.3906171242
 20
8.5357211503
 30
0.0
 10
11.3904632741
 20
8.5372983649
 30
0.0
 10
11.3903488156
 20
8.5384813954
 30
0.0
 10
11.3902504783
 20
8.539466874
 30
0.0
 10
11.3901874418
 20
8.5401574551
 30
0.0
 10
11.3901423652
 20
8.5405509079
 30
0.0
 10
11.390134068
 20
8.5408492794
 30
0.0
 10
11.3900282579
 20
8.5411351055
 30
0.0
 10
11.3899211913
 20
8.5415205829
 30
0.0
 10
11.3897179773
 20
8.5421931294
 30
0.0
 10
11.3894359569
 20
8.5431549762
 30
0.0
 10
11.3890939859
 20
8.5443087361
 30
0.0
 10
11.3886392635
 20
8.545847242
 30
0.0
 10
11.3880704353
 20
8.5477703196
 30
0.0
 10
11.3873880238
 20
8.5500780362
 30
0.0
 10
11.3867055635
 20
8.5523857466
 30
0.0
 10
11.3857956335
 20
8.5554626959
 30
0.0
 10
11.3846582146
 20
8.5593088817
 30
0.0
 10
11.3835207999
 20
8.5631550684
 30
0.0
 10
11.3826108633
 20
8.5662320162
 30
0.0
 10
11.381928423
 20
8.5685397312
 30
0.0
 10
11.3812459366
 20
8.5708474304
 30
0.0
 10
11.3806773411
 20
8.5727705622
 30
0.0
 10
11.3802221442
 20
8.5743089577
 30
0.0
 10
11.3798816222
 20
8.5754630546
 30
0.0
 10
11.3795950685
 20
8.5764238471
 30
0.0
 10
11.3793999471
 20
8.5770982757
 30
0.0
 10
11.3792799142
 20
8.5774807375
 30
0.0
 10
11.3792139327
 20
8.5777758264
 30
0.0
 10
11.3790560458
 20
8.5780394083
 30
0.0
 10
11.3788775876
 20
8.5784018408
 30
0.0
 10
11.3785503494
 20
8.5790309772
 30
0.0
 10
11.3780906752
 20
8.5799324205
 30
0.0
 10
11.3775357236
 20
8.5810130066
 30
0.0
 10
11.3767969558
 20
8.5824541883
 30
0.0
 10
11.3758730954
 20
8.5842555282
 30
0.0
 10
11.3747646346
 20
8.5864171948
 30
0.0
 10
11.3736561279
 20
8.5885788457
 30
0.0
 10
11.3721781351
 20
8.5914610525
 30
0.0
 10
11.3703306381
 20
8.5950638088
 30
0.0
 10
11.368483145
 20
8.5986665668
 30
0.0
 10
11.3670051458
 20
8.6015487709
 30
0.0
 10
11.3658966582
 20
8.6037104296
 30
0.0
 10
11.3647881259
 20
8.6058720671
 30
0.0
 10
11.363864488
 20
8.6076734977
 30
0.0
 10
11.3631252665
 20
8.6091144944
 30
0.0
 10
11.3625717005
 20
8.6101956456
 30
0.0
 10
11.3621076913
 20
8.6110953209
 30
0.0
 10
11.3617881918
 20
8.6117276135
 30
0.0
 10
11.3615973343
 20
8.6120849889
 30
0.0
 10
11.3614775339
 20
8.6123641046
 30
0.0
 10
11.3612685057
 20
8.6126008508
 30
0.0
 10
11.3610209252
 20
8.6129312913
 30
0.0
 10
11.3605731581
 20
8.6135026765
 30
0.0
 10
11.3599410723
 20
8.6143225409
 30
0.0
 10
11.3591793241
 20
8.6153048373
 30
0.0
 10
11.3581647935
 20
8.6166151042
 30
0.0
 10
11.3568962412
 20
8.618252753
 30
0.0
 10
11.3553741453
 20
8.6202180108
 30
0.0
 10
11.3538520047
 20
8.6221832474
 30
0.0
 10
11.3518224996
 20
8.6248035704
 30
0.0
 10
11.3492856124
 20
8.6280789711
 30
0.0
 10
11.3467487286
 20
8.6313543743
 30
0.0
 10
11.3447192181
 20
8.6339746932
 30
0.0
 10
11.3431970938
 20
8.635939942
 30
0.0
 10
11.3416749368
 20
8.6379051541
 30
0.0
 10
11.3404065743
 20
8.639542945
 30
0.0
 10
11.3393916568
 20
8.640852922
 30
0.0
 10
11.3386310902
 20
8.6418361036
 30
0.0
 10
11.3379953076
 20
8.6426531987
 30
0.0
 10
11.3375541398
 20
8.6432295276
 30
0.0
 10
11.3372959856
 20
8.643552047
 30
0.0
 10
11.3371194363
 20
8.6438131244
 30
0.0
 10
11.3368776508
 20
8.6440008562
 30
0.0
 10
11.3365780253
 20
8.6442767491
 30
0.0
 10
11.3360430787
 20
8.6447476416
 30
0.0
 10
11.3352844121
 20
8.6454265772
 30
0.0
 10
11.3343716397
 20
8.6462386323
 30
0.0
 10
11.3331554385
 20
8.6473223044
 30
0.0
 10
11.3316349026
 20
8.6486765746
 30
0.0
 10
11.3298103815
 20
8.6503018361
 30
0.0
 10
11.3279858278
 20
8.6519270608
 30
0.0
 10
11.3255531009
 20
8.65409404
 30
0.0
 10
11.322512188
 20
8.6568027591
 30
0.0
 10
11.3194712778
 20
8.6595114816
 30
0.0
 10
11.3170385467
 20
8.6616784554
 30
0.0
 10
11.3152140057
 20
8.6633036961
 30
0.0
 10
11.313389437
 20
8.6649288975
 30
0.0
 10
11.3118690492
 20
8.6662833546
 30
0.0
 10
11.3106525461
 20
8.6673666456
 30
0.0
 10
11.3097406956
 20
8.6681798644
 30
0.0
 10
11.3089791443
 20
8.6688551594
 30
0.0
 10
11.3084493474
 20
8.6693325509
 30
0.0
 10
11.3081414708
 20
8.6695980309
 30
0.0
 10
11.3079250301
 20
8.6698177477
 30
0.0
 10
11.3076532902
 20
8.6699586947
 30
0.0
 10
11.3073102594
 20
8.6701740998
 30
0.0
 10
11.3067009684
 20
8.6705382573
 30
0.0
 10
11.3058352511
 20
8.6710651751
 30
0.0
 10
11.3047943793
 20
8.6716946117
 30
0.0
 10
11.3034072527
 20
8.6725348612
 30
0.0
 10
11.3016731035
 20
8.6735848296
 30
0.0
 10
11.2995922277
 20
8.674844939
 30
0.0
 10
11.2975113242
 20
8.676105009
 30
0.0
 10
11.294736796
 20
8.6777851161
 30
0.0
 10
11.2912686321
 20
8.6798852447
 30
0.0
 10
11.2878004704
 20
8.6819853771
 30
0.0
 10
11.2850259388
 20
8.6836654783
 30
0.0
 10
11.2829450452
 20
8.6849255659
 30
0.0
 10
11.2808641325
 20
8.686185609
 30
0.0
 10
11.2791300981
 20
8.6872357837
 30
0.0
 10
11.2777427373
 20
8.6880756126
 30
0.0
 10
11.2767025807
 20
8.6887063335
 30
0.0
 10
11.2758346258
 20
8.6892292332
 30
0.0
 10
11.2752293294
 20
8.6896005636
 30
0.0
 10
11.2748798981
 20
8.6898044759
 30
0.0
 10
11.2746278184
 20
8.6899807254
 30
0.0
 10
11.2743375375
 20
8.6900678516
 30
0.0
 10
11.2739638212
 20
8.6902151072
 30
0.0
 10
11.2733036094
 20
8.6904583202
 30
0.0
 10
11.2723636955
 20
8.6908133398
 30
0.0
 10
11.2712344094
 20
8.6912361221
 30
0.0
 10
11.26972918
 20
8.6918009641
 30
0.0
 10
11.2678474767
 20
8.692506628
 30
0.0
 10
11.2655895042
 20
8.6933535913
 30
0.0
 10
11.2633315125
 20
8.6942005099
 30
0.0
 10
11.2603208637
 20
8.6953297505
 30
0.0
 10
11.2565575502
 20
8.6967412953
 30
0.0
 10
11.2527942381
 20
8.6981528442
 30
0.0
 10
11.2497835869
 20
8.6992820782
 30
0.0
 10
11.2475256023
 20
8.7001290164
 30
0.0
 10
11.2452676033
 20
8.7009759068
 30
0.0
 10
11.2433859823
 20
8.7016817974
 30
0.0
 10
11.2418805852
 20
8.702246177
 30
0.0
 10
11.2407518113
 20
8.7026703711
 30
0.0
 10
11.2398102949
 20
8.7030209738
 30
0.0
 10
11.2391529438
 20
8.7032720718
 30
0.0
 10
11.2387746439
 20
8.7034066936
 30
0.0
 10
11.2384984424
 20
8.7035326265
 30
0.0
 10
11.2381934826
 20
8.7035631248
 30
0.0
 10
11.2377969006
 20
8.7036370778
 30
0.0
 10
11.2370982085
 20
8.7037509858
 30
0.0
 10
11.2361025204
 20
8.7039218203
 30
0.0
 10
11.2349066487
 20
8.7041233509
 30
0.0
 10
11.2333125185
 20
8.7043932707
 30
0.0
 10
11.2313197304
 20
8.7047302544
 30
0.0
 10
11.2289284385
 20
8.7051348132
 30
0.0
 10
11.2265371321
 20
8.7055393244
 30
0.0
 10
11.2233487287
 20
8.7060786892
 30
0.0
 10
11.2193632226
 20
8.7067528895
 30
0.0
 10
11.2145806161
 20
8.7075619323
 30
0.0
 10
11.2082038072
 20
8.7086406552
 30
0.0
 10
11.2034212006
 20
8.7094496975
 30
0.0
 10
11.2002327961
 20
8.7099890591
 30
0.0
  0
SPLINE
  5
3B2
100
AcDbEntity
  8
0
100
AcDbSpline
 62
4
  6
CONTINUOUS
 70
0
 71
3
 72
359
 73
355
 74
0
 42
0.0000001
 43
0.0000001
 44
0.0000000001
 40
0.0
 40
0.0
 40
0.0
 40
0.0
 40
0.015625
 40
0.0234375
 40
0.03125
 40
0.0390625
 40
0.04296875
 40
0.046875
 40
0.05078125
 40
0.0546875
 40
0.056640625
 40
0.05859375
 40
0.0595703125
 40
0.060546875
 40
0.0615234375
 40
0.0620117188
 40
0.0625
 40
0.0629882812
 40
0.0634765625
 40
0.064453125
 40
0.0654296875
 40
0.06640625
 40
0.068359375
 40
0.0703125
 40
0.07421875
 40
0.078125
 40
0.08203125
 40
0.0859375
 40
0.09375
 40
0.1015625
 40
0.10546875
 40
0.109375
 40
0.11328125
 40
0.1171875
 40
0.119140625
 40
0.12109375
 40
0.1220703125
 40
0.123046875
 40
0.1240234375
 40
0.1245117188
 40
0.125
 40
0.1254882812
 40
0.1259765625
 40
0.126953125
 40
0.1279296875
 40
0.12890625
 40
0.130859375
 40
0.1328125
 40
0.13671875
 40
0.140625
 40
0.14453125
 40
0.1484375
 40
0.15625
 40
0.1640625
 40
0.16796875
 40
0.171875
 40
0.17578125
 40
0.1796875
 40
0.181640625
 40
0.18359375
 40
0.1845703125
 40
0.185546875
 40
0.1865234375
 40
0.1870117188
 40
0.1875
 40
0.1879882812
 40
0.1884765625
 40
0.189453125
 40
0.1904296875
 40
0.19140625
 40
0.193359375
 40
0.1953125
 40
0.19921875
 40
0.203125
 40
0.20703125
 40
0.2109375
 40
0.21875
 40
0.2265625
 40
0.23046875
 40
0.234375
 40
0.23828125
 40
0.2421875
 40
0.244140625
 40
0.24609375
 40
0.2470703125
 40
0.248046875
 40
0.2490234375
 40
0.2495117188
 40
0.25
 40
0.2504882812
 40
0.2509765625
 40
0.251953125
 40
0.2529296875
 40
0.25390625
 40
0.255859375
 40
0.2578125
 40
0.26171875
 40
0.265625
 40
0.26953125
 40
0.2734375
 40
0.28125
 40
0.2890625
 40
0.29296875
 40
0.296875
 40
0.30078125
 40
0.3046875
 40
0.306640625
 40
0.30859375
 40
0.3095703125
 40
0.310546875
 40
0.3115234375
 40
0.3120117188
 40
0.3125
 40
0.3129882812
 40
0.3134765625
 40
0.314453125
 40
0.3154296875
 40
0.31640625
 40
0.318359375
 40
0.3203125
 40
0.32421875
 40
0.328125
 40
0.33203125
 40
0.3359375
 40
0.34375
 40
0.3515625
 40
0.35546875
 40
0.359375
 40
0.36328125
 40
0.3671875
 40
0.369140625
 40
0.37109375
 40
0.3720703125
 40
0.373046875
 40
0.3740234375
 40
0.3745117188
 40
0.375
 40
0.3754882812
 40
0.3759765625
 40
0.376953125
 40
0.3779296875
 40
0.37890625
 40
0.380859375
 40
0.3828125
 40
0.38671875
 40
0.390625
 40
0.39453125
 40
0.3984375
 40
0.40625
 40
0.4140625
 40
0.41796875
 40
0.421875
 40
0.42578125
 40
0.4296875
 40
0.431640625
 40
0.43359375
 40
0.4345703125
 40
0.435546875
 40
0.4365234375
 40
0.4370117188
 40
0.4375
 40
0.4379882812
 40
0.4384765625
 40
0.439453125
 40
0.4404296875
 40
0.44140625
 40
0.443359375
 40
0.4453125
 40
0.44921875
 40
0.453125
 40
0.45703125
 40
0.4609375
 40
0.46875
 40
0.4765625
 40
0.48046875
 40
0.484375
 40
0.48828125
 40
0.4921875
 40
0.494140625
 40
0.49609375
 40
0.4970703125
 40
0.498046875
 40
0.4990234375
 40
0.4995117188
 40
0.5
 40
0.5004882812
 40
0.5009765625
 40
0.501953125
 40
0.5029296875
 40
0.50390625
 40
0.505859375
 40
0.5078125
 40
0.51171875
 40
0.515625
 40
0.51953125
 40
0.5234375
 40
0.53125
 40
0.5390625
 40
0.54296875
 40
0.546875
 40
0.55078125
 40
0.5546875
 40
0.556640625
 40
0.55859375
 40
0.560546875
 40
0.5615234375
 40
0.5620117188
 40
0.5625
 40
0.5629882812
 40
0.5634765625
 40
0.564453125
 40
0.56640625
 40
0.568359375
 40
0.5703125
 40
0.57421875
 40
0.578125
 40
0.58203125
 40
0.5859375
 40
0.59375
 40
0.6015625
 40
0.60546875
 40
0.609375
 40
0.61328125
 40
0.6171875
 40
0.619140625
 40
0.62109375
 40
0.623046875
 40
0.6240234375
 40
0.6245117188
 40
0.625
 40
0.6254882812
 40
0.6259765625
 40
0.626953125
 40
0.62890625
 40
0.630859375
 40
0.6328125
 40
0.63671875
 40
0.640625
 40
0.64453125
 40
0.6484375
 40
0.65625
 40
0.6640625
 40
0.66796875
 40
0.671875
 40
0.67578125
 40
0.6796875
 40
0.681640625
 40
0.68359375
 40
0.685546875
 40
0.6865234375
 40
0.6870117188
 40
0.6875
 40
0.6879882812
 40
0.6884765625
 40
0.689453125
 40
0.69140625
 40
0.693359375
 40
0.6953125
 40
0.69921875
 40
0.703125
 40
0.70703125
 40
0.7109375
 40
0.71875
 40
0.7265625
 40
0.73046875
 40
0.734375
 40
0.73828125
 40
0.7421875
 40
0.744140625
 40
0.74609375
 40
0.748046875
 40
0.7490234375
 40
0.7495117188
 40
0.75
 40
0.7504882812
 40
0.7509765625
 40
0.751953125
 40
0.75390625
 40
0.755859375
 40
0.7578125
 40
0.76171875
 40
0.765625
 40
0.76953125
 40
0.7734375
 40
0.78125
 40
0.7890625
 40
0.79296875
 40
0.796875
 40
0.80078125
 40
0.8046875
 40
0.806640625
 40
0.80859375
 40
0.810546875
 40
0.8115234375
 40
0.8120117188
 40
0.8125
 40
0.8129882812
 40
0.8134765625
 40
0.814453125
 40
0.81640625
 40
0.818359375
 40
0.8203125
 40
0.82421875
 40
0.828125
 40
0.83203125
 40
0.8359375
 40
0.84375
 40
0.8515625
 40
0.85546875
 40
0.859375
 40
0.86328125
 40
0.8671875
 40
0.869140625
 40
0.87109375
 40
0.873046875
 40
0.8740234375
 40
0.8745117188
 40
0.875
 40
0.8754882812
 40
0.8759765625
 40
0.876953125
 40
0.87890625
 40
0.880859375
 40
0.8828125
 40
0.88671875
 40
0.890625
 40
0.89453125
 40
0.8984375
 40
0.90625
 40
0.9140625
 40
0.91796875
 40
0.921875
 40
0.92578125
 40
0.9296875
 40
0.931640625
 40
0.93359375
 40
0.935546875
 40
0.9365234375
 40
0.9370117188
 40
0.9375
 40
0.9379882812
 40
0.9384765625
 40
0.939453125
 40
0.94140625
 40
0.943359375
 40
0.9453125
 40
0.94921875
 40
0.953125
 40
0.95703125
 40
0.9609375
 40
0.96875
 40
0.9765625
 40
0.984375
 40
1.0
 40
1.0
 40
1.0
 40
1.0
 10
11.2002328131
 20
8.7099890579
 30
0.0
 10
11.1970996261
 20
8.7098991335
 30
0.0
 10
11.1923998458
 20
8.7097642469
 30
0.0
 10
11.1861334719
 20
8.709584398
 30
0.0
 10
11.1814336915
 20
8.7094495115
 30
0.0
 10
11.177517208
 20
8.7093371056
 30
0.0
 10
11.1743840209
 20
8.7092471821
 30
0.0
 10
11.1720341312
 20
8.7091797359
 30
0.0
 10
11.169684239
 20
8.7091123032
 30
0.0
 10
11.1677260036
 20
8.7090560676
 30
0.0
 10
11.1661593971
 20
8.7090111723
 30
0.0
 10
11.1651803094
 20
8.7089829008
 30
0.0
 10
11.1643969444
 20
8.7089607689
 30
0.0
 10
11.1638096803
 20
8.7089428412
 30
0.0
 10
11.1633194679
 20
8.7089321283
 30
0.0
 10
11.1629291496
 20
8.7089140781
 30
0.0
 10
11.1626313513
 20
8.7089264438
 30
0.0
 10
11.1623528653
 20
8.7088399362
 30
0.0
 10
11.1619748047
 20
8.7087591305
 30
0.0
 10
11.1615045434
 20
8.7086462736
 30
0.0
 10
11.1609392391
 20
8.7085159174
 30
0.0
 10
11.1601858461
 20
8.7083403376
 30
0.0
 10
11.1592439864
 20
8.7081214694
 30
0.0
 10
11.157737077
 20
8.7077709413
 30
0.0
 10
11.1558534176
 20
8.7073328975
 30
0.0
 10
11.1535930361
 20
8.7068071951
 30
0.0
 10
11.1513326519
 20
8.706281506
 30
0.0
 10
11.1483188073
 20
8.7055805825
 30
0.0
 10
11.1445515012
 20
8.7047044299
 30
0.0
 10
11.1407841954
 20
8.7038282761
 30
0.0
 10
11.1377703502
 20
8.7031273545
 30
0.0
 10
11.1355099677
 20
8.7026016599
 30
0.0
 10
11.13324958
 20
8.702075978
 30
0.0
 10
11.1313659396
 20
8.7016378701
 30
0.0
 10
11.1298589916
 20
8.7012874728
 30
0.0
 10
11.1289172303
 20
8.7010682718
 30
0.0
 10
11.1281636353
 20
8.7008933751
 30
0.0
 10
11.1275989482
 20
8.7007609319
 30
0.0
 10
11.1271267559
 20
8.7006546047
 30
0.0
 10
11.1267526348
 20
8.7005604773
 30
0.0
 10
11.1264621176
 20
8.7005146532
 30
0.0
 10
11.1262094893
 20
8.7003742762
 30
0.0
 10
11.1258594166
 20
8.7002201354
 30
0.0
 10
11.1254263665
 20
8.7000161274
 30
0.0
 10
11.1249047628
 20
8.6997761683
 30
0.0
 10
11.12420997
 20
8.6994545287
 30
0.0
 10
11.1233412466
 20
8.6990530593
 30
0.0
 10
11.1219514191
 20
8.698410384
 30
0.0
 10
11.1202140901
 20
8.6976071511
 30
0.0
 10
11.1181293145
 20
8.696643224
 30
0.0
 10
11.1160445337
 20
8.6956793096
 30
0.0
 10
11.1132648278
 20
8.6943940859
 30
0.0
 10
11.1097901947
 20
8.692787558
 30
0.0
 10
11.1063155621
 20
8.691181029
 30
0.0
 10
11.1035358554
 20
8.6898958072
 30
0.0
 10
11.1014510771
 20
8.6889318875
 30
0.0
 10
11.0993662922
 20
8.6879679803
 30
0.0
 10
11.0976289919
 20
8.6871646853
 30
0.0
 10
11.0962391059
 20
8.6865221366
 30
0.0
 10
11.0953705312
 20
8.6861203451
 30
0.0
 10
11.0946754331
 20
8.6857993665
 30
0.0
 10
11.0941547622
 20
8.685557388
 30
0.0
 10
11.0937187936
 20
8.6853596984
 30
0.0
 10
11.0933746753
 20
8.6851926669
 30
0.0
 10
11.0931038625
 20
8.6850916572
 30
0.0
 10
11.0928816177
 20
8.6848980321
 30
0.0
 10
11.0925683259
 20
8.684672217
 30
0.0
 10
11.0921825319
 20
8.6843788485
 30
0.0
 10
11.0917170877
 20
8.6840315573
 30
0.0
 10
11.0910973656
 20
8.6835668429
 30
0.0
 10
11.090322415
 20
8.6829865182
 30
0.0
 10
11.0890826605
 20
8.6820576809
 30
0.0
 10
11.0875329103
 20
8.6808967434
 30
0.0
 10
11.0856732346
 20
8.6795035717
 30
0.0
 10
11.0838135523
 20
8.6781104124
 30
0.0
 10
11.0813339782
 20
8.6762528624
 30
0.0
 10
11.0782345097
 20
8.6739309264
 30
0.0
 10
11.0751350419
 20
8.6716089895
 30
0.0
 10
11.0726554667
 20
8.669751441
 30
0.0
 10
11.070795788
 20
8.6683582771
 30
0.0
 10
11.0689360987
 20
8.6669651228
 30
0.0
 10
11.0673863905
 20
8.6658041311
 30
0.0
 10
11.0661465505
 20
8.6648754043
 30
0.0
 10
11.0653718175
 20
8.6642947986
 30
0.0
 10
11.0647516488
 20
8.6638306608
 30
0.0
 10
11.0642875689
 20
8.6634816081
 30
0.0
 10
11.0638975061
 20
8.6631937511
 30
0.0
 10
11.0635929235
 20
8.6629566915
 30
0.0
 10
11.0633440815
 20
8.6627974065
 30
0.0
 10
11.0631731259
 20
8.6625674698
 30
0.0
 10
11.0629179785
 20
8.6622855671
 30
0.0
 10
11.0626083786
 20
8.6619247213
 30
0.0
 10
11.0622328633
 20
8.6614953307
 30
0.0
 10
11.0617335718
 20
8.6609215439
 30
0.0
 10
11.0611089796
 20
8.6602047439
 30
0.0
 10
11.0601098991
 20
8.6590576217
 30
0.0
 10
11.0588609569
 20
8.657623802
 30
0.0
 10
11.0573622655
 20
8.6559031828
 30
0.0
 10
11.0558635636
 20
8.6541825731
 30
0.0
 10
11.0538652981
 20
8.6518884235
 30
0.0
 10
11.0513674648
 20
8.6490207378
 30
0.0
 10
11.0488696324
 20
8.6461530512
 30
0.0
 10
11.0468713654
 20
8.6438589029
 30
0.0
 10
11.045372668
 20
8.6421382894
 30
0.0
 10
11.0438739595
 20
8.6404176843
 30
0.0
 10
11.0426250705
 20
8.6389838209
 30
0.0
 10
11.0416258815
 20
8.6378367877
 30
0.0
 10
11.0410015654
 20
8.6371197612
 30
0.0
 10
11.0405017071
 20
8.6365464395
 30
0.0
 10
11.0401279236
 20
8.636115628
 30
0.0
 10
11.0398129054
 20
8.6357592278
 30
0.0
 10
11.0395688125
 20
8.6354682552
 30
0.0
 10
11.0393640969
 20
8.6352660175
 30
0.0
 10
11.0392420041
 20
8.6350027389
 30
0.0
 10
11.0390503524
 20
8.6346730231
 30
0.0
 10
11.03882069
 20
8.6342535627
 30
0.0
 10
11.0385408567
 20
8.6337533416
 30
0.0
 10
11.038169226
 20
8.6330852864
 30
0.0
 10
11.0377041807
 20
8.6322505919
 30
0.0
 10
11.0369603915
 20
8.6309148713
 30
0.0
 10
11.0360305579
 20
8.6292452925
 30
0.0
 10
11.0349147991
 20
8.6272417671
 30
0.0
 10
11.0337990293
 20
8.62523825
 30
0.0
 10
11.03231134
 20
8.6225668909
 30
0.0
 10
11.030451727
 20
8.6192276931
 30
0.0
 10
11.028592115
 20
8.6158884946
 30
0.0
 10
11.0271044241
 20
8.6132171365
 30
0.0
 10
11.0259886592
 20
8.6112136164
 30
0.0
 10
11.0248728819
 20
8.6092101022
 30
0.0
 10
11.0239431061
 20
8.6075404884
 30
0.0
 10
11.023199199
 20
8.6062048393
 30
0.0
 10
11.0227344538
 20
8.605369963
 30
0.0
 10
11.0223622071
 20
8.6047022808
 30
0.0
 10
11.0220842556
 20
8.6042009202
 30
0.0
 10
11.0218487054
 20
8.6037850252
 30
0.0
 10
11.0216690661
 20
8.6034480354
 30
0.0
 10
11.0215102883
 20
8.6032069711
 30
0.0
 10
11.0214433031
 20
8.6029213314
 30
0.0
 10
11.0213219252
 20
8.6025560493
 30
0.0
 10
11.0211812038
 20
8.6020941044
 30
0.0
 10
11.0210076294
 20
8.6015420572
 30
0.0
 10
11.0207778416
 20
8.6008051955
 30
0.0
 10
11.0204900436
 20
8.5998843919
 30
0.0
 10
11.0200298816
 20
8.5984109534
 30
0.0
 10
11.0194545711
 20
8.5965692076
 30
0.0
 10
11.0187642447
 20
8.5943590902
 30
0.0
 10
11.018073906
 20
8.5921489788
 30
0.0
 10
11.0171534588
 20
8.5892021615
 30
0.0
 10
11.0160028981
 20
8.5855186406
 30
0.0
 10
11.0148523385
 20
8.5818351193
 30
0.0
 10
11.0139318894
 20
8.5788883027
 30
0.0
 10
11.0132415561
 20
8.5766781891
 30
0.0
 10
11.0125512096
 20
8.5744680802
 30
0.0
 10
11.0119759618
 20
8.5726263079
 30
0.0
 10
11.0115156719
 20
8.5711529234
 30
0.0
 10
11.0112281995
 20
8.570231982
 30
0.0
 10
11.0109977433
 20
8.5694954033
 30
0.0
 10
11.0108262107
 20
8.5689424918
 30
0.0
 10
11.010679101
 20
8.5684832508
 30
0.0
 10
11.0105707566
 20
8.5681124522
 30
0.0
 10
11.0104639678
 20
8.5678436596
 30
0.0
 10
11.0104546291
 20
8.5675393445
 30
0.0
 10
11.0104081369
 20
8.5671459994
 30
0.0
 10
11.0103617008
 20
8.5666500607
 30
0.0
 10
11.0103009785
 20
8.5660567566
 30
0.0
 10
11.0102217614
 20
8.565265048
 30
0.0
 10
11.0101221422
 20
8.5642756302
 30
0.0
 10
11.0099630856
 20
8.5626924398
 30
0.0
 10
11.0097641502
 20
8.5607134937
 30
0.0
 10
11.0095254769
 20
8.5583387404
 30
0.0
 10
11.0092867904
 20
8.5559639919
 30
0.0
 10
11.0089685464
 20
8.5527976589
 30
0.0
 10
11.0085707397
 20
8.5488397433
 30
0.0
 10
11.0081729341
 20
8.5448818274
 30
0.0
 10
11.0078546882
 20
8.5417154947
 30
0.0
 10
11.0076160074
 20
8.5393407453
 30
0.0
 10
11.0073773129
 20
8.5369659956
 30
0.0
 10
11.0071784434
 20
8.5349870383
 30
0.0
 10
11.0070192525
 20
8.5334038707
 30
0.0
 10
11.0069199751
 20
8.532414395
 30
0.0
 10
11.0068400564
 20
8.5316228051
 30
0.0
 10
11.0067814775
 20
8.5310291384
 30
0.0
 10
11.0067283351
 20
8.5305343342
 30
0.0
 10
11.0066955252
 20
8.5301386746
 30
0.0
 10
11.0066444015
 20
8.5298414279
 30
0.0
 10
11.0066944908
 20
8.5295460973
 30
0.0
 10
11.0067259215
 20
8.5291516538
 30
0.0
 10
11.0067773401
 20
8.5286588291
 30
0.0
 10
11.0068338502
 20
8.5280673411
 30
0.0
 10
11.0069110106
 20
8.5272787249
 30
0.0
 10
11.0070068401
 20
8.5262929428
 30
0.0
 10
11.0071605143
 20
8.524715698
 30
0.0
 10
11.0073524881
 20
8.5227441398
 30
0.0
 10
11.0075829076
 20
8.5203782709
 30
0.0
 10
11.0078133135
 20
8.5180124018
 30
0.0
 10
11.008120526
 20
8.5148579097
 30
0.0
 10
11.0085045406
 20
8.5109147946
 30
0.0
 10
11.0088885537
 20
8.5069716792
 30
0.0
 10
11.0091957687
 20
8.5038171875
 30
0.0
 10
11.0094261672
 20
8.5014513171
 30
0.0
 10
11.0096566144
 20
8.499085453
 30
0.0
 10
11.0098485019
 20
8.49711388
 30
0.0
 10
11.010002352
 20
8.4955366654
 30
0.0
 10
11.0101168105
 20
8.4943536348
 30
0.0
 10
11.0102151479
 20
8.4933681563
 30
0.0
 10
11.0102781843
 20
8.4926775752
 30
0.0
 10
11.0103232609
 20
8.4922841224
 30
0.0
 10
11.0103315582
 20
8.4919857509
 30
0.0
 10
11.0104373682
 20
8.4916999248
 30
0.0
 10
11.0105444348
 20
8.4913144474
 30
0.0
 10
11.0107476488
 20
8.4906419009
 30
0.0
 10
11.0110296693
 20
8.4896800541
 30
0.0
 10
11.0113716402
 20
8.4885262942
 30
0.0
 10
11.0118263627
 20
8.4869877883
 30
0.0
 10
11.0123951908
 20
8.4850647107
 30
0.0
 10
11.0130776023
 20
8.4827569941
 30
0.0
 10
11.0137600627
 20
8.4804492837
 30
0.0
 10
11.0146699926
 20
8.4773723344
 30
0.0
 10
11.0158074115
 20
8.4735261486
 30
0.0
 10
11.0169448262
 20
8.4696799619
 30
0.0
 10
11.0178547628
 20
8.4666030141
 30
0.0
 10
11.0185372032
 20
8.4642952991
 30
0.0
 10
11.0192196895
 20
8.4619875999
 30
0.0
 10
11.019788285
 20
8.4600644681
 30
0.0
 10
11.0202434819
 20
8.4585260726
 30
0.0
 10
11.0205840039
 20
8.4573719757
 30
0.0
 10
11.0208705576
 20
8.4564111832
 30
0.0
 10
11.021065679
 20
8.4557367546
 30
0.0
 10
11.021185712
 20
8.4553542927
 30
0.0
 10
11.0212516934
 20
8.4550592039
 30
0.0
 10
11.0214095803
 20
8.454795622
 30
0.0
 10
11.0215880386
 20
8.4544331895
 30
0.0
 10
11.0219152767
 20
8.4538040531
 30
0.0
 10
11.022374951
 20
8.4529026098
 30
0.0
 10
11.0229299025
 20
8.4518220237
 30
0.0
 10
11.0236686703
 20
8.450380842
 30
0.0
 10
11.0245925307
 20
8.4485795021
 30
0.0
 10
11.0257009915
 20
8.4464178355
 30
0.0
 10
11.0268094982
 20
8.4442561845
 30
0.0
 10
11.028287491
 20
8.4413739778
 30
0.0
 10
11.0301349881
 20
8.4377712215
 30
0.0
 10
11.0319824811
 20
8.4341684635
 30
0.0
 10
11.0334604803
 20
8.4312862594
 30
0.0
 10
11.034568968
 20
8.4291246007
 30
0.0
 10
11.0356775002
 20
8.4269629632
 30
0.0
 10
11.0366011382
 20
8.4251615326
 30
0.0
 10
11.0373403597
 20
8.4237205359
 30
0.0
 10
11.0378939256
 20
8.4226393847
 30
0.0
 10
11.0383579349
 20
8.4217397094
 30
0.0
 10
11.0386774344
 20
8.4211074168
 30
0.0
 10
11.0388682919
 20
8.4207500414
 30
0.0
 10
11.0389880922
 20
8.4204709257
 30
0.0
 10
11.0391971204
 20
8.4202341795
 30
0.0
 10
11.0394447009
 20
8.419903739
 30
0.0
 10
11.039892468
 20
8.4193323538
 30
0.0
 10
11.0405245539
 20
8.4185124894
 30
0.0
 10
11.041286302
 20
8.4175301929
 30
0.0
 10
11.0423008326
 20
8.4162199261
 30
0.0
 10
11.0435693849
 20
8.4145822773
 30
0.0
 10
11.0450914808
 20
8.4126170195
 30
0.0
 10
11.0466136214
 20
8.4106517829
 30
0.0
 10
11.0486431266
 20
8.4080314599
 30
0.0
 10
11.0511800137
 20
8.4047560592
 30
0.0
 10
11.0537168975
 20
8.401480656
 30
0.0
 10
11.055746408
 20
8.3988603371
 30
0.0
 10
11.0572685324
 20
8.3968950883
 30
0.0
 10
11.0587906893
 20
8.3949298762
 30
0.0
 10
11.0600590518
 20
8.3932920852
 30
0.0
 10
11.0610739694
 20
8.3919821083
 30
0.0
 10
11.0618345359
 20
8.3909989267
 30
0.0
 10
11.0624703185
 20
8.3901818316
 30
0.0
 10
11.0629114864
 20
8.3896055027
 30
0.0
 10
11.0631696405
 20
8.3892829833
 30
0.0
 10
11.0633461899
 20
8.3890219059
 30
0.0
 10
11.0635879753
 20
8.3888341741
 30
0.0
 10
11.0638876008
 20
8.3885582812
 30
0.0
 10
11.0644225474
 20
8.3880873887
 30
0.0
 10
11.065181214
 20
8.3874084531
 30
0.0
 10
11.0660939865
 20
8.386596398
 30
0.0
 10
11.0673101876
 20
8.3855127259
 30
0.0
 10
11.0688307235
 20
8.3841584557
 30
0.0
 10
11.0706552446
 20
8.3825331942
 30
0.0
 10
11.0724797984
 20
8.3809079695
 30
0.0
 10
11.0749125252
 20
8.3787409903
 30
0.0
 10
11.0779534381
 20
8.3760322712
 30
0.0
 10
11.0809943483
 20
8.3733235487
 30
0.0
 10
11.0834270794
 20
8.3711565749
 30
0.0
 10
11.0852516204
 20
8.3695313341
 30
0.0
 10
11.0870761892
 20
8.3679061328
 30
0.0
 10
11.088596577
 20
8.3665516757
 30
0.0
 10
11.0898130801
 20
8.3654683847
 30
0.0
 10
11.0907249305
 20
8.3646551659
 30
0.0
 10
11.0914864818
 20
8.3639798709
 30
0.0
 10
11.0920162787
 20
8.3635024794
 30
0.0
 10
11.0923241553
 20
8.3632369994
 30
0.0
 10
11.092540596
 20
8.3630172826
 30
0.0
 10
11.0928123359
 20
8.3628763356
 30
0.0
 10
11.0931553667
 20
8.3626609304
 30
0.0
 10
11.0937646578
 20
8.3622967729
 30
0.0
 10
11.094630375
 20
8.3617698552
 30
0.0
 10
11.0956712468
 20
8.3611404186
 30
0.0
 10
11.0970583734
 20
8.3603001691
 30
0.0
 10
11.0987925227
 20
8.3592502007
 30
0.0
 10
11.1008733985
 20
8.3579900913
 30
0.0
 10
11.1029543019
 20
8.3567300213
 30
0.0
 10
11.1057288301
 20
8.3550499142
 30
0.0
 10
11.109196994
 20
8.3529497856
 30
0.0
 10
11.1126651558
 20
8.3508496532
 30
0.0
 10
11.1154396873
 20
8.349169552
 30
0.0
 10
11.1175205809
 20
8.3479094644
 30
0.0
 10
11.1196014936
 20
8.3466494213
 30
0.0
 10
11.121335528
 20
8.3455992466
 30
0.0
 10
11.1227228888
 20
8.3447594177
 30
0.0
 10
11.1237630454
 20
8.3441286968
 30
0.0
 10
11.1246310003
 20
8.3436057971
 30
0.0
 10
11.1252362967
 20
8.3432344667
 30
0.0
 10
11.125585728
 20
8.3430305544
 30
0.0
 10
11.1258378077
 20
8.3428543049
 30
0.0
 10
11.1261280887
 20
8.3427671786
 30
0.0
 10
11.1265018049
 20
8.3426199231
 30
0.0
 10
11.1271620167
 20
8.3423767101
 30
0.0
 10
11.1281019307
 20
8.3420216905
 30
0.0
 10
11.1292312167
 20
8.3415989082
 30
0.0
 10
11.1307364461
 20
8.3410340662
 30
0.0
 10
11.1326181494
 20
8.3403284023
 30
0.0
 10
11.134876122
 20
8.339481439
 30
0.0
 10
11.1371341136
 20
8.3386345203
 30
0.0
 10
11.1401447625
 20
8.3375052798
 30
0.0
 10
11.143908076
 20
8.336093735
 30
0.0
 10
11.147671388
 20
8.3346821861
 30
0.0
 10
11.1506820392
 20
8.333552952
 30
0.0
 10
11.1529400238
 20
8.3327060139
 30
0.0
 10
11.1551980228
 20
8.3318591235
 30
0.0
 10
11.1570796438
 20
8.3311532329
 30
0.0
 10
11.158585041
 20
8.3305888533
 30
0.0
 10
11.1597138148
 20
8.3301646592
 30
0.0
 10
11.1606553312
 20
8.3298140565
 30
0.0
 10
11.1613126823
 20
8.3295629585
 30
0.0
 10
11.1616909822
 20
8.3294283367
 30
0.0
 10
11.1619671837
 20
8.3293024038
 30
0.0
 10
11.1622721436
 20
8.3292719055
 30
0.0
 10
11.1626687255
 20
8.3291979525
 30
0.0
 10
11.1633674176
 20
8.3290840444
 30
0.0
 10
11.1643631058
 20
8.32891321
 30
0.0
 10
11.1655589774
 20
8.3287116794
 30
0.0
 10
11.1671531076
 20
8.3284417596
 30
0.0
 10
11.1691458957
 20
8.3281047759
 30
0.0
 10
11.1715371877
 20
8.3277002171
 30
0.0
 10
11.173928494
 20
8.3272957059
 30
0.0
 10
11.1771168975
 20
8.3267563411
 30
0.0
 10
11.1811024035
 20
8.3260821408
 30
0.0
 10
11.18588501
 20
8.325273098
 30
0.0
 10
11.1922618189
 20
8.3241943751
 30
0.0
 10
11.1970444256
 20
8.3233853328
 30
0.0
 10
11.20023283
 20
8.3228459712
 30
0.0
  0
ENDSEC
  0
SECTION
  2
OBJECTS
  0
DICTIONARY
  5
C
100
AcDbDictionary
280
0
281
1
  3
ACAD_GROUP
350
D
  3
ACAD_MLINESTYLE
350
17
  3
ACAD_LAYOUT
350
1A
  3
ACAD_PLOTSETTINGS
350
19
  3
ACAD_PLOTSTYLENAME
350
E
  3
ACAD_IMAGE_DICT
350
       3B4
  3
ACAD_IMAGE_VARS
350
       3B5
  3
ACAD_TABLESTYLE
350
       3B6
  0
IMAGEDEF_REACTOR
  5
3B3
100
AcDbRasterImageDefReactor
 90
2
330
28F
  0
DICTIONARY
  5
D
102
{ACAD_REACTORS
330
C
102
}
100
AcDbDictionary
280
0
281
1
  0
ACDBDICTIONARYWDFLT
  5
E
102
{ACAD_REACTORS
330
C
102
}
100
AcDbDictionary
281
1
  3
Normal
350
F
100
AcDbDictionaryWithDefault
340
F
  0
DICTIONARY
  5
3B4
330
C
100
AcDbDictionary
281
1
  3
B3U_assy_2_img_1
350
       3B9
  0
RASTERVARIABLES
  5
3B5
330
C
100
AcDbRasterVariables
 90
0
 70
0
 71
1
 72
5
  0
DICTIONARY
  5
17
102
{ACAD_REACTORS
330
C
102
}
100
AcDbDictionary
280
0
281
1
  3
Standard
350
18
  0
DICTIONARY
  5
3B6
330
C
100
AcDbDictionary
281
1
  3
Standard
350
       3BA
  3
Standard1
350
       3BB
  0
DICTIONARY
  5
19
102
{ACAD_REACTORS
330
C
102
}
100
AcDbDictionary
281
1
  0
DICTIONARY
  5
1A
102
{ACAD_REACTORS
330
C
102
}
100
AcDbDictionary
281
1
  3
Model
350
3B7
  3
Layout1
350
3B8
  0
ACDBPLACEHOLDER
  5
F
102
{ACAD_REACTORS
330
E
102
}
  0
MLINESTYLE
  5
18
102
{ACAD_REACTORS
330
17
102
}
100
AcDbMlineStyle
  2
STANDARD
 70
0
  3

 62
256
 51
90.0
 52
90.0
 71
2
 49
0.5
 62
256
  6
BYLAYER
 49
-0.5
 62
256
  6
BYLAYER
  0
LAYOUT
  5
3B7
102
{ACAD_REACTORS
330
1A
102
}
100
AcDbPlotSettings
  1

  2
none_device
  4
ANSI_C_(22.00_x_17.00_Inches)
  6

 40
0.0
 41
0.0
 42
0.0
 43
0.0
 44
558.8
 45
431.8
 46
0.0
 47
0.0
 48
0.0
 49
0.0
140
0.0
141
0.0
142
1.0
143
1.0
 70
1024
 72
0
 73
0
 74
0
  7

 75
0
147
1.0
148
0.0
149
0.0
100
AcDbLayout
  1
Model
 70
0
 71
0
 10
0.0
 20
0.0
 11
22.0
 21
17.0
 12
0.0
 22
0.0
 32
0.0
 14
0.0
 24
0.0
 34
0.0
 15
0.0
 25
0.0
 35
0.0
146
0.0
 13
0.0
 23
0.0
 33
0.0
 16
1.0
 26
0.0
 36
0.0
 17
0.0
 27
1.0
 37
0.0
 76
0
330
20C
345
0
346
0
  0
LAYOUT
  5
3B8
102
{ACAD_REACTORS
330
1A
102
}
100
AcDbPlotSettings
  1

  2
none_device
  4
ANSI_C_(22.00_x_17.00_Inches)
  6

 40
0.0
 41
0.0
 42
0.0
 43
0.0
 44
558.8
 45
431.8
 46
0.0
 47
0.0
 48
0.0
 49
0.0
140
0.0
141
0.0
142
1.0
143
1.0
 70
0
 72
0
 73
0
 74
0
  7

 75
0
147
1.0
148
0.0
149
0.0
100
AcDbLayout
  1
Layout1
 70
0
 71
1
 10
0.0
 20
0.0
 11
22.0
 21
17.0
 12
0.0
 22
0.0
 32
0.0
 14
0.0
 24
0.0
 34
0.0
 15
0.0
 25
0.0
 35
0.0
146
0.0
 13
0.0
 23
0.0
 33
0.0
 16
1.0
 26
0.0
 36
0.0
 17
0.0
 27
1.0
 37
0.0
 76
0
330
20D
345
0
346
0
  0
IMAGEDEF
  5
3B9
102
{ACAD_REACTORS
330
3B4
330
3B3
102
}
100
AcDbRasterImageDef
 90
0
  1
B3U_assy_2_img_1.png
 10
369.0
 20
92.0
 11
0.0066666667
 21
0.0066666667
280
1
281
0
  0
TABLESTYLE
  5
3BA
102
{ACAD_REACTORS
330
3B6
330
292
330
293
102
}
330
3B6
100
AcDbTableStyle
  3
Standard
 70
0
 71
0
 40
0.06
 41
0.06
280
1
281
1
  7
Standard
140
0.18
170
1
 62
0
 63
7
283
0
  7
Standard
140
0.18
170
1
 62
0
 63
7
283
0
  7
Standard
140
0.18
170
1
 62
0
 63
7
283
0
  0
TABLESTYLE
  5
3BB
102
{ACAD_REACTORS
330
3B6
330
291
102
}
330
3B6
100
AcDbTableStyle
  3
Standard1
 70
1
 71
0
 40
0.06
 41
0.06
280
1
281
1
  7
Standard
140
0.18
170
1
 62
0
 63
7
283
0
  7
Standard
140
0.18
170
1
 62
0
 63
7
283
0
  7
Standard
140
0.18
170
1
 62
0
 63
7
283
0
  0
ENDSEC
  0
EOF
