999
DXF file: B3L_assy_2.dxf
999
Pro/ENGINEER 2014200 by Parametric Technology Corporation
  0
SECTION
  2
HEADER
  9
$ACADVER
  1
AC1021
  9
$DWGCODEPAGE
  3
ANSI_1252
  9
$EXTMAX
 10
22.0
 20
17.0
 30
0.0
  9
$EXTMIN
 10
0.0
 20
0.0
 30
0.0
  9
$LIMMIN
 10
0.0
 20
0.0
  9
$LIMMAX
 10
22.0
 20
17.0
  9
$VIEWCTR
 10
11.0
 20
8.5
  9
$VIEWSIZE
 40
17.0
  9
$CLAYER
  8
0
  9
$LTSCALE
 40
1.21
  9
$CELTYPE
  6
BYLAYER
  9
$DIMSCALE
 40
1.0
  9
$DIMASZ
 40
0.1875
  9
$DIMEXO
 40
0.0625
  9
$DIMDLI
 40
0.836
  9
$DIMEXE
 40
0.125
  9
$DIMCEN
 40
0.198
  9
$DIMLFAC
 40
1.0
  9
$DIMBLK
  1
_FILLED
  9
$DIMTXT
 40
0.1
  9
$DIMTOL
 70
0
  9
$DIMLIM
 70
0
  9
$DIMTFAC
 40
1.0
  9
$DIMGAP
 40
0.09
  9
$DIMDSEP
 70
46
  9
$AUNITS
 70
0
  9
$PDMODE
 70
3
  9
$PDSIZE
 40
0.3125
  9
$HANDSEED
  5
3C4
  9
$TILEMODE
 70
1
  9
$MEASUREMENT
 70
0
  9
$INSUNITS
 70
1
  0
ENDSEC
  0
SECTION
  2
CLASSES
  0
CLASS
  1
ACDBDICTIONARYWDFLT
  2
AcDbDictionaryWithDefault
  3
AutoCAD 2000
 90
0
 91
1
280
0
281
0
  0
CLASS
  1
ACDBPLACEHOLDER
  2
AcDbPlaceHolder
  3
AutoCAD 2000
 90
0
 91
1
280
0
281
0
  0
CLASS
  1
LAYOUT
  2
AcDbLayout
  3
AutoCAD 2000
 90
0
 91
0
280
0
281
0
  0
CLASS
  1
RASTERVARIABLES
  2
AcDbRasterVariables
  3
ISM
 90
0
 91
1
280
0
281
0
  0
CLASS
  1
IMAGEDEF
  2
AcDbRasterImageDef
  3
ISM
 90
0
 91
1
280
0
281
0
  0
CLASS
  1
IMAGEDEF_REACTOR
  2
AcDbRasterImageDefReactor
  3
ISM
 90
0
 91
1
280
0
281
0
  0
CLASS
  1
IMAGE
  2
AcDbRasterImage
  3
ISM
 90
127
 91
1
280
0
281
1
  0
CLASS
  1
TABLESTYLE
  2
AcDbTableStyle
  3
ObjectDBX Classes
 90
2047
 91
1
280
0
281
0
  0
CLASS
  1
ACAD_TABLE
  2
AcDbTable
  3
ObjectDBX Classes
 90
1025
 91
3
280
0
281
1
  0
ENDSEC
  0
SECTION
  2
TABLES
  0
TABLE
  2
VPORT
  5
8
100
AcDbSymbolTable
 70
2
  0
VPORT
  5
1F4
100
AcDbSymbolTableRecord
100
AcDbViewportTableRecord
  2
*ACTIVE
 70
0
 10
0.0
 20
0.0
 11
1.0
 21
1.0
 12
11.0
 22
8.5
 13
0.0
 23
0.0
 14
1.0
 24
1.0
 15
0.0
 25
0.0
 16
0.0
 26
0.0
 36
1.0
 17
0.0
 27
0.0
 37
0.0
 40
17.0
 41
1.2941176471
 42
50.0
 43
0.0
 44
0.0
 50
0.0
 51
0.0
 71
0
 72
100
 73
1
 74
1
 75
0
 76
0
 77
0
 78
0
  0
ENDTAB
  0
TABLE
  2
LTYPE
  5
5
100
AcDbSymbolTable
 70
6
  0
LTYPE
  5
14
100
AcDbSymbolTableRecord
100
AcDbLinetypeTableRecord
  2
BYBLOCK
 70
0
  3

 72
65
 73
0
 40
0.0
  0
LTYPE
  5
15
100
AcDbSymbolTableRecord
100
AcDbLinetypeTableRecord
  2
BYLAYER
 70
0
  3

 72
65
 73
0
 40
0.0
  0
LTYPE
  5
16
100
AcDbSymbolTableRecord
100
AcDbLinetypeTableRecord
  2
CONTINUOUS
 70
64
  3
Solid line
 72
65
 73
0
 40
0.0
  0
LTYPE
  5
1F5
100
AcDbSymbolTableRecord
100
AcDbLinetypeTableRecord
  2
CENTER
 70
64
  3
____ _ ____ _ ____ _ ____ _ ____ _ ____ _ ____
 72
65
 73
4
 40
0.6
 49
0.375
 74
0
 49
-0.075
 74
0
 49
0.075
 74
0
 49
-0.075
 74
0
  0
LTYPE
  5
1F6
100
AcDbSymbolTableRecord
100
AcDbLinetypeTableRecord
  2
HIDDEN
 70
64
  3
- - - - - - - - - - - - - - - - - - - -
 72
65
 73
2
 40
0.2
 49
0.1
 74
0
 49
-0.1
 74
0
  0
LTYPE
  5
1F7
100
AcDbSymbolTableRecord
100
AcDbLinetypeTableRecord
  2
PHANTOM
 70
64
  3
_____ _ _ _____ _ _ _____ _ _ _____
 72
65
 73
6
 40
0.8
 49
0.45
 74
0
 49
-0.05
 74
0
 49
0.1
 74
0
 49
-0.05
 74
0
 49
0.1
 74
0
 49
-0.05
 74
0
  0
LTYPE
  5
1F8
100
AcDbSymbolTableRecord
100
AcDbLinetypeTableRecord
  2
DOT
 70
64
  3
. . . . . . . . . . . . . . . . . . . .
 72
65
 73
2
 40
0.2
 49
0.1
 74
0
 49
-0.1
 74
0
  0
LTYPE
  5
1F9
100
AcDbSymbolTableRecord
100
AcDbLinetypeTableRecord
  2
DASHED
 70
64
  3
- - - - - - - - - - - - - - - - - - - -
 72
65
 73
2
 40
0.2
 49
0.1
 74
0
 49
-0.1
 74
0
  0
ENDTAB
  0
TABLE
  2
LAYER
  5
2
100
AcDbSymbolTable
 70
36
  0
LAYER
  5
10
100
AcDbSymbolTableRecord
100
AcDbLayerTableRecord
  2
0
 70
0
 62
7
  6
CONTINUOUS
370
-3
390
F
  0
LAYER
  5
1FA
100
AcDbSymbolTableRecord
100
AcDbLayerTableRecord
  2
DEFAULT_1
 70
0
 62
7
  6
CENTER
370
-3
390
F
  0
LAYER
  5
1FB
100
AcDbSymbolTableRecord
100
AcDbLayerTableRecord
  2
DEFAULT_2
 70
0
 62
8
  6
HIDDEN
370
-3
390
F
  0
LAYER
  5
1FC
100
AcDbSymbolTableRecord
100
AcDbLayerTableRecord
  2
DEFAULT_3
 70
0
 62
7
  6
PHANTOM
370
-3
390
F
  0
LAYER
  5
1FD
100
AcDbSymbolTableRecord
100
AcDbLayerTableRecord
  2
01___PRT_ALL_DTM_PLN
 70
0
 62
7
  6
CONTINUOUS
370
-3
390
F
  0
LAYER
  5
1FE
100
AcDbSymbolTableRecord
100
AcDbLayerTableRecord
  2
01___PRT_DEF_DTM_PLN
 70
0
 62
7
  6
CONTINUOUS
370
-3
390
F
  0
LAYER
  5
1FF
100
AcDbSymbolTableRecord
100
AcDbLayerTableRecord
  2
02___PRT_ALL_AXES
 70
0
 62
7
  6
CONTINUOUS
370
-3
390
F
  0
LAYER
  5
200
100
AcDbSymbolTableRecord
100
AcDbLayerTableRecord
  2
03___PRT_ALL_CURVES
 70
0
 62
7
  6
CONTINUOUS
370
-3
390
F
  0
LAYER
  5
201
100
AcDbSymbolTableRecord
100
AcDbLayerTableRecord
  2
04___PRT_ALL_DTM_PNT
 70
0
 62
7
  6
CONTINUOUS
370
-3
390
F
  0
LAYER
  5
202
100
AcDbSymbolTableRecord
100
AcDbLayerTableRecord
  2
05___PRT_ALL_DTM_CSYS
 70
0
 62
7
  6
CONTINUOUS
370
-3
390
F
  0
LAYER
  5
203
100
AcDbSymbolTableRecord
100
AcDbLayerTableRecord
  2
05___PRT_DEF_DTM_CSYS
 70
0
 62
7
  6
CONTINUOUS
370
-3
390
F
  0
LAYER
  5
204
100
AcDbSymbolTableRecord
100
AcDbLayerTableRecord
  2
06___PRT_ALL_SURFS
 70
0
 62
7
  6
CONTINUOUS
370
-3
390
F
  0
LAYER
  5
205
100
AcDbSymbolTableRecord
100
AcDbLayerTableRecord
  2
DATUM_PLANES
 70
0
 62
7
  6
CONTINUOUS
370
-3
390
F
  0
LAYER
  5
206
100
AcDbSymbolTableRecord
100
AcDbLayerTableRecord
  2
PORT_AREAS
 70
0
 62
7
  6
CONTINUOUS
370
-3
390
F
  0
LAYER
  5
207
100
AcDbSymbolTableRecord
100
AcDbLayerTableRecord
  2
SUNNBOMCOSMETIC
 70
0
 62
7
  6
CONTINUOUS
370
-3
390
F
  0
LAYER
  5
208
100
AcDbSymbolTableRecord
100
AcDbLayerTableRecord
  2
SUNNBOMSTAMPING
 70
0
 62
7
  6
CONTINUOUS
370
-3
390
F
  0
LAYER
  5
209
100
AcDbSymbolTableRecord
100
AcDbLayerTableRecord
  2
THREADS
 70
0
 62
7
  6
CONTINUOUS
370
-3
390
F
  0
ENDTAB
  0
TABLE
  2
STYLE
  5
3
100
AcDbSymbolTable
 70
1
  0
STYLE
  5
11
100
AcDbSymbolTableRecord
100
AcDbTextStyleTableRecord
  2
STANDARD
 70
0
 40
0.0
 41
0.8
 50
0.0
 71
0
 42
0.2
  3
txt
  4

  0
STYLE
  5
20A
100
AcDbSymbolTableRecord
100
AcDbTextStyleTableRecord
  2
TEXTSTYLE_1
 70
0
 40
0.0
 41
0.8
 50
0.0
 71
0
 42
0.2
  3
gdt
  4

  0
ENDTAB
  0
TABLE
  2
VIEW
  5
6
100
AcDbSymbolTable
 70
0
  0
ENDTAB
  0
TABLE
  2
UCS
  5
7
100
AcDbSymbolTable
 70
0
  0
ENDTAB
  0
TABLE
  2
APPID
  5
9
100
AcDbSymbolTable
 70
1
  0
APPID
  5
20B
100
AcDbSymbolTableRecord
100
AcDbRegAppTableRecord
  2
ACAD
 70
0
  0
ENDTAB
  0
TABLE
  2
BLOCK_RECORD
  5
1
100
AcDbSymbolTable
 70
0
  0
BLOCK_RECORD
  5
20C
100
AcDbSymbolTableRecord
100
AcDbBlockTableRecord
  2
*Model_Space
  0
BLOCK_RECORD
  5
20D
100
AcDbSymbolTableRecord
100
AcDbBlockTableRecord
  2
*Paper_Space
  0
BLOCK_RECORD
  5
20E
100
AcDbSymbolTableRecord
100
AcDbBlockTableRecord
  2
SUN_FIRST_THIRD_ANGLE_BL0
  0
BLOCK_RECORD
  5
20F
100
AcDbSymbolTableRecord
100
AcDbBlockTableRecord
  2
*T1
  0
BLOCK_RECORD
  5
210
100
AcDbSymbolTableRecord
100
AcDbBlockTableRecord
  2
*T2
  0
BLOCK_RECORD
  5
211
100
AcDbSymbolTableRecord
100
AcDbBlockTableRecord
  2
*T3
  0
ENDTAB
  0
TABLE
  2
DIMSTYLE
  5
A
100
AcDbSymbolTable
 70
1
100
AcDbDimStyleTable
 71
0
  0
DIMSTYLE
105
212
100
AcDbSymbolTableRecord
100
AcDbDimStyleTableRecord
  2
STANDARD
 70
0
  3

  4

 40
1.0
 41
0.1875
 42
0.0625
 43
0.38
 44
0.125
 45
0.0
 46
0.0
 47
0.001
 48
0.001
140
0.1
141
0.09
142
0.0
143
25.4
144
1.0
145
0.0
146
1.0
147
0.09
 71
0.0
 72
0.0
 73
1
 74
1
 75
0
 76
0
 77
0
 78
4
170
0
171
2
172
0
173
0
174
0
175
0
176
0
177
0
178
0
270
2
271
3
272
3
273
2
274
2
275
0
280
0
281
0
282
0
283
1
284
4
285
0
286
0
287
3
288
0
340
11
278
46
  0
ENDTAB
  0
ENDSEC
  0
SECTION
  2
BLOCKS
  0
BLOCK
  5
20
100
AcDbEntity
  8
0
100
AcDbBlockBegin
  2
*Model_Space
 70
0
 10
0.0
 20
0.0
 30
0.0
  3
*Model_Space
  1

  0
ENDBLK
  5
21
100
AcDbEntity
  8
0
100
AcDbBlockEnd
  0
BLOCK
  5
1C
100
AcDbEntity
  8
0
100
AcDbBlockBegin
  2
*Paper_Space
 70
0
 10
0.0
 20
0.0
 30
0.0
  3
*Paper_Space
  1

  0
ENDBLK
  5
1D
100
AcDbEntity
  8
0
100
AcDbBlockEnd
  0
BLOCK
  5
213
100
AcDbEntity
  8
0
100
AcDbBlockBegin
 62
2
  6
CONTINUOUS
  2
SUN_FIRST_THIRD_ANGLE_BL0
 70
64
 10
20.4816717061
 20
1.2289683772
  3
SUN_FIRST_THIRD_ANGLE_BL0
  1

  0
TEXT
  5
214
100
AcDbEntity
  8
0
100
AcDbText
 62
2
  6
CONTINUOUS
 10
19.4750896608
 20
1.4136269581
  7
STANDARD
 40
0.08
  1
FIRST ANGLE
 41
0.8
 72
0
100
AcDbText
  0
TEXT
  5
215
100
AcDbEntity
  8
0
100
AcDbText
 62
2
  6
CONTINUOUS
 10
20.7842537513
 20
1.4047600029
  7
STANDARD
 40
0.08
  1
THIRD ANGLE
 41
0.8
 72
0
100
AcDbText
  0
LINE
  5
216
100
AcDbEntity
  8
0
100
AcDbLine
 62
7
  6
CONTINUOUS
 10
19.4767170086
 20
1.1727031207
 11
19.6334271527
 21
1.1717972817
  0
LINE
  5
217
100
AcDbEntity
  8
0
100
AcDbLine
 62
7
  6
CONTINUOUS
 10
19.6596964832
 20
1.1717972817
 11
19.6950230232
 21
1.171593082
  0
LINE
  5
218
100
AcDbEntity
  8
0
100
AcDbLine
 62
7
  6
CONTINUOUS
 10
19.7194818561
 20
1.1708914427
 11
19.8852396156
 21
1.1699333054
  0
LINE
  5
219
100
AcDbEntity
  8
0
100
AcDbLine
 62
7
  6
CONTINUOUS
 10
19.4758111696
 20
1.2723454088
 11
19.88525039
 21
1.3511534004
  0
LINE
  5
21A
100
AcDbEntity
  8
0
100
AcDbLine
 62
7
  6
CONTINUOUS
 10
19.88525039
 20
1.3511534004
 11
19.8831348489
 21
0.9851647912
  0
LINE
  5
21B
100
AcDbEntity
  8
0
100
AcDbLine
 62
7
  6
CONTINUOUS
 10
19.8831348489
 20
0.9851647912
 11
19.4767170086
 21
1.0658141206
  0
LINE
  5
21C
100
AcDbEntity
  8
0
100
AcDbLine
 62
7
  6
CONTINUOUS
 10
19.4767170086
 20
1.0658141206
 11
19.4779056764
 21
1.2714536432
  0
CIRCLE
  5
21D
100
AcDbEntity
  8
0
100
AcDbCircle
 62
7
  6
CONTINUOUS
 10
20.2068232291
 20
1.1717972817
 40
0.175742101
  0
CIRCLE
  5
21E
100
AcDbEntity
  8
0
100
AcDbCircle
 62
7
  6
CONTINUOUS
 10
20.2068232291
 20
1.1717972817
 40
0.1005522074
  0
LINE
  5
21F
100
AcDbEntity
  8
0
100
AcDbLine
 62
7
  6
CONTINUOUS
 10
20.2077290681
 20
1.3756110529
 11
20.2071171714
 21
1.2379342989
  0
LINE
  5
220
100
AcDbEntity
  8
0
100
AcDbLine
 62
7
  6
CONTINUOUS
 10
20.2077290681
 20
1.2016899681
 11
20.2074674401
 21
1.1428236749
  0
LINE
  5
221
100
AcDbEntity
  8
0
100
AcDbLine
 62
7
  6
CONTINUOUS
 10
20.208634907
 20
1.101141841
 11
20.2080230104
 21
0.963465087
  0
LINE
  5
222
100
AcDbEntity
  8
0
100
AcDbLine
 62
7
  6
CONTINUOUS
 10
20.0066328138
 20
1.1745147986
 11
20.1443095678
 21
1.1739029019
  0
LINE
  5
223
100
AcDbEntity
  8
0
100
AcDbLine
 62
7
  6
CONTINUOUS
 10
20.1832714155
 20
1.1727031207
 11
20.238153505
 21
1.172335442
  0
LINE
  5
224
100
AcDbEntity
  8
0
100
AcDbLine
 62
7
  6
CONTINUOUS
 10
20.2756669918
 20
1.1717972817
 11
20.407916871
 21
1.1712095044
  0
CIRCLE
  5
225
100
AcDbEntity
  8
0
100
AcDbCircle
 62
7
  6
CONTINUOUS
 10
20.7509457401
 20
1.1693297793
 40
0.1722024983
  0
CIRCLE
  5
226
100
AcDbEntity
  8
0
100
AcDbCircle
 62
7
  6
CONTINUOUS
 10
20.7509457401
 20
1.1693297793
 40
0.0985164967
  0
LINE
  5
227
100
AcDbEntity
  8
0
100
AcDbLine
 62
7
  6
CONTINUOUS
 10
20.7169767782
 20
1.170462078
 11
20.7825395137
 21
1.1682766535
  0
LINE
  5
228
100
AcDbEntity
  8
0
100
AcDbLine
 62
7
  6
CONTINUOUS
 10
20.8177513651
 20
1.1693297793
 11
20.947965719
 21
1.1693297793
  0
LINE
  5
229
100
AcDbEntity
  8
0
100
AcDbLine
 62
7
  6
CONTINUOUS
 10
20.6875370113
 20
1.170462078
 11
20.5573226574
 21
1.170462078
  0
LINE
  5
22A
100
AcDbEntity
  8
0
100
AcDbLine
 62
7
  6
CONTINUOUS
 10
20.7486811426
 20
1.1987695462
 11
20.7486811426
 21
1.1432869085
  0
LINE
  5
22B
100
AcDbEntity
  8
0
100
AcDbLine
 62
7
  6
CONTINUOUS
 10
20.7498134414
 20
1.1059210505
 11
20.7498134414
 21
0.9757066966
  0
LINE
  5
22C
100
AcDbEntity
  8
0
100
AcDbLine
 62
7
  6
CONTINUOUS
 10
20.7486811426
 20
1.2338708068
 11
20.7486811426
 21
1.3640851607
  0
LINE
  5
22D
100
AcDbEntity
  8
0
100
AcDbLine
 62
7
  6
CONTINUOUS
 10
21.0702539817
 20
1.2701043662
 11
21.4790138229
 21
1.3448360823
  0
LINE
  5
22E
100
AcDbEntity
  8
0
100
AcDbLine
 62
7
  6
CONTINUOUS
 10
21.4790138229
 20
1.3448360823
 11
21.4790138229
 21
0.9779712941
  0
LINE
  5
22F
100
AcDbEntity
  8
0
100
AcDbLine
 62
7
  6
CONTINUOUS
 10
21.4790138229
 20
0.9779712941
 11
21.069121683
 21
1.0617614
  0
LINE
  5
230
100
AcDbEntity
  8
0
100
AcDbLine
 62
7
  6
CONTINUOUS
 10
21.0702539817
 20
1.2701043662
 11
21.069121683
 21
1.0617614
  0
LINE
  5
231
100
AcDbEntity
  8
0
100
AcDbLine
 62
7
  6
CONTINUOUS
 10
21.4790138229
 20
1.1693297793
 11
21.3159628059
 21
1.1693297793
  0
LINE
  5
232
100
AcDbEntity
  8
0
100
AcDbLine
 62
7
  6
CONTINUOUS
 10
21.2876553377
 20
1.1693297793
 11
21.2502894796
 21
1.1693297793
  0
LINE
  5
233
100
AcDbEntity
  8
0
100
AcDbLine
 62
7
  6
CONTINUOUS
 10
21.2208497126
 20
1.1659328831
 11
21.0713862804
 21
1.1659328831
  0
LINE
  5
234
100
AcDbEntity
  8
0
100
AcDbLine
 62
7
  6
CONTINUOUS
 10
20.4796138713
 20
1.5284908897
 11
20.4766766948
 21
0.9294458646
  0
ENDBLK
  5
235
100
AcDbEntity
  8
0
  6
BYBLOCK
 62
0
100
AcDbBlockEnd
  0
BLOCK
  5
236
100
AcDbEntity
  8
0
100
AcDbBlockBegin
  2
*T1
 70
1
 10
0.0
 20
0.0
  3
*T1
  1

  0
LINE
  5
237
100
AcDbEntity
  8
0
100
AcDbLine
 62
2
  6
CONTINUOUS
 10
9.275
 20
0.0
 11
-0.0
 21
0.0
  0
LINE
  5
238
100
AcDbEntity
  8
0
100
AcDbLine
 62
2
  6
CONTINUOUS
 10
9.275
 20
0.0
 11
9.275
 21
1.25
  0
LINE
  5
239
100
AcDbEntity
  8
0
100
AcDbLine
 62
2
  6
CONTINUOUS
 10
9.275
 20
0.625
 11
-0.0
 21
0.625
  0
LINE
  5
23A
100
AcDbEntity
  8
0
100
AcDbLine
 62
2
  6
CONTINUOUS
 10
9.275
 20
1.25
 11
-0.0
 21
1.25
  0
LINE
  5
23B
100
AcDbEntity
  8
0
100
AcDbLine
 62
2
  6
CONTINUOUS
 10
6.8
 20
0.0
 11
6.8
 21
1.25
  0
LINE
  5
23C
100
AcDbEntity
  8
0
100
AcDbLine
 62
2
  6
CONTINUOUS
 10
6.4
 20
0.0
 11
6.4
 21
0.625
  0
LINE
  5
23D
100
AcDbEntity
  8
0
100
AcDbLine
 62
2
  6
CONTINUOUS
 10
5.9
 20
0.0
 11
5.9
 21
0.625
  0
LINE
  5
23E
100
AcDbEntity
  8
0
100
AcDbLine
 62
2
  6
CONTINUOUS
 10
5.2
 20
0.0
 11
5.2
 21
0.625
  0
LINE
  5
23F
100
AcDbEntity
  8
0
100
AcDbLine
 62
2
  6
CONTINUOUS
 10
4.1
 20
0.0
 11
4.1
 21
1.25
  0
LINE
  5
240
100
AcDbEntity
  8
0
100
AcDbLine
 62
2
  6
CONTINUOUS
 10
-0.0
 20
0.0
 11
-0.0
 21
1.25
  0
MTEXT
  5
241
100
AcDbEntity
  8
0
100
AcDbMText
 62
2
  6
CONTINUOUS
  7
STANDARD
 71
2
 72
1
 10
6.6
 20
0.325
 30
0.0
 11
1.0
 21
0.0
 31
0.0
 44
0.9
  1
2
 40
0.125
 41
0.2
  0
MTEXT
  5
242
100
AcDbEntity
  8
0
100
AcDbMText
 62
2
  6
CONTINUOUS
  7
STANDARD
 71
2
 72
1
 10
6.15
 20
0.325
 30
0.0
 11
1.0
 21
0.0
 31
0.0
 44
0.9
  1
C
 40
0.125
 41
0.2
  0
MTEXT
  5
243
100
AcDbEntity
  8
0
100
AcDbMText
 62
2
  6
CONTINUOUS
  7
STANDARD
 71
2
 72
1
 10
5.55
 20
0.325
 30
0.0
 11
1.0
 21
0.0
 31
0.0
 44
0.9
  1
1.000
 40
0.125
 41
1.0
  0
MTEXT
  5
244
100
AcDbEntity
  8
0
100
AcDbMText
 62
2
  6
CONTINUOUS
  7
STANDARD
 71
2
 72
1
 10
4.65
 20
0.325
 30
0.0
 11
1.0
 21
0.0
 31
0.0
 44
0.9
  1
Jul-26-19
 40
0.125
 41
1.8
  0
MTEXT
  5
245
100
AcDbEntity
  8
0
100
AcDbMText
 62
2
  6
CONTINUOUS
  7
STANDARD
 71
2
 72
1
 10
2.05
 20
0.4625
 30
0.0
 11
1.0
 21
0.0
 31
0.0
 44
0.9
  1
T-2A Line mount\PThrough port 2 with reverse flow check
 40
0.125
 41
7.6
  0
MTEXT
  5
246
100
AcDbEntity
  8
0
100
AcDbMText
 62
2
  6
CONTINUOUS
  7
STANDARD
 71
1
 72
1
 10
6.45
 20
0.5625
 30
0.0
 11
1.0
 21
0.0
 31
0.0
 44
0.9
  1
SHEET
 40
0.06
 41
0.48
  0
MTEXT
  5
247
100
AcDbEntity
  8
0
100
AcDbMText
 62
2
  6
CONTINUOUS
  7
STANDARD
 71
1
 72
1
 10
5.95
 20
0.5625
 30
0.0
 11
1.0
 21
0.0
 31
0.0
 44
0.9
  1
DWG SIZE
 40
0.06
 41
0.768
  0
MTEXT
  5
248
100
AcDbEntity
  8
0
100
AcDbMText
 62
2
  6
CONTINUOUS
  7
STANDARD
 71
1
 72
1
 10
5.25
 20
0.5625
 30
0.0
 11
1.0
 21
0.0
 31
0.0
 44
0.9
  1
SCALE
 40
0.06
 41
0.48
  0
MTEXT
  5
249
100
AcDbEntity
  8
0
100
AcDbMText
 62
2
  6
CONTINUOUS
  7
STANDARD
 71
1
 72
1
 10
4.15
 20
0.5625
 30
0.0
 11
1.0
 21
0.0
 31
0.0
 44
0.9
  1
DATE
 40
0.06
 41
0.384
  0
MTEXT
  5
24A
100
AcDbEntity
  8
0
100
AcDbMText
 62
2
  6
CONTINUOUS
  7
STANDARD
 71
1
 72
1
 10
0.05
 20
0.5625
 30
0.0
 11
1.0
 21
0.0
 31
0.0
 44
0.9
  1
DESCRIPTION
 40
0.06
 41
1.056
  0
MTEXT
  5
24B
100
AcDbEntity
  8
0
100
AcDbMText
 62
2
  6
CONTINUOUS
  7
STANDARD
 71
2
 72
1
 10
5.45
 20
1.0375
 30
0.0
 11
1.0
 21
0.0
 31
0.0
 44
0.9
  1
ALL DIMENSIONS IN INCH\PVIEWS ARE THIRD ANGLE
 40
0.12
 41
4.224
  0
MTEXT
  5
24C
100
AcDbEntity
  8
0
100
AcDbMText
 62
2
  6
CONTINUOUS
  7
STANDARD
 71
2
 72
1
 10
2.05
 20
0.95
 30
0.0
 11
1.0
 21
0.0
 31
0.0
 44
0.9
  1
B3L
 40
0.125
 41
0.6
  0
MTEXT
  5
24D
100
AcDbEntity
  8
0
100
AcDbMText
 62
2
  6
CONTINUOUS
  7
STANDARD
 71
1
 72
1
 10
0.05
 20
1.1875
 30
0.0
 11
1.0
 21
0.0
 31
0.0
 44
0.9
  1
MODEL
 40
0.06
 41
0.48
  0
ENDBLK
  5
24E
100
AcDbEntity
  8
0
  6
BYBLOCK
 62
0
100
AcDbBlockEnd
  0
BLOCK
  5
24F
100
AcDbEntity
  8
0
100
AcDbBlockBegin
  2
*T2
 70
1
 10
0.0
 20
0.0
  3
*T2
  1

  0
LINE
  5
250
100
AcDbEntity
  8
0
100
AcDbLine
 62
2
  6
CONTINUOUS
 10
0.0
 20
0.0
 11
9.055
 21
0.0
  0
LINE
  5
251
100
AcDbEntity
  8
0
100
AcDbLine
 62
2
  6
CONTINUOUS
 10
0.0
 20
0.0
 11
0.0
 21
-2.594
  0
LINE
  5
252
100
AcDbEntity
  8
0
100
AcDbLine
 62
2
  6
CONTINUOUS
 10
0.0
 20
-0.344
 11
9.055
 21
-0.344
  0
LINE
  5
253
100
AcDbEntity
  8
0
100
AcDbLine
 62
2
  6
CONTINUOUS
 10
0.0
 20
-0.594
 11
9.055
 21
-0.594
  0
LINE
  5
254
100
AcDbEntity
  8
0
100
AcDbLine
 62
2
  6
CONTINUOUS
 10
0.0
 20
-0.844
 11
9.055
 21
-0.844
  0
LINE
  5
255
100
AcDbEntity
  8
0
100
AcDbLine
 62
2
  6
CONTINUOUS
 10
0.0
 20
-1.094
 11
9.055
 21
-1.094
  0
LINE
  5
256
100
AcDbEntity
  8
0
100
AcDbLine
 62
2
  6
CONTINUOUS
 10
0.0
 20
-1.344
 11
9.055
 21
-1.344
  0
LINE
  5
257
100
AcDbEntity
  8
0
100
AcDbLine
 62
2
  6
CONTINUOUS
 10
0.0
 20
-1.594
 11
9.055
 21
-1.594
  0
LINE
  5
258
100
AcDbEntity
  8
0
100
AcDbLine
 62
2
  6
CONTINUOUS
 10
0.0
 20
-1.844
 11
9.055
 21
-1.844
  0
LINE
  5
259
100
AcDbEntity
  8
0
100
AcDbLine
 62
2
  6
CONTINUOUS
 10
0.0
 20
-2.094
 11
9.055
 21
-2.094
  0
LINE
  5
25A
100
AcDbEntity
  8
0
100
AcDbLine
 62
2
  6
CONTINUOUS
 10
0.0
 20
-2.344
 11
9.055
 21
-2.344
  0
LINE
  5
25B
100
AcDbEntity
  8
0
100
AcDbLine
 62
2
  6
CONTINUOUS
 10
0.0
 20
-2.594
 11
9.055
 21
-2.594
  0
LINE
  5
25C
100
AcDbEntity
  8
0
100
AcDbLine
 62
2
  6
CONTINUOUS
 10
3.055
 20
0.0
 11
3.055
 21
-2.594
  0
LINE
  5
25D
100
AcDbEntity
  8
0
100
AcDbLine
 62
2
  6
CONTINUOUS
 10
9.055
 20
0.0
 11
9.055
 21
-2.594
  0
MTEXT
  5
25E
100
AcDbEntity
  8
0
100
AcDbMText
 62
2
  6
CONTINUOUS
  7
STANDARD
 71
2
 72
1
 10
1.5275
 20
-0.0995
 30
0.0
 11
1.0
 21
0.0
 31
0.0
 44
0.9
  1
Technical Data
 40
0.145
 41
3.248
  0
MTEXT
  5
25F
100
AcDbEntity
  8
0
100
AcDbMText
 62
2
  6
CONTINUOUS
  7
STANDARD
 71
2
 72
1
 10
4.555
 20
-0.0995
 30
0.0
 11
1.0
 21
0.0
 31
0.0
 44
0.9
  1
U.S. Units
 40
0.145
 41
2.32
  0
MTEXT
  5
260
100
AcDbEntity
  8
0
100
AcDbMText
 62
2
  6
CONTINUOUS
  7
STANDARD
 71
2
 72
1
 10
7.555
 20
-0.0995
 30
0.0
 11
1.0
 21
0.0
 31
0.0
 44
0.9
  1
Metric Units
 40
0.145
 41
2.784
  0
MTEXT
  5
261
100
AcDbEntity
  8
0
100
AcDbMText
 62
2
  6
CONTINUOUS
  7
STANDARD
 71
2
 72
1
 10
1.5275
 20
-0.4065
 30
0.0
 11
1.0
 21
0.0
 31
0.0
 44
0.9
  1
Cavity
 40
0.125
 41
1.2
  0
MTEXT
  5
262
100
AcDbEntity
  8
0
100
AcDbMText
 62
2
  6
CONTINUOUS
  7
STANDARD
 71
2
 72
1
 10
6.055
 20
-0.4065
 30
0.0
 11
1.0
 21
0.0
 31
0.0
 44
0.9
  1
T-2A
 40
0.125
 41
0.8
  0
MTEXT
  5
263
100
AcDbEntity
  8
0
100
AcDbMText
 62
2
  6
CONTINUOUS
  7
STANDARD
 71
2
 72
1
 10
1.5275
 20
-0.6565
 30
0.0
 11
1.0
 21
0.0
 31
0.0
 44
0.9
  1
Body Features
 40
0.125
 41
2.6
  0
MTEXT
  5
264
100
AcDbEntity
  8
0
100
AcDbMText
 62
2
  6
CONTINUOUS
  7
STANDARD
 71
2
 72
1
 10
6.055
 20
-0.6565
 30
0.0
 11
1.0
 21
0.0
 31
0.0
 44
0.9
  1
Through port 2 with reverse flow check
 40
0.125
 41
7.6
  0
MTEXT
  5
265
100
AcDbEntity
  8
0
100
AcDbMText
 62
2
  6
CONTINUOUS
  7
STANDARD
 71
2
 72
1
 10
1.5275
 20
-0.9065
 30
0.0
 11
1.0
 21
0.0
 31
0.0
 44
0.9
  1
Body Type
 40
0.125
 41
1.8
  0
MTEXT
  5
266
100
AcDbEntity
  8
0
100
AcDbMText
 62
2
  6
CONTINUOUS
  7
STANDARD
 71
2
 72
1
 10
6.055
 20
-0.9065
 30
0.0
 11
1.0
 21
0.0
 31
0.0
 44
0.9
  1
Line mount
 40
0.125
 41
2.0
  0
MTEXT
  5
267
100
AcDbEntity
  8
0
100
AcDbMText
 62
2
  6
CONTINUOUS
  7
STANDARD
 71
2
 72
1
 10
1.5275
 20
-1.1565
 30
0.0
 11
1.0
 21
0.0
 31
0.0
 44
0.9
  1
Interface
 40
0.125
 41
1.8
  0
MTEXT
  5
268
100
AcDbEntity
  8
0
100
AcDbMText
 62
2
  6
CONTINUOUS
  7
STANDARD
 71
2
 72
1
 10
6.055
 20
-1.1565
 30
0.0
 11
1.0
 21
0.0
 31
0.0
 44
0.9
  1
None
 40
0.125
 41
0.8
  0
MTEXT
  5
269
100
AcDbEntity
  8
0
100
AcDbMText
 62
2
  6
CONTINUOUS
  7
STANDARD
 71
2
 72
1
 10
1.5275
 20
-1.4065
 30
0.0
 11
1.0
 21
0.0
 31
0.0
 44
0.9
  1
Open Cavity Quantity
 40
0.125
 41
4.0
  0
MTEXT
  5
26A
100
AcDbEntity
  8
0
100
AcDbMText
 62
2
  6
CONTINUOUS
  7
STANDARD
 71
2
 72
1
 10
6.055
 20
-1.4065
 30
0.0
 11
1.0
 21
0.0
 31
0.0
 44
0.9
  1
1
 40
0.125
 41
0.2
  0
MTEXT
  5
26B
100
AcDbEntity
  8
0
100
AcDbMText
 62
2
  6
CONTINUOUS
  7
STANDARD
 71
2
 72
1
 10
1.5275
 20
-1.6565
 30
0.0
 11
1.0
 21
0.0
 31
0.0
 44
0.9
  1
Weight
 40
0.125
 41
1.2
  0
MTEXT
  5
26C
100
AcDbEntity
  8
0
100
AcDbMText
 62
2
  6
CONTINUOUS
  7
STANDARD
 71
2
 72
1
 10
4.555
 20
-1.6565
 30
0.0
 11
1.0
 21
0.0
 31
0.0
 44
0.9
  1
3.334 lb.
 40
0.125
 41
1.8
  0
MTEXT
  5
26D
100
AcDbEntity
  8
0
100
AcDbMText
 62
2
  6
CONTINUOUS
  7
STANDARD
 71
2
 72
1
 10
7.555
 20
-1.6565
 30
0.0
 11
1.0
 21
0.0
 31
0.0
 44
0.9
  1
1,512 kg.
 40
0.125
 41
1.8
  0
MTEXT
  5
26E
100
AcDbEntity
  8
0
100
AcDbMText
 62
2
  6
CONTINUOUS
  7
STANDARD
 71
2
 72
1
 10
1.5275
 20
-1.9065
 30
0.0
 11
1.0
 21
0.0
 31
0.0
 44
0.9
  1
Mounting Hole Thread
 40
0.125
 41
4.0
  0
MTEXT
  5
26F
100
AcDbEntity
  8
0
100
AcDbMText
 62
2
  6
CONTINUOUS
  7
STANDARD
 71
2
 72
1
 10
4.555
 20
-1.9065
 30
0.0
 11
1.0
 21
0.0
 31
0.0
 44
0.9
  1
.375-16 UNC - 2B in.
 40
0.125
 41
4.0
  0
MTEXT
  5
270
100
AcDbEntity
  8
0
100
AcDbMText
 62
2
  6
CONTINUOUS
  7
STANDARD
 71
2
 72
1
 10
1.5275
 20
-2.1565
 30
0.0
 11
1.0
 21
0.0
 31
0.0
 44
0.9
  1
Mounting Hole Depth
 40
0.125
 41
3.8
  0
MTEXT
  5
271
100
AcDbEntity
  8
0
100
AcDbMText
 62
2
  6
CONTINUOUS
  7
STANDARD
 71
2
 72
1
 10
4.555
 20
-2.1565
 30
0.0
 11
1.0
 21
0.0
 31
0.0
 44
0.9
  1
.62 in.
 40
0.125
 41
1.4
  0
MTEXT
  5
272
100
AcDbEntity
  8
0
100
AcDbMText
 62
2
  6
CONTINUOUS
  7
STANDARD
 71
2
 72
1
 10
7.555
 20
-2.1565
 30
0.0
 11
1.0
 21
0.0
 31
0.0
 44
0.9
  1
15,7 mm
 40
0.125
 41
1.4
  0
MTEXT
  5
273
100
AcDbEntity
  8
0
100
AcDbMText
 62
2
  6
CONTINUOUS
  7
STANDARD
 71
2
 72
1
 10
1.5275
 20
-2.4065
 30
0.0
 11
1.0
 21
0.0
 31
0.0
 44
0.9
  1
Mounting Hole Quantity
 40
0.125
 41
4.4
  0
MTEXT
  5
274
100
AcDbEntity
  8
0
100
AcDbMText
 62
2
  6
CONTINUOUS
  7
STANDARD
 71
2
 72
1
 10
6.055
 20
-2.4065
 30
0.0
 11
1.0
 21
0.0
 31
0.0
 44
0.9
  1
2
 40
0.125
 41
0.2
  0
ENDBLK
  5
275
100
AcDbEntity
  8
0
  6
BYBLOCK
 62
0
100
AcDbBlockEnd
  0
BLOCK
  5
276
100
AcDbEntity
  8
0
100
AcDbBlockBegin
  2
*T3
 70
1
 10
0.0
 20
0.0
  3
*T3
  1

  0
LINE
  5
277
100
AcDbEntity
  8
0
100
AcDbLine
 62
2
  6
CONTINUOUS
 10
0.0
 20
0.0
 11
4.6
 21
0.0
  0
LINE
  5
278
100
AcDbEntity
  8
0
100
AcDbLine
 62
2
  6
CONTINUOUS
 10
0.0
 20
0.0
 11
0.0
 21
-1.43775
  0
LINE
  5
279
100
AcDbEntity
  8
0
100
AcDbLine
 62
2
  6
CONTINUOUS
 10
0.0
 20
-0.34375
 11
4.6
 21
-0.34375
  0
LINE
  5
27A
100
AcDbEntity
  8
0
100
AcDbLine
 62
2
  6
CONTINUOUS
 10
0.0
 20
-0.68775
 11
4.6
 21
-0.68775
  0
LINE
  5
27B
100
AcDbEntity
  8
0
100
AcDbLine
 62
2
  6
CONTINUOUS
 10
0.0
 20
-0.93775
 11
4.6
 21
-0.93775
  0
LINE
  5
27C
100
AcDbEntity
  8
0
100
AcDbLine
 62
2
  6
CONTINUOUS
 10
0.0
 20
-1.18775
 11
4.6
 21
-1.18775
  0
LINE
  5
27D
100
AcDbEntity
  8
0
100
AcDbLine
 62
2
  6
CONTINUOUS
 10
0.0
 20
-1.43775
 11
4.6
 21
-1.43775
  0
LINE
  5
27E
100
AcDbEntity
  8
0
100
AcDbLine
 62
2
  6
CONTINUOUS
 10
1.3
 20
-0.34375
 11
1.3
 21
-1.43775
  0
LINE
  5
27F
100
AcDbEntity
  8
0
100
AcDbLine
 62
2
  6
CONTINUOUS
 10
3.3
 20
-0.34375
 11
3.3
 21
-1.43775
  0
LINE
  5
280
100
AcDbEntity
  8
0
100
AcDbLine
 62
2
  6
CONTINUOUS
 10
4.6
 20
0.0
 11
4.6
 21
-1.43775
  0
MTEXT
  5
281
100
AcDbEntity
  8
0
100
AcDbMText
 62
2
  6
CONTINUOUS
  7
STANDARD
 71
2
 72
1
 10
2.3
 20
-0.099375
 30
0.0
 11
1.0
 21
0.0
 31
0.0
 44
0.9
  1
Port Headings
 40
0.145
 41
3.016
  0
MTEXT
  5
282
100
AcDbEntity
  8
0
100
AcDbMText
 62
2
  6
CONTINUOUS
  7
STANDARD
 71
2
 72
1
 10
0.65
 20
-0.44325
 30
0.0
 11
1.0
 21
0.0
 31
0.0
 44
0.9
  1
Product
 40
0.145
 41
1.624
  0
MTEXT
  5
283
100
AcDbEntity
  8
0
100
AcDbMText
 62
2
  6
CONTINUOUS
  7
STANDARD
 71
2
 72
1
 10
2.3
 20
-0.44325
 30
0.0
 11
1.0
 21
0.0
 31
0.0
 44
0.9
  1
Port
 40
0.145
 41
0.928
  0
MTEXT
  5
284
100
AcDbEntity
  8
0
100
AcDbMText
 62
2
  6
CONTINUOUS
  7
STANDARD
 71
2
 72
1
 10
3.95
 20
-0.44325
 30
0.0
 11
1.0
 21
0.0
 31
0.0
 44
0.9
  1
Size
 40
0.145
 41
0.928
  0
MTEXT
  5
285
100
AcDbEntity
  8
0
100
AcDbMText
 62
2
  6
CONTINUOUS
  7
STANDARD
 71
2
 72
1
 10
0.65
 20
-0.75025
 30
0.0
 11
1.0
 21
0.0
 31
0.0
 44
0.9
  1
B3L
 40
0.125
 41
0.6
  0
MTEXT
  5
286
100
AcDbEntity
  8
0
100
AcDbMText
 62
2
  6
CONTINUOUS
  7
STANDARD
 71
2
 72
1
 10
2.3
 20
-0.75025
 30
0.0
 11
1.0
 21
0.0
 31
0.0
 44
0.9
  1
Ports 1 &  2
 40
0.125
 41
2.4
  0
MTEXT
  5
287
100
AcDbEntity
  8
0
100
AcDbMText
 62
2
  6
CONTINUOUS
  7
STANDARD
 71
2
 72
1
 10
3.95
 20
-0.75025
 30
0.0
 11
1.0
 21
0.0
 31
0.0
 44
0.9
  1
SAE 12
 40
0.125
 41
1.2
  0
MTEXT
  5
288
100
AcDbEntity
  8
0
100
AcDbMText
 62
2
  6
CONTINUOUS
  7
STANDARD
 71
2
 72
1
 10
0.65
 20
-1.00025
 30
0.0
 11
1.0
 21
0.0
 31
0.0
 44
0.9
  1
B3L
 40
0.125
 41
0.6
  0
MTEXT
  5
289
100
AcDbEntity
  8
0
100
AcDbMText
 62
2
  6
CONTINUOUS
  7
STANDARD
 71
2
 72
1
 10
2.3
 20
-1.00025
 30
0.0
 11
1.0
 21
0.0
 31
0.0
 44
0.9
  1
Port 3
 40
0.125
 41
1.2
  0
MTEXT
  5
28A
100
AcDbEntity
  8
0
100
AcDbMText
 62
2
  6
CONTINUOUS
  7
STANDARD
 71
2
 72
1
 10
3.95
 20
-1.00025
 30
0.0
 11
1.0
 21
0.0
 31
0.0
 44
0.9
  1
SAE 6
 40
0.125
 41
1.0
  0
MTEXT
  5
28B
100
AcDbEntity
  8
0
100
AcDbMText
 62
2
  6
CONTINUOUS
  7
STANDARD
 71
2
 72
1
 10
0.65
 20
-1.25025
 30
0.0
 11
1.0
 21
0.0
 31
0.0
 44
0.9
  1
B3L
 40
0.125
 41
0.6
  0
MTEXT
  5
28C
100
AcDbEntity
  8
0
100
AcDbMText
 62
2
  6
CONTINUOUS
  7
STANDARD
 71
2
 72
1
 10
2.3
 20
-1.25025
 30
0.0
 11
1.0
 21
0.0
 31
0.0
 44
0.9
  1
Gage Port
 40
0.125
 41
1.8
  0
MTEXT
  5
28D
100
AcDbEntity
  8
0
100
AcDbMText
 62
2
  6
CONTINUOUS
  7
STANDARD
 71
2
 72
1
 10
3.95
 20
-1.25025
 30
0.0
 11
1.0
 21
0.0
 31
0.0
 44
0.9
  1
1/4" NPTF
 40
0.125
 41
1.8
  0
ENDBLK
  5
28E
100
AcDbEntity
  8
0
  6
BYBLOCK
 62
0
100
AcDbBlockEnd
  0
ENDSEC
  0
SECTION
  2
ENTITIES
  0
IMAGE
  5
28F
100
AcDbEntity
  8
0
100
AcDbRasterImage
 62
7
  6
CONTINUOUS
 10
19.2297077316
 20
0.3094318264
 30
0.0
 11
0.0066666667
 21
0.0
 31
0.0
 12
0.0
 22
0.0066666667
 32
0.0
 13
369.0
 23
92.0
340
       3C1
 70
9
280
0
281
50
282
50
283
0
360
       3BB
 71
1
 91
2
 14
-0.5
 24
-0.5
 14
368.5
 24
91.5
  0
INSERT
  5
290
100
AcDbEntity
  8
0
100
AcDbBlockReference
 62
2
  6
CONTINUOUS
  2
SUN_FIRST_THIRD_ANGLE_BL0
 10
20.4816717061
 20
1.2289683772
  0
ACAD_TABLE
  5
291
100
AcDbEntity
  8
0
 62
2
  6
CONTINUOUS
100
AcDbBlockReference
  2
*T1
 10
12.42375
 20
0.30125
 30
0.0
100
AcDbTable
342
       3C3
343
20F
 11
1.0
 21
0.0
 31
0.0
 90
6
 91
4
 92
6
 93
20
 94
0
 95
0
 96
0
 70
1
 41
0.0
141
0.525
141
0.1
141
0.525
141
0.1
142
4.1
142
1.1
142
0.7
142
0.5
142
0.4
142
2.475
171
1
172
0
173
0
174
0
175
1
176
1
 91
33
178
0
145
0.0
301
CELL_VALUE
 90
4
  1
T-2A Line mount\PThrough port 2 with reverse flow check
304
ACVALUE_END
170
2
140
0.125
171
1
172
0
173
0
174
0
175
1
176
1
 91
33
178
0
145
0.0
301
CELL_VALUE
 90
4
  1
Jul-26-19
304
ACVALUE_END
170
5
140
0.125
171
1
172
0
173
0
174
0
175
1
176
1
 91
33
178
0
145
0.0
301
CELL_VALUE
 90
4
  1
1.000
304
ACVALUE_END
170
5
140
0.125
171
1
172
0
173
0
174
0
175
1
176
1
 91
33
178
0
145
0.0
301
CELL_VALUE
 90
4
  1
C
304
ACVALUE_END
170
5
140
0.125
171
1
172
0
173
0
174
0
175
1
176
1
 91
33
178
0
145
0.0
301
CELL_VALUE
 90
4
  1
2
304
ACVALUE_END
170
5
140
0.125
171
1
172
0
173
0
174
0
175
1
176
1
 91
33
178
0
145
0.0
301
CELL_VALUE
 90
4
  1
 
304
ACVALUE_END
170
1
140
0.125
171
1
172
0
173
0
174
0
175
1
176
1
 91
33
178
0
145
0.0
301
CELL_VALUE
 90
4
  1
DESCRIPTION
304
ACVALUE_END
170
1
140
0.06
171
1
172
0
173
0
174
0
175
1
176
1
 91
33
178
0
145
0.0
301
CELL_VALUE
 90
4
  1
DATE
304
ACVALUE_END
170
1
140
0.06
171
1
172
0
173
0
174
0
175
1
176
1
 91
33
178
0
145
0.0
301
CELL_VALUE
 90
4
  1
SCALE
304
ACVALUE_END
170
1
140
0.06
171
1
172
0
173
0
174
0
175
1
176
1
 91
33
178
0
145
0.0
301
CELL_VALUE
 90
4
  1
DWG SIZE
304
ACVALUE_END
170
1
140
0.06
171
1
172
0
173
0
174
0
175
1
176
1
 91
33
178
0
145
0.0
301
CELL_VALUE
 90
4
  1
SHEET
304
ACVALUE_END
170
1
140
0.06
171
1
172
0
173
0
174
0
175
1
176
1
 91
33
178
0
145
0.0
301
CELL_VALUE
 90
4
  1
 
304
ACVALUE_END
170
1
140
0.125
171
1
172
0
173
0
174
0
175
1
176
1
 91
33
178
0
145
0.0
301
CELL_VALUE
 90
4
  1
B3L
304
ACVALUE_END
170
5
140
0.125
171
1
172
0
173
0
174
0
175
4
176
1
 91
33
178
0
145
0.0
301
CELL_VALUE
 90
4
  1
ALL DIMENSIONS IN INCH\PVIEWS ARE THIRD ANGLE
304
ACVALUE_END
170
5
140
0.12
171
1
172
0
173
1
174
0
175
1
176
1
 91
1
178
0
145
0.0
170
1
171
1
172
0
173
1
174
0
175
1
176
1
 91
1
178
0
145
0.0
170
1
171
1
172
0
173
1
174
0
175
1
176
1
 91
1
178
0
145
0.0
170
5
171
1
172
0
173
0
174
0
175
1
176
1
 91
33
178
0
145
0.0
301
CELL_VALUE
 90
4
  1
 
304
ACVALUE_END
170
1
140
0.125
171
1
172
0
173
0
174
0
175
1
176
1
 91
33
178
0
145
0.0
301
CELL_VALUE
 90
4
  1
MODEL
304
ACVALUE_END
170
1
140
0.06
171
1
172
0
173
0
174
0
175
1
176
1
 91
33
178
0
145
0.0
301
CELL_VALUE
 90
4
  1
 
304
ACVALUE_END
170
1
140
0.125
171
1
172
0
173
0
174
0
175
1
176
1
 91
33
178
0
145
0.0
301
CELL_VALUE
 90
4
  1
 
304
ACVALUE_END
170
1
140
0.125
171
1
172
0
173
0
174
0
175
1
176
1
 91
33
178
0
145
0.0
301
CELL_VALUE
 90
4
  1
 
304
ACVALUE_END
170
1
140
0.125
171
1
172
0
173
0
174
0
175
1
176
1
 91
33
178
0
145
0.0
301
CELL_VALUE
 90
4
  1
 
304
ACVALUE_END
170
1
140
0.125
171
1
172
0
173
0
174
0
175
1
176
1
 91
33
178
0
145
0.0
301
CELL_VALUE
 90
4
  1
 
304
ACVALUE_END
170
1
140
0.125
  0
ACAD_TABLE
  5
292
100
AcDbEntity
  8
0
 62
2
  6
CONTINUOUS
100
AcDbBlockReference
  2
*T2
 10
12.4237499994
 20
16.47875
 30
0.0
100
AcDbTable
342
       3C2
343
210
 11
1.0
 21
0.0
 31
0.0
 90
22
 91
10
 92
3
 93
16
 94
0
 95
0
 96
0
 41
0.028
141
0.344
141
0.25
141
0.25
141
0.25
141
0.25
141
0.25
141
0.25
141
0.25
141
0.25
141
0.25
142
3.055
142
3.0
142
3.0
171
1
172
0
173
0
174
0
175
1
176
1
 91
33
178
0
145
0.0
301
CELL_VALUE
 90
4
  1
Technical Data
304
ACVALUE_END
170
5
140
0.145
171
1
172
0
173
0
174
0
175
1
176
1
 91
33
178
0
145
0.0
301
CELL_VALUE
 90
4
  1
U.S. Units
304
ACVALUE_END
170
5
140
0.145
171
1
172
0
173
0
174
0
175
1
176
1
 91
33
178
0
145
0.0
301
CELL_VALUE
 90
4
  1
Metric Units
304
ACVALUE_END
170
5
140
0.145
171
1
172
0
173
0
174
0
175
1
176
1
 91
33
178
0
145
0.0
301
CELL_VALUE
 90
4
  1
Cavity
304
ACVALUE_END
170
5
140
0.125
171
1
172
0
173
0
174
0
175
2
176
1
 91
33
178
0
145
0.0
301
CELL_VALUE
 90
4
  1
T-2A
304
ACVALUE_END
170
5
140
0.125
171
1
172
0
173
1
174
0
175
1
176
1
 91
1
178
0
145
0.0
170
1
171
1
172
0
173
0
174
0
175
1
176
1
 91
33
178
0
145
0.0
301
CELL_VALUE
 90
4
  1
Body Features
304
ACVALUE_END
170
5
140
0.125
171
1
172
0
173
0
174
0
175
2
176
1
 91
33
178
0
145
0.0
301
CELL_VALUE
 90
4
  1
Through port 2 with reverse flow check
304
ACVALUE_END
170
5
140
0.125
171
1
172
0
173
1
174
0
175
1
176
1
 91
1
178
0
145
0.0
170
1
171
1
172
0
173
0
174
0
175
1
176
1
 91
33
178
0
145
0.0
301
CELL_VALUE
 90
4
  1
Body Type
304
ACVALUE_END
170
5
140
0.125
171
1
172
0
173
0
174
0
175
2
176
1
 91
33
178
0
145
0.0
301
CELL_VALUE
 90
4
  1
Line mount
304
ACVALUE_END
170
5
140
0.125
171
1
172
0
173
1
174
0
175
1
176
1
 91
1
178
0
145
0.0
170
1
171
1
172
0
173
0
174
0
175
1
176
1
 91
33
178
0
145
0.0
301
CELL_VALUE
 90
4
  1
Interface
304
ACVALUE_END
170
5
140
0.125
171
1
172
0
173
0
174
0
175
2
176
1
 91
33
178
0
145
0.0
301
CELL_VALUE
 90
4
  1
None
304
ACVALUE_END
170
5
140
0.125
171
1
172
0
173
1
174
0
175
1
176
1
 91
1
178
0
145
0.0
170
1
171
1
172
0
173
0
174
0
175
1
176
1
 91
33
178
0
145
0.0
301
CELL_VALUE
 90
4
  1
Open Cavity Quantity
304
ACVALUE_END
170
5
140
0.125
171
1
172
0
173
0
174
0
175
2
176
1
 91
33
178
0
145
0.0
301
CELL_VALUE
 90
4
  1
1
304
ACVALUE_END
170
5
140
0.125
171
1
172
0
173
1
174
0
175
1
176
1
 91
1
178
0
145
0.0
170
1
171
1
172
0
173
0
174
0
175
1
176
1
 91
33
178
0
145
0.0
301
CELL_VALUE
 90
4
  1
Weight
304
ACVALUE_END
170
5
140
0.125
171
1
172
0
173
0
174
0
175
1
176
1
 91
33
178
0
145
0.0
301
CELL_VALUE
 90
4
  1
3.334 lb.
304
ACVALUE_END
170
5
140
0.125
171
1
172
0
173
0
174
0
175
1
176
1
 91
33
178
0
145
0.0
301
CELL_VALUE
 90
4
  1
1,512 kg.
304
ACVALUE_END
170
5
140
0.125
171
1
172
0
173
0
174
0
175
1
176
1
 91
33
178
0
145
0.0
301
CELL_VALUE
 90
4
  1
Mounting Hole Thread
304
ACVALUE_END
170
5
140
0.125
171
1
172
0
173
0
174
0
175
1
176
1
 91
33
178
0
145
0.0
301
CELL_VALUE
 90
4
  1
.375-16 UNC - 2B in.
304
ACVALUE_END
170
5
140
0.125
171
1
172
0
173
0
174
0
175
1
176
1
 91
33
178
0
145
0.0
301
CELL_VALUE
 90
4
  1
 
304
ACVALUE_END
170
5
140
0.125
171
1
172
0
173
0
174
0
175
1
176
1
 91
33
178
0
145
0.0
301
CELL_VALUE
 90
4
  1
Mounting Hole Depth
304
ACVALUE_END
170
5
140
0.125
171
1
172
0
173
0
174
0
175
1
176
1
 91
33
178
0
145
0.0
301
CELL_VALUE
 90
4
  1
.62 in.
304
ACVALUE_END
170
5
140
0.125
171
1
172
0
173
0
174
0
175
1
176
1
 91
33
178
0
145
0.0
301
CELL_VALUE
 90
4
  1
15,7 mm
304
ACVALUE_END
170
5
140
0.125
171
1
172
0
173
0
174
0
175
1
176
1
 91
33
178
0
145
0.0
301
CELL_VALUE
 90
4
  1
Mounting Hole Quantity
304
ACVALUE_END
170
5
140
0.125
171
1
172
0
173
0
174
0
175
2
176
1
 91
33
178
0
145
0.0
301
CELL_VALUE
 90
4
  1
2
304
ACVALUE_END
170
5
140
0.125
171
1
172
0
173
1
174
0
175
1
176
1
 91
1
178
0
145
0.0
170
1
  0
ACAD_TABLE
  5
293
100
AcDbEntity
  8
0
 62
2
  6
CONTINUOUS
100
AcDbBlockReference
  2
*T3
 10
0.52125
 20
1.959
 30
0.0
100
AcDbTable
342
       3C2
343
211
 11
1.0
 21
0.0
 31
0.0
 90
22
 91
5
 92
3
 93
16
 94
0
 95
0
 96
0
 41
0.05
141
0.34375
141
0.344
141
0.25
141
0.25
141
0.25
142
1.3
142
2.0
142
1.3
171
1
172
0
173
0
174
0
175
3
176
1
 91
33
178
0
145
0.0
301
CELL_VALUE
 90
4
  1
Port Headings
304
ACVALUE_END
170
5
140
0.145
171
1
172
0
173
1
174
0
175
1
176
1
 91
1
178
0
145
0.0
170
1
171
1
172
0
173
1
174
0
175
1
176
1
 91
1
178
0
145
0.0
170
1
171
1
172
0
173
0
174
0
175
1
176
1
 91
33
178
0
145
0.0
301
CELL_VALUE
 90
4
  1
Product
304
ACVALUE_END
170
5
140
0.145
171
1
172
0
173
0
174
0
175
1
176
1
 91
33
178
0
145
0.0
301
CELL_VALUE
 90
4
  1
Port
304
ACVALUE_END
170
5
140
0.145
171
1
172
0
173
0
174
0
175
1
176
1
 91
33
178
0
145
0.0
301
CELL_VALUE
 90
4
  1
Size
304
ACVALUE_END
170
5
140
0.145
171
1
172
0
173
0
174
0
175
1
176
1
 91
33
178
0
145
0.0
301
CELL_VALUE
 90
4
  1
B3L
304
ACVALUE_END
170
5
140
0.125
171
1
172
0
173
0
174
0
175
1
176
1
 91
33
178
0
145
0.0
301
CELL_VALUE
 90
4
  1
Ports 1 &  2
304
ACVALUE_END
170
5
140
0.125
171
1
172
0
173
0
174
0
175
1
176
1
 91
33
178
0
145
0.0
301
CELL_VALUE
 90
4
  1
SAE 12
304
ACVALUE_END
170
5
140
0.125
171
1
172
0
173
0
174
0
175
1
176
1
 91
33
178
0
145
0.0
301
CELL_VALUE
 90
4
  1
B3L
304
ACVALUE_END
170
5
140
0.125
171
1
172
0
173
0
174
0
175
1
176
1
 91
33
178
0
145
0.0
301
CELL_VALUE
 90
4
  1
Port 3
304
ACVALUE_END
170
5
140
0.125
171
1
172
0
173
0
174
0
175
1
176
1
 91
33
178
0
145
0.0
301
CELL_VALUE
 90
4
  1
SAE 6
304
ACVALUE_END
170
5
140
0.125
171
1
172
0
173
0
174
0
175
1
176
1
 91
33
178
0
145
0.0
301
CELL_VALUE
 90
4
  1
B3L
304
ACVALUE_END
170
5
140
0.125
171
1
172
0
173
0
174
0
175
1
176
1
 91
33
178
0
145
0.0
301
CELL_VALUE
 90
4
  1
Gage Port
304
ACVALUE_END
170
5
140
0.125
171
1
172
0
173
0
174
0
175
1
176
1
 91
33
178
0
145
0.0
301
CELL_VALUE
 90
4
  1
1/4" NPTF
304
ACVALUE_END
170
5
140
0.125
  0
MTEXT
  5
294
100
AcDbEntity
  8
0
100
AcDbMText
 62
2
  6
CONTINUOUS
  7
STANDARD
 71
1
 72
1
 10
0.52125
 20
5.75995
 30
0.0
 11
1.0
 21
0.0
 31
0.0
 44
0.6
  3
Notes\P \P1. Important: Carefully consider\P   the maximum system pressure. The\P   pressure rating of the manifold is\P   dependent on the manifold material,\P   with the port type/size a secondary\P   consideration. Manifolds\P   constructed of alu
  1
minum are not\P   rated for pressures higher than\P   3000 psi (210 bar), regardless of\P   the port type/size specified.
 40
0.1
 41
3.04
  0
LINE
  5
295
100
AcDbEntity
  8
0
100
AcDbLine
 62
7
  6
CONTINUOUS
 10
0.30125
 20
0.30125
 11
0.30125
 21
16.69875
  0
LINE
  5
296
100
AcDbEntity
  8
0
100
AcDbLine
 62
7
  6
CONTINUOUS
 10
0.30125
 20
0.30125
 11
21.69875
 21
0.30125
  0
LINE
  5
297
100
AcDbEntity
  8
0
100
AcDbLine
 62
7
  6
CONTINUOUS
 10
0.30125
 20
16.69875
 11
21.69875
 21
16.69875
  0
LINE
  5
298
100
AcDbEntity
  8
0
100
AcDbLine
 62
7
  6
CONTINUOUS
 10
21.69875
 20
0.30125
 11
21.69875
 21
16.69875
  0
LINE
  5
299
100
AcDbEntity
  8
0
100
AcDbLine
 62
7
  6
CONTINUOUS
 10
8.7108543054
 20
9.3834429817
 11
8.6905076777
 21
9.3489455842
  0
LINE
  5
29A
100
AcDbEntity
  8
0
100
AcDbLine
 62
7
  6
CONTINUOUS
 10
9.5618745988
 20
10.5182332808
 11
8.7854181043
 21
9.7682338553
  0
LINE
  5
29B
100
AcDbEntity
  8
0
100
AcDbLine
 62
4
  6
CONTINUOUS
 10
9.4084402993
 20
6.8156583536
 11
9.3987810404
 21
6.8235726694
  0
LINE
  5
29C
100
AcDbEntity
  8
0
100
AcDbLine
 62
7
  6
CONTINUOUS
 10
8.7854181043
 20
6.7497154693
 11
8.7854181043
 21
9.7682338553
  0
LINE
  5
29D
100
AcDbEntity
  8
0
100
AcDbLine
 62
4
  6
CONTINUOUS
 10
9.476055109
 20
6.8761692463
 11
9.4953736286
 21
6.8603406145
  0
LINE
  5
29E
100
AcDbEntity
  8
0
100
AcDbLine
 62
4
  6
CONTINUOUS
 10
9.3987810404
 20
6.8235726694
 11
9.3891217815
 21
6.8387314293
  0
LINE
  5
29F
100
AcDbEntity
  8
0
100
AcDbLine
 62
4
  6
CONTINUOUS
 10
9.4953736286
 20
6.8603406145
 11
9.5050328849
 21
6.8451818549
  0
LINE
  5
2A0
100
AcDbEntity
  8
0
100
AcDbLine
 62
7
  6
CONTINUOUS
 10
8.6297402216
 20
8.3394828065
 11
8.6218207415
 21
8.3585100702
  0
LINE
  5
2A1
100
AcDbEntity
  8
0
100
AcDbLine
 62
7
  6
CONTINUOUS
 10
8.7854181043
 20
6.7497154693
 11
12.6491216383
 21
6.4817667192
  0
LINE
  5
2A2
100
AcDbEntity
  8
0
100
AcDbLine
 62
4
  6
CONTINUOUS
 10
9.4470773332
 20
6.8854233058
 11
9.476055109
 21
6.8761692463
  0
LINE
  5
2A3
100
AcDbEntity
  8
0
100
AcDbLine
 62
4
  6
CONTINUOUS
 10
9.4470773332
 20
6.8129788662
 11
9.4084402993
 21
6.8156583536
  0
LINE
  5
2A4
100
AcDbEntity
  8
0
100
AcDbLine
 62
4
  6
CONTINUOUS
 10
11.2668816771
 20
6.7012638942
 11
11.2475631644
 21
6.7026036376
  0
LINE
  5
2A5
100
AcDbEntity
  8
0
100
AcDbLine
 62
4
  6
CONTINUOUS
 10
9.3891217815
 20
6.8387314293
 11
9.3891217815
 21
6.8532203172
  0
LINE
  5
2A6
100
AcDbEntity
  8
0
100
AcDbLine
 62
4
  6
CONTINUOUS
 10
9.4470773332
 20
6.8419566421
 11
9.4470773332
 21
6.8129788662
  0
LINE
  5
2A7
100
AcDbEntity
  8
0
100
AcDbLine
 62
4
  6
CONTINUOUS
 10
9.5050328849
 20
6.8451818549
 11
9.5050328849
 21
6.8306929669
  0
LINE
  5
2A8
100
AcDbEntity
  8
0
100
AcDbLine
 62
4
  6
CONTINUOUS
 10
11.199266869
 20
6.7566641049
 11
11.1702890932
 21
6.7659181644
  0
LINE
  5
2A9
100
AcDbEntity
  8
0
100
AcDbLine
 62
4
  6
CONTINUOUS
 10
9.4180995573
 20
6.8801884775
 11
9.4470773332
 21
6.8854233058
  0
LINE
  5
2AA
100
AcDbEntity
  8
0
100
AcDbLine
 62
4
  6
CONTINUOUS
 10
11.2475631644
 20
6.7026036376
 11
11.2379039012
 21
6.7105179538
  0
LINE
  5
2AB
100
AcDbEntity
  8
0
100
AcDbLine
 62
4
  6
CONTINUOUS
 10
11.2185853851
 20
6.7408354733
 11
11.199266869
 21
6.7566641049
  0
LINE
  5
2AC
100
AcDbEntity
  8
0
100
AcDbLine
 62
4
  6
CONTINUOUS
 10
11.2668816771
 20
6.759219446
 11
11.2765409403
 21
6.7513051298
  0
LINE
  5
2AD
100
AcDbEntity
  8
0
100
AcDbLine
 62
4
  6
CONTINUOUS
 10
11.1505566263
 20
7.5521704798
 11
11.175394721
 21
7.5504479521
  0
LINE
  5
2AE
100
AcDbEntity
  8
0
100
AcDbLine
 62
4
  6
CONTINUOUS
 10
11.191953449
 20
7.5989757087
 11
11.2167915411
 21
7.5972531811
  0
LINE
  5
2AF
100
AcDbEntity
  8
0
100
AcDbLine
 62
4
  6
CONTINUOUS
 10
11.2765409403
 20
9.4240220567
 11
11.2668816771
 21
9.4174474849
  0
LINE
  5
2B0
100
AcDbEntity
  8
0
100
AcDbLine
 62
4
  6
CONTINUOUS
 10
11.1505566263
 20
7.6763609162
 11
11.2167915411
 21
7.6717675093
  0
LINE
  5
2B1
100
AcDbEntity
  8
0
100
AcDbLine
 62
4
  6
CONTINUOUS
 10
11.1422772613
 20
7.7210917003
 11
11.2250709086
 21
7.7153499414
  0
LINE
  5
2B2
100
AcDbEntity
  8
0
100
AcDbLine
 62
4
  6
CONTINUOUS
 10
11.2499089973
 20
7.7136274141
 11
11.2581883648
 21
7.713053238
  0
LINE
  5
2B3
100
AcDbEntity
  8
0
100
AcDbLine
 62
4
  6
CONTINUOUS
 10
10.5511306338
 20
7.7814063372
 11
10.6670417373
 21
7.7733678749
  0
LINE
  5
2B4
100
AcDbEntity
  8
0
100
AcDbLine
 62
4
  6
CONTINUOUS
 10
10.6504830092
 20
7.8214326677
 11
10.5676893636
 21
7.8271744265
  0
LINE
  5
2B5
100
AcDbEntity
  8
0
100
AcDbLine
 62
4
  6
CONTINUOUS
 10
11.1505566263
 20
7.7950317973
 11
11.2581883648
 21
7.7875675109
  0
LINE
  5
2B6
100
AcDbEntity
  8
0
100
AcDbLine
 62
4
  6
CONTINUOUS
 10
11.1422772613
 20
7.8287234155
 11
11.2250709086
 21
7.8229816566
  0
LINE
  5
2B7
100
AcDbEntity
  8
0
100
AcDbLine
 62
4
  6
CONTINUOUS
 10
10.5511306338
 20
7.8862783301
 11
10.6670417373
 21
7.8782398677
  0
LINE
  5
2B8
100
AcDbEntity
  8
0
100
AcDbLine
 62
4
  6
CONTINUOUS
 10
10.6504830092
 20
7.9125056618
 11
10.5676893636
 21
7.9182474206
  0
LINE
  5
2B9
100
AcDbEntity
  8
0
100
AcDbLine
 62
4
  6
CONTINUOUS
 10
11.2250709086
 20
7.8726578754
 11
11.1505566263
 21
7.8778254584
  0
LINE
  5
2BA
100
AcDbEntity
  8
0
100
AcDbLine
 62
4
  6
CONTINUOUS
 10
11.2581883648
 20
7.7102934604
 11
11.2499089973
 21
7.7136274141
  0
LINE
  5
2BB
100
AcDbEntity
  8
0
100
AcDbLine
 62
4
  6
CONTINUOUS
 10
10.5676893636
 20
7.8271744265
 11
10.5511306338
 21
7.8448814995
  0
LINE
  5
2BC
100
AcDbEntity
  8
0
100
AcDbLine
 62
4
  6
CONTINUOUS
 10
10.5676893636
 20
7.9182474206
 11
10.5511306338
 21
7.9359544936
  0
LINE
  5
2BD
100
AcDbEntity
  8
0
100
AcDbLine
 62
4
  6
CONTINUOUS
 10
10.6504830092
 20
7.9704612135
 11
10.6670417373
 21
7.9527541406
  0
LINE
  5
2BE
100
AcDbEntity
  8
0
100
AcDbLine
 62
4
  6
CONTINUOUS
 10
11.2379039012
 20
6.7105179538
 11
11.2185853851
 21
6.7408354733
  0
LINE
  5
2BF
100
AcDbEntity
  8
0
100
AcDbLine
 62
4
  6
CONTINUOUS
 10
11.2765409403
 20
6.7513051298
 11
11.2862001966
 21
6.7361463702
  0
LINE
  5
2C0
100
AcDbEntity
  8
0
100
AcDbLine
 62
4
  6
CONTINUOUS
 10
10.6008068215
 20
7.6510110679
 11
10.5787285157
 21
7.6966988118
  0
LINE
  5
2C1
100
AcDbEntity
  8
0
100
AcDbLine
 62
4
  6
CONTINUOUS
 10
10.5511306338
 20
8.2478105562
 11
10.5511306338
 21
8.1981343651
  0
LINE
  5
2C2
100
AcDbEntity
  8
0
100
AcDbLine
 62
4
  6
CONTINUOUS
 10
10.5511306338
 20
7.7814063372
 11
10.5511306338
 21
7.7317301737
  0
LINE
  5
2C3
100
AcDbEntity
  8
0
100
AcDbLine
 62
4
  6
CONTINUOUS
 10
10.5511306338
 20
7.8448814995
 11
10.5511306338
 21
7.8862783301
  0
LINE
  5
2C4
100
AcDbEntity
  8
0
100
AcDbLine
 62
4
  6
CONTINUOUS
 10
10.5511306338
 20
7.9359544936
 11
10.5511306338
 21
7.9607926029
  0
LINE
  5
2C5
100
AcDbEntity
  8
0
100
AcDbLine
 62
4
  6
CONTINUOUS
 10
10.5511306338
 20
8.02426771
 11
10.5511306338
 21
8.0573851523
  0
LINE
  5
2C6
100
AcDbEntity
  8
0
100
AcDbLine
 62
4
  6
CONTINUOUS
 10
10.5511306338
 20
8.5099904347
 11
10.5511306338
 21
8.5513872514
  0
LINE
  5
2C7
100
AcDbEntity
  8
0
100
AcDbLine
 62
4
  6
CONTINUOUS
 10
10.5842480935
 20
8.4331794513
 11
10.5842480935
 21
8.3890228431
  0
LINE
  5
2C8
100
AcDbEntity
  8
0
100
AcDbLine
 62
4
  6
CONTINUOUS
 10
10.6008068215
 20
8.6141771153
 11
10.5787285157
 21
8.5715516394
  0
LINE
  5
2C9
100
AcDbEntity
  8
0
100
AcDbLine
 62
4
  6
CONTINUOUS
 10
11.1422772613
 20
7.9115170766
 11
11.2085121806
 21
7.9069236694
  0
LINE
  5
2CA
100
AcDbEntity
  8
0
100
AcDbLine
 62
4
  6
CONTINUOUS
 10
10.5676893636
 20
7.9762029723
 11
10.6504830092
 21
7.9704612135
  0
LINE
  5
2CB
100
AcDbEntity
  8
0
100
AcDbLine
 62
4
  6
CONTINUOUS
 10
11.1505566263
 20
7.9606190642
 11
11.175394721
 21
7.9588965365
  0
LINE
  5
2CC
100
AcDbEntity
  8
0
100
AcDbLine
 62
4
  6
CONTINUOUS
 10
11.2167915411
 20
7.9919029325
 11
11.2002328131
 21
7.9930512842
  0
LINE
  5
2CD
100
AcDbEntity
  8
0
100
AcDbLine
 62
4
  6
CONTINUOUS
 10
12.14490835
 20
7.931332523
 11
12.1352490902
 21
7.932002395
  0
LINE
  5
2CE
100
AcDbEntity
  8
0
100
AcDbLine
 62
4
  6
CONTINUOUS
 10
12.2028638983
 20
7.9345577361
 11
12.193204642
 21
7.9352276078
  0
LINE
  5
2CF
100
AcDbEntity
  8
0
100
AcDbLine
 62
4
  6
CONTINUOUS
 10
10.9220461648
 20
8.0440811491
 11
10.8061350614
 21
8.0521196114
  0
LINE
  5
2D0
100
AcDbEntity
  8
0
100
AcDbLine
 62
4
  6
CONTINUOUS
 10
10.5676893636
 20
8.0727955216
 11
10.6504830092
 21
8.0670537628
  0
LINE
  5
2D1
100
AcDbEntity
  8
0
100
AcDbLine
 62
4
  6
CONTINUOUS
 10
11.1422772613
 20
8.035707513
 11
11.2250709086
 21
8.0299657541
  0
LINE
  5
2D2
100
AcDbEntity
  8
0
100
AcDbLine
 62
4
  6
CONTINUOUS
 10
10.8144144263
 20
8.0846628917
 11
10.8558112491
 21
8.0817920123
  0
LINE
  5
2D3
100
AcDbEntity
  8
0
100
AcDbLine
 62
7
  6
CONTINUOUS
 10
8.7854181043
 20
8.2254819272
 11
8.7548988344
 21
8.2275984458
  0
LINE
  5
2D4
100
AcDbEntity
  8
0
100
AcDbLine
 62
4
  6
CONTINUOUS
 10
10.8806493412
 20
8.0828292762
 11
10.9054874368
 21
8.0811067484
  0
LINE
  5
2D5
100
AcDbEntity
  8
0
100
AcDbLine
 62
4
  6
CONTINUOUS
 10
11.2581883648
 20
8.0607865483
 11
11.1422772613
 21
8.0688250106
  0
LINE
  5
2D6
100
AcDbEntity
  8
0
100
AcDbLine
 62
4
  6
CONTINUOUS
 10
10.6504830092
 20
8.0670537628
 11
10.6670417373
 21
8.04934669
  0
LINE
  5
2D7
100
AcDbEntity
  8
0
100
AcDbLine
 62
4
  6
CONTINUOUS
 10
11.1422772613
 20
7.5610239887
 11
11.1505566263
 21
7.5521704798
  0
LINE
  5
2D8
100
AcDbEntity
  8
0
100
AcDbLine
 62
4
  6
CONTINUOUS
 10
11.2167915411
 20
7.5972531811
 11
11.2250709086
 21
7.5883996721
  0
LINE
  5
2D9
100
AcDbEntity
  8
0
100
AcDbLine
 62
4
  6
CONTINUOUS
 10
10.8061350614
 20
8.0935164282
 11
10.8144144263
 21
8.0846628917
  0
LINE
  5
2DA
100
AcDbEntity
  8
0
100
AcDbLine
 62
4
  6
CONTINUOUS
 10
11.2167915411
 20
7.6717675093
 11
11.2250709086
 21
7.6629140002
  0
LINE
  5
2DB
100
AcDbEntity
  8
0
100
AcDbLine
 62
4
  6
CONTINUOUS
 10
10.6173655531
 20
7.7436954876
 11
10.6173655531
 21
7.77681293
  0
LINE
  5
2DC
100
AcDbEntity
  8
0
100
AcDbLine
 62
4
  6
CONTINUOUS
 10
10.6173655531
 20
8.210099679
 11
10.6173655531
 21
8.243217149
  0
LINE
  5
2DD
100
AcDbEntity
  8
0
100
AcDbLine
 62
4
  6
CONTINUOUS
 10
10.6670417373
 20
8.5433487891
 11
10.6670417373
 21
8.5019519724
  0
LINE
  5
2DE
100
AcDbEntity
  8
0
100
AcDbLine
 62
4
  6
CONTINUOUS
 10
10.6670417373
 20
8.3391244762
 11
10.6670417373
 21
8.2728895639
  0
LINE
  5
2DF
100
AcDbEntity
  8
0
100
AcDbLine
 62
4
  6
CONTINUOUS
 10
10.6670417373
 20
8.2397720939
 11
10.6670417373
 21
8.1900959028
  0
LINE
  5
2E0
100
AcDbEntity
  8
0
100
AcDbLine
 62
4
  6
CONTINUOUS
 10
10.6670417373
 20
8.04934669
 11
10.6670417373
 21
8.0162292476
  0
LINE
  5
2E1
100
AcDbEntity
  8
0
100
AcDbLine
 62
4
  6
CONTINUOUS
 10
10.6670417373
 20
7.9527541406
 11
10.6670417373
 21
7.9279160312
  0
LINE
  5
2E2
100
AcDbEntity
  8
0
100
AcDbLine
 62
4
  6
CONTINUOUS
 10
10.6670417373
 20
7.8782398677
 11
10.6670417373
 21
7.8368430372
  0
LINE
  5
2E3
100
AcDbEntity
  8
0
100
AcDbLine
 62
4
  6
CONTINUOUS
 10
10.6670417373
 20
7.7733678749
 11
10.6670417373
 21
7.7236917114
  0
LINE
  5
2E4
100
AcDbEntity
  8
0
100
AcDbLine
 62
4
  6
CONTINUOUS
 10
10.8061350614
 20
8.1349132587
 11
10.8061350614
 21
8.0935164282
  0
LINE
  5
2E5
100
AcDbEntity
  8
0
100
AcDbLine
 62
4
  6
CONTINUOUS
 10
10.8061350614
 20
8.0521196114
 11
10.8061350614
 21
8.0107227947
  0
LINE
  5
2E6
100
AcDbEntity
  8
0
100
AcDbLine
 62
4
  6
CONTINUOUS
 10
10.8061350614
 20
8.184589443
 11
10.8061350614
 21
8.2259862666
  0
LINE
  5
2E7
100
AcDbEntity
  8
0
100
AcDbLine
 62
4
  6
CONTINUOUS
 10
9.3891217815
 20
6.8532203172
 11
9.3987810404
 21
6.8670393332
  0
LINE
  5
2E8
100
AcDbEntity
  8
0
100
AcDbLine
 62
4
  6
CONTINUOUS
 10
11.2862001966
 20
9.4378410729
 11
11.2765409403
 21
9.4240220567
  0
LINE
  5
2E9
100
AcDbEntity
  8
0
100
AcDbLine
 62
4
  6
CONTINUOUS
 10
9.5050328849
 20
6.8306929669
 11
9.4953736286
 21
6.8168739507
  0
LINE
  5
2EA
100
AcDbEntity
  8
0
100
AcDbLine
 62
4
  6
CONTINUOUS
 10
10.6670417373
 20
8.5019519724
 11
10.6504830092
 21
8.486541596
  0
LINE
  5
2EB
100
AcDbEntity
  8
0
100
AcDbLine
 62
4
  6
CONTINUOUS
 10
11.2250709086
 20
8.1845139104
 11
11.1422772613
 21
8.16541756
  0
LINE
  5
2EC
100
AcDbEntity
  8
0
100
AcDbLine
 62
4
  6
CONTINUOUS
 10
11.1505566263
 20
8.1179269982
 11
11.2167915411
 21
8.1133335913
  0
LINE
  5
2ED
100
AcDbEntity
  8
0
100
AcDbLine
 62
4
  6
CONTINUOUS
 10
10.847531885
 20
8.1651598354
 11
10.8226937912
 21
8.1668823631
  0
LINE
  5
2EE
100
AcDbEntity
  8
0
100
AcDbLine
 62
4
  6
CONTINUOUS
 10
10.9054874368
 20
8.1694199683
 11
10.8806493412
 21
8.1711424961
  0
LINE
  5
2EF
100
AcDbEntity
  8
0
100
AcDbLine
 62
4
  6
CONTINUOUS
 10
10.8061350614
 20
8.2259862666
 11
10.9220461648
 21
8.2179478043
  0
LINE
  5
2F0
100
AcDbEntity
  8
0
100
AcDbLine
 62
4
  6
CONTINUOUS
 10
10.5511306338
 20
8.2478105562
 11
10.6670417373
 21
8.2397720939
  0
LINE
  5
2F1
100
AcDbEntity
  8
0
100
AcDbLine
 62
7
  6
CONTINUOUS
 10
8.7854181043
 20
8.3722759929
 11
8.6237655366
 21
8.3834866365
  0
LINE
  5
2F2
100
AcDbEntity
  8
0
100
AcDbLine
 62
4
  6
CONTINUOUS
 10
11.2167915411
 20
8.2182055565
 11
11.1422772613
 21
8.2233731393
  0
LINE
  5
2F3
100
AcDbEntity
  8
0
100
AcDbLine
 62
7
  6
CONTINUOUS
 10
10.1542318209
 20
8.2967508524
 11
9.970128483
 21
8.3095184622
  0
LINE
  5
2F4
100
AcDbEntity
  8
0
100
AcDbLine
 62
7
  6
CONTINUOUS
 10
8.7854181043
 20
8.4114939357
 11
8.6165415244
 21
8.4232055663
  0
LINE
  5
2F5
100
AcDbEntity
  8
0
100
AcDbLine
 62
4
  6
CONTINUOUS
 10
10.5511306338
 20
8.3140454685
 11
10.6670417373
 21
8.3060070062
  0
LINE
  5
2F6
100
AcDbEntity
  8
0
100
AcDbLine
 62
4
  6
CONTINUOUS
 10
11.1422772613
 20
8.2730493305
 11
11.2581883648
 21
8.2650108681
  0
LINE
  5
2F7
100
AcDbEntity
  8
0
100
AcDbLine
 62
4
  6
CONTINUOUS
 10
10.5511306338
 20
8.446515307
 11
10.6670417373
 21
8.4053593885
  0
LINE
  5
2F8
100
AcDbEntity
  8
0
100
AcDbLine
 62
4
  6
CONTINUOUS
 10
11.1146793795
 20
8.1756108678
 11
11.2250709086
 21
8.1348377469
  0
LINE
  5
2F9
100
AcDbEntity
  8
0
100
AcDbLine
 62
4
  6
CONTINUOUS
 10
10.8226937912
 20
8.1668823631
 11
10.8061350614
 21
8.184589443
  0
LINE
  5
2FA
100
AcDbEntity
  8
0
100
AcDbLine
 62
4
  6
CONTINUOUS
 10
10.5676893636
 20
8.4922833548
 11
10.5511306338
 21
8.5099904347
  0
LINE
  5
2FB
100
AcDbEntity
  8
0
100
AcDbLine
 62
4
  6
CONTINUOUS
 10
10.8806493412
 20
8.1711424961
 11
10.8640906131
 21
8.1888495758
  0
LINE
  5
2FC
100
AcDbEntity
  8
0
100
AcDbLine
 62
4
  6
CONTINUOUS
 10
10.8723699806
 20
8.0972023953
 11
10.8806493412
 21
8.0828292762
  0
LINE
  5
2FD
100
AcDbEntity
  8
0
100
AcDbLine
 62
4
  6
CONTINUOUS
 10
10.6228851291
 20
8.5684893678
 11
10.6008068215
 21
8.6141771153
  0
LINE
  5
2FE
100
AcDbEntity
  8
0
100
AcDbLine
 62
4
  6
CONTINUOUS
 10
10.8640906131
 20
8.1805702118
 11
10.8640906131
 21
8.2219670354
  0
LINE
  5
2FF
100
AcDbEntity
  8
0
100
AcDbLine
 62
4
  6
CONTINUOUS
 10
10.8723699806
 20
8.0972023953
 11
10.8723699806
 21
8.1137611234
  0
LINE
  5
300
100
AcDbEntity
  8
0
100
AcDbLine
 62
4
  6
CONTINUOUS
 10
10.9220461648
 20
8.2179478043
 11
10.9220461648
 21
8.1931097104
  0
LINE
  5
301
100
AcDbEntity
  8
0
100
AcDbLine
 62
4
  6
CONTINUOUS
 10
10.9220461648
 20
8.0937573403
 11
10.9220461648
 21
8.1268747964
  0
LINE
  5
302
100
AcDbEntity
  8
0
100
AcDbLine
 62
4
  6
CONTINUOUS
 10
10.9220461648
 20
8.1931097104
 11
10.9192863734
 21
8.1850217369
  0
LINE
  5
303
100
AcDbEntity
  8
0
100
AcDbLine
 62
4
  6
CONTINUOUS
 10
11.1505566263
 20
8.636767186
 11
11.1422772613
 21
8.629061997
  0
LINE
  5
304
100
AcDbEntity
  8
0
100
AcDbLine
 62
4
  6
CONTINUOUS
 10
10.5511306338
 20
8.0573851523
 11
10.5676893636
 21
8.0727955216
  0
LINE
  5
305
100
AcDbEntity
  8
0
100
AcDbLine
 62
4
  6
CONTINUOUS
 10
10.6670417373
 20
8.4053593885
 11
10.5511306338
 21
8.3802803808
  0
LINE
  5
306
100
AcDbEntity
  8
0
100
AcDbLine
 62
4
  6
CONTINUOUS
 10
11.1422772613
 20
8.3972397945
 11
11.2581883648
 21
8.3892013321
  0
LINE
  5
307
100
AcDbEntity
  8
0
100
AcDbLine
 62
4
  6
CONTINUOUS
 10
10.6504830092
 20
8.486541596
 11
10.5676893636
 21
8.4922833548
  0
LINE
  5
308
100
AcDbEntity
  8
0
100
AcDbLine
 62
4
  6
CONTINUOUS
 10
11.1422772613
 20
8.4551953462
 11
11.2581883648
 21
8.4471568839
  0
LINE
  5
309
100
AcDbEntity
  8
0
100
AcDbLine
 62
4
  6
CONTINUOUS
 10
11.1588359912
 20
8.4871644505
 11
11.2581883648
 21
8.48027434
  0
LINE
  5
30A
100
AcDbEntity
  8
0
100
AcDbLine
 62
4
  6
CONTINUOUS
 10
10.5511306338
 20
8.5513872514
 11
10.6670417373
 21
8.5433487891
  0
LINE
  5
30B
100
AcDbEntity
  8
0
100
AcDbLine
 62
4
  6
CONTINUOUS
 10
11.175394721
 20
7.9588965365
 11
11.183674085
 21
7.9417636395
  0
LINE
  5
30C
100
AcDbEntity
  8
0
100
AcDbLine
 62
4
  6
CONTINUOUS
 10
11.2167915411
 20
8.1133335913
 11
11.2250709086
 21
8.096200694
  0
LINE
  5
30D
100
AcDbEntity
  8
0
100
AcDbLine
 62
4
  6
CONTINUOUS
 10
11.1146793795
 20
8.192169589
 11
11.1146793795
 21
8.1756108678
  0
LINE
  5
30E
100
AcDbEntity
  8
0
100
AcDbLine
 62
4
  6
CONTINUOUS
 10
11.1422772613
 20
8.629061997
 11
11.1422772613
 21
8.5959445383
  0
LINE
  5
30F
100
AcDbEntity
  8
0
100
AcDbLine
 62
4
  6
CONTINUOUS
 10
11.1422772613
 20
8.529709626
 11
11.1422772613
 21
8.5048715235
  0
LINE
  5
310
100
AcDbEntity
  8
0
100
AcDbLine
 62
4
  6
CONTINUOUS
 10
11.1422772613
 20
7.8701202461
 11
11.1422772613
 21
7.8287234155
  0
LINE
  5
311
100
AcDbEntity
  8
0
100
AcDbLine
 62
4
  6
CONTINUOUS
 10
11.1422772613
 20
7.594141431
 11
11.1422772613
 21
7.5610239887
  0
LINE
  5
312
100
AcDbEntity
  8
0
100
AcDbLine
 62
4
  6
CONTINUOUS
 10
11.1422772613
 20
7.6355382063
 11
11.1422772613
 21
7.6686557592
  0
LINE
  5
313
100
AcDbEntity
  8
0
100
AcDbLine
 62
4
  6
CONTINUOUS
 10
11.1422772613
 20
7.7707678638
 11
11.1422772613
 21
7.787326585
  0
LINE
  5
314
100
AcDbEntity
  8
0
100
AcDbLine
 62
4
  6
CONTINUOUS
 10
11.1422772613
 20
7.9115170766
 11
11.1422772613
 21
7.944634519
  0
LINE
  5
315
100
AcDbEntity
  8
0
100
AcDbLine
 62
4
  6
CONTINUOUS
 10
11.1422772613
 20
8.0688250106
 11
11.1422772613
 21
8.101942453
  0
LINE
  5
316
100
AcDbEntity
  8
0
100
AcDbLine
 62
4
  6
CONTINUOUS
 10
11.1702890932
 20
9.4821017551
 11
11.1702890932
 21
9.4241462034
  0
LINE
  5
317
100
AcDbEntity
  8
0
100
AcDbLine
 62
4
  6
CONTINUOUS
 10
11.1702890932
 20
6.7659181644
 11
11.1702890932
 21
6.7079626127
  0
LINE
  5
318
100
AcDbEntity
  8
0
100
AcDbLine
 62
4
  6
CONTINUOUS
 10
11.183674085
 20
7.9417636395
 11
11.183674085
 21
7.9086461972
  0
LINE
  5
319
100
AcDbEntity
  8
0
100
AcDbLine
 62
4
  6
CONTINUOUS
 10
11.2250709086
 20
8.2673075715
 11
11.2250709086
 21
8.225910741
  0
LINE
  5
31A
100
AcDbEntity
  8
0
100
AcDbLine
 62
4
  6
CONTINUOUS
 10
11.2250709086
 20
8.096200694
 11
11.2250709086
 21
8.0630832517
  0
LINE
  5
31B
100
AcDbEntity
  8
0
100
AcDbLine
 62
4
  6
CONTINUOUS
 10
11.2250709086
 20
8.0299657541
 11
11.2250709086
 21
7.9968483118
  0
LINE
  5
31C
100
AcDbEntity
  8
0
100
AcDbLine
 62
4
  6
CONTINUOUS
 10
11.2250709086
 20
7.6629140002
 11
11.2250709086
 21
7.6297964474
  0
LINE
  5
31D
100
AcDbEntity
  8
0
100
AcDbLine
 62
4
  6
CONTINUOUS
 10
11.2250709086
 20
7.5883996721
 11
11.2250709086
 21
7.5552822298
  0
LINE
  5
31E
100
AcDbEntity
  8
0
100
AcDbLine
 62
4
  6
CONTINUOUS
 10
11.2250709086
 20
7.9140546507
 11
11.2250709086
 21
7.9554514812
  0
LINE
  5
31F
100
AcDbEntity
  8
0
100
AcDbLine
 62
4
  6
CONTINUOUS
 10
10.6228851291
 20
7.6936365402
 11
10.6008068215
 21
7.6510110679
  0
LINE
  5
320
100
AcDbEntity
  8
0
100
AcDbLine
 62
4
  6
CONTINUOUS
 10
10.9192863734
 20
8.1850217369
 11
10.9054874368
 21
8.1694199683
  0
LINE
  5
321
100
AcDbEntity
  8
0
100
AcDbLine
 62
4
  6
CONTINUOUS
 10
11.175394721
 20
8.5770891066
 11
11.2250709086
 21
8.631599603
  0
LINE
  5
322
100
AcDbEntity
  8
0
100
AcDbLine
 62
4
  6
CONTINUOUS
 10
11.1588359912
 20
8.5451200022
 11
11.1422772613
 21
8.529709626
  0
LINE
  5
323
100
AcDbEntity
  8
0
100
AcDbLine
 62
4
  6
CONTINUOUS
 10
10.5511306338
 20
7.9607926029
 11
10.5676893636
 21
7.9762029723
  0
LINE
  5
324
100
AcDbEntity
  8
0
100
AcDbLine
 62
4
  6
CONTINUOUS
 10
11.2581883648
 20
8.5796267119
 11
11.2499089973
 21
8.571921524
  0
LINE
  5
325
100
AcDbEntity
  8
0
100
AcDbLine
 62
4
  6
CONTINUOUS
 10
10.8640906131
 20
8.1805702118
 11
10.847531885
 21
8.1651598354
  0
LINE
  5
326
100
AcDbEntity
  8
0
100
AcDbLine
 62
4
  6
CONTINUOUS
 10
10.6670417373
 20
7.9279160312
 11
10.6504830092
 21
7.9125056618
  0
LINE
  5
327
100
AcDbEntity
  8
0
100
AcDbLine
 62
4
  6
CONTINUOUS
 10
10.8558112491
 20
8.0817920123
 11
10.8723699806
 21
8.0972023953
  0
LINE
  5
328
100
AcDbEntity
  8
0
100
AcDbLine
 62
4
  6
CONTINUOUS
 10
11.2581883648
 20
8.4471568839
 11
11.1422772613
 21
8.3972397945
  0
LINE
  5
329
100
AcDbEntity
  8
0
100
AcDbLine
 62
4
  6
CONTINUOUS
 10
11.2581883648
 20
8.5382298917
 11
11.1588359912
 21
8.5451200022
  0
LINE
  5
32A
100
AcDbEntity
  8
0
100
AcDbLine
 62
4
  6
CONTINUOUS
 10
11.1588359912
 20
8.5782374584
 11
11.175394721
 21
8.5770891066
  0
LINE
  5
32B
100
AcDbEntity
  8
0
100
AcDbLine
 62
4
  6
CONTINUOUS
 10
11.2250709086
 20
8.631599603
 11
11.2416296367
 21
8.6304512513
  0
LINE
  5
32C
100
AcDbEntity
  8
0
100
AcDbLine
 62
4
  6
CONTINUOUS
 10
11.1422772613
 20
8.5048715235
 11
11.1588359912
 21
8.4871644505
  0
LINE
  5
32D
100
AcDbEntity
  8
0
100
AcDbLine
 62
4
  6
CONTINUOUS
 10
11.1422772613
 20
8.5959445383
 11
11.1588359912
 21
8.5782374584
  0
LINE
  5
32E
100
AcDbEntity
  8
0
100
AcDbLine
 62
4
  6
CONTINUOUS
 10
11.2581883648
 20
8.6127441698
 11
11.2581883648
 21
8.5796267119
  0
LINE
  5
32F
100
AcDbEntity
  8
0
100
AcDbLine
 62
4
  6
CONTINUOUS
 10
11.2581883648
 20
7.713053238
 11
11.2581883648
 21
7.7102934604
  0
LINE
  5
330
100
AcDbEntity
  8
0
100
AcDbLine
 62
4
  6
CONTINUOUS
 10
11.2862001966
 20
9.4523299609
 11
11.2862001966
 21
9.4378410729
  0
LINE
  5
331
100
AcDbEntity
  8
0
100
AcDbLine
 62
4
  6
CONTINUOUS
 10
11.2862001966
 20
6.7361463702
 11
11.2862001966
 21
6.7216574822
  0
LINE
  5
332
100
AcDbEntity
  8
0
100
AcDbLine
 62
4
  6
CONTINUOUS
 10
11.180914297
 20
7.5583445012
 11
11.186433873
 21
7.5910791596
  0
LINE
  5
333
100
AcDbEntity
  8
0
100
AcDbLine
 62
4
  6
CONTINUOUS
 10
11.1422772613
 20
8.101942453
 11
11.1505566263
 21
8.1179269982
  0
LINE
  5
334
100
AcDbEntity
  8
0
100
AcDbLine
 62
4
  6
CONTINUOUS
 10
11.1422772613
 20
7.944634519
 11
11.1505566263
 21
7.9606190642
  0
LINE
  5
335
100
AcDbEntity
  8
0
100
AcDbLine
 62
7
  6
CONTINUOUS
 10
12.6491216383
 20
9.5002851052
 11
13.4255781329
 21
10.2502845307
  0
LINE
  5
336
100
AcDbEntity
  8
0
100
AcDbLine
 62
4
  6
CONTINUOUS
 10
10.6670417373
 20
7.8368430372
 11
10.6504830092
 21
7.8214326677
  0
LINE
  5
337
100
AcDbEntity
  8
0
100
AcDbLine
 62
4
  6
CONTINUOUS
 10
11.2250709086
 20
8.225910741
 11
11.2167915411
 21
8.2182055565
  0
LINE
  5
338
100
AcDbEntity
  8
0
100
AcDbLine
 62
4
  6
CONTINUOUS
 10
10.9054874368
 20
8.0811067484
 11
10.9220461648
 21
8.0937573403
  0
LINE
  5
339
100
AcDbEntity
  8
0
100
AcDbLine
 62
7
  6
CONTINUOUS
 10
8.7854181043
 20
8.9766004102
 11
8.6165415244
 21
8.9883120408
  0
LINE
  5
33A
100
AcDbEntity
  8
0
100
AcDbLine
 62
7
  6
CONTINUOUS
 10
8.7854181043
 20
9.0307760476
 11
8.6237655366
 21
9.0419866913
  0
LINE
  5
33B
100
AcDbEntity
  8
0
100
AcDbLine
 62
4
  6
CONTINUOUS
 10
12.1352490902
 20
7.932002395
 11
12.1159305733
 21
7.9478310266
  0
LINE
  5
33C
100
AcDbEntity
  8
0
100
AcDbLine
 62
4
  6
CONTINUOUS
 10
12.193204642
 20
7.9352276078
 11
12.1835453856
 21
7.9431419234
  0
LINE
  5
33D
100
AcDbEntity
  8
0
100
AcDbLine
 62
4
  6
CONTINUOUS
 10
11.2416296367
 20
8.6304512513
 11
11.2581883648
 21
8.6127441698
  0
LINE
  5
33E
100
AcDbEntity
  8
0
100
AcDbLine
 62
4
  6
CONTINUOUS
 10
11.1505566263
 20
7.8778254584
 11
11.1422772613
 21
7.8701202461
  0
LINE
  5
33F
100
AcDbEntity
  8
0
100
AcDbLine
 62
4
  6
CONTINUOUS
 10
11.1422772613
 20
7.787326585
 11
11.1505566263
 21
7.7950317973
  0
LINE
  5
340
100
AcDbEntity
  8
0
100
AcDbLine
 62
4
  6
CONTINUOUS
 10
9.3987810404
 20
6.8670393332
 11
9.4180995573
 21
6.8801884775
  0
LINE
  5
341
100
AcDbEntity
  8
0
100
AcDbLine
 62
4
  6
CONTINUOUS
 10
9.4953736286
 20
6.8168739507
 11
9.4857143654
 21
6.8102993789
  0
LINE
  5
342
100
AcDbEntity
  8
0
100
AcDbLine
 62
4
  6
CONTINUOUS
 10
11.2250709086
 20
7.9968483118
 11
11.2167915411
 21
7.9919029325
  0
LINE
  5
343
100
AcDbEntity
  8
0
100
AcDbLine
 62
4
  6
CONTINUOUS
 10
11.2085121806
 20
7.9069236694
 11
11.2250709086
 21
7.9140546507
  0
LINE
  5
344
100
AcDbEntity
  8
0
100
AcDbLine
 62
4
  6
CONTINUOUS
 10
9.5050328849
 20
9.0566691719
 11
9.3891217815
 21
9.0647076342
  0
LINE
  5
345
100
AcDbEntity
  8
0
100
AcDbLine
 62
4
  6
CONTINUOUS
 10
12.1159305733
 20
7.9478310266
 11
12.1062713144
 21
7.9629897864
  0
LINE
  5
346
100
AcDbEntity
  8
0
100
AcDbLine
 62
4
  6
CONTINUOUS
 10
11.186433873
 20
7.5910791596
 11
11.191953449
 21
7.5989757087
  0
LINE
  5
347
100
AcDbEntity
  8
0
100
AcDbLine
 62
4
  6
CONTINUOUS
 10
11.175394721
 20
7.5504479521
 11
11.180914297
 21
7.5583445012
  0
LINE
  5
348
100
AcDbEntity
  8
0
100
AcDbLine
 62
4
  6
CONTINUOUS
 10
11.1422772613
 20
7.6686557592
 11
11.1505566263
 21
7.6763609162
  0
LINE
  5
349
100
AcDbEntity
  8
0
100
AcDbLine
 62
4
  6
CONTINUOUS
 10
11.1505566263
 20
7.6018465881
 11
11.1422772613
 21
7.594141431
  0
LINE
  5
34A
100
AcDbEntity
  8
0
100
AcDbLine
 62
4
  6
CONTINUOUS
 10
11.2250709086
 20
7.5552822298
 11
11.2167915411
 21
7.5475770729
  0
LINE
  5
34B
100
AcDbEntity
  8
0
100
AcDbLine
 62
7
  6
CONTINUOUS
 10
8.7854181043
 20
9.4490884565
 11
8.7548988344
 21
9.4512049751
  0
LINE
  5
34C
100
AcDbEntity
  8
0
100
AcDbLine
 62
7
  6
CONTINUOUS
 10
8.7854181043
 20
9.4640461511
 11
8.7693468587
 21
9.4651606958
  0
LINE
  5
34D
100
AcDbEntity
  8
0
100
AcDbLine
 62
4
  6
CONTINUOUS
 10
11.2475631644
 20
9.4187872283
 11
11.2379039012
 21
9.4267015445
  0
LINE
  5
34E
100
AcDbEntity
  8
0
100
AcDbLine
 62
4
  6
CONTINUOUS
 10
11.2379039012
 20
9.4267015445
 11
11.2185853851
 21
9.457019064
  0
LINE
  5
34F
100
AcDbEntity
  8
0
100
AcDbLine
 62
4
  6
CONTINUOUS
 10
12.1835453856
 20
7.9431419234
 11
12.1738861224
 21
7.9583006835
  0
LINE
  5
350
100
AcDbEntity
  8
0
100
AcDbLine
 62
4
  6
CONTINUOUS
 10
12.2125231615
 20
7.9845989716
 11
12.2221824178
 21
7.969440212
  0
LINE
  5
351
100
AcDbEntity
  8
0
100
AcDbLine
 62
4
  6
CONTINUOUS
 10
11.2765409403
 20
9.4674887205
 11
11.2862001966
 21
9.4523299609
  0
LINE
  5
352
100
AcDbEntity
  8
0
100
AcDbLine
 62
7
  6
CONTINUOUS
 10
12.9239872468
 20
8.8375301718
 11
12.9254591411
 21
8.8389258299
  0
LINE
  5
353
100
AcDbEntity
  8
0
100
AcDbLine
 62
4
  6
CONTINUOUS
 10
12.1159305733
 20
7.9912976904
 11
12.1255898322
 21
7.9978722625
  0
LINE
  5
354
100
AcDbEntity
  8
0
100
AcDbLine
 62
4
  6
CONTINUOUS
 10
11.2668816771
 20
9.4174474849
 11
11.2475631644
 21
9.4187872283
  0
LINE
  5
355
100
AcDbEntity
  8
0
100
AcDbLine
 62
4
  6
CONTINUOUS
 10
11.199266869
 20
9.4728476955
 11
11.1702890932
 21
9.4821017551
  0
LINE
  5
356
100
AcDbEntity
  8
0
100
AcDbLine
 62
4
  6
CONTINUOUS
 10
11.2185853851
 20
9.457019064
 11
11.199266869
 21
9.4728476955
  0
LINE
  5
357
100
AcDbEntity
  8
0
100
AcDbLine
 62
4
  6
CONTINUOUS
 10
11.2668816771
 20
9.4754030366
 11
11.2765409403
 21
9.4674887205
  0
LINE
  5
358
100
AcDbEntity
  8
0
100
AcDbLine
 62
4
  6
CONTINUOUS
 10
12.1062713144
 20
7.9629897864
 11
12.1062713144
 21
7.9774786743
  0
LINE
  5
359
100
AcDbEntity
  8
0
100
AcDbLine
 62
4
  6
CONTINUOUS
 10
12.1738861224
 20
7.9727895715
 11
12.1738861224
 21
7.9583006835
  0
LINE
  5
35A
100
AcDbEntity
  8
0
100
AcDbLine
 62
4
  6
CONTINUOUS
 10
12.2221824178
 20
7.969440212
 11
12.2221824178
 21
7.9549513241
  0
LINE
  5
35B
100
AcDbEntity
  8
0
100
AcDbLine
 62
4
  6
CONTINUOUS
 10
12.1062713144
 20
7.9774786743
 11
12.1159305733
 21
7.9912976904
  0
LINE
  5
35C
100
AcDbEntity
  8
0
100
AcDbLine
 62
4
  6
CONTINUOUS
 10
11.2862001966
 20
6.7216574822
 11
11.2765409403
 21
6.707838466
  0
LINE
  5
35D
100
AcDbEntity
  8
0
100
AcDbLine
 62
4
  6
CONTINUOUS
 10
12.1738861224
 20
7.9583006835
 11
12.1642268661
 21
7.9444816673
  0
LINE
  5
35E
100
AcDbEntity
  8
0
100
AcDbLine
 62
4
  6
CONTINUOUS
 10
12.1642268661
 20
7.9444816673
 11
12.14490835
 21
7.931332523
  0
LINE
  5
35F
100
AcDbEntity
  8
0
100
AcDbLine
 62
4
  6
CONTINUOUS
 10
12.2125231615
 20
7.9411323078
 11
12.2028638983
 21
7.9345577361
  0
LINE
  5
360
100
AcDbEntity
  8
0
100
AcDbLine
 62
7
  6
CONTINUOUS
 10
8.7854181043
 20
9.7682338553
 11
12.6491216383
 21
9.5002851052
  0
LINE
  5
361
100
AcDbEntity
  8
0
100
AcDbLine
 62
4
  6
CONTINUOUS
 10
12.2221824178
 20
7.9549513241
 11
12.2125231615
 21
7.9411323078
  0
LINE
  5
362
100
AcDbEntity
  8
0
100
AcDbLine
 62
7
  6
CONTINUOUS
 10
12.6491216383
 20
6.4817667192
 11
12.6491216383
 21
9.5002851052
  0
LINE
  5
363
100
AcDbEntity
  8
0
100
AcDbLine
 62
4
  6
CONTINUOUS
 10
11.2765409403
 20
6.707838466
 11
11.2668816771
 21
6.7012638942
  0
LINE
  5
364
100
AcDbEntity
  8
0
100
AcDbLine
 62
7
  6
CONTINUOUS
 10
13.4255781329
 20
10.2502845307
 11
9.5618745988
 21
10.5182332808
  0
LINE
  5
365
100
AcDbEntity
  8
0
100
AcDbLine
 62
7
  6
CONTINUOUS
 10
13.4255781329
 20
7.2317661447
 11
13.4255781329
 21
10.2502845307
  0
LINE
  5
366
100
AcDbEntity
  8
0
100
AcDbLine
 62
7
  6
CONTINUOUS
 10
12.6491216383
 20
6.4817667192
 11
13.4255781329
 21
7.2317661447
  0
ARC
  5
367
100
AcDbEntity
  8
0
100
AcDbCircle
 62
7
  6
CONTINUOUS
 10
10.9260404018
 20
8.7048025878
 40
2.3268353346
100
AcDbArc
 50
171.6678728683
 51
173.0014994771
  0
ARC
  5
368
100
AcDbEntity
  8
0
100
AcDbCircle
 62
7
  6
CONTINUOUS
 10
9.5629315931
 20
8.5748169907
 40
0.9584571905
100
AcDbArc
 50
189.1014340788
 51
191.5149294916
  0
ARC
  5
369
100
AcDbEntity
  8
0
100
AcDbCircle
 62
7
  6
CONTINUOUS
 10
9.378592017
 20
8.9883684543
 40
0.7758589224
100
AcDbArc
 50
149.406521743
 51
152.3502505567
  0
ARC
  5
36A
100
AcDbEntity
  8
0
100
AcDbCircle
 62
7
  6
CONTINUOUS
 10
9.5728749204
 20
8.2762183271
 40
0.6394852579
100
AcDbArc
 50
134.6415508776
 51
135.0385705614
  0
ARC
  5
36B
100
AcDbEntity
  8
0
100
AcDbCircle
 62
7
  6
CONTINUOUS
 10
9.7050098438
 20
8.1394186
 40
0.6393205952
100
AcDbArc
 50
312.975141505
 51
313.2529182345
  0
ARC
  5
36C
100
AcDbEntity
  8
0
100
AcDbCircle
 62
7
  6
CONTINUOUS
 10
12.1380630379
 20
7.4669615411
 40
0.3526375052
100
AcDbArc
 50
135.1096730593
 51
135.8777547642
  0
ARC
  5
36D
100
AcDbEntity
  8
0
100
AcDbCircle
 62
7
  6
CONTINUOUS
 10
12.2108620836
 20
7.3915936853
 40
0.3525769327
100
AcDbArc
 50
312.1372861841
 51
312.7623082606
  0
ARC
  5
36E
100
AcDbEntity
  8
0
100
AcDbCircle
 62
7
  6
CONTINUOUS
 10
12.1801015969
 20
7.408346064
 40
0.2937751515
100
AcDbArc
 50
349.3377186105
 51
0.0364156306
  0
ARC
  5
36F
100
AcDbEntity
  8
0
100
AcDbCircle
 62
7
  6
CONTINUOUS
 10
12.8291386428
 20
7.7557187876
 40
0.0343128096
100
AcDbArc
 50
254.5577590326
 51
265.9922069207
  0
ARC
  5
370
100
AcDbEntity
  8
0
100
AcDbCircle
 62
7
  6
CONTINUOUS
 10
12.8991097025
 20
8.7646792439
 40
0.0343034166
100
AcDbArc
 50
86.0725802886
 51
97.394487454
  0
SPLINE
  5
371
100
AcDbEntity
  8
0
100
AcDbSpline
 62
7
  6
CONTINUOUS
 70
0
 71
3
 72
9
 73
5
 74
0
 42
0.0000001
 43
0.0000001
 44
0.0000000001
 40
0.0
 40
0.0
 40
0.0
 40
0.0
 40
0.2576616456
 40
1.0
 40
1.0
 40
1.0
 40
1.0
 10
8.7548988344
 20
9.4512049751
 30
0.0
 10
8.7554944586
 20
9.4518782608
 30
0.0
 10
8.7578294164
 20
9.4544705269
 30
0.0
 10
8.7602600627
 20
9.4569772698
 30
0.0
 10
8.7621228466
 20
9.4587765809
 30
0.0
  0
SPLINE
  5
372
100
AcDbEntity
  8
0
100
AcDbSpline
 62
7
  6
CONTINUOUS
 70
0
 71
3
 72
9
 73
5
 74
0
 42
0.0000001
 43
0.0000001
 44
0.0000000001
 40
0.0
 40
0.0
 40
0.0
 40
0.0
 40
0.2578199612
 40
1.0
 40
1.0
 40
1.0
 40
1.0
 10
8.7621228466
 20
9.4587765809
 30
0.0
 10
8.7627188818
 20
9.4593523068
 30
0.0
 10
8.7650540846
 20
9.4615609131
 30
0.0
 10
8.7674854161
 20
9.4636688146
 30
0.0
 10
8.7693468587
 20
9.4651606958
 30
0.0
  0
SPLINE
  5
373
100
AcDbEntity
  8
0
100
AcDbSpline
 62
7
  6
CONTINUOUS
 70
0
 71
3
 72
23
 73
19
 74
0
 42
0.0000001
 43
0.0000001
 44
0.0000000001
 40
0.0
 40
0.0
 40
0.0
 40
0.0
 40
0.0814271046
 40
0.1607817343
 40
0.2379185405
 40
0.312696063
 40
0.3849800266
 40
0.4546476696
 40
0.5215900506
 40
0.5857253305
 40
0.6469976603
 40
0.7053923532
 40
0.760932103
 40
0.8136907295
 40
0.8637864076
 40
0.9113888908
 40
0.9567096643
 40
1.0
 40
1.0
 40
1.0
 40
1.0
 10
8.7548988344
 20
8.2275984458
 30
0.0
 10
8.7509062072
 20
8.2299561319
 30
0.0
 10
8.7430545204
 20
8.2346659342
 30
0.0
 10
8.7315465961
 20
8.2418166692
 30
0.0
 10
8.7204845454
 20
8.2489639597
 30
0.0
 10
8.7099003356
 20
8.2561045725
 30
0.0
 10
8.6998261306
 20
8.2632354727
 30
0.0
 10
8.6902929544
 20
8.2703523376
 30
0.0
 10
8.6813311304
 20
8.2774515639
 30
0.0
 10
8.67296781
 20
8.2845278581
 30
0.0
 10
8.6652278712
 20
8.2915772599
 30
0.0
 10
8.658130929
 20
8.2985940931
 30
0.0
 10
8.6516929279
 20
8.3055743663
 30
0.0
 10
8.6459230496
 20
8.3125127292
 30
0.0
 10
8.6408258786
 20
8.3194054405
 30
0.0
 10
8.6363988785
 20
8.3262482012
 30
0.0
 10
8.6326348181
 20
8.3330371549
 30
0.0
 10
8.6305139144
 20
8.3376218482
 30
0.0
 10
8.6295674919
 20
8.3398980554
 30
0.0
  0
SPLINE
  5
374
100
AcDbEntity
  8
0
100
AcDbSpline
 62
7
  6
CONTINUOUS
 70
0
 71
3
 72
9
 73
5
 74
0
 42
0.0000001
 43
0.0000001
 44
0.0000000001
 40
0.0
 40
0.0
 40
0.0
 40
0.0
 40
0.4964604369
 40
1.0
 40
1.0
 40
1.0
 40
1.0
 10
8.7107326849
 20
9.3832367614
 30
0.0
 10
8.7175505598
 20
9.3947921099
 30
0.0
 10
8.7318380245
 20
9.417743413
 30
0.0
 10
8.7470479893
 20
9.4400899442
 30
0.0
 10
8.7548988344
 20
9.4512049751
 30
0.0
  0
SPLINE
  5
375
100
AcDbEntity
  8
0
100
AcDbSpline
 62
7
  6
CONTINUOUS
 70
0
 71
3
 72
47
 73
43
 74
0
 42
0.0000001
 43
0.0000001
 44
0.0000000001
 40
0.0
 40
0.0
 40
0.0
 40
0.0
 40
0.0097390954
 40
0.0199695295
 40
0.0306881571
 40
0.0418903579
 40
0.0535693632
 40
0.0657172933
 40
0.0783253324
 40
0.0913829807
 40
0.1188003862
 40
0.1478697904
 40
0.1784776678
 40
0.2104990076
 40
0.2437996245
 40
0.2782371359
 40
0.3136617551
 40
0.3499180255
 40
0.3868455341
 40
0.4242797949
 40
0.462053577
 40
0.4999975974
 40
0.5379416192
 40
0.5757154697
 40
0.6131498368
 40
0.6500774863
 40
0.6863340113
 40
0.7217588358
 40
0.7561965785
 40
0.7894975871
 40
0.8215192438
 40
0.8521274831
 40
0.8811973937
 40
0.9086151749
 40
0.9216731274
 40
0.9342812907
 40
0.9464294722
 40
0.9581088203
 40
0.9693112294
 40
0.9800301946
 40
0.9902609526
 40
1.0
 40
1.0
 40
1.0
 40
1.0
 10
8.6218209507
 20
8.3585095681
 30
0.0
 10
8.6205593314
 20
8.3615407138
 30
0.0
 10
8.618082339
 20
8.3678020959
 30
0.0
 10
8.6145777141
 20
8.3775374146
 30
0.0
 10
8.611196345
 20
8.387836647
 30
0.0
 10
8.6079426491
 20
8.3986875675
 30
0.0
 10
8.6048201602
 20
8.4100772625
 30
0.0
 10
8.6018326729
 20
8.4219922072
 30
0.0
 10
8.5989840237
 20
8.4344183306
 30
0.0
 10
8.5953154155
 20
8.4519343968
 30
0.0
 10
8.591125915
 20
8.4750065615
 30
0.0
 10
8.5867783
 20
8.5040480813
 30
0.0
 10
8.5830541329
 20
8.5347398346
 30
0.0
 10
8.5799712995
 20
8.5669353359
 30
0.0
 10
8.5775450877
 20
8.6004811877
 30
0.0
 10
8.575787632
 20
8.6352172644
 30
0.0
 10
8.5747073641
 20
8.670977657
 30
0.0
 10
8.5743097631
 20
8.7075914706
 30
0.0
 10
8.5745970658
 20
8.7448837053
 30
0.0
 10
8.5755677882
 20
8.7826760786
 30
0.0
 10
8.5772174723
 20
8.8207878624
 30
0.0
 10
8.5795384194
 20
8.8590368034
 30
0.0
 10
8.5825193137
 20
8.8972400004
 30
0.0
 10
8.5861459904
 20
8.9352147457
 30
0.0
 10
8.5904011741
 20
8.9727794537
 30
0.0
 10
8.5952641968
 20
9.0097545383
 30
0.0
 10
8.6007118027
 20
9.0459632093
 30
0.0
 10
8.6067178793
 20
9.0812324087
 30
0.0
 10
8.6132532601
 20
9.1153936707
 30
0.0
 10
8.6202865836
 20
9.148283857
 30
0.0
 10
8.6277840056
 20
9.179745997
 30
0.0
 10
8.63570904
 20
9.2096302993
 30
0.0
 10
8.644023603
 20
9.2377941845
 30
0.0
 10
8.6513578792
 20
9.2600675715
 30
0.0
 10
8.6574090328
 20
9.2769099141
 30
0.0
 10
8.6619457238
 20
9.2888240922
 30
0.0
 10
8.6665492558
 20
9.3002128758
 30
0.0
 10
8.6712139332
 20
9.3110628661
 30
0.0
 10
8.6759344212
 20
9.3213610609
 30
0.0
 10
8.6807051046
 20
9.3310952652
 30
0.0
 10
8.6855198663
 20
9.3402539323
 30
0.0
 10
8.68883741
 20
9.3461135877
 30
0.0
 10
8.690505305
 20
9.3489415812
 30
0.0
  0
SPLINE
  5
376
100
AcDbEntity
  8
0
100
AcDbSpline
 62
7
  6
CONTINUOUS
 70
0
 71
3
 72
21
 73
17
 74
0
 42
0.0000001
 43
0.0000001
 44
0.0000000001
 40
0.0
 40
0.0
 40
0.0
 40
0.0
 40
0.1269527041
 40
0.1902689165
 40
0.2534593491
 40
0.3165116873
 40
0.37941528
 40
0.4421620112
 40
0.5047460954
 40
0.5671657261
 40
0.6294227274
 40
0.6915221182
 40
0.7534726662
 40
0.8152847883
 40
0.8769699244
 40
1.0
 40
1.0
 40
1.0
 40
1.0
 10
8.6165415244
 20
8.4232055663
 30
0.0
 10
8.6104130764
 20
8.4466367235
 30
0.0
 10
8.6020360607
 20
8.4819770128
 30
0.0
 10
8.5928648149
 20
8.529458426
 30
0.0
 10
8.5870874326
 20
8.5651633585
 30
0.0
 10
8.5824900878
 20
8.6009604484
 30
0.0
 10
8.5791460306
 20
8.6368121432
 30
0.0
 10
8.5771142326
 20
8.6726731997
 30
0.0
 10
8.576431762
 20
8.7084932933
 30
0.0
 10
8.5771106731
 20
8.7442200794
 30
0.0
 10
8.57913921
 20
8.7798028488
 30
0.0
 10
8.5824805624
 20
8.8151960568
 30
0.0
 10
8.5870758664
 20
8.8503619858
 30
0.0
 10
8.5928519732
 20
8.8852728509
 30
0.0
 10
8.6020059903
 20
8.931410463
 30
0.0
 10
8.6103939485
 20
8.9656604227
 30
0.0
 10
8.6165415244
 20
8.9883120408
 30
0.0
  0
SPLINE
  5
377
100
AcDbEntity
  8
0
100
AcDbSpline
 62
7
  6
CONTINUOUS
 70
0
 71
3
 72
15
 73
11
 74
0
 42
0.0000001
 43
0.0000001
 44
0.0000000001
 40
0.0
 40
0.0
 40
0.0
 40
0.0
 40
0.1201732322
 40
0.2410336384
 40
0.3629078784
 40
0.4861757754
 40
0.6112294411
 40
0.7384145049
 40
0.8679713593
 40
1.0
 40
1.0
 40
1.0
 40
1.0
 10
8.6237655366
 20
9.0419866913
 30
0.0
 10
8.6231777478
 20
9.0547006728
 30
0.0
 10
8.6226498044
 20
9.0802377531
 30
0.0
 10
8.6240862233
 20
9.1186698816
 30
0.0
 10
8.6280374847
 20
9.1572612399
 30
0.0
 10
8.6347556568
 20
9.1959231798
 30
0.0
 10
8.6444165454
 20
9.2345389112
 30
0.0
 10
8.6570854648
 20
9.2729763849
 30
0.0
 10
8.6727016837
 20
9.3111078299
 30
0.0
 10
8.6848501489
 20
9.3360293853
 30
0.0
 10
8.6913354316
 20
9.3484176916
 30
0.0
  0
SPLINE
  5
378
100
AcDbEntity
  8
0
100
AcDbSpline
 62
7
  6
CONTINUOUS
 70
0
 71
3
 72
9
 73
5
 74
0
 42
0.0000001
 43
0.0000001
 44
0.0000000001
 40
0.0
 40
0.0
 40
0.0
 40
0.0
 40
0.5118119473
 40
1.0
 40
1.0
 40
1.0
 40
1.0
 10
8.6295674919
 20
8.3398980554
 30
0.0
 10
8.6282758473
 20
8.343004544
 30
0.0
 10
8.6260768035
 20
8.3492159217
 30
0.0
 10
8.6246127232
 20
8.3556415616
 30
0.0
 10
8.6240876576
 20
8.3588073415
 30
0.0
  0
SPLINE
  5
379
100
AcDbEntity
  8
0
100
AcDbSpline
 62
7
  6
CONTINUOUS
 70
0
 71
3
 72
11
 73
7
 74
0
 42
0.0000001
 43
0.0000001
 44
0.0000000001
 40
0.0
 40
0.0
 40
0.0
 40
0.0
 40
0.2546540834
 40
0.5052032516
 40
0.7531996566
 40
1.0
 40
1.0
 40
1.0
 40
1.0
 10
8.6240876576
 20
8.3588073415
 30
0.0
 10
8.6237436613
 20
8.3608813997
 30
0.0
 10
8.623221447
 20
8.3650245473
 30
0.0
 10
8.6229240831
 20
8.3712415782
 30
0.0
 10
8.6230922637
 20
8.3773981545
 30
0.0
 10
8.6234961322
 20
8.3814669731
 30
0.0
 10
8.6237655366
 20
8.3834866365
 30
0.0
  0
SPLINE
  5
37A
100
AcDbEntity
  8
0
100
AcDbSpline
 62
7
  6
CONTINUOUS
 70
0
 71
3
 72
26
 73
22
 74
0
 42
0.0000001
 43
0.0000001
 44
0.0000000001
 40
0.0
 40
0.0
 40
0.0
 40
0.0
 40
0.0187290799
 40
0.0384144771
 40
0.0590586974
 40
0.0806603977
 40
0.1032137633
 40
0.1267106912
 40
0.176488919
 40
0.2298843658
 40
0.2867540509
 40
0.3469271767
 40
0.4102114801
 40
0.476395471
 40
0.5452496582
 40
0.6165311723
 40
0.6899826866
 40
0.7653367944
 40
0.8423158824
 40
0.9206342529
 40
1.0
 40
1.0
 40
1.0
 40
1.0
 10
9.8527925175
 20
8.3533828284
 30
0.0
 10
9.851799285
 20
8.3553624928
 30
0.0
 10
9.8498423854
 20
8.3594635558
 30
0.0
 10
9.847055607
 20
8.3658689158
 30
0.0
 10
9.8443472733
 20
8.3726748184
 30
0.0
 10
9.8417202821
 20
8.3798744867
 30
0.0
 10
9.8391769188
 20
8.3874607226
 30
0.0
 10
9.8358364002
 20
8.3982906029
 30
0.0
 10
9.8319114282
 20
8.4127520353
 30
0.0
 10
9.827658511
 20
8.4311982851
 30
0.0
 10
9.8237946598
 20
8.4509835773
 30
0.0
 10
9.8203352658
 20
8.472029019
 30
0.0
 10
9.8172946363
 20
8.4942509482
 30
0.0
 10
9.8146854383
 20
8.5175606465
 30
0.0
 10
9.812518013
 20
8.5418649644
 30
0.0
 10
9.8108017167
 20
8.5670666128
 30
0.0
 10
9.8095432167
 20
8.5930647106
 30
0.0
 10
9.8087479345
 20
8.6197550675
 30
0.0
 10
9.8084191658
 20
8.6470307592
 30
0.0
 10
9.8085581211
 20
8.6747823481
 30
0.0
 10
9.8089603426
 20
8.6934263271
 30
0.0
 10
9.809238303
 20
8.7028078077
 30
0.0
  0
SPLINE
  5
37B
100
AcDbEntity
  8
0
100
AcDbSpline
 62
7
  6
CONTINUOUS
 70
0
 71
3
 72
21
 73
17
 74
0
 42
0.0000001
 43
0.0000001
 44
0.0000000001
 40
0.0
 40
0.0
 40
0.0
 40
0.0
 40
0.041674821
 40
0.0860149455
 40
0.133101666
 40
0.1829937719
 40
0.235726199
 40
0.2913160844
 40
0.3497687099
 40
0.4110747248
 40
0.4752122095
 40
0.5421526245
 40
0.6118583292
 40
0.6842814268
 40
0.8370593879
 40
1.0
 40
1.0
 40
1.0
 40
1.0
 10
10.1512993526
 20
8.313226929
 30
0.0
 10
10.1501286913
 20
8.3147115797
 30
0.0
 10
10.1478159593
 20
8.3178583595
 30
0.0
 10
10.1445259037
 20
8.3229250718
 30
0.0
 10
10.1413128308
 20
8.3284760119
 30
0.0
 10
10.1381806789
 20
8.3345050081
 30
0.0
 10
10.1351325634
 20
8.3410053539
 30
0.0
 10
10.1321717272
 20
8.3479697186
 30
0.0
 10
10.1293017693
 20
8.355390452
 30
0.0
 10
10.1265258904
 20
8.3632591578
 30
0.0
 10
10.1238470391
 20
8.371566841
 30
0.0
 10
10.1212685015
 20
8.3803041552
 30
0.0
 10
10.11879327
 20
8.3894611852
 30
0.0
 10
10.1155767991
 20
8.4024487741
 30
0.0
 10
10.1118574302
 20
8.4196648118
 30
0.0
 10
10.1093128041
 20
8.43376301
 30
0.0
 10
10.1081071817
 20
8.4410561943
 30
0.0
  0
SPLINE
  5
37C
100
AcDbEntity
  8
0
100
AcDbSpline
 62
7
  6
CONTINUOUS
 70
0
 71
3
 72
91
 73
87
 74
0
 42
0.0000001
 43
0.0000001
 44
0.0000000001
 40
0.0
 40
0.0
 40
0.0
 40
0.0
 40
0.0039801924
 40
0.0081241222
 40
0.0124359637
 40
0.0169193096
 40
0.0215771886
 40
0.0264119285
 40
0.0314251939
 40
0.0366181702
 40
0.0419915548
 40
0.047545678
 40
0.0532804444
 40
0.0591954462
 40
0.0652899498
 40
0.0715629346
 40
0.0780131383
 40
0.0846390212
 40
0.0984103321
 40
0.112860905
 40
0.1279714342
 40
0.1437200292
 40
0.1600824911
 40
0.1770325451
 40
0.1945420381
 40
0.2125811122
 40
0.2311183582
 40
0.250120955
 40
0.2695548022
 40
0.2893846422
 40
0.309574176
 40
0.3300861748
 40
0.3508825876
 40
0.371924647
 40
0.3931729723
 40
0.4145876715
 40
0.4361284441
 40
0.4577546814
 40
0.4794255667
 40
0.5011001742
 40
0.5227375691
 40
0.5442969066
 40
0.5657375322
 40
0.5870190822
 40
0.6081015838
 40
0.6289455566
 40
0.6495121139
 40
0.6697630662
 40
0.6896610263
 40
0.7091695166
 40
0.7282530813
 40
0.7468774025
 40
0.7650094193
 40
0.7826174564
 40
0.799671362
 40
0.8161426596
 40
0.8320047173
 40
0.8472329411
 40
0.8618050018
 40
0.8757011035
 40
0.8889043078
 40
0.8952418952
 40
0.9014014185
 40
0.9073817887
 40
0.9131821496
 40
0.9188019795
 40
0.9242410699
 40
0.9294995748
 40
0.9345780695
 40
0.9394775409
 40
0.9441995182
 40
0.9487460398
 40
0.953119811
 40
0.9573242085
 40
0.9613634143
 40
0.9652425019
 40
0.9689675247
 40
0.9725456818
 40
0.9759853712
 40
0.9824865179
 40
0.9855753633
 40
0.9885738259
 40
0.9914977396
 40
0.9943643376
 40
0.9971920097
 40
1.0
 40
1.0
 40
1.0
 40
1.0
 10
12.3765352726
 20
9.9714868609
 30
0.0
 10
12.3750805429
 20
9.9700816999
 30
0.0
 10
12.372045177
 20
9.9672813189
 30
0.0
 10
12.3672259526
 20
9.9631911567
 30
0.0
 10
12.3620528373
 20
9.9591303405
 30
0.0
 10
12.3565286673
 20
9.9551010128
 30
0.0
 10
12.3506561276
 20
9.9511050645
 30
0.0
 10
12.3444381058
 20
9.9471444291
 30
0.0
 10
12.3378777064
 20
9.9432210233
 30
0.0
 10
12.33097819
 20
9.9393368704
 30
0.0
 10
12.3237430373
 20
9.9354938363
 30
0.0
 10
12.3161758422
 20
9.9316939066
 30
0.0
 10
12.3082804162
 20
9.9279389313
 30
0.0
 10
12.3000607114
 20
9.9242308367
 30
0.0
 10
12.2915208637
 20
9.9205714789
 30
0.0
 10
12.2826651743
 20
9.9169626982
 30
0.0
 10
12.2734980844
 20
9.9134063246
 30
0.0
 10
12.2607013286
 20
9.9086758526
 30
0.0
 10
12.2439523691
 20
9.9029187747
 30
0.0
 10
12.2229382285
 20
9.896333027
 30
0.0
 10
12.2008004056
 20
9.8899975632
 30
0.0
 10
12.1775835888
 20
9.8839252708
 30
0.0
 10
12.1533344785
 20
9.8781285184
 30
0.0
 10
12.128101978
 20
9.8726191139
 30
0.0
 10
12.1019369992
 20
9.8674082813
 30
0.0
 10
12.0748923763
 20
9.8625066353
 30
0.0
 10
12.0470227472
 20
9.8579241593
 30
0.0
 10
12.0183844399
 20
9.8536701818
 30
0.0
 10
11.9890353534
 20
9.8497533618
 30
0.0
 10
11.9590348361
 20
9.84618167
 30
0.0
 10
11.9284435639
 20
9.8429623737
 30
0.0
 10
11.8973234156
 20
9.840102022
 30
0.0
 10
11.8657373464
 20
9.8376064334
 30
0.0
 10
11.8337492599
 20
9.8354806842
 30
0.0
 10
11.8014238781
 20
9.8337290975
 30
0.0
 10
11.7688266093
 20
9.8323552332
 30
0.0
 10
11.7360234141
 20
9.8313618839
 30
0.0
 10
11.7030806712
 20
9.8307510684
 30
0.0
 10
11.6700650425
 20
9.8305240284
 30
0.0
 10
11.637043338
 20
9.8306812256
 30
0.0
 10
11.6040823803
 20
9.8312223411
 30
0.0
 10
11.5712488692
 20
9.8321462759
 30
0.0
 10
11.5386092453
 20
9.8334511524
 30
0.0
 10
11.506229555
 20
9.8351343164
 30
0.0
 10
11.4741753159
 20
9.8371923451
 30
0.0
 10
11.4425113834
 20
9.8396210534
 30
0.0
 10
11.4113018197
 20
9.8424155023
 30
0.0
 10
11.3806097629
 20
9.8455700083
 30
0.0
 10
11.3504972986
 20
9.8490781551
 30
0.0
 10
11.3210253321
 20
9.8529328059
 30
0.0
 10
11.2922534625
 20
9.8571261166
 30
0.0
 10
11.2642398592
 20
9.8616495505
 30
0.0
 10
11.2370411419
 20
9.8664938972
 30
0.0
 10
11.2107122636
 20
9.8716492915
 30
0.0
 10
11.1853063945
 20
9.8771052326
 30
0.0
 10
11.1608748108
 20
9.8828506065
 30
0.0
 10
11.1374667758
 20
9.8888737098
 30
0.0
 10
11.115129457
 20
9.8951622757
 30
0.0
 10
11.0939077179
 20
9.9017035058
 30
0.0
 10
11.073844352
 20
9.9084840913
 30
0.0
 10
11.0579132763
 20
9.9144005048
 30
0.0
 10
11.0457880781
 20
9.9192533951
 30
0.0
 10
11.0371328841
 20
9.9228946105
 30
0.0
 10
11.0287962923
 20
9.9265851846
 30
0.0
 10
11.0207824953
 20
9.9303233368
 30
0.0
 10
11.0130955126
 20
9.9341071454
 30
0.0
 10
11.0057392002
 20
9.9379347199
 30
0.0
 10
10.9987172512
 20
9.9418041611
 30
0.0
 10
10.9920331591
 20
9.9457134943
 30
0.0
 10
10.9856902885
 20
9.9496608396
 30
0.0
 10
10.9796917668
 20
9.9536441734
 30
0.0
 10
10.9740406146
 20
9.9576616128
 30
0.0
 10
10.9687396111
 20
9.9617111431
 30
0.0
 10
10.9637914095
 20
9.9657908534
 30
0.0
 10
10.959198482
 20
9.9698987836
 30
0.0
 10
10.9549630847
 20
9.9740330238
 30
0.0
 10
10.9510875018
 20
9.9781915693
 30
0.0
 10
10.9475733514
 20
9.9823729562
 30
0.0
 10
10.9434509431
 20
9.9878710181
 30
0.0
 10
10.9399503316
 20
9.9935172592
 30
0.0
 10
10.9371710407
 20
9.9992840811
 30
0.0
 10
10.9354917744
 20
10.0035490591
 30
0.0
 10
10.93418411
 20
10.0078244308
 30
0.0
 10
10.9332490458
 20
10.0121080919
 30
0.0
 10
10.9326876667
 20
10.0163970054
 30
0.0
 10
10.9325627082
 20
10.0192623334
 30
0.0
 10
10.9325627123
 20
10.0206892256
 30
0.0
  0
SPLINE
  5
37D
100
AcDbEntity
  8
0
100
AcDbSpline
 62
7
  6
CONTINUOUS
 70
0
 71
3
 72
25
 73
21
 74
0
 42
0.0000001
 43
0.0000001
 44
0.0000000001
 40
0.0
 40
0.0
 40
0.0
 40
0.0
 40
0.063777207
 40
0.1273431941
 40
0.1907001592
 40
0.25385355
 40
0.3168099722
 40
0.379578248
 40
0.4421688981
 40
0.5045942164
 40
0.5668681104
 40
0.6290059928
 40
0.6910246328
 40
0.721997334
 40
0.752947051
 40
0.8147821323
 40
0.8765547551
 40
0.9074265678
 40
0.9382904798
 40
1.0
 40
1.0
 40
1.0
 40
1.0
 10
10.3400758138
 20
8.1506758561
 30
0.0
 10
10.3400758138
 20
8.1393432796
 30
0.0
 10
10.3395334456
 20
8.116711816
 30
0.0
 10
10.337085161
 20
8.0829021765
 30
0.0
 10
10.3330089803
 20
8.0493606918
 30
0.0
 10
10.3273143058
 20
8.0161657553
 30
0.0
 10
10.3200141209
 20
7.983393546
 30
0.0
 10
10.3111252149
 20
7.9511197141
 30
0.0
 10
10.3006679818
 20
7.9194186342
 30
0.0
 10
10.2886664901
 20
7.8883634487
 30
0.0
 10
10.2751482641
 20
7.858025655
 30
0.0
 10
10.2601447132
 20
7.8284756873
 30
0.0
 10
10.2464258728
 20
7.8045521902
 30
0.0
 10
10.2347459807
 20
7.7858790087
 30
0.0
 10
10.2226108845
 20
7.7675374462
 30
0.0
 10
10.2065822125
 20
7.745221145
 30
0.0
 10
10.1894388088
 20
7.7237670271
 30
0.0
 10
10.1750868184
 20
7.7071611977
 30
0.0
 10
10.1603207644
 20
7.6909382901
 30
0.0
 10
10.1487806585
 20
7.6792027595
 30
0.0
 10
10.1408939045
 20
7.6715847517
 30
0.0
  0
SPLINE
  5
37E
100
AcDbEntity
  8
0
100
AcDbSpline
 62
7
  6
CONTINUOUS
 70
0
 71
3
 72
23
 73
19
 74
0
 42
0.0000001
 43
0.0000001
 44
0.0000000001
 40
0.0
 40
0.0
 40
0.0
 40
0.0
 40
0.0637772827
 40
0.1273447928
 40
0.1907019891
 40
0.2538561422
 40
0.3168131889
 40
0.3795820982
 40
0.4421733894
 40
0.5045993375
 40
0.5668738648
 40
0.6290123797
 40
0.6910316513
 40
0.752949645
 40
0.814785352
 40
0.8765586
 40
0.9382898524
 40
1.0
 40
1.0
 40
1.0
 40
1.0
 10
12.5573586794
 20
7.3941690033
 30
0.0
 10
12.5573586794
 20
7.3879203293
 30
0.0
 10
12.5570595979
 20
7.3754414162
 30
0.0
 10
12.555709663
 20
7.3567989452
 30
0.0
 10
12.553462034
 20
7.3383042732
 30
0.0
 10
12.5503220493
 20
7.3200007646
 30
0.0
 10
12.5462967638
 20
7.3019303092
 30
0.0
 10
12.5413954611
 20
7.2841346686
 30
0.0
 10
12.5356293877
 20
7.2666548452
 30
0.0
 10
12.5290118115
 20
7.2495311493
 30
0.0
 10
12.5215579577
 20
7.2328030704
 30
0.0
 10
12.5132849767
 20
7.216509193
 30
0.0
 10
12.5042119089
 20
7.200687113
 30
0.0
 10
12.4943596459
 20
7.1853733254
 30
0.0
 10
12.4837509359
 20
7.1706031849
 30
0.0
 10
12.4724101122
 20
7.1564106493
 30
0.0
 10
12.4603637777
 20
7.142828898
 30
0.0
 10
12.451879443
 20
7.1342009074
 30
0.0
 10
12.4475307238
 20
7.1300003728
 30
0.0
  0
SPLINE
  5
37F
100
AcDbEntity
  8
0
100
AcDbSpline
 62
7
  6
CONTINUOUS
 70
0
 71
3
 72
32
 73
28
 74
0
 42
0.0000001
 43
0.0000001
 44
0.0000000001
 40
0.0
 40
0.0
 40
0.0
 40
0.0
 40
0.085867905
 40
0.1720629185
 40
0.2578435552
 40
0.3424058886
 40
0.4248982799
 40
0.5044339816
 40
0.5801162009
 40
0.6162411769
 40
0.6510786196
 40
0.6845292105
 40
0.7165002398
 40
0.7469075076
 40
0.7756778071
 40
0.8027505286
 40
0.8280815807
 40
0.8516472891
 40
0.8734487636
 40
0.8935199964
 40
0.9119365203
 40
0.9288268673
 40
0.9443876128
 40
0.9588947818
 40
0.9727080503
 40
0.986256581
 40
1.0
 40
1.0
 40
1.0
 40
1.0
 10
9.6602653777
 20
7.9780481525
 30
0.0
 10
9.6624603824
 20
7.9769896503
 30
0.0
 10
9.6669109882
 20
7.9749750997
 30
0.0
 10
9.6737169318
 20
7.972279904
 30
0.0
 10
9.6806098252
 20
7.9699272441
 30
0.0
 10
9.6875082577
 20
7.967942537
 30
0.0
 10
9.694324829
 20
7.9663453063
 30
0.0
 10
9.7009671043
 20
7.9651487368
 30
0.0
 10
9.7063593593
 20
7.9644802317
 30
0.0
 10
9.7105090074
 20
7.964156083
 30
0.0
 10
9.7134695431
 20
7.9640184323
 30
0.0
 10
9.7163151732
 20
7.9639811964
 30
0.0
 10
9.7190346866
 20
7.9640428918
 30
0.0
 10
9.7216172774
 20
7.9642016416
 30
0.0
 10
9.7240526678
 20
7.9644552222
 30
0.0
 10
9.7263311825
 20
7.9648012019
 30
0.0
 10
9.7284438336
 20
7.965236899
 30
0.0
 10
9.7303823947
 20
7.9657594809
 30
0.0
 10
9.7321394504
 20
7.9663661126
 30
0.0
 10
9.7337084456
 20
7.9670539865
 30
0.0
 10
9.7350836523
 20
7.9678205362
 30
0.0
 10
9.7362599524
 20
7.968663667
 30
0.0
 10
9.7372324825
 20
7.9695816999
 30
0.0
 10
9.737995955
 20
7.9705730224
 30
0.0
 10
9.7385443649
 20
7.9716350705
 30
0.0
 10
9.7388724172
 20
7.9727620007
 30
0.0
 10
9.7389415615
 20
7.9735388421
 30
0.0
 10
9.7389415516
 20
7.973928875
 30
0.0
  0
SPLINE
  5
380
100
AcDbEntity
  8
0
100
AcDbSpline
 62
7
  6
CONTINUOUS
 70
0
 71
3
 72
82
 73
78
 74
0
 42
0.0000001
 43
0.0000001
 44
0.0000000001
 40
0.0
 40
0.0
 40
0.0
 40
0.0
 40
0.0039143727
 40
0.0079857726
 40
0.0122181152
 40
0.0166147489
 40
0.0211785364
 40
0.0259117756
 40
0.0308160969
 40
0.0358926719
 40
0.041142244
 40
0.0465651599
 40
0.0521614627
 40
0.0579308153
 40
0.0699855569
 40
0.0827220335
 40
0.0961286926
 40
0.1101908438
 40
0.1248910481
 40
0.1402094259
 40
0.1561239315
 40
0.1726105705
 40
0.1896435834
 40
0.2071955981
 40
0.2252377695
 40
0.2437399208
 40
0.2626706627
 40
0.2819975026
 40
0.3016869439
 40
0.3217045866
 40
0.3420152336
 40
0.3625829839
 40
0.3833713242
 40
0.4043432163
 40
0.4466867346
 40
0.4893109605
 40
0.531909974
 40
0.5741780937
 40
0.5950936669
 40
0.615813441
 40
0.6363005425
 40
0.656518649
 40
0.6764320788
 40
0.6960058841
 40
0.7152059557
 40
0.7339991185
 40
0.7523532295
 40
0.7702372825
 40
0.787621523
 40
0.804477583
 40
0.8207786068
 40
0.836499394
 40
0.8516165656
 40
0.8661087616
 40
0.8799568838
 40
0.8931443611
 40
0.9056574837
 40
0.9174858285
 40
0.923141264
 40
0.9286234132
 40
0.9339321582
 40
0.9390677327
 40
0.9440307678
 40
0.9488222632
 40
0.9534437365
 40
0.9578971825
 40
0.962185183
 40
0.9663109917
 40
0.9702785441
 40
0.9740926424
 40
0.9777589686
 40
0.9812842279
 40
0.9879413164
 40
0.9910954236
 40
0.994147539
 40
0.9971108616
 40
1.0
 40
1.0
 40
1.0
 40
1.0
 10
12.2224700942
 20
9.9512616883
 30
0.0
 10
12.2213602536
 20
9.9501896645
 30
0.0
 10
12.2190469556
 20
9.9480529671
 30
0.0
 10
12.2153787564
 20
9.9449300369
 30
0.0
 10
12.2114470421
 20
9.9418288282
 30
0.0
 10
12.2072538672
 20
9.9387509637
 30
0.0
 10
12.2028012111
 20
9.9356977834
 30
0.0
 10
12.1980911185
 20
9.9326707263
 30
0.0
 10
12.1931258338
 20
9.9296711434
 30
0.0
 10
12.187907705
 20
9.9267004976
 30
0.0
 10
12.1824392199
 20
9.923760206
 30
0.0
 10
12.1767229977
 20
9.920851635
 30
0.0
 10
12.1707617321
 20
9.9179761959
 30
0.0
 10
12.1623672978
 20
9.9141319312
 30
0.0
 10
12.1512727928
 20
9.909429882
 30
0.0
 10
12.1372178461
 20
9.9040204891
 30
0.0
 10
12.1222598251
 20
9.8987750493
 30
0.0
 10
12.1064273515
 20
9.893703682
 30
0.0
 10
12.0897505559
 20
9.8888161816
 30
0.0
 10
12.0722613299
 20
9.8841219947
 30
0.0
 10
12.0539931507
 20
9.8796302055
 30
0.0
 10
12.0349810299
 20
9.8753495104
 30
0.0
 10
12.0152614336
 20
9.8712882016
 30
0.0
 10
11.9948722153
 20
9.8674541444
 30
0.0
 10
11.9738525387
 20
9.8638547546
 30
0.0
 10
11.952242793
 20
9.8604969977
 30
0.0
 10
11.9300845096
 20
9.8573873711
 30
0.0
 10
11.9074202828
 20
9.8545318947
 30
0.0
 10
11.8842936911
 20
9.8519360927
 30
0.0
 10
11.8607492115
 20
9.8496049799
 30
0.0
 10
11.8368321253
 20
9.8475430611
 30
0.0
 10
11.8125884446
 20
9.8457543295
 30
0.0
 10
11.788064764
 20
9.8442422218
 30
0.0
 10
11.7549515018
 20
9.8425937189
 30
0.0
 10
11.7132078353
 20
9.8412477343
 30
0.0
 10
11.6629191397
 20
9.8407721483
 30
0.0
 10
11.6126622836
 20
9.8414350296
 30
0.0
 10
11.5709858077
 20
9.8429367987
 30
0.0
 10
11.5379580128
 20
9.8447093526
 30
0.0
 10
11.5135213306
 20
9.8463128989
 30
0.0
 10
11.4893800654
 20
9.848191984
 30
0.0
 10
11.4655806146
 20
9.8503430015
 30
0.0
 10
11.4421687656
 20
9.8527617873
 30
0.0
 10
11.4191895442
 20
9.8554436716
 30
0.0
 10
11.3966871391
 20
9.8583834646
 30
0.0
 10
11.3747048116
 20
9.8615754766
 30
0.0
 10
11.3532848171
 20
9.8650135318
 30
0.0
 10
11.332468323
 20
9.8686909788
 30
0.0
 10
11.3122953243
 20
9.8726007056
 30
0.0
 10
11.2928045579
 20
9.8767351395
 30
0.0
 10
11.2740334267
 20
9.8810862728
 30
0.0
 10
11.2560179285
 20
9.8856456809
 30
0.0
 10
11.2387925841
 20
9.8904045388
 30
0.0
 10
11.2223903498
 20
9.8953536444
 30
0.0
 10
11.2068425645
 20
9.9004834232
 30
0.0
 10
11.1921787815
 20
9.9057839775
 30
0.0
 10
11.178427047
 20
9.9112450929
 30
0.0
 10
11.1675925069
 20
9.9159894087
 30
0.0
 10
11.1594106926
 20
9.9198659237
 30
0.0
 10
11.1536104709
 20
9.9227633417
 30
0.0
 10
11.1480570903
 20
9.9256929529
 30
0.0
 10
11.1427531933
 20
9.9286534018
 30
0.0
 10
11.1377012857
 20
9.9316432345
 30
0.0
 10
11.1329037934
 20
9.9346610997
 30
0.0
 10
11.1283629652
 20
9.9377055256
 30
0.0
 10
11.124080962
 20
9.9407751157
 30
0.0
 10
11.120059819
 20
9.9438684642
 30
0.0
 10
11.1163014123
 20
9.946984098
 30
0.0
 10
11.1128075504
 20
9.9501206928
 30
0.0
 10
11.1095799302
 20
9.9532767047
 30
0.0
 10
11.1066198746
 20
9.9564510617
 30
0.0
 10
11.1030998269
 20
9.9606255501
 30
0.0
 10
11.1000315973
 20
9.9649122156
 30
0.0
 10
11.0974858008
 20
9.9693010767
 30
0.0
 10
11.0958847655
 20
9.9725451759
 30
0.0
 10
11.0945591564
 20
9.9757986282
 30
0.0
 10
11.0938517336
 20
9.977997413
 30
0.0
 10
11.0935465697
 20
9.9790946639
 30
0.0
  0
SPLINE
  5
381
100
AcDbEntity
  8
0
100
AcDbSpline
 62
7
  6
CONTINUOUS
 70
0
 71
3
 72
15
 73
11
 74
0
 42
0.0000001
 43
0.0000001
 44
0.0000000001
 40
0.0
 40
0.0
 40
0.0
 40
0.0
 40
0.1431427736
 40
0.2803166142
 40
0.4118290254
 40
0.5380567657
 40
0.6594450646
 40
0.7765033405
 40
0.8898074065
 40
1.0
 40
1.0
 40
1.0
 40
1.0
 10
12.2224700942
 20
9.9512616883
 30
0.0
 10
12.223622869
 20
9.9523751834
 30
0.0
 10
12.2258302273
 20
9.9546085704
 30
0.0
 10
12.2288995704
 20
9.958052639
 30
0.0
 10
12.2316529387
 20
9.9615157966
 30
0.0
 10
12.2340884564
 20
9.9649961245
 30
0.0
 10
12.2362045844
 20
9.9684919082
 30
0.0
 10
12.2379998298
 20
9.9720015361
 30
0.0
 10
12.2394727284
 20
9.9755227617
 30
0.0
 10
12.240248162
 20
9.9779056825
 30
0.0
 10
12.2405787592
 20
9.9790943659
 30
0.0
  0
SPLINE
  5
382
100
AcDbEntity
  8
0
100
AcDbSpline
 62
7
  6
CONTINUOUS
 70
0
 71
3
 72
23
 73
19
 74
0
 42
0.0000001
 43
0.0000001
 44
0.0000000001
 40
0.0
 40
0.0
 40
0.0
 40
0.0
 40
0.0637773819
 40
0.1273447421
 40
0.1907019992
 40
0.253856141
 40
0.3168131832
 40
0.3795820983
 40
0.4421733889
 40
0.504599339
 40
0.5668738661
 40
0.6290123801
 40
0.6910316522
 40
0.752949648
 40
0.8147853569
 40
0.876558605
 40
0.9382898554
 40
1.0
 40
1.0
 40
1.0
 40
1.0
 10
10.1603353965
 20
8.2215599347
 30
0.0
 10
10.1603353965
 20
8.2139998113
 30
0.0
 10
10.1599735508
 20
8.198901898
 30
0.0
 10
10.1583402941
 20
8.1763468461
 30
0.0
 10
10.155620956
 20
8.1539706241
 30
0.0
 10
10.1518219686
 20
8.1318256695
 30
0.0
 10
10.1469518849
 20
8.1099626856
 30
0.0
 10
10.141021942
 20
8.088432188
 30
0.0
 10
10.134045729
 20
8.0672837896
 30
0.0
 10
10.1260393021
 20
8.0465662618
 30
0.0
 10
10.117021083
 20
8.026327381
 30
0.0
 10
10.1070118255
 20
8.006613828
 30
0.0
 10
10.0960345767
 20
7.9874710821
 30
0.0
 10
10.0841146013
 20
7.9689433023
 30
0.0
 10
10.0712794086
 20
7.9510732736
 30
0.0
 10
10.0575584499
 20
7.9339020734
 30
0.0
 10
10.0429839021
 20
7.9174698556
 30
0.0
 10
10.0327189587
 20
7.9070310331
 30
0.0
 10
10.0274575492
 20
7.9019489187
 30
0.0
  0
SPLINE
  5
383
100
AcDbEntity
  8
0
100
AcDbSpline
 62
7
  6
CONTINUOUS
 70
0
 71
3
 72
45
 73
41
 74
0
 42
0.0000001
 43
0.0000001
 44
0.0000000001
 40
0.0
 40
0.0
 40
0.0
 40
0.0
 40
0.0310742614
 40
0.0623057426
 40
0.0936898446
 40
0.125217908
 40
0.1568785541
 40
0.1886576029
 40
0.220538447
 40
0.2525024129
 40
0.2845291516
 40
0.3165970575
 40
0.3486837056
 40
0.3807662986
 40
0.4128221195
 40
0.4448289838
 40
0.4767656829
 40
0.5086124157
 40
0.5403511993
 40
0.5719662505
 40
0.6034443338
 40
0.6347750718
 40
0.6659512006
 40
0.6969687676
 40
0.7278272698
 40
0.7585297197
 40
0.7890826279
 40
0.8194959081
 40
0.8346570226
 40
0.8497884117
 40
0.8648921795
 40
0.8799705898
 40
0.8950260592
 40
0.9100611439
 40
0.9250785187
 40
0.9400809684
 40
0.9550713684
 40
0.9700526647
 40
0.9850278616
 40
1.0
 40
1.0
 40
1.0
 40
1.0
 10
10.1603353965
 20
8.2215599347
 30
0.0
 10
10.1603353965
 20
8.2332894345
 30
0.0
 10
10.1594603979
 20
8.2568168053
 30
0.0
 10
10.1555537434
 20
8.2919952247
 30
0.0
 10
10.1490716437
 20
8.3269670795
 30
0.0
 10
10.1400499162
 20
8.3615378476
 30
0.0
 10
10.1285384833
 20
8.3955183406
 30
0.0
 10
10.1146008607
 20
8.4287218856
 30
0.0
 10
10.0983138048
 20
8.4609663195
 30
0.0
 10
10.0797668776
 20
8.4920746767
 30
0.0
 10
10.0590620483
 20
8.5218762786
 30
0.0
 10
10.0363130795
 20
8.5502076157
 30
0.0
 10
10.0116448745
 20
8.5769132102
 30
0.0
 10
9.9851928213
 20
8.6018464639
 30
0.0
 10
9.9571021198
 20
8.6248705259
 30
0.0
 10
9.9275269127
 20
8.6458589638
 30
0.0
 10
9.8966294546
 20
8.6646964354
 30
0.0
 10
9.8645792735
 20
8.6812793739
 30
0.0
 10
9.8315522499
 20
8.6955165721
 30
0.0
 10
9.7977296253
 20
8.7073296079
 30
0.0
 10
9.7632970374
 20
8.7166532741
 30
0.0
 10
9.7284435423
 20
8.7234360462
 30
0.0
 10
9.6933605705
 20
8.7276403055
 30
0.0
 10
9.6582408517
 20
8.7292425062
 30
0.0
 10
9.6232775337
 20
8.7282334078
 30
0.0
 10
9.5886625549
 20
8.7246180244
 30
0.0
 10
9.5545876915
 20
8.7184162686
 30
0.0
 10
9.5267640049
 20
8.7111114373
 30
0.0
 10
9.5049713966
 20
8.7040143076
 30
0.0
 10
9.4888921272
 20
8.698077942
 30
0.0
 10
9.4730855285
 20
8.6915313634
 30
0.0
 10
9.4575730689
 20
8.684383414
 30
0.0
 10
9.4423761568
 20
8.6766440001
 30
0.0
 10
9.4275156761
 20
8.6683237648
 30
0.0
 10
9.4130121289
 20
8.6594340821
 30
0.0
 10
9.3988854226
 20
8.6499872544
 30
0.0
 10
9.3851550376
 20
8.6399962603
 30
0.0
 10
9.3718398329
 20
8.6294747464
 30
0.0
 10
9.3589583226
 20
8.6184375131
 30
0.0
 10
9.3506707405
 20
8.6107447371
 30
0.0
 10
9.346605878
 20
8.6068183945
 30
0.0
  0
SPLINE
  5
384
100
AcDbEntity
  8
0
100
AcDbSpline
 62
7
  6
CONTINUOUS
 70
0
 71
3
 72
21
 73
17
 74
0
 42
0.0000001
 43
0.0000001
 44
0.0000000001
 40
0.0
 40
0.0
 40
0.0
 40
0.0
 40
0.12731758
 40
0.2538000122
 40
0.3167619425
 40
0.3795355005
 40
0.4421315041
 40
0.5045621466
 40
0.5668413435
 40
0.6289845285
 40
0.6910084568
 40
0.7529310961
 40
0.8147714484
 40
0.8765493394
 40
0.9382852242
 40
1.0
 40
1.0
 40
1.0
 40
1.0
 10
12.4553675545
 20
7.4456531358
 30
0.0
 10
12.4553675545
 20
7.4377996573
 30
0.0
 10
12.4546178841
 20
7.4221341077
 30
0.0
 10
12.4517866475
 20
7.4027681044
 30
0.0
 10
12.4484026695
 20
7.3875771669
 30
0.0
 10
12.4453166616
 20
7.3763723321
 30
0.0
 10
12.4416862055
 20
7.3653665789
 30
0.0
 10
12.4375195789
 20
7.3545850004
 30
0.0
 10
12.4328264264
 20
7.3440525247
 30
0.0
 10
12.4276175419
 20
7.3337934221
 30
0.0
 10
12.4219048739
 20
7.3238313913
 30
0.0
 10
12.4157016155
 20
7.3141893885
 30
0.0
 10
12.4090220955
 20
7.3048896664
 30
0.0
 10
12.4018815979
 20
7.2959536316
 30
0.0
 10
12.3942968681
 20
7.2874021862
 30
0.0
 10
12.3889549176
 20
7.2819697285
 30
0.0
 10
12.3862168347
 20
7.2793249575
 30
0.0
  0
SPLINE
  5
385
100
AcDbEntity
  8
0
100
AcDbSpline
 62
7
  6
CONTINUOUS
 70
0
 71
3
 72
39
 73
35
 74
0
 42
0.0000001
 43
0.0000001
 44
0.0000000001
 40
0.0
 40
0.0
 40
0.0
 40
0.0
 40
0.0307104587
 40
0.0615397722
 40
0.0924842772
 40
0.1235413793
 40
0.1547056773
 40
0.1859710588
 40
0.2173300343
 40
0.2487740599
 40
0.2802935932
 40
0.3118782207
 40
0.343516783
 40
0.3751975051
 40
0.4069081327
 40
0.4386360717
 40
0.4703685316
 40
0.5020926709
 40
0.5337957434
 40
0.5654652414
 40
0.5970890382
 40
0.6286555266
 40
0.6601537532
 40
0.6915735497
 40
0.7229056563
 40
0.7541418376
 40
0.7852749871
 40
0.8162992216
 40
0.8472099643
 40
0.8780040131
 40
0.9086795968
 40
0.9392364143
 40
0.9696756549
 40
1.0
 40
1.0
 40
1.0
 40
1.0
 10
12.4738779233
 20
7.4085327802
 30
0.0
 10
12.4738779233
 20
7.4141254846
 30
0.0
 10
12.4735637637
 20
7.4253350031
 30
0.0
 10
12.4721580749
 20
7.4421268023
 30
0.0
 10
12.4698213091
 20
7.4588787156
 30
0.0
 10
12.4665610216
 20
7.4755375535
 30
0.0
 10
12.4623873242
 20
7.4920515563
 30
0.0
 10
12.4573133803
 20
7.5083690255
 30
0.0
 10
12.4513550575
 20
7.5244390059
 30
0.0
 10
12.4445310205
 20
7.5402112837
 30
0.0
 10
12.4368626321
 20
7.5556365923
 30
0.0
 10
12.428373886
 20
7.570666749
 30
0.0
 10
12.4190913303
 20
7.5852548067
 30
0.0
 10
12.4090439842
 20
7.5993551986
 30
0.0
 10
12.3982632491
 20
7.6129238785
 30
0.0
 10
12.3867828104
 20
7.6259184566
 30
0.0
 10
12.3746385368
 20
7.6382983345
 30
0.0
 10
12.3618683757
 20
7.6500248389
 30
0.0
 10
12.3485122219
 20
7.6610613316
 30
0.0
 10
12.3346117969
 20
7.6713733243
 30
0.0
 10
12.3202105188
 20
7.6809285845
 30
0.0
 10
12.3053533687
 20
7.6896972365
 30
0.0
 10
12.290086751
 20
7.6976518518
 30
0.0
 10
12.2744583535
 20
7.7047675422
 30
0.0
 10
12.2585170004
 20
7.7110220439
 30
0.0
 10
12.2423124938
 20
7.7163957737
 30
0.0
 10
12.225895462
 20
7.7208718924
 30
0.0
 10
12.2093172012
 20
7.724436357
 30
0.0
 10
12.1926295237
 20
7.7270779666
 30
0.0
 10
12.1758845747
 20
7.7287883925
 30
0.0
 10
12.1591347554
 20
7.7295622293
 30
0.0
 10
12.1424322482
 20
7.7293969706
 30
0.0
 10
12.1258300034
 20
7.7282931669
 30
0.0
 10
12.1148412619
 20
7.7269310969
 30
0.0
 10
12.1093825905
 20
7.7260946243
 30
0.0
  0
SPLINE
  5
386
100
AcDbEntity
  8
0
100
AcDbSpline
 62
7
  6
CONTINUOUS
 70
0
 71
3
 72
41
 73
37
 74
0
 42
0.0000001
 43
0.0000001
 44
0.0000000001
 40
0.0
 40
0.0
 40
0.0
 40
0.0
 40
0.0310750003
 40
0.046674464
 40
0.062312494
 40
0.0936974057
 40
0.1252262387
 40
0.1568876805
 40
0.1886675201
 40
0.2205491599
 40
0.2525139229
 40
0.268523588
 40
0.2845462912
 40
0.3166149974
 40
0.3487024468
 40
0.3807858411
 40
0.4128424624
 40
0.4448501254
 40
0.4767876212
 40
0.5086351486
 40
0.5403747235
 40
0.5719905626
 40
0.6034694315
 40
0.6348009518
 40
0.6659778585
 40
0.6969962
 40
0.7278554736
 40
0.7585586902
 40
0.7891123605
 40
0.8195263996
 40
0.849813947
 40
0.8799911023
 40
0.9100765789
 40
0.9400912834
 40
0.9700578297
 40
1.0
 40
1.0
 40
1.0
 40
1.0
 10
12.4553675545
 20
7.4456531358
 30
0.0
 10
12.4553675545
 20
7.451757256
 30
0.0
 10
12.4550263481
 20
7.4609302158
 30
0.0
 10
12.4538994723
 20
7.4731203166
 30
0.0
 10
12.4523204885
 20
7.4853220876
 30
0.0
 10
12.44950577
 20
7.5005081149
 30
0.0
 10
12.4448108162
 20
7.5184987206
 30
0.0
 10
12.4388201862
 20
7.5361825097
 30
0.0
 10
12.4315668809
 20
7.5534619602
 30
0.0
 10
12.4230911559
 20
7.5702419388
 30
0.0
 10
12.4150511454
 20
7.5837271479
 30
0.0
 10
12.4080581215
 20
7.5941762757
 30
0.0
 10
12.4006946019
 20
7.6043928983
 30
0.0
 10
12.3908251679
 20
7.6166843021
 30
0.0
 10
12.3779878343
 20
7.630581818
 30
0.0
 10
12.3642219212
 20
7.643557371
 30
0.0
 10
12.3496033054
 20
7.6555392603
 30
0.0
 10
12.3342121159
 20
7.666461811
 30
0.0
 10
12.3181328257
 20
7.6762649792
 30
0.0
 10
12.3014536526
 20
7.684894881
 30
0.0
 10
12.2842661191
 20
7.6923040322
 30
0.0
 10
12.266664547
 20
7.6984516239
 30
0.0
 10
12.2487455496
 20
7.7033037427
 30
0.0
 10
12.2306075084
 20
7.7068335614
 30
0.0
 10
12.212350041
 20
7.7090214898
 30
0.0
 10
12.194073461
 20
7.7098552887
 30
0.0
 10
12.1758782338
 20
7.709330146
 30
0.0
 10
12.1578644292
 20
7.7074487127
 30
0.0
 10
12.1401311741
 20
7.7042211047
 30
0.0
 10
12.1227761045
 20
7.6996648556
 30
0.0
 10
12.1058948345
 20
7.6938048418
 30
0.0
 10
12.0895803895
 20
7.6866731265
 30
0.0
 10
12.0739228061
 20
7.6783089138
 30
0.0
 10
12.0590081707
 20
7.6687578969
 30
0.0
 10
12.0449198099
 20
7.658073664
 30
0.0
 10
12.0361264497
 20
7.6502309876
 30
0.0
 10
12.0318960737
 20
7.6461447798
 30
0.0
  0
SPLINE
  5
387
100
AcDbEntity
  8
0
100
AcDbSpline
 62
7
  6
CONTINUOUS
 70
0
 71
3
 72
26
 73
22
 74
0
 42
0.0000001
 43
0.0000001
 44
0.0000000001
 40
0.0
 40
0.0
 40
0.0
 40
0.0
 40
0.0347629282
 40
0.0537187747
 40
0.0737847782
 40
0.0949865315
 40
0.117331309
 40
0.1408127424
 40
0.1654143198
 40
0.1911114484
 40
0.2178746091
 40
0.2744530465
 40
0.3348632877
 40
0.3987929002
 40
0.4659275851
 40
0.5359576273
 40
0.6085792639
 40
0.6834931553
 40
0.7604017592
 40
0.8390006475
 40
1.0
 40
1.0
 40
1.0
 40
1.0
 10
9.613941556
 20
8.0225929356
 30
0.0
 10
9.613941485
 20
8.0218230402
 30
0.0
 10
9.6140746871
 20
8.0206314979
 30
0.0
 10
9.6144504086
 20
8.0190406583
 30
0.0
 10
9.6148513256
 20
8.0177671979
 30
0.0
 10
9.6153607534
 20
8.0164528454
 30
0.0
 10
9.6159761597
 20
8.015101123
 30
0.0
 10
9.6166949624
 20
8.0137161662
 30
0.0
 10
9.6175143767
 20
8.0123018537
 30
0.0
 10
9.6184316601
 20
8.0108620654
 30
0.0
 10
9.6198070476
 20
8.0088765256
 30
0.0
 10
9.6217601719
 20
8.0063590701
 30
0.0
 10
9.6244063233
 20
8.0033475878
 30
0.0
 10
9.6273756187
 20
8.0003173838
 30
0.0
 10
9.6306468569
 20
7.9972927177
 30
0.0
 10
9.6341994687
 20
7.9942961253
 30
0.0
 10
9.6380130978
 20
7.9913487629
 30
0.0
 10
9.6420673804
 20
7.9884705472
 30
0.0
 10
9.6463417479
 20
7.9856802679
 30
0.0
 10
9.6523531426
 20
7.9820726645
 30
0.0
 10
9.6570536582
 20
7.9795969475
 30
0.0
 10
9.6602653777
 20
7.9780481525
 30
0.0
  0
SPLINE
  5
388
100
AcDbEntity
  8
0
100
AcDbSpline
 62
7
  6
CONTINUOUS
 70
0
 71
3
 72
18
 73
14
 74
0
 42
0.0000001
 43
0.0000001
 44
0.0000000001
 40
0.0
 40
0.0
 40
0.0
 40
0.0
 40
0.0548620254
 40
0.1099280402
 40
0.1653994792
 40
0.2214730947
 40
0.2783387289
 40
0.3361775183
 40
0.4554063603
 40
0.5804419221
 40
0.7123344607
 40
0.8519575423
 40
1.0
 40
1.0
 40
1.0
 40
1.0
 10
12.40156271
 20
10.0206886746
 30
0.0
 10
12.401562707
 20
10.0196513614
 30
0.0
 10
12.4014968502
 20
10.0175722822
 30
0.0
 10
12.4012007897
 20
10.0144570475
 30
0.0
 10
12.4007075453
 20
10.0113436084
 30
0.0
 10
12.4000172868
 20
10.0082330988
 30
0.0
 10
12.3991302558
 20
10.0051263106
 30
0.0
 10
12.3976713006
 20
10.0009485127
 30
0.0
 10
12.3953340952
 20
9.9957232007
 30
0.0
 10
12.3917767208
 20
9.9895520935
 30
0.0
 10
12.3874440466
 20
9.9834209323
 30
0.0
 10
12.3823426606
 20
9.977335862
 30
0.0
 10
12.3785485658
 20
9.9734315529
 30
0.0
 10
12.3765352726
 20
9.9714868609
 30
0.0
  0
SPLINE
  5
389
100
AcDbEntity
  8
0
100
AcDbSpline
 62
7
  6
CONTINUOUS
 70
0
 71
3
 72
52
 73
48
 74
0
 42
0.0000001
 43
0.0000001
 44
0.0000000001
 40
0.0
 40
0.0
 40
0.0
 40
0.0
 40
0.0149715717
 40
0.0299462022
 40
0.0449269325
 40
0.0599167656
 40
0.0749186485
 40
0.0899354558
 40
0.1049699719
 40
0.1200248735
 40
0.135102714
 40
0.1502059106
 40
0.1653367293
 40
0.1804972711
 40
0.1956894619
 40
0.2109150433
 40
0.2261755621
 40
0.2414723615
 40
0.2568065779
 40
0.2721791349
 40
0.287590738
 40
0.3030418728
 40
0.3185328064
 40
0.3340635859
 40
0.3496340377
 40
0.3652437732
 40
0.3808921929
 40
0.3965784884
 40
0.4280553826
 40
0.4596692393
 40
0.4914068231
 40
0.5232523528
 40
0.5551878445
 40
0.5871934983
 40
0.6192481072
 40
0.6513294866
 40
0.6834149211
 40
0.7154816138
 40
0.7475071404
 40
0.7794698972
 40
0.811349535
 40
0.8431273814
 40
0.8747868291
 40
0.9063137054
 40
0.9376965854
 40
0.9689269539
 40
1.0
 40
1.0
 40
1.0
 40
1.0
 10
9.1203126002
 20
8.7281711389
 30
0.0
 10
9.1264057369
 20
8.7340566479
 30
0.0
 10
9.1388287028
 20
8.7455878936
 30
0.0
 10
9.1581378032
 20
8.7621324799
 30
0.0
 10
9.1780970533
 20
8.7779039532
 30
0.0
 10
9.1986786233
 20
8.7928802185
 30
0.0
 10
9.2198542738
 20
8.8070407855
 30
0.0
 10
9.2415948189
 20
8.8203661707
 30
0.0
 10
9.2638703553
 20
8.8328380373
 30
0.0
 10
9.2866502362
 20
8.844439205
 30
0.0
 10
9.3099030898
 20
8.8551537618
 30
0.0
 10
9.3335969155
 20
8.8649669844
 30
0.0
 10
9.3576991218
 20
8.8738653504
 30
0.0
 10
9.3821765372
 20
8.8818366421
 30
0.0
 10
9.4069954714
 20
8.888869941
 30
0.0
 10
9.4321217816
 20
8.8949555791
 30
0.0
 10
9.4575209065
 20
8.9000851669
 30
0.0
 10
9.4831578946
 20
8.9042517078
 30
0.0
 10
9.5089974795
 20
8.9074495024
 30
0.0
 10
9.5350041232
 20
8.9096741412
 30
0.0
 10
9.5611420541
 20
8.9109225804
 30
0.0
 10
9.5873753214
 20
8.9111931615
 30
0.0
 10
9.6136678528
 20
8.9104855265
 30
0.0
 10
9.6399834824
 20
8.9088006303
 30
0.0
 10
9.6662860546
 20
8.9061408329
 30
0.0
 10
9.6925392947
 20
8.9025098631
 30
0.0
 10
9.7187075257
 20
8.8979125759
 30
0.0
 10
9.7534725887
 20
8.8904955152
 30
0.0
 10
9.7965386431
 20
8.8788343343
 30
0.0
 10
9.8472368754
 20
8.8611270165
 30
0.0
 10
9.8967439902
 20
8.8397856996
 30
0.0
 10
9.944786404
 20
8.8149281614
 30
0.0
 10
9.991101052
 20
8.7866911816
 30
0.0
 10
10.0354336391
 20
8.7552299437
 30
0.0
 10
10.0775409795
 20
8.7207173365
 30
0.0
 10
10.1171920162
 20
8.6833428929
 30
0.0
 10
10.1541691079
 20
8.6433117585
 30
0.0
 10
10.1882693439
 20
8.6008437017
 30
0.0
 10
10.2193053816
 20
8.5561716951
 30
0.0
 10
10.2471068309
 20
8.5095409341
 30
0.0
 10
10.2715207657
 20
8.4612072087
 30
0.0
 10
10.292412968
 20
8.4114358055
 30
0.0
 10
10.3096683253
 20
8.3604997559
 30
0.0
 10
10.3231916784
 20
8.3086789261
 30
0.0
 10
10.3329082721
 20
8.25625685
 30
0.0
 10
10.3387641908
 20
8.2035251443
 30
0.0
 10
10.3400758138
 20
8.1682581034
 30
0.0
 10
10.3400758138
 20
8.1506758561
 30
0.0
  0
SPLINE
  5
38A
100
AcDbEntity
  8
0
100
AcDbSpline
 62
7
  6
CONTINUOUS
 70
0
 71
3
 72
39
 73
35
 74
0
 42
0.0000001
 43
0.0000001
 44
0.0000000001
 40
0.0
 40
0.0
 40
0.0
 40
0.0
 40
0.0306154392
 40
0.061336936
 40
0.0921623306
 40
0.1230894186
 40
0.1541144153
 40
0.1852328376
 40
0.2164392188
 40
0.2477272853
 40
0.2790899855
 40
0.3105195719
 40
0.342007675
 40
0.3735453844
 40
0.4051233338
 40
0.4367317885
 40
0.4683607356
 40
0.4999999758
 40
0.531639216
 40
0.5632681635
 40
0.594876619
 40
0.6264545697
 40
0.657992281
 40
0.6894803867
 40
0.7209099764
 40
0.7522726804
 40
0.7835607506
 40
0.814767137
 40
0.8458855595
 40
0.8769105732
 40
0.9078376282
 40
0.9386631213
 40
0.9693844403
 40
1.0
 40
1.0
 40
1.0
 40
1.0
 10
10.1942928382
 20
8.1693607815
 30
0.0
 10
10.1942928302
 20
8.1786642641
 30
0.0
 10
10.1938242823
 20
8.1973067664
 30
0.0
 10
10.1917262822
 20
8.2252455176
 30
0.0
 10
10.1882371293
 20
8.2531408824
 30
0.0
 10
10.1833657816
 20
8.2809216714
 30
0.0
 10
10.1771244706
 20
8.3085183412
 30
0.0
 10
10.1695290002
 20
8.3358613904
 30
0.0
 10
10.1605985034
 20
8.3628820915
 30
0.0
 10
10.1503554964
 20
8.3895124953
 30
0.0
 10
10.1388257762
 20
8.4156856479
 30
0.0
 10
10.1260383737
 20
8.4413357454
 30
0.0
 10
10.1120254745
 20
8.4663983011
 30
0.0
 10
10.0968223393
 20
8.490810306
 30
0.0
 10
10.0804672186
 20
8.5145103884
 30
0.0
 10
10.0630012535
 20
8.5374389664
 30
0.0
 10
10.0444683729
 20
8.559538396
 30
0.0
 10
10.0249151826
 20
8.5807531158
 30
0.0
 10
10.0043908493
 20
8.6010297856
 30
0.0
 10
9.9829469776
 20
8.6203174202
 30
0.0
 10
9.9606374806
 20
8.6385675162
 30
0.0
 10
9.9375184451
 20
8.6557341743
 30
0.0
 10
9.9136479918
 20
8.6717742135
 30
0.0
 10
9.8890861296
 20
8.6866472799
 30
0.0
 10
9.8638946058
 20
8.7003159469
 30
0.0
 10
9.8381367527
 20
8.7127458125
 30
0.0
 10
9.8118773294
 20
8.7239055846
 30
0.0
 10
9.7851823563
 20
8.7337671577
 30
0.0
 10
9.7581189591
 20
8.7423056844
 30
0.0
 10
9.7307551714
 20
8.7494996389
 30
0.0
 10
9.7031598733
 20
8.7553308668
 30
0.0
 10
9.6754022174
 20
8.75978465
 30
0.0
 10
9.64755295
 20
8.7628496756
 30
0.0
 10
9.6289379018
 20
8.7639640341
 30
0.0
 10
9.6196399714
 20
8.7642864597
 30
0.0
  0
SPLINE
  5
38B
100
AcDbEntity
  8
0
100
AcDbSpline
 62
7
  6
CONTINUOUS
 70
0
 71
3
 72
39
 73
35
 74
0
 42
0.0000001
 43
0.0000001
 44
0.0000000001
 40
0.0
 40
0.0
 40
0.0
 40
0.0
 40
0.0299424706
 40
0.059909318
 40
0.0899243245
 40
0.120010104
 40
0.1501875638
 40
0.1804754172
 40
0.2108897627
 40
0.2414437402
 40
0.2721472662
 40
0.3030068506
 40
0.3340255036
 40
0.3652027233
 40
0.3965345594
 40
0.4280137458
 40
0.459629903
 40
0.4913697971
 40
0.523217645
 40
0.5551554619
 40
0.5871634456
 40
0.6192203877
 40
0.6513041028
 40
0.6833918731
 40
0.7154609003
 40
0.7474887587
 40
0.7794538419
 40
0.8113358007
 40
0.8431159608
 40
0.874777714
 40
0.9063068772
 40
0.9376920832
 40
0.968924649
 40
1.0
 40
1.0
 40
1.0
 40
1.0
 10
11.8847866694
 20
7.7125972557
 30
0.0
 10
11.8915054854
 20
7.7190871251
 30
0.0
 10
11.9054714514
 20
7.7315430836
 30
0.0
 10
11.9278470859
 20
7.7485121287
 30
0.0
 10
11.9515350433
 20
7.7636813553
 30
0.0
 10
11.976402968
 20
7.7769656685
 30
0.0
 10
12.0023141527
 20
7.7882924626
 30
0.0
 10
12.0291255844
 20
7.7975994949
 30
0.0
 10
12.0566895128
 20
7.8048358569
 30
0.0
 10
12.084854085
 20
7.8099620352
 30
0.0
 10
12.1134642359
 20
7.8129501537
 30
0.0
 10
12.1423625245
 20
7.8137841718
 30
0.0
 10
12.1713900185
 20
7.8124598899
 30
0.0
 10
12.200387158
 20
7.8089849416
 30
0.0
 10
12.2291946165
 20
7.8033787343
 30
0.0
 10
12.2576541799
 20
7.7956724055
 30
0.0
 10
12.2856095996
 20
7.7859085751
 30
0.0
 10
12.3129074307
 20
7.774141097
 30
0.0
 10
12.3393978542
 20
7.7604347609
 30
0.0
 10
12.3649355234
 20
7.7448650029
 30
0.0
 10
12.3893803259
 20
7.7275174284
 30
0.0
 10
12.412598135
 20
7.7084873415
 30
0.0
 10
12.4344615295
 20
7.6878792283
 30
0.0
 10
12.4548505384
 20
7.6658062436
 30
0.0
 10
12.4736532491
 20
7.6423895406
 30
0.0
 10
12.490766409
 20
7.6177576132
 30
0.0
 10
12.5060959811
 20
7.5920456047
 30
0.0
 10
12.5195577231
 20
7.5653946079
 30
0.0
 10
12.5310775898
 20
7.5379508769
 30
0.0
 10
12.5405921287
 20
7.5098649726
 30
0.0
 10
12.5480488495
 20
7.4812911866
 30
0.0
 10
12.5534064989
 20
7.4523858949
 30
0.0
 10
12.5566354685
 20
7.4233098697
 30
0.0
 10
12.5573586794
 20
7.4038637896
 30
0.0
 10
12.5573586794
 20
7.3941690033
 30
0.0
  0
SPLINE
  5
38C
100
AcDbEntity
  8
0
100
AcDbSpline
 62
7
  6
CONTINUOUS
 70
0
 71
3
 72
73
 73
69
 74
0
 42
0.0000001
 43
0.0000001
 44
0.0000000001
 40
0.0
 40
0.0
 40
0.0
 40
0.0
 40
0.0036899217
 40
0.0075220722
 40
0.0114999241
 40
0.0156263923
 40
0.0199038122
 40
0.0243340611
 40
0.0289186039
 40
0.0336584765
 40
0.0385544129
 40
0.0436068119
 40
0.0541807001
 40
0.0653786566
 40
0.0771951324
 40
0.089621585
 40
0.1026468929
 40
0.1162576909
 40
0.1304386228
 40
0.1451725279
 40
0.1604406229
 40
0.1762226663
 40
0.1924970827
 40
0.2092410562
 40
0.2264306365
 40
0.2440408462
 40
0.2620457622
 40
0.2804185807
 40
0.2991316963
 40
0.3181567872
 40
0.3374648822
 40
0.3768107074
 40
0.4169274633
 40
0.4575665897
 40
0.498475352
 40
0.5393988829
 40
0.5800822002
 40
0.6202722166
 40
0.659719788
 40
0.6790891832
 40
0.6981823705
 40
0.7169702342
 40
0.7354242897
 40
0.7535167596
 40
0.771220657
 40
0.7885098461
 40
0.8053591152
 40
0.8217442679
 40
0.8376422293
 40
0.8530311246
 40
0.8678903835
 40
0.8822008716
 40
0.8959450526
 40
0.909107133
 40
0.9216732551
 40
0.93363175
 40
0.9449734639
 40
0.9556921057
 40
0.9608169699
 40
0.9657853037
 40
0.9705973493
 40
0.9752536818
 40
0.9797551699
 40
0.9841030803
 40
0.9882991772
 40
0.992345623
 40
0.9962449193
 40
1.0
 40
1.0
 40
1.0
 40
1.0
 10
12.8449845748
 20
7.6785378708
 30
0.0
 10
12.8440543164
 20
7.679681678
 30
0.0
 10
12.8422061729
 20
7.6820529599
 30
0.0
 10
12.8395197739
 20
7.6857818976
 30
0.0
 10
12.8368685786
 20
7.6897475412
 30
0.0
 10
12.834253754
 20
7.6939482208
 30
0.0
 10
12.831676282
 20
7.6983822196
 30
0.0
 10
12.8291372117
 20
7.7030477241
 30
0.0
 10
12.8266376012
 20
7.7079428401
 30
0.0
 10
12.8241784261
 20
7.7130655368
 30
0.0
 10
12.8217607065
 20
7.7184137362
 30
0.0
 10
12.8185448357
 20
7.7259572129
 30
0.0
 10
12.8146463987
 20
7.7359440536
 30
0.0
 10
12.8102174102
 20
7.7486152651
 30
0.0
 10
12.8059765902
 20
7.7621283671
 30
0.0
 10
12.8019309913
 20
7.7764610552
 30
0.0
 10
12.7980873532
 20
7.7915898425
 30
0.0
 10
12.7944521096
 20
7.807489793
 30
0.0
 10
12.7910313627
 20
7.8241346675
 30
0.0
 10
12.7878308478
 20
7.841496938
 30
0.0
 10
12.7848559288
 20
7.8595478531
 30
0.0
 10
12.7821116005
 20
7.8782575002
 30
0.0
 10
12.7796024783
 20
7.8975948573
 30
0.0
 10
12.777332773
 20
7.9175278392
 30
0.0
 10
12.7753062876
 20
7.9380233555
 30
0.0
 10
12.773526425
 20
7.9590473768
 30
0.0
 10
12.771996182
 20
7.9805649898
 30
0.0
 10
12.7707181272
 20
8.0025404534
 30
0.0
 10
12.769694408
 20
8.0249372478
 30
0.0
 10
12.7689267221
 20
8.0477181911
 30
0.0
 10
12.7682420986
 20
8.0787485128
 30
0.0
 10
12.7680440082
 20
8.1182161917
 30
0.0
 10
12.7688375311
 20
8.1662007461
 30
0.0
 10
12.7706560824
 20
8.2147823297
 30
0.0
 10
12.7734876521
 20
8.2636382015
 30
0.0
 10
12.7773135471
 20
8.3124439867
 30
0.0
 10
12.7821082705
 20
8.3608756539
 30
0.0
 10
12.7878399133
 20
8.4086114654
 30
0.0
 10
12.7933981483
 20
8.4477816403
 30
0.0
 10
12.7982930747
 20
8.4785246138
 30
0.0
 10
12.8021506517
 20
8.5010724453
 30
0.0
 10
12.8062103209
 20
8.5232130397
 30
0.0
 10
12.8104653489
 20
8.5449096362
 30
0.0
 10
12.8149086402
 20
8.5661261822
 30
0.0
 10
12.8195327798
 20
8.5868274432
 30
0.0
 10
12.8243300545
 20
8.6069790436
 30
0.0
 10
12.8292924661
 20
8.626547523
 30
0.0
 10
12.834411742
 20
8.6455004007
 30
0.0
 10
12.8396793315
 20
8.6638062383
 30
0.0
 10
12.8450864429
 20
8.6814346855
 30
0.0
 10
12.8506240556
 20
8.698356527
 30
0.0
 10
12.8562829374
 20
8.7145437446
 30
0.0
 10
12.862053639
 20
8.7299695776
 30
0.0
 10
12.8679265405
 20
8.7446085689
 30
0.0
 10
12.8738918645
 20
8.758436582
 30
0.0
 10
12.8799397208
 20
8.7714309537
 30
0.0
 10
12.8860600583
 20
8.7835702375
 30
0.0
 10
12.8912876373
 20
8.7930948371
 30
0.0
 10
12.8955054572
 20
8.8002618964
 30
0.0
 10
12.8986332346
 20
8.8053305085
 30
0.0
 10
12.9017715557
 20
8.8101709814
 30
0.0
 10
12.9049191064
 20
8.8147813446
 30
0.0
 10
12.9080745963
 20
8.8191596955
 30
0.0
 10
12.9112367852
 20
8.8233042437
 30
0.0
 10
12.9144043883
 20
8.827213352
 30
0.0
 10
12.917576199
 20
8.8308853995
 30
0.0
 10
12.9207507459
 20
8.8343187334
 30
0.0
 10
12.9229080961
 20
8.8364877922
 30
0.0
 10
12.9239872468
 20
8.8375301718
 30
0.0
  0
SPLINE
  5
38D
100
AcDbEntity
  8
0
100
AcDbSpline
 62
7
  6
CONTINUOUS
 70
0
 71
3
 72
91
 73
87
 74
0
 42
0.0000001
 43
0.0000001
 44
0.0000000001
 40
0.0
 40
0.0
 40
0.0
 40
0.0
 40
0.0039801924
 40
0.0081241222
 40
0.0124359637
 40
0.0169193096
 40
0.0215771886
 40
0.0264119285
 40
0.0314251939
 40
0.0366181702
 40
0.0419915548
 40
0.047545678
 40
0.0532804444
 40
0.0591954462
 40
0.0652899498
 40
0.0715629346
 40
0.0780131383
 40
0.0846390212
 40
0.0984103321
 40
0.112860905
 40
0.1279714342
 40
0.1437200292
 40
0.1600824911
 40
0.1770325451
 40
0.1945420381
 40
0.2125811122
 40
0.2311183582
 40
0.250120955
 40
0.2695548022
 40
0.2893846422
 40
0.309574176
 40
0.3300861748
 40
0.3508825876
 40
0.371924647
 40
0.3931729723
 40
0.4145876715
 40
0.4361284441
 40
0.4577546814
 40
0.4794255667
 40
0.5011001742
 40
0.5227375691
 40
0.5442969066
 40
0.5657375322
 40
0.5870190822
 40
0.6081015838
 40
0.6289455566
 40
0.6495121139
 40
0.6697630662
 40
0.6896610263
 40
0.7091695166
 40
0.7282530813
 40
0.7468774025
 40
0.7650094193
 40
0.7826174564
 40
0.799671362
 40
0.8161426596
 40
0.8320047173
 40
0.8472329411
 40
0.8618050018
 40
0.8757011035
 40
0.8889043078
 40
0.8952418952
 40
0.9014014185
 40
0.9073817887
 40
0.9131821496
 40
0.9188019795
 40
0.9242410699
 40
0.9294995748
 40
0.9345780695
 40
0.9394775409
 40
0.9441995182
 40
0.9487460398
 40
0.953119811
 40
0.9573242085
 40
0.9613634143
 40
0.9652425019
 40
0.9689675247
 40
0.9725456818
 40
0.9759853712
 40
0.9824865179
 40
0.9855753633
 40
0.9885738259
 40
0.9914977396
 40
0.9943643376
 40
0.9971920097
 40
1.0
 40
1.0
 40
1.0
 40
1.0
 10
10.9575901497
 20
10.0698910394
 30
0.0
 10
10.9590448794
 20
10.0712962004
 30
0.0
 10
10.9620802453
 20
10.0740965814
 30
0.0
 10
10.9668994697
 20
10.0781867436
 30
0.0
 10
10.972072585
 20
10.0822475598
 30
0.0
 10
10.9775967551
 20
10.0862768875
 30
0.0
 10
10.9834692947
 20
10.0902728357
 30
0.0
 10
10.9896873165
 20
10.0942334712
 30
0.0
 10
10.9962477159
 20
10.098156877
 30
0.0
 10
11.0031472323
 20
10.1020410299
 30
0.0
 10
11.010382385
 20
10.105884064
 30
0.0
 10
11.0179495801
 20
10.1096839937
 30
0.0
 10
11.0258450061
 20
10.113438969
 30
0.0
 10
11.0340647109
 20
10.1171470636
 30
0.0
 10
11.0426045587
 20
10.1208064213
 30
0.0
 10
11.051460248
 20
10.1244152021
 30
0.0
 10
11.0606273379
 20
10.1279715757
 30
0.0
 10
11.0734240937
 20
10.1327020476
 30
0.0
 10
11.0901730532
 20
10.1384591256
 30
0.0
 10
11.1111871938
 20
10.1450448733
 30
0.0
 10
11.1333250168
 20
10.1513803371
 30
0.0
 10
11.1565418335
 20
10.1574526294
 30
0.0
 10
11.1807909438
 20
10.1632493819
 30
0.0
 10
11.2060234443
 20
10.1687587864
 30
0.0
 10
11.2321884231
 20
10.173969619
 30
0.0
 10
11.259233046
 20
10.178871265
 30
0.0
 10
11.2871026751
 20
10.183453741
 30
0.0
 10
11.3157409824
 20
10.1877077185
 30
0.0
 10
11.3450900689
 20
10.1916245385
 30
0.0
 10
11.3750905862
 20
10.1951962303
 30
0.0
 10
11.4056818584
 20
10.1984155266
 30
0.0
 10
11.4368020067
 20
10.2012758783
 30
0.0
 10
11.4683880759
 20
10.2037714668
 30
0.0
 10
11.5003761624
 20
10.2058972161
 30
0.0
 10
11.5327015442
 20
10.2076488028
 30
0.0
 10
11.565298813
 20
10.2090226671
 30
0.0
 10
11.5981020082
 20
10.2100160164
 30
0.0
 10
11.6310447511
 20
10.2106268319
 30
0.0
 10
11.6640603798
 20
10.2108538719
 30
0.0
 10
11.6970820843
 20
10.2106966747
 30
0.0
 10
11.730043042
 20
10.2101555592
 30
0.0
 10
11.7628765532
 20
10.2092316244
 30
0.0
 10
11.795516177
 20
10.2079267479
 30
0.0
 10
11.8278958673
 20
10.2062435839
 30
0.0
 10
11.8599501065
 20
10.2041855552
 30
0.0
 10
11.8916140389
 20
10.2017568468
 30
0.0
 10
11.9228236026
 20
10.198962398
 30
0.0
 10
11.9535156594
 20
10.1958078919
 30
0.0
 10
11.9836281237
 20
10.1922997452
 30
0.0
 10
12.0131000902
 20
10.1884450944
 30
0.0
 10
12.0418719598
 20
10.1842517836
 30
0.0
 10
12.0698855631
 20
10.1797283498
 30
0.0
 10
12.0970842805
 20
10.1748840031
 30
0.0
 10
12.1234131587
 20
10.1697286088
 30
0.0
 10
12.1488190279
 20
10.1642726677
 30
0.0
 10
12.1732506115
 20
10.1585272937
 30
0.0
 10
12.1966586465
 20
10.1525041905
 30
0.0
 10
12.2189959653
 20
10.1462156245
 30
0.0
 10
12.2402177044
 20
10.1396743945
 30
0.0
 10
12.2602810703
 20
10.132893809
 30
0.0
 10
12.276212146
 20
10.1269773955
 30
0.0
 10
12.2883373442
 20
10.1221245052
 30
0.0
 10
12.2969925382
 20
10.1184832898
 30
0.0
 10
12.30532913
 20
10.1147927157
 30
0.0
 10
12.313342927
 20
10.1110545635
 30
0.0
 10
12.3210299098
 20
10.1072707549
 30
0.0
 10
12.3283862221
 20
10.1034431803
 30
0.0
 10
12.3354081711
 20
10.0995737392
 30
0.0
 10
12.3420922633
 20
10.095664406
 30
0.0
 10
12.3484351338
 20
10.0917170607
 30
0.0
 10
12.3544336555
 20
10.0877337269
 30
0.0
 10
12.3600848077
 20
10.0837162875
 30
0.0
 10
12.3653858112
 20
10.0796667572
 30
0.0
 10
12.3703340128
 20
10.0755870469
 30
0.0
 10
12.3749269403
 20
10.0714791167
 30
0.0
 10
12.3791623376
 20
10.0673448764
 30
0.0
 10
12.3830379205
 20
10.063186331
 30
0.0
 10
12.3865520709
 20
10.0590049441
 30
0.0
 10
12.3906744793
 20
10.0535068822
 30
0.0
 10
12.3941750907
 20
10.0478606411
 30
0.0
 10
12.3969543816
 20
10.0420938192
 30
0.0
 10
12.3986336479
 20
10.0378288411
 30
0.0
 10
12.3999413124
 20
10.0335534695
 30
0.0
 10
12.4008763765
 20
10.0292698084
 30
0.0
 10
12.4014377556
 20
10.0249808949
 30
0.0
 10
12.4015627142
 20
10.0221155669
 30
0.0
 10
12.40156271
 20
10.0206886746
 30
0.0
  0
SPLINE
  5
38E
100
AcDbEntity
  8
0
100
AcDbSpline
 62
7
  6
CONTINUOUS
 70
0
 71
3
 72
18
 73
14
 74
0
 42
0.0000001
 43
0.0000001
 44
0.0000000001
 40
0.0
 40
0.0
 40
0.0
 40
0.0
 40
0.0548620254
 40
0.1099280402
 40
0.1653994792
 40
0.2214730947
 40
0.2783387289
 40
0.3361775183
 40
0.4554063603
 40
0.5804419221
 40
0.7123344607
 40
0.8519575423
 40
1.0
 40
1.0
 40
1.0
 40
1.0
 10
10.9325627123
 20
10.0206892256
 30
0.0
 10
10.9325627153
 20
10.0217265389
 30
0.0
 10
10.9326285721
 20
10.0238056181
 30
0.0
 10
10.9329246326
 20
10.0269208528
 30
0.0
 10
10.933417877
 20
10.0300342919
 30
0.0
 10
10.9341081355
 20
10.0331448014
 30
0.0
 10
10.9349951665
 20
10.0362515897
 30
0.0
 10
10.9364541217
 20
10.0404293876
 30
0.0
 10
10.9387913271
 20
10.0456546996
 30
0.0
 10
10.9423487015
 20
10.0518258068
 30
0.0
 10
10.9466813757
 20
10.057956968
 30
0.0
 10
10.9517827617
 20
10.0640420382
 30
0.0
 10
10.9555768565
 20
10.0679463474
 30
0.0
 10
10.9575901497
 20
10.0698910394
 30
0.0
  0
SPLINE
  5
38F
100
AcDbEntity
  8
0
100
AcDbSpline
 62
7
  6
CONTINUOUS
 70
0
 71
3
 72
15
 73
11
 74
0
 42
0.0000001
 43
0.0000001
 44
0.0000000001
 40
0.0
 40
0.0
 40
0.0
 40
0.0
 40
0.1105410882
 40
0.2242380554
 40
0.3416496624
 40
0.4632769239
 40
0.5895644324
 40
0.720902554
 40
0.8576234487
 40
1.0
 40
1.0
 40
1.0
 40
1.0
 10
10.9349787539
 20
10.005185701
 30
0.0
 10
10.9354323821
 20
10.0066296563
 30
0.0
 10
10.9364716576
 20
10.0095226359
 30
0.0
 10
10.9383847139
 20
10.0137958378
 30
0.0
 10
10.9406698049
 20
10.0180551736
 30
0.0
 10
10.9433253224
 20
10.0222982045
 30
0.0
 10
10.9463496467
 20
10.026523146
 30
0.0
 10
10.9497410894
 20
10.0307280949
 30
0.0
 10
10.9534975898
 20
10.0349109172
 30
0.0
 10
10.9561880155
 20
10.0376270527
 30
0.0
 10
10.9575901497
 20
10.0389814104
 30
0.0
  0
SPLINE
  5
390
100
AcDbEntity
  8
0
100
AcDbSpline
 62
7
  6
CONTINUOUS
 70
0
 71
3
 72
22
 73
18
 74
0
 42
0.0000001
 43
0.0000001
 44
0.0000000001
 40
0.0
 40
0.0
 40
0.0
 40
0.0
 40
0.0576520631
 40
0.1144883958
 40
0.1708363973
 40
0.2270328789
 40
0.2834176181
 40
0.3403267291
 40
0.3980863172
 40
0.4570068723
 40
0.5173793173
 40
0.5794709579
 40
0.7097013004
 40
0.7783128283
 40
0.8494732223
 40
0.923328149
 40
1.0
 40
1.0
 40
1.0
 40
1.0
 10
11.0935465697
 20
9.9790946639
 30
0.0
 10
11.093262207
 20
9.9801171223
 30
0.0
 10
11.0927730399
 20
9.9821695771
 30
0.0
 10
11.092283808
 20
9.9852792229
 30
0.0
 10
11.0920458583
 20
9.9883915109
 30
0.0
 10
11.0920595247
 20
9.9915045183
 30
0.0
 10
11.0923246777
 20
9.994616587
 30
0.0
 10
11.0928411665
 20
9.9977260041
 30
0.0
 10
11.0936085434
 20
10.0008311501
 30
0.0
 10
11.0946261467
 20
10.0039304734
 30
0.0
 10
11.0958934104
 20
10.007022618
 30
0.0
 10
11.0979469161
 20
10.0111996568
 30
0.0
 10
11.1004830806
 20
10.0152951392
 30
0.0
 10
11.1034399662
 20
10.0192918774
 30
0.0
 10
11.105941418
 20
10.0223286228
 30
0.0
 10
11.108686219
 20
10.0253502736
 30
0.0
 10
11.1106401844
 20
10.0273164004
 30
0.0
 10
11.1116553281
 20
10.028296954
 30
0.0
  0
SPLINE
  5
391
100
AcDbEntity
  8
0
100
AcDbSpline
 62
7
  6
CONTINUOUS
 70
0
 71
3
 72
71
 73
67
 74
0
 42
0.0000001
 43
0.0000001
 44
0.0000000001
 40
0.0
 40
0.0
 40
0.0
 40
0.0
 40
0.0155842919
 40
0.0311159123
 40
0.0465952598
 40
0.0620238813
 40
0.0774034486
 40
0.0927362826
 40
0.1080251225
 40
0.1232731733
 40
0.1384840556
 40
0.1536617767
 40
0.1688106903
 40
0.1839354535
 40
0.1990409785
 40
0.2141323822
 40
0.2292149319
 40
0.2442939893
 40
0.2593749538
 40
0.274463204
 40
0.2895640408
 40
0.3046826306
 40
0.3198239512
 40
0.3349927397
 40
0.3501934437
 40
0.3654301769
 40
0.3807066779
 40
0.3960262749
 40
0.4113918551
 40
0.4268058386
 40
0.442270159
 40
0.4577862486
 40
0.4733550295
 40
0.4889769099
 40
0.5046517846
 40
0.5203790424
 40
0.5361575756
 40
0.551985796
 40
0.5678616541
 40
0.5837826616
 40
0.5997459183
 40
0.6157481418
 40
0.6317856998
 40
0.6478546444
 40
0.6639507499
 40
0.6800695506
 40
0.6962063816
 40
0.7123564199
 40
0.7285147273
 40
0.7446762937
 40
0.7608360805
 40
0.7769890649
 40
0.7931302833
 40
0.8092548746
 40
0.8253581232
 40
0.8414355006
 40
0.857482706
 40
0.8734957058
 40
0.8894707712
 40
0.9054045127
 40
0.9212939185
 40
0.9371363636
 40
0.9529297087
 40
0.9686721119
 40
0.9843625862
 40
1.0
 40
1.0
 40
1.0
 40
1.0
 10
10.1942928382
 20
8.1693603065
 30
0.0
 10
10.1942928382
 20
8.1602888913
 30
0.0
 10
10.1938489099
 20
8.1421735033
 30
0.0
 10
10.1918449349
 20
8.1151145218
 30
0.0
 10
10.1885086378
 20
8.0882778496
 30
0.0
 10
10.1838481322
 20
8.0617291274
 30
0.0
 10
10.1778744792
 20
8.0355320174
 30
0.0
 10
10.1706020679
 20
8.0097497711
 30
0.0
 10
10.1620483372
 20
7.9844445185
 30
0.0
 10
10.1522338568
 20
7.9596772874
 30
0.0
 10
10.1411822281
 20
7.9355078074
 30
0.0
 10
10.1289200469
 20
7.9119943775
 30
0.0
 10
10.1154768408
 20
7.8891937171
 30
0.0
 10
10.1008849949
 20
7.8671608303
 30
0.0
 10
10.0851796731
 20
7.8459488717
 30
0.0
 10
10.0683987331
 20
7.8256090164
 30
0.0
 10
10.0505826355
 20
7.8061903347
 30
0.0
 10
10.0317743452
 20
7.7877396719
 30
0.0
 10
10.0120192268
 20
7.7703015338
 30
0.0
 10
9.9913649341
 20
7.7539179779
 30
0.0
 10
9.969861293
 20
7.7386285116
 30
0.0
 10
9.9475601834
 20
7.7244699905
 30
0.0
 10
9.9245154092
 20
7.7114765319
 30
0.0
 10
9.9007825645
 20
7.6996794344
 30
0.0
 10
9.876418899
 20
7.689107103
 30
0.0
 10
9.8514831771
 20
7.6797849809
 30
0.0
 10
9.8260355356
 20
7.67173549
 30
0.0
 10
9.8001373369
 20
7.6649779778
 30
0.0
 10
9.7738510206
 20
7.6595286721
 30
0.0
 10
9.7472399518
 20
7.6554006448
 30
0.0
 10
9.7203682693
 20
7.6526037765
 30
0.0
 10
9.693300729
 20
7.6511447354
 30
0.0
 10
9.6661025482
 20
7.6510269674
 30
0.0
 10
9.6388392479
 20
7.6522506882
 30
0.0
 10
9.6115764963
 20
7.6548128845
 30
0.0
 10
9.5843799516
 20
7.6587073227
 30
0.0
 10
9.557315104
 20
7.6639245651
 30
0.0
 10
9.5304471199
 20
7.670451993
 30
0.0
 10
9.5038406859
 20
7.6782738391
 30
0.0
 10
9.4775598532
 20
7.6873712216
 30
0.0
 10
9.4516678828
 20
7.6977221896
 30
0.0
 10
9.4262270962
 20
7.7093017818
 30
0.0
 10
9.4012987258
 20
7.7220820849
 30
0.0
 10
9.3769427687
 20
7.7360323019
 30
0.0
 10
9.3532178431
 20
7.7511188254
 30
0.0
 10
9.3301810487
 20
7.7673053191
 30
0.0
 10
9.3078878298
 20
7.784552804
 30
0.0
 10
9.2863918431
 20
7.8028197527
 30
0.0
 10
9.2657448274
 20
7.8220621869
 30
0.0
 10
9.2459964773
 20
7.8422337808
 30
0.0
 10
9.2271943279
 20
7.863285977
 30
0.0
 10
9.2093836402
 20
7.8851681021
 30
0.0
 10
9.1926072931
 20
7.9078274881
 30
0.0
 10
9.1769056809
 20
7.9312095983
 30
0.0
 10
9.1623166159
 20
7.9552581581
 30
0.0
 10
9.1488752386
 20
7.9799152891
 30
0.0
 10
9.1366139327
 20
8.005121648
 30
0.0
 10
9.1255622466
 20
8.0308165677
 30
0.0
 10
9.1157468186
 20
8.0569382008
 30
0.0
 10
9.1071913125
 20
8.0834236733
 30
0.0
 10
9.099916379
 20
8.1102092217
 30
0.0
 10
9.093939555
 20
8.1372303954
 30
0.0
 10
9.0892753405
 20
8.1644220354
 30
0.0
 10
9.0859349225
 20
8.1917190014
 30
0.0
 10
9.083926544
 20
8.219054576
 30
0.0
 10
9.0834780721
 20
8.2372932355
 30
0.0
 10
9.0834780721
 20
8.2463955722
 30
0.0
  0
SPLINE
  5
392
100
AcDbEntity
  8
0
100
AcDbSpline
 62
7
  6
CONTINUOUS
 70
0
 71
3
 72
87
 73
83
 74
0
 42
0.0000001
 43
0.0000001
 44
0.0000000001
 40
0.0
 40
0.0
 40
0.0
 40
0.0
 40
0.0029130234
 40
0.0059062453
 40
0.0089935377
 40
0.0121873938
 40
0.0154989002
 40
0.0189377861
 40
0.022512534
 40
0.026230417
 40
0.0300976801
 40
0.0341195734
 40
0.0383004993
 40
0.0426440971
 40
0.0471532911
 40
0.0518304366
 40
0.0566772951
 40
0.061695177
 40
0.0668849357
 40
0.0722470237
 40
0.0777815654
 40
0.0834883163
 40
0.0893667845
 40
0.0954161684
 40
0.1080229286
 40
0.1212981382
 40
0.1352276858
 40
0.1497946939
 40
0.1649798407
 40
0.1807616184
 40
0.1971165532
 40
0.2140193967
 40
0.2314432877
 40
0.2493598953
 40
0.2677395473
 40
0.286551346
 40
0.3057632799
 40
0.3253423317
 40
0.345254579
 40
0.36546529
 40
0.3859390166
 40
0.4066396852
 40
0.4275306872
 40
0.4485749711
 40
0.4697351306
 40
0.5122515166
 40
0.554777495
 40
0.5759496243
 40
0.5970106275
 40
0.6179230593
 40
0.6386498176
 40
0.6591542332
 40
0.6794001612
 40
0.6993520696
 40
0.7189751305
 40
0.7382353128
 40
0.7570994786
 40
0.7755354837
 40
0.7935122863
 40
0.8110000531
 40
0.8279702757
 40
0.8443958982
 40
0.8602514584
 40
0.8755132491
 40
0.8901595064
 40
0.9041706184
 40
0.9175293811
 40
0.9302213113
 40
0.9363137473
 40
0.9422355125
 40
0.9479857322
 40
0.9535638434
 40
0.9589695311
 40
0.9642028233
 40
0.969264101
 40
0.9741540974
 40
0.9788739958
 40
0.9834254135
 40
0.9878106108
 40
0.9920324481
 40
0.99609428
 40
1.0
 40
1.0
 40
1.0
 40
1.0
 10
12.3991324069
 20
10.0052310217
 30
0.0
 10
12.3986921346
 20
10.0066283261
 30
0.0
 10
12.3976881
 20
10.0094274535
 30
0.0
 10
12.3958501485
 20
10.0135642282
 30
0.0
 10
12.3936634634
 20
10.0176882279
 30
0.0
 10
12.3911294794
 20
10.0217972237
 30
0.0
 10
12.388249664
 20
10.025889534
 30
0.0
 10
12.3850256188
 20
10.0299634102
 30
0.0
 10
12.38145894
 20
10.0340170606
 30
0.0
 10
12.3775514698
 20
10.0380488129
 30
0.0
 10
12.3733050341
 20
10.0420568427
 30
0.0
 10
12.3687216985
 20
10.046039428
 30
0.0
 10
12.3638036159
 20
10.0499947763
 30
0.0
 10
12.3585530871
 20
10.0539210712
 30
0.0
 10
12.3529726112
 20
10.0578165733
 30
0.0
 10
12.3470647716
 20
10.0616794122
 30
0.0
 10
12.340832384
 20
10.0655078601
 30
0.0
 10
12.3342783619
 20
10.0693000796
 30
0.0
 10
12.3274058063
 20
10.0730543016
 30
0.0
 10
12.320217972
 20
10.076768775
 30
0.0
 10
12.3127182436
 20
10.0804416938
 30
0.0
 10
12.3049101993
 20
10.0840713706
 30
0.0
 10
12.296797514
 20
10.0876560485
 30
0.0
 10
12.2854227122
 20
10.0924392296
 30
0.0
 10
12.2704605835
 20
10.0982809616
 30
0.0
 10
12.2515938328
 20
10.1049919933
 30
0.0
 10
12.2316115965
 20
10.1114841554
 30
0.0
 10
12.21055191
 20
10.1177449925
 30
0.0
 10
12.1884546733
 20
10.1237624793
 30
0.0
 10
12.1653619085
 20
10.1295250494
 30
0.0
 10
12.1413175672
 20
10.1350216258
 30
0.0
 10
12.1163674603
 20
10.1402416388
 30
0.0
 10
12.0905591535
 20
10.1451750512
 30
0.0
 10
12.0639418737
 20
10.1498123768
 30
0.0
 10
12.0365664117
 20
10.1541446989
 30
0.0
 10
12.0084850248
 20
10.158163691
 30
0.0
 10
11.9797513327
 20
10.1618616337
 30
0.0
 10
11.9504202106
 20
10.1652314238
 30
0.0
 10
11.9205476811
 20
10.168266589
 30
0.0
 10
11.8901908062
 20
10.1709612999
 30
0.0
 10
11.8594075797
 20
10.1733103795
 30
0.0
 10
11.8282568122
 20
10.175309319
 30
0.0
 10
11.7967980362
 20
10.176954277
 30
0.0
 10
11.7650913164
 20
10.1782421246
 30
0.0
 10
11.7225005438
 20
10.1794815809
 30
0.0
 10
11.6690878659
 20
10.1801222867
 30
0.0
 10
11.6156683134
 20
10.1795577863
 30
0.0
 10
11.5730565506
 20
10.1783793544
 30
0.0
 10
11.5413227983
 20
10.177136841
 30
0.0
 10
11.5098293557
 20
10.1755368665
 30
0.0
 10
11.4786363545
 20
10.1735824718
 30
0.0
 10
11.4478034078
 20
10.1712774144
 30
0.0
 10
11.4173894204
 20
10.1686261207
 30
0.0
 10
11.3874524959
 20
10.165633683
 30
0.0
 10
11.3580498206
 20
10.1623058478
 30
0.0
 10
11.3292375559
 20
10.1586490064
 30
0.0
 10
11.3010707288
 20
10.1546701815
 30
0.0
 10
11.2736031227
 20
10.1503770161
 30
0.0
 10
11.2468871706
 20
10.145777764
 30
0.0
 10
11.2209738536
 20
10.1408812671
 30
0.0
 10
11.1959126029
 20
10.1356969397
 30
0.0
 10
11.1717512017
 20
10.1302347501
 30
0.0
 10
11.1485356896
 20
10.1245052005
 30
0.0
 10
11.1263102563
 20
10.1185193051
 30
0.0
 10
11.1051171722
 20
10.1122885737
 30
0.0
 10
11.0849966011
 20
10.1058249744
 30
0.0
 10
11.0659868512
 20
10.0991409073
 30
0.0
 10
11.0509019835
 20
10.0933212298
 30
0.0
 10
11.0394266409
 20
10.0885549488
 30
0.0
 10
11.0312375477
 20
10.0849819218
 30
0.0
 10
11.023352136
 20
10.0813634574
 30
0.0
 10
11.0157741214
 20
10.0777013075
 30
0.0
 10
11.0085071105
 20
10.0739971788
 30
0.0
 10
11.0015545384
 20
10.0702528327
 30
0.0
 10
10.9949196811
 20
10.0664700562
 30
0.0
 10
10.9886057015
 20
10.0626505816
 30
0.0
 10
10.982615556
 20
10.0587962852
 30
0.0
 10
10.9769520814
 20
10.0549088917
 30
0.0
 10
10.9716178841
 20
10.0509902039
 30
0.0
 10
10.9666154369
 20
10.0470419383
 30
0.0
 10
10.9619473355
 20
10.0430661026
 30
0.0
 10
10.9590029634
 20
10.0403460837
 30
0.0
 10
10.9575901497
 20
10.0389814104
 30
0.0
  0
SPLINE
  5
393
100
AcDbEntity
  8
0
100
AcDbSpline
 62
7
  6
CONTINUOUS
 70
0
 71
3
 72
90
 73
86
 74
0
 42
0.0000001
 43
0.0000001
 44
0.0000000001
 40
0.0
 40
0.0
 40
0.0
 40
0.0
 40
0.0029209419
 40
0.0057980511
 40
0.0086517457
 40
0.01150299
 40
0.0143728107
 40
0.0172817878
 40
0.020249618
 40
0.0232947186
 40
0.0264340043
 40
0.0296827237
 40
0.0330544105
 40
0.0365609547
 40
0.0402126207
 40
0.0440182495
 40
0.0479853132
 40
0.0521200995
 40
0.0564278372
 40
0.0609127705
 40
0.0655783544
 40
0.0704272423
 40
0.0754614712
 40
0.0806824686
 40
0.08609113
 40
0.0916879157
 40
0.0974728091
 40
0.1034454692
 40
0.10960516
 40
0.1159508537
 40
0.1291942435
 40
0.143162479
 40
0.157838175
 40
0.1732007411
 40
0.1892267636
 40
0.2058903154
 40
0.2231632129
 40
0.2410152345
 40
0.2594143071
 40
0.2783266836
 40
0.2977170997
 40
0.3175489185
 40
0.3377842642
 40
0.3583841504
 40
0.3793086006
 40
0.4005167723
 40
0.4219670762
 40
0.4436172912
 40
0.4654246779
 40
0.4873460911
 40
0.5313562743
 40
0.575299618
 40
0.5971376476
 40
0.6188285969
 40
0.6403296197
 40
0.661598363
 40
0.68259308
 40
0.7032727448
 40
0.7235971681
 40
0.7435271169
 40
0.7630244403
 40
0.7820521996
 40
0.8005747985
 40
0.8185581233
 40
0.8359696952
 40
0.8527788371
 40
0.8689568636
 40
0.8844772979
 40
0.8993161144
 40
0.9134520328
 40
0.9268668793
 40
0.9332994175
 40
0.9395465526
 40
0.945607082
 40
0.9514801643
 40
0.9571652425
 40
0.9626621542
 40
0.9679711484
 40
0.9730928803
 40
0.9780285333
 40
0.9827797967
 40
0.9873491149
 40
0.9917396439
 40
0.9959551358
 40
1.0
 40
1.0
 40
1.0
 40
1.0
 10
12.2405787592
 20
9.9790943659
 30
0.0
 10
12.2408929314
 20
9.9802239923
 30
0.0
 10
12.241424445
 20
9.9824932761
 30
0.0
 10
12.2419220063
 20
9.9859346634
 30
0.0
 10
12.2421118346
 20
9.9893789834
 30
0.0
 10
12.2419936262
 20
9.9928235282
 30
0.0
 10
12.2415674761
 20
9.996265939
 30
0.0
 10
12.2408339893
 20
9.9997038639
 30
0.0
 10
12.2397938406
 20
10.0031350756
 30
0.0
 10
12.2384481576
 20
10.0065575705
 30
0.0
 10
12.2367980524
 20
10.0099694618
 30
0.0
 10
12.2348448119
 20
10.0133690094
 30
0.0
 10
12.2325898292
 20
10.0167545976
 30
0.0
 10
12.2300344587
 20
10.0201245713
 30
0.0
 10
12.2271802873
 20
10.0234774209
 30
0.0
 10
12.2240288455
 20
10.0268115029
 30
0.0
 10
12.2205818855
 20
10.0301252674
 30
0.0
 10
12.2168412281
 20
10.0334171008
 30
0.0
 10
12.2128088222
 20
10.0366853532
 30
0.0
 10
12.2084868116
 20
10.0399284487
 30
0.0
 10
12.2038774087
 20
10.0431446749
 30
0.0
 10
12.1989830575
 20
10.0463324532
 30
0.0
 10
12.1938062914
 20
10.0494900947
 30
0.0
 10
12.1883498283
 20
10.0526159711
 30
0.0
 10
12.1826165363
 20
10.0557084708
 30
0.0
 10
12.1766094101
 20
10.0587659219
 30
0.0
 10
12.1703316318
 20
10.0617867785
 30
0.0
 10
12.1637864926
 20
10.0647693791
 30
0.0
 10
12.1569774512
 20
10.0677122155
 30
0.0
 10
12.1474151219
 20
10.0716367845
 30
0.0
 10
12.1348199683
 20
10.0764205992
 30
0.0
 10
12.1189211211
 20
10.0818995048
 30
0.0
 10
12.1020630463
 20
10.0871838175
 30
0.0
 10
12.0842814408
 20
10.0922622496
 30
0.0
 10
12.065613795
 20
10.0971239413
 30
0.0
 10
12.0460996049
 20
10.1017584874
 30
0.0
 10
12.0257801885
 20
10.1061559657
 30
0.0
 10
12.0046986163
 20
10.1103069594
 30
0.0
 10
11.9828996076
 20
10.1142025863
 30
0.0
 10
11.960429429
 20
10.1178345113
 30
0.0
 10
11.9373357887
 20
10.1211949648
 30
0.0
 10
11.9136677313
 20
10.1242767587
 30
0.0
 10
11.8894755322
 20
10.1270733019
 30
0.0
 10
11.8648105905
 20
10.1295786125
 30
0.0
 10
11.839725319
 20
10.1317873373
 30
0.0
 10
11.814273031
 20
10.1336947574
 30
0.0
 10
11.7885078195
 20
10.1352967995
 30
0.0
 10
11.7624844593
 20
10.1365900338
 30
0.0
 10
11.7362582225
 20
10.1375717229
 30
0.0
 10
11.7010493062
 20
10.1384634463
 30
0.0
 10
11.6569409048
 20
10.1387871277
 30
0.0
 10
11.6128707215
 20
10.1380618151
 30
0.0
 10
11.5777785144
 20
10.136848455
 30
0.0
 10
11.5517025405
 20
10.1356280829
 30
0.0
 10
11.5258718246
 20
10.1340982189
 30
0.0
 10
11.5003412286
 20
10.1322621069
 30
0.0
 10
11.4751650252
 20
10.130123678
 30
0.0
 10
11.4503967161
 20
10.1276875005
 30
0.0
 10
11.4260889361
 20
10.1249587811
 30
0.0
 10
11.4022933346
 20
10.1219433509
 30
0.0
 10
11.3790604632
 20
10.118647657
 30
0.0
 10
11.3564396647
 20
10.1150787511
 30
0.0
 10
11.3344789675
 20
10.111244269
 30
0.0
 10
11.3132249826
 20
10.107152416
 30
0.0
 10
11.2927228008
 20
10.1028119496
 30
0.0
 10
11.2730158928
 20
10.098232159
 30
0.0
 10
11.2541459997
 20
10.0934228467
 30
0.0
 10
11.2361530574
 20
10.0883943091
 30
0.0
 10
11.2190750175
 20
10.0831573047
 30
0.0
 10
11.2029480519
 20
10.0777230194
 30
0.0
 10
11.1901566653
 20
10.0729756783
 30
0.0
 10
11.1804332648
 20
10.0690790397
 30
0.0
 10
11.1735016066
 20
10.0661554403
 30
0.0
 10
11.166832194
 20
10.0631912954
 30
0.0
 10
11.1604285248
 20
10.0601882042
 30
0.0
 10
11.1542939874
 20
10.0571477254
 30
0.0
 10
11.1484318085
 20
10.0540714653
 30
0.0
 10
11.1428450585
 20
10.0509610617
 30
0.0
 10
11.1375366985
 20
10.0478180947
 30
0.0
 10
11.1325094911
 20
10.0446442851
 30
0.0
 10
11.1277660811
 20
10.0414412101
 30
0.0
 10
11.1233088948
 20
10.0382105201
 30
0.0
 10
11.1191402257
 20
10.0349537841
 30
0.0
 10
11.1152624754
 20
10.0316728362
 30
0.0
 10
11.1128231512
 20
10.0294249845
 30
0.0
 10
11.1116553281
 20
10.028296954
 30
0.0
  0
SPLINE
  5
394
100
AcDbEntity
  8
0
100
AcDbSpline
 62
7
  6
CONTINUOUS
 70
0
 71
3
 72
57
 73
53
 74
0
 42
0.0000001
 43
0.0000001
 44
0.0000000001
 40
0.0
 40
0.0
 40
0.0
 40
0.0
 40
0.0092939873
 40
0.0191030925
 40
0.0294273511
 40
0.0402643396
 40
0.0516094244
 40
0.0634561206
 40
0.0757962989
 40
0.0886203009
 40
0.1019171805
 40
0.11567478
 40
0.1298798112
 40
0.1445180234
 40
0.1595742136
 40
0.1750323128
 40
0.1908754971
 40
0.207086173
 40
0.2236460757
 40
0.2405363339
 40
0.2752288623
 40
0.3110024177
 40
0.3476877415
 40
0.3851096038
 40
0.4230880437
 40
0.4614395595
 40
0.4999782971
 40
0.5385172333
 40
0.5768693408
 40
0.6148487654
 40
0.652272002
 40
0.6889590716
 40
0.7247347331
 40
0.7594297299
 40
0.7763213408
 40
0.7928826939
 40
0.8090948801
 40
0.824939657
 40
0.8403994333
 40
0.8554573491
 40
0.8700973686
 40
0.8843042715
 40
0.898063782
 40
0.9113626501
 40
0.9241886792
 40
0.9365309162
 40
0.9483797361
 40
0.9597269538
 40
0.9705660984
 40
0.9808925513
 40
0.9907038241
 40
1.0
 40
1.0
 40
1.0
 40
1.0
 10
12.1591132714
 20
9.9128036464
 30
0.0
 10
12.1564224901
 20
9.9143783539
 30
0.0
 10
12.1508208191
 20
9.9174948553
 30
0.0
 10
12.1420169933
 20
9.9219645
 30
0.0
 10
12.1325965519
 20
9.9263493794
 30
0.0
 10
12.1225717136
 20
9.9306437061
 30
0.0
 10
12.1119552694
 20
9.9348420071
 30
0.0
 10
12.1007608795
 20
9.938938821
 30
0.0
 10
12.0890029582
 20
9.9429287989
 30
0.0
 10
12.0766966997
 20
9.946806776
 30
0.0
 10
12.0638580152
 20
9.9505676753
 30
0.0
 10
12.050503528
 20
9.9542065779
 30
0.0
 10
12.0366505528
 20
9.9577187597
 30
0.0
 10
12.0223170534
 20
9.9610996073
 30
0.0
 10
12.0075216331
 20
9.964344709
 30
0.0
 10
11.9922835052
 20
9.9674498434
 30
0.0
 10
11.9766224572
 20
9.9704109284
 30
0.0
 10
11.9605588438
 20
9.9732241056
 30
0.0
 10
11.9441135211
 20
9.9758857338
 30
0.0
 10
11.9215044693
 20
9.9792577774
 30
0.0
 10
11.892445048
 20
9.9830575062
 30
0.0
 10
11.8567065979
 20
9.9869233661
 30
0.0
 10
11.8199825764
 20
9.9901145908
 30
0.0
 10
11.7824638991
 20
9.9926144206
 30
0.0
 10
11.7443454524
 20
9.9944096825
 30
0.0
 10
11.7058253367
 20
9.9954909317
 30
0.0
 10
11.667103749
 20
9.9958524929
 30
0.0
 10
11.6283819484
 20
9.9954924645
 30
0.0
 10
11.5898611948
 20
9.994412727
 30
0.0
 10
11.5517416867
 20
9.9926189675
 30
0.0
 10
11.5142215306
 20
9.9901206242
 30
0.0
 10
11.4774956239
 20
9.9869308474
 30
0.0
 10
11.4417548908
 20
9.9830663848
 30
0.0
 10
11.412693312
 20
9.9792678251
 30
0.0
 10
11.3900823395
 20
9.975896673
 30
0.0
 10
11.3736354436
 20
9.9732357091
 30
0.0
 10
11.3575701704
 20
9.9704231556
 30
0.0
 10
11.3419073741
 20
9.9674626878
 30
0.0
 10
11.3266674112
 20
9.9643581673
 30
0.0
 10
11.3118700768
 20
9.9611136357
 30
0.0
 10
11.2975345803
 20
9.9577333593
 30
0.0
 10
11.2836795302
 20
9.9542217317
 30
0.0
 10
11.2703228976
 20
9.9505833403
 30
0.0
 10
11.25748199
 20
9.94682296
 30
0.0
 10
11.2451734422
 20
9.942945469
 30
0.0
 10
11.2334131699
 20
9.9389559396
 30
0.0
 10
11.2222163566
 20
9.9348595856
 30
0.0
 10
11.211597437
 20
9.9306616962
 30
0.0
 10
11.20157007
 20
9.9263677526
 30
0.0
 10
11.1921470342
 20
9.9219832683
 30
0.0
 10
11.1833405796
 20
9.9175139509
 30
0.0
 10
11.1777370983
 20
9.9143977005
 30
0.0
 10
11.1750454052
 20
9.9128230975
 30
0.0
  0
SPLINE
  5
395
100
AcDbEntity
  8
0
100
AcDbSpline
 62
7
  6
CONTINUOUS
 70
0
 71
3
 72
71
 73
67
 74
0
 42
0.0000001
 43
0.0000001
 44
0.0000000001
 40
0.0
 40
0.0
 40
0.0
 40
0.0
 40
0.0155466301
 40
0.0310409494
 40
0.0464847557
 40
0.0618794385
 40
0.0772271241
 40
0.0925303431
 40
0.1077920777
 40
0.1230157276
 40
0.1382050765
 40
0.1533642585
 40
0.168497717
 40
0.1836101605
 40
0.1987065156
 40
0.2137918761
 40
0.2288714508
 40
0.243950509
 40
0.2590343257
 40
0.2741281258
 40
0.2892370302
 40
0.3043660021
 40
0.3195197967
 40
0.3347029123
 40
0.3499195467
 40
0.3651735553
 40
0.3804684148
 40
0.3958071914
 40
0.411192513
 40
0.4266265476
 40
0.4421109857
 40
0.4576470297
 40
0.4732353865
 40
0.488876266
 40
0.5045693842
 40
0.5203139702
 40
0.5361087784
 40
0.5519521039
 40
0.5678418027
 40
0.5837753153
 40
0.5997496919
 40
0.6157616226
 40
0.6318074679
 40
0.6478832929
 40
0.6639849028
 40
0.6801078808
 40
0.6962476268
 40
0.7123993977
 40
0.7285583479
 40
0.7447195705
 40
0.7608781392
 40
0.7770291501
 40
0.7931677635
 40
0.8092892459
 40
0.8253890101
 40
0.8414626557
 40
0.8575060071
 40
0.8735151511
 40
0.8894864721
 40
0.905416686
 40
0.9213028755
 40
0.9371424981
 40
0.9529334947
 40
0.9686740456
 40
0.9843632918
 40
1.0
 40
1.0
 40
1.0
 40
1.0
 10
10.1939693886
 20
8.188028844
 30
0.0
 10
10.1936733504
 20
8.1796614091
 30
0.0
 10
10.1926753016
 20
8.1629661574
 30
0.0
 10
10.1899553799
 20
8.1380701876
 30
0.0
 10
10.1860215918
 20
8.1134191001
 30
0.0
 10
10.1808830131
 20
8.0890714869
 30
0.0
 10
10.1745517495
 20
8.0650845982
 30
0.0
 10
10.1670426403
 20
8.0415150081
 30
0.0
 10
10.1583733395
 20
8.0184182647
 30
0.0
 10
10.1485642329
 20
7.9958488246
 30
0.0
 10
10.1376383972
 20
7.9738599033
 30
0.0
 10
10.1256215486
 20
7.9525033555
 30
0.0
 10
10.1125419811
 20
7.9318295499
 30
0.0
 10
10.0984305019
 20
7.9118872491
 30
0.0
 10
10.0833203579
 20
7.8927234941
 30
0.0
 10
10.067247168
 20
7.8743834828
 30
0.0
 10
10.0502488281
 20
7.8569104675
 30
0.0
 10
10.0323654206
 20
7.840345653
 30
0.0
 10
10.0136391188
 20
7.8247280984
 30
0.0
 10
9.9941140866
 20
7.8100946236
 30
0.0
 10
9.9738363733
 20
7.7964797222
 30
0.0
 10
9.9528538027
 20
7.7839154812
 30
0.0
 10
9.9312158639
 20
7.7724314972
 30
0.0
 10
9.9089735909
 20
7.7620548059
 30
0.0
 10
9.8861794365
 20
7.7528098275
 30
0.0
 10
9.8628871478
 20
7.7447183077
 30
0.0
 10
9.8391516388
 20
7.7377992689
 30
0.0
 10
9.8150288601
 20
7.7320689657
 30
0.0
 10
9.7905756668
 20
7.7275408492
 30
0.0
 10
9.7658496844
 20
7.724225535
 30
0.0
 10
9.7409091739
 20
7.7221307683
 30
0.0
 10
9.7158128912
 20
7.7212614201
 30
0.0
 10
9.6906199494
 20
7.7216194763
 30
0.0
 10
9.6653896801
 20
7.7232040348
 30
0.0
 10
9.6401814946
 20
7.7260113088
 30
0.0
 10
9.6150547453
 20
7.7300346363
 30
0.0
 10
9.5900685872
 20
7.7352644983
 30
0.0
 10
9.5652818372
 20
7.7416885308
 30
0.0
 10
9.5407528361
 20
7.7492915601
 30
0.0
 10
9.5165393133
 20
7.7580556445
 30
0.0
 10
9.4926982518
 20
7.7679601159
 30
0.0
 10
9.4692857558
 20
7.7789816284
 30
0.0
 10
9.4463569191
 20
7.7910942134
 30
0.0
 10
9.4239656977
 20
7.804269341
 30
0.0
 10
9.4021647815
 20
7.8184759836
 30
0.0
 10
9.381005466
 20
7.8336806827
 30
0.0
 10
9.3605375385
 20
7.8498476386
 30
0.0
 10
9.3408091604
 20
7.8669387925
 30
0.0
 10
9.3218667555
 20
7.8849139158
 30
0.0
 10
9.3037549016
 20
7.9037307043
 30
0.0
 10
9.2865162256
 20
7.9233448764
 30
0.0
 10
9.2701913058
 20
7.943710278
 30
0.0
 10
9.2548185657
 20
7.9647789823
 30
0.0
 10
9.2404341912
 20
7.9865014097
 30
0.0
 10
9.2270720475
 20
8.0088264448
 30
0.0
 10
9.2147636
 20
8.0317015552
 30
0.0
 10
9.20353784
 20
8.0550729148
 30
0.0
 10
9.1934212172
 20
8.0788855286
 30
0.0
 10
9.1844375795
 20
8.1030833617
 30
0.0
 10
9.1766081052
 20
8.12760947
 30
0.0
 10
9.1699512673
 20
8.1524061217
 30
0.0
 10
9.1644827478
 20
8.1774149861
 30
0.0
 10
9.1602155295
 20
8.2025770889
 30
0.0
 10
9.1571595886
 20
8.2278335293
 30
0.0
 10
9.1553223412
 20
8.2531239165
 30
0.0
 10
9.1549121012
 20
8.2699973794
 30
0.0
 10
9.1549121012
 20
8.2784185613
 30
0.0
  0
SPLINE
  5
396
100
AcDbEntity
  8
0
100
AcDbSpline
 62
7
  6
CONTINUOUS
 70
0
 71
3
 72
45
 73
41
 74
0
 42
0.0000001
 43
0.0000001
 44
0.0000000001
 40
0.0
 40
0.0
 40
0.0
 40
0.0
 40
0.0112642916
 40
0.0229096685
 40
0.0349297903
 40
0.047317525
 40
0.0600651783
 40
0.0731643793
 40
0.1003807881
 40
0.1288903303
 40
0.1586085761
 40
0.189444699
 40
0.2213022358
 40
0.2540797673
 40
0.2876715455
 40
0.3219680839
 40
0.3568567217
 40
0.3922221718
 40
0.4279470561
 40
0.4639124341
 40
0.4999983257
 40
0.5360842317
 40
0.572049653
 40
0.6077746093
 40
0.6431401597
 40
0.6780289258
 40
0.7123256198
 40
0.7459175803
 40
0.7786953199
 40
0.8105530897
 40
0.8413894693
 40
0.8711079943
 40
0.8996178368
 40
0.9268345653
 40
0.9399339329
 40
0.9526817568
 40
0.965069666
 40
0.977089966
 40
0.9887355243
 40
1.0
 40
1.0
 40
1.0
 40
1.0
 10
12.0677428247
 20
9.8830962191
 30
0.0
 10
12.0648809812
 20
9.884148433
 30
0.0
 10
12.0590379552
 20
9.8862276399
 30
0.0
 10
12.0500702529
 20
9.8892260893
 30
0.0
 10
12.0407599456
 20
9.8921538911
 30
0.0
 10
12.0311153942
 20
9.8950084531
 30
0.0
 10
12.0211451712
 20
9.8977871928
 30
0.0
 10
12.0072516594
 20
9.9014342949
 30
0.0
 10
11.9891309058
 20
9.9057730666
 30
0.0
 10
11.9665036714
 20
9.9105755816
 30
0.0
 10
11.9428060278
 20
9.9150207718
 30
0.0
 10
11.918122647
 20
9.919092588
 30
0.0
 10
11.8925415814
 20
9.9227762968
 30
0.0
 10
11.8661542115
 20
9.9260585874
 30
0.0
 10
11.8390548253
 20
9.9289276021
 30
0.0
 10
11.8113402937
 20
9.931372982
 30
0.0
 10
11.7831097097
 20
9.933385901
 30
0.0
 10
11.7544640302
 20
9.9349590962
 30
0.0
 10
11.7255057094
 20
9.9360868928
 30
0.0
 10
11.6963383288
 20
9.9367652234
 30
0.0
 10
11.6670662234
 20
9.9369916419
 30
0.0
 10
11.6377941053
 20
9.9367653319
 30
0.0
 10
11.6086266871
 20
9.9360871095
 30
0.0
 10
11.5796683037
 20
9.9349594202
 30
0.0
 10
11.5510225369
 20
9.9333863312
 30
0.0
 10
11.5227918412
 20
9.9313735169
 30
0.0
 10
11.4950771738
 20
9.9289282397
 30
0.0
 10
11.4679776284
 20
9.9260593254
 30
0.0
 10
11.4415900763
 20
9.9227771326
 30
0.0
 10
11.4160088063
 20
9.9190935185
 30
0.0
 10
11.3913251995
 20
9.9150217937
 30
0.0
 10
11.3676273092
 20
9.9105766912
 30
0.0
 10
11.3449998083
 20
9.9057742598
 30
0.0
 10
11.3268788195
 20
9.9014355564
 30
0.0
 10
11.3129851101
 20
9.897788507
 30
0.0
 10
11.303014733
 20
9.8950098042
 30
0.0
 10
11.2933700233
 20
9.8921552781
 30
0.0
 10
11.2840595536
 20
9.8892275108
 30
0.0
 10
11.2750916851
 20
9.8862290945
 30
0.0
 10
11.2692485461
 20
9.8841499101
 30
0.0
 10
11.2663866454
 20
9.8830977074
 30
0.0
  0
SPLINE
  5
397
100
AcDbEntity
  8
0
100
AcDbSpline
 62
7
  6
CONTINUOUS
 70
0
 71
3
 72
52
 73
48
 74
0
 42
0.0000001
 43
0.0000001
 44
0.0000000001
 40
0.0
 40
0.0
 40
0.0
 40
0.0
 40
0.0149715717
 40
0.0299462022
 40
0.0449269325
 40
0.0599167656
 40
0.0749186485
 40
0.0899354558
 40
0.1049699719
 40
0.1200248735
 40
0.135102714
 40
0.1502059106
 40
0.1653367293
 40
0.1804972711
 40
0.1956894619
 40
0.2109150433
 40
0.2261755621
 40
0.2414723615
 40
0.2568065779
 40
0.2721791349
 40
0.287590738
 40
0.3030418728
 40
0.3185328064
 40
0.3340635859
 40
0.3496340377
 40
0.3652437732
 40
0.3808921929
 40
0.3965784884
 40
0.4280553826
 40
0.4596692393
 40
0.4914068231
 40
0.5232523528
 40
0.5551878445
 40
0.5871934983
 40
0.6192481072
 40
0.6513294866
 40
0.6834149211
 40
0.7154816138
 40
0.7475071404
 40
0.7794698972
 40
0.811349535
 40
0.8431273814
 40
0.8747868291
 40
0.9063137054
 40
0.9376965854
 40
0.9689269539
 40
1.0
 40
1.0
 40
1.0
 40
1.0
 10
10.1408939045
 20
7.6715847517
 30
0.0
 10
10.1348007678
 20
7.6656992427
 30
0.0
 10
10.1223778019
 20
7.654167997
 30
0.0
 10
10.1030687014
 20
7.6376234107
 30
0.0
 10
10.0831094514
 20
7.6218519374
 30
0.0
 10
10.0625278813
 20
7.6068756722
 30
0.0
 10
10.0413522308
 20
7.5927151051
 30
0.0
 10
10.0196116858
 20
7.5793897199
 30
0.0
 10
9.9973361493
 20
7.5669178533
 30
0.0
 10
9.9745562685
 20
7.5553166856
 30
0.0
 10
9.9513034148
 20
7.5446021288
 30
0.0
 10
9.9276095892
 20
7.5347889062
 30
0.0
 10
9.9035073829
 20
7.5258905402
 30
0.0
 10
9.8790299675
 20
7.5179192485
 30
0.0
 10
9.8542110333
 20
7.5108859496
 30
0.0
 10
9.829084723
 20
7.5048003115
 30
0.0
 10
9.8036855981
 20
7.4996707237
 30
0.0
 10
9.77804861
 20
7.4955041828
 30
0.0
 10
9.7522090252
 20
7.4923063882
 30
0.0
 10
9.7262023815
 20
7.4900817494
 30
0.0
 10
9.7000644506
 20
7.4888333103
 30
0.0
 10
9.6738311833
 20
7.4885627291
 30
0.0
 10
9.6475386519
 20
7.4892703641
 30
0.0
 10
9.6212230223
 20
7.4909552603
 30
0.0
 10
9.5949204501
 20
7.4936150578
 30
0.0
 10
9.5686672099
 20
7.4972460275
 30
0.0
 10
9.542498979
 20
7.5018433147
 30
0.0
 10
9.507733916
 20
7.5092603754
 30
0.0
 10
9.4646678616
 20
7.5209215564
 30
0.0
 10
9.4139696293
 20
7.5386288742
 30
0.0
 10
9.3644625145
 20
7.559970191
 30
0.0
 10
9.3164201007
 20
7.5848277292
 30
0.0
 10
9.2701054527
 20
7.6130647091
 30
0.0
 10
9.2257728656
 20
7.6445259469
 30
0.0
 10
9.1836655251
 20
7.6790385542
 30
0.0
 10
9.1440144885
 20
7.7164129977
 30
0.0
 10
9.1070373968
 20
7.7564441321
 30
0.0
 10
9.0729371608
 20
7.7989121889
 30
0.0
 10
9.0419011231
 20
7.8435841955
 30
0.0
 10
9.0140996738
 20
7.8902149566
 30
0.0
 10
8.989685739
 20
7.9385486819
 30
0.0
 10
8.9687935367
 20
7.9883200851
 30
0.0
 10
8.9515381794
 20
8.0392561347
 30
0.0
 10
8.9380148263
 20
8.0910769645
 30
0.0
 10
8.9282982326
 20
8.1434990407
 30
0.0
 10
8.9224423139
 20
8.1962307463
 30
0.0
 10
8.9211306909
 20
8.2314977872
 30
0.0
 10
8.9211306909
 20
8.2490800346
 30
0.0
  0
LINE
  5
398
100
AcDbEntity
  8
0
100
AcDbLine
 62
7
  6
CONTINUOUS
 10
10.1408225394
 20
7.6716599893
 11
10.1405583144
 21
7.6714139491
  0
SPLINE
  5
399
100
AcDbEntity
  8
0
100
AcDbSpline
 62
7
  6
CONTINUOUS
 70
0
 71
3
 72
51
 73
47
 74
0
 42
0.0000001
 43
0.0000001
 44
0.0000000001
 40
0.0
 40
0.0
 40
0.0
 40
0.0
 40
0.0149680491
 40
0.0299405248
 40
0.0449204085
 40
0.0599106366
 40
0.0749140826
 40
0.0899335415
 40
0.1049717135
 40
0.1200311865
 40
0.1351144219
 40
0.1502237424
 40
0.1653613175
 40
0.1805291503
 40
0.1957290699
 40
0.2109627212
 40
0.2262315544
 40
0.2415368197
 40
0.2568795636
 40
0.2722606214
 40
0.2876806141
 40
0.3031399496
 40
0.3186388209
 40
0.3341772035
 40
0.3497548612
 40
0.3653713488
 40
0.3967129264
 40
0.4281994761
 40
0.4598203772
 40
0.491562255
 40
0.5234092791
 40
0.5553435119
 40
0.5873452803
 40
0.6193935768
 40
0.6514664809
 40
0.6835415891
 40
0.7155964548
 40
0.7476090288
 40
0.7795580907
 40
0.8114236742
 40
0.8431874709
 40
0.874833209
 40
0.906347011
 40
0.9377176982
 40
0.9689369149
 40
1.0
 40
1.0
 40
1.0
 40
1.0
 10
10.1405583144
 20
7.6714139491
 30
0.0
 10
10.1344017628
 20
7.6656843559
 30
0.0
 10
10.1218592688
 20
7.6544652318
 30
0.0
 10
10.1023935174
 20
7.6383891006
 30
0.0
 10
10.0822992307
 20
7.623084639
 30
0.0
 10
10.0616040102
 20
7.608572989
 30
0.0
 10
10.0403358356
 20
7.5948737178
 30
0.0
 10
10.0185235994
 20
7.582005388
 30
0.0
 10
9.9961968611
 20
7.5699854583
 30
0.0
 10
9.9733858926
 20
7.5588302439
 30
0.0
 10
9.9501216541
 20
7.5485548102
 30
0.0
 10
9.9264356906
 20
7.5391730791
 30
0.0
 10
9.9023601044
 20
7.5306978043
 30
0.0
 10
9.8779275585
 20
7.5231404203
 30
0.0
 10
9.8531711851
 20
7.5165111361
 30
0.0
 10
9.8281245376
 20
7.5108189638
 30
0.0
 10
9.8028215763
 20
7.5060715975
 30
0.0
 10
9.7772966108
 20
7.5022754103
 30
0.0
 10
9.751584236
 20
7.4994355498
 30
0.0
 10
9.7257193027
 20
7.4975558818
 30
0.0
 10
9.6997368707
 20
7.4966388815
 30
0.0
 10
9.6736721588
 20
7.4966857678
 30
0.0
 10
9.6475604606
 20
7.4976965164
 30
0.0
 10
9.6214372743
 20
7.4996696774
 30
0.0
 10
9.5953375708
 20
7.5026026355
 30
0.0
 10
9.5605792829
 20
7.5077930514
 30
0.0
 10
9.5173631726
 20
7.5166670189
 30
0.0
 10
9.4662340598
 20
7.5310459034
 30
0.0
 10
9.4160408098
 20
7.5490906269
 30
0.0
 10
9.3670567991
 20
7.5707029565
 30
0.0
 10
9.3195463913
 20
7.5957655611
 30
0.0
 10
9.2737666825
 20
7.6241426498
 30
0.0
 10
9.2299651383
 20
7.6556804333
 30
0.0
 10
9.1883786151
 20
7.6902081743
 30
0.0
 10
9.1492320357
 20
7.7275390567
 30
0.0
 10
9.1127370504
 20
7.7674710481
 30
0.0
 10
9.0790911743
 20
7.8097882473
 30
0.0
 10
9.0484764127
 20
7.8542617473
 30
0.0
 10
9.021058536
 20
7.9006510835
 30
0.0
 10
8.9969861033
 20
7.9487054306
 30
0.0
 10
8.9763895377
 20
7.9981648719
 30
0.0
 10
8.9593807328
 20
8.0487620413
 30
0.0
 10
8.9460520364
 20
8.100222943
 30
0.0
 10
8.936476149
 20
8.152270112
 30
0.0
 10
8.9307053519
 20
8.2046182178
 30
0.0
 10
8.9294128937
 20
8.2396264128
 30
0.0
 10
8.9294128937
 20
8.2570800286
 30
0.0
  0
SPLINE
  5
39A
100
AcDbEntity
  8
0
100
AcDbSpline
 62
7
  6
CONTINUOUS
 70
0
 71
3
 72
33
 73
29
 74
0
 42
0.0000001
 43
0.0000001
 44
0.0000000001
 40
0.0
 40
0.0
 40
0.0
 40
0.0
 40
0.0859874506
 40
0.1722504422
 40
0.257937154
 40
0.3422173687
 40
0.4242771475
 40
0.5033000244
 40
0.5414153868
 40
0.578458487
 40
0.6143227642
 40
0.6489003226
 40
0.6820843753
 40
0.7137699725
 40
0.7438572123
 40
0.7722553768
 40
0.7988878248
 40
0.8237003971
 40
0.8466709537
 40
0.8678227122
 40
0.8872409541
 40
0.9050914438
 40
0.9216386436
 40
0.9372541096
 40
0.9524019267
 40
0.9675934182
 40
0.9833209033
 40
1.0
 40
1.0
 40
1.0
 40
1.0
 10
9.6926177317
 20
8.0092981286
 30
0.0
 10
9.6903704154
 20
8.0103818571
 30
0.0
 10
9.6858463069
 20
8.0125068984
 30
0.0
 10
9.6790106946
 20
8.0155555644
 30
0.0
 10
9.672161124
 20
8.0184478465
 30
0.0
 10
9.665364492
 20
8.0211479438
 30
0.0
 10
9.6586862931
 20
8.0236171872
 30
0.0
 10
9.6532102413
 20
8.0254696083
 30
0.0
 10
9.6489367174
 20
8.0267934599
 30
0.0
 10
9.6458417899
 20
8.0276879912
 30
0.0
 10
9.6428276333
 20
8.028489884
 30
0.0
 10
9.6399037897
 20
8.0291925662
 30
0.0
 10
9.6370802445
 20
8.0297893968
 30
0.0
 10
9.6343673659
 20
8.0302736391
 30
0.0
 10
9.6317759064
 20
8.0306386811
 30
0.0
 10
9.6293169
 20
8.0308780448
 30
0.0
 10
9.6270015387
 20
8.0309856431
 30
0.0
 10
9.6248409829
 20
8.0309559407
 30
0.0
 10
9.6228461148
 20
8.0307839526
 30
0.0
 10
9.6210272987
 20
8.0304655094
 30
0.0
 10
9.6193942041
 20
8.0299971741
 30
0.0
 10
9.617955976
 20
8.0293760355
 30
0.0
 10
9.6167218067
 20
8.0286001062
 30
0.0
 10
9.6157016096
 20
8.0276695134
 30
0.0
 10
9.6149055114
 20
8.0265886934
 30
0.0
 10
9.6143407116
 20
8.0253675069
 30
0.0
 10
9.6140083854
 20
8.024019403
 30
0.0
 10
9.6139416006
 20
8.023076889
 30
0.0
 10
9.613941556
 20
8.0225929356
 30
0.0
  0
SPLINE
  5
39B
100
AcDbEntity
  8
0
100
AcDbSpline
 62
7
  6
CONTINUOUS
 70
0
 71
3
 72
45
 73
41
 74
0
 42
0.0000001
 43
0.0000001
 44
0.0000000001
 40
0.0
 40
0.0
 40
0.0
 40
0.0
 40
0.0149721384
 40
0.0299473353
 40
0.0449286316
 40
0.0599190316
 40
0.0749214813
 40
0.0899388561
 40
0.1049739408
 40
0.1200294102
 40
0.1351078205
 40
0.1502115883
 40
0.1653429774
 40
0.1805040919
 40
0.2109173721
 40
0.2414702803
 40
0.2721727302
 40
0.3030312324
 40
0.3340487994
 40
0.3652249282
 40
0.3965556662
 40
0.4280337495
 40
0.4596488007
 40
0.4913875843
 40
0.5232343171
 40
0.5551710162
 40
0.5871778805
 40
0.6192337014
 40
0.6513162944
 40
0.6834029425
 40
0.7154708484
 40
0.7474975871
 40
0.779461553
 40
0.8113423971
 40
0.8431214459
 40
0.874782092
 40
0.9063101554
 40
0.9376942574
 40
0.9689257386
 40
1.0
 40
1.0
 40
1.0
 40
1.0
 10
10.0274575492
 20
7.9019489187
 30
0.0
 10
10.0233926867
 20
7.8980225761
 30
0.0
 10
10.0151051046
 20
7.8903298001
 30
0.0
 10
10.0022235943
 20
7.8792925668
 30
0.0
 10
9.9889083896
 20
7.8687710529
 30
0.0
 10
9.9751780046
 20
7.8587800588
 30
0.0
 10
9.9610512983
 20
7.8493332312
 30
0.0
 10
9.9465477511
 20
7.8404435484
 30
0.0
 10
9.9316872704
 20
7.8321233131
 30
0.0
 10
9.9164903583
 20
7.8243838992
 30
0.0
 10
9.9009778987
 20
7.8172359498
 30
0.0
 10
9.8851713
 20
7.8106893713
 30
0.0
 10
9.8690920306
 20
7.8047530056
 30
0.0
 10
9.8472994223
 20
7.7976558759
 30
0.0
 10
9.8194757357
 20
7.7903510446
 30
0.0
 10
9.7854008723
 20
7.7841492888
 30
0.0
 10
9.7507858935
 20
7.7805339054
 30
0.0
 10
9.7158225755
 20
7.779524807
 30
0.0
 10
9.6807028567
 20
7.7811270077
 30
0.0
 10
9.6456198849
 20
7.785331267
 30
0.0
 10
9.6107663898
 20
7.7921140391
 30
0.0
 10
9.5763338019
 20
7.8014377053
 30
0.0
 10
9.5425111773
 20
7.8132507411
 30
0.0
 10
9.5094841537
 20
7.8274879393
 30
0.0
 10
9.4774339726
 20
7.8440708778
 30
0.0
 10
9.4465365145
 20
7.8629083494
 30
0.0
 10
9.4169613074
 20
7.8838967873
 30
0.0
 10
9.3888706059
 20
7.9069208494
 30
0.0
 10
9.3624185527
 20
7.931854103
 30
0.0
 10
9.3377503477
 20
7.9585596975
 30
0.0
 10
9.3150013789
 20
7.9868910346
 30
0.0
 10
9.2942965496
 20
8.0166926365
 30
0.0
 10
9.2757496224
 20
8.0478009938
 30
0.0
 10
9.2594625665
 20
8.0800454276
 30
0.0
 10
9.2455249439
 20
8.1132489726
 30
0.0
 10
9.234013511
 20
8.1472294657
 30
0.0
 10
9.2249917835
 20
8.1818002337
 30
0.0
 10
9.2185096838
 20
8.2167720885
 30
0.0
 10
9.2146030293
 20
8.2519505079
 30
0.0
 10
9.2137280307
 20
8.2754778787
 30
0.0
 10
9.2137280307
 20
8.2872073785
 30
0.0
  0
SPLINE
  5
39C
100
AcDbEntity
  8
0
100
AcDbSpline
 62
7
  6
CONTINUOUS
 70
0
 71
3
 72
43
 73
39
 74
0
 42
0.0000001
 43
0.0000001
 44
0.0000000001
 40
0.0
 40
0.0
 40
0.0
 40
0.0
 40
0.0149881055
 40
0.0299976149
 40
0.0450303203
 40
0.0600879036
 40
0.090279518
 40
0.1205879526
 40
0.1357910071
 40
0.1510264554
 40
0.1662950686
 40
0.1815974794
 40
0.2123013201
 40
0.2431442465
 40
0.2741259561
 40
0.3052438106
 40
0.33649291
 40
0.3678662018
 40
0.3993546214
 40
0.4309472593
 40
0.4626315532
 40
0.4943934998
 40
0.5262178844
 40
0.5580885245
 40
0.5899885241
 40
0.6219005363
 40
0.6538070299
 40
0.6856905584
 40
0.7175340281
 40
0.7493209618
 40
0.7810357566
 40
0.8126639323
 40
0.8441923653
 40
0.8756095148
 40
0.9069055884
 40
0.9380728574
 40
0.9691053415
 40
1.0
 40
1.0
 40
1.0
 40
1.0
 10
10.1065481299
 20
8.0063251389
 30
0.0
 10
10.1020705717
 20
8.0041008356
 30
0.0
 10
10.0930313674
 20
7.9998035192
 30
0.0
 10
10.0792490722
 20
7.9938237843
 30
0.0
 10
10.0652477754
 20
7.9883120259
 30
0.0
 10
10.046293001
 20
7.981589478
 30
0.0
 10
10.0221189986
 20
7.9743854043
 30
0.0
 10
9.9974659988
 20
7.9688229852
 30
0.0
 10
9.977497073
 20
7.9653621668
 30
0.0
 10
9.9623928897
 20
7.963261831
 30
0.0
 10
9.9471942253
 20
7.9616619151
 30
0.0
 10
9.9268041703
 20
7.9601967057
 30
0.0
 10
9.9011556211
 20
7.9596275619
 30
0.0
 10
9.8702983431
 20
7.9609621989
 30
0.0
 10
9.839454585
 20
7.964307428
 30
0.0
 10
9.8087561738
 20
7.9696489238
 30
0.0
 10
9.7783331481
 20
7.9769637782
 30
0.0
 10
9.748314652
 20
7.9862207644
 30
0.0
 10
9.7188280049
 20
7.9973804306
 30
0.0
 10
9.6899982724
 20
8.0103952822
 30
0.0
 10
9.6619477141
 20
8.025209981
 30
0.0
 10
9.6347952784
 20
8.0417615811
 30
0.0
 10
9.6086561023
 20
8.0599797964
 30
0.0
 10
9.5836410243
 20
8.079787291
 30
0.0
 10
9.5598561174
 20
8.1011000066
 30
0.0
 10
9.5374022477
 20
8.1238275228
 30
0.0
 10
9.5163746495
 20
8.147873437
 30
0.0
 10
9.4968625255
 20
8.1731357699
 30
0.0
 10
9.478948671
 20
8.1995073939
 30
0.0
 10
9.4627091253
 20
8.2268764834
 30
0.0
 10
9.4482128521
 20
8.2551269843
 30
0.0
 10
9.4355214395
 20
8.2841391001
 30
0.0
 10
9.4246888394
 20
8.3137897856
 30
0.0
 10
9.4157611592
 20
8.3439533138
 30
0.0
 10
9.4087764124
 20
8.3745016257
 30
0.0
 10
9.4037644857
 20
8.4053055258
 30
0.0
 10
9.400746748
 20
8.4362326288
 30
0.0
 10
9.4000716336
 20
8.4568959093
 30
0.0
 10
9.4000716336
 20
8.4672014878
 30
0.0
  0
SPLINE
  5
39D
100
AcDbEntity
  8
0
100
AcDbSpline
 62
7
  6
CONTINUOUS
 70
0
 71
3
 72
24
 73
20
 74
0
 42
0.0000001
 43
0.0000001
 44
0.0000000001
 40
0.0
 40
0.0
 40
0.0
 40
0.0
 40
0.0616971168
 40
0.1234216086
 40
0.1851933492
 40
0.2470317513
 40
0.2779842618
 40
0.3089604058
 40
0.370987593
 40
0.4331350773
 40
0.4954186403
 40
0.5578527664
 40
0.6204505097
 40
0.6832234037
 40
0.7461812885
 40
0.8093324874
 40
0.8726830062
 40
0.9362383508
 40
1.0
 40
1.0
 40
1.0
 40
1.0
 10
9.1203862576
 20
8.728098184
 30
0.0
 10
9.1128067958
 20
8.7205085105
 30
0.0
 10
9.0980239962
 20
8.7049413125
 30
0.0
 10
9.0770471047
 20
8.6804993332
 30
0.0
 10
9.0573087687
 20
8.6550150591
 30
0.0
 10
9.0419332365
 20
8.6329627674
 30
0.0
 10
9.030296183
 20
8.6148615846
 30
0.0
 10
9.0190976108
 20
8.5964474713
 30
0.0
 10
9.0059481124
 20
8.5728825158
 30
0.0
 10
8.9915721936
 20
8.5438138569
 30
0.0
 10
8.9786234336
 20
8.5140045074
 30
0.0
 10
8.9671306109
 20
8.4835206782
 30
0.0
 10
8.9571189407
 20
8.4524295109
 30
0.0
 10
8.9486104714
 20
8.4207996357
 30
0.0
 10
8.9416238692
 20
8.3887007801
 30
0.0
 10
8.9361745317
 20
8.3562038508
 30
0.0
 10
8.9322743033
 20
8.323380152
 30
0.0
 10
8.9299318538
 20
8.2903031315
 30
0.0
 10
8.9294128937
 20
8.2681651537
 30
0.0
 10
8.9294128937
 20
8.2570800286
 30
0.0
  0
SPLINE
  5
39E
100
AcDbEntity
  8
0
100
AcDbSpline
 62
7
  6
CONTINUOUS
 70
0
 71
3
 72
25
 73
21
 74
0
 42
0.0000001
 43
0.0000001
 44
0.0000000001
 40
0.0
 40
0.0
 40
0.0
 40
0.0
 40
0.063777207
 40
0.1273431941
 40
0.1907001592
 40
0.25385355
 40
0.3168099722
 40
0.379578248
 40
0.4421688981
 40
0.5045942164
 40
0.5668681104
 40
0.6290059928
 40
0.6910246328
 40
0.721997334
 40
0.752947051
 40
0.8147821323
 40
0.8765547551
 40
0.9074265678
 40
0.9382904798
 40
1.0
 40
1.0
 40
1.0
 40
1.0
 10
8.9211306909
 20
8.2490800346
 30
0.0
 10
8.9211306909
 20
8.260412611
 30
0.0
 10
8.921673059
 20
8.2830440746
 30
0.0
 10
8.9241213437
 20
8.3168537142
 30
0.0
 10
8.9281975244
 20
8.3503951988
 30
0.0
 10
8.9338921989
 20
8.3835901353
 30
0.0
 10
8.9411923838
 20
8.4163623446
 30
0.0
 10
8.9500812898
 20
8.4486361765
 30
0.0
 10
8.9605385229
 20
8.4803372564
 30
0.0
 10
8.9725400146
 20
8.5113924419
 30
0.0
 10
8.9860582406
 20
8.5417302356
 30
0.0
 10
9.0010617914
 20
8.5712802033
 30
0.0
 10
9.0147806319
 20
8.5952037004
 30
0.0
 10
9.0264605239
 20
8.613876882
 30
0.0
 10
9.0385956202
 20
8.6322184444
 30
0.0
 10
9.0546242922
 20
8.6545347456
 30
0.0
 10
9.0717676959
 20
8.6759888635
 30
0.0
 10
9.0861196863
 20
8.6925946929
 30
0.0
 10
9.1008857403
 20
8.7088176005
 30
0.0
 10
9.1124258462
 20
8.7205531311
 30
0.0
 10
9.1203126002
 20
8.7281711389
 30
0.0
  0
SPLINE
  5
39F
100
AcDbEntity
  8
0
100
AcDbSpline
 62
7
  6
CONTINUOUS
 70
0
 71
3
 72
39
 73
35
 74
0
 42
0.0000001
 43
0.0000001
 44
0.0000000001
 40
0.0
 40
0.0
 40
0.0
 40
0.0
 40
0.0318890086
 40
0.0636722101
 40
0.0953510803
 40
0.1269280754
 40
0.1584066186
 40
0.1897910761
 40
0.2210867236
 40
0.2522997033
 40
0.2834369699
 40
0.3145062288
 40
0.3455158649
 40
0.376474862
 40
0.4073927159
 40
0.4382793397
 40
0.4691449646
 40
0.5000000362
 40
0.5308551076
 40
0.5617207319
 40
0.5926073544
 40
0.623525206
 40
0.6544842001
 40
0.6854938321
 40
0.7165630863
 40
0.7477003478
 40
0.7789133224
 40
0.8102089637
 40
0.8415934204
 40
0.8730719395
 40
0.9046489851
 40
0.9363276969
 40
0.9681111878
 40
1.0
 40
1.0
 40
1.0
 40
1.0
 10
9.6196399714
 20
8.7642864597
 30
0.0
 10
9.6107736202
 20
8.7645939193
 30
0.0
 10
9.5930526157
 20
8.7647836352
 30
0.0
 10
9.5665343536
 20
8.7637854363
 30
0.0
 10
9.5401817489
 20
8.7615063788
 30
0.0
 10
9.51405633
 20
8.7579516185
 30
0.0
 10
9.4882180983
 20
8.7531292998
 30
0.0
 10
9.4627266725
 20
8.7470504758
 30
0.0
 10
9.437640809
 20
8.7397291016
 30
0.0
 10
9.4130183578
 20
8.7311819991
 30
0.0
 10
9.3889161043
 20
8.7214288201
 30
0.0
 10
9.3653896426
 20
8.7104920054
 30
0.0
 10
9.3424932401
 20
8.6983967405
 30
0.0
 10
9.320279716
 20
8.6851708873
 30
0.0
 10
9.2988003171
 20
8.6708449222
 30
0.0
 10
9.2781045985
 20
8.6554518658
 30
0.0
 10
9.2582403082
 20
8.6390272069
 30
0.0
 10
9.2392532748
 20
8.6216088204
 30
0.0
 10
9.2211873019
 20
8.6032368787
 30
0.0
 10
9.20408406
 20
8.5839537633
 30
0.0
 10
9.1879829879
 20
8.5638039651
 30
0.0
 10
9.1729212071
 20
8.5428339741
 30
0.0
 10
9.1589334347
 20
8.5210921726
 30
0.0
 10
9.1460519036
 20
8.4986287209
 30
0.0
 10
9.1343062883
 20
8.4754954411
 30
0.0
 10
9.1237236369
 20
8.4517456958
 30
0.0
 10
9.1143283122
 20
8.4274342644
 30
0.0
 10
9.1061419204
 20
8.402617216
 30
0.0
 10
9.099183287
 20
8.377351788
 30
0.0
 10
9.0934683653
 20
8.351696203
 30
0.0
 10
9.0890103315
 20
8.3257097104
 30
0.0
 10
9.0858192822
 20
8.2994518778
 30
0.0
 10
9.0839026749
 20
8.2729841565
 30
0.0
 10
9.0834780721
 20
8.2552671981
 30
0.0
 10
9.0834780721
 20
8.2463955722
 30
0.0
  0
SPLINE
  5
3A0
100
AcDbEntity
  8
0
100
AcDbSpline
 62
7
  6
CONTINUOUS
 70
0
 71
3
 72
39
 73
35
 74
0
 42
0.0000001
 43
0.0000001
 44
0.0000000001
 40
0.0
 40
0.0
 40
0.0
 40
0.0
 40
0.0318260376
 40
0.0635496865
 40
0.0951730296
 40
0.1266990561
 40
0.158131641
 40
0.1894755183
 40
0.2207362435
 40
0.2519201489
 40
0.2830342902
 40
0.314086386
 40
0.3450847477
 40
0.3760382031
 40
0.4069560132
 40
0.4378477837
 40
0.4687233734
 40
0.4995927989
 40
0.5304661373
 40
0.561353428
 40
0.5922645742
 40
0.623209247
 40
0.6541967916
 40
0.6852361388
 40
0.7163357217
 40
0.7475033982
 40
0.7787463779
 40
0.8100711622
 40
0.8414834868
 40
0.8729882456
 40
0.904589621
 40
0.9362904326
 40
0.9680938705
 40
1.0
 40
1.0
 40
1.0
 40
1.0
 10
9.6377073335
 20
8.7633156142
 30
0.0
 10
9.6296229251
 20
8.7633008591
 30
0.0
 10
9.6134781707
 20
8.7628917529
 30
0.0
 10
9.5893576913
 20
8.7611338909
 30
0.0
 10
9.565423527
 20
8.7582366699
 30
0.0
 10
9.5417289581
 20
8.7542064039
 30
0.0
 10
9.5183258556
 20
8.7490519037
 30
0.0
 10
9.4952656955
 20
8.7427844457
 30
0.0
 10
9.4725991449
 20
8.7354177527
 30
0.0
 10
9.4503760323
 20
8.7269679617
 30
0.0
 10
9.4286452127
 20
8.7174535994
 30
0.0
 10
9.4074544584
 20
8.7068955519
 30
0.0
 10
9.3868503595
 20
8.695316999
 30
0.0
 10
9.3668782204
 20
8.6827433671
 30
0.0
 10
9.3475819599
 20
8.6692022734
 30
0.0
 10
9.3290040148
 20
8.6547234652
 30
0.0
 10
9.3111852417
 20
8.6393387598
 30
0.0
 10
9.2941648139
 20
8.6230819852
 30
0.0
 10
9.2779801492
 20
8.6059888856
 30
0.0
 10
9.2626668248
 20
8.5880970455
 30
0.0
 10
9.2482585002
 20
8.5694458055
 30
0.0
 10
9.234786843
 20
8.5500761755
 30
0.0
 10
9.2222814564
 20
8.5300307462
 30
0.0
 10
9.210769797
 20
8.5093536032
 30
0.0
 10
9.2002771342
 20
8.4880902143
 30
0.0
 10
9.1908264948
 20
8.46628733
 30
0.0
 10
9.1824386118
 20
8.4439928809
 30
0.0
 10
9.1751318812
 20
8.4212558696
 30
0.0
 10
9.1689223295
 20
8.3981262754
 30
0.0
 10
9.163823516
 20
8.3746549
 30
0.0
 10
9.1598466572
 20
8.3508934277
 30
0.0
 10
9.1570002998
 20
8.3268937284
 30
0.0
 10
9.1552908445
 20
8.3027093933
 30
0.0
 10
9.1549121012
 20
8.2865233281
 30
0.0
 10
9.1549121012
 20
8.2784185613
 30
0.0
  0
SPLINE
  5
3A1
100
AcDbEntity
  8
0
100
AcDbSpline
 62
7
  6
CONTINUOUS
 70
0
 71
3
 72
23
 73
19
 74
0
 42
0.0000001
 43
0.0000001
 44
0.0000000001
 40
0.0
 40
0.0
 40
0.0
 40
0.0
 40
0.0617101446
 40
0.123441395
 40
0.1852146431
 40
0.247050352
 40
0.3089683478
 40
0.3709876199
 40
0.4331261339
 40
0.495400661
 40
0.5578266111
 40
0.6204179017
 40
0.6831868168
 40
0.746143859
 40
0.8092980008
 40
0.8726552579
 40
0.9362226181
 40
1.0
 40
1.0
 40
1.0
 40
1.0
 10
9.346605878
 20
8.6068183945
 30
0.0
 10
9.3413444685
 20
8.6017362801
 30
0.0
 10
9.3310795251
 20
8.5912974576
 30
0.0
 10
9.3165049773
 20
8.5748652398
 30
0.0
 10
9.3027840186
 20
8.5576940396
 30
0.0
 10
9.2899488259
 20
8.539824011
 30
0.0
 10
9.2780288505
 20
8.5212962311
 30
0.0
 10
9.2670516017
 20
8.5021534852
 30
0.0
 10
9.2570423442
 20
8.4824399322
 30
0.0
 10
9.2480241251
 20
8.4622010514
 30
0.0
 10
9.2400176982
 20
8.4414835236
 30
0.0
 10
9.2330414852
 20
8.4203351252
 30
0.0
 10
9.2271115423
 20
8.3988046276
 30
0.0
 10
9.2222414586
 20
8.3769416437
 30
0.0
 10
9.2184424712
 20
8.3547966891
 30
0.0
 10
9.2157231331
 20
8.3324204671
 30
0.0
 10
9.2140898764
 20
8.3098654152
 30
0.0
 10
9.2137280307
 20
8.2947675019
 30
0.0
 10
9.2137280307
 20
8.2872073785
 30
0.0
  0
SPLINE
  5
3A2
100
AcDbEntity
  8
0
100
AcDbSpline
 62
7
  6
CONTINUOUS
 70
0
 71
3
 72
15
 73
11
 74
0
 42
0.0000001
 43
0.0000001
 44
0.0000000001
 40
0.0
 40
0.0
 40
0.0
 40
0.0
 40
0.1235151956
 40
0.2473780949
 40
0.3716350785
 40
0.496326454
 40
0.6214857765
 40
0.7471397935
 40
0.8733070911
 40
1.0
 40
1.0
 40
1.0
 40
1.0
 10
9.4537688711
 20
8.6824451425
 30
0.0
 10
9.449375846
 20
8.6743314927
 30
0.0
 10
9.4410932896
 20
8.6577960006
 30
0.0
 10
9.4302501267
 20
8.6322209604
 30
0.0
 10
9.421008422
 20
8.6059304413
 30
0.0
 10
9.4134021704
 20
8.5790208638
 30
0.0
 10
9.407458527
 20
8.5515893112
 30
0.0
 10
9.4031989079
 20
8.5237347547
 30
0.0
 10
9.4006384954
 20
8.4955591818
 30
0.0
 10
9.4000716336
 20
8.4766654541
 30
0.0
 10
9.4000716336
 20
8.4672014878
 30
0.0
  0
SPLINE
  5
3A3
100
AcDbEntity
  8
0
100
AcDbSpline
 62
7
  6
CONTINUOUS
 70
0
 71
3
 72
39
 73
35
 74
0
 42
0.0000001
 43
0.0000001
 44
0.0000000001
 40
0.0
 40
0.0
 40
0.0
 40
0.0
 40
0.0299424706
 40
0.059909318
 40
0.0899243245
 40
0.120010104
 40
0.1501875638
 40
0.1804754172
 40
0.2108897627
 40
0.2414437402
 40
0.2721472662
 40
0.3030068506
 40
0.3340255036
 40
0.3652027233
 40
0.3965345594
 40
0.4280137458
 40
0.459629903
 40
0.4913697971
 40
0.523217645
 40
0.5551554619
 40
0.5871634456
 40
0.6192203877
 40
0.6513041028
 40
0.6833918731
 40
0.7154609003
 40
0.7474887587
 40
0.7794538419
 40
0.8113358007
 40
0.8431159608
 40
0.874777714
 40
0.9063068772
 40
0.9376920832
 40
0.968924649
 40
1.0
 40
1.0
 40
1.0
 40
1.0
 10
12.4475307238
 20
7.1300003728
 30
0.0
 10
12.4408119077
 20
7.1235105034
 30
0.0
 10
12.4268459418
 20
7.1110545449
 30
0.0
 10
12.4044703073
 20
7.0940854998
 30
0.0
 10
12.3807823499
 20
7.0789162732
 30
0.0
 10
12.3559144252
 20
7.06563196
 30
0.0
 10
12.3300032405
 20
7.0543051659
 30
0.0
 10
12.3031918088
 20
7.0449981336
 30
0.0
 10
12.2756278803
 20
7.0377617716
 30
0.0
 10
12.2474633082
 20
7.0326355934
 30
0.0
 10
12.2188531572
 20
7.0296474748
 30
0.0
 10
12.1899548687
 20
7.0288134567
 30
0.0
 10
12.1609273747
 20
7.0301377387
 30
0.0
 10
12.1319302351
 20
7.0336126869
 30
0.0
 10
12.1031227767
 20
7.0392188942
 30
0.0
 10
12.0746632133
 20
7.046925223
 30
0.0
 10
12.0467077936
 20
7.0566890534
 30
0.0
 10
12.0194099625
 20
7.0684565315
 30
0.0
 10
11.992919539
 20
7.0821628676
 30
0.0
 10
11.9673818698
 20
7.0977326256
 30
0.0
 10
11.9429370673
 20
7.1150802001
 30
0.0
 10
11.9197192582
 20
7.134110287
 30
0.0
 10
11.8978558637
 20
7.1547184002
 30
0.0
 10
11.8774668548
 20
7.1767913849
 30
0.0
 10
11.8586641441
 20
7.2002080879
 30
0.0
 10
11.8415509842
 20
7.2248400153
 30
0.0
 10
11.826221412
 20
7.2505520238
 30
0.0
 10
11.81275967
 20
7.2772030206
 30
0.0
 10
11.8012398033
 20
7.3046467516
 30
0.0
 10
11.7917252645
 20
7.3327326559
 30
0.0
 10
11.7842685437
 20
7.3613064419
 30
0.0
 10
11.7789108943
 20
7.3902117336
 30
0.0
 10
11.7756819247
 20
7.4192877588
 30
0.0
 10
11.7749587138
 20
7.4387338389
 30
0.0
 10
11.7749587138
 20
7.4484286252
 30
0.0
  0
SPLINE
  5
3A4
100
AcDbEntity
  8
0
100
AcDbSpline
 62
7
  6
CONTINUOUS
 70
0
 71
3
 72
39
 73
35
 74
0
 42
0.0000001
 43
0.0000001
 44
0.0000000001
 40
0.0
 40
0.0
 40
0.0
 40
0.0
 40
0.029933095
 40
0.0598996746
 40
0.0899225233
 40
0.1200230982
 40
0.150221034
 40
0.1805337026
 40
0.2109758388
 40
0.2415592382
 40
0.2722925322
 40
0.3031810406
 40
0.3342267056
 40
0.3654281016
 40
0.3967805162
 40
0.4282760945
 40
0.4599040418
 40
0.4916508817
 40
0.5235007575
 40
0.55543577
 40
0.5874363463
 40
0.6194816325
 40
0.6515499072
 40
0.6836190037
 40
0.7156667391
 40
0.7476713441
 40
0.7796118875
 40
0.8114686879
 40
0.8432237094
 40
0.8748609318
 40
0.9063666812
 40
0.9377300331
 40
0.9689425941
 40
1.0
 40
1.0
 40
1.0
 40
1.0
 10
12.4474092373
 20
7.1301440008
 30
0.0
 10
12.4405694858
 20
7.1239557179
 30
0.0
 10
12.4263898419
 20
7.1121043894
 30
0.0
 10
12.4037806287
 20
7.0960384967
 30
0.0
 10
12.379940757
 20
7.0817590134
 30
0.0
 10
12.3550000245
 20
7.0693440102
 30
0.0
 10
12.3290920298
 20
7.0588595476
 30
0.0
 10
12.302356095
 20
7.0503617394
 30
0.0
 10
12.2749357646
 20
7.0438958555
 30
0.0
 10
12.2469782212
 20
7.0394962644
 30
0.0
 10
12.2186334382
 20
7.0371862314
 30
0.0
 10
12.1900533926
 20
7.0369777837
 30
0.0
 10
12.1613912399
 20
7.0388716729
 30
0.0
 10
12.1328004997
 20
7.0428574186
 30
0.0
 10
12.1044342443
 20
7.0489133702
 30
0.0
 10
12.0764442945
 20
7.0570068401
 30
0.0
 10
12.0489804034
 20
7.0670942367
 30
0.0
 10
12.0221894725
 20
7.0791213456
 30
0.0
 10
11.9962147815
 20
7.0930236285
 30
0.0
 10
11.9711952352
 20
7.1087265681
 30
0.0
 10
11.9472646296
 20
7.1261460569
 30
0.0
 10
11.9245509191
 20
7.1451888149
 30
0.0
 10
11.9031755677
 20
7.1657529283
 30
0.0
 10
11.8832529044
 20
7.1877283823
 30
0.0
 10
11.8648895264
 20
7.2109976473
 30
0.0
 10
11.848183712
 20
7.2354362804
 30
0.0
 10
11.8332248883
 20
7.2609135829
 30
0.0
 10
11.8200931897
 20
7.2872933184
 30
0.0
 10
11.8088590225
 20
7.3144344076
 30
0.0
 10
11.799582708
 20
7.3421917355
 30
0.0
 10
11.7923140777
 20
7.3704166829
 30
0.0
 10
11.7870923419
 20
7.3989587118
 30
0.0
 10
11.7839456156
 20
7.4276631128
 30
0.0
 10
11.7832409166
 20
7.4468584471
 30
0.0
 10
11.7832409166
 20
7.4564286193
 30
0.0
  0
SPLINE
  5
3A5
100
AcDbEntity
  8
0
100
AcDbSpline
 62
7
  6
CONTINUOUS
 70
0
 71
3
 72
23
 73
19
 74
0
 42
0.0000001
 43
0.0000001
 44
0.0000000001
 40
0.0
 40
0.0
 40
0.0
 40
0.0
 40
0.0637772827
 40
0.1273447928
 40
0.1907019891
 40
0.2538561422
 40
0.3168131889
 40
0.3795820982
 40
0.4421733894
 40
0.5045993375
 40
0.5668738648
 40
0.6290123797
 40
0.6910316513
 40
0.752949645
 40
0.814785352
 40
0.8765586
 40
0.9382898524
 40
1.0
 40
1.0
 40
1.0
 40
1.0
 10
11.7749587138
 20
7.4484286252
 30
0.0
 10
11.7749587138
 20
7.4546772993
 30
0.0
 10
11.7752577953
 20
7.4671562123
 30
0.0
 10
11.7766077302
 20
7.4857986833
 30
0.0
 10
11.7788553592
 20
7.5042933554
 30
0.0
 10
11.7819953439
 20
7.522596864
 30
0.0
 10
11.7860206294
 20
7.5406673193
 30
0.0
 10
11.790921932
 20
7.5584629599
 30
0.0
 10
11.7966880055
 20
7.5759427833
 30
0.0
 10
11.8033055817
 20
7.5930664792
 30
0.0
 10
11.8107594355
 20
7.6097945581
 30
0.0
 10
11.8190324165
 20
7.6260884355
 30
0.0
 10
11.8281054843
 20
7.6419105155
 30
0.0
 10
11.8379577473
 20
7.6572243031
 30
0.0
 10
11.8485664573
 20
7.6719944436
 30
0.0
 10
11.859907281
 20
7.6861869793
 30
0.0
 10
11.8719536155
 20
7.6997687305
 30
0.0
 10
11.8804379501
 20
7.7083967211
 30
0.0
 10
11.8847866694
 20
7.7125972557
 30
0.0
  0
SPLINE
  5
3A6
100
AcDbEntity
  8
0
100
AcDbSpline
 62
7
  6
CONTINUOUS
 70
0
 71
3
 72
56
 73
52
 74
0
 42
0.0000001
 43
0.0000001
 44
0.0000000001
 40
0.0
 40
0.0
 40
0.0
 40
0.0
 40
0.0153876701
 40
0.0307306135
 40
0.0460311901
 40
0.0612920624
 40
0.0765162757
 40
0.0917072149
 40
0.1068685641
 40
0.122004285
 40
0.1371185812
 40
0.1522158552
 40
0.1673006682
 40
0.1823777017
 40
0.1974517116
 40
0.2125274798
 40
0.2276097717
 40
0.2427032933
 40
0.2578126439
 40
0.2729422706
 40
0.2880964322
 40
0.3032791599
 40
0.3184942163
 40
0.3337450641
 40
0.349034841
 40
0.3643663295
 40
0.3797419308
 40
0.3951636539
 40
0.4106331001
 40
0.4261514468
 40
0.4417194443
 40
0.4573374184
 40
0.4730052659
 40
0.4887224569
 40
0.5044880516
 40
0.5203007087
 40
0.552052001
 40
0.5839661869
 40
0.6160198409
 40
0.6481851236
 40
0.6804306937
 40
0.7127227185
 40
0.7450259311
 40
0.7773047179
 40
0.8095242201
 40
0.8416514129
 40
0.8736561436
 40
0.9055121214
 40
0.937197787
 40
0.9686968662
 40
1.0
 40
1.0
 40
1.0
 40
1.0
 10
12.4688034803
 20
7.3539920943
 30
0.0
 10
12.4679593649
 20
7.3495239736
 30
0.0
 10
12.4660620997
 20
7.3406391484
 30
0.0
 10
12.4625895779
 20
7.3274822395
 30
0.0
 10
12.4585017472
 20
7.3145422343
 30
0.0
 10
12.4538073566
 20
7.3018471718
 30
0.0
 10
12.448516441
 20
7.2894240583
 30
0.0
 10
12.442640287
 20
7.2772994638
 30
0.0
 10
12.436191379
 20
7.2654993165
 30
0.0
 10
12.4291835131
 20
7.2540488233
 30
0.0
 10
12.421631669
 20
7.2429724416
 30
0.0
 10
12.4135519383
 20
7.2322938685
 30
0.0
 10
12.4049615722
 20
7.2220359372
 30
0.0
 10
12.39587896
 20
7.2122205415
 30
0.0
 10
12.3863234956
 20
7.2028686662
 30
0.0
 10
12.3763155666
 20
7.1940003332
 30
0.0
 10
12.3658765971
 20
7.1856344557
 30
0.0
 10
12.3550289028
 20
7.1777888951
 30
0.0
 10
12.3437956401
 20
7.1704804499
 30
0.0
 10
12.3322008295
 20
7.163724716
 30
0.0
 10
12.320269271
 20
7.1575360815
 30
0.0
 10
12.3080264495
 20
7.1519277763
 30
0.0
 10
12.2954985176
 20
7.1469117947
 30
0.0
 10
12.2827122665
 20
7.1424987822
 30
0.0
 10
12.2696950111
 20
7.1386981428
 30
0.0
 10
12.2564745469
 20
7.1355180214
 30
0.0
 10
12.2430791247
 20
7.1329651503
 30
0.0
 10
12.2295373562
 20
7.13104493
 30
0.0
 10
12.2158781523
 20
7.1297614728
 30
0.0
 10
12.2021306803
 20
7.129117502
 30
0.0
 10
12.1883242904
 20
7.1291143185
 30
0.0
 10
12.1744884567
 20
7.1297519138
 30
0.0
 10
12.1606526903
 20
7.1310289563
 30
0.0
 10
12.1468466054
 20
7.1329426154
 30
0.0
 10
12.1330993226
 20
7.1354888905
 30
0.0
 10
12.1148654255
 20
7.1397250432
 30
0.0
 10
12.0923655862
 20
7.1465783249
 30
0.0
 10
12.0661112761
 20
7.1571998817
 30
0.0
 10
12.0407811516
 20
7.1701411156
 30
0.0
 10
12.0165922139
 20
7.1852912631
 30
0.0
 10
11.9937497076
 20
7.2025210826
 30
0.0
 10
11.9724480821
 20
7.2216838486
 30
0.0
 10
11.9528684805
 20
7.2426163756
 30
0.0
 10
11.9351775344
 20
7.265140552
 30
0.0
 10
11.9195259527
 20
7.2890648221
 30
0.0
 10
11.9060470511
 20
7.3141856307
 30
0.0
 10
11.8948559862
 20
7.3402894395
 30
0.0
 10
11.8860483693
 20
7.367153913
 30
0.0
 10
11.8796998218
 20
7.3945512517
 30
0.0
 10
11.8758649944
 20
7.4222451354
 30
0.0
 10
11.8750038755
 20
7.4408145567
 30
0.0
 10
11.8750038755
 20
7.4500648365
 30
0.0
  0
SPLINE
  5
3A7
100
AcDbEntity
  8
0
100
AcDbSpline
 62
7
  6
CONTINUOUS
 70
0
 71
3
 72
55
 73
51
 74
0
 42
0.0000001
 43
0.0000001
 44
0.0000000001
 40
0.0
 40
0.0
 40
0.0
 40
0.0
 40
0.0153347916
 40
0.0306281661
 40
0.0458827198
 40
0.0611014142
 40
0.0762875307
 40
0.0914446336
 40
0.1065765502
 40
0.1216873377
 40
0.1367812422
 40
0.1518626621
 40
0.1669361127
 40
0.182006182
 40
0.1970774864
 40
0.2121546322
 40
0.2272421743
 40
0.2423445704
 40
0.2574661417
 40
0.2726110382
 40
0.2877831989
 40
0.3029863139
 40
0.3182237992
 40
0.3334987675
 40
0.3488139966
 40
0.3641719127
 40
0.3795745751
 40
0.3950236555
 40
0.4105204268
 40
0.426065764
 40
0.441660135
 40
0.4573035957
 40
0.4729958035
 40
0.4887360204
 40
0.5203478585
 40
0.5521335417
 40
0.5840741719
 40
0.6161460657
 40
0.6483215294
 40
0.6805697422
 40
0.7128577058
 40
0.7451512343
 40
0.7774159766
 40
0.809618441
 40
0.8417269958
 40
0.8737128365
 40
0.9055508988
 40
0.9372206691
 40
0.9687066467
 40
1.0
 40
1.0
 40
1.0
 40
1.0
 10
12.4715444696
 20
7.3704730099
 30
0.0
 10
12.4705617836
 20
7.3664417875
 30
0.0
 10
12.4684102412
 20
7.3584348838
 30
0.0
 10
12.4646258135
 20
7.3466062401
 30
0.0
 10
12.4602961866
 20
7.3349992761
 30
0.0
 10
12.4554304186
 20
7.3236382762
 30
0.0
 10
12.4500385114
 20
7.3125465886
 30
0.0
 10
12.4441315306
 20
7.3017471571
 30
0.0
 10
12.4377216822
 20
7.291262253
 30
0.0
 10
12.4308222042
 20
7.2811135058
 30
0.0
 10
12.423447286
 20
7.2713218921
 30
0.0
 10
12.4156121461
 20
7.2619076264
 30
0.0
 10
12.4073329849
 20
7.2528901131
 30
0.0
 10
12.3986268635
 20
7.2442879852
 30
0.0
 10
12.3895117324
 20
7.2361190211
 30
0.0
 10
12.3800064439
 20
7.2284000391
 30
0.0
 10
12.3701306106
 20
7.2211469721
 30
0.0
 10
12.3599045906
 20
7.2143748267
 30
0.0
 10
12.349349524
 20
7.2080975295
 30
0.0
 10
12.3384872019
 20
7.2023280135
 30
0.0
 10
12.3273400211
 20
7.1970782202
 30
0.0
 10
12.3159310046
 20
7.1923589433
 30
0.0
 10
12.304283709
 20
7.1881798733
 30
0.0
 10
12.2924221542
 20
7.1845496543
 30
0.0
 10
12.2803708173
 20
7.1814757606
 30
0.0
 10
12.2681545737
 20
7.1789644652
 30
0.0
 10
12.2557986163
 20
7.17702095
 30
0.0
 10
12.2433284286
 20
7.1756492357
 30
0.0
 10
12.2307697345
 20
7.1748520741
 30
0.0
 10
12.2181484332
 20
7.1746310891
 30
0.0
 10
12.2054905269
 20
7.1749867719
 30
0.0
 10
12.1928221938
 20
7.1759182983
 30
0.0
 10
12.1801692382
 20
7.1774237975
 30
0.0
 10
12.1633327708
 20
7.1801956319
 30
0.0
 10
12.142453797
 20
7.1850837482
 30
0.0
 10
12.1179195787
 20
7.1931575009
 30
0.0
 10
12.0940647493
 20
7.203381809
 30
0.0
 10
12.0710867501
 20
7.2156720921
 30
0.0
 10
12.0491739648
 20
7.2299269568
 30
0.0
 10
12.0285065232
 20
7.2460290085
 30
0.0
 10
12.0092542357
 20
7.2638457874
 30
0.0
 10
11.9915752608
 20
7.2832307245
 30
0.0
 10
11.9756150136
 20
7.3040245599
 30
0.0
 10
11.9615047552
 20
7.3260563993
 30
0.0
 10
11.94936066
 20
7.3491452161
 30
0.0
 10
11.93928293
 20
7.3731013936
 30
0.0
 10
11.93135472
 20
7.3977278262
 30
0.0
 10
11.9256418265
 20
7.4228227949
 30
0.0
 10
11.922191697
 20
7.4481771996
 30
0.0
 10
11.9214171471
 20
7.4651736456
 30
0.0
 10
11.9214171471
 20
7.4736409607
 30
0.0
  0
SPLINE
  5
3A8
100
AcDbEntity
  8
0
100
AcDbSpline
 62
7
  6
CONTINUOUS
 70
0
 71
3
 72
41
 73
37
 74
0
 42
0.0000001
 43
0.0000001
 44
0.0000000001
 40
0.0
 40
0.0
 40
0.0
 40
0.0
 40
0.0299421703
 40
0.0599087166
 40
0.0899234211
 40
0.1200088977
 40
0.150186053
 40
0.1804736004
 40
0.2108876395
 40
0.2414413098
 40
0.2721445264
 40
0.3030038
 40
0.3340221415
 40
0.3651990482
 40
0.3965305685
 40
0.4280094374
 40
0.4596252765
 40
0.4913648514
 40
0.5232123788
 40
0.5551498746
 40
0.5871575376
 40
0.6192141589
 40
0.6512975532
 40
0.6833850026
 40
0.7154537088
 40
0.731476412
 40
0.7474860771
 40
0.7794508401
 40
0.8113324799
 40
0.8431123195
 40
0.8747737613
 40
0.9063025943
 40
0.937687506
 40
0.953325536
 40
0.9689249997
 40
1.0
 40
1.0
 40
1.0
 40
1.0
 10
12.3862168347
 20
7.2793249575
 30
0.0
 10
12.3819864587
 20
7.2752387497
 30
0.0
 10
12.3731930984
 20
7.2673960733
 30
0.0
 10
12.3591047377
 20
7.2567118404
 30
0.0
 10
12.3441901023
 20
7.2471608235
 30
0.0
 10
12.3285325189
 20
7.2387966108
 30
0.0
 10
12.3122180739
 20
7.2316648955
 30
0.0
 10
12.2953368038
 20
7.2258048817
 30
0.0
 10
12.2779817343
 20
7.2212486326
 30
0.0
 10
12.2602484792
 20
7.2180210246
 30
0.0
 10
12.2422346746
 20
7.2161395914
 30
0.0
 10
12.2240394474
 20
7.2156144487
 30
0.0
 10
12.2057628674
 20
7.2164482476
 30
0.0
 10
12.1875053999
 20
7.2186361759
 30
0.0
 10
12.1693673588
 20
7.2221659946
 30
0.0
 10
12.1514483614
 20
7.2270181135
 30
0.0
 10
12.1338467893
 20
7.2331657051
 30
0.0
 10
12.1166592558
 20
7.2405748563
 30
0.0
 10
12.0999800827
 20
7.2492047581
 30
0.0
 10
12.0839007925
 20
7.2590079263
 30
0.0
 10
12.068509603
 20
7.269930477
 30
0.0
 10
12.0538909871
 20
7.2819123663
 30
0.0
 10
12.040125074
 20
7.2948879193
 30
0.0
 10
12.0272877405
 20
7.3087854352
 30
0.0
 10
12.0174183064
 20
7.321076839
 30
0.0
 10
12.0100547869
 20
7.3312934616
 30
0.0
 10
12.003061763
 20
7.3417425894
 30
0.0
 10
11.9950217525
 20
7.3552277986
 30
0.0
 10
11.9865460275
 20
7.3720077772
 30
0.0
 10
11.9792927222
 20
7.3892872276
 30
0.0
 10
11.9733020922
 20
7.4069710167
 30
0.0
 10
11.9686071384
 20
7.4249616224
 30
0.0
 10
11.9657924199
 20
7.4401476497
 30
0.0
 10
11.9642134361
 20
7.4523494208
 30
0.0
 10
11.9630865602
 20
7.4645395215
 30
0.0
 10
11.9627453539
 20
7.4737124813
 30
0.0
 10
11.9627453539
 20
7.4798166015
 30
0.0
  0
SPLINE
  5
3A9
100
AcDbEntity
  8
0
100
AcDbSpline
 62
7
  6
CONTINUOUS
 70
0
 71
3
 72
39
 73
35
 74
0
 42
0.0000001
 43
0.0000001
 44
0.0000000001
 40
0.0
 40
0.0
 40
0.0
 40
0.0
 40
0.0300602814
 40
0.0602243207
 40
0.0905020162
 40
0.1209013828
 40
0.1514284432
 40
0.1820871544
 40
0.2128793708
 40
0.2438048422
 40
0.2748612445
 40
0.3060442416
 40
0.3373475761
 40
0.3687631854
 40
0.4002813412
 40
0.4318908084
 40
0.4635790228
 40
0.4953322822
 40
0.527135951
 40
0.5589746737
 40
0.5908325962
 40
0.6226935917
 40
0.6545414896
 40
0.6863603052
 40
0.7181344672
 40
0.7498490407
 40
0.7814899452
 40
0.8130441586
 40
0.844499929
 40
0.8758469055
 40
0.9070764695
 40
0.9381814108
 40
0.9691572203
 40
1.0
 40
1.0
 40
1.0
 40
1.0
 10
12.4359903507
 20
7.3511775306
 30
0.0
 10
12.4313167327
 20
7.349333127
 30
0.0
 10
12.4218284682
 20
7.3459460243
 30
0.0
 10
12.4072700858
 20
7.3418006494
 30
0.0
 10
12.3924172604
 20
7.3385975032
 30
0.0
 10
12.3773291639
 20
7.336349381
 30
0.0
 10
12.3620648476
 20
7.3350649281
 30
0.0
 10
12.3466843111
 20
7.3347491091
 30
0.0
 10
12.331247916
 20
7.3354030575
 30
0.0
 10
12.3158162449
 20
7.3370241119
 30
0.0
 10
12.3004498397
 20
7.3396058181
 30
0.0
 10
12.2852089722
 20
7.3431379589
 30
0.0
 10
12.2701534079
 20
7.347606598
 30
0.0
 10
12.2553421749
 20
7.3529941361
 30
0.0
 10
12.2408333344
 20
7.3592793816
 30
0.0
 10
12.2266837558
 20
7.3664376339
 30
0.0
 10
12.2129488958
 20
7.3744407806
 30
0.0
 10
12.1996825836
 20
7.383257408
 30
0.0
 10
12.1869368114
 20
7.3928529233
 30
0.0
 10
12.174761533
 20
7.4031896901
 30
0.0
 10
12.1632044693
 20
7.4142271746
 30
0.0
 10
12.1523109231
 20
7.4259221039
 30
0.0
 10
12.1421236024
 20
7.438228634
 30
0.0
 10
12.132682452
 20
7.4510985265
 30
0.0
 10
12.1240245003
 20
7.4644813391
 30
0.0
 10
12.116183714
 20
7.4783246209
 30
0.0
 10
12.1091908682
 20
7.4925741164
 30
0.0
 10
12.1030734192
 20
7.5071739773
 30
0.0
 10
12.0978554149
 20
7.5220669717
 30
0.0
 10
12.0935573567
 20
7.5371947405
 30
0.0
 10
12.0901962163
 20
7.5524978933
 30
0.0
 10
12.0877851756
 20
7.5679166928
 30
0.0
 10
12.0863338871
 20
7.583389795
 30
0.0
 10
12.0860092863
 20
7.593725241
 30
0.0
 10
12.0860092863
 20
7.5988804243
 30
0.0
  0
SPLINE
  5
3AA
100
AcDbEntity
  8
0
100
AcDbSpline
 62
7
  6
CONTINUOUS
 70
0
 71
3
 72
23
 73
19
 74
0
 42
0.0000001
 43
0.0000001
 44
0.0000000001
 40
0.0
 40
0.0
 40
0.0
 40
0.0
 40
0.0616883027
 40
0.1234088331
 40
0.1851806479
 40
0.2470223193
 40
0.3089517598
 40
0.3709860648
 40
0.4331413598
 40
0.4954326504
 40
0.5578736842
 40
0.6204768638
 40
0.6832530625
 40
0.7462117124
 40
0.8093606829
 40
0.8727050556
 40
0.936252205
 40
1.0
 40
1.0
 40
1.0
 40
1.0
 10
11.88492007
 20
7.7124647955
 30
0.0
 10
11.8808770526
 20
7.7082959644
 30
0.0
 10
11.8729936384
 20
7.6997547268
 30
0.0
 10
11.8618122318
 20
7.6863712736
 30
0.0
 10
11.851295052
 20
7.6724411568
 30
0.0
 10
11.8414648616
 20
7.6579944069
 30
0.0
 10
11.8323424453
 20
7.6430616583
 30
0.0
 10
11.8239471961
 20
7.6276747203
 30
0.0
 10
11.8162969394
 20
7.6118663164
 30
0.0
 10
11.8094079432
 20
7.5956700653
 30
0.0
 10
11.8032948307
 20
7.5791204157
 30
0.0
 10
11.7979705508
 20
7.5622525753
 30
0.0
 10
11.793446381
 20
7.5451024141
 30
0.0
 10
11.7897319197
 20
7.5277063673
 30
0.0
 10
11.7868350918
 20
7.5101015204
 30
0.0
 10
11.7847618536
 20
7.492324978
 30
0.0
 10
11.7835168024
 20
7.4744152516
 30
0.0
 10
11.7832409166
 20
7.462429835
 30
0.0
 10
11.7832409166
 20
7.4564286193
 30
0.0
  0
SPLINE
  5
3AB
100
AcDbEntity
  8
0
100
AcDbSpline
 62
7
  6
CONTINUOUS
 70
0
 71
3
 72
25
 73
21
 74
0
 42
0.0000001
 43
0.0000001
 44
0.0000000001
 40
0.0
 40
0.0
 40
0.0
 40
0.0
 40
0.0315740931
 40
0.0630640262
 40
0.0944736623
 40
0.1258074687
 40
0.188252882
 40
0.2504620476
 40
0.3124888564
 40
0.3743928846
 40
0.4362375705
 40
0.4980882253
 40
0.5600099705
 40
0.6220656869
 40
0.6843140476
 40
0.7468077213
 40
0.8095918245
 40
0.8727027429
 40
0.9361663024
 40
1.0
 40
1.0
 40
1.0
 40
1.0
 10
12.1093825905
 20
7.7260946243
 30
0.0
 10
12.1052728713
 20
7.7254648615
 30
0.0
 10
12.0970904505
 20
7.7240292889
 30
0.0
 10
12.0849388962
 20
7.7213471275
 30
0.0
 10
12.0729464473
 20
7.7181436871
 30
0.0
 10
12.0572183307
 20
7.7131917563
 30
0.0
 10
12.0380497567
 20
7.7057289826
 30
0.0
 10
12.0159991498
 20
7.6947910621
 30
0.0
 10
11.995077815
 20
7.6819566461
 30
0.0
 10
11.9754368318
 20
7.6673176499
 30
0.0
 10
11.9572166011
 20
7.6509786282
 30
0.0
 10
11.9405476569
 20
7.6330565862
 30
0.0
 10
11.9255492641
 20
7.6136798711
 30
0.0
 10
11.9123286833
 20
7.5929872717
 30
0.0
 10
11.9009802371
 20
7.571127063
 30
0.0
 10
11.8915847365
 20
7.5482557528
 30
0.0
 10
11.8842089486
 20
7.5245371696
 30
0.0
 10
11.8789051479
 20
7.5001403908
 30
0.0
 10
11.8757105111
 20
7.4752420055
 30
0.0
 10
11.8750038755
 20
7.4584704867
 30
0.0
 10
11.8750038755
 20
7.4500648365
 30
0.0
  0
SPLINE
  5
3AC
100
AcDbEntity
  8
0
100
AcDbSpline
 62
7
  6
CONTINUOUS
 70
0
 71
3
 72
23
 73
19
 74
0
 42
0.0000001
 43
0.0000001
 44
0.0000000001
 40
0.0
 40
0.0
 40
0.0
 40
0.0
 40
0.062865059
 40
0.1254444725
 40
0.1877780621
 40
0.2499125829
 40
0.31190047
 40
0.3737983754
 40
0.4356655532
 40
0.4975621492
 40
0.5595474564
 40
0.6216781992
 40
0.6840069204
 40
0.7465805156
 40
0.8094389548
 40
0.8726144441
 40
0.9361295939
 40
1.0
 40
1.0
 40
1.0
 40
1.0
 10
12.1243932388
 20
7.7279356343
 30
0.0
 10
12.1171722092
 20
7.7263933697
 30
0.0
 10
12.1028839158
 20
7.7227128215
 30
0.0
 10
12.0820418475
 20
7.7154207288
 30
0.0
 10
12.061972034
 20
7.7064168275
 30
0.0
 10
12.0428083159
 20
7.6957603194
 30
0.0
 10
12.024676118
 20
7.6835208644
 30
0.0
 10
12.0076947609
 20
7.6697787574
 30
0.0
 10
11.9919758199
 20
7.6546241984
 30
0.0
 10
11.9776225948
 20
7.638156736
 30
0.0
 10
11.9647293162
 20
7.6204846108
 30
0.0
 10
11.9533805133
 20
7.6017240118
 30
0.0
 10
11.9436504925
 20
7.5819982607
 30
0.0
 10
11.9356028615
 20
7.5614369233
 30
0.0
 10
11.9292900839
 20
7.5401751449
 30
0.0
 10
11.9247532129
 20
7.5183520188
 30
0.0
 10
11.9220214576
 20
7.4961124884
 30
0.0
 10
11.9214171471
 20
7.4811429361
 30
0.0
 10
11.9214171471
 20
7.4736409607
 30
0.0
  0
SPLINE
  5
3AD
100
AcDbEntity
  8
0
100
AcDbSpline
 62
7
  6
CONTINUOUS
 70
0
 71
3
 72
21
 73
17
 74
0
 42
0.0000001
 43
0.0000001
 44
0.0000000001
 40
0.0
 40
0.0
 40
0.0
 40
0.0
 40
0.127083765
 40
0.2534689231
 40
0.3164214264
 40
0.3792111431
 40
0.441844432
 40
0.5043284482
 40
0.5666714149
 40
0.6288825313
 40
0.690971877
 40
0.7529503867
 40
0.8148297673
 40
0.8766224082
 40
0.9383413101
 40
1.0
 40
1.0
 40
1.0
 40
1.0
 10
9.454423633
 20
8.4672014909
 30
0.0
 10
9.454423633
 20
8.478440196
 30
0.0
 10
9.4553186018
 20
8.5008658092
 30
0.0
 10
9.4586956657
 20
8.5286766456
 30
0.0
 10
9.462738076
 20
8.5506095758
 30
0.0
 10
9.4664294874
 20
8.5668595339
 30
0.0
 10
9.4707782718
 20
8.5829029233
 30
0.0
 10
9.4757775284
 20
8.5987143409
 30
0.0
 10
9.481419217
 20
8.6142683927
 30
0.0
 10
9.4876943347
 20
8.6295401807
 30
0.0
 10
9.4945928797
 20
8.6445052156
 30
0.0
 10
9.502103776
 20
8.6591395475
 30
0.0
 10
9.510214986
 20
8.6734197096
 30
0.0
 10
9.5189136322
 20
8.6873228805
 30
0.0
 10
9.5281855245
 20
8.7008264813
 30
0.0
 10
9.5347423314
 20
8.7095524722
 30
0.0
 10
9.5381105036
 20
8.7138406619
 30
0.0
  0
SPLINE
  5
3AE
100
AcDbEntity
  8
0
100
AcDbSpline
 62
7
  6
CONTINUOUS
 70
0
 71
3
 72
21
 73
17
 74
0
 42
0.0000001
 43
0.0000001
 44
0.0000000001
 40
0.0
 40
0.0
 40
0.0
 40
0.0
 40
0.0617147758
 40
0.1234506606
 40
0.1852285516
 40
0.2470689039
 40
0.3089915432
 40
0.3710154715
 40
0.4331586565
 40
0.4954378534
 40
0.5578684959
 40
0.6204644995
 40
0.6832380575
 40
0.7461999878
 40
0.87268242
 40
1.0
 40
1.0
 40
1.0
 40
1.0
 10
12.0318960737
 20
7.6461447798
 30
0.0
 10
12.0291579908
 20
7.6435000089
 30
0.0
 10
12.0238160402
 20
7.6380675512
 30
0.0
 10
12.0162313105
 20
7.6295161057
 30
0.0
 10
12.0090908129
 20
7.6205800709
 30
0.0
 10
12.0024112928
 20
7.6112803488
 30
0.0
 10
11.9962080345
 20
7.601638346
 30
0.0
 10
11.9904953664
 20
7.5916763152
 30
0.0
 10
11.985286482
 20
7.5814172126
 30
0.0
 10
11.9805933295
 20
7.5708847369
 30
0.0
 10
11.9764267028
 20
7.5601031584
 30
0.0
 10
11.9727962468
 20
7.5490974052
 30
0.0
 10
11.9697102389
 20
7.5378925704
 30
0.0
 10
11.9663262609
 20
7.5227016329
 30
0.0
 10
11.9634950242
 20
7.5033356296
 30
0.0
 10
11.9627453539
 20
7.48767008
 30
0.0
 10
11.9627453539
 20
7.4798166015
 30
0.0
  0
SPLINE
  5
3AF
100
AcDbEntity
  8
0
100
AcDbSpline
 62
7
  6
CONTINUOUS
 70
0
 71
3
 72
15
 73
11
 74
0
 42
0.0000001
 43
0.0000001
 44
0.0000000001
 40
0.0
 40
0.0
 40
0.0
 40
0.0
 40
0.1236780751
 40
0.2476893118
 40
0.3720607559
 40
0.4968162089
 40
0.6219749891
 40
0.7475501147
 40
0.8735609167
 40
1.0
 40
1.0
 40
1.0
 40
1.0
 10
12.1053728057
 20
7.6932660914
 30
0.0
 10
12.1037788353
 20
7.6895977173
 30
0.0
 10
12.1007789738
 20
7.6821657908
 30
0.0
 10
12.0968619415
 20
7.6707834192
 30
0.0
 10
12.0935309791
 20
7.6591793984
 30
0.0
 10
12.0907945525
 20
7.6473830101
 30
0.0
 10
12.0886594572
 20
7.6354236107
 30
0.0
 10
12.0871308521
 20
7.6233307249
 30
0.0
 10
12.0862127134
 20
7.6111350828
 30
0.0
 10
12.0860092863
 20
7.6029694282
 30
0.0
 10
12.0860092863
 20
7.5988804243
 30
0.0
  0
SPLINE
  5
3B0
100
AcDbEntity
  8
0
100
AcDbSpline
 62
7
  6
CONTINUOUS
 70
0
 71
3
 72
39
 73
35
 74
0
 42
0.0000001
 43
0.0000001
 44
0.0000000001
 40
0.0
 40
0.0
 40
0.0
 40
0.0
 40
0.0299322659
 40
0.0599313685
 40
0.0900154776
 40
0.1202009879
 40
0.1505021968
 40
0.1809310342
 40
0.2114968507
 40
0.2422062644
 40
0.273063068
 40
0.3040681956
 40
0.3352197452
 40
0.366513054
 40
0.3979408232
 40
0.4294932858
 40
0.4611584133
 40
0.4929221562
 40
0.5247687132
 40
0.5566808241
 40
0.5886400814
 40
0.6206272569
 40
0.652622638
 40
0.6846063698
 40
0.7165587992
 40
0.7484608168
 40
0.7802941914
 40
0.8120418939
 40
0.8436884077
 40
0.8752200134
 40
0.906625066
 40
0.9378941944
 40
0.9690205904
 40
1.0
 40
1.0
 40
1.0
 40
1.0
 10
12.4539901542
 20
7.420539127
 30
0.0
 10
12.4503723649
 20
7.4180617394
 30
0.0
 10
12.4429420878
 20
7.4133678912
 30
0.0
 10
12.4312954887
 20
7.4071605182
 30
0.0
 10
12.419190847
 20
7.4018079605
 30
0.0
 10
12.4066871534
 20
7.3973363961
 30
0.0
 10
12.3938443127
 20
7.3937670542
 30
0.0
 10
12.3807240996
 20
7.3911169981
 30
0.0
 10
12.3673895219
 20
7.3893988132
 30
0.0
 10
12.3539046069
 20
7.3886206166
 30
0.0
 10
12.3403340691
 20
7.388786008
 30
0.0
 10
12.3267430069
 20
7.3898940631
 30
0.0
 10
12.313196591
 20
7.3919393425
 30
0.0
 10
12.2997597552
 20
7.3949119226
 30
0.0
 10
12.286496888
 20
7.3987974471
 30
0.0
 10
12.2734715284
 20
7.4035771981
 30
0.0
 10
12.260746065
 20
7.4092281881
 30
0.0
 10
12.2483814406
 20
7.4157232712
 30
0.0
 10
12.2364368643
 20
7.4230312733
 30
0.0
 10
12.224969531
 20
7.4311171414
 30
0.0
 10
12.2140343507
 20
7.4399421108
 30
0.0
 10
12.203683688
 20
7.4494638898
 30
0.0
 10
12.1939671143
 20
7.4596368605
 30
0.0
 10
12.1849311721
 20
7.4704122959
 30
0.0
 10
12.1766191543
 20
7.481738591
 30
0.0
 10
12.1690708983
 20
7.4935615077
 30
0.0
 10
12.1623225969
 20
7.5058244317
 30
0.0
 10
12.1564066249
 20
7.5184686425
 30
0.0
 10
12.1513513864
 20
7.5314335843
 30
0.0
 10
12.147181175
 20
7.5446571802
 30
0.0
 10
12.1439160642
 20
7.5580760227
 30
0.0
 10
12.1415717962
 20
7.5716260563
 30
0.0
 10
12.1401597255
 20
7.5852414729
 30
0.0
 10
12.1398436477
 20
7.594342304
 30
0.0
 10
12.1398436477
 20
7.5988804274
 30
0.0
  0
SPLINE
  5
3B1
100
AcDbEntity
  8
0
100
AcDbSpline
 62
7
  6
CONTINUOUS
 70
0
 71
3
 72
21
 73
17
 74
0
 42
0.0000001
 43
0.0000001
 44
0.0000000001
 40
0.0
 40
0.0
 40
0.0
 40
0.0
 40
0.0620431707
 40
0.1242651297
 40
0.1866448193
 40
0.2491591508
 40
0.3117833127
 40
0.3744910931
 40
0.4999998881
 40
0.6255086893
 40
0.6882164867
 40
0.7508406798
 40
0.8133550502
 40
0.8757347792
 40
0.9379567718
 40
1.0
 40
1.0
 40
1.0
 40
1.0
 10
12.4326561506
 20
7.5501459129
 30
0.0
 10
12.4289537394
 20
7.5515280896
 30
0.0
 10
12.4216151544
 20
7.5545075802
 30
0.0
 10
12.4108635784
 20
7.5595956647
 30
0.0
 10
12.400387086
 20
7.5652923107
 30
0.0
 10
12.3902227894
 20
7.5715773592
 30
0.0
 10
12.3804057169
 20
7.5784291992
 30
0.0
 10
12.3678242076
 20
7.5882890913
 30
0.0
 10
12.3531377314
 20
7.6019044862
 30
0.0
 10
12.3400392562
 20
7.6170537928
 30
0.0
 10
12.3306210823
 20
7.6299692853
 30
0.0
 10
12.3241133995
 20
7.6400178091
 30
0.0
 10
12.3181842085
 20
7.6503937246
 30
0.0
 10
12.3128538886
 20
7.6610612708
 30
0.0
 10
12.3081413039
 20
7.6719826583
 30
0.0
 10
12.3054177737
 20
7.6794200422
 30
0.0
 10
12.3041646897
 20
7.6831681178
 30
0.0
  0
SPLINE
  5
3B2
100
AcDbEntity
  8
0
100
AcDbSpline
 62
7
  6
CONTINUOUS
 70
0
 71
3
 72
29
 73
25
 74
0
 42
0.0000001
 43
0.0000001
 44
0.0000000001
 40
0.0
 40
0.0
 40
0.0
 40
0.0
 40
0.0755849261
 40
0.1466145423
 40
0.2134284043
 40
0.2764668694
 40
0.3362691012
 40
0.3651660615
 40
0.3935048179
 40
0.4213819954
 40
0.4488995596
 40
0.4761640064
 40
0.503285025
 40
0.5303741997
 40
0.5575435754
 40
0.5849040881
 40
0.6125642198
 40
0.6406286477
 40
0.6691970702
 40
0.7281928859
 40
0.7902532206
 40
0.8559467831
 40
0.9257384363
 40
1.0
 40
1.0
 40
1.0
 40
1.0
 10
12.9239872468
 20
7.674555408
 30
0.0
 10
12.9223140881
 20
7.6729392608
 30
0.0
 10
12.9189700547
 20
7.6699036678
 30
0.0
 10
12.9137948347
 20
7.6658483884
 30
0.0
 10
12.9086256059
 20
7.6624424678
 30
0.0
 10
12.9034676032
 20
7.6596912397
 30
0.0
 10
12.8991321342
 20
7.657928079
 30
0.0
 10
12.895688658
 20
7.656865055
 30
0.0
 10
12.8931425255
 20
7.6562425087
 30
0.0
 10
12.8906045389
 20
7.6557860449
 30
0.0
 10
12.8880753994
 20
7.6554958988
 30
0.0
 10
12.8855559332
 20
7.6553721916
 30
0.0
 10
12.88304695
 20
7.6554149929
 30
0.0
 10
12.8805492806
 20
7.6556243655
 30
0.0
 10
12.8780637545
 20
7.6560002079
 30
0.0
 10
12.8755911702
 20
7.6565423366
 30
0.0
 10
12.8731323394
 20
7.6572505518
 30
0.0
 10
12.8706879601
 20
7.6581246143
 30
0.0
 10
12.8674145256
 20
7.6595252698
 30
0.0
 10
12.8633490622
 20
7.6617107597
 30
0.0
 10
12.8585982189
 20
7.6649621819
 30
0.0
 10
12.8539256615
 20
7.6688650977
 30
0.0
 10
12.8493357003
 20
7.6734134787
 30
0.0
 10
12.8464266557
 20
7.6767647479
 30
0.0
 10
12.8449845748
 20
7.6785378708
 30
0.0
  0
SPLINE
  5
3B3
100
AcDbEntity
  8
0
100
AcDbSpline
 62
7
  6
CONTINUOUS
 70
0
 71
3
 72
19
 73
15
 74
0
 42
0.0000001
 43
0.0000001
 44
0.0000000001
 40
0.0
 40
0.0
 40
0.0
 40
0.0
 40
0.1504602541
 40
0.2916987487
 40
0.4244197399
 40
0.4878838165
 40
0.5495801819
 40
0.6682271511
 40
0.7255606398
 40
0.7817998923
 40
0.8371467013
 40
0.8918136246
 40
0.9460221895
 40
1.0
 40
1.0
 40
1.0
 40
1.0
 10
12.864099842
 20
7.7385960184
 30
0.0
 10
12.862573217
 20
7.7371214118
 30
0.0
 10
12.8595220486
 20
7.7343546228
 30
0.0
 10
12.854797621
 20
7.7306675404
 30
0.0
 10
12.8508070806
 20
7.7280598396
 30
0.0
 10
12.8476248956
 20
7.7262939721
 30
0.0
 10
12.844536583
 20
7.7247779543
 30
0.0
 10
12.8414121177
 20
7.7235387308
 30
0.0
 10
12.8382700694
 20
7.7226062098
 30
0.0
 10
12.8359469221
 20
7.7220687121
 30
0.0
 10
12.833631513
 20
7.7216855923
 30
0.0
 10
12.8313244478
 20
7.7214570582
 30
0.0
 10
12.8290266596
 20
7.7213832213
 30
0.0
 10
12.8275000756
 20
7.7214372121
 30
0.0
 10
12.8267404466
 20
7.7214898882
 30
0.0
  0
SPLINE
  5
3B4
100
AcDbEntity
  8
0
100
AcDbSpline
 62
7
  6
CONTINUOUS
 70
0
 71
3
 72
83
 73
79
 74
0
 42
0.0000001
 43
0.0000001
 44
0.0000000001
 40
0.0
 40
0.0
 40
0.0
 40
0.0
 40
0.0039884097
 40
0.0081453951
 40
0.0124746186
 40
0.0169791614
 40
0.0216616097
 40
0.0265239718
 40
0.0315675691
 40
0.0367932644
 40
0.042201484
 40
0.0477922575
 40
0.0535653099
 40
0.0595199779
 40
0.0719697837
 40
0.0851316862
 40
0.098991495
 40
0.1135318501
 40
0.1287326108
 40
0.1445711562
 40
0.1610226585
 40
0.1780603021
 40
0.1956554688
 40
0.2137778955
 40
0.232395813
 40
0.2514760916
 40
0.2709843678
 40
0.29088516
 40
0.3111419767
 40
0.3317174197
 40
0.3525732979
 40
0.3736707312
 40
0.4164311769
 40
0.4596784221
 40
0.5030866968
 40
0.5463286871
 40
0.589078675
 40
0.6101689609
 40
0.6310164291
 40
0.6515822205
 40
0.6718281726
 40
0.6917169195
 40
0.7112119951
 40
0.730277944
 40
0.7488804433
 40
0.7669864122
 40
0.7845641338
 40
0.8015833871
 40
0.8180155988
 40
0.8338340188
 40
0.8490138961
 40
0.8635326921
 40
0.8773703389
 40
0.8905095606
 40
0.9029362808
 40
0.9146401102
 40
0.9202191733
 40
0.9256156542
 40
0.9308296162
 40
0.9358615409
 40
0.9407122971
 40
0.9453833039
 40
0.9498764865
 40
0.9541944013
 40
0.9583403271
 40
0.9623182846
 40
0.9661332455
 40
0.9697911516
 40
0.9732990923
 40
0.9766654451
 40
0.9798999492
 40
0.9830139088
 40
0.9860202118
 40
0.9889334125
 40
0.991769705
 40
0.9945467681
 40
0.997283572
 40
1.0
 40
1.0
 40
1.0
 40
1.0
 10
12.864099842
 20
7.7385960184
 30
0.0
 10
12.8651667307
 20
7.7396265539
 30
0.0
 10
12.8672993423
 20
7.741779508
 30
0.0
 10
12.8704313804
 20
7.7452035912
 30
0.0
 10
12.873560111
 20
7.748886401
 30
0.0
 10
12.8766838299
 20
7.7528259382
 30
0.0
 10
12.8798011005
 20
7.7570202612
 30
0.0
 10
12.8829103862
 20
7.7614673587
 30
0.0
 10
12.8860102242
 20
7.7661650143
 30
0.0
 10
12.8890990309
 20
7.7711109092
 30
0.0
 10
12.8921752677
 20
7.7763025764
 30
0.0
 10
12.8952374287
 20
7.7817374179
 30
0.0
 10
12.8982839633
 20
7.7874127538
 30
0.0
 10
12.9023841347
 20
7.7954158836
 30
0.0
 10
12.9074495293
 20
7.8060095025
 30
0.0
 10
12.9133549807
 20
7.8194514431
 30
0.0
 10
12.9191623708
 20
7.8337784539
 30
0.0
 10
12.9248599868
 20
7.848961872
 30
0.0
 10
12.9304363294
 20
7.8649714686
 30
0.0
 10
12.935880139
 20
7.8817752251
 30
0.0
 10
12.9411804163
 20
7.8993395022
 30
0.0
 10
12.9463264491
 20
7.9176290975
 30
0.0
 10
12.9513078362
 20
7.9366073293
 30
0.0
 10
12.9561145081
 20
7.9562361075
 30
0.0
 10
12.9607367602
 20
7.9764760119
 30
0.0
 10
12.965165259
 20
7.9972863801
 30
0.0
 10
12.9693910636
 20
8.0186253961
 30
0.0
 10
12.9734056417
 20
8.0404501737
 30
0.0
 10
12.9772008901
 20
8.062716844
 30
0.0
 10
12.9807691487
 20
8.085380629
 30
0.0
 10
12.9841032525
 20
8.1083959904
 30
0.0
 10
12.9882458201
 20
8.1396288962
 30
0.0
 10
12.9927850477
 20
8.1792066961
 30
0.0
 10
12.997181348
 20
8.2271404236
 30
0.0
 10
13.0005152739
 20
8.2753394084
 30
0.0
 10
13.0027599925
 20
8.3234161025
 30
0.0
 10
13.0037124703
 20
8.3632334675
 30
0.0
 10
13.0039087773
 20
8.3947296135
 30
0.0
 10
13.0037745313
 20
8.4179754548
 30
0.0
 10
13.003359858
 20
8.4409039128
 30
0.0
 10
13.0026655897
 20
8.4634689216
 30
0.0
 10
13.0016931551
 20
8.4856251017
 30
0.0
 10
13.0004445358
 20
8.5073279103
 30
0.0
 10
12.9989222735
 20
8.5285337204
 30
0.0
 10
12.9971294741
 20
8.5491999166
 30
0.0
 10
12.99506979
 20
8.5692849803
 30
0.0
 10
12.9927474145
 20
8.588748571
 30
0.0
 10
12.9901670725
 20
8.6075516101
 30
0.0
 10
12.9873340116
 20
8.6256563686
 30
0.0
 10
12.984254004
 20
8.6430265533
 30
0.0
 10
12.9809333195
 20
8.6596273812
 30
0.0
 10
12.9773787127
 20
8.6754256621
 30
0.0
 10
12.9735974039
 20
8.6903898468
 30
0.0
 10
12.9695970544
 20
8.7044902202
 30
0.0
 10
12.9653857531
 20
8.7176986239
 30
0.0
 10
12.9616503676
 20
8.728100596
 30
0.0
 10
12.9585532017
 20
8.735946655
 30
0.0
 10
12.9562200158
 20
8.7414978101
 30
0.0
 10
12.9538405512
 20
8.7468070937
 30
0.0
 10
12.9514160028
 20
8.7518718924
 30
0.0
 10
12.9489475148
 20
8.7566896711
 30
0.0
 10
12.946436353
 20
8.7612580676
 30
0.0
 10
12.9438837133
 20
8.7655748178
 30
0.0
 10
12.9412908157
 20
8.7696377865
 30
0.0
 10
12.9386589434
 20
8.7734450012
 30
0.0
 10
12.9359892649
 20
8.7769945475
 30
0.0
 10
12.9332830742
 20
8.7802847087
 30
0.0
 10
12.9305415659
 20
8.7833138278
 30
0.0
 10
12.9277659463
 20
8.7860803545
 30
0.0
 10
12.9249574741
 20
8.7885828923
 30
0.0
 10
12.9221172939
 20
8.7908200048
 30
0.0
 10
12.9192466935
 20
8.7927904519
 30
0.0
 10
12.9163469144
 20
8.794492949
 30
0.0
 10
12.9134192948
 20
8.7959262724
 30
0.0
 10
12.9104653589
 20
8.7970893596
 30
0.0
 10
12.9074865993
 20
8.7979810872
 30
0.0
 10
12.9044851673
 20
8.7986006742
 30
0.0
 10
12.9024670813
 20
8.7988322146
 30
0.0
 10
12.9014592374
 20
8.7989021029
 30
0.0
  0
SPLINE
  5
3B5
100
AcDbEntity
  8
0
100
AcDbSpline
 62
7
  6
CONTINUOUS
 70
0
 71
3
 72
39
 73
35
 74
0
 42
0.0000001
 43
0.0000001
 44
0.0000000001
 40
0.0
 40
0.0
 40
0.0
 40
0.0
 40
0.0299271546
 40
0.0599140538
 40
0.0899799979
 40
0.1201426365
 40
0.1504174793
 40
0.180817692
 40
0.2113538225
 40
0.2420336235
 40
0.2728619335
 40
0.3038406217
 40
0.3349685918
 40
0.3662418462
 40
0.3976536044
 40
0.4291944679
 40
0.4608526278
 40
0.4926141089
 40
0.5244630482
 40
0.5563819994
 40
0.588352257
 40
0.6203541972
 40
0.6523676318
 40
0.6843721686
 40
0.7163475732
 40
0.74827413
 40
0.7801329969
 40
0.8119065487
 40
0.8435787036
 40
0.8751352297
 40
0.9065640182
 40
0.9378554159
 40
0.9690020185
 40
1.0
 40
1.0
 40
1.0
 40
1.0
 10
10.1412043172
 20
8.0897411318
 30
0.0
 10
10.1334830083
 20
8.0840919662
 30
0.0
 10
10.1175935916
 20
8.0733589285
 30
0.0
 10
10.0925978815
 20
8.0590722254
 30
0.0
 10
10.0665392585
 20
8.046651762
 30
0.0
 10
10.0395481234
 20
8.0361598221
 30
0.0
 10
10.0117572144
 20
8.0276476067
 30
0.0
 10
9.9833037808
 20
8.0211569287
 30
0.0
 10
9.9543281195
 20
8.0167194515
 30
0.0
 10
9.9249730732
 20
8.0143567369
 30
0.0
 10
9.8953832711
 20
8.014080116
 30
0.0
 10
9.8657044375
 20
8.0158906664
 30
0.0
 10
9.8360826741
 20
8.0197791806
 30
0.0
 10
9.8066637421
 20
8.0257262253
 30
0.0
 10
9.777592357
 20
8.0337022825
 30
0.0
 10
9.749011487
 20
8.0436678927
 30
0.0
 10
9.7210616638
 20
8.0555738544
 30
0.0
 10
9.6938802791
 20
8.069361424
 30
0.0
 10
9.6676009342
 20
8.0849626536
 30
0.0
 10
9.6423527922
 20
8.1023007218
 30
0.0
 10
9.618259958
 20
8.1212903143
 30
0.0
 10
9.5954408549
 20
8.1418380113
 30
0.0
 10
9.5740076441
 20
8.163842748
 30
0.0
 10
9.5540657019
 20
8.1871963335
 30
0.0
 10
9.5357131038
 20
8.2117839694
 30
0.0
 10
9.5190401497
 20
8.2374848084
 30
0.0
 10
9.504128881
 20
8.2641725143
 30
0.0
 10
9.4910527187
 20
8.2917159122
 30
0.0
 10
9.4798761029
 20
8.3199796046
 30
0.0
 10
9.4706541912
 20
8.3488246889
 30
0.0
 10
9.4634325237
 20
8.3781092095
 30
0.0
 10
9.4582468927
 20
8.4076896031
 30
0.0
 10
9.4551229538
 20
8.4374185036
 30
0.0
 10
9.454423633
 20
8.457291946
 30
0.0
 10
9.454423633
 20
8.4672014909
 30
0.0
  0
SPLINE
  5
3B6
100
AcDbEntity
  8
0
100
AcDbSpline
 62
7
  6
CONTINUOUS
 70
0
 71
3
 72
15
 73
11
 74
0
 42
0.0000001
 43
0.0000001
 44
0.0000000001
 40
0.0
 40
0.0
 40
0.0
 40
0.0
 40
0.1270410476
 40
0.2534131868
 40
0.3791425198
 40
0.5042670058
 40
0.6288413317
 40
0.7529332142
 40
0.8766226931
 40
1.0
 40
1.0
 40
1.0
 40
1.0
 10
12.1398436477
 20
7.5988804274
 30
0.0
 10
12.1398436477
 20
7.6038697601
 30
0.0
 10
12.1402238599
 20
7.6138265075
 30
0.0
 10
12.1419423431
 20
7.6286316334
 30
0.0
 10
12.1447975451
 20
7.6431845711
 30
0.0
 10
12.1487730322
 20
7.6573988842
 30
0.0
 10
12.1538455851
 20
7.6711913471
 30
0.0
 10
12.159985855
 20
7.6844811702
 30
0.0
 10
12.1671571759
 20
7.6971892701
 30
0.0
 10
12.1726047855
 20
7.7052342878
 30
0.0
 10
12.1754834228
 20
7.709131952
 30
0.0
  0
SPLINE
  5
3B7
100
AcDbEntity
  8
0
100
AcDbSpline
 62
7
  6
CONTINUOUS
 70
0
 71
3
 72
29
 73
25
 74
0
 42
0.0000001
 43
0.0000001
 44
0.0000000001
 40
0.0
 40
0.0
 40
0.0
 40
0.0
 40
0.0146266785
 40
0.0299304392
 40
0.046087333
 40
0.0632406216
 40
0.0815024861
 40
0.1009574638
 40
0.1216658151
 40
0.143668195
 40
0.1669875567
 40
0.1916336347
 40
0.2176031566
 40
0.2448838346
 40
0.3032800492
 40
0.3665777704
 40
0.4344392613
 40
0.5064652679
 40
0.582213441
 40
0.6612136756
 40
0.7429815756
 40
0.8270241059
 40
0.9128602465
 40
1.0
 40
1.0
 40
1.0
 40
1.0
 10
9.7389415516
 20
7.973928875
 30
0.0
 10
9.7389415442
 20
7.9742208564
 30
0.0
 10
9.7389018393
 20
7.9748188822
 30
0.0
 10
9.7387311543
 20
7.9757248115
 30
0.0
 10
9.7384494572
 20
7.9766552448
 30
0.0
 10
9.7380581223
 20
7.9776089262
 30
0.0
 10
9.7375585784
 20
7.9785849648
 30
0.0
 10
9.7369523301
 20
7.9795823697
 30
0.0
 10
9.7362411137
 20
7.9806002044
 30
0.0
 10
9.7354267243
 20
7.9816373878
 30
0.0
 10
9.7345112963
 20
7.9826929264
 30
0.0
 10
9.7334970199
 20
7.9837656431
 30
0.0
 10
9.732386438
 20
7.9848545066
 30
0.0
 10
9.7307431122
 20
7.9863605583
 30
0.0
 10
9.7284600488
 20
7.9882687376
 30
0.0
 10
9.7254435685
 20
7.9905550532
 30
0.0
 10
9.7221173054
 20
7.9928776476
 30
0.0
 10
9.7185095126
 20
7.9952268005
 30
0.0
 10
9.7146494357
 20
7.9975926456
 30
0.0
 10
9.7105670037
 20
7.9999651657
 30
0.0
 10
9.7062922885
 20
8.0023341751
 30
0.0
 10
9.7018549445
 20
8.0046894529
 30
0.0
 10
9.6972841544
 20
8.0070204773
 30
0.0
 10
9.6941845688
 20
8.008542549
 30
0.0
 10
9.6926177317
 20
8.0092981286
 30
0.0
  0
SPLINE
  5
3B8
100
AcDbEntity
  8
0
100
AcDbSpline
 62
7
  6
CONTINUOUS
 70
0
 71
3
 72
95
 73
91
 74
0
 42
0.0000001
 43
0.0000001
 44
0.0000000001
 40
0.0
 40
0.0
 40
0.0
 40
0.0
 40
0.0039488186
 40
0.0077209214
 40
0.0113256445
 40
0.0147745623
 40
0.0212567379
 40
0.0243282751
 40
0.0273113629
 40
0.0302282336
 40
0.0331028199
 40
0.0359602143
 40
0.0388260038
 40
0.0417255309
 40
0.0446832014
 40
0.0477218699
 40
0.0508624604
 40
0.054123679
 40
0.0575219936
 40
0.0610716364
 40
0.0647847726
 40
0.0686716672
 40
0.0727408686
 40
0.0769994465
 40
0.0814531065
 40
0.0861064471
 40
0.0909629987
 40
0.0960254618
 40
0.1012957099
 40
0.1067749705
 40
0.1124638402
 40
0.1183623842
 40
0.1244701939
 40
0.1307863998
 40
0.1373097798
 40
0.1440387018
 40
0.1509712635
 40
0.165437612
 40
0.1806882179
 40
0.1966981085
 40
0.213438923
 40
0.2308792972
 40
0.2489851807
 40
0.267720107
 40
0.2870454315
 40
0.3069205425
 40
0.3273030537
 40
0.3481489841
 40
0.3694129279
 40
0.3910482169
 40
0.4130070784
 40
0.4352407884
 40
0.4576998231
 40
0.4803340076
 40
0.5030926647
 40
0.5259247619
 40
0.5487790575
 40
0.5716042467
 40
0.5943491077
 40
0.6169626475
 40
0.6393942481
 40
0.6615938139
 40
0.6835119196
 40
0.7050999601
 40
0.7263103021
 40
0.7470964384
 40
0.7674131453
 40
0.7872166469
 40
0.8064647855
 40
0.8251172028
 40
0.8431355353
 40
0.8604836278
 40
0.8771277739
 40
0.893036993
 40
0.9081833566
 40
0.9225423822
 40
0.9294203032
 40
0.9360940384
 40
0.9425617647
 40
0.9488219437
 40
0.9548734598
 40
0.9607155432
 40
0.9663479326
 40
0.9717708198
 40
0.9769849626
 40
0.9819917154
 40
0.9867932039
 40
0.9913924565
 40
0.9957932256
 40
1.0
 40
1.0
 40
1.0
 40
1.0
 10
12.9254591415
 20
8.838925957
 30
0.0
 10
12.9267011382
 20
8.840081832
 30
0.0
 10
12.9291840767
 20
8.8422844013
 30
0.0
 10
12.9329937457
 20
8.8453156732
 30
0.0
 10
12.9367999774
 20
8.8479950869
 30
0.0
 10
12.9417625033
 20
8.8510322516
 30
0.0
 10
12.9468255713
 20
8.8534544254
 30
0.0
 10
12.9519422523
 20
8.8551559402
 30
0.0
 10
12.9556974593
 20
8.8560494008
 30
0.0
 10
12.9594354071
 20
8.8565812489
 30
0.0
 10
12.9631534422
 20
8.856750689
 30
0.0
 10
12.9668484295
 20
8.856557276
 30
0.0
 10
12.970517216
 20
8.8560010638
 30
0.0
 10
12.9741567573
 20
8.8550828407
 30
0.0
 10
12.9777641981
 20
8.8538036535
 30
0.0
 10
12.9813370793
 20
8.8521651453
 30
0.0
 10
12.9848731369
 20
8.8501689096
 30
0.0
 10
12.9883704674
 20
8.8478168744
 30
0.0
 10
12.99182721
 20
8.8451108423
 30
0.0
 10
12.9952416771
 20
8.8420528003
 30
0.0
 10
12.9986121533
 20
8.8386447388
 30
0.0
 10
13.0019369277
 20
8.8348887763
 30
0.0
 10
13.0052143114
 20
8.8307871905
 30
0.0
 10
13.0084425072
 20
8.8263423673
 30
0.0
 10
13.0116198282
 20
8.8215569461
 30
0.0
 10
13.0147444243
 20
8.8164336761
 30
0.0
 10
13.0178146103
 20
8.810975586
 30
0.0
 10
13.0208285458
 20
8.8051858358
 30
0.0
 10
13.0237845458
 20
8.7990678458
 30
0.0
 10
13.0266808339
 20
8.7926251985
 30
0.0
 10
13.0295157285
 20
8.7858617021
 30
0.0
 10
13.0322875484
 20
8.7787813527
 30
0.0
 10
13.0349946272
 20
8.7713883421
 30
0.0
 10
13.03763539
 20
8.7636870624
 30
0.0
 10
13.0402082014
 20
8.7556820856
 30
0.0
 10
13.0427116092
 20
8.7473781708
 30
0.0
 10
13.04600158
 20
8.7357487183
 30
0.0
 10
13.049916511
 20
8.7204935395
 30
0.0
 10
13.0542506111
 20
8.7013282103
 30
0.0
 10
13.0582745725
 20
8.681098198
 30
0.0
 10
13.0619786545
 20
8.6598517804
 30
0.0
 10
13.0653538594
 20
8.6376395076
 30
0.0
 10
13.0683919944
 20
8.6145143703
 30
0.0
 10
13.0710856831
 20
8.5905315704
 30
0.0
 10
13.0734283853
 20
8.5657484029
 30
0.0
 10
13.0754144121
 20
8.5402241029
 30
0.0
 10
13.0770389384
 20
8.5140197002
 30
0.0
 10
13.0782980141
 20
8.4871978683
 30
0.0
 10
13.0791885722
 20
8.459822771
 30
0.0
 10
13.0797084358
 20
8.4319599064
 30
0.0
 10
13.0798563223
 20
8.4036759479
 30
0.0
 10
13.079631846
 20
8.3750385832
 30
0.0
 10
13.0790355184
 20
8.3461163507
 30
0.0
 10
13.078068748
 20
8.3169784748
 30
0.0
 10
13.076733835
 20
8.2876946981
 30
0.0
 10
13.0750339656
 20
8.2583351139
 30
0.0
 10
13.0729732045
 20
8.2289699975
 30
0.0
 10
13.0705564846
 20
8.1996696375
 30
0.0
 10
13.0677895957
 20
8.1705041663
 30
0.0
 10
13.06467917
 20
8.1415433925
 30
0.0
 10
13.061232667
 20
8.1128566323
 30
0.0
 10
13.0574583553
 20
8.0845125431
 30
0.0
 10
13.0533652931
 20
8.0565789579
 30
0.0
 10
13.048963308
 20
8.0291227209
 30
0.0
 10
13.0442629727
 20
8.0022095262
 30
0.0
 10
13.0392755801
 20
7.975903759
 30
0.0
 10
13.0340131166
 20
7.950268339
 30
0.0
 10
13.028488234
 20
7.9253645674
 30
0.0
 10
13.0227142191
 20
7.9012519766
 30
0.0
 10
13.0167049626
 20
7.8779881824
 30
0.0
 10
13.0104749257
 20
7.8556287422
 30
0.0
 10
13.0040391043
 20
7.8342270064
 30
0.0
 10
12.9974129914
 20
7.8138340059
 30
0.0
 10
12.9906125347
 20
7.7944982228
 30
0.0
 10
12.9836540982
 20
7.7762657745
 30
0.0
 10
12.9776547491
 20
7.7618273802
 30
0.0
 10
12.972779097
 20
7.7508706539
 30
0.0
 10
12.9691457837
 20
7.7430736661
 30
0.0
 10
12.9654855803
 20
7.7355835662
 30
0.0
 10
12.9618005818
 20
7.7284048194
 30
0.0
 10
12.95809306
 20
7.7215416709
 30
0.0
 10
12.9543651544
 20
7.7149982106
 30
0.0
 10
12.9506191301
 20
7.7087782884
 30
0.0
 10
12.9468571553
 20
7.7028855985
 30
0.0
 10
12.9430814848
 20
7.697323616
 30
0.0
 10
12.9392943309
 20
7.6920956058
 30
0.0
 10
12.9354978456
 20
7.6872046205
 30
0.0
 10
12.9316941613
 20
7.6826534483
 30
0.0
 10
12.9278856156
 20
7.6784450132
 30
0.0
 10
12.9252872833
 20
7.675811147
 30
0.0
 10
12.9239872468
 20
7.674555408
 30
0.0
  0
SPLINE
  5
3B9
100
AcDbEntity
  8
0
100
AcDbSpline
 62
4
  6
CONTINUOUS
 70
0
 71
3
 72
359
 73
355
 74
0
 42
0.0000001
 43
0.0000001
 44
0.0000000001
 40
0.0
 40
0.0
 40
0.0
 40
0.0
 40
0.015625
 40
0.0234375
 40
0.03125
 40
0.0390625
 40
0.04296875
 40
0.046875
 40
0.05078125
 40
0.0546875
 40
0.056640625
 40
0.05859375
 40
0.0595703125
 40
0.060546875
 40
0.0615234375
 40
0.0620117188
 40
0.0625
 40
0.0629882812
 40
0.0634765625
 40
0.064453125
 40
0.0654296875
 40
0.06640625
 40
0.068359375
 40
0.0703125
 40
0.07421875
 40
0.078125
 40
0.08203125
 40
0.0859375
 40
0.09375
 40
0.1015625
 40
0.10546875
 40
0.109375
 40
0.11328125
 40
0.1171875
 40
0.119140625
 40
0.12109375
 40
0.1220703125
 40
0.123046875
 40
0.1240234375
 40
0.1245117188
 40
0.125
 40
0.1254882812
 40
0.1259765625
 40
0.126953125
 40
0.1279296875
 40
0.12890625
 40
0.130859375
 40
0.1328125
 40
0.13671875
 40
0.140625
 40
0.14453125
 40
0.1484375
 40
0.15625
 40
0.1640625
 40
0.16796875
 40
0.171875
 40
0.17578125
 40
0.1796875
 40
0.181640625
 40
0.18359375
 40
0.1845703125
 40
0.185546875
 40
0.1865234375
 40
0.1870117188
 40
0.1875
 40
0.1879882812
 40
0.1884765625
 40
0.189453125
 40
0.1904296875
 40
0.19140625
 40
0.193359375
 40
0.1953125
 40
0.19921875
 40
0.203125
 40
0.20703125
 40
0.2109375
 40
0.21875
 40
0.2265625
 40
0.23046875
 40
0.234375
 40
0.23828125
 40
0.2421875
 40
0.244140625
 40
0.24609375
 40
0.2470703125
 40
0.248046875
 40
0.2490234375
 40
0.2495117188
 40
0.25
 40
0.2504882812
 40
0.2509765625
 40
0.251953125
 40
0.2529296875
 40
0.25390625
 40
0.255859375
 40
0.2578125
 40
0.26171875
 40
0.265625
 40
0.26953125
 40
0.2734375
 40
0.28125
 40
0.2890625
 40
0.29296875
 40
0.296875
 40
0.30078125
 40
0.3046875
 40
0.306640625
 40
0.30859375
 40
0.3095703125
 40
0.310546875
 40
0.3115234375
 40
0.3120117188
 40
0.3125
 40
0.3129882812
 40
0.3134765625
 40
0.314453125
 40
0.3154296875
 40
0.31640625
 40
0.318359375
 40
0.3203125
 40
0.32421875
 40
0.328125
 40
0.33203125
 40
0.3359375
 40
0.34375
 40
0.3515625
 40
0.35546875
 40
0.359375
 40
0.36328125
 40
0.3671875
 40
0.369140625
 40
0.37109375
 40
0.3720703125
 40
0.373046875
 40
0.3740234375
 40
0.3745117188
 40
0.375
 40
0.3754882812
 40
0.3759765625
 40
0.376953125
 40
0.3779296875
 40
0.37890625
 40
0.380859375
 40
0.3828125
 40
0.38671875
 40
0.390625
 40
0.39453125
 40
0.3984375
 40
0.40625
 40
0.4140625
 40
0.41796875
 40
0.421875
 40
0.42578125
 40
0.4296875
 40
0.431640625
 40
0.43359375
 40
0.4345703125
 40
0.435546875
 40
0.4365234375
 40
0.4370117188
 40
0.4375
 40
0.4379882812
 40
0.4384765625
 40
0.439453125
 40
0.4404296875
 40
0.44140625
 40
0.443359375
 40
0.4453125
 40
0.44921875
 40
0.453125
 40
0.45703125
 40
0.4609375
 40
0.46875
 40
0.4765625
 40
0.48046875
 40
0.484375
 40
0.48828125
 40
0.4921875
 40
0.494140625
 40
0.49609375
 40
0.4970703125
 40
0.498046875
 40
0.4990234375
 40
0.4995117188
 40
0.5
 40
0.5004882812
 40
0.5009765625
 40
0.501953125
 40
0.5029296875
 40
0.50390625
 40
0.505859375
 40
0.5078125
 40
0.51171875
 40
0.515625
 40
0.51953125
 40
0.5234375
 40
0.53125
 40
0.5390625
 40
0.54296875
 40
0.546875
 40
0.55078125
 40
0.5546875
 40
0.556640625
 40
0.55859375
 40
0.560546875
 40
0.5615234375
 40
0.5620117188
 40
0.5625
 40
0.5629882812
 40
0.5634765625
 40
0.564453125
 40
0.56640625
 40
0.568359375
 40
0.5703125
 40
0.57421875
 40
0.578125
 40
0.58203125
 40
0.5859375
 40
0.59375
 40
0.6015625
 40
0.60546875
 40
0.609375
 40
0.61328125
 40
0.6171875
 40
0.619140625
 40
0.62109375
 40
0.623046875
 40
0.6240234375
 40
0.6245117188
 40
0.625
 40
0.6254882812
 40
0.6259765625
 40
0.626953125
 40
0.62890625
 40
0.630859375
 40
0.6328125
 40
0.63671875
 40
0.640625
 40
0.64453125
 40
0.6484375
 40
0.65625
 40
0.6640625
 40
0.66796875
 40
0.671875
 40
0.67578125
 40
0.6796875
 40
0.681640625
 40
0.68359375
 40
0.685546875
 40
0.6865234375
 40
0.6870117188
 40
0.6875
 40
0.6879882812
 40
0.6884765625
 40
0.689453125
 40
0.69140625
 40
0.693359375
 40
0.6953125
 40
0.69921875
 40
0.703125
 40
0.70703125
 40
0.7109375
 40
0.71875
 40
0.7265625
 40
0.73046875
 40
0.734375
 40
0.73828125
 40
0.7421875
 40
0.744140625
 40
0.74609375
 40
0.748046875
 40
0.7490234375
 40
0.7495117188
 40
0.75
 40
0.7504882812
 40
0.7509765625
 40
0.751953125
 40
0.75390625
 40
0.755859375
 40
0.7578125
 40
0.76171875
 40
0.765625
 40
0.76953125
 40
0.7734375
 40
0.78125
 40
0.7890625
 40
0.79296875
 40
0.796875
 40
0.80078125
 40
0.8046875
 40
0.806640625
 40
0.80859375
 40
0.810546875
 40
0.8115234375
 40
0.8120117188
 40
0.8125
 40
0.8129882812
 40
0.8134765625
 40
0.814453125
 40
0.81640625
 40
0.818359375
 40
0.8203125
 40
0.82421875
 40
0.828125
 40
0.83203125
 40
0.8359375
 40
0.84375
 40
0.8515625
 40
0.85546875
 40
0.859375
 40
0.86328125
 40
0.8671875
 40
0.869140625
 40
0.87109375
 40
0.873046875
 40
0.8740234375
 40
0.8745117188
 40
0.875
 40
0.8754882812
 40
0.8759765625
 40
0.876953125
 40
0.87890625
 40
0.880859375
 40
0.8828125
 40
0.88671875
 40
0.890625
 40
0.89453125
 40
0.8984375
 40
0.90625
 40
0.9140625
 40
0.91796875
 40
0.921875
 40
0.92578125
 40
0.9296875
 40
0.931640625
 40
0.93359375
 40
0.935546875
 40
0.9365234375
 40
0.9370117188
 40
0.9375
 40
0.9379882812
 40
0.9384765625
 40
0.939453125
 40
0.94140625
 40
0.943359375
 40
0.9453125
 40
0.94921875
 40
0.953125
 40
0.95703125
 40
0.9609375
 40
0.96875
 40
0.9765625
 40
0.984375
 40
1.0
 40
1.0
 40
1.0
 40
1.0
 10
11.2002328131
 20
8.3228459724
 30
0.0
 10
11.203366
 20
8.3229358968
 30
0.0
 10
11.2080657804
 20
8.3230707834
 30
0.0
 10
11.2143321542
 20
8.3232506323
 30
0.0
 10
11.2190319346
 20
8.3233855188
 30
0.0
 10
11.2229484182
 20
8.3234979247
 30
0.0
 10
11.2260816053
 20
8.3235878482
 30
0.0
 10
11.2284314949
 20
8.3236552944
 30
0.0
 10
11.2307813871
 20
8.3237227271
 30
0.0
 10
11.2327396226
 20
8.3237789627
 30
0.0
 10
11.2343062291
 20
8.323823858
 30
0.0
 10
11.2352853168
 20
8.3238521295
 30
0.0
 10
11.2360686817
 20
8.3238742614
 30
0.0
 10
11.2366559459
 20
8.3238921891
 30
0.0
 10
11.2371461583
 20
8.323902902
 30
0.0
 10
11.2375364766
 20
8.3239209522
 30
0.0
 10
11.2378342748
 20
8.3239085865
 30
0.0
 10
11.2381127608
 20
8.3239950941
 30
0.0
 10
11.2384908215
 20
8.3240758998
 30
0.0
 10
11.2389610828
 20
8.3241887567
 30
0.0
 10
11.239526387
 20
8.3243191129
 30
0.0
 10
11.24027978
 20
8.3244946927
 30
0.0
 10
11.2412216398
 20
8.3247135609
 30
0.0
 10
11.2427285491
 20
8.325064089
 30
0.0
 10
11.2446122085
 20
8.3255021328
 30
0.0
 10
11.2468725901
 20
8.3260278352
 30
0.0
 10
11.2491329742
 20
8.3265535243
 30
0.0
 10
11.2521468188
 20
8.3272544478
 30
0.0
 10
11.255914125
 20
8.3281306004
 30
0.0
 10
11.2596814308
 20
8.3290067542
 30
0.0
 10
11.2626952759
 20
8.3297076758
 30
0.0
 10
11.2649556584
 20
8.3302333704
 30
0.0
 10
11.2672160461
 20
8.3307590522
 30
0.0
 10
11.2690996865
 20
8.3311971602
 30
0.0
 10
11.2706066345
 20
8.3315475575
 30
0.0
 10
11.2715483959
 20
8.3317667585
 30
0.0
 10
11.2723019909
 20
8.3319416552
 30
0.0
 10
11.272866678
 20
8.3320740984
 30
0.0
 10
11.2733388703
 20
8.3321804256
 30
0.0
 10
11.2737129914
 20
8.332274553
 30
0.0
 10
11.2740035085
 20
8.3323203771
 30
0.0
 10
11.2742561368
 20
8.3324607541
 30
0.0
 10
11.2746062095
 20
8.3326148949
 30
0.0
 10
11.2750392596
 20
8.3328189029
 30
0.0
 10
11.2755608633
 20
8.333058862
 30
0.0
 10
11.2762556561
 20
8.3333805016
 30
0.0
 10
11.2771243795
 20
8.333781971
 30
0.0
 10
11.278514207
 20
8.3344246463
 30
0.0
 10
11.280251536
 20
8.3352278792
 30
0.0
 10
11.2823363117
 20
8.3361918063
 30
0.0
 10
11.2844210925
 20
8.3371557207
 30
0.0
 10
11.2872007984
 20
8.3384409444
 30
0.0
 10
11.2906754314
 20
8.3400474722
 30
0.0
 10
11.294150064
 20
8.3416540012
 30
0.0
 10
11.2969297707
 20
8.3429392231
 30
0.0
 10
11.2990145491
 20
8.3439031428
 30
0.0
 10
11.301099334
 20
8.34486705
 30
0.0
 10
11.3028366343
 20
8.345670345
 30
0.0
 10
11.3042265202
 20
8.3463128937
 30
0.0
 10
11.3050950949
 20
8.3467146852
 30
0.0
 10
11.305790193
 20
8.3470356638
 30
0.0
 10
11.3063108639
 20
8.3472776423
 30
0.0
 10
11.3067468325
 20
8.3474753319
 30
0.0
 10
11.3070909508
 20
8.3476423634
 30
0.0
 10
11.3073617637
 20
8.3477433731
 30
0.0
 10
11.3075840084
 20
8.3479369982
 30
0.0
 10
11.3078973002
 20
8.3481628133
 30
0.0
 10
11.3082830942
 20
8.3484561818
 30
0.0
 10
11.3087485384
 20
8.348803473
 30
0.0
 10
11.3093682606
 20
8.3492681874
 30
0.0
 10
11.3101432112
 20
8.3498485121
 30
0.0
 10
11.3113829656
 20
8.3507773493
 30
0.0
 10
11.3129327158
 20
8.3519382869
 30
0.0
 10
11.3147923915
 20
8.3533314586
 30
0.0
 10
11.3166520738
 20
8.3547246179
 30
0.0
 10
11.3191316479
 20
8.3565821679
 30
0.0
 10
11.3222311164
 20
8.3589041039
 30
0.0
 10
11.3253305842
 20
8.3612260408
 30
0.0
 10
11.3278101595
 20
8.3630835893
 30
0.0
 10
11.3296698382
 20
8.3644767532
 30
0.0
 10
11.3315295274
 20
8.3658699075
 30
0.0
 10
11.3330792357
 20
8.3670308992
 30
0.0
 10
11.3343190756
 20
8.367959626
 30
0.0
 10
11.3350938086
 20
8.3685402317
 30
0.0
 10
11.3357139773
 20
8.3690043695
 30
0.0
 10
11.3361780572
 20
8.3693534222
 30
0.0
 10
11.33656812
 20
8.3696412792
 30
0.0
 10
11.3368727026
 20
8.3698783388
 30
0.0
 10
11.3371215447
 20
8.3700376238
 30
0.0
 10
11.3372925002
 20
8.3702675605
 30
0.0
 10
11.3375476477
 20
8.3705494632
 30
0.0
 10
11.3378572475
 20
8.370910309
 30
0.0
 10
11.3382327628
 20
8.3713396996
 30
0.0
 10
11.3387320543
 20
8.3719134864
 30
0.0
 10
11.3393566465
 20
8.3726302864
 30
0.0
 10
11.340355727
 20
8.3737774086
 30
0.0
 10
11.3416046692
 20
8.3752112283
 30
0.0
 10
11.3431033606
 20
8.3769318475
 30
0.0
 10
11.3446020625
 20
8.3786524572
 30
0.0
 10
11.3466003281
 20
8.3809466068
 30
0.0
 10
11.3490981614
 20
8.3838142925
 30
0.0
 10
11.3515959937
 20
8.3866819791
 30
0.0
 10
11.3535942608
 20
8.3889761274
 30
0.0
 10
11.3550929581
 20
8.3906967408
 30
0.0
 10
11.3565916666
 20
8.392417346
 30
0.0
 10
11.3578405556
 20
8.3938512094
 30
0.0
 10
11.3588397446
 20
8.3949982426
 30
0.0
 10
11.3594640607
 20
8.3957152691
 30
0.0
 10
11.359963919
 20
8.3962885908
 30
0.0
 10
11.3603377025
 20
8.3967194023
 30
0.0
 10
11.3606527208
 20
8.3970758025
 30
0.0
 10
11.3608968137
 20
8.3973667751
 30
0.0
 10
11.3611015292
 20
8.3975690128
 30
0.0
 10
11.3612236221
 20
8.3978322914
 30
0.0
 10
11.3614152737
 20
8.3981620072
 30
0.0
 10
11.3616449361
 20
8.3985814676
 30
0.0
 10
11.3619247695
 20
8.3990816887
 30
0.0
 10
11.3622964002
 20
8.3997497439
 30
0.0
 10
11.3627614455
 20
8.4005844384
 30
0.0
 10
11.3635052346
 20
8.401920159
 30
0.0
 10
11.3644350683
 20
8.4035897378
 30
0.0
 10
11.365550827
 20
8.4055932632
 30
0.0
 10
11.3666665968
 20
8.4075967803
 30
0.0
 10
11.3681542861
 20
8.4102681394
 30
0.0
 10
11.3700138991
 20
8.4136073372
 30
0.0
 10
11.3718735111
 20
8.4169465357
 30
0.0
 10
11.373361202
 20
8.4196178938
 30
0.0
 10
11.3744769669
 20
8.4216214139
 30
0.0
 10
11.3755927442
 20
8.4236249281
 30
0.0
 10
11.3765225201
 20
8.4252945419
 30
0.0
 10
11.3772664271
 20
8.426630191
 30
0.0
 10
11.3777311723
 20
8.4274650673
 30
0.0
 10
11.378103419
 20
8.4281327495
 30
0.0
 10
11.3783813705
 20
8.4286341101
 30
0.0
 10
11.3786169208
 20
8.4290500051
 30
0.0
 10
11.3787965601
 20
8.4293869949
 30
0.0
 10
11.3789553378
 20
8.4296280592
 30
0.0
 10
11.379022323
 20
8.4299136989
 30
0.0
 10
11.379143701
 20
8.430278981
 30
0.0
 10
11.3792844223
 20
8.4307409259
 30
0.0
 10
11.3794579967
 20
8.4312929731
 30
0.0
 10
11.3796877846
 20
8.4320298348
 30
0.0
 10
11.3799755825
 20
8.4329506383
 30
0.0
 10
11.3804357446
 20
8.4344240769
 30
0.0
 10
11.3810110551
 20
8.4362658227
 30
0.0
 10
11.3817013814
 20
8.4384759401
 30
0.0
 10
11.3823917201
 20
8.4406860515
 30
0.0
 10
11.3833121674
 20
8.4436328688
 30
0.0
 10
11.3844627281
 20
8.4473163897
 30
0.0
 10
11.3856132877
 20
8.450999911
 30
0.0
 10
11.3865337367
 20
8.4539467276
 30
0.0
 10
11.38722407
 20
8.4561568412
 30
0.0
 10
11.3879144165
 20
8.4583669501
 30
0.0
 10
11.3884896643
 20
8.4602087224
 30
0.0
 10
11.3889499543
 20
8.4616821069
 30
0.0
 10
11.3892374266
 20
8.4626030483
 30
0.0
 10
11.3894678828
 20
8.463339627
 30
0.0
 10
11.3896394154
 20
8.4638925385
 30
0.0
 10
11.3897865251
 20
8.4643517794
 30
0.0
 10
11.3898948695
 20
8.4647225781
 30
0.0
 10
11.3900016583
 20
8.4649913707
 30
0.0
 10
11.390010997
 20
8.4652956858
 30
0.0
 10
11.3900574892
 20
8.4656890309
 30
0.0
 10
11.3901039253
 20
8.4661849695
 30
0.0
 10
11.3901646477
 20
8.4667782736
 30
0.0
 10
11.3902438647
 20
8.4675699823
 30
0.0
 10
11.3903434839
 20
8.4685594001
 30
0.0
 10
11.3905025405
 20
8.4701425905
 30
0.0
 10
11.3907014759
 20
8.4721215366
 30
0.0
 10
11.3909401492
 20
8.4744962899
 30
0.0
 10
11.3911788357
 20
8.4768710384
 30
0.0
 10
11.3914970797
 20
8.4800373714
 30
0.0
 10
11.3918948864
 20
8.483995287
 30
0.0
 10
11.392292692
 20
8.4879532029
 30
0.0
 10
11.3926109379
 20
8.4911195356
 30
0.0
 10
11.3928496187
 20
8.493494285
 30
0.0
 10
11.3930883132
 20
8.4958690347
 30
0.0
 10
11.3932871827
 20
8.497847992
 30
0.0
 10
11.3934463736
 20
8.4994311596
 30
0.0
 10
11.393545651
 20
8.5004206353
 30
0.0
 10
11.3936255697
 20
8.5012122252
 30
0.0
 10
11.3936841486
 20
8.5018058919
 30
0.0
 10
11.3937372911
 20
8.5023006961
 30
0.0
 10
11.393770101
 20
8.5026963557
 30
0.0
 10
11.3938212246
 20
8.5029936024
 30
0.0
 10
11.3937711353
 20
8.503288933
 30
0.0
 10
11.3937397046
 20
8.5036833765
 30
0.0
 10
11.3936882861
 20
8.5041762012
 30
0.0
 10
11.3936317759
 20
8.5047676892
 30
0.0
 10
11.3935546156
 20
8.5055563054
 30
0.0
 10
11.3934587861
 20
8.5065420875
 30
0.0
 10
11.3933051118
 20
8.5081193323
 30
0.0
 10
11.3931131381
 20
8.5100908905
 30
0.0
 10
11.3928827185
 20
8.5124567594
 30
0.0
 10
11.3926523126
 20
8.5148226285
 30
0.0
 10
11.3923451001
 20
8.5179771206
 30
0.0
 10
11.3919610855
 20
8.5219202357
 30
0.0
 10
11.3915770725
 20
8.5258633511
 30
0.0
 10
11.3912698574
 20
8.5290178428
 30
0.0
 10
11.391039459
 20
8.5313837132
 30
0.0
 10
11.3908090117
 20
8.5337495773
 30
0.0
 10
11.3906171242
 20
8.5357211503
 30
0.0
 10
11.3904632741
 20
8.5372983649
 30
0.0
 10
11.3903488156
 20
8.5384813954
 30
0.0
 10
11.3902504783
 20
8.539466874
 30
0.0
 10
11.3901874418
 20
8.5401574551
 30
0.0
 10
11.3901423652
 20
8.5405509079
 30
0.0
 10
11.390134068
 20
8.5408492794
 30
0.0
 10
11.3900282579
 20
8.5411351055
 30
0.0
 10
11.3899211913
 20
8.5415205829
 30
0.0
 10
11.3897179773
 20
8.5421931294
 30
0.0
 10
11.3894359569
 20
8.5431549762
 30
0.0
 10
11.3890939859
 20
8.5443087361
 30
0.0
 10
11.3886392635
 20
8.545847242
 30
0.0
 10
11.3880704353
 20
8.5477703196
 30
0.0
 10
11.3873880238
 20
8.5500780362
 30
0.0
 10
11.3867055635
 20
8.5523857466
 30
0.0
 10
11.3857956335
 20
8.5554626959
 30
0.0
 10
11.3846582146
 20
8.5593088817
 30
0.0
 10
11.3835207999
 20
8.5631550684
 30
0.0
 10
11.3826108633
 20
8.5662320162
 30
0.0
 10
11.381928423
 20
8.5685397312
 30
0.0
 10
11.3812459366
 20
8.5708474304
 30
0.0
 10
11.3806773411
 20
8.5727705622
 30
0.0
 10
11.3802221442
 20
8.5743089577
 30
0.0
 10
11.3798816222
 20
8.5754630546
 30
0.0
 10
11.3795950685
 20
8.5764238471
 30
0.0
 10
11.3793999471
 20
8.5770982757
 30
0.0
 10
11.3792799142
 20
8.5774807375
 30
0.0
 10
11.3792139327
 20
8.5777758264
 30
0.0
 10
11.3790560458
 20
8.5780394083
 30
0.0
 10
11.3788775876
 20
8.5784018408
 30
0.0
 10
11.3785503494
 20
8.5790309772
 30
0.0
 10
11.3780906752
 20
8.5799324205
 30
0.0
 10
11.3775357236
 20
8.5810130066
 30
0.0
 10
11.3767969558
 20
8.5824541883
 30
0.0
 10
11.3758730954
 20
8.5842555282
 30
0.0
 10
11.3747646346
 20
8.5864171948
 30
0.0
 10
11.3736561279
 20
8.5885788457
 30
0.0
 10
11.3721781351
 20
8.5914610525
 30
0.0
 10
11.3703306381
 20
8.5950638088
 30
0.0
 10
11.368483145
 20
8.5986665668
 30
0.0
 10
11.3670051458
 20
8.6015487709
 30
0.0
 10
11.3658966582
 20
8.6037104296
 30
0.0
 10
11.3647881259
 20
8.6058720671
 30
0.0
 10
11.363864488
 20
8.6076734977
 30
0.0
 10
11.3631252665
 20
8.6091144944
 30
0.0
 10
11.3625717005
 20
8.6101956456
 30
0.0
 10
11.3621076913
 20
8.6110953209
 30
0.0
 10
11.3617881918
 20
8.6117276135
 30
0.0
 10
11.3615973343
 20
8.6120849889
 30
0.0
 10
11.3614775339
 20
8.6123641046
 30
0.0
 10
11.3612685057
 20
8.6126008508
 30
0.0
 10
11.3610209252
 20
8.6129312913
 30
0.0
 10
11.3605731581
 20
8.6135026765
 30
0.0
 10
11.3599410723
 20
8.6143225409
 30
0.0
 10
11.3591793241
 20
8.6153048373
 30
0.0
 10
11.3581647935
 20
8.6166151042
 30
0.0
 10
11.3568962412
 20
8.618252753
 30
0.0
 10
11.3553741453
 20
8.6202180108
 30
0.0
 10
11.3538520047
 20
8.6221832474
 30
0.0
 10
11.3518224996
 20
8.6248035704
 30
0.0
 10
11.3492856124
 20
8.6280789711
 30
0.0
 10
11.3467487286
 20
8.6313543743
 30
0.0
 10
11.3447192181
 20
8.6339746932
 30
0.0
 10
11.3431970938
 20
8.635939942
 30
0.0
 10
11.3416749368
 20
8.6379051541
 30
0.0
 10
11.3404065743
 20
8.639542945
 30
0.0
 10
11.3393916568
 20
8.640852922
 30
0.0
 10
11.3386310902
 20
8.6418361036
 30
0.0
 10
11.3379953076
 20
8.6426531987
 30
0.0
 10
11.3375541398
 20
8.6432295276
 30
0.0
 10
11.3372959856
 20
8.643552047
 30
0.0
 10
11.3371194363
 20
8.6438131244
 30
0.0
 10
11.3368776508
 20
8.6440008562
 30
0.0
 10
11.3365780253
 20
8.6442767491
 30
0.0
 10
11.3360430787
 20
8.6447476416
 30
0.0
 10
11.3352844121
 20
8.6454265772
 30
0.0
 10
11.3343716397
 20
8.6462386323
 30
0.0
 10
11.3331554385
 20
8.6473223044
 30
0.0
 10
11.3316349026
 20
8.6486765746
 30
0.0
 10
11.3298103815
 20
8.6503018361
 30
0.0
 10
11.3279858278
 20
8.6519270608
 30
0.0
 10
11.3255531009
 20
8.65409404
 30
0.0
 10
11.322512188
 20
8.6568027591
 30
0.0
 10
11.3194712778
 20
8.6595114816
 30
0.0
 10
11.3170385467
 20
8.6616784554
 30
0.0
 10
11.3152140057
 20
8.6633036961
 30
0.0
 10
11.313389437
 20
8.6649288975
 30
0.0
 10
11.3118690492
 20
8.6662833546
 30
0.0
 10
11.3106525461
 20
8.6673666456
 30
0.0
 10
11.3097406956
 20
8.6681798644
 30
0.0
 10
11.3089791443
 20
8.6688551594
 30
0.0
 10
11.3084493474
 20
8.6693325509
 30
0.0
 10
11.3081414708
 20
8.6695980309
 30
0.0
 10
11.3079250301
 20
8.6698177477
 30
0.0
 10
11.3076532902
 20
8.6699586947
 30
0.0
 10
11.3073102594
 20
8.6701740998
 30
0.0
 10
11.3067009684
 20
8.6705382573
 30
0.0
 10
11.3058352511
 20
8.6710651751
 30
0.0
 10
11.3047943793
 20
8.6716946117
 30
0.0
 10
11.3034072527
 20
8.6725348612
 30
0.0
 10
11.3016731035
 20
8.6735848296
 30
0.0
 10
11.2995922277
 20
8.674844939
 30
0.0
 10
11.2975113242
 20
8.676105009
 30
0.0
 10
11.294736796
 20
8.6777851161
 30
0.0
 10
11.2912686321
 20
8.6798852447
 30
0.0
 10
11.2878004704
 20
8.6819853771
 30
0.0
 10
11.2850259388
 20
8.6836654783
 30
0.0
 10
11.2829450452
 20
8.6849255659
 30
0.0
 10
11.2808641325
 20
8.686185609
 30
0.0
 10
11.2791300981
 20
8.6872357837
 30
0.0
 10
11.2777427373
 20
8.6880756126
 30
0.0
 10
11.2767025807
 20
8.6887063335
 30
0.0
 10
11.2758346258
 20
8.6892292332
 30
0.0
 10
11.2752293294
 20
8.6896005636
 30
0.0
 10
11.2748798981
 20
8.6898044759
 30
0.0
 10
11.2746278184
 20
8.6899807254
 30
0.0
 10
11.2743375375
 20
8.6900678516
 30
0.0
 10
11.2739638212
 20
8.6902151072
 30
0.0
 10
11.2733036094
 20
8.6904583202
 30
0.0
 10
11.2723636955
 20
8.6908133398
 30
0.0
 10
11.2712344094
 20
8.6912361221
 30
0.0
 10
11.26972918
 20
8.6918009641
 30
0.0
 10
11.2678474767
 20
8.692506628
 30
0.0
 10
11.2655895042
 20
8.6933535913
 30
0.0
 10
11.2633315125
 20
8.6942005099
 30
0.0
 10
11.2603208637
 20
8.6953297505
 30
0.0
 10
11.2565575502
 20
8.6967412953
 30
0.0
 10
11.2527942381
 20
8.6981528442
 30
0.0
 10
11.2497835869
 20
8.6992820782
 30
0.0
 10
11.2475256023
 20
8.7001290164
 30
0.0
 10
11.2452676033
 20
8.7009759068
 30
0.0
 10
11.2433859823
 20
8.7016817974
 30
0.0
 10
11.2418805852
 20
8.702246177
 30
0.0
 10
11.2407518113
 20
8.7026703711
 30
0.0
 10
11.2398102949
 20
8.7030209738
 30
0.0
 10
11.2391529438
 20
8.7032720718
 30
0.0
 10
11.2387746439
 20
8.7034066936
 30
0.0
 10
11.2384984424
 20
8.7035326265
 30
0.0
 10
11.2381934826
 20
8.7035631248
 30
0.0
 10
11.2377969006
 20
8.7036370778
 30
0.0
 10
11.2370982085
 20
8.7037509858
 30
0.0
 10
11.2361025204
 20
8.7039218203
 30
0.0
 10
11.2349066487
 20
8.7041233509
 30
0.0
 10
11.2333125185
 20
8.7043932707
 30
0.0
 10
11.2313197304
 20
8.7047302544
 30
0.0
 10
11.2289284385
 20
8.7051348132
 30
0.0
 10
11.2265371321
 20
8.7055393244
 30
0.0
 10
11.2233487287
 20
8.7060786892
 30
0.0
 10
11.2193632226
 20
8.7067528895
 30
0.0
 10
11.2145806161
 20
8.7075619323
 30
0.0
 10
11.2082038072
 20
8.7086406552
 30
0.0
 10
11.2034212006
 20
8.7094496975
 30
0.0
 10
11.2002327961
 20
8.7099890591
 30
0.0
  0
SPLINE
  5
3BA
100
AcDbEntity
  8
0
100
AcDbSpline
 62
4
  6
CONTINUOUS
 70
0
 71
3
 72
359
 73
355
 74
0
 42
0.0000001
 43
0.0000001
 44
0.0000000001
 40
0.0
 40
0.0
 40
0.0
 40
0.0
 40
0.015625
 40
0.0234375
 40
0.03125
 40
0.0390625
 40
0.04296875
 40
0.046875
 40
0.05078125
 40
0.0546875
 40
0.056640625
 40
0.05859375
 40
0.0595703125
 40
0.060546875
 40
0.0615234375
 40
0.0620117188
 40
0.0625
 40
0.0629882812
 40
0.0634765625
 40
0.064453125
 40
0.0654296875
 40
0.06640625
 40
0.068359375
 40
0.0703125
 40
0.07421875
 40
0.078125
 40
0.08203125
 40
0.0859375
 40
0.09375
 40
0.1015625
 40
0.10546875
 40
0.109375
 40
0.11328125
 40
0.1171875
 40
0.119140625
 40
0.12109375
 40
0.1220703125
 40
0.123046875
 40
0.1240234375
 40
0.1245117188
 40
0.125
 40
0.1254882812
 40
0.1259765625
 40
0.126953125
 40
0.1279296875
 40
0.12890625
 40
0.130859375
 40
0.1328125
 40
0.13671875
 40
0.140625
 40
0.14453125
 40
0.1484375
 40
0.15625
 40
0.1640625
 40
0.16796875
 40
0.171875
 40
0.17578125
 40
0.1796875
 40
0.181640625
 40
0.18359375
 40
0.1845703125
 40
0.185546875
 40
0.1865234375
 40
0.1870117188
 40
0.1875
 40
0.1879882812
 40
0.1884765625
 40
0.189453125
 40
0.1904296875
 40
0.19140625
 40
0.193359375
 40
0.1953125
 40
0.19921875
 40
0.203125
 40
0.20703125
 40
0.2109375
 40
0.21875
 40
0.2265625
 40
0.23046875
 40
0.234375
 40
0.23828125
 40
0.2421875
 40
0.244140625
 40
0.24609375
 40
0.2470703125
 40
0.248046875
 40
0.2490234375
 40
0.2495117188
 40
0.25
 40
0.2504882812
 40
0.2509765625
 40
0.251953125
 40
0.2529296875
 40
0.25390625
 40
0.255859375
 40
0.2578125
 40
0.26171875
 40
0.265625
 40
0.26953125
 40
0.2734375
 40
0.28125
 40
0.2890625
 40
0.29296875
 40
0.296875
 40
0.30078125
 40
0.3046875
 40
0.306640625
 40
0.30859375
 40
0.3095703125
 40
0.310546875
 40
0.3115234375
 40
0.3120117188
 40
0.3125
 40
0.3129882812
 40
0.3134765625
 40
0.314453125
 40
0.3154296875
 40
0.31640625
 40
0.318359375
 40
0.3203125
 40
0.32421875
 40
0.328125
 40
0.33203125
 40
0.3359375
 40
0.34375
 40
0.3515625
 40
0.35546875
 40
0.359375
 40
0.36328125
 40
0.3671875
 40
0.369140625
 40
0.37109375
 40
0.3720703125
 40
0.373046875
 40
0.3740234375
 40
0.3745117188
 40
0.375
 40
0.3754882812
 40
0.3759765625
 40
0.376953125
 40
0.3779296875
 40
0.37890625
 40
0.380859375
 40
0.3828125
 40
0.38671875
 40
0.390625
 40
0.39453125
 40
0.3984375
 40
0.40625
 40
0.4140625
 40
0.41796875
 40
0.421875
 40
0.42578125
 40
0.4296875
 40
0.431640625
 40
0.43359375
 40
0.4345703125
 40
0.435546875
 40
0.4365234375
 40
0.4370117188
 40
0.4375
 40
0.4379882812
 40
0.4384765625
 40
0.439453125
 40
0.4404296875
 40
0.44140625
 40
0.443359375
 40
0.4453125
 40
0.44921875
 40
0.453125
 40
0.45703125
 40
0.4609375
 40
0.46875
 40
0.4765625
 40
0.48046875
 40
0.484375
 40
0.48828125
 40
0.4921875
 40
0.494140625
 40
0.49609375
 40
0.4970703125
 40
0.498046875
 40
0.4990234375
 40
0.4995117188
 40
0.5
 40
0.5004882812
 40
0.5009765625
 40
0.501953125
 40
0.5029296875
 40
0.50390625
 40
0.505859375
 40
0.5078125
 40
0.51171875
 40
0.515625
 40
0.51953125
 40
0.5234375
 40
0.53125
 40
0.5390625
 40
0.54296875
 40
0.546875
 40
0.55078125
 40
0.5546875
 40
0.556640625
 40
0.55859375
 40
0.560546875
 40
0.5615234375
 40
0.5620117188
 40
0.5625
 40
0.5629882812
 40
0.5634765625
 40
0.564453125
 40
0.56640625
 40
0.568359375
 40
0.5703125
 40
0.57421875
 40
0.578125
 40
0.58203125
 40
0.5859375
 40
0.59375
 40
0.6015625
 40
0.60546875
 40
0.609375
 40
0.61328125
 40
0.6171875
 40
0.619140625
 40
0.62109375
 40
0.623046875
 40
0.6240234375
 40
0.6245117188
 40
0.625
 40
0.6254882812
 40
0.6259765625
 40
0.626953125
 40
0.62890625
 40
0.630859375
 40
0.6328125
 40
0.63671875
 40
0.640625
 40
0.64453125
 40
0.6484375
 40
0.65625
 40
0.6640625
 40
0.66796875
 40
0.671875
 40
0.67578125
 40
0.6796875
 40
0.681640625
 40
0.68359375
 40
0.685546875
 40
0.6865234375
 40
0.6870117188
 40
0.6875
 40
0.6879882812
 40
0.6884765625
 40
0.689453125
 40
0.69140625
 40
0.693359375
 40
0.6953125
 40
0.69921875
 40
0.703125
 40
0.70703125
 40
0.7109375
 40
0.71875
 40
0.7265625
 40
0.73046875
 40
0.734375
 40
0.73828125
 40
0.7421875
 40
0.744140625
 40
0.74609375
 40
0.748046875
 40
0.7490234375
 40
0.7495117188
 40
0.75
 40
0.7504882812
 40
0.7509765625
 40
0.751953125
 40
0.75390625
 40
0.755859375
 40
0.7578125
 40
0.76171875
 40
0.765625
 40
0.76953125
 40
0.7734375
 40
0.78125
 40
0.7890625
 40
0.79296875
 40
0.796875
 40
0.80078125
 40
0.8046875
 40
0.806640625
 40
0.80859375
 40
0.810546875
 40
0.8115234375
 40
0.8120117188
 40
0.8125
 40
0.8129882812
 40
0.8134765625
 40
0.814453125
 40
0.81640625
 40
0.818359375
 40
0.8203125
 40
0.82421875
 40
0.828125
 40
0.83203125
 40
0.8359375
 40
0.84375
 40
0.8515625
 40
0.85546875
 40
0.859375
 40
0.86328125
 40
0.8671875
 40
0.869140625
 40
0.87109375
 40
0.873046875
 40
0.8740234375
 40
0.8745117188
 40
0.875
 40
0.8754882812
 40
0.8759765625
 40
0.876953125
 40
0.87890625
 40
0.880859375
 40
0.8828125
 40
0.88671875
 40
0.890625
 40
0.89453125
 40
0.8984375
 40
0.90625
 40
0.9140625
 40
0.91796875
 40
0.921875
 40
0.92578125
 40
0.9296875
 40
0.931640625
 40
0.93359375
 40
0.935546875
 40
0.9365234375
 40
0.9370117188
 40
0.9375
 40
0.9379882812
 40
0.9384765625
 40
0.939453125
 40
0.94140625
 40
0.943359375
 40
0.9453125
 40
0.94921875
 40
0.953125
 40
0.95703125
 40
0.9609375
 40
0.96875
 40
0.9765625
 40
0.984375
 40
1.0
 40
1.0
 40
1.0
 40
1.0
 10
11.2002328131
 20
8.7099890579
 30
0.0
 10
11.1970996261
 20
8.7098991335
 30
0.0
 10
11.1923998458
 20
8.7097642469
 30
0.0
 10
11.1861334719
 20
8.709584398
 30
0.0
 10
11.1814336915
 20
8.7094495115
 30
0.0
 10
11.177517208
 20
8.7093371056
 30
0.0
 10
11.1743840209
 20
8.7092471821
 30
0.0
 10
11.1720341312
 20
8.7091797359
 30
0.0
 10
11.169684239
 20
8.7091123032
 30
0.0
 10
11.1677260036
 20
8.7090560676
 30
0.0
 10
11.1661593971
 20
8.7090111723
 30
0.0
 10
11.1651803094
 20
8.7089829008
 30
0.0
 10
11.1643969444
 20
8.7089607689
 30
0.0
 10
11.1638096803
 20
8.7089428412
 30
0.0
 10
11.1633194679
 20
8.7089321283
 30
0.0
 10
11.1629291496
 20
8.7089140781
 30
0.0
 10
11.1626313513
 20
8.7089264438
 30
0.0
 10
11.1623528653
 20
8.7088399362
 30
0.0
 10
11.1619748047
 20
8.7087591305
 30
0.0
 10
11.1615045434
 20
8.7086462736
 30
0.0
 10
11.1609392391
 20
8.7085159174
 30
0.0
 10
11.1601858461
 20
8.7083403376
 30
0.0
 10
11.1592439864
 20
8.7081214694
 30
0.0
 10
11.157737077
 20
8.7077709413
 30
0.0
 10
11.1558534176
 20
8.7073328975
 30
0.0
 10
11.1535930361
 20
8.7068071951
 30
0.0
 10
11.1513326519
 20
8.706281506
 30
0.0
 10
11.1483188073
 20
8.7055805825
 30
0.0
 10
11.1445515012
 20
8.7047044299
 30
0.0
 10
11.1407841954
 20
8.7038282761
 30
0.0
 10
11.1377703502
 20
8.7031273545
 30
0.0
 10
11.1355099677
 20
8.7026016599
 30
0.0
 10
11.13324958
 20
8.702075978
 30
0.0
 10
11.1313659396
 20
8.7016378701
 30
0.0
 10
11.1298589916
 20
8.7012874728
 30
0.0
 10
11.1289172303
 20
8.7010682718
 30
0.0
 10
11.1281636353
 20
8.7008933751
 30
0.0
 10
11.1275989482
 20
8.7007609319
 30
0.0
 10
11.1271267559
 20
8.7006546047
 30
0.0
 10
11.1267526348
 20
8.7005604773
 30
0.0
 10
11.1264621176
 20
8.7005146532
 30
0.0
 10
11.1262094893
 20
8.7003742762
 30
0.0
 10
11.1258594166
 20
8.7002201354
 30
0.0
 10
11.1254263665
 20
8.7000161274
 30
0.0
 10
11.1249047628
 20
8.6997761683
 30
0.0
 10
11.12420997
 20
8.6994545287
 30
0.0
 10
11.1233412466
 20
8.6990530593
 30
0.0
 10
11.1219514191
 20
8.698410384
 30
0.0
 10
11.1202140901
 20
8.6976071511
 30
0.0
 10
11.1181293145
 20
8.696643224
 30
0.0
 10
11.1160445337
 20
8.6956793096
 30
0.0
 10
11.1132648278
 20
8.6943940859
 30
0.0
 10
11.1097901947
 20
8.692787558
 30
0.0
 10
11.1063155621
 20
8.691181029
 30
0.0
 10
11.1035358554
 20
8.6898958072
 30
0.0
 10
11.1014510771
 20
8.6889318875
 30
0.0
 10
11.0993662922
 20
8.6879679803
 30
0.0
 10
11.0976289919
 20
8.6871646853
 30
0.0
 10
11.0962391059
 20
8.6865221366
 30
0.0
 10
11.0953705312
 20
8.6861203451
 30
0.0
 10
11.0946754331
 20
8.6857993665
 30
0.0
 10
11.0941547622
 20
8.685557388
 30
0.0
 10
11.0937187936
 20
8.6853596984
 30
0.0
 10
11.0933746753
 20
8.6851926669
 30
0.0
 10
11.0931038625
 20
8.6850916572
 30
0.0
 10
11.0928816177
 20
8.6848980321
 30
0.0
 10
11.0925683259
 20
8.684672217
 30
0.0
 10
11.0921825319
 20
8.6843788485
 30
0.0
 10
11.0917170877
 20
8.6840315573
 30
0.0
 10
11.0910973656
 20
8.6835668429
 30
0.0
 10
11.090322415
 20
8.6829865182
 30
0.0
 10
11.0890826605
 20
8.6820576809
 30
0.0
 10
11.0875329103
 20
8.6808967434
 30
0.0
 10
11.0856732346
 20
8.6795035717
 30
0.0
 10
11.0838135523
 20
8.6781104124
 30
0.0
 10
11.0813339782
 20
8.6762528624
 30
0.0
 10
11.0782345097
 20
8.6739309264
 30
0.0
 10
11.0751350419
 20
8.6716089895
 30
0.0
 10
11.0726554667
 20
8.669751441
 30
0.0
 10
11.070795788
 20
8.6683582771
 30
0.0
 10
11.0689360987
 20
8.6669651228
 30
0.0
 10
11.0673863905
 20
8.6658041311
 30
0.0
 10
11.0661465505
 20
8.6648754043
 30
0.0
 10
11.0653718175
 20
8.6642947986
 30
0.0
 10
11.0647516488
 20
8.6638306608
 30
0.0
 10
11.0642875689
 20
8.6634816081
 30
0.0
 10
11.0638975061
 20
8.6631937511
 30
0.0
 10
11.0635929235
 20
8.6629566915
 30
0.0
 10
11.0633440815
 20
8.6627974065
 30
0.0
 10
11.0631731259
 20
8.6625674698
 30
0.0
 10
11.0629179785
 20
8.6622855671
 30
0.0
 10
11.0626083786
 20
8.6619247213
 30
0.0
 10
11.0622328633
 20
8.6614953307
 30
0.0
 10
11.0617335718
 20
8.6609215439
 30
0.0
 10
11.0611089796
 20
8.6602047439
 30
0.0
 10
11.0601098991
 20
8.6590576217
 30
0.0
 10
11.0588609569
 20
8.657623802
 30
0.0
 10
11.0573622655
 20
8.6559031828
 30
0.0
 10
11.0558635636
 20
8.6541825731
 30
0.0
 10
11.0538652981
 20
8.6518884235
 30
0.0
 10
11.0513674648
 20
8.6490207378
 30
0.0
 10
11.0488696324
 20
8.6461530512
 30
0.0
 10
11.0468713654
 20
8.6438589029
 30
0.0
 10
11.045372668
 20
8.6421382894
 30
0.0
 10
11.0438739595
 20
8.6404176843
 30
0.0
 10
11.0426250705
 20
8.6389838209
 30
0.0
 10
11.0416258815
 20
8.6378367877
 30
0.0
 10
11.0410015654
 20
8.6371197612
 30
0.0
 10
11.0405017071
 20
8.6365464395
 30
0.0
 10
11.0401279236
 20
8.636115628
 30
0.0
 10
11.0398129054
 20
8.6357592278
 30
0.0
 10
11.0395688125
 20
8.6354682552
 30
0.0
 10
11.0393640969
 20
8.6352660175
 30
0.0
 10
11.0392420041
 20
8.6350027389
 30
0.0
 10
11.0390503524
 20
8.6346730231
 30
0.0
 10
11.03882069
 20
8.6342535627
 30
0.0
 10
11.0385408567
 20
8.6337533416
 30
0.0
 10
11.038169226
 20
8.6330852864
 30
0.0
 10
11.0377041807
 20
8.6322505919
 30
0.0
 10
11.0369603915
 20
8.6309148713
 30
0.0
 10
11.0360305579
 20
8.6292452925
 30
0.0
 10
11.0349147991
 20
8.6272417671
 30
0.0
 10
11.0337990293
 20
8.62523825
 30
0.0
 10
11.03231134
 20
8.6225668909
 30
0.0
 10
11.030451727
 20
8.6192276931
 30
0.0
 10
11.028592115
 20
8.6158884946
 30
0.0
 10
11.0271044241
 20
8.6132171365
 30
0.0
 10
11.0259886592
 20
8.6112136164
 30
0.0
 10
11.0248728819
 20
8.6092101022
 30
0.0
 10
11.0239431061
 20
8.6075404884
 30
0.0
 10
11.023199199
 20
8.6062048393
 30
0.0
 10
11.0227344538
 20
8.605369963
 30
0.0
 10
11.0223622071
 20
8.6047022808
 30
0.0
 10
11.0220842556
 20
8.6042009202
 30
0.0
 10
11.0218487054
 20
8.6037850252
 30
0.0
 10
11.0216690661
 20
8.6034480354
 30
0.0
 10
11.0215102883
 20
8.6032069711
 30
0.0
 10
11.0214433031
 20
8.6029213314
 30
0.0
 10
11.0213219252
 20
8.6025560493
 30
0.0
 10
11.0211812038
 20
8.6020941044
 30
0.0
 10
11.0210076294
 20
8.6015420572
 30
0.0
 10
11.0207778416
 20
8.6008051955
 30
0.0
 10
11.0204900436
 20
8.5998843919
 30
0.0
 10
11.0200298816
 20
8.5984109534
 30
0.0
 10
11.0194545711
 20
8.5965692076
 30
0.0
 10
11.0187642447
 20
8.5943590902
 30
0.0
 10
11.018073906
 20
8.5921489788
 30
0.0
 10
11.0171534588
 20
8.5892021615
 30
0.0
 10
11.0160028981
 20
8.5855186406
 30
0.0
 10
11.0148523385
 20
8.5818351193
 30
0.0
 10
11.0139318894
 20
8.5788883027
 30
0.0
 10
11.0132415561
 20
8.5766781891
 30
0.0
 10
11.0125512096
 20
8.5744680802
 30
0.0
 10
11.0119759618
 20
8.5726263079
 30
0.0
 10
11.0115156719
 20
8.5711529234
 30
0.0
 10
11.0112281995
 20
8.570231982
 30
0.0
 10
11.0109977433
 20
8.5694954033
 30
0.0
 10
11.0108262107
 20
8.5689424918
 30
0.0
 10
11.010679101
 20
8.5684832508
 30
0.0
 10
11.0105707566
 20
8.5681124522
 30
0.0
 10
11.0104639678
 20
8.5678436596
 30
0.0
 10
11.0104546291
 20
8.5675393445
 30
0.0
 10
11.0104081369
 20
8.5671459994
 30
0.0
 10
11.0103617008
 20
8.5666500607
 30
0.0
 10
11.0103009785
 20
8.5660567566
 30
0.0
 10
11.0102217614
 20
8.565265048
 30
0.0
 10
11.0101221422
 20
8.5642756302
 30
0.0
 10
11.0099630856
 20
8.5626924398
 30
0.0
 10
11.0097641502
 20
8.5607134937
 30
0.0
 10
11.0095254769
 20
8.5583387404
 30
0.0
 10
11.0092867904
 20
8.5559639919
 30
0.0
 10
11.0089685464
 20
8.5527976589
 30
0.0
 10
11.0085707397
 20
8.5488397433
 30
0.0
 10
11.0081729341
 20
8.5448818274
 30
0.0
 10
11.0078546882
 20
8.5417154947
 30
0.0
 10
11.0076160074
 20
8.5393407453
 30
0.0
 10
11.0073773129
 20
8.5369659956
 30
0.0
 10
11.0071784434
 20
8.5349870383
 30
0.0
 10
11.0070192525
 20
8.5334038707
 30
0.0
 10
11.0069199751
 20
8.532414395
 30
0.0
 10
11.0068400564
 20
8.5316228051
 30
0.0
 10
11.0067814775
 20
8.5310291384
 30
0.0
 10
11.0067283351
 20
8.5305343342
 30
0.0
 10
11.0066955252
 20
8.5301386746
 30
0.0
 10
11.0066444015
 20
8.5298414279
 30
0.0
 10
11.0066944908
 20
8.5295460973
 30
0.0
 10
11.0067259215
 20
8.5291516538
 30
0.0
 10
11.0067773401
 20
8.5286588291
 30
0.0
 10
11.0068338502
 20
8.5280673411
 30
0.0
 10
11.0069110106
 20
8.5272787249
 30
0.0
 10
11.0070068401
 20
8.5262929428
 30
0.0
 10
11.0071605143
 20
8.524715698
 30
0.0
 10
11.0073524881
 20
8.5227441398
 30
0.0
 10
11.0075829076
 20
8.5203782709
 30
0.0
 10
11.0078133135
 20
8.5180124018
 30
0.0
 10
11.008120526
 20
8.5148579097
 30
0.0
 10
11.0085045406
 20
8.5109147946
 30
0.0
 10
11.0088885537
 20
8.5069716792
 30
0.0
 10
11.0091957687
 20
8.5038171875
 30
0.0
 10
11.0094261672
 20
8.5014513171
 30
0.0
 10
11.0096566144
 20
8.499085453
 30
0.0
 10
11.0098485019
 20
8.49711388
 30
0.0
 10
11.010002352
 20
8.4955366654
 30
0.0
 10
11.0101168105
 20
8.4943536348
 30
0.0
 10
11.0102151479
 20
8.4933681563
 30
0.0
 10
11.0102781843
 20
8.4926775752
 30
0.0
 10
11.0103232609
 20
8.4922841224
 30
0.0
 10
11.0103315582
 20
8.4919857509
 30
0.0
 10
11.0104373682
 20
8.4916999248
 30
0.0
 10
11.0105444348
 20
8.4913144474
 30
0.0
 10
11.0107476488
 20
8.4906419009
 30
0.0
 10
11.0110296693
 20
8.4896800541
 30
0.0
 10
11.0113716402
 20
8.4885262942
 30
0.0
 10
11.0118263627
 20
8.4869877883
 30
0.0
 10
11.0123951908
 20
8.4850647107
 30
0.0
 10
11.0130776023
 20
8.4827569941
 30
0.0
 10
11.0137600627
 20
8.4804492837
 30
0.0
 10
11.0146699926
 20
8.4773723344
 30
0.0
 10
11.0158074115
 20
8.4735261486
 30
0.0
 10
11.0169448262
 20
8.4696799619
 30
0.0
 10
11.0178547628
 20
8.4666030141
 30
0.0
 10
11.0185372032
 20
8.4642952991
 30
0.0
 10
11.0192196895
 20
8.4619875999
 30
0.0
 10
11.019788285
 20
8.4600644681
 30
0.0
 10
11.0202434819
 20
8.4585260726
 30
0.0
 10
11.0205840039
 20
8.4573719757
 30
0.0
 10
11.0208705576
 20
8.4564111832
 30
0.0
 10
11.021065679
 20
8.4557367546
 30
0.0
 10
11.021185712
 20
8.4553542927
 30
0.0
 10
11.0212516934
 20
8.4550592039
 30
0.0
 10
11.0214095803
 20
8.454795622
 30
0.0
 10
11.0215880386
 20
8.4544331895
 30
0.0
 10
11.0219152767
 20
8.4538040531
 30
0.0
 10
11.022374951
 20
8.4529026098
 30
0.0
 10
11.0229299025
 20
8.4518220237
 30
0.0
 10
11.0236686703
 20
8.450380842
 30
0.0
 10
11.0245925307
 20
8.4485795021
 30
0.0
 10
11.0257009915
 20
8.4464178355
 30
0.0
 10
11.0268094982
 20
8.4442561845
 30
0.0
 10
11.028287491
 20
8.4413739778
 30
0.0
 10
11.0301349881
 20
8.4377712215
 30
0.0
 10
11.0319824811
 20
8.4341684635
 30
0.0
 10
11.0334604803
 20
8.4312862594
 30
0.0
 10
11.034568968
 20
8.4291246007
 30
0.0
 10
11.0356775002
 20
8.4269629632
 30
0.0
 10
11.0366011382
 20
8.4251615326
 30
0.0
 10
11.0373403597
 20
8.4237205359
 30
0.0
 10
11.0378939256
 20
8.4226393847
 30
0.0
 10
11.0383579349
 20
8.4217397094
 30
0.0
 10
11.0386774344
 20
8.4211074168
 30
0.0
 10
11.0388682919
 20
8.4207500414
 30
0.0
 10
11.0389880922
 20
8.4204709257
 30
0.0
 10
11.0391971204
 20
8.4202341795
 30
0.0
 10
11.0394447009
 20
8.419903739
 30
0.0
 10
11.039892468
 20
8.4193323538
 30
0.0
 10
11.0405245539
 20
8.4185124894
 30
0.0
 10
11.041286302
 20
8.4175301929
 30
0.0
 10
11.0423008326
 20
8.4162199261
 30
0.0
 10
11.0435693849
 20
8.4145822773
 30
0.0
 10
11.0450914808
 20
8.4126170195
 30
0.0
 10
11.0466136214
 20
8.4106517829
 30
0.0
 10
11.0486431266
 20
8.4080314599
 30
0.0
 10
11.0511800137
 20
8.4047560592
 30
0.0
 10
11.0537168975
 20
8.401480656
 30
0.0
 10
11.055746408
 20
8.3988603371
 30
0.0
 10
11.0572685324
 20
8.3968950883
 30
0.0
 10
11.0587906893
 20
8.3949298762
 30
0.0
 10
11.0600590518
 20
8.3932920852
 30
0.0
 10
11.0610739694
 20
8.3919821083
 30
0.0
 10
11.0618345359
 20
8.3909989267
 30
0.0
 10
11.0624703185
 20
8.3901818316
 30
0.0
 10
11.0629114864
 20
8.3896055027
 30
0.0
 10
11.0631696405
 20
8.3892829833
 30
0.0
 10
11.0633461899
 20
8.3890219059
 30
0.0
 10
11.0635879753
 20
8.3888341741
 30
0.0
 10
11.0638876008
 20
8.3885582812
 30
0.0
 10
11.0644225474
 20
8.3880873887
 30
0.0
 10
11.065181214
 20
8.3874084531
 30
0.0
 10
11.0660939865
 20
8.386596398
 30
0.0
 10
11.0673101876
 20
8.3855127259
 30
0.0
 10
11.0688307235
 20
8.3841584557
 30
0.0
 10
11.0706552446
 20
8.3825331942
 30
0.0
 10
11.0724797984
 20
8.3809079695
 30
0.0
 10
11.0749125252
 20
8.3787409903
 30
0.0
 10
11.0779534381
 20
8.3760322712
 30
0.0
 10
11.0809943483
 20
8.3733235487
 30
0.0
 10
11.0834270794
 20
8.3711565749
 30
0.0
 10
11.0852516204
 20
8.3695313341
 30
0.0
 10
11.0870761892
 20
8.3679061328
 30
0.0
 10
11.088596577
 20
8.3665516757
 30
0.0
 10
11.0898130801
 20
8.3654683847
 30
0.0
 10
11.0907249305
 20
8.3646551659
 30
0.0
 10
11.0914864818
 20
8.3639798709
 30
0.0
 10
11.0920162787
 20
8.3635024794
 30
0.0
 10
11.0923241553
 20
8.3632369994
 30
0.0
 10
11.092540596
 20
8.3630172826
 30
0.0
 10
11.0928123359
 20
8.3628763356
 30
0.0
 10
11.0931553667
 20
8.3626609304
 30
0.0
 10
11.0937646578
 20
8.3622967729
 30
0.0
 10
11.094630375
 20
8.3617698552
 30
0.0
 10
11.0956712468
 20
8.3611404186
 30
0.0
 10
11.0970583734
 20
8.3603001691
 30
0.0
 10
11.0987925227
 20
8.3592502007
 30
0.0
 10
11.1008733985
 20
8.3579900913
 30
0.0
 10
11.1029543019
 20
8.3567300213
 30
0.0
 10
11.1057288301
 20
8.3550499142
 30
0.0
 10
11.109196994
 20
8.3529497856
 30
0.0
 10
11.1126651558
 20
8.3508496532
 30
0.0
 10
11.1154396873
 20
8.349169552
 30
0.0
 10
11.1175205809
 20
8.3479094644
 30
0.0
 10
11.1196014936
 20
8.3466494213
 30
0.0
 10
11.121335528
 20
8.3455992466
 30
0.0
 10
11.1227228888
 20
8.3447594177
 30
0.0
 10
11.1237630454
 20
8.3441286968
 30
0.0
 10
11.1246310003
 20
8.3436057971
 30
0.0
 10
11.1252362967
 20
8.3432344667
 30
0.0
 10
11.125585728
 20
8.3430305544
 30
0.0
 10
11.1258378077
 20
8.3428543049
 30
0.0
 10
11.1261280887
 20
8.3427671786
 30
0.0
 10
11.1265018049
 20
8.3426199231
 30
0.0
 10
11.1271620167
 20
8.3423767101
 30
0.0
 10
11.1281019307
 20
8.3420216905
 30
0.0
 10
11.1292312167
 20
8.3415989082
 30
0.0
 10
11.1307364461
 20
8.3410340662
 30
0.0
 10
11.1326181494
 20
8.3403284023
 30
0.0
 10
11.134876122
 20
8.339481439
 30
0.0
 10
11.1371341136
 20
8.3386345203
 30
0.0
 10
11.1401447625
 20
8.3375052798
 30
0.0
 10
11.143908076
 20
8.336093735
 30
0.0
 10
11.147671388
 20
8.3346821861
 30
0.0
 10
11.1506820392
 20
8.333552952
 30
0.0
 10
11.1529400238
 20
8.3327060139
 30
0.0
 10
11.1551980228
 20
8.3318591235
 30
0.0
 10
11.1570796438
 20
8.3311532329
 30
0.0
 10
11.158585041
 20
8.3305888533
 30
0.0
 10
11.1597138148
 20
8.3301646592
 30
0.0
 10
11.1606553312
 20
8.3298140565
 30
0.0
 10
11.1613126823
 20
8.3295629585
 30
0.0
 10
11.1616909822
 20
8.3294283367
 30
0.0
 10
11.1619671837
 20
8.3293024038
 30
0.0
 10
11.1622721436
 20
8.3292719055
 30
0.0
 10
11.1626687255
 20
8.3291979525
 30
0.0
 10
11.1633674176
 20
8.3290840444
 30
0.0
 10
11.1643631058
 20
8.32891321
 30
0.0
 10
11.1655589774
 20
8.3287116794
 30
0.0
 10
11.1671531076
 20
8.3284417596
 30
0.0
 10
11.1691458957
 20
8.3281047759
 30
0.0
 10
11.1715371877
 20
8.3277002171
 30
0.0
 10
11.173928494
 20
8.3272957059
 30
0.0
 10
11.1771168975
 20
8.3267563411
 30
0.0
 10
11.1811024035
 20
8.3260821408
 30
0.0
 10
11.18588501
 20
8.325273098
 30
0.0
 10
11.1922618189
 20
8.3241943751
 30
0.0
 10
11.1970444256
 20
8.3233853328
 30
0.0
 10
11.20023283
 20
8.3228459712
 30
0.0
  0
ENDSEC
  0
SECTION
  2
OBJECTS
  0
DICTIONARY
  5
C
100
AcDbDictionary
280
0
281
1
  3
ACAD_GROUP
350
D
  3
ACAD_MLINESTYLE
350
17
  3
ACAD_LAYOUT
350
1A
  3
ACAD_PLOTSETTINGS
350
19
  3
ACAD_PLOTSTYLENAME
350
E
  3
ACAD_IMAGE_DICT
350
       3BC
  3
ACAD_IMAGE_VARS
350
       3BD
  3
ACAD_TABLESTYLE
350
       3BE
  0
IMAGEDEF_REACTOR
  5
3BB
100
AcDbRasterImageDefReactor
 90
2
330
28F
  0
DICTIONARY
  5
D
102
{ACAD_REACTORS
330
C
102
}
100
AcDbDictionary
280
0
281
1
  0
ACDBDICTIONARYWDFLT
  5
E
102
{ACAD_REACTORS
330
C
102
}
100
AcDbDictionary
281
1
  3
Normal
350
F
100
AcDbDictionaryWithDefault
340
F
  0
DICTIONARY
  5
3BC
330
C
100
AcDbDictionary
281
1
  3
B3L_assy_2_img_1
350
       3C1
  0
RASTERVARIABLES
  5
3BD
330
C
100
AcDbRasterVariables
 90
0
 70
0
 71
1
 72
5
  0
DICTIONARY
  5
17
102
{ACAD_REACTORS
330
C
102
}
100
AcDbDictionary
280
0
281
1
  3
Standard
350
18
  0
DICTIONARY
  5
3BE
330
C
100
AcDbDictionary
281
1
  3
Standard
350
       3C2
  3
Standard1
350
       3C3
  0
DICTIONARY
  5
19
102
{ACAD_REACTORS
330
C
102
}
100
AcDbDictionary
281
1
  0
DICTIONARY
  5
1A
102
{ACAD_REACTORS
330
C
102
}
100
AcDbDictionary
281
1
  3
Model
350
3BF
  3
Layout1
350
3C0
  0
ACDBPLACEHOLDER
  5
F
102
{ACAD_REACTORS
330
E
102
}
  0
MLINESTYLE
  5
18
102
{ACAD_REACTORS
330
17
102
}
100
AcDbMlineStyle
  2
STANDARD
 70
0
  3

 62
256
 51
90.0
 52
90.0
 71
2
 49
0.5
 62
256
  6
BYLAYER
 49
-0.5
 62
256
  6
BYLAYER
  0
LAYOUT
  5
3BF
102
{ACAD_REACTORS
330
1A
102
}
100
AcDbPlotSettings
  1

  2
none_device
  4
ANSI_C_(22.00_x_17.00_Inches)
  6

 40
0.0
 41
0.0
 42
0.0
 43
0.0
 44
558.8
 45
431.8
 46
0.0
 47
0.0
 48
0.0
 49
0.0
140
0.0
141
0.0
142
1.0
143
1.0
 70
1024
 72
0
 73
0
 74
0
  7

 75
0
147
1.0
148
0.0
149
0.0
100
AcDbLayout
  1
Model
 70
0
 71
0
 10
0.0
 20
0.0
 11
22.0
 21
17.0
 12
0.0
 22
0.0
 32
0.0
 14
0.0
 24
0.0
 34
0.0
 15
0.0
 25
0.0
 35
0.0
146
0.0
 13
0.0
 23
0.0
 33
0.0
 16
1.0
 26
0.0
 36
0.0
 17
0.0
 27
1.0
 37
0.0
 76
0
330
20C
345
0
346
0
  0
LAYOUT
  5
3C0
102
{ACAD_REACTORS
330
1A
102
}
100
AcDbPlotSettings
  1

  2
none_device
  4
ANSI_C_(22.00_x_17.00_Inches)
  6

 40
0.0
 41
0.0
 42
0.0
 43
0.0
 44
558.8
 45
431.8
 46
0.0
 47
0.0
 48
0.0
 49
0.0
140
0.0
141
0.0
142
1.0
143
1.0
 70
0
 72
0
 73
0
 74
0
  7

 75
0
147
1.0
148
0.0
149
0.0
100
AcDbLayout
  1
Layout1
 70
0
 71
1
 10
0.0
 20
0.0
 11
22.0
 21
17.0
 12
0.0
 22
0.0
 32
0.0
 14
0.0
 24
0.0
 34
0.0
 15
0.0
 25
0.0
 35
0.0
146
0.0
 13
0.0
 23
0.0
 33
0.0
 16
1.0
 26
0.0
 36
0.0
 17
0.0
 27
1.0
 37
0.0
 76
0
330
20D
345
0
346
0
  0
IMAGEDEF
  5
3C1
102
{ACAD_REACTORS
330
3BC
330
3BB
102
}
100
AcDbRasterImageDef
 90
0
  1
B3L_assy_2_img_1.png
 10
369.0
 20
92.0
 11
0.0066666667
 21
0.0066666667
280
1
281
0
  0
TABLESTYLE
  5
3C2
102
{ACAD_REACTORS
330
3BE
330
292
330
293
102
}
330
3BE
100
AcDbTableStyle
  3
Standard
 70
0
 71
0
 40
0.06
 41
0.06
280
1
281
1
  7
Standard
140
0.18
170
1
 62
0
 63
7
283
0
  7
Standard
140
0.18
170
1
 62
0
 63
7
283
0
  7
Standard
140
0.18
170
1
 62
0
 63
7
283
0
  0
TABLESTYLE
  5
3C3
102
{ACAD_REACTORS
330
3BE
330
291
102
}
330
3BE
100
AcDbTableStyle
  3
Standard1
 70
1
 71
0
 40
0.06
 41
0.06
280
1
281
1
  7
Standard
140
0.18
170
1
 62
0
 63
7
283
0
  7
Standard
140
0.18
170
1
 62
0
 63
7
283
0
  7
Standard
140
0.18
170
1
 62
0
 63
7
283
0
  0
ENDSEC
  0
EOF
