999
DXF file: B3K_assy_2.dxf
999
Pro/ENGINEER 2014200 by Parametric Technology Corporation
  0
SECTION
  2
HEADER
  9
$ACADVER
  1
AC1021
  9
$DWGCODEPAGE
  3
ANSI_1252
  9
$EXTMAX
 10
22.0
 20
17.0
 30
0.0
  9
$EXTMIN
 10
0.0
 20
0.0
 30
0.0
  9
$LIMMIN
 10
0.0
 20
0.0
  9
$LIMMAX
 10
22.0
 20
17.0
  9
$VIEWCTR
 10
11.0
 20
8.5
  9
$VIEWSIZE
 40
17.0
  9
$CLAYER
  8
0
  9
$LTSCALE
 40
1.21
  9
$CELTYPE
  6
BYLAYER
  9
$DIMSCALE
 40
1.0
  9
$DIMASZ
 40
0.1875
  9
$DIMEXO
 40
0.0625
  9
$DIMDLI
 40
0.836
  9
$DIMEXE
 40
0.125
  9
$DIMCEN
 40
0.198
  9
$DIMLFAC
 40
1.0
  9
$DIMBLK
  1
_FILLED
  9
$DIMTXT
 40
0.1
  9
$DIMTOL
 70
0
  9
$DIMLIM
 70
0
  9
$DIMTFAC
 40
1.0
  9
$DIMGAP
 40
0.09
  9
$DIMDSEP
 70
46
  9
$AUNITS
 70
0
  9
$PDMODE
 70
3
  9
$PDSIZE
 40
0.3125
  9
$HANDSEED
  5
3CA
  9
$TILEMODE
 70
1
  9
$MEASUREMENT
 70
0
  9
$INSUNITS
 70
1
  0
ENDSEC
  0
SECTION
  2
CLASSES
  0
CLASS
  1
ACDBDICTIONARYWDFLT
  2
AcDbDictionaryWithDefault
  3
AutoCAD 2000
 90
0
 91
1
280
0
281
0
  0
CLASS
  1
ACDBPLACEHOLDER
  2
AcDbPlaceHolder
  3
AutoCAD 2000
 90
0
 91
1
280
0
281
0
  0
CLASS
  1
LAYOUT
  2
AcDbLayout
  3
AutoCAD 2000
 90
0
 91
0
280
0
281
0
  0
CLASS
  1
RASTERVARIABLES
  2
AcDbRasterVariables
  3
ISM
 90
0
 91
1
280
0
281
0
  0
CLASS
  1
IMAGEDEF
  2
AcDbRasterImageDef
  3
ISM
 90
0
 91
1
280
0
281
0
  0
CLASS
  1
IMAGEDEF_REACTOR
  2
AcDbRasterImageDefReactor
  3
ISM
 90
0
 91
1
280
0
281
0
  0
CLASS
  1
IMAGE
  2
AcDbRasterImage
  3
ISM
 90
127
 91
1
280
0
281
1
  0
CLASS
  1
TABLESTYLE
  2
AcDbTableStyle
  3
ObjectDBX Classes
 90
2047
 91
1
280
0
281
0
  0
CLASS
  1
ACAD_TABLE
  2
AcDbTable
  3
ObjectDBX Classes
 90
1025
 91
3
280
0
281
1
  0
ENDSEC
  0
SECTION
  2
TABLES
  0
TABLE
  2
VPORT
  5
8
100
AcDbSymbolTable
 70
2
  0
VPORT
  5
1F4
100
AcDbSymbolTableRecord
100
AcDbViewportTableRecord
  2
*ACTIVE
 70
0
 10
0.0
 20
0.0
 11
1.0
 21
1.0
 12
11.0
 22
8.5
 13
0.0
 23
0.0
 14
1.0
 24
1.0
 15
0.0
 25
0.0
 16
0.0
 26
0.0
 36
1.0
 17
0.0
 27
0.0
 37
0.0
 40
17.0
 41
1.2941176471
 42
50.0
 43
0.0
 44
0.0
 50
0.0
 51
0.0
 71
0
 72
100
 73
1
 74
1
 75
0
 76
0
 77
0
 78
0
  0
ENDTAB
  0
TABLE
  2
LTYPE
  5
5
100
AcDbSymbolTable
 70
6
  0
LTYPE
  5
14
100
AcDbSymbolTableRecord
100
AcDbLinetypeTableRecord
  2
BYBLOCK
 70
0
  3

 72
65
 73
0
 40
0.0
  0
LTYPE
  5
15
100
AcDbSymbolTableRecord
100
AcDbLinetypeTableRecord
  2
BYLAYER
 70
0
  3

 72
65
 73
0
 40
0.0
  0
LTYPE
  5
16
100
AcDbSymbolTableRecord
100
AcDbLinetypeTableRecord
  2
CONTINUOUS
 70
64
  3
Solid line
 72
65
 73
0
 40
0.0
  0
LTYPE
  5
1F5
100
AcDbSymbolTableRecord
100
AcDbLinetypeTableRecord
  2
CENTER
 70
64
  3
____ _ ____ _ ____ _ ____ _ ____ _ ____ _ ____
 72
65
 73
4
 40
0.6
 49
0.375
 74
0
 49
-0.075
 74
0
 49
0.075
 74
0
 49
-0.075
 74
0
  0
LTYPE
  5
1F6
100
AcDbSymbolTableRecord
100
AcDbLinetypeTableRecord
  2
HIDDEN
 70
64
  3
- - - - - - - - - - - - - - - - - - - -
 72
65
 73
2
 40
0.2
 49
0.1
 74
0
 49
-0.1
 74
0
  0
LTYPE
  5
1F7
100
AcDbSymbolTableRecord
100
AcDbLinetypeTableRecord
  2
PHANTOM
 70
64
  3
_____ _ _ _____ _ _ _____ _ _ _____
 72
65
 73
6
 40
0.8
 49
0.45
 74
0
 49
-0.05
 74
0
 49
0.1
 74
0
 49
-0.05
 74
0
 49
0.1
 74
0
 49
-0.05
 74
0
  0
LTYPE
  5
1F8
100
AcDbSymbolTableRecord
100
AcDbLinetypeTableRecord
  2
DOT
 70
64
  3
. . . . . . . . . . . . . . . . . . . .
 72
65
 73
2
 40
0.2
 49
0.1
 74
0
 49
-0.1
 74
0
  0
LTYPE
  5
1F9
100
AcDbSymbolTableRecord
100
AcDbLinetypeTableRecord
  2
DASHED
 70
64
  3
- - - - - - - - - - - - - - - - - - - -
 72
65
 73
2
 40
0.2
 49
0.1
 74
0
 49
-0.1
 74
0
  0
ENDTAB
  0
TABLE
  2
LAYER
  5
2
100
AcDbSymbolTable
 70
36
  0
LAYER
  5
10
100
AcDbSymbolTableRecord
100
AcDbLayerTableRecord
  2
0
 70
0
 62
7
  6
CONTINUOUS
370
-3
390
F
  0
LAYER
  5
1FA
100
AcDbSymbolTableRecord
100
AcDbLayerTableRecord
  2
DEFAULT_1
 70
0
 62
7
  6
CENTER
370
-3
390
F
  0
LAYER
  5
1FB
100
AcDbSymbolTableRecord
100
AcDbLayerTableRecord
  2
DEFAULT_2
 70
0
 62
8
  6
HIDDEN
370
-3
390
F
  0
LAYER
  5
1FC
100
AcDbSymbolTableRecord
100
AcDbLayerTableRecord
  2
DEFAULT_3
 70
0
 62
7
  6
PHANTOM
370
-3
390
F
  0
LAYER
  5
1FD
100
AcDbSymbolTableRecord
100
AcDbLayerTableRecord
  2
01___PRT_ALL_DTM_PLN
 70
0
 62
7
  6
CONTINUOUS
370
-3
390
F
  0
LAYER
  5
1FE
100
AcDbSymbolTableRecord
100
AcDbLayerTableRecord
  2
01___PRT_DEF_DTM_PLN
 70
0
 62
7
  6
CONTINUOUS
370
-3
390
F
  0
LAYER
  5
1FF
100
AcDbSymbolTableRecord
100
AcDbLayerTableRecord
  2
02___PRT_ALL_AXES
 70
0
 62
7
  6
CONTINUOUS
370
-3
390
F
  0
LAYER
  5
200
100
AcDbSymbolTableRecord
100
AcDbLayerTableRecord
  2
03___PRT_ALL_CURVES
 70
0
 62
7
  6
CONTINUOUS
370
-3
390
F
  0
LAYER
  5
201
100
AcDbSymbolTableRecord
100
AcDbLayerTableRecord
  2
04___PRT_ALL_DTM_PNT
 70
0
 62
7
  6
CONTINUOUS
370
-3
390
F
  0
LAYER
  5
202
100
AcDbSymbolTableRecord
100
AcDbLayerTableRecord
  2
05___PRT_ALL_DTM_CSYS
 70
0
 62
7
  6
CONTINUOUS
370
-3
390
F
  0
LAYER
  5
203
100
AcDbSymbolTableRecord
100
AcDbLayerTableRecord
  2
05___PRT_DEF_DTM_CSYS
 70
0
 62
7
  6
CONTINUOUS
370
-3
390
F
  0
LAYER
  5
204
100
AcDbSymbolTableRecord
100
AcDbLayerTableRecord
  2
06___PRT_ALL_SURFS
 70
0
 62
7
  6
CONTINUOUS
370
-3
390
F
  0
LAYER
  5
205
100
AcDbSymbolTableRecord
100
AcDbLayerTableRecord
  2
DATUM_PLANES
 70
0
 62
7
  6
CONTINUOUS
370
-3
390
F
  0
LAYER
  5
206
100
AcDbSymbolTableRecord
100
AcDbLayerTableRecord
  2
PORT_AREAS
 70
0
 62
7
  6
CONTINUOUS
370
-3
390
F
  0
LAYER
  5
207
100
AcDbSymbolTableRecord
100
AcDbLayerTableRecord
  2
SUNNBOMCOSMETIC
 70
0
 62
7
  6
CONTINUOUS
370
-3
390
F
  0
LAYER
  5
208
100
AcDbSymbolTableRecord
100
AcDbLayerTableRecord
  2
SUNNBOMSTAMPING
 70
0
 62
7
  6
CONTINUOUS
370
-3
390
F
  0
LAYER
  5
209
100
AcDbSymbolTableRecord
100
AcDbLayerTableRecord
  2
THREADS
 70
0
 62
7
  6
CONTINUOUS
370
-3
390
F
  0
ENDTAB
  0
TABLE
  2
STYLE
  5
3
100
AcDbSymbolTable
 70
1
  0
STYLE
  5
11
100
AcDbSymbolTableRecord
100
AcDbTextStyleTableRecord
  2
STANDARD
 70
0
 40
0.0
 41
0.8
 50
0.0
 71
0
 42
0.2
  3
txt
  4

  0
STYLE
  5
20A
100
AcDbSymbolTableRecord
100
AcDbTextStyleTableRecord
  2
TEXTSTYLE_1
 70
0
 40
0.0
 41
0.8
 50
0.0
 71
0
 42
0.2
  3
gdt
  4

  0
ENDTAB
  0
TABLE
  2
VIEW
  5
6
100
AcDbSymbolTable
 70
0
  0
ENDTAB
  0
TABLE
  2
UCS
  5
7
100
AcDbSymbolTable
 70
0
  0
ENDTAB
  0
TABLE
  2
APPID
  5
9
100
AcDbSymbolTable
 70
1
  0
APPID
  5
20B
100
AcDbSymbolTableRecord
100
AcDbRegAppTableRecord
  2
ACAD
 70
0
  0
ENDTAB
  0
TABLE
  2
BLOCK_RECORD
  5
1
100
AcDbSymbolTable
 70
0
  0
BLOCK_RECORD
  5
20C
100
AcDbSymbolTableRecord
100
AcDbBlockTableRecord
  2
*Model_Space
  0
BLOCK_RECORD
  5
20D
100
AcDbSymbolTableRecord
100
AcDbBlockTableRecord
  2
*Paper_Space
  0
BLOCK_RECORD
  5
20E
100
AcDbSymbolTableRecord
100
AcDbBlockTableRecord
  2
SUN_FIRST_THIRD_ANGLE_BL0
  0
BLOCK_RECORD
  5
20F
100
AcDbSymbolTableRecord
100
AcDbBlockTableRecord
  2
*T1
  0
BLOCK_RECORD
  5
210
100
AcDbSymbolTableRecord
100
AcDbBlockTableRecord
  2
*T2
  0
BLOCK_RECORD
  5
211
100
AcDbSymbolTableRecord
100
AcDbBlockTableRecord
  2
*T3
  0
ENDTAB
  0
TABLE
  2
DIMSTYLE
  5
A
100
AcDbSymbolTable
 70
1
100
AcDbDimStyleTable
 71
0
  0
DIMSTYLE
105
212
100
AcDbSymbolTableRecord
100
AcDbDimStyleTableRecord
  2
STANDARD
 70
0
  3

  4

 40
1.0
 41
0.1875
 42
0.0625
 43
0.38
 44
0.125
 45
0.0
 46
0.0
 47
0.001
 48
0.001
140
0.1
141
0.09
142
0.0
143
25.4
144
1.0
145
0.0
146
1.0
147
0.09
 71
0.0
 72
0.0
 73
1
 74
1
 75
0
 76
0
 77
0
 78
4
170
0
171
2
172
0
173
0
174
0
175
0
176
0
177
0
178
0
270
2
271
3
272
3
273
2
274
2
275
0
280
0
281
0
282
0
283
1
284
4
285
0
286
0
287
3
288
0
340
11
278
46
  0
ENDTAB
  0
ENDSEC
  0
SECTION
  2
BLOCKS
  0
BLOCK
  5
20
100
AcDbEntity
  8
0
100
AcDbBlockBegin
  2
*Model_Space
 70
0
 10
0.0
 20
0.0
 30
0.0
  3
*Model_Space
  1

  0
ENDBLK
  5
21
100
AcDbEntity
  8
0
100
AcDbBlockEnd
  0
BLOCK
  5
1C
100
AcDbEntity
  8
0
100
AcDbBlockBegin
  2
*Paper_Space
 70
0
 10
0.0
 20
0.0
 30
0.0
  3
*Paper_Space
  1

  0
ENDBLK
  5
1D
100
AcDbEntity
  8
0
100
AcDbBlockEnd
  0
BLOCK
  5
213
100
AcDbEntity
  8
0
100
AcDbBlockBegin
 62
2
  6
CONTINUOUS
  2
SUN_FIRST_THIRD_ANGLE_BL0
 70
64
 10
20.4816717061
 20
1.2289683772
  3
SUN_FIRST_THIRD_ANGLE_BL0
  1

  0
TEXT
  5
214
100
AcDbEntity
  8
0
100
AcDbText
 62
2
  6
CONTINUOUS
 10
19.4750896608
 20
1.4136269581
  7
STANDARD
 40
0.08
  1
FIRST ANGLE
 41
0.8
 72
0
100
AcDbText
  0
TEXT
  5
215
100
AcDbEntity
  8
0
100
AcDbText
 62
2
  6
CONTINUOUS
 10
20.7842537513
 20
1.4047600029
  7
STANDARD
 40
0.08
  1
THIRD ANGLE
 41
0.8
 72
0
100
AcDbText
  0
LINE
  5
216
100
AcDbEntity
  8
0
100
AcDbLine
 62
7
  6
CONTINUOUS
 10
19.4767170086
 20
1.1727031207
 11
19.6334271527
 21
1.1717972817
  0
LINE
  5
217
100
AcDbEntity
  8
0
100
AcDbLine
 62
7
  6
CONTINUOUS
 10
19.6596964832
 20
1.1717972817
 11
19.6950230232
 21
1.171593082
  0
LINE
  5
218
100
AcDbEntity
  8
0
100
AcDbLine
 62
7
  6
CONTINUOUS
 10
19.7194818561
 20
1.1708914427
 11
19.8852396156
 21
1.1699333054
  0
LINE
  5
219
100
AcDbEntity
  8
0
100
AcDbLine
 62
7
  6
CONTINUOUS
 10
19.4758111696
 20
1.2723454088
 11
19.88525039
 21
1.3511534004
  0
LINE
  5
21A
100
AcDbEntity
  8
0
100
AcDbLine
 62
7
  6
CONTINUOUS
 10
19.88525039
 20
1.3511534004
 11
19.8831348489
 21
0.9851647912
  0
LINE
  5
21B
100
AcDbEntity
  8
0
100
AcDbLine
 62
7
  6
CONTINUOUS
 10
19.8831348489
 20
0.9851647912
 11
19.4767170086
 21
1.0658141206
  0
LINE
  5
21C
100
AcDbEntity
  8
0
100
AcDbLine
 62
7
  6
CONTINUOUS
 10
19.4767170086
 20
1.0658141206
 11
19.4779056764
 21
1.2714536432
  0
CIRCLE
  5
21D
100
AcDbEntity
  8
0
100
AcDbCircle
 62
7
  6
CONTINUOUS
 10
20.2068232291
 20
1.1717972817
 40
0.175742101
  0
CIRCLE
  5
21E
100
AcDbEntity
  8
0
100
AcDbCircle
 62
7
  6
CONTINUOUS
 10
20.2068232291
 20
1.1717972817
 40
0.1005522074
  0
LINE
  5
21F
100
AcDbEntity
  8
0
100
AcDbLine
 62
7
  6
CONTINUOUS
 10
20.2077290681
 20
1.3756110529
 11
20.2071171714
 21
1.2379342989
  0
LINE
  5
220
100
AcDbEntity
  8
0
100
AcDbLine
 62
7
  6
CONTINUOUS
 10
20.2077290681
 20
1.2016899681
 11
20.2074674401
 21
1.1428236749
  0
LINE
  5
221
100
AcDbEntity
  8
0
100
AcDbLine
 62
7
  6
CONTINUOUS
 10
20.208634907
 20
1.101141841
 11
20.2080230104
 21
0.963465087
  0
LINE
  5
222
100
AcDbEntity
  8
0
100
AcDbLine
 62
7
  6
CONTINUOUS
 10
20.0066328138
 20
1.1745147986
 11
20.1443095678
 21
1.1739029019
  0
LINE
  5
223
100
AcDbEntity
  8
0
100
AcDbLine
 62
7
  6
CONTINUOUS
 10
20.1832714155
 20
1.1727031207
 11
20.238153505
 21
1.172335442
  0
LINE
  5
224
100
AcDbEntity
  8
0
100
AcDbLine
 62
7
  6
CONTINUOUS
 10
20.2756669918
 20
1.1717972817
 11
20.407916871
 21
1.1712095044
  0
CIRCLE
  5
225
100
AcDbEntity
  8
0
100
AcDbCircle
 62
7
  6
CONTINUOUS
 10
20.7509457401
 20
1.1693297793
 40
0.1722024983
  0
CIRCLE
  5
226
100
AcDbEntity
  8
0
100
AcDbCircle
 62
7
  6
CONTINUOUS
 10
20.7509457401
 20
1.1693297793
 40
0.0985164967
  0
LINE
  5
227
100
AcDbEntity
  8
0
100
AcDbLine
 62
7
  6
CONTINUOUS
 10
20.7169767782
 20
1.170462078
 11
20.7825395137
 21
1.1682766535
  0
LINE
  5
228
100
AcDbEntity
  8
0
100
AcDbLine
 62
7
  6
CONTINUOUS
 10
20.8177513651
 20
1.1693297793
 11
20.947965719
 21
1.1693297793
  0
LINE
  5
229
100
AcDbEntity
  8
0
100
AcDbLine
 62
7
  6
CONTINUOUS
 10
20.6875370113
 20
1.170462078
 11
20.5573226574
 21
1.170462078
  0
LINE
  5
22A
100
AcDbEntity
  8
0
100
AcDbLine
 62
7
  6
CONTINUOUS
 10
20.7486811426
 20
1.1987695462
 11
20.7486811426
 21
1.1432869085
  0
LINE
  5
22B
100
AcDbEntity
  8
0
100
AcDbLine
 62
7
  6
CONTINUOUS
 10
20.7498134414
 20
1.1059210505
 11
20.7498134414
 21
0.9757066966
  0
LINE
  5
22C
100
AcDbEntity
  8
0
100
AcDbLine
 62
7
  6
CONTINUOUS
 10
20.7486811426
 20
1.2338708068
 11
20.7486811426
 21
1.3640851607
  0
LINE
  5
22D
100
AcDbEntity
  8
0
100
AcDbLine
 62
7
  6
CONTINUOUS
 10
21.0702539817
 20
1.2701043662
 11
21.4790138229
 21
1.3448360823
  0
LINE
  5
22E
100
AcDbEntity
  8
0
100
AcDbLine
 62
7
  6
CONTINUOUS
 10
21.4790138229
 20
1.3448360823
 11
21.4790138229
 21
0.9779712941
  0
LINE
  5
22F
100
AcDbEntity
  8
0
100
AcDbLine
 62
7
  6
CONTINUOUS
 10
21.4790138229
 20
0.9779712941
 11
21.069121683
 21
1.0617614
  0
LINE
  5
230
100
AcDbEntity
  8
0
100
AcDbLine
 62
7
  6
CONTINUOUS
 10
21.0702539817
 20
1.2701043662
 11
21.069121683
 21
1.0617614
  0
LINE
  5
231
100
AcDbEntity
  8
0
100
AcDbLine
 62
7
  6
CONTINUOUS
 10
21.4790138229
 20
1.1693297793
 11
21.3159628059
 21
1.1693297793
  0
LINE
  5
232
100
AcDbEntity
  8
0
100
AcDbLine
 62
7
  6
CONTINUOUS
 10
21.2876553377
 20
1.1693297793
 11
21.2502894796
 21
1.1693297793
  0
LINE
  5
233
100
AcDbEntity
  8
0
100
AcDbLine
 62
7
  6
CONTINUOUS
 10
21.2208497126
 20
1.1659328831
 11
21.0713862804
 21
1.1659328831
  0
LINE
  5
234
100
AcDbEntity
  8
0
100
AcDbLine
 62
7
  6
CONTINUOUS
 10
20.4796138713
 20
1.5284908897
 11
20.4766766948
 21
0.9294458646
  0
ENDBLK
  5
235
100
AcDbEntity
  8
0
  6
BYBLOCK
 62
0
100
AcDbBlockEnd
  0
BLOCK
  5
236
100
AcDbEntity
  8
0
100
AcDbBlockBegin
  2
*T1
 70
1
 10
0.0
 20
0.0
  3
*T1
  1

  0
LINE
  5
237
100
AcDbEntity
  8
0
100
AcDbLine
 62
2
  6
CONTINUOUS
 10
9.275
 20
0.0
 11
-0.0
 21
0.0
  0
LINE
  5
238
100
AcDbEntity
  8
0
100
AcDbLine
 62
2
  6
CONTINUOUS
 10
9.275
 20
0.0
 11
9.275
 21
1.25
  0
LINE
  5
239
100
AcDbEntity
  8
0
100
AcDbLine
 62
2
  6
CONTINUOUS
 10
9.275
 20
0.625
 11
-0.0
 21
0.625
  0
LINE
  5
23A
100
AcDbEntity
  8
0
100
AcDbLine
 62
2
  6
CONTINUOUS
 10
9.275
 20
1.25
 11
-0.0
 21
1.25
  0
LINE
  5
23B
100
AcDbEntity
  8
0
100
AcDbLine
 62
2
  6
CONTINUOUS
 10
6.8
 20
0.0
 11
6.8
 21
1.25
  0
LINE
  5
23C
100
AcDbEntity
  8
0
100
AcDbLine
 62
2
  6
CONTINUOUS
 10
6.4
 20
0.0
 11
6.4
 21
0.625
  0
LINE
  5
23D
100
AcDbEntity
  8
0
100
AcDbLine
 62
2
  6
CONTINUOUS
 10
5.9
 20
0.0
 11
5.9
 21
0.625
  0
LINE
  5
23E
100
AcDbEntity
  8
0
100
AcDbLine
 62
2
  6
CONTINUOUS
 10
5.2
 20
0.0
 11
5.2
 21
0.625
  0
LINE
  5
23F
100
AcDbEntity
  8
0
100
AcDbLine
 62
2
  6
CONTINUOUS
 10
4.1
 20
0.0
 11
4.1
 21
1.25
  0
LINE
  5
240
100
AcDbEntity
  8
0
100
AcDbLine
 62
2
  6
CONTINUOUS
 10
-0.0
 20
0.0
 11
-0.0
 21
1.25
  0
MTEXT
  5
241
100
AcDbEntity
  8
0
100
AcDbMText
 62
2
  6
CONTINUOUS
  7
STANDARD
 71
2
 72
1
 10
6.6
 20
0.325
 30
0.0
 11
1.0
 21
0.0
 31
0.0
 44
0.9
  1
2
 40
0.125
 41
0.2
  0
MTEXT
  5
242
100
AcDbEntity
  8
0
100
AcDbMText
 62
2
  6
CONTINUOUS
  7
STANDARD
 71
2
 72
1
 10
6.15
 20
0.325
 30
0.0
 11
1.0
 21
0.0
 31
0.0
 44
0.9
  1
C
 40
0.125
 41
0.2
  0
MTEXT
  5
243
100
AcDbEntity
  8
0
100
AcDbMText
 62
2
  6
CONTINUOUS
  7
STANDARD
 71
2
 72
1
 10
5.55
 20
0.325
 30
0.0
 11
1.0
 21
0.0
 31
0.0
 44
0.9
  1
1.000
 40
0.125
 41
1.0
  0
MTEXT
  5
244
100
AcDbEntity
  8
0
100
AcDbMText
 62
2
  6
CONTINUOUS
  7
STANDARD
 71
2
 72
1
 10
4.65
 20
0.325
 30
0.0
 11
1.0
 21
0.0
 31
0.0
 44
0.9
  1
Oct-25-19
 40
0.125
 41
1.8
  0
MTEXT
  5
245
100
AcDbEntity
  8
0
100
AcDbMText
 62
2
  6
CONTINUOUS
  7
STANDARD
 71
2
 72
1
 10
2.05
 20
0.4625
 30
0.0
 11
1.0
 21
0.0
 31
0.0
 44
0.9
  1
T-2A Line mount\PThrough port 2 with reverse flow check
 40
0.125
 41
7.6
  0
MTEXT
  5
246
100
AcDbEntity
  8
0
100
AcDbMText
 62
2
  6
CONTINUOUS
  7
STANDARD
 71
1
 72
1
 10
6.45
 20
0.5625
 30
0.0
 11
1.0
 21
0.0
 31
0.0
 44
0.9
  1
SHEET
 40
0.06
 41
0.48
  0
MTEXT
  5
247
100
AcDbEntity
  8
0
100
AcDbMText
 62
2
  6
CONTINUOUS
  7
STANDARD
 71
1
 72
1
 10
5.95
 20
0.5625
 30
0.0
 11
1.0
 21
0.0
 31
0.0
 44
0.9
  1
DWG SIZE
 40
0.06
 41
0.768
  0
MTEXT
  5
248
100
AcDbEntity
  8
0
100
AcDbMText
 62
2
  6
CONTINUOUS
  7
STANDARD
 71
1
 72
1
 10
5.25
 20
0.5625
 30
0.0
 11
1.0
 21
0.0
 31
0.0
 44
0.9
  1
SCALE
 40
0.06
 41
0.48
  0
MTEXT
  5
249
100
AcDbEntity
  8
0
100
AcDbMText
 62
2
  6
CONTINUOUS
  7
STANDARD
 71
1
 72
1
 10
4.15
 20
0.5625
 30
0.0
 11
1.0
 21
0.0
 31
0.0
 44
0.9
  1
DATE
 40
0.06
 41
0.384
  0
MTEXT
  5
24A
100
AcDbEntity
  8
0
100
AcDbMText
 62
2
  6
CONTINUOUS
  7
STANDARD
 71
1
 72
1
 10
0.05
 20
0.5625
 30
0.0
 11
1.0
 21
0.0
 31
0.0
 44
0.9
  1
DESCRIPTION
 40
0.06
 41
1.056
  0
MTEXT
  5
24B
100
AcDbEntity
  8
0
100
AcDbMText
 62
2
  6
CONTINUOUS
  7
STANDARD
 71
2
 72
1
 10
5.45
 20
1.0375
 30
0.0
 11
1.0
 21
0.0
 31
0.0
 44
0.9
  1
ALL DIMENSIONS IN INCH\PVIEWS ARE THIRD ANGLE
 40
0.12
 41
4.224
  0
MTEXT
  5
24C
100
AcDbEntity
  8
0
100
AcDbMText
 62
2
  6
CONTINUOUS
  7
STANDARD
 71
2
 72
1
 10
2.05
 20
0.95
 30
0.0
 11
1.0
 21
0.0
 31
0.0
 44
0.9
  1
B3K
 40
0.125
 41
0.6
  0
MTEXT
  5
24D
100
AcDbEntity
  8
0
100
AcDbMText
 62
2
  6
CONTINUOUS
  7
STANDARD
 71
1
 72
1
 10
0.05
 20
1.1875
 30
0.0
 11
1.0
 21
0.0
 31
0.0
 44
0.9
  1
MODEL
 40
0.06
 41
0.48
  0
ENDBLK
  5
24E
100
AcDbEntity
  8
0
  6
BYBLOCK
 62
0
100
AcDbBlockEnd
  0
BLOCK
  5
24F
100
AcDbEntity
  8
0
100
AcDbBlockBegin
  2
*T2
 70
1
 10
0.0
 20
0.0
  3
*T2
  1

  0
LINE
  5
250
100
AcDbEntity
  8
0
100
AcDbLine
 62
2
  6
CONTINUOUS
 10
0.0
 20
0.0
 11
9.055
 21
0.0
  0
LINE
  5
251
100
AcDbEntity
  8
0
100
AcDbLine
 62
2
  6
CONTINUOUS
 10
0.0
 20
0.0
 11
0.0
 21
-2.594
  0
LINE
  5
252
100
AcDbEntity
  8
0
100
AcDbLine
 62
2
  6
CONTINUOUS
 10
0.0
 20
-0.344
 11
9.055
 21
-0.344
  0
LINE
  5
253
100
AcDbEntity
  8
0
100
AcDbLine
 62
2
  6
CONTINUOUS
 10
0.0
 20
-0.594
 11
9.055
 21
-0.594
  0
LINE
  5
254
100
AcDbEntity
  8
0
100
AcDbLine
 62
2
  6
CONTINUOUS
 10
0.0
 20
-0.844
 11
9.055
 21
-0.844
  0
LINE
  5
255
100
AcDbEntity
  8
0
100
AcDbLine
 62
2
  6
CONTINUOUS
 10
0.0
 20
-1.094
 11
9.055
 21
-1.094
  0
LINE
  5
256
100
AcDbEntity
  8
0
100
AcDbLine
 62
2
  6
CONTINUOUS
 10
0.0
 20
-1.344
 11
9.055
 21
-1.344
  0
LINE
  5
257
100
AcDbEntity
  8
0
100
AcDbLine
 62
2
  6
CONTINUOUS
 10
0.0
 20
-1.594
 11
9.055
 21
-1.594
  0
LINE
  5
258
100
AcDbEntity
  8
0
100
AcDbLine
 62
2
  6
CONTINUOUS
 10
0.0
 20
-1.844
 11
9.055
 21
-1.844
  0
LINE
  5
259
100
AcDbEntity
  8
0
100
AcDbLine
 62
2
  6
CONTINUOUS
 10
0.0
 20
-2.094
 11
9.055
 21
-2.094
  0
LINE
  5
25A
100
AcDbEntity
  8
0
100
AcDbLine
 62
2
  6
CONTINUOUS
 10
0.0
 20
-2.344
 11
9.055
 21
-2.344
  0
LINE
  5
25B
100
AcDbEntity
  8
0
100
AcDbLine
 62
2
  6
CONTINUOUS
 10
0.0
 20
-2.594
 11
9.055
 21
-2.594
  0
LINE
  5
25C
100
AcDbEntity
  8
0
100
AcDbLine
 62
2
  6
CONTINUOUS
 10
3.055
 20
0.0
 11
3.055
 21
-2.594
  0
LINE
  5
25D
100
AcDbEntity
  8
0
100
AcDbLine
 62
2
  6
CONTINUOUS
 10
9.055
 20
0.0
 11
9.055
 21
-2.594
  0
MTEXT
  5
25E
100
AcDbEntity
  8
0
100
AcDbMText
 62
2
  6
CONTINUOUS
  7
STANDARD
 71
2
 72
1
 10
1.5275
 20
-0.0995
 30
0.0
 11
1.0
 21
0.0
 31
0.0
 44
0.9
  1
Technical Data
 40
0.145
 41
3.248
  0
MTEXT
  5
25F
100
AcDbEntity
  8
0
100
AcDbMText
 62
2
  6
CONTINUOUS
  7
STANDARD
 71
2
 72
1
 10
4.555
 20
-0.0995
 30
0.0
 11
1.0
 21
0.0
 31
0.0
 44
0.9
  1
U.S. Units
 40
0.145
 41
2.32
  0
MTEXT
  5
260
100
AcDbEntity
  8
0
100
AcDbMText
 62
2
  6
CONTINUOUS
  7
STANDARD
 71
2
 72
1
 10
7.555
 20
-0.0995
 30
0.0
 11
1.0
 21
0.0
 31
0.0
 44
0.9
  1
Metric Units
 40
0.145
 41
2.784
  0
MTEXT
  5
261
100
AcDbEntity
  8
0
100
AcDbMText
 62
2
  6
CONTINUOUS
  7
STANDARD
 71
2
 72
1
 10
1.5275
 20
-0.4065
 30
0.0
 11
1.0
 21
0.0
 31
0.0
 44
0.9
  1
Cavity
 40
0.125
 41
1.2
  0
MTEXT
  5
262
100
AcDbEntity
  8
0
100
AcDbMText
 62
2
  6
CONTINUOUS
  7
STANDARD
 71
2
 72
1
 10
6.055
 20
-0.4065
 30
0.0
 11
1.0
 21
0.0
 31
0.0
 44
0.9
  1
T-2A
 40
0.125
 41
0.8
  0
MTEXT
  5
263
100
AcDbEntity
  8
0
100
AcDbMText
 62
2
  6
CONTINUOUS
  7
STANDARD
 71
2
 72
1
 10
1.5275
 20
-0.6565
 30
0.0
 11
1.0
 21
0.0
 31
0.0
 44
0.9
  1
Body Features
 40
0.125
 41
2.6
  0
MTEXT
  5
264
100
AcDbEntity
  8
0
100
AcDbMText
 62
2
  6
CONTINUOUS
  7
STANDARD
 71
2
 72
1
 10
6.055
 20
-0.6565
 30
0.0
 11
1.0
 21
0.0
 31
0.0
 44
0.9
  1
Through port 2 with reverse flow check
 40
0.125
 41
7.6
  0
MTEXT
  5
265
100
AcDbEntity
  8
0
100
AcDbMText
 62
2
  6
CONTINUOUS
  7
STANDARD
 71
2
 72
1
 10
1.5275
 20
-0.9065
 30
0.0
 11
1.0
 21
0.0
 31
0.0
 44
0.9
  1
Body Type
 40
0.125
 41
1.8
  0
MTEXT
  5
266
100
AcDbEntity
  8
0
100
AcDbMText
 62
2
  6
CONTINUOUS
  7
STANDARD
 71
2
 72
1
 10
6.055
 20
-0.9065
 30
0.0
 11
1.0
 21
0.0
 31
0.0
 44
0.9
  1
Line mount
 40
0.125
 41
2.0
  0
MTEXT
  5
267
100
AcDbEntity
  8
0
100
AcDbMText
 62
2
  6
CONTINUOUS
  7
STANDARD
 71
2
 72
1
 10
1.5275
 20
-1.1565
 30
0.0
 11
1.0
 21
0.0
 31
0.0
 44
0.9
  1
Interface
 40
0.125
 41
1.8
  0
MTEXT
  5
268
100
AcDbEntity
  8
0
100
AcDbMText
 62
2
  6
CONTINUOUS
  7
STANDARD
 71
2
 72
1
 10
6.055
 20
-1.1565
 30
0.0
 11
1.0
 21
0.0
 31
0.0
 44
0.9
  1
None
 40
0.125
 41
0.8
  0
MTEXT
  5
269
100
AcDbEntity
  8
0
100
AcDbMText
 62
2
  6
CONTINUOUS
  7
STANDARD
 71
2
 72
1
 10
1.5275
 20
-1.4065
 30
0.0
 11
1.0
 21
0.0
 31
0.0
 44
0.9
  1
Open Cavity Quantity
 40
0.125
 41
4.0
  0
MTEXT
  5
26A
100
AcDbEntity
  8
0
100
AcDbMText
 62
2
  6
CONTINUOUS
  7
STANDARD
 71
2
 72
1
 10
6.055
 20
-1.4065
 30
0.0
 11
1.0
 21
0.0
 31
0.0
 44
0.9
  1
1
 40
0.125
 41
0.2
  0
MTEXT
  5
26B
100
AcDbEntity
  8
0
100
AcDbMText
 62
2
  6
CONTINUOUS
  7
STANDARD
 71
2
 72
1
 10
1.5275
 20
-1.6565
 30
0.0
 11
1.0
 21
0.0
 31
0.0
 44
0.9
  1
Weight
 40
0.125
 41
1.2
  0
MTEXT
  5
26C
100
AcDbEntity
  8
0
100
AcDbMText
 62
2
  6
CONTINUOUS
  7
STANDARD
 71
2
 72
1
 10
4.555
 20
-1.6565
 30
0.0
 11
1.0
 21
0.0
 31
0.0
 44
0.9
  1
3.420 lb.
 40
0.125
 41
1.8
  0
MTEXT
  5
26D
100
AcDbEntity
  8
0
100
AcDbMText
 62
2
  6
CONTINUOUS
  7
STANDARD
 71
2
 72
1
 10
7.555
 20
-1.6565
 30
0.0
 11
1.0
 21
0.0
 31
0.0
 44
0.9
  1
1,551 kg.
 40
0.125
 41
1.8
  0
MTEXT
  5
26E
100
AcDbEntity
  8
0
100
AcDbMText
 62
2
  6
CONTINUOUS
  7
STANDARD
 71
2
 72
1
 10
1.5275
 20
-1.9065
 30
0.0
 11
1.0
 21
0.0
 31
0.0
 44
0.9
  1
Mounting Hole Thread
 40
0.125
 41
4.0
  0
MTEXT
  5
26F
100
AcDbEntity
  8
0
100
AcDbMText
 62
2
  6
CONTINUOUS
  7
STANDARD
 71
2
 72
1
 10
4.555
 20
-1.9065
 30
0.0
 11
1.0
 21
0.0
 31
0.0
 44
0.9
  1
.375-16 UNC - 2B in.
 40
0.125
 41
4.0
  0
MTEXT
  5
270
100
AcDbEntity
  8
0
100
AcDbMText
 62
2
  6
CONTINUOUS
  7
STANDARD
 71
2
 72
1
 10
1.5275
 20
-2.1565
 30
0.0
 11
1.0
 21
0.0
 31
0.0
 44
0.9
  1
Mounting Hole Depth
 40
0.125
 41
3.8
  0
MTEXT
  5
271
100
AcDbEntity
  8
0
100
AcDbMText
 62
2
  6
CONTINUOUS
  7
STANDARD
 71
2
 72
1
 10
4.555
 20
-2.1565
 30
0.0
 11
1.0
 21
0.0
 31
0.0
 44
0.9
  1
.62 in.
 40
0.125
 41
1.4
  0
MTEXT
  5
272
100
AcDbEntity
  8
0
100
AcDbMText
 62
2
  6
CONTINUOUS
  7
STANDARD
 71
2
 72
1
 10
7.555
 20
-2.1565
 30
0.0
 11
1.0
 21
0.0
 31
0.0
 44
0.9
  1
15,7 mm
 40
0.125
 41
1.4
  0
MTEXT
  5
273
100
AcDbEntity
  8
0
100
AcDbMText
 62
2
  6
CONTINUOUS
  7
STANDARD
 71
2
 72
1
 10
1.5275
 20
-2.4065
 30
0.0
 11
1.0
 21
0.0
 31
0.0
 44
0.9
  1
Mounting Hole Quantity
 40
0.125
 41
4.4
  0
MTEXT
  5
274
100
AcDbEntity
  8
0
100
AcDbMText
 62
2
  6
CONTINUOUS
  7
STANDARD
 71
2
 72
1
 10
6.055
 20
-2.4065
 30
0.0
 11
1.0
 21
0.0
 31
0.0
 44
0.9
  1
2
 40
0.125
 41
0.2
  0
ENDBLK
  5
275
100
AcDbEntity
  8
0
  6
BYBLOCK
 62
0
100
AcDbBlockEnd
  0
BLOCK
  5
276
100
AcDbEntity
  8
0
100
AcDbBlockBegin
  2
*T3
 70
1
 10
0.0
 20
0.0
  3
*T3
  1

  0
LINE
  5
277
100
AcDbEntity
  8
0
100
AcDbLine
 62
2
  6
CONTINUOUS
 10
0.0
 20
0.0
 11
4.6
 21
0.0
  0
LINE
  5
278
100
AcDbEntity
  8
0
100
AcDbLine
 62
2
  6
CONTINUOUS
 10
0.0
 20
0.0
 11
0.0
 21
-1.43775
  0
LINE
  5
279
100
AcDbEntity
  8
0
100
AcDbLine
 62
2
  6
CONTINUOUS
 10
0.0
 20
-0.34375
 11
4.6
 21
-0.34375
  0
LINE
  5
27A
100
AcDbEntity
  8
0
100
AcDbLine
 62
2
  6
CONTINUOUS
 10
0.0
 20
-0.68775
 11
4.6
 21
-0.68775
  0
LINE
  5
27B
100
AcDbEntity
  8
0
100
AcDbLine
 62
2
  6
CONTINUOUS
 10
0.0
 20
-0.93775
 11
4.6
 21
-0.93775
  0
LINE
  5
27C
100
AcDbEntity
  8
0
100
AcDbLine
 62
2
  6
CONTINUOUS
 10
0.0
 20
-1.18775
 11
4.6
 21
-1.18775
  0
LINE
  5
27D
100
AcDbEntity
  8
0
100
AcDbLine
 62
2
  6
CONTINUOUS
 10
0.0
 20
-1.43775
 11
4.6
 21
-1.43775
  0
LINE
  5
27E
100
AcDbEntity
  8
0
100
AcDbLine
 62
2
  6
CONTINUOUS
 10
1.3
 20
-0.34375
 11
1.3
 21
-1.43775
  0
LINE
  5
27F
100
AcDbEntity
  8
0
100
AcDbLine
 62
2
  6
CONTINUOUS
 10
3.3
 20
-0.34375
 11
3.3
 21
-1.43775
  0
LINE
  5
280
100
AcDbEntity
  8
0
100
AcDbLine
 62
2
  6
CONTINUOUS
 10
4.6
 20
0.0
 11
4.6
 21
-1.43775
  0
MTEXT
  5
281
100
AcDbEntity
  8
0
100
AcDbMText
 62
2
  6
CONTINUOUS
  7
STANDARD
 71
2
 72
1
 10
2.3
 20
-0.099375
 30
0.0
 11
1.0
 21
0.0
 31
0.0
 44
0.9
  1
Port Headings
 40
0.145
 41
3.016
  0
MTEXT
  5
282
100
AcDbEntity
  8
0
100
AcDbMText
 62
2
  6
CONTINUOUS
  7
STANDARD
 71
2
 72
1
 10
0.65
 20
-0.44325
 30
0.0
 11
1.0
 21
0.0
 31
0.0
 44
0.9
  1
Product
 40
0.145
 41
1.624
  0
MTEXT
  5
283
100
AcDbEntity
  8
0
100
AcDbMText
 62
2
  6
CONTINUOUS
  7
STANDARD
 71
2
 72
1
 10
2.3
 20
-0.44325
 30
0.0
 11
1.0
 21
0.0
 31
0.0
 44
0.9
  1
Port
 40
0.145
 41
0.928
  0
MTEXT
  5
284
100
AcDbEntity
  8
0
100
AcDbMText
 62
2
  6
CONTINUOUS
  7
STANDARD
 71
2
 72
1
 10
3.95
 20
-0.44325
 30
0.0
 11
1.0
 21
0.0
 31
0.0
 44
0.9
  1
Size
 40
0.145
 41
0.928
  0
MTEXT
  5
285
100
AcDbEntity
  8
0
100
AcDbMText
 62
2
  6
CONTINUOUS
  7
STANDARD
 71
2
 72
1
 10
0.65
 20
-0.75025
 30
0.0
 11
1.0
 21
0.0
 31
0.0
 44
0.9
  1
B3K
 40
0.125
 41
0.6
  0
MTEXT
  5
286
100
AcDbEntity
  8
0
100
AcDbMText
 62
2
  6
CONTINUOUS
  7
STANDARD
 71
2
 72
1
 10
2.3
 20
-0.75025
 30
0.0
 11
1.0
 21
0.0
 31
0.0
 44
0.9
  1
Ports 1 &  2
 40
0.125
 41
2.4
  0
MTEXT
  5
287
100
AcDbEntity
  8
0
100
AcDbMText
 62
2
  6
CONTINUOUS
  7
STANDARD
 71
2
 72
1
 10
3.95
 20
-0.75025
 30
0.0
 11
1.0
 21
0.0
 31
0.0
 44
0.9
  1
SAE 10
 40
0.125
 41
1.2
  0
MTEXT
  5
288
100
AcDbEntity
  8
0
100
AcDbMText
 62
2
  6
CONTINUOUS
  7
STANDARD
 71
2
 72
1
 10
0.65
 20
-1.00025
 30
0.0
 11
1.0
 21
0.0
 31
0.0
 44
0.9
  1
B3K
 40
0.125
 41
0.6
  0
MTEXT
  5
289
100
AcDbEntity
  8
0
100
AcDbMText
 62
2
  6
CONTINUOUS
  7
STANDARD
 71
2
 72
1
 10
2.3
 20
-1.00025
 30
0.0
 11
1.0
 21
0.0
 31
0.0
 44
0.9
  1
Port 3
 40
0.125
 41
1.2
  0
MTEXT
  5
28A
100
AcDbEntity
  8
0
100
AcDbMText
 62
2
  6
CONTINUOUS
  7
STANDARD
 71
2
 72
1
 10
3.95
 20
-1.00025
 30
0.0
 11
1.0
 21
0.0
 31
0.0
 44
0.9
  1
SAE 6
 40
0.125
 41
1.0
  0
MTEXT
  5
28B
100
AcDbEntity
  8
0
100
AcDbMText
 62
2
  6
CONTINUOUS
  7
STANDARD
 71
2
 72
1
 10
0.65
 20
-1.25025
 30
0.0
 11
1.0
 21
0.0
 31
0.0
 44
0.9
  1
B3K
 40
0.125
 41
0.6
  0
MTEXT
  5
28C
100
AcDbEntity
  8
0
100
AcDbMText
 62
2
  6
CONTINUOUS
  7
STANDARD
 71
2
 72
1
 10
2.3
 20
-1.25025
 30
0.0
 11
1.0
 21
0.0
 31
0.0
 44
0.9
  1
Gage Port
 40
0.125
 41
1.8
  0
MTEXT
  5
28D
100
AcDbEntity
  8
0
100
AcDbMText
 62
2
  6
CONTINUOUS
  7
STANDARD
 71
2
 72
1
 10
3.95
 20
-1.25025
 30
0.0
 11
1.0
 21
0.0
 31
0.0
 44
0.9
  1
1/4" NPTF
 40
0.125
 41
1.8
  0
ENDBLK
  5
28E
100
AcDbEntity
  8
0
  6
BYBLOCK
 62
0
100
AcDbBlockEnd
  0
ENDSEC
  0
SECTION
  2
ENTITIES
  0
IMAGE
  5
28F
100
AcDbEntity
  8
0
100
AcDbRasterImage
 62
7
  6
CONTINUOUS
 10
19.2297077316
 20
0.3094318264
 30
0.0
 11
0.0066666667
 21
0.0
 31
0.0
 12
0.0
 22
0.0066666667
 32
0.0
 13
369.0
 23
92.0
340
       3C7
 70
9
280
0
281
50
282
50
283
0
360
       3C1
 71
1
 91
2
 14
-0.5
 24
-0.5
 14
368.5
 24
91.5
  0
INSERT
  5
290
100
AcDbEntity
  8
0
100
AcDbBlockReference
 62
2
  6
CONTINUOUS
  2
SUN_FIRST_THIRD_ANGLE_BL0
 10
20.4816717061
 20
1.2289683772
  0
ACAD_TABLE
  5
291
100
AcDbEntity
  8
0
 62
2
  6
CONTINUOUS
100
AcDbBlockReference
  2
*T1
 10
12.42375
 20
0.30125
 30
0.0
100
AcDbTable
342
       3C9
343
20F
 11
1.0
 21
0.0
 31
0.0
 90
6
 91
4
 92
6
 93
20
 94
0
 95
0
 96
0
 70
1
 41
0.0
141
0.525
141
0.1
141
0.525
141
0.1
142
4.1
142
1.1
142
0.7
142
0.5
142
0.4
142
2.475
171
1
172
0
173
0
174
0
175
1
176
1
 91
33
178
0
145
0.0
301
CELL_VALUE
 90
4
  1
T-2A Line mount\PThrough port 2 with reverse flow check
304
ACVALUE_END
170
2
140
0.125
171
1
172
0
173
0
174
0
175
1
176
1
 91
33
178
0
145
0.0
301
CELL_VALUE
 90
4
  1
Oct-25-19
304
ACVALUE_END
170
5
140
0.125
171
1
172
0
173
0
174
0
175
1
176
1
 91
33
178
0
145
0.0
301
CELL_VALUE
 90
4
  1
1.000
304
ACVALUE_END
170
5
140
0.125
171
1
172
0
173
0
174
0
175
1
176
1
 91
33
178
0
145
0.0
301
CELL_VALUE
 90
4
  1
C
304
ACVALUE_END
170
5
140
0.125
171
1
172
0
173
0
174
0
175
1
176
1
 91
33
178
0
145
0.0
301
CELL_VALUE
 90
4
  1
2
304
ACVALUE_END
170
5
140
0.125
171
1
172
0
173
0
174
0
175
1
176
1
 91
33
178
0
145
0.0
301
CELL_VALUE
 90
4
  1
 
304
ACVALUE_END
170
1
140
0.125
171
1
172
0
173
0
174
0
175
1
176
1
 91
33
178
0
145
0.0
301
CELL_VALUE
 90
4
  1
DESCRIPTION
304
ACVALUE_END
170
1
140
0.06
171
1
172
0
173
0
174
0
175
1
176
1
 91
33
178
0
145
0.0
301
CELL_VALUE
 90
4
  1
DATE
304
ACVALUE_END
170
1
140
0.06
171
1
172
0
173
0
174
0
175
1
176
1
 91
33
178
0
145
0.0
301
CELL_VALUE
 90
4
  1
SCALE
304
ACVALUE_END
170
1
140
0.06
171
1
172
0
173
0
174
0
175
1
176
1
 91
33
178
0
145
0.0
301
CELL_VALUE
 90
4
  1
DWG SIZE
304
ACVALUE_END
170
1
140
0.06
171
1
172
0
173
0
174
0
175
1
176
1
 91
33
178
0
145
0.0
301
CELL_VALUE
 90
4
  1
SHEET
304
ACVALUE_END
170
1
140
0.06
171
1
172
0
173
0
174
0
175
1
176
1
 91
33
178
0
145
0.0
301
CELL_VALUE
 90
4
  1
 
304
ACVALUE_END
170
1
140
0.125
171
1
172
0
173
0
174
0
175
1
176
1
 91
33
178
0
145
0.0
301
CELL_VALUE
 90
4
  1
B3K
304
ACVALUE_END
170
5
140
0.125
171
1
172
0
173
0
174
0
175
4
176
1
 91
33
178
0
145
0.0
301
CELL_VALUE
 90
4
  1
ALL DIMENSIONS IN INCH\PVIEWS ARE THIRD ANGLE
304
ACVALUE_END
170
5
140
0.12
171
1
172
0
173
1
174
0
175
1
176
1
 91
1
178
0
145
0.0
170
1
171
1
172
0
173
1
174
0
175
1
176
1
 91
1
178
0
145
0.0
170
1
171
1
172
0
173
1
174
0
175
1
176
1
 91
1
178
0
145
0.0
170
5
171
1
172
0
173
0
174
0
175
1
176
1
 91
33
178
0
145
0.0
301
CELL_VALUE
 90
4
  1
 
304
ACVALUE_END
170
1
140
0.125
171
1
172
0
173
0
174
0
175
1
176
1
 91
33
178
0
145
0.0
301
CELL_VALUE
 90
4
  1
MODEL
304
ACVALUE_END
170
1
140
0.06
171
1
172
0
173
0
174
0
175
1
176
1
 91
33
178
0
145
0.0
301
CELL_VALUE
 90
4
  1
 
304
ACVALUE_END
170
1
140
0.125
171
1
172
0
173
0
174
0
175
1
176
1
 91
33
178
0
145
0.0
301
CELL_VALUE
 90
4
  1
 
304
ACVALUE_END
170
1
140
0.125
171
1
172
0
173
0
174
0
175
1
176
1
 91
33
178
0
145
0.0
301
CELL_VALUE
 90
4
  1
 
304
ACVALUE_END
170
1
140
0.125
171
1
172
0
173
0
174
0
175
1
176
1
 91
33
178
0
145
0.0
301
CELL_VALUE
 90
4
  1
 
304
ACVALUE_END
170
1
140
0.125
171
1
172
0
173
0
174
0
175
1
176
1
 91
33
178
0
145
0.0
301
CELL_VALUE
 90
4
  1
 
304
ACVALUE_END
170
1
140
0.125
  0
ACAD_TABLE
  5
292
100
AcDbEntity
  8
0
 62
2
  6
CONTINUOUS
100
AcDbBlockReference
  2
*T2
 10
12.4237499994
 20
16.47875
 30
0.0
100
AcDbTable
342
       3C8
343
210
 11
1.0
 21
0.0
 31
0.0
 90
22
 91
10
 92
3
 93
16
 94
0
 95
0
 96
0
 41
0.028
141
0.344
141
0.25
141
0.25
141
0.25
141
0.25
141
0.25
141
0.25
141
0.25
141
0.25
141
0.25
142
3.055
142
3.0
142
3.0
171
1
172
0
173
0
174
0
175
1
176
1
 91
33
178
0
145
0.0
301
CELL_VALUE
 90
4
  1
Technical Data
304
ACVALUE_END
170
5
140
0.145
171
1
172
0
173
0
174
0
175
1
176
1
 91
33
178
0
145
0.0
301
CELL_VALUE
 90
4
  1
U.S. Units
304
ACVALUE_END
170
5
140
0.145
171
1
172
0
173
0
174
0
175
1
176
1
 91
33
178
0
145
0.0
301
CELL_VALUE
 90
4
  1
Metric Units
304
ACVALUE_END
170
5
140
0.145
171
1
172
0
173
0
174
0
175
1
176
1
 91
33
178
0
145
0.0
301
CELL_VALUE
 90
4
  1
Cavity
304
ACVALUE_END
170
5
140
0.125
171
1
172
0
173
0
174
0
175
2
176
1
 91
33
178
0
145
0.0
301
CELL_VALUE
 90
4
  1
T-2A
304
ACVALUE_END
170
5
140
0.125
171
1
172
0
173
1
174
0
175
1
176
1
 91
1
178
0
145
0.0
170
1
171
1
172
0
173
0
174
0
175
1
176
1
 91
33
178
0
145
0.0
301
CELL_VALUE
 90
4
  1
Body Features
304
ACVALUE_END
170
5
140
0.125
171
1
172
0
173
0
174
0
175
2
176
1
 91
33
178
0
145
0.0
301
CELL_VALUE
 90
4
  1
Through port 2 with reverse flow check
304
ACVALUE_END
170
5
140
0.125
171
1
172
0
173
1
174
0
175
1
176
1
 91
1
178
0
145
0.0
170
1
171
1
172
0
173
0
174
0
175
1
176
1
 91
33
178
0
145
0.0
301
CELL_VALUE
 90
4
  1
Body Type
304
ACVALUE_END
170
5
140
0.125
171
1
172
0
173
0
174
0
175
2
176
1
 91
33
178
0
145
0.0
301
CELL_VALUE
 90
4
  1
Line mount
304
ACVALUE_END
170
5
140
0.125
171
1
172
0
173
1
174
0
175
1
176
1
 91
1
178
0
145
0.0
170
1
171
1
172
0
173
0
174
0
175
1
176
1
 91
33
178
0
145
0.0
301
CELL_VALUE
 90
4
  1
Interface
304
ACVALUE_END
170
5
140
0.125
171
1
172
0
173
0
174
0
175
2
176
1
 91
33
178
0
145
0.0
301
CELL_VALUE
 90
4
  1
None
304
ACVALUE_END
170
5
140
0.125
171
1
172
0
173
1
174
0
175
1
176
1
 91
1
178
0
145
0.0
170
1
171
1
172
0
173
0
174
0
175
1
176
1
 91
33
178
0
145
0.0
301
CELL_VALUE
 90
4
  1
Open Cavity Quantity
304
ACVALUE_END
170
5
140
0.125
171
1
172
0
173
0
174
0
175
2
176
1
 91
33
178
0
145
0.0
301
CELL_VALUE
 90
4
  1
1
304
ACVALUE_END
170
5
140
0.125
171
1
172
0
173
1
174
0
175
1
176
1
 91
1
178
0
145
0.0
170
1
171
1
172
0
173
0
174
0
175
1
176
1
 91
33
178
0
145
0.0
301
CELL_VALUE
 90
4
  1
Weight
304
ACVALUE_END
170
5
140
0.125
171
1
172
0
173
0
174
0
175
1
176
1
 91
33
178
0
145
0.0
301
CELL_VALUE
 90
4
  1
3.420 lb.
304
ACVALUE_END
170
5
140
0.125
171
1
172
0
173
0
174
0
175
1
176
1
 91
33
178
0
145
0.0
301
CELL_VALUE
 90
4
  1
1,551 kg.
304
ACVALUE_END
170
5
140
0.125
171
1
172
0
173
0
174
0
175
1
176
1
 91
33
178
0
145
0.0
301
CELL_VALUE
 90
4
  1
Mounting Hole Thread
304
ACVALUE_END
170
5
140
0.125
171
1
172
0
173
0
174
0
175
1
176
1
 91
33
178
0
145
0.0
301
CELL_VALUE
 90
4
  1
.375-16 UNC - 2B in.
304
ACVALUE_END
170
5
140
0.125
171
1
172
0
173
0
174
0
175
1
176
1
 91
33
178
0
145
0.0
301
CELL_VALUE
 90
4
  1
 
304
ACVALUE_END
170
5
140
0.125
171
1
172
0
173
0
174
0
175
1
176
1
 91
33
178
0
145
0.0
301
CELL_VALUE
 90
4
  1
Mounting Hole Depth
304
ACVALUE_END
170
5
140
0.125
171
1
172
0
173
0
174
0
175
1
176
1
 91
33
178
0
145
0.0
301
CELL_VALUE
 90
4
  1
.62 in.
304
ACVALUE_END
170
5
140
0.125
171
1
172
0
173
0
174
0
175
1
176
1
 91
33
178
0
145
0.0
301
CELL_VALUE
 90
4
  1
15,7 mm
304
ACVALUE_END
170
5
140
0.125
171
1
172
0
173
0
174
0
175
1
176
1
 91
33
178
0
145
0.0
301
CELL_VALUE
 90
4
  1
Mounting Hole Quantity
304
ACVALUE_END
170
5
140
0.125
171
1
172
0
173
0
174
0
175
2
176
1
 91
33
178
0
145
0.0
301
CELL_VALUE
 90
4
  1
2
304
ACVALUE_END
170
5
140
0.125
171
1
172
0
173
1
174
0
175
1
176
1
 91
1
178
0
145
0.0
170
1
  0
ACAD_TABLE
  5
293
100
AcDbEntity
  8
0
 62
2
  6
CONTINUOUS
100
AcDbBlockReference
  2
*T3
 10
0.52125
 20
1.959
 30
0.0
100
AcDbTable
342
       3C8
343
211
 11
1.0
 21
0.0
 31
0.0
 90
22
 91
5
 92
3
 93
16
 94
0
 95
0
 96
0
 41
0.05
141
0.34375
141
0.344
141
0.25
141
0.25
141
0.25
142
1.3
142
2.0
142
1.3
171
1
172
0
173
0
174
0
175
3
176
1
 91
33
178
0
145
0.0
301
CELL_VALUE
 90
4
  1
Port Headings
304
ACVALUE_END
170
5
140
0.145
171
1
172
0
173
1
174
0
175
1
176
1
 91
1
178
0
145
0.0
170
1
171
1
172
0
173
1
174
0
175
1
176
1
 91
1
178
0
145
0.0
170
1
171
1
172
0
173
0
174
0
175
1
176
1
 91
33
178
0
145
0.0
301
CELL_VALUE
 90
4
  1
Product
304
ACVALUE_END
170
5
140
0.145
171
1
172
0
173
0
174
0
175
1
176
1
 91
33
178
0
145
0.0
301
CELL_VALUE
 90
4
  1
Port
304
ACVALUE_END
170
5
140
0.145
171
1
172
0
173
0
174
0
175
1
176
1
 91
33
178
0
145
0.0
301
CELL_VALUE
 90
4
  1
Size
304
ACVALUE_END
170
5
140
0.145
171
1
172
0
173
0
174
0
175
1
176
1
 91
33
178
0
145
0.0
301
CELL_VALUE
 90
4
  1
B3K
304
ACVALUE_END
170
5
140
0.125
171
1
172
0
173
0
174
0
175
1
176
1
 91
33
178
0
145
0.0
301
CELL_VALUE
 90
4
  1
Ports 1 &  2
304
ACVALUE_END
170
5
140
0.125
171
1
172
0
173
0
174
0
175
1
176
1
 91
33
178
0
145
0.0
301
CELL_VALUE
 90
4
  1
SAE 10
304
ACVALUE_END
170
5
140
0.125
171
1
172
0
173
0
174
0
175
1
176
1
 91
33
178
0
145
0.0
301
CELL_VALUE
 90
4
  1
B3K
304
ACVALUE_END
170
5
140
0.125
171
1
172
0
173
0
174
0
175
1
176
1
 91
33
178
0
145
0.0
301
CELL_VALUE
 90
4
  1
Port 3
304
ACVALUE_END
170
5
140
0.125
171
1
172
0
173
0
174
0
175
1
176
1
 91
33
178
0
145
0.0
301
CELL_VALUE
 90
4
  1
SAE 6
304
ACVALUE_END
170
5
140
0.125
171
1
172
0
173
0
174
0
175
1
176
1
 91
33
178
0
145
0.0
301
CELL_VALUE
 90
4
  1
B3K
304
ACVALUE_END
170
5
140
0.125
171
1
172
0
173
0
174
0
175
1
176
1
 91
33
178
0
145
0.0
301
CELL_VALUE
 90
4
  1
Gage Port
304
ACVALUE_END
170
5
140
0.125
171
1
172
0
173
0
174
0
175
1
176
1
 91
33
178
0
145
0.0
301
CELL_VALUE
 90
4
  1
1/4" NPTF
304
ACVALUE_END
170
5
140
0.125
  0
MTEXT
  5
294
100
AcDbEntity
  8
0
100
AcDbMText
 62
2
  6
CONTINUOUS
  7
STANDARD
 71
1
 72
1
 10
0.52125
 20
5.75995
 30
0.0
 11
1.0
 21
0.0
 31
0.0
 44
0.6
  3
Notes\P \P1. Important: Carefully consider\P   the maximum system pressure. The\P   pressure rating of the manifold is\P   dependent on the manifold material,\P   with the port type/size a secondary\P   consideration. Manifolds\P   constructed of alu
  1
minum are not\P   rated for pressures higher than\P   3000 psi (210 bar), regardless of\P   the port type/size specified.
 40
0.1
 41
3.04
  0
LINE
  5
295
100
AcDbEntity
  8
0
100
AcDbLine
 62
7
  6
CONTINUOUS
 10
0.30125
 20
0.30125
 11
0.30125
 21
16.69875
  0
LINE
  5
296
100
AcDbEntity
  8
0
100
AcDbLine
 62
7
  6
CONTINUOUS
 10
0.30125
 20
0.30125
 11
21.69875
 21
0.30125
  0
LINE
  5
297
100
AcDbEntity
  8
0
100
AcDbLine
 62
7
  6
CONTINUOUS
 10
0.30125
 20
16.69875
 11
21.69875
 21
16.69875
  0
LINE
  5
298
100
AcDbEntity
  8
0
100
AcDbLine
 62
7
  6
CONTINUOUS
 10
21.69875
 20
0.30125
 11
21.69875
 21
16.69875
  0
LINE
  5
299
100
AcDbEntity
  8
0
100
AcDbLine
 62
7
  6
CONTINUOUS
 10
8.7108543054
 20
9.3834429817
 11
8.6905076777
 21
9.3489455842
  0
LINE
  5
29A
100
AcDbEntity
  8
0
100
AcDbLine
 62
7
  6
CONTINUOUS
 10
9.5618745988
 20
10.5182332808
 11
8.7854181043
 21
9.7682338553
  0
LINE
  5
29B
100
AcDbEntity
  8
0
100
AcDbLine
 62
4
  6
CONTINUOUS
 10
9.4084402993
 20
6.8156583536
 11
9.3987810404
 21
6.8235726694
  0
LINE
  5
29C
100
AcDbEntity
  8
0
100
AcDbLine
 62
7
  6
CONTINUOUS
 10
8.7854181043
 20
6.7497154693
 11
8.7854181043
 21
9.7682338553
  0
LINE
  5
29D
100
AcDbEntity
  8
0
100
AcDbLine
 62
4
  6
CONTINUOUS
 10
9.476055109
 20
6.8761692463
 11
9.4953736286
 21
6.8603406145
  0
LINE
  5
29E
100
AcDbEntity
  8
0
100
AcDbLine
 62
4
  6
CONTINUOUS
 10
9.3987810404
 20
6.8235726694
 11
9.3891217815
 21
6.8387314293
  0
LINE
  5
29F
100
AcDbEntity
  8
0
100
AcDbLine
 62
4
  6
CONTINUOUS
 10
9.4953736286
 20
6.8603406145
 11
9.5050328849
 21
6.8451818549
  0
LINE
  5
2A0
100
AcDbEntity
  8
0
100
AcDbLine
 62
7
  6
CONTINUOUS
 10
8.6297402216
 20
8.3394828065
 11
8.6218207415
 21
8.3585100702
  0
LINE
  5
2A1
100
AcDbEntity
  8
0
100
AcDbLine
 62
7
  6
CONTINUOUS
 10
8.7854181043
 20
6.7497154693
 11
12.6491216383
 21
6.4817667192
  0
LINE
  5
2A2
100
AcDbEntity
  8
0
100
AcDbLine
 62
4
  6
CONTINUOUS
 10
9.4470773332
 20
6.8854233058
 11
9.476055109
 21
6.8761692463
  0
LINE
  5
2A3
100
AcDbEntity
  8
0
100
AcDbLine
 62
4
  6
CONTINUOUS
 10
9.4470773332
 20
6.8129788662
 11
9.4084402993
 21
6.8156583536
  0
LINE
  5
2A4
100
AcDbEntity
  8
0
100
AcDbLine
 62
4
  6
CONTINUOUS
 10
11.2668816771
 20
6.7012638942
 11
11.2475631644
 21
6.7026036376
  0
LINE
  5
2A5
100
AcDbEntity
  8
0
100
AcDbLine
 62
4
  6
CONTINUOUS
 10
9.3891217815
 20
6.8387314293
 11
9.3891217815
 21
6.8532203172
  0
LINE
  5
2A6
100
AcDbEntity
  8
0
100
AcDbLine
 62
4
  6
CONTINUOUS
 10
9.4470773332
 20
6.8419566421
 11
9.4470773332
 21
6.8129788662
  0
LINE
  5
2A7
100
AcDbEntity
  8
0
100
AcDbLine
 62
4
  6
CONTINUOUS
 10
9.5050328849
 20
6.8451818549
 11
9.5050328849
 21
6.8306929669
  0
LINE
  5
2A8
100
AcDbEntity
  8
0
100
AcDbLine
 62
4
  6
CONTINUOUS
 10
11.199266869
 20
6.7566641049
 11
11.1702890932
 21
6.7659181644
  0
LINE
  5
2A9
100
AcDbEntity
  8
0
100
AcDbLine
 62
4
  6
CONTINUOUS
 10
9.4180995573
 20
6.8801884775
 11
9.4470773332
 21
6.8854233058
  0
LINE
  5
2AA
100
AcDbEntity
  8
0
100
AcDbLine
 62
4
  6
CONTINUOUS
 10
11.2475631644
 20
6.7026036376
 11
11.2379039012
 21
6.7105179538
  0
LINE
  5
2AB
100
AcDbEntity
  8
0
100
AcDbLine
 62
4
  6
CONTINUOUS
 10
11.2185853851
 20
6.7408354733
 11
11.199266869
 21
6.7566641049
  0
LINE
  5
2AC
100
AcDbEntity
  8
0
100
AcDbLine
 62
4
  6
CONTINUOUS
 10
11.2668816771
 20
6.759219446
 11
11.2765409403
 21
6.7513051298
  0
LINE
  5
2AD
100
AcDbEntity
  8
0
100
AcDbLine
 62
4
  6
CONTINUOUS
 10
11.1505566263
 20
7.5521704798
 11
11.175394721
 21
7.5504479521
  0
LINE
  5
2AE
100
AcDbEntity
  8
0
100
AcDbLine
 62
4
  6
CONTINUOUS
 10
11.191953449
 20
7.5989757087
 11
11.2167915411
 21
7.5972531811
  0
LINE
  5
2AF
100
AcDbEntity
  8
0
100
AcDbLine
 62
4
  6
CONTINUOUS
 10
11.2765409403
 20
9.4240220567
 11
11.2668816771
 21
9.4174474849
  0
LINE
  5
2B0
100
AcDbEntity
  8
0
100
AcDbLine
 62
4
  6
CONTINUOUS
 10
11.1505566263
 20
7.6763609162
 11
11.2167915411
 21
7.6717675093
  0
LINE
  5
2B1
100
AcDbEntity
  8
0
100
AcDbLine
 62
4
  6
CONTINUOUS
 10
11.1422772613
 20
7.7210917003
 11
11.2250709086
 21
7.7153499414
  0
LINE
  5
2B2
100
AcDbEntity
  8
0
100
AcDbLine
 62
4
  6
CONTINUOUS
 10
11.2499089973
 20
7.7136274141
 11
11.2581883648
 21
7.713053238
  0
LINE
  5
2B3
100
AcDbEntity
  8
0
100
AcDbLine
 62
4
  6
CONTINUOUS
 10
10.5511306338
 20
7.7814063372
 11
10.6670417373
 21
7.7733678749
  0
LINE
  5
2B4
100
AcDbEntity
  8
0
100
AcDbLine
 62
4
  6
CONTINUOUS
 10
10.6504830092
 20
7.8214326677
 11
10.5676893636
 21
7.8271744265
  0
LINE
  5
2B5
100
AcDbEntity
  8
0
100
AcDbLine
 62
4
  6
CONTINUOUS
 10
11.1505566263
 20
7.7950317973
 11
11.2581883648
 21
7.7875675109
  0
LINE
  5
2B6
100
AcDbEntity
  8
0
100
AcDbLine
 62
4
  6
CONTINUOUS
 10
11.1422772613
 20
7.8287234155
 11
11.2250709086
 21
7.8229816566
  0
LINE
  5
2B7
100
AcDbEntity
  8
0
100
AcDbLine
 62
4
  6
CONTINUOUS
 10
10.5511306338
 20
7.8862783301
 11
10.6670417373
 21
7.8782398677
  0
LINE
  5
2B8
100
AcDbEntity
  8
0
100
AcDbLine
 62
4
  6
CONTINUOUS
 10
10.6504830092
 20
7.9125056618
 11
10.5676893636
 21
7.9182474206
  0
LINE
  5
2B9
100
AcDbEntity
  8
0
100
AcDbLine
 62
4
  6
CONTINUOUS
 10
11.2250709086
 20
7.8726578754
 11
11.1505566263
 21
7.8778254584
  0
LINE
  5
2BA
100
AcDbEntity
  8
0
100
AcDbLine
 62
4
  6
CONTINUOUS
 10
11.2581883648
 20
7.7102934604
 11
11.2499089973
 21
7.7136274141
  0
LINE
  5
2BB
100
AcDbEntity
  8
0
100
AcDbLine
 62
4
  6
CONTINUOUS
 10
10.5676893636
 20
7.8271744265
 11
10.5511306338
 21
7.8448814995
  0
LINE
  5
2BC
100
AcDbEntity
  8
0
100
AcDbLine
 62
4
  6
CONTINUOUS
 10
10.5676893636
 20
7.9182474206
 11
10.5511306338
 21
7.9359544936
  0
LINE
  5
2BD
100
AcDbEntity
  8
0
100
AcDbLine
 62
4
  6
CONTINUOUS
 10
10.6504830092
 20
7.9704612135
 11
10.6670417373
 21
7.9527541406
  0
LINE
  5
2BE
100
AcDbEntity
  8
0
100
AcDbLine
 62
4
  6
CONTINUOUS
 10
11.2379039012
 20
6.7105179538
 11
11.2185853851
 21
6.7408354733
  0
LINE
  5
2BF
100
AcDbEntity
  8
0
100
AcDbLine
 62
4
  6
CONTINUOUS
 10
11.2765409403
 20
6.7513051298
 11
11.2862001966
 21
6.7361463702
  0
LINE
  5
2C0
100
AcDbEntity
  8
0
100
AcDbLine
 62
4
  6
CONTINUOUS
 10
10.6008068215
 20
7.6510110679
 11
10.5787285157
 21
7.6966988118
  0
LINE
  5
2C1
100
AcDbEntity
  8
0
100
AcDbLine
 62
4
  6
CONTINUOUS
 10
10.5511306338
 20
8.2478105562
 11
10.5511306338
 21
8.1981343651
  0
LINE
  5
2C2
100
AcDbEntity
  8
0
100
AcDbLine
 62
4
  6
CONTINUOUS
 10
10.5511306338
 20
7.7814063372
 11
10.5511306338
 21
7.7317301737
  0
LINE
  5
2C3
100
AcDbEntity
  8
0
100
AcDbLine
 62
4
  6
CONTINUOUS
 10
10.5511306338
 20
7.8448814995
 11
10.5511306338
 21
7.8862783301
  0
LINE
  5
2C4
100
AcDbEntity
  8
0
100
AcDbLine
 62
4
  6
CONTINUOUS
 10
10.5511306338
 20
7.9359544936
 11
10.5511306338
 21
7.9607926029
  0
LINE
  5
2C5
100
AcDbEntity
  8
0
100
AcDbLine
 62
4
  6
CONTINUOUS
 10
10.5511306338
 20
8.02426771
 11
10.5511306338
 21
8.0573851523
  0
LINE
  5
2C6
100
AcDbEntity
  8
0
100
AcDbLine
 62
4
  6
CONTINUOUS
 10
10.5511306338
 20
8.5099904347
 11
10.5511306338
 21
8.5513872514
  0
LINE
  5
2C7
100
AcDbEntity
  8
0
100
AcDbLine
 62
4
  6
CONTINUOUS
 10
10.5842480935
 20
8.4331794513
 11
10.5842480935
 21
8.3890228431
  0
LINE
  5
2C8
100
AcDbEntity
  8
0
100
AcDbLine
 62
4
  6
CONTINUOUS
 10
10.6008068215
 20
8.6141771153
 11
10.5787285157
 21
8.5715516394
  0
LINE
  5
2C9
100
AcDbEntity
  8
0
100
AcDbLine
 62
4
  6
CONTINUOUS
 10
11.1422772613
 20
7.9115170766
 11
11.2085121806
 21
7.9069236694
  0
LINE
  5
2CA
100
AcDbEntity
  8
0
100
AcDbLine
 62
4
  6
CONTINUOUS
 10
10.5676893636
 20
7.9762029723
 11
10.6504830092
 21
7.9704612135
  0
LINE
  5
2CB
100
AcDbEntity
  8
0
100
AcDbLine
 62
4
  6
CONTINUOUS
 10
11.1505566263
 20
7.9606190642
 11
11.175394721
 21
7.9588965365
  0
LINE
  5
2CC
100
AcDbEntity
  8
0
100
AcDbLine
 62
4
  6
CONTINUOUS
 10
11.2167915411
 20
7.9919029325
 11
11.2002328131
 21
7.9930512842
  0
LINE
  5
2CD
100
AcDbEntity
  8
0
100
AcDbLine
 62
4
  6
CONTINUOUS
 10
10.5676893636
 20
8.0727955216
 11
10.6504830092
 21
8.0670537628
  0
LINE
  5
2CE
100
AcDbEntity
  8
0
100
AcDbLine
 62
4
  6
CONTINUOUS
 10
11.1422772613
 20
8.035707513
 11
11.2250709086
 21
8.0299657541
  0
LINE
  5
2CF
100
AcDbEntity
  8
0
100
AcDbLine
 62
4
  6
CONTINUOUS
 10
10.8061350614
 20
8.0603989929
 11
10.9220461648
 21
8.0523605306
  0
LINE
  5
2D0
100
AcDbEntity
  8
0
100
AcDbLine
 62
4
  6
CONTINUOUS
 10
12.14490835
 20
7.9873561939
 11
12.1352490902
 21
7.9880260658
  0
LINE
  5
2D1
100
AcDbEntity
  8
0
100
AcDbLine
 62
7
  6
CONTINUOUS
 10
8.7854181043
 20
8.2254819272
 11
8.7548988344
 21
8.2275984458
  0
LINE
  5
2D2
100
AcDbEntity
  8
0
100
AcDbLine
 62
4
  6
CONTINUOUS
 10
12.2028638983
 20
7.9905814069
 11
12.193204642
 21
7.9912512786
  0
LINE
  5
2D3
100
AcDbEntity
  8
0
100
AcDbLine
 62
4
  6
CONTINUOUS
 10
11.2581883648
 20
8.0607865483
 11
11.1422772613
 21
8.0688250106
  0
LINE
  5
2D4
100
AcDbEntity
  8
0
100
AcDbLine
 62
4
  6
CONTINUOUS
 10
10.8144144263
 20
8.0929422732
 11
10.8558112491
 21
8.0900713938
  0
LINE
  5
2D5
100
AcDbEntity
  8
0
100
AcDbLine
 62
4
  6
CONTINUOUS
 10
10.8806493412
 20
8.0911086577
 11
10.9054874368
 21
8.0893861299
  0
LINE
  5
2D6
100
AcDbEntity
  8
0
100
AcDbLine
 62
4
  6
CONTINUOUS
 10
10.844772097
 20
8.0577195054
 11
10.9220461648
 21
7.9944049789
  0
LINE
  5
2D7
100
AcDbEntity
  8
0
100
AcDbLine
 62
4
  6
CONTINUOUS
 10
10.6504830092
 20
8.0670537628
 11
10.6670417373
 21
8.04934669
  0
LINE
  5
2D8
100
AcDbEntity
  8
0
100
AcDbLine
 62
4
  6
CONTINUOUS
 10
11.1422772613
 20
7.5610239887
 11
11.1505566263
 21
7.5521704798
  0
LINE
  5
2D9
100
AcDbEntity
  8
0
100
AcDbLine
 62
4
  6
CONTINUOUS
 10
11.2167915411
 20
7.5972531811
 11
11.2250709086
 21
7.5883996721
  0
LINE
  5
2DA
100
AcDbEntity
  8
0
100
AcDbLine
 62
4
  6
CONTINUOUS
 10
10.8061350614
 20
8.1017958097
 11
10.8144144263
 21
8.0929422732
  0
LINE
  5
2DB
100
AcDbEntity
  8
0
100
AcDbLine
 62
4
  6
CONTINUOUS
 10
11.2167915411
 20
7.6717675093
 11
11.2250709086
 21
7.6629140002
  0
LINE
  5
2DC
100
AcDbEntity
  8
0
100
AcDbLine
 62
4
  6
CONTINUOUS
 10
10.6173655531
 20
7.7436954876
 11
10.6173655531
 21
7.77681293
  0
LINE
  5
2DD
100
AcDbEntity
  8
0
100
AcDbLine
 62
4
  6
CONTINUOUS
 10
10.6173655531
 20
8.210099679
 11
10.6173655531
 21
8.243217149
  0
LINE
  5
2DE
100
AcDbEntity
  8
0
100
AcDbLine
 62
4
  6
CONTINUOUS
 10
10.6670417373
 20
8.5433487891
 11
10.6670417373
 21
8.5019519724
  0
LINE
  5
2DF
100
AcDbEntity
  8
0
100
AcDbLine
 62
4
  6
CONTINUOUS
 10
10.6670417373
 20
8.3391244762
 11
10.6670417373
 21
8.2728895639
  0
LINE
  5
2E0
100
AcDbEntity
  8
0
100
AcDbLine
 62
4
  6
CONTINUOUS
 10
10.6670417373
 20
8.2397720939
 11
10.6670417373
 21
8.1900959028
  0
LINE
  5
2E1
100
AcDbEntity
  8
0
100
AcDbLine
 62
4
  6
CONTINUOUS
 10
10.6670417373
 20
8.04934669
 11
10.6670417373
 21
8.0162292476
  0
LINE
  5
2E2
100
AcDbEntity
  8
0
100
AcDbLine
 62
4
  6
CONTINUOUS
 10
10.6670417373
 20
7.9527541406
 11
10.6670417373
 21
7.9279160312
  0
LINE
  5
2E3
100
AcDbEntity
  8
0
100
AcDbLine
 62
4
  6
CONTINUOUS
 10
10.6670417373
 20
7.8782398677
 11
10.6670417373
 21
7.8368430372
  0
LINE
  5
2E4
100
AcDbEntity
  8
0
100
AcDbLine
 62
4
  6
CONTINUOUS
 10
10.6670417373
 20
7.7733678749
 11
10.6670417373
 21
7.7236917114
  0
LINE
  5
2E5
100
AcDbEntity
  8
0
100
AcDbLine
 62
4
  6
CONTINUOUS
 10
10.8061350614
 20
8.1431926402
 11
10.8061350614
 21
8.1017958097
  0
LINE
  5
2E6
100
AcDbEntity
  8
0
100
AcDbLine
 62
4
  6
CONTINUOUS
 10
10.8061350614
 20
8.1928688244
 11
10.8061350614
 21
8.2342656481
  0
LINE
  5
2E7
100
AcDbEntity
  8
0
100
AcDbLine
 62
4
  6
CONTINUOUS
 10
9.3891217815
 20
6.8532203172
 11
9.3987810404
 21
6.8670393332
  0
LINE
  5
2E8
100
AcDbEntity
  8
0
100
AcDbLine
 62
4
  6
CONTINUOUS
 10
11.2862001966
 20
9.4378410729
 11
11.2765409403
 21
9.4240220567
  0
LINE
  5
2E9
100
AcDbEntity
  8
0
100
AcDbLine
 62
4
  6
CONTINUOUS
 10
9.5050328849
 20
6.8306929669
 11
9.4953736286
 21
6.8168739507
  0
LINE
  5
2EA
100
AcDbEntity
  8
0
100
AcDbLine
 62
4
  6
CONTINUOUS
 10
10.6670417373
 20
8.5019519724
 11
10.6504830092
 21
8.486541596
  0
LINE
  5
2EB
100
AcDbEntity
  8
0
100
AcDbLine
 62
4
  6
CONTINUOUS
 10
11.2250709086
 20
8.1845139104
 11
11.1422772613
 21
8.16541756
  0
LINE
  5
2EC
100
AcDbEntity
  8
0
100
AcDbLine
 62
4
  6
CONTINUOUS
 10
11.1505566263
 20
8.1179269982
 11
11.2167915411
 21
8.1133335913
  0
LINE
  5
2ED
100
AcDbEntity
  8
0
100
AcDbLine
 62
4
  6
CONTINUOUS
 10
10.847531885
 20
8.1734392169
 11
10.8226937912
 21
8.1751617446
  0
LINE
  5
2EE
100
AcDbEntity
  8
0
100
AcDbLine
 62
4
  6
CONTINUOUS
 10
10.9054874368
 20
8.1776993498
 11
10.8806493412
 21
8.1794218776
  0
LINE
  5
2EF
100
AcDbEntity
  8
0
100
AcDbLine
 62
4
  6
CONTINUOUS
 10
10.5511306338
 20
8.2478105562
 11
10.6670417373
 21
8.2397720939
  0
LINE
  5
2F0
100
AcDbEntity
  8
0
100
AcDbLine
 62
7
  6
CONTINUOUS
 10
8.7854181043
 20
8.3722759929
 11
8.6237655366
 21
8.3834866365
  0
LINE
  5
2F1
100
AcDbEntity
  8
0
100
AcDbLine
 62
4
  6
CONTINUOUS
 10
10.8061350614
 20
8.2342656481
 11
10.9220461648
 21
8.2262271858
  0
LINE
  5
2F2
100
AcDbEntity
  8
0
100
AcDbLine
 62
4
  6
CONTINUOUS
 10
11.2167915411
 20
8.2182055565
 11
11.1422772613
 21
8.2233731393
  0
LINE
  5
2F3
100
AcDbEntity
  8
0
100
AcDbLine
 62
7
  6
CONTINUOUS
 10
8.7854181043
 20
8.4114939357
 11
8.6165415244
 21
8.4232055663
  0
LINE
  5
2F4
100
AcDbEntity
  8
0
100
AcDbLine
 62
4
  6
CONTINUOUS
 10
10.5511306338
 20
8.3140454685
 11
10.6670417373
 21
8.3060070062
  0
LINE
  5
2F5
100
AcDbEntity
  8
0
100
AcDbLine
 62
4
  6
CONTINUOUS
 10
11.1422772613
 20
8.2730493305
 11
11.2581883648
 21
8.2650108681
  0
LINE
  5
2F6
100
AcDbEntity
  8
0
100
AcDbLine
 62
4
  6
CONTINUOUS
 10
10.5511306338
 20
8.446515307
 11
10.6670417373
 21
8.4053593885
  0
LINE
  5
2F7
100
AcDbEntity
  8
0
100
AcDbLine
 62
4
  6
CONTINUOUS
 10
11.1146793795
 20
8.1756108678
 11
11.2250709086
 21
8.1348377469
  0
LINE
  5
2F8
100
AcDbEntity
  8
0
100
AcDbLine
 62
4
  6
CONTINUOUS
 10
10.8226937912
 20
8.1751617446
 11
10.8061350614
 21
8.1928688244
  0
LINE
  5
2F9
100
AcDbEntity
  8
0
100
AcDbLine
 62
4
  6
CONTINUOUS
 10
10.5676893636
 20
8.4922833548
 11
10.5511306338
 21
8.5099904347
  0
LINE
  5
2FA
100
AcDbEntity
  8
0
100
AcDbLine
 62
4
  6
CONTINUOUS
 10
10.8806493412
 20
8.1794218776
 11
10.8640906131
 21
8.1971289573
  0
LINE
  5
2FB
100
AcDbEntity
  8
0
100
AcDbLine
 62
4
  6
CONTINUOUS
 10
10.8723699806
 20
8.1054817768
 11
10.8806493412
 21
8.0911086577
  0
LINE
  5
2FC
100
AcDbEntity
  8
0
100
AcDbLine
 62
4
  6
CONTINUOUS
 10
10.6228851291
 20
8.5684893678
 11
10.6008068215
 21
8.6141771153
  0
LINE
  5
2FD
100
AcDbEntity
  8
0
100
AcDbLine
 62
4
  6
CONTINUOUS
 10
10.8640906131
 20
8.1888495933
 11
10.8640906131
 21
8.2302464169
  0
LINE
  5
2FE
100
AcDbEntity
  8
0
100
AcDbLine
 62
4
  6
CONTINUOUS
 10
10.8723699806
 20
8.1054817768
 11
10.8723699806
 21
8.1220405049
  0
LINE
  5
2FF
100
AcDbEntity
  8
0
100
AcDbLine
 62
4
  6
CONTINUOUS
 10
10.9220461648
 20
8.2262271858
 11
10.9220461648
 21
8.2013890919
  0
LINE
  5
300
100
AcDbEntity
  8
0
100
AcDbLine
 62
4
  6
CONTINUOUS
 10
10.9220461648
 20
8.1020367217
 11
10.9220461648
 21
8.1351541779
  0
LINE
  5
301
100
AcDbEntity
  8
0
100
AcDbLine
 62
4
  6
CONTINUOUS
 10
10.9220461648
 20
8.2013890919
 11
10.9192863734
 21
8.1933011183
  0
LINE
  5
302
100
AcDbEntity
  8
0
100
AcDbLine
 62
4
  6
CONTINUOUS
 10
11.1505566263
 20
8.636767186
 11
11.1422772613
 21
8.629061997
  0
LINE
  5
303
100
AcDbEntity
  8
0
100
AcDbLine
 62
4
  6
CONTINUOUS
 10
10.5511306338
 20
8.0573851523
 11
10.5676893636
 21
8.0727955216
  0
LINE
  5
304
100
AcDbEntity
  8
0
100
AcDbLine
 62
4
  6
CONTINUOUS
 10
10.6670417373
 20
8.4053593885
 11
10.5511306338
 21
8.3802803808
  0
LINE
  5
305
100
AcDbEntity
  8
0
100
AcDbLine
 62
4
  6
CONTINUOUS
 10
11.1422772613
 20
8.3972397945
 11
11.2581883648
 21
8.3892013321
  0
LINE
  5
306
100
AcDbEntity
  8
0
100
AcDbLine
 62
4
  6
CONTINUOUS
 10
10.6504830092
 20
8.486541596
 11
10.5676893636
 21
8.4922833548
  0
LINE
  5
307
100
AcDbEntity
  8
0
100
AcDbLine
 62
4
  6
CONTINUOUS
 10
11.1422772613
 20
8.4551953462
 11
11.2581883648
 21
8.4471568839
  0
LINE
  5
308
100
AcDbEntity
  8
0
100
AcDbLine
 62
4
  6
CONTINUOUS
 10
11.1588359912
 20
8.4871644505
 11
11.2581883648
 21
8.48027434
  0
LINE
  5
309
100
AcDbEntity
  8
0
100
AcDbLine
 62
4
  6
CONTINUOUS
 10
10.5511306338
 20
8.5513872514
 11
10.6670417373
 21
8.5433487891
  0
LINE
  5
30A
100
AcDbEntity
  8
0
100
AcDbLine
 62
4
  6
CONTINUOUS
 10
11.175394721
 20
7.9588965365
 11
11.183674085
 21
7.9417636395
  0
LINE
  5
30B
100
AcDbEntity
  8
0
100
AcDbLine
 62
4
  6
CONTINUOUS
 10
11.2167915411
 20
8.1133335913
 11
11.2250709086
 21
8.096200694
  0
LINE
  5
30C
100
AcDbEntity
  8
0
100
AcDbLine
 62
4
  6
CONTINUOUS
 10
11.1146793795
 20
8.192169589
 11
11.1146793795
 21
8.1756108678
  0
LINE
  5
30D
100
AcDbEntity
  8
0
100
AcDbLine
 62
4
  6
CONTINUOUS
 10
11.1422772613
 20
8.629061997
 11
11.1422772613
 21
8.5959445383
  0
LINE
  5
30E
100
AcDbEntity
  8
0
100
AcDbLine
 62
4
  6
CONTINUOUS
 10
11.1422772613
 20
8.529709626
 11
11.1422772613
 21
8.5048715235
  0
LINE
  5
30F
100
AcDbEntity
  8
0
100
AcDbLine
 62
4
  6
CONTINUOUS
 10
11.1422772613
 20
7.8701202461
 11
11.1422772613
 21
7.8287234155
  0
LINE
  5
310
100
AcDbEntity
  8
0
100
AcDbLine
 62
4
  6
CONTINUOUS
 10
11.1422772613
 20
7.594141431
 11
11.1422772613
 21
7.5610239887
  0
LINE
  5
311
100
AcDbEntity
  8
0
100
AcDbLine
 62
4
  6
CONTINUOUS
 10
11.1422772613
 20
7.6355382063
 11
11.1422772613
 21
7.6686557592
  0
LINE
  5
312
100
AcDbEntity
  8
0
100
AcDbLine
 62
4
  6
CONTINUOUS
 10
11.1422772613
 20
7.7707678638
 11
11.1422772613
 21
7.787326585
  0
LINE
  5
313
100
AcDbEntity
  8
0
100
AcDbLine
 62
4
  6
CONTINUOUS
 10
11.1422772613
 20
7.9115170766
 11
11.1422772613
 21
7.944634519
  0
LINE
  5
314
100
AcDbEntity
  8
0
100
AcDbLine
 62
4
  6
CONTINUOUS
 10
11.1422772613
 20
8.0688250106
 11
11.1422772613
 21
8.101942453
  0
LINE
  5
315
100
AcDbEntity
  8
0
100
AcDbLine
 62
4
  6
CONTINUOUS
 10
11.1702890932
 20
9.4821017551
 11
11.1702890932
 21
9.4241462034
  0
LINE
  5
316
100
AcDbEntity
  8
0
100
AcDbLine
 62
4
  6
CONTINUOUS
 10
11.1702890932
 20
6.7659181644
 11
11.1702890932
 21
6.7079626127
  0
LINE
  5
317
100
AcDbEntity
  8
0
100
AcDbLine
 62
4
  6
CONTINUOUS
 10
11.183674085
 20
7.9417636395
 11
11.183674085
 21
7.9086461972
  0
LINE
  5
318
100
AcDbEntity
  8
0
100
AcDbLine
 62
4
  6
CONTINUOUS
 10
11.2250709086
 20
8.2673075715
 11
11.2250709086
 21
8.225910741
  0
LINE
  5
319
100
AcDbEntity
  8
0
100
AcDbLine
 62
4
  6
CONTINUOUS
 10
11.2250709086
 20
8.096200694
 11
11.2250709086
 21
8.0630832517
  0
LINE
  5
31A
100
AcDbEntity
  8
0
100
AcDbLine
 62
4
  6
CONTINUOUS
 10
11.2250709086
 20
8.0299657541
 11
11.2250709086
 21
7.9968483118
  0
LINE
  5
31B
100
AcDbEntity
  8
0
100
AcDbLine
 62
4
  6
CONTINUOUS
 10
11.2250709086
 20
7.6629140002
 11
11.2250709086
 21
7.6297964474
  0
LINE
  5
31C
100
AcDbEntity
  8
0
100
AcDbLine
 62
4
  6
CONTINUOUS
 10
11.2250709086
 20
7.5883996721
 11
11.2250709086
 21
7.5552822298
  0
LINE
  5
31D
100
AcDbEntity
  8
0
100
AcDbLine
 62
4
  6
CONTINUOUS
 10
11.2250709086
 20
7.9140546507
 11
11.2250709086
 21
7.9554514812
  0
LINE
  5
31E
100
AcDbEntity
  8
0
100
AcDbLine
 62
4
  6
CONTINUOUS
 10
10.6228851291
 20
7.6936365402
 11
10.6008068215
 21
7.6510110679
  0
LINE
  5
31F
100
AcDbEntity
  8
0
100
AcDbLine
 62
4
  6
CONTINUOUS
 10
10.9192863734
 20
8.1933011183
 11
10.9054874368
 21
8.1776993498
  0
LINE
  5
320
100
AcDbEntity
  8
0
100
AcDbLine
 62
4
  6
CONTINUOUS
 10
11.175394721
 20
8.5770891066
 11
11.2250709086
 21
8.631599603
  0
LINE
  5
321
100
AcDbEntity
  8
0
100
AcDbLine
 62
4
  6
CONTINUOUS
 10
11.1588359912
 20
8.5451200022
 11
11.1422772613
 21
8.529709626
  0
LINE
  5
322
100
AcDbEntity
  8
0
100
AcDbLine
 62
4
  6
CONTINUOUS
 10
10.5511306338
 20
7.9607926029
 11
10.5676893636
 21
7.9762029723
  0
LINE
  5
323
100
AcDbEntity
  8
0
100
AcDbLine
 62
4
  6
CONTINUOUS
 10
11.2581883648
 20
8.5796267119
 11
11.2499089973
 21
8.571921524
  0
LINE
  5
324
100
AcDbEntity
  8
0
100
AcDbLine
 62
4
  6
CONTINUOUS
 10
10.8640906131
 20
8.1888495933
 11
10.847531885
 21
8.1734392169
  0
LINE
  5
325
100
AcDbEntity
  8
0
100
AcDbLine
 62
4
  6
CONTINUOUS
 10
10.6670417373
 20
7.9279160312
 11
10.6504830092
 21
7.9125056618
  0
LINE
  5
326
100
AcDbEntity
  8
0
100
AcDbLine
 62
4
  6
CONTINUOUS
 10
10.8558112491
 20
8.0900713938
 11
10.8723699806
 21
8.1054817768
  0
LINE
  5
327
100
AcDbEntity
  8
0
100
AcDbLine
 62
4
  6
CONTINUOUS
 10
11.2581883648
 20
8.4471568839
 11
11.1422772613
 21
8.3972397945
  0
LINE
  5
328
100
AcDbEntity
  8
0
100
AcDbLine
 62
4
  6
CONTINUOUS
 10
11.2581883648
 20
8.5382298917
 11
11.1588359912
 21
8.5451200022
  0
LINE
  5
329
100
AcDbEntity
  8
0
100
AcDbLine
 62
4
  6
CONTINUOUS
 10
11.1588359912
 20
8.5782374584
 11
11.175394721
 21
8.5770891066
  0
LINE
  5
32A
100
AcDbEntity
  8
0
100
AcDbLine
 62
4
  6
CONTINUOUS
 10
11.2250709086
 20
8.631599603
 11
11.2416296367
 21
8.6304512513
  0
LINE
  5
32B
100
AcDbEntity
  8
0
100
AcDbLine
 62
4
  6
CONTINUOUS
 10
11.1422772613
 20
8.5048715235
 11
11.1588359912
 21
8.4871644505
  0
LINE
  5
32C
100
AcDbEntity
  8
0
100
AcDbLine
 62
4
  6
CONTINUOUS
 10
11.1422772613
 20
8.5959445383
 11
11.1588359912
 21
8.5782374584
  0
LINE
  5
32D
100
AcDbEntity
  8
0
100
AcDbLine
 62
4
  6
CONTINUOUS
 10
11.2581883648
 20
8.6127441698
 11
11.2581883648
 21
8.5796267119
  0
LINE
  5
32E
100
AcDbEntity
  8
0
100
AcDbLine
 62
4
  6
CONTINUOUS
 10
11.2581883648
 20
7.713053238
 11
11.2581883648
 21
7.7102934604
  0
LINE
  5
32F
100
AcDbEntity
  8
0
100
AcDbLine
 62
4
  6
CONTINUOUS
 10
11.2862001966
 20
9.4523299609
 11
11.2862001966
 21
9.4378410729
  0
LINE
  5
330
100
AcDbEntity
  8
0
100
AcDbLine
 62
4
  6
CONTINUOUS
 10
11.2862001966
 20
6.7361463702
 11
11.2862001966
 21
6.7216574822
  0
LINE
  5
331
100
AcDbEntity
  8
0
100
AcDbLine
 62
4
  6
CONTINUOUS
 10
11.180914297
 20
7.5583445012
 11
11.186433873
 21
7.5910791596
  0
LINE
  5
332
100
AcDbEntity
  8
0
100
AcDbLine
 62
4
  6
CONTINUOUS
 10
11.1422772613
 20
8.101942453
 11
11.1505566263
 21
8.1179269982
  0
LINE
  5
333
100
AcDbEntity
  8
0
100
AcDbLine
 62
4
  6
CONTINUOUS
 10
11.1422772613
 20
7.944634519
 11
11.1505566263
 21
7.9606190642
  0
LINE
  5
334
100
AcDbEntity
  8
0
100
AcDbLine
 62
7
  6
CONTINUOUS
 10
12.6491216383
 20
9.5002851052
 11
13.4255781329
 21
10.2502845307
  0
LINE
  5
335
100
AcDbEntity
  8
0
100
AcDbLine
 62
4
  6
CONTINUOUS
 10
10.6670417373
 20
7.8368430372
 11
10.6504830092
 21
7.8214326677
  0
LINE
  5
336
100
AcDbEntity
  8
0
100
AcDbLine
 62
4
  6
CONTINUOUS
 10
11.2250709086
 20
8.225910741
 11
11.2167915411
 21
8.2182055565
  0
LINE
  5
337
100
AcDbEntity
  8
0
100
AcDbLine
 62
4
  6
CONTINUOUS
 10
10.9054874368
 20
8.0893861299
 11
10.9220461648
 21
8.1020367217
  0
LINE
  5
338
100
AcDbEntity
  8
0
100
AcDbLine
 62
4
  6
CONTINUOUS
 10
10.8723699806
 20
8.0309674901
 11
10.8061350614
 21
8.0024434412
  0
LINE
  5
339
100
AcDbEntity
  8
0
100
AcDbLine
 62
7
  6
CONTINUOUS
 10
8.7854181043
 20
8.9766004102
 11
8.6165415244
 21
8.9883120408
  0
LINE
  5
33A
100
AcDbEntity
  8
0
100
AcDbLine
 62
7
  6
CONTINUOUS
 10
8.7854181043
 20
9.0307760476
 11
8.6237655366
 21
9.0419866913
  0
LINE
  5
33B
100
AcDbEntity
  8
0
100
AcDbLine
 62
4
  6
CONTINUOUS
 10
12.1352490902
 20
7.9880260658
 11
12.1159305733
 21
8.0038546974
  0
LINE
  5
33C
100
AcDbEntity
  8
0
100
AcDbLine
 62
4
  6
CONTINUOUS
 10
12.193204642
 20
7.9912512786
 11
12.1835453856
 21
7.9991655943
  0
LINE
  5
33D
100
AcDbEntity
  8
0
100
AcDbLine
 62
4
  6
CONTINUOUS
 10
11.2416296367
 20
8.6304512513
 11
11.2581883648
 21
8.6127441698
  0
LINE
  5
33E
100
AcDbEntity
  8
0
100
AcDbLine
 62
4
  6
CONTINUOUS
 10
11.1505566263
 20
7.8778254584
 11
11.1422772613
 21
7.8701202461
  0
LINE
  5
33F
100
AcDbEntity
  8
0
100
AcDbLine
 62
4
  6
CONTINUOUS
 10
11.1422772613
 20
7.787326585
 11
11.1505566263
 21
7.7950317973
  0
LINE
  5
340
100
AcDbEntity
  8
0
100
AcDbLine
 62
4
  6
CONTINUOUS
 10
9.3987810404
 20
6.8670393332
 11
9.4180995573
 21
6.8801884775
  0
LINE
  5
341
100
AcDbEntity
  8
0
100
AcDbLine
 62
4
  6
CONTINUOUS
 10
9.4953736286
 20
6.8168739507
 11
9.4857143654
 21
6.8102993789
  0
LINE
  5
342
100
AcDbEntity
  8
0
100
AcDbLine
 62
4
  6
CONTINUOUS
 10
11.2250709086
 20
7.9968483118
 11
11.2167915411
 21
7.9919029325
  0
LINE
  5
343
100
AcDbEntity
  8
0
100
AcDbLine
 62
4
  6
CONTINUOUS
 10
11.2085121806
 20
7.9069236694
 11
11.2250709086
 21
7.9140546507
  0
LINE
  5
344
100
AcDbEntity
  8
0
100
AcDbLine
 62
4
  6
CONTINUOUS
 10
9.5050328849
 20
9.0566691719
 11
9.3891217815
 21
9.0647076342
  0
LINE
  5
345
100
AcDbEntity
  8
0
100
AcDbLine
 62
4
  6
CONTINUOUS
 10
11.186433873
 20
7.5910791596
 11
11.191953449
 21
7.5989757087
  0
LINE
  5
346
100
AcDbEntity
  8
0
100
AcDbLine
 62
4
  6
CONTINUOUS
 10
11.175394721
 20
7.5504479521
 11
11.180914297
 21
7.5583445012
  0
LINE
  5
347
100
AcDbEntity
  8
0
100
AcDbLine
 62
4
  6
CONTINUOUS
 10
11.1422772613
 20
7.6686557592
 11
11.1505566263
 21
7.6763609162
  0
LINE
  5
348
100
AcDbEntity
  8
0
100
AcDbLine
 62
4
  6
CONTINUOUS
 10
11.1505566263
 20
7.6018465881
 11
11.1422772613
 21
7.594141431
  0
LINE
  5
349
100
AcDbEntity
  8
0
100
AcDbLine
 62
4
  6
CONTINUOUS
 10
11.2250709086
 20
7.5552822298
 11
11.2167915411
 21
7.5475770729
  0
LINE
  5
34A
100
AcDbEntity
  8
0
100
AcDbLine
 62
7
  6
CONTINUOUS
 10
8.7854181043
 20
9.4490884565
 11
8.7548988344
 21
9.4512049751
  0
LINE
  5
34B
100
AcDbEntity
  8
0
100
AcDbLine
 62
7
  6
CONTINUOUS
 10
8.7854181043
 20
9.4640461511
 11
8.7693468587
 21
9.4651606958
  0
LINE
  5
34C
100
AcDbEntity
  8
0
100
AcDbLine
 62
4
  6
CONTINUOUS
 10
11.2475631644
 20
9.4187872283
 11
11.2379039012
 21
9.4267015445
  0
LINE
  5
34D
100
AcDbEntity
  8
0
100
AcDbLine
 62
4
  6
CONTINUOUS
 10
12.1159305733
 20
8.0038546974
 11
12.1062713144
 21
8.0190134572
  0
LINE
  5
34E
100
AcDbEntity
  8
0
100
AcDbLine
 62
4
  6
CONTINUOUS
 10
11.2379039012
 20
9.4267015445
 11
11.2185853851
 21
9.457019064
  0
LINE
  5
34F
100
AcDbEntity
  8
0
100
AcDbLine
 62
4
  6
CONTINUOUS
 10
12.1835453856
 20
7.9991655943
 11
12.1738861224
 21
8.0143243544
  0
LINE
  5
350
100
AcDbEntity
  8
0
100
AcDbLine
 62
4
  6
CONTINUOUS
 10
11.2765409403
 20
9.4674887205
 11
11.2862001966
 21
9.4523299609
  0
LINE
  5
351
100
AcDbEntity
  8
0
100
AcDbLine
 62
4
  6
CONTINUOUS
 10
12.2125231615
 20
8.0406226425
 11
12.2221824178
 21
8.0254638828
  0
LINE
  5
352
100
AcDbEntity
  8
0
100
AcDbLine
 62
7
  6
CONTINUOUS
 10
12.9239872468
 20
8.8375301718
 11
12.9254591411
 21
8.8389258299
  0
LINE
  5
353
100
AcDbEntity
  8
0
100
AcDbLine
 62
4
  6
CONTINUOUS
 10
12.1159305733
 20
8.0473213612
 11
12.1255898322
 21
8.0538959333
  0
LINE
  5
354
100
AcDbEntity
  8
0
100
AcDbLine
 62
4
  6
CONTINUOUS
 10
12.1642268661
 20
8.0005053381
 11
12.14490835
 21
7.9873561939
  0
LINE
  5
355
100
AcDbEntity
  8
0
100
AcDbLine
 62
4
  6
CONTINUOUS
 10
11.2668816771
 20
9.4174474849
 11
11.2475631644
 21
9.4187872283
  0
LINE
  5
356
100
AcDbEntity
  8
0
100
AcDbLine
 62
4
  6
CONTINUOUS
 10
11.199266869
 20
9.4728476955
 11
11.1702890932
 21
9.4821017551
  0
LINE
  5
357
100
AcDbEntity
  8
0
100
AcDbLine
 62
4
  6
CONTINUOUS
 10
11.2185853851
 20
9.457019064
 11
11.199266869
 21
9.4728476955
  0
LINE
  5
358
100
AcDbEntity
  8
0
100
AcDbLine
 62
4
  6
CONTINUOUS
 10
11.2668816771
 20
9.4754030366
 11
11.2765409403
 21
9.4674887205
  0
LINE
  5
359
100
AcDbEntity
  8
0
100
AcDbLine
 62
4
  6
CONTINUOUS
 10
12.1062713144
 20
8.0190134572
 11
12.1062713144
 21
8.0335023452
  0
LINE
  5
35A
100
AcDbEntity
  8
0
100
AcDbLine
 62
4
  6
CONTINUOUS
 10
12.1738861224
 20
8.0288132423
 11
12.1738861224
 21
8.0143243544
  0
LINE
  5
35B
100
AcDbEntity
  8
0
100
AcDbLine
 62
4
  6
CONTINUOUS
 10
12.2221824178
 20
8.0254638828
 11
12.2221824178
 21
8.0109749949
  0
LINE
  5
35C
100
AcDbEntity
  8
0
100
AcDbLine
 62
4
  6
CONTINUOUS
 10
12.1062713144
 20
8.0335023452
 11
12.1159305733
 21
8.0473213612
  0
LINE
  5
35D
100
AcDbEntity
  8
0
100
AcDbLine
 62
4
  6
CONTINUOUS
 10
12.1738861224
 20
8.0143243544
 11
12.1642268661
 21
8.0005053381
  0
LINE
  5
35E
100
AcDbEntity
  8
0
100
AcDbLine
 62
4
  6
CONTINUOUS
 10
11.2862001966
 20
6.7216574822
 11
11.2765409403
 21
6.707838466
  0
LINE
  5
35F
100
AcDbEntity
  8
0
100
AcDbLine
 62
4
  6
CONTINUOUS
 10
12.2221824178
 20
8.0109749949
 11
12.2125231615
 21
7.9971559787
  0
LINE
  5
360
100
AcDbEntity
  8
0
100
AcDbLine
 62
4
  6
CONTINUOUS
 10
12.2125231615
 20
7.9971559787
 11
12.2028638983
 21
7.9905814069
  0
LINE
  5
361
100
AcDbEntity
  8
0
100
AcDbLine
 62
7
  6
CONTINUOUS
 10
8.7854181043
 20
9.7682338553
 11
12.6491216383
 21
9.5002851052
  0
LINE
  5
362
100
AcDbEntity
  8
0
100
AcDbLine
 62
7
  6
CONTINUOUS
 10
12.6491216383
 20
6.4817667192
 11
12.6491216383
 21
9.5002851052
  0
LINE
  5
363
100
AcDbEntity
  8
0
100
AcDbLine
 62
4
  6
CONTINUOUS
 10
11.2765409403
 20
6.707838466
 11
11.2668816771
 21
6.7012638942
  0
LINE
  5
364
100
AcDbEntity
  8
0
100
AcDbLine
 62
7
  6
CONTINUOUS
 10
13.4255781329
 20
10.2502845307
 11
9.5618745988
 21
10.5182332808
  0
LINE
  5
365
100
AcDbEntity
  8
0
100
AcDbLine
 62
7
  6
CONTINUOUS
 10
13.4255781329
 20
7.2317661447
 11
13.4255781329
 21
10.2502845307
  0
LINE
  5
366
100
AcDbEntity
  8
0
100
AcDbLine
 62
7
  6
CONTINUOUS
 10
12.6491216383
 20
6.4817667192
 11
13.4255781329
 21
7.2317661447
  0
ARC
  5
367
100
AcDbEntity
  8
0
100
AcDbCircle
 62
7
  6
CONTINUOUS
 10
10.9260404018
 20
8.7048025878
 40
2.3268353346
100
AcDbArc
 50
171.6678728683
 51
173.0014994771
  0
ARC
  5
368
100
AcDbEntity
  8
0
100
AcDbCircle
 62
7
  6
CONTINUOUS
 10
9.5629315931
 20
8.5748169907
 40
0.9584571905
100
AcDbArc
 50
189.1014340788
 51
191.5149294916
  0
ARC
  5
369
100
AcDbEntity
  8
0
100
AcDbCircle
 62
7
  6
CONTINUOUS
 10
9.378592017
 20
8.9883684543
 40
0.7758589224
100
AcDbArc
 50
149.406521743
 51
152.3502505567
  0
ARC
  5
36A
100
AcDbEntity
  8
0
100
AcDbCircle
 62
7
  6
CONTINUOUS
 10
9.699067694
 20
8.1455730703
 40
0.5828755176
100
AcDbArc
 50
312.8750927443
 51
313.403173705
  0
ARC
  5
36B
100
AcDbEntity
  8
0
100
AcDbCircle
 62
7
  6
CONTINUOUS
 10
9.578661872
 20
8.2702249694
 40
0.5828164678
100
AcDbArc
 50
134.4980605011
 51
135.1388212156
  0
ARC
  5
36C
100
AcDbEntity
  8
0
100
AcDbCircle
 62
7
  6
CONTINUOUS
 10
12.2186377313
 20
7.3835450672
 40
0.428385811
100
AcDbArc
 50
312.4671246917
 51
313.4606865602
  0
ARC
  5
36D
100
AcDbEntity
  8
0
100
AcDbCircle
 62
7
  6
CONTINUOUS
 10
12.1301830389
 20
7.4751184827
 40
0.4282959965
100
AcDbArc
 50
134.8827445531
 51
135.546440806
  0
ARC
  5
36E
100
AcDbEntity
  8
0
100
AcDbCircle
 62
7
  6
CONTINUOUS
 10
9.6704385518
 20
8.2045370562
 40
0.4248455007
100
AcDbArc
 50
356.1901015279
 51
358.1161615499
  0
ARC
  5
36F
100
AcDbEntity
  8
0
100
AcDbCircle
 62
7
  6
CONTINUOUS
 10
12.1800833366
 20
7.4084136535
 40
0.2928274897
100
AcDbArc
 50
349.3377186106
 51
0.0364156305
  0
ARC
  5
370
100
AcDbEntity
  8
0
100
AcDbCircle
 62
7
  6
CONTINUOUS
 10
12.8291386428
 20
7.7557187876
 40
0.0343128096
100
AcDbArc
 50
254.5577590326
 51
265.9922069207
  0
ARC
  5
371
100
AcDbEntity
  8
0
100
AcDbCircle
 62
7
  6
CONTINUOUS
 10
12.8991097025
 20
8.7646792439
 40
0.0343034166
100
AcDbArc
 50
86.0725802886
 51
97.394487454
  0
SPLINE
  5
372
100
AcDbEntity
  8
0
100
AcDbSpline
 62
7
  6
CONTINUOUS
 70
0
 71
3
 72
9
 73
5
 74
0
 42
0.0000001
 43
0.0000001
 44
0.0000000001
 40
0.0
 40
0.0
 40
0.0
 40
0.0
 40
0.2576616456
 40
1.0
 40
1.0
 40
1.0
 40
1.0
 10
8.7548988344
 20
9.4512049751
 30
0.0
 10
8.7554944586
 20
9.4518782608
 30
0.0
 10
8.7578294164
 20
9.4544705269
 30
0.0
 10
8.7602600627
 20
9.4569772698
 30
0.0
 10
8.7621228466
 20
9.4587765809
 30
0.0
  0
SPLINE
  5
373
100
AcDbEntity
  8
0
100
AcDbSpline
 62
7
  6
CONTINUOUS
 70
0
 71
3
 72
9
 73
5
 74
0
 42
0.0000001
 43
0.0000001
 44
0.0000000001
 40
0.0
 40
0.0
 40
0.0
 40
0.0
 40
0.2578199612
 40
1.0
 40
1.0
 40
1.0
 40
1.0
 10
8.7621228466
 20
9.4587765809
 30
0.0
 10
8.7627188818
 20
9.4593523068
 30
0.0
 10
8.7650540846
 20
9.4615609131
 30
0.0
 10
8.7674854161
 20
9.4636688146
 30
0.0
 10
8.7693468587
 20
9.4651606958
 30
0.0
  0
SPLINE
  5
374
100
AcDbEntity
  8
0
100
AcDbSpline
 62
7
  6
CONTINUOUS
 70
0
 71
3
 72
23
 73
19
 74
0
 42
0.0000001
 43
0.0000001
 44
0.0000000001
 40
0.0
 40
0.0
 40
0.0
 40
0.0
 40
0.0814271046
 40
0.1607817343
 40
0.2379185405
 40
0.312696063
 40
0.3849800266
 40
0.4546476696
 40
0.5215900506
 40
0.5857253305
 40
0.6469976603
 40
0.7053923532
 40
0.760932103
 40
0.8136907295
 40
0.8637864076
 40
0.9113888908
 40
0.9567096643
 40
1.0
 40
1.0
 40
1.0
 40
1.0
 10
8.7548988344
 20
8.2275984458
 30
0.0
 10
8.7509062072
 20
8.2299561319
 30
0.0
 10
8.7430545204
 20
8.2346659342
 30
0.0
 10
8.7315465961
 20
8.2418166692
 30
0.0
 10
8.7204845454
 20
8.2489639597
 30
0.0
 10
8.7099003356
 20
8.2561045725
 30
0.0
 10
8.6998261306
 20
8.2632354727
 30
0.0
 10
8.6902929544
 20
8.2703523376
 30
0.0
 10
8.6813311304
 20
8.2774515639
 30
0.0
 10
8.67296781
 20
8.2845278581
 30
0.0
 10
8.6652278712
 20
8.2915772599
 30
0.0
 10
8.658130929
 20
8.2985940931
 30
0.0
 10
8.6516929279
 20
8.3055743663
 30
0.0
 10
8.6459230496
 20
8.3125127292
 30
0.0
 10
8.6408258786
 20
8.3194054405
 30
0.0
 10
8.6363988785
 20
8.3262482012
 30
0.0
 10
8.6326348181
 20
8.3330371549
 30
0.0
 10
8.6305139144
 20
8.3376218482
 30
0.0
 10
8.6295674919
 20
8.3398980554
 30
0.0
  0
SPLINE
  5
375
100
AcDbEntity
  8
0
100
AcDbSpline
 62
7
  6
CONTINUOUS
 70
0
 71
3
 72
9
 73
5
 74
0
 42
0.0000001
 43
0.0000001
 44
0.0000000001
 40
0.0
 40
0.0
 40
0.0
 40
0.0
 40
0.4964604369
 40
1.0
 40
1.0
 40
1.0
 40
1.0
 10
8.7107326849
 20
9.3832367614
 30
0.0
 10
8.7175505598
 20
9.3947921099
 30
0.0
 10
8.7318380245
 20
9.417743413
 30
0.0
 10
8.7470479893
 20
9.4400899442
 30
0.0
 10
8.7548988344
 20
9.4512049751
 30
0.0
  0
SPLINE
  5
376
100
AcDbEntity
  8
0
100
AcDbSpline
 62
7
  6
CONTINUOUS
 70
0
 71
3
 72
47
 73
43
 74
0
 42
0.0000001
 43
0.0000001
 44
0.0000000001
 40
0.0
 40
0.0
 40
0.0
 40
0.0
 40
0.0097390954
 40
0.0199695295
 40
0.0306881571
 40
0.0418903579
 40
0.0535693632
 40
0.0657172933
 40
0.0783253324
 40
0.0913829807
 40
0.1188003862
 40
0.1478697904
 40
0.1784776678
 40
0.2104990076
 40
0.2437996245
 40
0.2782371359
 40
0.3136617551
 40
0.3499180255
 40
0.3868455341
 40
0.4242797949
 40
0.462053577
 40
0.4999975974
 40
0.5379416192
 40
0.5757154697
 40
0.6131498368
 40
0.6500774863
 40
0.6863340113
 40
0.7217588358
 40
0.7561965785
 40
0.7894975871
 40
0.8215192438
 40
0.8521274831
 40
0.8811973937
 40
0.9086151749
 40
0.9216731274
 40
0.9342812907
 40
0.9464294722
 40
0.9581088203
 40
0.9693112294
 40
0.9800301946
 40
0.9902609526
 40
1.0
 40
1.0
 40
1.0
 40
1.0
 10
8.6218209507
 20
8.3585095681
 30
0.0
 10
8.6205593314
 20
8.3615407138
 30
0.0
 10
8.618082339
 20
8.3678020959
 30
0.0
 10
8.6145777141
 20
8.3775374146
 30
0.0
 10
8.611196345
 20
8.387836647
 30
0.0
 10
8.6079426491
 20
8.3986875675
 30
0.0
 10
8.6048201602
 20
8.4100772625
 30
0.0
 10
8.6018326729
 20
8.4219922072
 30
0.0
 10
8.5989840237
 20
8.4344183306
 30
0.0
 10
8.5953154155
 20
8.4519343968
 30
0.0
 10
8.591125915
 20
8.4750065615
 30
0.0
 10
8.5867783
 20
8.5040480813
 30
0.0
 10
8.5830541329
 20
8.5347398346
 30
0.0
 10
8.5799712995
 20
8.5669353359
 30
0.0
 10
8.5775450877
 20
8.6004811877
 30
0.0
 10
8.575787632
 20
8.6352172644
 30
0.0
 10
8.5747073641
 20
8.670977657
 30
0.0
 10
8.5743097631
 20
8.7075914706
 30
0.0
 10
8.5745970658
 20
8.7448837053
 30
0.0
 10
8.5755677882
 20
8.7826760786
 30
0.0
 10
8.5772174723
 20
8.8207878624
 30
0.0
 10
8.5795384194
 20
8.8590368034
 30
0.0
 10
8.5825193137
 20
8.8972400004
 30
0.0
 10
8.5861459904
 20
8.9352147457
 30
0.0
 10
8.5904011741
 20
8.9727794537
 30
0.0
 10
8.5952641968
 20
9.0097545383
 30
0.0
 10
8.6007118027
 20
9.0459632093
 30
0.0
 10
8.6067178793
 20
9.0812324087
 30
0.0
 10
8.6132532601
 20
9.1153936707
 30
0.0
 10
8.6202865836
 20
9.148283857
 30
0.0
 10
8.6277840056
 20
9.179745997
 30
0.0
 10
8.63570904
 20
9.2096302993
 30
0.0
 10
8.644023603
 20
9.2377941845
 30
0.0
 10
8.6513578792
 20
9.2600675715
 30
0.0
 10
8.6574090328
 20
9.2769099141
 30
0.0
 10
8.6619457238
 20
9.2888240922
 30
0.0
 10
8.6665492558
 20
9.3002128758
 30
0.0
 10
8.6712139332
 20
9.3110628661
 30
0.0
 10
8.6759344212
 20
9.3213610609
 30
0.0
 10
8.6807051046
 20
9.3310952652
 30
0.0
 10
8.6855198663
 20
9.3402539323
 30
0.0
 10
8.68883741
 20
9.3461135877
 30
0.0
 10
8.690505305
 20
9.3489415812
 30
0.0
  0
SPLINE
  5
377
100
AcDbEntity
  8
0
100
AcDbSpline
 62
7
  6
CONTINUOUS
 70
0
 71
3
 72
21
 73
17
 74
0
 42
0.0000001
 43
0.0000001
 44
0.0000000001
 40
0.0
 40
0.0
 40
0.0
 40
0.0
 40
0.1269527041
 40
0.1902689165
 40
0.2534593491
 40
0.3165116873
 40
0.37941528
 40
0.4421620112
 40
0.5047460954
 40
0.5671657261
 40
0.6294227274
 40
0.6915221182
 40
0.7534726662
 40
0.8152847883
 40
0.8769699244
 40
1.0
 40
1.0
 40
1.0
 40
1.0
 10
8.6165415244
 20
8.4232055663
 30
0.0
 10
8.6104130764
 20
8.4466367235
 30
0.0
 10
8.6020360607
 20
8.4819770128
 30
0.0
 10
8.5928648149
 20
8.529458426
 30
0.0
 10
8.5870874326
 20
8.5651633585
 30
0.0
 10
8.5824900878
 20
8.6009604484
 30
0.0
 10
8.5791460306
 20
8.6368121432
 30
0.0
 10
8.5771142326
 20
8.6726731997
 30
0.0
 10
8.576431762
 20
8.7084932933
 30
0.0
 10
8.5771106731
 20
8.7442200794
 30
0.0
 10
8.57913921
 20
8.7798028488
 30
0.0
 10
8.5824805624
 20
8.8151960568
 30
0.0
 10
8.5870758664
 20
8.8503619858
 30
0.0
 10
8.5928519732
 20
8.8852728509
 30
0.0
 10
8.6020059903
 20
8.931410463
 30
0.0
 10
8.6103939485
 20
8.9656604227
 30
0.0
 10
8.6165415244
 20
8.9883120408
 30
0.0
  0
SPLINE
  5
378
100
AcDbEntity
  8
0
100
AcDbSpline
 62
7
  6
CONTINUOUS
 70
0
 71
3
 72
15
 73
11
 74
0
 42
0.0000001
 43
0.0000001
 44
0.0000000001
 40
0.0
 40
0.0
 40
0.0
 40
0.0
 40
0.1201732322
 40
0.2410336384
 40
0.3629078784
 40
0.4861757754
 40
0.6112294411
 40
0.7384145049
 40
0.8679713593
 40
1.0
 40
1.0
 40
1.0
 40
1.0
 10
8.6237655366
 20
9.0419866913
 30
0.0
 10
8.6231777478
 20
9.0547006728
 30
0.0
 10
8.6226498044
 20
9.0802377531
 30
0.0
 10
8.6240862233
 20
9.1186698816
 30
0.0
 10
8.6280374847
 20
9.1572612399
 30
0.0
 10
8.6347556568
 20
9.1959231798
 30
0.0
 10
8.6444165454
 20
9.2345389112
 30
0.0
 10
8.6570854648
 20
9.2729763849
 30
0.0
 10
8.6727016837
 20
9.3111078299
 30
0.0
 10
8.6848501489
 20
9.3360293853
 30
0.0
 10
8.6913354316
 20
9.3484176916
 30
0.0
  0
SPLINE
  5
379
100
AcDbEntity
  8
0
100
AcDbSpline
 62
7
  6
CONTINUOUS
 70
0
 71
3
 72
9
 73
5
 74
0
 42
0.0000001
 43
0.0000001
 44
0.0000000001
 40
0.0
 40
0.0
 40
0.0
 40
0.0
 40
0.5118119473
 40
1.0
 40
1.0
 40
1.0
 40
1.0
 10
8.6295674919
 20
8.3398980554
 30
0.0
 10
8.6282758473
 20
8.343004544
 30
0.0
 10
8.6260768035
 20
8.3492159217
 30
0.0
 10
8.6246127232
 20
8.3556415616
 30
0.0
 10
8.6240876576
 20
8.3588073415
 30
0.0
  0
SPLINE
  5
37A
100
AcDbEntity
  8
0
100
AcDbSpline
 62
7
  6
CONTINUOUS
 70
0
 71
3
 72
11
 73
7
 74
0
 42
0.0000001
 43
0.0000001
 44
0.0000000001
 40
0.0
 40
0.0
 40
0.0
 40
0.0
 40
0.2546540834
 40
0.5052032516
 40
0.7531996566
 40
1.0
 40
1.0
 40
1.0
 40
1.0
 10
8.6240876576
 20
8.3588073415
 30
0.0
 10
8.6237436613
 20
8.3608813997
 30
0.0
 10
8.623221447
 20
8.3650245473
 30
0.0
 10
8.6229240831
 20
8.3712415782
 30
0.0
 10
8.6230922637
 20
8.3773981545
 30
0.0
 10
8.6234961322
 20
8.3814669731
 30
0.0
 10
8.6237655366
 20
8.3834866365
 30
0.0
  0
SPLINE
  5
37B
100
AcDbEntity
  8
0
100
AcDbSpline
 62
7
  6
CONTINUOUS
 70
0
 71
3
 72
16
 73
12
 74
0
 42
0.0000001
 43
0.0000001
 44
0.0000000001
 40
0.0
 40
0.0
 40
0.0
 40
0.0
 40
0.0495386904
 40
0.1010595434
 40
0.2098749707
 40
0.3260627415
 40
0.449171598
 40
0.578693767
 40
0.7140744396
 40
0.8547199479
 40
1.0
 40
1.0
 40
1.0
 40
1.0
 10
9.8348783662
 20
8.4019641479
 30
0.0
 10
9.8339896888
 20
8.4051653793
 30
0.0
 10
9.832254987
 20
8.4117178682
 30
0.0
 10
9.8289483022
 20
8.4254000009
 30
0.0
 10
9.8251439373
 20
8.4435555576
 30
0.0
 10
9.8211516415
 20
8.4665616359
 30
0.0
 10
9.8176741397
 20
8.4910542397
 30
0.0
 10
9.8147289775
 20
8.5169118787
 30
0.0
 10
9.8123311357
 20
8.5440065855
 30
0.0
 10
9.810493192
 20
8.5722037385
 30
0.0
 10
9.8096595241
 20
8.5913627464
 30
0.0
 10
9.8093338005
 20
8.6011004503
 30
0.0
  0
SPLINE
  5
37C
100
AcDbEntity
  8
0
100
AcDbSpline
 62
7
  6
CONTINUOUS
 70
0
 71
3
 72
90
 73
86
 74
0
 42
0.0000001
 43
0.0000001
 44
0.0000000001
 40
0.0
 40
0.0
 40
0.0
 40
0.0
 40
0.0039801841
 40
0.0081241159
 40
0.0124359656
 40
0.0169193153
 40
0.0215771898
 40
0.0264119289
 40
0.0314251936
 40
0.0366181713
 40
0.0419915567
 40
0.0475456772
 40
0.0532804457
 40
0.0591954437
 40
0.0652899501
 40
0.0715629317
 40
0.0846386004
 40
0.098409911
 40
0.1128604817
 40
0.1279710074
 40
0.1437195982
 40
0.1600820565
 40
0.1770321086
 40
0.194541602
 40
0.2125806763
 40
0.2311179203
 40
0.2501205135
 40
0.2695543567
 40
0.2893841934
 40
0.3095737255
 40
0.3300857245
 40
0.3508821382
 40
0.3719241976
 40
0.3931725218
 40
0.4145872201
 40
0.4361279928
 40
0.4577542316
 40
0.4794251191
 40
0.5010997291
 40
0.5227371263
 40
0.5442964667
 40
0.5657370967
 40
0.5870186529
 40
0.608101162
 40
0.6289451422
 40
0.6495117057
 40
0.6697626638
 40
0.6896606308
 40
0.7091691309
 40
0.728252709
 40
0.7468770455
 40
0.7650090769
 40
0.7826171262
 40
0.7996710429
 40
0.8161423523
 40
0.8320044245
 40
0.8472326669
 40
0.8618047498
 40
0.8757008734
 40
0.8889040964
 40
0.8952416854
 40
0.9014012239
 40
0.9073816029
 40
0.9131819719
 40
0.9188018178
 40
0.9242409106
 40
0.9294994338
 40
0.9345779311
 40
0.9394774185
 40
0.9441994036
 40
0.9487459354
 40
0.9531197203
 40
0.9573241226
 40
0.9613633439
 40
0.9652424353
 40
0.9689674716
 40
0.9725456352
 40
0.9759853336
 40
0.9824864943
 40
0.9855753483
 40
0.9885738142
 40
0.9914977336
 40
0.9943643342
 40
0.9971920087
 40
1.0
 40
1.0
 40
1.0
 40
1.0
 10
12.3137500902
 20
9.9758410281
 30
0.0
 10
12.3124241012
 20
9.974560221
 30
0.0
 10
12.3096573549
 20
9.9720076657
 30
0.0
 10
12.3052646125
 20
9.9682794664
 30
0.0
 10
12.3005492948
 20
9.9645780099
 30
0.0
 10
12.2955139885
 20
9.9609052617
 30
0.0
 10
12.2901611483
 20
9.9572629368
 30
0.0
 10
12.2844933973
 20
9.9536528074
 30
0.0
 10
12.27851357
 20
9.9500766043
 30
0.0
 10
12.2722246335
 20
9.9465361835
 30
0.0
 10
12.2656297633
 20
9.9430332441
 30
0.0
 10
12.2587322381
 20
9.939569589
 30
0.0
 10
12.2515355255
 20
9.9361469195
 30
0.0
 10
12.2440432376
 20
9.9327669729
 30
0.0
 10
12.2362591266
 20
9.929431443
 30
0.0
 10
12.2253451208
 20
9.9249839506
 30
0.0
 10
12.2109922857
 20
9.9195598019
 30
0.0
 10
12.1929003725
 20
9.9133409407
 30
0.0
 10
12.1737457711
 20
9.9073380077
 30
0.0
 10
12.1535671036
 20
9.9015632043
 30
0.0
 10
12.1324048803
 20
9.8960282836
 30
0.0
 10
12.1103017307
 20
9.8907445181
 30
0.0
 10
12.0873022108
 20
9.8857226719
 30
0.0
 10
12.0634527321
 20
9.8809729772
 30
0.0
 10
12.0388014541
 20
9.8765051073
 30
0.0
 10
12.0133981821
 20
9.8723281599
 30
0.0
 10
11.9872942591
 20
9.868450639
 30
0.0
 10
11.9605424587
 20
9.8648804375
 30
0.0
 10
11.9331968757
 20
9.8616248214
 30
0.0
 10
11.9053128152
 20
9.8586904158
 30
0.0
 10
11.8769466798
 20
9.8560831919
 30
0.0
 10
11.8481558548
 20
9.8538084521
 30
0.0
 10
11.8189985902
 20
9.8518708209
 30
0.0
 10
11.7895338805
 20
9.8502742379
 30
0.0
 10
11.7598213447
 20
9.8490219488
 30
0.0
 10
11.729921105
 20
9.8481164999
 30
0.0
 10
11.6998936655
 20
9.8475597326
 30
0.0
 10
11.669799789
 20
9.8473527805
 30
0.0
 10
11.639700374
 20
9.8474960639
 30
0.0
 10
11.6096563297
 20
9.8479892901
 30
0.0
 10
11.5797284524
 20
9.8488314557
 30
0.0
 10
11.5499773021
 20
9.8500208485
 30
0.0
 10
11.52046308
 20
9.8515550507
 30
0.0
 10
11.4912455064
 20
9.8534309437
 30
0.0
 10
11.4623836989
 20
9.8556447147
 30
0.0
 10
11.4339360512
 20
9.8581918621
 30
0.0
 10
11.4059601133
 20
9.8610672033
 30
0.0
 10
11.3785124743
 20
9.8642648886
 30
0.0
 10
11.3516486477
 20
9.8677784117
 30
0.0
 10
11.3254229578
 20
9.8716006225
 30
0.0
 10
11.2998884281
 20
9.8757237414
 30
0.0
 10
11.2750966708
 20
9.8801393754
 30
0.0
 10
11.2510977773
 20
9.884838533
 30
0.0
 10
11.2279402117
 20
9.8898116409
 30
0.0
 10
11.2056707099
 20
9.895048568
 30
0.0
 10
11.1843341726
 20
9.9005386455
 30
0.0
 10
11.1639735917
 20
9.9062706919
 30
0.0
 10
11.1446298612
 20
9.9122330402
 30
0.0
 10
11.1263419935
 20
9.9184135662
 30
0.0
 10
11.1118207309
 20
9.9238063885
 30
0.0
 10
11.1007685529
 20
9.928229829
 30
0.0
 10
11.092879292
 20
9.9315487986
 30
0.0
 10
11.0852804399
 20
9.9349127715
 30
0.0
 10
11.0779758184
 20
9.9383201163
 30
0.0
 10
11.0709690818
 20
9.9417690559
 30
0.0
 10
11.0642637651
 20
9.9452579233
 30
0.0
 10
11.0578632061
 20
9.9487849106
 30
0.0
 10
11.0517706211
 20
9.9523483014
 30
0.0
 10
11.0459890457
 20
9.9559463058
 30
0.0
 10
11.0405213543
 20
9.9595771353
 30
0.0
 10
11.0353702899
 20
9.9632390475
 30
0.0
 10
11.0305383786
 20
9.9669301982
 30
0.0
 10
11.0260280662
 20
9.9706488853
 30
0.0
 10
11.0218415619
 20
9.9743932596
 30
0.0
 10
11.0179809766
 20
9.978161653
 30
0.0
 10
11.0144483351
 20
9.9819521677
 30
0.0
 10
11.0112451625
 20
9.9857635266
 30
0.0
 10
11.0074875385
 20
9.990775024
 30
0.0
 10
11.0042967039
 20
9.9959216021
 30
0.0
 10
11.00176332
 20
10.0011780725
 30
0.0
 10
11.0002326607
 20
10.0050656246
 30
0.0
 10
10.9990406806
 20
10.0089626359
 30
0.0
 10
10.9981883569
 20
10.0128672133
 30
0.0
 10
10.9976766317
 20
10.0167765731
 30
0.0
 10
10.997562711
 20
10.0193883318
 30
0.0
 10
10.9975627112
 20
10.0206889501
 30
0.0
  0
SPLINE
  5
37D
100
AcDbEntity
  8
0
100
AcDbSpline
 62
7
  6
CONTINUOUS
 70
0
 71
3
 72
25
 73
21
 74
0
 42
0.0000001
 43
0.0000001
 44
0.0000000001
 40
0.0
 40
0.0
 40
0.0
 40
0.0
 40
0.06377716
 40
0.127343222
 40
0.190700148
 40
0.2538535537
 40
0.3168099705
 40
0.3795782475
 40
0.4421688972
 40
0.5045942157
 40
0.5668681101
 40
0.629005993
 40
0.6910246336
 40
0.7219973337
 40
0.7529470518
 40
0.8147821333
 40
0.8765547559
 40
0.9074265679
 40
0.9382904805
 40
1.0
 40
1.0
 40
1.0
 40
1.0
 10
10.2772906314
 20
8.1550300232
 30
0.0
 10
10.2772906314
 20
8.1447003333
 30
0.0
 10
10.2767962571
 20
8.1240716416
 30
0.0
 10
10.2745646385
 20
8.093253995
 30
0.0
 10
10.2708491712
 20
8.0626807642
 30
0.0
 10
10.2656584502
 20
8.0324234256
 30
0.0
 10
10.259004292
 20
8.0025513994
 30
0.0
 10
10.2509020103
 20
7.9731336485
 30
0.0
 10
10.2413701898
 20
7.9442379633
 30
0.0
 10
10.2304307702
 20
7.9159310143
 30
0.0
 10
10.2181088405
 20
7.8882779709
 30
0.0
 10
10.2044330249
 20
7.8613430379
 30
0.0
 10
10.1919282432
 20
7.8395366513
 30
0.0
 10
10.181281939
 20
7.8225159739
 30
0.0
 10
10.1702207578
 20
7.805797541
 30
0.0
 10
10.1556105302
 20
7.7854561362
 30
0.0
 10
10.1399842221
 20
7.7659006173
 30
0.0
 10
10.1269023247
 20
7.7507643154
 30
0.0
 10
10.113442973
 20
7.7359770783
 30
0.0
 10
10.1029241122
 20
7.7252800859
 30
0.0
 10
10.0957352971
 20
7.7183362367
 30
0.0
  0
SPLINE
  5
37E
100
AcDbEntity
  8
0
100
AcDbSpline
 62
7
  6
CONTINUOUS
 70
0
 71
3
 72
23
 73
19
 74
0
 42
0.0000001
 43
0.0000001
 44
0.0000000001
 40
0.0
 40
0.0
 40
0.0
 40
0.0
 40
0.0637774716
 40
0.1273446947
 40
0.1907020108
 40
0.2538561385
 40
0.3168131788
 40
0.379582097
 40
0.4421733871
 40
0.5045993393
 40
0.5668738666
 40
0.62901238
 40
0.6910316508
 40
0.7529496465
 40
0.8147853569
 40
0.8765586065
 40
0.938289857
 40
1.0
 40
1.0
 40
1.0
 40
1.0
 10
12.6413942313
 20
7.388341118
 30
0.0
 10
12.6413942313
 20
7.3807501343
 30
0.0
 10
12.6410309138
 20
7.3655906182
 30
0.0
 10
12.6393909872
 20
7.3429435278
 30
0.0
 10
12.6366605623
 20
7.3204760078
 30
0.0
 10
12.6328460708
 20
7.298240684
 30
0.0
 10
12.6279561179
 20
7.2762884876
 30
0.0
 10
12.6220019876
 20
7.2546701303
 30
0.0
 10
12.61499732
 20
7.2334354296
 30
0.0
 10
12.6069582305
 20
7.2126333588
 30
0.0
 10
12.597903217
 20
7.1923118892
 30
0.0
 10
12.5878531212
 20
7.1725178912
 30
0.0
 10
12.5768310869
 20
7.1532970277
 30
0.0
 10
12.5648624901
 20
7.1346936319
 30
0.0
 10
12.5519749428
 20
7.1167506679
 30
0.0
 10
12.5381980044
 20
7.0995093912
 30
0.0
 10
12.5235639961
 20
7.083010109
 30
0.0
 10
12.5132571592
 20
7.0725286975
 30
0.0
 10
12.5079742912
 20
7.067425834
 30
0.0
  0
SPLINE
  5
37F
100
AcDbEntity
  8
0
100
AcDbSpline
 62
7
  6
CONTINUOUS
 70
0
 71
3
 72
30
 73
26
 74
0
 42
0.0000001
 43
0.0000001
 44
0.0000000001
 40
0.0
 40
0.0
 40
0.0
 40
0.0
 40
0.0955533866
 40
0.188124318
 40
0.2772085408
 40
0.3623285989
 40
0.4430164283
 40
0.5188432044
 40
0.5894326096
 40
0.6544837432
 40
0.6848723895
 40
0.7138138136
 40
0.74130627
 40
0.7673599979
 40
0.7920008451
 40
0.8152705061
 40
0.8372330007
 40
0.8579745759
 40
0.8962382411
 40
0.9141340904
 40
0.931459837
 40
0.9484528148
 40
0.9653686772
 40
0.9824672335
 40
1.0
 40
1.0
 40
1.0
 40
1.0
 10
9.6953443572
 20
8.0688320235
 30
0.0
 10
9.6968235193
 20
8.0684144161
 30
0.0
 10
9.6997516184
 20
8.0676473547
 30
0.0
 10
9.7041078369
 20
8.0666903145
 30
0.0
 10
9.7083352439
 20
8.065945937
 30
0.0
 10
9.7124021814
 20
8.0654152813
 30
0.0
 10
9.7162775141
 20
8.0650977116
 30
0.0
 10
9.7199308326
 20
8.0649908327
 30
0.0
 10
9.7233329039
 20
8.0650907884
 30
0.0
 10
9.7259937887
 20
8.0653474625
 30
0.0
 10
9.7279705935
 20
8.0656589474
 30
0.0
 10
9.7293399573
 20
8.0659355803
 30
0.0
 10
9.7306271747
 20
8.0662595571
 30
0.0
 10
9.7318296838
 20
8.0666299942
 30
0.0
 10
9.7329451479
 20
8.0670459045
 30
0.0
 10
9.7339713169
 20
8.0675063544
 30
0.0
 10
9.7349064716
 20
8.0680105678
 30
0.0
 10
9.7359993977
 20
8.0687202727
 30
0.0
 10
9.7369457897
 20
8.0695326045
 30
0.0
 10
9.7376998246
 20
8.0704459943
 30
0.0
 10
9.7381538524
 20
8.0711552049
 30
0.0
 10
9.7385072846
 20
8.071902211
 30
0.0
 10
9.7387593872
 20
8.072685456
 30
0.0
 10
9.738909617
 20
8.0735030683
 30
0.0
 10
9.7389415444
 20
8.0740607833
 30
0.0
 10
9.7389415532
 20
8.0743427991
 30
0.0
  0
SPLINE
  5
380
100
AcDbEntity
  8
0
100
AcDbSpline
 62
7
  6
CONTINUOUS
 70
0
 71
3
 72
9
 73
5
 74
0
 42
0.0000001
 43
0.0000001
 44
0.0000000001
 40
0.0
 40
0.0
 40
0.0
 40
0.0
 40
0.4998153321
 40
1.0
 40
1.0
 40
1.0
 40
1.0
 10
9.6887554081
 20
8.0577076044
 30
0.0
 10
9.6899791262
 20
8.0594816283
 30
0.0
 10
9.6922809392
 20
8.0631329567
 30
0.0
 10
9.6943535696
 20
8.0669163373
 30
0.0
 10
9.6953443572
 20
8.0688320235
 30
0.0
  0
SPLINE
  5
381
100
AcDbEntity
  8
0
100
AcDbSpline
 62
7
  6
CONTINUOUS
 70
0
 71
3
 72
11
 73
7
 74
0
 42
0.0000001
 43
0.0000001
 44
0.0000000001
 40
0.0
 40
0.0
 40
0.0
 40
0.0
 40
0.2518007244
 40
0.5038819863
 40
0.7540903321
 40
1.0
 40
1.0
 40
1.0
 40
1.0
 10
9.6602653777
 20
8.0707060499
 30
0.0
 10
9.6625301675
 20
8.0693626255
 30
0.0
 10
9.6671348419
 20
8.0667945446
 30
0.0
 10
9.6742207049
 20
8.0633248854
 30
0.0
 10
9.6814273592
 20
8.060267948
 30
0.0
 10
9.6863116409
 20
8.0585084818
 30
0.0
 10
9.6887554081
 20
8.0577076044
 30
0.0
  0
SPLINE
  5
382
100
AcDbEntity
  8
0
100
AcDbSpline
 62
7
  6
CONTINUOUS
 70
0
 71
3
 72
11
 73
7
 74
0
 42
0.0000001
 43
0.0000001
 44
0.0000000001
 40
0.0
 40
0.0
 40
0.0
 40
0.0
 40
0.2401723092
 40
0.4880269268
 40
0.7418839774
 40
1.0
 40
1.0
 40
1.0
 40
1.0
 10
9.6351399925
 20
8.0896200852
 30
0.0
 10
9.6369652354
 20
8.0878786838
 30
0.0
 10
9.6407830713
 20
8.0844528102
 30
0.0
 10
9.6468748909
 20
8.0795871219
 30
0.0
 10
9.6533827203
 20
8.0749602698
 30
0.0
 10
9.6579335802
 20
8.0720892218
 30
0.0
 10
9.6602653777
 20
8.0707060499
 30
0.0
  0
SPLINE
  5
383
100
AcDbEntity
  8
0
100
AcDbSpline
 62
7
  6
CONTINUOUS
 70
0
 71
3
 72
9
 73
5
 74
0
 42
0.0000001
 43
0.0000001
 44
0.0000000001
 40
0.0
 40
0.0
 40
0.0
 40
0.0
 40
0.4999774276
 40
1.0
 40
1.0
 40
1.0
 40
1.0
 10
9.6302848008
 20
8.1090579602
 30
0.0
 10
9.6309938936
 20
8.1057946321
 30
0.0
 10
9.6324996319
 20
8.0992862992
 30
0.0
 10
9.6342162807
 20
8.0928295856
 30
0.0
 10
9.6351399925
 20
8.0896200852
 30
0.0
  0
SPLINE
  5
384
100
AcDbEntity
  8
0
100
AcDbSpline
 62
7
  6
CONTINUOUS
 70
0
 71
3
 72
78
 73
74
 74
0
 42
0.0000001
 43
0.0000001
 44
0.0000000001
 40
0.0
 40
0.0
 40
0.0
 40
0.0
 40
0.0039143463
 40
0.0079857565
 40
0.0122181372
 40
0.0166148036
 40
0.0211785972
 40
0.0259118291
 40
0.0308161618
 40
0.0358927422
 40
0.0411423328
 40
0.0465652633
 40
0.0579303697
 40
0.0699851255
 40
0.0827216189
 40
0.0961283103
 40
0.1101904924
 40
0.1248907136
 40
0.1402091077
 40
0.1561236446
 40
0.1726103197
 40
0.1896433595
 40
0.2071953947
 40
0.2252375971
 40
0.2437397855
 40
0.2626705616
 40
0.2819974318
 40
0.3016869075
 40
0.3217045891
 40
0.3420152745
 40
0.3625830638
 40
0.4043426485
 40
0.4466862564
 40
0.48931058
 40
0.5319096986
 40
0.5741779275
 40
0.615812657
 40
0.6362998226
 40
0.6565179887
 40
0.6764314806
 40
0.6960053574
 40
0.7152055028
 40
0.7339987331
 40
0.7523529123
 40
0.7702370405
 40
0.7876213614
 40
0.8044774967
 40
0.8207785971
 40
0.8364994654
 40
0.8516167182
 40
0.8661089927
 40
0.8799571986
 40
0.8931447647
 40
0.9056579714
 40
0.9174863901
 40
0.9286234542
 40
0.9339322481
 40
0.9390678661
 40
0.9440309302
 40
0.9488224833
 40
0.9534439845
 40
0.9578974719
 40
0.9621855207
 40
0.9663113521
 40
0.9702789563
 40
0.9740930849
 40
0.9777594419
 40
0.9812847468
 40
0.9846768099
 40
0.9879447205
 40
0.9941474947
 40
0.9971108471
 40
1.0
 40
1.0
 40
1.0
 40
1.0
 10
12.1234626911
 20
9.958127875
 30
0.0
 10
12.1225507014
 20
9.9572469605
 30
0.0
 10
12.1206497834
 20
9.9554911647
 30
0.0
 10
12.1176354854
 20
9.952924938
 30
0.0
 10
12.1144046406
 20
9.9503765383
 30
0.0
 10
12.1109589361
 20
9.947847334
 30
0.0
 10
12.1073000213
 20
9.9453384186
 30
0.0
 10
12.103429568
 20
9.9428509724
 30
0.0
 10
12.099349406
 20
9.940386115
 30
0.0
 10
12.0950614814
 20
9.9379450126
 30
0.0
 10
12.0905678132
 20
9.9355288515
 30
0.0
 10
12.084204994
 20
9.9322913518
 30
0.0
 10
12.0757429251
 20
9.9283244074
 30
0.0
 10
12.0649573048
 20
9.9237530975
 30
0.0
 10
12.0534077032
 20
9.9193079796
 30
0.0
 10
12.0411161719
 20
9.9149976101
 30
0.0
 10
12.0281060236
 20
9.9108302768
 30
0.0
 10
12.0144020875
 20
9.906814026
 30
0.0
 10
12.0000305439
 20
9.9029566259
 30
0.0
 10
11.9850188988
 20
9.8992655528
 30
0.0
 10
11.9693959258
 20
9.8957479453
 30
0.0
 10
11.9531915996
 20
9.8924106096
 30
0.0
 10
11.9364370237
 20
9.8892600082
 30
0.0
 10
11.9191643725
 20
9.8863022492
 30
0.0
 10
11.9014068353
 20
9.8835430518
 30
0.0
 10
11.8831985454
 20
9.8809877493
 30
0.0
 10
11.8645745055
 20
9.8786412866
 30
0.0
 10
11.8455705201
 20
9.8765082091
 30
0.0
 10
11.8262231441
 20
9.8745926443
 30
0.0
 10
11.8065695598
 20
9.8728982657
 30
0.0
 10
11.7798728053
 20
9.8709285961
 30
0.0
 10
11.7460156658
 20
9.8690483151
 30
0.0
 10
11.7049829376
 20
9.8677250911
 30
0.0
 10
11.6636587206
 20
9.8673343159
 30
0.0
 10
11.6223606575
 20
9.8678789536
 30
0.0
 10
11.5814061928
 20
9.8693548355
 30
0.0
 10
11.5476474167
 20
9.8713615757
 30
0.0
 10
11.5210550501
 20
9.8734313571
 30
0.0
 10
11.5014981071
 20
9.8751989375
 30
0.0
 10
11.4822596905
 20
9.8771865316
 30
0.0
 10
11.4633767679
 20
9.8793903213
 30
0.0
 10
11.444885662
 20
9.8818060436
 30
0.0
 10
11.4268219242
 20
9.8844290316
 30
0.0
 10
11.4092202749
 20
9.8872542015
 30
0.0
 10
11.3921145387
 20
9.8902760853
 30
0.0
 10
11.3755375825
 20
9.8934888393
 30
0.0
 10
11.3595212417
 20
9.89688625
 30
0.0
 10
11.3440962502
 20
9.9004617298
 30
0.0
 10
11.329292187
 20
9.9042083547
 30
0.0
 10
11.3151374194
 20
9.9081188761
 30
0.0
 10
11.3016590351
 20
9.9121857345
 30
0.0
 10
11.2888827634
 20
9.9164010579
 30
0.0
 10
11.2768329564
 20
9.9207567066
 30
0.0
 10
11.2655324362
 20
9.9252443131
 30
0.0
 10
11.2550027677
 20
9.9298552645
 30
0.0
 10
11.2467599783
 20
9.9338545932
 30
0.0
 10
11.240576241
 20
9.9371166221
 30
0.0
 10
11.236217786
 20
9.939549341
 30
0.0
 10
11.2320664178
 20
9.9420062128
 30
0.0
 10
11.2281240858
 20
9.9444860767
 30
0.0
 10
11.2243926889
 20
9.9469878124
 30
0.0
 10
11.2208739673
 20
9.9495102064
 30
0.0
 10
11.2175695915
 20
9.9520521054
 30
0.0
 10
11.2144811467
 20
9.9546123694
 30
0.0
 10
11.2116100575
 20
9.9571897874
 30
0.0
 10
11.2089577348
 20
9.9597832477
 30
0.0
 10
11.2065254318
 20
9.962391613
 30
0.0
 10
11.2043143643
 20
9.9650136272
 30
0.0
 10
11.202325543
 20
9.967648554
 30
0.0
 10
11.2000122813
 20
9.9711157775
 30
0.0
 10
11.1980889213
 20
9.9746712601
 30
0.0
 10
11.1966143489
 20
9.978290249
 30
0.0
 10
11.196032981
 20
9.9800971461
 30
0.0
 10
11.1957822087
 20
9.9809987992
 30
0.0
  0
SPLINE
  5
385
100
AcDbEntity
  8
0
100
AcDbSpline
 62
7
  6
CONTINUOUS
 70
0
 71
3
 72
15
 73
11
 74
0
 42
0.0000001
 43
0.0000001
 44
0.0000000001
 40
0.0
 40
0.0
 40
0.0
 40
0.0
 40
0.1431411907
 40
0.2803151056
 40
0.4118287895
 40
0.5380569337
 40
0.6594450514
 40
0.7765029481
 40
0.8898071016
 40
1.0
 40
1.0
 40
1.0
 40
1.0
 10
12.1234626911
 20
9.958127875
 30
0.0
 10
12.124409951
 20
9.9590428579
 30
0.0
 10
12.1262237935
 20
9.9608780921
 30
0.0
 10
12.1287459655
 20
9.9637081863
 30
0.0
 10
12.1310085186
 20
9.9665539689
 30
0.0
 10
12.1330098655
 20
9.9694138722
 30
0.0
 10
12.1347487729
 20
9.9722864506
 30
0.0
 10
12.1362239796
 20
9.9751704156
 30
0.0
 10
12.1374343197
 20
9.9780639074
 30
0.0
 10
12.1380715485
 20
9.9800220201
 30
0.0
 10
12.1383432157
 20
9.9809987991
 30
0.0
  0
SPLINE
  5
386
100
AcDbEntity
  8
0
100
AcDbSpline
 62
7
  6
CONTINUOUS
 70
0
 71
3
 72
23
 73
19
 74
0
 42
0.0000001
 43
0.0000001
 44
0.0000000001
 40
0.0
 40
0.0
 40
0.0
 40
0.0
 40
0.0637771706
 40
0.1273448423
 40
0.190701976
 40
0.2538561364
 40
0.3168131911
 40
0.379582093
 40
0.4421733865
 40
0.504599335
 40
0.5668738647
 40
0.6290123811
 40
0.6910316516
 40
0.752949644
 40
0.8147853513
 40
0.8765586011
 40
0.9382898546
 40
1.0
 40
1.0
 40
1.0
 40
1.0
 10
10.0662251597
 20
8.217656421
 30
0.0
 10
10.0662251597
 20
8.2114386259
 30
0.0
 10
10.0659275516
 20
8.1990213531
 30
0.0
 10
10.0645842945
 20
8.180470975
 30
0.0
 10
10.0623477674
 20
8.1620676549
 30
0.0
 10
10.0592233047
 20
8.1438545671
 30
0.0
 10
10.0552179092
 20
8.1258733762
 30
0.0
 10
10.0503408194
 20
8.1081656442
 30
0.0
 10
10.0446032417
 20
8.0907721666
 30
0.0
 10
10.0380183707
 20
8.0737330541
 30
0.0
 10
10.0306013555
 20
8.0570876025
 30
0.0
 10
10.0223692512
 20
8.0408742105
 30
0.0
 10
10.013341008
 20
8.0251302881
 30
0.0
 10
10.0035374321
 20
8.0098921386
 30
0.0
 10
9.992981151
 20
7.995194945
 30
0.0
 10
9.9816963718
 20
7.9810725017
 30
0.0
 10
9.9697095603
 20
7.9675578289
 30
0.0
 10
9.9612671334
 20
7.9589724648
 30
0.0
 10
9.9569399067
 20
7.9547926702
 30
0.0
  0
SPLINE
  5
387
100
AcDbEntity
  8
0
100
AcDbSpline
 62
7
  6
CONTINUOUS
 70
0
 71
3
 72
39
 73
35
 74
0
 42
0.0000001
 43
0.0000001
 44
0.0000000001
 40
0.0
 40
0.0
 40
0.0
 40
0.0
 40
0.0310753533
 40
0.062307914
 40
0.0936931276
 40
0.125222289
 40
0.1568840436
 40
0.1886642048
 40
0.2205461649
 40
0.252511249
 40
0.2845391082
 40
0.3166081364
 40
0.3486959074
 40
0.3807796231
 40
0.412836566
 40
0.44484455
 40
0.4767823665
 40
0.508630214
 40
0.5403701087
 40
0.5719862657
 40
0.6034654504
 40
0.634797285
 40
0.6659745047
 40
0.6969931573
 40
0.7278527396
 40
0.7585562634
 40
0.7891102405
 40
0.8195245856
 40
0.8498124374
 40
0.8799898958
 40
0.9100756749
 40
0.9400906815
 40
0.970057529
 40
1.0
 40
1.0
 40
1.0
 40
1.0
 10
10.0662251597
 20
8.217656421
 30
0.0
 10
10.0662251597
 20
8.2273033375
 30
0.0
 10
10.0655055207
 20
8.246653397
 30
0.0
 10
10.0622924902
 20
8.2755858528
 30
0.0
 10
10.0569612915
 20
8.3043484168
 30
0.0
 10
10.0495413854
 20
8.3327811133
 30
0.0
 10
10.0400738315
 20
8.3607283381
 30
0.0
 10
10.0286108358
 20
8.3880365556
 30
0.0
 10
10.0152155501
 20
8.4145559501
 30
0.0
 10
9.9999616635
 20
8.4401409948
 30
0.0
 10
9.9829330111
 20
8.4646513016
 30
0.0
 10
9.9642231297
 20
8.4879523693
 30
0.0
 10
9.943934778
 20
8.5099163467
 30
0.0
 10
9.9221793275
 20
8.5304226894
 30
0.0
 10
9.8990761683
 20
8.5493588185
 30
0.0
 10
9.8747520578
 20
8.5666207218
 30
0.0
 10
9.8493404697
 20
8.5821135711
 30
0.0
 10
9.8229808379
 20
8.5957522049
 30
0.0
 10
9.7958177994
 20
8.6074615831
 30
0.0
 10
9.7680004122
 20
8.6171771905
 30
0.0
 10
9.7396813647
 20
8.6248454265
 30
0.0
 10
9.7110161453
 20
8.6304239165
 30
0.0
 10
9.6821621873
 20
8.6338817039
 30
0.0
 10
9.6532780236
 20
8.6351994376
 30
0.0
 10
9.6245224299
 20
8.6343694914
 30
0.0
 10
9.5960535557
 20
8.6313960827
 30
0.0
 10
9.5680280569
 20
8.6262952052
 30
0.0
 10
9.5406002355
 20
8.6190945633
 30
0.0
 10
9.5139212069
 20
8.6098334447
 30
0.0
 10
9.4881379884
 20
8.5985625304
 30
0.0
 10
9.4633928666
 20
8.5853437937
 30
0.0
 10
9.4398218839
 20
8.5702494535
 30
0.0
 10
9.4175567614
 20
8.5533641616
 30
0.0
 10
9.4036597753
 20
8.5409696852
 30
0.0
 10
9.3969741505
 20
8.534511845
 30
0.0
  0
SPLINE
  5
388
100
AcDbEntity
  8
0
100
AcDbSpline
 62
7
  6
CONTINUOUS
 70
0
 71
3
 72
21
 73
17
 74
0
 42
0.0000001
 43
0.0000001
 44
0.0000000001
 40
0.0
 40
0.0
 40
0.0
 40
0.0
 40
0.12731758
 40
0.2538000122
 40
0.3167619425
 40
0.3795355005
 40
0.4421315041
 40
0.5045621466
 40
0.5668413435
 40
0.6289845285
 40
0.6910084568
 40
0.7529310961
 40
0.8147714484
 40
0.8765493394
 40
0.9382852242
 40
1.0
 40
1.0
 40
1.0
 40
1.0
 10
12.4559780133
 20
7.4467427938
 30
0.0
 10
12.4559780133
 20
7.4389047143
 30
0.0
 10
12.4552298129
 20
7.4232698814
 30
0.0
 10
12.4524041276
 20
7.4039418507
 30
0.0
 10
12.4490267849
 20
7.3887806993
 30
0.0
 10
12.445946828
 20
7.3775978348
 30
0.0
 10
12.4423234905
 20
7.3666136615
 30
0.0
 10
12.4381650337
 20
7.3558532233
 30
0.0
 10
12.4334810835
 20
7.3453413995
 30
0.0
 10
12.4282824125
 20
7.3351024128
 30
0.0
 10
12.4225809458
 20
7.3251599154
 30
0.0
 10
12.4163898507
 20
7.3155368185
 30
0.0
 10
12.4097234277
 20
7.3062553312
 30
0.0
 10
12.4025969311
 20
7.297336818
 30
0.0
 10
12.3950270734
 20
7.2888021401
 30
0.0
 10
12.3896955973
 20
7.2833803343
 30
0.0
 10
12.3869628831
 20
7.2807407491
 30
0.0
  0
SPLINE
  5
389
100
AcDbEntity
  8
0
100
AcDbSpline
 62
7
  6
CONTINUOUS
 70
0
 71
3
 72
39
 73
35
 74
0
 42
0.0000001
 43
0.0000001
 44
0.0000000001
 40
0.0
 40
0.0
 40
0.0
 40
0.0
 40
0.0307104587
 40
0.0615397722
 40
0.0924842772
 40
0.1235413793
 40
0.1547056773
 40
0.1859710588
 40
0.2173300343
 40
0.2487740599
 40
0.2802935932
 40
0.3118782207
 40
0.343516783
 40
0.3751975051
 40
0.4069081327
 40
0.4386360717
 40
0.4703685316
 40
0.5020926709
 40
0.5337957434
 40
0.5654652414
 40
0.5970890382
 40
0.6286555266
 40
0.6601537532
 40
0.6915735497
 40
0.7229056563
 40
0.7541418376
 40
0.7852749871
 40
0.8162992216
 40
0.8472099643
 40
0.8780040131
 40
0.9086795968
 40
0.9392364143
 40
0.9696756549
 40
1.0
 40
1.0
 40
1.0
 40
1.0
 10
12.4729119974
 20
7.4085997674
 30
0.0
 10
12.4729119974
 20
7.4141744308
 30
0.0
 10
12.4725988512
 20
7.4253477896
 30
0.0
 10
12.4711976969
 20
7.4420854217
 30
0.0
 10
12.4688684691
 20
7.4587832965
 30
0.0
 10
12.4656186986
 20
7.4753883963
 30
0.0
 10
12.4614584648
 20
7.491849128
 30
0.0
 10
12.4564008885
 20
7.5081139603
 30
0.0
 10
12.4504617861
 20
7.524132102
 30
0.0
 10
12.443659762
 20
7.5398535015
 30
0.0
 10
12.4360161104
 20
7.5552290511
 30
0.0
 10
12.4275547474
 20
7.5702107233
 30
0.0
 10
12.4183021354
 20
7.5847517229
 30
0.0
 10
12.4082872
 20
7.5988066296
 30
0.0
 10
12.3975412415
 20
7.6123315395
 30
0.0
 10
12.3860978365
 20
7.6252841997
 30
0.0
 10
12.373992738
 20
7.6376241425
 30
0.0
 10
12.3612637709
 20
7.6493128195
 30
0.0
 10
12.3479507015
 20
7.6603137106
 30
0.0
 10
12.3340951166
 20
7.6705924387
 30
0.0
 10
12.3197402942
 20
7.6801168756
 30
0.0
 10
12.3049310704
 20
7.6888572416
 30
0.0
 10
12.2897136998
 20
7.6967861968
 30
0.0
 10
12.2741357166
 20
7.7038789334
 30
0.0
 10
12.2582457872
 20
7.7101132593
 30
0.0
 10
12.2420935532
 20
7.7154696544
 30
0.0
 10
12.2257294796
 20
7.719931334
 30
0.0
 10
12.209204697
 20
7.7234843004
 30
0.0
 10
12.1925708508
 20
7.7261173887
 30
0.0
 10
12.1758799177
 20
7.727822297
 30
0.0
 10
12.1591841301
 20
7.7285936376
 30
0.0
 10
12.1425355019
 20
7.7284289121
 30
0.0
 10
12.1259868128
 20
7.7273286689
 30
0.0
 10
12.1150335188
 20
7.7259709928
 30
0.0
 10
12.109592456
 20
7.7251372184
 30
0.0
  0
SPLINE
  5
38A
100
AcDbEntity
  8
0
100
AcDbSpline
 62
7
  6
CONTINUOUS
 70
0
 71
3
 72
41
 73
37
 74
0
 42
0.0000001
 43
0.0000001
 44
0.0000000001
 40
0.0
 40
0.0
 40
0.0
 40
0.0
 40
0.0310750003
 40
0.046674464
 40
0.062312494
 40
0.0936974057
 40
0.1252262387
 40
0.1568876805
 40
0.1886675201
 40
0.2205491599
 40
0.2525139229
 40
0.268523588
 40
0.2845462912
 40
0.3166149974
 40
0.3487024468
 40
0.3807858411
 40
0.4128424624
 40
0.4448501254
 40
0.4767876212
 40
0.5086351486
 40
0.5403747235
 40
0.5719905626
 40
0.6034694315
 40
0.6348009518
 40
0.6659778585
 40
0.6969962
 40
0.7278554736
 40
0.7585586902
 40
0.7891123605
 40
0.8195263996
 40
0.849813947
 40
0.8799911023
 40
0.9100765789
 40
0.9400912834
 40
0.9700578297
 40
1.0
 40
1.0
 40
1.0
 40
1.0
 10
12.4559780133
 20
7.4467427938
 30
0.0
 10
12.4559780133
 20
7.4528349451
 30
0.0
 10
12.455637476
 20
7.4619899187
 30
0.0
 10
12.4545128097
 20
7.4741561173
 30
0.0
 10
12.4529369219
 20
7.4863339633
 30
0.0
 10
12.4501277225
 20
7.5014902141
 30
0.0
 10
12.4454419745
 20
7.5194455441
 30
0.0
 10
12.4394630908
 20
7.5370946591
 30
0.0
 10
12.4322240076
 20
7.5543402283
 30
0.0
 10
12.4237649017
 20
7.5710873049
 30
0.0
 10
12.4157406559
 20
7.5845460725
 30
0.0
 10
12.4087613439
 20
7.5949747118
 30
0.0
 10
12.4014122626
 20
7.6051713018
 30
0.0
 10
12.3915621803
 20
7.6174386048
 30
0.0
 10
12.3787500181
 20
7.6313088707
 30
0.0
 10
12.365011097
 20
7.6442589815
 30
0.0
 10
12.350421145
 20
7.6562173769
 30
0.0
 10
12.3350601343
 20
7.6671185107
 30
0.0
 10
12.3190123721
 20
7.6769024571
 30
0.0
 10
12.3023659033
 20
7.6855154375
 30
0.0
 10
12.2852120709
 20
7.692910061
 30
0.0
 10
12.2676450117
 20
7.6990455985
 30
0.0
 10
12.2497611496
 20
7.7038882034
 30
0.0
 10
12.2316586732
 20
7.7074111009
 30
0.0
 10
12.2134370047
 20
7.7095947392
 30
0.0
 10
12.1951962612
 20
7.7104269032
 30
0.0
 10
12.1770367109
 20
7.7099027902
 30
0.0
 10
12.1590582274
 20
7.708025046
 30
0.0
 10
12.1413597434
 20
7.7048037666
 30
0.0
 10
12.1240387034
 20
7.7002564514
 30
0.0
 10
12.1071905339
 20
7.6944079278
 30
0.0
 10
12.090908078
 20
7.6872901962
 30
0.0
 10
12.0752811957
 20
7.678942384
 30
0.0
 10
12.0603958047
 20
7.6694100945
 30
0.0
 10
12.0463350682
 20
7.6587468111
 30
0.0
 10
12.0375589499
 20
7.6509195125
 30
0.0
 10
12.0333368687
 20
7.6468413169
 30
0.0
  0
SPLINE
  5
38B
100
AcDbEntity
  8
0
100
AcDbSpline
 62
7
  6
CONTINUOUS
 70
0
 71
3
 72
20
 73
16
 74
0
 42
0.0000001
 43
0.0000001
 44
0.0000000001
 40
0.0
 40
0.0
 40
0.0
 40
0.0
 40
0.0424728794
 40
0.0880089751
 40
0.1366400255
 40
0.1883241093
 40
0.2429685062
 40
0.3004508215
 40
0.3606301359
 40
0.4233584541
 40
0.4884860453
 40
0.5558668857
 40
0.6968100718
 40
0.8451660756
 40
1.0
 40
1.0
 40
1.0
 40
1.0
 10
9.6139415676
 20
8.1392990484
 30
0.0
 10
9.6139413807
 20
8.1388038257
 30
0.0
 10
9.6139975955
 20
8.1377772088
 30
0.0
 10
9.6142276091
 20
8.1361990344
 30
0.0
 10
9.6146014048
 20
8.1345385308
 30
0.0
 10
9.6151138578
 20
8.1328047719
 30
0.0
 10
9.6157598523
 20
8.1310063597
 30
0.0
 10
9.6165340978
 20
8.1291516761
 30
0.0
 10
9.617431458
 20
8.1272486991
 30
0.0
 10
9.6184468516
 20
8.1253049448
 30
0.0
 10
9.6195754441
 20
8.1233274272
 30
0.0
 10
9.6212502354
 20
8.120613742
 30
0.0
 10
9.6236048425
 20
8.117182297
 30
0.0
 10
9.6267723708
 20
8.1130826635
 30
0.0
 10
9.6290765235
 20
8.1103993243
 30
0.0
 10
9.6302848008
 20
8.1090579602
 30
0.0
  0
SPLINE
  5
38C
100
AcDbEntity
  8
0
100
AcDbSpline
 62
7
  6
CONTINUOUS
 70
0
 71
3
 72
18
 73
14
 74
0
 42
0.0000001
 43
0.0000001
 44
0.0000000001
 40
0.0
 40
0.0
 40
0.0
 40
0.0
 40
0.0548620589
 40
0.1099280789
 40
0.165399508
 40
0.2214731255
 40
0.2783387361
 40
0.3361775086
 40
0.4554063416
 40
0.5804417492
 40
0.7123343341
 40
0.8519577333
 40
1.0
 40
1.0
 40
1.0
 40
1.0
 10
12.3365627112
 20
10.0206889502
 30
0.0
 10
12.336562711
 20
10.0197434294
 30
0.0
 10
12.3365026882
 20
10.0178483296
 30
0.0
 10
12.3362328475
 20
10.0150087633
 30
0.0
 10
12.3357832666
 20
10.0121708333
 30
0.0
 10
12.3351540937
 20
10.009335576
 30
0.0
 10
12.3343455727
 20
10.0065037074
 30
0.0
 10
12.3330157367
 20
10.0026956033
 30
0.0
 10
12.330885362
 20
9.9979326846
 30
0.0
 10
12.3276427989
 20
9.9923076595
 30
0.0
 10
12.3236935328
 20
9.9867190436
 30
0.0
 10
12.3190435721
 20
9.9811724462
 30
0.0
 10
12.3155852223
 20
9.9776136297
 30
0.0
 10
12.3137500902
 20
9.9758410281
 30
0.0
  0
SPLINE
  5
38D
100
AcDbEntity
  8
0
100
AcDbSpline
 62
7
  6
CONTINUOUS
 70
0
 71
3
 72
51
 73
47
 74
0
 42
0.0000001
 43
0.0000001
 44
0.0000000001
 40
0.0
 40
0.0
 40
0.0
 40
0.0
 40
0.0149716485
 40
0.0299463565
 40
0.0449271644
 40
0.0599170744
 40
0.0749190346
 40
0.0899359198
 40
0.1049705137
 40
0.1200254925
 40
0.1351034109
 40
0.1502066862
 40
0.1653375828
 40
0.1804982023
 40
0.1956904722
 40
0.2109161327
 40
0.2261767296
 40
0.241473608
 40
0.2568079046
 40
0.2721805407
 40
0.2875922226
 40
0.303043438
 40
0.3185344523
 40
0.334065311
 40
0.3496358431
 40
0.3652456603
 40
0.3965753769
 40
0.4280524346
 40
0.4596664537
 40
0.4914042018
 40
0.5232498957
 40
0.555185552
 40
0.5871913712
 40
0.619246145
 40
0.65132769
 40
0.68341329
 40
0.7154801477
 40
0.7475058396
 40
0.7794687608
 40
0.8113485629
 40
0.8431265731
 40
0.8747861836
 40
0.9063132226
 40
0.9376962675
 40
0.9689267871
 40
1.0
 40
1.0
 40
1.0
 40
1.0
 10
9.1654712076
 20
8.6814196539
 30
0.0
 10
9.1710251286
 20
8.6867843197
 30
0.0
 10
9.1823487156
 20
8.6972950996
 30
0.0
 10
9.1999490364
 20
8.7123755706
 30
0.0
 10
9.2181419987
 20
8.7267513121
 30
0.0
 10
9.2369021948
 20
8.7404022328
 30
0.0
 10
9.2562038827
 20
8.7533096637
 30
0.0
 10
9.2760204878
 20
8.7654558039
 30
0.0
 10
9.2963247525
 20
8.7768239333
 30
0.0
 10
9.3170887067
 20
8.787398457
 30
0.0
 10
9.3382837781
 20
8.7971648344
 30
0.0
 10
9.3598808159
 20
8.8061095979
 30
0.0
 10
9.3818500845
 20
8.8142204855
 30
0.0
 10
9.4041613476
 20
8.8214863726
 30
0.0
 10
9.4267839166
 20
8.8278972465
 30
0.0
 10
9.4496866653
 20
8.8334442968
 30
0.0
 10
9.4728380739
 20
8.8381199514
 30
0.0
 10
9.4962062974
 20
8.8419177868
 30
0.0
 10
9.5197591955
 20
8.8448325563
 30
0.0
 10
9.5434643636
 20
8.8468603118
 30
0.0
 10
9.5672892002
 20
8.8479982948
 30
0.0
 10
9.5912009333
 20
8.8482449208
 30
0.0
 10
9.6151667047
 20
8.8475998704
 30
0.0
 10
9.6391534536
 20
8.8460641092
 30
0.0
 10
9.6631285935
 20
8.843639655
 30
0.0
 10
9.6950706167
 20
8.8392219562
 30
0.0
 10
9.7348081147
 20
8.8314889499
 30
0.0
 10
9.781853143
 20
8.8187498174
 30
0.0
 10
9.8280661513
 20
8.8026093391
 30
0.0
 10
9.8731917169
 20
8.7831566424
 30
0.0
 10
9.9169826936
 20
8.7604988993
 30
0.0
 10
9.9591986602
 20
8.7347607578
 30
0.0
 10
9.999608001
 20
8.7060836904
 30
0.0
 10
10.0379890382
 20
8.6746253192
 30
0.0
 10
10.0741310968
 20
8.6405583188
 30
0.0
 10
10.1078359027
 20
8.6040697931
 30
0.0
 10
10.1389183832
 20
8.5653599504
 30
0.0
 10
10.1672078809
 20
8.5246412362
 30
0.0
 10
10.1925490131
 20
8.4821370905
 30
0.0
 10
10.2148024118
 20
8.4380806885
 30
0.0
 10
10.2338457562
 20
8.3927138448
 30
0.0
 10
10.2495740691
 20
8.3462854098
 30
0.0
 10
10.261900678
 20
8.2990505025
 30
0.0
 10
10.2707573807
 20
8.2512675548
 30
0.0
 10
10.2760950835
 20
8.2032023792
 30
0.0
 10
10.2772906314
 20
8.1710563209
 30
0.0
 10
10.2772906314
 20
8.1550300232
 30
0.0
  0
SPLINE
  5
38E
100
AcDbEntity
  8
0
100
AcDbSpline
 62
7
  6
CONTINUOUS
 70
0
 71
3
 72
39
 73
35
 74
0
 42
0.0000001
 43
0.0000001
 44
0.0000000001
 40
0.0
 40
0.0
 40
0.0
 40
0.0
 40
0.0306153385
 40
0.0613369981
 40
0.0921623152
 40
0.1230894323
 40
0.1541144242
 40
0.1852328503
 40
0.2164392354
 40
0.2477273059
 40
0.2790900102
 40
0.3105195995
 40
0.3420077046
 40
0.3735454157
 40
0.405123367
 40
0.4367318243
 40
0.4683607745
 40
0.5000000174
 40
0.5316392594
 40
0.5632682078
 40
0.5948766634
 40
0.6264546138
 40
0.6579923247
 40
0.6894804295
 40
0.7209100174
 40
0.7522727185
 40
0.783560785
 40
0.8147671676
 40
0.8458855863
 40
0.8769105964
 40
0.9078376475
 40
0.9386631355
 40
0.969384448
 40
1.0
 40
1.0
 40
1.0
 40
1.0
 10
10.0952854351
 20
8.1762268836
 30
0.0
 10
10.0952854286
 20
8.183871912
 30
0.0
 10
10.0949003921
 20
8.1991912364
 30
0.0
 10
10.0931763932
 20
8.2221496526
 30
0.0
 10
10.0903091829
 20
8.245072444
 30
0.0
 10
10.0863062022
 20
8.267901046
 30
0.0
 10
10.0811774475
 20
8.2905783668
 30
0.0
 10
10.0749359306
 20
8.3130472715
 30
0.0
 10
10.0675973607
 20
8.3352512894
 30
0.0
 10
10.0591802372
 20
8.3571345794
 30
0.0
 10
10.0497057625
 20
8.3786421231
 30
0.0
 10
10.0391977982
 20
8.3997198482
 30
0.0
 10
10.0276827955
 20
8.4203147651
 30
0.0
 10
10.0151897315
 20
8.4403750984
 30
0.0
 10
10.0017500359
 20
8.459850416
 30
0.0
 10
9.9873975128
 20
8.478691755
 30
0.0
 10
9.9721682553
 20
8.4968517423
 30
0.0
 10
9.9561005615
 20
8.5142847193
 30
0.0
 10
9.939234839
 20
8.5309468573
 30
0.0
 10
9.9216134952
 20
8.5467962614
 30
0.0
 10
9.9032808339
 20
8.5617930759
 30
0.0
 10
9.8842829438
 20
8.5758995834
 30
0.0
 10
9.8646675841
 20
8.5890802992
 30
0.0
 10
9.8444840648
 20
8.6013020595
 30
0.0
 10
9.823783126
 20
8.612534107
 30
0.0
 10
9.8026168139
 20
8.6227481771
 30
0.0
 10
9.7810383442
 20
8.6319185578
 30
0.0
 10
9.7591019689
 20
8.6400221548
 30
0.0
 10
9.7368628475
 20
8.6470385494
 30
0.0
 10
9.7143768852
 20
8.6529500507
 30
0.0
 10
9.6917006837
 20
8.6577417379
 30
0.0
 10
9.6688910683
 20
8.6614015062
 30
0.0
 10
9.6460061771
 20
8.6639200807
 30
0.0
 10
9.6307094268
 20
8.6648357077
 30
0.0
 10
9.6230689371
 20
8.6651006433
 30
0.0
  0
SPLINE
  5
38F
100
AcDbEntity
  8
0
100
AcDbSpline
 62
7
  6
CONTINUOUS
 70
0
 71
3
 72
33
 73
29
 74
0
 42
0.0000001
 43
0.0000001
 44
0.0000000001
 40
0.0
 40
0.0
 40
0.0
 40
0.0
 40
0.0335420589
 40
0.0668820119
 40
0.0999643292
 40
0.1327588891
 40
0.1974463122
 40
0.2609917669
 40
0.3235361783
 40
0.3852580563
 40
0.4463486065
 40
0.5070027556
 40
0.537234193
 40
0.5674312752
 40
0.5976189863
 40
0.6278226982
 40
0.6580680031
 40
0.6883801897
 40
0.7187843122
 40
0.7493048945
 40
0.7799653789
 40
0.8107875539
 40
0.8417911608
 40
0.8729932846
 40
0.9044076543
 40
0.9360440892
 40
0.9679080909
 40
1.0
 40
1.0
 40
1.0
 40
1.0
 10
10.054105158
 20
8.3144642079
 30
0.0
 10
10.0484575071
 20
8.3154837375
 30
0.0
 10
10.0372205244
 20
8.3176541644
 30
0.0
 10
10.0205116913
 20
8.3213154464
 30
0.0
 10
10.0040256331
 20
8.3253716539
 30
0.0
 10
9.9824791644
 20
8.3312773737
 30
0.0
 10
9.9562093829
 20
8.3396335525
 30
0.0
 10
9.9257106754
 20
8.3513186168
 30
0.0
 10
9.8964545814
 20
8.3646638914
 30
0.0
 10
9.8685183127
 20
8.3797286573
 30
0.0
 10
9.8419995872
 20
8.3965768512
 30
0.0
 10
9.8211597821
 20
8.4121783096
 30
0.0
 10
9.8053673423
 20
8.4255946785
 30
0.0
 10
9.793983954
 20
8.4361280217
 30
0.0
 10
9.7830762483
 20
8.447146671
 30
0.0
 10
9.7726720955
 20
8.4586536389
 30
0.0
 10
9.7628018748
 20
8.4706497563
 30
0.0
 10
9.7534978828
 20
8.4831333987
 30
0.0
 10
9.7447941433
 20
8.4960999017
 30
0.0
 10
9.7367260482
 20
8.5095411357
 30
0.0
 10
9.7293299007
 20
8.5234449511
 30
0.0
 10
9.7226422108
 20
8.5377946383
 30
0.0
 10
9.7166989855
 20
8.5525685483
 30
0.0
 10
9.7115348634
 20
8.5677398143
 30
0.0
 10
9.7071821359
 20
8.5832761028
 30
0.0
 10
9.7036697283
 20
8.5991399331
 30
0.0
 10
9.701022256
 20
8.6152878459
 30
0.0
 10
9.6998506987
 20
8.6261741967
 30
0.0
 10
9.6994129164
 20
8.6316475381
 30
0.0
  0
SPLINE
  5
390
100
AcDbEntity
  8
0
100
AcDbSpline
 62
7
  6
CONTINUOUS
 70
0
 71
3
 72
44
 73
40
 74
0
 42
0.0000001
 43
0.0000001
 44
0.0000000001
 40
0.0
 40
0.0
 40
0.0
 40
0.0
 40
0.0149722236
 40
0.0299475067
 40
0.0449288886
 40
0.0599193736
 40
0.0749219097
 40
0.08993937
 40
0.1049745397
 40
0.1200300961
 40
0.1351085917
 40
0.1502124449
 40
0.1804994096
 40
0.2109128633
 40
0.2414659442
 40
0.2721685685
 40
0.3030272475
 40
0.3340449904
 40
0.3652212956
 40
0.396552213
 40
0.4280304762
 40
0.4596457066
 40
0.4913846713
 40
0.5232315866
 40
0.555168468
 40
0.587175515
 40
0.6192315195
 40
0.6513142962
 40
0.6834011282
 40
0.7154692177
 40
0.7474961397
 40
0.7794602892
 40
0.8113413161
 40
0.8431205468
 40
0.8747813742
 40
0.9063096205
 40
0.9376938957
 40
0.9689255646
 40
1.0
 40
1.0
 40
1.0
 40
1.0
 10
11.824343102
 20
7.7751717945
 30
0.0
 10
11.8284245486
 20
7.7791141729
 30
0.0
 10
11.8367459536
 20
7.786838358
 30
0.0
 10
11.8496800264
 20
7.7979206684
 30
0.0
 10
11.8630495984
 20
7.8084851116
 30
0.0
 10
11.8768359987
 20
7.8185169308
 30
0.0
 10
11.8910203684
 20
7.8280023255
 30
0.0
 10
11.9055831235
 20
7.8369282789
 30
0.0
 10
11.9205042471
 20
7.8452825348
 30
0.0
 10
11.9357631498
 20
7.853053514
 30
0.0
 10
11.9513391165
 20
7.8602306921
 30
0.0
 10
11.9725174739
 20
7.8690022772
 30
0.0
 10
11.9996887013
 20
7.8784345181
 30
0.0
 10
12.0331729899
 20
7.8872250475
 30
0.0
 10
12.0673879602
 20
7.893452563
 30
0.0
 10
12.1021439578
 20
7.8970826192
 30
0.0
 10
12.1372500691
 20
7.8980958506
 30
0.0
 10
12.1725131248
 20
7.8964871407
 30
0.0
 10
12.2077393147
 20
7.892265765
 30
0.0
 10
12.2427350773
 20
7.8854552939
 30
0.0
 10
12.2773082176
 20
7.8760935729
 30
0.0
 10
12.3112689212
 20
7.8642323652
 30
0.0
 10
12.3444307639
 20
7.8499370579
 30
0.0
 10
12.3766117662
 20
7.8332864164
 30
0.0
 10
12.4076353611
 20
7.8143720759
 30
0.0
 10
12.4373313117
 20
7.7932979887
 30
0.0
 10
12.4655366721
 20
7.7701799339
 30
0.0
 10
12.492096701
 20
7.7451449035
 30
0.0
 10
12.5168656291
 20
7.718330323
 30
0.0
 10
12.5397074591
 20
7.6898833371
 30
0.0
 10
12.5604967983
 20
7.6599600812
 30
0.0
 10
12.5791194479
 20
7.6287247488
 30
0.0
 10
12.5954730011
 20
7.5963487
 30
0.0
 10
12.609467511
 20
7.563009616
 30
0.0
 10
12.6210259341
 20
7.528890415
 30
0.0
 10
12.6300844999
 20
7.4941785345
 30
0.0
 10
12.6365930611
 20
7.4590639234
 30
0.0
 10
12.6405156588
 20
7.4237419066
 30
0.0
 10
12.6413942313
 20
7.4001184959
 30
0.0
 10
12.6413942313
 20
7.388341118
 30
0.0
  0
SPLINE
  5
391
100
AcDbEntity
  8
0
100
AcDbSpline
 62
7
  6
CONTINUOUS
 70
0
 71
3
 72
73
 73
69
 74
0
 42
0.0000001
 43
0.0000001
 44
0.0000000001
 40
0.0
 40
0.0
 40
0.0
 40
0.0
 40
0.0036899217
 40
0.0075220722
 40
0.0114999241
 40
0.0156263923
 40
0.0199038122
 40
0.0243340611
 40
0.0289186039
 40
0.0336584765
 40
0.0385544129
 40
0.0436068119
 40
0.0541807001
 40
0.0653786566
 40
0.0771951324
 40
0.089621585
 40
0.1026468929
 40
0.1162576909
 40
0.1304386228
 40
0.1451725279
 40
0.1604406229
 40
0.1762226663
 40
0.1924970827
 40
0.2092410562
 40
0.2264306365
 40
0.2440408462
 40
0.2620457622
 40
0.2804185807
 40
0.2991316963
 40
0.3181567872
 40
0.3374648822
 40
0.3768107074
 40
0.4169274633
 40
0.4575665897
 40
0.498475352
 40
0.5393988829
 40
0.5800822002
 40
0.6202722166
 40
0.659719788
 40
0.6790891832
 40
0.6981823705
 40
0.7169702342
 40
0.7354242897
 40
0.7535167596
 40
0.771220657
 40
0.7885098461
 40
0.8053591152
 40
0.8217442679
 40
0.8376422293
 40
0.8530311246
 40
0.8678903835
 40
0.8822008716
 40
0.8959450526
 40
0.909107133
 40
0.9216732551
 40
0.93363175
 40
0.9449734639
 40
0.9556921057
 40
0.9608169699
 40
0.9657853037
 40
0.9705973493
 40
0.9752536818
 40
0.9797551699
 40
0.9841030803
 40
0.9882991772
 40
0.992345623
 40
0.9962449193
 40
1.0
 40
1.0
 40
1.0
 40
1.0
 10
12.8449845748
 20
7.6785378708
 30
0.0
 10
12.8440543164
 20
7.679681678
 30
0.0
 10
12.8422061729
 20
7.6820529599
 30
0.0
 10
12.8395197739
 20
7.6857818976
 30
0.0
 10
12.8368685786
 20
7.6897475412
 30
0.0
 10
12.834253754
 20
7.6939482208
 30
0.0
 10
12.831676282
 20
7.6983822196
 30
0.0
 10
12.8291372117
 20
7.7030477241
 30
0.0
 10
12.8266376012
 20
7.7079428401
 30
0.0
 10
12.8241784261
 20
7.7130655368
 30
0.0
 10
12.8217607065
 20
7.7184137362
 30
0.0
 10
12.8185448357
 20
7.7259572129
 30
0.0
 10
12.8146463987
 20
7.7359440536
 30
0.0
 10
12.8102174102
 20
7.7486152651
 30
0.0
 10
12.8059765902
 20
7.7621283671
 30
0.0
 10
12.8019309913
 20
7.7764610552
 30
0.0
 10
12.7980873532
 20
7.7915898425
 30
0.0
 10
12.7944521096
 20
7.807489793
 30
0.0
 10
12.7910313627
 20
7.8241346675
 30
0.0
 10
12.7878308478
 20
7.841496938
 30
0.0
 10
12.7848559288
 20
7.8595478531
 30
0.0
 10
12.7821116005
 20
7.8782575002
 30
0.0
 10
12.7796024783
 20
7.8975948573
 30
0.0
 10
12.777332773
 20
7.9175278392
 30
0.0
 10
12.7753062876
 20
7.9380233555
 30
0.0
 10
12.773526425
 20
7.9590473768
 30
0.0
 10
12.771996182
 20
7.9805649898
 30
0.0
 10
12.7707181272
 20
8.0025404534
 30
0.0
 10
12.769694408
 20
8.0249372478
 30
0.0
 10
12.7689267221
 20
8.0477181911
 30
0.0
 10
12.7682420986
 20
8.0787485128
 30
0.0
 10
12.7680440082
 20
8.1182161917
 30
0.0
 10
12.7688375311
 20
8.1662007461
 30
0.0
 10
12.7706560824
 20
8.2147823297
 30
0.0
 10
12.7734876521
 20
8.2636382015
 30
0.0
 10
12.7773135471
 20
8.3124439867
 30
0.0
 10
12.7821082705
 20
8.3608756539
 30
0.0
 10
12.7878399133
 20
8.4086114654
 30
0.0
 10
12.7933981483
 20
8.4477816403
 30
0.0
 10
12.7982930747
 20
8.4785246138
 30
0.0
 10
12.8021506517
 20
8.5010724453
 30
0.0
 10
12.8062103209
 20
8.5232130397
 30
0.0
 10
12.8104653489
 20
8.5449096362
 30
0.0
 10
12.8149086402
 20
8.5661261822
 30
0.0
 10
12.8195327798
 20
8.5868274432
 30
0.0
 10
12.8243300545
 20
8.6069790436
 30
0.0
 10
12.8292924661
 20
8.626547523
 30
0.0
 10
12.834411742
 20
8.6455004007
 30
0.0
 10
12.8396793315
 20
8.6638062383
 30
0.0
 10
12.8450864429
 20
8.6814346855
 30
0.0
 10
12.8506240556
 20
8.698356527
 30
0.0
 10
12.8562829374
 20
8.7145437446
 30
0.0
 10
12.862053639
 20
8.7299695776
 30
0.0
 10
12.8679265405
 20
8.7446085689
 30
0.0
 10
12.8738918645
 20
8.758436582
 30
0.0
 10
12.8799397208
 20
8.7714309537
 30
0.0
 10
12.8860600583
 20
8.7835702375
 30
0.0
 10
12.8912876373
 20
8.7930948371
 30
0.0
 10
12.8955054572
 20
8.8002618964
 30
0.0
 10
12.8986332346
 20
8.8053305085
 30
0.0
 10
12.9017715557
 20
8.8101709814
 30
0.0
 10
12.9049191064
 20
8.8147813446
 30
0.0
 10
12.9080745963
 20
8.8191596955
 30
0.0
 10
12.9112367852
 20
8.8233042437
 30
0.0
 10
12.9144043883
 20
8.827213352
 30
0.0
 10
12.917576199
 20
8.8308853995
 30
0.0
 10
12.9207507459
 20
8.8343187334
 30
0.0
 10
12.9229080961
 20
8.8364877922
 30
0.0
 10
12.9239872468
 20
8.8375301718
 30
0.0
  0
SPLINE
  5
392
100
AcDbEntity
  8
0
100
AcDbSpline
 62
7
  6
CONTINUOUS
 70
0
 71
3
 72
18
 73
14
 74
0
 42
0.0000001
 43
0.0000001
 44
0.0000000001
 40
0.0
 40
0.0
 40
0.0
 40
0.0
 40
0.0548620589
 40
0.1099280789
 40
0.165399508
 40
0.2214731255
 40
0.2783387361
 40
0.3361775086
 40
0.4554063416
 40
0.5804417492
 40
0.7123343341
 40
0.8519577333
 40
1.0
 40
1.0
 40
1.0
 40
1.0
 10
10.9975627112
 20
10.0206889501
 30
0.0
 10
10.9975627113
 20
10.0216344709
 30
0.0
 10
10.9976227341
 20
10.0235295706
 30
0.0
 10
10.9978925748
 20
10.026369137
 30
0.0
 10
10.9983421557
 20
10.029207067
 30
0.0
 10
10.9989713286
 20
10.0320423243
 30
0.0
 10
10.9997798496
 20
10.0348741929
 30
0.0
 10
11.0011096856
 20
10.038682297
 30
0.0
 10
11.0032400603
 20
10.0434452157
 30
0.0
 10
11.0064826234
 20
10.0490702408
 30
0.0
 10
11.0104318896
 20
10.0546588567
 30
0.0
 10
11.0150818502
 20
10.060205454
 30
0.0
 10
11.0185402
 20
10.0637642706
 30
0.0
 10
11.0203753321
 20
10.0655368722
 30
0.0
  0
SPLINE
  5
393
100
AcDbEntity
  8
0
100
AcDbSpline
 62
7
  6
CONTINUOUS
 70
0
 71
3
 72
15
 73
11
 74
0
 42
0.0000001
 43
0.0000001
 44
0.0000000001
 40
0.0
 40
0.0
 40
0.0
 40
0.0
 40
0.1109078615
 40
0.2249855509
 40
0.3427222426
 40
0.4645579675
 40
0.5908842603
 40
0.7220463035
 40
0.858337086
 40
1.0
 40
1.0
 40
1.0
 40
1.0
 10
11.0002426963
 20
10.0052680892
 30
0.0
 10
11.0006777329
 20
10.0065227158
 30
0.0
 10
11.0016571735
 20
10.0090351836
 30
0.0
 10
11.0034168907
 20
10.0127455562
 30
0.0
 10
11.0054846331
 20
10.0164440869
 30
0.0
 10
11.0078591664
 20
10.0201288516
 30
0.0
 10
11.0105391845
 20
10.0237984697
 30
0.0
 10
11.0135233862
 20
10.0274513797
 30
0.0
 10
11.0168100859
 20
10.0310858865
 30
0.0
 10
11.0191553736
 20
10.0334488536
 30
0.0
 10
11.0203753321
 20
10.0346272432
 30
0.0
  0
SPLINE
  5
394
100
AcDbEntity
  8
0
100
AcDbSpline
 62
7
  6
CONTINUOUS
 70
0
 71
3
 72
84
 73
80
 74
0
 42
0.0000001
 43
0.0000001
 44
0.0000000001
 40
0.0
 40
0.0
 40
0.0
 40
0.0
 40
0.0029341478
 40
0.0059530713
 40
0.0090700676
 40
0.0122970657
 40
0.0156446109
 40
0.0191219281
 40
0.0227370415
 40
0.0264968087
 40
0.0304071045
 40
0.034472856
 40
0.0386981718
 40
0.0430864458
 40
0.0476403758
 40
0.0523621234
 40
0.0572532861
 40
0.0623150142
 40
0.067548045
 40
0.0729527037
 40
0.0785290204
 40
0.0842766643
 40
0.0962828669
 40
0.1089640918
 40
0.1223089982
 40
0.1363031708
 40
0.1509295037
 40
0.1661685015
 40
0.181998537
 40
0.1983960687
 40
0.2153358201
 40
0.2327909365
 40
0.2507331211
 40
0.2691327574
 40
0.2879590338
 40
0.3071800521
 40
0.3267629298
 40
0.3466738974
 40
0.3668783892
 40
0.3873411397
 40
0.4080262764
 40
0.428897408
 40
0.4710493284
 40
0.5134994082
 40
0.5559467032
 40
0.5980902921
 40
0.6189552015
 40
0.6396327631
 40
0.6600866028
 40
0.6802808676
 40
0.7001803159
 40
0.7197504129
 40
0.73895742
 40
0.7577684884
 40
0.7761517566
 40
0.7940764534
 40
0.8115130126
 40
0.8284331901
 40
0.8448101858
 40
0.8606187827
 40
0.8758355043
 40
0.8904387986
 40
0.9044092593
 40
0.9177298734
 40
0.9303863296
 40
0.9364620816
 40
0.9423678795
 40
0.94810287
 40
0.9536665037
 40
0.9590584684
 40
0.964278813
 40
0.9693279138
 40
0.974206511
 40
0.9789157839
 40
0.9834573471
 40
0.9878334627
 40
0.992046971
 40
0.9961011951
 40
1.0
 40
1.0
 40
1.0
 40
1.0
 10
12.3339137491
 20
10.0051783357
 30
0.0
 10
12.3334758331
 20
10.0064486791
 30
0.0
 10
12.3324878653
 20
10.0089927802
 30
0.0
 10
12.3307079204
 20
10.0127492821
 30
0.0
 10
12.3286122559
 20
10.0164936238
 30
0.0
 10
12.3262021932
 20
10.0202238161
 30
0.0
 10
12.3234790852
 20
10.0239383508
 30
0.0
 10
12.320444408
 20
10.0276356536
 30
0.0
 10
12.3170996322
 20
10.0313140989
 30
0.0
 10
12.3134464596
 20
10.0349721738
 30
0.0
 10
12.3094865832
 20
10.0386082275
 30
0.0
 10
12.3052219023
 20
10.0422206873
 30
0.0
 10
12.300654419
 20
10.0458079472
 30
0.0
 10
12.2957862442
 20
10.0493683425
 30
0.0
 10
12.2906196908
 20
10.0529003131
 30
0.0
 10
12.2851571384
 20
10.0564021675
 30
0.0
 10
12.2794011698
 20
10.059872329
 30
0.0
 10
12.2733544761
 20
10.063309167
 30
0.0
 10
12.2670198882
 20
10.0667110512
 30
0.0
 10
12.2604004063
 20
10.0700764253
 30
0.0
 10
12.253499116
 20
10.0734036732
 30
0.0
 10
12.2437843377
 20
10.0778518765
 30
0.0
 10
12.2309490843
 20
10.0832934341
 30
0.0
 10
12.2146936388
 20
10.089555266
 30
0.0
 10
12.1973990742
 20
10.0956286518
 30
0.0
 10
12.1790980862
 20
10.1015020206
 30
0.0
 10
12.1598250802
 20
10.1071641679
 30
0.0
 10
12.1396164616
 20
10.1126042786
 30
0.0
 10
12.1185104436
 20
10.1178119559
 30
0.0
 10
12.096546989
 20
10.1227772412
 30
0.0
 10
12.0737677156
 20
10.1274906382
 30
0.0
 10
12.0502158158
 20
10.1319431304
 30
0.0
 10
12.0259359728
 20
10.1361262018
 30
0.0
 10
12.0009742727
 20
10.1400318597
 30
0.0
 10
11.9753781103
 20
10.1436526403
 30
0.0
 10
11.9491960934
 20
10.1469816247
 30
0.0
 10
11.9224779494
 20
10.1500124517
 30
0.0
 10
11.8952744333
 20
10.1527393276
 30
0.0
 10
11.8676372265
 20
10.1551570477
 30
0.0
 10
11.8396188552
 20
10.1572609906
 30
0.0
 10
11.8112725161
 20
10.1590471688
 30
0.0
 10
11.7729874007
 20
10.1610067448
 30
0.0
 10
11.7247083645
 20
10.1626345583
 30
0.0
 10
11.6665243451
 20
10.1632772467
 30
0.0
 10
11.6083444127
 20
10.1626103737
 30
0.0
 10
11.560074001
 20
10.160962435
 30
0.0
 10
11.5217998555
 20
10.1589868397
 30
0.0
 10
11.4934646825
 20
10.1571888511
 30
0.0
 10
11.4654594574
 20
10.1550732353
 30
0.0
 10
11.437837353
 20
10.1526440004
 30
0.0
 10
11.4106508659
 20
10.1499057898
 30
0.0
 10
11.3839516431
 20
10.146863835
 30
0.0
 10
11.3577904028
 20
10.1435239487
 30
0.0
 10
11.332216834
 20
10.1398925122
 30
0.0
 10
11.3072795035
 20
10.135976464
 30
0.0
 10
11.2830257596
 20
10.1317832852
 30
0.0
 10
11.2595016356
 20
10.1273209926
 30
0.0
 10
11.2367517593
 20
10.122598122
 30
0.0
 10
11.2148192667
 20
10.1176237059
 30
0.0
 10
11.1937457203
 20
10.1124072576
 30
0.0
 10
11.1735710162
 20
10.106958751
 30
0.0
 10
11.1543333204
 20
10.101288598
 30
0.0
 10
11.1360688933
 20
10.0954076329
 30
0.0
 10
11.1188123163
 20
10.0893270792
 30
0.0
 10
11.1051182983
 20
10.0840337237
 30
0.0
 10
11.0947005814
 20
10.0796989701
 30
0.0
 10
11.087265835
 20
10.0764495581
 30
0.0
 10
11.0801065056
 20
10.0731590075
 30
0.0
 10
11.0732259457
 20
10.0698289074
 30
0.0
 10
11.0666274195
 20
10.0664607815
 30
0.0
 10
11.0603140186
 20
10.0630562489
 30
0.0
 10
11.0542887119
 20
10.0596169004
 30
0.0
 10
11.0485543506
 20
10.0561443221
 30
0.0
 10
11.0431136071
 20
10.0526402051
 30
0.0
 10
11.0379690449
 20
10.0491061004
 30
0.0
 10
11.0331230099
 20
10.0455436457
 30
0.0
 10
11.0285777465
 20
10.0419543849
 30
0.0
 10
11.0243356012
 20
10.0383401495
 30
0.0
 10
11.0216595421
 20
10.0358676948
 30
0.0
 10
11.0203753321
 20
10.0346272432
 30
0.0
  0
SPLINE
  5
395
100
AcDbEntity
  8
0
100
AcDbSpline
 62
7
  6
CONTINUOUS
 70
0
 71
3
 72
21
 73
17
 74
0
 42
0.0000001
 43
0.0000001
 44
0.0000000001
 40
0.0
 40
0.0
 40
0.0
 40
0.0
 40
0.0576545217
 40
0.1144932238
 40
0.1708434487
 40
0.2270421056
 40
0.2834289542
 40
0.3403402061
 40
0.3981018968
 40
0.4570247326
 40
0.5173994016
 40
0.5794930722
 40
0.709728022
 40
0.778342538
 40
0.8495062898
 40
1.0
 40
1.0
 40
1.0
 40
1.0
 10
11.1957822087
 20
9.9809987992
 30
0.0
 10
11.1955485263
 20
9.9818390053
 30
0.0
 10
11.1951465177
 20
9.9835256057
 30
0.0
 10
11.1947444296
 20
9.9860809541
 30
0.0
 10
11.1945488991
 20
9.9886384787
 30
0.0
 10
11.194560069
 20
9.9911965898
 30
0.0
 10
11.1947779259
 20
9.993753933
 30
0.0
 10
11.1952023443
 20
9.9963090913
 30
0.0
 10
11.1958328865
 20
9.9988607526
 30
0.0
 10
11.1966690984
 20
10.0014076182
 30
0.0
 10
11.1977104526
 20
10.0039485845
 30
0.0
 10
11.1993978794
 20
10.0073810755
 30
0.0
 10
11.2014819473
 20
10.0107464988
 30
0.0
 10
11.2039118083
 20
10.0140309118
 30
0.0
 10
11.2067045574
 20
10.0174211769
 30
0.0
 10
11.2090254149
 20
10.0198492411
 30
0.0
 10
11.2106627312
 20
10.0214307672
 30
0.0
  0
SPLINE
  5
396
100
AcDbEntity
  8
0
100
AcDbSpline
 62
7
  6
CONTINUOUS
 70
0
 71
3
 72
71
 73
67
 74
0
 42
0.0000001
 43
0.0000001
 44
0.0000000001
 40
0.0
 40
0.0
 40
0.0
 40
0.0
 40
0.0155842357
 40
0.031115943
 40
0.0465952487
 40
0.0620238831
 40
0.0774034484
 40
0.0927362827
 40
0.1080251234
 40
0.1232731737
 40
0.1384840555
 40
0.1536617759
 40
0.1688106894
 40
0.1839354528
 40
0.1990409785
 40
0.2141323826
 40
0.2292149324
 40
0.2442939897
 40
0.2593749538
 40
0.2744632037
 40
0.2895640404
 40
0.3046826304
 40
0.3198239511
 40
0.3349927396
 40
0.3501934435
 40
0.3654301766
 40
0.3807066777
 40
0.3960262752
 40
0.4113918557
 40
0.4268058391
 40
0.4422701589
 40
0.4577862478
 40
0.4733550285
 40
0.4889769092
 40
0.5046517848
 40
0.5203790431
 40
0.5361575763
 40
0.5519857963
 40
0.5678616538
 40
0.5837826609
 40
0.5997459179
 40
0.6157481418
 40
0.6317856999
 40
0.6478546445
 40
0.6639507499
 40
0.6800695506
 40
0.6962063818
 40
0.7123564201
 40
0.7285147273
 40
0.7446762933
 40
0.7608360799
 40
0.7769890645
 40
0.7931302835
 40
0.8092548753
 40
0.8253581239
 40
0.8414355006
 40
0.8574827053
 40
0.873495705
 40
0.8894707706
 40
0.9054045132
 40
0.921293919
 40
0.9371363616
 40
0.9529297193
 40
0.9686720808
 40
0.9843626423
 40
1.0
 40
1.0
 40
1.0
 40
1.0
 10
10.0952854351
 20
8.1762264933
 30
0.0
 10
10.0952854351
 20
8.1687721834
 30
0.0
 10
10.0949206308
 20
8.1538860461
 30
0.0
 10
10.0932739047
 20
8.131650626
 30
0.0
 10
10.090532317
 20
8.1095978571
 30
0.0
 10
10.0867026135
 20
8.0877817456
 30
0.0
 10
10.0817938306
 20
8.0662545493
 30
0.0
 10
10.0758178116
 20
8.0450682674
 30
0.0
 10
10.068788872
 20
8.0242739522
 30
0.0
 10
10.0607239184
 20
8.0039217539
 30
0.0
 10
10.0516423557
 20
7.9840607507
 30
0.0
 10
10.0415660428
 20
7.9647388456
 30
0.0
 10
10.030519242
 20
7.9460026466
 30
0.0
 10
10.0185285607
 20
7.9278973548
 30
0.0
 10
10.0056228876
 20
7.9104666541
 30
0.0
 10
9.9918333274
 20
7.8937526026
 30
0.0
 10
9.9771931364
 20
7.8777955178
 30
0.0
 10
9.9617376241
 20
7.8626338909
 30
0.0
 10
9.9455040699
 20
7.8483042917
 30
0.0
 10
9.9285316323
 20
7.83484128
 30
0.0
 10
9.9108612535
 20
7.822277321
 30
0.0
 10
9.8925355591
 20
7.81064271
 30
0.0
 10
9.8735987644
 20
7.7999654798
 30
0.0
 10
9.8540965565
 20
7.7902713451
 30
0.0
 10
9.8340759799
 20
7.7815836455
 30
0.0
 10
9.8135853231
 20
7.7739232891
 30
0.0
 10
9.7926740014
 20
7.7673087031
 30
0.0
 10
9.7713924369
 20
7.7617557935
 30
0.0
 10
9.7497919398
 20
7.757277896
 30
0.0
 10
9.7279245827
 20
7.7538857403
 30
0.0
 10
9.7058430707
 20
7.7515874426
 30
0.0
 10
9.683600615
 20
7.7503884837
 30
0.0
 10
9.6612508059
 20
7.750291699
 30
0.0
 10
9.6388474844
 20
7.7512972721
 30
0.0
 10
9.6164446144
 20
7.7534027354
 30
0.0
 10
9.5940961502
 20
7.7566029577
 30
0.0
 10
9.5718559074
 20
7.7608901774
 30
0.0
 10
9.5497774346
 20
7.7662540217
 30
0.0
 10
9.5279138858
 20
7.7726815329
 30
0.0
 10
9.5063178942
 20
7.7801571983
 30
0.0
 10
9.4850414478
 20
7.7886629915
 30
0.0
 10
9.4641357594
 20
7.7981783995
 30
0.0
 10
9.4436511437
 20
7.8086804783
 30
0.0
 10
9.4236369014
 20
7.8201439185
 30
0.0
 10
9.4041412008
 20
7.8325411035
 30
0.0
 10
9.3852109634
 20
7.8458421759
 30
0.0
 10
9.3668917531
 20
7.8600151094
 30
0.0
 10
9.3492276643
 20
7.8750257813
 30
0.0
 10
9.3322612065
 20
7.8908380449
 30
0.0
 10
9.3160332141
 20
7.9074138319
 30
0.0
 10
9.300582748
 20
7.9247132411
 30
0.0
 10
9.2859470025
 20
7.9426946346
 30
0.0
 10
9.2721612166
 20
7.9613147358
 30
0.0
 10
9.2592585917
 20
7.9805287343
 30
0.0
 10
9.2472701955
 20
8.0002903824
 30
0.0
 10
9.2362248974
 20
8.020552115
 30
0.0
 10
9.2261493037
 20
8.041265166
 30
0.0
 10
9.217067694
 20
8.0623796836
 30
0.0
 10
9.2090019619
 20
8.0838448481
 30
0.0
 10
9.2019715634
 20
8.1056089966
 30
0.0
 10
9.1959934716
 20
8.1276197307
 30
0.0
 10
9.191082083
 20
8.1498240918
 30
0.0
 10
9.1872493316
 20
8.1721685135
 30
0.0
 10
9.1845043579
 20
8.194599524
 30
0.0
 10
9.1828540129
 20
8.2170622316
 30
0.0
 10
9.1824854752
 20
8.2320496661
 30
0.0
 10
9.1824854752
 20
8.2395293855
 30
0.0
  0
SPLINE
  5
397
100
AcDbEntity
  8
0
100
AcDbSpline
 62
7
  6
CONTINUOUS
 70
0
 71
3
 72
71
 73
67
 74
0
 42
0.0000001
 43
0.0000001
 44
0.0000000001
 40
0.0
 40
0.0
 40
0.0
 40
0.0
 40
0.0155126345
 40
0.0309746536
 40
0.0463874799
 40
0.0617528732
 40
0.0770731933
 40
0.0923511726
 40
0.1075899783
 40
0.122793162
 40
0.13796463
 40
0.1531086077
 40
0.1682295969
 40
0.1833323321
 40
0.1984217341
 40
0.2135028602
 40
0.2285808527
 40
0.2436608859
 40
0.2587481129
 40
0.2738476127
 40
0.2889643391
 40
0.3041030706
 40
0.3192683628
 40
0.3344645026
 40
0.3496954668
 40
0.3649648841
 40
0.3802760032
 40
0.3956316636
 40
0.411034271
 40
0.4264857773
 40
0.4419876661
 40
0.4575409443
 40
0.4731461379
 40
0.4888032908
 40
0.5045119692
 40
0.5202712692
 40
0.5360798308
 40
0.551935855
 40
0.5678371231
 40
0.5837810192
 40
0.5997645553
 40
0.6157844013
 40
0.6318369162
 40
0.6479181811
 40
0.6640240329
 40
0.6801501006
 40
0.6962918429
 40
0.7124445883
 40
0.7286035735
 40
0.7447639831
 40
0.7609209889
 40
0.777069791
 40
0.7932056588
 40
0.8093239702
 40
0.82542025
 40
0.8414902077
 40
0.8575297751
 40
0.8735351433
 40
0.8895027946
 40
0.905429539
 40
0.9213125353
 40
0.9371493184
 40
0.9529378978
 40
0.9686764317
 40
0.9843643197
 40
1.0
 40
1.0
 40
1.0
 40
1.0
 10
10.0943451456
 20
8.1763076529
 30
0.0
 10
10.0938912613
 20
8.1694952359
 30
0.0
 10
10.0926554217
 20
8.1559122186
 30
0.0
 10
10.0898143625
 20
8.1356866553
 30
0.0
 10
10.0859954684
 20
8.1156881185
 30
0.0
 10
10.0812075078
 20
8.0959634376
 30
0.0
 10
10.0754615245
 20
8.0765580288
 30
0.0
 10
10.0687707188
 20
8.0575167632
 30
0.0
 10
10.0611505027
 20
8.0388836379
 30
0.0
 10
10.0526184574
 20
8.0207017123
 30
0.0
 10
10.0431942691
 20
8.0030130063
 30
0.0
 10
10.0328996852
 20
7.9858584072
 30
0.0
 10
10.0217584653
 20
7.9692775738
 30
0.0
 10
10.0097963247
 20
7.9533088485
 30
0.0
 10
9.997040905
 20
7.937989143
 30
0.0
 10
9.9835216858
 20
7.9233538658
 30
0.0
 10
9.9692699099
 20
7.9094368462
 30
0.0
 10
9.9543185143
 20
7.8962702533
 30
0.0
 10
9.9387020498
 20
7.8838845276
 30
0.0
 10
9.9224566196
 20
7.8723082873
 30
0.0
 10
9.9056197886
 20
7.8615682615
 30
0.0
 10
9.8882304806
 20
7.8516892491
 30
0.0
 10
9.8703288919
 20
7.8426940573
 30
0.0
 10
9.8519563966
 20
7.8346034535
 30
0.0
 10
9.8331554572
 20
7.8274361072
 30
0.0
 10
9.8139695305
 20
7.8212085254
 30
0.0
 10
9.7944429511
 20
7.8159350491
 30
0.0
 10
9.7746208321
 20
7.8116278169
 30
0.0
 10
9.7545489612
 20
7.8082967392
 30
0.0
 10
9.7342736972
 20
7.8059494776
 30
0.0
 10
9.713841866
 20
7.8045913911
 30
0.0
 10
9.6933006452
 20
7.8042255601
 30
0.0
 10
9.6726974561
 20
7.8048527815
 30
0.0
 10
9.6520798568
 20
7.8064715668
 30
0.0
 10
9.6314954351
 20
7.8090781512
 30
0.0
 10
9.6109916955
 20
7.8126664697
 30
0.0
 10
9.5906159487
 20
7.817228189
 30
0.0
 10
9.5704152054
 20
7.8227527427
 30
0.0
 10
9.5504360698
 20
7.8292273513
 30
0.0
 10
9.5307246355
 20
7.8366370564
 30
0.0
 10
9.5113263747
 20
7.8449647355
 30
0.0
 10
9.4922860267
 20
7.8541911355
 30
0.0
 10
9.4736475065
 20
7.8642949448
 30
0.0
 10
9.4554538033
 20
7.8752528366
 30
0.0
 10
9.4377468843
 20
7.8870395237
 30
0.0
 10
9.4205675969
 20
7.8996278116
 30
0.0
 10
9.4039555564
 20
7.9129886375
 30
0.0
 10
9.3879490744
 20
7.9270911688
 30
0.0
 10
9.3725850703
 20
7.9419028697
 30
0.0
 10
9.3578989877
 20
7.9573895754
 30
0.0
 10
9.3439247173
 20
7.9735155713
 30
0.0
 10
9.3306944909
 20
7.9902436521
 30
0.0
 10
9.318238826
 20
8.0075352274
 30
0.0
 10
9.3065864625
 20
8.025350414
 30
0.0
 10
9.2957642949
 20
8.0436481243
 30
0.0
 10
9.2857973169
 20
8.062386162
 30
0.0
 10
9.2767085381
 20
8.0815213053
 30
0.0
 10
9.2685189359
 20
8.1010094121
 30
0.0
 10
9.2612474239
 20
8.1208055305
 30
0.0
 10
9.2549108091
 20
8.1408639988
 30
0.0
 10
9.2495237567
 20
8.1611385413
 30
0.0
 10
9.2450987166
 20
8.1815824151
 30
0.0
 10
9.2416459874
 20
8.2021483368
 30
0.0
 10
9.2391734261
 20
8.2227891847
 30
0.0
 10
9.237686997
 20
8.2434565011
 30
0.0
 10
9.2373550917
 20
8.2572450777
 30
0.0
 10
9.2373550917
 20
8.2641267539
 30
0.0
  0
SPLINE
  5
398
100
AcDbEntity
  8
0
100
AcDbSpline
 62
7
  6
CONTINUOUS
 70
0
 71
3
 72
86
 73
82
 74
0
 42
0.0000001
 43
0.0000001
 44
0.0000000001
 40
0.0
 40
0.0
 40
0.0
 40
0.0
 40
0.0029209555
 40
0.0057980778
 40
0.008651781
 40
0.0115030335
 40
0.0143728601
 40
0.0172818449
 40
0.0202496721
 40
0.0232947805
 40
0.0264340631
 40
0.0296827808
 40
0.0330544744
 40
0.036561004
 40
0.0402126817
 40
0.0440182997
 40
0.0479853625
 40
0.0521201549
 40
0.0564278762
 40
0.0609128254
 40
0.0655783962
 40
0.0704272879
 40
0.0754615221
 40
0.0806825079
 40
0.0860911869
 40
0.091687963
 40
0.0974728652
 40
0.1034455307
 40
0.1159503928
 40
0.1291937926
 40
0.1431620405
 40
0.157837759
 40
0.1732003513
 40
0.1892264007
 40
0.2058899817
 40
0.2231629154
 40
0.2410149776
 40
0.2594140901
 40
0.2783265067
 40
0.2977169672
 40
0.317548839
 40
0.3377842419
 40
0.3583841826
 40
0.3793086864
 40
0.4005169154
 40
0.4219672829
 40
0.4436175637
 40
0.4873456935
 40
0.5313560141
 40
0.5752994975
 40
0.6188278079
 40
0.6403289018
 40
0.6615977156
 40
0.682592504
 40
0.7032722405
 40
0.7235967326
 40
0.7435267461
 40
0.763024136
 40
0.782051965
 40
0.8005746335
 40
0.8185580199
 40
0.8359696445
 40
0.8527788409
 40
0.8689569294
 40
0.8844774269
 40
0.8993162952
 40
0.9134522548
 40
0.9268671414
 40
0.9395463475
 40
0.9456069022
 40
0.9514800068
 40
0.9571650947
 40
0.9626620368
 40
0.9679710457
 40
0.9730927964
 40
0.9780284552
 40
0.9827797222
 40
0.9873490755
 40
0.9917396496
 40
0.9959551587
 40
1.0
 40
1.0
 40
1.0
 40
1.0
 10
12.1383432157
 20
9.9809987991
 30
0.0
 10
12.1386013882
 20
9.9819270582
 30
0.0
 10
12.1390381532
 20
9.983791821
 30
0.0
 10
12.1394470796
 20
9.9866197401
 30
0.0
 10
12.1396030617
 20
9.989450077
 30
0.0
 10
12.1395059602
 20
9.9922805946
 30
0.0
 10
12.139155814
 20
9.9951093651
 30
0.0
 10
12.1385530658
 20
9.9979344351
 30
0.0
 10
12.1376984061
 20
10.0007540147
 30
0.0
 10
12.1365925863
 20
10.0035663991
 30
0.0
 10
12.135236674
 20
10.0063700959
 30
0.0
 10
12.1336316433
 20
10.0091636446
 30
0.0
 10
12.1317786327
 20
10.0119456983
 30
0.0
 10
12.1296788411
 20
10.0147149718
 30
0.0
 10
12.127333443
 20
10.0174701113
 30
0.0
 10
12.1247438205
 20
10.0202098816
 30
0.0
 10
12.1219113328
 20
10.0229329317
 30
0.0
 10
12.1188374966
 20
10.0256379482
 30
0.0
 10
12.1155239481
 20
10.0283236323
 30
0.0
 10
12.1119723795
 20
10.0309885816
 30
0.0
 10
12.1081846842
 20
10.0336315095
 30
0.0
 10
12.1041628152
 20
10.0362510261
 30
0.0
 10
12.0999088772
 20
10.0388457804
 30
0.0
 10
12.0954251119
 20
10.04141446
 30
0.0
 10
12.0907138453
 20
10.0439556672
 30
0.0
 10
12.0857775778
 20
10.0464681165
 30
0.0
 10
12.0806188868
 20
10.0489504807
 30
0.0
 10
12.0733358399
 20
10.0522692887
 30
0.0
 10
12.0636868392
 20
10.0563231185
 30
0.0
 10
12.0514377228
 20
10.0609756737
 30
0.0
 10
12.0383729165
 20
10.0654779209
 30
0.0
 10
12.0245200299
 20
10.0698202535
 30
0.0
 10
12.0099081926
 20
10.0739934086
 30
0.0
 10
11.9945682739
 20
10.0779884607
 30
0.0
 10
11.9785327111
 20
10.0817968597
 30
0.0
 10
11.9618354592
 20
10.085410448
 30
0.0
 10
11.9445119113
 20
10.0888214891
 30
0.0
 10
11.926598818
 20
10.0920226878
 30
0.0
 10
11.9081341983
 20
10.095007194
 30
0.0
 10
11.8891572523
 20
10.0977686218
 30
0.0
 10
11.8697082798
 20
10.1003010591
 30
0.0
 10
11.8498285967
 20
10.1025990922
 30
0.0
 10
11.8295604441
 20
10.104657812
 30
0.0
 10
11.808946889
 20
10.1064728201
 30
0.0
 10
11.7880317467
 20
10.1080402296
 30
0.0
 10
11.7668594319
 20
10.109356711
 30
0.0
 10
11.7382531934
 20
10.1107782348
 30
0.0
 10
11.7021845246
 20
10.1119059702
 30
0.0
 10
11.6587456907
 20
10.1122249307
 30
0.0
 10
11.6153774605
 20
10.1115109922
 30
0.0
 10
11.5794577776
 20
10.1100547905
 30
0.0
 10
11.5510410247
 20
10.1083718435
 30
0.0
 10
11.5300614933
 20
10.1068630249
 30
0.0
 10
11.5093732058
 20
10.1051058018
 30
0.0
 10
11.4890200938
 20
10.1031039023
 30
0.0
 10
11.4690454199
 20
10.1008616084
 30
0.0
 10
11.4494916238
 20
10.0983837094
 30
0.0
 10
11.4304002435
 20
10.0956755098
 30
0.0
 10
11.4118118243
 20
10.0927428029
 30
0.0
 10
11.3937658364
 20
10.0895918624
 30
0.0
 10
11.3763005867
 20
10.0862294259
 30
0.0
 10
11.3594531279
 20
10.0826626893
 30
0.0
 10
11.3432591737
 20
10.0788992932
 30
0.0
 10
11.3277530247
 20
10.0749472946
 30
0.0
 10
11.3129674863
 20
10.0708151516
 30
0.0
 10
11.2989338106
 20
10.0665116975
 30
0.0
 10
11.2856815224
 20
10.0620461269
 30
0.0
 10
11.2732386383
 20
10.0574279696
 30
0.0
 10
11.2634231896
 20
10.0534022415
 30
0.0
 10
11.2560037716
 20
10.0501048454
 30
0.0
 10
11.2507416135
 20
10.0476370777
 30
0.0
 10
11.2457006248
 20
10.045138586
 30
0.0
 10
11.2408834301
 20
10.0426107147
 30
0.0
 10
11.2362925792
 20
10.0400547565
 30
0.0
 10
11.2319304874
 20
10.037472064
 30
0.0
 10
11.2277994328
 20
10.034864027
 30
0.0
 10
11.2239015875
 20
10.0322319283
 30
0.0
 10
11.2202389254
 20
10.0295771392
 30
0.0
 10
11.2168133563
 20
10.02690093
 30
0.0
 10
11.2136268534
 20
10.0242048465
 30
0.0
 10
11.2116223694
 20
10.0223577067
 30
0.0
 10
11.2106627312
 20
10.0214307672
 30
0.0
  0
SPLINE
  5
399
100
AcDbEntity
  8
0
100
AcDbSpline
 62
7
  6
CONTINUOUS
 70
0
 71
3
 72
57
 73
53
 74
0
 42
0.0000001
 43
0.0000001
 44
0.0000000001
 40
0.0
 40
0.0
 40
0.0
 40
0.0
 40
0.0089117277
 40
0.0183586433
 40
0.0283437918
 40
0.0388669485
 40
0.0499251766
 40
0.0615132299
 40
0.0736237453
 40
0.086247615
 40
0.0993741167
 40
0.1129910509
 40
0.1270849781
 40
0.1416412222
 40
0.1566440308
 40
0.1720766901
 40
0.187921508
 40
0.2041599853
 40
0.2207728328
 40
0.2377400031
 40
0.2726533342
 40
0.3087279731
 40
0.3457828833
 40
0.3836301834
 40
0.4220765515
 40
0.460924615
 40
0.4999743176
 40
0.539024258
 40
0.5778730319
 40
0.6163205788
 40
0.6541695225
 40
0.6912265258
 40
0.7273036878
 40
0.7622199598
 40
0.7791887575
 40
0.7958033229
 40
0.8120436056
 40
0.8278903313
 40
0.8433249688
 40
0.858329845
 40
0.8728882389
 40
0.8869843701
 40
0.9006035929
 40
0.9137324373
 40
0.9263586949
 40
0.9384716631
 40
0.9500621903
 40
0.961122932
 40
0.9716486264
 40
0.981636298
 40
0.9910857729
 40
1.0
 40
1.0
 40
1.0
 40
1.0
 10
12.0793691296
 20
9.9300969917
 30
0.0
 10
12.0772610836
 20
9.9314603403
 30
0.0
 10
12.0728470257
 20
9.9341596016
 30
0.0
 10
12.0658588119
 20
9.9380264212
 30
0.0
 10
12.0583205904
 20
9.941823487
 30
0.0
 10
12.0502427651
 20
9.9455455676
 30
0.0
 10
12.0416362081
 20
9.9491876347
 30
0.0
 10
12.0325126405
 20
9.9527446409
 30
0.0
 10
12.0228845298
 20
9.9562117278
 30
0.0
 10
12.0127650573
 20
9.9595840776
 30
0.0
 10
12.0021681092
 20
9.9628570102
 30
0.0
 10
11.9911082581
 20
9.966026018
 30
0.0
 10
11.9796007196
 20
9.969086667
 30
0.0
 10
11.96766135
 20
9.9720347261
 30
0.0
 10
11.9553066101
 20
9.9748661106
 30
0.0
 10
11.9425535386
 20
9.977576857
 30
0.0
 10
11.9294197377
 20
9.9801632347
 30
0.0
 10
11.9159233426
 20
9.9826216317
 30
0.0
 10
11.9020829714
 20
9.984948648
 30
0.0
 10
11.8830145118
 20
9.9878998678
 30
0.0
 10
11.8584585997
 20
9.9912264117
 30
0.0
 10
11.8282085056
 20
9.9946112719
 30
0.0
 10
11.7970684339
 20
9.9974070381
 30
0.0
 10
11.7652104135
 20
9.9995980871
 30
0.0
 10
11.7328102986
 20
10.0011721464
 30
0.0
 10
11.7000470334
 20
10.0021204202
 30
0.0
 10
11.6671015751
 20
10.0024376036
 30
0.0
 10
11.6341559024
 20
10.002121914
 30
0.0
 10
11.6013919949
 20
10.0011751201
 30
0.0
 10
11.5689908128
 20
9.9996025241
 30
0.0
 10
11.5371313054
 20
9.9974129196
 30
0.0
 10
11.505989337
 20
9.9946185637
 30
0.0
 10
11.4757369484
 20
9.991235069
 30
0.0
 10
11.45117887
 20
9.9879096416
 30
0.0
 10
11.4321084822
 20
9.9849593035
 30
0.0
 10
11.4182665342
 20
9.9826329143
 30
0.0
 10
11.4047684739
 20
9.9801751229
 30
0.0
 10
11.3916329201
 20
9.9775893494
 30
0.0
 10
11.378878013
 20
9.9748791729
 30
0.0
 10
11.3665213544
 20
9.9720483491
 30
0.0
 10
11.3545799865
 20
9.9691008379
 30
0.0
 10
11.3430703765
 20
9.9660406985
 30
0.0
 10
11.3320083773
 20
9.962872199
 30
0.0
 10
11.3214092117
 20
9.9595997467
 30
0.0
 10
11.3112874573
 20
9.9562278459
 30
0.0
 10
11.3016569962
 20
9.9527612063
 30
0.0
 10
11.2925310222
 20
9.9492046043
 30
0.0
 10
11.2839220005
 20
9.9455629252
 30
0.0
 10
11.2758416531
 20
9.9418412219
 30
0.0
 10
11.2683008653
 20
9.9380444827
 30
0.0
 10
11.2613100332
 20
9.934177987
 30
0.0
 10
11.2568941806
 20
9.9314789334
 30
0.0
 10
11.2547852222
 20
9.9301156993
 30
0.0
  0
SPLINE
  5
39A
100
AcDbEntity
  8
0
100
AcDbSpline
 62
7
  6
CONTINUOUS
 70
0
 71
3
 72
46
 73
42
 74
0
 42
0.0000001
 43
0.0000001
 44
0.0000000001
 40
0.0
 40
0.0
 40
0.0
 40
0.0
 40
0.0109044672
 40
0.0222172697
 40
0.0339324888
 40
0.0460432389
 40
0.0585419098
 40
0.0714200574
 40
0.0846686459
 40
0.0982779081
 40
0.1265361257
 40
0.1561065744
 40
0.1868926679
 40
0.2187910667
 40
0.2516925168
 40
0.2854826113
 40
0.3200425011
 40
0.3552495705
 40
0.3909780895
 40
0.4270998505
 40
0.4634847946
 40
0.500001632
 40
0.5365184583
 40
0.572903369
 40
0.6090250747
 40
0.6447535166
 40
0.6799604877
 40
0.7145202583
 40
0.7483102136
 40
0.7812115052
 40
0.8131097271
 40
0.8438956264
 40
0.8734658646
 40
0.901723857
 40
0.9285807232
 40
0.9414587589
 40
0.9539572911
 40
0.9660679205
 40
0.9777829997
 40
0.9890956724
 40
1.0
 40
1.0
 40
1.0
 40
1.0
 10
12.0052567298
 20
9.9044184767
 30
0.0
 10
12.002939634
 20
9.905343886
 30
0.0
 10
11.9981959995
 20
9.907172996
 30
0.0
 10
11.9908922742
 20
9.9098083962
 30
0.0
 10
11.9832752458
 20
9.9123838343
 30
0.0
 10
11.9753523132
 20
9.9148968461
 30
0.0
 10
11.9671310904
 20
9.9173449472
 30
0.0
 10
11.9586195211
 20
9.9197258088
 30
0.0
 10
11.9498258055
 20
9.9220370882
 30
0.0
 10
11.9375821618
 20
9.9250609767
 30
0.0
 10
11.9216307834
 20
9.9286399554
 30
0.0
 10
11.9017376519
 20
9.9325716558
 30
0.0
 10
11.8809370374
 20
9.9361768573
 30
0.0
 10
11.8593093495
 20
9.9394414749
 30
0.0
 10
11.8369380744
 20
9.9423527238
 30
0.0
 10
11.8139096755
 20
9.9448992201
 30
0.0
 10
11.7903131786
 20
9.9470710087
 30
0.0
 10
11.7662398375
 20
9.9488596039
 30
0.0
 10
11.7417827693
 20
9.9502580199
 30
0.0
 10
11.7170365901
 20
9.9512607962
 30
0.0
 10
11.6920970441
 20
9.9518640184
 30
0.0
 10
11.6670606298
 20
9.9520653319
 30
0.0
 10
11.6420242238
 20
9.951863951
 30
0.0
 10
11.6170847022
 20
9.9512606617
 30
0.0
 10
11.5923385636
 20
9.9502578188
 30
0.0
 10
11.5678815521
 20
9.9488593371
 30
0.0
 10
11.5438082833
 20
9.9470706772
 30
0.0
 10
11.5202118744
 20
9.9448988253
 30
0.0
 10
11.4971835775
 20
9.9423522675
 30
0.0
 10
11.4748124224
 20
9.9394409583
 30
0.0
 10
11.4531848561
 20
9.936176285
 30
0.0
 10
11.4323844201
 20
9.9325710211
 30
0.0
 10
11.4124913271
 20
9.9286392928
 30
0.0
 10
11.3935824207
 20
9.9243964715
 30
0.0
 10
11.3785017711
 20
9.9205637755
 30
0.0
 10
11.3669915556
 20
9.9173441654
 30
0.0
 10
11.3587704258
 20
9.9148960115
 30
0.0
 10
11.3508475935
 20
9.912382995
 30
0.0
 10
11.3432306696
 20
9.9098075247
 30
0.0
 10
11.3359270467
 20
9.9071721166
 30
0.0
 10
11.3311834881
 20
9.905342981
 30
0.0
 10
11.3288664269
 20
9.9044175713
 30
0.0
  0
SPLINE
  5
39B
100
AcDbEntity
  8
0
100
AcDbSpline
 62
7
  6
CONTINUOUS
 70
0
 71
3
 72
51
 73
47
 74
0
 42
0.0000001
 43
0.0000001
 44
0.0000000001
 40
0.0
 40
0.0
 40
0.0
 40
0.0
 40
0.0149716485
 40
0.0299463565
 40
0.0449271644
 40
0.0599170744
 40
0.0749190346
 40
0.0899359198
 40
0.1049705137
 40
0.1200254925
 40
0.1351034109
 40
0.1502066862
 40
0.1653375828
 40
0.1804982023
 40
0.1956904722
 40
0.2109161327
 40
0.2261767296
 40
0.241473608
 40
0.2568079046
 40
0.2721805407
 40
0.2875922226
 40
0.303043438
 40
0.3185344523
 40
0.334065311
 40
0.3496358431
 40
0.3652456603
 40
0.3965753769
 40
0.4280524346
 40
0.4596664537
 40
0.4914042018
 40
0.5232498957
 40
0.555185552
 40
0.5871913712
 40
0.619246145
 40
0.65132769
 40
0.68341329
 40
0.7154801477
 40
0.7475058396
 40
0.7794687608
 40
0.8113485629
 40
0.8431265731
 40
0.8747861836
 40
0.9063132226
 40
0.9376962675
 40
0.9689267871
 40
1.0
 40
1.0
 40
1.0
 40
1.0
 10
10.0957352971
 20
7.7183362367
 30
0.0
 10
10.0901813761
 20
7.7129715709
 30
0.0
 10
10.0788577891
 20
7.702460791
 30
0.0
 10
10.0612574682
 20
7.68738032
 30
0.0
 10
10.0430645059
 20
7.6730045786
 30
0.0
 10
10.0243043099
 20
7.6593536578
 30
0.0
 10
10.005002622
 20
7.6464462269
 30
0.0
 10
9.9851860168
 20
7.6343000867
 30
0.0
 10
9.9648817522
 20
7.6229319573
 30
0.0
 10
9.944117798
 20
7.6123574337
 30
0.0
 10
9.9229227266
 20
7.6025910562
 30
0.0
 10
9.9013256888
 20
7.5936462927
 30
0.0
 10
9.8793564201
 20
7.5855354051
 30
0.0
 10
9.8570451571
 20
7.578269518
 30
0.0
 10
9.8344225881
 20
7.5718586441
 30
0.0
 10
9.8115198394
 20
7.5663115938
 30
0.0
 10
9.7883684308
 20
7.5616359392
 30
0.0
 10
9.7650002073
 20
7.5578381038
 30
0.0
 10
9.7414473092
 20
7.5549233343
 30
0.0
 10
9.7177421411
 20
7.5528955788
 30
0.0
 10
9.6939173044
 20
7.5517575959
 30
0.0
 10
9.6700055713
 20
7.5515109698
 30
0.0
 10
9.6460398
 20
7.5521560202
 30
0.0
 10
9.6220530511
 20
7.5536917814
 30
0.0
 10
9.5980779111
 20
7.5561162357
 30
0.0
 10
9.566135888
 20
7.5605339344
 30
0.0
 10
9.52639839
 20
7.5682669407
 30
0.0
 10
9.4793533617
 20
7.5810060732
 30
0.0
 10
9.4331403534
 20
7.5971465515
 30
0.0
 10
9.3880147878
 20
7.6165992482
 30
0.0
 10
9.3442238111
 20
7.6392569914
 30
0.0
 10
9.3020078445
 20
7.6649951329
 30
0.0
 10
9.2615985037
 20
7.6936722002
 30
0.0
 10
9.2232174665
 20
7.7251305715
 30
0.0
 10
9.1870754079
 20
7.7591975718
 30
0.0
 10
9.153370602
 20
7.7956860975
 30
0.0
 10
9.1222881215
 20
7.8343959402
 30
0.0
 10
9.0939986238
 20
7.8751146544
 30
0.0
 10
9.0686574916
 20
7.9176188002
 30
0.0
 10
9.0464040929
 20
7.9616752021
 30
0.0
 10
9.0273607485
 20
8.0070420458
 30
0.0
 10
9.0116324356
 20
8.0534704808
 30
0.0
 10
8.9993058267
 20
8.1007053881
 30
0.0
 10
8.990449124
 20
8.1484883358
 30
0.0
 10
8.9851114212
 20
8.1965535114
 30
0.0
 10
8.9839158733
 20
8.2286995697
 30
0.0
 10
8.9839158733
 20
8.2447258674
 30
0.0
  0
SPLINE
  5
39C
100
AcDbEntity
  8
0
100
AcDbSpline
 62
7
  6
CONTINUOUS
 70
0
 71
3
 72
50
 73
46
 74
0
 42
0.0000001
 43
0.0000001
 44
0.0000000001
 40
0.0
 40
0.0
 40
0.0
 40
0.0
 40
0.0149679165
 40
0.0299403463
 40
0.0449202669
 40
0.0599106092
 40
0.0749142426
 40
0.0899339579
 40
0.1049724488
 40
0.120032297
 40
0.1351159597
 40
0.1502257531
 40
0.1653638389
 40
0.1805322158
 40
0.1957327074
 40
0.2109669501
 40
0.2262363888
 40
0.24154227
 40
0.2568856321
 40
0.2722673044
 40
0.2876879052
 40
0.3031478366
 40
0.3186472845
 40
0.3341862228
 40
0.3653762581
 40
0.396718742
 40
0.4282060461
 40
0.4598275368
 40
0.4915698274
 40
0.5234170877
 40
0.555351382
 40
0.5873530449
 40
0.6194010832
 40
0.651473592
 40
0.6835481877
 40
0.7156024467
 40
0.7476143427
 40
0.7795626796
 40
0.8114275159
 40
0.8431905653
 40
0.8748355777
 40
0.9063486941
 40
0.9377187551
 40
0.9689373982
 40
1.0
 40
1.0
 40
1.0
 40
1.0
 10
10.0956575707
 20
7.7184193056
 30
0.0
 10
10.0900422785
 20
7.7132058016
 30
0.0
 10
10.0786029989
 20
7.7029976517
 30
0.0
 10
10.0608511142
 20
7.68837134
 30
0.0
 10
10.0425275304
 20
7.6744483519
 30
0.0
 10
10.0236574327
 20
7.6612478582
 30
0.0
 10
10.0042663231
 20
7.6487876145
 30
0.0
 10
9.9843804837
 20
7.6370845432
 30
0.0
 10
9.9640268406
 20
7.6261545109
 30
0.0
 10
9.9432330024
 20
7.616012266
 30
0.0
 10
9.9220271349
 20
7.6066715459
 30
0.0
 10
9.9004379507
 20
7.5981450383
 30
0.0
 10
9.878494721
 20
7.5904442286
 30
0.0
 10
9.8562271725
 20
7.5835795248
 30
0.0
 10
9.833665454
 20
7.5775602635
 30
0.0
 10
9.8108401386
 20
7.5723945457
 30
0.0
 10
9.7877821463
 20
7.5680893234
 30
0.0
 10
9.7645226973
 20
7.5646504581
 30
0.0
 10
9.7410932932
 20
7.5620825816
 30
0.0
 10
9.7175256735
 20
7.5603891072
 30
0.0
 10
9.6938517186
 20
7.5595723495
 30
0.0
 10
9.6701035907
 20
7.5596334002
 30
0.0
 10
9.6463130472
 20
7.5605721719
 30
0.0
 10
9.6145434267
 20
7.5629949665
 30
0.0
 10
9.5748809678
 20
7.5682175073
 30
0.0
 10
9.527700831
 20
7.5779381942
 30
0.0
 10
9.481123251
 20
7.5910678634
 30
0.0
 10
9.4354017324
 20
7.6075350228
 30
0.0
 10
9.3907828579
 20
7.6272502028
 30
0.0
 10
9.3475078654
 20
7.6501065884
 30
0.0
 10
9.3058104923
 20
7.6759803397
 30
0.0
 10
9.2659159828
 20
7.7047314049
 30
0.0
 10
9.2280399042
 20
7.7362043353
 30
0.0
 10
9.1923868247
 20
7.7702288902
 30
0.0
 10
9.1591494305
 20
7.8066212159
 30
0.0
 10
9.1285073696
 20
7.8451846615
 30
0.0
 10
9.1006262489
 20
7.8857108346
 30
0.0
 10
9.0756569556
 20
7.9279808521
 30
0.0
 10
9.0537345627
 20
7.9717663218
 30
0.0
 10
9.0349778152
 20
8.0168306818
 30
0.0
 10
9.0194884743
 20
8.0629305295
 30
0.0
 10
9.0073505556
 20
8.1098164621
 30
0.0
 10
8.9986302414
 20
8.1572359178
 30
0.0
 10
8.9933750471
 20
8.2049291783
 30
0.0
 10
8.9921980761
 20
8.2368242769
 30
0.0
 10
8.9921980761
 20
8.2527258614
 30
0.0
  0
SPLINE
  5
39D
100
AcDbEntity
  8
0
100
AcDbSpline
 62
7
  6
CONTINUOUS
 70
0
 71
3
 72
39
 73
35
 74
0
 42
0.0000001
 43
0.0000001
 44
0.0000000001
 40
0.0
 40
0.0
 40
0.0
 40
0.0
 40
0.029942471
 40
0.0599093185
 40
0.0899243251
 40
0.1200101042
 40
0.1501875626
 40
0.1804754144
 40
0.2108897595
 40
0.2414437366
 40
0.2721472604
 40
0.3030068427
 40
0.3340254953
 40
0.365202715
 40
0.3965345496
 40
0.4280137343
 40
0.4596298913
 40
0.491369786
 40
0.5232176335
 40
0.55515545
 40
0.587163434
 40
0.6192203769
 40
0.6513040926
 40
0.6833918636
 40
0.7154608918
 40
0.747488751
 40
0.7794538351
 40
0.8113357952
 40
0.8431159564
 40
0.874777711
 40
0.9063068724
 40
0.937692086
 40
0.9689246467
 40
1.0
 40
1.0
 40
1.0
 40
1.0
 10
9.9569399067
 20
7.9547926702
 30
0.0
 10
9.9502542819
 20
7.94833483
 30
0.0
 10
9.9363572958
 20
7.9359403536
 30
0.0
 10
9.9140921733
 20
7.9190550617
 30
0.0
 10
9.8905211906
 20
7.9039607215
 30
0.0
 10
9.8657760688
 20
7.8907419848
 30
0.0
 10
9.8399928503
 20
7.8794710705
 30
0.0
 10
9.8133138218
 20
7.8702099519
 30
0.0
 10
9.7858860003
 20
7.86300931
 30
0.0
 10
9.7578605015
 20
7.8579084325
 30
0.0
 10
9.7293916273
 20
7.8549350238
 30
0.0
 10
9.7006360336
 20
7.8541050776
 30
0.0
 10
9.6717518699
 20
7.8554228113
 30
0.0
 10
9.6428979119
 20
7.8588805987
 30
0.0
 10
9.6142326925
 20
7.8644590887
 30
0.0
 10
9.5859136451
 20
7.8721273247
 30
0.0
 10
9.5580962579
 20
7.8818429321
 30
0.0
 10
9.5309332193
 20
7.8935523103
 30
0.0
 10
9.5045735876
 20
7.9071909441
 30
0.0
 10
9.4791619994
 20
7.9226837934
 30
0.0
 10
9.4548378889
 20
7.9399456967
 30
0.0
 10
9.4317347297
 20
7.9588818258
 30
0.0
 10
9.4099792792
 20
7.9793881685
 30
0.0
 10
9.3896909275
 20
8.0013521459
 30
0.0
 10
9.3709810461
 20
8.0246532136
 30
0.0
 10
9.3539523937
 20
8.0491635204
 30
0.0
 10
9.3386985071
 20
8.0747485651
 30
0.0
 10
9.3253032214
 20
8.1012679596
 30
0.0
 10
9.3138402257
 20
8.1285761771
 30
0.0
 10
9.3043726718
 20
8.1565234019
 30
0.0
 10
9.2969527657
 20
8.1849560984
 30
0.0
 10
9.291621567
 20
8.2137186624
 30
0.0
 10
9.2884085365
 20
8.2426511182
 30
0.0
 10
9.2876888975
 20
8.2620011777
 30
0.0
 10
9.2876888975
 20
8.2716480942
 30
0.0
  0
SPLINE
  5
39E
100
AcDbEntity
  8
0
100
AcDbSpline
 62
7
  6
CONTINUOUS
 70
0
 71
3
 72
25
 73
21
 74
0
 42
0.0000001
 43
0.0000001
 44
0.0000000001
 40
0.0
 40
0.0
 40
0.0
 40
0.0
 40
0.0608932911
 40
0.0914047275
 40
0.121960475
 40
0.1832074692
 40
0.2446574972
 40
0.2754663223
 40
0.3063308853
 40
0.3682258676
 40
0.4303569387
 40
0.4927291385
 40
0.5553444353
 40
0.6182017335
 40
0.6812969301
 40
0.7446229767
 40
0.8081700635
 40
0.8719255839
 40
0.9358747622
 40
1.0
 40
1.0
 40
1.0
 40
1.0
 10
10.0262276187
 20
8.0486689642
 30
0.0
 10
10.0198025532
 20
8.0456766216
 30
0.0
 10
10.0100215334
 20
8.0414699567
 30
0.0
 10
9.9967442898
 20
8.0364427989
 30
0.0
 10
9.9832856344
 20
8.031794638
 30
0.0
 10
9.9661746666
 20
8.0267160974
 30
0.0
 10
9.9487683226
 20
8.0226363794
 30
0.0
 10
9.9346850523
 20
8.0199738055
 30
0.0
 10
9.9204797487
 20
8.0177102031
 30
0.0
 10
9.9025593586
 20
8.0156423603
 30
0.0
 10
9.8808883459
 20
8.0143874553
 30
0.0
 10
9.8590969844
 20
8.0143602654
 30
0.0
 10
9.8372542774
 20
8.0155608664
 30
0.0
 10
9.8154288027
 20
8.0179853713
 30
0.0
 10
9.7936892308
 20
8.0216260764
 30
0.0
 10
9.7721038847
 20
8.0264714552
 30
0.0
 10
9.7507406845
 20
8.0325061799
 30
0.0
 10
9.7296665565
 20
8.039711299
 30
0.0
 10
9.708948501
 20
8.0480637462
 30
0.0
 10
9.6954326181
 20
8.0543722593
 30
0.0
 10
9.6887554081
 20
8.0577076044
 30
0.0
  0
SPLINE
  5
39F
100
AcDbEntity
  8
0
100
AcDbSpline
 62
7
  6
CONTINUOUS
 70
0
 71
3
 72
23
 73
19
 74
0
 42
0.0000001
 43
0.0000001
 44
0.0000000001
 40
0.0
 40
0.0
 40
0.0
 40
0.0
 40
0.0616962687
 40
0.1234205035
 40
0.1851924799
 40
0.2470315095
 40
0.3089562542
 40
0.3709845483
 40
0.4331332306
 40
0.4954179893
 40
0.5578532201
 40
0.6204518961
 40
0.6832254779
 40
0.7461837368
 40
0.8093349705
 40
0.8726850545
 40
0.9362396818
 40
1.0
 40
1.0
 40
1.0
 40
1.0
 10
9.1655511015
 20
8.6813387328
 30
0.0
 10
9.1586694229
 20
8.674423624
 30
0.0
 10
9.1452479589
 20
8.660241926
 30
0.0
 10
9.1262039379
 20
8.6379808492
 30
0.0
 10
9.1082850121
 20
8.6147750618
 30
0.0
 10
9.09153121
 20
8.5906762556
 30
0.0
 10
9.0759791331
 20
8.5657372045
 30
0.0
 10
9.0616629663
 20
8.5400127629
 30
0.0
 10
9.04861411
 20
8.5135594442
 30
0.0
 10
9.0368611912
 20
8.4864353753
 30
0.0
 10
9.0264299781
 20
8.4587001485
 30
0.0
 10
9.0173433194
 20
8.4304146928
 30
0.0
 10
9.009621122
 20
8.4016411465
 30
0.0
 10
9.0032802531
 20
8.3724426702
 30
0.0
 10
8.9983346355
 20
8.3428834904
 30
0.0
 10
8.9947949513
 20
8.313028162
 30
0.0
 10
8.9926690653
 20
8.2829432265
 30
0.0
 10
8.9921980761
 20
8.2628080734
 30
0.0
 10
8.9921980761
 20
8.2527258614
 30
0.0
  0
SPLINE
  5
3A0
100
AcDbEntity
  8
0
100
AcDbSpline
 62
7
  6
CONTINUOUS
 70
0
 71
3
 72
39
 73
35
 74
0
 42
0.0000001
 43
0.0000001
 44
0.0000000001
 40
0.0
 40
0.0
 40
0.0
 40
0.0
 40
0.0318890004
 40
0.0636721955
 40
0.0953510611
 40
0.1269280522
 40
0.1584065907
 40
0.1897910433
 40
0.2210866864
 40
0.2522996626
 40
0.283436927
 40
0.3145061844
 40
0.345515819
 40
0.3764748152
 40
0.407392669
 40
0.4382792939
 40
0.4691449206
 40
0.4999999938
 40
0.5308550664
 40
0.5617206919
 40
0.5926073163
 40
0.6235251712
 40
0.6544841695
 40
0.685493806
 40
0.7165630635
 40
0.7477003275
 40
0.778913303
 40
0.8102089488
 40
0.8415934068
 40
0.8730719283
 40
0.9046489996
 40
0.9363276284
 40
0.9681113088
 40
1.0
 40
1.0
 40
1.0
 40
1.0
 10
9.6230689371
 20
8.6651006433
 30
0.0
 10
9.6157831293
 20
8.6653532802
 30
0.0
 10
9.6012211258
 20
8.6655090954
 30
0.0
 10
9.5794300955
 20
8.6646887766
 30
0.0
 10
9.5577751933
 20
8.6628159239
 30
0.0
 10
9.536306982
 20
8.6598947741
 30
0.0
 10
9.5150747681
 20
8.6559320168
 30
0.0
 10
9.4941275409
 20
8.650936747
 30
0.0
 10
9.4735135808
 20
8.6449204354
 30
0.0
 10
9.4532804239
 20
8.637896906
 30
0.0
 10
9.4334747328
 20
8.6298823051
 30
0.0
 10
9.4141421952
 20
8.6208950636
 30
0.0
 10
9.3953274033
 20
8.6109558822
 30
0.0
 10
9.3770737572
 20
8.6000876612
 30
0.0
 10
9.3594233669
 20
8.5883154446
 30
0.0
 10
9.3424169546
 20
8.5756663642
 30
0.0
 10
9.3260937609
 20
8.5621695766
 30
0.0
 10
9.3104914504
 20
8.5478562004
 30
0.0
 10
9.2956460066
 20
8.5327592603
 30
0.0
 10
9.2815916661
 20
8.5169135855
 30
0.0
 10
9.268360839
 20
8.5003557325
 30
0.0
 10
9.2559840327
 20
8.4831238997
 30
0.0
 10
9.2444897864
 20
8.4652578372
 30
0.0
 10
9.2339045892
 20
8.4467987645
 30
0.0
 10
9.2242528137
 20
8.4277892734
 30
0.0
 10
9.2155566809
 20
8.4082732163
 30
0.0
 10
9.2078362044
 20
8.3882956074
 30
0.0
 10
9.2011091476
 20
8.3679025167
 30
0.0
 10
9.1953909932
 20
8.3471409735
 30
0.0
 10
9.1906948451
 20
8.326058819
 30
0.0
 10
9.187031539
 20
8.3047047645
 30
0.0
 10
9.1844093223
 20
8.2831277023
 30
0.0
 10
9.1828343975
 20
8.2613781972
 30
0.0
 10
9.1824854752
 20
8.2468195013
 30
0.0
 10
9.1824854752
 20
8.2395293855
 30
0.0
  0
SPLINE
  5
3A1
100
AcDbEntity
  8
0
100
AcDbSpline
 62
7
  6
CONTINUOUS
 70
0
 71
3
 72
39
 73
35
 74
0
 42
0.0000001
 43
0.0000001
 44
0.0000000001
 40
0.0
 40
0.0
 40
0.0
 40
0.0
 40
0.0318412703
 40
0.063579286
 40
0.0952159898
 40
0.1267542464
 40
0.1581978286
 40
0.1895513885
 40
0.2208204205
 40
0.252011216
 40
0.2831308105
 40
0.3141869248
 40
0.3451878927
 40
0.3761425834
 40
0.4070603161
 40
0.4379507719
 40
0.4688239016
 40
0.4996898273
 40
0.530558742
 40
0.5614408083
 40
0.5923460581
 40
0.623284296
 40
0.6542650041
 40
0.6852972492
 40
0.7163895957
 40
0.7475500252
 40
0.7787858626
 40
0.8101037229
 40
0.8415094266
 40
0.8730079745
 40
0.9046036132
 40
0.9362991162
 40
0.9680980836
 40
1.0
 40
1.0
 40
1.0
 40
1.0
 10
9.6396177094
 20
8.6643629861
 30
0.0
 10
9.6329017919
 20
8.6644098698
 30
0.0
 10
9.6194873109
 20
8.6641866267
 30
0.0
 10
9.5994382005
 20
8.6628962057
 30
0.0
 10
9.5795369389
 20
8.6606535865
 30
0.0
 10
9.5598283486
 20
8.6574637019
 30
0.0
 10
9.5403560789
 20
8.6533336194
 30
0.0
 10
9.521163459
 20
8.6482724823
 30
0.0
 10
9.5022931516
 20
8.6422915002
 30
0.0
 10
9.4837871285
 20
8.6354039168
 30
0.0
 10
9.4656865504
 20
8.6276250094
 30
0.0
 10
9.4480316712
 20
8.618972063
 30
0.0
 10
9.4308617614
 20
8.6094642957
 30
0.0
 10
9.4142150186
 20
8.5991228265
 30
0.0
 10
9.3981284883
 20
8.5879706216
 30
0.0
 10
9.3826379603
 20
8.5760324748
 30
0.0
 10
9.3677778862
 20
8.5633349455
 30
0.0
 10
9.3535813216
 20
8.5499062732
 30
0.0
 10
9.3400798475
 20
8.5357763237
 30
0.0
 10
9.3273035084
 20
8.5209765164
 30
0.0
 10
9.315280712
 20
8.5055397831
 30
0.0
 10
9.3040381756
 20
8.4895004777
 30
0.0
 10
9.2936008865
 20
8.4728942844
 30
0.0
 10
9.2839920409
 20
8.4557581442
 30
0.0
 10
9.2752330015
 20
8.4381301694
 30
0.0
 10
9.2673432082
 20
8.4200495795
 30
0.0
 10
9.2603401574
 20
8.4015565954
 30
0.0
 10
9.2542393857
 20
8.3826923433
 30
0.0
 10
9.2490544233
 20
8.3634987733
 30
0.0
 10
9.2447967592
 20
8.3440185267
 30
0.0
 10
9.2414758636
 20
8.324295024
 30
0.0
 10
9.2390989162
 20
8.3043717762
 30
0.0
 10
9.2376713835
 20
8.2842938563
 30
0.0
 10
9.2373550917
 20
8.2708556268
 30
0.0
 10
9.2373550917
 20
8.2641267539
 30
0.0
  0
SPLINE
  5
3A2
100
AcDbEntity
  8
0
100
AcDbSpline
 62
7
  6
CONTINUOUS
 70
0
 71
3
 72
23
 73
19
 74
0
 42
0.0000001
 43
0.0000001
 44
0.0000000001
 40
0.0
 40
0.0
 40
0.0
 40
0.0
 40
0.0617101454
 40
0.1234413989
 40
0.1852146487
 40
0.247050356
 40
0.3089683484
 40
0.3709876189
 40
0.4331261353
 40
0.495400665
 40
0.5578266135
 40
0.620417907
 40
0.6831868089
 40
0.7461438636
 40
0.809298024
 40
0.8726551577
 40
0.9362228294
 40
1.0
 40
1.0
 40
1.0
 40
1.0
 10
9.3969741505
 20
8.534511845
 30
0.0
 10
9.3926469239
 20
8.5303320504
 30
0.0
 10
9.3842044969
 20
8.5217466863
 30
0.0
 10
9.3722176854
 20
8.5082320135
 30
0.0
 10
9.3609329062
 20
8.4941095702
 30
0.0
 10
9.3503766251
 20
8.4794123766
 30
0.0
 10
9.3405730492
 20
8.4641742271
 30
0.0
 10
9.331544806
 20
8.4484303047
 30
0.0
 10
9.3233127017
 20
8.4322169127
 30
0.0
 10
9.3158956866
 20
8.4155714611
 30
0.0
 10
9.3093108155
 20
8.3985323486
 30
0.0
 10
9.3035732378
 20
8.381138871
 30
0.0
 10
9.298696148
 20
8.363431139
 30
0.0
 10
9.2946907525
 20
8.3454499481
 30
0.0
 10
9.2915662898
 20
8.3272368603
 30
0.0
 10
9.2893297628
 20
8.3088335402
 30
0.0
 10
9.2879865056
 20
8.2902831621
 30
0.0
 10
9.2876888975
 20
8.2778658893
 30
0.0
 10
9.2876888975
 20
8.2716480942
 30
0.0
  0
SPLINE
  5
3A3
100
AcDbEntity
  8
0
100
AcDbSpline
 62
7
  6
CONTINUOUS
 70
0
 71
3
 72
17
 73
13
 74
0
 42
0.0000001
 43
0.0000001
 44
0.0000000001
 40
0.0
 40
0.0
 40
0.0
 40
0.0
 40
0.1235538607
 40
0.1854649348
 40
0.247467766
 40
0.3717540807
 40
0.4964614097
 40
0.5589889739
 40
0.6216322822
 40
0.7472622388
 40
0.8733818383
 40
1.0
 40
1.0
 40
1.0
 40
1.0
 10
9.4932567664
 20
8.6006257664
 30
0.0
 10
9.4899821356
 20
8.594193504
 30
0.0
 10
9.4853570597
 20
8.5843861504
 30
0.0
 10
9.4797849752
 20
8.5710447699
 30
0.0
 10
9.4745993126
 20
8.5575021638
 30
0.0
 10
9.4688657478
 20
8.5402506373
 30
0.0
 10
9.4641575391
 20
8.5226599487
 30
0.0
 10
9.4610089388
 20
8.5084041503
 30
0.0
 10
9.4582698721
 20
8.4940092063
 30
0.0
 10
9.4556303111
 20
8.4758219105
 30
0.0
 10
9.45372882
 20
8.4537886871
 30
0.0
 10
9.4533077445
 20
8.4390204768
 30
0.0
 10
9.4533077445
 20
8.4316236252
 30
0.0
  0
SPLINE
  5
3A4
100
AcDbEntity
  8
0
100
AcDbSpline
 62
7
  6
CONTINUOUS
 70
0
 71
3
 72
25
 73
21
 74
0
 42
0.0000001
 43
0.0000001
 44
0.0000000001
 40
0.0
 40
0.0
 40
0.0
 40
0.0
 40
0.0608659682
 40
0.0913608935
 40
0.1218985934
 40
0.1831059353
 40
0.2445150797
 40
0.2753042541
 40
0.3061499618
 40
0.368010287
 40
0.4301135202
 40
0.4924666763
 40
0.5550732882
 40
0.617933401
 40
0.6810436083
 40
0.7443971579
 40
0.8079840163
 40
0.8717912339
 40
0.9358026042
 40
1.0
 40
1.0
 40
1.0
 40
1.0
 10
10.0350041971
 20
8.0672502033
 30
0.0
 10
10.0286603293
 20
8.0639501578
 30
0.0
 10
10.0189806699
 20
8.0592909767
 30
0.0
 10
10.005801304
 20
8.0536829207
 30
0.0
 10
9.9924177243
 20
8.0484684881
 30
0.0
 10
9.975357413
 20
8.0427119515
 30
0.0
 10
9.9579492991
 20
8.0379992558
 30
0.0
 10
9.9438366984
 20
8.0348587188
 30
0.0
 10
9.9295836755
 20
8.0321357126
 30
0.0
 10
9.9115713047
 20
8.0295311012
 30
0.0
 10
9.8897462159
 20
8.0276958369
 30
0.0
 10
9.8677628705
 20
8.0271535833
 30
0.0
 10
9.8456970074
 20
8.0279061958
 30
0.0
 10
9.8236240021
 20
8.0299509635
 30
0.0
 10
9.8016194092
 20
8.0332807914
 30
0.0
 10
9.7797584742
 20
8.0378842006
 30
0.0
 10
9.7581160058
 20
8.0437453189
 30
0.0
 10
9.7367658168
 20
8.0508441373
 30
0.0
 10
9.7157816773
 20
8.0591558823
 30
0.0
 10
9.7021004277
 20
8.065479221
 30
0.0
 10
9.6953443572
 20
8.0688320235
 30
0.0
  0
SPLINE
  5
3A5
100
AcDbEntity
  8
0
100
AcDbSpline
 62
7
  6
CONTINUOUS
 70
0
 71
3
 72
44
 73
40
 74
0
 42
0.0000001
 43
0.0000001
 44
0.0000000001
 40
0.0
 40
0.0
 40
0.0
 40
0.0
 40
0.0149722236
 40
0.0299475067
 40
0.0449288886
 40
0.0599193736
 40
0.0749219097
 40
0.08993937
 40
0.1049745397
 40
0.1200300961
 40
0.1351085917
 40
0.1502124449
 40
0.1804994096
 40
0.2109128633
 40
0.2414659442
 40
0.2721685685
 40
0.3030272475
 40
0.3340449904
 40
0.3652212956
 40
0.396552213
 40
0.4280304762
 40
0.4596457066
 40
0.4913846713
 40
0.5232315866
 40
0.555168468
 40
0.587175515
 40
0.6192315195
 40
0.6513142962
 40
0.6834011282
 40
0.7154692177
 40
0.7474961397
 40
0.7794602892
 40
0.8113413161
 40
0.8431205468
 40
0.8747813742
 40
0.9063096205
 40
0.9376938957
 40
0.9689255646
 40
1.0
 40
1.0
 40
1.0
 40
1.0
 10
12.5079742912
 20
7.067425834
 30
0.0
 10
12.5038928446
 20
7.0634834556
 30
0.0
 10
12.4955714396
 20
7.0557592705
 30
0.0
 10
12.4826373668
 20
7.0446769601
 30
0.0
 10
12.4692677948
 20
7.0341125169
 30
0.0
 10
12.4554813945
 20
7.0240806977
 30
0.0
 10
12.4412970247
 20
7.0145953031
 30
0.0
 10
12.4267342696
 20
7.0056693496
 30
0.0
 10
12.4118131461
 20
6.9973150937
 30
0.0
 10
12.3965542434
 20
6.9895441146
 30
0.0
 10
12.3809782766
 20
6.9823669364
 30
0.0
 10
12.3597999193
 20
6.9735953514
 30
0.0
 10
12.3326286918
 20
6.9641631104
 30
0.0
 10
12.2991444033
 20
6.9553725811
 30
0.0
 10
12.2649294329
 20
6.9491450655
 30
0.0
 10
12.2301734353
 20
6.9455150093
 30
0.0
 10
12.1950673241
 20
6.9445017779
 30
0.0
 10
12.1598042683
 20
6.9461104878
 30
0.0
 10
12.1245780784
 20
6.9503318635
 30
0.0
 10
12.0895823158
 20
6.9571423346
 30
0.0
 10
12.0550091755
 20
6.9665040557
 30
0.0
 10
12.0210484719
 20
6.9783652633
 30
0.0
 10
11.9878866292
 20
6.9926605706
 30
0.0
 10
11.955705627
 20
7.0093112121
 30
0.0
 10
11.9246820321
 20
7.0282255526
 30
0.0
 10
11.8949860815
 20
7.0492996399
 30
0.0
 10
11.8667807211
 20
7.0724176946
 30
0.0
 10
11.8402206921
 20
7.097452725
 30
0.0
 10
11.815451764
 20
7.1242673055
 30
0.0
 10
11.792609934
 20
7.1527142915
 30
0.0
 10
11.7718205948
 20
7.1826375473
 30
0.0
 10
11.7531979453
 20
7.2138728797
 30
0.0
 10
11.736844392
 20
7.2462489285
 30
0.0
 10
11.7228498822
 20
7.2795880125
 30
0.0
 10
11.711291459
 20
7.3137072135
 30
0.0
 10
11.7022328933
 20
7.3484190941
 30
0.0
 10
11.6957243321
 20
7.3835337052
 30
0.0
 10
11.6918017343
 20
7.4188557219
 30
0.0
 10
11.6909231619
 20
7.4424791326
 30
0.0
 10
11.6909231619
 20
7.4542565105
 30
0.0
  0
SPLINE
  5
3A6
100
AcDbEntity
  8
0
100
AcDbSpline
 62
7
  6
CONTINUOUS
 70
0
 71
3
 72
39
 73
35
 74
0
 42
0.0000001
 43
0.0000001
 44
0.0000000001
 40
0.0
 40
0.0
 40
0.0
 40
0.0
 40
0.0299344875
 40
0.0599008805
 40
0.0899221441
 40
0.1200199408
 40
0.1502141308
 40
0.1805223238
 40
0.2109594938
 40
0.2415376699
 40
0.2722657065
 40
0.3031491315
 40
0.3341900711
 40
0.3653872581
 40
0.3967361104
 40
0.4282288736
 40
0.4598548225
 40
0.4916005204
 40
0.5234501215
 40
0.5553857092
 40
0.5873876678
 40
0.6194350804
 40
0.6515061431
 40
0.6835785914
 40
0.7156301343
 40
0.7476388874
 40
0.7795838001
 40
0.8114450742
 40
0.8432045627
 40
0.8748461418
 40
0.9063560545
 40
0.9377232773
 40
0.968939404
 40
1.0
 40
1.0
 40
1.0
 40
1.0
 10
12.5078697198
 20
7.0675399091
 30
0.0
 10
12.4995855886
 20
7.0599576409
 30
0.0
 10
12.4824036948
 20
7.0454310056
 30
0.0
 10
12.4549848625
 20
7.0257207974
 30
0.0
 10
12.4260536606
 20
7.0081838783
 30
0.0
 10
12.3957683719
 20
6.9929165102
 30
0.0
 10
12.3642919662
 20
6.9800003098
 30
0.0
 10
12.3317944684
 20
6.9695047903
 30
0.0
 10
12.2984511741
 20
6.9614861129
 30
0.0
 10
12.2644418927
 20
6.9559870792
 30
0.0
 10
12.2299499029
 20
6.9530368962
 30
0.0
 10
12.1951609908
 20
6.9526510568
 30
0.0
 10
12.1602624465
 20
6.9548311763
 30
0.0
 10
12.1254420528
 20
6.9595650983
 30
0.0
 10
12.0908870932
 20
6.966826986
 30
0.0
 10
12.0567833632
 20
6.9765774573
 30
0.0
 10
12.0233141582
 20
6.9887637308
 30
0.0
 10
11.9906593225
 20
7.0033200135
 30
0.0
 10
11.9589943066
 20
7.020167854
 30
0.0
 10
11.9284892256
 20
7.03921653
 30
0.0
 10
11.8993079267
 20
7.060363498
 30
0.0
 10
11.8716071627
 20
7.0834950187
 30
0.0
 10
11.8455357688
 20
7.1084867556
 30
0.0
 10
11.8212338325
 20
7.1352043906
 30
0.0
 10
11.7988319374
 20
7.1635043412
 30
0.0
 10
11.7784505177
 20
7.1932345708
 30
0.0
 10
11.7601992248
 20
7.2242353866
 30
0.0
 10
11.7441762719
 20
7.2563402487
 30
0.0
 10
11.7304679338
 20
7.2893766596
 30
0.0
 10
11.7191481292
 20
7.3231671738
 30
0.0
 10
11.7102780031
 20
7.357530053
 30
0.0
 10
11.7039055992
 20
7.3922811842
 30
0.0
 10
11.7000653906
 20
7.4272313328
 30
0.0
 10
11.6992053647
 20
7.450603824
 30
0.0
 10
11.6992053647
 20
7.4622565046
 30
0.0
  0
SPLINE
  5
3A7
100
AcDbEntity
  8
0
100
AcDbSpline
 62
7
  6
CONTINUOUS
 70
0
 71
3
 72
23
 73
19
 74
0
 42
0.0000001
 43
0.0000001
 44
0.0000000001
 40
0.0
 40
0.0
 40
0.0
 40
0.0
 40
0.0616917705
 40
0.1234138797
 40
0.1851857022
 40
0.2470261404
 40
0.308953445
 40
0.3709850434
 40
0.4331373766
 40
0.495425751
 40
0.5578642015
 40
0.620465392
 40
0.6832404607
 40
0.7461989647
 40
0.8093490284
 40
0.8726959495
 40
0.9362465896
 40
1.0
 40
1.0
 40
1.0
 40
1.0
 10
11.8244575045
 20
7.7750674088
 30
0.0
 10
11.8194808184
 20
7.7699948811
 30
0.0
 10
11.809775824
 20
7.7595976908
 30
0.0
 10
11.7960083609
 20
7.7432931698
 30
0.0
 10
11.7830567408
 20
7.7263111359
 30
0.0
 10
11.7709493911
 20
7.7086887431
 30
0.0
 10
11.7597122901
 20
7.6904639045
 30
0.0
 10
11.7493697086
 20
7.6716759936
 30
0.0
 10
11.7399439473
 20
7.6523655492
 30
0.0
 10
11.7314553043
 20
7.6325742641
 30
0.0
 10
11.7239220487
 20
7.6123448563
 30
0.0
 10
11.7173603985
 20
7.5917209797
 30
0.0
 10
11.7117844769
 20
7.570747138
 30
0.0
 10
11.7072062706
 20
7.5494685469
 30
0.0
 10
11.703635661
 20
7.5279312289
 30
0.0
 10
11.7010801432
 20
7.5061812917
 30
0.0
 10
11.6995454166
 20
7.4842664788
 30
0.0
 10
11.6992053647
 20
7.4696001724
 30
0.0
 10
11.6992053647
 20
7.4622565046
 30
0.0
  0
SPLINE
  5
3A8
100
AcDbEntity
  8
0
100
AcDbSpline
 62
7
  6
CONTINUOUS
 70
0
 71
3
 72
56
 73
52
 74
0
 42
0.0000001
 43
0.0000001
 44
0.0000000001
 40
0.0
 40
0.0
 40
0.0
 40
0.0
 40
0.0153876701
 40
0.0307306135
 40
0.0460311901
 40
0.0612920624
 40
0.0765162757
 40
0.0917072149
 40
0.1068685641
 40
0.122004285
 40
0.1371185812
 40
0.1522158552
 40
0.1673006682
 40
0.1823777017
 40
0.1974517116
 40
0.2125274798
 40
0.2276097717
 40
0.2427032933
 40
0.2578126439
 40
0.2729422706
 40
0.2880964322
 40
0.3032791599
 40
0.3184942163
 40
0.3337450641
 40
0.349034841
 40
0.3643663295
 40
0.3797419308
 40
0.3951636539
 40
0.4106331001
 40
0.4261514468
 40
0.4417194443
 40
0.4573374184
 40
0.4730052659
 40
0.4887224569
 40
0.5044880516
 40
0.5203007087
 40
0.552052001
 40
0.5839661869
 40
0.6160198409
 40
0.6481851236
 40
0.6804306937
 40
0.7127227185
 40
0.7450259311
 40
0.7773047179
 40
0.8095242201
 40
0.8416514129
 40
0.8736561436
 40
0.9055121214
 40
0.937197787
 40
0.9686968662
 40
1.0
 40
1.0
 40
1.0
 40
1.0
 10
12.4678539236
 20
7.3542350192
 30
0.0
 10
12.4670125312
 20
7.3497813118
 30
0.0
 10
12.4651213862
 20
7.3409251473
 30
0.0
 10
12.461660066
 20
7.3278106801
 30
0.0
 10
12.4575854219
 20
7.3149124168
 30
0.0
 10
12.4529061745
 20
7.3022583061
 30
0.0
 10
12.4476323264
 20
7.2898752672
 30
0.0
 10
12.4417751277
 20
7.2777897843
 30
0.0
 10
12.4353470227
 20
7.266027702
 30
0.0
 10
12.4283617628
 20
7.2546141458
 30
0.0
 10
12.4208342795
 20
7.2435734944
 30
0.0
 10
12.4127806123
 20
7.2329293683
 30
0.0
 10
12.4042179572
 20
7.2227045271
 30
0.0
 10
12.3951646437
 20
7.212920794
 30
0.0
 10
12.3856400034
 20
7.203599086
 30
0.0
 10
12.375664358
 20
7.1947593605
 30
0.0
 10
12.3652590626
 20
7.1864204697
 30
0.0
 10
12.3544463609
 20
7.1786002174
 30
0.0
 10
12.3432493345
 20
7.1713153478
 30
0.0
 10
12.3316919265
 20
7.1645814066
 30
0.0
 10
12.3197988569
 20
7.1584127355
 30
0.0
 10
12.3075955284
 20
7.1528225216
 30
0.0
 10
12.2951080092
 20
7.1478227205
 30
0.0
 10
12.282363004
 20
7.1434239435
 30
0.0
 10
12.2693877398
 20
7.1396355643
 30
0.0
 10
12.2562099222
 20
7.1364657013
 30
0.0
 10
12.2428577111
 20
7.1339210653
 30
0.0
 10
12.2293596257
 20
7.1320070393
 30
0.0
 10
12.2157444837
 20
7.1307277223
 30
0.0
 10
12.2020413584
 20
7.1300858288
 30
0.0
 10
12.1882795052
 20
7.1300826556
 30
0.0
 10
12.1744883033
 20
7.1307181941
 30
0.0
 10
12.1606971684
 20
7.1319911171
 30
0.0
 10
12.1469356193
 20
7.1338986031
 30
0.0
 10
12.1332326825
 20
7.1364366645
 30
0.0
 10
12.1150576045
 20
7.1406591521
 30
0.0
 10
12.0926303453
 20
7.1474903265
 30
0.0
 10
12.0664607265
 20
7.1580776201
 30
0.0
 10
12.0412123121
 20
7.1709771082
 30
0.0
 10
12.0171014032
 20
7.1860783842
 30
0.0
 10
11.9943325824
 20
7.2032526237
 30
0.0
 10
11.9730996718
 20
7.2223535743
 30
0.0
 10
11.9535832303
 20
7.243218577
 30
0.0
 10
11.9359493517
 20
7.2656700948
 30
0.0
 10
11.920348259
 20
7.2895171898
 30
0.0
 10
11.9069128377
 20
7.3145569636
 30
0.0
 10
11.8957578731
 20
7.3405765665
 30
0.0
 10
11.8869786678
 20
7.3673543804
 30
0.0
 10
11.8806505995
 20
7.3946633406
 30
0.0
 10
11.8768281425
 20
7.4222678891
 30
0.0
 10
11.8759698014
 20
7.4407774091
 30
0.0
 10
11.8759698014
 20
7.4499978493
 30
0.0
  0
SPLINE
  5
3A9
100
AcDbEntity
  8
0
100
AcDbSpline
 62
7
  6
CONTINUOUS
 70
0
 71
3
 72
55
 73
51
 74
0
 42
0.0000001
 43
0.0000001
 44
0.0000000001
 40
0.0
 40
0.0
 40
0.0
 40
0.0
 40
0.0153297752
 40
0.0306184648
 40
0.0458686938
 40
0.0610834478
 40
0.0762660277
 40
0.0914200142
 40
0.1065492445
 40
0.1216577819
 40
0.1367498752
 40
0.1518299199
 40
0.1669024238
 40
0.1819719643
 40
0.1970431431
 40
0.2121205472
 40
0.2272087095
 40
0.2423120636
 40
0.2574349026
 40
0.2725813466
 40
0.2877553037
 40
0.3029604315
 40
0.3182001118
 40
0.3334774234
 40
0.3487951109
 40
0.3641555662
 40
0.3795608156
 40
0.3950124997
 40
0.4105118611
 40
0.4260597455
 40
0.4416565947
 40
0.4573024405
 40
0.4729969176
 40
0.4887392685
 40
0.5203549343
 40
0.5521437337
 40
0.584086708
 40
0.616160154
 40
0.6483363966
 40
0.6805846685
 40
0.7128720537
 40
0.7451644716
 40
0.777427693
 40
0.8096283571
 40
0.8417349653
 40
0.8737188416
 40
0.9055550382
 40
0.9372231408
 40
0.968707722
 40
1.0
 40
1.0
 40
1.0
 40
1.0
 10
12.4706402683
 20
7.3713357363
 30
0.0
 10
12.4696470477
 20
7.3673492023
 30
0.0
 10
12.4674767125
 20
7.3594319369
 30
0.0
 10
12.4636710847
 20
7.3477384057
 30
0.0
 10
12.4593272488
 20
7.336266568
 30
0.0
 10
12.4544542528
 20
7.3250403496
 30
0.0
 10
12.4490620956
 20
7.3140827374
 30
0.0
 10
12.4431618115
 20
7.3034163181
 30
0.0
 10
12.436765529
 20
7.2930630274
 30
0.0
 10
12.4298864283
 20
7.2830441433
 30
0.0
 10
12.4225386196
 20
7.273380296
 30
0.0
 10
12.4147371931
 20
7.264091385
 30
0.0
 10
12.4064982335
 20
7.2551964859
 30
0.0
 10
12.3978386731
 20
7.2467139052
 30
0.0
 10
12.3887762925
 20
7.2386611279
 30
0.0
 10
12.3793297721
 20
7.2310546778
 30
0.0
 10
12.3695185466
 20
7.2239101909
 30
0.0
 10
12.3593627691
 20
7.2172424026
 30
0.0
 10
12.3488833563
 20
7.2110649901
 30
0.0
 10
12.3381018782
 20
7.2053906246
 30
0.0
 10
12.3270404908
 20
7.2002310063
 30
0.0
 10
12.315721954
 20
7.1955967261
 30
0.0
 10
12.3041695642
 20
7.1914972562
 30
0.0
 10
12.2924070674
 20
7.1879410377
 30
0.0
 10
12.2804586482
 20
7.1849353866
 30
0.0
 10
12.2683488886
 20
7.1824864086
 30
0.0
 10
12.2561026792
 20
7.1805991288
 30
0.0
 10
12.2437451893
 20
7.1792774511
 30
0.0
 10
12.2313018243
 20
7.1785240177
 30
0.0
 10
12.2187981597
 20
7.1783403465
 30
0.0
 10
12.2062598676
 20
7.178726853
 30
0.0
 10
12.1937127917
 20
7.1796826639
 30
0.0
 10
12.1811824027
 20
7.1812058544
 30
0.0
 10
12.1645109276
 20
7.1839924565
 30
0.0
 10
12.143839846
 20
7.1888823818
 30
0.0
 10
12.1195542567
 20
7.1969319615
 30
0.0
 10
12.0959450792
 20
7.2071061841
 30
0.0
 10
12.0732070623
 20
7.2193211635
 30
0.0
 10
12.0515259901
 20
7.2334764658
 30
0.0
 10
12.0310794975
 20
7.249455924
 30
0.0
 10
12.0120350062
 20
7.2671285189
 30
0.0
 10
11.9945484469
 20
7.2863493649
 30
0.0
 10
11.9787631715
 20
7.3069610822
 30
0.0
 10
11.9648085595
 20
7.3287948386
 30
0.0
 10
11.9527991256
 20
7.3516718434
 30
0.0
 10
11.9428336228
 20
7.3754048472
 30
0.0
 10
11.9349940043
 20
7.3997992384
 30
0.0
 10
11.9293451153
 20
7.4246558698
 30
0.0
 10
11.9259337085
 20
7.4497683239
 30
0.0
 10
11.9251678693
 20
7.4666021716
 30
0.0
 10
11.9251678693
 20
7.4749885409
 30
0.0
  0
SPLINE
  5
3AA
100
AcDbEntity
  8
0
100
AcDbSpline
 62
7
  6
CONTINUOUS
 70
0
 71
3
 72
15
 73
11
 74
0
 42
0.0000001
 43
0.0000001
 44
0.0000000001
 40
0.0
 40
0.0
 40
0.0
 40
0.0
 40
0.1270490153
 40
0.2534254248
 40
0.3791558184
 40
0.5042787615
 40
0.628849833
 40
0.7529378313
 40
0.8766240308
 40
1.0
 40
1.0
 40
1.0
 40
1.0
 10
12.1398089725
 20
7.5988469338
 30
0.0
 10
12.1398089725
 20
7.6038637468
 30
0.0
 10
12.1401933829
 20
7.6138752391
 30
0.0
 10
12.1419308676
 20
7.6287605454
 30
0.0
 10
12.1448175285
 20
7.6433899217
 30
0.0
 10
12.1488365688
 20
7.6576755144
 30
0.0
 10
12.1539642549
 20
7.6715327511
 30
0.0
 10
12.1601705898
 20
7.6848795598
 30
0.0
 10
12.1674181022
 20
7.6976356362
 30
0.0
 10
12.1729226791
 20
7.705705856
 30
0.0
 10
12.1758311031
 20
7.7096142135
 30
0.0
  0
SPLINE
  5
3AB
100
AcDbEntity
  8
0
100
AcDbSpline
 62
7
  6
CONTINUOUS
 70
0
 71
3
 72
41
 73
37
 74
0
 42
0.0000001
 43
0.0000001
 44
0.0000000001
 40
0.0
 40
0.0
 40
0.0
 40
0.0
 40
0.0299421703
 40
0.0599087166
 40
0.0899234211
 40
0.1200088977
 40
0.150186053
 40
0.1804736004
 40
0.2108876395
 40
0.2414413098
 40
0.2721445264
 40
0.3030038
 40
0.3340221415
 40
0.3651990482
 40
0.3965305685
 40
0.4280094374
 40
0.4596252765
 40
0.4913648514
 40
0.5232123788
 40
0.5551498746
 40
0.5871575376
 40
0.6192141589
 40
0.6512975532
 40
0.6833850026
 40
0.7154537088
 40
0.731476412
 40
0.7474860771
 40
0.7794508401
 40
0.8113324799
 40
0.8431123195
 40
0.8747737613
 40
0.9063025943
 40
0.937687506
 40
0.953325536
 40
0.9689249997
 40
1.0
 40
1.0
 40
1.0
 40
1.0
 10
12.3869628831
 20
7.2807407491
 30
0.0
 10
12.382740802
 20
7.2766625535
 30
0.0
 10
12.3739646836
 20
7.2688352549
 30
0.0
 10
12.3599039471
 20
7.2581719715
 30
0.0
 10
12.3450185561
 20
7.2486396821
 30
0.0
 10
12.3293916738
 20
7.2402918698
 30
0.0
 10
12.3131092179
 20
7.2331741382
 30
0.0
 10
12.2962610484
 20
7.2273256147
 30
0.0
 10
12.2789400084
 20
7.2227782994
 30
0.0
 10
12.2612415244
 20
7.21955702
 30
0.0
 10
12.243263041
 20
7.2176792759
 30
0.0
 10
12.2251034907
 20
7.2171551629
 30
0.0
 10
12.2068627471
 20
7.2179873268
 30
0.0
 10
12.1886410786
 20
7.2201709651
 30
0.0
 10
12.1705386023
 20
7.2236938626
 30
0.0
 10
12.1526547402
 20
7.2285364675
 30
0.0
 10
12.1350876809
 20
7.2346720051
 30
0.0
 10
12.1179338485
 20
7.2420666286
 30
0.0
 10
12.1012873797
 20
7.2506796089
 30
0.0
 10
12.0852396175
 20
7.2604635553
 30
0.0
 10
12.0698786068
 20
7.2713646892
 30
0.0
 10
12.0552886549
 20
7.2833230846
 30
0.0
 10
12.0415497338
 20
7.2962731953
 30
0.0
 10
12.0287375715
 20
7.3101434612
 30
0.0
 10
12.0188874892
 20
7.3224107642
 30
0.0
 10
12.011538408
 20
7.3326073542
 30
0.0
 10
12.0045590959
 20
7.3430359935
 30
0.0
 10
11.9965348501
 20
7.3564947611
 30
0.0
 10
11.9880757442
 20
7.3732418378
 30
0.0
 10
11.980836661
 20
7.3904874069
 30
0.0
 10
11.9748577774
 20
7.4081365219
 30
0.0
 10
11.9701720293
 20
7.426091852
 30
0.0
 10
11.9673628299
 20
7.4412481027
 30
0.0
 10
11.9657869421
 20
7.4534259487
 30
0.0
 10
11.9646622759
 20
7.4655921474
 30
0.0
 10
11.9643217386
 20
7.4747471209
 30
0.0
 10
11.9643217386
 20
7.4808392722
 30
0.0
  0
SPLINE
  5
3AC
100
AcDbEntity
  8
0
100
AcDbSpline
 62
7
  6
CONTINUOUS
 70
0
 71
3
 72
40
 73
36
 74
0
 42
0.0000001
 43
0.0000001
 44
0.0000000001
 40
0.0
 40
0.0
 40
0.0
 40
0.0
 40
0.0300575219
 40
0.0602184828
 40
0.0904928863
 40
0.1208888504
 40
0.1361363597
 40
0.1514163786
 40
0.1820717535
 40
0.212860796
 40
0.2437833298
 40
0.2748370942
 40
0.3060178057
 40
0.337319248
 40
0.3687333881
 40
0.4002505157
 40
0.4318594028
 40
0.4635474814
 40
0.4953010358
 40
0.5271054081
 40
0.5589452125
 40
0.5908045575
 40
0.6226672738
 40
0.6545171435
 40
0.6863381318
 40
0.7181146156
 40
0.7498316077
 40
0.7814749763
 40
0.81303165
 40
0.8444898315
 40
0.8758391289
 40
0.9070708869
 40
0.9381778712
 40
0.9691555409
 40
1.0
 40
1.0
 40
1.0
 40
1.0
 10
12.4364101088
 20
7.3518766624
 30
0.0
 10
12.4317452605
 20
7.350019852
 30
0.0
 10
12.4222736018
 20
7.3466078251
 30
0.0
 10
12.4077371791
 20
7.3424250818
 30
0.0
 10
12.3929039534
 20
7.3391847642
 30
0.0
 10
12.3803565377
 20
7.3372825014
 30
0.0
 10
12.3702317587
 20
7.3362415052
 30
0.0
 10
12.3600356949
 20
7.3355208262
 30
0.0
 10
12.3472136814
 20
7.3352275675
 30
0.0
 10
12.3317872457
 20
7.3358467366
 30
0.0
 10
12.3163631141
 20
7.3374339398
 30
0.0
 10
12.3010023637
 20
7.3399828709
 30
0.0
 10
12.2857653056
 20
7.3434834034
 30
0.0
 10
12.2707118861
 20
7.3479216886
 30
0.0
 10
12.2559012818
 20
7.3532801968
 30
0.0
 10
12.2413917156
 20
7.359537791
 30
0.0
 10
12.2272402176
 20
7.3666698103
 30
0.0
 10
12.2135024069
 20
7.3746481669
 30
0.0
 10
12.2002322741
 20
7.3834414565
 30
0.0
 10
12.1874819715
 20
7.3930150816
 30
0.0
 10
12.1753016097
 20
7.4033313866
 30
0.0
 10
12.1637390625
 20
7.414349805
 30
0.0
 10
12.1528397804
 20
7.4260270184
 30
0.0
 10
12.1426466124
 20
7.438317124
 30
0.0
 10
12.1331996374
 20
7.4511718137
 30
0.0
 10
12.1245360099
 20
7.4645405646
 30
0.0
 10
12.1166898135
 20
7.4783708348
 30
0.0
 10
12.1096919302
 20
7.492608269
 30
0.0
 10
12.1035699128
 20
7.5071969109
 30
0.0
 10
12.0983478941
 20
7.5220794133
 30
0.0
 10
12.0940464488
 20
7.5371972956
 30
0.0
 10
12.0906826085
 20
7.5524910413
 30
0.0
 10
12.0882696039
 20
7.5679007826
 30
0.0
 10
12.0868171205
 20
7.5833650418
 30
0.0
 10
12.0864922493
 20
7.5936946685
 30
0.0
 10
12.0864922493
 20
7.5988469307
 30
0.0
  0
SPLINE
  5
3AD
100
AcDbEntity
  8
0
100
AcDbSpline
 62
7
  6
CONTINUOUS
 70
0
 71
3
 72
25
 73
21
 74
0
 42
0.0000001
 43
0.0000001
 44
0.0000000001
 40
0.0
 40
0.0
 40
0.0
 40
0.0
 40
0.0315740931
 40
0.0630640262
 40
0.0944736623
 40
0.1258074687
 40
0.188252882
 40
0.2504620476
 40
0.3124888564
 40
0.3743928846
 40
0.4362375705
 40
0.4980882253
 40
0.5600099705
 40
0.6220656869
 40
0.6843140476
 40
0.7468077213
 40
0.8095918245
 40
0.8727027429
 40
0.9361663024
 40
1.0
 40
1.0
 40
1.0
 40
1.0
 10
12.109592456
 20
7.7251372184
 30
0.0
 10
12.1054959939
 20
7.7245094872
 30
0.0
 10
12.0973399681
 20
7.7230785455
 30
0.0
 10
12.0852276124
 20
7.7204050361
 30
0.0
 10
12.0732738488
 20
7.7172119294
 30
0.0
 10
12.057596468
 20
7.7122759726
 30
0.0
 10
12.0384897281
 20
7.7048372724
 30
0.0
 10
12.0165102522
 20
7.6939346354
 30
0.0
 10
11.9956564056
 20
7.6811416208
 30
0.0
 10
11.9760787804
 20
7.6665498472
 30
0.0
 10
11.9579173246
 20
7.650263532
 30
0.0
 10
11.9413021513
 20
7.6323993031
 30
0.0
 10
11.9263521403
 20
7.6130850935
 30
0.0
 10
11.9131742066
 20
7.5924592444
 30
0.0
 10
11.9018623683
 20
7.5706695525
 30
0.0
 10
11.8924971757
 20
7.5478720207
 30
0.0
 10
11.8851451807
 20
7.524229949
 30
0.0
 10
11.8798584891
 20
7.4999118696
 30
0.0
 10
11.8766741575
 20
7.4750938016
 30
0.0
 10
11.8759698014
 20
7.4583763845
 30
0.0
 10
11.8759698014
 20
7.4499978493
 30
0.0
  0
SPLINE
  5
3AE
100
AcDbEntity
  8
0
100
AcDbSpline
 62
7
  6
CONTINUOUS
 70
0
 71
3
 72
23
 73
19
 74
0
 42
0.0000001
 43
0.0000001
 44
0.0000000001
 40
0.0
 40
0.0
 40
0.0
 40
0.0
 40
0.0628547581
 40
0.1254259033
 40
0.1877533279
 40
0.2498837676
 40
0.3118695531
 40
0.373767155
 40
0.4356355818
 40
0.4975346846
 40
0.5595234297
 40
0.6216582007
 40
0.6839912039
 40
0.74656902
 40
0.809431339
 40
0.8726101414
 40
0.9361278648
 40
1.0
 40
1.0
 40
1.0
 40
1.0
 10
12.1256936933
 20
7.7270961614
 30
0.0
 10
12.1185536351
 20
7.7255465161
 30
0.0
 10
12.1044271582
 20
7.7218591491
 30
0.0
 10
12.0838255861
 20
7.7145809002
 30
0.0
 10
12.0639909991
 20
7.7056145336
 30
0.0
 10
12.0450550205
 20
7.6950187242
 30
0.0
 10
12.0271409675
 20
7.6828624036
 30
0.0
 10
12.0103661446
 20
7.6692249264
 30
0.0
 10
11.994840225
 20
7.6541953649
 30
0.0
 10
11.9806647362
 20
7.6378719586
 30
0.0
 10
11.9679322749
 20
7.6203614761
 30
0.0
 10
11.9567259043
 20
7.6017784716
 30
0.0
 10
11.9471186356
 20
7.5822444939
 30
0.0
 10
11.9391729646
 20
7.561887214
 30
0.0
 10
11.9329404311
 20
7.5408397746
 30
0.0
 10
11.9284613686
 20
7.5192391859
 30
0.0
 10
11.925764472
 20
7.4972282038
 30
0.0
 10
11.9251678693
 20
7.4824130887
 30
0.0
 10
11.9251678693
 20
7.4749885409
 30
0.0
  0
SPLINE
  5
3AF
100
AcDbEntity
  8
0
100
AcDbSpline
 62
7
  6
CONTINUOUS
 70
0
 71
3
 72
21
 73
17
 74
0
 42
0.0000001
 43
0.0000001
 44
0.0000000001
 40
0.0
 40
0.0
 40
0.0
 40
0.0
 40
0.0617147758
 40
0.1234506606
 40
0.1852285516
 40
0.2470689039
 40
0.3089915432
 40
0.3710154715
 40
0.4331586565
 40
0.4954378534
 40
0.5578684959
 40
0.6204644995
 40
0.6832380575
 40
0.7461999878
 40
0.87268242
 40
1.0
 40
1.0
 40
1.0
 40
1.0
 10
12.0333368687
 20
7.6468413169
 30
0.0
 10
12.0306041546
 20
7.6442017318
 30
0.0
 10
12.0252726785
 20
7.6387799259
 30
0.0
 10
12.0177028208
 20
7.630245248
 30
0.0
 10
12.0105763241
 20
7.6213267348
 30
0.0
 10
12.0039099012
 20
7.6120452475
 30
0.0
 10
11.997718806
 20
7.6024221506
 30
0.0
 10
11.9920173393
 20
7.5924796532
 30
0.0
 10
11.9868186684
 20
7.5822406665
 30
0.0
 10
11.9821347181
 20
7.5717288427
 30
0.0
 10
11.9779762613
 20
7.5609684045
 30
0.0
 10
11.9743529239
 20
7.5499842313
 30
0.0
 10
11.9712729669
 20
7.5388013668
 30
0.0
 10
11.9678956242
 20
7.5236402153
 30
0.0
 10
11.965069939
 20
7.5043121846
 30
0.0
 10
11.9643217386
 20
7.4886773518
 30
0.0
 10
11.9643217386
 20
7.4808392722
 30
0.0
  0
SPLINE
  5
3B0
100
AcDbEntity
  8
0
100
AcDbSpline
 62
7
  6
CONTINUOUS
 70
0
 71
3
 72
15
 73
11
 74
0
 42
0.0000001
 43
0.0000001
 44
0.0000000001
 40
0.0
 40
0.0
 40
0.0
 40
0.0
 40
0.1236721668
 40
0.2476783399
 40
0.3720460809
 40
0.4967996052
 40
0.6219586716
 40
0.74753653
 40
0.8735526358
 40
1.0
 40
1.0
 40
1.0
 40
1.0
 10
12.1060636677
 20
7.6936112854
 30
0.0
 10
12.1044528625
 20
7.689931366
 30
0.0
 10
12.1014211707
 20
7.6824748123
 30
0.0
 10
12.0974622809
 20
7.6710515929
 30
0.0
 10
12.0940955075
 20
7.6594031896
 30
0.0
 10
12.0913295158
 20
7.6475593747
 30
0.0
 10
12.0891712648
 20
7.6355500028
 30
0.0
 10
12.0876260318
 20
7.6234051107
 30
0.0
 10
12.0866978884
 20
7.6111559508
 30
0.0
 10
12.0864922493
 20
7.6029540989
 30
0.0
 10
12.0864922493
 20
7.5988469307
 30
0.0
  0
SPLINE
  5
3B1
100
AcDbEntity
  8
0
100
AcDbSpline
 62
7
  6
CONTINUOUS
 70
0
 71
3
 72
39
 73
35
 74
0
 42
0.0000001
 43
0.0000001
 44
0.0000000001
 40
0.0
 40
0.0
 40
0.0
 40
0.0
 40
0.0299314608
 40
0.0599289234
 40
0.0900106953
 40
0.1201933171
 40
0.1504912358
 40
0.1809165305
 40
0.2114786961
 40
0.242184487
 40
0.273037821
 40
0.3040397435
 40
0.3351884481
 40
0.3664793506
 40
0.3979052131
 40
0.429456311
 40
0.4611206404
 40
0.4928841594
 40
0.5247310577
 40
0.556644051
 40
0.5886046949
 40
0.6205937121
 40
0.6525913318
 40
0.6845776335
 40
0.7165328935
 40
0.7484379286
 40
0.7802744335
 40
0.812025307
 40
0.843674964
 40
0.8752096235
 40
0.9066175848
 40
0.9378894366
 40
0.9690183287
 40
1.0
 40
1.0
 40
1.0
 40
1.0
 10
12.4545124586
 20
7.4208886
 30
0.0
 10
12.4508986722
 20
7.4183937034
 30
0.0
 10
12.4434748817
 20
7.4136650163
 30
0.0
 10
12.4318334488
 20
7.4074064053
 30
0.0
 10
12.4197297383
 20
7.4020040138
 30
0.0
 10
12.4072229267
 20
7.3974843491
 30
0.0
 10
12.394373128
 20
7.39386894
 30
0.0
 10
12.3812423505
 20
7.3911751272
 30
0.0
 10
12.3678938571
 20
7.389415747
 30
0.0
 10
12.3543919494
 20
7.3885991405
 30
0.0
 10
12.3408016328
 20
7.3887291034
 30
0.0
 10
12.3271883113
 20
7.3898048781
 30
0.0
 10
12.3136174731
 20
7.3918211621
 30
0.0
 10
12.3001543786
 20
7.3947681385
 30
0.0
 10
12.2868637501
 20
7.3986315267
 30
0.0
 10
12.2738094643
 20
7.4033926546
 30
0.0
 10
12.2610542494
 20
7.4090285493
 30
0.0
 10
12.2486593871
 20
7.4155120495
 30
0.0
 10
12.2366844217
 20
7.422811936
 30
0.0
 10
12.2251868778
 20
7.4308930818
 30
0.0
 10
12.2142219866
 20
7.4397166198
 30
0.0
 10
12.2038424234
 20
7.4492401291
 30
0.0
 10
12.1940980574
 20
7.4594178368
 30
0.0
 10
12.1850357138
 20
7.4702008366
 30
0.0
 10
12.1766989513
 20
7.4815373214
 30
0.0
 10
12.169127854
 20
7.49337283
 30
0.0
 10
12.1623588405
 20
7.5056505059
 30
0.0
 10
12.1564244893
 20
7.5183113695
 30
0.0
 10
12.1513533839
 20
7.5312945905
 30
0.0
 10
12.1471699729
 20
7.544537805
 30
0.0
 10
12.1438944573
 20
7.5579773081
 30
0.0
 10
12.1415426812
 20
7.5715487389
 30
0.0
 10
12.1401260708
 20
7.5851859748
 30
0.0
 10
12.1398089725
 20
7.5943015029
 30
0.0
 10
12.1398089725
 20
7.5988469338
 30
0.0
  0
SPLINE
  5
3B2
100
AcDbEntity
  8
0
100
AcDbSpline
 62
7
  6
CONTINUOUS
 70
0
 71
3
 72
21
 73
17
 74
0
 42
0.0000001
 43
0.0000001
 44
0.0000000001
 40
0.0
 40
0.0
 40
0.0
 40
0.0
 40
0.0620301392
 40
0.1242437261
 40
0.1866193193
 40
0.2491333287
 40
0.3117603394
 40
0.3744734536
 40
0.4999959551
 40
0.6255189884
 40
0.6882327682
 40
0.7508607064
 40
0.8133758894
 40
0.8757528803
 40
0.9379680621
 40
1.0
 40
1.0
 40
1.0
 40
1.0
 10
12.4339717707
 20
7.5496597977
 30
0.0
 10
12.4302085968
 20
7.5510359147
 30
0.0
 10
12.422748795
 20
7.5540101017
 30
0.0
 10
12.4118189246
 20
7.5591097667
 30
0.0
 10
12.4011685923
 20
7.5648371855
 30
0.0
 10
12.3908366053
 20
7.571171504
 30
0.0
 10
12.3808595911
 20
7.5780903211
 30
0.0
 10
12.3680771858
 20
7.5880619069
 30
0.0
 10
12.3531667593
 20
7.6018561996
 30
0.0
 10
12.3398894802
 20
7.617228865
 30
0.0
 10
12.3303599348
 20
7.6303442989
 30
0.0
 10
12.3237855898
 20
7.6405518042
 30
0.0
 10
12.3178074925
 20
7.6510941652
 30
0.0
 10
12.3124467862
 20
7.66193401
 30
0.0
 10
12.3077229815
 20
7.673031837
 30
0.0
 10
12.3050050004
 20
7.6805889876
 30
0.0
 10
12.3037580585
 20
7.6843970373
 30
0.0
  0
SPLINE
  5
3B3
100
AcDbEntity
  8
0
100
AcDbSpline
 62
7
  6
CONTINUOUS
 70
0
 71
3
 72
15
 73
11
 74
0
 42
0.0000001
 43
0.0000001
 44
0.0000000001
 40
0.0
 40
0.0
 40
0.0
 40
0.0
 40
0.1267429162
 40
0.2529413115
 40
0.3786088689
 40
0.5037662778
 40
0.6284432431
 40
0.7526769941
 40
0.8765121659
 40
1.0
 40
1.0
 40
1.0
 40
1.0
 10
9.4662486967
 20
8.431623626
 30
0.0
 10
9.4662486967
 20
8.4394371658
 30
0.0
 10
9.4667335251
 20
8.455035163
 30
0.0
 10
9.4689236127
 20
8.4782877672
 30
0.0
 10
9.4725665878
 20
8.5012595955
 30
0.0
 10
9.4776485168
 20
8.523860356
 30
0.0
 10
9.4841497478
 20
8.5460025131
 30
0.0
 10
9.4920453679
 20
8.5676003056
 30
0.0
 10
9.5013042001
 20
8.5885686989
 30
0.0
 10
9.5083720893
 20
8.6020934616
 30
0.0
 10
9.5121192391
 20
8.608720273
 30
0.0
  0
SPLINE
  5
3B4
100
AcDbEntity
  8
0
100
AcDbSpline
 62
7
  6
CONTINUOUS
 70
0
 71
3
 72
23
 73
19
 74
0
 42
0.0000001
 43
0.0000001
 44
0.0000000001
 40
0.0
 40
0.0
 40
0.0
 40
0.0
 40
0.0630746591
 40
0.126201613
 40
0.1893516962
 40
0.2524945295
 40
0.3156003237
 40
0.3786396004
 40
0.4415838244
 40
0.5044057145
 40
0.5670796371
 40
0.6295819589
 40
0.6918913794
 40
0.7539892632
 40
0.815859853
 40
0.8774907508
 40
0.938872477
 40
1.0
 40
1.0
 40
1.0
 40
1.0
 10
9.6302848008
 20
8.1090579602
 30
0.0
 10
9.6239919602
 20
8.1138048243
 30
0.0
 10
9.611668028
 20
8.1236624473
 30
0.0
 10
9.594046712
 20
8.1394740391
 30
0.0
 10
9.5773411343
 20
8.1562633516
 30
0.0
 10
9.5616134252
 20
8.1739681968
 30
0.0
 10
9.5469211228
 20
8.1925236982
 30
0.0
 10
9.5333182434
 20
8.2118617178
 30
0.0
 10
9.5208547381
 20
8.2319112776
 30
0.0
 10
9.5095764098
 20
8.2525987842
 30
0.0
 10
9.4995247153
 20
8.2738483017
 30
0.0
 10
9.4907366243
 20
8.2955818303
 30
0.0
 10
9.4832444759
 20
8.3177195807
 30
0.0
 10
9.4770758738
 20
8.3401802963
 30
0.0
 10
9.4722535508
 20
8.3628814332
 30
0.0
 10
9.4687953555
 20
8.3857398964
 30
0.0
 10
9.4667140567
 20
8.4086706419
 30
0.0
 10
9.4662486967
 20
8.4239845379
 30
0.0
 10
9.4662486967
 20
8.431623626
 30
0.0
  0
SPLINE
  5
3B5
100
AcDbEntity
  8
0
100
AcDbSpline
 62
7
  6
CONTINUOUS
 70
0
 71
3
 72
23
 73
19
 74
0
 42
0.0000001
 43
0.0000001
 44
0.0000000001
 40
0.0
 40
0.0
 40
0.0
 40
0.0
 40
0.0630080097
 40
0.1260884572
 40
0.1892102081
 40
0.2523405569
 40
0.3154472069
 40
0.3784980066
 40
0.4414616689
 40
0.5043081463
 40
0.5670090941
 40
0.6295382898
 40
0.6918720297
 40
0.7539895226
 40
0.815873153
 40
0.8775090298
 40
0.938886536
 40
1.0
 40
1.0
 40
1.0
 40
1.0
 10
9.6351399925
 20
8.0896200852
 30
0.0
 10
9.6282131833
 20
8.0944626269
 30
0.0
 10
9.6146350192
 20
8.1045660579
 30
0.0
 10
9.595191156
 20
8.1208997675
 30
0.0
 10
9.5767291939
 20
8.1383608284
 30
0.0
 10
9.5593233475
 20
8.1568793369
 30
0.0
 10
9.5430424436
 20
8.1763819333
 30
0.0
 10
9.5279511785
 20
8.1967912056
 30
0.0
 10
9.51410945
 20
8.2180261799
 30
0.0
 10
9.5015722393
 20
8.2400026043
 30
0.0
 10
9.490389358
 20
8.262633285
 30
0.0
 10
9.4806052637
 20
8.2858284317
 30
0.0
 10
9.4722588746
 20
8.3094959995
 30
0.0
 10
9.4653834319
 20
8.3335420881
 30
0.0
 10
9.4600063263
 20
8.3578711758
 30
0.0
 10
9.4561490747
 20
8.3823870022
 30
0.0
 10
9.4538270768
 20
8.4069909712
 30
0.0
 10
9.4533077445
 20
8.4234260731
 30
0.0
 10
9.4533077445
 20
8.4316236252
 30
0.0
  0
SPLINE
  5
3B6
100
AcDbEntity
  8
0
100
AcDbSpline
 62
7
  6
CONTINUOUS
 70
0
 71
3
 72
19
 73
15
 74
0
 42
0.0000001
 43
0.0000001
 44
0.0000000001
 40
0.0
 40
0.0
 40
0.0
 40
0.0
 40
0.1504602541
 40
0.2916987487
 40
0.4244197399
 40
0.4878838165
 40
0.5495801819
 40
0.6682271511
 40
0.7255606398
 40
0.7817998923
 40
0.8371467013
 40
0.8918136246
 40
0.9460221895
 40
1.0
 40
1.0
 40
1.0
 40
1.0
 10
12.864099842
 20
7.7385960184
 30
0.0
 10
12.862573217
 20
7.7371214118
 30
0.0
 10
12.8595220486
 20
7.7343546228
 30
0.0
 10
12.854797621
 20
7.7306675404
 30
0.0
 10
12.8508070806
 20
7.7280598396
 30
0.0
 10
12.8476248956
 20
7.7262939721
 30
0.0
 10
12.844536583
 20
7.7247779543
 30
0.0
 10
12.8414121177
 20
7.7235387308
 30
0.0
 10
12.8382700694
 20
7.7226062098
 30
0.0
 10
12.8359469221
 20
7.7220687121
 30
0.0
 10
12.833631513
 20
7.7216855923
 30
0.0
 10
12.8313244478
 20
7.7214570582
 30
0.0
 10
12.8290266596
 20
7.7213832213
 30
0.0
 10
12.8275000756
 20
7.7214372121
 30
0.0
 10
12.8267404466
 20
7.7214898882
 30
0.0
  0
SPLINE
  5
3B7
100
AcDbEntity
  8
0
100
AcDbSpline
 62
7
  6
CONTINUOUS
 70
0
 71
3
 72
83
 73
79
 74
0
 42
0.0000001
 43
0.0000001
 44
0.0000000001
 40
0.0
 40
0.0
 40
0.0
 40
0.0
 40
0.0039884097
 40
0.0081453951
 40
0.0124746186
 40
0.0169791614
 40
0.0216616097
 40
0.0265239718
 40
0.0315675691
 40
0.0367932644
 40
0.042201484
 40
0.0477922575
 40
0.0535653099
 40
0.0595199779
 40
0.0719697837
 40
0.0851316862
 40
0.098991495
 40
0.1135318501
 40
0.1287326108
 40
0.1445711562
 40
0.1610226585
 40
0.1780603021
 40
0.1956554688
 40
0.2137778955
 40
0.232395813
 40
0.2514760916
 40
0.2709843678
 40
0.29088516
 40
0.3111419767
 40
0.3317174197
 40
0.3525732979
 40
0.3736707312
 40
0.4164311769
 40
0.4596784221
 40
0.5030866968
 40
0.5463286871
 40
0.589078675
 40
0.6101689609
 40
0.6310164291
 40
0.6515822205
 40
0.6718281726
 40
0.6917169195
 40
0.7112119951
 40
0.730277944
 40
0.7488804433
 40
0.7669864122
 40
0.7845641338
 40
0.8015833871
 40
0.8180155988
 40
0.8338340188
 40
0.8490138961
 40
0.8635326921
 40
0.8773703389
 40
0.8905095606
 40
0.9029362808
 40
0.9146401102
 40
0.9202191733
 40
0.9256156542
 40
0.9308296162
 40
0.9358615409
 40
0.9407122971
 40
0.9453833039
 40
0.9498764865
 40
0.9541944013
 40
0.9583403271
 40
0.9623182846
 40
0.9661332455
 40
0.9697911516
 40
0.9732990923
 40
0.9766654451
 40
0.9798999492
 40
0.9830139088
 40
0.9860202118
 40
0.9889334125
 40
0.991769705
 40
0.9945467681
 40
0.997283572
 40
1.0
 40
1.0
 40
1.0
 40
1.0
 10
12.864099842
 20
7.7385960184
 30
0.0
 10
12.8651667307
 20
7.7396265539
 30
0.0
 10
12.8672993423
 20
7.741779508
 30
0.0
 10
12.8704313804
 20
7.7452035912
 30
0.0
 10
12.873560111
 20
7.748886401
 30
0.0
 10
12.8766838299
 20
7.7528259382
 30
0.0
 10
12.8798011005
 20
7.7570202612
 30
0.0
 10
12.8829103862
 20
7.7614673587
 30
0.0
 10
12.8860102242
 20
7.7661650143
 30
0.0
 10
12.8890990309
 20
7.7711109092
 30
0.0
 10
12.8921752677
 20
7.7763025764
 30
0.0
 10
12.8952374287
 20
7.7817374179
 30
0.0
 10
12.8982839633
 20
7.7874127538
 30
0.0
 10
12.9023841347
 20
7.7954158836
 30
0.0
 10
12.9074495293
 20
7.8060095025
 30
0.0
 10
12.9133549807
 20
7.8194514431
 30
0.0
 10
12.9191623708
 20
7.8337784539
 30
0.0
 10
12.9248599868
 20
7.848961872
 30
0.0
 10
12.9304363294
 20
7.8649714686
 30
0.0
 10
12.935880139
 20
7.8817752251
 30
0.0
 10
12.9411804163
 20
7.8993395022
 30
0.0
 10
12.9463264491
 20
7.9176290975
 30
0.0
 10
12.9513078362
 20
7.9366073293
 30
0.0
 10
12.9561145081
 20
7.9562361075
 30
0.0
 10
12.9607367602
 20
7.9764760119
 30
0.0
 10
12.965165259
 20
7.9972863801
 30
0.0
 10
12.9693910636
 20
8.0186253961
 30
0.0
 10
12.9734056417
 20
8.0404501737
 30
0.0
 10
12.9772008901
 20
8.062716844
 30
0.0
 10
12.9807691487
 20
8.085380629
 30
0.0
 10
12.9841032525
 20
8.1083959904
 30
0.0
 10
12.9882458201
 20
8.1396288962
 30
0.0
 10
12.9927850477
 20
8.1792066961
 30
0.0
 10
12.997181348
 20
8.2271404236
 30
0.0
 10
13.0005152739
 20
8.2753394084
 30
0.0
 10
13.0027599925
 20
8.3234161025
 30
0.0
 10
13.0037124703
 20
8.3632334675
 30
0.0
 10
13.0039087773
 20
8.3947296135
 30
0.0
 10
13.0037745313
 20
8.4179754548
 30
0.0
 10
13.003359858
 20
8.4409039128
 30
0.0
 10
13.0026655897
 20
8.4634689216
 30
0.0
 10
13.0016931551
 20
8.4856251017
 30
0.0
 10
13.0004445358
 20
8.5073279103
 30
0.0
 10
12.9989222735
 20
8.5285337204
 30
0.0
 10
12.9971294741
 20
8.5491999166
 30
0.0
 10
12.99506979
 20
8.5692849803
 30
0.0
 10
12.9927474145
 20
8.588748571
 30
0.0
 10
12.9901670725
 20
8.6075516101
 30
0.0
 10
12.9873340116
 20
8.6256563686
 30
0.0
 10
12.984254004
 20
8.6430265533
 30
0.0
 10
12.9809333195
 20
8.6596273812
 30
0.0
 10
12.9773787127
 20
8.6754256621
 30
0.0
 10
12.9735974039
 20
8.6903898468
 30
0.0
 10
12.9695970544
 20
8.7044902202
 30
0.0
 10
12.9653857531
 20
8.7176986239
 30
0.0
 10
12.9616503676
 20
8.728100596
 30
0.0
 10
12.9585532017
 20
8.735946655
 30
0.0
 10
12.9562200158
 20
8.7414978101
 30
0.0
 10
12.9538405512
 20
8.7468070937
 30
0.0
 10
12.9514160028
 20
8.7518718924
 30
0.0
 10
12.9489475148
 20
8.7566896711
 30
0.0
 10
12.946436353
 20
8.7612580676
 30
0.0
 10
12.9438837133
 20
8.7655748178
 30
0.0
 10
12.9412908157
 20
8.7696377865
 30
0.0
 10
12.9386589434
 20
8.7734450012
 30
0.0
 10
12.9359892649
 20
8.7769945475
 30
0.0
 10
12.9332830742
 20
8.7802847087
 30
0.0
 10
12.9305415659
 20
8.7833138278
 30
0.0
 10
12.9277659463
 20
8.7860803545
 30
0.0
 10
12.9249574741
 20
8.7885828923
 30
0.0
 10
12.9221172939
 20
8.7908200048
 30
0.0
 10
12.9192466935
 20
8.7927904519
 30
0.0
 10
12.9163469144
 20
8.794492949
 30
0.0
 10
12.9134192948
 20
8.7959262724
 30
0.0
 10
12.9104653589
 20
8.7970893596
 30
0.0
 10
12.9074865993
 20
8.7979810872
 30
0.0
 10
12.9044851673
 20
8.7986006742
 30
0.0
 10
12.9024670813
 20
8.7988322146
 30
0.0
 10
12.9014592374
 20
8.7989021029
 30
0.0
  0
SPLINE
  5
3B8
100
AcDbEntity
  8
0
100
AcDbSpline
 62
7
  6
CONTINUOUS
 70
0
 71
3
 72
90
 73
86
 74
0
 42
0.0000001
 43
0.0000001
 44
0.0000000001
 40
0.0
 40
0.0
 40
0.0
 40
0.0
 40
0.0039801841
 40
0.0081241159
 40
0.0124359656
 40
0.0169193153
 40
0.0215771898
 40
0.0264119289
 40
0.0314251936
 40
0.0366181713
 40
0.0419915567
 40
0.0475456772
 40
0.0532804457
 40
0.0591954437
 40
0.0652899501
 40
0.0715629317
 40
0.0846386004
 40
0.098409911
 40
0.1128604817
 40
0.1279710074
 40
0.1437195982
 40
0.1600820565
 40
0.1770321086
 40
0.194541602
 40
0.2125806763
 40
0.2311179203
 40
0.2501205135
 40
0.2695543567
 40
0.2893841934
 40
0.3095737255
 40
0.3300857245
 40
0.3508821382
 40
0.3719241976
 40
0.3931725218
 40
0.4145872201
 40
0.4361279928
 40
0.4577542316
 40
0.4794251191
 40
0.5010997291
 40
0.5227371263
 40
0.5442964667
 40
0.5657370967
 40
0.5870186529
 40
0.608101162
 40
0.6289451422
 40
0.6495117057
 40
0.6697626638
 40
0.6896606308
 40
0.7091691309
 40
0.728252709
 40
0.7468770455
 40
0.7650090769
 40
0.7826171262
 40
0.7996710429
 40
0.8161423523
 40
0.8320044245
 40
0.8472326669
 40
0.8618047498
 40
0.8757008734
 40
0.8889040964
 40
0.8952416854
 40
0.9014012239
 40
0.9073816029
 40
0.9131819719
 40
0.9188018178
 40
0.9242409106
 40
0.9294994338
 40
0.9345779311
 40
0.9394774185
 40
0.9441994036
 40
0.9487459354
 40
0.9531197203
 40
0.9573241226
 40
0.9613633439
 40
0.9652424353
 40
0.9689674716
 40
0.9725456352
 40
0.9759853336
 40
0.9824864943
 40
0.9855753483
 40
0.9885738142
 40
0.9914977336
 40
0.9943643342
 40
0.9971920087
 40
1.0
 40
1.0
 40
1.0
 40
1.0
 10
11.0203753321
 20
10.0655368722
 30
0.0
 10
11.0217013211
 20
10.0668176792
 30
0.0
 10
11.0244680675
 20
10.0693702346
 30
0.0
 10
11.0288608098
 20
10.0730984339
 30
0.0
 10
11.0335761275
 20
10.0767998904
 30
0.0
 10
11.0386114339
 20
10.0804726386
 30
0.0
 10
11.043964274
 20
10.0841149635
 30
0.0
 10
11.049632025
 20
10.0877250929
 30
0.0
 10
11.0556118523
 20
10.091301296
 30
0.0
 10
11.0619007888
 20
10.0948417168
 30
0.0
 10
11.068495659
 20
10.0983446561
 30
0.0
 10
11.0753931842
 20
10.1018083113
 30
0.0
 10
11.0825898968
 20
10.1052309808
 30
0.0
 10
11.0900821847
 20
10.1086109274
 30
0.0
 10
11.0978662957
 20
10.1119464573
 30
0.0
 10
11.1087803015
 20
10.1163939497
 30
0.0
 10
11.1231331366
 20
10.1218180984
 30
0.0
 10
11.1412250498
 20
10.1280369596
 30
0.0
 10
11.1603796512
 20
10.1340398926
 30
0.0
 10
11.1805583187
 20
10.1398146959
 30
0.0
 10
11.201720542
 20
10.1453496167
 30
0.0
 10
11.2238236916
 20
10.1506333822
 30
0.0
 10
11.2468232115
 20
10.1556552284
 30
0.0
 10
11.2706726902
 20
10.1604049231
 30
0.0
 10
11.2953239682
 20
10.164872793
 30
0.0
 10
11.3207272402
 20
10.1690497404
 30
0.0
 10
11.3468311632
 20
10.1729272612
 30
0.0
 10
11.3735829636
 20
10.1764974628
 30
0.0
 10
11.4009285466
 20
10.1797530789
 30
0.0
 10
11.4288126071
 20
10.1826874845
 30
0.0
 10
11.4571787426
 20
10.1852947084
 30
0.0
 10
11.4859695675
 20
10.1875694482
 30
0.0
 10
11.5151268322
 20
10.1895070793
 30
0.0
 10
11.5445915418
 20
10.1911036624
 30
0.0
 10
11.5743040776
 20
10.1923559515
 30
0.0
 10
11.6042043173
 20
10.1932614004
 30
0.0
 10
11.6342317569
 20
10.1938181677
 30
0.0
 10
11.6643256333
 20
10.1940251198
 30
0.0
 10
11.6944250483
 20
10.1938818364
 30
0.0
 10
11.7244690927
 20
10.1933886102
 30
0.0
 10
11.75439697
 20
10.1925464445
 30
0.0
 10
11.7841481202
 20
10.1913570518
 30
0.0
 10
11.8136623423
 20
10.1898228496
 30
0.0
 10
11.8428799159
 20
10.1879469566
 30
0.0
 10
11.8717417234
 20
10.1857331856
 30
0.0
 10
11.9001893711
 20
10.1831860382
 30
0.0
 10
11.928165309
 20
10.180310697
 30
0.0
 10
11.955612948
 20
10.1771130116
 30
0.0
 10
11.9824767746
 20
10.1735994886
 30
0.0
 10
12.0087024645
 20
10.1697772778
 30
0.0
 10
12.0342369942
 20
10.1656541589
 30
0.0
 10
12.0590287516
 20
10.1612385249
 30
0.0
 10
12.083027645
 20
10.1565393673
 30
0.0
 10
12.1061852106
 20
10.1515662593
 30
0.0
 10
12.1284547124
 20
10.1463293323
 30
0.0
 10
12.1497912497
 20
10.1408392547
 30
0.0
 10
12.1701518307
 20
10.1351072084
 30
0.0
 10
12.1894955611
 20
10.1291448601
 30
0.0
 10
12.2077834289
 20
10.1229643341
 30
0.0
 10
12.2223046914
 20
10.1175715118
 30
0.0
 10
12.2333568695
 20
10.1131480713
 30
0.0
 10
12.2412461303
 20
10.1098291016
 30
0.0
 10
12.2488449824
 20
10.1064651288
 30
0.0
 10
12.2561496039
 20
10.1030577839
 30
0.0
 10
12.2631563405
 20
10.0996088443
 30
0.0
 10
12.2698616572
 20
10.096119977
 30
0.0
 10
12.2762622162
 20
10.0925929897
 30
0.0
 10
12.2823548012
 20
10.0890295989
 30
0.0
 10
12.2881363766
 20
10.0854315945
 30
0.0
 10
12.293604068
 20
10.081800765
 30
0.0
 10
12.2987551324
 20
10.0781388528
 30
0.0
 10
12.3035870437
 20
10.0744477021
 30
0.0
 10
12.3080973561
 20
10.070729015
 30
0.0
 10
12.3122838604
 20
10.0669846407
 30
0.0
 10
12.3161444457
 20
10.0632162473
 30
0.0
 10
12.3196770872
 20
10.0594257326
 30
0.0
 10
12.3228802599
 20
10.0556143737
 30
0.0
 10
12.3266378838
 20
10.0506028763
 30
0.0
 10
12.3298287184
 20
10.0454562982
 30
0.0
 10
12.3323621024
 20
10.0401998278
 30
0.0
 10
12.3338927616
 20
10.0363122757
 30
0.0
 10
12.3350847417
 20
10.0324152644
 30
0.0
 10
12.3359370654
 20
10.028510687
 30
0.0
 10
12.3364487906
 20
10.0246013271
 30
0.0
 10
12.3365627114
 20
10.0219895685
 30
0.0
 10
12.3365627112
 20
10.0206889502
 30
0.0
  0
SPLINE
  5
3B9
100
AcDbEntity
  8
0
100
AcDbSpline
 62
7
  6
CONTINUOUS
 70
0
 71
3
 72
25
 73
21
 74
0
 42
0.0000001
 43
0.0000001
 44
0.0000000001
 40
0.0
 40
0.0
 40
0.0
 40
0.0
 40
0.06377716
 40
0.127343222
 40
0.190700148
 40
0.2538535537
 40
0.3168099705
 40
0.3795782475
 40
0.4421688972
 40
0.5045942157
 40
0.5668681101
 40
0.629005993
 40
0.6910246336
 40
0.7219973337
 40
0.7529470518
 40
0.8147821333
 40
0.8765547559
 40
0.9074265679
 40
0.9382904805
 40
1.0
 40
1.0
 40
1.0
 40
1.0
 10
8.9839158733
 20
8.2447258674
 30
0.0
 10
8.9839158733
 20
8.2550555573
 30
0.0
 10
8.9844102476
 20
8.275684249
 30
0.0
 10
8.9866418662
 20
8.3065018956
 30
0.0
 10
8.9903573335
 20
8.3370751264
 30
0.0
 10
8.9955480545
 20
8.367332465
 30
0.0
 10
9.0022022127
 20
8.3972044912
 30
0.0
 10
9.0103044944
 20
8.4266222421
 30
0.0
 10
9.0198363149
 20
8.4555179273
 30
0.0
 10
9.0307757345
 20
8.4838248763
 30
0.0
 10
9.0430976641
 20
8.5114779197
 30
0.0
 10
9.0567734797
 20
8.5384128527
 30
0.0
 10
9.0692782615
 20
8.5602192393
 30
0.0
 10
9.0799245657
 20
8.5772399167
 30
0.0
 10
9.0909857469
 20
8.5939583497
 30
0.0
 10
9.1055959745
 20
8.6142997545
 30
0.0
 10
9.1212222826
 20
8.6338552733
 30
0.0
 10
9.13430418
 20
8.6489915752
 30
0.0
 10
9.1477635317
 20
8.6637788123
 30
0.0
 10
9.1582823925
 20
8.6744758047
 30
0.0
 10
9.1654712076
 20
8.6814196539
 30
0.0
  0
SPLINE
  5
3BA
100
AcDbEntity
  8
0
100
AcDbSpline
 62
7
  6
CONTINUOUS
 70
0
 71
3
 72
31
 73
27
 74
0
 42
0.0000001
 43
0.0000001
 44
0.0000000001
 40
0.0
 40
0.0
 40
0.0
 40
0.0
 40
0.0149643436
 40
0.0307092704
 40
0.0473929944
 40
0.0651402399
 40
0.08404559
 40
0.1041767269
 40
0.1255788625
 40
0.1482782027
 40
0.1722849162
 40
0.1975962168
 40
0.2241975712
 40
0.2520658253
 40
0.2811691536
 40
0.3114699589
 40
0.3429243271
 40
0.375484353
 40
0.443708591
 40
0.5156988594
 40
0.5909805357
 40
0.6690677551
 40
0.749477124
 40
0.8317332426
 40
0.9153892452
 40
1.0
 40
1.0
 40
1.0
 40
1.0
 10
9.7389415532
 20
8.0743427991
 30
0.0
 10
9.7389415632
 20
8.074659408
 30
0.0
 10
9.7388998016
 20
8.0753096633
 30
0.0
 10
9.7387218829
 20
8.076298303
 30
0.0
 10
9.7384287505
 20
8.0773203221
 30
0.0
 10
9.7380221452
 20
8.078374362
 30
0.0
 10
9.7375037711
 20
8.0794593396
 30
0.0
 10
9.736875627
 20
8.0805741211
 30
0.0
 10
9.7361398523
 20
8.081717524
 30
0.0
 10
9.7352988338
 20
8.0828883146
 30
0.0
 10
9.7343552228
 20
8.0840852459
 30
0.0
 10
9.733311848
 20
8.0853069764
 30
0.0
 10
9.7321718456
 20
8.0865522192
 30
0.0
 10
9.7309384631
 20
8.0878195599
 30
0.0
 10
9.7296152347
 20
8.0891076816
 30
0.0
 10
9.7282057664
 20
8.0904151367
 30
0.0
 10
9.7267138897
 20
8.0917405794
 30
0.0
 10
9.7245867335
 20
8.0935582567
 30
0.0
 10
9.7217457855
 20
8.0958596737
 30
0.0
 10
9.7181236967
 20
8.0986296012
 30
0.0
 10
9.7142699054
 20
8.1014378099
 30
0.0
 10
9.7102166686
 20
8.10427303
 30
0.0
 10
9.7059952881
 20
8.1071240144
 30
0.0
 10
9.7016355911
 20
8.1099797088
 30
0.0
 10
9.697165924
 20
8.1128289369
 30
0.0
 10
9.694142707
 20
8.1147091313
 30
0.0
 10
9.6926177317
 20
8.1156467412
 30
0.0
  0
SPLINE
  5
3BB
100
AcDbEntity
  8
0
100
AcDbSpline
 62
7
  6
CONTINUOUS
 70
0
 71
3
 72
29
 73
25
 74
0
 42
0.0000001
 43
0.0000001
 44
0.0000000001
 40
0.0
 40
0.0
 40
0.0
 40
0.0
 40
0.0755849261
 40
0.1466145423
 40
0.2134284043
 40
0.2764668694
 40
0.3362691012
 40
0.3651660615
 40
0.3935048179
 40
0.4213819954
 40
0.4488995596
 40
0.4761640064
 40
0.503285025
 40
0.5303741997
 40
0.5575435754
 40
0.5849040881
 40
0.6125642198
 40
0.6406286477
 40
0.6691970702
 40
0.7281928859
 40
0.7902532206
 40
0.8559467831
 40
0.9257384363
 40
1.0
 40
1.0
 40
1.0
 40
1.0
 10
12.9239872468
 20
7.674555408
 30
0.0
 10
12.9223140881
 20
7.6729392608
 30
0.0
 10
12.9189700547
 20
7.6699036678
 30
0.0
 10
12.9137948347
 20
7.6658483884
 30
0.0
 10
12.9086256059
 20
7.6624424678
 30
0.0
 10
12.9034676032
 20
7.6596912397
 30
0.0
 10
12.8991321342
 20
7.657928079
 30
0.0
 10
12.895688658
 20
7.656865055
 30
0.0
 10
12.8931425255
 20
7.6562425087
 30
0.0
 10
12.8906045389
 20
7.6557860449
 30
0.0
 10
12.8880753994
 20
7.6554958988
 30
0.0
 10
12.8855559332
 20
7.6553721916
 30
0.0
 10
12.88304695
 20
7.6554149929
 30
0.0
 10
12.8805492806
 20
7.6556243655
 30
0.0
 10
12.8780637545
 20
7.6560002079
 30
0.0
 10
12.8755911702
 20
7.6565423366
 30
0.0
 10
12.8731323394
 20
7.6572505518
 30
0.0
 10
12.8706879601
 20
7.6581246143
 30
0.0
 10
12.8674145256
 20
7.6595252698
 30
0.0
 10
12.8633490622
 20
7.6617107597
 30
0.0
 10
12.8585982189
 20
7.6649621819
 30
0.0
 10
12.8539256615
 20
7.6688650977
 30
0.0
 10
12.8493357003
 20
7.6734134787
 30
0.0
 10
12.8464266557
 20
7.6767647479
 30
0.0
 10
12.8449845748
 20
7.6785378708
 30
0.0
  0
SPLINE
  5
3BC
100
AcDbEntity
  8
0
100
AcDbSpline
 62
7
  6
CONTINUOUS
 70
0
 71
3
 72
95
 73
91
 74
0
 42
0.0000001
 43
0.0000001
 44
0.0000000001
 40
0.0
 40
0.0
 40
0.0
 40
0.0
 40
0.0039488186
 40
0.0077209214
 40
0.0113256445
 40
0.0147745623
 40
0.0212567379
 40
0.0243282751
 40
0.0273113629
 40
0.0302282336
 40
0.0331028199
 40
0.0359602143
 40
0.0388260038
 40
0.0417255309
 40
0.0446832014
 40
0.0477218699
 40
0.0508624604
 40
0.054123679
 40
0.0575219936
 40
0.0610716364
 40
0.0647847726
 40
0.0686716672
 40
0.0727408686
 40
0.0769994465
 40
0.0814531065
 40
0.0861064471
 40
0.0909629987
 40
0.0960254618
 40
0.1012957099
 40
0.1067749705
 40
0.1124638402
 40
0.1183623842
 40
0.1244701939
 40
0.1307863998
 40
0.1373097798
 40
0.1440387018
 40
0.1509712635
 40
0.165437612
 40
0.1806882179
 40
0.1966981085
 40
0.213438923
 40
0.2308792972
 40
0.2489851807
 40
0.267720107
 40
0.2870454315
 40
0.3069205425
 40
0.3273030537
 40
0.3481489841
 40
0.3694129279
 40
0.3910482169
 40
0.4130070784
 40
0.4352407884
 40
0.4576998231
 40
0.4803340076
 40
0.5030926647
 40
0.5259247619
 40
0.5487790575
 40
0.5716042467
 40
0.5943491077
 40
0.6169626475
 40
0.6393942481
 40
0.6615938139
 40
0.6835119196
 40
0.7050999601
 40
0.7263103021
 40
0.7470964384
 40
0.7674131453
 40
0.7872166469
 40
0.8064647855
 40
0.8251172028
 40
0.8431355353
 40
0.8604836278
 40
0.8771277739
 40
0.893036993
 40
0.9081833566
 40
0.9225423822
 40
0.9294203032
 40
0.9360940384
 40
0.9425617647
 40
0.9488219437
 40
0.9548734598
 40
0.9607155432
 40
0.9663479326
 40
0.9717708198
 40
0.9769849626
 40
0.9819917154
 40
0.9867932039
 40
0.9913924565
 40
0.9957932256
 40
1.0
 40
1.0
 40
1.0
 40
1.0
 10
12.9254591415
 20
8.838925957
 30
0.0
 10
12.9267011382
 20
8.840081832
 30
0.0
 10
12.9291840767
 20
8.8422844013
 30
0.0
 10
12.9329937457
 20
8.8453156732
 30
0.0
 10
12.9367999774
 20
8.8479950869
 30
0.0
 10
12.9417625033
 20
8.8510322516
 30
0.0
 10
12.9468255713
 20
8.8534544254
 30
0.0
 10
12.9519422523
 20
8.8551559402
 30
0.0
 10
12.9556974593
 20
8.8560494008
 30
0.0
 10
12.9594354071
 20
8.8565812489
 30
0.0
 10
12.9631534422
 20
8.856750689
 30
0.0
 10
12.9668484295
 20
8.856557276
 30
0.0
 10
12.970517216
 20
8.8560010638
 30
0.0
 10
12.9741567573
 20
8.8550828407
 30
0.0
 10
12.9777641981
 20
8.8538036535
 30
0.0
 10
12.9813370793
 20
8.8521651453
 30
0.0
 10
12.9848731369
 20
8.8501689096
 30
0.0
 10
12.9883704674
 20
8.8478168744
 30
0.0
 10
12.99182721
 20
8.8451108423
 30
0.0
 10
12.9952416771
 20
8.8420528003
 30
0.0
 10
12.9986121533
 20
8.8386447388
 30
0.0
 10
13.0019369277
 20
8.8348887763
 30
0.0
 10
13.0052143114
 20
8.8307871905
 30
0.0
 10
13.0084425072
 20
8.8263423673
 30
0.0
 10
13.0116198282
 20
8.8215569461
 30
0.0
 10
13.0147444243
 20
8.8164336761
 30
0.0
 10
13.0178146103
 20
8.810975586
 30
0.0
 10
13.0208285458
 20
8.8051858358
 30
0.0
 10
13.0237845458
 20
8.7990678458
 30
0.0
 10
13.0266808339
 20
8.7926251985
 30
0.0
 10
13.0295157285
 20
8.7858617021
 30
0.0
 10
13.0322875484
 20
8.7787813527
 30
0.0
 10
13.0349946272
 20
8.7713883421
 30
0.0
 10
13.03763539
 20
8.7636870624
 30
0.0
 10
13.0402082014
 20
8.7556820856
 30
0.0
 10
13.0427116092
 20
8.7473781708
 30
0.0
 10
13.04600158
 20
8.7357487183
 30
0.0
 10
13.049916511
 20
8.7204935395
 30
0.0
 10
13.0542506111
 20
8.7013282103
 30
0.0
 10
13.0582745725
 20
8.681098198
 30
0.0
 10
13.0619786545
 20
8.6598517804
 30
0.0
 10
13.0653538594
 20
8.6376395076
 30
0.0
 10
13.0683919944
 20
8.6145143703
 30
0.0
 10
13.0710856831
 20
8.5905315704
 30
0.0
 10
13.0734283853
 20
8.5657484029
 30
0.0
 10
13.0754144121
 20
8.5402241029
 30
0.0
 10
13.0770389384
 20
8.5140197002
 30
0.0
 10
13.0782980141
 20
8.4871978683
 30
0.0
 10
13.0791885722
 20
8.459822771
 30
0.0
 10
13.0797084358
 20
8.4319599064
 30
0.0
 10
13.0798563223
 20
8.4036759479
 30
0.0
 10
13.079631846
 20
8.3750385832
 30
0.0
 10
13.0790355184
 20
8.3461163507
 30
0.0
 10
13.078068748
 20
8.3169784748
 30
0.0
 10
13.076733835
 20
8.2876946981
 30
0.0
 10
13.0750339656
 20
8.2583351139
 30
0.0
 10
13.0729732045
 20
8.2289699975
 30
0.0
 10
13.0705564846
 20
8.1996696375
 30
0.0
 10
13.0677895957
 20
8.1705041663
 30
0.0
 10
13.06467917
 20
8.1415433925
 30
0.0
 10
13.061232667
 20
8.1128566323
 30
0.0
 10
13.0574583553
 20
8.0845125431
 30
0.0
 10
13.0533652931
 20
8.0565789579
 30
0.0
 10
13.048963308
 20
8.0291227209
 30
0.0
 10
13.0442629727
 20
8.0022095262
 30
0.0
 10
13.0392755801
 20
7.975903759
 30
0.0
 10
13.0340131166
 20
7.950268339
 30
0.0
 10
13.028488234
 20
7.9253645674
 30
0.0
 10
13.0227142191
 20
7.9012519766
 30
0.0
 10
13.0167049626
 20
7.8779881824
 30
0.0
 10
13.0104749257
 20
7.8556287422
 30
0.0
 10
13.0040391043
 20
7.8342270064
 30
0.0
 10
12.9974129914
 20
7.8138340059
 30
0.0
 10
12.9906125347
 20
7.7944982228
 30
0.0
 10
12.9836540982
 20
7.7762657745
 30
0.0
 10
12.9776547491
 20
7.7618273802
 30
0.0
 10
12.972779097
 20
7.7508706539
 30
0.0
 10
12.9691457837
 20
7.7430736661
 30
0.0
 10
12.9654855803
 20
7.7355835662
 30
0.0
 10
12.9618005818
 20
7.7284048194
 30
0.0
 10
12.95809306
 20
7.7215416709
 30
0.0
 10
12.9543651544
 20
7.7149982106
 30
0.0
 10
12.9506191301
 20
7.7087782884
 30
0.0
 10
12.9468571553
 20
7.7028855985
 30
0.0
 10
12.9430814848
 20
7.697323616
 30
0.0
 10
12.9392943309
 20
7.6920956058
 30
0.0
 10
12.9354978456
 20
7.6872046205
 30
0.0
 10
12.9316941613
 20
7.6826534483
 30
0.0
 10
12.9278856156
 20
7.6784450132
 30
0.0
 10
12.9252872833
 20
7.675811147
 30
0.0
 10
12.9239872468
 20
7.674555408
 30
0.0
  0
SPLINE
  5
3BD
100
AcDbEntity
  8
0
100
AcDbSpline
 62
7
  6
CONTINUOUS
 70
0
 71
3
 72
39
 73
35
 74
0
 42
0.0000001
 43
0.0000001
 44
0.0000000001
 40
0.0
 40
0.0
 40
0.0
 40
0.0
 40
0.0855434346
 40
0.1710902586
 40
0.255904488
 40
0.3392840477
 40
0.4205436288
 40
0.4601615118
 40
0.4989846328
 40
0.5369178075
 40
0.5738624736
 40
0.6097139531
 40
0.6443621361
 40
0.677691678
 40
0.7095813169
 40
0.7399085494
 40
0.7685511957
 40
0.7953954044
 40
0.820346572
 40
0.843344571
 40
0.864387551
 40
0.8835631304
 40
0.8925187307
 40
0.9011009436
 40
0.9093617014
 40
0.9173640172
 40
0.9251802784
 40
0.9328905325
 40
0.940578756
 40
0.9483293514
 40
0.956222498
 40
0.9643312265
 40
0.9814217948
 40
1.0
 40
1.0
 40
1.0
 40
1.0
 10
9.6926177317
 20
8.1156467412
 30
0.0
 10
9.6904082499
 20
8.1170052104
 30
0.0
 10
9.6859690403
 20
8.1196895455
 30
0.0
 10
9.679274113
 20
8.123611889
 30
0.0
 10
9.6725816615
 20
8.1274072568
 30
0.0
 10
9.6659459277
 20
8.1310373955
 30
0.0
 10
9.6604606715
 20
8.1339135282
 30
0.0
 10
9.6561360567
 20
8.1360918503
 30
0.0
 10
9.6529656237
 20
8.1376408131
 30
0.0
 10
9.6498474651
 20
8.139111441
 30
0.0
 10
9.6467886835
 20
8.1404958581
 30
0.0
 10
9.643796812
 20
8.1417853781
 30
0.0
 10
9.6408800595
 20
8.1429706676
 30
0.0
 10
9.6380474007
 20
8.1440416345
 30
0.0
 10
9.635308643
 20
8.1449874146
 30
0.0
 10
9.6326745946
 20
8.1457965672
 30
0.0
 10
9.6301569967
 20
8.1464570507
 30
0.0
 10
9.6277685223
 20
8.1469565989
 30
0.0
 10
9.6255226069
 20
8.1472829348
 30
0.0
 10
9.6234328869
 20
8.1474240635
 30
0.0
 10
9.6215135314
 20
8.1473687961
 30
0.0
 10
9.6200340723
 20
8.1471452398
 30
0.0
 10
9.6189591593
 20
8.1468516948
 30
0.0
 10
9.6182236528
 20
8.1465824003
 30
0.0
 10
9.6175422837
 20
8.1462583884
 30
0.0
 10
9.6169165585
 20
8.1458796861
 30
0.0
 10
9.6163480127
 20
8.1454464033
 30
0.0
 10
9.6158380795
 20
8.1449590562
 30
0.0
 10
9.6153877142
 20
8.1444187554
 30
0.0
 10
9.614997934
 20
8.1438266556
 30
0.0
 10
9.6146689792
 20
8.1431844506
 30
0.0
 10
9.6143054424
 20
8.142247585
 30
0.0
 10
9.6140096778
 20
8.1409458217
 30
0.0
 10
9.6139417802
 20
8.1398623432
 30
0.0
 10
9.6139415676
 20
8.1392990484
 30
0.0
  0
SPLINE
  5
3BE
100
AcDbEntity
  8
0
100
AcDbSpline
 62
7
  6
CONTINUOUS
 70
0
 71
3
 72
23
 73
19
 74
0
 42
0.0000001
 43
0.0000001
 44
0.0000000001
 40
0.0
 40
0.0
 40
0.0
 40
0.0
 40
0.0637774716
 40
0.1273446947
 40
0.1907020108
 40
0.2538561385
 40
0.3168131788
 40
0.379582097
 40
0.4421733871
 40
0.5045993393
 40
0.5668738666
 40
0.62901238
 40
0.6910316508
 40
0.7529496465
 40
0.8147853569
 40
0.8765586065
 40
0.938289857
 40
1.0
 40
1.0
 40
1.0
 40
1.0
 10
11.6909231619
 20
7.4542565105
 30
0.0
 10
11.6909231619
 20
7.4618474943
 30
0.0
 10
11.6912864793
 20
7.4770070103
 30
0.0
 10
11.692926406
 20
7.4996541007
 30
0.0
 10
11.6956568309
 20
7.5221216207
 30
0.0
 10
11.6994713223
 20
7.5443569445
 30
0.0
 10
11.7043612753
 20
7.566309141
 30
0.0
 10
11.7103154056
 20
7.5879274982
 30
0.0
 10
11.7173200731
 20
7.6091621989
 30
0.0
 10
11.7253591627
 20
7.6299642697
 30
0.0
 10
11.7344141762
 20
7.6502857393
 30
0.0
 10
11.744464272
 20
7.6700797373
 30
0.0
 10
11.7554863063
 20
7.6893006009
 30
0.0
 10
11.7674549031
 20
7.7079039966
 30
0.0
 10
11.7803424504
 20
7.7258469606
 30
0.0
 10
11.7941193887
 20
7.7430882374
 30
0.0
 10
11.808753397
 20
7.7595875195
 30
0.0
 10
11.8190602339
 20
7.770068931
 30
0.0
 10
11.824343102
 20
7.7751717945
 30
0.0
  0
SPLINE
  5
3BF
100
AcDbEntity
  8
0
100
AcDbSpline
 62
4
  6
CONTINUOUS
 70
0
 71
3
 72
359
 73
355
 74
0
 42
0.0000001
 43
0.0000001
 44
0.0000000001
 40
0.0
 40
0.0
 40
0.0
 40
0.0
 40
0.015625
 40
0.0234375
 40
0.03125
 40
0.0390625
 40
0.04296875
 40
0.046875
 40
0.05078125
 40
0.0546875
 40
0.056640625
 40
0.05859375
 40
0.0595703125
 40
0.060546875
 40
0.0615234375
 40
0.0620117188
 40
0.0625
 40
0.0629882812
 40
0.0634765625
 40
0.064453125
 40
0.0654296875
 40
0.06640625
 40
0.068359375
 40
0.0703125
 40
0.07421875
 40
0.078125
 40
0.08203125
 40
0.0859375
 40
0.09375
 40
0.1015625
 40
0.10546875
 40
0.109375
 40
0.11328125
 40
0.1171875
 40
0.119140625
 40
0.12109375
 40
0.1220703125
 40
0.123046875
 40
0.1240234375
 40
0.1245117188
 40
0.125
 40
0.1254882812
 40
0.1259765625
 40
0.126953125
 40
0.1279296875
 40
0.12890625
 40
0.130859375
 40
0.1328125
 40
0.13671875
 40
0.140625
 40
0.14453125
 40
0.1484375
 40
0.15625
 40
0.1640625
 40
0.16796875
 40
0.171875
 40
0.17578125
 40
0.1796875
 40
0.181640625
 40
0.18359375
 40
0.1845703125
 40
0.185546875
 40
0.1865234375
 40
0.1870117188
 40
0.1875
 40
0.1879882812
 40
0.1884765625
 40
0.189453125
 40
0.1904296875
 40
0.19140625
 40
0.193359375
 40
0.1953125
 40
0.19921875
 40
0.203125
 40
0.20703125
 40
0.2109375
 40
0.21875
 40
0.2265625
 40
0.23046875
 40
0.234375
 40
0.23828125
 40
0.2421875
 40
0.244140625
 40
0.24609375
 40
0.2470703125
 40
0.248046875
 40
0.2490234375
 40
0.2495117188
 40
0.25
 40
0.2504882812
 40
0.2509765625
 40
0.251953125
 40
0.2529296875
 40
0.25390625
 40
0.255859375
 40
0.2578125
 40
0.26171875
 40
0.265625
 40
0.26953125
 40
0.2734375
 40
0.28125
 40
0.2890625
 40
0.29296875
 40
0.296875
 40
0.30078125
 40
0.3046875
 40
0.306640625
 40
0.30859375
 40
0.3095703125
 40
0.310546875
 40
0.3115234375
 40
0.3120117188
 40
0.3125
 40
0.3129882812
 40
0.3134765625
 40
0.314453125
 40
0.3154296875
 40
0.31640625
 40
0.318359375
 40
0.3203125
 40
0.32421875
 40
0.328125
 40
0.33203125
 40
0.3359375
 40
0.34375
 40
0.3515625
 40
0.35546875
 40
0.359375
 40
0.36328125
 40
0.3671875
 40
0.369140625
 40
0.37109375
 40
0.3720703125
 40
0.373046875
 40
0.3740234375
 40
0.3745117188
 40
0.375
 40
0.3754882812
 40
0.3759765625
 40
0.376953125
 40
0.3779296875
 40
0.37890625
 40
0.380859375
 40
0.3828125
 40
0.38671875
 40
0.390625
 40
0.39453125
 40
0.3984375
 40
0.40625
 40
0.4140625
 40
0.41796875
 40
0.421875
 40
0.42578125
 40
0.4296875
 40
0.431640625
 40
0.43359375
 40
0.4345703125
 40
0.435546875
 40
0.4365234375
 40
0.4370117188
 40
0.4375
 40
0.4379882812
 40
0.4384765625
 40
0.439453125
 40
0.4404296875
 40
0.44140625
 40
0.443359375
 40
0.4453125
 40
0.44921875
 40
0.453125
 40
0.45703125
 40
0.4609375
 40
0.46875
 40
0.4765625
 40
0.48046875
 40
0.484375
 40
0.48828125
 40
0.4921875
 40
0.494140625
 40
0.49609375
 40
0.4970703125
 40
0.498046875
 40
0.4990234375
 40
0.4995117188
 40
0.5
 40
0.5004882812
 40
0.5009765625
 40
0.501953125
 40
0.5029296875
 40
0.50390625
 40
0.505859375
 40
0.5078125
 40
0.51171875
 40
0.515625
 40
0.51953125
 40
0.5234375
 40
0.53125
 40
0.5390625
 40
0.54296875
 40
0.546875
 40
0.55078125
 40
0.5546875
 40
0.556640625
 40
0.55859375
 40
0.560546875
 40
0.5615234375
 40
0.5620117188
 40
0.5625
 40
0.5629882812
 40
0.5634765625
 40
0.564453125
 40
0.56640625
 40
0.568359375
 40
0.5703125
 40
0.57421875
 40
0.578125
 40
0.58203125
 40
0.5859375
 40
0.59375
 40
0.6015625
 40
0.60546875
 40
0.609375
 40
0.61328125
 40
0.6171875
 40
0.619140625
 40
0.62109375
 40
0.623046875
 40
0.6240234375
 40
0.6245117188
 40
0.625
 40
0.6254882812
 40
0.6259765625
 40
0.626953125
 40
0.62890625
 40
0.630859375
 40
0.6328125
 40
0.63671875
 40
0.640625
 40
0.64453125
 40
0.6484375
 40
0.65625
 40
0.6640625
 40
0.66796875
 40
0.671875
 40
0.67578125
 40
0.6796875
 40
0.681640625
 40
0.68359375
 40
0.685546875
 40
0.6865234375
 40
0.6870117188
 40
0.6875
 40
0.6879882812
 40
0.6884765625
 40
0.689453125
 40
0.69140625
 40
0.693359375
 40
0.6953125
 40
0.69921875
 40
0.703125
 40
0.70703125
 40
0.7109375
 40
0.71875
 40
0.7265625
 40
0.73046875
 40
0.734375
 40
0.73828125
 40
0.7421875
 40
0.744140625
 40
0.74609375
 40
0.748046875
 40
0.7490234375
 40
0.7495117188
 40
0.75
 40
0.7504882812
 40
0.7509765625
 40
0.751953125
 40
0.75390625
 40
0.755859375
 40
0.7578125
 40
0.76171875
 40
0.765625
 40
0.76953125
 40
0.7734375
 40
0.78125
 40
0.7890625
 40
0.79296875
 40
0.796875
 40
0.80078125
 40
0.8046875
 40
0.806640625
 40
0.80859375
 40
0.810546875
 40
0.8115234375
 40
0.8120117188
 40
0.8125
 40
0.8129882812
 40
0.8134765625
 40
0.814453125
 40
0.81640625
 40
0.818359375
 40
0.8203125
 40
0.82421875
 40
0.828125
 40
0.83203125
 40
0.8359375
 40
0.84375
 40
0.8515625
 40
0.85546875
 40
0.859375
 40
0.86328125
 40
0.8671875
 40
0.869140625
 40
0.87109375
 40
0.873046875
 40
0.8740234375
 40
0.8745117188
 40
0.875
 40
0.8754882812
 40
0.8759765625
 40
0.876953125
 40
0.87890625
 40
0.880859375
 40
0.8828125
 40
0.88671875
 40
0.890625
 40
0.89453125
 40
0.8984375
 40
0.90625
 40
0.9140625
 40
0.91796875
 40
0.921875
 40
0.92578125
 40
0.9296875
 40
0.931640625
 40
0.93359375
 40
0.935546875
 40
0.9365234375
 40
0.9370117188
 40
0.9375
 40
0.9379882812
 40
0.9384765625
 40
0.939453125
 40
0.94140625
 40
0.943359375
 40
0.9453125
 40
0.94921875
 40
0.953125
 40
0.95703125
 40
0.9609375
 40
0.96875
 40
0.9765625
 40
0.984375
 40
1.0
 40
1.0
 40
1.0
 40
1.0
 10
11.2002328131
 20
8.3228459724
 30
0.0
 10
11.203366
 20
8.3229358968
 30
0.0
 10
11.2080657804
 20
8.3230707834
 30
0.0
 10
11.2143321542
 20
8.3232506323
 30
0.0
 10
11.2190319346
 20
8.3233855188
 30
0.0
 10
11.2229484182
 20
8.3234979247
 30
0.0
 10
11.2260816053
 20
8.3235878482
 30
0.0
 10
11.2284314949
 20
8.3236552944
 30
0.0
 10
11.2307813871
 20
8.3237227271
 30
0.0
 10
11.2327396226
 20
8.3237789627
 30
0.0
 10
11.2343062291
 20
8.323823858
 30
0.0
 10
11.2352853168
 20
8.3238521295
 30
0.0
 10
11.2360686817
 20
8.3238742614
 30
0.0
 10
11.2366559459
 20
8.3238921891
 30
0.0
 10
11.2371461583
 20
8.323902902
 30
0.0
 10
11.2375364766
 20
8.3239209522
 30
0.0
 10
11.2378342748
 20
8.3239085865
 30
0.0
 10
11.2381127608
 20
8.3239950941
 30
0.0
 10
11.2384908215
 20
8.3240758998
 30
0.0
 10
11.2389610828
 20
8.3241887567
 30
0.0
 10
11.239526387
 20
8.3243191129
 30
0.0
 10
11.24027978
 20
8.3244946927
 30
0.0
 10
11.2412216398
 20
8.3247135609
 30
0.0
 10
11.2427285491
 20
8.325064089
 30
0.0
 10
11.2446122085
 20
8.3255021328
 30
0.0
 10
11.2468725901
 20
8.3260278352
 30
0.0
 10
11.2491329742
 20
8.3265535243
 30
0.0
 10
11.2521468188
 20
8.3272544478
 30
0.0
 10
11.255914125
 20
8.3281306004
 30
0.0
 10
11.2596814308
 20
8.3290067542
 30
0.0
 10
11.2626952759
 20
8.3297076758
 30
0.0
 10
11.2649556584
 20
8.3302333704
 30
0.0
 10
11.2672160461
 20
8.3307590522
 30
0.0
 10
11.2690996865
 20
8.3311971602
 30
0.0
 10
11.2706066345
 20
8.3315475575
 30
0.0
 10
11.2715483959
 20
8.3317667585
 30
0.0
 10
11.2723019909
 20
8.3319416552
 30
0.0
 10
11.272866678
 20
8.3320740984
 30
0.0
 10
11.2733388703
 20
8.3321804256
 30
0.0
 10
11.2737129914
 20
8.332274553
 30
0.0
 10
11.2740035085
 20
8.3323203771
 30
0.0
 10
11.2742561368
 20
8.3324607541
 30
0.0
 10
11.2746062095
 20
8.3326148949
 30
0.0
 10
11.2750392596
 20
8.3328189029
 30
0.0
 10
11.2755608633
 20
8.333058862
 30
0.0
 10
11.2762556561
 20
8.3333805016
 30
0.0
 10
11.2771243795
 20
8.333781971
 30
0.0
 10
11.278514207
 20
8.3344246463
 30
0.0
 10
11.280251536
 20
8.3352278792
 30
0.0
 10
11.2823363117
 20
8.3361918063
 30
0.0
 10
11.2844210925
 20
8.3371557207
 30
0.0
 10
11.2872007984
 20
8.3384409444
 30
0.0
 10
11.2906754314
 20
8.3400474722
 30
0.0
 10
11.294150064
 20
8.3416540012
 30
0.0
 10
11.2969297707
 20
8.3429392231
 30
0.0
 10
11.2990145491
 20
8.3439031428
 30
0.0
 10
11.301099334
 20
8.34486705
 30
0.0
 10
11.3028366343
 20
8.345670345
 30
0.0
 10
11.3042265202
 20
8.3463128937
 30
0.0
 10
11.3050950949
 20
8.3467146852
 30
0.0
 10
11.305790193
 20
8.3470356638
 30
0.0
 10
11.3063108639
 20
8.3472776423
 30
0.0
 10
11.3067468325
 20
8.3474753319
 30
0.0
 10
11.3070909508
 20
8.3476423634
 30
0.0
 10
11.3073617637
 20
8.3477433731
 30
0.0
 10
11.3075840084
 20
8.3479369982
 30
0.0
 10
11.3078973002
 20
8.3481628133
 30
0.0
 10
11.3082830942
 20
8.3484561818
 30
0.0
 10
11.3087485384
 20
8.348803473
 30
0.0
 10
11.3093682606
 20
8.3492681874
 30
0.0
 10
11.3101432112
 20
8.3498485121
 30
0.0
 10
11.3113829656
 20
8.3507773493
 30
0.0
 10
11.3129327158
 20
8.3519382869
 30
0.0
 10
11.3147923915
 20
8.3533314586
 30
0.0
 10
11.3166520738
 20
8.3547246179
 30
0.0
 10
11.3191316479
 20
8.3565821679
 30
0.0
 10
11.3222311164
 20
8.3589041039
 30
0.0
 10
11.3253305842
 20
8.3612260408
 30
0.0
 10
11.3278101595
 20
8.3630835893
 30
0.0
 10
11.3296698382
 20
8.3644767532
 30
0.0
 10
11.3315295274
 20
8.3658699075
 30
0.0
 10
11.3330792357
 20
8.3670308992
 30
0.0
 10
11.3343190756
 20
8.367959626
 30
0.0
 10
11.3350938086
 20
8.3685402317
 30
0.0
 10
11.3357139773
 20
8.3690043695
 30
0.0
 10
11.3361780572
 20
8.3693534222
 30
0.0
 10
11.33656812
 20
8.3696412792
 30
0.0
 10
11.3368727026
 20
8.3698783388
 30
0.0
 10
11.3371215447
 20
8.3700376238
 30
0.0
 10
11.3372925002
 20
8.3702675605
 30
0.0
 10
11.3375476477
 20
8.3705494632
 30
0.0
 10
11.3378572475
 20
8.370910309
 30
0.0
 10
11.3382327628
 20
8.3713396996
 30
0.0
 10
11.3387320543
 20
8.3719134864
 30
0.0
 10
11.3393566465
 20
8.3726302864
 30
0.0
 10
11.340355727
 20
8.3737774086
 30
0.0
 10
11.3416046692
 20
8.3752112283
 30
0.0
 10
11.3431033606
 20
8.3769318475
 30
0.0
 10
11.3446020625
 20
8.3786524572
 30
0.0
 10
11.3466003281
 20
8.3809466068
 30
0.0
 10
11.3490981614
 20
8.3838142925
 30
0.0
 10
11.3515959937
 20
8.3866819791
 30
0.0
 10
11.3535942608
 20
8.3889761274
 30
0.0
 10
11.3550929581
 20
8.3906967408
 30
0.0
 10
11.3565916666
 20
8.392417346
 30
0.0
 10
11.3578405556
 20
8.3938512094
 30
0.0
 10
11.3588397446
 20
8.3949982426
 30
0.0
 10
11.3594640607
 20
8.3957152691
 30
0.0
 10
11.359963919
 20
8.3962885908
 30
0.0
 10
11.3603377025
 20
8.3967194023
 30
0.0
 10
11.3606527208
 20
8.3970758025
 30
0.0
 10
11.3608968137
 20
8.3973667751
 30
0.0
 10
11.3611015292
 20
8.3975690128
 30
0.0
 10
11.3612236221
 20
8.3978322914
 30
0.0
 10
11.3614152737
 20
8.3981620072
 30
0.0
 10
11.3616449361
 20
8.3985814676
 30
0.0
 10
11.3619247695
 20
8.3990816887
 30
0.0
 10
11.3622964002
 20
8.3997497439
 30
0.0
 10
11.3627614455
 20
8.4005844384
 30
0.0
 10
11.3635052346
 20
8.401920159
 30
0.0
 10
11.3644350683
 20
8.4035897378
 30
0.0
 10
11.365550827
 20
8.4055932632
 30
0.0
 10
11.3666665968
 20
8.4075967803
 30
0.0
 10
11.3681542861
 20
8.4102681394
 30
0.0
 10
11.3700138991
 20
8.4136073372
 30
0.0
 10
11.3718735111
 20
8.4169465357
 30
0.0
 10
11.373361202
 20
8.4196178938
 30
0.0
 10
11.3744769669
 20
8.4216214139
 30
0.0
 10
11.3755927442
 20
8.4236249281
 30
0.0
 10
11.3765225201
 20
8.4252945419
 30
0.0
 10
11.3772664271
 20
8.426630191
 30
0.0
 10
11.3777311723
 20
8.4274650673
 30
0.0
 10
11.378103419
 20
8.4281327495
 30
0.0
 10
11.3783813705
 20
8.4286341101
 30
0.0
 10
11.3786169208
 20
8.4290500051
 30
0.0
 10
11.3787965601
 20
8.4293869949
 30
0.0
 10
11.3789553378
 20
8.4296280592
 30
0.0
 10
11.379022323
 20
8.4299136989
 30
0.0
 10
11.379143701
 20
8.430278981
 30
0.0
 10
11.3792844223
 20
8.4307409259
 30
0.0
 10
11.3794579967
 20
8.4312929731
 30
0.0
 10
11.3796877846
 20
8.4320298348
 30
0.0
 10
11.3799755825
 20
8.4329506383
 30
0.0
 10
11.3804357446
 20
8.4344240769
 30
0.0
 10
11.3810110551
 20
8.4362658227
 30
0.0
 10
11.3817013814
 20
8.4384759401
 30
0.0
 10
11.3823917201
 20
8.4406860515
 30
0.0
 10
11.3833121674
 20
8.4436328688
 30
0.0
 10
11.3844627281
 20
8.4473163897
 30
0.0
 10
11.3856132877
 20
8.450999911
 30
0.0
 10
11.3865337367
 20
8.4539467276
 30
0.0
 10
11.38722407
 20
8.4561568412
 30
0.0
 10
11.3879144165
 20
8.4583669501
 30
0.0
 10
11.3884896643
 20
8.4602087224
 30
0.0
 10
11.3889499543
 20
8.4616821069
 30
0.0
 10
11.3892374266
 20
8.4626030483
 30
0.0
 10
11.3894678828
 20
8.463339627
 30
0.0
 10
11.3896394154
 20
8.4638925385
 30
0.0
 10
11.3897865251
 20
8.4643517794
 30
0.0
 10
11.3898948695
 20
8.4647225781
 30
0.0
 10
11.3900016583
 20
8.4649913707
 30
0.0
 10
11.390010997
 20
8.4652956858
 30
0.0
 10
11.3900574892
 20
8.4656890309
 30
0.0
 10
11.3901039253
 20
8.4661849695
 30
0.0
 10
11.3901646477
 20
8.4667782736
 30
0.0
 10
11.3902438647
 20
8.4675699823
 30
0.0
 10
11.3903434839
 20
8.4685594001
 30
0.0
 10
11.3905025405
 20
8.4701425905
 30
0.0
 10
11.3907014759
 20
8.4721215366
 30
0.0
 10
11.3909401492
 20
8.4744962899
 30
0.0
 10
11.3911788357
 20
8.4768710384
 30
0.0
 10
11.3914970797
 20
8.4800373714
 30
0.0
 10
11.3918948864
 20
8.483995287
 30
0.0
 10
11.392292692
 20
8.4879532029
 30
0.0
 10
11.3926109379
 20
8.4911195356
 30
0.0
 10
11.3928496187
 20
8.493494285
 30
0.0
 10
11.3930883132
 20
8.4958690347
 30
0.0
 10
11.3932871827
 20
8.497847992
 30
0.0
 10
11.3934463736
 20
8.4994311596
 30
0.0
 10
11.393545651
 20
8.5004206353
 30
0.0
 10
11.3936255697
 20
8.5012122252
 30
0.0
 10
11.3936841486
 20
8.5018058919
 30
0.0
 10
11.3937372911
 20
8.5023006961
 30
0.0
 10
11.393770101
 20
8.5026963557
 30
0.0
 10
11.3938212246
 20
8.5029936024
 30
0.0
 10
11.3937711353
 20
8.503288933
 30
0.0
 10
11.3937397046
 20
8.5036833765
 30
0.0
 10
11.3936882861
 20
8.5041762012
 30
0.0
 10
11.3936317759
 20
8.5047676892
 30
0.0
 10
11.3935546156
 20
8.5055563054
 30
0.0
 10
11.3934587861
 20
8.5065420875
 30
0.0
 10
11.3933051118
 20
8.5081193323
 30
0.0
 10
11.3931131381
 20
8.5100908905
 30
0.0
 10
11.3928827185
 20
8.5124567594
 30
0.0
 10
11.3926523126
 20
8.5148226285
 30
0.0
 10
11.3923451001
 20
8.5179771206
 30
0.0
 10
11.3919610855
 20
8.5219202357
 30
0.0
 10
11.3915770725
 20
8.5258633511
 30
0.0
 10
11.3912698574
 20
8.5290178428
 30
0.0
 10
11.391039459
 20
8.5313837132
 30
0.0
 10
11.3908090117
 20
8.5337495773
 30
0.0
 10
11.3906171242
 20
8.5357211503
 30
0.0
 10
11.3904632741
 20
8.5372983649
 30
0.0
 10
11.3903488156
 20
8.5384813954
 30
0.0
 10
11.3902504783
 20
8.539466874
 30
0.0
 10
11.3901874418
 20
8.5401574551
 30
0.0
 10
11.3901423652
 20
8.5405509079
 30
0.0
 10
11.390134068
 20
8.5408492794
 30
0.0
 10
11.3900282579
 20
8.5411351055
 30
0.0
 10
11.3899211913
 20
8.5415205829
 30
0.0
 10
11.3897179773
 20
8.5421931294
 30
0.0
 10
11.3894359569
 20
8.5431549762
 30
0.0
 10
11.3890939859
 20
8.5443087361
 30
0.0
 10
11.3886392635
 20
8.545847242
 30
0.0
 10
11.3880704353
 20
8.5477703196
 30
0.0
 10
11.3873880238
 20
8.5500780362
 30
0.0
 10
11.3867055635
 20
8.5523857466
 30
0.0
 10
11.3857956335
 20
8.5554626959
 30
0.0
 10
11.3846582146
 20
8.5593088817
 30
0.0
 10
11.3835207999
 20
8.5631550684
 30
0.0
 10
11.3826108633
 20
8.5662320162
 30
0.0
 10
11.381928423
 20
8.5685397312
 30
0.0
 10
11.3812459366
 20
8.5708474304
 30
0.0
 10
11.3806773411
 20
8.5727705622
 30
0.0
 10
11.3802221442
 20
8.5743089577
 30
0.0
 10
11.3798816222
 20
8.5754630546
 30
0.0
 10
11.3795950685
 20
8.5764238471
 30
0.0
 10
11.3793999471
 20
8.5770982757
 30
0.0
 10
11.3792799142
 20
8.5774807375
 30
0.0
 10
11.3792139327
 20
8.5777758264
 30
0.0
 10
11.3790560458
 20
8.5780394083
 30
0.0
 10
11.3788775876
 20
8.5784018408
 30
0.0
 10
11.3785503494
 20
8.5790309772
 30
0.0
 10
11.3780906752
 20
8.5799324205
 30
0.0
 10
11.3775357236
 20
8.5810130066
 30
0.0
 10
11.3767969558
 20
8.5824541883
 30
0.0
 10
11.3758730954
 20
8.5842555282
 30
0.0
 10
11.3747646346
 20
8.5864171948
 30
0.0
 10
11.3736561279
 20
8.5885788457
 30
0.0
 10
11.3721781351
 20
8.5914610525
 30
0.0
 10
11.3703306381
 20
8.5950638088
 30
0.0
 10
11.368483145
 20
8.5986665668
 30
0.0
 10
11.3670051458
 20
8.6015487709
 30
0.0
 10
11.3658966582
 20
8.6037104296
 30
0.0
 10
11.3647881259
 20
8.6058720671
 30
0.0
 10
11.363864488
 20
8.6076734977
 30
0.0
 10
11.3631252665
 20
8.6091144944
 30
0.0
 10
11.3625717005
 20
8.6101956456
 30
0.0
 10
11.3621076913
 20
8.6110953209
 30
0.0
 10
11.3617881918
 20
8.6117276135
 30
0.0
 10
11.3615973343
 20
8.6120849889
 30
0.0
 10
11.3614775339
 20
8.6123641046
 30
0.0
 10
11.3612685057
 20
8.6126008508
 30
0.0
 10
11.3610209252
 20
8.6129312913
 30
0.0
 10
11.3605731581
 20
8.6135026765
 30
0.0
 10
11.3599410723
 20
8.6143225409
 30
0.0
 10
11.3591793241
 20
8.6153048373
 30
0.0
 10
11.3581647935
 20
8.6166151042
 30
0.0
 10
11.3568962412
 20
8.618252753
 30
0.0
 10
11.3553741453
 20
8.6202180108
 30
0.0
 10
11.3538520047
 20
8.6221832474
 30
0.0
 10
11.3518224996
 20
8.6248035704
 30
0.0
 10
11.3492856124
 20
8.6280789711
 30
0.0
 10
11.3467487286
 20
8.6313543743
 30
0.0
 10
11.3447192181
 20
8.6339746932
 30
0.0
 10
11.3431970938
 20
8.635939942
 30
0.0
 10
11.3416749368
 20
8.6379051541
 30
0.0
 10
11.3404065743
 20
8.639542945
 30
0.0
 10
11.3393916568
 20
8.640852922
 30
0.0
 10
11.3386310902
 20
8.6418361036
 30
0.0
 10
11.3379953076
 20
8.6426531987
 30
0.0
 10
11.3375541398
 20
8.6432295276
 30
0.0
 10
11.3372959856
 20
8.643552047
 30
0.0
 10
11.3371194363
 20
8.6438131244
 30
0.0
 10
11.3368776508
 20
8.6440008562
 30
0.0
 10
11.3365780253
 20
8.6442767491
 30
0.0
 10
11.3360430787
 20
8.6447476416
 30
0.0
 10
11.3352844121
 20
8.6454265772
 30
0.0
 10
11.3343716397
 20
8.6462386323
 30
0.0
 10
11.3331554385
 20
8.6473223044
 30
0.0
 10
11.3316349026
 20
8.6486765746
 30
0.0
 10
11.3298103815
 20
8.6503018361
 30
0.0
 10
11.3279858278
 20
8.6519270608
 30
0.0
 10
11.3255531009
 20
8.65409404
 30
0.0
 10
11.322512188
 20
8.6568027591
 30
0.0
 10
11.3194712778
 20
8.6595114816
 30
0.0
 10
11.3170385467
 20
8.6616784554
 30
0.0
 10
11.3152140057
 20
8.6633036961
 30
0.0
 10
11.313389437
 20
8.6649288975
 30
0.0
 10
11.3118690492
 20
8.6662833546
 30
0.0
 10
11.3106525461
 20
8.6673666456
 30
0.0
 10
11.3097406956
 20
8.6681798644
 30
0.0
 10
11.3089791443
 20
8.6688551594
 30
0.0
 10
11.3084493474
 20
8.6693325509
 30
0.0
 10
11.3081414708
 20
8.6695980309
 30
0.0
 10
11.3079250301
 20
8.6698177477
 30
0.0
 10
11.3076532902
 20
8.6699586947
 30
0.0
 10
11.3073102594
 20
8.6701740998
 30
0.0
 10
11.3067009684
 20
8.6705382573
 30
0.0
 10
11.3058352511
 20
8.6710651751
 30
0.0
 10
11.3047943793
 20
8.6716946117
 30
0.0
 10
11.3034072527
 20
8.6725348612
 30
0.0
 10
11.3016731035
 20
8.6735848296
 30
0.0
 10
11.2995922277
 20
8.674844939
 30
0.0
 10
11.2975113242
 20
8.676105009
 30
0.0
 10
11.294736796
 20
8.6777851161
 30
0.0
 10
11.2912686321
 20
8.6798852447
 30
0.0
 10
11.2878004704
 20
8.6819853771
 30
0.0
 10
11.2850259388
 20
8.6836654783
 30
0.0
 10
11.2829450452
 20
8.6849255659
 30
0.0
 10
11.2808641325
 20
8.686185609
 30
0.0
 10
11.2791300981
 20
8.6872357837
 30
0.0
 10
11.2777427373
 20
8.6880756126
 30
0.0
 10
11.2767025807
 20
8.6887063335
 30
0.0
 10
11.2758346258
 20
8.6892292332
 30
0.0
 10
11.2752293294
 20
8.6896005636
 30
0.0
 10
11.2748798981
 20
8.6898044759
 30
0.0
 10
11.2746278184
 20
8.6899807254
 30
0.0
 10
11.2743375375
 20
8.6900678516
 30
0.0
 10
11.2739638212
 20
8.6902151072
 30
0.0
 10
11.2733036094
 20
8.6904583202
 30
0.0
 10
11.2723636955
 20
8.6908133398
 30
0.0
 10
11.2712344094
 20
8.6912361221
 30
0.0
 10
11.26972918
 20
8.6918009641
 30
0.0
 10
11.2678474767
 20
8.692506628
 30
0.0
 10
11.2655895042
 20
8.6933535913
 30
0.0
 10
11.2633315125
 20
8.6942005099
 30
0.0
 10
11.2603208637
 20
8.6953297505
 30
0.0
 10
11.2565575502
 20
8.6967412953
 30
0.0
 10
11.2527942381
 20
8.6981528442
 30
0.0
 10
11.2497835869
 20
8.6992820782
 30
0.0
 10
11.2475256023
 20
8.7001290164
 30
0.0
 10
11.2452676033
 20
8.7009759068
 30
0.0
 10
11.2433859823
 20
8.7016817974
 30
0.0
 10
11.2418805852
 20
8.702246177
 30
0.0
 10
11.2407518113
 20
8.7026703711
 30
0.0
 10
11.2398102949
 20
8.7030209738
 30
0.0
 10
11.2391529438
 20
8.7032720718
 30
0.0
 10
11.2387746439
 20
8.7034066936
 30
0.0
 10
11.2384984424
 20
8.7035326265
 30
0.0
 10
11.2381934826
 20
8.7035631248
 30
0.0
 10
11.2377969006
 20
8.7036370778
 30
0.0
 10
11.2370982085
 20
8.7037509858
 30
0.0
 10
11.2361025204
 20
8.7039218203
 30
0.0
 10
11.2349066487
 20
8.7041233509
 30
0.0
 10
11.2333125185
 20
8.7043932707
 30
0.0
 10
11.2313197304
 20
8.7047302544
 30
0.0
 10
11.2289284385
 20
8.7051348132
 30
0.0
 10
11.2265371321
 20
8.7055393244
 30
0.0
 10
11.2233487287
 20
8.7060786892
 30
0.0
 10
11.2193632226
 20
8.7067528895
 30
0.0
 10
11.2145806161
 20
8.7075619323
 30
0.0
 10
11.2082038072
 20
8.7086406552
 30
0.0
 10
11.2034212006
 20
8.7094496975
 30
0.0
 10
11.2002327961
 20
8.7099890591
 30
0.0
  0
SPLINE
  5
3C0
100
AcDbEntity
  8
0
100
AcDbSpline
 62
4
  6
CONTINUOUS
 70
0
 71
3
 72
359
 73
355
 74
0
 42
0.0000001
 43
0.0000001
 44
0.0000000001
 40
0.0
 40
0.0
 40
0.0
 40
0.0
 40
0.015625
 40
0.0234375
 40
0.03125
 40
0.0390625
 40
0.04296875
 40
0.046875
 40
0.05078125
 40
0.0546875
 40
0.056640625
 40
0.05859375
 40
0.0595703125
 40
0.060546875
 40
0.0615234375
 40
0.0620117188
 40
0.0625
 40
0.0629882812
 40
0.0634765625
 40
0.064453125
 40
0.0654296875
 40
0.06640625
 40
0.068359375
 40
0.0703125
 40
0.07421875
 40
0.078125
 40
0.08203125
 40
0.0859375
 40
0.09375
 40
0.1015625
 40
0.10546875
 40
0.109375
 40
0.11328125
 40
0.1171875
 40
0.119140625
 40
0.12109375
 40
0.1220703125
 40
0.123046875
 40
0.1240234375
 40
0.1245117188
 40
0.125
 40
0.1254882812
 40
0.1259765625
 40
0.126953125
 40
0.1279296875
 40
0.12890625
 40
0.130859375
 40
0.1328125
 40
0.13671875
 40
0.140625
 40
0.14453125
 40
0.1484375
 40
0.15625
 40
0.1640625
 40
0.16796875
 40
0.171875
 40
0.17578125
 40
0.1796875
 40
0.181640625
 40
0.18359375
 40
0.1845703125
 40
0.185546875
 40
0.1865234375
 40
0.1870117188
 40
0.1875
 40
0.1879882812
 40
0.1884765625
 40
0.189453125
 40
0.1904296875
 40
0.19140625
 40
0.193359375
 40
0.1953125
 40
0.19921875
 40
0.203125
 40
0.20703125
 40
0.2109375
 40
0.21875
 40
0.2265625
 40
0.23046875
 40
0.234375
 40
0.23828125
 40
0.2421875
 40
0.244140625
 40
0.24609375
 40
0.2470703125
 40
0.248046875
 40
0.2490234375
 40
0.2495117188
 40
0.25
 40
0.2504882812
 40
0.2509765625
 40
0.251953125
 40
0.2529296875
 40
0.25390625
 40
0.255859375
 40
0.2578125
 40
0.26171875
 40
0.265625
 40
0.26953125
 40
0.2734375
 40
0.28125
 40
0.2890625
 40
0.29296875
 40
0.296875
 40
0.30078125
 40
0.3046875
 40
0.306640625
 40
0.30859375
 40
0.3095703125
 40
0.310546875
 40
0.3115234375
 40
0.3120117188
 40
0.3125
 40
0.3129882812
 40
0.3134765625
 40
0.314453125
 40
0.3154296875
 40
0.31640625
 40
0.318359375
 40
0.3203125
 40
0.32421875
 40
0.328125
 40
0.33203125
 40
0.3359375
 40
0.34375
 40
0.3515625
 40
0.35546875
 40
0.359375
 40
0.36328125
 40
0.3671875
 40
0.369140625
 40
0.37109375
 40
0.3720703125
 40
0.373046875
 40
0.3740234375
 40
0.3745117188
 40
0.375
 40
0.3754882812
 40
0.3759765625
 40
0.376953125
 40
0.3779296875
 40
0.37890625
 40
0.380859375
 40
0.3828125
 40
0.38671875
 40
0.390625
 40
0.39453125
 40
0.3984375
 40
0.40625
 40
0.4140625
 40
0.41796875
 40
0.421875
 40
0.42578125
 40
0.4296875
 40
0.431640625
 40
0.43359375
 40
0.4345703125
 40
0.435546875
 40
0.4365234375
 40
0.4370117188
 40
0.4375
 40
0.4379882812
 40
0.4384765625
 40
0.439453125
 40
0.4404296875
 40
0.44140625
 40
0.443359375
 40
0.4453125
 40
0.44921875
 40
0.453125
 40
0.45703125
 40
0.4609375
 40
0.46875
 40
0.4765625
 40
0.48046875
 40
0.484375
 40
0.48828125
 40
0.4921875
 40
0.494140625
 40
0.49609375
 40
0.4970703125
 40
0.498046875
 40
0.4990234375
 40
0.4995117188
 40
0.5
 40
0.5004882812
 40
0.5009765625
 40
0.501953125
 40
0.5029296875
 40
0.50390625
 40
0.505859375
 40
0.5078125
 40
0.51171875
 40
0.515625
 40
0.51953125
 40
0.5234375
 40
0.53125
 40
0.5390625
 40
0.54296875
 40
0.546875
 40
0.55078125
 40
0.5546875
 40
0.556640625
 40
0.55859375
 40
0.560546875
 40
0.5615234375
 40
0.5620117188
 40
0.5625
 40
0.5629882812
 40
0.5634765625
 40
0.564453125
 40
0.56640625
 40
0.568359375
 40
0.5703125
 40
0.57421875
 40
0.578125
 40
0.58203125
 40
0.5859375
 40
0.59375
 40
0.6015625
 40
0.60546875
 40
0.609375
 40
0.61328125
 40
0.6171875
 40
0.619140625
 40
0.62109375
 40
0.623046875
 40
0.6240234375
 40
0.6245117188
 40
0.625
 40
0.6254882812
 40
0.6259765625
 40
0.626953125
 40
0.62890625
 40
0.630859375
 40
0.6328125
 40
0.63671875
 40
0.640625
 40
0.64453125
 40
0.6484375
 40
0.65625
 40
0.6640625
 40
0.66796875
 40
0.671875
 40
0.67578125
 40
0.6796875
 40
0.681640625
 40
0.68359375
 40
0.685546875
 40
0.6865234375
 40
0.6870117188
 40
0.6875
 40
0.6879882812
 40
0.6884765625
 40
0.689453125
 40
0.69140625
 40
0.693359375
 40
0.6953125
 40
0.69921875
 40
0.703125
 40
0.70703125
 40
0.7109375
 40
0.71875
 40
0.7265625
 40
0.73046875
 40
0.734375
 40
0.73828125
 40
0.7421875
 40
0.744140625
 40
0.74609375
 40
0.748046875
 40
0.7490234375
 40
0.7495117188
 40
0.75
 40
0.7504882812
 40
0.7509765625
 40
0.751953125
 40
0.75390625
 40
0.755859375
 40
0.7578125
 40
0.76171875
 40
0.765625
 40
0.76953125
 40
0.7734375
 40
0.78125
 40
0.7890625
 40
0.79296875
 40
0.796875
 40
0.80078125
 40
0.8046875
 40
0.806640625
 40
0.80859375
 40
0.810546875
 40
0.8115234375
 40
0.8120117188
 40
0.8125
 40
0.8129882812
 40
0.8134765625
 40
0.814453125
 40
0.81640625
 40
0.818359375
 40
0.8203125
 40
0.82421875
 40
0.828125
 40
0.83203125
 40
0.8359375
 40
0.84375
 40
0.8515625
 40
0.85546875
 40
0.859375
 40
0.86328125
 40
0.8671875
 40
0.869140625
 40
0.87109375
 40
0.873046875
 40
0.8740234375
 40
0.8745117188
 40
0.875
 40
0.8754882812
 40
0.8759765625
 40
0.876953125
 40
0.87890625
 40
0.880859375
 40
0.8828125
 40
0.88671875
 40
0.890625
 40
0.89453125
 40
0.8984375
 40
0.90625
 40
0.9140625
 40
0.91796875
 40
0.921875
 40
0.92578125
 40
0.9296875
 40
0.931640625
 40
0.93359375
 40
0.935546875
 40
0.9365234375
 40
0.9370117188
 40
0.9375
 40
0.9379882812
 40
0.9384765625
 40
0.939453125
 40
0.94140625
 40
0.943359375
 40
0.9453125
 40
0.94921875
 40
0.953125
 40
0.95703125
 40
0.9609375
 40
0.96875
 40
0.9765625
 40
0.984375
 40
1.0
 40
1.0
 40
1.0
 40
1.0
 10
11.2002328131
 20
8.7099890579
 30
0.0
 10
11.1970996261
 20
8.7098991335
 30
0.0
 10
11.1923998458
 20
8.7097642469
 30
0.0
 10
11.1861334719
 20
8.709584398
 30
0.0
 10
11.1814336915
 20
8.7094495115
 30
0.0
 10
11.177517208
 20
8.7093371056
 30
0.0
 10
11.1743840209
 20
8.7092471821
 30
0.0
 10
11.1720341312
 20
8.7091797359
 30
0.0
 10
11.169684239
 20
8.7091123032
 30
0.0
 10
11.1677260036
 20
8.7090560676
 30
0.0
 10
11.1661593971
 20
8.7090111723
 30
0.0
 10
11.1651803094
 20
8.7089829008
 30
0.0
 10
11.1643969444
 20
8.7089607689
 30
0.0
 10
11.1638096803
 20
8.7089428412
 30
0.0
 10
11.1633194679
 20
8.7089321283
 30
0.0
 10
11.1629291496
 20
8.7089140781
 30
0.0
 10
11.1626313513
 20
8.7089264438
 30
0.0
 10
11.1623528653
 20
8.7088399362
 30
0.0
 10
11.1619748047
 20
8.7087591305
 30
0.0
 10
11.1615045434
 20
8.7086462736
 30
0.0
 10
11.1609392391
 20
8.7085159174
 30
0.0
 10
11.1601858461
 20
8.7083403376
 30
0.0
 10
11.1592439864
 20
8.7081214694
 30
0.0
 10
11.157737077
 20
8.7077709413
 30
0.0
 10
11.1558534176
 20
8.7073328975
 30
0.0
 10
11.1535930361
 20
8.7068071951
 30
0.0
 10
11.1513326519
 20
8.706281506
 30
0.0
 10
11.1483188073
 20
8.7055805825
 30
0.0
 10
11.1445515012
 20
8.7047044299
 30
0.0
 10
11.1407841954
 20
8.7038282761
 30
0.0
 10
11.1377703502
 20
8.7031273545
 30
0.0
 10
11.1355099677
 20
8.7026016599
 30
0.0
 10
11.13324958
 20
8.702075978
 30
0.0
 10
11.1313659396
 20
8.7016378701
 30
0.0
 10
11.1298589916
 20
8.7012874728
 30
0.0
 10
11.1289172303
 20
8.7010682718
 30
0.0
 10
11.1281636353
 20
8.7008933751
 30
0.0
 10
11.1275989482
 20
8.7007609319
 30
0.0
 10
11.1271267559
 20
8.7006546047
 30
0.0
 10
11.1267526348
 20
8.7005604773
 30
0.0
 10
11.1264621176
 20
8.7005146532
 30
0.0
 10
11.1262094893
 20
8.7003742762
 30
0.0
 10
11.1258594166
 20
8.7002201354
 30
0.0
 10
11.1254263665
 20
8.7000161274
 30
0.0
 10
11.1249047628
 20
8.6997761683
 30
0.0
 10
11.12420997
 20
8.6994545287
 30
0.0
 10
11.1233412466
 20
8.6990530593
 30
0.0
 10
11.1219514191
 20
8.698410384
 30
0.0
 10
11.1202140901
 20
8.6976071511
 30
0.0
 10
11.1181293145
 20
8.696643224
 30
0.0
 10
11.1160445337
 20
8.6956793096
 30
0.0
 10
11.1132648278
 20
8.6943940859
 30
0.0
 10
11.1097901947
 20
8.692787558
 30
0.0
 10
11.1063155621
 20
8.691181029
 30
0.0
 10
11.1035358554
 20
8.6898958072
 30
0.0
 10
11.1014510771
 20
8.6889318875
 30
0.0
 10
11.0993662922
 20
8.6879679803
 30
0.0
 10
11.0976289919
 20
8.6871646853
 30
0.0
 10
11.0962391059
 20
8.6865221366
 30
0.0
 10
11.0953705312
 20
8.6861203451
 30
0.0
 10
11.0946754331
 20
8.6857993665
 30
0.0
 10
11.0941547622
 20
8.685557388
 30
0.0
 10
11.0937187936
 20
8.6853596984
 30
0.0
 10
11.0933746753
 20
8.6851926669
 30
0.0
 10
11.0931038625
 20
8.6850916572
 30
0.0
 10
11.0928816177
 20
8.6848980321
 30
0.0
 10
11.0925683259
 20
8.684672217
 30
0.0
 10
11.0921825319
 20
8.6843788485
 30
0.0
 10
11.0917170877
 20
8.6840315573
 30
0.0
 10
11.0910973656
 20
8.6835668429
 30
0.0
 10
11.090322415
 20
8.6829865182
 30
0.0
 10
11.0890826605
 20
8.6820576809
 30
0.0
 10
11.0875329103
 20
8.6808967434
 30
0.0
 10
11.0856732346
 20
8.6795035717
 30
0.0
 10
11.0838135523
 20
8.6781104124
 30
0.0
 10
11.0813339782
 20
8.6762528624
 30
0.0
 10
11.0782345097
 20
8.6739309264
 30
0.0
 10
11.0751350419
 20
8.6716089895
 30
0.0
 10
11.0726554667
 20
8.669751441
 30
0.0
 10
11.070795788
 20
8.6683582771
 30
0.0
 10
11.0689360987
 20
8.6669651228
 30
0.0
 10
11.0673863905
 20
8.6658041311
 30
0.0
 10
11.0661465505
 20
8.6648754043
 30
0.0
 10
11.0653718175
 20
8.6642947986
 30
0.0
 10
11.0647516488
 20
8.6638306608
 30
0.0
 10
11.0642875689
 20
8.6634816081
 30
0.0
 10
11.0638975061
 20
8.6631937511
 30
0.0
 10
11.0635929235
 20
8.6629566915
 30
0.0
 10
11.0633440815
 20
8.6627974065
 30
0.0
 10
11.0631731259
 20
8.6625674698
 30
0.0
 10
11.0629179785
 20
8.6622855671
 30
0.0
 10
11.0626083786
 20
8.6619247213
 30
0.0
 10
11.0622328633
 20
8.6614953307
 30
0.0
 10
11.0617335718
 20
8.6609215439
 30
0.0
 10
11.0611089796
 20
8.6602047439
 30
0.0
 10
11.0601098991
 20
8.6590576217
 30
0.0
 10
11.0588609569
 20
8.657623802
 30
0.0
 10
11.0573622655
 20
8.6559031828
 30
0.0
 10
11.0558635636
 20
8.6541825731
 30
0.0
 10
11.0538652981
 20
8.6518884235
 30
0.0
 10
11.0513674648
 20
8.6490207378
 30
0.0
 10
11.0488696324
 20
8.6461530512
 30
0.0
 10
11.0468713654
 20
8.6438589029
 30
0.0
 10
11.045372668
 20
8.6421382894
 30
0.0
 10
11.0438739595
 20
8.6404176843
 30
0.0
 10
11.0426250705
 20
8.6389838209
 30
0.0
 10
11.0416258815
 20
8.6378367877
 30
0.0
 10
11.0410015654
 20
8.6371197612
 30
0.0
 10
11.0405017071
 20
8.6365464395
 30
0.0
 10
11.0401279236
 20
8.636115628
 30
0.0
 10
11.0398129054
 20
8.6357592278
 30
0.0
 10
11.0395688125
 20
8.6354682552
 30
0.0
 10
11.0393640969
 20
8.6352660175
 30
0.0
 10
11.0392420041
 20
8.6350027389
 30
0.0
 10
11.0390503524
 20
8.6346730231
 30
0.0
 10
11.03882069
 20
8.6342535627
 30
0.0
 10
11.0385408567
 20
8.6337533416
 30
0.0
 10
11.038169226
 20
8.6330852864
 30
0.0
 10
11.0377041807
 20
8.6322505919
 30
0.0
 10
11.0369603915
 20
8.6309148713
 30
0.0
 10
11.0360305579
 20
8.6292452925
 30
0.0
 10
11.0349147991
 20
8.6272417671
 30
0.0
 10
11.0337990293
 20
8.62523825
 30
0.0
 10
11.03231134
 20
8.6225668909
 30
0.0
 10
11.030451727
 20
8.6192276931
 30
0.0
 10
11.028592115
 20
8.6158884946
 30
0.0
 10
11.0271044241
 20
8.6132171365
 30
0.0
 10
11.0259886592
 20
8.6112136164
 30
0.0
 10
11.0248728819
 20
8.6092101022
 30
0.0
 10
11.0239431061
 20
8.6075404884
 30
0.0
 10
11.023199199
 20
8.6062048393
 30
0.0
 10
11.0227344538
 20
8.605369963
 30
0.0
 10
11.0223622071
 20
8.6047022808
 30
0.0
 10
11.0220842556
 20
8.6042009202
 30
0.0
 10
11.0218487054
 20
8.6037850252
 30
0.0
 10
11.0216690661
 20
8.6034480354
 30
0.0
 10
11.0215102883
 20
8.6032069711
 30
0.0
 10
11.0214433031
 20
8.6029213314
 30
0.0
 10
11.0213219252
 20
8.6025560493
 30
0.0
 10
11.0211812038
 20
8.6020941044
 30
0.0
 10
11.0210076294
 20
8.6015420572
 30
0.0
 10
11.0207778416
 20
8.6008051955
 30
0.0
 10
11.0204900436
 20
8.5998843919
 30
0.0
 10
11.0200298816
 20
8.5984109534
 30
0.0
 10
11.0194545711
 20
8.5965692076
 30
0.0
 10
11.0187642447
 20
8.5943590902
 30
0.0
 10
11.018073906
 20
8.5921489788
 30
0.0
 10
11.0171534588
 20
8.5892021615
 30
0.0
 10
11.0160028981
 20
8.5855186406
 30
0.0
 10
11.0148523385
 20
8.5818351193
 30
0.0
 10
11.0139318894
 20
8.5788883027
 30
0.0
 10
11.0132415561
 20
8.5766781891
 30
0.0
 10
11.0125512096
 20
8.5744680802
 30
0.0
 10
11.0119759618
 20
8.5726263079
 30
0.0
 10
11.0115156719
 20
8.5711529234
 30
0.0
 10
11.0112281995
 20
8.570231982
 30
0.0
 10
11.0109977433
 20
8.5694954033
 30
0.0
 10
11.0108262107
 20
8.5689424918
 30
0.0
 10
11.010679101
 20
8.5684832508
 30
0.0
 10
11.0105707566
 20
8.5681124522
 30
0.0
 10
11.0104639678
 20
8.5678436596
 30
0.0
 10
11.0104546291
 20
8.5675393445
 30
0.0
 10
11.0104081369
 20
8.5671459994
 30
0.0
 10
11.0103617008
 20
8.5666500607
 30
0.0
 10
11.0103009785
 20
8.5660567566
 30
0.0
 10
11.0102217614
 20
8.565265048
 30
0.0
 10
11.0101221422
 20
8.5642756302
 30
0.0
 10
11.0099630856
 20
8.5626924398
 30
0.0
 10
11.0097641502
 20
8.5607134937
 30
0.0
 10
11.0095254769
 20
8.5583387404
 30
0.0
 10
11.0092867904
 20
8.5559639919
 30
0.0
 10
11.0089685464
 20
8.5527976589
 30
0.0
 10
11.0085707397
 20
8.5488397433
 30
0.0
 10
11.0081729341
 20
8.5448818274
 30
0.0
 10
11.0078546882
 20
8.5417154947
 30
0.0
 10
11.0076160074
 20
8.5393407453
 30
0.0
 10
11.0073773129
 20
8.5369659956
 30
0.0
 10
11.0071784434
 20
8.5349870383
 30
0.0
 10
11.0070192525
 20
8.5334038707
 30
0.0
 10
11.0069199751
 20
8.532414395
 30
0.0
 10
11.0068400564
 20
8.5316228051
 30
0.0
 10
11.0067814775
 20
8.5310291384
 30
0.0
 10
11.0067283351
 20
8.5305343342
 30
0.0
 10
11.0066955252
 20
8.5301386746
 30
0.0
 10
11.0066444015
 20
8.5298414279
 30
0.0
 10
11.0066944908
 20
8.5295460973
 30
0.0
 10
11.0067259215
 20
8.5291516538
 30
0.0
 10
11.0067773401
 20
8.5286588291
 30
0.0
 10
11.0068338502
 20
8.5280673411
 30
0.0
 10
11.0069110106
 20
8.5272787249
 30
0.0
 10
11.0070068401
 20
8.5262929428
 30
0.0
 10
11.0071605143
 20
8.524715698
 30
0.0
 10
11.0073524881
 20
8.5227441398
 30
0.0
 10
11.0075829076
 20
8.5203782709
 30
0.0
 10
11.0078133135
 20
8.5180124018
 30
0.0
 10
11.008120526
 20
8.5148579097
 30
0.0
 10
11.0085045406
 20
8.5109147946
 30
0.0
 10
11.0088885537
 20
8.5069716792
 30
0.0
 10
11.0091957687
 20
8.5038171875
 30
0.0
 10
11.0094261672
 20
8.5014513171
 30
0.0
 10
11.0096566144
 20
8.499085453
 30
0.0
 10
11.0098485019
 20
8.49711388
 30
0.0
 10
11.010002352
 20
8.4955366654
 30
0.0
 10
11.0101168105
 20
8.4943536348
 30
0.0
 10
11.0102151479
 20
8.4933681563
 30
0.0
 10
11.0102781843
 20
8.4926775752
 30
0.0
 10
11.0103232609
 20
8.4922841224
 30
0.0
 10
11.0103315582
 20
8.4919857509
 30
0.0
 10
11.0104373682
 20
8.4916999248
 30
0.0
 10
11.0105444348
 20
8.4913144474
 30
0.0
 10
11.0107476488
 20
8.4906419009
 30
0.0
 10
11.0110296693
 20
8.4896800541
 30
0.0
 10
11.0113716402
 20
8.4885262942
 30
0.0
 10
11.0118263627
 20
8.4869877883
 30
0.0
 10
11.0123951908
 20
8.4850647107
 30
0.0
 10
11.0130776023
 20
8.4827569941
 30
0.0
 10
11.0137600627
 20
8.4804492837
 30
0.0
 10
11.0146699926
 20
8.4773723344
 30
0.0
 10
11.0158074115
 20
8.4735261486
 30
0.0
 10
11.0169448262
 20
8.4696799619
 30
0.0
 10
11.0178547628
 20
8.4666030141
 30
0.0
 10
11.0185372032
 20
8.4642952991
 30
0.0
 10
11.0192196895
 20
8.4619875999
 30
0.0
 10
11.019788285
 20
8.4600644681
 30
0.0
 10
11.0202434819
 20
8.4585260726
 30
0.0
 10
11.0205840039
 20
8.4573719757
 30
0.0
 10
11.0208705576
 20
8.4564111832
 30
0.0
 10
11.021065679
 20
8.4557367546
 30
0.0
 10
11.021185712
 20
8.4553542927
 30
0.0
 10
11.0212516934
 20
8.4550592039
 30
0.0
 10
11.0214095803
 20
8.454795622
 30
0.0
 10
11.0215880386
 20
8.4544331895
 30
0.0
 10
11.0219152767
 20
8.4538040531
 30
0.0
 10
11.022374951
 20
8.4529026098
 30
0.0
 10
11.0229299025
 20
8.4518220237
 30
0.0
 10
11.0236686703
 20
8.450380842
 30
0.0
 10
11.0245925307
 20
8.4485795021
 30
0.0
 10
11.0257009915
 20
8.4464178355
 30
0.0
 10
11.0268094982
 20
8.4442561845
 30
0.0
 10
11.028287491
 20
8.4413739778
 30
0.0
 10
11.0301349881
 20
8.4377712215
 30
0.0
 10
11.0319824811
 20
8.4341684635
 30
0.0
 10
11.0334604803
 20
8.4312862594
 30
0.0
 10
11.034568968
 20
8.4291246007
 30
0.0
 10
11.0356775002
 20
8.4269629632
 30
0.0
 10
11.0366011382
 20
8.4251615326
 30
0.0
 10
11.0373403597
 20
8.4237205359
 30
0.0
 10
11.0378939256
 20
8.4226393847
 30
0.0
 10
11.0383579349
 20
8.4217397094
 30
0.0
 10
11.0386774344
 20
8.4211074168
 30
0.0
 10
11.0388682919
 20
8.4207500414
 30
0.0
 10
11.0389880922
 20
8.4204709257
 30
0.0
 10
11.0391971204
 20
8.4202341795
 30
0.0
 10
11.0394447009
 20
8.419903739
 30
0.0
 10
11.039892468
 20
8.4193323538
 30
0.0
 10
11.0405245539
 20
8.4185124894
 30
0.0
 10
11.041286302
 20
8.4175301929
 30
0.0
 10
11.0423008326
 20
8.4162199261
 30
0.0
 10
11.0435693849
 20
8.4145822773
 30
0.0
 10
11.0450914808
 20
8.4126170195
 30
0.0
 10
11.0466136214
 20
8.4106517829
 30
0.0
 10
11.0486431266
 20
8.4080314599
 30
0.0
 10
11.0511800137
 20
8.4047560592
 30
0.0
 10
11.0537168975
 20
8.401480656
 30
0.0
 10
11.055746408
 20
8.3988603371
 30
0.0
 10
11.0572685324
 20
8.3968950883
 30
0.0
 10
11.0587906893
 20
8.3949298762
 30
0.0
 10
11.0600590518
 20
8.3932920852
 30
0.0
 10
11.0610739694
 20
8.3919821083
 30
0.0
 10
11.0618345359
 20
8.3909989267
 30
0.0
 10
11.0624703185
 20
8.3901818316
 30
0.0
 10
11.0629114864
 20
8.3896055027
 30
0.0
 10
11.0631696405
 20
8.3892829833
 30
0.0
 10
11.0633461899
 20
8.3890219059
 30
0.0
 10
11.0635879753
 20
8.3888341741
 30
0.0
 10
11.0638876008
 20
8.3885582812
 30
0.0
 10
11.0644225474
 20
8.3880873887
 30
0.0
 10
11.065181214
 20
8.3874084531
 30
0.0
 10
11.0660939865
 20
8.386596398
 30
0.0
 10
11.0673101876
 20
8.3855127259
 30
0.0
 10
11.0688307235
 20
8.3841584557
 30
0.0
 10
11.0706552446
 20
8.3825331942
 30
0.0
 10
11.0724797984
 20
8.3809079695
 30
0.0
 10
11.0749125252
 20
8.3787409903
 30
0.0
 10
11.0779534381
 20
8.3760322712
 30
0.0
 10
11.0809943483
 20
8.3733235487
 30
0.0
 10
11.0834270794
 20
8.3711565749
 30
0.0
 10
11.0852516204
 20
8.3695313341
 30
0.0
 10
11.0870761892
 20
8.3679061328
 30
0.0
 10
11.088596577
 20
8.3665516757
 30
0.0
 10
11.0898130801
 20
8.3654683847
 30
0.0
 10
11.0907249305
 20
8.3646551659
 30
0.0
 10
11.0914864818
 20
8.3639798709
 30
0.0
 10
11.0920162787
 20
8.3635024794
 30
0.0
 10
11.0923241553
 20
8.3632369994
 30
0.0
 10
11.092540596
 20
8.3630172826
 30
0.0
 10
11.0928123359
 20
8.3628763356
 30
0.0
 10
11.0931553667
 20
8.3626609304
 30
0.0
 10
11.0937646578
 20
8.3622967729
 30
0.0
 10
11.094630375
 20
8.3617698552
 30
0.0
 10
11.0956712468
 20
8.3611404186
 30
0.0
 10
11.0970583734
 20
8.3603001691
 30
0.0
 10
11.0987925227
 20
8.3592502007
 30
0.0
 10
11.1008733985
 20
8.3579900913
 30
0.0
 10
11.1029543019
 20
8.3567300213
 30
0.0
 10
11.1057288301
 20
8.3550499142
 30
0.0
 10
11.109196994
 20
8.3529497856
 30
0.0
 10
11.1126651558
 20
8.3508496532
 30
0.0
 10
11.1154396873
 20
8.349169552
 30
0.0
 10
11.1175205809
 20
8.3479094644
 30
0.0
 10
11.1196014936
 20
8.3466494213
 30
0.0
 10
11.121335528
 20
8.3455992466
 30
0.0
 10
11.1227228888
 20
8.3447594177
 30
0.0
 10
11.1237630454
 20
8.3441286968
 30
0.0
 10
11.1246310003
 20
8.3436057971
 30
0.0
 10
11.1252362967
 20
8.3432344667
 30
0.0
 10
11.125585728
 20
8.3430305544
 30
0.0
 10
11.1258378077
 20
8.3428543049
 30
0.0
 10
11.1261280887
 20
8.3427671786
 30
0.0
 10
11.1265018049
 20
8.3426199231
 30
0.0
 10
11.1271620167
 20
8.3423767101
 30
0.0
 10
11.1281019307
 20
8.3420216905
 30
0.0
 10
11.1292312167
 20
8.3415989082
 30
0.0
 10
11.1307364461
 20
8.3410340662
 30
0.0
 10
11.1326181494
 20
8.3403284023
 30
0.0
 10
11.134876122
 20
8.339481439
 30
0.0
 10
11.1371341136
 20
8.3386345203
 30
0.0
 10
11.1401447625
 20
8.3375052798
 30
0.0
 10
11.143908076
 20
8.336093735
 30
0.0
 10
11.147671388
 20
8.3346821861
 30
0.0
 10
11.1506820392
 20
8.333552952
 30
0.0
 10
11.1529400238
 20
8.3327060139
 30
0.0
 10
11.1551980228
 20
8.3318591235
 30
0.0
 10
11.1570796438
 20
8.3311532329
 30
0.0
 10
11.158585041
 20
8.3305888533
 30
0.0
 10
11.1597138148
 20
8.3301646592
 30
0.0
 10
11.1606553312
 20
8.3298140565
 30
0.0
 10
11.1613126823
 20
8.3295629585
 30
0.0
 10
11.1616909822
 20
8.3294283367
 30
0.0
 10
11.1619671837
 20
8.3293024038
 30
0.0
 10
11.1622721436
 20
8.3292719055
 30
0.0
 10
11.1626687255
 20
8.3291979525
 30
0.0
 10
11.1633674176
 20
8.3290840444
 30
0.0
 10
11.1643631058
 20
8.32891321
 30
0.0
 10
11.1655589774
 20
8.3287116794
 30
0.0
 10
11.1671531076
 20
8.3284417596
 30
0.0
 10
11.1691458957
 20
8.3281047759
 30
0.0
 10
11.1715371877
 20
8.3277002171
 30
0.0
 10
11.173928494
 20
8.3272957059
 30
0.0
 10
11.1771168975
 20
8.3267563411
 30
0.0
 10
11.1811024035
 20
8.3260821408
 30
0.0
 10
11.18588501
 20
8.325273098
 30
0.0
 10
11.1922618189
 20
8.3241943751
 30
0.0
 10
11.1970444256
 20
8.3233853328
 30
0.0
 10
11.20023283
 20
8.3228459712
 30
0.0
  0
ENDSEC
  0
SECTION
  2
OBJECTS
  0
DICTIONARY
  5
C
100
AcDbDictionary
280
0
281
1
  3
ACAD_GROUP
350
D
  3
ACAD_MLINESTYLE
350
17
  3
ACAD_LAYOUT
350
1A
  3
ACAD_PLOTSETTINGS
350
19
  3
ACAD_PLOTSTYLENAME
350
E
  3
ACAD_IMAGE_DICT
350
       3C2
  3
ACAD_IMAGE_VARS
350
       3C3
  3
ACAD_TABLESTYLE
350
       3C4
  0
IMAGEDEF_REACTOR
  5
3C1
100
AcDbRasterImageDefReactor
 90
2
330
28F
  0
DICTIONARY
  5
D
102
{ACAD_REACTORS
330
C
102
}
100
AcDbDictionary
280
0
281
1
  0
ACDBDICTIONARYWDFLT
  5
E
102
{ACAD_REACTORS
330
C
102
}
100
AcDbDictionary
281
1
  3
Normal
350
F
100
AcDbDictionaryWithDefault
340
F
  0
DICTIONARY
  5
3C2
330
C
100
AcDbDictionary
281
1
  3
B3K_assy_2_img_1
350
       3C7
  0
RASTERVARIABLES
  5
3C3
330
C
100
AcDbRasterVariables
 90
0
 70
0
 71
1
 72
5
  0
DICTIONARY
  5
17
102
{ACAD_REACTORS
330
C
102
}
100
AcDbDictionary
280
0
281
1
  3
Standard
350
18
  0
DICTIONARY
  5
3C4
330
C
100
AcDbDictionary
281
1
  3
Standard
350
       3C8
  3
Standard1
350
       3C9
  0
DICTIONARY
  5
19
102
{ACAD_REACTORS
330
C
102
}
100
AcDbDictionary
281
1
  0
DICTIONARY
  5
1A
102
{ACAD_REACTORS
330
C
102
}
100
AcDbDictionary
281
1
  3
Model
350
3C5
  3
Layout1
350
3C6
  0
ACDBPLACEHOLDER
  5
F
102
{ACAD_REACTORS
330
E
102
}
  0
MLINESTYLE
  5
18
102
{ACAD_REACTORS
330
17
102
}
100
AcDbMlineStyle
  2
STANDARD
 70
0
  3

 62
256
 51
90.0
 52
90.0
 71
2
 49
0.5
 62
256
  6
BYLAYER
 49
-0.5
 62
256
  6
BYLAYER
  0
LAYOUT
  5
3C5
102
{ACAD_REACTORS
330
1A
102
}
100
AcDbPlotSettings
  1

  2
none_device
  4
ANSI_C_(22.00_x_17.00_Inches)
  6

 40
0.0
 41
0.0
 42
0.0
 43
0.0
 44
558.8
 45
431.8
 46
0.0
 47
0.0
 48
0.0
 49
0.0
140
0.0
141
0.0
142
1.0
143
1.0
 70
1024
 72
0
 73
0
 74
0
  7

 75
0
147
1.0
148
0.0
149
0.0
100
AcDbLayout
  1
Model
 70
0
 71
0
 10
0.0
 20
0.0
 11
22.0
 21
17.0
 12
0.0
 22
0.0
 32
0.0
 14
0.0
 24
0.0
 34
0.0
 15
0.0
 25
0.0
 35
0.0
146
0.0
 13
0.0
 23
0.0
 33
0.0
 16
1.0
 26
0.0
 36
0.0
 17
0.0
 27
1.0
 37
0.0
 76
0
330
20C
345
0
346
0
  0
LAYOUT
  5
3C6
102
{ACAD_REACTORS
330
1A
102
}
100
AcDbPlotSettings
  1

  2
none_device
  4
ANSI_C_(22.00_x_17.00_Inches)
  6

 40
0.0
 41
0.0
 42
0.0
 43
0.0
 44
558.8
 45
431.8
 46
0.0
 47
0.0
 48
0.0
 49
0.0
140
0.0
141
0.0
142
1.0
143
1.0
 70
0
 72
0
 73
0
 74
0
  7

 75
0
147
1.0
148
0.0
149
0.0
100
AcDbLayout
  1
Layout1
 70
0
 71
1
 10
0.0
 20
0.0
 11
22.0
 21
17.0
 12
0.0
 22
0.0
 32
0.0
 14
0.0
 24
0.0
 34
0.0
 15
0.0
 25
0.0
 35
0.0
146
0.0
 13
0.0
 23
0.0
 33
0.0
 16
1.0
 26
0.0
 36
0.0
 17
0.0
 27
1.0
 37
0.0
 76
0
330
20D
345
0
346
0
  0
IMAGEDEF
  5
3C7
102
{ACAD_REACTORS
330
3C2
330
3C1
102
}
100
AcDbRasterImageDef
 90
0
  1
B3K_assy_2_img_1.png
 10
369.0
 20
92.0
 11
0.0066666667
 21
0.0066666667
280
1
281
0
  0
TABLESTYLE
  5
3C8
102
{ACAD_REACTORS
330
3C4
330
292
330
293
102
}
330
3C4
100
AcDbTableStyle
  3
Standard
 70
0
 71
0
 40
0.06
 41
0.06
280
1
281
1
  7
Standard
140
0.18
170
1
 62
0
 63
7
283
0
  7
Standard
140
0.18
170
1
 62
0
 63
7
283
0
  7
Standard
140
0.18
170
1
 62
0
 63
7
283
0
  0
TABLESTYLE
  5
3C9
102
{ACAD_REACTORS
330
3C4
330
291
102
}
330
3C4
100
AcDbTableStyle
  3
Standard1
 70
1
 71
0
 40
0.06
 41
0.06
280
1
281
1
  7
Standard
140
0.18
170
1
 62
0
 63
7
283
0
  7
Standard
140
0.18
170
1
 62
0
 63
7
283
0
  7
Standard
140
0.18
170
1
 62
0
 63
7
283
0
  0
ENDSEC
  0
EOF
