999
DXF file: B3J_assy_2.dxf
999
Pro/ENGINEER 2014200 by Parametric Technology Corporation
  0
SECTION
  2
HEADER
  9
$ACADVER
  1
AC1021
  9
$DWGCODEPAGE
  3
ANSI_1252
  9
$EXTMAX
 10
22.0
 20
17.0
 30
0.0
  9
$EXTMIN
 10
0.0
 20
0.0
 30
0.0
  9
$LIMMIN
 10
0.0
 20
0.0
  9
$LIMMAX
 10
22.0
 20
17.0
  9
$VIEWCTR
 10
11.0
 20
8.5
  9
$VIEWSIZE
 40
17.0
  9
$CLAYER
  8
0
  9
$LTSCALE
 40
1.21
  9
$CELTYPE
  6
BYLAYER
  9
$DIMSCALE
 40
1.0
  9
$DIMASZ
 40
0.1875
  9
$DIMEXO
 40
0.0625
  9
$DIMDLI
 40
0.836
  9
$DIMEXE
 40
0.125
  9
$DIMCEN
 40
0.198
  9
$DIMLFAC
 40
1.0
  9
$DIMBLK
  1
_FILLED
  9
$DIMTXT
 40
0.1
  9
$DIMTOL
 70
0
  9
$DIMLIM
 70
0
  9
$DIMTFAC
 40
1.0
  9
$DIMGAP
 40
0.09
  9
$DIMDSEP
 70
46
  9
$AUNITS
 70
0
  9
$PDMODE
 70
3
  9
$PDSIZE
 40
0.3125
  9
$HANDSEED
  5
3C9
  9
$TILEMODE
 70
1
  9
$MEASUREMENT
 70
0
  9
$INSUNITS
 70
1
  0
ENDSEC
  0
SECTION
  2
CLASSES
  0
CLASS
  1
ACDBDICTIONARYWDFLT
  2
AcDbDictionaryWithDefault
  3
AutoCAD 2000
 90
0
 91
1
280
0
281
0
  0
CLASS
  1
ACDBPLACEHOLDER
  2
AcDbPlaceHolder
  3
AutoCAD 2000
 90
0
 91
1
280
0
281
0
  0
CLASS
  1
LAYOUT
  2
AcDbLayout
  3
AutoCAD 2000
 90
0
 91
0
280
0
281
0
  0
CLASS
  1
RASTERVARIABLES
  2
AcDbRasterVariables
  3
ISM
 90
0
 91
1
280
0
281
0
  0
CLASS
  1
IMAGEDEF
  2
AcDbRasterImageDef
  3
ISM
 90
0
 91
1
280
0
281
0
  0
CLASS
  1
IMAGEDEF_REACTOR
  2
AcDbRasterImageDefReactor
  3
ISM
 90
0
 91
1
280
0
281
0
  0
CLASS
  1
IMAGE
  2
AcDbRasterImage
  3
ISM
 90
127
 91
1
280
0
281
1
  0
CLASS
  1
TABLESTYLE
  2
AcDbTableStyle
  3
ObjectDBX Classes
 90
2047
 91
1
280
0
281
0
  0
CLASS
  1
ACAD_TABLE
  2
AcDbTable
  3
ObjectDBX Classes
 90
1025
 91
3
280
0
281
1
  0
ENDSEC
  0
SECTION
  2
TABLES
  0
TABLE
  2
VPORT
  5
8
100
AcDbSymbolTable
 70
2
  0
VPORT
  5
1F4
100
AcDbSymbolTableRecord
100
AcDbViewportTableRecord
  2
*ACTIVE
 70
0
 10
0.0
 20
0.0
 11
1.0
 21
1.0
 12
11.0
 22
8.5
 13
0.0
 23
0.0
 14
1.0
 24
1.0
 15
0.0
 25
0.0
 16
0.0
 26
0.0
 36
1.0
 17
0.0
 27
0.0
 37
0.0
 40
17.0
 41
1.2941176471
 42
50.0
 43
0.0
 44
0.0
 50
0.0
 51
0.0
 71
0
 72
100
 73
1
 74
1
 75
0
 76
0
 77
0
 78
0
  0
ENDTAB
  0
TABLE
  2
LTYPE
  5
5
100
AcDbSymbolTable
 70
6
  0
LTYPE
  5
14
100
AcDbSymbolTableRecord
100
AcDbLinetypeTableRecord
  2
BYBLOCK
 70
0
  3

 72
65
 73
0
 40
0.0
  0
LTYPE
  5
15
100
AcDbSymbolTableRecord
100
AcDbLinetypeTableRecord
  2
BYLAYER
 70
0
  3

 72
65
 73
0
 40
0.0
  0
LTYPE
  5
16
100
AcDbSymbolTableRecord
100
AcDbLinetypeTableRecord
  2
CONTINUOUS
 70
64
  3
Solid line
 72
65
 73
0
 40
0.0
  0
LTYPE
  5
1F5
100
AcDbSymbolTableRecord
100
AcDbLinetypeTableRecord
  2
CENTER
 70
64
  3
____ _ ____ _ ____ _ ____ _ ____ _ ____ _ ____
 72
65
 73
4
 40
0.6
 49
0.375
 74
0
 49
-0.075
 74
0
 49
0.075
 74
0
 49
-0.075
 74
0
  0
LTYPE
  5
1F6
100
AcDbSymbolTableRecord
100
AcDbLinetypeTableRecord
  2
HIDDEN
 70
64
  3
- - - - - - - - - - - - - - - - - - - -
 72
65
 73
2
 40
0.2
 49
0.1
 74
0
 49
-0.1
 74
0
  0
LTYPE
  5
1F7
100
AcDbSymbolTableRecord
100
AcDbLinetypeTableRecord
  2
PHANTOM
 70
64
  3
_____ _ _ _____ _ _ _____ _ _ _____
 72
65
 73
6
 40
0.8
 49
0.45
 74
0
 49
-0.05
 74
0
 49
0.1
 74
0
 49
-0.05
 74
0
 49
0.1
 74
0
 49
-0.05
 74
0
  0
LTYPE
  5
1F8
100
AcDbSymbolTableRecord
100
AcDbLinetypeTableRecord
  2
DOT
 70
64
  3
. . . . . . . . . . . . . . . . . . . .
 72
65
 73
2
 40
0.2
 49
0.1
 74
0
 49
-0.1
 74
0
  0
LTYPE
  5
1F9
100
AcDbSymbolTableRecord
100
AcDbLinetypeTableRecord
  2
DASHED
 70
64
  3
- - - - - - - - - - - - - - - - - - - -
 72
65
 73
2
 40
0.2
 49
0.1
 74
0
 49
-0.1
 74
0
  0
ENDTAB
  0
TABLE
  2
LAYER
  5
2
100
AcDbSymbolTable
 70
36
  0
LAYER
  5
10
100
AcDbSymbolTableRecord
100
AcDbLayerTableRecord
  2
0
 70
0
 62
7
  6
CONTINUOUS
370
-3
390
F
  0
LAYER
  5
1FA
100
AcDbSymbolTableRecord
100
AcDbLayerTableRecord
  2
DEFAULT_1
 70
0
 62
7
  6
CENTER
370
-3
390
F
  0
LAYER
  5
1FB
100
AcDbSymbolTableRecord
100
AcDbLayerTableRecord
  2
DEFAULT_2
 70
0
 62
8
  6
HIDDEN
370
-3
390
F
  0
LAYER
  5
1FC
100
AcDbSymbolTableRecord
100
AcDbLayerTableRecord
  2
DEFAULT_3
 70
0
 62
7
  6
PHANTOM
370
-3
390
F
  0
LAYER
  5
1FD
100
AcDbSymbolTableRecord
100
AcDbLayerTableRecord
  2
01___PRT_ALL_DTM_PLN
 70
0
 62
7
  6
CONTINUOUS
370
-3
390
F
  0
LAYER
  5
1FE
100
AcDbSymbolTableRecord
100
AcDbLayerTableRecord
  2
01___PRT_DEF_DTM_PLN
 70
0
 62
7
  6
CONTINUOUS
370
-3
390
F
  0
LAYER
  5
1FF
100
AcDbSymbolTableRecord
100
AcDbLayerTableRecord
  2
02___PRT_ALL_AXES
 70
0
 62
7
  6
CONTINUOUS
370
-3
390
F
  0
LAYER
  5
200
100
AcDbSymbolTableRecord
100
AcDbLayerTableRecord
  2
03___PRT_ALL_CURVES
 70
0
 62
7
  6
CONTINUOUS
370
-3
390
F
  0
LAYER
  5
201
100
AcDbSymbolTableRecord
100
AcDbLayerTableRecord
  2
04___PRT_ALL_DTM_PNT
 70
0
 62
7
  6
CONTINUOUS
370
-3
390
F
  0
LAYER
  5
202
100
AcDbSymbolTableRecord
100
AcDbLayerTableRecord
  2
05___PRT_ALL_DTM_CSYS
 70
0
 62
7
  6
CONTINUOUS
370
-3
390
F
  0
LAYER
  5
203
100
AcDbSymbolTableRecord
100
AcDbLayerTableRecord
  2
05___PRT_DEF_DTM_CSYS
 70
0
 62
7
  6
CONTINUOUS
370
-3
390
F
  0
LAYER
  5
204
100
AcDbSymbolTableRecord
100
AcDbLayerTableRecord
  2
06___PRT_ALL_SURFS
 70
0
 62
7
  6
CONTINUOUS
370
-3
390
F
  0
LAYER
  5
205
100
AcDbSymbolTableRecord
100
AcDbLayerTableRecord
  2
DATUM_PLANES
 70
0
 62
7
  6
CONTINUOUS
370
-3
390
F
  0
LAYER
  5
206
100
AcDbSymbolTableRecord
100
AcDbLayerTableRecord
  2
PORT_AREAS
 70
0
 62
7
  6
CONTINUOUS
370
-3
390
F
  0
LAYER
  5
207
100
AcDbSymbolTableRecord
100
AcDbLayerTableRecord
  2
SUNNBOMCOSMETIC
 70
0
 62
7
  6
CONTINUOUS
370
-3
390
F
  0
LAYER
  5
208
100
AcDbSymbolTableRecord
100
AcDbLayerTableRecord
  2
SUNNBOMSTAMPING
 70
0
 62
7
  6
CONTINUOUS
370
-3
390
F
  0
LAYER
  5
209
100
AcDbSymbolTableRecord
100
AcDbLayerTableRecord
  2
THREADS
 70
0
 62
7
  6
CONTINUOUS
370
-3
390
F
  0
ENDTAB
  0
TABLE
  2
STYLE
  5
3
100
AcDbSymbolTable
 70
1
  0
STYLE
  5
11
100
AcDbSymbolTableRecord
100
AcDbTextStyleTableRecord
  2
STANDARD
 70
0
 40
0.0
 41
0.8
 50
0.0
 71
0
 42
0.2
  3
txt
  4

  0
STYLE
  5
20A
100
AcDbSymbolTableRecord
100
AcDbTextStyleTableRecord
  2
TEXTSTYLE_1
 70
0
 40
0.0
 41
0.8
 50
0.0
 71
0
 42
0.2
  3
gdt
  4

  0
ENDTAB
  0
TABLE
  2
VIEW
  5
6
100
AcDbSymbolTable
 70
0
  0
ENDTAB
  0
TABLE
  2
UCS
  5
7
100
AcDbSymbolTable
 70
0
  0
ENDTAB
  0
TABLE
  2
APPID
  5
9
100
AcDbSymbolTable
 70
1
  0
APPID
  5
20B
100
AcDbSymbolTableRecord
100
AcDbRegAppTableRecord
  2
ACAD
 70
0
  0
ENDTAB
  0
TABLE
  2
BLOCK_RECORD
  5
1
100
AcDbSymbolTable
 70
0
  0
BLOCK_RECORD
  5
20C
100
AcDbSymbolTableRecord
100
AcDbBlockTableRecord
  2
*Model_Space
  0
BLOCK_RECORD
  5
20D
100
AcDbSymbolTableRecord
100
AcDbBlockTableRecord
  2
*Paper_Space
  0
BLOCK_RECORD
  5
20E
100
AcDbSymbolTableRecord
100
AcDbBlockTableRecord
  2
SUN_FIRST_THIRD_ANGLE_BL0
  0
BLOCK_RECORD
  5
20F
100
AcDbSymbolTableRecord
100
AcDbBlockTableRecord
  2
*T1
  0
BLOCK_RECORD
  5
210
100
AcDbSymbolTableRecord
100
AcDbBlockTableRecord
  2
*T2
  0
BLOCK_RECORD
  5
211
100
AcDbSymbolTableRecord
100
AcDbBlockTableRecord
  2
*T3
  0
ENDTAB
  0
TABLE
  2
DIMSTYLE
  5
A
100
AcDbSymbolTable
 70
1
100
AcDbDimStyleTable
 71
0
  0
DIMSTYLE
105
212
100
AcDbSymbolTableRecord
100
AcDbDimStyleTableRecord
  2
STANDARD
 70
0
  3

  4

 40
1.0
 41
0.1875
 42
0.0625
 43
0.38
 44
0.125
 45
0.0
 46
0.0
 47
0.001
 48
0.001
140
0.1
141
0.09
142
0.0
143
25.4
144
1.0
145
0.0
146
1.0
147
0.09
 71
0.0
 72
0.0
 73
1
 74
1
 75
0
 76
0
 77
0
 78
4
170
0
171
2
172
0
173
0
174
0
175
0
176
0
177
0
178
0
270
2
271
3
272
3
273
2
274
2
275
0
280
0
281
0
282
0
283
1
284
4
285
0
286
0
287
3
288
0
340
11
278
46
  0
ENDTAB
  0
ENDSEC
  0
SECTION
  2
BLOCKS
  0
BLOCK
  5
20
100
AcDbEntity
  8
0
100
AcDbBlockBegin
  2
*Model_Space
 70
0
 10
0.0
 20
0.0
 30
0.0
  3
*Model_Space
  1

  0
ENDBLK
  5
21
100
AcDbEntity
  8
0
100
AcDbBlockEnd
  0
BLOCK
  5
1C
100
AcDbEntity
  8
0
100
AcDbBlockBegin
  2
*Paper_Space
 70
0
 10
0.0
 20
0.0
 30
0.0
  3
*Paper_Space
  1

  0
ENDBLK
  5
1D
100
AcDbEntity
  8
0
100
AcDbBlockEnd
  0
BLOCK
  5
213
100
AcDbEntity
  8
0
100
AcDbBlockBegin
 62
2
  6
CONTINUOUS
  2
SUN_FIRST_THIRD_ANGLE_BL0
 70
64
 10
20.4816717061
 20
1.2289683772
  3
SUN_FIRST_THIRD_ANGLE_BL0
  1

  0
TEXT
  5
214
100
AcDbEntity
  8
0
100
AcDbText
 62
2
  6
CONTINUOUS
 10
19.4750896608
 20
1.4136269581
  7
STANDARD
 40
0.08
  1
FIRST ANGLE
 41
0.8
 72
0
100
AcDbText
  0
TEXT
  5
215
100
AcDbEntity
  8
0
100
AcDbText
 62
2
  6
CONTINUOUS
 10
20.7842537513
 20
1.4047600029
  7
STANDARD
 40
0.08
  1
THIRD ANGLE
 41
0.8
 72
0
100
AcDbText
  0
LINE
  5
216
100
AcDbEntity
  8
0
100
AcDbLine
 62
7
  6
CONTINUOUS
 10
19.4767170086
 20
1.1727031207
 11
19.6334271527
 21
1.1717972817
  0
LINE
  5
217
100
AcDbEntity
  8
0
100
AcDbLine
 62
7
  6
CONTINUOUS
 10
19.6596964832
 20
1.1717972817
 11
19.6950230232
 21
1.171593082
  0
LINE
  5
218
100
AcDbEntity
  8
0
100
AcDbLine
 62
7
  6
CONTINUOUS
 10
19.7194818561
 20
1.1708914427
 11
19.8852396156
 21
1.1699333054
  0
LINE
  5
219
100
AcDbEntity
  8
0
100
AcDbLine
 62
7
  6
CONTINUOUS
 10
19.4758111696
 20
1.2723454088
 11
19.88525039
 21
1.3511534004
  0
LINE
  5
21A
100
AcDbEntity
  8
0
100
AcDbLine
 62
7
  6
CONTINUOUS
 10
19.88525039
 20
1.3511534004
 11
19.8831348489
 21
0.9851647912
  0
LINE
  5
21B
100
AcDbEntity
  8
0
100
AcDbLine
 62
7
  6
CONTINUOUS
 10
19.8831348489
 20
0.9851647912
 11
19.4767170086
 21
1.0658141206
  0
LINE
  5
21C
100
AcDbEntity
  8
0
100
AcDbLine
 62
7
  6
CONTINUOUS
 10
19.4767170086
 20
1.0658141206
 11
19.4779056764
 21
1.2714536432
  0
CIRCLE
  5
21D
100
AcDbEntity
  8
0
100
AcDbCircle
 62
7
  6
CONTINUOUS
 10
20.2068232291
 20
1.1717972817
 40
0.175742101
  0
CIRCLE
  5
21E
100
AcDbEntity
  8
0
100
AcDbCircle
 62
7
  6
CONTINUOUS
 10
20.2068232291
 20
1.1717972817
 40
0.1005522074
  0
LINE
  5
21F
100
AcDbEntity
  8
0
100
AcDbLine
 62
7
  6
CONTINUOUS
 10
20.2077290681
 20
1.3756110529
 11
20.2071171714
 21
1.2379342989
  0
LINE
  5
220
100
AcDbEntity
  8
0
100
AcDbLine
 62
7
  6
CONTINUOUS
 10
20.2077290681
 20
1.2016899681
 11
20.2074674401
 21
1.1428236749
  0
LINE
  5
221
100
AcDbEntity
  8
0
100
AcDbLine
 62
7
  6
CONTINUOUS
 10
20.208634907
 20
1.101141841
 11
20.2080230104
 21
0.963465087
  0
LINE
  5
222
100
AcDbEntity
  8
0
100
AcDbLine
 62
7
  6
CONTINUOUS
 10
20.0066328138
 20
1.1745147986
 11
20.1443095678
 21
1.1739029019
  0
LINE
  5
223
100
AcDbEntity
  8
0
100
AcDbLine
 62
7
  6
CONTINUOUS
 10
20.1832714155
 20
1.1727031207
 11
20.238153505
 21
1.172335442
  0
LINE
  5
224
100
AcDbEntity
  8
0
100
AcDbLine
 62
7
  6
CONTINUOUS
 10
20.2756669918
 20
1.1717972817
 11
20.407916871
 21
1.1712095044
  0
CIRCLE
  5
225
100
AcDbEntity
  8
0
100
AcDbCircle
 62
7
  6
CONTINUOUS
 10
20.7509457401
 20
1.1693297793
 40
0.1722024983
  0
CIRCLE
  5
226
100
AcDbEntity
  8
0
100
AcDbCircle
 62
7
  6
CONTINUOUS
 10
20.7509457401
 20
1.1693297793
 40
0.0985164967
  0
LINE
  5
227
100
AcDbEntity
  8
0
100
AcDbLine
 62
7
  6
CONTINUOUS
 10
20.7169767782
 20
1.170462078
 11
20.7825395137
 21
1.1682766535
  0
LINE
  5
228
100
AcDbEntity
  8
0
100
AcDbLine
 62
7
  6
CONTINUOUS
 10
20.8177513651
 20
1.1693297793
 11
20.947965719
 21
1.1693297793
  0
LINE
  5
229
100
AcDbEntity
  8
0
100
AcDbLine
 62
7
  6
CONTINUOUS
 10
20.6875370113
 20
1.170462078
 11
20.5573226574
 21
1.170462078
  0
LINE
  5
22A
100
AcDbEntity
  8
0
100
AcDbLine
 62
7
  6
CONTINUOUS
 10
20.7486811426
 20
1.1987695462
 11
20.7486811426
 21
1.1432869085
  0
LINE
  5
22B
100
AcDbEntity
  8
0
100
AcDbLine
 62
7
  6
CONTINUOUS
 10
20.7498134414
 20
1.1059210505
 11
20.7498134414
 21
0.9757066966
  0
LINE
  5
22C
100
AcDbEntity
  8
0
100
AcDbLine
 62
7
  6
CONTINUOUS
 10
20.7486811426
 20
1.2338708068
 11
20.7486811426
 21
1.3640851607
  0
LINE
  5
22D
100
AcDbEntity
  8
0
100
AcDbLine
 62
7
  6
CONTINUOUS
 10
21.0702539817
 20
1.2701043662
 11
21.4790138229
 21
1.3448360823
  0
LINE
  5
22E
100
AcDbEntity
  8
0
100
AcDbLine
 62
7
  6
CONTINUOUS
 10
21.4790138229
 20
1.3448360823
 11
21.4790138229
 21
0.9779712941
  0
LINE
  5
22F
100
AcDbEntity
  8
0
100
AcDbLine
 62
7
  6
CONTINUOUS
 10
21.4790138229
 20
0.9779712941
 11
21.069121683
 21
1.0617614
  0
LINE
  5
230
100
AcDbEntity
  8
0
100
AcDbLine
 62
7
  6
CONTINUOUS
 10
21.0702539817
 20
1.2701043662
 11
21.069121683
 21
1.0617614
  0
LINE
  5
231
100
AcDbEntity
  8
0
100
AcDbLine
 62
7
  6
CONTINUOUS
 10
21.4790138229
 20
1.1693297793
 11
21.3159628059
 21
1.1693297793
  0
LINE
  5
232
100
AcDbEntity
  8
0
100
AcDbLine
 62
7
  6
CONTINUOUS
 10
21.2876553377
 20
1.1693297793
 11
21.2502894796
 21
1.1693297793
  0
LINE
  5
233
100
AcDbEntity
  8
0
100
AcDbLine
 62
7
  6
CONTINUOUS
 10
21.2208497126
 20
1.1659328831
 11
21.0713862804
 21
1.1659328831
  0
LINE
  5
234
100
AcDbEntity
  8
0
100
AcDbLine
 62
7
  6
CONTINUOUS
 10
20.4796138713
 20
1.5284908897
 11
20.4766766948
 21
0.9294458646
  0
ENDBLK
  5
235
100
AcDbEntity
  8
0
  6
BYBLOCK
 62
0
100
AcDbBlockEnd
  0
BLOCK
  5
236
100
AcDbEntity
  8
0
100
AcDbBlockBegin
  2
*T1
 70
1
 10
0.0
 20
0.0
  3
*T1
  1

  0
LINE
  5
237
100
AcDbEntity
  8
0
100
AcDbLine
 62
2
  6
CONTINUOUS
 10
9.275
 20
0.0
 11
-0.0
 21
0.0
  0
LINE
  5
238
100
AcDbEntity
  8
0
100
AcDbLine
 62
2
  6
CONTINUOUS
 10
9.275
 20
0.0
 11
9.275
 21
1.25
  0
LINE
  5
239
100
AcDbEntity
  8
0
100
AcDbLine
 62
2
  6
CONTINUOUS
 10
9.275
 20
0.625
 11
-0.0
 21
0.625
  0
LINE
  5
23A
100
AcDbEntity
  8
0
100
AcDbLine
 62
2
  6
CONTINUOUS
 10
9.275
 20
1.25
 11
-0.0
 21
1.25
  0
LINE
  5
23B
100
AcDbEntity
  8
0
100
AcDbLine
 62
2
  6
CONTINUOUS
 10
6.8
 20
0.0
 11
6.8
 21
1.25
  0
LINE
  5
23C
100
AcDbEntity
  8
0
100
AcDbLine
 62
2
  6
CONTINUOUS
 10
6.4
 20
0.0
 11
6.4
 21
0.625
  0
LINE
  5
23D
100
AcDbEntity
  8
0
100
AcDbLine
 62
2
  6
CONTINUOUS
 10
5.9
 20
0.0
 11
5.9
 21
0.625
  0
LINE
  5
23E
100
AcDbEntity
  8
0
100
AcDbLine
 62
2
  6
CONTINUOUS
 10
5.2
 20
0.0
 11
5.2
 21
0.625
  0
LINE
  5
23F
100
AcDbEntity
  8
0
100
AcDbLine
 62
2
  6
CONTINUOUS
 10
4.1
 20
0.0
 11
4.1
 21
1.25
  0
LINE
  5
240
100
AcDbEntity
  8
0
100
AcDbLine
 62
2
  6
CONTINUOUS
 10
-0.0
 20
0.0
 11
-0.0
 21
1.25
  0
MTEXT
  5
241
100
AcDbEntity
  8
0
100
AcDbMText
 62
2
  6
CONTINUOUS
  7
STANDARD
 71
2
 72
1
 10
6.6
 20
0.325
 30
0.0
 11
1.0
 21
0.0
 31
0.0
 44
0.9
  1
2
 40
0.125
 41
0.2
  0
MTEXT
  5
242
100
AcDbEntity
  8
0
100
AcDbMText
 62
2
  6
CONTINUOUS
  7
STANDARD
 71
2
 72
1
 10
6.15
 20
0.325
 30
0.0
 11
1.0
 21
0.0
 31
0.0
 44
0.9
  1
C
 40
0.125
 41
0.2
  0
MTEXT
  5
243
100
AcDbEntity
  8
0
100
AcDbMText
 62
2
  6
CONTINUOUS
  7
STANDARD
 71
2
 72
1
 10
5.55
 20
0.325
 30
0.0
 11
1.0
 21
0.0
 31
0.0
 44
0.9
  1
1.000
 40
0.125
 41
1.0
  0
MTEXT
  5
244
100
AcDbEntity
  8
0
100
AcDbMText
 62
2
  6
CONTINUOUS
  7
STANDARD
 71
2
 72
1
 10
4.65
 20
0.325
 30
0.0
 11
1.0
 21
0.0
 31
0.0
 44
0.9
  1
Oct-04-19
 40
0.125
 41
1.8
  0
MTEXT
  5
245
100
AcDbEntity
  8
0
100
AcDbMText
 62
2
  6
CONTINUOUS
  7
STANDARD
 71
2
 72
1
 10
2.05
 20
0.4625
 30
0.0
 11
1.0
 21
0.0
 31
0.0
 44
0.9
  1
T-2A Line mount\PThrough port 2 with reverse flow check
 40
0.125
 41
7.6
  0
MTEXT
  5
246
100
AcDbEntity
  8
0
100
AcDbMText
 62
2
  6
CONTINUOUS
  7
STANDARD
 71
1
 72
1
 10
6.45
 20
0.5625
 30
0.0
 11
1.0
 21
0.0
 31
0.0
 44
0.9
  1
SHEET
 40
0.06
 41
0.48
  0
MTEXT
  5
247
100
AcDbEntity
  8
0
100
AcDbMText
 62
2
  6
CONTINUOUS
  7
STANDARD
 71
1
 72
1
 10
5.95
 20
0.5625
 30
0.0
 11
1.0
 21
0.0
 31
0.0
 44
0.9
  1
DWG SIZE
 40
0.06
 41
0.768
  0
MTEXT
  5
248
100
AcDbEntity
  8
0
100
AcDbMText
 62
2
  6
CONTINUOUS
  7
STANDARD
 71
1
 72
1
 10
5.25
 20
0.5625
 30
0.0
 11
1.0
 21
0.0
 31
0.0
 44
0.9
  1
SCALE
 40
0.06
 41
0.48
  0
MTEXT
  5
249
100
AcDbEntity
  8
0
100
AcDbMText
 62
2
  6
CONTINUOUS
  7
STANDARD
 71
1
 72
1
 10
4.15
 20
0.5625
 30
0.0
 11
1.0
 21
0.0
 31
0.0
 44
0.9
  1
DATE
 40
0.06
 41
0.384
  0
MTEXT
  5
24A
100
AcDbEntity
  8
0
100
AcDbMText
 62
2
  6
CONTINUOUS
  7
STANDARD
 71
1
 72
1
 10
0.05
 20
0.5625
 30
0.0
 11
1.0
 21
0.0
 31
0.0
 44
0.9
  1
DESCRIPTION
 40
0.06
 41
1.056
  0
MTEXT
  5
24B
100
AcDbEntity
  8
0
100
AcDbMText
 62
2
  6
CONTINUOUS
  7
STANDARD
 71
2
 72
1
 10
5.45
 20
1.0375
 30
0.0
 11
1.0
 21
0.0
 31
0.0
 44
0.9
  1
ALL DIMENSIONS IN INCH\PVIEWS ARE THIRD ANGLE
 40
0.12
 41
4.224
  0
MTEXT
  5
24C
100
AcDbEntity
  8
0
100
AcDbMText
 62
2
  6
CONTINUOUS
  7
STANDARD
 71
2
 72
1
 10
2.05
 20
0.95
 30
0.0
 11
1.0
 21
0.0
 31
0.0
 44
0.9
  1
B3J
 40
0.125
 41
0.6
  0
MTEXT
  5
24D
100
AcDbEntity
  8
0
100
AcDbMText
 62
2
  6
CONTINUOUS
  7
STANDARD
 71
1
 72
1
 10
0.05
 20
1.1875
 30
0.0
 11
1.0
 21
0.0
 31
0.0
 44
0.9
  1
MODEL
 40
0.06
 41
0.48
  0
ENDBLK
  5
24E
100
AcDbEntity
  8
0
  6
BYBLOCK
 62
0
100
AcDbBlockEnd
  0
BLOCK
  5
24F
100
AcDbEntity
  8
0
100
AcDbBlockBegin
  2
*T2
 70
1
 10
0.0
 20
0.0
  3
*T2
  1

  0
LINE
  5
250
100
AcDbEntity
  8
0
100
AcDbLine
 62
2
  6
CONTINUOUS
 10
0.0
 20
0.0
 11
9.055
 21
0.0
  0
LINE
  5
251
100
AcDbEntity
  8
0
100
AcDbLine
 62
2
  6
CONTINUOUS
 10
0.0
 20
0.0
 11
0.0
 21
-2.594
  0
LINE
  5
252
100
AcDbEntity
  8
0
100
AcDbLine
 62
2
  6
CONTINUOUS
 10
0.0
 20
-0.344
 11
9.055
 21
-0.344
  0
LINE
  5
253
100
AcDbEntity
  8
0
100
AcDbLine
 62
2
  6
CONTINUOUS
 10
0.0
 20
-0.594
 11
9.055
 21
-0.594
  0
LINE
  5
254
100
AcDbEntity
  8
0
100
AcDbLine
 62
2
  6
CONTINUOUS
 10
0.0
 20
-0.844
 11
9.055
 21
-0.844
  0
LINE
  5
255
100
AcDbEntity
  8
0
100
AcDbLine
 62
2
  6
CONTINUOUS
 10
0.0
 20
-1.094
 11
9.055
 21
-1.094
  0
LINE
  5
256
100
AcDbEntity
  8
0
100
AcDbLine
 62
2
  6
CONTINUOUS
 10
0.0
 20
-1.344
 11
9.055
 21
-1.344
  0
LINE
  5
257
100
AcDbEntity
  8
0
100
AcDbLine
 62
2
  6
CONTINUOUS
 10
0.0
 20
-1.594
 11
9.055
 21
-1.594
  0
LINE
  5
258
100
AcDbEntity
  8
0
100
AcDbLine
 62
2
  6
CONTINUOUS
 10
0.0
 20
-1.844
 11
9.055
 21
-1.844
  0
LINE
  5
259
100
AcDbEntity
  8
0
100
AcDbLine
 62
2
  6
CONTINUOUS
 10
0.0
 20
-2.094
 11
9.055
 21
-2.094
  0
LINE
  5
25A
100
AcDbEntity
  8
0
100
AcDbLine
 62
2
  6
CONTINUOUS
 10
0.0
 20
-2.344
 11
9.055
 21
-2.344
  0
LINE
  5
25B
100
AcDbEntity
  8
0
100
AcDbLine
 62
2
  6
CONTINUOUS
 10
0.0
 20
-2.594
 11
9.055
 21
-2.594
  0
LINE
  5
25C
100
AcDbEntity
  8
0
100
AcDbLine
 62
2
  6
CONTINUOUS
 10
3.055
 20
0.0
 11
3.055
 21
-2.594
  0
LINE
  5
25D
100
AcDbEntity
  8
0
100
AcDbLine
 62
2
  6
CONTINUOUS
 10
9.055
 20
0.0
 11
9.055
 21
-2.594
  0
MTEXT
  5
25E
100
AcDbEntity
  8
0
100
AcDbMText
 62
2
  6
CONTINUOUS
  7
STANDARD
 71
2
 72
1
 10
1.5275
 20
-0.0995
 30
0.0
 11
1.0
 21
0.0
 31
0.0
 44
0.9
  1
Technical Data
 40
0.145
 41
3.248
  0
MTEXT
  5
25F
100
AcDbEntity
  8
0
100
AcDbMText
 62
2
  6
CONTINUOUS
  7
STANDARD
 71
2
 72
1
 10
4.555
 20
-0.0995
 30
0.0
 11
1.0
 21
0.0
 31
0.0
 44
0.9
  1
U.S. Units
 40
0.145
 41
2.32
  0
MTEXT
  5
260
100
AcDbEntity
  8
0
100
AcDbMText
 62
2
  6
CONTINUOUS
  7
STANDARD
 71
2
 72
1
 10
7.555
 20
-0.0995
 30
0.0
 11
1.0
 21
0.0
 31
0.0
 44
0.9
  1
Metric Units
 40
0.145
 41
2.784
  0
MTEXT
  5
261
100
AcDbEntity
  8
0
100
AcDbMText
 62
2
  6
CONTINUOUS
  7
STANDARD
 71
2
 72
1
 10
1.5275
 20
-0.4065
 30
0.0
 11
1.0
 21
0.0
 31
0.0
 44
0.9
  1
Cavity
 40
0.125
 41
1.2
  0
MTEXT
  5
262
100
AcDbEntity
  8
0
100
AcDbMText
 62
2
  6
CONTINUOUS
  7
STANDARD
 71
2
 72
1
 10
6.055
 20
-0.4065
 30
0.0
 11
1.0
 21
0.0
 31
0.0
 44
0.9
  1
T-2A
 40
0.125
 41
0.8
  0
MTEXT
  5
263
100
AcDbEntity
  8
0
100
AcDbMText
 62
2
  6
CONTINUOUS
  7
STANDARD
 71
2
 72
1
 10
1.5275
 20
-0.6565
 30
0.0
 11
1.0
 21
0.0
 31
0.0
 44
0.9
  1
Body Features
 40
0.125
 41
2.6
  0
MTEXT
  5
264
100
AcDbEntity
  8
0
100
AcDbMText
 62
2
  6
CONTINUOUS
  7
STANDARD
 71
2
 72
1
 10
6.055
 20
-0.6565
 30
0.0
 11
1.0
 21
0.0
 31
0.0
 44
0.9
  1
Through port 2 with reverse flow check
 40
0.125
 41
7.6
  0
MTEXT
  5
265
100
AcDbEntity
  8
0
100
AcDbMText
 62
2
  6
CONTINUOUS
  7
STANDARD
 71
2
 72
1
 10
1.5275
 20
-0.9065
 30
0.0
 11
1.0
 21
0.0
 31
0.0
 44
0.9
  1
Body Type
 40
0.125
 41
1.8
  0
MTEXT
  5
266
100
AcDbEntity
  8
0
100
AcDbMText
 62
2
  6
CONTINUOUS
  7
STANDARD
 71
2
 72
1
 10
6.055
 20
-0.9065
 30
0.0
 11
1.0
 21
0.0
 31
0.0
 44
0.9
  1
Line mount
 40
0.125
 41
2.0
  0
MTEXT
  5
267
100
AcDbEntity
  8
0
100
AcDbMText
 62
2
  6
CONTINUOUS
  7
STANDARD
 71
2
 72
1
 10
1.5275
 20
-1.1565
 30
0.0
 11
1.0
 21
0.0
 31
0.0
 44
0.9
  1
Interface
 40
0.125
 41
1.8
  0
MTEXT
  5
268
100
AcDbEntity
  8
0
100
AcDbMText
 62
2
  6
CONTINUOUS
  7
STANDARD
 71
2
 72
1
 10
6.055
 20
-1.1565
 30
0.0
 11
1.0
 21
0.0
 31
0.0
 44
0.9
  1
None
 40
0.125
 41
0.8
  0
MTEXT
  5
269
100
AcDbEntity
  8
0
100
AcDbMText
 62
2
  6
CONTINUOUS
  7
STANDARD
 71
2
 72
1
 10
1.5275
 20
-1.4065
 30
0.0
 11
1.0
 21
0.0
 31
0.0
 44
0.9
  1
Open Cavity Quantity
 40
0.125
 41
4.0
  0
MTEXT
  5
26A
100
AcDbEntity
  8
0
100
AcDbMText
 62
2
  6
CONTINUOUS
  7
STANDARD
 71
2
 72
1
 10
6.055
 20
-1.4065
 30
0.0
 11
1.0
 21
0.0
 31
0.0
 44
0.9
  1
1
 40
0.125
 41
0.2
  0
MTEXT
  5
26B
100
AcDbEntity
  8
0
100
AcDbMText
 62
2
  6
CONTINUOUS
  7
STANDARD
 71
2
 72
1
 10
1.5275
 20
-1.6565
 30
0.0
 11
1.0
 21
0.0
 31
0.0
 44
0.9
  1
Weight
 40
0.125
 41
1.2
  0
MTEXT
  5
26C
100
AcDbEntity
  8
0
100
AcDbMText
 62
2
  6
CONTINUOUS
  7
STANDARD
 71
2
 72
1
 10
4.555
 20
-1.6565
 30
0.0
 11
1.0
 21
0.0
 31
0.0
 44
0.9
  1
3.466 lb.
 40
0.125
 41
1.8
  0
MTEXT
  5
26D
100
AcDbEntity
  8
0
100
AcDbMText
 62
2
  6
CONTINUOUS
  7
STANDARD
 71
2
 72
1
 10
7.555
 20
-1.6565
 30
0.0
 11
1.0
 21
0.0
 31
0.0
 44
0.9
  1
1,572 kg.
 40
0.125
 41
1.8
  0
MTEXT
  5
26E
100
AcDbEntity
  8
0
100
AcDbMText
 62
2
  6
CONTINUOUS
  7
STANDARD
 71
2
 72
1
 10
1.5275
 20
-1.9065
 30
0.0
 11
1.0
 21
0.0
 31
0.0
 44
0.9
  1
Mounting Hole Thread
 40
0.125
 41
4.0
  0
MTEXT
  5
26F
100
AcDbEntity
  8
0
100
AcDbMText
 62
2
  6
CONTINUOUS
  7
STANDARD
 71
2
 72
1
 10
4.555
 20
-1.9065
 30
0.0
 11
1.0
 21
0.0
 31
0.0
 44
0.9
  1
.375-16 UNC - 2B in.
 40
0.125
 41
4.0
  0
MTEXT
  5
270
100
AcDbEntity
  8
0
100
AcDbMText
 62
2
  6
CONTINUOUS
  7
STANDARD
 71
2
 72
1
 10
1.5275
 20
-2.1565
 30
0.0
 11
1.0
 21
0.0
 31
0.0
 44
0.9
  1
Mounting Hole Depth
 40
0.125
 41
3.8
  0
MTEXT
  5
271
100
AcDbEntity
  8
0
100
AcDbMText
 62
2
  6
CONTINUOUS
  7
STANDARD
 71
2
 72
1
 10
4.555
 20
-2.1565
 30
0.0
 11
1.0
 21
0.0
 31
0.0
 44
0.9
  1
.62 in.
 40
0.125
 41
1.4
  0
MTEXT
  5
272
100
AcDbEntity
  8
0
100
AcDbMText
 62
2
  6
CONTINUOUS
  7
STANDARD
 71
2
 72
1
 10
7.555
 20
-2.1565
 30
0.0
 11
1.0
 21
0.0
 31
0.0
 44
0.9
  1
15,7 mm
 40
0.125
 41
1.4
  0
MTEXT
  5
273
100
AcDbEntity
  8
0
100
AcDbMText
 62
2
  6
CONTINUOUS
  7
STANDARD
 71
2
 72
1
 10
1.5275
 20
-2.4065
 30
0.0
 11
1.0
 21
0.0
 31
0.0
 44
0.9
  1
Mounting Hole Quantity
 40
0.125
 41
4.4
  0
MTEXT
  5
274
100
AcDbEntity
  8
0
100
AcDbMText
 62
2
  6
CONTINUOUS
  7
STANDARD
 71
2
 72
1
 10
6.055
 20
-2.4065
 30
0.0
 11
1.0
 21
0.0
 31
0.0
 44
0.9
  1
2
 40
0.125
 41
0.2
  0
ENDBLK
  5
275
100
AcDbEntity
  8
0
  6
BYBLOCK
 62
0
100
AcDbBlockEnd
  0
BLOCK
  5
276
100
AcDbEntity
  8
0
100
AcDbBlockBegin
  2
*T3
 70
1
 10
0.0
 20
0.0
  3
*T3
  1

  0
LINE
  5
277
100
AcDbEntity
  8
0
100
AcDbLine
 62
2
  6
CONTINUOUS
 10
0.0
 20
0.0
 11
4.6
 21
0.0
  0
LINE
  5
278
100
AcDbEntity
  8
0
100
AcDbLine
 62
2
  6
CONTINUOUS
 10
0.0
 20
0.0
 11
0.0
 21
-1.43775
  0
LINE
  5
279
100
AcDbEntity
  8
0
100
AcDbLine
 62
2
  6
CONTINUOUS
 10
0.0
 20
-0.34375
 11
4.6
 21
-0.34375
  0
LINE
  5
27A
100
AcDbEntity
  8
0
100
AcDbLine
 62
2
  6
CONTINUOUS
 10
0.0
 20
-0.68775
 11
4.6
 21
-0.68775
  0
LINE
  5
27B
100
AcDbEntity
  8
0
100
AcDbLine
 62
2
  6
CONTINUOUS
 10
0.0
 20
-0.93775
 11
4.6
 21
-0.93775
  0
LINE
  5
27C
100
AcDbEntity
  8
0
100
AcDbLine
 62
2
  6
CONTINUOUS
 10
0.0
 20
-1.18775
 11
4.6
 21
-1.18775
  0
LINE
  5
27D
100
AcDbEntity
  8
0
100
AcDbLine
 62
2
  6
CONTINUOUS
 10
0.0
 20
-1.43775
 11
4.6
 21
-1.43775
  0
LINE
  5
27E
100
AcDbEntity
  8
0
100
AcDbLine
 62
2
  6
CONTINUOUS
 10
1.3
 20
-0.34375
 11
1.3
 21
-1.43775
  0
LINE
  5
27F
100
AcDbEntity
  8
0
100
AcDbLine
 62
2
  6
CONTINUOUS
 10
3.3
 20
-0.34375
 11
3.3
 21
-1.43775
  0
LINE
  5
280
100
AcDbEntity
  8
0
100
AcDbLine
 62
2
  6
CONTINUOUS
 10
4.6
 20
0.0
 11
4.6
 21
-1.43775
  0
MTEXT
  5
281
100
AcDbEntity
  8
0
100
AcDbMText
 62
2
  6
CONTINUOUS
  7
STANDARD
 71
2
 72
1
 10
2.3
 20
-0.099375
 30
0.0
 11
1.0
 21
0.0
 31
0.0
 44
0.9
  1
Port Headings
 40
0.145
 41
3.016
  0
MTEXT
  5
282
100
AcDbEntity
  8
0
100
AcDbMText
 62
2
  6
CONTINUOUS
  7
STANDARD
 71
2
 72
1
 10
0.65
 20
-0.44325
 30
0.0
 11
1.0
 21
0.0
 31
0.0
 44
0.9
  1
Product
 40
0.145
 41
1.624
  0
MTEXT
  5
283
100
AcDbEntity
  8
0
100
AcDbMText
 62
2
  6
CONTINUOUS
  7
STANDARD
 71
2
 72
1
 10
2.3
 20
-0.44325
 30
0.0
 11
1.0
 21
0.0
 31
0.0
 44
0.9
  1
Port
 40
0.145
 41
0.928
  0
MTEXT
  5
284
100
AcDbEntity
  8
0
100
AcDbMText
 62
2
  6
CONTINUOUS
  7
STANDARD
 71
2
 72
1
 10
3.95
 20
-0.44325
 30
0.0
 11
1.0
 21
0.0
 31
0.0
 44
0.9
  1
Size
 40
0.145
 41
0.928
  0
MTEXT
  5
285
100
AcDbEntity
  8
0
100
AcDbMText
 62
2
  6
CONTINUOUS
  7
STANDARD
 71
2
 72
1
 10
0.65
 20
-0.75025
 30
0.0
 11
1.0
 21
0.0
 31
0.0
 44
0.9
  1
B3J
 40
0.125
 41
0.6
  0
MTEXT
  5
286
100
AcDbEntity
  8
0
100
AcDbMText
 62
2
  6
CONTINUOUS
  7
STANDARD
 71
2
 72
1
 10
2.3
 20
-0.75025
 30
0.0
 11
1.0
 21
0.0
 31
0.0
 44
0.9
  1
Ports 1 &  2
 40
0.125
 41
2.4
  0
MTEXT
  5
287
100
AcDbEntity
  8
0
100
AcDbMText
 62
2
  6
CONTINUOUS
  7
STANDARD
 71
2
 72
1
 10
3.95
 20
-0.75025
 30
0.0
 11
1.0
 21
0.0
 31
0.0
 44
0.9
  1
SAE 8
 40
0.125
 41
1.0
  0
MTEXT
  5
288
100
AcDbEntity
  8
0
100
AcDbMText
 62
2
  6
CONTINUOUS
  7
STANDARD
 71
2
 72
1
 10
0.65
 20
-1.00025
 30
0.0
 11
1.0
 21
0.0
 31
0.0
 44
0.9
  1
B3J
 40
0.125
 41
0.6
  0
MTEXT
  5
289
100
AcDbEntity
  8
0
100
AcDbMText
 62
2
  6
CONTINUOUS
  7
STANDARD
 71
2
 72
1
 10
2.3
 20
-1.00025
 30
0.0
 11
1.0
 21
0.0
 31
0.0
 44
0.9
  1
Port 3
 40
0.125
 41
1.2
  0
MTEXT
  5
28A
100
AcDbEntity
  8
0
100
AcDbMText
 62
2
  6
CONTINUOUS
  7
STANDARD
 71
2
 72
1
 10
3.95
 20
-1.00025
 30
0.0
 11
1.0
 21
0.0
 31
0.0
 44
0.9
  1
SAE 6
 40
0.125
 41
1.0
  0
MTEXT
  5
28B
100
AcDbEntity
  8
0
100
AcDbMText
 62
2
  6
CONTINUOUS
  7
STANDARD
 71
2
 72
1
 10
0.65
 20
-1.25025
 30
0.0
 11
1.0
 21
0.0
 31
0.0
 44
0.9
  1
B3J
 40
0.125
 41
0.6
  0
MTEXT
  5
28C
100
AcDbEntity
  8
0
100
AcDbMText
 62
2
  6
CONTINUOUS
  7
STANDARD
 71
2
 72
1
 10
2.3
 20
-1.25025
 30
0.0
 11
1.0
 21
0.0
 31
0.0
 44
0.9
  1
Gage Port
 40
0.125
 41
1.8
  0
MTEXT
  5
28D
100
AcDbEntity
  8
0
100
AcDbMText
 62
2
  6
CONTINUOUS
  7
STANDARD
 71
2
 72
1
 10
3.95
 20
-1.25025
 30
0.0
 11
1.0
 21
0.0
 31
0.0
 44
0.9
  1
1/4" NPTF
 40
0.125
 41
1.8
  0
ENDBLK
  5
28E
100
AcDbEntity
  8
0
  6
BYBLOCK
 62
0
100
AcDbBlockEnd
  0
ENDSEC
  0
SECTION
  2
ENTITIES
  0
IMAGE
  5
28F
100
AcDbEntity
  8
0
100
AcDbRasterImage
 62
7
  6
CONTINUOUS
 10
19.2297077316
 20
0.3094318264
 30
0.0
 11
0.0066666667
 21
0.0
 31
0.0
 12
0.0
 22
0.0066666667
 32
0.0
 13
369.0
 23
92.0
340
       3C6
 70
9
280
0
281
50
282
50
283
0
360
       3C0
 71
1
 91
2
 14
-0.5
 24
-0.5
 14
368.5
 24
91.5
  0
INSERT
  5
290
100
AcDbEntity
  8
0
100
AcDbBlockReference
 62
2
  6
CONTINUOUS
  2
SUN_FIRST_THIRD_ANGLE_BL0
 10
20.4816717061
 20
1.2289683772
  0
ACAD_TABLE
  5
291
100
AcDbEntity
  8
0
 62
2
  6
CONTINUOUS
100
AcDbBlockReference
  2
*T1
 10
12.42375
 20
0.30125
 30
0.0
100
AcDbTable
342
       3C8
343
20F
 11
1.0
 21
0.0
 31
0.0
 90
6
 91
4
 92
6
 93
20
 94
0
 95
0
 96
0
 70
1
 41
0.0
141
0.525
141
0.1
141
0.525
141
0.1
142
4.1
142
1.1
142
0.7
142
0.5
142
0.4
142
2.475
171
1
172
0
173
0
174
0
175
1
176
1
 91
33
178
0
145
0.0
301
CELL_VALUE
 90
4
  1
T-2A Line mount\PThrough port 2 with reverse flow check
304
ACVALUE_END
170
2
140
0.125
171
1
172
0
173
0
174
0
175
1
176
1
 91
33
178
0
145
0.0
301
CELL_VALUE
 90
4
  1
Oct-04-19
304
ACVALUE_END
170
5
140
0.125
171
1
172
0
173
0
174
0
175
1
176
1
 91
33
178
0
145
0.0
301
CELL_VALUE
 90
4
  1
1.000
304
ACVALUE_END
170
5
140
0.125
171
1
172
0
173
0
174
0
175
1
176
1
 91
33
178
0
145
0.0
301
CELL_VALUE
 90
4
  1
C
304
ACVALUE_END
170
5
140
0.125
171
1
172
0
173
0
174
0
175
1
176
1
 91
33
178
0
145
0.0
301
CELL_VALUE
 90
4
  1
2
304
ACVALUE_END
170
5
140
0.125
171
1
172
0
173
0
174
0
175
1
176
1
 91
33
178
0
145
0.0
301
CELL_VALUE
 90
4
  1
 
304
ACVALUE_END
170
1
140
0.125
171
1
172
0
173
0
174
0
175
1
176
1
 91
33
178
0
145
0.0
301
CELL_VALUE
 90
4
  1
DESCRIPTION
304
ACVALUE_END
170
1
140
0.06
171
1
172
0
173
0
174
0
175
1
176
1
 91
33
178
0
145
0.0
301
CELL_VALUE
 90
4
  1
DATE
304
ACVALUE_END
170
1
140
0.06
171
1
172
0
173
0
174
0
175
1
176
1
 91
33
178
0
145
0.0
301
CELL_VALUE
 90
4
  1
SCALE
304
ACVALUE_END
170
1
140
0.06
171
1
172
0
173
0
174
0
175
1
176
1
 91
33
178
0
145
0.0
301
CELL_VALUE
 90
4
  1
DWG SIZE
304
ACVALUE_END
170
1
140
0.06
171
1
172
0
173
0
174
0
175
1
176
1
 91
33
178
0
145
0.0
301
CELL_VALUE
 90
4
  1
SHEET
304
ACVALUE_END
170
1
140
0.06
171
1
172
0
173
0
174
0
175
1
176
1
 91
33
178
0
145
0.0
301
CELL_VALUE
 90
4
  1
 
304
ACVALUE_END
170
1
140
0.125
171
1
172
0
173
0
174
0
175
1
176
1
 91
33
178
0
145
0.0
301
CELL_VALUE
 90
4
  1
B3J
304
ACVALUE_END
170
5
140
0.125
171
1
172
0
173
0
174
0
175
4
176
1
 91
33
178
0
145
0.0
301
CELL_VALUE
 90
4
  1
ALL DIMENSIONS IN INCH\PVIEWS ARE THIRD ANGLE
304
ACVALUE_END
170
5
140
0.12
171
1
172
0
173
1
174
0
175
1
176
1
 91
1
178
0
145
0.0
170
1
171
1
172
0
173
1
174
0
175
1
176
1
 91
1
178
0
145
0.0
170
1
171
1
172
0
173
1
174
0
175
1
176
1
 91
1
178
0
145
0.0
170
5
171
1
172
0
173
0
174
0
175
1
176
1
 91
33
178
0
145
0.0
301
CELL_VALUE
 90
4
  1
 
304
ACVALUE_END
170
1
140
0.125
171
1
172
0
173
0
174
0
175
1
176
1
 91
33
178
0
145
0.0
301
CELL_VALUE
 90
4
  1
MODEL
304
ACVALUE_END
170
1
140
0.06
171
1
172
0
173
0
174
0
175
1
176
1
 91
33
178
0
145
0.0
301
CELL_VALUE
 90
4
  1
 
304
ACVALUE_END
170
1
140
0.125
171
1
172
0
173
0
174
0
175
1
176
1
 91
33
178
0
145
0.0
301
CELL_VALUE
 90
4
  1
 
304
ACVALUE_END
170
1
140
0.125
171
1
172
0
173
0
174
0
175
1
176
1
 91
33
178
0
145
0.0
301
CELL_VALUE
 90
4
  1
 
304
ACVALUE_END
170
1
140
0.125
171
1
172
0
173
0
174
0
175
1
176
1
 91
33
178
0
145
0.0
301
CELL_VALUE
 90
4
  1
 
304
ACVALUE_END
170
1
140
0.125
171
1
172
0
173
0
174
0
175
1
176
1
 91
33
178
0
145
0.0
301
CELL_VALUE
 90
4
  1
 
304
ACVALUE_END
170
1
140
0.125
  0
ACAD_TABLE
  5
292
100
AcDbEntity
  8
0
 62
2
  6
CONTINUOUS
100
AcDbBlockReference
  2
*T2
 10
12.4237499994
 20
16.47875
 30
0.0
100
AcDbTable
342
       3C7
343
210
 11
1.0
 21
0.0
 31
0.0
 90
22
 91
10
 92
3
 93
16
 94
0
 95
0
 96
0
 41
0.028
141
0.344
141
0.25
141
0.25
141
0.25
141
0.25
141
0.25
141
0.25
141
0.25
141
0.25
141
0.25
142
3.055
142
3.0
142
3.0
171
1
172
0
173
0
174
0
175
1
176
1
 91
33
178
0
145
0.0
301
CELL_VALUE
 90
4
  1
Technical Data
304
ACVALUE_END
170
5
140
0.145
171
1
172
0
173
0
174
0
175
1
176
1
 91
33
178
0
145
0.0
301
CELL_VALUE
 90
4
  1
U.S. Units
304
ACVALUE_END
170
5
140
0.145
171
1
172
0
173
0
174
0
175
1
176
1
 91
33
178
0
145
0.0
301
CELL_VALUE
 90
4
  1
Metric Units
304
ACVALUE_END
170
5
140
0.145
171
1
172
0
173
0
174
0
175
1
176
1
 91
33
178
0
145
0.0
301
CELL_VALUE
 90
4
  1
Cavity
304
ACVALUE_END
170
5
140
0.125
171
1
172
0
173
0
174
0
175
2
176
1
 91
33
178
0
145
0.0
301
CELL_VALUE
 90
4
  1
T-2A
304
ACVALUE_END
170
5
140
0.125
171
1
172
0
173
1
174
0
175
1
176
1
 91
1
178
0
145
0.0
170
1
171
1
172
0
173
0
174
0
175
1
176
1
 91
33
178
0
145
0.0
301
CELL_VALUE
 90
4
  1
Body Features
304
ACVALUE_END
170
5
140
0.125
171
1
172
0
173
0
174
0
175
2
176
1
 91
33
178
0
145
0.0
301
CELL_VALUE
 90
4
  1
Through port 2 with reverse flow check
304
ACVALUE_END
170
5
140
0.125
171
1
172
0
173
1
174
0
175
1
176
1
 91
1
178
0
145
0.0
170
1
171
1
172
0
173
0
174
0
175
1
176
1
 91
33
178
0
145
0.0
301
CELL_VALUE
 90
4
  1
Body Type
304
ACVALUE_END
170
5
140
0.125
171
1
172
0
173
0
174
0
175
2
176
1
 91
33
178
0
145
0.0
301
CELL_VALUE
 90
4
  1
Line mount
304
ACVALUE_END
170
5
140
0.125
171
1
172
0
173
1
174
0
175
1
176
1
 91
1
178
0
145
0.0
170
1
171
1
172
0
173
0
174
0
175
1
176
1
 91
33
178
0
145
0.0
301
CELL_VALUE
 90
4
  1
Interface
304
ACVALUE_END
170
5
140
0.125
171
1
172
0
173
0
174
0
175
2
176
1
 91
33
178
0
145
0.0
301
CELL_VALUE
 90
4
  1
None
304
ACVALUE_END
170
5
140
0.125
171
1
172
0
173
1
174
0
175
1
176
1
 91
1
178
0
145
0.0
170
1
171
1
172
0
173
0
174
0
175
1
176
1
 91
33
178
0
145
0.0
301
CELL_VALUE
 90
4
  1
Open Cavity Quantity
304
ACVALUE_END
170
5
140
0.125
171
1
172
0
173
0
174
0
175
2
176
1
 91
33
178
0
145
0.0
301
CELL_VALUE
 90
4
  1
1
304
ACVALUE_END
170
5
140
0.125
171
1
172
0
173
1
174
0
175
1
176
1
 91
1
178
0
145
0.0
170
1
171
1
172
0
173
0
174
0
175
1
176
1
 91
33
178
0
145
0.0
301
CELL_VALUE
 90
4
  1
Weight
304
ACVALUE_END
170
5
140
0.125
171
1
172
0
173
0
174
0
175
1
176
1
 91
33
178
0
145
0.0
301
CELL_VALUE
 90
4
  1
3.466 lb.
304
ACVALUE_END
170
5
140
0.125
171
1
172
0
173
0
174
0
175
1
176
1
 91
33
178
0
145
0.0
301
CELL_VALUE
 90
4
  1
1,572 kg.
304
ACVALUE_END
170
5
140
0.125
171
1
172
0
173
0
174
0
175
1
176
1
 91
33
178
0
145
0.0
301
CELL_VALUE
 90
4
  1
Mounting Hole Thread
304
ACVALUE_END
170
5
140
0.125
171
1
172
0
173
0
174
0
175
1
176
1
 91
33
178
0
145
0.0
301
CELL_VALUE
 90
4
  1
.375-16 UNC - 2B in.
304
ACVALUE_END
170
5
140
0.125
171
1
172
0
173
0
174
0
175
1
176
1
 91
33
178
0
145
0.0
301
CELL_VALUE
 90
4
  1
 
304
ACVALUE_END
170
5
140
0.125
171
1
172
0
173
0
174
0
175
1
176
1
 91
33
178
0
145
0.0
301
CELL_VALUE
 90
4
  1
Mounting Hole Depth
304
ACVALUE_END
170
5
140
0.125
171
1
172
0
173
0
174
0
175
1
176
1
 91
33
178
0
145
0.0
301
CELL_VALUE
 90
4
  1
.62 in.
304
ACVALUE_END
170
5
140
0.125
171
1
172
0
173
0
174
0
175
1
176
1
 91
33
178
0
145
0.0
301
CELL_VALUE
 90
4
  1
15,7 mm
304
ACVALUE_END
170
5
140
0.125
171
1
172
0
173
0
174
0
175
1
176
1
 91
33
178
0
145
0.0
301
CELL_VALUE
 90
4
  1
Mounting Hole Quantity
304
ACVALUE_END
170
5
140
0.125
171
1
172
0
173
0
174
0
175
2
176
1
 91
33
178
0
145
0.0
301
CELL_VALUE
 90
4
  1
2
304
ACVALUE_END
170
5
140
0.125
171
1
172
0
173
1
174
0
175
1
176
1
 91
1
178
0
145
0.0
170
1
  0
ACAD_TABLE
  5
293
100
AcDbEntity
  8
0
 62
2
  6
CONTINUOUS
100
AcDbBlockReference
  2
*T3
 10
0.52125
 20
1.959
 30
0.0
100
AcDbTable
342
       3C7
343
211
 11
1.0
 21
0.0
 31
0.0
 90
22
 91
5
 92
3
 93
16
 94
0
 95
0
 96
0
 41
0.05
141
0.34375
141
0.344
141
0.25
141
0.25
141
0.25
142
1.3
142
2.0
142
1.3
171
1
172
0
173
0
174
0
175
3
176
1
 91
33
178
0
145
0.0
301
CELL_VALUE
 90
4
  1
Port Headings
304
ACVALUE_END
170
5
140
0.145
171
1
172
0
173
1
174
0
175
1
176
1
 91
1
178
0
145
0.0
170
1
171
1
172
0
173
1
174
0
175
1
176
1
 91
1
178
0
145
0.0
170
1
171
1
172
0
173
0
174
0
175
1
176
1
 91
33
178
0
145
0.0
301
CELL_VALUE
 90
4
  1
Product
304
ACVALUE_END
170
5
140
0.145
171
1
172
0
173
0
174
0
175
1
176
1
 91
33
178
0
145
0.0
301
CELL_VALUE
 90
4
  1
Port
304
ACVALUE_END
170
5
140
0.145
171
1
172
0
173
0
174
0
175
1
176
1
 91
33
178
0
145
0.0
301
CELL_VALUE
 90
4
  1
Size
304
ACVALUE_END
170
5
140
0.145
171
1
172
0
173
0
174
0
175
1
176
1
 91
33
178
0
145
0.0
301
CELL_VALUE
 90
4
  1
B3J
304
ACVALUE_END
170
5
140
0.125
171
1
172
0
173
0
174
0
175
1
176
1
 91
33
178
0
145
0.0
301
CELL_VALUE
 90
4
  1
Ports 1 &  2
304
ACVALUE_END
170
5
140
0.125
171
1
172
0
173
0
174
0
175
1
176
1
 91
33
178
0
145
0.0
301
CELL_VALUE
 90
4
  1
SAE 8
304
ACVALUE_END
170
5
140
0.125
171
1
172
0
173
0
174
0
175
1
176
1
 91
33
178
0
145
0.0
301
CELL_VALUE
 90
4
  1
B3J
304
ACVALUE_END
170
5
140
0.125
171
1
172
0
173
0
174
0
175
1
176
1
 91
33
178
0
145
0.0
301
CELL_VALUE
 90
4
  1
Port 3
304
ACVALUE_END
170
5
140
0.125
171
1
172
0
173
0
174
0
175
1
176
1
 91
33
178
0
145
0.0
301
CELL_VALUE
 90
4
  1
SAE 6
304
ACVALUE_END
170
5
140
0.125
171
1
172
0
173
0
174
0
175
1
176
1
 91
33
178
0
145
0.0
301
CELL_VALUE
 90
4
  1
B3J
304
ACVALUE_END
170
5
140
0.125
171
1
172
0
173
0
174
0
175
1
176
1
 91
33
178
0
145
0.0
301
CELL_VALUE
 90
4
  1
Gage Port
304
ACVALUE_END
170
5
140
0.125
171
1
172
0
173
0
174
0
175
1
176
1
 91
33
178
0
145
0.0
301
CELL_VALUE
 90
4
  1
1/4" NPTF
304
ACVALUE_END
170
5
140
0.125
  0
MTEXT
  5
294
100
AcDbEntity
  8
0
100
AcDbMText
 62
2
  6
CONTINUOUS
  7
STANDARD
 71
1
 72
1
 10
0.52125
 20
5.75995
 30
0.0
 11
1.0
 21
0.0
 31
0.0
 44
0.6
  3
Notes\P \P1. Important: Carefully consider\P   the maximum system pressure. The\P   pressure rating of the manifold is\P   dependent on the manifold material,\P   with the port type/size a secondary\P   consideration. Manifolds\P   constructed of alu
  1
minum are not\P   rated for pressures higher than\P   3000 psi (210 bar), regardless of\P   the port type/size specified.
 40
0.1
 41
3.04
  0
LINE
  5
295
100
AcDbEntity
  8
0
100
AcDbLine
 62
7
  6
CONTINUOUS
 10
0.30125
 20
0.30125
 11
0.30125
 21
16.69875
  0
LINE
  5
296
100
AcDbEntity
  8
0
100
AcDbLine
 62
7
  6
CONTINUOUS
 10
0.30125
 20
0.30125
 11
21.69875
 21
0.30125
  0
LINE
  5
297
100
AcDbEntity
  8
0
100
AcDbLine
 62
7
  6
CONTINUOUS
 10
0.30125
 20
16.69875
 11
21.69875
 21
16.69875
  0
LINE
  5
298
100
AcDbEntity
  8
0
100
AcDbLine
 62
7
  6
CONTINUOUS
 10
21.69875
 20
0.30125
 11
21.69875
 21
16.69875
  0
LINE
  5
299
100
AcDbEntity
  8
0
100
AcDbLine
 62
7
  6
CONTINUOUS
 10
8.7108543054
 20
9.3834429817
 11
8.6905076777
 21
9.3489455842
  0
LINE
  5
29A
100
AcDbEntity
  8
0
100
AcDbLine
 62
7
  6
CONTINUOUS
 10
9.5618745988
 20
10.5182332808
 11
8.7854181043
 21
9.7682338553
  0
LINE
  5
29B
100
AcDbEntity
  8
0
100
AcDbLine
 62
4
  6
CONTINUOUS
 10
9.4084402993
 20
6.8156583536
 11
9.3987810404
 21
6.8235726694
  0
LINE
  5
29C
100
AcDbEntity
  8
0
100
AcDbLine
 62
7
  6
CONTINUOUS
 10
8.7854181043
 20
6.7497154693
 11
8.7854181043
 21
9.7682338553
  0
LINE
  5
29D
100
AcDbEntity
  8
0
100
AcDbLine
 62
4
  6
CONTINUOUS
 10
9.476055109
 20
6.8761692463
 11
9.4953736286
 21
6.8603406145
  0
LINE
  5
29E
100
AcDbEntity
  8
0
100
AcDbLine
 62
4
  6
CONTINUOUS
 10
9.3987810404
 20
6.8235726694
 11
9.3891217815
 21
6.8387314293
  0
LINE
  5
29F
100
AcDbEntity
  8
0
100
AcDbLine
 62
4
  6
CONTINUOUS
 10
9.4953736286
 20
6.8603406145
 11
9.5050328849
 21
6.8451818549
  0
LINE
  5
2A0
100
AcDbEntity
  8
0
100
AcDbLine
 62
7
  6
CONTINUOUS
 10
8.6297402216
 20
8.3394828065
 11
8.6218207415
 21
8.3585100702
  0
LINE
  5
2A1
100
AcDbEntity
  8
0
100
AcDbLine
 62
7
  6
CONTINUOUS
 10
8.7854181043
 20
6.7497154693
 11
12.6491216383
 21
6.4817667192
  0
LINE
  5
2A2
100
AcDbEntity
  8
0
100
AcDbLine
 62
4
  6
CONTINUOUS
 10
9.4470773332
 20
6.8854233058
 11
9.476055109
 21
6.8761692463
  0
LINE
  5
2A3
100
AcDbEntity
  8
0
100
AcDbLine
 62
4
  6
CONTINUOUS
 10
9.4470773332
 20
6.8129788662
 11
9.4084402993
 21
6.8156583536
  0
LINE
  5
2A4
100
AcDbEntity
  8
0
100
AcDbLine
 62
4
  6
CONTINUOUS
 10
11.2668816771
 20
6.7012638942
 11
11.2475631644
 21
6.7026036376
  0
LINE
  5
2A5
100
AcDbEntity
  8
0
100
AcDbLine
 62
4
  6
CONTINUOUS
 10
9.3891217815
 20
6.8387314293
 11
9.3891217815
 21
6.8532203172
  0
LINE
  5
2A6
100
AcDbEntity
  8
0
100
AcDbLine
 62
4
  6
CONTINUOUS
 10
9.4470773332
 20
6.8419566421
 11
9.4470773332
 21
6.8129788662
  0
LINE
  5
2A7
100
AcDbEntity
  8
0
100
AcDbLine
 62
4
  6
CONTINUOUS
 10
9.5050328849
 20
6.8451818549
 11
9.5050328849
 21
6.8306929669
  0
LINE
  5
2A8
100
AcDbEntity
  8
0
100
AcDbLine
 62
4
  6
CONTINUOUS
 10
11.199266869
 20
6.7566641049
 11
11.1702890932
 21
6.7659181644
  0
LINE
  5
2A9
100
AcDbEntity
  8
0
100
AcDbLine
 62
4
  6
CONTINUOUS
 10
9.4180995573
 20
6.8801884775
 11
9.4470773332
 21
6.8854233058
  0
LINE
  5
2AA
100
AcDbEntity
  8
0
100
AcDbLine
 62
4
  6
CONTINUOUS
 10
11.2475631644
 20
6.7026036376
 11
11.2379039012
 21
6.7105179538
  0
LINE
  5
2AB
100
AcDbEntity
  8
0
100
AcDbLine
 62
4
  6
CONTINUOUS
 10
11.2185853851
 20
6.7408354733
 11
11.199266869
 21
6.7566641049
  0
LINE
  5
2AC
100
AcDbEntity
  8
0
100
AcDbLine
 62
4
  6
CONTINUOUS
 10
11.2668816771
 20
6.759219446
 11
11.2765409403
 21
6.7513051298
  0
LINE
  5
2AD
100
AcDbEntity
  8
0
100
AcDbLine
 62
4
  6
CONTINUOUS
 10
11.1505566263
 20
7.5521704798
 11
11.175394721
 21
7.5504479521
  0
LINE
  5
2AE
100
AcDbEntity
  8
0
100
AcDbLine
 62
4
  6
CONTINUOUS
 10
11.191953449
 20
7.5989757087
 11
11.2167915411
 21
7.5972531811
  0
LINE
  5
2AF
100
AcDbEntity
  8
0
100
AcDbLine
 62
4
  6
CONTINUOUS
 10
11.2765409403
 20
9.4240220567
 11
11.2668816771
 21
9.4174474849
  0
LINE
  5
2B0
100
AcDbEntity
  8
0
100
AcDbLine
 62
4
  6
CONTINUOUS
 10
11.1505566263
 20
7.6763609162
 11
11.2167915411
 21
7.6717675093
  0
LINE
  5
2B1
100
AcDbEntity
  8
0
100
AcDbLine
 62
4
  6
CONTINUOUS
 10
11.1422772613
 20
7.7210917003
 11
11.2250709086
 21
7.7153499414
  0
LINE
  5
2B2
100
AcDbEntity
  8
0
100
AcDbLine
 62
4
  6
CONTINUOUS
 10
11.2499089973
 20
7.7136274141
 11
11.2581883648
 21
7.713053238
  0
LINE
  5
2B3
100
AcDbEntity
  8
0
100
AcDbLine
 62
4
  6
CONTINUOUS
 10
10.5511306338
 20
7.7814063372
 11
10.6670417373
 21
7.7733678749
  0
LINE
  5
2B4
100
AcDbEntity
  8
0
100
AcDbLine
 62
4
  6
CONTINUOUS
 10
10.6504830092
 20
7.8214326677
 11
10.5676893636
 21
7.8271744265
  0
LINE
  5
2B5
100
AcDbEntity
  8
0
100
AcDbLine
 62
4
  6
CONTINUOUS
 10
11.1505566263
 20
7.7950317973
 11
11.2581883648
 21
7.7875675109
  0
LINE
  5
2B6
100
AcDbEntity
  8
0
100
AcDbLine
 62
4
  6
CONTINUOUS
 10
11.1422772613
 20
7.8287234155
 11
11.2250709086
 21
7.8229816566
  0
LINE
  5
2B7
100
AcDbEntity
  8
0
100
AcDbLine
 62
4
  6
CONTINUOUS
 10
10.5511306338
 20
7.8862783301
 11
10.6670417373
 21
7.8782398677
  0
LINE
  5
2B8
100
AcDbEntity
  8
0
100
AcDbLine
 62
4
  6
CONTINUOUS
 10
10.6504830092
 20
7.9125056618
 11
10.5676893636
 21
7.9182474206
  0
LINE
  5
2B9
100
AcDbEntity
  8
0
100
AcDbLine
 62
4
  6
CONTINUOUS
 10
11.2250709086
 20
7.8726578754
 11
11.1505566263
 21
7.8778254584
  0
LINE
  5
2BA
100
AcDbEntity
  8
0
100
AcDbLine
 62
4
  6
CONTINUOUS
 10
11.2581883648
 20
7.7102934604
 11
11.2499089973
 21
7.7136274141
  0
LINE
  5
2BB
100
AcDbEntity
  8
0
100
AcDbLine
 62
4
  6
CONTINUOUS
 10
10.5676893636
 20
7.8271744265
 11
10.5511306338
 21
7.8448814995
  0
LINE
  5
2BC
100
AcDbEntity
  8
0
100
AcDbLine
 62
4
  6
CONTINUOUS
 10
10.5676893636
 20
7.9182474206
 11
10.5511306338
 21
7.9359544936
  0
LINE
  5
2BD
100
AcDbEntity
  8
0
100
AcDbLine
 62
4
  6
CONTINUOUS
 10
10.6504830092
 20
7.9704612135
 11
10.6670417373
 21
7.9527541406
  0
LINE
  5
2BE
100
AcDbEntity
  8
0
100
AcDbLine
 62
4
  6
CONTINUOUS
 10
11.2379039012
 20
6.7105179538
 11
11.2185853851
 21
6.7408354733
  0
LINE
  5
2BF
100
AcDbEntity
  8
0
100
AcDbLine
 62
4
  6
CONTINUOUS
 10
11.2765409403
 20
6.7513051298
 11
11.2862001966
 21
6.7361463702
  0
LINE
  5
2C0
100
AcDbEntity
  8
0
100
AcDbLine
 62
4
  6
CONTINUOUS
 10
10.6008068215
 20
7.6510110679
 11
10.5787285157
 21
7.6966988118
  0
LINE
  5
2C1
100
AcDbEntity
  8
0
100
AcDbLine
 62
4
  6
CONTINUOUS
 10
10.5511306338
 20
8.2478105562
 11
10.5511306338
 21
8.1981343651
  0
LINE
  5
2C2
100
AcDbEntity
  8
0
100
AcDbLine
 62
4
  6
CONTINUOUS
 10
10.5511306338
 20
7.7814063372
 11
10.5511306338
 21
7.7317301737
  0
LINE
  5
2C3
100
AcDbEntity
  8
0
100
AcDbLine
 62
4
  6
CONTINUOUS
 10
10.5511306338
 20
7.8448814995
 11
10.5511306338
 21
7.8862783301
  0
LINE
  5
2C4
100
AcDbEntity
  8
0
100
AcDbLine
 62
4
  6
CONTINUOUS
 10
10.5511306338
 20
7.9359544936
 11
10.5511306338
 21
7.9607926029
  0
LINE
  5
2C5
100
AcDbEntity
  8
0
100
AcDbLine
 62
4
  6
CONTINUOUS
 10
10.5511306338
 20
8.02426771
 11
10.5511306338
 21
8.0573851523
  0
LINE
  5
2C6
100
AcDbEntity
  8
0
100
AcDbLine
 62
4
  6
CONTINUOUS
 10
10.5511306338
 20
8.5099904347
 11
10.5511306338
 21
8.5513872514
  0
LINE
  5
2C7
100
AcDbEntity
  8
0
100
AcDbLine
 62
4
  6
CONTINUOUS
 10
10.5842480935
 20
8.4331794513
 11
10.5842480935
 21
8.3890228431
  0
LINE
  5
2C8
100
AcDbEntity
  8
0
100
AcDbLine
 62
4
  6
CONTINUOUS
 10
10.6008068215
 20
8.6141771153
 11
10.5787285157
 21
8.5715516394
  0
LINE
  5
2C9
100
AcDbEntity
  8
0
100
AcDbLine
 62
4
  6
CONTINUOUS
 10
11.1422772613
 20
7.9115170766
 11
11.2085121806
 21
7.9069236694
  0
LINE
  5
2CA
100
AcDbEntity
  8
0
100
AcDbLine
 62
4
  6
CONTINUOUS
 10
10.5676893636
 20
7.9762029723
 11
10.6504830092
 21
7.9704612135
  0
LINE
  5
2CB
100
AcDbEntity
  8
0
100
AcDbLine
 62
4
  6
CONTINUOUS
 10
11.1505566263
 20
7.9606190642
 11
11.175394721
 21
7.9588965365
  0
LINE
  5
2CC
100
AcDbEntity
  8
0
100
AcDbLine
 62
4
  6
CONTINUOUS
 10
10.8226937912
 20
8.0095744429
 11
10.9220461648
 21
8.0026843324
  0
LINE
  5
2CD
100
AcDbEntity
  8
0
100
AcDbLine
 62
4
  6
CONTINUOUS
 10
11.2167915411
 20
7.9919029325
 11
11.2002328131
 21
7.9930512842
  0
LINE
  5
2CE
100
AcDbEntity
  8
0
100
AcDbLine
 62
4
  6
CONTINUOUS
 10
10.5676893636
 20
8.0727955216
 11
10.6504830092
 21
8.0670537628
  0
LINE
  5
2CF
100
AcDbEntity
  8
0
100
AcDbLine
 62
4
  6
CONTINUOUS
 10
11.1422772613
 20
8.035707513
 11
11.2250709086
 21
8.0299657541
  0
LINE
  5
2D0
100
AcDbEntity
  8
0
100
AcDbLine
 62
4
  6
CONTINUOUS
 10
12.14490835
 20
7.9873561939
 11
12.1352490902
 21
7.9880260658
  0
LINE
  5
2D1
100
AcDbEntity
  8
0
100
AcDbLine
 62
4
  6
CONTINUOUS
 10
10.8144144263
 20
8.0846628917
 11
10.8558112491
 21
8.0817920123
  0
LINE
  5
2D2
100
AcDbEntity
  8
0
100
AcDbLine
 62
7
  6
CONTINUOUS
 10
8.7854181043
 20
8.2254819272
 11
8.7548988344
 21
8.2275984458
  0
LINE
  5
2D3
100
AcDbEntity
  8
0
100
AcDbLine
 62
4
  6
CONTINUOUS
 10
12.2028638983
 20
7.9905814069
 11
12.193204642
 21
7.9912512786
  0
LINE
  5
2D4
100
AcDbEntity
  8
0
100
AcDbLine
 62
4
  6
CONTINUOUS
 10
10.8806493412
 20
8.0828292762
 11
10.9054874368
 21
8.0811067484
  0
LINE
  5
2D5
100
AcDbEntity
  8
0
100
AcDbLine
 62
4
  6
CONTINUOUS
 10
11.2581883648
 20
8.0607865483
 11
11.1422772613
 21
8.0688250106
  0
LINE
  5
2D6
100
AcDbEntity
  8
0
100
AcDbLine
 62
4
  6
CONTINUOUS
 10
10.6504830092
 20
8.0670537628
 11
10.6670417373
 21
8.04934669
  0
LINE
  5
2D7
100
AcDbEntity
  8
0
100
AcDbLine
 62
4
  6
CONTINUOUS
 10
11.1422772613
 20
7.5610239887
 11
11.1505566263
 21
7.5521704798
  0
LINE
  5
2D8
100
AcDbEntity
  8
0
100
AcDbLine
 62
4
  6
CONTINUOUS
 10
10.8061350614
 20
8.0272815159
 11
10.8226937912
 21
8.0095744429
  0
LINE
  5
2D9
100
AcDbEntity
  8
0
100
AcDbLine
 62
4
  6
CONTINUOUS
 10
11.2167915411
 20
7.5972531811
 11
11.2250709086
 21
7.5883996721
  0
LINE
  5
2DA
100
AcDbEntity
  8
0
100
AcDbLine
 62
4
  6
CONTINUOUS
 10
10.8061350614
 20
8.0935164282
 11
10.8144144263
 21
8.0846628917
  0
LINE
  5
2DB
100
AcDbEntity
  8
0
100
AcDbLine
 62
4
  6
CONTINUOUS
 10
11.2167915411
 20
7.6717675093
 11
11.2250709086
 21
7.6629140002
  0
LINE
  5
2DC
100
AcDbEntity
  8
0
100
AcDbLine
 62
4
  6
CONTINUOUS
 10
10.6173655531
 20
7.7436954876
 11
10.6173655531
 21
7.77681293
  0
LINE
  5
2DD
100
AcDbEntity
  8
0
100
AcDbLine
 62
4
  6
CONTINUOUS
 10
10.6173655531
 20
8.210099679
 11
10.6173655531
 21
8.243217149
  0
LINE
  5
2DE
100
AcDbEntity
  8
0
100
AcDbLine
 62
4
  6
CONTINUOUS
 10
10.6670417373
 20
8.5433487891
 11
10.6670417373
 21
8.5019519724
  0
LINE
  5
2DF
100
AcDbEntity
  8
0
100
AcDbLine
 62
4
  6
CONTINUOUS
 10
10.6670417373
 20
8.3391244762
 11
10.6670417373
 21
8.2728895639
  0
LINE
  5
2E0
100
AcDbEntity
  8
0
100
AcDbLine
 62
4
  6
CONTINUOUS
 10
10.6670417373
 20
8.2397720939
 11
10.6670417373
 21
8.1900959028
  0
LINE
  5
2E1
100
AcDbEntity
  8
0
100
AcDbLine
 62
4
  6
CONTINUOUS
 10
10.6670417373
 20
8.04934669
 11
10.6670417373
 21
8.0162292476
  0
LINE
  5
2E2
100
AcDbEntity
  8
0
100
AcDbLine
 62
4
  6
CONTINUOUS
 10
10.6670417373
 20
7.9527541406
 11
10.6670417373
 21
7.9279160312
  0
LINE
  5
2E3
100
AcDbEntity
  8
0
100
AcDbLine
 62
4
  6
CONTINUOUS
 10
10.6670417373
 20
7.8782398677
 11
10.6670417373
 21
7.8368430372
  0
LINE
  5
2E4
100
AcDbEntity
  8
0
100
AcDbLine
 62
4
  6
CONTINUOUS
 10
10.6670417373
 20
7.7733678749
 11
10.6670417373
 21
7.7236917114
  0
LINE
  5
2E5
100
AcDbEntity
  8
0
100
AcDbLine
 62
4
  6
CONTINUOUS
 10
10.8061350614
 20
8.1349132587
 11
10.8061350614
 21
8.0935164282
  0
LINE
  5
2E6
100
AcDbEntity
  8
0
100
AcDbLine
 62
4
  6
CONTINUOUS
 10
10.8061350614
 20
8.0521196114
 11
10.8061350614
 21
8.0272815159
  0
LINE
  5
2E7
100
AcDbEntity
  8
0
100
AcDbLine
 62
4
  6
CONTINUOUS
 10
10.8061350614
 20
8.184589443
 11
10.8061350614
 21
8.2259862666
  0
LINE
  5
2E8
100
AcDbEntity
  8
0
100
AcDbLine
 62
4
  6
CONTINUOUS
 10
9.3891217815
 20
6.8532203172
 11
9.3987810404
 21
6.8670393332
  0
LINE
  5
2E9
100
AcDbEntity
  8
0
100
AcDbLine
 62
4
  6
CONTINUOUS
 10
11.2862001966
 20
9.4378410729
 11
11.2765409403
 21
9.4240220567
  0
LINE
  5
2EA
100
AcDbEntity
  8
0
100
AcDbLine
 62
4
  6
CONTINUOUS
 10
9.5050328849
 20
6.8306929669
 11
9.4953736286
 21
6.8168739507
  0
LINE
  5
2EB
100
AcDbEntity
  8
0
100
AcDbLine
 62
4
  6
CONTINUOUS
 10
10.6670417373
 20
8.5019519724
 11
10.6504830092
 21
8.486541596
  0
LINE
  5
2EC
100
AcDbEntity
  8
0
100
AcDbLine
 62
4
  6
CONTINUOUS
 10
11.2250709086
 20
8.1845139104
 11
11.1422772613
 21
8.16541756
  0
LINE
  5
2ED
100
AcDbEntity
  8
0
100
AcDbLine
 62
4
  6
CONTINUOUS
 10
11.1505566263
 20
8.1179269982
 11
11.2167915411
 21
8.1133335913
  0
LINE
  5
2EE
100
AcDbEntity
  8
0
100
AcDbLine
 62
4
  6
CONTINUOUS
 10
10.847531885
 20
8.1651598354
 11
10.8226937912
 21
8.1668823631
  0
LINE
  5
2EF
100
AcDbEntity
  8
0
100
AcDbLine
 62
4
  6
CONTINUOUS
 10
10.9054874368
 20
8.1694199683
 11
10.8806493412
 21
8.1711424961
  0
LINE
  5
2F0
100
AcDbEntity
  8
0
100
AcDbLine
 62
4
  6
CONTINUOUS
 10
10.8061350614
 20
8.2259862666
 11
10.9220461648
 21
8.2179478043
  0
LINE
  5
2F1
100
AcDbEntity
  8
0
100
AcDbLine
 62
4
  6
CONTINUOUS
 10
10.5511306338
 20
8.2478105562
 11
10.6670417373
 21
8.2397720939
  0
LINE
  5
2F2
100
AcDbEntity
  8
0
100
AcDbLine
 62
7
  6
CONTINUOUS
 10
8.7854181043
 20
8.3722759929
 11
8.6237655366
 21
8.3834866365
  0
LINE
  5
2F3
100
AcDbEntity
  8
0
100
AcDbLine
 62
4
  6
CONTINUOUS
 10
11.2167915411
 20
8.2182055565
 11
11.1422772613
 21
8.2233731393
  0
LINE
  5
2F4
100
AcDbEntity
  8
0
100
AcDbLine
 62
7
  6
CONTINUOUS
 10
8.7854181043
 20
8.4114939357
 11
8.6165415244
 21
8.4232055663
  0
LINE
  5
2F5
100
AcDbEntity
  8
0
100
AcDbLine
 62
4
  6
CONTINUOUS
 10
10.5511306338
 20
8.3140454685
 11
10.6670417373
 21
8.3060070062
  0
LINE
  5
2F6
100
AcDbEntity
  8
0
100
AcDbLine
 62
4
  6
CONTINUOUS
 10
11.1422772613
 20
8.2730493305
 11
11.2581883648
 21
8.2650108681
  0
LINE
  5
2F7
100
AcDbEntity
  8
0
100
AcDbLine
 62
4
  6
CONTINUOUS
 10
10.5511306338
 20
8.446515307
 11
10.6670417373
 21
8.4053593885
  0
LINE
  5
2F8
100
AcDbEntity
  8
0
100
AcDbLine
 62
4
  6
CONTINUOUS
 10
11.1146793795
 20
8.1756108678
 11
11.2250709086
 21
8.1348377469
  0
LINE
  5
2F9
100
AcDbEntity
  8
0
100
AcDbLine
 62
4
  6
CONTINUOUS
 10
10.8226937912
 20
8.1668823631
 11
10.8061350614
 21
8.184589443
  0
LINE
  5
2FA
100
AcDbEntity
  8
0
100
AcDbLine
 62
4
  6
CONTINUOUS
 10
10.5676893636
 20
8.4922833548
 11
10.5511306338
 21
8.5099904347
  0
LINE
  5
2FB
100
AcDbEntity
  8
0
100
AcDbLine
 62
4
  6
CONTINUOUS
 10
10.8806493412
 20
8.1711424961
 11
10.8640906131
 21
8.1888495758
  0
LINE
  5
2FC
100
AcDbEntity
  8
0
100
AcDbLine
 62
4
  6
CONTINUOUS
 10
10.8723699806
 20
8.0972023953
 11
10.8806493412
 21
8.0828292762
  0
LINE
  5
2FD
100
AcDbEntity
  8
0
100
AcDbLine
 62
4
  6
CONTINUOUS
 10
10.6228851291
 20
8.5684893678
 11
10.6008068215
 21
8.6141771153
  0
LINE
  5
2FE
100
AcDbEntity
  8
0
100
AcDbLine
 62
4
  6
CONTINUOUS
 10
10.8640906131
 20
8.1805702118
 11
10.8640906131
 21
8.2219670354
  0
LINE
  5
2FF
100
AcDbEntity
  8
0
100
AcDbLine
 62
4
  6
CONTINUOUS
 10
10.8723699806
 20
8.0972023953
 11
10.8723699806
 21
8.1137611234
  0
LINE
  5
300
100
AcDbEntity
  8
0
100
AcDbLine
 62
4
  6
CONTINUOUS
 10
10.9220461648
 20
8.2179478043
 11
10.9220461648
 21
8.1931097104
  0
LINE
  5
301
100
AcDbEntity
  8
0
100
AcDbLine
 62
4
  6
CONTINUOUS
 10
10.9220461648
 20
8.0937573403
 11
10.9220461648
 21
8.1268747964
  0
LINE
  5
302
100
AcDbEntity
  8
0
100
AcDbLine
 62
4
  6
CONTINUOUS
 10
10.9220461648
 20
8.1931097104
 11
10.9192863734
 21
8.1850217369
  0
LINE
  5
303
100
AcDbEntity
  8
0
100
AcDbLine
 62
4
  6
CONTINUOUS
 10
11.1505566263
 20
8.636767186
 11
11.1422772613
 21
8.629061997
  0
LINE
  5
304
100
AcDbEntity
  8
0
100
AcDbLine
 62
4
  6
CONTINUOUS
 10
10.5511306338
 20
8.0573851523
 11
10.5676893636
 21
8.0727955216
  0
LINE
  5
305
100
AcDbEntity
  8
0
100
AcDbLine
 62
4
  6
CONTINUOUS
 10
10.6670417373
 20
8.4053593885
 11
10.5511306338
 21
8.3802803808
  0
LINE
  5
306
100
AcDbEntity
  8
0
100
AcDbLine
 62
4
  6
CONTINUOUS
 10
11.1422772613
 20
8.3972397945
 11
11.2581883648
 21
8.3892013321
  0
LINE
  5
307
100
AcDbEntity
  8
0
100
AcDbLine
 62
4
  6
CONTINUOUS
 10
10.6504830092
 20
8.486541596
 11
10.5676893636
 21
8.4922833548
  0
LINE
  5
308
100
AcDbEntity
  8
0
100
AcDbLine
 62
4
  6
CONTINUOUS
 10
11.1422772613
 20
8.4551953462
 11
11.2581883648
 21
8.4471568839
  0
LINE
  5
309
100
AcDbEntity
  8
0
100
AcDbLine
 62
4
  6
CONTINUOUS
 10
11.1588359912
 20
8.4871644505
 11
11.2581883648
 21
8.48027434
  0
LINE
  5
30A
100
AcDbEntity
  8
0
100
AcDbLine
 62
4
  6
CONTINUOUS
 10
10.5511306338
 20
8.5513872514
 11
10.6670417373
 21
8.5433487891
  0
LINE
  5
30B
100
AcDbEntity
  8
0
100
AcDbLine
 62
4
  6
CONTINUOUS
 10
11.175394721
 20
7.9588965365
 11
11.183674085
 21
7.9417636395
  0
LINE
  5
30C
100
AcDbEntity
  8
0
100
AcDbLine
 62
4
  6
CONTINUOUS
 10
11.2167915411
 20
8.1133335913
 11
11.2250709086
 21
8.096200694
  0
LINE
  5
30D
100
AcDbEntity
  8
0
100
AcDbLine
 62
4
  6
CONTINUOUS
 10
11.1146793795
 20
8.192169589
 11
11.1146793795
 21
8.1756108678
  0
LINE
  5
30E
100
AcDbEntity
  8
0
100
AcDbLine
 62
4
  6
CONTINUOUS
 10
11.1422772613
 20
8.629061997
 11
11.1422772613
 21
8.5959445383
  0
LINE
  5
30F
100
AcDbEntity
  8
0
100
AcDbLine
 62
4
  6
CONTINUOUS
 10
11.1422772613
 20
8.529709626
 11
11.1422772613
 21
8.5048715235
  0
LINE
  5
310
100
AcDbEntity
  8
0
100
AcDbLine
 62
4
  6
CONTINUOUS
 10
11.1422772613
 20
7.8701202461
 11
11.1422772613
 21
7.8287234155
  0
LINE
  5
311
100
AcDbEntity
  8
0
100
AcDbLine
 62
4
  6
CONTINUOUS
 10
11.1422772613
 20
7.594141431
 11
11.1422772613
 21
7.5610239887
  0
LINE
  5
312
100
AcDbEntity
  8
0
100
AcDbLine
 62
4
  6
CONTINUOUS
 10
11.1422772613
 20
7.6355382063
 11
11.1422772613
 21
7.6686557592
  0
LINE
  5
313
100
AcDbEntity
  8
0
100
AcDbLine
 62
4
  6
CONTINUOUS
 10
11.1422772613
 20
7.7707678638
 11
11.1422772613
 21
7.787326585
  0
LINE
  5
314
100
AcDbEntity
  8
0
100
AcDbLine
 62
4
  6
CONTINUOUS
 10
11.1422772613
 20
7.9115170766
 11
11.1422772613
 21
7.944634519
  0
LINE
  5
315
100
AcDbEntity
  8
0
100
AcDbLine
 62
4
  6
CONTINUOUS
 10
11.1422772613
 20
8.0688250106
 11
11.1422772613
 21
8.101942453
  0
LINE
  5
316
100
AcDbEntity
  8
0
100
AcDbLine
 62
4
  6
CONTINUOUS
 10
11.1702890932
 20
9.4821017551
 11
11.1702890932
 21
9.4241462034
  0
LINE
  5
317
100
AcDbEntity
  8
0
100
AcDbLine
 62
4
  6
CONTINUOUS
 10
11.1702890932
 20
6.7659181644
 11
11.1702890932
 21
6.7079626127
  0
LINE
  5
318
100
AcDbEntity
  8
0
100
AcDbLine
 62
4
  6
CONTINUOUS
 10
11.183674085
 20
7.9417636395
 11
11.183674085
 21
7.9086461972
  0
LINE
  5
319
100
AcDbEntity
  8
0
100
AcDbLine
 62
4
  6
CONTINUOUS
 10
11.2250709086
 20
8.2673075715
 11
11.2250709086
 21
8.225910741
  0
LINE
  5
31A
100
AcDbEntity
  8
0
100
AcDbLine
 62
4
  6
CONTINUOUS
 10
11.2250709086
 20
8.096200694
 11
11.2250709086
 21
8.0630832517
  0
LINE
  5
31B
100
AcDbEntity
  8
0
100
AcDbLine
 62
4
  6
CONTINUOUS
 10
11.2250709086
 20
8.0299657541
 11
11.2250709086
 21
7.9968483118
  0
LINE
  5
31C
100
AcDbEntity
  8
0
100
AcDbLine
 62
4
  6
CONTINUOUS
 10
11.2250709086
 20
7.6629140002
 11
11.2250709086
 21
7.6297964474
  0
LINE
  5
31D
100
AcDbEntity
  8
0
100
AcDbLine
 62
4
  6
CONTINUOUS
 10
11.2250709086
 20
7.5883996721
 11
11.2250709086
 21
7.5552822298
  0
LINE
  5
31E
100
AcDbEntity
  8
0
100
AcDbLine
 62
4
  6
CONTINUOUS
 10
11.2250709086
 20
7.9140546507
 11
11.2250709086
 21
7.9554514812
  0
LINE
  5
31F
100
AcDbEntity
  8
0
100
AcDbLine
 62
4
  6
CONTINUOUS
 10
10.6228851291
 20
7.6936365402
 11
10.6008068215
 21
7.6510110679
  0
LINE
  5
320
100
AcDbEntity
  8
0
100
AcDbLine
 62
4
  6
CONTINUOUS
 10
10.9192863734
 20
8.1850217369
 11
10.9054874368
 21
8.1694199683
  0
LINE
  5
321
100
AcDbEntity
  8
0
100
AcDbLine
 62
4
  6
CONTINUOUS
 10
11.175394721
 20
8.5770891066
 11
11.2250709086
 21
8.631599603
  0
LINE
  5
322
100
AcDbEntity
  8
0
100
AcDbLine
 62
4
  6
CONTINUOUS
 10
11.1588359912
 20
8.5451200022
 11
11.1422772613
 21
8.529709626
  0
LINE
  5
323
100
AcDbEntity
  8
0
100
AcDbLine
 62
4
  6
CONTINUOUS
 10
10.5511306338
 20
7.9607926029
 11
10.5676893636
 21
7.9762029723
  0
LINE
  5
324
100
AcDbEntity
  8
0
100
AcDbLine
 62
4
  6
CONTINUOUS
 10
11.2581883648
 20
8.5796267119
 11
11.2499089973
 21
8.571921524
  0
LINE
  5
325
100
AcDbEntity
  8
0
100
AcDbLine
 62
4
  6
CONTINUOUS
 10
10.8640906131
 20
8.1805702118
 11
10.847531885
 21
8.1651598354
  0
LINE
  5
326
100
AcDbEntity
  8
0
100
AcDbLine
 62
4
  6
CONTINUOUS
 10
10.6670417373
 20
7.9279160312
 11
10.6504830092
 21
7.9125056618
  0
LINE
  5
327
100
AcDbEntity
  8
0
100
AcDbLine
 62
4
  6
CONTINUOUS
 10
10.8558112491
 20
8.0817920123
 11
10.8723699806
 21
8.0972023953
  0
LINE
  5
328
100
AcDbEntity
  8
0
100
AcDbLine
 62
4
  6
CONTINUOUS
 10
11.2581883648
 20
8.4471568839
 11
11.1422772613
 21
8.3972397945
  0
LINE
  5
329
100
AcDbEntity
  8
0
100
AcDbLine
 62
4
  6
CONTINUOUS
 10
11.2581883648
 20
8.5382298917
 11
11.1588359912
 21
8.5451200022
  0
LINE
  5
32A
100
AcDbEntity
  8
0
100
AcDbLine
 62
4
  6
CONTINUOUS
 10
11.1588359912
 20
8.5782374584
 11
11.175394721
 21
8.5770891066
  0
LINE
  5
32B
100
AcDbEntity
  8
0
100
AcDbLine
 62
4
  6
CONTINUOUS
 10
11.2250709086
 20
8.631599603
 11
11.2416296367
 21
8.6304512513
  0
LINE
  5
32C
100
AcDbEntity
  8
0
100
AcDbLine
 62
4
  6
CONTINUOUS
 10
9.9831660867
 20
8.7820290508
 11
9.8672549833
 21
8.7900675132
  0
LINE
  5
32D
100
AcDbEntity
  8
0
100
AcDbLine
 62
4
  6
CONTINUOUS
 10
11.1422772613
 20
8.5048715235
 11
11.1588359912
 21
8.4871644505
  0
LINE
  5
32E
100
AcDbEntity
  8
0
100
AcDbLine
 62
4
  6
CONTINUOUS
 10
11.1422772613
 20
8.5959445383
 11
11.1588359912
 21
8.5782374584
  0
LINE
  5
32F
100
AcDbEntity
  8
0
100
AcDbLine
 62
4
  6
CONTINUOUS
 10
11.2581883648
 20
8.6127441698
 11
11.2581883648
 21
8.5796267119
  0
LINE
  5
330
100
AcDbEntity
  8
0
100
AcDbLine
 62
4
  6
CONTINUOUS
 10
11.2581883648
 20
7.713053238
 11
11.2581883648
 21
7.7102934604
  0
LINE
  5
331
100
AcDbEntity
  8
0
100
AcDbLine
 62
4
  6
CONTINUOUS
 10
11.2862001966
 20
9.4523299609
 11
11.2862001966
 21
9.4378410729
  0
LINE
  5
332
100
AcDbEntity
  8
0
100
AcDbLine
 62
4
  6
CONTINUOUS
 10
11.2862001966
 20
6.7361463702
 11
11.2862001966
 21
6.7216574822
  0
LINE
  5
333
100
AcDbEntity
  8
0
100
AcDbLine
 62
4
  6
CONTINUOUS
 10
11.180914297
 20
7.5583445012
 11
11.186433873
 21
7.5910791596
  0
LINE
  5
334
100
AcDbEntity
  8
0
100
AcDbLine
 62
4
  6
CONTINUOUS
 10
11.1422772613
 20
8.101942453
 11
11.1505566263
 21
8.1179269982
  0
LINE
  5
335
100
AcDbEntity
  8
0
100
AcDbLine
 62
4
  6
CONTINUOUS
 10
11.1422772613
 20
7.944634519
 11
11.1505566263
 21
7.9606190642
  0
LINE
  5
336
100
AcDbEntity
  8
0
100
AcDbLine
 62
7
  6
CONTINUOUS
 10
12.6491216383
 20
9.5002851052
 11
13.4255781329
 21
10.2502845307
  0
LINE
  5
337
100
AcDbEntity
  8
0
100
AcDbLine
 62
4
  6
CONTINUOUS
 10
10.6670417373
 20
7.8368430372
 11
10.6504830092
 21
7.8214326677
  0
LINE
  5
338
100
AcDbEntity
  8
0
100
AcDbLine
 62
4
  6
CONTINUOUS
 10
11.2250709086
 20
8.225910741
 11
11.2167915411
 21
8.2182055565
  0
LINE
  5
339
100
AcDbEntity
  8
0
100
AcDbLine
 62
4
  6
CONTINUOUS
 10
10.9054874368
 20
8.0811067484
 11
10.9220461648
 21
8.0937573403
  0
LINE
  5
33A
100
AcDbEntity
  8
0
100
AcDbLine
 62
7
  6
CONTINUOUS
 10
8.7854181043
 20
8.9766004102
 11
8.6165415244
 21
8.9883120408
  0
LINE
  5
33B
100
AcDbEntity
  8
0
100
AcDbLine
 62
7
  6
CONTINUOUS
 10
8.7854181043
 20
9.0307760476
 11
8.6237655366
 21
9.0419866913
  0
LINE
  5
33C
100
AcDbEntity
  8
0
100
AcDbLine
 62
4
  6
CONTINUOUS
 10
12.1352490902
 20
7.9880260658
 11
12.1159305733
 21
8.0038546974
  0
LINE
  5
33D
100
AcDbEntity
  8
0
100
AcDbLine
 62
4
  6
CONTINUOUS
 10
12.193204642
 20
7.9912512786
 11
12.1835453856
 21
7.9991655943
  0
LINE
  5
33E
100
AcDbEntity
  8
0
100
AcDbLine
 62
4
  6
CONTINUOUS
 10
11.2416296367
 20
8.6304512513
 11
11.2581883648
 21
8.6127441698
  0
LINE
  5
33F
100
AcDbEntity
  8
0
100
AcDbLine
 62
4
  6
CONTINUOUS
 10
11.1505566263
 20
7.8778254584
 11
11.1422772613
 21
7.8701202461
  0
LINE
  5
340
100
AcDbEntity
  8
0
100
AcDbLine
 62
4
  6
CONTINUOUS
 10
11.1422772613
 20
7.787326585
 11
11.1505566263
 21
7.7950317973
  0
LINE
  5
341
100
AcDbEntity
  8
0
100
AcDbLine
 62
4
  6
CONTINUOUS
 10
9.3987810404
 20
6.8670393332
 11
9.4180995573
 21
6.8801884775
  0
LINE
  5
342
100
AcDbEntity
  8
0
100
AcDbLine
 62
4
  6
CONTINUOUS
 10
9.4953736286
 20
6.8168739507
 11
9.4857143654
 21
6.8102993789
  0
LINE
  5
343
100
AcDbEntity
  8
0
100
AcDbLine
 62
4
  6
CONTINUOUS
 10
11.2250709086
 20
7.9968483118
 11
11.2167915411
 21
7.9919029325
  0
LINE
  5
344
100
AcDbEntity
  8
0
100
AcDbLine
 62
4
  6
CONTINUOUS
 10
11.2085121806
 20
7.9069236694
 11
11.2250709086
 21
7.9140546507
  0
LINE
  5
345
100
AcDbEntity
  8
0
100
AcDbLine
 62
4
  6
CONTINUOUS
 10
11.186433873
 20
7.5910791596
 11
11.191953449
 21
7.5989757087
  0
LINE
  5
346
100
AcDbEntity
  8
0
100
AcDbLine
 62
4
  6
CONTINUOUS
 10
11.175394721
 20
7.5504479521
 11
11.180914297
 21
7.5583445012
  0
LINE
  5
347
100
AcDbEntity
  8
0
100
AcDbLine
 62
4
  6
CONTINUOUS
 10
11.1422772613
 20
7.6686557592
 11
11.1505566263
 21
7.6763609162
  0
LINE
  5
348
100
AcDbEntity
  8
0
100
AcDbLine
 62
4
  6
CONTINUOUS
 10
11.1505566263
 20
7.6018465881
 11
11.1422772613
 21
7.594141431
  0
LINE
  5
349
100
AcDbEntity
  8
0
100
AcDbLine
 62
4
  6
CONTINUOUS
 10
11.2250709086
 20
7.5552822298
 11
11.2167915411
 21
7.5475770729
  0
LINE
  5
34A
100
AcDbEntity
  8
0
100
AcDbLine
 62
7
  6
CONTINUOUS
 10
8.7854181043
 20
9.4490884565
 11
8.7548988344
 21
9.4512049751
  0
LINE
  5
34B
100
AcDbEntity
  8
0
100
AcDbLine
 62
7
  6
CONTINUOUS
 10
8.7854181043
 20
9.4640461511
 11
8.7693468587
 21
9.4651606958
  0
LINE
  5
34C
100
AcDbEntity
  8
0
100
AcDbLine
 62
4
  6
CONTINUOUS
 10
11.2475631644
 20
9.4187872283
 11
11.2379039012
 21
9.4267015445
  0
LINE
  5
34D
100
AcDbEntity
  8
0
100
AcDbLine
 62
4
  6
CONTINUOUS
 10
12.1159305733
 20
8.0038546974
 11
12.1062713144
 21
8.0190134572
  0
LINE
  5
34E
100
AcDbEntity
  8
0
100
AcDbLine
 62
4
  6
CONTINUOUS
 10
11.2379039012
 20
9.4267015445
 11
11.2185853851
 21
9.457019064
  0
LINE
  5
34F
100
AcDbEntity
  8
0
100
AcDbLine
 62
4
  6
CONTINUOUS
 10
12.1835453856
 20
7.9991655943
 11
12.1738861224
 21
8.0143243544
  0
LINE
  5
350
100
AcDbEntity
  8
0
100
AcDbLine
 62
4
  6
CONTINUOUS
 10
11.2765409403
 20
9.4674887205
 11
11.2862001966
 21
9.4523299609
  0
LINE
  5
351
100
AcDbEntity
  8
0
100
AcDbLine
 62
4
  6
CONTINUOUS
 10
12.2125231615
 20
8.0406226425
 11
12.2221824178
 21
8.0254638828
  0
LINE
  5
352
100
AcDbEntity
  8
0
100
AcDbLine
 62
7
  6
CONTINUOUS
 10
12.9239872468
 20
8.8375301718
 11
12.9254591411
 21
8.8389258299
  0
LINE
  5
353
100
AcDbEntity
  8
0
100
AcDbLine
 62
4
  6
CONTINUOUS
 10
12.1159305733
 20
8.0473213612
 11
12.1255898322
 21
8.0538959333
  0
LINE
  5
354
100
AcDbEntity
  8
0
100
AcDbLine
 62
4
  6
CONTINUOUS
 10
12.1642268661
 20
8.0005053381
 11
12.14490835
 21
7.9873561939
  0
LINE
  5
355
100
AcDbEntity
  8
0
100
AcDbLine
 62
4
  6
CONTINUOUS
 10
11.2668816771
 20
9.4174474849
 11
11.2475631644
 21
9.4187872283
  0
LINE
  5
356
100
AcDbEntity
  8
0
100
AcDbLine
 62
4
  6
CONTINUOUS
 10
11.199266869
 20
9.4728476955
 11
11.1702890932
 21
9.4821017551
  0
LINE
  5
357
100
AcDbEntity
  8
0
100
AcDbLine
 62
4
  6
CONTINUOUS
 10
11.2185853851
 20
9.457019064
 11
11.199266869
 21
9.4728476955
  0
LINE
  5
358
100
AcDbEntity
  8
0
100
AcDbLine
 62
4
  6
CONTINUOUS
 10
11.2668816771
 20
9.4754030366
 11
11.2765409403
 21
9.4674887205
  0
LINE
  5
359
100
AcDbEntity
  8
0
100
AcDbLine
 62
4
  6
CONTINUOUS
 10
12.1062713144
 20
8.0190134572
 11
12.1062713144
 21
8.0335023452
  0
LINE
  5
35A
100
AcDbEntity
  8
0
100
AcDbLine
 62
4
  6
CONTINUOUS
 10
12.1738861224
 20
8.0288132423
 11
12.1738861224
 21
8.0143243544
  0
LINE
  5
35B
100
AcDbEntity
  8
0
100
AcDbLine
 62
4
  6
CONTINUOUS
 10
12.2221824178
 20
8.0254638828
 11
12.2221824178
 21
8.0109749949
  0
LINE
  5
35C
100
AcDbEntity
  8
0
100
AcDbLine
 62
4
  6
CONTINUOUS
 10
12.1062713144
 20
8.0335023452
 11
12.1159305733
 21
8.0473213612
  0
LINE
  5
35D
100
AcDbEntity
  8
0
100
AcDbLine
 62
4
  6
CONTINUOUS
 10
12.1738861224
 20
8.0143243544
 11
12.1642268661
 21
8.0005053381
  0
LINE
  5
35E
100
AcDbEntity
  8
0
100
AcDbLine
 62
4
  6
CONTINUOUS
 10
11.2862001966
 20
6.7216574822
 11
11.2765409403
 21
6.707838466
  0
LINE
  5
35F
100
AcDbEntity
  8
0
100
AcDbLine
 62
4
  6
CONTINUOUS
 10
12.2221824178
 20
8.0109749949
 11
12.2125231615
 21
7.9971559787
  0
LINE
  5
360
100
AcDbEntity
  8
0
100
AcDbLine
 62
4
  6
CONTINUOUS
 10
12.2125231615
 20
7.9971559787
 11
12.2028638983
 21
7.9905814069
  0
LINE
  5
361
100
AcDbEntity
  8
0
100
AcDbLine
 62
7
  6
CONTINUOUS
 10
8.7854181043
 20
9.7682338553
 11
12.6491216383
 21
9.5002851052
  0
LINE
  5
362
100
AcDbEntity
  8
0
100
AcDbLine
 62
7
  6
CONTINUOUS
 10
12.6491216383
 20
6.4817667192
 11
12.6491216383
 21
9.5002851052
  0
LINE
  5
363
100
AcDbEntity
  8
0
100
AcDbLine
 62
4
  6
CONTINUOUS
 10
11.2765409403
 20
6.707838466
 11
11.2668816771
 21
6.7012638942
  0
LINE
  5
364
100
AcDbEntity
  8
0
100
AcDbLine
 62
7
  6
CONTINUOUS
 10
13.4255781329
 20
10.2502845307
 11
9.5618745988
 21
10.5182332808
  0
LINE
  5
365
100
AcDbEntity
  8
0
100
AcDbLine
 62
7
  6
CONTINUOUS
 10
13.4255781329
 20
7.2317661447
 11
13.4255781329
 21
10.2502845307
  0
LINE
  5
366
100
AcDbEntity
  8
0
100
AcDbLine
 62
7
  6
CONTINUOUS
 10
12.6491216383
 20
6.4817667192
 11
13.4255781329
 21
7.2317661447
  0
ARC
  5
367
100
AcDbEntity
  8
0
100
AcDbCircle
 62
7
  6
CONTINUOUS
 10
10.9260404018
 20
8.7048025878
 40
2.3268353346
100
AcDbArc
 50
171.6678728683
 51
173.0014994771
  0
ARC
  5
368
100
AcDbEntity
  8
0
100
AcDbCircle
 62
7
  6
CONTINUOUS
 10
9.5629315931
 20
8.5748169907
 40
0.9584571905
100
AcDbArc
 50
189.1014340788
 51
191.5149294916
  0
ARC
  5
369
100
AcDbEntity
  8
0
100
AcDbCircle
 62
7
  6
CONTINUOUS
 10
9.378592017
 20
8.9883684543
 40
0.7758589224
100
AcDbArc
 50
149.406521743
 51
152.3502505567
  0
ARC
  5
36A
100
AcDbEntity
  8
0
100
AcDbCircle
 62
7
  6
CONTINUOUS
 10
9.5858622523
 20
8.262773889
 40
0.5136781515
100
AcDbArc
 50
134.601733849
 51
135.2912825577
  0
ARC
  5
36B
100
AcDbEntity
  8
0
100
AcDbCircle
 62
7
  6
CONTINUOUS
 10
9.6919515721
 20
8.1529409479
 40
0.513618817
100
AcDbArc
 50
312.723220728
 51
313.5809863966
  0
ARC
  5
36C
100
AcDbEntity
  8
0
100
AcDbCircle
 62
7
  6
CONTINUOUS
 10
12.2186377313
 20
7.3835450672
 40
0.428385811
100
AcDbArc
 50
312.4671246917
 51
313.4606865602
  0
ARC
  5
36D
100
AcDbEntity
  8
0
100
AcDbCircle
 62
7
  6
CONTINUOUS
 10
12.1301830389
 20
7.4751184827
 40
0.4282959965
100
AcDbArc
 50
134.8827445531
 51
135.546440806
  0
ARC
  5
36E
100
AcDbEntity
  8
0
100
AcDbCircle
 62
7
  6
CONTINUOUS
 10
12.1800833366
 20
7.4084136535
 40
0.2928274897
100
AcDbArc
 50
349.3377186106
 51
0.0364156305
  0
ARC
  5
36F
100
AcDbEntity
  8
0
100
AcDbCircle
 62
7
  6
CONTINUOUS
 10
12.8291386428
 20
7.7557187876
 40
0.0343128096
100
AcDbArc
 50
254.5577590326
 51
265.9922069207
  0
ARC
  5
370
100
AcDbEntity
  8
0
100
AcDbCircle
 62
7
  6
CONTINUOUS
 10
12.8991097025
 20
8.7646792439
 40
0.0343034166
100
AcDbArc
 50
86.0725802885
 51
97.394487454
  0
SPLINE
  5
371
100
AcDbEntity
  8
0
100
AcDbSpline
 62
7
  6
CONTINUOUS
 70
0
 71
3
 72
9
 73
5
 74
0
 42
0.0000001
 43
0.0000001
 44
0.0000000001
 40
0.0
 40
0.0
 40
0.0
 40
0.0
 40
0.2576616456
 40
1.0
 40
1.0
 40
1.0
 40
1.0
 10
8.7548988344
 20
9.4512049751
 30
0.0
 10
8.7554944586
 20
9.4518782608
 30
0.0
 10
8.7578294164
 20
9.4544705269
 30
0.0
 10
8.7602600627
 20
9.4569772698
 30
0.0
 10
8.7621228466
 20
9.4587765809
 30
0.0
  0
SPLINE
  5
372
100
AcDbEntity
  8
0
100
AcDbSpline
 62
7
  6
CONTINUOUS
 70
0
 71
3
 72
9
 73
5
 74
0
 42
0.0000001
 43
0.0000001
 44
0.0000000001
 40
0.0
 40
0.0
 40
0.0
 40
0.0
 40
0.2578199612
 40
1.0
 40
1.0
 40
1.0
 40
1.0
 10
8.7621228466
 20
9.4587765809
 30
0.0
 10
8.7627188818
 20
9.4593523068
 30
0.0
 10
8.7650540846
 20
9.4615609131
 30
0.0
 10
8.7674854161
 20
9.4636688146
 30
0.0
 10
8.7693468587
 20
9.4651606958
 30
0.0
  0
SPLINE
  5
373
100
AcDbEntity
  8
0
100
AcDbSpline
 62
7
  6
CONTINUOUS
 70
0
 71
3
 72
23
 73
19
 74
0
 42
0.0000001
 43
0.0000001
 44
0.0000000001
 40
0.0
 40
0.0
 40
0.0
 40
0.0
 40
0.0814271046
 40
0.1607817343
 40
0.2379185405
 40
0.312696063
 40
0.3849800266
 40
0.4546476696
 40
0.5215900506
 40
0.5857253305
 40
0.6469976603
 40
0.7053923532
 40
0.760932103
 40
0.8136907295
 40
0.8637864076
 40
0.9113888908
 40
0.9567096643
 40
1.0
 40
1.0
 40
1.0
 40
1.0
 10
8.7548988344
 20
8.2275984458
 30
0.0
 10
8.7509062072
 20
8.2299561319
 30
0.0
 10
8.7430545204
 20
8.2346659342
 30
0.0
 10
8.7315465961
 20
8.2418166692
 30
0.0
 10
8.7204845454
 20
8.2489639597
 30
0.0
 10
8.7099003356
 20
8.2561045725
 30
0.0
 10
8.6998261306
 20
8.2632354727
 30
0.0
 10
8.6902929544
 20
8.2703523376
 30
0.0
 10
8.6813311304
 20
8.2774515639
 30
0.0
 10
8.67296781
 20
8.2845278581
 30
0.0
 10
8.6652278712
 20
8.2915772599
 30
0.0
 10
8.658130929
 20
8.2985940931
 30
0.0
 10
8.6516929279
 20
8.3055743663
 30
0.0
 10
8.6459230496
 20
8.3125127292
 30
0.0
 10
8.6408258786
 20
8.3194054405
 30
0.0
 10
8.6363988785
 20
8.3262482012
 30
0.0
 10
8.6326348181
 20
8.3330371549
 30
0.0
 10
8.6305139144
 20
8.3376218482
 30
0.0
 10
8.6295674919
 20
8.3398980554
 30
0.0
  0
SPLINE
  5
374
100
AcDbEntity
  8
0
100
AcDbSpline
 62
7
  6
CONTINUOUS
 70
0
 71
3
 72
9
 73
5
 74
0
 42
0.0000001
 43
0.0000001
 44
0.0000000001
 40
0.0
 40
0.0
 40
0.0
 40
0.0
 40
0.4964604369
 40
1.0
 40
1.0
 40
1.0
 40
1.0
 10
8.7107326849
 20
9.3832367614
 30
0.0
 10
8.7175505598
 20
9.3947921099
 30
0.0
 10
8.7318380245
 20
9.417743413
 30
0.0
 10
8.7470479893
 20
9.4400899442
 30
0.0
 10
8.7548988344
 20
9.4512049751
 30
0.0
  0
SPLINE
  5
375
100
AcDbEntity
  8
0
100
AcDbSpline
 62
7
  6
CONTINUOUS
 70
0
 71
3
 72
47
 73
43
 74
0
 42
0.0000001
 43
0.0000001
 44
0.0000000001
 40
0.0
 40
0.0
 40
0.0
 40
0.0
 40
0.0097390954
 40
0.0199695295
 40
0.0306881571
 40
0.0418903579
 40
0.0535693632
 40
0.0657172933
 40
0.0783253324
 40
0.0913829807
 40
0.1188003862
 40
0.1478697904
 40
0.1784776678
 40
0.2104990076
 40
0.2437996245
 40
0.2782371359
 40
0.3136617551
 40
0.3499180255
 40
0.3868455341
 40
0.4242797949
 40
0.462053577
 40
0.4999975974
 40
0.5379416192
 40
0.5757154697
 40
0.6131498368
 40
0.6500774863
 40
0.6863340113
 40
0.7217588358
 40
0.7561965785
 40
0.7894975871
 40
0.8215192438
 40
0.8521274831
 40
0.8811973937
 40
0.9086151749
 40
0.9216731274
 40
0.9342812907
 40
0.9464294722
 40
0.9581088203
 40
0.9693112294
 40
0.9800301946
 40
0.9902609526
 40
1.0
 40
1.0
 40
1.0
 40
1.0
 10
8.6218209507
 20
8.3585095681
 30
0.0
 10
8.6205593314
 20
8.3615407138
 30
0.0
 10
8.618082339
 20
8.3678020959
 30
0.0
 10
8.6145777141
 20
8.3775374146
 30
0.0
 10
8.611196345
 20
8.387836647
 30
0.0
 10
8.6079426491
 20
8.3986875675
 30
0.0
 10
8.6048201602
 20
8.4100772625
 30
0.0
 10
8.6018326729
 20
8.4219922072
 30
0.0
 10
8.5989840237
 20
8.4344183306
 30
0.0
 10
8.5953154155
 20
8.4519343968
 30
0.0
 10
8.591125915
 20
8.4750065615
 30
0.0
 10
8.5867783
 20
8.5040480813
 30
0.0
 10
8.5830541329
 20
8.5347398346
 30
0.0
 10
8.5799712995
 20
8.5669353359
 30
0.0
 10
8.5775450877
 20
8.6004811877
 30
0.0
 10
8.575787632
 20
8.6352172644
 30
0.0
 10
8.5747073641
 20
8.670977657
 30
0.0
 10
8.5743097631
 20
8.7075914706
 30
0.0
 10
8.5745970658
 20
8.7448837053
 30
0.0
 10
8.5755677882
 20
8.7826760786
 30
0.0
 10
8.5772174723
 20
8.8207878624
 30
0.0
 10
8.5795384194
 20
8.8590368034
 30
0.0
 10
8.5825193137
 20
8.8972400004
 30
0.0
 10
8.5861459904
 20
8.9352147457
 30
0.0
 10
8.5904011741
 20
8.9727794537
 30
0.0
 10
8.5952641968
 20
9.0097545383
 30
0.0
 10
8.6007118027
 20
9.0459632093
 30
0.0
 10
8.6067178793
 20
9.0812324087
 30
0.0
 10
8.6132532601
 20
9.1153936707
 30
0.0
 10
8.6202865836
 20
9.148283857
 30
0.0
 10
8.6277840056
 20
9.179745997
 30
0.0
 10
8.63570904
 20
9.2096302993
 30
0.0
 10
8.644023603
 20
9.2377941845
 30
0.0
 10
8.6513578792
 20
9.2600675715
 30
0.0
 10
8.6574090328
 20
9.2769099141
 30
0.0
 10
8.6619457238
 20
9.2888240922
 30
0.0
 10
8.6665492558
 20
9.3002128758
 30
0.0
 10
8.6712139332
 20
9.3110628661
 30
0.0
 10
8.6759344212
 20
9.3213610609
 30
0.0
 10
8.6807051046
 20
9.3310952652
 30
0.0
 10
8.6855198663
 20
9.3402539323
 30
0.0
 10
8.68883741
 20
9.3461135877
 30
0.0
 10
8.690505305
 20
9.3489415812
 30
0.0
  0
SPLINE
  5
376
100
AcDbEntity
  8
0
100
AcDbSpline
 62
7
  6
CONTINUOUS
 70
0
 71
3
 72
21
 73
17
 74
0
 42
0.0000001
 43
0.0000001
 44
0.0000000001
 40
0.0
 40
0.0
 40
0.0
 40
0.0
 40
0.1269527041
 40
0.1902689165
 40
0.2534593491
 40
0.3165116873
 40
0.37941528
 40
0.4421620112
 40
0.5047460954
 40
0.5671657261
 40
0.6294227274
 40
0.6915221182
 40
0.7534726662
 40
0.8152847883
 40
0.8769699244
 40
1.0
 40
1.0
 40
1.0
 40
1.0
 10
8.6165415244
 20
8.4232055663
 30
0.0
 10
8.6104130764
 20
8.4466367235
 30
0.0
 10
8.6020360607
 20
8.4819770128
 30
0.0
 10
8.5928648149
 20
8.529458426
 30
0.0
 10
8.5870874326
 20
8.5651633585
 30
0.0
 10
8.5824900878
 20
8.6009604484
 30
0.0
 10
8.5791460306
 20
8.6368121432
 30
0.0
 10
8.5771142326
 20
8.6726731997
 30
0.0
 10
8.576431762
 20
8.7084932933
 30
0.0
 10
8.5771106731
 20
8.7442200794
 30
0.0
 10
8.57913921
 20
8.7798028488
 30
0.0
 10
8.5824805624
 20
8.8151960568
 30
0.0
 10
8.5870758664
 20
8.8503619858
 30
0.0
 10
8.5928519732
 20
8.8852728509
 30
0.0
 10
8.6020059903
 20
8.931410463
 30
0.0
 10
8.6103939485
 20
8.9656604227
 30
0.0
 10
8.6165415244
 20
8.9883120408
 30
0.0
  0
SPLINE
  5
377
100
AcDbEntity
  8
0
100
AcDbSpline
 62
7
  6
CONTINUOUS
 70
0
 71
3
 72
15
 73
11
 74
0
 42
0.0000001
 43
0.0000001
 44
0.0000000001
 40
0.0
 40
0.0
 40
0.0
 40
0.0
 40
0.1201732322
 40
0.2410336384
 40
0.3629078784
 40
0.4861757754
 40
0.6112294411
 40
0.7384145049
 40
0.8679713593
 40
1.0
 40
1.0
 40
1.0
 40
1.0
 10
8.6237655366
 20
9.0419866913
 30
0.0
 10
8.6231777478
 20
9.0547006728
 30
0.0
 10
8.6226498044
 20
9.0802377531
 30
0.0
 10
8.6240862233
 20
9.1186698816
 30
0.0
 10
8.6280374847
 20
9.1572612399
 30
0.0
 10
8.6347556568
 20
9.1959231798
 30
0.0
 10
8.6444165454
 20
9.2345389112
 30
0.0
 10
8.6570854648
 20
9.2729763849
 30
0.0
 10
8.6727016837
 20
9.3111078299
 30
0.0
 10
8.6848501489
 20
9.3360293853
 30
0.0
 10
8.6913354316
 20
9.3484176916
 30
0.0
  0
SPLINE
  5
378
100
AcDbEntity
  8
0
100
AcDbSpline
 62
7
  6
CONTINUOUS
 70
0
 71
3
 72
9
 73
5
 74
0
 42
0.0000001
 43
0.0000001
 44
0.0000000001
 40
0.0
 40
0.0
 40
0.0
 40
0.0
 40
0.5118119473
 40
1.0
 40
1.0
 40
1.0
 40
1.0
 10
8.6295674919
 20
8.3398980554
 30
0.0
 10
8.6282758473
 20
8.343004544
 30
0.0
 10
8.6260768035
 20
8.3492159217
 30
0.0
 10
8.6246127232
 20
8.3556415616
 30
0.0
 10
8.6240876576
 20
8.3588073415
 30
0.0
  0
SPLINE
  5
379
100
AcDbEntity
  8
0
100
AcDbSpline
 62
7
  6
CONTINUOUS
 70
0
 71
3
 72
11
 73
7
 74
0
 42
0.0000001
 43
0.0000001
 44
0.0000000001
 40
0.0
 40
0.0
 40
0.0
 40
0.0
 40
0.2546540834
 40
0.5052032516
 40
0.7531996566
 40
1.0
 40
1.0
 40
1.0
 40
1.0
 10
8.6240876576
 20
8.3588073415
 30
0.0
 10
8.6237436613
 20
8.3608813997
 30
0.0
 10
8.623221447
 20
8.3650245473
 30
0.0
 10
8.6229240831
 20
8.3712415782
 30
0.0
 10
8.6230922637
 20
8.3773981545
 30
0.0
 10
8.6234961322
 20
8.3814669731
 30
0.0
 10
8.6237655366
 20
8.3834866365
 30
0.0
  0
SPLINE
  5
37A
100
AcDbEntity
  8
0
100
AcDbSpline
 62
7
  6
CONTINUOUS
 70
0
 71
3
 72
9
 73
5
 74
0
 42
0.0000001
 43
0.0000001
 44
0.0000000001
 40
0.0
 40
0.0
 40
0.0
 40
0.0
 40
0.4852054209
 40
1.0
 40
1.0
 40
1.0
 40
1.0
 10
9.8204159297
 20
8.4721539225
 30
0.0
 10
9.8188552183
 20
8.482536865
 30
0.0
 10
9.8160502422
 20
8.5039989517
 30
0.0
 10
9.8139494988
 20
8.5255399443
 30
0.0
 10
9.8130272134
 20
8.53664158
 30
0.0
  0
SPLINE
  5
37B
100
AcDbEntity
  8
0
100
AcDbSpline
 62
7
  6
CONTINUOUS
 70
0
 71
3
 72
86
 73
82
 74
0
 42
0.0000001
 43
0.0000001
 44
0.0000000001
 40
0.0
 40
0.0
 40
0.0
 40
0.0
 40
0.0039801735
 40
0.0081241171
 40
0.0124359931
 40
0.016919361
 40
0.0215772361
 40
0.0264119817
 40
0.0314252561
 40
0.0366182449
 40
0.0419916453
 40
0.0475457694
 40
0.0532805541
 40
0.0591955582
 40
0.0652900785
 40
0.0715630739
 40
0.0846387684
 40
0.0984101018
 40
0.112860694
 40
0.1279712428
 40
0.1437198619
 40
0.1600823544
 40
0.1770324406
 40
0.1945419645
 40
0.2125810668
 40
0.2311183398
 40
0.2501209668
 40
0.2695548486
 40
0.289384725
 40
0.3095742955
 40
0.3300863312
 40
0.3508827821
 40
0.3719248818
 40
0.3931732491
 40
0.4145879914
 40
0.4577543474
 40
0.501099203
 40
0.5442952951
 40
0.5657359749
 40
0.587017582
 40
0.6081001434
 40
0.6289441761
 40
0.6495107926
 40
0.6697618048
 40
0.6896598276
 40
0.709168385
 40
0.7282520204
 40
0.7468764117
 40
0.7650084972
 40
0.7826166038
 40
0.7996705814
 40
0.8161419537
 40
0.8320040874
 40
0.8472323859
 40
0.8618045214
 40
0.8757007003
 40
0.8889039845
 40
0.9014006969
 40
0.9073810972
 40
0.9131815075
 40
0.9188013673
 40
0.9242405009
 40
0.9294990443
 40
0.9345775709
 40
0.9394770909
 40
0.9441990928
 40
0.9487456636
 40
0.9531194621
 40
0.9573238984
 40
0.9613631411
 40
0.9652422549
 40
0.9689673208
 40
0.9725454977
 40
0.9759852252
 40
0.9824864215
 40
0.9855752926
 40
0.9885737717
 40
0.9914977072
 40
0.9943643167
 40
0.9971920017
 40
1.0
 40
1.0
 40
1.0
 40
1.0
 10
12.2369589824
 20
9.9811665095
 30
0.0
 10
12.2357904551
 20
9.9800377987
 30
0.0
 10
12.2333522526
 20
9.9777883552
 30
0.0
 10
12.2294811307
 20
9.9745028653
 30
0.0
 10
12.2253257337
 20
9.9712409295
 30
0.0
 10
12.2208883427
 20
9.968004305
 30
0.0
 10
12.2161711365
 20
9.9647944878
 30
0.0
 10
12.2111764101
 20
9.9616130559
 30
0.0
 10
12.205906667
 20
9.958461512
 30
0.0
 10
12.2003645192
 20
9.9553414965
 30
0.0
 10
12.1945527622
 20
9.9522545255
 30
0.0
 10
12.1884742977
 20
9.9492021536
 30
0.0
 10
12.1821321654
 20
9.9461859258
 30
0.0
 10
12.1755295633
 20
9.9432073235
 30
0.0
 10
12.1686697854
 20
9.9402678795
 30
0.0
 10
12.159051776
 20
9.9363485084
 30
0.0
 10
12.1464032874
 20
9.9315684572
 30
0.0
 10
12.1304597272
 20
9.9260880588
 30
0.0
 10
12.1135796718
 20
9.9207979473
 30
0.0
 10
12.0957971537
 20
9.9157088752
 30
0.0
 10
12.0771478691
 20
9.9108312021
 30
0.0
 10
12.0576693855
 20
9.9061748639
 30
0.0
 10
12.037400973
 20
9.9017493424
 30
0.0
 10
12.0163835357
 20
9.8975636521
 30
0.0
 10
11.9946595136
 20
9.8936263184
 30
0.0
 10
11.9722727938
 20
9.8899453604
 30
0.0
 10
11.9492686189
 20
9.886528275
 30
0.0
 10
11.9256934958
 20
9.8833820192
 30
0.0
 10
11.9015950987
 20
9.8805129931
 30
0.0
 10
11.8770221678
 20
9.8779270331
 30
0.0
 10
11.8520244093
 20
9.8756294002
 30
0.0
 10
11.8266523891
 20
9.8736247664
 30
0.0
 10
11.8009574497
 20
9.8719172185
 30
0.0
 10
11.7749915351
 20
9.8705102012
 30
0.0
 10
11.7399878484
 20
9.8690349833
 30
0.0
 10
11.6959429522
 20
9.8679634484
 30
0.0
 10
11.6429942479
 20
9.8679075796
 30
0.0
 10
11.5989244648
 20
9.8688859823
 30
0.0
 10
11.563881405
 20
9.8702868424
 30
0.0
 10
11.5378718463
 20
9.8716388725
 30
0.0
 10
11.5121237439
 20
9.8732919965
 30
0.0
 10
11.486689151
 20
9.8752428834
 30
0.0
 10
11.4616195389
 20
9.8774875584
 30
0.0
 10
11.4369656198
 20
9.8800214551
 30
0.0
 10
11.4127772635
 20
9.8828394179
 30
0.0
 10
11.3891033915
 20
9.8859357134
 30
0.0
 10
11.3659918791
 20
9.8893040414
 30
0.0
 10
11.3434894546
 20
9.8929375487
 30
0.0
 10
11.3216415998
 20
9.8968288367
 30
0.0
 10
11.3004924549
 20
9.9009699786
 30
0.0
 10
11.280084728
 20
9.905352539
 30
0.0
 10
11.2604596057
 20
9.9099675905
 30
0.0
 10
11.2416566663
 20
9.9148057323
 30
0.0
 10
11.223713781
 20
9.9198571141
 30
0.0
 10
11.2066670509
 20
9.9251114514
 30
0.0
 10
11.190550623
 20
9.9305580608
 30
0.0
 10
11.1753969477
 20
9.9361858849
 30
0.0
 10
11.1634269142
 20
9.9410864169
 30
0.0
 10
11.154364965
 20
9.9450980233
 30
0.0
 10
11.1479277015
 20
9.9481007464
 30
0.0
 10
11.1417529752
 20
9.9511401608
 30
0.0
 10
11.1358438545
 20
9.9542147101
 30
0.0
 10
11.1302033178
 20
9.9573228946
 30
0.0
 10
11.1248341776
 20
9.9604631417
 30
0.0
 10
11.1197391086
 20
9.9636338812
 30
0.0
 10
11.1149206713
 20
9.9668335866
 30
0.0
 10
11.110381231
 20
9.9700606267
 30
0.0
 10
11.106123082
 20
9.9733134963
 30
0.0
 10
11.1021483097
 20
9.9765905793
 30
0.0
 10
11.098458913
 20
9.9798903303
 30
0.0
 10
11.0950567346
 20
9.9832112458
 30
0.0
 10
11.0919435328
 20
9.9865516312
 30
0.0
 10
11.0891207213
 20
9.9899104291
 30
0.0
 10
11.0858092297
 20
9.9943268026
 30
0.0
 10
11.0829972753
 20
9.9988622593
 30
0.0
 10
11.0807646685
 20
10.003494537
 30
0.0
 10
11.079415757
 20
10.0069204638
 30
0.0
 10
11.0783652574
 20
10.0103547099
 30
0.0
 10
11.0776141473
 20
10.0137956418
 30
0.0
 10
11.0771631258
 20
10.017240775
 30
0.0
 10
11.0770627207
 20
10.0195424002
 30
0.0
 10
11.0770627155
 20
10.0206885756
 30
0.0
  0
SPLINE
  5
37C
100
AcDbEntity
  8
0
100
AcDbSpline
 62
7
  6
CONTINUOUS
 70
0
 71
3
 72
23
 73
19
 74
0
 42
0.0000001
 43
0.0000001
 44
0.0000000001
 40
0.0
 40
0.0
 40
0.0
 40
0.0
 40
0.0637776914
 40
0.1273445726
 40
0.19070205
 40
0.2538561286
 40
0.3168131755
 40
0.3795820937
 40
0.4421733816
 40
0.5045993375
 40
0.566873868
 40
0.6290123843
 40
0.691031656
 40
0.7529496505
 40
0.8147853588
 40
0.8765586069
 40
0.938289857
 40
1.0
 40
1.0
 40
1.0
 40
1.0
 10
10.2004995236
 20
8.1603555047
 30
0.0
 10
10.2004995236
 20
8.151252484
 30
0.0
 10
10.2000638526
 20
8.1330734457
 30
0.0
 10
10.1980972614
 20
8.1059154039
 30
0.0
 10
10.1948230101
 20
8.0789727336
 30
0.0
 10
10.1902487228
 20
8.0523084642
 30
0.0
 10
10.1843847781
 20
8.0259837367
 30
0.0
 10
10.1772446876
 20
8.0000593366
 30
0.0
 10
10.1688448247
 20
7.9745950065
 30
0.0
 10
10.1592045076
 20
7.949649474
 30
0.0
 10
10.1483459055
 20
7.9252802701
 30
0.0
 10
10.1362940083
 20
7.9015436045
 30
0.0
 10
10.1230765732
 20
7.8784942348
 30
0.0
 10
10.1087240365
 20
7.8561853218
 30
0.0
 10
10.0932695194
 20
7.83466838
 30
0.0
 10
10.0767484704
 20
7.8139928781
 30
0.0
 10
10.0591996327
 20
7.7942071646
 30
0.0
 10
10.0468398684
 20
7.7816379857
 30
0.0
 10
10.0405047409
 20
7.7755187057
 30
0.0
  0
SPLINE
  5
37D
100
AcDbEntity
  8
0
100
AcDbSpline
 62
7
  6
CONTINUOUS
 70
0
 71
3
 72
23
 73
19
 74
0
 42
0.0000001
 43
0.0000001
 44
0.0000000001
 40
0.0
 40
0.0
 40
0.0
 40
0.0
 40
0.0637774716
 40
0.1273446947
 40
0.1907020108
 40
0.2538561385
 40
0.3168131788
 40
0.379582097
 40
0.4421733871
 40
0.5045993393
 40
0.5668738666
 40
0.62901238
 40
0.6910316508
 40
0.7529496465
 40
0.8147853569
 40
0.8765586065
 40
0.938289857
 40
1.0
 40
1.0
 40
1.0
 40
1.0
 10
12.6413942313
 20
7.388341118
 30
0.0
 10
12.6413942313
 20
7.3807501343
 30
0.0
 10
12.6410309138
 20
7.3655906182
 30
0.0
 10
12.6393909872
 20
7.3429435278
 30
0.0
 10
12.6366605623
 20
7.3204760078
 30
0.0
 10
12.6328460708
 20
7.298240684
 30
0.0
 10
12.6279561179
 20
7.2762884876
 30
0.0
 10
12.6220019876
 20
7.2546701303
 30
0.0
 10
12.61499732
 20
7.2334354296
 30
0.0
 10
12.6069582305
 20
7.2126333588
 30
0.0
 10
12.597903217
 20
7.1923118892
 30
0.0
 10
12.5878531212
 20
7.1725178912
 30
0.0
 10
12.5768310869
 20
7.1532970277
 30
0.0
 10
12.5648624901
 20
7.1346936319
 30
0.0
 10
12.5519749428
 20
7.1167506679
 30
0.0
 10
12.5381980044
 20
7.0995093912
 30
0.0
 10
12.5235639961
 20
7.083010109
 30
0.0
 10
12.5132571592
 20
7.0725286975
 30
0.0
 10
12.5079742912
 20
7.067425834
 30
0.0
  0
SPLINE
  5
37E
100
AcDbEntity
  8
0
100
AcDbSpline
 62
7
  6
CONTINUOUS
 70
0
 71
3
 72
34
 73
30
 74
0
 42
0.0000001
 43
0.0000001
 44
0.0000000001
 40
0.0
 40
0.0
 40
0.0
 40
0.0
 40
0.1713419155
 40
0.2564243747
 40
0.3403004246
 40
0.4222512094
 40
0.5014637039
 40
0.5770520854
 40
0.6132046679
 40
0.648105717
 40
0.6816433686
 40
0.7137109293
 40
0.7442101885
 40
0.7730538726
 40
0.8001698886
 40
0.8255061138
 40
0.8490352001
 40
0.8707626169
 40
0.8907365495
 40
0.9090595177
 40
0.9259042195
 40
0.9415292317
 40
0.948998393
 40
0.9563028896
 40
0.9634998325
 40
0.9706500708
 40
0.9778160124
 40
0.985059506
 40
1.0
 40
1.0
 40
1.0
 40
1.0
 10
9.6602653777
 20
8.145887269
 30
0.0
 10
9.6643332469
 20
8.1428801724
 30
0.0
 10
9.6706572215
 20
8.1386852693
 30
0.0
 10
9.6794490821
 20
8.1338155449
 30
0.0
 10
9.6861200041
 20
8.1305851352
 30
0.0
 10
9.6928037074
 20
8.1278057738
 30
0.0
 10
9.6994099542
 20
8.1255092522
 30
0.0
 10
9.7048455056
 20
8.1239962503
 30
0.0
 10
9.7090719142
 20
8.1230537762
 30
0.0
 10
9.7121088064
 20
8.1224906246
 30
0.0
 10
9.7150456695
 20
8.1220611819
 30
0.0
 10
9.7178684335
 20
8.1217653676
 30
0.0
 10
9.7205632498
 20
8.1216024155
 30
0.0
 10
9.7231167435
 20
8.1215710557
 30
0.0
 10
9.725516162
 20
8.1216694232
 30
0.0
 10
9.7277495518
 20
8.1218951973
 30
0.0
 10
9.7298059001
 20
8.1222457537
 30
0.0
 10
9.7316752775
 20
8.1227182539
 30
0.0
 10
9.7333488823
 20
8.1233098187
 30
0.0
 10
9.7348190644
 20
8.1240180208
 30
0.0
 10
9.736078638
 20
8.1248405004
 30
0.0
 10
9.7369604766
 20
8.1256322251
 30
0.0
 10
9.7375431652
 20
8.1263162732
 30
0.0
 10
9.7379171279
 20
8.1268474794
 30
0.0
 10
9.7382338459
 20
8.1274038996
 30
0.0
 10
9.7384929938
 20
8.1279848823
 30
0.0
 10
9.7386943498
 20
8.1285898493
 30
0.0
 10
9.7388875199
 20
8.129435605
 30
0.0
 10
9.7389415393
 20
8.1300929762
 30
0.0
 10
9.7389415535
 20
8.1305340773
 30
0.0
  0
SPLINE
  5
37F
100
AcDbEntity
  8
0
100
AcDbSpline
 62
7
  6
CONTINUOUS
 70
0
 71
3
 72
69
 73
65
 74
0
 42
0.0000001
 43
0.0000001
 44
0.0000000001
 40
0.0
 40
0.0
 40
0.0
 40
0.0
 40
0.0079841633
 40
0.0166120323
 40
0.0259080939
 40
0.0358882612
 40
0.0465602071
 40
0.0579254148
 40
0.0699802816
 40
0.0827169087
 40
0.096123732
 40
0.1101860403
 40
0.1248864011
 40
0.1402049575
 40
0.1561196482
 40
0.1726064718
 40
0.1896396783
 40
0.2071918957
 40
0.2252342692
 40
0.2437366269
 40
0.2626675907
 40
0.2819946549
 40
0.3016843153
 40
0.3217021835
 40
0.3625802756
 40
0.404340252
 40
0.4466842611
 40
0.4893089821
 40
0.5319084933
 40
0.5741771084
 40
0.615812212
 40
0.6565171114
 40
0.6764307784
 40
0.6960048257
 40
0.7152051304
 40
0.7339985192
 40
0.7523528567
 40
0.7702371318
 40
0.7876215838
 40
0.8044778563
 40
0.8207790937
 40
0.8365000774
 40
0.8516174313
 40
0.8661098197
 40
0.8799581359
 40
0.8931457817
 40
0.9056590608
 40
0.9174875684
 40
0.9286247107
 40
0.9390684373
 40
0.9488222028
 40
0.9534437428
 40
0.9578972551
 40
0.9621853125
 40
0.9663111814
 40
0.9702787956
 40
0.974092941
 40
0.9777593282
 40
0.9812846365
 40
0.9846767229
 40
0.9879446543
 40
0.9941474618
 40
0.9971108301
 40
1.0
 40
1.0
 40
1.0
 40
1.0
 10
12.058262694
 20
9.9626495102
 30
0.0
 10
12.0566682484
 20
9.9611093939
 30
0.0
 10
12.053204444
 20
9.958054611
 30
0.0
 10
12.0474660055
 20
9.9537083685
 30
0.0
 10
12.0409996028
 20
9.949432499
 30
0.0
 10
12.0338176233
 20
9.945234812
 30
0.0
 10
12.0259328907
 20
9.9411226588
 30
0.0
 10
12.0173600663
 20
9.9371036676
 30
0.0
 10
12.0081151373
 20
9.9331853828
 30
0.0
 10
11.9982154897
 20
9.9293752896
 30
0.0
 10
11.9876798672
 20
9.9256806848
 30
0.0
 10
11.9765283035
 20
9.9221086776
 30
0.0
 10
11.9647820561
 20
9.9186661716
 30
0.0
 10
11.9524635679
 20
9.9153598366
 30
0.0
 10
11.9395964255
 20
9.9121960575
 30
0.0
 10
11.9262052919
 20
9.9091809573
 30
0.0
 10
11.9123158497
 20
9.9063203834
 30
0.0
 10
11.8979547606
 20
9.9036198765
 30
0.0
 10
11.8831496117
 20
9.9010846523
 30
0.0
 10
11.8679288491
 20
9.8987196191
 30
0.0
 10
11.8523217205
 20
9.8965293632
 30
0.0
 10
11.836358238
 20
9.8945181216
 30
0.0
 10
11.820069073
 20
9.8926897521
 30
0.0
 10
11.7978028118
 20
9.8904852595
 30
0.0
 10
11.7693873393
 20
9.888220069
 30
0.0
 10
11.7347363488
 20
9.8862955501
 30
0.0
 10
11.6995652817
 20
9.8851614138
 30
0.0
 10
11.6641445143
 20
9.8848264523
 30
0.0
 10
11.6287461697
 20
9.885293315
 30
0.0
 10
11.593642194
 20
9.8865583326
 30
0.0
 10
11.5591024447
 20
9.8886116574
 30
0.0
 10
11.5308076798
 20
9.8909831236
 30
0.0
 10
11.5086595463
 20
9.8932712679
 30
0.0
 10
11.4924741659
 20
9.8951602525
 30
0.0
 10
11.4766246505
 20
9.8972308806
 30
0.0
 10
11.4611414457
 20
9.8994791654
 30
0.0
 10
11.446054318
 20
9.9019007446
 30
0.0
 10
11.4313922633
 20
9.904490939
 30
0.0
 10
11.4171834528
 20
9.9072447443
 30
0.0
 10
11.4034551673
 20
9.9101568173
 30
0.0
 10
11.3902337524
 20
9.9132215174
 30
0.0
 10
11.37754457
 20
9.9164329219
 30
0.0
 10
11.3654119311
 20
9.9197848144
 30
0.0
 10
11.3538590422
 20
9.9232706973
 30
0.0
 10
11.3429079676
 20
9.9268838327
 30
0.0
 10
11.3325795796
 20
9.9306172626
 30
0.0
 10
11.3228934746
 20
9.9344637949
 30
0.0
 10
11.3138679705
 20
9.9384160523
 30
0.0
 10
11.3055199383
 20
9.9424665636
 30
0.0
 10
11.2978651906
 20
9.9466076791
 30
0.0
 10
11.291973782
 20
9.9501895144
 30
0.0
 10
11.2876309359
 20
9.9531010931
 30
0.0
 10
11.2846148988
 20
9.9552631664
 30
0.0
 10
11.2817826097
 20
9.957441956
 30
0.0
 10
11.2791353704
 20
9.9596364478
 30
0.0
 10
11.2766744656
 20
9.9618456812
 30
0.0
 10
11.2744010702
 20
9.9640686552
 30
0.0
 10
11.2723162368
 20
9.9663043797
 30
0.0
 10
11.2704210814
 20
9.9685518473
 30
0.0
 10
11.2687163838
 20
9.9708103469
 30
0.0
 10
11.2667336077
 20
9.9737822566
 30
0.0
 10
11.2650850452
 20
9.9768298194
 30
0.0
 10
11.2638211571
 20
9.9799318128
 30
0.0
 10
11.2633228695
 20
9.9814805856
 30
0.0
 10
11.263107926
 20
9.9822534302
 30
0.0
  0
SPLINE
  5
380
100
AcDbEntity
  8
0
100
AcDbSpline
 62
7
  6
CONTINUOUS
 70
0
 71
3
 72
14
 73
10
 74
0
 42
0.0000001
 43
0.0000001
 44
0.0000000001
 40
0.0
 40
0.0
 40
0.0
 40
0.0
 40
0.1431618759
 40
0.2803567242
 40
0.4118914533
 40
0.5381392239
 40
0.7764688164
 40
0.8897900795
 40
1.0
 40
1.0
 40
1.0
 40
1.0
 10
12.058262694
 20
9.9626495102
 30
0.0
 10
12.0590746239
 20
9.9634337743
 30
0.0
 10
12.0606293455
 20
9.9650068413
 30
0.0
 10
12.0627911682
 20
9.9674325691
 30
0.0
 10
12.064730632
 20
9.9698720386
 30
0.0
 10
12.066974484
 20
9.9730782273
 30
0.0
 10
12.0688318475
 20
9.9763748283
 30
0.0
 10
12.0702383122
 20
9.979737453
 30
0.0
 10
12.0707845677
 20
9.9814158965
 30
0.0
 10
12.0710174265
 20
9.9822531364
 30
0.0
  0
SPLINE
  5
381
100
AcDbEntity
  8
0
100
AcDbSpline
 62
7
  6
CONTINUOUS
 70
0
 71
3
 72
23
 73
19
 74
0
 42
0.0000001
 43
0.0000001
 44
0.0000000001
 40
0.0
 40
0.0
 40
0.0
 40
0.0
 40
0.0637769127
 40
0.127344953
 40
0.1907019652
 40
0.2538561227
 40
0.3168132057
 40
0.3795820872
 40
0.4421733866
 40
0.5045993385
 40
0.5668738691
 40
0.6290123824
 40
0.6910316505
 40
0.7529496453
 40
0.8147853569
 40
0.8765586065
 40
0.9382898561
 40
1.0
 40
1.0
 40
1.0
 40
1.0
 10
10.0085005537
 20
8.21989873
 30
0.0
 10
10.0085005537
 20
8.2145758251
 30
0.0
 10
10.0082457686
 20
8.2039456448
 30
0.0
 10
10.0070958473
 20
8.1880650482
 30
0.0
 10
10.0051811958
 20
8.1723103252
 30
0.0
 10
10.0025064153
 20
8.1567184828
 30
0.0
 10
9.999077469
 20
8.1413251572
 30
0.0
 10
9.9949022875
 20
8.1261659332
 30
0.0
 10
9.9899904749
 20
8.1112757333
 30
0.0
 10
9.9843533128
 20
8.096688895
 30
0.0
 10
9.97800375
 20
8.0824390702
 30
0.0
 10
9.9709563999
 20
8.0685591277
 30
0.0
 10
9.9632275142
 20
8.0550810767
 30
0.0
 10
9.9548348893
 20
8.0420360009
 30
0.0
 10
9.9457978756
 20
8.0294540344
 30
0.0
 10
9.936137193
 20
8.0173641133
 30
0.0
 10
9.9258755161
 20
8.005794496
 30
0.0
 10
9.9186481635
 20
7.9984447075
 30
0.0
 10
9.9149437002
 20
7.9948664858
 30
0.0
  0
SPLINE
  5
382
100
AcDbEntity
  8
0
100
AcDbSpline
 62
7
  6
CONTINUOUS
 70
0
 71
3
 72
39
 73
35
 74
0
 42
0.0000001
 43
0.0000001
 44
0.0000000001
 40
0.0
 40
0.0
 40
0.0
 40
0.0
 40
0.0310753511
 40
0.0623079071
 40
0.0936931323
 40
0.1252222879
 40
0.1568840438
 40
0.1886642044
 40
0.2205461649
 40
0.2525112495
 40
0.2845391085
 40
0.3166081364
 40
0.3486959075
 40
0.3807796234
 40
0.4128365659
 40
0.4448445499
 40
0.4767823666
 40
0.5086302146
 40
0.540370109
 40
0.5719862657
 40
0.6034654504
 40
0.6347972851
 40
0.6659745049
 40
0.6969931576
 40
0.7278527402
 40
0.7585562639
 40
0.7891102404
 40
0.8195245852
 40
0.8498124376
 40
0.8799898966
 40
0.9100756756
 40
0.9400906817
 40
0.970057529
 40
1.0
 40
1.0
 40
1.0
 40
1.0
 10
10.0085005537
 20
8.21989873
 30
0.0
 10
10.0085005537
 20
8.2281572559
 30
0.0
 10
10.0078844875
 20
8.2447224415
 30
0.0
 10
10.0051338754
 20
8.2694909219
 30
0.0
 10
10.0005699446
 20
8.2941139607
 30
0.0
 10
9.9942179069
 20
8.3184546058
 30
0.0
 10
9.9861129417
 20
8.3423796518
 30
0.0
 10
9.9762997162
 20
8.3657576587
 30
0.0
 10
9.9648322808
 20
8.3884603629
 30
0.0
 10
9.9517737305
 20
8.4103631855
 30
0.0
 10
9.9371958488
 20
8.4313459515
 30
0.0
 10
9.9211787188
 20
8.4512935265
 30
0.0
 10
9.9038102872
 20
8.4700964435
 30
0.0
 10
9.8851858865
 20
8.4876514935
 30
0.0
 10
9.8654077365
 20
8.5038623092
 30
0.0
 10
9.8445843692
 20
8.5186398719
 30
0.0
 10
9.8228300386
 20
8.5319029921
 30
0.0
 10
9.8002641039
 20
8.5435787525
 30
0.0
 10
9.7770103826
 20
8.5536029025
 30
0.0
 10
9.7531964875
 20
8.5619202241
 30
0.0
 10
9.7289531358
 20
8.5684848475
 30
0.0
 10
9.7044134325
 20
8.5732604813
 30
0.0
 10
9.6797121532
 20
8.5762206217
 30
0.0
 10
9.6549850156
 20
8.5773487059
 30
0.0
 10
9.6303679439
 20
8.5766382107
 30
0.0
 10
9.6059963272
 20
8.5740927348
 30
0.0
 10
9.5820042764
 20
8.569725972
 30
0.0
 10
9.5585238856
 20
8.5635616441
 30
0.0
 10
9.5356845149
 20
8.5556334031
 30
0.0
 10
9.5136120268
 20
8.5459846174
 30
0.0
 10
9.4924282406
 20
8.5346683223
 30
0.0
 10
9.4722496196
 20
8.521746352
 30
0.0
 10
9.4531889001
 20
8.5072912087
 30
0.0
 10
9.4412919943
 20
8.4966805355
 30
0.0
 10
9.4355685475
 20
8.4911521335
 30
0.0
  0
SPLINE
  5
383
100
AcDbEntity
  8
0
100
AcDbSpline
 62
7
  6
CONTINUOUS
 70
0
 71
3
 72
21
 73
17
 74
0
 42
0.0000001
 43
0.0000001
 44
0.0000000001
 40
0.0
 40
0.0
 40
0.0
 40
0.0
 40
0.12731758
 40
0.2538000122
 40
0.3167619425
 40
0.3795355005
 40
0.4421315041
 40
0.5045621466
 40
0.5668413435
 40
0.6289845285
 40
0.6910084568
 40
0.7529310961
 40
0.8147714484
 40
0.8765493394
 40
0.9382852242
 40
1.0
 40
1.0
 40
1.0
 40
1.0
 10
12.4559780133
 20
7.4467427938
 30
0.0
 10
12.4559780133
 20
7.4389047143
 30
0.0
 10
12.4552298129
 20
7.4232698814
 30
0.0
 10
12.4524041276
 20
7.4039418507
 30
0.0
 10
12.4490267849
 20
7.3887806993
 30
0.0
 10
12.445946828
 20
7.3775978348
 30
0.0
 10
12.4423234905
 20
7.3666136615
 30
0.0
 10
12.4381650337
 20
7.3558532233
 30
0.0
 10
12.4334810835
 20
7.3453413995
 30
0.0
 10
12.4282824125
 20
7.3351024128
 30
0.0
 10
12.4225809458
 20
7.3251599154
 30
0.0
 10
12.4163898507
 20
7.3155368185
 30
0.0
 10
12.4097234277
 20
7.3062553312
 30
0.0
 10
12.4025969311
 20
7.297336818
 30
0.0
 10
12.3950270734
 20
7.2888021401
 30
0.0
 10
12.3896955973
 20
7.2833803343
 30
0.0
 10
12.3869628831
 20
7.2807407491
 30
0.0
  0
SPLINE
  5
384
100
AcDbEntity
  8
0
100
AcDbSpline
 62
7
  6
CONTINUOUS
 70
0
 71
3
 72
39
 73
35
 74
0
 42
0.0000001
 43
0.0000001
 44
0.0000000001
 40
0.0
 40
0.0
 40
0.0
 40
0.0
 40
0.0307104587
 40
0.0615397722
 40
0.0924842772
 40
0.1235413793
 40
0.1547056773
 40
0.1859710588
 40
0.2173300343
 40
0.2487740599
 40
0.2802935932
 40
0.3118782207
 40
0.343516783
 40
0.3751975051
 40
0.4069081327
 40
0.4386360717
 40
0.4703685316
 40
0.5020926709
 40
0.5337957434
 40
0.5654652414
 40
0.5970890382
 40
0.6286555266
 40
0.6601537532
 40
0.6915735497
 40
0.7229056563
 40
0.7541418376
 40
0.7852749871
 40
0.8162992216
 40
0.8472099643
 40
0.8780040131
 40
0.9086795968
 40
0.9392364143
 40
0.9696756549
 40
1.0
 40
1.0
 40
1.0
 40
1.0
 10
12.4729119974
 20
7.4085997674
 30
0.0
 10
12.4729119974
 20
7.4141744308
 30
0.0
 10
12.4725988512
 20
7.4253477896
 30
0.0
 10
12.4711976969
 20
7.4420854217
 30
0.0
 10
12.4688684691
 20
7.4587832965
 30
0.0
 10
12.4656186986
 20
7.4753883963
 30
0.0
 10
12.4614584648
 20
7.491849128
 30
0.0
 10
12.4564008885
 20
7.5081139603
 30
0.0
 10
12.4504617861
 20
7.524132102
 30
0.0
 10
12.443659762
 20
7.5398535015
 30
0.0
 10
12.4360161104
 20
7.5552290511
 30
0.0
 10
12.4275547474
 20
7.5702107233
 30
0.0
 10
12.4183021354
 20
7.5847517229
 30
0.0
 10
12.4082872
 20
7.5988066296
 30
0.0
 10
12.3975412415
 20
7.6123315395
 30
0.0
 10
12.3860978365
 20
7.6252841997
 30
0.0
 10
12.373992738
 20
7.6376241425
 30
0.0
 10
12.3612637709
 20
7.6493128195
 30
0.0
 10
12.3479507015
 20
7.6603137106
 30
0.0
 10
12.3340951166
 20
7.6705924387
 30
0.0
 10
12.3197402942
 20
7.6801168756
 30
0.0
 10
12.3049310704
 20
7.6888572416
 30
0.0
 10
12.2897136998
 20
7.6967861968
 30
0.0
 10
12.2741357166
 20
7.7038789334
 30
0.0
 10
12.2582457872
 20
7.7101132593
 30
0.0
 10
12.2420935532
 20
7.7154696544
 30
0.0
 10
12.2257294796
 20
7.719931334
 30
0.0
 10
12.209204697
 20
7.7234843004
 30
0.0
 10
12.1925708508
 20
7.7261173887
 30
0.0
 10
12.1758799177
 20
7.727822297
 30
0.0
 10
12.1591841301
 20
7.7285936376
 30
0.0
 10
12.1425355019
 20
7.7284289121
 30
0.0
 10
12.1259868128
 20
7.7273286689
 30
0.0
 10
12.1150335188
 20
7.7259709928
 30
0.0
 10
12.109592456
 20
7.7251372184
 30
0.0
  0
SPLINE
  5
385
100
AcDbEntity
  8
0
100
AcDbSpline
 62
7
  6
CONTINUOUS
 70
0
 71
3
 72
41
 73
37
 74
0
 42
0.0000001
 43
0.0000001
 44
0.0000000001
 40
0.0
 40
0.0
 40
0.0
 40
0.0
 40
0.0310750003
 40
0.046674464
 40
0.062312494
 40
0.0936974057
 40
0.1252262387
 40
0.1568876805
 40
0.1886675201
 40
0.2205491599
 40
0.2525139229
 40
0.268523588
 40
0.2845462912
 40
0.3166149974
 40
0.3487024468
 40
0.3807858411
 40
0.4128424624
 40
0.4448501254
 40
0.4767876212
 40
0.5086351486
 40
0.5403747235
 40
0.5719905626
 40
0.6034694315
 40
0.6348009518
 40
0.6659778585
 40
0.6969962
 40
0.7278554736
 40
0.7585586902
 40
0.7891123605
 40
0.8195263996
 40
0.849813947
 40
0.8799911023
 40
0.9100765789
 40
0.9400912834
 40
0.9700578297
 40
1.0
 40
1.0
 40
1.0
 40
1.0
 10
12.4559780133
 20
7.4467427938
 30
0.0
 10
12.4559780133
 20
7.4528349451
 30
0.0
 10
12.455637476
 20
7.4619899187
 30
0.0
 10
12.4545128097
 20
7.4741561173
 30
0.0
 10
12.4529369219
 20
7.4863339633
 30
0.0
 10
12.4501277225
 20
7.5014902141
 30
0.0
 10
12.4454419745
 20
7.5194455441
 30
0.0
 10
12.4394630908
 20
7.5370946591
 30
0.0
 10
12.4322240076
 20
7.5543402283
 30
0.0
 10
12.4237649017
 20
7.5710873049
 30
0.0
 10
12.4157406559
 20
7.5845460725
 30
0.0
 10
12.4087613439
 20
7.5949747118
 30
0.0
 10
12.4014122626
 20
7.6051713018
 30
0.0
 10
12.3915621803
 20
7.6174386048
 30
0.0
 10
12.3787500181
 20
7.6313088707
 30
0.0
 10
12.365011097
 20
7.6442589815
 30
0.0
 10
12.350421145
 20
7.6562173769
 30
0.0
 10
12.3350601343
 20
7.6671185107
 30
0.0
 10
12.3190123721
 20
7.6769024571
 30
0.0
 10
12.3023659033
 20
7.6855154375
 30
0.0
 10
12.2852120709
 20
7.692910061
 30
0.0
 10
12.2676450117
 20
7.6990455985
 30
0.0
 10
12.2497611496
 20
7.7038882034
 30
0.0
 10
12.2316586732
 20
7.7074111009
 30
0.0
 10
12.2134370047
 20
7.7095947392
 30
0.0
 10
12.1951962612
 20
7.7104269032
 30
0.0
 10
12.1770367109
 20
7.7099027902
 30
0.0
 10
12.1590582274
 20
7.708025046
 30
0.0
 10
12.1413597434
 20
7.7048037666
 30
0.0
 10
12.1240387034
 20
7.7002564514
 30
0.0
 10
12.1071905339
 20
7.6944079278
 30
0.0
 10
12.090908078
 20
7.6872901962
 30
0.0
 10
12.0752811957
 20
7.678942384
 30
0.0
 10
12.0603958047
 20
7.6694100945
 30
0.0
 10
12.0463350682
 20
7.6587468111
 30
0.0
 10
12.0375589499
 20
7.6509195125
 30
0.0
 10
12.0333368687
 20
7.6468413169
 30
0.0
  0
SPLINE
  5
386
100
AcDbEntity
  8
0
100
AcDbSpline
 62
7
  6
CONTINUOUS
 70
0
 71
3
 72
25
 73
21
 74
0
 42
0.0000001
 43
0.0000001
 44
0.0000000001
 40
0.0
 40
0.0
 40
0.0
 40
0.0
 40
0.0195401237
 40
0.040440979
 40
0.0626448378
 40
0.0860752087
 40
0.1106501202
 40
0.1362831415
 40
0.1628935894
 40
0.1904014561
 40
0.2478247935
 40
0.3080549889
 40
0.3706772996
 40
0.4353541584
 40
0.5018093452
 40
0.5698120275
 40
0.6391625958
 40
0.7096822018
 40
0.8535280845
 40
1.0
 40
1.0
 40
1.0
 40
1.0
 10
9.613941557
 20
8.2115228853
 30
0.0
 10
9.6139413975
 20
8.2109864039
 30
0.0
 10
9.6139914938
 20
8.2098757628
 30
0.0
 10
9.6141945869
 20
8.2081666783
 30
0.0
 10
9.6145224279
 20
8.2063685397
 30
0.0
 10
9.6149691379
 20
8.2044925896
 30
0.0
 10
9.6155289315
 20
8.2025491897
 30
0.0
 10
9.6161962361
 20
8.2005478986
 30
0.0
 10
9.6169657798
 20
8.1984974804
 30
0.0
 10
9.6181385312
 20
8.1956679928
 30
0.0
 10
9.619837699
 20
8.1920601252
 30
0.0
 10
9.6221866139
 20
8.1877011198
 30
0.0
 10
9.6248491762
 20
8.1832920766
 30
0.0
 10
9.6278044135
 20
8.1788668046
 30
0.0
 10
9.6310350791
 20
8.1744540654
 30
0.0
 10
9.6345264542
 20
8.1700792674
 30
0.0
 10
9.6382656048
 20
8.1657654016
 30
0.0
 10
9.643600219
 20
8.1600868146
 30
0.0
 10
9.6508113763
 20
8.1532779226
 30
0.0
 10
9.6570315865
 20
8.1482777889
 30
0.0
 10
9.6602653777
 20
8.145887269
 30
0.0
  0
SPLINE
  5
387
100
AcDbEntity
  8
0
100
AcDbSpline
 62
7
  6
CONTINUOUS
 70
0
 71
3
 72
18
 73
14
 74
0
 42
0.0000001
 43
0.0000001
 44
0.0000000001
 40
0.0
 40
0.0
 40
0.0
 40
0.0
 40
0.0548621106
 40
0.1099281304
 40
0.165399556
 40
0.2214731722
 40
0.2783387379
 40
0.3361775111
 40
0.4554063056
 40
0.5804414047
 40
0.7123341351
 40
0.8519581983
 40
1.0
 40
1.0
 40
1.0
 40
1.0
 10
12.2570627068
 20
10.0206893247
 30
0.0
 10
12.2570627106
 20
10.0198560724
 30
0.0
 10
12.2570098318
 20
10.0181859923
 30
0.0
 10
12.2567720662
 20
10.0156835864
 30
0.0
 10
12.2563758808
 20
10.0131826245
 30
0.0
 10
12.2558214251
 20
10.0106840191
 30
0.0
 10
12.2551089328
 20
10.0081883944
 30
0.0
 10
12.2539370151
 20
10.0048324527
 30
0.0
 10
12.252059615
 20
10.0006350718
 30
0.0
 10
12.2492020877
 20
9.9956779435
 30
0.0
 10
12.2457217572
 20
9.9907528942
 30
0.0
 10
12.2416239182
 20
9.9858648873
 30
0.0
 10
12.2385762094
 20
9.9827286309
 30
0.0
 10
12.2369589824
 20
9.9811665095
 30
0.0
  0
SPLINE
  5
388
100
AcDbEntity
  8
0
100
AcDbSpline
 62
7
  6
CONTINUOUS
 70
0
 71
3
 72
49
 73
45
 74
0
 42
0.0000001
 43
0.0000001
 44
0.0000000001
 40
0.0
 40
0.0
 40
0.0
 40
0.0
 40
0.0149718081
 40
0.0299466748
 40
0.0449276404
 40
0.059917709
 40
0.0749198276
 40
0.0899368702
 40
0.1049716217
 40
0.120026759
 40
0.1351048351
 40
0.1502082677
 40
0.1653393229
 40
0.1805001009
 40
0.1956925286
 40
0.2109183481
 40
0.2261791043
 40
0.2414761418
 40
0.256810598
 40
0.2721833946
 40
0.287595237
 40
0.3030466133
 40
0.3340634927
 40
0.3652389307
 40
0.3965689749
 40
0.4280463623
 40
0.4596607137
 40
0.4913987952
 40
0.5232448251
 40
0.5551808189
 40
0.5871869764
 40
0.6192420905
 40
0.6513239761
 40
0.6834099169
 40
0.7154771164
 40
0.7475031494
 40
0.779466411
 40
0.8113465537
 40
0.8431249023
 40
0.8747848503
 40
0.906312225
 40
0.9376956122
 40
0.9689264437
 40
1.0
 40
1.0
 40
1.0
 40
1.0
 10
9.2207017638
 20
8.6242371849
 30
0.0
 10
9.2255961807
 20
8.6289648416
 30
0.0
 10
9.2355750963
 20
8.6382276034
 30
0.0
 10
9.2510854602
 20
8.6515173965
 30
0.0
 10
9.267118051
 20
8.6641861951
 30
0.0
 10
9.2836505262
 20
8.6762162424
 30
0.0
 10
9.3006602269
 20
8.6875910427
 30
0.0
 10
9.3181236876
 20
8.6982949747
 30
0.0
 10
9.3360168889
 20
8.7083133103
 30
0.0
 10
9.3543152238
 20
8.7176322288
 30
0.0
 10
9.3729934821
 20
8.7262389678
 30
0.0
 10
9.3920259613
 20
8.7341216971
 30
0.0
 10
9.4113864901
 20
8.7412695311
 30
0.0
 10
9.4310484084
 20
8.7476726931
 30
0.0
 10
9.4509846597
 20
8.7533224033
 30
0.0
 10
9.4711678282
 20
8.75821085
 30
0.0
 10
9.4915701379
 20
8.7623313536
 30
0.0
 10
9.5121635103
 20
8.7656782926
 30
0.0
 10
9.5329196515
 20
8.7682470275
 30
0.0
 10
9.5538099095
 20
8.7700340602
 30
0.0
 10
9.5748059162
 20
8.7710369599
 30
0.0
 10
9.6029350038
 20
8.7713272886
 30
0.0
 10
9.6382235451
 20
8.7697176907
 30
0.0
 10
9.6804653788
 20
8.7646554497
 30
0.0
 10
9.7224321515
 20
8.7564885142
 30
0.0
 10
9.7638917735
 20
8.7452620686
 30
0.0
 10
9.8046170599
 20
8.7310382748
 30
0.0
 10
9.8443843565
 20
8.7138955737
 30
0.0
 10
9.8829754336
 20
8.6939283468
 30
0.0
 10
9.9201785675
 20
8.6712465287
 30
0.0
 10
9.9557896029
 20
8.6459747576
 30
0.0
 10
9.9896131472
 20
8.6182518923
 30
0.0
 10
10.0214636411
 20
8.5882302191
 30
0.0
 10
10.0511662283
 20
8.5560744901
 30
0.0
 10
10.0785579033
 20
8.521961236
 30
0.0
 10
10.1034882624
 20
8.4860776541
 30
0.0
 10
10.125820291
 20
8.4486206068
 30
0.0
 10
10.1454313061
 20
8.4097956603
 30
0.0
 10
10.1622133825
 20
8.3698158465
 30
0.0
 10
10.1760740788
 20
8.328900505
 30
0.0
 10
10.1869370188
 20
8.2872744517
 30
0.0
 10
10.194742032
 20
8.2451654326
 30
0.0
 10
10.1994459422
 20
8.2028076982
 30
0.0
 10
10.2004995236
 20
8.1744787857
 30
0.0
 10
10.2004995236
 20
8.1603555047
 30
0.0
  0
SPLINE
  5
389
100
AcDbEntity
  8
0
100
AcDbSpline
 62
7
  6
CONTINUOUS
 70
0
 71
3
 72
37
 73
33
 74
0
 42
0.0000001
 43
0.0000001
 44
0.0000000001
 40
0.0
 40
0.0
 40
0.0
 40
0.0
 40
0.0306163102
 40
0.0613391732
 40
0.0921654965
 40
0.1230937021
 40
0.1541197691
 40
0.1852392733
 40
0.2164467429
 40
0.2477358972
 40
0.279099688
 40
0.3105303662
 40
0.3420195636
 40
0.3735583697
 40
0.4051374173
 40
0.4367469703
 40
0.5000000141
 40
0.5632530596
 40
0.5948626125
 40
0.6264416577
 40
0.657980461
 40
0.6894696569
 40
0.7209003352
 40
0.7522641254
 40
0.7835532779
 40
0.8147607427
 40
0.8458802402
 40
0.876906326
 40
0.9078344501
 40
0.9386610079
 40
0.9693833861
 40
1.0
 40
1.0
 40
1.0
 40
1.0
 10
10.030085438
 20
8.1807484631
 30
0.0
 10
10.0300854324
 20
8.1873013245
 30
0.0
 10
10.0297553931
 20
8.2004321823
 30
0.0
 10
10.0282776932
 20
8.2201108203
 30
0.0
 10
10.0258200712
 20
8.2397589428
 30
0.0
 10
10.0223889574
 20
8.2593263051
 30
0.0
 10
10.0179928854
 20
8.2787640103
 30
0.0
 10
10.0126430145
 20
8.2980230693
 30
0.0
 10
10.0063528031
 20
8.3170550794
 30
0.0
 10
9.9991381223
 20
8.3358121807
 30
0.0
 10
9.9910171481
 20
8.354247218
 30
0.0
 10
9.9820103354
 20
8.3723138365
 30
0.0
 10
9.9721403276
 20
8.3899666429
 30
0.0
 10
9.9614320498
 20
8.4071611497
 30
0.0
 10
9.9499120808
 20
8.4238545137
 30
0.0
 10
9.933508119
 20
8.4453891131
 30
0.0
 10
9.9111264101
 20
8.4708428978
 30
0.0
 10
9.8864635195
 20
8.4940932303
 30
0.0
 10
9.8655102884
 20
8.5112335643
 30
0.0
 10
9.8492261455
 20
8.5233250788
 30
0.0
 10
9.832413043
 20
8.5346227686
 30
0.0
 10
9.8151128722
 20
8.5450985827
 30
0.0
 10
9.7973692239
 20
8.5547260596
 30
0.0
 10
9.7792266748
 20
8.5634809854
 30
0.0
 10
9.7607308449
 20
8.5713413088
 30
0.0
 10
9.7419282384
 20
8.5782872452
 30
0.0
 10
9.7228661366
 20
8.5843012961
 30
0.0
 10
9.703592458
 20
8.5893683001
 30
0.0
 10
9.6841557176
 20
8.5934754676
 30
0.0
 10
9.6646046216
 20
8.5966124179
 30
0.0
 10
9.6449890026
 20
8.598771196
 30
0.0
 10
9.631877504
 20
8.5995560212
 30
0.0
 10
9.6253285136
 20
8.5997831094
 30
0.0
  0
SPLINE
  5
38A
100
AcDbEntity
  8
0
100
AcDbSpline
 62
7
  6
CONTINUOUS
 70
0
 71
3
 72
14
 73
10
 74
0
 42
0.0000001
 43
0.0000001
 44
0.0000000001
 40
0.0
 40
0.0
 40
0.0
 40
0.0
 40
0.1125093899
 40
0.2270525458
 40
0.3441993504
 40
0.4646296583
 40
0.5891872224
 40
0.718949176
 40
1.0
 40
1.0
 40
1.0
 40
1.0
 10
9.9927428122
 20
8.1196225722
 30
0.0
 10
9.9903607203
 20
8.119211232
 30
0.0
 10
9.9855355674
 20
8.1184817213
 30
0.0
 10
9.9781834651
 20
8.1176669963
 30
0.0
 10
9.9706363159
 20
8.1171159104
 30
0.0
 10
9.962859783
 20
8.1168200296
 30
0.0
 10
9.9548069514
 20
8.1167696409
 30
0.0
 10
9.9433056308
 20
8.1170205767
 30
0.0
 10
9.9344912414
 20
8.1175348817
 30
0.0
 10
9.9284672375
 20
8.1179542194
 30
0.0
  0
SPLINE
  5
38B
100
AcDbEntity
  8
0
100
AcDbSpline
 62
7
  6
CONTINUOUS
 70
0
 71
3
 72
22
 73
18
 74
0
 42
0.0000001
 43
0.0000001
 44
0.0000000001
 40
0.0
 40
0.0
 40
0.0
 40
0.0
 40
0.129676643
 40
0.1937187216
 40
0.2572459467
 40
0.3202967612
 40
0.3829201274
 40
0.4451726142
 40
0.5071165568
 40
0.5688187157
 40
0.630349135
 40
0.6917800643
 40
0.753185197
 40
0.8146385189
 40
0.8762128746
 40
0.9379782902
 40
1.0
 40
1.0
 40
1.0
 40
1.0
 10
9.9731810233
 20
8.3710946243
 30
0.0
 10
9.9617057155
 20
8.3754097735
 30
0.0
 10
9.9448025309
 20
8.3825283831
 30
0.0
 10
9.9230198671
 20
8.3933566988
 30
0.0
 10
9.9072376407
 20
8.4020698517
 30
0.0
 10
9.8919749861
 20
8.4114093871
 30
0.0
 10
9.8772612106
 20
8.4213794678
 30
0.0
 10
9.8631283492
 20
8.431984518
 30
0.0
 10
9.8496110279
 20
8.4432288912
 30
0.0
 10
9.8367472641
 20
8.4551159346
 30
0.0
 10
9.8245787411
 20
8.4676471107
 30
0.0
 10
9.8131509108
 20
8.4808209664
 30
0.0
 10
9.8025127999
 20
8.4946320588
 30
0.0
 10
9.7927166086
 20
8.5090696905
 30
0.0
 10
9.7838167927
 20
8.5241170968
 30
0.0
 10
9.7758695536
 20
8.53974876
 30
0.0
 10
9.7712535798
 20
8.5505139265
 30
0.0
 10
9.7691227944
 20
8.5559766947
 30
0.0
  0
SPLINE
  5
38C
100
AcDbEntity
  8
0
100
AcDbSpline
 62
7
  6
CONTINUOUS
 70
0
 71
3
 72
44
 73
40
 74
0
 42
0.0000001
 43
0.0000001
 44
0.0000000001
 40
0.0
 40
0.0
 40
0.0
 40
0.0
 40
0.0149722236
 40
0.0299475067
 40
0.0449288886
 40
0.0599193736
 40
0.0749219097
 40
0.08993937
 40
0.1049745397
 40
0.1200300961
 40
0.1351085917
 40
0.1502124449
 40
0.1804994096
 40
0.2109128633
 40
0.2414659442
 40
0.2721685685
 40
0.3030272475
 40
0.3340449904
 40
0.3652212956
 40
0.396552213
 40
0.4280304762
 40
0.4596457066
 40
0.4913846713
 40
0.5232315866
 40
0.555168468
 40
0.587175515
 40
0.6192315195
 40
0.6513142962
 40
0.6834011282
 40
0.7154692177
 40
0.7474961397
 40
0.7794602892
 40
0.8113413161
 40
0.8431205468
 40
0.8747813742
 40
0.9063096205
 40
0.9376938957
 40
0.9689255646
 40
1.0
 40
1.0
 40
1.0
 40
1.0
 10
11.824343102
 20
7.7751717945
 30
0.0
 10
11.8284245486
 20
7.7791141729
 30
0.0
 10
11.8367459536
 20
7.786838358
 30
0.0
 10
11.8496800264
 20
7.7979206684
 30
0.0
 10
11.8630495984
 20
7.8084851116
 30
0.0
 10
11.8768359987
 20
7.8185169308
 30
0.0
 10
11.8910203684
 20
7.8280023255
 30
0.0
 10
11.9055831235
 20
7.8369282789
 30
0.0
 10
11.9205042471
 20
7.8452825348
 30
0.0
 10
11.9357631498
 20
7.853053514
 30
0.0
 10
11.9513391165
 20
7.8602306921
 30
0.0
 10
11.9725174739
 20
7.8690022772
 30
0.0
 10
11.9996887013
 20
7.8784345181
 30
0.0
 10
12.0331729899
 20
7.8872250475
 30
0.0
 10
12.0673879602
 20
7.893452563
 30
0.0
 10
12.1021439578
 20
7.8970826192
 30
0.0
 10
12.1372500691
 20
7.8980958506
 30
0.0
 10
12.1725131248
 20
7.8964871407
 30
0.0
 10
12.2077393147
 20
7.892265765
 30
0.0
 10
12.2427350773
 20
7.8854552939
 30
0.0
 10
12.2773082176
 20
7.8760935729
 30
0.0
 10
12.3112689212
 20
7.8642323652
 30
0.0
 10
12.3444307639
 20
7.8499370579
 30
0.0
 10
12.3766117662
 20
7.8332864164
 30
0.0
 10
12.4076353611
 20
7.8143720759
 30
0.0
 10
12.4373313117
 20
7.7932979887
 30
0.0
 10
12.4655366721
 20
7.7701799339
 30
0.0
 10
12.492096701
 20
7.7451449035
 30
0.0
 10
12.5168656291
 20
7.718330323
 30
0.0
 10
12.5397074591
 20
7.6898833371
 30
0.0
 10
12.5604967983
 20
7.6599600812
 30
0.0
 10
12.5791194479
 20
7.6287247488
 30
0.0
 10
12.5954730011
 20
7.5963487
 30
0.0
 10
12.609467511
 20
7.563009616
 30
0.0
 10
12.6210259341
 20
7.528890415
 30
0.0
 10
12.6300844999
 20
7.4941785345
 30
0.0
 10
12.6365930611
 20
7.4590639234
 30
0.0
 10
12.6405156588
 20
7.4237419066
 30
0.0
 10
12.6413942313
 20
7.4001184959
 30
0.0
 10
12.6413942313
 20
7.388341118
 30
0.0
  0
SPLINE
  5
38D
100
AcDbEntity
  8
0
100
AcDbSpline
 62
7
  6
CONTINUOUS
 70
0
 71
3
 72
73
 73
69
 74
0
 42
0.0000001
 43
0.0000001
 44
0.0000000001
 40
0.0
 40
0.0
 40
0.0
 40
0.0
 40
0.0036899217
 40
0.0075220722
 40
0.0114999241
 40
0.0156263923
 40
0.0199038122
 40
0.0243340611
 40
0.0289186039
 40
0.0336584765
 40
0.0385544129
 40
0.0436068119
 40
0.0541807001
 40
0.0653786566
 40
0.0771951324
 40
0.089621585
 40
0.1026468929
 40
0.1162576909
 40
0.1304386228
 40
0.1451725279
 40
0.1604406229
 40
0.1762226663
 40
0.1924970827
 40
0.2092410562
 40
0.2264306365
 40
0.2440408462
 40
0.2620457622
 40
0.2804185807
 40
0.2991316963
 40
0.3181567872
 40
0.3374648822
 40
0.3768107074
 40
0.4169274633
 40
0.4575665897
 40
0.498475352
 40
0.5393988829
 40
0.5800822002
 40
0.6202722166
 40
0.659719788
 40
0.6790891832
 40
0.6981823705
 40
0.7169702342
 40
0.7354242897
 40
0.7535167596
 40
0.771220657
 40
0.7885098461
 40
0.8053591152
 40
0.8217442679
 40
0.8376422293
 40
0.8530311246
 40
0.8678903835
 40
0.8822008716
 40
0.8959450526
 40
0.909107133
 40
0.9216732551
 40
0.93363175
 40
0.9449734639
 40
0.9556921057
 40
0.9608169699
 40
0.9657853037
 40
0.9705973493
 40
0.9752536818
 40
0.9797551699
 40
0.9841030803
 40
0.9882991772
 40
0.992345623
 40
0.9962449193
 40
1.0
 40
1.0
 40
1.0
 40
1.0
 10
12.8449845748
 20
7.6785378708
 30
0.0
 10
12.8440543164
 20
7.679681678
 30
0.0
 10
12.8422061729
 20
7.6820529599
 30
0.0
 10
12.8395197739
 20
7.6857818976
 30
0.0
 10
12.8368685786
 20
7.6897475412
 30
0.0
 10
12.834253754
 20
7.6939482208
 30
0.0
 10
12.831676282
 20
7.6983822196
 30
0.0
 10
12.8291372117
 20
7.7030477241
 30
0.0
 10
12.8266376012
 20
7.7079428401
 30
0.0
 10
12.8241784261
 20
7.7130655368
 30
0.0
 10
12.8217607065
 20
7.7184137362
 30
0.0
 10
12.8185448357
 20
7.7259572129
 30
0.0
 10
12.8146463987
 20
7.7359440536
 30
0.0
 10
12.8102174102
 20
7.7486152651
 30
0.0
 10
12.8059765902
 20
7.7621283671
 30
0.0
 10
12.8019309913
 20
7.7764610552
 30
0.0
 10
12.7980873532
 20
7.7915898425
 30
0.0
 10
12.7944521096
 20
7.807489793
 30
0.0
 10
12.7910313627
 20
7.8241346675
 30
0.0
 10
12.7878308478
 20
7.841496938
 30
0.0
 10
12.7848559288
 20
7.8595478531
 30
0.0
 10
12.7821116005
 20
7.8782575002
 30
0.0
 10
12.7796024783
 20
7.8975948573
 30
0.0
 10
12.777332773
 20
7.9175278392
 30
0.0
 10
12.7753062876
 20
7.9380233555
 30
0.0
 10
12.773526425
 20
7.9590473768
 30
0.0
 10
12.771996182
 20
7.9805649898
 30
0.0
 10
12.7707181272
 20
8.0025404534
 30
0.0
 10
12.769694408
 20
8.0249372478
 30
0.0
 10
12.7689267221
 20
8.0477181911
 30
0.0
 10
12.7682420986
 20
8.0787485128
 30
0.0
 10
12.7680440082
 20
8.1182161917
 30
0.0
 10
12.7688375311
 20
8.1662007461
 30
0.0
 10
12.7706560824
 20
8.2147823297
 30
0.0
 10
12.7734876521
 20
8.2636382015
 30
0.0
 10
12.7773135471
 20
8.3124439867
 30
0.0
 10
12.7821082705
 20
8.3608756539
 30
0.0
 10
12.7878399133
 20
8.4086114654
 30
0.0
 10
12.7933981483
 20
8.4477816403
 30
0.0
 10
12.7982930747
 20
8.4785246138
 30
0.0
 10
12.8021506517
 20
8.5010724453
 30
0.0
 10
12.8062103209
 20
8.5232130397
 30
0.0
 10
12.8104653489
 20
8.5449096362
 30
0.0
 10
12.8149086402
 20
8.5661261822
 30
0.0
 10
12.8195327798
 20
8.5868274432
 30
0.0
 10
12.8243300545
 20
8.6069790436
 30
0.0
 10
12.8292924661
 20
8.626547523
 30
0.0
 10
12.834411742
 20
8.6455004007
 30
0.0
 10
12.8396793315
 20
8.6638062383
 30
0.0
 10
12.8450864429
 20
8.6814346855
 30
0.0
 10
12.8506240556
 20
8.698356527
 30
0.0
 10
12.8562829374
 20
8.7145437446
 30
0.0
 10
12.862053639
 20
8.7299695776
 30
0.0
 10
12.8679265405
 20
8.7446085689
 30
0.0
 10
12.8738918645
 20
8.758436582
 30
0.0
 10
12.8799397208
 20
8.7714309537
 30
0.0
 10
12.8860600583
 20
8.7835702375
 30
0.0
 10
12.8912876373
 20
8.7930948371
 30
0.0
 10
12.8955054572
 20
8.8002618964
 30
0.0
 10
12.8986332346
 20
8.8053305085
 30
0.0
 10
12.9017715557
 20
8.8101709814
 30
0.0
 10
12.9049191064
 20
8.8147813446
 30
0.0
 10
12.9080745963
 20
8.8191596955
 30
0.0
 10
12.9112367852
 20
8.8233042437
 30
0.0
 10
12.9144043883
 20
8.827213352
 30
0.0
 10
12.917576199
 20
8.8308853995
 30
0.0
 10
12.9207507459
 20
8.8343187334
 30
0.0
 10
12.9229080961
 20
8.8364877922
 30
0.0
 10
12.9239872468
 20
8.8375301718
 30
0.0
  0
SPLINE
  5
38E
100
AcDbEntity
  8
0
100
AcDbSpline
 62
7
  6
CONTINUOUS
 70
0
 71
3
 72
86
 73
82
 74
0
 42
0.0000001
 43
0.0000001
 44
0.0000000001
 40
0.0
 40
0.0
 40
0.0
 40
0.0
 40
0.0039801735
 40
0.0081241171
 40
0.0124359931
 40
0.016919361
 40
0.0215772361
 40
0.0264119817
 40
0.0314252561
 40
0.0366182449
 40
0.0419916453
 40
0.0475457694
 40
0.0532805541
 40
0.0591955582
 40
0.0652900785
 40
0.0715630739
 40
0.0846387684
 40
0.0984101018
 40
0.112860694
 40
0.1279712428
 40
0.1437198619
 40
0.1600823544
 40
0.1770324406
 40
0.1945419645
 40
0.2125810668
 40
0.2311183398
 40
0.2501209668
 40
0.2695548486
 40
0.289384725
 40
0.3095742955
 40
0.3300863312
 40
0.3508827821
 40
0.3719248818
 40
0.3931732491
 40
0.4145879914
 40
0.4577543474
 40
0.501099203
 40
0.5442952951
 40
0.5657359749
 40
0.587017582
 40
0.6081001434
 40
0.6289441761
 40
0.6495107926
 40
0.6697618048
 40
0.6896598276
 40
0.709168385
 40
0.7282520204
 40
0.7468764117
 40
0.7650084972
 40
0.7826166038
 40
0.7996705814
 40
0.8161419537
 40
0.8320040874
 40
0.8472323859
 40
0.8618045214
 40
0.8757007003
 40
0.8889039845
 40
0.9014006969
 40
0.9073810972
 40
0.9131815075
 40
0.9188013673
 40
0.9242405009
 40
0.9294990443
 40
0.9345775709
 40
0.9394770909
 40
0.9441990928
 40
0.9487456636
 40
0.9531194621
 40
0.9573238984
 40
0.9613631411
 40
0.9652422549
 40
0.9689673208
 40
0.9725454977
 40
0.9759852252
 40
0.9824864215
 40
0.9855752926
 40
0.9885737717
 40
0.9914977072
 40
0.9943643167
 40
0.9971920017
 40
1.0
 40
1.0
 40
1.0
 40
1.0
 10
11.0971664399
 20
10.0602113908
 30
0.0
 10
11.0983349672
 20
10.0613401016
 30
0.0
 10
11.1007731698
 20
10.0635895451
 30
0.0
 10
11.1046442916
 20
10.066875035
 30
0.0
 10
11.1087996886
 20
10.0701369708
 30
0.0
 10
11.1132370797
 20
10.0733735952
 30
0.0
 10
11.1179542858
 20
10.0765834124
 30
0.0
 10
11.1229490122
 20
10.0797648443
 30
0.0
 10
11.1282187553
 20
10.0829163882
 30
0.0
 10
11.1337609031
 20
10.0860364038
 30
0.0
 10
11.1395726601
 20
10.0891233748
 30
0.0
 10
11.1456511246
 20
10.0921757467
 30
0.0
 10
11.1519932569
 20
10.0951919745
 30
0.0
 10
11.158595859
 20
10.0981705768
 30
0.0
 10
11.1654556369
 20
10.1011100208
 30
0.0
 10
11.1750736463
 20
10.1050293919
 30
0.0
 10
11.1877221349
 20
10.1098094431
 30
0.0
 10
11.2036656952
 20
10.1152898415
 30
0.0
 10
11.2205457505
 20
10.120579953
 30
0.0
 10
11.2383282686
 20
10.1256690251
 30
0.0
 10
11.2569775532
 20
10.1305466982
 30
0.0
 10
11.2764560368
 20
10.1352030364
 30
0.0
 10
11.2967244493
 20
10.1396285579
 30
0.0
 10
11.3177418866
 20
10.1438142482
 30
0.0
 10
11.3394659087
 20
10.1477515819
 30
0.0
 10
11.3618526286
 20
10.1514325399
 30
0.0
 10
11.3848568034
 20
10.1548496253
 30
0.0
 10
11.4084319265
 20
10.1579958811
 30
0.0
 10
11.4325303237
 20
10.1608649072
 30
0.0
 10
11.4571032545
 20
10.1634508672
 30
0.0
 10
11.482101013
 20
10.1657485001
 30
0.0
 10
11.5074730332
 20
10.1677531339
 30
0.0
 10
11.5331679726
 20
10.1694606818
 30
0.0
 10
11.5591338872
 20
10.1708676991
 30
0.0
 10
11.5941375739
 20
10.172342917
 30
0.0
 10
11.6381824701
 20
10.1734144519
 30
0.0
 10
11.6911311744
 20
10.1734703207
 30
0.0
 10
11.7352009575
 20
10.172491918
 30
0.0
 10
11.7702440173
 20
10.1710910579
 30
0.0
 10
11.796253576
 20
10.1697390277
 30
0.0
 10
11.8220016784
 20
10.1680859038
 30
0.0
 10
11.8474362713
 20
10.1661350169
 30
0.0
 10
11.8725058835
 20
10.1638903419
 30
0.0
 10
11.8971598025
 20
10.1613564452
 30
0.0
 10
11.9213481588
 20
10.1585384824
 30
0.0
 10
11.9450220308
 20
10.1554421869
 30
0.0
 10
11.9681335432
 20
10.1520738589
 30
0.0
 10
11.9906359677
 20
10.1484403516
 30
0.0
 10
12.0124838225
 20
10.1445490636
 30
0.0
 10
12.0336329674
 20
10.1404079217
 30
0.0
 10
12.0540406944
 20
10.1360253613
 30
0.0
 10
12.0736658166
 20
10.1314103098
 30
0.0
 10
12.092468756
 20
10.126572168
 30
0.0
 10
12.1104116413
 20
10.1215207862
 30
0.0
 10
12.1274583715
 20
10.1162664489
 30
0.0
 10
12.1435747993
 20
10.1108198395
 30
0.0
 10
12.1587284746
 20
10.1051920154
 30
0.0
 10
12.1706985081
 20
10.1002914834
 30
0.0
 10
12.1797604573
 20
10.096279877
 30
0.0
 10
12.1861977208
 20
10.0932771539
 30
0.0
 10
12.1923724471
 20
10.0902377395
 30
0.0
 10
12.1982815678
 20
10.0871631901
 30
0.0
 10
12.2039221046
 20
10.0840550057
 30
0.0
 10
12.2092912447
 20
10.0809147586
 30
0.0
 10
12.2143863137
 20
10.0777440191
 30
0.0
 10
12.219204751
 20
10.0745443136
 30
0.0
 10
12.2237441913
 20
10.0713172736
 30
0.0
 10
12.2280023403
 20
10.068064404
 30
0.0
 10
12.2319771126
 20
10.0647873209
 30
0.0
 10
12.2356665093
 20
10.0614875699
 30
0.0
 10
12.2390686877
 20
10.0581666545
 30
0.0
 10
12.2421818895
 20
10.0548262691
 30
0.0
 10
12.2450047011
 20
10.0514674712
 30
0.0
 10
12.2483161926
 20
10.0470510977
 30
0.0
 10
12.251128147
 20
10.042515641
 30
0.0
 10
12.2533607538
 20
10.0378833633
 30
0.0
 10
12.2547096653
 20
10.0344574365
 30
0.0
 10
12.2557601649
 20
10.0310231904
 30
0.0
 10
12.256511275
 20
10.0275822584
 30
0.0
 10
12.2569622965
 20
10.0241371253
 30
0.0
 10
12.2570627016
 20
10.0218355
 30
0.0
 10
12.2570627068
 20
10.0206893247
 30
0.0
  0
SPLINE
  5
38F
100
AcDbEntity
  8
0
100
AcDbSpline
 62
7
  6
CONTINUOUS
 70
0
 71
3
 72
71
 73
67
 74
0
 42
0.0000001
 43
0.0000001
 44
0.0000000001
 40
0.0
 40
0.0
 40
0.0
 40
0.0
 40
0.0155413426
 40
0.0310303932
 40
0.0464691905
 40
0.0618591364
 40
0.0772023668
 40
0.092501475
 40
0.1077594618
 40
0.1229797559
 40
0.1381661606
 40
0.1533228255
 40
0.1684542054
 40
0.183565015
 40
0.1986601806
 40
0.2137447907
 40
0.2288240443
 40
0.2439031969
 40
0.2589875048
 40
0.2740821698
 40
0.2891922855
 40
0.304322786
 40
0.3194783951
 40
0.3346635782
 40
0.349882497
 40
0.3651389697
 40
0.380436436
 40
0.3957779259
 40
0.4111660319
 40
0.4266028858
 40
0.4420901443
 40
0.4576289782
 40
0.4732200658
 40
0.48886359
 40
0.5045592406
 40
0.5203062244
 40
0.5361032776
 40
0.551948681
 40
0.5678402779
 40
0.583775498
 40
0.5997513852
 40
0.6157646267
 40
0.6318115829
 40
0.6478883201
 40
0.663990648
 40
0.6801141578
 40
0.6962542597
 40
0.7124062215
 40
0.7285652097
 40
0.7447263318
 40
0.7608846785
 40
0.777035363
 40
0.7931735625
 40
0.809294561
 40
0.82539379
 40
0.8414668674
 40
0.8575096345
 40
0.873518194
 40
0.8894889457
 40
0.9054186257
 40
0.9213043195
 40
0.9371435114
 40
0.9529341527
 40
0.9686743321
 40
0.9843635456
 40
1.0
 40
1.0
 40
1.0
 40
1.0
 10
10.0297914455
 20
8.1956430818
 30
0.0
 10
10.0295560419
 20
8.1898152553
 30
0.0
 10
10.0288028183
 20
8.1781886097
 30
0.0
 10
10.0268224084
 20
8.160855044
 30
0.0
 10
10.0239980326
 20
8.1436959251
 30
0.0
 10
10.0203361565
 20
8.1267518629
 30
0.0
 10
10.0158453904
 20
8.1100625835
 30
0.0
 10
10.0105362571
 20
8.0936673198
 30
0.0
 10
10.0044211811
 20
8.0776045849
 30
0.0
 10
9.9975144869
 20
8.0619121374
 30
0.0
 10
9.9898323588
 20
8.0466268668
 30
0.0
 10
9.9813928426
 20
8.0317846948
 30
0.0
 10
9.9722157514
 20
8.0174205096
 30
0.0
 10
9.9623226309
 20
8.0035680819
 30
0.0
 10
9.9517367016
 20
7.9902599927
 30
0.0
 10
9.9404828385
 20
7.9775275299
 30
0.0
 10
9.9285875026
 20
7.9654006139
 30
0.0
 10
9.9160786527
 20
7.9539077494
 30
0.0
 10
9.9029856878
 20
7.9430759534
 30
0.0
 10
9.8893393746
 20
7.9329306985
 30
0.0
 10
9.8751718076
 20
7.9234958078
 30
0.0
 10
9.8605163012
 20
7.914793431
 30
0.0
 10
9.8454073084
 20
7.9068440006
 30
0.0
 10
9.8298803407
 20
7.8996661858
 30
0.0
 10
9.8139718914
 20
7.8932768396
 30
0.0
 10
9.797719361
 20
7.8876909227
 30
0.0
 10
9.7811609447
 20
7.8829215181
 30
0.0
 10
9.7643355478
 20
7.8789797945
 30
0.0
 10
9.7472826946
 20
7.8758749909
 30
0.0
 10
9.7300424443
 20
7.8736143591
 30
0.0
 10
9.712655291
 20
7.8722031469
 30
0.0
 10
9.695162063
 20
7.8716446241
 30
0.0
 10
9.6776038306
 20
7.8719400665
 30
0.0
 10
9.6600218139
 20
7.8730887622
 30
0.0
 10
9.642457283
 20
7.8750879609
 30
0.0
 10
9.624951459
 20
7.8779329196
 30
0.0
 10
9.6075454205
 20
7.8816169256
 30
0.0
 10
9.5902800105
 20
7.886131311
 30
0.0
 10
9.5731957426
 20
7.8914654664
 30
0.0
 10
9.5563326918
 20
7.8976068256
 30
0.0
 10
9.5397304131
 20
7.9045409468
 30
0.0
 10
9.5234278503
 20
7.9122515398
 30
0.0
 10
9.5074632504
 20
7.9207205103
 30
0.0
 10
9.4918740625
 20
7.9299279736
 30
0.0
 10
9.4766968414
 20
7.9398522964
 30
0.0
 10
9.461967183
 20
7.9504701831
 30
0.0
 10
9.4477196375
 20
7.9617567202
 30
0.0
 10
9.4339876375
 20
7.97368544
 30
0.0
 10
9.4208033871
 20
7.9862283451
 30
0.0
 10
9.4081978034
 20
7.9993559994
 30
0.0
 10
9.3962004564
 20
8.0130376078
 30
0.0
 10
9.3848394998
 20
8.0272410838
 30
0.0
 10
9.3741416048
 20
8.0419331211
 30
0.0
 10
9.3641318592
 20
8.0570792452
 30
0.0
 10
9.3548337481
 20
8.072643927
 30
0.0
 10
9.3462690975
 20
8.0885906606
 30
0.0
 10
9.3384580305
 20
8.10488205
 30
0.0
 10
9.3314188978
 20
8.1214798827
 30
0.0
 10
9.3251682142
 20
8.138345217
 30
0.0
 10
9.3197206695
 20
8.1554384908
 30
0.0
 10
9.3150890734
 20
8.1727196019
 30
0.0
 10
9.3112843318
 20
8.1901480389
 30
0.0
 10
9.3083154549
 20
8.2076828004
 30
0.0
 10
9.3061892865
 20
8.225283057
 30
0.0
 10
9.3049110757
 20
8.2429067524
 30
0.0
 10
9.3046256404
 20
8.2546650475
 30
0.0
 10
9.3046256404
 20
8.2605333213
 30
0.0
  0
SPLINE
  5
390
100
AcDbEntity
  8
0
100
AcDbSpline
 62
7
  6
CONTINUOUS
 70
0
 71
3
 72
15
 73
11
 74
0
 42
0.0000001
 43
0.0000001
 44
0.0000000001
 40
0.0
 40
0.0
 40
0.0
 40
0.0
 40
0.1255153504
 40
0.2521984444
 40
0.378903796
 40
0.5049596259
 40
0.6300878533
 40
0.7542459168
 40
0.8775087574
 40
1.0
 40
1.0
 40
1.0
 40
1.0
 10
9.930602276
 20
8.1601394944
 30
0.0
 10
9.933743515
 20
8.1600222225
 30
0.0
 10
9.940063565
 20
8.1599767429
 30
0.0
 10
9.9495462988
 20
8.1604215618
 30
0.0
 10
9.9590098269
 20
8.1613202654
 30
0.0
 10
9.9683879836
 20
8.1626092609
 30
0.0
 10
9.9776489799
 20
8.1642314809
 30
0.0
 10
9.9867831868
 20
8.1661410548
 30
0.0
 10
9.9957927589
 20
8.1683028613
 30
0.0
 10
10.001737768
 20
8.1698988107
 30
0.0
 10
10.0046904129
 20
8.1707310466
 30
0.0
  0
SPLINE
  5
391
100
AcDbEntity
  8
0
100
AcDbSpline
 62
7
  6
CONTINUOUS
 70
0
 71
3
 72
18
 73
14
 74
0
 42
0.0000001
 43
0.0000001
 44
0.0000000001
 40
0.0
 40
0.0
 40
0.0
 40
0.0
 40
0.0548621106
 40
0.1099281304
 40
0.165399556
 40
0.2214731722
 40
0.2783387379
 40
0.3361775111
 40
0.4554063056
 40
0.5804414047
 40
0.7123341351
 40
0.8519581983
 40
1.0
 40
1.0
 40
1.0
 40
1.0
 10
11.0770627155
 20
10.0206885756
 30
0.0
 10
11.0770627118
 20
10.0215218278
 30
0.0
 10
11.0771155906
 20
10.023191908
 30
0.0
 10
11.0773533561
 20
10.0256943139
 30
0.0
 10
11.0777495415
 20
10.0281952758
 30
0.0
 10
11.0783039972
 20
10.0306938812
 30
0.0
 10
11.0790164895
 20
10.0331895059
 30
0.0
 10
11.0801884072
 20
10.0365454476
 30
0.0
 10
11.0820658073
 20
10.0407428285
 30
0.0
 10
11.0849233346
 20
10.0456999568
 30
0.0
 10
11.0884036651
 20
10.0506250061
 30
0.0
 10
11.0925015041
 20
10.055513013
 30
0.0
 10
11.0955492129
 20
10.0586492694
 30
0.0
 10
11.0971664399
 20
10.0602113908
 30
0.0
  0
SPLINE
  5
392
100
AcDbEntity
  8
0
100
AcDbSpline
 62
7
  6
CONTINUOUS
 70
0
 71
3
 72
11
 73
7
 74
0
 42
0.0000001
 43
0.0000001
 44
0.0000000001
 40
0.0
 40
0.0
 40
0.0
 40
0.0
 40
0.2262182344
 40
0.4665893164
 40
0.7238213286
 40
1.0
 40
1.0
 40
1.0
 40
1.0
 10
11.0801439756
 20
10.0053652737
 30
0.0
 10
11.0809659514
 20
10.0074387015
 30
0.0
 10
11.0829591201
 20
10.0116014874
 30
0.0
 10
11.0868009258
 20
10.0176325572
 30
0.0
 10
11.0915625973
 20
10.0236088862
 30
0.0
 10
11.0952079079
 20
10.027409965
 30
0.0
 10
11.0971664399
 20
10.0293017618
 30
0.0
  0
SPLINE
  5
393
100
AcDbEntity
  8
0
100
AcDbSpline
 62
7
  6
CONTINUOUS
 70
0
 71
3
 72
81
 73
77
 74
0
 42
0.0000001
 43
0.0000001
 44
0.0000000001
 40
0.0
 40
0.0
 40
0.0
 40
0.0
 40
0.0029677058
 40
0.0060264489
 40
0.0091887023
 40
0.0124655884
 40
0.0158669045
 40
0.019401166
 40
0.0230757669
 40
0.0268969995
 40
0.0308702163
 40
0.0349999206
 40
0.0392898065
 40
0.0437429319
 40
0.0483617003
 40
0.0531479816
 40
0.0581031778
 40
0.0632282036
 40
0.068523631
 40
0.0739896384
 40
0.085432028
 40
0.0975515123
 40
0.1103396093
 40
0.1237844348
 40
0.1378711431
 40
0.1525823018
 40
0.1678981901
 40
0.1837970363
 40
0.2002552112
 40
0.2172473923
 40
0.2347467304
 40
0.2527249849
 40
0.2711526434
 40
0.2899990256
 40
0.3092323907
 40
0.3288200467
 40
0.3487284453
 40
0.3689232719
 40
0.3893695301
 40
0.4308727969
 40
0.4729488647
 40
0.5153023396
 40
0.5576353103
 40
0.5996500467
 40
0.6204461107
 40
0.6410524408
 40
0.6614330818
 40
0.6815526045
 40
0.7013761953
 40
0.7208697401
 40
0.7399999129
 40
0.75873427
 40
0.7770413587
 40
0.7948908127
 40
0.8122534539
 40
0.8291014058
 40
0.8454082241
 40
0.8611490466
 40
0.876300737
 40
0.89084206
 40
0.9047538917
 40
0.9180194835
 40
0.9306247751
 40
0.9425587655
 40
0.9482717999
 40
0.953814552
 40
0.9591867291
 40
0.9643884053
 40
0.9694199444
 40
0.974282104
 40
0.9789760498
 40
0.9835034013
 40
0.9878664245
 40
0.9920679255
 40
0.9961111765
 40
1.0
 40
1.0
 40
1.0
 40
1.0
 10
12.254114795
 20
10.0050251225
 30
0.0
 10
12.2536825027
 20
10.0061401808
 30
0.0
 10
12.2527197266
 20
10.0083724189
 30
0.0
 10
12.2510188406
 20
10.0116644876
 30
0.0
 10
12.2490424573
 20
10.0149451963
 30
0.0
 10
12.2467917895
 20
10.0182128634
 30
0.0
 10
12.2442680088
 20
10.0214661554
 30
0.0
 10
12.24147247
 20
10.0247037313
 30
0.0
 10
12.2384064807
 20
10.0279241602
 30
0.0
 10
12.2350715584
 20
10.0311261048
 30
0.0
 10
12.2314692614
 20
10.0343081642
 30
0.0
 10
12.2276012516
 20
10.0374689049
 30
0.0
 10
12.2234693653
 20
10.0406069762
 30
0.0
 10
12.2190754799
 20
10.0437209031
 30
0.0
 10
12.2144216583
 20
10.0468093071
 30
0.0
 10
12.2095100589
 20
10.0498707736
 30
0.0
 10
12.2043429467
 20
10.0529038543
 30
0.0
 10
12.1989227556
 20
10.0559071932
 30
0.0
 10
12.1932519813
 20
10.0588793709
 30
0.0
 10
12.1852377176
 20
10.062859701
 30
0.0
 10
12.174601416
 20
10.0677360995
 30
0.0
 10
12.1610710633
 20
10.0733558199
 30
0.0
 10
12.146610981
 20
10.0788189666
 30
0.0
 10
12.1312482458
 20
10.0841152261
 30
0.0
 10
12.115011443
 20
10.089234608
 30
0.0
 10
12.0979309579
 20
10.0941674208
 30
0.0
 10
12.0800387893
 20
10.0989043148
 30
0.0
 10
12.0613685104
 20
10.1034363015
 30
0.0
 10
12.0419551963
 20
10.1077547784
 30
0.0
 10
12.0218353554
 20
10.1118515588
 30
0.0
 10
12.0010468478
 20
10.1157188715
 30
0.0
 10
11.9796288054
 20
10.1193493803
 30
0.0
 10
11.9576215583
 20
10.1227361945
 30
0.0
 10
11.9350665625
 20
10.1258728921
 30
0.0
 10
11.9120063192
 20
10.128753532
 30
0.0
 10
11.8884842838
 20
10.1313726568
 30
0.0
 10
11.8645447969
 20
10.1337252942
 30
0.0
 10
11.8402329439
 20
10.1358070103
 30
0.0
 10
11.8072184704
 20
10.1382279874
 30
0.0
 10
11.7653580519
 20
10.1405422073
 30
0.0
 10
11.7146318874
 20
10.1421771964
 30
0.0
 10
11.66354729
 20
10.1426709979
 30
0.0
 10
11.6124893658
 20
10.1420198518
 30
0.0
 10
11.5701410611
 20
10.140522352
 30
0.0
 10
11.5365718366
 20
10.1387499346
 30
0.0
 10
11.5117257723
 20
10.1371445723
 30
0.0
 10
11.4871726236
 20
10.1352618093
 30
0.0
 10
11.4629586399
 20
10.1331051872
 30
0.0
 10
11.4391294745
 20
10.1306788035
 30
0.0
 10
11.415730039
 20
10.1279872541
 30
0.0
 10
11.3928044367
 20
10.1250356389
 30
0.0
 10
11.3703958715
 20
10.121829546
 30
0.0
 10
11.3485465609
 20
10.1183750583
 30
0.0
 10
11.3272976563
 20
10.1146787294
 30
0.0
 10
11.3066891693
 20
10.1107475698
 30
0.0
 10
11.2867598942
 20
10.1065890339
 30
0.0
 10
11.2675473265
 20
10.1022110061
 30
0.0
 10
11.2490875809
 20
10.0976217997
 30
0.0
 10
11.2314153263
 20
10.0928301228
 30
0.0
 10
11.2145637116
 20
10.0878450624
 30
0.0
 10
11.1985643191
 20
10.0826760609
 30
0.0
 10
11.1834469908
 20
10.0773328935
 30
0.0
 10
11.1692400761
 20
10.0718256651
 30
0.0
 10
11.1580240216
 20
10.0670411901
 30
0.0
 10
11.1495358948
 20
10.063130919
 30
0.0
 10
11.1435065254
 20
10.0602063999
 30
0.0
 10
11.1377238613
 20
10.0572487029
 30
0.0
 10
11.1321905714
 20
10.0542592358
 30
0.0
 10
11.126909258
 20
10.051239352
 30
0.0
 10
11.1218823847
 20
10.0481904753
 30
0.0
 10
11.1171122846
 20
10.0451140545
 30
0.0
 10
11.1126011837
 20
10.0420114366
 30
0.0
 10
11.10835111
 20
10.0388840554
 30
0.0
 10
11.1043640355
 20
10.0357332443
 30
0.0
 10
11.1006420026
 20
10.0325606274
 30
0.0
 10
11.0982935938
 20
10.0303905089
 30
0.0
 10
11.0971664399
 20
10.0293017618
 30
0.0
  0
SPLINE
  5
394
100
AcDbEntity
  8
0
100
AcDbSpline
 62
7
  6
CONTINUOUS
 70
0
 71
3
 72
20
 73
16
 74
0
 42
0.0000001
 43
0.0000001
 44
0.0000000001
 40
0.0
 40
0.0
 40
0.0
 40
0.0
 40
0.0576571816
 40
0.1144984428
 40
0.1708512811
 40
0.2270525635
 40
0.2834420894
 40
0.3403560647
 40
0.3981205505
 40
0.4570463719
 40
0.5174239034
 40
0.5795203862
 40
0.7097615684
 40
0.8494998943
 40
1.0
 40
1.0
 40
1.0
 40
1.0
 10
11.263107926
 20
9.9822534302
 30
0.0
 10
11.2629076319
 20
9.9829736017
 30
0.0
 10
11.2625630536
 20
9.9844192458
 30
0.0
 10
11.2622184505
 20
9.986609532
 30
0.0
 10
11.2620508727
 20
9.9888016772
 30
0.0
 10
11.2620604437
 20
9.9909943273
 30
0.0
 10
11.262247214
 20
9.9931863168
 30
0.0
 10
11.2626110058
 20
9.9953764357
 30
0.0
 10
11.2631514693
 20
9.9975635606
 30
0.0
 10
11.2638682495
 20
9.9997465698
 30
0.0
 10
11.2647608243
 20
10.0019245101
 30
0.0
 10
11.2662072234
 20
10.004866702
 30
0.0
 10
11.268480073
 20
10.0085368288
 30
0.0
 10
11.2718552844
 20
10.0128291031
 30
0.0
 10
11.2744593315
 20
10.0155535548
 30
0.0
 10
11.2758627283
 20
10.0169091321
 30
0.0
  0
SPLINE
  5
395
100
AcDbEntity
  8
0
100
AcDbSpline
 62
7
  6
CONTINUOUS
 70
0
 71
3
 72
23
 73
19
 74
0
 42
0.0000001
 43
0.0000001
 44
0.0000000001
 40
0.0
 40
0.0
 40
0.0
 40
0.0
 40
0.0637776914
 40
0.1273445726
 40
0.19070205
 40
0.2538561286
 40
0.3168131755
 40
0.3795820937
 40
0.4421733816
 40
0.5045993375
 40
0.566873868
 40
0.6290123843
 40
0.691031656
 40
0.7529496505
 40
0.8147853588
 40
0.8765586069
 40
0.938289857
 40
1.0
 40
1.0
 40
1.0
 40
1.0
 10
9.0607069811
 20
8.239400386
 30
0.0
 10
9.0607069811
 20
8.2485034066
 30
0.0
 10
9.0611426521
 20
8.266682445
 30
0.0
 10
9.0631092433
 20
8.2938404867
 30
0.0
 10
9.0663834946
 20
8.320783157
 30
0.0
 10
9.0709577819
 20
8.3474474264
 30
0.0
 10
9.0768217266
 20
8.373772154
 30
0.0
 10
9.0839618171
 20
8.399696554
 30
0.0
 10
9.09236168
 20
8.4251608841
 30
0.0
 10
9.1020019971
 20
8.4501064166
 30
0.0
 10
9.1128605992
 20
8.4744756205
 30
0.0
 10
9.1249124964
 20
8.4982122861
 30
0.0
 10
9.1381299314
 20
8.5212616558
 30
0.0
 10
9.1524824682
 20
8.5435705689
 30
0.0
 10
9.1679369853
 20
8.5650875106
 30
0.0
 10
9.1844580343
 20
8.5857630125
 30
0.0
 10
9.202006872
 20
8.6055487261
 30
0.0
 10
9.2143666363
 20
8.6181179049
 30
0.0
 10
9.2207017638
 20
8.6242371849
 30
0.0
  0
SPLINE
  5
396
100
AcDbEntity
  8
0
100
AcDbSpline
 62
7
  6
CONTINUOUS
 70
0
 71
3
 72
15
 73
11
 74
0
 42
0.0000001
 43
0.0000001
 44
0.0000000001
 40
0.0
 40
0.0
 40
0.0
 40
0.0
 40
0.1270490153
 40
0.2534254248
 40
0.3791558184
 40
0.5042787615
 40
0.628849833
 40
0.7529378313
 40
0.8766240308
 40
1.0
 40
1.0
 40
1.0
 40
1.0
 10
12.1398089725
 20
7.5988469338
 30
0.0
 10
12.1398089725
 20
7.6038637468
 30
0.0
 10
12.1401933829
 20
7.6138752391
 30
0.0
 10
12.1419308676
 20
7.6287605454
 30
0.0
 10
12.1448175285
 20
7.6433899217
 30
0.0
 10
12.1488365688
 20
7.6576755144
 30
0.0
 10
12.1539642549
 20
7.6715327511
 30
0.0
 10
12.1601705898
 20
7.6848795598
 30
0.0
 10
12.1674181022
 20
7.6976356362
 30
0.0
 10
12.1729226791
 20
7.705705856
 30
0.0
 10
12.1758311031
 20
7.7096142135
 30
0.0
  0
SPLINE
  5
397
100
AcDbEntity
  8
0
100
AcDbSpline
 62
7
  6
CONTINUOUS
 70
0
 71
3
 72
42
 73
38
 74
0
 42
0.0000001
 43
0.0000001
 44
0.0000000001
 40
0.0
 40
0.0
 40
0.0
 40
0.0
 40
0.0846287742
 40
0.169058963
 40
0.2526611597
 40
0.3348534876
 40
0.4150766307
 40
0.4927565756
 40
0.5304502757
 40
0.5672657074
 40
0.6031077829
 40
0.6378724008
 40
0.6714426844
 40
0.7036916825
 40
0.7344767114
 40
0.7636458104
 40
0.7910392528
 40
0.8164994985
 40
0.8284635563
 40
0.8398977502
 40
0.8507947292
 40
0.8611532494
 40
0.870981544
 40
0.8802994477
 40
0.8975367746
 40
0.9055995034
 40
0.9133980001
 40
0.9210389173
 40
0.9286404471
 40
0.936323414
 40
0.9442033786
 40
0.9523814986
 40
0.960941642
 40
0.9699470196
 40
0.979442328
 40
0.9894554416
 40
1.0
 40
1.0
 40
1.0
 40
1.0
 10
9.6926177317
 20
8.177137245
 30
0.0
 10
9.6904341424
 20
8.1787514227
 30
0.0
 10
9.6860572283
 20
8.1819559261
 30
0.0
 10
9.6794776473
 20
8.1866923906
 30
0.0
 10
9.6729248861
 20
8.1913318966
 30
0.0
 10
9.6664431755
 20
8.1958376935
 30
0.0
 10
9.6600717533
 20
8.2001685566
 30
0.0
 10
9.6548335454
 20
8.2036259394
 30
0.0
 10
9.6507203444
 20
8.2062580824
 30
0.0
 10
9.6477167884
 20
8.2081332998
 30
0.0
 10
9.6447690009
 20
8.2099198658
 30
0.0
 10
9.6418830461
 20
8.2116068412
 30
0.0
 10
9.6390657266
 20
8.2131817324
 30
0.0
 10
9.6363251054
 20
8.2146306171
 30
0.0
 10
9.6336703783
 20
8.2159374986
 30
0.0
 10
9.6311124326
 20
8.2170847831
 30
0.0
 10
9.628663985
 20
8.2180527617
 30
0.0
 10
9.626687486
 20
8.218705553
 30
0.0
 10
9.6251727712
 20
8.2191112272
 30
0.0
 10
9.6240981245
 20
8.2193497876
 30
0.0
 10
9.6230636487
 20
8.2195261519
 30
0.0
 10
9.6220719381
 20
8.2196375378
 30
0.0
 10
9.6211252792
 20
8.2196809977
 30
0.0
 10
9.6199578547
 20
8.2196462208
 30
0.0
 10
9.6188520398
 20
8.2194710831
 30
0.0
 10
9.6178444566
 20
8.219128434
 30
0.0
 10
9.6171638024
 20
8.2187990059
 30
0.0
 10
9.6165444152
 20
8.2183913083
 30
0.0
 10
9.6159889275
 20
8.2179056091
 30
0.0
 10
9.6154990289
 20
8.2173437146
 30
0.0
 10
9.6150762112
 20
8.2167076438
 30
0.0
 10
9.6147205205
 20
8.2160003853
 30
0.0
 10
9.6144320592
 20
8.2152247843
 30
0.0
 10
9.6142098961
 20
8.2143841404
 30
0.0
 10
9.6140532442
 20
8.2134817196
 30
0.0
 10
9.6139608491
 20
8.2125210731
 30
0.0
 10
9.6139416576
 20
8.2118612235
 30
0.0
 10
9.613941557
 20
8.2115228853
 30
0.0
  0
SPLINE
  5
398
100
AcDbEntity
  8
0
100
AcDbSpline
 62
7
  6
CONTINUOUS
 70
0
 71
3
 72
80
 73
76
 74
0
 42
0.0000001
 43
0.0000001
 44
0.0000000001
 40
0.0
 40
0.0
 40
0.0
 40
0.0
 40
0.0029209787
 40
0.0057981242
 40
0.0086518489
 40
0.0115031237
 40
0.0143729709
 40
0.0172819801
 40
0.0202498305
 40
0.0232949574
 40
0.0296789824
 40
0.0330507048
 40
0.0365572662
 40
0.0402089582
 40
0.0440146186
 40
0.047981702
 40
0.0521165245
 40
0.0564242905
 40
0.060909254
 40
0.0655748755
 40
0.0704237991
 40
0.0754580627
 40
0.0806791064
 40
0.09168385
 40
0.1034408495
 40
0.1159458114
 40
0.1291893252
 40
0.1431576802
 40
0.1578334977
 40
0.1731962044
 40
0.1892223862
 40
0.205886101
 40
0.2231591618
 40
0.2410113548
 40
0.2594106133
 40
0.2783231804
 40
0.2977137905
 40
0.3175458119
 40
0.3377813723
 40
0.3583814745
 40
0.3793061407
 40
0.4005145339
 40
0.4436146822
 40
0.4873431521
 40
0.5313538163
 40
0.575297644
 40
0.618826292
 40
0.6615956822
 40
0.6825906374
 40
0.7032705302
 40
0.7235951771
 40
0.7435253521
 40
0.7630229022
 40
0.782050876
 40
0.8005736804
 40
0.8185572086
 40
0.835968981
 40
0.8527783104
 40
0.8689565162
 40
0.8844771298
 40
0.899316123
 40
0.9134522003
 40
0.9268671861
 40
0.9395464858
 40
0.9514796218
 40
0.9571647573
 40
0.9626617498
 40
0.967970796
 40
0.9730925885
 40
0.9780282726
 40
0.9827795735
 40
0.9873489808
 40
0.991739612
 40
0.995955155
 40
1.0
 40
1.0
 40
1.0
 40
1.0
 10
12.0710174265
 20
9.9822531364
 30
0.0
 10
12.0712387181
 20
9.983048787
 30
0.0
 10
12.0716130788
 20
9.9846471578
 30
0.0
 10
12.0719635955
 20
9.9870710866
 30
0.0
 10
12.0720973051
 20
9.9894970908
 30
0.0
 10
12.0720140519
 20
9.9919232451
 30
0.0
 10
12.071713958
 20
9.9943479153
 30
0.0
 10
12.07119731
 20
9.9967693798
 30
0.0
 10
12.0704646954
 20
9.9991862423
 30
0.0
 10
12.0691811072
 20
10.002451062
 30
0.0
 10
12.0674702995
 20
10.0056569755
 30
0.0
 10
12.0653907374
 20
10.0087788907
 30
0.0
 10
12.0635908043
 20
10.0111527529
 30
0.0
 10
12.0615805182
 20
10.0135142652
 30
0.0
 10
12.0593608104
 20
10.0158626311
 30
0.0
 10
12.056932983
 20
10.018196686
 30
0.0
 10
12.0542982659
 20
10.0205152743
 30
0.0
 10
12.0514580705
 20
10.0228172695
 30
0.0
 10
12.0484138893
 20
10.0251015415
 30
0.0
 10
12.0451672795
 20
10.0273668849
 30
0.0
 10
12.0417199708
 20
10.0296121888
 30
0.0
 10
12.03807374
 20
10.0318362946
 30
0.0
 10
12.032857508
 20
10.0348244601
 30
0.0
 10
12.0258417146
 20
10.0384885253
 30
0.0
 10
12.0168047662
 20
10.0427085441
 30
0.0
 10
12.0070263536
 20
10.0468168462
 30
0.0
 10
11.9965270213
 20
10.0508047493
 30
0.0
 10
11.9853286414
 20
10.0546638172
 30
0.0
 10
11.9734547401
 20
10.058385825
 30
0.0
 10
11.9609303137
 20
10.0619628169
 30
0.0
 10
11.9477818077
 20
10.0653871431
 30
0.0
 10
11.9340370372
 20
10.0686514829
 30
0.0
 10
11.9197251105
 20
10.071748848
 30
0.0
 10
11.904876359
 20
10.0746726029
 30
0.0
 10
11.8895222785
 20
10.0774164851
 30
0.0
 10
11.8736954592
 20
10.0799746317
 30
0.0
 10
11.8574295055
 20
10.0823415703
 30
0.0
 10
11.8407589595
 20
10.0845122349
 30
0.0
 10
11.82371923
 20
10.0864819784
 30
0.0
 10
11.8063465313
 20
10.0882465908
 30
0.0
 10
11.7886777513
 20
10.0898023278
 30
0.0
 10
11.7646465121
 20
10.0916031937
 30
0.0
 10
11.7341449719
 20
10.09330303
 30
0.0
 10
11.6971672569
 20
10.0944593376
 30
0.0
 10
11.6599338755
 20
10.0947326809
 30
0.0
 10
11.6227610046
 20
10.0941207907
 30
0.0
 10
11.585964312
 20
10.0926288682
 30
0.0
 10
11.5556902387
 20
10.0906511996
 30
0.0
 10
11.5319003174
 20
10.0886306098
 30
0.0
 10
11.5144547762
 20
10.0869146737
 30
0.0
 10
11.4973336318
 20
10.0849927092
 30
0.0
 10
11.4805732294
 20
10.0828687991
 30
0.0
 10
11.4642091846
 20
10.0805474906
 30
0.0
 10
11.4482762544
 20
10.0780337382
 30
0.0
 10
11.4328082678
 20
10.0753329268
 30
0.0
 10
11.4178380512
 20
10.072450839
 30
0.0
 10
11.4033973653
 20
10.0693936431
 30
0.0
 10
11.3895168309
 20
10.0661678746
 30
0.0
 10
11.376225849
 20
10.0627804424
 30
0.0
 10
11.3635525349
 20
10.0592386026
 30
0.0
 10
11.3515236538
 20
10.0555499319
 30
0.0
 10
11.3401645808
 20
10.0517223048
 30
0.0
 10
11.3294991272
 20
10.0477638753
 30
0.0
 10
11.3195497888
 20
10.0436830686
 30
0.0
 10
11.3117513094
 20
10.0401325411
 30
0.0
 10
11.3058952157
 20
10.0372301329
 30
0.0
 10
11.3017661836
 20
10.0350633742
 30
0.0
 10
11.2978311734
 20
10.032872546
 30
0.0
 10
11.2940922361
 20
10.0306588189
 30
0.0
 10
11.2905513361
 20
10.0284233597
 30
0.0
 10
11.2872103257
 20
10.0261672738
 30
0.0
 10
11.2840708904
 20
10.0238917362
 30
0.0
 10
11.2811346834
 20
10.0215978291
 30
0.0
 10
11.2784033948
 20
10.0192869025
 30
0.0
 10
11.2766852698
 20
10.0177036462
 30
0.0
 10
11.2758627283
 20
10.0169091321
 30
0.0
  0
SPLINE
  5
399
100
AcDbEntity
  8
0
100
AcDbSpline
 62
7
  6
CONTINUOUS
 70
0
 71
3
 72
49
 73
45
 74
0
 42
0.0000001
 43
0.0000001
 44
0.0000000001
 40
0.0
 40
0.0
 40
0.0
 40
0.0
 40
0.0100799534
 40
0.0206264967
 40
0.0316357095
 40
0.0431022158
 40
0.0550192258
 40
0.0673788465
 40
0.0801719926
 40
0.0933887006
 40
0.1070180041
 40
0.1210481875
 40
0.1502595878
 40
0.1809153718
 40
0.2128972521
 40
0.2460783891
 40
0.2803245435
 40
0.3154951278
 40
0.3514441899
 40
0.3880213503
 40
0.4250727123
 40
0.4624417525
 40
0.4999702013
 40
0.5374989165
 40
0.5748687539
 40
0.6119214385
 40
0.6485004384
 40
0.6844518461
 40
0.7196252696
 40
0.7538747418
 40
0.7870596576
 40
0.8190457568
 40
0.8497061728
 40
0.8789225861
 40
0.8929553925
 40
0.906587429
 40
0.9198069046
 40
0.9326029388
 40
0.9449654558
 40
0.9568854741
 40
0.9683549878
 40
0.9793672895
 40
0.9899169276
 40
1.0
 40
1.0
 40
1.0
 40
1.0
 10
11.9981031616
 20
9.9294134197
 30
0.0
 10
11.9960631874
 20
9.9303992811
 30
0.0
 10
11.9918559106
 20
9.9323491087
 30
0.0
 10
11.9853198748
 20
9.9351520651
 30
0.0
 10
11.9784225353
 20
9.9378966199
 30
0.0
 10
11.9711717297
 20
9.940579579
 30
0.0
 10
11.9635756138
 20
9.943197959
 30
0.0
 10
11.9556427618
 20
9.9457487167
 30
0.0
 10
11.9473821476
 20
9.9482290111
 30
0.0
 10
11.9388031176
 20
9.9506359489
 30
0.0
 10
11.9299153818
 20
9.9529668637
 30
0.0
 10
11.9174995279
 20
9.9560106873
 30
0.0
 10
11.9012777942
 20
9.9595936672
 30
0.0
 10
11.8810022142
 20
9.9634947331
 30
0.0
 10
11.8597555465
 20
9.9670349939
 30
0.0
 10
11.8376341894
 20
9.9701981829
 30
0.0
 10
11.8147383785
 20
9.9729697345
 30
0.0
 10
11.7911719932
 20
9.9753369074
 30
0.0
 10
11.7670419857
 20
9.977288823
 30
0.0
 10
11.7424579056
 20
9.9788165165
 30
0.0
 10
11.7175313868
 20
9.9799129741
 30
0.0
 10
11.6923756352
 20
9.9805731633
 30
0.0
 10
11.6671049074
 20
9.9807940545
 30
0.0
 10
11.6418339876
 20
9.9805746341
 30
0.0
 10
11.6166776611
 20
9.9799159084
 30
0.0
 10
11.591750188
 20
9.9788208996
 30
0.0
 10
11.5671647791
 20
9.9772946334
 30
0.0
 10
11.5430330746
 20
9.9753441178
 30
0.0
 10
11.5194646316
 20
9.9729783115
 30
0.0
 10
11.496566411
 20
9.9702080877
 30
0.0
 10
11.4744423019
 20
9.9670461815
 30
0.0
 10
11.4531925515
 20
9.9635071545
 30
0.0
 10
11.4329135735
 20
9.9596072622
 30
0.0
 10
11.4166888033
 20
9.9560252503
 30
0.0
 10
11.4042703726
 20
9.952982151
 30
0.0
 10
11.3953806088
 20
9.9506517718
 30
0.0
 10
11.3867994881
 20
9.9482453073
 30
0.0
 10
11.3785367141
 20
9.9457655228
 30
0.0
 10
11.3706016487
 20
9.9432151943
 30
0.0
 10
11.3630032518
 20
9.9405972864
 30
0.0
 10
11.3557501188
 20
9.9379147217
 30
0.0
 10
11.3488503889
 20
9.9351705885
 30
0.0
 10
11.3423119234
 20
9.9323679949
 30
0.0
 10
11.3381029807
 20
9.9304184423
 30
0.0
 10
11.3360621696
 20
9.9294327015
 30
0.0
  0
SPLINE
  5
39A
100
AcDbEntity
  8
0
100
AcDbSpline
 62
7
  6
CONTINUOUS
 70
0
 71
3
 72
39
 73
35
 74
0
 42
0.0000001
 43
0.0000001
 44
0.0000000001
 40
0.0
 40
0.0
 40
0.0
 40
0.0
 40
0.0241994546
 40
0.0496837011
 40
0.0763945608
 40
0.104267608
 40
0.1332328947
 40
0.1632155644
 40
0.194136391
 40
0.2259122638
 40
0.2584566353
 40
0.2916799421
 40
0.3254900048
 40
0.3597924219
 40
0.3944909519
 40
0.4294878868
 40
0.4646844216
 40
0.4999810206
 40
0.5352777819
 40
0.5704748018
 40
0.6054725403
 40
0.6401721885
 40
0.6744760348
 40
0.7082878342
 40
0.7415131821
 40
0.7740598937
 40
0.8058383934
 40
0.8367621176
 40
0.8667479405
 40
0.8957166242
 40
0.9235933001
 40
0.9503080075
 40
0.9757963065
 40
1.0
 40
1.0
 40
1.0
 40
1.0
 10
11.9332999356
 20
9.9108306311
 30
0.0
 10
11.9291580238
 20
9.9121313952
 30
0.0
 10
11.9206100229
 20
9.9146624547
 30
0.0
 10
11.9073612252
 20
9.9181756845
 30
0.0
 10
11.8933844791
 20
9.9214957659
 30
0.0
 10
11.8787221302
 20
9.9246124785
 30
0.0
 10
11.8634184126
 20
9.9275162932
 30
0.0
 10
11.8475196183
 20
9.9301983153
 30
0.0
 10
11.8310738553
 20
9.9326503378
 30
0.0
 10
11.8141309206
 20
9.9348648585
 30
0.0
 10
11.796742136
 20
9.936835105
 30
0.0
 10
11.7789601911
 20
9.9385550532
 30
0.0
 10
11.76083898
 20
9.940019448
 30
0.0
 10
11.7424334344
 20
9.9412238166
 30
0.0
 10
11.7237993543
 20
9.942164481
 30
0.0
 10
11.7049932368
 20
9.9428385692
 30
0.0
 10
11.6860721037
 20
9.9432440227
 30
0.0
 10
11.6670933282
 20
9.9433796034
 30
0.0
 10
11.6481144593
 20
9.9432448968
 30
0.0
 10
11.6291930473
 20
9.9428403127
 30
0.0
 10
11.6103864669
 20
9.9421670868
 30
0.0
 10
11.5917517418
 20
9.9412272757
 30
0.0
 10
11.573345371
 20
9.94002375
 30
0.0
 10
11.5552231557
 20
9.9385601857
 30
0.0
 10
11.5374400294
 20
9.936841054
 30
0.0
 10
11.520049889
 20
9.9348716078
 30
0.0
 10
11.5031054297
 20
9.932657867
 30
0.0
 10
11.4866579805
 20
9.9302065997
 30
0.0
 10
11.4707573448
 20
9.9275253054
 30
0.0
 10
11.4554516362
 20
9.9246221904
 30
0.0
 10
11.4407871514
 20
9.9215061469
 30
0.0
 10
11.4268081279
 20
9.9181867059
 30
0.0
 10
11.4135569195
 20
9.9146740756
 30
0.0
 10
11.4050072413
 20
9.9121434438
 30
0.0
 10
11.4008644723
 20
9.9108428714
 30
0.0
  0
SPLINE
  5
39B
100
AcDbEntity
  8
0
100
AcDbSpline
 62
7
  6
CONTINUOUS
 70
0
 71
3
 72
49
 73
45
 74
0
 42
0.0000001
 43
0.0000001
 44
0.0000000001
 40
0.0
 40
0.0
 40
0.0
 40
0.0
 40
0.0149718081
 40
0.0299466748
 40
0.0449276404
 40
0.059917709
 40
0.0749198276
 40
0.0899368702
 40
0.1049716217
 40
0.120026759
 40
0.1351048351
 40
0.1502082677
 40
0.1653393229
 40
0.1805001009
 40
0.1956925286
 40
0.2109183481
 40
0.2261791043
 40
0.2414761418
 40
0.256810598
 40
0.2721833946
 40
0.287595237
 40
0.3030466133
 40
0.3340634927
 40
0.3652389307
 40
0.3965689749
 40
0.4280463623
 40
0.4596607137
 40
0.4913987952
 40
0.5232448251
 40
0.5551808189
 40
0.5871869764
 40
0.6192420905
 40
0.6513239761
 40
0.6834099169
 40
0.7154771164
 40
0.7475031494
 40
0.779466411
 40
0.8113465537
 40
0.8431249023
 40
0.8747848503
 40
0.906312225
 40
0.9376956122
 40
0.9689264437
 40
1.0
 40
1.0
 40
1.0
 40
1.0
 10
10.0405047409
 20
7.7755187057
 30
0.0
 10
10.0356103239
 20
7.770791049
 30
0.0
 10
10.0256314084
 20
7.7615282872
 30
0.0
 10
10.0101210444
 20
7.7482384941
 30
0.0
 10
9.9940884537
 20
7.7355696955
 30
0.0
 10
9.9775559784
 20
7.7235396482
 30
0.0
 10
9.9605462778
 20
7.7121648479
 30
0.0
 10
9.9430828171
 20
7.7014609159
 30
0.0
 10
9.9251896158
 20
7.6914425803
 30
0.0
 10
9.9068912809
 20
7.6821236618
 30
0.0
 10
9.8882130225
 20
7.6735169228
 30
0.0
 10
9.8691805434
 20
7.6656341935
 30
0.0
 10
9.8498200146
 20
7.6584863595
 30
0.0
 10
9.8301580963
 20
7.6520831975
 30
0.0
 10
9.810221845
 20
7.6464334873
 30
0.0
 10
9.7900386765
 20
7.6415450406
 30
0.0
 10
9.7696363667
 20
7.637424537
 30
0.0
 10
9.7490429944
 20
7.634077598
 30
0.0
 10
9.7282868531
 20
7.6315088631
 30
0.0
 10
9.7073965952
 20
7.6297218304
 30
0.0
 10
9.6864005885
 20
7.6287189307
 30
0.0
 10
9.6582715009
 20
7.628428602
 30
0.0
 10
9.6229829596
 20
7.6300381999
 30
0.0
 10
9.5807411259
 20
7.6351004409
 30
0.0
 10
9.5387743531
 20
7.6432673764
 30
0.0
 10
9.4973147311
 20
7.6544938221
 30
0.0
 10
9.4565894448
 20
7.6687176158
 30
0.0
 10
9.4168221482
 20
7.6858603169
 30
0.0
 10
9.3782310711
 20
7.7058275438
 30
0.0
 10
9.3410279372
 20
7.7285093619
 30
0.0
 10
9.3054169018
 20
7.753781133
 30
0.0
 10
9.2715933575
 20
7.7815039983
 30
0.0
 10
9.2397428636
 20
7.8115256715
 30
0.0
 10
9.2100402764
 20
7.8436814005
 30
0.0
 10
9.1826486014
 20
7.8777946547
 30
0.0
 10
9.1577182423
 20
7.9136782365
 30
0.0
 10
9.1353862137
 20
7.9511352838
 30
0.0
 10
9.1157751985
 20
7.9899602303
 30
0.0
 10
9.0989931222
 20
8.0299400441
 30
0.0
 10
9.0851324259
 20
8.0708553856
 30
0.0
 10
9.0742694859
 20
8.1124814389
 30
0.0
 10
9.0664644727
 20
8.154590458
 30
0.0
 10
9.0617605625
 20
8.1969481924
 30
0.0
 10
9.0607069811
 20
8.2252771049
 30
0.0
 10
9.0607069811
 20
8.239400386
 30
0.0
  0
SPLINE
  5
39C
100
AcDbEntity
  8
0
100
AcDbSpline
 62
7
  6
CONTINUOUS
 70
0
 71
3
 72
47
 73
43
 74
0
 42
0.0000001
 43
0.0000001
 44
0.0000000001
 40
0.0
 40
0.0
 40
0.0
 40
0.0
 40
0.0149676947
 40
0.0299400955
 40
0.0449201698
 40
0.0599108409
 40
0.0749149673
 40
0.0899353266
 40
0.1049746017
 40
0.1200353627
 40
0.1351200513
 40
0.1502309711
 40
0.1653702719
 40
0.1805399361
 40
0.1957417739
 40
0.21097741
 40
0.2262482739
 40
0.2415555986
 40
0.2722781612
 40
0.3031562312
 40
0.3341920801
 40
0.3653845678
 40
0.3967292127
 40
0.4282183387
 40
0.4598412789
 40
0.4915846281
 40
0.5234325489
 40
0.5553671137
 40
0.5873686757
 40
0.6194162692
 40
0.6514880277
 40
0.6835616121
 40
0.7156146478
 40
0.7476251611
 40
0.7795720116
 40
0.8114353104
 40
0.8431968223
 40
0.8748403457
 40
0.9063520607
 40
0.9377208549
 40
0.9689383499
 40
1.0
 40
1.0
 40
1.0
 40
1.0
 10
10.0404200896
 20
7.7756161786
 30
0.0
 10
10.0354645623
 20
7.771039627
 30
0.0
 10
10.0253704843
 20
7.7620793509
 30
0.0
 10
10.0097093009
 20
7.7492434971
 30
0.0
 10
9.9935468012
 20
7.7370272109
 30
0.0
 10
9.9769051285
 20
7.7254472971
 30
0.0
 10
9.9598066723
 20
7.714519382
 30
0.0
 10
9.9422746135
 20
7.7042581958
 30
0.0
 10
9.9243326463
 20
7.6946776019
 30
0.0
 10
9.9060050046
 20
7.6857906008
 30
0.0
 10
9.8873165005
 20
7.6776091335
 30
0.0
 10
9.8682923963
 20
7.670144253
 30
0.0
 10
9.848958389
 20
7.6634060963
 30
0.0
 10
9.8293406475
 20
7.657403693
 30
0.0
 10
9.8094656599
 20
7.6521451458
 30
0.0
 10
9.7893603762
 20
7.6476376118
 30
0.0
 10
9.7690516181
 20
7.6438870856
 30
0.0
 10
9.7417091537
 20
7.6398979867
 30
0.0
 10
9.7071491676
 20
7.6368332842
 30
0.0
 10
9.6653674402
 20
7.636246634
 30
0.0
 10
9.6234437226
 20
7.6387480047
 30
0.0
 10
9.5816059734
 20
7.6443237223
 30
0.0
 10
9.540079597
 20
7.652943081
 30
0.0
 10
9.4990887646
 20
7.6645591462
 30
0.0
 10
9.4588545715
 20
7.6791089093
 30
0.0
 10
9.4195939784
 20
7.6965134814
 30
0.0
 10
9.3815186581
 20
7.7166786959
 30
0.0
 10
9.3448339111
 20
7.7394956178
 30
0.0
 10
9.3097374676
 20
7.7648409641
 30
0.0
 10
9.2764185222
 20
7.7925779298
 30
0.0
 10
9.2450567509
 20
7.822556912
 30
0.0
 10
9.2158212202
 20
7.8546161698
 30
0.0
 10
9.1888696035
 20
7.888582831
 30
0.0
 10
9.1643473613
 20
7.9242738015
 30
0.0
 10
9.1423868044
 20
7.9614966298
 30
0.0
 10
9.123106532
 20
8.0000506557
 30
0.0
 10
9.1066108133
 20
8.0397280346
 30
0.0
 10
9.0929888482
 20
8.0803148644
 30
0.0
 10
9.0823144428
 20
8.1215920635
 30
0.0
 10
9.0746456838
 20
8.1633377281
 30
0.0
 10
9.0700242061
 20
8.205323701
 30
0.0
 10
9.0689891839
 20
8.2334017605
 30
0.0
 10
9.0689891839
 20
8.24740038
 30
0.0
  0
SPLINE
  5
39D
100
AcDbEntity
  8
0
100
AcDbSpline
 62
7
  6
CONTINUOUS
 70
0
 71
3
 72
23
 73
19
 74
0
 42
0.0000001
 43
0.0000001
 44
0.0000000001
 40
0.0
 40
0.0
 40
0.0
 40
0.0
 40
0.0637774716
 40
0.1273446947
 40
0.1907020108
 40
0.2538561385
 40
0.3168131788
 40
0.379582097
 40
0.4421733871
 40
0.5045993393
 40
0.5668738666
 40
0.62901238
 40
0.6910316508
 40
0.7529496465
 40
0.8147853569
 40
0.8765586065
 40
0.938289857
 40
1.0
 40
1.0
 40
1.0
 40
1.0
 10
11.6909231619
 20
7.4542565105
 30
0.0
 10
11.6909231619
 20
7.4618474943
 30
0.0
 10
11.6912864793
 20
7.4770070103
 30
0.0
 10
11.692926406
 20
7.4996541007
 30
0.0
 10
11.6956568309
 20
7.5221216207
 30
0.0
 10
11.6994713223
 20
7.5443569445
 30
0.0
 10
11.7043612753
 20
7.566309141
 30
0.0
 10
11.7103154056
 20
7.5879274982
 30
0.0
 10
11.7173200731
 20
7.6091621989
 30
0.0
 10
11.7253591627
 20
7.6299642697
 30
0.0
 10
11.7344141762
 20
7.6502857393
 30
0.0
 10
11.744464272
 20
7.6700797373
 30
0.0
 10
11.7554863063
 20
7.6893006009
 30
0.0
 10
11.7674549031
 20
7.7079039966
 30
0.0
 10
11.7803424504
 20
7.7258469606
 30
0.0
 10
11.7941193887
 20
7.7430882374
 30
0.0
 10
11.808753397
 20
7.7595875195
 30
0.0
 10
11.8190602339
 20
7.770068931
 30
0.0
 10
11.824343102
 20
7.7751717945
 30
0.0
  0
SPLINE
  5
39E
100
AcDbEntity
  8
0
100
AcDbSpline
 62
7
  6
CONTINUOUS
 70
0
 71
3
 72
39
 73
35
 74
0
 42
0.0000001
 43
0.0000001
 44
0.0000000001
 40
0.0
 40
0.0
 40
0.0
 40
0.0
 40
0.029942471
 40
0.0599093183
 40
0.0899243244
 40
0.1200101034
 40
0.1501875624
 40
0.1804754148
 40
0.2108897596
 40
0.2414437361
 40
0.2721472598
 40
0.3030068424
 40
0.3340254951
 40
0.3652027149
 40
0.3965345496
 40
0.4280137343
 40
0.459629891
 40
0.4913697854
 40
0.5232176334
 40
0.5551554501
 40
0.5871634341
 40
0.6192203766
 40
0.6513040925
 40
0.6833918636
 40
0.7154608915
 40
0.7474887505
 40
0.7794538351
 40
0.8113357956
 40
0.8431159562
 40
0.8747777121
 40
0.9063068677
 40
0.9376920929
 40
0.9689246489
 40
1.0
 40
1.0
 40
1.0
 40
1.0
 10
9.9149437002
 20
7.9948664858
 30
0.0
 10
9.9092202533
 20
7.9893380838
 30
0.0
 10
9.8973233476
 20
7.9787274106
 30
0.0
 10
9.8782626281
 20
7.9642722673
 30
0.0
 10
9.8580840071
 20
7.9513502971
 30
0.0
 10
9.8369002209
 20
7.940034002
 30
0.0
 10
9.8148277328
 20
7.9303852162
 30
0.0
 10
9.7919883621
 20
7.9224569752
 30
0.0
 10
9.7685079713
 20
7.9162926473
 30
0.0
 10
9.7445159205
 20
7.9119258845
 30
0.0
 10
9.7201443038
 20
7.9093804086
 30
0.0
 10
9.6955272321
 20
7.9086699134
 30
0.0
 10
9.6708000945
 20
7.9097979976
 30
0.0
 10
9.6460988152
 20
7.912758138
 30
0.0
 10
9.6215591119
 20
7.9175337719
 30
0.0
 10
9.5973157602
 20
7.9240983952
 30
0.0
 10
9.5735018651
 20
7.9324157168
 30
0.0
 10
9.5502481438
 20
7.9424398668
 30
0.0
 10
9.5276822091
 20
7.9541156272
 30
0.0
 10
9.5059278785
 20
7.9673787474
 30
0.0
 10
9.4851045112
 20
7.9821563101
 30
0.0
 10
9.4653263612
 20
7.9983671258
 30
0.0
 10
9.4467019604
 20
8.0159221759
 30
0.0
 10
9.4293335289
 20
8.0347250929
 30
0.0
 10
9.4133163989
 20
8.0546726678
 30
0.0
 10
9.3987385172
 20
8.0756554338
 30
0.0
 10
9.3856799669
 20
8.0975582564
 30
0.0
 10
9.3742125315
 20
8.1202609606
 30
0.0
 10
9.3643993059
 20
8.1436389675
 30
0.0
 10
9.3562943408
 20
8.1675640135
 30
0.0
 10
9.3499423031
 20
8.1919046587
 30
0.0
 10
9.3453783723
 20
8.2165276974
 30
0.0
 10
9.3426277602
 20
8.2412961779
 30
0.0
 10
9.342011694
 20
8.2578613634
 30
0.0
 10
9.342011694
 20
8.2661198894
 30
0.0
  0
SPLINE
  5
39F
100
AcDbEntity
  8
0
100
AcDbSpline
 62
7
  6
CONTINUOUS
 70
0
 71
3
 72
42
 73
38
 74
0
 42
0.0000001
 43
0.0000001
 44
0.0000000001
 40
0.0
 40
0.0
 40
0.0
 40
0.0
 40
0.0300114813
 40
0.0450547567
 40
0.0601237374
 40
0.0903402541
 40
0.1206754429
 40
0.1358922155
 40
0.1511414948
 40
0.1817360128
 40
0.2124667417
 40
0.243335002
 40
0.2743398329
 40
0.3054780371
 40
0.3367442616
 40
0.3681311096
 40
0.3996292811
 40
0.4312277386
 40
0.4629138942
 40
0.4946738165
 40
0.5264924519
 40
0.5583538592
 40
0.5902414534
 40
0.6221382568
 40
0.6540271538
 40
0.6858911469
 40
0.7177136124
 40
0.7494785515
 40
0.7811708343
 40
0.8127764365
 40
0.8442826585
 40
0.875678344
 40
0.9069540344
 40
0.9381022417
 40
0.9536284449
 40
0.9691212219
 40
1.0
 40
1.0
 40
1.0
 40
1.0
 10
9.9744428262
 20
8.075533377
 30
0.0
 10
9.9681230876
 20
8.0725969283
 30
0.0
 10
9.9584810551
 20
8.0685104686
 30
0.0
 10
9.9453657101
 20
8.0637209116
 30
0.0
 10
9.9320505692
 20
8.0593611993
 30
0.0
 10
9.9150954628
 20
8.054742363
 30
0.0
 10
9.8978366507
 20
8.0512576647
 30
0.0
 10
9.883874253
 20
8.0491524654
 30
0.0
 10
9.8697903154
 20
8.0475011938
 30
0.0
 10
9.8520364778
 20
8.0463019412
 30
0.0
 10
9.8306147134
 20
8.0462504503
 30
0.0
 10
9.8091387645
 20
8.0475847565
 30
0.0
 10
9.78769826
 20
8.0502992497
 30
0.0
 10
9.7663819141
 20
8.0543825141
 30
0.0
 10
9.7452781033
 20
8.0598174978
 30
0.0
 10
9.7244742498
 20
8.0665815547
 30
0.0
 10
9.7040565317
 20
8.0746465496
 30
0.0
 10
9.6841095116
 20
8.0839789736
 30
0.0
 10
9.6647157946
 20
8.0945400848
 30
0.0
 10
9.6459556888
 20
8.1062860686
 30
0.0
 10
9.6279068765
 20
8.1191682188
 30
0.0
 10
9.6106440948
 20
8.133133139
 30
0.0
 10
9.5942388298
 20
8.1481229621
 30
0.0
 10
9.5787590226
 20
8.1640755887
 30
0.0
 10
9.5642687901
 20
8.1809249428
 30
0.0
 10
9.5508281616
 20
8.1986012428
 30
0.0
 10
9.5384928322
 20
8.2170312887
 30
0.0
 10
9.527313933
 20
8.2361387631
 30
0.0
 10
9.5173378206
 20
8.2558445405
 30
0.0
 10
9.508605886
 20
8.2760670283
 30
0.0
 10
9.5011543845
 20
8.2967224401
 30
0.0
 10
9.4950142747
 20
8.3177253657
 30
0.0
 10
9.4902111458
 20
8.3389882816
 30
0.0
 10
9.4873361242
 20
8.3568715797
 30
0.0
 10
9.485724159
 20
8.3712186559
 30
0.0
 10
9.4845738246
 20
8.3855468475
 30
0.0
 10
9.4842260191
 20
8.39631837
 30
0.0
 10
9.4842260191
 20
8.4034883869
 30
0.0
  0
SPLINE
  5
3A0
100
AcDbEntity
  8
0
100
AcDbSpline
 62
7
  6
CONTINUOUS
 70
0
 71
3
 72
23
 73
19
 74
0
 42
0.0000001
 43
0.0000001
 44
0.0000000001
 40
0.0
 40
0.0
 40
0.0
 40
0.0
 40
0.0616945541
 40
0.1234179687
 40
0.18518987
 40
0.2470294156
 40
0.3089551111
 40
0.3709846371
 40
0.4331346832
 40
0.4954207965
 40
0.5578572385
 40
0.6204568641
 40
0.6832310183
 40
0.746189374
 40
0.8093401908
 40
0.8726891045
 40
0.9362422358
 40
1.0
 40
1.0
 40
1.0
 40
1.0
 10
9.2207950706
 20
8.6241479281
 30
0.0
 10
9.2147667196
 20
8.6180579705
 30
0.0
 10
9.2030100213
 20
8.6055710931
 30
0.0
 10
9.1863296132
 20
8.5859776118
 30
0.0
 10
9.1706357879
 20
8.5655591368
 30
0.0
 10
9.1559633868
 20
8.5443608386
 30
0.0
 10
9.1423442433
 20
8.5224288404
 30
0.0
 10
9.1298080912
 20
8.4998110659
 30
0.0
 10
9.1183822407
 20
8.4765568763
 30
0.0
 10
9.1080915903
 20
8.452717031
 30
0.0
 10
9.0989585533
 20
8.4283435582
 30
0.0
 10
9.0910030159
 20
8.4034896425
 30
0.0
 10
9.0842422928
 20
8.3782095243
 30
0.0
 10
9.078691043
 20
8.3525583263
 30
0.0
 10
9.0743613881
 20
8.3265921173
 30
0.0
 10
9.0712625803
 20
8.3003671869
 30
0.0
 10
9.069401516
 20
8.2739416507
 30
0.0
 10
9.0689891839
 20
8.256255998
 30
0.0
 10
9.0689891839
 20
8.24740038
 30
0.0
  0
SPLINE
  5
3A1
100
AcDbEntity
  8
0
100
AcDbSpline
 62
7
  6
CONTINUOUS
 70
0
 71
3
 72
39
 73
35
 74
0
 42
0.0000001
 43
0.0000001
 44
0.0000000001
 40
0.0
 40
0.0
 40
0.0
 40
0.0
 40
0.0318890008
 40
0.0636721968
 40
0.095351063
 40
0.1269280534
 40
0.1584065913
 40
0.1897910444
 40
0.2210866891
 40
0.2522996663
 40
0.2834369297
 40
0.3145061856
 40
0.34551582
 40
0.3764748176
 40
0.407392673
 40
0.4382792976
 40
0.4691449227
 40
0.4999999946
 40
0.5308550676
 40
0.5617206946
 40
0.5926073198
 40
0.6235251738
 40
0.6544841704
 40
0.685493806
 40
0.7165630646
 40
0.7477003299
 40
0.7789133045
 40
0.8102089517
 40
0.841593403
 40
0.8730719307
 40
0.9046490112
 40
0.9363275784
 40
0.9681114145
 40
1.0
 40
1.0
 40
1.0
 40
1.0
 10
9.6253285136
 20
8.5997831094
 30
0.0
 10
9.6190835347
 20
8.599999656
 30
0.0
 10
9.6066018157
 20
8.600133216
 30
0.0
 10
9.5879237868
 20
8.5994300933
 30
0.0
 10
9.5693624392
 20
8.5978247924
 30
0.0
 10
9.550961114
 20
8.5953209432
 30
0.0
 10
9.5327620709
 20
8.5919242975
 30
0.0
 10
9.5148073
 20
8.5876426469
 30
0.0
 10
9.4971381851
 20
8.5824858193
 30
0.0
 10
9.4797954765
 20
8.5764656499
 30
0.0
 10
9.4628191738
 20
8.5695959772
 30
0.0
 10
9.4462484255
 20
8.5618926279
 30
0.0
 10
9.4301214528
 20
8.5533733407
 30
0.0
 10
9.4144754593
 20
8.5440577356
 30
0.0
 10
9.3993465509
 20
8.5339672622
 30
0.0
 10
9.3847696343
 20
8.5231251786
 30
0.0
 10
9.3707783287
 20
8.5115564974
 30
0.0
 10
9.3574049093
 20
8.4992878986
 30
0.0
 10
9.3446802273
 20
8.4863476762
 30
0.0
 10
9.3326336471
 20
8.4727656675
 30
0.0
 10
9.3212929476
 20
8.4585732111
 30
0.0
 10
9.3106842634
 20
8.4438030617
 30
0.0
 10
9.3008320458
 20
8.4284892966
 30
0.0
 10
9.2917590012
 20
8.4126672425
 30
0.0
 10
9.2834860481
 20
8.3963733911
 30
0.0
 10
9.2760322283
 20
8.3796453357
 30
0.0
 10
9.269414682
 20
8.3625216663
 30
0.0
 10
9.2636486333
 20
8.3450418733
 30
0.0
 10
9.2587473426
 20
8.3272462667
 30
0.0
 10
9.2547220717
 20
8.3091758443
 30
0.0
 10
9.2515821048
 20
8.2908723744
 30
0.0
 10
9.2493344798
 20
8.2723777282
 30
0.0
 10
9.2479845572
 20
8.2537352943
 30
0.0
 10
9.2476854723
 20
8.2412564011
 30
0.0
 10
9.2476854723
 20
8.2350077503
 30
0.0
  0
SPLINE
  5
3A2
100
AcDbEntity
  8
0
100
AcDbSpline
 62
7
  6
CONTINUOUS
 70
0
 71
3
 72
39
 73
35
 74
0
 42
0.0000001
 43
0.0000001
 44
0.0000000001
 40
0.0
 40
0.0
 40
0.0
 40
0.0
 40
0.0318244505
 40
0.0635466058
 40
0.0951685634
 40
0.1266933212
 40
0.1581247655
 40
0.1894676403
 40
0.2207275072
 40
0.2519107002
 40
0.2830242778
 40
0.3140759602
 40
0.345074057
 40
0.3760273888
 40
0.406945209
 40
0.4378371172
 40
0.4687129646
 40
0.4995827564
 40
0.5304565558
 40
0.5613443892
 40
0.5922561476
 40
0.6232014885
 40
0.6541897416
 40
0.6852298235
 40
0.7163301557
 40
0.7474985839
 40
0.778742303
 40
0.8100678085
 40
0.8414807983
 40
0.8729862218
 40
0.9045882012
 40
0.9362894099
 40
0.9680937195
 40
1.0
 40
1.0
 40
1.0
 40
1.0
 10
9.6412742084
 20
8.5989776635
 30
0.0
 10
9.6356352966
 20
8.5989622255
 30
0.0
 10
9.6243744852
 20
8.5986666545
 30
0.0
 10
9.6075513482
 20
8.5974257298
 30
0.0
 10
9.5908587656
 20
8.5953905817
 30
0.0
 10
9.5743338571
 20
8.5925656338
 30
0.0
 10
9.5580127512
 20
8.5889570772
 30
0.0
 10
9.5419313006
 20
8.5845728025
 30
0.0
 10
9.5261247979
 20
8.5794223883
 30
0.0
 10
9.5106279569
 20
8.5735170842
 30
0.0
 10
9.4954747934
 20
8.5668698524
 30
0.0
 10
9.4806985765
 20
8.559495268
 30
0.0
 10
9.466331757
 20
8.5514094929
 30
0.0
 10
9.4524059037
 20
8.5426302353
 30
0.0
 10
9.4389515912
 20
8.5331767777
 30
0.0
 10
9.42599836
 20
8.5230698777
 30
0.0
 10
9.4135746591
 20
8.5123317175
 30
0.0
 10
9.4017077933
 20
8.5009858506
 30
0.0
 10
9.390423814
 20
8.4890572024
 30
0.0
 10
9.3797474815
 20
8.4765719831
 30
0.0
 10
9.3697022326
 20
8.4635576112
 30
0.0
 10
9.3603101361
 20
8.4500426541
 30
0.0
 10
9.3515918011
 20
8.4360567981
 30
0.0
 10
9.3435663299
 20
8.4216307741
 30
0.0
 10
9.3362513199
 20
8.406796262
 30
0.0
 10
9.329662825
 20
8.3915858281
 30
0.0
 10
9.3238152892
 20
8.3760328679
 30
0.0
 10
9.3187214962
 20
8.3601715403
 30
0.0
 10
9.314392582
 20
8.3440366654
 30
0.0
 10
9.3108380273
 20
8.3276636292
 30
0.0
 10
9.3080656622
 20
8.3110884642
 30
0.0
 10
9.3060813691
 20
8.2943472308
 30
0.0
 10
9.304889692
 20
8.277477373
 30
0.0
 10
9.3046256404
 20
8.2661867537
 30
0.0
 10
9.3046256404
 20
8.2605333213
 30
0.0
  0
SPLINE
  5
3A3
100
AcDbEntity
  8
0
100
AcDbSpline
 62
7
  6
CONTINUOUS
 70
0
 71
3
 72
23
 73
19
 74
0
 42
0.0000001
 43
0.0000001
 44
0.0000000001
 40
0.0
 40
0.0
 40
0.0
 40
0.0
 40
0.0617101439
 40
0.1234413935
 40
0.1852146431
 40
0.2470503547
 40
0.3089683495
 40
0.3709876176
 40
0.4331261309
 40
0.4954006615
 40
0.5578266134
 40
0.6204179128
 40
0.6831867943
 40
0.7461438773
 40
0.8092980348
 40
0.872655047
 40
0.9362230873
 40
1.0
 40
1.0
 40
1.0
 40
1.0
 10
9.4355685475
 20
8.4911521335
 30
0.0
 10
9.4318640842
 20
8.4875739118
 30
0.0
 10
9.4246367316
 20
8.4802241233
 30
0.0
 10
9.4143750547
 20
8.4686545061
 30
0.0
 10
9.4047143721
 20
8.4565645849
 30
0.0
 10
9.3956773584
 20
8.4439826185
 30
0.0
 10
9.3872847335
 20
8.4309375427
 30
0.0
 10
9.3795558478
 20
8.4174594916
 30
0.0
 10
9.3725084977
 20
8.4035795491
 30
0.0
 10
9.3661589349
 20
8.3893297243
 30
0.0
 10
9.3605217728
 20
8.374742886
 30
0.0
 10
9.3556099602
 20
8.3598526862
 30
0.0
 10
9.3514347787
 20
8.3446934621
 30
0.0
 10
9.3480058324
 20
8.3293001365
 30
0.0
 10
9.3453310519
 20
8.3137082941
 30
0.0
 10
9.3434164004
 20
8.2979535711
 30
0.0
 10
9.3422664791
 20
8.2820729745
 30
0.0
 10
9.342011694
 20
8.2714427942
 30
0.0
 10
9.342011694
 20
8.2661198894
 30
0.0
  0
SPLINE
  5
3A4
100
AcDbEntity
  8
0
100
AcDbSpline
 62
7
  6
CONTINUOUS
 70
0
 71
3
 72
15
 73
11
 74
0
 42
0.0000001
 43
0.0000001
 44
0.0000000001
 40
0.0
 40
0.0
 40
0.0
 40
0.0
 40
0.1235591836
 40
0.2474644039
 40
0.371755571
 40
0.4964671064
 40
0.6216280623
 40
0.7472602595
 40
0.8733818316
 40
1.0
 40
1.0
 40
1.0
 40
1.0
 10
9.5182724284
 20
8.5478664413
 30
0.0
 10
9.5154813909
 20
8.5423691531
 30
0.0
 10
9.5102223322
 20
8.5311876477
 30
0.0
 10
9.5033433195
 20
8.5139495503
 30
0.0
 10
9.4974846403
 20
8.4962773045
 30
0.0
 10
9.4926656369
 20
8.4782291464
 30
0.0
 10
9.4889018254
 20
8.4598636148
 30
0.0
 10
9.486205308
 20
8.4412401887
 30
0.0
 10
9.4845848507
 20
8.4224202325
 30
0.0
 10
9.4842260191
 20
8.4098062516
 30
0.0
 10
9.4842260191
 20
8.4034883869
 30
0.0
  0
SPLINE
  5
3A5
100
AcDbEntity
  8
0
100
AcDbSpline
 62
7
  6
CONTINUOUS
 70
0
 71
3
 72
17
 73
13
 74
0
 42
0.0000001
 43
0.0000001
 44
0.0000000001
 40
0.0
 40
0.0
 40
0.0
 40
0.0
 40
0.1267167349
 40
0.2528979755
 40
0.3785555204
 40
0.441201905
 40
0.503725565
 40
0.6284049448
 40
0.7526449559
 40
0.8146212897
 40
0.8765043448
 40
1.0
 40
1.0
 40
1.0
 40
1.0
 10
9.4935435047
 20
8.4034883875
 30
0.0
 10
9.4935435047
 20
8.4101085339
 30
0.0
 10
9.4939480236
 20
8.4233246044
 30
0.0
 10
9.495775087
 20
8.4430290085
 30
0.0
 10
9.4983107966
 20
8.4592740062
 30
0.0
 10
9.500941076
 20
8.4721133667
 30
0.0
 10
9.5039633782
 20
8.4848136598
 30
0.0
 10
9.5084807522
 20
8.5004570483
 30
0.0
 10
9.5139777837
 20
8.5157534315
 30
0.0
 10
9.5189454434
 20
8.5277275482
 30
0.0
 10
9.5242801276
 20
8.5394995052
 30
0.0
 10
9.5287046314
 20
8.5481246773
 30
0.0
 10
9.531834678
 20
8.5537664302
 30
0.0
  0
SPLINE
  5
3A6
100
AcDbEntity
  8
0
100
AcDbSpline
 62
7
  6
CONTINUOUS
 70
0
 71
3
 72
42
 73
38
 74
0
 42
0.0000001
 43
0.0000001
 44
0.0000000001
 40
0.0
 40
0.0
 40
0.0
 40
0.0
 40
0.0299865683
 40
0.0450153643
 40
0.0600686848
 40
0.0902508482
 40
0.1205489953
 40
0.1357467363
 40
0.150976806
 40
0.1815328041
 40
0.212226073
 40
0.2430589936
 40
0.2740315386
 40
0.3051413044
 40
0.3363835832
 40
0.3677514704
 40
0.3992360042
 40
0.4308263339
 40
0.4625099131
 40
0.4942727145
 40
0.5260994628
 40
0.5579738817
 40
0.5898789525
 40
0.6217971807
 40
0.6537108682
 40
0.6856023871
 40
0.7174544532
 40
0.7492503956
 40
0.7809744193
 40
0.8126118594
 40
0.844149418
 40
0.8755753994
 40
0.9068798753
 40
0.9380549896
 40
0.9535939095
 40
0.9690988194
 40
1.0
 40
1.0
 40
1.0
 40
1.0
 10
9.9807770135
 20
8.0888644424
 30
0.0
 10
9.9746388325
 20
8.0857343947
 30
0.0
 10
9.9652566928
 20
8.0813541008
 30
0.0
 10
9.9524632288
 20
8.0761691534
 30
0.0
 10
9.939456232
 20
8.0714116698
 30
0.0
 10
9.9228576504
 20
8.0662923398
 30
0.0
 10
9.9059170297
 20
8.0623069993
 30
0.0
 10
9.8921879996
 20
8.0598023674
 30
0.0
 10
9.8783239326
 20
8.057752072
 30
0.0
 10
9.8608185748
 20
8.0560568732
 30
0.0
 10
9.8396549516
 20
8.0554187042
 30
0.0
 10
9.8183992395
 20
8.0561765068
 30
0.0
 10
9.7971431583
 20
8.0583269777
 30
0.0
 10
9.7759776421
 20
8.0618607166
 30
0.0
 10
9.7549934153
 20
8.0667624441
 30
0.0
 10
9.7342803481
 20
8.0730110246
 30
0.0
 10
9.7139271455
 20
8.0805795724
 30
0.0
 10
9.6940209531
 20
8.0894355649
 30
0.0
 10
9.6746469927
 20
8.0995409839
 30
0.0
 10
9.6558882004
 20
8.1108524796
 30
0.0
 10
9.6378248752
 20
8.1233215555
 30
0.0
 10
9.6205343391
 20
8.1368947752
 30
0.0
 10
9.6040906089
 20
8.1515139909
 30
0.0
 10
9.5885640824
 20
8.1671165898
 30
0.0
 10
9.5740212392
 20
8.183635761
 30
0.0
 10
9.5605243589
 20
8.2010007791
 30
0.0
 10
9.5481312558
 20
8.2191373043
 30
0.0
 10
9.5368950335
 20
8.2379676993
 30
0.0
 10
9.5268638582
 20
8.2574113537
 30
0.0
 10
9.518080754
 20
8.2773850428
 30
0.0
 10
9.5105834192
 20
8.2978032181
 30
0.0
 10
9.5044040561
 20
8.3185786005
 30
0.0
 10
9.4995692857
 20
8.339621693
 30
0.0
 10
9.4966748462
 20
8.3573266874
 30
0.0
 10
9.4950519061
 20
8.3715329089
 30
0.0
 10
9.4938937344
 20
8.3857208929
 30
0.0
 10
9.4935435047
 20
8.3963880606
 30
0.0
 10
9.4935435047
 20
8.4034883875
 30
0.0
  0
SPLINE
  5
3A7
100
AcDbEntity
  8
0
100
AcDbSpline
 62
7
  6
CONTINUOUS
 70
0
 71
3
 72
44
 73
40
 74
0
 42
0.0000001
 43
0.0000001
 44
0.0000000001
 40
0.0
 40
0.0
 40
0.0
 40
0.0
 40
0.0149722236
 40
0.0299475067
 40
0.0449288886
 40
0.0599193736
 40
0.0749219097
 40
0.08993937
 40
0.1049745397
 40
0.1200300961
 40
0.1351085917
 40
0.1502124449
 40
0.1804994096
 40
0.2109128633
 40
0.2414659442
 40
0.2721685685
 40
0.3030272475
 40
0.3340449904
 40
0.3652212956
 40
0.396552213
 40
0.4280304762
 40
0.4596457066
 40
0.4913846713
 40
0.5232315866
 40
0.555168468
 40
0.587175515
 40
0.6192315195
 40
0.6513142962
 40
0.6834011282
 40
0.7154692177
 40
0.7474961397
 40
0.7794602892
 40
0.8113413161
 40
0.8431205468
 40
0.8747813742
 40
0.9063096205
 40
0.9376938957
 40
0.9689255646
 40
1.0
 40
1.0
 40
1.0
 40
1.0
 10
12.5079742912
 20
7.067425834
 30
0.0
 10
12.5038928446
 20
7.0634834556
 30
0.0
 10
12.4955714396
 20
7.0557592705
 30
0.0
 10
12.4826373668
 20
7.0446769601
 30
0.0
 10
12.4692677948
 20
7.0341125169
 30
0.0
 10
12.4554813945
 20
7.0240806977
 30
0.0
 10
12.4412970247
 20
7.0145953031
 30
0.0
 10
12.4267342696
 20
7.0056693496
 30
0.0
 10
12.4118131461
 20
6.9973150937
 30
0.0
 10
12.3965542434
 20
6.9895441146
 30
0.0
 10
12.3809782766
 20
6.9823669364
 30
0.0
 10
12.3597999193
 20
6.9735953514
 30
0.0
 10
12.3326286918
 20
6.9641631104
 30
0.0
 10
12.2991444033
 20
6.9553725811
 30
0.0
 10
12.2649294329
 20
6.9491450655
 30
0.0
 10
12.2301734353
 20
6.9455150093
 30
0.0
 10
12.1950673241
 20
6.9445017779
 30
0.0
 10
12.1598042683
 20
6.9461104878
 30
0.0
 10
12.1245780784
 20
6.9503318635
 30
0.0
 10
12.0895823158
 20
6.9571423346
 30
0.0
 10
12.0550091755
 20
6.9665040557
 30
0.0
 10
12.0210484719
 20
6.9783652633
 30
0.0
 10
11.9878866292
 20
6.9926605706
 30
0.0
 10
11.955705627
 20
7.0093112121
 30
0.0
 10
11.9246820321
 20
7.0282255526
 30
0.0
 10
11.8949860815
 20
7.0492996399
 30
0.0
 10
11.8667807211
 20
7.0724176946
 30
0.0
 10
11.8402206921
 20
7.097452725
 30
0.0
 10
11.815451764
 20
7.1242673055
 30
0.0
 10
11.792609934
 20
7.1527142915
 30
0.0
 10
11.7718205948
 20
7.1826375473
 30
0.0
 10
11.7531979453
 20
7.2138728797
 30
0.0
 10
11.736844392
 20
7.2462489285
 30
0.0
 10
11.7228498822
 20
7.2795880125
 30
0.0
 10
11.711291459
 20
7.3137072135
 30
0.0
 10
11.7022328933
 20
7.3484190941
 30
0.0
 10
11.6957243321
 20
7.3835337052
 30
0.0
 10
11.6918017343
 20
7.4188557219
 30
0.0
 10
11.6909231619
 20
7.4424791326
 30
0.0
 10
11.6909231619
 20
7.4542565105
 30
0.0
  0
SPLINE
  5
3A8
100
AcDbEntity
  8
0
100
AcDbSpline
 62
7
  6
CONTINUOUS
 70
0
 71
3
 72
39
 73
35
 74
0
 42
0.0000001
 43
0.0000001
 44
0.0000000001
 40
0.0
 40
0.0
 40
0.0
 40
0.0
 40
0.0299344875
 40
0.0599008805
 40
0.0899221441
 40
0.1200199408
 40
0.1502141308
 40
0.1805223238
 40
0.2109594938
 40
0.2415376699
 40
0.2722657065
 40
0.3031491315
 40
0.3341900711
 40
0.3653872581
 40
0.3967361104
 40
0.4282288736
 40
0.4598548225
 40
0.4916005204
 40
0.5234501215
 40
0.5553857092
 40
0.5873876678
 40
0.6194350804
 40
0.6515061431
 40
0.6835785914
 40
0.7156301343
 40
0.7476388874
 40
0.7795838001
 40
0.8114450742
 40
0.8432045627
 40
0.8748461418
 40
0.9063560545
 40
0.9377232773
 40
0.968939404
 40
1.0
 40
1.0
 40
1.0
 40
1.0
 10
12.5078697198
 20
7.0675399091
 30
0.0
 10
12.4995855886
 20
7.0599576409
 30
0.0
 10
12.4824036948
 20
7.0454310056
 30
0.0
 10
12.4549848625
 20
7.0257207974
 30
0.0
 10
12.4260536606
 20
7.0081838783
 30
0.0
 10
12.3957683719
 20
6.9929165102
 30
0.0
 10
12.3642919662
 20
6.9800003098
 30
0.0
 10
12.3317944684
 20
6.9695047903
 30
0.0
 10
12.2984511741
 20
6.9614861129
 30
0.0
 10
12.2644418927
 20
6.9559870792
 30
0.0
 10
12.2299499029
 20
6.9530368962
 30
0.0
 10
12.1951609908
 20
6.9526510568
 30
0.0
 10
12.1602624465
 20
6.9548311763
 30
0.0
 10
12.1254420528
 20
6.9595650983
 30
0.0
 10
12.0908870932
 20
6.966826986
 30
0.0
 10
12.0567833632
 20
6.9765774573
 30
0.0
 10
12.0233141582
 20
6.9887637308
 30
0.0
 10
11.9906593225
 20
7.0033200135
 30
0.0
 10
11.9589943066
 20
7.020167854
 30
0.0
 10
11.9284892256
 20
7.03921653
 30
0.0
 10
11.8993079267
 20
7.060363498
 30
0.0
 10
11.8716071627
 20
7.0834950187
 30
0.0
 10
11.8455357688
 20
7.1084867556
 30
0.0
 10
11.8212338325
 20
7.1352043906
 30
0.0
 10
11.7988319374
 20
7.1635043412
 30
0.0
 10
11.7784505177
 20
7.1932345708
 30
0.0
 10
11.7601992248
 20
7.2242353866
 30
0.0
 10
11.7441762719
 20
7.2563402487
 30
0.0
 10
11.7304679338
 20
7.2893766596
 30
0.0
 10
11.7191481292
 20
7.3231671738
 30
0.0
 10
11.7102780031
 20
7.357530053
 30
0.0
 10
11.7039055992
 20
7.3922811842
 30
0.0
 10
11.7000653906
 20
7.4272313328
 30
0.0
 10
11.6992053647
 20
7.450603824
 30
0.0
 10
11.6992053647
 20
7.4622565046
 30
0.0
  0
SPLINE
  5
3A9
100
AcDbEntity
  8
0
100
AcDbSpline
 62
7
  6
CONTINUOUS
 70
0
 71
3
 72
23
 73
19
 74
0
 42
0.0000001
 43
0.0000001
 44
0.0000000001
 40
0.0
 40
0.0
 40
0.0
 40
0.0
 40
0.0616917705
 40
0.1234138797
 40
0.1851857022
 40
0.2470261404
 40
0.308953445
 40
0.3709850434
 40
0.4331373766
 40
0.495425751
 40
0.5578642015
 40
0.620465392
 40
0.6832404607
 40
0.7461989647
 40
0.8093490284
 40
0.8726959495
 40
0.9362465896
 40
1.0
 40
1.0
 40
1.0
 40
1.0
 10
11.8244575045
 20
7.7750674088
 30
0.0
 10
11.8194808184
 20
7.7699948811
 30
0.0
 10
11.809775824
 20
7.7595976908
 30
0.0
 10
11.7960083609
 20
7.7432931698
 30
0.0
 10
11.7830567408
 20
7.7263111359
 30
0.0
 10
11.7709493911
 20
7.7086887431
 30
0.0
 10
11.7597122901
 20
7.6904639045
 30
0.0
 10
11.7493697086
 20
7.6716759936
 30
0.0
 10
11.7399439473
 20
7.6523655492
 30
0.0
 10
11.7314553043
 20
7.6325742641
 30
0.0
 10
11.7239220487
 20
7.6123448563
 30
0.0
 10
11.7173603985
 20
7.5917209797
 30
0.0
 10
11.7117844769
 20
7.570747138
 30
0.0
 10
11.7072062706
 20
7.5494685469
 30
0.0
 10
11.703635661
 20
7.5279312289
 30
0.0
 10
11.7010801432
 20
7.5061812917
 30
0.0
 10
11.6995454166
 20
7.4842664788
 30
0.0
 10
11.6992053647
 20
7.4696001724
 30
0.0
 10
11.6992053647
 20
7.4622565046
 30
0.0
  0
SPLINE
  5
3AA
100
AcDbEntity
  8
0
100
AcDbSpline
 62
7
  6
CONTINUOUS
 70
0
 71
3
 72
56
 73
52
 74
0
 42
0.0000001
 43
0.0000001
 44
0.0000000001
 40
0.0
 40
0.0
 40
0.0
 40
0.0
 40
0.0153876701
 40
0.0307306135
 40
0.0460311901
 40
0.0612920624
 40
0.0765162757
 40
0.0917072149
 40
0.1068685641
 40
0.122004285
 40
0.1371185812
 40
0.1522158552
 40
0.1673006682
 40
0.1823777017
 40
0.1974517116
 40
0.2125274798
 40
0.2276097717
 40
0.2427032933
 40
0.2578126439
 40
0.2729422706
 40
0.2880964322
 40
0.3032791599
 40
0.3184942163
 40
0.3337450641
 40
0.349034841
 40
0.3643663295
 40
0.3797419308
 40
0.3951636539
 40
0.4106331001
 40
0.4261514468
 40
0.4417194443
 40
0.4573374184
 40
0.4730052659
 40
0.4887224569
 40
0.5044880516
 40
0.5203007087
 40
0.552052001
 40
0.5839661869
 40
0.6160198409
 40
0.6481851236
 40
0.6804306937
 40
0.7127227185
 40
0.7450259311
 40
0.7773047179
 40
0.8095242201
 40
0.8416514129
 40
0.8736561436
 40
0.9055121214
 40
0.937197787
 40
0.9686968662
 40
1.0
 40
1.0
 40
1.0
 40
1.0
 10
12.4678539236
 20
7.3542350192
 30
0.0
 10
12.4670125312
 20
7.3497813118
 30
0.0
 10
12.4651213862
 20
7.3409251473
 30
0.0
 10
12.461660066
 20
7.3278106801
 30
0.0
 10
12.4575854219
 20
7.3149124168
 30
0.0
 10
12.4529061745
 20
7.3022583061
 30
0.0
 10
12.4476323264
 20
7.2898752672
 30
0.0
 10
12.4417751277
 20
7.2777897843
 30
0.0
 10
12.4353470227
 20
7.266027702
 30
0.0
 10
12.4283617628
 20
7.2546141458
 30
0.0
 10
12.4208342795
 20
7.2435734944
 30
0.0
 10
12.4127806123
 20
7.2329293683
 30
0.0
 10
12.4042179572
 20
7.2227045271
 30
0.0
 10
12.3951646437
 20
7.212920794
 30
0.0
 10
12.3856400034
 20
7.203599086
 30
0.0
 10
12.375664358
 20
7.1947593605
 30
0.0
 10
12.3652590626
 20
7.1864204697
 30
0.0
 10
12.3544463609
 20
7.1786002174
 30
0.0
 10
12.3432493345
 20
7.1713153478
 30
0.0
 10
12.3316919265
 20
7.1645814066
 30
0.0
 10
12.3197988569
 20
7.1584127355
 30
0.0
 10
12.3075955284
 20
7.1528225216
 30
0.0
 10
12.2951080092
 20
7.1478227205
 30
0.0
 10
12.282363004
 20
7.1434239435
 30
0.0
 10
12.2693877398
 20
7.1396355643
 30
0.0
 10
12.2562099222
 20
7.1364657013
 30
0.0
 10
12.2428577111
 20
7.1339210653
 30
0.0
 10
12.2293596257
 20
7.1320070393
 30
0.0
 10
12.2157444837
 20
7.1307277223
 30
0.0
 10
12.2020413584
 20
7.1300858288
 30
0.0
 10
12.1882795052
 20
7.1300826556
 30
0.0
 10
12.1744883033
 20
7.1307181941
 30
0.0
 10
12.1606971684
 20
7.1319911171
 30
0.0
 10
12.1469356193
 20
7.1338986031
 30
0.0
 10
12.1332326825
 20
7.1364366645
 30
0.0
 10
12.1150576045
 20
7.1406591521
 30
0.0
 10
12.0926303453
 20
7.1474903265
 30
0.0
 10
12.0664607265
 20
7.1580776201
 30
0.0
 10
12.0412123121
 20
7.1709771082
 30
0.0
 10
12.0171014032
 20
7.1860783842
 30
0.0
 10
11.9943325824
 20
7.2032526237
 30
0.0
 10
11.9730996718
 20
7.2223535743
 30
0.0
 10
11.9535832303
 20
7.243218577
 30
0.0
 10
11.9359493517
 20
7.2656700948
 30
0.0
 10
11.920348259
 20
7.2895171898
 30
0.0
 10
11.9069128377
 20
7.3145569636
 30
0.0
 10
11.8957578731
 20
7.3405765665
 30
0.0
 10
11.8869786678
 20
7.3673543804
 30
0.0
 10
11.8806505995
 20
7.3946633406
 30
0.0
 10
11.8768281425
 20
7.4222678891
 30
0.0
 10
11.8759698014
 20
7.4407774091
 30
0.0
 10
11.8759698014
 20
7.4499978493
 30
0.0
  0
SPLINE
  5
3AB
100
AcDbEntity
  8
0
100
AcDbSpline
 62
7
  6
CONTINUOUS
 70
0
 71
3
 72
55
 73
51
 74
0
 42
0.0000001
 43
0.0000001
 44
0.0000000001
 40
0.0
 40
0.0
 40
0.0
 40
0.0
 40
0.0153297752
 40
0.0306184648
 40
0.0458686938
 40
0.0610834478
 40
0.0762660277
 40
0.0914200142
 40
0.1065492445
 40
0.1216577819
 40
0.1367498752
 40
0.1518299199
 40
0.1669024238
 40
0.1819719643
 40
0.1970431431
 40
0.2121205472
 40
0.2272087095
 40
0.2423120636
 40
0.2574349026
 40
0.2725813466
 40
0.2877553037
 40
0.3029604315
 40
0.3182001118
 40
0.3334774234
 40
0.3487951109
 40
0.3641555662
 40
0.3795608156
 40
0.3950124997
 40
0.4105118611
 40
0.4260597455
 40
0.4416565947
 40
0.4573024405
 40
0.4729969176
 40
0.4887392685
 40
0.5203549343
 40
0.5521437337
 40
0.584086708
 40
0.616160154
 40
0.6483363966
 40
0.6805846685
 40
0.7128720537
 40
0.7451644716
 40
0.777427693
 40
0.8096283571
 40
0.8417349653
 40
0.8737188416
 40
0.9055550382
 40
0.9372231408
 40
0.968707722
 40
1.0
 40
1.0
 40
1.0
 40
1.0
 10
12.4706402683
 20
7.3713357363
 30
0.0
 10
12.4696470477
 20
7.3673492023
 30
0.0
 10
12.4674767125
 20
7.3594319369
 30
0.0
 10
12.4636710847
 20
7.3477384057
 30
0.0
 10
12.4593272488
 20
7.336266568
 30
0.0
 10
12.4544542528
 20
7.3250403496
 30
0.0
 10
12.4490620956
 20
7.3140827374
 30
0.0
 10
12.4431618115
 20
7.3034163181
 30
0.0
 10
12.436765529
 20
7.2930630274
 30
0.0
 10
12.4298864283
 20
7.2830441433
 30
0.0
 10
12.4225386196
 20
7.273380296
 30
0.0
 10
12.4147371931
 20
7.264091385
 30
0.0
 10
12.4064982335
 20
7.2551964859
 30
0.0
 10
12.3978386731
 20
7.2467139052
 30
0.0
 10
12.3887762925
 20
7.2386611279
 30
0.0
 10
12.3793297721
 20
7.2310546778
 30
0.0
 10
12.3695185466
 20
7.2239101909
 30
0.0
 10
12.3593627691
 20
7.2172424026
 30
0.0
 10
12.3488833563
 20
7.2110649901
 30
0.0
 10
12.3381018782
 20
7.2053906246
 30
0.0
 10
12.3270404908
 20
7.2002310063
 30
0.0
 10
12.315721954
 20
7.1955967261
 30
0.0
 10
12.3041695642
 20
7.1914972562
 30
0.0
 10
12.2924070674
 20
7.1879410377
 30
0.0
 10
12.2804586482
 20
7.1849353866
 30
0.0
 10
12.2683488886
 20
7.1824864086
 30
0.0
 10
12.2561026792
 20
7.1805991288
 30
0.0
 10
12.2437451893
 20
7.1792774511
 30
0.0
 10
12.2313018243
 20
7.1785240177
 30
0.0
 10
12.2187981597
 20
7.1783403465
 30
0.0
 10
12.2062598676
 20
7.178726853
 30
0.0
 10
12.1937127917
 20
7.1796826639
 30
0.0
 10
12.1811824027
 20
7.1812058544
 30
0.0
 10
12.1645109276
 20
7.1839924565
 30
0.0
 10
12.143839846
 20
7.1888823818
 30
0.0
 10
12.1195542567
 20
7.1969319615
 30
0.0
 10
12.0959450792
 20
7.2071061841
 30
0.0
 10
12.0732070623
 20
7.2193211635
 30
0.0
 10
12.0515259901
 20
7.2334764658
 30
0.0
 10
12.0310794975
 20
7.249455924
 30
0.0
 10
12.0120350062
 20
7.2671285189
 30
0.0
 10
11.9945484469
 20
7.2863493649
 30
0.0
 10
11.9787631715
 20
7.3069610822
 30
0.0
 10
11.9648085595
 20
7.3287948386
 30
0.0
 10
11.9527991256
 20
7.3516718434
 30
0.0
 10
11.9428336228
 20
7.3754048472
 30
0.0
 10
11.9349940043
 20
7.3997992384
 30
0.0
 10
11.9293451153
 20
7.4246558698
 30
0.0
 10
11.9259337085
 20
7.4497683239
 30
0.0
 10
11.9251678693
 20
7.4666021716
 30
0.0
 10
11.9251678693
 20
7.4749885409
 30
0.0
  0
SPLINE
  5
3AC
100
AcDbEntity
  8
0
100
AcDbSpline
 62
7
  6
CONTINUOUS
 70
0
 71
3
 72
41
 73
37
 74
0
 42
0.0000001
 43
0.0000001
 44
0.0000000001
 40
0.0
 40
0.0
 40
0.0
 40
0.0
 40
0.0299421703
 40
0.0599087166
 40
0.0899234211
 40
0.1200088977
 40
0.150186053
 40
0.1804736004
 40
0.2108876395
 40
0.2414413098
 40
0.2721445264
 40
0.3030038
 40
0.3340221415
 40
0.3651990482
 40
0.3965305685
 40
0.4280094374
 40
0.4596252765
 40
0.4913648514
 40
0.5232123788
 40
0.5551498746
 40
0.5871575376
 40
0.6192141589
 40
0.6512975532
 40
0.6833850026
 40
0.7154537088
 40
0.731476412
 40
0.7474860771
 40
0.7794508401
 40
0.8113324799
 40
0.8431123195
 40
0.8747737613
 40
0.9063025943
 40
0.937687506
 40
0.953325536
 40
0.9689249997
 40
1.0
 40
1.0
 40
1.0
 40
1.0
 10
12.3869628831
 20
7.2807407491
 30
0.0
 10
12.382740802
 20
7.2766625535
 30
0.0
 10
12.3739646836
 20
7.2688352549
 30
0.0
 10
12.3599039471
 20
7.2581719715
 30
0.0
 10
12.3450185561
 20
7.2486396821
 30
0.0
 10
12.3293916738
 20
7.2402918698
 30
0.0
 10
12.3131092179
 20
7.2331741382
 30
0.0
 10
12.2962610484
 20
7.2273256147
 30
0.0
 10
12.2789400084
 20
7.2227782994
 30
0.0
 10
12.2612415244
 20
7.21955702
 30
0.0
 10
12.243263041
 20
7.2176792759
 30
0.0
 10
12.2251034907
 20
7.2171551629
 30
0.0
 10
12.2068627471
 20
7.2179873268
 30
0.0
 10
12.1886410786
 20
7.2201709651
 30
0.0
 10
12.1705386023
 20
7.2236938626
 30
0.0
 10
12.1526547402
 20
7.2285364675
 30
0.0
 10
12.1350876809
 20
7.2346720051
 30
0.0
 10
12.1179338485
 20
7.2420666286
 30
0.0
 10
12.1012873797
 20
7.2506796089
 30
0.0
 10
12.0852396175
 20
7.2604635553
 30
0.0
 10
12.0698786068
 20
7.2713646892
 30
0.0
 10
12.0552886549
 20
7.2833230846
 30
0.0
 10
12.0415497338
 20
7.2962731953
 30
0.0
 10
12.0287375715
 20
7.3101434612
 30
0.0
 10
12.0188874892
 20
7.3224107642
 30
0.0
 10
12.011538408
 20
7.3326073542
 30
0.0
 10
12.0045590959
 20
7.3430359935
 30
0.0
 10
11.9965348501
 20
7.3564947611
 30
0.0
 10
11.9880757442
 20
7.3732418378
 30
0.0
 10
11.980836661
 20
7.3904874069
 30
0.0
 10
11.9748577774
 20
7.4081365219
 30
0.0
 10
11.9701720293
 20
7.426091852
 30
0.0
 10
11.9673628299
 20
7.4412481027
 30
0.0
 10
11.9657869421
 20
7.4534259487
 30
0.0
 10
11.9646622759
 20
7.4655921474
 30
0.0
 10
11.9643217386
 20
7.4747471209
 30
0.0
 10
11.9643217386
 20
7.4808392722
 30
0.0
  0
SPLINE
  5
3AD
100
AcDbEntity
  8
0
100
AcDbSpline
 62
7
  6
CONTINUOUS
 70
0
 71
3
 72
40
 73
36
 74
0
 42
0.0000001
 43
0.0000001
 44
0.0000000001
 40
0.0
 40
0.0
 40
0.0
 40
0.0
 40
0.0300575219
 40
0.0602184828
 40
0.0904928863
 40
0.1208888504
 40
0.1361363597
 40
0.1514163786
 40
0.1820717535
 40
0.212860796
 40
0.2437833298
 40
0.2748370942
 40
0.3060178057
 40
0.337319248
 40
0.3687333881
 40
0.4002505157
 40
0.4318594028
 40
0.4635474814
 40
0.4953010358
 40
0.5271054081
 40
0.5589452125
 40
0.5908045575
 40
0.6226672738
 40
0.6545171435
 40
0.6863381318
 40
0.7181146156
 40
0.7498316077
 40
0.7814749763
 40
0.81303165
 40
0.8444898315
 40
0.8758391289
 40
0.9070708869
 40
0.9381778712
 40
0.9691555409
 40
1.0
 40
1.0
 40
1.0
 40
1.0
 10
12.4364101088
 20
7.3518766624
 30
0.0
 10
12.4317452605
 20
7.350019852
 30
0.0
 10
12.4222736018
 20
7.3466078251
 30
0.0
 10
12.4077371791
 20
7.3424250818
 30
0.0
 10
12.3929039534
 20
7.3391847642
 30
0.0
 10
12.3803565377
 20
7.3372825014
 30
0.0
 10
12.3702317587
 20
7.3362415052
 30
0.0
 10
12.3600356949
 20
7.3355208262
 30
0.0
 10
12.3472136814
 20
7.3352275675
 30
0.0
 10
12.3317872457
 20
7.3358467366
 30
0.0
 10
12.3163631141
 20
7.3374339398
 30
0.0
 10
12.3010023637
 20
7.3399828709
 30
0.0
 10
12.2857653056
 20
7.3434834034
 30
0.0
 10
12.2707118861
 20
7.3479216886
 30
0.0
 10
12.2559012818
 20
7.3532801968
 30
0.0
 10
12.2413917156
 20
7.359537791
 30
0.0
 10
12.2272402176
 20
7.3666698103
 30
0.0
 10
12.2135024069
 20
7.3746481669
 30
0.0
 10
12.2002322741
 20
7.3834414565
 30
0.0
 10
12.1874819715
 20
7.3930150816
 30
0.0
 10
12.1753016097
 20
7.4033313866
 30
0.0
 10
12.1637390625
 20
7.414349805
 30
0.0
 10
12.1528397804
 20
7.4260270184
 30
0.0
 10
12.1426466124
 20
7.438317124
 30
0.0
 10
12.1331996374
 20
7.4511718137
 30
0.0
 10
12.1245360099
 20
7.4645405646
 30
0.0
 10
12.1166898135
 20
7.4783708348
 30
0.0
 10
12.1096919302
 20
7.492608269
 30
0.0
 10
12.1035699128
 20
7.5071969109
 30
0.0
 10
12.0983478941
 20
7.5220794133
 30
0.0
 10
12.0940464488
 20
7.5371972956
 30
0.0
 10
12.0906826085
 20
7.5524910413
 30
0.0
 10
12.0882696039
 20
7.5679007826
 30
0.0
 10
12.0868171205
 20
7.5833650418
 30
0.0
 10
12.0864922493
 20
7.5936946685
 30
0.0
 10
12.0864922493
 20
7.5988469307
 30
0.0
  0
SPLINE
  5
3AE
100
AcDbEntity
  8
0
100
AcDbSpline
 62
7
  6
CONTINUOUS
 70
0
 71
3
 72
25
 73
21
 74
0
 42
0.0000001
 43
0.0000001
 44
0.0000000001
 40
0.0
 40
0.0
 40
0.0
 40
0.0
 40
0.0315740931
 40
0.0630640262
 40
0.0944736623
 40
0.1258074687
 40
0.188252882
 40
0.2504620476
 40
0.3124888564
 40
0.3743928846
 40
0.4362375705
 40
0.4980882253
 40
0.5600099705
 40
0.6220656869
 40
0.6843140476
 40
0.7468077213
 40
0.8095918245
 40
0.8727027429
 40
0.9361663024
 40
1.0
 40
1.0
 40
1.0
 40
1.0
 10
12.109592456
 20
7.7251372184
 30
0.0
 10
12.1054959939
 20
7.7245094872
 30
0.0
 10
12.0973399681
 20
7.7230785455
 30
0.0
 10
12.0852276124
 20
7.7204050361
 30
0.0
 10
12.0732738488
 20
7.7172119294
 30
0.0
 10
12.057596468
 20
7.7122759726
 30
0.0
 10
12.0384897281
 20
7.7048372724
 30
0.0
 10
12.0165102522
 20
7.6939346354
 30
0.0
 10
11.9956564056
 20
7.6811416208
 30
0.0
 10
11.9760787804
 20
7.6665498472
 30
0.0
 10
11.9579173246
 20
7.650263532
 30
0.0
 10
11.9413021513
 20
7.6323993031
 30
0.0
 10
11.9263521403
 20
7.6130850935
 30
0.0
 10
11.9131742066
 20
7.5924592444
 30
0.0
 10
11.9018623683
 20
7.5706695525
 30
0.0
 10
11.8924971757
 20
7.5478720207
 30
0.0
 10
11.8851451807
 20
7.524229949
 30
0.0
 10
11.8798584891
 20
7.4999118696
 30
0.0
 10
11.8766741575
 20
7.4750938016
 30
0.0
 10
11.8759698014
 20
7.4583763845
 30
0.0
 10
11.8759698014
 20
7.4499978493
 30
0.0
  0
SPLINE
  5
3AF
100
AcDbEntity
  8
0
100
AcDbSpline
 62
7
  6
CONTINUOUS
 70
0
 71
3
 72
23
 73
19
 74
0
 42
0.0000001
 43
0.0000001
 44
0.0000000001
 40
0.0
 40
0.0
 40
0.0
 40
0.0
 40
0.0628547581
 40
0.1254259033
 40
0.1877533279
 40
0.2498837676
 40
0.3118695531
 40
0.373767155
 40
0.4356355818
 40
0.4975346846
 40
0.5595234297
 40
0.6216582007
 40
0.6839912039
 40
0.74656902
 40
0.809431339
 40
0.8726101414
 40
0.9361278648
 40
1.0
 40
1.0
 40
1.0
 40
1.0
 10
12.1256936933
 20
7.7270961614
 30
0.0
 10
12.1185536351
 20
7.7255465161
 30
0.0
 10
12.1044271582
 20
7.7218591491
 30
0.0
 10
12.0838255861
 20
7.7145809002
 30
0.0
 10
12.0639909991
 20
7.7056145336
 30
0.0
 10
12.0450550205
 20
7.6950187242
 30
0.0
 10
12.0271409675
 20
7.6828624036
 30
0.0
 10
12.0103661446
 20
7.6692249264
 30
0.0
 10
11.994840225
 20
7.6541953649
 30
0.0
 10
11.9806647362
 20
7.6378719586
 30
0.0
 10
11.9679322749
 20
7.6203614761
 30
0.0
 10
11.9567259043
 20
7.6017784716
 30
0.0
 10
11.9471186356
 20
7.5822444939
 30
0.0
 10
11.9391729646
 20
7.561887214
 30
0.0
 10
11.9329404311
 20
7.5408397746
 30
0.0
 10
11.9284613686
 20
7.5192391859
 30
0.0
 10
11.925764472
 20
7.4972282038
 30
0.0
 10
11.9251678693
 20
7.4824130887
 30
0.0
 10
11.9251678693
 20
7.4749885409
 30
0.0
  0
SPLINE
  5
3B0
100
AcDbEntity
  8
0
100
AcDbSpline
 62
7
  6
CONTINUOUS
 70
0
 71
3
 72
21
 73
17
 74
0
 42
0.0000001
 43
0.0000001
 44
0.0000000001
 40
0.0
 40
0.0
 40
0.0
 40
0.0
 40
0.0617147758
 40
0.1234506606
 40
0.1852285516
 40
0.2470689039
 40
0.3089915432
 40
0.3710154715
 40
0.4331586565
 40
0.4954378534
 40
0.5578684959
 40
0.6204644995
 40
0.6832380575
 40
0.7461999878
 40
0.87268242
 40
1.0
 40
1.0
 40
1.0
 40
1.0
 10
12.0333368687
 20
7.6468413169
 30
0.0
 10
12.0306041546
 20
7.6442017318
 30
0.0
 10
12.0252726785
 20
7.6387799259
 30
0.0
 10
12.0177028208
 20
7.630245248
 30
0.0
 10
12.0105763241
 20
7.6213267348
 30
0.0
 10
12.0039099012
 20
7.6120452475
 30
0.0
 10
11.997718806
 20
7.6024221506
 30
0.0
 10
11.9920173393
 20
7.5924796532
 30
0.0
 10
11.9868186684
 20
7.5822406665
 30
0.0
 10
11.9821347181
 20
7.5717288427
 30
0.0
 10
11.9779762613
 20
7.5609684045
 30
0.0
 10
11.9743529239
 20
7.5499842313
 30
0.0
 10
11.9712729669
 20
7.5388013668
 30
0.0
 10
11.9678956242
 20
7.5236402153
 30
0.0
 10
11.965069939
 20
7.5043121846
 30
0.0
 10
11.9643217386
 20
7.4886773518
 30
0.0
 10
11.9643217386
 20
7.4808392722
 30
0.0
  0
SPLINE
  5
3B1
100
AcDbEntity
  8
0
100
AcDbSpline
 62
7
  6
CONTINUOUS
 70
0
 71
3
 72
15
 73
11
 74
0
 42
0.0000001
 43
0.0000001
 44
0.0000000001
 40
0.0
 40
0.0
 40
0.0
 40
0.0
 40
0.1236721668
 40
0.2476783399
 40
0.3720460809
 40
0.4967996052
 40
0.6219586716
 40
0.74753653
 40
0.8735526358
 40
1.0
 40
1.0
 40
1.0
 40
1.0
 10
12.1060636677
 20
7.6936112854
 30
0.0
 10
12.1044528625
 20
7.689931366
 30
0.0
 10
12.1014211707
 20
7.6824748123
 30
0.0
 10
12.0974622809
 20
7.6710515929
 30
0.0
 10
12.0940955075
 20
7.6594031896
 30
0.0
 10
12.0913295158
 20
7.6475593747
 30
0.0
 10
12.0891712648
 20
7.6355500028
 30
0.0
 10
12.0876260318
 20
7.6234051107
 30
0.0
 10
12.0866978884
 20
7.6111559508
 30
0.0
 10
12.0864922493
 20
7.6029540989
 30
0.0
 10
12.0864922493
 20
7.5988469307
 30
0.0
  0
SPLINE
  5
3B2
100
AcDbEntity
  8
0
100
AcDbSpline
 62
7
  6
CONTINUOUS
 70
0
 71
3
 72
39
 73
35
 74
0
 42
0.0000001
 43
0.0000001
 44
0.0000000001
 40
0.0
 40
0.0
 40
0.0
 40
0.0
 40
0.0299314608
 40
0.0599289234
 40
0.0900106953
 40
0.1201933171
 40
0.1504912358
 40
0.1809165305
 40
0.2114786961
 40
0.242184487
 40
0.273037821
 40
0.3040397435
 40
0.3351884481
 40
0.3664793506
 40
0.3979052131
 40
0.429456311
 40
0.4611206404
 40
0.4928841594
 40
0.5247310577
 40
0.556644051
 40
0.5886046949
 40
0.6205937121
 40
0.6525913318
 40
0.6845776335
 40
0.7165328935
 40
0.7484379286
 40
0.7802744335
 40
0.812025307
 40
0.843674964
 40
0.8752096235
 40
0.9066175848
 40
0.9378894366
 40
0.9690183287
 40
1.0
 40
1.0
 40
1.0
 40
1.0
 10
12.4545124586
 20
7.4208886
 30
0.0
 10
12.4508986722
 20
7.4183937034
 30
0.0
 10
12.4434748817
 20
7.4136650163
 30
0.0
 10
12.4318334488
 20
7.4074064053
 30
0.0
 10
12.4197297383
 20
7.4020040138
 30
0.0
 10
12.4072229267
 20
7.3974843491
 30
0.0
 10
12.394373128
 20
7.39386894
 30
0.0
 10
12.3812423505
 20
7.3911751272
 30
0.0
 10
12.3678938571
 20
7.389415747
 30
0.0
 10
12.3543919494
 20
7.3885991405
 30
0.0
 10
12.3408016328
 20
7.3887291034
 30
0.0
 10
12.3271883113
 20
7.3898048781
 30
0.0
 10
12.3136174731
 20
7.3918211621
 30
0.0
 10
12.3001543786
 20
7.3947681385
 30
0.0
 10
12.2868637501
 20
7.3986315267
 30
0.0
 10
12.2738094643
 20
7.4033926546
 30
0.0
 10
12.2610542494
 20
7.4090285493
 30
0.0
 10
12.2486593871
 20
7.4155120495
 30
0.0
 10
12.2366844217
 20
7.422811936
 30
0.0
 10
12.2251868778
 20
7.4308930818
 30
0.0
 10
12.2142219866
 20
7.4397166198
 30
0.0
 10
12.2038424234
 20
7.4492401291
 30
0.0
 10
12.1940980574
 20
7.4594178368
 30
0.0
 10
12.1850357138
 20
7.4702008366
 30
0.0
 10
12.1766989513
 20
7.4815373214
 30
0.0
 10
12.169127854
 20
7.49337283
 30
0.0
 10
12.1623588405
 20
7.5056505059
 30
0.0
 10
12.1564244893
 20
7.5183113695
 30
0.0
 10
12.1513533839
 20
7.5312945905
 30
0.0
 10
12.1471699729
 20
7.544537805
 30
0.0
 10
12.1438944573
 20
7.5579773081
 30
0.0
 10
12.1415426812
 20
7.5715487389
 30
0.0
 10
12.1401260708
 20
7.5851859748
 30
0.0
 10
12.1398089725
 20
7.5943015029
 30
0.0
 10
12.1398089725
 20
7.5988469338
 30
0.0
  0
SPLINE
  5
3B3
100
AcDbEntity
  8
0
100
AcDbSpline
 62
7
  6
CONTINUOUS
 70
0
 71
3
 72
21
 73
17
 74
0
 42
0.0000001
 43
0.0000001
 44
0.0000000001
 40
0.0
 40
0.0
 40
0.0
 40
0.0
 40
0.0620301392
 40
0.1242437261
 40
0.1866193193
 40
0.2491333287
 40
0.3117603394
 40
0.3744734536
 40
0.4999959551
 40
0.6255189884
 40
0.6882327682
 40
0.7508607064
 40
0.8133758894
 40
0.8757528803
 40
0.9379680621
 40
1.0
 40
1.0
 40
1.0
 40
1.0
 10
12.4339717707
 20
7.5496597977
 30
0.0
 10
12.4302085968
 20
7.5510359147
 30
0.0
 10
12.422748795
 20
7.5540101017
 30
0.0
 10
12.4118189246
 20
7.5591097667
 30
0.0
 10
12.4011685923
 20
7.5648371855
 30
0.0
 10
12.3908366053
 20
7.571171504
 30
0.0
 10
12.3808595911
 20
7.5780903211
 30
0.0
 10
12.3680771858
 20
7.5880619069
 30
0.0
 10
12.3531667593
 20
7.6018561996
 30
0.0
 10
12.3398894802
 20
7.617228865
 30
0.0
 10
12.3303599348
 20
7.6303442989
 30
0.0
 10
12.3237855898
 20
7.6405518042
 30
0.0
 10
12.3178074925
 20
7.6510941652
 30
0.0
 10
12.3124467862
 20
7.66193401
 30
0.0
 10
12.3077229815
 20
7.673031837
 30
0.0
 10
12.3050050004
 20
7.6805889876
 30
0.0
 10
12.3037580585
 20
7.6843970373
 30
0.0
  0
SPLINE
  5
3B4
100
AcDbEntity
  8
0
100
AcDbSpline
 62
7
  6
CONTINUOUS
 70
0
 71
3
 72
29
 73
25
 74
0
 42
0.0000001
 43
0.0000001
 44
0.0000000001
 40
0.0
 40
0.0
 40
0.0
 40
0.0
 40
0.0755849261
 40
0.1466145423
 40
0.2134284043
 40
0.2764668694
 40
0.3362691012
 40
0.3651660615
 40
0.3935048179
 40
0.4213819954
 40
0.4488995596
 40
0.4761640064
 40
0.503285025
 40
0.5303741997
 40
0.5575435754
 40
0.5849040881
 40
0.6125642198
 40
0.6406286477
 40
0.6691970702
 40
0.7281928859
 40
0.7902532206
 40
0.8559467831
 40
0.9257384363
 40
1.0
 40
1.0
 40
1.0
 40
1.0
 10
12.9239872468
 20
7.674555408
 30
0.0
 10
12.9223140881
 20
7.6729392608
 30
0.0
 10
12.9189700547
 20
7.6699036678
 30
0.0
 10
12.9137948347
 20
7.6658483884
 30
0.0
 10
12.9086256059
 20
7.6624424678
 30
0.0
 10
12.9034676032
 20
7.6596912397
 30
0.0
 10
12.8991321342
 20
7.657928079
 30
0.0
 10
12.895688658
 20
7.656865055
 30
0.0
 10
12.8931425255
 20
7.6562425087
 30
0.0
 10
12.8906045389
 20
7.6557860449
 30
0.0
 10
12.8880753994
 20
7.6554958988
 30
0.0
 10
12.8855559332
 20
7.6553721916
 30
0.0
 10
12.88304695
 20
7.6554149929
 30
0.0
 10
12.8805492806
 20
7.6556243655
 30
0.0
 10
12.8780637545
 20
7.6560002079
 30
0.0
 10
12.8755911702
 20
7.6565423366
 30
0.0
 10
12.8731323394
 20
7.6572505518
 30
0.0
 10
12.8706879601
 20
7.6581246143
 30
0.0
 10
12.8674145256
 20
7.6595252698
 30
0.0
 10
12.8633490622
 20
7.6617107597
 30
0.0
 10
12.8585982189
 20
7.6649621819
 30
0.0
 10
12.8539256615
 20
7.6688650977
 30
0.0
 10
12.8493357003
 20
7.6734134787
 30
0.0
 10
12.8464266557
 20
7.6767647479
 30
0.0
 10
12.8449845748
 20
7.6785378708
 30
0.0
  0
SPLINE
  5
3B5
100
AcDbEntity
  8
0
100
AcDbSpline
 62
7
  6
CONTINUOUS
 70
0
 71
3
 72
19
 73
15
 74
0
 42
0.0000001
 43
0.0000001
 44
0.0000000001
 40
0.0
 40
0.0
 40
0.0
 40
0.0
 40
0.1504602541
 40
0.2916987487
 40
0.4244197399
 40
0.4878838165
 40
0.5495801819
 40
0.6682271511
 40
0.7255606398
 40
0.7817998923
 40
0.8371467013
 40
0.8918136246
 40
0.9460221895
 40
1.0
 40
1.0
 40
1.0
 40
1.0
 10
12.864099842
 20
7.7385960184
 30
0.0
 10
12.862573217
 20
7.7371214118
 30
0.0
 10
12.8595220486
 20
7.7343546228
 30
0.0
 10
12.854797621
 20
7.7306675404
 30
0.0
 10
12.8508070806
 20
7.7280598396
 30
0.0
 10
12.8476248956
 20
7.7262939721
 30
0.0
 10
12.844536583
 20
7.7247779543
 30
0.0
 10
12.8414121177
 20
7.7235387308
 30
0.0
 10
12.8382700694
 20
7.7226062098
 30
0.0
 10
12.8359469221
 20
7.7220687121
 30
0.0
 10
12.833631513
 20
7.7216855923
 30
0.0
 10
12.8313244478
 20
7.7214570582
 30
0.0
 10
12.8290266596
 20
7.7213832213
 30
0.0
 10
12.8275000756
 20
7.7214372121
 30
0.0
 10
12.8267404466
 20
7.7214898882
 30
0.0
  0
SPLINE
  5
3B6
100
AcDbEntity
  8
0
100
AcDbSpline
 62
7
  6
CONTINUOUS
 70
0
 71
3
 72
83
 73
79
 74
0
 42
0.0000001
 43
0.0000001
 44
0.0000000001
 40
0.0
 40
0.0
 40
0.0
 40
0.0
 40
0.0039884097
 40
0.0081453951
 40
0.0124746186
 40
0.0169791614
 40
0.0216616097
 40
0.0265239718
 40
0.0315675691
 40
0.0367932644
 40
0.042201484
 40
0.0477922575
 40
0.0535653099
 40
0.0595199779
 40
0.0719697837
 40
0.0851316862
 40
0.098991495
 40
0.1135318501
 40
0.1287326108
 40
0.1445711562
 40
0.1610226585
 40
0.1780603021
 40
0.1956554688
 40
0.2137778955
 40
0.232395813
 40
0.2514760916
 40
0.2709843678
 40
0.29088516
 40
0.3111419767
 40
0.3317174197
 40
0.3525732979
 40
0.3736707312
 40
0.4164311769
 40
0.4596784221
 40
0.5030866968
 40
0.5463286871
 40
0.589078675
 40
0.6101689609
 40
0.6310164291
 40
0.6515822205
 40
0.6718281726
 40
0.6917169195
 40
0.7112119951
 40
0.730277944
 40
0.7488804433
 40
0.7669864122
 40
0.7845641338
 40
0.8015833871
 40
0.8180155988
 40
0.8338340188
 40
0.8490138961
 40
0.8635326921
 40
0.8773703389
 40
0.8905095606
 40
0.9029362808
 40
0.9146401102
 40
0.9202191733
 40
0.9256156542
 40
0.9308296162
 40
0.9358615409
 40
0.9407122971
 40
0.9453833039
 40
0.9498764865
 40
0.9541944013
 40
0.9583403271
 40
0.9623182846
 40
0.9661332455
 40
0.9697911516
 40
0.9732990923
 40
0.9766654451
 40
0.9798999492
 40
0.9830139088
 40
0.9860202118
 40
0.9889334125
 40
0.991769705
 40
0.9945467681
 40
0.997283572
 40
1.0
 40
1.0
 40
1.0
 40
1.0
 10
12.864099842
 20
7.7385960184
 30
0.0
 10
12.8651667307
 20
7.7396265539
 30
0.0
 10
12.8672993423
 20
7.741779508
 30
0.0
 10
12.8704313804
 20
7.7452035912
 30
0.0
 10
12.873560111
 20
7.748886401
 30
0.0
 10
12.8766838299
 20
7.7528259382
 30
0.0
 10
12.8798011005
 20
7.7570202612
 30
0.0
 10
12.8829103862
 20
7.7614673587
 30
0.0
 10
12.8860102242
 20
7.7661650143
 30
0.0
 10
12.8890990309
 20
7.7711109092
 30
0.0
 10
12.8921752677
 20
7.7763025764
 30
0.0
 10
12.8952374287
 20
7.7817374179
 30
0.0
 10
12.8982839633
 20
7.7874127538
 30
0.0
 10
12.9023841347
 20
7.7954158836
 30
0.0
 10
12.9074495293
 20
7.8060095025
 30
0.0
 10
12.9133549807
 20
7.8194514431
 30
0.0
 10
12.9191623708
 20
7.8337784539
 30
0.0
 10
12.9248599868
 20
7.848961872
 30
0.0
 10
12.9304363294
 20
7.8649714686
 30
0.0
 10
12.935880139
 20
7.8817752251
 30
0.0
 10
12.9411804163
 20
7.8993395022
 30
0.0
 10
12.9463264491
 20
7.9176290975
 30
0.0
 10
12.9513078362
 20
7.9366073293
 30
0.0
 10
12.9561145081
 20
7.9562361075
 30
0.0
 10
12.9607367602
 20
7.9764760119
 30
0.0
 10
12.965165259
 20
7.9972863801
 30
0.0
 10
12.9693910636
 20
8.0186253961
 30
0.0
 10
12.9734056417
 20
8.0404501737
 30
0.0
 10
12.9772008901
 20
8.062716844
 30
0.0
 10
12.9807691487
 20
8.085380629
 30
0.0
 10
12.9841032525
 20
8.1083959904
 30
0.0
 10
12.9882458201
 20
8.1396288962
 30
0.0
 10
12.9927850477
 20
8.1792066961
 30
0.0
 10
12.997181348
 20
8.2271404236
 30
0.0
 10
13.0005152739
 20
8.2753394084
 30
0.0
 10
13.0027599925
 20
8.3234161025
 30
0.0
 10
13.0037124703
 20
8.3632334675
 30
0.0
 10
13.0039087773
 20
8.3947296135
 30
0.0
 10
13.0037745313
 20
8.4179754548
 30
0.0
 10
13.003359858
 20
8.4409039128
 30
0.0
 10
13.0026655897
 20
8.4634689216
 30
0.0
 10
13.0016931551
 20
8.4856251017
 30
0.0
 10
13.0004445358
 20
8.5073279103
 30
0.0
 10
12.9989222735
 20
8.5285337204
 30
0.0
 10
12.9971294741
 20
8.5491999166
 30
0.0
 10
12.99506979
 20
8.5692849803
 30
0.0
 10
12.9927474145
 20
8.588748571
 30
0.0
 10
12.9901670725
 20
8.6075516101
 30
0.0
 10
12.9873340116
 20
8.6256563686
 30
0.0
 10
12.984254004
 20
8.6430265533
 30
0.0
 10
12.9809333195
 20
8.6596273812
 30
0.0
 10
12.9773787127
 20
8.6754256621
 30
0.0
 10
12.9735974039
 20
8.6903898468
 30
0.0
 10
12.9695970544
 20
8.7044902202
 30
0.0
 10
12.9653857531
 20
8.7176986239
 30
0.0
 10
12.9616503676
 20
8.728100596
 30
0.0
 10
12.9585532017
 20
8.735946655
 30
0.0
 10
12.9562200158
 20
8.7414978101
 30
0.0
 10
12.9538405512
 20
8.7468070937
 30
0.0
 10
12.9514160028
 20
8.7518718924
 30
0.0
 10
12.9489475148
 20
8.7566896711
 30
0.0
 10
12.946436353
 20
8.7612580676
 30
0.0
 10
12.9438837133
 20
8.7655748178
 30
0.0
 10
12.9412908157
 20
8.7696377865
 30
0.0
 10
12.9386589434
 20
8.7734450012
 30
0.0
 10
12.9359892649
 20
8.7769945475
 30
0.0
 10
12.9332830742
 20
8.7802847087
 30
0.0
 10
12.9305415659
 20
8.7833138278
 30
0.0
 10
12.9277659463
 20
8.7860803545
 30
0.0
 10
12.9249574741
 20
8.7885828923
 30
0.0
 10
12.9221172939
 20
8.7908200048
 30
0.0
 10
12.9192466935
 20
8.7927904519
 30
0.0
 10
12.9163469144
 20
8.794492949
 30
0.0
 10
12.9134192948
 20
8.7959262724
 30
0.0
 10
12.9104653589
 20
8.7970893596
 30
0.0
 10
12.9074865993
 20
8.7979810872
 30
0.0
 10
12.9044851673
 20
8.7986006742
 30
0.0
 10
12.9024670813
 20
8.7988322146
 30
0.0
 10
12.9014592374
 20
8.7989021029
 30
0.0
  0
SPLINE
  5
3B7
100
AcDbEntity
  8
0
100
AcDbSpline
 62
7
  6
CONTINUOUS
 70
0
 71
3
 72
15
 73
11
 74
0
 42
0.0000001
 43
0.0000001
 44
0.0000000001
 40
0.0
 40
0.0
 40
0.0
 40
0.0
 40
0.1012822046
 40
0.2081393707
 40
0.321342511
 40
0.4415621755
 40
0.5693132847
 40
0.704919683
 40
0.8485035924
 40
1.0
 40
1.0
 40
1.0
 40
1.0
 10
9.8899949255
 20
8.1209158034
 30
0.0
 10
9.8908817797
 20
8.1226276682
 30
0.0
 10
9.8928688669
 20
8.1260625935
 30
0.0
 10
9.8963876161
 20
8.1310746339
 30
0.0
 10
9.9005374753
 20
8.1360570172
 30
0.0
 10
9.9053275001
 20
8.1409969519
 30
0.0
 10
9.9107560381
 20
8.1458872341
 30
0.0
 10
9.9168104468
 20
8.150725575
 30
0.0
 10
9.9234680605
 20
8.1555146582
 30
0.0
 10
9.9281648054
 20
8.15859838
 30
0.0
 10
9.930602276
 20
8.1601394944
 30
0.0
  0
SPLINE
  5
3B8
100
AcDbEntity
  8
0
100
AcDbSpline
 62
7
  6
CONTINUOUS
 70
0
 71
3
 72
15
 73
11
 74
0
 42
0.0000001
 43
0.0000001
 44
0.0000000001
 40
0.0
 40
0.0
 40
0.0
 40
0.0
 40
0.1044756368
 40
0.2146002372
 40
0.3305185757
 40
0.4523454216
 40
0.5801661995
 40
0.7140369723
 40
0.8539860516
 40
1.0
 40
1.0
 40
1.0
 40
1.0
 10
9.9102986007
 20
8.1317983776
 30
0.0
 10
9.9111750347
 20
8.1326449478
 30
0.0
 10
9.912926232
 20
8.1344351832
 30
0.0
 10
9.9154827133
 20
8.1373222489
 30
0.0
 10
9.9180346695
 20
8.1404781043
 30
0.0
 10
9.9205800173
 20
8.1438999881
 30
0.0
 10
9.9231168081
 20
8.147585281
 30
0.0
 10
9.9256431056
 20
8.1515310931
 30
0.0
 10
9.9281567274
 20
8.1557341171
 30
0.0
 10
9.9297881676
 20
8.1586436826
 30
0.0
 10
9.930602276
 20
8.1601394944
 30
0.0
  0
SPLINE
  5
3B9
100
AcDbEntity
  8
0
100
AcDbSpline
 62
7
  6
CONTINUOUS
 70
0
 71
3
 72
15
 73
11
 74
0
 42
0.0000001
 43
0.0000001
 44
0.0000000001
 40
0.0
 40
0.0
 40
0.0
 40
0.0
 40
0.1476578264
 40
0.2876055709
 40
0.420302348
 40
0.5463358927
 40
0.6664171917
 40
0.7813881271
 40
0.8922201343
 40
1.0
 40
1.0
 40
1.0
 40
1.0
 10
9.9102986007
 20
8.1317983776
 30
0.0
 10
9.9094677863
 20
8.1309958724
 30
0.0
 10
9.9078070235
 20
8.1294758137
 30
0.0
 10
9.9052480983
 20
8.1274076758
 30
0.0
 10
9.9026917669
 20
8.1256162907
 30
0.0
 10
9.9001399583
 20
8.124103451
 30
0.0
 10
9.8975943186
 20
8.1228708216
 30
0.0
 10
9.8950565294
 20
8.1219199892
 30
0.0
 10
9.8925291167
 20
8.1212527498
 30
0.0
 10
9.8908343322
 20
8.1209951188
 30
0.0
 10
9.8899949255
 20
8.1209158034
 30
0.0
  0
SPLINE
  5
3BA
100
AcDbEntity
  8
0
100
AcDbSpline
 62
7
  6
CONTINUOUS
 70
0
 71
3
 72
31
 73
27
 74
0
 42
0.0000001
 43
0.0000001
 44
0.0000000001
 40
0.0
 40
0.0
 40
0.0
 40
0.0
 40
0.0152304799
 40
0.0313308392
 40
0.048445951
 40
0.0666861285
 40
0.0861317003
 40
0.1068362367
 40
0.1288318469
 40
0.152131742
 40
0.176734255
 40
0.2026247789
 40
0.2297782216
 40
0.2581608727
 40
0.2877315542
 40
0.3184435238
 40
0.3502448018
 40
0.3830800615
 40
0.4516153835
 40
0.5235649737
 40
0.5984303851
 40
0.6757185706
 40
0.7549543705
 40
0.8356854989
 40
0.9175010352
 40
1.0
 40
1.0
 40
1.0
 40
1.0
 10
9.7389415535
 20
8.1305340773
 30
0.0
 10
9.7389415645
 20
8.1308739775
 30
0.0
 10
9.7388975536
 20
8.1315736983
 30
0.0
 10
9.7387115536
 20
8.1326405571
 30
0.0
 10
9.7384056809
 20
8.1337490618
 30
0.0
 10
9.7379820974
 20
8.1348976769
 30
0.0
 10
9.7374428842
 20
8.1360850807
 30
0.0
 10
9.736790605
 20
8.1373099299
 30
0.0
 10
9.7360278889
 20
8.1385707456
 30
0.0
 10
9.7351578021
 20
8.1398660777
 30
0.0
 10
9.7341835813
 20
8.1411943601
 30
0.0
 10
9.7331087881
 20
8.1425540316
 30
0.0
 10
9.7319372025
 20
8.1439434883
 30
0.0
 10
9.730672807
 20
8.145361092
 30
0.0
 10
9.7293197991
 20
8.146805226
 30
0.0
 10
9.7278824782
 20
8.1482742076
 30
0.0
 10
9.7263653208
 20
8.1497664218
 30
0.0
 10
9.7242110912
 20
8.1518140652
 30
0.0
 10
9.7213466582
 20
8.1544141872
 30
0.0
 10
9.7177114781
 20
8.1575584372
 30
0.0
 10
9.7138663998
 20
8.1607570702
 30
0.0
 10
9.7098456698
 20
8.1639977048
 30
0.0
 10
9.7056815744
 20
8.1672683195
 30
0.0
 10
9.7014039329
 20
8.1705574231
 30
0.0
 10
9.6970402275
 20
8.1738537003
 30
0.0
 10
9.6940982595
 20
8.1760427923
 30
0.0
 10
9.6926177317
 20
8.177137245
 30
0.0
  0
SPLINE
  5
3BB
100
AcDbEntity
  8
0
100
AcDbSpline
 62
7
  6
CONTINUOUS
 70
0
 71
3
 72
95
 73
91
 74
0
 42
0.0000001
 43
0.0000001
 44
0.0000000001
 40
0.0
 40
0.0
 40
0.0
 40
0.0
 40
0.0039488186
 40
0.0077209214
 40
0.0113256445
 40
0.0147745623
 40
0.0212567379
 40
0.0243282751
 40
0.0273113629
 40
0.0302282336
 40
0.0331028199
 40
0.0359602143
 40
0.0388260038
 40
0.0417255309
 40
0.0446832014
 40
0.0477218699
 40
0.0508624604
 40
0.054123679
 40
0.0575219936
 40
0.0610716364
 40
0.0647847726
 40
0.0686716672
 40
0.0727408686
 40
0.0769994465
 40
0.0814531065
 40
0.0861064471
 40
0.0909629987
 40
0.0960254618
 40
0.1012957099
 40
0.1067749705
 40
0.1124638402
 40
0.1183623842
 40
0.1244701939
 40
0.1307863998
 40
0.1373097798
 40
0.1440387018
 40
0.1509712635
 40
0.165437612
 40
0.1806882179
 40
0.1966981085
 40
0.213438923
 40
0.2308792972
 40
0.2489851807
 40
0.267720107
 40
0.2870454315
 40
0.3069205425
 40
0.3273030537
 40
0.3481489841
 40
0.3694129279
 40
0.3910482169
 40
0.4130070784
 40
0.4352407884
 40
0.4576998231
 40
0.4803340076
 40
0.5030926647
 40
0.5259247619
 40
0.5487790575
 40
0.5716042467
 40
0.5943491077
 40
0.6169626475
 40
0.6393942481
 40
0.6615938139
 40
0.6835119196
 40
0.7050999601
 40
0.7263103021
 40
0.7470964384
 40
0.7674131453
 40
0.7872166469
 40
0.8064647855
 40
0.8251172028
 40
0.8431355353
 40
0.8604836278
 40
0.8771277739
 40
0.893036993
 40
0.9081833566
 40
0.9225423822
 40
0.9294203032
 40
0.9360940384
 40
0.9425617647
 40
0.9488219437
 40
0.9548734598
 40
0.9607155432
 40
0.9663479326
 40
0.9717708198
 40
0.9769849626
 40
0.9819917154
 40
0.9867932039
 40
0.9913924565
 40
0.9957932256
 40
1.0
 40
1.0
 40
1.0
 40
1.0
 10
12.9254591415
 20
8.838925957
 30
0.0
 10
12.9267011382
 20
8.840081832
 30
0.0
 10
12.9291840767
 20
8.8422844013
 30
0.0
 10
12.9329937457
 20
8.8453156732
 30
0.0
 10
12.9367999774
 20
8.8479950869
 30
0.0
 10
12.9417625033
 20
8.8510322516
 30
0.0
 10
12.9468255713
 20
8.8534544254
 30
0.0
 10
12.9519422523
 20
8.8551559402
 30
0.0
 10
12.9556974593
 20
8.8560494008
 30
0.0
 10
12.9594354071
 20
8.8565812489
 30
0.0
 10
12.9631534422
 20
8.856750689
 30
0.0
 10
12.9668484295
 20
8.856557276
 30
0.0
 10
12.970517216
 20
8.8560010638
 30
0.0
 10
12.9741567573
 20
8.8550828407
 30
0.0
 10
12.9777641981
 20
8.8538036535
 30
0.0
 10
12.9813370793
 20
8.8521651453
 30
0.0
 10
12.9848731369
 20
8.8501689096
 30
0.0
 10
12.9883704674
 20
8.8478168744
 30
0.0
 10
12.99182721
 20
8.8451108423
 30
0.0
 10
12.9952416771
 20
8.8420528003
 30
0.0
 10
12.9986121533
 20
8.8386447388
 30
0.0
 10
13.0019369277
 20
8.8348887763
 30
0.0
 10
13.0052143114
 20
8.8307871905
 30
0.0
 10
13.0084425072
 20
8.8263423673
 30
0.0
 10
13.0116198282
 20
8.8215569461
 30
0.0
 10
13.0147444243
 20
8.8164336761
 30
0.0
 10
13.0178146103
 20
8.810975586
 30
0.0
 10
13.0208285458
 20
8.8051858358
 30
0.0
 10
13.0237845458
 20
8.7990678458
 30
0.0
 10
13.0266808339
 20
8.7926251985
 30
0.0
 10
13.0295157285
 20
8.7858617021
 30
0.0
 10
13.0322875484
 20
8.7787813527
 30
0.0
 10
13.0349946272
 20
8.7713883421
 30
0.0
 10
13.03763539
 20
8.7636870624
 30
0.0
 10
13.0402082014
 20
8.7556820856
 30
0.0
 10
13.0427116092
 20
8.7473781708
 30
0.0
 10
13.04600158
 20
8.7357487183
 30
0.0
 10
13.049916511
 20
8.7204935395
 30
0.0
 10
13.0542506111
 20
8.7013282103
 30
0.0
 10
13.0582745725
 20
8.681098198
 30
0.0
 10
13.0619786545
 20
8.6598517804
 30
0.0
 10
13.0653538594
 20
8.6376395076
 30
0.0
 10
13.0683919944
 20
8.6145143703
 30
0.0
 10
13.0710856831
 20
8.5905315704
 30
0.0
 10
13.0734283853
 20
8.5657484029
 30
0.0
 10
13.0754144121
 20
8.5402241029
 30
0.0
 10
13.0770389384
 20
8.5140197002
 30
0.0
 10
13.0782980141
 20
8.4871978683
 30
0.0
 10
13.0791885722
 20
8.459822771
 30
0.0
 10
13.0797084358
 20
8.4319599064
 30
0.0
 10
13.0798563223
 20
8.4036759479
 30
0.0
 10
13.079631846
 20
8.3750385832
 30
0.0
 10
13.0790355184
 20
8.3461163507
 30
0.0
 10
13.078068748
 20
8.3169784748
 30
0.0
 10
13.076733835
 20
8.2876946981
 30
0.0
 10
13.0750339656
 20
8.2583351139
 30
0.0
 10
13.0729732045
 20
8.2289699975
 30
0.0
 10
13.0705564846
 20
8.1996696375
 30
0.0
 10
13.0677895957
 20
8.1705041663
 30
0.0
 10
13.06467917
 20
8.1415433925
 30
0.0
 10
13.061232667
 20
8.1128566323
 30
0.0
 10
13.0574583553
 20
8.0845125431
 30
0.0
 10
13.0533652931
 20
8.0565789579
 30
0.0
 10
13.048963308
 20
8.0291227209
 30
0.0
 10
13.0442629727
 20
8.0022095262
 30
0.0
 10
13.0392755801
 20
7.975903759
 30
0.0
 10
13.0340131166
 20
7.950268339
 30
0.0
 10
13.028488234
 20
7.9253645674
 30
0.0
 10
13.0227142191
 20
7.9012519766
 30
0.0
 10
13.0167049626
 20
7.8779881824
 30
0.0
 10
13.0104749257
 20
7.8556287422
 30
0.0
 10
13.0040391043
 20
7.8342270064
 30
0.0
 10
12.9974129914
 20
7.8138340059
 30
0.0
 10
12.9906125347
 20
7.7944982228
 30
0.0
 10
12.9836540982
 20
7.7762657745
 30
0.0
 10
12.9776547491
 20
7.7618273802
 30
0.0
 10
12.972779097
 20
7.7508706539
 30
0.0
 10
12.9691457837
 20
7.7430736661
 30
0.0
 10
12.9654855803
 20
7.7355835662
 30
0.0
 10
12.9618005818
 20
7.7284048194
 30
0.0
 10
12.95809306
 20
7.7215416709
 30
0.0
 10
12.9543651544
 20
7.7149982106
 30
0.0
 10
12.9506191301
 20
7.7087782884
 30
0.0
 10
12.9468571553
 20
7.7028855985
 30
0.0
 10
12.9430814848
 20
7.697323616
 30
0.0
 10
12.9392943309
 20
7.6920956058
 30
0.0
 10
12.9354978456
 20
7.6872046205
 30
0.0
 10
12.9316941613
 20
7.6826534483
 30
0.0
 10
12.9278856156
 20
7.6784450132
 30
0.0
 10
12.9252872833
 20
7.675811147
 30
0.0
 10
12.9239872468
 20
7.674555408
 30
0.0
  0
SPLINE
  5
3BC
100
AcDbEntity
  8
0
100
AcDbSpline
 62
7
  6
CONTINUOUS
 70
0
 71
3
 72
71
 73
67
 74
0
 42
0.0000001
 43
0.0000001
 44
0.0000000001
 40
0.0
 40
0.0
 40
0.0
 40
0.0
 40
0.0155841868
 40
0.0311159674
 40
0.0465952419
 40
0.0620238831
 40
0.0774034499
 40
0.0927362823
 40
0.1080251235
 40
0.1232731729
 40
0.1384840549
 40
0.153661776
 40
0.1688106901
 40
0.1839354534
 40
0.1990409783
 40
0.2141323818
 40
0.2292149316
 40
0.2442939896
 40
0.2593749544
 40
0.2744632044
 40
0.2895640405
 40
0.3046826297
 40
0.3198239503
 40
0.3349927393
 40
0.3501934439
 40
0.3654301771
 40
0.3807066779
 40
0.3960262747
 40
0.4113918551
 40
0.4268058389
 40
0.4422701591
 40
0.457786248
 40
0.4733550285
 40
0.4889769091
 40
0.5046517848
 40
0.5203790431
 40
0.5361575761
 40
0.5519857959
 40
0.5678616537
 40
0.5837826614
 40
0.5997459183
 40
0.6157481416
 40
0.6317856992
 40
0.647854644
 40
0.6639507501
 40
0.6800695513
 40
0.696206382
 40
0.7123564195
 40
0.7285147266
 40
0.7446762933
 40
0.7608360806
 40
0.7769890651
 40
0.7931302832
 40
0.8092548745
 40
0.8253581235
 40
0.8414355011
 40
0.8574827059
 40
0.8734957052
 40
0.8894707697
 40
0.9054045134
 40
0.921293918
 40
0.9371363619
 40
0.952929726
 40
0.9686720559
 40
0.9843626909
 40
1.0
 40
1.0
 40
1.0
 40
1.0
 10
10.030085438
 20
8.1807481284
 30
0.0
 10
10.030085438
 20
8.17435874
 30
0.0
 10
10.0297727403
 20
8.1615991841
 30
0.0
 10
10.028361274
 20
8.1425402544
 30
0.0
 10
10.0260113296
 20
8.1236378624
 30
0.0
 10
10.0227287378
 20
8.1049383462
 30
0.0
 10
10.0185212127
 20
8.08648646
 30
0.0
 10
10.0133989009
 20
8.0683267925
 30
0.0
 10
10.0073740887
 20
8.0505030972
 30
0.0
 10
10.0004612731
 20
8.0330583554
 30
0.0
 10
9.9926770849
 20
8.0160346347
 30
0.0
 10
9.984040254
 20
7.9994729964
 30
0.0
 10
9.9745715661
 20
7.9834133974
 30
0.0
 10
9.9642938257
 20
7.9678945848
 30
0.0
 10
9.9532318131
 20
7.9529539907
 30
0.0
 10
9.9414121961
 20
7.9386276569
 30
0.0
 10
9.9288634717
 20
7.9249501459
 30
0.0
 10
9.9156158962
 20
7.911954458
 30
0.0
 10
9.9017014139
 20
7.8996719514
 30
0.0
 10
9.8871536013
 20
7.8881322384
 30
0.0
 10
9.8720075588
 20
7.877363137
 30
0.0
 10
9.8562998266
 20
7.8673906058
 30
0.0
 10
9.8400682964
 20
7.85823868
 30
0.0
 10
9.8233521182
 20
7.8499294202
 30
0.0
 10
9.8061916193
 20
7.8424828297
 30
0.0
 10
9.7886281961
 20
7.8359168182
 30
0.0
 10
9.7707042059
 20
7.8302471757
 30
0.0
 10
9.7524628677
 20
7.8254875306
 30
0.0
 10
9.7339481577
 20
7.8216493239
 30
0.0
 10
9.7152047078
 20
7.8187417661
 30
0.0
 10
9.6962776968
 20
7.8167718013
 30
0.0
 10
9.6772127347
 20
7.8157441242
 30
0.0
 10
9.6580557558
 20
7.8156611639
 30
0.0
 10
9.6388529087
 20
7.8165230807
 30
0.0
 10
9.6196504489
 20
7.8183277665
 30
0.0
 10
9.6004946228
 20
7.8210708161
 30
0.0
 10
9.5814315575
 20
7.8247455739
 30
0.0
 10
9.5625071512
 20
7.8293431502
 30
0.0
 10
9.5437669651
 20
7.8348524416
 30
0.0
 10
9.5252561177
 20
7.8412601633
 30
0.0
 10
9.5070191669
 20
7.8485508508
 30
0.0
 10
9.489100005
 20
7.8567069123
 30
0.0
 10
9.4715417595
 20
7.8657086864
 30
0.0
 10
9.4543866897
 20
7.875534484
 30
0.0
 10
9.4376760892
 20
7.886160644
 30
0.0
 10
9.42145018
 20
7.897561576
 30
0.0
 10
9.4057480057
 20
7.9097098113
 30
0.0
 10
9.3906073544
 20
7.9225760959
 30
0.0
 10
9.3760646672
 20
7.9361294547
 30
0.0
 10
9.3621549523
 20
7.9503372659
 30
0.0
 10
9.3489117022
 20
7.9651653378
 30
0.0
 10
9.3363667881
 20
7.9805779691
 30
0.0
 10
9.324550406
 20
7.9965380592
 30
0.0
 10
9.3134910063
 20
8.0130071953
 30
0.0
 10
9.3032152248
 20
8.0299457431
 30
0.0
 10
9.2937478249
 20
8.0473129426
 30
0.0
 10
9.2851116103
 20
8.0650669907
 30
0.0
 10
9.2773273817
 20
8.0831651515
 30
0.0
 10
9.2704138989
 20
8.1015638643
 30
0.0
 10
9.2643878364
 20
8.1202188458
 30
0.0
 10
9.259263748
 20
8.1390851872
 30
0.0
 10
9.2550539893
 20
8.1581175003
 30
0.0
 10
9.2517687849
 20
8.1772698534
 30
0.0
 10
9.2494159384
 20
8.1964964524
 30
0.0
 10
9.2480013701
 20
8.2157502
 30
0.0
 10
9.2476854723
 20
8.2285965822
 30
0.0
 10
9.2476854723
 20
8.2350077503
 30
0.0
  0
LINE
  5
3BD
100
AcDbEntity
  8
0
100
AcDbLine
 62
7
  6
CONTINUOUS
 10
9.9284672375
 20
8.1179542194
 11
9.8899949255
 21
8.1209158034
  0
SPLINE
  5
3BE
100
AcDbEntity
  8
0
100
AcDbSpline
 62
4
  6
CONTINUOUS
 70
0
 71
3
 72
359
 73
355
 74
0
 42
0.0000001
 43
0.0000001
 44
0.0000000001
 40
0.0
 40
0.0
 40
0.0
 40
0.0
 40
0.015625
 40
0.0234375
 40
0.03125
 40
0.0390625
 40
0.04296875
 40
0.046875
 40
0.05078125
 40
0.0546875
 40
0.056640625
 40
0.05859375
 40
0.0595703125
 40
0.060546875
 40
0.0615234375
 40
0.0620117188
 40
0.0625
 40
0.0629882812
 40
0.0634765625
 40
0.064453125
 40
0.0654296875
 40
0.06640625
 40
0.068359375
 40
0.0703125
 40
0.07421875
 40
0.078125
 40
0.08203125
 40
0.0859375
 40
0.09375
 40
0.1015625
 40
0.10546875
 40
0.109375
 40
0.11328125
 40
0.1171875
 40
0.119140625
 40
0.12109375
 40
0.1220703125
 40
0.123046875
 40
0.1240234375
 40
0.1245117188
 40
0.125
 40
0.1254882812
 40
0.1259765625
 40
0.126953125
 40
0.1279296875
 40
0.12890625
 40
0.130859375
 40
0.1328125
 40
0.13671875
 40
0.140625
 40
0.14453125
 40
0.1484375
 40
0.15625
 40
0.1640625
 40
0.16796875
 40
0.171875
 40
0.17578125
 40
0.1796875
 40
0.181640625
 40
0.18359375
 40
0.1845703125
 40
0.185546875
 40
0.1865234375
 40
0.1870117188
 40
0.1875
 40
0.1879882812
 40
0.1884765625
 40
0.189453125
 40
0.1904296875
 40
0.19140625
 40
0.193359375
 40
0.1953125
 40
0.19921875
 40
0.203125
 40
0.20703125
 40
0.2109375
 40
0.21875
 40
0.2265625
 40
0.23046875
 40
0.234375
 40
0.23828125
 40
0.2421875
 40
0.244140625
 40
0.24609375
 40
0.2470703125
 40
0.248046875
 40
0.2490234375
 40
0.2495117188
 40
0.25
 40
0.2504882812
 40
0.2509765625
 40
0.251953125
 40
0.2529296875
 40
0.25390625
 40
0.255859375
 40
0.2578125
 40
0.26171875
 40
0.265625
 40
0.26953125
 40
0.2734375
 40
0.28125
 40
0.2890625
 40
0.29296875
 40
0.296875
 40
0.30078125
 40
0.3046875
 40
0.306640625
 40
0.30859375
 40
0.3095703125
 40
0.310546875
 40
0.3115234375
 40
0.3120117188
 40
0.3125
 40
0.3129882812
 40
0.3134765625
 40
0.314453125
 40
0.3154296875
 40
0.31640625
 40
0.318359375
 40
0.3203125
 40
0.32421875
 40
0.328125
 40
0.33203125
 40
0.3359375
 40
0.34375
 40
0.3515625
 40
0.35546875
 40
0.359375
 40
0.36328125
 40
0.3671875
 40
0.369140625
 40
0.37109375
 40
0.3720703125
 40
0.373046875
 40
0.3740234375
 40
0.3745117188
 40
0.375
 40
0.3754882812
 40
0.3759765625
 40
0.376953125
 40
0.3779296875
 40
0.37890625
 40
0.380859375
 40
0.3828125
 40
0.38671875
 40
0.390625
 40
0.39453125
 40
0.3984375
 40
0.40625
 40
0.4140625
 40
0.41796875
 40
0.421875
 40
0.42578125
 40
0.4296875
 40
0.431640625
 40
0.43359375
 40
0.4345703125
 40
0.435546875
 40
0.4365234375
 40
0.4370117188
 40
0.4375
 40
0.4379882812
 40
0.4384765625
 40
0.439453125
 40
0.4404296875
 40
0.44140625
 40
0.443359375
 40
0.4453125
 40
0.44921875
 40
0.453125
 40
0.45703125
 40
0.4609375
 40
0.46875
 40
0.4765625
 40
0.48046875
 40
0.484375
 40
0.48828125
 40
0.4921875
 40
0.494140625
 40
0.49609375
 40
0.4970703125
 40
0.498046875
 40
0.4990234375
 40
0.4995117188
 40
0.5
 40
0.5004882812
 40
0.5009765625
 40
0.501953125
 40
0.5029296875
 40
0.50390625
 40
0.505859375
 40
0.5078125
 40
0.51171875
 40
0.515625
 40
0.51953125
 40
0.5234375
 40
0.53125
 40
0.5390625
 40
0.54296875
 40
0.546875
 40
0.55078125
 40
0.5546875
 40
0.556640625
 40
0.55859375
 40
0.560546875
 40
0.5615234375
 40
0.5620117188
 40
0.5625
 40
0.5629882812
 40
0.5634765625
 40
0.564453125
 40
0.56640625
 40
0.568359375
 40
0.5703125
 40
0.57421875
 40
0.578125
 40
0.58203125
 40
0.5859375
 40
0.59375
 40
0.6015625
 40
0.60546875
 40
0.609375
 40
0.61328125
 40
0.6171875
 40
0.619140625
 40
0.62109375
 40
0.623046875
 40
0.6240234375
 40
0.6245117188
 40
0.625
 40
0.6254882812
 40
0.6259765625
 40
0.626953125
 40
0.62890625
 40
0.630859375
 40
0.6328125
 40
0.63671875
 40
0.640625
 40
0.64453125
 40
0.6484375
 40
0.65625
 40
0.6640625
 40
0.66796875
 40
0.671875
 40
0.67578125
 40
0.6796875
 40
0.681640625
 40
0.68359375
 40
0.685546875
 40
0.6865234375
 40
0.6870117188
 40
0.6875
 40
0.6879882812
 40
0.6884765625
 40
0.689453125
 40
0.69140625
 40
0.693359375
 40
0.6953125
 40
0.69921875
 40
0.703125
 40
0.70703125
 40
0.7109375
 40
0.71875
 40
0.7265625
 40
0.73046875
 40
0.734375
 40
0.73828125
 40
0.7421875
 40
0.744140625
 40
0.74609375
 40
0.748046875
 40
0.7490234375
 40
0.7495117188
 40
0.75
 40
0.7504882812
 40
0.7509765625
 40
0.751953125
 40
0.75390625
 40
0.755859375
 40
0.7578125
 40
0.76171875
 40
0.765625
 40
0.76953125
 40
0.7734375
 40
0.78125
 40
0.7890625
 40
0.79296875
 40
0.796875
 40
0.80078125
 40
0.8046875
 40
0.806640625
 40
0.80859375
 40
0.810546875
 40
0.8115234375
 40
0.8120117188
 40
0.8125
 40
0.8129882812
 40
0.8134765625
 40
0.814453125
 40
0.81640625
 40
0.818359375
 40
0.8203125
 40
0.82421875
 40
0.828125
 40
0.83203125
 40
0.8359375
 40
0.84375
 40
0.8515625
 40
0.85546875
 40
0.859375
 40
0.86328125
 40
0.8671875
 40
0.869140625
 40
0.87109375
 40
0.873046875
 40
0.8740234375
 40
0.8745117188
 40
0.875
 40
0.8754882812
 40
0.8759765625
 40
0.876953125
 40
0.87890625
 40
0.880859375
 40
0.8828125
 40
0.88671875
 40
0.890625
 40
0.89453125
 40
0.8984375
 40
0.90625
 40
0.9140625
 40
0.91796875
 40
0.921875
 40
0.92578125
 40
0.9296875
 40
0.931640625
 40
0.93359375
 40
0.935546875
 40
0.9365234375
 40
0.9370117188
 40
0.9375
 40
0.9379882812
 40
0.9384765625
 40
0.939453125
 40
0.94140625
 40
0.943359375
 40
0.9453125
 40
0.94921875
 40
0.953125
 40
0.95703125
 40
0.9609375
 40
0.96875
 40
0.9765625
 40
0.984375
 40
1.0
 40
1.0
 40
1.0
 40
1.0
 10
11.2002328131
 20
8.3228459724
 30
0.0
 10
11.203366
 20
8.3229358968
 30
0.0
 10
11.2080657804
 20
8.3230707834
 30
0.0
 10
11.2143321542
 20
8.3232506323
 30
0.0
 10
11.2190319346
 20
8.3233855188
 30
0.0
 10
11.2229484182
 20
8.3234979247
 30
0.0
 10
11.2260816053
 20
8.3235878482
 30
0.0
 10
11.2284314949
 20
8.3236552944
 30
0.0
 10
11.2307813871
 20
8.3237227271
 30
0.0
 10
11.2327396226
 20
8.3237789627
 30
0.0
 10
11.2343062291
 20
8.323823858
 30
0.0
 10
11.2352853168
 20
8.3238521295
 30
0.0
 10
11.2360686817
 20
8.3238742614
 30
0.0
 10
11.2366559459
 20
8.3238921891
 30
0.0
 10
11.2371461583
 20
8.323902902
 30
0.0
 10
11.2375364766
 20
8.3239209522
 30
0.0
 10
11.2378342748
 20
8.3239085865
 30
0.0
 10
11.2381127608
 20
8.3239950941
 30
0.0
 10
11.2384908215
 20
8.3240758998
 30
0.0
 10
11.2389610828
 20
8.3241887567
 30
0.0
 10
11.239526387
 20
8.3243191129
 30
0.0
 10
11.24027978
 20
8.3244946927
 30
0.0
 10
11.2412216398
 20
8.3247135609
 30
0.0
 10
11.2427285491
 20
8.325064089
 30
0.0
 10
11.2446122085
 20
8.3255021328
 30
0.0
 10
11.2468725901
 20
8.3260278352
 30
0.0
 10
11.2491329742
 20
8.3265535243
 30
0.0
 10
11.2521468188
 20
8.3272544478
 30
0.0
 10
11.255914125
 20
8.3281306004
 30
0.0
 10
11.2596814308
 20
8.3290067542
 30
0.0
 10
11.2626952759
 20
8.3297076758
 30
0.0
 10
11.2649556584
 20
8.3302333704
 30
0.0
 10
11.2672160461
 20
8.3307590522
 30
0.0
 10
11.2690996865
 20
8.3311971602
 30
0.0
 10
11.2706066345
 20
8.3315475575
 30
0.0
 10
11.2715483959
 20
8.3317667585
 30
0.0
 10
11.2723019909
 20
8.3319416552
 30
0.0
 10
11.272866678
 20
8.3320740984
 30
0.0
 10
11.2733388703
 20
8.3321804256
 30
0.0
 10
11.2737129914
 20
8.332274553
 30
0.0
 10
11.2740035085
 20
8.3323203771
 30
0.0
 10
11.2742561368
 20
8.3324607541
 30
0.0
 10
11.2746062095
 20
8.3326148949
 30
0.0
 10
11.2750392596
 20
8.3328189029
 30
0.0
 10
11.2755608633
 20
8.333058862
 30
0.0
 10
11.2762556561
 20
8.3333805016
 30
0.0
 10
11.2771243795
 20
8.333781971
 30
0.0
 10
11.278514207
 20
8.3344246463
 30
0.0
 10
11.280251536
 20
8.3352278792
 30
0.0
 10
11.2823363117
 20
8.3361918063
 30
0.0
 10
11.2844210925
 20
8.3371557207
 30
0.0
 10
11.2872007984
 20
8.3384409444
 30
0.0
 10
11.2906754314
 20
8.3400474722
 30
0.0
 10
11.294150064
 20
8.3416540012
 30
0.0
 10
11.2969297707
 20
8.3429392231
 30
0.0
 10
11.2990145491
 20
8.3439031428
 30
0.0
 10
11.301099334
 20
8.34486705
 30
0.0
 10
11.3028366343
 20
8.345670345
 30
0.0
 10
11.3042265202
 20
8.3463128937
 30
0.0
 10
11.3050950949
 20
8.3467146852
 30
0.0
 10
11.305790193
 20
8.3470356638
 30
0.0
 10
11.3063108639
 20
8.3472776423
 30
0.0
 10
11.3067468325
 20
8.3474753319
 30
0.0
 10
11.3070909508
 20
8.3476423634
 30
0.0
 10
11.3073617637
 20
8.3477433731
 30
0.0
 10
11.3075840084
 20
8.3479369982
 30
0.0
 10
11.3078973002
 20
8.3481628133
 30
0.0
 10
11.3082830942
 20
8.3484561818
 30
0.0
 10
11.3087485384
 20
8.348803473
 30
0.0
 10
11.3093682606
 20
8.3492681874
 30
0.0
 10
11.3101432112
 20
8.3498485121
 30
0.0
 10
11.3113829656
 20
8.3507773493
 30
0.0
 10
11.3129327158
 20
8.3519382869
 30
0.0
 10
11.3147923915
 20
8.3533314586
 30
0.0
 10
11.3166520738
 20
8.3547246179
 30
0.0
 10
11.3191316479
 20
8.3565821679
 30
0.0
 10
11.3222311164
 20
8.3589041039
 30
0.0
 10
11.3253305842
 20
8.3612260408
 30
0.0
 10
11.3278101595
 20
8.3630835893
 30
0.0
 10
11.3296698382
 20
8.3644767532
 30
0.0
 10
11.3315295274
 20
8.3658699075
 30
0.0
 10
11.3330792357
 20
8.3670308992
 30
0.0
 10
11.3343190756
 20
8.367959626
 30
0.0
 10
11.3350938086
 20
8.3685402317
 30
0.0
 10
11.3357139773
 20
8.3690043695
 30
0.0
 10
11.3361780572
 20
8.3693534222
 30
0.0
 10
11.33656812
 20
8.3696412792
 30
0.0
 10
11.3368727026
 20
8.3698783388
 30
0.0
 10
11.3371215447
 20
8.3700376238
 30
0.0
 10
11.3372925002
 20
8.3702675605
 30
0.0
 10
11.3375476477
 20
8.3705494632
 30
0.0
 10
11.3378572475
 20
8.370910309
 30
0.0
 10
11.3382327628
 20
8.3713396996
 30
0.0
 10
11.3387320543
 20
8.3719134864
 30
0.0
 10
11.3393566465
 20
8.3726302864
 30
0.0
 10
11.340355727
 20
8.3737774086
 30
0.0
 10
11.3416046692
 20
8.3752112283
 30
0.0
 10
11.3431033606
 20
8.3769318475
 30
0.0
 10
11.3446020625
 20
8.3786524572
 30
0.0
 10
11.3466003281
 20
8.3809466068
 30
0.0
 10
11.3490981614
 20
8.3838142925
 30
0.0
 10
11.3515959937
 20
8.3866819791
 30
0.0
 10
11.3535942608
 20
8.3889761274
 30
0.0
 10
11.3550929581
 20
8.3906967408
 30
0.0
 10
11.3565916666
 20
8.392417346
 30
0.0
 10
11.3578405556
 20
8.3938512094
 30
0.0
 10
11.3588397446
 20
8.3949982426
 30
0.0
 10
11.3594640607
 20
8.3957152691
 30
0.0
 10
11.359963919
 20
8.3962885908
 30
0.0
 10
11.3603377025
 20
8.3967194023
 30
0.0
 10
11.3606527208
 20
8.3970758025
 30
0.0
 10
11.3608968137
 20
8.3973667751
 30
0.0
 10
11.3611015292
 20
8.3975690128
 30
0.0
 10
11.3612236221
 20
8.3978322914
 30
0.0
 10
11.3614152737
 20
8.3981620072
 30
0.0
 10
11.3616449361
 20
8.3985814676
 30
0.0
 10
11.3619247695
 20
8.3990816887
 30
0.0
 10
11.3622964002
 20
8.3997497439
 30
0.0
 10
11.3627614455
 20
8.4005844384
 30
0.0
 10
11.3635052346
 20
8.401920159
 30
0.0
 10
11.3644350683
 20
8.4035897378
 30
0.0
 10
11.365550827
 20
8.4055932632
 30
0.0
 10
11.3666665968
 20
8.4075967803
 30
0.0
 10
11.3681542861
 20
8.4102681394
 30
0.0
 10
11.3700138991
 20
8.4136073372
 30
0.0
 10
11.3718735111
 20
8.4169465357
 30
0.0
 10
11.373361202
 20
8.4196178938
 30
0.0
 10
11.3744769669
 20
8.4216214139
 30
0.0
 10
11.3755927442
 20
8.4236249281
 30
0.0
 10
11.3765225201
 20
8.4252945419
 30
0.0
 10
11.3772664271
 20
8.426630191
 30
0.0
 10
11.3777311723
 20
8.4274650673
 30
0.0
 10
11.378103419
 20
8.4281327495
 30
0.0
 10
11.3783813705
 20
8.4286341101
 30
0.0
 10
11.3786169208
 20
8.4290500051
 30
0.0
 10
11.3787965601
 20
8.4293869949
 30
0.0
 10
11.3789553378
 20
8.4296280592
 30
0.0
 10
11.379022323
 20
8.4299136989
 30
0.0
 10
11.379143701
 20
8.430278981
 30
0.0
 10
11.3792844223
 20
8.4307409259
 30
0.0
 10
11.3794579967
 20
8.4312929731
 30
0.0
 10
11.3796877846
 20
8.4320298348
 30
0.0
 10
11.3799755825
 20
8.4329506383
 30
0.0
 10
11.3804357446
 20
8.4344240769
 30
0.0
 10
11.3810110551
 20
8.4362658227
 30
0.0
 10
11.3817013814
 20
8.4384759401
 30
0.0
 10
11.3823917201
 20
8.4406860515
 30
0.0
 10
11.3833121674
 20
8.4436328688
 30
0.0
 10
11.3844627281
 20
8.4473163897
 30
0.0
 10
11.3856132877
 20
8.450999911
 30
0.0
 10
11.3865337367
 20
8.4539467276
 30
0.0
 10
11.38722407
 20
8.4561568412
 30
0.0
 10
11.3879144165
 20
8.4583669501
 30
0.0
 10
11.3884896643
 20
8.4602087224
 30
0.0
 10
11.3889499543
 20
8.4616821069
 30
0.0
 10
11.3892374266
 20
8.4626030483
 30
0.0
 10
11.3894678828
 20
8.463339627
 30
0.0
 10
11.3896394154
 20
8.4638925385
 30
0.0
 10
11.3897865251
 20
8.4643517794
 30
0.0
 10
11.3898948695
 20
8.4647225781
 30
0.0
 10
11.3900016583
 20
8.4649913707
 30
0.0
 10
11.390010997
 20
8.4652956858
 30
0.0
 10
11.3900574892
 20
8.4656890309
 30
0.0
 10
11.3901039253
 20
8.4661849695
 30
0.0
 10
11.3901646477
 20
8.4667782736
 30
0.0
 10
11.3902438647
 20
8.4675699823
 30
0.0
 10
11.3903434839
 20
8.4685594001
 30
0.0
 10
11.3905025405
 20
8.4701425905
 30
0.0
 10
11.3907014759
 20
8.4721215366
 30
0.0
 10
11.3909401492
 20
8.4744962899
 30
0.0
 10
11.3911788357
 20
8.4768710384
 30
0.0
 10
11.3914970797
 20
8.4800373714
 30
0.0
 10
11.3918948864
 20
8.483995287
 30
0.0
 10
11.392292692
 20
8.4879532029
 30
0.0
 10
11.3926109379
 20
8.4911195356
 30
0.0
 10
11.3928496187
 20
8.493494285
 30
0.0
 10
11.3930883132
 20
8.4958690347
 30
0.0
 10
11.3932871827
 20
8.497847992
 30
0.0
 10
11.3934463736
 20
8.4994311596
 30
0.0
 10
11.393545651
 20
8.5004206353
 30
0.0
 10
11.3936255697
 20
8.5012122252
 30
0.0
 10
11.3936841486
 20
8.5018058919
 30
0.0
 10
11.3937372911
 20
8.5023006961
 30
0.0
 10
11.393770101
 20
8.5026963557
 30
0.0
 10
11.3938212246
 20
8.5029936024
 30
0.0
 10
11.3937711353
 20
8.503288933
 30
0.0
 10
11.3937397046
 20
8.5036833765
 30
0.0
 10
11.3936882861
 20
8.5041762012
 30
0.0
 10
11.3936317759
 20
8.5047676892
 30
0.0
 10
11.3935546156
 20
8.5055563054
 30
0.0
 10
11.3934587861
 20
8.5065420875
 30
0.0
 10
11.3933051118
 20
8.5081193323
 30
0.0
 10
11.3931131381
 20
8.5100908905
 30
0.0
 10
11.3928827185
 20
8.5124567594
 30
0.0
 10
11.3926523126
 20
8.5148226285
 30
0.0
 10
11.3923451001
 20
8.5179771206
 30
0.0
 10
11.3919610855
 20
8.5219202357
 30
0.0
 10
11.3915770725
 20
8.5258633511
 30
0.0
 10
11.3912698574
 20
8.5290178428
 30
0.0
 10
11.391039459
 20
8.5313837132
 30
0.0
 10
11.3908090117
 20
8.5337495773
 30
0.0
 10
11.3906171242
 20
8.5357211503
 30
0.0
 10
11.3904632741
 20
8.5372983649
 30
0.0
 10
11.3903488156
 20
8.5384813954
 30
0.0
 10
11.3902504783
 20
8.539466874
 30
0.0
 10
11.3901874418
 20
8.5401574551
 30
0.0
 10
11.3901423652
 20
8.5405509079
 30
0.0
 10
11.390134068
 20
8.5408492794
 30
0.0
 10
11.3900282579
 20
8.5411351055
 30
0.0
 10
11.3899211913
 20
8.5415205829
 30
0.0
 10
11.3897179773
 20
8.5421931294
 30
0.0
 10
11.3894359569
 20
8.5431549762
 30
0.0
 10
11.3890939859
 20
8.5443087361
 30
0.0
 10
11.3886392635
 20
8.545847242
 30
0.0
 10
11.3880704353
 20
8.5477703196
 30
0.0
 10
11.3873880238
 20
8.5500780362
 30
0.0
 10
11.3867055635
 20
8.5523857466
 30
0.0
 10
11.3857956335
 20
8.5554626959
 30
0.0
 10
11.3846582146
 20
8.5593088817
 30
0.0
 10
11.3835207999
 20
8.5631550684
 30
0.0
 10
11.3826108633
 20
8.5662320162
 30
0.0
 10
11.381928423
 20
8.5685397312
 30
0.0
 10
11.3812459366
 20
8.5708474304
 30
0.0
 10
11.3806773411
 20
8.5727705622
 30
0.0
 10
11.3802221442
 20
8.5743089577
 30
0.0
 10
11.3798816222
 20
8.5754630546
 30
0.0
 10
11.3795950685
 20
8.5764238471
 30
0.0
 10
11.3793999471
 20
8.5770982757
 30
0.0
 10
11.3792799142
 20
8.5774807375
 30
0.0
 10
11.3792139327
 20
8.5777758264
 30
0.0
 10
11.3790560458
 20
8.5780394083
 30
0.0
 10
11.3788775876
 20
8.5784018408
 30
0.0
 10
11.3785503494
 20
8.5790309772
 30
0.0
 10
11.3780906752
 20
8.5799324205
 30
0.0
 10
11.3775357236
 20
8.5810130066
 30
0.0
 10
11.3767969558
 20
8.5824541883
 30
0.0
 10
11.3758730954
 20
8.5842555282
 30
0.0
 10
11.3747646346
 20
8.5864171948
 30
0.0
 10
11.3736561279
 20
8.5885788457
 30
0.0
 10
11.3721781351
 20
8.5914610525
 30
0.0
 10
11.3703306381
 20
8.5950638088
 30
0.0
 10
11.368483145
 20
8.5986665668
 30
0.0
 10
11.3670051458
 20
8.6015487709
 30
0.0
 10
11.3658966582
 20
8.6037104296
 30
0.0
 10
11.3647881259
 20
8.6058720671
 30
0.0
 10
11.363864488
 20
8.6076734977
 30
0.0
 10
11.3631252665
 20
8.6091144944
 30
0.0
 10
11.3625717005
 20
8.6101956456
 30
0.0
 10
11.3621076913
 20
8.6110953209
 30
0.0
 10
11.3617881918
 20
8.6117276135
 30
0.0
 10
11.3615973343
 20
8.6120849889
 30
0.0
 10
11.3614775339
 20
8.6123641046
 30
0.0
 10
11.3612685057
 20
8.6126008508
 30
0.0
 10
11.3610209252
 20
8.6129312913
 30
0.0
 10
11.3605731581
 20
8.6135026765
 30
0.0
 10
11.3599410723
 20
8.6143225409
 30
0.0
 10
11.3591793241
 20
8.6153048373
 30
0.0
 10
11.3581647935
 20
8.6166151042
 30
0.0
 10
11.3568962412
 20
8.618252753
 30
0.0
 10
11.3553741453
 20
8.6202180108
 30
0.0
 10
11.3538520047
 20
8.6221832474
 30
0.0
 10
11.3518224996
 20
8.6248035704
 30
0.0
 10
11.3492856124
 20
8.6280789711
 30
0.0
 10
11.3467487286
 20
8.6313543743
 30
0.0
 10
11.3447192181
 20
8.6339746932
 30
0.0
 10
11.3431970938
 20
8.635939942
 30
0.0
 10
11.3416749368
 20
8.6379051541
 30
0.0
 10
11.3404065743
 20
8.639542945
 30
0.0
 10
11.3393916568
 20
8.640852922
 30
0.0
 10
11.3386310902
 20
8.6418361036
 30
0.0
 10
11.3379953076
 20
8.6426531987
 30
0.0
 10
11.3375541398
 20
8.6432295276
 30
0.0
 10
11.3372959856
 20
8.643552047
 30
0.0
 10
11.3371194363
 20
8.6438131244
 30
0.0
 10
11.3368776508
 20
8.6440008562
 30
0.0
 10
11.3365780253
 20
8.6442767491
 30
0.0
 10
11.3360430787
 20
8.6447476416
 30
0.0
 10
11.3352844121
 20
8.6454265772
 30
0.0
 10
11.3343716397
 20
8.6462386323
 30
0.0
 10
11.3331554385
 20
8.6473223044
 30
0.0
 10
11.3316349026
 20
8.6486765746
 30
0.0
 10
11.3298103815
 20
8.6503018361
 30
0.0
 10
11.3279858278
 20
8.6519270608
 30
0.0
 10
11.3255531009
 20
8.65409404
 30
0.0
 10
11.322512188
 20
8.6568027591
 30
0.0
 10
11.3194712778
 20
8.6595114816
 30
0.0
 10
11.3170385467
 20
8.6616784554
 30
0.0
 10
11.3152140057
 20
8.6633036961
 30
0.0
 10
11.313389437
 20
8.6649288975
 30
0.0
 10
11.3118690492
 20
8.6662833546
 30
0.0
 10
11.3106525461
 20
8.6673666456
 30
0.0
 10
11.3097406956
 20
8.6681798644
 30
0.0
 10
11.3089791443
 20
8.6688551594
 30
0.0
 10
11.3084493474
 20
8.6693325509
 30
0.0
 10
11.3081414708
 20
8.6695980309
 30
0.0
 10
11.3079250301
 20
8.6698177477
 30
0.0
 10
11.3076532902
 20
8.6699586947
 30
0.0
 10
11.3073102594
 20
8.6701740998
 30
0.0
 10
11.3067009684
 20
8.6705382573
 30
0.0
 10
11.3058352511
 20
8.6710651751
 30
0.0
 10
11.3047943793
 20
8.6716946117
 30
0.0
 10
11.3034072527
 20
8.6725348612
 30
0.0
 10
11.3016731035
 20
8.6735848296
 30
0.0
 10
11.2995922277
 20
8.674844939
 30
0.0
 10
11.2975113242
 20
8.676105009
 30
0.0
 10
11.294736796
 20
8.6777851161
 30
0.0
 10
11.2912686321
 20
8.6798852447
 30
0.0
 10
11.2878004704
 20
8.6819853771
 30
0.0
 10
11.2850259388
 20
8.6836654783
 30
0.0
 10
11.2829450452
 20
8.6849255659
 30
0.0
 10
11.2808641325
 20
8.686185609
 30
0.0
 10
11.2791300981
 20
8.6872357837
 30
0.0
 10
11.2777427373
 20
8.6880756126
 30
0.0
 10
11.2767025807
 20
8.6887063335
 30
0.0
 10
11.2758346258
 20
8.6892292332
 30
0.0
 10
11.2752293294
 20
8.6896005636
 30
0.0
 10
11.2748798981
 20
8.6898044759
 30
0.0
 10
11.2746278184
 20
8.6899807254
 30
0.0
 10
11.2743375375
 20
8.6900678516
 30
0.0
 10
11.2739638212
 20
8.6902151072
 30
0.0
 10
11.2733036094
 20
8.6904583202
 30
0.0
 10
11.2723636955
 20
8.6908133398
 30
0.0
 10
11.2712344094
 20
8.6912361221
 30
0.0
 10
11.26972918
 20
8.6918009641
 30
0.0
 10
11.2678474767
 20
8.692506628
 30
0.0
 10
11.2655895042
 20
8.6933535913
 30
0.0
 10
11.2633315125
 20
8.6942005099
 30
0.0
 10
11.2603208637
 20
8.6953297505
 30
0.0
 10
11.2565575502
 20
8.6967412953
 30
0.0
 10
11.2527942381
 20
8.6981528442
 30
0.0
 10
11.2497835869
 20
8.6992820782
 30
0.0
 10
11.2475256023
 20
8.7001290164
 30
0.0
 10
11.2452676033
 20
8.7009759068
 30
0.0
 10
11.2433859823
 20
8.7016817974
 30
0.0
 10
11.2418805852
 20
8.702246177
 30
0.0
 10
11.2407518113
 20
8.7026703711
 30
0.0
 10
11.2398102949
 20
8.7030209738
 30
0.0
 10
11.2391529438
 20
8.7032720718
 30
0.0
 10
11.2387746439
 20
8.7034066936
 30
0.0
 10
11.2384984424
 20
8.7035326265
 30
0.0
 10
11.2381934826
 20
8.7035631248
 30
0.0
 10
11.2377969006
 20
8.7036370778
 30
0.0
 10
11.2370982085
 20
8.7037509858
 30
0.0
 10
11.2361025204
 20
8.7039218203
 30
0.0
 10
11.2349066487
 20
8.7041233509
 30
0.0
 10
11.2333125185
 20
8.7043932707
 30
0.0
 10
11.2313197304
 20
8.7047302544
 30
0.0
 10
11.2289284385
 20
8.7051348132
 30
0.0
 10
11.2265371321
 20
8.7055393244
 30
0.0
 10
11.2233487287
 20
8.7060786892
 30
0.0
 10
11.2193632226
 20
8.7067528895
 30
0.0
 10
11.2145806161
 20
8.7075619323
 30
0.0
 10
11.2082038072
 20
8.7086406552
 30
0.0
 10
11.2034212006
 20
8.7094496975
 30
0.0
 10
11.2002327961
 20
8.7099890591
 30
0.0
  0
SPLINE
  5
3BF
100
AcDbEntity
  8
0
100
AcDbSpline
 62
4
  6
CONTINUOUS
 70
0
 71
3
 72
359
 73
355
 74
0
 42
0.0000001
 43
0.0000001
 44
0.0000000001
 40
0.0
 40
0.0
 40
0.0
 40
0.0
 40
0.015625
 40
0.0234375
 40
0.03125
 40
0.0390625
 40
0.04296875
 40
0.046875
 40
0.05078125
 40
0.0546875
 40
0.056640625
 40
0.05859375
 40
0.0595703125
 40
0.060546875
 40
0.0615234375
 40
0.0620117188
 40
0.0625
 40
0.0629882812
 40
0.0634765625
 40
0.064453125
 40
0.0654296875
 40
0.06640625
 40
0.068359375
 40
0.0703125
 40
0.07421875
 40
0.078125
 40
0.08203125
 40
0.0859375
 40
0.09375
 40
0.1015625
 40
0.10546875
 40
0.109375
 40
0.11328125
 40
0.1171875
 40
0.119140625
 40
0.12109375
 40
0.1220703125
 40
0.123046875
 40
0.1240234375
 40
0.1245117188
 40
0.125
 40
0.1254882812
 40
0.1259765625
 40
0.126953125
 40
0.1279296875
 40
0.12890625
 40
0.130859375
 40
0.1328125
 40
0.13671875
 40
0.140625
 40
0.14453125
 40
0.1484375
 40
0.15625
 40
0.1640625
 40
0.16796875
 40
0.171875
 40
0.17578125
 40
0.1796875
 40
0.181640625
 40
0.18359375
 40
0.1845703125
 40
0.185546875
 40
0.1865234375
 40
0.1870117188
 40
0.1875
 40
0.1879882812
 40
0.1884765625
 40
0.189453125
 40
0.1904296875
 40
0.19140625
 40
0.193359375
 40
0.1953125
 40
0.19921875
 40
0.203125
 40
0.20703125
 40
0.2109375
 40
0.21875
 40
0.2265625
 40
0.23046875
 40
0.234375
 40
0.23828125
 40
0.2421875
 40
0.244140625
 40
0.24609375
 40
0.2470703125
 40
0.248046875
 40
0.2490234375
 40
0.2495117188
 40
0.25
 40
0.2504882812
 40
0.2509765625
 40
0.251953125
 40
0.2529296875
 40
0.25390625
 40
0.255859375
 40
0.2578125
 40
0.26171875
 40
0.265625
 40
0.26953125
 40
0.2734375
 40
0.28125
 40
0.2890625
 40
0.29296875
 40
0.296875
 40
0.30078125
 40
0.3046875
 40
0.306640625
 40
0.30859375
 40
0.3095703125
 40
0.310546875
 40
0.3115234375
 40
0.3120117188
 40
0.3125
 40
0.3129882812
 40
0.3134765625
 40
0.314453125
 40
0.3154296875
 40
0.31640625
 40
0.318359375
 40
0.3203125
 40
0.32421875
 40
0.328125
 40
0.33203125
 40
0.3359375
 40
0.34375
 40
0.3515625
 40
0.35546875
 40
0.359375
 40
0.36328125
 40
0.3671875
 40
0.369140625
 40
0.37109375
 40
0.3720703125
 40
0.373046875
 40
0.3740234375
 40
0.3745117188
 40
0.375
 40
0.3754882812
 40
0.3759765625
 40
0.376953125
 40
0.3779296875
 40
0.37890625
 40
0.380859375
 40
0.3828125
 40
0.38671875
 40
0.390625
 40
0.39453125
 40
0.3984375
 40
0.40625
 40
0.4140625
 40
0.41796875
 40
0.421875
 40
0.42578125
 40
0.4296875
 40
0.431640625
 40
0.43359375
 40
0.4345703125
 40
0.435546875
 40
0.4365234375
 40
0.4370117188
 40
0.4375
 40
0.4379882812
 40
0.4384765625
 40
0.439453125
 40
0.4404296875
 40
0.44140625
 40
0.443359375
 40
0.4453125
 40
0.44921875
 40
0.453125
 40
0.45703125
 40
0.4609375
 40
0.46875
 40
0.4765625
 40
0.48046875
 40
0.484375
 40
0.48828125
 40
0.4921875
 40
0.494140625
 40
0.49609375
 40
0.4970703125
 40
0.498046875
 40
0.4990234375
 40
0.4995117188
 40
0.5
 40
0.5004882812
 40
0.5009765625
 40
0.501953125
 40
0.5029296875
 40
0.50390625
 40
0.505859375
 40
0.5078125
 40
0.51171875
 40
0.515625
 40
0.51953125
 40
0.5234375
 40
0.53125
 40
0.5390625
 40
0.54296875
 40
0.546875
 40
0.55078125
 40
0.5546875
 40
0.556640625
 40
0.55859375
 40
0.560546875
 40
0.5615234375
 40
0.5620117188
 40
0.5625
 40
0.5629882812
 40
0.5634765625
 40
0.564453125
 40
0.56640625
 40
0.568359375
 40
0.5703125
 40
0.57421875
 40
0.578125
 40
0.58203125
 40
0.5859375
 40
0.59375
 40
0.6015625
 40
0.60546875
 40
0.609375
 40
0.61328125
 40
0.6171875
 40
0.619140625
 40
0.62109375
 40
0.623046875
 40
0.6240234375
 40
0.6245117188
 40
0.625
 40
0.6254882812
 40
0.6259765625
 40
0.626953125
 40
0.62890625
 40
0.630859375
 40
0.6328125
 40
0.63671875
 40
0.640625
 40
0.64453125
 40
0.6484375
 40
0.65625
 40
0.6640625
 40
0.66796875
 40
0.671875
 40
0.67578125
 40
0.6796875
 40
0.681640625
 40
0.68359375
 40
0.685546875
 40
0.6865234375
 40
0.6870117188
 40
0.6875
 40
0.6879882812
 40
0.6884765625
 40
0.689453125
 40
0.69140625
 40
0.693359375
 40
0.6953125
 40
0.69921875
 40
0.703125
 40
0.70703125
 40
0.7109375
 40
0.71875
 40
0.7265625
 40
0.73046875
 40
0.734375
 40
0.73828125
 40
0.7421875
 40
0.744140625
 40
0.74609375
 40
0.748046875
 40
0.7490234375
 40
0.7495117188
 40
0.75
 40
0.7504882812
 40
0.7509765625
 40
0.751953125
 40
0.75390625
 40
0.755859375
 40
0.7578125
 40
0.76171875
 40
0.765625
 40
0.76953125
 40
0.7734375
 40
0.78125
 40
0.7890625
 40
0.79296875
 40
0.796875
 40
0.80078125
 40
0.8046875
 40
0.806640625
 40
0.80859375
 40
0.810546875
 40
0.8115234375
 40
0.8120117188
 40
0.8125
 40
0.8129882812
 40
0.8134765625
 40
0.814453125
 40
0.81640625
 40
0.818359375
 40
0.8203125
 40
0.82421875
 40
0.828125
 40
0.83203125
 40
0.8359375
 40
0.84375
 40
0.8515625
 40
0.85546875
 40
0.859375
 40
0.86328125
 40
0.8671875
 40
0.869140625
 40
0.87109375
 40
0.873046875
 40
0.8740234375
 40
0.8745117188
 40
0.875
 40
0.8754882812
 40
0.8759765625
 40
0.876953125
 40
0.87890625
 40
0.880859375
 40
0.8828125
 40
0.88671875
 40
0.890625
 40
0.89453125
 40
0.8984375
 40
0.90625
 40
0.9140625
 40
0.91796875
 40
0.921875
 40
0.92578125
 40
0.9296875
 40
0.931640625
 40
0.93359375
 40
0.935546875
 40
0.9365234375
 40
0.9370117188
 40
0.9375
 40
0.9379882812
 40
0.9384765625
 40
0.939453125
 40
0.94140625
 40
0.943359375
 40
0.9453125
 40
0.94921875
 40
0.953125
 40
0.95703125
 40
0.9609375
 40
0.96875
 40
0.9765625
 40
0.984375
 40
1.0
 40
1.0
 40
1.0
 40
1.0
 10
11.2002328131
 20
8.7099890579
 30
0.0
 10
11.1970996261
 20
8.7098991335
 30
0.0
 10
11.1923998458
 20
8.7097642469
 30
0.0
 10
11.1861334719
 20
8.709584398
 30
0.0
 10
11.1814336915
 20
8.7094495115
 30
0.0
 10
11.177517208
 20
8.7093371056
 30
0.0
 10
11.1743840209
 20
8.7092471821
 30
0.0
 10
11.1720341312
 20
8.7091797359
 30
0.0
 10
11.169684239
 20
8.7091123032
 30
0.0
 10
11.1677260036
 20
8.7090560676
 30
0.0
 10
11.1661593971
 20
8.7090111723
 30
0.0
 10
11.1651803094
 20
8.7089829008
 30
0.0
 10
11.1643969444
 20
8.7089607689
 30
0.0
 10
11.1638096803
 20
8.7089428412
 30
0.0
 10
11.1633194679
 20
8.7089321283
 30
0.0
 10
11.1629291496
 20
8.7089140781
 30
0.0
 10
11.1626313513
 20
8.7089264438
 30
0.0
 10
11.1623528653
 20
8.7088399362
 30
0.0
 10
11.1619748047
 20
8.7087591305
 30
0.0
 10
11.1615045434
 20
8.7086462736
 30
0.0
 10
11.1609392391
 20
8.7085159174
 30
0.0
 10
11.1601858461
 20
8.7083403376
 30
0.0
 10
11.1592439864
 20
8.7081214694
 30
0.0
 10
11.157737077
 20
8.7077709413
 30
0.0
 10
11.1558534176
 20
8.7073328975
 30
0.0
 10
11.1535930361
 20
8.7068071951
 30
0.0
 10
11.1513326519
 20
8.706281506
 30
0.0
 10
11.1483188073
 20
8.7055805825
 30
0.0
 10
11.1445515012
 20
8.7047044299
 30
0.0
 10
11.1407841954
 20
8.7038282761
 30
0.0
 10
11.1377703502
 20
8.7031273545
 30
0.0
 10
11.1355099677
 20
8.7026016599
 30
0.0
 10
11.13324958
 20
8.702075978
 30
0.0
 10
11.1313659396
 20
8.7016378701
 30
0.0
 10
11.1298589916
 20
8.7012874728
 30
0.0
 10
11.1289172303
 20
8.7010682718
 30
0.0
 10
11.1281636353
 20
8.7008933751
 30
0.0
 10
11.1275989482
 20
8.7007609319
 30
0.0
 10
11.1271267559
 20
8.7006546047
 30
0.0
 10
11.1267526348
 20
8.7005604773
 30
0.0
 10
11.1264621176
 20
8.7005146532
 30
0.0
 10
11.1262094893
 20
8.7003742762
 30
0.0
 10
11.1258594166
 20
8.7002201354
 30
0.0
 10
11.1254263665
 20
8.7000161274
 30
0.0
 10
11.1249047628
 20
8.6997761683
 30
0.0
 10
11.12420997
 20
8.6994545287
 30
0.0
 10
11.1233412466
 20
8.6990530593
 30
0.0
 10
11.1219514191
 20
8.698410384
 30
0.0
 10
11.1202140901
 20
8.6976071511
 30
0.0
 10
11.1181293145
 20
8.696643224
 30
0.0
 10
11.1160445337
 20
8.6956793096
 30
0.0
 10
11.1132648278
 20
8.6943940859
 30
0.0
 10
11.1097901947
 20
8.692787558
 30
0.0
 10
11.1063155621
 20
8.691181029
 30
0.0
 10
11.1035358554
 20
8.6898958072
 30
0.0
 10
11.1014510771
 20
8.6889318875
 30
0.0
 10
11.0993662922
 20
8.6879679803
 30
0.0
 10
11.0976289919
 20
8.6871646853
 30
0.0
 10
11.0962391059
 20
8.6865221366
 30
0.0
 10
11.0953705312
 20
8.6861203451
 30
0.0
 10
11.0946754331
 20
8.6857993665
 30
0.0
 10
11.0941547622
 20
8.685557388
 30
0.0
 10
11.0937187936
 20
8.6853596984
 30
0.0
 10
11.0933746753
 20
8.6851926669
 30
0.0
 10
11.0931038625
 20
8.6850916572
 30
0.0
 10
11.0928816177
 20
8.6848980321
 30
0.0
 10
11.0925683259
 20
8.684672217
 30
0.0
 10
11.0921825319
 20
8.6843788485
 30
0.0
 10
11.0917170877
 20
8.6840315573
 30
0.0
 10
11.0910973656
 20
8.6835668429
 30
0.0
 10
11.090322415
 20
8.6829865182
 30
0.0
 10
11.0890826605
 20
8.6820576809
 30
0.0
 10
11.0875329103
 20
8.6808967434
 30
0.0
 10
11.0856732346
 20
8.6795035717
 30
0.0
 10
11.0838135523
 20
8.6781104124
 30
0.0
 10
11.0813339782
 20
8.6762528624
 30
0.0
 10
11.0782345097
 20
8.6739309264
 30
0.0
 10
11.0751350419
 20
8.6716089895
 30
0.0
 10
11.0726554667
 20
8.669751441
 30
0.0
 10
11.070795788
 20
8.6683582771
 30
0.0
 10
11.0689360987
 20
8.6669651228
 30
0.0
 10
11.0673863905
 20
8.6658041311
 30
0.0
 10
11.0661465505
 20
8.6648754043
 30
0.0
 10
11.0653718175
 20
8.6642947986
 30
0.0
 10
11.0647516488
 20
8.6638306608
 30
0.0
 10
11.0642875689
 20
8.6634816081
 30
0.0
 10
11.0638975061
 20
8.6631937511
 30
0.0
 10
11.0635929235
 20
8.6629566915
 30
0.0
 10
11.0633440815
 20
8.6627974065
 30
0.0
 10
11.0631731259
 20
8.6625674698
 30
0.0
 10
11.0629179785
 20
8.6622855671
 30
0.0
 10
11.0626083786
 20
8.6619247213
 30
0.0
 10
11.0622328633
 20
8.6614953307
 30
0.0
 10
11.0617335718
 20
8.6609215439
 30
0.0
 10
11.0611089796
 20
8.6602047439
 30
0.0
 10
11.0601098991
 20
8.6590576217
 30
0.0
 10
11.0588609569
 20
8.657623802
 30
0.0
 10
11.0573622655
 20
8.6559031828
 30
0.0
 10
11.0558635636
 20
8.6541825731
 30
0.0
 10
11.0538652981
 20
8.6518884235
 30
0.0
 10
11.0513674648
 20
8.6490207378
 30
0.0
 10
11.0488696324
 20
8.6461530512
 30
0.0
 10
11.0468713654
 20
8.6438589029
 30
0.0
 10
11.045372668
 20
8.6421382894
 30
0.0
 10
11.0438739595
 20
8.6404176843
 30
0.0
 10
11.0426250705
 20
8.6389838209
 30
0.0
 10
11.0416258815
 20
8.6378367877
 30
0.0
 10
11.0410015654
 20
8.6371197612
 30
0.0
 10
11.0405017071
 20
8.6365464395
 30
0.0
 10
11.0401279236
 20
8.636115628
 30
0.0
 10
11.0398129054
 20
8.6357592278
 30
0.0
 10
11.0395688125
 20
8.6354682552
 30
0.0
 10
11.0393640969
 20
8.6352660175
 30
0.0
 10
11.0392420041
 20
8.6350027389
 30
0.0
 10
11.0390503524
 20
8.6346730231
 30
0.0
 10
11.03882069
 20
8.6342535627
 30
0.0
 10
11.0385408567
 20
8.6337533416
 30
0.0
 10
11.038169226
 20
8.6330852864
 30
0.0
 10
11.0377041807
 20
8.6322505919
 30
0.0
 10
11.0369603915
 20
8.6309148713
 30
0.0
 10
11.0360305579
 20
8.6292452925
 30
0.0
 10
11.0349147991
 20
8.6272417671
 30
0.0
 10
11.0337990293
 20
8.62523825
 30
0.0
 10
11.03231134
 20
8.6225668909
 30
0.0
 10
11.030451727
 20
8.6192276931
 30
0.0
 10
11.028592115
 20
8.6158884946
 30
0.0
 10
11.0271044241
 20
8.6132171365
 30
0.0
 10
11.0259886592
 20
8.6112136164
 30
0.0
 10
11.0248728819
 20
8.6092101022
 30
0.0
 10
11.0239431061
 20
8.6075404884
 30
0.0
 10
11.023199199
 20
8.6062048393
 30
0.0
 10
11.0227344538
 20
8.605369963
 30
0.0
 10
11.0223622071
 20
8.6047022808
 30
0.0
 10
11.0220842556
 20
8.6042009202
 30
0.0
 10
11.0218487054
 20
8.6037850252
 30
0.0
 10
11.0216690661
 20
8.6034480354
 30
0.0
 10
11.0215102883
 20
8.6032069711
 30
0.0
 10
11.0214433031
 20
8.6029213314
 30
0.0
 10
11.0213219252
 20
8.6025560493
 30
0.0
 10
11.0211812038
 20
8.6020941044
 30
0.0
 10
11.0210076294
 20
8.6015420572
 30
0.0
 10
11.0207778416
 20
8.6008051955
 30
0.0
 10
11.0204900436
 20
8.5998843919
 30
0.0
 10
11.0200298816
 20
8.5984109534
 30
0.0
 10
11.0194545711
 20
8.5965692076
 30
0.0
 10
11.0187642447
 20
8.5943590902
 30
0.0
 10
11.018073906
 20
8.5921489788
 30
0.0
 10
11.0171534588
 20
8.5892021615
 30
0.0
 10
11.0160028981
 20
8.5855186406
 30
0.0
 10
11.0148523385
 20
8.5818351193
 30
0.0
 10
11.0139318894
 20
8.5788883027
 30
0.0
 10
11.0132415561
 20
8.5766781891
 30
0.0
 10
11.0125512096
 20
8.5744680802
 30
0.0
 10
11.0119759618
 20
8.5726263079
 30
0.0
 10
11.0115156719
 20
8.5711529234
 30
0.0
 10
11.0112281995
 20
8.570231982
 30
0.0
 10
11.0109977433
 20
8.5694954033
 30
0.0
 10
11.0108262107
 20
8.5689424918
 30
0.0
 10
11.010679101
 20
8.5684832508
 30
0.0
 10
11.0105707566
 20
8.5681124522
 30
0.0
 10
11.0104639678
 20
8.5678436596
 30
0.0
 10
11.0104546291
 20
8.5675393445
 30
0.0
 10
11.0104081369
 20
8.5671459994
 30
0.0
 10
11.0103617008
 20
8.5666500607
 30
0.0
 10
11.0103009785
 20
8.5660567566
 30
0.0
 10
11.0102217614
 20
8.565265048
 30
0.0
 10
11.0101221422
 20
8.5642756302
 30
0.0
 10
11.0099630856
 20
8.5626924398
 30
0.0
 10
11.0097641502
 20
8.5607134937
 30
0.0
 10
11.0095254769
 20
8.5583387404
 30
0.0
 10
11.0092867904
 20
8.5559639919
 30
0.0
 10
11.0089685464
 20
8.5527976589
 30
0.0
 10
11.0085707397
 20
8.5488397433
 30
0.0
 10
11.0081729341
 20
8.5448818274
 30
0.0
 10
11.0078546882
 20
8.5417154947
 30
0.0
 10
11.0076160074
 20
8.5393407453
 30
0.0
 10
11.0073773129
 20
8.5369659956
 30
0.0
 10
11.0071784434
 20
8.5349870383
 30
0.0
 10
11.0070192525
 20
8.5334038707
 30
0.0
 10
11.0069199751
 20
8.532414395
 30
0.0
 10
11.0068400564
 20
8.5316228051
 30
0.0
 10
11.0067814775
 20
8.5310291384
 30
0.0
 10
11.0067283351
 20
8.5305343342
 30
0.0
 10
11.0066955252
 20
8.5301386746
 30
0.0
 10
11.0066444015
 20
8.5298414279
 30
0.0
 10
11.0066944908
 20
8.5295460973
 30
0.0
 10
11.0067259215
 20
8.5291516538
 30
0.0
 10
11.0067773401
 20
8.5286588291
 30
0.0
 10
11.0068338502
 20
8.5280673411
 30
0.0
 10
11.0069110106
 20
8.5272787249
 30
0.0
 10
11.0070068401
 20
8.5262929428
 30
0.0
 10
11.0071605143
 20
8.524715698
 30
0.0
 10
11.0073524881
 20
8.5227441398
 30
0.0
 10
11.0075829076
 20
8.5203782709
 30
0.0
 10
11.0078133135
 20
8.5180124018
 30
0.0
 10
11.008120526
 20
8.5148579097
 30
0.0
 10
11.0085045406
 20
8.5109147946
 30
0.0
 10
11.0088885537
 20
8.5069716792
 30
0.0
 10
11.0091957687
 20
8.5038171875
 30
0.0
 10
11.0094261672
 20
8.5014513171
 30
0.0
 10
11.0096566144
 20
8.499085453
 30
0.0
 10
11.0098485019
 20
8.49711388
 30
0.0
 10
11.010002352
 20
8.4955366654
 30
0.0
 10
11.0101168105
 20
8.4943536348
 30
0.0
 10
11.0102151479
 20
8.4933681563
 30
0.0
 10
11.0102781843
 20
8.4926775752
 30
0.0
 10
11.0103232609
 20
8.4922841224
 30
0.0
 10
11.0103315582
 20
8.4919857509
 30
0.0
 10
11.0104373682
 20
8.4916999248
 30
0.0
 10
11.0105444348
 20
8.4913144474
 30
0.0
 10
11.0107476488
 20
8.4906419009
 30
0.0
 10
11.0110296693
 20
8.4896800541
 30
0.0
 10
11.0113716402
 20
8.4885262942
 30
0.0
 10
11.0118263627
 20
8.4869877883
 30
0.0
 10
11.0123951908
 20
8.4850647107
 30
0.0
 10
11.0130776023
 20
8.4827569941
 30
0.0
 10
11.0137600627
 20
8.4804492837
 30
0.0
 10
11.0146699926
 20
8.4773723344
 30
0.0
 10
11.0158074115
 20
8.4735261486
 30
0.0
 10
11.0169448262
 20
8.4696799619
 30
0.0
 10
11.0178547628
 20
8.4666030141
 30
0.0
 10
11.0185372032
 20
8.4642952991
 30
0.0
 10
11.0192196895
 20
8.4619875999
 30
0.0
 10
11.019788285
 20
8.4600644681
 30
0.0
 10
11.0202434819
 20
8.4585260726
 30
0.0
 10
11.0205840039
 20
8.4573719757
 30
0.0
 10
11.0208705576
 20
8.4564111832
 30
0.0
 10
11.021065679
 20
8.4557367546
 30
0.0
 10
11.021185712
 20
8.4553542927
 30
0.0
 10
11.0212516934
 20
8.4550592039
 30
0.0
 10
11.0214095803
 20
8.454795622
 30
0.0
 10
11.0215880386
 20
8.4544331895
 30
0.0
 10
11.0219152767
 20
8.4538040531
 30
0.0
 10
11.022374951
 20
8.4529026098
 30
0.0
 10
11.0229299025
 20
8.4518220237
 30
0.0
 10
11.0236686703
 20
8.450380842
 30
0.0
 10
11.0245925307
 20
8.4485795021
 30
0.0
 10
11.0257009915
 20
8.4464178355
 30
0.0
 10
11.0268094982
 20
8.4442561845
 30
0.0
 10
11.028287491
 20
8.4413739778
 30
0.0
 10
11.0301349881
 20
8.4377712215
 30
0.0
 10
11.0319824811
 20
8.4341684635
 30
0.0
 10
11.0334604803
 20
8.4312862594
 30
0.0
 10
11.034568968
 20
8.4291246007
 30
0.0
 10
11.0356775002
 20
8.4269629632
 30
0.0
 10
11.0366011382
 20
8.4251615326
 30
0.0
 10
11.0373403597
 20
8.4237205359
 30
0.0
 10
11.0378939256
 20
8.4226393847
 30
0.0
 10
11.0383579349
 20
8.4217397094
 30
0.0
 10
11.0386774344
 20
8.4211074168
 30
0.0
 10
11.0388682919
 20
8.4207500414
 30
0.0
 10
11.0389880922
 20
8.4204709257
 30
0.0
 10
11.0391971204
 20
8.4202341795
 30
0.0
 10
11.0394447009
 20
8.419903739
 30
0.0
 10
11.039892468
 20
8.4193323538
 30
0.0
 10
11.0405245539
 20
8.4185124894
 30
0.0
 10
11.041286302
 20
8.4175301929
 30
0.0
 10
11.0423008326
 20
8.4162199261
 30
0.0
 10
11.0435693849
 20
8.4145822773
 30
0.0
 10
11.0450914808
 20
8.4126170195
 30
0.0
 10
11.0466136214
 20
8.4106517829
 30
0.0
 10
11.0486431266
 20
8.4080314599
 30
0.0
 10
11.0511800137
 20
8.4047560592
 30
0.0
 10
11.0537168975
 20
8.401480656
 30
0.0
 10
11.055746408
 20
8.3988603371
 30
0.0
 10
11.0572685324
 20
8.3968950883
 30
0.0
 10
11.0587906893
 20
8.3949298762
 30
0.0
 10
11.0600590518
 20
8.3932920852
 30
0.0
 10
11.0610739694
 20
8.3919821083
 30
0.0
 10
11.0618345359
 20
8.3909989267
 30
0.0
 10
11.0624703185
 20
8.3901818316
 30
0.0
 10
11.0629114864
 20
8.3896055027
 30
0.0
 10
11.0631696405
 20
8.3892829833
 30
0.0
 10
11.0633461899
 20
8.3890219059
 30
0.0
 10
11.0635879753
 20
8.3888341741
 30
0.0
 10
11.0638876008
 20
8.3885582812
 30
0.0
 10
11.0644225474
 20
8.3880873887
 30
0.0
 10
11.065181214
 20
8.3874084531
 30
0.0
 10
11.0660939865
 20
8.386596398
 30
0.0
 10
11.0673101876
 20
8.3855127259
 30
0.0
 10
11.0688307235
 20
8.3841584557
 30
0.0
 10
11.0706552446
 20
8.3825331942
 30
0.0
 10
11.0724797984
 20
8.3809079695
 30
0.0
 10
11.0749125252
 20
8.3787409903
 30
0.0
 10
11.0779534381
 20
8.3760322712
 30
0.0
 10
11.0809943483
 20
8.3733235487
 30
0.0
 10
11.0834270794
 20
8.3711565749
 30
0.0
 10
11.0852516204
 20
8.3695313341
 30
0.0
 10
11.0870761892
 20
8.3679061328
 30
0.0
 10
11.088596577
 20
8.3665516757
 30
0.0
 10
11.0898130801
 20
8.3654683847
 30
0.0
 10
11.0907249305
 20
8.3646551659
 30
0.0
 10
11.0914864818
 20
8.3639798709
 30
0.0
 10
11.0920162787
 20
8.3635024794
 30
0.0
 10
11.0923241553
 20
8.3632369994
 30
0.0
 10
11.092540596
 20
8.3630172826
 30
0.0
 10
11.0928123359
 20
8.3628763356
 30
0.0
 10
11.0931553667
 20
8.3626609304
 30
0.0
 10
11.0937646578
 20
8.3622967729
 30
0.0
 10
11.094630375
 20
8.3617698552
 30
0.0
 10
11.0956712468
 20
8.3611404186
 30
0.0
 10
11.0970583734
 20
8.3603001691
 30
0.0
 10
11.0987925227
 20
8.3592502007
 30
0.0
 10
11.1008733985
 20
8.3579900913
 30
0.0
 10
11.1029543019
 20
8.3567300213
 30
0.0
 10
11.1057288301
 20
8.3550499142
 30
0.0
 10
11.109196994
 20
8.3529497856
 30
0.0
 10
11.1126651558
 20
8.3508496532
 30
0.0
 10
11.1154396873
 20
8.349169552
 30
0.0
 10
11.1175205809
 20
8.3479094644
 30
0.0
 10
11.1196014936
 20
8.3466494213
 30
0.0
 10
11.121335528
 20
8.3455992466
 30
0.0
 10
11.1227228888
 20
8.3447594177
 30
0.0
 10
11.1237630454
 20
8.3441286968
 30
0.0
 10
11.1246310003
 20
8.3436057971
 30
0.0
 10
11.1252362967
 20
8.3432344667
 30
0.0
 10
11.125585728
 20
8.3430305544
 30
0.0
 10
11.1258378077
 20
8.3428543049
 30
0.0
 10
11.1261280887
 20
8.3427671786
 30
0.0
 10
11.1265018049
 20
8.3426199231
 30
0.0
 10
11.1271620167
 20
8.3423767101
 30
0.0
 10
11.1281019307
 20
8.3420216905
 30
0.0
 10
11.1292312167
 20
8.3415989082
 30
0.0
 10
11.1307364461
 20
8.3410340662
 30
0.0
 10
11.1326181494
 20
8.3403284023
 30
0.0
 10
11.134876122
 20
8.339481439
 30
0.0
 10
11.1371341136
 20
8.3386345203
 30
0.0
 10
11.1401447625
 20
8.3375052798
 30
0.0
 10
11.143908076
 20
8.336093735
 30
0.0
 10
11.147671388
 20
8.3346821861
 30
0.0
 10
11.1506820392
 20
8.333552952
 30
0.0
 10
11.1529400238
 20
8.3327060139
 30
0.0
 10
11.1551980228
 20
8.3318591235
 30
0.0
 10
11.1570796438
 20
8.3311532329
 30
0.0
 10
11.158585041
 20
8.3305888533
 30
0.0
 10
11.1597138148
 20
8.3301646592
 30
0.0
 10
11.1606553312
 20
8.3298140565
 30
0.0
 10
11.1613126823
 20
8.3295629585
 30
0.0
 10
11.1616909822
 20
8.3294283367
 30
0.0
 10
11.1619671837
 20
8.3293024038
 30
0.0
 10
11.1622721436
 20
8.3292719055
 30
0.0
 10
11.1626687255
 20
8.3291979525
 30
0.0
 10
11.1633674176
 20
8.3290840444
 30
0.0
 10
11.1643631058
 20
8.32891321
 30
0.0
 10
11.1655589774
 20
8.3287116794
 30
0.0
 10
11.1671531076
 20
8.3284417596
 30
0.0
 10
11.1691458957
 20
8.3281047759
 30
0.0
 10
11.1715371877
 20
8.3277002171
 30
0.0
 10
11.173928494
 20
8.3272957059
 30
0.0
 10
11.1771168975
 20
8.3267563411
 30
0.0
 10
11.1811024035
 20
8.3260821408
 30
0.0
 10
11.18588501
 20
8.325273098
 30
0.0
 10
11.1922618189
 20
8.3241943751
 30
0.0
 10
11.1970444256
 20
8.3233853328
 30
0.0
 10
11.20023283
 20
8.3228459712
 30
0.0
  0
ENDSEC
  0
SECTION
  2
OBJECTS
  0
DICTIONARY
  5
C
100
AcDbDictionary
280
0
281
1
  3
ACAD_GROUP
350
D
  3
ACAD_MLINESTYLE
350
17
  3
ACAD_LAYOUT
350
1A
  3
ACAD_PLOTSETTINGS
350
19
  3
ACAD_PLOTSTYLENAME
350
E
  3
ACAD_IMAGE_DICT
350
       3C1
  3
ACAD_IMAGE_VARS
350
       3C2
  3
ACAD_TABLESTYLE
350
       3C3
  0
IMAGEDEF_REACTOR
  5
3C0
100
AcDbRasterImageDefReactor
 90
2
330
28F
  0
DICTIONARY
  5
D
102
{ACAD_REACTORS
330
C
102
}
100
AcDbDictionary
280
0
281
1
  0
ACDBDICTIONARYWDFLT
  5
E
102
{ACAD_REACTORS
330
C
102
}
100
AcDbDictionary
281
1
  3
Normal
350
F
100
AcDbDictionaryWithDefault
340
F
  0
DICTIONARY
  5
3C1
330
C
100
AcDbDictionary
281
1
  3
B3J_assy_2_img_1
350
       3C6
  0
RASTERVARIABLES
  5
3C2
330
C
100
AcDbRasterVariables
 90
0
 70
0
 71
1
 72
5
  0
DICTIONARY
  5
17
102
{ACAD_REACTORS
330
C
102
}
100
AcDbDictionary
280
0
281
1
  3
Standard
350
18
  0
DICTIONARY
  5
3C3
330
C
100
AcDbDictionary
281
1
  3
Standard
350
       3C7
  3
Standard1
350
       3C8
  0
DICTIONARY
  5
19
102
{ACAD_REACTORS
330
C
102
}
100
AcDbDictionary
281
1
  0
DICTIONARY
  5
1A
102
{ACAD_REACTORS
330
C
102
}
100
AcDbDictionary
281
1
  3
Model
350
3C4
  3
Layout1
350
3C5
  0
ACDBPLACEHOLDER
  5
F
102
{ACAD_REACTORS
330
E
102
}
  0
MLINESTYLE
  5
18
102
{ACAD_REACTORS
330
17
102
}
100
AcDbMlineStyle
  2
STANDARD
 70
0
  3

 62
256
 51
90.0
 52
90.0
 71
2
 49
0.5
 62
256
  6
BYLAYER
 49
-0.5
 62
256
  6
BYLAYER
  0
LAYOUT
  5
3C4
102
{ACAD_REACTORS
330
1A
102
}
100
AcDbPlotSettings
  1

  2
none_device
  4
ANSI_C_(22.00_x_17.00_Inches)
  6

 40
0.0
 41
0.0
 42
0.0
 43
0.0
 44
558.8
 45
431.8
 46
0.0
 47
0.0
 48
0.0
 49
0.0
140
0.0
141
0.0
142
1.0
143
1.0
 70
1024
 72
0
 73
0
 74
0
  7

 75
0
147
1.0
148
0.0
149
0.0
100
AcDbLayout
  1
Model
 70
0
 71
0
 10
0.0
 20
0.0
 11
22.0
 21
17.0
 12
0.0
 22
0.0
 32
0.0
 14
0.0
 24
0.0
 34
0.0
 15
0.0
 25
0.0
 35
0.0
146
0.0
 13
0.0
 23
0.0
 33
0.0
 16
1.0
 26
0.0
 36
0.0
 17
0.0
 27
1.0
 37
0.0
 76
0
330
20C
345
0
346
0
  0
LAYOUT
  5
3C5
102
{ACAD_REACTORS
330
1A
102
}
100
AcDbPlotSettings
  1

  2
none_device
  4
ANSI_C_(22.00_x_17.00_Inches)
  6

 40
0.0
 41
0.0
 42
0.0
 43
0.0
 44
558.8
 45
431.8
 46
0.0
 47
0.0
 48
0.0
 49
0.0
140
0.0
141
0.0
142
1.0
143
1.0
 70
0
 72
0
 73
0
 74
0
  7

 75
0
147
1.0
148
0.0
149
0.0
100
AcDbLayout
  1
Layout1
 70
0
 71
1
 10
0.0
 20
0.0
 11
22.0
 21
17.0
 12
0.0
 22
0.0
 32
0.0
 14
0.0
 24
0.0
 34
0.0
 15
0.0
 25
0.0
 35
0.0
146
0.0
 13
0.0
 23
0.0
 33
0.0
 16
1.0
 26
0.0
 36
0.0
 17
0.0
 27
1.0
 37
0.0
 76
0
330
20D
345
0
346
0
  0
IMAGEDEF
  5
3C6
102
{ACAD_REACTORS
330
3C1
330
3C0
102
}
100
AcDbRasterImageDef
 90
0
  1
B3J_assy_2_img_1.png
 10
369.0
 20
92.0
 11
0.0066666667
 21
0.0066666667
280
1
281
0
  0
TABLESTYLE
  5
3C7
102
{ACAD_REACTORS
330
3C3
330
292
330
293
102
}
330
3C3
100
AcDbTableStyle
  3
Standard
 70
0
 71
0
 40
0.06
 41
0.06
280
1
281
1
  7
Standard
140
0.18
170
1
 62
0
 63
7
283
0
  7
Standard
140
0.18
170
1
 62
0
 63
7
283
0
  7
Standard
140
0.18
170
1
 62
0
 63
7
283
0
  0
TABLESTYLE
  5
3C8
102
{ACAD_REACTORS
330
3C3
330
291
102
}
330
3C3
100
AcDbTableStyle
  3
Standard1
 70
1
 71
0
 40
0.06
 41
0.06
280
1
281
1
  7
Standard
140
0.18
170
1
 62
0
 63
7
283
0
  7
Standard
140
0.18
170
1
 62
0
 63
7
283
0
  7
Standard
140
0.18
170
1
 62
0
 63
7
283
0
  0
ENDSEC
  0
EOF
