999
DXF file: B3C_assy_2.dxf
999
Pro/ENGINEER 2014200 by Parametric Technology Corporation
  0
SECTION
  2
HEADER
  9
$ACADVER
  1
AC1021
  9
$DWGCODEPAGE
  3
ANSI_1252
  9
$EXTMAX
 10
22.0
 20
17.0
 30
0.0
  9
$EXTMIN
 10
0.0
 20
0.0
 30
0.0
  9
$LIMMIN
 10
0.0
 20
0.0
  9
$LIMMAX
 10
22.0
 20
17.0
  9
$VIEWCTR
 10
11.0
 20
8.5
  9
$VIEWSIZE
 40
17.0
  9
$CLAYER
  8
0
  9
$LTSCALE
 40
1.21
  9
$CELTYPE
  6
BYLAYER
  9
$DIMSCALE
 40
1.0
  9
$DIMASZ
 40
0.1875
  9
$DIMEXO
 40
0.0625
  9
$DIMDLI
 40
0.836
  9
$DIMEXE
 40
0.125
  9
$DIMCEN
 40
0.198
  9
$DIMLFAC
 40
1.0
  9
$DIMBLK
  1
_FILLED
  9
$DIMTXT
 40
0.1
  9
$DIMTOL
 70
0
  9
$DIMLIM
 70
0
  9
$DIMTFAC
 40
1.0
  9
$DIMGAP
 40
0.09
  9
$DIMDSEP
 70
46
  9
$AUNITS
 70
0
  9
$PDMODE
 70
3
  9
$PDSIZE
 40
0.3125
  9
$HANDSEED
  5
3A8
  9
$TILEMODE
 70
1
  9
$MEASUREMENT
 70
0
  9
$INSUNITS
 70
1
  0
ENDSEC
  0
SECTION
  2
CLASSES
  0
CLASS
  1
ACDBDICTIONARYWDFLT
  2
AcDbDictionaryWithDefault
  3
AutoCAD 2000
 90
0
 91
1
280
0
281
0
  0
CLASS
  1
ACDBPLACEHOLDER
  2
AcDbPlaceHolder
  3
AutoCAD 2000
 90
0
 91
1
280
0
281
0
  0
CLASS
  1
LAYOUT
  2
AcDbLayout
  3
AutoCAD 2000
 90
0
 91
0
280
0
281
0
  0
CLASS
  1
RASTERVARIABLES
  2
AcDbRasterVariables
  3
ISM
 90
0
 91
1
280
0
281
0
  0
CLASS
  1
IMAGEDEF
  2
AcDbRasterImageDef
  3
ISM
 90
0
 91
1
280
0
281
0
  0
CLASS
  1
IMAGEDEF_REACTOR
  2
AcDbRasterImageDefReactor
  3
ISM
 90
0
 91
1
280
0
281
0
  0
CLASS
  1
IMAGE
  2
AcDbRasterImage
  3
ISM
 90
127
 91
1
280
0
281
1
  0
CLASS
  1
TABLESTYLE
  2
AcDbTableStyle
  3
ObjectDBX Classes
 90
2047
 91
1
280
0
281
0
  0
CLASS
  1
ACAD_TABLE
  2
AcDbTable
  3
ObjectDBX Classes
 90
1025
 91
3
280
0
281
1
  0
ENDSEC
  0
SECTION
  2
TABLES
  0
TABLE
  2
VPORT
  5
8
100
AcDbSymbolTable
 70
2
  0
VPORT
  5
1F4
100
AcDbSymbolTableRecord
100
AcDbViewportTableRecord
  2
*ACTIVE
 70
0
 10
0.0
 20
0.0
 11
1.0
 21
1.0
 12
11.0
 22
8.5
 13
0.0
 23
0.0
 14
1.0
 24
1.0
 15
0.0
 25
0.0
 16
0.0
 26
0.0
 36
1.0
 17
0.0
 27
0.0
 37
0.0
 40
17.0
 41
1.2941176471
 42
50.0
 43
0.0
 44
0.0
 50
0.0
 51
0.0
 71
0
 72
100
 73
1
 74
1
 75
0
 76
0
 77
0
 78
0
  0
ENDTAB
  0
TABLE
  2
LTYPE
  5
5
100
AcDbSymbolTable
 70
6
  0
LTYPE
  5
14
100
AcDbSymbolTableRecord
100
AcDbLinetypeTableRecord
  2
BYBLOCK
 70
0
  3

 72
65
 73
0
 40
0.0
  0
LTYPE
  5
15
100
AcDbSymbolTableRecord
100
AcDbLinetypeTableRecord
  2
BYLAYER
 70
0
  3

 72
65
 73
0
 40
0.0
  0
LTYPE
  5
16
100
AcDbSymbolTableRecord
100
AcDbLinetypeTableRecord
  2
CONTINUOUS
 70
64
  3
Solid line
 72
65
 73
0
 40
0.0
  0
LTYPE
  5
1F5
100
AcDbSymbolTableRecord
100
AcDbLinetypeTableRecord
  2
CENTER
 70
64
  3
____ _ ____ _ ____ _ ____ _ ____ _ ____ _ ____
 72
65
 73
4
 40
0.6
 49
0.375
 74
0
 49
-0.075
 74
0
 49
0.075
 74
0
 49
-0.075
 74
0
  0
LTYPE
  5
1F6
100
AcDbSymbolTableRecord
100
AcDbLinetypeTableRecord
  2
HIDDEN
 70
64
  3
- - - - - - - - - - - - - - - - - - - -
 72
65
 73
2
 40
0.2
 49
0.1
 74
0
 49
-0.1
 74
0
  0
LTYPE
  5
1F7
100
AcDbSymbolTableRecord
100
AcDbLinetypeTableRecord
  2
PHANTOM
 70
64
  3
_____ _ _ _____ _ _ _____ _ _ _____
 72
65
 73
6
 40
0.8
 49
0.45
 74
0
 49
-0.05
 74
0
 49
0.1
 74
0
 49
-0.05
 74
0
 49
0.1
 74
0
 49
-0.05
 74
0
  0
LTYPE
  5
1F8
100
AcDbSymbolTableRecord
100
AcDbLinetypeTableRecord
  2
DOT
 70
64
  3
. . . . . . . . . . . . . . . . . . . .
 72
65
 73
2
 40
0.2
 49
0.1
 74
0
 49
-0.1
 74
0
  0
LTYPE
  5
1F9
100
AcDbSymbolTableRecord
100
AcDbLinetypeTableRecord
  2
DASHED
 70
64
  3
- - - - - - - - - - - - - - - - - - - -
 72
65
 73
2
 40
0.2
 49
0.1
 74
0
 49
-0.1
 74
0
  0
ENDTAB
  0
TABLE
  2
LAYER
  5
2
100
AcDbSymbolTable
 70
36
  0
LAYER
  5
10
100
AcDbSymbolTableRecord
100
AcDbLayerTableRecord
  2
0
 70
0
 62
7
  6
CONTINUOUS
370
-3
390
F
  0
LAYER
  5
1FA
100
AcDbSymbolTableRecord
100
AcDbLayerTableRecord
  2
DEFAULT_1
 70
0
 62
7
  6
CENTER
370
-3
390
F
  0
LAYER
  5
1FB
100
AcDbSymbolTableRecord
100
AcDbLayerTableRecord
  2
DEFAULT_2
 70
0
 62
8
  6
HIDDEN
370
-3
390
F
  0
LAYER
  5
1FC
100
AcDbSymbolTableRecord
100
AcDbLayerTableRecord
  2
DEFAULT_3
 70
0
 62
7
  6
PHANTOM
370
-3
390
F
  0
LAYER
  5
1FD
100
AcDbSymbolTableRecord
100
AcDbLayerTableRecord
  2
01___PRT_ALL_DTM_PLN
 70
0
 62
7
  6
CONTINUOUS
370
-3
390
F
  0
LAYER
  5
1FE
100
AcDbSymbolTableRecord
100
AcDbLayerTableRecord
  2
01___PRT_DEF_DTM_PLN
 70
0
 62
7
  6
CONTINUOUS
370
-3
390
F
  0
LAYER
  5
1FF
100
AcDbSymbolTableRecord
100
AcDbLayerTableRecord
  2
02___PRT_ALL_AXES
 70
0
 62
7
  6
CONTINUOUS
370
-3
390
F
  0
LAYER
  5
200
100
AcDbSymbolTableRecord
100
AcDbLayerTableRecord
  2
03___PRT_ALL_CURVES
 70
0
 62
7
  6
CONTINUOUS
370
-3
390
F
  0
LAYER
  5
201
100
AcDbSymbolTableRecord
100
AcDbLayerTableRecord
  2
04___PRT_ALL_DTM_PNT
 70
0
 62
7
  6
CONTINUOUS
370
-3
390
F
  0
LAYER
  5
202
100
AcDbSymbolTableRecord
100
AcDbLayerTableRecord
  2
05___PRT_ALL_DTM_CSYS
 70
0
 62
7
  6
CONTINUOUS
370
-3
390
F
  0
LAYER
  5
203
100
AcDbSymbolTableRecord
100
AcDbLayerTableRecord
  2
05___PRT_DEF_DTM_CSYS
 70
0
 62
7
  6
CONTINUOUS
370
-3
390
F
  0
LAYER
  5
204
100
AcDbSymbolTableRecord
100
AcDbLayerTableRecord
  2
06___PRT_ALL_SURFS
 70
0
 62
7
  6
CONTINUOUS
370
-3
390
F
  0
LAYER
  5
205
100
AcDbSymbolTableRecord
100
AcDbLayerTableRecord
  2
DATUM_PLANES
 70
0
 62
7
  6
CONTINUOUS
370
-3
390
F
  0
LAYER
  5
206
100
AcDbSymbolTableRecord
100
AcDbLayerTableRecord
  2
PORT_AREAS
 70
0
 62
7
  6
CONTINUOUS
370
-3
390
F
  0
LAYER
  5
207
100
AcDbSymbolTableRecord
100
AcDbLayerTableRecord
  2
SUNNBOMCOSMETIC
 70
0
 62
7
  6
CONTINUOUS
370
-3
390
F
  0
LAYER
  5
208
100
AcDbSymbolTableRecord
100
AcDbLayerTableRecord
  2
SUNNBOMSTAMPING
 70
0
 62
7
  6
CONTINUOUS
370
-3
390
F
  0
LAYER
  5
209
100
AcDbSymbolTableRecord
100
AcDbLayerTableRecord
  2
THREADS
 70
0
 62
7
  6
CONTINUOUS
370
-3
390
F
  0
ENDTAB
  0
TABLE
  2
STYLE
  5
3
100
AcDbSymbolTable
 70
1
  0
STYLE
  5
11
100
AcDbSymbolTableRecord
100
AcDbTextStyleTableRecord
  2
STANDARD
 70
0
 40
0.0
 41
0.8
 50
0.0
 71
0
 42
0.2
  3
txt
  4

  0
STYLE
  5
20A
100
AcDbSymbolTableRecord
100
AcDbTextStyleTableRecord
  2
TEXTSTYLE_1
 70
0
 40
0.0
 41
0.8
 50
0.0
 71
0
 42
0.2
  3
gdt
  4

  0
ENDTAB
  0
TABLE
  2
VIEW
  5
6
100
AcDbSymbolTable
 70
0
  0
ENDTAB
  0
TABLE
  2
UCS
  5
7
100
AcDbSymbolTable
 70
0
  0
ENDTAB
  0
TABLE
  2
APPID
  5
9
100
AcDbSymbolTable
 70
1
  0
APPID
  5
20B
100
AcDbSymbolTableRecord
100
AcDbRegAppTableRecord
  2
ACAD
 70
0
  0
ENDTAB
  0
TABLE
  2
BLOCK_RECORD
  5
1
100
AcDbSymbolTable
 70
0
  0
BLOCK_RECORD
  5
20C
100
AcDbSymbolTableRecord
100
AcDbBlockTableRecord
  2
*Model_Space
  0
BLOCK_RECORD
  5
20D
100
AcDbSymbolTableRecord
100
AcDbBlockTableRecord
  2
*Paper_Space
  0
BLOCK_RECORD
  5
20E
100
AcDbSymbolTableRecord
100
AcDbBlockTableRecord
  2
SUN_FIRST_THIRD_ANGLE_BL0
  0
BLOCK_RECORD
  5
20F
100
AcDbSymbolTableRecord
100
AcDbBlockTableRecord
  2
*T1
  0
BLOCK_RECORD
  5
210
100
AcDbSymbolTableRecord
100
AcDbBlockTableRecord
  2
*T2
  0
BLOCK_RECORD
  5
211
100
AcDbSymbolTableRecord
100
AcDbBlockTableRecord
  2
*T3
  0
ENDTAB
  0
TABLE
  2
DIMSTYLE
  5
A
100
AcDbSymbolTable
 70
1
100
AcDbDimStyleTable
 71
0
  0
DIMSTYLE
105
212
100
AcDbSymbolTableRecord
100
AcDbDimStyleTableRecord
  2
STANDARD
 70
0
  3

  4

 40
1.0
 41
0.1875
 42
0.0625
 43
0.38
 44
0.125
 45
0.0
 46
0.0
 47
0.001
 48
0.001
140
0.1
141
0.09
142
0.0
143
25.4
144
1.0
145
0.0
146
1.0
147
0.09
 71
0.0
 72
0.0
 73
1
 74
1
 75
0
 76
0
 77
0
 78
4
170
0
171
2
172
0
173
0
174
0
175
0
176
0
177
0
178
0
270
2
271
3
272
3
273
2
274
2
275
0
280
0
281
0
282
0
283
1
284
4
285
0
286
0
287
3
288
0
340
11
278
46
  0
ENDTAB
  0
ENDSEC
  0
SECTION
  2
BLOCKS
  0
BLOCK
  5
20
100
AcDbEntity
  8
0
100
AcDbBlockBegin
  2
*Model_Space
 70
0
 10
0.0
 20
0.0
 30
0.0
  3
*Model_Space
  1

  0
ENDBLK
  5
21
100
AcDbEntity
  8
0
100
AcDbBlockEnd
  0
BLOCK
  5
1C
100
AcDbEntity
  8
0
100
AcDbBlockBegin
  2
*Paper_Space
 70
0
 10
0.0
 20
0.0
 30
0.0
  3
*Paper_Space
  1

  0
ENDBLK
  5
1D
100
AcDbEntity
  8
0
100
AcDbBlockEnd
  0
BLOCK
  5
213
100
AcDbEntity
  8
0
100
AcDbBlockBegin
 62
2
  6
CONTINUOUS
  2
SUN_FIRST_THIRD_ANGLE_BL0
 70
64
 10
20.4816717061
 20
1.2289683772
  3
SUN_FIRST_THIRD_ANGLE_BL0
  1

  0
TEXT
  5
214
100
AcDbEntity
  8
0
100
AcDbText
 62
2
  6
CONTINUOUS
 10
19.4750896608
 20
1.4136269581
  7
STANDARD
 40
0.08
  1
FIRST ANGLE
 41
0.8
 72
0
100
AcDbText
  0
TEXT
  5
215
100
AcDbEntity
  8
0
100
AcDbText
 62
2
  6
CONTINUOUS
 10
20.7842537513
 20
1.4047600029
  7
STANDARD
 40
0.08
  1
THIRD ANGLE
 41
0.8
 72
0
100
AcDbText
  0
LINE
  5
216
100
AcDbEntity
  8
0
100
AcDbLine
 62
7
  6
CONTINUOUS
 10
19.4767170086
 20
1.1727031207
 11
19.6334271527
 21
1.1717972817
  0
LINE
  5
217
100
AcDbEntity
  8
0
100
AcDbLine
 62
7
  6
CONTINUOUS
 10
19.6596964832
 20
1.1717972817
 11
19.6950230232
 21
1.171593082
  0
LINE
  5
218
100
AcDbEntity
  8
0
100
AcDbLine
 62
7
  6
CONTINUOUS
 10
19.7194818561
 20
1.1708914427
 11
19.8852396156
 21
1.1699333054
  0
LINE
  5
219
100
AcDbEntity
  8
0
100
AcDbLine
 62
7
  6
CONTINUOUS
 10
19.4758111696
 20
1.2723454088
 11
19.88525039
 21
1.3511534004
  0
LINE
  5
21A
100
AcDbEntity
  8
0
100
AcDbLine
 62
7
  6
CONTINUOUS
 10
19.88525039
 20
1.3511534004
 11
19.8831348489
 21
0.9851647912
  0
LINE
  5
21B
100
AcDbEntity
  8
0
100
AcDbLine
 62
7
  6
CONTINUOUS
 10
19.8831348489
 20
0.9851647912
 11
19.4767170086
 21
1.0658141206
  0
LINE
  5
21C
100
AcDbEntity
  8
0
100
AcDbLine
 62
7
  6
CONTINUOUS
 10
19.4767170086
 20
1.0658141206
 11
19.4779056764
 21
1.2714536432
  0
CIRCLE
  5
21D
100
AcDbEntity
  8
0
100
AcDbCircle
 62
7
  6
CONTINUOUS
 10
20.2068232291
 20
1.1717972817
 40
0.175742101
  0
CIRCLE
  5
21E
100
AcDbEntity
  8
0
100
AcDbCircle
 62
7
  6
CONTINUOUS
 10
20.2068232291
 20
1.1717972817
 40
0.1005522074
  0
LINE
  5
21F
100
AcDbEntity
  8
0
100
AcDbLine
 62
7
  6
CONTINUOUS
 10
20.2077290681
 20
1.3756110529
 11
20.2071171714
 21
1.2379342989
  0
LINE
  5
220
100
AcDbEntity
  8
0
100
AcDbLine
 62
7
  6
CONTINUOUS
 10
20.2077290681
 20
1.2016899681
 11
20.2074674401
 21
1.1428236749
  0
LINE
  5
221
100
AcDbEntity
  8
0
100
AcDbLine
 62
7
  6
CONTINUOUS
 10
20.208634907
 20
1.101141841
 11
20.2080230104
 21
0.963465087
  0
LINE
  5
222
100
AcDbEntity
  8
0
100
AcDbLine
 62
7
  6
CONTINUOUS
 10
20.0066328138
 20
1.1745147986
 11
20.1443095678
 21
1.1739029019
  0
LINE
  5
223
100
AcDbEntity
  8
0
100
AcDbLine
 62
7
  6
CONTINUOUS
 10
20.1832714155
 20
1.1727031207
 11
20.238153505
 21
1.172335442
  0
LINE
  5
224
100
AcDbEntity
  8
0
100
AcDbLine
 62
7
  6
CONTINUOUS
 10
20.2756669918
 20
1.1717972817
 11
20.407916871
 21
1.1712095044
  0
CIRCLE
  5
225
100
AcDbEntity
  8
0
100
AcDbCircle
 62
7
  6
CONTINUOUS
 10
20.7509457401
 20
1.1693297793
 40
0.1722024983
  0
CIRCLE
  5
226
100
AcDbEntity
  8
0
100
AcDbCircle
 62
7
  6
CONTINUOUS
 10
20.7509457401
 20
1.1693297793
 40
0.0985164967
  0
LINE
  5
227
100
AcDbEntity
  8
0
100
AcDbLine
 62
7
  6
CONTINUOUS
 10
20.7169767782
 20
1.170462078
 11
20.7825395137
 21
1.1682766535
  0
LINE
  5
228
100
AcDbEntity
  8
0
100
AcDbLine
 62
7
  6
CONTINUOUS
 10
20.8177513651
 20
1.1693297793
 11
20.947965719
 21
1.1693297793
  0
LINE
  5
229
100
AcDbEntity
  8
0
100
AcDbLine
 62
7
  6
CONTINUOUS
 10
20.6875370113
 20
1.170462078
 11
20.5573226574
 21
1.170462078
  0
LINE
  5
22A
100
AcDbEntity
  8
0
100
AcDbLine
 62
7
  6
CONTINUOUS
 10
20.7486811426
 20
1.1987695462
 11
20.7486811426
 21
1.1432869085
  0
LINE
  5
22B
100
AcDbEntity
  8
0
100
AcDbLine
 62
7
  6
CONTINUOUS
 10
20.7498134414
 20
1.1059210505
 11
20.7498134414
 21
0.9757066966
  0
LINE
  5
22C
100
AcDbEntity
  8
0
100
AcDbLine
 62
7
  6
CONTINUOUS
 10
20.7486811426
 20
1.2338708068
 11
20.7486811426
 21
1.3640851607
  0
LINE
  5
22D
100
AcDbEntity
  8
0
100
AcDbLine
 62
7
  6
CONTINUOUS
 10
21.0702539817
 20
1.2701043662
 11
21.4790138229
 21
1.3448360823
  0
LINE
  5
22E
100
AcDbEntity
  8
0
100
AcDbLine
 62
7
  6
CONTINUOUS
 10
21.4790138229
 20
1.3448360823
 11
21.4790138229
 21
0.9779712941
  0
LINE
  5
22F
100
AcDbEntity
  8
0
100
AcDbLine
 62
7
  6
CONTINUOUS
 10
21.4790138229
 20
0.9779712941
 11
21.069121683
 21
1.0617614
  0
LINE
  5
230
100
AcDbEntity
  8
0
100
AcDbLine
 62
7
  6
CONTINUOUS
 10
21.0702539817
 20
1.2701043662
 11
21.069121683
 21
1.0617614
  0
LINE
  5
231
100
AcDbEntity
  8
0
100
AcDbLine
 62
7
  6
CONTINUOUS
 10
21.4790138229
 20
1.1693297793
 11
21.3159628059
 21
1.1693297793
  0
LINE
  5
232
100
AcDbEntity
  8
0
100
AcDbLine
 62
7
  6
CONTINUOUS
 10
21.2876553377
 20
1.1693297793
 11
21.2502894796
 21
1.1693297793
  0
LINE
  5
233
100
AcDbEntity
  8
0
100
AcDbLine
 62
7
  6
CONTINUOUS
 10
21.2208497126
 20
1.1659328831
 11
21.0713862804
 21
1.1659328831
  0
LINE
  5
234
100
AcDbEntity
  8
0
100
AcDbLine
 62
7
  6
CONTINUOUS
 10
20.4796138713
 20
1.5284908897
 11
20.4766766948
 21
0.9294458646
  0
ENDBLK
  5
235
100
AcDbEntity
  8
0
  6
BYBLOCK
 62
0
100
AcDbBlockEnd
  0
BLOCK
  5
236
100
AcDbEntity
  8
0
100
AcDbBlockBegin
  2
*T1
 70
1
 10
0.0
 20
0.0
  3
*T1
  1

  0
LINE
  5
237
100
AcDbEntity
  8
0
100
AcDbLine
 62
2
  6
CONTINUOUS
 10
9.275
 20
0.0
 11
-0.0
 21
0.0
  0
LINE
  5
238
100
AcDbEntity
  8
0
100
AcDbLine
 62
2
  6
CONTINUOUS
 10
9.275
 20
0.0
 11
9.275
 21
1.25
  0
LINE
  5
239
100
AcDbEntity
  8
0
100
AcDbLine
 62
2
  6
CONTINUOUS
 10
9.275
 20
0.625
 11
-0.0
 21
0.625
  0
LINE
  5
23A
100
AcDbEntity
  8
0
100
AcDbLine
 62
2
  6
CONTINUOUS
 10
9.275
 20
1.25
 11
-0.0
 21
1.25
  0
LINE
  5
23B
100
AcDbEntity
  8
0
100
AcDbLine
 62
2
  6
CONTINUOUS
 10
6.8
 20
0.0
 11
6.8
 21
1.25
  0
LINE
  5
23C
100
AcDbEntity
  8
0
100
AcDbLine
 62
2
  6
CONTINUOUS
 10
6.4
 20
0.0
 11
6.4
 21
0.625
  0
LINE
  5
23D
100
AcDbEntity
  8
0
100
AcDbLine
 62
2
  6
CONTINUOUS
 10
5.9
 20
0.0
 11
5.9
 21
0.625
  0
LINE
  5
23E
100
AcDbEntity
  8
0
100
AcDbLine
 62
2
  6
CONTINUOUS
 10
5.2
 20
0.0
 11
5.2
 21
0.625
  0
LINE
  5
23F
100
AcDbEntity
  8
0
100
AcDbLine
 62
2
  6
CONTINUOUS
 10
4.1
 20
0.0
 11
4.1
 21
1.25
  0
LINE
  5
240
100
AcDbEntity
  8
0
100
AcDbLine
 62
2
  6
CONTINUOUS
 10
-0.0
 20
0.0
 11
-0.0
 21
1.25
  0
MTEXT
  5
241
100
AcDbEntity
  8
0
100
AcDbMText
 62
2
  6
CONTINUOUS
  7
STANDARD
 71
2
 72
1
 10
6.6
 20
0.325
 30
0.0
 11
1.0
 21
0.0
 31
0.0
 44
0.9
  1
2
 40
0.125
 41
0.2
  0
MTEXT
  5
242
100
AcDbEntity
  8
0
100
AcDbMText
 62
2
  6
CONTINUOUS
  7
STANDARD
 71
2
 72
1
 10
6.15
 20
0.325
 30
0.0
 11
1.0
 21
0.0
 31
0.0
 44
0.9
  1
C
 40
0.125
 41
0.2
  0
MTEXT
  5
243
100
AcDbEntity
  8
0
100
AcDbMText
 62
2
  6
CONTINUOUS
  7
STANDARD
 71
2
 72
1
 10
5.55
 20
0.325
 30
0.0
 11
1.0
 21
0.0
 31
0.0
 44
0.9
  1
1.000
 40
0.125
 41
1.0
  0
MTEXT
  5
244
100
AcDbEntity
  8
0
100
AcDbMText
 62
2
  6
CONTINUOUS
  7
STANDARD
 71
2
 72
1
 10
4.65
 20
0.325
 30
0.0
 11
1.0
 21
0.0
 31
0.0
 44
0.9
  1
Mar-30-21
 40
0.125
 41
1.8
  0
MTEXT
  5
245
100
AcDbEntity
  8
0
100
AcDbMText
 62
2
  6
CONTINUOUS
  7
STANDARD
 71
2
 72
1
 10
2.05
 20
0.4625
 30
0.0
 11
1.0
 21
0.0
 31
0.0
 44
0.9
  1
T-2A Line mount\PThrough port 2 with reverse flow check
 40
0.125
 41
7.6
  0
MTEXT
  5
246
100
AcDbEntity
  8
0
100
AcDbMText
 62
2
  6
CONTINUOUS
  7
STANDARD
 71
1
 72
1
 10
6.45
 20
0.5625
 30
0.0
 11
1.0
 21
0.0
 31
0.0
 44
0.9
  1
SHEET
 40
0.06
 41
0.48
  0
MTEXT
  5
247
100
AcDbEntity
  8
0
100
AcDbMText
 62
2
  6
CONTINUOUS
  7
STANDARD
 71
1
 72
1
 10
5.95
 20
0.5625
 30
0.0
 11
1.0
 21
0.0
 31
0.0
 44
0.9
  1
DWG SIZE
 40
0.06
 41
0.768
  0
MTEXT
  5
248
100
AcDbEntity
  8
0
100
AcDbMText
 62
2
  6
CONTINUOUS
  7
STANDARD
 71
1
 72
1
 10
5.25
 20
0.5625
 30
0.0
 11
1.0
 21
0.0
 31
0.0
 44
0.9
  1
SCALE
 40
0.06
 41
0.48
  0
MTEXT
  5
249
100
AcDbEntity
  8
0
100
AcDbMText
 62
2
  6
CONTINUOUS
  7
STANDARD
 71
1
 72
1
 10
4.15
 20
0.5625
 30
0.0
 11
1.0
 21
0.0
 31
0.0
 44
0.9
  1
DATE
 40
0.06
 41
0.384
  0
MTEXT
  5
24A
100
AcDbEntity
  8
0
100
AcDbMText
 62
2
  6
CONTINUOUS
  7
STANDARD
 71
1
 72
1
 10
0.05
 20
0.5625
 30
0.0
 11
1.0
 21
0.0
 31
0.0
 44
0.9
  1
DESCRIPTION
 40
0.06
 41
1.056
  0
MTEXT
  5
24B
100
AcDbEntity
  8
0
100
AcDbMText
 62
2
  6
CONTINUOUS
  7
STANDARD
 71
2
 72
1
 10
5.45
 20
1.0375
 30
0.0
 11
1.0
 21
0.0
 31
0.0
 44
0.9
  1
ALL DIMENSIONS IN INCH\PVIEWS ARE THIRD ANGLE
 40
0.12
 41
4.224
  0
MTEXT
  5
24C
100
AcDbEntity
  8
0
100
AcDbMText
 62
2
  6
CONTINUOUS
  7
STANDARD
 71
2
 72
1
 10
2.05
 20
0.95
 30
0.0
 11
1.0
 21
0.0
 31
0.0
 44
0.9
  1
B3C
 40
0.125
 41
0.6
  0
MTEXT
  5
24D
100
AcDbEntity
  8
0
100
AcDbMText
 62
2
  6
CONTINUOUS
  7
STANDARD
 71
1
 72
1
 10
0.05
 20
1.1875
 30
0.0
 11
1.0
 21
0.0
 31
0.0
 44
0.9
  1
MODEL
 40
0.06
 41
0.48
  0
ENDBLK
  5
24E
100
AcDbEntity
  8
0
  6
BYBLOCK
 62
0
100
AcDbBlockEnd
  0
BLOCK
  5
24F
100
AcDbEntity
  8
0
100
AcDbBlockBegin
  2
*T2
 70
1
 10
0.0
 20
0.0
  3
*T2
  1

  0
LINE
  5
250
100
AcDbEntity
  8
0
100
AcDbLine
 62
2
  6
CONTINUOUS
 10
0.0
 20
0.0
 11
9.055
 21
0.0
  0
LINE
  5
251
100
AcDbEntity
  8
0
100
AcDbLine
 62
2
  6
CONTINUOUS
 10
0.0
 20
0.0
 11
0.0
 21
-2.844
  0
LINE
  5
252
100
AcDbEntity
  8
0
100
AcDbLine
 62
2
  6
CONTINUOUS
 10
0.0
 20
-0.344
 11
9.055
 21
-0.344
  0
LINE
  5
253
100
AcDbEntity
  8
0
100
AcDbLine
 62
2
  6
CONTINUOUS
 10
0.0
 20
-0.594
 11
9.055
 21
-0.594
  0
LINE
  5
254
100
AcDbEntity
  8
0
100
AcDbLine
 62
2
  6
CONTINUOUS
 10
0.0
 20
-0.844
 11
9.055
 21
-0.844
  0
LINE
  5
255
100
AcDbEntity
  8
0
100
AcDbLine
 62
2
  6
CONTINUOUS
 10
0.0
 20
-1.094
 11
9.055
 21
-1.094
  0
LINE
  5
256
100
AcDbEntity
  8
0
100
AcDbLine
 62
2
  6
CONTINUOUS
 10
0.0
 20
-1.344
 11
9.055
 21
-1.344
  0
LINE
  5
257
100
AcDbEntity
  8
0
100
AcDbLine
 62
2
  6
CONTINUOUS
 10
0.0
 20
-1.594
 11
9.055
 21
-1.594
  0
LINE
  5
258
100
AcDbEntity
  8
0
100
AcDbLine
 62
2
  6
CONTINUOUS
 10
0.0
 20
-1.844
 11
9.055
 21
-1.844
  0
LINE
  5
259
100
AcDbEntity
  8
0
100
AcDbLine
 62
2
  6
CONTINUOUS
 10
0.0
 20
-2.094
 11
9.055
 21
-2.094
  0
LINE
  5
25A
100
AcDbEntity
  8
0
100
AcDbLine
 62
2
  6
CONTINUOUS
 10
0.0
 20
-2.344
 11
9.055
 21
-2.344
  0
LINE
  5
25B
100
AcDbEntity
  8
0
100
AcDbLine
 62
2
  6
CONTINUOUS
 10
0.0
 20
-2.594
 11
9.055
 21
-2.594
  0
LINE
  5
25C
100
AcDbEntity
  8
0
100
AcDbLine
 62
2
  6
CONTINUOUS
 10
0.0
 20
-2.844
 11
9.055
 21
-2.844
  0
LINE
  5
25D
100
AcDbEntity
  8
0
100
AcDbLine
 62
2
  6
CONTINUOUS
 10
3.055
 20
0.0
 11
3.055
 21
-2.844
  0
LINE
  5
25E
100
AcDbEntity
  8
0
100
AcDbLine
 62
2
  6
CONTINUOUS
 10
9.055
 20
0.0
 11
9.055
 21
-2.844
  0
MTEXT
  5
25F
100
AcDbEntity
  8
0
100
AcDbMText
 62
2
  6
CONTINUOUS
  7
STANDARD
 71
2
 72
1
 10
1.5275
 20
-0.0995
 30
0.0
 11
1.0
 21
0.0
 31
0.0
 44
0.9
  1
Technical Data
 40
0.145
 41
3.248
  0
MTEXT
  5
260
100
AcDbEntity
  8
0
100
AcDbMText
 62
2
  6
CONTINUOUS
  7
STANDARD
 71
2
 72
1
 10
4.555
 20
-0.0995
 30
0.0
 11
1.0
 21
0.0
 31
0.0
 44
0.9
  1
U.S. Units
 40
0.145
 41
2.32
  0
MTEXT
  5
261
100
AcDbEntity
  8
0
100
AcDbMText
 62
2
  6
CONTINUOUS
  7
STANDARD
 71
2
 72
1
 10
7.555
 20
-0.0995
 30
0.0
 11
1.0
 21
0.0
 31
0.0
 44
0.9
  1
Metric Units
 40
0.145
 41
2.784
  0
MTEXT
  5
262
100
AcDbEntity
  8
0
100
AcDbMText
 62
2
  6
CONTINUOUS
  7
STANDARD
 71
2
 72
1
 10
1.5275
 20
-0.4065
 30
0.0
 11
1.0
 21
0.0
 31
0.0
 44
0.9
  1
Cavity
 40
0.125
 41
1.2
  0
MTEXT
  5
263
100
AcDbEntity
  8
0
100
AcDbMText
 62
2
  6
CONTINUOUS
  7
STANDARD
 71
2
 72
1
 10
6.055
 20
-0.4065
 30
0.0
 11
1.0
 21
0.0
 31
0.0
 44
0.9
  1
T-2A
 40
0.125
 41
0.8
  0
MTEXT
  5
264
100
AcDbEntity
  8
0
100
AcDbMText
 62
2
  6
CONTINUOUS
  7
STANDARD
 71
2
 72
1
 10
1.5275
 20
-0.6565
 30
0.0
 11
1.0
 21
0.0
 31
0.0
 44
0.9
  1
Body Features
 40
0.125
 41
2.6
  0
MTEXT
  5
265
100
AcDbEntity
  8
0
100
AcDbMText
 62
2
  6
CONTINUOUS
  7
STANDARD
 71
2
 72
1
 10
6.055
 20
-0.6565
 30
0.0
 11
1.0
 21
0.0
 31
0.0
 44
0.9
  1
Through port 2 with reverse flow check
 40
0.125
 41
7.6
  0
MTEXT
  5
266
100
AcDbEntity
  8
0
100
AcDbMText
 62
2
  6
CONTINUOUS
  7
STANDARD
 71
2
 72
1
 10
1.5275
 20
-0.9065
 30
0.0
 11
1.0
 21
0.0
 31
0.0
 44
0.9
  1
Body Type
 40
0.125
 41
1.8
  0
MTEXT
  5
267
100
AcDbEntity
  8
0
100
AcDbMText
 62
2
  6
CONTINUOUS
  7
STANDARD
 71
2
 72
1
 10
6.055
 20
-0.9065
 30
0.0
 11
1.0
 21
0.0
 31
0.0
 44
0.9
  1
Line mount
 40
0.125
 41
2.0
  0
MTEXT
  5
268
100
AcDbEntity
  8
0
100
AcDbMText
 62
2
  6
CONTINUOUS
  7
STANDARD
 71
2
 72
1
 10
1.5275
 20
-1.1565
 30
0.0
 11
1.0
 21
0.0
 31
0.0
 44
0.9
  1
Interface
 40
0.125
 41
1.8
  0
MTEXT
  5
269
100
AcDbEntity
  8
0
100
AcDbMText
 62
2
  6
CONTINUOUS
  7
STANDARD
 71
2
 72
1
 10
6.055
 20
-1.1565
 30
0.0
 11
1.0
 21
0.0
 31
0.0
 44
0.9
  1
None
 40
0.125
 41
0.8
  0
MTEXT
  5
26A
100
AcDbEntity
  8
0
100
AcDbMText
 62
2
  6
CONTINUOUS
  7
STANDARD
 71
2
 72
1
 10
1.5275
 20
-1.4065
 30
0.0
 11
1.0
 21
0.0
 31
0.0
 44
0.9
  1
Open Cavity Quantity
 40
0.125
 41
4.0
  0
MTEXT
  5
26B
100
AcDbEntity
  8
0
100
AcDbMText
 62
2
  6
CONTINUOUS
  7
STANDARD
 71
2
 72
1
 10
6.055
 20
-1.4065
 30
0.0
 11
1.0
 21
0.0
 31
0.0
 44
0.9
  1
1
 40
0.125
 41
0.2
  0
MTEXT
  5
26C
100
AcDbEntity
  8
0
100
AcDbMText
 62
2
  6
CONTINUOUS
  7
STANDARD
 71
2
 72
1
 10
1.5275
 20
-1.6565
 30
0.0
 11
1.0
 21
0.0
 31
0.0
 44
0.9
  1
Weight
 40
0.125
 41
1.2
  0
MTEXT
  5
26D
100
AcDbEntity
  8
0
100
AcDbMText
 62
2
  6
CONTINUOUS
  7
STANDARD
 71
2
 72
1
 10
4.555
 20
-1.6565
 30
0.0
 11
1.0
 21
0.0
 31
0.0
 44
0.9
  1
3.466 lb.
 40
0.125
 41
1.8
  0
MTEXT
  5
26E
100
AcDbEntity
  8
0
100
AcDbMText
 62
2
  6
CONTINUOUS
  7
STANDARD
 71
2
 72
1
 10
7.555
 20
-1.6565
 30
0.0
 11
1.0
 21
0.0
 31
0.0
 44
0.9
  1
1,572 kg.
 40
0.125
 41
1.8
  0
MTEXT
  5
26F
100
AcDbEntity
  8
0
100
AcDbMText
 62
2
  6
CONTINUOUS
  7
STANDARD
 71
2
 72
1
 10
1.5275
 20
-1.9065
 30
0.0
 11
1.0
 21
0.0
 31
0.0
 44
0.9
  1
Mounting Hole Thread
 40
0.125
 41
4.0
  0
MTEXT
  5
270
100
AcDbEntity
  8
0
100
AcDbMText
 62
2
  6
CONTINUOUS
  7
STANDARD
 71
2
 72
1
 10
4.555
 20
-1.9065
 30
0.0
 11
1.0
 21
0.0
 31
0.0
 44
0.9
  1
.375-16 UNC - 2B in.
 40
0.125
 41
4.0
  0
MTEXT
  5
271
100
AcDbEntity
  8
0
100
AcDbMText
 62
2
  6
CONTINUOUS
  7
STANDARD
 71
2
 72
1
 10
1.5275
 20
-2.1565
 30
0.0
 11
1.0
 21
0.0
 31
0.0
 44
0.9
  1
Mounting Hole Depth
 40
0.125
 41
3.8
  0
MTEXT
  5
272
100
AcDbEntity
  8
0
100
AcDbMText
 62
2
  6
CONTINUOUS
  7
STANDARD
 71
2
 72
1
 10
4.555
 20
-2.1565
 30
0.0
 11
1.0
 21
0.0
 31
0.0
 44
0.9
  1
.62 in.
 40
0.125
 41
1.4
  0
MTEXT
  5
273
100
AcDbEntity
  8
0
100
AcDbMText
 62
2
  6
CONTINUOUS
  7
STANDARD
 71
2
 72
1
 10
7.555
 20
-2.1565
 30
0.0
 11
1.0
 21
0.0
 31
0.0
 44
0.9
  1
15,7 mm
 40
0.125
 41
1.4
  0
MTEXT
  5
274
100
AcDbEntity
  8
0
100
AcDbMText
 62
2
  6
CONTINUOUS
  7
STANDARD
 71
2
 72
1
 10
1.5275
 20
-2.4065
 30
0.0
 11
1.0
 21
0.0
 31
0.0
 44
0.9
  1
Mounting Hole Quantity
 40
0.125
 41
4.4
  0
MTEXT
  5
275
100
AcDbEntity
  8
0
100
AcDbMText
 62
2
  6
CONTINUOUS
  7
STANDARD
 71
2
 72
1
 10
6.055
 20
-2.4065
 30
0.0
 11
1.0
 21
0.0
 31
0.0
 44
0.9
  1
2
 40
0.125
 41
0.2
  0
MTEXT
  5
276
100
AcDbEntity
  8
0
100
AcDbMText
 62
2
  6
CONTINUOUS
  7
STANDARD
 71
2
 72
1
 10
1.5275
 20
-2.6565
 30
0.0
 11
1.0
 21
0.0
 31
0.0
 44
0.9
  1
Includes integral cartridge(s)
 40
0.125
 41
6.0
  0
MTEXT
  5
277
100
AcDbEntity
  8
0
100
AcDbMText
 62
2
  6
CONTINUOUS
  7
STANDARD
 71
2
 72
1
 10
6.055
 20
-2.6565
 30
0.0
 11
1.0
 21
0.0
 31
0.0
 44
0.9
  1
Yes (see Included Components)
 40
0.125
 41
5.8
  0
ENDBLK
  5
278
100
AcDbEntity
  8
0
  6
BYBLOCK
 62
0
100
AcDbBlockEnd
  0
BLOCK
  5
279
100
AcDbEntity
  8
0
100
AcDbBlockBegin
  2
*T3
 70
1
 10
0.0
 20
0.0
  3
*T3
  1

  0
LINE
  5
27A
100
AcDbEntity
  8
0
100
AcDbLine
 62
2
  6
CONTINUOUS
 10
0.0
 20
0.0
 11
4.6
 21
0.0
  0
LINE
  5
27B
100
AcDbEntity
  8
0
100
AcDbLine
 62
2
  6
CONTINUOUS
 10
0.0
 20
0.0
 11
0.0
 21
-1.43775
  0
LINE
  5
27C
100
AcDbEntity
  8
0
100
AcDbLine
 62
2
  6
CONTINUOUS
 10
0.0
 20
-0.34375
 11
4.6
 21
-0.34375
  0
LINE
  5
27D
100
AcDbEntity
  8
0
100
AcDbLine
 62
2
  6
CONTINUOUS
 10
0.0
 20
-0.68775
 11
4.6
 21
-0.68775
  0
LINE
  5
27E
100
AcDbEntity
  8
0
100
AcDbLine
 62
2
  6
CONTINUOUS
 10
0.0
 20
-0.93775
 11
4.6
 21
-0.93775
  0
LINE
  5
27F
100
AcDbEntity
  8
0
100
AcDbLine
 62
2
  6
CONTINUOUS
 10
0.0
 20
-1.18775
 11
4.6
 21
-1.18775
  0
LINE
  5
280
100
AcDbEntity
  8
0
100
AcDbLine
 62
2
  6
CONTINUOUS
 10
0.0
 20
-1.43775
 11
4.6
 21
-1.43775
  0
LINE
  5
281
100
AcDbEntity
  8
0
100
AcDbLine
 62
2
  6
CONTINUOUS
 10
1.3
 20
-0.34375
 11
1.3
 21
-1.43775
  0
LINE
  5
282
100
AcDbEntity
  8
0
100
AcDbLine
 62
2
  6
CONTINUOUS
 10
3.3
 20
-0.34375
 11
3.3
 21
-1.43775
  0
LINE
  5
283
100
AcDbEntity
  8
0
100
AcDbLine
 62
2
  6
CONTINUOUS
 10
4.6
 20
0.0
 11
4.6
 21
-1.43775
  0
MTEXT
  5
284
100
AcDbEntity
  8
0
100
AcDbMText
 62
2
  6
CONTINUOUS
  7
STANDARD
 71
2
 72
1
 10
2.3
 20
-0.099375
 30
0.0
 11
1.0
 21
0.0
 31
0.0
 44
0.9
  1
Port Headings
 40
0.145
 41
3.016
  0
MTEXT
  5
285
100
AcDbEntity
  8
0
100
AcDbMText
 62
2
  6
CONTINUOUS
  7
STANDARD
 71
2
 72
1
 10
0.65
 20
-0.44325
 30
0.0
 11
1.0
 21
0.0
 31
0.0
 44
0.9
  1
Product
 40
0.145
 41
1.624
  0
MTEXT
  5
286
100
AcDbEntity
  8
0
100
AcDbMText
 62
2
  6
CONTINUOUS
  7
STANDARD
 71
2
 72
1
 10
2.3
 20
-0.44325
 30
0.0
 11
1.0
 21
0.0
 31
0.0
 44
0.9
  1
Port
 40
0.145
 41
0.928
  0
MTEXT
  5
287
100
AcDbEntity
  8
0
100
AcDbMText
 62
2
  6
CONTINUOUS
  7
STANDARD
 71
2
 72
1
 10
3.95
 20
-0.44325
 30
0.0
 11
1.0
 21
0.0
 31
0.0
 44
0.9
  1
Size
 40
0.145
 41
0.928
  0
MTEXT
  5
288
100
AcDbEntity
  8
0
100
AcDbMText
 62
2
  6
CONTINUOUS
  7
STANDARD
 71
2
 72
1
 10
0.65
 20
-0.75025
 30
0.0
 11
1.0
 21
0.0
 31
0.0
 44
0.9
  1
B3C
 40
0.125
 41
0.6
  0
MTEXT
  5
289
100
AcDbEntity
  8
0
100
AcDbMText
 62
2
  6
CONTINUOUS
  7
STANDARD
 71
2
 72
1
 10
2.3
 20
-0.75025
 30
0.0
 11
1.0
 21
0.0
 31
0.0
 44
0.9
  1
Ports 1 &  2
 40
0.125
 41
2.4
  0
MTEXT
  5
28A
100
AcDbEntity
  8
0
100
AcDbMText
 62
2
  6
CONTINUOUS
  7
STANDARD
 71
2
 72
1
 10
3.95
 20
-0.75025
 30
0.0
 11
1.0
 21
0.0
 31
0.0
 44
0.9
  1
1/2" NPTF
 40
0.125
 41
1.8
  0
MTEXT
  5
28B
100
AcDbEntity
  8
0
100
AcDbMText
 62
2
  6
CONTINUOUS
  7
STANDARD
 71
2
 72
1
 10
0.65
 20
-1.00025
 30
0.0
 11
1.0
 21
0.0
 31
0.0
 44
0.9
  1
B3C
 40
0.125
 41
0.6
  0
MTEXT
  5
28C
100
AcDbEntity
  8
0
100
AcDbMText
 62
2
  6
CONTINUOUS
  7
STANDARD
 71
2
 72
1
 10
2.3
 20
-1.00025
 30
0.0
 11
1.0
 21
0.0
 31
0.0
 44
0.9
  1
Port 3
 40
0.125
 41
1.2
  0
MTEXT
  5
28D
100
AcDbEntity
  8
0
100
AcDbMText
 62
2
  6
CONTINUOUS
  7
STANDARD
 71
2
 72
1
 10
3.95
 20
-1.00025
 30
0.0
 11
1.0
 21
0.0
 31
0.0
 44
0.9
  1
1/4" NPTF
 40
0.125
 41
1.8
  0
MTEXT
  5
28E
100
AcDbEntity
  8
0
100
AcDbMText
 62
2
  6
CONTINUOUS
  7
STANDARD
 71
2
 72
1
 10
0.65
 20
-1.25025
 30
0.0
 11
1.0
 21
0.0
 31
0.0
 44
0.9
  1
B3C
 40
0.125
 41
0.6
  0
MTEXT
  5
28F
100
AcDbEntity
  8
0
100
AcDbMText
 62
2
  6
CONTINUOUS
  7
STANDARD
 71
2
 72
1
 10
2.3
 20
-1.25025
 30
0.0
 11
1.0
 21
0.0
 31
0.0
 44
0.9
  1
Gage Port
 40
0.125
 41
1.8
  0
MTEXT
  5
290
100
AcDbEntity
  8
0
100
AcDbMText
 62
2
  6
CONTINUOUS
  7
STANDARD
 71
2
 72
1
 10
3.95
 20
-1.25025
 30
0.0
 11
1.0
 21
0.0
 31
0.0
 44
0.9
  1
1/4" NPTF
 40
0.125
 41
1.8
  0
ENDBLK
  5
291
100
AcDbEntity
  8
0
  6
BYBLOCK
 62
0
100
AcDbBlockEnd
  0
ENDSEC
  0
SECTION
  2
ENTITIES
  0
IMAGE
  5
292
100
AcDbEntity
  8
0
100
AcDbRasterImage
 62
7
  6
CONTINUOUS
 10
19.2297077316
 20
0.3094318264
 30
0.0
 11
0.0066666667
 21
0.0
 31
0.0
 12
0.0
 22
0.0066666667
 32
0.0
 13
369.0
 23
92.0
340
       3A5
 70
9
280
0
281
50
282
50
283
0
360
       39F
 71
1
 91
2
 14
-0.5
 24
-0.5
 14
368.5
 24
91.5
  0
INSERT
  5
293
100
AcDbEntity
  8
0
100
AcDbBlockReference
 62
2
  6
CONTINUOUS
  2
SUN_FIRST_THIRD_ANGLE_BL0
 10
20.4816717061
 20
1.2289683772
  0
ACAD_TABLE
  5
294
100
AcDbEntity
  8
0
 62
2
  6
CONTINUOUS
100
AcDbBlockReference
  2
*T1
 10
12.42375
 20
0.30125
 30
0.0
100
AcDbTable
342
       3A7
343
20F
 11
1.0
 21
0.0
 31
0.0
 90
6
 91
4
 92
6
 93
20
 94
0
 95
0
 96
0
 70
1
 41
0.0
141
0.525
141
0.1
141
0.525
141
0.1
142
4.1
142
1.1
142
0.7
142
0.5
142
0.4
142
2.475
171
1
172
0
173
0
174
0
175
1
176
1
 91
33
178
0
145
0.0
301
CELL_VALUE
 90
4
  1
T-2A Line mount\PThrough port 2 with reverse flow check
304
ACVALUE_END
170
2
140
0.125
171
1
172
0
173
0
174
0
175
1
176
1
 91
33
178
0
145
0.0
301
CELL_VALUE
 90
4
  1
Mar-30-21
304
ACVALUE_END
170
5
140
0.125
171
1
172
0
173
0
174
0
175
1
176
1
 91
33
178
0
145
0.0
301
CELL_VALUE
 90
4
  1
1.000
304
ACVALUE_END
170
5
140
0.125
171
1
172
0
173
0
174
0
175
1
176
1
 91
33
178
0
145
0.0
301
CELL_VALUE
 90
4
  1
C
304
ACVALUE_END
170
5
140
0.125
171
1
172
0
173
0
174
0
175
1
176
1
 91
33
178
0
145
0.0
301
CELL_VALUE
 90
4
  1
2
304
ACVALUE_END
170
5
140
0.125
171
1
172
0
173
0
174
0
175
1
176
1
 91
33
178
0
145
0.0
301
CELL_VALUE
 90
4
  1
 
304
ACVALUE_END
170
1
140
0.125
171
1
172
0
173
0
174
0
175
1
176
1
 91
33
178
0
145
0.0
301
CELL_VALUE
 90
4
  1
DESCRIPTION
304
ACVALUE_END
170
1
140
0.06
171
1
172
0
173
0
174
0
175
1
176
1
 91
33
178
0
145
0.0
301
CELL_VALUE
 90
4
  1
DATE
304
ACVALUE_END
170
1
140
0.06
171
1
172
0
173
0
174
0
175
1
176
1
 91
33
178
0
145
0.0
301
CELL_VALUE
 90
4
  1
SCALE
304
ACVALUE_END
170
1
140
0.06
171
1
172
0
173
0
174
0
175
1
176
1
 91
33
178
0
145
0.0
301
CELL_VALUE
 90
4
  1
DWG SIZE
304
ACVALUE_END
170
1
140
0.06
171
1
172
0
173
0
174
0
175
1
176
1
 91
33
178
0
145
0.0
301
CELL_VALUE
 90
4
  1
SHEET
304
ACVALUE_END
170
1
140
0.06
171
1
172
0
173
0
174
0
175
1
176
1
 91
33
178
0
145
0.0
301
CELL_VALUE
 90
4
  1
 
304
ACVALUE_END
170
1
140
0.125
171
1
172
0
173
0
174
0
175
1
176
1
 91
33
178
0
145
0.0
301
CELL_VALUE
 90
4
  1
B3C
304
ACVALUE_END
170
5
140
0.125
171
1
172
0
173
0
174
0
175
4
176
1
 91
33
178
0
145
0.0
301
CELL_VALUE
 90
4
  1
ALL DIMENSIONS IN INCH\PVIEWS ARE THIRD ANGLE
304
ACVALUE_END
170
5
140
0.12
171
1
172
0
173
1
174
0
175
1
176
1
 91
1
178
0
145
0.0
170
1
171
1
172
0
173
1
174
0
175
1
176
1
 91
1
178
0
145
0.0
170
1
171
1
172
0
173
1
174
0
175
1
176
1
 91
1
178
0
145
0.0
170
5
171
1
172
0
173
0
174
0
175
1
176
1
 91
33
178
0
145
0.0
301
CELL_VALUE
 90
4
  1
 
304
ACVALUE_END
170
1
140
0.125
171
1
172
0
173
0
174
0
175
1
176
1
 91
33
178
0
145
0.0
301
CELL_VALUE
 90
4
  1
MODEL
304
ACVALUE_END
170
1
140
0.06
171
1
172
0
173
0
174
0
175
1
176
1
 91
33
178
0
145
0.0
301
CELL_VALUE
 90
4
  1
 
304
ACVALUE_END
170
1
140
0.125
171
1
172
0
173
0
174
0
175
1
176
1
 91
33
178
0
145
0.0
301
CELL_VALUE
 90
4
  1
 
304
ACVALUE_END
170
1
140
0.125
171
1
172
0
173
0
174
0
175
1
176
1
 91
33
178
0
145
0.0
301
CELL_VALUE
 90
4
  1
 
304
ACVALUE_END
170
1
140
0.125
171
1
172
0
173
0
174
0
175
1
176
1
 91
33
178
0
145
0.0
301
CELL_VALUE
 90
4
  1
 
304
ACVALUE_END
170
1
140
0.125
171
1
172
0
173
0
174
0
175
1
176
1
 91
33
178
0
145
0.0
301
CELL_VALUE
 90
4
  1
 
304
ACVALUE_END
170
1
140
0.125
  0
ACAD_TABLE
  5
295
100
AcDbEntity
  8
0
 62
2
  6
CONTINUOUS
100
AcDbBlockReference
  2
*T2
 10
12.4237499994
 20
16.47875
 30
0.0
100
AcDbTable
342
       3A6
343
210
 11
1.0
 21
0.0
 31
0.0
 90
22
 91
11
 92
3
 93
16
 94
0
 95
0
 96
0
 41
0.028
141
0.344
141
0.25
141
0.25
141
0.25
141
0.25
141
0.25
141
0.25
141
0.25
141
0.25
141
0.25
141
0.25
142
3.055
142
3.0
142
3.0
171
1
172
0
173
0
174
0
175
1
176
1
 91
33
178
0
145
0.0
301
CELL_VALUE
 90
4
  1
Technical Data
304
ACVALUE_END
170
5
140
0.145
171
1
172
0
173
0
174
0
175
1
176
1
 91
33
178
0
145
0.0
301
CELL_VALUE
 90
4
  1
U.S. Units
304
ACVALUE_END
170
5
140
0.145
171
1
172
0
173
0
174
0
175
1
176
1
 91
33
178
0
145
0.0
301
CELL_VALUE
 90
4
  1
Metric Units
304
ACVALUE_END
170
5
140
0.145
171
1
172
0
173
0
174
0
175
1
176
1
 91
33
178
0
145
0.0
301
CELL_VALUE
 90
4
  1
Cavity
304
ACVALUE_END
170
5
140
0.125
171
1
172
0
173
0
174
0
175
2
176
1
 91
33
178
0
145
0.0
301
CELL_VALUE
 90
4
  1
T-2A
304
ACVALUE_END
170
5
140
0.125
171
1
172
0
173
1
174
0
175
1
176
1
 91
1
178
0
145
0.0
170
1
171
1
172
0
173
0
174
0
175
1
176
1
 91
33
178
0
145
0.0
301
CELL_VALUE
 90
4
  1
Body Features
304
ACVALUE_END
170
5
140
0.125
171
1
172
0
173
0
174
0
175
2
176
1
 91
33
178
0
145
0.0
301
CELL_VALUE
 90
4
  1
Through port 2 with reverse flow check
304
ACVALUE_END
170
5
140
0.125
171
1
172
0
173
1
174
0
175
1
176
1
 91
1
178
0
145
0.0
170
1
171
1
172
0
173
0
174
0
175
1
176
1
 91
33
178
0
145
0.0
301
CELL_VALUE
 90
4
  1
Body Type
304
ACVALUE_END
170
5
140
0.125
171
1
172
0
173
0
174
0
175
2
176
1
 91
33
178
0
145
0.0
301
CELL_VALUE
 90
4
  1
Line mount
304
ACVALUE_END
170
5
140
0.125
171
1
172
0
173
1
174
0
175
1
176
1
 91
1
178
0
145
0.0
170
1
171
1
172
0
173
0
174
0
175
1
176
1
 91
33
178
0
145
0.0
301
CELL_VALUE
 90
4
  1
Interface
304
ACVALUE_END
170
5
140
0.125
171
1
172
0
173
0
174
0
175
2
176
1
 91
33
178
0
145
0.0
301
CELL_VALUE
 90
4
  1
None
304
ACVALUE_END
170
5
140
0.125
171
1
172
0
173
1
174
0
175
1
176
1
 91
1
178
0
145
0.0
170
1
171
1
172
0
173
0
174
0
175
1
176
1
 91
33
178
0
145
0.0
301
CELL_VALUE
 90
4
  1
Open Cavity Quantity
304
ACVALUE_END
170
5
140
0.125
171
1
172
0
173
0
174
0
175
2
176
1
 91
33
178
0
145
0.0
301
CELL_VALUE
 90
4
  1
1
304
ACVALUE_END
170
5
140
0.125
171
1
172
0
173
1
174
0
175
1
176
1
 91
1
178
0
145
0.0
170
1
171
1
172
0
173
0
174
0
175
1
176
1
 91
33
178
0
145
0.0
301
CELL_VALUE
 90
4
  1
Weight
304
ACVALUE_END
170
5
140
0.125
171
1
172
0
173
0
174
0
175
1
176
1
 91
33
178
0
145
0.0
301
CELL_VALUE
 90
4
  1
3.466 lb.
304
ACVALUE_END
170
5
140
0.125
171
1
172
0
173
0
174
0
175
1
176
1
 91
33
178
0
145
0.0
301
CELL_VALUE
 90
4
  1
1,572 kg.
304
ACVALUE_END
170
5
140
0.125
171
1
172
0
173
0
174
0
175
1
176
1
 91
33
178
0
145
0.0
301
CELL_VALUE
 90
4
  1
Mounting Hole Thread
304
ACVALUE_END
170
5
140
0.125
171
1
172
0
173
0
174
0
175
1
176
1
 91
33
178
0
145
0.0
301
CELL_VALUE
 90
4
  1
.375-16 UNC - 2B in.
304
ACVALUE_END
170
5
140
0.125
171
1
172
0
173
0
174
0
175
1
176
1
 91
33
178
0
145
0.0
301
CELL_VALUE
 90
4
  1
 
304
ACVALUE_END
170
5
140
0.125
171
1
172
0
173
0
174
0
175
1
176
1
 91
33
178
0
145
0.0
301
CELL_VALUE
 90
4
  1
Mounting Hole Depth
304
ACVALUE_END
170
5
140
0.125
171
1
172
0
173
0
174
0
175
1
176
1
 91
33
178
0
145
0.0
301
CELL_VALUE
 90
4
  1
.62 in.
304
ACVALUE_END
170
5
140
0.125
171
1
172
0
173
0
174
0
175
1
176
1
 91
33
178
0
145
0.0
301
CELL_VALUE
 90
4
  1
15,7 mm
304
ACVALUE_END
170
5
140
0.125
171
1
172
0
173
0
174
0
175
1
176
1
 91
33
178
0
145
0.0
301
CELL_VALUE
 90
4
  1
Mounting Hole Quantity
304
ACVALUE_END
170
5
140
0.125
171
1
172
0
173
0
174
0
175
2
176
1
 91
33
178
0
145
0.0
301
CELL_VALUE
 90
4
  1
2
304
ACVALUE_END
170
5
140
0.125
171
1
172
0
173
1
174
0
175
1
176
1
 91
1
178
0
145
0.0
170
1
171
1
172
0
173
0
174
0
175
1
176
1
 91
33
178
0
145
0.0
301
CELL_VALUE
 90
4
  1
Includes integral cartridge(s)
304
ACVALUE_END
170
5
140
0.125
171
1
172
0
173
0
174
0
175
2
176
1
 91
33
178
0
145
0.0
301
CELL_VALUE
 90
4
  1
Yes (see Included Components)
304
ACVALUE_END
170
5
140
0.125
171
1
172
0
173
1
174
0
175
1
176
1
 91
1
178
0
145
0.0
170
1
  0
ACAD_TABLE
  5
296
100
AcDbEntity
  8
0
 62
2
  6
CONTINUOUS
100
AcDbBlockReference
  2
*T3
 10
0.52125
 20
1.959
 30
0.0
100
AcDbTable
342
       3A6
343
211
 11
1.0
 21
0.0
 31
0.0
 90
22
 91
5
 92
3
 93
16
 94
0
 95
0
 96
0
 41
0.05
141
0.34375
141
0.344
141
0.25
141
0.25
141
0.25
142
1.3
142
2.0
142
1.3
171
1
172
0
173
0
174
0
175
3
176
1
 91
33
178
0
145
0.0
301
CELL_VALUE
 90
4
  1
Port Headings
304
ACVALUE_END
170
5
140
0.145
171
1
172
0
173
1
174
0
175
1
176
1
 91
1
178
0
145
0.0
170
1
171
1
172
0
173
1
174
0
175
1
176
1
 91
1
178
0
145
0.0
170
1
171
1
172
0
173
0
174
0
175
1
176
1
 91
33
178
0
145
0.0
301
CELL_VALUE
 90
4
  1
Product
304
ACVALUE_END
170
5
140
0.145
171
1
172
0
173
0
174
0
175
1
176
1
 91
33
178
0
145
0.0
301
CELL_VALUE
 90
4
  1
Port
304
ACVALUE_END
170
5
140
0.145
171
1
172
0
173
0
174
0
175
1
176
1
 91
33
178
0
145
0.0
301
CELL_VALUE
 90
4
  1
Size
304
ACVALUE_END
170
5
140
0.145
171
1
172
0
173
0
174
0
175
1
176
1
 91
33
178
0
145
0.0
301
CELL_VALUE
 90
4
  1
B3C
304
ACVALUE_END
170
5
140
0.125
171
1
172
0
173
0
174
0
175
1
176
1
 91
33
178
0
145
0.0
301
CELL_VALUE
 90
4
  1
Ports 1 &  2
304
ACVALUE_END
170
5
140
0.125
171
1
172
0
173
0
174
0
175
1
176
1
 91
33
178
0
145
0.0
301
CELL_VALUE
 90
4
  1
1/2" NPTF
304
ACVALUE_END
170
5
140
0.125
171
1
172
0
173
0
174
0
175
1
176
1
 91
33
178
0
145
0.0
301
CELL_VALUE
 90
4
  1
B3C
304
ACVALUE_END
170
5
140
0.125
171
1
172
0
173
0
174
0
175
1
176
1
 91
33
178
0
145
0.0
301
CELL_VALUE
 90
4
  1
Port 3
304
ACVALUE_END
170
5
140
0.125
171
1
172
0
173
0
174
0
175
1
176
1
 91
33
178
0
145
0.0
301
CELL_VALUE
 90
4
  1
1/4" NPTF
304
ACVALUE_END
170
5
140
0.125
171
1
172
0
173
0
174
0
175
1
176
1
 91
33
178
0
145
0.0
301
CELL_VALUE
 90
4
  1
B3C
304
ACVALUE_END
170
5
140
0.125
171
1
172
0
173
0
174
0
175
1
176
1
 91
33
178
0
145
0.0
301
CELL_VALUE
 90
4
  1
Gage Port
304
ACVALUE_END
170
5
140
0.125
171
1
172
0
173
0
174
0
175
1
176
1
 91
33
178
0
145
0.0
301
CELL_VALUE
 90
4
  1
1/4" NPTF
304
ACVALUE_END
170
5
140
0.125
  0
MTEXT
  5
297
100
AcDbEntity
  8
0
100
AcDbMText
 62
2
  6
CONTINUOUS
  7
STANDARD
 71
1
 72
1
 10
0.52125
 20
5.75995
 30
0.0
 11
1.0
 21
0.0
 31
0.0
 44
0.6
  3
Notes\P \P1. Important: Carefully consider\P   the maximum system pressure. The\P   pressure rating of the manifold is\P   dependent on the manifold material,\P   with the port type/size a secondary\P   consideration. Manifolds\P   constructed of alu
  1
minum are not\P   rated for pressures higher than\P   3000 psi (210 bar), regardless of\P   the port type/size specified.
 40
0.1
 41
3.04
  0
LINE
  5
298
100
AcDbEntity
  8
0
100
AcDbLine
 62
7
  6
CONTINUOUS
 10
0.30125
 20
0.30125
 11
0.30125
 21
16.69875
  0
LINE
  5
299
100
AcDbEntity
  8
0
100
AcDbLine
 62
7
  6
CONTINUOUS
 10
0.30125
 20
0.30125
 11
21.69875
 21
0.30125
  0
LINE
  5
29A
100
AcDbEntity
  8
0
100
AcDbLine
 62
7
  6
CONTINUOUS
 10
0.30125
 20
16.69875
 11
21.69875
 21
16.69875
  0
LINE
  5
29B
100
AcDbEntity
  8
0
100
AcDbLine
 62
7
  6
CONTINUOUS
 10
21.69875
 20
0.30125
 11
21.69875
 21
16.69875
  0
LINE
  5
29C
100
AcDbEntity
  8
0
100
AcDbLine
 62
7
  6
CONTINUOUS
 10
8.7108543054
 20
9.3834429817
 11
8.6905076777
 21
9.3489455842
  0
LINE
  5
29D
100
AcDbEntity
  8
0
100
AcDbLine
 62
7
  6
CONTINUOUS
 10
9.5618745988
 20
10.5182332808
 11
8.7854181043
 21
9.7682338553
  0
LINE
  5
29E
100
AcDbEntity
  8
0
100
AcDbLine
 62
4
  6
CONTINUOUS
 10
9.4084402993
 20
6.8156583536
 11
9.3987810404
 21
6.8235726694
  0
LINE
  5
29F
100
AcDbEntity
  8
0
100
AcDbLine
 62
7
  6
CONTINUOUS
 10
8.7854181043
 20
6.7497154693
 11
8.7854181043
 21
9.7682338553
  0
LINE
  5
2A0
100
AcDbEntity
  8
0
100
AcDbLine
 62
4
  6
CONTINUOUS
 10
9.476055109
 20
6.8761692463
 11
9.4953736286
 21
6.8603406145
  0
LINE
  5
2A1
100
AcDbEntity
  8
0
100
AcDbLine
 62
4
  6
CONTINUOUS
 10
9.3987810404
 20
6.8235726694
 11
9.3891217815
 21
6.8387314293
  0
LINE
  5
2A2
100
AcDbEntity
  8
0
100
AcDbLine
 62
4
  6
CONTINUOUS
 10
9.4953736286
 20
6.8603406145
 11
9.5050328849
 21
6.8451818549
  0
LINE
  5
2A3
100
AcDbEntity
  8
0
100
AcDbLine
 62
7
  6
CONTINUOUS
 10
8.6297402216
 20
8.3394828065
 11
8.6218207415
 21
8.3585100702
  0
LINE
  5
2A4
100
AcDbEntity
  8
0
100
AcDbLine
 62
7
  6
CONTINUOUS
 10
8.7854181043
 20
6.7497154693
 11
12.6491216383
 21
6.4817667192
  0
LINE
  5
2A5
100
AcDbEntity
  8
0
100
AcDbLine
 62
4
  6
CONTINUOUS
 10
9.4470773332
 20
6.8854233058
 11
9.476055109
 21
6.8761692463
  0
LINE
  5
2A6
100
AcDbEntity
  8
0
100
AcDbLine
 62
4
  6
CONTINUOUS
 10
9.4470773332
 20
6.8129788662
 11
9.4084402993
 21
6.8156583536
  0
LINE
  5
2A7
100
AcDbEntity
  8
0
100
AcDbLine
 62
4
  6
CONTINUOUS
 10
11.2668816771
 20
6.7012638942
 11
11.2475631644
 21
6.7026036376
  0
LINE
  5
2A8
100
AcDbEntity
  8
0
100
AcDbLine
 62
4
  6
CONTINUOUS
 10
9.3891217815
 20
6.8387314293
 11
9.3891217815
 21
6.8532203172
  0
LINE
  5
2A9
100
AcDbEntity
  8
0
100
AcDbLine
 62
4
  6
CONTINUOUS
 10
9.4470773332
 20
6.8419566421
 11
9.4470773332
 21
6.8129788662
  0
LINE
  5
2AA
100
AcDbEntity
  8
0
100
AcDbLine
 62
4
  6
CONTINUOUS
 10
9.5050328849
 20
6.8451818549
 11
9.5050328849
 21
6.8306929669
  0
LINE
  5
2AB
100
AcDbEntity
  8
0
100
AcDbLine
 62
4
  6
CONTINUOUS
 10
11.199266869
 20
6.7566641049
 11
11.1702890932
 21
6.7659181644
  0
LINE
  5
2AC
100
AcDbEntity
  8
0
100
AcDbLine
 62
4
  6
CONTINUOUS
 10
9.4180995573
 20
6.8801884775
 11
9.4470773332
 21
6.8854233058
  0
LINE
  5
2AD
100
AcDbEntity
  8
0
100
AcDbLine
 62
4
  6
CONTINUOUS
 10
11.2475631644
 20
6.7026036376
 11
11.2379039012
 21
6.7105179538
  0
LINE
  5
2AE
100
AcDbEntity
  8
0
100
AcDbLine
 62
4
  6
CONTINUOUS
 10
11.2185853851
 20
6.7408354733
 11
11.199266869
 21
6.7566641049
  0
LINE
  5
2AF
100
AcDbEntity
  8
0
100
AcDbLine
 62
4
  6
CONTINUOUS
 10
11.2668816771
 20
6.759219446
 11
11.2765409403
 21
6.7513051298
  0
LINE
  5
2B0
100
AcDbEntity
  8
0
100
AcDbLine
 62
4
  6
CONTINUOUS
 10
11.1505566263
 20
7.5521704798
 11
11.175394721
 21
7.5504479521
  0
LINE
  5
2B1
100
AcDbEntity
  8
0
100
AcDbLine
 62
4
  6
CONTINUOUS
 10
11.191953449
 20
7.5989757087
 11
11.2167915411
 21
7.5972531811
  0
LINE
  5
2B2
100
AcDbEntity
  8
0
100
AcDbLine
 62
4
  6
CONTINUOUS
 10
11.2765409403
 20
9.4240220567
 11
11.2668816771
 21
9.4174474849
  0
LINE
  5
2B3
100
AcDbEntity
  8
0
100
AcDbLine
 62
4
  6
CONTINUOUS
 10
11.1505566263
 20
7.6763609162
 11
11.2167915411
 21
7.6717675093
  0
LINE
  5
2B4
100
AcDbEntity
  8
0
100
AcDbLine
 62
4
  6
CONTINUOUS
 10
11.1422772613
 20
7.7210917003
 11
11.2250709086
 21
7.7153499414
  0
LINE
  5
2B5
100
AcDbEntity
  8
0
100
AcDbLine
 62
4
  6
CONTINUOUS
 10
11.2499089973
 20
7.7136274141
 11
11.2581883648
 21
7.713053238
  0
LINE
  5
2B6
100
AcDbEntity
  8
0
100
AcDbLine
 62
4
  6
CONTINUOUS
 10
10.5511306338
 20
7.7814063372
 11
10.6670417373
 21
7.7733678749
  0
LINE
  5
2B7
100
AcDbEntity
  8
0
100
AcDbLine
 62
4
  6
CONTINUOUS
 10
10.6504830092
 20
7.8214326677
 11
10.5676893636
 21
7.8271744265
  0
LINE
  5
2B8
100
AcDbEntity
  8
0
100
AcDbLine
 62
4
  6
CONTINUOUS
 10
11.1505566263
 20
7.7950317973
 11
11.2581883648
 21
7.7875675109
  0
LINE
  5
2B9
100
AcDbEntity
  8
0
100
AcDbLine
 62
4
  6
CONTINUOUS
 10
11.1422772613
 20
7.8287234155
 11
11.2250709086
 21
7.8229816566
  0
LINE
  5
2BA
100
AcDbEntity
  8
0
100
AcDbLine
 62
4
  6
CONTINUOUS
 10
10.5511306338
 20
7.8862783301
 11
10.6670417373
 21
7.8782398677
  0
LINE
  5
2BB
100
AcDbEntity
  8
0
100
AcDbLine
 62
4
  6
CONTINUOUS
 10
10.6504830092
 20
7.9125056618
 11
10.5676893636
 21
7.9182474206
  0
LINE
  5
2BC
100
AcDbEntity
  8
0
100
AcDbLine
 62
4
  6
CONTINUOUS
 10
11.2250709086
 20
7.8726578754
 11
11.1505566263
 21
7.8778254584
  0
LINE
  5
2BD
100
AcDbEntity
  8
0
100
AcDbLine
 62
4
  6
CONTINUOUS
 10
11.2581883648
 20
7.7102934604
 11
11.2499089973
 21
7.7136274141
  0
LINE
  5
2BE
100
AcDbEntity
  8
0
100
AcDbLine
 62
4
  6
CONTINUOUS
 10
10.5676893636
 20
7.8271744265
 11
10.5511306338
 21
7.8448814995
  0
LINE
  5
2BF
100
AcDbEntity
  8
0
100
AcDbLine
 62
4
  6
CONTINUOUS
 10
10.5676893636
 20
7.9182474206
 11
10.5511306338
 21
7.9359544936
  0
LINE
  5
2C0
100
AcDbEntity
  8
0
100
AcDbLine
 62
4
  6
CONTINUOUS
 10
10.6504830092
 20
7.9704612135
 11
10.6670417373
 21
7.9527541406
  0
LINE
  5
2C1
100
AcDbEntity
  8
0
100
AcDbLine
 62
4
  6
CONTINUOUS
 10
11.2379039012
 20
6.7105179538
 11
11.2185853851
 21
6.7408354733
  0
LINE
  5
2C2
100
AcDbEntity
  8
0
100
AcDbLine
 62
4
  6
CONTINUOUS
 10
11.2765409403
 20
6.7513051298
 11
11.2862001966
 21
6.7361463702
  0
LINE
  5
2C3
100
AcDbEntity
  8
0
100
AcDbLine
 62
4
  6
CONTINUOUS
 10
10.6008068215
 20
7.6510110679
 11
10.5787285157
 21
7.6966988118
  0
LINE
  5
2C4
100
AcDbEntity
  8
0
100
AcDbLine
 62
4
  6
CONTINUOUS
 10
10.5511306338
 20
8.2478105562
 11
10.5511306338
 21
8.1981343651
  0
LINE
  5
2C5
100
AcDbEntity
  8
0
100
AcDbLine
 62
4
  6
CONTINUOUS
 10
10.5511306338
 20
7.7814063372
 11
10.5511306338
 21
7.7317301737
  0
LINE
  5
2C6
100
AcDbEntity
  8
0
100
AcDbLine
 62
4
  6
CONTINUOUS
 10
10.5511306338
 20
7.8448814995
 11
10.5511306338
 21
7.8862783301
  0
LINE
  5
2C7
100
AcDbEntity
  8
0
100
AcDbLine
 62
4
  6
CONTINUOUS
 10
10.5511306338
 20
7.9359544936
 11
10.5511306338
 21
7.9607926029
  0
LINE
  5
2C8
100
AcDbEntity
  8
0
100
AcDbLine
 62
4
  6
CONTINUOUS
 10
10.5511306338
 20
8.02426771
 11
10.5511306338
 21
8.0573851523
  0
LINE
  5
2C9
100
AcDbEntity
  8
0
100
AcDbLine
 62
4
  6
CONTINUOUS
 10
10.5511306338
 20
8.5099904347
 11
10.5511306338
 21
8.5513872514
  0
LINE
  5
2CA
100
AcDbEntity
  8
0
100
AcDbLine
 62
4
  6
CONTINUOUS
 10
10.5842480935
 20
8.4331794513
 11
10.5842480935
 21
8.3890228431
  0
LINE
  5
2CB
100
AcDbEntity
  8
0
100
AcDbLine
 62
4
  6
CONTINUOUS
 10
10.6008068215
 20
8.6141771153
 11
10.5787285157
 21
8.5715516394
  0
LINE
  5
2CC
100
AcDbEntity
  8
0
100
AcDbLine
 62
4
  6
CONTINUOUS
 10
11.1422772613
 20
7.9115170766
 11
11.2085121806
 21
7.9069236694
  0
LINE
  5
2CD
100
AcDbEntity
  8
0
100
AcDbLine
 62
4
  6
CONTINUOUS
 10
10.5676893636
 20
7.9762029723
 11
10.6504830092
 21
7.9704612135
  0
LINE
  5
2CE
100
AcDbEntity
  8
0
100
AcDbLine
 62
4
  6
CONTINUOUS
 10
12.14490835
 20
7.8714450832
 11
12.1352490902
 21
7.8721149552
  0
LINE
  5
2CF
100
AcDbEntity
  8
0
100
AcDbLine
 62
4
  6
CONTINUOUS
 10
12.2028638983
 20
7.8746702963
 11
12.193204642
 21
7.875340168
  0
LINE
  5
2D0
100
AcDbEntity
  8
0
100
AcDbLine
 62
4
  6
CONTINUOUS
 10
11.1505566263
 20
7.9606190642
 11
11.175394721
 21
7.9588965365
  0
LINE
  5
2D1
100
AcDbEntity
  8
0
100
AcDbLine
 62
4
  6
CONTINUOUS
 10
11.2167915411
 20
7.9919029325
 11
11.2002328131
 21
7.9930512842
  0
LINE
  5
2D2
100
AcDbEntity
  8
0
100
AcDbLine
 62
4
  6
CONTINUOUS
 10
10.5676893636
 20
8.0727955216
 11
10.6504830092
 21
8.0670537628
  0
LINE
  5
2D3
100
AcDbEntity
  8
0
100
AcDbLine
 62
4
  6
CONTINUOUS
 10
10.8226937912
 20
8.0551109792
 11
10.9054874368
 21
8.0493692203
  0
LINE
  5
2D4
100
AcDbEntity
  8
0
100
AcDbLine
 62
4
  6
CONTINUOUS
 10
11.1422772613
 20
8.035707513
 11
11.2250709086
 21
8.0299657541
  0
LINE
  5
2D5
100
AcDbEntity
  8
0
100
AcDbLine
 62
7
  6
CONTINUOUS
 10
8.7854181043
 20
8.2254819272
 11
8.7548988344
 21
8.2275984458
  0
LINE
  5
2D6
100
AcDbEntity
  8
0
100
AcDbLine
 62
4
  6
CONTINUOUS
 10
10.8144144263
 20
8.0888026112
 11
10.8558112491
 21
8.0859317318
  0
LINE
  5
2D7
100
AcDbEntity
  8
0
100
AcDbLine
 62
4
  6
CONTINUOUS
 10
11.2581883648
 20
8.0607865483
 11
11.1422772613
 21
8.0688250106
  0
LINE
  5
2D8
100
AcDbEntity
  8
0
100
AcDbLine
 62
4
  6
CONTINUOUS
 10
10.8806493412
 20
8.0869689957
 11
10.9054874368
 21
8.085246468
  0
LINE
  5
2D9
100
AcDbEntity
  8
0
100
AcDbLine
 62
4
  6
CONTINUOUS
 10
10.6504830092
 20
8.0670537628
 11
10.6670417373
 21
8.04934669
  0
LINE
  5
2DA
100
AcDbEntity
  8
0
100
AcDbLine
 62
4
  6
CONTINUOUS
 10
11.1422772613
 20
7.5610239887
 11
11.1505566263
 21
7.5521704798
  0
LINE
  5
2DB
100
AcDbEntity
  8
0
100
AcDbLine
 62
4
  6
CONTINUOUS
 10
11.2167915411
 20
7.5972531811
 11
11.2250709086
 21
7.5883996721
  0
LINE
  5
2DC
100
AcDbEntity
  8
0
100
AcDbLine
 62
4
  6
CONTINUOUS
 10
10.8061350614
 20
8.0976561477
 11
10.8144144263
 21
8.0888026112
  0
LINE
  5
2DD
100
AcDbEntity
  8
0
100
AcDbLine
 62
4
  6
CONTINUOUS
 10
11.2167915411
 20
7.6717675093
 11
11.2250709086
 21
7.6629140002
  0
LINE
  5
2DE
100
AcDbEntity
  8
0
100
AcDbLine
 62
4
  6
CONTINUOUS
 10
10.6173655531
 20
7.7436954876
 11
10.6173655531
 21
7.77681293
  0
LINE
  5
2DF
100
AcDbEntity
  8
0
100
AcDbLine
 62
4
  6
CONTINUOUS
 10
10.6173655531
 20
8.210099679
 11
10.6173655531
 21
8.243217149
  0
LINE
  5
2E0
100
AcDbEntity
  8
0
100
AcDbLine
 62
4
  6
CONTINUOUS
 10
10.6670417373
 20
8.5433487891
 11
10.6670417373
 21
8.5019519724
  0
LINE
  5
2E1
100
AcDbEntity
  8
0
100
AcDbLine
 62
4
  6
CONTINUOUS
 10
10.6670417373
 20
8.3391244762
 11
10.6670417373
 21
8.2728895639
  0
LINE
  5
2E2
100
AcDbEntity
  8
0
100
AcDbLine
 62
4
  6
CONTINUOUS
 10
10.6670417373
 20
8.2397720939
 11
10.6670417373
 21
8.1900959028
  0
LINE
  5
2E3
100
AcDbEntity
  8
0
100
AcDbLine
 62
4
  6
CONTINUOUS
 10
10.6670417373
 20
8.04934669
 11
10.6670417373
 21
8.0162292476
  0
LINE
  5
2E4
100
AcDbEntity
  8
0
100
AcDbLine
 62
4
  6
CONTINUOUS
 10
10.6670417373
 20
7.9527541406
 11
10.6670417373
 21
7.9279160312
  0
LINE
  5
2E5
100
AcDbEntity
  8
0
100
AcDbLine
 62
4
  6
CONTINUOUS
 10
10.6670417373
 20
7.8782398677
 11
10.6670417373
 21
7.8368430372
  0
LINE
  5
2E6
100
AcDbEntity
  8
0
100
AcDbLine
 62
4
  6
CONTINUOUS
 10
10.6670417373
 20
7.7733678749
 11
10.6670417373
 21
7.7236917114
  0
LINE
  5
2E7
100
AcDbEntity
  8
0
100
AcDbLine
 62
4
  6
CONTINUOUS
 10
10.8061350614
 20
8.1390529783
 11
10.8061350614
 21
8.0976561477
  0
LINE
  5
2E8
100
AcDbEntity
  8
0
100
AcDbLine
 62
4
  6
CONTINUOUS
 10
10.8061350614
 20
8.0065831398
 11
10.8061350614
 21
8.039700596
  0
LINE
  5
2E9
100
AcDbEntity
  8
0
100
AcDbLine
 62
4
  6
CONTINUOUS
 10
10.8061350614
 20
8.1887291625
 11
10.8061350614
 21
8.2301259861
  0
LINE
  5
2EA
100
AcDbEntity
  8
0
100
AcDbLine
 62
4
  6
CONTINUOUS
 10
9.3891217815
 20
6.8532203172
 11
9.3987810404
 21
6.8670393332
  0
LINE
  5
2EB
100
AcDbEntity
  8
0
100
AcDbLine
 62
4
  6
CONTINUOUS
 10
11.2862001966
 20
9.4378410729
 11
11.2765409403
 21
9.4240220567
  0
LINE
  5
2EC
100
AcDbEntity
  8
0
100
AcDbLine
 62
4
  6
CONTINUOUS
 10
9.5050328849
 20
6.8306929669
 11
9.4953736286
 21
6.8168739507
  0
LINE
  5
2ED
100
AcDbEntity
  8
0
100
AcDbLine
 62
7
  6
CONTINUOUS
 10
12.0824108411
 20
9.9918844595
 11
12.0813378787
 21
9.9908674779
  0
LINE
  5
2EE
100
AcDbEntity
  8
0
100
AcDbLine
 62
4
  6
CONTINUOUS
 10
10.6670417373
 20
8.5019519724
 11
10.6504830092
 21
8.486541596
  0
LINE
  5
2EF
100
AcDbEntity
  8
0
100
AcDbLine
 62
4
  6
CONTINUOUS
 10
11.2250709086
 20
8.1845139104
 11
11.1422772613
 21
8.16541756
  0
LINE
  5
2F0
100
AcDbEntity
  8
0
100
AcDbLine
 62
4
  6
CONTINUOUS
 10
11.1505566263
 20
8.1179269982
 11
11.2167915411
 21
8.1133335913
  0
LINE
  5
2F1
100
AcDbEntity
  8
0
100
AcDbLine
 62
4
  6
CONTINUOUS
 10
10.847531885
 20
8.1692995549
 11
10.8226937912
 21
8.1710220826
  0
LINE
  5
2F2
100
AcDbEntity
  8
0
100
AcDbLine
 62
4
  6
CONTINUOUS
 10
10.9054874368
 20
8.1735596878
 11
10.8806493412
 21
8.1752822156
  0
LINE
  5
2F3
100
AcDbEntity
  8
0
100
AcDbLine
 62
4
  6
CONTINUOUS
 10
10.5511306338
 20
8.2478105562
 11
10.6670417373
 21
8.2397720939
  0
LINE
  5
2F4
100
AcDbEntity
  8
0
100
AcDbLine
 62
4
  6
CONTINUOUS
 10
10.8061350614
 20
8.2301259861
 11
10.9220461648
 21
8.2220875238
  0
LINE
  5
2F5
100
AcDbEntity
  8
0
100
AcDbLine
 62
7
  6
CONTINUOUS
 10
8.7854181043
 20
8.3722759929
 11
8.6237655366
 21
8.3834866365
  0
LINE
  5
2F6
100
AcDbEntity
  8
0
100
AcDbLine
 62
4
  6
CONTINUOUS
 10
11.2167915411
 20
8.2182055565
 11
11.1422772613
 21
8.2233731393
  0
LINE
  5
2F7
100
AcDbEntity
  8
0
100
AcDbLine
 62
7
  6
CONTINUOUS
 10
8.7854181043
 20
8.4114939357
 11
8.6165415244
 21
8.4232055663
  0
LINE
  5
2F8
100
AcDbEntity
  8
0
100
AcDbLine
 62
4
  6
CONTINUOUS
 10
10.5511306338
 20
8.3140454685
 11
10.6670417373
 21
8.3060070062
  0
LINE
  5
2F9
100
AcDbEntity
  8
0
100
AcDbLine
 62
4
  6
CONTINUOUS
 10
11.1422772613
 20
8.2730493305
 11
11.2581883648
 21
8.2650108681
  0
LINE
  5
2FA
100
AcDbEntity
  8
0
100
AcDbLine
 62
4
  6
CONTINUOUS
 10
10.5511306338
 20
8.446515307
 11
10.6670417373
 21
8.4053593885
  0
LINE
  5
2FB
100
AcDbEntity
  8
0
100
AcDbLine
 62
4
  6
CONTINUOUS
 10
11.1146793795
 20
8.1756108678
 11
11.2250709086
 21
8.1348377469
  0
LINE
  5
2FC
100
AcDbEntity
  8
0
100
AcDbLine
 62
4
  6
CONTINUOUS
 10
10.9054874368
 20
8.0493692203
 11
10.9220461648
 21
8.0316621337
  0
LINE
  5
2FD
100
AcDbEntity
  8
0
100
AcDbLine
 62
4
  6
CONTINUOUS
 10
10.8226937912
 20
8.1710220826
 11
10.8061350614
 21
8.1887291625
  0
LINE
  5
2FE
100
AcDbEntity
  8
0
100
AcDbLine
 62
4
  6
CONTINUOUS
 10
10.5676893636
 20
8.4922833548
 11
10.5511306338
 21
8.5099904347
  0
LINE
  5
2FF
100
AcDbEntity
  8
0
100
AcDbLine
 62
4
  6
CONTINUOUS
 10
10.8806493412
 20
8.1752822156
 11
10.8640906131
 21
8.1929892954
  0
LINE
  5
300
100
AcDbEntity
  8
0
100
AcDbLine
 62
4
  6
CONTINUOUS
 10
10.8723699806
 20
8.1013421149
 11
10.8806493412
 21
8.0869689957
  0
LINE
  5
301
100
AcDbEntity
  8
0
100
AcDbLine
 62
4
  6
CONTINUOUS
 10
10.6228851291
 20
8.5684893678
 11
10.6008068215
 21
8.6141771153
  0
LINE
  5
302
100
AcDbEntity
  8
0
100
AcDbLine
 62
4
  6
CONTINUOUS
 10
10.8640906131
 20
8.1847099313
 11
10.8640906131
 21
8.226106755
  0
LINE
  5
303
100
AcDbEntity
  8
0
100
AcDbLine
 62
4
  6
CONTINUOUS
 10
10.8723699806
 20
8.1013421149
 11
10.8723699806
 21
8.1179008429
  0
LINE
  5
304
100
AcDbEntity
  8
0
100
AcDbLine
 62
4
  6
CONTINUOUS
 10
10.9220461648
 20
8.2220875238
 11
10.9220461648
 21
8.19724943
  0
LINE
  5
305
100
AcDbEntity
  8
0
100
AcDbLine
 62
4
  6
CONTINUOUS
 10
10.9220461648
 20
8.0316621337
 11
10.9220461648
 21
7.9985446775
  0
LINE
  5
306
100
AcDbEntity
  8
0
100
AcDbLine
 62
4
  6
CONTINUOUS
 10
10.9220461648
 20
8.0978970598
 11
10.9220461648
 21
8.1310145159
  0
LINE
  5
307
100
AcDbEntity
  8
0
100
AcDbLine
 62
4
  6
CONTINUOUS
 10
10.9220461648
 20
8.19724943
 11
10.9192863734
 21
8.1891614564
  0
LINE
  5
308
100
AcDbEntity
  8
0
100
AcDbLine
 62
4
  6
CONTINUOUS
 10
11.1505566263
 20
8.636767186
 11
11.1422772613
 21
8.629061997
  0
LINE
  5
309
100
AcDbEntity
  8
0
100
AcDbLine
 62
4
  6
CONTINUOUS
 10
10.5511306338
 20
8.0573851523
 11
10.5676893636
 21
8.0727955216
  0
LINE
  5
30A
100
AcDbEntity
  8
0
100
AcDbLine
 62
4
  6
CONTINUOUS
 10
10.6670417373
 20
8.4053593885
 11
10.5511306338
 21
8.3802803808
  0
LINE
  5
30B
100
AcDbEntity
  8
0
100
AcDbLine
 62
4
  6
CONTINUOUS
 10
11.1422772613
 20
8.3972397945
 11
11.2581883648
 21
8.3892013321
  0
LINE
  5
30C
100
AcDbEntity
  8
0
100
AcDbLine
 62
4
  6
CONTINUOUS
 10
10.6504830092
 20
8.486541596
 11
10.5676893636
 21
8.4922833548
  0
LINE
  5
30D
100
AcDbEntity
  8
0
100
AcDbLine
 62
4
  6
CONTINUOUS
 10
11.1422772613
 20
8.4551953462
 11
11.2581883648
 21
8.4471568839
  0
LINE
  5
30E
100
AcDbEntity
  8
0
100
AcDbLine
 62
4
  6
CONTINUOUS
 10
11.1588359912
 20
8.4871644505
 11
11.2581883648
 21
8.48027434
  0
LINE
  5
30F
100
AcDbEntity
  8
0
100
AcDbLine
 62
4
  6
CONTINUOUS
 10
10.5511306338
 20
8.5513872514
 11
10.6670417373
 21
8.5433487891
  0
LINE
  5
310
100
AcDbEntity
  8
0
100
AcDbLine
 62
4
  6
CONTINUOUS
 10
11.175394721
 20
7.9588965365
 11
11.183674085
 21
7.9417636395
  0
LINE
  5
311
100
AcDbEntity
  8
0
100
AcDbLine
 62
4
  6
CONTINUOUS
 10
11.2167915411
 20
8.1133335913
 11
11.2250709086
 21
8.096200694
  0
LINE
  5
312
100
AcDbEntity
  8
0
100
AcDbLine
 62
4
  6
CONTINUOUS
 10
11.1146793795
 20
8.192169589
 11
11.1146793795
 21
8.1756108678
  0
LINE
  5
313
100
AcDbEntity
  8
0
100
AcDbLine
 62
4
  6
CONTINUOUS
 10
11.1422772613
 20
8.629061997
 11
11.1422772613
 21
8.5959445383
  0
LINE
  5
314
100
AcDbEntity
  8
0
100
AcDbLine
 62
4
  6
CONTINUOUS
 10
11.1422772613
 20
8.529709626
 11
11.1422772613
 21
8.5048715235
  0
LINE
  5
315
100
AcDbEntity
  8
0
100
AcDbLine
 62
4
  6
CONTINUOUS
 10
11.1422772613
 20
7.8701202461
 11
11.1422772613
 21
7.8287234155
  0
LINE
  5
316
100
AcDbEntity
  8
0
100
AcDbLine
 62
4
  6
CONTINUOUS
 10
11.1422772613
 20
7.594141431
 11
11.1422772613
 21
7.5610239887
  0
LINE
  5
317
100
AcDbEntity
  8
0
100
AcDbLine
 62
4
  6
CONTINUOUS
 10
11.1422772613
 20
7.6355382063
 11
11.1422772613
 21
7.6686557592
  0
LINE
  5
318
100
AcDbEntity
  8
0
100
AcDbLine
 62
4
  6
CONTINUOUS
 10
11.1422772613
 20
7.7707678638
 11
11.1422772613
 21
7.787326585
  0
LINE
  5
319
100
AcDbEntity
  8
0
100
AcDbLine
 62
4
  6
CONTINUOUS
 10
11.1422772613
 20
7.9115170766
 11
11.1422772613
 21
7.944634519
  0
LINE
  5
31A
100
AcDbEntity
  8
0
100
AcDbLine
 62
4
  6
CONTINUOUS
 10
11.1422772613
 20
8.0688250106
 11
11.1422772613
 21
8.101942453
  0
LINE
  5
31B
100
AcDbEntity
  8
0
100
AcDbLine
 62
4
  6
CONTINUOUS
 10
11.1702890932
 20
9.4821017551
 11
11.1702890932
 21
9.4241462034
  0
LINE
  5
31C
100
AcDbEntity
  8
0
100
AcDbLine
 62
4
  6
CONTINUOUS
 10
11.1702890932
 20
6.7659181644
 11
11.1702890932
 21
6.7079626127
  0
LINE
  5
31D
100
AcDbEntity
  8
0
100
AcDbLine
 62
4
  6
CONTINUOUS
 10
11.183674085
 20
7.9417636395
 11
11.183674085
 21
7.9086461972
  0
LINE
  5
31E
100
AcDbEntity
  8
0
100
AcDbLine
 62
4
  6
CONTINUOUS
 10
11.2250709086
 20
8.2673075715
 11
11.2250709086
 21
8.225910741
  0
LINE
  5
31F
100
AcDbEntity
  8
0
100
AcDbLine
 62
4
  6
CONTINUOUS
 10
11.2250709086
 20
8.096200694
 11
11.2250709086
 21
8.0630832517
  0
LINE
  5
320
100
AcDbEntity
  8
0
100
AcDbLine
 62
4
  6
CONTINUOUS
 10
11.2250709086
 20
8.0299657541
 11
11.2250709086
 21
7.9968483118
  0
LINE
  5
321
100
AcDbEntity
  8
0
100
AcDbLine
 62
4
  6
CONTINUOUS
 10
11.2250709086
 20
7.6629140002
 11
11.2250709086
 21
7.6297964474
  0
LINE
  5
322
100
AcDbEntity
  8
0
100
AcDbLine
 62
4
  6
CONTINUOUS
 10
11.2250709086
 20
7.5883996721
 11
11.2250709086
 21
7.5552822298
  0
LINE
  5
323
100
AcDbEntity
  8
0
100
AcDbLine
 62
4
  6
CONTINUOUS
 10
11.2250709086
 20
7.9140546507
 11
11.2250709086
 21
7.9554514812
  0
LINE
  5
324
100
AcDbEntity
  8
0
100
AcDbLine
 62
4
  6
CONTINUOUS
 10
10.6228851291
 20
7.6936365402
 11
10.6008068215
 21
7.6510110679
  0
LINE
  5
325
100
AcDbEntity
  8
0
100
AcDbLine
 62
4
  6
CONTINUOUS
 10
10.9192863734
 20
8.1891614564
 11
10.9054874368
 21
8.1735596878
  0
LINE
  5
326
100
AcDbEntity
  8
0
100
AcDbLine
 62
4
  6
CONTINUOUS
 10
11.175394721
 20
8.5770891066
 11
11.2250709086
 21
8.631599603
  0
LINE
  5
327
100
AcDbEntity
  8
0
100
AcDbLine
 62
4
  6
CONTINUOUS
 10
11.1588359912
 20
8.5451200022
 11
11.1422772613
 21
8.529709626
  0
LINE
  5
328
100
AcDbEntity
  8
0
100
AcDbLine
 62
4
  6
CONTINUOUS
 10
10.5511306338
 20
7.9607926029
 11
10.5676893636
 21
7.9762029723
  0
LINE
  5
329
100
AcDbEntity
  8
0
100
AcDbLine
 62
4
  6
CONTINUOUS
 10
11.2581883648
 20
8.5796267119
 11
11.2499089973
 21
8.571921524
  0
LINE
  5
32A
100
AcDbEntity
  8
0
100
AcDbLine
 62
4
  6
CONTINUOUS
 10
10.8640906131
 20
8.1847099313
 11
10.847531885
 21
8.1692995549
  0
LINE
  5
32B
100
AcDbEntity
  8
0
100
AcDbLine
 62
4
  6
CONTINUOUS
 10
10.6670417373
 20
7.9279160312
 11
10.6504830092
 21
7.9125056618
  0
LINE
  5
32C
100
AcDbEntity
  8
0
100
AcDbLine
 62
4
  6
CONTINUOUS
 10
10.8061350614
 20
8.039700596
 11
10.8226937912
 21
8.0551109792
  0
LINE
  5
32D
100
AcDbEntity
  8
0
100
AcDbLine
 62
4
  6
CONTINUOUS
 10
10.8558112491
 20
8.0859317318
 11
10.8723699806
 21
8.1013421149
  0
LINE
  5
32E
100
AcDbEntity
  8
0
100
AcDbLine
 62
4
  6
CONTINUOUS
 10
11.2581883648
 20
8.4471568839
 11
11.1422772613
 21
8.3972397945
  0
LINE
  5
32F
100
AcDbEntity
  8
0
100
AcDbLine
 62
4
  6
CONTINUOUS
 10
11.2581883648
 20
8.5382298917
 11
11.1588359912
 21
8.5451200022
  0
LINE
  5
330
100
AcDbEntity
  8
0
100
AcDbLine
 62
4
  6
CONTINUOUS
 10
11.1588359912
 20
8.5782374584
 11
11.175394721
 21
8.5770891066
  0
LINE
  5
331
100
AcDbEntity
  8
0
100
AcDbLine
 62
4
  6
CONTINUOUS
 10
11.2250709086
 20
8.631599603
 11
11.2416296367
 21
8.6304512513
  0
LINE
  5
332
100
AcDbEntity
  8
0
100
AcDbLine
 62
4
  6
CONTINUOUS
 10
9.8189588431
 20
8.7934168619
 11
9.7030477397
 21
8.8014553242
  0
LINE
  5
333
100
AcDbEntity
  8
0
100
AcDbLine
 62
4
  6
CONTINUOUS
 10
12.1352490902
 20
7.8721149552
 11
12.1159305733
 21
7.8879435868
  0
LINE
  5
334
100
AcDbEntity
  8
0
100
AcDbLine
 62
4
  6
CONTINUOUS
 10
11.1422772613
 20
8.5048715235
 11
11.1588359912
 21
8.4871644505
  0
LINE
  5
335
100
AcDbEntity
  8
0
100
AcDbLine
 62
4
  6
CONTINUOUS
 10
11.1422772613
 20
8.5959445383
 11
11.1588359912
 21
8.5782374584
  0
LINE
  5
336
100
AcDbEntity
  8
0
100
AcDbLine
 62
4
  6
CONTINUOUS
 10
11.2581883648
 20
8.6127441698
 11
11.2581883648
 21
8.5796267119
  0
LINE
  5
337
100
AcDbEntity
  8
0
100
AcDbLine
 62
4
  6
CONTINUOUS
 10
11.2581883648
 20
7.713053238
 11
11.2581883648
 21
7.7102934604
  0
LINE
  5
338
100
AcDbEntity
  8
0
100
AcDbLine
 62
4
  6
CONTINUOUS
 10
11.2862001966
 20
9.4523299609
 11
11.2862001966
 21
9.4378410729
  0
LINE
  5
339
100
AcDbEntity
  8
0
100
AcDbLine
 62
4
  6
CONTINUOUS
 10
11.2862001966
 20
6.7361463702
 11
11.2862001966
 21
6.7216574822
  0
LINE
  5
33A
100
AcDbEntity
  8
0
100
AcDbLine
 62
4
  6
CONTINUOUS
 10
11.180914297
 20
7.5583445012
 11
11.186433873
 21
7.5910791596
  0
LINE
  5
33B
100
AcDbEntity
  8
0
100
AcDbLine
 62
4
  6
CONTINUOUS
 10
11.1422772613
 20
8.101942453
 11
11.1505566263
 21
8.1179269982
  0
LINE
  5
33C
100
AcDbEntity
  8
0
100
AcDbLine
 62
4
  6
CONTINUOUS
 10
11.1422772613
 20
7.944634519
 11
11.1505566263
 21
7.9606190642
  0
LINE
  5
33D
100
AcDbEntity
  8
0
100
AcDbLine
 62
7
  6
CONTINUOUS
 10
12.6491216383
 20
9.5002851052
 11
13.4255781329
 21
10.2502845307
  0
LINE
  5
33E
100
AcDbEntity
  8
0
100
AcDbLine
 62
4
  6
CONTINUOUS
 10
10.6670417373
 20
7.8368430372
 11
10.6504830092
 21
7.8214326677
  0
LINE
  5
33F
100
AcDbEntity
  8
0
100
AcDbLine
 62
4
  6
CONTINUOUS
 10
11.2250709086
 20
8.225910741
 11
11.2167915411
 21
8.2182055565
  0
LINE
  5
340
100
AcDbEntity
  8
0
100
AcDbLine
 62
4
  6
CONTINUOUS
 10
10.9054874368
 20
8.085246468
 11
10.9220461648
 21
8.0978970598
  0
LINE
  5
341
100
AcDbEntity
  8
0
100
AcDbLine
 62
7
  6
CONTINUOUS
 10
8.7854181043
 20
8.9766004102
 11
8.6165415244
 21
8.9883120408
  0
LINE
  5
342
100
AcDbEntity
  8
0
100
AcDbLine
 62
7
  6
CONTINUOUS
 10
8.7854181043
 20
9.0307760476
 11
8.6237655366
 21
9.0419866913
  0
LINE
  5
343
100
AcDbEntity
  8
0
100
AcDbLine
 62
4
  6
CONTINUOUS
 10
12.193204642
 20
7.875340168
 11
12.1835453856
 21
7.8832544836
  0
LINE
  5
344
100
AcDbEntity
  8
0
100
AcDbLine
 62
4
  6
CONTINUOUS
 10
11.2416296367
 20
8.6304512513
 11
11.2581883648
 21
8.6127441698
  0
LINE
  5
345
100
AcDbEntity
  8
0
100
AcDbLine
 62
4
  6
CONTINUOUS
 10
11.1505566263
 20
7.8778254584
 11
11.1422772613
 21
7.8701202461
  0
LINE
  5
346
100
AcDbEntity
  8
0
100
AcDbLine
 62
4
  6
CONTINUOUS
 10
11.1422772613
 20
7.787326585
 11
11.1505566263
 21
7.7950317973
  0
LINE
  5
347
100
AcDbEntity
  8
0
100
AcDbLine
 62
4
  6
CONTINUOUS
 10
9.3987810404
 20
6.8670393332
 11
9.4180995573
 21
6.8801884775
  0
LINE
  5
348
100
AcDbEntity
  8
0
100
AcDbLine
 62
4
  6
CONTINUOUS
 10
9.4953736286
 20
6.8168739507
 11
9.4857143654
 21
6.8102993789
  0
LINE
  5
349
100
AcDbEntity
  8
0
100
AcDbLine
 62
4
  6
CONTINUOUS
 10
11.2250709086
 20
7.9968483118
 11
11.2167915411
 21
7.9919029325
  0
LINE
  5
34A
100
AcDbEntity
  8
0
100
AcDbLine
 62
4
  6
CONTINUOUS
 10
11.2085121806
 20
7.9069236694
 11
11.2250709086
 21
7.9140546507
  0
LINE
  5
34B
100
AcDbEntity
  8
0
100
AcDbLine
 62
4
  6
CONTINUOUS
 10
12.1159305733
 20
7.8879435868
 11
12.1062713144
 21
7.9031023466
  0
LINE
  5
34C
100
AcDbEntity
  8
0
100
AcDbLine
 62
4
  6
CONTINUOUS
 10
11.186433873
 20
7.5910791596
 11
11.191953449
 21
7.5989757087
  0
LINE
  5
34D
100
AcDbEntity
  8
0
100
AcDbLine
 62
4
  6
CONTINUOUS
 10
11.175394721
 20
7.5504479521
 11
11.180914297
 21
7.5583445012
  0
LINE
  5
34E
100
AcDbEntity
  8
0
100
AcDbLine
 62
4
  6
CONTINUOUS
 10
11.1422772613
 20
7.6686557592
 11
11.1505566263
 21
7.6763609162
  0
LINE
  5
34F
100
AcDbEntity
  8
0
100
AcDbLine
 62
4
  6
CONTINUOUS
 10
11.1505566263
 20
7.6018465881
 11
11.1422772613
 21
7.594141431
  0
LINE
  5
350
100
AcDbEntity
  8
0
100
AcDbLine
 62
4
  6
CONTINUOUS
 10
11.2250709086
 20
7.5552822298
 11
11.2167915411
 21
7.5475770729
  0
LINE
  5
351
100
AcDbEntity
  8
0
100
AcDbLine
 62
7
  6
CONTINUOUS
 10
8.7854181043
 20
9.4490884565
 11
8.7548988344
 21
9.4512049751
  0
LINE
  5
352
100
AcDbEntity
  8
0
100
AcDbLine
 62
7
  6
CONTINUOUS
 10
8.7854181043
 20
9.4640461511
 11
8.7693468587
 21
9.4651606958
  0
LINE
  5
353
100
AcDbEntity
  8
0
100
AcDbLine
 62
4
  6
CONTINUOUS
 10
11.2475631644
 20
9.4187872283
 11
11.2379039012
 21
9.4267015445
  0
LINE
  5
354
100
AcDbEntity
  8
0
100
AcDbLine
 62
4
  6
CONTINUOUS
 10
12.1835453856
 20
7.8832544836
 11
12.1738861224
 21
7.8984132437
  0
LINE
  5
355
100
AcDbEntity
  8
0
100
AcDbLine
 62
4
  6
CONTINUOUS
 10
11.2379039012
 20
9.4267015445
 11
11.2185853851
 21
9.457019064
  0
LINE
  5
356
100
AcDbEntity
  8
0
100
AcDbLine
 62
4
  6
CONTINUOUS
 10
12.2125231615
 20
7.9247115318
 11
12.2221824178
 21
7.9095527722
  0
LINE
  5
357
100
AcDbEntity
  8
0
100
AcDbLine
 62
4
  6
CONTINUOUS
 10
11.2765409403
 20
9.4674887205
 11
11.2862001966
 21
9.4523299609
  0
LINE
  5
358
100
AcDbEntity
  8
0
100
AcDbLine
 62
7
  6
CONTINUOUS
 10
12.9239872468
 20
8.8375301718
 11
12.9254591411
 21
8.8389258299
  0
LINE
  5
359
100
AcDbEntity
  8
0
100
AcDbLine
 62
4
  6
CONTINUOUS
 10
11.2668816771
 20
9.4174474849
 11
11.2475631644
 21
9.4187872283
  0
LINE
  5
35A
100
AcDbEntity
  8
0
100
AcDbLine
 62
4
  6
CONTINUOUS
 10
11.199266869
 20
9.4728476955
 11
11.1702890932
 21
9.4821017551
  0
LINE
  5
35B
100
AcDbEntity
  8
0
100
AcDbLine
 62
4
  6
CONTINUOUS
 10
11.2185853851
 20
9.457019064
 11
11.199266869
 21
9.4728476955
  0
LINE
  5
35C
100
AcDbEntity
  8
0
100
AcDbLine
 62
4
  6
CONTINUOUS
 10
11.2668816771
 20
9.4754030366
 11
11.2765409403
 21
9.4674887205
  0
LINE
  5
35D
100
AcDbEntity
  8
0
100
AcDbLine
 62
4
  6
CONTINUOUS
 10
12.1062713144
 20
7.9031023466
 11
12.1062713144
 21
7.9175912345
  0
LINE
  5
35E
100
AcDbEntity
  8
0
100
AcDbLine
 62
4
  6
CONTINUOUS
 10
12.1738861224
 20
7.9129021317
 11
12.1738861224
 21
7.8984132437
  0
LINE
  5
35F
100
AcDbEntity
  8
0
100
AcDbLine
 62
4
  6
CONTINUOUS
 10
12.2221824178
 20
7.9095527722
 11
12.2221824178
 21
7.8950638843
  0
LINE
  5
360
100
AcDbEntity
  8
0
100
AcDbLine
 62
4
  6
CONTINUOUS
 10
12.1062713144
 20
7.9175912345
 11
12.1159305733
 21
7.9314102506
  0
LINE
  5
361
100
AcDbEntity
  8
0
100
AcDbLine
 62
4
  6
CONTINUOUS
 10
11.2862001966
 20
6.7216574822
 11
11.2765409403
 21
6.707838466
  0
LINE
  5
362
100
AcDbEntity
  8
0
100
AcDbLine
 62
4
  6
CONTINUOUS
 10
12.1159305733
 20
7.9314102506
 11
12.1255898322
 21
7.9379848227
  0
LINE
  5
363
100
AcDbEntity
  8
0
100
AcDbLine
 62
4
  6
CONTINUOUS
 10
12.1642268661
 20
7.8845942275
 11
12.14490835
 21
7.8714450832
  0
LINE
  5
364
100
AcDbEntity
  8
0
100
AcDbLine
 62
4
  6
CONTINUOUS
 10
12.2125231615
 20
7.8812448681
 11
12.2028638983
 21
7.8746702963
  0
LINE
  5
365
100
AcDbEntity
  8
0
100
AcDbLine
 62
7
  6
CONTINUOUS
 10
8.7854181043
 20
9.7682338553
 11
12.6491216383
 21
9.5002851052
  0
LINE
  5
366
100
AcDbEntity
  8
0
100
AcDbLine
 62
4
  6
CONTINUOUS
 10
12.1738861224
 20
7.8984132437
 11
12.1642268661
 21
7.8845942275
  0
LINE
  5
367
100
AcDbEntity
  8
0
100
AcDbLine
 62
4
  6
CONTINUOUS
 10
12.2221824178
 20
7.8950638843
 11
12.2125231615
 21
7.8812448681
  0
LINE
  5
368
100
AcDbEntity
  8
0
100
AcDbLine
 62
7
  6
CONTINUOUS
 10
12.6491216383
 20
6.4817667192
 11
12.6491216383
 21
9.5002851052
  0
LINE
  5
369
100
AcDbEntity
  8
0
100
AcDbLine
 62
4
  6
CONTINUOUS
 10
11.2765409403
 20
6.707838466
 11
11.2668816771
 21
6.7012638942
  0
LINE
  5
36A
100
AcDbEntity
  8
0
100
AcDbLine
 62
7
  6
CONTINUOUS
 10
13.4255781329
 20
10.2502845307
 11
9.5618745988
 21
10.5182332808
  0
LINE
  5
36B
100
AcDbEntity
  8
0
100
AcDbLine
 62
7
  6
CONTINUOUS
 10
13.4255781329
 20
7.2317661447
 11
13.4255781329
 21
10.2502845307
  0
LINE
  5
36C
100
AcDbEntity
  8
0
100
AcDbLine
 62
7
  6
CONTINUOUS
 10
12.6491216383
 20
6.4817667192
 11
13.4255781329
 21
7.2317661447
  0
ARC
  5
36D
100
AcDbEntity
  8
0
100
AcDbCircle
 62
7
  6
CONTINUOUS
 10
10.9260404018
 20
8.7048025878
 40
2.3268353346
100
AcDbArc
 50
171.6678728683
 51
173.0014994771
  0
ARC
  5
36E
100
AcDbEntity
  8
0
100
AcDbCircle
 62
7
  6
CONTINUOUS
 10
9.5629315931
 20
8.5748169907
 40
0.9584571905
100
AcDbArc
 50
189.1014340788
 51
191.5149294916
  0
ARC
  5
36F
100
AcDbEntity
  8
0
100
AcDbCircle
 62
7
  6
CONTINUOUS
 10
9.378592017
 20
8.9883684543
 40
0.7758589224
100
AcDbArc
 50
149.406521743
 51
152.3502505567
  0
ARC
  5
370
100
AcDbEntity
  8
0
100
AcDbCircle
 62
7
  6
CONTINUOUS
 10
12.8291386428
 20
7.7557187876
 40
0.0343128096
100
AcDbArc
 50
254.5577590326
 51
265.9922069207
  0
ARC
  5
371
100
AcDbEntity
  8
0
100
AcDbCircle
 62
7
  6
CONTINUOUS
 10
12.8991097025
 20
8.7646792439
 40
0.0343034166
100
AcDbArc
 50
86.0725802886
 51
97.394487454
  0
SPLINE
  5
372
100
AcDbEntity
  8
0
100
AcDbSpline
 62
7
  6
CONTINUOUS
 70
0
 71
3
 72
9
 73
5
 74
0
 42
0.0000001
 43
0.0000001
 44
0.0000000001
 40
0.0
 40
0.0
 40
0.0
 40
0.0
 40
0.2576616456
 40
1.0
 40
1.0
 40
1.0
 40
1.0
 10
8.7548988344
 20
9.4512049751
 30
0.0
 10
8.7554944586
 20
9.4518782608
 30
0.0
 10
8.7578294164
 20
9.4544705269
 30
0.0
 10
8.7602600627
 20
9.4569772698
 30
0.0
 10
8.7621228466
 20
9.4587765809
 30
0.0
  0
SPLINE
  5
373
100
AcDbEntity
  8
0
100
AcDbSpline
 62
7
  6
CONTINUOUS
 70
0
 71
3
 72
9
 73
5
 74
0
 42
0.0000001
 43
0.0000001
 44
0.0000000001
 40
0.0
 40
0.0
 40
0.0
 40
0.0
 40
0.2578199612
 40
1.0
 40
1.0
 40
1.0
 40
1.0
 10
8.7621228466
 20
9.4587765809
 30
0.0
 10
8.7627188818
 20
9.4593523068
 30
0.0
 10
8.7650540846
 20
9.4615609131
 30
0.0
 10
8.7674854161
 20
9.4636688146
 30
0.0
 10
8.7693468587
 20
9.4651606958
 30
0.0
  0
SPLINE
  5
374
100
AcDbEntity
  8
0
100
AcDbSpline
 62
7
  6
CONTINUOUS
 70
0
 71
3
 72
23
 73
19
 74
0
 42
0.0000001
 43
0.0000001
 44
0.0000000001
 40
0.0
 40
0.0
 40
0.0
 40
0.0
 40
0.0814271046
 40
0.1607817343
 40
0.2379185405
 40
0.312696063
 40
0.3849800266
 40
0.4546476696
 40
0.5215900506
 40
0.5857253305
 40
0.6469976603
 40
0.7053923532
 40
0.760932103
 40
0.8136907295
 40
0.8637864076
 40
0.9113888908
 40
0.9567096643
 40
1.0
 40
1.0
 40
1.0
 40
1.0
 10
8.7548988344
 20
8.2275984458
 30
0.0
 10
8.7509062072
 20
8.2299561319
 30
0.0
 10
8.7430545204
 20
8.2346659342
 30
0.0
 10
8.7315465961
 20
8.2418166692
 30
0.0
 10
8.7204845454
 20
8.2489639597
 30
0.0
 10
8.7099003356
 20
8.2561045725
 30
0.0
 10
8.6998261306
 20
8.2632354727
 30
0.0
 10
8.6902929544
 20
8.2703523376
 30
0.0
 10
8.6813311304
 20
8.2774515639
 30
0.0
 10
8.67296781
 20
8.2845278581
 30
0.0
 10
8.6652278712
 20
8.2915772599
 30
0.0
 10
8.658130929
 20
8.2985940931
 30
0.0
 10
8.6516929279
 20
8.3055743663
 30
0.0
 10
8.6459230496
 20
8.3125127292
 30
0.0
 10
8.6408258786
 20
8.3194054405
 30
0.0
 10
8.6363988785
 20
8.3262482012
 30
0.0
 10
8.6326348181
 20
8.3330371549
 30
0.0
 10
8.6305139144
 20
8.3376218482
 30
0.0
 10
8.6295674919
 20
8.3398980554
 30
0.0
  0
SPLINE
  5
375
100
AcDbEntity
  8
0
100
AcDbSpline
 62
7
  6
CONTINUOUS
 70
0
 71
3
 72
9
 73
5
 74
0
 42
0.0000001
 43
0.0000001
 44
0.0000000001
 40
0.0
 40
0.0
 40
0.0
 40
0.0
 40
0.4964604369
 40
1.0
 40
1.0
 40
1.0
 40
1.0
 10
8.7107326849
 20
9.3832367614
 30
0.0
 10
8.7175505598
 20
9.3947921099
 30
0.0
 10
8.7318380245
 20
9.417743413
 30
0.0
 10
8.7470479893
 20
9.4400899442
 30
0.0
 10
8.7548988344
 20
9.4512049751
 30
0.0
  0
SPLINE
  5
376
100
AcDbEntity
  8
0
100
AcDbSpline
 62
7
  6
CONTINUOUS
 70
0
 71
3
 72
47
 73
43
 74
0
 42
0.0000001
 43
0.0000001
 44
0.0000000001
 40
0.0
 40
0.0
 40
0.0
 40
0.0
 40
0.0097390954
 40
0.0199695295
 40
0.0306881571
 40
0.0418903579
 40
0.0535693632
 40
0.0657172933
 40
0.0783253324
 40
0.0913829807
 40
0.1188003862
 40
0.1478697904
 40
0.1784776678
 40
0.2104990076
 40
0.2437996245
 40
0.2782371359
 40
0.3136617551
 40
0.3499180255
 40
0.3868455341
 40
0.4242797949
 40
0.462053577
 40
0.4999975974
 40
0.5379416192
 40
0.5757154697
 40
0.6131498368
 40
0.6500774863
 40
0.6863340113
 40
0.7217588358
 40
0.7561965785
 40
0.7894975871
 40
0.8215192438
 40
0.8521274831
 40
0.8811973937
 40
0.9086151749
 40
0.9216731274
 40
0.9342812907
 40
0.9464294722
 40
0.9581088203
 40
0.9693112294
 40
0.9800301946
 40
0.9902609526
 40
1.0
 40
1.0
 40
1.0
 40
1.0
 10
8.6218209507
 20
8.3585095681
 30
0.0
 10
8.6205593314
 20
8.3615407138
 30
0.0
 10
8.618082339
 20
8.3678020959
 30
0.0
 10
8.6145777141
 20
8.3775374146
 30
0.0
 10
8.611196345
 20
8.387836647
 30
0.0
 10
8.6079426491
 20
8.3986875675
 30
0.0
 10
8.6048201602
 20
8.4100772625
 30
0.0
 10
8.6018326729
 20
8.4219922072
 30
0.0
 10
8.5989840237
 20
8.4344183306
 30
0.0
 10
8.5953154155
 20
8.4519343968
 30
0.0
 10
8.591125915
 20
8.4750065615
 30
0.0
 10
8.5867783
 20
8.5040480813
 30
0.0
 10
8.5830541329
 20
8.5347398346
 30
0.0
 10
8.5799712995
 20
8.5669353359
 30
0.0
 10
8.5775450877
 20
8.6004811877
 30
0.0
 10
8.575787632
 20
8.6352172644
 30
0.0
 10
8.5747073641
 20
8.670977657
 30
0.0
 10
8.5743097631
 20
8.7075914706
 30
0.0
 10
8.5745970658
 20
8.7448837053
 30
0.0
 10
8.5755677882
 20
8.7826760786
 30
0.0
 10
8.5772174723
 20
8.8207878624
 30
0.0
 10
8.5795384194
 20
8.8590368034
 30
0.0
 10
8.5825193137
 20
8.8972400004
 30
0.0
 10
8.5861459904
 20
8.9352147457
 30
0.0
 10
8.5904011741
 20
8.9727794537
 30
0.0
 10
8.5952641968
 20
9.0097545383
 30
0.0
 10
8.6007118027
 20
9.0459632093
 30
0.0
 10
8.6067178793
 20
9.0812324087
 30
0.0
 10
8.6132532601
 20
9.1153936707
 30
0.0
 10
8.6202865836
 20
9.148283857
 30
0.0
 10
8.6277840056
 20
9.179745997
 30
0.0
 10
8.63570904
 20
9.2096302993
 30
0.0
 10
8.644023603
 20
9.2377941845
 30
0.0
 10
8.6513578792
 20
9.2600675715
 30
0.0
 10
8.6574090328
 20
9.2769099141
 30
0.0
 10
8.6619457238
 20
9.2888240922
 30
0.0
 10
8.6665492558
 20
9.3002128758
 30
0.0
 10
8.6712139332
 20
9.3110628661
 30
0.0
 10
8.6759344212
 20
9.3213610609
 30
0.0
 10
8.6807051046
 20
9.3310952652
 30
0.0
 10
8.6855198663
 20
9.3402539323
 30
0.0
 10
8.68883741
 20
9.3461135877
 30
0.0
 10
8.690505305
 20
9.3489415812
 30
0.0
  0
SPLINE
  5
377
100
AcDbEntity
  8
0
100
AcDbSpline
 62
7
  6
CONTINUOUS
 70
0
 71
3
 72
21
 73
17
 74
0
 42
0.0000001
 43
0.0000001
 44
0.0000000001
 40
0.0
 40
0.0
 40
0.0
 40
0.0
 40
0.1269527041
 40
0.1902689165
 40
0.2534593491
 40
0.3165116873
 40
0.37941528
 40
0.4421620112
 40
0.5047460954
 40
0.5671657261
 40
0.6294227274
 40
0.6915221182
 40
0.7534726662
 40
0.8152847883
 40
0.8769699244
 40
1.0
 40
1.0
 40
1.0
 40
1.0
 10
8.6165415244
 20
8.4232055663
 30
0.0
 10
8.6104130764
 20
8.4466367235
 30
0.0
 10
8.6020360607
 20
8.4819770128
 30
0.0
 10
8.5928648149
 20
8.529458426
 30
0.0
 10
8.5870874326
 20
8.5651633585
 30
0.0
 10
8.5824900878
 20
8.6009604484
 30
0.0
 10
8.5791460306
 20
8.6368121432
 30
0.0
 10
8.5771142326
 20
8.6726731997
 30
0.0
 10
8.576431762
 20
8.7084932933
 30
0.0
 10
8.5771106731
 20
8.7442200794
 30
0.0
 10
8.57913921
 20
8.7798028488
 30
0.0
 10
8.5824805624
 20
8.8151960568
 30
0.0
 10
8.5870758664
 20
8.8503619858
 30
0.0
 10
8.5928519732
 20
8.8852728509
 30
0.0
 10
8.6020059903
 20
8.931410463
 30
0.0
 10
8.6103939485
 20
8.9656604227
 30
0.0
 10
8.6165415244
 20
8.9883120408
 30
0.0
  0
SPLINE
  5
378
100
AcDbEntity
  8
0
100
AcDbSpline
 62
7
  6
CONTINUOUS
 70
0
 71
3
 72
15
 73
11
 74
0
 42
0.0000001
 43
0.0000001
 44
0.0000000001
 40
0.0
 40
0.0
 40
0.0
 40
0.0
 40
0.1201732322
 40
0.2410336384
 40
0.3629078784
 40
0.4861757754
 40
0.6112294411
 40
0.7384145049
 40
0.8679713593
 40
1.0
 40
1.0
 40
1.0
 40
1.0
 10
8.6237655366
 20
9.0419866913
 30
0.0
 10
8.6231777478
 20
9.0547006728
 30
0.0
 10
8.6226498044
 20
9.0802377531
 30
0.0
 10
8.6240862233
 20
9.1186698816
 30
0.0
 10
8.6280374847
 20
9.1572612399
 30
0.0
 10
8.6347556568
 20
9.1959231798
 30
0.0
 10
8.6444165454
 20
9.2345389112
 30
0.0
 10
8.6570854648
 20
9.2729763849
 30
0.0
 10
8.6727016837
 20
9.3111078299
 30
0.0
 10
8.6848501489
 20
9.3360293853
 30
0.0
 10
8.6913354316
 20
9.3484176916
 30
0.0
  0
SPLINE
  5
379
100
AcDbEntity
  8
0
100
AcDbSpline
 62
7
  6
CONTINUOUS
 70
0
 71
3
 72
9
 73
5
 74
0
 42
0.0000001
 43
0.0000001
 44
0.0000000001
 40
0.0
 40
0.0
 40
0.0
 40
0.0
 40
0.5118119473
 40
1.0
 40
1.0
 40
1.0
 40
1.0
 10
8.6295674919
 20
8.3398980554
 30
0.0
 10
8.6282758473
 20
8.343004544
 30
0.0
 10
8.6260768035
 20
8.3492159217
 30
0.0
 10
8.6246127232
 20
8.3556415616
 30
0.0
 10
8.6240876576
 20
8.3588073415
 30
0.0
  0
SPLINE
  5
37A
100
AcDbEntity
  8
0
100
AcDbSpline
 62
7
  6
CONTINUOUS
 70
0
 71
3
 72
11
 73
7
 74
0
 42
0.0000001
 43
0.0000001
 44
0.0000000001
 40
0.0
 40
0.0
 40
0.0
 40
0.0
 40
0.2546540834
 40
0.5052032516
 40
0.7531996566
 40
1.0
 40
1.0
 40
1.0
 40
1.0
 10
8.6240876576
 20
8.3588073415
 30
0.0
 10
8.6237436613
 20
8.3608813997
 30
0.0
 10
8.623221447
 20
8.3650245473
 30
0.0
 10
8.6229240831
 20
8.3712415782
 30
0.0
 10
8.6230922637
 20
8.3773981545
 30
0.0
 10
8.6234961322
 20
8.3814669731
 30
0.0
 10
8.6237655366
 20
8.3834866365
 30
0.0
  0
SPLINE
  5
37B
100
AcDbEntity
  8
0
100
AcDbSpline
 62
7
  6
CONTINUOUS
 70
0
 71
3
 72
9
 73
5
 74
0
 42
0.0000001
 43
0.0000001
 44
0.0000000001
 40
0.0
 40
0.0
 40
0.0
 40
0.0
 40
0.4846491233
 40
1.0
 40
1.0
 40
1.0
 40
1.0
 10
9.824124803
 20
8.4497388039
 30
0.0
 10
9.8225322342
 20
8.4585094809
 30
0.0
 10
9.8195971352
 20
8.4766711391
 30
0.0
 10
9.8172600121
 20
8.4949181123
 30
0.0
 10
9.8161902176
 20
8.5043363358
 30
0.0
  0
SPLINE
  5
37C
100
AcDbEntity
  8
0
100
AcDbSpline
 62
7
  6
CONTINUOUS
 70
0
 71
3
 72
34
 73
30
 74
0
 42
0.0000001
 43
0.0000001
 44
0.0000000001
 40
0.0
 40
0.0
 40
0.0
 40
0.0
 40
0.1715335574
 40
0.2567509394
 40
0.3407499672
 40
0.4227911041
 40
0.5020490154
 40
0.5776354732
 40
0.6137715107
 40
0.6486480765
 40
0.682155587
 40
0.7141899509
 40
0.7446558844
 40
0.7734691067
 40
0.8005599998
 40
0.8258785592
 40
0.8493987861
 40
0.8711261619
 40
0.8911073911
 40
0.9094412756
 40
0.9262938404
 40
0.9419139156
 40
0.9493717721
 40
0.9566570087
 40
0.9638251447
 40
0.9709356226
 40
0.9780497171
 40
0.9852285177
 40
1.0
 40
1.0
 40
1.0
 40
1.0
 10
9.6602653777
 20
8.1280414929
 30
0.0
 10
9.6643887983
 20
8.1251647943
 30
0.0
 10
9.670786112
 20
8.1211679079
 30
0.0
 10
9.679650414
 20
8.1165591069
 30
0.0
 10
9.6863623226
 20
8.1135186473
 30
0.0
 10
9.6930709206
 20
8.1109217523
 30
0.0
 10
9.6996853142
 20
8.1087970939
 30
0.0
 10
9.7051148236
 20
8.1074174831
 30
0.0
 10
9.7093287691
 20
8.1065735187
 30
0.0
 10
9.712352757
 20
8.1060785666
 30
0.0
 10
9.7152739202
 20
8.1057122824
 30
0.0
 10
9.7180786841
 20
8.1054743003
 30
0.0
 10
9.7207537416
 20
8.1053635941
 30
0.0
 10
9.72328628
 20
8.1053786768
 30
0.0
 10
9.7256641131
 20
8.1055175482
 30
0.0
 10
9.7278758372
 20
8.1057777755
 30
0.0
 10
9.7299109604
 20
8.1061566685
 30
0.0
 10
9.7317600281
 20
8.1066513705
 30
0.0
 10
9.7334146627
 20
8.1072589868
 30
0.0
 10
9.7348675896
 20
8.1079770694
 30
0.0
 10
9.7361119757
 20
8.1088032499
 30
0.0
 10
9.7369833473
 20
8.1095931189
 30
0.0
 10
9.7375593245
 20
8.1102729372
 30
0.0
 10
9.7379288412
 20
8.1107993675
 30
0.0
 10
9.7382418297
 20
8.1113495957
 30
0.0
 10
9.7384979694
 20
8.1119229986
 30
0.0
 10
9.738697028
 20
8.1125190304
 30
0.0
 10
9.7388878967
 20
8.1133502777
 30
0.0
 10
9.7389415394
 20
8.1139960214
 30
0.0
 10
9.7389415533
 20
8.1144289799
 30
0.0
  0
SPLINE
  5
37D
100
AcDbEntity
  8
0
100
AcDbSpline
 62
7
  6
CONTINUOUS
 70
0
 71
3
 72
23
 73
19
 74
0
 42
0.0000001
 43
0.0000001
 44
0.0000000001
 40
0.0
 40
0.0
 40
0.0
 40
0.0
 40
0.0637769127
 40
0.127344953
 40
0.1907019652
 40
0.2538561227
 40
0.3168132057
 40
0.3795820872
 40
0.4421733866
 40
0.5045993385
 40
0.5668738691
 40
0.6290123824
 40
0.6910316505
 40
0.7529496453
 40
0.8147853569
 40
0.8765586065
 40
0.9382898561
 40
1.0
 40
1.0
 40
1.0
 40
1.0
 10
9.9904434787
 20
8.1959569339
 30
0.0
 10
9.9904434787
 20
8.1905337424
 30
0.0
 10
9.9901838933
 20
8.1797032833
 30
0.0
 10
9.9890123068
 20
8.1635234871
 30
0.0
 10
9.9870615821
 20
8.147471936
 30
0.0
 10
9.9843364072
 20
8.1315863342
 30
0.0
 10
9.9808428576
 20
8.1159029894
 30
0.0
 10
9.9765890133
 20
8.1004581568
 30
0.0
 10
9.9715846593
 20
8.085287417
 30
0.0
 10
9.9658412898
 20
8.0704257542
 30
0.0
 10
9.9593720975
 20
8.0559074544
 30
0.0
 10
9.9521919713
 20
8.0417660058
 30
0.0
 10
9.9443174689
 20
8.0280340204
 30
0.0
 10
9.9357667221
 20
8.0147431678
 30
0.0
 10
9.9265594458
 20
8.0019241498
 30
0.0
 10
9.9167167503
 20
7.9896064476
 30
0.0
 10
9.9062617375
 20
7.977818852
 30
0.0
 10
9.8988982174
 20
7.9703305892
 30
0.0
 10
9.8951239599
 20
7.9666849517
 30
0.0
  0
SPLINE
  5
37E
100
AcDbEntity
  8
0
100
AcDbSpline
 62
7
  6
CONTINUOUS
 70
0
 71
3
 72
39
 73
35
 74
0
 42
0.0000001
 43
0.0000001
 44
0.0000000001
 40
0.0
 40
0.0
 40
0.0
 40
0.0
 40
0.0310753511
 40
0.0623079071
 40
0.0936931323
 40
0.1252222879
 40
0.1568840438
 40
0.1886642044
 40
0.2205461649
 40
0.2525112495
 40
0.2845391085
 40
0.3166081364
 40
0.3486959075
 40
0.3807796234
 40
0.4128365659
 40
0.4448445499
 40
0.4767823666
 40
0.5086302146
 40
0.540370109
 40
0.5719862657
 40
0.6034654504
 40
0.6347972851
 40
0.6659745049
 40
0.6969931576
 40
0.7278527402
 40
0.7585562639
 40
0.7891102404
 40
0.8195245852
 40
0.8498124376
 40
0.8799898966
 40
0.9100756756
 40
0.9400906817
 40
0.970057529
 40
1.0
 40
1.0
 40
1.0
 40
1.0
 10
9.9904434787
 20
8.1959569339
 30
0.0
 10
9.9904434787
 20
8.2043710552
 30
0.0
 10
9.9898158055
 20
8.2212483385
 30
0.0
 10
9.9870133702
 20
8.2464834714
 30
0.0
 10
9.9823634524
 20
8.2715704225
 30
0.0
 10
9.9758917386
 20
8.2963696595
 30
0.0
 10
9.9676340712
 20
8.3207454672
 30
0.0
 10
9.9576359587
 20
8.3445639294
 30
0.0
 10
9.9459524703
 20
8.3676943657
 30
0.0
 10
9.9326478893
 20
8.3900098502
 30
0.0
 10
9.9177953518
 20
8.4113879437
 30
0.0
 10
9.9014764498
 20
8.4317113425
 30
0.0
 10
9.883780787
 20
8.4508685173
 30
0.0
 10
9.8648054917
 20
8.4687543147
 30
0.0
 10
9.8446547099
 20
8.4852705516
 30
0.0
 10
9.8234390183
 20
8.5003265321
 30
0.0
 10
9.8012748234
 20
8.5138395371
 30
0.0
 10
9.7782837335
 20
8.5257352757
 30
0.0
 10
9.7545918986
 20
8.5359482865
 30
0.0
 10
9.7303293359
 20
8.5444223112
 30
0.0
 10
9.7056292254
 20
8.5511106159
 30
0.0
 10
9.6806271798
 20
8.5559762254
 30
0.0
 10
9.6554605142
 20
8.5589921366
 30
0.0
 10
9.6302675029
 20
8.5601414745
 30
0.0
 10
9.6051866313
 20
8.5594175932
 30
0.0
 10
9.5803558393
 20
8.5568241591
 30
0.0
 10
9.5559117643
 20
8.552375124
 30
0.0
 10
9.5319889893
 20
8.5460946565
 30
0.0
 10
9.5087193117
 20
8.5380170428
 30
0.0
 10
9.4862309651
 20
8.5281864684
 30
0.0
 10
9.464648064
 20
8.5166569677
 30
0.0
 10
9.4440892661
 20
8.5034915401
 30
0.0
 10
9.4246694316
 20
8.4887640535
 30
0.0
 10
9.4125483813
 20
8.4779534691
 30
0.0
 10
9.4067171013
 20
8.4723209088
 30
0.0
  0
SPLINE
  5
37F
100
AcDbEntity
  8
0
100
AcDbSpline
 62
7
  6
CONTINUOUS
 70
0
 71
3
 72
21
 73
17
 74
0
 42
0.0000001
 43
0.0000001
 44
0.0000000001
 40
0.0
 40
0.0
 40
0.0
 40
0.0
 40
0.1273176899
 40
0.2537999351
 40
0.3167619508
 40
0.3795355113
 40
0.4421314924
 40
0.5045621415
 40
0.5668413449
 40
0.6289845255
 40
0.6910084484
 40
0.7529310939
 40
0.814771448
 40
0.8765493308
 40
0.9382852181
 40
1.0
 40
1.0
 40
1.0
 40
1.0
 10
12.3878275574
 20
7.4244145045
 30
0.0
 10
12.3878275574
 20
7.4179161304
 30
0.0
 10
12.3872072488
 20
7.404953659
 30
0.0
 10
12.3848645177
 20
7.3889292437
 30
0.0
 10
12.3820644572
 20
7.3763594899
 30
0.0
 10
12.3795109479
 20
7.3670880314
 30
0.0
 10
12.3765068968
 20
7.3579813196
 30
0.0
 10
12.3730592296
 20
7.3490600887
 30
0.0
 10
12.369175895
 20
7.3403449716
 30
0.0
 10
12.3648657687
 20
7.3318560822
 30
0.0
 10
12.3601388216
 20
7.3236129883
 30
0.0
 10
12.3550059545
 20
7.3156346867
 30
0.0
 10
12.3494789551
 20
7.3079396389
 30
0.0
 10
12.3435705349
 20
7.3005455172
 30
0.0
 10
12.3372945815
 20
7.2934695792
 30
0.0
 10
12.3328743427
 20
7.2889745226
 30
0.0
 10
12.3306087257
 20
7.286786091
 30
0.0
  0
SPLINE
  5
380
100
AcDbEntity
  8
0
100
AcDbSpline
 62
7
  6
CONTINUOUS
 70
0
 71
3
 72
40
 73
36
 74
0
 42
0.0000001
 43
0.0000001
 44
0.0000000001
 40
0.0
 40
0.0
 40
0.0
 40
0.0
 40
0.0310751026
 40
0.0466747499
 40
0.0623128135
 40
0.0936978535
 40
0.1252268452
 40
0.1568884395
 40
0.1886684333
 40
0.2205502276
 40
0.2525151451
 40
0.284542837
 40
0.3166116973
 40
0.3486993002
 40
0.3807828479
 40
0.4128396226
 40
0.444847439
 40
0.4767850884
 40
0.5086327693
 40
0.5403724975
 40
0.5719884894
 40
0.6034675105
 40
0.6347991821
 40
0.6659762393
 40
0.6969947303
 40
0.7278541529
 40
0.758557518
 40
0.7891113365
 40
0.8195255235
 40
0.8498132183
 40
0.8799905205
 40
0.9100761434
 40
0.9400909936
 40
0.970057685
 40
1.0
 40
1.0
 40
1.0
 40
1.0
 10
12.3878275574
 20
7.4244145045
 30
0.0
 10
12.3878275574
 20
7.4294653569
 30
0.0
 10
12.387545225
 20
7.4370555413
 30
0.0
 10
12.3866127898
 20
7.4471422551
 30
0.0
 10
12.3853062644
 20
7.4572386302
 30
0.0
 10
12.3829772189
 20
7.4698043143
 30
0.0
 10
12.379092383
 20
7.4846906523
 30
0.0
 10
12.3741354173
 20
7.4993231389
 30
0.0
 10
12.3681337057
 20
7.5136209729
 30
0.0
 10
12.361120292
 20
7.5275058216
 30
0.0
 10
12.3531337601
 20
7.5409014603
 30
0.0
 10
12.3442180106
 20
7.5537343973
 30
0.0
 10
12.3344220227
 20
7.5659342146
 30
0.0
 10
12.3237995873
 20
7.5774339657
 30
0.0
 10
12.3124090144
 20
7.5881705342
 30
0.0
 10
12.300312816
 20
7.5980849785
 30
0.0
 10
12.2875773666
 20
7.6071228513
 30
0.0
 10
12.2742725434
 20
7.6152344965
 30
0.0
 10
12.2604713471
 20
7.6223753195
 30
0.0
 10
12.2462495065
 20
7.6285060312
 30
0.0
 10
12.2316850687
 20
7.6335928631
 30
0.0
 10
12.2168579767
 20
7.6376077536
 30
0.0
 10
12.2018496366
 20
7.6405285047
 30
0.0
 10
12.1867424772
 20
7.6423389066
 30
0.0
 10
12.1716195032
 20
7.643028833
 30
0.0
 10
12.1565638447
 20
7.6425943026
 30
0.0
 10
12.1416583041
 20
7.6410375107
 30
0.0
 10
12.1269849039
 20
7.6383668264
 30
0.0
 10
12.1126244333
 20
7.6345967568
 30
0.0
 10
12.0986560085
 20
7.6297478847
 30
0.0
 10
12.0851566039
 20
7.6238467408
 30
0.0
 10
12.0722007217
 20
7.6169257633
 30
0.0
 10
12.05985959
 20
7.6090227659
 30
0.0
 10
12.048202175
 20
7.6001820727
 30
0.0
 10
12.0409260755
 20
7.5936926678
 30
0.0
 10
12.0374256662
 20
7.590311511
 30
0.0
  0
SPLINE
  5
381
100
AcDbEntity
  8
0
100
AcDbSpline
 62
7
  6
CONTINUOUS
 70
0
 71
3
 72
25
 73
21
 74
0
 42
0.0000001
 43
0.0000001
 44
0.0000000001
 40
0.0
 40
0.0
 40
0.0
 40
0.0
 40
0.0190479217
 40
0.0394017461
 40
0.0610304934
 40
0.0838816382
 40
0.1078915824
 40
0.132989638
 40
0.1591054725
 40
0.1861682331
 40
0.242866834
 40
0.3026093025
 40
0.3649814973
 40
0.4296352509
 40
0.4962777583
 40
0.5646584709
 40
0.6345574658
 40
0.7057756534
 40
0.85138981
 40
1.0
 40
1.0
 40
1.0
 40
1.0
 10
9.6139415545
 20
8.1899448955
 30
0.0
 10
9.6139415043
 20
8.1894410032
 30
0.0
 10
9.6139902911
 20
8.1883983501
 30
0.0
 10
9.6141887207
 20
8.1867948742
 30
0.0
 10
9.6145100048
 20
8.1851090343
 30
0.0
 10
9.6149490193
 20
8.1833503544
 30
0.0
 10
9.6155007262
 20
8.1815277409
 30
0.0
 10
9.6161601101
 20
8.1796496
 30
0.0
 10
9.6169223726
 20
8.1777237511
 30
0.0
 10
9.6180880318
 20
8.1750604843
 30
0.0
 10
9.6197820424
 20
8.1716602393
 30
0.0
 10
9.622127919
 20
8.1675501564
 30
0.0
 10
9.6247926797
 20
8.163387266
 30
0.0
 10
9.6277545962
 20
8.1592048035
 30
0.0
 10
9.6309952827
 20
8.1550314005
 30
0.0
 10
9.6344986544
 20
8.1508925246
 30
0.0
 10
9.638250308
 20
8.1468112656
 30
0.0
 10
9.6436046578
 20
8.1414361297
 30
0.0
 10
9.65083208
 20
8.1349999172
 30
0.0
 10
9.6570411546
 20
8.1302908675
 30
0.0
 10
9.6602653777
 20
8.1280414929
 30
0.0
  0
SPLINE
  5
382
100
AcDbEntity
  8
0
100
AcDbSpline
 62
7
  6
CONTINUOUS
 70
0
 71
3
 72
61
 73
57
 74
0
 42
0.0000001
 43
0.0000001
 44
0.0000000001
 40
0.0
 40
0.0
 40
0.0
 40
0.0
 40
0.0077405186
 40
0.0160541303
 40
0.0249602844
 40
0.0344717377
 40
0.0445950077
 40
0.0553318554
 40
0.0666800731
 40
0.0786340723
 40
0.0911853361
 40
0.104322842
 40
0.1180333882
 40
0.1323017891
 40
0.1471110854
 40
0.1624427594
 40
0.1782768471
 40
0.1945920363
 40
0.2113658302
 40
0.2285746363
 40
0.2461938149
 40
0.2641978033
 40
0.2825602028
 40
0.3012538164
 40
0.3395217508
 40
0.3787719019
 40
0.4187657085
 40
0.4592586039
 40
0.5000020322
 40
0.5407454416
 40
0.5812382806
 40
0.6212319937
 40
0.6604820149
 40
0.6987497842
 40
0.7174433023
 40
0.7358055981
 40
0.7538094748
 40
0.7714285338
 40
0.7886372129
 40
0.8054108724
 40
0.8217259203
 40
0.8375598601
 40
0.85289138
 40
0.8677005165
 40
0.8819687521
 40
0.8956791283
 40
0.9088164597
 40
0.9213675458
 40
0.9333213639
 40
0.9446693973
 40
0.9554060651
 40
0.9655291462
 40
0.9750404016
 40
0.9839464484
 40
0.9922597619
 40
1.0
 40
1.0
 40
1.0
 40
1.0
 10
12.0813379954
 20
9.9908674695
 30
0.0
 10
12.0797205764
 20
9.9893623577
 30
0.0
 10
12.0762387856
 20
9.9863757354
 30
0.0
 10
12.0705270097
 20
9.9821101963
 30
0.0
 10
12.0641531974
 20
9.9779089733
 30
0.0
 10
12.0571277957
 20
9.9737786967
 30
0.0
 10
12.0494616487
 20
9.9697256556
 30
0.0
 10
12.0411670315
 20
9.9657563013
 30
0.0
 10
12.0322572341
 20
9.961877024
 30
0.0
 10
12.0227466339
 20
9.9580941747
 30
0.0
 10
12.0126506764
 20
9.9544139449
 30
0.0
 10
12.0019858142
 20
9.9508423938
 30
0.0
 10
11.9907694646
 20
9.9473854388
 30
0.0
 10
11.9790199941
 20
9.9440487983
 30
0.0
 10
11.9667566769
 20
9.9408379854
 30
0.0
 10
11.9539996437
 20
9.9377583298
 30
0.0
 10
11.9407698561
 20
9.934814945
 30
0.0
 10
11.9270890757
 20
9.9320126932
 30
0.0
 10
11.9129798114
 20
9.929356221
 30
0.0
 10
11.8984652836
 20
9.9268499454
 30
0.0
 10
11.8835693927
 20
9.9244980047
 30
0.0
 10
11.8683166791
 20
9.9223042973
 30
0.0
 10
11.852732243
 20
9.9202724459
 30
0.0
 10
11.8313787225
 20
9.9177641851
 30
0.0
 10
11.8040467659
 20
9.9150666098
 30
0.0
 10
11.7705972473
 20
9.9125454476
 30
0.0
 10
11.7364659221
 20
9.9107325175
 30
0.0
 10
11.701877638
 20
9.9096399021
 30
0.0
 10
11.6670600918
 20
9.9092749305
 30
0.0
 10
11.6322425629
 20
9.9096400117
 30
0.0
 10
11.5976543305
 20
9.9107327361
 30
0.0
 10
11.5635230909
 20
9.9125457737
 30
0.0
 10
11.5300736915
 20
9.9150670412
 30
0.0
 10
11.5027418553
 20
9.9177647031
 30
0.0
 10
11.4813884475
 20
9.920273032
 30
0.0
 10
11.4658041073
 20
9.9223049325
 30
0.0
 10
11.4505514972
 20
9.9244986881
 30
0.0
 10
11.4356557173
 20
9.9268506757
 30
0.0
 10
11.4211413078
 20
9.9293569972
 30
0.0
 10
11.4070321687
 20
9.9320135139
 30
0.0
 10
11.3933515206
 20
9.9348158088
 30
0.0
 10
11.3801218719
 20
9.9377592353
 30
0.0
 10
11.367364984
 20
9.9408389311
 30
0.0
 10
11.3551018183
 20
9.9440497826
 30
0.0
 10
11.3433525052
 20
9.9473864602
 30
0.0
 10
11.3321363187
 20
9.9508434504
 30
0.0
 10
11.3214716248
 20
9.954415035
 30
0.0
 10
11.3113758409
 20
9.9580952967
 30
0.0
 10
11.3018654194
 20
9.961878176
 30
0.0
 10
11.2929558035
 20
9.9657574806
 30
0.0
 10
11.2846613744
 20
9.9697268627
 30
0.0
 10
11.2769954226
 20
9.9737799266
 30
0.0
 10
11.2699701959
 20
9.9779102237
 30
0.0
 10
11.2635966107
 20
9.9821114785
 30
0.0
 10
11.2578850581
 20
9.9863769886
 30
0.0
 10
11.2544034529
 20
9.989363575
 30
0.0
 10
11.25278613
 20
9.9908686725
 30
0.0
  0
SPLINE
  5
383
100
AcDbEntity
  8
0
100
AcDbSpline
 62
7
  6
CONTINUOUS
 70
0
 71
3
 72
20
 73
16
 74
0
 42
0.0000001
 43
0.0000001
 44
0.0000000001
 40
0.0
 40
0.0
 40
0.0
 40
0.0
 40
0.1287087497
 40
0.2556438373
 40
0.3811029026
 40
0.4434030674
 40
0.5054729835
 40
0.5673633905
 40
0.62912601
 40
0.6908135924
 40
0.7524799156
 40
0.8141788967
 40
0.87596388
 40
0.9378873525
 40
1.0
 40
1.0
 40
1.0
 40
1.0
 10
9.9428578217
 20
8.3720531648
 30
0.0
 10
9.9332623336
 20
8.3762379431
 30
0.0
 10
9.914473112
 20
8.385188099
 30
0.0
 10
9.8874878542
 20
8.400491035
 30
0.0
 10
9.8662238915
 20
8.4147902097
 30
0.0
 10
9.8500834157
 20
8.4271419415
 30
0.0
 10
9.8384471527
 20
8.4368497292
 30
0.0
 10
9.827276576
 20
8.447025252
 30
0.0
 10
9.8165965993
 20
8.4576710881
 30
0.0
 10
9.8064345077
 20
8.4687880949
 30
0.0
 10
9.7968195374
 20
8.4803752975
 30
0.0
 10
9.7877828986
 20
8.4924292757
 30
0.0
 10
9.7793573233
 20
8.5049438254
 30
0.0
 10
9.7715771349
 20
8.5179086227
 30
0.0
 10
9.7668515991
 20
8.5268282374
 30
0.0
 10
9.7646086251
 20
8.5313548355
 30
0.0
  0
SPLINE
  5
384
100
AcDbEntity
  8
0
100
AcDbSpline
 62
7
  6
CONTINUOUS
 70
0
 71
3
 72
73
 73
69
 74
0
 42
0.0000001
 43
0.0000001
 44
0.0000000001
 40
0.0
 40
0.0
 40
0.0
 40
0.0
 40
0.0036899217
 40
0.0075220722
 40
0.0114999241
 40
0.0156263923
 40
0.0199038122
 40
0.0243340611
 40
0.0289186039
 40
0.0336584765
 40
0.0385544129
 40
0.0436068119
 40
0.0541807001
 40
0.0653786566
 40
0.0771951324
 40
0.089621585
 40
0.1026468929
 40
0.1162576909
 40
0.1304386228
 40
0.1451725279
 40
0.1604406229
 40
0.1762226663
 40
0.1924970827
 40
0.2092410562
 40
0.2264306365
 40
0.2440408462
 40
0.2620457622
 40
0.2804185807
 40
0.2991316963
 40
0.3181567872
 40
0.3374648822
 40
0.3768107074
 40
0.4169274633
 40
0.4575665897
 40
0.498475352
 40
0.5393988829
 40
0.5800822002
 40
0.6202722166
 40
0.659719788
 40
0.6790891832
 40
0.6981823705
 40
0.7169702342
 40
0.7354242897
 40
0.7535167596
 40
0.771220657
 40
0.7885098461
 40
0.8053591152
 40
0.8217442679
 40
0.8376422293
 40
0.8530311246
 40
0.8678903835
 40
0.8822008716
 40
0.8959450526
 40
0.909107133
 40
0.9216732551
 40
0.93363175
 40
0.9449734639
 40
0.9556921057
 40
0.9608169699
 40
0.9657853037
 40
0.9705973493
 40
0.9752536818
 40
0.9797551699
 40
0.9841030803
 40
0.9882991772
 40
0.992345623
 40
0.9962449193
 40
1.0
 40
1.0
 40
1.0
 40
1.0
 10
12.8449845748
 20
7.6785378708
 30
0.0
 10
12.8440543164
 20
7.679681678
 30
0.0
 10
12.8422061729
 20
7.6820529599
 30
0.0
 10
12.8395197739
 20
7.6857818976
 30
0.0
 10
12.8368685786
 20
7.6897475412
 30
0.0
 10
12.834253754
 20
7.6939482208
 30
0.0
 10
12.831676282
 20
7.6983822196
 30
0.0
 10
12.8291372117
 20
7.7030477241
 30
0.0
 10
12.8266376012
 20
7.7079428401
 30
0.0
 10
12.8241784261
 20
7.7130655368
 30
0.0
 10
12.8217607065
 20
7.7184137362
 30
0.0
 10
12.8185448357
 20
7.7259572129
 30
0.0
 10
12.8146463987
 20
7.7359440536
 30
0.0
 10
12.8102174102
 20
7.7486152651
 30
0.0
 10
12.8059765902
 20
7.7621283671
 30
0.0
 10
12.8019309913
 20
7.7764610552
 30
0.0
 10
12.7980873532
 20
7.7915898425
 30
0.0
 10
12.7944521096
 20
7.807489793
 30
0.0
 10
12.7910313627
 20
7.8241346675
 30
0.0
 10
12.7878308478
 20
7.841496938
 30
0.0
 10
12.7848559288
 20
7.8595478531
 30
0.0
 10
12.7821116005
 20
7.8782575002
 30
0.0
 10
12.7796024783
 20
7.8975948573
 30
0.0
 10
12.777332773
 20
7.9175278392
 30
0.0
 10
12.7753062876
 20
7.9380233555
 30
0.0
 10
12.773526425
 20
7.9590473768
 30
0.0
 10
12.771996182
 20
7.9805649898
 30
0.0
 10
12.7707181272
 20
8.0025404534
 30
0.0
 10
12.769694408
 20
8.0249372478
 30
0.0
 10
12.7689267221
 20
8.0477181911
 30
0.0
 10
12.7682420986
 20
8.0787485128
 30
0.0
 10
12.7680440082
 20
8.1182161917
 30
0.0
 10
12.7688375311
 20
8.1662007461
 30
0.0
 10
12.7706560824
 20
8.2147823297
 30
0.0
 10
12.7734876521
 20
8.2636382015
 30
0.0
 10
12.7773135471
 20
8.3124439867
 30
0.0
 10
12.7821082705
 20
8.3608756539
 30
0.0
 10
12.7878399133
 20
8.4086114654
 30
0.0
 10
12.7933981483
 20
8.4477816403
 30
0.0
 10
12.7982930747
 20
8.4785246138
 30
0.0
 10
12.8021506517
 20
8.5010724453
 30
0.0
 10
12.8062103209
 20
8.5232130397
 30
0.0
 10
12.8104653489
 20
8.5449096362
 30
0.0
 10
12.8149086402
 20
8.5661261822
 30
0.0
 10
12.8195327798
 20
8.5868274432
 30
0.0
 10
12.8243300545
 20
8.6069790436
 30
0.0
 10
12.8292924661
 20
8.626547523
 30
0.0
 10
12.834411742
 20
8.6455004007
 30
0.0
 10
12.8396793315
 20
8.6638062383
 30
0.0
 10
12.8450864429
 20
8.6814346855
 30
0.0
 10
12.8506240556
 20
8.698356527
 30
0.0
 10
12.8562829374
 20
8.7145437446
 30
0.0
 10
12.862053639
 20
8.7299695776
 30
0.0
 10
12.8679265405
 20
8.7446085689
 30
0.0
 10
12.8738918645
 20
8.758436582
 30
0.0
 10
12.8799397208
 20
8.7714309537
 30
0.0
 10
12.8860600583
 20
8.7835702375
 30
0.0
 10
12.8912876373
 20
8.7930948371
 30
0.0
 10
12.8955054572
 20
8.8002618964
 30
0.0
 10
12.8986332346
 20
8.8053305085
 30
0.0
 10
12.9017715557
 20
8.8101709814
 30
0.0
 10
12.9049191064
 20
8.8147813446
 30
0.0
 10
12.9080745963
 20
8.8191596955
 30
0.0
 10
12.9112367852
 20
8.8233042437
 30
0.0
 10
12.9144043883
 20
8.827213352
 30
0.0
 10
12.917576199
 20
8.8308853995
 30
0.0
 10
12.9207507459
 20
8.8343187334
 30
0.0
 10
12.9229080961
 20
8.8364877922
 30
0.0
 10
12.9239872468
 20
8.8375301718
 30
0.0
  0
SPLINE
  5
385
100
AcDbEntity
  8
0
100
AcDbSpline
 62
7
  6
CONTINUOUS
 70
0
 71
3
 72
37
 73
33
 74
0
 42
0.0000001
 43
0.0000001
 44
0.0000000001
 40
0.0
 40
0.0
 40
0.0
 40
0.0
 40
0.0302113119
 40
0.0605362907
 40
0.0909801534
 40
0.1215464391
 40
0.1522369783
 40
0.1830518858
 40
0.2139895843
 40
0.2450468475
 40
0.2762188601
 40
0.3074992972
 40
0.3388804203
 40
0.3703531919
 40
0.4019074074
 40
0.4335318318
 40
0.4969182466
 40
0.5604317371
 40
0.5922133528
 40
0.6239848932
 40
0.6557324058
 40
0.6874422333
 40
0.7191011873
 40
0.7506967175
 40
0.7822170665
 40
0.8136514313
 40
0.8449900913
 40
0.876224526
 40
0.9073477676
 40
0.9383535219
 40
0.9692391992
 40
1.0
 40
1.0
 40
1.0
 40
1.0
 10
12.3805165592
 20
7.371008139
 30
0.0
 10
12.3767142073
 20
7.3700872758
 30
0.0
 10
12.3690371292
 20
7.3684732273
 30
0.0
 10
12.3573759274
 20
7.366746428
 30
0.0
 10
12.345586269
 20
7.3657149439
 30
0.0
 10
12.3337090942
 20
7.3653823741
 30
0.0
 10
12.3217849257
 20
7.3657497795
 30
0.0
 10
12.3098546289
 20
7.3668158461
 30
0.0
 10
12.2979590269
 20
7.3685768559
 30
0.0
 10
12.2861388288
 20
7.3710267271
 30
0.0
 10
12.2744344727
 20
7.3741570304
 30
0.0
 10
12.262886006
 20
7.3779570141
 30
0.0
 10
12.2515329086
 20
7.3824136635
 30
0.0
 10
12.2404140963
 20
7.3875116125
 30
0.0
 10
12.229567245
 20
7.3932336501
 30
0.0
 10
12.2155092886
 20
7.4016732742
 30
0.0
 10
12.1988048037
 20
7.4136809039
 30
0.0
 10
12.183496999
 20
7.4274545878
 30
0.0
 10
12.1722009151
 20
7.4394287796
 30
0.0
 10
12.1642306256
 20
7.4488593985
 30
0.0
 10
12.156793368
 20
7.4587037715
 30
0.0
 10
12.1499142633
 20
7.4689285273
 30
0.0
 10
12.1436169331
 20
7.4794986167
 30
0.0
 10
12.137922906
 20
7.4903779135
 30
0.0
 10
12.1328516861
 20
7.5015292104
 30
0.0
 10
12.1284206503
 20
7.5129143781
 30
0.0
 10
12.1246450081
 20
7.5244944778
 30
0.0
 10
12.1215376905
 20
7.5362299245
 30
0.0
 10
12.1191094279
 20
7.5480804834
 30
0.0
 10
12.1173684308
 20
7.5600058799
 30
0.0
 10
12.116320919
 20
7.5719646203
 30
0.0
 10
12.1160867211
 20
7.5799495684
 30
0.0
 10
12.1160867211
 20
7.5839329971
 30
0.0
  0
SPLINE
  5
386
100
AcDbEntity
  8
0
100
AcDbSpline
 62
7
  6
CONTINUOUS
 70
0
 71
3
 72
64
 73
60
 74
0
 42
0.0000001
 43
0.0000001
 44
0.0000000001
 40
0.0
 40
0.0
 40
0.0
 40
0.0
 40
0.0155849845
 40
0.0311178845
 40
0.0465980212
 40
0.0620275829
 40
0.0774080835
 40
0.0927418223
 40
0.1080315802
 40
0.1232805423
 40
0.1384923336
 40
0.1536709611
 40
0.1688207799
 40
0.183946448
 40
0.1990528765
 40
0.214145182
 40
0.229228633
 40
0.2443085924
 40
0.2593904588
 40
0.2744796104
 40
0.2895813489
 40
0.3047008425
 40
0.3198430689
 40
0.335012764
 40
0.3502143761
 40
0.3654520204
 40
0.3807294358
 40
0.3960499486
 40
0.4114164463
 40
0.4268313508
 40
0.4422965963
 40
0.4578136132
 40
0.4733833239
 40
0.4890061381
 40
0.5046819513
 40
0.5204101494
 40
0.5361896249
 40
0.5520187915
 40
0.5678955993
 40
0.5838175581
 40
0.599781768
 40
0.6157849482
 40
0.6478847239
 40
0.6800929956
 40
0.7123732918
 40
0.7446866203
 40
0.7769928409
 40
0.8092520605
 40
0.8414260218
 40
0.857474186
 40
0.8734881437
 40
0.8894641632
 40
0.9053988608
 40
0.9212892055
 40
0.9371326126
 40
0.9529269185
 40
0.9686701254
 40
0.9843618894
 40
1.0
 40
1.0
 40
1.0
 40
1.0
 10
11.8956994492
 20
7.4400552268
 30
0.0
 10
11.8956994492
 20
7.4444725438
 30
0.0
 10
11.8959156513
 20
7.4532939805
 30
0.0
 10
11.8968914556
 20
7.4664705245
 30
0.0
 10
11.8985161205
 20
7.4795388795
 30
0.0
 10
11.9007855548
 20
7.4924669275
 30
0.0
 10
11.9036944746
 20
7.5052237851
 30
0.0
 10
11.9072358366
 20
7.5177786155
 30
0.0
 10
11.9114011224
 20
7.5301011735
 30
0.0
 10
11.9161803399
 20
7.5421617425
 30
0.0
 10
11.9215620149
 20
7.5539312224
 30
0.0
 10
11.9275331694
 20
7.5653812367
 30
0.0
 10
11.9340794177
 20
7.5764841714
 30
0.0
 10
11.941185
 20
7.5872132379
 30
0.0
 10
11.948832818
 20
7.5975425332
 30
0.0
 10
11.9570044115
 20
7.6074471534
 30
0.0
 10
11.9656800713
 20
7.6169032113
 30
0.0
 10
11.9748388838
 20
7.6258878896
 30
0.0
 10
11.9844587777
 20
7.6343794936
 30
0.0
 10
11.9945165254
 20
7.6423575652
 30
0.0
 10
12.0049878582
 20
7.6498028767
 30
0.0
 10
12.0158475211
 20
7.6566974733
 30
0.0
 10
12.0270693295
 20
7.663024714
 30
0.0
 10
12.0386261952
 20
7.6687693821
 30
0.0
 10
12.0504902374
 20
7.673917655
 30
0.0
 10
12.0626328461
 20
7.6784571341
 30
0.0
 10
12.0750247459
 20
7.6823768726
 30
0.0
 10
12.0876360448
 20
7.6856674778
 30
0.0
 10
12.100436336
 20
7.688321058
 30
0.0
 10
12.1133947675
 20
7.6903312401
 30
0.0
 10
12.1264801097
 20
7.6916931832
 30
0.0
 10
12.1396608247
 20
7.6924036677
 30
0.0
 10
12.1529051555
 20
7.6924610247
 30
0.0
 10
12.1661811982
 20
7.6918651386
 30
0.0
 10
12.1794569723
 20
7.6906174476
 30
0.0
 10
12.1927005054
 20
7.6887210169
 30
0.0
 10
12.2058799108
 20
7.686180451
 30
0.0
 10
12.2189634494
 20
7.6830018894
 30
0.0
 10
12.231919637
 20
7.6791929702
 30
0.0
 10
12.2447172038
 20
7.6747629678
 30
0.0
 10
12.2573256718
 20
7.6697223851
 30
0.0
 10
12.2738580489
 20
7.6621976952
 30
0.0
 10
12.2938974489
 20
7.6513255854
 30
0.0
 10
12.3166837208
 20
7.636083318
 30
0.0
 10
12.3380224074
 20
7.6187749955
 30
0.0
 10
12.3577073661
 20
7.5995677717
 30
0.0
 10
12.3755501332
 20
7.5786453984
 30
0.0
 10
12.3913787015
 20
7.5562102246
 30
0.0
 10
12.4027765834
 20
7.5364097835
 30
0.0
 10
12.410742984
 20
7.5200324659
 30
0.0
 10
12.4161248113
 20
7.5075199644
 30
0.0
 10
12.4209044572
 20
7.4947999137
 30
0.0
 10
12.4250706167
 20
7.4819026261
 30
0.0
 10
12.4286132042
 20
7.4688592342
 30
0.0
 10
12.4315236687
 20
7.4557010923
 30
0.0
 10
12.4337949093
 20
7.4424599721
 30
0.0
 10
12.4354215804
 20
7.4291674743
 30
0.0
 10
12.4363995296
 20
7.4158562416
 30
0.0
 10
12.436617944
 20
7.4069747765
 30
0.0
 10
12.436617944
 20
7.4025424017
 30
0.0
  0
SPLINE
  5
387
100
AcDbEntity
  8
0
100
AcDbSpline
 62
7
  6
CONTINUOUS
 70
0
 71
3
 72
21
 73
17
 74
0
 42
0.0000001
 43
0.0000001
 44
0.0000000001
 40
0.0
 40
0.0
 40
0.0
 40
0.0
 40
0.0617147819
 40
0.1234506692
 40
0.185228552
 40
0.2470689061
 40
0.3089915516
 40
0.3710154745
 40
0.4331586551
 40
0.4954378585
 40
0.5578685076
 40
0.6204644887
 40
0.6832380492
 40
0.7462000649
 40
0.8726823101
 40
1.0
 40
1.0
 40
1.0
 40
1.0
 10
12.0374256662
 20
7.590311511
 30
0.0
 10
12.0351600492
 20
7.5881230794
 30
0.0
 10
12.0307398104
 20
7.5836280229
 30
0.0
 10
12.024463857
 20
7.5765520849
 30
0.0
 10
12.0185554368
 20
7.5691579632
 30
0.0
 10
12.0130284374
 20
7.5614629154
 30
0.0
 10
12.0078955704
 20
7.5534846138
 30
0.0
 10
12.0031686232
 20
7.5452415199
 30
0.0
 10
11.998858497
 20
7.5367526304
 30
0.0
 10
11.9949751623
 20
7.5280375134
 30
0.0
 10
11.9915274951
 20
7.5191162824
 30
0.0
 10
11.988523444
 20
7.5100095707
 30
0.0
 10
11.9859699347
 20
7.5007381122
 30
0.0
 10
11.9831698742
 20
7.4881683583
 30
0.0
 10
11.9808271432
 20
7.472143943
 30
0.0
 10
11.9802068345
 20
7.4591814717
 30
0.0
 10
11.9802068345
 20
7.4526830976
 30
0.0
  0
SPLINE
  5
388
100
AcDbEntity
  8
0
100
AcDbSpline
 62
7
  6
CONTINUOUS
 70
0
 71
3
 72
11
 73
7
 74
0
 42
0.0000001
 43
0.0000001
 44
0.0000000001
 40
0.0
 40
0.0
 40
0.0
 40
0.0
 40
0.2483413572
 40
0.4977561788
 40
0.7483003413
 40
1.0
 40
1.0
 40
1.0
 40
1.0
 10
12.1233299035
 20
7.6372823739
 30
0.0
 10
12.1221276659
 20
7.63297735
 30
0.0
 10
12.1200168429
 20
7.6242621305
 30
0.0
 10
12.117751036
 20
7.6109756349
 30
0.0
 10
12.1163883324
 20
7.597505732
 30
0.0
 10
12.1160867211
 20
7.5884631845
 30
0.0
 10
12.1160867211
 20
7.5839329971
 30
0.0
  0
SPLINE
  5
389
100
AcDbEntity
  8
0
100
AcDbSpline
 62
7
  6
CONTINUOUS
 70
0
 71
3
 72
37
 73
33
 74
0
 42
0.0000001
 43
0.0000001
 44
0.0000000001
 40
0.0
 40
0.0
 40
0.0
 40
0.0
 40
0.0301872921
 40
0.0604874496
 40
0.0909063124
 40
0.1214480058
 40
0.1521149015
 40
0.1829076043
 40
0.2138249642
 40
0.244864114
 40
0.2760205303
 40
0.307288114
 40
0.338659287
 40
0.3701251061
 40
0.4016753917
 40
0.433298869
 40
0.4649833232
 40
0.4967157624
 40
0.5602455438
 40
0.6237994843
 40
0.6555617994
 40
0.6872875466
 40
0.7189632095
 40
0.7505759093
 40
0.7821135698
 40
0.81356508
 40
0.8449204513
 40
0.8761709059
 40
0.9073092569
 40
0.9383291349
 40
0.9692275087
 40
1.0
 40
1.0
 40
1.0
 40
1.0
 10
12.3829925333
 20
7.3806410422
 30
0.0
 10
12.3793199298
 20
7.3796750149
 30
0.0
 10
12.3718994674
 20
7.3779653029
 30
0.0
 10
12.3606132015
 20
7.3760803099
 30
0.0
 10
12.3491889258
 20
7.3748763386
 30
0.0
 10
12.3376671199
 20
7.3743576718
 30
0.0
 10
12.3260878932
 20
7.3745260266
 30
0.0
 10
12.3144917344
 20
7.3753807709
 30
0.0
 10
12.302919132
 20
7.3769188653
 30
0.0
 10
12.2914104954
 20
7.3791348774
 30
0.0
 10
12.2800059981
 20
7.3820210153
 30
0.0
 10
12.2687454442
 20
7.3855671548
 30
0.0
 10
12.257668128
 20
7.3897608778
 30
0.0
 10
12.2468127084
 20
7.3945875071
 30
0.0
 10
12.2362170413
 20
7.4000301924
 30
0.0
 10
12.2259181777
 20
7.4060698318
 30
0.0
 10
12.2159517283
 20
7.4126856141
 30
0.0
 10
12.2031507444
 20
7.4222452129
 30
0.0
 10
12.1881557732
 20
7.4355131693
 30
0.0
 10
12.174709945
 20
7.4503538183
 30
0.0
 10
12.1649914351
 20
7.4630496493
 30
0.0
 10
12.1582475777
 20
7.4729486404
 30
0.0
 10
12.1520727539
 20
7.4831898957
 30
0.0
 10
12.1464882316
 20
7.4937380009
 30
0.0
 10
12.1415136049
 20
7.5045560734
 30
0.0
 10
12.1371662475
 20
7.5156063957
 30
0.0
 10
12.1334613794
 20
7.5268503987
 30
0.0
 10
12.1304119377
 20
7.5382488667
 30
0.0
 10
12.1280286683
 20
7.5497619423
 30
0.0
 10
12.1263198214
 20
7.5613496775
 30
0.0
 10
12.1252915824
 20
7.5729709703
 30
0.0
 10
12.125061686
 20
7.5807310018
 30
0.0
 10
12.125061686
 20
7.584602148
 30
0.0
  0
SPLINE
  5
38A
100
AcDbEntity
  8
0
100
AcDbSpline
 62
7
  6
CONTINUOUS
 70
0
 71
3
 72
19
 73
15
 74
0
 42
0.0000001
 43
0.0000001
 44
0.0000000001
 40
0.0
 40
0.0
 40
0.0
 40
0.0
 40
0.1504602541
 40
0.2916987487
 40
0.4244197399
 40
0.4878838165
 40
0.5495801819
 40
0.6682271511
 40
0.7255606398
 40
0.7817998923
 40
0.8371467013
 40
0.8918136246
 40
0.9460221895
 40
1.0
 40
1.0
 40
1.0
 40
1.0
 10
12.864099842
 20
7.7385960184
 30
0.0
 10
12.862573217
 20
7.7371214118
 30
0.0
 10
12.8595220486
 20
7.7343546228
 30
0.0
 10
12.854797621
 20
7.7306675404
 30
0.0
 10
12.8508070806
 20
7.7280598396
 30
0.0
 10
12.8476248956
 20
7.7262939721
 30
0.0
 10
12.844536583
 20
7.7247779543
 30
0.0
 10
12.8414121177
 20
7.7235387308
 30
0.0
 10
12.8382700694
 20
7.7226062098
 30
0.0
 10
12.8359469221
 20
7.7220687121
 30
0.0
 10
12.833631513
 20
7.7216855923
 30
0.0
 10
12.8313244478
 20
7.7214570582
 30
0.0
 10
12.8290266596
 20
7.7213832213
 30
0.0
 10
12.8275000756
 20
7.7214372121
 30
0.0
 10
12.8267404466
 20
7.7214898882
 30
0.0
  0
SPLINE
  5
38B
100
AcDbEntity
  8
0
100
AcDbSpline
 62
7
  6
CONTINUOUS
 70
0
 71
3
 72
83
 73
79
 74
0
 42
0.0000001
 43
0.0000001
 44
0.0000000001
 40
0.0
 40
0.0
 40
0.0
 40
0.0
 40
0.0039884097
 40
0.0081453951
 40
0.0124746186
 40
0.0169791614
 40
0.0216616097
 40
0.0265239718
 40
0.0315675691
 40
0.0367932644
 40
0.042201484
 40
0.0477922575
 40
0.0535653099
 40
0.0595199779
 40
0.0719697837
 40
0.0851316862
 40
0.098991495
 40
0.1135318501
 40
0.1287326108
 40
0.1445711562
 40
0.1610226585
 40
0.1780603021
 40
0.1956554688
 40
0.2137778955
 40
0.232395813
 40
0.2514760916
 40
0.2709843678
 40
0.29088516
 40
0.3111419767
 40
0.3317174197
 40
0.3525732979
 40
0.3736707312
 40
0.4164311769
 40
0.4596784221
 40
0.5030866968
 40
0.5463286871
 40
0.589078675
 40
0.6101689609
 40
0.6310164291
 40
0.6515822205
 40
0.6718281726
 40
0.6917169195
 40
0.7112119951
 40
0.730277944
 40
0.7488804433
 40
0.7669864122
 40
0.7845641338
 40
0.8015833871
 40
0.8180155988
 40
0.8338340188
 40
0.8490138961
 40
0.8635326921
 40
0.8773703389
 40
0.8905095606
 40
0.9029362808
 40
0.9146401102
 40
0.9202191733
 40
0.9256156542
 40
0.9308296162
 40
0.9358615409
 40
0.9407122971
 40
0.9453833039
 40
0.9498764865
 40
0.9541944013
 40
0.9583403271
 40
0.9623182846
 40
0.9661332455
 40
0.9697911516
 40
0.9732990923
 40
0.9766654451
 40
0.9798999492
 40
0.9830139088
 40
0.9860202118
 40
0.9889334125
 40
0.991769705
 40
0.9945467681
 40
0.997283572
 40
1.0
 40
1.0
 40
1.0
 40
1.0
 10
12.864099842
 20
7.7385960184
 30
0.0
 10
12.8651667307
 20
7.7396265539
 30
0.0
 10
12.8672993423
 20
7.741779508
 30
0.0
 10
12.8704313804
 20
7.7452035912
 30
0.0
 10
12.873560111
 20
7.748886401
 30
0.0
 10
12.8766838299
 20
7.7528259382
 30
0.0
 10
12.8798011005
 20
7.7570202612
 30
0.0
 10
12.8829103862
 20
7.7614673587
 30
0.0
 10
12.8860102242
 20
7.7661650143
 30
0.0
 10
12.8890990309
 20
7.7711109092
 30
0.0
 10
12.8921752677
 20
7.7763025764
 30
0.0
 10
12.8952374287
 20
7.7817374179
 30
0.0
 10
12.8982839633
 20
7.7874127538
 30
0.0
 10
12.9023841347
 20
7.7954158836
 30
0.0
 10
12.9074495293
 20
7.8060095025
 30
0.0
 10
12.9133549807
 20
7.8194514431
 30
0.0
 10
12.9191623708
 20
7.8337784539
 30
0.0
 10
12.9248599868
 20
7.848961872
 30
0.0
 10
12.9304363294
 20
7.8649714686
 30
0.0
 10
12.935880139
 20
7.8817752251
 30
0.0
 10
12.9411804163
 20
7.8993395022
 30
0.0
 10
12.9463264491
 20
7.9176290975
 30
0.0
 10
12.9513078362
 20
7.9366073293
 30
0.0
 10
12.9561145081
 20
7.9562361075
 30
0.0
 10
12.9607367602
 20
7.9764760119
 30
0.0
 10
12.965165259
 20
7.9972863801
 30
0.0
 10
12.9693910636
 20
8.0186253961
 30
0.0
 10
12.9734056417
 20
8.0404501737
 30
0.0
 10
12.9772008901
 20
8.062716844
 30
0.0
 10
12.9807691487
 20
8.085380629
 30
0.0
 10
12.9841032525
 20
8.1083959904
 30
0.0
 10
12.9882458201
 20
8.1396288962
 30
0.0
 10
12.9927850477
 20
8.1792066961
 30
0.0
 10
12.997181348
 20
8.2271404236
 30
0.0
 10
13.0005152739
 20
8.2753394084
 30
0.0
 10
13.0027599925
 20
8.3234161025
 30
0.0
 10
13.0037124703
 20
8.3632334675
 30
0.0
 10
13.0039087773
 20
8.3947296135
 30
0.0
 10
13.0037745313
 20
8.4179754548
 30
0.0
 10
13.003359858
 20
8.4409039128
 30
0.0
 10
13.0026655897
 20
8.4634689216
 30
0.0
 10
13.0016931551
 20
8.4856251017
 30
0.0
 10
13.0004445358
 20
8.5073279103
 30
0.0
 10
12.9989222735
 20
8.5285337204
 30
0.0
 10
12.9971294741
 20
8.5491999166
 30
0.0
 10
12.99506979
 20
8.5692849803
 30
0.0
 10
12.9927474145
 20
8.588748571
 30
0.0
 10
12.9901670725
 20
8.6075516101
 30
0.0
 10
12.9873340116
 20
8.6256563686
 30
0.0
 10
12.984254004
 20
8.6430265533
 30
0.0
 10
12.9809333195
 20
8.6596273812
 30
0.0
 10
12.9773787127
 20
8.6754256621
 30
0.0
 10
12.9735974039
 20
8.6903898468
 30
0.0
 10
12.9695970544
 20
8.7044902202
 30
0.0
 10
12.9653857531
 20
8.7176986239
 30
0.0
 10
12.9616503676
 20
8.728100596
 30
0.0
 10
12.9585532017
 20
8.735946655
 30
0.0
 10
12.9562200158
 20
8.7414978101
 30
0.0
 10
12.9538405512
 20
8.7468070937
 30
0.0
 10
12.9514160028
 20
8.7518718924
 30
0.0
 10
12.9489475148
 20
8.7566896711
 30
0.0
 10
12.946436353
 20
8.7612580676
 30
0.0
 10
12.9438837133
 20
8.7655748178
 30
0.0
 10
12.9412908157
 20
8.7696377865
 30
0.0
 10
12.9386589434
 20
8.7734450012
 30
0.0
 10
12.9359892649
 20
8.7769945475
 30
0.0
 10
12.9332830742
 20
8.7802847087
 30
0.0
 10
12.9305415659
 20
8.7833138278
 30
0.0
 10
12.9277659463
 20
8.7860803545
 30
0.0
 10
12.9249574741
 20
8.7885828923
 30
0.0
 10
12.9221172939
 20
8.7908200048
 30
0.0
 10
12.9192466935
 20
8.7927904519
 30
0.0
 10
12.9163469144
 20
8.794492949
 30
0.0
 10
12.9134192948
 20
8.7959262724
 30
0.0
 10
12.9104653589
 20
8.7970893596
 30
0.0
 10
12.9074865993
 20
8.7979810872
 30
0.0
 10
12.9044851673
 20
8.7986006742
 30
0.0
 10
12.9024670813
 20
8.7988322146
 30
0.0
 10
12.9014592374
 20
8.7989021029
 30
0.0
  0
SPLINE
  5
38C
100
AcDbEntity
  8
0
100
AcDbSpline
 62
7
  6
CONTINUOUS
 70
0
 71
3
 72
91
 73
87
 74
0
 42
0.0000001
 43
0.0000001
 44
0.0000000001
 40
0.0
 40
0.0
 40
0.0
 40
0.0
 40
0.0041939006
 40
0.0085762295
 40
0.0131520567
 40
0.0179256339
 40
0.022900472
 40
0.0280792119
 40
0.0334635948
 40
0.0390547604
 40
0.0448532145
 40
0.0508589916
 40
0.0570716268
 40
0.0634902059
 40
0.0769391878
 40
0.0911922121
 40
0.106230051
 40
0.122029338
 40
0.1385630994
 40
0.1558011778
 40
0.1737105801
 40
0.192255768
 40
0.2113989092
 40
0.2311001094
 40
0.2513176168
 40
0.2720080104
 40
0.2931263759
 40
0.3146264735
 40
0.3364608972
 40
0.3585812367
 40
0.3809382341
 40
0.4034819356
 40
0.4489261243
 40
0.4945068661
 40
0.5172208779
 40
0.5398156167
 40
0.562240433
 40
0.5844451724
 40
0.6063803258
 40
0.627997185
 40
0.6492479956
 40
0.6700861123
 40
0.690466159
 40
0.7103441945
 40
0.7296778864
 40
0.7484267008
 40
0.7665521008
 40
0.7840177595
 40
0.8007898032
 40
0.8168370894
 40
0.8321315351
 40
0.8466485167
 40
0.8603673678
 40
0.8732719958
 40
0.8794157686
 40
0.8853524675
 40
0.8910818067
 40
0.8966039515
 40
0.9019196251
 40
0.9070301916
 40
0.9119376547
 40
0.9166448716
 40
0.9211555228
 40
0.9254743499
 40
0.9296072248
 40
0.933561317
 40
0.9373453113
 40
0.9409694969
 40
0.9444460519
 40
0.947789099
 40
0.951014881
 40
0.9541417615
 40
0.9571901274
 40
0.9601821876
 40
0.9631415381
 40
0.9660926498
 40
0.9690602116
 40
0.972068475
 40
0.97514063
 40
0.9782983223
 40
0.9815612456
 40
0.984947051
 40
0.988471324
 40
0.9921476452
 40
0.9959874389
 40
1.0
 40
1.0
 40
1.0
 40
1.0
 10
11.2517145812
 20
10.0494934408
 30
0.0
 10
11.2526453414
 20
10.0503924861
 30
0.0
 10
11.2545949653
 20
10.0521835296
 30
0.0
 10
11.2577043994
 20
10.0547930551
 30
0.0
 10
11.2610600008
 20
10.0573818564
 30
0.0
 10
11.2646595858
 20
10.0599482958
 30
0.0
 10
11.2685010645
 20
10.0624909641
 30
0.0
 10
11.2725822111
 20
10.065008382
 30
0.0
 10
11.276900598
 20
10.0674991318
 30
0.0
 10
11.2814536821
 20
10.0699616649
 30
0.0
 10
11.2862387309
 20
10.072394574
 30
0.0
 10
11.2912529083
 20
10.0747963739
 30
0.0
 10
11.2964932295
 20
10.0771656643
 30
0.0
 10
11.3038932764
 20
10.0803287902
 30
0.0
 10
11.313694305
 20
10.0841807391
 30
0.0
 10
11.3261281431
 20
10.0885822835
 30
0.0
 10
11.3393815892
 20
10.0928215323
 30
0.0
 10
11.3534228948
 20
10.0968882298
 30
0.0
 10
11.3682185758
 20
10.100772518
 30
0.0
 10
11.3837332007
 20
10.1044649724
 30
0.0
 10
11.3999295795
 20
10.1079566293
 30
0.0
 10
11.4167688357
 20
10.1112390127
 30
0.0
 10
11.4342105154
 20
10.1143041598
 30
0.0
 10
11.4522126916
 20
10.1171446351
 30
0.0
 10
11.4707320725
 20
10.11975355
 30
0.0
 10
11.4897241084
 20
10.1221245783
 30
0.0
 10
11.5091431018
 20
10.1242519719
 30
0.0
 10
11.5289423166
 20
10.1261305727
 30
0.0
 10
11.5490740961
 20
10.1277558324
 30
0.0
 10
11.5694899646
 20
10.1291238088
 30
0.0
 10
11.590140806
 20
10.1302312162
 30
0.0
 10
11.6179952757
 20
10.1313595888
 30
0.0
 10
11.6530340547
 20
10.1320996973
 30
0.0
 10
11.6881328283
 20
10.1319518399
 30
0.0
 10
11.7161705383
 20
10.1312978336
 30
0.0
 10
11.7370572161
 20
10.1305419475
 30
0.0
 10
11.7577753212
 20
10.1295220564
 30
0.0
 10
11.7782750066
 20
10.1282406037
 30
0.0
 10
11.7985069054
 20
10.1267006973
 30
0.0
 10
11.8184223133
 20
10.1249060675
 30
0.0
 10
11.8379732908
 20
10.1228610637
 30
0.0
 10
11.857112783
 20
10.1205706415
 30
0.0
 10
11.8757947322
 20
10.1180403521
 30
0.0
 10
11.893974191
 20
10.1152763293
 30
0.0
 10
11.911607434
 20
10.1122852737
 30
0.0
 10
11.9286520687
 20
10.1090744417
 30
0.0
 10
11.9450671424
 20
10.1056516263
 30
0.0
 10
11.9608132453
 20
10.1020251353
 30
0.0
 10
11.9758526084
 20
10.0982037709
 30
0.0
 10
11.9901492133
 20
10.0941968054
 30
0.0
 10
12.0036688627
 20
10.0900139554
 30
0.0
 10
12.0163793869
 20
10.085665343
 30
0.0
 10
12.0282503923
 20
10.0811614824
 30
0.0
 10
12.037566863
 20
10.0772260596
 30
0.0
 10
12.0445690907
 20
10.0739993829
 30
0.0
 10
12.0495072239
 20
10.0715870219
 30
0.0
 10
12.054215263
 20
10.0691440885
 30
0.0
 10
12.0586904097
 20
10.0666719895
 30
0.0
 10
12.0629299986
 20
10.0641721848
 30
0.0
 10
12.0669315375
 20
10.0616461843
 30
0.0
 10
12.0706926308
 20
10.0590954044
 30
0.0
 10
12.0742110942
 20
10.0565213878
 30
0.0
 10
12.0774848221
 20
10.0539255501
 30
0.0
 10
12.0805119002
 20
10.0513093876
 30
0.0
 10
12.0832905353
 20
10.0486743481
 30
0.0
 10
12.0858190289
 20
10.0460218333
 30
0.0
 10
12.0880958813
 20
10.0433533129
 30
0.0
 10
12.0901195678
 20
10.0406701203
 30
0.0
 10
12.0918887865
 20
10.0379737164
 30
0.0
 10
12.0934021792
 20
10.0352654791
 30
0.0
 10
12.0946585107
 20
10.032546905
 30
0.0
 10
12.0956566297
 20
10.0298195871
 30
0.0
 10
12.096395379
 20
10.0270852397
 30
0.0
 10
12.096873958
 20
10.024345815
 30
0.0
 10
12.0970915947
 20
10.0216033933
 30
0.0
 10
12.0970480707
 20
10.0188602202
 30
0.0
 10
12.0967434003
 20
10.0161185542
 30
0.0
 10
12.0961780141
 20
10.013380599
 30
0.0
 10
12.0953527109
 20
10.0106483804
 30
0.0
 10
12.0942683744
 20
10.0079237999
 30
0.0
 10
12.0929262495
 20
10.0052085028
 30
0.0
 10
12.0913274545
 20
10.002504067
 30
0.0
 10
12.0894732731
 20
9.9998118904
 30
0.0
 10
12.0873649627
 20
9.9971333692
 30
0.0
 10
12.0850040931
 20
9.994470079
 30
0.0
 10
12.0833013563
 20
9.9927446312
 30
0.0
 10
12.0824108411
 20
9.9918844595
 30
0.0
  0
SPLINE
  5
38D
100
AcDbEntity
  8
0
100
AcDbSpline
 62
7
  6
CONTINUOUS
 70
0
 71
3
 72
29
 73
25
 74
0
 42
0.0000001
 43
0.0000001
 44
0.0000000001
 40
0.0
 40
0.0
 40
0.0
 40
0.0
 40
0.0755849261
 40
0.1466145423
 40
0.2134284043
 40
0.2764668694
 40
0.3362691012
 40
0.3651660615
 40
0.3935048179
 40
0.4213819954
 40
0.4488995596
 40
0.4761640064
 40
0.503285025
 40
0.5303741997
 40
0.5575435754
 40
0.5849040881
 40
0.6125642198
 40
0.6406286477
 40
0.6691970702
 40
0.7281928859
 40
0.7902532206
 40
0.8559467831
 40
0.9257384363
 40
1.0
 40
1.0
 40
1.0
 40
1.0
 10
12.9239872468
 20
7.674555408
 30
0.0
 10
12.9223140881
 20
7.6729392608
 30
0.0
 10
12.9189700547
 20
7.6699036678
 30
0.0
 10
12.9137948347
 20
7.6658483884
 30
0.0
 10
12.9086256059
 20
7.6624424678
 30
0.0
 10
12.9034676032
 20
7.6596912397
 30
0.0
 10
12.8991321342
 20
7.657928079
 30
0.0
 10
12.895688658
 20
7.656865055
 30
0.0
 10
12.8931425255
 20
7.6562425087
 30
0.0
 10
12.8906045389
 20
7.6557860449
 30
0.0
 10
12.8880753994
 20
7.6554958988
 30
0.0
 10
12.8855559332
 20
7.6553721916
 30
0.0
 10
12.88304695
 20
7.6554149929
 30
0.0
 10
12.8805492806
 20
7.6556243655
 30
0.0
 10
12.8780637545
 20
7.6560002079
 30
0.0
 10
12.8755911702
 20
7.6565423366
 30
0.0
 10
12.8731323394
 20
7.6572505518
 30
0.0
 10
12.8706879601
 20
7.6581246143
 30
0.0
 10
12.8674145256
 20
7.6595252698
 30
0.0
 10
12.8633490622
 20
7.6617107597
 30
0.0
 10
12.8585982189
 20
7.6649621819
 30
0.0
 10
12.8539256615
 20
7.6688650977
 30
0.0
 10
12.8493357003
 20
7.6734134787
 30
0.0
 10
12.8464266557
 20
7.6767647479
 30
0.0
 10
12.8449845748
 20
7.6785378708
 30
0.0
  0
SPLINE
  5
38E
100
AcDbEntity
  8
0
100
AcDbSpline
 62
7
  6
CONTINUOUS
 70
0
 71
3
 72
31
 73
27
 74
0
 42
0.0000001
 43
0.0000001
 44
0.0000000001
 40
0.0
 40
0.0
 40
0.0
 40
0.0
 40
0.0151462154
 40
0.0311332669
 40
0.048110182
 40
0.0661918322
 40
0.0854630981
 40
0.105982118
 40
0.1277852792
 40
0.1508900976
 40
0.1752988891
 40
0.2010009682
 40
0.2279747805
 40
0.256190094
 40
0.2856088109
 40
0.3161872177
 40
0.3478760504
 40
0.3806224817
 40
0.449058722
 40
0.5210240811
 40
0.5960270836
 40
0.6735762674
 40
0.7531930794
 40
0.8344169137
 40
0.9168244642
 40
1.0
 40
1.0
 40
1.0
 40
1.0
 10
9.7389415533
 20
8.1144289799
 30
0.0
 10
9.7389415639
 20
8.1147610974
 30
0.0
 10
9.7388983324
 20
8.1154442811
 30
0.0
 10
9.7387151488
 20
8.1164849977
 30
0.0
 10
9.7384137185
 20
8.1175646054
 30
0.0
 10
9.7379960503
 20
8.1186816345
 30
0.0
 10
9.7374640916
 20
8.1198348509
 30
0.0
 10
9.7368202045
 20
8.1210229877
 30
0.0
 10
9.7360668446
 20
8.1222446733
 30
0.0
 10
9.7352068383
 20
8.1234985395
 30
0.0
 10
9.7342432133
 20
8.1247831339
 30
0.0
 10
9.7331792771
 20
8.1260969802
 30
0.0
 10
9.7320185824
 20
8.1274385844
 30
0.0
 10
9.7307648589
 20
8.1288063906
 30
0.0
 10
9.729422076
 20
8.1301988877
 30
0.0
 10
9.7279942932
 20
8.1316144768
 30
0.0
 10
9.726485766
 20
8.1330516417
 30
0.0
 10
9.7243407697
 20
8.1350235402
 30
0.0
 10
9.7214842845
 20
8.1375254921
 30
0.0
 10
9.7178533623
 20
8.140546951
 30
0.0
 10
9.7140050666
 20
8.1436178282
 30
0.0
 10
9.7099730046
 20
8.1467261042
 30
0.0
 10
9.7057891559
 20
8.1498599942
 30
0.0
 10
9.7014833602
 20
8.1530081194
 30
0.0
 10
9.6970833943
 20
8.1561591669
 30
0.0
 10
9.6941135182
 20
8.1582479356
 30
0.0
 10
9.6926177317
 20
8.1592914689
 30
0.0
  0
SPLINE
  5
38F
100
AcDbEntity
  8
0
100
AcDbSpline
 62
7
  6
CONTINUOUS
 70
0
 71
3
 72
95
 73
91
 74
0
 42
0.0000001
 43
0.0000001
 44
0.0000000001
 40
0.0
 40
0.0
 40
0.0
 40
0.0
 40
0.0039488186
 40
0.0077209214
 40
0.0113256445
 40
0.0147745623
 40
0.0212567379
 40
0.0243282751
 40
0.0273113629
 40
0.0302282336
 40
0.0331028199
 40
0.0359602143
 40
0.0388260038
 40
0.0417255309
 40
0.0446832014
 40
0.0477218699
 40
0.0508624604
 40
0.054123679
 40
0.0575219936
 40
0.0610716364
 40
0.0647847726
 40
0.0686716672
 40
0.0727408686
 40
0.0769994465
 40
0.0814531065
 40
0.0861064471
 40
0.0909629987
 40
0.0960254618
 40
0.1012957099
 40
0.1067749705
 40
0.1124638402
 40
0.1183623842
 40
0.1244701939
 40
0.1307863998
 40
0.1373097798
 40
0.1440387018
 40
0.1509712635
 40
0.165437612
 40
0.1806882179
 40
0.1966981085
 40
0.213438923
 40
0.2308792972
 40
0.2489851807
 40
0.267720107
 40
0.2870454315
 40
0.3069205425
 40
0.3273030537
 40
0.3481489841
 40
0.3694129279
 40
0.3910482169
 40
0.4130070784
 40
0.4352407884
 40
0.4576998231
 40
0.4803340076
 40
0.5030926647
 40
0.5259247619
 40
0.5487790575
 40
0.5716042467
 40
0.5943491077
 40
0.6169626475
 40
0.6393942481
 40
0.6615938139
 40
0.6835119196
 40
0.7050999601
 40
0.7263103021
 40
0.7470964384
 40
0.7674131453
 40
0.7872166469
 40
0.8064647855
 40
0.8251172028
 40
0.8431355353
 40
0.8604836278
 40
0.8771277739
 40
0.893036993
 40
0.9081833566
 40
0.9225423822
 40
0.9294203032
 40
0.9360940384
 40
0.9425617647
 40
0.9488219437
 40
0.9548734598
 40
0.9607155432
 40
0.9663479326
 40
0.9717708198
 40
0.9769849626
 40
0.9819917154
 40
0.9867932039
 40
0.9913924565
 40
0.9957932256
 40
1.0
 40
1.0
 40
1.0
 40
1.0
 10
12.9254591415
 20
8.838925957
 30
0.0
 10
12.9267011382
 20
8.840081832
 30
0.0
 10
12.9291840767
 20
8.8422844013
 30
0.0
 10
12.9329937457
 20
8.8453156732
 30
0.0
 10
12.9367999774
 20
8.8479950869
 30
0.0
 10
12.9417625033
 20
8.8510322516
 30
0.0
 10
12.9468255713
 20
8.8534544254
 30
0.0
 10
12.9519422523
 20
8.8551559402
 30
0.0
 10
12.9556974593
 20
8.8560494008
 30
0.0
 10
12.9594354071
 20
8.8565812489
 30
0.0
 10
12.9631534422
 20
8.856750689
 30
0.0
 10
12.9668484295
 20
8.856557276
 30
0.0
 10
12.970517216
 20
8.8560010638
 30
0.0
 10
12.9741567573
 20
8.8550828407
 30
0.0
 10
12.9777641981
 20
8.8538036535
 30
0.0
 10
12.9813370793
 20
8.8521651453
 30
0.0
 10
12.9848731369
 20
8.8501689096
 30
0.0
 10
12.9883704674
 20
8.8478168744
 30
0.0
 10
12.99182721
 20
8.8451108423
 30
0.0
 10
12.9952416771
 20
8.8420528003
 30
0.0
 10
12.9986121533
 20
8.8386447388
 30
0.0
 10
13.0019369277
 20
8.8348887763
 30
0.0
 10
13.0052143114
 20
8.8307871905
 30
0.0
 10
13.0084425072
 20
8.8263423673
 30
0.0
 10
13.0116198282
 20
8.8215569461
 30
0.0
 10
13.0147444243
 20
8.8164336761
 30
0.0
 10
13.0178146103
 20
8.810975586
 30
0.0
 10
13.0208285458
 20
8.8051858358
 30
0.0
 10
13.0237845458
 20
8.7990678458
 30
0.0
 10
13.0266808339
 20
8.7926251985
 30
0.0
 10
13.0295157285
 20
8.7858617021
 30
0.0
 10
13.0322875484
 20
8.7787813527
 30
0.0
 10
13.0349946272
 20
8.7713883421
 30
0.0
 10
13.03763539
 20
8.7636870624
 30
0.0
 10
13.0402082014
 20
8.7556820856
 30
0.0
 10
13.0427116092
 20
8.7473781708
 30
0.0
 10
13.04600158
 20
8.7357487183
 30
0.0
 10
13.049916511
 20
8.7204935395
 30
0.0
 10
13.0542506111
 20
8.7013282103
 30
0.0
 10
13.0582745725
 20
8.681098198
 30
0.0
 10
13.0619786545
 20
8.6598517804
 30
0.0
 10
13.0653538594
 20
8.6376395076
 30
0.0
 10
13.0683919944
 20
8.6145143703
 30
0.0
 10
13.0710856831
 20
8.5905315704
 30
0.0
 10
13.0734283853
 20
8.5657484029
 30
0.0
 10
13.0754144121
 20
8.5402241029
 30
0.0
 10
13.0770389384
 20
8.5140197002
 30
0.0
 10
13.0782980141
 20
8.4871978683
 30
0.0
 10
13.0791885722
 20
8.459822771
 30
0.0
 10
13.0797084358
 20
8.4319599064
 30
0.0
 10
13.0798563223
 20
8.4036759479
 30
0.0
 10
13.079631846
 20
8.3750385832
 30
0.0
 10
13.0790355184
 20
8.3461163507
 30
0.0
 10
13.078068748
 20
8.3169784748
 30
0.0
 10
13.076733835
 20
8.2876946981
 30
0.0
 10
13.0750339656
 20
8.2583351139
 30
0.0
 10
13.0729732045
 20
8.2289699975
 30
0.0
 10
13.0705564846
 20
8.1996696375
 30
0.0
 10
13.0677895957
 20
8.1705041663
 30
0.0
 10
13.06467917
 20
8.1415433925
 30
0.0
 10
13.061232667
 20
8.1128566323
 30
0.0
 10
13.0574583553
 20
8.0845125431
 30
0.0
 10
13.0533652931
 20
8.0565789579
 30
0.0
 10
13.048963308
 20
8.0291227209
 30
0.0
 10
13.0442629727
 20
8.0022095262
 30
0.0
 10
13.0392755801
 20
7.975903759
 30
0.0
 10
13.0340131166
 20
7.950268339
 30
0.0
 10
13.028488234
 20
7.9253645674
 30
0.0
 10
13.0227142191
 20
7.9012519766
 30
0.0
 10
13.0167049626
 20
7.8779881824
 30
0.0
 10
13.0104749257
 20
7.8556287422
 30
0.0
 10
13.0040391043
 20
7.8342270064
 30
0.0
 10
12.9974129914
 20
7.8138340059
 30
0.0
 10
12.9906125347
 20
7.7944982228
 30
0.0
 10
12.9836540982
 20
7.7762657745
 30
0.0
 10
12.9776547491
 20
7.7618273802
 30
0.0
 10
12.972779097
 20
7.7508706539
 30
0.0
 10
12.9691457837
 20
7.7430736661
 30
0.0
 10
12.9654855803
 20
7.7355835662
 30
0.0
 10
12.9618005818
 20
7.7284048194
 30
0.0
 10
12.95809306
 20
7.7215416709
 30
0.0
 10
12.9543651544
 20
7.7149982106
 30
0.0
 10
12.9506191301
 20
7.7087782884
 30
0.0
 10
12.9468571553
 20
7.7028855985
 30
0.0
 10
12.9430814848
 20
7.697323616
 30
0.0
 10
12.9392943309
 20
7.6920956058
 30
0.0
 10
12.9354978456
 20
7.6872046205
 30
0.0
 10
12.9316941613
 20
7.6826534483
 30
0.0
 10
12.9278856156
 20
7.6784450132
 30
0.0
 10
12.9252872833
 20
7.675811147
 30
0.0
 10
12.9239872468
 20
7.674555408
 30
0.0
  0
SPLINE
  5
390
100
AcDbEntity
  8
0
100
AcDbSpline
 62
7
  6
CONTINUOUS
 70
0
 71
3
 72
71
 73
67
 74
0
 42
0.0000001
 43
0.0000001
 44
0.0000000001
 40
0.0
 40
0.0
 40
0.0
 40
0.0
 40
0.0155842357
 40
0.031115943
 40
0.0465952487
 40
0.0620238831
 40
0.0774034484
 40
0.0927362827
 40
0.1080251234
 40
0.1232731737
 40
0.1384840555
 40
0.1536617759
 40
0.1688106894
 40
0.1839354528
 40
0.1990409785
 40
0.2141323826
 40
0.2292149324
 40
0.2442939897
 40
0.2593749538
 40
0.2744632037
 40
0.2895640404
 40
0.3046826304
 40
0.3198239511
 40
0.3349927396
 40
0.3501934435
 40
0.3654301766
 40
0.3807066777
 40
0.3960262752
 40
0.4113918557
 40
0.4268058391
 40
0.4422701589
 40
0.4577862478
 40
0.4733550285
 40
0.4889769092
 40
0.5046517848
 40
0.5203790431
 40
0.5361575763
 40
0.5519857963
 40
0.5678616538
 40
0.5837826609
 40
0.5997459179
 40
0.6157481418
 40
0.6317856999
 40
0.6478546445
 40
0.6639507499
 40
0.6800695506
 40
0.6962063818
 40
0.7123564201
 40
0.7285147273
 40
0.7446762933
 40
0.7608360799
 40
0.7769890645
 40
0.7931302835
 40
0.8092548753
 40
0.8253581239
 40
0.8414355006
 40
0.8574827053
 40
0.873495705
 40
0.8894707706
 40
0.9054045132
 40
0.921293919
 40
0.9371363616
 40
0.9529297193
 40
0.9686720808
 40
0.9843626423
 40
1.0
 40
1.0
 40
1.0
 40
1.0
 10
10.0459513823
 20
8.1710734547
 30
0.0
 10
10.0459513823
 20
8.1642896383
 30
0.0
 10
10.0456193911
 20
8.1507424657
 30
0.0
 10
10.0441207832
 20
8.1305070569
 30
0.0
 10
10.0416257933
 20
8.1104378704
 30
0.0
 10
10.0381405605
 20
8.0905840547
 30
0.0
 10
10.0336733083
 20
8.070993167
 30
0.0
 10
10.0282348148
 20
8.0517125296
 30
0.0
 10
10.0218381079
 20
8.0327886025
 30
0.0
 10
10.0144985734
 20
8.0142670252
 30
0.0
 10
10.0062338708
 20
7.9961924614
 30
0.0
 10
9.9970638929
 20
7.9786085054
 30
0.0
 10
9.9870107197
 20
7.9615575731
 30
0.0
 10
9.9760985653
 20
7.9450807995
 30
0.0
 10
9.96435372
 20
7.9292179397
 30
0.0
 10
9.9518044906
 20
7.9140072684
 30
0.0
 10
9.9384811421
 20
7.899485477
 30
0.0
 10
9.9244158082
 20
7.8856875944
 30
0.0
 10
9.909642415
 20
7.8726469009
 30
0.0
 10
9.8941965987
 20
7.8603948479
 30
0.0
 10
9.8781156191
 20
7.8489609805
 30
0.0
 10
9.8614382676
 20
7.8383728688
 30
0.0
 10
9.8442047825
 20
7.8286560244
 30
0.0
 10
9.8264567414
 20
7.8198338489
 30
0.0
 10
9.8082369574
 20
7.8119275826
 30
0.0
 10
9.7895893756
 20
7.804956253
 30
0.0
 10
9.7705589664
 20
7.7989366298
 30
0.0
 10
9.7511916167
 20
7.7938831882
 30
0.0
 10
9.7315340214
 20
7.7898080646
 30
0.0
 10
9.7116335695
 20
7.7867210234
 30
0.0
 10
9.6915382252
 20
7.7846294509
 30
0.0
 10
9.6712964137
 20
7.7835383349
 30
0.0
 10
9.6509569049
 20
7.7834502557
 30
0.0
 10
9.630568697
 20
7.7843653804
 30
0.0
 10
9.6101808999
 20
7.7862814634
 30
0.0
 10
9.589842615
 20
7.789193835
 30
0.0
 10
9.5696028173
 20
7.7930954317
 30
0.0
 10
9.5495102389
 20
7.7979768139
 30
0.0
 10
9.5296132528
 20
7.8038261891
 30
0.0
 10
9.5099597577
 20
7.8106294402
 30
0.0
 10
9.4905970658
 20
7.818370162
 30
0.0
 10
9.4715717832
 20
7.8270296868
 30
0.0
 10
9.4529296991
 20
7.8365871342
 30
0.0
 10
9.4347156796
 20
7.8470194713
 30
0.0
 10
9.4169735606
 20
7.8583015656
 30
0.0
 10
9.3997460429
 20
7.8704062452
 30
0.0
 10
9.3830745923
 20
7.8833043646
 30
0.0
 10
9.3669993369
 20
7.8969648703
 30
0.0
 10
9.3515589625
 20
7.9113548668
 30
0.0
 10
9.3367906309
 20
7.9264397099
 30
0.0
 10
9.3227298892
 20
7.9421830876
 30
0.0
 10
9.3094105864
 20
7.9585471071
 30
0.0
 10
9.2968647918
 20
7.9754923844
 30
0.0
 10
9.2851227206
 20
7.9929781397
 30
0.0
 10
9.2742126457
 20
8.010962285
 30
0.0
 10
9.26416084
 20
8.0294015337
 30
0.0
 10
9.2549915166
 20
8.0482515061
 30
0.0
 10
9.2467267713
 20
8.0674668342
 30
0.0
 10
9.2393865283
 20
8.0870012697
 30
0.0
 10
9.2329884937
 20
8.1068077963
 30
0.0
 10
9.2275481139
 20
8.126838729
 30
0.0
 10
9.2230784904
 20
8.1470458724
 30
0.0
 10
9.2195904838
 20
8.1673804783
 30
0.0
 10
9.2170924125
 20
8.1877938847
 30
0.0
 10
9.2155905113
 20
8.2082361372
 30
0.0
 10
9.2152551224
 20
8.2218754955
 30
0.0
 10
9.2152551224
 20
8.2286824359
 30
0.0
  0
SPLINE
  5
391
100
AcDbEntity
  8
0
100
AcDbSpline
 62
7
  6
CONTINUOUS
 70
0
 71
3
 72
71
 73
67
 74
0
 42
0.0000001
 43
0.0000001
 44
0.0000000001
 40
0.0
 40
0.0
 40
0.0
 40
0.0
 40
0.0155842357
 40
0.031115943
 40
0.0465952487
 40
0.0620238831
 40
0.0774034484
 40
0.0927362827
 40
0.1080251234
 40
0.1232731737
 40
0.1384840555
 40
0.1536617759
 40
0.1688106894
 40
0.1839354528
 40
0.1990409785
 40
0.2141323826
 40
0.2292149324
 40
0.2442939897
 40
0.2593749538
 40
0.2744632037
 40
0.2895640404
 40
0.3046826304
 40
0.3198239511
 40
0.3349927396
 40
0.3501934435
 40
0.3654301766
 40
0.3807066777
 40
0.3960262752
 40
0.4113918557
 40
0.4268058391
 40
0.4422701589
 40
0.4577862478
 40
0.4733550285
 40
0.4889769092
 40
0.5046517848
 40
0.5203790431
 40
0.5361575763
 40
0.5519857963
 40
0.5678616538
 40
0.5837826609
 40
0.5997459179
 40
0.6157481418
 40
0.6317856999
 40
0.6478546445
 40
0.6639507499
 40
0.6800695506
 40
0.6962063818
 40
0.7123564201
 40
0.7285147273
 40
0.7446762933
 40
0.7608360799
 40
0.7769890645
 40
0.7931302835
 40
0.8092548753
 40
0.8253581239
 40
0.8414355006
 40
0.8574827053
 40
0.873495705
 40
0.8894707706
 40
0.9054045132
 40
0.921293919
 40
0.9371363616
 40
0.9529297193
 40
0.9686720808
 40
0.9843626423
 40
1.0
 40
1.0
 40
1.0
 40
1.0
 10
9.2152551224
 20
8.2286824359
 30
0.0
 10
9.2152551224
 20
8.2354662523
 30
0.0
 10
9.2155871136
 20
8.2490134249
 30
0.0
 10
9.2170857215
 20
8.2692488337
 30
0.0
 10
9.2195807114
 20
8.2893180202
 30
0.0
 10
9.2230659442
 20
8.3091718359
 30
0.0
 10
9.2275331964
 20
8.3287627236
 30
0.0
 10
9.2329716899
 20
8.3480433611
 30
0.0
 10
9.2393683968
 20
8.3669672881
 30
0.0
 10
9.2467079313
 20
8.3854888655
 30
0.0
 10
9.2549726338
 20
8.4035634292
 30
0.0
 10
9.2641426118
 20
8.4211473852
 30
0.0
 10
9.274195785
 20
8.4381983175
 30
0.0
 10
9.2851079393
 20
8.4546750911
 30
0.0
 10
9.2968527847
 20
8.4705379509
 30
0.0
 10
9.3094020141
 20
8.4857486222
 30
0.0
 10
9.3227253625
 20
8.5002704136
 30
0.0
 10
9.3367906965
 20
8.5140682963
 30
0.0
 10
9.3515640897
 20
8.5271089897
 30
0.0
 10
9.3670099059
 20
8.5393610427
 30
0.0
 10
9.3830908856
 20
8.5507949101
 30
0.0
 10
9.3997682371
 20
8.5613830218
 30
0.0
 10
9.4170017222
 20
8.5710998662
 30
0.0
 10
9.4347497633
 20
8.5799220417
 30
0.0
 10
9.4529695473
 20
8.587828308
 30
0.0
 10
9.4716171291
 20
8.5947996377
 30
0.0
 10
9.4906475383
 20
8.6008192608
 30
0.0
 10
9.510014888
 20
8.6058727024
 30
0.0
 10
9.5296724833
 20
8.6099478261
 30
0.0
 10
9.5495729352
 20
8.6130348672
 30
0.0
 10
9.5696682795
 20
8.6151264397
 30
0.0
 10
9.589910091
 20
8.6162175557
 30
0.0
 10
9.6102495998
 20
8.6163056349
 30
0.0
 10
9.6306378077
 20
8.6153905103
 30
0.0
 10
9.6510256048
 20
8.6134744273
 30
0.0
 10
9.6713638897
 20
8.6105620556
 30
0.0
 10
9.6916036874
 20
8.6066604589
 30
0.0
 10
9.7116962658
 20
8.6017790767
 30
0.0
 10
9.7315932519
 20
8.5959297015
 30
0.0
 10
9.7512467469
 20
8.5891264504
 30
0.0
 10
9.7706094389
 20
8.5813857286
 30
0.0
 10
9.7896347215
 20
8.5727262038
 30
0.0
 10
9.8082768056
 20
8.5631687565
 30
0.0
 10
9.826490825
 20
8.5527364193
 30
0.0
 10
9.8442329441
 20
8.541454325
 30
0.0
 10
9.8614604617
 20
8.5293496454
 30
0.0
 10
9.8781319124
 20
8.516451526
 30
0.0
 10
9.8942071678
 20
8.5027910203
 30
0.0
 10
9.9096475422
 20
8.4884010238
 30
0.0
 10
9.9244158738
 20
8.4733161807
 30
0.0
 10
9.9384766155
 20
8.457572803
 30
0.0
 10
9.9517959183
 20
8.4412087835
 30
0.0
 10
9.9643417128
 20
8.4242635062
 30
0.0
 10
9.9760837841
 20
8.4067777509
 30
0.0
 10
9.986993859
 20
8.3887936056
 30
0.0
 10
9.9970456647
 20
8.3703543569
 30
0.0
 10
10.006214988
 20
8.3515043845
 30
0.0
 10
10.0144797334
 20
8.3322890564
 30
0.0
 10
10.0218199764
 20
8.312754621
 30
0.0
 10
10.0282180109
 20
8.2929480943
 30
0.0
 10
10.0336583908
 20
8.2729171616
 30
0.0
 10
10.0381280143
 20
8.2527100182
 30
0.0
 10
10.0416160208
 20
8.2323754123
 30
0.0
 10
10.0441140921
 20
8.2119620059
 30
0.0
 10
10.0456159934
 20
8.1915197535
 30
0.0
 10
10.0459513823
 20
8.1778803951
 30
0.0
 10
10.0459513823
 20
8.1710734547
 30
0.0
  0
SPLINE
  5
392
100
AcDbEntity
  8
0
100
AcDbSpline
 62
7
  6
CONTINUOUS
 70
0
 71
3
 72
41
 73
37
 74
0
 42
0.0000001
 43
0.0000001
 44
0.0000000001
 40
0.0
 40
0.0
 40
0.0
 40
0.0
 40
0.0849914305
 40
0.1698456248
 40
0.2538983411
 40
0.3365284429
 40
0.4171347351
 40
0.4950998034
 40
0.5328858817
 40
0.5697543953
 40
0.6056051031
 40
0.6403316615
 40
0.6738155985
 40
0.7059305683
 40
0.7365400382
 40
0.7655001401
 40
0.7926673177
 40
0.8179069633
 40
0.8411137346
 40
0.8519411007
 40
0.8622510329
 40
0.87205511
 40
0.8813750737
 40
0.8902451292
 40
0.8987141176
 40
0.906846098
 40
0.914721056
 40
0.9224322775
 40
0.9300827496
 40
0.937778537
 40
0.9456228556
 40
0.9537087383
 40
0.9621162975
 40
0.970909271
 40
0.9801358553
 40
1.0
 40
1.0
 40
1.0
 40
1.0
 10
9.6926177317
 20
8.1592914689
 30
0.0
 10
9.6904269407
 20
8.1608198711
 30
0.0
 10
9.6860319207
 20
8.1638499361
 30
0.0
 10
9.6794168451
 20
8.1683133494
 30
0.0
 10
9.6728194278
 20
8.1726695726
 30
0.0
 10
9.6662869485
 20
8.1768810822
 30
0.0
 10
9.6598623833
 20
8.1809057856
 30
0.0
 10
9.6545791166
 20
8.1840962496
 30
0.0
 10
9.6504324601
 20
8.1865077529
 30
0.0
 10
9.6474079386
 20
8.1882153135
 30
0.0
 10
9.6444424719
 20
8.1898311792
 30
0.0
 10
9.6415430103
 20
8.1913448912
 30
0.0
 10
9.6387171471
 20
8.1927445033
 30
0.0
 10
9.6359736939
 20
8.1940169772
 30
0.0
 10
9.6333226006
 20
8.1951477609
 30
0.0
 10
9.6307752698
 20
8.1961209579
 30
0.0
 10
9.6283445285
 20
8.1969195759
 30
0.0
 10
9.6260448819
 20
8.1975254756
 30
0.0
 10
9.6242098316
 20
8.1978621294
 30
0.0
 10
9.6228232597
 20
8.1980090479
 30
0.0
 10
9.6218513357
 20
8.1980564419
 30
0.0
 10
9.6209256257
 20
8.1980415864
 30
0.0
 10
9.6200484167
 20
8.1979626799
 30
0.0
 10
9.6192220421
 20
8.1978177687
 30
0.0
 10
9.6184487398
 20
8.1976056525
 30
0.0
 10
9.617730856
 20
8.1973249285
 30
0.0
 10
9.617070632
 20
8.1969750511
 30
0.0
 10
9.6164702719
 20
8.1965558629
 30
0.0
 10
9.6159318654
 20
8.1960678752
 30
0.0
 10
9.615456814
 20
8.1955125522
 30
0.0
 10
9.6150463952
 20
8.19489158
 30
0.0
 10
9.61470072
 20
8.1942074232
 30
0.0
 10
9.6144199884
 20
8.193462443
 30
0.0
 10
9.6142034764
 20
8.1926593134
 30
0.0
 10
9.6139945699
 20
8.1914859698
 30
0.0
 10
9.6139416168
 20
8.1905692185
 30
0.0
 10
9.6139415545
 20
8.1899448955
 30
0.0
  0
SPLINE
  5
393
100
AcDbEntity
  8
0
100
AcDbSpline
 62
7
  6
CONTINUOUS
 70
0
 71
3
 72
64
 73
60
 74
0
 42
0.0000001
 43
0.0000001
 44
0.0000000001
 40
0.0
 40
0.0
 40
0.0
 40
0.0
 40
0.0155849845
 40
0.0311178845
 40
0.0465980212
 40
0.0620275829
 40
0.0774080835
 40
0.0927418223
 40
0.1080315802
 40
0.1232805423
 40
0.1384923336
 40
0.1536709611
 40
0.1688207799
 40
0.183946448
 40
0.1990528765
 40
0.214145182
 40
0.229228633
 40
0.2443085924
 40
0.2593904588
 40
0.2744796104
 40
0.2895813489
 40
0.3047008425
 40
0.3198430689
 40
0.335012764
 40
0.3502143761
 40
0.3654520204
 40
0.3807294358
 40
0.3960499486
 40
0.4114164463
 40
0.4268313508
 40
0.4422965963
 40
0.4578136132
 40
0.4733833239
 40
0.4890061381
 40
0.5046819513
 40
0.5204101494
 40
0.5361896249
 40
0.5520187915
 40
0.5678955993
 40
0.5838175581
 40
0.599781768
 40
0.6157849482
 40
0.6478847239
 40
0.6800929956
 40
0.7123732918
 40
0.7446866203
 40
0.7769928409
 40
0.8092520605
 40
0.8414260218
 40
0.857474186
 40
0.8734881437
 40
0.8894641632
 40
0.9053988608
 40
0.9212892055
 40
0.9371326126
 40
0.9529269185
 40
0.9686701254
 40
0.9843618894
 40
1.0
 40
1.0
 40
1.0
 40
1.0
 10
12.436617944
 20
7.4025424017
 30
0.0
 10
12.436617944
 20
7.3981250848
 30
0.0
 10
12.4364017418
 20
7.389303648
 30
0.0
 10
12.4354259375
 20
7.376127104
 30
0.0
 10
12.4338012726
 20
7.363058749
 30
0.0
 10
12.4315318383
 20
7.350130701
 30
0.0
 10
12.4286229186
 20
7.3373738434
 30
0.0
 10
12.4250815566
 20
7.324819013
 30
0.0
 10
12.4209162708
 20
7.312496455
 30
0.0
 10
12.4161370533
 20
7.300435886
 30
0.0
 10
12.4107553783
 20
7.2886664061
 30
0.0
 10
12.4047842238
 20
7.2772163918
 30
0.0
 10
12.3982379755
 20
7.2661134571
 30
0.0
 10
12.3911323932
 20
7.2553843907
 30
0.0
 10
12.3834845752
 20
7.2450550953
 30
0.0
 10
12.3753129817
 20
7.2351504751
 30
0.0
 10
12.3666373218
 20
7.2256944173
 30
0.0
 10
12.3574785093
 20
7.2167097389
 30
0.0
 10
12.3478586155
 20
7.2082181349
 30
0.0
 10
12.3378008678
 20
7.2002400633
 30
0.0
 10
12.3273295349
 20
7.1927947518
 30
0.0
 10
12.316469872
 20
7.1859001552
 30
0.0
 10
12.3052480637
 20
7.1795729145
 30
0.0
 10
12.293691198
 20
7.1738282464
 30
0.0
 10
12.2818271558
 20
7.1686799735
 30
0.0
 10
12.2696845471
 20
7.1641404944
 30
0.0
 10
12.2572926473
 20
7.1602207559
 30
0.0
 10
12.2446813484
 20
7.1569301507
 30
0.0
 10
12.2318810572
 20
7.1542765705
 30
0.0
 10
12.2189226257
 20
7.1522663884
 30
0.0
 10
12.2058372835
 20
7.1509044453
 30
0.0
 10
12.1926565685
 20
7.1501939608
 30
0.0
 10
12.1794122377
 20
7.1501366038
 30
0.0
 10
12.166136195
 20
7.1507324899
 30
0.0
 10
12.1528604209
 20
7.1519801809
 30
0.0
 10
12.1396168878
 20
7.1538766117
 30
0.0
 10
12.1264374823
 20
7.1564171775
 30
0.0
 10
12.1133539437
 20
7.1595957391
 30
0.0
 10
12.1003977562
 20
7.1634046583
 30
0.0
 10
12.0876001894
 20
7.1678346607
 30
0.0
 10
12.0749917214
 20
7.1728752434
 30
0.0
 10
12.0584593443
 20
7.1803999333
 30
0.0
 10
12.0384199443
 20
7.1912720431
 30
0.0
 10
12.0156336723
 20
7.2065143105
 30
0.0
 10
11.9942949858
 20
7.223822633
 30
0.0
 10
11.9746100271
 20
7.2430298568
 30
0.0
 10
11.95676726
 20
7.2639522301
 30
0.0
 10
11.9409386916
 20
7.2863874039
 30
0.0
 10
11.9295408098
 20
7.306187845
 30
0.0
 10
11.9215744092
 20
7.3225651626
 30
0.0
 10
11.9161925819
 20
7.3350776641
 30
0.0
 10
11.9114129359
 20
7.3477977148
 30
0.0
 10
11.9072467765
 20
7.3606950024
 30
0.0
 10
11.903704189
 20
7.3737383943
 30
0.0
 10
11.9007937245
 20
7.3868965362
 30
0.0
 10
11.8985224839
 20
7.4001376564
 30
0.0
 10
11.8968958127
 20
7.4134301542
 30
0.0
 10
11.8959178636
 20
7.4267413869
 30
0.0
 10
11.8956994492
 20
7.435622852
 30
0.0
 10
11.8956994492
 20
7.4400552268
 30
0.0
  0
SPLINE
  5
394
100
AcDbEntity
  8
0
100
AcDbSpline
 62
7
  6
CONTINUOUS
 70
0
 71
3
 72
29
 73
25
 74
0
 42
0.0000001
 43
0.0000001
 44
0.0000000001
 40
0.0
 40
0.0
 40
0.0
 40
0.0
 40
0.0799937123
 40
0.1576499354
 40
0.2326955475
 40
0.3048036802
 40
0.3736715211
 40
0.438942671
 40
0.5003244776
 40
0.5575980444
 40
0.5846970793
 40
0.6108054764
 40
0.6602998852
 40
0.6840284961
 40
0.707351558
 40
0.730570491
 40
0.7540537743
 40
0.778217655
 40
0.8034979073
 40
0.8590345263
 40
0.8901391525
 40
0.9238620711
 40
0.9604300474
 40
1.0
 40
1.0
 40
1.0
 40
1.0
 10
9.9804071595
 20
8.1152298146
 30
0.0
 10
9.9798707477
 20
8.1153579719
 30
0.0
 10
9.9788174768
 20
8.1156272167
 30
0.0
 10
9.9772777967
 20
8.1160792028
 30
0.0
 10
9.9758086344
 20
8.1165744805
 30
0.0
 10
9.9744200503
 20
8.117114617
 30
0.0
 10
9.973123386
 20
8.1177001484
 30
0.0
 10
9.971931952
 20
8.1183331454
 30
0.0
 10
9.9708609872
 20
8.1190149086
 30
0.0
 10
9.970068802
 20
8.1196370636
 30
0.0
 10
9.9695181205
 20
8.1201642733
 30
0.0
 10
9.9690435469
 20
8.1206902016
 30
0.0
 10
9.9686478811
 20
8.1212552736
 30
0.0
 10
9.9683589311
 20
8.1218563353
 30
0.0
 10
9.9682017764
 20
8.1223159483
 30
0.0
 10
9.9681052408
 20
8.1227904188
 30
0.0
 10
9.9680732331
 20
8.1232794739
 30
0.0
 10
9.968109338
 20
8.1237825357
 30
0.0
 10
9.9682566516
 20
8.1244930681
 30
0.0
 10
9.9685591173
 20
8.125211631
 30
0.0
 10
9.9689892034
 20
8.1259219228
 30
0.0
 10
9.9694032865
 20
8.1264863414
 30
0.0
 10
9.9698971259
 20
8.1270613754
 30
0.0
 10
9.9702648109
 20
8.1274365642
 30
0.0
 10
9.9704610315
 20
8.1276260988
 30
0.0
  0
SPLINE
  5
395
100
AcDbEntity
  8
0
100
AcDbSpline
 62
7
  6
CONTINUOUS
 70
0
 71
3
 72
11
 73
7
 74
0
 42
0.0000001
 43
0.0000001
 44
0.0000000001
 40
0.0
 40
0.0
 40
0.0
 40
0.0
 40
0.2518099462
 40
0.5023829812
 40
0.751758826
 40
1.0
 40
1.0
 40
1.0
 40
1.0
 10
12.125061686
 20
7.584602148
 30
0.0
 10
12.125061686
 20
7.589256673
 30
0.0
 10
12.1253925945
 20
7.5985463479
 30
0.0
 10
12.126888018
 20
7.6123731955
 30
0.0
 10
12.1293735009
 20
7.625989847
 30
0.0
 10
12.131687893
 20
7.6349022052
 30
0.0
 10
12.1330054075
 20
7.6392975468
 30
0.0
  0
SPLINE
  5
396
100
AcDbEntity
  8
0
100
AcDbSpline
 62
7
  6
CONTINUOUS
 70
0
 71
3
 72
15
 73
11
 74
0
 42
0.0000001
 43
0.0000001
 44
0.0000000001
 40
0.0
 40
0.0
 40
0.0
 40
0.0
 40
0.0901325015
 40
0.1912836159
 40
0.3032125448
 40
0.425375867
 40
0.5570145818
 40
0.6972558108
 40
0.8452105801
 40
1.0
 40
1.0
 40
1.0
 40
1.0
 10
9.9704610315
 20
8.1276260988
 30
0.0
 10
9.9708257735
 20
8.1279784125
 30
0.0
 10
9.9716375928
 20
8.1286872942
 30
0.0
 10
9.9730016398
 20
8.1297135077
 30
0.0
 10
9.974571461
 20
8.1307606151
 30
0.0
 10
9.9763325975
 20
8.1318258055
 30
0.0
 10
9.9782685399
 20
8.1329068993
 30
0.0
 10
9.9803617893
 20
8.1340018643
 30
0.0
 10
9.9825947186
 20
8.1351093933
 30
0.0
 10
9.9841333138
 20
8.1358403448
 30
0.0
 10
9.9849223729
 20
8.1362089013
 30
0.0
  0
SPLINE
  5
397
100
AcDbEntity
  8
0
100
AcDbSpline
 62
7
  6
CONTINUOUS
 70
0
 71
3
 72
23
 73
19
 74
0
 42
0.0000001
 43
0.0000001
 44
0.0000000001
 40
0.0
 40
0.0
 40
0.0
 40
0.0
 40
0.0749620064
 40
0.1455680186
 40
0.2121592233
 40
0.275162326
 40
0.3350972494
 40
0.3925822647
 40
0.4483285067
 40
0.5031228301
 40
0.5577975082
 40
0.6131907443
 40
0.6701059962
 40
0.7292783081
 40
0.791352245
 40
0.8568771328
 40
0.926308004
 40
1.0
 40
1.0
 40
1.0
 40
1.0
 10
11.25278613
 20
9.9908686725
 30
0.0
 10
11.2515444677
 20
9.9920241764
 30
0.0
 10
11.2492021681
 20
9.9943440635
 30
0.0
 10
11.2460416113
 20
9.9979633329
 30
0.0
 10
11.2433465657
 20
10.0016113393
 30
0.0
 10
11.2411208987
 20
10.0052847877
 30
0.0
 10
11.2393684569
 20
10.0089805276
 30
0.0
 10
11.2380930758
 20
10.0126947139
 30
0.0
 10
11.2372983884
 20
10.0164225993
 30
0.0
 10
11.2369872384
 20
10.0201582687
 30
0.0
 10
11.2371607673
 20
10.0238949327
 30
0.0
 10
11.2378183912
 20
10.0276256747
 30
0.0
 10
11.2389575857
 20
10.0313442975
 30
0.0
 10
11.2405749693
 20
10.0350456748
 30
0.0
 10
11.2426665977
 20
10.0387258036
 30
0.0
 10
11.2452287746
 20
10.0423814065
 30
0.0
 10
11.2482575151
 20
10.0460090742
 30
0.0
 10
11.2505152884
 20
10.0483350128
 30
0.0
 10
11.2517145812
 20
10.0494934408
 30
0.0
  0
SPLINE
  5
398
100
AcDbEntity
  8
0
100
AcDbSpline
 62
7
  6
CONTINUOUS
 70
0
 71
3
 72
11
 73
7
 74
0
 42
0.0000001
 43
0.0000001
 44
0.0000000001
 40
0.0
 40
0.0
 40
0.0
 40
0.0
 40
0.2281439982
 40
0.4695975535
 40
0.7263668611
 40
1.0
 40
1.0
 40
1.0
 40
1.0
 10
11.3180595266
 20
9.9556878951
 30
0.0
 10
11.3185691283
 20
9.9567885923
 30
0.0
 10
11.3197525987
 20
9.9589936714
 30
0.0
 10
11.3219236285
 20
9.9621943158
 30
0.0
 10
11.3245314798
 20
9.9653691954
 30
0.0
 10
11.3264934003
 20
9.9673990558
 30
0.0
 10
11.3275397631
 20
9.9684097647
 30
0.0
  0
SPLINE
  5
399
100
AcDbEntity
  8
0
100
AcDbSpline
 62
7
  6
CONTINUOUS
 70
0
 71
3
 72
61
 73
57
 74
0
 42
0.0000001
 43
0.0000001
 44
0.0000000001
 40
0.0
 40
0.0
 40
0.0
 40
0.0
 40
0.0061685704
 40
0.0127850246
 40
0.0199225781
 40
0.0276362109
 40
0.035965665
 40
0.0449383949
 40
0.0545721088
 40
0.0648766592
 40
0.0758555286
 40
0.0875070597
 40
0.0998252773
 40
0.1128004991
 40
0.1264199446
 40
0.1406681169
 40
0.1555270484
 40
0.1709766499
 40
0.1869949292
 40
0.2035580953
 40
0.2206407809
 40
0.2382162031
 40
0.256256221
 40
0.2747314829
 40
0.2936115687
 40
0.3128650381
 40
0.3523611081
 40
0.3929526186
 40
0.4343613939
 40
0.476301811
 40
0.5184834586
 40
0.5606137574
 40
0.6024005884
 40
0.6435549135
 40
0.6837934313
 40
0.7228412157
 40
0.7418361083
 40
0.7604354563
 40
0.7786085318
 40
0.796325659
 40
0.8135583113
 40
0.8302792929
 40
0.8464628077
 40
0.862084568
 40
0.8771220264
 40
0.8915545146
 40
0.9053634004
 40
0.9185324107
 40
0.9310479305
 40
0.9428993008
 40
0.9540793579
 40
0.9645851188
 40
0.9744183846
 40
0.9835868856
 40
0.9921062642
 40
1.0
 40
1.0
 40
1.0
 40
1.0
 10
12.0160544082
 20
9.9557127075
 30
0.0
 10
12.0154326767
 20
9.9570524403
 30
0.0
 10
12.0139433732
 20
9.959738879
 30
0.0
 10
12.0111342441
 20
9.9636057783
 30
0.0
 10
12.007688729
 20
9.9674312087
 30
0.0
 10
12.0036144754
 20
9.9712095007
 30
0.0
 10
11.9989188007
 20
9.9749360394
 30
0.0
 10
11.9936099676
 20
9.9786051979
 30
0.0
 10
11.9876971855
 20
9.9822110544
 30
0.0
 10
11.9811908557
 20
9.9857474354
 30
0.0
 10
11.9741025743
 20
9.9892081112
 30
0.0
 10
11.9664450865
 20
9.9925868068
 30
0.0
 10
11.9582322823
 20
9.9958773136
 30
0.0
 10
11.9494791712
 20
9.9990735725
 30
0.0
 10
11.9402018082
 20
10.0021696364
 30
0.0
 10
11.9304172643
 20
10.0051597145
 30
0.0
 10
11.9201436044
 20
10.0080382444
 30
0.0
 10
11.9093998222
 20
10.0107998455
 30
0.0
 10
11.8982058009
 20
10.0134393328
 30
0.0
 10
11.886582289
 20
10.015951784
 30
0.0
 10
11.8745508449
 20
10.0183325059
 30
0.0
 10
11.8621337895
 20
10.0205770271
 30
0.0
 10
11.849354174
 20
10.022681159
 30
0.0
 10
11.8362357392
 20
10.0246409724
 30
0.0
 10
11.8228028287
 20
10.0264528145
 30
0.0
 10
11.8043497413
 20
10.0286856158
 30
0.0
 10
11.780681383
 20
10.0310734513
 30
0.0
 10
11.751672025
 20
10.0332794171
 30
0.0
 10
11.722034375
 20
10.0348328981
 30
0.0
 10
11.6919885958
 20
10.0357222078
 30
0.0
 10
11.6617577238
 20
10.0359405975
 30
0.0
 10
11.6315662432
 20
10.0354864489
 30
0.0
 10
11.6016383436
 20
10.0343631718
 30
0.0
 10
11.5721961691
 20
10.0325792558
 30
0.0
 10
11.543458415
 20
10.030148154
 30
0.0
 10
11.5200646309
 20
10.0275752792
 30
0.0
 10
11.5018680865
 20
10.0251975399
 30
0.0
 10
11.4886531793
 20
10.023281512
 30
0.0
 10
11.4757699029
 20
10.0212200672
 30
0.0
 10
11.4632421636
 20
10.0190170319
 30
0.0
 10
11.45109323
 20
10.0166765146
 30
0.0
 10
11.4393456437
 20
10.0142029062
 30
0.0
 10
11.4280211938
 20
10.0116008401
 30
0.0
 10
11.4171408771
 20
10.0088751635
 30
0.0
 10
11.4067248399
 20
10.0060309846
 30
0.0
 10
11.3967923431
 20
10.0030736333
 30
0.0
 10
11.3873617346
 20
10.0000086156
 30
0.0
 10
11.3784503884
 20
9.9968416508
 30
0.0
 10
11.3700746642
 20
9.9935786493
 30
0.0
 10
11.362249888
 20
9.9902256396
 30
0.0
 10
11.3549902908
 20
9.986788785
 30
0.0
 10
11.3483089552
 20
9.9832743343
 30
0.0
 10
11.3422178772
 20
9.979688603
 30
0.0
 10
11.3367275866
 20
9.9760376185
 30
0.0
 10
11.3318482834
 20
9.9723278562
 30
0.0
 10
11.3288991771
 20
9.9697228579
 30
0.0
 10
11.3275397631
 20
9.9684097647
 30
0.0
  0
SPLINE
  5
39A
100
AcDbEntity
  8
0
100
AcDbSpline
 62
7
  6
CONTINUOUS
 70
0
 71
3
 72
39
 73
35
 74
0
 42
0.0000001
 43
0.0000001
 44
0.0000000001
 40
0.0
 40
0.0
 40
0.0
 40
0.0
 40
0.029942471
 40
0.0599093183
 40
0.0899243244
 40
0.1200101034
 40
0.1501875624
 40
0.1804754148
 40
0.2108897596
 40
0.2414437361
 40
0.2721472598
 40
0.3030068424
 40
0.3340254951
 40
0.3652027149
 40
0.3965345496
 40
0.4280137343
 40
0.459629891
 40
0.4913697854
 40
0.5232176334
 40
0.5551554501
 40
0.5871634341
 40
0.6192203766
 40
0.6513040925
 40
0.6833918636
 40
0.7154608915
 40
0.7474887505
 40
0.7794538351
 40
0.8113357956
 40
0.8431159562
 40
0.8747777121
 40
0.9063068677
 40
0.9376920929
 40
0.9689246489
 40
1.0
 40
1.0
 40
1.0
 40
1.0
 10
9.8951239599
 20
7.9666849517
 30
0.0
 10
9.8892926799
 20
7.9610523915
 30
0.0
 10
9.8771716296
 20
7.950241807
 30
0.0
 10
9.8577517951
 20
7.9355143204
 30
0.0
 10
9.8371929972
 20
7.9223488928
 30
0.0
 10
9.8156100962
 20
7.9108193921
 30
0.0
 10
9.7931217496
 20
7.9009888177
 30
0.0
 10
9.7698520719
 20
7.892911204
 30
0.0
 10
9.745929297
 20
7.8866307366
 30
0.0
 10
9.721485222
 20
7.8821817014
 30
0.0
 10
9.6966544299
 20
7.8795882673
 30
0.0
 10
9.6715735583
 20
7.878864386
 30
0.0
 10
9.6463805471
 20
7.8800137239
 30
0.0
 10
9.6212138814
 20
7.8830296351
 30
0.0
 10
9.5962118358
 20
7.8878952447
 30
0.0
 10
9.5715117253
 20
7.8945835493
 30
0.0
 10
9.5472491626
 20
7.9030575741
 30
0.0
 10
9.5235573277
 20
7.9132705848
 30
0.0
 10
9.5005662378
 20
7.9251663234
 30
0.0
 10
9.478402043
 20
7.9386793284
 30
0.0
 10
9.4571863513
 20
7.953735309
 30
0.0
 10
9.4370355696
 20
7.9702515459
 30
0.0
 10
9.4180602743
 20
7.9881373432
 30
0.0
 10
9.4003646115
 20
8.0072945181
 30
0.0
 10
9.3840457094
 20
8.0276179169
 30
0.0
 10
9.369193172
 20
8.0489960104
 30
0.0
 10
9.355888591
 20
8.0713114948
 30
0.0
 10
9.3442051025
 20
8.0944419311
 30
0.0
 10
9.3342069901
 20
8.1182603933
 30
0.0
 10
9.3259493226
 20
8.142636201
 30
0.0
 10
9.3194776089
 20
8.167435438
 30
0.0
 10
9.314827691
 20
8.1925223891
 30
0.0
 10
9.3120252557
 20
8.2177575221
 30
0.0
 10
9.3113975826
 20
8.2346348053
 30
0.0
 10
9.3113975826
 20
8.2430489267
 30
0.0
  0
SPLINE
  5
39B
100
AcDbEntity
  8
0
100
AcDbSpline
 62
7
  6
CONTINUOUS
 70
0
 71
3
 72
23
 73
19
 74
0
 42
0.0000001
 43
0.0000001
 44
0.0000000001
 40
0.0
 40
0.0
 40
0.0
 40
0.0
 40
0.0617101439
 40
0.1234413935
 40
0.1852146431
 40
0.2470503547
 40
0.3089683495
 40
0.3709876176
 40
0.4331261309
 40
0.4954006615
 40
0.5578266134
 40
0.6204179128
 40
0.6831867943
 40
0.7461438773
 40
0.8092980348
 40
0.872655047
 40
0.9362230873
 40
1.0
 40
1.0
 40
1.0
 40
1.0
 10
9.4067171013
 20
8.4723209088
 30
0.0
 10
9.4029428438
 20
8.4686752713
 30
0.0
 10
9.3955793238
 20
8.4611870085
 30
0.0
 10
9.3851243109
 20
8.449399413
 30
0.0
 10
9.3752816154
 20
8.4370817107
 30
0.0
 10
9.3660743391
 20
8.4242626927
 30
0.0
 10
9.3575235923
 20
8.4109718401
 30
0.0
 10
9.3496490899
 20
8.3972398548
 30
0.0
 10
9.3424689637
 20
8.3830984061
 30
0.0
 10
9.3359997714
 20
8.3685801064
 30
0.0
 10
9.3302564019
 20
8.3537184436
 30
0.0
 10
9.325252048
 20
8.3385477037
 30
0.0
 10
9.3209982036
 20
8.3231028711
 30
0.0
 10
9.317504654
 20
8.3074195264
 30
0.0
 10
9.3147794791
 20
8.2915339246
 30
0.0
 10
9.3128287544
 20
8.2754823735
 30
0.0
 10
9.3116571679
 20
8.2593025772
 30
0.0
 10
9.3113975826
 20
8.2484721181
 30
0.0
 10
9.3113975826
 20
8.2430489267
 30
0.0
  0
SPLINE
  5
39C
100
AcDbEntity
  8
0
100
AcDbSpline
 62
7
  6
CONTINUOUS
 70
0
 71
3
 72
40
 73
36
 74
0
 42
0.0000001
 43
0.0000001
 44
0.0000000001
 40
0.0
 40
0.0
 40
0.0
 40
0.0
 40
0.029942315
 40
0.0599090064
 40
0.0899238566
 40
0.1200094795
 40
0.1501867817
 40
0.1804744765
 40
0.2108886635
 40
0.241442482
 40
0.2721458471
 40
0.3030052697
 40
0.3340237607
 40
0.3652008179
 40
0.3965324895
 40
0.4280115106
 40
0.4596275025
 40
0.4913672307
 40
0.5232149116
 40
0.555152561
 40
0.5871603774
 40
0.6192171521
 40
0.6513006998
 40
0.6833883027
 40
0.715457163
 40
0.7474848549
 40
0.7794497724
 40
0.8113315667
 40
0.8431115605
 40
0.8747731548
 40
0.9063021465
 40
0.9376871865
 40
0.9533252501
 40
0.9689248974
 40
1.0
 40
1.0
 40
1.0
 40
1.0
 10
12.3306087257
 20
7.286786091
 30
0.0
 10
12.3271083164
 20
7.2834049343
 30
0.0
 10
12.3198322169
 20
7.2769155294
 30
0.0
 10
12.3081748019
 20
7.2680748362
 30
0.0
 10
12.2958336702
 20
7.2601718388
 30
0.0
 10
12.282877788
 20
7.2532508612
 30
0.0
 10
12.2693783834
 20
7.2473497174
 30
0.0
 10
12.2554099586
 20
7.2425008453
 30
0.0
 10
12.2410494881
 20
7.2387307756
 30
0.0
 10
12.2263760878
 20
7.2360600914
 30
0.0
 10
12.2114705473
 20
7.2345032994
 30
0.0
 10
12.1964148888
 20
7.2340687691
 30
0.0
 10
12.1812919148
 20
7.2347586954
 30
0.0
 10
12.1661847553
 20
7.2365690974
 30
0.0
 10
12.1511764152
 20
7.2394898485
 30
0.0
 10
12.1363493232
 20
7.243504739
 30
0.0
 10
12.1217848854
 20
7.2485915709
 30
0.0
 10
12.1075630449
 20
7.2547222825
 30
0.0
 10
12.0937618485
 20
7.2618631056
 30
0.0
 10
12.0804570253
 20
7.2699747508
 30
0.0
 10
12.0677215759
 20
7.2790126236
 30
0.0
 10
12.0556253775
 20
7.2889270679
 30
0.0
 10
12.0442348046
 20
7.2996636364
 30
0.0
 10
12.0336123693
 20
7.3111633874
 30
0.0
 10
12.0238163814
 20
7.3233632048
 30
0.0
 10
12.0149006318
 20
7.3361961418
 30
0.0
 10
12.0069140999
 20
7.3495917805
 30
0.0
 10
11.9999006862
 20
7.3634766292
 30
0.0
 10
11.9938989746
 20
7.3777744632
 30
0.0
 10
11.9889420089
 20
7.3924069497
 30
0.0
 10
11.985057173
 20
7.4072932878
 30
0.0
 10
11.9827281275
 20
7.4198589719
 30
0.0
 10
11.9814216021
 20
7.429955347
 30
0.0
 10
11.9804891669
 20
7.4400420608
 30
0.0
 10
11.9802068345
 20
7.4476322451
 30
0.0
 10
11.9802068345
 20
7.4526830976
 30
0.0
  0
SPLINE
  5
39D
100
AcDbEntity
  8
0
100
AcDbSpline
 62
4
  6
CONTINUOUS
 70
0
 71
3
 72
359
 73
355
 74
0
 42
0.0000001
 43
0.0000001
 44
0.0000000001
 40
0.0
 40
0.0
 40
0.0
 40
0.0
 40
0.015625
 40
0.0234375
 40
0.03125
 40
0.0390625
 40
0.04296875
 40
0.046875
 40
0.05078125
 40
0.0546875
 40
0.056640625
 40
0.05859375
 40
0.0595703125
 40
0.060546875
 40
0.0615234375
 40
0.0620117188
 40
0.0625
 40
0.0629882812
 40
0.0634765625
 40
0.064453125
 40
0.0654296875
 40
0.06640625
 40
0.068359375
 40
0.0703125
 40
0.07421875
 40
0.078125
 40
0.08203125
 40
0.0859375
 40
0.09375
 40
0.1015625
 40
0.10546875
 40
0.109375
 40
0.11328125
 40
0.1171875
 40
0.119140625
 40
0.12109375
 40
0.1220703125
 40
0.123046875
 40
0.1240234375
 40
0.1245117188
 40
0.125
 40
0.1254882812
 40
0.1259765625
 40
0.126953125
 40
0.1279296875
 40
0.12890625
 40
0.130859375
 40
0.1328125
 40
0.13671875
 40
0.140625
 40
0.14453125
 40
0.1484375
 40
0.15625
 40
0.1640625
 40
0.16796875
 40
0.171875
 40
0.17578125
 40
0.1796875
 40
0.181640625
 40
0.18359375
 40
0.1845703125
 40
0.185546875
 40
0.1865234375
 40
0.1870117188
 40
0.1875
 40
0.1879882812
 40
0.1884765625
 40
0.189453125
 40
0.1904296875
 40
0.19140625
 40
0.193359375
 40
0.1953125
 40
0.19921875
 40
0.203125
 40
0.20703125
 40
0.2109375
 40
0.21875
 40
0.2265625
 40
0.23046875
 40
0.234375
 40
0.23828125
 40
0.2421875
 40
0.244140625
 40
0.24609375
 40
0.2470703125
 40
0.248046875
 40
0.2490234375
 40
0.2495117188
 40
0.25
 40
0.2504882812
 40
0.2509765625
 40
0.251953125
 40
0.2529296875
 40
0.25390625
 40
0.255859375
 40
0.2578125
 40
0.26171875
 40
0.265625
 40
0.26953125
 40
0.2734375
 40
0.28125
 40
0.2890625
 40
0.29296875
 40
0.296875
 40
0.30078125
 40
0.3046875
 40
0.306640625
 40
0.30859375
 40
0.3095703125
 40
0.310546875
 40
0.3115234375
 40
0.3120117188
 40
0.3125
 40
0.3129882812
 40
0.3134765625
 40
0.314453125
 40
0.3154296875
 40
0.31640625
 40
0.318359375
 40
0.3203125
 40
0.32421875
 40
0.328125
 40
0.33203125
 40
0.3359375
 40
0.34375
 40
0.3515625
 40
0.35546875
 40
0.359375
 40
0.36328125
 40
0.3671875
 40
0.369140625
 40
0.37109375
 40
0.3720703125
 40
0.373046875
 40
0.3740234375
 40
0.3745117188
 40
0.375
 40
0.3754882812
 40
0.3759765625
 40
0.376953125
 40
0.3779296875
 40
0.37890625
 40
0.380859375
 40
0.3828125
 40
0.38671875
 40
0.390625
 40
0.39453125
 40
0.3984375
 40
0.40625
 40
0.4140625
 40
0.41796875
 40
0.421875
 40
0.42578125
 40
0.4296875
 40
0.431640625
 40
0.43359375
 40
0.4345703125
 40
0.435546875
 40
0.4365234375
 40
0.4370117188
 40
0.4375
 40
0.4379882812
 40
0.4384765625
 40
0.439453125
 40
0.4404296875
 40
0.44140625
 40
0.443359375
 40
0.4453125
 40
0.44921875
 40
0.453125
 40
0.45703125
 40
0.4609375
 40
0.46875
 40
0.4765625
 40
0.48046875
 40
0.484375
 40
0.48828125
 40
0.4921875
 40
0.494140625
 40
0.49609375
 40
0.4970703125
 40
0.498046875
 40
0.4990234375
 40
0.4995117188
 40
0.5
 40
0.5004882812
 40
0.5009765625
 40
0.501953125
 40
0.5029296875
 40
0.50390625
 40
0.505859375
 40
0.5078125
 40
0.51171875
 40
0.515625
 40
0.51953125
 40
0.5234375
 40
0.53125
 40
0.5390625
 40
0.54296875
 40
0.546875
 40
0.55078125
 40
0.5546875
 40
0.556640625
 40
0.55859375
 40
0.560546875
 40
0.5615234375
 40
0.5620117188
 40
0.5625
 40
0.5629882812
 40
0.5634765625
 40
0.564453125
 40
0.56640625
 40
0.568359375
 40
0.5703125
 40
0.57421875
 40
0.578125
 40
0.58203125
 40
0.5859375
 40
0.59375
 40
0.6015625
 40
0.60546875
 40
0.609375
 40
0.61328125
 40
0.6171875
 40
0.619140625
 40
0.62109375
 40
0.623046875
 40
0.6240234375
 40
0.6245117188
 40
0.625
 40
0.6254882812
 40
0.6259765625
 40
0.626953125
 40
0.62890625
 40
0.630859375
 40
0.6328125
 40
0.63671875
 40
0.640625
 40
0.64453125
 40
0.6484375
 40
0.65625
 40
0.6640625
 40
0.66796875
 40
0.671875
 40
0.67578125
 40
0.6796875
 40
0.681640625
 40
0.68359375
 40
0.685546875
 40
0.6865234375
 40
0.6870117188
 40
0.6875
 40
0.6879882812
 40
0.6884765625
 40
0.689453125
 40
0.69140625
 40
0.693359375
 40
0.6953125
 40
0.69921875
 40
0.703125
 40
0.70703125
 40
0.7109375
 40
0.71875
 40
0.7265625
 40
0.73046875
 40
0.734375
 40
0.73828125
 40
0.7421875
 40
0.744140625
 40
0.74609375
 40
0.748046875
 40
0.7490234375
 40
0.7495117188
 40
0.75
 40
0.7504882812
 40
0.7509765625
 40
0.751953125
 40
0.75390625
 40
0.755859375
 40
0.7578125
 40
0.76171875
 40
0.765625
 40
0.76953125
 40
0.7734375
 40
0.78125
 40
0.7890625
 40
0.79296875
 40
0.796875
 40
0.80078125
 40
0.8046875
 40
0.806640625
 40
0.80859375
 40
0.810546875
 40
0.8115234375
 40
0.8120117188
 40
0.8125
 40
0.8129882812
 40
0.8134765625
 40
0.814453125
 40
0.81640625
 40
0.818359375
 40
0.8203125
 40
0.82421875
 40
0.828125
 40
0.83203125
 40
0.8359375
 40
0.84375
 40
0.8515625
 40
0.85546875
 40
0.859375
 40
0.86328125
 40
0.8671875
 40
0.869140625
 40
0.87109375
 40
0.873046875
 40
0.8740234375
 40
0.8745117188
 40
0.875
 40
0.8754882812
 40
0.8759765625
 40
0.876953125
 40
0.87890625
 40
0.880859375
 40
0.8828125
 40
0.88671875
 40
0.890625
 40
0.89453125
 40
0.8984375
 40
0.90625
 40
0.9140625
 40
0.91796875
 40
0.921875
 40
0.92578125
 40
0.9296875
 40
0.931640625
 40
0.93359375
 40
0.935546875
 40
0.9365234375
 40
0.9370117188
 40
0.9375
 40
0.9379882812
 40
0.9384765625
 40
0.939453125
 40
0.94140625
 40
0.943359375
 40
0.9453125
 40
0.94921875
 40
0.953125
 40
0.95703125
 40
0.9609375
 40
0.96875
 40
0.9765625
 40
0.984375
 40
1.0
 40
1.0
 40
1.0
 40
1.0
 10
11.2002328131
 20
8.7099890579
 30
0.0
 10
11.1970996261
 20
8.7098991335
 30
0.0
 10
11.1923998458
 20
8.7097642469
 30
0.0
 10
11.1861334719
 20
8.709584398
 30
0.0
 10
11.1814336915
 20
8.7094495115
 30
0.0
 10
11.177517208
 20
8.7093371056
 30
0.0
 10
11.1743840209
 20
8.7092471821
 30
0.0
 10
11.1720341312
 20
8.7091797359
 30
0.0
 10
11.169684239
 20
8.7091123032
 30
0.0
 10
11.1677260036
 20
8.7090560676
 30
0.0
 10
11.1661593971
 20
8.7090111723
 30
0.0
 10
11.1651803094
 20
8.7089829008
 30
0.0
 10
11.1643969444
 20
8.7089607689
 30
0.0
 10
11.1638096803
 20
8.7089428412
 30
0.0
 10
11.1633194679
 20
8.7089321283
 30
0.0
 10
11.1629291496
 20
8.7089140781
 30
0.0
 10
11.1626313513
 20
8.7089264438
 30
0.0
 10
11.1623528653
 20
8.7088399362
 30
0.0
 10
11.1619748047
 20
8.7087591305
 30
0.0
 10
11.1615045434
 20
8.7086462736
 30
0.0
 10
11.1609392391
 20
8.7085159174
 30
0.0
 10
11.1601858461
 20
8.7083403376
 30
0.0
 10
11.1592439864
 20
8.7081214694
 30
0.0
 10
11.157737077
 20
8.7077709413
 30
0.0
 10
11.1558534176
 20
8.7073328975
 30
0.0
 10
11.1535930361
 20
8.7068071951
 30
0.0
 10
11.1513326519
 20
8.706281506
 30
0.0
 10
11.1483188073
 20
8.7055805825
 30
0.0
 10
11.1445515012
 20
8.7047044299
 30
0.0
 10
11.1407841954
 20
8.7038282761
 30
0.0
 10
11.1377703502
 20
8.7031273545
 30
0.0
 10
11.1355099677
 20
8.7026016599
 30
0.0
 10
11.13324958
 20
8.702075978
 30
0.0
 10
11.1313659396
 20
8.7016378701
 30
0.0
 10
11.1298589916
 20
8.7012874728
 30
0.0
 10
11.1289172303
 20
8.7010682718
 30
0.0
 10
11.1281636353
 20
8.7008933751
 30
0.0
 10
11.1275989482
 20
8.7007609319
 30
0.0
 10
11.1271267559
 20
8.7006546047
 30
0.0
 10
11.1267526348
 20
8.7005604773
 30
0.0
 10
11.1264621176
 20
8.7005146532
 30
0.0
 10
11.1262094893
 20
8.7003742762
 30
0.0
 10
11.1258594166
 20
8.7002201354
 30
0.0
 10
11.1254263665
 20
8.7000161274
 30
0.0
 10
11.1249047628
 20
8.6997761683
 30
0.0
 10
11.12420997
 20
8.6994545287
 30
0.0
 10
11.1233412466
 20
8.6990530593
 30
0.0
 10
11.1219514191
 20
8.698410384
 30
0.0
 10
11.1202140901
 20
8.6976071511
 30
0.0
 10
11.1181293145
 20
8.696643224
 30
0.0
 10
11.1160445337
 20
8.6956793096
 30
0.0
 10
11.1132648278
 20
8.6943940859
 30
0.0
 10
11.1097901947
 20
8.692787558
 30
0.0
 10
11.1063155621
 20
8.691181029
 30
0.0
 10
11.1035358554
 20
8.6898958072
 30
0.0
 10
11.1014510771
 20
8.6889318875
 30
0.0
 10
11.0993662922
 20
8.6879679803
 30
0.0
 10
11.0976289919
 20
8.6871646853
 30
0.0
 10
11.0962391059
 20
8.6865221366
 30
0.0
 10
11.0953705312
 20
8.6861203451
 30
0.0
 10
11.0946754331
 20
8.6857993665
 30
0.0
 10
11.0941547622
 20
8.685557388
 30
0.0
 10
11.0937187936
 20
8.6853596984
 30
0.0
 10
11.0933746753
 20
8.6851926669
 30
0.0
 10
11.0931038625
 20
8.6850916572
 30
0.0
 10
11.0928816177
 20
8.6848980321
 30
0.0
 10
11.0925683259
 20
8.684672217
 30
0.0
 10
11.0921825319
 20
8.6843788485
 30
0.0
 10
11.0917170877
 20
8.6840315573
 30
0.0
 10
11.0910973656
 20
8.6835668429
 30
0.0
 10
11.090322415
 20
8.6829865182
 30
0.0
 10
11.0890826605
 20
8.6820576809
 30
0.0
 10
11.0875329103
 20
8.6808967434
 30
0.0
 10
11.0856732346
 20
8.6795035717
 30
0.0
 10
11.0838135523
 20
8.6781104124
 30
0.0
 10
11.0813339782
 20
8.6762528624
 30
0.0
 10
11.0782345097
 20
8.6739309264
 30
0.0
 10
11.0751350419
 20
8.6716089895
 30
0.0
 10
11.0726554667
 20
8.669751441
 30
0.0
 10
11.070795788
 20
8.6683582771
 30
0.0
 10
11.0689360987
 20
8.6669651228
 30
0.0
 10
11.0673863905
 20
8.6658041311
 30
0.0
 10
11.0661465505
 20
8.6648754043
 30
0.0
 10
11.0653718175
 20
8.6642947986
 30
0.0
 10
11.0647516488
 20
8.6638306608
 30
0.0
 10
11.0642875689
 20
8.6634816081
 30
0.0
 10
11.0638975061
 20
8.6631937511
 30
0.0
 10
11.0635929235
 20
8.6629566915
 30
0.0
 10
11.0633440815
 20
8.6627974065
 30
0.0
 10
11.0631731259
 20
8.6625674698
 30
0.0
 10
11.0629179785
 20
8.6622855671
 30
0.0
 10
11.0626083786
 20
8.6619247213
 30
0.0
 10
11.0622328633
 20
8.6614953307
 30
0.0
 10
11.0617335718
 20
8.6609215439
 30
0.0
 10
11.0611089796
 20
8.6602047439
 30
0.0
 10
11.0601098991
 20
8.6590576217
 30
0.0
 10
11.0588609569
 20
8.657623802
 30
0.0
 10
11.0573622655
 20
8.6559031828
 30
0.0
 10
11.0558635636
 20
8.6541825731
 30
0.0
 10
11.0538652981
 20
8.6518884235
 30
0.0
 10
11.0513674648
 20
8.6490207378
 30
0.0
 10
11.0488696324
 20
8.6461530512
 30
0.0
 10
11.0468713654
 20
8.6438589029
 30
0.0
 10
11.045372668
 20
8.6421382894
 30
0.0
 10
11.0438739595
 20
8.6404176843
 30
0.0
 10
11.0426250705
 20
8.6389838209
 30
0.0
 10
11.0416258815
 20
8.6378367877
 30
0.0
 10
11.0410015654
 20
8.6371197612
 30
0.0
 10
11.0405017071
 20
8.6365464395
 30
0.0
 10
11.0401279236
 20
8.636115628
 30
0.0
 10
11.0398129054
 20
8.6357592278
 30
0.0
 10
11.0395688125
 20
8.6354682552
 30
0.0
 10
11.0393640969
 20
8.6352660175
 30
0.0
 10
11.0392420041
 20
8.6350027389
 30
0.0
 10
11.0390503524
 20
8.6346730231
 30
0.0
 10
11.03882069
 20
8.6342535627
 30
0.0
 10
11.0385408567
 20
8.6337533416
 30
0.0
 10
11.038169226
 20
8.6330852864
 30
0.0
 10
11.0377041807
 20
8.6322505919
 30
0.0
 10
11.0369603915
 20
8.6309148713
 30
0.0
 10
11.0360305579
 20
8.6292452925
 30
0.0
 10
11.0349147991
 20
8.6272417671
 30
0.0
 10
11.0337990293
 20
8.62523825
 30
0.0
 10
11.03231134
 20
8.6225668909
 30
0.0
 10
11.030451727
 20
8.6192276931
 30
0.0
 10
11.028592115
 20
8.6158884946
 30
0.0
 10
11.0271044241
 20
8.6132171365
 30
0.0
 10
11.0259886592
 20
8.6112136164
 30
0.0
 10
11.0248728819
 20
8.6092101022
 30
0.0
 10
11.0239431061
 20
8.6075404884
 30
0.0
 10
11.023199199
 20
8.6062048393
 30
0.0
 10
11.0227344538
 20
8.605369963
 30
0.0
 10
11.0223622071
 20
8.6047022808
 30
0.0
 10
11.0220842556
 20
8.6042009202
 30
0.0
 10
11.0218487054
 20
8.6037850252
 30
0.0
 10
11.0216690661
 20
8.6034480354
 30
0.0
 10
11.0215102883
 20
8.6032069711
 30
0.0
 10
11.0214433031
 20
8.6029213314
 30
0.0
 10
11.0213219252
 20
8.6025560493
 30
0.0
 10
11.0211812038
 20
8.6020941044
 30
0.0
 10
11.0210076294
 20
8.6015420572
 30
0.0
 10
11.0207778416
 20
8.6008051955
 30
0.0
 10
11.0204900436
 20
8.5998843919
 30
0.0
 10
11.0200298816
 20
8.5984109534
 30
0.0
 10
11.0194545711
 20
8.5965692076
 30
0.0
 10
11.0187642447
 20
8.5943590902
 30
0.0
 10
11.018073906
 20
8.5921489788
 30
0.0
 10
11.0171534588
 20
8.5892021615
 30
0.0
 10
11.0160028981
 20
8.5855186406
 30
0.0
 10
11.0148523385
 20
8.5818351193
 30
0.0
 10
11.0139318894
 20
8.5788883027
 30
0.0
 10
11.0132415561
 20
8.5766781891
 30
0.0
 10
11.0125512096
 20
8.5744680802
 30
0.0
 10
11.0119759618
 20
8.5726263079
 30
0.0
 10
11.0115156719
 20
8.5711529234
 30
0.0
 10
11.0112281995
 20
8.570231982
 30
0.0
 10
11.0109977433
 20
8.5694954033
 30
0.0
 10
11.0108262107
 20
8.5689424918
 30
0.0
 10
11.010679101
 20
8.5684832508
 30
0.0
 10
11.0105707566
 20
8.5681124522
 30
0.0
 10
11.0104639678
 20
8.5678436596
 30
0.0
 10
11.0104546291
 20
8.5675393445
 30
0.0
 10
11.0104081369
 20
8.5671459994
 30
0.0
 10
11.0103617008
 20
8.5666500607
 30
0.0
 10
11.0103009785
 20
8.5660567566
 30
0.0
 10
11.0102217614
 20
8.565265048
 30
0.0
 10
11.0101221422
 20
8.5642756302
 30
0.0
 10
11.0099630856
 20
8.5626924398
 30
0.0
 10
11.0097641502
 20
8.5607134937
 30
0.0
 10
11.0095254769
 20
8.5583387404
 30
0.0
 10
11.0092867904
 20
8.5559639919
 30
0.0
 10
11.0089685464
 20
8.5527976589
 30
0.0
 10
11.0085707397
 20
8.5488397433
 30
0.0
 10
11.0081729341
 20
8.5448818274
 30
0.0
 10
11.0078546882
 20
8.5417154947
 30
0.0
 10
11.0076160074
 20
8.5393407453
 30
0.0
 10
11.0073773129
 20
8.5369659956
 30
0.0
 10
11.0071784434
 20
8.5349870383
 30
0.0
 10
11.0070192525
 20
8.5334038707
 30
0.0
 10
11.0069199751
 20
8.532414395
 30
0.0
 10
11.0068400564
 20
8.5316228051
 30
0.0
 10
11.0067814775
 20
8.5310291384
 30
0.0
 10
11.0067283351
 20
8.5305343342
 30
0.0
 10
11.0066955252
 20
8.5301386746
 30
0.0
 10
11.0066444015
 20
8.5298414279
 30
0.0
 10
11.0066944908
 20
8.5295460973
 30
0.0
 10
11.0067259215
 20
8.5291516538
 30
0.0
 10
11.0067773401
 20
8.5286588291
 30
0.0
 10
11.0068338502
 20
8.5280673411
 30
0.0
 10
11.0069110106
 20
8.5272787249
 30
0.0
 10
11.0070068401
 20
8.5262929428
 30
0.0
 10
11.0071605143
 20
8.524715698
 30
0.0
 10
11.0073524881
 20
8.5227441398
 30
0.0
 10
11.0075829076
 20
8.5203782709
 30
0.0
 10
11.0078133135
 20
8.5180124018
 30
0.0
 10
11.008120526
 20
8.5148579097
 30
0.0
 10
11.0085045406
 20
8.5109147946
 30
0.0
 10
11.0088885537
 20
8.5069716792
 30
0.0
 10
11.0091957687
 20
8.5038171875
 30
0.0
 10
11.0094261672
 20
8.5014513171
 30
0.0
 10
11.0096566144
 20
8.499085453
 30
0.0
 10
11.0098485019
 20
8.49711388
 30
0.0
 10
11.010002352
 20
8.4955366654
 30
0.0
 10
11.0101168105
 20
8.4943536348
 30
0.0
 10
11.0102151479
 20
8.4933681563
 30
0.0
 10
11.0102781843
 20
8.4926775752
 30
0.0
 10
11.0103232609
 20
8.4922841224
 30
0.0
 10
11.0103315582
 20
8.4919857509
 30
0.0
 10
11.0104373682
 20
8.4916999248
 30
0.0
 10
11.0105444348
 20
8.4913144474
 30
0.0
 10
11.0107476488
 20
8.4906419009
 30
0.0
 10
11.0110296693
 20
8.4896800541
 30
0.0
 10
11.0113716402
 20
8.4885262942
 30
0.0
 10
11.0118263627
 20
8.4869877883
 30
0.0
 10
11.0123951908
 20
8.4850647107
 30
0.0
 10
11.0130776023
 20
8.4827569941
 30
0.0
 10
11.0137600627
 20
8.4804492837
 30
0.0
 10
11.0146699926
 20
8.4773723344
 30
0.0
 10
11.0158074115
 20
8.4735261486
 30
0.0
 10
11.0169448262
 20
8.4696799619
 30
0.0
 10
11.0178547628
 20
8.4666030141
 30
0.0
 10
11.0185372032
 20
8.4642952991
 30
0.0
 10
11.0192196895
 20
8.4619875999
 30
0.0
 10
11.019788285
 20
8.4600644681
 30
0.0
 10
11.0202434819
 20
8.4585260726
 30
0.0
 10
11.0205840039
 20
8.4573719757
 30
0.0
 10
11.0208705576
 20
8.4564111832
 30
0.0
 10
11.021065679
 20
8.4557367546
 30
0.0
 10
11.021185712
 20
8.4553542927
 30
0.0
 10
11.0212516934
 20
8.4550592039
 30
0.0
 10
11.0214095803
 20
8.454795622
 30
0.0
 10
11.0215880386
 20
8.4544331895
 30
0.0
 10
11.0219152767
 20
8.4538040531
 30
0.0
 10
11.022374951
 20
8.4529026098
 30
0.0
 10
11.0229299025
 20
8.4518220237
 30
0.0
 10
11.0236686703
 20
8.450380842
 30
0.0
 10
11.0245925307
 20
8.4485795021
 30
0.0
 10
11.0257009915
 20
8.4464178355
 30
0.0
 10
11.0268094982
 20
8.4442561845
 30
0.0
 10
11.028287491
 20
8.4413739778
 30
0.0
 10
11.0301349881
 20
8.4377712215
 30
0.0
 10
11.0319824811
 20
8.4341684635
 30
0.0
 10
11.0334604803
 20
8.4312862594
 30
0.0
 10
11.034568968
 20
8.4291246007
 30
0.0
 10
11.0356775002
 20
8.4269629632
 30
0.0
 10
11.0366011382
 20
8.4251615326
 30
0.0
 10
11.0373403597
 20
8.4237205359
 30
0.0
 10
11.0378939256
 20
8.4226393847
 30
0.0
 10
11.0383579349
 20
8.4217397094
 30
0.0
 10
11.0386774344
 20
8.4211074168
 30
0.0
 10
11.0388682919
 20
8.4207500414
 30
0.0
 10
11.0389880922
 20
8.4204709257
 30
0.0
 10
11.0391971204
 20
8.4202341795
 30
0.0
 10
11.0394447009
 20
8.419903739
 30
0.0
 10
11.039892468
 20
8.4193323538
 30
0.0
 10
11.0405245539
 20
8.4185124894
 30
0.0
 10
11.041286302
 20
8.4175301929
 30
0.0
 10
11.0423008326
 20
8.4162199261
 30
0.0
 10
11.0435693849
 20
8.4145822773
 30
0.0
 10
11.0450914808
 20
8.4126170195
 30
0.0
 10
11.0466136214
 20
8.4106517829
 30
0.0
 10
11.0486431266
 20
8.4080314599
 30
0.0
 10
11.0511800137
 20
8.4047560592
 30
0.0
 10
11.0537168975
 20
8.401480656
 30
0.0
 10
11.055746408
 20
8.3988603371
 30
0.0
 10
11.0572685324
 20
8.3968950883
 30
0.0
 10
11.0587906893
 20
8.3949298762
 30
0.0
 10
11.0600590518
 20
8.3932920852
 30
0.0
 10
11.0610739694
 20
8.3919821083
 30
0.0
 10
11.0618345359
 20
8.3909989267
 30
0.0
 10
11.0624703185
 20
8.3901818316
 30
0.0
 10
11.0629114864
 20
8.3896055027
 30
0.0
 10
11.0631696405
 20
8.3892829833
 30
0.0
 10
11.0633461899
 20
8.3890219059
 30
0.0
 10
11.0635879753
 20
8.3888341741
 30
0.0
 10
11.0638876008
 20
8.3885582812
 30
0.0
 10
11.0644225474
 20
8.3880873887
 30
0.0
 10
11.065181214
 20
8.3874084531
 30
0.0
 10
11.0660939865
 20
8.386596398
 30
0.0
 10
11.0673101876
 20
8.3855127259
 30
0.0
 10
11.0688307235
 20
8.3841584557
 30
0.0
 10
11.0706552446
 20
8.3825331942
 30
0.0
 10
11.0724797984
 20
8.3809079695
 30
0.0
 10
11.0749125252
 20
8.3787409903
 30
0.0
 10
11.0779534381
 20
8.3760322712
 30
0.0
 10
11.0809943483
 20
8.3733235487
 30
0.0
 10
11.0834270794
 20
8.3711565749
 30
0.0
 10
11.0852516204
 20
8.3695313341
 30
0.0
 10
11.0870761892
 20
8.3679061328
 30
0.0
 10
11.088596577
 20
8.3665516757
 30
0.0
 10
11.0898130801
 20
8.3654683847
 30
0.0
 10
11.0907249305
 20
8.3646551659
 30
0.0
 10
11.0914864818
 20
8.3639798709
 30
0.0
 10
11.0920162787
 20
8.3635024794
 30
0.0
 10
11.0923241553
 20
8.3632369994
 30
0.0
 10
11.092540596
 20
8.3630172826
 30
0.0
 10
11.0928123359
 20
8.3628763356
 30
0.0
 10
11.0931553667
 20
8.3626609304
 30
0.0
 10
11.0937646578
 20
8.3622967729
 30
0.0
 10
11.094630375
 20
8.3617698552
 30
0.0
 10
11.0956712468
 20
8.3611404186
 30
0.0
 10
11.0970583734
 20
8.3603001691
 30
0.0
 10
11.0987925227
 20
8.3592502007
 30
0.0
 10
11.1008733985
 20
8.3579900913
 30
0.0
 10
11.1029543019
 20
8.3567300213
 30
0.0
 10
11.1057288301
 20
8.3550499142
 30
0.0
 10
11.109196994
 20
8.3529497856
 30
0.0
 10
11.1126651558
 20
8.3508496532
 30
0.0
 10
11.1154396873
 20
8.349169552
 30
0.0
 10
11.1175205809
 20
8.3479094644
 30
0.0
 10
11.1196014936
 20
8.3466494213
 30
0.0
 10
11.121335528
 20
8.3455992466
 30
0.0
 10
11.1227228888
 20
8.3447594177
 30
0.0
 10
11.1237630454
 20
8.3441286968
 30
0.0
 10
11.1246310003
 20
8.3436057971
 30
0.0
 10
11.1252362967
 20
8.3432344667
 30
0.0
 10
11.125585728
 20
8.3430305544
 30
0.0
 10
11.1258378077
 20
8.3428543049
 30
0.0
 10
11.1261280887
 20
8.3427671786
 30
0.0
 10
11.1265018049
 20
8.3426199231
 30
0.0
 10
11.1271620167
 20
8.3423767101
 30
0.0
 10
11.1281019307
 20
8.3420216905
 30
0.0
 10
11.1292312167
 20
8.3415989082
 30
0.0
 10
11.1307364461
 20
8.3410340662
 30
0.0
 10
11.1326181494
 20
8.3403284023
 30
0.0
 10
11.134876122
 20
8.339481439
 30
0.0
 10
11.1371341136
 20
8.3386345203
 30
0.0
 10
11.1401447625
 20
8.3375052798
 30
0.0
 10
11.143908076
 20
8.336093735
 30
0.0
 10
11.147671388
 20
8.3346821861
 30
0.0
 10
11.1506820392
 20
8.333552952
 30
0.0
 10
11.1529400238
 20
8.3327060139
 30
0.0
 10
11.1551980228
 20
8.3318591235
 30
0.0
 10
11.1570796438
 20
8.3311532329
 30
0.0
 10
11.158585041
 20
8.3305888533
 30
0.0
 10
11.1597138148
 20
8.3301646592
 30
0.0
 10
11.1606553312
 20
8.3298140565
 30
0.0
 10
11.1613126823
 20
8.3295629585
 30
0.0
 10
11.1616909822
 20
8.3294283367
 30
0.0
 10
11.1619671837
 20
8.3293024038
 30
0.0
 10
11.1622721436
 20
8.3292719055
 30
0.0
 10
11.1626687255
 20
8.3291979525
 30
0.0
 10
11.1633674176
 20
8.3290840444
 30
0.0
 10
11.1643631058
 20
8.32891321
 30
0.0
 10
11.1655589774
 20
8.3287116794
 30
0.0
 10
11.1671531076
 20
8.3284417596
 30
0.0
 10
11.1691458957
 20
8.3281047759
 30
0.0
 10
11.1715371877
 20
8.3277002171
 30
0.0
 10
11.173928494
 20
8.3272957059
 30
0.0
 10
11.1771168975
 20
8.3267563411
 30
0.0
 10
11.1811024035
 20
8.3260821408
 30
0.0
 10
11.18588501
 20
8.325273098
 30
0.0
 10
11.1922618189
 20
8.3241943751
 30
0.0
 10
11.1970444256
 20
8.3233853328
 30
0.0
 10
11.20023283
 20
8.3228459712
 30
0.0
  0
SPLINE
  5
39E
100
AcDbEntity
  8
0
100
AcDbSpline
 62
4
  6
CONTINUOUS
 70
0
 71
3
 72
359
 73
355
 74
0
 42
0.0000001
 43
0.0000001
 44
0.0000000001
 40
0.0
 40
0.0
 40
0.0
 40
0.0
 40
0.015625
 40
0.0234375
 40
0.03125
 40
0.0390625
 40
0.04296875
 40
0.046875
 40
0.05078125
 40
0.0546875
 40
0.056640625
 40
0.05859375
 40
0.0595703125
 40
0.060546875
 40
0.0615234375
 40
0.0620117188
 40
0.0625
 40
0.0629882812
 40
0.0634765625
 40
0.064453125
 40
0.0654296875
 40
0.06640625
 40
0.068359375
 40
0.0703125
 40
0.07421875
 40
0.078125
 40
0.08203125
 40
0.0859375
 40
0.09375
 40
0.1015625
 40
0.10546875
 40
0.109375
 40
0.11328125
 40
0.1171875
 40
0.119140625
 40
0.12109375
 40
0.1220703125
 40
0.123046875
 40
0.1240234375
 40
0.1245117188
 40
0.125
 40
0.1254882812
 40
0.1259765625
 40
0.126953125
 40
0.1279296875
 40
0.12890625
 40
0.130859375
 40
0.1328125
 40
0.13671875
 40
0.140625
 40
0.14453125
 40
0.1484375
 40
0.15625
 40
0.1640625
 40
0.16796875
 40
0.171875
 40
0.17578125
 40
0.1796875
 40
0.181640625
 40
0.18359375
 40
0.1845703125
 40
0.185546875
 40
0.1865234375
 40
0.1870117188
 40
0.1875
 40
0.1879882812
 40
0.1884765625
 40
0.189453125
 40
0.1904296875
 40
0.19140625
 40
0.193359375
 40
0.1953125
 40
0.19921875
 40
0.203125
 40
0.20703125
 40
0.2109375
 40
0.21875
 40
0.2265625
 40
0.23046875
 40
0.234375
 40
0.23828125
 40
0.2421875
 40
0.244140625
 40
0.24609375
 40
0.2470703125
 40
0.248046875
 40
0.2490234375
 40
0.2495117188
 40
0.25
 40
0.2504882812
 40
0.2509765625
 40
0.251953125
 40
0.2529296875
 40
0.25390625
 40
0.255859375
 40
0.2578125
 40
0.26171875
 40
0.265625
 40
0.26953125
 40
0.2734375
 40
0.28125
 40
0.2890625
 40
0.29296875
 40
0.296875
 40
0.30078125
 40
0.3046875
 40
0.306640625
 40
0.30859375
 40
0.3095703125
 40
0.310546875
 40
0.3115234375
 40
0.3120117188
 40
0.3125
 40
0.3129882812
 40
0.3134765625
 40
0.314453125
 40
0.3154296875
 40
0.31640625
 40
0.318359375
 40
0.3203125
 40
0.32421875
 40
0.328125
 40
0.33203125
 40
0.3359375
 40
0.34375
 40
0.3515625
 40
0.35546875
 40
0.359375
 40
0.36328125
 40
0.3671875
 40
0.369140625
 40
0.37109375
 40
0.3720703125
 40
0.373046875
 40
0.3740234375
 40
0.3745117188
 40
0.375
 40
0.3754882812
 40
0.3759765625
 40
0.376953125
 40
0.3779296875
 40
0.37890625
 40
0.380859375
 40
0.3828125
 40
0.38671875
 40
0.390625
 40
0.39453125
 40
0.3984375
 40
0.40625
 40
0.4140625
 40
0.41796875
 40
0.421875
 40
0.42578125
 40
0.4296875
 40
0.431640625
 40
0.43359375
 40
0.4345703125
 40
0.435546875
 40
0.4365234375
 40
0.4370117188
 40
0.4375
 40
0.4379882812
 40
0.4384765625
 40
0.439453125
 40
0.4404296875
 40
0.44140625
 40
0.443359375
 40
0.4453125
 40
0.44921875
 40
0.453125
 40
0.45703125
 40
0.4609375
 40
0.46875
 40
0.4765625
 40
0.48046875
 40
0.484375
 40
0.48828125
 40
0.4921875
 40
0.494140625
 40
0.49609375
 40
0.4970703125
 40
0.498046875
 40
0.4990234375
 40
0.4995117188
 40
0.5
 40
0.5004882812
 40
0.5009765625
 40
0.501953125
 40
0.5029296875
 40
0.50390625
 40
0.505859375
 40
0.5078125
 40
0.51171875
 40
0.515625
 40
0.51953125
 40
0.5234375
 40
0.53125
 40
0.5390625
 40
0.54296875
 40
0.546875
 40
0.55078125
 40
0.5546875
 40
0.556640625
 40
0.55859375
 40
0.560546875
 40
0.5615234375
 40
0.5620117188
 40
0.5625
 40
0.5629882812
 40
0.5634765625
 40
0.564453125
 40
0.56640625
 40
0.568359375
 40
0.5703125
 40
0.57421875
 40
0.578125
 40
0.58203125
 40
0.5859375
 40
0.59375
 40
0.6015625
 40
0.60546875
 40
0.609375
 40
0.61328125
 40
0.6171875
 40
0.619140625
 40
0.62109375
 40
0.623046875
 40
0.6240234375
 40
0.6245117188
 40
0.625
 40
0.6254882812
 40
0.6259765625
 40
0.626953125
 40
0.62890625
 40
0.630859375
 40
0.6328125
 40
0.63671875
 40
0.640625
 40
0.64453125
 40
0.6484375
 40
0.65625
 40
0.6640625
 40
0.66796875
 40
0.671875
 40
0.67578125
 40
0.6796875
 40
0.681640625
 40
0.68359375
 40
0.685546875
 40
0.6865234375
 40
0.6870117188
 40
0.6875
 40
0.6879882812
 40
0.6884765625
 40
0.689453125
 40
0.69140625
 40
0.693359375
 40
0.6953125
 40
0.69921875
 40
0.703125
 40
0.70703125
 40
0.7109375
 40
0.71875
 40
0.7265625
 40
0.73046875
 40
0.734375
 40
0.73828125
 40
0.7421875
 40
0.744140625
 40
0.74609375
 40
0.748046875
 40
0.7490234375
 40
0.7495117188
 40
0.75
 40
0.7504882812
 40
0.7509765625
 40
0.751953125
 40
0.75390625
 40
0.755859375
 40
0.7578125
 40
0.76171875
 40
0.765625
 40
0.76953125
 40
0.7734375
 40
0.78125
 40
0.7890625
 40
0.79296875
 40
0.796875
 40
0.80078125
 40
0.8046875
 40
0.806640625
 40
0.80859375
 40
0.810546875
 40
0.8115234375
 40
0.8120117188
 40
0.8125
 40
0.8129882812
 40
0.8134765625
 40
0.814453125
 40
0.81640625
 40
0.818359375
 40
0.8203125
 40
0.82421875
 40
0.828125
 40
0.83203125
 40
0.8359375
 40
0.84375
 40
0.8515625
 40
0.85546875
 40
0.859375
 40
0.86328125
 40
0.8671875
 40
0.869140625
 40
0.87109375
 40
0.873046875
 40
0.8740234375
 40
0.8745117188
 40
0.875
 40
0.8754882812
 40
0.8759765625
 40
0.876953125
 40
0.87890625
 40
0.880859375
 40
0.8828125
 40
0.88671875
 40
0.890625
 40
0.89453125
 40
0.8984375
 40
0.90625
 40
0.9140625
 40
0.91796875
 40
0.921875
 40
0.92578125
 40
0.9296875
 40
0.931640625
 40
0.93359375
 40
0.935546875
 40
0.9365234375
 40
0.9370117188
 40
0.9375
 40
0.9379882812
 40
0.9384765625
 40
0.939453125
 40
0.94140625
 40
0.943359375
 40
0.9453125
 40
0.94921875
 40
0.953125
 40
0.95703125
 40
0.9609375
 40
0.96875
 40
0.9765625
 40
0.984375
 40
1.0
 40
1.0
 40
1.0
 40
1.0
 10
11.2002328131
 20
8.3228459724
 30
0.0
 10
11.203366
 20
8.3229358968
 30
0.0
 10
11.2080657804
 20
8.3230707834
 30
0.0
 10
11.2143321542
 20
8.3232506323
 30
0.0
 10
11.2190319346
 20
8.3233855188
 30
0.0
 10
11.2229484182
 20
8.3234979247
 30
0.0
 10
11.2260816053
 20
8.3235878482
 30
0.0
 10
11.2284314949
 20
8.3236552944
 30
0.0
 10
11.2307813871
 20
8.3237227271
 30
0.0
 10
11.2327396226
 20
8.3237789627
 30
0.0
 10
11.2343062291
 20
8.323823858
 30
0.0
 10
11.2352853168
 20
8.3238521295
 30
0.0
 10
11.2360686817
 20
8.3238742614
 30
0.0
 10
11.2366559459
 20
8.3238921891
 30
0.0
 10
11.2371461583
 20
8.323902902
 30
0.0
 10
11.2375364766
 20
8.3239209522
 30
0.0
 10
11.2378342748
 20
8.3239085865
 30
0.0
 10
11.2381127608
 20
8.3239950941
 30
0.0
 10
11.2384908215
 20
8.3240758998
 30
0.0
 10
11.2389610828
 20
8.3241887567
 30
0.0
 10
11.239526387
 20
8.3243191129
 30
0.0
 10
11.24027978
 20
8.3244946927
 30
0.0
 10
11.2412216398
 20
8.3247135609
 30
0.0
 10
11.2427285491
 20
8.325064089
 30
0.0
 10
11.2446122085
 20
8.3255021328
 30
0.0
 10
11.2468725901
 20
8.3260278352
 30
0.0
 10
11.2491329742
 20
8.3265535243
 30
0.0
 10
11.2521468188
 20
8.3272544478
 30
0.0
 10
11.255914125
 20
8.3281306004
 30
0.0
 10
11.2596814308
 20
8.3290067542
 30
0.0
 10
11.2626952759
 20
8.3297076758
 30
0.0
 10
11.2649556584
 20
8.3302333704
 30
0.0
 10
11.2672160461
 20
8.3307590522
 30
0.0
 10
11.2690996865
 20
8.3311971602
 30
0.0
 10
11.2706066345
 20
8.3315475575
 30
0.0
 10
11.2715483959
 20
8.3317667585
 30
0.0
 10
11.2723019909
 20
8.3319416552
 30
0.0
 10
11.272866678
 20
8.3320740984
 30
0.0
 10
11.2733388703
 20
8.3321804256
 30
0.0
 10
11.2737129914
 20
8.332274553
 30
0.0
 10
11.2740035085
 20
8.3323203771
 30
0.0
 10
11.2742561368
 20
8.3324607541
 30
0.0
 10
11.2746062095
 20
8.3326148949
 30
0.0
 10
11.2750392596
 20
8.3328189029
 30
0.0
 10
11.2755608633
 20
8.333058862
 30
0.0
 10
11.2762556561
 20
8.3333805016
 30
0.0
 10
11.2771243795
 20
8.333781971
 30
0.0
 10
11.278514207
 20
8.3344246463
 30
0.0
 10
11.280251536
 20
8.3352278792
 30
0.0
 10
11.2823363117
 20
8.3361918063
 30
0.0
 10
11.2844210925
 20
8.3371557207
 30
0.0
 10
11.2872007984
 20
8.3384409444
 30
0.0
 10
11.2906754314
 20
8.3400474722
 30
0.0
 10
11.294150064
 20
8.3416540012
 30
0.0
 10
11.2969297707
 20
8.3429392231
 30
0.0
 10
11.2990145491
 20
8.3439031428
 30
0.0
 10
11.301099334
 20
8.34486705
 30
0.0
 10
11.3028366343
 20
8.345670345
 30
0.0
 10
11.3042265202
 20
8.3463128937
 30
0.0
 10
11.3050950949
 20
8.3467146852
 30
0.0
 10
11.305790193
 20
8.3470356638
 30
0.0
 10
11.3063108639
 20
8.3472776423
 30
0.0
 10
11.3067468325
 20
8.3474753319
 30
0.0
 10
11.3070909508
 20
8.3476423634
 30
0.0
 10
11.3073617637
 20
8.3477433731
 30
0.0
 10
11.3075840084
 20
8.3479369982
 30
0.0
 10
11.3078973002
 20
8.3481628133
 30
0.0
 10
11.3082830942
 20
8.3484561818
 30
0.0
 10
11.3087485384
 20
8.348803473
 30
0.0
 10
11.3093682606
 20
8.3492681874
 30
0.0
 10
11.3101432112
 20
8.3498485121
 30
0.0
 10
11.3113829656
 20
8.3507773493
 30
0.0
 10
11.3129327158
 20
8.3519382869
 30
0.0
 10
11.3147923915
 20
8.3533314586
 30
0.0
 10
11.3166520738
 20
8.3547246179
 30
0.0
 10
11.3191316479
 20
8.3565821679
 30
0.0
 10
11.3222311164
 20
8.3589041039
 30
0.0
 10
11.3253305842
 20
8.3612260408
 30
0.0
 10
11.3278101595
 20
8.3630835893
 30
0.0
 10
11.3296698382
 20
8.3644767532
 30
0.0
 10
11.3315295274
 20
8.3658699075
 30
0.0
 10
11.3330792357
 20
8.3670308992
 30
0.0
 10
11.3343190756
 20
8.367959626
 30
0.0
 10
11.3350938086
 20
8.3685402317
 30
0.0
 10
11.3357139773
 20
8.3690043695
 30
0.0
 10
11.3361780572
 20
8.3693534222
 30
0.0
 10
11.33656812
 20
8.3696412792
 30
0.0
 10
11.3368727026
 20
8.3698783388
 30
0.0
 10
11.3371215447
 20
8.3700376238
 30
0.0
 10
11.3372925002
 20
8.3702675605
 30
0.0
 10
11.3375476477
 20
8.3705494632
 30
0.0
 10
11.3378572475
 20
8.370910309
 30
0.0
 10
11.3382327628
 20
8.3713396996
 30
0.0
 10
11.3387320543
 20
8.3719134864
 30
0.0
 10
11.3393566465
 20
8.3726302864
 30
0.0
 10
11.340355727
 20
8.3737774086
 30
0.0
 10
11.3416046692
 20
8.3752112283
 30
0.0
 10
11.3431033606
 20
8.3769318475
 30
0.0
 10
11.3446020625
 20
8.3786524572
 30
0.0
 10
11.3466003281
 20
8.3809466068
 30
0.0
 10
11.3490981614
 20
8.3838142925
 30
0.0
 10
11.3515959937
 20
8.3866819791
 30
0.0
 10
11.3535942608
 20
8.3889761274
 30
0.0
 10
11.3550929581
 20
8.3906967408
 30
0.0
 10
11.3565916666
 20
8.392417346
 30
0.0
 10
11.3578405556
 20
8.3938512094
 30
0.0
 10
11.3588397446
 20
8.3949982426
 30
0.0
 10
11.3594640607
 20
8.3957152691
 30
0.0
 10
11.359963919
 20
8.3962885908
 30
0.0
 10
11.3603377025
 20
8.3967194023
 30
0.0
 10
11.3606527208
 20
8.3970758025
 30
0.0
 10
11.3608968137
 20
8.3973667751
 30
0.0
 10
11.3611015292
 20
8.3975690128
 30
0.0
 10
11.3612236221
 20
8.3978322914
 30
0.0
 10
11.3614152737
 20
8.3981620072
 30
0.0
 10
11.3616449361
 20
8.3985814676
 30
0.0
 10
11.3619247695
 20
8.3990816887
 30
0.0
 10
11.3622964002
 20
8.3997497439
 30
0.0
 10
11.3627614455
 20
8.4005844384
 30
0.0
 10
11.3635052346
 20
8.401920159
 30
0.0
 10
11.3644350683
 20
8.4035897378
 30
0.0
 10
11.365550827
 20
8.4055932632
 30
0.0
 10
11.3666665968
 20
8.4075967803
 30
0.0
 10
11.3681542861
 20
8.4102681394
 30
0.0
 10
11.3700138991
 20
8.4136073372
 30
0.0
 10
11.3718735111
 20
8.4169465357
 30
0.0
 10
11.373361202
 20
8.4196178938
 30
0.0
 10
11.3744769669
 20
8.4216214139
 30
0.0
 10
11.3755927442
 20
8.4236249281
 30
0.0
 10
11.3765225201
 20
8.4252945419
 30
0.0
 10
11.3772664271
 20
8.426630191
 30
0.0
 10
11.3777311723
 20
8.4274650673
 30
0.0
 10
11.378103419
 20
8.4281327495
 30
0.0
 10
11.3783813705
 20
8.4286341101
 30
0.0
 10
11.3786169208
 20
8.4290500051
 30
0.0
 10
11.3787965601
 20
8.4293869949
 30
0.0
 10
11.3789553378
 20
8.4296280592
 30
0.0
 10
11.379022323
 20
8.4299136989
 30
0.0
 10
11.379143701
 20
8.430278981
 30
0.0
 10
11.3792844223
 20
8.4307409259
 30
0.0
 10
11.3794579967
 20
8.4312929731
 30
0.0
 10
11.3796877846
 20
8.4320298348
 30
0.0
 10
11.3799755825
 20
8.4329506383
 30
0.0
 10
11.3804357446
 20
8.4344240769
 30
0.0
 10
11.3810110551
 20
8.4362658227
 30
0.0
 10
11.3817013814
 20
8.4384759401
 30
0.0
 10
11.3823917201
 20
8.4406860515
 30
0.0
 10
11.3833121674
 20
8.4436328688
 30
0.0
 10
11.3844627281
 20
8.4473163897
 30
0.0
 10
11.3856132877
 20
8.450999911
 30
0.0
 10
11.3865337367
 20
8.4539467276
 30
0.0
 10
11.38722407
 20
8.4561568412
 30
0.0
 10
11.3879144165
 20
8.4583669501
 30
0.0
 10
11.3884896643
 20
8.4602087224
 30
0.0
 10
11.3889499543
 20
8.4616821069
 30
0.0
 10
11.3892374266
 20
8.4626030483
 30
0.0
 10
11.3894678828
 20
8.463339627
 30
0.0
 10
11.3896394154
 20
8.4638925385
 30
0.0
 10
11.3897865251
 20
8.4643517794
 30
0.0
 10
11.3898948695
 20
8.4647225781
 30
0.0
 10
11.3900016583
 20
8.4649913707
 30
0.0
 10
11.390010997
 20
8.4652956858
 30
0.0
 10
11.3900574892
 20
8.4656890309
 30
0.0
 10
11.3901039253
 20
8.4661849695
 30
0.0
 10
11.3901646477
 20
8.4667782736
 30
0.0
 10
11.3902438647
 20
8.4675699823
 30
0.0
 10
11.3903434839
 20
8.4685594001
 30
0.0
 10
11.3905025405
 20
8.4701425905
 30
0.0
 10
11.3907014759
 20
8.4721215366
 30
0.0
 10
11.3909401492
 20
8.4744962899
 30
0.0
 10
11.3911788357
 20
8.4768710384
 30
0.0
 10
11.3914970797
 20
8.4800373714
 30
0.0
 10
11.3918948864
 20
8.483995287
 30
0.0
 10
11.392292692
 20
8.4879532029
 30
0.0
 10
11.3926109379
 20
8.4911195356
 30
0.0
 10
11.3928496187
 20
8.493494285
 30
0.0
 10
11.3930883132
 20
8.4958690347
 30
0.0
 10
11.3932871827
 20
8.497847992
 30
0.0
 10
11.3934463736
 20
8.4994311596
 30
0.0
 10
11.393545651
 20
8.5004206353
 30
0.0
 10
11.3936255697
 20
8.5012122252
 30
0.0
 10
11.3936841486
 20
8.5018058919
 30
0.0
 10
11.3937372911
 20
8.5023006961
 30
0.0
 10
11.393770101
 20
8.5026963557
 30
0.0
 10
11.3938212246
 20
8.5029936024
 30
0.0
 10
11.3937711353
 20
8.503288933
 30
0.0
 10
11.3937397046
 20
8.5036833765
 30
0.0
 10
11.3936882861
 20
8.5041762012
 30
0.0
 10
11.3936317759
 20
8.5047676892
 30
0.0
 10
11.3935546156
 20
8.5055563054
 30
0.0
 10
11.3934587861
 20
8.5065420875
 30
0.0
 10
11.3933051118
 20
8.5081193323
 30
0.0
 10
11.3931131381
 20
8.5100908905
 30
0.0
 10
11.3928827185
 20
8.5124567594
 30
0.0
 10
11.3926523126
 20
8.5148226285
 30
0.0
 10
11.3923451001
 20
8.5179771206
 30
0.0
 10
11.3919610855
 20
8.5219202357
 30
0.0
 10
11.3915770725
 20
8.5258633511
 30
0.0
 10
11.3912698574
 20
8.5290178428
 30
0.0
 10
11.391039459
 20
8.5313837132
 30
0.0
 10
11.3908090117
 20
8.5337495773
 30
0.0
 10
11.3906171242
 20
8.5357211503
 30
0.0
 10
11.3904632741
 20
8.5372983649
 30
0.0
 10
11.3903488156
 20
8.5384813954
 30
0.0
 10
11.3902504783
 20
8.539466874
 30
0.0
 10
11.3901874418
 20
8.5401574551
 30
0.0
 10
11.3901423652
 20
8.5405509079
 30
0.0
 10
11.390134068
 20
8.5408492794
 30
0.0
 10
11.3900282579
 20
8.5411351055
 30
0.0
 10
11.3899211913
 20
8.5415205829
 30
0.0
 10
11.3897179773
 20
8.5421931294
 30
0.0
 10
11.3894359569
 20
8.5431549762
 30
0.0
 10
11.3890939859
 20
8.5443087361
 30
0.0
 10
11.3886392635
 20
8.545847242
 30
0.0
 10
11.3880704353
 20
8.5477703196
 30
0.0
 10
11.3873880238
 20
8.5500780362
 30
0.0
 10
11.3867055635
 20
8.5523857466
 30
0.0
 10
11.3857956335
 20
8.5554626959
 30
0.0
 10
11.3846582146
 20
8.5593088817
 30
0.0
 10
11.3835207999
 20
8.5631550684
 30
0.0
 10
11.3826108633
 20
8.5662320162
 30
0.0
 10
11.381928423
 20
8.5685397312
 30
0.0
 10
11.3812459366
 20
8.5708474304
 30
0.0
 10
11.3806773411
 20
8.5727705622
 30
0.0
 10
11.3802221442
 20
8.5743089577
 30
0.0
 10
11.3798816222
 20
8.5754630546
 30
0.0
 10
11.3795950685
 20
8.5764238471
 30
0.0
 10
11.3793999471
 20
8.5770982757
 30
0.0
 10
11.3792799142
 20
8.5774807375
 30
0.0
 10
11.3792139327
 20
8.5777758264
 30
0.0
 10
11.3790560458
 20
8.5780394083
 30
0.0
 10
11.3788775876
 20
8.5784018408
 30
0.0
 10
11.3785503494
 20
8.5790309772
 30
0.0
 10
11.3780906752
 20
8.5799324205
 30
0.0
 10
11.3775357236
 20
8.5810130066
 30
0.0
 10
11.3767969558
 20
8.5824541883
 30
0.0
 10
11.3758730954
 20
8.5842555282
 30
0.0
 10
11.3747646346
 20
8.5864171948
 30
0.0
 10
11.3736561279
 20
8.5885788457
 30
0.0
 10
11.3721781351
 20
8.5914610525
 30
0.0
 10
11.3703306381
 20
8.5950638088
 30
0.0
 10
11.368483145
 20
8.5986665668
 30
0.0
 10
11.3670051458
 20
8.6015487709
 30
0.0
 10
11.3658966582
 20
8.6037104296
 30
0.0
 10
11.3647881259
 20
8.6058720671
 30
0.0
 10
11.363864488
 20
8.6076734977
 30
0.0
 10
11.3631252665
 20
8.6091144944
 30
0.0
 10
11.3625717005
 20
8.6101956456
 30
0.0
 10
11.3621076913
 20
8.6110953209
 30
0.0
 10
11.3617881918
 20
8.6117276135
 30
0.0
 10
11.3615973343
 20
8.6120849889
 30
0.0
 10
11.3614775339
 20
8.6123641046
 30
0.0
 10
11.3612685057
 20
8.6126008508
 30
0.0
 10
11.3610209252
 20
8.6129312913
 30
0.0
 10
11.3605731581
 20
8.6135026765
 30
0.0
 10
11.3599410723
 20
8.6143225409
 30
0.0
 10
11.3591793241
 20
8.6153048373
 30
0.0
 10
11.3581647935
 20
8.6166151042
 30
0.0
 10
11.3568962412
 20
8.618252753
 30
0.0
 10
11.3553741453
 20
8.6202180108
 30
0.0
 10
11.3538520047
 20
8.6221832474
 30
0.0
 10
11.3518224996
 20
8.6248035704
 30
0.0
 10
11.3492856124
 20
8.6280789711
 30
0.0
 10
11.3467487286
 20
8.6313543743
 30
0.0
 10
11.3447192181
 20
8.6339746932
 30
0.0
 10
11.3431970938
 20
8.635939942
 30
0.0
 10
11.3416749368
 20
8.6379051541
 30
0.0
 10
11.3404065743
 20
8.639542945
 30
0.0
 10
11.3393916568
 20
8.640852922
 30
0.0
 10
11.3386310902
 20
8.6418361036
 30
0.0
 10
11.3379953076
 20
8.6426531987
 30
0.0
 10
11.3375541398
 20
8.6432295276
 30
0.0
 10
11.3372959856
 20
8.643552047
 30
0.0
 10
11.3371194363
 20
8.6438131244
 30
0.0
 10
11.3368776508
 20
8.6440008562
 30
0.0
 10
11.3365780253
 20
8.6442767491
 30
0.0
 10
11.3360430787
 20
8.6447476416
 30
0.0
 10
11.3352844121
 20
8.6454265772
 30
0.0
 10
11.3343716397
 20
8.6462386323
 30
0.0
 10
11.3331554385
 20
8.6473223044
 30
0.0
 10
11.3316349026
 20
8.6486765746
 30
0.0
 10
11.3298103815
 20
8.6503018361
 30
0.0
 10
11.3279858278
 20
8.6519270608
 30
0.0
 10
11.3255531009
 20
8.65409404
 30
0.0
 10
11.322512188
 20
8.6568027591
 30
0.0
 10
11.3194712778
 20
8.6595114816
 30
0.0
 10
11.3170385467
 20
8.6616784554
 30
0.0
 10
11.3152140057
 20
8.6633036961
 30
0.0
 10
11.313389437
 20
8.6649288975
 30
0.0
 10
11.3118690492
 20
8.6662833546
 30
0.0
 10
11.3106525461
 20
8.6673666456
 30
0.0
 10
11.3097406956
 20
8.6681798644
 30
0.0
 10
11.3089791443
 20
8.6688551594
 30
0.0
 10
11.3084493474
 20
8.6693325509
 30
0.0
 10
11.3081414708
 20
8.6695980309
 30
0.0
 10
11.3079250301
 20
8.6698177477
 30
0.0
 10
11.3076532902
 20
8.6699586947
 30
0.0
 10
11.3073102594
 20
8.6701740998
 30
0.0
 10
11.3067009684
 20
8.6705382573
 30
0.0
 10
11.3058352511
 20
8.6710651751
 30
0.0
 10
11.3047943793
 20
8.6716946117
 30
0.0
 10
11.3034072527
 20
8.6725348612
 30
0.0
 10
11.3016731035
 20
8.6735848296
 30
0.0
 10
11.2995922277
 20
8.674844939
 30
0.0
 10
11.2975113242
 20
8.676105009
 30
0.0
 10
11.294736796
 20
8.6777851161
 30
0.0
 10
11.2912686321
 20
8.6798852447
 30
0.0
 10
11.2878004704
 20
8.6819853771
 30
0.0
 10
11.2850259388
 20
8.6836654783
 30
0.0
 10
11.2829450452
 20
8.6849255659
 30
0.0
 10
11.2808641325
 20
8.686185609
 30
0.0
 10
11.2791300981
 20
8.6872357837
 30
0.0
 10
11.2777427373
 20
8.6880756126
 30
0.0
 10
11.2767025807
 20
8.6887063335
 30
0.0
 10
11.2758346258
 20
8.6892292332
 30
0.0
 10
11.2752293294
 20
8.6896005636
 30
0.0
 10
11.2748798981
 20
8.6898044759
 30
0.0
 10
11.2746278184
 20
8.6899807254
 30
0.0
 10
11.2743375375
 20
8.6900678516
 30
0.0
 10
11.2739638212
 20
8.6902151072
 30
0.0
 10
11.2733036094
 20
8.6904583202
 30
0.0
 10
11.2723636955
 20
8.6908133398
 30
0.0
 10
11.2712344094
 20
8.6912361221
 30
0.0
 10
11.26972918
 20
8.6918009641
 30
0.0
 10
11.2678474767
 20
8.692506628
 30
0.0
 10
11.2655895042
 20
8.6933535913
 30
0.0
 10
11.2633315125
 20
8.6942005099
 30
0.0
 10
11.2603208637
 20
8.6953297505
 30
0.0
 10
11.2565575502
 20
8.6967412953
 30
0.0
 10
11.2527942381
 20
8.6981528442
 30
0.0
 10
11.2497835869
 20
8.6992820782
 30
0.0
 10
11.2475256023
 20
8.7001290164
 30
0.0
 10
11.2452676033
 20
8.7009759068
 30
0.0
 10
11.2433859823
 20
8.7016817974
 30
0.0
 10
11.2418805852
 20
8.702246177
 30
0.0
 10
11.2407518113
 20
8.7026703711
 30
0.0
 10
11.2398102949
 20
8.7030209738
 30
0.0
 10
11.2391529438
 20
8.7032720718
 30
0.0
 10
11.2387746439
 20
8.7034066936
 30
0.0
 10
11.2384984424
 20
8.7035326265
 30
0.0
 10
11.2381934826
 20
8.7035631248
 30
0.0
 10
11.2377969006
 20
8.7036370778
 30
0.0
 10
11.2370982085
 20
8.7037509858
 30
0.0
 10
11.2361025204
 20
8.7039218203
 30
0.0
 10
11.2349066487
 20
8.7041233509
 30
0.0
 10
11.2333125185
 20
8.7043932707
 30
0.0
 10
11.2313197304
 20
8.7047302544
 30
0.0
 10
11.2289284385
 20
8.7051348132
 30
0.0
 10
11.2265371321
 20
8.7055393244
 30
0.0
 10
11.2233487287
 20
8.7060786892
 30
0.0
 10
11.2193632226
 20
8.7067528895
 30
0.0
 10
11.2145806161
 20
8.7075619323
 30
0.0
 10
11.2082038072
 20
8.7086406552
 30
0.0
 10
11.2034212006
 20
8.7094496975
 30
0.0
 10
11.2002327961
 20
8.7099890591
 30
0.0
  0
ENDSEC
  0
SECTION
  2
OBJECTS
  0
DICTIONARY
  5
C
100
AcDbDictionary
280
0
281
1
  3
ACAD_GROUP
350
D
  3
ACAD_MLINESTYLE
350
17
  3
ACAD_LAYOUT
350
1A
  3
ACAD_PLOTSETTINGS
350
19
  3
ACAD_PLOTSTYLENAME
350
E
  3
ACAD_IMAGE_DICT
350
       3A0
  3
ACAD_IMAGE_VARS
350
       3A1
  3
ACAD_TABLESTYLE
350
       3A2
  0
IMAGEDEF_REACTOR
  5
39F
100
AcDbRasterImageDefReactor
 90
2
330
292
  0
DICTIONARY
  5
D
102
{ACAD_REACTORS
330
C
102
}
100
AcDbDictionary
280
0
281
1
  0
ACDBDICTIONARYWDFLT
  5
E
102
{ACAD_REACTORS
330
C
102
}
100
AcDbDictionary
281
1
  3
Normal
350
F
100
AcDbDictionaryWithDefault
340
F
  0
DICTIONARY
  5
3A0
330
C
100
AcDbDictionary
281
1
  3
B3C_assy_2_img_1
350
       3A5
  0
RASTERVARIABLES
  5
3A1
330
C
100
AcDbRasterVariables
 90
0
 70
0
 71
1
 72
5
  0
DICTIONARY
  5
17
102
{ACAD_REACTORS
330
C
102
}
100
AcDbDictionary
280
0
281
1
  3
Standard
350
18
  0
DICTIONARY
  5
3A2
330
C
100
AcDbDictionary
281
1
  3
Standard
350
       3A6
  3
Standard1
350
       3A7
  0
DICTIONARY
  5
19
102
{ACAD_REACTORS
330
C
102
}
100
AcDbDictionary
281
1
  0
DICTIONARY
  5
1A
102
{ACAD_REACTORS
330
C
102
}
100
AcDbDictionary
281
1
  3
Model
350
3A3
  3
Layout1
350
3A4
  0
ACDBPLACEHOLDER
  5
F
102
{ACAD_REACTORS
330
E
102
}
  0
MLINESTYLE
  5
18
102
{ACAD_REACTORS
330
17
102
}
100
AcDbMlineStyle
  2
STANDARD
 70
0
  3

 62
256
 51
90.0
 52
90.0
 71
2
 49
0.5
 62
256
  6
BYLAYER
 49
-0.5
 62
256
  6
BYLAYER
  0
LAYOUT
  5
3A3
102
{ACAD_REACTORS
330
1A
102
}
100
AcDbPlotSettings
  1

  2
none_device
  4
ANSI_C_(22.00_x_17.00_Inches)
  6

 40
0.0
 41
0.0
 42
0.0
 43
0.0
 44
558.8
 45
431.8
 46
0.0
 47
0.0
 48
0.0
 49
0.0
140
0.0
141
0.0
142
1.0
143
1.0
 70
1024
 72
0
 73
0
 74
0
  7

 75
0
147
1.0
148
0.0
149
0.0
100
AcDbLayout
  1
Model
 70
0
 71
0
 10
0.0
 20
0.0
 11
22.0
 21
17.0
 12
0.0
 22
0.0
 32
0.0
 14
0.0
 24
0.0
 34
0.0
 15
0.0
 25
0.0
 35
0.0
146
0.0
 13
0.0
 23
0.0
 33
0.0
 16
1.0
 26
0.0
 36
0.0
 17
0.0
 27
1.0
 37
0.0
 76
0
330
20C
345
0
346
0
  0
LAYOUT
  5
3A4
102
{ACAD_REACTORS
330
1A
102
}
100
AcDbPlotSettings
  1

  2
none_device
  4
ANSI_C_(22.00_x_17.00_Inches)
  6

 40
0.0
 41
0.0
 42
0.0
 43
0.0
 44
558.8
 45
431.8
 46
0.0
 47
0.0
 48
0.0
 49
0.0
140
0.0
141
0.0
142
1.0
143
1.0
 70
0
 72
0
 73
0
 74
0
  7

 75
0
147
1.0
148
0.0
149
0.0
100
AcDbLayout
  1
Layout1
 70
0
 71
1
 10
0.0
 20
0.0
 11
22.0
 21
17.0
 12
0.0
 22
0.0
 32
0.0
 14
0.0
 24
0.0
 34
0.0
 15
0.0
 25
0.0
 35
0.0
146
0.0
 13
0.0
 23
0.0
 33
0.0
 16
1.0
 26
0.0
 36
0.0
 17
0.0
 27
1.0
 37
0.0
 76
0
330
20D
345
0
346
0
  0
IMAGEDEF
  5
3A5
102
{ACAD_REACTORS
330
3A0
330
39F
102
}
100
AcDbRasterImageDef
 90
0
  1
B3C_assy_2_img_1.png
 10
369.0
 20
92.0
 11
0.0066666667
 21
0.0066666667
280
1
281
0
  0
TABLESTYLE
  5
3A6
102
{ACAD_REACTORS
330
3A2
330
295
330
296
102
}
330
3A2
100
AcDbTableStyle
  3
Standard
 70
0
 71
0
 40
0.06
 41
0.06
280
1
281
1
  7
Standard
140
0.18
170
1
 62
0
 63
7
283
0
  7
Standard
140
0.18
170
1
 62
0
 63
7
283
0
  7
Standard
140
0.18
170
1
 62
0
 63
7
283
0
  0
TABLESTYLE
  5
3A7
102
{ACAD_REACTORS
330
3A2
330
294
102
}
330
3A2
100
AcDbTableStyle
  3
Standard1
 70
1
 71
0
 40
0.06
 41
0.06
280
1
281
1
  7
Standard
140
0.18
170
1
 62
0
 63
7
283
0
  7
Standard
140
0.18
170
1
 62
0
 63
7
283
0
  7
Standard
140
0.18
170
1
 62
0
 63
7
283
0
  0
ENDSEC
  0
EOF
