999
DXF file: B2W_assy_2.dxf
999
Pro/ENGINEER 2014200 by Parametric Technology Corporation
  0
SECTION
  2
HEADER
  9
$ACADVER
  1
AC1021
  9
$DWGCODEPAGE
  3
ANSI_1252
  9
$EXTMAX
 10
22.0
 20
17.0
 30
0.0
  9
$EXTMIN
 10
0.0
 20
0.0
 30
0.0
  9
$LIMMIN
 10
0.0
 20
0.0
  9
$LIMMAX
 10
22.0
 20
17.0
  9
$VIEWCTR
 10
11.0
 20
8.5
  9
$VIEWSIZE
 40
17.0
  9
$CLAYER
  8
0
  9
$LTSCALE
 40
1.21
  9
$CELTYPE
  6
BYLAYER
  9
$DIMSCALE
 40
1.0
  9
$DIMASZ
 40
0.1875
  9
$DIMEXO
 40
0.0625
  9
$DIMDLI
 40
0.836
  9
$DIMEXE
 40
0.125
  9
$DIMCEN
 40
0.198
  9
$DIMLFAC
 40
1.0
  9
$DIMBLK
  1
_FILLED
  9
$DIMTXT
 40
0.1
  9
$DIMTOL
 70
0
  9
$DIMLIM
 70
0
  9
$DIMTFAC
 40
1.0
  9
$DIMGAP
 40
0.09
  9
$DIMDSEP
 70
46
  9
$AUNITS
 70
0
  9
$PDMODE
 70
3
  9
$PDSIZE
 40
0.3125
  9
$HANDSEED
  5
3A4
  9
$TILEMODE
 70
1
  9
$MEASUREMENT
 70
0
  9
$INSUNITS
 70
1
  0
ENDSEC
  0
SECTION
  2
CLASSES
  0
CLASS
  1
ACDBDICTIONARYWDFLT
  2
AcDbDictionaryWithDefault
  3
AutoCAD 2000
 90
0
 91
1
280
0
281
0
  0
CLASS
  1
ACDBPLACEHOLDER
  2
AcDbPlaceHolder
  3
AutoCAD 2000
 90
0
 91
1
280
0
281
0
  0
CLASS
  1
LAYOUT
  2
AcDbLayout
  3
AutoCAD 2000
 90
0
 91
0
280
0
281
0
  0
CLASS
  1
RASTERVARIABLES
  2
AcDbRasterVariables
  3
ISM
 90
0
 91
1
280
0
281
0
  0
CLASS
  1
IMAGEDEF
  2
AcDbRasterImageDef
  3
ISM
 90
0
 91
1
280
0
281
0
  0
CLASS
  1
IMAGEDEF_REACTOR
  2
AcDbRasterImageDefReactor
  3
ISM
 90
0
 91
1
280
0
281
0
  0
CLASS
  1
IMAGE
  2
AcDbRasterImage
  3
ISM
 90
127
 91
1
280
0
281
1
  0
CLASS
  1
TABLESTYLE
  2
AcDbTableStyle
  3
ObjectDBX Classes
 90
2047
 91
1
280
0
281
0
  0
CLASS
  1
ACAD_TABLE
  2
AcDbTable
  3
ObjectDBX Classes
 90
1025
 91
3
280
0
281
1
  0
ENDSEC
  0
SECTION
  2
TABLES
  0
TABLE
  2
VPORT
  5
8
100
AcDbSymbolTable
 70
2
  0
VPORT
  5
1F4
100
AcDbSymbolTableRecord
100
AcDbViewportTableRecord
  2
*ACTIVE
 70
0
 10
0.0
 20
0.0
 11
1.0
 21
1.0
 12
11.0
 22
8.5
 13
0.0
 23
0.0
 14
1.0
 24
1.0
 15
0.0
 25
0.0
 16
0.0
 26
0.0
 36
1.0
 17
0.0
 27
0.0
 37
0.0
 40
17.0
 41
1.2941176471
 42
50.0
 43
0.0
 44
0.0
 50
0.0
 51
0.0
 71
0
 72
100
 73
1
 74
1
 75
0
 76
0
 77
0
 78
0
  0
ENDTAB
  0
TABLE
  2
LTYPE
  5
5
100
AcDbSymbolTable
 70
6
  0
LTYPE
  5
14
100
AcDbSymbolTableRecord
100
AcDbLinetypeTableRecord
  2
BYBLOCK
 70
0
  3

 72
65
 73
0
 40
0.0
  0
LTYPE
  5
15
100
AcDbSymbolTableRecord
100
AcDbLinetypeTableRecord
  2
BYLAYER
 70
0
  3

 72
65
 73
0
 40
0.0
  0
LTYPE
  5
16
100
AcDbSymbolTableRecord
100
AcDbLinetypeTableRecord
  2
CONTINUOUS
 70
64
  3
Solid line
 72
65
 73
0
 40
0.0
  0
LTYPE
  5
1F5
100
AcDbSymbolTableRecord
100
AcDbLinetypeTableRecord
  2
CENTER
 70
64
  3
____ _ ____ _ ____ _ ____ _ ____ _ ____ _ ____
 72
65
 73
4
 40
0.6
 49
0.375
 74
0
 49
-0.075
 74
0
 49
0.075
 74
0
 49
-0.075
 74
0
  0
LTYPE
  5
1F6
100
AcDbSymbolTableRecord
100
AcDbLinetypeTableRecord
  2
HIDDEN
 70
64
  3
- - - - - - - - - - - - - - - - - - - -
 72
65
 73
2
 40
0.2
 49
0.1
 74
0
 49
-0.1
 74
0
  0
LTYPE
  5
1F7
100
AcDbSymbolTableRecord
100
AcDbLinetypeTableRecord
  2
PHANTOM
 70
64
  3
_____ _ _ _____ _ _ _____ _ _ _____
 72
65
 73
6
 40
0.8
 49
0.45
 74
0
 49
-0.05
 74
0
 49
0.1
 74
0
 49
-0.05
 74
0
 49
0.1
 74
0
 49
-0.05
 74
0
  0
LTYPE
  5
1F8
100
AcDbSymbolTableRecord
100
AcDbLinetypeTableRecord
  2
DOT
 70
64
  3
. . . . . . . . . . . . . . . . . . . .
 72
65
 73
2
 40
0.2
 49
0.1
 74
0
 49
-0.1
 74
0
  0
LTYPE
  5
1F9
100
AcDbSymbolTableRecord
100
AcDbLinetypeTableRecord
  2
DASHED
 70
64
  3
- - - - - - - - - - - - - - - - - - - -
 72
65
 73
2
 40
0.2
 49
0.1
 74
0
 49
-0.1
 74
0
  0
ENDTAB
  0
TABLE
  2
LAYER
  5
2
100
AcDbSymbolTable
 70
36
  0
LAYER
  5
10
100
AcDbSymbolTableRecord
100
AcDbLayerTableRecord
  2
0
 70
0
 62
7
  6
CONTINUOUS
370
-3
390
F
  0
LAYER
  5
1FA
100
AcDbSymbolTableRecord
100
AcDbLayerTableRecord
  2
DEFAULT_1
 70
0
 62
7
  6
CENTER
370
-3
390
F
  0
LAYER
  5
1FB
100
AcDbSymbolTableRecord
100
AcDbLayerTableRecord
  2
DEFAULT_2
 70
0
 62
8
  6
HIDDEN
370
-3
390
F
  0
LAYER
  5
1FC
100
AcDbSymbolTableRecord
100
AcDbLayerTableRecord
  2
DEFAULT_3
 70
0
 62
7
  6
PHANTOM
370
-3
390
F
  0
LAYER
  5
1FD
100
AcDbSymbolTableRecord
100
AcDbLayerTableRecord
  2
01___PRT_ALL_DTM_PLN
 70
0
 62
7
  6
CONTINUOUS
370
-3
390
F
  0
LAYER
  5
1FE
100
AcDbSymbolTableRecord
100
AcDbLayerTableRecord
  2
01___PRT_DEF_DTM_PLN
 70
0
 62
7
  6
CONTINUOUS
370
-3
390
F
  0
LAYER
  5
1FF
100
AcDbSymbolTableRecord
100
AcDbLayerTableRecord
  2
02___PRT_ALL_AXES
 70
0
 62
7
  6
CONTINUOUS
370
-3
390
F
  0
LAYER
  5
200
100
AcDbSymbolTableRecord
100
AcDbLayerTableRecord
  2
03___PRT_ALL_CURVES
 70
0
 62
7
  6
CONTINUOUS
370
-3
390
F
  0
LAYER
  5
201
100
AcDbSymbolTableRecord
100
AcDbLayerTableRecord
  2
04___PRT_ALL_DTM_PNT
 70
0
 62
7
  6
CONTINUOUS
370
-3
390
F
  0
LAYER
  5
202
100
AcDbSymbolTableRecord
100
AcDbLayerTableRecord
  2
05___PRT_ALL_DTM_CSYS
 70
0
 62
7
  6
CONTINUOUS
370
-3
390
F
  0
LAYER
  5
203
100
AcDbSymbolTableRecord
100
AcDbLayerTableRecord
  2
05___PRT_DEF_DTM_CSYS
 70
0
 62
7
  6
CONTINUOUS
370
-3
390
F
  0
LAYER
  5
204
100
AcDbSymbolTableRecord
100
AcDbLayerTableRecord
  2
06___PRT_ALL_SURFS
 70
0
 62
7
  6
CONTINUOUS
370
-3
390
F
  0
LAYER
  5
205
100
AcDbSymbolTableRecord
100
AcDbLayerTableRecord
  2
DATUM_PLANES
 70
0
 62
7
  6
CONTINUOUS
370
-3
390
F
  0
LAYER
  5
206
100
AcDbSymbolTableRecord
100
AcDbLayerTableRecord
  2
PORT_AREAS
 70
0
 62
7
  6
CONTINUOUS
370
-3
390
F
  0
LAYER
  5
207
100
AcDbSymbolTableRecord
100
AcDbLayerTableRecord
  2
SUNNBOMCOSMETIC
 70
0
 62
7
  6
CONTINUOUS
370
-3
390
F
  0
LAYER
  5
208
100
AcDbSymbolTableRecord
100
AcDbLayerTableRecord
  2
SUNNBOMSTAMPING
 70
0
 62
7
  6
CONTINUOUS
370
-3
390
F
  0
LAYER
  5
209
100
AcDbSymbolTableRecord
100
AcDbLayerTableRecord
  2
THREADS
 70
0
 62
7
  6
CONTINUOUS
370
-3
390
F
  0
ENDTAB
  0
TABLE
  2
STYLE
  5
3
100
AcDbSymbolTable
 70
1
  0
STYLE
  5
11
100
AcDbSymbolTableRecord
100
AcDbTextStyleTableRecord
  2
STANDARD
 70
0
 40
0.0
 41
0.8
 50
0.0
 71
0
 42
0.2
  3
txt
  4

  0
STYLE
  5
20A
100
AcDbSymbolTableRecord
100
AcDbTextStyleTableRecord
  2
TEXTSTYLE_1
 70
0
 40
0.0
 41
0.8
 50
0.0
 71
0
 42
0.2
  3
gdt
  4

  0
ENDTAB
  0
TABLE
  2
VIEW
  5
6
100
AcDbSymbolTable
 70
0
  0
ENDTAB
  0
TABLE
  2
UCS
  5
7
100
AcDbSymbolTable
 70
0
  0
ENDTAB
  0
TABLE
  2
APPID
  5
9
100
AcDbSymbolTable
 70
1
  0
APPID
  5
20B
100
AcDbSymbolTableRecord
100
AcDbRegAppTableRecord
  2
ACAD
 70
0
  0
ENDTAB
  0
TABLE
  2
BLOCK_RECORD
  5
1
100
AcDbSymbolTable
 70
0
  0
BLOCK_RECORD
  5
20C
100
AcDbSymbolTableRecord
100
AcDbBlockTableRecord
  2
*Model_Space
  0
BLOCK_RECORD
  5
20D
100
AcDbSymbolTableRecord
100
AcDbBlockTableRecord
  2
*Paper_Space
  0
BLOCK_RECORD
  5
20E
100
AcDbSymbolTableRecord
100
AcDbBlockTableRecord
  2
SUN_FIRST_THIRD_ANGLE_BL0
  0
BLOCK_RECORD
  5
20F
100
AcDbSymbolTableRecord
100
AcDbBlockTableRecord
  2
*T1
  0
BLOCK_RECORD
  5
210
100
AcDbSymbolTableRecord
100
AcDbBlockTableRecord
  2
*T2
  0
BLOCK_RECORD
  5
211
100
AcDbSymbolTableRecord
100
AcDbBlockTableRecord
  2
*T3
  0
ENDTAB
  0
TABLE
  2
DIMSTYLE
  5
A
100
AcDbSymbolTable
 70
1
100
AcDbDimStyleTable
 71
0
  0
DIMSTYLE
105
212
100
AcDbSymbolTableRecord
100
AcDbDimStyleTableRecord
  2
STANDARD
 70
0
  3

  4

 40
1.0
 41
0.1875
 42
0.0625
 43
0.38
 44
0.125
 45
0.0
 46
0.0
 47
0.001
 48
0.001
140
0.1
141
0.09
142
0.0
143
25.4
144
1.0
145
0.0
146
1.0
147
0.09
 71
0.0
 72
0.0
 73
1
 74
1
 75
0
 76
0
 77
0
 78
4
170
0
171
2
172
0
173
0
174
0
175
0
176
0
177
0
178
0
270
2
271
3
272
3
273
2
274
2
275
0
280
0
281
0
282
0
283
1
284
4
285
0
286
0
287
3
288
0
340
11
278
46
  0
ENDTAB
  0
ENDSEC
  0
SECTION
  2
BLOCKS
  0
BLOCK
  5
20
100
AcDbEntity
  8
0
100
AcDbBlockBegin
  2
*Model_Space
 70
0
 10
0.0
 20
0.0
 30
0.0
  3
*Model_Space
  1

  0
ENDBLK
  5
21
100
AcDbEntity
  8
0
100
AcDbBlockEnd
  0
BLOCK
  5
1C
100
AcDbEntity
  8
0
100
AcDbBlockBegin
  2
*Paper_Space
 70
0
 10
0.0
 20
0.0
 30
0.0
  3
*Paper_Space
  1

  0
ENDBLK
  5
1D
100
AcDbEntity
  8
0
100
AcDbBlockEnd
  0
BLOCK
  5
213
100
AcDbEntity
  8
0
100
AcDbBlockBegin
 62
2
  6
CONTINUOUS
  2
SUN_FIRST_THIRD_ANGLE_BL0
 70
64
 10
20.4816717061
 20
1.2289683772
  3
SUN_FIRST_THIRD_ANGLE_BL0
  1

  0
TEXT
  5
214
100
AcDbEntity
  8
0
100
AcDbText
 62
2
  6
CONTINUOUS
 10
19.4750896608
 20
1.4136269581
  7
STANDARD
 40
0.08
  1
FIRST ANGLE
 41
0.8
 72
0
100
AcDbText
  0
TEXT
  5
215
100
AcDbEntity
  8
0
100
AcDbText
 62
2
  6
CONTINUOUS
 10
20.7842537513
 20
1.4047600029
  7
STANDARD
 40
0.08
  1
THIRD ANGLE
 41
0.8
 72
0
100
AcDbText
  0
LINE
  5
216
100
AcDbEntity
  8
0
100
AcDbLine
 62
7
  6
CONTINUOUS
 10
19.4767170086
 20
1.1727031207
 11
19.6334271527
 21
1.1717972817
  0
LINE
  5
217
100
AcDbEntity
  8
0
100
AcDbLine
 62
7
  6
CONTINUOUS
 10
19.6596964832
 20
1.1717972817
 11
19.6950230232
 21
1.171593082
  0
LINE
  5
218
100
AcDbEntity
  8
0
100
AcDbLine
 62
7
  6
CONTINUOUS
 10
19.7194818561
 20
1.1708914427
 11
19.8852396156
 21
1.1699333054
  0
LINE
  5
219
100
AcDbEntity
  8
0
100
AcDbLine
 62
7
  6
CONTINUOUS
 10
19.4758111696
 20
1.2723454088
 11
19.88525039
 21
1.3511534004
  0
LINE
  5
21A
100
AcDbEntity
  8
0
100
AcDbLine
 62
7
  6
CONTINUOUS
 10
19.88525039
 20
1.3511534004
 11
19.8831348489
 21
0.9851647912
  0
LINE
  5
21B
100
AcDbEntity
  8
0
100
AcDbLine
 62
7
  6
CONTINUOUS
 10
19.8831348489
 20
0.9851647912
 11
19.4767170086
 21
1.0658141206
  0
LINE
  5
21C
100
AcDbEntity
  8
0
100
AcDbLine
 62
7
  6
CONTINUOUS
 10
19.4767170086
 20
1.0658141206
 11
19.4779056764
 21
1.2714536432
  0
CIRCLE
  5
21D
100
AcDbEntity
  8
0
100
AcDbCircle
 62
7
  6
CONTINUOUS
 10
20.2068232291
 20
1.1717972817
 40
0.175742101
  0
CIRCLE
  5
21E
100
AcDbEntity
  8
0
100
AcDbCircle
 62
7
  6
CONTINUOUS
 10
20.2068232291
 20
1.1717972817
 40
0.1005522074
  0
LINE
  5
21F
100
AcDbEntity
  8
0
100
AcDbLine
 62
7
  6
CONTINUOUS
 10
20.2077290681
 20
1.3756110529
 11
20.2071171714
 21
1.2379342989
  0
LINE
  5
220
100
AcDbEntity
  8
0
100
AcDbLine
 62
7
  6
CONTINUOUS
 10
20.2077290681
 20
1.2016899681
 11
20.2074674401
 21
1.1428236749
  0
LINE
  5
221
100
AcDbEntity
  8
0
100
AcDbLine
 62
7
  6
CONTINUOUS
 10
20.208634907
 20
1.101141841
 11
20.2080230104
 21
0.963465087
  0
LINE
  5
222
100
AcDbEntity
  8
0
100
AcDbLine
 62
7
  6
CONTINUOUS
 10
20.0066328138
 20
1.1745147986
 11
20.1443095678
 21
1.1739029019
  0
LINE
  5
223
100
AcDbEntity
  8
0
100
AcDbLine
 62
7
  6
CONTINUOUS
 10
20.1832714155
 20
1.1727031207
 11
20.238153505
 21
1.172335442
  0
LINE
  5
224
100
AcDbEntity
  8
0
100
AcDbLine
 62
7
  6
CONTINUOUS
 10
20.2756669918
 20
1.1717972817
 11
20.407916871
 21
1.1712095044
  0
CIRCLE
  5
225
100
AcDbEntity
  8
0
100
AcDbCircle
 62
7
  6
CONTINUOUS
 10
20.7509457401
 20
1.1693297793
 40
0.1722024983
  0
CIRCLE
  5
226
100
AcDbEntity
  8
0
100
AcDbCircle
 62
7
  6
CONTINUOUS
 10
20.7509457401
 20
1.1693297793
 40
0.0985164967
  0
LINE
  5
227
100
AcDbEntity
  8
0
100
AcDbLine
 62
7
  6
CONTINUOUS
 10
20.7169767782
 20
1.170462078
 11
20.7825395137
 21
1.1682766535
  0
LINE
  5
228
100
AcDbEntity
  8
0
100
AcDbLine
 62
7
  6
CONTINUOUS
 10
20.8177513651
 20
1.1693297793
 11
20.947965719
 21
1.1693297793
  0
LINE
  5
229
100
AcDbEntity
  8
0
100
AcDbLine
 62
7
  6
CONTINUOUS
 10
20.6875370113
 20
1.170462078
 11
20.5573226574
 21
1.170462078
  0
LINE
  5
22A
100
AcDbEntity
  8
0
100
AcDbLine
 62
7
  6
CONTINUOUS
 10
20.7486811426
 20
1.1987695462
 11
20.7486811426
 21
1.1432869085
  0
LINE
  5
22B
100
AcDbEntity
  8
0
100
AcDbLine
 62
7
  6
CONTINUOUS
 10
20.7498134414
 20
1.1059210505
 11
20.7498134414
 21
0.9757066966
  0
LINE
  5
22C
100
AcDbEntity
  8
0
100
AcDbLine
 62
7
  6
CONTINUOUS
 10
20.7486811426
 20
1.2338708068
 11
20.7486811426
 21
1.3640851607
  0
LINE
  5
22D
100
AcDbEntity
  8
0
100
AcDbLine
 62
7
  6
CONTINUOUS
 10
21.0702539817
 20
1.2701043662
 11
21.4790138229
 21
1.3448360823
  0
LINE
  5
22E
100
AcDbEntity
  8
0
100
AcDbLine
 62
7
  6
CONTINUOUS
 10
21.4790138229
 20
1.3448360823
 11
21.4790138229
 21
0.9779712941
  0
LINE
  5
22F
100
AcDbEntity
  8
0
100
AcDbLine
 62
7
  6
CONTINUOUS
 10
21.4790138229
 20
0.9779712941
 11
21.069121683
 21
1.0617614
  0
LINE
  5
230
100
AcDbEntity
  8
0
100
AcDbLine
 62
7
  6
CONTINUOUS
 10
21.0702539817
 20
1.2701043662
 11
21.069121683
 21
1.0617614
  0
LINE
  5
231
100
AcDbEntity
  8
0
100
AcDbLine
 62
7
  6
CONTINUOUS
 10
21.4790138229
 20
1.1693297793
 11
21.3159628059
 21
1.1693297793
  0
LINE
  5
232
100
AcDbEntity
  8
0
100
AcDbLine
 62
7
  6
CONTINUOUS
 10
21.2876553377
 20
1.1693297793
 11
21.2502894796
 21
1.1693297793
  0
LINE
  5
233
100
AcDbEntity
  8
0
100
AcDbLine
 62
7
  6
CONTINUOUS
 10
21.2208497126
 20
1.1659328831
 11
21.0713862804
 21
1.1659328831
  0
LINE
  5
234
100
AcDbEntity
  8
0
100
AcDbLine
 62
7
  6
CONTINUOUS
 10
20.4796138713
 20
1.5284908897
 11
20.4766766948
 21
0.9294458646
  0
ENDBLK
  5
235
100
AcDbEntity
  8
0
  6
BYBLOCK
 62
0
100
AcDbBlockEnd
  0
BLOCK
  5
236
100
AcDbEntity
  8
0
100
AcDbBlockBegin
  2
*T1
 70
1
 10
0.0
 20
0.0
  3
*T1
  1

  0
LINE
  5
237
100
AcDbEntity
  8
0
100
AcDbLine
 62
2
  6
CONTINUOUS
 10
9.275
 20
0.0
 11
-0.0
 21
0.0
  0
LINE
  5
238
100
AcDbEntity
  8
0
100
AcDbLine
 62
2
  6
CONTINUOUS
 10
9.275
 20
0.0
 11
9.275
 21
1.25
  0
LINE
  5
239
100
AcDbEntity
  8
0
100
AcDbLine
 62
2
  6
CONTINUOUS
 10
9.275
 20
0.625
 11
-0.0
 21
0.625
  0
LINE
  5
23A
100
AcDbEntity
  8
0
100
AcDbLine
 62
2
  6
CONTINUOUS
 10
9.275
 20
1.25
 11
-0.0
 21
1.25
  0
LINE
  5
23B
100
AcDbEntity
  8
0
100
AcDbLine
 62
2
  6
CONTINUOUS
 10
6.8
 20
0.0
 11
6.8
 21
1.25
  0
LINE
  5
23C
100
AcDbEntity
  8
0
100
AcDbLine
 62
2
  6
CONTINUOUS
 10
6.4
 20
0.0
 11
6.4
 21
0.625
  0
LINE
  5
23D
100
AcDbEntity
  8
0
100
AcDbLine
 62
2
  6
CONTINUOUS
 10
5.9
 20
0.0
 11
5.9
 21
0.625
  0
LINE
  5
23E
100
AcDbEntity
  8
0
100
AcDbLine
 62
2
  6
CONTINUOUS
 10
5.2
 20
0.0
 11
5.2
 21
0.625
  0
LINE
  5
23F
100
AcDbEntity
  8
0
100
AcDbLine
 62
2
  6
CONTINUOUS
 10
4.1
 20
0.0
 11
4.1
 21
1.25
  0
LINE
  5
240
100
AcDbEntity
  8
0
100
AcDbLine
 62
2
  6
CONTINUOUS
 10
-0.0
 20
0.0
 11
-0.0
 21
1.25
  0
MTEXT
  5
241
100
AcDbEntity
  8
0
100
AcDbMText
 62
2
  6
CONTINUOUS
  7
STANDARD
 71
2
 72
1
 10
6.6
 20
0.325
 30
0.0
 11
1.0
 21
0.0
 31
0.0
 44
0.9
  1
2
 40
0.125
 41
0.2
  0
MTEXT
  5
242
100
AcDbEntity
  8
0
100
AcDbMText
 62
2
  6
CONTINUOUS
  7
STANDARD
 71
2
 72
1
 10
6.15
 20
0.325
 30
0.0
 11
1.0
 21
0.0
 31
0.0
 44
0.9
  1
C
 40
0.125
 41
0.2
  0
MTEXT
  5
243
100
AcDbEntity
  8
0
100
AcDbMText
 62
2
  6
CONTINUOUS
  7
STANDARD
 71
2
 72
1
 10
5.55
 20
0.325
 30
0.0
 11
1.0
 21
0.0
 31
0.0
 44
0.9
  1
1.000
 40
0.125
 41
1.0
  0
MTEXT
  5
244
100
AcDbEntity
  8
0
100
AcDbMText
 62
2
  6
CONTINUOUS
  7
STANDARD
 71
2
 72
1
 10
4.65
 20
0.325
 30
0.0
 11
1.0
 21
0.0
 31
0.0
 44
0.9
  1
Aug-27-19
 40
0.125
 41
1.8
  0
MTEXT
  5
245
100
AcDbEntity
  8
0
100
AcDbMText
 62
2
  6
CONTINUOUS
  7
STANDARD
 71
2
 72
1
 10
2.05
 20
0.4625
 30
0.0
 11
1.0
 21
0.0
 31
0.0
 44
0.9
  1
T-2A Line mount\P(See Technical Data for Body Features)
 40
0.125
 41
7.6
  0
MTEXT
  5
246
100
AcDbEntity
  8
0
100
AcDbMText
 62
2
  6
CONTINUOUS
  7
STANDARD
 71
1
 72
1
 10
6.45
 20
0.5625
 30
0.0
 11
1.0
 21
0.0
 31
0.0
 44
0.9
  1
SHEET
 40
0.06
 41
0.48
  0
MTEXT
  5
247
100
AcDbEntity
  8
0
100
AcDbMText
 62
2
  6
CONTINUOUS
  7
STANDARD
 71
1
 72
1
 10
5.95
 20
0.5625
 30
0.0
 11
1.0
 21
0.0
 31
0.0
 44
0.9
  1
DWG SIZE
 40
0.06
 41
0.768
  0
MTEXT
  5
248
100
AcDbEntity
  8
0
100
AcDbMText
 62
2
  6
CONTINUOUS
  7
STANDARD
 71
1
 72
1
 10
5.25
 20
0.5625
 30
0.0
 11
1.0
 21
0.0
 31
0.0
 44
0.9
  1
SCALE
 40
0.06
 41
0.48
  0
MTEXT
  5
249
100
AcDbEntity
  8
0
100
AcDbMText
 62
2
  6
CONTINUOUS
  7
STANDARD
 71
1
 72
1
 10
4.15
 20
0.5625
 30
0.0
 11
1.0
 21
0.0
 31
0.0
 44
0.9
  1
DATE
 40
0.06
 41
0.384
  0
MTEXT
  5
24A
100
AcDbEntity
  8
0
100
AcDbMText
 62
2
  6
CONTINUOUS
  7
STANDARD
 71
1
 72
1
 10
0.05
 20
0.5625
 30
0.0
 11
1.0
 21
0.0
 31
0.0
 44
0.9
  1
DESCRIPTION
 40
0.06
 41
1.056
  0
MTEXT
  5
24B
100
AcDbEntity
  8
0
100
AcDbMText
 62
2
  6
CONTINUOUS
  7
STANDARD
 71
2
 72
1
 10
5.45
 20
1.0375
 30
0.0
 11
1.0
 21
0.0
 31
0.0
 44
0.9
  1
ALL DIMENSIONS IN INCH\PVIEWS ARE THIRD ANGLE
 40
0.12
 41
4.224
  0
MTEXT
  5
24C
100
AcDbEntity
  8
0
100
AcDbMText
 62
2
  6
CONTINUOUS
  7
STANDARD
 71
2
 72
1
 10
2.05
 20
0.95
 30
0.0
 11
1.0
 21
0.0
 31
0.0
 44
0.9
  1
B2W
 40
0.125
 41
0.6
  0
MTEXT
  5
24D
100
AcDbEntity
  8
0
100
AcDbMText
 62
2
  6
CONTINUOUS
  7
STANDARD
 71
1
 72
1
 10
0.05
 20
1.1875
 30
0.0
 11
1.0
 21
0.0
 31
0.0
 44
0.9
  1
MODEL
 40
0.06
 41
0.48
  0
ENDBLK
  5
24E
100
AcDbEntity
  8
0
  6
BYBLOCK
 62
0
100
AcDbBlockEnd
  0
BLOCK
  5
24F
100
AcDbEntity
  8
0
100
AcDbBlockBegin
  2
*T2
 70
1
 10
0.0
 20
0.0
  3
*T2
  1

  0
LINE
  5
250
100
AcDbEntity
  8
0
100
AcDbLine
 62
2
  6
CONTINUOUS
 10
0.0
 20
0.0
 11
9.055
 21
0.0
  0
LINE
  5
251
100
AcDbEntity
  8
0
100
AcDbLine
 62
2
  6
CONTINUOUS
 10
0.0
 20
0.0
 11
0.0
 21
-2.594
  0
LINE
  5
252
100
AcDbEntity
  8
0
100
AcDbLine
 62
2
  6
CONTINUOUS
 10
0.0
 20
-0.344
 11
9.055
 21
-0.344
  0
LINE
  5
253
100
AcDbEntity
  8
0
100
AcDbLine
 62
2
  6
CONTINUOUS
 10
0.0
 20
-0.594
 11
9.055
 21
-0.594
  0
LINE
  5
254
100
AcDbEntity
  8
0
100
AcDbLine
 62
2
  6
CONTINUOUS
 10
0.0
 20
-0.844
 11
9.055
 21
-0.844
  0
LINE
  5
255
100
AcDbEntity
  8
0
100
AcDbLine
 62
2
  6
CONTINUOUS
 10
0.0
 20
-1.094
 11
9.055
 21
-1.094
  0
LINE
  5
256
100
AcDbEntity
  8
0
100
AcDbLine
 62
2
  6
CONTINUOUS
 10
0.0
 20
-1.344
 11
9.055
 21
-1.344
  0
LINE
  5
257
100
AcDbEntity
  8
0
100
AcDbLine
 62
2
  6
CONTINUOUS
 10
0.0
 20
-1.594
 11
9.055
 21
-1.594
  0
LINE
  5
258
100
AcDbEntity
  8
0
100
AcDbLine
 62
2
  6
CONTINUOUS
 10
0.0
 20
-1.844
 11
9.055
 21
-1.844
  0
LINE
  5
259
100
AcDbEntity
  8
0
100
AcDbLine
 62
2
  6
CONTINUOUS
 10
0.0
 20
-2.094
 11
9.055
 21
-2.094
  0
LINE
  5
25A
100
AcDbEntity
  8
0
100
AcDbLine
 62
2
  6
CONTINUOUS
 10
0.0
 20
-2.344
 11
9.055
 21
-2.344
  0
LINE
  5
25B
100
AcDbEntity
  8
0
100
AcDbLine
 62
2
  6
CONTINUOUS
 10
0.0
 20
-2.594
 11
9.055
 21
-2.594
  0
LINE
  5
25C
100
AcDbEntity
  8
0
100
AcDbLine
 62
2
  6
CONTINUOUS
 10
3.055
 20
0.0
 11
3.055
 21
-2.594
  0
LINE
  5
25D
100
AcDbEntity
  8
0
100
AcDbLine
 62
2
  6
CONTINUOUS
 10
9.055
 20
0.0
 11
9.055
 21
-2.594
  0
MTEXT
  5
25E
100
AcDbEntity
  8
0
100
AcDbMText
 62
2
  6
CONTINUOUS
  7
STANDARD
 71
2
 72
1
 10
1.5275
 20
-0.0995
 30
0.0
 11
1.0
 21
0.0
 31
0.0
 44
0.9
  1
Technical Data
 40
0.145
 41
3.248
  0
MTEXT
  5
25F
100
AcDbEntity
  8
0
100
AcDbMText
 62
2
  6
CONTINUOUS
  7
STANDARD
 71
2
 72
1
 10
4.555
 20
-0.0995
 30
0.0
 11
1.0
 21
0.0
 31
0.0
 44
0.9
  1
U.S. Units
 40
0.145
 41
2.32
  0
MTEXT
  5
260
100
AcDbEntity
  8
0
100
AcDbMText
 62
2
  6
CONTINUOUS
  7
STANDARD
 71
2
 72
1
 10
7.555
 20
-0.0995
 30
0.0
 11
1.0
 21
0.0
 31
0.0
 44
0.9
  1
Metric Units
 40
0.145
 41
2.784
  0
MTEXT
  5
261
100
AcDbEntity
  8
0
100
AcDbMText
 62
2
  6
CONTINUOUS
  7
STANDARD
 71
2
 72
1
 10
1.5275
 20
-0.4065
 30
0.0
 11
1.0
 21
0.0
 31
0.0
 44
0.9
  1
Cavity
 40
0.125
 41
1.2
  0
MTEXT
  5
262
100
AcDbEntity
  8
0
100
AcDbMText
 62
2
  6
CONTINUOUS
  7
STANDARD
 71
2
 72
1
 10
6.055
 20
-0.4065
 30
0.0
 11
1.0
 21
0.0
 31
0.0
 44
0.9
  1
T-2A
 40
0.125
 41
0.8
  0
MTEXT
  5
263
100
AcDbEntity
  8
0
100
AcDbMText
 62
2
  6
CONTINUOUS
  7
STANDARD
 71
2
 72
1
 10
1.5275
 20
-0.6565
 30
0.0
 11
1.0
 21
0.0
 31
0.0
 44
0.9
  1
Body Features
 40
0.125
 41
2.6
  0
MTEXT
  5
264
100
AcDbEntity
  8
0
100
AcDbMText
 62
2
  6
CONTINUOUS
  7
STANDARD
 71
2
 72
1
 10
6.055
 20
-0.6565
 30
0.0
 11
1.0
 21
0.0
 31
0.0
 44
0.9
  1
Ninety degree with reverse flow check - reducing
 40
0.125
 41
9.6
  0
MTEXT
  5
265
100
AcDbEntity
  8
0
100
AcDbMText
 62
2
  6
CONTINUOUS
  7
STANDARD
 71
2
 72
1
 10
1.5275
 20
-0.9065
 30
0.0
 11
1.0
 21
0.0
 31
0.0
 44
0.9
  1
Body Type
 40
0.125
 41
1.8
  0
MTEXT
  5
266
100
AcDbEntity
  8
0
100
AcDbMText
 62
2
  6
CONTINUOUS
  7
STANDARD
 71
2
 72
1
 10
6.055
 20
-0.9065
 30
0.0
 11
1.0
 21
0.0
 31
0.0
 44
0.9
  1
Line mount
 40
0.125
 41
2.0
  0
MTEXT
  5
267
100
AcDbEntity
  8
0
100
AcDbMText
 62
2
  6
CONTINUOUS
  7
STANDARD
 71
2
 72
1
 10
1.5275
 20
-1.1565
 30
0.0
 11
1.0
 21
0.0
 31
0.0
 44
0.9
  1
Interface
 40
0.125
 41
1.8
  0
MTEXT
  5
268
100
AcDbEntity
  8
0
100
AcDbMText
 62
2
  6
CONTINUOUS
  7
STANDARD
 71
2
 72
1
 10
6.055
 20
-1.1565
 30
0.0
 11
1.0
 21
0.0
 31
0.0
 44
0.9
  1
None
 40
0.125
 41
0.8
  0
MTEXT
  5
269
100
AcDbEntity
  8
0
100
AcDbMText
 62
2
  6
CONTINUOUS
  7
STANDARD
 71
2
 72
1
 10
1.5275
 20
-1.4065
 30
0.0
 11
1.0
 21
0.0
 31
0.0
 44
0.9
  1
Open Cavity Quantity
 40
0.125
 41
4.0
  0
MTEXT
  5
26A
100
AcDbEntity
  8
0
100
AcDbMText
 62
2
  6
CONTINUOUS
  7
STANDARD
 71
2
 72
1
 10
6.055
 20
-1.4065
 30
0.0
 11
1.0
 21
0.0
 31
0.0
 44
0.9
  1
1
 40
0.125
 41
0.2
  0
MTEXT
  5
26B
100
AcDbEntity
  8
0
100
AcDbMText
 62
2
  6
CONTINUOUS
  7
STANDARD
 71
2
 72
1
 10
1.5275
 20
-1.6565
 30
0.0
 11
1.0
 21
0.0
 31
0.0
 44
0.9
  1
Weight
 40
0.125
 41
1.2
  0
MTEXT
  5
26C
100
AcDbEntity
  8
0
100
AcDbMText
 62
2
  6
CONTINUOUS
  7
STANDARD
 71
2
 72
1
 10
4.555
 20
-1.6565
 30
0.0
 11
1.0
 21
0.0
 31
0.0
 44
0.9
  1
1.902 lb.
 40
0.125
 41
1.8
  0
MTEXT
  5
26D
100
AcDbEntity
  8
0
100
AcDbMText
 62
2
  6
CONTINUOUS
  7
STANDARD
 71
2
 72
1
 10
7.555
 20
-1.6565
 30
0.0
 11
1.0
 21
0.0
 31
0.0
 44
0.9
  1
0,863 kg.
 40
0.125
 41
1.8
  0
MTEXT
  5
26E
100
AcDbEntity
  8
0
100
AcDbMText
 62
2
  6
CONTINUOUS
  7
STANDARD
 71
2
 72
1
 10
1.5275
 20
-1.9065
 30
0.0
 11
1.0
 21
0.0
 31
0.0
 44
0.9
  1
Mounting Hole Diameter
 40
0.125
 41
4.4
  0
MTEXT
  5
26F
100
AcDbEntity
  8
0
100
AcDbMText
 62
2
  6
CONTINUOUS
  7
STANDARD
 71
2
 72
1
 10
4.555
 20
-1.9065
 30
0.0
 11
1.0
 21
0.0
 31
0.0
 44
0.9
  1
.42 in.
 40
0.125
 41
1.4
  0
MTEXT
  5
270
100
AcDbEntity
  8
0
100
AcDbMText
 62
2
  6
CONTINUOUS
  7
STANDARD
 71
2
 72
1
 10
7.555
 20
-1.9065
 30
0.0
 11
1.0
 21
0.0
 31
0.0
 44
0.9
  1
10,7 mm
 40
0.125
 41
1.4
  0
MTEXT
  5
271
100
AcDbEntity
  8
0
100
AcDbMText
 62
2
  6
CONTINUOUS
  7
STANDARD
 71
2
 72
1
 10
1.5275
 20
-2.1565
 30
0.0
 11
1.0
 21
0.0
 31
0.0
 44
0.9
  1
Mounting Hole Depth
 40
0.125
 41
3.8
  0
MTEXT
  5
272
100
AcDbEntity
  8
0
100
AcDbMText
 62
2
  6
CONTINUOUS
  7
STANDARD
 71
2
 72
1
 10
6.055
 20
-2.1565
 30
0.0
 11
1.0
 21
0.0
 31
0.0
 44
0.9
  1
Through
 40
0.125
 41
1.4
  0
MTEXT
  5
273
100
AcDbEntity
  8
0
100
AcDbMText
 62
2
  6
CONTINUOUS
  7
STANDARD
 71
2
 72
1
 10
1.5275
 20
-2.4065
 30
0.0
 11
1.0
 21
0.0
 31
0.0
 44
0.9
  1
Mounting Hole Quantity
 40
0.125
 41
4.4
  0
MTEXT
  5
274
100
AcDbEntity
  8
0
100
AcDbMText
 62
2
  6
CONTINUOUS
  7
STANDARD
 71
2
 72
1
 10
6.055
 20
-2.4065
 30
0.0
 11
1.0
 21
0.0
 31
0.0
 44
0.9
  1
2
 40
0.125
 41
0.2
  0
ENDBLK
  5
275
100
AcDbEntity
  8
0
  6
BYBLOCK
 62
0
100
AcDbBlockEnd
  0
BLOCK
  5
276
100
AcDbEntity
  8
0
100
AcDbBlockBegin
  2
*T3
 70
1
 10
0.0
 20
0.0
  3
*T3
  1

  0
LINE
  5
277
100
AcDbEntity
  8
0
100
AcDbLine
 62
2
  6
CONTINUOUS
 10
0.0
 20
0.0
 11
4.6
 21
0.0
  0
LINE
  5
278
100
AcDbEntity
  8
0
100
AcDbLine
 62
2
  6
CONTINUOUS
 10
0.0
 20
0.0
 11
0.0
 21
-1.43775
  0
LINE
  5
279
100
AcDbEntity
  8
0
100
AcDbLine
 62
2
  6
CONTINUOUS
 10
0.0
 20
-0.34375
 11
4.6
 21
-0.34375
  0
LINE
  5
27A
100
AcDbEntity
  8
0
100
AcDbLine
 62
2
  6
CONTINUOUS
 10
0.0
 20
-0.68775
 11
4.6
 21
-0.68775
  0
LINE
  5
27B
100
AcDbEntity
  8
0
100
AcDbLine
 62
2
  6
CONTINUOUS
 10
0.0
 20
-0.93775
 11
4.6
 21
-0.93775
  0
LINE
  5
27C
100
AcDbEntity
  8
0
100
AcDbLine
 62
2
  6
CONTINUOUS
 10
0.0
 20
-1.18775
 11
4.6
 21
-1.18775
  0
LINE
  5
27D
100
AcDbEntity
  8
0
100
AcDbLine
 62
2
  6
CONTINUOUS
 10
0.0
 20
-1.43775
 11
4.6
 21
-1.43775
  0
LINE
  5
27E
100
AcDbEntity
  8
0
100
AcDbLine
 62
2
  6
CONTINUOUS
 10
1.3
 20
-0.34375
 11
1.3
 21
-1.43775
  0
LINE
  5
27F
100
AcDbEntity
  8
0
100
AcDbLine
 62
2
  6
CONTINUOUS
 10
3.3
 20
-0.34375
 11
3.3
 21
-1.43775
  0
LINE
  5
280
100
AcDbEntity
  8
0
100
AcDbLine
 62
2
  6
CONTINUOUS
 10
4.6
 20
0.0
 11
4.6
 21
-1.43775
  0
MTEXT
  5
281
100
AcDbEntity
  8
0
100
AcDbMText
 62
2
  6
CONTINUOUS
  7
STANDARD
 71
2
 72
1
 10
2.3
 20
-0.099375
 30
0.0
 11
1.0
 21
0.0
 31
0.0
 44
0.9
  1
Port Headings
 40
0.145
 41
3.016
  0
MTEXT
  5
282
100
AcDbEntity
  8
0
100
AcDbMText
 62
2
  6
CONTINUOUS
  7
STANDARD
 71
2
 72
1
 10
0.65
 20
-0.44325
 30
0.0
 11
1.0
 21
0.0
 31
0.0
 44
0.9
  1
Product
 40
0.145
 41
1.624
  0
MTEXT
  5
283
100
AcDbEntity
  8
0
100
AcDbMText
 62
2
  6
CONTINUOUS
  7
STANDARD
 71
2
 72
1
 10
2.3
 20
-0.44325
 30
0.0
 11
1.0
 21
0.0
 31
0.0
 44
0.9
  1
Port
 40
0.145
 41
0.928
  0
MTEXT
  5
284
100
AcDbEntity
  8
0
100
AcDbMText
 62
2
  6
CONTINUOUS
  7
STANDARD
 71
2
 72
1
 10
3.95
 20
-0.44325
 30
0.0
 11
1.0
 21
0.0
 31
0.0
 44
0.9
  1
Size
 40
0.145
 41
0.928
  0
MTEXT
  5
285
100
AcDbEntity
  8
0
100
AcDbMText
 62
2
  6
CONTINUOUS
  7
STANDARD
 71
2
 72
1
 10
0.65
 20
-0.75025
 30
0.0
 11
1.0
 21
0.0
 31
0.0
 44
0.9
  1
B2W
 40
0.125
 41
0.6
  0
MTEXT
  5
286
100
AcDbEntity
  8
0
100
AcDbMText
 62
2
  6
CONTINUOUS
  7
STANDARD
 71
2
 72
1
 10
2.3
 20
-0.75025
 30
0.0
 11
1.0
 21
0.0
 31
0.0
 44
0.9
  1
Ports 1 &  2
 40
0.125
 41
2.4
  0
MTEXT
  5
287
100
AcDbEntity
  8
0
100
AcDbMText
 62
2
  6
CONTINUOUS
  7
STANDARD
 71
2
 72
1
 10
3.95
 20
-0.75025
 30
0.0
 11
1.0
 21
0.0
 31
0.0
 44
0.9
  1
3/4" BSPP
 40
0.125
 41
1.8
  0
MTEXT
  5
288
100
AcDbEntity
  8
0
100
AcDbMText
 62
2
  6
CONTINUOUS
  7
STANDARD
 71
2
 72
1
 10
0.65
 20
-1.00025
 30
0.0
 11
1.0
 21
0.0
 31
0.0
 44
0.9
  1
B2W
 40
0.125
 41
0.6
  0
MTEXT
  5
289
100
AcDbEntity
  8
0
100
AcDbMText
 62
2
  6
CONTINUOUS
  7
STANDARD
 71
2
 72
1
 10
2.3
 20
-1.00025
 30
0.0
 11
1.0
 21
0.0
 31
0.0
 44
0.9
  1
Port 3
 40
0.125
 41
1.2
  0
MTEXT
  5
28A
100
AcDbEntity
  8
0
100
AcDbMText
 62
2
  6
CONTINUOUS
  7
STANDARD
 71
2
 72
1
 10
3.95
 20
-1.00025
 30
0.0
 11
1.0
 21
0.0
 31
0.0
 44
0.9
  1
1/4" BSPP
 40
0.125
 41
1.8
  0
MTEXT
  5
28B
100
AcDbEntity
  8
0
100
AcDbMText
 62
2
  6
CONTINUOUS
  7
STANDARD
 71
2
 72
1
 10
0.65
 20
-1.25025
 30
0.0
 11
1.0
 21
0.0
 31
0.0
 44
0.9
  1
B2W
 40
0.125
 41
0.6
  0
MTEXT
  5
28C
100
AcDbEntity
  8
0
100
AcDbMText
 62
2
  6
CONTINUOUS
  7
STANDARD
 71
2
 72
1
 10
2.3
 20
-1.25025
 30
0.0
 11
1.0
 21
0.0
 31
0.0
 44
0.9
  1
Gage Port
 40
0.125
 41
1.8
  0
MTEXT
  5
28D
100
AcDbEntity
  8
0
100
AcDbMText
 62
2
  6
CONTINUOUS
  7
STANDARD
 71
2
 72
1
 10
3.95
 20
-1.25025
 30
0.0
 11
1.0
 21
0.0
 31
0.0
 44
0.9
  1
1/4" BSPP
 40
0.125
 41
1.8
  0
ENDBLK
  5
28E
100
AcDbEntity
  8
0
  6
BYBLOCK
 62
0
100
AcDbBlockEnd
  0
ENDSEC
  0
SECTION
  2
ENTITIES
  0
IMAGE
  5
28F
100
AcDbEntity
  8
0
100
AcDbRasterImage
 62
7
  6
CONTINUOUS
 10
19.2297077316
 20
0.3094318264
 30
0.0
 11
0.0066666667
 21
0.0
 31
0.0
 12
0.0
 22
0.0066666667
 32
0.0
 13
369.0
 23
92.0
340
       3A1
 70
9
280
0
281
50
282
50
283
0
360
       39B
 71
1
 91
2
 14
-0.5
 24
-0.5
 14
368.5
 24
91.5
  0
INSERT
  5
290
100
AcDbEntity
  8
0
100
AcDbBlockReference
 62
2
  6
CONTINUOUS
  2
SUN_FIRST_THIRD_ANGLE_BL0
 10
20.4816717061
 20
1.2289683772
  0
ACAD_TABLE
  5
291
100
AcDbEntity
  8
0
 62
2
  6
CONTINUOUS
100
AcDbBlockReference
  2
*T1
 10
12.42375
 20
0.30125
 30
0.0
100
AcDbTable
342
       3A3
343
20F
 11
1.0
 21
0.0
 31
0.0
 90
6
 91
4
 92
6
 93
20
 94
0
 95
0
 96
0
 70
1
 41
0.0
141
0.525
141
0.1
141
0.525
141
0.1
142
4.1
142
1.1
142
0.7
142
0.5
142
0.4
142
2.475
171
1
172
0
173
0
174
0
175
1
176
1
 91
33
178
0
145
0.0
301
CELL_VALUE
 90
4
  1
T-2A Line mount\P(See Technical Data for Body Features)
304
ACVALUE_END
170
2
140
0.125
171
1
172
0
173
0
174
0
175
1
176
1
 91
33
178
0
145
0.0
301
CELL_VALUE
 90
4
  1
Aug-27-19
304
ACVALUE_END
170
5
140
0.125
171
1
172
0
173
0
174
0
175
1
176
1
 91
33
178
0
145
0.0
301
CELL_VALUE
 90
4
  1
1.000
304
ACVALUE_END
170
5
140
0.125
171
1
172
0
173
0
174
0
175
1
176
1
 91
33
178
0
145
0.0
301
CELL_VALUE
 90
4
  1
C
304
ACVALUE_END
170
5
140
0.125
171
1
172
0
173
0
174
0
175
1
176
1
 91
33
178
0
145
0.0
301
CELL_VALUE
 90
4
  1
2
304
ACVALUE_END
170
5
140
0.125
171
1
172
0
173
0
174
0
175
1
176
1
 91
33
178
0
145
0.0
301
CELL_VALUE
 90
4
  1
 
304
ACVALUE_END
170
1
140
0.125
171
1
172
0
173
0
174
0
175
1
176
1
 91
33
178
0
145
0.0
301
CELL_VALUE
 90
4
  1
DESCRIPTION
304
ACVALUE_END
170
1
140
0.06
171
1
172
0
173
0
174
0
175
1
176
1
 91
33
178
0
145
0.0
301
CELL_VALUE
 90
4
  1
DATE
304
ACVALUE_END
170
1
140
0.06
171
1
172
0
173
0
174
0
175
1
176
1
 91
33
178
0
145
0.0
301
CELL_VALUE
 90
4
  1
SCALE
304
ACVALUE_END
170
1
140
0.06
171
1
172
0
173
0
174
0
175
1
176
1
 91
33
178
0
145
0.0
301
CELL_VALUE
 90
4
  1
DWG SIZE
304
ACVALUE_END
170
1
140
0.06
171
1
172
0
173
0
174
0
175
1
176
1
 91
33
178
0
145
0.0
301
CELL_VALUE
 90
4
  1
SHEET
304
ACVALUE_END
170
1
140
0.06
171
1
172
0
173
0
174
0
175
1
176
1
 91
33
178
0
145
0.0
301
CELL_VALUE
 90
4
  1
 
304
ACVALUE_END
170
1
140
0.125
171
1
172
0
173
0
174
0
175
1
176
1
 91
33
178
0
145
0.0
301
CELL_VALUE
 90
4
  1
B2W
304
ACVALUE_END
170
5
140
0.125
171
1
172
0
173
0
174
0
175
4
176
1
 91
33
178
0
145
0.0
301
CELL_VALUE
 90
4
  1
ALL DIMENSIONS IN INCH\PVIEWS ARE THIRD ANGLE
304
ACVALUE_END
170
5
140
0.12
171
1
172
0
173
1
174
0
175
1
176
1
 91
1
178
0
145
0.0
170
1
171
1
172
0
173
1
174
0
175
1
176
1
 91
1
178
0
145
0.0
170
1
171
1
172
0
173
1
174
0
175
1
176
1
 91
1
178
0
145
0.0
170
5
171
1
172
0
173
0
174
0
175
1
176
1
 91
33
178
0
145
0.0
301
CELL_VALUE
 90
4
  1
 
304
ACVALUE_END
170
1
140
0.125
171
1
172
0
173
0
174
0
175
1
176
1
 91
33
178
0
145
0.0
301
CELL_VALUE
 90
4
  1
MODEL
304
ACVALUE_END
170
1
140
0.06
171
1
172
0
173
0
174
0
175
1
176
1
 91
33
178
0
145
0.0
301
CELL_VALUE
 90
4
  1
 
304
ACVALUE_END
170
1
140
0.125
171
1
172
0
173
0
174
0
175
1
176
1
 91
33
178
0
145
0.0
301
CELL_VALUE
 90
4
  1
 
304
ACVALUE_END
170
1
140
0.125
171
1
172
0
173
0
174
0
175
1
176
1
 91
33
178
0
145
0.0
301
CELL_VALUE
 90
4
  1
 
304
ACVALUE_END
170
1
140
0.125
171
1
172
0
173
0
174
0
175
1
176
1
 91
33
178
0
145
0.0
301
CELL_VALUE
 90
4
  1
 
304
ACVALUE_END
170
1
140
0.125
171
1
172
0
173
0
174
0
175
1
176
1
 91
33
178
0
145
0.0
301
CELL_VALUE
 90
4
  1
 
304
ACVALUE_END
170
1
140
0.125
  0
ACAD_TABLE
  5
292
100
AcDbEntity
  8
0
 62
2
  6
CONTINUOUS
100
AcDbBlockReference
  2
*T2
 10
12.4237499994
 20
16.47875
 30
0.0
100
AcDbTable
342
       3A2
343
210
 11
1.0
 21
0.0
 31
0.0
 90
22
 91
10
 92
3
 93
16
 94
0
 95
0
 96
0
 41
0.028
141
0.344
141
0.25
141
0.25
141
0.25
141
0.25
141
0.25
141
0.25
141
0.25
141
0.25
141
0.25
142
3.055
142
3.0
142
3.0
171
1
172
0
173
0
174
0
175
1
176
1
 91
33
178
0
145
0.0
301
CELL_VALUE
 90
4
  1
Technical Data
304
ACVALUE_END
170
5
140
0.145
171
1
172
0
173
0
174
0
175
1
176
1
 91
33
178
0
145
0.0
301
CELL_VALUE
 90
4
  1
U.S. Units
304
ACVALUE_END
170
5
140
0.145
171
1
172
0
173
0
174
0
175
1
176
1
 91
33
178
0
145
0.0
301
CELL_VALUE
 90
4
  1
Metric Units
304
ACVALUE_END
170
5
140
0.145
171
1
172
0
173
0
174
0
175
1
176
1
 91
33
178
0
145
0.0
301
CELL_VALUE
 90
4
  1
Cavity
304
ACVALUE_END
170
5
140
0.125
171
1
172
0
173
0
174
0
175
2
176
1
 91
33
178
0
145
0.0
301
CELL_VALUE
 90
4
  1
T-2A
304
ACVALUE_END
170
5
140
0.125
171
1
172
0
173
1
174
0
175
1
176
1
 91
1
178
0
145
0.0
170
1
171
1
172
0
173
0
174
0
175
1
176
1
 91
33
178
0
145
0.0
301
CELL_VALUE
 90
4
  1
Body Features
304
ACVALUE_END
170
5
140
0.125
171
1
172
0
173
0
174
0
175
2
176
1
 91
33
178
0
145
0.0
301
CELL_VALUE
 90
4
  1
Ninety degree with reverse flow check - reducing
304
ACVALUE_END
170
5
140
0.125
171
1
172
0
173
1
174
0
175
1
176
1
 91
1
178
0
145
0.0
170
1
171
1
172
0
173
0
174
0
175
1
176
1
 91
33
178
0
145
0.0
301
CELL_VALUE
 90
4
  1
Body Type
304
ACVALUE_END
170
5
140
0.125
171
1
172
0
173
0
174
0
175
2
176
1
 91
33
178
0
145
0.0
301
CELL_VALUE
 90
4
  1
Line mount
304
ACVALUE_END
170
5
140
0.125
171
1
172
0
173
1
174
0
175
1
176
1
 91
1
178
0
145
0.0
170
1
171
1
172
0
173
0
174
0
175
1
176
1
 91
33
178
0
145
0.0
301
CELL_VALUE
 90
4
  1
Interface
304
ACVALUE_END
170
5
140
0.125
171
1
172
0
173
0
174
0
175
2
176
1
 91
33
178
0
145
0.0
301
CELL_VALUE
 90
4
  1
None
304
ACVALUE_END
170
5
140
0.125
171
1
172
0
173
1
174
0
175
1
176
1
 91
1
178
0
145
0.0
170
1
171
1
172
0
173
0
174
0
175
1
176
1
 91
33
178
0
145
0.0
301
CELL_VALUE
 90
4
  1
Open Cavity Quantity
304
ACVALUE_END
170
5
140
0.125
171
1
172
0
173
0
174
0
175
2
176
1
 91
33
178
0
145
0.0
301
CELL_VALUE
 90
4
  1
1
304
ACVALUE_END
170
5
140
0.125
171
1
172
0
173
1
174
0
175
1
176
1
 91
1
178
0
145
0.0
170
1
171
1
172
0
173
0
174
0
175
1
176
1
 91
33
178
0
145
0.0
301
CELL_VALUE
 90
4
  1
Weight
304
ACVALUE_END
170
5
140
0.125
171
1
172
0
173
0
174
0
175
1
176
1
 91
33
178
0
145
0.0
301
CELL_VALUE
 90
4
  1
1.902 lb.
304
ACVALUE_END
170
5
140
0.125
171
1
172
0
173
0
174
0
175
1
176
1
 91
33
178
0
145
0.0
301
CELL_VALUE
 90
4
  1
0,863 kg.
304
ACVALUE_END
170
5
140
0.125
171
1
172
0
173
0
174
0
175
1
176
1
 91
33
178
0
145
0.0
301
CELL_VALUE
 90
4
  1
Mounting Hole Diameter
304
ACVALUE_END
170
5
140
0.125
171
1
172
0
173
0
174
0
175
1
176
1
 91
33
178
0
145
0.0
301
CELL_VALUE
 90
4
  1
.42 in.
304
ACVALUE_END
170
5
140
0.125
171
1
172
0
173
0
174
0
175
1
176
1
 91
33
178
0
145
0.0
301
CELL_VALUE
 90
4
  1
10,7 mm
304
ACVALUE_END
170
5
140
0.125
171
1
172
0
173
0
174
0
175
1
176
1
 91
33
178
0
145
0.0
301
CELL_VALUE
 90
4
  1
Mounting Hole Depth
304
ACVALUE_END
170
5
140
0.125
171
1
172
0
173
0
174
0
175
2
176
1
 91
33
178
0
145
0.0
301
CELL_VALUE
 90
4
  1
Through
304
ACVALUE_END
170
5
140
0.125
171
1
172
0
173
1
174
0
175
1
176
1
 91
1
178
0
145
0.0
170
1
171
1
172
0
173
0
174
0
175
1
176
1
 91
33
178
0
145
0.0
301
CELL_VALUE
 90
4
  1
Mounting Hole Quantity
304
ACVALUE_END
170
5
140
0.125
171
1
172
0
173
0
174
0
175
2
176
1
 91
33
178
0
145
0.0
301
CELL_VALUE
 90
4
  1
2
304
ACVALUE_END
170
5
140
0.125
171
1
172
0
173
1
174
0
175
1
176
1
 91
1
178
0
145
0.0
170
1
  0
ACAD_TABLE
  5
293
100
AcDbEntity
  8
0
 62
2
  6
CONTINUOUS
100
AcDbBlockReference
  2
*T3
 10
0.52125
 20
1.959
 30
0.0
100
AcDbTable
342
       3A2
343
211
 11
1.0
 21
0.0
 31
0.0
 90
22
 91
5
 92
3
 93
16
 94
0
 95
0
 96
0
 41
0.05
141
0.34375
141
0.344
141
0.25
141
0.25
141
0.25
142
1.3
142
2.0
142
1.3
171
1
172
0
173
0
174
0
175
3
176
1
 91
33
178
0
145
0.0
301
CELL_VALUE
 90
4
  1
Port Headings
304
ACVALUE_END
170
5
140
0.145
171
1
172
0
173
1
174
0
175
1
176
1
 91
1
178
0
145
0.0
170
1
171
1
172
0
173
1
174
0
175
1
176
1
 91
1
178
0
145
0.0
170
1
171
1
172
0
173
0
174
0
175
1
176
1
 91
33
178
0
145
0.0
301
CELL_VALUE
 90
4
  1
Product
304
ACVALUE_END
170
5
140
0.145
171
1
172
0
173
0
174
0
175
1
176
1
 91
33
178
0
145
0.0
301
CELL_VALUE
 90
4
  1
Port
304
ACVALUE_END
170
5
140
0.145
171
1
172
0
173
0
174
0
175
1
176
1
 91
33
178
0
145
0.0
301
CELL_VALUE
 90
4
  1
Size
304
ACVALUE_END
170
5
140
0.145
171
1
172
0
173
0
174
0
175
1
176
1
 91
33
178
0
145
0.0
301
CELL_VALUE
 90
4
  1
B2W
304
ACVALUE_END
170
5
140
0.125
171
1
172
0
173
0
174
0
175
1
176
1
 91
33
178
0
145
0.0
301
CELL_VALUE
 90
4
  1
Ports 1 &  2
304
ACVALUE_END
170
5
140
0.125
171
1
172
0
173
0
174
0
175
1
176
1
 91
33
178
0
145
0.0
301
CELL_VALUE
 90
4
  1
3/4" BSPP
304
ACVALUE_END
170
5
140
0.125
171
1
172
0
173
0
174
0
175
1
176
1
 91
33
178
0
145
0.0
301
CELL_VALUE
 90
4
  1
B2W
304
ACVALUE_END
170
5
140
0.125
171
1
172
0
173
0
174
0
175
1
176
1
 91
33
178
0
145
0.0
301
CELL_VALUE
 90
4
  1
Port 3
304
ACVALUE_END
170
5
140
0.125
171
1
172
0
173
0
174
0
175
1
176
1
 91
33
178
0
145
0.0
301
CELL_VALUE
 90
4
  1
1/4" BSPP
304
ACVALUE_END
170
5
140
0.125
171
1
172
0
173
0
174
0
175
1
176
1
 91
33
178
0
145
0.0
301
CELL_VALUE
 90
4
  1
B2W
304
ACVALUE_END
170
5
140
0.125
171
1
172
0
173
0
174
0
175
1
176
1
 91
33
178
0
145
0.0
301
CELL_VALUE
 90
4
  1
Gage Port
304
ACVALUE_END
170
5
140
0.125
171
1
172
0
173
0
174
0
175
1
176
1
 91
33
178
0
145
0.0
301
CELL_VALUE
 90
4
  1
1/4" BSPP
304
ACVALUE_END
170
5
140
0.125
  0
MTEXT
  5
294
100
AcDbEntity
  8
0
100
AcDbMText
 62
2
  6
CONTINUOUS
  7
STANDARD
 71
1
 72
1
 10
0.52125
 20
5.75995
 30
0.0
 11
1.0
 21
0.0
 31
0.0
 44
0.6
  3
Notes\P \P1. Important: Carefully consider\P   the maximum system pressure. The\P   pressure rating of the manifold is\P   dependent on the manifold material,\P   with the port type/size a secondary\P   consideration. Manifolds\P   constructed of alu
  1
minum are not\P   rated for pressures higher than\P   3000 psi (210 bar), regardless of\P   the port type/size specified.
 40
0.1
 41
3.04
  0
LINE
  5
295
100
AcDbEntity
  8
0
100
AcDbLine
 62
7
  6
CONTINUOUS
 10
0.30125
 20
0.30125
 11
0.30125
 21
16.69875
  0
LINE
  5
296
100
AcDbEntity
  8
0
100
AcDbLine
 62
7
  6
CONTINUOUS
 10
0.30125
 20
0.30125
 11
21.69875
 21
0.30125
  0
LINE
  5
297
100
AcDbEntity
  8
0
100
AcDbLine
 62
7
  6
CONTINUOUS
 10
0.30125
 20
16.69875
 11
21.69875
 21
16.69875
  0
LINE
  5
298
100
AcDbEntity
  8
0
100
AcDbLine
 62
7
  6
CONTINUOUS
 10
21.69875
 20
0.30125
 11
21.69875
 21
16.69875
  0
LINE
  5
299
100
AcDbEntity
  8
0
100
AcDbLine
 62
7
  6
CONTINUOUS
 10
9.4433734597
 20
10.9566713866
 11
9.0551452125
 21
10.5816716739
  0
LINE
  5
29A
100
AcDbEntity
  8
0
100
AcDbLine
 62
4
  6
CONTINUOUS
 10
9.2821377478
 20
10.0491593385
 11
9.2748933038
 21
10.0400024861
  0
LINE
  5
29B
100
AcDbEntity
  8
0
100
AcDbLine
 62
4
  6
CONTINUOUS
 10
9.2893821917
 20
9.9907013829
 11
9.2748933038
 21
9.9723876737
  0
LINE
  5
29C
100
AcDbEntity
  8
0
100
AcDbLine
 62
4
  6
CONTINUOUS
 10
9.23142664
 20
10.0719946853
 11
9.2459155279
 21
10.0806491338
  0
LINE
  5
29D
100
AcDbEntity
  8
0
100
AcDbLine
 62
4
  6
CONTINUOUS
 10
9.2748933038
 20
10.0400024861
 11
9.2604044159
 21
10.0313480306
  0
LINE
  5
29E
100
AcDbEntity
  8
0
100
AcDbLine
 62
4
  6
CONTINUOUS
 10
9.2748933038
 20
9.9723876737
 11
9.2604044159
 21
9.9637332226
  0
LINE
  5
29F
100
AcDbEntity
  8
0
100
AcDbLine
 62
7
  6
CONTINUOUS
 10
9.0551452125
 20
6.7179681398
 11
9.0551452125
 21
10.5816716739
  0
LINE
  5
2A0
100
AcDbEntity
  8
0
100
AcDbLine
 62
7
  6
CONTINUOUS
 10
9.0551452125
 20
6.7179681398
 11
12.5566265403
 21
6.475139585
  0
LINE
  5
2A1
100
AcDbEntity
  8
0
100
AcDbLine
 62
7
  6
CONTINUOUS
 10
11.2739877806
 20
6.1296039888
 11
11.29320567
 21
6.1201107194
  0
LINE
  5
2A2
100
AcDbEntity
  8
0
100
AcDbLine
 62
4
  6
CONTINUOUS
 10
9.2821377478
 20
10.0588185948
 11
9.2821377478
 21
10.0491593385
  0
LINE
  5
2A3
100
AcDbEntity
  8
0
100
AcDbLine
 62
4
  6
CONTINUOUS
 10
9.2821377478
 20
7.8748601565
 11
9.2821377478
 21
7.7589490531
  0
LINE
  5
2A4
100
AcDbEntity
  8
0
100
AcDbLine
 62
4
  6
CONTINUOUS
 10
9.2893821917
 20
10.0003606426
 11
9.2893821917
 21
9.9907013829
  0
LINE
  5
2A5
100
AcDbEntity
  8
0
100
AcDbLine
 62
4
  6
CONTINUOUS
 10
10.2640704391
 20
9.4525626293
 11
10.2806291689
 21
9.4679730056
  0
LINE
  5
2A6
100
AcDbEntity
  8
0
100
AcDbLine
 62
4
  6
CONTINUOUS
 10
10.3054672627
 20
9.3503393745
 11
10.3220259908
 21
9.3657497526
  0
LINE
  5
2A7
100
AcDbEntity
  8
0
100
AcDbLine
 62
4
  6
CONTINUOUS
 10
10.3965402775
 20
9.3440234395
 11
10.4130989987
 21
9.3594338181
  0
LINE
  5
2A8
100
AcDbEntity
  8
0
100
AcDbLine
 62
4
  6
CONTINUOUS
 10
10.7829106269
 20
9.3917428445
 11
10.7994693481
 21
9.3988738608
  0
LINE
  5
2A9
100
AcDbEntity
  8
0
100
AcDbLine
 62
4
  6
CONTINUOUS
 10
10.2640704391
 20
9.4360039013
 11
10.2640704391
 21
9.4525626293
  0
LINE
  5
2AA
100
AcDbEntity
  8
0
100
AcDbLine
 62
4
  6
CONTINUOUS
 10
10.3220259908
 20
9.3657497526
 11
10.3220259908
 21
9.3823084824
  0
LINE
  5
2AB
100
AcDbEntity
  8
0
100
AcDbLine
 62
4
  6
CONTINUOUS
 10
10.3494858945
 20
8.1949371254
 11
10.3494858945
 21
8.1563000915
  0
LINE
  5
2AC
100
AcDbEntity
  8
0
100
AcDbLine
 62
4
  6
CONTINUOUS
 10
10.355143447
 20
9.4628054229
 11
10.355143447
 21
9.3634530492
  0
LINE
  5
2AD
100
AcDbEntity
  8
0
100
AcDbLine
 62
4
  6
CONTINUOUS
 10
10.3910207075
 20
8.7532595955
 11
10.3910207075
 21
8.8691706989
  0
LINE
  5
2AE
100
AcDbEntity
  8
0
100
AcDbLine
 62
4
  6
CONTINUOUS
 10
10.2770414548
 20
8.1999611644
 11
10.2842858988
 21
8.2284365363
  0
LINE
  5
2AF
100
AcDbEntity
  8
0
100
AcDbLine
 62
4
  6
CONTINUOUS
 10
10.7152957944
 20
9.0602897492
 11
10.6987370664
 21
9.0448793728
  0
LINE
  5
2B0
100
AcDbEntity
  8
0
100
AcDbLine
 62
4
  6
CONTINUOUS
 10
10.9402185609
 20
9.3394366821
 11
10.956777282
 21
9.3465676949
  0
LINE
  5
2B1
100
AcDbEntity
  8
0
100
AcDbLine
 62
4
  6
CONTINUOUS
 10
10.3132636746
 20
8.1394935932
 11
10.2987747867
 21
8.1501576599
  0
LINE
  5
2B2
100
AcDbEntity
  8
0
100
AcDbLine
 62
4
  6
CONTINUOUS
 10
10.2987747867
 20
8.1501576599
 11
10.2842858988
 21
8.1704809846
  0
LINE
  5
2B3
100
AcDbEntity
  8
0
100
AcDbLine
 62
4
  6
CONTINUOUS
 10
10.3422414505
 20
8.2437358247
 11
10.3494858945
 21
8.2335741576
  0
LINE
  5
2B4
100
AcDbEntity
  8
0
100
AcDbLine
 62
4
  6
CONTINUOUS
 10
10.2842858988
 20
8.1704809846
 11
10.2770414548
 21
8.1999611644
  0
LINE
  5
2B5
100
AcDbEntity
  8
0
100
AcDbLine
 62
4
  6
CONTINUOUS
 10
10.4130989987
 20
9.3594338181
 11
10.4130989987
 21
9.4587861917
  0
LINE
  5
2B6
100
AcDbEntity
  8
0
100
AcDbLine
 62
4
  6
CONTINUOUS
 10
10.4462164548
 20
9.3405783849
 11
10.4462164548
 21
9.4564894883
  0
LINE
  5
2B7
100
AcDbEntity
  8
0
100
AcDbLine
 62
4
  6
CONTINUOUS
 10
10.4489762523
 20
8.8485927401
 11
10.4489762523
 21
8.7657990946
  0
LINE
  5
2B8
100
AcDbEntity
  8
0
100
AcDbLine
 62
4
  6
CONTINUOUS
 10
10.5041720066
 20
9.3365591537
 11
10.5041720066
 21
9.4524702572
  0
LINE
  5
2B9
100
AcDbEntity
  8
0
100
AcDbLine
 62
4
  6
CONTINUOUS
 10
10.4958926519
 20
8.7459867014
 11
10.5290101081
 21
8.8596011015
  0
LINE
  5
2BA
100
AcDbEntity
  8
0
100
AcDbLine
 62
4
  6
CONTINUOUS
 10
10.7277148528
 20
9.2934585228
 11
10.7608322952
 21
9.4015533495
  0
LINE
  5
2BB
100
AcDbEntity
  8
0
100
AcDbLine
 62
4
  6
CONTINUOUS
 10
10.7732513427
 20
9.0976673419
 11
10.7566926146
 21
9.073977598
  0
LINE
  5
2BC
100
AcDbEntity
  8
0
100
AcDbLine
 62
4
  6
CONTINUOUS
 10
10.7566926146
 20
8.9829045901
 11
10.8146481664
 21
9.0616790062
  0
LINE
  5
2BD
100
AcDbEntity
  8
0
100
AcDbLine
 62
4
  6
CONTINUOUS
 10
10.2842858988
 20
8.2284365363
 11
10.2987747867
 21
8.2467502481
  0
LINE
  5
2BE
100
AcDbEntity
  8
0
100
AcDbLine
 62
4
  6
CONTINUOUS
 10
10.4489762523
 20
8.7657990946
 11
10.4324175242
 21
8.7503887165
  0
LINE
  5
2BF
100
AcDbEntity
  8
0
100
AcDbLine
 62
4
  6
CONTINUOUS
 10
10.7235751585
 20
9.0017600233
 11
10.7070164304
 21
8.9863496452
  0
LINE
  5
2C0
100
AcDbEntity
  8
0
100
AcDbLine
 62
4
  6
CONTINUOUS
 10
11.2244767089
 20
9.3611201328
 11
11.2327560418
 21
9.3688253266
  0
LINE
  5
2C1
100
AcDbEntity
  8
0
100
AcDbLine
 62
4
  6
CONTINUOUS
 10
11.298991037
 20
9.3559525465
 11
11.30727037
 21
9.3636577403
  0
LINE
  5
2C2
100
AcDbEntity
  8
0
100
AcDbLine
 62
4
  6
CONTINUOUS
 10
10.3689423999
 20
8.8265452265
 11
10.3247857882
 21
8.8075291904
  0
LINE
  5
2C3
100
AcDbEntity
  8
0
100
AcDbLine
 62
4
  6
CONTINUOUS
 10
10.3277525626
 20
8.1384887854
 11
10.3132636746
 21
8.1394935932
  0
LINE
  5
2C4
100
AcDbEntity
  8
0
100
AcDbLine
 62
4
  6
CONTINUOUS
 10
10.3277525626
 20
8.2543998888
 11
10.3422414505
 21
8.2437358247
  0
LINE
  5
2C5
100
AcDbEntity
  8
0
100
AcDbLine
 62
4
  6
CONTINUOUS
 10
9.23142664
 20
9.9754020971
 11
9.224182196
 21
9.9855637599
  0
LINE
  5
2C6
100
AcDbEntity
  8
0
100
AcDbLine
 62
4
  6
CONTINUOUS
 10
9.2748933038
 20
10.0206839665
 11
9.2893821917
 21
10.0003606426
  0
LINE
  5
2C7
100
AcDbEntity
  8
0
100
AcDbLine
 62
4
  6
CONTINUOUS
 10
9.2748933038
 20
10.0689802619
 11
9.2821377478
 21
10.0588185948
  0
LINE
  5
2C8
100
AcDbEntity
  8
0
100
AcDbLine
 62
4
  6
CONTINUOUS
 10
10.6283624903
 20
8.7367998869
 11
10.6283624903
 21
8.8527109904
  0
LINE
  5
2C9
100
AcDbEntity
  8
0
100
AcDbLine
 62
4
  6
CONTINUOUS
 10
10.6283624706
 20
9.3279465158
 11
10.6283624706
 21
9.4438576192
  0
LINE
  5
2CA
100
AcDbEntity
  8
0
100
AcDbLine
 62
4
  6
CONTINUOUS
 10
10.6656196068
 20
8.9892205247
 11
10.6656196068
 21
9.1051316281
  0
LINE
  5
2CB
100
AcDbEntity
  8
0
100
AcDbLine
 62
4
  6
CONTINUOUS
 10
10.6780386617
 20
9.39901574
 11
10.6780386617
 21
9.3245014602
  0
LINE
  5
2CC
100
AcDbEntity
  8
0
100
AcDbLine
 62
4
  6
CONTINUOUS
 10
10.6945974026
 20
8.7322064802
 11
10.6945974026
 21
8.8481175836
  0
LINE
  5
2CD
100
AcDbEntity
  8
0
100
AcDbLine
 62
4
  6
CONTINUOUS
 10
10.7152957944
 20
9.0851278447
 11
10.7152957944
 21
9.0602897492
  0
LINE
  5
2CE
100
AcDbEntity
  8
0
100
AcDbLine
 62
4
  6
CONTINUOUS
 10
10.7235751585
 20
9.0265981172
 11
10.7235751585
 21
9.0017600233
  0
LINE
  5
2CF
100
AcDbEntity
  8
0
100
AcDbLine
 62
4
  6
CONTINUOUS
 10
10.7829106269
 20
9.3255079297
 11
10.7829106269
 21
9.3917428445
  0
LINE
  5
2D0
100
AcDbEntity
  8
0
100
AcDbLine
 62
4
  6
CONTINUOUS
 10
10.8146481664
 20
9.0616790062
 11
10.8146481664
 21
9.0782377343
  0
LINE
  5
2D1
100
AcDbEntity
  8
0
100
AcDbLine
 62
4
  6
CONTINUOUS
 10
10.8726037181
 20
8.9748661278
 11
10.8974418136
 21
9.0559372473
  0
LINE
  5
2D2
100
AcDbEntity
  8
0
100
AcDbLine
 62
4
  6
CONTINUOUS
 10
10.3494858945
 20
8.1563000915
 11
10.3422414505
 21
8.1471432365
  0
LINE
  5
2D3
100
AcDbEntity
  8
0
100
AcDbLine
 62
7
  6
CONTINUOUS
 10
12.5566265403
 20
10.3388431191
 11
12.9448547875
 21
10.7138428318
  0
LINE
  5
2D4
100
AcDbEntity
  8
0
100
AcDbLine
 62
4
  6
CONTINUOUS
 10
11.3403878123
 20
9.2785673906
 11
11.3486671453
 21
9.2862725818
  0
LINE
  5
2D5
100
AcDbEntity
  8
0
100
AcDbLine
 62
4
  6
CONTINUOUS
 10
10.8684640854
 20
8.8195011601
 11
10.8850228066
 21
8.834911537
  0
LINE
  5
2D6
100
AcDbEntity
  8
0
100
AcDbLine
 62
4
  6
CONTINUOUS
 10
10.9650566348
 20
8.8128024441
 11
10.9816153559
 21
8.8282128209
  0
LINE
  5
2D7
100
AcDbEntity
  8
0
100
AcDbLine
 62
4
  6
CONTINUOUS
 10
10.3205081186
 20
8.196946741
 11
10.3494858945
 21
8.1949371254
  0
LINE
  5
2D8
100
AcDbEntity
  8
0
100
AcDbLine
 62
4
  6
CONTINUOUS
 10
10.3132636746
 20
8.2554046966
 11
10.3277525626
 21
8.2543998888
  0
LINE
  5
2D9
100
AcDbEntity
  8
0
100
AcDbLine
 62
4
  6
CONTINUOUS
 10
10.5290101081
 20
8.8596011015
 11
10.562127578
 21
8.7413932937
  0
LINE
  5
2DA
100
AcDbEntity
  8
0
100
AcDbLine
 62
4
  6
CONTINUOUS
 10
10.8325867904
 20
9.4296946145
 11
10.8325867904
 21
9.3137835111
  0
LINE
  5
2DB
100
AcDbEntity
  8
0
100
AcDbLine
 62
4
  6
CONTINUOUS
 10
10.865704288
 20
9.3114868049
 11
10.865704288
 21
9.3942804521
  0
LINE
  5
2DC
100
AcDbEntity
  8
0
100
AcDbLine
 62
4
  6
CONTINUOUS
 10
10.8684640854
 20
8.7367075146
 11
10.8684640854
 21
8.8195011601
  0
LINE
  5
2DD
100
AcDbEntity
  8
0
100
AcDbLine
 62
4
  6
CONTINUOUS
 10
10.9043412856
 20
9.3833215998
 11
10.9043412856
 21
9.3667628717
  0
LINE
  5
2DE
100
AcDbEntity
  8
0
100
AcDbLine
 62
4
  6
CONTINUOUS
 10
10.9402185609
 20
9.3145985874
 11
10.9402185609
 21
9.3394366821
  0
LINE
  5
2DF
100
AcDbEntity
  8
0
100
AcDbLine
 62
4
  6
CONTINUOUS
 10
10.9650566348
 20
8.7300087985
 11
10.9650566348
 21
8.8128024441
  0
LINE
  5
2E0
100
AcDbEntity
  8
0
100
AcDbLine
 62
4
  6
CONTINUOUS
 10
10.9898947244
 20
9.3028741688
 11
10.9898947244
 21
9.3691090881
  0
LINE
  5
2E1
100
AcDbEntity
  8
0
100
AcDbLine
 62
4
  6
CONTINUOUS
 10
11.0230121667
 20
9.3833711137
 11
11.0230121667
 21
9.3088568313
  0
LINE
  5
2E2
100
AcDbEntity
  8
0
100
AcDbLine
 62
4
  6
CONTINUOUS
 10
11.0230121865
 20
8.8087832129
 11
11.0230121865
 21
8.7259895673
  0
LINE
  5
2E3
100
AcDbEntity
  8
0
100
AcDbLine
 62
4
  6
CONTINUOUS
 10
10.9222798954
 20
8.9714210732
 11
10.9471180048
 21
9.0856096479
  0
LINE
  5
2E4
100
AcDbEntity
  8
0
100
AcDbLine
 62
4
  6
CONTINUOUS
 10
11.1830798783
 20
9.4053878363
 11
11.1803201007
 21
9.3972998601
  0
LINE
  5
2E5
100
AcDbEntity
  8
0
100
AcDbLine
 62
4
  6
CONTINUOUS
 10
11.0230121865
 20
8.7259895673
 11
11.0064534653
 21
8.7105791888
  0
LINE
  5
2E6
100
AcDbEntity
  8
0
100
AcDbLine
 62
4
  6
CONTINUOUS
 10
11.1140851805
 20
8.7196736338
 11
11.0975264594
 21
8.7042632552
  0
LINE
  5
2E7
100
AcDbEntity
  8
0
100
AcDbLine
 62
4
  6
CONTINUOUS
 10
10.2987747867
 20
8.2467502481
 11
10.3132636746
 21
8.2554046966
  0
LINE
  5
2E8
100
AcDbEntity
  8
0
100
AcDbLine
 62
4
  6
CONTINUOUS
 10
10.3422414505
 20
8.1471432365
 11
10.3277525626
 21
8.1384887854
  0
LINE
  5
2E9
100
AcDbEntity
  8
0
100
AcDbLine
 62
4
  6
CONTINUOUS
 10
11.2879518357
 20
8.7407333981
 11
11.2437952275
 21
8.7217173635
  0
LINE
  5
2EA
100
AcDbEntity
  8
0
100
AcDbLine
 62
4
  6
CONTINUOUS
 10
10.3247857882
 20
8.8075291904
 11
10.3689423999
 21
8.7823886132
  0
LINE
  5
2EB
100
AcDbEntity
  8
0
100
AcDbLine
 62
4
  6
CONTINUOUS
 10
10.4324175242
 20
8.8662998199
 11
10.4489762523
 21
8.8485927401
  0
LINE
  5
2EC
100
AcDbEntity
  8
0
100
AcDbLine
 62
4
  6
CONTINUOUS
 10
10.4462164548
 20
9.4564894883
 11
10.5041720066
 21
9.3365591537
  0
LINE
  5
2ED
100
AcDbEntity
  8
0
100
AcDbLine
 62
4
  6
CONTINUOUS
 10
10.7111561317
 20
9.4049984032
 11
10.735994241
 21
9.3204822272
  0
LINE
  5
2EE
100
AcDbEntity
  8
0
100
AcDbLine
 62
4
  6
CONTINUOUS
 10
10.8477656225
 20
9.092499759
 11
10.8726037181
 21
8.9748661278
  0
LINE
  5
2EF
100
AcDbEntity
  8
0
100
AcDbLine
 62
4
  6
CONTINUOUS
 10
11.0561296288
 20
8.7071341351
 11
11.0561296288
 21
8.8230452385
  0
LINE
  5
2F0
100
AcDbEntity
  8
0
100
AcDbLine
 62
4
  6
CONTINUOUS
 10
11.0726883855
 20
9.2971324089
 11
11.0726883855
 21
9.3799260562
  0
LINE
  5
2F1
100
AcDbEntity
  8
0
100
AcDbLine
 62
4
  6
CONTINUOUS
 10
11.1058058278
 20
9.3031150714
 11
11.1058058278
 21
9.4107468099
  0
LINE
  5
2F2
100
AcDbEntity
  8
0
100
AcDbLine
 62
4
  6
CONTINUOUS
 10
11.1140851805
 20
8.8024672793
 11
11.1140851805
 21
8.7196736338
  0
LINE
  5
2F3
100
AcDbEntity
  8
0
100
AcDbLine
 62
4
  6
CONTINUOUS
 10
11.1610016217
 20
8.6998612377
 11
11.1610016217
 21
8.8157723411
  0
LINE
  5
2F4
100
AcDbEntity
  8
0
100
AcDbLine
 62
7
  6
CONTINUOUS
 10
11.1657875035
 20
6.5715945998
 11
11.1657875035
 21
6.2662836504
  0
LINE
  5
2F5
100
AcDbEntity
  8
0
100
AcDbLine
 62
4
  6
CONTINUOUS
 10
11.1803201007
 20
9.2896681241
 11
11.1803201007
 21
9.3724617714
  0
LINE
  5
2F6
100
AcDbEntity
  8
0
100
AcDbLine
 62
4
  6
CONTINUOUS
 10
11.1803201007
 20
9.3972998601
 11
11.1803201007
 21
9.4055792276
  0
LINE
  5
2F7
100
AcDbEntity
  8
0
100
AcDbLine
 62
4
  6
CONTINUOUS
 10
11.2244767089
 20
9.2948852179
 11
11.2244767089
 21
9.3611201328
  0
LINE
  5
2F8
100
AcDbEntity
  8
0
100
AcDbLine
 62
4
  6
CONTINUOUS
 10
11.0975264594
 20
8.7042632552
 11
11.0561296288
 21
8.7071341351
  0
LINE
  5
2F9
100
AcDbEntity
  8
0
100
AcDbLine
 62
4
  6
CONTINUOUS
 10
11.0064534653
 20
8.7105791888
 11
10.9816153559
 21
8.7123017175
  0
LINE
  5
2FA
100
AcDbEntity
  8
0
100
AcDbLine
 62
4
  6
CONTINUOUS
 10
10.9181402489
 20
8.7167037311
 11
10.8850228066
 21
8.7190004335
  0
LINE
  5
2FB
100
AcDbEntity
  8
0
100
AcDbLine
 62
4
  6
CONTINUOUS
 10
10.4324175242
 20
8.7503887165
 11
10.3910207075
 21
8.7532595955
  0
LINE
  5
2FC
100
AcDbEntity
  8
0
100
AcDbLine
 62
4
  6
CONTINUOUS
 10
10.6945974026
 20
8.7322064802
 11
10.7442735938
 21
8.7287614246
  0
LINE
  5
2FD
100
AcDbEntity
  8
0
100
AcDbLine
 62
4
  6
CONTINUOUS
 10
11.1610016217
 20
8.6998612377
 11
11.2106777852
 21
8.6964161841
  0
LINE
  5
2FE
100
AcDbEntity
  8
0
100
AcDbLine
 62
4
  6
CONTINUOUS
 10
9.2459155279
 20
9.9647380304
 11
9.23142664
 21
9.9754020971
  0
LINE
  5
2FF
100
AcDbEntity
  8
0
100
AcDbLine
 62
4
  6
CONTINUOUS
 10
9.2604044159
 20
10.0313480306
 11
9.2748933038
 21
10.0206839665
  0
LINE
  5
300
100
AcDbEntity
  8
0
100
AcDbLine
 62
4
  6
CONTINUOUS
 10
10.3220259908
 20
9.3823084824
 11
10.2640704391
 21
9.4360039013
  0
LINE
  5
301
100
AcDbEntity
  8
0
100
AcDbLine
 62
4
  6
CONTINUOUS
 10
10.2640704391
 20
9.3614896189
 11
10.272349804
 21
9.3526360781
  0
LINE
  5
302
100
AcDbEntity
  8
0
100
AcDbLine
 62
4
  6
CONTINUOUS
 10
10.8850228066
 20
8.7190004335
 11
10.8684640854
 21
8.7367075146
  0
LINE
  5
303
100
AcDbEntity
  8
0
100
AcDbLine
 62
4
  6
CONTINUOUS
 10
10.355143447
 20
9.3634530492
 11
10.371702175
 21
9.3457459678
  0
LINE
  5
304
100
AcDbEntity
  8
0
100
AcDbLine
 62
4
  6
CONTINUOUS
 10
10.9816153559
 20
8.7123017175
 11
10.9650566348
 21
8.7300087985
  0
LINE
  5
305
100
AcDbEntity
  8
0
100
AcDbLine
 62
4
  6
CONTINUOUS
 10
10.7070164304
 20
9.0443051969
 11
10.7235751585
 21
9.0265981172
  0
LINE
  5
306
100
AcDbEntity
  8
0
100
AcDbLine
 62
4
  6
CONTINUOUS
 10
10.3137466268
 20
9.4656763021
 11
10.3220259908
 21
9.4568227588
  0
LINE
  5
307
100
AcDbEntity
  8
0
100
AcDbLine
 62
4
  6
CONTINUOUS
 10
11.0064534653
 20
8.8264902922
 11
11.0230121865
 21
8.8087832129
  0
LINE
  5
308
100
AcDbEntity
  8
0
100
AcDbLine
 62
4
  6
CONTINUOUS
 10
10.8974418136
 20
9.0559372473
 11
10.9222798954
 21
8.9714210732
  0
LINE
  5
309
100
AcDbEntity
  8
0
100
AcDbLine
 62
4
  6
CONTINUOUS
 10
11.298991037
 20
9.3311144544
 11
11.298991037
 21
9.3559525465
  0
LINE
  5
30A
100
AcDbEntity
  8
0
100
AcDbLine
 62
7
  6
CONTINUOUS
 10
11.317207443
 20
6.5044269117
 11
11.317207443
 21
6.1200234704
  0
LINE
  5
30B
100
AcDbEntity
  8
0
100
AcDbLine
 62
4
  6
CONTINUOUS
 10
11.3486671453
 20
9.2862725818
 11
11.3486671453
 21
9.3111106766
  0
LINE
  5
30C
100
AcDbEntity
  8
0
100
AcDbLine
 62
7
  6
CONTINUOUS
 10
11.3566802209
 20
6.4942106179
 11
11.3566802209
 21
6.1098071766
  0
LINE
  5
30D
100
AcDbEntity
  8
0
100
AcDbLine
 62
7
  6
CONTINUOUS
 10
12.721114743
 20
9.5280385913
 11
12.7198310349
 21
9.5268213893
  0
LINE
  5
30E
100
AcDbEntity
  8
0
100
AcDbLine
 62
4
  6
CONTINUOUS
 10
12.3706858046
 20
8.9492137349
 11
12.3851746926
 21
8.9578681834
  0
LINE
  5
30F
100
AcDbEntity
  8
0
100
AcDbLine
 62
4
  6
CONTINUOUS
 10
12.4141524684
 20
8.9075622725
 11
12.3851746926
 21
8.890253372
  0
LINE
  5
310
100
AcDbEntity
  8
0
100
AcDbLine
 62
4
  6
CONTINUOUS
 10
10.506931804
 20
8.7783385932
 11
10.5510884122
 21
8.7752763221
  0
LINE
  5
311
100
AcDbEntity
  8
0
100
AcDbLine
 62
4
  6
CONTINUOUS
 10
11.194119064
 20
8.7637994545
 11
11.1610016217
 21
8.7660961569
  0
LINE
  5
312
100
AcDbEntity
  8
0
100
AcDbLine
 62
4
  6
CONTINUOUS
 10
10.7277148726
 20
8.796144695
 11
10.6945974026
 21
8.7984413994
  0
LINE
  5
313
100
AcDbEntity
  8
0
100
AcDbLine
 62
4
  6
CONTINUOUS
 10
10.3910207075
 20
8.8691706989
 11
10.4324175242
 21
8.8662998199
  0
LINE
  5
314
100
AcDbEntity
  8
0
100
AcDbLine
 62
4
  6
CONTINUOUS
 10
10.5952450204
 20
8.8550076947
 11
10.6614799327
 21
8.8504142879
  0
LINE
  5
315
100
AcDbEntity
  8
0
100
AcDbLine
 62
4
  6
CONTINUOUS
 10
10.6945974026
 20
8.8481175836
 11
10.7442735938
 21
8.844672528
  0
LINE
  5
316
100
AcDbEntity
  8
0
100
AcDbLine
 62
4
  6
CONTINUOUS
 10
10.8850228066
 20
8.834911537
 11
10.9181402489
 21
8.8326148345
  0
LINE
  5
317
100
AcDbEntity
  8
0
100
AcDbLine
 62
4
  6
CONTINUOUS
 10
10.9816153559
 20
8.8282128209
 11
11.0064534653
 21
8.8264902922
  0
LINE
  5
318
100
AcDbEntity
  8
0
100
AcDbLine
 62
4
  6
CONTINUOUS
 10
11.0561296288
 20
8.8230452385
 11
11.0975264594
 21
8.8201743586
  0
LINE
  5
319
100
AcDbEntity
  8
0
100
AcDbLine
 62
4
  6
CONTINUOUS
 10
11.1610016217
 20
8.8157723411
 11
11.2106777852
 21
8.8123272875
  0
LINE
  5
31A
100
AcDbEntity
  8
0
100
AcDbLine
 62
4
  6
CONTINUOUS
 10
12.3634413607
 20
8.8434642917
 11
12.4213969124
 21
8.8394450605
  0
LINE
  5
31B
100
AcDbEntity
  8
0
100
AcDbLine
 62
4
  6
CONTINUOUS
 10
10.6904577006
 20
9.1034091005
 11
10.6987370664
 21
9.100075133
  0
LINE
  5
31C
100
AcDbEntity
  8
0
100
AcDbLine
 62
4
  6
CONTINUOUS
 10
11.2437952275
 20
8.7658739769
 11
11.2879518357
 21
8.7407333981
  0
LINE
  5
31D
100
AcDbEntity
  8
0
100
AcDbLine
 62
4
  6
CONTINUOUS
 10
9.2604044159
 20
10.079644326
 11
9.2748933038
 21
10.0689802619
  0
LINE
  5
31E
100
AcDbEntity
  8
0
100
AcDbLine
 62
4
  6
CONTINUOUS
 10
10.6987370664
 20
9.100075133
 11
10.7152957944
 21
9.0851278447
  0
LINE
  5
31F
100
AcDbEntity
  8
0
100
AcDbLine
 62
4
  6
CONTINUOUS
 10
10.8146481664
 20
9.0782377343
 11
10.7980894452
 21
9.0959448136
  0
LINE
  5
320
100
AcDbEntity
  8
0
100
AcDbLine
 62
4
  6
CONTINUOUS
 10
11.0975264594
 20
8.8201743586
 11
11.1140851805
 21
8.8024672793
  0
LINE
  5
321
100
AcDbEntity
  8
0
100
AcDbLine
 62
4
  6
CONTINUOUS
 10
10.6697593011
 20
9.4078692831
 11
10.6780386617
 21
9.39901574
  0
LINE
  5
322
100
AcDbEntity
  8
0
100
AcDbLine
 62
4
  6
CONTINUOUS
 10
10.8988217303
 20
9.3919837497
 11
10.9043412856
 21
9.3833215998
  0
LINE
  5
323
100
AcDbEntity
  8
0
100
AcDbLine
 62
4
  6
CONTINUOUS
 10
10.9898947244
 20
9.3691090881
 11
10.9816153914
 21
9.3862419898
  0
LINE
  5
324
100
AcDbEntity
  8
0
100
AcDbLine
 62
4
  6
CONTINUOUS
 10
10.8146481664
 20
8.978885359
 11
10.7566926146
 21
8.9829045901
  0
LINE
  5
325
100
AcDbEntity
  8
0
100
AcDbLine
 62
4
  6
CONTINUOUS
 10
10.7070164304
 20
8.9863496452
 11
10.6656196068
 21
8.9892205247
  0
LINE
  5
326
100
AcDbEntity
  8
0
100
AcDbLine
 62
4
  6
CONTINUOUS
 10
10.6656196068
 20
9.0471760764
 11
10.7070164304
 21
9.0443051969
  0
LINE
  5
327
100
AcDbEntity
  8
0
100
AcDbLine
 62
4
  6
CONTINUOUS
 10
12.3851746926
 20
8.9578681834
 11
12.3996635805
 21
8.9568633756
  0
LINE
  5
328
100
AcDbEntity
  8
0
100
AcDbLine
 62
4
  6
CONTINUOUS
 10
10.7980894452
 20
9.0959448136
 11
10.7732513427
 21
9.0976673419
  0
LINE
  5
329
100
AcDbEntity
  8
0
100
AcDbLine
 62
4
  6
CONTINUOUS
 10
10.6656196068
 20
9.1051316281
 11
10.6904577006
 21
9.1034091005
  0
LINE
  5
32A
100
AcDbEntity
  8
0
100
AcDbLine
 62
4
  6
CONTINUOUS
 10
10.7994693481
 20
9.3160802135
 11
10.7829106269
 21
9.3255079297
  0
LINE
  5
32B
100
AcDbEntity
  8
0
100
AcDbLine
 62
4
  6
CONTINUOUS
 10
11.0230121667
 20
9.3088568313
 11
11.0312915549
 21
9.3000032889
  0
LINE
  5
32C
100
AcDbEntity
  8
0
100
AcDbLine
 62
4
  6
CONTINUOUS
 10
11.114085216
 20
9.294261529
 11
11.1058058278
 21
9.3031150714
  0
LINE
  5
32D
100
AcDbEntity
  8
0
100
AcDbLine
 62
4
  6
CONTINUOUS
 10
12.3634413607
 20
8.9400568756
 11
12.3706858046
 21
8.9492137349
  0
LINE
  5
32E
100
AcDbEntity
  8
0
100
AcDbLine
 62
4
  6
CONTINUOUS
 10
12.3851746926
 20
8.890253372
 11
12.3706858046
 21
8.8719396637
  0
LINE
  5
32F
100
AcDbEntity
  8
0
100
AcDbLine
 62
4
  6
CONTINUOUS
 10
12.4213969124
 20
8.9167191318
 11
12.4141524684
 21
8.9075622725
  0
LINE
  5
330
100
AcDbEntity
  8
0
100
AcDbLine
 62
4
  6
CONTINUOUS
 10
10.7111561317
 20
9.2946068741
 11
10.7277148528
 21
9.2934585228
  0
LINE
  5
331
100
AcDbEntity
  8
0
100
AcDbLine
 62
4
  6
CONTINUOUS
 10
11.2658735947
 20
9.2837349692
 11
11.2327560418
 21
9.2860316793
  0
LINE
  5
332
100
AcDbEntity
  8
0
100
AcDbLine
 62
4
  6
CONTINUOUS
 10
11.1306439372
 20
9.2931131778
 11
11.114085216
 21
9.294261529
  0
LINE
  5
333
100
AcDbEntity
  8
0
100
AcDbLine
 62
4
  6
CONTINUOUS
 10
10.9898947244
 20
9.3028741688
 11
10.956777282
 21
9.3051708713
  0
LINE
  5
334
100
AcDbEntity
  8
0
100
AcDbLine
 62
4
  6
CONTINUOUS
 10
10.8325867904
 20
9.3137835111
 11
10.7994693481
 21
9.3160802135
  0
LINE
  5
335
100
AcDbEntity
  8
0
100
AcDbLine
 62
4
  6
CONTINUOUS
 10
10.272349804
 20
9.3526360781
 11
10.3054672627
 21
9.3503393745
  0
LINE
  5
336
100
AcDbEntity
  8
0
100
AcDbLine
 62
4
  6
CONTINUOUS
 10
10.371702175
 20
9.3457459678
 11
10.3965402775
 21
9.3440234395
  0
LINE
  5
337
100
AcDbEntity
  8
0
100
AcDbLine
 62
4
  6
CONTINUOUS
 10
11.0312915549
 20
9.3000032889
 11
11.0726883855
 21
9.2971324089
  0
LINE
  5
338
100
AcDbEntity
  8
0
100
AcDbLine
 62
4
  6
CONTINUOUS
 10
11.30727037
 20
9.2808640931
 11
11.3403878123
 21
9.2785673906
  0
LINE
  5
339
100
AcDbEntity
  8
0
100
AcDbLine
 62
4
  6
CONTINUOUS
 10
10.956777282
 20
9.3465676949
 11
10.9898947244
 21
9.3442709925
  0
LINE
  5
33A
100
AcDbEntity
  8
0
100
AcDbLine
 62
4
  6
CONTINUOUS
 10
10.956777282
 20
9.3051708713
 11
10.9402185609
 21
9.3145985874
  0
LINE
  5
33B
100
AcDbEntity
  8
0
100
AcDbLine
 62
4
  6
CONTINUOUS
 10
11.30727037
 20
9.3250207047
 11
11.298991037
 21
9.3311144544
  0
LINE
  5
33C
100
AcDbEntity
  8
0
100
AcDbLine
 62
4
  6
CONTINUOUS
 10
11.3486671453
 20
9.3111106766
 11
11.3403878123
 21
9.3172044263
  0
LINE
  5
33D
100
AcDbEntity
  8
0
100
AcDbLine
 62
4
  6
CONTINUOUS
 10
11.2327560418
 20
9.2860316793
 11
11.2244767089
 21
9.2948852179
  0
LINE
  5
33E
100
AcDbEntity
  8
0
100
AcDbLine
 62
4
  6
CONTINUOUS
 10
11.298991037
 20
9.2897176317
 11
11.30727037
 21
9.2808640931
  0
LINE
  5
33F
100
AcDbEntity
  8
0
100
AcDbLine
 62
4
  6
CONTINUOUS
 10
11.3403878123
 20
9.3613610379
 11
11.3486671453
 21
9.3525074967
  0
LINE
  5
340
100
AcDbEntity
  8
0
100
AcDbLine
 62
7
  6
CONTINUOUS
 10
11.9217866955
 20
6.4550203508
 11
11.9217866955
 21
6.0706169095
  0
LINE
  5
341
100
AcDbEntity
  8
0
100
AcDbLine
 62
7
  6
CONTINUOUS
 10
11.9757074978
 20
6.4587597778
 11
11.9757074978
 21
6.0743563364
  0
LINE
  5
342
100
AcDbEntity
  8
0
100
AcDbLine
 62
4
  6
CONTINUOUS
 10
10.9816153914
 20
9.3862419898
 11
10.9402185609
 21
9.3891128698
  0
LINE
  5
343
100
AcDbEntity
  8
0
100
AcDbLine
 62
4
  6
CONTINUOUS
 10
10.6283624706
 20
9.4107401631
 11
10.6697593011
 21
9.4078692831
  0
LINE
  5
344
100
AcDbEntity
  8
0
100
AcDbLine
 62
4
  6
CONTINUOUS
 10
10.7994693481
 20
9.3988738608
 11
10.8325867904
 21
9.3965771584
  0
LINE
  5
345
100
AcDbEntity
  8
0
100
AcDbLine
 62
4
  6
CONTINUOUS
 10
10.865704288
 20
9.3942804521
 11
10.8988217303
 21
9.3919837497
  0
LINE
  5
346
100
AcDbEntity
  8
0
100
AcDbLine
 62
4
  6
CONTINUOUS
 10
11.2327560418
 20
9.3688253266
 11
11.2658735947
 21
9.3665286165
  0
LINE
  5
347
100
AcDbEntity
  8
0
100
AcDbLine
 62
4
  6
CONTINUOUS
 10
11.30727037
 20
9.3636577403
 11
11.3403878123
 21
9.3613610379
  0
LINE
  5
348
100
AcDbEntity
  8
0
100
AcDbLine
 62
4
  6
CONTINUOUS
 10
10.2806291689
 20
9.4679730056
 11
10.3137466268
 21
9.4656763021
  0
LINE
  5
349
100
AcDbEntity
  8
0
100
AcDbLine
 62
4
  6
CONTINUOUS
 10
11.1803201007
 20
9.4055792276
 11
11.1830798783
 21
9.4053878363
  0
LINE
  5
34A
100
AcDbEntity
  8
0
100
AcDbLine
 62
4
  6
CONTINUOUS
 10
11.3403878123
 20
9.3172044263
 11
11.30727037
 21
9.3250207047
  0
LINE
  5
34B
100
AcDbEntity
  8
0
100
AcDbLine
 62
4
  6
CONTINUOUS
 10
12.3706858046
 20
8.8719396637
 11
12.3634413607
 21
8.8434642917
  0
LINE
  5
34C
100
AcDbEntity
  8
0
100
AcDbLine
 62
4
  6
CONTINUOUS
 10
12.3996635805
 20
8.9568633756
 11
12.4141524684
 21
8.9461993115
  0
LINE
  5
34D
100
AcDbEntity
  8
0
100
AcDbLine
 62
7
  6
CONTINUOUS
 10
12.3893940328
 20
6.4867371987
 11
12.3893940328
 21
6.1814262494
  0
LINE
  5
34E
100
AcDbEntity
  8
0
100
AcDbLine
 62
7
  6
CONTINUOUS
 10
12.4038420572
 20
6.4857352249
 11
12.4038420572
 21
6.1953819701
  0
LINE
  5
34F
100
AcDbEntity
  8
0
100
AcDbLine
 62
4
  6
CONTINUOUS
 10
12.4213969124
 20
8.9360376444
 11
12.4213969124
 21
8.9167191318
  0
LINE
  5
350
100
AcDbEntity
  8
0
100
AcDbLine
 62
4
  6
CONTINUOUS
 10
9.2604044159
 20
9.9637332226
 11
9.2459155279
 21
9.9647380304
  0
LINE
  5
351
100
AcDbEntity
  8
0
100
AcDbLine
 62
4
  6
CONTINUOUS
 10
9.2459155279
 20
10.0323528384
 11
9.2604044159
 21
10.0313480306
  0
LINE
  5
352
100
AcDbEntity
  8
0
100
AcDbLine
 62
4
  6
CONTINUOUS
 10
9.2459155279
 20
10.0806491338
 11
9.2604044159
 21
10.079644326
  0
LINE
  5
353
100
AcDbEntity
  8
0
100
AcDbLine
 62
4
  6
CONTINUOUS
 10
12.4141524684
 20
8.9461993115
 11
12.4213969124
 21
8.9360376444
  0
LINE
  5
354
100
AcDbEntity
  8
0
100
AcDbLine
 62
7
  6
CONTINUOUS
 10
12.5566265403
 20
6.475139585
 11
12.5566265403
 21
10.3388431191
  0
LINE
  5
355
100
AcDbEntity
  8
0
100
AcDbLine
 62
7
  6
CONTINUOUS
 10
12.9448547875
 20
6.8501392977
 11
12.9448547875
 21
10.7138428318
  0
LINE
  5
356
100
AcDbEntity
  8
0
100
AcDbLine
 62
7
  6
CONTINUOUS
 10
9.0551452125
 20
10.5816716739
 11
12.5566265403
 21
10.3388431191
  0
LINE
  5
357
100
AcDbEntity
  8
0
100
AcDbLine
 62
7
  6
CONTINUOUS
 10
12.9448547875
 20
10.7138428318
 11
9.4433734597
 21
10.9566713866
  0
LINE
  5
358
100
AcDbEntity
  8
0
100
AcDbLine
 62
7
  6
CONTINUOUS
 10
12.5566265403
 20
6.475139585
 11
12.9448547875
 21
6.8501392977
  0
LINE
  5
359
100
AcDbEntity
  8
0
100
AcDbLine
 62
7
  6
CONTINUOUS
 10
12.3070979012
 20
6.1352630932
 11
12.2764238907
 21
6.1201107194
  0
ARC
  5
35A
100
AcDbEntity
  8
0
100
AcDbCircle
 62
7
  6
CONTINUOUS
 10
11.7958543029
 20
8.2771297941
 40
2.210103635
100
AcDbArc
 50
273.2665005552
 51
274.6677615151
  0
ARC
  5
35B
100
AcDbEntity
  8
0
100
AcDbCircle
 62
7
  6
CONTINUOUS
 10
11.7958543029
 20
8.6615332355
 40
2.210103635
100
AcDbArc
 50
273.2665005552
 51
274.6677615151
  0
ARC
  5
35C
100
AcDbEntity
  8
0
100
AcDbCircle
 62
7
  6
CONTINUOUS
 10
11.5758797294
 20
7.4224973516
 40
0.9538158545
100
AcDbArc
 50
254.2644742826
 51
256.7139235525
  0
ARC
  5
35D
100
AcDbEntity
  8
0
100
AcDbCircle
 62
7
  6
CONTINUOUS
 10
11.5758797294
 20
7.0380939102
 40
0.9538158545
100
AcDbArc
 50
254.2644742826
 51
256.7139235525
  0
ARC
  5
35E
100
AcDbEntity
  8
0
100
AcDbCircle
 62
7
  6
CONTINUOUS
 10
11.9682168996
 20
6.8201582944
 40
0.7641475746
100
AcDbArc
 50
293.7608747297
 51
296.3085175792
  0
ARC
  5
35F
100
AcDbEntity
  8
0
100
AcDbCircle
 62
7
  6
CONTINUOUS
 10
10.5518371818
 20
7.6103877461
 40
0.3831161474
100
AcDbArc
 50
312.2851290132
 51
313.3961311964
  0
ARC
  5
360
100
AcDbEntity
  8
0
100
AcDbCircle
 62
7
  6
CONTINUOUS
 10
10.4727518789
 20
7.6922619068
 40
0.3830512509
100
AcDbArc
 50
134.93354529
 51
135.7283146029
  0
SPLINE
  5
361
100
AcDbEntity
  8
0
100
AcDbSpline
 62
7
  6
CONTINUOUS
 70
0
 71
3
 72
9
 73
5
 74
0
 42
0.0000001
 43
0.0000001
 44
0.0000000001
 40
0.0
 40
0.0
 40
0.0
 40
0.0
 40
0.2426770998
 40
1.0
 40
1.0
 40
1.0
 40
1.0
 10
12.3972117905
 20
6.1883629334
 30
0.0
 10
12.3966036
 20
6.1877754665
 30
0.0
 10
12.3940705486
 20
6.1853825853
 30
0.0
 10
12.3914348349
 20
6.1830991158
 30
0.0
 10
12.3893940328
 20
6.1814262494
 30
0.0
  0
SPLINE
  5
362
100
AcDbEntity
  8
0
100
AcDbSpline
 62
7
  6
CONTINUOUS
 70
0
 71
3
 72
9
 73
5
 74
0
 42
0.0000001
 43
0.0000001
 44
0.0000000001
 40
0.0
 40
0.0
 40
0.0
 40
0.0
 40
0.2426666479
 40
1.0
 40
1.0
 40
1.0
 40
1.0
 10
12.4038420572
 20
6.1953819701
 30
0.0
 10
12.4033344294
 20
6.1947881972
 30
0.0
 10
12.4012107336
 20
6.1923686127
 30
0.0
 10
12.3989653251
 20
6.1900567179
 30
0.0
 10
12.3972117905
 20
6.1883629334
 30
0.0
  0
SPLINE
  5
363
100
AcDbEntity
  8
0
100
AcDbSpline
 62
7
  6
CONTINUOUS
 70
0
 71
3
 72
9
 73
5
 74
0
 42
0.0000001
 43
0.0000001
 44
0.0000000001
 40
0.0
 40
0.0
 40
0.0
 40
0.0
 40
0.504378312
 40
1.0
 40
1.0
 40
1.0
 40
1.0
 10
12.3893940328
 20
6.1814262494
 30
0.0
 10
12.3758902826
 20
6.1730173957
 30
0.0
 10
12.3487774452
 20
6.1568827397
 30
0.0
 10
12.3209046487
 20
6.1420855449
 30
0.0
 10
12.3068905107
 20
6.1351607025
 30
0.0
  0
SPLINE
  5
364
100
AcDbEntity
  8
0
100
AcDbSpline
 62
7
  6
CONTINUOUS
 70
0
 71
3
 72
23
 73
19
 74
0
 42
0.0000001
 43
0.0000001
 44
0.0000000001
 40
0.0
 40
0.0
 40
0.0
 40
0.0
 40
0.0436203086
 40
0.0892268542
 40
0.137068591
 40
0.187353676
 40
0.2402538462
 40
0.2958872461
 40
0.3543311569
 40
0.4156094827
 40
0.4797102731
 40
0.5465788188
 40
0.6161346312
 40
0.6882694307
 40
0.7628606873
 40
0.8397744221
 40
0.9188692703
 40
1.0
 40
1.0
 40
1.0
 40
1.0
 10
11.2741960138
 20
6.1295011619
 30
0.0
 10
11.2718860781
 20
6.1306417304
 30
0.0
 10
11.2672489544
 20
6.1331568269
 30
0.0
 10
11.260421665
 20
6.1375178789
 30
0.0
 10
11.2535852761
 20
6.1425601655
 30
0.0
 10
11.2467437264
 20
6.1482910978
 30
0.0
 10
11.2399026282
 20
6.1547147486
 30
0.0
 10
11.2330650877
 20
6.161826321
 30
0.0
 10
11.2262368285
 20
6.169617133
 30
0.0
 10
11.2194205844
 20
6.1780705355
 30
0.0
 10
11.2126214159
 20
6.1871664414
 30
0.0
 10
11.2058415657
 20
6.1968788233
 30
0.0
 10
11.1990848988
 20
6.2071793714
 30
0.0
 10
11.1923530118
 20
6.2180363255
 30
0.0
 10
11.1856482948
 20
6.229417179
 30
0.0
 10
11.1789716456
 20
6.2412882614
 30
0.0
 10
11.1723241531
 20
6.2536161005
 30
0.0
 10
11.1679650351
 20
6.2620155176
 30
0.0
 10
11.1657875035
 20
6.2662836504
 30
0.0
  0
SPLINE
  5
365
100
AcDbEntity
  8
0
100
AcDbSpline
 62
7
  6
CONTINUOUS
 70
0
 71
3
 72
47
 73
43
 74
0
 42
0.0000001
 43
0.0000001
 44
0.0000000001
 40
0.0
 40
0.0
 40
0.0
 40
0.0
 40
0.0099874638
 40
0.0204476834
 40
0.0313771515
 40
0.0427708334
 40
0.0546218702
 40
0.0669225517
 40
0.0796641282
 40
0.0928362942
 40
0.1204271347
 40
0.1495984091
 40
0.1802407165
 40
0.2122338314
 40
0.2454489836
 40
0.2797497839
 40
0.3149929168
 40
0.3510298084
 40
0.3877071885
 40
0.4248680172
 40
0.4623527228
 40
0.4999997959
 40
0.5376468789
 40
0.575131606
 40
0.6122924455
 40
0.6489698269
 40
0.6850067267
 40
0.7202498875
 40
0.7545507276
 40
0.7877659112
 40
0.8197590481
 40
0.8504013805
 40
0.8795726993
 40
0.9071635849
 40
0.9203357726
 40
0.933077377
 40
0.9453780958
 40
0.9572291635
 40
0.968622847
 40
0.9795522717
 40
0.9900124597
 40
1.0
 40
1.0
 40
1.0
 40
1.0
 10
12.2764277761
 20
6.120112674
 30
0.0
 10
12.2734372418
 20
6.1186353963
 30
0.0
 10
12.2672635354
 20
6.1157134805
 30
0.0
 10
12.257661337
 20
6.1115140368
 30
0.0
 10
12.2475131589
 20
6.107401202
 30
0.0
 10
12.2368307109
 20
6.1033799922
 30
0.0
 10
12.2256263352
 20
6.099454687
 30
0.0
 10
12.2139128346
 20
6.0956299679
 30
0.0
 10
12.2017035786
 20
6.0919103971
 30
0.0
 10
12.1845157498
 20
6.0870208653
 30
0.0
 10
12.1618854375
 20
6.0812253838
 30
0.0
 10
12.1333941592
 20
6.0748567116
 30
0.0
 10
12.1032941102
 20
6.0690011877
 30
0.0
 10
12.071724104
 20
6.063685846
 30
0.0
 10
12.038829446
 20
6.0589356896
 30
0.0
 10
12.0047617949
 20
6.0547731575
 30
0.0
 10
11.9696783364
 20
6.0512174295
 30
0.0
 10
11.9337410155
 20
6.0482852591
 30
0.0
 10
11.8971157546
 20
6.0459904745
 30
0.0
 10
11.8599717221
 20
6.044343527
 30
0.0
 10
11.8224804982
 20
6.043352291
 30
0.0
 10
11.7848152579
 20
6.0430214344
 30
0.0
 10
11.7471500103
 20
6.0433522743
 30
0.0
 10
11.7096587719
 20
6.0443434943
 30
0.0
 10
11.6725147274
 20
6.045990425
 30
0.0
 10
11.6358894587
 20
6.0482851935
 30
0.0
 10
11.599952124
 20
6.051217347
 30
0.0
 10
11.5648686384
 20
6.0547730604
 30
0.0
 10
11.5308009522
 20
6.0589355779
 30
0.0
 10
11.4979062609
 20
6.0636857209
 30
0.0
 10
11.4663362255
 20
6.0690010468
 30
0.0
 10
11.4362361426
 20
6.0748565564
 30
0.0
 10
11.407744823
 20
6.081225219
 30
0.0
 10
11.385114469
 20
6.0870206871
 30
0.0
 10
11.3679266045
 20
6.0919102094
 30
0.0
 10
11.3557173178
 20
6.0956297787
 30
0.0
 10
11.3440037857
 20
6.099454505
 30
0.0
 10
11.3327993863
 20
6.1033798128
 30
0.0
 10
11.3221169355
 20
6.1074010043
 30
0.0
 10
11.3119687634
 20
6.1115137881
 30
0.0
 10
11.3023665475
 20
6.1157131934
 30
0.0
 10
11.2961928263
 20
6.1186351141
 30
0.0
 10
11.2932022733
 20
6.1201124117
 30
0.0
  0
SPLINE
  5
366
100
AcDbEntity
  8
0
100
AcDbSpline
 62
7
  6
CONTINUOUS
 70
0
 71
3
 72
15
 73
11
 74
0
 42
0.0000001
 43
0.0000001
 44
0.0000000001
 40
0.0
 40
0.0
 40
0.0
 40
0.0
 40
0.1299708166
 40
0.2593283487
 40
0.3876617857
 40
0.5145654289
 40
0.6396384778
 40
0.7624890516
 40
0.8827334041
 40
1.0
 40
1.0
 40
1.0
 40
1.0
 10
11.7695936258
 20
6.5295845285
 30
0.0
 10
11.7591427977
 20
6.5296610609
 30
0.0
 10
11.7382912601
 20
6.5299712049
 30
0.0
 10
11.7071318432
 20
6.5309081742
 30
0.0
 10
11.6762368199
 20
6.5323134805
 30
0.0
 10
11.6457114732
 20
6.5341818654
 30
0.0
 10
11.6156596761
 20
6.5365073986
 30
0.0
 10
11.5861836752
 20
6.5392816127
 30
0.0
 10
11.5573839181
 20
6.5424954177
 30
0.0
 10
11.5384433216
 20
6.5449567437
 30
0.0
 10
11.5291046195
 20
6.5462624977
 30
0.0
  0
SPLINE
  5
367
100
AcDbEntity
  8
0
100
AcDbSpline
 62
7
  6
CONTINUOUS
 70
0
 71
3
 72
10
 73
6
 74
0
 42
0.0000001
 43
0.0000001
 44
0.0000000001
 40
0.0
 40
0.0
 40
0.0
 40
0.0
 40
0.4950633206
 40
0.7463873743
 40
1.0
 40
1.0
 40
1.0
 40
1.0
 10
12.0671270389
 20
6.50936208
 30
0.0
 10
12.051567169
 20
6.5019147807
 30
0.0
 10
12.0284765004
 20
6.4899021548
 30
0.0
 10
11.9982496342
 20
6.4725644433
 30
0.0
 10
11.9832090059
 20
6.4634310049
 30
0.0
 10
11.9757074978
 20
6.4587597778
 30
0.0
  0
SPLINE
  5
368
100
AcDbEntity
  8
0
100
AcDbSpline
 62
7
  6
CONTINUOUS
 70
0
 71
3
 72
21
 73
17
 74
0
 42
0.0000001
 43
0.0000001
 44
0.0000000001
 40
0.0
 40
0.0
 40
0.0
 40
0.0
 40
0.1230212981
 40
0.1847065752
 40
0.2465215318
 40
0.3084771567
 40
0.3705832678
 40
0.432847904
 40
0.4952752623
 40
0.5578663069
 40
0.6206183946
 40
0.6835249868
 40
0.7465773451
 40
0.8097643485
 40
0.8730733734
 40
1.0
 40
1.0
 40
1.0
 40
1.0
 10
11.9217866955
 20
6.0706169095
 30
0.0
 10
11.8987075145
 20
6.0660695533
 30
0.0
 10
11.863875073
 20
6.060097147
 30
0.0
 10
11.817103858
 20
6.0541869996
 30
0.0
 10
11.7817925494
 20
6.0508597856
 30
0.0
 10
11.7463081066
 20
6.048725378
 30
0.0
 10
11.7106833855
 20
6.0478546417
 30
0.0
 10
11.674960174
 20
6.0483035369
 30
0.0
 10
11.6391865523
 20
6.0501055356
 30
0.0
 10
11.6034140261
 20
6.0532688215
 30
0.0
 10
11.5676940862
 20
6.0577777721
 30
0.0
 10
11.5320744728
 20
6.0635920139
 30
0.0
 10
11.4965963333
 20
6.070649728
 30
0.0
 10
11.4612921426
 20
6.0788754177
 30
0.0
 10
11.4144482164
 20
6.0912949697
 30
0.0
 10
11.3796878067
 20
6.1020827641
 30
0.0
 10
11.3566802209
 20
6.1098071766
 30
0.0
  0
SPLINE
  5
369
100
AcDbEntity
  8
0
100
AcDbSpline
 62
7
  6
CONTINUOUS
 70
0
 71
3
 72
21
 73
17
 74
0
 42
0.0000001
 43
0.0000001
 44
0.0000000001
 40
0.0
 40
0.0
 40
0.0
 40
0.0
 40
0.1269266266
 40
0.1902356515
 40
0.253422655
 40
0.3164750132
 40
0.3793816055
 40
0.4421336932
 40
0.5047247377
 40
0.567152096
 40
0.6294167323
 40
0.6915228434
 40
0.7534784683
 40
0.8152934248
 40
0.8769787019
 40
1.0
 40
1.0
 40
1.0
 40
1.0
 10
11.9217866955
 20
6.4550203508
 30
0.0
 10
11.8987791097
 20
6.4627447634
 30
0.0
 10
11.8640187
 20
6.4735325577
 30
0.0
 10
11.8171747739
 20
6.4859521098
 30
0.0
 10
11.7818705831
 20
6.4941777995
 30
0.0
 10
11.7463924436
 20
6.5012355135
 30
0.0
 10
11.7107728302
 20
6.5070497553
 30
0.0
 10
11.6750528903
 20
6.5115587059
 30
0.0
 10
11.6392803641
 20
6.5147219918
 30
0.0
 10
11.6035067424
 20
6.5165239906
 30
0.0
 10
11.5677835309
 20
6.5169728858
 30
0.0
 10
11.5321588098
 20
6.5161021494
 30
0.0
 10
11.496674367
 20
6.5139677418
 30
0.0
 10
11.4613630584
 20
6.5106405278
 30
0.0
 10
11.4145918435
 20
6.5047303804
 30
0.0
 10
11.3797594019
 20
6.4987579741
 30
0.0
 10
11.3566802209
 20
6.4942106179
 30
0.0
  0
SPLINE
  5
36A
100
AcDbEntity
  8
0
100
AcDbSpline
 62
7
  6
CONTINUOUS
 70
0
 71
3
 72
11
 73
7
 74
0
 42
0.0000001
 43
0.0000001
 44
0.0000000001
 40
0.0
 40
0.0
 40
0.0
 40
0.0
 40
0.2465919593
 40
0.494712682
 40
0.7454424776
 40
1.0
 40
1.0
 40
1.0
 40
1.0
 10
11.317207443
 20
6.1200234704
 30
0.0
 10
11.3152650301
 20
6.1199686357
 30
0.0
 10
11.3113637204
 20
6.1199759822
 30
0.0
 10
11.3054980292
 20
6.120359504
 30
0.0
 10
11.2996079572
 20
6.1211377864
 30
0.0
 10
11.2957015001
 20
6.1219273342
 30
0.0
 10
11.293750055
 20
6.1223917956
 30
0.0
  0
SPLINE
  5
36B
100
AcDbEntity
  8
0
100
AcDbSpline
 62
7
  6
CONTINUOUS
 70
0
 71
3
 72
10
 73
6
 74
0
 42
0.0000001
 43
0.0000001
 44
0.0000000001
 40
0.0
 40
0.0
 40
0.0
 40
0.0
 40
0.2418255986
 40
0.4885199497
 40
1.0
 40
1.0
 40
1.0
 40
1.0
 10
11.293750055
 20
6.1223917956
 30
0.0
 10
11.2921155375
 20
6.1227808253
 30
0.0
 10
11.2888352272
 20
6.1236616859
 30
0.0
 10
11.2822363268
 20
6.1258439912
 30
0.0
 10
11.2773824484
 20
6.1279278075
 30
0.0
 10
11.2741960138
 20
6.1295011619
 30
0.0
  0
SPLINE
  5
36C
100
AcDbEntity
  8
0
100
AcDbSpline
 62
7
  6
CONTINUOUS
 70
0
 71
3
 72
11
 73
7
 74
0
 42
0.0000001
 43
0.0000001
 44
0.0000000001
 40
0.0
 40
0.0
 40
0.0
 40
0.0
 40
0.2633952514
 40
0.5183435581
 40
0.764111363
 40
1.0
 40
1.0
 40
1.0
 40
1.0
 10
11.317207443
 20
6.5044269117
 30
0.0
 10
11.3144909565
 20
6.5097514385
 30
0.0
 10
11.3090541588
 20
6.5201837483
 30
0.0
 10
11.3007279916
 20
6.5353962342
 30
0.0
 10
11.2923575312
 20
6.5498678773
 30
0.0
 10
11.2866260542
 20
6.5591776171
 30
0.0
 10
11.2837455337
 20
6.5636897717
 30
0.0
  0
LINE
  5
36D
100
AcDbEntity
  8
0
100
AcDbLine
 62
7
  6
CONTINUOUS
 10
12.2761075525
 20
6.1207836726
 11
12.2753784385
 21
6.120463785
  0
SPLINE
  5
36E
100
AcDbEntity
  8
0
100
AcDbSpline
 62
7
  6
CONTINUOUS
 70
0
 71
3
 72
15
 73
11
 74
0
 42
0.0000001
 43
0.0000001
 44
0.0000000001
 40
0.0
 40
0.0
 40
0.0
 40
0.0
 40
0.1321602046
 40
0.2618009952
 40
0.3890353631
 40
0.5141096583
 40
0.6373677171
 40
0.75919507
 40
0.8799649792
 40
1.0
 40
1.0
 40
1.0
 40
1.0
 10
12.2753784385
 20
6.120463785
 30
0.0
 10
12.2629973351
 20
6.1150400428
 30
0.0
 10
12.2381565712
 20
6.1049930537
 30
0.0
 10
12.2003625081
 20
6.0924596163
 30
0.0
 10
12.1624917387
 20
6.0827423268
 30
0.0
 10
12.124665363
 20
6.0758738226
 30
0.0
 10
12.0869979771
 20
6.0717739941
 30
0.0
 10
12.0495823951
 20
6.0702673062
 30
0.0
 10
12.0124815585
 20
6.0711141539
 30
0.0
 10
11.9879171391
 20
6.0730735039
 30
0.0
 10
11.9757074978
 20
6.0743563364
 30
0.0
  0
SPLINE
  5
36F
100
AcDbEntity
  8
0
100
AcDbSpline
 62
7
  6
CONTINUOUS
 70
0
 71
3
 72
91
 73
87
 74
0
 42
0.0000001
 43
0.0000001
 44
0.0000000001
 40
0.0
 40
0.0
 40
0.0
 40
0.0
 40
0.0039801824
 40
0.0081241125
 40
0.0124359604
 40
0.0169193082
 40
0.0215771808
 40
0.0264119179
 40
0.0314251804
 40
0.036618156
 40
0.0419915391
 40
0.0475456573
 40
0.0532804234
 40
0.0591954189
 40
0.0652899227
 40
0.0715629017
 40
0.0780131034
 40
0.0846389837
 40
0.0984102885
 40
0.1128608532
 40
0.1279713725
 40
0.1437199568
 40
0.1600824082
 40
0.1770324532
 40
0.1945419392
 40
0.2125810061
 40
0.2311182422
 40
0.2501208275
 40
0.2695546626
 40
0.2893844909
 40
0.3095740146
 40
0.330086005
 40
0.35088241
 40
0.3719244606
 40
0.3931727759
 40
0.4145874652
 40
0.4361282289
 40
0.4577544586
 40
0.4794253371
 40
0.501099938
 40
0.5227373261
 40
0.5442966575
 40
0.5657372785
 40
0.5870188258
 40
0.6081013261
 40
0.6289452975
 40
0.6495118524
 40
0.6697628021
 40
0.6896607608
 40
0.7091692527
 40
0.7282528228
 40
0.7468771515
 40
0.7650091753
 40
0.7826172172
 40
0.7996711268
 40
0.8161424293
 40
0.8320044948
 40
0.8472327309
 40
0.8618048077
 40
0.8757009255
 40
0.8889041429
 40
0.8952417292
 40
0.9014012652
 40
0.9073816417
 40
0.9131820083
 40
0.9188018518
 40
0.9242409423
 40
0.9294994633
 40
0.9345779585
 40
0.9394774438
 40
0.944199427
 40
0.9487459568
 40
0.95311974
 40
0.9573241405
 40
0.9613633601
 40
0.9652424499
 40
0.9689674846
 40
0.9725456466
 40
0.9759853437
 40
0.9824865016
 40
0.9855753543
 40
0.9885738189
 40
0.9914977372
 40
0.9943643366
 40
0.9971920099
 40
1.0
 40
1.0
 40
1.0
 40
1.0
 10
11.3327614669
 20
10.6246801667
 30
0.0
 10
11.331460235
 20
10.6234232732
 30
0.0
 10
11.3287451456
 20
10.6209183757
 30
0.0
 10
11.3244344186
 20
10.6172597843
 30
0.0
 10
11.3198071389
 20
10.6136274365
 30
0.0
 10
11.314865845
 20
10.6100232608
 30
0.0
 10
11.3096129459
 20
10.6064489405
 30
0.0
 10
11.3040510155
 20
10.6029062145
 30
0.0
 10
11.2981828355
 20
10.5993967815
 30
0.0
 10
11.2920113174
 20
10.5959224626
 30
0.0
 10
11.2855395778
 20
10.5924849255
 30
0.0
 10
11.2787708338
 20
10.5890859387
 30
0.0
 10
11.2717084888
 20
10.5857271739
 30
0.0
 10
11.2643560854
 20
10.5824103285
 30
0.0
 10
11.2567173144
 20
10.5791370929
 30
0.0
 10
11.2487960313
 20
10.5759090842
 30
0.0
 10
11.2405962023
 20
10.5727279621
 30
0.0
 10
11.22914969
 20
10.5684966221
 30
0.0
 10
11.2141679895
 20
10.5633469993
 30
0.0
 10
11.1953711488
 20
10.5574561414
 30
0.0
 10
11.1755691923
 20
10.5517891585
 30
0.0
 10
11.1548020923
 20
10.546357578
 30
0.0
 10
11.1331116198
 20
10.5411724639
 30
0.0
 10
11.1105415167
 20
10.5362443788
 30
0.0
 10
11.087137323
 20
10.531583364
 30
0.0
 10
11.0629463005
 20
10.5271989121
 30
0.0
 10
11.0380173241
 20
10.5230999511
 30
0.0
 10
11.0124007783
 20
10.519294826
 30
0.0
 10
10.9861484514
 20
10.5157912825
 30
0.0
 10
10.9593134282
 20
10.5125964509
 30
0.0
 10
10.9319499812
 20
10.5097168325
 30
0.0
 10
10.9041134599
 20
10.5071582872
 30
0.0
 10
10.8758601784
 20
10.5049260182
 30
0.0
 10
10.8472472988
 20
10.5030245639
 30
0.0
 10
10.8183327144
 20
10.5014577901
 30
0.0
 10
10.789174931
 20
10.500228882
 30
0.0
 10
10.7598329482
 20
10.4993403384
 30
0.0
 10
10.7303661405
 20
10.4987939664
 30
0.0
 10
10.7008341362
 20
10.4985908782
 30
0.0
 10
10.6712966968
 20
10.4987314864
 30
0.0
 10
10.6418135943
 20
10.4992155038
 30
0.0
 10
10.61244449
 20
10.5000419456
 30
0.0
 10
10.583248813
 20
10.5012091317
 30
0.0
 10
10.5542856406
 20
10.5027146893
 30
0.0
 10
10.5256135781
 20
10.5045555582
 30
0.0
 10
10.4972906393
 20
10.5067279966
 30
0.0
 10
10.4693741277
 20
10.5092275871
 30
0.0
 10
10.4419205187
 20
10.5120492438
 30
0.0
 10
10.4149853449
 20
10.5151872263
 30
0.0
 10
10.3886230835
 20
10.5186351496
 30
0.0
 10
10.3628870443
 20
10.5223859972
 30
0.0
 10
10.3378292608
 20
10.5264321348
 30
0.0
 10
10.3135003816
 20
10.5307653261
 30
0.0
 10
10.2899495632
 20
10.5353767473
 30
0.0
 10
10.2672243643
 20
10.5402570042
 30
0.0
 10
10.2453706486
 20
10.5453961543
 30
0.0
 10
10.2244324783
 20
10.5507837286
 30
0.0
 10
10.2044520426
 20
10.5564087539
 30
0.0
 10
10.1854694722
 20
10.5622597813
 30
0.0
 10
10.1675230508
 20
10.5683249129
 30
0.0
 10
10.1532729097
 20
10.5736170477
 30
0.0
 10
10.142427083
 20
10.5779578996
 30
0.0
 10
10.1346851197
 20
10.581214902
 30
0.0
 10
10.1272281432
 20
10.5845160673
 30
0.0
 10
10.1200599037
 20
10.5878597948
 30
0.0
 10
10.1131839874
 20
10.5912443405
 30
0.0
 10
10.1066038633
 20
10.5946680684
 30
0.0
 10
10.1003228069
 20
10.5981292046
 30
0.0
 10
10.0943439745
 20
10.6016260645
 30
0.0
 10
10.0886703448
 20
10.6051568918
 30
0.0
 10
10.0833047388
 20
10.6087199314
 30
0.0
 10
10.0782498481
 20
10.6123134733
 30
0.0
 10
10.0735081517
 20
10.6159357079
 30
0.0
 10
10.0690820498
 20
10.6195849647
 30
0.0
 10
10.0649737102
 20
10.6232594291
 30
0.0
 10
10.0611852045
 20
10.6269574641
 30
0.0
 10
10.0577185198
 20
10.6306772074
 30
0.0
 10
10.0545751524
 20
10.6344174057
 30
0.0
 10
10.0508876857
 20
10.6393353352
 30
0.0
 10
10.0477564261
 20
10.6443858233
 30
0.0
 10
10.0452703421
 20
10.649544152
 30
0.0
 10
10.0437682613
 20
10.6533591211
 30
0.0
 10
10.0425985362
 20
10.6571833726
 30
0.0
 10
10.041762126
 20
10.661015049
 30
0.0
 10
10.0412599549
 20
10.6648514186
 30
0.0
 10
10.0411481612
 20
10.667414414
 30
0.0
 10
10.0411481614
 20
10.6686907489
 30
0.0
  0
SPLINE
  5
370
100
AcDbEntity
  8
0
100
AcDbSpline
 62
7
  6
CONTINUOUS
 70
0
 71
3
 72
18
 73
14
 74
0
 42
0.0000001
 43
0.0000001
 44
0.0000000001
 40
0.0
 40
0.0
 40
0.0
 40
0.0
 40
0.150467608
 40
0.291710008
 40
0.4244359371
 40
0.549562455
 40
0.6682139939
 40
0.7255497488
 40
0.7817912909
 40
0.8371402503
 40
0.8918093826
 40
0.9460201179
 40
1.0
 40
1.0
 40
1.0
 40
1.0
 10
12.7507406639
 20
9.6888851994
 30
0.0
 10
12.7527054919
 20
9.6907830776
 30
0.0
 10
12.756632358
 20
9.6943439856
 30
0.0
 10
12.7627130785
 20
9.6990895034
 30
0.0
 10
12.7687866568
 20
9.7030584152
 30
0.0
 10
12.7748468048
 20
9.7062442065
 30
0.0
 10
12.7799402925
 20
9.7082643577
 30
0.0
 10
12.7839842966
 20
9.7094646107
 30
0.0
 10
12.7869742235
 20
9.7101564195
 30
0.0
 10
12.7899542309
 20
9.7106494893
 30
0.0
 10
12.7929234841
 20
9.7109436458
 30
0.0
 10
12.7958808019
 20
9.7110387357
 30
0.0
 10
12.7978455588
 20
9.7109692445
 30
0.0
 10
12.7988232216
 20
9.7109014475
 30
0.0
  0
SPLINE
  5
371
100
AcDbEntity
  8
0
100
AcDbSpline
 62
7
  6
CONTINUOUS
 70
0
 71
3
 72
23
 73
19
 74
0
 42
0.0000001
 43
0.0000001
 44
0.0000000001
 40
0.0
 40
0.0
 40
0.0
 40
0.0
 40
0.0637774716
 40
0.1273446947
 40
0.1907020108
 40
0.2538561385
 40
0.3168131788
 40
0.379582097
 40
0.4421733871
 40
0.5045993393
 40
0.5668738666
 40
0.62901238
 40
0.6910316508
 40
0.7529496465
 40
0.8147853569
 40
0.8765586065
 40
0.938289857
 40
1.0
 40
1.0
 40
1.0
 40
1.0
 10
10.9290414265
 20
7.6138263193
 30
0.0
 10
10.9290414265
 20
7.6070376346
 30
0.0
 10
10.9287165085
 20
7.5934803439
 30
0.0
 10
10.9272499074
 20
7.5732268484
 30
0.0
 10
10.924808064
 20
7.5531339443
 30
0.0
 10
10.9213967302
 20
7.5332486954
 30
0.0
 10
10.9170236015
 20
7.5136166498
 30
0.0
 10
10.9116987695
 20
7.4942831596
 30
0.0
 10
10.9054344327
 20
7.4752927768
 30
0.0
 10
10.8982450031
 20
7.4566892989
 30
0.0
 10
10.8901470235
 20
7.4385156269
 30
0.0
 10
10.8811591329
 20
7.4208136774
 30
0.0
 10
10.8713020291
 20
7.4036242873
 30
0.0
 10
10.860598406
 20
7.386987104
 30
0.0
 10
10.8490729572
 20
7.3709405509
 30
0.0
 10
10.836752118
 20
7.3555215229
 30
0.0
 10
10.8236647935
 20
7.3407660673
 30
0.0
 10
10.8144472971
 20
7.3313924473
 30
0.0
 10
10.8097227809
 20
7.3268289108
 30
0.0
  0
SPLINE
  5
372
100
AcDbEntity
  8
0
100
AcDbSpline
 62
7
  6
CONTINUOUS
 70
0
 71
3
 72
21
 73
17
 74
0
 42
0.0000001
 43
0.0000001
 44
0.0000000001
 40
0.0
 40
0.0
 40
0.0
 40
0.0
 40
0.1273175725
 40
0.2538000026
 40
0.3167619332
 40
0.3795354925
 40
0.4421314982
 40
0.5045621433
 40
0.5668413429
 40
0.6289845306
 40
0.6910084612
 40
0.7529311022
 40
0.8147714553
 40
0.8765493457
 40
0.9382852283
 40
1.0
 40
1.0
 40
1.0
 40
1.0
 10
11.5530295473
 20
10.0462206006
 30
0.0
 10
11.5530295473
 20
10.0397222743
 30
0.0
 10
11.5524092399
 20
10.0267598838
 30
0.0
 10
11.5500665607
 20
10.010735567
 30
0.0
 10
11.5472665211
 20
9.9981658876
 30
0.0
 10
11.5447130337
 20
9.988894491
 30
0.0
 10
11.5417090478
 20
9.9797878217
 30
0.0
 10
11.5382614124
 20
9.9708666426
 30
0.0
 10
11.534378108
 20
9.9621515801
 30
0.0
 10
11.5300680656
 20
9.9536627163
 30
0.0
 10
11.5253411718
 20
9.9454196605
 30
0.0
 10
11.520208343
 20
9.9374414072
 30
0.0
 10
11.5146814352
 20
9.9297463695
 30
0.0
 10
11.5087730949
 20
9.9223522597
 30
0.0
 10
11.5024971779
 20
9.9152763731
 30
0.0
 10
11.4980770277
 20
9.9107812868
 30
0.0
 10
11.4958114247
 20
9.9085928706
 30
0.0
  0
SPLINE
  5
373
100
AcDbEntity
  8
0
100
AcDbSpline
 62
7
  6
CONTINUOUS
 70
0
 71
3
 72
21
 73
17
 74
0
 42
0.0000001
 43
0.0000001
 44
0.0000000001
 40
0.0
 40
0.0
 40
0.0
 40
0.0
 40
0.1273175725
 40
0.2538000026
 40
0.3167619332
 40
0.3795354925
 40
0.4421314982
 40
0.5045621433
 40
0.5668413429
 40
0.6289845306
 40
0.6910084612
 40
0.7529311022
 40
0.8147714553
 40
0.8765493457
 40
0.9382852283
 40
1.0
 40
1.0
 40
1.0
 40
1.0
 10
10.4663629283
 20
6.9823220651
 30
0.0
 10
10.4663629283
 20
6.9758237388
 30
0.0
 10
10.4657426209
 20
6.9628613483
 30
0.0
 10
10.4633999418
 20
6.9468370315
 30
0.0
 10
10.4605999021
 20
6.9342673522
 30
0.0
 10
10.4580464147
 20
6.9249959556
 30
0.0
 10
10.4550424288
 20
6.9158892863
 30
0.0
 10
10.4515947935
 20
6.9069681071
 30
0.0
 10
10.447711489
 20
6.8982530446
 30
0.0
 10
10.4434014467
 20
6.8897641809
 30
0.0
 10
10.4386745529
 20
6.881521125
 30
0.0
 10
10.4335417241
 20
6.8735428718
 30
0.0
 10
10.4280148163
 20
6.865847834
 30
0.0
 10
10.422106476
 20
6.8584537242
 30
0.0
 10
10.4158305589
 20
6.8513778376
 30
0.0
 10
10.4114104087
 20
6.8468827514
 30
0.0
 10
10.4091448058
 20
6.8446943351
 30
0.0
  0
SPLINE
  5
374
100
AcDbEntity
  8
0
100
AcDbSpline
 62
7
  6
CONTINUOUS
 70
0
 71
3
 72
38
 73
34
 74
0
 42
0.0000001
 43
0.0000001
 44
0.0000000001
 40
0.0
 40
0.0
 40
0.0
 40
0.0
 40
0.0322321139
 40
0.0641907844
 40
0.0958778433
 40
0.1273061021
 40
0.1585001554
 40
0.1894939979
 40
0.2203291011
 40
0.2510520415
 40
0.2817125042
 40
0.3123616429
 40
0.3430508372
 40
0.3738307291
 40
0.4047505235
 40
0.4358574304
 40
0.4671958872
 40
0.4988064602
 40
0.5629558043
 40
0.5955498831
 40
0.6284785661
 40
0.6617010429
 40
0.6951335942
 40
0.7286388101
 40
0.762021539
 40
0.7950383151
 40
0.827425407
 40
0.8589402021
 40
0.8894012343
 40
0.9187125835
 40
0.9468653097
 40
0.9739228221
 40
1.0
 40
1.0
 40
1.0
 40
1.0
 10
10.3902746939
 20
7.7684175871
 30
0.0
 10
10.3902746939
 20
7.7635337824
 30
0.0
 10
10.3906523989
 20
7.7538031366
 30
0.0
 10
10.3923606394
 20
7.7393619233
 30
0.0
 10
10.395184424
 20
7.7252201812
 30
0.0
 10
10.3990860598
 20
7.7114580495
 30
0.0
 10
10.4040165201
 20
7.6981425391
 30
0.0
 10
10.4099190513
 20
7.6853281424
 30
0.0
 10
10.4167324715
 20
7.6730564346
 30
0.0
 10
10.4243942898
 20
7.6613570936
 30
0.0
 10
10.4328431975
 20
7.6502493455
 30
0.0
 10
10.4420209416
 20
7.6397437259
 30
0.0
 10
10.4518735721
 20
7.6298439032
 30
0.0
 10
10.4623521173
 20
7.620548427
 30
0.0
 10
10.4734128673
 20
7.611852279
 30
0.0
 10
10.4850170367
 20
7.6037483534
 30
0.0
 10
10.4971309613
 20
7.5962283099
 30
0.0
 10
10.5140007814
 20
7.5869260399
 30
0.0
 10
10.5317137104
 20
7.5788116836
 30
0.0
 10
10.5500935402
 20
7.5718552284
 30
0.0
 10
10.564310173
 20
7.5671758123
 30
0.0
 10
10.5788344953
 20
7.5630709848
 30
0.0
 10
10.5936019748
 20
7.5595535339
 30
0.0
 10
10.6085252652
 20
7.5566412245
 30
0.0
 10
10.6234934777
 20
7.5543545468
 30
0.0
 10
10.6383759126
 20
7.5527137503
 30
0.0
 10
10.6530331401
 20
7.5517351449
 30
0.0
 10
10.6673328493
 20
7.551428193
 30
0.0
 10
10.6811654786
 20
7.5517944125
 30
0.0
 10
10.6944538952
 20
7.5528284896
 30
0.0
 10
10.7071552767
 20
7.5545212409
 30
0.0
 10
10.7192545919
 20
7.5568624116
 30
0.0
 10
10.7270544362
 20
7.558883983
 30
0.0
 10
10.730843832
 20
7.5600031514
 30
0.0
  0
SPLINE
  5
375
100
AcDbEntity
  8
0
100
AcDbSpline
 62
7
  6
CONTINUOUS
 70
0
 71
3
 72
15
 73
11
 74
0
 42
0.0000001
 43
0.0000001
 44
0.0000000001
 40
0.0
 40
0.0
 40
0.0
 40
0.0
 40
0.1264824136
 40
0.2527345216
 40
0.3786654446
 40
0.5041754704
 40
0.6291610865
 40
0.7535204514
 40
0.8771598516
 40
1.0
 40
1.0
 40
1.0
 40
1.0
 10
10.4162629044
 20
7.8679187838
 30
0.0
 10
10.4142021391
 20
7.8640551679
 30
0.0
 10
10.4102926056
 20
7.8562216337
 30
0.0
 10
10.405101111
 20
7.8441765675
 30
0.0
 10
10.4006250322
 20
7.8318826655
 30
0.0
 10
10.3969020813
 20
7.8193855055
 30
0.0
 10
10.3939661004
 20
7.8067358167
 30
0.0
 10
10.3918458062
 20
7.7939892111
 30
0.0
 10
10.3905631285
 20
7.7812061602
 30
0.0
 10
10.3902746939
 20
7.7726703359
 30
0.0
 10
10.3902746939
 20
7.7684175871
 30
0.0
  0
SPLINE
  5
376
100
AcDbEntity
  8
0
100
AcDbSpline
 62
7
  6
CONTINUOUS
 70
0
 71
3
 72
21
 73
17
 74
0
 42
0.0000001
 43
0.0000001
 44
0.0000000001
 40
0.0
 40
0.0
 40
0.0
 40
0.0
 40
0.12731758
 40
0.2538000122
 40
0.3167619425
 40
0.3795355005
 40
0.4421315041
 40
0.5045621466
 40
0.5668413435
 40
0.6289845285
 40
0.6910084568
 40
0.7529310961
 40
0.8147714484
 40
0.8765493394
 40
0.9382852242
 40
1.0
 40
1.0
 40
1.0
 40
1.0
 10
10.7470733881
 20
7.643058681
 30
0.0
 10
10.7470733881
 20
7.6358211616
 30
0.0
 10
10.7463825155
 20
7.6213842826
 30
0.0
 10
10.7437733366
 20
7.6035371815
 30
0.0
 10
10.7406547686
 20
7.58953769
 30
0.0
 10
10.7378108005
 20
7.5792116658
 30
0.0
 10
10.7344650862
 20
7.569069109
 30
0.0
 10
10.7306252538
 20
7.5591331445
 30
0.0
 10
10.7263001917
 20
7.5494267453
 30
0.0
 10
10.7214998472
 20
7.5399722782
 30
0.0
 10
10.7162352315
 20
7.5307915832
 30
0.0
 10
10.7105185032
 20
7.5219058158
 30
0.0
 10
10.7043628671
 20
7.5133354838
 30
0.0
 10
10.6977824085
 20
7.5051003144
 30
0.0
 10
10.6907925595
 20
7.4972195706
 30
0.0
 10
10.6858695855
 20
7.492213188
 30
0.0
 10
10.6833462542
 20
7.48977585
 30
0.0
  0
SPLINE
  5
377
100
AcDbEntity
  8
0
100
AcDbSpline
 62
7
  6
CONTINUOUS
 70
0
 71
3
 72
41
 73
37
 74
0
 42
0.0000001
 43
0.0000001
 44
0.0000000001
 40
0.0
 40
0.0
 40
0.0
 40
0.0
 40
0.0310750003
 40
0.046674464
 40
0.062312494
 40
0.0936974057
 40
0.1252262387
 40
0.1568876805
 40
0.1886675201
 40
0.2205491599
 40
0.2525139229
 40
0.268523588
 40
0.2845462912
 40
0.3166149974
 40
0.3487024468
 40
0.3807858411
 40
0.4128424624
 40
0.4448501254
 40
0.4767876212
 40
0.5086351486
 40
0.5403747235
 40
0.5719905626
 40
0.6034694315
 40
0.6348009518
 40
0.6659778585
 40
0.6969962
 40
0.7278554736
 40
0.7585586902
 40
0.7891123605
 40
0.8195263996
 40
0.849813947
 40
0.8799911023
 40
0.9100765789
 40
0.9400912834
 40
0.9700578297
 40
1.0
 40
1.0
 40
1.0
 40
1.0
 10
10.7470733881
 20
7.643058681
 30
0.0
 10
10.7470733881
 20
7.6486840467
 30
0.0
 10
10.7467589431
 20
7.6571375586
 30
0.0
 10
10.7457204497
 20
7.6683715731
 30
0.0
 10
10.7442653077
 20
7.6796163425
 30
0.0
 10
10.7416713515
 20
7.6936113088
 30
0.0
 10
10.7373446293
 20
7.7101908866
 30
0.0
 10
10.7318238527
 20
7.7264877119
 30
0.0
 10
10.725139434
 20
7.7424119113
 30
0.0
 10
10.7173284718
 20
7.7578758131
 30
0.0
 10
10.7099190503
 20
7.7703033589
 30
0.0
 10
10.7034744989
 20
7.7799329472
 30
0.0
 10
10.6966885103
 20
7.7893482661
 30
0.0
 10
10.6875931495
 20
7.8006756382
 30
0.0
 10
10.6757626657
 20
7.8134831529
 30
0.0
 10
10.663076432
 20
7.8254410154
 30
0.0
 10
10.6496043743
 20
7.8364831487
 30
0.0
 10
10.6354203369
 20
7.8465490287
 30
0.0
 10
10.6206021675
 20
7.855583321
 30
0.0
 10
10.6052311648
 20
7.8635363677
 30
0.0
 10
10.5893916732
 20
7.8703644091
 30
0.0
 10
10.5731706165
 20
7.8760298367
 30
0.0
 10
10.5566570307
 20
7.8805013972
 30
0.0
 10
10.539941581
 20
7.8837543674
 30
0.0
 10
10.5231160718
 20
7.8857706935
 30
0.0
 10
10.5062729491
 20
7.8865390964
 30
0.0
 10
10.4895047985
 20
7.8860551413
 30
0.0
 10
10.4729038413
 20
7.8843212715
 30
0.0
 10
10.4565614297
 20
7.8813468092
 30
0.0
 10
10.4405675421
 20
7.877147913
 30
0.0
 10
10.4250102932
 20
7.8717475081
 30
0.0
 10
10.4099754126
 20
7.865175143
 30
0.0
 10
10.3955458749
 20
7.857466947
 30
0.0
 10
10.3818010148
 20
7.8486650295
 30
0.0
 10
10.3688176236
 20
7.8388187757
 30
0.0
 10
10.3607139386
 20
7.8315912111
 30
0.0
 10
10.3568153568
 20
7.8278254902
 30
0.0
  0
SPLINE
  5
378
100
AcDbEntity
  8
0
100
AcDbSpline
 62
7
  6
CONTINUOUS
 70
0
 71
3
 72
18
 73
14
 74
0
 42
0.0000001
 43
0.0000001
 44
0.0000000001
 40
0.0
 40
0.0
 40
0.0
 40
0.0
 40
0.0548620589
 40
0.1099280789
 40
0.165399508
 40
0.2214731255
 40
0.2783387361
 40
0.3361775086
 40
0.4554063416
 40
0.5804417492
 40
0.7123343341
 40
0.8519577333
 40
1.0
 40
1.0
 40
1.0
 40
1.0
 10
11.3551481614
 20
10.668690749
 30
0.0
 10
11.3551481613
 20
10.6677628817
 30
0.0
 10
11.3550892591
 20
10.6659031647
 30
0.0
 10
11.3548244565
 20
10.6631166149
 30
0.0
 10
11.3543832695
 20
10.6603316708
 30
0.0
 10
11.3537658437
 20
10.6575493497
 30
0.0
 10
11.3529724184
 20
10.6547703539
 30
0.0
 10
11.3516674113
 20
10.6510333496
 30
0.0
 10
11.3495768121
 20
10.6463593577
 30
0.0
 10
11.3463947897
 20
10.6408393554
 30
0.0
 10
11.3425192589
 20
10.6353550827
 30
0.0
 10
11.3379561161
 20
10.6299120438
 30
0.0
 10
11.3345623359
 20
10.6264196728
 30
0.0
 10
11.3327614669
 20
10.6246801667
 30
0.0
  0
SPLINE
  5
379
100
AcDbEntity
  8
0
100
AcDbSpline
 62
7
  6
CONTINUOUS
 70
0
 71
3
 72
44
 73
40
 74
0
 42
0.0000001
 43
0.0000001
 44
0.0000000001
 40
0.0
 40
0.0
 40
0.0
 40
0.0
 40
0.0149722236
 40
0.0299475067
 40
0.0449288886
 40
0.0599193736
 40
0.0749219097
 40
0.08993937
 40
0.1049745397
 40
0.1200300961
 40
0.1351085917
 40
0.1502124449
 40
0.1804994096
 40
0.2109128633
 40
0.2414659442
 40
0.2721685685
 40
0.3030272475
 40
0.3340449904
 40
0.3652212956
 40
0.396552213
 40
0.4280304762
 40
0.4596457066
 40
0.4913846713
 40
0.5232315866
 40
0.555168468
 40
0.587175515
 40
0.6192315195
 40
0.6513142962
 40
0.6834011282
 40
0.7154692177
 40
0.7474961397
 40
0.7794602892
 40
0.8113413161
 40
0.8431205468
 40
0.8747813742
 40
0.9063096205
 40
0.9376938957
 40
0.9689255646
 40
1.0
 40
1.0
 40
1.0
 40
1.0
 10
10.1983452946
 20
7.9597724528
 30
0.0
 10
10.2019953688
 20
7.963298157
 30
0.0
 10
10.2094372757
 20
7.9702059648
 30
0.0
 10
10.2210043327
 20
7.9801169741
 30
0.0
 10
10.2329608605
 20
7.9895648501
 30
0.0
 10
10.2452901616
 20
7.9985363958
 30
0.0
 10
10.2579753703
 20
8.007019269
 30
0.0
 10
10.2709989724
 20
8.0150018291
 30
0.0
 10
10.2843430667
 20
8.0224731148
 30
0.0
 10
10.2979892398
 20
8.029422771
 30
0.0
 10
10.3119189662
 20
8.0358413856
 30
0.0
 10
10.3308589606
 20
8.0436858925
 30
0.0
 10
10.3551584323
 20
8.05212123
 30
0.0
 10
10.3851037309
 20
8.059982679
 30
0.0
 10
10.4157024849
 20
8.0655520018
 30
0.0
 10
10.4467850844
 20
8.0687983935
 30
0.0
 10
10.4781807937
 20
8.0697045354
 30
0.0
 10
10.5097168598
 20
8.0682658518
 30
0.0
 10
10.5412199564
 20
8.0644906378
 30
0.0
 10
10.5725169799
 20
8.0583999725
 30
0.0
 10
10.6034360485
 20
8.0500277017
 30
0.0
 10
10.6338074094
 20
8.0394201176
 30
0.0
 10
10.6634643419
 20
8.0266356964
 30
0.0
 10
10.6922441
 20
8.0117448788
 30
0.0
 10
10.7199887784
 20
7.994829615
 30
0.0
 10
10.7465461325
 20
7.9759828703
 30
0.0
 10
10.7717704386
 20
7.9553081872
 30
0.0
 10
10.7955233101
 20
7.9329191356
 30
0.0
 10
10.8176743839
 20
7.9089386164
 30
0.0
 10
10.8381020368
 20
7.8834982225
 30
0.0
 10
10.8566941288
 20
7.8567375872
 30
0.0
 10
10.8733485308
 20
7.8288035501
 30
0.0
 10
10.8879736597
 20
7.7998493601
 30
0.0
 10
10.900489075
 20
7.7700339192
 30
0.0
 10
10.9108258762
 20
7.7395208126
 30
0.0
 10
10.9189270326
 20
7.7084776673
 30
0.0
 10
10.9247476971
 20
7.6770743566
 30
0.0
 10
10.9282557113
 20
7.6454855611
 30
0.0
 10
10.9290414265
 20
7.6243589337
 30
0.0
 10
10.9290414265
 20
7.6138263193
 30
0.0
  0
SPLINE
  5
37A
100
AcDbEntity
  8
0
100
AcDbSpline
 62
7
  6
CONTINUOUS
 70
0
 71
3
 72
41
 73
37
 74
0
 42
0.0000001
 43
0.0000001
 44
0.0000000001
 40
0.0
 40
0.0
 40
0.0
 40
0.0
 40
0.0299421722
 40
0.0599087187
 40
0.0899234222
 40
0.1200088965
 40
0.1501860486
 40
0.1804735921
 40
0.2108876267
 40
0.2414412921
 40
0.2721445039
 40
0.3030037728
 40
0.3340221097
 40
0.3651990124
 40
0.3965305293
 40
0.4280093954
 40
0.4596252325
 40
0.4913648061
 40
0.523212333
 40
0.5551498293
 40
0.5871574933
 40
0.6192141165
 40
0.6512975132
 40
0.6833849656
 40
0.7154536753
 40
0.7314763803
 40
0.7474860474
 40
0.7794508144
 40
0.8113324582
 40
0.8431123019
 40
0.8747737477
 40
0.9063025846
 40
0.9376874998
 40
0.9533255315
 40
0.9689249968
 40
1.0
 40
1.0
 40
1.0
 40
1.0
 10
11.202626947
 20
10.2121169238
 30
0.0
 10
11.2061273649
 20
10.2154980862
 30
0.0
 10
11.2134034202
 20
10.2219875683
 30
0.0
 10
11.2250608267
 20
10.2308283247
 30
0.0
 10
11.2374019421
 20
10.2387313994
 30
0.0
 10
11.2503578173
 20
10.2456524502
 30
0.0
 10
11.26385722
 20
10.2515536676
 30
0.0
 10
11.2778256489
 20
10.2564026116
 30
0.0
 10
11.2921861295
 20
10.2601727509
 30
0.0
 10
11.3068595458
 20
10.2628435011
 30
0.0
 10
11.3217651081
 20
10.2644003536
 30
0.0
 10
11.3368207933
 20
10.2648349377
 30
0.0
 10
11.351943798
 20
10.2641450594
 30
0.0
 10
11.3670509917
 20
10.2623347004
 30
0.0
 10
11.3820593691
 20
10.2594139876
 30
0.0
 10
11.396886501
 20
10.2553991309
 30
0.0
 10
11.411450981
 20
10.2503123285
 30
0.0
 10
11.4256728657
 20
10.2441816418
 30
0.0
 10
11.4394741079
 20
10.2370408385
 30
0.0
 10
11.4527789767
 20
10.2289292092
 30
0.0
 10
11.4655144756
 20
10.2198913405
 30
0.0
 10
11.4776107069
 20
10.209976916
 30
0.0
 10
11.4890013671
 20
10.1992402785
 30
0.0
 10
11.4996236714
 20
10.1877407573
 30
0.0
 10
11.5077901757
 20
10.1775702129
 30
0.0
 10
11.513883151
 20
10.1691164483
 30
0.0
 10
11.5196695583
 20
10.1604702957
 30
0.0
 10
11.5263222995
 20
10.1493119296
 30
0.0
 10
11.5333355749
 20
10.1354272967
 30
0.0
 10
11.5393373541
 20
10.1211293727
 30
0.0
 10
11.5442943272
 20
10.106496876
 30
0.0
 10
11.5481791876
 20
10.0916105018
 30
0.0
 10
11.5505082389
 20
10.0790447827
 30
0.0
 10
11.5518147761
 20
10.0689483941
 30
0.0
 10
11.5527472146
 20
10.0588616621
 30
0.0
 10
11.5530295473
 20
10.0512714715
 30
0.0
 10
11.5530295473
 20
10.0462206006
 30
0.0
  0
SPLINE
  5
37B
100
AcDbEntity
  8
0
100
AcDbSpline
 62
7
  6
CONTINUOUS
 70
0
 71
3
 72
41
 73
37
 74
0
 42
0.0000001
 43
0.0000001
 44
0.0000000001
 40
0.0
 40
0.0
 40
0.0
 40
0.0
 40
0.0299421722
 40
0.0599087187
 40
0.0899234222
 40
0.1200088965
 40
0.1501860486
 40
0.1804735921
 40
0.2108876267
 40
0.2414412921
 40
0.2721445039
 40
0.3030037728
 40
0.3340221097
 40
0.3651990124
 40
0.3965305293
 40
0.4280093954
 40
0.4596252325
 40
0.4913648061
 40
0.523212333
 40
0.5551498293
 40
0.5871574933
 40
0.6192141165
 40
0.6512975132
 40
0.6833849656
 40
0.7154536753
 40
0.7314763803
 40
0.7474860474
 40
0.7794508144
 40
0.8113324582
 40
0.8431123019
 40
0.8747737477
 40
0.9063025846
 40
0.9376874998
 40
0.9533255315
 40
0.9689249968
 40
1.0
 40
1.0
 40
1.0
 40
1.0
 10
10.115960328
 20
7.1482183883
 30
0.0
 10
10.1194607459
 20
7.1515995507
 30
0.0
 10
10.1267368012
 20
7.1580890328
 30
0.0
 10
10.1383942077
 20
7.1669297892
 30
0.0
 10
10.1507353231
 20
7.174832864
 30
0.0
 10
10.1636911984
 20
7.1817539148
 30
0.0
 10
10.177190601
 20
7.1876551322
 30
0.0
 10
10.1911590299
 20
7.1925040761
 30
0.0
 10
10.2055195106
 20
7.1962742154
 30
0.0
 10
10.2201929268
 20
7.1989449656
 30
0.0
 10
10.2350984891
 20
7.2005018181
 30
0.0
 10
10.2501541743
 20
7.2009364022
 30
0.0
 10
10.2652771791
 20
7.200246524
 30
0.0
 10
10.2803843728
 20
7.1984361649
 30
0.0
 10
10.2953927501
 20
7.1955154521
 30
0.0
 10
10.310219882
 20
7.1915005954
 30
0.0
 10
10.324784362
 20
7.186413793
 30
0.0
 10
10.3390062467
 20
7.1802831063
 30
0.0
 10
10.352807489
 20
7.173142303
 30
0.0
 10
10.3661123578
 20
7.1650306737
 30
0.0
 10
10.3788478567
 20
7.1559928051
 30
0.0
 10
10.390944088
 20
7.1460783805
 30
0.0
 10
10.4023347481
 20
7.135341743
 30
0.0
 10
10.4129570524
 20
7.1238422218
 30
0.0
 10
10.4211235568
 20
7.1136716774
 30
0.0
 10
10.4272165321
 20
7.1052179128
 30
0.0
 10
10.4330029394
 20
7.0965717603
 30
0.0
 10
10.4396556805
 20
7.0854133941
 30
0.0
 10
10.4466689559
 20
7.0715287613
 30
0.0
 10
10.4526707351
 20
7.0572308372
 30
0.0
 10
10.4576277083
 20
7.0425983405
 30
0.0
 10
10.4615125686
 20
7.0277119664
 30
0.0
 10
10.4638416199
 20
7.0151462472
 30
0.0
 10
10.4651481571
 20
7.0050498587
 30
0.0
 10
10.4660805956
 20
6.9949631266
 30
0.0
 10
10.4663629283
 20
6.987372936
 30
0.0
 10
10.4663629283
 20
6.9823220651
 30
0.0
  0
SPLINE
  5
37C
100
AcDbEntity
  8
0
100
AcDbSpline
 62
7
  6
CONTINUOUS
 70
0
 71
3
 72
92
 73
88
 74
0
 42
0.0000001
 43
0.0000001
 44
0.0000000001
 40
0.0
 40
0.0
 40
0.0
 40
0.0
 40
0.0027164136
 40
0.0054531999
 40
0.0082302488
 40
0.0110665156
 40
0.0139797
 40
0.0169859759
 40
0.0200999097
 40
0.0233343921
 40
0.0267007085
 40
0.030208627
 40
0.0338664962
 40
0.0376814269
 40
0.0416593531
 40
0.0458052407
 40
0.0501231229
 40
0.0546162682
 40
0.0592872359
 40
0.0641379574
 40
0.0691698402
 40
0.0743837612
 40
0.0797802065
 40
0.0853592201
 40
0.0911205286
 40
0.0970635116
 40
0.1031872593
 40
0.1094906055
 40
0.1226297411
 40
0.1364672907
 40
0.1509859854
 40
0.1661657644
 40
0.1819840906
 40
0.1984162077
 40
0.2154353587
 40
0.2330129748
 40
0.2511188396
 40
0.2697212359
 40
0.2887870798
 40
0.3082820459
 40
0.3281706839
 40
0.3484165301
 40
0.3689822167
 40
0.3898295783
 40
0.4109197545
 40
0.4322132911
 40
0.4536702402
 40
0.4752502592
 40
0.4969127091
 40
0.5186167533
 40
0.5403214559
 40
0.56198588
 40
0.5835691848
 40
0.6050307242
 40
0.626330144
 40
0.6474274812
 40
0.6682832628
 40
0.6888586082
 40
0.7091153287
 40
0.729016031
 40
0.7485242218
 40
0.7676044158
 40
0.7862222477
 40
0.8043445896
 40
0.8219396778
 40
0.8389772466
 40
0.8554286739
 40
0.871267144
 40
0.8864678337
 40
0.9010081287
 40
0.9148678812
 40
0.9215371855
 40
0.928030107
 40
0.9343449535
 40
0.9404803007
 40
0.946434946
 40
0.9522079623
 40
0.9577987256
 40
0.9632069066
 40
0.9684325773
 40
0.9734761504
 40
0.9783385002
 40
0.9830209469
 40
0.987525443
 40
0.9918546017
 40
0.9960115601
 40
1.0
 40
1.0
 40
1.0
 40
1.0
 10
12.7026581062
 20
8.3242319732
 30
0.0
 10
12.7013609736
 20
8.324321924
 30
0.0
 10
12.6987636212
 20
8.3246198928
 30
0.0
 10
12.6949006513
 20
8.3254172612
 30
0.0
 10
12.6910668925
 20
8.3265649754
 30
0.0
 10
12.6872650337
 20
8.3280618136
 30
0.0
 10
12.6834970989
 20
8.3299065766
 30
0.0
 10
12.6797649546
 20
8.3320976956
 30
0.0
 10
12.6760703777
 20
8.3346337071
 30
0.0
 10
12.6724149733
 20
8.3375129451
 30
0.0
 10
12.66880033
 20
8.3407337474
 30
0.0
 10
12.6652280276
 20
8.3442943682
 30
0.0
 10
12.6616995766
 20
8.3481929123
 30
0.0
 10
12.6582166117
 20
8.3524274535
 30
0.0
 10
12.654780633
 20
8.356995828
 30
0.0
 10
12.6513933
 20
8.3618958246
 30
0.0
 10
12.6480561461
 20
8.3671249966
 30
0.0
 10
12.6447707946
 20
8.3726807894
 30
0.0
 10
12.641538826
 20
8.3785604613
 30
0.0
 10
12.6383617908
 20
8.3847611028
 30
0.0
 10
12.6352412962
 20
8.3912796621
 30
0.0
 10
12.6321788215
 20
8.3981128883
 30
0.0
 10
12.6291759537
 20
8.4052574061
 30
0.0
 10
12.6262341296
 20
8.4127096435
 30
0.0
 10
12.6233548615
 20
8.4204658972
 30
0.0
 10
12.6205395768
 20
8.4285222869
 30
0.0
 10
12.6177896598
 20
8.4368747994
 30
0.0
 10
12.6141619318
 20
8.4485628731
 30
0.0
 10
12.6098134429
 20
8.4638906813
 30
0.0
 10
12.604946732
 20
8.4831500122
 30
0.0
 10
12.6003718051
 20
8.5034829826
 30
0.0
 10
12.5960979452
 20
8.5248488328
 30
0.0
 10
12.5921338507
 20
8.5472048937
 30
0.0
 10
12.5884875878
 20
8.570506379
 30
0.0
 10
12.5851665771
 20
8.5947065765
 30
0.0
 10
12.5821775783
 20
8.6197569283
 30
0.0
 10
12.5795266757
 20
8.6456071434
 30
0.0
 10
12.5772192659
 20
8.6722053021
 30
0.0
 10
12.5752600478
 20
8.6994979653
 30
0.0
 10
12.5736530132
 20
8.7274302843
 30
0.0
 10
12.5724014399
 20
8.7559461129
 30
0.0
 10
12.571507883
 20
8.784988122
 30
0.0
 10
12.5709741714
 20
8.8144979175
 30
0.0
 10
12.5708014064
 20
8.8444161595
 30
0.0
 10
12.5709899588
 20
8.8746826831
 30
0.0
 10
12.5715394688
 20
8.90523662
 30
0.0
 10
12.5724488473
 20
8.9360165216
 30
0.0
 10
12.5737162778
 20
8.9669604822
 30
0.0
 10
12.5753392206
 20
8.9980062648
 30
0.0
 10
12.5773144151
 20
9.0290914264
 30
0.0
 10
12.5796378896
 20
9.0601534448
 30
0.0
 10
12.5823049687
 20
9.0911298453
 30
0.0
 10
12.5853102833
 20
9.1219583258
 30
0.0
 10
12.588647781
 20
9.1525768831
 30
0.0
 10
12.5923107383
 20
9.1829239373
 30
0.0
 10
12.5962917742
 20
9.2129384563
 30
0.0
 10
12.600582864
 20
9.2425600803
 30
0.0
 10
12.6051753538
 20
9.2717292441
 30
0.0
 10
12.6100599803
 20
9.3003872981
 30
0.0
 10
12.6152268888
 20
9.3284766263
 30
0.0
 10
12.6206656528
 20
9.3559407633
 30
0.0
 10
12.6263652946
 20
9.3827245094
 30
0.0
 10
12.6323143069
 20
9.4087740433
 30
0.0
 10
12.6385006767
 20
9.4340370335
 30
0.0
 10
12.6449119073
 20
9.4584627486
 30
0.0
 10
12.6515350433
 20
9.4820021627
 30
0.0
 10
12.6583567
 20
9.504608064
 30
0.0
 10
12.6653630906
 20
9.5262351344
 30
0.0
 10
12.6725400565
 20
9.5468401242
 30
0.0
 10
12.6798731009
 20
9.5663816905
 30
0.0
 10
12.6861798329
 20
9.5819408663
 30
0.0
 10
12.6913005466
 20
9.5938189395
 30
0.0
 10
12.6951216023
 20
9.6023233173
 30
0.0
 10
12.6989705588
 20
9.610533694
 30
0.0
 10
12.7028454718
 20
9.6184459767
 30
0.0
 10
12.7067444081
 20
9.6260562018
 30
0.0
 10
12.710665419
 20
9.6333605637
 30
0.0
 10
12.7146065126
 20
9.640355427
 30
0.0
 10
12.7185657686
 20
9.6470372885
 30
0.0
 10
12.7225411593
 20
9.6534028497
 30
0.0
 10
12.7265307729
 20
9.6594489155
 30
0.0
 10
12.7305325644
 20
9.6651725019
 30
0.0
 10
12.7345446
 20
9.6705707668
 30
0.0
 10
12.7385649401
 20
9.6756410755
 30
0.0
 10
12.7425916962
 20
9.6803809771
 30
0.0
 10
12.7466227501
 20
9.6847879005
 30
0.0
 10
12.7493675205
 20
9.6875588447
 30
0.0
 10
12.7507406639
 20
9.6888851994
 30
0.0
  0
SPLINE
  5
37D
100
AcDbEntity
  8
0
100
AcDbSpline
 62
7
  6
CONTINUOUS
 70
0
 71
3
 72
70
 73
66
 74
0
 42
0.0000001
 43
0.0000001
 44
0.0000000001
 40
0.0
 40
0.0
 40
0.0
 40
0.0
 40
0.0036899051
 40
0.0075220418
 40
0.0114998956
 40
0.0156263395
 40
0.0199037557
 40
0.0243340015
 40
0.0336576924
 40
0.0436054189
 40
0.0541792962
 40
0.0653772534
 40
0.0771937156
 40
0.0896201506
 40
0.1026454618
 40
0.1162562683
 40
0.1304371962
 40
0.1451710994
 40
0.1604392098
 40
0.1762212694
 40
0.1924956937
 40
0.2092396816
 40
0.2264292867
 40
0.2440395206
 40
0.2620444578
 40
0.2804173044
 40
0.2991304525
 40
0.318155576
 40
0.3374637049
 40
0.3768096073
 40
0.4169264479
 40
0.4575656647
 40
0.4984745241
 40
0.5393981564
 40
0.5800815765
 40
0.6202717029
 40
0.6597193762
 40
0.6790888282
 40
0.6981820735
 40
0.7169699851
 40
0.7354240887
 40
0.753516617
 40
0.7712205693
 40
0.7885098005
 40
0.8053591153
 40
0.8217443254
 40
0.8376423341
 40
0.8530312655
 40
0.8678905668
 40
0.882201107
 40
0.8959453254
 40
0.9091074363
 40
0.9216735959
 40
0.9336321327
 40
0.9449738746
 40
0.9556925405
 40
0.9657852172
 40
0.9705972752
 40
0.9752536194
 40
0.9797551075
 40
0.9841030311
 40
0.9882991542
 40
0.9923456263
 40
0.9962449315
 40
1.0
 40
1.0
 40
1.0
 40
1.0
 10
12.6509336876
 20
8.516071892
 30
0.0
 10
12.6501224177
 20
8.5170693901
 30
0.0
 10
12.6485106519
 20
8.5191373404
 30
0.0
 10
12.6461678503
 20
8.5223892939
 30
0.0
 10
12.643855776
 20
8.5258476929
 30
0.0
 10
12.6415753783
 20
8.5295110368
 30
0.0
 10
12.6393275682
 20
8.533377886
 30
0.0
 10
12.6363238874
 20
8.5388972512
 30
0.0
 10
12.6326675494
 20
8.5463068303
 30
0.0
 10
12.628496141
 20
8.5558365204
 30
0.0
 10
12.6244758914
 20
8.5661350787
 30
0.0
 10
12.6206133927
 20
8.5771856187
 30
0.0
 10
12.6169149862
 20
8.5889702396
 30
0.0
 10
12.6133868238
 20
8.6014696497
 30
0.0
 10
12.6100348056
 20
8.6146633345
 30
0.0
 10
12.6068645275
 20
8.6285295523
 30
0.0
 10
12.603881299
 20
8.6430454076
 30
0.0
 10
12.6010901325
 20
8.6581869013
 30
0.0
 10
12.5984957187
 20
8.673928966
 30
0.0
 10
12.5961023994
 20
8.6902455086
 30
0.0
 10
12.5939141928
 20
8.7071094709
 30
0.0
 10
12.5919347836
 20
8.7244928765
 30
0.0
 10
12.5901674914
 20
8.7423668704
 30
0.0
 10
12.588615275
 20
8.7607017714
 30
0.0
 10
12.5872807444
 20
8.7794671307
 30
0.0
 10
12.5861661507
 20
8.7986317813
 30
0.0
 10
12.5852733632
 20
8.8181638751
 30
0.0
 10
12.5846038587
 20
8.8380309841
 30
0.0
 10
12.5840067875
 20
8.8650923245
 30
0.0
 10
12.5838340196
 20
8.8995118338
 30
0.0
 10
12.5845260292
 20
8.9413588606
 30
0.0
 10
12.5861119564
 20
8.9837265593
 30
0.0
 10
12.5885813421
 20
9.0263334679
 30
0.0
 10
12.5919178583
 20
9.068896702
 30
0.0
 10
12.5960993067
 20
9.1111336732
 30
0.0
 10
12.6010978112
 20
9.1527637975
 30
0.0
 10
12.6059451195
 20
9.1869238801
 30
0.0
 10
12.6102139429
 20
9.2137346534
 30
0.0
 10
12.6135781032
 20
9.2333984911
 30
0.0
 10
12.6171185182
 20
9.2527071757
 30
0.0
 10
12.6208293026
 20
9.2716286537
 30
0.0
 10
12.6247042602
 20
9.290131488
 30
0.0
 10
12.6287369384
 20
9.3081849437
 30
0.0
 10
12.6329206166
 20
9.3257590379
 30
0.0
 10
12.6372483058
 20
9.3428245988
 30
0.0
 10
12.6417127852
 20
9.3593533031
 30
0.0
 10
12.6463066163
 20
9.3753177233
 30
0.0
 10
12.6510221298
 20
9.3906913894
 30
0.0
 10
12.6558514481
 20
9.4054488335
 30
0.0
 10
12.660786515
 20
9.4195656218
 30
0.0
 10
12.6658191111
 20
9.4330184054
 30
0.0
 10
12.670940836
 20
9.4457849802
 30
0.0
 10
12.6761431598
 20
9.4578443259
 30
0.0
 10
12.6814174446
 20
9.4691766107
 30
0.0
 10
12.686754983
 20
9.4797633454
 30
0.0
 10
12.6921469305
 20
9.4895871147
 30
0.0
 10
12.696748565
 20
9.4972418929
 30
0.0
 10
12.7004568555
 20
9.5029615956
 30
0.0
 10
12.7032018235
 20
9.50698227
 30
0.0
 10
12.705953704
 20
9.5108005985
 30
0.0
 10
12.7087114309
 20
9.5144150375
 30
0.0
 10
12.7114738849
 20
9.5178241577
 30
0.0
 10
12.7142400134
 20
9.5210265329
 30
0.0
 10
12.7170085138
 20
9.5240207227
 30
0.0
 10
12.7188899194
 20
9.5259123415
 30
0.0
 10
12.7198310349
 20
9.5268213893
 30
0.0
  0
SPLINE
  5
37E
100
AcDbEntity
  8
0
100
AcDbSpline
 62
7
  6
CONTINUOUS
 70
0
 71
3
 72
11
 73
7
 74
0
 42
0.0000001
 43
0.0000001
 44
0.0000000001
 40
0.0
 40
0.0
 40
0.0
 40
0.0
 40
0.245573719
 40
0.4929428202
 40
0.7438601116
 40
1.0
 40
1.0
 40
1.0
 40
1.0
 10
12.6431560189
 20
8.5438748546
 30
0.0
 10
12.6422716867
 20
8.5439361779
 30
0.0
 10
12.6405010452
 20
8.5441382708
 30
0.0
 10
12.6378672124
 20
8.5446772762
 30
0.0
 10
12.635253114
 20
8.5454519061
 30
0.0
 10
12.6335453428
 20
8.5461169782
 30
0.0
 10
12.6326975743
 20
8.5464859878
 30
0.0
  0
SPLINE
  5
37F
100
AcDbEntity
  8
0
100
AcDbSpline
 62
7
  6
CONTINUOUS
 70
0
 71
3
 72
11
 73
7
 74
0
 42
0.0000001
 43
0.0000001
 44
0.0000000001
 40
0.0
 40
0.0
 40
0.0
 40
0.0
 40
0.245566553
 40
0.4929310987
 40
0.7438502789
 40
1.0
 40
1.0
 40
1.0
 40
1.0
 10
12.7095727213
 20
9.5015745931
 30
0.0
 10
12.708687629
 20
9.5016359692
 30
0.0
 10
12.7069044956
 20
9.5016801851
 30
0.0
 10
12.7042191341
 20
9.5015095003
 30
0.0
 10
12.7015207877
 20
9.5011022151
 30
0.0
 10
12.6997360325
 20
9.500678438
 30
0.0
 10
12.6988446823
 20
9.5004295196
 30
0.0
  0
SPLINE
  5
380
100
AcDbEntity
  8
0
100
AcDbSpline
 62
7
  6
CONTINUOUS
 70
0
 71
3
 72
64
 73
60
 74
0
 42
0.0000001
 43
0.0000001
 44
0.0000000001
 40
0.0
 40
0.0
 40
0.0
 40
0.0
 40
0.0155849423
 40
0.031117901
 40
0.0465980248
 40
0.0620275802
 40
0.0774080885
 40
0.092741825
 40
0.1080315843
 40
0.1232805473
 40
0.1384923382
 40
0.1536709665
 40
0.1688207867
 40
0.1839464552
 40
0.1990528834
 40
0.2141451895
 40
0.2292286421
 40
0.2443086021
 40
0.2593904681
 40
0.27447962
 40
0.2895813603
 40
0.3047008548
 40
0.3198430804
 40
0.3350127757
 40
0.3502143898
 40
0.3654520353
 40
0.3807294495
 40
0.3960499624
 40
0.4114164624
 40
0.426831368
 40
0.4422966121
 40
0.4578136293
 40
0.4733833427
 40
0.4890061576
 40
0.5046819692
 40
0.520410168
 40
0.5361896463
 40
0.552018813
 40
0.5678956195
 40
0.5838175796
 40
0.5997817917
 40
0.6157849717
 40
0.6318234885
 40
0.6478933955
 40
0.6801016685
 40
0.7123819661
 40
0.7446952952
 40
0.7770015176
 40
0.8092607375
 40
0.8414347007
 40
0.8734881382
 40
0.8894641594
 40
0.9053988579
 40
0.9212891999
 40
0.9371326152
 40
0.9529269152
 40
0.9686701087
 40
0.9843619314
 40
1.0
 40
1.0
 40
1.0
 40
1.0
 10
10.7682865997
 20
7.6335490712
 30
0.0
 10
10.7682865997
 20
7.6293684077
 30
0.0
 10
10.768081975
 20
7.6210195439
 30
0.0
 10
10.7671584528
 20
7.6085488854
 30
0.0
 10
10.7656208234
 20
7.5961806105
 30
0.0
 10
10.7634729621
 20
7.5839451408
 30
0.0
 10
10.7607198759
 20
7.5718716874
 30
0.0
 10
10.7573682318
 20
7.5599894354
 30
0.0
 10
10.7534260941
 20
7.5483270121
 30
0.0
 10
10.7489028962
 20
7.5369125487
 30
0.0
 10
10.7438095219
 20
7.5257735786
 30
0.0
 10
10.7381582586
 20
7.5149369541
 30
0.0
 10
10.7319627099
 20
7.5044288142
 30
0.0
 10
10.7252377681
 20
7.4942745295
 30
0.0
 10
10.7179996546
 20
7.4844985902
 30
0.0
 10
10.7102658353
 20
7.4751245663
 30
0.0
 10
10.7020549485
 20
7.466175077
 30
0.0
 10
10.6933867689
 20
7.4576717386
 30
0.0
 10
10.6842822296
 20
7.4496350399
 30
0.0
 10
10.6747633008
 20
7.4420843512
 30
0.0
 10
10.6648529334
 20
7.4350378925
 30
0.0
 10
10.6545750231
 20
7.428512673
 30
0.0
 10
10.6439543879
 20
7.4225243852
 30
0.0
 10
10.6330166494
 20
7.4170874482
 30
0.0
 10
10.6217881783
 20
7.412214979
 30
0.0
 10
10.610296057
 20
7.4079187121
 30
0.0
 10
10.5985680138
 20
7.4042089481
 30
0.0
 10
10.5866323258
 20
7.401094603
 30
0.0
 10
10.574517761
 20
7.3985831905
 30
0.0
 10
10.5622535277
 20
7.3966807211
 30
0.0
 10
10.5498691888
 20
7.3953917229
 30
0.0
 10
10.5373945844
 20
7.3947192778
 30
0.0
 10
10.5248597702
 20
7.3946650121
 30
0.0
 10
10.5122949455
 20
7.3952289961
 30
0.0
 10
10.4997303728
 20
7.3964098259
 30
0.0
 10
10.4871963113
 20
7.3982046444
 30
0.0
 10
10.4747229496
 20
7.4006091297
 30
0.0
 10
10.4623403159
 20
7.4036174287
 30
0.0
 10
10.4500782165
 20
7.4072222679
 30
0.0
 10
10.4379661818
 20
7.411414966
 30
0.0
 10
10.4260333529
 20
7.4161854337
 30
0.0
 10
10.4143085167
 20
7.4215220792
 30
0.0
 10
10.4028196031
 20
7.4274122476
 30
0.0
 10
10.3878439963
 20
7.4359896071
 30
0.0
 10
10.3698542496
 20
7.448022935
 30
0.0
 10
10.3496597287
 20
7.4644034302
 30
0.0
 10
10.3310290348
 20
7.4825819463
 30
0.0
 10
10.3141423082
 20
7.5023831278
 30
0.0
 10
10.2991612269
 20
7.5236175234
 30
0.0
 10
10.2862304297
 20
7.5460799489
 30
0.0
 10
10.2772547459
 20
7.5656701999
 30
0.0
 10
10.2712176409
 20
7.5817369871
 30
0.0
 10
10.2672745836
 20
7.5939435357
 30
0.0
 10
10.2639218044
 20
7.6062881267
 30
0.0
 10
10.2611672497
 20
7.6187413804
 30
0.0
 10
10.2590176807
 20
7.6312731471
 30
0.0
 10
10.2574781519
 20
7.6438535581
 30
0.0
 10
10.2565525999
 20
7.6564516896
 30
0.0
 10
10.2563458814
 20
7.6648573659
 30
0.0
 10
10.2563458814
 20
7.6690522806
 30
0.0
  0
SPLINE
  5
381
100
AcDbEntity
  8
0
100
AcDbSpline
 62
7
  6
CONTINUOUS
 70
0
 71
3
 72
64
 73
60
 74
0
 42
0.0000001
 43
0.0000001
 44
0.0000000001
 40
0.0
 40
0.0
 40
0.0
 40
0.0
 40
0.0156380686
 40
0.0313298913
 40
0.0470730848
 40
0.0628673848
 40
0.0787108001
 40
0.0946011421
 40
0.1105358406
 40
0.1265118618
 40
0.1585652993
 40
0.1907392625
 40
0.2229984824
 40
0.2553047048
 40
0.2876180339
 40
0.3198983315
 40
0.3521066045
 40
0.3681765115
 40
0.3842150283
 40
0.4002182083
 40
0.4161824204
 40
0.4321043805
 40
0.447981187
 40
0.4638103537
 40
0.479589832
 40
0.4953180308
 40
0.5109938424
 40
0.5266166573
 40
0.5421863707
 40
0.5577033879
 40
0.573168632
 40
0.5885835376
 40
0.6039500376
 40
0.6192705505
 40
0.6345479647
 40
0.6497856102
 40
0.6649872243
 40
0.6801569196
 40
0.6952991452
 40
0.7104186397
 40
0.72552038
 40
0.7406095319
 40
0.7556913979
 40
0.7707713579
 40
0.7858548105
 40
0.8009471166
 40
0.8160535448
 40
0.8311792133
 40
0.8463290335
 40
0.8615076618
 40
0.8767194527
 40
0.8919684157
 40
0.907258175
 40
0.9225919115
 40
0.9379724198
 40
0.9534019752
 40
0.968882099
 40
0.9844150577
 40
1.0
 40
1.0
 40
1.0
 40
1.0
 10
10.7682865997
 20
7.6335490712
 30
0.0
 10
10.7682865997
 20
7.6377439858
 30
0.0
 10
10.7680798812
 20
7.6461496621
 30
0.0
 10
10.7671543292
 20
7.6587477937
 30
0.0
 10
10.7656148005
 20
7.6713282046
 30
0.0
 10
10.7634652315
 20
7.6838599713
 30
0.0
 10
10.7607106768
 20
7.696313225
 30
0.0
 10
10.7573578975
 20
7.708657816
 30
0.0
 10
10.7534148403
 20
7.7208643646
 30
0.0
 10
10.7473777352
 20
7.7369311518
 30
0.0
 10
10.7384020514
 20
7.7565214028
 30
0.0
 10
10.7254712543
 20
7.7789838283
 30
0.0
 10
10.710490173
 20
7.8002182239
 30
0.0
 10
10.6936034464
 20
7.8200194054
 30
0.0
 10
10.6749727525
 20
7.8381979215
 30
0.0
 10
10.6547782315
 20
7.8545784168
 30
0.0
 10
10.6367884848
 20
7.8666117446
 30
0.0
 10
10.6218128781
 20
7.8751891041
 30
0.0
 10
10.6103239645
 20
7.8810792725
 30
0.0
 10
10.5985991282
 20
7.886415918
 30
0.0
 10
10.5866662993
 20
7.8911863857
 30
0.0
 10
10.5745542646
 20
7.8953790838
 30
0.0
 10
10.5622921652
 20
7.8989839231
 30
0.0
 10
10.5499095315
 20
7.901992222
 30
0.0
 10
10.5374361699
 20
7.9043967074
 30
0.0
 10
10.5249021084
 20
7.9061915258
 30
0.0
 10
10.5123375356
 20
7.9073723556
 30
0.0
 10
10.4997727109
 20
7.9079363396
 30
0.0
 10
10.4872378967
 20
7.907882074
 30
0.0
 10
10.4747632923
 20
7.9072096288
 30
0.0
 10
10.4623789534
 20
7.9059206306
 30
0.0
 10
10.4501147202
 20
7.9040181612
 30
0.0
 10
10.4380001553
 20
7.9015067487
 30
0.0
 10
10.4260644674
 20
7.8983924036
 30
0.0
 10
10.4143364242
 20
7.8946826396
 30
0.0
 10
10.4028443029
 20
7.8903863727
 30
0.0
 10
10.3916158318
 20
7.8855139036
 30
0.0
 10
10.3806780932
 20
7.8800769665
 30
0.0
 10
10.3700574581
 20
7.8740886787
 30
0.0
 10
10.3597795478
 20
7.8675634592
 30
0.0
 10
10.3498691804
 20
7.8605170005
 30
0.0
 10
10.3403502515
 20
7.8529663118
 30
0.0
 10
10.3312457122
 20
7.8449296131
 30
0.0
 10
10.3225775327
 20
7.8364262748
 30
0.0
 10
10.3143666458
 20
7.8274767854
 30
0.0
 10
10.3066328265
 20
7.8181027615
 30
0.0
 10
10.2993947131
 20
7.8083268222
 30
0.0
 10
10.2926697712
 20
7.7981725375
 30
0.0
 10
10.2864742225
 20
7.7876643976
 30
0.0
 10
10.2808229592
 20
7.7768277731
 30
0.0
 10
10.275729585
 20
7.765688803
 30
0.0
 10
10.2712063871
 20
7.7542743396
 30
0.0
 10
10.2672642494
 20
7.7426119163
 30
0.0
 10
10.2639126053
 20
7.7307296643
 30
0.0
 10
10.2611595191
 20
7.7186562109
 30
0.0
 10
10.2590116578
 20
7.7064207412
 30
0.0
 10
10.2574740283
 20
7.6940524663
 30
0.0
 10
10.2565505062
 20
7.6815818078
 30
0.0
 10
10.2563458814
 20
7.6732329441
 30
0.0
 10
10.2563458814
 20
7.6690522806
 30
0.0
  0
SPLINE
  5
382
100
AcDbEntity
  8
0
100
AcDbSpline
 62
7
  6
CONTINUOUS
 70
0
 71
3
 72
21
 73
17
 74
0
 42
0.0000001
 43
0.0000001
 44
0.0000000001
 40
0.0
 40
0.0
 40
0.0
 40
0.0
 40
0.1273175725
 40
0.2538000026
 40
0.3167619332
 40
0.3795354925
 40
0.4421314982
 40
0.5045621433
 40
0.5668413429
 40
0.6289845306
 40
0.6910084612
 40
0.7529311022
 40
0.8147714553
 40
0.8765493457
 40
0.9382852283
 40
1.0
 40
1.0
 40
1.0
 40
1.0
 10
10.0587422055
 20
7.0105906583
 30
0.0
 10
10.0587422055
 20
7.0170889846
 30
0.0
 10
10.0593625129
 20
7.030051375
 30
0.0
 10
10.061705192
 20
7.0460756919
 30
0.0
 10
10.0645052317
 20
7.0586453712
 30
0.0
 10
10.0670587191
 20
7.0679167678
 30
0.0
 10
10.070062705
 20
7.0770234371
 30
0.0
 10
10.0735103403
 20
7.0859446162
 30
0.0
 10
10.0773936448
 20
7.0946596788
 30
0.0
 10
10.0817036871
 20
7.1031485425
 30
0.0
 10
10.0864305809
 20
7.1113915984
 30
0.0
 10
10.0915634097
 20
7.1193698516
 30
0.0
 10
10.0970903175
 20
7.1270648894
 30
0.0
 10
10.1029986578
 20
7.1344589992
 30
0.0
 10
10.1092745749
 20
7.1415348858
 30
0.0
 10
10.1136947251
 20
7.146029972
 30
0.0
 10
10.115960328
 20
7.1482183883
 30
0.0
  0
SPLINE
  5
383
100
AcDbEntity
  8
0
100
AcDbSpline
 62
7
  6
CONTINUOUS
 70
0
 71
3
 72
44
 73
40
 74
0
 42
0.0000001
 43
0.0000001
 44
0.0000000001
 40
0.0
 40
0.0
 40
0.0
 40
0.0
 40
0.0149722236
 40
0.0299475067
 40
0.0449288886
 40
0.0599193736
 40
0.0749219097
 40
0.08993937
 40
0.1049745397
 40
0.1200300961
 40
0.1351085917
 40
0.1502124449
 40
0.1804994096
 40
0.2109128633
 40
0.2414659442
 40
0.2721685685
 40
0.3030272475
 40
0.3340449904
 40
0.3652212956
 40
0.396552213
 40
0.4280304762
 40
0.4596457066
 40
0.4913846713
 40
0.5232315866
 40
0.555168468
 40
0.587175515
 40
0.6192315195
 40
0.6513142962
 40
0.6834011282
 40
0.7154692177
 40
0.7474961397
 40
0.7794602892
 40
0.8113413161
 40
0.8431205468
 40
0.8747813742
 40
0.9063096205
 40
0.9376938957
 40
0.9689255646
 40
1.0
 40
1.0
 40
1.0
 40
1.0
 10
10.8097227809
 20
7.3268289108
 30
0.0
 10
10.8060727067
 20
7.3233032066
 30
0.0
 10
10.7986307998
 20
7.3163953988
 30
0.0
 10
10.7870637428
 20
7.3064843895
 30
0.0
 10
10.775107215
 20
7.2970365134
 30
0.0
 10
10.7627779139
 20
7.2880649678
 30
0.0
 10
10.7500927052
 20
7.2795820945
 30
0.0
 10
10.7370691031
 20
7.2715995345
 30
0.0
 10
10.7237250089
 20
7.2641282488
 30
0.0
 10
10.7100788357
 20
7.2571785926
 30
0.0
 10
10.6961491094
 20
7.250759978
 30
0.0
 10
10.677209115
 20
7.2429154711
 30
0.0
 10
10.6529096433
 20
7.2344801336
 30
0.0
 10
10.6229643446
 20
7.2266186846
 30
0.0
 10
10.5923655906
 20
7.2210493618
 30
0.0
 10
10.5612829911
 20
7.21780297
 30
0.0
 10
10.5298872818
 20
7.2168968281
 30
0.0
 10
10.4983512158
 20
7.2183355118
 30
0.0
 10
10.4668481191
 20
7.2221107258
 30
0.0
 10
10.4355510956
 20
7.2282013911
 30
0.0
 10
10.4046320271
 20
7.2365736619
 30
0.0
 10
10.3742606661
 20
7.2471812459
 30
0.0
 10
10.3446037336
 20
7.2599656671
 30
0.0
 10
10.3158239755
 20
7.2748564847
 30
0.0
 10
10.2880792972
 20
7.2917717486
 30
0.0
 10
10.261521943
 20
7.3106184933
 30
0.0
 10
10.2362976369
 20
7.3312931764
 30
0.0
 10
10.2125447655
 20
7.353682228
 30
0.0
 10
10.1903936916
 20
7.3776627472
 30
0.0
 10
10.1699660387
 20
7.4031031411
 30
0.0
 10
10.1513739468
 20
7.4298637764
 30
0.0
 10
10.1347195448
 20
7.4577978135
 30
0.0
 10
10.1200944158
 20
7.4867520035
 30
0.0
 10
10.1075790005
 20
7.5165674444
 30
0.0
 10
10.0972421993
 20
7.547080551
 30
0.0
 10
10.0891410429
 20
7.5781236962
 30
0.0
 10
10.0833203784
 20
7.609527007
 30
0.0
 10
10.0798123642
 20
7.6411158024
 30
0.0
 10
10.079026649
 20
7.6622424299
 30
0.0
 10
10.079026649
 20
7.6727750443
 30
0.0
  0
SPLINE
  5
384
100
AcDbEntity
  8
0
100
AcDbSpline
 62
7
  6
CONTINUOUS
 70
0
 71
3
 72
39
 73
35
 74
0
 42
0.0000001
 43
0.0000001
 44
0.0000000001
 40
0.0
 40
0.0
 40
0.0
 40
0.0
 40
0.0299337048
 40
0.0599001886
 40
0.089922317
 40
0.1200216387
 40
0.1502178894
 40
0.1805285485
 40
0.2109684575
 40
0.2415495158
 40
0.2722804546
 40
0.3031666873
 40
0.3342102381
 40
0.3654097519
 40
0.3967605748
 40
0.4282548964
 40
0.4598819527
 40
0.4916282854
 40
0.5234780426
 40
0.5554133172
 40
0.5874145164
 40
0.6194607586
 40
0.6515302853
 40
0.683600886
 40
0.7156503294
 40
0.7476567948
 40
0.7795992972
 40
0.811458103
 40
0.8432151267
 40
0.8748543016
 40
0.9063619201
 40
0.9377270001
 40
0.9689411653
 40
1.0
 40
1.0
 40
1.0
 40
1.0
 10
10.8096055878
 20
7.3269562177
 30
0.0
 10
10.8021846846
 20
7.3202072357
 30
0.0
 10
10.7867970561
 20
7.3072798773
 30
0.0
 10
10.7622527206
 20
7.289748241
 30
0.0
 10
10.736364425
 20
7.2741586724
 30
0.0
 10
10.7092734438
 20
7.260596531
 30
0.0
 10
10.6811251851
 20
7.2491341345
 30
0.0
 10
10.6520713112
 20
7.2398330119
 30
0.0
 10
10.6222681462
 20
7.2327427953
 30
0.0
 10
10.5918759976
 20
7.2279012368
 30
0.0
 10
10.5610582349
 20
7.2253339859
 30
0.0
 10
10.5299804327
 20
7.2250544771
 30
0.0
 10
10.4988094774
 20
7.2270637976
 30
0.0
 10
10.4677126691
 20
7.2313507897
 30
0.0
 10
10.436856842
 20
7.2378921251
 30
0.0
 10
10.4064074815
 20
7.2466524161
 30
0.0
 10
10.3765278285
 20
7.2575843648
 30
0.0
 10
10.3473780352
 20
7.2706291043
 30
0.0
 10
10.3191143269
 20
7.2857165116
 30
0.0
 10
10.2918881604
 20
7.302765544
 30
0.0
 10
10.2658454039
 20
7.3216846574
 30
0.0
 10
10.2411256002
 20
7.3423723533
 30
0.0
 10
10.2178612352
 20
7.3647177134
 30
0.0
 10
10.1961769959
 20
7.3886009413
 30
0.0
 10
10.1761891085
 20
7.4138940122
 30
0.0
 10
10.1580047603
 20
7.4404613862
 30
0.0
 10
10.1417215368
 20
7.4681607186
 30
0.0
 10
10.1274268379
 20
7.4968435784
 30
0.0
 10
10.1151974406
 20
7.5263562431
 30
0.0
 10
10.1050991235
 20
7.5565405927
 30
0.0
 10
10.0971862955
 20
7.5872346928
 30
0.0
 10
10.0915017069
 20
7.6182745007
 30
0.0
 10
10.0880760322
 20
7.6494914175
 30
0.0
 10
10.0873088518
 20
7.6703671233
 30
0.0
 10
10.0873088518
 20
7.6807750384
 30
0.0
  0
SPLINE
  5
385
100
AcDbEntity
  8
0
100
AcDbSpline
 62
7
  6
CONTINUOUS
 70
0
 71
3
 72
41
 73
37
 74
0
 42
0.0000001
 43
0.0000001
 44
0.0000000001
 40
0.0
 40
0.0
 40
0.0
 40
0.0
 40
0.0299421703
 40
0.0599087166
 40
0.0899234211
 40
0.1200088977
 40
0.150186053
 40
0.1804736004
 40
0.2108876395
 40
0.2414413098
 40
0.2721445264
 40
0.3030038
 40
0.3340221415
 40
0.3651990482
 40
0.3965305685
 40
0.4280094374
 40
0.4596252765
 40
0.4913648514
 40
0.5232123788
 40
0.5551498746
 40
0.5871575376
 40
0.6192141589
 40
0.6512975532
 40
0.6833850026
 40
0.7154537088
 40
0.731476412
 40
0.7474860771
 40
0.7794508401
 40
0.8113324799
 40
0.8431123195
 40
0.8747737613
 40
0.9063025943
 40
0.937687506
 40
0.953325536
 40
0.9689249997
 40
1.0
 40
1.0
 40
1.0
 40
1.0
 10
10.6833462542
 20
7.48977585
 30
0.0
 10
10.6794476724
 20
7.4860101292
 30
0.0
 10
10.6713439875
 20
7.4787825646
 30
0.0
 10
10.6583605962
 20
7.4689363108
 30
0.0
 10
10.6446157361
 20
7.4601343932
 30
0.0
 10
10.6301861985
 20
7.4524261972
 30
0.0
 10
10.6151513178
 20
7.4458538321
 30
0.0
 10
10.5995940689
 20
7.4404534272
 30
0.0
 10
10.5836001813
 20
7.436254531
 30
0.0
 10
10.5672577697
 20
7.4332800687
 30
0.0
 10
10.5506568125
 20
7.4315461989
 30
0.0
 10
10.533888662
 20
7.4310622438
 30
0.0
 10
10.5170455392
 20
7.4318306467
 30
0.0
 10
10.50022003
 20
7.4338469729
 30
0.0
 10
10.4835045803
 20
7.437099943
 30
0.0
 10
10.4669909945
 20
7.4415715036
 30
0.0
 10
10.4507699379
 20
7.4472369311
 30
0.0
 10
10.4349304462
 20
7.4540649725
 30
0.0
 10
10.4195594436
 20
7.4620180192
 30
0.0
 10
10.4047412742
 20
7.4710523115
 30
0.0
 10
10.3905572368
 20
7.4811181915
 30
0.0
 10
10.377085179
 20
7.4921603248
 30
0.0
 10
10.3643989454
 20
7.5041181874
 30
0.0
 10
10.3525684615
 20
7.516925702
 30
0.0
 10
10.3434731007
 20
7.5282530741
 30
0.0
 10
10.3366871121
 20
7.537668393
 30
0.0
 10
10.3302425607
 20
7.5472979814
 30
0.0
 10
10.3228331393
 20
7.5597255271
 30
0.0
 10
10.315022177
 20
7.5751894289
 30
0.0
 10
10.3083377584
 20
7.5911136283
 30
0.0
 10
10.3028169817
 20
7.6074104536
 30
0.0
 10
10.2984902596
 20
7.6239900314
 30
0.0
 10
10.2958963033
 20
7.6379849978
 30
0.0
 10
10.2944411614
 20
7.6492297671
 30
0.0
 10
10.2934026679
 20
7.6604637816
 30
0.0
 10
10.2930882229
 20
7.6689172935
 30
0.0
 10
10.2930882229
 20
7.6745426592
 30
0.0
  0
SPLINE
  5
386
100
AcDbEntity
  8
0
100
AcDbSpline
 62
7
  6
CONTINUOUS
 70
0
 71
3
 72
18
 73
14
 74
0
 42
0.0000001
 43
0.0000001
 44
0.0000000001
 40
0.0
 40
0.0
 40
0.0
 40
0.0
 40
0.0548620589
 40
0.1099280789
 40
0.165399508
 40
0.2214731255
 40
0.2783387361
 40
0.3361775086
 40
0.4554063416
 40
0.5804417492
 40
0.7123343341
 40
0.8519577333
 40
1.0
 40
1.0
 40
1.0
 40
1.0
 10
10.0411481614
 20
10.6686907489
 30
0.0
 10
10.0411481615
 20
10.6696186162
 30
0.0
 10
10.0412070637
 20
10.6714783332
 30
0.0
 10
10.0414718663
 20
10.674264883
 30
0.0
 10
10.0419130533
 20
10.6770498271
 30
0.0
 10
10.0425304791
 20
10.6798321482
 30
0.0
 10
10.0433239044
 20
10.682611144
 30
0.0
 10
10.0446289115
 20
10.6863481483
 30
0.0
 10
10.0467195107
 20
10.6910221402
 30
0.0
 10
10.0499015331
 20
10.6965421425
 30
0.0
 10
10.0537770639
 20
10.7020264152
 30
0.0
 10
10.0583402067
 20
10.7074694541
 30
0.0
 10
10.0617339869
 20
10.7109618251
 30
0.0
 10
10.0635348559
 20
10.7127013312
 30
0.0
  0
SPLINE
  5
387
100
AcDbEntity
  8
0
100
AcDbSpline
 62
7
  6
CONTINUOUS
 70
0
 71
3
 72
9
 73
5
 74
0
 42
0.0000001
 43
0.0000001
 44
0.0000000001
 40
0.0
 40
0.0
 40
0.0
 40
0.0
 40
0.4862217708
 40
1.0
 40
1.0
 40
1.0
 40
1.0
 10
10.054273172
 20
10.6348951546
 30
0.0
 10
10.0556511668
 20
10.6366525813
 30
0.0
 10
10.0586281809
 20
10.6401564017
 30
0.0
 10
10.0618375434
 20
10.6434470412
 30
0.0
 10
10.0635348559
 20
10.6450865193
 30
0.0
  0
SPLINE
  5
388
100
AcDbEntity
  8
0
100
AcDbSpline
 62
7
  6
CONTINUOUS
 70
0
 71
3
 72
23
 73
19
 74
0
 42
0.0000001
 43
0.0000001
 44
0.0000000001
 40
0.0
 40
0.0
 40
0.0
 40
0.0
 40
0.061689847
 40
0.1234110747
 40
0.1851828804
 40
0.247023984
 40
0.3089524534
 40
0.3709855351
 40
0.4331394952
 40
0.4954294722
 40
0.5578693431
 40
0.6204716283
 40
0.6832473346
 40
0.7462059129
 40
0.8093553883
 40
0.8727009797
 40
0.936249534
 40
1.0
 40
1.0
 40
1.0
 40
1.0
 10
10.1984727073
 20
7.959655244
 30
0.0
 10
10.194054023
 20
7.9551227742
 30
0.0
 10
10.1854376497
 20
7.9458347598
 30
0.0
 10
10.1732157228
 20
7.9312759307
 30
0.0
 10
10.1617190348
 20
7.9161177971
 30
0.0
 10
10.1509726144
 20
7.9003932626
 30
0.0
 10
10.1409993354
 20
7.8841358881
 30
0.0
 10
10.1318205653
 20
7.8673805174
 30
0.0
 10
10.1234559393
 20
7.8501630147
 30
0.0
 10
10.1159233305
 20
7.832520256
 30
0.0
 10
10.1092388183
 20
7.81449002
 30
0.0
 10
10.1034166786
 20
7.7961109052
 30
0.0
 10
10.0984693418
 20
7.7774222555
 30
0.0
 10
10.0944073614
 20
7.7584640387
 30
0.0
 10
10.0912394356
 20
7.7392769333
 30
0.0
 10
10.088972158
 20
7.7199016847
 30
0.0
 10
10.0876105494
 20
7.7003804905
 30
0.0
 10
10.0873088518
 20
7.6873164096
 30
0.0
 10
10.0873088518
 20
7.6807750384
 30
0.0
  0
SPLINE
  5
389
100
AcDbEntity
  8
0
100
AcDbSpline
 62
7
  6
CONTINUOUS
 70
0
 71
3
 72
21
 73
17
 74
0
 42
0.0000001
 43
0.0000001
 44
0.0000000001
 40
0.0
 40
0.0
 40
0.0
 40
0.0
 40
0.0617147758
 40
0.1234506606
 40
0.1852285516
 40
0.2470689039
 40
0.3089915432
 40
0.3710154715
 40
0.4331586565
 40
0.4954378534
 40
0.5578684959
 40
0.6204644995
 40
0.6832380575
 40
0.7461999878
 40
0.87268242
 40
1.0
 40
1.0
 40
1.0
 40
1.0
 10
10.3568153568
 20
7.8278254902
 30
0.0
 10
10.3542920255
 20
7.8253881523
 30
0.0
 10
10.3493690515
 20
7.8203817697
 30
0.0
 10
10.3423792025
 20
7.8125010258
 30
0.0
 10
10.3357987439
 20
7.8042658565
 30
0.0
 10
10.3296431078
 20
7.7956955244
 30
0.0
 10
10.3239263795
 20
7.7868097571
 30
0.0
 10
10.3186617639
 20
7.777629062
 30
0.0
 10
10.3138614194
 20
7.768174595
 30
0.0
 10
10.3095363573
 20
7.7584681958
 30
0.0
 10
10.3056965249
 20
7.7485322312
 30
0.0
 10
10.3023508105
 20
7.7383896744
 30
0.0
 10
10.2995068424
 20
7.7280636502
 30
0.0
 10
10.2963882745
 20
7.7140641587
 30
0.0
 10
10.2937790956
 20
7.6962170576
 30
0.0
 10
10.2930882229
 20
7.6817801786
 30
0.0
 10
10.2930882229
 20
7.6745426592
 30
0.0
  0
SPLINE
  5
38A
100
AcDbEntity
  8
0
100
AcDbSpline
 62
7
  6
CONTINUOUS
 70
0
 71
3
 72
41
 73
37
 74
0
 42
0.0000001
 43
0.0000001
 44
0.0000000001
 40
0.0
 40
0.0
 40
0.0
 40
0.0
 40
0.0299421722
 40
0.0599087187
 40
0.0899234222
 40
0.1200088965
 40
0.1501860486
 40
0.1804735921
 40
0.2108876267
 40
0.2414412921
 40
0.2721445039
 40
0.3030037728
 40
0.3340221097
 40
0.3651990124
 40
0.3965305293
 40
0.4280093954
 40
0.4596252325
 40
0.4913648061
 40
0.523212333
 40
0.5551498293
 40
0.5871574933
 40
0.6192141165
 40
0.6512975132
 40
0.6833849656
 40
0.7154536753
 40
0.7314763803
 40
0.7474860474
 40
0.7794508144
 40
0.8113324582
 40
0.8431123019
 40
0.8747737477
 40
0.9063025846
 40
0.9376874998
 40
0.9533255315
 40
0.9689249968
 40
1.0
 40
1.0
 40
1.0
 40
1.0
 10
11.4958114247
 20
9.9085928706
 30
0.0
 10
11.4923110068
 20
9.9052117082
 30
0.0
 10
11.4850349515
 20
9.8987222261
 30
0.0
 10
11.473377545
 20
9.8898814696
 30
0.0
 10
11.4610364296
 20
9.8819783949
 30
0.0
 10
11.4480805544
 20
9.8750573441
 30
0.0
 10
11.4345811517
 20
9.8691561267
 30
0.0
 10
11.4206127228
 20
9.8643071828
 30
0.0
 10
11.4062522422
 20
9.8605370435
 30
0.0
 10
11.3915788259
 20
9.8578662932
 30
0.0
 10
11.3766732636
 20
9.8563094407
 30
0.0
 10
11.3616175784
 20
9.8558748566
 30
0.0
 10
11.3464945737
 20
9.8565647349
 30
0.0
 10
11.33138738
 20
9.8583750939
 30
0.0
 10
11.3163790026
 20
9.8612958067
 30
0.0
 10
11.3015518707
 20
9.8653106635
 30
0.0
 10
11.2869873907
 20
9.8703974659
 30
0.0
 10
11.272765506
 20
9.8765281525
 30
0.0
 10
11.2589642638
 20
9.8836689559
 30
0.0
 10
11.245659395
 20
9.8917805851
 30
0.0
 10
11.2329238961
 20
9.9008184538
 30
0.0
 10
11.2208276648
 20
9.9107328783
 30
0.0
 10
11.2094370046
 20
9.9214695158
 30
0.0
 10
11.1988147003
 20
9.932969037
 30
0.0
 10
11.190648196
 20
9.9431395814
 30
0.0
 10
11.1845552207
 20
9.9515933461
 30
0.0
 10
11.1787688134
 20
9.9602394986
 30
0.0
 10
11.1721160722
 20
9.9713978648
 30
0.0
 10
11.1651027968
 20
9.9852824976
 30
0.0
 10
11.1591010176
 20
9.9995804216
 30
0.0
 10
11.1541440445
 20
10.0142129183
 30
0.0
 10
11.1502591841
 20
10.0290992925
 30
0.0
 10
11.1479301328
 20
10.0416650116
 30
0.0
 10
11.1466235956
 20
10.0517614002
 30
0.0
 10
11.1456911571
 20
10.0618481322
 30
0.0
 10
11.1454088244
 20
10.0694383228
 30
0.0
 10
11.1454088244
 20
10.0744891937
 30
0.0
  0
SPLINE
  5
38B
100
AcDbEntity
  8
0
100
AcDbSpline
 62
7
  6
CONTINUOUS
 70
0
 71
3
 72
87
 73
83
 74
0
 42
0.0000001
 43
0.0000001
 44
0.0000000001
 40
0.0
 40
0.0
 40
0.0
 40
0.0
 40
0.0039038403
 40
0.0079674255
 40
0.0121941626
 40
0.016586958
 40
0.0211482667
 40
0.0258799888
 40
0.0307834155
 40
0.0358594358
 40
0.0411085207
 40
0.0465308116
 40
0.0521261289
 40
0.0578939646
 40
0.0638335868
 40
0.0699439698
 40
0.0826715633
 40
0.0960648831
 40
0.1101087144
 40
0.1247852803
 40
0.1400745285
 40
0.155954364
 40
0.1724008446
 40
0.1893883571
 40
0.2068897666
 40
0.2248765477
 40
0.2433189045
 40
0.2621858786
 40
0.281445453
 40
0.3010646557
 40
0.3210096552
 40
0.3412458516
 40
0.361737966
 40
0.3824501265
 40
0.4033459565
 40
0.4243886633
 40
0.4455411225
 40
0.4880250202
 40
0.5304978534
 40
0.5516365071
 40
0.5726599301
 40
0.5935310406
 40
0.6142131006
 40
0.6346698036
 40
0.6548653612
 40
0.6747645885
 40
0.694332992
 40
0.7135368589
 40
0.7323433507
 40
0.7507206031
 40
0.7686378238
 40
0.7860653958
 40
0.8029749885
 40
0.8193396798
 40
0.8351340917
 40
0.8503345481
 40
0.8649192426
 40
0.87886844
 40
0.8921647182
 40
0.9047932652
 40
0.9108535203
 40
0.9167426952
 40
0.9224598427
 40
0.9280042866
 40
0.9333756342
 40
0.9385737642
 40
0.9435989354
 40
0.9484517273
 40
0.9531331656
 40
0.9576447181
 40
0.9619883537
 40
0.9661666481
 40
0.9701827792
 40
0.9740406984
 40
0.9777451463
 40
0.9813017977
 40
0.9847173716
 40
0.9879997065
 40
0.991157939
 40
0.994202535
 40
0.9971454229
 40
1.0
 40
1.0
 40
1.0
 40
1.0
 10
12.7198310349
 20
8.3483918114
 30
0.0
 10
12.7211600565
 20
8.3496755478
 30
0.0
 10
12.7238167383
 20
8.3523537759
 30
0.0
 10
12.7277210656
 20
8.3566062933
 30
0.0
 10
12.7316215119
 20
8.3611713174
 30
0.0
 10
12.7355161123
 20
8.3660465201
 30
0.0
 10
12.7394031691
 20
8.371229666
 30
0.0
 10
12.7432808958
 20
8.3767184055
 30
0.0
 10
12.7471475679
 20
8.3825101699
 30
0.0
 10
12.7510013152
 20
8.3886022833
 30
0.0
 10
12.7548403784
 20
8.3949918779
 30
0.0
 10
12.7586629552
 20
8.4016759776
 30
0.0
 10
12.7624672409
 20
8.408651466
 30
0.0
 10
12.7662514855
 20
8.4159150609
 30
0.0
 10
12.7700138805
 20
8.4234633835
 30
0.0
 10
12.7750677199
 20
8.4340469065
 30
0.0
 10
12.7813069332
 20
8.4479713897
 30
0.0
 10
12.788580951
 20
8.4655380673
 30
0.0
 10
12.795726383
 20
8.4841489529
 30
0.0
 10
12.8027297019
 20
8.5037690611
 30
0.0
 10
12.809577645
 20
8.524361668
 30
0.0
 10
12.8162572339
 20
8.5458880975
 30
0.0
 10
12.8227558131
 20
8.5683078876
 30
0.0
 10
12.829061067
 20
8.5915788559
 30
0.0
 10
12.8351610479
 20
8.6156571939
 30
0.0
 10
12.8410441983
 20
8.6404975528
 30
0.0
 10
12.8466993725
 20
8.6660531309
 30
0.0
 10
12.8521158602
 20
8.692275762
 30
0.0
 10
12.8572834098
 20
8.7191160089
 30
0.0
 10
12.8621922408
 20
8.7465232616
 30
0.0
 10
12.8668330639
 20
8.7744458355
 30
0.0
 10
12.8711970987
 20
8.8028310702
 30
0.0
 10
12.8752760874
 20
8.8316254262
 30
0.0
 10
12.8790623183
 20
8.8607745905
 30
0.0
 10
12.8825486288
 20
8.8902235635
 30
0.0
 10
12.8857284575
 20
8.919916827
 30
0.0
 10
12.8895568205
 20
8.9598147785
 30
0.0
 10
12.8935341897
 20
9.0098851612
 30
0.0
 10
12.896426086
 20
9.0600234079
 30
0.0
 10
12.8980762514
 20
9.1000497132
 30
0.0
 10
12.8989761006
 20
9.1298718206
 30
0.0
 10
12.8995384716
 20
9.1594860267
 30
0.0
 10
12.8997622911
 20
9.188836503
 30
0.0
 10
12.8996471603
 20
9.217867869
 30
0.0
 10
12.8991933167
 20
9.2465253638
 30
0.0
 10
12.898401641
 20
9.274754932
 30
0.0
 10
12.8972736536
 20
9.3025033292
 30
0.0
 10
12.8958115128
 20
9.3297182218
 30
0.0
 10
12.8940180103
 20
9.3563482895
 30
0.0
 10
12.8918965736
 20
9.3823433253
 30
0.0
 10
12.8894512541
 20
9.4076543318
 30
0.0
 10
12.8866867188
 20
9.4322336138
 30
0.0
 10
12.8836082425
 20
9.4560348695
 30
0.0
 10
12.8802216973
 20
9.479013282
 30
0.0
 10
12.8765335416
 20
9.5011256106
 30
0.0
 10
12.8725508151
 20
9.5223302888
 30
0.0
 10
12.8682811143
 20
9.5425874852
 30
0.0
 10
12.8637325821
 20
9.561859272
 30
0.0
 10
12.858913862
 20
9.5801094113
 30
0.0
 10
12.8546239618
 20
9.5946309411
 30
0.0
 10
12.8510539868
 20
9.6057034493
 30
0.0
 10
12.8483514865
 20
9.6136171654
 30
0.0
 10
12.8455884426
 20
9.6212508223
 30
0.0
 10
12.8427661304
 20
9.6286008527
 30
0.0
 10
12.8398859096
 20
9.6356638203
 30
0.0
 10
12.8369490749
 20
9.6424364094
 30
0.0
 10
12.8339570613
 20
9.6489154768
 30
0.0
 10
12.8309112043
 20
9.6550979869
 30
0.0
 10
12.8278129466
 20
9.6609810744
 30
0.0
 10
12.8246637144
 20
9.6665620116
 30
0.0
 10
12.8214649091
 20
9.6718381953
 30
0.0
 10
12.818218039
 20
9.6768072159
 30
0.0
 10
12.8149244829
 20
9.6814667387
 30
0.0
 10
12.8115857538
 20
9.6858146416
 30
0.0
 10
12.8082032668
 20
9.689848887
 30
0.0
 10
12.8047784576
 20
9.6935675747
 30
0.0
 10
12.8013128034
 20
9.6969689669
 30
0.0
 10
12.7978076587
 20
9.7000513338
 30
0.0
 10
12.7942645531
 20
9.7028131564
 30
0.0
 10
12.7906847945
 20
9.7052529046
 30
0.0
 10
12.7870702242
 20
9.7073690292
 30
0.0
 10
12.7846042709
 20
9.7085798191
 30
0.0
 10
12.7833689995
 20
9.7091272438
 30
0.0
  0
SPLINE
  5
38C
100
AcDbEntity
  8
0
100
AcDbSpline
 62
7
  6
CONTINUOUS
 70
0
 71
3
 72
15
 73
11
 74
0
 42
0.0000001
 43
0.0000001
 44
0.0000000001
 40
0.0
 40
0.0
 40
0.0
 40
0.0
 40
0.1436988085
 40
0.2813769277
 40
0.4132964992
 40
0.5397819727
 40
0.6612190335
 40
0.7780521533
 40
0.8907882877
 40
1.0
 40
1.0
 40
1.0
 40
1.0
 10
12.7198310349
 20
8.3483918114
 30
0.0
 10
12.7184881661
 20
8.3470946996
 30
0.0
 10
12.7158033706
 20
8.3446111481
 30
0.0
 10
12.7116892638
 20
8.3411568333
 30
0.0
 10
12.7075782294
 20
8.3380569942
 30
0.0
 10
12.7034723958
 20
8.3353135368
 30
0.0
 10
12.6993736329
 20
8.3329280388
 30
0.0
 10
12.695283688
 20
8.3309019973
 30
0.0
 10
12.6912049235
 20
8.3292369245
 30
0.0
 10
12.6884552457
 20
8.3283559921
 30
0.0
 10
12.6870870955
 20
8.3279797165
 30
0.0
  0
SPLINE
  5
38D
100
AcDbEntity
  8
0
100
AcDbSpline
 62
7
  6
CONTINUOUS
 70
0
 71
3
 72
28
 73
24
 74
0
 42
0.0000001
 43
0.0000001
 44
0.0000000001
 40
0.0
 40
0.0
 40
0.0
 40
0.0
 40
0.0755865963
 40
0.1466184767
 40
0.2134342721
 40
0.2764743415
 40
0.3362782293
 40
0.3934901579
 40
0.4213681045
 40
0.4488864282
 40
0.476151598
 40
0.5032733404
 40
0.5303632319
 40
0.5575333204
 40
0.5848945514
 40
0.6125553576
 40
0.6406204677
 40
0.6691896304
 40
0.728186774
 40
0.7902486338
 40
0.8559435843
 40
0.9257367535
 40
1.0
 40
1.0
 40
1.0
 40
1.0
 10
12.7198310349
 20
8.5125992116
 30
0.0
 10
12.7183718991
 20
8.5111897945
 30
0.0
 10
12.7154556106
 20
8.508542494
 30
0.0
 10
12.7109423296
 20
8.5050059113
 30
0.0
 10
12.7064344159
 20
8.5020356602
 30
0.0
 10
12.7019357711
 20
8.4996362614
 30
0.0
 10
12.6974507849
 20
8.4978119637
 30
0.0
 10
12.6936946851
 20
8.4967658497
 30
0.0
 10
12.6907183949
 20
8.4962306282
 30
0.0
 10
12.6885127181
 20
8.4959775457
 30
0.0
 10
12.6863155312
 20
8.4958696699
 30
0.0
 10
12.6841274735
 20
8.4959069919
 30
0.0
 10
12.6819492832
 20
8.4960895488
 30
0.0
 10
12.6797816833
 20
8.4964173106
 30
0.0
 10
12.6776253741
 20
8.4968900957
 30
0.0
 10
12.6754810513
 20
8.4975076907
 30
0.0
 10
12.6733493322
 20
8.4982699297
 30
0.0
 10
12.6704946189
 20
8.4994914275
 30
0.0
 10
12.6669491521
 20
8.5013973026
 30
0.0
 10
12.6628060161
 20
8.5042328267
 30
0.0
 10
12.658731112
 20
8.5076364526
 30
0.0
 10
12.6547282569
 20
8.511603004
 30
0.0
 10
12.6521913092
 20
8.5145255816
 30
0.0
 10
12.6509336876
 20
8.516071892
 30
0.0
  0
SPLINE
  5
38E
100
AcDbEntity
  8
0
100
AcDbSpline
 62
7
  6
CONTINUOUS
 70
0
 71
3
 72
41
 73
37
 74
0
 42
0.0000001
 43
0.0000001
 44
0.0000000001
 40
0.0
 40
0.0
 40
0.0
 40
0.0
 40
0.0299421722
 40
0.0599087187
 40
0.0899234222
 40
0.1200088965
 40
0.1501860486
 40
0.1804735921
 40
0.2108876267
 40
0.2414412921
 40
0.2721445039
 40
0.3030037728
 40
0.3340221097
 40
0.3651990124
 40
0.3965305293
 40
0.4280093954
 40
0.4596252325
 40
0.4913648061
 40
0.523212333
 40
0.5551498293
 40
0.5871574933
 40
0.6192141165
 40
0.6512975132
 40
0.6833849656
 40
0.7154536753
 40
0.7314763803
 40
0.7474860474
 40
0.7794508144
 40
0.8113324582
 40
0.8431123019
 40
0.8747737477
 40
0.9063025846
 40
0.9376874998
 40
0.9533255315
 40
0.9689249968
 40
1.0
 40
1.0
 40
1.0
 40
1.0
 10
10.4091448058
 20
6.8446943351
 30
0.0
 10
10.4056443878
 20
6.8413131727
 30
0.0
 10
10.3983683326
 20
6.8348236906
 30
0.0
 10
10.386710926
 20
6.8259829342
 30
0.0
 10
10.3743698107
 20
6.8180798594
 30
0.0
 10
10.3614139354
 20
6.8111588086
 30
0.0
 10
10.3479145328
 20
6.8052575912
 30
0.0
 10
10.3339461038
 20
6.8004086473
 30
0.0
 10
10.3195856232
 20
6.796638508
 30
0.0
 10
10.304912207
 20
6.7939677578
 30
0.0
 10
10.2900066447
 20
6.7924109052
 30
0.0
 10
10.2749509595
 20
6.7919763212
 30
0.0
 10
10.2598279547
 20
6.7926661994
 30
0.0
 10
10.244720761
 20
6.7944765585
 30
0.0
 10
10.2297123836
 20
6.7973972713
 30
0.0
 10
10.2148852517
 20
6.801412128
 30
0.0
 10
10.2003207718
 20
6.8064989304
 30
0.0
 10
10.1860988871
 20
6.8126296171
 30
0.0
 10
10.1722976448
 20
6.8197704204
 30
0.0
 10
10.158992776
 20
6.8278820497
 30
0.0
 10
10.1462572771
 20
6.8369199183
 30
0.0
 10
10.1341610458
 20
6.8468343429
 30
0.0
 10
10.1227703856
 20
6.8575709804
 30
0.0
 10
10.1121480814
 20
6.8690705016
 30
0.0
 10
10.103981577
 20
6.879241046
 30
0.0
 10
10.0978886017
 20
6.8876948106
 30
0.0
 10
10.0921021944
 20
6.8963409631
 30
0.0
 10
10.0854494532
 20
6.9074993293
 30
0.0
 10
10.0784361779
 20
6.9213839621
 30
0.0
 10
10.0724343987
 20
6.9356818861
 30
0.0
 10
10.0674774255
 20
6.9503143829
 30
0.0
 10
10.0635925652
 20
6.965200757
 30
0.0
 10
10.0612635138
 20
6.9777664762
 30
0.0
 10
10.0599569766
 20
6.9878628647
 30
0.0
 10
10.0590245382
 20
6.9979495967
 30
0.0
 10
10.0587422055
 20
7.0055397874
 30
0.0
 10
10.0587422055
 20
7.0105906583
 30
0.0
  0
SPLINE
  5
38F
100
AcDbEntity
  8
0
100
AcDbSpline
 62
7
  6
CONTINUOUS
 70
0
 71
3
 72
91
 73
87
 74
0
 42
0.0000001
 43
0.0000001
 44
0.0000000001
 40
0.0
 40
0.0
 40
0.0
 40
0.0
 40
0.0039801824
 40
0.0081241125
 40
0.0124359604
 40
0.0169193082
 40
0.0215771808
 40
0.0264119179
 40
0.0314251804
 40
0.036618156
 40
0.0419915391
 40
0.0475456573
 40
0.0532804234
 40
0.0591954189
 40
0.0652899227
 40
0.0715629017
 40
0.0780131034
 40
0.0846389837
 40
0.0984102885
 40
0.1128608532
 40
0.1279713725
 40
0.1437199568
 40
0.1600824082
 40
0.1770324532
 40
0.1945419392
 40
0.2125810061
 40
0.2311182422
 40
0.2501208275
 40
0.2695546626
 40
0.2893844909
 40
0.3095740146
 40
0.330086005
 40
0.35088241
 40
0.3719244606
 40
0.3931727759
 40
0.4145874652
 40
0.4361282289
 40
0.4577544586
 40
0.4794253371
 40
0.501099938
 40
0.5227373261
 40
0.5442966575
 40
0.5657372785
 40
0.5870188258
 40
0.6081013261
 40
0.6289452975
 40
0.6495118524
 40
0.6697628021
 40
0.6896607608
 40
0.7091692527
 40
0.7282528228
 40
0.7468771515
 40
0.7650091753
 40
0.7826172172
 40
0.7996711268
 40
0.8161424293
 40
0.8320044948
 40
0.8472327309
 40
0.8618048077
 40
0.8757009255
 40
0.8889041429
 40
0.8952417292
 40
0.9014012652
 40
0.9073816417
 40
0.9131820083
 40
0.9188018518
 40
0.9242409423
 40
0.9294994633
 40
0.9345779585
 40
0.9394774438
 40
0.944199427
 40
0.9487459568
 40
0.95311974
 40
0.9573241405
 40
0.9613633601
 40
0.9652424499
 40
0.9689674846
 40
0.9725456466
 40
0.9759853437
 40
0.9824865016
 40
0.9855753543
 40
0.9885738189
 40
0.9914977372
 40
0.9943643366
 40
0.9971920099
 40
1.0
 40
1.0
 40
1.0
 40
1.0
 10
10.0635348559
 20
10.7127013312
 30
0.0
 10
10.0648360878
 20
10.7139582247
 30
0.0
 10
10.0675511772
 20
10.7164631222
 30
0.0
 10
10.0718619042
 20
10.7201217136
 30
0.0
 10
10.0764891839
 20
10.7237540614
 30
0.0
 10
10.0814304778
 20
10.7273582371
 30
0.0
 10
10.0866833769
 20
10.7309325574
 30
0.0
 10
10.0922453073
 20
10.7344752834
 30
0.0
 10
10.0981134873
 20
10.7379847164
 30
0.0
 10
10.1042850054
 20
10.7414590353
 30
0.0
 10
10.110756745
 20
10.7448965724
 30
0.0
 10
10.117525489
 20
10.7482955592
 30
0.0
 10
10.124587834
 20
10.751654324
 30
0.0
 10
10.1319402374
 20
10.7549711694
 30
0.0
 10
10.1395790084
 20
10.758244405
 30
0.0
 10
10.1475002915
 20
10.7614724137
 30
0.0
 10
10.1557001205
 20
10.7646535358
 30
0.0
 10
10.1671466328
 20
10.7688848758
 30
0.0
 10
10.1821283333
 20
10.7740344986
 30
0.0
 10
10.200925174
 20
10.7799253565
 30
0.0
 10
10.2207271305
 20
10.7855923394
 30
0.0
 10
10.2414942305
 20
10.7910239199
 30
0.0
 10
10.263184703
 20
10.796209034
 30
0.0
 10
10.2857548061
 20
10.8011371191
 30
0.0
 10
10.3091589998
 20
10.8057981339
 30
0.0
 10
10.3333500223
 20
10.8101825858
 30
0.0
 10
10.3582789987
 20
10.8142815468
 30
0.0
 10
10.3838955445
 20
10.8180866719
 30
0.0
 10
10.4101478714
 20
10.8215902154
 30
0.0
 10
10.4369828946
 20
10.824785047
 30
0.0
 10
10.4643463416
 20
10.8276646654
 30
0.0
 10
10.4921828629
 20
10.8302232107
 30
0.0
 10
10.5204361444
 20
10.8324554797
 30
0.0
 10
10.549049024
 20
10.834356934
 30
0.0
 10
10.5779636084
 20
10.8359237078
 30
0.0
 10
10.6071213918
 20
10.8371526159
 30
0.0
 10
10.6364633746
 20
10.8380411594
 30
0.0
 10
10.6659301823
 20
10.8385875315
 30
0.0
 10
10.6954621866
 20
10.8387906197
 30
0.0
 10
10.724999626
 20
10.8386500115
 30
0.0
 10
10.7544827285
 20
10.8381659941
 30
0.0
 10
10.7838518328
 20
10.8373395523
 30
0.0
 10
10.8130475098
 20
10.8361723662
 30
0.0
 10
10.8420106821
 20
10.8346668086
 30
0.0
 10
10.8706827447
 20
10.8328259397
 30
0.0
 10
10.8990056835
 20
10.8306535013
 30
0.0
 10
10.9269221951
 20
10.8281539108
 30
0.0
 10
10.9543758041
 20
10.8253322541
 30
0.0
 10
10.9813109779
 20
10.8221942716
 30
0.0
 10
11.0076732393
 20
10.8187463483
 30
0.0
 10
11.0334092785
 20
10.8149955007
 30
0.0
 10
11.058467062
 20
10.8109493631
 30
0.0
 10
11.0827959412
 20
10.8066161718
 30
0.0
 10
11.1063467596
 20
10.8020047506
 30
0.0
 10
11.1290719585
 20
10.7971244937
 30
0.0
 10
11.1509256742
 20
10.7919853436
 30
0.0
 10
11.1718638445
 20
10.7865977693
 30
0.0
 10
11.1918442802
 20
10.780972744
 30
0.0
 10
11.2108268506
 20
10.7751217166
 30
0.0
 10
11.228773272
 20
10.769056585
 30
0.0
 10
11.2430234131
 20
10.7637644502
 30
0.0
 10
11.2538692398
 20
10.7594235983
 30
0.0
 10
11.2616112031
 20
10.7561665959
 30
0.0
 10
11.2690681796
 20
10.7528654306
 30
0.0
 10
11.2762364191
 20
10.7495217031
 30
0.0
 10
11.2831123354
 20
10.7461371574
 30
0.0
 10
11.2896924595
 20
10.7427134295
 30
0.0
 10
11.2959735159
 20
10.7392522933
 30
0.0
 10
11.3019523483
 20
10.7357554334
 30
0.0
 10
11.307625978
 20
10.7322246061
 30
0.0
 10
11.312991584
 20
10.7286615665
 30
0.0
 10
11.3180464747
 20
10.7250680246
 30
0.0
 10
11.3227881711
 20
10.72144579
 30
0.0
 10
11.327214273
 20
10.7177965332
 30
0.0
 10
11.3313226126
 20
10.7141220688
 30
0.0
 10
11.3351111183
 20
10.7104240338
 30
0.0
 10
11.338577803
 20
10.7067042905
 30
0.0
 10
11.3417211703
 20
10.7029640922
 30
0.0
 10
11.3454086371
 20
10.6980461627
 30
0.0
 10
11.3485398967
 20
10.6929956746
 30
0.0
 10
11.3510259807
 20
10.6878373459
 30
0.0
 10
11.3525280615
 20
10.6840223768
 30
0.0
 10
11.3536977866
 20
10.6801981253
 30
0.0
 10
11.3545341968
 20
10.6763664489
 30
0.0
 10
11.3550363679
 20
10.6725300793
 30
0.0
 10
11.3551481616
 20
10.6699670839
 30
0.0
 10
11.3551481614
 20
10.668690749
 30
0.0
  0
SPLINE
  5
390
100
AcDbEntity
  8
0
100
AcDbSpline
 62
7
  6
CONTINUOUS
 70
0
 71
3
 72
18
 73
14
 74
0
 42
0.0000001
 43
0.0000001
 44
0.0000000001
 40
0.0
 40
0.0
 40
0.0
 40
0.0
 40
0.15046785
 40
0.2917141997
 40
0.4244423494
 40
0.4879097388
 40
0.5496092867
 40
0.6682625295
 40
0.7817883371
 40
0.8371380783
 40
0.8918079093
 40
0.9460193322
 40
1.0
 40
1.0
 40
1.0
 40
1.0
 10
12.6763643701
 20
8.5590802998
 30
0.0
 10
12.6750073735
 20
8.5577695416
 30
0.0
 10
12.6722952197
 20
8.5553101758
 30
0.0
 10
12.6680957398
 20
8.552032765
 30
0.0
 10
12.6645485614
 20
8.5497148047
 30
0.0
 10
12.6617200019
 20
8.5481451494
 30
0.0
 10
12.6589746549
 20
8.5467975515
 30
0.0
 10
12.6555421021
 20
8.5454358429
 30
0.0
 10
12.6520484883
 20
8.5445065974
 30
0.0
 10
12.6492814417
 20
8.5440488314
 30
0.0
 10
12.6472306781
 20
8.5438456585
 30
0.0
 10
12.6451882101
 20
8.5437800379
 30
0.0
 10
12.6438312446
 20
8.5438280316
 30
0.0
 10
12.6431560189
 20
8.5438748546
 30
0.0
  0
SPLINE
  5
391
100
AcDbEntity
  8
0
100
AcDbSpline
 62
7
  6
CONTINUOUS
 70
0
 71
3
 72
92
 73
88
 74
0
 42
0.0000001
 43
0.0000001
 44
0.0000000001
 40
0.0
 40
0.0
 40
0.0
 40
0.0
 40
0.0027164136
 40
0.0054531999
 40
0.0082302488
 40
0.0110665156
 40
0.0139797
 40
0.0169859759
 40
0.0200999097
 40
0.0233343921
 40
0.0267007085
 40
0.030208627
 40
0.0338664962
 40
0.0376814269
 40
0.0416593531
 40
0.0458052407
 40
0.0501231229
 40
0.0546162682
 40
0.0592872359
 40
0.0641379574
 40
0.0691698402
 40
0.0743837612
 40
0.0797802065
 40
0.0853592201
 40
0.0911205286
 40
0.0970635116
 40
0.1031872593
 40
0.1094906055
 40
0.1226297411
 40
0.1364672907
 40
0.1509859854
 40
0.1661657644
 40
0.1819840906
 40
0.1984162077
 40
0.2154353587
 40
0.2330129748
 40
0.2511188396
 40
0.2697212359
 40
0.2887870798
 40
0.3082820459
 40
0.3281706839
 40
0.3484165301
 40
0.3689822167
 40
0.3898295783
 40
0.4109197545
 40
0.4322132911
 40
0.4536702402
 40
0.4752502592
 40
0.4969127091
 40
0.5186167533
 40
0.5403214559
 40
0.56198588
 40
0.5835691848
 40
0.6050307242
 40
0.626330144
 40
0.6474274812
 40
0.6682832628
 40
0.6888586082
 40
0.7091153287
 40
0.729016031
 40
0.7485242218
 40
0.7676044158
 40
0.7862222477
 40
0.8043445896
 40
0.8219396778
 40
0.8389772466
 40
0.8554286739
 40
0.871267144
 40
0.8864678337
 40
0.9010081287
 40
0.9148678812
 40
0.9215371855
 40
0.928030107
 40
0.9343449535
 40
0.9404803007
 40
0.946434946
 40
0.9522079623
 40
0.9577987256
 40
0.9632069066
 40
0.9684325773
 40
0.9734761504
 40
0.9783385002
 40
0.9830209469
 40
0.987525443
 40
0.9918546017
 40
0.9960115601
 40
1.0
 40
1.0
 40
1.0
 40
1.0
 10
12.7988232216
 20
9.7109014475
 30
0.0
 10
12.8001203542
 20
9.7108114967
 30
0.0
 10
12.8027177066
 20
9.7105135279
 30
0.0
 10
12.8065806764
 20
9.7097161595
 30
0.0
 10
12.8104144353
 20
9.7085684453
 30
0.0
 10
12.8142162941
 20
9.7070716071
 30
0.0
 10
12.8179842289
 20
9.7052268441
 30
0.0
 10
12.8217163732
 20
9.7030357251
 30
0.0
 10
12.82541095
 20
9.7004997136
 30
0.0
 10
12.8290663544
 20
9.6976204756
 30
0.0
 10
12.8326809978
 20
9.6943996734
 30
0.0
 10
12.8362533002
 20
9.6908390525
 30
0.0
 10
12.8397817511
 20
9.6869405084
 30
0.0
 10
12.8432647161
 20
9.6827059672
 30
0.0
 10
12.8467006948
 20
9.6781375927
 30
0.0
 10
12.8500880277
 20
9.6732375961
 30
0.0
 10
12.8534251817
 20
9.6680084241
 30
0.0
 10
12.8567105332
 20
9.6624526314
 30
0.0
 10
12.8599425018
 20
9.6565729594
 30
0.0
 10
12.863119537
 20
9.6503723179
 30
0.0
 10
12.8662400316
 20
9.6438537586
 30
0.0
 10
12.8693025062
 20
9.6370205324
 30
0.0
 10
12.8723053741
 20
9.6298760146
 30
0.0
 10
12.8752471982
 20
9.6224237773
 30
0.0
 10
12.8781264663
 20
9.6146675236
 30
0.0
 10
12.880941751
 20
9.6066111338
 30
0.0
 10
12.883691668
 20
9.5982586213
 30
0.0
 10
12.887319396
 20
9.5865705476
 30
0.0
 10
12.8916678849
 20
9.5712427394
 30
0.0
 10
12.8965345957
 20
9.5519834085
 30
0.0
 10
12.9011095226
 20
9.5316504381
 30
0.0
 10
12.9053833826
 20
9.5102845879
 30
0.0
 10
12.909347477
 20
9.487928527
 30
0.0
 10
12.91299374
 20
9.4646270417
 30
0.0
 10
12.9163147507
 20
9.4404268442
 30
0.0
 10
12.9193037495
 20
9.4153764924
 30
0.0
 10
12.9219546521
 20
9.3895262773
 30
0.0
 10
12.9242620619
 20
9.3629281186
 30
0.0
 10
12.92622128
 20
9.3356354554
 30
0.0
 10
12.9278283146
 20
9.3077031364
 30
0.0
 10
12.9290798878
 20
9.2791873078
 30
0.0
 10
12.9299734448
 20
9.2501452987
 30
0.0
 10
12.9305071563
 20
9.2206355032
 30
0.0
 10
12.9306799213
 20
9.1907172612
 30
0.0
 10
12.930491369
 20
9.1604507377
 30
0.0
 10
12.9299418589
 20
9.1298968007
 30
0.0
 10
12.9290324805
 20
9.0991168991
 30
0.0
 10
12.9277650499
 20
9.0681729385
 30
0.0
 10
12.9261421072
 20
9.0371271559
 30
0.0
 10
12.9241669126
 20
9.0060419943
 30
0.0
 10
12.9218434382
 20
8.9749799759
 30
0.0
 10
12.9191763591
 20
8.9440035754
 30
0.0
 10
12.9161710445
 20
8.9131750949
 30
0.0
 10
12.9128335468
 20
8.8825565376
 30
0.0
 10
12.9091705894
 20
8.8522094834
 30
0.0
 10
12.9051895535
 20
8.8221949644
 30
0.0
 10
12.9008984637
 20
8.7925733404
 30
0.0
 10
12.896305974
 20
8.7634041766
 30
0.0
 10
12.8914213475
 20
8.7347461226
 30
0.0
 10
12.886254439
 20
8.7066567944
 30
0.0
 10
12.880815675
 20
8.6791926574
 30
0.0
 10
12.8751160332
 20
8.6524089113
 30
0.0
 10
12.8691670208
 20
8.6263593774
 30
0.0
 10
12.862980651
 20
8.6010963872
 30
0.0
 10
12.8565694205
 20
8.5766706721
 30
0.0
 10
12.8499462845
 20
8.553131258
 30
0.0
 10
12.8431246278
 20
8.5305253567
 30
0.0
 10
12.8361182372
 20
8.5088982863
 30
0.0
 10
12.8289412712
 20
8.4882932965
 30
0.0
 10
12.8216082269
 20
8.4687517302
 30
0.0
 10
12.8153014948
 20
8.4531925544
 30
0.0
 10
12.8101807812
 20
8.4413144812
 30
0.0
 10
12.8063597255
 20
8.4328101034
 30
0.0
 10
12.802510769
 20
8.4245997267
 30
0.0
 10
12.798635856
 20
8.416687444
 30
0.0
 10
12.7947369197
 20
8.409077219
 30
0.0
 10
12.7908159088
 20
8.4017728571
 30
0.0
 10
12.7868748151
 20
8.3947779937
 30
0.0
 10
12.7829155592
 20
8.3880961322
 30
0.0
 10
12.7789401685
 20
8.381730571
 30
0.0
 10
12.7749505549
 20
8.3756845052
 30
0.0
 10
12.7709487634
 20
8.3699609188
 30
0.0
 10
12.7669367277
 20
8.3645626539
 30
0.0
 10
12.7629163877
 20
8.3594923452
 30
0.0
 10
12.7588896315
 20
8.3547524436
 30
0.0
 10
12.7548585777
 20
8.3503455203
 30
0.0
 10
12.7521138073
 20
8.347574576
 30
0.0
 10
12.7507406639
 20
8.3462482213
 30
0.0
  0
SPLINE
  5
392
100
AcDbEntity
  8
0
100
AcDbSpline
 62
7
  6
CONTINUOUS
 70
0
 71
3
 72
95
 73
91
 74
0
 42
0.0000001
 43
0.0000001
 44
0.0000000001
 40
0.0
 40
0.0
 40
0.0
 40
0.0
 40
0.0042067524
 40
0.0086075264
 40
0.0132067984
 40
0.0180082937
 40
0.0230150337
 40
0.0282291753
 40
0.0336520592
 40
0.0392844537
 40
0.0451265343
 40
0.0511780479
 40
0.0574382294
 40
0.0639059483
 40
0.0705796906
 40
0.0774576001
 40
0.0918166241
 40
0.1069629889
 40
0.122872209
 40
0.1395163532
 40
0.1568644406
 40
0.1748827659
 40
0.1935351756
 40
0.2127833077
 40
0.2325868055
 40
0.2529035112
 40
0.2736896465
 40
0.2948999865
 40
0.3164880233
 40
0.338406124
 40
0.3606056844
 40
0.3830372803
 40
0.4056508168
 40
0.4283956754
 40
0.4512208623
 40
0.4740751553
 40
0.4969072499
 40
0.5196659048
 40
0.5423000877
 40
0.5647591214
 40
0.5869928308
 40
0.6089516914
 40
0.63058698
 40
0.6518509241
 40
0.6726968561
 40
0.6930793701
 40
0.7129544846
 40
0.7322798121
 40
0.7510147391
 40
0.769120622
 40
0.7865609974
 40
0.8033018162
 40
0.8193117142
 40
0.8345623301
 40
0.8490286892
 40
0.8559612403
 40
0.8626901816
 40
0.8692135492
 40
0.8755297718
 40
0.8816375758
 40
0.8875361274
 40
0.8932250025
 40
0.89870426
 40
0.9039745234
 40
0.9090369759
 40
0.9138935463
 40
0.9185468765
 40
0.9230005513
 40
0.9272591262
 40
0.9313283338
 40
0.9352152342
 40
0.9389283686
 40
0.9424780221
 40
0.9458763313
 40
0.9491375598
 40
0.9522781467
 40
0.9553168206
 40
0.9582744908
 40
0.9611740191
 40
0.9640398091
 40
0.9668972035
 40
0.9697717872
 40
0.9726886572
 40
0.9756717418
 40
0.9787432814
 40
0.9852254384
 40
0.9886743512
 40
0.992279084
 40
0.9960511993
 40
1.0
 40
1.0
 40
1.0
 40
1.0
 10
12.7198310349
 20
8.5125992116
 30
0.0
 10
12.7209647816
 20
8.5136943269
 30
0.0
 10
12.7232307626
 20
8.5159913001
 30
0.0
 10
12.7265521692
 20
8.519661447
 30
0.0
 10
12.7298693475
 20
8.5236304973
 30
0.0
 10
12.7331802353
 20
8.5278958977
 30
0.0
 10
12.7364829888
 20
8.5324552027
 30
0.0
 10
12.7397757117
 20
8.537305769
 30
0.0
 10
12.743056513
 20
8.5424447363
 30
0.0
 10
12.7463233883
 20
8.54786909
 30
0.0
 10
12.7495744717
 20
8.5535755934
 30
0.0
 10
12.7528077755
 20
8.5595608955
 30
0.0
 10
12.7560214295
 20
8.5658214303
 30
0.0
 10
12.7592134783
 20
8.572353489
 30
0.0
 10
12.7623820509
 20
8.5791531888
 30
0.0
 10
12.7666340882
 20
8.588708463
 30
0.0
 10
12.7718660686
 20
8.6013000842
 30
0.0
 10
12.7779344728
 20
8.6172004733
 30
0.0
 10
12.7838651004
 20
8.6340630743
 30
0.0
 10
12.7896436859
 20
8.6518476638
 30
0.0
 10
12.7952563204
 20
8.6705119609
 30
0.0
 10
12.8006894926
 20
8.6900114627
 30
0.0
 10
12.8059301242
 20
8.7102996447
 30
0.0
 10
12.8109656035
 20
8.7313280576
 30
0.0
 10
12.8157838152
 20
8.7530464564
 30
0.0
 10
12.8203731713
 20
8.7754029231
 30
0.0
 10
12.8247226398
 20
8.7983439955
 30
0.0
 10
12.8288217679
 20
8.8218148002
 30
0.0
 10
12.8326607079
 20
8.8457591865
 30
0.0
 10
12.8362302398
 20
8.8701198634
 30
0.0
 10
12.839521793
 20
8.8948385373
 30
0.0
 10
12.8425274671
 20
8.9198560529
 30
0.0
 10
12.8452400494
 20
8.9451125351
 30
0.0
 10
12.8476530343
 20
8.9705475335
 30
0.0
 10
12.8497606389
 20
8.9961001678
 30
0.0
 10
12.8515578145
 20
9.0217092754
 30
0.0
 10
12.8530402597
 20
9.0473135586
 30
0.0
 10
12.8542044297
 20
9.072851731
 30
0.0
 10
12.8550475458
 20
9.098262665
 30
0.0
 10
12.8555676016
 20
9.1234855384
 30
0.0
 10
12.855763368
 20
9.148459981
 30
0.0
 10
12.8556343989
 20
9.1731262207
 30
0.0
 10
12.8551810314
 20
9.1974252278
 30
0.0
 10
12.8544043844
 20
9.2212988574
 30
0.0
 10
12.8533063565
 20
9.2446899895
 30
0.0
 10
12.8518896221
 20
9.2675426673
 30
0.0
 10
12.8501576257
 20
9.2898022329
 30
0.0
 10
12.8481145747
 20
9.3114154612
 30
0.0
 10
12.8457654291
 20
9.3323306929
 30
0.0
 10
12.8431158936
 20
9.3524979624
 30
0.0
 10
12.840172403
 20
9.3718691308
 30
0.0
 10
12.8369421019
 20
9.3903979868
 30
0.0
 10
12.8334328392
 20
9.4080404472
 30
0.0
 10
12.8296531008
 20
9.4247544058
 30
0.0
 10
12.8262389373
 20
9.438058349
 30
0.0
 10
12.8233697513
 20
9.4482003124
 30
0.0
 10
12.8211865769
 20
9.4554421056
 30
0.0
 10
12.8189428188
 20
9.4624231898
 30
0.0
 10
12.8166398544
 20
9.4691394298
 30
0.0
 10
12.8142790144
 20
9.475586824
 30
0.0
 10
12.811861738
 20
9.4817615525
 30
0.0
 10
12.8093894529
 20
9.487659957
 30
0.0
 10
12.8068636052
 20
9.4932785442
 30
0.0
 10
12.8042857267
 20
9.4986140147
 30
0.0
 10
12.8016572623
 20
9.5036632077
 30
0.0
 10
12.7989798127
 20
9.50842319
 30
0.0
 10
12.7962548411
 20
9.5128911476
 30
0.0
 10
12.7934839511
 20
9.5170644993
 30
0.0
 10
12.7906686479
 20
9.5209407951
 30
0.0
 10
12.7878104717
 20
9.5245177682
 30
0.0
 10
12.7849109674
 20
9.5277933298
 30
0.0
 10
12.7819715829
 20
9.5307654668
 30
0.0
 10
12.7789938763
 20
9.5334323959
 30
0.0
 10
12.7759792487
 20
9.5357922815
 30
0.0
 10
12.7729292789
 20
9.5378435166
 30
0.0
 10
12.7698454875
 20
9.5395843925
 30
0.0
 10
12.766729619
 20
9.5410133586
 30
0.0
 10
12.7635835886
 20
9.5421289195
 30
0.0
 10
12.760409574
 20
9.5429297072
 30
0.0
 10
12.7572100521
 20
9.5434147936
 30
0.0
 10
12.7539876807
 20
9.5435834549
 30
0.0
 10
12.750745208
 20
9.543435722
 30
0.0
 10
12.7474853749
 20
9.5429718826
 30
0.0
 10
12.7442104793
 20
9.5421927315
 30
0.0
 10
12.7397482691
 20
9.5407088398
 30
0.0
 10
12.7353327992
 20
9.5385965103
 30
0.0
 10
12.7310050168
 20
9.5359478267
 30
0.0
 10
12.7276856195
 20
9.5336111315
 30
0.0
 10
12.7243632331
 20
9.5309675791
 30
0.0
 10
12.7221978767
 20
9.529046741
 30
0.0
 10
12.7211147433
 20
9.528038717
 30
0.0
  0
SPLINE
  5
393
100
AcDbEntity
  8
0
100
AcDbSpline
 62
7
  6
CONTINUOUS
 70
0
 71
3
 72
82
 73
78
 74
0
 42
0.0000001
 43
0.0000001
 44
0.0000000001
 40
0.0
 40
0.0
 40
0.0
 40
0.0
 40
0.0039884
 40
0.0081453884
 40
0.0124746242
 40
0.0169791769
 40
0.0216616252
 40
0.0265239851
 40
0.0315675859
 40
0.0367932823
 40
0.0422015086
 40
0.0477922846
 40
0.0595194712
 40
0.0719692824
 40
0.0851311888
 40
0.0989910042
 40
0.1135313725
 40
0.1287321429
 40
0.1445706935
 40
0.1610222007
 40
0.1780598543
 40
0.1956550367
 40
0.2137774734
 40
0.2323953967
 40
0.2514756824
 40
0.2709839717
 40
0.2908847794
 40
0.3111416059
 40
0.3317170565
 40
0.3525729446
 40
0.3736703921
 40
0.4164308614
 40
0.4596781291
 40
0.5030864271
 40
0.5463284421
 40
0.5890784518
 40
0.6101687463
 40
0.6310162279
 40
0.6515820352
 40
0.6718279979
 40
0.6917167499
 40
0.7112118329
 40
0.7302777975
 40
0.7488803131
 40
0.7669862887
 40
0.7845640124
 40
0.8015832729
 40
0.8180155019
 40
0.8338339356
 40
0.8490138157
 40
0.8635326121
 40
0.8773702664
 40
0.8905095049
 40
0.9029362342
 40
0.9146400637
 40
0.9202191345
 40
0.925615608
 40
0.9308295837
 40
0.9358615024
 40
0.9407122641
 40
0.9453832787
 40
0.9498764542
 40
0.9541943802
 40
0.958340302
 40
0.962318263
 40
0.9661332307
 40
0.9697911315
 40
0.97329908
 40
0.9766654313
 40
0.9798999372
 40
0.9830139016
 40
0.9860202023
 40
0.9889334071
 40
0.9917697001
 40
0.9945467646
 40
0.9972835707
 40
1.0
 40
1.0
 40
1.0
 40
1.0
 10
12.6763643701
 20
8.5590802998
 30
0.0
 10
12.6773127128
 20
8.5599963285
 30
0.0
 10
12.6792083643
 20
8.5619100636
 30
0.0
 10
12.6819923974
 20
8.5649536933
 30
0.0
 10
12.6847734978
 20
8.5682273043
 30
0.0
 10
12.6875501386
 20
8.57172912
 30
0.0
 10
12.6903210467
 20
8.5754574064
 30
0.0
 10
12.6930848545
 20
8.5794103804
 30
0.0
 10
12.6958402629
 20
8.5835860749
 30
0.0
 10
12.6985858699
 20
8.587982423
 30
0.0
 10
12.7013203166
 20
8.5925972431
 30
0.0
 10
12.7050084382
 20
8.5991432106
 30
0.0
 10
12.7095714978
 20
8.6078651981
 30
0.0
 10
12.7148974169
 20
8.6190032973
 30
0.0
 10
12.7201467186
 20
8.6309518159
 30
0.0
 10
12.7253088415
 20
8.643686899
 30
0.0
 10
12.7303733866
 20
8.6571832848
 30
0.0
 10
12.7353301349
 20
8.6714140355
 30
0.0
 10
12.7401690782
 20
8.6863507063
 30
0.0
 10
12.7448804377
 20
8.7019633939
 30
0.0
 10
12.7494546896
 20
8.718220813
 30
0.0
 10
12.7538825848
 20
8.735090356
 30
0.0
 10
12.7581551824
 20
8.7525381594
 30
0.0
 10
12.762263853
 20
8.7705291825
 30
0.0
 10
12.766200299
 20
8.7890272854
 30
0.0
 10
12.7699565686
 20
8.8079953012
 30
0.0
 10
12.7735250778
 20
8.8273951064
 30
0.0
 10
12.7768986328
 20
8.847187702
 30
0.0
 10
12.7800704213
 20
8.8673332862
 30
0.0
 10
12.7830340719
 20
8.887791384
 30
0.0
 10
12.7867163494
 20
8.9155539682
 30
0.0
 10
12.7907512152
 20
8.9507342358
 30
0.0
 10
12.7946590494
 20
8.9933419923
 30
0.0
 10
12.7976225237
 20
9.0361855355
 30
0.0
 10
12.7996178429
 20
9.0789203739
 30
0.0
 10
12.8004644841
 20
9.1143135865
 30
0.0
 10
12.8006389746
 20
9.14231016
 30
0.0
 10
12.8005196486
 20
9.1629731314
 30
0.0
 10
12.8001510549
 20
9.1833539851
 30
0.0
 10
12.7995339262
 20
9.2034117704
 30
0.0
 10
12.7986695351
 20
9.2231061494
 30
0.0
 10
12.797559649
 20
9.2423975335
 30
0.0
 10
12.7962065315
 20
9.2612471456
 30
0.0
 10
12.7946129364
 20
9.279617101
 30
0.0
 10
12.7927821033
 20
9.2974704892
 30
0.0
 10
12.7907177651
 20
9.314771454
 30
0.0
 10
12.7884241263
 20
9.3314852659
 30
0.0
 10
12.7859058556
 20
9.3475783893
 30
0.0
 10
12.7831680739
 20
9.3630185568
 30
0.0
 10
12.7802163507
 20
9.377774845
 30
0.0
 10
12.7770566966
 20
9.391817756
 30
0.0
 10
12.7736955326
 20
9.4051192541
 30
0.0
 10
12.7701396723
 20
9.4176529251
 30
0.0
 10
12.7663962967
 20
9.4293937318
 30
0.0
 10
12.763075942
 20
9.4386399249
 30
0.0
 10
12.7603229194
 20
9.4456142009
 30
0.0
 10
12.7582489592
 20
9.4505485555
 30
0.0
 10
12.7561338985
 20
9.4552679242
 30
0.0
 10
12.7539787301
 20
9.4597699628
 30
0.0
 10
12.7517845221
 20
9.4640524339
 30
0.0
 10
12.7495523878
 20
9.4681132358
 30
0.0
 10
12.7472833571
 20
9.4719503382
 30
0.0
 10
12.744978577
 20
9.4755618747
 30
0.0
 10
12.7426391231
 20
9.4789460592
 30
0.0
 10
12.7402660769
 20
9.4821012118
 30
0.0
 10
12.7378605842
 20
9.485025808
 30
0.0
 10
12.7354236717
 20
9.4877183448
 30
0.0
 10
12.7329564691
 20
9.4901774921
 30
0.0
 10
12.7304600409
 20
9.4924019627
 30
0.0
 10
12.7279354361
 20
9.4943905057
 30
0.0
 10
12.7253837993
 20
9.4961420265
 30
0.0
 10
12.722806207
 20
9.4976553394
 30
0.0
 10
12.720203887
 20
9.4989294197
 30
0.0
 10
12.7175781623
 20
9.499963268
 30
0.0
 10
12.7149303759
 20
9.5007559114
 30
0.0
 10
12.7122624385
 20
9.5013066688
 30
0.0
 10
12.7104685825
 20
9.5015124703
 30
0.0
 10
12.7095727213
 20
9.5015745931
 30
0.0
  0
SPLINE
  5
394
100
AcDbEntity
  8
0
100
AcDbSpline
 62
7
  6
CONTINUOUS
 70
0
 71
3
 72
18
 73
14
 74
0
 42
0.0000001
 43
0.0000001
 44
0.0000000001
 40
0.0
 40
0.0
 40
0.0
 40
0.0
 40
0.150467608
 40
0.291710008
 40
0.4244359371
 40
0.549562455
 40
0.6682139939
 40
0.7255497488
 40
0.7817912909
 40
0.8371402503
 40
0.8918093826
 40
0.9460201179
 40
1.0
 40
1.0
 40
1.0
 40
1.0
 10
12.7507406639
 20
8.3462482213
 30
0.0
 10
12.7487758359
 20
8.3443503431
 30
0.0
 10
12.7448489698
 20
8.3407894351
 30
0.0
 10
12.7387682493
 20
8.3360439173
 30
0.0
 10
12.732694671
 20
8.3320750055
 30
0.0
 10
12.726634523
 20
8.3288892143
 30
0.0
 10
12.7215410353
 20
8.326869063
 30
0.0
 10
12.7174970311
 20
8.32566881
 30
0.0
 10
12.7145071043
 20
8.3249770012
 30
0.0
 10
12.7115270969
 20
8.3244839314
 30
0.0
 10
12.7085578437
 20
8.3241897749
 30
0.0
 10
12.7056005259
 20
8.324094685
 30
0.0
 10
12.703635769
 20
8.3241641762
 30
0.0
 10
12.7026581062
 20
8.3242319732
 30
0.0
  0
SPLINE
  5
395
100
AcDbEntity
  8
0
100
AcDbSpline
 62
7
  6
CONTINUOUS
 70
0
 71
3
 72
79
 73
75
 74
0
 42
0.0000001
 43
0.0000001
 44
0.0000000001
 40
0.0
 40
0.0
 40
0.0
 40
0.0
 40
0.0069315574
 40
0.0105986767
 40
0.0144066877
 40
0.0183600657
 40
0.022462566
 40
0.026717331
 40
0.0311268813
 40
0.0356932613
 40
0.0404180349
 40
0.0453023372
 40
0.0503469664
 40
0.0555523326
 40
0.060918574
 40
0.06644554
 40
0.0721328008
 40
0.0839850491
 40
0.0964680903
 40
0.1095712258
 40
0.1232811587
 40
0.1375823026
 40
0.1524570208
 40
0.1678858364
 40
0.1838476189
 40
0.2003197345
 40
0.2172781737
 40
0.2346976581
 40
0.252551756
 40
0.2708129854
 40
0.2894529036
 40
0.308442189
 40
0.327750719
 40
0.3473476593
 40
0.3672015419
 40
0.3872803383
 40
0.4075515304
 40
0.4485384014
 40
0.4898957113
 40
0.531353215
 40
0.572639826
 40
0.6134858936
 40
0.6336607498
 40
0.6536261848
 40
0.6733499231
 40
0.6928002158
 40
0.711945919
 40
0.7307565654
 40
0.7492024402
 40
0.7672546618
 40
0.7848852768
 40
0.8020673462
 40
0.818775033
 40
0.8349837026
 40
0.8506700379
 40
0.8658121762
 40
0.8803898387
 40
0.8943844882
 40
0.90777952
 40
0.9205605005
 40
0.9327154537
 40
0.944235197
 40
0.949755112
 40
0.9551143006
 40
0.9603126017
 40
0.9653501843
 40
0.9702274804
 40
0.9749452775
 40
0.9795047293
 40
0.9839073988
 40
0.9881554274
 40
0.9922514367
 40
0.9961984568
 40
1.0
 40
1.0
 40
1.0
 40
1.0
 10
11.3420638879
 20
10.6348431395
 30
0.0
 10
11.3401743136
 20
10.6372568867
 30
0.0
 10
11.3370840284
 20
10.6407937899
 30
0.0
 10
11.332584042
 20
10.6453053295
 30
0.0
 10
11.3288676925
 20
10.6487329939
 30
0.0
 10
11.3248755767
 20
10.6521392378
 30
0.0
 10
11.3206091603
 20
10.6555229296
 30
0.0
 10
11.3160703305
 20
10.6588825303
 30
0.0
 10
11.3112610622
 20
10.6622167048
 30
0.0
 10
11.3061834118
 20
10.6655239882
 30
0.0
 10
11.3008395782
 20
10.6688029753
 30
0.0
 10
11.2952318859
 20
10.6720522862
 30
0.0
 10
11.2893627407
 20
10.675270464
 30
0.0
 10
11.2832347114
 20
10.6784561698
 30
0.0
 10
11.2768504496
 20
10.6816079831
 30
0.0
 10
11.2702127226
 20
10.6847245536
 30
0.0
 10
11.2608998845
 20
10.6888885391
 30
0.0
 10
11.2486370498
 20
10.6939852677
 30
0.0
 10
11.2331545056
 20
10.699858295
 30
0.0
 10
11.2167356934
 20
10.7055591904
 30
0.0
 10
11.1994092626
 20
10.7110779375
 30
0.0
 10
11.1812052779
 20
10.7164048268
 30
0.0
 10
11.1621554646
 20
10.7215304777
 30
0.0
 10
11.1422930552
 20
10.7264458647
 30
0.0
 10
11.1216527382
 20
10.7311423239
 30
0.0
 10
11.1002705828
 20
10.7356115758
 30
0.0
 10
11.078183979
 20
10.739845736
 30
0.0
 10
11.0554315724
 20
10.7438373469
 30
0.0
 10
11.0320531899
 20
10.7475793782
 30
0.0
 10
11.0080897616
 20
10.751065237
 30
0.0
 10
10.9835832479
 20
10.7542887802
 30
0.0
 10
10.9585765701
 20
10.7572443261
 30
0.0
 10
10.9331135361
 20
10.7599266763
 30
0.0
 10
10.9072387544
 20
10.7623311116
 30
0.0
 10
10.8809975682
 20
10.7644533921
 30
0.0
 10
10.8544359167
 20
10.7662898032
 30
0.0
 10
10.8185246592
 20
10.768360287
 30
0.0
 10
10.7731777377
 20
10.7702067208
 30
0.0
 10
10.7184334407
 20
10.7712369543
 30
0.0
 10
10.6635469445
 20
10.7710822136
 30
0.0
 10
10.6089028625
 20
10.7697436207
 30
0.0
 10
10.5637033292
 20
10.7676411191
 30
0.0
 10
10.5279596854
 20
10.7653671888
 30
0.0
 10
10.501559507
 20
10.763381129
 30
0.0
 10
10.4755038677
 20
10.7611110882
 30
0.0
 10
10.4498383829
 20
10.7585610341
 30
0.0
 10
10.4246080262
 20
10.7557354687
 30
0.0
 10
10.3998569921
 20
10.7526393657
 30
0.0
 10
10.3756286371
 20
10.749278177
 30
0.0
 10
10.3519653959
 20
10.7456578164
 30
0.0
 10
10.3289087016
 20
10.7417846644
 30
0.0
 10
10.3064989116
 20
10.7376655495
 30
0.0
 10
10.2847752412
 20
10.7333077308
 30
0.0
 10
10.2637756937
 20
10.7287188868
 30
0.0
 10
10.2435369859
 20
10.7239071003
 30
0.0
 10
10.2240944717
 20
10.7188808589
 30
0.0
 10
10.2054820824
 20
10.713649023
 30
0.0
 10
10.1877322593
 20
10.7082208084
 30
0.0
 10
10.1708759147
 20
10.7026057653
 30
0.0
 10
10.1549422621
 20
10.6968137515
 30
0.0
 10
10.139959076
 20
10.6908549421
 30
0.0
 10
10.1281238459
 20
10.6856880511
 30
0.0
 10
10.1191603938
 20
10.6814704162
 30
0.0
 10
10.1127873072
 20
10.6783170798
 30
0.0
 10
10.1066705888
 20
10.6751299192
 30
0.0
 10
10.1008128618
 20
10.6719103419
 30
0.0
 10
10.0952166889
 20
10.6686597026
 30
0.0
 10
10.0898844964
 20
10.6653794276
 30
0.0
 10
10.0848185868
 20
10.6620709632
 30
0.0
 10
10.0800211583
 20
10.6587356588
 30
0.0
 10
10.0754942171
 20
10.655374947
 30
0.0
 10
10.071239718
 20
10.6519901634
 30
0.0
 10
10.0672596898
 20
10.6485829342
 30
0.0
 10
10.0647440574
 20
10.6462545183
 30
0.0
 10
10.0635348559
 20
10.6450865193
 30
0.0
  0
SPLINE
  5
396
100
AcDbEntity
  8
0
100
AcDbSpline
 62
7
  6
CONTINUOUS
 70
0
 71
3
 72
54
 73
50
 74
0
 42
0.0000001
 43
0.0000001
 44
0.0000000001
 40
0.0
 40
0.0
 40
0.0
 40
0.0
 40
0.0099472337
 40
0.0203698704
 40
0.0312644864
 40
0.0426260491
 40
0.0544480896
 40
0.0667227976
 40
0.0794412503
 40
0.0925934343
 40
0.1061683672
 40
0.1201542188
 40
0.1345382898
 40
0.1493071622
 40
0.1644467127
 40
0.1799421393
 40
0.1957780755
 40
0.2119385556
 40
0.2451662193
 40
0.2794882552
 40
0.3147604925
 40
0.3508330981
 40
0.3875515635
 40
0.424757678
 40
0.4622904654
 40
0.4999871083
 40
0.5376838689
 40
0.5752170109
 40
0.6124237148
 40
0.6491429955
 40
0.6852166394
 40
0.7204901413
 40
0.7548136583
 40
0.7880429977
 40
0.8200406729
 40
0.8355371161
 40
0.8506777018
 40
0.8654476672
 40
0.8798328731
 40
0.8938198766
 40
0.9073960261
 40
0.9205494374
 40
0.9332691503
 40
0.9455451651
 40
0.9573685051
 40
0.9687314146
 40
0.9796273864
 40
0.9900513765
 40
1.0
 40
1.0
 40
1.0
 40
1.0
 10
11.1774439653
 20
10.5524432501
 30
0.0
 10
11.1745450543
 20
10.5538889378
 30
0.0
 10
11.1685579462
 20
10.5567484948
 30
0.0
 10
11.1592410033
 20
10.5608576283
 30
0.0
 10
11.1493879443
 20
10.5648824088
 30
0.0
 10
11.1390102443
 20
10.5688180939
 30
0.0
 10
11.1281198263
 20
10.5726601046
 30
0.0
 10
11.1167292957
 20
10.5764039975
 30
0.0
 10
11.1048518258
 20
10.5800453738
 30
0.0
 10
11.0925011833
 20
10.5835799934
 30
0.0
 10
11.0796916947
 20
10.5870037428
 30
0.0
 10
11.0664382234
 20
10.5903125883
 30
0.0
 10
11.052756166
 20
10.5935026956
 30
0.0
 10
11.0386614189
 20
10.5965703217
 30
0.0
 10
11.0241703628
 20
10.5995118733
 30
0.0
 10
11.0092998532
 20
10.6023239339
 30
0.0
 10
10.9940671643
 20
10.6050032105
 30
0.0
 10
10.9731035509
 20
10.6084259694
 30
0.0
 10
10.9461222955
 20
10.6123388411
 30
0.0
 10
10.9128843023
 20
10.6164169246
 30
0.0
 10
10.8786474572
 20
10.6199006838
 30
0.0
 10
10.8435710575
 20
10.6227737469
 30
0.0
 10
10.8078181659
 20
10.6250225914
 30
0.0
 10
10.7715550826
 20
10.6266366428
 30
0.0
 10
10.7349504897
 20
10.6276083078
 30
0.0
 10
10.6981746782
 20
10.6279330124
 30
0.0
 10
10.661398743
 20
10.627609237
 30
0.0
 10
10.6247937797
 20
10.6266385057
 30
0.0
 10
10.588530081
 20
10.6250253809
 30
0.0
 10
10.5527763382
 20
10.6227774403
 30
0.0
 10
10.5176988377
 20
10.6199052638
 30
0.0
 10
10.4834607003
 20
10.616422368
 30
0.0
 10
10.4502210286
 20
10.6123451623
 30
0.0
 10
10.4181344397
 20
10.6076928103
 30
0.0
 10
10.3922112365
 20
10.6033094907
 30
0.0
 10
10.3721682854
 20
10.5995201881
 30
0.0
 10
10.3576761023
 20
10.5965789719
 30
0.0
 10
10.3435801915
 20
10.5935117142
 30
0.0
 10
10.3298969202
 20
10.5903219614
 30
0.0
 10
10.3166421939
 20
10.5870134347
 30
0.0
 10
10.3038314014
 20
10.5835900297
 30
0.0
 10
10.2914794171
 20
10.5800557146
 30
0.0
 10
10.2796005646
 20
10.5764146336
 30
0.0
 10
10.2682086075
 20
10.5726710491
 30
0.0
 10
10.2573167351
 20
10.5688292925
 30
0.0
 10
10.246937537
 20
10.5648938839
 30
0.0
 10
10.2370829472
 20
10.5608693581
 30
0.0
 10
10.2277644523
 20
10.5567604379
 30
0.0
 10
10.2217762666
 20
10.5539010655
 30
0.0
 10
10.2188768132
 20
10.5524554515
 30
0.0
  0
SPLINE
  5
397
100
AcDbEntity
  8
0
100
AcDbSpline
 62
7
  6
CONTINUOUS
 70
0
 71
3
 72
23
 73
19
 74
0
 42
0.0000001
 43
0.0000001
 44
0.0000000001
 40
0.0
 40
0.0
 40
0.0
 40
0.0
 40
0.0637774716
 40
0.1273446947
 40
0.1907020108
 40
0.2538561385
 40
0.3168131788
 40
0.379582097
 40
0.4421733871
 40
0.5045993393
 40
0.5668738666
 40
0.62901238
 40
0.6910316508
 40
0.7529496465
 40
0.8147853569
 40
0.8765586065
 40
0.938289857
 40
1.0
 40
1.0
 40
1.0
 40
1.0
 10
10.079026649
 20
7.6727750443
 30
0.0
 10
10.079026649
 20
7.6795637289
 30
0.0
 10
10.0793515671
 20
7.6931210197
 30
0.0
 10
10.0808181681
 20
7.7133745152
 30
0.0
 10
10.0832600116
 20
7.7334674193
 30
0.0
 10
10.0866713453
 20
7.7533526682
 30
0.0
 10
10.091044474
 20
7.7729847138
 30
0.0
 10
10.096369306
 20
7.792318204
 30
0.0
 10
10.1026336428
 20
7.8113085868
 30
0.0
 10
10.1098230725
 20
7.8299120647
 30
0.0
 10
10.117921052
 20
7.8480857367
 30
0.0
 10
10.1269089426
 20
7.8657876862
 30
0.0
 10
10.1367660464
 20
7.8829770763
 30
0.0
 10
10.1474696696
 20
7.8996142595
 30
0.0
 10
10.1589951184
 20
7.9156608127
 30
0.0
 10
10.1713159576
 20
7.9310798407
 30
0.0
 10
10.1844032821
 20
7.9458352962
 30
0.0
 10
10.1936207785
 20
7.9552089163
 30
0.0
 10
10.1983452946
 20
7.9597724528
 30
0.0
  0
SPLINE
  5
398
100
AcDbEntity
  8
0
100
AcDbSpline
 62
7
  6
CONTINUOUS
 70
0
 71
3
 72
21
 73
17
 74
0
 42
0.0000001
 43
0.0000001
 44
0.0000000001
 40
0.0
 40
0.0
 40
0.0
 40
0.0
 40
0.1273175725
 40
0.2538000026
 40
0.3167619332
 40
0.3795354925
 40
0.4421314982
 40
0.5045621433
 40
0.5668413429
 40
0.6289845306
 40
0.6910084612
 40
0.7529311022
 40
0.8147714553
 40
0.8765493457
 40
0.9382852283
 40
1.0
 40
1.0
 40
1.0
 40
1.0
 10
11.1454088244
 20
10.0744891937
 30
0.0
 10
11.1454088244
 20
10.0809875201
 30
0.0
 10
11.1460291319
 20
10.0939499105
 30
0.0
 10
11.148371811
 20
10.1099742273
 30
0.0
 10
11.1511718506
 20
10.1225439067
 30
0.0
 10
11.153725338
 20
10.1318153033
 30
0.0
 10
11.1567293239
 20
10.1409219726
 30
0.0
 10
11.1601769593
 20
10.1498431517
 30
0.0
 10
11.1640602637
 20
10.1585582142
 30
0.0
 10
11.1683703061
 20
10.167047078
 30
0.0
 10
11.1730971999
 20
10.1752901339
 30
0.0
 10
11.1782300287
 20
10.1832683871
 30
0.0
 10
11.1837569365
 20
10.1909634248
 30
0.0
 10
11.1896652768
 20
10.1983575346
 30
0.0
 10
11.1959411939
 20
10.2054334212
 30
0.0
 10
11.200361344
 20
10.2099285075
 30
0.0
 10
11.202626947
 20
10.2121169238
 30
0.0
  0
SPLINE
  5
399
100
AcDbEntity
  8
0
100
AcDbSpline
 62
4
  6
CONTINUOUS
 70
0
 71
3
 72
387
 73
383
 74
0
 42
0.0000001
 43
0.0000001
 44
0.0000000001
 40
0.0
 40
0.0
 40
0.0
 40
0.0
 40
0.015625
 40
0.0234375
 40
0.03125
 40
0.0390625
 40
0.04296875
 40
0.046875
 40
0.05078125
 40
0.0546875
 40
0.056640625
 40
0.05859375
 40
0.0595703125
 40
0.060546875
 40
0.0615234375
 40
0.0620117188
 40
0.0625
 40
0.0629882812
 40
0.0634765625
 40
0.064453125
 40
0.0654296875
 40
0.06640625
 40
0.068359375
 40
0.0703125
 40
0.07421875
 40
0.078125
 40
0.08203125
 40
0.0859375
 40
0.09375
 40
0.1015625
 40
0.10546875
 40
0.109375
 40
0.11328125
 40
0.1171875
 40
0.119140625
 40
0.12109375
 40
0.1220703125
 40
0.123046875
 40
0.1240234375
 40
0.1245117188
 40
0.1247558594
 40
0.125
 40
0.1252441406
 40
0.1254882812
 40
0.1259765625
 40
0.126953125
 40
0.1279296875
 40
0.12890625
 40
0.130859375
 40
0.1328125
 40
0.13671875
 40
0.140625
 40
0.14453125
 40
0.1484375
 40
0.15625
 40
0.1640625
 40
0.16796875
 40
0.171875
 40
0.17578125
 40
0.1796875
 40
0.181640625
 40
0.18359375
 40
0.1845703125
 40
0.185546875
 40
0.1865234375
 40
0.1870117188
 40
0.1872558594
 40
0.1875
 40
0.1877441406
 40
0.1879882812
 40
0.1884765625
 40
0.189453125
 40
0.1904296875
 40
0.19140625
 40
0.193359375
 40
0.1953125
 40
0.19921875
 40
0.203125
 40
0.20703125
 40
0.2109375
 40
0.21875
 40
0.2265625
 40
0.23046875
 40
0.234375
 40
0.23828125
 40
0.2421875
 40
0.244140625
 40
0.24609375
 40
0.2470703125
 40
0.248046875
 40
0.2490234375
 40
0.2495117188
 40
0.2497558594
 40
0.25
 40
0.2502441406
 40
0.2504882812
 40
0.2509765625
 40
0.251953125
 40
0.2529296875
 40
0.25390625
 40
0.255859375
 40
0.2578125
 40
0.26171875
 40
0.265625
 40
0.26953125
 40
0.2734375
 40
0.28125
 40
0.2890625
 40
0.29296875
 40
0.296875
 40
0.30078125
 40
0.3046875
 40
0.306640625
 40
0.30859375
 40
0.3095703125
 40
0.310546875
 40
0.3115234375
 40
0.3120117188
 40
0.3122558594
 40
0.3125
 40
0.3127441406
 40
0.3129882812
 40
0.3134765625
 40
0.314453125
 40
0.3154296875
 40
0.31640625
 40
0.318359375
 40
0.3203125
 40
0.32421875
 40
0.328125
 40
0.33203125
 40
0.3359375
 40
0.34375
 40
0.3515625
 40
0.35546875
 40
0.359375
 40
0.36328125
 40
0.3671875
 40
0.369140625
 40
0.37109375
 40
0.3720703125
 40
0.373046875
 40
0.3740234375
 40
0.3745117188
 40
0.3747558594
 40
0.375
 40
0.3752441406
 40
0.3754882812
 40
0.3759765625
 40
0.376953125
 40
0.3779296875
 40
0.37890625
 40
0.380859375
 40
0.3828125
 40
0.38671875
 40
0.390625
 40
0.39453125
 40
0.3984375
 40
0.40625
 40
0.4140625
 40
0.41796875
 40
0.421875
 40
0.42578125
 40
0.4296875
 40
0.431640625
 40
0.43359375
 40
0.4345703125
 40
0.435546875
 40
0.4365234375
 40
0.4370117188
 40
0.4372558594
 40
0.4375
 40
0.4377441406
 40
0.4379882812
 40
0.4384765625
 40
0.439453125
 40
0.4404296875
 40
0.44140625
 40
0.443359375
 40
0.4453125
 40
0.44921875
 40
0.453125
 40
0.45703125
 40
0.4609375
 40
0.46875
 40
0.4765625
 40
0.48046875
 40
0.484375
 40
0.48828125
 40
0.4921875
 40
0.494140625
 40
0.49609375
 40
0.4970703125
 40
0.498046875
 40
0.4990234375
 40
0.4995117188
 40
0.4997558594
 40
0.5
 40
0.5002441406
 40
0.5004882812
 40
0.5009765625
 40
0.501953125
 40
0.5029296875
 40
0.50390625
 40
0.505859375
 40
0.5078125
 40
0.51171875
 40
0.515625
 40
0.51953125
 40
0.5234375
 40
0.53125
 40
0.5390625
 40
0.54296875
 40
0.546875
 40
0.55078125
 40
0.5546875
 40
0.556640625
 40
0.55859375
 40
0.5595703125
 40
0.560546875
 40
0.5615234375
 40
0.5620117188
 40
0.5625
 40
0.5629882812
 40
0.5634765625
 40
0.564453125
 40
0.5654296875
 40
0.56640625
 40
0.568359375
 40
0.5703125
 40
0.57421875
 40
0.578125
 40
0.58203125
 40
0.5859375
 40
0.59375
 40
0.6015625
 40
0.60546875
 40
0.609375
 40
0.61328125
 40
0.6171875
 40
0.619140625
 40
0.62109375
 40
0.6220703125
 40
0.623046875
 40
0.6240234375
 40
0.6245117188
 40
0.625
 40
0.6254882812
 40
0.6259765625
 40
0.626953125
 40
0.6279296875
 40
0.62890625
 40
0.630859375
 40
0.6328125
 40
0.63671875
 40
0.640625
 40
0.64453125
 40
0.6484375
 40
0.65625
 40
0.6640625
 40
0.66796875
 40
0.671875
 40
0.67578125
 40
0.6796875
 40
0.681640625
 40
0.68359375
 40
0.6845703125
 40
0.685546875
 40
0.6865234375
 40
0.6870117188
 40
0.6875
 40
0.6879882812
 40
0.6884765625
 40
0.689453125
 40
0.6904296875
 40
0.69140625
 40
0.693359375
 40
0.6953125
 40
0.69921875
 40
0.703125
 40
0.70703125
 40
0.7109375
 40
0.71875
 40
0.7265625
 40
0.73046875
 40
0.734375
 40
0.73828125
 40
0.7421875
 40
0.744140625
 40
0.74609375
 40
0.7470703125
 40
0.748046875
 40
0.7490234375
 40
0.7495117188
 40
0.75
 40
0.7504882812
 40
0.7509765625
 40
0.751953125
 40
0.7529296875
 40
0.75390625
 40
0.755859375
 40
0.7578125
 40
0.76171875
 40
0.765625
 40
0.76953125
 40
0.7734375
 40
0.78125
 40
0.7890625
 40
0.79296875
 40
0.796875
 40
0.80078125
 40
0.8046875
 40
0.806640625
 40
0.80859375
 40
0.8095703125
 40
0.810546875
 40
0.8115234375
 40
0.8120117188
 40
0.8125
 40
0.8129882812
 40
0.8134765625
 40
0.814453125
 40
0.8154296875
 40
0.81640625
 40
0.818359375
 40
0.8203125
 40
0.82421875
 40
0.828125
 40
0.83203125
 40
0.8359375
 40
0.84375
 40
0.8515625
 40
0.85546875
 40
0.859375
 40
0.86328125
 40
0.8671875
 40
0.869140625
 40
0.87109375
 40
0.8720703125
 40
0.873046875
 40
0.8740234375
 40
0.8745117188
 40
0.875
 40
0.8754882812
 40
0.8759765625
 40
0.876953125
 40
0.8779296875
 40
0.87890625
 40
0.880859375
 40
0.8828125
 40
0.88671875
 40
0.890625
 40
0.89453125
 40
0.8984375
 40
0.90625
 40
0.9140625
 40
0.91796875
 40
0.921875
 40
0.92578125
 40
0.9296875
 40
0.931640625
 40
0.93359375
 40
0.9345703125
 40
0.935546875
 40
0.9365234375
 40
0.9370117188
 40
0.9375
 40
0.9379882812
 40
0.9384765625
 40
0.939453125
 40
0.9404296875
 40
0.94140625
 40
0.943359375
 40
0.9453125
 40
0.94921875
 40
0.953125
 40
0.95703125
 40
0.9609375
 40
0.96875
 40
0.9765625
 40
0.984375
 40
1.0
 40
1.0
 40
1.0
 40
1.0
 10
10.3809750547
 20
9.2094869003
 30
0.0
 10
10.3841082416
 20
9.2095768248
 30
0.0
 10
10.388808022
 20
9.2097117114
 30
0.0
 10
10.3950743958
 20
9.2098915602
 30
0.0
 10
10.3997741762
 20
9.2100264467
 30
0.0
 10
10.4036906598
 20
9.2101388527
 30
0.0
 10
10.4068238469
 20
9.2102287762
 30
0.0
 10
10.4091737365
 20
9.2102962223
 30
0.0
 10
10.4115236288
 20
9.2103636551
 30
0.0
 10
10.4134818642
 20
9.2104198906
 30
0.0
 10
10.4150484707
 20
9.210464786
 30
0.0
 10
10.4160275584
 20
9.2104930574
 30
0.0
 10
10.4168109233
 20
9.2105151894
 30
0.0
 10
10.4173981875
 20
9.210533117
 30
0.0
 10
10.4178883999
 20
9.21054383
 30
0.0
 10
10.4182787182
 20
9.2105618801
 30
0.0
 10
10.4185765164
 20
9.2105495144
 30
0.0
 10
10.4188550024
 20
9.210636022
 30
0.0
 10
10.4192330631
 20
9.2107168277
 30
0.0
 10
10.4197033244
 20
9.2108296846
 30
0.0
 10
10.4202686287
 20
9.2109600408
 30
0.0
 10
10.4210220217
 20
9.2111356206
 30
0.0
 10
10.4219638814
 20
9.2113544888
 30
0.0
 10
10.4234707908
 20
9.2117050169
 30
0.0
 10
10.4253544502
 20
9.2121430607
 30
0.0
 10
10.4276148317
 20
9.2126687632
 30
0.0
 10
10.4298752159
 20
9.2131944523
 30
0.0
 10
10.4328890605
 20
9.2138953757
 30
0.0
 10
10.4366563665
 20
9.2147715285
 30
0.0
 10
10.4404236726
 20
9.2156476817
 30
0.0
 10
10.4434375173
 20
9.2163486045
 30
0.0
 10
10.4456979012
 20
9.2168742955
 30
0.0
 10
10.4479582834
 20
9.2173999909
 30
0.0
 10
10.4498419409
 20
9.2178380564
 30
0.0
 10
10.4513488542
 20
9.2181885404
 30
0.0
 10
10.4522907038
 20
9.218407521
 30
0.0
 10
10.4530441176
 20
9.21858287
 30
0.0
 10
10.4536093584
 20
9.2187139314
 30
0.0
 10
10.4540798183
 20
9.2188245817
 30
0.0
 10
10.4544102668
 20
9.2188992258
 30
0.0
 10
10.4545973356
 20
9.218946269
 30
0.0
 10
10.4547425921
 20
9.2189691861
 30
0.0
 10
10.4548689083
 20
9.2190393695
 30
0.0
 10
10.4550439364
 20
9.2191164604
 30
0.0
 10
10.4553471576
 20
9.219259051
 30
0.0
 10
10.45578194
 20
9.2194587359
 30
0.0
 10
10.4563029901
 20
9.2197000767
 30
0.0
 10
10.456997964
 20
9.2200212641
 30
0.0
 10
10.4578665992
 20
9.2204229538
 30
0.0
 10
10.4592564614
 20
9.2210655425
 30
0.0
 10
10.4609937733
 20
9.2218688179
 30
0.0
 10
10.4630785545
 20
9.2228327314
 30
0.0
 10
10.4651633338
 20
9.2237966494
 30
0.0
 10
10.4679430402
 20
9.2250818718
 30
0.0
 10
10.471417673
 20
9.2266884005
 30
0.0
 10
10.4748923059
 20
9.2282949287
 30
0.0
 10
10.477672012
 20
9.2295801518
 30
0.0
 10
10.4797567922
 20
9.2305440679
 30
0.0
 10
10.4818415701
 20
9.2315079885
 30
0.0
 10
10.4835788922
 20
9.2323112418
 30
0.0
 10
10.4849687337
 20
9.2329538754
 30
0.0
 10
10.4858374215
 20
9.2333554511
 30
0.0
 10
10.4865322873
 20
9.2336768727
 30
0.0
 10
10.4870536679
 20
9.2339174978
 30
0.0
 10
10.487487416
 20
9.2341194219
 30
0.0
 10
10.4877924836
 20
9.2342580151
 30
0.0
 10
10.4879645533
 20
9.2343415108
 30
0.0
 10
10.4880999571
 20
9.2343920207
 30
0.0
 10
10.4882110821
 20
9.2344888282
 30
0.0
 10
10.4883677175
 20
9.2346017558
 30
0.0
 10
10.4886378837
 20
9.2348069032
 30
0.0
 10
10.4890258983
 20
9.2350960373
 30
0.0
 10
10.4894906328
 20
9.2354446819
 30
0.0
 10
10.4901105872
 20
9.2359089532
 30
0.0
 10
10.4908854246
 20
9.2364894938
 30
0.0
 10
10.4921252235
 20
9.2374182462
 30
0.0
 10
10.4936749519
 20
9.2385792253
 30
0.0
 10
10.4955346347
 20
9.2399723837
 30
0.0
 10
10.4973943151
 20
9.2413655465
 30
0.0
 10
10.4998738898
 20
9.2432230954
 30
0.0
 10
10.5029733579
 20
9.2455450321
 30
0.0
 10
10.5060728262
 20
9.2478669684
 30
0.0
 10
10.5085524005
 20
9.2497245178
 30
0.0
 10
10.5104120822
 20
9.2511176789
 30
0.0
 10
10.5122717602
 20
9.2525108435
 30
0.0
 10
10.5138215034
 20
9.2536718034
 30
0.0
 10
10.515061272
 20
9.2546005949
 30
0.0
 10
10.5158361866
 20
9.255181036
 30
0.0
 10
10.5164559827
 20
9.2556455117
 30
0.0
 10
10.5169212008
 20
9.255993532
 30
0.0
 10
10.5173077025
 20
9.2562846193
 30
0.0
 10
10.5175805694
 20
9.2564862798
 30
0.0
 10
10.5177328776
 20
9.2566047943
 30
0.0
 10
10.5178572944
 20
9.2566844407
 30
0.0
 10
10.5179427763
 20
9.2567994052
 30
0.0
 10
10.5180703332
 20
9.2569403718
 30
0.0
 10
10.5182872302
 20
9.2571928033
 30
0.0
 10
10.5186003911
 20
9.2575504188
 30
0.0
 10
10.5189747682
 20
9.2579808419
 30
0.0
 10
10.5194744322
 20
9.2585542907
 30
0.0
 10
10.5200988429
 20
9.2592712553
 30
0.0
 10
10.5210979947
 20
9.2604183128
 30
0.0
 10
10.522346902
 20
9.2618521642
 30
0.0
 10
10.5238456046
 20
9.2635727733
 30
0.0
 10
10.5253443036
 20
9.2652933857
 30
0.0
 10
10.5273425701
 20
9.2675875344
 30
0.0
 10
10.5298404028
 20
9.2704552207
 30
0.0
 10
10.5323382358
 20
9.2733229067
 30
0.0
 10
10.5343365017
 20
9.2756170558
 30
0.0
 10
10.5358352023
 20
9.2773376669
 30
0.0
 10
10.5373338989
 20
9.2790582809
 30
0.0
 10
10.538582825
 20
9.2804921168
 30
0.0
 10
10.5395819383
 20
9.2816392059
 30
0.0
 10
10.5402064469
 20
9.2823560902
 30
0.0
 10
10.5407059101
 20
9.2829297039
 30
0.0
 10
10.5410809009
 20
9.2833596234
 30
0.0
 10
10.5413921416
 20
9.2837188144
 30
0.0
 10
10.5416124665
 20
9.2839684333
 30
0.0
 10
10.5417345308
 20
9.2841139064
 30
0.0
 10
10.5418368842
 20
9.2842150285
 30
0.0
 10
10.541897935
 20
9.2843466646
 30
0.0
 10
10.541993743
 20
9.2845115357
 30
0.0
 10
10.5421546945
 20
9.2848050192
 30
0.0
 10
10.5423881345
 20
9.2852216887
 30
0.0
 10
10.5426667605
 20
9.2857228018
 30
0.0
 10
10.5430387864
 20
9.286390565
 30
0.0
 10
10.5435036391
 20
9.2872254018
 30
0.0
 10
10.544247504
 20
9.2885610664
 30
0.0
 10
10.5451773005
 20
9.2902306727
 30
0.0
 10
10.5462930711
 20
9.2922341893
 30
0.0
 10
10.5474088378
 20
9.2942377088
 30
0.0
 10
10.5488965281
 20
9.2969090671
 30
0.0
 10
10.5507561405
 20
9.3002482653
 30
0.0
 10
10.5526157532
 20
9.3035874634
 30
0.0
 10
10.5541034429
 20
9.306258822
 30
0.0
 10
10.5552192114
 20
9.3082623405
 30
0.0
 10
10.5563349754
 20
9.3102658611
 30
0.0
 10
10.5572647925
 20
9.3119354549
 30
0.0
 10
10.5580086155
 20
9.3132711448
 30
0.0
 10
10.5584735746
 20
9.3141059172
 30
0.0
 10
10.5588453822
 20
9.3147738126
 30
0.0
 10
10.5591246751
 20
9.3152745219
 30
0.0
 10
10.5593560285
 20
9.3156924549
 30
0.0
 10
10.559520705
 20
9.3159836828
 30
0.0
 10
10.5596105445
 20
9.316152168
 30
0.0
 10
10.5596899284
 20
9.3162727026
 30
0.0
 10
10.559723426
 20
9.31641552
 30
0.0
 10
10.5597840951
 20
9.3165981707
 30
0.0
 10
10.5598828087
 20
9.3169214308
 30
0.0
 10
10.5600277269
 20
9.3173813377
 30
0.0
 10
10.5601999599
 20
9.3179340363
 30
0.0
 10
10.5604301868
 20
9.3186706847
 30
0.0
 10
10.5607177709
 20
9.3195915922
 30
0.0
 10
10.561178017
 20
9.3210649899
 30
0.0
 10
10.5617532863
 20
9.3229067557
 30
0.0
 10
10.5624436258
 20
9.3251168667
 30
0.0
 10
10.563133961
 20
9.3273269798
 30
0.0
 10
10.5640544094
 20
9.3302737965
 30
0.0
 10
10.5652049694
 20
9.3339573177
 30
0.0
 10
10.5663555298
 20
9.3376408388
 30
0.0
 10
10.5672759776
 20
9.3405876558
 30
0.0
 10
10.5679663147
 20
9.3427977681
 30
0.0
 10
10.5686566471
 20
9.3450078821
 30
0.0
 10
10.5692319386
 20
9.3468496385
 30
0.0
 10
10.5696921393
 20
9.3483230554
 30
0.0
 10
10.5699798388
 20
9.349243914
 30
0.0
 10
10.5702098289
 20
9.3499806627
 30
0.0
 10
10.5703827855
 20
9.350533055
 30
0.0
 10
10.5705254397
 20
9.3509939202
 30
0.0
 10
10.5706281949
 20
9.3513154696
 30
0.0
 10
10.5706823883
 20
9.3515008612
 30
0.0
 10
10.5707357774
 20
9.3516352594
 30
0.0
 10
10.570740452
 20
9.3517874151
 30
0.0
 10
10.570763677
 20
9.3519840953
 30
0.0
 10
10.5707964038
 20
9.3523311716
 30
0.0
 10
10.5708472954
 20
9.3528254861
 30
0.0
 10
10.5709065937
 20
9.3534193093
 30
0.0
 10
10.5709862769
 20
9.354210848
 30
0.0
 10
10.571085669
 20
9.3552003487
 30
0.0
 10
10.5712448148
 20
9.3567835065
 30
0.0
 10
10.5714437065
 20
9.3587624686
 30
0.0
 10
10.5716823938
 20
9.3611372167
 30
0.0
 10
10.5719210766
 20
9.3635119666
 30
0.0
 10
10.5722393218
 20
9.3666782991
 30
0.0
 10
10.5726371278
 20
9.370636215
 30
0.0
 10
10.5730349342
 20
9.3745941308
 30
0.0
 10
10.5733531787
 20
9.3777604635
 30
0.0
 10
10.5735918635
 20
9.380135213
 30
0.0
 10
10.5738305433
 20
9.3825099624
 30
0.0
 10
10.5740294583
 20
9.3844889206
 30
0.0
 10
10.5741885565
 20
9.3860720865
 30
0.0
 10
10.5742880698
 20
9.3870615666
 30
0.0
 10
10.5743675043
 20
9.3878531473
 30
0.0
 10
10.5744275623
 20
9.3884468421
 30
0.0
 10
10.5744760772
 20
9.3889415586
 30
0.0
 10
10.5745130468
 20
9.3892879172
 30
0.0
 10
10.5745294737
 20
9.3894857474
 30
0.0
 10
10.57455503
 20
9.3896343706
 30
0.0
 10
10.5745299909
 20
9.389782036
 30
0.0
 10
10.5745142536
 20
9.3899792574
 30
0.0
 10
10.5744784907
 20
9.390324239
 30
0.0
 10
10.5744316997
 20
9.3908171513
 30
0.0
 10
10.5743737105
 20
9.3914086113
 30
0.0
 10
10.5742970343
 20
9.3921972367
 30
0.0
 10
10.5742009689
 20
9.3931830143
 30
0.0
 10
10.5740473874
 20
9.3947602609
 30
0.0
 10
10.5738553682
 20
9.3967318182
 30
0.0
 10
10.5736249633
 20
9.3990976874
 30
0.0
 10
10.5733945535
 20
9.4014635564
 30
0.0
 10
10.5730873422
 20
9.4046180486
 30
0.0
 10
10.5727033275
 20
9.4085611637
 30
0.0
 10
10.5723193126
 20
9.4125042788
 30
0.0
 10
10.5720121018
 20
9.4156587711
 30
0.0
 10
10.5717816903
 20
9.4180246398
 30
0.0
 10
10.5715512919
 20
9.4203905102
 30
0.0
 10
10.5713592523
 20
9.4223620636
 30
0.0
 10
10.5712057124
 20
9.4239393182
 30
0.0
 10
10.571109541
 20
9.4249250754
 30
0.0
 10
10.5710330825
 20
9.4257137427
 30
0.0
 10
10.570974428
 20
9.4263050746
 30
0.0
 10
10.5709297187
 20
9.4267983876
 30
0.0
 10
10.5708845998
 20
9.4271918349
 30
0.0
 10
10.5708763131
 20
9.4274902078
 30
0.0
 10
10.5707704925
 20
9.4277760325
 30
0.0
 10
10.5706634682
 20
9.4281615153
 30
0.0
 10
10.5705179986
 20
9.428641865
 30
0.0
 10
10.5703484384
 20
9.4292189283
 30
0.0
 10
10.5701206106
 20
9.4299881212
 30
0.0
 10
10.5698364242
 20
9.4309496893
 30
0.0
 10
10.5693813916
 20
9.4324881553
 30
0.0
 10
10.5688127155
 20
9.4344112525
 30
0.0
 10
10.5681302551
 20
9.4367189628
 30
0.0
 10
10.5674478078
 20
9.4390266749
 30
0.0
 10
10.5665378735
 20
9.4421036236
 30
0.0
 10
10.5654004573
 20
9.4459498099
 30
0.0
 10
10.5642630401
 20
9.4497959958
 30
0.0
 10
10.5633531075
 20
9.452872945
 30
0.0
 10
10.5626706549
 20
9.4551806558
 30
0.0
 10
10.5619882146
 20
9.4574883708
 30
0.0
 10
10.5614194758
 20
9.4594114534
 30
0.0
 10
10.5609645712
 20
9.4609499492
 30
0.0
 10
10.5606800589
 20
9.4619114415
 30
0.0
 10
10.5604529002
 20
9.46268079
 30
0.0
 10
10.5602812958
 20
9.4632573779
 30
0.0
 10
10.5601422219
 20
9.463739215
 30
0.0
 10
10.5600221492
 20
9.4641216632
 30
0.0
 10
10.5599561777
 20
9.4644167555
 30
0.0
 10
10.5597982808
 20
9.4646803339
 30
0.0
 10
10.5596198624
 20
9.4650427801
 30
0.0
 10
10.5593858223
 20
9.4654920609
 30
0.0
 10
10.5591096899
 20
9.4660328144
 30
0.0
 10
10.5587398662
 20
9.4667532546
 30
0.0
 10
10.5582781506
 20
9.4676539981
 30
0.0
 10
10.5575390904
 20
9.4690950796
 30
0.0
 10
10.5566153734
 20
9.4708964685
 30
0.0
 10
10.5555068666
 20
9.4730581194
 30
0.0
 10
10.5543983721
 20
9.4752197746
 30
0.0
 10
10.5529203752
 20
9.4781019799
 30
0.0
 10
10.5510728807
 20
9.4817047372
 30
0.0
 10
10.5492253851
 20
9.485307494
 30
0.0
 10
10.5477473899
 20
9.4881897
 30
0.0
 10
10.5466388904
 20
9.4903513531
 30
0.0
 10
10.5455304029
 20
9.4925130118
 30
0.0
 10
10.5446066257
 20
9.4943143763
 30
0.0
 10
10.5438676881
 20
9.4957555078
 30
0.0
 10
10.5434056607
 20
9.4966561241
 30
0.0
 10
10.5430364769
 20
9.4973768252
 30
0.0
 10
10.5427583897
 20
9.4979167815
 30
0.0
 10
10.5425304656
 20
9.4983685567
 30
0.0
 10
10.5423395695
 20
9.4987259137
 30
0.0
 10
10.5422197788
 20
9.4990050341
 30
0.0
 10
10.542010741
 20
9.4992417757
 30
0.0
 10
10.541763199
 20
9.4995722345
 30
0.0
 10
10.5414430756
 20
9.4999802292
 30
0.0
 10
10.5410635057
 20
9.5004719967
 30
0.0
 10
10.5405558135
 20
9.5011269274
 30
0.0
 10
10.5399217457
 20
9.5019458507
 30
0.0
 10
10.5389069313
 20
9.5032559828
 30
0.0
 10
10.5376385182
 20
9.5048936977
 30
0.0
 10
10.5361163775
 20
9.5068589343
 30
0.0
 10
10.5345942488
 20
9.5088241765
 30
0.0
 10
10.5325647397
 20
9.5114444976
 30
0.0
 10
10.5300278549
 20
9.5147198996
 30
0.0
 10
10.5274909692
 20
9.517995301
 30
0.0
 10
10.5254614616
 20
9.5206156231
 30
0.0
 10
10.5239393285
 20
9.5225808621
 30
0.0
 10
10.5224172043
 20
9.524546111
 30
0.0
 10
10.52114874
 20
9.5261837876
 30
0.0
 10
10.52013403
 20
9.5274939979
 30
0.0
 10
10.5194996964
 20
9.5283127221
 30
0.0
 10
10.5189925498
 20
9.5289680616
 30
0.0
 10
10.5186113129
 20
9.5294585803
 30
0.0
 10
10.518296405
 20
9.529870482
 30
0.0
 10
10.5180382225
 20
9.5301929697
 30
0.0
 10
10.5178616803
 20
9.5304540549
 30
0.0
 10
10.5176198878
 20
9.5306417788
 30
0.0
 10
10.5173202905
 20
9.5309177035
 30
0.0
 10
10.5169379739
 20
9.5312538171
 30
0.0
 10
10.5164825412
 20
9.5316609167
 30
0.0
 10
10.5158741285
 20
9.5322024018
 30
0.0
 10
10.5151140129
 20
9.5328797082
 30
0.0
 10
10.5138976042
 20
9.5339631469
 30
0.0
 10
10.5123771701
 20
9.5353175316
 30
0.0
 10
10.5105526163
 20
9.5369427562
 30
0.0
 10
10.5087280712
 20
9.5385679908
 30
0.0
 10
10.5062953415
 20
9.5407349667
 30
0.0
 10
10.5032544304
 20
9.5434436879
 30
0.0
 10
10.5002135186
 20
9.5461524082
 30
0.0
 10
10.4977807899
 20
9.5483193855
 30
0.0
 10
10.4959562415
 20
9.5499446157
 30
0.0
 10
10.4941317005
 20
9.5515698566
 30
0.0
 10
10.4926112264
 20
9.5529241908
 30
0.0
 10
10.4913948992
 20
9.5540077324
 30
0.0
 10
10.4906345762
 20
9.5546847771
 30
0.0
 10
10.4900265893
 20
9.5552267994
 30
0.0
 10
10.4895698558
 20
9.5556322575
 30
0.0
 10
10.489191609
 20
9.5559735072
 30
0.0
 10
10.4888837085
 20
9.5562389531
 30
0.0
 10
10.4886672737
 20
9.5564586785
 30
0.0
 10
10.4883955279
 20
9.556599617
 30
0.0
 10
10.488052521
 20
9.5568150562
 30
0.0
 10
10.4876171335
 20
9.5570749129
 30
0.0
 10
10.4870975059
 20
9.5573907825
 30
0.0
 10
10.486403678
 20
9.5578105303
 30
0.0
 10
10.4855367325
 20
9.5583356985
 30
0.0
 10
10.48414943
 20
9.5591756974
 30
0.0
 10
10.482415367
 20
9.5602257887
 30
0.0
 10
10.4803344635
 20
9.5614858586
 30
0.0
 10
10.4782535674
 20
9.5627459391
 30
0.0
 10
10.4754790367
 20
9.5644260427
 30
0.0
 10
10.4720108743
 20
9.5665261736
 30
0.0
 10
10.4685427114
 20
9.5686263035
 30
0.0
 10
10.4657681815
 20
9.5703064087
 30
0.0
 10
10.4636872828
 20
9.5715664844
 30
0.0
 10
10.4616063893
 20
9.5728265722
 30
0.0
 10
10.4598722953
 20
9.5738766079
 30
0.0
 10
10.458485056
 20
9.5747167203
 30
0.0
 10
10.4576179496
 20
9.5752415995
 30
0.0
 10
10.456924452
 20
9.5756619404
 30
0.0
 10
10.4564038153
 20
9.5759759982
 30
0.0
 10
10.4559715848
 20
9.5762415237
 30
0.0
 10
10.455622137
 20
9.5764453974
 30
0.0
 10
10.4553700614
 20
9.5766216566
 30
0.0
 10
10.4550797763
 20
9.5767087731
 30
0.0
 10
10.4547060766
 20
9.5768560672
 30
0.0
 10
10.4542343727
 20
9.5770295014
 30
0.0
 10
10.453670288
 20
9.5772421952
 30
0.0
 10
10.4529174906
 20
9.5775241897
 30
0.0
 10
10.4519767281
 20
9.5778772298
 30
0.0
 10
10.4504713772
 20
9.5784417882
 30
0.0
 10
10.4485897335
 20
9.5791475912
 30
0.0
 10
10.4463317418
 20
9.5799945098
 30
0.0
 10
10.4440737552
 20
9.5808414404
 30
0.0
 10
10.4410631047
 20
9.5819706769
 30
0.0
 10
10.4372997922
 20
9.5833822243
 30
0.0
 10
10.4335364793
 20
9.5847937705
 30
0.0
 10
10.4305258294
 20
9.5859230088
 30
0.0
 10
10.4282678409
 20
9.5867699342
 30
0.0
 10
10.4260098563
 20
9.5876168724
 30
0.0
 10
10.4241281904
 20
9.5883226142
 30
0.0
 10
10.4226228848
 20
9.5888872974
 30
0.0
 10
10.4216820071
 20
9.5892400199
 30
0.0
 10
10.4209294462
 20
9.5895226664
 30
0.0
 10
10.4203646389
 20
9.5897333685
 30
0.0
 10
10.4198951958
 20
9.5899130342
 30
0.0
 10
10.4195168835
 20
9.5900476147
 30
0.0
 10
10.4192406851
 20
9.5901735578
 30
0.0
 10
10.4189357221
 20
9.5902040458
 30
0.0
 10
10.4185391526
 20
9.5902780402
 30
0.0
 10
10.4180399934
 20
9.5903590931
 30
0.0
 10
10.417442478
 20
9.5904612533
 30
0.0
 10
10.4166452753
 20
9.5905957566
 30
0.0
 10
10.4156489484
 20
9.5907644713
 30
0.0
 10
10.4140547267
 20
9.5910340875
 30
0.0
 10
10.4120619835
 20
9.5913712201
 30
0.0
 10
10.4096706771
 20
9.5917757311
 30
0.0
 10
10.4072793746
 20
9.5921802549
 30
0.0
 10
10.4040909699
 20
9.5927196156
 30
0.0
 10
10.4001054644
 20
9.5933938179
 30
0.0
 10
10.3953228577
 20
9.5942028601
 30
0.0
 10
10.3889460489
 20
9.5952815832
 30
0.0
 10
10.3841634422
 20
9.5960906255
 30
0.0
 10
10.3809750378
 20
9.596629987
 30
0.0
  0
SPLINE
  5
39A
100
AcDbEntity
  8
0
100
AcDbSpline
 62
4
  6
CONTINUOUS
 70
0
 71
3
 72
387
 73
383
 74
0
 42
0.0000001
 43
0.0000001
 44
0.0000000001
 40
0.0
 40
0.0
 40
0.0
 40
0.0
 40
0.015625
 40
0.0234375
 40
0.03125
 40
0.0390625
 40
0.04296875
 40
0.046875
 40
0.05078125
 40
0.0546875
 40
0.056640625
 40
0.05859375
 40
0.0595703125
 40
0.060546875
 40
0.0615234375
 40
0.0620117188
 40
0.0625
 40
0.0629882812
 40
0.0634765625
 40
0.064453125
 40
0.0654296875
 40
0.06640625
 40
0.068359375
 40
0.0703125
 40
0.07421875
 40
0.078125
 40
0.08203125
 40
0.0859375
 40
0.09375
 40
0.1015625
 40
0.10546875
 40
0.109375
 40
0.11328125
 40
0.1171875
 40
0.119140625
 40
0.12109375
 40
0.1220703125
 40
0.123046875
 40
0.1240234375
 40
0.1245117188
 40
0.1247558594
 40
0.125
 40
0.1252441406
 40
0.1254882812
 40
0.1259765625
 40
0.126953125
 40
0.1279296875
 40
0.12890625
 40
0.130859375
 40
0.1328125
 40
0.13671875
 40
0.140625
 40
0.14453125
 40
0.1484375
 40
0.15625
 40
0.1640625
 40
0.16796875
 40
0.171875
 40
0.17578125
 40
0.1796875
 40
0.181640625
 40
0.18359375
 40
0.1845703125
 40
0.185546875
 40
0.1865234375
 40
0.1870117188
 40
0.1872558594
 40
0.1875
 40
0.1877441406
 40
0.1879882812
 40
0.1884765625
 40
0.189453125
 40
0.1904296875
 40
0.19140625
 40
0.193359375
 40
0.1953125
 40
0.19921875
 40
0.203125
 40
0.20703125
 40
0.2109375
 40
0.21875
 40
0.2265625
 40
0.23046875
 40
0.234375
 40
0.23828125
 40
0.2421875
 40
0.244140625
 40
0.24609375
 40
0.2470703125
 40
0.248046875
 40
0.2490234375
 40
0.2495117188
 40
0.2497558594
 40
0.25
 40
0.2502441406
 40
0.2504882812
 40
0.2509765625
 40
0.251953125
 40
0.2529296875
 40
0.25390625
 40
0.255859375
 40
0.2578125
 40
0.26171875
 40
0.265625
 40
0.26953125
 40
0.2734375
 40
0.28125
 40
0.2890625
 40
0.29296875
 40
0.296875
 40
0.30078125
 40
0.3046875
 40
0.306640625
 40
0.30859375
 40
0.3095703125
 40
0.310546875
 40
0.3115234375
 40
0.3120117188
 40
0.3122558594
 40
0.3125
 40
0.3127441406
 40
0.3129882812
 40
0.3134765625
 40
0.314453125
 40
0.3154296875
 40
0.31640625
 40
0.318359375
 40
0.3203125
 40
0.32421875
 40
0.328125
 40
0.33203125
 40
0.3359375
 40
0.34375
 40
0.3515625
 40
0.35546875
 40
0.359375
 40
0.36328125
 40
0.3671875
 40
0.369140625
 40
0.37109375
 40
0.3720703125
 40
0.373046875
 40
0.3740234375
 40
0.3745117188
 40
0.3747558594
 40
0.375
 40
0.3752441406
 40
0.3754882812
 40
0.3759765625
 40
0.376953125
 40
0.3779296875
 40
0.37890625
 40
0.380859375
 40
0.3828125
 40
0.38671875
 40
0.390625
 40
0.39453125
 40
0.3984375
 40
0.40625
 40
0.4140625
 40
0.41796875
 40
0.421875
 40
0.42578125
 40
0.4296875
 40
0.431640625
 40
0.43359375
 40
0.4345703125
 40
0.435546875
 40
0.4365234375
 40
0.4370117188
 40
0.4372558594
 40
0.4375
 40
0.4377441406
 40
0.4379882812
 40
0.4384765625
 40
0.439453125
 40
0.4404296875
 40
0.44140625
 40
0.443359375
 40
0.4453125
 40
0.44921875
 40
0.453125
 40
0.45703125
 40
0.4609375
 40
0.46875
 40
0.4765625
 40
0.48046875
 40
0.484375
 40
0.48828125
 40
0.4921875
 40
0.494140625
 40
0.49609375
 40
0.4970703125
 40
0.498046875
 40
0.4990234375
 40
0.4995117188
 40
0.4997558594
 40
0.5
 40
0.5002441406
 40
0.5004882812
 40
0.5009765625
 40
0.501953125
 40
0.5029296875
 40
0.50390625
 40
0.505859375
 40
0.5078125
 40
0.51171875
 40
0.515625
 40
0.51953125
 40
0.5234375
 40
0.53125
 40
0.5390625
 40
0.54296875
 40
0.546875
 40
0.55078125
 40
0.5546875
 40
0.556640625
 40
0.55859375
 40
0.5595703125
 40
0.560546875
 40
0.5615234375
 40
0.5620117188
 40
0.5625
 40
0.5629882812
 40
0.5634765625
 40
0.564453125
 40
0.5654296875
 40
0.56640625
 40
0.568359375
 40
0.5703125
 40
0.57421875
 40
0.578125
 40
0.58203125
 40
0.5859375
 40
0.59375
 40
0.6015625
 40
0.60546875
 40
0.609375
 40
0.61328125
 40
0.6171875
 40
0.619140625
 40
0.62109375
 40
0.6220703125
 40
0.623046875
 40
0.6240234375
 40
0.6245117188
 40
0.625
 40
0.6254882812
 40
0.6259765625
 40
0.626953125
 40
0.6279296875
 40
0.62890625
 40
0.630859375
 40
0.6328125
 40
0.63671875
 40
0.640625
 40
0.64453125
 40
0.6484375
 40
0.65625
 40
0.6640625
 40
0.66796875
 40
0.671875
 40
0.67578125
 40
0.6796875
 40
0.681640625
 40
0.68359375
 40
0.6845703125
 40
0.685546875
 40
0.6865234375
 40
0.6870117188
 40
0.6875
 40
0.6879882812
 40
0.6884765625
 40
0.689453125
 40
0.6904296875
 40
0.69140625
 40
0.693359375
 40
0.6953125
 40
0.69921875
 40
0.703125
 40
0.70703125
 40
0.7109375
 40
0.71875
 40
0.7265625
 40
0.73046875
 40
0.734375
 40
0.73828125
 40
0.7421875
 40
0.744140625
 40
0.74609375
 40
0.7470703125
 40
0.748046875
 40
0.7490234375
 40
0.7495117188
 40
0.75
 40
0.7504882812
 40
0.7509765625
 40
0.751953125
 40
0.7529296875
 40
0.75390625
 40
0.755859375
 40
0.7578125
 40
0.76171875
 40
0.765625
 40
0.76953125
 40
0.7734375
 40
0.78125
 40
0.7890625
 40
0.79296875
 40
0.796875
 40
0.80078125
 40
0.8046875
 40
0.806640625
 40
0.80859375
 40
0.8095703125
 40
0.810546875
 40
0.8115234375
 40
0.8120117188
 40
0.8125
 40
0.8129882812
 40
0.8134765625
 40
0.814453125
 40
0.8154296875
 40
0.81640625
 40
0.818359375
 40
0.8203125
 40
0.82421875
 40
0.828125
 40
0.83203125
 40
0.8359375
 40
0.84375
 40
0.8515625
 40
0.85546875
 40
0.859375
 40
0.86328125
 40
0.8671875
 40
0.869140625
 40
0.87109375
 40
0.8720703125
 40
0.873046875
 40
0.8740234375
 40
0.8745117188
 40
0.875
 40
0.8754882812
 40
0.8759765625
 40
0.876953125
 40
0.8779296875
 40
0.87890625
 40
0.880859375
 40
0.8828125
 40
0.88671875
 40
0.890625
 40
0.89453125
 40
0.8984375
 40
0.90625
 40
0.9140625
 40
0.91796875
 40
0.921875
 40
0.92578125
 40
0.9296875
 40
0.931640625
 40
0.93359375
 40
0.9345703125
 40
0.935546875
 40
0.9365234375
 40
0.9370117188
 40
0.9375
 40
0.9379882812
 40
0.9384765625
 40
0.939453125
 40
0.9404296875
 40
0.94140625
 40
0.943359375
 40
0.9453125
 40
0.94921875
 40
0.953125
 40
0.95703125
 40
0.9609375
 40
0.96875
 40
0.9765625
 40
0.984375
 40
1.0
 40
1.0
 40
1.0
 40
1.0
 10
10.3809750547
 20
9.5966299858
 30
0.0
 10
10.3778418678
 20
9.5965400614
 30
0.0
 10
10.3731420874
 20
9.5964051748
 30
0.0
 10
10.3668757136
 20
9.5962253259
 30
0.0
 10
10.3621759332
 20
9.5960904394
 30
0.0
 10
10.3582594496
 20
9.5959780335
 30
0.0
 10
10.3551262625
 20
9.59588811
 30
0.0
 10
10.3527763729
 20
9.5958206639
 30
0.0
 10
10.3504264806
 20
9.5957532311
 30
0.0
 10
10.3484682452
 20
9.5956969956
 30
0.0
 10
10.3469016387
 20
9.5956521002
 30
0.0
 10
10.345922551
 20
9.5956238287
 30
0.0
 10
10.3451391861
 20
9.5956016968
 30
0.0
 10
10.3445519219
 20
9.5955837692
 30
0.0
 10
10.3440617095
 20
9.5955730562
 30
0.0
 10
10.3436713912
 20
9.5955550061
 30
0.0
 10
10.343373593
 20
9.5955673717
 30
0.0
 10
10.343095107
 20
9.5954808642
 30
0.0
 10
10.3427170463
 20
9.5954000584
 30
0.0
 10
10.342246785
 20
9.5952872016
 30
0.0
 10
10.3416814807
 20
9.5951568454
 30
0.0
 10
10.3409280877
 20
9.5949812656
 30
0.0
 10
10.339986228
 20
9.5947623974
 30
0.0
 10
10.3384793187
 20
9.5944118693
 30
0.0
 10
10.3365956593
 20
9.5939738254
 30
0.0
 10
10.3343352777
 20
9.593448123
 30
0.0
 10
10.3320748936
 20
9.5929224339
 30
0.0
 10
10.329061049
 20
9.5922215104
 30
0.0
 10
10.3252937429
 20
9.5913453577
 30
0.0
 10
10.3215264368
 20
9.5904692045
 30
0.0
 10
10.3185125922
 20
9.5897682817
 30
0.0
 10
10.3162522082
 20
9.5892425907
 30
0.0
 10
10.313991826
 20
9.5887168952
 30
0.0
 10
10.3121081686
 20
9.5882788297
 30
0.0
 10
10.3106012552
 20
9.5879283458
 30
0.0
 10
10.3096594056
 20
9.5877093652
 30
0.0
 10
10.3089059918
 20
9.5875340162
 30
0.0
 10
10.3083407511
 20
9.5874029548
 30
0.0
 10
10.3078702911
 20
9.5872923044
 30
0.0
 10
10.3075398426
 20
9.5872176604
 30
0.0
 10
10.3073527739
 20
9.5871706172
 30
0.0
 10
10.3072075174
 20
9.5871477
 30
0.0
 10
10.3070812012
 20
9.5870775166
 30
0.0
 10
10.306906173
 20
9.5870004257
 30
0.0
 10
10.3066029518
 20
9.5868578351
 30
0.0
 10
10.3061681694
 20
9.5866581503
 30
0.0
 10
10.3056471194
 20
9.5864168095
 30
0.0
 10
10.3049521454
 20
9.5860956221
 30
0.0
 10
10.3040835103
 20
9.5856939323
 30
0.0
 10
10.3026936481
 20
9.5850513436
 30
0.0
 10
10.3009563361
 20
9.5842480683
 30
0.0
 10
10.298871555
 20
9.5832841548
 30
0.0
 10
10.2967867756
 20
9.5823202368
 30
0.0
 10
10.2940070692
 20
9.5810350143
 30
0.0
 10
10.2905324365
 20
9.5794284857
 30
0.0
 10
10.2870578035
 20
9.5778219574
 30
0.0
 10
10.2842780974
 20
9.5765367344
 30
0.0
 10
10.2821933172
 20
9.5755728182
 30
0.0
 10
10.2801085394
 20
9.5746088977
 30
0.0
 10
10.2783712172
 20
9.5738056443
 30
0.0
 10
10.2769813757
 20
9.5731630107
 30
0.0
 10
10.2761126879
 20
9.5727614351
 30
0.0
 10
10.2754178221
 20
9.5724400135
 30
0.0
 10
10.2748964415
 20
9.5721993884
 30
0.0
 10
10.2744626934
 20
9.5719974643
 30
0.0
 10
10.2741576258
 20
9.5718588711
 30
0.0
 10
10.2739855561
 20
9.5717753754
 30
0.0
 10
10.2738501523
 20
9.5717248655
 30
0.0
 10
10.2737390273
 20
9.5716280579
 30
0.0
 10
10.2735823919
 20
9.5715151304
 30
0.0
 10
10.2733122257
 20
9.5713099829
 30
0.0
 10
10.2729242112
 20
9.5710208489
 30
0.0
 10
10.2724594767
 20
9.5706722043
 30
0.0
 10
10.2718395222
 20
9.5702079329
 30
0.0
 10
10.2710646848
 20
9.5696273923
 30
0.0
 10
10.2698248859
 20
9.5686986399
 30
0.0
 10
10.2682751575
 20
9.5675376608
 30
0.0
 10
10.2664154748
 20
9.5661445024
 30
0.0
 10
10.2645557943
 20
9.5647513396
 30
0.0
 10
10.2620762196
 20
9.5628937907
 30
0.0
 10
10.2589767516
 20
9.5605718541
 30
0.0
 10
10.2558772832
 20
9.5582499178
 30
0.0
 10
10.2533977089
 20
9.5563923684
 30
0.0
 10
10.2515380272
 20
9.5549992072
 30
0.0
 10
10.2496783493
 20
9.5536060427
 30
0.0
 10
10.248128606
 20
9.5524450827
 30
0.0
 10
10.2468888374
 20
9.5515162912
 30
0.0
 10
10.2461139229
 20
9.5509358502
 30
0.0
 10
10.2454941267
 20
9.5504713745
 30
0.0
 10
10.2450289087
 20
9.5501233541
 30
0.0
 10
10.2446424069
 20
9.5498322668
 30
0.0
 10
10.24436954
 20
9.5496306063
 30
0.0
 10
10.2442172319
 20
9.5495120918
 30
0.0
 10
10.2440928151
 20
9.5494324455
 30
0.0
 10
10.2440073331
 20
9.549317481
 30
0.0
 10
10.2438797762
 20
9.5491765143
 30
0.0
 10
10.2436628793
 20
9.5489240829
 30
0.0
 10
10.2433497184
 20
9.5485664674
 30
0.0
 10
10.2429753413
 20
9.5481360443
 30
0.0
 10
10.2424756772
 20
9.5475625955
 30
0.0
 10
10.2418512665
 20
9.5468456308
 30
0.0
 10
10.2408521147
 20
9.5456985733
 30
0.0
 10
10.2396032074
 20
9.5442647219
 30
0.0
 10
10.2381045048
 20
9.5425441129
 30
0.0
 10
10.2366058059
 20
9.5408235005
 30
0.0
 10
10.2346075393
 20
9.5385293518
 30
0.0
 10
10.2321097067
 20
9.5356616655
 30
0.0
 10
10.2296118737
 20
9.5327939795
 30
0.0
 10
10.2276136077
 20
9.5304998303
 30
0.0
 10
10.2261149071
 20
9.5287792192
 30
0.0
 10
10.2246162106
 20
9.5270586052
 30
0.0
 10
10.2233672844
 20
9.5256247693
 30
0.0
 10
10.2223681711
 20
9.5244776802
 30
0.0
 10
10.2217436625
 20
9.5237607959
 30
0.0
 10
10.2212441994
 20
9.5231871823
 30
0.0
 10
10.2208692085
 20
9.5227572628
 30
0.0
 10
10.2205579679
 20
9.5223980717
 30
0.0
 10
10.2203376429
 20
9.5221484528
 30
0.0
 10
10.2202155786
 20
9.5220029797
 30
0.0
 10
10.2201132253
 20
9.5219018576
 30
0.0
 10
10.2200521744
 20
9.5217702216
 30
0.0
 10
10.2199563665
 20
9.5216053505
 30
0.0
 10
10.2197954149
 20
9.521311867
 30
0.0
 10
10.2195619749
 20
9.5208951975
 30
0.0
 10
10.219283349
 20
9.5203940843
 30
0.0
 10
10.218911323
 20
9.5197263211
 30
0.0
 10
10.2184464703
 20
9.5188914844
 30
0.0
 10
10.2177026055
 20
9.5175558197
 30
0.0
 10
10.2167728089
 20
9.5158862135
 30
0.0
 10
10.2156570383
 20
9.5138826969
 30
0.0
 10
10.2145412716
 20
9.5118791774
 30
0.0
 10
10.2130535813
 20
9.5092078191
 30
0.0
 10
10.2111939689
 20
9.5058686208
 30
0.0
 10
10.2093343562
 20
9.5025294228
 30
0.0
 10
10.2078466665
 20
9.4998580641
 30
0.0
 10
10.2067308981
 20
9.4978545457
 30
0.0
 10
10.205615134
 20
9.4958510251
 30
0.0
 10
10.204685317
 20
9.4941814313
 30
0.0
 10
10.2039414939
 20
9.4928457413
 30
0.0
 10
10.2034765348
 20
9.492010969
 30
0.0
 10
10.2031047272
 20
9.4913430735
 30
0.0
 10
10.2028254343
 20
9.4908423643
 30
0.0
 10
10.202594081
 20
9.4904244312
 30
0.0
 10
10.2024294044
 20
9.4901332034
 30
0.0
 10
10.2023395649
 20
9.4899647181
 30
0.0
 10
10.202260181
 20
9.4898441836
 30
0.0
 10
10.2022266834
 20
9.4897013662
 30
0.0
 10
10.2021660143
 20
9.4895187155
 30
0.0
 10
10.2020673007
 20
9.4891954554
 30
0.0
 10
10.2019223825
 20
9.4887355485
 30
0.0
 10
10.2017501495
 20
9.4881828499
 30
0.0
 10
10.2015199226
 20
9.4874462015
 30
0.0
 10
10.2012323385
 20
9.486525294
 30
0.0
 10
10.2007720925
 20
9.4850518962
 30
0.0
 10
10.2001968232
 20
9.4832101304
 30
0.0
 10
10.1995064836
 20
9.4810000195
 30
0.0
 10
10.1988161484
 20
9.4787899064
 30
0.0
 10
10.1978957
 20
9.4758430896
 30
0.0
 10
10.19674514
 20
9.4721595684
 30
0.0
 10
10.1955945796
 20
9.4684760474
 30
0.0
 10
10.1946741318
 20
9.4655292304
 30
0.0
 10
10.1939837948
 20
9.4633191181
 30
0.0
 10
10.1932934623
 20
9.4611090041
 30
0.0
 10
10.1927181708
 20
9.4592672477
 30
0.0
 10
10.1922579701
 20
9.4577938307
 30
0.0
 10
10.1919702706
 20
9.4568729721
 30
0.0
 10
10.1917402806
 20
9.4561362234
 30
0.0
 10
10.1915673239
 20
9.4555838311
 30
0.0
 10
10.1914246698
 20
9.455122966
 30
0.0
 10
10.1913219145
 20
9.4548014166
 30
0.0
 10
10.1912677212
 20
9.4546160249
 30
0.0
 10
10.1912143321
 20
9.4544816267
 30
0.0
 10
10.1912096574
 20
9.454329471
 30
0.0
 10
10.1911864324
 20
9.4541327908
 30
0.0
 10
10.1911537057
 20
9.4537857145
 30
0.0
 10
10.191102814
 20
9.4532914
 30
0.0
 10
10.1910435157
 20
9.4526975768
 30
0.0
 10
10.1909638325
 20
9.4519060381
 30
0.0
 10
10.1908644404
 20
9.4509165375
 30
0.0
 10
10.1907052946
 20
9.4493333797
 30
0.0
 10
10.190506403
 20
9.4473544176
 30
0.0
 10
10.1902677156
 20
9.4449796694
 30
0.0
 10
10.1900290329
 20
9.4426049196
 30
0.0
 10
10.1897107876
 20
9.439438587
 30
0.0
 10
10.1893129816
 20
9.4354806711
 30
0.0
 10
10.1889151753
 20
9.4315227553
 30
0.0
 10
10.1885969307
 20
9.4283564227
 30
0.0
 10
10.188358246
 20
9.4259816731
 30
0.0
 10
10.1881195661
 20
9.4236069237
 30
0.0
 10
10.1879206511
 20
9.4216279656
 30
0.0
 10
10.1877615529
 20
9.4200447997
 30
0.0
 10
10.1876620396
 20
9.4190553196
 30
0.0
 10
10.1875826051
 20
9.4182637388
 30
0.0
 10
10.1875225472
 20
9.4176700441
 30
0.0
 10
10.1874740323
 20
9.4171753275
 30
0.0
 10
10.1874370626
 20
9.416828969
 30
0.0
 10
10.1874206357
 20
9.4166311388
 30
0.0
 10
10.1873950794
 20
9.4164825155
 30
0.0
 10
10.1874201186
 20
9.4163348501
 30
0.0
 10
10.1874358558
 20
9.4161376288
 30
0.0
 10
10.1874716187
 20
9.4157926471
 30
0.0
 10
10.1875184097
 20
9.4152997348
 30
0.0
 10
10.1875763989
 20
9.4147082749
 30
0.0
 10
10.1876530751
 20
9.4139196494
 30
0.0
 10
10.1877491405
 20
9.4129338718
 30
0.0
 10
10.1879027221
 20
9.4113566253
 30
0.0
 10
10.1880947412
 20
9.4093850679
 30
0.0
 10
10.1883251462
 20
9.4070191988
 30
0.0
 10
10.1885555559
 20
9.4046533297
 30
0.0
 10
10.1888627673
 20
9.4014988376
 30
0.0
 10
10.1892467819
 20
9.3975557224
 30
0.0
 10
10.1896307969
 20
9.3936126073
 30
0.0
 10
10.1899380076
 20
9.3904581151
 30
0.0
 10
10.1901684191
 20
9.3880922464
 30
0.0
 10
10.1903988175
 20
9.3857263759
 30
0.0
 10
10.1905908571
 20
9.3837548225
 30
0.0
 10
10.190744397
 20
9.382177568
 30
0.0
 10
10.1908405685
 20
9.3811918108
 30
0.0
 10
10.1909170269
 20
9.3804031434
 30
0.0
 10
10.1909756815
 20
9.3798118116
 30
0.0
 10
10.1910203908
 20
9.3793184986
 30
0.0
 10
10.1910655096
 20
9.3789250513
 30
0.0
 10
10.1910737963
 20
9.3786266784
 30
0.0
 10
10.1911796169
 20
9.3783408537
 30
0.0
 10
10.1912866413
 20
9.3779553708
 30
0.0
 10
10.1914321109
 20
9.3774750212
 30
0.0
 10
10.191601671
 20
9.3768979579
 30
0.0
 10
10.1918294988
 20
9.376128765
 30
0.0
 10
10.1921136852
 20
9.3751671968
 30
0.0
 10
10.1925687178
 20
9.3736287309
 30
0.0
 10
10.1931373939
 20
9.3717056337
 30
0.0
 10
10.1938198543
 20
9.3693979233
 30
0.0
 10
10.1945023016
 20
9.3670902113
 30
0.0
 10
10.1954122359
 20
9.3640132625
 30
0.0
 10
10.1965496521
 20
9.3601670763
 30
0.0
 10
10.1976870694
 20
9.3563208903
 30
0.0
 10
10.1985970019
 20
9.3532439411
 30
0.0
 10
10.1992794545
 20
9.3509362304
 30
0.0
 10
10.1999618948
 20
9.3486285153
 30
0.0
 10
10.2005306336
 20
9.3467054327
 30
0.0
 10
10.2009855382
 20
9.345166937
 30
0.0
 10
10.2012700505
 20
9.3442054447
 30
0.0
 10
10.2014972092
 20
9.3434360961
 30
0.0
 10
10.2016688136
 20
9.3428595082
 30
0.0
 10
10.2018078875
 20
9.3423776711
 30
0.0
 10
10.2019279602
 20
9.3419952229
 30
0.0
 10
10.2019939318
 20
9.3417001307
 30
0.0
 10
10.2021518286
 20
9.3414365522
 30
0.0
 10
10.2023302471
 20
9.3410741061
 30
0.0
 10
10.2025642871
 20
9.3406248253
 30
0.0
 10
10.2028404196
 20
9.3400840717
 30
0.0
 10
10.2032102432
 20
9.3393636316
 30
0.0
 10
10.2036719588
 20
9.3384628881
 30
0.0
 10
10.204411019
 20
9.3370218066
 30
0.0
 10
10.205334736
 20
9.3352204176
 30
0.0
 10
10.2064432429
 20
9.3330587667
 30
0.0
 10
10.2075517373
 20
9.3308971116
 30
0.0
 10
10.2090297342
 20
9.3280149063
 30
0.0
 10
10.2108772287
 20
9.324412149
 30
0.0
 10
10.2127247243
 20
9.3208093922
 30
0.0
 10
10.2142027195
 20
9.3179271861
 30
0.0
 10
10.2153112191
 20
9.3157655331
 30
0.0
 10
10.2164197066
 20
9.3136038743
 30
0.0
 10
10.2173434837
 20
9.3118025099
 30
0.0
 10
10.2180824214
 20
9.3103613784
 30
0.0
 10
10.2185444487
 20
9.309460762
 30
0.0
 10
10.2189136325
 20
9.308740061
 30
0.0
 10
10.2191917197
 20
9.3082001046
 30
0.0
 10
10.2194196438
 20
9.3077483294
 30
0.0
 10
10.2196105399
 20
9.3073909724
 30
0.0
 10
10.2197303307
 20
9.3071118521
 30
0.0
 10
10.2199393685
 20
9.3068751105
 30
0.0
 10
10.2201869104
 20
9.3065446516
 30
0.0
 10
10.2205070338
 20
9.306136657
 30
0.0
 10
10.2208866037
 20
9.3056448895
 30
0.0
 10
10.2213942959
 20
9.3049899588
 30
0.0
 10
10.2220283637
 20
9.3041710354
 30
0.0
 10
10.2230431782
 20
9.3028609034
 30
0.0
 10
10.2243115912
 20
9.3012231884
 30
0.0
 10
10.2258337319
 20
9.2992579519
 30
0.0
 10
10.2273558606
 20
9.2972927096
 30
0.0
 10
10.2293853697
 20
9.2946723886
 30
0.0
 10
10.2319222545
 20
9.2913969865
 30
0.0
 10
10.2344591402
 20
9.2881215851
 30
0.0
 10
10.2364886479
 20
9.285501263
 30
0.0
 10
10.2380107809
 20
9.283536024
 30
0.0
 10
10.2395329052
 20
9.2815707751
 30
0.0
 10
10.2408013694
 20
9.2799330986
 30
0.0
 10
10.2418160795
 20
9.2786228883
 30
0.0
 10
10.242450413
 20
9.277804164
 30
0.0
 10
10.2429575597
 20
9.2771488246
 30
0.0
 10
10.2433387965
 20
9.2766583059
 30
0.0
 10
10.2436537045
 20
9.2762464041
 30
0.0
 10
10.2439118869
 20
9.2759239165
 30
0.0
 10
10.2440884292
 20
9.2756628312
 30
0.0
 10
10.2443302217
 20
9.2754751073
 30
0.0
 10
10.2446298189
 20
9.2751991827
 30
0.0
 10
10.2450121355
 20
9.2748630691
 30
0.0
 10
10.2454675682
 20
9.2744559695
 30
0.0
 10
10.2460759809
 20
9.2739144844
 30
0.0
 10
10.2468360965
 20
9.273237178
 30
0.0
 10
10.2480525052
 20
9.2721537393
 30
0.0
 10
10.2495729393
 20
9.2707993546
 30
0.0
 10
10.2513974932
 20
9.2691741299
 30
0.0
 10
10.2532220382
 20
9.2675488954
 30
0.0
 10
10.255654768
 20
9.2653819195
 30
0.0
 10
10.2586956791
 20
9.2626731983
 30
0.0
 10
10.2617365909
 20
9.259964478
 30
0.0
 10
10.2641693195
 20
9.2577975006
 30
0.0
 10
10.2659938679
 20
9.2561722704
 30
0.0
 10
10.2678184089
 20
9.2545470296
 30
0.0
 10
10.269338883
 20
9.2531926953
 30
0.0
 10
10.2705552102
 20
9.2521091537
 30
0.0
 10
10.2713155332
 20
9.2514321091
 30
0.0
 10
10.2719235202
 20
9.2508900867
 30
0.0
 10
10.2723802537
 20
9.2504846287
 30
0.0
 10
10.2727585004
 20
9.2501433789
 30
0.0
 10
10.273066401
 20
9.249877933
 30
0.0
 10
10.2732828357
 20
9.2496582077
 30
0.0
 10
10.2735545815
 20
9.2495172692
 30
0.0
 10
10.2738975884
 20
9.24930183
 30
0.0
 10
10.2743329759
 20
9.2490419733
 30
0.0
 10
10.2748526035
 20
9.2487261037
 30
0.0
 10
10.2755464314
 20
9.2483063558
 30
0.0
 10
10.2764133769
 20
9.2477811877
 30
0.0
 10
10.2778006794
 20
9.2469411888
 30
0.0
 10
10.2795347424
 20
9.2458910974
 30
0.0
 10
10.281615646
 20
9.2446310276
 30
0.0
 10
10.283696542
 20
9.2433709471
 30
0.0
 10
10.2864710727
 20
9.2416908435
 30
0.0
 10
10.2899392351
 20
9.2395907126
 30
0.0
 10
10.2934073981
 20
9.2374905826
 30
0.0
 10
10.2961819279
 20
9.2358104775
 30
0.0
 10
10.2982628266
 20
9.2345504017
 30
0.0
 10
10.3003437201
 20
9.233290314
 30
0.0
 10
10.3020778142
 20
9.2322402783
 30
0.0
 10
10.3034650534
 20
9.2314001659
 30
0.0
 10
10.3043321598
 20
9.2308752866
 30
0.0
 10
10.3050256574
 20
9.2304549457
 30
0.0
 10
10.3055462941
 20
9.230140888
 30
0.0
 10
10.3059785246
 20
9.2298753624
 30
0.0
 10
10.3063279724
 20
9.2296714888
 30
0.0
 10
10.306580048
 20
9.2294952296
 30
0.0
 10
10.3068703331
 20
9.229408113
 30
0.0
 10
10.3072440328
 20
9.2292608189
 30
0.0
 10
10.3077157367
 20
9.2290873848
 30
0.0
 10
10.3082798214
 20
9.228874691
 30
0.0
 10
10.3090326189
 20
9.2285926964
 30
0.0
 10
10.3099733813
 20
9.2282396564
 30
0.0
 10
10.3114787322
 20
9.2276750979
 30
0.0
 10
10.3133603759
 20
9.226969295
 30
0.0
 10
10.3156183676
 20
9.2261223764
 30
0.0
 10
10.3178763542
 20
9.2252754458
 30
0.0
 10
10.3208870047
 20
9.2241462092
 30
0.0
 10
10.3246503172
 20
9.2227346619
 30
0.0
 10
10.3284136302
 20
9.2213231157
 30
0.0
 10
10.3314242801
 20
9.2201938773
 30
0.0
 10
10.3336822685
 20
9.219346952
 30
0.0
 10
10.3359402531
 20
9.2185000137
 30
0.0
 10
10.337821919
 20
9.217794272
 30
0.0
 10
10.3393272246
 20
9.2172295887
 30
0.0
 10
10.3402681023
 20
9.2168768663
 30
0.0
 10
10.3410206633
 20
9.2165942198
 30
0.0
 10
10.3415854705
 20
9.2163835177
 30
0.0
 10
10.3420549136
 20
9.216203852
 30
0.0
 10
10.3424332259
 20
9.2160692715
 30
0.0
 10
10.3427094243
 20
9.2159433283
 30
0.0
 10
10.3430143873
 20
9.2159128403
 30
0.0
 10
10.3434109568
 20
9.215838846
 30
0.0
 10
10.343910116
 20
9.2157577931
 30
0.0
 10
10.3445076315
 20
9.2156556329
 30
0.0
 10
10.3453048342
 20
9.2155211296
 30
0.0
 10
10.3463011611
 20
9.2153524149
 30
0.0
 10
10.3478953827
 20
9.2150827987
 30
0.0
 10
10.349888126
 20
9.2147456661
 30
0.0
 10
10.3522794324
 20
9.2143411551
 30
0.0
 10
10.3546707349
 20
9.2139366312
 30
0.0
 10
10.3578591396
 20
9.2133972706
 30
0.0
 10
10.361844645
 20
9.2127230682
 30
0.0
 10
10.3666272517
 20
9.2119140261
 30
0.0
 10
10.3730040605
 20
9.210835303
 30
0.0
 10
10.3777866672
 20
9.2100262607
 30
0.0
 10
10.3809750716
 20
9.2094868992
 30
0.0
  0
ENDSEC
  0
SECTION
  2
OBJECTS
  0
DICTIONARY
  5
C
100
AcDbDictionary
280
0
281
1
  3
ACAD_GROUP
350
D
  3
ACAD_MLINESTYLE
350
17
  3
ACAD_LAYOUT
350
1A
  3
ACAD_PLOTSETTINGS
350
19
  3
ACAD_PLOTSTYLENAME
350
E
  3
ACAD_IMAGE_DICT
350
       39C
  3
ACAD_IMAGE_VARS
350
       39D
  3
ACAD_TABLESTYLE
350
       39E
  0
IMAGEDEF_REACTOR
  5
39B
100
AcDbRasterImageDefReactor
 90
2
330
28F
  0
DICTIONARY
  5
D
102
{ACAD_REACTORS
330
C
102
}
100
AcDbDictionary
280
0
281
1
  0
ACDBDICTIONARYWDFLT
  5
E
102
{ACAD_REACTORS
330
C
102
}
100
AcDbDictionary
281
1
  3
Normal
350
F
100
AcDbDictionaryWithDefault
340
F
  0
DICTIONARY
  5
39C
330
C
100
AcDbDictionary
281
1
  3
B2W_assy_2_img_1
350
       3A1
  0
RASTERVARIABLES
  5
39D
330
C
100
AcDbRasterVariables
 90
0
 70
0
 71
1
 72
5
  0
DICTIONARY
  5
17
102
{ACAD_REACTORS
330
C
102
}
100
AcDbDictionary
280
0
281
1
  3
Standard
350
18
  0
DICTIONARY
  5
39E
330
C
100
AcDbDictionary
281
1
  3
Standard
350
       3A2
  3
Standard1
350
       3A3
  0
DICTIONARY
  5
19
102
{ACAD_REACTORS
330
C
102
}
100
AcDbDictionary
281
1
  0
DICTIONARY
  5
1A
102
{ACAD_REACTORS
330
C
102
}
100
AcDbDictionary
281
1
  3
Model
350
39F
  3
Layout1
350
3A0
  0
ACDBPLACEHOLDER
  5
F
102
{ACAD_REACTORS
330
E
102
}
  0
MLINESTYLE
  5
18
102
{ACAD_REACTORS
330
17
102
}
100
AcDbMlineStyle
  2
STANDARD
 70
0
  3

 62
256
 51
90.0
 52
90.0
 71
2
 49
0.5
 62
256
  6
BYLAYER
 49
-0.5
 62
256
  6
BYLAYER
  0
LAYOUT
  5
39F
102
{ACAD_REACTORS
330
1A
102
}
100
AcDbPlotSettings
  1

  2
none_device
  4
ANSI_C_(22.00_x_17.00_Inches)
  6

 40
0.0
 41
0.0
 42
0.0
 43
0.0
 44
558.8
 45
431.8
 46
0.0
 47
0.0
 48
0.0
 49
0.0
140
0.0
141
0.0
142
1.0
143
1.0
 70
1024
 72
0
 73
0
 74
0
  7

 75
0
147
1.0
148
0.0
149
0.0
100
AcDbLayout
  1
Model
 70
0
 71
0
 10
0.0
 20
0.0
 11
22.0
 21
17.0
 12
0.0
 22
0.0
 32
0.0
 14
0.0
 24
0.0
 34
0.0
 15
0.0
 25
0.0
 35
0.0
146
0.0
 13
0.0
 23
0.0
 33
0.0
 16
1.0
 26
0.0
 36
0.0
 17
0.0
 27
1.0
 37
0.0
 76
0
330
20C
345
0
346
0
  0
LAYOUT
  5
3A0
102
{ACAD_REACTORS
330
1A
102
}
100
AcDbPlotSettings
  1

  2
none_device
  4
ANSI_C_(22.00_x_17.00_Inches)
  6

 40
0.0
 41
0.0
 42
0.0
 43
0.0
 44
558.8
 45
431.8
 46
0.0
 47
0.0
 48
0.0
 49
0.0
140
0.0
141
0.0
142
1.0
143
1.0
 70
0
 72
0
 73
0
 74
0
  7

 75
0
147
1.0
148
0.0
149
0.0
100
AcDbLayout
  1
Layout1
 70
0
 71
1
 10
0.0
 20
0.0
 11
22.0
 21
17.0
 12
0.0
 22
0.0
 32
0.0
 14
0.0
 24
0.0
 34
0.0
 15
0.0
 25
0.0
 35
0.0
146
0.0
 13
0.0
 23
0.0
 33
0.0
 16
1.0
 26
0.0
 36
0.0
 17
0.0
 27
1.0
 37
0.0
 76
0
330
20D
345
0
346
0
  0
IMAGEDEF
  5
3A1
102
{ACAD_REACTORS
330
39C
330
39B
102
}
100
AcDbRasterImageDef
 90
0
  1
B2W_assy_2_img_1.png
 10
369.0
 20
92.0
 11
0.0066666667
 21
0.0066666667
280
1
281
0
  0
TABLESTYLE
  5
3A2
102
{ACAD_REACTORS
330
39E
330
292
330
293
102
}
330
39E
100
AcDbTableStyle
  3
Standard
 70
0
 71
0
 40
0.06
 41
0.06
280
1
281
1
  7
Standard
140
0.18
170
1
 62
0
 63
7
283
0
  7
Standard
140
0.18
170
1
 62
0
 63
7
283
0
  7
Standard
140
0.18
170
1
 62
0
 63
7
283
0
  0
TABLESTYLE
  5
3A3
102
{ACAD_REACTORS
330
39E
330
291
102
}
330
39E
100
AcDbTableStyle
  3
Standard1
 70
1
 71
0
 40
0.06
 41
0.06
280
1
281
1
  7
Standard
140
0.18
170
1
 62
0
 63
7
283
0
  7
Standard
140
0.18
170
1
 62
0
 63
7
283
0
  7
Standard
140
0.18
170
1
 62
0
 63
7
283
0
  0
ENDSEC
  0
EOF
