999
DXF file: B2V_assy_2.dxf
999
Pro/ENGINEER 2014200 by Parametric Technology Corporation
  0
SECTION
  2
HEADER
  9
$ACADVER
  1
AC1021
  9
$DWGCODEPAGE
  3
ANSI_1252
  9
$EXTMAX
 10
22.0
 20
17.0
 30
0.0
  9
$EXTMIN
 10
0.0
 20
0.0
 30
0.0
  9
$LIMMIN
 10
0.0
 20
0.0
  9
$LIMMAX
 10
22.0
 20
17.0
  9
$VIEWCTR
 10
11.0
 20
8.5
  9
$VIEWSIZE
 40
17.0
  9
$CLAYER
  8
0
  9
$LTSCALE
 40
1.21
  9
$CELTYPE
  6
BYLAYER
  9
$DIMSCALE
 40
1.0
  9
$DIMASZ
 40
0.1875
  9
$DIMEXO
 40
0.0625
  9
$DIMDLI
 40
0.836
  9
$DIMEXE
 40
0.125
  9
$DIMCEN
 40
0.198
  9
$DIMLFAC
 40
1.0
  9
$DIMBLK
  1
_FILLED
  9
$DIMTXT
 40
0.1
  9
$DIMTOL
 70
0
  9
$DIMLIM
 70
0
  9
$DIMTFAC
 40
1.0
  9
$DIMGAP
 40
0.09
  9
$DIMDSEP
 70
46
  9
$AUNITS
 70
0
  9
$PDMODE
 70
3
  9
$PDSIZE
 40
0.3125
  9
$HANDSEED
  5
3A2
  9
$TILEMODE
 70
1
  9
$MEASUREMENT
 70
0
  9
$INSUNITS
 70
1
  0
ENDSEC
  0
SECTION
  2
CLASSES
  0
CLASS
  1
ACDBDICTIONARYWDFLT
  2
AcDbDictionaryWithDefault
  3
AutoCAD 2000
 90
0
 91
1
280
0
281
0
  0
CLASS
  1
ACDBPLACEHOLDER
  2
AcDbPlaceHolder
  3
AutoCAD 2000
 90
0
 91
1
280
0
281
0
  0
CLASS
  1
LAYOUT
  2
AcDbLayout
  3
AutoCAD 2000
 90
0
 91
0
280
0
281
0
  0
CLASS
  1
RASTERVARIABLES
  2
AcDbRasterVariables
  3
ISM
 90
0
 91
1
280
0
281
0
  0
CLASS
  1
IMAGEDEF
  2
AcDbRasterImageDef
  3
ISM
 90
0
 91
1
280
0
281
0
  0
CLASS
  1
IMAGEDEF_REACTOR
  2
AcDbRasterImageDefReactor
  3
ISM
 90
0
 91
1
280
0
281
0
  0
CLASS
  1
IMAGE
  2
AcDbRasterImage
  3
ISM
 90
127
 91
1
280
0
281
1
  0
CLASS
  1
TABLESTYLE
  2
AcDbTableStyle
  3
ObjectDBX Classes
 90
2047
 91
1
280
0
281
0
  0
CLASS
  1
ACAD_TABLE
  2
AcDbTable
  3
ObjectDBX Classes
 90
1025
 91
3
280
0
281
1
  0
ENDSEC
  0
SECTION
  2
TABLES
  0
TABLE
  2
VPORT
  5
8
100
AcDbSymbolTable
 70
2
  0
VPORT
  5
1F4
100
AcDbSymbolTableRecord
100
AcDbViewportTableRecord
  2
*ACTIVE
 70
0
 10
0.0
 20
0.0
 11
1.0
 21
1.0
 12
11.0
 22
8.5
 13
0.0
 23
0.0
 14
1.0
 24
1.0
 15
0.0
 25
0.0
 16
0.0
 26
0.0
 36
1.0
 17
0.0
 27
0.0
 37
0.0
 40
17.0
 41
1.2941176471
 42
50.0
 43
0.0
 44
0.0
 50
0.0
 51
0.0
 71
0
 72
100
 73
1
 74
1
 75
0
 76
0
 77
0
 78
0
  0
ENDTAB
  0
TABLE
  2
LTYPE
  5
5
100
AcDbSymbolTable
 70
6
  0
LTYPE
  5
14
100
AcDbSymbolTableRecord
100
AcDbLinetypeTableRecord
  2
BYBLOCK
 70
0
  3

 72
65
 73
0
 40
0.0
  0
LTYPE
  5
15
100
AcDbSymbolTableRecord
100
AcDbLinetypeTableRecord
  2
BYLAYER
 70
0
  3

 72
65
 73
0
 40
0.0
  0
LTYPE
  5
16
100
AcDbSymbolTableRecord
100
AcDbLinetypeTableRecord
  2
CONTINUOUS
 70
64
  3
Solid line
 72
65
 73
0
 40
0.0
  0
LTYPE
  5
1F5
100
AcDbSymbolTableRecord
100
AcDbLinetypeTableRecord
  2
CENTER
 70
64
  3
____ _ ____ _ ____ _ ____ _ ____ _ ____ _ ____
 72
65
 73
4
 40
0.6
 49
0.375
 74
0
 49
-0.075
 74
0
 49
0.075
 74
0
 49
-0.075
 74
0
  0
LTYPE
  5
1F6
100
AcDbSymbolTableRecord
100
AcDbLinetypeTableRecord
  2
HIDDEN
 70
64
  3
- - - - - - - - - - - - - - - - - - - -
 72
65
 73
2
 40
0.2
 49
0.1
 74
0
 49
-0.1
 74
0
  0
LTYPE
  5
1F7
100
AcDbSymbolTableRecord
100
AcDbLinetypeTableRecord
  2
PHANTOM
 70
64
  3
_____ _ _ _____ _ _ _____ _ _ _____
 72
65
 73
6
 40
0.8
 49
0.45
 74
0
 49
-0.05
 74
0
 49
0.1
 74
0
 49
-0.05
 74
0
 49
0.1
 74
0
 49
-0.05
 74
0
  0
LTYPE
  5
1F8
100
AcDbSymbolTableRecord
100
AcDbLinetypeTableRecord
  2
DOT
 70
64
  3
. . . . . . . . . . . . . . . . . . . .
 72
65
 73
2
 40
0.2
 49
0.1
 74
0
 49
-0.1
 74
0
  0
LTYPE
  5
1F9
100
AcDbSymbolTableRecord
100
AcDbLinetypeTableRecord
  2
DASHED
 70
64
  3
- - - - - - - - - - - - - - - - - - - -
 72
65
 73
2
 40
0.2
 49
0.1
 74
0
 49
-0.1
 74
0
  0
ENDTAB
  0
TABLE
  2
LAYER
  5
2
100
AcDbSymbolTable
 70
36
  0
LAYER
  5
10
100
AcDbSymbolTableRecord
100
AcDbLayerTableRecord
  2
0
 70
0
 62
7
  6
CONTINUOUS
370
-3
390
F
  0
LAYER
  5
1FA
100
AcDbSymbolTableRecord
100
AcDbLayerTableRecord
  2
DEFAULT_1
 70
0
 62
7
  6
CENTER
370
-3
390
F
  0
LAYER
  5
1FB
100
AcDbSymbolTableRecord
100
AcDbLayerTableRecord
  2
DEFAULT_2
 70
0
 62
8
  6
HIDDEN
370
-3
390
F
  0
LAYER
  5
1FC
100
AcDbSymbolTableRecord
100
AcDbLayerTableRecord
  2
DEFAULT_3
 70
0
 62
7
  6
PHANTOM
370
-3
390
F
  0
LAYER
  5
1FD
100
AcDbSymbolTableRecord
100
AcDbLayerTableRecord
  2
01___PRT_ALL_DTM_PLN
 70
0
 62
7
  6
CONTINUOUS
370
-3
390
F
  0
LAYER
  5
1FE
100
AcDbSymbolTableRecord
100
AcDbLayerTableRecord
  2
01___PRT_DEF_DTM_PLN
 70
0
 62
7
  6
CONTINUOUS
370
-3
390
F
  0
LAYER
  5
1FF
100
AcDbSymbolTableRecord
100
AcDbLayerTableRecord
  2
02___PRT_ALL_AXES
 70
0
 62
7
  6
CONTINUOUS
370
-3
390
F
  0
LAYER
  5
200
100
AcDbSymbolTableRecord
100
AcDbLayerTableRecord
  2
03___PRT_ALL_CURVES
 70
0
 62
7
  6
CONTINUOUS
370
-3
390
F
  0
LAYER
  5
201
100
AcDbSymbolTableRecord
100
AcDbLayerTableRecord
  2
04___PRT_ALL_DTM_PNT
 70
0
 62
7
  6
CONTINUOUS
370
-3
390
F
  0
LAYER
  5
202
100
AcDbSymbolTableRecord
100
AcDbLayerTableRecord
  2
05___PRT_ALL_DTM_CSYS
 70
0
 62
7
  6
CONTINUOUS
370
-3
390
F
  0
LAYER
  5
203
100
AcDbSymbolTableRecord
100
AcDbLayerTableRecord
  2
05___PRT_DEF_DTM_CSYS
 70
0
 62
7
  6
CONTINUOUS
370
-3
390
F
  0
LAYER
  5
204
100
AcDbSymbolTableRecord
100
AcDbLayerTableRecord
  2
06___PRT_ALL_SURFS
 70
0
 62
7
  6
CONTINUOUS
370
-3
390
F
  0
LAYER
  5
205
100
AcDbSymbolTableRecord
100
AcDbLayerTableRecord
  2
DATUM_PLANES
 70
0
 62
7
  6
CONTINUOUS
370
-3
390
F
  0
LAYER
  5
206
100
AcDbSymbolTableRecord
100
AcDbLayerTableRecord
  2
PORT_AREAS
 70
0
 62
7
  6
CONTINUOUS
370
-3
390
F
  0
LAYER
  5
207
100
AcDbSymbolTableRecord
100
AcDbLayerTableRecord
  2
SUNNBOMCOSMETIC
 70
0
 62
7
  6
CONTINUOUS
370
-3
390
F
  0
LAYER
  5
208
100
AcDbSymbolTableRecord
100
AcDbLayerTableRecord
  2
SUNNBOMSTAMPING
 70
0
 62
7
  6
CONTINUOUS
370
-3
390
F
  0
LAYER
  5
209
100
AcDbSymbolTableRecord
100
AcDbLayerTableRecord
  2
THREADS
 70
0
 62
7
  6
CONTINUOUS
370
-3
390
F
  0
ENDTAB
  0
TABLE
  2
STYLE
  5
3
100
AcDbSymbolTable
 70
1
  0
STYLE
  5
11
100
AcDbSymbolTableRecord
100
AcDbTextStyleTableRecord
  2
STANDARD
 70
0
 40
0.0
 41
0.8
 50
0.0
 71
0
 42
0.2
  3
txt
  4

  0
STYLE
  5
20A
100
AcDbSymbolTableRecord
100
AcDbTextStyleTableRecord
  2
TEXTSTYLE_1
 70
0
 40
0.0
 41
0.8
 50
0.0
 71
0
 42
0.2
  3
gdt
  4

  0
ENDTAB
  0
TABLE
  2
VIEW
  5
6
100
AcDbSymbolTable
 70
0
  0
ENDTAB
  0
TABLE
  2
UCS
  5
7
100
AcDbSymbolTable
 70
0
  0
ENDTAB
  0
TABLE
  2
APPID
  5
9
100
AcDbSymbolTable
 70
1
  0
APPID
  5
20B
100
AcDbSymbolTableRecord
100
AcDbRegAppTableRecord
  2
ACAD
 70
0
  0
ENDTAB
  0
TABLE
  2
BLOCK_RECORD
  5
1
100
AcDbSymbolTable
 70
0
  0
BLOCK_RECORD
  5
20C
100
AcDbSymbolTableRecord
100
AcDbBlockTableRecord
  2
*Model_Space
  0
BLOCK_RECORD
  5
20D
100
AcDbSymbolTableRecord
100
AcDbBlockTableRecord
  2
*Paper_Space
  0
BLOCK_RECORD
  5
20E
100
AcDbSymbolTableRecord
100
AcDbBlockTableRecord
  2
SUN_FIRST_THIRD_ANGLE_BL0
  0
BLOCK_RECORD
  5
20F
100
AcDbSymbolTableRecord
100
AcDbBlockTableRecord
  2
*T1
  0
BLOCK_RECORD
  5
210
100
AcDbSymbolTableRecord
100
AcDbBlockTableRecord
  2
*T2
  0
BLOCK_RECORD
  5
211
100
AcDbSymbolTableRecord
100
AcDbBlockTableRecord
  2
*T3
  0
ENDTAB
  0
TABLE
  2
DIMSTYLE
  5
A
100
AcDbSymbolTable
 70
1
100
AcDbDimStyleTable
 71
0
  0
DIMSTYLE
105
212
100
AcDbSymbolTableRecord
100
AcDbDimStyleTableRecord
  2
STANDARD
 70
0
  3

  4

 40
1.0
 41
0.1875
 42
0.0625
 43
0.38
 44
0.125
 45
0.0
 46
0.0
 47
0.001
 48
0.001
140
0.1
141
0.09
142
0.0
143
25.4
144
1.0
145
0.0
146
1.0
147
0.09
 71
0.0
 72
0.0
 73
1
 74
1
 75
0
 76
0
 77
0
 78
4
170
0
171
2
172
0
173
0
174
0
175
0
176
0
177
0
178
0
270
2
271
3
272
3
273
2
274
2
275
0
280
0
281
0
282
0
283
1
284
4
285
0
286
0
287
3
288
0
340
11
278
46
  0
ENDTAB
  0
ENDSEC
  0
SECTION
  2
BLOCKS
  0
BLOCK
  5
20
100
AcDbEntity
  8
0
100
AcDbBlockBegin
  2
*Model_Space
 70
0
 10
0.0
 20
0.0
 30
0.0
  3
*Model_Space
  1

  0
ENDBLK
  5
21
100
AcDbEntity
  8
0
100
AcDbBlockEnd
  0
BLOCK
  5
1C
100
AcDbEntity
  8
0
100
AcDbBlockBegin
  2
*Paper_Space
 70
0
 10
0.0
 20
0.0
 30
0.0
  3
*Paper_Space
  1

  0
ENDBLK
  5
1D
100
AcDbEntity
  8
0
100
AcDbBlockEnd
  0
BLOCK
  5
213
100
AcDbEntity
  8
0
100
AcDbBlockBegin
 62
2
  6
CONTINUOUS
  2
SUN_FIRST_THIRD_ANGLE_BL0
 70
64
 10
20.4816717061
 20
1.2289683772
  3
SUN_FIRST_THIRD_ANGLE_BL0
  1

  0
TEXT
  5
214
100
AcDbEntity
  8
0
100
AcDbText
 62
2
  6
CONTINUOUS
 10
19.4750896608
 20
1.4136269581
  7
STANDARD
 40
0.08
  1
FIRST ANGLE
 41
0.8
 72
0
100
AcDbText
  0
TEXT
  5
215
100
AcDbEntity
  8
0
100
AcDbText
 62
2
  6
CONTINUOUS
 10
20.7842537513
 20
1.4047600029
  7
STANDARD
 40
0.08
  1
THIRD ANGLE
 41
0.8
 72
0
100
AcDbText
  0
LINE
  5
216
100
AcDbEntity
  8
0
100
AcDbLine
 62
7
  6
CONTINUOUS
 10
19.4767170086
 20
1.1727031207
 11
19.6334271527
 21
1.1717972817
  0
LINE
  5
217
100
AcDbEntity
  8
0
100
AcDbLine
 62
7
  6
CONTINUOUS
 10
19.6596964832
 20
1.1717972817
 11
19.6950230232
 21
1.171593082
  0
LINE
  5
218
100
AcDbEntity
  8
0
100
AcDbLine
 62
7
  6
CONTINUOUS
 10
19.7194818561
 20
1.1708914427
 11
19.8852396156
 21
1.1699333054
  0
LINE
  5
219
100
AcDbEntity
  8
0
100
AcDbLine
 62
7
  6
CONTINUOUS
 10
19.4758111696
 20
1.2723454088
 11
19.88525039
 21
1.3511534004
  0
LINE
  5
21A
100
AcDbEntity
  8
0
100
AcDbLine
 62
7
  6
CONTINUOUS
 10
19.88525039
 20
1.3511534004
 11
19.8831348489
 21
0.9851647912
  0
LINE
  5
21B
100
AcDbEntity
  8
0
100
AcDbLine
 62
7
  6
CONTINUOUS
 10
19.8831348489
 20
0.9851647912
 11
19.4767170086
 21
1.0658141206
  0
LINE
  5
21C
100
AcDbEntity
  8
0
100
AcDbLine
 62
7
  6
CONTINUOUS
 10
19.4767170086
 20
1.0658141206
 11
19.4779056764
 21
1.2714536432
  0
CIRCLE
  5
21D
100
AcDbEntity
  8
0
100
AcDbCircle
 62
7
  6
CONTINUOUS
 10
20.2068232291
 20
1.1717972817
 40
0.175742101
  0
CIRCLE
  5
21E
100
AcDbEntity
  8
0
100
AcDbCircle
 62
7
  6
CONTINUOUS
 10
20.2068232291
 20
1.1717972817
 40
0.1005522074
  0
LINE
  5
21F
100
AcDbEntity
  8
0
100
AcDbLine
 62
7
  6
CONTINUOUS
 10
20.2077290681
 20
1.3756110529
 11
20.2071171714
 21
1.2379342989
  0
LINE
  5
220
100
AcDbEntity
  8
0
100
AcDbLine
 62
7
  6
CONTINUOUS
 10
20.2077290681
 20
1.2016899681
 11
20.2074674401
 21
1.1428236749
  0
LINE
  5
221
100
AcDbEntity
  8
0
100
AcDbLine
 62
7
  6
CONTINUOUS
 10
20.208634907
 20
1.101141841
 11
20.2080230104
 21
0.963465087
  0
LINE
  5
222
100
AcDbEntity
  8
0
100
AcDbLine
 62
7
  6
CONTINUOUS
 10
20.0066328138
 20
1.1745147986
 11
20.1443095678
 21
1.1739029019
  0
LINE
  5
223
100
AcDbEntity
  8
0
100
AcDbLine
 62
7
  6
CONTINUOUS
 10
20.1832714155
 20
1.1727031207
 11
20.238153505
 21
1.172335442
  0
LINE
  5
224
100
AcDbEntity
  8
0
100
AcDbLine
 62
7
  6
CONTINUOUS
 10
20.2756669918
 20
1.1717972817
 11
20.407916871
 21
1.1712095044
  0
CIRCLE
  5
225
100
AcDbEntity
  8
0
100
AcDbCircle
 62
7
  6
CONTINUOUS
 10
20.7509457401
 20
1.1693297793
 40
0.1722024983
  0
CIRCLE
  5
226
100
AcDbEntity
  8
0
100
AcDbCircle
 62
7
  6
CONTINUOUS
 10
20.7509457401
 20
1.1693297793
 40
0.0985164967
  0
LINE
  5
227
100
AcDbEntity
  8
0
100
AcDbLine
 62
7
  6
CONTINUOUS
 10
20.7169767782
 20
1.170462078
 11
20.7825395137
 21
1.1682766535
  0
LINE
  5
228
100
AcDbEntity
  8
0
100
AcDbLine
 62
7
  6
CONTINUOUS
 10
20.8177513651
 20
1.1693297793
 11
20.947965719
 21
1.1693297793
  0
LINE
  5
229
100
AcDbEntity
  8
0
100
AcDbLine
 62
7
  6
CONTINUOUS
 10
20.6875370113
 20
1.170462078
 11
20.5573226574
 21
1.170462078
  0
LINE
  5
22A
100
AcDbEntity
  8
0
100
AcDbLine
 62
7
  6
CONTINUOUS
 10
20.7486811426
 20
1.1987695462
 11
20.7486811426
 21
1.1432869085
  0
LINE
  5
22B
100
AcDbEntity
  8
0
100
AcDbLine
 62
7
  6
CONTINUOUS
 10
20.7498134414
 20
1.1059210505
 11
20.7498134414
 21
0.9757066966
  0
LINE
  5
22C
100
AcDbEntity
  8
0
100
AcDbLine
 62
7
  6
CONTINUOUS
 10
20.7486811426
 20
1.2338708068
 11
20.7486811426
 21
1.3640851607
  0
LINE
  5
22D
100
AcDbEntity
  8
0
100
AcDbLine
 62
7
  6
CONTINUOUS
 10
21.0702539817
 20
1.2701043662
 11
21.4790138229
 21
1.3448360823
  0
LINE
  5
22E
100
AcDbEntity
  8
0
100
AcDbLine
 62
7
  6
CONTINUOUS
 10
21.4790138229
 20
1.3448360823
 11
21.4790138229
 21
0.9779712941
  0
LINE
  5
22F
100
AcDbEntity
  8
0
100
AcDbLine
 62
7
  6
CONTINUOUS
 10
21.4790138229
 20
0.9779712941
 11
21.069121683
 21
1.0617614
  0
LINE
  5
230
100
AcDbEntity
  8
0
100
AcDbLine
 62
7
  6
CONTINUOUS
 10
21.0702539817
 20
1.2701043662
 11
21.069121683
 21
1.0617614
  0
LINE
  5
231
100
AcDbEntity
  8
0
100
AcDbLine
 62
7
  6
CONTINUOUS
 10
21.4790138229
 20
1.1693297793
 11
21.3159628059
 21
1.1693297793
  0
LINE
  5
232
100
AcDbEntity
  8
0
100
AcDbLine
 62
7
  6
CONTINUOUS
 10
21.2876553377
 20
1.1693297793
 11
21.2502894796
 21
1.1693297793
  0
LINE
  5
233
100
AcDbEntity
  8
0
100
AcDbLine
 62
7
  6
CONTINUOUS
 10
21.2208497126
 20
1.1659328831
 11
21.0713862804
 21
1.1659328831
  0
LINE
  5
234
100
AcDbEntity
  8
0
100
AcDbLine
 62
7
  6
CONTINUOUS
 10
20.4796138713
 20
1.5284908897
 11
20.4766766948
 21
0.9294458646
  0
ENDBLK
  5
235
100
AcDbEntity
  8
0
  6
BYBLOCK
 62
0
100
AcDbBlockEnd
  0
BLOCK
  5
236
100
AcDbEntity
  8
0
100
AcDbBlockBegin
  2
*T1
 70
1
 10
0.0
 20
0.0
  3
*T1
  1

  0
LINE
  5
237
100
AcDbEntity
  8
0
100
AcDbLine
 62
2
  6
CONTINUOUS
 10
9.275
 20
0.0
 11
-0.0
 21
0.0
  0
LINE
  5
238
100
AcDbEntity
  8
0
100
AcDbLine
 62
2
  6
CONTINUOUS
 10
9.275
 20
0.0
 11
9.275
 21
1.25
  0
LINE
  5
239
100
AcDbEntity
  8
0
100
AcDbLine
 62
2
  6
CONTINUOUS
 10
9.275
 20
0.625
 11
-0.0
 21
0.625
  0
LINE
  5
23A
100
AcDbEntity
  8
0
100
AcDbLine
 62
2
  6
CONTINUOUS
 10
9.275
 20
1.25
 11
-0.0
 21
1.25
  0
LINE
  5
23B
100
AcDbEntity
  8
0
100
AcDbLine
 62
2
  6
CONTINUOUS
 10
6.8
 20
0.0
 11
6.8
 21
1.25
  0
LINE
  5
23C
100
AcDbEntity
  8
0
100
AcDbLine
 62
2
  6
CONTINUOUS
 10
6.4
 20
0.0
 11
6.4
 21
0.625
  0
LINE
  5
23D
100
AcDbEntity
  8
0
100
AcDbLine
 62
2
  6
CONTINUOUS
 10
5.9
 20
0.0
 11
5.9
 21
0.625
  0
LINE
  5
23E
100
AcDbEntity
  8
0
100
AcDbLine
 62
2
  6
CONTINUOUS
 10
5.2
 20
0.0
 11
5.2
 21
0.625
  0
LINE
  5
23F
100
AcDbEntity
  8
0
100
AcDbLine
 62
2
  6
CONTINUOUS
 10
4.1
 20
0.0
 11
4.1
 21
1.25
  0
LINE
  5
240
100
AcDbEntity
  8
0
100
AcDbLine
 62
2
  6
CONTINUOUS
 10
-0.0
 20
0.0
 11
-0.0
 21
1.25
  0
MTEXT
  5
241
100
AcDbEntity
  8
0
100
AcDbMText
 62
2
  6
CONTINUOUS
  7
STANDARD
 71
2
 72
1
 10
6.6
 20
0.325
 30
0.0
 11
1.0
 21
0.0
 31
0.0
 44
0.9
  1
2
 40
0.125
 41
0.2
  0
MTEXT
  5
242
100
AcDbEntity
  8
0
100
AcDbMText
 62
2
  6
CONTINUOUS
  7
STANDARD
 71
2
 72
1
 10
6.15
 20
0.325
 30
0.0
 11
1.0
 21
0.0
 31
0.0
 44
0.9
  1
C
 40
0.125
 41
0.2
  0
MTEXT
  5
243
100
AcDbEntity
  8
0
100
AcDbMText
 62
2
  6
CONTINUOUS
  7
STANDARD
 71
2
 72
1
 10
5.55
 20
0.325
 30
0.0
 11
1.0
 21
0.0
 31
0.0
 44
0.9
  1
1.000
 40
0.125
 41
1.0
  0
MTEXT
  5
244
100
AcDbEntity
  8
0
100
AcDbMText
 62
2
  6
CONTINUOUS
  7
STANDARD
 71
2
 72
1
 10
4.65
 20
0.325
 30
0.0
 11
1.0
 21
0.0
 31
0.0
 44
0.9
  1
Jul-29-19
 40
0.125
 41
1.8
  0
MTEXT
  5
245
100
AcDbEntity
  8
0
100
AcDbMText
 62
2
  6
CONTINUOUS
  7
STANDARD
 71
2
 72
1
 10
2.05
 20
0.4625
 30
0.0
 11
1.0
 21
0.0
 31
0.0
 44
0.9
  1
T-2A Line mount\P(See Technical Data for Body Features)
 40
0.125
 41
7.6
  0
MTEXT
  5
246
100
AcDbEntity
  8
0
100
AcDbMText
 62
2
  6
CONTINUOUS
  7
STANDARD
 71
1
 72
1
 10
6.45
 20
0.5625
 30
0.0
 11
1.0
 21
0.0
 31
0.0
 44
0.9
  1
SHEET
 40
0.06
 41
0.48
  0
MTEXT
  5
247
100
AcDbEntity
  8
0
100
AcDbMText
 62
2
  6
CONTINUOUS
  7
STANDARD
 71
1
 72
1
 10
5.95
 20
0.5625
 30
0.0
 11
1.0
 21
0.0
 31
0.0
 44
0.9
  1
DWG SIZE
 40
0.06
 41
0.768
  0
MTEXT
  5
248
100
AcDbEntity
  8
0
100
AcDbMText
 62
2
  6
CONTINUOUS
  7
STANDARD
 71
1
 72
1
 10
5.25
 20
0.5625
 30
0.0
 11
1.0
 21
0.0
 31
0.0
 44
0.9
  1
SCALE
 40
0.06
 41
0.48
  0
MTEXT
  5
249
100
AcDbEntity
  8
0
100
AcDbMText
 62
2
  6
CONTINUOUS
  7
STANDARD
 71
1
 72
1
 10
4.15
 20
0.5625
 30
0.0
 11
1.0
 21
0.0
 31
0.0
 44
0.9
  1
DATE
 40
0.06
 41
0.384
  0
MTEXT
  5
24A
100
AcDbEntity
  8
0
100
AcDbMText
 62
2
  6
CONTINUOUS
  7
STANDARD
 71
1
 72
1
 10
0.05
 20
0.5625
 30
0.0
 11
1.0
 21
0.0
 31
0.0
 44
0.9
  1
DESCRIPTION
 40
0.06
 41
1.056
  0
MTEXT
  5
24B
100
AcDbEntity
  8
0
100
AcDbMText
 62
2
  6
CONTINUOUS
  7
STANDARD
 71
2
 72
1
 10
5.45
 20
1.0375
 30
0.0
 11
1.0
 21
0.0
 31
0.0
 44
0.9
  1
ALL DIMENSIONS IN INCH\PVIEWS ARE THIRD ANGLE
 40
0.12
 41
4.224
  0
MTEXT
  5
24C
100
AcDbEntity
  8
0
100
AcDbMText
 62
2
  6
CONTINUOUS
  7
STANDARD
 71
2
 72
1
 10
2.05
 20
0.95
 30
0.0
 11
1.0
 21
0.0
 31
0.0
 44
0.9
  1
B2V
 40
0.125
 41
0.6
  0
MTEXT
  5
24D
100
AcDbEntity
  8
0
100
AcDbMText
 62
2
  6
CONTINUOUS
  7
STANDARD
 71
1
 72
1
 10
0.05
 20
1.1875
 30
0.0
 11
1.0
 21
0.0
 31
0.0
 44
0.9
  1
MODEL
 40
0.06
 41
0.48
  0
ENDBLK
  5
24E
100
AcDbEntity
  8
0
  6
BYBLOCK
 62
0
100
AcDbBlockEnd
  0
BLOCK
  5
24F
100
AcDbEntity
  8
0
100
AcDbBlockBegin
  2
*T2
 70
1
 10
0.0
 20
0.0
  3
*T2
  1

  0
LINE
  5
250
100
AcDbEntity
  8
0
100
AcDbLine
 62
2
  6
CONTINUOUS
 10
0.0
 20
0.0
 11
9.055
 21
0.0
  0
LINE
  5
251
100
AcDbEntity
  8
0
100
AcDbLine
 62
2
  6
CONTINUOUS
 10
0.0
 20
0.0
 11
0.0
 21
-2.594
  0
LINE
  5
252
100
AcDbEntity
  8
0
100
AcDbLine
 62
2
  6
CONTINUOUS
 10
0.0
 20
-0.344
 11
9.055
 21
-0.344
  0
LINE
  5
253
100
AcDbEntity
  8
0
100
AcDbLine
 62
2
  6
CONTINUOUS
 10
0.0
 20
-0.594
 11
9.055
 21
-0.594
  0
LINE
  5
254
100
AcDbEntity
  8
0
100
AcDbLine
 62
2
  6
CONTINUOUS
 10
0.0
 20
-0.844
 11
9.055
 21
-0.844
  0
LINE
  5
255
100
AcDbEntity
  8
0
100
AcDbLine
 62
2
  6
CONTINUOUS
 10
0.0
 20
-1.094
 11
9.055
 21
-1.094
  0
LINE
  5
256
100
AcDbEntity
  8
0
100
AcDbLine
 62
2
  6
CONTINUOUS
 10
0.0
 20
-1.344
 11
9.055
 21
-1.344
  0
LINE
  5
257
100
AcDbEntity
  8
0
100
AcDbLine
 62
2
  6
CONTINUOUS
 10
0.0
 20
-1.594
 11
9.055
 21
-1.594
  0
LINE
  5
258
100
AcDbEntity
  8
0
100
AcDbLine
 62
2
  6
CONTINUOUS
 10
0.0
 20
-1.844
 11
9.055
 21
-1.844
  0
LINE
  5
259
100
AcDbEntity
  8
0
100
AcDbLine
 62
2
  6
CONTINUOUS
 10
0.0
 20
-2.094
 11
9.055
 21
-2.094
  0
LINE
  5
25A
100
AcDbEntity
  8
0
100
AcDbLine
 62
2
  6
CONTINUOUS
 10
0.0
 20
-2.344
 11
9.055
 21
-2.344
  0
LINE
  5
25B
100
AcDbEntity
  8
0
100
AcDbLine
 62
2
  6
CONTINUOUS
 10
0.0
 20
-2.594
 11
9.055
 21
-2.594
  0
LINE
  5
25C
100
AcDbEntity
  8
0
100
AcDbLine
 62
2
  6
CONTINUOUS
 10
3.055
 20
0.0
 11
3.055
 21
-2.594
  0
LINE
  5
25D
100
AcDbEntity
  8
0
100
AcDbLine
 62
2
  6
CONTINUOUS
 10
9.055
 20
0.0
 11
9.055
 21
-2.594
  0
MTEXT
  5
25E
100
AcDbEntity
  8
0
100
AcDbMText
 62
2
  6
CONTINUOUS
  7
STANDARD
 71
2
 72
1
 10
1.5275
 20
-0.0995
 30
0.0
 11
1.0
 21
0.0
 31
0.0
 44
0.9
  1
Technical Data
 40
0.145
 41
3.248
  0
MTEXT
  5
25F
100
AcDbEntity
  8
0
100
AcDbMText
 62
2
  6
CONTINUOUS
  7
STANDARD
 71
2
 72
1
 10
4.555
 20
-0.0995
 30
0.0
 11
1.0
 21
0.0
 31
0.0
 44
0.9
  1
U.S. Units
 40
0.145
 41
2.32
  0
MTEXT
  5
260
100
AcDbEntity
  8
0
100
AcDbMText
 62
2
  6
CONTINUOUS
  7
STANDARD
 71
2
 72
1
 10
7.555
 20
-0.0995
 30
0.0
 11
1.0
 21
0.0
 31
0.0
 44
0.9
  1
Metric Units
 40
0.145
 41
2.784
  0
MTEXT
  5
261
100
AcDbEntity
  8
0
100
AcDbMText
 62
2
  6
CONTINUOUS
  7
STANDARD
 71
2
 72
1
 10
1.5275
 20
-0.4065
 30
0.0
 11
1.0
 21
0.0
 31
0.0
 44
0.9
  1
Cavity
 40
0.125
 41
1.2
  0
MTEXT
  5
262
100
AcDbEntity
  8
0
100
AcDbMText
 62
2
  6
CONTINUOUS
  7
STANDARD
 71
2
 72
1
 10
6.055
 20
-0.4065
 30
0.0
 11
1.0
 21
0.0
 31
0.0
 44
0.9
  1
T-2A
 40
0.125
 41
0.8
  0
MTEXT
  5
263
100
AcDbEntity
  8
0
100
AcDbMText
 62
2
  6
CONTINUOUS
  7
STANDARD
 71
2
 72
1
 10
1.5275
 20
-0.6565
 30
0.0
 11
1.0
 21
0.0
 31
0.0
 44
0.9
  1
Body Features
 40
0.125
 41
2.6
  0
MTEXT
  5
264
100
AcDbEntity
  8
0
100
AcDbMText
 62
2
  6
CONTINUOUS
  7
STANDARD
 71
2
 72
1
 10
6.055
 20
-0.6565
 30
0.0
 11
1.0
 21
0.0
 31
0.0
 44
0.9
  1
Ninety degree with reverse flow check - reducing
 40
0.125
 41
9.6
  0
MTEXT
  5
265
100
AcDbEntity
  8
0
100
AcDbMText
 62
2
  6
CONTINUOUS
  7
STANDARD
 71
2
 72
1
 10
1.5275
 20
-0.9065
 30
0.0
 11
1.0
 21
0.0
 31
0.0
 44
0.9
  1
Body Type
 40
0.125
 41
1.8
  0
MTEXT
  5
266
100
AcDbEntity
  8
0
100
AcDbMText
 62
2
  6
CONTINUOUS
  7
STANDARD
 71
2
 72
1
 10
6.055
 20
-0.9065
 30
0.0
 11
1.0
 21
0.0
 31
0.0
 44
0.9
  1
Line mount
 40
0.125
 41
2.0
  0
MTEXT
  5
267
100
AcDbEntity
  8
0
100
AcDbMText
 62
2
  6
CONTINUOUS
  7
STANDARD
 71
2
 72
1
 10
1.5275
 20
-1.1565
 30
0.0
 11
1.0
 21
0.0
 31
0.0
 44
0.9
  1
Interface
 40
0.125
 41
1.8
  0
MTEXT
  5
268
100
AcDbEntity
  8
0
100
AcDbMText
 62
2
  6
CONTINUOUS
  7
STANDARD
 71
2
 72
1
 10
6.055
 20
-1.1565
 30
0.0
 11
1.0
 21
0.0
 31
0.0
 44
0.9
  1
None
 40
0.125
 41
0.8
  0
MTEXT
  5
269
100
AcDbEntity
  8
0
100
AcDbMText
 62
2
  6
CONTINUOUS
  7
STANDARD
 71
2
 72
1
 10
1.5275
 20
-1.4065
 30
0.0
 11
1.0
 21
0.0
 31
0.0
 44
0.9
  1
Open Cavity Quantity
 40
0.125
 41
4.0
  0
MTEXT
  5
26A
100
AcDbEntity
  8
0
100
AcDbMText
 62
2
  6
CONTINUOUS
  7
STANDARD
 71
2
 72
1
 10
6.055
 20
-1.4065
 30
0.0
 11
1.0
 21
0.0
 31
0.0
 44
0.9
  1
1
 40
0.125
 41
0.2
  0
MTEXT
  5
26B
100
AcDbEntity
  8
0
100
AcDbMText
 62
2
  6
CONTINUOUS
  7
STANDARD
 71
2
 72
1
 10
1.5275
 20
-1.6565
 30
0.0
 11
1.0
 21
0.0
 31
0.0
 44
0.9
  1
Weight
 40
0.125
 41
1.2
  0
MTEXT
  5
26C
100
AcDbEntity
  8
0
100
AcDbMText
 62
2
  6
CONTINUOUS
  7
STANDARD
 71
2
 72
1
 10
4.555
 20
-1.6565
 30
0.0
 11
1.0
 21
0.0
 31
0.0
 44
0.9
  1
1.955 lb.
 40
0.125
 41
1.8
  0
MTEXT
  5
26D
100
AcDbEntity
  8
0
100
AcDbMText
 62
2
  6
CONTINUOUS
  7
STANDARD
 71
2
 72
1
 10
7.555
 20
-1.6565
 30
0.0
 11
1.0
 21
0.0
 31
0.0
 44
0.9
  1
0,887 kg.
 40
0.125
 41
1.8
  0
MTEXT
  5
26E
100
AcDbEntity
  8
0
100
AcDbMText
 62
2
  6
CONTINUOUS
  7
STANDARD
 71
2
 72
1
 10
1.5275
 20
-1.9065
 30
0.0
 11
1.0
 21
0.0
 31
0.0
 44
0.9
  1
Mounting Hole Diameter
 40
0.125
 41
4.4
  0
MTEXT
  5
26F
100
AcDbEntity
  8
0
100
AcDbMText
 62
2
  6
CONTINUOUS
  7
STANDARD
 71
2
 72
1
 10
4.555
 20
-1.9065
 30
0.0
 11
1.0
 21
0.0
 31
0.0
 44
0.9
  1
.42 in.
 40
0.125
 41
1.4
  0
MTEXT
  5
270
100
AcDbEntity
  8
0
100
AcDbMText
 62
2
  6
CONTINUOUS
  7
STANDARD
 71
2
 72
1
 10
7.555
 20
-1.9065
 30
0.0
 11
1.0
 21
0.0
 31
0.0
 44
0.9
  1
10,7 mm
 40
0.125
 41
1.4
  0
MTEXT
  5
271
100
AcDbEntity
  8
0
100
AcDbMText
 62
2
  6
CONTINUOUS
  7
STANDARD
 71
2
 72
1
 10
1.5275
 20
-2.1565
 30
0.0
 11
1.0
 21
0.0
 31
0.0
 44
0.9
  1
Mounting Hole Depth
 40
0.125
 41
3.8
  0
MTEXT
  5
272
100
AcDbEntity
  8
0
100
AcDbMText
 62
2
  6
CONTINUOUS
  7
STANDARD
 71
2
 72
1
 10
6.055
 20
-2.1565
 30
0.0
 11
1.0
 21
0.0
 31
0.0
 44
0.9
  1
Through
 40
0.125
 41
1.4
  0
MTEXT
  5
273
100
AcDbEntity
  8
0
100
AcDbMText
 62
2
  6
CONTINUOUS
  7
STANDARD
 71
2
 72
1
 10
1.5275
 20
-2.4065
 30
0.0
 11
1.0
 21
0.0
 31
0.0
 44
0.9
  1
Mounting Hole Quantity
 40
0.125
 41
4.4
  0
MTEXT
  5
274
100
AcDbEntity
  8
0
100
AcDbMText
 62
2
  6
CONTINUOUS
  7
STANDARD
 71
2
 72
1
 10
6.055
 20
-2.4065
 30
0.0
 11
1.0
 21
0.0
 31
0.0
 44
0.9
  1
2
 40
0.125
 41
0.2
  0
ENDBLK
  5
275
100
AcDbEntity
  8
0
  6
BYBLOCK
 62
0
100
AcDbBlockEnd
  0
BLOCK
  5
276
100
AcDbEntity
  8
0
100
AcDbBlockBegin
  2
*T3
 70
1
 10
0.0
 20
0.0
  3
*T3
  1

  0
LINE
  5
277
100
AcDbEntity
  8
0
100
AcDbLine
 62
2
  6
CONTINUOUS
 10
0.0
 20
0.0
 11
4.6
 21
0.0
  0
LINE
  5
278
100
AcDbEntity
  8
0
100
AcDbLine
 62
2
  6
CONTINUOUS
 10
0.0
 20
0.0
 11
0.0
 21
-1.43775
  0
LINE
  5
279
100
AcDbEntity
  8
0
100
AcDbLine
 62
2
  6
CONTINUOUS
 10
0.0
 20
-0.34375
 11
4.6
 21
-0.34375
  0
LINE
  5
27A
100
AcDbEntity
  8
0
100
AcDbLine
 62
2
  6
CONTINUOUS
 10
0.0
 20
-0.68775
 11
4.6
 21
-0.68775
  0
LINE
  5
27B
100
AcDbEntity
  8
0
100
AcDbLine
 62
2
  6
CONTINUOUS
 10
0.0
 20
-0.93775
 11
4.6
 21
-0.93775
  0
LINE
  5
27C
100
AcDbEntity
  8
0
100
AcDbLine
 62
2
  6
CONTINUOUS
 10
0.0
 20
-1.18775
 11
4.6
 21
-1.18775
  0
LINE
  5
27D
100
AcDbEntity
  8
0
100
AcDbLine
 62
2
  6
CONTINUOUS
 10
0.0
 20
-1.43775
 11
4.6
 21
-1.43775
  0
LINE
  5
27E
100
AcDbEntity
  8
0
100
AcDbLine
 62
2
  6
CONTINUOUS
 10
1.3
 20
-0.34375
 11
1.3
 21
-1.43775
  0
LINE
  5
27F
100
AcDbEntity
  8
0
100
AcDbLine
 62
2
  6
CONTINUOUS
 10
3.3
 20
-0.34375
 11
3.3
 21
-1.43775
  0
LINE
  5
280
100
AcDbEntity
  8
0
100
AcDbLine
 62
2
  6
CONTINUOUS
 10
4.6
 20
0.0
 11
4.6
 21
-1.43775
  0
MTEXT
  5
281
100
AcDbEntity
  8
0
100
AcDbMText
 62
2
  6
CONTINUOUS
  7
STANDARD
 71
2
 72
1
 10
2.3
 20
-0.099375
 30
0.0
 11
1.0
 21
0.0
 31
0.0
 44
0.9
  1
Port Headings
 40
0.145
 41
3.016
  0
MTEXT
  5
282
100
AcDbEntity
  8
0
100
AcDbMText
 62
2
  6
CONTINUOUS
  7
STANDARD
 71
2
 72
1
 10
0.65
 20
-0.44325
 30
0.0
 11
1.0
 21
0.0
 31
0.0
 44
0.9
  1
Product
 40
0.145
 41
1.624
  0
MTEXT
  5
283
100
AcDbEntity
  8
0
100
AcDbMText
 62
2
  6
CONTINUOUS
  7
STANDARD
 71
2
 72
1
 10
2.3
 20
-0.44325
 30
0.0
 11
1.0
 21
0.0
 31
0.0
 44
0.9
  1
Port
 40
0.145
 41
0.928
  0
MTEXT
  5
284
100
AcDbEntity
  8
0
100
AcDbMText
 62
2
  6
CONTINUOUS
  7
STANDARD
 71
2
 72
1
 10
3.95
 20
-0.44325
 30
0.0
 11
1.0
 21
0.0
 31
0.0
 44
0.9
  1
Size
 40
0.145
 41
0.928
  0
MTEXT
  5
285
100
AcDbEntity
  8
0
100
AcDbMText
 62
2
  6
CONTINUOUS
  7
STANDARD
 71
2
 72
1
 10
0.65
 20
-0.75025
 30
0.0
 11
1.0
 21
0.0
 31
0.0
 44
0.9
  1
B2V
 40
0.125
 41
0.6
  0
MTEXT
  5
286
100
AcDbEntity
  8
0
100
AcDbMText
 62
2
  6
CONTINUOUS
  7
STANDARD
 71
2
 72
1
 10
2.3
 20
-0.75025
 30
0.0
 11
1.0
 21
0.0
 31
0.0
 44
0.9
  1
Ports 1 &  2
 40
0.125
 41
2.4
  0
MTEXT
  5
287
100
AcDbEntity
  8
0
100
AcDbMText
 62
2
  6
CONTINUOUS
  7
STANDARD
 71
2
 72
1
 10
3.95
 20
-0.75025
 30
0.0
 11
1.0
 21
0.0
 31
0.0
 44
0.9
  1
1/2" BSPP
 40
0.125
 41
1.8
  0
MTEXT
  5
288
100
AcDbEntity
  8
0
100
AcDbMText
 62
2
  6
CONTINUOUS
  7
STANDARD
 71
2
 72
1
 10
0.65
 20
-1.00025
 30
0.0
 11
1.0
 21
0.0
 31
0.0
 44
0.9
  1
B2V
 40
0.125
 41
0.6
  0
MTEXT
  5
289
100
AcDbEntity
  8
0
100
AcDbMText
 62
2
  6
CONTINUOUS
  7
STANDARD
 71
2
 72
1
 10
2.3
 20
-1.00025
 30
0.0
 11
1.0
 21
0.0
 31
0.0
 44
0.9
  1
Port 3
 40
0.125
 41
1.2
  0
MTEXT
  5
28A
100
AcDbEntity
  8
0
100
AcDbMText
 62
2
  6
CONTINUOUS
  7
STANDARD
 71
2
 72
1
 10
3.95
 20
-1.00025
 30
0.0
 11
1.0
 21
0.0
 31
0.0
 44
0.9
  1
1/4" BSPP
 40
0.125
 41
1.8
  0
MTEXT
  5
28B
100
AcDbEntity
  8
0
100
AcDbMText
 62
2
  6
CONTINUOUS
  7
STANDARD
 71
2
 72
1
 10
0.65
 20
-1.25025
 30
0.0
 11
1.0
 21
0.0
 31
0.0
 44
0.9
  1
B2V
 40
0.125
 41
0.6
  0
MTEXT
  5
28C
100
AcDbEntity
  8
0
100
AcDbMText
 62
2
  6
CONTINUOUS
  7
STANDARD
 71
2
 72
1
 10
2.3
 20
-1.25025
 30
0.0
 11
1.0
 21
0.0
 31
0.0
 44
0.9
  1
Gage Port
 40
0.125
 41
1.8
  0
MTEXT
  5
28D
100
AcDbEntity
  8
0
100
AcDbMText
 62
2
  6
CONTINUOUS
  7
STANDARD
 71
2
 72
1
 10
3.95
 20
-1.25025
 30
0.0
 11
1.0
 21
0.0
 31
0.0
 44
0.9
  1
1/4" BSPP
 40
0.125
 41
1.8
  0
ENDBLK
  5
28E
100
AcDbEntity
  8
0
  6
BYBLOCK
 62
0
100
AcDbBlockEnd
  0
ENDSEC
  0
SECTION
  2
ENTITIES
  0
IMAGE
  5
28F
100
AcDbEntity
  8
0
100
AcDbRasterImage
 62
7
  6
CONTINUOUS
 10
19.2297077316
 20
0.3094318264
 30
0.0
 11
0.0066666667
 21
0.0
 31
0.0
 12
0.0
 22
0.0066666667
 32
0.0
 13
369.0
 23
92.0
340
       39F
 70
9
280
0
281
50
282
50
283
0
360
       399
 71
1
 91
2
 14
-0.5
 24
-0.5
 14
368.5
 24
91.5
  0
INSERT
  5
290
100
AcDbEntity
  8
0
100
AcDbBlockReference
 62
2
  6
CONTINUOUS
  2
SUN_FIRST_THIRD_ANGLE_BL0
 10
20.4816717061
 20
1.2289683772
  0
ACAD_TABLE
  5
291
100
AcDbEntity
  8
0
 62
2
  6
CONTINUOUS
100
AcDbBlockReference
  2
*T1
 10
12.42375
 20
0.30125
 30
0.0
100
AcDbTable
342
       3A1
343
20F
 11
1.0
 21
0.0
 31
0.0
 90
6
 91
4
 92
6
 93
20
 94
0
 95
0
 96
0
 70
1
 41
0.0
141
0.525
141
0.1
141
0.525
141
0.1
142
4.1
142
1.1
142
0.7
142
0.5
142
0.4
142
2.475
171
1
172
0
173
0
174
0
175
1
176
1
 91
33
178
0
145
0.0
301
CELL_VALUE
 90
4
  1
T-2A Line mount\P(See Technical Data for Body Features)
304
ACVALUE_END
170
2
140
0.125
171
1
172
0
173
0
174
0
175
1
176
1
 91
33
178
0
145
0.0
301
CELL_VALUE
 90
4
  1
Jul-29-19
304
ACVALUE_END
170
5
140
0.125
171
1
172
0
173
0
174
0
175
1
176
1
 91
33
178
0
145
0.0
301
CELL_VALUE
 90
4
  1
1.000
304
ACVALUE_END
170
5
140
0.125
171
1
172
0
173
0
174
0
175
1
176
1
 91
33
178
0
145
0.0
301
CELL_VALUE
 90
4
  1
C
304
ACVALUE_END
170
5
140
0.125
171
1
172
0
173
0
174
0
175
1
176
1
 91
33
178
0
145
0.0
301
CELL_VALUE
 90
4
  1
2
304
ACVALUE_END
170
5
140
0.125
171
1
172
0
173
0
174
0
175
1
176
1
 91
33
178
0
145
0.0
301
CELL_VALUE
 90
4
  1
 
304
ACVALUE_END
170
1
140
0.125
171
1
172
0
173
0
174
0
175
1
176
1
 91
33
178
0
145
0.0
301
CELL_VALUE
 90
4
  1
DESCRIPTION
304
ACVALUE_END
170
1
140
0.06
171
1
172
0
173
0
174
0
175
1
176
1
 91
33
178
0
145
0.0
301
CELL_VALUE
 90
4
  1
DATE
304
ACVALUE_END
170
1
140
0.06
171
1
172
0
173
0
174
0
175
1
176
1
 91
33
178
0
145
0.0
301
CELL_VALUE
 90
4
  1
SCALE
304
ACVALUE_END
170
1
140
0.06
171
1
172
0
173
0
174
0
175
1
176
1
 91
33
178
0
145
0.0
301
CELL_VALUE
 90
4
  1
DWG SIZE
304
ACVALUE_END
170
1
140
0.06
171
1
172
0
173
0
174
0
175
1
176
1
 91
33
178
0
145
0.0
301
CELL_VALUE
 90
4
  1
SHEET
304
ACVALUE_END
170
1
140
0.06
171
1
172
0
173
0
174
0
175
1
176
1
 91
33
178
0
145
0.0
301
CELL_VALUE
 90
4
  1
 
304
ACVALUE_END
170
1
140
0.125
171
1
172
0
173
0
174
0
175
1
176
1
 91
33
178
0
145
0.0
301
CELL_VALUE
 90
4
  1
B2V
304
ACVALUE_END
170
5
140
0.125
171
1
172
0
173
0
174
0
175
4
176
1
 91
33
178
0
145
0.0
301
CELL_VALUE
 90
4
  1
ALL DIMENSIONS IN INCH\PVIEWS ARE THIRD ANGLE
304
ACVALUE_END
170
5
140
0.12
171
1
172
0
173
1
174
0
175
1
176
1
 91
1
178
0
145
0.0
170
1
171
1
172
0
173
1
174
0
175
1
176
1
 91
1
178
0
145
0.0
170
1
171
1
172
0
173
1
174
0
175
1
176
1
 91
1
178
0
145
0.0
170
5
171
1
172
0
173
0
174
0
175
1
176
1
 91
33
178
0
145
0.0
301
CELL_VALUE
 90
4
  1
 
304
ACVALUE_END
170
1
140
0.125
171
1
172
0
173
0
174
0
175
1
176
1
 91
33
178
0
145
0.0
301
CELL_VALUE
 90
4
  1
MODEL
304
ACVALUE_END
170
1
140
0.06
171
1
172
0
173
0
174
0
175
1
176
1
 91
33
178
0
145
0.0
301
CELL_VALUE
 90
4
  1
 
304
ACVALUE_END
170
1
140
0.125
171
1
172
0
173
0
174
0
175
1
176
1
 91
33
178
0
145
0.0
301
CELL_VALUE
 90
4
  1
 
304
ACVALUE_END
170
1
140
0.125
171
1
172
0
173
0
174
0
175
1
176
1
 91
33
178
0
145
0.0
301
CELL_VALUE
 90
4
  1
 
304
ACVALUE_END
170
1
140
0.125
171
1
172
0
173
0
174
0
175
1
176
1
 91
33
178
0
145
0.0
301
CELL_VALUE
 90
4
  1
 
304
ACVALUE_END
170
1
140
0.125
171
1
172
0
173
0
174
0
175
1
176
1
 91
33
178
0
145
0.0
301
CELL_VALUE
 90
4
  1
 
304
ACVALUE_END
170
1
140
0.125
  0
ACAD_TABLE
  5
292
100
AcDbEntity
  8
0
 62
2
  6
CONTINUOUS
100
AcDbBlockReference
  2
*T2
 10
12.4237499994
 20
16.47875
 30
0.0
100
AcDbTable
342
       3A0
343
210
 11
1.0
 21
0.0
 31
0.0
 90
22
 91
10
 92
3
 93
16
 94
0
 95
0
 96
0
 41
0.028
141
0.344
141
0.25
141
0.25
141
0.25
141
0.25
141
0.25
141
0.25
141
0.25
141
0.25
141
0.25
142
3.055
142
3.0
142
3.0
171
1
172
0
173
0
174
0
175
1
176
1
 91
33
178
0
145
0.0
301
CELL_VALUE
 90
4
  1
Technical Data
304
ACVALUE_END
170
5
140
0.145
171
1
172
0
173
0
174
0
175
1
176
1
 91
33
178
0
145
0.0
301
CELL_VALUE
 90
4
  1
U.S. Units
304
ACVALUE_END
170
5
140
0.145
171
1
172
0
173
0
174
0
175
1
176
1
 91
33
178
0
145
0.0
301
CELL_VALUE
 90
4
  1
Metric Units
304
ACVALUE_END
170
5
140
0.145
171
1
172
0
173
0
174
0
175
1
176
1
 91
33
178
0
145
0.0
301
CELL_VALUE
 90
4
  1
Cavity
304
ACVALUE_END
170
5
140
0.125
171
1
172
0
173
0
174
0
175
2
176
1
 91
33
178
0
145
0.0
301
CELL_VALUE
 90
4
  1
T-2A
304
ACVALUE_END
170
5
140
0.125
171
1
172
0
173
1
174
0
175
1
176
1
 91
1
178
0
145
0.0
170
1
171
1
172
0
173
0
174
0
175
1
176
1
 91
33
178
0
145
0.0
301
CELL_VALUE
 90
4
  1
Body Features
304
ACVALUE_END
170
5
140
0.125
171
1
172
0
173
0
174
0
175
2
176
1
 91
33
178
0
145
0.0
301
CELL_VALUE
 90
4
  1
Ninety degree with reverse flow check - reducing
304
ACVALUE_END
170
5
140
0.125
171
1
172
0
173
1
174
0
175
1
176
1
 91
1
178
0
145
0.0
170
1
171
1
172
0
173
0
174
0
175
1
176
1
 91
33
178
0
145
0.0
301
CELL_VALUE
 90
4
  1
Body Type
304
ACVALUE_END
170
5
140
0.125
171
1
172
0
173
0
174
0
175
2
176
1
 91
33
178
0
145
0.0
301
CELL_VALUE
 90
4
  1
Line mount
304
ACVALUE_END
170
5
140
0.125
171
1
172
0
173
1
174
0
175
1
176
1
 91
1
178
0
145
0.0
170
1
171
1
172
0
173
0
174
0
175
1
176
1
 91
33
178
0
145
0.0
301
CELL_VALUE
 90
4
  1
Interface
304
ACVALUE_END
170
5
140
0.125
171
1
172
0
173
0
174
0
175
2
176
1
 91
33
178
0
145
0.0
301
CELL_VALUE
 90
4
  1
None
304
ACVALUE_END
170
5
140
0.125
171
1
172
0
173
1
174
0
175
1
176
1
 91
1
178
0
145
0.0
170
1
171
1
172
0
173
0
174
0
175
1
176
1
 91
33
178
0
145
0.0
301
CELL_VALUE
 90
4
  1
Open Cavity Quantity
304
ACVALUE_END
170
5
140
0.125
171
1
172
0
173
0
174
0
175
2
176
1
 91
33
178
0
145
0.0
301
CELL_VALUE
 90
4
  1
1
304
ACVALUE_END
170
5
140
0.125
171
1
172
0
173
1
174
0
175
1
176
1
 91
1
178
0
145
0.0
170
1
171
1
172
0
173
0
174
0
175
1
176
1
 91
33
178
0
145
0.0
301
CELL_VALUE
 90
4
  1
Weight
304
ACVALUE_END
170
5
140
0.125
171
1
172
0
173
0
174
0
175
1
176
1
 91
33
178
0
145
0.0
301
CELL_VALUE
 90
4
  1
1.955 lb.
304
ACVALUE_END
170
5
140
0.125
171
1
172
0
173
0
174
0
175
1
176
1
 91
33
178
0
145
0.0
301
CELL_VALUE
 90
4
  1
0,887 kg.
304
ACVALUE_END
170
5
140
0.125
171
1
172
0
173
0
174
0
175
1
176
1
 91
33
178
0
145
0.0
301
CELL_VALUE
 90
4
  1
Mounting Hole Diameter
304
ACVALUE_END
170
5
140
0.125
171
1
172
0
173
0
174
0
175
1
176
1
 91
33
178
0
145
0.0
301
CELL_VALUE
 90
4
  1
.42 in.
304
ACVALUE_END
170
5
140
0.125
171
1
172
0
173
0
174
0
175
1
176
1
 91
33
178
0
145
0.0
301
CELL_VALUE
 90
4
  1
10,7 mm
304
ACVALUE_END
170
5
140
0.125
171
1
172
0
173
0
174
0
175
1
176
1
 91
33
178
0
145
0.0
301
CELL_VALUE
 90
4
  1
Mounting Hole Depth
304
ACVALUE_END
170
5
140
0.125
171
1
172
0
173
0
174
0
175
2
176
1
 91
33
178
0
145
0.0
301
CELL_VALUE
 90
4
  1
Through
304
ACVALUE_END
170
5
140
0.125
171
1
172
0
173
1
174
0
175
1
176
1
 91
1
178
0
145
0.0
170
1
171
1
172
0
173
0
174
0
175
1
176
1
 91
33
178
0
145
0.0
301
CELL_VALUE
 90
4
  1
Mounting Hole Quantity
304
ACVALUE_END
170
5
140
0.125
171
1
172
0
173
0
174
0
175
2
176
1
 91
33
178
0
145
0.0
301
CELL_VALUE
 90
4
  1
2
304
ACVALUE_END
170
5
140
0.125
171
1
172
0
173
1
174
0
175
1
176
1
 91
1
178
0
145
0.0
170
1
  0
ACAD_TABLE
  5
293
100
AcDbEntity
  8
0
 62
2
  6
CONTINUOUS
100
AcDbBlockReference
  2
*T3
 10
0.52125
 20
1.959
 30
0.0
100
AcDbTable
342
       3A0
343
211
 11
1.0
 21
0.0
 31
0.0
 90
22
 91
5
 92
3
 93
16
 94
0
 95
0
 96
0
 41
0.05
141
0.34375
141
0.344
141
0.25
141
0.25
141
0.25
142
1.3
142
2.0
142
1.3
171
1
172
0
173
0
174
0
175
3
176
1
 91
33
178
0
145
0.0
301
CELL_VALUE
 90
4
  1
Port Headings
304
ACVALUE_END
170
5
140
0.145
171
1
172
0
173
1
174
0
175
1
176
1
 91
1
178
0
145
0.0
170
1
171
1
172
0
173
1
174
0
175
1
176
1
 91
1
178
0
145
0.0
170
1
171
1
172
0
173
0
174
0
175
1
176
1
 91
33
178
0
145
0.0
301
CELL_VALUE
 90
4
  1
Product
304
ACVALUE_END
170
5
140
0.145
171
1
172
0
173
0
174
0
175
1
176
1
 91
33
178
0
145
0.0
301
CELL_VALUE
 90
4
  1
Port
304
ACVALUE_END
170
5
140
0.145
171
1
172
0
173
0
174
0
175
1
176
1
 91
33
178
0
145
0.0
301
CELL_VALUE
 90
4
  1
Size
304
ACVALUE_END
170
5
140
0.145
171
1
172
0
173
0
174
0
175
1
176
1
 91
33
178
0
145
0.0
301
CELL_VALUE
 90
4
  1
B2V
304
ACVALUE_END
170
5
140
0.125
171
1
172
0
173
0
174
0
175
1
176
1
 91
33
178
0
145
0.0
301
CELL_VALUE
 90
4
  1
Ports 1 &  2
304
ACVALUE_END
170
5
140
0.125
171
1
172
0
173
0
174
0
175
1
176
1
 91
33
178
0
145
0.0
301
CELL_VALUE
 90
4
  1
1/2" BSPP
304
ACVALUE_END
170
5
140
0.125
171
1
172
0
173
0
174
0
175
1
176
1
 91
33
178
0
145
0.0
301
CELL_VALUE
 90
4
  1
B2V
304
ACVALUE_END
170
5
140
0.125
171
1
172
0
173
0
174
0
175
1
176
1
 91
33
178
0
145
0.0
301
CELL_VALUE
 90
4
  1
Port 3
304
ACVALUE_END
170
5
140
0.125
171
1
172
0
173
0
174
0
175
1
176
1
 91
33
178
0
145
0.0
301
CELL_VALUE
 90
4
  1
1/4" BSPP
304
ACVALUE_END
170
5
140
0.125
171
1
172
0
173
0
174
0
175
1
176
1
 91
33
178
0
145
0.0
301
CELL_VALUE
 90
4
  1
B2V
304
ACVALUE_END
170
5
140
0.125
171
1
172
0
173
0
174
0
175
1
176
1
 91
33
178
0
145
0.0
301
CELL_VALUE
 90
4
  1
Gage Port
304
ACVALUE_END
170
5
140
0.125
171
1
172
0
173
0
174
0
175
1
176
1
 91
33
178
0
145
0.0
301
CELL_VALUE
 90
4
  1
1/4" BSPP
304
ACVALUE_END
170
5
140
0.125
  0
MTEXT
  5
294
100
AcDbEntity
  8
0
100
AcDbMText
 62
2
  6
CONTINUOUS
  7
STANDARD
 71
1
 72
1
 10
0.52125
 20
5.75995
 30
0.0
 11
1.0
 21
0.0
 31
0.0
 44
0.6
  3
Notes\P \P1. Important: Carefully consider\P   the maximum system pressure. The\P   pressure rating of the manifold is\P   dependent on the manifold material,\P   with the port type/size a secondary\P   consideration. Manifolds\P   constructed of alu
  1
minum are not\P   rated for pressures higher than\P   3000 psi (210 bar), regardless of\P   the port type/size specified.
 40
0.1
 41
3.04
  0
LINE
  5
295
100
AcDbEntity
  8
0
100
AcDbLine
 62
7
  6
CONTINUOUS
 10
0.30125
 20
0.30125
 11
0.30125
 21
16.69875
  0
LINE
  5
296
100
AcDbEntity
  8
0
100
AcDbLine
 62
7
  6
CONTINUOUS
 10
0.30125
 20
0.30125
 11
21.69875
 21
0.30125
  0
LINE
  5
297
100
AcDbEntity
  8
0
100
AcDbLine
 62
7
  6
CONTINUOUS
 10
0.30125
 20
16.69875
 11
21.69875
 21
16.69875
  0
LINE
  5
298
100
AcDbEntity
  8
0
100
AcDbLine
 62
7
  6
CONTINUOUS
 10
21.69875
 20
0.30125
 11
21.69875
 21
16.69875
  0
LINE
  5
299
100
AcDbEntity
  8
0
100
AcDbLine
 62
7
  6
CONTINUOUS
 10
9.4433734597
 20
10.9566713866
 11
9.0551452125
 21
10.5816716739
  0
LINE
  5
29A
100
AcDbEntity
  8
0
100
AcDbLine
 62
4
  6
CONTINUOUS
 10
9.3545822351
 20
10.0441352962
 11
9.3473377911
 21
10.0349784438
  0
LINE
  5
29B
100
AcDbEntity
  8
0
100
AcDbLine
 62
4
  6
CONTINUOUS
 10
9.361826679
 20
9.9856773406
 11
9.3473377911
 21
9.9673636314
  0
LINE
  5
29C
100
AcDbEntity
  8
0
100
AcDbLine
 62
4
  6
CONTINUOUS
 10
9.3038711273
 20
10.066970643
 11
9.3183600153
 21
10.0756250916
  0
LINE
  5
29D
100
AcDbEntity
  8
0
100
AcDbLine
 62
4
  6
CONTINUOUS
 10
9.3473377911
 20
10.0349784438
 11
9.3328489032
 21
10.0263239884
  0
LINE
  5
29E
100
AcDbEntity
  8
0
100
AcDbLine
 62
4
  6
CONTINUOUS
 10
9.3473377911
 20
9.9673636314
 11
9.3328489032
 21
9.9587091803
  0
LINE
  5
29F
100
AcDbEntity
  8
0
100
AcDbLine
 62
7
  6
CONTINUOUS
 10
9.0551452125
 20
6.7179681398
 11
9.0551452125
 21
10.5816716739
  0
LINE
  5
2A0
100
AcDbEntity
  8
0
100
AcDbLine
 62
7
  6
CONTINUOUS
 10
9.0551452125
 20
6.7179681398
 11
12.5566265403
 21
6.475139585
  0
LINE
  5
2A1
100
AcDbEntity
  8
0
100
AcDbLine
 62
7
  6
CONTINUOUS
 10
11.2739877806
 20
6.1296039888
 11
11.29320567
 21
6.1201107194
  0
LINE
  5
2A2
100
AcDbEntity
  8
0
100
AcDbLine
 62
4
  6
CONTINUOUS
 10
9.3545822351
 20
10.0537945525
 11
9.3545822351
 21
10.0441352962
  0
LINE
  5
2A3
100
AcDbEntity
  8
0
100
AcDbLine
 62
4
  6
CONTINUOUS
 10
9.3545822351
 20
7.8369945964
 11
9.3545822351
 21
7.721083493
  0
LINE
  5
2A4
100
AcDbEntity
  8
0
100
AcDbLine
 62
4
  6
CONTINUOUS
 10
9.361826679
 20
9.9953366004
 11
9.361826679
 21
9.9856773406
  0
LINE
  5
2A5
100
AcDbEntity
  8
0
100
AcDbLine
 62
4
  6
CONTINUOUS
 10
10.2370245171
 20
9.3530160342
 11
10.2535832469
 21
9.3684264105
  0
LINE
  5
2A6
100
AcDbEntity
  8
0
100
AcDbLine
 62
4
  6
CONTINUOUS
 10
10.2784213408
 20
9.2507927794
 11
10.2949800688
 21
9.2662031575
  0
LINE
  5
2A7
100
AcDbEntity
  8
0
100
AcDbLine
 62
4
  6
CONTINUOUS
 10
10.3694943555
 20
9.2444768444
 11
10.3860530767
 21
9.2598872229
  0
LINE
  5
2A8
100
AcDbEntity
  8
0
100
AcDbLine
 62
4
  6
CONTINUOUS
 10
10.7558647049
 20
9.2921962494
 11
10.7724234261
 21
9.2993272657
  0
LINE
  5
2A9
100
AcDbEntity
  8
0
100
AcDbLine
 62
4
  6
CONTINUOUS
 10
10.2370245171
 20
9.3364573061
 11
10.2370245171
 21
9.3530160342
  0
LINE
  5
2AA
100
AcDbEntity
  8
0
100
AcDbLine
 62
4
  6
CONTINUOUS
 10
10.2949800688
 20
9.2662031575
 11
10.2949800688
 21
9.2827618873
  0
LINE
  5
2AB
100
AcDbEntity
  8
0
100
AcDbLine
 62
4
  6
CONTINUOUS
 10
10.328097525
 20
9.3632588277
 11
10.328097525
 21
9.2639064541
  0
LINE
  5
2AC
100
AcDbEntity
  8
0
100
AcDbLine
 62
4
  6
CONTINUOUS
 10
10.3639747855
 20
8.6537130003
 11
10.3639747855
 21
8.7696241038
  0
LINE
  5
2AD
100
AcDbEntity
  8
0
100
AcDbLine
 62
4
  6
CONTINUOUS
 10
10.3860530767
 20
9.2598872229
 11
10.3860530767
 21
9.3592395966
  0
LINE
  5
2AE
100
AcDbEntity
  8
0
100
AcDbLine
 62
4
  6
CONTINUOUS
 10
10.9131726389
 20
9.239890087
 11
10.9297313601
 21
9.2470210998
  0
LINE
  5
2AF
100
AcDbEntity
  8
0
100
AcDbLine
 62
4
  6
CONTINUOUS
 10
10.4191705329
 20
9.2410317898
 11
10.4191705329
 21
9.3569428932
  0
LINE
  5
2B0
100
AcDbEntity
  8
0
100
AcDbLine
 62
4
  6
CONTINUOUS
 10
10.4219303303
 20
8.749046145
 11
10.4219303303
 21
8.6662524995
  0
LINE
  5
2B1
100
AcDbEntity
  8
0
100
AcDbLine
 62
4
  6
CONTINUOUS
 10
10.4771260846
 20
9.2370125586
 11
10.4771260846
 21
9.352923662
  0
LINE
  5
2B2
100
AcDbEntity
  8
0
100
AcDbLine
 62
4
  6
CONTINUOUS
 10
10.6013165684
 20
8.6372532918
 11
10.6013165684
 21
8.7531643952
  0
LINE
  5
2B3
100
AcDbEntity
  8
0
100
AcDbLine
 62
4
  6
CONTINUOUS
 10
10.6013165486
 20
9.2283999207
 11
10.6013165486
 21
9.3443110241
  0
LINE
  5
2B4
100
AcDbEntity
  8
0
100
AcDbLine
 62
4
  6
CONTINUOUS
 10
10.46884673
 20
8.6464401063
 11
10.5019641861
 21
8.7600545063
  0
LINE
  5
2B5
100
AcDbEntity
  8
0
100
AcDbLine
 62
4
  6
CONTINUOUS
 10
10.7006689309
 20
9.1939119277
 11
10.7337863732
 21
9.3020067544
  0
LINE
  5
2B6
100
AcDbEntity
  8
0
100
AcDbLine
 62
4
  6
CONTINUOUS
 10
10.7627641837
 20
8.9969723926
 11
10.7462054556
 21
8.9732826487
  0
LINE
  5
2B7
100
AcDbEntity
  8
0
100
AcDbLine
 62
4
  6
CONTINUOUS
 10
10.7462054556
 20
8.8822096409
 11
10.8041610074
 21
8.960984057
  0
LINE
  5
2B8
100
AcDbEntity
  8
0
100
AcDbLine
 62
4
  6
CONTINUOUS
 10
10.7048086355
 20
8.9595947999
 11
10.6882499074
 21
8.9441844235
  0
LINE
  5
2B9
100
AcDbEntity
  8
0
100
AcDbLine
 62
4
  6
CONTINUOUS
 10
10.4219303303
 20
8.6662524995
 11
10.4053716022
 21
8.6508421214
  0
LINE
  5
2BA
100
AcDbEntity
  8
0
100
AcDbLine
 62
4
  6
CONTINUOUS
 10
10.7130879995
 20
8.9010650741
 11
10.6965292714
 21
8.885654696
  0
LINE
  5
2BB
100
AcDbEntity
  8
0
100
AcDbLine
 62
4
  6
CONTINUOUS
 10
11.1974307869
 20
9.2615735376
 11
11.2057101199
 21
9.2692787314
  0
LINE
  5
2BC
100
AcDbEntity
  8
0
100
AcDbLine
 62
4
  6
CONTINUOUS
 10
10.3418964779
 20
8.7269986314
 11
10.2977398663
 21
8.7079825953
  0
LINE
  5
2BD
100
AcDbEntity
  8
0
100
AcDbLine
 62
4
  6
CONTINUOUS
 10
11.0763450993
 20
7.9397529151
 11
11.0618562113
 21
7.9407577229
  0
LINE
  5
2BE
100
AcDbEntity
  8
0
100
AcDbLine
 62
4
  6
CONTINUOUS
 10
11.0691006553
 20
7.9982108707
 11
11.0980784312
 21
7.9962012551
  0
LINE
  5
2BF
100
AcDbEntity
  8
0
100
AcDbLine
 62
4
  6
CONTINUOUS
 10
11.0618562113
 20
8.0566688263
 11
11.0763450993
 21
8.0556640185
  0
LINE
  5
2C0
100
AcDbEntity
  8
0
100
AcDbLine
 62
4
  6
CONTINUOUS
 10
11.0618562113
 20
7.9407577229
 11
11.0473673234
 21
7.9514217896
  0
LINE
  5
2C1
100
AcDbEntity
  8
0
100
AcDbLine
 62
4
  6
CONTINUOUS
 10
9.3038711273
 20
9.9703780548
 11
9.2966266834
 21
9.9805397176
  0
LINE
  5
2C2
100
AcDbEntity
  8
0
100
AcDbLine
 62
4
  6
CONTINUOUS
 10
9.3473377911
 20
10.0156599243
 11
9.361826679
 21
9.9953366004
  0
LINE
  5
2C3
100
AcDbEntity
  8
0
100
AcDbLine
 62
4
  6
CONTINUOUS
 10
9.3473377911
 20
10.0639562197
 11
9.3545822351
 21
10.0537945525
  0
LINE
  5
2C4
100
AcDbEntity
  8
0
100
AcDbLine
 62
4
  6
CONTINUOUS
 10
10.5019641861
 20
8.7600545063
 11
10.5350816561
 21
8.6418466986
  0
LINE
  5
2C5
100
AcDbEntity
  8
0
100
AcDbLine
 62
4
  6
CONTINUOUS
 10
10.6509927397
 20
9.2994691449
 11
10.6509927397
 21
9.2249548651
  0
LINE
  5
2C6
100
AcDbEntity
  8
0
100
AcDbLine
 62
4
  6
CONTINUOUS
 10
10.6551324478
 20
8.8885255754
 11
10.6551324478
 21
9.0044366789
  0
LINE
  5
2C7
100
AcDbEntity
  8
0
100
AcDbLine
 62
4
  6
CONTINUOUS
 10
10.6675514807
 20
8.632659885
 11
10.6675514807
 21
8.7485709885
  0
LINE
  5
2C8
100
AcDbEntity
  8
0
100
AcDbLine
 62
4
  6
CONTINUOUS
 10
10.7048086355
 20
8.9844328955
 11
10.7048086355
 21
8.9595947999
  0
LINE
  5
2C9
100
AcDbEntity
  8
0
100
AcDbLine
 62
4
  6
CONTINUOUS
 10
10.7130879995
 20
8.9259031679
 11
10.7130879995
 21
8.9010650741
  0
LINE
  5
2CA
100
AcDbEntity
  8
0
100
AcDbLine
 62
4
  6
CONTINUOUS
 10
10.7558647049
 20
9.2259613345
 11
10.7558647049
 21
9.2921962494
  0
LINE
  5
2CB
100
AcDbEntity
  8
0
100
AcDbLine
 62
4
  6
CONTINUOUS
 10
10.8041610074
 20
8.960984057
 11
10.8041610074
 21
8.9775427851
  0
LINE
  5
2CC
100
AcDbEntity
  8
0
100
AcDbLine
 62
4
  6
CONTINUOUS
 10
10.8055408684
 20
9.3301480194
 11
10.8055408684
 21
9.214236916
  0
LINE
  5
2CD
100
AcDbEntity
  8
0
100
AcDbLine
 62
4
  6
CONTINUOUS
 10
10.8703959197
 20
8.873597003
 11
10.9035133758
 21
8.987211403
  0
LINE
  5
2CE
100
AcDbEntity
  8
0
100
AcDbLine
 62
7
  6
CONTINUOUS
 10
12.5566265403
 20
10.3388431191
 11
12.9448547875
 21
10.7138428318
  0
LINE
  5
2CF
100
AcDbEntity
  8
0
100
AcDbLine
 62
4
  6
CONTINUOUS
 10
11.2719451151
 20
9.2564059514
 11
11.280224448
 21
9.2641111452
  0
LINE
  5
2D0
100
AcDbEntity
  8
0
100
AcDbLine
 62
4
  6
CONTINUOUS
 10
11.3133418903
 20
9.1790207955
 11
11.3216212233
 21
9.1867259867
  0
LINE
  5
2D1
100
AcDbEntity
  8
0
100
AcDbLine
 62
4
  6
CONTINUOUS
 10
10.8414181635
 20
8.719954565
 11
10.8579768846
 21
8.7353649418
  0
LINE
  5
2D2
100
AcDbEntity
  8
0
100
AcDbLine
 62
4
  6
CONTINUOUS
 10
10.9380107128
 20
8.7132558489
 11
10.954569434
 21
8.7286662258
  0
LINE
  5
2D3
100
AcDbEntity
  8
0
100
AcDbLine
 62
4
  6
CONTINUOUS
 10
11.0763450993
 20
8.0556640185
 11
11.0908339872
 21
8.0449999544
  0
LINE
  5
2D4
100
AcDbEntity
  8
0
100
AcDbLine
 62
4
  6
CONTINUOUS
 10
10.4053716022
 20
8.7667532248
 11
10.4219303303
 21
8.749046145
  0
LINE
  5
2D5
100
AcDbEntity
  8
0
100
AcDbLine
 62
4
  6
CONTINUOUS
 10
11.0473673234
 20
7.9514217896
 11
11.0328784355
 21
7.9717451143
  0
LINE
  5
2D6
100
AcDbEntity
  8
0
100
AcDbLine
 62
4
  6
CONTINUOUS
 10
11.0908339872
 20
8.0449999544
 11
11.0980784312
 21
8.0348382873
  0
LINE
  5
2D7
100
AcDbEntity
  8
0
100
AcDbLine
 62
4
  6
CONTINUOUS
 10
10.838658366
 20
9.2119402097
 11
10.838658366
 21
9.294733857
  0
LINE
  5
2D8
100
AcDbEntity
  8
0
100
AcDbLine
 62
4
  6
CONTINUOUS
 10
10.8414181635
 20
8.6371609194
 11
10.8414181635
 21
8.719954565
  0
LINE
  5
2D9
100
AcDbEntity
  8
0
100
AcDbLine
 62
4
  6
CONTINUOUS
 10
10.8772953637
 20
9.2837750046
 11
10.8772953637
 21
9.2672162766
  0
LINE
  5
2DA
100
AcDbEntity
  8
0
100
AcDbLine
 62
4
  6
CONTINUOUS
 10
10.9131726389
 20
9.2150519922
 11
10.9131726389
 21
9.239890087
  0
LINE
  5
2DB
100
AcDbEntity
  8
0
100
AcDbLine
 62
4
  6
CONTINUOUS
 10
10.9380107128
 20
8.6304622034
 11
10.9380107128
 21
8.7132558489
  0
LINE
  5
2DC
100
AcDbEntity
  8
0
100
AcDbLine
 62
4
  6
CONTINUOUS
 10
10.9628488024
 20
9.2033275737
 11
10.9628488024
 21
9.2695624929
  0
LINE
  5
2DD
100
AcDbEntity
  8
0
100
AcDbLine
 62
4
  6
CONTINUOUS
 10
10.9959662447
 20
9.2838245186
 11
10.9959662447
 21
9.2093102362
  0
LINE
  5
2DE
100
AcDbEntity
  8
0
100
AcDbLine
 62
4
  6
CONTINUOUS
 10
10.9959662645
 20
8.7092366178
 11
10.9959662645
 21
8.6264429722
  0
LINE
  5
2DF
100
AcDbEntity
  8
0
100
AcDbLine
 62
4
  6
CONTINUOUS
 10
11.1560339564
 20
9.3058412412
 11
11.1532741787
 21
9.2977532649
  0
LINE
  5
2E0
100
AcDbEntity
  8
0
100
AcDbLine
 62
4
  6
CONTINUOUS
 10
10.9959662645
 20
8.6264429722
 11
10.9794075433
 21
8.6110325936
  0
LINE
  5
2E1
100
AcDbEntity
  8
0
100
AcDbLine
 62
4
  6
CONTINUOUS
 10
11.0870392586
 20
8.6201270386
 11
11.0704805374
 21
8.60471666
  0
LINE
  5
2E2
100
AcDbEntity
  8
0
100
AcDbLine
 62
4
  6
CONTINUOUS
 10
11.2609059137
 20
8.641186803
 11
11.2167493055
 21
8.6221707684
  0
LINE
  5
2E3
100
AcDbEntity
  8
0
100
AcDbLine
 62
4
  6
CONTINUOUS
 10
10.2977398663
 20
8.7079825953
 11
10.3418964779
 21
8.682842018
  0
LINE
  5
2E4
100
AcDbEntity
  8
0
100
AcDbLine
 62
4
  6
CONTINUOUS
 10
10.2370245171
 20
9.2619430238
 11
10.245303882
 21
9.253089483
  0
LINE
  5
2E5
100
AcDbEntity
  8
0
100
AcDbLine
 62
4
  6
CONTINUOUS
 10
10.8579768846
 20
8.6194538384
 11
10.8414181635
 21
8.6371609194
  0
LINE
  5
2E6
100
AcDbEntity
  8
0
100
AcDbLine
 62
4
  6
CONTINUOUS
 10
10.4191705329
 20
9.3569428932
 11
10.4771260846
 21
9.2370125586
  0
LINE
  5
2E7
100
AcDbEntity
  8
0
100
AcDbLine
 62
4
  6
CONTINUOUS
 10
10.6841102097
 20
9.3054518081
 11
10.7089483191
 21
9.220935632
  0
LINE
  5
2E8
100
AcDbEntity
  8
0
100
AcDbLine
 62
4
  6
CONTINUOUS
 10
10.8372784635
 20
8.9918048098
 11
10.8703959197
 21
8.873597003
  0
LINE
  5
2E9
100
AcDbEntity
  8
0
100
AcDbLine
 62
4
  6
CONTINUOUS
 10
11.0328784355
 20
7.9717451143
 11
11.0256339915
 21
8.0012252941
  0
LINE
  5
2EA
100
AcDbEntity
  8
0
100
AcDbLine
 62
4
  6
CONTINUOUS
 10
11.0290837068
 20
8.60758754
 11
11.0290837068
 21
8.7234986434
  0
LINE
  5
2EB
100
AcDbEntity
  8
0
100
AcDbLine
 62
4
  6
CONTINUOUS
 10
11.0456424635
 20
9.1975858138
 11
11.0456424635
 21
9.2803794611
  0
LINE
  5
2EC
100
AcDbEntity
  8
0
100
AcDbLine
 62
4
  6
CONTINUOUS
 10
11.0787599058
 20
9.2035684763
 11
11.0787599058
 21
9.3112002148
  0
LINE
  5
2ED
100
AcDbEntity
  8
0
100
AcDbLine
 62
4
  6
CONTINUOUS
 10
11.0870392586
 20
8.7029206842
 11
11.0870392586
 21
8.6201270386
  0
LINE
  5
2EE
100
AcDbEntity
  8
0
100
AcDbLine
 62
4
  6
CONTINUOUS
 10
11.0980784312
 20
7.9962012551
 11
11.0980784312
 21
7.9575642212
  0
LINE
  5
2EF
100
AcDbEntity
  8
0
100
AcDbLine
 62
4
  6
CONTINUOUS
 10
11.1339556997
 20
8.6003146426
 11
11.1339556997
 21
8.716225746
  0
LINE
  5
2F0
100
AcDbEntity
  8
0
100
AcDbLine
 62
4
  6
CONTINUOUS
 10
11.1532741787
 20
9.190121529
 11
11.1532741787
 21
9.2729151763
  0
LINE
  5
2F1
100
AcDbEntity
  8
0
100
AcDbLine
 62
4
  6
CONTINUOUS
 10
11.1532741787
 20
9.2977532649
 11
11.1532741787
 21
9.3060326324
  0
LINE
  5
2F2
100
AcDbEntity
  8
0
100
AcDbLine
 62
7
  6
CONTINUOUS
 10
11.1657875035
 20
6.5715945998
 11
11.1657875035
 21
6.2662836504
  0
LINE
  5
2F3
100
AcDbEntity
  8
0
100
AcDbLine
 62
4
  6
CONTINUOUS
 10
11.1974307869
 20
9.1953386227
 11
11.1974307869
 21
9.2615735376
  0
LINE
  5
2F4
100
AcDbEntity
  8
0
100
AcDbLine
 62
4
  6
CONTINUOUS
 10
11.0256339915
 20
8.0012252941
 11
11.0328784355
 21
8.029700666
  0
LINE
  5
2F5
100
AcDbEntity
  8
0
100
AcDbLine
 62
4
  6
CONTINUOUS
 10
11.0704805374
 20
8.60471666
 11
11.0290837068
 21
8.60758754
  0
LINE
  5
2F6
100
AcDbEntity
  8
0
100
AcDbLine
 62
4
  6
CONTINUOUS
 10
10.9794075433
 20
8.6110325936
 11
10.954569434
 21
8.6127551224
  0
LINE
  5
2F7
100
AcDbEntity
  8
0
100
AcDbLine
 62
4
  6
CONTINUOUS
 10
10.891094327
 20
8.617157136
 11
10.8579768846
 21
8.6194538384
  0
LINE
  5
2F8
100
AcDbEntity
  8
0
100
AcDbLine
 62
4
  6
CONTINUOUS
 10
10.4053716022
 20
8.6508421214
 11
10.3639747855
 21
8.6537130003
  0
LINE
  5
2F9
100
AcDbEntity
  8
0
100
AcDbLine
 62
4
  6
CONTINUOUS
 10
10.6675514807
 20
8.632659885
 11
10.7172276718
 21
8.6292148295
  0
LINE
  5
2FA
100
AcDbEntity
  8
0
100
AcDbLine
 62
4
  6
CONTINUOUS
 10
11.1339556997
 20
8.6003146426
 11
11.1836318632
 21
8.5968695889
  0
LINE
  5
2FB
100
AcDbEntity
  8
0
100
AcDbLine
 62
4
  6
CONTINUOUS
 10
10.479885882
 20
8.6787919981
 11
10.5240424902
 21
8.6757297269
  0
LINE
  5
2FC
100
AcDbEntity
  8
0
100
AcDbLine
 62
4
  6
CONTINUOUS
 10
11.167073142
 20
8.6642528594
 11
11.1339556997
 21
8.6665495618
  0
LINE
  5
2FD
100
AcDbEntity
  8
0
100
AcDbLine
 62
4
  6
CONTINUOUS
 10
10.7006689506
 20
8.6965980999
 11
10.6675514807
 21
8.6988948042
  0
LINE
  5
2FE
100
AcDbEntity
  8
0
100
AcDbLine
 62
4
  6
CONTINUOUS
 10
10.3639747855
 20
8.7696241038
 11
10.4053716022
 21
8.7667532248
  0
LINE
  5
2FF
100
AcDbEntity
  8
0
100
AcDbLine
 62
4
  6
CONTINUOUS
 10
10.5681990984
 20
8.7554610996
 11
10.6344340107
 21
8.7508676928
  0
LINE
  5
300
100
AcDbEntity
  8
0
100
AcDbLine
 62
4
  6
CONTINUOUS
 10
10.6675514807
 20
8.7485709885
 11
10.7172276718
 21
8.7451259329
  0
LINE
  5
301
100
AcDbEntity
  8
0
100
AcDbLine
 62
4
  6
CONTINUOUS
 10
10.8579768846
 20
8.7353649418
 11
10.891094327
 21
8.7330682394
  0
LINE
  5
302
100
AcDbEntity
  8
0
100
AcDbLine
 62
4
  6
CONTINUOUS
 10
10.954569434
 20
8.7286662258
 11
10.9794075433
 21
8.7269436971
  0
LINE
  5
303
100
AcDbEntity
  8
0
100
AcDbLine
 62
4
  6
CONTINUOUS
 10
11.0290837068
 20
8.7234986434
 11
11.0704805374
 21
8.7206277635
  0
LINE
  5
304
100
AcDbEntity
  8
0
100
AcDbLine
 62
4
  6
CONTINUOUS
 10
11.1339556997
 20
8.716225746
 11
11.1836318632
 21
8.7127806924
  0
LINE
  5
305
100
AcDbEntity
  8
0
100
AcDbLine
 62
4
  6
CONTINUOUS
 10
9.3183600153
 20
9.9597139881
 11
9.3038711273
 21
9.9703780548
  0
LINE
  5
306
100
AcDbEntity
  8
0
100
AcDbLine
 62
4
  6
CONTINUOUS
 10
10.6882499074
 20
8.9993801838
 11
10.7048086355
 21
8.9844328955
  0
LINE
  5
307
100
AcDbEntity
  8
0
100
AcDbLine
 62
4
  6
CONTINUOUS
 10
10.2949800688
 20
9.2827618873
 11
10.2370245171
 21
9.3364573061
  0
LINE
  5
308
100
AcDbEntity
  8
0
100
AcDbLine
 62
4
  6
CONTINUOUS
 10
10.328097525
 20
9.2639064541
 11
10.3446562531
 21
9.2461993726
  0
LINE
  5
309
100
AcDbEntity
  8
0
100
AcDbLine
 62
4
  6
CONTINUOUS
 10
10.954569434
 20
8.6127551224
 11
10.9380107128
 21
8.6304622034
  0
LINE
  5
30A
100
AcDbEntity
  8
0
100
AcDbLine
 62
4
  6
CONTINUOUS
 10
10.2867007048
 20
9.366129707
 11
10.2949800688
 21
9.3572761636
  0
LINE
  5
30B
100
AcDbEntity
  8
0
100
AcDbLine
 62
4
  6
CONTINUOUS
 10
10.6965292714
 20
8.9436102477
 11
10.7130879995
 21
8.9259031679
  0
LINE
  5
30C
100
AcDbEntity
  8
0
100
AcDbLine
 62
4
  6
CONTINUOUS
 10
10.9794075433
 20
8.7269436971
 11
10.9959662645
 21
8.7092366178
  0
LINE
  5
30D
100
AcDbEntity
  8
0
100
AcDbLine
 62
4
  6
CONTINUOUS
 10
10.8041610074
 20
8.9775427851
 11
10.7876022862
 21
8.9952498644
  0
LINE
  5
30E
100
AcDbEntity
  8
0
100
AcDbLine
 62
4
  6
CONTINUOUS
 10
11.0704805374
 20
8.7206277635
 11
11.0870392586
 21
8.7029206842
  0
LINE
  5
30F
100
AcDbEntity
  8
0
100
AcDbLine
 62
4
  6
CONTINUOUS
 10
11.2719451151
 20
9.2315678593
 11
11.2719451151
 21
9.2564059514
  0
LINE
  5
310
100
AcDbEntity
  8
0
100
AcDbLine
 62
7
  6
CONTINUOUS
 10
11.317207443
 20
6.5044269117
 11
11.317207443
 21
6.1200234704
  0
LINE
  5
311
100
AcDbEntity
  8
0
100
AcDbLine
 62
4
  6
CONTINUOUS
 10
11.3216212233
 20
9.1867259867
 11
11.3216212233
 21
9.2115640814
  0
LINE
  5
312
100
AcDbEntity
  8
0
100
AcDbLine
 62
7
  6
CONTINUOUS
 10
11.3566802209
 20
6.4942106179
 11
11.3566802209
 21
6.1098071766
  0
LINE
  5
313
100
AcDbEntity
  8
0
100
AcDbLine
 62
4
  6
CONTINUOUS
 10
11.0328784355
 20
8.029700666
 11
11.0473673234
 21
8.0480143778
  0
LINE
  5
314
100
AcDbEntity
  8
0
100
AcDbLine
 62
4
  6
CONTINUOUS
 10
11.0980784312
 20
7.9575642212
 11
11.0908339872
 21
7.9484073662
  0
LINE
  5
315
100
AcDbEntity
  8
0
100
AcDbLine
 62
4
  6
CONTINUOUS
 10
12.2625021023
 20
8.9567163002
 11
12.2769909903
 21
8.9653707487
  0
LINE
  5
316
100
AcDbEntity
  8
0
100
AcDbLine
 62
4
  6
CONTINUOUS
 10
12.3059687661
 20
8.9150648377
 11
12.2769909903
 21
8.8977559372
  0
LINE
  5
317
100
AcDbEntity
  8
0
100
AcDbLine
 62
4
  6
CONTINUOUS
 10
11.0473673234
 20
8.0480143778
 11
11.0618562113
 21
8.0566688263
  0
LINE
  5
318
100
AcDbEntity
  8
0
100
AcDbLine
 62
4
  6
CONTINUOUS
 10
10.8041610074
 20
8.8781904097
 11
10.7462054556
 21
8.8822096409
  0
LINE
  5
319
100
AcDbEntity
  8
0
100
AcDbLine
 62
4
  6
CONTINUOUS
 10
10.6965292714
 20
8.885654696
 11
10.6551324478
 21
8.8885255754
  0
LINE
  5
31A
100
AcDbEntity
  8
0
100
AcDbLine
 62
4
  6
CONTINUOUS
 10
10.6551324478
 20
8.9464811271
 11
10.6965292714
 21
8.9436102477
  0
LINE
  5
31B
100
AcDbEntity
  8
0
100
AcDbLine
 62
4
  6
CONTINUOUS
 10
12.2552576584
 20
8.8509668569
 11
12.3132132101
 21
8.8469476258
  0
LINE
  5
31C
100
AcDbEntity
  8
0
100
AcDbLine
 62
4
  6
CONTINUOUS
 10
10.6799705416
 20
9.0027141512
 11
10.6882499074
 21
8.9993801838
  0
LINE
  5
31D
100
AcDbEntity
  8
0
100
AcDbLine
 62
4
  6
CONTINUOUS
 10
11.2167493055
 20
8.6663273817
 11
11.2609059137
 21
8.641186803
  0
LINE
  5
31E
100
AcDbEntity
  8
0
100
AcDbLine
 62
4
  6
CONTINUOUS
 10
9.3328489032
 20
10.0263239884
 11
9.3473377911
 21
10.0156599243
  0
LINE
  5
31F
100
AcDbEntity
  8
0
100
AcDbLine
 62
4
  6
CONTINUOUS
 10
9.3328489032
 20
10.0746202838
 11
9.3473377911
 21
10.0639562197
  0
LINE
  5
320
100
AcDbEntity
  8
0
100
AcDbLine
 62
4
  6
CONTINUOUS
 10
10.6427133791
 20
9.308322688
 11
10.6509927397
 21
9.2994691449
  0
LINE
  5
321
100
AcDbEntity
  8
0
100
AcDbLine
 62
4
  6
CONTINUOUS
 10
10.8717758084
 20
9.2924371546
 11
10.8772953637
 21
9.2837750046
  0
LINE
  5
322
100
AcDbEntity
  8
0
100
AcDbLine
 62
4
  6
CONTINUOUS
 10
10.9628488024
 20
9.2695624929
 11
10.9545694695
 21
9.2866953947
  0
LINE
  5
323
100
AcDbEntity
  8
0
100
AcDbLine
 62
7
  6
CONTINUOUS
 10
12.720845884
 20
9.4215317898
 11
12.7198310349
 21
9.4205695421
  0
LINE
  5
324
100
AcDbEntity
  8
0
100
AcDbLine
 62
4
  6
CONTINUOUS
 10
11.0908339872
 20
7.9484073662
 11
11.0763450993
 21
7.9397529151
  0
LINE
  5
325
100
AcDbEntity
  8
0
100
AcDbLine
 62
4
  6
CONTINUOUS
 10
10.7876022862
 20
8.9952498644
 11
10.7627641837
 21
8.9969723926
  0
LINE
  5
326
100
AcDbEntity
  8
0
100
AcDbLine
 62
4
  6
CONTINUOUS
 10
10.6551324478
 20
9.0044366789
 11
10.6799705416
 21
9.0027141512
  0
LINE
  5
327
100
AcDbEntity
  8
0
100
AcDbLine
 62
4
  6
CONTINUOUS
 10
12.2769909903
 20
8.9653707487
 11
12.2914798782
 21
8.9643659409
  0
LINE
  5
328
100
AcDbEntity
  8
0
100
AcDbLine
 62
4
  6
CONTINUOUS
 10
10.7724234261
 20
9.2165336184
 11
10.7558647049
 21
9.2259613345
  0
LINE
  5
329
100
AcDbEntity
  8
0
100
AcDbLine
 62
4
  6
CONTINUOUS
 10
10.9297313601
 20
9.2056242761
 11
10.9131726389
 21
9.2150519922
  0
LINE
  5
32A
100
AcDbEntity
  8
0
100
AcDbLine
 62
4
  6
CONTINUOUS
 10
10.9959662447
 20
9.2093102362
 11
11.004245633
 21
9.2004566938
  0
LINE
  5
32B
100
AcDbEntity
  8
0
100
AcDbLine
 62
4
  6
CONTINUOUS
 10
11.0870392941
 20
9.1947149339
 11
11.0787599058
 21
9.2035684763
  0
LINE
  5
32C
100
AcDbEntity
  8
0
100
AcDbLine
 62
4
  6
CONTINUOUS
 10
11.2057101199
 20
9.1864850841
 11
11.1974307869
 21
9.1953386227
  0
LINE
  5
32D
100
AcDbEntity
  8
0
100
AcDbLine
 62
4
  6
CONTINUOUS
 10
12.2552576584
 20
8.9475594408
 11
12.2625021023
 21
8.9567163002
  0
LINE
  5
32E
100
AcDbEntity
  8
0
100
AcDbLine
 62
4
  6
CONTINUOUS
 10
12.2769909903
 20
8.8977559372
 11
12.2625021023
 21
8.8794422289
  0
LINE
  5
32F
100
AcDbEntity
  8
0
100
AcDbLine
 62
4
  6
CONTINUOUS
 10
12.3132132101
 20
8.924221697
 11
12.3059687661
 21
8.9150648377
  0
LINE
  5
330
100
AcDbEntity
  8
0
100
AcDbLine
 62
4
  6
CONTINUOUS
 10
10.6841102097
 20
9.1950602789
 11
10.7006689309
 21
9.1939119277
  0
LINE
  5
331
100
AcDbEntity
  8
0
100
AcDbLine
 62
4
  6
CONTINUOUS
 10
11.2388276727
 20
9.184188374
 11
11.2057101199
 21
9.1864850841
  0
LINE
  5
332
100
AcDbEntity
  8
0
100
AcDbLine
 62
4
  6
CONTINUOUS
 10
11.1035980152
 20
9.1935665826
 11
11.0870392941
 21
9.1947149339
  0
LINE
  5
333
100
AcDbEntity
  8
0
100
AcDbLine
 62
4
  6
CONTINUOUS
 10
10.9628488024
 20
9.2033275737
 11
10.9297313601
 21
9.2056242761
  0
LINE
  5
334
100
AcDbEntity
  8
0
100
AcDbLine
 62
4
  6
CONTINUOUS
 10
10.8055408684
 20
9.214236916
 11
10.7724234261
 21
9.2165336184
  0
LINE
  5
335
100
AcDbEntity
  8
0
100
AcDbLine
 62
4
  6
CONTINUOUS
 10
10.245303882
 20
9.253089483
 11
10.2784213408
 21
9.2507927794
  0
LINE
  5
336
100
AcDbEntity
  8
0
100
AcDbLine
 62
4
  6
CONTINUOUS
 10
10.3446562531
 20
9.2461993726
 11
10.3694943555
 21
9.2444768444
  0
LINE
  5
337
100
AcDbEntity
  8
0
100
AcDbLine
 62
4
  6
CONTINUOUS
 10
11.004245633
 20
9.2004566938
 11
11.0456424635
 21
9.1975858138
  0
LINE
  5
338
100
AcDbEntity
  8
0
100
AcDbLine
 62
4
  6
CONTINUOUS
 10
11.280224448
 20
9.1813174979
 11
11.3133418903
 21
9.1790207955
  0
LINE
  5
339
100
AcDbEntity
  8
0
100
AcDbLine
 62
4
  6
CONTINUOUS
 10
10.9297313601
 20
9.2470210998
 11
10.9628488024
 21
9.2447243973
  0
LINE
  5
33A
100
AcDbEntity
  8
0
100
AcDbLine
 62
4
  6
CONTINUOUS
 10
10.9545694695
 20
9.2866953947
 11
10.9131726389
 21
9.2895662746
  0
LINE
  5
33B
100
AcDbEntity
  8
0
100
AcDbLine
 62
4
  6
CONTINUOUS
 10
10.6013165486
 20
9.3111935679
 11
10.6427133791
 21
9.308322688
  0
LINE
  5
33C
100
AcDbEntity
  8
0
100
AcDbLine
 62
4
  6
CONTINUOUS
 10
10.7724234261
 20
9.2993272657
 11
10.8055408684
 21
9.2970305633
  0
LINE
  5
33D
100
AcDbEntity
  8
0
100
AcDbLine
 62
4
  6
CONTINUOUS
 10
10.838658366
 20
9.294733857
 11
10.8717758084
 21
9.2924371546
  0
LINE
  5
33E
100
AcDbEntity
  8
0
100
AcDbLine
 62
4
  6
CONTINUOUS
 10
11.2057101199
 20
9.2692787314
 11
11.2388276727
 21
9.2669820213
  0
LINE
  5
33F
100
AcDbEntity
  8
0
100
AcDbLine
 62
4
  6
CONTINUOUS
 10
11.280224448
 20
9.2641111452
 11
11.3133418903
 21
9.2618144428
  0
LINE
  5
340
100
AcDbEntity
  8
0
100
AcDbLine
 62
4
  6
CONTINUOUS
 10
10.2535832469
 20
9.3684264105
 11
10.2867007048
 21
9.366129707
  0
LINE
  5
341
100
AcDbEntity
  8
0
100
AcDbLine
 62
4
  6
CONTINUOUS
 10
11.1532741787
 20
9.3060326324
 11
11.1560339564
 21
9.3058412412
  0
LINE
  5
342
100
AcDbEntity
  8
0
100
AcDbLine
 62
4
  6
CONTINUOUS
 10
11.3133418903
 20
9.2176578311
 11
11.280224448
 21
9.2254741096
  0
LINE
  5
343
100
AcDbEntity
  8
0
100
AcDbLine
 62
4
  6
CONTINUOUS
 10
11.280224448
 20
9.2254741096
 11
11.2719451151
 21
9.2315678593
  0
LINE
  5
344
100
AcDbEntity
  8
0
100
AcDbLine
 62
4
  6
CONTINUOUS
 10
11.3216212233
 20
9.2115640814
 11
11.3133418903
 21
9.2176578311
  0
LINE
  5
345
100
AcDbEntity
  8
0
100
AcDbLine
 62
4
  6
CONTINUOUS
 10
11.2719451151
 20
9.1901710365
 11
11.280224448
 21
9.1813174979
  0
LINE
  5
346
100
AcDbEntity
  8
0
100
AcDbLine
 62
4
  6
CONTINUOUS
 10
11.3133418903
 20
9.2618144428
 11
11.3216212233
 21
9.2529609016
  0
LINE
  5
347
100
AcDbEntity
  8
0
100
AcDbLine
 62
7
  6
CONTINUOUS
 10
11.9217866955
 20
6.4550203508
 11
11.9217866955
 21
6.0706169095
  0
LINE
  5
348
100
AcDbEntity
  8
0
100
AcDbLine
 62
7
  6
CONTINUOUS
 10
11.9757074978
 20
6.4587597778
 11
11.9757074978
 21
6.0743563364
  0
LINE
  5
349
100
AcDbEntity
  8
0
100
AcDbLine
 62
4
  6
CONTINUOUS
 10
12.2625021023
 20
8.8794422289
 11
12.2552576584
 21
8.8509668569
  0
LINE
  5
34A
100
AcDbEntity
  8
0
100
AcDbLine
 62
4
  6
CONTINUOUS
 10
12.2914798782
 20
8.9643659409
 11
12.3059687661
 21
8.9537018768
  0
LINE
  5
34B
100
AcDbEntity
  8
0
100
AcDbLine
 62
4
  6
CONTINUOUS
 10
12.3132132101
 20
8.9435402097
 11
12.3132132101
 21
8.924221697
  0
LINE
  5
34C
100
AcDbEntity
  8
0
100
AcDbLine
 62
7
  6
CONTINUOUS
 10
12.3893940328
 20
6.4867371987
 11
12.3893940328
 21
6.1814262494
  0
LINE
  5
34D
100
AcDbEntity
  8
0
100
AcDbLine
 62
7
  6
CONTINUOUS
 10
12.4038420572
 20
6.4857352249
 11
12.4038420572
 21
6.1953819701
  0
LINE
  5
34E
100
AcDbEntity
  8
0
100
AcDbLine
 62
4
  6
CONTINUOUS
 10
9.3328489032
 20
9.9587091803
 11
9.3183600153
 21
9.9597139881
  0
LINE
  5
34F
100
AcDbEntity
  8
0
100
AcDbLine
 62
4
  6
CONTINUOUS
 10
9.3183600153
 20
10.0273287962
 11
9.3328489032
 21
10.0263239884
  0
LINE
  5
350
100
AcDbEntity
  8
0
100
AcDbLine
 62
4
  6
CONTINUOUS
 10
9.3183600153
 20
10.0756250916
 11
9.3328489032
 21
10.0746202838
  0
LINE
  5
351
100
AcDbEntity
  8
0
100
AcDbLine
 62
4
  6
CONTINUOUS
 10
12.3059687661
 20
8.9537018768
 11
12.3132132101
 21
8.9435402097
  0
LINE
  5
352
100
AcDbEntity
  8
0
100
AcDbLine
 62
7
  6
CONTINUOUS
 10
12.5566265403
 20
6.475139585
 11
12.5566265403
 21
10.3388431191
  0
LINE
  5
353
100
AcDbEntity
  8
0
100
AcDbLine
 62
7
  6
CONTINUOUS
 10
12.9448547875
 20
6.8501392977
 11
12.9448547875
 21
10.7138428318
  0
LINE
  5
354
100
AcDbEntity
  8
0
100
AcDbLine
 62
7
  6
CONTINUOUS
 10
9.0551452125
 20
10.5816716739
 11
12.5566265403
 21
10.3388431191
  0
LINE
  5
355
100
AcDbEntity
  8
0
100
AcDbLine
 62
7
  6
CONTINUOUS
 10
12.9448547875
 20
10.7138428318
 11
9.4433734597
 21
10.9566713866
  0
LINE
  5
356
100
AcDbEntity
  8
0
100
AcDbLine
 62
7
  6
CONTINUOUS
 10
12.5566265403
 20
6.475139585
 11
12.9448547875
 21
6.8501392977
  0
LINE
  5
357
100
AcDbEntity
  8
0
100
AcDbLine
 62
7
  6
CONTINUOUS
 10
12.3070979012
 20
6.1352630932
 11
12.2764238907
 21
6.1201107194
  0
ARC
  5
358
100
AcDbEntity
  8
0
100
AcDbCircle
 62
7
  6
CONTINUOUS
 10
11.7958543029
 20
8.2771297941
 40
2.210103635
100
AcDbArc
 50
273.2665005552
 51
274.6677615151
  0
ARC
  5
359
100
AcDbEntity
  8
0
100
AcDbCircle
 62
7
  6
CONTINUOUS
 10
11.7958543029
 20
8.6615332355
 40
2.210103635
100
AcDbArc
 50
273.2665005552
 51
274.6677615151
  0
ARC
  5
35A
100
AcDbEntity
  8
0
100
AcDbCircle
 62
7
  6
CONTINUOUS
 10
11.5758797294
 20
7.4224973516
 40
0.9538158545
100
AcDbArc
 50
254.2644742826
 51
256.7139235525
  0
ARC
  5
35B
100
AcDbEntity
  8
0
100
AcDbCircle
 62
7
  6
CONTINUOUS
 10
11.5758797294
 20
7.0380939102
 40
0.9538158545
100
AcDbArc
 50
254.2644742826
 51
256.7139235525
  0
ARC
  5
35C
100
AcDbEntity
  8
0
100
AcDbCircle
 62
7
  6
CONTINUOUS
 10
11.9682168996
 20
6.8201582944
 40
0.7641475746
100
AcDbArc
 50
293.7608747297
 51
296.3085175792
  0
ARC
  5
35D
100
AcDbEntity
  8
0
100
AcDbCircle
 62
7
  6
CONTINUOUS
 10
10.5518371818
 20
7.6103877461
 40
0.3831161474
100
AcDbArc
 50
312.2851290132
 51
313.3961311964
  0
ARC
  5
35E
100
AcDbEntity
  8
0
100
AcDbCircle
 62
7
  6
CONTINUOUS
 10
10.4727518789
 20
7.6922619068
 40
0.3830512509
100
AcDbArc
 50
134.93354529
 51
135.7283146029
  0
SPLINE
  5
35F
100
AcDbEntity
  8
0
100
AcDbSpline
 62
7
  6
CONTINUOUS
 70
0
 71
3
 72
9
 73
5
 74
0
 42
0.0000001
 43
0.0000001
 44
0.0000000001
 40
0.0
 40
0.0
 40
0.0
 40
0.0
 40
0.2426770998
 40
1.0
 40
1.0
 40
1.0
 40
1.0
 10
12.3972117905
 20
6.1883629334
 30
0.0
 10
12.3966036
 20
6.1877754665
 30
0.0
 10
12.3940705486
 20
6.1853825853
 30
0.0
 10
12.3914348349
 20
6.1830991158
 30
0.0
 10
12.3893940328
 20
6.1814262494
 30
0.0
  0
SPLINE
  5
360
100
AcDbEntity
  8
0
100
AcDbSpline
 62
7
  6
CONTINUOUS
 70
0
 71
3
 72
9
 73
5
 74
0
 42
0.0000001
 43
0.0000001
 44
0.0000000001
 40
0.0
 40
0.0
 40
0.0
 40
0.0
 40
0.2426666479
 40
1.0
 40
1.0
 40
1.0
 40
1.0
 10
12.4038420572
 20
6.1953819701
 30
0.0
 10
12.4033344294
 20
6.1947881972
 30
0.0
 10
12.4012107336
 20
6.1923686127
 30
0.0
 10
12.3989653251
 20
6.1900567179
 30
0.0
 10
12.3972117905
 20
6.1883629334
 30
0.0
  0
SPLINE
  5
361
100
AcDbEntity
  8
0
100
AcDbSpline
 62
7
  6
CONTINUOUS
 70
0
 71
3
 72
9
 73
5
 74
0
 42
0.0000001
 43
0.0000001
 44
0.0000000001
 40
0.0
 40
0.0
 40
0.0
 40
0.0
 40
0.504378312
 40
1.0
 40
1.0
 40
1.0
 40
1.0
 10
12.3893940328
 20
6.1814262494
 30
0.0
 10
12.3758902826
 20
6.1730173957
 30
0.0
 10
12.3487774452
 20
6.1568827397
 30
0.0
 10
12.3209046487
 20
6.1420855449
 30
0.0
 10
12.3068905107
 20
6.1351607025
 30
0.0
  0
SPLINE
  5
362
100
AcDbEntity
  8
0
100
AcDbSpline
 62
7
  6
CONTINUOUS
 70
0
 71
3
 72
23
 73
19
 74
0
 42
0.0000001
 43
0.0000001
 44
0.0000000001
 40
0.0
 40
0.0
 40
0.0
 40
0.0
 40
0.0436203086
 40
0.0892268542
 40
0.137068591
 40
0.187353676
 40
0.2402538462
 40
0.2958872461
 40
0.3543311569
 40
0.4156094827
 40
0.4797102731
 40
0.5465788188
 40
0.6161346312
 40
0.6882694307
 40
0.7628606873
 40
0.8397744221
 40
0.9188692703
 40
1.0
 40
1.0
 40
1.0
 40
1.0
 10
11.2741960138
 20
6.1295011619
 30
0.0
 10
11.2718860781
 20
6.1306417304
 30
0.0
 10
11.2672489544
 20
6.1331568269
 30
0.0
 10
11.260421665
 20
6.1375178789
 30
0.0
 10
11.2535852761
 20
6.1425601655
 30
0.0
 10
11.2467437264
 20
6.1482910978
 30
0.0
 10
11.2399026282
 20
6.1547147486
 30
0.0
 10
11.2330650877
 20
6.161826321
 30
0.0
 10
11.2262368285
 20
6.169617133
 30
0.0
 10
11.2194205844
 20
6.1780705355
 30
0.0
 10
11.2126214159
 20
6.1871664414
 30
0.0
 10
11.2058415657
 20
6.1968788233
 30
0.0
 10
11.1990848988
 20
6.2071793714
 30
0.0
 10
11.1923530118
 20
6.2180363255
 30
0.0
 10
11.1856482948
 20
6.229417179
 30
0.0
 10
11.1789716456
 20
6.2412882614
 30
0.0
 10
11.1723241531
 20
6.2536161005
 30
0.0
 10
11.1679650351
 20
6.2620155176
 30
0.0
 10
11.1657875035
 20
6.2662836504
 30
0.0
  0
SPLINE
  5
363
100
AcDbEntity
  8
0
100
AcDbSpline
 62
7
  6
CONTINUOUS
 70
0
 71
3
 72
47
 73
43
 74
0
 42
0.0000001
 43
0.0000001
 44
0.0000000001
 40
0.0
 40
0.0
 40
0.0
 40
0.0
 40
0.0099874638
 40
0.0204476834
 40
0.0313771515
 40
0.0427708334
 40
0.0546218702
 40
0.0669225517
 40
0.0796641282
 40
0.0928362942
 40
0.1204271347
 40
0.1495984091
 40
0.1802407165
 40
0.2122338314
 40
0.2454489836
 40
0.2797497839
 40
0.3149929168
 40
0.3510298084
 40
0.3877071885
 40
0.4248680172
 40
0.4623527228
 40
0.4999997959
 40
0.5376468789
 40
0.575131606
 40
0.6122924455
 40
0.6489698269
 40
0.6850067267
 40
0.7202498875
 40
0.7545507276
 40
0.7877659112
 40
0.8197590481
 40
0.8504013805
 40
0.8795726993
 40
0.9071635849
 40
0.9203357726
 40
0.933077377
 40
0.9453780958
 40
0.9572291635
 40
0.968622847
 40
0.9795522717
 40
0.9900124597
 40
1.0
 40
1.0
 40
1.0
 40
1.0
 10
12.2764277761
 20
6.120112674
 30
0.0
 10
12.2734372418
 20
6.1186353963
 30
0.0
 10
12.2672635354
 20
6.1157134805
 30
0.0
 10
12.257661337
 20
6.1115140368
 30
0.0
 10
12.2475131589
 20
6.107401202
 30
0.0
 10
12.2368307109
 20
6.1033799922
 30
0.0
 10
12.2256263352
 20
6.099454687
 30
0.0
 10
12.2139128346
 20
6.0956299679
 30
0.0
 10
12.2017035786
 20
6.0919103971
 30
0.0
 10
12.1845157498
 20
6.0870208653
 30
0.0
 10
12.1618854375
 20
6.0812253838
 30
0.0
 10
12.1333941592
 20
6.0748567116
 30
0.0
 10
12.1032941102
 20
6.0690011877
 30
0.0
 10
12.071724104
 20
6.063685846
 30
0.0
 10
12.038829446
 20
6.0589356896
 30
0.0
 10
12.0047617949
 20
6.0547731575
 30
0.0
 10
11.9696783364
 20
6.0512174295
 30
0.0
 10
11.9337410155
 20
6.0482852591
 30
0.0
 10
11.8971157546
 20
6.0459904745
 30
0.0
 10
11.8599717221
 20
6.044343527
 30
0.0
 10
11.8224804982
 20
6.043352291
 30
0.0
 10
11.7848152579
 20
6.0430214344
 30
0.0
 10
11.7471500103
 20
6.0433522743
 30
0.0
 10
11.7096587719
 20
6.0443434943
 30
0.0
 10
11.6725147274
 20
6.045990425
 30
0.0
 10
11.6358894587
 20
6.0482851935
 30
0.0
 10
11.599952124
 20
6.051217347
 30
0.0
 10
11.5648686384
 20
6.0547730604
 30
0.0
 10
11.5308009522
 20
6.0589355779
 30
0.0
 10
11.4979062609
 20
6.0636857209
 30
0.0
 10
11.4663362255
 20
6.0690010468
 30
0.0
 10
11.4362361426
 20
6.0748565564
 30
0.0
 10
11.407744823
 20
6.081225219
 30
0.0
 10
11.385114469
 20
6.0870206871
 30
0.0
 10
11.3679266045
 20
6.0919102094
 30
0.0
 10
11.3557173178
 20
6.0956297787
 30
0.0
 10
11.3440037857
 20
6.099454505
 30
0.0
 10
11.3327993863
 20
6.1033798128
 30
0.0
 10
11.3221169355
 20
6.1074010043
 30
0.0
 10
11.3119687634
 20
6.1115137881
 30
0.0
 10
11.3023665475
 20
6.1157131934
 30
0.0
 10
11.2961928263
 20
6.1186351141
 30
0.0
 10
11.2932022733
 20
6.1201124117
 30
0.0
  0
SPLINE
  5
364
100
AcDbEntity
  8
0
100
AcDbSpline
 62
7
  6
CONTINUOUS
 70
0
 71
3
 72
15
 73
11
 74
0
 42
0.0000001
 43
0.0000001
 44
0.0000000001
 40
0.0
 40
0.0
 40
0.0
 40
0.0
 40
0.1299708166
 40
0.2593283487
 40
0.3876617857
 40
0.5145654289
 40
0.6396384778
 40
0.7624890516
 40
0.8827334041
 40
1.0
 40
1.0
 40
1.0
 40
1.0
 10
11.7695936258
 20
6.5295845285
 30
0.0
 10
11.7591427977
 20
6.5296610609
 30
0.0
 10
11.7382912601
 20
6.5299712049
 30
0.0
 10
11.7071318432
 20
6.5309081742
 30
0.0
 10
11.6762368199
 20
6.5323134805
 30
0.0
 10
11.6457114732
 20
6.5341818654
 30
0.0
 10
11.6156596761
 20
6.5365073986
 30
0.0
 10
11.5861836752
 20
6.5392816127
 30
0.0
 10
11.5573839181
 20
6.5424954177
 30
0.0
 10
11.5384433216
 20
6.5449567437
 30
0.0
 10
11.5291046195
 20
6.5462624977
 30
0.0
  0
SPLINE
  5
365
100
AcDbEntity
  8
0
100
AcDbSpline
 62
7
  6
CONTINUOUS
 70
0
 71
3
 72
10
 73
6
 74
0
 42
0.0000001
 43
0.0000001
 44
0.0000000001
 40
0.0
 40
0.0
 40
0.0
 40
0.0
 40
0.4950633206
 40
0.7463873743
 40
1.0
 40
1.0
 40
1.0
 40
1.0
 10
12.0671270389
 20
6.50936208
 30
0.0
 10
12.051567169
 20
6.5019147807
 30
0.0
 10
12.0284765004
 20
6.4899021548
 30
0.0
 10
11.9982496342
 20
6.4725644433
 30
0.0
 10
11.9832090059
 20
6.4634310049
 30
0.0
 10
11.9757074978
 20
6.4587597778
 30
0.0
  0
SPLINE
  5
366
100
AcDbEntity
  8
0
100
AcDbSpline
 62
7
  6
CONTINUOUS
 70
0
 71
3
 72
21
 73
17
 74
0
 42
0.0000001
 43
0.0000001
 44
0.0000000001
 40
0.0
 40
0.0
 40
0.0
 40
0.0
 40
0.1230212981
 40
0.1847065752
 40
0.2465215318
 40
0.3084771567
 40
0.3705832678
 40
0.432847904
 40
0.4952752623
 40
0.5578663069
 40
0.6206183946
 40
0.6835249868
 40
0.7465773451
 40
0.8097643485
 40
0.8730733734
 40
1.0
 40
1.0
 40
1.0
 40
1.0
 10
11.9217866955
 20
6.0706169095
 30
0.0
 10
11.8987075145
 20
6.0660695533
 30
0.0
 10
11.863875073
 20
6.060097147
 30
0.0
 10
11.817103858
 20
6.0541869996
 30
0.0
 10
11.7817925494
 20
6.0508597856
 30
0.0
 10
11.7463081066
 20
6.048725378
 30
0.0
 10
11.7106833855
 20
6.0478546417
 30
0.0
 10
11.674960174
 20
6.0483035369
 30
0.0
 10
11.6391865523
 20
6.0501055356
 30
0.0
 10
11.6034140261
 20
6.0532688215
 30
0.0
 10
11.5676940862
 20
6.0577777721
 30
0.0
 10
11.5320744728
 20
6.0635920139
 30
0.0
 10
11.4965963333
 20
6.070649728
 30
0.0
 10
11.4612921426
 20
6.0788754177
 30
0.0
 10
11.4144482164
 20
6.0912949697
 30
0.0
 10
11.3796878067
 20
6.1020827641
 30
0.0
 10
11.3566802209
 20
6.1098071766
 30
0.0
  0
SPLINE
  5
367
100
AcDbEntity
  8
0
100
AcDbSpline
 62
7
  6
CONTINUOUS
 70
0
 71
3
 72
21
 73
17
 74
0
 42
0.0000001
 43
0.0000001
 44
0.0000000001
 40
0.0
 40
0.0
 40
0.0
 40
0.0
 40
0.1269266266
 40
0.1902356515
 40
0.253422655
 40
0.3164750132
 40
0.3793816055
 40
0.4421336932
 40
0.5047247377
 40
0.567152096
 40
0.6294167323
 40
0.6915228434
 40
0.7534784683
 40
0.8152934248
 40
0.8769787019
 40
1.0
 40
1.0
 40
1.0
 40
1.0
 10
11.9217866955
 20
6.4550203508
 30
0.0
 10
11.8987791097
 20
6.4627447634
 30
0.0
 10
11.8640187
 20
6.4735325577
 30
0.0
 10
11.8171747739
 20
6.4859521098
 30
0.0
 10
11.7818705831
 20
6.4941777995
 30
0.0
 10
11.7463924436
 20
6.5012355135
 30
0.0
 10
11.7107728302
 20
6.5070497553
 30
0.0
 10
11.6750528903
 20
6.5115587059
 30
0.0
 10
11.6392803641
 20
6.5147219918
 30
0.0
 10
11.6035067424
 20
6.5165239906
 30
0.0
 10
11.5677835309
 20
6.5169728858
 30
0.0
 10
11.5321588098
 20
6.5161021494
 30
0.0
 10
11.496674367
 20
6.5139677418
 30
0.0
 10
11.4613630584
 20
6.5106405278
 30
0.0
 10
11.4145918435
 20
6.5047303804
 30
0.0
 10
11.3797594019
 20
6.4987579741
 30
0.0
 10
11.3566802209
 20
6.4942106179
 30
0.0
  0
SPLINE
  5
368
100
AcDbEntity
  8
0
100
AcDbSpline
 62
7
  6
CONTINUOUS
 70
0
 71
3
 72
11
 73
7
 74
0
 42
0.0000001
 43
0.0000001
 44
0.0000000001
 40
0.0
 40
0.0
 40
0.0
 40
0.0
 40
0.2465919593
 40
0.494712682
 40
0.7454424776
 40
1.0
 40
1.0
 40
1.0
 40
1.0
 10
11.317207443
 20
6.1200234704
 30
0.0
 10
11.3152650301
 20
6.1199686357
 30
0.0
 10
11.3113637204
 20
6.1199759822
 30
0.0
 10
11.3054980292
 20
6.120359504
 30
0.0
 10
11.2996079572
 20
6.1211377864
 30
0.0
 10
11.2957015001
 20
6.1219273342
 30
0.0
 10
11.293750055
 20
6.1223917956
 30
0.0
  0
SPLINE
  5
369
100
AcDbEntity
  8
0
100
AcDbSpline
 62
7
  6
CONTINUOUS
 70
0
 71
3
 72
10
 73
6
 74
0
 42
0.0000001
 43
0.0000001
 44
0.0000000001
 40
0.0
 40
0.0
 40
0.0
 40
0.0
 40
0.2418255986
 40
0.4885199497
 40
1.0
 40
1.0
 40
1.0
 40
1.0
 10
11.293750055
 20
6.1223917956
 30
0.0
 10
11.2921155375
 20
6.1227808253
 30
0.0
 10
11.2888352272
 20
6.1236616859
 30
0.0
 10
11.2822363268
 20
6.1258439912
 30
0.0
 10
11.2773824484
 20
6.1279278075
 30
0.0
 10
11.2741960138
 20
6.1295011619
 30
0.0
  0
SPLINE
  5
36A
100
AcDbEntity
  8
0
100
AcDbSpline
 62
7
  6
CONTINUOUS
 70
0
 71
3
 72
11
 73
7
 74
0
 42
0.0000001
 43
0.0000001
 44
0.0000000001
 40
0.0
 40
0.0
 40
0.0
 40
0.0
 40
0.2633952514
 40
0.5183435581
 40
0.764111363
 40
1.0
 40
1.0
 40
1.0
 40
1.0
 10
11.317207443
 20
6.5044269117
 30
0.0
 10
11.3144909565
 20
6.5097514385
 30
0.0
 10
11.3090541588
 20
6.5201837483
 30
0.0
 10
11.3007279916
 20
6.5353962342
 30
0.0
 10
11.2923575312
 20
6.5498678773
 30
0.0
 10
11.2866260542
 20
6.5591776171
 30
0.0
 10
11.2837455337
 20
6.5636897717
 30
0.0
  0
LINE
  5
36B
100
AcDbEntity
  8
0
100
AcDbLine
 62
7
  6
CONTINUOUS
 10
12.2761075525
 20
6.1207836726
 11
12.2753784385
 21
6.120463785
  0
SPLINE
  5
36C
100
AcDbEntity
  8
0
100
AcDbSpline
 62
7
  6
CONTINUOUS
 70
0
 71
3
 72
15
 73
11
 74
0
 42
0.0000001
 43
0.0000001
 44
0.0000000001
 40
0.0
 40
0.0
 40
0.0
 40
0.0
 40
0.1321602046
 40
0.2618009952
 40
0.3890353631
 40
0.5141096583
 40
0.6373677171
 40
0.75919507
 40
0.8799649792
 40
1.0
 40
1.0
 40
1.0
 40
1.0
 10
12.2753784385
 20
6.120463785
 30
0.0
 10
12.2629973351
 20
6.1150400428
 30
0.0
 10
12.2381565712
 20
6.1049930537
 30
0.0
 10
12.2003625081
 20
6.0924596163
 30
0.0
 10
12.1624917387
 20
6.0827423268
 30
0.0
 10
12.124665363
 20
6.0758738226
 30
0.0
 10
12.0869979771
 20
6.0717739941
 30
0.0
 10
12.0495823951
 20
6.0702673062
 30
0.0
 10
12.0124815585
 20
6.0711141539
 30
0.0
 10
11.9879171391
 20
6.0730735039
 30
0.0
 10
11.9757074978
 20
6.0743563364
 30
0.0
  0
SPLINE
  5
36D
100
AcDbEntity
  8
0
100
AcDbSpline
 62
7
  6
CONTINUOUS
 70
0
 71
3
 72
91
 73
87
 74
0
 42
0.0000001
 43
0.0000001
 44
0.0000000001
 40
0.0
 40
0.0
 40
0.0
 40
0.0
 40
0.0039801824
 40
0.0081241125
 40
0.0124359604
 40
0.0169193082
 40
0.0215771808
 40
0.0264119179
 40
0.0314251804
 40
0.036618156
 40
0.0419915391
 40
0.0475456573
 40
0.0532804234
 40
0.0591954189
 40
0.0652899227
 40
0.0715629017
 40
0.0780131034
 40
0.0846389837
 40
0.0984102885
 40
0.1128608532
 40
0.1279713725
 40
0.1437199568
 40
0.1600824082
 40
0.1770324532
 40
0.1945419392
 40
0.2125810061
 40
0.2311182422
 40
0.2501208275
 40
0.2695546626
 40
0.2893844909
 40
0.3095740146
 40
0.330086005
 40
0.35088241
 40
0.3719244606
 40
0.3931727759
 40
0.4145874652
 40
0.4361282289
 40
0.4577544586
 40
0.4794253371
 40
0.501099938
 40
0.5227373261
 40
0.5442966575
 40
0.5657372785
 40
0.5870188258
 40
0.6081013261
 40
0.6289452975
 40
0.6495118524
 40
0.6697628021
 40
0.6896607608
 40
0.7091692527
 40
0.7282528228
 40
0.7468771515
 40
0.7650091753
 40
0.7826172172
 40
0.7996711268
 40
0.8161424293
 40
0.8320044948
 40
0.8472327309
 40
0.8618048077
 40
0.8757009255
 40
0.8889041429
 40
0.8952417292
 40
0.9014012652
 40
0.9073816417
 40
0.9131820083
 40
0.9188018518
 40
0.9242409423
 40
0.9294994633
 40
0.9345779585
 40
0.9394774438
 40
0.944199427
 40
0.9487459568
 40
0.95311974
 40
0.9573241405
 40
0.9613633601
 40
0.9652424499
 40
0.9689674846
 40
0.9725456466
 40
0.9759853437
 40
0.9824865016
 40
0.9855753543
 40
0.9885738189
 40
0.9914977372
 40
0.9943643366
 40
0.9971920099
 40
1.0
 40
1.0
 40
1.0
 40
1.0
 10
11.3327614669
 20
10.6246801667
 30
0.0
 10
11.331460235
 20
10.6234232732
 30
0.0
 10
11.3287451456
 20
10.6209183757
 30
0.0
 10
11.3244344186
 20
10.6172597843
 30
0.0
 10
11.3198071389
 20
10.6136274365
 30
0.0
 10
11.314865845
 20
10.6100232608
 30
0.0
 10
11.3096129459
 20
10.6064489405
 30
0.0
 10
11.3040510155
 20
10.6029062145
 30
0.0
 10
11.2981828355
 20
10.5993967815
 30
0.0
 10
11.2920113174
 20
10.5959224626
 30
0.0
 10
11.2855395778
 20
10.5924849255
 30
0.0
 10
11.2787708338
 20
10.5890859387
 30
0.0
 10
11.2717084888
 20
10.5857271739
 30
0.0
 10
11.2643560854
 20
10.5824103285
 30
0.0
 10
11.2567173144
 20
10.5791370929
 30
0.0
 10
11.2487960313
 20
10.5759090842
 30
0.0
 10
11.2405962023
 20
10.5727279621
 30
0.0
 10
11.22914969
 20
10.5684966221
 30
0.0
 10
11.2141679895
 20
10.5633469993
 30
0.0
 10
11.1953711488
 20
10.5574561414
 30
0.0
 10
11.1755691923
 20
10.5517891585
 30
0.0
 10
11.1548020923
 20
10.546357578
 30
0.0
 10
11.1331116198
 20
10.5411724639
 30
0.0
 10
11.1105415167
 20
10.5362443788
 30
0.0
 10
11.087137323
 20
10.531583364
 30
0.0
 10
11.0629463005
 20
10.5271989121
 30
0.0
 10
11.0380173241
 20
10.5230999511
 30
0.0
 10
11.0124007783
 20
10.519294826
 30
0.0
 10
10.9861484514
 20
10.5157912825
 30
0.0
 10
10.9593134282
 20
10.5125964509
 30
0.0
 10
10.9319499812
 20
10.5097168325
 30
0.0
 10
10.9041134599
 20
10.5071582872
 30
0.0
 10
10.8758601784
 20
10.5049260182
 30
0.0
 10
10.8472472988
 20
10.5030245639
 30
0.0
 10
10.8183327144
 20
10.5014577901
 30
0.0
 10
10.789174931
 20
10.500228882
 30
0.0
 10
10.7598329482
 20
10.4993403384
 30
0.0
 10
10.7303661405
 20
10.4987939664
 30
0.0
 10
10.7008341362
 20
10.4985908782
 30
0.0
 10
10.6712966968
 20
10.4987314864
 30
0.0
 10
10.6418135943
 20
10.4992155038
 30
0.0
 10
10.61244449
 20
10.5000419456
 30
0.0
 10
10.583248813
 20
10.5012091317
 30
0.0
 10
10.5542856406
 20
10.5027146893
 30
0.0
 10
10.5256135781
 20
10.5045555582
 30
0.0
 10
10.4972906393
 20
10.5067279966
 30
0.0
 10
10.4693741277
 20
10.5092275871
 30
0.0
 10
10.4419205187
 20
10.5120492438
 30
0.0
 10
10.4149853449
 20
10.5151872263
 30
0.0
 10
10.3886230835
 20
10.5186351496
 30
0.0
 10
10.3628870443
 20
10.5223859972
 30
0.0
 10
10.3378292608
 20
10.5264321348
 30
0.0
 10
10.3135003816
 20
10.5307653261
 30
0.0
 10
10.2899495632
 20
10.5353767473
 30
0.0
 10
10.2672243643
 20
10.5402570042
 30
0.0
 10
10.2453706486
 20
10.5453961543
 30
0.0
 10
10.2244324783
 20
10.5507837286
 30
0.0
 10
10.2044520426
 20
10.5564087539
 30
0.0
 10
10.1854694722
 20
10.5622597813
 30
0.0
 10
10.1675230508
 20
10.5683249129
 30
0.0
 10
10.1532729097
 20
10.5736170477
 30
0.0
 10
10.142427083
 20
10.5779578996
 30
0.0
 10
10.1346851197
 20
10.581214902
 30
0.0
 10
10.1272281432
 20
10.5845160673
 30
0.0
 10
10.1200599037
 20
10.5878597948
 30
0.0
 10
10.1131839874
 20
10.5912443405
 30
0.0
 10
10.1066038633
 20
10.5946680684
 30
0.0
 10
10.1003228069
 20
10.5981292046
 30
0.0
 10
10.0943439745
 20
10.6016260645
 30
0.0
 10
10.0886703448
 20
10.6051568918
 30
0.0
 10
10.0833047388
 20
10.6087199314
 30
0.0
 10
10.0782498481
 20
10.6123134733
 30
0.0
 10
10.0735081517
 20
10.6159357079
 30
0.0
 10
10.0690820498
 20
10.6195849647
 30
0.0
 10
10.0649737102
 20
10.6232594291
 30
0.0
 10
10.0611852045
 20
10.6269574641
 30
0.0
 10
10.0577185198
 20
10.6306772074
 30
0.0
 10
10.0545751524
 20
10.6344174057
 30
0.0
 10
10.0508876857
 20
10.6393353352
 30
0.0
 10
10.0477564261
 20
10.6443858233
 30
0.0
 10
10.0452703421
 20
10.649544152
 30
0.0
 10
10.0437682613
 20
10.6533591211
 30
0.0
 10
10.0425985362
 20
10.6571833726
 30
0.0
 10
10.041762126
 20
10.661015049
 30
0.0
 10
10.0412599549
 20
10.6648514186
 30
0.0
 10
10.0411481612
 20
10.667414414
 30
0.0
 10
10.0411481614
 20
10.6686907489
 30
0.0
  0
SPLINE
  5
36E
100
AcDbEntity
  8
0
100
AcDbSpline
 62
7
  6
CONTINUOUS
 70
0
 71
3
 72
19
 73
15
 74
0
 42
0.0000001
 43
0.0000001
 44
0.0000000001
 40
0.0
 40
0.0
 40
0.0
 40
0.0
 40
0.1504611406
 40
0.2916985742
 40
0.4244193292
 40
0.4878835935
 40
0.5495802133
 40
0.6682271463
 40
0.7255606136
 40
0.7817999183
 40
0.8371467056
 40
0.8918136429
 40
0.9460222308
 40
1.0
 40
1.0
 40
1.0
 40
1.0
 10
12.7507406639
 20
9.5922926111
 30
0.0
 10
12.7524227799
 20
9.5939174105
 30
0.0
 10
12.7557846893
 20
9.5969659937
 30
0.0
 10
12.7609902865
 20
9.6010285754
 30
0.0
 10
12.765387224
 20
9.6039018676
 30
0.0
 10
12.7688935083
 20
9.6058475787
 30
0.0
 10
12.7722963474
 20
9.6075180249
 30
0.0
 10
12.7757390329
 20
9.608883457
 30
0.0
 10
12.779201083
 20
9.609910963
 30
0.0
 10
12.7817608282
 20
9.6105032312
 30
0.0
 10
12.7843120551
 20
9.6109253657
 30
0.0
 10
12.7868540851
 20
9.6111771824
 30
0.0
 10
12.7893858931
 20
9.611258577
 30
0.0
 10
12.7910679549
 20
9.6111990961
 30
0.0
 10
12.7919049485
 20
9.6111410532
 30
0.0
  0
SPLINE
  5
36F
100
AcDbEntity
  8
0
100
AcDbSpline
 62
7
  6
CONTINUOUS
 70
0
 71
3
 72
23
 73
19
 74
0
 42
0.0000001
 43
0.0000001
 44
0.0000000001
 40
0.0
 40
0.0
 40
0.0
 40
0.0
 40
0.0637774716
 40
0.1273446947
 40
0.1907020108
 40
0.2538561385
 40
0.3168131788
 40
0.379582097
 40
0.4421733871
 40
0.5045993393
 40
0.5668738666
 40
0.62901238
 40
0.6910316508
 40
0.7529496465
 40
0.8147853569
 40
0.8765586065
 40
0.938289857
 40
1.0
 40
1.0
 40
1.0
 40
1.0
 10
10.9290414265
 20
7.6138263193
 30
0.0
 10
10.9290414265
 20
7.6070376346
 30
0.0
 10
10.9287165085
 20
7.5934803439
 30
0.0
 10
10.9272499074
 20
7.5732268484
 30
0.0
 10
10.924808064
 20
7.5531339443
 30
0.0
 10
10.9213967302
 20
7.5332486954
 30
0.0
 10
10.9170236015
 20
7.5136166498
 30
0.0
 10
10.9116987695
 20
7.4942831596
 30
0.0
 10
10.9054344327
 20
7.4752927768
 30
0.0
 10
10.8982450031
 20
7.4566892989
 30
0.0
 10
10.8901470235
 20
7.4385156269
 30
0.0
 10
10.8811591329
 20
7.4208136774
 30
0.0
 10
10.8713020291
 20
7.4036242873
 30
0.0
 10
10.860598406
 20
7.386987104
 30
0.0
 10
10.8490729572
 20
7.3709405509
 30
0.0
 10
10.836752118
 20
7.3555215229
 30
0.0
 10
10.8236647935
 20
7.3407660673
 30
0.0
 10
10.8144472971
 20
7.3313924473
 30
0.0
 10
10.8097227809
 20
7.3268289108
 30
0.0
  0
SPLINE
  5
370
100
AcDbEntity
  8
0
100
AcDbSpline
 62
7
  6
CONTINUOUS
 70
0
 71
3
 72
21
 73
17
 74
0
 42
0.0000001
 43
0.0000001
 44
0.0000000001
 40
0.0
 40
0.0
 40
0.0
 40
0.0
 40
0.1273175725
 40
0.2538000026
 40
0.3167619332
 40
0.3795354925
 40
0.4421314982
 40
0.5045621433
 40
0.5668413429
 40
0.6289845306
 40
0.6910084612
 40
0.7529311022
 40
0.8147714553
 40
0.8765493457
 40
0.9382852283
 40
1.0
 40
1.0
 40
1.0
 40
1.0
 10
11.5530295473
 20
10.0462206006
 30
0.0
 10
11.5530295473
 20
10.0397222743
 30
0.0
 10
11.5524092399
 20
10.0267598838
 30
0.0
 10
11.5500665607
 20
10.010735567
 30
0.0
 10
11.5472665211
 20
9.9981658876
 30
0.0
 10
11.5447130337
 20
9.988894491
 30
0.0
 10
11.5417090478
 20
9.9797878217
 30
0.0
 10
11.5382614124
 20
9.9708666426
 30
0.0
 10
11.534378108
 20
9.9621515801
 30
0.0
 10
11.5300680656
 20
9.9536627163
 30
0.0
 10
11.5253411718
 20
9.9454196605
 30
0.0
 10
11.520208343
 20
9.9374414072
 30
0.0
 10
11.5146814352
 20
9.9297463695
 30
0.0
 10
11.5087730949
 20
9.9223522597
 30
0.0
 10
11.5024971779
 20
9.9152763731
 30
0.0
 10
11.4980770277
 20
9.9107812868
 30
0.0
 10
11.4958114247
 20
9.9085928706
 30
0.0
  0
SPLINE
  5
371
100
AcDbEntity
  8
0
100
AcDbSpline
 62
7
  6
CONTINUOUS
 70
0
 71
3
 72
21
 73
17
 74
0
 42
0.0000001
 43
0.0000001
 44
0.0000000001
 40
0.0
 40
0.0
 40
0.0
 40
0.0
 40
0.1273175725
 40
0.2538000026
 40
0.3167619332
 40
0.3795354925
 40
0.4421314982
 40
0.5045621433
 40
0.5668413429
 40
0.6289845306
 40
0.6910084612
 40
0.7529311022
 40
0.8147714553
 40
0.8765493457
 40
0.9382852283
 40
1.0
 40
1.0
 40
1.0
 40
1.0
 10
10.4663629283
 20
6.9823220651
 30
0.0
 10
10.4663629283
 20
6.9758237388
 30
0.0
 10
10.4657426209
 20
6.9628613483
 30
0.0
 10
10.4633999418
 20
6.9468370315
 30
0.0
 10
10.4605999021
 20
6.9342673522
 30
0.0
 10
10.4580464147
 20
6.9249959556
 30
0.0
 10
10.4550424288
 20
6.9158892863
 30
0.0
 10
10.4515947935
 20
6.9069681071
 30
0.0
 10
10.447711489
 20
6.8982530446
 30
0.0
 10
10.4434014467
 20
6.8897641809
 30
0.0
 10
10.4386745529
 20
6.881521125
 30
0.0
 10
10.4335417241
 20
6.8735428718
 30
0.0
 10
10.4280148163
 20
6.865847834
 30
0.0
 10
10.422106476
 20
6.8584537242
 30
0.0
 10
10.4158305589
 20
6.8513778376
 30
0.0
 10
10.4114104087
 20
6.8468827514
 30
0.0
 10
10.4091448058
 20
6.8446943351
 30
0.0
  0
SPLINE
  5
372
100
AcDbEntity
  8
0
100
AcDbSpline
 62
7
  6
CONTINUOUS
 70
0
 71
3
 72
38
 73
34
 74
0
 42
0.0000001
 43
0.0000001
 44
0.0000000001
 40
0.0
 40
0.0
 40
0.0
 40
0.0
 40
0.0322321139
 40
0.0641907844
 40
0.0958778433
 40
0.1273061021
 40
0.1585001554
 40
0.1894939979
 40
0.2203291011
 40
0.2510520415
 40
0.2817125042
 40
0.3123616429
 40
0.3430508372
 40
0.3738307291
 40
0.4047505235
 40
0.4358574304
 40
0.4671958872
 40
0.4988064602
 40
0.5629558043
 40
0.5955498831
 40
0.6284785661
 40
0.6617010429
 40
0.6951335942
 40
0.7286388101
 40
0.762021539
 40
0.7950383151
 40
0.827425407
 40
0.8589402021
 40
0.8894012343
 40
0.9187125835
 40
0.9468653097
 40
0.9739228221
 40
1.0
 40
1.0
 40
1.0
 40
1.0
 10
10.3902746939
 20
7.7684175871
 30
0.0
 10
10.3902746939
 20
7.7635337824
 30
0.0
 10
10.3906523989
 20
7.7538031366
 30
0.0
 10
10.3923606394
 20
7.7393619233
 30
0.0
 10
10.395184424
 20
7.7252201812
 30
0.0
 10
10.3990860598
 20
7.7114580495
 30
0.0
 10
10.4040165201
 20
7.6981425391
 30
0.0
 10
10.4099190513
 20
7.6853281424
 30
0.0
 10
10.4167324715
 20
7.6730564346
 30
0.0
 10
10.4243942898
 20
7.6613570936
 30
0.0
 10
10.4328431975
 20
7.6502493455
 30
0.0
 10
10.4420209416
 20
7.6397437259
 30
0.0
 10
10.4518735721
 20
7.6298439032
 30
0.0
 10
10.4623521173
 20
7.620548427
 30
0.0
 10
10.4734128673
 20
7.611852279
 30
0.0
 10
10.4850170367
 20
7.6037483534
 30
0.0
 10
10.4971309613
 20
7.5962283099
 30
0.0
 10
10.5140007814
 20
7.5869260399
 30
0.0
 10
10.5317137104
 20
7.5788116836
 30
0.0
 10
10.5500935402
 20
7.5718552284
 30
0.0
 10
10.564310173
 20
7.5671758123
 30
0.0
 10
10.5788344953
 20
7.5630709848
 30
0.0
 10
10.5936019748
 20
7.5595535339
 30
0.0
 10
10.6085252652
 20
7.5566412245
 30
0.0
 10
10.6234934777
 20
7.5543545468
 30
0.0
 10
10.6383759126
 20
7.5527137503
 30
0.0
 10
10.6530331401
 20
7.5517351449
 30
0.0
 10
10.6673328493
 20
7.551428193
 30
0.0
 10
10.6811654786
 20
7.5517944125
 30
0.0
 10
10.6944538952
 20
7.5528284896
 30
0.0
 10
10.7071552767
 20
7.5545212409
 30
0.0
 10
10.7192545919
 20
7.5568624116
 30
0.0
 10
10.7270544362
 20
7.558883983
 30
0.0
 10
10.730843832
 20
7.5600031514
 30
0.0
  0
SPLINE
  5
373
100
AcDbEntity
  8
0
100
AcDbSpline
 62
7
  6
CONTINUOUS
 70
0
 71
3
 72
15
 73
11
 74
0
 42
0.0000001
 43
0.0000001
 44
0.0000000001
 40
0.0
 40
0.0
 40
0.0
 40
0.0
 40
0.1264824136
 40
0.2527345216
 40
0.3786654446
 40
0.5041754704
 40
0.6291610865
 40
0.7535204514
 40
0.8771598516
 40
1.0
 40
1.0
 40
1.0
 40
1.0
 10
10.4162629044
 20
7.8679187838
 30
0.0
 10
10.4142021391
 20
7.8640551679
 30
0.0
 10
10.4102926056
 20
7.8562216337
 30
0.0
 10
10.405101111
 20
7.8441765675
 30
0.0
 10
10.4006250322
 20
7.8318826655
 30
0.0
 10
10.3969020813
 20
7.8193855055
 30
0.0
 10
10.3939661004
 20
7.8067358167
 30
0.0
 10
10.3918458062
 20
7.7939892111
 30
0.0
 10
10.3905631285
 20
7.7812061602
 30
0.0
 10
10.3902746939
 20
7.7726703359
 30
0.0
 10
10.3902746939
 20
7.7684175871
 30
0.0
  0
SPLINE
  5
374
100
AcDbEntity
  8
0
100
AcDbSpline
 62
7
  6
CONTINUOUS
 70
0
 71
3
 72
21
 73
17
 74
0
 42
0.0000001
 43
0.0000001
 44
0.0000000001
 40
0.0
 40
0.0
 40
0.0
 40
0.0
 40
0.12731758
 40
0.2538000122
 40
0.3167619425
 40
0.3795355005
 40
0.4421315041
 40
0.5045621466
 40
0.5668413435
 40
0.6289845285
 40
0.6910084568
 40
0.7529310961
 40
0.8147714484
 40
0.8765493394
 40
0.9382852242
 40
1.0
 40
1.0
 40
1.0
 40
1.0
 10
10.7470733881
 20
7.643058681
 30
0.0
 10
10.7470733881
 20
7.6358211616
 30
0.0
 10
10.7463825155
 20
7.6213842826
 30
0.0
 10
10.7437733366
 20
7.6035371815
 30
0.0
 10
10.7406547686
 20
7.58953769
 30
0.0
 10
10.7378108005
 20
7.5792116658
 30
0.0
 10
10.7344650862
 20
7.569069109
 30
0.0
 10
10.7306252538
 20
7.5591331445
 30
0.0
 10
10.7263001917
 20
7.5494267453
 30
0.0
 10
10.7214998472
 20
7.5399722782
 30
0.0
 10
10.7162352315
 20
7.5307915832
 30
0.0
 10
10.7105185032
 20
7.5219058158
 30
0.0
 10
10.7043628671
 20
7.5133354838
 30
0.0
 10
10.6977824085
 20
7.5051003144
 30
0.0
 10
10.6907925595
 20
7.4972195706
 30
0.0
 10
10.6858695855
 20
7.492213188
 30
0.0
 10
10.6833462542
 20
7.48977585
 30
0.0
  0
SPLINE
  5
375
100
AcDbEntity
  8
0
100
AcDbSpline
 62
7
  6
CONTINUOUS
 70
0
 71
3
 72
41
 73
37
 74
0
 42
0.0000001
 43
0.0000001
 44
0.0000000001
 40
0.0
 40
0.0
 40
0.0
 40
0.0
 40
0.0310750003
 40
0.046674464
 40
0.062312494
 40
0.0936974057
 40
0.1252262387
 40
0.1568876805
 40
0.1886675201
 40
0.2205491599
 40
0.2525139229
 40
0.268523588
 40
0.2845462912
 40
0.3166149974
 40
0.3487024468
 40
0.3807858411
 40
0.4128424624
 40
0.4448501254
 40
0.4767876212
 40
0.5086351486
 40
0.5403747235
 40
0.5719905626
 40
0.6034694315
 40
0.6348009518
 40
0.6659778585
 40
0.6969962
 40
0.7278554736
 40
0.7585586902
 40
0.7891123605
 40
0.8195263996
 40
0.849813947
 40
0.8799911023
 40
0.9100765789
 40
0.9400912834
 40
0.9700578297
 40
1.0
 40
1.0
 40
1.0
 40
1.0
 10
10.7470733881
 20
7.643058681
 30
0.0
 10
10.7470733881
 20
7.6486840467
 30
0.0
 10
10.7467589431
 20
7.6571375586
 30
0.0
 10
10.7457204497
 20
7.6683715731
 30
0.0
 10
10.7442653077
 20
7.6796163425
 30
0.0
 10
10.7416713515
 20
7.6936113088
 30
0.0
 10
10.7373446293
 20
7.7101908866
 30
0.0
 10
10.7318238527
 20
7.7264877119
 30
0.0
 10
10.725139434
 20
7.7424119113
 30
0.0
 10
10.7173284718
 20
7.7578758131
 30
0.0
 10
10.7099190503
 20
7.7703033589
 30
0.0
 10
10.7034744989
 20
7.7799329472
 30
0.0
 10
10.6966885103
 20
7.7893482661
 30
0.0
 10
10.6875931495
 20
7.8006756382
 30
0.0
 10
10.6757626657
 20
7.8134831529
 30
0.0
 10
10.663076432
 20
7.8254410154
 30
0.0
 10
10.6496043743
 20
7.8364831487
 30
0.0
 10
10.6354203369
 20
7.8465490287
 30
0.0
 10
10.6206021675
 20
7.855583321
 30
0.0
 10
10.6052311648
 20
7.8635363677
 30
0.0
 10
10.5893916732
 20
7.8703644091
 30
0.0
 10
10.5731706165
 20
7.8760298367
 30
0.0
 10
10.5566570307
 20
7.8805013972
 30
0.0
 10
10.539941581
 20
7.8837543674
 30
0.0
 10
10.5231160718
 20
7.8857706935
 30
0.0
 10
10.5062729491
 20
7.8865390964
 30
0.0
 10
10.4895047985
 20
7.8860551413
 30
0.0
 10
10.4729038413
 20
7.8843212715
 30
0.0
 10
10.4565614297
 20
7.8813468092
 30
0.0
 10
10.4405675421
 20
7.877147913
 30
0.0
 10
10.4250102932
 20
7.8717475081
 30
0.0
 10
10.4099754126
 20
7.865175143
 30
0.0
 10
10.3955458749
 20
7.857466947
 30
0.0
 10
10.3818010148
 20
7.8486650295
 30
0.0
 10
10.3688176236
 20
7.8388187757
 30
0.0
 10
10.3607139386
 20
7.8315912111
 30
0.0
 10
10.3568153568
 20
7.8278254902
 30
0.0
  0
SPLINE
  5
376
100
AcDbEntity
  8
0
100
AcDbSpline
 62
7
  6
CONTINUOUS
 70
0
 71
3
 72
18
 73
14
 74
0
 42
0.0000001
 43
0.0000001
 44
0.0000000001
 40
0.0
 40
0.0
 40
0.0
 40
0.0
 40
0.0548620589
 40
0.1099280789
 40
0.165399508
 40
0.2214731255
 40
0.2783387361
 40
0.3361775086
 40
0.4554063416
 40
0.5804417492
 40
0.7123343341
 40
0.8519577333
 40
1.0
 40
1.0
 40
1.0
 40
1.0
 10
11.3551481614
 20
10.668690749
 30
0.0
 10
11.3551481613
 20
10.6677628817
 30
0.0
 10
11.3550892591
 20
10.6659031647
 30
0.0
 10
11.3548244565
 20
10.6631166149
 30
0.0
 10
11.3543832695
 20
10.6603316708
 30
0.0
 10
11.3537658437
 20
10.6575493497
 30
0.0
 10
11.3529724184
 20
10.6547703539
 30
0.0
 10
11.3516674113
 20
10.6510333496
 30
0.0
 10
11.3495768121
 20
10.6463593577
 30
0.0
 10
11.3463947897
 20
10.6408393554
 30
0.0
 10
11.3425192589
 20
10.6353550827
 30
0.0
 10
11.3379561161
 20
10.6299120438
 30
0.0
 10
11.3345623359
 20
10.6264196728
 30
0.0
 10
11.3327614669
 20
10.6246801667
 30
0.0
  0
SPLINE
  5
377
100
AcDbEntity
  8
0
100
AcDbSpline
 62
7
  6
CONTINUOUS
 70
0
 71
3
 72
44
 73
40
 74
0
 42
0.0000001
 43
0.0000001
 44
0.0000000001
 40
0.0
 40
0.0
 40
0.0
 40
0.0
 40
0.0149722236
 40
0.0299475067
 40
0.0449288886
 40
0.0599193736
 40
0.0749219097
 40
0.08993937
 40
0.1049745397
 40
0.1200300961
 40
0.1351085917
 40
0.1502124449
 40
0.1804994096
 40
0.2109128633
 40
0.2414659442
 40
0.2721685685
 40
0.3030272475
 40
0.3340449904
 40
0.3652212956
 40
0.396552213
 40
0.4280304762
 40
0.4596457066
 40
0.4913846713
 40
0.5232315866
 40
0.555168468
 40
0.587175515
 40
0.6192315195
 40
0.6513142962
 40
0.6834011282
 40
0.7154692177
 40
0.7474961397
 40
0.7794602892
 40
0.8113413161
 40
0.8431205468
 40
0.8747813742
 40
0.9063096205
 40
0.9376938957
 40
0.9689255646
 40
1.0
 40
1.0
 40
1.0
 40
1.0
 10
10.1983452946
 20
7.9597724528
 30
0.0
 10
10.2019953688
 20
7.963298157
 30
0.0
 10
10.2094372757
 20
7.9702059648
 30
0.0
 10
10.2210043327
 20
7.9801169741
 30
0.0
 10
10.2329608605
 20
7.9895648501
 30
0.0
 10
10.2452901616
 20
7.9985363958
 30
0.0
 10
10.2579753703
 20
8.007019269
 30
0.0
 10
10.2709989724
 20
8.0150018291
 30
0.0
 10
10.2843430667
 20
8.0224731148
 30
0.0
 10
10.2979892398
 20
8.029422771
 30
0.0
 10
10.3119189662
 20
8.0358413856
 30
0.0
 10
10.3308589606
 20
8.0436858925
 30
0.0
 10
10.3551584323
 20
8.05212123
 30
0.0
 10
10.3851037309
 20
8.059982679
 30
0.0
 10
10.4157024849
 20
8.0655520018
 30
0.0
 10
10.4467850844
 20
8.0687983935
 30
0.0
 10
10.4781807937
 20
8.0697045354
 30
0.0
 10
10.5097168598
 20
8.0682658518
 30
0.0
 10
10.5412199564
 20
8.0644906378
 30
0.0
 10
10.5725169799
 20
8.0583999725
 30
0.0
 10
10.6034360485
 20
8.0500277017
 30
0.0
 10
10.6338074094
 20
8.0394201176
 30
0.0
 10
10.6634643419
 20
8.0266356964
 30
0.0
 10
10.6922441
 20
8.0117448788
 30
0.0
 10
10.7199887784
 20
7.994829615
 30
0.0
 10
10.7465461325
 20
7.9759828703
 30
0.0
 10
10.7717704386
 20
7.9553081872
 30
0.0
 10
10.7955233101
 20
7.9329191356
 30
0.0
 10
10.8176743839
 20
7.9089386164
 30
0.0
 10
10.8381020368
 20
7.8834982225
 30
0.0
 10
10.8566941288
 20
7.8567375872
 30
0.0
 10
10.8733485308
 20
7.8288035501
 30
0.0
 10
10.8879736597
 20
7.7998493601
 30
0.0
 10
10.900489075
 20
7.7700339192
 30
0.0
 10
10.9108258762
 20
7.7395208126
 30
0.0
 10
10.9189270326
 20
7.7084776673
 30
0.0
 10
10.9247476971
 20
7.6770743566
 30
0.0
 10
10.9282557113
 20
7.6454855611
 30
0.0
 10
10.9290414265
 20
7.6243589337
 30
0.0
 10
10.9290414265
 20
7.6138263193
 30
0.0
  0
SPLINE
  5
378
100
AcDbEntity
  8
0
100
AcDbSpline
 62
7
  6
CONTINUOUS
 70
0
 71
3
 72
41
 73
37
 74
0
 42
0.0000001
 43
0.0000001
 44
0.0000000001
 40
0.0
 40
0.0
 40
0.0
 40
0.0
 40
0.0299421722
 40
0.0599087187
 40
0.0899234222
 40
0.1200088965
 40
0.1501860486
 40
0.1804735921
 40
0.2108876267
 40
0.2414412921
 40
0.2721445039
 40
0.3030037728
 40
0.3340221097
 40
0.3651990124
 40
0.3965305293
 40
0.4280093954
 40
0.4596252325
 40
0.4913648061
 40
0.523212333
 40
0.5551498293
 40
0.5871574933
 40
0.6192141165
 40
0.6512975132
 40
0.6833849656
 40
0.7154536753
 40
0.7314763803
 40
0.7474860474
 40
0.7794508144
 40
0.8113324582
 40
0.8431123019
 40
0.8747737477
 40
0.9063025846
 40
0.9376874998
 40
0.9533255315
 40
0.9689249968
 40
1.0
 40
1.0
 40
1.0
 40
1.0
 10
11.202626947
 20
10.2121169238
 30
0.0
 10
11.2061273649
 20
10.2154980862
 30
0.0
 10
11.2134034202
 20
10.2219875683
 30
0.0
 10
11.2250608267
 20
10.2308283247
 30
0.0
 10
11.2374019421
 20
10.2387313994
 30
0.0
 10
11.2503578173
 20
10.2456524502
 30
0.0
 10
11.26385722
 20
10.2515536676
 30
0.0
 10
11.2778256489
 20
10.2564026116
 30
0.0
 10
11.2921861295
 20
10.2601727509
 30
0.0
 10
11.3068595458
 20
10.2628435011
 30
0.0
 10
11.3217651081
 20
10.2644003536
 30
0.0
 10
11.3368207933
 20
10.2648349377
 30
0.0
 10
11.351943798
 20
10.2641450594
 30
0.0
 10
11.3670509917
 20
10.2623347004
 30
0.0
 10
11.3820593691
 20
10.2594139876
 30
0.0
 10
11.396886501
 20
10.2553991309
 30
0.0
 10
11.411450981
 20
10.2503123285
 30
0.0
 10
11.4256728657
 20
10.2441816418
 30
0.0
 10
11.4394741079
 20
10.2370408385
 30
0.0
 10
11.4527789767
 20
10.2289292092
 30
0.0
 10
11.4655144756
 20
10.2198913405
 30
0.0
 10
11.4776107069
 20
10.209976916
 30
0.0
 10
11.4890013671
 20
10.1992402785
 30
0.0
 10
11.4996236714
 20
10.1877407573
 30
0.0
 10
11.5077901757
 20
10.1775702129
 30
0.0
 10
11.513883151
 20
10.1691164483
 30
0.0
 10
11.5196695583
 20
10.1604702957
 30
0.0
 10
11.5263222995
 20
10.1493119296
 30
0.0
 10
11.5333355749
 20
10.1354272967
 30
0.0
 10
11.5393373541
 20
10.1211293727
 30
0.0
 10
11.5442943272
 20
10.106496876
 30
0.0
 10
11.5481791876
 20
10.0916105018
 30
0.0
 10
11.5505082389
 20
10.0790447827
 30
0.0
 10
11.5518147761
 20
10.0689483941
 30
0.0
 10
11.5527472146
 20
10.0588616621
 30
0.0
 10
11.5530295473
 20
10.0512714715
 30
0.0
 10
11.5530295473
 20
10.0462206006
 30
0.0
  0
SPLINE
  5
379
100
AcDbEntity
  8
0
100
AcDbSpline
 62
7
  6
CONTINUOUS
 70
0
 71
3
 72
41
 73
37
 74
0
 42
0.0000001
 43
0.0000001
 44
0.0000000001
 40
0.0
 40
0.0
 40
0.0
 40
0.0
 40
0.0299421722
 40
0.0599087187
 40
0.0899234222
 40
0.1200088965
 40
0.1501860486
 40
0.1804735921
 40
0.2108876267
 40
0.2414412921
 40
0.2721445039
 40
0.3030037728
 40
0.3340221097
 40
0.3651990124
 40
0.3965305293
 40
0.4280093954
 40
0.4596252325
 40
0.4913648061
 40
0.523212333
 40
0.5551498293
 40
0.5871574933
 40
0.6192141165
 40
0.6512975132
 40
0.6833849656
 40
0.7154536753
 40
0.7314763803
 40
0.7474860474
 40
0.7794508144
 40
0.8113324582
 40
0.8431123019
 40
0.8747737477
 40
0.9063025846
 40
0.9376874998
 40
0.9533255315
 40
0.9689249968
 40
1.0
 40
1.0
 40
1.0
 40
1.0
 10
10.115960328
 20
7.1482183883
 30
0.0
 10
10.1194607459
 20
7.1515995507
 30
0.0
 10
10.1267368012
 20
7.1580890328
 30
0.0
 10
10.1383942077
 20
7.1669297892
 30
0.0
 10
10.1507353231
 20
7.174832864
 30
0.0
 10
10.1636911984
 20
7.1817539148
 30
0.0
 10
10.177190601
 20
7.1876551322
 30
0.0
 10
10.1911590299
 20
7.1925040761
 30
0.0
 10
10.2055195106
 20
7.1962742154
 30
0.0
 10
10.2201929268
 20
7.1989449656
 30
0.0
 10
10.2350984891
 20
7.2005018181
 30
0.0
 10
10.2501541743
 20
7.2009364022
 30
0.0
 10
10.2652771791
 20
7.200246524
 30
0.0
 10
10.2803843728
 20
7.1984361649
 30
0.0
 10
10.2953927501
 20
7.1955154521
 30
0.0
 10
10.310219882
 20
7.1915005954
 30
0.0
 10
10.324784362
 20
7.186413793
 30
0.0
 10
10.3390062467
 20
7.1802831063
 30
0.0
 10
10.352807489
 20
7.173142303
 30
0.0
 10
10.3661123578
 20
7.1650306737
 30
0.0
 10
10.3788478567
 20
7.1559928051
 30
0.0
 10
10.390944088
 20
7.1460783805
 30
0.0
 10
10.4023347481
 20
7.135341743
 30
0.0
 10
10.4129570524
 20
7.1238422218
 30
0.0
 10
10.4211235568
 20
7.1136716774
 30
0.0
 10
10.4272165321
 20
7.1052179128
 30
0.0
 10
10.4330029394
 20
7.0965717603
 30
0.0
 10
10.4396556805
 20
7.0854133941
 30
0.0
 10
10.4466689559
 20
7.0715287613
 30
0.0
 10
10.4526707351
 20
7.0572308372
 30
0.0
 10
10.4576277083
 20
7.0425983405
 30
0.0
 10
10.4615125686
 20
7.0277119664
 30
0.0
 10
10.4638416199
 20
7.0151462472
 30
0.0
 10
10.4651481571
 20
7.0050498587
 30
0.0
 10
10.4660805956
 20
6.9949631266
 30
0.0
 10
10.4663629283
 20
6.987372936
 30
0.0
 10
10.4663629283
 20
6.9823220651
 30
0.0
  0
SPLINE
  5
37A
100
AcDbEntity
  8
0
100
AcDbSpline
 62
7
  6
CONTINUOUS
 70
0
 71
3
 72
88
 73
84
 74
0
 42
0.0000001
 43
0.0000001
 44
0.0000000001
 40
0.0
 40
0.0
 40
0.0
 40
0.0
 40
0.0027164206
 40
0.0054532135
 40
0.00823027
 40
0.0110665466
 40
0.0139797362
 40
0.0169860264
 40
0.0200999638
 40
0.0233344621
 40
0.0267007864
 40
0.030208716
 40
0.033866602
 40
0.0376815365
 40
0.0416594862
 40
0.0458053757
 40
0.0501232805
 40
0.0546164357
 40
0.0592874172
 40
0.0641381604
 40
0.0691700473
 40
0.0743839976
 40
0.0797804461
 40
0.085359486
 40
0.0911208072
 40
0.097063806
 40
0.1031875785
 40
0.1094909314
 40
0.1226301057
 40
0.1364676988
 40
0.1509864378
 40
0.1661662591
 40
0.1819846247
 40
0.1984167804
 40
0.2154359739
 40
0.2330136371
 40
0.2511195505
 40
0.2697219952
 40
0.2887878869
 40
0.3082829001
 40
0.3281715858
 40
0.3484174815
 40
0.3689832185
 40
0.3898306305
 40
0.410920857
 40
0.4322144439
 40
0.4536714439
 40
0.4969133241
 40
0.5403214886
 40
0.5835686279
 40
0.6050302166
 40
0.6263296837
 40
0.6474270673
 40
0.6682828961
 40
0.6888582896
 40
0.7091150586
 40
0.7290158075
 40
0.7485240405
 40
0.7676042737
 40
0.7862221443
 40
0.8043445271
 40
0.8219396585
 40
0.8389772699
 40
0.8554287349
 40
0.8712672375
 40
0.8864679574
 40
0.9010082824
 40
0.9148680665
 40
0.9280299429
 40
0.9343448017
 40
0.9404801679
 40
0.9464348204
 40
0.9522078552
 40
0.9577986253
 40
0.9632068219
 40
0.9684325067
 40
0.9734760906
 40
0.9783384494
 40
0.9830208978
 40
0.9875254123
 40
0.9918545974
 40
0.9960115688
 40
1.0
 40
1.0
 40
1.0
 40
1.0
 10
12.7095763793
 20
8.4239923675
 30
0.0
 10
12.7084658845
 20
8.4240693769
 30
0.0
 10
12.7062422545
 20
8.4243244948
 30
0.0
 10
12.7029351066
 20
8.4250071259
 30
0.0
 10
12.6996529678
 20
8.4259897097
 30
0.0
 10
12.6963981482
 20
8.4272711972
 30
0.0
 10
12.6931723485
 20
8.4288505068
 30
0.0
 10
12.6899772254
 20
8.4307263944
 30
0.0
 10
12.6868142206
 20
8.4328974873
 30
0.0
 10
12.6836847948
 20
8.4353624765
 30
0.0
 10
12.6805902343
 20
8.4381198476
 30
0.0
 10
12.6775319328
 20
8.441168156
 30
0.0
 10
12.6745111883
 20
8.4445057742
 30
0.0
 10
12.6715293456
 20
8.4481310177
 30
0.0
 10
12.6685877849
 20
8.4520420962
 30
0.0
 10
12.6656878083
 20
8.4562370448
 30
0.0
 10
12.6628308463
 20
8.460713836
 30
0.0
 10
12.6600181962
 20
8.4654702329
 30
0.0
 10
12.6572512592
 20
8.4705039142
 30
0.0
 10
12.6545313678
 20
8.4758123865
 30
0.0
 10
12.6518598415
 20
8.4813930203
 30
0.0
 10
12.6492380423
 20
8.4872430614
 30
0.0
 10
12.6466672144
 20
8.4933595875
 30
0.0
 10
12.6441486976
 20
8.4997395699
 30
0.0
 10
12.6416837036
 20
8.5063798172
 30
0.0
 10
12.6392734959
 20
8.5132770181
 30
0.0
 10
12.6369192636
 20
8.520427735
 30
0.0
 10
12.6338134942
 20
8.5304340688
 30
0.0
 10
12.6300907005
 20
8.5435564433
 30
0.0
 10
12.6259242383
 20
8.5600446573
 30
0.0
 10
12.6220075804
 20
8.5774520306
 30
0.0
 10
12.6183486681
 20
8.5957436633
 30
0.0
 10
12.6149549486
 20
8.6148830256
 30
0.0
 10
12.6118333276
 20
8.6348317778
 30
0.0
 10
12.6089901619
 20
8.6555499327
 30
0.0
 10
12.6064312389
 20
8.6769959202
 30
0.0
 10
12.6041617655
 20
8.6991266834
 30
0.0
 10
12.6021863609
 20
8.7218977712
 30
0.0
 10
12.6005090475
 20
8.7452634326
 30
0.0
 10
12.5991332426
 20
8.7691767112
 30
0.0
 10
12.5980617527
 20
8.7935895407
 30
0.0
 10
12.5972967676
 20
8.8184528417
 30
0.0
 10
12.5968398522
 20
8.8437166211
 30
0.0
 10
12.5966919468
 20
8.8693300794
 30
0.0
 10
12.596853375
 20
8.8952416971
 30
0.0
 10
12.5973238051
 20
8.9213994077
 30
0.0
 10
12.5983645675
 20
8.956623519
 30
0.0
 10
12.6004310821
 20
9.000880628
 30
0.0
 10
12.6041045384
 20
9.0539884858
 30
0.0
 10
12.6081513022
 20
9.0981126665
 30
0.0
 10
12.6119704959
 20
9.1331510628
 30
0.0
 10
12.615106431
 20
9.1591316518
 30
0.0
 10
12.6185146533
 20
9.1848275206
 30
0.0
 10
12.6221883212
 20
9.2101870358
 30
0.0
 10
12.6261200192
 20
9.2351591928
 30
0.0
 10
12.6303018198
 20
9.2596937823
 30
0.0
 10
12.6347252871
 20
9.2837414754
 30
0.0
 10
12.6393814968
 20
9.3072539298
 30
0.0
 10
12.6442610484
 20
9.3301838892
 30
0.0
 10
12.649354089
 20
9.3524852794
 30
0.0
 10
12.6546503328
 20
9.3741133014
 30
0.0
 10
12.6601390815
 20
9.3950245231
 30
0.0
 10
12.6658092454
 20
9.4151769707
 30
0.0
 10
12.6716493681
 20
9.4345302172
 30
0.0
 10
12.6776476457
 20
9.4530454794
 30
0.0
 10
12.683791955
 20
9.4706856814
 30
0.0
 10
12.6900698856
 20
9.4874156134
 30
0.0
 10
12.6964687639
 20
9.5032017457
 30
0.0
 10
12.7019643619
 20
9.5157111423
 30
0.0
 10
12.7064194944
 20
9.5252147159
 30
0.0
 10
12.7097368711
 20
9.5319885459
 30
0.0
 10
12.7130748175
 20
9.5385037673
 30
0.0
 10
12.716431642
 20
9.544757144
 30
0.0
 10
12.7198056803
 20
9.5507455467
 30
0.0
 10
12.7231952533
 20
9.5564659906
 30
0.0
 10
12.7265986472
 20
9.5619156433
 30
0.0
 10
12.7300142182
 20
9.5670917678
 30
0.0
 10
12.7334402025
 20
9.5719918159
 30
0.0
 10
12.7368749697
 20
9.5766133468
 30
0.0
 10
12.7403168437
 20
9.5809541211
 30
0.0
 10
12.7437642217
 20
9.5850120266
 30
0.0
 10
12.7472152672
 20
9.5887848603
 30
0.0
 10
12.7495651006
 20
9.5911571041
 30
0.0
 10
12.7507406639
 20
9.5922926111
 30
0.0
  0
SPLINE
  5
37B
100
AcDbEntity
  8
0
100
AcDbSpline
 62
7
  6
CONTINUOUS
 70
0
 71
3
 72
61
 73
57
 74
0
 42
0.0000001
 43
0.0000001
 44
0.0000000001
 40
0.0
 40
0.0
 40
0.0
 40
0.0
 40
0.0075207904
 40
0.0156241007
 40
0.0243309689
 40
0.0336547603
 40
0.0436025954
 40
0.0541765643
 40
0.0653746271
 40
0.0771912105
 40
0.08961776
 40
0.1026431866
 40
0.1162541224
 40
0.1304351787
 40
0.1451692134
 40
0.1604374622
 40
0.1762196584
 40
0.1924942253
 40
0.2092383649
 40
0.2264281143
 40
0.2440384956
 40
0.2620435953
 40
0.2804165963
 40
0.2991298957
 40
0.3374628296
 40
0.3768090534
 40
0.4169262264
 40
0.4575657766
 40
0.4984749676
 40
0.5393989304
 40
0.5800826787
 40
0.6202731264
 40
0.6597211135
 40
0.6981834743
 40
0.7169715328
 40
0.7354257875
 40
0.7535184594
 40
0.7712225432
 40
0.7885119167
 40
0.8053613716
 40
0.8217466988
 40
0.8376448326
 40
0.8530338991
 40
0.8678933099
 40
0.8822039526
 40
0.8959482935
 40
0.9091105101
 40
0.9216767558
 40
0.9336353927
 40
0.9449772332
 40
0.9556959738
 40
0.9657887367
 40
0.9752565375
 40
0.9841051853
 40
0.9923468797
 40
1.0
 40
1.0
 40
1.0
 40
1.0
 10
12.6653692065
 20
8.6215962605
 30
0.0
 10
12.6640621389
 20
8.6232033715
 30
0.0
 10
12.6614867971
 20
8.6266573852
 30
0.0
 10
12.6578626359
 20
8.632299716
 30
0.0
 10
12.6543419308
 20
8.6385827558
 30
0.0
 10
12.6509303024
 20
8.6454962316
 30
0.0
 10
12.647632886
 20
8.6530293762
 30
0.0
 10
12.644454978
 20
8.6611701101
 30
0.0
 10
12.6414017669
 20
8.669905321
 30
0.0
 10
12.6384782769
 20
8.6792207941
 30
0.0
 10
12.6356893509
 20
8.6891012909
 30
0.0
 10
12.6330396614
 20
8.6995305914
 30
0.0
 10
12.6305336412
 20
8.7104915151
 30
0.0
 10
12.6281754737
 20
8.7219659606
 30
0.0
 10
12.6259691268
 20
8.733934957
 30
0.0
 10
12.6239183115
 20
8.7463786893
 30
0.0
 10
12.6220264521
 20
8.7592765314
 30
0.0
 10
12.6202967303
 20
8.7726070958
 30
0.0
 10
12.6187320639
 20
8.7863482674
 30
0.0
 10
12.617335063
 20
8.8004772342
 30
0.0
 10
12.6161080719
 20
8.8149705381
 30
0.0
 10
12.6150531725
 20
8.8298041057
 30
0.0
 10
12.6141721027
 20
8.8449533173
 30
0.0
 10
12.6132236015
 20
8.8657055912
 30
0.0
 10
12.61249161
 20
8.8922485101
 30
0.0
 10
12.6123286013
 20
8.9246964899
 30
0.0
 10
12.6128756669
 20
8.9577756583
 30
0.0
 10
12.6141293003
 20
8.9912662749
 30
0.0
 10
12.6160812922
 20
9.0249460121
 30
0.0
 10
12.6187187382
 20
9.0585912232
 30
0.0
 10
12.622024077
 20
9.0919784975
 30
0.0
 10
12.6259752588
 20
9.1248862044
 30
0.0
 10
12.6305459217
 20
9.1570957559
 30
0.0
 10
12.6348785115
 20
9.1833782961
 30
0.0
 10
12.638639256
 20
9.2038889232
 30
0.0
 10
12.6415725525
 20
9.2188459034
 30
0.0
 10
12.6446356095
 20
9.2334719398
 30
0.0
 10
12.6478233532
 20
9.2477427552
 30
0.0
 10
12.6511304459
 20
9.2616346505
 30
0.0
 10
12.6545513749
 20
9.2751245621
 30
0.0
 10
12.6580804478
 20
9.2881900959
 30
0.0
 10
12.6617117609
 20
9.3008095811
 30
0.0
 10
12.6654392513
 20
9.3129620939
 30
0.0
 10
12.6692567164
 20
9.3246274907
 30
0.0
 10
12.6731577751
 20
9.3357864638
 30
0.0
 10
12.677135911
 20
9.3464205663
 30
0.0
 10
12.6811845105
 20
9.3565122342
 30
0.0
 10
12.68529683
 20
9.3660448451
 30
0.0
 10
12.6894660235
 20
9.3750027494
 30
0.0
 10
12.6936852057
 20
9.3833712827
 30
0.0
 10
12.6979474365
 20
9.3911368248
 30
0.0
 10
12.7022457696
 20
9.3982868423
 30
0.0
 10
12.7065732614
 20
9.4048098295
 30
0.0
 10
12.710923305
 20
9.4106956589
 30
0.0
 10
12.7152888974
 20
9.4159345447
 30
0.0
 10
12.7183148622
 20
9.4191050316
 30
0.0
 10
12.7198310349
 20
9.4205695421
 30
0.0
  0
SPLINE
  5
37C
100
AcDbEntity
  8
0
100
AcDbSpline
 62
7
  6
CONTINUOUS
 70
0
 71
3
 72
9
 73
5
 74
0
 42
0.0000001
 43
0.0000001
 44
0.0000000001
 40
0.0
 40
0.0
 40
0.0
 40
0.0
 40
0.4959985505
 40
1.0
 40
1.0
 40
1.0
 40
1.0
 10
12.6552499756
 20
8.6482883347
 30
0.0
 10
12.6542188125
 20
8.6483598468
 30
0.0
 10
12.6521471956
 20
8.6486425822
 30
0.0
 10
12.6501307187
 20
8.64919311
 30
0.0
 10
12.6491363231
 20
8.6495312585
 30
0.0
  0
SPLINE
  5
37D
100
AcDbEntity
  8
0
100
AcDbSpline
 62
7
  6
CONTINUOUS
 70
0
 71
3
 72
9
 73
5
 74
0
 42
0.0000001
 43
0.0000001
 44
0.0000000001
 40
0.0
 40
0.0
 40
0.0
 40
0.0
 40
0.4959410583
 40
1.0
 40
1.0
 40
1.0
 40
1.0
 10
12.7071380234
 20
9.3964912411
 30
0.0
 10
12.7060992753
 20
9.3965632793
 30
0.0
 10
12.7039927333
 20
9.3965682121
 30
0.0
 10
12.7019043764
 20
9.3962963085
 30
0.0
 10
12.7008653592
 20
9.3960952754
 30
0.0
  0
SPLINE
  5
37E
100
AcDbEntity
  8
0
100
AcDbSpline
 62
7
  6
CONTINUOUS
 70
0
 71
3
 72
64
 73
60
 74
0
 42
0.0000001
 43
0.0000001
 44
0.0000000001
 40
0.0
 40
0.0
 40
0.0
 40
0.0
 40
0.0155849423
 40
0.031117901
 40
0.0465980248
 40
0.0620275802
 40
0.0774080885
 40
0.092741825
 40
0.1080315843
 40
0.1232805473
 40
0.1384923382
 40
0.1536709665
 40
0.1688207867
 40
0.1839464552
 40
0.1990528834
 40
0.2141451895
 40
0.2292286421
 40
0.2443086021
 40
0.2593904681
 40
0.27447962
 40
0.2895813603
 40
0.3047008548
 40
0.3198430804
 40
0.3350127757
 40
0.3502143898
 40
0.3654520353
 40
0.3807294495
 40
0.3960499624
 40
0.4114164624
 40
0.426831368
 40
0.4422966121
 40
0.4578136293
 40
0.4733833427
 40
0.4890061576
 40
0.5046819692
 40
0.520410168
 40
0.5361896463
 40
0.552018813
 40
0.5678956195
 40
0.5838175796
 40
0.5997817917
 40
0.6157849717
 40
0.6318234885
 40
0.6478933955
 40
0.6801016685
 40
0.7123819661
 40
0.7446952952
 40
0.7770015176
 40
0.8092607375
 40
0.8414347007
 40
0.8734881382
 40
0.8894641594
 40
0.9053988579
 40
0.9212891999
 40
0.9371326152
 40
0.9529269152
 40
0.9686701087
 40
0.9843619314
 40
1.0
 40
1.0
 40
1.0
 40
1.0
 10
10.7682865997
 20
7.6335490712
 30
0.0
 10
10.7682865997
 20
7.6293684077
 30
0.0
 10
10.768081975
 20
7.6210195439
 30
0.0
 10
10.7671584528
 20
7.6085488854
 30
0.0
 10
10.7656208234
 20
7.5961806105
 30
0.0
 10
10.7634729621
 20
7.5839451408
 30
0.0
 10
10.7607198759
 20
7.5718716874
 30
0.0
 10
10.7573682318
 20
7.5599894354
 30
0.0
 10
10.7534260941
 20
7.5483270121
 30
0.0
 10
10.7489028962
 20
7.5369125487
 30
0.0
 10
10.7438095219
 20
7.5257735786
 30
0.0
 10
10.7381582586
 20
7.5149369541
 30
0.0
 10
10.7319627099
 20
7.5044288142
 30
0.0
 10
10.7252377681
 20
7.4942745295
 30
0.0
 10
10.7179996546
 20
7.4844985902
 30
0.0
 10
10.7102658353
 20
7.4751245663
 30
0.0
 10
10.7020549485
 20
7.466175077
 30
0.0
 10
10.6933867689
 20
7.4576717386
 30
0.0
 10
10.6842822296
 20
7.4496350399
 30
0.0
 10
10.6747633008
 20
7.4420843512
 30
0.0
 10
10.6648529334
 20
7.4350378925
 30
0.0
 10
10.6545750231
 20
7.428512673
 30
0.0
 10
10.6439543879
 20
7.4225243852
 30
0.0
 10
10.6330166494
 20
7.4170874482
 30
0.0
 10
10.6217881783
 20
7.412214979
 30
0.0
 10
10.610296057
 20
7.4079187121
 30
0.0
 10
10.5985680138
 20
7.4042089481
 30
0.0
 10
10.5866323258
 20
7.401094603
 30
0.0
 10
10.574517761
 20
7.3985831905
 30
0.0
 10
10.5622535277
 20
7.3966807211
 30
0.0
 10
10.5498691888
 20
7.3953917229
 30
0.0
 10
10.5373945844
 20
7.3947192778
 30
0.0
 10
10.5248597702
 20
7.3946650121
 30
0.0
 10
10.5122949455
 20
7.3952289961
 30
0.0
 10
10.4997303728
 20
7.3964098259
 30
0.0
 10
10.4871963113
 20
7.3982046444
 30
0.0
 10
10.4747229496
 20
7.4006091297
 30
0.0
 10
10.4623403159
 20
7.4036174287
 30
0.0
 10
10.4500782165
 20
7.4072222679
 30
0.0
 10
10.4379661818
 20
7.411414966
 30
0.0
 10
10.4260333529
 20
7.4161854337
 30
0.0
 10
10.4143085167
 20
7.4215220792
 30
0.0
 10
10.4028196031
 20
7.4274122476
 30
0.0
 10
10.3878439963
 20
7.4359896071
 30
0.0
 10
10.3698542496
 20
7.448022935
 30
0.0
 10
10.3496597287
 20
7.4644034302
 30
0.0
 10
10.3310290348
 20
7.4825819463
 30
0.0
 10
10.3141423082
 20
7.5023831278
 30
0.0
 10
10.2991612269
 20
7.5236175234
 30
0.0
 10
10.2862304297
 20
7.5460799489
 30
0.0
 10
10.2772547459
 20
7.5656701999
 30
0.0
 10
10.2712176409
 20
7.5817369871
 30
0.0
 10
10.2672745836
 20
7.5939435357
 30
0.0
 10
10.2639218044
 20
7.6062881267
 30
0.0
 10
10.2611672497
 20
7.6187413804
 30
0.0
 10
10.2590176807
 20
7.6312731471
 30
0.0
 10
10.2574781519
 20
7.6438535581
 30
0.0
 10
10.2565525999
 20
7.6564516896
 30
0.0
 10
10.2563458814
 20
7.6648573659
 30
0.0
 10
10.2563458814
 20
7.6690522806
 30
0.0
  0
SPLINE
  5
37F
100
AcDbEntity
  8
0
100
AcDbSpline
 62
7
  6
CONTINUOUS
 70
0
 71
3
 72
64
 73
60
 74
0
 42
0.0000001
 43
0.0000001
 44
0.0000000001
 40
0.0
 40
0.0
 40
0.0
 40
0.0
 40
0.0156380686
 40
0.0313298913
 40
0.0470730848
 40
0.0628673848
 40
0.0787108001
 40
0.0946011421
 40
0.1105358406
 40
0.1265118618
 40
0.1585652993
 40
0.1907392625
 40
0.2229984824
 40
0.2553047048
 40
0.2876180339
 40
0.3198983315
 40
0.3521066045
 40
0.3681765115
 40
0.3842150283
 40
0.4002182083
 40
0.4161824204
 40
0.4321043805
 40
0.447981187
 40
0.4638103537
 40
0.479589832
 40
0.4953180308
 40
0.5109938424
 40
0.5266166573
 40
0.5421863707
 40
0.5577033879
 40
0.573168632
 40
0.5885835376
 40
0.6039500376
 40
0.6192705505
 40
0.6345479647
 40
0.6497856102
 40
0.6649872243
 40
0.6801569196
 40
0.6952991452
 40
0.7104186397
 40
0.72552038
 40
0.7406095319
 40
0.7556913979
 40
0.7707713579
 40
0.7858548105
 40
0.8009471166
 40
0.8160535448
 40
0.8311792133
 40
0.8463290335
 40
0.8615076618
 40
0.8767194527
 40
0.8919684157
 40
0.907258175
 40
0.9225919115
 40
0.9379724198
 40
0.9534019752
 40
0.968882099
 40
0.9844150577
 40
1.0
 40
1.0
 40
1.0
 40
1.0
 10
10.7682865997
 20
7.6335490712
 30
0.0
 10
10.7682865997
 20
7.6377439858
 30
0.0
 10
10.7680798812
 20
7.6461496621
 30
0.0
 10
10.7671543292
 20
7.6587477937
 30
0.0
 10
10.7656148005
 20
7.6713282046
 30
0.0
 10
10.7634652315
 20
7.6838599713
 30
0.0
 10
10.7607106768
 20
7.696313225
 30
0.0
 10
10.7573578975
 20
7.708657816
 30
0.0
 10
10.7534148403
 20
7.7208643646
 30
0.0
 10
10.7473777352
 20
7.7369311518
 30
0.0
 10
10.7384020514
 20
7.7565214028
 30
0.0
 10
10.7254712543
 20
7.7789838283
 30
0.0
 10
10.710490173
 20
7.8002182239
 30
0.0
 10
10.6936034464
 20
7.8200194054
 30
0.0
 10
10.6749727525
 20
7.8381979215
 30
0.0
 10
10.6547782315
 20
7.8545784168
 30
0.0
 10
10.6367884848
 20
7.8666117446
 30
0.0
 10
10.6218128781
 20
7.8751891041
 30
0.0
 10
10.6103239645
 20
7.8810792725
 30
0.0
 10
10.5985991282
 20
7.886415918
 30
0.0
 10
10.5866662993
 20
7.8911863857
 30
0.0
 10
10.5745542646
 20
7.8953790838
 30
0.0
 10
10.5622921652
 20
7.8989839231
 30
0.0
 10
10.5499095315
 20
7.901992222
 30
0.0
 10
10.5374361699
 20
7.9043967074
 30
0.0
 10
10.5249021084
 20
7.9061915258
 30
0.0
 10
10.5123375356
 20
7.9073723556
 30
0.0
 10
10.4997727109
 20
7.9079363396
 30
0.0
 10
10.4872378967
 20
7.907882074
 30
0.0
 10
10.4747632923
 20
7.9072096288
 30
0.0
 10
10.4623789534
 20
7.9059206306
 30
0.0
 10
10.4501147202
 20
7.9040181612
 30
0.0
 10
10.4380001553
 20
7.9015067487
 30
0.0
 10
10.4260644674
 20
7.8983924036
 30
0.0
 10
10.4143364242
 20
7.8946826396
 30
0.0
 10
10.4028443029
 20
7.8903863727
 30
0.0
 10
10.3916158318
 20
7.8855139036
 30
0.0
 10
10.3806780932
 20
7.8800769665
 30
0.0
 10
10.3700574581
 20
7.8740886787
 30
0.0
 10
10.3597795478
 20
7.8675634592
 30
0.0
 10
10.3498691804
 20
7.8605170005
 30
0.0
 10
10.3403502515
 20
7.8529663118
 30
0.0
 10
10.3312457122
 20
7.8449296131
 30
0.0
 10
10.3225775327
 20
7.8364262748
 30
0.0
 10
10.3143666458
 20
7.8274767854
 30
0.0
 10
10.3066328265
 20
7.8181027615
 30
0.0
 10
10.2993947131
 20
7.8083268222
 30
0.0
 10
10.2926697712
 20
7.7981725375
 30
0.0
 10
10.2864742225
 20
7.7876643976
 30
0.0
 10
10.2808229592
 20
7.7768277731
 30
0.0
 10
10.275729585
 20
7.765688803
 30
0.0
 10
10.2712063871
 20
7.7542743396
 30
0.0
 10
10.2672642494
 20
7.7426119163
 30
0.0
 10
10.2639126053
 20
7.7307296643
 30
0.0
 10
10.2611595191
 20
7.7186562109
 30
0.0
 10
10.2590116578
 20
7.7064207412
 30
0.0
 10
10.2574740283
 20
7.6940524663
 30
0.0
 10
10.2565505062
 20
7.6815818078
 30
0.0
 10
10.2563458814
 20
7.6732329441
 30
0.0
 10
10.2563458814
 20
7.6690522806
 30
0.0
  0
SPLINE
  5
380
100
AcDbEntity
  8
0
100
AcDbSpline
 62
7
  6
CONTINUOUS
 70
0
 71
3
 72
21
 73
17
 74
0
 42
0.0000001
 43
0.0000001
 44
0.0000000001
 40
0.0
 40
0.0
 40
0.0
 40
0.0
 40
0.1273175725
 40
0.2538000026
 40
0.3167619332
 40
0.3795354925
 40
0.4421314982
 40
0.5045621433
 40
0.5668413429
 40
0.6289845306
 40
0.6910084612
 40
0.7529311022
 40
0.8147714553
 40
0.8765493457
 40
0.9382852283
 40
1.0
 40
1.0
 40
1.0
 40
1.0
 10
10.0587422055
 20
7.0105906583
 30
0.0
 10
10.0587422055
 20
7.0170889846
 30
0.0
 10
10.0593625129
 20
7.030051375
 30
0.0
 10
10.061705192
 20
7.0460756919
 30
0.0
 10
10.0645052317
 20
7.0586453712
 30
0.0
 10
10.0670587191
 20
7.0679167678
 30
0.0
 10
10.070062705
 20
7.0770234371
 30
0.0
 10
10.0735103403
 20
7.0859446162
 30
0.0
 10
10.0773936448
 20
7.0946596788
 30
0.0
 10
10.0817036871
 20
7.1031485425
 30
0.0
 10
10.0864305809
 20
7.1113915984
 30
0.0
 10
10.0915634097
 20
7.1193698516
 30
0.0
 10
10.0970903175
 20
7.1270648894
 30
0.0
 10
10.1029986578
 20
7.1344589992
 30
0.0
 10
10.1092745749
 20
7.1415348858
 30
0.0
 10
10.1136947251
 20
7.146029972
 30
0.0
 10
10.115960328
 20
7.1482183883
 30
0.0
  0
SPLINE
  5
381
100
AcDbEntity
  8
0
100
AcDbSpline
 62
7
  6
CONTINUOUS
 70
0
 71
3
 72
44
 73
40
 74
0
 42
0.0000001
 43
0.0000001
 44
0.0000000001
 40
0.0
 40
0.0
 40
0.0
 40
0.0
 40
0.0149722236
 40
0.0299475067
 40
0.0449288886
 40
0.0599193736
 40
0.0749219097
 40
0.08993937
 40
0.1049745397
 40
0.1200300961
 40
0.1351085917
 40
0.1502124449
 40
0.1804994096
 40
0.2109128633
 40
0.2414659442
 40
0.2721685685
 40
0.3030272475
 40
0.3340449904
 40
0.3652212956
 40
0.396552213
 40
0.4280304762
 40
0.4596457066
 40
0.4913846713
 40
0.5232315866
 40
0.555168468
 40
0.587175515
 40
0.6192315195
 40
0.6513142962
 40
0.6834011282
 40
0.7154692177
 40
0.7474961397
 40
0.7794602892
 40
0.8113413161
 40
0.8431205468
 40
0.8747813742
 40
0.9063096205
 40
0.9376938957
 40
0.9689255646
 40
1.0
 40
1.0
 40
1.0
 40
1.0
 10
10.8097227809
 20
7.3268289108
 30
0.0
 10
10.8060727067
 20
7.3233032066
 30
0.0
 10
10.7986307998
 20
7.3163953988
 30
0.0
 10
10.7870637428
 20
7.3064843895
 30
0.0
 10
10.775107215
 20
7.2970365134
 30
0.0
 10
10.7627779139
 20
7.2880649678
 30
0.0
 10
10.7500927052
 20
7.2795820945
 30
0.0
 10
10.7370691031
 20
7.2715995345
 30
0.0
 10
10.7237250089
 20
7.2641282488
 30
0.0
 10
10.7100788357
 20
7.2571785926
 30
0.0
 10
10.6961491094
 20
7.250759978
 30
0.0
 10
10.677209115
 20
7.2429154711
 30
0.0
 10
10.6529096433
 20
7.2344801336
 30
0.0
 10
10.6229643446
 20
7.2266186846
 30
0.0
 10
10.5923655906
 20
7.2210493618
 30
0.0
 10
10.5612829911
 20
7.21780297
 30
0.0
 10
10.5298872818
 20
7.2168968281
 30
0.0
 10
10.4983512158
 20
7.2183355118
 30
0.0
 10
10.4668481191
 20
7.2221107258
 30
0.0
 10
10.4355510956
 20
7.2282013911
 30
0.0
 10
10.4046320271
 20
7.2365736619
 30
0.0
 10
10.3742606661
 20
7.2471812459
 30
0.0
 10
10.3446037336
 20
7.2599656671
 30
0.0
 10
10.3158239755
 20
7.2748564847
 30
0.0
 10
10.2880792972
 20
7.2917717486
 30
0.0
 10
10.261521943
 20
7.3106184933
 30
0.0
 10
10.2362976369
 20
7.3312931764
 30
0.0
 10
10.2125447655
 20
7.353682228
 30
0.0
 10
10.1903936916
 20
7.3776627472
 30
0.0
 10
10.1699660387
 20
7.4031031411
 30
0.0
 10
10.1513739468
 20
7.4298637764
 30
0.0
 10
10.1347195448
 20
7.4577978135
 30
0.0
 10
10.1200944158
 20
7.4867520035
 30
0.0
 10
10.1075790005
 20
7.5165674444
 30
0.0
 10
10.0972421993
 20
7.547080551
 30
0.0
 10
10.0891410429
 20
7.5781236962
 30
0.0
 10
10.0833203784
 20
7.609527007
 30
0.0
 10
10.0798123642
 20
7.6411158024
 30
0.0
 10
10.079026649
 20
7.6622424299
 30
0.0
 10
10.079026649
 20
7.6727750443
 30
0.0
  0
SPLINE
  5
382
100
AcDbEntity
  8
0
100
AcDbSpline
 62
7
  6
CONTINUOUS
 70
0
 71
3
 72
39
 73
35
 74
0
 42
0.0000001
 43
0.0000001
 44
0.0000000001
 40
0.0
 40
0.0
 40
0.0
 40
0.0
 40
0.0299337048
 40
0.0599001886
 40
0.089922317
 40
0.1200216387
 40
0.1502178894
 40
0.1805285485
 40
0.2109684575
 40
0.2415495158
 40
0.2722804546
 40
0.3031666873
 40
0.3342102381
 40
0.3654097519
 40
0.3967605748
 40
0.4282548964
 40
0.4598819527
 40
0.4916282854
 40
0.5234780426
 40
0.5554133172
 40
0.5874145164
 40
0.6194607586
 40
0.6515302853
 40
0.683600886
 40
0.7156503294
 40
0.7476567948
 40
0.7795992972
 40
0.811458103
 40
0.8432151267
 40
0.8748543016
 40
0.9063619201
 40
0.9377270001
 40
0.9689411653
 40
1.0
 40
1.0
 40
1.0
 40
1.0
 10
10.8096055878
 20
7.3269562177
 30
0.0
 10
10.8021846846
 20
7.3202072357
 30
0.0
 10
10.7867970561
 20
7.3072798773
 30
0.0
 10
10.7622527206
 20
7.289748241
 30
0.0
 10
10.736364425
 20
7.2741586724
 30
0.0
 10
10.7092734438
 20
7.260596531
 30
0.0
 10
10.6811251851
 20
7.2491341345
 30
0.0
 10
10.6520713112
 20
7.2398330119
 30
0.0
 10
10.6222681462
 20
7.2327427953
 30
0.0
 10
10.5918759976
 20
7.2279012368
 30
0.0
 10
10.5610582349
 20
7.2253339859
 30
0.0
 10
10.5299804327
 20
7.2250544771
 30
0.0
 10
10.4988094774
 20
7.2270637976
 30
0.0
 10
10.4677126691
 20
7.2313507897
 30
0.0
 10
10.436856842
 20
7.2378921251
 30
0.0
 10
10.4064074815
 20
7.2466524161
 30
0.0
 10
10.3765278285
 20
7.2575843648
 30
0.0
 10
10.3473780352
 20
7.2706291043
 30
0.0
 10
10.3191143269
 20
7.2857165116
 30
0.0
 10
10.2918881604
 20
7.302765544
 30
0.0
 10
10.2658454039
 20
7.3216846574
 30
0.0
 10
10.2411256002
 20
7.3423723533
 30
0.0
 10
10.2178612352
 20
7.3647177134
 30
0.0
 10
10.1961769959
 20
7.3886009413
 30
0.0
 10
10.1761891085
 20
7.4138940122
 30
0.0
 10
10.1580047603
 20
7.4404613862
 30
0.0
 10
10.1417215368
 20
7.4681607186
 30
0.0
 10
10.1274268379
 20
7.4968435784
 30
0.0
 10
10.1151974406
 20
7.5263562431
 30
0.0
 10
10.1050991235
 20
7.5565405927
 30
0.0
 10
10.0971862955
 20
7.5872346928
 30
0.0
 10
10.0915017069
 20
7.6182745007
 30
0.0
 10
10.0880760322
 20
7.6494914175
 30
0.0
 10
10.0873088518
 20
7.6703671233
 30
0.0
 10
10.0873088518
 20
7.6807750384
 30
0.0
  0
SPLINE
  5
383
100
AcDbEntity
  8
0
100
AcDbSpline
 62
7
  6
CONTINUOUS
 70
0
 71
3
 72
41
 73
37
 74
0
 42
0.0000001
 43
0.0000001
 44
0.0000000001
 40
0.0
 40
0.0
 40
0.0
 40
0.0
 40
0.0299421703
 40
0.0599087166
 40
0.0899234211
 40
0.1200088977
 40
0.150186053
 40
0.1804736004
 40
0.2108876395
 40
0.2414413098
 40
0.2721445264
 40
0.3030038
 40
0.3340221415
 40
0.3651990482
 40
0.3965305685
 40
0.4280094374
 40
0.4596252765
 40
0.4913648514
 40
0.5232123788
 40
0.5551498746
 40
0.5871575376
 40
0.6192141589
 40
0.6512975532
 40
0.6833850026
 40
0.7154537088
 40
0.731476412
 40
0.7474860771
 40
0.7794508401
 40
0.8113324799
 40
0.8431123195
 40
0.8747737613
 40
0.9063025943
 40
0.937687506
 40
0.953325536
 40
0.9689249997
 40
1.0
 40
1.0
 40
1.0
 40
1.0
 10
10.6833462542
 20
7.48977585
 30
0.0
 10
10.6794476724
 20
7.4860101292
 30
0.0
 10
10.6713439875
 20
7.4787825646
 30
0.0
 10
10.6583605962
 20
7.4689363108
 30
0.0
 10
10.6446157361
 20
7.4601343932
 30
0.0
 10
10.6301861985
 20
7.4524261972
 30
0.0
 10
10.6151513178
 20
7.4458538321
 30
0.0
 10
10.5995940689
 20
7.4404534272
 30
0.0
 10
10.5836001813
 20
7.436254531
 30
0.0
 10
10.5672577697
 20
7.4332800687
 30
0.0
 10
10.5506568125
 20
7.4315461989
 30
0.0
 10
10.533888662
 20
7.4310622438
 30
0.0
 10
10.5170455392
 20
7.4318306467
 30
0.0
 10
10.50022003
 20
7.4338469729
 30
0.0
 10
10.4835045803
 20
7.437099943
 30
0.0
 10
10.4669909945
 20
7.4415715036
 30
0.0
 10
10.4507699379
 20
7.4472369311
 30
0.0
 10
10.4349304462
 20
7.4540649725
 30
0.0
 10
10.4195594436
 20
7.4620180192
 30
0.0
 10
10.4047412742
 20
7.4710523115
 30
0.0
 10
10.3905572368
 20
7.4811181915
 30
0.0
 10
10.377085179
 20
7.4921603248
 30
0.0
 10
10.3643989454
 20
7.5041181874
 30
0.0
 10
10.3525684615
 20
7.516925702
 30
0.0
 10
10.3434731007
 20
7.5282530741
 30
0.0
 10
10.3366871121
 20
7.537668393
 30
0.0
 10
10.3302425607
 20
7.5472979814
 30
0.0
 10
10.3228331393
 20
7.5597255271
 30
0.0
 10
10.315022177
 20
7.5751894289
 30
0.0
 10
10.3083377584
 20
7.5911136283
 30
0.0
 10
10.3028169817
 20
7.6074104536
 30
0.0
 10
10.2984902596
 20
7.6239900314
 30
0.0
 10
10.2958963033
 20
7.6379849978
 30
0.0
 10
10.2944411614
 20
7.6492297671
 30
0.0
 10
10.2934026679
 20
7.6604637816
 30
0.0
 10
10.2930882229
 20
7.6689172935
 30
0.0
 10
10.2930882229
 20
7.6745426592
 30
0.0
  0
SPLINE
  5
384
100
AcDbEntity
  8
0
100
AcDbSpline
 62
7
  6
CONTINUOUS
 70
0
 71
3
 72
18
 73
14
 74
0
 42
0.0000001
 43
0.0000001
 44
0.0000000001
 40
0.0
 40
0.0
 40
0.0
 40
0.0
 40
0.0548620589
 40
0.1099280789
 40
0.165399508
 40
0.2214731255
 40
0.2783387361
 40
0.3361775086
 40
0.4554063416
 40
0.5804417492
 40
0.7123343341
 40
0.8519577333
 40
1.0
 40
1.0
 40
1.0
 40
1.0
 10
10.0411481614
 20
10.6686907489
 30
0.0
 10
10.0411481615
 20
10.6696186162
 30
0.0
 10
10.0412070637
 20
10.6714783332
 30
0.0
 10
10.0414718663
 20
10.674264883
 30
0.0
 10
10.0419130533
 20
10.6770498271
 30
0.0
 10
10.0425304791
 20
10.6798321482
 30
0.0
 10
10.0433239044
 20
10.682611144
 30
0.0
 10
10.0446289115
 20
10.6863481483
 30
0.0
 10
10.0467195107
 20
10.6910221402
 30
0.0
 10
10.0499015331
 20
10.6965421425
 30
0.0
 10
10.0537770639
 20
10.7020264152
 30
0.0
 10
10.0583402067
 20
10.7074694541
 30
0.0
 10
10.0617339869
 20
10.7109618251
 30
0.0
 10
10.0635348559
 20
10.7127013312
 30
0.0
  0
SPLINE
  5
385
100
AcDbEntity
  8
0
100
AcDbSpline
 62
7
  6
CONTINUOUS
 70
0
 71
3
 72
9
 73
5
 74
0
 42
0.0000001
 43
0.0000001
 44
0.0000000001
 40
0.0
 40
0.0
 40
0.0
 40
0.0
 40
0.4862217708
 40
1.0
 40
1.0
 40
1.0
 40
1.0
 10
10.054273172
 20
10.6348951546
 30
0.0
 10
10.0556511668
 20
10.6366525813
 30
0.0
 10
10.0586281809
 20
10.6401564017
 30
0.0
 10
10.0618375434
 20
10.6434470412
 30
0.0
 10
10.0635348559
 20
10.6450865193
 30
0.0
  0
SPLINE
  5
386
100
AcDbEntity
  8
0
100
AcDbSpline
 62
7
  6
CONTINUOUS
 70
0
 71
3
 72
23
 73
19
 74
0
 42
0.0000001
 43
0.0000001
 44
0.0000000001
 40
0.0
 40
0.0
 40
0.0
 40
0.0
 40
0.061689847
 40
0.1234110747
 40
0.1851828804
 40
0.247023984
 40
0.3089524534
 40
0.3709855351
 40
0.4331394952
 40
0.4954294722
 40
0.5578693431
 40
0.6204716283
 40
0.6832473346
 40
0.7462059129
 40
0.8093553883
 40
0.8727009797
 40
0.936249534
 40
1.0
 40
1.0
 40
1.0
 40
1.0
 10
10.1984727073
 20
7.959655244
 30
0.0
 10
10.194054023
 20
7.9551227742
 30
0.0
 10
10.1854376497
 20
7.9458347598
 30
0.0
 10
10.1732157228
 20
7.9312759307
 30
0.0
 10
10.1617190348
 20
7.9161177971
 30
0.0
 10
10.1509726144
 20
7.9003932626
 30
0.0
 10
10.1409993354
 20
7.8841358881
 30
0.0
 10
10.1318205653
 20
7.8673805174
 30
0.0
 10
10.1234559393
 20
7.8501630147
 30
0.0
 10
10.1159233305
 20
7.832520256
 30
0.0
 10
10.1092388183
 20
7.81449002
 30
0.0
 10
10.1034166786
 20
7.7961109052
 30
0.0
 10
10.0984693418
 20
7.7774222555
 30
0.0
 10
10.0944073614
 20
7.7584640387
 30
0.0
 10
10.0912394356
 20
7.7392769333
 30
0.0
 10
10.088972158
 20
7.7199016847
 30
0.0
 10
10.0876105494
 20
7.7003804905
 30
0.0
 10
10.0873088518
 20
7.6873164096
 30
0.0
 10
10.0873088518
 20
7.6807750384
 30
0.0
  0
SPLINE
  5
387
100
AcDbEntity
  8
0
100
AcDbSpline
 62
7
  6
CONTINUOUS
 70
0
 71
3
 72
21
 73
17
 74
0
 42
0.0000001
 43
0.0000001
 44
0.0000000001
 40
0.0
 40
0.0
 40
0.0
 40
0.0
 40
0.0617147758
 40
0.1234506606
 40
0.1852285516
 40
0.2470689039
 40
0.3089915432
 40
0.3710154715
 40
0.4331586565
 40
0.4954378534
 40
0.5578684959
 40
0.6204644995
 40
0.6832380575
 40
0.7461999878
 40
0.87268242
 40
1.0
 40
1.0
 40
1.0
 40
1.0
 10
10.3568153568
 20
7.8278254902
 30
0.0
 10
10.3542920255
 20
7.8253881523
 30
0.0
 10
10.3493690515
 20
7.8203817697
 30
0.0
 10
10.3423792025
 20
7.8125010258
 30
0.0
 10
10.3357987439
 20
7.8042658565
 30
0.0
 10
10.3296431078
 20
7.7956955244
 30
0.0
 10
10.3239263795
 20
7.7868097571
 30
0.0
 10
10.3186617639
 20
7.777629062
 30
0.0
 10
10.3138614194
 20
7.768174595
 30
0.0
 10
10.3095363573
 20
7.7584681958
 30
0.0
 10
10.3056965249
 20
7.7485322312
 30
0.0
 10
10.3023508105
 20
7.7383896744
 30
0.0
 10
10.2995068424
 20
7.7280636502
 30
0.0
 10
10.2963882745
 20
7.7140641587
 30
0.0
 10
10.2937790956
 20
7.6962170576
 30
0.0
 10
10.2930882229
 20
7.6817801786
 30
0.0
 10
10.2930882229
 20
7.6745426592
 30
0.0
  0
SPLINE
  5
388
100
AcDbEntity
  8
0
100
AcDbSpline
 62
7
  6
CONTINUOUS
 70
0
 71
3
 72
41
 73
37
 74
0
 42
0.0000001
 43
0.0000001
 44
0.0000000001
 40
0.0
 40
0.0
 40
0.0
 40
0.0
 40
0.0299421722
 40
0.0599087187
 40
0.0899234222
 40
0.1200088965
 40
0.1501860486
 40
0.1804735921
 40
0.2108876267
 40
0.2414412921
 40
0.2721445039
 40
0.3030037728
 40
0.3340221097
 40
0.3651990124
 40
0.3965305293
 40
0.4280093954
 40
0.4596252325
 40
0.4913648061
 40
0.523212333
 40
0.5551498293
 40
0.5871574933
 40
0.6192141165
 40
0.6512975132
 40
0.6833849656
 40
0.7154536753
 40
0.7314763803
 40
0.7474860474
 40
0.7794508144
 40
0.8113324582
 40
0.8431123019
 40
0.8747737477
 40
0.9063025846
 40
0.9376874998
 40
0.9533255315
 40
0.9689249968
 40
1.0
 40
1.0
 40
1.0
 40
1.0
 10
11.4958114247
 20
9.9085928706
 30
0.0
 10
11.4923110068
 20
9.9052117082
 30
0.0
 10
11.4850349515
 20
9.8987222261
 30
0.0
 10
11.473377545
 20
9.8898814696
 30
0.0
 10
11.4610364296
 20
9.8819783949
 30
0.0
 10
11.4480805544
 20
9.8750573441
 30
0.0
 10
11.4345811517
 20
9.8691561267
 30
0.0
 10
11.4206127228
 20
9.8643071828
 30
0.0
 10
11.4062522422
 20
9.8605370435
 30
0.0
 10
11.3915788259
 20
9.8578662932
 30
0.0
 10
11.3766732636
 20
9.8563094407
 30
0.0
 10
11.3616175784
 20
9.8558748566
 30
0.0
 10
11.3464945737
 20
9.8565647349
 30
0.0
 10
11.33138738
 20
9.8583750939
 30
0.0
 10
11.3163790026
 20
9.8612958067
 30
0.0
 10
11.3015518707
 20
9.8653106635
 30
0.0
 10
11.2869873907
 20
9.8703974659
 30
0.0
 10
11.272765506
 20
9.8765281525
 30
0.0
 10
11.2589642638
 20
9.8836689559
 30
0.0
 10
11.245659395
 20
9.8917805851
 30
0.0
 10
11.2329238961
 20
9.9008184538
 30
0.0
 10
11.2208276648
 20
9.9107328783
 30
0.0
 10
11.2094370046
 20
9.9214695158
 30
0.0
 10
11.1988147003
 20
9.932969037
 30
0.0
 10
11.190648196
 20
9.9431395814
 30
0.0
 10
11.1845552207
 20
9.9515933461
 30
0.0
 10
11.1787688134
 20
9.9602394986
 30
0.0
 10
11.1721160722
 20
9.9713978648
 30
0.0
 10
11.1651027968
 20
9.9852824976
 30
0.0
 10
11.1591010176
 20
9.9995804216
 30
0.0
 10
11.1541440445
 20
10.0142129183
 30
0.0
 10
11.1502591841
 20
10.0290992925
 30
0.0
 10
11.1479301328
 20
10.0416650116
 30
0.0
 10
11.1466235956
 20
10.0517614002
 30
0.0
 10
11.1456911571
 20
10.0618481322
 30
0.0
 10
11.1454088244
 20
10.0694383228
 30
0.0
 10
11.1454088244
 20
10.0744891937
 30
0.0
  0
SPLINE
  5
389
100
AcDbEntity
  8
0
100
AcDbSpline
 62
7
  6
CONTINUOUS
 70
0
 71
3
 72
83
 73
79
 74
0
 42
0.0000001
 43
0.0000001
 44
0.0000000001
 40
0.0
 40
0.0
 40
0.0
 40
0.0
 40
0.0038907051
 40
0.0079398233
 40
0.012150714
 40
0.0165262297
 40
0.0210687897
 40
0.0257803006
 40
0.0306620563
 40
0.0357149371
 40
0.0409394337
 40
0.0463356783
 40
0.0519035286
 40
0.0576424928
 40
0.0696302077
 40
0.0822906526
 40
0.0956118225
 40
0.1095788298
 40
0.1241742541
 40
0.1393784162
 40
0.1551696253
 40
0.1715243761
 40
0.188417515
 40
0.2058223804
 40
0.2237109265
 40
0.2420538538
 40
0.2608207185
 40
0.2799800339
 40
0.2994993628
 40
0.3193454074
 40
0.3394841087
 40
0.3598807335
 40
0.3804999598
 40
0.4013059582
 40
0.4433322919
 40
0.4856668344
 40
0.5280132768
 40
0.5700752063
 40
0.5909077949
 40
0.6115593986
 40
0.6319941166
 40
0.6521765397
 40
0.6720718333
 40
0.6916458216
 40
0.710865081
 40
0.7296970332
 40
0.7481100316
 40
0.7660734561
 40
0.7835578133
 40
0.8005348523
 40
0.8169776851
 40
0.832860905
 40
0.8481607284
 40
0.8628551577
 40
0.8769241817
 40
0.8903500043
 40
0.9031173078
 40
0.9152135924
 40
0.9210072989
 40
0.9266301029
 40
0.9320814257
 40
0.9373610119
 40
0.9424689015
 40
0.9474054568
 40
0.9521714629
 40
0.9567680738
 40
0.9611969531
 40
0.9654602781
 40
0.9695607977
 40
0.9735019694
 40
0.977287952
 40
0.9809237836
 40
0.9844154386
 40
0.9877699297
 40
0.9909954751
 40
0.9941015301
 40
0.9970989464
 40
1.0
 40
1.0
 40
1.0
 40
1.0
 10
12.7198310349
 20
8.4449843997
 30
0.0
 10
12.7209628928
 20
8.4460776906
 30
0.0
 10
12.7232254676
 20
8.4483581114
 30
0.0
 10
12.7265509662
 20
8.4519780591
 30
0.0
 10
12.7298732092
 20
8.4558628474
 30
0.0
 10
12.7331905122
 20
8.4600105148
 30
0.0
 10
12.7365014552
 20
8.4644191607
 30
0.0
 10
12.7398045229
 20
8.4690868209
 30
0.0
 10
12.74309827
 20
8.4740113345
 30
0.0
 10
12.7463811367
 20
8.4791904421
 30
0.0
 10
12.7496516026
 20
8.4846217453
 30
0.0
 10
12.7529081822
 20
8.4903027186
 30
0.0
 10
12.7561493458
 20
8.4962307622
 30
0.0
 10
12.7605118672
 20
8.5045822911
 30
0.0
 10
12.7659058298
 20
8.5156288435
 30
0.0
 10
12.772202868
 20
8.5296381659
 30
0.0
 10
12.7784030634
 20
8.5445612428
 30
0.0
 10
12.7844948108
 20
8.5603703531
 30
0.0
 10
12.7904667045
 20
8.5770362827
 30
0.0
 10
12.7963075549
 20
8.5945280906
 30
0.0
 10
12.8020064091
 20
8.612813272
 30
0.0
 10
12.8075525772
 20
8.6318578078
 30
0.0
 10
12.8129356533
 20
8.6516262403
 30
0.0
 10
12.8181455375
 20
8.672081736
 30
0.0
 10
12.8231724654
 20
8.6931861572
 30
0.0
 10
12.8280070133
 20
8.7149001415
 30
0.0
 10
12.8326401194
 20
8.7371831823
 30
0.0
 10
12.8370630988
 20
8.7599937034
 30
0.0
 10
12.8412676624
 20
8.7832891345
 30
0.0
 10
12.8452459389
 20
8.8070259898
 30
0.0
 10
12.8489904816
 20
8.8311599582
 30
0.0
 10
12.8524942726
 20
8.8556459748
 30
0.0
 10
12.8557507774
 20
8.880438358
 30
0.0
 10
12.8597680864
 20
8.9139522656
 30
0.0
 10
12.8641245682
 20
8.9562686681
 30
0.0
 10
12.8682653592
 20
9.0073537047
 30
0.0
 10
12.8713051811
 20
9.0585304803
 30
0.0
 10
12.8729073208
 20
9.101070337
 30
0.0
 10
12.8736159638
 20
9.1348549765
 30
0.0
 10
12.8738589337
 20
9.1598983943
 30
0.0
 10
12.8738147178
 20
9.1846799699
 30
0.0
 10
12.8734833937
 20
9.2091534702
 30
0.0
 10
12.8728656043
 20
9.2332731908
 30
0.0
 10
12.8719625199
 20
9.256994102
 30
0.0
 10
12.8707758515
 20
9.2802719211
 30
0.0
 10
12.8693078493
 20
9.3030632013
 30
0.0
 10
12.8675612894
 20
9.3253254111
 30
0.0
 10
12.8655394711
 20
9.3470170108
 30
0.0
 10
12.8632462087
 20
9.3680975341
 30
0.0
 10
12.860685832
 20
9.3885276704
 30
0.0
 10
12.857863181
 20
9.4082693428
 30
0.0
 10
12.8547835867
 20
9.427285779
 30
0.0
 10
12.8514528639
 20
9.445541579
 30
0.0
 10
12.8478772953
 20
9.4630027971
 30
0.0
 10
12.8440636259
 20
9.4796369964
 30
0.0
 10
12.8400190522
 20
9.4954134065
 30
0.0
 10
12.8357511721
 20
9.5103026982
 30
0.0
 10
12.8319627825
 20
9.522112275
 30
0.0
 10
12.8288175701
 20
9.5310877092
 30
0.0
 10
12.8264417898
 20
9.5374835924
 30
0.0
 10
12.8240162844
 20
9.5436378284
 30
0.0
 10
12.8215421813
 20
9.5495475824
 30
0.0
 10
12.819020639
 20
9.5552101221
 30
0.0
 10
12.816452781
 20
9.56062282
 30
0.0
 10
12.8138398445
 20
9.565783201
 30
0.0
 10
12.8111829707
 20
9.5706888723
 30
0.0
 10
12.8084833948
 20
9.5753375917
 30
0.0
 10
12.8057423414
 20
9.5797272354
 30
0.0
 10
12.8029609876
 20
9.5838557694
 30
0.0
 10
12.8001406213
 20
9.5877213397
 30
0.0
 10
12.7972824086
 20
9.5913221399
 30
0.0
 10
12.7943875989
 20
9.5946565255
 30
0.0
 10
12.7914574182
 20
9.5977229526
 30
0.0
 10
12.7884930222
 20
9.6005199183
 30
0.0
 10
12.7854957007
 20
9.603046097
 30
0.0
 10
12.7824665418
 20
9.6053001586
 30
0.0
 10
12.7794070571
 20
9.6072807611
 30
0.0
 10
12.7773165564
 20
9.6084354326
 30
0.0
 10
12.7762687793
 20
9.6089636099
 30
0.0
  0
SPLINE
  5
38A
100
AcDbEntity
  8
0
100
AcDbSpline
 62
7
  6
CONTINUOUS
 70
0
 71
3
 72
15
 73
11
 74
0
 42
0.0000001
 43
0.0000001
 44
0.0000000001
 40
0.0
 40
0.0
 40
0.0
 40
0.0
 40
0.1421302308
 40
0.2788378728
 40
0.4103309176
 40
0.5368603937
 40
0.6587263844
 40
0.7762716105
 40
0.8898843517
 40
1.0
 40
1.0
 40
1.0
 40
1.0
 10
12.7198310349
 20
8.4449843997
 30
0.0
 10
12.7187837374
 20
8.443972788
 30
0.0
 10
12.7166897453
 20
8.442028302
 30
0.0
 10
12.7134872098
 20
8.4393031167
 30
0.0
 10
12.7102867309
 20
8.4368286119
 30
0.0
 10
12.707089698
 20
8.434606107
 30
0.0
 10
12.7038974075
 20
8.4326365779
 30
0.0
 10
12.7007109616
 20
8.4309210105
 30
0.0
 10
12.6975318626
 20
8.4294603492
 30
0.0
 10
12.6953872537
 20
8.4286453547
 30
0.0
 10
12.6943188633
 20
8.4282831866
 30
0.0
  0
SPLINE
  5
38B
100
AcDbEntity
  8
0
100
AcDbSpline
 62
7
  6
CONTINUOUS
 70
0
 71
3
 72
41
 73
37
 74
0
 42
0.0000001
 43
0.0000001
 44
0.0000000001
 40
0.0
 40
0.0
 40
0.0
 40
0.0
 40
0.0299421722
 40
0.0599087187
 40
0.0899234222
 40
0.1200088965
 40
0.1501860486
 40
0.1804735921
 40
0.2108876267
 40
0.2414412921
 40
0.2721445039
 40
0.3030037728
 40
0.3340221097
 40
0.3651990124
 40
0.3965305293
 40
0.4280093954
 40
0.4596252325
 40
0.4913648061
 40
0.523212333
 40
0.5551498293
 40
0.5871574933
 40
0.6192141165
 40
0.6512975132
 40
0.6833849656
 40
0.7154536753
 40
0.7314763803
 40
0.7474860474
 40
0.7794508144
 40
0.8113324582
 40
0.8431123019
 40
0.8747737477
 40
0.9063025846
 40
0.9376874998
 40
0.9533255315
 40
0.9689249968
 40
1.0
 40
1.0
 40
1.0
 40
1.0
 10
10.4091448058
 20
6.8446943351
 30
0.0
 10
10.4056443878
 20
6.8413131727
 30
0.0
 10
10.3983683326
 20
6.8348236906
 30
0.0
 10
10.386710926
 20
6.8259829342
 30
0.0
 10
10.3743698107
 20
6.8180798594
 30
0.0
 10
10.3614139354
 20
6.8111588086
 30
0.0
 10
10.3479145328
 20
6.8052575912
 30
0.0
 10
10.3339461038
 20
6.8004086473
 30
0.0
 10
10.3195856232
 20
6.796638508
 30
0.0
 10
10.304912207
 20
6.7939677578
 30
0.0
 10
10.2900066447
 20
6.7924109052
 30
0.0
 10
10.2749509595
 20
6.7919763212
 30
0.0
 10
10.2598279547
 20
6.7926661994
 30
0.0
 10
10.244720761
 20
6.7944765585
 30
0.0
 10
10.2297123836
 20
6.7973972713
 30
0.0
 10
10.2148852517
 20
6.801412128
 30
0.0
 10
10.2003207718
 20
6.8064989304
 30
0.0
 10
10.1860988871
 20
6.8126296171
 30
0.0
 10
10.1722976448
 20
6.8197704204
 30
0.0
 10
10.158992776
 20
6.8278820497
 30
0.0
 10
10.1462572771
 20
6.8369199183
 30
0.0
 10
10.1341610458
 20
6.8468343429
 30
0.0
 10
10.1227703856
 20
6.8575709804
 30
0.0
 10
10.1121480814
 20
6.8690705016
 30
0.0
 10
10.103981577
 20
6.879241046
 30
0.0
 10
10.0978886017
 20
6.8876948106
 30
0.0
 10
10.0921021944
 20
6.8963409631
 30
0.0
 10
10.0854494532
 20
6.9074993293
 30
0.0
 10
10.0784361779
 20
6.9213839621
 30
0.0
 10
10.0724343987
 20
6.9356818861
 30
0.0
 10
10.0674774255
 20
6.9503143829
 30
0.0
 10
10.0635925652
 20
6.965200757
 30
0.0
 10
10.0612635138
 20
6.9777664762
 30
0.0
 10
10.0599569766
 20
6.9878628647
 30
0.0
 10
10.0590245382
 20
6.9979495967
 30
0.0
 10
10.0587422055
 20
7.0055397874
 30
0.0
 10
10.0587422055
 20
7.0105906583
 30
0.0
  0
SPLINE
  5
38C
100
AcDbEntity
  8
0
100
AcDbSpline
 62
7
  6
CONTINUOUS
 70
0
 71
3
 72
23
 73
19
 74
0
 42
0.0000001
 43
0.0000001
 44
0.0000000001
 40
0.0
 40
0.0
 40
0.0
 40
0.0
 40
0.0755966894
 40
0.1466391965
 40
0.2134647074
 40
0.2765134986
 40
0.3363257304
 40
0.3935458535
 40
0.4489219493
 40
0.5032869296
 40
0.5575247817
 40
0.6125261135
 40
0.6691421681
 40
0.7281478382
 40
0.7902185594
 40
0.8559229117
 40
0.9257262624
 40
1.0
 40
1.0
 40
1.0
 40
1.0
 10
12.7198310349
 20
8.6188510587
 30
0.0
 10
12.7186776297
 20
8.6177369549
 30
0.0
 10
12.7163723618
 20
8.6156443298
 30
0.0
 10
12.7128047249
 20
8.6128487263
 30
0.0
 10
12.7092412804
 20
8.6105008085
 30
0.0
 10
12.7056852832
 20
8.6086041358
 30
0.0
 10
12.7021397285
 20
8.6071620798
 30
0.0
 10
12.6986082375
 20
8.6061782935
 30
0.0
 10
12.6950954745
 20
8.6056561163
 30
0.0
 10
12.6916072744
 20
8.605598155
 30
0.0
 10
12.688150338
 20
8.6060051254
 30
0.0
 10
12.6847313868
 20
8.6068759576
 30
0.0
 10
12.6813561949
 20
8.6082075887
 30
0.0
 10
12.678029271
 20
8.6099962243
 30
0.0
 10
12.6747539612
 20
8.612237723
 30
0.0
 10
12.6715329049
 20
8.6149282002
 30
0.0
 10
12.6683687385
 20
8.6180637117
 30
0.0
 10
12.6663633266
 20
8.6203739356
 30
0.0
 10
12.6653692065
 20
8.6215962605
 30
0.0
  0
SPLINE
  5
38D
100
AcDbEntity
  8
0
100
AcDbSpline
 62
7
  6
CONTINUOUS
 70
0
 71
3
 72
18
 73
14
 74
0
 42
0.0000001
 43
0.0000001
 44
0.0000000001
 40
0.0
 40
0.0
 40
0.0
 40
0.0
 40
0.1504665368
 40
0.2917140793
 40
0.424442781
 40
0.4879100458
 40
0.5496093226
 40
0.6682623342
 40
0.7817883693
 40
0.8371380845
 40
0.8918079515
 40
0.946019356
 40
1.0
 40
1.0
 40
1.0
 40
1.0
 10
12.6811939995
 20
8.6601675816
 30
0.0
 10
12.6801338552
 20
8.6591435608
 30
0.0
 10
12.6780149805
 20
8.6572221888
 30
0.0
 10
12.6747341429
 20
8.6546616968
 30
0.0
 10
12.6719628922
 20
8.6528507883
 30
0.0
 10
12.6697530822
 20
8.6516244887
 30
0.0
 10
12.6676082843
 20
8.6505716819
 30
0.0
 10
12.6649265998
 20
8.6495078648
 30
0.0
 10
12.6621972198
 20
8.6487818687
 30
0.0
 10
12.6600354591
 20
8.648424259
 30
0.0
 10
12.6584333023
 20
8.648265514
 30
0.0
 10
12.6568376237
 20
8.6482142434
 30
0.0
 10
12.6557774952
 20
8.6482517507
 30
0.0
 10
12.6552499756
 20
8.6482883347
 30
0.0
  0
SPLINE
  5
38E
100
AcDbEntity
  8
0
100
AcDbSpline
 62
7
  6
CONTINUOUS
 70
0
 71
3
 72
91
 73
87
 74
0
 42
0.0000001
 43
0.0000001
 44
0.0000000001
 40
0.0
 40
0.0
 40
0.0
 40
0.0
 40
0.0039801824
 40
0.0081241125
 40
0.0124359604
 40
0.0169193082
 40
0.0215771808
 40
0.0264119179
 40
0.0314251804
 40
0.036618156
 40
0.0419915391
 40
0.0475456573
 40
0.0532804234
 40
0.0591954189
 40
0.0652899227
 40
0.0715629017
 40
0.0780131034
 40
0.0846389837
 40
0.0984102885
 40
0.1128608532
 40
0.1279713725
 40
0.1437199568
 40
0.1600824082
 40
0.1770324532
 40
0.1945419392
 40
0.2125810061
 40
0.2311182422
 40
0.2501208275
 40
0.2695546626
 40
0.2893844909
 40
0.3095740146
 40
0.330086005
 40
0.35088241
 40
0.3719244606
 40
0.3931727759
 40
0.4145874652
 40
0.4361282289
 40
0.4577544586
 40
0.4794253371
 40
0.501099938
 40
0.5227373261
 40
0.5442966575
 40
0.5657372785
 40
0.5870188258
 40
0.6081013261
 40
0.6289452975
 40
0.6495118524
 40
0.6697628021
 40
0.6896607608
 40
0.7091692527
 40
0.7282528228
 40
0.7468771515
 40
0.7650091753
 40
0.7826172172
 40
0.7996711268
 40
0.8161424293
 40
0.8320044948
 40
0.8472327309
 40
0.8618048077
 40
0.8757009255
 40
0.8889041429
 40
0.8952417292
 40
0.9014012652
 40
0.9073816417
 40
0.9131820083
 40
0.9188018518
 40
0.9242409423
 40
0.9294994633
 40
0.9345779585
 40
0.9394774438
 40
0.944199427
 40
0.9487459568
 40
0.95311974
 40
0.9573241405
 40
0.9613633601
 40
0.9652424499
 40
0.9689674846
 40
0.9725456466
 40
0.9759853437
 40
0.9824865016
 40
0.9855753543
 40
0.9885738189
 40
0.9914977372
 40
0.9943643366
 40
0.9971920099
 40
1.0
 40
1.0
 40
1.0
 40
1.0
 10
10.0635348559
 20
10.7127013312
 30
0.0
 10
10.0648360878
 20
10.7139582247
 30
0.0
 10
10.0675511772
 20
10.7164631222
 30
0.0
 10
10.0718619042
 20
10.7201217136
 30
0.0
 10
10.0764891839
 20
10.7237540614
 30
0.0
 10
10.0814304778
 20
10.7273582371
 30
0.0
 10
10.0866833769
 20
10.7309325574
 30
0.0
 10
10.0922453073
 20
10.7344752834
 30
0.0
 10
10.0981134873
 20
10.7379847164
 30
0.0
 10
10.1042850054
 20
10.7414590353
 30
0.0
 10
10.110756745
 20
10.7448965724
 30
0.0
 10
10.117525489
 20
10.7482955592
 30
0.0
 10
10.124587834
 20
10.751654324
 30
0.0
 10
10.1319402374
 20
10.7549711694
 30
0.0
 10
10.1395790084
 20
10.758244405
 30
0.0
 10
10.1475002915
 20
10.7614724137
 30
0.0
 10
10.1557001205
 20
10.7646535358
 30
0.0
 10
10.1671466328
 20
10.7688848758
 30
0.0
 10
10.1821283333
 20
10.7740344986
 30
0.0
 10
10.200925174
 20
10.7799253565
 30
0.0
 10
10.2207271305
 20
10.7855923394
 30
0.0
 10
10.2414942305
 20
10.7910239199
 30
0.0
 10
10.263184703
 20
10.796209034
 30
0.0
 10
10.2857548061
 20
10.8011371191
 30
0.0
 10
10.3091589998
 20
10.8057981339
 30
0.0
 10
10.3333500223
 20
10.8101825858
 30
0.0
 10
10.3582789987
 20
10.8142815468
 30
0.0
 10
10.3838955445
 20
10.8180866719
 30
0.0
 10
10.4101478714
 20
10.8215902154
 30
0.0
 10
10.4369828946
 20
10.824785047
 30
0.0
 10
10.4643463416
 20
10.8276646654
 30
0.0
 10
10.4921828629
 20
10.8302232107
 30
0.0
 10
10.5204361444
 20
10.8324554797
 30
0.0
 10
10.549049024
 20
10.834356934
 30
0.0
 10
10.5779636084
 20
10.8359237078
 30
0.0
 10
10.6071213918
 20
10.8371526159
 30
0.0
 10
10.6364633746
 20
10.8380411594
 30
0.0
 10
10.6659301823
 20
10.8385875315
 30
0.0
 10
10.6954621866
 20
10.8387906197
 30
0.0
 10
10.724999626
 20
10.8386500115
 30
0.0
 10
10.7544827285
 20
10.8381659941
 30
0.0
 10
10.7838518328
 20
10.8373395523
 30
0.0
 10
10.8130475098
 20
10.8361723662
 30
0.0
 10
10.8420106821
 20
10.8346668086
 30
0.0
 10
10.8706827447
 20
10.8328259397
 30
0.0
 10
10.8990056835
 20
10.8306535013
 30
0.0
 10
10.9269221951
 20
10.8281539108
 30
0.0
 10
10.9543758041
 20
10.8253322541
 30
0.0
 10
10.9813109779
 20
10.8221942716
 30
0.0
 10
11.0076732393
 20
10.8187463483
 30
0.0
 10
11.0334092785
 20
10.8149955007
 30
0.0
 10
11.058467062
 20
10.8109493631
 30
0.0
 10
11.0827959412
 20
10.8066161718
 30
0.0
 10
11.1063467596
 20
10.8020047506
 30
0.0
 10
11.1290719585
 20
10.7971244937
 30
0.0
 10
11.1509256742
 20
10.7919853436
 30
0.0
 10
11.1718638445
 20
10.7865977693
 30
0.0
 10
11.1918442802
 20
10.780972744
 30
0.0
 10
11.2108268506
 20
10.7751217166
 30
0.0
 10
11.228773272
 20
10.769056585
 30
0.0
 10
11.2430234131
 20
10.7637644502
 30
0.0
 10
11.2538692398
 20
10.7594235983
 30
0.0
 10
11.2616112031
 20
10.7561665959
 30
0.0
 10
11.2690681796
 20
10.7528654306
 30
0.0
 10
11.2762364191
 20
10.7495217031
 30
0.0
 10
11.2831123354
 20
10.7461371574
 30
0.0
 10
11.2896924595
 20
10.7427134295
 30
0.0
 10
11.2959735159
 20
10.7392522933
 30
0.0
 10
11.3019523483
 20
10.7357554334
 30
0.0
 10
11.307625978
 20
10.7322246061
 30
0.0
 10
11.312991584
 20
10.7286615665
 30
0.0
 10
11.3180464747
 20
10.7250680246
 30
0.0
 10
11.3227881711
 20
10.72144579
 30
0.0
 10
11.327214273
 20
10.7177965332
 30
0.0
 10
11.3313226126
 20
10.7141220688
 30
0.0
 10
11.3351111183
 20
10.7104240338
 30
0.0
 10
11.338577803
 20
10.7067042905
 30
0.0
 10
11.3417211703
 20
10.7029640922
 30
0.0
 10
11.3454086371
 20
10.6980461627
 30
0.0
 10
11.3485398967
 20
10.6929956746
 30
0.0
 10
11.3510259807
 20
10.6878373459
 30
0.0
 10
11.3525280615
 20
10.6840223768
 30
0.0
 10
11.3536977866
 20
10.6801981253
 30
0.0
 10
11.3545341968
 20
10.6763664489
 30
0.0
 10
11.3550363679
 20
10.6725300793
 30
0.0
 10
11.3551481616
 20
10.6699670839
 30
0.0
 10
11.3551481614
 20
10.668690749
 30
0.0
  0
SPLINE
  5
38F
100
AcDbEntity
  8
0
100
AcDbSpline
 62
7
  6
CONTINUOUS
 70
0
 71
3
 72
88
 73
84
 74
0
 42
0.0000001
 43
0.0000001
 44
0.0000000001
 40
0.0
 40
0.0
 40
0.0
 40
0.0
 40
0.0027164206
 40
0.0054532135
 40
0.00823027
 40
0.0110665466
 40
0.0139797362
 40
0.0169860264
 40
0.0200999638
 40
0.0233344621
 40
0.0267007864
 40
0.030208716
 40
0.033866602
 40
0.0376815365
 40
0.0416594862
 40
0.0458053757
 40
0.0501232805
 40
0.0546164357
 40
0.0592874172
 40
0.0641381604
 40
0.0691700473
 40
0.0743839976
 40
0.0797804461
 40
0.085359486
 40
0.0911208072
 40
0.097063806
 40
0.1031875785
 40
0.1094909314
 40
0.1226301057
 40
0.1364676988
 40
0.1509864378
 40
0.1661662591
 40
0.1819846247
 40
0.1984167804
 40
0.2154359739
 40
0.2330136371
 40
0.2511195505
 40
0.2697219952
 40
0.2887878869
 40
0.3082829001
 40
0.3281715858
 40
0.3484174815
 40
0.3689832185
 40
0.3898306305
 40
0.410920857
 40
0.4322144439
 40
0.4536714439
 40
0.4969133241
 40
0.5403214886
 40
0.5835686279
 40
0.6050302166
 40
0.6263296837
 40
0.6474270673
 40
0.6682828961
 40
0.6888582896
 40
0.7091150586
 40
0.7290158075
 40
0.7485240405
 40
0.7676042737
 40
0.7862221443
 40
0.8043445271
 40
0.8219396585
 40
0.8389772699
 40
0.8554287349
 40
0.8712672375
 40
0.8864679574
 40
0.9010082824
 40
0.9148680665
 40
0.9280299429
 40
0.9343448017
 40
0.9404801679
 40
0.9464348204
 40
0.9522078552
 40
0.9577986253
 40
0.9632068219
 40
0.9684325067
 40
0.9734760906
 40
0.9783384494
 40
0.9830208978
 40
0.9875254123
 40
0.9918545974
 40
0.9960115688
 40
1.0
 40
1.0
 40
1.0
 40
1.0
 10
12.7919049485
 20
9.6111410532
 30
0.0
 10
12.7930154433
 20
9.6110640438
 30
0.0
 10
12.7952390733
 20
9.6108089259
 30
0.0
 10
12.7985462211
 20
9.6101262948
 30
0.0
 10
12.80182836
 20
9.609143711
 30
0.0
 10
12.8050831796
 20
9.6078622236
 30
0.0
 10
12.8083089792
 20
9.6062829139
 30
0.0
 10
12.8115041024
 20
9.6044070263
 30
0.0
 10
12.8146671071
 20
9.6022359334
 30
0.0
 10
12.817796533
 20
9.5997709442
 30
0.0
 10
12.8208910934
 20
9.5970135731
 30
0.0
 10
12.823949395
 20
9.5939652647
 30
0.0
 10
12.8269701394
 20
9.5906276465
 30
0.0
 10
12.8299519821
 20
9.587002403
 30
0.0
 10
12.8328935429
 20
9.5830913245
 30
0.0
 10
12.8357935195
 20
9.5788963759
 30
0.0
 10
12.8386504815
 20
9.5744195847
 30
0.0
 10
12.8414631316
 20
9.5696631878
 30
0.0
 10
12.8442300686
 20
9.5646295065
 30
0.0
 10
12.84694996
 20
9.5593210342
 30
0.0
 10
12.8496214863
 20
9.5537404004
 30
0.0
 10
12.8522432855
 20
9.5478903593
 30
0.0
 10
12.8548141133
 20
9.5417738332
 30
0.0
 10
12.8573326302
 20
9.5353938508
 30
0.0
 10
12.8597976242
 20
9.5287536035
 30
0.0
 10
12.8622078319
 20
9.5218564026
 30
0.0
 10
12.8645620641
 20
9.5147056858
 30
0.0
 10
12.8676678336
 20
9.5046993519
 30
0.0
 10
12.8713906273
 20
9.4915769774
 30
0.0
 10
12.8755570894
 20
9.4750887634
 30
0.0
 10
12.8794737473
 20
9.4576813901
 30
0.0
 10
12.8831326597
 20
9.4393897574
 30
0.0
 10
12.8865263792
 20
9.4202503951
 30
0.0
 10
12.8896480002
 20
9.4003016429
 30
0.0
 10
12.8924911659
 20
9.379583488
 30
0.0
 10
12.8950500888
 20
9.3581375006
 30
0.0
 10
12.8973195623
 20
9.3360067373
 30
0.0
 10
12.8992949669
 20
9.3132356495
 30
0.0
 10
12.9009722803
 20
9.2898699881
 30
0.0
 10
12.9023480852
 20
9.2659567095
 30
0.0
 10
12.903419575
 20
9.2415438801
 30
0.0
 10
12.9041845602
 20
9.2166805791
 30
0.0
 10
12.9046414756
 20
9.1914167996
 30
0.0
 10
12.904789381
 20
9.1658033413
 30
0.0
 10
12.9046279528
 20
9.1398917237
 30
0.0
 10
12.9041575227
 20
9.113734013
 30
0.0
 10
12.9031167602
 20
9.0785099017
 30
0.0
 10
12.9010502456
 20
9.0342527927
 30
0.0
 10
12.8973767894
 20
8.9811449349
 30
0.0
 10
12.8933300256
 20
8.9370207542
 30
0.0
 10
12.8895108319
 20
8.9019823579
 30
0.0
 10
12.8863748968
 20
8.8760017689
 30
0.0
 10
12.8829666745
 20
8.8503059001
 30
0.0
 10
12.8792930065
 20
8.8249463849
 30
0.0
 10
12.8753613086
 20
8.7999742279
 30
0.0
 10
12.871179508
 20
8.7754396384
 30
0.0
 10
12.8667560407
 20
8.7513919453
 30
0.0
 10
12.862099831
 20
8.7278794909
 30
0.0
 10
12.8572202794
 20
8.7049495315
 30
0.0
 10
12.8521272388
 20
8.6826481413
 30
0.0
 10
12.8468309949
 20
8.6610201194
 30
0.0
 10
12.8413422463
 20
8.6401088976
 30
0.0
 10
12.8356720824
 20
8.61995645
 30
0.0
 10
12.8298319597
 20
8.6006032035
 30
0.0
 10
12.8238336821
 20
8.5820879413
 30
0.0
 10
12.8176893728
 20
8.5644477393
 30
0.0
 10
12.8114114422
 20
8.5477178073
 30
0.0
 10
12.8050125639
 20
8.531931675
 30
0.0
 10
12.7995169659
 20
8.5194222785
 30
0.0
 10
12.7950618333
 20
8.5099187048
 30
0.0
 10
12.7917444566
 20
8.5031448748
 30
0.0
 10
12.7884065102
 20
8.4966296534
 30
0.0
 10
12.7850496857
 20
8.4903762767
 30
0.0
 10
12.7816756475
 20
8.484387874
 30
0.0
 10
12.7782860744
 20
8.4786674301
 30
0.0
 10
12.7748826805
 20
8.4732177774
 30
0.0
 10
12.7714671096
 20
8.468041653
 30
0.0
 10
12.7680411253
 20
8.4631416048
 30
0.0
 10
12.764606358
 20
8.458520074
 30
0.0
 10
12.7611644841
 20
8.4541792996
 30
0.0
 10
12.7577171061
 20
8.4501213941
 30
0.0
 10
12.7542660606
 20
8.4463485604
 30
0.0
 10
12.7519162272
 20
8.4439763166
 30
0.0
 10
12.7507406639
 20
8.4428408097
 30
0.0
  0
SPLINE
  5
390
100
AcDbEntity
  8
0
100
AcDbSpline
 62
7
  6
CONTINUOUS
 70
0
 71
3
 72
89
 73
85
 74
0
 42
0.0000001
 43
0.0000001
 44
0.0000000001
 40
0.0
 40
0.0
 40
0.0
 40
0.0
 40
0.0042067312
 40
0.0086075293
 40
0.0132068539
 40
0.0180083867
 40
0.0230151278
 40
0.0282292848
 40
0.0336521891
 40
0.0392846084
 40
0.0451267211
 40
0.0511782441
 40
0.0574384617
 40
0.0639061948
 40
0.0774573948
 40
0.0918164794
 40
0.1069629005
 40
0.1228721746
 40
0.1395163763
 40
0.1568645309
 40
0.1748829317
 40
0.1935354184
 40
0.2127836256
 40
0.2325871965
 40
0.2529039765
 40
0.2736901923
 40
0.2949006167
 40
0.3164887388
 40
0.3384069248
 40
0.3606065716
 40
0.383038256
 40
0.4056518828
 40
0.4512212465
 40
0.4969069626
 40
0.5422991122
 40
0.5647582359
 40
0.5869920364
 40
0.6089509909
 40
0.6305863744
 40
0.6518504102
 40
0.6726964287
 40
0.6930790271
 40
0.7129542265
 40
0.7322796411
 40
0.7510146561
 40
0.769120622
 40
0.7865610755
 40
0.8033019713
 40
0.8193119467
 40
0.834562639
 40
0.8490290691
 40
0.8626901233
 40
0.8755291723
 40
0.8816370224
 40
0.8875355927
 40
0.8932245052
 40
0.8987037916
 40
0.9039740757
 40
0.9090365708
 40
0.9138931509
 40
0.9185465243
 40
0.9230002124
 40
0.9272588158
 40
0.9313280509
 40
0.9352149632
 40
0.9389281337
 40
0.9424777932
 40
0.9458761324
 40
0.9491373738
 40
0.9522779783
 40
0.9553166717
 40
0.958274352
 40
0.9611738974
 40
0.9640396987
 40
0.9668971039
 40
0.9697716967
 40
0.9726885767
 40
0.9756716704
 40
0.9787432265
 40
0.9852253757
 40
0.9886742972
 40
0.9922790667
 40
0.9960512155
 40
1.0
 40
1.0
 40
1.0
 40
1.0
 10
12.7198310349
 20
8.6188510587
 30
0.0
 10
12.7207272263
 20
8.6197167132
 30
0.0
 10
12.7225184209
 20
8.6215324107
 30
0.0
 10
12.7251439125
 20
8.6244335744
 30
0.0
 10
12.7277660809
 20
8.6275710201
 30
0.0
 10
12.7303832588
 20
8.6309427281
 30
0.0
 10
12.7329940118
 20
8.6345467422
 30
0.0
 10
12.7355968162
 20
8.6383809981
 30
0.0
 10
12.7381902131
 20
8.6424432245
 30
0.0
 10
12.7407726058
 20
8.6467310446
 30
0.0
 10
12.7433424993
 20
8.6512419028
 30
0.0
 10
12.7458983603
 20
8.6559731322
 30
0.0
 10
12.7484386731
 20
8.6609219409
 30
0.0
 10
12.7518562737
 20
8.6679156632
 30
0.0
 10
12.7560691627
 20
8.6771882838
 30
0.0
 10
12.7609634731
 20
8.6889668736
 30
0.0
 10
12.7657604016
 20
8.7015358543
 30
0.0
 10
12.770448422
 20
8.714865294
 30
0.0
 10
12.7750162577
 20
8.7289235848
 30
0.0
 10
12.7794529105
 20
8.7436772565
 30
0.0
 10
12.7837477005
 20
8.759091145
 30
0.0
 10
12.7878902925
 20
8.775128465
 30
0.0
 10
12.7918707177
 20
8.7917509167
 30
0.0
 10
12.7956794002
 20
8.8089187822
 30
0.0
 10
12.7993071794
 20
8.8265910246
 30
0.0
 10
12.8027453305
 20
8.8447253861
 30
0.0
 10
12.8059855927
 20
8.8632784901
 30
0.0
 10
12.8090201826
 20
8.8822059486
 30
0.0
 10
12.8118418145
 20
8.901462476
 30
0.0
 10
12.814443706
 20
8.9210019837
 30
0.0
 10
12.8168196391
 20
8.9407777477
 30
0.0
 10
12.8196857245
 20
8.967464201
 30
0.0
 10
12.8226623612
 20
9.0010633521
 30
0.0
 10
12.8252499046
 20
9.0414581738
 30
0.0
 10
12.8265774373
 20
9.0750645117
 30
0.0
 10
12.8271275646
 20
9.1017419116
 30
0.0
 10
12.8272823007
 20
9.1214836332
 30
0.0
 10
12.8271803635
 20
9.1409816996
 30
0.0
 10
12.8268219928
 20
9.1601894869
 30
0.0
 10
12.8262080757
 20
9.1790610206
 30
0.0
 10
12.8253401119
 20
9.1975511505
 30
0.0
 10
12.8242202186
 20
9.2156156447
 30
0.0
 10
12.8228511198
 20
9.2332113002
 30
0.0
 10
12.8212361415
 20
9.250296045
 30
0.0
 10
12.8193792045
 20
9.2668290419
 30
0.0
 10
12.817284814
 20
9.2827707927
 30
0.0
 10
12.8149580575
 20
9.2980832418
 30
0.0
 10
12.8124045862
 20
9.3127298714
 30
0.0
 10
12.809630599
 20
9.3266758038
 30
0.0
 10
12.8066428241
 20
9.3398878673
 30
0.0
 10
12.8034484993
 20
9.3523347911
 30
0.0
 10
12.800055331
 20
9.3639869784
 30
0.0
 10
12.7970204242
 20
9.3731588215
 30
0.0
 10
12.7944900044
 20
9.3800696604
 30
0.0
 10
12.7925791718
 20
9.3849506432
 30
0.0
 10
12.7906249058
 20
9.3896131983
 30
0.0
 10
12.7886282862
 20
9.3940545651
 30
0.0
 10
12.786590522
 20
9.3982721283
 30
0.0
 10
12.7845128119
 20
9.4022634126
 30
0.0
 10
12.7823963219
 20
9.4060260591
 30
0.0
 10
12.7802423297
 20
9.4095578948
 30
0.0
 10
12.7780519876
 20
9.412856827
 30
0.0
 10
12.7758265663
 20
9.415920957
 30
0.0
 10
12.7735672582
 20
9.4187484853
 30
0.0
 10
12.7712752464
 20
9.4213377271
 30
0.0
 10
12.768951769
 20
9.4236871694
 30
0.0
 10
12.76659793
 20
9.4257952877
 30
0.0
 10
12.7642149679
 20
9.4276607595
 30
0.0
 10
12.7618040267
 20
9.4292822047
 30
0.0
 10
12.7593663663
 20
9.4306583331
 30
0.0
 10
12.7569033576
 20
9.4317879303
 30
0.0
 10
12.7544164838
 20
9.4326697251
 30
0.0
 10
12.7519075146
 20
9.433302785
 30
0.0
 10
12.7493783625
 20
9.4336862001
 30
0.0
 10
12.7468311601
 20
9.4338195635
 30
0.0
 10
12.7442680633
 20
9.4337027861
 30
0.0
 10
12.7416912464
 20
9.4333361366
 30
0.0
 10
12.7391025135
 20
9.4327202638
 30
0.0
 10
12.7355752584
 20
9.431547269
 30
0.0
 10
12.7320849308
 20
9.4298775626
 30
0.0
 10
12.7286639209
 20
9.4277838535
 30
0.0
 10
12.726040005
 20
9.4259367515
 30
0.0
 10
12.723413736
 20
9.4238470864
 30
0.0
 10
12.7217020705
 20
9.4223287204
 30
0.0
 10
12.7208458843
 20
9.4215319106
 30
0.0
  0
SPLINE
  5
391
100
AcDbEntity
  8
0
100
AcDbSpline
 62
7
  6
CONTINUOUS
 70
0
 71
3
 72
78
 73
74
 74
0
 42
0.0000001
 43
0.0000001
 44
0.0000000001
 40
0.0
 40
0.0
 40
0.0
 40
0.0
 40
0.0039883708
 40
0.0081453713
 40
0.0124746514
 40
0.0169792446
 40
0.0216617048
 40
0.0265240573
 40
0.0315676738
 40
0.0367933803
 40
0.0477917732
 40
0.0595189875
 40
0.0719688241
 40
0.0851307675
 40
0.098990636
 40
0.1135310453
 40
0.1287318459
 40
0.144570439
 40
0.1610220047
 40
0.17805971
 40
0.1956549318
 40
0.2137774167
 40
0.2323953998
 40
0.2514757423
 40
0.2709840821
 40
0.2908849441
 40
0.3111418307
 40
0.3317173399
 40
0.3736700372
 40
0.4164306268
 40
0.4596780178
 40
0.5030864378
 40
0.5463285753
 40
0.5890787058
 40
0.6310158441
 40
0.6515817044
 40
0.6718277277
 40
0.6917165425
 40
0.711211677
 40
0.7302776898
 40
0.7488802598
 40
0.766986293
 40
0.7845640637
 40
0.8015833694
 40
0.8180156465
 40
0.8338341259
 40
0.8490140463
 40
0.8635328858
 40
0.8773705842
 40
0.8905098544
 40
0.9029366124
 40
0.9146404815
 40
0.925615406
 40
0.9308293801
 40
0.935861322
 40
0.9407121007
 40
0.9453831132
 40
0.9498763212
 40
0.9541942469
 40
0.9583401792
 40
0.9623181651
 40
0.9661331254
 40
0.9697910493
 40
0.9732990064
 40
0.9766653582
 40
0.9798998867
 40
0.9830138495
 40
0.9860201614
 40
0.988933379
 40
0.9917696733
 40
0.9945467499
 40
0.9972835631
 40
1.0
 40
1.0
 40
1.0
 40
1.0
 10
12.6811939995
 20
8.6601675816
 30
0.0
 10
12.6819348848
 20
8.6608832218
 30
0.0
 10
12.6834158536
 20
8.6623783215
 30
0.0
 10
12.685590876
 20
8.6647561574
 30
0.0
 10
12.687763628
 20
8.6673136717
 30
0.0
 10
12.6899328857
 20
8.6700494788
 30
0.0
 10
12.6920976592
 20
8.6729622038
 30
0.0
 10
12.69425688
 20
8.6760504578
 30
0.0
 10
12.696409545
 20
8.6793127219
 30
0.0
 10
12.6993193225
 20
8.6839720454
 30
0.0
 10
12.7029246253
 20
8.6902292311
 30
0.0
 10
12.7071370531
 20
8.6982806913
 30
0.0
 10
12.7112979484
 20
8.7069824486
 30
0.0
 10
12.7153989618
 20
8.7163171932
 30
0.0
 10
12.7194318642
 20
8.7262664941
 30
0.0
 10
12.7233885402
 20
8.7368105424
 30
0.0
 10
12.7272610056
 20
8.7479283111
 30
0.0
 10
12.7310414313
 20
8.7595975837
 30
0.0
 10
12.734722175
 20
8.7717950012
 30
0.0
 10
12.7382958073
 20
8.7844961116
 30
0.0
 10
12.7417551061
 20
8.7976754378
 30
0.0
 10
12.7450930745
 20
8.8113065321
 30
0.0
 10
12.7483029694
 20
8.8253620217
 30
0.0
 10
12.7513783157
 20
8.8398136661
 30
0.0
 10
12.7543129055
 20
8.8546324276
 30
0.0
 10
12.757100801
 20
8.8697885206
 30
0.0
 10
12.759736403
 20
8.8852514996
 30
0.0
 10
12.7630617232
 20
8.9063726507
 30
0.0
 10
12.7667926247
 20
8.933311257
 30
0.0
 10
12.7705587407
 20
8.9661471295
 30
0.0
 10
12.7736117121
 20
8.9994345582
 30
0.0
 10
12.7759269271
 20
9.032906017
 30
0.0
 10
12.7774858027
 20
9.0662927245
 30
0.0
 10
12.7782758716
 20
9.0993263476
 30
0.0
 10
12.7782887503
 20
9.1265128737
 30
0.0
 10
12.7779023525
 20
9.1478813836
 30
0.0
 10
12.7774202116
 20
9.1635515444
 30
0.0
 10
12.7767449142
 20
9.1789377759
 30
0.0
 10
12.7758778112
 20
9.1940091698
 30
0.0
 10
12.7748206852
 20
9.2087354267
 30
0.0
 10
12.7735756902
 20
9.223086955
 30
0.0
 10
12.7721453561
 20
9.2370349164
 30
0.0
 10
12.7705325893
 20
9.2505512949
 30
0.0
 10
12.7687406826
 20
9.2636089591
 30
0.0
 10
12.766773285
 20
9.2761817119
 30
0.0
 10
12.7646343937
 20
9.2882443426
 30
0.0
 10
12.7623283581
 20
9.2997726933
 30
0.0
 10
12.7598598789
 20
9.3107437157
 30
0.0
 10
12.7572339728
 20
9.3211355228
 30
0.0
 10
12.7544559552
 20
9.3309274144
 30
0.0
 10
12.7515314356
 20
9.3401000411
 30
0.0
 10
12.748466301
 20
9.3486351454
 30
0.0
 10
12.7457555605
 20
9.3553123115
 30
0.0
 10
12.7435139474
 20
9.3603141557
 30
0.0
 10
12.7418302165
 20
9.36383138
 30
0.0
 10
12.7401160019
 20
9.3671770626
 30
0.0
 10
12.7383721244
 20
9.3703495544
 30
0.0
 10
12.7365994708
 20
9.3733473037
 30
0.0
 10
12.734798845
 20
9.3761688086
 30
0.0
 10
12.7329711431
 20
9.3788126994
 30
0.0
 10
12.7311172229
 20
9.3812776778
 30
0.0
 10
12.7292379026
 20
9.3835624972
 30
0.0
 10
12.7273340853
 20
9.3856660571
 30
0.0
 10
12.7254065818
 20
9.3875872669
 30
0.0
 10
12.72345623
 20
9.3893251148
 30
0.0
 10
12.7214839086
 20
9.3908786951
 30
0.0
 10
12.7194904212
 20
9.3922470439
 30
0.0
 10
12.7174766835
 20
9.3934293256
 30
0.0
 10
12.7154436298
 20
9.3944247226
 30
0.0
 10
12.7133922673
 20
9.3952323783
 30
0.0
 10
12.711323696
 20
9.3958516646
 30
0.0
 10
12.7092393648
 20
9.3962819314
 30
0.0
 10
12.7078379146
 20
9.3964427031
 30
0.0
 10
12.7071380234
 20
9.3964912411
 30
0.0
  0
SPLINE
  5
392
100
AcDbEntity
  8
0
100
AcDbSpline
 62
7
  6
CONTINUOUS
 70
0
 71
3
 72
19
 73
15
 74
0
 42
0.0000001
 43
0.0000001
 44
0.0000000001
 40
0.0
 40
0.0
 40
0.0
 40
0.0
 40
0.1504611406
 40
0.2916985742
 40
0.4244193292
 40
0.4878835935
 40
0.5495802133
 40
0.6682271463
 40
0.7255606136
 40
0.7817999183
 40
0.8371467056
 40
0.8918136429
 40
0.9460222308
 40
1.0
 40
1.0
 40
1.0
 40
1.0
 10
12.7507406639
 20
8.4428408097
 30
0.0
 10
12.7490585478
 20
8.4412160102
 30
0.0
 10
12.7456966385
 20
8.438167427
 30
0.0
 10
12.7404910412
 20
8.4341048453
 30
0.0
 10
12.7360941038
 20
8.4312315532
 30
0.0
 10
12.7325878195
 20
8.429285842
 30
0.0
 10
12.7291849803
 20
8.4276153958
 30
0.0
 10
12.7257422949
 20
8.4262499638
 30
0.0
 10
12.7222802448
 20
8.4252224577
 30
0.0
 10
12.7197204995
 20
8.4246301895
 30
0.0
 10
12.7171692726
 20
8.424208055
 30
0.0
 10
12.7146272426
 20
8.4239562383
 30
0.0
 10
12.7120954346
 20
8.4238748437
 30
0.0
 10
12.7104133729
 20
8.4239343246
 30
0.0
 10
12.7095763793
 20
8.4239923675
 30
0.0
  0
SPLINE
  5
393
100
AcDbEntity
  8
0
100
AcDbSpline
 62
7
  6
CONTINUOUS
 70
0
 71
3
 72
79
 73
75
 74
0
 42
0.0000001
 43
0.0000001
 44
0.0000000001
 40
0.0
 40
0.0
 40
0.0
 40
0.0
 40
0.0069315574
 40
0.0105986767
 40
0.0144066877
 40
0.0183600657
 40
0.022462566
 40
0.026717331
 40
0.0311268813
 40
0.0356932613
 40
0.0404180349
 40
0.0453023372
 40
0.0503469664
 40
0.0555523326
 40
0.060918574
 40
0.06644554
 40
0.0721328008
 40
0.0839850491
 40
0.0964680903
 40
0.1095712258
 40
0.1232811587
 40
0.1375823026
 40
0.1524570208
 40
0.1678858364
 40
0.1838476189
 40
0.2003197345
 40
0.2172781737
 40
0.2346976581
 40
0.252551756
 40
0.2708129854
 40
0.2894529036
 40
0.308442189
 40
0.327750719
 40
0.3473476593
 40
0.3672015419
 40
0.3872803383
 40
0.4075515304
 40
0.4485384014
 40
0.4898957113
 40
0.531353215
 40
0.572639826
 40
0.6134858936
 40
0.6336607498
 40
0.6536261848
 40
0.6733499231
 40
0.6928002158
 40
0.711945919
 40
0.7307565654
 40
0.7492024402
 40
0.7672546618
 40
0.7848852768
 40
0.8020673462
 40
0.818775033
 40
0.8349837026
 40
0.8506700379
 40
0.8658121762
 40
0.8803898387
 40
0.8943844882
 40
0.90777952
 40
0.9205605005
 40
0.9327154537
 40
0.944235197
 40
0.949755112
 40
0.9551143006
 40
0.9603126017
 40
0.9653501843
 40
0.9702274804
 40
0.9749452775
 40
0.9795047293
 40
0.9839073988
 40
0.9881554274
 40
0.9922514367
 40
0.9961984568
 40
1.0
 40
1.0
 40
1.0
 40
1.0
 10
11.3420638879
 20
10.6348431395
 30
0.0
 10
11.3401743136
 20
10.6372568867
 30
0.0
 10
11.3370840284
 20
10.6407937899
 30
0.0
 10
11.332584042
 20
10.6453053295
 30
0.0
 10
11.3288676925
 20
10.6487329939
 30
0.0
 10
11.3248755767
 20
10.6521392378
 30
0.0
 10
11.3206091603
 20
10.6555229296
 30
0.0
 10
11.3160703305
 20
10.6588825303
 30
0.0
 10
11.3112610622
 20
10.6622167048
 30
0.0
 10
11.3061834118
 20
10.6655239882
 30
0.0
 10
11.3008395782
 20
10.6688029753
 30
0.0
 10
11.2952318859
 20
10.6720522862
 30
0.0
 10
11.2893627407
 20
10.675270464
 30
0.0
 10
11.2832347114
 20
10.6784561698
 30
0.0
 10
11.2768504496
 20
10.6816079831
 30
0.0
 10
11.2702127226
 20
10.6847245536
 30
0.0
 10
11.2608998845
 20
10.6888885391
 30
0.0
 10
11.2486370498
 20
10.6939852677
 30
0.0
 10
11.2331545056
 20
10.699858295
 30
0.0
 10
11.2167356934
 20
10.7055591904
 30
0.0
 10
11.1994092626
 20
10.7110779375
 30
0.0
 10
11.1812052779
 20
10.7164048268
 30
0.0
 10
11.1621554646
 20
10.7215304777
 30
0.0
 10
11.1422930552
 20
10.7264458647
 30
0.0
 10
11.1216527382
 20
10.7311423239
 30
0.0
 10
11.1002705828
 20
10.7356115758
 30
0.0
 10
11.078183979
 20
10.739845736
 30
0.0
 10
11.0554315724
 20
10.7438373469
 30
0.0
 10
11.0320531899
 20
10.7475793782
 30
0.0
 10
11.0080897616
 20
10.751065237
 30
0.0
 10
10.9835832479
 20
10.7542887802
 30
0.0
 10
10.9585765701
 20
10.7572443261
 30
0.0
 10
10.9331135361
 20
10.7599266763
 30
0.0
 10
10.9072387544
 20
10.7623311116
 30
0.0
 10
10.8809975682
 20
10.7644533921
 30
0.0
 10
10.8544359167
 20
10.7662898032
 30
0.0
 10
10.8185246592
 20
10.768360287
 30
0.0
 10
10.7731777377
 20
10.7702067208
 30
0.0
 10
10.7184334407
 20
10.7712369543
 30
0.0
 10
10.6635469445
 20
10.7710822136
 30
0.0
 10
10.6089028625
 20
10.7697436207
 30
0.0
 10
10.5637033292
 20
10.7676411191
 30
0.0
 10
10.5279596854
 20
10.7653671888
 30
0.0
 10
10.501559507
 20
10.763381129
 30
0.0
 10
10.4755038677
 20
10.7611110882
 30
0.0
 10
10.4498383829
 20
10.7585610341
 30
0.0
 10
10.4246080262
 20
10.7557354687
 30
0.0
 10
10.3998569921
 20
10.7526393657
 30
0.0
 10
10.3756286371
 20
10.749278177
 30
0.0
 10
10.3519653959
 20
10.7456578164
 30
0.0
 10
10.3289087016
 20
10.7417846644
 30
0.0
 10
10.3064989116
 20
10.7376655495
 30
0.0
 10
10.2847752412
 20
10.7333077308
 30
0.0
 10
10.2637756937
 20
10.7287188868
 30
0.0
 10
10.2435369859
 20
10.7239071003
 30
0.0
 10
10.2240944717
 20
10.7188808589
 30
0.0
 10
10.2054820824
 20
10.713649023
 30
0.0
 10
10.1877322593
 20
10.7082208084
 30
0.0
 10
10.1708759147
 20
10.7026057653
 30
0.0
 10
10.1549422621
 20
10.6968137515
 30
0.0
 10
10.139959076
 20
10.6908549421
 30
0.0
 10
10.1281238459
 20
10.6856880511
 30
0.0
 10
10.1191603938
 20
10.6814704162
 30
0.0
 10
10.1127873072
 20
10.6783170798
 30
0.0
 10
10.1066705888
 20
10.6751299192
 30
0.0
 10
10.1008128618
 20
10.6719103419
 30
0.0
 10
10.0952166889
 20
10.6686597026
 30
0.0
 10
10.0898844964
 20
10.6653794276
 30
0.0
 10
10.0848185868
 20
10.6620709632
 30
0.0
 10
10.0800211583
 20
10.6587356588
 30
0.0
 10
10.0754942171
 20
10.655374947
 30
0.0
 10
10.071239718
 20
10.6519901634
 30
0.0
 10
10.0672596898
 20
10.6485829342
 30
0.0
 10
10.0647440574
 20
10.6462545183
 30
0.0
 10
10.0635348559
 20
10.6450865193
 30
0.0
  0
SPLINE
  5
394
100
AcDbEntity
  8
0
100
AcDbSpline
 62
7
  6
CONTINUOUS
 70
0
 71
3
 72
54
 73
50
 74
0
 42
0.0000001
 43
0.0000001
 44
0.0000000001
 40
0.0
 40
0.0
 40
0.0
 40
0.0
 40
0.0099472337
 40
0.0203698704
 40
0.0312644864
 40
0.0426260491
 40
0.0544480896
 40
0.0667227976
 40
0.0794412503
 40
0.0925934343
 40
0.1061683672
 40
0.1201542188
 40
0.1345382898
 40
0.1493071622
 40
0.1644467127
 40
0.1799421393
 40
0.1957780755
 40
0.2119385556
 40
0.2451662193
 40
0.2794882552
 40
0.3147604925
 40
0.3508330981
 40
0.3875515635
 40
0.424757678
 40
0.4622904654
 40
0.4999871083
 40
0.5376838689
 40
0.5752170109
 40
0.6124237148
 40
0.6491429955
 40
0.6852166394
 40
0.7204901413
 40
0.7548136583
 40
0.7880429977
 40
0.8200406729
 40
0.8355371161
 40
0.8506777018
 40
0.8654476672
 40
0.8798328731
 40
0.8938198766
 40
0.9073960261
 40
0.9205494374
 40
0.9332691503
 40
0.9455451651
 40
0.9573685051
 40
0.9687314146
 40
0.9796273864
 40
0.9900513765
 40
1.0
 40
1.0
 40
1.0
 40
1.0
 10
11.1774439653
 20
10.5524432501
 30
0.0
 10
11.1745450543
 20
10.5538889378
 30
0.0
 10
11.1685579462
 20
10.5567484948
 30
0.0
 10
11.1592410033
 20
10.5608576283
 30
0.0
 10
11.1493879443
 20
10.5648824088
 30
0.0
 10
11.1390102443
 20
10.5688180939
 30
0.0
 10
11.1281198263
 20
10.5726601046
 30
0.0
 10
11.1167292957
 20
10.5764039975
 30
0.0
 10
11.1048518258
 20
10.5800453738
 30
0.0
 10
11.0925011833
 20
10.5835799934
 30
0.0
 10
11.0796916947
 20
10.5870037428
 30
0.0
 10
11.0664382234
 20
10.5903125883
 30
0.0
 10
11.052756166
 20
10.5935026956
 30
0.0
 10
11.0386614189
 20
10.5965703217
 30
0.0
 10
11.0241703628
 20
10.5995118733
 30
0.0
 10
11.0092998532
 20
10.6023239339
 30
0.0
 10
10.9940671643
 20
10.6050032105
 30
0.0
 10
10.9731035509
 20
10.6084259694
 30
0.0
 10
10.9461222955
 20
10.6123388411
 30
0.0
 10
10.9128843023
 20
10.6164169246
 30
0.0
 10
10.8786474572
 20
10.6199006838
 30
0.0
 10
10.8435710575
 20
10.6227737469
 30
0.0
 10
10.8078181659
 20
10.6250225914
 30
0.0
 10
10.7715550826
 20
10.6266366428
 30
0.0
 10
10.7349504897
 20
10.6276083078
 30
0.0
 10
10.6981746782
 20
10.6279330124
 30
0.0
 10
10.661398743
 20
10.627609237
 30
0.0
 10
10.6247937797
 20
10.6266385057
 30
0.0
 10
10.588530081
 20
10.6250253809
 30
0.0
 10
10.5527763382
 20
10.6227774403
 30
0.0
 10
10.5176988377
 20
10.6199052638
 30
0.0
 10
10.4834607003
 20
10.616422368
 30
0.0
 10
10.4502210286
 20
10.6123451623
 30
0.0
 10
10.4181344397
 20
10.6076928103
 30
0.0
 10
10.3922112365
 20
10.6033094907
 30
0.0
 10
10.3721682854
 20
10.5995201881
 30
0.0
 10
10.3576761023
 20
10.5965789719
 30
0.0
 10
10.3435801915
 20
10.5935117142
 30
0.0
 10
10.3298969202
 20
10.5903219614
 30
0.0
 10
10.3166421939
 20
10.5870134347
 30
0.0
 10
10.3038314014
 20
10.5835900297
 30
0.0
 10
10.2914794171
 20
10.5800557146
 30
0.0
 10
10.2796005646
 20
10.5764146336
 30
0.0
 10
10.2682086075
 20
10.5726710491
 30
0.0
 10
10.2573167351
 20
10.5688292925
 30
0.0
 10
10.246937537
 20
10.5648938839
 30
0.0
 10
10.2370829472
 20
10.5608693581
 30
0.0
 10
10.2277644523
 20
10.5567604379
 30
0.0
 10
10.2217762666
 20
10.5539010655
 30
0.0
 10
10.2188768132
 20
10.5524554515
 30
0.0
  0
SPLINE
  5
395
100
AcDbEntity
  8
0
100
AcDbSpline
 62
7
  6
CONTINUOUS
 70
0
 71
3
 72
23
 73
19
 74
0
 42
0.0000001
 43
0.0000001
 44
0.0000000001
 40
0.0
 40
0.0
 40
0.0
 40
0.0
 40
0.0637774716
 40
0.1273446947
 40
0.1907020108
 40
0.2538561385
 40
0.3168131788
 40
0.379582097
 40
0.4421733871
 40
0.5045993393
 40
0.5668738666
 40
0.62901238
 40
0.6910316508
 40
0.7529496465
 40
0.8147853569
 40
0.8765586065
 40
0.938289857
 40
1.0
 40
1.0
 40
1.0
 40
1.0
 10
10.079026649
 20
7.6727750443
 30
0.0
 10
10.079026649
 20
7.6795637289
 30
0.0
 10
10.0793515671
 20
7.6931210197
 30
0.0
 10
10.0808181681
 20
7.7133745152
 30
0.0
 10
10.0832600116
 20
7.7334674193
 30
0.0
 10
10.0866713453
 20
7.7533526682
 30
0.0
 10
10.091044474
 20
7.7729847138
 30
0.0
 10
10.096369306
 20
7.792318204
 30
0.0
 10
10.1026336428
 20
7.8113085868
 30
0.0
 10
10.1098230725
 20
7.8299120647
 30
0.0
 10
10.117921052
 20
7.8480857367
 30
0.0
 10
10.1269089426
 20
7.8657876862
 30
0.0
 10
10.1367660464
 20
7.8829770763
 30
0.0
 10
10.1474696696
 20
7.8996142595
 30
0.0
 10
10.1589951184
 20
7.9156608127
 30
0.0
 10
10.1713159576
 20
7.9310798407
 30
0.0
 10
10.1844032821
 20
7.9458352962
 30
0.0
 10
10.1936207785
 20
7.9552089163
 30
0.0
 10
10.1983452946
 20
7.9597724528
 30
0.0
  0
SPLINE
  5
396
100
AcDbEntity
  8
0
100
AcDbSpline
 62
7
  6
CONTINUOUS
 70
0
 71
3
 72
21
 73
17
 74
0
 42
0.0000001
 43
0.0000001
 44
0.0000000001
 40
0.0
 40
0.0
 40
0.0
 40
0.0
 40
0.1273175725
 40
0.2538000026
 40
0.3167619332
 40
0.3795354925
 40
0.4421314982
 40
0.5045621433
 40
0.5668413429
 40
0.6289845306
 40
0.6910084612
 40
0.7529311022
 40
0.8147714553
 40
0.8765493457
 40
0.9382852283
 40
1.0
 40
1.0
 40
1.0
 40
1.0
 10
11.1454088244
 20
10.0744891937
 30
0.0
 10
11.1454088244
 20
10.0809875201
 30
0.0
 10
11.1460291319
 20
10.0939499105
 30
0.0
 10
11.148371811
 20
10.1099742273
 30
0.0
 10
11.1511718506
 20
10.1225439067
 30
0.0
 10
11.153725338
 20
10.1318153033
 30
0.0
 10
11.1567293239
 20
10.1409219726
 30
0.0
 10
11.1601769593
 20
10.1498431517
 30
0.0
 10
11.1640602637
 20
10.1585582142
 30
0.0
 10
11.1683703061
 20
10.167047078
 30
0.0
 10
11.1730971999
 20
10.1752901339
 30
0.0
 10
11.1782300287
 20
10.1832683871
 30
0.0
 10
11.1837569365
 20
10.1909634248
 30
0.0
 10
11.1896652768
 20
10.1983575346
 30
0.0
 10
11.1959411939
 20
10.2054334212
 30
0.0
 10
11.200361344
 20
10.2099285075
 30
0.0
 10
11.202626947
 20
10.2121169238
 30
0.0
  0
SPLINE
  5
397
100
AcDbEntity
  8
0
100
AcDbSpline
 62
4
  6
CONTINUOUS
 70
0
 71
3
 72
387
 73
383
 74
0
 42
0.0000001
 43
0.0000001
 44
0.0000000001
 40
0.0
 40
0.0
 40
0.0
 40
0.0
 40
0.015625
 40
0.0234375
 40
0.03125
 40
0.0390625
 40
0.04296875
 40
0.046875
 40
0.05078125
 40
0.0546875
 40
0.056640625
 40
0.05859375
 40
0.0595703125
 40
0.060546875
 40
0.0615234375
 40
0.0620117188
 40
0.0625
 40
0.0629882812
 40
0.0634765625
 40
0.064453125
 40
0.0654296875
 40
0.06640625
 40
0.068359375
 40
0.0703125
 40
0.07421875
 40
0.078125
 40
0.08203125
 40
0.0859375
 40
0.09375
 40
0.1015625
 40
0.10546875
 40
0.109375
 40
0.11328125
 40
0.1171875
 40
0.119140625
 40
0.12109375
 40
0.1220703125
 40
0.123046875
 40
0.1240234375
 40
0.1245117188
 40
0.1247558594
 40
0.125
 40
0.1252441406
 40
0.1254882812
 40
0.1259765625
 40
0.126953125
 40
0.1279296875
 40
0.12890625
 40
0.130859375
 40
0.1328125
 40
0.13671875
 40
0.140625
 40
0.14453125
 40
0.1484375
 40
0.15625
 40
0.1640625
 40
0.16796875
 40
0.171875
 40
0.17578125
 40
0.1796875
 40
0.181640625
 40
0.18359375
 40
0.1845703125
 40
0.185546875
 40
0.1865234375
 40
0.1870117188
 40
0.1872558594
 40
0.1875
 40
0.1877441406
 40
0.1879882812
 40
0.1884765625
 40
0.189453125
 40
0.1904296875
 40
0.19140625
 40
0.193359375
 40
0.1953125
 40
0.19921875
 40
0.203125
 40
0.20703125
 40
0.2109375
 40
0.21875
 40
0.2265625
 40
0.23046875
 40
0.234375
 40
0.23828125
 40
0.2421875
 40
0.244140625
 40
0.24609375
 40
0.2470703125
 40
0.248046875
 40
0.2490234375
 40
0.2495117188
 40
0.2497558594
 40
0.25
 40
0.2502441406
 40
0.2504882812
 40
0.2509765625
 40
0.251953125
 40
0.2529296875
 40
0.25390625
 40
0.255859375
 40
0.2578125
 40
0.26171875
 40
0.265625
 40
0.26953125
 40
0.2734375
 40
0.28125
 40
0.2890625
 40
0.29296875
 40
0.296875
 40
0.30078125
 40
0.3046875
 40
0.306640625
 40
0.30859375
 40
0.3095703125
 40
0.310546875
 40
0.3115234375
 40
0.3120117188
 40
0.3122558594
 40
0.3125
 40
0.3127441406
 40
0.3129882812
 40
0.3134765625
 40
0.314453125
 40
0.3154296875
 40
0.31640625
 40
0.318359375
 40
0.3203125
 40
0.32421875
 40
0.328125
 40
0.33203125
 40
0.3359375
 40
0.34375
 40
0.3515625
 40
0.35546875
 40
0.359375
 40
0.36328125
 40
0.3671875
 40
0.369140625
 40
0.37109375
 40
0.3720703125
 40
0.373046875
 40
0.3740234375
 40
0.3745117188
 40
0.3747558594
 40
0.375
 40
0.3752441406
 40
0.3754882812
 40
0.3759765625
 40
0.376953125
 40
0.3779296875
 40
0.37890625
 40
0.380859375
 40
0.3828125
 40
0.38671875
 40
0.390625
 40
0.39453125
 40
0.3984375
 40
0.40625
 40
0.4140625
 40
0.41796875
 40
0.421875
 40
0.42578125
 40
0.4296875
 40
0.431640625
 40
0.43359375
 40
0.4345703125
 40
0.435546875
 40
0.4365234375
 40
0.4370117188
 40
0.4372558594
 40
0.4375
 40
0.4377441406
 40
0.4379882812
 40
0.4384765625
 40
0.439453125
 40
0.4404296875
 40
0.44140625
 40
0.443359375
 40
0.4453125
 40
0.44921875
 40
0.453125
 40
0.45703125
 40
0.4609375
 40
0.46875
 40
0.4765625
 40
0.48046875
 40
0.484375
 40
0.48828125
 40
0.4921875
 40
0.494140625
 40
0.49609375
 40
0.4970703125
 40
0.498046875
 40
0.4990234375
 40
0.4995117188
 40
0.4997558594
 40
0.5
 40
0.5002441406
 40
0.5004882812
 40
0.5009765625
 40
0.501953125
 40
0.5029296875
 40
0.50390625
 40
0.505859375
 40
0.5078125
 40
0.51171875
 40
0.515625
 40
0.51953125
 40
0.5234375
 40
0.53125
 40
0.5390625
 40
0.54296875
 40
0.546875
 40
0.55078125
 40
0.5546875
 40
0.556640625
 40
0.55859375
 40
0.5595703125
 40
0.560546875
 40
0.5615234375
 40
0.5620117188
 40
0.5625
 40
0.5629882812
 40
0.5634765625
 40
0.564453125
 40
0.5654296875
 40
0.56640625
 40
0.568359375
 40
0.5703125
 40
0.57421875
 40
0.578125
 40
0.58203125
 40
0.5859375
 40
0.59375
 40
0.6015625
 40
0.60546875
 40
0.609375
 40
0.61328125
 40
0.6171875
 40
0.619140625
 40
0.62109375
 40
0.6220703125
 40
0.623046875
 40
0.6240234375
 40
0.6245117188
 40
0.625
 40
0.6254882812
 40
0.6259765625
 40
0.626953125
 40
0.6279296875
 40
0.62890625
 40
0.630859375
 40
0.6328125
 40
0.63671875
 40
0.640625
 40
0.64453125
 40
0.6484375
 40
0.65625
 40
0.6640625
 40
0.66796875
 40
0.671875
 40
0.67578125
 40
0.6796875
 40
0.681640625
 40
0.68359375
 40
0.6845703125
 40
0.685546875
 40
0.6865234375
 40
0.6870117188
 40
0.6875
 40
0.6879882812
 40
0.6884765625
 40
0.689453125
 40
0.6904296875
 40
0.69140625
 40
0.693359375
 40
0.6953125
 40
0.69921875
 40
0.703125
 40
0.70703125
 40
0.7109375
 40
0.71875
 40
0.7265625
 40
0.73046875
 40
0.734375
 40
0.73828125
 40
0.7421875
 40
0.744140625
 40
0.74609375
 40
0.7470703125
 40
0.748046875
 40
0.7490234375
 40
0.7495117188
 40
0.75
 40
0.7504882812
 40
0.7509765625
 40
0.751953125
 40
0.7529296875
 40
0.75390625
 40
0.755859375
 40
0.7578125
 40
0.76171875
 40
0.765625
 40
0.76953125
 40
0.7734375
 40
0.78125
 40
0.7890625
 40
0.79296875
 40
0.796875
 40
0.80078125
 40
0.8046875
 40
0.806640625
 40
0.80859375
 40
0.8095703125
 40
0.810546875
 40
0.8115234375
 40
0.8120117188
 40
0.8125
 40
0.8129882812
 40
0.8134765625
 40
0.814453125
 40
0.8154296875
 40
0.81640625
 40
0.818359375
 40
0.8203125
 40
0.82421875
 40
0.828125
 40
0.83203125
 40
0.8359375
 40
0.84375
 40
0.8515625
 40
0.85546875
 40
0.859375
 40
0.86328125
 40
0.8671875
 40
0.869140625
 40
0.87109375
 40
0.8720703125
 40
0.873046875
 40
0.8740234375
 40
0.8745117188
 40
0.875
 40
0.8754882812
 40
0.8759765625
 40
0.876953125
 40
0.8779296875
 40
0.87890625
 40
0.880859375
 40
0.8828125
 40
0.88671875
 40
0.890625
 40
0.89453125
 40
0.8984375
 40
0.90625
 40
0.9140625
 40
0.91796875
 40
0.921875
 40
0.92578125
 40
0.9296875
 40
0.931640625
 40
0.93359375
 40
0.9345703125
 40
0.935546875
 40
0.9365234375
 40
0.9370117188
 40
0.9375
 40
0.9379882812
 40
0.9384765625
 40
0.939453125
 40
0.9404296875
 40
0.94140625
 40
0.943359375
 40
0.9453125
 40
0.94921875
 40
0.953125
 40
0.95703125
 40
0.9609375
 40
0.96875
 40
0.9765625
 40
0.984375
 40
1.0
 40
1.0
 40
1.0
 40
1.0
 10
10.3539291327
 20
9.1099403052
 30
0.0
 10
10.3570623197
 20
9.1100302296
 30
0.0
 10
10.3617621
 20
9.1101651162
 30
0.0
 10
10.3680284739
 20
9.1103449651
 30
0.0
 10
10.3727282543
 20
9.1104798516
 30
0.0
 10
10.3766447378
 20
9.1105922575
 30
0.0
 10
10.3797779249
 20
9.110682181
 30
0.0
 10
10.3821278146
 20
9.1107496271
 30
0.0
 10
10.3844777068
 20
9.1108170599
 30
0.0
 10
10.3864359422
 20
9.1108732955
 30
0.0
 10
10.3880025487
 20
9.1109181908
 30
0.0
 10
10.3889816364
 20
9.1109464623
 30
0.0
 10
10.3897650014
 20
9.1109685942
 30
0.0
 10
10.3903522655
 20
9.1109865219
 30
0.0
 10
10.3908424779
 20
9.1109972348
 30
0.0
 10
10.3912327962
 20
9.111015285
 30
0.0
 10
10.3915305945
 20
9.1110029193
 30
0.0
 10
10.3918090805
 20
9.1110894269
 30
0.0
 10
10.3921871411
 20
9.1111702326
 30
0.0
 10
10.3926574024
 20
9.1112830895
 30
0.0
 10
10.3932227067
 20
9.1114134457
 30
0.0
 10
10.3939760997
 20
9.1115890255
 30
0.0
 10
10.3949179594
 20
9.1118078936
 30
0.0
 10
10.3964248688
 20
9.1121584218
 30
0.0
 10
10.3983085282
 20
9.1125964656
 30
0.0
 10
10.4005689097
 20
9.113122168
 30
0.0
 10
10.4028292939
 20
9.1136478571
 30
0.0
 10
10.4058431385
 20
9.1143487806
 30
0.0
 10
10.4096104446
 20
9.1152249334
 30
0.0
 10
10.4133777506
 20
9.1161010865
 30
0.0
 10
10.4163915953
 20
9.1168020094
 30
0.0
 10
10.4186519793
 20
9.1173277003
 30
0.0
 10
10.4209123614
 20
9.1178533958
 30
0.0
 10
10.4227960189
 20
9.1182914613
 30
0.0
 10
10.4243029322
 20
9.1186419452
 30
0.0
 10
10.4252447818
 20
9.1188609259
 30
0.0
 10
10.4259981956
 20
9.1190362748
 30
0.0
 10
10.4265634364
 20
9.1191673363
 30
0.0
 10
10.4270338963
 20
9.1192779866
 30
0.0
 10
10.4273643448
 20
9.1193526306
 30
0.0
 10
10.4275514136
 20
9.1193996738
 30
0.0
 10
10.4276966701
 20
9.119422591
 30
0.0
 10
10.4278229863
 20
9.1194927744
 30
0.0
 10
10.4279980145
 20
9.1195698653
 30
0.0
 10
10.4283012356
 20
9.1197124559
 30
0.0
 10
10.428736018
 20
9.1199121408
 30
0.0
 10
10.4292570681
 20
9.1201534816
 30
0.0
 10
10.4299520421
 20
9.1204746689
 30
0.0
 10
10.4308206772
 20
9.1208763587
 30
0.0
 10
10.4322105394
 20
9.1215189474
 30
0.0
 10
10.4339478514
 20
9.1223222227
 30
0.0
 10
10.4360326325
 20
9.1232861362
 30
0.0
 10
10.4381174118
 20
9.1242500543
 30
0.0
 10
10.4408971182
 20
9.1255352767
 30
0.0
 10
10.444371751
 20
9.1271418053
 30
0.0
 10
10.4478463839
 20
9.1287483336
 30
0.0
 10
10.45062609
 20
9.1300335567
 30
0.0
 10
10.4527108702
 20
9.1309974728
 30
0.0
 10
10.4547956481
 20
9.1319613934
 30
0.0
 10
10.4565329702
 20
9.1327646467
 30
0.0
 10
10.4579228117
 20
9.1334072803
 30
0.0
 10
10.4587914995
 20
9.1338088559
 30
0.0
 10
10.4594863653
 20
9.1341302775
 30
0.0
 10
10.460007746
 20
9.1343709027
 30
0.0
 10
10.460441494
 20
9.1345728267
 30
0.0
 10
10.4607465617
 20
9.13471142
 30
0.0
 10
10.4609186313
 20
9.1347949156
 30
0.0
 10
10.4610540351
 20
9.1348454255
 30
0.0
 10
10.4611651601
 20
9.1349422331
 30
0.0
 10
10.4613217955
 20
9.1350551607
 30
0.0
 10
10.4615919617
 20
9.1352603081
 30
0.0
 10
10.4619799763
 20
9.1355494421
 30
0.0
 10
10.4624447108
 20
9.1358980867
 30
0.0
 10
10.4630646652
 20
9.1363623581
 30
0.0
 10
10.4638395026
 20
9.1369428987
 30
0.0
 10
10.4650793016
 20
9.1378716511
 30
0.0
 10
10.4666290299
 20
9.1390326302
 30
0.0
 10
10.4684887127
 20
9.1404257886
 30
0.0
 10
10.4703483931
 20
9.1418189514
 30
0.0
 10
10.4728279678
 20
9.1436765003
 30
0.0
 10
10.4759274359
 20
9.1459984369
 30
0.0
 10
10.4790269042
 20
9.1483203732
 30
0.0
 10
10.4815064785
 20
9.1501779226
 30
0.0
 10
10.4833661602
 20
9.1515710838
 30
0.0
 10
10.4852258382
 20
9.1529642484
 30
0.0
 10
10.4867755814
 20
9.1541252083
 30
0.0
 10
10.48801535
 20
9.1550539998
 30
0.0
 10
10.4887902646
 20
9.1556344408
 30
0.0
 10
10.4894100607
 20
9.1560989166
 30
0.0
 10
10.4898752788
 20
9.1564469369
 30
0.0
 10
10.4902617805
 20
9.1567380242
 30
0.0
 10
10.4905346474
 20
9.1569396847
 30
0.0
 10
10.4906869556
 20
9.1570581992
 30
0.0
 10
10.4908113724
 20
9.1571378455
 30
0.0
 10
10.4908968544
 20
9.15725281
 30
0.0
 10
10.4910244112
 20
9.1573937767
 30
0.0
 10
10.4912413082
 20
9.1576462081
 30
0.0
 10
10.4915544691
 20
9.1580038237
 30
0.0
 10
10.4919288462
 20
9.1584342467
 30
0.0
 10
10.4924285102
 20
9.1590076956
 30
0.0
 10
10.493052921
 20
9.1597246602
 30
0.0
 10
10.4940520728
 20
9.1608717177
 30
0.0
 10
10.49530098
 20
9.1623055691
 30
0.0
 10
10.4967996827
 20
9.1640261781
 30
0.0
 10
10.4982983816
 20
9.1657467905
 30
0.0
 10
10.5002966481
 20
9.1680409392
 30
0.0
 10
10.5027944808
 20
9.1709086255
 30
0.0
 10
10.5052923138
 20
9.1737763116
 30
0.0
 10
10.5072905798
 20
9.1760704607
 30
0.0
 10
10.5087892803
 20
9.1777910718
 30
0.0
 10
10.5102879769
 20
9.1795116858
 30
0.0
 10
10.511536903
 20
9.1809455217
 30
0.0
 10
10.5125360163
 20
9.1820926108
 30
0.0
 10
10.5131605249
 20
9.1828094951
 30
0.0
 10
10.5136599881
 20
9.1833831087
 30
0.0
 10
10.5140349789
 20
9.1838130283
 30
0.0
 10
10.5143462196
 20
9.1841722193
 30
0.0
 10
10.5145665445
 20
9.1844218382
 30
0.0
 10
10.5146886089
 20
9.1845673113
 30
0.0
 10
10.5147909622
 20
9.1846684334
 30
0.0
 10
10.5148520131
 20
9.1848000694
 30
0.0
 10
10.514947821
 20
9.1849649406
 30
0.0
 10
10.5151087725
 20
9.1852584241
 30
0.0
 10
10.5153422125
 20
9.1856750936
 30
0.0
 10
10.5156208385
 20
9.1861762067
 30
0.0
 10
10.5159928644
 20
9.1868439699
 30
0.0
 10
10.5164577172
 20
9.1876788067
 30
0.0
 10
10.517201582
 20
9.1890144713
 30
0.0
 10
10.5181313785
 20
9.1906840775
 30
0.0
 10
10.5192471492
 20
9.1926875941
 30
0.0
 10
10.5203629159
 20
9.1946911136
 30
0.0
 10
10.5218506062
 20
9.1973624719
 30
0.0
 10
10.5237102185
 20
9.2007016702
 30
0.0
 10
10.5255698312
 20
9.2040408682
 30
0.0
 10
10.5270575209
 20
9.2067122269
 30
0.0
 10
10.5281732894
 20
9.2087157454
 30
0.0
 10
10.5292890534
 20
9.2107192659
 30
0.0
 10
10.5302188705
 20
9.2123888598
 30
0.0
 10
10.5309626935
 20
9.2137245497
 30
0.0
 10
10.5314276526
 20
9.2145593221
 30
0.0
 10
10.5317994602
 20
9.2152272175
 30
0.0
 10
10.5320787531
 20
9.2157279267
 30
0.0
 10
10.5323101065
 20
9.2161458598
 30
0.0
 10
10.532474783
 20
9.2164370876
 30
0.0
 10
10.5325646226
 20
9.2166055729
 30
0.0
 10
10.5326440064
 20
9.2167261074
 30
0.0
 10
10.532677504
 20
9.2168689249
 30
0.0
 10
10.5327381731
 20
9.2170515756
 30
0.0
 10
10.5328368867
 20
9.2173748357
 30
0.0
 10
10.5329818049
 20
9.2178347425
 30
0.0
 10
10.5331540379
 20
9.2183874411
 30
0.0
 10
10.5333842649
 20
9.2191240896
 30
0.0
 10
10.5336718489
 20
9.220044997
 30
0.0
 10
10.534132095
 20
9.2215183948
 30
0.0
 10
10.5347073643
 20
9.2233601606
 30
0.0
 10
10.5353977039
 20
9.2255702716
 30
0.0
 10
10.536088039
 20
9.2277803847
 30
0.0
 10
10.5370084875
 20
9.2307272014
 30
0.0
 10
10.5381590474
 20
9.2344107226
 30
0.0
 10
10.5393096078
 20
9.2380942436
 30
0.0
 10
10.5402300556
 20
9.2410410606
 30
0.0
 10
10.5409203927
 20
9.2432511729
 30
0.0
 10
10.5416107251
 20
9.2454612869
 30
0.0
 10
10.5421860166
 20
9.2473030433
 30
0.0
 10
10.5426462174
 20
9.2487764603
 30
0.0
 10
10.5429339168
 20
9.2496973189
 30
0.0
 10
10.5431639069
 20
9.2504340676
 30
0.0
 10
10.5433368635
 20
9.2509864599
 30
0.0
 10
10.5434795177
 20
9.251447325
 30
0.0
 10
10.543582273
 20
9.2517688745
 30
0.0
 10
10.5436364663
 20
9.2519542661
 30
0.0
 10
10.5436898554
 20
9.2520886643
 30
0.0
 10
10.54369453
 20
9.25224082
 30
0.0
 10
10.543717755
 20
9.2524375002
 30
0.0
 10
10.5437504818
 20
9.2527845765
 30
0.0
 10
10.5438013734
 20
9.253278891
 30
0.0
 10
10.5438606717
 20
9.2538727142
 30
0.0
 10
10.5439403549
 20
9.2546642529
 30
0.0
 10
10.544039747
 20
9.2556537535
 30
0.0
 10
10.5441988929
 20
9.2572369113
 30
0.0
 10
10.5443977845
 20
9.2592158734
 30
0.0
 10
10.5446364719
 20
9.2615906216
 30
0.0
 10
10.5448751546
 20
9.2639653714
 30
0.0
 10
10.5451933998
 20
9.267131704
 30
0.0
 10
10.5455912058
 20
9.2710896199
 30
0.0
 10
10.5459890122
 20
9.2750475357
 30
0.0
 10
10.5463072568
 20
9.2782138684
 30
0.0
 10
10.5465459415
 20
9.2805886179
 30
0.0
 10
10.5467846214
 20
9.2829633673
 30
0.0
 10
10.5469835363
 20
9.2849423254
 30
0.0
 10
10.5471426345
 20
9.2865254913
 30
0.0
 10
10.5472421478
 20
9.2875149714
 30
0.0
 10
10.5473215824
 20
9.2883065522
 30
0.0
 10
10.5473816403
 20
9.2889002469
 30
0.0
 10
10.5474301552
 20
9.2893949635
 30
0.0
 10
10.5474671248
 20
9.289741322
 30
0.0
 10
10.5474835517
 20
9.2899391523
 30
0.0
 10
10.5475091081
 20
9.2900877755
 30
0.0
 10
10.5474840689
 20
9.2902354409
 30
0.0
 10
10.5474683316
 20
9.2904326622
 30
0.0
 10
10.5474325687
 20
9.2907776439
 30
0.0
 10
10.5473857778
 20
9.2912705562
 30
0.0
 10
10.5473277886
 20
9.2918620162
 30
0.0
 10
10.5472511123
 20
9.2926506416
 30
0.0
 10
10.547155047
 20
9.2936364192
 30
0.0
 10
10.5470014654
 20
9.2952136657
 30
0.0
 10
10.5468094462
 20
9.2971852231
 30
0.0
 10
10.5465790413
 20
9.2995510922
 30
0.0
 10
10.5463486315
 20
9.3019169613
 30
0.0
 10
10.5460414202
 20
9.3050714534
 30
0.0
 10
10.5456574056
 20
9.3090145686
 30
0.0
 10
10.5452733906
 20
9.3129576837
 30
0.0
 10
10.5449661798
 20
9.3161121759
 30
0.0
 10
10.5447357683
 20
9.3184780447
 30
0.0
 10
10.54450537
 20
9.3208439151
 30
0.0
 10
10.5443133303
 20
9.3228154685
 30
0.0
 10
10.5441597904
 20
9.324392723
 30
0.0
 10
10.544063619
 20
9.3253784802
 30
0.0
 10
10.5439871605
 20
9.3261671476
 30
0.0
 10
10.543928506
 20
9.3267584795
 30
0.0
 10
10.5438837967
 20
9.3272517925
 30
0.0
 10
10.5438386779
 20
9.3276452397
 30
0.0
 10
10.5438303912
 20
9.3279436127
 30
0.0
 10
10.5437245705
 20
9.3282294373
 30
0.0
 10
10.5436175462
 20
9.3286149202
 30
0.0
 10
10.5434720766
 20
9.3290952698
 30
0.0
 10
10.5433025164
 20
9.3296723332
 30
0.0
 10
10.5430746886
 20
9.3304415261
 30
0.0
 10
10.5427905022
 20
9.3314030942
 30
0.0
 10
10.5423354696
 20
9.3329415601
 30
0.0
 10
10.5417667936
 20
9.3348646574
 30
0.0
 10
10.5410843331
 20
9.3371723677
 30
0.0
 10
10.5404018859
 20
9.3394800797
 30
0.0
 10
10.5394919515
 20
9.3425570285
 30
0.0
 10
10.5383545354
 20
9.3464032147
 30
0.0
 10
10.5372171181
 20
9.3502494007
 30
0.0
 10
10.5363071856
 20
9.3533263499
 30
0.0
 10
10.5356247329
 20
9.3556340607
 30
0.0
 10
10.5349422927
 20
9.3579417757
 30
0.0
 10
10.5343735538
 20
9.3598648583
 30
0.0
 10
10.5339186493
 20
9.3614033541
 30
0.0
 10
10.5336341369
 20
9.3623648464
 30
0.0
 10
10.5334069782
 20
9.3631341949
 30
0.0
 10
10.5332353739
 20
9.3637107828
 30
0.0
 10
10.5330963
 20
9.3641926199
 30
0.0
 10
10.5329762272
 20
9.3645750681
 30
0.0
 10
10.5329102557
 20
9.3648701604
 30
0.0
 10
10.5327523588
 20
9.3651337388
 30
0.0
 10
10.5325739404
 20
9.3654961849
 30
0.0
 10
10.5323399003
 20
9.3659454657
 30
0.0
 10
10.5320637679
 20
9.3664862193
 30
0.0
 10
10.5316939442
 20
9.3672066594
 30
0.0
 10
10.5312322286
 20
9.3681074029
 30
0.0
 10
10.5304931685
 20
9.3695484844
 30
0.0
 10
10.5295694514
 20
9.3713498734
 30
0.0
 10
10.5284609446
 20
9.3735115243
 30
0.0
 10
10.5273524502
 20
9.3756731794
 30
0.0
 10
10.5258744533
 20
9.3785553848
 30
0.0
 10
10.5240269587
 20
9.382158142
 30
0.0
 10
10.5221794632
 20
9.3857608988
 30
0.0
 10
10.520701468
 20
9.3886431049
 30
0.0
 10
10.5195929684
 20
9.3908047579
 30
0.0
 10
10.5184844809
 20
9.3929664167
 30
0.0
 10
10.5175607038
 20
9.3947677812
 30
0.0
 10
10.5168217661
 20
9.3962089126
 30
0.0
 10
10.5163597388
 20
9.397109529
 30
0.0
 10
10.5159905549
 20
9.3978302301
 30
0.0
 10
10.5157124678
 20
9.3983701864
 30
0.0
 10
10.5154845436
 20
9.3988219616
 30
0.0
 10
10.5152936475
 20
9.3991793186
 30
0.0
 10
10.5151738568
 20
9.399458439
 30
0.0
 10
10.514964819
 20
9.3996951805
 30
0.0
 10
10.5147172771
 20
9.4000256394
 30
0.0
 10
10.5143971536
 20
9.400433634
 30
0.0
 10
10.5140175838
 20
9.4009254015
 30
0.0
 10
10.5135098915
 20
9.4015803322
 30
0.0
 10
10.5128758237
 20
9.4023992556
 30
0.0
 10
10.5118610093
 20
9.4037093877
 30
0.0
 10
10.5105925962
 20
9.4053471026
 30
0.0
 10
10.5090704555
 20
9.4073123391
 30
0.0
 10
10.5075483269
 20
9.4092775814
 30
0.0
 10
10.5055188178
 20
9.4118979024
 30
0.0
 10
10.5029819329
 20
9.4151733045
 30
0.0
 10
10.5004450472
 20
9.4184487059
 30
0.0
 10
10.4984155396
 20
9.421069028
 30
0.0
 10
10.4968934065
 20
9.423034267
 30
0.0
 10
10.4953712823
 20
9.4249995159
 30
0.0
 10
10.494102818
 20
9.4266371924
 30
0.0
 10
10.493088108
 20
9.4279474028
 30
0.0
 10
10.4924537744
 20
9.428766127
 30
0.0
 10
10.4919466278
 20
9.4294214664
 30
0.0
 10
10.491565391
 20
9.4299119852
 30
0.0
 10
10.491250483
 20
9.4303238869
 30
0.0
 10
10.4909923006
 20
9.4306463745
 30
0.0
 10
10.4908157583
 20
9.4309074598
 30
0.0
 10
10.4905739658
 20
9.4310951837
 30
0.0
 10
10.4902743686
 20
9.4313711083
 30
0.0
 10
10.4898920519
 20
9.4317072219
 30
0.0
 10
10.4894366192
 20
9.4321143216
 30
0.0
 10
10.4888282065
 20
9.4326558066
 30
0.0
 10
10.4880680909
 20
9.433333113
 30
0.0
 10
10.4868516822
 20
9.4344165517
 30
0.0
 10
10.4853312481
 20
9.4357709364
 30
0.0
 10
10.4835066943
 20
9.4373961611
 30
0.0
 10
10.4816821493
 20
9.4390213956
 30
0.0
 10
10.4792494195
 20
9.4411883715
 30
0.0
 10
10.4762085084
 20
9.4438970927
 30
0.0
 10
10.4731675966
 20
9.446605813
 30
0.0
 10
10.4707348679
 20
9.4487727904
 30
0.0
 10
10.4689103195
 20
9.4503980206
 30
0.0
 10
10.4670857785
 20
9.4520232615
 30
0.0
 10
10.4655653045
 20
9.4533775957
 30
0.0
 10
10.4643489773
 20
9.4544611373
 30
0.0
 10
10.4635886542
 20
9.4551381819
 30
0.0
 10
10.4629806673
 20
9.4556802043
 30
0.0
 10
10.4625239338
 20
9.4560856624
 30
0.0
 10
10.462145687
 20
9.4564269121
 30
0.0
 10
10.4618377865
 20
9.456692358
 30
0.0
 10
10.4616213518
 20
9.4569120833
 30
0.0
 10
10.4613496059
 20
9.4570530218
 30
0.0
 10
10.461006599
 20
9.4572684611
 30
0.0
 10
10.4605712115
 20
9.4575283177
 30
0.0
 10
10.4600515839
 20
9.4578441873
 30
0.0
 10
10.459357756
 20
9.4582639352
 30
0.0
 10
10.4584908105
 20
9.4587891034
 30
0.0
 10
10.457103508
 20
9.4596291023
 30
0.0
 10
10.455369445
 20
9.4606791936
 30
0.0
 10
10.4532885415
 20
9.4619392635
 30
0.0
 10
10.4512076454
 20
9.463199344
 30
0.0
 10
10.4484331147
 20
9.4648794476
 30
0.0
 10
10.4449649523
 20
9.4669795785
 30
0.0
 10
10.4414967894
 20
9.4690797084
 30
0.0
 10
10.4387222596
 20
9.4707598136
 30
0.0
 10
10.4366413609
 20
9.4720198893
 30
0.0
 10
10.4345604673
 20
9.4732799771
 30
0.0
 10
10.4328263733
 20
9.4743300127
 30
0.0
 10
10.431439134
 20
9.4751701252
 30
0.0
 10
10.4305720276
 20
9.4756950044
 30
0.0
 10
10.42987853
 20
9.4761153453
 30
0.0
 10
10.4293578933
 20
9.4764294031
 30
0.0
 10
10.4289256629
 20
9.4766949286
 30
0.0
 10
10.428576215
 20
9.4768988022
 30
0.0
 10
10.4283241395
 20
9.4770750614
 30
0.0
 10
10.4280338544
 20
9.477162178
 30
0.0
 10
10.4276601547
 20
9.4773094721
 30
0.0
 10
10.4271884507
 20
9.4774829062
 30
0.0
 10
10.4266243661
 20
9.4776956
 30
0.0
 10
10.4258715686
 20
9.4779775946
 30
0.0
 10
10.4249308061
 20
9.4783306347
 30
0.0
 10
10.4234254552
 20
9.4788951931
 30
0.0
 10
10.4215438115
 20
9.479600996
 30
0.0
 10
10.4192858198
 20
9.4804479146
 30
0.0
 10
10.4170278333
 20
9.4812948452
 30
0.0
 10
10.4140171827
 20
9.4824240818
 30
0.0
 10
10.4102538702
 20
9.4838356291
 30
0.0
 10
10.4064905573
 20
9.4852471754
 30
0.0
 10
10.4034799074
 20
9.4863764137
 30
0.0
 10
10.4012219189
 20
9.4872233391
 30
0.0
 10
10.3989639344
 20
9.4880702773
 30
0.0
 10
10.3970822685
 20
9.4887760191
 30
0.0
 10
10.3955769628
 20
9.4893407023
 30
0.0
 10
10.3946360852
 20
9.4896934248
 30
0.0
 10
10.3938835242
 20
9.4899760712
 30
0.0
 10
10.3933187169
 20
9.4901867733
 30
0.0
 10
10.3928492739
 20
9.490366439
 30
0.0
 10
10.3924709615
 20
9.4905010195
 30
0.0
 10
10.3921947632
 20
9.4906269627
 30
0.0
 10
10.3918898001
 20
9.4906574507
 30
0.0
 10
10.3914932307
 20
9.4907314451
 30
0.0
 10
10.3909940715
 20
9.490812498
 30
0.0
 10
10.390396556
 20
9.4909146582
 30
0.0
 10
10.3895993533
 20
9.4910491614
 30
0.0
 10
10.3886030264
 20
9.4912178761
 30
0.0
 10
10.3870088047
 20
9.4914874924
 30
0.0
 10
10.3850160615
 20
9.491824625
 30
0.0
 10
10.3826247551
 20
9.4922291359
 30
0.0
 10
10.3802334526
 20
9.4926336598
 30
0.0
 10
10.3770450479
 20
9.4931730204
 30
0.0
 10
10.3730595425
 20
9.4938472228
 30
0.0
 10
10.3682769358
 20
9.4946562649
 30
0.0
 10
10.3619001269
 20
9.495734988
 30
0.0
 10
10.3571175203
 20
9.4965440303
 30
0.0
 10
10.3539291158
 20
9.4970833918
 30
0.0
  0
SPLINE
  5
398
100
AcDbEntity
  8
0
100
AcDbSpline
 62
4
  6
CONTINUOUS
 70
0
 71
3
 72
387
 73
383
 74
0
 42
0.0000001
 43
0.0000001
 44
0.0000000001
 40
0.0
 40
0.0
 40
0.0
 40
0.0
 40
0.015625
 40
0.0234375
 40
0.03125
 40
0.0390625
 40
0.04296875
 40
0.046875
 40
0.05078125
 40
0.0546875
 40
0.056640625
 40
0.05859375
 40
0.0595703125
 40
0.060546875
 40
0.0615234375
 40
0.0620117188
 40
0.0625
 40
0.0629882812
 40
0.0634765625
 40
0.064453125
 40
0.0654296875
 40
0.06640625
 40
0.068359375
 40
0.0703125
 40
0.07421875
 40
0.078125
 40
0.08203125
 40
0.0859375
 40
0.09375
 40
0.1015625
 40
0.10546875
 40
0.109375
 40
0.11328125
 40
0.1171875
 40
0.119140625
 40
0.12109375
 40
0.1220703125
 40
0.123046875
 40
0.1240234375
 40
0.1245117188
 40
0.1247558594
 40
0.125
 40
0.1252441406
 40
0.1254882812
 40
0.1259765625
 40
0.126953125
 40
0.1279296875
 40
0.12890625
 40
0.130859375
 40
0.1328125
 40
0.13671875
 40
0.140625
 40
0.14453125
 40
0.1484375
 40
0.15625
 40
0.1640625
 40
0.16796875
 40
0.171875
 40
0.17578125
 40
0.1796875
 40
0.181640625
 40
0.18359375
 40
0.1845703125
 40
0.185546875
 40
0.1865234375
 40
0.1870117188
 40
0.1872558594
 40
0.1875
 40
0.1877441406
 40
0.1879882812
 40
0.1884765625
 40
0.189453125
 40
0.1904296875
 40
0.19140625
 40
0.193359375
 40
0.1953125
 40
0.19921875
 40
0.203125
 40
0.20703125
 40
0.2109375
 40
0.21875
 40
0.2265625
 40
0.23046875
 40
0.234375
 40
0.23828125
 40
0.2421875
 40
0.244140625
 40
0.24609375
 40
0.2470703125
 40
0.248046875
 40
0.2490234375
 40
0.2495117188
 40
0.2497558594
 40
0.25
 40
0.2502441406
 40
0.2504882812
 40
0.2509765625
 40
0.251953125
 40
0.2529296875
 40
0.25390625
 40
0.255859375
 40
0.2578125
 40
0.26171875
 40
0.265625
 40
0.26953125
 40
0.2734375
 40
0.28125
 40
0.2890625
 40
0.29296875
 40
0.296875
 40
0.30078125
 40
0.3046875
 40
0.306640625
 40
0.30859375
 40
0.3095703125
 40
0.310546875
 40
0.3115234375
 40
0.3120117188
 40
0.3122558594
 40
0.3125
 40
0.3127441406
 40
0.3129882812
 40
0.3134765625
 40
0.314453125
 40
0.3154296875
 40
0.31640625
 40
0.318359375
 40
0.3203125
 40
0.32421875
 40
0.328125
 40
0.33203125
 40
0.3359375
 40
0.34375
 40
0.3515625
 40
0.35546875
 40
0.359375
 40
0.36328125
 40
0.3671875
 40
0.369140625
 40
0.37109375
 40
0.3720703125
 40
0.373046875
 40
0.3740234375
 40
0.3745117188
 40
0.3747558594
 40
0.375
 40
0.3752441406
 40
0.3754882812
 40
0.3759765625
 40
0.376953125
 40
0.3779296875
 40
0.37890625
 40
0.380859375
 40
0.3828125
 40
0.38671875
 40
0.390625
 40
0.39453125
 40
0.3984375
 40
0.40625
 40
0.4140625
 40
0.41796875
 40
0.421875
 40
0.42578125
 40
0.4296875
 40
0.431640625
 40
0.43359375
 40
0.4345703125
 40
0.435546875
 40
0.4365234375
 40
0.4370117188
 40
0.4372558594
 40
0.4375
 40
0.4377441406
 40
0.4379882812
 40
0.4384765625
 40
0.439453125
 40
0.4404296875
 40
0.44140625
 40
0.443359375
 40
0.4453125
 40
0.44921875
 40
0.453125
 40
0.45703125
 40
0.4609375
 40
0.46875
 40
0.4765625
 40
0.48046875
 40
0.484375
 40
0.48828125
 40
0.4921875
 40
0.494140625
 40
0.49609375
 40
0.4970703125
 40
0.498046875
 40
0.4990234375
 40
0.4995117188
 40
0.4997558594
 40
0.5
 40
0.5002441406
 40
0.5004882812
 40
0.5009765625
 40
0.501953125
 40
0.5029296875
 40
0.50390625
 40
0.505859375
 40
0.5078125
 40
0.51171875
 40
0.515625
 40
0.51953125
 40
0.5234375
 40
0.53125
 40
0.5390625
 40
0.54296875
 40
0.546875
 40
0.55078125
 40
0.5546875
 40
0.556640625
 40
0.55859375
 40
0.5595703125
 40
0.560546875
 40
0.5615234375
 40
0.5620117188
 40
0.5625
 40
0.5629882812
 40
0.5634765625
 40
0.564453125
 40
0.5654296875
 40
0.56640625
 40
0.568359375
 40
0.5703125
 40
0.57421875
 40
0.578125
 40
0.58203125
 40
0.5859375
 40
0.59375
 40
0.6015625
 40
0.60546875
 40
0.609375
 40
0.61328125
 40
0.6171875
 40
0.619140625
 40
0.62109375
 40
0.6220703125
 40
0.623046875
 40
0.6240234375
 40
0.6245117188
 40
0.625
 40
0.6254882812
 40
0.6259765625
 40
0.626953125
 40
0.6279296875
 40
0.62890625
 40
0.630859375
 40
0.6328125
 40
0.63671875
 40
0.640625
 40
0.64453125
 40
0.6484375
 40
0.65625
 40
0.6640625
 40
0.66796875
 40
0.671875
 40
0.67578125
 40
0.6796875
 40
0.681640625
 40
0.68359375
 40
0.6845703125
 40
0.685546875
 40
0.6865234375
 40
0.6870117188
 40
0.6875
 40
0.6879882812
 40
0.6884765625
 40
0.689453125
 40
0.6904296875
 40
0.69140625
 40
0.693359375
 40
0.6953125
 40
0.69921875
 40
0.703125
 40
0.70703125
 40
0.7109375
 40
0.71875
 40
0.7265625
 40
0.73046875
 40
0.734375
 40
0.73828125
 40
0.7421875
 40
0.744140625
 40
0.74609375
 40
0.7470703125
 40
0.748046875
 40
0.7490234375
 40
0.7495117188
 40
0.75
 40
0.7504882812
 40
0.7509765625
 40
0.751953125
 40
0.7529296875
 40
0.75390625
 40
0.755859375
 40
0.7578125
 40
0.76171875
 40
0.765625
 40
0.76953125
 40
0.7734375
 40
0.78125
 40
0.7890625
 40
0.79296875
 40
0.796875
 40
0.80078125
 40
0.8046875
 40
0.806640625
 40
0.80859375
 40
0.8095703125
 40
0.810546875
 40
0.8115234375
 40
0.8120117188
 40
0.8125
 40
0.8129882812
 40
0.8134765625
 40
0.814453125
 40
0.8154296875
 40
0.81640625
 40
0.818359375
 40
0.8203125
 40
0.82421875
 40
0.828125
 40
0.83203125
 40
0.8359375
 40
0.84375
 40
0.8515625
 40
0.85546875
 40
0.859375
 40
0.86328125
 40
0.8671875
 40
0.869140625
 40
0.87109375
 40
0.8720703125
 40
0.873046875
 40
0.8740234375
 40
0.8745117188
 40
0.875
 40
0.8754882812
 40
0.8759765625
 40
0.876953125
 40
0.8779296875
 40
0.87890625
 40
0.880859375
 40
0.8828125
 40
0.88671875
 40
0.890625
 40
0.89453125
 40
0.8984375
 40
0.90625
 40
0.9140625
 40
0.91796875
 40
0.921875
 40
0.92578125
 40
0.9296875
 40
0.931640625
 40
0.93359375
 40
0.9345703125
 40
0.935546875
 40
0.9365234375
 40
0.9370117188
 40
0.9375
 40
0.9379882812
 40
0.9384765625
 40
0.939453125
 40
0.9404296875
 40
0.94140625
 40
0.943359375
 40
0.9453125
 40
0.94921875
 40
0.953125
 40
0.95703125
 40
0.9609375
 40
0.96875
 40
0.9765625
 40
0.984375
 40
1.0
 40
1.0
 40
1.0
 40
1.0
 10
10.3539291327
 20
9.4970833907
 30
0.0
 10
10.3507959458
 20
9.4969934663
 30
0.0
 10
10.3460961654
 20
9.4968585797
 30
0.0
 10
10.3398297916
 20
9.4966787308
 30
0.0
 10
10.3351300112
 20
9.4965438443
 30
0.0
 10
10.3312135276
 20
9.4964314383
 30
0.0
 10
10.3280803406
 20
9.4963415149
 30
0.0
 10
10.3257304509
 20
9.4962740687
 30
0.0
 10
10.3233805587
 20
9.496206636
 30
0.0
 10
10.3214223232
 20
9.4961504004
 30
0.0
 10
10.3198557167
 20
9.4961055051
 30
0.0
 10
10.318876629
 20
9.4960772336
 30
0.0
 10
10.3180932641
 20
9.4960551017
 30
0.0
 10
10.3175059999
 20
9.496037174
 30
0.0
 10
10.3170157875
 20
9.4960264611
 30
0.0
 10
10.3166254692
 20
9.4960084109
 30
0.0
 10
10.316327671
 20
9.4960207766
 30
0.0
 10
10.316049185
 20
9.495934269
 30
0.0
 10
10.3156711244
 20
9.4958534633
 30
0.0
 10
10.315200863
 20
9.4957406064
 30
0.0
 10
10.3146355588
 20
9.4956102502
 30
0.0
 10
10.3138821658
 20
9.4954346704
 30
0.0
 10
10.312940306
 20
9.4952158022
 30
0.0
 10
10.3114333967
 20
9.4948652741
 30
0.0
 10
10.3095497373
 20
9.4944272303
 30
0.0
 10
10.3072893557
 20
9.4939015279
 30
0.0
 10
10.3050289716
 20
9.4933758388
 30
0.0
 10
10.302015127
 20
9.4926749153
 30
0.0
 10
10.2982478209
 20
9.4917987625
 30
0.0
 10
10.2944805149
 20
9.4909226094
 30
0.0
 10
10.2914666702
 20
9.4902216865
 30
0.0
 10
10.2892062862
 20
9.4896959956
 30
0.0
 10
10.286945904
 20
9.4891703001
 30
0.0
 10
10.2850622466
 20
9.4887322346
 30
0.0
 10
10.2835553333
 20
9.4883817507
 30
0.0
 10
10.2826134837
 20
9.48816277
 30
0.0
 10
10.2818600699
 20
9.487987421
 30
0.0
 10
10.2812948291
 20
9.4878563596
 30
0.0
 10
10.2808243691
 20
9.4877457093
 30
0.0
 10
10.2804939207
 20
9.4876710652
 30
0.0
 10
10.2803068519
 20
9.487624022
 30
0.0
 10
10.2801615954
 20
9.4876011049
 30
0.0
 10
10.2800352792
 20
9.4875309215
 30
0.0
 10
10.279860251
 20
9.4874538306
 30
0.0
 10
10.2795570298
 20
9.48731124
 30
0.0
 10
10.2791222474
 20
9.4871115551
 30
0.0
 10
10.2786011974
 20
9.4868702143
 30
0.0
 10
10.2779062234
 20
9.486549027
 30
0.0
 10
10.2770375883
 20
9.4861473372
 30
0.0
 10
10.2756477261
 20
9.4855047485
 30
0.0
 10
10.2739104141
 20
9.4847014731
 30
0.0
 10
10.271825633
 20
9.4837375596
 30
0.0
 10
10.2697408537
 20
9.4827736416
 30
0.0
 10
10.2669611473
 20
9.4814884192
 30
0.0
 10
10.2634865145
 20
9.4798818905
 30
0.0
 10
10.2600118816
 20
9.4782753623
 30
0.0
 10
10.2572321754
 20
9.4769901392
 30
0.0
 10
10.2551473953
 20
9.4760262231
 30
0.0
 10
10.2530626174
 20
9.4750623025
 30
0.0
 10
10.2513252953
 20
9.4742590492
 30
0.0
 10
10.2499354538
 20
9.4736164156
 30
0.0
 10
10.2490667659
 20
9.47321484
 30
0.0
 10
10.2483719001
 20
9.4728934184
 30
0.0
 10
10.2478505195
 20
9.4726527932
 30
0.0
 10
10.2474167715
 20
9.4724508692
 30
0.0
 10
10.2471117038
 20
9.4723122759
 30
0.0
 10
10.2469396341
 20
9.4722287802
 30
0.0
 10
10.2468042304
 20
9.4721782703
 30
0.0
 10
10.2466931053
 20
9.4720814628
 30
0.0
 10
10.24653647
 20
9.4719685352
 30
0.0
 10
10.2462663038
 20
9.4717633878
 30
0.0
 10
10.2458782892
 20
9.4714742538
 30
0.0
 10
10.2454135547
 20
9.4711256091
 30
0.0
 10
10.2447936003
 20
9.4706613378
 30
0.0
 10
10.2440187628
 20
9.4700807972
 30
0.0
 10
10.2427789639
 20
9.4691520448
 30
0.0
 10
10.2412292355
 20
9.4679910657
 30
0.0
 10
10.2393695528
 20
9.4665979073
 30
0.0
 10
10.2375098724
 20
9.4652047445
 30
0.0
 10
10.2350302976
 20
9.4633471956
 30
0.0
 10
10.2319308296
 20
9.461025259
 30
0.0
 10
10.2288313612
 20
9.4587033227
 30
0.0
 10
10.226351787
 20
9.4568457732
 30
0.0
 10
10.2244921053
 20
9.4554526121
 30
0.0
 10
10.2226324273
 20
9.4540594475
 30
0.0
 10
10.221082684
 20
9.4528984876
 30
0.0
 10
10.2198429154
 20
9.4519696961
 30
0.0
 10
10.2190680009
 20
9.451389255
 30
0.0
 10
10.2184482047
 20
9.4509247793
 30
0.0
 10
10.2179829867
 20
9.450576759
 30
0.0
 10
10.217596485
 20
9.4502856717
 30
0.0
 10
10.2173236181
 20
9.4500840112
 30
0.0
 10
10.2171713099
 20
9.4499654967
 30
0.0
 10
10.2170468931
 20
9.4498858504
 30
0.0
 10
10.2169614111
 20
9.4497708858
 30
0.0
 10
10.2168338542
 20
9.4496299192
 30
0.0
 10
10.2166169573
 20
9.4493774877
 30
0.0
 10
10.2163037964
 20
9.4490198722
 30
0.0
 10
10.2159294193
 20
9.4485894491
 30
0.0
 10
10.2154297552
 20
9.4480160003
 30
0.0
 10
10.2148053445
 20
9.4472990357
 30
0.0
 10
10.2138061927
 20
9.4461519782
 30
0.0
 10
10.2125572854
 20
9.4447181268
 30
0.0
 10
10.2110585828
 20
9.4429975178
 30
0.0
 10
10.2095598839
 20
9.4412769054
 30
0.0
 10
10.2075616174
 20
9.4389827567
 30
0.0
 10
10.2050637847
 20
9.4361150704
 30
0.0
 10
10.2025659517
 20
9.4332473843
 30
0.0
 10
10.2005676857
 20
9.4309532352
 30
0.0
 10
10.1990689852
 20
9.4292326241
 30
0.0
 10
10.1975702886
 20
9.4275120101
 30
0.0
 10
10.1963213625
 20
9.4260781742
 30
0.0
 10
10.1953222491
 20
9.4249310851
 30
0.0
 10
10.1946977405
 20
9.4242142008
 30
0.0
 10
10.1941982774
 20
9.4236405871
 30
0.0
 10
10.1938232865
 20
9.4232106676
 30
0.0
 10
10.1935120459
 20
9.4228514766
 30
0.0
 10
10.1932917209
 20
9.4226018577
 30
0.0
 10
10.1931696566
 20
9.4224563846
 30
0.0
 10
10.1930673033
 20
9.4223552625
 30
0.0
 10
10.1930062524
 20
9.4222236264
 30
0.0
 10
10.1929104445
 20
9.4220587553
 30
0.0
 10
10.192749493
 20
9.4217652718
 30
0.0
 10
10.1925160529
 20
9.4213486023
 30
0.0
 10
10.192237427
 20
9.4208474892
 30
0.0
 10
10.1918654011
 20
9.420179726
 30
0.0
 10
10.1914005483
 20
9.4193448892
 30
0.0
 10
10.1906566835
 20
9.4180092246
 30
0.0
 10
10.1897268869
 20
9.4163396183
 30
0.0
 10
10.1886111163
 20
9.4143361018
 30
0.0
 10
10.1874953496
 20
9.4123325823
 30
0.0
 10
10.1860076593
 20
9.4096612239
 30
0.0
 10
10.184148047
 20
9.4063220257
 30
0.0
 10
10.1822884342
 20
9.4029828276
 30
0.0
 10
10.1808007445
 20
9.400311469
 30
0.0
 10
10.1796849761
 20
9.3983079505
 30
0.0
 10
10.178569212
 20
9.39630443
 30
0.0
 10
10.177639395
 20
9.3946348361
 30
0.0
 10
10.176895572
 20
9.3932991462
 30
0.0
 10
10.1764306129
 20
9.3924643738
 30
0.0
 10
10.1760588052
 20
9.3917964784
 30
0.0
 10
10.1757795124
 20
9.3912957691
 30
0.0
 10
10.175548159
 20
9.3908778361
 30
0.0
 10
10.1753834825
 20
9.3905866083
 30
0.0
 10
10.1752936429
 20
9.390418123
 30
0.0
 10
10.175214259
 20
9.3902975884
 30
0.0
 10
10.1751807614
 20
9.390154771
 30
0.0
 10
10.1751200923
 20
9.3899721203
 30
0.0
 10
10.1750213788
 20
9.3896488602
 30
0.0
 10
10.1748764606
 20
9.3891889534
 30
0.0
 10
10.1747042275
 20
9.3886362548
 30
0.0
 10
10.1744740006
 20
9.3878996063
 30
0.0
 10
10.1741864165
 20
9.3869786989
 30
0.0
 10
10.1737261705
 20
9.3855053011
 30
0.0
 10
10.1731509012
 20
9.3836635353
 30
0.0
 10
10.1724605616
 20
9.3814534243
 30
0.0
 10
10.1717702264
 20
9.3792433112
 30
0.0
 10
10.170849778
 20
9.3762964945
 30
0.0
 10
10.169699218
 20
9.3726129733
 30
0.0
 10
10.1685486577
 20
9.3689294523
 30
0.0
 10
10.1676282099
 20
9.3659826353
 30
0.0
 10
10.1669378728
 20
9.3637725229
 30
0.0
 10
10.1662475404
 20
9.3615624089
 30
0.0
 10
10.1656722488
 20
9.3597206526
 30
0.0
 10
10.1652120481
 20
9.3582472356
 30
0.0
 10
10.1649243487
 20
9.357326377
 30
0.0
 10
10.1646943586
 20
9.3565896283
 30
0.0
 10
10.1645214019
 20
9.356037236
 30
0.0
 10
10.1643787478
 20
9.3555763709
 30
0.0
 10
10.1642759925
 20
9.3552548214
 30
0.0
 10
10.1642217992
 20
9.3550694298
 30
0.0
 10
10.1641684101
 20
9.3549350316
 30
0.0
 10
10.1641637355
 20
9.3547828759
 30
0.0
 10
10.1641405105
 20
9.3545861957
 30
0.0
 10
10.1641077837
 20
9.3542391194
 30
0.0
 10
10.164056892
 20
9.3537448049
 30
0.0
 10
10.1639975937
 20
9.3531509817
 30
0.0
 10
10.1639179105
 20
9.352359443
 30
0.0
 10
10.1638185184
 20
9.3513699424
 30
0.0
 10
10.1636593726
 20
9.3497867845
 30
0.0
 10
10.163460481
 20
9.3478078225
 30
0.0
 10
10.1632217936
 20
9.3454330743
 30
0.0
 10
10.1629831109
 20
9.3430583244
 30
0.0
 10
10.1626648656
 20
9.3398919919
 30
0.0
 10
10.1622670597
 20
9.335934076
 30
0.0
 10
10.1618692533
 20
9.3319761602
 30
0.0
 10
10.1615510087
 20
9.3288098275
 30
0.0
 10
10.161312324
 20
9.326435078
 30
0.0
 10
10.1610736441
 20
9.3240603286
 30
0.0
 10
10.1608747291
 20
9.3220813704
 30
0.0
 10
10.1607156309
 20
9.3204982046
 30
0.0
 10
10.1606161177
 20
9.3195087244
 30
0.0
 10
10.1605366831
 20
9.3187171437
 30
0.0
 10
10.1604766252
 20
9.318123449
 30
0.0
 10
10.1604281103
 20
9.3176287324
 30
0.0
 10
10.1603911406
 20
9.3172823739
 30
0.0
 10
10.1603747138
 20
9.3170845436
 30
0.0
 10
10.1603491574
 20
9.3169359204
 30
0.0
 10
10.1603741966
 20
9.316788255
 30
0.0
 10
10.1603899339
 20
9.3165910336
 30
0.0
 10
10.1604256968
 20
9.316246052
 30
0.0
 10
10.1604724877
 20
9.3157531397
 30
0.0
 10
10.1605304769
 20
9.3151616797
 30
0.0
 10
10.1606071531
 20
9.3143730543
 30
0.0
 10
10.1607032185
 20
9.3133872767
 30
0.0
 10
10.1608568001
 20
9.3118100302
 30
0.0
 10
10.1610488193
 20
9.3098384728
 30
0.0
 10
10.1612792242
 20
9.3074726037
 30
0.0
 10
10.161509634
 20
9.3051067346
 30
0.0
 10
10.1618168453
 20
9.3019522425
 30
0.0
 10
10.1622008599
 20
9.2980091273
 30
0.0
 10
10.1625848749
 20
9.2940660122
 30
0.0
 10
10.1628920857
 20
9.29091152
 30
0.0
 10
10.1631224972
 20
9.2885456512
 30
0.0
 10
10.1633528955
 20
9.2861797808
 30
0.0
 10
10.1635449351
 20
9.2842082274
 30
0.0
 10
10.163698475
 20
9.2826309729
 30
0.0
 10
10.1637946465
 20
9.2816452157
 30
0.0
 10
10.163871105
 20
9.2808565483
 30
0.0
 10
10.1639297595
 20
9.2802652164
 30
0.0
 10
10.1639744688
 20
9.2797719034
 30
0.0
 10
10.1640195876
 20
9.2793784561
 30
0.0
 10
10.1640278743
 20
9.2790800832
 30
0.0
 10
10.164133695
 20
9.2787942585
 30
0.0
 10
10.1642407193
 20
9.2784087757
 30
0.0
 10
10.1643861889
 20
9.277928426
 30
0.0
 10
10.1645557491
 20
9.2773513627
 30
0.0
 10
10.1647835769
 20
9.2765821698
 30
0.0
 10
10.1650677632
 20
9.2756206017
 30
0.0
 10
10.1655227959
 20
9.2740821357
 30
0.0
 10
10.1660914719
 20
9.2721590385
 30
0.0
 10
10.1667739323
 20
9.2698513282
 30
0.0
 10
10.1674563796
 20
9.2675436162
 30
0.0
 10
10.1683663139
 20
9.2644666674
 30
0.0
 10
10.1695037301
 20
9.2606204812
 30
0.0
 10
10.1706411474
 20
9.2567742952
 30
0.0
 10
10.1715510799
 20
9.253697346
 30
0.0
 10
10.1722335326
 20
9.2513896352
 30
0.0
 10
10.1729159728
 20
9.2490819202
 30
0.0
 10
10.1734847117
 20
9.2471588376
 30
0.0
 10
10.1739396162
 20
9.2456203418
 30
0.0
 10
10.1742241286
 20
9.2446588495
 30
0.0
 10
10.1744512873
 20
9.243889501
 30
0.0
 10
10.1746228916
 20
9.2433129131
 30
0.0
 10
10.1747619655
 20
9.242831076
 30
0.0
 10
10.1748820383
 20
9.2424486278
 30
0.0
 10
10.1749480098
 20
9.2421535355
 30
0.0
 10
10.1751059067
 20
9.2418899571
 30
0.0
 10
10.1752843251
 20
9.241527511
 30
0.0
 10
10.1755183651
 20
9.2410782301
 30
0.0
 10
10.1757944976
 20
9.2405374766
 30
0.0
 10
10.1761643212
 20
9.2398170365
 30
0.0
 10
10.1766260368
 20
9.238916293
 30
0.0
 10
10.177365097
 20
9.2374752115
 30
0.0
 10
10.1782888141
 20
9.2356738225
 30
0.0
 10
10.1793973209
 20
9.2335121716
 30
0.0
 10
10.1805058153
 20
9.2313505165
 30
0.0
 10
10.1819838122
 20
9.2284683111
 30
0.0
 10
10.1838313067
 20
9.2248655539
 30
0.0
 10
10.1856788023
 20
9.221262797
 30
0.0
 10
10.1871567975
 20
9.218380591
 30
0.0
 10
10.1882652971
 20
9.216218938
 30
0.0
 10
10.1893737846
 20
9.2140572792
 30
0.0
 10
10.1902975617
 20
9.2122559147
 30
0.0
 10
10.1910364994
 20
9.2108147833
 30
0.0
 10
10.1914985267
 20
9.2099141669
 30
0.0
 10
10.1918677105
 20
9.2091934658
 30
0.0
 10
10.1921457977
 20
9.2086535095
 30
0.0
 10
10.1923737218
 20
9.2082017343
 30
0.0
 10
10.192564618
 20
9.2078443773
 30
0.0
 10
10.1926844087
 20
9.2075652569
 30
0.0
 10
10.1928934465
 20
9.2073285154
 30
0.0
 10
10.1931409884
 20
9.2069980565
 30
0.0
 10
10.1934611118
 20
9.2065900619
 30
0.0
 10
10.1938406817
 20
9.2060982943
 30
0.0
 10
10.194348374
 20
9.2054433637
 30
0.0
 10
10.1949824417
 20
9.2046244403
 30
0.0
 10
10.1959972562
 20
9.2033143082
 30
0.0
 10
10.1972656693
 20
9.2016765933
 30
0.0
 10
10.19878781
 20
9.1997113567
 30
0.0
 10
10.2003099386
 20
9.1977461145
 30
0.0
 10
10.2023394477
 20
9.1951257935
 30
0.0
 10
10.2048763325
 20
9.1918503914
 30
0.0
 10
10.2074132183
 20
9.18857499
 30
0.0
 10
10.2094427259
 20
9.1859546679
 30
0.0
 10
10.2109648589
 20
9.1839894289
 30
0.0
 10
10.2124869832
 20
9.18202418
 30
0.0
 10
10.2137554475
 20
9.1803865034
 30
0.0
 10
10.2147701575
 20
9.1790762931
 30
0.0
 10
10.2154044911
 20
9.1782575689
 30
0.0
 10
10.2159116377
 20
9.1776022295
 30
0.0
 10
10.2162928745
 20
9.1771117107
 30
0.0
 10
10.2166077825
 20
9.176699809
 30
0.0
 10
10.2168659649
 20
9.1763773214
 30
0.0
 10
10.2170425072
 20
9.1761162361
 30
0.0
 10
10.2172842997
 20
9.1759285122
 30
0.0
 10
10.2175838969
 20
9.1756525876
 30
0.0
 10
10.2179662135
 20
9.175316474
 30
0.0
 10
10.2184216462
 20
9.1749093743
 30
0.0
 10
10.219030059
 20
9.1743678893
 30
0.0
 10
10.2197901746
 20
9.1736905828
 30
0.0
 10
10.2210065833
 20
9.1726071441
 30
0.0
 10
10.2225270174
 20
9.1712527594
 30
0.0
 10
10.2243515712
 20
9.1696275348
 30
0.0
 10
10.2261761162
 20
9.1680023003
 30
0.0
 10
10.228608846
 20
9.1658353244
 30
0.0
 10
10.2316497571
 20
9.1631266032
 30
0.0
 10
10.2346906689
 20
9.1604178829
 30
0.0
 10
10.2371233975
 20
9.1582509055
 30
0.0
 10
10.238947946
 20
9.1566256753
 30
0.0
 10
10.240772487
 20
9.1550004344
 30
0.0
 10
10.242292961
 20
9.1536461002
 30
0.0
 10
10.2435092882
 20
9.1525625586
 30
0.0
 10
10.2442696112
 20
9.151885514
 30
0.0
 10
10.2448775982
 20
9.1513434916
 30
0.0
 10
10.2453343317
 20
9.1509380335
 30
0.0
 10
10.2457125785
 20
9.1505967838
 30
0.0
 10
10.246020479
 20
9.1503313379
 30
0.0
 10
10.2462369137
 20
9.1501116125
 30
0.0
 10
10.2465086595
 20
9.1499706741
 30
0.0
 10
10.2468516664
 20
9.1497552348
 30
0.0
 10
10.2472870539
 20
9.1494953782
 30
0.0
 10
10.2478066816
 20
9.1491795085
 30
0.0
 10
10.2485005095
 20
9.1487597607
 30
0.0
 10
10.249367455
 20
9.1482345925
 30
0.0
 10
10.2507547574
 20
9.1473945936
 30
0.0
 10
10.2524888205
 20
9.1463445023
 30
0.0
 10
10.254569724
 20
9.1450844324
 30
0.0
 10
10.25665062
 20
9.1438243519
 30
0.0
 10
10.2594251507
 20
9.1421442483
 30
0.0
 10
10.2628933131
 20
9.1400441174
 30
0.0
 10
10.2663614761
 20
9.1379439875
 30
0.0
 10
10.2691360059
 20
9.1362638823
 30
0.0
 10
10.2712169046
 20
9.1350038066
 30
0.0
 10
10.2732977982
 20
9.1337437188
 30
0.0
 10
10.2750318922
 20
9.1326936832
 30
0.0
 10
10.2764191314
 20
9.1318535707
 30
0.0
 10
10.2772862379
 20
9.1313286915
 30
0.0
 10
10.2779797355
 20
9.1309083506
 30
0.0
 10
10.2785003721
 20
9.1305942928
 30
0.0
 10
10.2789326026
 20
9.1303287673
 30
0.0
 10
10.2792820504
 20
9.1301248937
 30
0.0
 10
10.279534126
 20
9.1299486344
 30
0.0
 10
10.2798244111
 20
9.1298615179
 30
0.0
 10
10.2801981108
 20
9.1297142238
 30
0.0
 10
10.2806698148
 20
9.1295407897
 30
0.0
 10
10.2812338994
 20
9.1293280958
 30
0.0
 10
10.2819866969
 20
9.1290461013
 30
0.0
 10
10.2829274593
 20
9.1286930612
 30
0.0
 10
10.2844328103
 20
9.1281285028
 30
0.0
 10
10.286314454
 20
9.1274226998
 30
0.0
 10
10.2885724457
 20
9.1265757813
 30
0.0
 10
10.2908304322
 20
9.1257288507
 30
0.0
 10
10.2938410828
 20
9.1245996141
 30
0.0
 10
10.2976043953
 20
9.1231880668
 30
0.0
 10
10.3013677082
 20
9.1217765205
 30
0.0
 10
10.3043783581
 20
9.1206472822
 30
0.0
 10
10.3066363465
 20
9.1198003568
 30
0.0
 10
10.3088943311
 20
9.1189534186
 30
0.0
 10
10.310775997
 20
9.1182476768
 30
0.0
 10
10.3122813026
 20
9.1176829936
 30
0.0
 10
10.3132221803
 20
9.1173302711
 30
0.0
 10
10.3139747413
 20
9.1170476247
 30
0.0
 10
10.3145395485
 20
9.1168369225
 30
0.0
 10
10.3150089916
 20
9.1166572569
 30
0.0
 10
10.315387304
 20
9.1165226764
 30
0.0
 10
10.3156635023
 20
9.1163967332
 30
0.0
 10
10.3159684653
 20
9.1163662452
 30
0.0
 10
10.3163650348
 20
9.1162922508
 30
0.0
 10
10.316864194
 20
9.1162111979
 30
0.0
 10
10.3174617095
 20
9.1161090377
 30
0.0
 10
10.3182589122
 20
9.1159745345
 30
0.0
 10
10.3192552391
 20
9.1158058198
 30
0.0
 10
10.3208494608
 20
9.1155362035
 30
0.0
 10
10.322842204
 20
9.1151990709
 30
0.0
 10
10.3252335104
 20
9.1147945599
 30
0.0
 10
10.3276248129
 20
9.1143900361
 30
0.0
 10
10.3308132176
 20
9.1138506754
 30
0.0
 10
10.334798723
 20
9.1131764731
 30
0.0
 10
10.3395813297
 20
9.1123674309
 30
0.0
 10
10.3459581386
 20
9.1112887078
 30
0.0
 10
10.3507407452
 20
9.1104796656
 30
0.0
 10
10.3539291497
 20
9.109940304
 30
0.0
  0
ENDSEC
  0
SECTION
  2
OBJECTS
  0
DICTIONARY
  5
C
100
AcDbDictionary
280
0
281
1
  3
ACAD_GROUP
350
D
  3
ACAD_MLINESTYLE
350
17
  3
ACAD_LAYOUT
350
1A
  3
ACAD_PLOTSETTINGS
350
19
  3
ACAD_PLOTSTYLENAME
350
E
  3
ACAD_IMAGE_DICT
350
       39A
  3
ACAD_IMAGE_VARS
350
       39B
  3
ACAD_TABLESTYLE
350
       39C
  0
IMAGEDEF_REACTOR
  5
399
100
AcDbRasterImageDefReactor
 90
2
330
28F
  0
DICTIONARY
  5
D
102
{ACAD_REACTORS
330
C
102
}
100
AcDbDictionary
280
0
281
1
  0
ACDBDICTIONARYWDFLT
  5
E
102
{ACAD_REACTORS
330
C
102
}
100
AcDbDictionary
281
1
  3
Normal
350
F
100
AcDbDictionaryWithDefault
340
F
  0
DICTIONARY
  5
39A
330
C
100
AcDbDictionary
281
1
  3
B2V_assy_2_img_1
350
       39F
  0
RASTERVARIABLES
  5
39B
330
C
100
AcDbRasterVariables
 90
0
 70
0
 71
1
 72
5
  0
DICTIONARY
  5
17
102
{ACAD_REACTORS
330
C
102
}
100
AcDbDictionary
280
0
281
1
  3
Standard
350
18
  0
DICTIONARY
  5
39C
330
C
100
AcDbDictionary
281
1
  3
Standard
350
       3A0
  3
Standard1
350
       3A1
  0
DICTIONARY
  5
19
102
{ACAD_REACTORS
330
C
102
}
100
AcDbDictionary
281
1
  0
DICTIONARY
  5
1A
102
{ACAD_REACTORS
330
C
102
}
100
AcDbDictionary
281
1
  3
Model
350
39D
  3
Layout1
350
39E
  0
ACDBPLACEHOLDER
  5
F
102
{ACAD_REACTORS
330
E
102
}
  0
MLINESTYLE
  5
18
102
{ACAD_REACTORS
330
17
102
}
100
AcDbMlineStyle
  2
STANDARD
 70
0
  3

 62
256
 51
90.0
 52
90.0
 71
2
 49
0.5
 62
256
  6
BYLAYER
 49
-0.5
 62
256
  6
BYLAYER
  0
LAYOUT
  5
39D
102
{ACAD_REACTORS
330
1A
102
}
100
AcDbPlotSettings
  1

  2
none_device
  4
ANSI_C_(22.00_x_17.00_Inches)
  6

 40
0.0
 41
0.0
 42
0.0
 43
0.0
 44
558.8
 45
431.8
 46
0.0
 47
0.0
 48
0.0
 49
0.0
140
0.0
141
0.0
142
1.0
143
1.0
 70
1024
 72
0
 73
0
 74
0
  7

 75
0
147
1.0
148
0.0
149
0.0
100
AcDbLayout
  1
Model
 70
0
 71
0
 10
0.0
 20
0.0
 11
22.0
 21
17.0
 12
0.0
 22
0.0
 32
0.0
 14
0.0
 24
0.0
 34
0.0
 15
0.0
 25
0.0
 35
0.0
146
0.0
 13
0.0
 23
0.0
 33
0.0
 16
1.0
 26
0.0
 36
0.0
 17
0.0
 27
1.0
 37
0.0
 76
0
330
20C
345
0
346
0
  0
LAYOUT
  5
39E
102
{ACAD_REACTORS
330
1A
102
}
100
AcDbPlotSettings
  1

  2
none_device
  4
ANSI_C_(22.00_x_17.00_Inches)
  6

 40
0.0
 41
0.0
 42
0.0
 43
0.0
 44
558.8
 45
431.8
 46
0.0
 47
0.0
 48
0.0
 49
0.0
140
0.0
141
0.0
142
1.0
143
1.0
 70
0
 72
0
 73
0
 74
0
  7

 75
0
147
1.0
148
0.0
149
0.0
100
AcDbLayout
  1
Layout1
 70
0
 71
1
 10
0.0
 20
0.0
 11
22.0
 21
17.0
 12
0.0
 22
0.0
 32
0.0
 14
0.0
 24
0.0
 34
0.0
 15
0.0
 25
0.0
 35
0.0
146
0.0
 13
0.0
 23
0.0
 33
0.0
 16
1.0
 26
0.0
 36
0.0
 17
0.0
 27
1.0
 37
0.0
 76
0
330
20D
345
0
346
0
  0
IMAGEDEF
  5
39F
102
{ACAD_REACTORS
330
39A
330
399
102
}
100
AcDbRasterImageDef
 90
0
  1
B2V_assy_2_img_1.png
 10
369.0
 20
92.0
 11
0.0066666667
 21
0.0066666667
280
1
281
0
  0
TABLESTYLE
  5
3A0
102
{ACAD_REACTORS
330
39C
330
292
330
293
102
}
330
39C
100
AcDbTableStyle
  3
Standard
 70
0
 71
0
 40
0.06
 41
0.06
280
1
281
1
  7
Standard
140
0.18
170
1
 62
0
 63
7
283
0
  7
Standard
140
0.18
170
1
 62
0
 63
7
283
0
  7
Standard
140
0.18
170
1
 62
0
 63
7
283
0
  0
TABLESTYLE
  5
3A1
102
{ACAD_REACTORS
330
39C
330
291
102
}
330
39C
100
AcDbTableStyle
  3
Standard1
 70
1
 71
0
 40
0.06
 41
0.06
280
1
281
1
  7
Standard
140
0.18
170
1
 62
0
 63
7
283
0
  7
Standard
140
0.18
170
1
 62
0
 63
7
283
0
  7
Standard
140
0.18
170
1
 62
0
 63
7
283
0
  0
ENDSEC
  0
EOF
