999
DXF file: B2I_assy_2.dxf
999
Pro/ENGINEER 2014200 by Parametric Technology Corporation
  0
SECTION
  2
HEADER
  9
$ACADVER
  1
AC1021
  9
$DWGCODEPAGE
  3
ANSI_1252
  9
$EXTMAX
 10
22.0
 20
17.0
 30
0.0
  9
$EXTMIN
 10
0.0
 20
0.0
 30
0.0
  9
$LIMMIN
 10
0.0
 20
0.0
  9
$LIMMAX
 10
22.0
 20
17.0
  9
$VIEWCTR
 10
11.0
 20
8.5
  9
$VIEWSIZE
 40
17.0
  9
$CLAYER
  8
0
  9
$LTSCALE
 40
1.21
  9
$CELTYPE
  6
BYLAYER
  9
$DIMSCALE
 40
1.0
  9
$DIMASZ
 40
0.1875
  9
$DIMEXO
 40
0.0625
  9
$DIMDLI
 40
0.836
  9
$DIMEXE
 40
0.125
  9
$DIMCEN
 40
0.198
  9
$DIMLFAC
 40
1.0
  9
$DIMBLK
  1
_FILLED
  9
$DIMTXT
 40
0.1
  9
$DIMTOL
 70
0
  9
$DIMLIM
 70
0
  9
$DIMTFAC
 40
1.0
  9
$DIMGAP
 40
0.09
  9
$DIMDSEP
 70
46
  9
$AUNITS
 70
0
  9
$PDMODE
 70
3
  9
$PDSIZE
 40
0.3125
  9
$HANDSEED
  5
39F
  9
$TILEMODE
 70
1
  9
$MEASUREMENT
 70
0
  9
$INSUNITS
 70
1
  0
ENDSEC
  0
SECTION
  2
CLASSES
  0
CLASS
  1
ACDBDICTIONARYWDFLT
  2
AcDbDictionaryWithDefault
  3
AutoCAD 2000
 90
0
 91
1
280
0
281
0
  0
CLASS
  1
ACDBPLACEHOLDER
  2
AcDbPlaceHolder
  3
AutoCAD 2000
 90
0
 91
1
280
0
281
0
  0
CLASS
  1
LAYOUT
  2
AcDbLayout
  3
AutoCAD 2000
 90
0
 91
0
280
0
281
0
  0
CLASS
  1
RASTERVARIABLES
  2
AcDbRasterVariables
  3
ISM
 90
0
 91
1
280
0
281
0
  0
CLASS
  1
IMAGEDEF
  2
AcDbRasterImageDef
  3
ISM
 90
0
 91
1
280
0
281
0
  0
CLASS
  1
IMAGEDEF_REACTOR
  2
AcDbRasterImageDefReactor
  3
ISM
 90
0
 91
1
280
0
281
0
  0
CLASS
  1
IMAGE
  2
AcDbRasterImage
  3
ISM
 90
127
 91
1
280
0
281
1
  0
CLASS
  1
TABLESTYLE
  2
AcDbTableStyle
  3
ObjectDBX Classes
 90
2047
 91
1
280
0
281
0
  0
CLASS
  1
ACAD_TABLE
  2
AcDbTable
  3
ObjectDBX Classes
 90
1025
 91
3
280
0
281
1
  0
ENDSEC
  0
SECTION
  2
TABLES
  0
TABLE
  2
VPORT
  5
8
100
AcDbSymbolTable
 70
2
  0
VPORT
  5
1F4
100
AcDbSymbolTableRecord
100
AcDbViewportTableRecord
  2
*ACTIVE
 70
0
 10
0.0
 20
0.0
 11
1.0
 21
1.0
 12
11.0
 22
8.5
 13
0.0
 23
0.0
 14
1.0
 24
1.0
 15
0.0
 25
0.0
 16
0.0
 26
0.0
 36
1.0
 17
0.0
 27
0.0
 37
0.0
 40
17.0
 41
1.2941176471
 42
50.0
 43
0.0
 44
0.0
 50
0.0
 51
0.0
 71
0
 72
100
 73
1
 74
1
 75
0
 76
0
 77
0
 78
0
  0
ENDTAB
  0
TABLE
  2
LTYPE
  5
5
100
AcDbSymbolTable
 70
6
  0
LTYPE
  5
14
100
AcDbSymbolTableRecord
100
AcDbLinetypeTableRecord
  2
BYBLOCK
 70
0
  3

 72
65
 73
0
 40
0.0
  0
LTYPE
  5
15
100
AcDbSymbolTableRecord
100
AcDbLinetypeTableRecord
  2
BYLAYER
 70
0
  3

 72
65
 73
0
 40
0.0
  0
LTYPE
  5
16
100
AcDbSymbolTableRecord
100
AcDbLinetypeTableRecord
  2
CONTINUOUS
 70
64
  3
Solid line
 72
65
 73
0
 40
0.0
  0
LTYPE
  5
1F5
100
AcDbSymbolTableRecord
100
AcDbLinetypeTableRecord
  2
CENTER
 70
64
  3
____ _ ____ _ ____ _ ____ _ ____ _ ____ _ ____
 72
65
 73
4
 40
0.6
 49
0.375
 74
0
 49
-0.075
 74
0
 49
0.075
 74
0
 49
-0.075
 74
0
  0
LTYPE
  5
1F6
100
AcDbSymbolTableRecord
100
AcDbLinetypeTableRecord
  2
HIDDEN
 70
64
  3
- - - - - - - - - - - - - - - - - - - -
 72
65
 73
2
 40
0.2
 49
0.1
 74
0
 49
-0.1
 74
0
  0
LTYPE
  5
1F7
100
AcDbSymbolTableRecord
100
AcDbLinetypeTableRecord
  2
PHANTOM
 70
64
  3
_____ _ _ _____ _ _ _____ _ _ _____
 72
65
 73
6
 40
0.8
 49
0.45
 74
0
 49
-0.05
 74
0
 49
0.1
 74
0
 49
-0.05
 74
0
 49
0.1
 74
0
 49
-0.05
 74
0
  0
LTYPE
  5
1F8
100
AcDbSymbolTableRecord
100
AcDbLinetypeTableRecord
  2
DOT
 70
64
  3
. . . . . . . . . . . . . . . . . . . .
 72
65
 73
2
 40
0.2
 49
0.1
 74
0
 49
-0.1
 74
0
  0
LTYPE
  5
1F9
100
AcDbSymbolTableRecord
100
AcDbLinetypeTableRecord
  2
DASHED
 70
64
  3
- - - - - - - - - - - - - - - - - - - -
 72
65
 73
2
 40
0.2
 49
0.1
 74
0
 49
-0.1
 74
0
  0
ENDTAB
  0
TABLE
  2
LAYER
  5
2
100
AcDbSymbolTable
 70
36
  0
LAYER
  5
10
100
AcDbSymbolTableRecord
100
AcDbLayerTableRecord
  2
0
 70
0
 62
7
  6
CONTINUOUS
370
-3
390
F
  0
LAYER
  5
1FA
100
AcDbSymbolTableRecord
100
AcDbLayerTableRecord
  2
DEFAULT_1
 70
0
 62
7
  6
CENTER
370
-3
390
F
  0
LAYER
  5
1FB
100
AcDbSymbolTableRecord
100
AcDbLayerTableRecord
  2
DEFAULT_2
 70
0
 62
8
  6
HIDDEN
370
-3
390
F
  0
LAYER
  5
1FC
100
AcDbSymbolTableRecord
100
AcDbLayerTableRecord
  2
DEFAULT_3
 70
0
 62
7
  6
PHANTOM
370
-3
390
F
  0
LAYER
  5
1FD
100
AcDbSymbolTableRecord
100
AcDbLayerTableRecord
  2
01___PRT_ALL_DTM_PLN
 70
0
 62
7
  6
CONTINUOUS
370
-3
390
F
  0
LAYER
  5
1FE
100
AcDbSymbolTableRecord
100
AcDbLayerTableRecord
  2
01___PRT_DEF_DTM_PLN
 70
0
 62
7
  6
CONTINUOUS
370
-3
390
F
  0
LAYER
  5
1FF
100
AcDbSymbolTableRecord
100
AcDbLayerTableRecord
  2
02___PRT_ALL_AXES
 70
0
 62
7
  6
CONTINUOUS
370
-3
390
F
  0
LAYER
  5
200
100
AcDbSymbolTableRecord
100
AcDbLayerTableRecord
  2
03___PRT_ALL_CURVES
 70
0
 62
7
  6
CONTINUOUS
370
-3
390
F
  0
LAYER
  5
201
100
AcDbSymbolTableRecord
100
AcDbLayerTableRecord
  2
04___PRT_ALL_DTM_PNT
 70
0
 62
7
  6
CONTINUOUS
370
-3
390
F
  0
LAYER
  5
202
100
AcDbSymbolTableRecord
100
AcDbLayerTableRecord
  2
05___PRT_ALL_DTM_CSYS
 70
0
 62
7
  6
CONTINUOUS
370
-3
390
F
  0
LAYER
  5
203
100
AcDbSymbolTableRecord
100
AcDbLayerTableRecord
  2
05___PRT_DEF_DTM_CSYS
 70
0
 62
7
  6
CONTINUOUS
370
-3
390
F
  0
LAYER
  5
204
100
AcDbSymbolTableRecord
100
AcDbLayerTableRecord
  2
06___PRT_ALL_SURFS
 70
0
 62
7
  6
CONTINUOUS
370
-3
390
F
  0
LAYER
  5
205
100
AcDbSymbolTableRecord
100
AcDbLayerTableRecord
  2
DATUM_PLANES
 70
0
 62
7
  6
CONTINUOUS
370
-3
390
F
  0
LAYER
  5
206
100
AcDbSymbolTableRecord
100
AcDbLayerTableRecord
  2
PORT_AREAS
 70
0
 62
7
  6
CONTINUOUS
370
-3
390
F
  0
LAYER
  5
207
100
AcDbSymbolTableRecord
100
AcDbLayerTableRecord
  2
SUNNBOMCOSMETIC
 70
0
 62
7
  6
CONTINUOUS
370
-3
390
F
  0
LAYER
  5
208
100
AcDbSymbolTableRecord
100
AcDbLayerTableRecord
  2
SUNNBOMSTAMPING
 70
0
 62
7
  6
CONTINUOUS
370
-3
390
F
  0
LAYER
  5
209
100
AcDbSymbolTableRecord
100
AcDbLayerTableRecord
  2
THREADS
 70
0
 62
7
  6
CONTINUOUS
370
-3
390
F
  0
ENDTAB
  0
TABLE
  2
STYLE
  5
3
100
AcDbSymbolTable
 70
1
  0
STYLE
  5
11
100
AcDbSymbolTableRecord
100
AcDbTextStyleTableRecord
  2
STANDARD
 70
0
 40
0.0
 41
0.8
 50
0.0
 71
0
 42
0.2
  3
txt
  4

  0
STYLE
  5
20A
100
AcDbSymbolTableRecord
100
AcDbTextStyleTableRecord
  2
TEXTSTYLE_1
 70
0
 40
0.0
 41
0.8
 50
0.0
 71
0
 42
0.2
  3
gdt
  4

  0
ENDTAB
  0
TABLE
  2
VIEW
  5
6
100
AcDbSymbolTable
 70
0
  0
ENDTAB
  0
TABLE
  2
UCS
  5
7
100
AcDbSymbolTable
 70
0
  0
ENDTAB
  0
TABLE
  2
APPID
  5
9
100
AcDbSymbolTable
 70
1
  0
APPID
  5
20B
100
AcDbSymbolTableRecord
100
AcDbRegAppTableRecord
  2
ACAD
 70
0
  0
ENDTAB
  0
TABLE
  2
BLOCK_RECORD
  5
1
100
AcDbSymbolTable
 70
0
  0
BLOCK_RECORD
  5
20C
100
AcDbSymbolTableRecord
100
AcDbBlockTableRecord
  2
*Model_Space
  0
BLOCK_RECORD
  5
20D
100
AcDbSymbolTableRecord
100
AcDbBlockTableRecord
  2
*Paper_Space
  0
BLOCK_RECORD
  5
20E
100
AcDbSymbolTableRecord
100
AcDbBlockTableRecord
  2
SUN_FIRST_THIRD_ANGLE_BL0
  0
BLOCK_RECORD
  5
20F
100
AcDbSymbolTableRecord
100
AcDbBlockTableRecord
  2
*T1
  0
BLOCK_RECORD
  5
210
100
AcDbSymbolTableRecord
100
AcDbBlockTableRecord
  2
*T2
  0
BLOCK_RECORD
  5
211
100
AcDbSymbolTableRecord
100
AcDbBlockTableRecord
  2
*T3
  0
ENDTAB
  0
TABLE
  2
DIMSTYLE
  5
A
100
AcDbSymbolTable
 70
1
100
AcDbDimStyleTable
 71
0
  0
DIMSTYLE
105
212
100
AcDbSymbolTableRecord
100
AcDbDimStyleTableRecord
  2
STANDARD
 70
0
  3

  4

 40
1.0
 41
0.1875
 42
0.0625
 43
0.38
 44
0.125
 45
0.0
 46
0.0
 47
0.001
 48
0.001
140
0.1
141
0.09
142
0.0
143
25.4
144
1.0
145
0.0
146
1.0
147
0.09
 71
0.0
 72
0.0
 73
1
 74
1
 75
0
 76
0
 77
0
 78
4
170
0
171
2
172
0
173
0
174
0
175
0
176
0
177
0
178
0
270
2
271
3
272
3
273
2
274
2
275
0
280
0
281
0
282
0
283
1
284
4
285
0
286
0
287
3
288
0
340
11
278
46
  0
ENDTAB
  0
ENDSEC
  0
SECTION
  2
BLOCKS
  0
BLOCK
  5
20
100
AcDbEntity
  8
0
100
AcDbBlockBegin
  2
*Model_Space
 70
0
 10
0.0
 20
0.0
 30
0.0
  3
*Model_Space
  1

  0
ENDBLK
  5
21
100
AcDbEntity
  8
0
100
AcDbBlockEnd
  0
BLOCK
  5
1C
100
AcDbEntity
  8
0
100
AcDbBlockBegin
  2
*Paper_Space
 70
0
 10
0.0
 20
0.0
 30
0.0
  3
*Paper_Space
  1

  0
ENDBLK
  5
1D
100
AcDbEntity
  8
0
100
AcDbBlockEnd
  0
BLOCK
  5
213
100
AcDbEntity
  8
0
100
AcDbBlockBegin
 62
2
  6
CONTINUOUS
  2
SUN_FIRST_THIRD_ANGLE_BL0
 70
64
 10
20.4816717061
 20
1.2289683772
  3
SUN_FIRST_THIRD_ANGLE_BL0
  1

  0
TEXT
  5
214
100
AcDbEntity
  8
0
100
AcDbText
 62
2
  6
CONTINUOUS
 10
19.4750896608
 20
1.4136269581
  7
STANDARD
 40
0.08
  1
FIRST ANGLE
 41
0.8
 72
0
100
AcDbText
  0
TEXT
  5
215
100
AcDbEntity
  8
0
100
AcDbText
 62
2
  6
CONTINUOUS
 10
20.7842537513
 20
1.4047600029
  7
STANDARD
 40
0.08
  1
THIRD ANGLE
 41
0.8
 72
0
100
AcDbText
  0
LINE
  5
216
100
AcDbEntity
  8
0
100
AcDbLine
 62
7
  6
CONTINUOUS
 10
19.4767170086
 20
1.1727031207
 11
19.6334271527
 21
1.1717972817
  0
LINE
  5
217
100
AcDbEntity
  8
0
100
AcDbLine
 62
7
  6
CONTINUOUS
 10
19.6596964832
 20
1.1717972817
 11
19.6950230232
 21
1.171593082
  0
LINE
  5
218
100
AcDbEntity
  8
0
100
AcDbLine
 62
7
  6
CONTINUOUS
 10
19.7194818561
 20
1.1708914427
 11
19.8852396156
 21
1.1699333054
  0
LINE
  5
219
100
AcDbEntity
  8
0
100
AcDbLine
 62
7
  6
CONTINUOUS
 10
19.4758111696
 20
1.2723454088
 11
19.88525039
 21
1.3511534004
  0
LINE
  5
21A
100
AcDbEntity
  8
0
100
AcDbLine
 62
7
  6
CONTINUOUS
 10
19.88525039
 20
1.3511534004
 11
19.8831348489
 21
0.9851647912
  0
LINE
  5
21B
100
AcDbEntity
  8
0
100
AcDbLine
 62
7
  6
CONTINUOUS
 10
19.8831348489
 20
0.9851647912
 11
19.4767170086
 21
1.0658141206
  0
LINE
  5
21C
100
AcDbEntity
  8
0
100
AcDbLine
 62
7
  6
CONTINUOUS
 10
19.4767170086
 20
1.0658141206
 11
19.4779056764
 21
1.2714536432
  0
CIRCLE
  5
21D
100
AcDbEntity
  8
0
100
AcDbCircle
 62
7
  6
CONTINUOUS
 10
20.2068232291
 20
1.1717972817
 40
0.175742101
  0
CIRCLE
  5
21E
100
AcDbEntity
  8
0
100
AcDbCircle
 62
7
  6
CONTINUOUS
 10
20.2068232291
 20
1.1717972817
 40
0.1005522074
  0
LINE
  5
21F
100
AcDbEntity
  8
0
100
AcDbLine
 62
7
  6
CONTINUOUS
 10
20.2077290681
 20
1.3756110529
 11
20.2071171714
 21
1.2379342989
  0
LINE
  5
220
100
AcDbEntity
  8
0
100
AcDbLine
 62
7
  6
CONTINUOUS
 10
20.2077290681
 20
1.2016899681
 11
20.2074674401
 21
1.1428236749
  0
LINE
  5
221
100
AcDbEntity
  8
0
100
AcDbLine
 62
7
  6
CONTINUOUS
 10
20.208634907
 20
1.101141841
 11
20.2080230104
 21
0.963465087
  0
LINE
  5
222
100
AcDbEntity
  8
0
100
AcDbLine
 62
7
  6
CONTINUOUS
 10
20.0066328138
 20
1.1745147986
 11
20.1443095678
 21
1.1739029019
  0
LINE
  5
223
100
AcDbEntity
  8
0
100
AcDbLine
 62
7
  6
CONTINUOUS
 10
20.1832714155
 20
1.1727031207
 11
20.238153505
 21
1.172335442
  0
LINE
  5
224
100
AcDbEntity
  8
0
100
AcDbLine
 62
7
  6
CONTINUOUS
 10
20.2756669918
 20
1.1717972817
 11
20.407916871
 21
1.1712095044
  0
CIRCLE
  5
225
100
AcDbEntity
  8
0
100
AcDbCircle
 62
7
  6
CONTINUOUS
 10
20.7509457401
 20
1.1693297793
 40
0.1722024983
  0
CIRCLE
  5
226
100
AcDbEntity
  8
0
100
AcDbCircle
 62
7
  6
CONTINUOUS
 10
20.7509457401
 20
1.1693297793
 40
0.0985164967
  0
LINE
  5
227
100
AcDbEntity
  8
0
100
AcDbLine
 62
7
  6
CONTINUOUS
 10
20.7169767782
 20
1.170462078
 11
20.7825395137
 21
1.1682766535
  0
LINE
  5
228
100
AcDbEntity
  8
0
100
AcDbLine
 62
7
  6
CONTINUOUS
 10
20.8177513651
 20
1.1693297793
 11
20.947965719
 21
1.1693297793
  0
LINE
  5
229
100
AcDbEntity
  8
0
100
AcDbLine
 62
7
  6
CONTINUOUS
 10
20.6875370113
 20
1.170462078
 11
20.5573226574
 21
1.170462078
  0
LINE
  5
22A
100
AcDbEntity
  8
0
100
AcDbLine
 62
7
  6
CONTINUOUS
 10
20.7486811426
 20
1.1987695462
 11
20.7486811426
 21
1.1432869085
  0
LINE
  5
22B
100
AcDbEntity
  8
0
100
AcDbLine
 62
7
  6
CONTINUOUS
 10
20.7498134414
 20
1.1059210505
 11
20.7498134414
 21
0.9757066966
  0
LINE
  5
22C
100
AcDbEntity
  8
0
100
AcDbLine
 62
7
  6
CONTINUOUS
 10
20.7486811426
 20
1.2338708068
 11
20.7486811426
 21
1.3640851607
  0
LINE
  5
22D
100
AcDbEntity
  8
0
100
AcDbLine
 62
7
  6
CONTINUOUS
 10
21.0702539817
 20
1.2701043662
 11
21.4790138229
 21
1.3448360823
  0
LINE
  5
22E
100
AcDbEntity
  8
0
100
AcDbLine
 62
7
  6
CONTINUOUS
 10
21.4790138229
 20
1.3448360823
 11
21.4790138229
 21
0.9779712941
  0
LINE
  5
22F
100
AcDbEntity
  8
0
100
AcDbLine
 62
7
  6
CONTINUOUS
 10
21.4790138229
 20
0.9779712941
 11
21.069121683
 21
1.0617614
  0
LINE
  5
230
100
AcDbEntity
  8
0
100
AcDbLine
 62
7
  6
CONTINUOUS
 10
21.0702539817
 20
1.2701043662
 11
21.069121683
 21
1.0617614
  0
LINE
  5
231
100
AcDbEntity
  8
0
100
AcDbLine
 62
7
  6
CONTINUOUS
 10
21.4790138229
 20
1.1693297793
 11
21.3159628059
 21
1.1693297793
  0
LINE
  5
232
100
AcDbEntity
  8
0
100
AcDbLine
 62
7
  6
CONTINUOUS
 10
21.2876553377
 20
1.1693297793
 11
21.2502894796
 21
1.1693297793
  0
LINE
  5
233
100
AcDbEntity
  8
0
100
AcDbLine
 62
7
  6
CONTINUOUS
 10
21.2208497126
 20
1.1659328831
 11
21.0713862804
 21
1.1659328831
  0
LINE
  5
234
100
AcDbEntity
  8
0
100
AcDbLine
 62
7
  6
CONTINUOUS
 10
20.4796138713
 20
1.5284908897
 11
20.4766766948
 21
0.9294458646
  0
ENDBLK
  5
235
100
AcDbEntity
  8
0
  6
BYBLOCK
 62
0
100
AcDbBlockEnd
  0
BLOCK
  5
236
100
AcDbEntity
  8
0
100
AcDbBlockBegin
  2
*T1
 70
1
 10
0.0
 20
0.0
  3
*T1
  1

  0
LINE
  5
237
100
AcDbEntity
  8
0
100
AcDbLine
 62
2
  6
CONTINUOUS
 10
9.275
 20
0.0
 11
-0.0
 21
0.0
  0
LINE
  5
238
100
AcDbEntity
  8
0
100
AcDbLine
 62
2
  6
CONTINUOUS
 10
9.275
 20
0.0
 11
9.275
 21
1.25
  0
LINE
  5
239
100
AcDbEntity
  8
0
100
AcDbLine
 62
2
  6
CONTINUOUS
 10
9.275
 20
0.625
 11
-0.0
 21
0.625
  0
LINE
  5
23A
100
AcDbEntity
  8
0
100
AcDbLine
 62
2
  6
CONTINUOUS
 10
9.275
 20
1.25
 11
-0.0
 21
1.25
  0
LINE
  5
23B
100
AcDbEntity
  8
0
100
AcDbLine
 62
2
  6
CONTINUOUS
 10
6.8
 20
0.0
 11
6.8
 21
1.25
  0
LINE
  5
23C
100
AcDbEntity
  8
0
100
AcDbLine
 62
2
  6
CONTINUOUS
 10
6.4
 20
0.0
 11
6.4
 21
0.625
  0
LINE
  5
23D
100
AcDbEntity
  8
0
100
AcDbLine
 62
2
  6
CONTINUOUS
 10
5.9
 20
0.0
 11
5.9
 21
0.625
  0
LINE
  5
23E
100
AcDbEntity
  8
0
100
AcDbLine
 62
2
  6
CONTINUOUS
 10
5.2
 20
0.0
 11
5.2
 21
0.625
  0
LINE
  5
23F
100
AcDbEntity
  8
0
100
AcDbLine
 62
2
  6
CONTINUOUS
 10
4.1
 20
0.0
 11
4.1
 21
1.25
  0
LINE
  5
240
100
AcDbEntity
  8
0
100
AcDbLine
 62
2
  6
CONTINUOUS
 10
-0.0
 20
0.0
 11
-0.0
 21
1.25
  0
MTEXT
  5
241
100
AcDbEntity
  8
0
100
AcDbMText
 62
2
  6
CONTINUOUS
  7
STANDARD
 71
2
 72
1
 10
6.6
 20
0.325
 30
0.0
 11
1.0
 21
0.0
 31
0.0
 44
0.9
  1
2
 40
0.125
 41
0.2
  0
MTEXT
  5
242
100
AcDbEntity
  8
0
100
AcDbMText
 62
2
  6
CONTINUOUS
  7
STANDARD
 71
2
 72
1
 10
6.15
 20
0.325
 30
0.0
 11
1.0
 21
0.0
 31
0.0
 44
0.9
  1
C
 40
0.125
 41
0.2
  0
MTEXT
  5
243
100
AcDbEntity
  8
0
100
AcDbMText
 62
2
  6
CONTINUOUS
  7
STANDARD
 71
2
 72
1
 10
5.55
 20
0.325
 30
0.0
 11
1.0
 21
0.0
 31
0.0
 44
0.9
  1
1.000
 40
0.125
 41
1.0
  0
MTEXT
  5
244
100
AcDbEntity
  8
0
100
AcDbMText
 62
2
  6
CONTINUOUS
  7
STANDARD
 71
2
 72
1
 10
4.65
 20
0.325
 30
0.0
 11
1.0
 21
0.0
 31
0.0
 44
0.9
  1
Mar-18-20
 40
0.125
 41
1.8
  0
MTEXT
  5
245
100
AcDbEntity
  8
0
100
AcDbMText
 62
2
  6
CONTINUOUS
  7
STANDARD
 71
2
 72
1
 10
2.05
 20
0.4625
 30
0.0
 11
1.0
 21
0.0
 31
0.0
 44
0.9
  1
T-2A Line mount\P(See Technical Data for Body Features)
 40
0.125
 41
7.6
  0
MTEXT
  5
246
100
AcDbEntity
  8
0
100
AcDbMText
 62
2
  6
CONTINUOUS
  7
STANDARD
 71
1
 72
1
 10
6.45
 20
0.5625
 30
0.0
 11
1.0
 21
0.0
 31
0.0
 44
0.9
  1
SHEET
 40
0.06
 41
0.48
  0
MTEXT
  5
247
100
AcDbEntity
  8
0
100
AcDbMText
 62
2
  6
CONTINUOUS
  7
STANDARD
 71
1
 72
1
 10
5.95
 20
0.5625
 30
0.0
 11
1.0
 21
0.0
 31
0.0
 44
0.9
  1
DWG SIZE
 40
0.06
 41
0.768
  0
MTEXT
  5
248
100
AcDbEntity
  8
0
100
AcDbMText
 62
2
  6
CONTINUOUS
  7
STANDARD
 71
1
 72
1
 10
5.25
 20
0.5625
 30
0.0
 11
1.0
 21
0.0
 31
0.0
 44
0.9
  1
SCALE
 40
0.06
 41
0.48
  0
MTEXT
  5
249
100
AcDbEntity
  8
0
100
AcDbMText
 62
2
  6
CONTINUOUS
  7
STANDARD
 71
1
 72
1
 10
4.15
 20
0.5625
 30
0.0
 11
1.0
 21
0.0
 31
0.0
 44
0.9
  1
DATE
 40
0.06
 41
0.384
  0
MTEXT
  5
24A
100
AcDbEntity
  8
0
100
AcDbMText
 62
2
  6
CONTINUOUS
  7
STANDARD
 71
1
 72
1
 10
0.05
 20
0.5625
 30
0.0
 11
1.0
 21
0.0
 31
0.0
 44
0.9
  1
DESCRIPTION
 40
0.06
 41
1.056
  0
MTEXT
  5
24B
100
AcDbEntity
  8
0
100
AcDbMText
 62
2
  6
CONTINUOUS
  7
STANDARD
 71
2
 72
1
 10
5.45
 20
1.0375
 30
0.0
 11
1.0
 21
0.0
 31
0.0
 44
0.9
  1
ALL DIMENSIONS IN INCH\PVIEWS ARE THIRD ANGLE
 40
0.12
 41
4.224
  0
MTEXT
  5
24C
100
AcDbEntity
  8
0
100
AcDbMText
 62
2
  6
CONTINUOUS
  7
STANDARD
 71
2
 72
1
 10
2.05
 20
0.95
 30
0.0
 11
1.0
 21
0.0
 31
0.0
 44
0.9
  1
B2I
 40
0.125
 41
0.6
  0
MTEXT
  5
24D
100
AcDbEntity
  8
0
100
AcDbMText
 62
2
  6
CONTINUOUS
  7
STANDARD
 71
1
 72
1
 10
0.05
 20
1.1875
 30
0.0
 11
1.0
 21
0.0
 31
0.0
 44
0.9
  1
MODEL
 40
0.06
 41
0.48
  0
ENDBLK
  5
24E
100
AcDbEntity
  8
0
  6
BYBLOCK
 62
0
100
AcDbBlockEnd
  0
BLOCK
  5
24F
100
AcDbEntity
  8
0
100
AcDbBlockBegin
  2
*T2
 70
1
 10
0.0
 20
0.0
  3
*T2
  1

  0
LINE
  5
250
100
AcDbEntity
  8
0
100
AcDbLine
 62
2
  6
CONTINUOUS
 10
0.0
 20
0.0
 11
9.055
 21
0.0
  0
LINE
  5
251
100
AcDbEntity
  8
0
100
AcDbLine
 62
2
  6
CONTINUOUS
 10
0.0
 20
0.0
 11
0.0
 21
-2.594
  0
LINE
  5
252
100
AcDbEntity
  8
0
100
AcDbLine
 62
2
  6
CONTINUOUS
 10
0.0
 20
-0.344
 11
9.055
 21
-0.344
  0
LINE
  5
253
100
AcDbEntity
  8
0
100
AcDbLine
 62
2
  6
CONTINUOUS
 10
0.0
 20
-0.594
 11
9.055
 21
-0.594
  0
LINE
  5
254
100
AcDbEntity
  8
0
100
AcDbLine
 62
2
  6
CONTINUOUS
 10
0.0
 20
-0.844
 11
9.055
 21
-0.844
  0
LINE
  5
255
100
AcDbEntity
  8
0
100
AcDbLine
 62
2
  6
CONTINUOUS
 10
0.0
 20
-1.094
 11
9.055
 21
-1.094
  0
LINE
  5
256
100
AcDbEntity
  8
0
100
AcDbLine
 62
2
  6
CONTINUOUS
 10
0.0
 20
-1.344
 11
9.055
 21
-1.344
  0
LINE
  5
257
100
AcDbEntity
  8
0
100
AcDbLine
 62
2
  6
CONTINUOUS
 10
0.0
 20
-1.594
 11
9.055
 21
-1.594
  0
LINE
  5
258
100
AcDbEntity
  8
0
100
AcDbLine
 62
2
  6
CONTINUOUS
 10
0.0
 20
-1.844
 11
9.055
 21
-1.844
  0
LINE
  5
259
100
AcDbEntity
  8
0
100
AcDbLine
 62
2
  6
CONTINUOUS
 10
0.0
 20
-2.094
 11
9.055
 21
-2.094
  0
LINE
  5
25A
100
AcDbEntity
  8
0
100
AcDbLine
 62
2
  6
CONTINUOUS
 10
0.0
 20
-2.344
 11
9.055
 21
-2.344
  0
LINE
  5
25B
100
AcDbEntity
  8
0
100
AcDbLine
 62
2
  6
CONTINUOUS
 10
0.0
 20
-2.594
 11
9.055
 21
-2.594
  0
LINE
  5
25C
100
AcDbEntity
  8
0
100
AcDbLine
 62
2
  6
CONTINUOUS
 10
3.055
 20
0.0
 11
3.055
 21
-2.594
  0
LINE
  5
25D
100
AcDbEntity
  8
0
100
AcDbLine
 62
2
  6
CONTINUOUS
 10
9.055
 20
0.0
 11
9.055
 21
-2.594
  0
MTEXT
  5
25E
100
AcDbEntity
  8
0
100
AcDbMText
 62
2
  6
CONTINUOUS
  7
STANDARD
 71
2
 72
1
 10
1.5275
 20
-0.0995
 30
0.0
 11
1.0
 21
0.0
 31
0.0
 44
0.9
  1
Technical Data
 40
0.145
 41
3.248
  0
MTEXT
  5
25F
100
AcDbEntity
  8
0
100
AcDbMText
 62
2
  6
CONTINUOUS
  7
STANDARD
 71
2
 72
1
 10
4.555
 20
-0.0995
 30
0.0
 11
1.0
 21
0.0
 31
0.0
 44
0.9
  1
U.S. Units
 40
0.145
 41
2.32
  0
MTEXT
  5
260
100
AcDbEntity
  8
0
100
AcDbMText
 62
2
  6
CONTINUOUS
  7
STANDARD
 71
2
 72
1
 10
7.555
 20
-0.0995
 30
0.0
 11
1.0
 21
0.0
 31
0.0
 44
0.9
  1
Metric Units
 40
0.145
 41
2.784
  0
MTEXT
  5
261
100
AcDbEntity
  8
0
100
AcDbMText
 62
2
  6
CONTINUOUS
  7
STANDARD
 71
2
 72
1
 10
1.5275
 20
-0.4065
 30
0.0
 11
1.0
 21
0.0
 31
0.0
 44
0.9
  1
Cavity
 40
0.125
 41
1.2
  0
MTEXT
  5
262
100
AcDbEntity
  8
0
100
AcDbMText
 62
2
  6
CONTINUOUS
  7
STANDARD
 71
2
 72
1
 10
6.055
 20
-0.4065
 30
0.0
 11
1.0
 21
0.0
 31
0.0
 44
0.9
  1
T-2A
 40
0.125
 41
0.8
  0
MTEXT
  5
263
100
AcDbEntity
  8
0
100
AcDbMText
 62
2
  6
CONTINUOUS
  7
STANDARD
 71
2
 72
1
 10
1.5275
 20
-0.6565
 30
0.0
 11
1.0
 21
0.0
 31
0.0
 44
0.9
  1
Body Features
 40
0.125
 41
2.6
  0
MTEXT
  5
264
100
AcDbEntity
  8
0
100
AcDbMText
 62
2
  6
CONTINUOUS
  7
STANDARD
 71
2
 72
1
 10
6.055
 20
-0.6565
 30
0.0
 11
1.0
 21
0.0
 31
0.0
 44
0.9
  1
Ninety degree with reverse flow check - reducing
 40
0.125
 41
9.6
  0
MTEXT
  5
265
100
AcDbEntity
  8
0
100
AcDbMText
 62
2
  6
CONTINUOUS
  7
STANDARD
 71
2
 72
1
 10
1.5275
 20
-0.9065
 30
0.0
 11
1.0
 21
0.0
 31
0.0
 44
0.9
  1
Body Type
 40
0.125
 41
1.8
  0
MTEXT
  5
266
100
AcDbEntity
  8
0
100
AcDbMText
 62
2
  6
CONTINUOUS
  7
STANDARD
 71
2
 72
1
 10
6.055
 20
-0.9065
 30
0.0
 11
1.0
 21
0.0
 31
0.0
 44
0.9
  1
Line mount
 40
0.125
 41
2.0
  0
MTEXT
  5
267
100
AcDbEntity
  8
0
100
AcDbMText
 62
2
  6
CONTINUOUS
  7
STANDARD
 71
2
 72
1
 10
1.5275
 20
-1.1565
 30
0.0
 11
1.0
 21
0.0
 31
0.0
 44
0.9
  1
Interface
 40
0.125
 41
1.8
  0
MTEXT
  5
268
100
AcDbEntity
  8
0
100
AcDbMText
 62
2
  6
CONTINUOUS
  7
STANDARD
 71
2
 72
1
 10
6.055
 20
-1.1565
 30
0.0
 11
1.0
 21
0.0
 31
0.0
 44
0.9
  1
None
 40
0.125
 41
0.8
  0
MTEXT
  5
269
100
AcDbEntity
  8
0
100
AcDbMText
 62
2
  6
CONTINUOUS
  7
STANDARD
 71
2
 72
1
 10
1.5275
 20
-1.4065
 30
0.0
 11
1.0
 21
0.0
 31
0.0
 44
0.9
  1
Open Cavity Quantity
 40
0.125
 41
4.0
  0
MTEXT
  5
26A
100
AcDbEntity
  8
0
100
AcDbMText
 62
2
  6
CONTINUOUS
  7
STANDARD
 71
2
 72
1
 10
6.055
 20
-1.4065
 30
0.0
 11
1.0
 21
0.0
 31
0.0
 44
0.9
  1
1
 40
0.125
 41
0.2
  0
MTEXT
  5
26B
100
AcDbEntity
  8
0
100
AcDbMText
 62
2
  6
CONTINUOUS
  7
STANDARD
 71
2
 72
1
 10
1.5275
 20
-1.6565
 30
0.0
 11
1.0
 21
0.0
 31
0.0
 44
0.9
  1
Weight
 40
0.125
 41
1.2
  0
MTEXT
  5
26C
100
AcDbEntity
  8
0
100
AcDbMText
 62
2
  6
CONTINUOUS
  7
STANDARD
 71
2
 72
1
 10
4.555
 20
-1.6565
 30
0.0
 11
1.0
 21
0.0
 31
0.0
 44
0.9
  1
2.013 lb.
 40
0.125
 41
1.8
  0
MTEXT
  5
26D
100
AcDbEntity
  8
0
100
AcDbMText
 62
2
  6
CONTINUOUS
  7
STANDARD
 71
2
 72
1
 10
7.555
 20
-1.6565
 30
0.0
 11
1.0
 21
0.0
 31
0.0
 44
0.9
  1
0,913 kg.
 40
0.125
 41
1.8
  0
MTEXT
  5
26E
100
AcDbEntity
  8
0
100
AcDbMText
 62
2
  6
CONTINUOUS
  7
STANDARD
 71
2
 72
1
 10
1.5275
 20
-1.9065
 30
0.0
 11
1.0
 21
0.0
 31
0.0
 44
0.9
  1
Mounting Hole Diameter
 40
0.125
 41
4.4
  0
MTEXT
  5
26F
100
AcDbEntity
  8
0
100
AcDbMText
 62
2
  6
CONTINUOUS
  7
STANDARD
 71
2
 72
1
 10
4.555
 20
-1.9065
 30
0.0
 11
1.0
 21
0.0
 31
0.0
 44
0.9
  1
.42 in.
 40
0.125
 41
1.4
  0
MTEXT
  5
270
100
AcDbEntity
  8
0
100
AcDbMText
 62
2
  6
CONTINUOUS
  7
STANDARD
 71
2
 72
1
 10
7.555
 20
-1.9065
 30
0.0
 11
1.0
 21
0.0
 31
0.0
 44
0.9
  1
10,7 mm
 40
0.125
 41
1.4
  0
MTEXT
  5
271
100
AcDbEntity
  8
0
100
AcDbMText
 62
2
  6
CONTINUOUS
  7
STANDARD
 71
2
 72
1
 10
1.5275
 20
-2.1565
 30
0.0
 11
1.0
 21
0.0
 31
0.0
 44
0.9
  1
Mounting Hole Depth
 40
0.125
 41
3.8
  0
MTEXT
  5
272
100
AcDbEntity
  8
0
100
AcDbMText
 62
2
  6
CONTINUOUS
  7
STANDARD
 71
2
 72
1
 10
6.055
 20
-2.1565
 30
0.0
 11
1.0
 21
0.0
 31
0.0
 44
0.9
  1
Through
 40
0.125
 41
1.4
  0
MTEXT
  5
273
100
AcDbEntity
  8
0
100
AcDbMText
 62
2
  6
CONTINUOUS
  7
STANDARD
 71
2
 72
1
 10
1.5275
 20
-2.4065
 30
0.0
 11
1.0
 21
0.0
 31
0.0
 44
0.9
  1
Mounting Hole Quantity
 40
0.125
 41
4.4
  0
MTEXT
  5
274
100
AcDbEntity
  8
0
100
AcDbMText
 62
2
  6
CONTINUOUS
  7
STANDARD
 71
2
 72
1
 10
6.055
 20
-2.4065
 30
0.0
 11
1.0
 21
0.0
 31
0.0
 44
0.9
  1
2
 40
0.125
 41
0.2
  0
ENDBLK
  5
275
100
AcDbEntity
  8
0
  6
BYBLOCK
 62
0
100
AcDbBlockEnd
  0
BLOCK
  5
276
100
AcDbEntity
  8
0
100
AcDbBlockBegin
  2
*T3
 70
1
 10
0.0
 20
0.0
  3
*T3
  1

  0
LINE
  5
277
100
AcDbEntity
  8
0
100
AcDbLine
 62
2
  6
CONTINUOUS
 10
0.0
 20
0.0
 11
4.6
 21
0.0
  0
LINE
  5
278
100
AcDbEntity
  8
0
100
AcDbLine
 62
2
  6
CONTINUOUS
 10
0.0
 20
0.0
 11
0.0
 21
-1.43775
  0
LINE
  5
279
100
AcDbEntity
  8
0
100
AcDbLine
 62
2
  6
CONTINUOUS
 10
0.0
 20
-0.34375
 11
4.6
 21
-0.34375
  0
LINE
  5
27A
100
AcDbEntity
  8
0
100
AcDbLine
 62
2
  6
CONTINUOUS
 10
0.0
 20
-0.68775
 11
4.6
 21
-0.68775
  0
LINE
  5
27B
100
AcDbEntity
  8
0
100
AcDbLine
 62
2
  6
CONTINUOUS
 10
0.0
 20
-0.93775
 11
4.6
 21
-0.93775
  0
LINE
  5
27C
100
AcDbEntity
  8
0
100
AcDbLine
 62
2
  6
CONTINUOUS
 10
0.0
 20
-1.18775
 11
4.6
 21
-1.18775
  0
LINE
  5
27D
100
AcDbEntity
  8
0
100
AcDbLine
 62
2
  6
CONTINUOUS
 10
0.0
 20
-1.43775
 11
4.6
 21
-1.43775
  0
LINE
  5
27E
100
AcDbEntity
  8
0
100
AcDbLine
 62
2
  6
CONTINUOUS
 10
1.3
 20
-0.34375
 11
1.3
 21
-1.43775
  0
LINE
  5
27F
100
AcDbEntity
  8
0
100
AcDbLine
 62
2
  6
CONTINUOUS
 10
3.3
 20
-0.34375
 11
3.3
 21
-1.43775
  0
LINE
  5
280
100
AcDbEntity
  8
0
100
AcDbLine
 62
2
  6
CONTINUOUS
 10
4.6
 20
0.0
 11
4.6
 21
-1.43775
  0
MTEXT
  5
281
100
AcDbEntity
  8
0
100
AcDbMText
 62
2
  6
CONTINUOUS
  7
STANDARD
 71
2
 72
1
 10
2.3
 20
-0.099375
 30
0.0
 11
1.0
 21
0.0
 31
0.0
 44
0.9
  1
Port Headings
 40
0.145
 41
3.016
  0
MTEXT
  5
282
100
AcDbEntity
  8
0
100
AcDbMText
 62
2
  6
CONTINUOUS
  7
STANDARD
 71
2
 72
1
 10
0.65
 20
-0.44325
 30
0.0
 11
1.0
 21
0.0
 31
0.0
 44
0.9
  1
Product
 40
0.145
 41
1.624
  0
MTEXT
  5
283
100
AcDbEntity
  8
0
100
AcDbMText
 62
2
  6
CONTINUOUS
  7
STANDARD
 71
2
 72
1
 10
2.3
 20
-0.44325
 30
0.0
 11
1.0
 21
0.0
 31
0.0
 44
0.9
  1
Port
 40
0.145
 41
0.928
  0
MTEXT
  5
284
100
AcDbEntity
  8
0
100
AcDbMText
 62
2
  6
CONTINUOUS
  7
STANDARD
 71
2
 72
1
 10
3.95
 20
-0.44325
 30
0.0
 11
1.0
 21
0.0
 31
0.0
 44
0.9
  1
Size
 40
0.145
 41
0.928
  0
MTEXT
  5
285
100
AcDbEntity
  8
0
100
AcDbMText
 62
2
  6
CONTINUOUS
  7
STANDARD
 71
2
 72
1
 10
0.65
 20
-0.75025
 30
0.0
 11
1.0
 21
0.0
 31
0.0
 44
0.9
  1
B2I
 40
0.125
 41
0.6
  0
MTEXT
  5
286
100
AcDbEntity
  8
0
100
AcDbMText
 62
2
  6
CONTINUOUS
  7
STANDARD
 71
2
 72
1
 10
2.3
 20
-0.75025
 30
0.0
 11
1.0
 21
0.0
 31
0.0
 44
0.9
  1
Ports 1 &  2
 40
0.125
 41
2.4
  0
MTEXT
  5
287
100
AcDbEntity
  8
0
100
AcDbMText
 62
2
  6
CONTINUOUS
  7
STANDARD
 71
2
 72
1
 10
3.95
 20
-0.75025
 30
0.0
 11
1.0
 21
0.0
 31
0.0
 44
0.9
  1
SAE 6
 40
0.125
 41
1.0
  0
MTEXT
  5
288
100
AcDbEntity
  8
0
100
AcDbMText
 62
2
  6
CONTINUOUS
  7
STANDARD
 71
2
 72
1
 10
0.65
 20
-1.00025
 30
0.0
 11
1.0
 21
0.0
 31
0.0
 44
0.9
  1
B2I
 40
0.125
 41
0.6
  0
MTEXT
  5
289
100
AcDbEntity
  8
0
100
AcDbMText
 62
2
  6
CONTINUOUS
  7
STANDARD
 71
2
 72
1
 10
2.3
 20
-1.00025
 30
0.0
 11
1.0
 21
0.0
 31
0.0
 44
0.9
  1
Port 3
 40
0.125
 41
1.2
  0
MTEXT
  5
28A
100
AcDbEntity
  8
0
100
AcDbMText
 62
2
  6
CONTINUOUS
  7
STANDARD
 71
2
 72
1
 10
3.95
 20
-1.00025
 30
0.0
 11
1.0
 21
0.0
 31
0.0
 44
0.9
  1
SAE 6
 40
0.125
 41
1.0
  0
MTEXT
  5
28B
100
AcDbEntity
  8
0
100
AcDbMText
 62
2
  6
CONTINUOUS
  7
STANDARD
 71
2
 72
1
 10
0.65
 20
-1.25025
 30
0.0
 11
1.0
 21
0.0
 31
0.0
 44
0.9
  1
B2I
 40
0.125
 41
0.6
  0
MTEXT
  5
28C
100
AcDbEntity
  8
0
100
AcDbMText
 62
2
  6
CONTINUOUS
  7
STANDARD
 71
2
 72
1
 10
2.3
 20
-1.25025
 30
0.0
 11
1.0
 21
0.0
 31
0.0
 44
0.9
  1
Gage Port
 40
0.125
 41
1.8
  0
MTEXT
  5
28D
100
AcDbEntity
  8
0
100
AcDbMText
 62
2
  6
CONTINUOUS
  7
STANDARD
 71
2
 72
1
 10
3.95
 20
-1.25025
 30
0.0
 11
1.0
 21
0.0
 31
0.0
 44
0.9
  1
1/4" NPTF
 40
0.125
 41
1.8
  0
ENDBLK
  5
28E
100
AcDbEntity
  8
0
  6
BYBLOCK
 62
0
100
AcDbBlockEnd
  0
ENDSEC
  0
SECTION
  2
ENTITIES
  0
IMAGE
  5
28F
100
AcDbEntity
  8
0
100
AcDbRasterImage
 62
7
  6
CONTINUOUS
 10
19.2297077316
 20
0.3094318264
 30
0.0
 11
0.0066666667
 21
0.0
 31
0.0
 12
0.0
 22
0.0066666667
 32
0.0
 13
369.0
 23
92.0
340
       39C
 70
9
280
0
281
50
282
50
283
0
360
       396
 71
1
 91
2
 14
-0.5
 24
-0.5
 14
368.5
 24
91.5
  0
INSERT
  5
290
100
AcDbEntity
  8
0
100
AcDbBlockReference
 62
2
  6
CONTINUOUS
  2
SUN_FIRST_THIRD_ANGLE_BL0
 10
20.4816717061
 20
1.2289683772
  0
ACAD_TABLE
  5
291
100
AcDbEntity
  8
0
 62
2
  6
CONTINUOUS
100
AcDbBlockReference
  2
*T1
 10
12.42375
 20
0.30125
 30
0.0
100
AcDbTable
342
       39E
343
20F
 11
1.0
 21
0.0
 31
0.0
 90
6
 91
4
 92
6
 93
20
 94
0
 95
0
 96
0
 70
1
 41
0.0
141
0.525
141
0.1
141
0.525
141
0.1
142
4.1
142
1.1
142
0.7
142
0.5
142
0.4
142
2.475
171
1
172
0
173
0
174
0
175
1
176
1
 91
33
178
0
145
0.0
301
CELL_VALUE
 90
4
  1
T-2A Line mount\P(See Technical Data for Body Features)
304
ACVALUE_END
170
2
140
0.125
171
1
172
0
173
0
174
0
175
1
176
1
 91
33
178
0
145
0.0
301
CELL_VALUE
 90
4
  1
Mar-18-20
304
ACVALUE_END
170
5
140
0.125
171
1
172
0
173
0
174
0
175
1
176
1
 91
33
178
0
145
0.0
301
CELL_VALUE
 90
4
  1
1.000
304
ACVALUE_END
170
5
140
0.125
171
1
172
0
173
0
174
0
175
1
176
1
 91
33
178
0
145
0.0
301
CELL_VALUE
 90
4
  1
C
304
ACVALUE_END
170
5
140
0.125
171
1
172
0
173
0
174
0
175
1
176
1
 91
33
178
0
145
0.0
301
CELL_VALUE
 90
4
  1
2
304
ACVALUE_END
170
5
140
0.125
171
1
172
0
173
0
174
0
175
1
176
1
 91
33
178
0
145
0.0
301
CELL_VALUE
 90
4
  1
 
304
ACVALUE_END
170
1
140
0.125
171
1
172
0
173
0
174
0
175
1
176
1
 91
33
178
0
145
0.0
301
CELL_VALUE
 90
4
  1
DESCRIPTION
304
ACVALUE_END
170
1
140
0.06
171
1
172
0
173
0
174
0
175
1
176
1
 91
33
178
0
145
0.0
301
CELL_VALUE
 90
4
  1
DATE
304
ACVALUE_END
170
1
140
0.06
171
1
172
0
173
0
174
0
175
1
176
1
 91
33
178
0
145
0.0
301
CELL_VALUE
 90
4
  1
SCALE
304
ACVALUE_END
170
1
140
0.06
171
1
172
0
173
0
174
0
175
1
176
1
 91
33
178
0
145
0.0
301
CELL_VALUE
 90
4
  1
DWG SIZE
304
ACVALUE_END
170
1
140
0.06
171
1
172
0
173
0
174
0
175
1
176
1
 91
33
178
0
145
0.0
301
CELL_VALUE
 90
4
  1
SHEET
304
ACVALUE_END
170
1
140
0.06
171
1
172
0
173
0
174
0
175
1
176
1
 91
33
178
0
145
0.0
301
CELL_VALUE
 90
4
  1
 
304
ACVALUE_END
170
1
140
0.125
171
1
172
0
173
0
174
0
175
1
176
1
 91
33
178
0
145
0.0
301
CELL_VALUE
 90
4
  1
B2I
304
ACVALUE_END
170
5
140
0.125
171
1
172
0
173
0
174
0
175
4
176
1
 91
33
178
0
145
0.0
301
CELL_VALUE
 90
4
  1
ALL DIMENSIONS IN INCH\PVIEWS ARE THIRD ANGLE
304
ACVALUE_END
170
5
140
0.12
171
1
172
0
173
1
174
0
175
1
176
1
 91
1
178
0
145
0.0
170
1
171
1
172
0
173
1
174
0
175
1
176
1
 91
1
178
0
145
0.0
170
1
171
1
172
0
173
1
174
0
175
1
176
1
 91
1
178
0
145
0.0
170
5
171
1
172
0
173
0
174
0
175
1
176
1
 91
33
178
0
145
0.0
301
CELL_VALUE
 90
4
  1
 
304
ACVALUE_END
170
1
140
0.125
171
1
172
0
173
0
174
0
175
1
176
1
 91
33
178
0
145
0.0
301
CELL_VALUE
 90
4
  1
MODEL
304
ACVALUE_END
170
1
140
0.06
171
1
172
0
173
0
174
0
175
1
176
1
 91
33
178
0
145
0.0
301
CELL_VALUE
 90
4
  1
 
304
ACVALUE_END
170
1
140
0.125
171
1
172
0
173
0
174
0
175
1
176
1
 91
33
178
0
145
0.0
301
CELL_VALUE
 90
4
  1
 
304
ACVALUE_END
170
1
140
0.125
171
1
172
0
173
0
174
0
175
1
176
1
 91
33
178
0
145
0.0
301
CELL_VALUE
 90
4
  1
 
304
ACVALUE_END
170
1
140
0.125
171
1
172
0
173
0
174
0
175
1
176
1
 91
33
178
0
145
0.0
301
CELL_VALUE
 90
4
  1
 
304
ACVALUE_END
170
1
140
0.125
171
1
172
0
173
0
174
0
175
1
176
1
 91
33
178
0
145
0.0
301
CELL_VALUE
 90
4
  1
 
304
ACVALUE_END
170
1
140
0.125
  0
ACAD_TABLE
  5
292
100
AcDbEntity
  8
0
 62
2
  6
CONTINUOUS
100
AcDbBlockReference
  2
*T2
 10
12.4237499994
 20
16.47875
 30
0.0
100
AcDbTable
342
       39D
343
210
 11
1.0
 21
0.0
 31
0.0
 90
22
 91
10
 92
3
 93
16
 94
0
 95
0
 96
0
 41
0.028
141
0.344
141
0.25
141
0.25
141
0.25
141
0.25
141
0.25
141
0.25
141
0.25
141
0.25
141
0.25
142
3.055
142
3.0
142
3.0
171
1
172
0
173
0
174
0
175
1
176
1
 91
33
178
0
145
0.0
301
CELL_VALUE
 90
4
  1
Technical Data
304
ACVALUE_END
170
5
140
0.145
171
1
172
0
173
0
174
0
175
1
176
1
 91
33
178
0
145
0.0
301
CELL_VALUE
 90
4
  1
U.S. Units
304
ACVALUE_END
170
5
140
0.145
171
1
172
0
173
0
174
0
175
1
176
1
 91
33
178
0
145
0.0
301
CELL_VALUE
 90
4
  1
Metric Units
304
ACVALUE_END
170
5
140
0.145
171
1
172
0
173
0
174
0
175
1
176
1
 91
33
178
0
145
0.0
301
CELL_VALUE
 90
4
  1
Cavity
304
ACVALUE_END
170
5
140
0.125
171
1
172
0
173
0
174
0
175
2
176
1
 91
33
178
0
145
0.0
301
CELL_VALUE
 90
4
  1
T-2A
304
ACVALUE_END
170
5
140
0.125
171
1
172
0
173
1
174
0
175
1
176
1
 91
1
178
0
145
0.0
170
1
171
1
172
0
173
0
174
0
175
1
176
1
 91
33
178
0
145
0.0
301
CELL_VALUE
 90
4
  1
Body Features
304
ACVALUE_END
170
5
140
0.125
171
1
172
0
173
0
174
0
175
2
176
1
 91
33
178
0
145
0.0
301
CELL_VALUE
 90
4
  1
Ninety degree with reverse flow check - reducing
304
ACVALUE_END
170
5
140
0.125
171
1
172
0
173
1
174
0
175
1
176
1
 91
1
178
0
145
0.0
170
1
171
1
172
0
173
0
174
0
175
1
176
1
 91
33
178
0
145
0.0
301
CELL_VALUE
 90
4
  1
Body Type
304
ACVALUE_END
170
5
140
0.125
171
1
172
0
173
0
174
0
175
2
176
1
 91
33
178
0
145
0.0
301
CELL_VALUE
 90
4
  1
Line mount
304
ACVALUE_END
170
5
140
0.125
171
1
172
0
173
1
174
0
175
1
176
1
 91
1
178
0
145
0.0
170
1
171
1
172
0
173
0
174
0
175
1
176
1
 91
33
178
0
145
0.0
301
CELL_VALUE
 90
4
  1
Interface
304
ACVALUE_END
170
5
140
0.125
171
1
172
0
173
0
174
0
175
2
176
1
 91
33
178
0
145
0.0
301
CELL_VALUE
 90
4
  1
None
304
ACVALUE_END
170
5
140
0.125
171
1
172
0
173
1
174
0
175
1
176
1
 91
1
178
0
145
0.0
170
1
171
1
172
0
173
0
174
0
175
1
176
1
 91
33
178
0
145
0.0
301
CELL_VALUE
 90
4
  1
Open Cavity Quantity
304
ACVALUE_END
170
5
140
0.125
171
1
172
0
173
0
174
0
175
2
176
1
 91
33
178
0
145
0.0
301
CELL_VALUE
 90
4
  1
1
304
ACVALUE_END
170
5
140
0.125
171
1
172
0
173
1
174
0
175
1
176
1
 91
1
178
0
145
0.0
170
1
171
1
172
0
173
0
174
0
175
1
176
1
 91
33
178
0
145
0.0
301
CELL_VALUE
 90
4
  1
Weight
304
ACVALUE_END
170
5
140
0.125
171
1
172
0
173
0
174
0
175
1
176
1
 91
33
178
0
145
0.0
301
CELL_VALUE
 90
4
  1
2.013 lb.
304
ACVALUE_END
170
5
140
0.125
171
1
172
0
173
0
174
0
175
1
176
1
 91
33
178
0
145
0.0
301
CELL_VALUE
 90
4
  1
0,913 kg.
304
ACVALUE_END
170
5
140
0.125
171
1
172
0
173
0
174
0
175
1
176
1
 91
33
178
0
145
0.0
301
CELL_VALUE
 90
4
  1
Mounting Hole Diameter
304
ACVALUE_END
170
5
140
0.125
171
1
172
0
173
0
174
0
175
1
176
1
 91
33
178
0
145
0.0
301
CELL_VALUE
 90
4
  1
.42 in.
304
ACVALUE_END
170
5
140
0.125
171
1
172
0
173
0
174
0
175
1
176
1
 91
33
178
0
145
0.0
301
CELL_VALUE
 90
4
  1
10,7 mm
304
ACVALUE_END
170
5
140
0.125
171
1
172
0
173
0
174
0
175
1
176
1
 91
33
178
0
145
0.0
301
CELL_VALUE
 90
4
  1
Mounting Hole Depth
304
ACVALUE_END
170
5
140
0.125
171
1
172
0
173
0
174
0
175
2
176
1
 91
33
178
0
145
0.0
301
CELL_VALUE
 90
4
  1
Through
304
ACVALUE_END
170
5
140
0.125
171
1
172
0
173
1
174
0
175
1
176
1
 91
1
178
0
145
0.0
170
1
171
1
172
0
173
0
174
0
175
1
176
1
 91
33
178
0
145
0.0
301
CELL_VALUE
 90
4
  1
Mounting Hole Quantity
304
ACVALUE_END
170
5
140
0.125
171
1
172
0
173
0
174
0
175
2
176
1
 91
33
178
0
145
0.0
301
CELL_VALUE
 90
4
  1
2
304
ACVALUE_END
170
5
140
0.125
171
1
172
0
173
1
174
0
175
1
176
1
 91
1
178
0
145
0.0
170
1
  0
ACAD_TABLE
  5
293
100
AcDbEntity
  8
0
 62
2
  6
CONTINUOUS
100
AcDbBlockReference
  2
*T3
 10
0.52125
 20
1.959
 30
0.0
100
AcDbTable
342
       39D
343
211
 11
1.0
 21
0.0
 31
0.0
 90
22
 91
5
 92
3
 93
16
 94
0
 95
0
 96
0
 41
0.05
141
0.34375
141
0.344
141
0.25
141
0.25
141
0.25
142
1.3
142
2.0
142
1.3
171
1
172
0
173
0
174
0
175
3
176
1
 91
33
178
0
145
0.0
301
CELL_VALUE
 90
4
  1
Port Headings
304
ACVALUE_END
170
5
140
0.145
171
1
172
0
173
1
174
0
175
1
176
1
 91
1
178
0
145
0.0
170
1
171
1
172
0
173
1
174
0
175
1
176
1
 91
1
178
0
145
0.0
170
1
171
1
172
0
173
0
174
0
175
1
176
1
 91
33
178
0
145
0.0
301
CELL_VALUE
 90
4
  1
Product
304
ACVALUE_END
170
5
140
0.145
171
1
172
0
173
0
174
0
175
1
176
1
 91
33
178
0
145
0.0
301
CELL_VALUE
 90
4
  1
Port
304
ACVALUE_END
170
5
140
0.145
171
1
172
0
173
0
174
0
175
1
176
1
 91
33
178
0
145
0.0
301
CELL_VALUE
 90
4
  1
Size
304
ACVALUE_END
170
5
140
0.145
171
1
172
0
173
0
174
0
175
1
176
1
 91
33
178
0
145
0.0
301
CELL_VALUE
 90
4
  1
B2I
304
ACVALUE_END
170
5
140
0.125
171
1
172
0
173
0
174
0
175
1
176
1
 91
33
178
0
145
0.0
301
CELL_VALUE
 90
4
  1
Ports 1 &  2
304
ACVALUE_END
170
5
140
0.125
171
1
172
0
173
0
174
0
175
1
176
1
 91
33
178
0
145
0.0
301
CELL_VALUE
 90
4
  1
SAE 6
304
ACVALUE_END
170
5
140
0.125
171
1
172
0
173
0
174
0
175
1
176
1
 91
33
178
0
145
0.0
301
CELL_VALUE
 90
4
  1
B2I
304
ACVALUE_END
170
5
140
0.125
171
1
172
0
173
0
174
0
175
1
176
1
 91
33
178
0
145
0.0
301
CELL_VALUE
 90
4
  1
Port 3
304
ACVALUE_END
170
5
140
0.125
171
1
172
0
173
0
174
0
175
1
176
1
 91
33
178
0
145
0.0
301
CELL_VALUE
 90
4
  1
SAE 6
304
ACVALUE_END
170
5
140
0.125
171
1
172
0
173
0
174
0
175
1
176
1
 91
33
178
0
145
0.0
301
CELL_VALUE
 90
4
  1
B2I
304
ACVALUE_END
170
5
140
0.125
171
1
172
0
173
0
174
0
175
1
176
1
 91
33
178
0
145
0.0
301
CELL_VALUE
 90
4
  1
Gage Port
304
ACVALUE_END
170
5
140
0.125
171
1
172
0
173
0
174
0
175
1
176
1
 91
33
178
0
145
0.0
301
CELL_VALUE
 90
4
  1
1/4" NPTF
304
ACVALUE_END
170
5
140
0.125
  0
MTEXT
  5
294
100
AcDbEntity
  8
0
100
AcDbMText
 62
2
  6
CONTINUOUS
  7
STANDARD
 71
1
 72
1
 10
0.52125
 20
5.75995
 30
0.0
 11
1.0
 21
0.0
 31
0.0
 44
0.6
  3
Notes\P \P1. Important: Carefully consider\P   the maximum system pressure. The\P   pressure rating of the manifold is\P   dependent on the manifold material,\P   with the port type/size a secondary\P   consideration. Manifolds\P   constructed of alu
  1
minum are not\P   rated for pressures higher than\P   3000 psi (210 bar), regardless of\P   the port type/size specified.
 40
0.1
 41
3.04
  0
LINE
  5
295
100
AcDbEntity
  8
0
100
AcDbLine
 62
7
  6
CONTINUOUS
 10
0.30125
 20
0.30125
 11
0.30125
 21
16.69875
  0
LINE
  5
296
100
AcDbEntity
  8
0
100
AcDbLine
 62
7
  6
CONTINUOUS
 10
0.30125
 20
0.30125
 11
21.69875
 21
0.30125
  0
LINE
  5
297
100
AcDbEntity
  8
0
100
AcDbLine
 62
7
  6
CONTINUOUS
 10
0.30125
 20
16.69875
 11
21.69875
 21
16.69875
  0
LINE
  5
298
100
AcDbEntity
  8
0
100
AcDbLine
 62
7
  6
CONTINUOUS
 10
21.69875
 20
0.30125
 11
21.69875
 21
16.69875
  0
LINE
  5
299
100
AcDbEntity
  8
0
100
AcDbLine
 62
7
  6
CONTINUOUS
 10
9.4433734597
 20
10.9566713866
 11
9.0551452125
 21
10.5816716739
  0
LINE
  5
29A
100
AcDbEntity
  8
0
100
AcDbLine
 62
4
  6
CONTINUOUS
 10
9.3111154966
 20
10.0471497248
 11
9.3038710527
 21
10.0379928723
  0
LINE
  5
29B
100
AcDbEntity
  8
0
100
AcDbLine
 62
4
  6
CONTINUOUS
 10
9.3183599406
 20
9.9886917692
 11
9.3038710527
 21
9.97037806
  0
LINE
  5
29C
100
AcDbEntity
  8
0
100
AcDbLine
 62
4
  6
CONTINUOUS
 10
9.2604043889
 20
10.0699850716
 11
9.2748932768
 21
10.0786395201
  0
LINE
  5
29D
100
AcDbEntity
  8
0
100
AcDbLine
 62
4
  6
CONTINUOUS
 10
9.3038710527
 20
10.0379928723
 11
9.2893821647
 21
10.0293384169
  0
LINE
  5
29E
100
AcDbEntity
  8
0
100
AcDbLine
 62
4
  6
CONTINUOUS
 10
9.3038710527
 20
9.97037806
 11
9.2893821647
 21
9.9617236089
  0
LINE
  5
29F
100
AcDbEntity
  8
0
100
AcDbLine
 62
7
  6
CONTINUOUS
 10
9.0551452125
 20
6.7179681398
 11
9.0551452125
 21
10.5816716739
  0
LINE
  5
2A0
100
AcDbEntity
  8
0
100
AcDbLine
 62
7
  6
CONTINUOUS
 10
9.0551452125
 20
6.7179681398
 11
12.5566265403
 21
6.475139585
  0
LINE
  5
2A1
100
AcDbEntity
  8
0
100
AcDbLine
 62
7
  6
CONTINUOUS
 10
11.2739877806
 20
6.1296039888
 11
11.29320567
 21
6.1201107194
  0
LINE
  5
2A2
100
AcDbEntity
  8
0
100
AcDbLine
 62
4
  6
CONTINUOUS
 10
9.3111154966
 20
10.0568089811
 11
9.3111154966
 21
10.0471497248
  0
LINE
  5
2A3
100
AcDbEntity
  8
0
100
AcDbLine
 62
4
  6
CONTINUOUS
 10
9.3111154966
 20
7.8728505428
 11
9.3111154966
 21
7.7569394394
  0
LINE
  5
2A4
100
AcDbEntity
  8
0
100
AcDbLine
 62
4
  6
CONTINUOUS
 10
9.3183599406
 20
9.9983510289
 11
9.3183599406
 21
9.9886917692
  0
LINE
  5
2A5
100
AcDbEntity
  8
0
100
AcDbLine
 62
4
  6
CONTINUOUS
 10
10.2640704391
 20
9.090340423
 11
10.2806291689
 21
9.1057507993
  0
LINE
  5
2A6
100
AcDbEntity
  8
0
100
AcDbLine
 62
4
  6
CONTINUOUS
 10
10.3054672627
 20
8.9881171682
 11
10.3220259908
 21
9.0035275463
  0
LINE
  5
2A7
100
AcDbEntity
  8
0
100
AcDbLine
 62
4
  6
CONTINUOUS
 10
10.3132636746
 20
7.958865418
 11
10.2987747867
 21
7.9695294846
  0
LINE
  5
2A8
100
AcDbEntity
  8
0
100
AcDbLine
 62
4
  6
CONTINUOUS
 10
10.2987747867
 20
7.9695294846
 11
10.2842858988
 21
7.9898528094
  0
LINE
  5
2A9
100
AcDbEntity
  8
0
100
AcDbLine
 62
4
  6
CONTINUOUS
 10
10.2842858988
 20
7.9898528094
 11
10.2770414548
 21
8.0193329891
  0
LINE
  5
2AA
100
AcDbEntity
  8
0
100
AcDbLine
 62
4
  6
CONTINUOUS
 10
10.2640704391
 20
9.073781695
 11
10.2640704391
 21
9.090340423
  0
LINE
  5
2AB
100
AcDbEntity
  8
0
100
AcDbLine
 62
4
  6
CONTINUOUS
 10
10.3220259908
 20
9.0035275463
 11
10.3220259908
 21
9.0200862761
  0
LINE
  5
2AC
100
AcDbEntity
  8
0
100
AcDbLine
 62
4
  6
CONTINUOUS
 10
10.3494858945
 20
8.0143089502
 11
10.3494858945
 21
7.9756719163
  0
LINE
  5
2AD
100
AcDbEntity
  8
0
100
AcDbLine
 62
4
  6
CONTINUOUS
 10
10.355143447
 20
9.1005832166
 11
10.355143447
 21
9.0012308429
  0
LINE
  5
2AE
100
AcDbEntity
  8
0
100
AcDbLine
 62
4
  6
CONTINUOUS
 10
10.3910207075
 20
8.3910373892
 11
10.3910207075
 21
8.5069484926
  0
LINE
  5
2AF
100
AcDbEntity
  8
0
100
AcDbLine
 62
4
  6
CONTINUOUS
 10
10.3965402775
 20
8.9818012332
 11
10.4130989987
 21
8.9972116118
  0
LINE
  5
2B0
100
AcDbEntity
  8
0
100
AcDbLine
 62
4
  6
CONTINUOUS
 10
10.3277525626
 20
8.0737717136
 11
10.3422414505
 21
8.0631076495
  0
LINE
  5
2B1
100
AcDbEntity
  8
0
100
AcDbLine
 62
4
  6
CONTINUOUS
 10
10.3422414505
 20
8.0631076495
 11
10.3494858945
 21
8.0529459824
  0
LINE
  5
2B2
100
AcDbEntity
  8
0
100
AcDbLine
 62
4
  6
CONTINUOUS
 10
10.4130989987
 20
8.9972116118
 11
10.4130989987
 21
9.0965639854
  0
LINE
  5
2B3
100
AcDbEntity
  8
0
100
AcDbLine
 62
4
  6
CONTINUOUS
 10
10.4462164548
 20
8.9783561786
 11
10.4462164548
 21
9.094267282
  0
LINE
  5
2B4
100
AcDbEntity
  8
0
100
AcDbLine
 62
4
  6
CONTINUOUS
 10
10.4489762523
 20
8.4863705338
 11
10.4489762523
 21
8.4035768883
  0
LINE
  5
2B5
100
AcDbEntity
  8
0
100
AcDbLine
 62
4
  6
CONTINUOUS
 10
10.5041720066
 20
8.9743369474
 11
10.5041720066
 21
9.0902480508
  0
LINE
  5
2B6
100
AcDbEntity
  8
0
100
AcDbLine
 62
4
  6
CONTINUOUS
 10
10.2770414548
 20
8.0193329891
 11
10.2842858988
 21
8.0478083611
  0
LINE
  5
2B7
100
AcDbEntity
  8
0
100
AcDbLine
 62
4
  6
CONTINUOUS
 10
10.4958926519
 20
8.3837644951
 11
10.5290101081
 21
8.4973788952
  0
LINE
  5
2B8
100
AcDbEntity
  8
0
100
AcDbLine
 62
4
  6
CONTINUOUS
 10
10.7829106269
 20
9.0295206382
 11
10.7994693481
 21
9.0366516545
  0
LINE
  5
2B9
100
AcDbEntity
  8
0
100
AcDbLine
 62
4
  6
CONTINUOUS
 10
10.9402185609
 20
8.9772144758
 11
10.956777282
 21
8.9843454886
  0
LINE
  5
2BA
100
AcDbEntity
  8
0
100
AcDbLine
 62
4
  6
CONTINUOUS
 10
10.3277525626
 20
7.9578606102
 11
10.3132636746
 21
7.958865418
  0
LINE
  5
2BB
100
AcDbEntity
  8
0
100
AcDbLine
 62
4
  6
CONTINUOUS
 10
10.3205081186
 20
8.0163185658
 11
10.3494858945
 21
8.0143089502
  0
LINE
  5
2BC
100
AcDbEntity
  8
0
100
AcDbLine
 62
4
  6
CONTINUOUS
 10
10.3132636746
 20
8.0747765214
 11
10.3277525626
 21
8.0737717136
  0
LINE
  5
2BD
100
AcDbEntity
  8
0
100
AcDbLine
 62
4
  6
CONTINUOUS
 10
10.4324175242
 20
8.5040776136
 11
10.4489762523
 21
8.4863705338
  0
LINE
  5
2BE
100
AcDbEntity
  8
0
100
AcDbLine
 62
4
  6
CONTINUOUS
 10
9.2604043889
 20
9.9733924834
 11
9.2531599449
 21
9.9835541462
  0
LINE
  5
2BF
100
AcDbEntity
  8
0
100
AcDbLine
 62
4
  6
CONTINUOUS
 10
9.3038710527
 20
10.0186743528
 11
9.3183599406
 21
9.9983510289
  0
LINE
  5
2C0
100
AcDbEntity
  8
0
100
AcDbLine
 62
4
  6
CONTINUOUS
 10
9.3038710527
 20
10.0669706482
 11
9.3111154966
 21
10.0568089811
  0
LINE
  5
2C1
100
AcDbEntity
  8
0
100
AcDbLine
 62
4
  6
CONTINUOUS
 10
10.5290101081
 20
8.4973788952
 11
10.562127578
 21
8.3791710874
  0
LINE
  5
2C2
100
AcDbEntity
  8
0
100
AcDbLine
 62
4
  6
CONTINUOUS
 10
10.6283624903
 20
8.3745776806
 11
10.6283624903
 21
8.490488784
  0
LINE
  5
2C3
100
AcDbEntity
  8
0
100
AcDbLine
 62
4
  6
CONTINUOUS
 10
10.6283624706
 20
8.9657243095
 11
10.6283624706
 21
9.0816354129
  0
LINE
  5
2C4
100
AcDbEntity
  8
0
100
AcDbLine
 62
4
  6
CONTINUOUS
 10
10.6780386617
 20
9.0367935337
 11
10.6780386617
 21
8.9622792539
  0
LINE
  5
2C5
100
AcDbEntity
  8
0
100
AcDbLine
 62
4
  6
CONTINUOUS
 10
10.6945974026
 20
8.3699842738
 11
10.6945974026
 21
8.4858953773
  0
LINE
  5
2C6
100
AcDbEntity
  8
0
100
AcDbLine
 62
4
  6
CONTINUOUS
 10
10.7042566053
 20
8.6243188334
 11
10.7042566053
 21
8.7402299368
  0
LINE
  5
2C7
100
AcDbEntity
  8
0
100
AcDbLine
 62
4
  6
CONTINUOUS
 10
10.7539327929
 20
8.7202261535
 11
10.7539327929
 21
8.6953880579
  0
LINE
  5
2C8
100
AcDbEntity
  8
0
100
AcDbLine
 62
4
  6
CONTINUOUS
 10
10.762212157
 20
8.6616964259
 11
10.762212157
 21
8.636858332
  0
LINE
  5
2C9
100
AcDbEntity
  8
0
100
AcDbLine
 62
4
  6
CONTINUOUS
 10
10.7829106269
 20
8.9632857233
 11
10.7829106269
 21
9.0295206382
  0
LINE
  5
2CA
100
AcDbEntity
  8
0
100
AcDbLine
 62
4
  6
CONTINUOUS
 10
10.7277148528
 20
8.9312363165
 11
10.7608322952
 21
9.0393311432
  0
LINE
  5
2CB
100
AcDbEntity
  8
0
100
AcDbLine
 62
4
  6
CONTINUOUS
 10
10.8118883412
 20
8.7327656506
 11
10.7953296131
 21
8.7090759067
  0
LINE
  5
2CC
100
AcDbEntity
  8
0
100
AcDbLine
 62
4
  6
CONTINUOUS
 10
10.7953296131
 20
8.6180028989
 11
10.8532851648
 21
8.696777315
  0
LINE
  5
2CD
100
AcDbEntity
  8
0
100
AcDbLine
 62
4
  6
CONTINUOUS
 10
10.2842858988
 20
8.0478083611
 11
10.2987747867
 21
8.0661220729
  0
LINE
  5
2CE
100
AcDbEntity
  8
0
100
AcDbLine
 62
4
  6
CONTINUOUS
 10
10.3494858945
 20
7.9756719163
 11
10.3422414505
 21
7.9665150613
  0
LINE
  5
2CF
100
AcDbEntity
  8
0
100
AcDbLine
 62
7
  6
CONTINUOUS
 10
12.5566265403
 20
10.3388431191
 11
12.9448547875
 21
10.7138428318
  0
LINE
  5
2D0
100
AcDbEntity
  8
0
100
AcDbLine
 62
4
  6
CONTINUOUS
 10
10.7539327929
 20
8.6953880579
 11
10.7373740649
 21
8.6799776815
  0
LINE
  5
2D1
100
AcDbEntity
  8
0
100
AcDbLine
 62
4
  6
CONTINUOUS
 10
10.4489762523
 20
8.4035768883
 11
10.4324175242
 21
8.3881665102
  0
LINE
  5
2D2
100
AcDbEntity
  8
0
100
AcDbLine
 62
4
  6
CONTINUOUS
 10
10.762212157
 20
8.636858332
 11
10.7456534289
 21
8.6214479539
  0
LINE
  5
2D3
100
AcDbEntity
  8
0
100
AcDbLine
 62
4
  6
CONTINUOUS
 10
11.2244767089
 20
8.9988979264
 11
11.2327560418
 21
9.0066031202
  0
LINE
  5
2D4
100
AcDbEntity
  8
0
100
AcDbLine
 62
4
  6
CONTINUOUS
 10
10.3689423999
 20
8.4643230202
 11
10.3247857882
 21
8.4453069841
  0
LINE
  5
2D5
100
AcDbEntity
  8
0
100
AcDbLine
 62
4
  6
CONTINUOUS
 10
10.3247857882
 20
8.4453069841
 11
10.3689423999
 21
8.4201664068
  0
LINE
  5
2D6
100
AcDbEntity
  8
0
100
AcDbLine
 62
4
  6
CONTINUOUS
 10
10.2640704391
 20
8.9992674126
 11
10.272349804
 21
8.9904138718
  0
LINE
  5
2D7
100
AcDbEntity
  8
0
100
AcDbLine
 62
4
  6
CONTINUOUS
 10
10.8850228066
 20
8.3567782272
 11
10.8684640854
 21
8.3744853082
  0
LINE
  5
2D8
100
AcDbEntity
  8
0
100
AcDbLine
 62
4
  6
CONTINUOUS
 10
10.4462164548
 20
9.094267282
 11
10.5041720066
 21
8.9743369474
  0
LINE
  5
2D9
100
AcDbEntity
  8
0
100
AcDbLine
 62
4
  6
CONTINUOUS
 10
10.8325867904
 20
9.0674724082
 11
10.8325867904
 21
8.9515613048
  0
LINE
  5
2DA
100
AcDbEntity
  8
0
100
AcDbLine
 62
4
  6
CONTINUOUS
 10
10.8532851648
 20
8.696777315
 11
10.8532851648
 21
8.7133360431
  0
LINE
  5
2DB
100
AcDbEntity
  8
0
100
AcDbLine
 62
4
  6
CONTINUOUS
 10
10.865704288
 20
8.9492645985
 11
10.865704288
 21
9.0320582458
  0
LINE
  5
2DC
100
AcDbEntity
  8
0
100
AcDbLine
 62
4
  6
CONTINUOUS
 10
10.8684640854
 20
8.3744853082
 11
10.8684640854
 21
8.4572789538
  0
LINE
  5
2DD
100
AcDbEntity
  8
0
100
AcDbLine
 62
4
  6
CONTINUOUS
 10
10.9043412856
 20
9.0210993934
 11
10.9043412856
 21
9.0045406654
  0
LINE
  5
2DE
100
AcDbEntity
  8
0
100
AcDbLine
 62
4
  6
CONTINUOUS
 10
10.9084809251
 20
8.6101558287
 11
10.9084809251
 21
8.7260669322
  0
LINE
  5
2DF
100
AcDbEntity
  8
0
100
AcDbLine
 62
4
  6
CONTINUOUS
 10
10.9402185609
 20
8.9523763811
 11
10.9402185609
 21
8.9772144758
  0
LINE
  5
2E0
100
AcDbEntity
  8
0
100
AcDbLine
 62
4
  6
CONTINUOUS
 10
10.9650566348
 20
8.3677865922
 11
10.9650566348
 21
8.4505802377
  0
LINE
  5
2E1
100
AcDbEntity
  8
0
100
AcDbLine
 62
4
  6
CONTINUOUS
 10
10.9898947244
 20
8.9406519625
 11
10.9898947244
 21
9.0068868817
  0
LINE
  5
2E2
100
AcDbEntity
  8
0
100
AcDbLine
 62
4
  6
CONTINUOUS
 10
11.0230121667
 20
9.0211489074
 11
11.0230121667
 21
8.946634625
  0
LINE
  5
2E3
100
AcDbEntity
  8
0
100
AcDbLine
 62
4
  6
CONTINUOUS
 10
11.0230121865
 20
8.4465610066
 11
11.0230121865
 21
8.363767361
  0
LINE
  5
2E4
100
AcDbEntity
  8
0
100
AcDbLine
 62
4
  6
CONTINUOUS
 10
11.1830798783
 20
9.04316563
 11
11.1803201007
 21
9.0350776538
  0
LINE
  5
2E5
100
AcDbEntity
  8
0
100
AcDbLine
 62
4
  6
CONTINUOUS
 10
11.298991037
 20
8.9937303402
 11
11.30727037
 21
9.001435534
  0
LINE
  5
2E6
100
AcDbEntity
  8
0
100
AcDbLine
 62
4
  6
CONTINUOUS
 10
11.3403878123
 20
8.9163451843
 11
11.3486671453
 21
8.9240503755
  0
LINE
  5
2E7
100
AcDbEntity
  8
0
100
AcDbLine
 62
4
  6
CONTINUOUS
 10
10.8684640854
 20
8.4572789538
 11
10.8850228066
 21
8.4726893307
  0
LINE
  5
2E8
100
AcDbEntity
  8
0
100
AcDbLine
 62
4
  6
CONTINUOUS
 10
10.9650566348
 20
8.4505802377
 11
10.9816153559
 21
8.4659906146
  0
LINE
  5
2E9
100
AcDbEntity
  8
0
100
AcDbLine
 62
4
  6
CONTINUOUS
 10
10.2987747867
 20
8.0661220729
 11
10.3132636746
 21
8.0747765214
  0
LINE
  5
2EA
100
AcDbEntity
  8
0
100
AcDbLine
 62
4
  6
CONTINUOUS
 10
11.0975264594
 20
8.3420410488
 11
11.0561296288
 21
8.3449119288
  0
LINE
  5
2EB
100
AcDbEntity
  8
0
100
AcDbLine
 62
4
  6
CONTINUOUS
 10
11.0064534653
 20
8.3483569824
 11
10.9816153559
 21
8.3500795112
  0
LINE
  5
2EC
100
AcDbEntity
  8
0
100
AcDbLine
 62
4
  6
CONTINUOUS
 10
10.9181402489
 20
8.3544815248
 11
10.8850228066
 21
8.3567782272
  0
LINE
  5
2ED
100
AcDbEntity
  8
0
100
AcDbLine
 62
4
  6
CONTINUOUS
 10
10.4324175242
 20
8.3881665102
 11
10.3910207075
 21
8.3910373892
  0
LINE
  5
2EE
100
AcDbEntity
  8
0
100
AcDbLine
 62
4
  6
CONTINUOUS
 10
10.6945974026
 20
8.3699842738
 11
10.7442735938
 21
8.3665392183
  0
LINE
  5
2EF
100
AcDbEntity
  8
0
100
AcDbLine
 62
4
  6
CONTINUOUS
 10
11.1610016217
 20
8.3376390314
 11
11.2106777852
 21
8.3341939777
  0
LINE
  5
2F0
100
AcDbEntity
  8
0
100
AcDbLine
 62
4
  6
CONTINUOUS
 10
10.506931804
 20
8.4161163869
 11
10.5510884122
 21
8.4130541157
  0
LINE
  5
2F1
100
AcDbEntity
  8
0
100
AcDbLine
 62
4
  6
CONTINUOUS
 10
11.194119064
 20
8.4015772482
 11
11.1610016217
 21
8.4038739506
  0
LINE
  5
2F2
100
AcDbEntity
  8
0
100
AcDbLine
 62
4
  6
CONTINUOUS
 10
10.7277148726
 20
8.4339224887
 11
10.6945974026
 21
8.436219193
  0
LINE
  5
2F3
100
AcDbEntity
  8
0
100
AcDbLine
 62
4
  6
CONTINUOUS
 10
10.3910207075
 20
8.5069484926
 11
10.4324175242
 21
8.5040776136
  0
LINE
  5
2F4
100
AcDbEntity
  8
0
100
AcDbLine
 62
4
  6
CONTINUOUS
 10
10.5952450204
 20
8.4927854884
 11
10.6614799327
 21
8.4881920816
  0
LINE
  5
2F5
100
AcDbEntity
  8
0
100
AcDbLine
 62
4
  6
CONTINUOUS
 10
10.6945974026
 20
8.4858953773
 11
10.7442735938
 21
8.4824503217
  0
LINE
  5
2F6
100
AcDbEntity
  8
0
100
AcDbLine
 62
4
  6
CONTINUOUS
 10
10.8850228066
 20
8.4726893307
 11
10.9181402489
 21
8.4703926282
  0
LINE
  5
2F7
100
AcDbEntity
  8
0
100
AcDbLine
 62
4
  6
CONTINUOUS
 10
10.9816153559
 20
8.4659906146
 11
11.0064534653
 21
8.4642680859
  0
LINE
  5
2F8
100
AcDbEntity
  8
0
100
AcDbLine
 62
4
  6
CONTINUOUS
 10
11.0561296288
 20
8.4608230322
 11
11.0975264594
 21
8.4579521523
  0
LINE
  5
2F9
100
AcDbEntity
  8
0
100
AcDbLine
 62
4
  6
CONTINUOUS
 10
11.1610016217
 20
8.4535501348
 11
11.2106777852
 21
8.4501050812
  0
LINE
  5
2FA
100
AcDbEntity
  8
0
100
AcDbLine
 62
4
  6
CONTINUOUS
 10
10.7373740649
 20
8.7351734418
 11
10.7539327929
 21
8.7202261535
  0
LINE
  5
2FB
100
AcDbEntity
  8
0
100
AcDbLine
 62
4
  6
CONTINUOUS
 10
10.3220259908
 20
9.0200862761
 11
10.2640704391
 21
9.073781695
  0
LINE
  5
2FC
100
AcDbEntity
  8
0
100
AcDbLine
 62
4
  6
CONTINUOUS
 10
10.355143447
 20
9.0012308429
 11
10.371702175
 21
8.9835237614
  0
LINE
  5
2FD
100
AcDbEntity
  8
0
100
AcDbLine
 62
4
  6
CONTINUOUS
 10
10.9816153559
 20
8.3500795112
 11
10.9650566348
 21
8.3677865922
  0
LINE
  5
2FE
100
AcDbEntity
  8
0
100
AcDbLine
 62
4
  6
CONTINUOUS
 10
10.3137466268
 20
9.1034540958
 11
10.3220259908
 21
9.0946005524
  0
LINE
  5
2FF
100
AcDbEntity
  8
0
100
AcDbLine
 62
4
  6
CONTINUOUS
 10
10.7456534289
 20
8.6794035057
 11
10.762212157
 21
8.6616964259
  0
LINE
  5
300
100
AcDbEntity
  8
0
100
AcDbLine
 62
4
  6
CONTINUOUS
 10
11.0064534653
 20
8.4642680859
 11
11.0230121865
 21
8.4465610066
  0
LINE
  5
301
100
AcDbEntity
  8
0
100
AcDbLine
 62
4
  6
CONTINUOUS
 10
10.7111561317
 20
9.0427761969
 11
10.735994241
 21
8.9582600208
  0
LINE
  5
302
100
AcDbEntity
  8
0
100
AcDbLine
 62
4
  6
CONTINUOUS
 10
11.0561296288
 20
8.3449119288
 11
11.0561296288
 21
8.4608230322
  0
LINE
  5
303
100
AcDbEntity
  8
0
100
AcDbLine
 62
4
  6
CONTINUOUS
 10
11.0726883855
 20
8.9349102026
 11
11.0726883855
 21
9.0177038499
  0
LINE
  5
304
100
AcDbEntity
  8
0
100
AcDbLine
 62
4
  6
CONTINUOUS
 10
11.1058058278
 20
8.9408928651
 11
11.1058058278
 21
9.0485246036
  0
LINE
  5
305
100
AcDbEntity
  8
0
100
AcDbLine
 62
4
  6
CONTINUOUS
 10
11.1140851805
 20
8.440245073
 11
11.1140851805
 21
8.3574514274
  0
LINE
  5
306
100
AcDbEntity
  8
0
100
AcDbLine
 62
4
  6
CONTINUOUS
 10
11.1610016217
 20
8.3376390314
 11
11.1610016217
 21
8.4535501348
  0
LINE
  5
307
100
AcDbEntity
  8
0
100
AcDbLine
 62
7
  6
CONTINUOUS
 10
11.1657875035
 20
6.5715945998
 11
11.1657875035
 21
6.2662836504
  0
LINE
  5
308
100
AcDbEntity
  8
0
100
AcDbLine
 62
4
  6
CONTINUOUS
 10
11.1803201007
 20
8.9274459178
 11
11.1803201007
 21
9.0102395651
  0
LINE
  5
309
100
AcDbEntity
  8
0
100
AcDbLine
 62
4
  6
CONTINUOUS
 10
11.1803201007
 20
9.0350776538
 11
11.1803201007
 21
9.0433570213
  0
LINE
  5
30A
100
AcDbEntity
  8
0
100
AcDbLine
 62
4
  6
CONTINUOUS
 10
11.2244767089
 20
8.9326630115
 11
11.2244767089
 21
8.9988979264
  0
LINE
  5
30B
100
AcDbEntity
  8
0
100
AcDbLine
 62
4
  6
CONTINUOUS
 10
11.0230121865
 20
8.363767361
 11
11.0064534653
 21
8.3483569824
  0
LINE
  5
30C
100
AcDbEntity
  8
0
100
AcDbLine
 62
4
  6
CONTINUOUS
 10
11.1140851805
 20
8.3574514274
 11
11.0975264594
 21
8.3420410488
  0
LINE
  5
30D
100
AcDbEntity
  8
0
100
AcDbLine
 62
4
  6
CONTINUOUS
 10
10.3422414505
 20
7.9665150613
 11
10.3277525626
 21
7.9578606102
  0
LINE
  5
30E
100
AcDbEntity
  8
0
100
AcDbLine
 62
4
  6
CONTINUOUS
 10
11.2879518357
 20
8.3785111918
 11
11.2437952275
 21
8.3594951572
  0
LINE
  5
30F
100
AcDbEntity
  8
0
100
AcDbLine
 62
4
  6
CONTINUOUS
 10
10.8532851648
 20
8.6139836677
 11
10.7953296131
 21
8.6180028989
  0
LINE
  5
310
100
AcDbEntity
  8
0
100
AcDbLine
 62
4
  6
CONTINUOUS
 10
10.7456534289
 20
8.6214479539
 11
10.7042566053
 21
8.6243188334
  0
LINE
  5
311
100
AcDbEntity
  8
0
100
AcDbLine
 62
4
  6
CONTINUOUS
 10
10.7042566053
 20
8.6822743851
 11
10.7456534289
 21
8.6794035057
  0
LINE
  5
312
100
AcDbEntity
  8
0
100
AcDbLine
 62
4
  6
CONTINUOUS
 10
10.8367264437
 20
8.7310431223
 11
10.8118883412
 21
8.7327656506
  0
LINE
  5
313
100
AcDbEntity
  8
0
100
AcDbLine
 62
4
  6
CONTINUOUS
 10
10.7042566053
 20
8.7402299368
 11
10.7290946991
 21
8.7385074092
  0
LINE
  5
314
100
AcDbEntity
  8
0
100
AcDbLine
 62
4
  6
CONTINUOUS
 10
10.7290946991
 20
8.7385074092
 11
10.7373740649
 21
8.7351734418
  0
LINE
  5
315
100
AcDbEntity
  8
0
100
AcDbLine
 62
4
  6
CONTINUOUS
 10
11.2437952275
 20
8.4036517706
 11
11.2879518357
 21
8.3785111918
  0
LINE
  5
316
100
AcDbEntity
  8
0
100
AcDbLine
 62
4
  6
CONTINUOUS
 10
9.2748932768
 20
9.9627284167
 11
9.2604043889
 21
9.9733924834
  0
LINE
  5
317
100
AcDbEntity
  8
0
100
AcDbLine
 62
4
  6
CONTINUOUS
 10
9.2893821647
 20
10.0293384169
 11
9.3038710527
 21
10.0186743528
  0
LINE
  5
318
100
AcDbEntity
  8
0
100
AcDbLine
 62
4
  6
CONTINUOUS
 10
10.8532851648
 20
8.7133360431
 11
10.8367264437
 21
8.7310431223
  0
LINE
  5
319
100
AcDbEntity
  8
0
100
AcDbLine
 62
4
  6
CONTINUOUS
 10
11.0975264594
 20
8.4579521523
 11
11.1140851805
 21
8.440245073
  0
LINE
  5
31A
100
AcDbEntity
  8
0
100
AcDbLine
 62
4
  6
CONTINUOUS
 10
10.6697593011
 20
9.0456470768
 11
10.6780386617
 21
9.0367935337
  0
LINE
  5
31B
100
AcDbEntity
  8
0
100
AcDbLine
 62
4
  6
CONTINUOUS
 10
10.8988217303
 20
9.0297615434
 11
10.9043412856
 21
9.0210993934
  0
LINE
  5
31C
100
AcDbEntity
  8
0
100
AcDbLine
 62
4
  6
CONTINUOUS
 10
10.9898947244
 20
9.0068868817
 11
10.9816153914
 21
9.0240197835
  0
LINE
  5
31D
100
AcDbEntity
  8
0
100
AcDbLine
 62
4
  6
CONTINUOUS
 10
11.298991037
 20
8.9688922481
 11
11.298991037
 21
8.9937303402
  0
LINE
  5
31E
100
AcDbEntity
  8
0
100
AcDbLine
 62
7
  6
CONTINUOUS
 10
11.317207443
 20
6.5044269117
 11
11.317207443
 21
6.1200234704
  0
LINE
  5
31F
100
AcDbEntity
  8
0
100
AcDbLine
 62
4
  6
CONTINUOUS
 10
11.3486671453
 20
8.9240503755
 11
11.3486671453
 21
8.9488884702
  0
LINE
  5
320
100
AcDbEntity
  8
0
100
AcDbLine
 62
7
  6
CONTINUOUS
 10
11.3566802209
 20
6.4942106179
 11
11.3566802209
 21
6.1098071766
  0
LINE
  5
321
100
AcDbEntity
  8
0
100
AcDbLine
 62
4
  6
CONTINUOUS
 10
12.3223895133
 20
8.9525630941
 11
12.3368784013
 21
8.9612175426
  0
LINE
  5
322
100
AcDbEntity
  8
0
100
AcDbLine
 62
4
  6
CONTINUOUS
 10
12.3658561771
 20
8.9109116316
 11
12.3368784013
 21
8.8936027311
  0
LINE
  5
323
100
AcDbEntity
  8
0
100
AcDbLine
 62
4
  6
CONTINUOUS
 10
10.7111561317
 20
8.9323846677
 11
10.7277148528
 21
8.9312363165
  0
LINE
  5
324
100
AcDbEntity
  8
0
100
AcDbLine
 62
4
  6
CONTINUOUS
 10
12.3151450694
 20
8.8468136509
 11
12.3731006211
 21
8.8427944197
  0
LINE
  5
325
100
AcDbEntity
  8
0
100
AcDbLine
 62
4
  6
CONTINUOUS
 10
11.2658735947
 20
8.9215127629
 11
11.2327560418
 21
8.923809473
  0
LINE
  5
326
100
AcDbEntity
  8
0
100
AcDbLine
 62
4
  6
CONTINUOUS
 10
11.1306439372
 20
8.9308909715
 11
11.114085216
 21
8.9320393227
  0
LINE
  5
327
100
AcDbEntity
  8
0
100
AcDbLine
 62
4
  6
CONTINUOUS
 10
10.9898947244
 20
8.9406519625
 11
10.956777282
 21
8.9429486649
  0
LINE
  5
328
100
AcDbEntity
  8
0
100
AcDbLine
 62
4
  6
CONTINUOUS
 10
10.8325867904
 20
8.9515613048
 11
10.7994693481
 21
8.9538580072
  0
LINE
  5
329
100
AcDbEntity
  8
0
100
AcDbLine
 62
4
  6
CONTINUOUS
 10
10.272349804
 20
8.9904138718
 11
10.3054672627
 21
8.9881171682
  0
LINE
  5
32A
100
AcDbEntity
  8
0
100
AcDbLine
 62
4
  6
CONTINUOUS
 10
10.371702175
 20
8.9835237614
 11
10.3965402775
 21
8.9818012332
  0
LINE
  5
32B
100
AcDbEntity
  8
0
100
AcDbLine
 62
4
  6
CONTINUOUS
 10
11.0312915549
 20
8.9377810826
 11
11.0726883855
 21
8.9349102026
  0
LINE
  5
32C
100
AcDbEntity
  8
0
100
AcDbLine
 62
4
  6
CONTINUOUS
 10
11.30727037
 20
8.9186418867
 11
11.3403878123
 21
8.9163451843
  0
LINE
  5
32D
100
AcDbEntity
  8
0
100
AcDbLine
 62
4
  6
CONTINUOUS
 10
10.7994693481
 20
8.9538580072
 11
10.7829106269
 21
8.9632857233
  0
LINE
  5
32E
100
AcDbEntity
  8
0
100
AcDbLine
 62
4
  6
CONTINUOUS
 10
10.956777282
 20
8.9429486649
 11
10.9402185609
 21
8.9523763811
  0
LINE
  5
32F
100
AcDbEntity
  8
0
100
AcDbLine
 62
4
  6
CONTINUOUS
 10
9.2893821647
 20
10.0776347123
 11
9.3038710527
 21
10.0669706482
  0
LINE
  5
330
100
AcDbEntity
  8
0
100
AcDbLine
 62
4
  6
CONTINUOUS
 10
11.0230121667
 20
8.946634625
 11
11.0312915549
 21
8.9377810826
  0
LINE
  5
331
100
AcDbEntity
  8
0
100
AcDbLine
 62
4
  6
CONTINUOUS
 10
11.114085216
 20
8.9320393227
 11
11.1058058278
 21
8.9408928651
  0
LINE
  5
332
100
AcDbEntity
  8
0
100
AcDbLine
 62
4
  6
CONTINUOUS
 10
10.956777282
 20
8.9843454886
 11
10.9898947244
 21
8.9820487862
  0
LINE
  5
333
100
AcDbEntity
  8
0
100
AcDbLine
 62
4
  6
CONTINUOUS
 10
10.9816153914
 20
9.0240197835
 11
10.9402185609
 21
9.0268906634
  0
LINE
  5
334
100
AcDbEntity
  8
0
100
AcDbLine
 62
4
  6
CONTINUOUS
 10
10.6283624706
 20
9.0485179568
 11
10.6697593011
 21
9.0456470768
  0
LINE
  5
335
100
AcDbEntity
  8
0
100
AcDbLine
 62
4
  6
CONTINUOUS
 10
10.7994693481
 20
9.0366516545
 11
10.8325867904
 21
9.0343549521
  0
LINE
  5
336
100
AcDbEntity
  8
0
100
AcDbLine
 62
4
  6
CONTINUOUS
 10
10.865704288
 20
9.0320582458
 11
10.8988217303
 21
9.0297615434
  0
LINE
  5
337
100
AcDbEntity
  8
0
100
AcDbLine
 62
4
  6
CONTINUOUS
 10
11.2327560418
 20
9.0066031202
 11
11.2658735947
 21
9.0043064101
  0
LINE
  5
338
100
AcDbEntity
  8
0
100
AcDbLine
 62
4
  6
CONTINUOUS
 10
11.30727037
 20
9.001435534
 11
11.3403878123
 21
8.9991388316
  0
LINE
  5
339
100
AcDbEntity
  8
0
100
AcDbLine
 62
4
  6
CONTINUOUS
 10
12.3368784013
 20
8.9612175426
 11
12.3513672892
 21
8.9602127348
  0
LINE
  5
33A
100
AcDbEntity
  8
0
100
AcDbLine
 62
4
  6
CONTINUOUS
 10
10.2806291689
 20
9.1057507993
 11
10.3137466268
 21
9.1034540958
  0
LINE
  5
33B
100
AcDbEntity
  8
0
100
AcDbLine
 62
4
  6
CONTINUOUS
 10
11.1803201007
 20
9.0433570213
 11
11.1830798783
 21
9.04316563
  0
LINE
  5
33C
100
AcDbEntity
  8
0
100
AcDbLine
 62
4
  6
CONTINUOUS
 10
11.3403878123
 20
8.9549822199
 11
11.30727037
 21
8.9627984984
  0
LINE
  5
33D
100
AcDbEntity
  8
0
100
AcDbLine
 62
4
  6
CONTINUOUS
 10
11.30727037
 20
8.9627984984
 11
11.298991037
 21
8.9688922481
  0
LINE
  5
33E
100
AcDbEntity
  8
0
100
AcDbLine
 62
4
  6
CONTINUOUS
 10
11.3486671453
 20
8.9488884702
 11
11.3403878123
 21
8.9549822199
  0
LINE
  5
33F
100
AcDbEntity
  8
0
100
AcDbLine
 62
4
  6
CONTINUOUS
 10
11.2327560418
 20
8.923809473
 11
11.2244767089
 21
8.9326630115
  0
LINE
  5
340
100
AcDbEntity
  8
0
100
AcDbLine
 62
4
  6
CONTINUOUS
 10
11.298991037
 20
8.9274954253
 11
11.30727037
 21
8.9186418867
  0
LINE
  5
341
100
AcDbEntity
  8
0
100
AcDbLine
 62
4
  6
CONTINUOUS
 10
11.3403878123
 20
8.9991388316
 11
11.3486671453
 21
8.9902852904
  0
LINE
  5
342
100
AcDbEntity
  8
0
100
AcDbLine
 62
4
  6
CONTINUOUS
 10
12.3151450694
 20
8.9434062348
 11
12.3223895133
 21
8.9525630941
  0
LINE
  5
343
100
AcDbEntity
  8
0
100
AcDbLine
 62
4
  6
CONTINUOUS
 10
12.3368784013
 20
8.8936027311
 11
12.3223895133
 21
8.8752890228
  0
LINE
  5
344
100
AcDbEntity
  8
0
100
AcDbLine
 62
4
  6
CONTINUOUS
 10
12.3731006211
 20
8.920068491
 11
12.3658561771
 21
8.9109116316
  0
LINE
  5
345
100
AcDbEntity
  8
0
100
AcDbLine
 62
7
  6
CONTINUOUS
 10
11.9217866955
 20
6.4550203508
 11
11.9217866955
 21
6.0706169095
  0
LINE
  5
346
100
AcDbEntity
  8
0
100
AcDbLine
 62
7
  6
CONTINUOUS
 10
11.9757074978
 20
6.4587597778
 11
11.9757074978
 21
6.0743563364
  0
LINE
  5
347
100
AcDbEntity
  8
0
100
AcDbLine
 62
4
  6
CONTINUOUS
 10
12.3223895133
 20
8.8752890228
 11
12.3151450694
 21
8.8468136509
  0
LINE
  5
348
100
AcDbEntity
  8
0
100
AcDbLine
 62
4
  6
CONTINUOUS
 10
12.3513672892
 20
8.9602127348
 11
12.3658561771
 21
8.9495486707
  0
LINE
  5
349
100
AcDbEntity
  8
0
100
AcDbLine
 62
4
  6
CONTINUOUS
 10
12.3731006211
 20
8.9393870036
 11
12.3731006211
 21
8.920068491
  0
LINE
  5
34A
100
AcDbEntity
  8
0
100
AcDbLine
 62
7
  6
CONTINUOUS
 10
12.3893940328
 20
6.4867371987
 11
12.3893940328
 21
6.1814262494
  0
LINE
  5
34B
100
AcDbEntity
  8
0
100
AcDbLine
 62
7
  6
CONTINUOUS
 10
12.4038420572
 20
6.4857352249
 11
12.4038420572
 21
6.1953819701
  0
LINE
  5
34C
100
AcDbEntity
  8
0
100
AcDbLine
 62
4
  6
CONTINUOUS
 10
9.2893821647
 20
9.9617236089
 11
9.2748932768
 21
9.9627284167
  0
LINE
  5
34D
100
AcDbEntity
  8
0
100
AcDbLine
 62
4
  6
CONTINUOUS
 10
9.2748932768
 20
10.0303432247
 11
9.2893821647
 21
10.0293384169
  0
LINE
  5
34E
100
AcDbEntity
  8
0
100
AcDbLine
 62
4
  6
CONTINUOUS
 10
9.2748932768
 20
10.0786395201
 11
9.2893821647
 21
10.0776347123
  0
LINE
  5
34F
100
AcDbEntity
  8
0
100
AcDbLine
 62
4
  6
CONTINUOUS
 10
12.3658561771
 20
8.9495486707
 11
12.3731006211
 21
8.9393870036
  0
LINE
  5
350
100
AcDbEntity
  8
0
100
AcDbLine
 62
7
  6
CONTINUOUS
 10
12.5566265403
 20
6.475139585
 11
12.5566265403
 21
10.3388431191
  0
LINE
  5
351
100
AcDbEntity
  8
0
100
AcDbLine
 62
7
  6
CONTINUOUS
 10
12.9448547875
 20
6.8501392977
 11
12.9448547875
 21
10.7138428318
  0
LINE
  5
352
100
AcDbEntity
  8
0
100
AcDbLine
 62
7
  6
CONTINUOUS
 10
9.0551452125
 20
10.5816716739
 11
12.5566265403
 21
10.3388431191
  0
LINE
  5
353
100
AcDbEntity
  8
0
100
AcDbLine
 62
7
  6
CONTINUOUS
 10
12.9448547875
 20
10.7138428318
 11
9.4433734597
 21
10.9566713866
  0
LINE
  5
354
100
AcDbEntity
  8
0
100
AcDbLine
 62
7
  6
CONTINUOUS
 10
12.5566265403
 20
6.475139585
 11
12.9448547875
 21
6.8501392977
  0
LINE
  5
355
100
AcDbEntity
  8
0
100
AcDbLine
 62
7
  6
CONTINUOUS
 10
12.3070979012
 20
6.1352630932
 11
12.2764238907
 21
6.1201107194
  0
ARC
  5
356
100
AcDbEntity
  8
0
100
AcDbCircle
 62
7
  6
CONTINUOUS
 10
11.7958543029
 20
8.2771297941
 40
2.210103635
100
AcDbArc
 50
273.2665005552
 51
274.6677615151
  0
ARC
  5
357
100
AcDbEntity
  8
0
100
AcDbCircle
 62
7
  6
CONTINUOUS
 10
11.7958543029
 20
8.6615332355
 40
2.210103635
100
AcDbArc
 50
273.2665005552
 51
274.6677615151
  0
ARC
  5
358
100
AcDbEntity
  8
0
100
AcDbCircle
 62
7
  6
CONTINUOUS
 10
11.5758797294
 20
7.4224973516
 40
0.9538158545
100
AcDbArc
 50
254.2644742826
 51
256.7139235525
  0
ARC
  5
359
100
AcDbEntity
  8
0
100
AcDbCircle
 62
7
  6
CONTINUOUS
 10
11.5758797294
 20
7.0380939102
 40
0.9538158545
100
AcDbArc
 50
254.2644742826
 51
256.7139235525
  0
ARC
  5
35A
100
AcDbEntity
  8
0
100
AcDbCircle
 62
7
  6
CONTINUOUS
 10
11.9682168996
 20
6.8201582944
 40
0.7641475746
100
AcDbArc
 50
293.7608747297
 51
296.3085175792
  0
ARC
  5
35B
100
AcDbEntity
  8
0
100
AcDbCircle
 62
7
  6
CONTINUOUS
 10
10.2828749815
 20
7.9159680636
 40
0.2411324157
100
AcDbArc
 50
343.22670225
 51
347.6687558352
  0
SPLINE
  5
35C
100
AcDbEntity
  8
0
100
AcDbSpline
 62
7
  6
CONTINUOUS
 70
0
 71
3
 72
9
 73
5
 74
0
 42
0.0000001
 43
0.0000001
 44
0.0000000001
 40
0.0
 40
0.0
 40
0.0
 40
0.0
 40
0.2426770998
 40
1.0
 40
1.0
 40
1.0
 40
1.0
 10
12.3972117905
 20
6.1883629334
 30
0.0
 10
12.3966036
 20
6.1877754665
 30
0.0
 10
12.3940705486
 20
6.1853825853
 30
0.0
 10
12.3914348349
 20
6.1830991158
 30
0.0
 10
12.3893940328
 20
6.1814262494
 30
0.0
  0
SPLINE
  5
35D
100
AcDbEntity
  8
0
100
AcDbSpline
 62
7
  6
CONTINUOUS
 70
0
 71
3
 72
9
 73
5
 74
0
 42
0.0000001
 43
0.0000001
 44
0.0000000001
 40
0.0
 40
0.0
 40
0.0
 40
0.0
 40
0.2426666479
 40
1.0
 40
1.0
 40
1.0
 40
1.0
 10
12.4038420572
 20
6.1953819701
 30
0.0
 10
12.4033344294
 20
6.1947881972
 30
0.0
 10
12.4012107336
 20
6.1923686127
 30
0.0
 10
12.3989653251
 20
6.1900567179
 30
0.0
 10
12.3972117905
 20
6.1883629334
 30
0.0
  0
SPLINE
  5
35E
100
AcDbEntity
  8
0
100
AcDbSpline
 62
7
  6
CONTINUOUS
 70
0
 71
3
 72
9
 73
5
 74
0
 42
0.0000001
 43
0.0000001
 44
0.0000000001
 40
0.0
 40
0.0
 40
0.0
 40
0.0
 40
0.504378312
 40
1.0
 40
1.0
 40
1.0
 40
1.0
 10
12.3893940328
 20
6.1814262494
 30
0.0
 10
12.3758902826
 20
6.1730173957
 30
0.0
 10
12.3487774452
 20
6.1568827397
 30
0.0
 10
12.3209046487
 20
6.1420855449
 30
0.0
 10
12.3068905107
 20
6.1351607025
 30
0.0
  0
SPLINE
  5
35F
100
AcDbEntity
  8
0
100
AcDbSpline
 62
7
  6
CONTINUOUS
 70
0
 71
3
 72
23
 73
19
 74
0
 42
0.0000001
 43
0.0000001
 44
0.0000000001
 40
0.0
 40
0.0
 40
0.0
 40
0.0
 40
0.0436203086
 40
0.0892268542
 40
0.137068591
 40
0.187353676
 40
0.2402538462
 40
0.2958872461
 40
0.3543311569
 40
0.4156094827
 40
0.4797102731
 40
0.5465788188
 40
0.6161346312
 40
0.6882694307
 40
0.7628606873
 40
0.8397744221
 40
0.9188692703
 40
1.0
 40
1.0
 40
1.0
 40
1.0
 10
11.2741960138
 20
6.1295011619
 30
0.0
 10
11.2718860781
 20
6.1306417304
 30
0.0
 10
11.2672489544
 20
6.1331568269
 30
0.0
 10
11.260421665
 20
6.1375178789
 30
0.0
 10
11.2535852761
 20
6.1425601655
 30
0.0
 10
11.2467437264
 20
6.1482910978
 30
0.0
 10
11.2399026282
 20
6.1547147486
 30
0.0
 10
11.2330650877
 20
6.161826321
 30
0.0
 10
11.2262368285
 20
6.169617133
 30
0.0
 10
11.2194205844
 20
6.1780705355
 30
0.0
 10
11.2126214159
 20
6.1871664414
 30
0.0
 10
11.2058415657
 20
6.1968788233
 30
0.0
 10
11.1990848988
 20
6.2071793714
 30
0.0
 10
11.1923530118
 20
6.2180363255
 30
0.0
 10
11.1856482948
 20
6.229417179
 30
0.0
 10
11.1789716456
 20
6.2412882614
 30
0.0
 10
11.1723241531
 20
6.2536161005
 30
0.0
 10
11.1679650351
 20
6.2620155176
 30
0.0
 10
11.1657875035
 20
6.2662836504
 30
0.0
  0
SPLINE
  5
360
100
AcDbEntity
  8
0
100
AcDbSpline
 62
7
  6
CONTINUOUS
 70
0
 71
3
 72
47
 73
43
 74
0
 42
0.0000001
 43
0.0000001
 44
0.0000000001
 40
0.0
 40
0.0
 40
0.0
 40
0.0
 40
0.0099874638
 40
0.0204476834
 40
0.0313771515
 40
0.0427708334
 40
0.0546218702
 40
0.0669225517
 40
0.0796641282
 40
0.0928362942
 40
0.1204271347
 40
0.1495984091
 40
0.1802407165
 40
0.2122338314
 40
0.2454489836
 40
0.2797497839
 40
0.3149929168
 40
0.3510298084
 40
0.3877071885
 40
0.4248680172
 40
0.4623527228
 40
0.4999997959
 40
0.5376468789
 40
0.575131606
 40
0.6122924455
 40
0.6489698269
 40
0.6850067267
 40
0.7202498875
 40
0.7545507276
 40
0.7877659112
 40
0.8197590481
 40
0.8504013805
 40
0.8795726993
 40
0.9071635849
 40
0.9203357726
 40
0.933077377
 40
0.9453780958
 40
0.9572291635
 40
0.968622847
 40
0.9795522717
 40
0.9900124597
 40
1.0
 40
1.0
 40
1.0
 40
1.0
 10
12.2764277761
 20
6.120112674
 30
0.0
 10
12.2734372418
 20
6.1186353963
 30
0.0
 10
12.2672635354
 20
6.1157134805
 30
0.0
 10
12.257661337
 20
6.1115140368
 30
0.0
 10
12.2475131589
 20
6.107401202
 30
0.0
 10
12.2368307109
 20
6.1033799922
 30
0.0
 10
12.2256263352
 20
6.099454687
 30
0.0
 10
12.2139128346
 20
6.0956299679
 30
0.0
 10
12.2017035786
 20
6.0919103971
 30
0.0
 10
12.1845157498
 20
6.0870208653
 30
0.0
 10
12.1618854375
 20
6.0812253838
 30
0.0
 10
12.1333941592
 20
6.0748567116
 30
0.0
 10
12.1032941102
 20
6.0690011877
 30
0.0
 10
12.071724104
 20
6.063685846
 30
0.0
 10
12.038829446
 20
6.0589356896
 30
0.0
 10
12.0047617949
 20
6.0547731575
 30
0.0
 10
11.9696783364
 20
6.0512174295
 30
0.0
 10
11.9337410155
 20
6.0482852591
 30
0.0
 10
11.8971157546
 20
6.0459904745
 30
0.0
 10
11.8599717221
 20
6.044343527
 30
0.0
 10
11.8224804982
 20
6.043352291
 30
0.0
 10
11.7848152579
 20
6.0430214344
 30
0.0
 10
11.7471500103
 20
6.0433522743
 30
0.0
 10
11.7096587719
 20
6.0443434943
 30
0.0
 10
11.6725147274
 20
6.045990425
 30
0.0
 10
11.6358894587
 20
6.0482851935
 30
0.0
 10
11.599952124
 20
6.051217347
 30
0.0
 10
11.5648686384
 20
6.0547730604
 30
0.0
 10
11.5308009522
 20
6.0589355779
 30
0.0
 10
11.4979062609
 20
6.0636857209
 30
0.0
 10
11.4663362255
 20
6.0690010468
 30
0.0
 10
11.4362361426
 20
6.0748565564
 30
0.0
 10
11.407744823
 20
6.081225219
 30
0.0
 10
11.385114469
 20
6.0870206871
 30
0.0
 10
11.3679266045
 20
6.0919102094
 30
0.0
 10
11.3557173178
 20
6.0956297787
 30
0.0
 10
11.3440037857
 20
6.099454505
 30
0.0
 10
11.3327993863
 20
6.1033798128
 30
0.0
 10
11.3221169355
 20
6.1074010043
 30
0.0
 10
11.3119687634
 20
6.1115137881
 30
0.0
 10
11.3023665475
 20
6.1157131934
 30
0.0
 10
11.2961928263
 20
6.1186351141
 30
0.0
 10
11.2932022733
 20
6.1201124117
 30
0.0
  0
SPLINE
  5
361
100
AcDbEntity
  8
0
100
AcDbSpline
 62
7
  6
CONTINUOUS
 70
0
 71
3
 72
15
 73
11
 74
0
 42
0.0000001
 43
0.0000001
 44
0.0000000001
 40
0.0
 40
0.0
 40
0.0
 40
0.0
 40
0.1299708166
 40
0.2593283487
 40
0.3876617857
 40
0.5145654289
 40
0.6396384778
 40
0.7624890516
 40
0.8827334041
 40
1.0
 40
1.0
 40
1.0
 40
1.0
 10
11.7695936258
 20
6.5295845285
 30
0.0
 10
11.7591427977
 20
6.5296610609
 30
0.0
 10
11.7382912601
 20
6.5299712049
 30
0.0
 10
11.7071318432
 20
6.5309081742
 30
0.0
 10
11.6762368199
 20
6.5323134805
 30
0.0
 10
11.6457114732
 20
6.5341818654
 30
0.0
 10
11.6156596761
 20
6.5365073986
 30
0.0
 10
11.5861836752
 20
6.5392816127
 30
0.0
 10
11.5573839181
 20
6.5424954177
 30
0.0
 10
11.5384433216
 20
6.5449567437
 30
0.0
 10
11.5291046195
 20
6.5462624977
 30
0.0
  0
SPLINE
  5
362
100
AcDbEntity
  8
0
100
AcDbSpline
 62
7
  6
CONTINUOUS
 70
0
 71
3
 72
10
 73
6
 74
0
 42
0.0000001
 43
0.0000001
 44
0.0000000001
 40
0.0
 40
0.0
 40
0.0
 40
0.0
 40
0.4950633206
 40
0.7463873743
 40
1.0
 40
1.0
 40
1.0
 40
1.0
 10
12.0671270389
 20
6.50936208
 30
0.0
 10
12.051567169
 20
6.5019147807
 30
0.0
 10
12.0284765004
 20
6.4899021548
 30
0.0
 10
11.9982496342
 20
6.4725644433
 30
0.0
 10
11.9832090059
 20
6.4634310049
 30
0.0
 10
11.9757074978
 20
6.4587597778
 30
0.0
  0
SPLINE
  5
363
100
AcDbEntity
  8
0
100
AcDbSpline
 62
7
  6
CONTINUOUS
 70
0
 71
3
 72
21
 73
17
 74
0
 42
0.0000001
 43
0.0000001
 44
0.0000000001
 40
0.0
 40
0.0
 40
0.0
 40
0.0
 40
0.1230212981
 40
0.1847065752
 40
0.2465215318
 40
0.3084771567
 40
0.3705832678
 40
0.432847904
 40
0.4952752623
 40
0.5578663069
 40
0.6206183946
 40
0.6835249868
 40
0.7465773451
 40
0.8097643485
 40
0.8730733734
 40
1.0
 40
1.0
 40
1.0
 40
1.0
 10
11.9217866955
 20
6.0706169095
 30
0.0
 10
11.8987075145
 20
6.0660695533
 30
0.0
 10
11.863875073
 20
6.060097147
 30
0.0
 10
11.817103858
 20
6.0541869996
 30
0.0
 10
11.7817925494
 20
6.0508597856
 30
0.0
 10
11.7463081066
 20
6.048725378
 30
0.0
 10
11.7106833855
 20
6.0478546417
 30
0.0
 10
11.674960174
 20
6.0483035369
 30
0.0
 10
11.6391865523
 20
6.0501055356
 30
0.0
 10
11.6034140261
 20
6.0532688215
 30
0.0
 10
11.5676940862
 20
6.0577777721
 30
0.0
 10
11.5320744728
 20
6.0635920139
 30
0.0
 10
11.4965963333
 20
6.070649728
 30
0.0
 10
11.4612921426
 20
6.0788754177
 30
0.0
 10
11.4144482164
 20
6.0912949697
 30
0.0
 10
11.3796878067
 20
6.1020827641
 30
0.0
 10
11.3566802209
 20
6.1098071766
 30
0.0
  0
SPLINE
  5
364
100
AcDbEntity
  8
0
100
AcDbSpline
 62
7
  6
CONTINUOUS
 70
0
 71
3
 72
21
 73
17
 74
0
 42
0.0000001
 43
0.0000001
 44
0.0000000001
 40
0.0
 40
0.0
 40
0.0
 40
0.0
 40
0.1269266266
 40
0.1902356515
 40
0.253422655
 40
0.3164750132
 40
0.3793816055
 40
0.4421336932
 40
0.5047247377
 40
0.567152096
 40
0.6294167323
 40
0.6915228434
 40
0.7534784683
 40
0.8152934248
 40
0.8769787019
 40
1.0
 40
1.0
 40
1.0
 40
1.0
 10
11.9217866955
 20
6.4550203508
 30
0.0
 10
11.8987791097
 20
6.4627447634
 30
0.0
 10
11.8640187
 20
6.4735325577
 30
0.0
 10
11.8171747739
 20
6.4859521098
 30
0.0
 10
11.7818705831
 20
6.4941777995
 30
0.0
 10
11.7463924436
 20
6.5012355135
 30
0.0
 10
11.7107728302
 20
6.5070497553
 30
0.0
 10
11.6750528903
 20
6.5115587059
 30
0.0
 10
11.6392803641
 20
6.5147219918
 30
0.0
 10
11.6035067424
 20
6.5165239906
 30
0.0
 10
11.5677835309
 20
6.5169728858
 30
0.0
 10
11.5321588098
 20
6.5161021494
 30
0.0
 10
11.496674367
 20
6.5139677418
 30
0.0
 10
11.4613630584
 20
6.5106405278
 30
0.0
 10
11.4145918435
 20
6.5047303804
 30
0.0
 10
11.3797594019
 20
6.4987579741
 30
0.0
 10
11.3566802209
 20
6.4942106179
 30
0.0
  0
SPLINE
  5
365
100
AcDbEntity
  8
0
100
AcDbSpline
 62
7
  6
CONTINUOUS
 70
0
 71
3
 72
11
 73
7
 74
0
 42
0.0000001
 43
0.0000001
 44
0.0000000001
 40
0.0
 40
0.0
 40
0.0
 40
0.0
 40
0.2465919593
 40
0.494712682
 40
0.7454424776
 40
1.0
 40
1.0
 40
1.0
 40
1.0
 10
11.317207443
 20
6.1200234704
 30
0.0
 10
11.3152650301
 20
6.1199686357
 30
0.0
 10
11.3113637204
 20
6.1199759822
 30
0.0
 10
11.3054980292
 20
6.120359504
 30
0.0
 10
11.2996079572
 20
6.1211377864
 30
0.0
 10
11.2957015001
 20
6.1219273342
 30
0.0
 10
11.293750055
 20
6.1223917956
 30
0.0
  0
SPLINE
  5
366
100
AcDbEntity
  8
0
100
AcDbSpline
 62
7
  6
CONTINUOUS
 70
0
 71
3
 72
10
 73
6
 74
0
 42
0.0000001
 43
0.0000001
 44
0.0000000001
 40
0.0
 40
0.0
 40
0.0
 40
0.0
 40
0.2418255986
 40
0.4885199497
 40
1.0
 40
1.0
 40
1.0
 40
1.0
 10
11.293750055
 20
6.1223917956
 30
0.0
 10
11.2921155375
 20
6.1227808253
 30
0.0
 10
11.2888352272
 20
6.1236616859
 30
0.0
 10
11.2822363268
 20
6.1258439912
 30
0.0
 10
11.2773824484
 20
6.1279278075
 30
0.0
 10
11.2741960138
 20
6.1295011619
 30
0.0
  0
SPLINE
  5
367
100
AcDbEntity
  8
0
100
AcDbSpline
 62
7
  6
CONTINUOUS
 70
0
 71
3
 72
11
 73
7
 74
0
 42
0.0000001
 43
0.0000001
 44
0.0000000001
 40
0.0
 40
0.0
 40
0.0
 40
0.0
 40
0.2633952514
 40
0.5183435581
 40
0.764111363
 40
1.0
 40
1.0
 40
1.0
 40
1.0
 10
11.317207443
 20
6.5044269117
 30
0.0
 10
11.3144909565
 20
6.5097514385
 30
0.0
 10
11.3090541588
 20
6.5201837483
 30
0.0
 10
11.3007279916
 20
6.5353962342
 30
0.0
 10
11.2923575312
 20
6.5498678773
 30
0.0
 10
11.2866260542
 20
6.5591776171
 30
0.0
 10
11.2837455337
 20
6.5636897717
 30
0.0
  0
LINE
  5
368
100
AcDbEntity
  8
0
100
AcDbLine
 62
7
  6
CONTINUOUS
 10
12.2761075525
 20
6.1207836726
 11
12.2753784385
 21
6.120463785
  0
SPLINE
  5
369
100
AcDbEntity
  8
0
100
AcDbSpline
 62
7
  6
CONTINUOUS
 70
0
 71
3
 72
15
 73
11
 74
0
 42
0.0000001
 43
0.0000001
 44
0.0000000001
 40
0.0
 40
0.0
 40
0.0
 40
0.0
 40
0.1321602046
 40
0.2618009952
 40
0.3890353631
 40
0.5141096583
 40
0.6373677171
 40
0.75919507
 40
0.8799649792
 40
1.0
 40
1.0
 40
1.0
 40
1.0
 10
12.2753784385
 20
6.120463785
 30
0.0
 10
12.2629973351
 20
6.1150400428
 30
0.0
 10
12.2381565712
 20
6.1049930537
 30
0.0
 10
12.2003625081
 20
6.0924596163
 30
0.0
 10
12.1624917387
 20
6.0827423268
 30
0.0
 10
12.124665363
 20
6.0758738226
 30
0.0
 10
12.0869979771
 20
6.0717739941
 30
0.0
 10
12.0495823951
 20
6.0702673062
 30
0.0
 10
12.0124815585
 20
6.0711141539
 30
0.0
 10
11.9879171391
 20
6.0730735039
 30
0.0
 10
11.9757074978
 20
6.0743563364
 30
0.0
  0
SPLINE
  5
36A
100
AcDbEntity
  8
0
100
AcDbSpline
 62
7
  6
CONTINUOUS
 70
0
 71
3
 72
91
 73
87
 74
0
 42
0.0000001
 43
0.0000001
 44
0.0000000001
 40
0.0
 40
0.0
 40
0.0
 40
0.0
 40
0.0039801824
 40
0.0081241125
 40
0.0124359604
 40
0.0169193082
 40
0.0215771808
 40
0.0264119179
 40
0.0314251804
 40
0.036618156
 40
0.0419915391
 40
0.0475456573
 40
0.0532804234
 40
0.0591954189
 40
0.0652899227
 40
0.0715629017
 40
0.0780131034
 40
0.0846389837
 40
0.0984102885
 40
0.1128608532
 40
0.1279713725
 40
0.1437199568
 40
0.1600824082
 40
0.1770324532
 40
0.1945419392
 40
0.2125810061
 40
0.2311182422
 40
0.2501208275
 40
0.2695546626
 40
0.2893844909
 40
0.3095740146
 40
0.330086005
 40
0.35088241
 40
0.3719244606
 40
0.3931727759
 40
0.4145874652
 40
0.4361282289
 40
0.4577544586
 40
0.4794253371
 40
0.501099938
 40
0.5227373261
 40
0.5442966575
 40
0.5657372785
 40
0.5870188258
 40
0.6081013261
 40
0.6289452975
 40
0.6495118524
 40
0.6697628021
 40
0.6896607608
 40
0.7091692527
 40
0.7282528228
 40
0.7468771515
 40
0.7650091753
 40
0.7826172172
 40
0.7996711268
 40
0.8161424293
 40
0.8320044948
 40
0.8472327309
 40
0.8618048077
 40
0.8757009255
 40
0.8889041429
 40
0.8952417292
 40
0.9014012652
 40
0.9073816417
 40
0.9131820083
 40
0.9188018518
 40
0.9242409423
 40
0.9294994633
 40
0.9345779585
 40
0.9394774438
 40
0.944199427
 40
0.9487459568
 40
0.95311974
 40
0.9573241405
 40
0.9613633601
 40
0.9652424499
 40
0.9689674846
 40
0.9725456466
 40
0.9759853437
 40
0.9824865016
 40
0.9855753543
 40
0.9885738189
 40
0.9914977372
 40
0.9943643366
 40
0.9971920099
 40
1.0
 40
1.0
 40
1.0
 40
1.0
 10
11.3327614669
 20
10.6246801667
 30
0.0
 10
11.331460235
 20
10.6234232732
 30
0.0
 10
11.3287451456
 20
10.6209183757
 30
0.0
 10
11.3244344186
 20
10.6172597843
 30
0.0
 10
11.3198071389
 20
10.6136274365
 30
0.0
 10
11.314865845
 20
10.6100232608
 30
0.0
 10
11.3096129459
 20
10.6064489405
 30
0.0
 10
11.3040510155
 20
10.6029062145
 30
0.0
 10
11.2981828355
 20
10.5993967815
 30
0.0
 10
11.2920113174
 20
10.5959224626
 30
0.0
 10
11.2855395778
 20
10.5924849255
 30
0.0
 10
11.2787708338
 20
10.5890859387
 30
0.0
 10
11.2717084888
 20
10.5857271739
 30
0.0
 10
11.2643560854
 20
10.5824103285
 30
0.0
 10
11.2567173144
 20
10.5791370929
 30
0.0
 10
11.2487960313
 20
10.5759090842
 30
0.0
 10
11.2405962023
 20
10.5727279621
 30
0.0
 10
11.22914969
 20
10.5684966221
 30
0.0
 10
11.2141679895
 20
10.5633469993
 30
0.0
 10
11.1953711488
 20
10.5574561414
 30
0.0
 10
11.1755691923
 20
10.5517891585
 30
0.0
 10
11.1548020923
 20
10.546357578
 30
0.0
 10
11.1331116198
 20
10.5411724639
 30
0.0
 10
11.1105415167
 20
10.5362443788
 30
0.0
 10
11.087137323
 20
10.531583364
 30
0.0
 10
11.0629463005
 20
10.5271989121
 30
0.0
 10
11.0380173241
 20
10.5230999511
 30
0.0
 10
11.0124007783
 20
10.519294826
 30
0.0
 10
10.9861484514
 20
10.5157912825
 30
0.0
 10
10.9593134282
 20
10.5125964509
 30
0.0
 10
10.9319499812
 20
10.5097168325
 30
0.0
 10
10.9041134599
 20
10.5071582872
 30
0.0
 10
10.8758601784
 20
10.5049260182
 30
0.0
 10
10.8472472988
 20
10.5030245639
 30
0.0
 10
10.8183327144
 20
10.5014577901
 30
0.0
 10
10.789174931
 20
10.500228882
 30
0.0
 10
10.7598329482
 20
10.4993403384
 30
0.0
 10
10.7303661405
 20
10.4987939664
 30
0.0
 10
10.7008341362
 20
10.4985908782
 30
0.0
 10
10.6712966968
 20
10.4987314864
 30
0.0
 10
10.6418135943
 20
10.4992155038
 30
0.0
 10
10.61244449
 20
10.5000419456
 30
0.0
 10
10.583248813
 20
10.5012091317
 30
0.0
 10
10.5542856406
 20
10.5027146893
 30
0.0
 10
10.5256135781
 20
10.5045555582
 30
0.0
 10
10.4972906393
 20
10.5067279966
 30
0.0
 10
10.4693741277
 20
10.5092275871
 30
0.0
 10
10.4419205187
 20
10.5120492438
 30
0.0
 10
10.4149853449
 20
10.5151872263
 30
0.0
 10
10.3886230835
 20
10.5186351496
 30
0.0
 10
10.3628870443
 20
10.5223859972
 30
0.0
 10
10.3378292608
 20
10.5264321348
 30
0.0
 10
10.3135003816
 20
10.5307653261
 30
0.0
 10
10.2899495632
 20
10.5353767473
 30
0.0
 10
10.2672243643
 20
10.5402570042
 30
0.0
 10
10.2453706486
 20
10.5453961543
 30
0.0
 10
10.2244324783
 20
10.5507837286
 30
0.0
 10
10.2044520426
 20
10.5564087539
 30
0.0
 10
10.1854694722
 20
10.5622597813
 30
0.0
 10
10.1675230508
 20
10.5683249129
 30
0.0
 10
10.1532729097
 20
10.5736170477
 30
0.0
 10
10.142427083
 20
10.5779578996
 30
0.0
 10
10.1346851197
 20
10.581214902
 30
0.0
 10
10.1272281432
 20
10.5845160673
 30
0.0
 10
10.1200599037
 20
10.5878597948
 30
0.0
 10
10.1131839874
 20
10.5912443405
 30
0.0
 10
10.1066038633
 20
10.5946680684
 30
0.0
 10
10.1003228069
 20
10.5981292046
 30
0.0
 10
10.0943439745
 20
10.6016260645
 30
0.0
 10
10.0886703448
 20
10.6051568918
 30
0.0
 10
10.0833047388
 20
10.6087199314
 30
0.0
 10
10.0782498481
 20
10.6123134733
 30
0.0
 10
10.0735081517
 20
10.6159357079
 30
0.0
 10
10.0690820498
 20
10.6195849647
 30
0.0
 10
10.0649737102
 20
10.6232594291
 30
0.0
 10
10.0611852045
 20
10.6269574641
 30
0.0
 10
10.0577185198
 20
10.6306772074
 30
0.0
 10
10.0545751524
 20
10.6344174057
 30
0.0
 10
10.0508876857
 20
10.6393353352
 30
0.0
 10
10.0477564261
 20
10.6443858233
 30
0.0
 10
10.0452703421
 20
10.649544152
 30
0.0
 10
10.0437682613
 20
10.6533591211
 30
0.0
 10
10.0425985362
 20
10.6571833726
 30
0.0
 10
10.041762126
 20
10.661015049
 30
0.0
 10
10.0412599549
 20
10.6648514186
 30
0.0
 10
10.0411481612
 20
10.667414414
 30
0.0
 10
10.0411481614
 20
10.6686907489
 30
0.0
  0
SPLINE
  5
36B
100
AcDbEntity
  8
0
100
AcDbSpline
 62
7
  6
CONTINUOUS
 70
0
 71
3
 72
18
 73
14
 74
0
 42
0.0000001
 43
0.0000001
 44
0.0000000001
 40
0.0
 40
0.0
 40
0.0
 40
0.0
 40
0.1504683897
 40
0.2917144302
 40
0.4244424337
 40
0.4879098403
 40
0.5496094316
 40
0.6682625858
 40
0.7817882724
 40
0.8371379912
 40
0.8918078094
 40
0.9460192717
 40
1.0
 40
1.0
 40
1.0
 40
1.0
 10
12.7507406639
 20
9.492802245
 30
0.0
 10
12.7521316027
 20
9.4941457888
 30
0.0
 10
12.7549115857
 20
9.4966666648
 30
0.0
 10
12.7592160993
 20
9.5000260313
 30
0.0
 10
12.7628519878
 20
9.5024019539
 30
0.0
 10
12.7657512932
 20
9.5040108513
 30
0.0
 10
12.768565302
 20
9.5053921438
 30
0.0
 10
12.7720837056
 20
9.5067878881
 30
0.0
 10
12.7756646951
 20
9.5077403471
 30
0.0
 10
12.7785009444
 20
9.5082095416
 30
0.0
 10
12.7806029985
 20
9.5084177671
 30
0.0
 10
12.7826965481
 20
9.5084850144
 30
0.0
 10
12.784087451
 20
9.5084358087
 30
0.0
 10
12.7847795638
 20
9.5083878069
 30
0.0
  0
SPLINE
  5
36C
100
AcDbEntity
  8
0
100
AcDbSpline
 62
7
  6
CONTINUOUS
 70
0
 71
3
 72
21
 73
17
 74
0
 42
0.0000001
 43
0.0000001
 44
0.0000000001
 40
0.0
 40
0.0
 40
0.0
 40
0.0
 40
0.1273175725
 40
0.2538000026
 40
0.3167619332
 40
0.3795354925
 40
0.4421314982
 40
0.5045621433
 40
0.5668413429
 40
0.6289845306
 40
0.6910084612
 40
0.7529311022
 40
0.8147714553
 40
0.8765493457
 40
0.9382852283
 40
1.0
 40
1.0
 40
1.0
 40
1.0
 10
11.5530295473
 20
10.0462206006
 30
0.0
 10
11.5530295473
 20
10.0397222743
 30
0.0
 10
11.5524092399
 20
10.0267598838
 30
0.0
 10
11.5500665607
 20
10.010735567
 30
0.0
 10
11.5472665211
 20
9.9981658876
 30
0.0
 10
11.5447130337
 20
9.988894491
 30
0.0
 10
11.5417090478
 20
9.9797878217
 30
0.0
 10
11.5382614124
 20
9.9708666426
 30
0.0
 10
11.534378108
 20
9.9621515801
 30
0.0
 10
11.5300680656
 20
9.9536627163
 30
0.0
 10
11.5253411718
 20
9.9454196605
 30
0.0
 10
11.520208343
 20
9.9374414072
 30
0.0
 10
11.5146814352
 20
9.9297463695
 30
0.0
 10
11.5087730949
 20
9.9223522597
 30
0.0
 10
11.5024971779
 20
9.9152763731
 30
0.0
 10
11.4980770277
 20
9.9107812868
 30
0.0
 10
11.4958114247
 20
9.9085928706
 30
0.0
  0
SPLINE
  5
36D
100
AcDbEntity
  8
0
100
AcDbSpline
 62
7
  6
CONTINUOUS
 70
0
 71
3
 72
21
 73
17
 74
0
 42
0.0000001
 43
0.0000001
 44
0.0000000001
 40
0.0
 40
0.0
 40
0.0
 40
0.0
 40
0.1273175725
 40
0.2538000026
 40
0.3167619332
 40
0.3795354925
 40
0.4421314982
 40
0.5045621433
 40
0.5668413429
 40
0.6289845306
 40
0.6910084612
 40
0.7529311022
 40
0.8147714553
 40
0.8765493457
 40
0.9382852283
 40
1.0
 40
1.0
 40
1.0
 40
1.0
 10
10.4663629283
 20
6.9823220651
 30
0.0
 10
10.4663629283
 20
6.9758237388
 30
0.0
 10
10.4657426209
 20
6.9628613483
 30
0.0
 10
10.4633999418
 20
6.9468370315
 30
0.0
 10
10.4605999021
 20
6.9342673522
 30
0.0
 10
10.4580464147
 20
6.9249959556
 30
0.0
 10
10.4550424288
 20
6.9158892863
 30
0.0
 10
10.4515947935
 20
6.9069681071
 30
0.0
 10
10.447711489
 20
6.8982530446
 30
0.0
 10
10.4434014467
 20
6.8897641809
 30
0.0
 10
10.4386745529
 20
6.881521125
 30
0.0
 10
10.4335417241
 20
6.8735428718
 30
0.0
 10
10.4280148163
 20
6.865847834
 30
0.0
 10
10.422106476
 20
6.8584537242
 30
0.0
 10
10.4158305589
 20
6.8513778376
 30
0.0
 10
10.4114104087
 20
6.8468827514
 30
0.0
 10
10.4091448058
 20
6.8446943351
 30
0.0
  0
SPLINE
  5
36E
100
AcDbEntity
  8
0
100
AcDbSpline
 62
7
  6
CONTINUOUS
 70
0
 71
3
 72
11
 73
7
 74
0
 42
0.0000001
 43
0.0000001
 44
0.0000000001
 40
0.0
 40
0.0
 40
0.0
 40
0.0
 40
0.246150559
 40
0.4958132301
 40
0.7475362236
 40
1.0
 40
1.0
 40
1.0
 40
1.0
 10
10.4236921106
 20
7.7766963349
 30
0.0
 10
10.4236921106
 20
7.7715445375
 30
0.0
 10
10.4240037404
 20
7.761165121
 30
0.0
 10
10.4253695612
 20
7.7455713047
 30
0.0
 10
10.4276236206
 20
7.7299475786
 30
0.0
 10
10.4297055458
 20
7.7195962179
 30
0.0
 10
10.4308897876
 20
7.714446705
 30
0.0
  0
SPLINE
  5
36F
100
AcDbEntity
  8
0
100
AcDbSpline
 62
7
  6
CONTINUOUS
 70
0
 71
3
 72
9
 73
5
 74
0
 42
0.0000001
 43
0.0000001
 44
0.0000000001
 40
0.0
 40
0.0
 40
0.0
 40
0.0
 40
0.4813567177
 40
1.0
 40
1.0
 40
1.0
 40
1.0
 10
10.4308897876
 20
7.714446705
 30
0.0
 10
10.4349285213
 20
7.7118557359
 30
0.0
 10
10.4434107013
 20
7.7066155264
 30
0.0
 10
10.4520413179
 20
7.7016246308
 30
0.0
 10
10.4565483467
 20
7.6990915786
 30
0.0
  0
SPLINE
  5
370
100
AcDbEntity
  8
0
100
AcDbSpline
 62
7
  6
CONTINUOUS
 70
0
 71
3
 72
15
 73
11
 74
0
 42
0.0000001
 43
0.0000001
 44
0.0000000001
 40
0.0
 40
0.0
 40
0.0
 40
0.0
 40
0.128492105
 40
0.2566407193
 40
0.3841464741
 40
0.5106634899
 40
0.6358263783
 40
0.7592859806
 40
0.880747349
 40
1.0
 40
1.0
 40
1.0
 40
1.0
 10
10.5597749703
 20
7.6198925944
 30
0.0
 10
10.5666301784
 20
7.6186794096
 30
0.0
 10
10.5803513721
 20
7.6164179368
 30
0.0
 10
10.6009594388
 20
7.6134923483
 30
0.0
 10
10.6215191337
 20
7.6110210625
 30
0.0
 10
10.6419648513
 20
7.6089952513
 30
0.0
 10
10.6622296909
 20
7.6074117294
 30
0.0
 10
10.6822501166
 20
7.6062727399
 30
0.0
 10
10.7019707297
 20
7.605585589
 30
0.0
 10
10.7150133199
 20
7.6054353509
 30
0.0
 10
10.721474451
 20
7.605442671
 30
0.0
  0
SPLINE
  5
371
100
AcDbEntity
  8
0
100
AcDbSpline
 62
7
  6
CONTINUOUS
 70
0
 71
3
 72
18
 73
14
 74
0
 42
0.0000001
 43
0.0000001
 44
0.0000000001
 40
0.0
 40
0.0
 40
0.0
 40
0.0
 40
0.0625221321
 40
0.1248071663
 40
0.186900037
 40
0.2488555657
 40
0.3107246821
 40
0.3725587303
 40
0.4962984198
 40
0.6205073595
 40
0.7455872011
 40
0.8719442359
 40
1.0
 40
1.0
 40
1.0
 40
1.0
 10
10.4565483467
 20
7.6990915786
 30
0.0
 10
10.4580305591
 20
7.6967657961
 30
0.0
 10
10.4611070856
 20
7.6921969295
 30
0.0
 10
10.4660453879
 20
7.6855912919
 30
0.0
 10
10.4712792474
 20
7.6792496043
 30
0.0
 10
10.4767906454
 20
7.6731726916
 30
0.0
 10
10.4825632805
 20
7.6673594902
 30
0.0
 10
10.4905885032
 20
7.6599570008
 30
0.0
 10
10.5012153656
 20
7.6513393365
 30
0.0
 10
10.514790325
 20
7.642012354
 30
0.0
 10
10.5291163267
 20
7.633656877
 30
0.0
 10
10.544133437
 20
7.6262334845
 30
0.0
 10
10.5544994127
 20
7.6219116246
 30
0.0
 10
10.5597749703
 20
7.6198925944
 30
0.0
  0
SPLINE
  5
372
100
AcDbEntity
  8
0
100
AcDbSpline
 62
7
  6
CONTINUOUS
 70
0
 71
3
 72
21
 73
17
 74
0
 42
0.0000001
 43
0.0000001
 44
0.0000000001
 40
0.0
 40
0.0
 40
0.0
 40
0.0
 40
0.1273176368
 40
0.2537999758
 40
0.3167619477
 40
0.3795355043
 40
0.4421314993
 40
0.504562144
 40
0.5668413432
 40
0.6289845282
 40
0.6910084527
 40
0.7529310934
 40
0.8147714494
 40
0.8765493364
 40
0.9382852193
 40
1.0
 40
1.0
 40
1.0
 40
1.0
 10
10.7257028986
 20
7.646416372
 30
0.0
 10
10.7257028986
 20
7.6399180007
 30
0.0
 10
10.7250825861
 20
7.6269555277
 30
0.0
 10
10.7227398671
 20
7.6109311106
 30
0.0
 10
10.719939797
 20
7.5983613562
 30
0.0
 10
10.7173862836
 20
7.5890899009
 30
0.0
 10
10.7143822468
 20
7.579983184
 30
0.0
 10
10.71093457
 20
7.571061956
 30
0.0
 10
10.7070512276
 20
7.5623468432
 30
0.0
 10
10.7027411206
 20
7.5538579439
 30
0.0
 10
10.6980141633
 20
7.5456148549
 30
0.0
 10
10.6928812846
 20
7.5376365616
 30
0.0
 10
10.6873543071
 20
7.5299414982
 30
0.0
 10
10.6814458797
 20
7.5225473807
 30
0.0
 10
10.6751699057
 20
7.5154714627
 30
0.0
 10
10.6707496961
 20
7.5109763775
 30
0.0
 10
10.6684840723
 20
7.508787953
 30
0.0
  0
SPLINE
  5
373
100
AcDbEntity
  8
0
100
AcDbSpline
 62
7
  6
CONTINUOUS
 70
0
 71
3
 72
40
 73
36
 74
0
 42
0.0000001
 43
0.0000001
 44
0.0000000001
 40
0.0
 40
0.0
 40
0.0
 40
0.0
 40
0.0310751297
 40
0.046674719
 40
0.0623128023
 40
0.0936978569
 40
0.1252268442
 40
0.1568884391
 40
0.1886684324
 40
0.2205502263
 40
0.2525151435
 40
0.2845428352
 40
0.3166116956
 40
0.348699299
 40
0.3807828474
 40
0.4128396233
 40
0.4448474412
 40
0.4767850923
 40
0.5086327748
 40
0.5403725043
 40
0.571988497
 40
0.6034675183
 40
0.6347991897
 40
0.665976246
 40
0.6969947359
 40
0.7278541571
 40
0.7585575208
 40
0.7891113379
 40
0.8195255236
 40
0.8498132176
 40
0.8799905191
 40
0.9100761418
 40
0.9400909923
 40
0.9700576842
 40
1.0
 40
1.0
 40
1.0
 40
1.0
 10
10.7257028986
 20
7.646416372
 30
0.0
 10
10.7257028986
 20
7.6514672289
 30
0.0
 10
10.7254205669
 20
7.6590574082
 30
0.0
 10
10.7244881317
 20
7.6691441202
 30
0.0
 10
10.7231816031
 20
7.679240491
 30
0.0
 10
10.7208525596
 20
7.6918061803
 30
0.0
 10
10.7169677203
 20
7.7066925193
 30
0.0
 10
10.712010755
 20
7.7213250052
 30
0.0
 10
10.706009043
 20
7.7356228389
 30
0.0
 10
10.6989956299
 20
7.7495076877
 30
0.0
 10
10.691009099
 20
7.7629033267
 30
0.0
 10
10.6820933509
 20
7.7757362646
 30
0.0
 10
10.6722973646
 20
7.7879360832
 30
0.0
 10
10.6616749309
 20
7.7994358361
 30
0.0
 10
10.6502843596
 20
7.8101724067
 30
0.0
 10
10.6381881623
 20
7.8200868533
 30
0.0
 10
10.6254527136
 20
7.8291247282
 30
0.0
 10
10.6121478903
 20
7.8372363749
 30
0.0
 10
10.5983466933
 20
7.8443771982
 30
0.0
 10
10.5841248515
 20
7.8505079085
 30
0.0
 10
10.5695604124
 20
7.8555947376
 30
0.0
 10
10.5547333193
 20
7.8596096246
 30
0.0
 10
10.5397249786
 20
7.8625303717
 30
0.0
 10
10.524617819
 20
7.8643407698
 30
0.0
 10
10.5094948455
 20
7.8650306927
 30
0.0
 10
10.4944391877
 20
7.8645961598
 30
0.0
 10
10.4795336481
 20
7.8630393664
 30
0.0
 10
10.4648602486
 20
7.860368682
 30
0.0
 10
10.4504997784
 20
7.8565986134
 30
0.0
 10
10.4365313534
 20
7.8517497437
 30
0.0
 10
10.4230319478
 20
7.8458486029
 30
0.0
 10
10.4100760635
 20
7.8389276292
 30
0.0
 10
10.3977349312
 20
7.8310246335
 30
0.0
 10
10.3860775079
 20
7.8221839492
 30
0.0
 10
10.378801422
 20
7.81569453
 30
0.0
 10
10.375301002
 20
7.8123133841
 30
0.0
  0
SPLINE
  5
374
100
AcDbEntity
  8
0
100
AcDbSpline
 62
7
  6
CONTINUOUS
 70
0
 71
3
 72
18
 73
14
 74
0
 42
0.0000001
 43
0.0000001
 44
0.0000000001
 40
0.0
 40
0.0
 40
0.0
 40
0.0
 40
0.0548620589
 40
0.1099280789
 40
0.165399508
 40
0.2214731255
 40
0.2783387361
 40
0.3361775086
 40
0.4554063416
 40
0.5804417492
 40
0.7123343341
 40
0.8519577333
 40
1.0
 40
1.0
 40
1.0
 40
1.0
 10
11.3551481614
 20
10.668690749
 30
0.0
 10
11.3551481613
 20
10.6677628817
 30
0.0
 10
11.3550892591
 20
10.6659031647
 30
0.0
 10
11.3548244565
 20
10.6631166149
 30
0.0
 10
11.3543832695
 20
10.6603316708
 30
0.0
 10
11.3537658437
 20
10.6575493497
 30
0.0
 10
11.3529724184
 20
10.6547703539
 30
0.0
 10
11.3516674113
 20
10.6510333496
 30
0.0
 10
11.3495768121
 20
10.6463593577
 30
0.0
 10
11.3463947897
 20
10.6408393554
 30
0.0
 10
11.3425192589
 20
10.6353550827
 30
0.0
 10
11.3379561161
 20
10.6299120438
 30
0.0
 10
11.3345623359
 20
10.6264196728
 30
0.0
 10
11.3327614669
 20
10.6246801667
 30
0.0
  0
SPLINE
  5
375
100
AcDbEntity
  8
0
100
AcDbSpline
 62
7
  6
CONTINUOUS
 70
0
 71
3
 72
14
 73
10
 74
0
 42
0.0000001
 43
0.0000001
 44
0.0000000001
 40
0.0
 40
0.0
 40
0.0
 40
0.0
 40
0.1161952295
 40
0.2348112449
 40
0.4797365357
 40
0.6061806076
 40
0.7351636011
 40
0.8665210784
 40
1.0
 40
1.0
 40
1.0
 40
1.0
 10
10.4364938061
 20
7.8515187865
 30
0.0
 10
10.435437344
 20
7.8487580689
 30
0.0
 10
10.4334490379
 20
7.8431217261
 30
0.0
 10
10.4299745529
 20
7.8314184839
 30
0.0
 10
10.4273156404
 20
7.8192174984
 30
0.0
 10
10.4254494331
 20
7.8066234997
 30
0.0
 10
10.4244349645
 20
7.7968329026
 30
0.0
 10
10.4238255667
 20
7.7868301658
 30
0.0
 10
10.4236921106
 20
7.7800919801
 30
0.0
 10
10.4236921106
 20
7.7766963349
 30
0.0
  0
SPLINE
  5
376
100
AcDbEntity
  8
0
100
AcDbSpline
 62
7
  6
CONTINUOUS
 70
0
 71
3
 72
41
 73
37
 74
0
 42
0.0000001
 43
0.0000001
 44
0.0000000001
 40
0.0
 40
0.0
 40
0.0
 40
0.0
 40
0.0299421722
 40
0.0599087187
 40
0.0899234222
 40
0.1200088965
 40
0.1501860486
 40
0.1804735921
 40
0.2108876267
 40
0.2414412921
 40
0.2721445039
 40
0.3030037728
 40
0.3340221097
 40
0.3651990124
 40
0.3965305293
 40
0.4280093954
 40
0.4596252325
 40
0.4913648061
 40
0.523212333
 40
0.5551498293
 40
0.5871574933
 40
0.6192141165
 40
0.6512975132
 40
0.6833849656
 40
0.7154536753
 40
0.7314763803
 40
0.7474860474
 40
0.7794508144
 40
0.8113324582
 40
0.8431123019
 40
0.8747737477
 40
0.9063025846
 40
0.9376874998
 40
0.9533255315
 40
0.9689249968
 40
1.0
 40
1.0
 40
1.0
 40
1.0
 10
11.202626947
 20
10.2121169238
 30
0.0
 10
11.2061273649
 20
10.2154980862
 30
0.0
 10
11.2134034202
 20
10.2219875683
 30
0.0
 10
11.2250608267
 20
10.2308283247
 30
0.0
 10
11.2374019421
 20
10.2387313994
 30
0.0
 10
11.2503578173
 20
10.2456524502
 30
0.0
 10
11.26385722
 20
10.2515536676
 30
0.0
 10
11.2778256489
 20
10.2564026116
 30
0.0
 10
11.2921861295
 20
10.2601727509
 30
0.0
 10
11.3068595458
 20
10.2628435011
 30
0.0
 10
11.3217651081
 20
10.2644003536
 30
0.0
 10
11.3368207933
 20
10.2648349377
 30
0.0
 10
11.351943798
 20
10.2641450594
 30
0.0
 10
11.3670509917
 20
10.2623347004
 30
0.0
 10
11.3820593691
 20
10.2594139876
 30
0.0
 10
11.396886501
 20
10.2553991309
 30
0.0
 10
11.411450981
 20
10.2503123285
 30
0.0
 10
11.4256728657
 20
10.2441816418
 30
0.0
 10
11.4394741079
 20
10.2370408385
 30
0.0
 10
11.4527789767
 20
10.2289292092
 30
0.0
 10
11.4655144756
 20
10.2198913405
 30
0.0
 10
11.4776107069
 20
10.209976916
 30
0.0
 10
11.4890013671
 20
10.1992402785
 30
0.0
 10
11.4996236714
 20
10.1877407573
 30
0.0
 10
11.5077901757
 20
10.1775702129
 30
0.0
 10
11.513883151
 20
10.1691164483
 30
0.0
 10
11.5196695583
 20
10.1604702957
 30
0.0
 10
11.5263222995
 20
10.1493119296
 30
0.0
 10
11.5333355749
 20
10.1354272967
 30
0.0
 10
11.5393373541
 20
10.1211293727
 30
0.0
 10
11.5442943272
 20
10.106496876
 30
0.0
 10
11.5481791876
 20
10.0916105018
 30
0.0
 10
11.5505082389
 20
10.0790447827
 30
0.0
 10
11.5518147761
 20
10.0689483941
 30
0.0
 10
11.5527472146
 20
10.0588616621
 30
0.0
 10
11.5530295473
 20
10.0512714715
 30
0.0
 10
11.5530295473
 20
10.0462206006
 30
0.0
  0
SPLINE
  5
377
100
AcDbEntity
  8
0
100
AcDbSpline
 62
7
  6
CONTINUOUS
 70
0
 71
3
 72
41
 73
37
 74
0
 42
0.0000001
 43
0.0000001
 44
0.0000000001
 40
0.0
 40
0.0
 40
0.0
 40
0.0
 40
0.0299421722
 40
0.0599087187
 40
0.0899234222
 40
0.1200088965
 40
0.1501860486
 40
0.1804735921
 40
0.2108876267
 40
0.2414412921
 40
0.2721445039
 40
0.3030037728
 40
0.3340221097
 40
0.3651990124
 40
0.3965305293
 40
0.4280093954
 40
0.4596252325
 40
0.4913648061
 40
0.523212333
 40
0.5551498293
 40
0.5871574933
 40
0.6192141165
 40
0.6512975132
 40
0.6833849656
 40
0.7154536753
 40
0.7314763803
 40
0.7474860474
 40
0.7794508144
 40
0.8113324582
 40
0.8431123019
 40
0.8747737477
 40
0.9063025846
 40
0.9376874998
 40
0.9533255315
 40
0.9689249968
 40
1.0
 40
1.0
 40
1.0
 40
1.0
 10
10.115960328
 20
7.1482183883
 30
0.0
 10
10.1194607459
 20
7.1515995507
 30
0.0
 10
10.1267368012
 20
7.1580890328
 30
0.0
 10
10.1383942077
 20
7.1669297892
 30
0.0
 10
10.1507353231
 20
7.174832864
 30
0.0
 10
10.1636911984
 20
7.1817539148
 30
0.0
 10
10.177190601
 20
7.1876551322
 30
0.0
 10
10.1911590299
 20
7.1925040761
 30
0.0
 10
10.2055195106
 20
7.1962742154
 30
0.0
 10
10.2201929268
 20
7.1989449656
 30
0.0
 10
10.2350984891
 20
7.2005018181
 30
0.0
 10
10.2501541743
 20
7.2009364022
 30
0.0
 10
10.2652771791
 20
7.200246524
 30
0.0
 10
10.2803843728
 20
7.1984361649
 30
0.0
 10
10.2953927501
 20
7.1955154521
 30
0.0
 10
10.310219882
 20
7.1915005954
 30
0.0
 10
10.324784362
 20
7.186413793
 30
0.0
 10
10.3390062467
 20
7.1802831063
 30
0.0
 10
10.352807489
 20
7.173142303
 30
0.0
 10
10.3661123578
 20
7.1650306737
 30
0.0
 10
10.3788478567
 20
7.1559928051
 30
0.0
 10
10.390944088
 20
7.1460783805
 30
0.0
 10
10.4023347481
 20
7.135341743
 30
0.0
 10
10.4129570524
 20
7.1238422218
 30
0.0
 10
10.4211235568
 20
7.1136716774
 30
0.0
 10
10.4272165321
 20
7.1052179128
 30
0.0
 10
10.4330029394
 20
7.0965717603
 30
0.0
 10
10.4396556805
 20
7.0854133941
 30
0.0
 10
10.4466689559
 20
7.0715287613
 30
0.0
 10
10.4526707351
 20
7.0572308372
 30
0.0
 10
10.4576277083
 20
7.0425983405
 30
0.0
 10
10.4615125686
 20
7.0277119664
 30
0.0
 10
10.4638416199
 20
7.0151462472
 30
0.0
 10
10.4651481571
 20
7.0050498587
 30
0.0
 10
10.4660805956
 20
6.9949631266
 30
0.0
 10
10.4663629283
 20
6.987372936
 30
0.0
 10
10.4663629283
 20
6.9823220651
 30
0.0
  0
SPLINE
  5
378
100
AcDbEntity
  8
0
100
AcDbSpline
 62
7
  6
CONTINUOUS
 70
0
 71
3
 72
83
 73
79
 74
0
 42
0.0000001
 43
0.0000001
 44
0.0000000001
 40
0.0
 40
0.0
 40
0.0
 40
0.0
 40
0.0027164276
 40
0.0054532334
 40
0.0082303009
 40
0.0110665998
 40
0.0139798088
 40
0.0169861218
 40
0.0201000928
 40
0.0233346095
 40
0.026700976
 40
0.0302089312
 40
0.0338668524
 40
0.0376818289
 40
0.0416598023
 40
0.0458057443
 40
0.0501236753
 40
0.0546168743
 40
0.0592878974
 40
0.0641386698
 40
0.0691706105
 40
0.0743845883
 40
0.0797810847
 40
0.0853601631
 40
0.0970640219
 40
0.1094907699
 40
0.1226300177
 40
0.1364676887
 40
0.150986507
 40
0.1661664045
 40
0.1819848426
 40
0.1984170703
 40
0.2154363375
 40
0.2330140708
 40
0.2511200494
 40
0.2697225561
 40
0.2887885105
 40
0.3082835895
 40
0.3281723378
 40
0.3484182894
 40
0.3689840785
 40
0.3898315425
 40
0.4109218226
 40
0.453671794
 40
0.496913762
 40
0.5403220095
 40
0.5835692233
 40
0.6263296343
 40
0.6474270493
 40
0.6682829087
 40
0.6888583326
 40
0.7091151299
 40
0.7290159025
 40
0.7485241591
 40
0.7676044182
 40
0.7862223163
 40
0.8043447241
 40
0.821939872
 40
0.8389774975
 40
0.8554289822
 40
0.8712675108
 40
0.8864682552
 40
0.9010085951
 40
0.9148683895
 40
0.9280302787
 40
0.9404800721
 40
0.9464347343
 40
0.9522077813
 40
0.9577985496
 40
0.9632067643
 40
0.968432455
 40
0.973476048
 40
0.978338406
 40
0.9830208506
 40
0.98752539
 40
0.9918546103
 40
0.9960115929
 40
1.0
 40
1.0
 40
1.0
 40
1.0
 10
12.716701764
 20
8.5267456138
 30
0.0
 10
12.7157835074
 20
8.5268093
 30
0.0
 10
12.7139448093
 20
8.5270202794
 30
0.0
 10
12.7112101764
 20
8.5275848217
 30
0.0
 10
12.7084962006
 20
8.5283973138
 30
0.0
 10
12.7058048422
 20
8.529457044
 30
0.0
 10
12.703137461
 20
8.5307629889
 30
0.0
 10
12.7004954457
 20
8.5323141803
 30
0.0
 10
12.6978800155
 20
8.5341095033
 30
0.0
 10
12.6952923015
 20
8.5361477875
 30
0.0
 10
12.6927334771
 20
8.5384279031
 30
0.0
 10
12.6902045852
 20
8.5409485413
 30
0.0
 10
12.6877067726
 20
8.5437084298
 30
0.0
 10
12.6852411382
 20
8.5467061559
 30
0.0
 10
12.6828087706
 20
8.54994021
 30
0.0
 10
12.6804108486
 20
8.5534090281
 30
0.0
 10
12.678048437
 20
8.5571108659
 30
0.0
 10
12.6757227049
 20
8.5610439262
 30
0.0
 10
12.6734347638
 20
8.5652062635
 30
0.0
 10
12.6711857033
 20
8.569595815
 30
0.0
 10
12.6689766767
 20
8.5742104286
 30
0.0
 10
12.6668087265
 20
8.5790477944
 30
0.0
 10
12.6646829414
 20
8.5841055313
 30
0.0
 10
12.6618610882
 20
8.5912541855
 30
0.0
 10
12.6584577481
 20
8.6007315644
 30
0.0
 10
12.6546207977
 20
8.6127659171
 30
0.0
 10
12.6509760479
 20
8.6256129505
 30
0.0
 10
12.6475308684
 20
8.6392470093
 30
0.0
 10
12.6442922396
 20
8.6536410195
 30
0.0
 10
12.6412667399
 20
8.6687662365
 30
0.0
 10
12.6384605233
 20
8.6845924203
 30
0.0
 10
12.6358793026
 20
8.7010878797
 30
0.0
 10
12.6335283366
 20
8.7182195476
 30
0.0
 10
12.6314124064
 20
8.7359530488
 30
0.0
 10
12.6295358171
 20
8.7542527783
 30
0.0
 10
12.6279023889
 20
8.7730819816
 30
0.0
 10
12.6265154498
 20
8.7924028306
 30
0.0
 10
12.6253778295
 20
8.8121764981
 30
0.0
 10
12.6244918438
 20
8.8323632351
 30
0.0
 10
12.6238592981
 20
8.8529224583
 30
0.0
 10
12.6234814939
 20
8.873812822
 30
0.0
 10
12.6233591898
 20
8.8949923551
 30
0.0
 10
12.6235380585
 20
8.923688825
 30
0.0
 10
12.6244058842
 20
8.9599668411
 30
0.0
 10
12.6264510853
 20
9.0037700136
 30
0.0
 10
12.629488673
 20
9.0476846011
 30
0.0
 10
12.6334941996
 20
9.0913575055
 30
0.0
 10
12.6376299457
 20
9.1274172372
 30
0.0
 10
12.6414042883
 20
9.1558738501
 30
0.0
 10
12.644442029
 20
9.1768433748
 30
0.0
 10
12.6476931103
 20
9.1974925743
 30
0.0
 10
12.651151004
 20
9.2177799579
 30
0.0
 10
12.6548087309
 20
9.2376647281
 30
0.0
 10
12.6586589081
 20
9.2571069157
 30
0.0
 10
12.6626937617
 20
9.2760674468
 30
0.0
 10
12.6669051456
 20
9.2945082223
 30
0.0
 10
12.6712845561
 20
9.3123921943
 30
0.0
 10
12.675823151
 20
9.329683447
 30
0.0
 10
12.6805117561
 20
9.3463472761
 30
0.0
 10
12.6853408946
 20
9.3623502605
 30
0.0
 10
12.6903008066
 20
9.3776603271
 30
0.0
 10
12.6953814706
 20
9.392246827
 30
0.0
 10
12.7005726279
 20
9.4060805875
 30
0.0
 10
12.7058638012
 20
9.4191340672
 30
0.0
 10
12.7112443191
 20
9.4313811509
 30
0.0
 10
12.7158594523
 20
9.4410331009
 30
0.0
 10
12.7195951606
 20
9.4483248311
 30
0.0
 10
12.7223708896
 20
9.4534956855
 30
0.0
 10
12.7251608559
 20
9.4584474232
 30
0.0
 10
12.7279636469
 20
9.4631776025
 30
0.0
 10
12.7307778904
 20
9.4676838563
 30
0.0
 10
12.7336021845
 20
9.471963937
 30
0.0
 10
12.7364350866
 20
9.4760157318
 30
0.0
 10
12.7392752638
 20
9.4798372214
 30
0.0
 10
12.742121316
 20
9.4834265732
 30
0.0
 10
12.7449719345
 20
9.4867820184
 30
0.0
 10
12.7478255665
 20
9.4899017353
 30
0.0
 10
12.7497686107
 20
9.4918633137
 30
0.0
 10
12.7507406639
 20
9.492802245
 30
0.0
  0
SPLINE
  5
379
100
AcDbEntity
  8
0
100
AcDbSpline
 62
7
  6
CONTINUOUS
 70
0
 71
3
 72
67
 73
63
 74
0
 42
0.0000001
 43
0.0000001
 44
0.0000000001
 40
0.0
 40
0.0
 40
0.0
 40
0.0
 40
0.0027657502
 40
0.0055963746
 40
0.0085081091
 40
0.0115157321
 40
0.0178668425
 40
0.0212353789
 40
0.0247437375
 40
0.0283995071
 40
0.0322091074
 40
0.0361778978
 40
0.0403103894
 40
0.0446102452
 40
0.0490803861
 40
0.0585393759
 40
0.0687005504
 40
0.0795687316
 40
0.0911428966
 40
0.1034171485
 40
0.1163816018
 40
0.1300229552
 40
0.1443248632
 40
0.1592683947
 40
0.1748323293
 40
0.1909933065
 40
0.2077260956
 40
0.2250037969
 40
0.2427979146
 40
0.2610785276
 40
0.2798144573
 40
0.2989733235
 40
0.3384242222
 40
0.3791535386
 40
0.4208702703
 40
0.4632740964
 40
0.506058303
 40
0.5489126506
 40
0.5915262583
 40
0.6335904626
 40
0.6748017077
 40
0.7148644131
 40
0.7343760573
 40
0.7534948834
 40
0.7721875613
 40
0.7904218244
 40
0.8081665693
 40
0.8253920451
 40
0.8420699238
 40
0.8581734079
 40
0.8736774682
 40
0.8885589823
 40
0.9027968842
 40
0.9163724899
 40
0.929269793
 40
0.9414757495
 40
0.9529808147
 40
0.9637796303
 40
0.973871612
 40
0.9832621141
 40
0.9919644901
 40
1.0
 40
1.0
 40
1.0
 40
1.0
 10
12.694256119
 20
8.7122085392
 30
0.0
 10
12.693695164
 20
8.7123732811
 30
0.0
 10
12.6925737858
 20
8.7127551375
 30
0.0
 10
12.6909221559
 20
8.7134714212
 30
0.0
 10
12.6892851577
 20
8.7143363183
 30
0.0
 10
12.6870837387
 20
8.7157115076
 30
0.0
 10
12.684953786
 20
8.7173689905
 30
0.0
 10
12.6829004241
 20
8.71926823
 30
0.0
 10
12.6813481778
 20
8.7208659428
 30
0.0
 10
12.679815032
 20
8.7226078777
 30
0.0
 10
12.678301475
 20
8.7244933379
 30
0.0
 10
12.6768081869
 20
8.7265213546
 30
0.0
 10
12.6753358658
 20
8.7286910028
 30
0.0
 10
12.6738851497
 20
8.7310012468
 30
0.0
 10
12.6719438934
 20
8.7343305944
 30
0.0
 10
12.6695839004
 20
8.7388465517
 30
0.0
 10
12.6668999878
 20
8.7447086143
 30
0.0
 10
12.6643180304
 20
8.7511009591
 30
0.0
 10
12.6618429376
 20
8.7580114536
 30
0.0
 10
12.6594794009
 20
8.7654271421
 30
0.0
 10
12.6572319957
 20
8.7733339387
 30
0.0
 10
12.6551051076
 20
8.7817167721
 30
0.0
 10
12.6531028633
 20
8.7905595807
 30
0.0
 10
12.6512291745
 20
8.7998453841
 30
0.0
 10
12.6494877262
 20
8.8095563203
 30
0.0
 10
12.647881912
 20
8.8196736743
 30
0.0
 10
12.6464148688
 20
8.8301779286
 30
0.0
 10
12.6450894862
 20
8.8410488088
 30
0.0
 10
12.6439083508
 20
8.8522653175
 30
0.0
 10
12.6428737702
 20
8.8638057722
 30
0.0
 10
12.6419877592
 20
8.8756478865
 30
0.0
 10
12.6409972792
 20
8.8919682325
 30
0.0
 10
12.6401522413
 20
8.9129528947
 30
0.0
 10
12.6397592165
 20
8.9387198506
 30
0.0
 10
12.6399811586
 20
8.9651130281
 30
0.0
 10
12.6408165291
 20
8.9919283648
 30
0.0
 10
12.642259053
 20
9.0189586743
 30
0.0
 10
12.6442976112
 20
9.045995037
 30
0.0
 10
12.6469164427
 20
9.0728284838
 30
0.0
 10
12.6500951996
 20
9.0992516878
 30
0.0
 10
12.65380914
 20
9.1250603609
 30
0.0
 10
12.6573563247
 20
9.1460703449
 30
0.0
 10
12.6604476689
 20
9.1624157757
 30
0.0
 10
12.6628604834
 20
9.1742909417
 30
0.0
 10
12.6653832075
 20
9.1858670417
 30
0.0
 10
12.6680109653
 20
9.1971217122
 30
0.0
 10
12.6707386616
 20
9.2080331926
 30
0.0
 10
12.6735609833
 20
9.2185804077
 30
0.0
 10
12.6764724388
 20
9.2287429923
 30
0.0
 10
12.6794673859
 20
9.2385013288
 30
0.0
 10
12.6825399933
 20
9.2478366052
 30
0.0
 10
12.6856842775
 20
9.256730848
 30
0.0
 10
12.6888941463
 20
9.2651669472
 30
0.0
 10
12.6921633679
 20
9.273128717
 30
0.0
 10
12.6954855931
 20
9.2806009339
 30
0.0
 10
12.6988544211
 20
9.2875693538
 30
0.0
 10
12.7022633881
 20
9.2940207732
 30
0.0
 10
12.7057060108
 20
9.2999430799
 30
0.0
 10
12.7091758036
 20
9.3053252037
 30
0.0
 10
12.7126666091
 20
9.3101574591
 30
0.0
 10
12.7161719207
 20
9.3144305587
 30
0.0
 10
12.7186093034
 20
9.3170012963
 30
0.0
 10
12.7198310349
 20
9.3181813984
 30
0.0
  0
SPLINE
  5
37A
100
AcDbEntity
  8
0
100
AcDbSpline
 62
7
  6
CONTINUOUS
 70
0
 71
3
 72
15
 73
11
 74
0
 42
0.0000001
 43
0.0000001
 44
0.0000000001
 40
0.0
 40
0.0
 40
0.0
 40
0.0
 40
0.1080212978
 40
0.2193206742
 40
0.3348173733
 40
0.4553247877
 40
0.5815483083
 40
0.7140898332
 40
0.8534435254
 40
1.0
 40
1.0
 40
1.0
 40
1.0
 10
12.7369470162
 20
9.3277985906
 30
0.0
 10
12.7362366607
 20
9.3276932776
 30
0.0
 10
12.7348046519
 20
9.3274037787
 30
0.0
 10
12.7326737534
 20
9.326749746
 30
0.0
 10
12.7305350284
 20
9.3258718366
 30
0.0
 10
12.7283902954
 20
9.3247711502
 30
0.0
 10
12.7262407615
 20
9.3234488881
 30
0.0
 10
12.7240877456
 20
9.321906201
 30
0.0
 10
12.7219327142
 20
9.3201445108
 30
0.0
 10
12.7205318041
 20
9.3188582896
 30
0.0
 10
12.7198310349
 20
9.3181813984
 30
0.0
  0
SPLINE
  5
37B
100
AcDbEntity
  8
0
100
AcDbSpline
 62
7
  6
CONTINUOUS
 70
0
 71
3
 72
18
 73
14
 74
0
 42
0.0000001
 43
0.0000001
 44
0.0000000001
 40
0.0
 40
0.0
 40
0.0
 40
0.0
 40
0.1504683897
 40
0.2917144302
 40
0.4244424337
 40
0.4879098403
 40
0.5496094316
 40
0.6682625858
 40
0.7817882724
 40
0.8371379912
 40
0.8918078094
 40
0.9460192717
 40
1.0
 40
1.0
 40
1.0
 40
1.0
 10
12.7507406639
 20
8.5423311757
 30
0.0
 10
12.7493497251
 20
8.5409876319
 30
0.0
 10
12.746569742
 20
8.5384667559
 30
0.0
 10
12.7422652284
 20
8.5351073894
 30
0.0
 10
12.73862934
 20
8.5327314668
 30
0.0
 10
12.7357300346
 20
8.5311225694
 30
0.0
 10
12.7329160258
 20
8.5297412769
 30
0.0
 10
12.7293976222
 20
8.5283455326
 30
0.0
 10
12.7258166327
 20
8.5273930736
 30
0.0
 10
12.7229803834
 20
8.5269238791
 30
0.0
 10
12.7208783292
 20
8.5267156536
 30
0.0
 10
12.7187847797
 20
8.5266484063
 30
0.0
 10
12.7173938767
 20
8.526697612
 30
0.0
 10
12.716701764
 20
8.5267456138
 30
0.0
  0
SPLINE
  5
37C
100
AcDbEntity
  8
0
100
AcDbSpline
 62
7
  6
CONTINUOUS
 70
0
 71
3
 72
11
 73
7
 74
0
 42
0.0000001
 43
0.0000001
 44
0.0000000001
 40
0.0
 40
0.0
 40
0.0
 40
0.0
 40
0.2581360821
 40
0.5111992079
 40
0.7586649418
 40
1.0
 40
1.0
 40
1.0
 40
1.0
 10
10.5732902166
 20
7.8541528287
 30
0.0
 10
10.5681485567
 20
7.8536361997
 30
0.0
 10
10.5579733467
 20
7.8525411319
 30
0.0
 10
10.5428981799
 20
7.8506928276
 30
0.0
 10
10.5281864605
 20
7.848658242
 30
0.0
 10
10.5185159715
 20
7.8471610995
 30
0.0
 10
10.5137482002
 20
7.8463807173
 30
0.0
  0
SPLINE
  5
37D
100
AcDbEntity
  8
0
100
AcDbSpline
 62
7
  6
CONTINUOUS
 70
0
 71
3
 72
27
 73
23
 74
0
 42
0.0000001
 43
0.0000001
 44
0.0000000001
 40
0.0
 40
0.0
 40
0.0
 40
0.0
 40
0.1276883629
 40
0.2546518228
 40
0.3178381984
 40
0.3808166162
 40
0.4435794568
 40
0.5061212416
 40
0.5684391495
 40
0.5995145443
 40
0.6305350622
 40
0.6615021085
 40
0.692417526
 40
0.7232840954
 40
0.7541054929
 40
0.784886529
 40
0.8156335128
 40
0.8463543343
 40
0.8770590724
 40
0.9077599846
 40
0.9384722395
 40
1.0
 40
1.0
 40
1.0
 40
1.0
 10
10.5137482002
 20
7.8463807173
 30
0.0
 10
10.5217248837
 20
7.8416318225
 30
0.0
 10
10.5376128448
 20
7.8321271752
 30
0.0
 10
10.5574072833
 20
7.8202046545
 30
0.0
 10
10.5731646381
 20
7.8106978026
 30
0.0
 10
10.5849274332
 20
7.8036054091
 30
0.0
 10
10.5966582682
 20
7.7965507727
 30
0.0
 10
10.6083649486
 20
7.7895492076
 30
0.0
 10
10.6181173607
 20
7.7837684553
 30
0.0
 10
10.6259194733
 20
7.7791920618
 30
0.0
 10
10.6317680843
 20
7.7757903254
 30
0.0
 10
10.6376219335
 20
7.7724208505
 30
0.0
 10
10.6434837987
 20
7.7690879042
 30
0.0
 10
10.6493576678
 20
7.7657977407
 30
0.0
 10
10.6552475994
 20
7.7625565918
 30
0.0
 10
10.6611586958
 20
7.7593724327
 30
0.0
 10
10.6670966315
 20
7.7562542229
 30
0.0
 10
10.6730680839
 20
7.7532127494
 30
0.0
 10
10.6790804294
 20
7.7502604239
 30
0.0
 10
10.6851423793
 20
7.7474122685
 30
0.0
 10
10.6933071288
 20
7.7437748074
 30
0.0
 10
10.6995291254
 20
7.7412613624
 30
0.0
 10
10.7037269156
 20
7.7397159205
 30
0.0
  0
SPLINE
  5
37E
100
AcDbEntity
  8
0
100
AcDbSpline
 62
7
  6
CONTINUOUS
 70
0
 71
3
 72
17
 73
13
 74
0
 42
0.0000001
 43
0.0000001
 44
0.0000000001
 40
0.0
 40
0.0
 40
0.0
 40
0.0
 40
0.0515756176
 40
0.1065147451
 40
0.1646090211
 40
0.2255568911
 40
0.3543032104
 40
0.4887079885
 40
0.6241848804
 40
0.7565781068
 40
0.882643662
 40
1.0
 40
1.0
 40
1.0
 40
1.0
 10
10.7217352053
 20
7.6069130124
 30
0.0
 10
10.7210684112
 20
7.6071643504
 30
0.0
 10
10.7196752528
 20
7.6076415195
 30
0.0
 10
10.7174851713
 20
7.6082585163
 30
0.0
 10
10.7151393308
 20
7.608788221
 30
0.0
 10
10.7117651086
 20
7.6093743352
 30
0.0
 10
10.707302329
 20
7.6098186223
 30
0.0
 10
10.7017891757
 20
7.609889342
 30
0.0
 10
10.6962378585
 20
7.6095261933
 30
0.0
 10
10.6908410916
 20
7.6087888571
 30
0.0
 10
10.6857490439
 20
7.6077568577
 30
0.0
 10
10.6824966818
 20
7.6068913114
 30
0.0
 10
10.6809434492
 20
7.6064259616
 30
0.0
  0
SPLINE
  5
37F
100
AcDbEntity
  8
0
100
AcDbSpline
 62
7
  6
CONTINUOUS
 70
0
 71
3
 72
21
 73
17
 74
0
 42
0.0000001
 43
0.0000001
 44
0.0000000001
 40
0.0
 40
0.0
 40
0.0
 40
0.0
 40
0.1273175725
 40
0.2538000026
 40
0.3167619332
 40
0.3795354925
 40
0.4421314982
 40
0.5045621433
 40
0.5668413429
 40
0.6289845306
 40
0.6910084612
 40
0.7529311022
 40
0.8147714553
 40
0.8765493457
 40
0.9382852283
 40
1.0
 40
1.0
 40
1.0
 40
1.0
 10
11.1454088244
 20
10.0744891937
 30
0.0
 10
11.1454088244
 20
10.0809875201
 30
0.0
 10
11.1460291319
 20
10.0939499105
 30
0.0
 10
11.148371811
 20
10.1099742273
 30
0.0
 10
11.1511718506
 20
10.1225439067
 30
0.0
 10
11.153725338
 20
10.1318153033
 30
0.0
 10
11.1567293239
 20
10.1409219726
 30
0.0
 10
11.1601769593
 20
10.1498431517
 30
0.0
 10
11.1640602637
 20
10.1585582142
 30
0.0
 10
11.1683703061
 20
10.167047078
 30
0.0
 10
11.1730971999
 20
10.1752901339
 30
0.0
 10
11.1782300287
 20
10.1832683871
 30
0.0
 10
11.1837569365
 20
10.1909634248
 30
0.0
 10
11.1896652768
 20
10.1983575346
 30
0.0
 10
11.1959411939
 20
10.2054334212
 30
0.0
 10
11.200361344
 20
10.2099285075
 30
0.0
 10
11.202626947
 20
10.2121169238
 30
0.0
  0
SPLINE
  5
380
100
AcDbEntity
  8
0
100
AcDbSpline
 62
7
  6
CONTINUOUS
 70
0
 71
3
 72
21
 73
17
 74
0
 42
0.0000001
 43
0.0000001
 44
0.0000000001
 40
0.0
 40
0.0
 40
0.0
 40
0.0
 40
0.1273175725
 40
0.2538000026
 40
0.3167619332
 40
0.3795354925
 40
0.4421314982
 40
0.5045621433
 40
0.5668413429
 40
0.6289845306
 40
0.6910084612
 40
0.7529311022
 40
0.8147714553
 40
0.8765493457
 40
0.9382852283
 40
1.0
 40
1.0
 40
1.0
 40
1.0
 10
10.0587422055
 20
7.0105906583
 30
0.0
 10
10.0587422055
 20
7.0170889846
 30
0.0
 10
10.0593625129
 20
7.030051375
 30
0.0
 10
10.061705192
 20
7.0460756919
 30
0.0
 10
10.0645052317
 20
7.0586453712
 30
0.0
 10
10.0670587191
 20
7.0679167678
 30
0.0
 10
10.070062705
 20
7.0770234371
 30
0.0
 10
10.0735103403
 20
7.0859446162
 30
0.0
 10
10.0773936448
 20
7.0946596788
 30
0.0
 10
10.0817036871
 20
7.1031485425
 30
0.0
 10
10.0864305809
 20
7.1113915984
 30
0.0
 10
10.0915634097
 20
7.1193698516
 30
0.0
 10
10.0970903175
 20
7.1270648894
 30
0.0
 10
10.1029986578
 20
7.1344589992
 30
0.0
 10
10.1092745749
 20
7.1415348858
 30
0.0
 10
10.1136947251
 20
7.146029972
 30
0.0
 10
10.115960328
 20
7.1482183883
 30
0.0
  0
SPLINE
  5
381
100
AcDbEntity
  8
0
100
AcDbSpline
 62
7
  6
CONTINUOUS
 70
0
 71
3
 72
18
 73
14
 74
0
 42
0.0000001
 43
0.0000001
 44
0.0000000001
 40
0.0
 40
0.0
 40
0.0
 40
0.0
 40
0.0548620589
 40
0.1099280789
 40
0.165399508
 40
0.2214731255
 40
0.2783387361
 40
0.3361775086
 40
0.4554063416
 40
0.5804417492
 40
0.7123343341
 40
0.8519577333
 40
1.0
 40
1.0
 40
1.0
 40
1.0
 10
10.0411481614
 20
10.6686907489
 30
0.0
 10
10.0411481615
 20
10.6696186162
 30
0.0
 10
10.0412070637
 20
10.6714783332
 30
0.0
 10
10.0414718663
 20
10.674264883
 30
0.0
 10
10.0419130533
 20
10.6770498271
 30
0.0
 10
10.0425304791
 20
10.6798321482
 30
0.0
 10
10.0433239044
 20
10.682611144
 30
0.0
 10
10.0446289115
 20
10.6863481483
 30
0.0
 10
10.0467195107
 20
10.6910221402
 30
0.0
 10
10.0499015331
 20
10.6965421425
 30
0.0
 10
10.0537770639
 20
10.7020264152
 30
0.0
 10
10.0583402067
 20
10.7074694541
 30
0.0
 10
10.0617339869
 20
10.7109618251
 30
0.0
 10
10.0635348559
 20
10.7127013312
 30
0.0
  0
SPLINE
  5
382
100
AcDbEntity
  8
0
100
AcDbSpline
 62
7
  6
CONTINUOUS
 70
0
 71
3
 72
9
 73
5
 74
0
 42
0.0000001
 43
0.0000001
 44
0.0000000001
 40
0.0
 40
0.0
 40
0.0
 40
0.0
 40
0.4862217708
 40
1.0
 40
1.0
 40
1.0
 40
1.0
 10
10.054273172
 20
10.6348951546
 30
0.0
 10
10.0556511668
 20
10.6366525813
 30
0.0
 10
10.0586281809
 20
10.6401564017
 30
0.0
 10
10.0618375434
 20
10.6434470412
 30
0.0
 10
10.0635348559
 20
10.6450865193
 30
0.0
  0
SPLINE
  5
383
100
AcDbEntity
  8
0
100
AcDbSpline
 62
7
  6
CONTINUOUS
 70
0
 71
3
 72
40
 73
36
 74
0
 42
0.0000001
 43
0.0000001
 44
0.0000000001
 40
0.0
 40
0.0
 40
0.0
 40
0.0
 40
0.0299423158
 40
0.0599090077
 40
0.0899238582
 40
0.1200094809
 40
0.1501867824
 40
0.1804744764
 40
0.2108886621
 40
0.2414424792
 40
0.2721458429
 40
0.3030052641
 40
0.334023754
 40
0.3652008103
 40
0.3965324817
 40
0.428011503
 40
0.4596274957
 40
0.4913672252
 40
0.5232149077
 40
0.5551525588
 40
0.5871603767
 40
0.6192171526
 40
0.651300701
 40
0.6833883044
 40
0.7154571648
 40
0.7474848565
 40
0.7794497737
 40
0.8113315676
 40
0.8431115609
 40
0.8747731558
 40
0.9063021431
 40
0.9376871977
 40
0.953325281
 40
0.9689248703
 40
1.0
 40
1.0
 40
1.0
 40
1.0
 10
10.6684840723
 20
7.508787953
 30
0.0
 10
10.6649836523
 20
7.5054068071
 30
0.0
 10
10.6577075664
 20
7.498917388
 30
0.0
 10
10.646050143
 20
7.4900767037
 30
0.0
 10
10.6337090107
 20
7.4821737079
 30
0.0
 10
10.6207531265
 20
7.4752527343
 30
0.0
 10
10.6072537209
 20
7.4693515934
 30
0.0
 10
10.5932852959
 20
7.4645027237
 30
0.0
 10
10.5789248256
 20
7.4607326552
 30
0.0
 10
10.5642514262
 20
7.4580619708
 30
0.0
 10
10.5493458866
 20
7.4565051773
 30
0.0
 10
10.5342902288
 20
7.4560706445
 30
0.0
 10
10.5191672552
 20
7.4567605674
 30
0.0
 10
10.5040600957
 20
7.4585709655
 30
0.0
 10
10.489051755
 20
7.4614917126
 30
0.0
 10
10.4742246619
 20
7.4655065996
 30
0.0
 10
10.4596602228
 20
7.4705934287
 30
0.0
 10
10.445438381
 20
7.476724139
 30
0.0
 10
10.4316371839
 20
7.4838649623
 30
0.0
 10
10.4183323607
 20
7.491976609
 30
0.0
 10
10.405596912
 20
7.5010144839
 30
0.0
 10
10.3935007147
 20
7.5109289304
 30
0.0
 10
10.3821101434
 20
7.5216655011
 30
0.0
 10
10.3714877097
 20
7.5331652539
 30
0.0
 10
10.3616917234
 20
7.5453650726
 30
0.0
 10
10.3527759753
 20
7.5581980104
 30
0.0
 10
10.3447894444
 20
7.5715936495
 30
0.0
 10
10.3377760312
 20
7.5854784982
 30
0.0
 10
10.3317743193
 20
7.599776332
 30
0.0
 10
10.326817354
 20
7.6144088178
 30
0.0
 10
10.3229325147
 20
7.6292951569
 30
0.0
 10
10.3206034712
 20
7.6418608462
 30
0.0
 10
10.3192969426
 20
7.651957217
 30
0.0
 10
10.3183645074
 20
7.662043929
 30
0.0
 10
10.3180821757
 20
7.6696341083
 30
0.0
 10
10.3180821757
 20
7.6746849652
 30
0.0
  0
SPLINE
  5
384
100
AcDbEntity
  8
0
100
AcDbSpline
 62
7
  6
CONTINUOUS
 70
0
 71
3
 72
21
 73
17
 74
0
 42
0.0000001
 43
0.0000001
 44
0.0000000001
 40
0.0
 40
0.0
 40
0.0
 40
0.0
 40
0.0617147807
 40
0.1234506636
 40
0.1852285506
 40
0.2470689066
 40
0.3089915473
 40
0.3710154718
 40
0.4331586568
 40
0.495437856
 40
0.5578685007
 40
0.6204644957
 40
0.6832380523
 40
0.7462000242
 40
0.8726823632
 40
1.0
 40
1.0
 40
1.0
 40
1.0
 10
10.375301002
 20
7.8123133841
 30
0.0
 10
10.3730353782
 20
7.8101249597
 30
0.0
 10
10.3686151685
 20
7.8056298744
 30
0.0
 10
10.3623391946
 20
7.7985539565
 30
0.0
 10
10.3564307672
 20
7.791159839
 30
0.0
 10
10.3509037897
 20
7.7834647756
 30
0.0
 10
10.345770911
 20
7.7754864823
 30
0.0
 10
10.3410439537
 20
7.7672433933
 30
0.0
 10
10.3367338467
 20
7.758754494
 30
0.0
 10
10.3328505043
 20
7.7500393811
 30
0.0
 10
10.3294028274
 20
7.7411181531
 30
0.0
 10
10.3263987907
 20
7.7320114363
 30
0.0
 10
10.3238452773
 20
7.722739981
 30
0.0
 10
10.3210452072
 20
7.7101702266
 30
0.0
 10
10.3187024882
 20
7.6941458094
 30
0.0
 10
10.3180821757
 20
7.6811833365
 30
0.0
 10
10.3180821757
 20
7.6746849652
 30
0.0
  0
SPLINE
  5
385
100
AcDbEntity
  8
0
100
AcDbSpline
 62
7
  6
CONTINUOUS
 70
0
 71
3
 72
41
 73
37
 74
0
 42
0.0000001
 43
0.0000001
 44
0.0000000001
 40
0.0
 40
0.0
 40
0.0
 40
0.0
 40
0.0299421722
 40
0.0599087187
 40
0.0899234222
 40
0.1200088965
 40
0.1501860486
 40
0.1804735921
 40
0.2108876267
 40
0.2414412921
 40
0.2721445039
 40
0.3030037728
 40
0.3340221097
 40
0.3651990124
 40
0.3965305293
 40
0.4280093954
 40
0.4596252325
 40
0.4913648061
 40
0.523212333
 40
0.5551498293
 40
0.5871574933
 40
0.6192141165
 40
0.6512975132
 40
0.6833849656
 40
0.7154536753
 40
0.7314763803
 40
0.7474860474
 40
0.7794508144
 40
0.8113324582
 40
0.8431123019
 40
0.8747737477
 40
0.9063025846
 40
0.9376874998
 40
0.9533255315
 40
0.9689249968
 40
1.0
 40
1.0
 40
1.0
 40
1.0
 10
11.4958114247
 20
9.9085928706
 30
0.0
 10
11.4923110068
 20
9.9052117082
 30
0.0
 10
11.4850349515
 20
9.8987222261
 30
0.0
 10
11.473377545
 20
9.8898814696
 30
0.0
 10
11.4610364296
 20
9.8819783949
 30
0.0
 10
11.4480805544
 20
9.8750573441
 30
0.0
 10
11.4345811517
 20
9.8691561267
 30
0.0
 10
11.4206127228
 20
9.8643071828
 30
0.0
 10
11.4062522422
 20
9.8605370435
 30
0.0
 10
11.3915788259
 20
9.8578662932
 30
0.0
 10
11.3766732636
 20
9.8563094407
 30
0.0
 10
11.3616175784
 20
9.8558748566
 30
0.0
 10
11.3464945737
 20
9.8565647349
 30
0.0
 10
11.33138738
 20
9.8583750939
 30
0.0
 10
11.3163790026
 20
9.8612958067
 30
0.0
 10
11.3015518707
 20
9.8653106635
 30
0.0
 10
11.2869873907
 20
9.8703974659
 30
0.0
 10
11.272765506
 20
9.8765281525
 30
0.0
 10
11.2589642638
 20
9.8836689559
 30
0.0
 10
11.245659395
 20
9.8917805851
 30
0.0
 10
11.2329238961
 20
9.9008184538
 30
0.0
 10
11.2208276648
 20
9.9107328783
 30
0.0
 10
11.2094370046
 20
9.9214695158
 30
0.0
 10
11.1988147003
 20
9.932969037
 30
0.0
 10
11.190648196
 20
9.9431395814
 30
0.0
 10
11.1845552207
 20
9.9515933461
 30
0.0
 10
11.1787688134
 20
9.9602394986
 30
0.0
 10
11.1721160722
 20
9.9713978648
 30
0.0
 10
11.1651027968
 20
9.9852824976
 30
0.0
 10
11.1591010176
 20
9.9995804216
 30
0.0
 10
11.1541440445
 20
10.0142129183
 30
0.0
 10
11.1502591841
 20
10.0290992925
 30
0.0
 10
11.1479301328
 20
10.0416650116
 30
0.0
 10
11.1466235956
 20
10.0517614002
 30
0.0
 10
11.1456911571
 20
10.0618481322
 30
0.0
 10
11.1454088244
 20
10.0694383228
 30
0.0
 10
11.1454088244
 20
10.0744891937
 30
0.0
  0
SPLINE
  5
386
100
AcDbEntity
  8
0
100
AcDbSpline
 62
7
  6
CONTINUOUS
 70
0
 71
3
 72
19
 73
15
 74
0
 42
0.0000001
 43
0.0000001
 44
0.0000000001
 40
0.0
 40
0.0
 40
0.0
 40
0.0
 40
0.0609955883
 40
0.1221866142
 40
0.1835814711
 40
0.2451862472
 40
0.3690001311
 40
0.493673954
 40
0.5563446003
 40
0.6192167038
 40
0.6822815476
 40
0.7455287492
 40
0.8724823659
 40
1.0
 40
1.0
 40
1.0
 40
1.0
 10
10.7183742514
 20
7.5930057261
 30
0.0
 10
10.7151121462
 20
7.5922160324
 30
0.0
 10
10.7085349763
 20
7.5908041892
 30
0.0
 10
10.6985577059
 20
7.5891968338
 30
0.0
 10
10.6884772597
 20
7.5881003444
 30
0.0
 10
10.6749135559
 20
7.5873219622
 30
0.0
 10
10.6578226235
 20
7.5876436195
 30
0.0
 10
10.6407919952
 20
7.5896767984
 30
0.0
 10
10.6272737914
 20
7.5923135313
 30
0.0
 10
10.6171927868
 20
7.5947976425
 30
0.0
 10
10.6072142879
 20
7.5977784099
 30
0.0
 10
10.5940653171
 20
7.6024098376
 30
0.0
 10
10.5780122456
 20
7.6094040842
 30
0.0
 10
10.565744595
 20
7.6162049871
 30
0.0
 10
10.5597749703
 20
7.6198925944
 30
0.0
  0
SPLINE
  5
387
100
AcDbEntity
  8
0
100
AcDbSpline
 62
7
  6
CONTINUOUS
 70
0
 71
3
 72
41
 73
37
 74
0
 42
0.0000001
 43
0.0000001
 44
0.0000000001
 40
0.0
 40
0.0
 40
0.0
 40
0.0
 40
0.0299421722
 40
0.0599087187
 40
0.0899234222
 40
0.1200088965
 40
0.1501860486
 40
0.1804735921
 40
0.2108876267
 40
0.2414412921
 40
0.2721445039
 40
0.3030037728
 40
0.3340221097
 40
0.3651990124
 40
0.3965305293
 40
0.4280093954
 40
0.4596252325
 40
0.4913648061
 40
0.523212333
 40
0.5551498293
 40
0.5871574933
 40
0.6192141165
 40
0.6512975132
 40
0.6833849656
 40
0.7154536753
 40
0.7314763803
 40
0.7474860474
 40
0.7794508144
 40
0.8113324582
 40
0.8431123019
 40
0.8747737477
 40
0.9063025846
 40
0.9376874998
 40
0.9533255315
 40
0.9689249968
 40
1.0
 40
1.0
 40
1.0
 40
1.0
 10
10.4091448058
 20
6.8446943351
 30
0.0
 10
10.4056443878
 20
6.8413131727
 30
0.0
 10
10.3983683326
 20
6.8348236906
 30
0.0
 10
10.386710926
 20
6.8259829342
 30
0.0
 10
10.3743698107
 20
6.8180798594
 30
0.0
 10
10.3614139354
 20
6.8111588086
 30
0.0
 10
10.3479145328
 20
6.8052575912
 30
0.0
 10
10.3339461038
 20
6.8004086473
 30
0.0
 10
10.3195856232
 20
6.796638508
 30
0.0
 10
10.304912207
 20
6.7939677578
 30
0.0
 10
10.2900066447
 20
6.7924109052
 30
0.0
 10
10.2749509595
 20
6.7919763212
 30
0.0
 10
10.2598279547
 20
6.7926661994
 30
0.0
 10
10.244720761
 20
6.7944765585
 30
0.0
 10
10.2297123836
 20
6.7973972713
 30
0.0
 10
10.2148852517
 20
6.801412128
 30
0.0
 10
10.2003207718
 20
6.8064989304
 30
0.0
 10
10.1860988871
 20
6.8126296171
 30
0.0
 10
10.1722976448
 20
6.8197704204
 30
0.0
 10
10.158992776
 20
6.8278820497
 30
0.0
 10
10.1462572771
 20
6.8369199183
 30
0.0
 10
10.1341610458
 20
6.8468343429
 30
0.0
 10
10.1227703856
 20
6.8575709804
 30
0.0
 10
10.1121480814
 20
6.8690705016
 30
0.0
 10
10.103981577
 20
6.879241046
 30
0.0
 10
10.0978886017
 20
6.8876948106
 30
0.0
 10
10.0921021944
 20
6.8963409631
 30
0.0
 10
10.0854494532
 20
6.9074993293
 30
0.0
 10
10.0784361779
 20
6.9213839621
 30
0.0
 10
10.0724343987
 20
6.9356818861
 30
0.0
 10
10.0674774255
 20
6.9503143829
 30
0.0
 10
10.0635925652
 20
6.965200757
 30
0.0
 10
10.0612635138
 20
6.9777664762
 30
0.0
 10
10.0599569766
 20
6.9878628647
 30
0.0
 10
10.0590245382
 20
6.9979495967
 30
0.0
 10
10.0587422055
 20
7.0055397874
 30
0.0
 10
10.0587422055
 20
7.0105906583
 30
0.0
  0
SPLINE
  5
388
100
AcDbEntity
  8
0
100
AcDbSpline
 62
7
  6
CONTINUOUS
 70
0
 71
3
 72
91
 73
87
 74
0
 42
0.0000001
 43
0.0000001
 44
0.0000000001
 40
0.0
 40
0.0
 40
0.0
 40
0.0
 40
0.0039801824
 40
0.0081241125
 40
0.0124359604
 40
0.0169193082
 40
0.0215771808
 40
0.0264119179
 40
0.0314251804
 40
0.036618156
 40
0.0419915391
 40
0.0475456573
 40
0.0532804234
 40
0.0591954189
 40
0.0652899227
 40
0.0715629017
 40
0.0780131034
 40
0.0846389837
 40
0.0984102885
 40
0.1128608532
 40
0.1279713725
 40
0.1437199568
 40
0.1600824082
 40
0.1770324532
 40
0.1945419392
 40
0.2125810061
 40
0.2311182422
 40
0.2501208275
 40
0.2695546626
 40
0.2893844909
 40
0.3095740146
 40
0.330086005
 40
0.35088241
 40
0.3719244606
 40
0.3931727759
 40
0.4145874652
 40
0.4361282289
 40
0.4577544586
 40
0.4794253371
 40
0.501099938
 40
0.5227373261
 40
0.5442966575
 40
0.5657372785
 40
0.5870188258
 40
0.6081013261
 40
0.6289452975
 40
0.6495118524
 40
0.6697628021
 40
0.6896607608
 40
0.7091692527
 40
0.7282528228
 40
0.7468771515
 40
0.7650091753
 40
0.7826172172
 40
0.7996711268
 40
0.8161424293
 40
0.8320044948
 40
0.8472327309
 40
0.8618048077
 40
0.8757009255
 40
0.8889041429
 40
0.8952417292
 40
0.9014012652
 40
0.9073816417
 40
0.9131820083
 40
0.9188018518
 40
0.9242409423
 40
0.9294994633
 40
0.9345779585
 40
0.9394774438
 40
0.944199427
 40
0.9487459568
 40
0.95311974
 40
0.9573241405
 40
0.9613633601
 40
0.9652424499
 40
0.9689674846
 40
0.9725456466
 40
0.9759853437
 40
0.9824865016
 40
0.9855753543
 40
0.9885738189
 40
0.9914977372
 40
0.9943643366
 40
0.9971920099
 40
1.0
 40
1.0
 40
1.0
 40
1.0
 10
10.0635348559
 20
10.7127013312
 30
0.0
 10
10.0648360878
 20
10.7139582247
 30
0.0
 10
10.0675511772
 20
10.7164631222
 30
0.0
 10
10.0718619042
 20
10.7201217136
 30
0.0
 10
10.0764891839
 20
10.7237540614
 30
0.0
 10
10.0814304778
 20
10.7273582371
 30
0.0
 10
10.0866833769
 20
10.7309325574
 30
0.0
 10
10.0922453073
 20
10.7344752834
 30
0.0
 10
10.0981134873
 20
10.7379847164
 30
0.0
 10
10.1042850054
 20
10.7414590353
 30
0.0
 10
10.110756745
 20
10.7448965724
 30
0.0
 10
10.117525489
 20
10.7482955592
 30
0.0
 10
10.124587834
 20
10.751654324
 30
0.0
 10
10.1319402374
 20
10.7549711694
 30
0.0
 10
10.1395790084
 20
10.758244405
 30
0.0
 10
10.1475002915
 20
10.7614724137
 30
0.0
 10
10.1557001205
 20
10.7646535358
 30
0.0
 10
10.1671466328
 20
10.7688848758
 30
0.0
 10
10.1821283333
 20
10.7740344986
 30
0.0
 10
10.200925174
 20
10.7799253565
 30
0.0
 10
10.2207271305
 20
10.7855923394
 30
0.0
 10
10.2414942305
 20
10.7910239199
 30
0.0
 10
10.263184703
 20
10.796209034
 30
0.0
 10
10.2857548061
 20
10.8011371191
 30
0.0
 10
10.3091589998
 20
10.8057981339
 30
0.0
 10
10.3333500223
 20
10.8101825858
 30
0.0
 10
10.3582789987
 20
10.8142815468
 30
0.0
 10
10.3838955445
 20
10.8180866719
 30
0.0
 10
10.4101478714
 20
10.8215902154
 30
0.0
 10
10.4369828946
 20
10.824785047
 30
0.0
 10
10.4643463416
 20
10.8276646654
 30
0.0
 10
10.4921828629
 20
10.8302232107
 30
0.0
 10
10.5204361444
 20
10.8324554797
 30
0.0
 10
10.549049024
 20
10.834356934
 30
0.0
 10
10.5779636084
 20
10.8359237078
 30
0.0
 10
10.6071213918
 20
10.8371526159
 30
0.0
 10
10.6364633746
 20
10.8380411594
 30
0.0
 10
10.6659301823
 20
10.8385875315
 30
0.0
 10
10.6954621866
 20
10.8387906197
 30
0.0
 10
10.724999626
 20
10.8386500115
 30
0.0
 10
10.7544827285
 20
10.8381659941
 30
0.0
 10
10.7838518328
 20
10.8373395523
 30
0.0
 10
10.8130475098
 20
10.8361723662
 30
0.0
 10
10.8420106821
 20
10.8346668086
 30
0.0
 10
10.8706827447
 20
10.8328259397
 30
0.0
 10
10.8990056835
 20
10.8306535013
 30
0.0
 10
10.9269221951
 20
10.8281539108
 30
0.0
 10
10.9543758041
 20
10.8253322541
 30
0.0
 10
10.9813109779
 20
10.8221942716
 30
0.0
 10
11.0076732393
 20
10.8187463483
 30
0.0
 10
11.0334092785
 20
10.8149955007
 30
0.0
 10
11.058467062
 20
10.8109493631
 30
0.0
 10
11.0827959412
 20
10.8066161718
 30
0.0
 10
11.1063467596
 20
10.8020047506
 30
0.0
 10
11.1290719585
 20
10.7971244937
 30
0.0
 10
11.1509256742
 20
10.7919853436
 30
0.0
 10
11.1718638445
 20
10.7865977693
 30
0.0
 10
11.1918442802
 20
10.780972744
 30
0.0
 10
11.2108268506
 20
10.7751217166
 30
0.0
 10
11.228773272
 20
10.769056585
 30
0.0
 10
11.2430234131
 20
10.7637644502
 30
0.0
 10
11.2538692398
 20
10.7594235983
 30
0.0
 10
11.2616112031
 20
10.7561665959
 30
0.0
 10
11.2690681796
 20
10.7528654306
 30
0.0
 10
11.2762364191
 20
10.7495217031
 30
0.0
 10
11.2831123354
 20
10.7461371574
 30
0.0
 10
11.2896924595
 20
10.7427134295
 30
0.0
 10
11.2959735159
 20
10.7392522933
 30
0.0
 10
11.3019523483
 20
10.7357554334
 30
0.0
 10
11.307625978
 20
10.7322246061
 30
0.0
 10
11.312991584
 20
10.7286615665
 30
0.0
 10
11.3180464747
 20
10.7250680246
 30
0.0
 10
11.3227881711
 20
10.72144579
 30
0.0
 10
11.327214273
 20
10.7177965332
 30
0.0
 10
11.3313226126
 20
10.7141220688
 30
0.0
 10
11.3351111183
 20
10.7104240338
 30
0.0
 10
11.338577803
 20
10.7067042905
 30
0.0
 10
11.3417211703
 20
10.7029640922
 30
0.0
 10
11.3454086371
 20
10.6980461627
 30
0.0
 10
11.3485398967
 20
10.6929956746
 30
0.0
 10
11.3510259807
 20
10.6878373459
 30
0.0
 10
11.3525280615
 20
10.6840223768
 30
0.0
 10
11.3536977866
 20
10.6801981253
 30
0.0
 10
11.3545341968
 20
10.6763664489
 30
0.0
 10
11.3550363679
 20
10.6725300793
 30
0.0
 10
11.3551481616
 20
10.6699670839
 30
0.0
 10
11.3551481614
 20
10.668690749
 30
0.0
  0
SPLINE
  5
389
100
AcDbEntity
  8
0
100
AcDbSpline
 62
7
  6
CONTINUOUS
 70
0
 71
3
 72
76
 73
72
 74
0
 42
0.0000001
 43
0.0000001
 44
0.0000000001
 40
0.0
 40
0.0
 40
0.0
 40
0.0
 40
0.0038696649
 40
0.0078956081
 40
0.0120811156
 40
0.0164289551
 40
0.0209414871
 40
0.0256206096
 40
0.0304676436
 40
0.0354834461
 40
0.0406685392
 40
0.0460230586
 40
0.0572390678
 40
0.0691276147
 40
0.0816804067
 40
0.0948858996
 40
0.1087296979
 40
0.1231949325
 40
0.1382625475
 40
0.1539115161
 40
0.1701190076
 40
0.1868605773
 40
0.2041103168
 40
0.2218409695
 40
0.2400240267
 40
0.2586298567
 40
0.2776278087
 40
0.2969862984
 40
0.3166728835
 40
0.3366543698
 40
0.3568968982
 40
0.3980261219
 40
0.439780021
 40
0.4818718683
 40
0.5240119651
 40
0.5659101927
 40
0.6072785557
 40
0.647833707
 40
0.6677200591
 40
0.6873003002
 40
0.7065414751
 40
0.7254114271
 40
0.7438788745
 40
0.7619134927
 40
0.7794860109
 40
0.7965683384
 40
0.8131336568
 40
0.8291565271
 40
0.8446130245
 40
0.8594809162
 40
0.8737398125
 40
0.8873713555
 40
0.9003594667
 40
0.9126906779
 40
0.9243544805
 40
0.9353437872
 40
0.9405846729
 40
0.9456562016
 40
0.9505587486
 40
0.9552930676
 40
0.9598603551
 40
0.9642622094
 40
0.9685007887
 40
0.9725788144
 40
0.976499623
 40
0.9802673331
 40
0.9838868369
 40
0.9873639533
 40
0.9907055498
 40
0.9939195796
 40
1.0
 40
1.0
 40
1.0
 40
1.0
 10
12.7198310349
 20
8.5444747657
 30
0.0
 10
12.7207590142
 20
8.545371125
 30
0.0
 10
12.722614062
 20
8.5472401359
 30
0.0
 10
12.725341062
 20
8.5502057803
 30
0.0
 10
12.7280654618
 20
8.5533868285
 30
0.0
 10
12.7307858652
 20
8.5567817026
 30
0.0
 10
12.7335011323
 20
8.5603888474
 30
0.0
 10
12.7362100445
 20
8.5642066907
 30
0.0
 10
12.7389114262
 20
8.5682335102
 30
0.0
 10
12.7416040569
 20
8.5724674704
 30
0.0
 10
12.744286687
 20
8.5769066684
 30
0.0
 10
12.7479046558
 20
8.5831940998
 30
0.0
 10
12.7523848465
 20
8.5915612896
 30
0.0
 10
12.7576220029
 20
8.602236583
 30
0.0
 10
12.7627905011
 20
8.6136771256
 30
0.0
 10
12.7678808432
 20
8.62586206
 30
0.0
 10
12.7728836938
 20
8.6387693117
 30
0.0
 10
12.7777898417
 20
8.6523753616
 30
0.0
 10
12.7825902421
 20
8.666655394
 30
0.0
 10
12.7872760328
 20
8.6815833166
 30
0.0
 10
12.79183858
 20
8.6971318124
 30
0.0
 10
12.7962694694
 20
8.7132724046
 30
0.0
 10
12.8005605262
 20
8.7299755211
 30
0.0
 10
12.8047038289
 20
8.7472105431
 30
0.0
 10
12.8086917467
 20
8.7649458564
 30
0.0
 10
12.8125169312
 20
8.7831489206
 30
0.0
 10
12.8161723302
 20
8.8017863348
 30
0.0
 10
12.8196512025
 20
8.8208238969
 30
0.0
 10
12.8229471411
 20
8.8402266508
 30
0.0
 10
12.8260541039
 20
8.8599589995
 30
0.0
 10
12.8299575809
 20
8.8868013876
 30
0.0
 10
12.8343170854
 20
8.9209105278
 30
0.0
 10
12.8386868157
 20
8.9623522422
 30
0.0
 10
12.8421897102
 20
9.0042144889
 30
0.0
 10
12.8448000693
 20
9.0461900128
 30
0.0
 10
12.8464987485
 20
9.0879709904
 30
0.0
 10
12.847273418
 20
9.1292507605
 30
0.0
 10
12.8471437851
 20
9.1631985683
 30
0.0
 10
12.8465647197
 20
9.1898731083
 30
0.0
 10
12.8459008117
 20
9.2094362915
 30
0.0
 10
12.8450057905
 20
9.2286510252
 30
0.0
 10
12.8438813047
 20
9.2474820667
 30
0.0
 10
12.842529455
 20
9.2658948474
 30
0.0
 10
12.8409527494
 20
9.2838555768
 30
0.0
 10
12.8391541075
 20
9.3013312984
 30
0.0
 10
12.8371368767
 20
9.3182899608
 30
0.0
 10
12.8349048065
 20
9.3347004751
 30
0.0
 10
12.8324620398
 20
9.3505327656
 30
0.0
 10
12.8298131016
 20
9.3657578347
 30
0.0
 10
12.8269629178
 20
9.3803478296
 30
0.0
 10
12.8239167817
 20
9.3942760926
 30
0.0
 10
12.8206803404
 20
9.4075172155
 30
0.0
 10
12.8172595745
 20
9.4200470752
 30
0.0
 10
12.8136608082
 20
9.4318429977
 30
0.0
 10
12.8098906652
 20
9.4428834896
 30
0.0
 10
12.8065612609
 20
9.4515702147
 30
0.0
 10
12.8038091528
 20
9.4581181259
 30
0.0
 10
12.8017392327
 20
9.4627499797
 30
0.0
 10
12.7996317389
 20
9.4671785509
 30
0.0
 10
12.797487583
 20
9.4714018322
 30
0.0
 10
12.7953077796
 20
9.4754179296
 30
0.0
 10
12.7930932512
 20
9.4792250083
 30
0.0
 10
12.7908450055
 20
9.4828213628
 30
0.0
 10
12.7885640438
 20
9.486205384
 30
0.0
 10
12.7862513034
 20
9.489375519
 30
0.0
 10
12.7839078352
 20
9.4923303659
 30
0.0
 10
12.7815345681
 20
9.495068589
 30
0.0
 10
12.7791325691
 20
9.4975888438
 30
0.0
 10
12.7767025098
 20
9.4998902462
 30
0.0
 10
12.7734870302
 20
9.5026141552
 30
0.0
 10
12.7709462536
 20
9.5044078078
 30
0.0
 10
12.7692110626
 20
9.5054561483
 30
0.0
  0
SPLINE
  5
38A
100
AcDbEntity
  8
0
100
AcDbSpline
 62
7
  6
CONTINUOUS
 70
0
 71
3
 72
11
 73
7
 74
0
 42
0.0000001
 43
0.0000001
 44
0.0000000001
 40
0.0
 40
0.0
 40
0.0
 40
0.0
 40
0.2754684412
 40
0.5328505685
 40
0.7736865827
 40
1.0
 40
1.0
 40
1.0
 40
1.0
 10
12.7198310349
 20
8.5444747657
 30
0.0
 10
12.7183403822
 20
8.5430349057
 30
0.0
 10
12.7153614458
 20
8.5403456845
 30
0.0
 10
12.7107369483
 20
8.5367990642
 30
0.0
 10
12.7061189661
 20
8.5338875601
 30
0.0
 10
12.7029585456
 20
8.5323301851
 30
0.0
 10
12.701388514
 20
8.5316713149
 30
0.0
  0
SPLINE
  5
38B
100
AcDbEntity
  8
0
100
AcDbSpline
 62
7
  6
CONTINUOUS
 70
0
 71
3
 72
19
 73
15
 74
0
 42
0.0000001
 43
0.0000001
 44
0.0000000001
 40
0.0
 40
0.0
 40
0.0
 40
0.0
 40
0.1528785857
 40
0.2945794876
 40
0.4262317845
 40
0.5493501905
 40
0.6083252735
 40
0.6659127942
 40
0.7224098759
 40
0.7781332144
 40
0.8334137831
 40
0.8885913942
 40
0.9440077951
 40
1.0
 40
1.0
 40
1.0
 40
1.0
 10
12.7198310349
 20
8.7212392024
 30
0.0
 10
12.7187869751
 20
8.720230718
 30
0.0
 10
12.7167007552
 20
8.7183618833
 30
0.0
 10
12.7134480707
 20
8.7159430873
 30
0.0
 10
12.7101998218
 20
8.7140248916
 30
0.0
 10
12.707459983
 20
8.7128313778
 30
0.0
 10
12.7052877436
 20
8.7121469815
 30
0.0
 10
12.7036870809
 20
8.7117686061
 30
0.0
 10
12.70209267
 20
8.711518264
 30
0.0
 10
12.7005052396
 20
8.7113961055
 30
0.0
 10
12.6989256228
 20
8.7114023163
 30
0.0
 10
12.6973546314
 20
8.7115369499
 30
0.0
 10
12.6957932216
 20
8.7117998374
 30
0.0
 10
12.6947662233
 20
8.7120587311
 30
0.0
 10
12.694256119
 20
8.7122085392
 30
0.0
  0
SPLINE
  5
38C
100
AcDbEntity
  8
0
100
AcDbSpline
 62
7
  6
CONTINUOUS
 70
0
 71
3
 72
83
 73
79
 74
0
 42
0.0000001
 43
0.0000001
 44
0.0000000001
 40
0.0
 40
0.0
 40
0.0
 40
0.0
 40
0.0027164276
 40
0.0054532334
 40
0.0082303009
 40
0.0110665998
 40
0.0139798088
 40
0.0169861218
 40
0.0201000928
 40
0.0233346095
 40
0.026700976
 40
0.0302089312
 40
0.0338668524
 40
0.0376818289
 40
0.0416598023
 40
0.0458057443
 40
0.0501236753
 40
0.0546168743
 40
0.0592878974
 40
0.0641386698
 40
0.0691706105
 40
0.0743845883
 40
0.0797810847
 40
0.0853601631
 40
0.0970640219
 40
0.1094907699
 40
0.1226300177
 40
0.1364676887
 40
0.150986507
 40
0.1661664045
 40
0.1819848426
 40
0.1984170703
 40
0.2154363375
 40
0.2330140708
 40
0.2511200494
 40
0.2697225561
 40
0.2887885105
 40
0.3082835895
 40
0.3281723378
 40
0.3484182894
 40
0.3689840785
 40
0.3898315425
 40
0.4109218226
 40
0.453671794
 40
0.496913762
 40
0.5403220095
 40
0.5835692233
 40
0.6263296343
 40
0.6474270493
 40
0.6682829087
 40
0.6888583326
 40
0.7091151299
 40
0.7290159025
 40
0.7485241591
 40
0.7676044182
 40
0.7862223163
 40
0.8043447241
 40
0.821939872
 40
0.8389774975
 40
0.8554289822
 40
0.8712675108
 40
0.8864682552
 40
0.9010085951
 40
0.9148683895
 40
0.9280302787
 40
0.9404800721
 40
0.9464347343
 40
0.9522077813
 40
0.9577985496
 40
0.9632067643
 40
0.968432455
 40
0.973476048
 40
0.978338406
 40
0.9830208506
 40
0.98752539
 40
0.9918546103
 40
0.9960115929
 40
1.0
 40
1.0
 40
1.0
 40
1.0
 10
12.7847795638
 20
9.5083878069
 30
0.0
 10
12.7856978203
 20
9.5083241207
 30
0.0
 10
12.7875365185
 20
9.5081131413
 30
0.0
 10
12.7902711514
 20
9.507548599
 30
0.0
 10
12.7929851272
 20
9.5067361069
 30
0.0
 10
12.7956764855
 20
9.5056763767
 30
0.0
 10
12.7983438668
 20
9.5043704318
 30
0.0
 10
12.8009858821
 20
9.5028192404
 30
0.0
 10
12.8036013123
 20
9.5010239174
 30
0.0
 10
12.8061890262
 20
9.4989856332
 30
0.0
 10
12.8087478506
 20
9.4967055176
 30
0.0
 10
12.8112767426
 20
9.4941848795
 30
0.0
 10
12.8137745552
 20
9.491424991
 30
0.0
 10
12.8162401896
 20
9.4884272648
 30
0.0
 10
12.8186725572
 20
9.4851932107
 30
0.0
 10
12.8210704791
 20
9.4817243926
 30
0.0
 10
12.8234328908
 20
9.4780225548
 30
0.0
 10
12.8257586229
 20
9.4740894946
 30
0.0
 10
12.8280465639
 20
9.4699271572
 30
0.0
 10
12.8302956244
 20
9.4655376057
 30
0.0
 10
12.8325046511
 20
9.4609229921
 30
0.0
 10
12.8346726012
 20
9.4560856264
 30
0.0
 10
12.8367983864
 20
9.4510278894
 30
0.0
 10
12.8396202396
 20
9.4438792352
 30
0.0
 10
12.8430235797
 20
9.4344018563
 30
0.0
 10
12.84686053
 20
9.4223675036
 30
0.0
 10
12.8505052798
 20
9.4095204702
 30
0.0
 10
12.8539504593
 20
9.3958864114
 30
0.0
 10
12.8571890881
 20
9.3814924012
 30
0.0
 10
12.8602145879
 20
9.3663671842
 30
0.0
 10
12.8630208044
 20
9.3505410005
 30
0.0
 10
12.8656020252
 20
9.334045541
 30
0.0
 10
12.8679529912
 20
9.3169138731
 30
0.0
 10
12.8700689214
 20
9.2991803719
 30
0.0
 10
12.8719455107
 20
9.2808806424
 30
0.0
 10
12.8735789389
 20
9.2620514392
 30
0.0
 10
12.874965878
 20
9.2427305901
 30
0.0
 10
12.8761034982
 20
9.2229569226
 30
0.0
 10
12.8769894839
 20
9.2027701856
 30
0.0
 10
12.8776220297
 20
9.1822109624
 30
0.0
 10
12.8779998339
 20
9.1613205987
 30
0.0
 10
12.878122138
 20
9.1401410656
 30
0.0
 10
12.8779432693
 20
9.1114445957
 30
0.0
 10
12.8770754436
 20
9.0751665796
 30
0.0
 10
12.8750302425
 20
9.0313634071
 30
0.0
 10
12.8719926547
 20
8.9874488196
 30
0.0
 10
12.8679871282
 20
8.9437759152
 30
0.0
 10
12.8638513821
 20
8.9077161835
 30
0.0
 10
12.8600770395
 20
8.8792595706
 30
0.0
 10
12.8570392987
 20
8.8582900459
 30
0.0
 10
12.8537882174
 20
8.8376408464
 30
0.0
 10
12.8503303238
 20
8.8173534628
 30
0.0
 10
12.8466725969
 20
8.7974686926
 30
0.0
 10
12.8428224197
 20
8.778026505
 30
0.0
 10
12.838787566
 20
8.7590659739
 30
0.0
 10
12.8345761821
 20
8.7406251985
 30
0.0
 10
12.8301967717
 20
8.7227412264
 30
0.0
 10
12.8256581767
 20
8.7054499738
 30
0.0
 10
12.8209695717
 20
8.6887861447
 30
0.0
 10
12.8161404332
 20
8.6727831602
 30
0.0
 10
12.8111805212
 20
8.6574730936
 30
0.0
 10
12.8060998572
 20
8.6428865938
 30
0.0
 10
12.8009086999
 20
8.6290528332
 30
0.0
 10
12.7956175265
 20
8.6159993535
 30
0.0
 10
12.7902370087
 20
8.6037522698
 30
0.0
 10
12.7856218755
 20
8.5941003198
 30
0.0
 10
12.7818861671
 20
8.5868085896
 30
0.0
 10
12.7791104382
 20
8.5816377352
 30
0.0
 10
12.7763204718
 20
8.5766859975
 30
0.0
 10
12.7735176809
 20
8.5719558182
 30
0.0
 10
12.7707034374
 20
8.5674495644
 30
0.0
 10
12.7678791433
 20
8.5631694837
 30
0.0
 10
12.7650462412
 20
8.5591176889
 30
0.0
 10
12.762206064
 20
8.5552961993
 30
0.0
 10
12.7593600118
 20
8.5517068475
 30
0.0
 10
12.7565093933
 20
8.5483514023
 30
0.0
 10
12.7536557613
 20
8.5452316855
 30
0.0
 10
12.7517127171
 20
8.543270107
 30
0.0
 10
12.7507406639
 20
8.5423311757
 30
0.0
  0
SPLINE
  5
38D
100
AcDbEntity
  8
0
100
AcDbSpline
 62
7
  6
CONTINUOUS
 70
0
 71
3
 72
72
 73
68
 74
0
 42
0.0000001
 43
0.0000001
 44
0.0000000001
 40
0.0
 40
0.0
 40
0.0
 40
0.0
 40
0.0082508861
 40
0.0172131134
 40
0.0269097069
 40
0.0373545144
 40
0.0485524831
 40
0.0605019662
 40
0.0731959635
 40
0.0866229158
 40
0.1007673663
 40
0.1156105513
 40
0.1311308207
 40
0.1473039061
 40
0.1641032064
 40
0.1815000673
 40
0.1994639486
 40
0.2179625525
 40
0.2369620398
 40
0.2564271745
 40
0.2763214098
 40
0.2966070334
 40
0.3381957643
 40
0.3808739974
 40
0.4243102999
 40
0.4681655861
 40
0.5120966054
 40
0.5557593516
 40
0.5988124813
 40
0.6409207689
 40
0.6615187965
 40
0.6817594706
 40
0.7016041566
 40
0.7210152904
 40
0.7399564944
 40
0.7583926677
 40
0.7762901368
 40
0.7936168457
 40
0.8103424593
 40
0.8264385247
 40
0.8418787365
 40
0.8566391472
 40
0.8706983968
 40
0.8840380837
 40
0.8966432407
 40
0.9085028008
 40
0.9196102948
 40
0.9299648644
 40
0.9348618776
 40
0.9395735571
 40
0.9441020146
 40
0.9484500445
 40
0.9526211352
 40
0.9566197104
 40
0.9604511493
 40
0.9641218943
 40
0.9710107795
 40
0.97425157
 40
0.9773715041
 40
0.9803846219
 40
0.9833067536
 40
0.9861554656
 40
0.9889498358
 40
0.9917102045
 40
0.9944577346
 40
0.9972139097
 40
1.0
 40
1.0
 40
1.0
 40
1.0
 10
12.7198310349
 20
8.7212392024
 30
0.0
 10
12.7211024139
 20
8.7224672603
 30
0.0
 10
12.7236382768
 20
8.7251513153
 30
0.0
 10
12.7272790371
 20
8.7296264764
 30
0.0
 10
12.730903556
 20
8.7347042558
 30
0.0
 10
12.7345045765
 20
8.7403741714
 30
0.0
 10
12.7380751698
 20
8.7466252423
 30
0.0
 10
12.7416080815
 20
8.7534448529
 30
0.0
 10
12.7450960653
 20
8.7608191846
 30
0.0
 10
12.7485318632
 20
8.768733166
 30
0.0
 10
12.7519083252
 20
8.7771705064
 30
0.0
 10
12.7552183853
 20
8.7861137753
 30
0.0
 10
12.7584550905
 20
8.7955444529
 30
0.0
 10
12.761611651
 20
8.805442958
 30
0.0
 10
12.764681451
 20
8.8157887013
 30
0.0
 10
12.7676580407
 20
8.8265601495
 30
0.0
 10
12.7705351607
 20
8.837734865
 30
0.0
 10
12.7733067856
 20
8.8492895454
 30
0.0
 10
12.7759671032
 20
8.8612000903
 30
0.0
 10
12.7785105153
 20
8.8734416483
 30
0.0
 10
12.7809317165
 20
8.885988688
 30
0.0
 10
12.7840157117
 20
8.9032332903
 30
0.0
 10
12.7875204261
 20
8.9253590138
 30
0.0
 10
12.7911320404
 20
8.9524807684
 30
0.0
 10
12.7941531328
 20
8.9801631272
 30
0.0
 10
12.7965583965
 20
9.0081750662
 30
0.0
 10
12.7983276448
 20
9.0362829534
 30
0.0
 10
12.7994461951
 20
9.064252332
 30
0.0
 10
12.7999047739
 20
9.0918497612
 30
0.0
 10
12.7997329007
 20
9.1145091342
 30
0.0
 10
12.7992552487
 20
9.1322733462
 30
0.0
 10
12.7987339865
 20
9.1452638464
 30
0.0
 10
12.7980482498
 20
9.1579920725
 30
0.0
 10
12.7971994758
 20
9.1704314741
 30
0.0
 10
12.7961894754
 20
9.1825560833
 30
0.0
 10
12.7950203788
 20
9.1943405979
 30
0.0
 10
12.7936946496
 20
9.2057604323
 30
0.0
 10
12.7922151054
 20
9.2167917782
 30
0.0
 10
12.7905848776
 20
9.2274116485
 30
0.0
 10
12.7888073997
 20
9.2375979255
 30
0.0
 10
12.7868864361
 20
9.2473294239
 30
0.0
 10
12.7848260571
 20
9.2565859395
 30
0.0
 10
12.7826306064
 20
9.2653482837
 30
0.0
 10
12.7803046971
 20
9.273598352
 30
0.0
 10
12.7778532309
 20
9.2813191586
 30
0.0
 10
12.7752813131
 20
9.2884949766
 30
0.0
 10
12.7725942558
 20
9.2951110343
 30
0.0
 10
12.7702214352
 20
9.3002384644
 30
0.0
 10
12.7682630735
 20
9.3040411947
 30
0.0
 10
12.7667963554
 20
9.3066916021
 30
0.0
 10
12.7653050766
 20
9.3091923198
 30
0.0
 10
12.7637899886
 20
9.3115420877
 30
0.0
 10
12.7622517865
 20
9.3137396916
 30
0.0
 10
12.7606912853
 20
9.315783974
 30
0.0
 10
12.7591090972
 20
9.3176740765
 30
0.0
 10
12.7570161479
 20
9.3199388784
 30
0.0
 10
12.7548402036
 20
9.3219523469
 30
0.0
 10
12.7525794813
 20
9.3236718209
 30
0.0
 10
12.7509003741
 20
9.3247765631
 30
0.0
 10
12.749204175
 20
9.3257218161
 30
0.0
 10
12.7474916428
 20
9.326506859
 30
0.0
 10
12.745763743
 20
9.3271310718
 30
0.0
 10
12.7440214624
 20
9.3275937917
 30
0.0
 10
12.7422659593
 20
9.3278945551
 30
0.0
 10
12.74049841
 20
9.328033102
 30
0.0
 10
12.7387202487
 20
9.3280092637
 30
0.0
 10
12.7375374429
 20
9.3278861236
 30
0.0
 10
12.7369470162
 20
9.3277985906
 30
0.0
  0
SPLINE
  5
38E
100
AcDbEntity
  8
0
100
AcDbSpline
 62
7
  6
CONTINUOUS
 70
0
 71
3
 72
37
 73
33
 74
0
 42
0.0000001
 43
0.0000001
 44
0.0000000001
 40
0.0
 40
0.0
 40
0.0
 40
0.0
 40
0.0246577726
 40
0.0505245905
 40
0.0775428225
 40
0.1056497063
 40
0.1347779004
 40
0.1648559479
 40
0.1958087065
 40
0.2275577661
 40
0.260021817
 40
0.2931169965
 40
0.3267572185
 40
0.3608544961
 40
0.3953192794
 40
0.4300607741
 40
0.500004804
 40
0.5699486688
 40
0.6046899642
 40
0.6391544703
 40
0.6732513864
 40
0.7068911623
 40
0.7399858256
 40
0.7724492947
 40
0.804197703
 40
0.8351497322
 40
0.8652269683
 40
0.8943542934
 40
0.9224602631
 40
0.9494775299
 40
0.9753433221
 40
1.0
 40
1.0
 40
1.0
 40
1.0
 10
12.649694202
 20
8.808805106
 30
0.0
 10
12.6509073014
 20
8.8121639382
 30
0.0
 10
12.6532937868
 20
8.8190824276
 30
0.0
 10
12.6566850807
 20
8.8297897559
 30
0.0
 10
12.6599665297
 20
8.8410525109
 30
0.0
 10
12.6631287807
 20
8.8528389329
 30
0.0
 10
12.6661628595
 20
8.8651159097
 30
0.0
 10
12.669060149
 20
8.8778488716
 30
0.0
 10
12.6718124325
 20
8.8910019522
 30
0.0
 10
12.6744119038
 20
8.9045380826
 30
0.0
 10
12.676851193
 20
8.9184191057
 30
0.0
 10
12.679123385
 20
8.9326058828
 30
0.0
 10
12.6812220413
 20
8.9470584062
 30
0.0
 10
12.6831412166
 20
8.9617359011
 30
0.0
 10
12.6848755054
 20
8.976596989
 30
0.0
 10
12.6869392568
 20
8.9966447013
 30
0.0
 10
12.6890225666
 20
9.0218535152
 30
0.0
 10
12.6904386417
 20
9.0471085691
 30
0.0
 10
12.6911617278
 20
9.067249156
 30
0.0
 10
12.6914952355
 20
9.0822072585
 30
0.0
 10
12.6916202797
 20
9.0970090086
 30
0.0
 10
12.6915365036
 20
9.1116126784
 30
0.0
 10
12.6912441759
 20
9.1259770656
 30
0.0
 10
12.6907441486
 20
9.1400616588
 30
0.0
 10
12.6900378664
 20
9.1538267381
 30
0.0
 10
12.6891273595
 20
9.1672334917
 30
0.0
 10
12.6880152403
 20
9.180244129
 30
0.0
 10
12.686704705
 20
9.192821998
 30
0.0
 10
12.685199518
 20
9.2049316748
 30
0.0
 10
12.6835039914
 20
9.216539124
 30
0.0
 10
12.6816230127
 20
9.2276115964
 30
0.0
 10
12.6802142527
 20
9.2347929408
 30
0.0
 10
12.6794763619
 20
9.2382868997
 30
0.0
  0
SPLINE
  5
38F
100
AcDbEntity
  8
0
100
AcDbSpline
 62
7
  6
CONTINUOUS
 70
0
 71
3
 72
79
 73
75
 74
0
 42
0.0000001
 43
0.0000001
 44
0.0000000001
 40
0.0
 40
0.0
 40
0.0
 40
0.0
 40
0.0069315574
 40
0.0105986767
 40
0.0144066877
 40
0.0183600657
 40
0.022462566
 40
0.026717331
 40
0.0311268813
 40
0.0356932613
 40
0.0404180349
 40
0.0453023372
 40
0.0503469664
 40
0.0555523326
 40
0.060918574
 40
0.06644554
 40
0.0721328008
 40
0.0839850491
 40
0.0964680903
 40
0.1095712258
 40
0.1232811587
 40
0.1375823026
 40
0.1524570208
 40
0.1678858364
 40
0.1838476189
 40
0.2003197345
 40
0.2172781737
 40
0.2346976581
 40
0.252551756
 40
0.2708129854
 40
0.2894529036
 40
0.308442189
 40
0.327750719
 40
0.3473476593
 40
0.3672015419
 40
0.3872803383
 40
0.4075515304
 40
0.4485384014
 40
0.4898957113
 40
0.531353215
 40
0.572639826
 40
0.6134858936
 40
0.6336607498
 40
0.6536261848
 40
0.6733499231
 40
0.6928002158
 40
0.711945919
 40
0.7307565654
 40
0.7492024402
 40
0.7672546618
 40
0.7848852768
 40
0.8020673462
 40
0.818775033
 40
0.8349837026
 40
0.8506700379
 40
0.8658121762
 40
0.8803898387
 40
0.8943844882
 40
0.90777952
 40
0.9205605005
 40
0.9327154537
 40
0.944235197
 40
0.949755112
 40
0.9551143006
 40
0.9603126017
 40
0.9653501843
 40
0.9702274804
 40
0.9749452775
 40
0.9795047293
 40
0.9839073988
 40
0.9881554274
 40
0.9922514367
 40
0.9961984568
 40
1.0
 40
1.0
 40
1.0
 40
1.0
 10
11.3420638879
 20
10.6348431395
 30
0.0
 10
11.3401743136
 20
10.6372568867
 30
0.0
 10
11.3370840284
 20
10.6407937899
 30
0.0
 10
11.332584042
 20
10.6453053295
 30
0.0
 10
11.3288676925
 20
10.6487329939
 30
0.0
 10
11.3248755767
 20
10.6521392378
 30
0.0
 10
11.3206091603
 20
10.6555229296
 30
0.0
 10
11.3160703305
 20
10.6588825303
 30
0.0
 10
11.3112610622
 20
10.6622167048
 30
0.0
 10
11.3061834118
 20
10.6655239882
 30
0.0
 10
11.3008395782
 20
10.6688029753
 30
0.0
 10
11.2952318859
 20
10.6720522862
 30
0.0
 10
11.2893627407
 20
10.675270464
 30
0.0
 10
11.2832347114
 20
10.6784561698
 30
0.0
 10
11.2768504496
 20
10.6816079831
 30
0.0
 10
11.2702127226
 20
10.6847245536
 30
0.0
 10
11.2608998845
 20
10.6888885391
 30
0.0
 10
11.2486370498
 20
10.6939852677
 30
0.0
 10
11.2331545056
 20
10.699858295
 30
0.0
 10
11.2167356934
 20
10.7055591904
 30
0.0
 10
11.1994092626
 20
10.7110779375
 30
0.0
 10
11.1812052779
 20
10.7164048268
 30
0.0
 10
11.1621554646
 20
10.7215304777
 30
0.0
 10
11.1422930552
 20
10.7264458647
 30
0.0
 10
11.1216527382
 20
10.7311423239
 30
0.0
 10
11.1002705828
 20
10.7356115758
 30
0.0
 10
11.078183979
 20
10.739845736
 30
0.0
 10
11.0554315724
 20
10.7438373469
 30
0.0
 10
11.0320531899
 20
10.7475793782
 30
0.0
 10
11.0080897616
 20
10.751065237
 30
0.0
 10
10.9835832479
 20
10.7542887802
 30
0.0
 10
10.9585765701
 20
10.7572443261
 30
0.0
 10
10.9331135361
 20
10.7599266763
 30
0.0
 10
10.9072387544
 20
10.7623311116
 30
0.0
 10
10.8809975682
 20
10.7644533921
 30
0.0
 10
10.8544359167
 20
10.7662898032
 30
0.0
 10
10.8185246592
 20
10.768360287
 30
0.0
 10
10.7731777377
 20
10.7702067208
 30
0.0
 10
10.7184334407
 20
10.7712369543
 30
0.0
 10
10.6635469445
 20
10.7710822136
 30
0.0
 10
10.6089028625
 20
10.7697436207
 30
0.0
 10
10.5637033292
 20
10.7676411191
 30
0.0
 10
10.5279596854
 20
10.7653671888
 30
0.0
 10
10.501559507
 20
10.763381129
 30
0.0
 10
10.4755038677
 20
10.7611110882
 30
0.0
 10
10.4498383829
 20
10.7585610341
 30
0.0
 10
10.4246080262
 20
10.7557354687
 30
0.0
 10
10.3998569921
 20
10.7526393657
 30
0.0
 10
10.3756286371
 20
10.749278177
 30
0.0
 10
10.3519653959
 20
10.7456578164
 30
0.0
 10
10.3289087016
 20
10.7417846644
 30
0.0
 10
10.3064989116
 20
10.7376655495
 30
0.0
 10
10.2847752412
 20
10.7333077308
 30
0.0
 10
10.2637756937
 20
10.7287188868
 30
0.0
 10
10.2435369859
 20
10.7239071003
 30
0.0
 10
10.2240944717
 20
10.7188808589
 30
0.0
 10
10.2054820824
 20
10.713649023
 30
0.0
 10
10.1877322593
 20
10.7082208084
 30
0.0
 10
10.1708759147
 20
10.7026057653
 30
0.0
 10
10.1549422621
 20
10.6968137515
 30
0.0
 10
10.139959076
 20
10.6908549421
 30
0.0
 10
10.1281238459
 20
10.6856880511
 30
0.0
 10
10.1191603938
 20
10.6814704162
 30
0.0
 10
10.1127873072
 20
10.6783170798
 30
0.0
 10
10.1066705888
 20
10.6751299192
 30
0.0
 10
10.1008128618
 20
10.6719103419
 30
0.0
 10
10.0952166889
 20
10.6686597026
 30
0.0
 10
10.0898844964
 20
10.6653794276
 30
0.0
 10
10.0848185868
 20
10.6620709632
 30
0.0
 10
10.0800211583
 20
10.6587356588
 30
0.0
 10
10.0754942171
 20
10.655374947
 30
0.0
 10
10.071239718
 20
10.6519901634
 30
0.0
 10
10.0672596898
 20
10.6485829342
 30
0.0
 10
10.0647440574
 20
10.6462545183
 30
0.0
 10
10.0635348559
 20
10.6450865193
 30
0.0
  0
SPLINE
  5
390
100
AcDbEntity
  8
0
100
AcDbSpline
 62
7
  6
CONTINUOUS
 70
0
 71
3
 72
54
 73
50
 74
0
 42
0.0000001
 43
0.0000001
 44
0.0000000001
 40
0.0
 40
0.0
 40
0.0
 40
0.0
 40
0.0099472337
 40
0.0203698704
 40
0.0312644864
 40
0.0426260491
 40
0.0544480896
 40
0.0667227976
 40
0.0794412503
 40
0.0925934343
 40
0.1061683672
 40
0.1201542188
 40
0.1345382898
 40
0.1493071622
 40
0.1644467127
 40
0.1799421393
 40
0.1957780755
 40
0.2119385556
 40
0.2451662193
 40
0.2794882552
 40
0.3147604925
 40
0.3508330981
 40
0.3875515635
 40
0.424757678
 40
0.4622904654
 40
0.4999871083
 40
0.5376838689
 40
0.5752170109
 40
0.6124237148
 40
0.6491429955
 40
0.6852166394
 40
0.7204901413
 40
0.7548136583
 40
0.7880429977
 40
0.8200406729
 40
0.8355371161
 40
0.8506777018
 40
0.8654476672
 40
0.8798328731
 40
0.8938198766
 40
0.9073960261
 40
0.9205494374
 40
0.9332691503
 40
0.9455451651
 40
0.9573685051
 40
0.9687314146
 40
0.9796273864
 40
0.9900513765
 40
1.0
 40
1.0
 40
1.0
 40
1.0
 10
11.1774439653
 20
10.5524432501
 30
0.0
 10
11.1745450543
 20
10.5538889378
 30
0.0
 10
11.1685579462
 20
10.5567484948
 30
0.0
 10
11.1592410033
 20
10.5608576283
 30
0.0
 10
11.1493879443
 20
10.5648824088
 30
0.0
 10
11.1390102443
 20
10.5688180939
 30
0.0
 10
11.1281198263
 20
10.5726601046
 30
0.0
 10
11.1167292957
 20
10.5764039975
 30
0.0
 10
11.1048518258
 20
10.5800453738
 30
0.0
 10
11.0925011833
 20
10.5835799934
 30
0.0
 10
11.0796916947
 20
10.5870037428
 30
0.0
 10
11.0664382234
 20
10.5903125883
 30
0.0
 10
11.052756166
 20
10.5935026956
 30
0.0
 10
11.0386614189
 20
10.5965703217
 30
0.0
 10
11.0241703628
 20
10.5995118733
 30
0.0
 10
11.0092998532
 20
10.6023239339
 30
0.0
 10
10.9940671643
 20
10.6050032105
 30
0.0
 10
10.9731035509
 20
10.6084259694
 30
0.0
 10
10.9461222955
 20
10.6123388411
 30
0.0
 10
10.9128843023
 20
10.6164169246
 30
0.0
 10
10.8786474572
 20
10.6199006838
 30
0.0
 10
10.8435710575
 20
10.6227737469
 30
0.0
 10
10.8078181659
 20
10.6250225914
 30
0.0
 10
10.7715550826
 20
10.6266366428
 30
0.0
 10
10.7349504897
 20
10.6276083078
 30
0.0
 10
10.6981746782
 20
10.6279330124
 30
0.0
 10
10.661398743
 20
10.627609237
 30
0.0
 10
10.6247937797
 20
10.6266385057
 30
0.0
 10
10.588530081
 20
10.6250253809
 30
0.0
 10
10.5527763382
 20
10.6227774403
 30
0.0
 10
10.5176988377
 20
10.6199052638
 30
0.0
 10
10.4834607003
 20
10.616422368
 30
0.0
 10
10.4502210286
 20
10.6123451623
 30
0.0
 10
10.4181344397
 20
10.6076928103
 30
0.0
 10
10.3922112365
 20
10.6033094907
 30
0.0
 10
10.3721682854
 20
10.5995201881
 30
0.0
 10
10.3576761023
 20
10.5965789719
 30
0.0
 10
10.3435801915
 20
10.5935117142
 30
0.0
 10
10.3298969202
 20
10.5903219614
 30
0.0
 10
10.3166421939
 20
10.5870134347
 30
0.0
 10
10.3038314014
 20
10.5835900297
 30
0.0
 10
10.2914794171
 20
10.5800557146
 30
0.0
 10
10.2796005646
 20
10.5764146336
 30
0.0
 10
10.2682086075
 20
10.5726710491
 30
0.0
 10
10.2573167351
 20
10.5688292925
 30
0.0
 10
10.246937537
 20
10.5648938839
 30
0.0
 10
10.2370829472
 20
10.5608693581
 30
0.0
 10
10.2277644523
 20
10.5567604379
 30
0.0
 10
10.2217762666
 20
10.5539010655
 30
0.0
 10
10.2188768132
 20
10.5524554515
 30
0.0
  0
SPLINE
  5
391
100
AcDbEntity
  8
0
100
AcDbSpline
 62
7
  6
CONTINUOUS
 70
0
 71
3
 72
15
 73
11
 74
0
 42
0.0000001
 43
0.0000001
 44
0.0000000001
 40
0.0
 40
0.0
 40
0.0
 40
0.0
 40
0.1217167763
 40
0.2462346421
 40
0.3726355381
 40
0.4999834701
 40
0.6273334928
 40
0.7537406485
 40
0.8782688674
 40
1.0
 40
1.0
 40
1.0
 40
1.0
 10
12.6399098851
 20
8.9362816538
 30
0.0
 10
12.6410725032
 20
8.9433953584
 30
0.0
 10
12.6432418026
 20
8.9578168865
 30
0.0
 10
12.6460060234
 20
8.9797124879
 30
0.0
 10
12.6483034226
 20
9.0019973155
 30
0.0
 10
12.6501156986
 20
9.024495019
 30
0.0
 10
12.6514285089
 20
9.0470277566
 30
0.0
 10
12.6522314978
 20
9.0694174062
 30
0.0
 10
12.6525184194
 20
9.0914867716
 30
0.0
 10
12.6523621324
 20
9.1060711663
 30
0.0
 10
12.6521933761
 20
9.113278125
 30
0.0
  0
SPLINE
  5
392
100
AcDbEntity
  8
0
100
AcDbSpline
 62
7
  6
CONTINUOUS
 70
0
 71
3
 72
67
 73
63
 74
0
 42
0.0000001
 43
0.0000001
 44
0.0000000001
 40
0.0
 40
0.0
 40
0.0
 40
0.0
 40
0.0155846213
 40
0.0311170668
 40
0.0465968192
 40
0.0620259865
 40
0.0774060849
 40
0.0927394311
 40
0.1080287937
 40
0.1232773619
 40
0.1384887615
 40
0.1536669979
 40
0.1688164255
 40
0.1839417028
 40
0.199047742
 40
0.2141396589
 40
0.2292227208
 40
0.2443022904
 40
0.2593837676
 40
0.2744725309
 40
0.2895738804
 40
0.3046929831
 40
0.319834818
 40
0.3350041228
 40
0.3502053439
 40
0.3654425945
 40
0.3807196143
 40
0.3960397325
 40
0.4114058354
 40
0.426820342
 40
0.4422851868
 40
0.4578018036
 40
0.4733711146
 40
0.4889935259
 40
0.5046689328
 40
0.520396725
 40
0.5361757955
 40
0.5520045539
 40
0.5678809505
 40
0.5838024983
 40
0.599766298
 40
0.6157690657
 40
0.6318071682
 40
0.6478766587
 40
0.663973312
 40
0.6800926609
 40
0.7123721235
 40
0.7446846192
 40
0.7769900058
 40
0.8092483936
 40
0.8253521889
 40
0.8414301118
 40
0.8574778627
 40
0.8734914072
 40
0.889467014
 40
0.9054013002
 40
0.9212912382
 40
0.9371342307
 40
0.9529281326
 40
0.9686709488
 40
0.9843622542
 40
1.0
 40
1.0
 40
1.0
 40
1.0
 10
10.7744932852
 20
7.6245442693
 30
0.0
 10
10.7744932852
 20
7.6201269413
 30
0.0
 10
10.7742770877
 20
7.6113055086
 30
0.0
 10
10.7733012766
 20
7.5981289651
 30
0.0
 10
10.7716766134
 20
7.58506062
 30
0.0
 10
10.7694071787
 20
7.5721325683
 30
0.0
 10
10.7664982634
 20
7.5593757094
 30
0.0
 10
10.7629569008
 20
7.54682088
 30
0.0
 10
10.7587916082
 20
7.5344983238
 30
0.0
 10
10.7540123901
 20
7.5224377555
 30
0.0
 10
10.7486307272
 20
7.5106682698
 30
0.0
 10
10.7426595685
 20
7.4992182572
 30
0.0
 10
10.7361133122
 20
7.4881153274
 30
0.0
 10
10.7290077276
 20
7.4773862631
 30
0.0
 10
10.7213599252
 20
7.4670569561
 30
0.0
 10
10.7131883278
 20
7.4571523381
 30
0.0
 10
10.7045126587
 20
7.4476962888
 30
0.0
 10
10.6953538425
 20
7.4387116152
 30
0.0
 10
10.6857339644
 20
7.4302199936
 30
0.0
 10
10.6756762148
 20
7.4222419228
 30
0.0
 10
10.6652048727
 20
7.4147966239
 30
0.0
 10
10.6543452057
 20
7.4079020354
 30
0.0
 10
10.6431234098
 20
7.4015747734
 30
0.0
 10
10.6315665449
 20
7.3958301017
 30
0.0
 10
10.6197024949
 20
7.3906818453
 30
0.0
 10
10.6075598828
 20
7.3861423777
 30
0.0
 10
10.5951679907
 20
7.3822226169
 30
0.0
 10
10.5825566936
 20
7.3789320021
 30
0.0
 10
10.5697563975
 20
7.3762784407
 30
0.0
 10
10.5567979644
 20
7.3742682734
 30
0.0
 10
10.5437126253
 20
7.3729063096
 30
0.0
 10
10.5305319105
 20
7.3721958099
 30
0.0
 10
10.5172875786
 20
7.3721384715
 30
0.0
 10
10.5040115371
 20
7.3727343752
 30
0.0
 10
10.4907357624
 20
7.3739820484
 30
0.0
 10
10.4774922261
 20
7.3758784613
 30
0.0
 10
10.4643128235
 20
7.3784190415
 30
0.0
 10
10.4512292861
 20
7.3815976251
 30
0.0
 10
10.4382731096
 20
7.3854065215
 30
0.0
 10
10.425475483
 20
7.3898365383
 30
0.0
 10
10.4128672182
 20
7.3948770106
 30
0.0
 10
10.4004786682
 20
7.4005157736
 30
0.0
 10
10.3883396233
 20
7.4067392359
 30
0.0
 10
10.3764793733
 20
7.4135323358
 30
0.0
 10
10.3649261891
 20
7.4208789677
 30
0.0
 10
10.3499642162
 20
7.4313916733
 30
0.0
 10
10.3321697707
 20
7.4458248223
 30
0.0
 10
10.3124854107
 20
7.4650318569
 30
0.0
 10
10.2946430161
 20
7.4859532726
 30
0.0
 10
10.2814420105
 20
7.5046649617
 30
0.0
 10
10.2719658536
 20
7.5202856912
 30
0.0
 10
10.2654203468
 20
7.532292826
 30
0.0
 10
10.2594496523
 20
7.5445671728
 30
0.0
 10
10.2540679514
 20
7.5570794945
 30
0.0
 10
10.2492882743
 20
7.5697995937
 30
0.0
 10
10.2451221164
 20
7.5826968668
 30
0.0
 10
10.2415795261
 20
7.5957402612
 30
0.0
 10
10.2386690666
 20
7.6088984034
 30
0.0
 10
10.2363978255
 20
7.6221395274
 30
0.0
 10
10.2347711561
 20
7.6354320153
 30
0.0
 10
10.2337932002
 20
7.6487432477
 30
0.0
 10
10.2335747904
 20
7.6576247086
 30
0.0
 10
10.2335747904
 20
7.6620570943
 30
0.0
  0
SPLINE
  5
393
100
AcDbEntity
  8
0
100
AcDbSpline
 62
7
  6
CONTINUOUS
 70
0
 71
3
 72
67
 73
63
 74
0
 42
0.0000001
 43
0.0000001
 44
0.0000000001
 40
0.0
 40
0.0
 40
0.0
 40
0.0
 40
0.0155846213
 40
0.0311170668
 40
0.0465968192
 40
0.0620259865
 40
0.0774060849
 40
0.0927394311
 40
0.1080287937
 40
0.1232773619
 40
0.1384887615
 40
0.1536669979
 40
0.1688164255
 40
0.1839417028
 40
0.199047742
 40
0.2141396589
 40
0.2292227208
 40
0.2443022904
 40
0.2593837676
 40
0.2744725309
 40
0.2895738804
 40
0.3046929831
 40
0.319834818
 40
0.3350041228
 40
0.3502053439
 40
0.3654425945
 40
0.3807196143
 40
0.3960397325
 40
0.4114058354
 40
0.426820342
 40
0.4422851868
 40
0.4578018036
 40
0.4733711146
 40
0.4889935259
 40
0.5046689328
 40
0.520396725
 40
0.5361757955
 40
0.5520045539
 40
0.5678809505
 40
0.5838024983
 40
0.599766298
 40
0.6157690657
 40
0.6318071682
 40
0.6478766587
 40
0.663973312
 40
0.6800926609
 40
0.7123721235
 40
0.7446846192
 40
0.7769900058
 40
0.8092483936
 40
0.8253521889
 40
0.8414301118
 40
0.8574778627
 40
0.8734914072
 40
0.889467014
 40
0.9054013002
 40
0.9212912382
 40
0.9371342307
 40
0.9529281326
 40
0.9686709488
 40
0.9843622542
 40
1.0
 40
1.0
 40
1.0
 40
1.0
 10
10.2335747904
 20
7.6620570943
 30
0.0
 10
10.2335747904
 20
7.6664744223
 30
0.0
 10
10.2337909879
 20
7.675295855
 30
0.0
 10
10.234766799
 20
7.6884723985
 30
0.0
 10
10.2363914622
 20
7.7015407436
 30
0.0
 10
10.2386608969
 20
7.7144687953
 30
0.0
 10
10.2415698121
 20
7.7272256542
 30
0.0
 10
10.2451111748
 20
7.7397804836
 30
0.0
 10
10.2492764673
 20
7.7521030398
 30
0.0
 10
10.2540556854
 20
7.7641636081
 30
0.0
 10
10.2594373484
 20
7.7759330937
 30
0.0
 10
10.2654085071
 20
7.7873831064
 30
0.0
 10
10.2719547633
 20
7.7984860362
 30
0.0
 10
10.2790603479
 20
7.8092151005
 30
0.0
 10
10.2867081504
 20
7.8195444075
 30
0.0
 10
10.2948797477
 20
7.8294490255
 30
0.0
 10
10.3035554168
 20
7.8389050748
 30
0.0
 10
10.312714233
 20
7.8478897483
 30
0.0
 10
10.3223341112
 20
7.85638137
 30
0.0
 10
10.3323918607
 20
7.8643594408
 30
0.0
 10
10.3428632028
 20
7.8718047397
 30
0.0
 10
10.3537228698
 20
7.8786993282
 30
0.0
 10
10.3649446657
 20
7.8850265902
 30
0.0
 10
10.3765015306
 20
7.8907712619
 30
0.0
 10
10.3883655806
 20
7.8959195183
 30
0.0
 10
10.4005081928
 20
7.9004589859
 30
0.0
 10
10.4129000848
 20
7.9043787467
 30
0.0
 10
10.425511382
 20
7.9076693615
 30
0.0
 10
10.438311678
 20
7.9103229228
 30
0.0
 10
10.4512701111
 20
7.9123330902
 30
0.0
 10
10.4643554503
 20
7.913695054
 30
0.0
 10
10.477536165
 20
7.9144055537
 30
0.0
 10
10.4907804969
 20
7.9144628921
 30
0.0
 10
10.5040565384
 20
7.9138669884
 30
0.0
 10
10.5173323131
 20
7.9126193152
 30
0.0
 10
10.5305758495
 20
7.9107229023
 30
0.0
 10
10.543755252
 20
7.9081823221
 30
0.0
 10
10.5568387894
 20
7.9050037385
 30
0.0
 10
10.5697949659
 20
7.901194842
 30
0.0
 10
10.5825925925
 20
7.8967648253
 30
0.0
 10
10.5952008574
 20
7.891724353
 30
0.0
 10
10.6075894073
 20
7.88608559
 30
0.0
 10
10.6197284523
 20
7.8798621277
 30
0.0
 10
10.6315887022
 20
7.8730690278
 30
0.0
 10
10.6431418864
 20
7.8657223958
 30
0.0
 10
10.6581038594
 20
7.8552096903
 30
0.0
 10
10.6758983048
 20
7.8407765413
 30
0.0
 10
10.6955826648
 20
7.8215695067
 30
0.0
 10
10.7134250595
 20
7.800648091
 30
0.0
 10
10.726626065
 20
7.7819364019
 30
0.0
 10
10.7361022219
 20
7.7663156724
 30
0.0
 10
10.7426477288
 20
7.7543085376
 30
0.0
 10
10.7486184232
 20
7.7420341908
 30
0.0
 10
10.7540001242
 20
7.7295218691
 30
0.0
 10
10.7587798013
 20
7.7168017699
 30
0.0
 10
10.7629459591
 20
7.7039044968
 30
0.0
 10
10.7664885494
 20
7.6908611024
 30
0.0
 10
10.7693990089
 20
7.6777029602
 30
0.0
 10
10.7716702501
 20
7.6644618362
 30
0.0
 10
10.7732969195
 20
7.6511693483
 30
0.0
 10
10.7742748754
 20
7.6378581159
 30
0.0
 10
10.7744932852
 20
7.628976655
 30
0.0
 10
10.7744932852
 20
7.6245442693
 30
0.0
  0
SPLINE
  5
394
100
AcDbEntity
  8
0
100
AcDbSpline
 62
4
  6
CONTINUOUS
 70
0
 71
3
 72
387
 73
383
 74
0
 42
0.0000001
 43
0.0000001
 44
0.0000000001
 40
0.0
 40
0.0
 40
0.0
 40
0.0
 40
0.015625
 40
0.0234375
 40
0.03125
 40
0.0390625
 40
0.04296875
 40
0.046875
 40
0.05078125
 40
0.0546875
 40
0.056640625
 40
0.05859375
 40
0.0595703125
 40
0.060546875
 40
0.0615234375
 40
0.0620117188
 40
0.0625
 40
0.0629882812
 40
0.0634765625
 40
0.064453125
 40
0.0654296875
 40
0.06640625
 40
0.068359375
 40
0.0703125
 40
0.07421875
 40
0.078125
 40
0.08203125
 40
0.0859375
 40
0.09375
 40
0.1015625
 40
0.10546875
 40
0.109375
 40
0.11328125
 40
0.1171875
 40
0.119140625
 40
0.12109375
 40
0.1220703125
 40
0.123046875
 40
0.1240234375
 40
0.1245117188
 40
0.1247558594
 40
0.125
 40
0.1252441406
 40
0.1254882812
 40
0.1259765625
 40
0.126953125
 40
0.1279296875
 40
0.12890625
 40
0.130859375
 40
0.1328125
 40
0.13671875
 40
0.140625
 40
0.14453125
 40
0.1484375
 40
0.15625
 40
0.1640625
 40
0.16796875
 40
0.171875
 40
0.17578125
 40
0.1796875
 40
0.181640625
 40
0.18359375
 40
0.1845703125
 40
0.185546875
 40
0.1865234375
 40
0.1870117188
 40
0.1872558594
 40
0.1875
 40
0.1877441406
 40
0.1879882812
 40
0.1884765625
 40
0.189453125
 40
0.1904296875
 40
0.19140625
 40
0.193359375
 40
0.1953125
 40
0.19921875
 40
0.203125
 40
0.20703125
 40
0.2109375
 40
0.21875
 40
0.2265625
 40
0.23046875
 40
0.234375
 40
0.23828125
 40
0.2421875
 40
0.244140625
 40
0.24609375
 40
0.2470703125
 40
0.248046875
 40
0.2490234375
 40
0.2495117188
 40
0.2497558594
 40
0.25
 40
0.2502441406
 40
0.2504882812
 40
0.2509765625
 40
0.251953125
 40
0.2529296875
 40
0.25390625
 40
0.255859375
 40
0.2578125
 40
0.26171875
 40
0.265625
 40
0.26953125
 40
0.2734375
 40
0.28125
 40
0.2890625
 40
0.29296875
 40
0.296875
 40
0.30078125
 40
0.3046875
 40
0.306640625
 40
0.30859375
 40
0.3095703125
 40
0.310546875
 40
0.3115234375
 40
0.3120117188
 40
0.3122558594
 40
0.3125
 40
0.3127441406
 40
0.3129882812
 40
0.3134765625
 40
0.314453125
 40
0.3154296875
 40
0.31640625
 40
0.318359375
 40
0.3203125
 40
0.32421875
 40
0.328125
 40
0.33203125
 40
0.3359375
 40
0.34375
 40
0.3515625
 40
0.35546875
 40
0.359375
 40
0.36328125
 40
0.3671875
 40
0.369140625
 40
0.37109375
 40
0.3720703125
 40
0.373046875
 40
0.3740234375
 40
0.3745117188
 40
0.3747558594
 40
0.375
 40
0.3752441406
 40
0.3754882812
 40
0.3759765625
 40
0.376953125
 40
0.3779296875
 40
0.37890625
 40
0.380859375
 40
0.3828125
 40
0.38671875
 40
0.390625
 40
0.39453125
 40
0.3984375
 40
0.40625
 40
0.4140625
 40
0.41796875
 40
0.421875
 40
0.42578125
 40
0.4296875
 40
0.431640625
 40
0.43359375
 40
0.4345703125
 40
0.435546875
 40
0.4365234375
 40
0.4370117188
 40
0.4372558594
 40
0.4375
 40
0.4377441406
 40
0.4379882812
 40
0.4384765625
 40
0.439453125
 40
0.4404296875
 40
0.44140625
 40
0.443359375
 40
0.4453125
 40
0.44921875
 40
0.453125
 40
0.45703125
 40
0.4609375
 40
0.46875
 40
0.4765625
 40
0.48046875
 40
0.484375
 40
0.48828125
 40
0.4921875
 40
0.494140625
 40
0.49609375
 40
0.4970703125
 40
0.498046875
 40
0.4990234375
 40
0.4995117188
 40
0.4997558594
 40
0.5
 40
0.5002441406
 40
0.5004882812
 40
0.5009765625
 40
0.501953125
 40
0.5029296875
 40
0.50390625
 40
0.505859375
 40
0.5078125
 40
0.51171875
 40
0.515625
 40
0.51953125
 40
0.5234375
 40
0.53125
 40
0.5390625
 40
0.54296875
 40
0.546875
 40
0.55078125
 40
0.5546875
 40
0.556640625
 40
0.55859375
 40
0.5595703125
 40
0.560546875
 40
0.5615234375
 40
0.5620117188
 40
0.5625
 40
0.5629882812
 40
0.5634765625
 40
0.564453125
 40
0.5654296875
 40
0.56640625
 40
0.568359375
 40
0.5703125
 40
0.57421875
 40
0.578125
 40
0.58203125
 40
0.5859375
 40
0.59375
 40
0.6015625
 40
0.60546875
 40
0.609375
 40
0.61328125
 40
0.6171875
 40
0.619140625
 40
0.62109375
 40
0.6220703125
 40
0.623046875
 40
0.6240234375
 40
0.6245117188
 40
0.625
 40
0.6254882812
 40
0.6259765625
 40
0.626953125
 40
0.6279296875
 40
0.62890625
 40
0.630859375
 40
0.6328125
 40
0.63671875
 40
0.640625
 40
0.64453125
 40
0.6484375
 40
0.65625
 40
0.6640625
 40
0.66796875
 40
0.671875
 40
0.67578125
 40
0.6796875
 40
0.681640625
 40
0.68359375
 40
0.6845703125
 40
0.685546875
 40
0.6865234375
 40
0.6870117188
 40
0.6875
 40
0.6879882812
 40
0.6884765625
 40
0.689453125
 40
0.6904296875
 40
0.69140625
 40
0.693359375
 40
0.6953125
 40
0.69921875
 40
0.703125
 40
0.70703125
 40
0.7109375
 40
0.71875
 40
0.7265625
 40
0.73046875
 40
0.734375
 40
0.73828125
 40
0.7421875
 40
0.744140625
 40
0.74609375
 40
0.7470703125
 40
0.748046875
 40
0.7490234375
 40
0.7495117188
 40
0.75
 40
0.7504882812
 40
0.7509765625
 40
0.751953125
 40
0.7529296875
 40
0.75390625
 40
0.755859375
 40
0.7578125
 40
0.76171875
 40
0.765625
 40
0.76953125
 40
0.7734375
 40
0.78125
 40
0.7890625
 40
0.79296875
 40
0.796875
 40
0.80078125
 40
0.8046875
 40
0.806640625
 40
0.80859375
 40
0.8095703125
 40
0.810546875
 40
0.8115234375
 40
0.8120117188
 40
0.8125
 40
0.8129882812
 40
0.8134765625
 40
0.814453125
 40
0.8154296875
 40
0.81640625
 40
0.818359375
 40
0.8203125
 40
0.82421875
 40
0.828125
 40
0.83203125
 40
0.8359375
 40
0.84375
 40
0.8515625
 40
0.85546875
 40
0.859375
 40
0.86328125
 40
0.8671875
 40
0.869140625
 40
0.87109375
 40
0.8720703125
 40
0.873046875
 40
0.8740234375
 40
0.8745117188
 40
0.875
 40
0.8754882812
 40
0.8759765625
 40
0.876953125
 40
0.8779296875
 40
0.87890625
 40
0.880859375
 40
0.8828125
 40
0.88671875
 40
0.890625
 40
0.89453125
 40
0.8984375
 40
0.90625
 40
0.9140625
 40
0.91796875
 40
0.921875
 40
0.92578125
 40
0.9296875
 40
0.931640625
 40
0.93359375
 40
0.9345703125
 40
0.935546875
 40
0.9365234375
 40
0.9370117188
 40
0.9375
 40
0.9379882812
 40
0.9384765625
 40
0.939453125
 40
0.9404296875
 40
0.94140625
 40
0.943359375
 40
0.9453125
 40
0.94921875
 40
0.953125
 40
0.95703125
 40
0.9609375
 40
0.96875
 40
0.9765625
 40
0.984375
 40
1.0
 40
1.0
 40
1.0
 40
1.0
 10
10.3809750547
 20
8.847264694
 30
0.0
 10
10.3841082416
 20
8.8473546184
 30
0.0
 10
10.388808022
 20
8.847489505
 30
0.0
 10
10.3950743958
 20
8.8476693539
 30
0.0
 10
10.3997741762
 20
8.8478042404
 30
0.0
 10
10.4036906598
 20
8.8479166464
 30
0.0
 10
10.4068238469
 20
8.8480065698
 30
0.0
 10
10.4091737365
 20
8.848074016
 30
0.0
 10
10.4115236288
 20
8.8481414487
 30
0.0
 10
10.4134818642
 20
8.8481976843
 30
0.0
 10
10.4150484707
 20
8.8482425796
 30
0.0
 10
10.4160275584
 20
8.8482708511
 30
0.0
 10
10.4168109233
 20
8.848292983
 30
0.0
 10
10.4173981875
 20
8.8483109107
 30
0.0
 10
10.4178883999
 20
8.8483216236
 30
0.0
 10
10.4182787182
 20
8.8483396738
 30
0.0
 10
10.4185765164
 20
8.8483273081
 30
0.0
 10
10.4188550024
 20
8.8484138157
 30
0.0
 10
10.4192330631
 20
8.8484946214
 30
0.0
 10
10.4197033244
 20
8.8486074783
 30
0.0
 10
10.4202686287
 20
8.8487378345
 30
0.0
 10
10.4210220217
 20
8.8489134143
 30
0.0
 10
10.4219638814
 20
8.8491322825
 30
0.0
 10
10.4234707908
 20
8.8494828106
 30
0.0
 10
10.4253544502
 20
8.8499208544
 30
0.0
 10
10.4276148317
 20
8.8504465568
 30
0.0
 10
10.4298752159
 20
8.8509722459
 30
0.0
 10
10.4328890605
 20
8.8516731694
 30
0.0
 10
10.4366563665
 20
8.8525493222
 30
0.0
 10
10.4404236726
 20
8.8534254753
 30
0.0
 10
10.4434375173
 20
8.8541263982
 30
0.0
 10
10.4456979012
 20
8.8546520891
 30
0.0
 10
10.4479582834
 20
8.8551777846
 30
0.0
 10
10.4498419409
 20
8.8556158501
 30
0.0
 10
10.4513488542
 20
8.855966334
 30
0.0
 10
10.4522907038
 20
8.8561853147
 30
0.0
 10
10.4530441176
 20
8.8563606637
 30
0.0
 10
10.4536093584
 20
8.8564917251
 30
0.0
 10
10.4540798183
 20
8.8566023754
 30
0.0
 10
10.4544102668
 20
8.8566770195
 30
0.0
 10
10.4545973356
 20
8.8567240627
 30
0.0
 10
10.4547425921
 20
8.8567469798
 30
0.0
 10
10.4548689083
 20
8.8568171632
 30
0.0
 10
10.4550439364
 20
8.8568942541
 30
0.0
 10
10.4553471576
 20
8.8570368447
 30
0.0
 10
10.45578194
 20
8.8572365296
 30
0.0
 10
10.4563029901
 20
8.8574778704
 30
0.0
 10
10.456997964
 20
8.8577990577
 30
0.0
 10
10.4578665992
 20
8.8582007475
 30
0.0
 10
10.4592564614
 20
8.8588433362
 30
0.0
 10
10.4609937733
 20
8.8596466116
 30
0.0
 10
10.4630785545
 20
8.8606105251
 30
0.0
 10
10.4651633338
 20
8.8615744431
 30
0.0
 10
10.4679430402
 20
8.8628596655
 30
0.0
 10
10.471417673
 20
8.8644661942
 30
0.0
 10
10.4748923059
 20
8.8660727224
 30
0.0
 10
10.477672012
 20
8.8673579455
 30
0.0
 10
10.4797567922
 20
8.8683218616
 30
0.0
 10
10.4818415701
 20
8.8692857822
 30
0.0
 10
10.4835788922
 20
8.8700890355
 30
0.0
 10
10.4849687337
 20
8.8707316691
 30
0.0
 10
10.4858374215
 20
8.8711332447
 30
0.0
 10
10.4865322873
 20
8.8714546663
 30
0.0
 10
10.4870536679
 20
8.8716952915
 30
0.0
 10
10.487487416
 20
8.8718972155
 30
0.0
 10
10.4877924836
 20
8.8720358088
 30
0.0
 10
10.4879645533
 20
8.8721193045
 30
0.0
 10
10.4880999571
 20
8.8721698144
 30
0.0
 10
10.4882110821
 20
8.8722666219
 30
0.0
 10
10.4883677175
 20
8.8723795495
 30
0.0
 10
10.4886378837
 20
8.8725846969
 30
0.0
 10
10.4890258983
 20
8.8728738309
 30
0.0
 10
10.4894906328
 20
8.8732224756
 30
0.0
 10
10.4901105872
 20
8.8736867469
 30
0.0
 10
10.4908854246
 20
8.8742672875
 30
0.0
 10
10.4921252235
 20
8.8751960399
 30
0.0
 10
10.4936749519
 20
8.876357019
 30
0.0
 10
10.4955346347
 20
8.8777501774
 30
0.0
 10
10.4973943151
 20
8.8791433402
 30
0.0
 10
10.4998738898
 20
8.8810008891
 30
0.0
 10
10.5029733579
 20
8.8833228257
 30
0.0
 10
10.5060728262
 20
8.885644762
 30
0.0
 10
10.5085524005
 20
8.8875023115
 30
0.0
 10
10.5104120822
 20
8.8888954726
 30
0.0
 10
10.5122717602
 20
8.8902886372
 30
0.0
 10
10.5138215034
 20
8.8914495971
 30
0.0
 10
10.515061272
 20
8.8923783886
 30
0.0
 10
10.5158361866
 20
8.8929588297
 30
0.0
 10
10.5164559827
 20
8.8934233054
 30
0.0
 10
10.5169212008
 20
8.8937713257
 30
0.0
 10
10.5173077025
 20
8.894062413
 30
0.0
 10
10.5175805694
 20
8.8942640735
 30
0.0
 10
10.5177328776
 20
8.894382588
 30
0.0
 10
10.5178572944
 20
8.8944622343
 30
0.0
 10
10.5179427763
 20
8.8945771989
 30
0.0
 10
10.5180703332
 20
8.8947181655
 30
0.0
 10
10.5182872302
 20
8.894970597
 30
0.0
 10
10.5186003911
 20
8.8953282125
 30
0.0
 10
10.5189747682
 20
8.8957586356
 30
0.0
 10
10.5194744322
 20
8.8963320844
 30
0.0
 10
10.5200988429
 20
8.897049049
 30
0.0
 10
10.5210979947
 20
8.8981961065
 30
0.0
 10
10.522346902
 20
8.8996299579
 30
0.0
 10
10.5238456046
 20
8.9013505669
 30
0.0
 10
10.5253443036
 20
8.9030711793
 30
0.0
 10
10.5273425701
 20
8.905365328
 30
0.0
 10
10.5298404028
 20
8.9082330143
 30
0.0
 10
10.5323382358
 20
8.9111007004
 30
0.0
 10
10.5343365017
 20
8.9133948495
 30
0.0
 10
10.5358352023
 20
8.9151154606
 30
0.0
 10
10.5373338989
 20
8.9168360746
 30
0.0
 10
10.538582825
 20
8.9182699105
 30
0.0
 10
10.5395819383
 20
8.9194169996
 30
0.0
 10
10.5402064469
 20
8.9201338839
 30
0.0
 10
10.5407059101
 20
8.9207074976
 30
0.0
 10
10.5410809009
 20
8.9211374171
 30
0.0
 10
10.5413921416
 20
8.9214966081
 30
0.0
 10
10.5416124665
 20
8.921746227
 30
0.0
 10
10.5417345308
 20
8.9218917001
 30
0.0
 10
10.5418368842
 20
8.9219928222
 30
0.0
 10
10.541897935
 20
8.9221244583
 30
0.0
 10
10.541993743
 20
8.9222893294
 30
0.0
 10
10.5421546945
 20
8.9225828129
 30
0.0
 10
10.5423881345
 20
8.9229994824
 30
0.0
 10
10.5426667605
 20
8.9235005955
 30
0.0
 10
10.5430387864
 20
8.9241683587
 30
0.0
 10
10.5435036391
 20
8.9250031955
 30
0.0
 10
10.544247504
 20
8.9263388601
 30
0.0
 10
10.5451773005
 20
8.9280084664
 30
0.0
 10
10.5462930711
 20
8.9300119829
 30
0.0
 10
10.5474088378
 20
8.9320155024
 30
0.0
 10
10.5488965281
 20
8.9346868608
 30
0.0
 10
10.5507561405
 20
8.938026059
 30
0.0
 10
10.5526157532
 20
8.9413652571
 30
0.0
 10
10.5541034429
 20
8.9440366157
 30
0.0
 10
10.5552192114
 20
8.9460401342
 30
0.0
 10
10.5563349754
 20
8.9480436547
 30
0.0
 10
10.5572647925
 20
8.9497132486
 30
0.0
 10
10.5580086155
 20
8.9510489385
 30
0.0
 10
10.5584735746
 20
8.9518837109
 30
0.0
 10
10.5588453822
 20
8.9525516063
 30
0.0
 10
10.5591246751
 20
8.9530523156
 30
0.0
 10
10.5593560285
 20
8.9534702486
 30
0.0
 10
10.559520705
 20
8.9537614764
 30
0.0
 10
10.5596105445
 20
8.9539299617
 30
0.0
 10
10.5596899284
 20
8.9540504963
 30
0.0
 10
10.559723426
 20
8.9541933137
 30
0.0
 10
10.5597840951
 20
8.9543759644
 30
0.0
 10
10.5598828087
 20
8.9546992245
 30
0.0
 10
10.5600277269
 20
8.9551591313
 30
0.0
 10
10.5601999599
 20
8.9557118299
 30
0.0
 10
10.5604301868
 20
8.9564484784
 30
0.0
 10
10.5607177709
 20
8.9573693858
 30
0.0
 10
10.561178017
 20
8.9588427836
 30
0.0
 10
10.5617532863
 20
8.9606845494
 30
0.0
 10
10.5624436258
 20
8.9628946604
 30
0.0
 10
10.563133961
 20
8.9651047735
 30
0.0
 10
10.5640544094
 20
8.9680515902
 30
0.0
 10
10.5652049694
 20
8.9717351114
 30
0.0
 10
10.5663555298
 20
8.9754186324
 30
0.0
 10
10.5672759776
 20
8.9783654494
 30
0.0
 10
10.5679663147
 20
8.9805755618
 30
0.0
 10
10.5686566471
 20
8.9827856758
 30
0.0
 10
10.5692319386
 20
8.9846274321
 30
0.0
 10
10.5696921393
 20
8.9861008491
 30
0.0
 10
10.5699798388
 20
8.9870217077
 30
0.0
 10
10.5702098289
 20
8.9877584564
 30
0.0
 10
10.5703827855
 20
8.9883108487
 30
0.0
 10
10.5705254397
 20
8.9887717138
 30
0.0
 10
10.5706281949
 20
8.9890932633
 30
0.0
 10
10.5706823883
 20
8.9892786549
 30
0.0
 10
10.5707357774
 20
8.9894130531
 30
0.0
 10
10.570740452
 20
8.9895652088
 30
0.0
 10
10.570763677
 20
8.989761889
 30
0.0
 10
10.5707964038
 20
8.9901089653
 30
0.0
 10
10.5708472954
 20
8.9906032798
 30
0.0
 10
10.5709065937
 20
8.991197103
 30
0.0
 10
10.5709862769
 20
8.9919886417
 30
0.0
 10
10.571085669
 20
8.9929781423
 30
0.0
 10
10.5712448148
 20
8.9945613002
 30
0.0
 10
10.5714437065
 20
8.9965402622
 30
0.0
 10
10.5716823938
 20
8.9989150104
 30
0.0
 10
10.5719210766
 20
9.0012897603
 30
0.0
 10
10.5722393218
 20
9.0044560928
 30
0.0
 10
10.5726371278
 20
9.0084140087
 30
0.0
 10
10.5730349342
 20
9.0123719245
 30
0.0
 10
10.5733531787
 20
9.0155382572
 30
0.0
 10
10.5735918635
 20
9.0179130067
 30
0.0
 10
10.5738305433
 20
9.0202877561
 30
0.0
 10
10.5740294583
 20
9.0222667143
 30
0.0
 10
10.5741885565
 20
9.0238498801
 30
0.0
 10
10.5742880698
 20
9.0248393603
 30
0.0
 10
10.5743675043
 20
9.025630941
 30
0.0
 10
10.5744275623
 20
9.0262246357
 30
0.0
 10
10.5744760772
 20
9.0267193523
 30
0.0
 10
10.5745130468
 20
9.0270657108
 30
0.0
 10
10.5745294737
 20
9.0272635411
 30
0.0
 10
10.57455503
 20
9.0274121643
 30
0.0
 10
10.5745299909
 20
9.0275598297
 30
0.0
 10
10.5745142536
 20
9.0277570511
 30
0.0
 10
10.5744784907
 20
9.0281020327
 30
0.0
 10
10.5744316997
 20
9.028594945
 30
0.0
 10
10.5743737105
 20
9.029186405
 30
0.0
 10
10.5742970343
 20
9.0299750304
 30
0.0
 10
10.5742009689
 20
9.030960808
 30
0.0
 10
10.5740473874
 20
9.0325380545
 30
0.0
 10
10.5738553682
 20
9.0345096119
 30
0.0
 10
10.5736249633
 20
9.036875481
 30
0.0
 10
10.5733945535
 20
9.0392413501
 30
0.0
 10
10.5730873422
 20
9.0423958422
 30
0.0
 10
10.5727033275
 20
9.0463389574
 30
0.0
 10
10.5723193126
 20
9.0502820725
 30
0.0
 10
10.5720121018
 20
9.0534365647
 30
0.0
 10
10.5717816903
 20
9.0558024335
 30
0.0
 10
10.5715512919
 20
9.0581683039
 30
0.0
 10
10.5713592523
 20
9.0601398573
 30
0.0
 10
10.5712057124
 20
9.0617171118
 30
0.0
 10
10.571109541
 20
9.062702869
 30
0.0
 10
10.5710330825
 20
9.0634915364
 30
0.0
 10
10.570974428
 20
9.0640828683
 30
0.0
 10
10.5709297187
 20
9.0645761813
 30
0.0
 10
10.5708845998
 20
9.0649696286
 30
0.0
 10
10.5708763131
 20
9.0652680015
 30
0.0
 10
10.5707704925
 20
9.0655538262
 30
0.0
 10
10.5706634682
 20
9.065939309
 30
0.0
 10
10.5705179986
 20
9.0664196587
 30
0.0
 10
10.5703484384
 20
9.066996722
 30
0.0
 10
10.5701206106
 20
9.0677659149
 30
0.0
 10
10.5698364242
 20
9.068727483
 30
0.0
 10
10.5693813916
 20
9.070265949
 30
0.0
 10
10.5688127155
 20
9.0721890462
 30
0.0
 10
10.5681302551
 20
9.0744967565
 30
0.0
 10
10.5674478078
 20
9.0768044685
 30
0.0
 10
10.5665378735
 20
9.0798814173
 30
0.0
 10
10.5654004573
 20
9.0837276035
 30
0.0
 10
10.5642630401
 20
9.0875737895
 30
0.0
 10
10.5633531075
 20
9.0906507387
 30
0.0
 10
10.5626706549
 20
9.0929584495
 30
0.0
 10
10.5619882146
 20
9.0952661645
 30
0.0
 10
10.5614194758
 20
9.0971892471
 30
0.0
 10
10.5609645712
 20
9.0987277429
 30
0.0
 10
10.5606800589
 20
9.0996892352
 30
0.0
 10
10.5604529002
 20
9.1004585837
 30
0.0
 10
10.5602812958
 20
9.1010351716
 30
0.0
 10
10.5601422219
 20
9.1015170087
 30
0.0
 10
10.5600221492
 20
9.1018994569
 30
0.0
 10
10.5599561777
 20
9.1021945492
 30
0.0
 10
10.5597982808
 20
9.1024581276
 30
0.0
 10
10.5596198624
 20
9.1028205737
 30
0.0
 10
10.5593858223
 20
9.1032698546
 30
0.0
 10
10.5591096899
 20
9.1038106081
 30
0.0
 10
10.5587398662
 20
9.1045310482
 30
0.0
 10
10.5582781506
 20
9.1054317917
 30
0.0
 10
10.5575390904
 20
9.1068728732
 30
0.0
 10
10.5566153734
 20
9.1086742622
 30
0.0
 10
10.5555068666
 20
9.1108359131
 30
0.0
 10
10.5543983721
 20
9.1129975682
 30
0.0
 10
10.5529203752
 20
9.1158797736
 30
0.0
 10
10.5510728807
 20
9.1194825308
 30
0.0
 10
10.5492253851
 20
9.1230852877
 30
0.0
 10
10.5477473899
 20
9.1259674937
 30
0.0
 10
10.5466388904
 20
9.1281291467
 30
0.0
 10
10.5455304029
 20
9.1302908055
 30
0.0
 10
10.5446066257
 20
9.13209217
 30
0.0
 10
10.5438676881
 20
9.1335333014
 30
0.0
 10
10.5434056607
 20
9.1344339178
 30
0.0
 10
10.5430364769
 20
9.1351546189
 30
0.0
 10
10.5427583897
 20
9.1356945752
 30
0.0
 10
10.5425304656
 20
9.1361463504
 30
0.0
 10
10.5423395695
 20
9.1365037074
 30
0.0
 10
10.5422197788
 20
9.1367828278
 30
0.0
 10
10.542010741
 20
9.1370195693
 30
0.0
 10
10.541763199
 20
9.1373500282
 30
0.0
 10
10.5414430756
 20
9.1377580228
 30
0.0
 10
10.5410635057
 20
9.1382497904
 30
0.0
 10
10.5405558135
 20
9.138904721
 30
0.0
 10
10.5399217457
 20
9.1397236444
 30
0.0
 10
10.5389069313
 20
9.1410337765
 30
0.0
 10
10.5376385182
 20
9.1426714914
 30
0.0
 10
10.5361163775
 20
9.144636728
 30
0.0
 10
10.5345942488
 20
9.1466019702
 30
0.0
 10
10.5325647397
 20
9.1492222912
 30
0.0
 10
10.5300278549
 20
9.1524976933
 30
0.0
 10
10.5274909692
 20
9.1557730947
 30
0.0
 10
10.5254614616
 20
9.1583934168
 30
0.0
 10
10.5239393285
 20
9.1603586558
 30
0.0
 10
10.5224172043
 20
9.1623239047
 30
0.0
 10
10.52114874
 20
9.1639615813
 30
0.0
 10
10.52013403
 20
9.1652717916
 30
0.0
 10
10.5194996964
 20
9.1660905158
 30
0.0
 10
10.5189925498
 20
9.1667458552
 30
0.0
 10
10.5186113129
 20
9.167236374
 30
0.0
 10
10.518296405
 20
9.1676482757
 30
0.0
 10
10.5180382225
 20
9.1679707633
 30
0.0
 10
10.5178616803
 20
9.1682318486
 30
0.0
 10
10.5176198878
 20
9.1684195725
 30
0.0
 10
10.5173202905
 20
9.1686954971
 30
0.0
 10
10.5169379739
 20
9.1690316107
 30
0.0
 10
10.5164825412
 20
9.1694387104
 30
0.0
 10
10.5158741285
 20
9.1699801954
 30
0.0
 10
10.5151140129
 20
9.1706575019
 30
0.0
 10
10.5138976042
 20
9.1717409406
 30
0.0
 10
10.5123771701
 20
9.1730953253
 30
0.0
 10
10.5105526163
 20
9.1747205499
 30
0.0
 10
10.5087280712
 20
9.1763457844
 30
0.0
 10
10.5062953415
 20
9.1785127603
 30
0.0
 10
10.5032544304
 20
9.1812214815
 30
0.0
 10
10.5002135186
 20
9.1839302018
 30
0.0
 10
10.4977807899
 20
9.1860971792
 30
0.0
 10
10.4959562415
 20
9.1877224094
 30
0.0
 10
10.4941317005
 20
9.1893476503
 30
0.0
 10
10.4926112264
 20
9.1907019845
 30
0.0
 10
10.4913948992
 20
9.1917855261
 30
0.0
 10
10.4906345762
 20
9.1924625707
 30
0.0
 10
10.4900265893
 20
9.1930045931
 30
0.0
 10
10.4895698558
 20
9.1934100512
 30
0.0
 10
10.489191609
 20
9.1937513009
 30
0.0
 10
10.4888837085
 20
9.1940167468
 30
0.0
 10
10.4886672737
 20
9.1942364722
 30
0.0
 10
10.4883955279
 20
9.1943774106
 30
0.0
 10
10.488052521
 20
9.1945928499
 30
0.0
 10
10.4876171335
 20
9.1948527065
 30
0.0
 10
10.4870975059
 20
9.1951685762
 30
0.0
 10
10.486403678
 20
9.195588324
 30
0.0
 10
10.4855367325
 20
9.1961134922
 30
0.0
 10
10.48414943
 20
9.1969534911
 30
0.0
 10
10.482415367
 20
9.1980035824
 30
0.0
 10
10.4803344635
 20
9.1992636523
 30
0.0
 10
10.4782535674
 20
9.2005237328
 30
0.0
 10
10.4754790367
 20
9.2022038364
 30
0.0
 10
10.4720108743
 20
9.2043039673
 30
0.0
 10
10.4685427114
 20
9.2064040972
 30
0.0
 10
10.4657681815
 20
9.2080842024
 30
0.0
 10
10.4636872828
 20
9.2093442781
 30
0.0
 10
10.4616063893
 20
9.2106043659
 30
0.0
 10
10.4598722953
 20
9.2116544015
 30
0.0
 10
10.458485056
 20
9.212494514
 30
0.0
 10
10.4576179496
 20
9.2130193932
 30
0.0
 10
10.456924452
 20
9.2134397341
 30
0.0
 10
10.4564038153
 20
9.2137537919
 30
0.0
 10
10.4559715848
 20
9.2140193174
 30
0.0
 10
10.455622137
 20
9.214223191
 30
0.0
 10
10.4553700614
 20
9.2143994503
 30
0.0
 10
10.4550797763
 20
9.2144865668
 30
0.0
 10
10.4547060766
 20
9.2146338609
 30
0.0
 10
10.4542343727
 20
9.214807295
 30
0.0
 10
10.453670288
 20
9.2150199889
 30
0.0
 10
10.4529174906
 20
9.2153019834
 30
0.0
 10
10.4519767281
 20
9.2156550235
 30
0.0
 10
10.4504713772
 20
9.2162195819
 30
0.0
 10
10.4485897335
 20
9.2169253849
 30
0.0
 10
10.4463317418
 20
9.2177723034
 30
0.0
 10
10.4440737552
 20
9.218619234
 30
0.0
 10
10.4410631047
 20
9.2197484706
 30
0.0
 10
10.4372997922
 20
9.2211600179
 30
0.0
 10
10.4335364793
 20
9.2225715642
 30
0.0
 10
10.4305258294
 20
9.2237008025
 30
0.0
 10
10.4282678409
 20
9.2245477279
 30
0.0
 10
10.4260098563
 20
9.2253946661
 30
0.0
 10
10.4241281904
 20
9.2261004079
 30
0.0
 10
10.4226228848
 20
9.2266650911
 30
0.0
 10
10.4216820071
 20
9.2270178136
 30
0.0
 10
10.4209294462
 20
9.22730046
 30
0.0
 10
10.4203646389
 20
9.2275111622
 30
0.0
 10
10.4198951958
 20
9.2276908278
 30
0.0
 10
10.4195168835
 20
9.2278254083
 30
0.0
 10
10.4192406851
 20
9.2279513515
 30
0.0
 10
10.4189357221
 20
9.2279818395
 30
0.0
 10
10.4185391526
 20
9.2280558339
 30
0.0
 10
10.4180399934
 20
9.2281368868
 30
0.0
 10
10.417442478
 20
9.228239047
 30
0.0
 10
10.4166452753
 20
9.2283735502
 30
0.0
 10
10.4156489484
 20
9.2285422649
 30
0.0
 10
10.4140547267
 20
9.2288118812
 30
0.0
 10
10.4120619835
 20
9.2291490138
 30
0.0
 10
10.4096706771
 20
9.2295535248
 30
0.0
 10
10.4072793746
 20
9.2299580486
 30
0.0
 10
10.4040909699
 20
9.2304974093
 30
0.0
 10
10.4001054644
 20
9.2311716116
 30
0.0
 10
10.3953228577
 20
9.2319806538
 30
0.0
 10
10.3889460489
 20
9.2330593769
 30
0.0
 10
10.3841634422
 20
9.2338684191
 30
0.0
 10
10.3809750378
 20
9.2344077807
 30
0.0
  0
SPLINE
  5
395
100
AcDbEntity
  8
0
100
AcDbSpline
 62
4
  6
CONTINUOUS
 70
0
 71
3
 72
387
 73
383
 74
0
 42
0.0000001
 43
0.0000001
 44
0.0000000001
 40
0.0
 40
0.0
 40
0.0
 40
0.0
 40
0.015625
 40
0.0234375
 40
0.03125
 40
0.0390625
 40
0.04296875
 40
0.046875
 40
0.05078125
 40
0.0546875
 40
0.056640625
 40
0.05859375
 40
0.0595703125
 40
0.060546875
 40
0.0615234375
 40
0.0620117188
 40
0.0625
 40
0.0629882812
 40
0.0634765625
 40
0.064453125
 40
0.0654296875
 40
0.06640625
 40
0.068359375
 40
0.0703125
 40
0.07421875
 40
0.078125
 40
0.08203125
 40
0.0859375
 40
0.09375
 40
0.1015625
 40
0.10546875
 40
0.109375
 40
0.11328125
 40
0.1171875
 40
0.119140625
 40
0.12109375
 40
0.1220703125
 40
0.123046875
 40
0.1240234375
 40
0.1245117188
 40
0.1247558594
 40
0.125
 40
0.1252441406
 40
0.1254882812
 40
0.1259765625
 40
0.126953125
 40
0.1279296875
 40
0.12890625
 40
0.130859375
 40
0.1328125
 40
0.13671875
 40
0.140625
 40
0.14453125
 40
0.1484375
 40
0.15625
 40
0.1640625
 40
0.16796875
 40
0.171875
 40
0.17578125
 40
0.1796875
 40
0.181640625
 40
0.18359375
 40
0.1845703125
 40
0.185546875
 40
0.1865234375
 40
0.1870117188
 40
0.1872558594
 40
0.1875
 40
0.1877441406
 40
0.1879882812
 40
0.1884765625
 40
0.189453125
 40
0.1904296875
 40
0.19140625
 40
0.193359375
 40
0.1953125
 40
0.19921875
 40
0.203125
 40
0.20703125
 40
0.2109375
 40
0.21875
 40
0.2265625
 40
0.23046875
 40
0.234375
 40
0.23828125
 40
0.2421875
 40
0.244140625
 40
0.24609375
 40
0.2470703125
 40
0.248046875
 40
0.2490234375
 40
0.2495117188
 40
0.2497558594
 40
0.25
 40
0.2502441406
 40
0.2504882812
 40
0.2509765625
 40
0.251953125
 40
0.2529296875
 40
0.25390625
 40
0.255859375
 40
0.2578125
 40
0.26171875
 40
0.265625
 40
0.26953125
 40
0.2734375
 40
0.28125
 40
0.2890625
 40
0.29296875
 40
0.296875
 40
0.30078125
 40
0.3046875
 40
0.306640625
 40
0.30859375
 40
0.3095703125
 40
0.310546875
 40
0.3115234375
 40
0.3120117188
 40
0.3122558594
 40
0.3125
 40
0.3127441406
 40
0.3129882812
 40
0.3134765625
 40
0.314453125
 40
0.3154296875
 40
0.31640625
 40
0.318359375
 40
0.3203125
 40
0.32421875
 40
0.328125
 40
0.33203125
 40
0.3359375
 40
0.34375
 40
0.3515625
 40
0.35546875
 40
0.359375
 40
0.36328125
 40
0.3671875
 40
0.369140625
 40
0.37109375
 40
0.3720703125
 40
0.373046875
 40
0.3740234375
 40
0.3745117188
 40
0.3747558594
 40
0.375
 40
0.3752441406
 40
0.3754882812
 40
0.3759765625
 40
0.376953125
 40
0.3779296875
 40
0.37890625
 40
0.380859375
 40
0.3828125
 40
0.38671875
 40
0.390625
 40
0.39453125
 40
0.3984375
 40
0.40625
 40
0.4140625
 40
0.41796875
 40
0.421875
 40
0.42578125
 40
0.4296875
 40
0.431640625
 40
0.43359375
 40
0.4345703125
 40
0.435546875
 40
0.4365234375
 40
0.4370117188
 40
0.4372558594
 40
0.4375
 40
0.4377441406
 40
0.4379882812
 40
0.4384765625
 40
0.439453125
 40
0.4404296875
 40
0.44140625
 40
0.443359375
 40
0.4453125
 40
0.44921875
 40
0.453125
 40
0.45703125
 40
0.4609375
 40
0.46875
 40
0.4765625
 40
0.48046875
 40
0.484375
 40
0.48828125
 40
0.4921875
 40
0.494140625
 40
0.49609375
 40
0.4970703125
 40
0.498046875
 40
0.4990234375
 40
0.4995117188
 40
0.4997558594
 40
0.5
 40
0.5002441406
 40
0.5004882812
 40
0.5009765625
 40
0.501953125
 40
0.5029296875
 40
0.50390625
 40
0.505859375
 40
0.5078125
 40
0.51171875
 40
0.515625
 40
0.51953125
 40
0.5234375
 40
0.53125
 40
0.5390625
 40
0.54296875
 40
0.546875
 40
0.55078125
 40
0.5546875
 40
0.556640625
 40
0.55859375
 40
0.5595703125
 40
0.560546875
 40
0.5615234375
 40
0.5620117188
 40
0.5625
 40
0.5629882812
 40
0.5634765625
 40
0.564453125
 40
0.5654296875
 40
0.56640625
 40
0.568359375
 40
0.5703125
 40
0.57421875
 40
0.578125
 40
0.58203125
 40
0.5859375
 40
0.59375
 40
0.6015625
 40
0.60546875
 40
0.609375
 40
0.61328125
 40
0.6171875
 40
0.619140625
 40
0.62109375
 40
0.6220703125
 40
0.623046875
 40
0.6240234375
 40
0.6245117188
 40
0.625
 40
0.6254882812
 40
0.6259765625
 40
0.626953125
 40
0.6279296875
 40
0.62890625
 40
0.630859375
 40
0.6328125
 40
0.63671875
 40
0.640625
 40
0.64453125
 40
0.6484375
 40
0.65625
 40
0.6640625
 40
0.66796875
 40
0.671875
 40
0.67578125
 40
0.6796875
 40
0.681640625
 40
0.68359375
 40
0.6845703125
 40
0.685546875
 40
0.6865234375
 40
0.6870117188
 40
0.6875
 40
0.6879882812
 40
0.6884765625
 40
0.689453125
 40
0.6904296875
 40
0.69140625
 40
0.693359375
 40
0.6953125
 40
0.69921875
 40
0.703125
 40
0.70703125
 40
0.7109375
 40
0.71875
 40
0.7265625
 40
0.73046875
 40
0.734375
 40
0.73828125
 40
0.7421875
 40
0.744140625
 40
0.74609375
 40
0.7470703125
 40
0.748046875
 40
0.7490234375
 40
0.7495117188
 40
0.75
 40
0.7504882812
 40
0.7509765625
 40
0.751953125
 40
0.7529296875
 40
0.75390625
 40
0.755859375
 40
0.7578125
 40
0.76171875
 40
0.765625
 40
0.76953125
 40
0.7734375
 40
0.78125
 40
0.7890625
 40
0.79296875
 40
0.796875
 40
0.80078125
 40
0.8046875
 40
0.806640625
 40
0.80859375
 40
0.8095703125
 40
0.810546875
 40
0.8115234375
 40
0.8120117188
 40
0.8125
 40
0.8129882812
 40
0.8134765625
 40
0.814453125
 40
0.8154296875
 40
0.81640625
 40
0.818359375
 40
0.8203125
 40
0.82421875
 40
0.828125
 40
0.83203125
 40
0.8359375
 40
0.84375
 40
0.8515625
 40
0.85546875
 40
0.859375
 40
0.86328125
 40
0.8671875
 40
0.869140625
 40
0.87109375
 40
0.8720703125
 40
0.873046875
 40
0.8740234375
 40
0.8745117188
 40
0.875
 40
0.8754882812
 40
0.8759765625
 40
0.876953125
 40
0.8779296875
 40
0.87890625
 40
0.880859375
 40
0.8828125
 40
0.88671875
 40
0.890625
 40
0.89453125
 40
0.8984375
 40
0.90625
 40
0.9140625
 40
0.91796875
 40
0.921875
 40
0.92578125
 40
0.9296875
 40
0.931640625
 40
0.93359375
 40
0.9345703125
 40
0.935546875
 40
0.9365234375
 40
0.9370117188
 40
0.9375
 40
0.9379882812
 40
0.9384765625
 40
0.939453125
 40
0.9404296875
 40
0.94140625
 40
0.943359375
 40
0.9453125
 40
0.94921875
 40
0.953125
 40
0.95703125
 40
0.9609375
 40
0.96875
 40
0.9765625
 40
0.984375
 40
1.0
 40
1.0
 40
1.0
 40
1.0
 10
10.3809750547
 20
9.2344077795
 30
0.0
 10
10.3778418678
 20
9.2343178551
 30
0.0
 10
10.3731420874
 20
9.2341829685
 30
0.0
 10
10.3668757136
 20
9.2340031196
 30
0.0
 10
10.3621759332
 20
9.2338682331
 30
0.0
 10
10.3582594496
 20
9.2337558272
 30
0.0
 10
10.3551262625
 20
9.2336659037
 30
0.0
 10
10.3527763729
 20
9.2335984576
 30
0.0
 10
10.3504264806
 20
9.2335310248
 30
0.0
 10
10.3484682452
 20
9.2334747892
 30
0.0
 10
10.3469016387
 20
9.2334298939
 30
0.0
 10
10.345922551
 20
9.2334016224
 30
0.0
 10
10.3451391861
 20
9.2333794905
 30
0.0
 10
10.3445519219
 20
9.2333615628
 30
0.0
 10
10.3440617095
 20
9.2333508499
 30
0.0
 10
10.3436713912
 20
9.2333327997
 30
0.0
 10
10.343373593
 20
9.2333451654
 30
0.0
 10
10.343095107
 20
9.2332586578
 30
0.0
 10
10.3427170463
 20
9.2331778521
 30
0.0
 10
10.342246785
 20
9.2330649952
 30
0.0
 10
10.3416814807
 20
9.2329346391
 30
0.0
 10
10.3409280877
 20
9.2327590592
 30
0.0
 10
10.339986228
 20
9.2325401911
 30
0.0
 10
10.3384793187
 20
9.2321896629
 30
0.0
 10
10.3365956593
 20
9.2317516191
 30
0.0
 10
10.3343352777
 20
9.2312259167
 30
0.0
 10
10.3320748936
 20
9.2307002276
 30
0.0
 10
10.329061049
 20
9.2299993041
 30
0.0
 10
10.3252937429
 20
9.2291231513
 30
0.0
 10
10.3215264368
 20
9.2282469982
 30
0.0
 10
10.3185125922
 20
9.2275460753
 30
0.0
 10
10.3162522082
 20
9.2270203844
 30
0.0
 10
10.313991826
 20
9.2264946889
 30
0.0
 10
10.3121081686
 20
9.2260566234
 30
0.0
 10
10.3106012552
 20
9.2257061395
 30
0.0
 10
10.3096594056
 20
9.2254871588
 30
0.0
 10
10.3089059918
 20
9.2253118099
 30
0.0
 10
10.3083407511
 20
9.2251807484
 30
0.0
 10
10.3078702911
 20
9.2250700981
 30
0.0
 10
10.3075398426
 20
9.2249954541
 30
0.0
 10
10.3073527739
 20
9.2249484109
 30
0.0
 10
10.3072075174
 20
9.2249254937
 30
0.0
 10
10.3070812012
 20
9.2248553103
 30
0.0
 10
10.306906173
 20
9.2247782194
 30
0.0
 10
10.3066029518
 20
9.2246356288
 30
0.0
 10
10.3061681694
 20
9.2244359439
 30
0.0
 10
10.3056471194
 20
9.2241946031
 30
0.0
 10
10.3049521454
 20
9.2238734158
 30
0.0
 10
10.3040835103
 20
9.223471726
 30
0.0
 10
10.3026936481
 20
9.2228291373
 30
0.0
 10
10.3009563361
 20
9.222025862
 30
0.0
 10
10.298871555
 20
9.2210619485
 30
0.0
 10
10.2967867756
 20
9.2200980304
 30
0.0
 10
10.2940070692
 20
9.218812808
 30
0.0
 10
10.2905324365
 20
9.2172062794
 30
0.0
 10
10.2870578035
 20
9.2155997511
 30
0.0
 10
10.2842780974
 20
9.214314528
 30
0.0
 10
10.2821933172
 20
9.2133506119
 30
0.0
 10
10.2801085394
 20
9.2123866913
 30
0.0
 10
10.2783712172
 20
9.211583438
 30
0.0
 10
10.2769813757
 20
9.2109408044
 30
0.0
 10
10.2761126879
 20
9.2105392288
 30
0.0
 10
10.2754178221
 20
9.2102178072
 30
0.0
 10
10.2748964415
 20
9.209977182
 30
0.0
 10
10.2744626934
 20
9.209775258
 30
0.0
 10
10.2741576258
 20
9.2096366647
 30
0.0
 10
10.2739855561
 20
9.2095531691
 30
0.0
 10
10.2738501523
 20
9.2095026592
 30
0.0
 10
10.2737390273
 20
9.2094058516
 30
0.0
 10
10.2735823919
 20
9.209292924
 30
0.0
 10
10.2733122257
 20
9.2090877766
 30
0.0
 10
10.2729242112
 20
9.2087986426
 30
0.0
 10
10.2724594767
 20
9.208449998
 30
0.0
 10
10.2718395222
 20
9.2079857266
 30
0.0
 10
10.2710646848
 20
9.207405186
 30
0.0
 10
10.2698248859
 20
9.2064764336
 30
0.0
 10
10.2682751575
 20
9.2053154545
 30
0.0
 10
10.2664154748
 20
9.2039222961
 30
0.0
 10
10.2645557943
 20
9.2025291333
 30
0.0
 10
10.2620762196
 20
9.2006715844
 30
0.0
 10
10.2589767516
 20
9.1983496478
 30
0.0
 10
10.2558772832
 20
9.1960277115
 30
0.0
 10
10.2533977089
 20
9.1941701621
 30
0.0
 10
10.2515380272
 20
9.1927770009
 30
0.0
 10
10.2496783493
 20
9.1913838363
 30
0.0
 10
10.248128606
 20
9.1902228764
 30
0.0
 10
10.2468888374
 20
9.1892940849
 30
0.0
 10
10.2461139229
 20
9.1887136439
 30
0.0
 10
10.2454941267
 20
9.1882491681
 30
0.0
 10
10.2450289087
 20
9.1879011478
 30
0.0
 10
10.2446424069
 20
9.1876100605
 30
0.0
 10
10.24436954
 20
9.1874084
 30
0.0
 10
10.2442172319
 20
9.1872898855
 30
0.0
 10
10.2440928151
 20
9.1872102392
 30
0.0
 10
10.2440073331
 20
9.1870952747
 30
0.0
 10
10.2438797762
 20
9.186954308
 30
0.0
 10
10.2436628793
 20
9.1867018766
 30
0.0
 10
10.2433497184
 20
9.186344261
 30
0.0
 10
10.2429753413
 20
9.185913838
 30
0.0
 10
10.2424756772
 20
9.1853403891
 30
0.0
 10
10.2418512665
 20
9.1846234245
 30
0.0
 10
10.2408521147
 20
9.183476367
 30
0.0
 10
10.2396032074
 20
9.1820425156
 30
0.0
 10
10.2381045048
 20
9.1803219066
 30
0.0
 10
10.2366058059
 20
9.1786012942
 30
0.0
 10
10.2346075393
 20
9.1763071455
 30
0.0
 10
10.2321097067
 20
9.1734394592
 30
0.0
 10
10.2296118737
 20
9.1705717731
 30
0.0
 10
10.2276136077
 20
9.168277624
 30
0.0
 10
10.2261149071
 20
9.1665570129
 30
0.0
 10
10.2246162106
 20
9.1648363989
 30
0.0
 10
10.2233672844
 20
9.163402563
 30
0.0
 10
10.2223681711
 20
9.1622554739
 30
0.0
 10
10.2217436625
 20
9.1615385896
 30
0.0
 10
10.2212441994
 20
9.160964976
 30
0.0
 10
10.2208692085
 20
9.1605350564
 30
0.0
 10
10.2205579679
 20
9.1601758654
 30
0.0
 10
10.2203376429
 20
9.1599262465
 30
0.0
 10
10.2202155786
 20
9.1597807734
 30
0.0
 10
10.2201132253
 20
9.1596796513
 30
0.0
 10
10.2200521744
 20
9.1595480153
 30
0.0
 10
10.2199563665
 20
9.1593831441
 30
0.0
 10
10.2197954149
 20
9.1590896606
 30
0.0
 10
10.2195619749
 20
9.1586729911
 30
0.0
 10
10.219283349
 20
9.158171878
 30
0.0
 10
10.218911323
 20
9.1575041148
 30
0.0
 10
10.2184464703
 20
9.156669278
 30
0.0
 10
10.2177026055
 20
9.1553336134
 30
0.0
 10
10.2167728089
 20
9.1536640072
 30
0.0
 10
10.2156570383
 20
9.1516604906
 30
0.0
 10
10.2145412716
 20
9.1496569711
 30
0.0
 10
10.2130535813
 20
9.1469856128
 30
0.0
 10
10.2111939689
 20
9.1436464145
 30
0.0
 10
10.2093343562
 20
9.1403072165
 30
0.0
 10
10.2078466665
 20
9.1376358578
 30
0.0
 10
10.2067308981
 20
9.1356323393
 30
0.0
 10
10.205615134
 20
9.1336288188
 30
0.0
 10
10.204685317
 20
9.1319592249
 30
0.0
 10
10.2039414939
 20
9.130623535
 30
0.0
 10
10.2034765348
 20
9.1297887626
 30
0.0
 10
10.2031047272
 20
9.1291208672
 30
0.0
 10
10.2028254343
 20
9.128620158
 30
0.0
 10
10.202594081
 20
9.1282022249
 30
0.0
 10
10.2024294044
 20
9.1279109971
 30
0.0
 10
10.2023395649
 20
9.1277425118
 30
0.0
 10
10.202260181
 20
9.1276219773
 30
0.0
 10
10.2022266834
 20
9.1274791598
 30
0.0
 10
10.2021660143
 20
9.1272965091
 30
0.0
 10
10.2020673007
 20
9.126973249
 30
0.0
 10
10.2019223825
 20
9.1265133422
 30
0.0
 10
10.2017501495
 20
9.1259606436
 30
0.0
 10
10.2015199226
 20
9.1252239951
 30
0.0
 10
10.2012323385
 20
9.1243030877
 30
0.0
 10
10.2007720925
 20
9.1228296899
 30
0.0
 10
10.2001968232
 20
9.1209879241
 30
0.0
 10
10.1995064836
 20
9.1187778131
 30
0.0
 10
10.1988161484
 20
9.1165677
 30
0.0
 10
10.1978957
 20
9.1136208833
 30
0.0
 10
10.19674514
 20
9.1099373621
 30
0.0
 10
10.1955945796
 20
9.1062538411
 30
0.0
 10
10.1946741318
 20
9.1033070241
 30
0.0
 10
10.1939837948
 20
9.1010969118
 30
0.0
 10
10.1932934623
 20
9.0988867978
 30
0.0
 10
10.1927181708
 20
9.0970450414
 30
0.0
 10
10.1922579701
 20
9.0955716244
 30
0.0
 10
10.1919702706
 20
9.0946507658
 30
0.0
 10
10.1917402806
 20
9.0939140171
 30
0.0
 10
10.1915673239
 20
9.0933616248
 30
0.0
 10
10.1914246698
 20
9.0929007597
 30
0.0
 10
10.1913219145
 20
9.0925792102
 30
0.0
 10
10.1912677212
 20
9.0923938186
 30
0.0
 10
10.1912143321
 20
9.0922594204
 30
0.0
 10
10.1912096574
 20
9.0921072647
 30
0.0
 10
10.1911864324
 20
9.0919105845
 30
0.0
 10
10.1911537057
 20
9.0915635082
 30
0.0
 10
10.191102814
 20
9.0910691937
 30
0.0
 10
10.1910435157
 20
9.0904753705
 30
0.0
 10
10.1909638325
 20
9.0896838318
 30
0.0
 10
10.1908644404
 20
9.0886943312
 30
0.0
 10
10.1907052946
 20
9.0871111734
 30
0.0
 10
10.190506403
 20
9.0851322113
 30
0.0
 10
10.1902677156
 20
9.0827574631
 30
0.0
 10
10.1900290329
 20
9.0803827133
 30
0.0
 10
10.1897107876
 20
9.0772163807
 30
0.0
 10
10.1893129816
 20
9.0732584648
 30
0.0
 10
10.1889151753
 20
9.069300549
 30
0.0
 10
10.1885969307
 20
9.0661342163
 30
0.0
 10
10.188358246
 20
9.0637594668
 30
0.0
 10
10.1881195661
 20
9.0613847174
 30
0.0
 10
10.1879206511
 20
9.0594057593
 30
0.0
 10
10.1877615529
 20
9.0578225934
 30
0.0
 10
10.1876620396
 20
9.0568331133
 30
0.0
 10
10.1875826051
 20
9.0560415325
 30
0.0
 10
10.1875225472
 20
9.0554478378
 30
0.0
 10
10.1874740323
 20
9.0549531212
 30
0.0
 10
10.1874370626
 20
9.0546067627
 30
0.0
 10
10.1874206357
 20
9.0544089324
 30
0.0
 10
10.1873950794
 20
9.0542603092
 30
0.0
 10
10.1874201186
 20
9.0541126438
 30
0.0
 10
10.1874358558
 20
9.0539154225
 30
0.0
 10
10.1874716187
 20
9.0535704408
 30
0.0
 10
10.1875184097
 20
9.0530775285
 30
0.0
 10
10.1875763989
 20
9.0524860685
 30
0.0
 10
10.1876530751
 20
9.0516974431
 30
0.0
 10
10.1877491405
 20
9.0507116655
 30
0.0
 10
10.1879027221
 20
9.049134419
 30
0.0
 10
10.1880947412
 20
9.0471628616
 30
0.0
 10
10.1883251462
 20
9.0447969925
 30
0.0
 10
10.1885555559
 20
9.0424311234
 30
0.0
 10
10.1888627673
 20
9.0392766313
 30
0.0
 10
10.1892467819
 20
9.0353335161
 30
0.0
 10
10.1896307969
 20
9.031390401
 30
0.0
 10
10.1899380076
 20
9.0282359088
 30
0.0
 10
10.1901684191
 20
9.02587004
 30
0.0
 10
10.1903988175
 20
9.0235041696
 30
0.0
 10
10.1905908571
 20
9.0215326162
 30
0.0
 10
10.190744397
 20
9.0199553617
 30
0.0
 10
10.1908405685
 20
9.0189696045
 30
0.0
 10
10.1909170269
 20
9.0181809371
 30
0.0
 10
10.1909756815
 20
9.0175896052
 30
0.0
 10
10.1910203908
 20
9.0170962922
 30
0.0
 10
10.1910655096
 20
9.016702845
 30
0.0
 10
10.1910737963
 20
9.016404472
 30
0.0
 10
10.1911796169
 20
9.0161186474
 30
0.0
 10
10.1912866413
 20
9.0157331645
 30
0.0
 10
10.1914321109
 20
9.0152528149
 30
0.0
 10
10.191601671
 20
9.0146757515
 30
0.0
 10
10.1918294988
 20
9.0139065586
 30
0.0
 10
10.1921136852
 20
9.0129449905
 30
0.0
 10
10.1925687178
 20
9.0114065246
 30
0.0
 10
10.1931373939
 20
9.0094834273
 30
0.0
 10
10.1938198543
 20
9.007175717
 30
0.0
 10
10.1945023016
 20
9.004868005
 30
0.0
 10
10.1954122359
 20
9.0017910562
 30
0.0
 10
10.1965496521
 20
8.99794487
 30
0.0
 10
10.1976870694
 20
8.994098684
 30
0.0
 10
10.1985970019
 20
8.9910217348
 30
0.0
 10
10.1992794545
 20
8.988714024
 30
0.0
 10
10.1999618948
 20
8.986406309
 30
0.0
 10
10.2005306336
 20
8.9844832264
 30
0.0
 10
10.2009855382
 20
8.9829447306
 30
0.0
 10
10.2012700505
 20
8.9819832383
 30
0.0
 10
10.2014972092
 20
8.9812138898
 30
0.0
 10
10.2016688136
 20
8.9806373019
 30
0.0
 10
10.2018078875
 20
8.9801554648
 30
0.0
 10
10.2019279602
 20
8.9797730166
 30
0.0
 10
10.2019939318
 20
8.9794779243
 30
0.0
 10
10.2021518286
 20
8.9792143459
 30
0.0
 10
10.2023302471
 20
8.9788518998
 30
0.0
 10
10.2025642871
 20
8.978402619
 30
0.0
 10
10.2028404196
 20
8.9778618654
 30
0.0
 10
10.2032102432
 20
8.9771414253
 30
0.0
 10
10.2036719588
 20
8.9762406818
 30
0.0
 10
10.204411019
 20
8.9747996003
 30
0.0
 10
10.205334736
 20
8.9729982113
 30
0.0
 10
10.2064432429
 20
8.9708365604
 30
0.0
 10
10.2075517373
 20
8.9686749053
 30
0.0
 10
10.2090297342
 20
8.9657926999
 30
0.0
 10
10.2108772287
 20
8.9621899427
 30
0.0
 10
10.2127247243
 20
8.9585871859
 30
0.0
 10
10.2142027195
 20
8.9557049798
 30
0.0
 10
10.2153112191
 20
8.9535433268
 30
0.0
 10
10.2164197066
 20
8.951381668
 30
0.0
 10
10.2173434837
 20
8.9495803035
 30
0.0
 10
10.2180824214
 20
8.9481391721
 30
0.0
 10
10.2185444487
 20
8.9472385557
 30
0.0
 10
10.2189136325
 20
8.9465178546
 30
0.0
 10
10.2191917197
 20
8.9459778983
 30
0.0
 10
10.2194196438
 20
8.9455261231
 30
0.0
 10
10.2196105399
 20
8.9451687661
 30
0.0
 10
10.2197303307
 20
8.9448896458
 30
0.0
 10
10.2199393685
 20
8.9446529042
 30
0.0
 10
10.2201869104
 20
8.9443224453
 30
0.0
 10
10.2205070338
 20
8.9439144507
 30
0.0
 10
10.2208866037
 20
8.9434226832
 30
0.0
 10
10.2213942959
 20
8.9427677525
 30
0.0
 10
10.2220283637
 20
8.9419488291
 30
0.0
 10
10.2230431782
 20
8.940638697
 30
0.0
 10
10.2243115912
 20
8.9390009821
 30
0.0
 10
10.2258337319
 20
8.9370357456
 30
0.0
 10
10.2273558606
 20
8.9350705033
 30
0.0
 10
10.2293853697
 20
8.9324501823
 30
0.0
 10
10.2319222545
 20
8.9291747802
 30
0.0
 10
10.2344591402
 20
8.9258993788
 30
0.0
 10
10.2364886479
 20
8.9232790567
 30
0.0
 10
10.2380107809
 20
8.9213138177
 30
0.0
 10
10.2395329052
 20
8.9193485688
 30
0.0
 10
10.2408013694
 20
8.9177108923
 30
0.0
 10
10.2418160795
 20
8.9164006819
 30
0.0
 10
10.242450413
 20
8.9155819577
 30
0.0
 10
10.2429575597
 20
8.9149266183
 30
0.0
 10
10.2433387965
 20
8.9144360995
 30
0.0
 10
10.2436537045
 20
8.9140241978
 30
0.0
 10
10.2439118869
 20
8.9137017102
 30
0.0
 10
10.2440884292
 20
8.9134406249
 30
0.0
 10
10.2443302217
 20
8.913252901
 30
0.0
 10
10.2446298189
 20
8.9129769764
 30
0.0
 10
10.2450121355
 20
8.9126408628
 30
0.0
 10
10.2454675682
 20
8.9122337631
 30
0.0
 10
10.2460759809
 20
8.9116922781
 30
0.0
 10
10.2468360965
 20
8.9110149717
 30
0.0
 10
10.2480525052
 20
8.909931533
 30
0.0
 10
10.2495729393
 20
8.9085771483
 30
0.0
 10
10.2513974932
 20
8.9069519236
 30
0.0
 10
10.2532220382
 20
8.9053266891
 30
0.0
 10
10.255654768
 20
8.9031597132
 30
0.0
 10
10.2586956791
 20
8.900450992
 30
0.0
 10
10.2617365909
 20
8.8977422717
 30
0.0
 10
10.2641693195
 20
8.8955752943
 30
0.0
 10
10.2659938679
 20
8.8939500641
 30
0.0
 10
10.2678184089
 20
8.8923248232
 30
0.0
 10
10.269338883
 20
8.890970489
 30
0.0
 10
10.2705552102
 20
8.8898869474
 30
0.0
 10
10.2713155332
 20
8.8892099028
 30
0.0
 10
10.2719235202
 20
8.8886678804
 30
0.0
 10
10.2723802537
 20
8.8882624223
 30
0.0
 10
10.2727585004
 20
8.8879211726
 30
0.0
 10
10.273066401
 20
8.8876557267
 30
0.0
 10
10.2732828357
 20
8.8874360014
 30
0.0
 10
10.2735545815
 20
8.8872950629
 30
0.0
 10
10.2738975884
 20
8.8870796236
 30
0.0
 10
10.2743329759
 20
8.886819767
 30
0.0
 10
10.2748526035
 20
8.8865038974
 30
0.0
 10
10.2755464314
 20
8.8860841495
 30
0.0
 10
10.2764133769
 20
8.8855589813
 30
0.0
 10
10.2778006794
 20
8.8847189824
 30
0.0
 10
10.2795347424
 20
8.8836688911
 30
0.0
 10
10.281615646
 20
8.8824088212
 30
0.0
 10
10.283696542
 20
8.8811487407
 30
0.0
 10
10.2864710727
 20
8.8794686371
 30
0.0
 10
10.2899392351
 20
8.8773685062
 30
0.0
 10
10.2934073981
 20
8.8752683763
 30
0.0
 10
10.2961819279
 20
8.8735882711
 30
0.0
 10
10.2982628266
 20
8.8723281954
 30
0.0
 10
10.3003437201
 20
8.8710681076
 30
0.0
 10
10.3020778142
 20
8.870018072
 30
0.0
 10
10.3034650534
 20
8.8691779595
 30
0.0
 10
10.3043321598
 20
8.8686530803
 30
0.0
 10
10.3050256574
 20
8.8682327394
 30
0.0
 10
10.3055462941
 20
8.8679186816
 30
0.0
 10
10.3059785246
 20
8.8676531561
 30
0.0
 10
10.3063279724
 20
8.8674492825
 30
0.0
 10
10.306580048
 20
8.8672730233
 30
0.0
 10
10.3068703331
 20
8.8671859067
 30
0.0
 10
10.3072440328
 20
8.8670386126
 30
0.0
 10
10.3077157367
 20
8.8668651785
 30
0.0
 10
10.3082798214
 20
8.8666524847
 30
0.0
 10
10.3090326189
 20
8.8663704901
 30
0.0
 10
10.3099733813
 20
8.86601745
 30
0.0
 10
10.3114787322
 20
8.8654528916
 30
0.0
 10
10.3133603759
 20
8.8647470887
 30
0.0
 10
10.3156183676
 20
8.8639001701
 30
0.0
 10
10.3178763542
 20
8.8630532395
 30
0.0
 10
10.3208870047
 20
8.8619240029
 30
0.0
 10
10.3246503172
 20
8.8605124556
 30
0.0
 10
10.3284136302
 20
8.8591009093
 30
0.0
 10
10.3314242801
 20
8.857971671
 30
0.0
 10
10.3336822685
 20
8.8571247456
 30
0.0
 10
10.3359402531
 20
8.8562778074
 30
0.0
 10
10.337821919
 20
8.8555720656
 30
0.0
 10
10.3393272246
 20
8.8550073824
 30
0.0
 10
10.3402681023
 20
8.8546546599
 30
0.0
 10
10.3410206633
 20
8.8543720135
 30
0.0
 10
10.3415854705
 20
8.8541613114
 30
0.0
 10
10.3420549136
 20
8.8539816457
 30
0.0
 10
10.3424332259
 20
8.8538470652
 30
0.0
 10
10.3427094243
 20
8.853721122
 30
0.0
 10
10.3430143873
 20
8.853690634
 30
0.0
 10
10.3434109568
 20
8.8536166396
 30
0.0
 10
10.343910116
 20
8.8535355867
 30
0.0
 10
10.3445076315
 20
8.8534334266
 30
0.0
 10
10.3453048342
 20
8.8532989233
 30
0.0
 10
10.3463011611
 20
8.8531302086
 30
0.0
 10
10.3478953827
 20
8.8528605923
 30
0.0
 10
10.349888126
 20
8.8525234597
 30
0.0
 10
10.3522794324
 20
8.8521189488
 30
0.0
 10
10.3546707349
 20
8.8517144249
 30
0.0
 10
10.3578591396
 20
8.8511750643
 30
0.0
 10
10.361844645
 20
8.8505008619
 30
0.0
 10
10.3666272517
 20
8.8496918198
 30
0.0
 10
10.3730040605
 20
8.8486130967
 30
0.0
 10
10.3777866672
 20
8.8478040544
 30
0.0
 10
10.3809750716
 20
8.8472646929
 30
0.0
  0
ENDSEC
  0
SECTION
  2
OBJECTS
  0
DICTIONARY
  5
C
100
AcDbDictionary
280
0
281
1
  3
ACAD_GROUP
350
D
  3
ACAD_MLINESTYLE
350
17
  3
ACAD_LAYOUT
350
1A
  3
ACAD_PLOTSETTINGS
350
19
  3
ACAD_PLOTSTYLENAME
350
E
  3
ACAD_IMAGE_DICT
350
       397
  3
ACAD_IMAGE_VARS
350
       398
  3
ACAD_TABLESTYLE
350
       399
  0
IMAGEDEF_REACTOR
  5
396
100
AcDbRasterImageDefReactor
 90
2
330
28F
  0
DICTIONARY
  5
D
102
{ACAD_REACTORS
330
C
102
}
100
AcDbDictionary
280
0
281
1
  0
ACDBDICTIONARYWDFLT
  5
E
102
{ACAD_REACTORS
330
C
102
}
100
AcDbDictionary
281
1
  3
Normal
350
F
100
AcDbDictionaryWithDefault
340
F
  0
DICTIONARY
  5
397
330
C
100
AcDbDictionary
281
1
  3
B2I_assy_2_img_1
350
       39C
  0
RASTERVARIABLES
  5
398
330
C
100
AcDbRasterVariables
 90
0
 70
0
 71
1
 72
5
  0
DICTIONARY
  5
17
102
{ACAD_REACTORS
330
C
102
}
100
AcDbDictionary
280
0
281
1
  3
Standard
350
18
  0
DICTIONARY
  5
399
330
C
100
AcDbDictionary
281
1
  3
Standard
350
       39D
  3
Standard1
350
       39E
  0
DICTIONARY
  5
19
102
{ACAD_REACTORS
330
C
102
}
100
AcDbDictionary
281
1
  0
DICTIONARY
  5
1A
102
{ACAD_REACTORS
330
C
102
}
100
AcDbDictionary
281
1
  3
Model
350
39A
  3
Layout1
350
39B
  0
ACDBPLACEHOLDER
  5
F
102
{ACAD_REACTORS
330
E
102
}
  0
MLINESTYLE
  5
18
102
{ACAD_REACTORS
330
17
102
}
100
AcDbMlineStyle
  2
STANDARD
 70
0
  3

 62
256
 51
90.0
 52
90.0
 71
2
 49
0.5
 62
256
  6
BYLAYER
 49
-0.5
 62
256
  6
BYLAYER
  0
LAYOUT
  5
39A
102
{ACAD_REACTORS
330
1A
102
}
100
AcDbPlotSettings
  1

  2
none_device
  4
ANSI_C_(22.00_x_17.00_Inches)
  6

 40
0.0
 41
0.0
 42
0.0
 43
0.0
 44
558.8
 45
431.8
 46
0.0
 47
0.0
 48
0.0
 49
0.0
140
0.0
141
0.0
142
1.0
143
1.0
 70
1024
 72
0
 73
0
 74
0
  7

 75
0
147
1.0
148
0.0
149
0.0
100
AcDbLayout
  1
Model
 70
0
 71
0
 10
0.0
 20
0.0
 11
22.0
 21
17.0
 12
0.0
 22
0.0
 32
0.0
 14
0.0
 24
0.0
 34
0.0
 15
0.0
 25
0.0
 35
0.0
146
0.0
 13
0.0
 23
0.0
 33
0.0
 16
1.0
 26
0.0
 36
0.0
 17
0.0
 27
1.0
 37
0.0
 76
0
330
20C
345
0
346
0
  0
LAYOUT
  5
39B
102
{ACAD_REACTORS
330
1A
102
}
100
AcDbPlotSettings
  1

  2
none_device
  4
ANSI_C_(22.00_x_17.00_Inches)
  6

 40
0.0
 41
0.0
 42
0.0
 43
0.0
 44
558.8
 45
431.8
 46
0.0
 47
0.0
 48
0.0
 49
0.0
140
0.0
141
0.0
142
1.0
143
1.0
 70
0
 72
0
 73
0
 74
0
  7

 75
0
147
1.0
148
0.0
149
0.0
100
AcDbLayout
  1
Layout1
 70
0
 71
1
 10
0.0
 20
0.0
 11
22.0
 21
17.0
 12
0.0
 22
0.0
 32
0.0
 14
0.0
 24
0.0
 34
0.0
 15
0.0
 25
0.0
 35
0.0
146
0.0
 13
0.0
 23
0.0
 33
0.0
 16
1.0
 26
0.0
 36
0.0
 17
0.0
 27
1.0
 37
0.0
 76
0
330
20D
345
0
346
0
  0
IMAGEDEF
  5
39C
102
{ACAD_REACTORS
330
397
330
396
102
}
100
AcDbRasterImageDef
 90
0
  1
B2I_assy_2_img_1.png
 10
369.0
 20
92.0
 11
0.0066666667
 21
0.0066666667
280
1
281
0
  0
TABLESTYLE
  5
39D
102
{ACAD_REACTORS
330
399
330
292
330
293
102
}
330
399
100
AcDbTableStyle
  3
Standard
 70
0
 71
0
 40
0.06
 41
0.06
280
1
281
1
  7
Standard
140
0.18
170
1
 62
0
 63
7
283
0
  7
Standard
140
0.18
170
1
 62
0
 63
7
283
0
  7
Standard
140
0.18
170
1
 62
0
 63
7
283
0
  0
TABLESTYLE
  5
39E
102
{ACAD_REACTORS
330
399
330
291
102
}
330
399
100
AcDbTableStyle
  3
Standard1
 70
1
 71
0
 40
0.06
 41
0.06
280
1
281
1
  7
Standard
140
0.18
170
1
 62
0
 63
7
283
0
  7
Standard
140
0.18
170
1
 62
0
 63
7
283
0
  7
Standard
140
0.18
170
1
 62
0
 63
7
283
0
  0
ENDSEC
  0
EOF
