999
DXF file: B2A_assy_2.dxf
999
Pro/ENGINEER 2014200 by Parametric Technology Corporation
  0
SECTION
  2
HEADER
  9
$ACADVER
  1
AC1021
  9
$DWGCODEPAGE
  3
ANSI_1252
  9
$EXTMAX
 10
22.0
 20
17.0
 30
0.0
  9
$EXTMIN
 10
0.0
 20
0.0
 30
0.0
  9
$LIMMIN
 10
0.0
 20
0.0
  9
$LIMMAX
 10
22.0
 20
17.0
  9
$VIEWCTR
 10
11.0
 20
8.5
  9
$VIEWSIZE
 40
17.0
  9
$CLAYER
  8
0
  9
$LTSCALE
 40
1.21
  9
$CELTYPE
  6
BYLAYER
  9
$DIMSCALE
 40
1.0
  9
$DIMASZ
 40
0.1875
  9
$DIMEXO
 40
0.0625
  9
$DIMDLI
 40
0.836
  9
$DIMEXE
 40
0.125
  9
$DIMCEN
 40
0.198
  9
$DIMLFAC
 40
1.0
  9
$DIMBLK
  1
_FILLED
  9
$DIMTXT
 40
0.1
  9
$DIMTOL
 70
0
  9
$DIMLIM
 70
0
  9
$DIMTFAC
 40
1.0
  9
$DIMGAP
 40
0.09
  9
$DIMDSEP
 70
46
  9
$AUNITS
 70
0
  9
$PDMODE
 70
3
  9
$PDSIZE
 40
0.3125
  9
$HANDSEED
  5
385
  9
$TILEMODE
 70
1
  9
$MEASUREMENT
 70
0
  9
$INSUNITS
 70
1
  0
ENDSEC
  0
SECTION
  2
CLASSES
  0
CLASS
  1
ACDBDICTIONARYWDFLT
  2
AcDbDictionaryWithDefault
  3
AutoCAD 2000
 90
0
 91
1
280
0
281
0
  0
CLASS
  1
ACDBPLACEHOLDER
  2
AcDbPlaceHolder
  3
AutoCAD 2000
 90
0
 91
1
280
0
281
0
  0
CLASS
  1
LAYOUT
  2
AcDbLayout
  3
AutoCAD 2000
 90
0
 91
0
280
0
281
0
  0
CLASS
  1
RASTERVARIABLES
  2
AcDbRasterVariables
  3
ISM
 90
0
 91
1
280
0
281
0
  0
CLASS
  1
IMAGEDEF
  2
AcDbRasterImageDef
  3
ISM
 90
0
 91
1
280
0
281
0
  0
CLASS
  1
IMAGEDEF_REACTOR
  2
AcDbRasterImageDefReactor
  3
ISM
 90
0
 91
1
280
0
281
0
  0
CLASS
  1
IMAGE
  2
AcDbRasterImage
  3
ISM
 90
127
 91
1
280
0
281
1
  0
CLASS
  1
TABLESTYLE
  2
AcDbTableStyle
  3
ObjectDBX Classes
 90
2047
 91
1
280
0
281
0
  0
CLASS
  1
ACAD_TABLE
  2
AcDbTable
  3
ObjectDBX Classes
 90
1025
 91
3
280
0
281
1
  0
ENDSEC
  0
SECTION
  2
TABLES
  0
TABLE
  2
VPORT
  5
8
100
AcDbSymbolTable
 70
2
  0
VPORT
  5
1F4
100
AcDbSymbolTableRecord
100
AcDbViewportTableRecord
  2
*ACTIVE
 70
0
 10
0.0
 20
0.0
 11
1.0
 21
1.0
 12
11.0
 22
8.5
 13
0.0
 23
0.0
 14
1.0
 24
1.0
 15
0.0
 25
0.0
 16
0.0
 26
0.0
 36
1.0
 17
0.0
 27
0.0
 37
0.0
 40
17.0
 41
1.2941176471
 42
50.0
 43
0.0
 44
0.0
 50
0.0
 51
0.0
 71
0
 72
100
 73
1
 74
1
 75
0
 76
0
 77
0
 78
0
  0
ENDTAB
  0
TABLE
  2
LTYPE
  5
5
100
AcDbSymbolTable
 70
6
  0
LTYPE
  5
14
100
AcDbSymbolTableRecord
100
AcDbLinetypeTableRecord
  2
BYBLOCK
 70
0
  3

 72
65
 73
0
 40
0.0
  0
LTYPE
  5
15
100
AcDbSymbolTableRecord
100
AcDbLinetypeTableRecord
  2
BYLAYER
 70
0
  3

 72
65
 73
0
 40
0.0
  0
LTYPE
  5
16
100
AcDbSymbolTableRecord
100
AcDbLinetypeTableRecord
  2
CONTINUOUS
 70
64
  3
Solid line
 72
65
 73
0
 40
0.0
  0
LTYPE
  5
1F5
100
AcDbSymbolTableRecord
100
AcDbLinetypeTableRecord
  2
CENTER
 70
64
  3
____ _ ____ _ ____ _ ____ _ ____ _ ____ _ ____
 72
65
 73
4
 40
0.6
 49
0.375
 74
0
 49
-0.075
 74
0
 49
0.075
 74
0
 49
-0.075
 74
0
  0
LTYPE
  5
1F6
100
AcDbSymbolTableRecord
100
AcDbLinetypeTableRecord
  2
HIDDEN
 70
64
  3
- - - - - - - - - - - - - - - - - - - -
 72
65
 73
2
 40
0.2
 49
0.1
 74
0
 49
-0.1
 74
0
  0
LTYPE
  5
1F7
100
AcDbSymbolTableRecord
100
AcDbLinetypeTableRecord
  2
PHANTOM
 70
64
  3
_____ _ _ _____ _ _ _____ _ _ _____
 72
65
 73
6
 40
0.8
 49
0.45
 74
0
 49
-0.05
 74
0
 49
0.1
 74
0
 49
-0.05
 74
0
 49
0.1
 74
0
 49
-0.05
 74
0
  0
LTYPE
  5
1F8
100
AcDbSymbolTableRecord
100
AcDbLinetypeTableRecord
  2
DOT
 70
64
  3
. . . . . . . . . . . . . . . . . . . .
 72
65
 73
2
 40
0.2
 49
0.1
 74
0
 49
-0.1
 74
0
  0
LTYPE
  5
1F9
100
AcDbSymbolTableRecord
100
AcDbLinetypeTableRecord
  2
DASHED
 70
64
  3
- - - - - - - - - - - - - - - - - - - -
 72
65
 73
2
 40
0.2
 49
0.1
 74
0
 49
-0.1
 74
0
  0
ENDTAB
  0
TABLE
  2
LAYER
  5
2
100
AcDbSymbolTable
 70
36
  0
LAYER
  5
10
100
AcDbSymbolTableRecord
100
AcDbLayerTableRecord
  2
0
 70
0
 62
7
  6
CONTINUOUS
370
-3
390
F
  0
LAYER
  5
1FA
100
AcDbSymbolTableRecord
100
AcDbLayerTableRecord
  2
DEFAULT_1
 70
0
 62
7
  6
CENTER
370
-3
390
F
  0
LAYER
  5
1FB
100
AcDbSymbolTableRecord
100
AcDbLayerTableRecord
  2
DEFAULT_2
 70
0
 62
8
  6
HIDDEN
370
-3
390
F
  0
LAYER
  5
1FC
100
AcDbSymbolTableRecord
100
AcDbLayerTableRecord
  2
DEFAULT_3
 70
0
 62
7
  6
PHANTOM
370
-3
390
F
  0
LAYER
  5
1FD
100
AcDbSymbolTableRecord
100
AcDbLayerTableRecord
  2
01___PRT_ALL_DTM_PLN
 70
0
 62
7
  6
CONTINUOUS
370
-3
390
F
  0
LAYER
  5
1FE
100
AcDbSymbolTableRecord
100
AcDbLayerTableRecord
  2
01___PRT_DEF_DTM_PLN
 70
0
 62
7
  6
CONTINUOUS
370
-3
390
F
  0
LAYER
  5
1FF
100
AcDbSymbolTableRecord
100
AcDbLayerTableRecord
  2
02___PRT_ALL_AXES
 70
0
 62
7
  6
CONTINUOUS
370
-3
390
F
  0
LAYER
  5
200
100
AcDbSymbolTableRecord
100
AcDbLayerTableRecord
  2
03___PRT_ALL_CURVES
 70
0
 62
7
  6
CONTINUOUS
370
-3
390
F
  0
LAYER
  5
201
100
AcDbSymbolTableRecord
100
AcDbLayerTableRecord
  2
04___PRT_ALL_DTM_PNT
 70
0
 62
7
  6
CONTINUOUS
370
-3
390
F
  0
LAYER
  5
202
100
AcDbSymbolTableRecord
100
AcDbLayerTableRecord
  2
05___PRT_ALL_DTM_CSYS
 70
0
 62
7
  6
CONTINUOUS
370
-3
390
F
  0
LAYER
  5
203
100
AcDbSymbolTableRecord
100
AcDbLayerTableRecord
  2
05___PRT_DEF_DTM_CSYS
 70
0
 62
7
  6
CONTINUOUS
370
-3
390
F
  0
LAYER
  5
204
100
AcDbSymbolTableRecord
100
AcDbLayerTableRecord
  2
06___PRT_ALL_SURFS
 70
0
 62
7
  6
CONTINUOUS
370
-3
390
F
  0
LAYER
  5
205
100
AcDbSymbolTableRecord
100
AcDbLayerTableRecord
  2
DATUM_PLANES
 70
0
 62
7
  6
CONTINUOUS
370
-3
390
F
  0
LAYER
  5
206
100
AcDbSymbolTableRecord
100
AcDbLayerTableRecord
  2
PORT_AREAS
 70
0
 62
7
  6
CONTINUOUS
370
-3
390
F
  0
LAYER
  5
207
100
AcDbSymbolTableRecord
100
AcDbLayerTableRecord
  2
SUNNBOMCOSMETIC
 70
0
 62
7
  6
CONTINUOUS
370
-3
390
F
  0
LAYER
  5
208
100
AcDbSymbolTableRecord
100
AcDbLayerTableRecord
  2
SUNNBOMSTAMPING
 70
0
 62
7
  6
CONTINUOUS
370
-3
390
F
  0
LAYER
  5
209
100
AcDbSymbolTableRecord
100
AcDbLayerTableRecord
  2
THREADS
 70
0
 62
7
  6
CONTINUOUS
370
-3
390
F
  0
ENDTAB
  0
TABLE
  2
STYLE
  5
3
100
AcDbSymbolTable
 70
1
  0
STYLE
  5
11
100
AcDbSymbolTableRecord
100
AcDbTextStyleTableRecord
  2
STANDARD
 70
0
 40
0.0
 41
0.8
 50
0.0
 71
0
 42
0.2
  3
txt
  4

  0
STYLE
  5
20A
100
AcDbSymbolTableRecord
100
AcDbTextStyleTableRecord
  2
TEXTSTYLE_1
 70
0
 40
0.0
 41
0.8
 50
0.0
 71
0
 42
0.2
  3
gdt
  4

  0
ENDTAB
  0
TABLE
  2
VIEW
  5
6
100
AcDbSymbolTable
 70
0
  0
ENDTAB
  0
TABLE
  2
UCS
  5
7
100
AcDbSymbolTable
 70
0
  0
ENDTAB
  0
TABLE
  2
APPID
  5
9
100
AcDbSymbolTable
 70
1
  0
APPID
  5
20B
100
AcDbSymbolTableRecord
100
AcDbRegAppTableRecord
  2
ACAD
 70
0
  0
ENDTAB
  0
TABLE
  2
BLOCK_RECORD
  5
1
100
AcDbSymbolTable
 70
0
  0
BLOCK_RECORD
  5
20C
100
AcDbSymbolTableRecord
100
AcDbBlockTableRecord
  2
*Model_Space
  0
BLOCK_RECORD
  5
20D
100
AcDbSymbolTableRecord
100
AcDbBlockTableRecord
  2
*Paper_Space
  0
BLOCK_RECORD
  5
20E
100
AcDbSymbolTableRecord
100
AcDbBlockTableRecord
  2
SUN_FIRST_THIRD_ANGLE_BL0
  0
BLOCK_RECORD
  5
20F
100
AcDbSymbolTableRecord
100
AcDbBlockTableRecord
  2
*T1
  0
BLOCK_RECORD
  5
210
100
AcDbSymbolTableRecord
100
AcDbBlockTableRecord
  2
*T2
  0
BLOCK_RECORD
  5
211
100
AcDbSymbolTableRecord
100
AcDbBlockTableRecord
  2
*T3
  0
ENDTAB
  0
TABLE
  2
DIMSTYLE
  5
A
100
AcDbSymbolTable
 70
1
100
AcDbDimStyleTable
 71
0
  0
DIMSTYLE
105
212
100
AcDbSymbolTableRecord
100
AcDbDimStyleTableRecord
  2
STANDARD
 70
0
  3

  4

 40
1.0
 41
0.1875
 42
0.0625
 43
0.38
 44
0.125
 45
0.0
 46
0.0
 47
0.001
 48
0.001
140
0.1
141
0.09
142
0.0
143
25.4
144
1.0
145
0.0
146
1.0
147
0.09
 71
0.0
 72
0.0
 73
1
 74
1
 75
0
 76
0
 77
0
 78
4
170
0
171
2
172
0
173
0
174
0
175
0
176
0
177
0
178
0
270
2
271
3
272
3
273
2
274
2
275
0
280
0
281
0
282
0
283
1
284
4
285
0
286
0
287
3
288
0
340
11
278
46
  0
ENDTAB
  0
ENDSEC
  0
SECTION
  2
BLOCKS
  0
BLOCK
  5
20
100
AcDbEntity
  8
0
100
AcDbBlockBegin
  2
*Model_Space
 70
0
 10
0.0
 20
0.0
 30
0.0
  3
*Model_Space
  1

  0
ENDBLK
  5
21
100
AcDbEntity
  8
0
100
AcDbBlockEnd
  0
BLOCK
  5
1C
100
AcDbEntity
  8
0
100
AcDbBlockBegin
  2
*Paper_Space
 70
0
 10
0.0
 20
0.0
 30
0.0
  3
*Paper_Space
  1

  0
ENDBLK
  5
1D
100
AcDbEntity
  8
0
100
AcDbBlockEnd
  0
BLOCK
  5
213
100
AcDbEntity
  8
0
100
AcDbBlockBegin
 62
2
  6
CONTINUOUS
  2
SUN_FIRST_THIRD_ANGLE_BL0
 70
64
 10
20.4816717061
 20
1.2289683772
  3
SUN_FIRST_THIRD_ANGLE_BL0
  1

  0
TEXT
  5
214
100
AcDbEntity
  8
0
100
AcDbText
 62
2
  6
CONTINUOUS
 10
19.4750896608
 20
1.4136269581
  7
STANDARD
 40
0.08
  1
FIRST ANGLE
 41
0.8
 72
0
100
AcDbText
  0
TEXT
  5
215
100
AcDbEntity
  8
0
100
AcDbText
 62
2
  6
CONTINUOUS
 10
20.7842537513
 20
1.4047600029
  7
STANDARD
 40
0.08
  1
THIRD ANGLE
 41
0.8
 72
0
100
AcDbText
  0
LINE
  5
216
100
AcDbEntity
  8
0
100
AcDbLine
 62
7
  6
CONTINUOUS
 10
19.4767170086
 20
1.1727031207
 11
19.6334271527
 21
1.1717972817
  0
LINE
  5
217
100
AcDbEntity
  8
0
100
AcDbLine
 62
7
  6
CONTINUOUS
 10
19.6596964832
 20
1.1717972817
 11
19.6950230232
 21
1.171593082
  0
LINE
  5
218
100
AcDbEntity
  8
0
100
AcDbLine
 62
7
  6
CONTINUOUS
 10
19.7194818561
 20
1.1708914427
 11
19.8852396156
 21
1.1699333054
  0
LINE
  5
219
100
AcDbEntity
  8
0
100
AcDbLine
 62
7
  6
CONTINUOUS
 10
19.4758111696
 20
1.2723454088
 11
19.88525039
 21
1.3511534004
  0
LINE
  5
21A
100
AcDbEntity
  8
0
100
AcDbLine
 62
7
  6
CONTINUOUS
 10
19.88525039
 20
1.3511534004
 11
19.8831348489
 21
0.9851647912
  0
LINE
  5
21B
100
AcDbEntity
  8
0
100
AcDbLine
 62
7
  6
CONTINUOUS
 10
19.8831348489
 20
0.9851647912
 11
19.4767170086
 21
1.0658141206
  0
LINE
  5
21C
100
AcDbEntity
  8
0
100
AcDbLine
 62
7
  6
CONTINUOUS
 10
19.4767170086
 20
1.0658141206
 11
19.4779056764
 21
1.2714536432
  0
CIRCLE
  5
21D
100
AcDbEntity
  8
0
100
AcDbCircle
 62
7
  6
CONTINUOUS
 10
20.2068232291
 20
1.1717972817
 40
0.175742101
  0
CIRCLE
  5
21E
100
AcDbEntity
  8
0
100
AcDbCircle
 62
7
  6
CONTINUOUS
 10
20.2068232291
 20
1.1717972817
 40
0.1005522074
  0
LINE
  5
21F
100
AcDbEntity
  8
0
100
AcDbLine
 62
7
  6
CONTINUOUS
 10
20.2077290681
 20
1.3756110529
 11
20.2071171714
 21
1.2379342989
  0
LINE
  5
220
100
AcDbEntity
  8
0
100
AcDbLine
 62
7
  6
CONTINUOUS
 10
20.2077290681
 20
1.2016899681
 11
20.2074674401
 21
1.1428236749
  0
LINE
  5
221
100
AcDbEntity
  8
0
100
AcDbLine
 62
7
  6
CONTINUOUS
 10
20.208634907
 20
1.101141841
 11
20.2080230104
 21
0.963465087
  0
LINE
  5
222
100
AcDbEntity
  8
0
100
AcDbLine
 62
7
  6
CONTINUOUS
 10
20.0066328138
 20
1.1745147986
 11
20.1443095678
 21
1.1739029019
  0
LINE
  5
223
100
AcDbEntity
  8
0
100
AcDbLine
 62
7
  6
CONTINUOUS
 10
20.1832714155
 20
1.1727031207
 11
20.238153505
 21
1.172335442
  0
LINE
  5
224
100
AcDbEntity
  8
0
100
AcDbLine
 62
7
  6
CONTINUOUS
 10
20.2756669918
 20
1.1717972817
 11
20.407916871
 21
1.1712095044
  0
CIRCLE
  5
225
100
AcDbEntity
  8
0
100
AcDbCircle
 62
7
  6
CONTINUOUS
 10
20.7509457401
 20
1.1693297793
 40
0.1722024983
  0
CIRCLE
  5
226
100
AcDbEntity
  8
0
100
AcDbCircle
 62
7
  6
CONTINUOUS
 10
20.7509457401
 20
1.1693297793
 40
0.0985164967
  0
LINE
  5
227
100
AcDbEntity
  8
0
100
AcDbLine
 62
7
  6
CONTINUOUS
 10
20.7169767782
 20
1.170462078
 11
20.7825395137
 21
1.1682766535
  0
LINE
  5
228
100
AcDbEntity
  8
0
100
AcDbLine
 62
7
  6
CONTINUOUS
 10
20.8177513651
 20
1.1693297793
 11
20.947965719
 21
1.1693297793
  0
LINE
  5
229
100
AcDbEntity
  8
0
100
AcDbLine
 62
7
  6
CONTINUOUS
 10
20.6875370113
 20
1.170462078
 11
20.5573226574
 21
1.170462078
  0
LINE
  5
22A
100
AcDbEntity
  8
0
100
AcDbLine
 62
7
  6
CONTINUOUS
 10
20.7486811426
 20
1.1987695462
 11
20.7486811426
 21
1.1432869085
  0
LINE
  5
22B
100
AcDbEntity
  8
0
100
AcDbLine
 62
7
  6
CONTINUOUS
 10
20.7498134414
 20
1.1059210505
 11
20.7498134414
 21
0.9757066966
  0
LINE
  5
22C
100
AcDbEntity
  8
0
100
AcDbLine
 62
7
  6
CONTINUOUS
 10
20.7486811426
 20
1.2338708068
 11
20.7486811426
 21
1.3640851607
  0
LINE
  5
22D
100
AcDbEntity
  8
0
100
AcDbLine
 62
7
  6
CONTINUOUS
 10
21.0702539817
 20
1.2701043662
 11
21.4790138229
 21
1.3448360823
  0
LINE
  5
22E
100
AcDbEntity
  8
0
100
AcDbLine
 62
7
  6
CONTINUOUS
 10
21.4790138229
 20
1.3448360823
 11
21.4790138229
 21
0.9779712941
  0
LINE
  5
22F
100
AcDbEntity
  8
0
100
AcDbLine
 62
7
  6
CONTINUOUS
 10
21.4790138229
 20
0.9779712941
 11
21.069121683
 21
1.0617614
  0
LINE
  5
230
100
AcDbEntity
  8
0
100
AcDbLine
 62
7
  6
CONTINUOUS
 10
21.0702539817
 20
1.2701043662
 11
21.069121683
 21
1.0617614
  0
LINE
  5
231
100
AcDbEntity
  8
0
100
AcDbLine
 62
7
  6
CONTINUOUS
 10
21.4790138229
 20
1.1693297793
 11
21.3159628059
 21
1.1693297793
  0
LINE
  5
232
100
AcDbEntity
  8
0
100
AcDbLine
 62
7
  6
CONTINUOUS
 10
21.2876553377
 20
1.1693297793
 11
21.2502894796
 21
1.1693297793
  0
LINE
  5
233
100
AcDbEntity
  8
0
100
AcDbLine
 62
7
  6
CONTINUOUS
 10
21.2208497126
 20
1.1659328831
 11
21.0713862804
 21
1.1659328831
  0
LINE
  5
234
100
AcDbEntity
  8
0
100
AcDbLine
 62
7
  6
CONTINUOUS
 10
20.4796138713
 20
1.5284908897
 11
20.4766766948
 21
0.9294458646
  0
ENDBLK
  5
235
100
AcDbEntity
  8
0
  6
BYBLOCK
 62
0
100
AcDbBlockEnd
  0
BLOCK
  5
236
100
AcDbEntity
  8
0
100
AcDbBlockBegin
  2
*T1
 70
1
 10
0.0
 20
0.0
  3
*T1
  1

  0
LINE
  5
237
100
AcDbEntity
  8
0
100
AcDbLine
 62
2
  6
CONTINUOUS
 10
9.275
 20
0.0
 11
-0.0
 21
0.0
  0
LINE
  5
238
100
AcDbEntity
  8
0
100
AcDbLine
 62
2
  6
CONTINUOUS
 10
9.275
 20
0.0
 11
9.275
 21
1.25
  0
LINE
  5
239
100
AcDbEntity
  8
0
100
AcDbLine
 62
2
  6
CONTINUOUS
 10
9.275
 20
0.625
 11
-0.0
 21
0.625
  0
LINE
  5
23A
100
AcDbEntity
  8
0
100
AcDbLine
 62
2
  6
CONTINUOUS
 10
9.275
 20
1.25
 11
-0.0
 21
1.25
  0
LINE
  5
23B
100
AcDbEntity
  8
0
100
AcDbLine
 62
2
  6
CONTINUOUS
 10
6.8
 20
0.0
 11
6.8
 21
1.25
  0
LINE
  5
23C
100
AcDbEntity
  8
0
100
AcDbLine
 62
2
  6
CONTINUOUS
 10
6.4
 20
0.0
 11
6.4
 21
0.625
  0
LINE
  5
23D
100
AcDbEntity
  8
0
100
AcDbLine
 62
2
  6
CONTINUOUS
 10
5.9
 20
0.0
 11
5.9
 21
0.625
  0
LINE
  5
23E
100
AcDbEntity
  8
0
100
AcDbLine
 62
2
  6
CONTINUOUS
 10
5.2
 20
0.0
 11
5.2
 21
0.625
  0
LINE
  5
23F
100
AcDbEntity
  8
0
100
AcDbLine
 62
2
  6
CONTINUOUS
 10
4.1
 20
0.0
 11
4.1
 21
1.25
  0
LINE
  5
240
100
AcDbEntity
  8
0
100
AcDbLine
 62
2
  6
CONTINUOUS
 10
-0.0
 20
0.0
 11
-0.0
 21
1.25
  0
MTEXT
  5
241
100
AcDbEntity
  8
0
100
AcDbMText
 62
2
  6
CONTINUOUS
  7
STANDARD
 71
2
 72
1
 10
6.6
 20
0.325
 30
0.0
 11
1.0
 21
0.0
 31
0.0
 44
0.9
  1
2
 40
0.125
 41
0.2
  0
MTEXT
  5
242
100
AcDbEntity
  8
0
100
AcDbMText
 62
2
  6
CONTINUOUS
  7
STANDARD
 71
2
 72
1
 10
6.15
 20
0.325
 30
0.0
 11
1.0
 21
0.0
 31
0.0
 44
0.9
  1
C
 40
0.125
 41
0.2
  0
MTEXT
  5
243
100
AcDbEntity
  8
0
100
AcDbMText
 62
2
  6
CONTINUOUS
  7
STANDARD
 71
2
 72
1
 10
5.55
 20
0.325
 30
0.0
 11
1.0
 21
0.0
 31
0.0
 44
0.9
  1
1.000
 40
0.125
 41
1.0
  0
MTEXT
  5
244
100
AcDbEntity
  8
0
100
AcDbMText
 62
2
  6
CONTINUOUS
  7
STANDARD
 71
2
 72
1
 10
4.65
 20
0.325
 30
0.0
 11
1.0
 21
0.0
 31
0.0
 44
0.9
  1
Sep-12-23
 40
0.125
 41
1.8
  0
MTEXT
  5
245
100
AcDbEntity
  8
0
100
AcDbMText
 62
2
  6
CONTINUOUS
  7
STANDARD
 71
2
 72
1
 10
2.05
 20
0.4625
 30
0.0
 11
1.0
 21
0.0
 31
0.0
 44
0.9
  1
T-2A Line mount\P(See Technical Data for Body Features)
 40
0.125
 41
7.6
  0
MTEXT
  5
246
100
AcDbEntity
  8
0
100
AcDbMText
 62
2
  6
CONTINUOUS
  7
STANDARD
 71
1
 72
1
 10
6.45
 20
0.5625
 30
0.0
 11
1.0
 21
0.0
 31
0.0
 44
0.9
  1
SHEET
 40
0.06
 41
0.48
  0
MTEXT
  5
247
100
AcDbEntity
  8
0
100
AcDbMText
 62
2
  6
CONTINUOUS
  7
STANDARD
 71
1
 72
1
 10
5.95
 20
0.5625
 30
0.0
 11
1.0
 21
0.0
 31
0.0
 44
0.9
  1
DWG SIZE
 40
0.06
 41
0.768
  0
MTEXT
  5
248
100
AcDbEntity
  8
0
100
AcDbMText
 62
2
  6
CONTINUOUS
  7
STANDARD
 71
1
 72
1
 10
5.25
 20
0.5625
 30
0.0
 11
1.0
 21
0.0
 31
0.0
 44
0.9
  1
SCALE
 40
0.06
 41
0.48
  0
MTEXT
  5
249
100
AcDbEntity
  8
0
100
AcDbMText
 62
2
  6
CONTINUOUS
  7
STANDARD
 71
1
 72
1
 10
4.15
 20
0.5625
 30
0.0
 11
1.0
 21
0.0
 31
0.0
 44
0.9
  1
DATE
 40
0.06
 41
0.384
  0
MTEXT
  5
24A
100
AcDbEntity
  8
0
100
AcDbMText
 62
2
  6
CONTINUOUS
  7
STANDARD
 71
1
 72
1
 10
0.05
 20
0.5625
 30
0.0
 11
1.0
 21
0.0
 31
0.0
 44
0.9
  1
DESCRIPTION
 40
0.06
 41
1.056
  0
MTEXT
  5
24B
100
AcDbEntity
  8
0
100
AcDbMText
 62
2
  6
CONTINUOUS
  7
STANDARD
 71
2
 72
1
 10
5.45
 20
1.0375
 30
0.0
 11
1.0
 21
0.0
 31
0.0
 44
0.9
  1
ALL DIMENSIONS IN INCH\PVIEWS ARE THIRD ANGLE
 40
0.12
 41
4.224
  0
MTEXT
  5
24C
100
AcDbEntity
  8
0
100
AcDbMText
 62
2
  6
CONTINUOUS
  7
STANDARD
 71
2
 72
1
 10
2.05
 20
0.95
 30
0.0
 11
1.0
 21
0.0
 31
0.0
 44
0.9
  1
B2A
 40
0.125
 41
0.6
  0
MTEXT
  5
24D
100
AcDbEntity
  8
0
100
AcDbMText
 62
2
  6
CONTINUOUS
  7
STANDARD
 71
1
 72
1
 10
0.05
 20
1.1875
 30
0.0
 11
1.0
 21
0.0
 31
0.0
 44
0.9
  1
MODEL
 40
0.06
 41
0.48
  0
ENDBLK
  5
24E
100
AcDbEntity
  8
0
  6
BYBLOCK
 62
0
100
AcDbBlockEnd
  0
BLOCK
  5
24F
100
AcDbEntity
  8
0
100
AcDbBlockBegin
  2
*T2
 70
1
 10
0.0
 20
0.0
  3
*T2
  1

  0
LINE
  5
250
100
AcDbEntity
  8
0
100
AcDbLine
 62
2
  6
CONTINUOUS
 10
0.0
 20
0.0
 11
9.055
 21
0.0
  0
LINE
  5
251
100
AcDbEntity
  8
0
100
AcDbLine
 62
2
  6
CONTINUOUS
 10
0.0
 20
0.0
 11
0.0
 21
-2.844
  0
LINE
  5
252
100
AcDbEntity
  8
0
100
AcDbLine
 62
2
  6
CONTINUOUS
 10
0.0
 20
-0.344
 11
9.055
 21
-0.344
  0
LINE
  5
253
100
AcDbEntity
  8
0
100
AcDbLine
 62
2
  6
CONTINUOUS
 10
0.0
 20
-0.594
 11
9.055
 21
-0.594
  0
LINE
  5
254
100
AcDbEntity
  8
0
100
AcDbLine
 62
2
  6
CONTINUOUS
 10
0.0
 20
-0.844
 11
9.055
 21
-0.844
  0
LINE
  5
255
100
AcDbEntity
  8
0
100
AcDbLine
 62
2
  6
CONTINUOUS
 10
0.0
 20
-1.094
 11
9.055
 21
-1.094
  0
LINE
  5
256
100
AcDbEntity
  8
0
100
AcDbLine
 62
2
  6
CONTINUOUS
 10
0.0
 20
-1.344
 11
9.055
 21
-1.344
  0
LINE
  5
257
100
AcDbEntity
  8
0
100
AcDbLine
 62
2
  6
CONTINUOUS
 10
0.0
 20
-1.594
 11
9.055
 21
-1.594
  0
LINE
  5
258
100
AcDbEntity
  8
0
100
AcDbLine
 62
2
  6
CONTINUOUS
 10
0.0
 20
-1.844
 11
9.055
 21
-1.844
  0
LINE
  5
259
100
AcDbEntity
  8
0
100
AcDbLine
 62
2
  6
CONTINUOUS
 10
0.0
 20
-2.094
 11
9.055
 21
-2.094
  0
LINE
  5
25A
100
AcDbEntity
  8
0
100
AcDbLine
 62
2
  6
CONTINUOUS
 10
0.0
 20
-2.344
 11
9.055
 21
-2.344
  0
LINE
  5
25B
100
AcDbEntity
  8
0
100
AcDbLine
 62
2
  6
CONTINUOUS
 10
0.0
 20
-2.594
 11
9.055
 21
-2.594
  0
LINE
  5
25C
100
AcDbEntity
  8
0
100
AcDbLine
 62
2
  6
CONTINUOUS
 10
0.0
 20
-2.844
 11
9.055
 21
-2.844
  0
LINE
  5
25D
100
AcDbEntity
  8
0
100
AcDbLine
 62
2
  6
CONTINUOUS
 10
3.055
 20
0.0
 11
3.055
 21
-2.844
  0
LINE
  5
25E
100
AcDbEntity
  8
0
100
AcDbLine
 62
2
  6
CONTINUOUS
 10
9.055
 20
0.0
 11
9.055
 21
-2.844
  0
MTEXT
  5
25F
100
AcDbEntity
  8
0
100
AcDbMText
 62
2
  6
CONTINUOUS
  7
STANDARD
 71
2
 72
1
 10
1.5275
 20
-0.0995
 30
0.0
 11
1.0
 21
0.0
 31
0.0
 44
0.9
  1
Technical Data
 40
0.145
 41
3.248
  0
MTEXT
  5
260
100
AcDbEntity
  8
0
100
AcDbMText
 62
2
  6
CONTINUOUS
  7
STANDARD
 71
2
 72
1
 10
4.555
 20
-0.0995
 30
0.0
 11
1.0
 21
0.0
 31
0.0
 44
0.9
  1
U.S. Units
 40
0.145
 41
2.32
  0
MTEXT
  5
261
100
AcDbEntity
  8
0
100
AcDbMText
 62
2
  6
CONTINUOUS
  7
STANDARD
 71
2
 72
1
 10
7.555
 20
-0.0995
 30
0.0
 11
1.0
 21
0.0
 31
0.0
 44
0.9
  1
Metric Units
 40
0.145
 41
2.784
  0
MTEXT
  5
262
100
AcDbEntity
  8
0
100
AcDbMText
 62
2
  6
CONTINUOUS
  7
STANDARD
 71
2
 72
1
 10
1.5275
 20
-0.4065
 30
0.0
 11
1.0
 21
0.0
 31
0.0
 44
0.9
  1
Cavity
 40
0.125
 41
1.2
  0
MTEXT
  5
263
100
AcDbEntity
  8
0
100
AcDbMText
 62
2
  6
CONTINUOUS
  7
STANDARD
 71
2
 72
1
 10
6.055
 20
-0.4065
 30
0.0
 11
1.0
 21
0.0
 31
0.0
 44
0.9
  1
T-2A
 40
0.125
 41
0.8
  0
MTEXT
  5
264
100
AcDbEntity
  8
0
100
AcDbMText
 62
2
  6
CONTINUOUS
  7
STANDARD
 71
2
 72
1
 10
1.5275
 20
-0.6565
 30
0.0
 11
1.0
 21
0.0
 31
0.0
 44
0.9
  1
Body Features
 40
0.125
 41
2.6
  0
MTEXT
  5
265
100
AcDbEntity
  8
0
100
AcDbMText
 62
2
  6
CONTINUOUS
  7
STANDARD
 71
2
 72
1
 10
6.055
 20
-0.6565
 30
0.0
 11
1.0
 21
0.0
 31
0.0
 44
0.9
  1
Ninety degree with reverse flow check - reducing
 40
0.125
 41
9.6
  0
MTEXT
  5
266
100
AcDbEntity
  8
0
100
AcDbMText
 62
2
  6
CONTINUOUS
  7
STANDARD
 71
2
 72
1
 10
1.5275
 20
-0.9065
 30
0.0
 11
1.0
 21
0.0
 31
0.0
 44
0.9
  1
Body Type
 40
0.125
 41
1.8
  0
MTEXT
  5
267
100
AcDbEntity
  8
0
100
AcDbMText
 62
2
  6
CONTINUOUS
  7
STANDARD
 71
2
 72
1
 10
6.055
 20
-0.9065
 30
0.0
 11
1.0
 21
0.0
 31
0.0
 44
0.9
  1
Line mount
 40
0.125
 41
2.0
  0
MTEXT
  5
268
100
AcDbEntity
  8
0
100
AcDbMText
 62
2
  6
CONTINUOUS
  7
STANDARD
 71
2
 72
1
 10
1.5275
 20
-1.1565
 30
0.0
 11
1.0
 21
0.0
 31
0.0
 44
0.9
  1
Interface
 40
0.125
 41
1.8
  0
MTEXT
  5
269
100
AcDbEntity
  8
0
100
AcDbMText
 62
2
  6
CONTINUOUS
  7
STANDARD
 71
2
 72
1
 10
6.055
 20
-1.1565
 30
0.0
 11
1.0
 21
0.0
 31
0.0
 44
0.9
  1
None
 40
0.125
 41
0.8
  0
MTEXT
  5
26A
100
AcDbEntity
  8
0
100
AcDbMText
 62
2
  6
CONTINUOUS
  7
STANDARD
 71
2
 72
1
 10
1.5275
 20
-1.4065
 30
0.0
 11
1.0
 21
0.0
 31
0.0
 44
0.9
  1
Open Cavity Quantity
 40
0.125
 41
4.0
  0
MTEXT
  5
26B
100
AcDbEntity
  8
0
100
AcDbMText
 62
2
  6
CONTINUOUS
  7
STANDARD
 71
2
 72
1
 10
6.055
 20
-1.4065
 30
0.0
 11
1.0
 21
0.0
 31
0.0
 44
0.9
  1
1
 40
0.125
 41
0.2
  0
MTEXT
  5
26C
100
AcDbEntity
  8
0
100
AcDbMText
 62
2
  6
CONTINUOUS
  7
STANDARD
 71
2
 72
1
 10
1.5275
 20
-1.6565
 30
0.0
 11
1.0
 21
0.0
 31
0.0
 44
0.9
  1
Weight
 40
0.125
 41
1.2
  0
MTEXT
  5
26D
100
AcDbEntity
  8
0
100
AcDbMText
 62
2
  6
CONTINUOUS
  7
STANDARD
 71
2
 72
1
 10
4.555
 20
-1.6565
 30
0.0
 11
1.0
 21
0.0
 31
0.0
 44
0.9
  1
2.040 lb.
 40
0.125
 41
1.8
  0
MTEXT
  5
26E
100
AcDbEntity
  8
0
100
AcDbMText
 62
2
  6
CONTINUOUS
  7
STANDARD
 71
2
 72
1
 10
7.555
 20
-1.6565
 30
0.0
 11
1.0
 21
0.0
 31
0.0
 44
0.9
  1
0,925 kg.
 40
0.125
 41
1.8
  0
MTEXT
  5
26F
100
AcDbEntity
  8
0
100
AcDbMText
 62
2
  6
CONTINUOUS
  7
STANDARD
 71
2
 72
1
 10
1.5275
 20
-1.9065
 30
0.0
 11
1.0
 21
0.0
 31
0.0
 44
0.9
  1
Mounting Hole Diameter
 40
0.125
 41
4.4
  0
MTEXT
  5
270
100
AcDbEntity
  8
0
100
AcDbMText
 62
2
  6
CONTINUOUS
  7
STANDARD
 71
2
 72
1
 10
4.555
 20
-1.9065
 30
0.0
 11
1.0
 21
0.0
 31
0.0
 44
0.9
  1
.42 in.
 40
0.125
 41
1.4
  0
MTEXT
  5
271
100
AcDbEntity
  8
0
100
AcDbMText
 62
2
  6
CONTINUOUS
  7
STANDARD
 71
2
 72
1
 10
7.555
 20
-1.9065
 30
0.0
 11
1.0
 21
0.0
 31
0.0
 44
0.9
  1
10,7 mm
 40
0.125
 41
1.4
  0
MTEXT
  5
272
100
AcDbEntity
  8
0
100
AcDbMText
 62
2
  6
CONTINUOUS
  7
STANDARD
 71
2
 72
1
 10
1.5275
 20
-2.1565
 30
0.0
 11
1.0
 21
0.0
 31
0.0
 44
0.9
  1
Mounting Hole Depth
 40
0.125
 41
3.8
  0
MTEXT
  5
273
100
AcDbEntity
  8
0
100
AcDbMText
 62
2
  6
CONTINUOUS
  7
STANDARD
 71
2
 72
1
 10
6.055
 20
-2.1565
 30
0.0
 11
1.0
 21
0.0
 31
0.0
 44
0.9
  1
Through
 40
0.125
 41
1.4
  0
MTEXT
  5
274
100
AcDbEntity
  8
0
100
AcDbMText
 62
2
  6
CONTINUOUS
  7
STANDARD
 71
2
 72
1
 10
1.5275
 20
-2.4065
 30
0.0
 11
1.0
 21
0.0
 31
0.0
 44
0.9
  1
Mounting Hole Quantity
 40
0.125
 41
4.4
  0
MTEXT
  5
275
100
AcDbEntity
  8
0
100
AcDbMText
 62
2
  6
CONTINUOUS
  7
STANDARD
 71
2
 72
1
 10
6.055
 20
-2.4065
 30
0.0
 11
1.0
 21
0.0
 31
0.0
 44
0.9
  1
2
 40
0.125
 41
0.2
  0
MTEXT
  5
276
100
AcDbEntity
  8
0
100
AcDbMText
 62
2
  6
CONTINUOUS
  7
STANDARD
 71
2
 72
1
 10
1.5275
 20
-2.6565
 30
0.0
 11
1.0
 21
0.0
 31
0.0
 44
0.9
  1
Includes integral cartridge(s)
 40
0.125
 41
6.0
  0
MTEXT
  5
277
100
AcDbEntity
  8
0
100
AcDbMText
 62
2
  6
CONTINUOUS
  7
STANDARD
 71
2
 72
1
 10
6.055
 20
-2.6565
 30
0.0
 11
1.0
 21
0.0
 31
0.0
 44
0.9
  1
Yes (see Included Components)
 40
0.125
 41
5.8
  0
ENDBLK
  5
278
100
AcDbEntity
  8
0
  6
BYBLOCK
 62
0
100
AcDbBlockEnd
  0
BLOCK
  5
279
100
AcDbEntity
  8
0
100
AcDbBlockBegin
  2
*T3
 70
1
 10
0.0
 20
0.0
  3
*T3
  1

  0
LINE
  5
27A
100
AcDbEntity
  8
0
100
AcDbLine
 62
2
  6
CONTINUOUS
 10
0.0
 20
0.0
 11
4.6
 21
0.0
  0
LINE
  5
27B
100
AcDbEntity
  8
0
100
AcDbLine
 62
2
  6
CONTINUOUS
 10
0.0
 20
0.0
 11
0.0
 21
-1.43775
  0
LINE
  5
27C
100
AcDbEntity
  8
0
100
AcDbLine
 62
2
  6
CONTINUOUS
 10
0.0
 20
-0.34375
 11
4.6
 21
-0.34375
  0
LINE
  5
27D
100
AcDbEntity
  8
0
100
AcDbLine
 62
2
  6
CONTINUOUS
 10
0.0
 20
-0.68775
 11
4.6
 21
-0.68775
  0
LINE
  5
27E
100
AcDbEntity
  8
0
100
AcDbLine
 62
2
  6
CONTINUOUS
 10
0.0
 20
-0.93775
 11
4.6
 21
-0.93775
  0
LINE
  5
27F
100
AcDbEntity
  8
0
100
AcDbLine
 62
2
  6
CONTINUOUS
 10
0.0
 20
-1.18775
 11
4.6
 21
-1.18775
  0
LINE
  5
280
100
AcDbEntity
  8
0
100
AcDbLine
 62
2
  6
CONTINUOUS
 10
0.0
 20
-1.43775
 11
4.6
 21
-1.43775
  0
LINE
  5
281
100
AcDbEntity
  8
0
100
AcDbLine
 62
2
  6
CONTINUOUS
 10
1.3
 20
-0.34375
 11
1.3
 21
-1.43775
  0
LINE
  5
282
100
AcDbEntity
  8
0
100
AcDbLine
 62
2
  6
CONTINUOUS
 10
3.3
 20
-0.34375
 11
3.3
 21
-1.43775
  0
LINE
  5
283
100
AcDbEntity
  8
0
100
AcDbLine
 62
2
  6
CONTINUOUS
 10
4.6
 20
0.0
 11
4.6
 21
-1.43775
  0
MTEXT
  5
284
100
AcDbEntity
  8
0
100
AcDbMText
 62
2
  6
CONTINUOUS
  7
STANDARD
 71
2
 72
1
 10
2.3
 20
-0.099375
 30
0.0
 11
1.0
 21
0.0
 31
0.0
 44
0.9
  1
Port Headings
 40
0.145
 41
3.016
  0
MTEXT
  5
285
100
AcDbEntity
  8
0
100
AcDbMText
 62
2
  6
CONTINUOUS
  7
STANDARD
 71
2
 72
1
 10
0.65
 20
-0.44325
 30
0.0
 11
1.0
 21
0.0
 31
0.0
 44
0.9
  1
Product
 40
0.145
 41
1.624
  0
MTEXT
  5
286
100
AcDbEntity
  8
0
100
AcDbMText
 62
2
  6
CONTINUOUS
  7
STANDARD
 71
2
 72
1
 10
2.3
 20
-0.44325
 30
0.0
 11
1.0
 21
0.0
 31
0.0
 44
0.9
  1
Port
 40
0.145
 41
0.928
  0
MTEXT
  5
287
100
AcDbEntity
  8
0
100
AcDbMText
 62
2
  6
CONTINUOUS
  7
STANDARD
 71
2
 72
1
 10
3.95
 20
-0.44325
 30
0.0
 11
1.0
 21
0.0
 31
0.0
 44
0.9
  1
Size
 40
0.145
 41
0.928
  0
MTEXT
  5
288
100
AcDbEntity
  8
0
100
AcDbMText
 62
2
  6
CONTINUOUS
  7
STANDARD
 71
2
 72
1
 10
0.65
 20
-0.75025
 30
0.0
 11
1.0
 21
0.0
 31
0.0
 44
0.9
  1
B2A
 40
0.125
 41
0.6
  0
MTEXT
  5
289
100
AcDbEntity
  8
0
100
AcDbMText
 62
2
  6
CONTINUOUS
  7
STANDARD
 71
2
 72
1
 10
2.3
 20
-0.75025
 30
0.0
 11
1.0
 21
0.0
 31
0.0
 44
0.9
  1
Ports 1 &  2
 40
0.125
 41
2.4
  0
MTEXT
  5
28A
100
AcDbEntity
  8
0
100
AcDbMText
 62
2
  6
CONTINUOUS
  7
STANDARD
 71
2
 72
1
 10
3.95
 20
-0.75025
 30
0.0
 11
1.0
 21
0.0
 31
0.0
 44
0.9
  1
1/4" NPTF
 40
0.125
 41
1.8
  0
MTEXT
  5
28B
100
AcDbEntity
  8
0
100
AcDbMText
 62
2
  6
CONTINUOUS
  7
STANDARD
 71
2
 72
1
 10
0.65
 20
-1.00025
 30
0.0
 11
1.0
 21
0.0
 31
0.0
 44
0.9
  1
B2A
 40
0.125
 41
0.6
  0
MTEXT
  5
28C
100
AcDbEntity
  8
0
100
AcDbMText
 62
2
  6
CONTINUOUS
  7
STANDARD
 71
2
 72
1
 10
2.3
 20
-1.00025
 30
0.0
 11
1.0
 21
0.0
 31
0.0
 44
0.9
  1
Port 3
 40
0.125
 41
1.2
  0
MTEXT
  5
28D
100
AcDbEntity
  8
0
100
AcDbMText
 62
2
  6
CONTINUOUS
  7
STANDARD
 71
2
 72
1
 10
3.95
 20
-1.00025
 30
0.0
 11
1.0
 21
0.0
 31
0.0
 44
0.9
  1
1/4" NPTF
 40
0.125
 41
1.8
  0
MTEXT
  5
28E
100
AcDbEntity
  8
0
100
AcDbMText
 62
2
  6
CONTINUOUS
  7
STANDARD
 71
2
 72
1
 10
0.65
 20
-1.25025
 30
0.0
 11
1.0
 21
0.0
 31
0.0
 44
0.9
  1
B2A
 40
0.125
 41
0.6
  0
MTEXT
  5
28F
100
AcDbEntity
  8
0
100
AcDbMText
 62
2
  6
CONTINUOUS
  7
STANDARD
 71
2
 72
1
 10
2.3
 20
-1.25025
 30
0.0
 11
1.0
 21
0.0
 31
0.0
 44
0.9
  1
Gage Port
 40
0.125
 41
1.8
  0
MTEXT
  5
290
100
AcDbEntity
  8
0
100
AcDbMText
 62
2
  6
CONTINUOUS
  7
STANDARD
 71
2
 72
1
 10
3.95
 20
-1.25025
 30
0.0
 11
1.0
 21
0.0
 31
0.0
 44
0.9
  1
1/4" NPTF
 40
0.125
 41
1.8
  0
ENDBLK
  5
291
100
AcDbEntity
  8
0
  6
BYBLOCK
 62
0
100
AcDbBlockEnd
  0
ENDSEC
  0
SECTION
  2
ENTITIES
  0
IMAGE
  5
292
100
AcDbEntity
  8
0
100
AcDbRasterImage
 62
7
  6
CONTINUOUS
 10
19.2297077316
 20
0.3094318264
 30
0.0
 11
0.0066666667
 21
0.0
 31
0.0
 12
0.0
 22
0.0066666667
 32
0.0
 13
369.0
 23
92.0
340
       382
 70
9
280
0
281
50
282
50
283
0
360
       37C
 71
1
 91
2
 14
-0.5
 24
-0.5
 14
368.5
 24
91.5
  0
INSERT
  5
293
100
AcDbEntity
  8
0
100
AcDbBlockReference
 62
2
  6
CONTINUOUS
  2
SUN_FIRST_THIRD_ANGLE_BL0
 10
20.4816717061
 20
1.2289683772
  0
ACAD_TABLE
  5
294
100
AcDbEntity
  8
0
 62
2
  6
CONTINUOUS
100
AcDbBlockReference
  2
*T1
 10
12.42375
 20
0.30125
 30
0.0
100
AcDbTable
342
       384
343
20F
 11
1.0
 21
0.0
 31
0.0
 90
6
 91
4
 92
6
 93
20
 94
0
 95
0
 96
0
 70
1
 41
0.0
141
0.525
141
0.1
141
0.525
141
0.1
142
4.1
142
1.1
142
0.7
142
0.5
142
0.4
142
2.475
171
1
172
0
173
0
174
0
175
1
176
1
 91
33
178
0
145
0.0
301
CELL_VALUE
 90
4
  1
T-2A Line mount\P(See Technical Data for Body Features)
304
ACVALUE_END
170
2
140
0.125
171
1
172
0
173
0
174
0
175
1
176
1
 91
33
178
0
145
0.0
301
CELL_VALUE
 90
4
  1
Sep-12-23
304
ACVALUE_END
170
5
140
0.125
171
1
172
0
173
0
174
0
175
1
176
1
 91
33
178
0
145
0.0
301
CELL_VALUE
 90
4
  1
1.000
304
ACVALUE_END
170
5
140
0.125
171
1
172
0
173
0
174
0
175
1
176
1
 91
33
178
0
145
0.0
301
CELL_VALUE
 90
4
  1
C
304
ACVALUE_END
170
5
140
0.125
171
1
172
0
173
0
174
0
175
1
176
1
 91
33
178
0
145
0.0
301
CELL_VALUE
 90
4
  1
2
304
ACVALUE_END
170
5
140
0.125
171
1
172
0
173
0
174
0
175
1
176
1
 91
33
178
0
145
0.0
301
CELL_VALUE
 90
4
  1
 
304
ACVALUE_END
170
1
140
0.125
171
1
172
0
173
0
174
0
175
1
176
1
 91
33
178
0
145
0.0
301
CELL_VALUE
 90
4
  1
DESCRIPTION
304
ACVALUE_END
170
1
140
0.06
171
1
172
0
173
0
174
0
175
1
176
1
 91
33
178
0
145
0.0
301
CELL_VALUE
 90
4
  1
DATE
304
ACVALUE_END
170
1
140
0.06
171
1
172
0
173
0
174
0
175
1
176
1
 91
33
178
0
145
0.0
301
CELL_VALUE
 90
4
  1
SCALE
304
ACVALUE_END
170
1
140
0.06
171
1
172
0
173
0
174
0
175
1
176
1
 91
33
178
0
145
0.0
301
CELL_VALUE
 90
4
  1
DWG SIZE
304
ACVALUE_END
170
1
140
0.06
171
1
172
0
173
0
174
0
175
1
176
1
 91
33
178
0
145
0.0
301
CELL_VALUE
 90
4
  1
SHEET
304
ACVALUE_END
170
1
140
0.06
171
1
172
0
173
0
174
0
175
1
176
1
 91
33
178
0
145
0.0
301
CELL_VALUE
 90
4
  1
 
304
ACVALUE_END
170
1
140
0.125
171
1
172
0
173
0
174
0
175
1
176
1
 91
33
178
0
145
0.0
301
CELL_VALUE
 90
4
  1
B2A
304
ACVALUE_END
170
5
140
0.125
171
1
172
0
173
0
174
0
175
4
176
1
 91
33
178
0
145
0.0
301
CELL_VALUE
 90
4
  1
ALL DIMENSIONS IN INCH\PVIEWS ARE THIRD ANGLE
304
ACVALUE_END
170
5
140
0.12
171
1
172
0
173
1
174
0
175
1
176
1
 91
1
178
0
145
0.0
170
1
171
1
172
0
173
1
174
0
175
1
176
1
 91
1
178
0
145
0.0
170
1
171
1
172
0
173
1
174
0
175
1
176
1
 91
1
178
0
145
0.0
170
5
171
1
172
0
173
0
174
0
175
1
176
1
 91
33
178
0
145
0.0
301
CELL_VALUE
 90
4
  1
 
304
ACVALUE_END
170
1
140
0.125
171
1
172
0
173
0
174
0
175
1
176
1
 91
33
178
0
145
0.0
301
CELL_VALUE
 90
4
  1
MODEL
304
ACVALUE_END
170
1
140
0.06
171
1
172
0
173
0
174
0
175
1
176
1
 91
33
178
0
145
0.0
301
CELL_VALUE
 90
4
  1
 
304
ACVALUE_END
170
1
140
0.125
171
1
172
0
173
0
174
0
175
1
176
1
 91
33
178
0
145
0.0
301
CELL_VALUE
 90
4
  1
 
304
ACVALUE_END
170
1
140
0.125
171
1
172
0
173
0
174
0
175
1
176
1
 91
33
178
0
145
0.0
301
CELL_VALUE
 90
4
  1
 
304
ACVALUE_END
170
1
140
0.125
171
1
172
0
173
0
174
0
175
1
176
1
 91
33
178
0
145
0.0
301
CELL_VALUE
 90
4
  1
 
304
ACVALUE_END
170
1
140
0.125
171
1
172
0
173
0
174
0
175
1
176
1
 91
33
178
0
145
0.0
301
CELL_VALUE
 90
4
  1
 
304
ACVALUE_END
170
1
140
0.125
  0
ACAD_TABLE
  5
295
100
AcDbEntity
  8
0
 62
2
  6
CONTINUOUS
100
AcDbBlockReference
  2
*T2
 10
12.4237499994
 20
16.47875
 30
0.0
100
AcDbTable
342
       383
343
210
 11
1.0
 21
0.0
 31
0.0
 90
22
 91
11
 92
3
 93
16
 94
0
 95
0
 96
0
 41
0.028
141
0.344
141
0.25
141
0.25
141
0.25
141
0.25
141
0.25
141
0.25
141
0.25
141
0.25
141
0.25
141
0.25
142
3.055
142
3.0
142
3.0
171
1
172
0
173
0
174
0
175
1
176
1
 91
33
178
0
145
0.0
301
CELL_VALUE
 90
4
  1
Technical Data
304
ACVALUE_END
170
5
140
0.145
171
1
172
0
173
0
174
0
175
1
176
1
 91
33
178
0
145
0.0
301
CELL_VALUE
 90
4
  1
U.S. Units
304
ACVALUE_END
170
5
140
0.145
171
1
172
0
173
0
174
0
175
1
176
1
 91
33
178
0
145
0.0
301
CELL_VALUE
 90
4
  1
Metric Units
304
ACVALUE_END
170
5
140
0.145
171
1
172
0
173
0
174
0
175
1
176
1
 91
33
178
0
145
0.0
301
CELL_VALUE
 90
4
  1
Cavity
304
ACVALUE_END
170
5
140
0.125
171
1
172
0
173
0
174
0
175
2
176
1
 91
33
178
0
145
0.0
301
CELL_VALUE
 90
4
  1
T-2A
304
ACVALUE_END
170
5
140
0.125
171
1
172
0
173
1
174
0
175
1
176
1
 91
1
178
0
145
0.0
170
1
171
1
172
0
173
0
174
0
175
1
176
1
 91
33
178
0
145
0.0
301
CELL_VALUE
 90
4
  1
Body Features
304
ACVALUE_END
170
5
140
0.125
171
1
172
0
173
0
174
0
175
2
176
1
 91
33
178
0
145
0.0
301
CELL_VALUE
 90
4
  1
Ninety degree with reverse flow check - reducing
304
ACVALUE_END
170
5
140
0.125
171
1
172
0
173
1
174
0
175
1
176
1
 91
1
178
0
145
0.0
170
1
171
1
172
0
173
0
174
0
175
1
176
1
 91
33
178
0
145
0.0
301
CELL_VALUE
 90
4
  1
Body Type
304
ACVALUE_END
170
5
140
0.125
171
1
172
0
173
0
174
0
175
2
176
1
 91
33
178
0
145
0.0
301
CELL_VALUE
 90
4
  1
Line mount
304
ACVALUE_END
170
5
140
0.125
171
1
172
0
173
1
174
0
175
1
176
1
 91
1
178
0
145
0.0
170
1
171
1
172
0
173
0
174
0
175
1
176
1
 91
33
178
0
145
0.0
301
CELL_VALUE
 90
4
  1
Interface
304
ACVALUE_END
170
5
140
0.125
171
1
172
0
173
0
174
0
175
2
176
1
 91
33
178
0
145
0.0
301
CELL_VALUE
 90
4
  1
None
304
ACVALUE_END
170
5
140
0.125
171
1
172
0
173
1
174
0
175
1
176
1
 91
1
178
0
145
0.0
170
1
171
1
172
0
173
0
174
0
175
1
176
1
 91
33
178
0
145
0.0
301
CELL_VALUE
 90
4
  1
Open Cavity Quantity
304
ACVALUE_END
170
5
140
0.125
171
1
172
0
173
0
174
0
175
2
176
1
 91
33
178
0
145
0.0
301
CELL_VALUE
 90
4
  1
1
304
ACVALUE_END
170
5
140
0.125
171
1
172
0
173
1
174
0
175
1
176
1
 91
1
178
0
145
0.0
170
1
171
1
172
0
173
0
174
0
175
1
176
1
 91
33
178
0
145
0.0
301
CELL_VALUE
 90
4
  1
Weight
304
ACVALUE_END
170
5
140
0.125
171
1
172
0
173
0
174
0
175
1
176
1
 91
33
178
0
145
0.0
301
CELL_VALUE
 90
4
  1
2.040 lb.
304
ACVALUE_END
170
5
140
0.125
171
1
172
0
173
0
174
0
175
1
176
1
 91
33
178
0
145
0.0
301
CELL_VALUE
 90
4
  1
0,925 kg.
304
ACVALUE_END
170
5
140
0.125
171
1
172
0
173
0
174
0
175
1
176
1
 91
33
178
0
145
0.0
301
CELL_VALUE
 90
4
  1
Mounting Hole Diameter
304
ACVALUE_END
170
5
140
0.125
171
1
172
0
173
0
174
0
175
1
176
1
 91
33
178
0
145
0.0
301
CELL_VALUE
 90
4
  1
.42 in.
304
ACVALUE_END
170
5
140
0.125
171
1
172
0
173
0
174
0
175
1
176
1
 91
33
178
0
145
0.0
301
CELL_VALUE
 90
4
  1
10,7 mm
304
ACVALUE_END
170
5
140
0.125
171
1
172
0
173
0
174
0
175
1
176
1
 91
33
178
0
145
0.0
301
CELL_VALUE
 90
4
  1
Mounting Hole Depth
304
ACVALUE_END
170
5
140
0.125
171
1
172
0
173
0
174
0
175
2
176
1
 91
33
178
0
145
0.0
301
CELL_VALUE
 90
4
  1
Through
304
ACVALUE_END
170
5
140
0.125
171
1
172
0
173
1
174
0
175
1
176
1
 91
1
178
0
145
0.0
170
1
171
1
172
0
173
0
174
0
175
1
176
1
 91
33
178
0
145
0.0
301
CELL_VALUE
 90
4
  1
Mounting Hole Quantity
304
ACVALUE_END
170
5
140
0.125
171
1
172
0
173
0
174
0
175
2
176
1
 91
33
178
0
145
0.0
301
CELL_VALUE
 90
4
  1
2
304
ACVALUE_END
170
5
140
0.125
171
1
172
0
173
1
174
0
175
1
176
1
 91
1
178
0
145
0.0
170
1
171
1
172
0
173
0
174
0
175
1
176
1
 91
33
178
0
145
0.0
301
CELL_VALUE
 90
4
  1
Includes integral cartridge(s)
304
ACVALUE_END
170
5
140
0.125
171
1
172
0
173
0
174
0
175
2
176
1
 91
33
178
0
145
0.0
301
CELL_VALUE
 90
4
  1
Yes (see Included Components)
304
ACVALUE_END
170
5
140
0.125
171
1
172
0
173
1
174
0
175
1
176
1
 91
1
178
0
145
0.0
170
1
  0
ACAD_TABLE
  5
296
100
AcDbEntity
  8
0
 62
2
  6
CONTINUOUS
100
AcDbBlockReference
  2
*T3
 10
0.52125
 20
1.959
 30
0.0
100
AcDbTable
342
       383
343
211
 11
1.0
 21
0.0
 31
0.0
 90
22
 91
5
 92
3
 93
16
 94
0
 95
0
 96
0
 41
0.05
141
0.34375
141
0.344
141
0.25
141
0.25
141
0.25
142
1.3
142
2.0
142
1.3
171
1
172
0
173
0
174
0
175
3
176
1
 91
33
178
0
145
0.0
301
CELL_VALUE
 90
4
  1
Port Headings
304
ACVALUE_END
170
5
140
0.145
171
1
172
0
173
1
174
0
175
1
176
1
 91
1
178
0
145
0.0
170
1
171
1
172
0
173
1
174
0
175
1
176
1
 91
1
178
0
145
0.0
170
1
171
1
172
0
173
0
174
0
175
1
176
1
 91
33
178
0
145
0.0
301
CELL_VALUE
 90
4
  1
Product
304
ACVALUE_END
170
5
140
0.145
171
1
172
0
173
0
174
0
175
1
176
1
 91
33
178
0
145
0.0
301
CELL_VALUE
 90
4
  1
Port
304
ACVALUE_END
170
5
140
0.145
171
1
172
0
173
0
174
0
175
1
176
1
 91
33
178
0
145
0.0
301
CELL_VALUE
 90
4
  1
Size
304
ACVALUE_END
170
5
140
0.145
171
1
172
0
173
0
174
0
175
1
176
1
 91
33
178
0
145
0.0
301
CELL_VALUE
 90
4
  1
B2A
304
ACVALUE_END
170
5
140
0.125
171
1
172
0
173
0
174
0
175
1
176
1
 91
33
178
0
145
0.0
301
CELL_VALUE
 90
4
  1
Ports 1 &  2
304
ACVALUE_END
170
5
140
0.125
171
1
172
0
173
0
174
0
175
1
176
1
 91
33
178
0
145
0.0
301
CELL_VALUE
 90
4
  1
1/4" NPTF
304
ACVALUE_END
170
5
140
0.125
171
1
172
0
173
0
174
0
175
1
176
1
 91
33
178
0
145
0.0
301
CELL_VALUE
 90
4
  1
B2A
304
ACVALUE_END
170
5
140
0.125
171
1
172
0
173
0
174
0
175
1
176
1
 91
33
178
0
145
0.0
301
CELL_VALUE
 90
4
  1
Port 3
304
ACVALUE_END
170
5
140
0.125
171
1
172
0
173
0
174
0
175
1
176
1
 91
33
178
0
145
0.0
301
CELL_VALUE
 90
4
  1
1/4" NPTF
304
ACVALUE_END
170
5
140
0.125
171
1
172
0
173
0
174
0
175
1
176
1
 91
33
178
0
145
0.0
301
CELL_VALUE
 90
4
  1
B2A
304
ACVALUE_END
170
5
140
0.125
171
1
172
0
173
0
174
0
175
1
176
1
 91
33
178
0
145
0.0
301
CELL_VALUE
 90
4
  1
Gage Port
304
ACVALUE_END
170
5
140
0.125
171
1
172
0
173
0
174
0
175
1
176
1
 91
33
178
0
145
0.0
301
CELL_VALUE
 90
4
  1
1/4" NPTF
304
ACVALUE_END
170
5
140
0.125
  0
MTEXT
  5
297
100
AcDbEntity
  8
0
100
AcDbMText
 62
2
  6
CONTINUOUS
  7
STANDARD
 71
1
 72
1
 10
0.52125
 20
5.75995
 30
0.0
 11
1.0
 21
0.0
 31
0.0
 44
0.6
  3
Notes\P \P1. Important: Carefully consider\P   the maximum system pressure. The\P   pressure rating of the manifold is\P   dependent on the manifold material,\P   with the port type/size a secondary\P   consideration. Manifolds\P   constructed of alu
  3
minum are not\P   rated for pressures higher than\P   3000 psi (210 bar), regardless of\P   the port type/size specified.\P2. This drawing is for reference\P   only. It is generated by an\P   automated process and does not fall\P   under Sun's docume
  1
nt control\P   process.
 40
0.1
 41
3.04
  0
LINE
  5
298
100
AcDbEntity
  8
0
100
AcDbLine
 62
7
  6
CONTINUOUS
 10
0.30125
 20
0.30125
 11
0.30125
 21
16.69875
  0
LINE
  5
299
100
AcDbEntity
  8
0
100
AcDbLine
 62
7
  6
CONTINUOUS
 10
0.30125
 20
0.30125
 11
21.69875
 21
0.30125
  0
LINE
  5
29A
100
AcDbEntity
  8
0
100
AcDbLine
 62
7
  6
CONTINUOUS
 10
0.30125
 20
16.69875
 11
21.69875
 21
16.69875
  0
LINE
  5
29B
100
AcDbEntity
  8
0
100
AcDbLine
 62
7
  6
CONTINUOUS
 10
21.69875
 20
0.30125
 11
21.69875
 21
16.69875
  0
LINE
  5
29C
100
AcDbEntity
  8
0
100
AcDbLine
 62
7
  6
CONTINUOUS
 10
9.4433734597
 20
10.9566713866
 11
9.0551452125
 21
10.5816716739
  0
LINE
  5
29D
100
AcDbEntity
  8
0
100
AcDbLine
 62
4
  6
CONTINUOUS
 10
9.306285987
 20
10.0474846524
 11
9.299041543
 21
10.0383278
  0
LINE
  5
29E
100
AcDbEntity
  8
0
100
AcDbLine
 62
4
  6
CONTINUOUS
 10
9.3135304309
 20
9.9890266968
 11
9.299041543
 21
9.9707129876
  0
LINE
  5
29F
100
AcDbEntity
  8
0
100
AcDbLine
 62
4
  6
CONTINUOUS
 10
9.2555748792
 20
10.0703199992
 11
9.2700637671
 21
10.0789744477
  0
LINE
  5
2A0
100
AcDbEntity
  8
0
100
AcDbLine
 62
4
  6
CONTINUOUS
 10
9.299041543
 20
10.0383278
 11
9.2845526551
 21
10.0296733445
  0
LINE
  5
2A1
100
AcDbEntity
  8
0
100
AcDbLine
 62
4
  6
CONTINUOUS
 10
9.299041543
 20
9.9707129876
 11
9.2845526551
 21
9.9620585365
  0
LINE
  5
2A2
100
AcDbEntity
  8
0
100
AcDbLine
 62
7
  6
CONTINUOUS
 10
9.0551452125
 20
6.7179681398
 11
9.0551452125
 21
10.5816716739
  0
LINE
  5
2A3
100
AcDbEntity
  8
0
100
AcDbLine
 62
7
  6
CONTINUOUS
 10
9.0551452125
 20
6.7179681398
 11
12.5566265403
 21
6.475139585
  0
LINE
  5
2A4
100
AcDbEntity
  8
0
100
AcDbLine
 62
7
  6
CONTINUOUS
 10
11.2739877806
 20
6.1296039888
 11
11.29320567
 21
6.1201107194
  0
LINE
  5
2A5
100
AcDbEntity
  8
0
100
AcDbLine
 62
4
  6
CONTINUOUS
 10
9.306285987
 20
10.0571439087
 11
9.306285987
 21
10.0474846524
  0
LINE
  5
2A6
100
AcDbEntity
  8
0
100
AcDbLine
 62
4
  6
CONTINUOUS
 10
9.306285987
 20
7.8731854704
 11
9.306285987
 21
7.757274367
  0
LINE
  5
2A7
100
AcDbEntity
  8
0
100
AcDbLine
 62
4
  6
CONTINUOUS
 10
9.3135304309
 20
9.9986859566
 11
9.3135304309
 21
9.9890266968
  0
LINE
  5
2A8
100
AcDbEntity
  8
0
100
AcDbLine
 62
4
  6
CONTINUOUS
 10
10.3132636746
 20
8.0023320413
 11
10.2987747867
 21
8.012996108
  0
LINE
  5
2A9
100
AcDbEntity
  8
0
100
AcDbLine
 62
4
  6
CONTINUOUS
 10
10.2987747867
 20
8.012996108
 11
10.2842858988
 21
8.0333194327
  0
LINE
  5
2AA
100
AcDbEntity
  8
0
100
AcDbLine
 62
4
  6
CONTINUOUS
 10
10.2567569766
 20
9.1074063427
 11
10.2567569766
 21
9.0494507897
  0
LINE
  5
2AB
100
AcDbEntity
  8
0
100
AcDbLine
 62
4
  6
CONTINUOUS
 10
10.3147125296
 20
9.0454315585
 11
10.3147125296
 21
8.9874760055
  0
LINE
  5
2AC
100
AcDbEntity
  8
0
100
AcDbLine
 62
4
  6
CONTINUOUS
 10
10.3436903061
 20
8.9854663898
 11
10.3436903061
 21
9.1013774959
  0
LINE
  5
2AD
100
AcDbEntity
  8
0
100
AcDbLine
 62
4
  6
CONTINUOUS
 10
10.3494858945
 20
8.0577755735
 11
10.3494858945
 21
8.0191385396
  0
LINE
  5
2AE
100
AcDbEntity
  8
0
100
AcDbLine
 62
4
  6
CONTINUOUS
 10
10.3910206802
 20
8.3910373765
 11
10.3910206802
 21
8.5069484826
  0
LINE
  5
2AF
100
AcDbEntity
  8
0
100
AcDbLine
 62
4
  6
CONTINUOUS
 10
10.3277525626
 20
8.1172383369
 11
10.3422414505
 21
8.1065742728
  0
LINE
  5
2B0
100
AcDbEntity
  8
0
100
AcDbLine
 62
4
  6
CONTINUOUS
 10
10.3422414505
 20
8.1065742728
 11
10.3494858945
 21
8.0964126057
  0
LINE
  5
2B1
100
AcDbEntity
  8
0
100
AcDbLine
 62
4
  6
CONTINUOUS
 10
10.2842858988
 20
8.0333194327
 11
10.2770414548
 21
8.0627996124
  0
LINE
  5
2B2
100
AcDbEntity
  8
0
100
AcDbLine
 62
4
  6
CONTINUOUS
 10
10.4016458591
 20
9.0973582646
 11
10.4016458591
 21
8.9814471586
  0
LINE
  5
2B3
100
AcDbEntity
  8
0
100
AcDbLine
 62
4
  6
CONTINUOUS
 10
10.4306236356
 20
9.095348649
 11
10.4306236356
 21
8.979437543
  0
LINE
  5
2B4
100
AcDbEntity
  8
0
100
AcDbLine
 62
4
  6
CONTINUOUS
 10
10.4489762263
 20
8.4863705233
 11
10.4489762263
 21
8.4035768759
  0
LINE
  5
2B5
100
AcDbEntity
  8
0
100
AcDbLine
 62
4
  6
CONTINUOUS
 10
10.4885791886
 20
9.0913294177
 11
10.4885791886
 21
8.9754183117
  0
LINE
  5
2B6
100
AcDbEntity
  8
0
100
AcDbLine
 62
4
  6
CONTINUOUS
 10
10.6044902947
 20
8.9673798492
 11
10.6044902947
 21
9.0832909552
  0
LINE
  5
2B7
100
AcDbEntity
  8
0
100
AcDbLine
 62
4
  6
CONTINUOUS
 10
10.2770414548
 20
8.0627996124
 11
10.2842858988
 21
8.0912749844
  0
LINE
  5
2B8
100
AcDbEntity
  8
0
100
AcDbLine
 62
4
  6
CONTINUOUS
 10
10.495892627
 20
8.3837644823
 11
10.5290100839
 21
8.4973788849
  0
LINE
  5
2B9
100
AcDbEntity
  8
0
100
AcDbLine
 62
4
  6
CONTINUOUS
 10
10.3277525626
 20
8.0013272335
 11
10.3132636746
 21
8.0023320413
  0
LINE
  5
2BA
100
AcDbEntity
  8
0
100
AcDbLine
 62
4
  6
CONTINUOUS
 10
10.3205081186
 20
8.0597851891
 11
10.3494858945
 21
8.0577755735
  0
LINE
  5
2BB
100
AcDbEntity
  8
0
100
AcDbLine
 62
4
  6
CONTINUOUS
 10
10.3132636746
 20
8.1182431447
 11
10.3277525626
 21
8.1172383369
  0
LINE
  5
2BC
100
AcDbEntity
  8
0
100
AcDbLine
 62
4
  6
CONTINUOUS
 10
10.4324174978
 20
8.5040776035
 11
10.4489762263
 21
8.4863705233
  0
LINE
  5
2BD
100
AcDbEntity
  8
0
100
AcDbLine
 62
4
  6
CONTINUOUS
 10
9.2555748792
 20
9.973727411
 11
9.2483304353
 21
9.9838890738
  0
LINE
  5
2BE
100
AcDbEntity
  8
0
100
AcDbLine
 62
4
  6
CONTINUOUS
 10
9.299041543
 20
10.0190092804
 11
9.3135304309
 21
9.9986859566
  0
LINE
  5
2BF
100
AcDbEntity
  8
0
100
AcDbLine
 62
4
  6
CONTINUOUS
 10
9.299041543
 20
10.0673055758
 11
9.306285987
 21
10.0571439087
  0
LINE
  5
2C0
100
AcDbEntity
  8
0
100
AcDbLine
 62
4
  6
CONTINUOUS
 10
10.5290100839
 20
8.4973788849
 11
10.5621275546
 21
8.3791710745
  0
LINE
  5
2C1
100
AcDbEntity
  8
0
100
AcDbLine
 62
4
  6
CONTINUOUS
 10
10.6283624683
 20
8.3745776676
 11
10.6283624683
 21
8.4904887736
  0
LINE
  5
2C2
100
AcDbEntity
  8
0
100
AcDbLine
 62
4
  6
CONTINUOUS
 10
10.6624458477
 20
8.963360618
 11
10.6624458477
 21
9.021316171
  0
LINE
  5
2C3
100
AcDbEntity
  8
0
100
AcDbLine
 62
4
  6
CONTINUOUS
 10
10.6821783266
 20
8.6258499584
 11
10.6821783266
 21
8.7417610645
  0
LINE
  5
2C4
100
AcDbEntity
  8
0
100
AcDbLine
 62
4
  6
CONTINUOUS
 10
10.6945973821
 20
8.3699842608
 11
10.6945973821
 21
8.4858953668
  0
LINE
  5
2C5
100
AcDbEntity
  8
0
100
AcDbLine
 62
4
  6
CONTINUOUS
 10
10.709776216
 20
8.9600782458
 11
10.709776216
 21
9.0180337988
  0
LINE
  5
2C6
100
AcDbEntity
  8
0
100
AcDbLine
 62
4
  6
CONTINUOUS
 10
10.7318545154
 20
8.7217572806
 11
10.7318545154
 21
8.6969191845
  0
LINE
  5
2C7
100
AcDbEntity
  8
0
100
AcDbLine
 62
4
  6
CONTINUOUS
 10
10.7401338796
 20
8.6632275517
 11
10.7401338796
 21
8.6383894573
  0
LINE
  5
2C8
100
AcDbEntity
  8
0
100
AcDbLine
 62
4
  6
CONTINUOUS
 10
10.767731769
 20
9.0140145675
 11
10.767731769
 21
8.8981034615
  0
LINE
  5
2C9
100
AcDbEntity
  8
0
100
AcDbLine
 62
4
  6
CONTINUOUS
 10
10.8063688043
 20
8.953379527
 11
10.8063688043
 21
9.01133508
  0
LINE
  5
2CA
100
AcDbEntity
  8
0
100
AcDbLine
 62
4
  6
CONTINUOUS
 10
10.7898100649
 20
8.734296778
 11
10.7732513365
 21
8.7106070336
  0
LINE
  5
2CB
100
AcDbEntity
  8
0
100
AcDbLine
 62
4
  6
CONTINUOUS
 10
10.7732513365
 20
8.6195340237
 11
10.8312068895
 21
8.6983084416
  0
LINE
  5
2CC
100
AcDbEntity
  8
0
100
AcDbLine
 62
4
  6
CONTINUOUS
 10
10.2842858988
 20
8.0912749844
 11
10.2987747867
 21
8.1095886962
  0
LINE
  5
2CD
100
AcDbEntity
  8
0
100
AcDbLine
 62
4
  6
CONTINUOUS
 10
10.3494858945
 20
8.0191385396
 11
10.3422414505
 21
8.0099816846
  0
LINE
  5
2CE
100
AcDbEntity
  8
0
100
AcDbLine
 62
7
  6
CONTINUOUS
 10
12.5566265403
 20
10.3388431191
 11
12.9448547875
 21
10.7138428318
  0
LINE
  5
2CF
100
AcDbEntity
  8
0
100
AcDbLine
 62
4
  6
CONTINUOUS
 10
10.7318545154
 20
8.6969191845
 11
10.7152957869
 21
8.6815088078
  0
LINE
  5
2D0
100
AcDbEntity
  8
0
100
AcDbLine
 62
4
  6
CONTINUOUS
 10
10.4489762263
 20
8.4035768759
 11
10.4324174978
 21
8.3881664975
  0
LINE
  5
2D1
100
AcDbEntity
  8
0
100
AcDbLine
 62
4
  6
CONTINUOUS
 10
10.7401338796
 20
8.6383894573
 11
10.7235751511
 21
8.6229790789
  0
LINE
  5
2D2
100
AcDbEntity
  8
0
100
AcDbLine
 62
4
  6
CONTINUOUS
 10
10.3689423721
 20
8.4643230092
 11
10.3247857595
 21
8.4453069727
  0
LINE
  5
2D3
100
AcDbEntity
  8
0
100
AcDbLine
 62
4
  6
CONTINUOUS
 10
10.3247857595
 20
8.4453069727
 11
10.3689423721
 21
8.4201663949
  0
LINE
  5
2D4
100
AcDbEntity
  8
0
100
AcDbLine
 62
4
  6
CONTINUOUS
 10
10.8850227903
 20
8.3567782138
 11
10.8684640688
 21
8.3744852952
  0
LINE
  5
2D5
100
AcDbEntity
  8
0
100
AcDbLine
 62
4
  6
CONTINUOUS
 10
10.8312068895
 20
8.6983084416
 11
10.8312068895
 21
8.7148671701
  0
LINE
  5
2D6
100
AcDbEntity
  8
0
100
AcDbLine
 62
4
  6
CONTINUOUS
 10
10.8643243573
 20
9.0652714018
 11
10.8643243573
 21
8.9493602958
  0
LINE
  5
2D7
100
AcDbEntity
  8
0
100
AcDbLine
 62
4
  6
CONTINUOUS
 10
10.8684640688
 20
8.3744852952
 11
10.8684640688
 21
8.4572789427
  0
LINE
  5
2D8
100
AcDbEntity
  8
0
100
AcDbLine
 62
4
  6
CONTINUOUS
 10
10.9029613927
 20
9.0046363613
 11
10.9029613927
 21
8.9466808083
  0
LINE
  5
2D9
100
AcDbEntity
  8
0
100
AcDbLine
 62
4
  6
CONTINUOUS
 10
10.9650566203
 20
8.3677865791
 11
10.9650566203
 21
8.4505802265
  0
LINE
  5
2DA
100
AcDbEntity
  8
0
100
AcDbLine
 62
4
  6
CONTINUOUS
 10
10.999553981
 20
8.9399820895
 11
10.999553981
 21
8.9786191248
  0
LINE
  5
2DB
100
AcDbEntity
  8
0
100
AcDbLine
 62
4
  6
CONTINUOUS
 10
11.0230121733
 20
8.4465609952
 11
11.0230121733
 21
8.3637673478
  0
LINE
  5
2DC
100
AcDbEntity
  8
0
100
AcDbLine
 62
4
  6
CONTINUOUS
 10
10.8643243464
 20
8.6132180891
 11
10.8974418033
 21
8.7268324916
  0
LINE
  5
2DD
100
AcDbEntity
  8
0
100
AcDbLine
 62
4
  6
CONTINUOUS
 10
10.8684640688
 20
8.4572789427
 11
10.8850227903
 21
8.4726893199
  0
LINE
  5
2DE
100
AcDbEntity
  8
0
100
AcDbLine
 62
4
  6
CONTINUOUS
 10
10.9650566203
 20
8.4505802265
 11
10.9816153418
 21
8.4659906037
  0
LINE
  5
2DF
100
AcDbEntity
  8
0
100
AcDbLine
 62
4
  6
CONTINUOUS
 10
10.2987747867
 20
8.1095886962
 11
10.3132636746
 21
8.1182431447
  0
LINE
  5
2E0
100
AcDbEntity
  8
0
100
AcDbLine
 62
4
  6
CONTINUOUS
 10
11.0975264479
 20
8.3420410351
 11
11.0561296164
 21
8.3449119151
  0
LINE
  5
2E1
100
AcDbEntity
  8
0
100
AcDbLine
 62
4
  6
CONTINUOUS
 10
11.0064534518
 20
8.3483569689
 11
10.9816153418
 21
8.3500794976
  0
LINE
  5
2E2
100
AcDbEntity
  8
0
100
AcDbLine
 62
4
  6
CONTINUOUS
 10
10.9181402334
 20
8.3544815114
 11
10.8850227903
 21
8.3567782138
  0
LINE
  5
2E3
100
AcDbEntity
  8
0
100
AcDbLine
 62
4
  6
CONTINUOUS
 10
10.4324174978
 20
8.3881664975
 11
10.3910206802
 21
8.3910373765
  0
LINE
  5
2E4
100
AcDbEntity
  8
0
100
AcDbLine
 62
4
  6
CONTINUOUS
 10
10.6945973821
 20
8.3699842608
 11
10.7442735744
 21
8.3665392051
  0
LINE
  5
2E5
100
AcDbEntity
  8
0
100
AcDbLine
 62
4
  6
CONTINUOUS
 10
11.1610016116
 20
8.3376390176
 11
11.2106777762
 21
8.3341939639
  0
LINE
  5
2E6
100
AcDbEntity
  8
0
100
AcDbLine
 62
4
  6
CONTINUOUS
 10
10.5069317793
 20
8.4161163749
 11
10.5510883885
 21
8.4130541036
  0
LINE
  5
2E7
100
AcDbEntity
  8
0
100
AcDbLine
 62
4
  6
CONTINUOUS
 10
11.1941190546
 20
8.4015772358
 11
11.1610016116
 21
8.4038739383
  0
LINE
  5
2E8
100
AcDbEntity
  8
0
100
AcDbLine
 62
4
  6
CONTINUOUS
 10
10.7277148528
 20
8.433922477
 11
10.6945973821
 21
8.4362191814
  0
LINE
  5
2E9
100
AcDbEntity
  8
0
100
AcDbLine
 62
4
  6
CONTINUOUS
 10
10.3910206802
 20
8.5069484826
 11
10.4324174978
 21
8.5040776035
  0
LINE
  5
2EA
100
AcDbEntity
  8
0
100
AcDbLine
 62
4
  6
CONTINUOUS
 10
10.5952449976
 20
8.492785478
 11
10.6614799114
 21
8.4881920712
  0
LINE
  5
2EB
100
AcDbEntity
  8
0
100
AcDbLine
 62
4
  6
CONTINUOUS
 10
10.6945973821
 20
8.4858953668
 11
10.7442735744
 21
8.4824503111
  0
LINE
  5
2EC
100
AcDbEntity
  8
0
100
AcDbLine
 62
4
  6
CONTINUOUS
 10
10.8850227903
 20
8.4726893199
 11
10.9181402334
 21
8.4703926174
  0
LINE
  5
2ED
100
AcDbEntity
  8
0
100
AcDbLine
 62
4
  6
CONTINUOUS
 10
10.9816153418
 20
8.4659906037
 11
11.0064534518
 21
8.4642680749
  0
LINE
  5
2EE
100
AcDbEntity
  8
0
100
AcDbLine
 62
4
  6
CONTINUOUS
 10
11.0561296164
 20
8.4608230212
 11
11.0975264479
 21
8.4579521412
  0
LINE
  5
2EF
100
AcDbEntity
  8
0
100
AcDbLine
 62
4
  6
CONTINUOUS
 10
11.1610016116
 20
8.4535501236
 11
11.2106777762
 21
8.4501050699
  0
LINE
  5
2F0
100
AcDbEntity
  8
0
100
AcDbLine
 62
4
  6
CONTINUOUS
 10
10.7152957869
 20
8.7367045692
 11
10.7318545154
 21
8.7217572806
  0
LINE
  5
2F1
100
AcDbEntity
  8
0
100
AcDbLine
 62
4
  6
CONTINUOUS
 10
10.9816153418
 20
8.3500794976
 11
10.9650566203
 21
8.3677865791
  0
LINE
  5
2F2
100
AcDbEntity
  8
0
100
AcDbLine
 62
4
  6
CONTINUOUS
 10
10.7235751511
 20
8.6809346319
 11
10.7401338796
 21
8.6632275517
  0
LINE
  5
2F3
100
AcDbEntity
  8
0
100
AcDbLine
 62
4
  6
CONTINUOUS
 10
11.0064534518
 20
8.4642680749
 11
11.0230121733
 21
8.4465609952
  0
LINE
  5
2F4
100
AcDbEntity
  8
0
100
AcDbLine
 62
4
  6
CONTINUOUS
 10
10.8312068895
 20
8.7148671701
 11
10.814648168
 21
8.7325742497
  0
LINE
  5
2F5
100
AcDbEntity
  8
0
100
AcDbLine
 62
4
  6
CONTINUOUS
 10
10.8974418033
 20
8.7268324916
 11
10.9305592602
 21
8.6086246822
  0
LINE
  5
2F6
100
AcDbEntity
  8
0
100
AcDbLine
 62
4
  6
CONTINUOUS
 10
11.0561296164
 20
8.3449119151
 11
11.0561296164
 21
8.4608230212
  0
LINE
  5
2F7
100
AcDbEntity
  8
0
100
AcDbLine
 62
4
  6
CONTINUOUS
 10
11.057509534
 20
8.9939184113
 11
11.057509534
 21
8.9359628583
  0
LINE
  5
2F8
100
AcDbEntity
  8
0
100
AcDbLine
 62
4
  6
CONTINUOUS
 10
11.0961465694
 20
8.9912389238
 11
11.0961465694
 21
8.9332833707
  0
LINE
  5
2F9
100
AcDbEntity
  8
0
100
AcDbLine
 62
4
  6
CONTINUOUS
 10
11.1140851694
 20
8.4402450615
 11
11.1140851694
 21
8.3574514141
  0
LINE
  5
2FA
100
AcDbEntity
  8
0
100
AcDbLine
 62
4
  6
CONTINUOUS
 10
11.1541021224
 20
8.9292641395
 11
11.1541021224
 21
8.9872196925
  0
LINE
  5
2FB
100
AcDbEntity
  8
0
100
AcDbLine
 62
4
  6
CONTINUOUS
 10
11.1610016116
 20
8.3376390176
 11
11.1610016116
 21
8.4535501236
  0
LINE
  5
2FC
100
AcDbEntity
  8
0
100
AcDbLine
 62
7
  6
CONTINUOUS
 10
11.1657875035
 20
6.5715945998
 11
11.1657875035
 21
6.2662836504
  0
LINE
  5
2FD
100
AcDbEntity
  8
0
100
AcDbLine
 62
4
  6
CONTINUOUS
 10
11.1927391577
 20
8.926584652
 11
11.1927391577
 21
9.042495758
  0
LINE
  5
2FE
100
AcDbEntity
  8
0
100
AcDbLine
 62
4
  6
CONTINUOUS
 10
11.2313761931
 20
8.9239051645
 11
11.2313761931
 21
8.9818607175
  0
LINE
  5
2FF
100
AcDbEntity
  8
0
100
AcDbLine
 62
4
  6
CONTINUOUS
 10
11.0230121733
 20
8.3637673478
 11
11.0064534518
 21
8.3483569689
  0
LINE
  5
300
100
AcDbEntity
  8
0
100
AcDbLine
 62
4
  6
CONTINUOUS
 10
11.1140851694
 20
8.3574514141
 11
11.0975264479
 21
8.3420410351
  0
LINE
  5
301
100
AcDbEntity
  8
0
100
AcDbLine
 62
4
  6
CONTINUOUS
 10
10.3422414505
 20
8.0099816846
 11
10.3277525626
 21
8.0013272335
  0
LINE
  5
302
100
AcDbEntity
  8
0
100
AcDbLine
 62
4
  6
CONTINUOUS
 10
11.2879518284
 20
8.3785111789
 11
11.2437952192
 21
8.3594951439
  0
LINE
  5
303
100
AcDbEntity
  8
0
100
AcDbLine
 62
4
  6
CONTINUOUS
 10
10.8312068895
 20
8.6155147925
 11
10.7732513365
 21
8.6195340237
  0
LINE
  5
304
100
AcDbEntity
  8
0
100
AcDbLine
 62
4
  6
CONTINUOUS
 10
10.7235751511
 20
8.6229790789
 11
10.6821783266
 21
8.6258499584
  0
LINE
  5
305
100
AcDbEntity
  8
0
100
AcDbLine
 62
4
  6
CONTINUOUS
 10
10.8753634987
 20
8.6455699816
 11
10.9195201217
 21
8.6425077094
  0
LINE
  5
306
100
AcDbEntity
  8
0
100
AcDbLine
 62
4
  6
CONTINUOUS
 10
10.6821783266
 20
8.6838055114
 11
10.7235751511
 21
8.6809346319
  0
LINE
  5
307
100
AcDbEntity
  8
0
100
AcDbLine
 62
4
  6
CONTINUOUS
 10
10.814648168
 20
8.7325742497
 11
10.7898100649
 21
8.734296778
  0
LINE
  5
308
100
AcDbEntity
  8
0
100
AcDbLine
 62
4
  6
CONTINUOUS
 10
10.6821783266
 20
8.7417610645
 11
10.707016421
 21
8.7400385368
  0
LINE
  5
309
100
AcDbEntity
  8
0
100
AcDbLine
 62
4
  6
CONTINUOUS
 10
10.707016421
 20
8.7400385368
 11
10.7152957869
 21
8.7367045692
  0
LINE
  5
30A
100
AcDbEntity
  8
0
100
AcDbLine
 62
4
  6
CONTINUOUS
 10
11.2437952192
 20
8.4036517582
 11
11.2879518284
 21
8.3785111789
  0
LINE
  5
30B
100
AcDbEntity
  8
0
100
AcDbLine
 62
4
  6
CONTINUOUS
 10
9.2700637671
 20
9.9630633443
 11
9.2555748792
 21
9.973727411
  0
LINE
  5
30C
100
AcDbEntity
  8
0
100
AcDbLine
 62
4
  6
CONTINUOUS
 10
9.2845526551
 20
10.0296733445
 11
9.299041543
 21
10.0190092804
  0
LINE
  5
30D
100
AcDbEntity
  8
0
100
AcDbLine
 62
4
  6
CONTINUOUS
 10
11.0975264479
 20
8.4579521412
 11
11.1140851694
 21
8.4402450615
  0
LINE
  5
30E
100
AcDbEntity
  8
0
100
AcDbLine
 62
4
  6
CONTINUOUS
 10
11.2700132284
 20
8.97918123
 11
11.2700132284
 21
8.921225677
  0
LINE
  5
30F
100
AcDbEntity
  8
0
100
AcDbLine
 62
7
  6
CONTINUOUS
 10
11.317207443
 20
6.5044269117
 11
11.317207443
 21
6.1200234704
  0
LINE
  5
310
100
AcDbEntity
  8
0
100
AcDbLine
 62
7
  6
CONTINUOUS
 10
11.3566802209
 20
6.4942106179
 11
11.3566802209
 21
6.1098071766
  0
LINE
  5
311
100
AcDbEntity
  8
0
100
AcDbLine
 62
4
  6
CONTINUOUS
 10
11.3666058168
 20
8.9724825112
 11
11.3666058168
 21
8.9435047347
  0
LINE
  5
312
100
AcDbEntity
  8
0
100
AcDbLine
 62
4
  6
CONTINUOUS
 10
11.4245613698
 20
8.9394855035
 11
11.4245613698
 21
8.910507727
  0
LINE
  5
313
100
AcDbEntity
  8
0
100
AcDbLine
 62
4
  6
CONTINUOUS
 10
12.351367291
 20
8.9505534784
 11
12.3658561789
 21
8.9592079269
  0
LINE
  5
314
100
AcDbEntity
  8
0
100
AcDbLine
 62
4
  6
CONTINUOUS
 10
12.3948339548
 20
8.9089020159
 11
12.3658561789
 21
8.8915931154
  0
LINE
  5
315
100
AcDbEntity
  8
0
100
AcDbLine
 62
4
  6
CONTINUOUS
 10
10.767731769
 20
8.8981034615
 11
10.7290947336
 21
8.900782949
  0
LINE
  5
316
100
AcDbEntity
  8
0
100
AcDbLine
 62
4
  6
CONTINUOUS
 10
12.344122847
 20
8.8448040352
 11
12.4020783987
 21
8.840784804
  0
LINE
  5
317
100
AcDbEntity
  8
0
100
AcDbLine
 62
4
  6
CONTINUOUS
 10
11.4245613698
 20
8.910507727
 11
11.3666058168
 21
8.9145269582
  0
LINE
  5
318
100
AcDbEntity
  8
0
100
AcDbLine
 62
4
  6
CONTINUOUS
 10
11.057509534
 20
8.9359628583
 11
10.999553981
 21
8.9399820895
  0
LINE
  5
319
100
AcDbEntity
  8
0
100
AcDbLine
 62
4
  6
CONTINUOUS
 10
10.8643243573
 20
8.9493602958
 11
10.8063688043
 21
8.953379527
  0
LINE
  5
31A
100
AcDbEntity
  8
0
100
AcDbLine
 62
4
  6
CONTINUOUS
 10
10.767731769
 20
8.9560590145
 11
10.709776216
 21
8.9600782458
  0
LINE
  5
31B
100
AcDbEntity
  8
0
100
AcDbLine
 62
4
  6
CONTINUOUS
 10
10.4016458591
 20
8.9814471586
 11
10.3436903061
 21
8.9854663898
  0
LINE
  5
31C
100
AcDbEntity
  8
0
100
AcDbLine
 62
4
  6
CONTINUOUS
 10
10.3147125296
 20
8.9874760055
 11
10.2567569766
 21
8.9914952367
  0
LINE
  5
31D
100
AcDbEntity
  8
0
100
AcDbLine
 62
4
  6
CONTINUOUS
 10
11.0961465694
 20
8.9332833707
 11
11.1541021224
 21
8.9292641395
  0
LINE
  5
31E
100
AcDbEntity
  8
0
100
AcDbLine
 62
4
  6
CONTINUOUS
 10
11.2700132284
 20
8.921225677
 11
11.3279687814
 21
8.9172064457
  0
LINE
  5
31F
100
AcDbEntity
  8
0
100
AcDbLine
 62
4
  6
CONTINUOUS
 10
9.2845526551
 20
10.0779696399
 11
9.299041543
 21
10.0673055758
  0
LINE
  5
320
100
AcDbEntity
  8
0
100
AcDbLine
 62
7
  6
CONTINUOUS
 10
12.7507406639
 20
9.2880259577
 11
12.7514255015
 21
9.2886752702
  0
LINE
  5
321
100
AcDbEntity
  8
0
100
AcDbLine
 62
4
  6
CONTINUOUS
 10
11.3666058168
 20
8.9435047347
 11
11.4245613698
 21
8.9394855035
  0
LINE
  5
322
100
AcDbEntity
  8
0
100
AcDbLine
 62
4
  6
CONTINUOUS
 10
10.999553981
 20
8.9786191248
 11
11.057509534
 21
8.9745998936
  0
LINE
  5
323
100
AcDbEntity
  8
0
100
AcDbLine
 62
4
  6
CONTINUOUS
 10
11.057509534
 20
8.9939184113
 11
11.0188724987
 21
8.9965978988
  0
LINE
  5
324
100
AcDbEntity
  8
0
100
AcDbLine
 62
4
  6
CONTINUOUS
 10
10.6624458477
 20
9.021316171
 11
10.6044902947
 21
9.0253354022
  0
LINE
  5
325
100
AcDbEntity
  8
0
100
AcDbLine
 62
4
  6
CONTINUOUS
 10
10.2567569766
 20
9.0494507897
 11
10.3147125296
 21
9.0454315585
  0
LINE
  5
326
100
AcDbEntity
  8
0
100
AcDbLine
 62
4
  6
CONTINUOUS
 10
10.8063688043
 20
9.01133508
 11
10.8643243573
 21
9.0073158488
  0
LINE
  5
327
100
AcDbEntity
  8
0
100
AcDbLine
 62
4
  6
CONTINUOUS
 10
10.9029613927
 20
9.0046363613
 11
10.9609169457
 21
9.00061713
  0
LINE
  5
328
100
AcDbEntity
  8
0
100
AcDbLine
 62
4
  6
CONTINUOUS
 10
11.2700132284
 20
8.97918123
 11
11.3279687814
 21
8.9751619988
  0
LINE
  5
329
100
AcDbEntity
  8
0
100
AcDbLine
 62
4
  6
CONTINUOUS
 10
11.3666058168
 20
8.9724825112
 11
11.4245613698
 21
8.96846328
  0
LINE
  5
32A
100
AcDbEntity
  8
0
100
AcDbLine
 62
4
  6
CONTINUOUS
 10
11.2241317489
 20
9.0113408979
 11
11.2386206372
 21
9.0103360901
  0
LINE
  5
32B
100
AcDbEntity
  8
0
100
AcDbLine
 62
4
  6
CONTINUOUS
 10
12.3658561789
 20
8.9592079269
 11
12.3803450669
 21
8.9582031191
  0
LINE
  5
32C
100
AcDbEntity
  8
0
100
AcDbLine
 62
4
  6
CONTINUOUS
 10
10.3147125296
 20
9.1033871115
 11
10.2567569766
 21
9.1074063427
  0
LINE
  5
32D
100
AcDbEntity
  8
0
100
AcDbLine
 62
4
  6
CONTINUOUS
 10
10.4306236356
 20
9.095348649
 11
10.4885791886
 21
9.0913294177
  0
LINE
  5
32E
100
AcDbEntity
  8
0
100
AcDbLine
 62
4
  6
CONTINUOUS
 10
12.344122847
 20
8.9413966191
 11
12.351367291
 21
8.9505534784
  0
LINE
  5
32F
100
AcDbEntity
  8
0
100
AcDbLine
 62
4
  6
CONTINUOUS
 10
12.3658561789
 20
8.8915931154
 11
12.351367291
 21
8.8732794071
  0
LINE
  5
330
100
AcDbEntity
  8
0
100
AcDbLine
 62
4
  6
CONTINUOUS
 10
12.4020783987
 20
8.9180588753
 11
12.3948339548
 21
8.9089020159
  0
LINE
  5
331
100
AcDbEntity
  8
0
100
AcDbLine
 62
7
  6
CONTINUOUS
 10
11.9217866955
 20
6.4550203508
 11
11.9217866955
 21
6.0706169095
  0
LINE
  5
332
100
AcDbEntity
  8
0
100
AcDbLine
 62
7
  6
CONTINUOUS
 10
11.9757074978
 20
6.4587597778
 11
11.9757074978
 21
6.0743563364
  0
LINE
  5
333
100
AcDbEntity
  8
0
100
AcDbLine
 62
4
  6
CONTINUOUS
 10
12.351367291
 20
8.8732794071
 11
12.344122847
 21
8.8448040352
  0
LINE
  5
334
100
AcDbEntity
  8
0
100
AcDbLine
 62
4
  6
CONTINUOUS
 10
12.3803450669
 20
8.9582031191
 11
12.3948339548
 21
8.947539055
  0
LINE
  5
335
100
AcDbEntity
  8
0
100
AcDbLine
 62
7
  6
CONTINUOUS
 10
12.3893940328
 20
6.4867371987
 11
12.3893940328
 21
6.1814262494
  0
LINE
  5
336
100
AcDbEntity
  8
0
100
AcDbLine
 62
4
  6
CONTINUOUS
 10
12.4020783987
 20
8.9373773879
 11
12.4020783987
 21
8.9180588753
  0
LINE
  5
337
100
AcDbEntity
  8
0
100
AcDbLine
 62
7
  6
CONTINUOUS
 10
12.4038420572
 20
6.4857352249
 11
12.4038420572
 21
6.1953819701
  0
LINE
  5
338
100
AcDbEntity
  8
0
100
AcDbLine
 62
4
  6
CONTINUOUS
 10
9.2845526551
 20
9.9620585365
 11
9.2700637671
 21
9.9630633443
  0
LINE
  5
339
100
AcDbEntity
  8
0
100
AcDbLine
 62
4
  6
CONTINUOUS
 10
9.2700637671
 20
10.0306781523
 11
9.2845526551
 21
10.0296733445
  0
LINE
  5
33A
100
AcDbEntity
  8
0
100
AcDbLine
 62
4
  6
CONTINUOUS
 10
9.2700637671
 20
10.0789744477
 11
9.2845526551
 21
10.0779696399
  0
LINE
  5
33B
100
AcDbEntity
  8
0
100
AcDbLine
 62
4
  6
CONTINUOUS
 10
12.3948339548
 20
8.947539055
 11
12.4020783987
 21
8.9373773879
  0
LINE
  5
33C
100
AcDbEntity
  8
0
100
AcDbLine
 62
7
  6
CONTINUOUS
 10
12.5566265403
 20
6.475139585
 11
12.5566265403
 21
10.3388431191
  0
LINE
  5
33D
100
AcDbEntity
  8
0
100
AcDbLine
 62
7
  6
CONTINUOUS
 10
12.9448547875
 20
6.8501392977
 11
12.9448547875
 21
10.7138428318
  0
LINE
  5
33E
100
AcDbEntity
  8
0
100
AcDbLine
 62
7
  6
CONTINUOUS
 10
9.0551452125
 20
10.5816716739
 11
12.5566265403
 21
10.3388431191
  0
LINE
  5
33F
100
AcDbEntity
  8
0
100
AcDbLine
 62
7
  6
CONTINUOUS
 10
12.9448547875
 20
10.7138428318
 11
9.4433734597
 21
10.9566713866
  0
LINE
  5
340
100
AcDbEntity
  8
0
100
AcDbLine
 62
7
  6
CONTINUOUS
 10
12.5566265403
 20
6.475139585
 11
12.9448547875
 21
6.8501392977
  0
LINE
  5
341
100
AcDbEntity
  8
0
100
AcDbLine
 62
7
  6
CONTINUOUS
 10
12.3070979012
 20
6.1352630932
 11
12.2764238907
 21
6.1201107194
  0
ARC
  5
342
100
AcDbEntity
  8
0
100
AcDbCircle
 62
7
  6
CONTINUOUS
 10
11.7958543029
 20
8.2771297941
 40
2.210103635
100
AcDbArc
 50
273.2665005552
 51
274.6677615151
  0
ARC
  5
343
100
AcDbEntity
  8
0
100
AcDbCircle
 62
7
  6
CONTINUOUS
 10
11.7958543029
 20
8.6615332355
 40
2.210103635
100
AcDbArc
 50
273.2665005552
 51
274.6677615151
  0
ARC
  5
344
100
AcDbEntity
  8
0
100
AcDbCircle
 62
7
  6
CONTINUOUS
 10
11.5758797294
 20
7.4224973516
 40
0.9538158545
100
AcDbArc
 50
254.2644742826
 51
256.7139235525
  0
ARC
  5
345
100
AcDbEntity
  8
0
100
AcDbCircle
 62
7
  6
CONTINUOUS
 10
11.5758797294
 20
7.0380939102
 40
0.9538158545
100
AcDbArc
 50
254.2644742826
 51
256.7139235525
  0
ARC
  5
346
100
AcDbEntity
  8
0
100
AcDbCircle
 62
7
  6
CONTINUOUS
 10
11.9682168996
 20
6.8201582944
 40
0.7641475746
100
AcDbArc
 50
293.7608747297
 51
296.3085175792
  0
ARC
  5
347
100
AcDbEntity
  8
0
100
AcDbCircle
 62
7
  6
CONTINUOUS
 10
10.6773835112
 20
8.2296499154
 40
0.589754286
100
AcDbArc
 50
253.2164614708
 51
257.1350500512
  0
ARC
  5
348
100
AcDbEntity
  8
0
100
AcDbCircle
 62
7
  6
CONTINUOUS
 10
10.238563178
 20
7.9093448894
 40
0.2511541147
100
AcDbArc
 50
343.992207346
 51
349.4981701589
  0
SPLINE
  5
349
100
AcDbEntity
  8
0
100
AcDbSpline
 62
7
  6
CONTINUOUS
 70
0
 71
3
 72
9
 73
5
 74
0
 42
0.0000001
 43
0.0000001
 44
0.0000000001
 40
0.0
 40
0.0
 40
0.0
 40
0.0
 40
0.2426770998
 40
1.0
 40
1.0
 40
1.0
 40
1.0
 10
12.3972117905
 20
6.1883629334
 30
0.0
 10
12.3966036
 20
6.1877754665
 30
0.0
 10
12.3940705486
 20
6.1853825853
 30
0.0
 10
12.3914348349
 20
6.1830991158
 30
0.0
 10
12.3893940328
 20
6.1814262494
 30
0.0
  0
SPLINE
  5
34A
100
AcDbEntity
  8
0
100
AcDbSpline
 62
7
  6
CONTINUOUS
 70
0
 71
3
 72
9
 73
5
 74
0
 42
0.0000001
 43
0.0000001
 44
0.0000000001
 40
0.0
 40
0.0
 40
0.0
 40
0.0
 40
0.2426666479
 40
1.0
 40
1.0
 40
1.0
 40
1.0
 10
12.4038420572
 20
6.1953819701
 30
0.0
 10
12.4033344294
 20
6.1947881972
 30
0.0
 10
12.4012107336
 20
6.1923686127
 30
0.0
 10
12.3989653251
 20
6.1900567179
 30
0.0
 10
12.3972117905
 20
6.1883629334
 30
0.0
  0
SPLINE
  5
34B
100
AcDbEntity
  8
0
100
AcDbSpline
 62
7
  6
CONTINUOUS
 70
0
 71
3
 72
9
 73
5
 74
0
 42
0.0000001
 43
0.0000001
 44
0.0000000001
 40
0.0
 40
0.0
 40
0.0
 40
0.0
 40
0.504378312
 40
1.0
 40
1.0
 40
1.0
 40
1.0
 10
12.3893940328
 20
6.1814262494
 30
0.0
 10
12.3758902826
 20
6.1730173957
 30
0.0
 10
12.3487774452
 20
6.1568827397
 30
0.0
 10
12.3209046487
 20
6.1420855449
 30
0.0
 10
12.3068905107
 20
6.1351607025
 30
0.0
  0
SPLINE
  5
34C
100
AcDbEntity
  8
0
100
AcDbSpline
 62
7
  6
CONTINUOUS
 70
0
 71
3
 72
23
 73
19
 74
0
 42
0.0000001
 43
0.0000001
 44
0.0000000001
 40
0.0
 40
0.0
 40
0.0
 40
0.0
 40
0.0436203086
 40
0.0892268542
 40
0.137068591
 40
0.187353676
 40
0.2402538462
 40
0.2958872461
 40
0.3543311569
 40
0.4156094827
 40
0.4797102731
 40
0.5465788188
 40
0.6161346312
 40
0.6882694307
 40
0.7628606873
 40
0.8397744221
 40
0.9188692703
 40
1.0
 40
1.0
 40
1.0
 40
1.0
 10
11.2741960138
 20
6.1295011619
 30
0.0
 10
11.2718860781
 20
6.1306417304
 30
0.0
 10
11.2672489544
 20
6.1331568269
 30
0.0
 10
11.260421665
 20
6.1375178789
 30
0.0
 10
11.2535852761
 20
6.1425601655
 30
0.0
 10
11.2467437264
 20
6.1482910978
 30
0.0
 10
11.2399026282
 20
6.1547147486
 30
0.0
 10
11.2330650877
 20
6.161826321
 30
0.0
 10
11.2262368285
 20
6.169617133
 30
0.0
 10
11.2194205844
 20
6.1780705355
 30
0.0
 10
11.2126214159
 20
6.1871664414
 30
0.0
 10
11.2058415657
 20
6.1968788233
 30
0.0
 10
11.1990848988
 20
6.2071793714
 30
0.0
 10
11.1923530118
 20
6.2180363255
 30
0.0
 10
11.1856482948
 20
6.229417179
 30
0.0
 10
11.1789716456
 20
6.2412882614
 30
0.0
 10
11.1723241531
 20
6.2536161005
 30
0.0
 10
11.1679650351
 20
6.2620155176
 30
0.0
 10
11.1657875035
 20
6.2662836504
 30
0.0
  0
SPLINE
  5
34D
100
AcDbEntity
  8
0
100
AcDbSpline
 62
7
  6
CONTINUOUS
 70
0
 71
3
 72
47
 73
43
 74
0
 42
0.0000001
 43
0.0000001
 44
0.0000000001
 40
0.0
 40
0.0
 40
0.0
 40
0.0
 40
0.0099874638
 40
0.0204476834
 40
0.0313771515
 40
0.0427708334
 40
0.0546218702
 40
0.0669225517
 40
0.0796641282
 40
0.0928362942
 40
0.1204271347
 40
0.1495984091
 40
0.1802407165
 40
0.2122338314
 40
0.2454489836
 40
0.2797497839
 40
0.3149929168
 40
0.3510298084
 40
0.3877071885
 40
0.4248680172
 40
0.4623527228
 40
0.4999997959
 40
0.5376468789
 40
0.575131606
 40
0.6122924455
 40
0.6489698269
 40
0.6850067267
 40
0.7202498875
 40
0.7545507276
 40
0.7877659112
 40
0.8197590481
 40
0.8504013805
 40
0.8795726993
 40
0.9071635849
 40
0.9203357726
 40
0.933077377
 40
0.9453780958
 40
0.9572291635
 40
0.968622847
 40
0.9795522717
 40
0.9900124597
 40
1.0
 40
1.0
 40
1.0
 40
1.0
 10
12.2764277761
 20
6.120112674
 30
0.0
 10
12.2734372418
 20
6.1186353963
 30
0.0
 10
12.2672635354
 20
6.1157134805
 30
0.0
 10
12.257661337
 20
6.1115140368
 30
0.0
 10
12.2475131589
 20
6.107401202
 30
0.0
 10
12.2368307109
 20
6.1033799922
 30
0.0
 10
12.2256263352
 20
6.099454687
 30
0.0
 10
12.2139128346
 20
6.0956299679
 30
0.0
 10
12.2017035786
 20
6.0919103971
 30
0.0
 10
12.1845157498
 20
6.0870208653
 30
0.0
 10
12.1618854375
 20
6.0812253838
 30
0.0
 10
12.1333941592
 20
6.0748567116
 30
0.0
 10
12.1032941102
 20
6.0690011877
 30
0.0
 10
12.071724104
 20
6.063685846
 30
0.0
 10
12.038829446
 20
6.0589356896
 30
0.0
 10
12.0047617949
 20
6.0547731575
 30
0.0
 10
11.9696783364
 20
6.0512174295
 30
0.0
 10
11.9337410155
 20
6.0482852591
 30
0.0
 10
11.8971157546
 20
6.0459904745
 30
0.0
 10
11.8599717221
 20
6.044343527
 30
0.0
 10
11.8224804982
 20
6.043352291
 30
0.0
 10
11.7848152579
 20
6.0430214344
 30
0.0
 10
11.7471500103
 20
6.0433522743
 30
0.0
 10
11.7096587719
 20
6.0443434943
 30
0.0
 10
11.6725147274
 20
6.045990425
 30
0.0
 10
11.6358894587
 20
6.0482851935
 30
0.0
 10
11.599952124
 20
6.051217347
 30
0.0
 10
11.5648686384
 20
6.0547730604
 30
0.0
 10
11.5308009522
 20
6.0589355779
 30
0.0
 10
11.4979062609
 20
6.0636857209
 30
0.0
 10
11.4663362255
 20
6.0690010468
 30
0.0
 10
11.4362361426
 20
6.0748565564
 30
0.0
 10
11.407744823
 20
6.081225219
 30
0.0
 10
11.385114469
 20
6.0870206871
 30
0.0
 10
11.3679266045
 20
6.0919102094
 30
0.0
 10
11.3557173178
 20
6.0956297787
 30
0.0
 10
11.3440037857
 20
6.099454505
 30
0.0
 10
11.3327993863
 20
6.1033798128
 30
0.0
 10
11.3221169355
 20
6.1074010043
 30
0.0
 10
11.3119687634
 20
6.1115137881
 30
0.0
 10
11.3023665475
 20
6.1157131934
 30
0.0
 10
11.2961928263
 20
6.1186351141
 30
0.0
 10
11.2932022733
 20
6.1201124117
 30
0.0
  0
SPLINE
  5
34E
100
AcDbEntity
  8
0
100
AcDbSpline
 62
7
  6
CONTINUOUS
 70
0
 71
3
 72
15
 73
11
 74
0
 42
0.0000001
 43
0.0000001
 44
0.0000000001
 40
0.0
 40
0.0
 40
0.0
 40
0.0
 40
0.1299708166
 40
0.2593283487
 40
0.3876617857
 40
0.5145654289
 40
0.6396384778
 40
0.7624890516
 40
0.8827334041
 40
1.0
 40
1.0
 40
1.0
 40
1.0
 10
11.7695936258
 20
6.5295845285
 30
0.0
 10
11.7591427977
 20
6.5296610609
 30
0.0
 10
11.7382912601
 20
6.5299712049
 30
0.0
 10
11.7071318432
 20
6.5309081742
 30
0.0
 10
11.6762368199
 20
6.5323134805
 30
0.0
 10
11.6457114732
 20
6.5341818654
 30
0.0
 10
11.6156596761
 20
6.5365073986
 30
0.0
 10
11.5861836752
 20
6.5392816127
 30
0.0
 10
11.5573839181
 20
6.5424954177
 30
0.0
 10
11.5384433216
 20
6.5449567437
 30
0.0
 10
11.5291046195
 20
6.5462624977
 30
0.0
  0
SPLINE
  5
34F
100
AcDbEntity
  8
0
100
AcDbSpline
 62
7
  6
CONTINUOUS
 70
0
 71
3
 72
10
 73
6
 74
0
 42
0.0000001
 43
0.0000001
 44
0.0000000001
 40
0.0
 40
0.0
 40
0.0
 40
0.0
 40
0.4950633206
 40
0.7463873743
 40
1.0
 40
1.0
 40
1.0
 40
1.0
 10
12.0671270389
 20
6.50936208
 30
0.0
 10
12.051567169
 20
6.5019147807
 30
0.0
 10
12.0284765004
 20
6.4899021548
 30
0.0
 10
11.9982496342
 20
6.4725644433
 30
0.0
 10
11.9832090059
 20
6.4634310049
 30
0.0
 10
11.9757074978
 20
6.4587597778
 30
0.0
  0
SPLINE
  5
350
100
AcDbEntity
  8
0
100
AcDbSpline
 62
7
  6
CONTINUOUS
 70
0
 71
3
 72
21
 73
17
 74
0
 42
0.0000001
 43
0.0000001
 44
0.0000000001
 40
0.0
 40
0.0
 40
0.0
 40
0.0
 40
0.1230212981
 40
0.1847065752
 40
0.2465215318
 40
0.3084771567
 40
0.3705832678
 40
0.432847904
 40
0.4952752623
 40
0.5578663069
 40
0.6206183946
 40
0.6835249868
 40
0.7465773451
 40
0.8097643485
 40
0.8730733734
 40
1.0
 40
1.0
 40
1.0
 40
1.0
 10
11.9217866955
 20
6.0706169095
 30
0.0
 10
11.8987075145
 20
6.0660695533
 30
0.0
 10
11.863875073
 20
6.060097147
 30
0.0
 10
11.817103858
 20
6.0541869996
 30
0.0
 10
11.7817925494
 20
6.0508597856
 30
0.0
 10
11.7463081066
 20
6.048725378
 30
0.0
 10
11.7106833855
 20
6.0478546417
 30
0.0
 10
11.674960174
 20
6.0483035369
 30
0.0
 10
11.6391865523
 20
6.0501055356
 30
0.0
 10
11.6034140261
 20
6.0532688215
 30
0.0
 10
11.5676940862
 20
6.0577777721
 30
0.0
 10
11.5320744728
 20
6.0635920139
 30
0.0
 10
11.4965963333
 20
6.070649728
 30
0.0
 10
11.4612921426
 20
6.0788754177
 30
0.0
 10
11.4144482164
 20
6.0912949697
 30
0.0
 10
11.3796878067
 20
6.1020827641
 30
0.0
 10
11.3566802209
 20
6.1098071766
 30
0.0
  0
SPLINE
  5
351
100
AcDbEntity
  8
0
100
AcDbSpline
 62
7
  6
CONTINUOUS
 70
0
 71
3
 72
21
 73
17
 74
0
 42
0.0000001
 43
0.0000001
 44
0.0000000001
 40
0.0
 40
0.0
 40
0.0
 40
0.0
 40
0.1269266266
 40
0.1902356515
 40
0.253422655
 40
0.3164750132
 40
0.3793816055
 40
0.4421336932
 40
0.5047247377
 40
0.567152096
 40
0.6294167323
 40
0.6915228434
 40
0.7534784683
 40
0.8152934248
 40
0.8769787019
 40
1.0
 40
1.0
 40
1.0
 40
1.0
 10
11.9217866955
 20
6.4550203508
 30
0.0
 10
11.8987791097
 20
6.4627447634
 30
0.0
 10
11.8640187
 20
6.4735325577
 30
0.0
 10
11.8171747739
 20
6.4859521098
 30
0.0
 10
11.7818705831
 20
6.4941777995
 30
0.0
 10
11.7463924436
 20
6.5012355135
 30
0.0
 10
11.7107728302
 20
6.5070497553
 30
0.0
 10
11.6750528903
 20
6.5115587059
 30
0.0
 10
11.6392803641
 20
6.5147219918
 30
0.0
 10
11.6035067424
 20
6.5165239906
 30
0.0
 10
11.5677835309
 20
6.5169728858
 30
0.0
 10
11.5321588098
 20
6.5161021494
 30
0.0
 10
11.496674367
 20
6.5139677418
 30
0.0
 10
11.4613630584
 20
6.5106405278
 30
0.0
 10
11.4145918435
 20
6.5047303804
 30
0.0
 10
11.3797594019
 20
6.4987579741
 30
0.0
 10
11.3566802209
 20
6.4942106179
 30
0.0
  0
SPLINE
  5
352
100
AcDbEntity
  8
0
100
AcDbSpline
 62
7
  6
CONTINUOUS
 70
0
 71
3
 72
11
 73
7
 74
0
 42
0.0000001
 43
0.0000001
 44
0.0000000001
 40
0.0
 40
0.0
 40
0.0
 40
0.0
 40
0.2465919593
 40
0.494712682
 40
0.7454424776
 40
1.0
 40
1.0
 40
1.0
 40
1.0
 10
11.317207443
 20
6.1200234704
 30
0.0
 10
11.3152650301
 20
6.1199686357
 30
0.0
 10
11.3113637204
 20
6.1199759822
 30
0.0
 10
11.3054980292
 20
6.120359504
 30
0.0
 10
11.2996079572
 20
6.1211377864
 30
0.0
 10
11.2957015001
 20
6.1219273342
 30
0.0
 10
11.293750055
 20
6.1223917956
 30
0.0
  0
SPLINE
  5
353
100
AcDbEntity
  8
0
100
AcDbSpline
 62
7
  6
CONTINUOUS
 70
0
 71
3
 72
10
 73
6
 74
0
 42
0.0000001
 43
0.0000001
 44
0.0000000001
 40
0.0
 40
0.0
 40
0.0
 40
0.0
 40
0.2418255986
 40
0.4885199497
 40
1.0
 40
1.0
 40
1.0
 40
1.0
 10
11.293750055
 20
6.1223917956
 30
0.0
 10
11.2921155375
 20
6.1227808253
 30
0.0
 10
11.2888352272
 20
6.1236616859
 30
0.0
 10
11.2822363268
 20
6.1258439912
 30
0.0
 10
11.2773824484
 20
6.1279278075
 30
0.0
 10
11.2741960138
 20
6.1295011619
 30
0.0
  0
SPLINE
  5
354
100
AcDbEntity
  8
0
100
AcDbSpline
 62
7
  6
CONTINUOUS
 70
0
 71
3
 72
11
 73
7
 74
0
 42
0.0000001
 43
0.0000001
 44
0.0000000001
 40
0.0
 40
0.0
 40
0.0
 40
0.0
 40
0.2633952514
 40
0.5183435581
 40
0.764111363
 40
1.0
 40
1.0
 40
1.0
 40
1.0
 10
11.317207443
 20
6.5044269117
 30
0.0
 10
11.3144909565
 20
6.5097514385
 30
0.0
 10
11.3090541588
 20
6.5201837483
 30
0.0
 10
11.3007279916
 20
6.5353962342
 30
0.0
 10
11.2923575312
 20
6.5498678773
 30
0.0
 10
11.2866260542
 20
6.5591776171
 30
0.0
 10
11.2837455337
 20
6.5636897717
 30
0.0
  0
LINE
  5
355
100
AcDbEntity
  8
0
100
AcDbLine
 62
7
  6
CONTINUOUS
 10
12.2761075525
 20
6.1207836726
 11
12.2753784385
 21
6.120463785
  0
SPLINE
  5
356
100
AcDbEntity
  8
0
100
AcDbSpline
 62
7
  6
CONTINUOUS
 70
0
 71
3
 72
15
 73
11
 74
0
 42
0.0000001
 43
0.0000001
 44
0.0000000001
 40
0.0
 40
0.0
 40
0.0
 40
0.0
 40
0.1321602046
 40
0.2618009952
 40
0.3890353631
 40
0.5141096583
 40
0.6373677171
 40
0.75919507
 40
0.8799649792
 40
1.0
 40
1.0
 40
1.0
 40
1.0
 10
12.2753784385
 20
6.120463785
 30
0.0
 10
12.2629973351
 20
6.1150400428
 30
0.0
 10
12.2381565712
 20
6.1049930537
 30
0.0
 10
12.2003625081
 20
6.0924596163
 30
0.0
 10
12.1624917387
 20
6.0827423268
 30
0.0
 10
12.124665363
 20
6.0758738226
 30
0.0
 10
12.0869979771
 20
6.0717739941
 30
0.0
 10
12.0495823951
 20
6.0702673062
 30
0.0
 10
12.0124815585
 20
6.0711141539
 30
0.0
 10
11.9879171391
 20
6.0730735039
 30
0.0
 10
11.9757074978
 20
6.0743563364
 30
0.0
  0
SPLINE
  5
357
100
AcDbEntity
  8
0
100
AcDbSpline
 62
7
  6
CONTINUOUS
 70
0
 71
3
 72
91
 73
87
 74
0
 42
0.0000001
 43
0.0000001
 44
0.0000000001
 40
0.0
 40
0.0
 40
0.0
 40
0.0
 40
0.0039801824
 40
0.0081241125
 40
0.0124359604
 40
0.0169193082
 40
0.0215771808
 40
0.0264119179
 40
0.0314251804
 40
0.036618156
 40
0.0419915391
 40
0.0475456573
 40
0.0532804234
 40
0.0591954189
 40
0.0652899227
 40
0.0715629017
 40
0.0780131034
 40
0.0846389837
 40
0.0984102885
 40
0.1128608532
 40
0.1279713725
 40
0.1437199568
 40
0.1600824082
 40
0.1770324532
 40
0.1945419392
 40
0.2125810061
 40
0.2311182422
 40
0.2501208275
 40
0.2695546626
 40
0.2893844909
 40
0.3095740146
 40
0.330086005
 40
0.35088241
 40
0.3719244606
 40
0.3931727759
 40
0.4145874652
 40
0.4361282289
 40
0.4577544586
 40
0.4794253371
 40
0.501099938
 40
0.5227373261
 40
0.5442966575
 40
0.5657372785
 40
0.5870188258
 40
0.6081013261
 40
0.6289452975
 40
0.6495118524
 40
0.6697628021
 40
0.6896607608
 40
0.7091692527
 40
0.7282528228
 40
0.7468771515
 40
0.7650091753
 40
0.7826172172
 40
0.7996711268
 40
0.8161424293
 40
0.8320044948
 40
0.8472327309
 40
0.8618048077
 40
0.8757009255
 40
0.8889041429
 40
0.8952417292
 40
0.9014012652
 40
0.9073816417
 40
0.9131820083
 40
0.9188018518
 40
0.9242409423
 40
0.9294994633
 40
0.9345779585
 40
0.9394774438
 40
0.944199427
 40
0.9487459568
 40
0.95311974
 40
0.9573241405
 40
0.9613633601
 40
0.9652424499
 40
0.9689674846
 40
0.9725456466
 40
0.9759853437
 40
0.9824865016
 40
0.9855753543
 40
0.9885738189
 40
0.9914977372
 40
0.9943643366
 40
0.9971920099
 40
1.0
 40
1.0
 40
1.0
 40
1.0
 10
11.3327614669
 20
10.6246801667
 30
0.0
 10
11.331460235
 20
10.6234232732
 30
0.0
 10
11.3287451456
 20
10.6209183757
 30
0.0
 10
11.3244344186
 20
10.6172597843
 30
0.0
 10
11.3198071389
 20
10.6136274365
 30
0.0
 10
11.314865845
 20
10.6100232608
 30
0.0
 10
11.3096129459
 20
10.6064489405
 30
0.0
 10
11.3040510155
 20
10.6029062145
 30
0.0
 10
11.2981828355
 20
10.5993967815
 30
0.0
 10
11.2920113174
 20
10.5959224626
 30
0.0
 10
11.2855395778
 20
10.5924849255
 30
0.0
 10
11.2787708338
 20
10.5890859387
 30
0.0
 10
11.2717084888
 20
10.5857271739
 30
0.0
 10
11.2643560854
 20
10.5824103285
 30
0.0
 10
11.2567173144
 20
10.5791370929
 30
0.0
 10
11.2487960313
 20
10.5759090842
 30
0.0
 10
11.2405962023
 20
10.5727279621
 30
0.0
 10
11.22914969
 20
10.5684966221
 30
0.0
 10
11.2141679895
 20
10.5633469993
 30
0.0
 10
11.1953711488
 20
10.5574561414
 30
0.0
 10
11.1755691923
 20
10.5517891585
 30
0.0
 10
11.1548020923
 20
10.546357578
 30
0.0
 10
11.1331116198
 20
10.5411724639
 30
0.0
 10
11.1105415167
 20
10.5362443788
 30
0.0
 10
11.087137323
 20
10.531583364
 30
0.0
 10
11.0629463005
 20
10.5271989121
 30
0.0
 10
11.0380173241
 20
10.5230999511
 30
0.0
 10
11.0124007783
 20
10.519294826
 30
0.0
 10
10.9861484514
 20
10.5157912825
 30
0.0
 10
10.9593134282
 20
10.5125964509
 30
0.0
 10
10.9319499812
 20
10.5097168325
 30
0.0
 10
10.9041134599
 20
10.5071582872
 30
0.0
 10
10.8758601784
 20
10.5049260182
 30
0.0
 10
10.8472472988
 20
10.5030245639
 30
0.0
 10
10.8183327144
 20
10.5014577901
 30
0.0
 10
10.789174931
 20
10.500228882
 30
0.0
 10
10.7598329482
 20
10.4993403384
 30
0.0
 10
10.7303661405
 20
10.4987939664
 30
0.0
 10
10.7008341362
 20
10.4985908782
 30
0.0
 10
10.6712966968
 20
10.4987314864
 30
0.0
 10
10.6418135943
 20
10.4992155038
 30
0.0
 10
10.61244449
 20
10.5000419456
 30
0.0
 10
10.583248813
 20
10.5012091317
 30
0.0
 10
10.5542856406
 20
10.5027146893
 30
0.0
 10
10.5256135781
 20
10.5045555582
 30
0.0
 10
10.4972906393
 20
10.5067279966
 30
0.0
 10
10.4693741277
 20
10.5092275871
 30
0.0
 10
10.4419205187
 20
10.5120492438
 30
0.0
 10
10.4149853449
 20
10.5151872263
 30
0.0
 10
10.3886230835
 20
10.5186351496
 30
0.0
 10
10.3628870443
 20
10.5223859972
 30
0.0
 10
10.3378292608
 20
10.5264321348
 30
0.0
 10
10.3135003816
 20
10.5307653261
 30
0.0
 10
10.2899495632
 20
10.5353767473
 30
0.0
 10
10.2672243643
 20
10.5402570042
 30
0.0
 10
10.2453706486
 20
10.5453961543
 30
0.0
 10
10.2244324783
 20
10.5507837286
 30
0.0
 10
10.2044520426
 20
10.5564087539
 30
0.0
 10
10.1854694722
 20
10.5622597813
 30
0.0
 10
10.1675230508
 20
10.5683249129
 30
0.0
 10
10.1532729097
 20
10.5736170477
 30
0.0
 10
10.142427083
 20
10.5779578996
 30
0.0
 10
10.1346851197
 20
10.581214902
 30
0.0
 10
10.1272281432
 20
10.5845160673
 30
0.0
 10
10.1200599037
 20
10.5878597948
 30
0.0
 10
10.1131839874
 20
10.5912443405
 30
0.0
 10
10.1066038633
 20
10.5946680684
 30
0.0
 10
10.1003228069
 20
10.5981292046
 30
0.0
 10
10.0943439745
 20
10.6016260645
 30
0.0
 10
10.0886703448
 20
10.6051568918
 30
0.0
 10
10.0833047388
 20
10.6087199314
 30
0.0
 10
10.0782498481
 20
10.6123134733
 30
0.0
 10
10.0735081517
 20
10.6159357079
 30
0.0
 10
10.0690820498
 20
10.6195849647
 30
0.0
 10
10.0649737102
 20
10.6232594291
 30
0.0
 10
10.0611852045
 20
10.6269574641
 30
0.0
 10
10.0577185198
 20
10.6306772074
 30
0.0
 10
10.0545751524
 20
10.6344174057
 30
0.0
 10
10.0508876857
 20
10.6393353352
 30
0.0
 10
10.0477564261
 20
10.6443858233
 30
0.0
 10
10.0452703421
 20
10.649544152
 30
0.0
 10
10.0437682613
 20
10.6533591211
 30
0.0
 10
10.0425985362
 20
10.6571833726
 30
0.0
 10
10.041762126
 20
10.661015049
 30
0.0
 10
10.0412599549
 20
10.6648514186
 30
0.0
 10
10.0411481612
 20
10.667414414
 30
0.0
 10
10.0411481614
 20
10.6686907489
 30
0.0
  0
SPLINE
  5
358
100
AcDbEntity
  8
0
100
AcDbSpline
 62
7
  6
CONTINUOUS
 70
0
 71
3
 72
21
 73
17
 74
0
 42
0.0000001
 43
0.0000001
 44
0.0000000001
 40
0.0
 40
0.0
 40
0.0
 40
0.0
 40
0.1273175725
 40
0.2538000026
 40
0.3167619332
 40
0.3795354925
 40
0.4421314982
 40
0.5045621433
 40
0.5668413429
 40
0.6289845306
 40
0.6910084612
 40
0.7529311022
 40
0.8147714553
 40
0.8765493457
 40
0.9382852283
 40
1.0
 40
1.0
 40
1.0
 40
1.0
 10
11.5530295473
 20
10.0462206006
 30
0.0
 10
11.5530295473
 20
10.0397222743
 30
0.0
 10
11.5524092399
 20
10.0267598838
 30
0.0
 10
11.5500665607
 20
10.010735567
 30
0.0
 10
11.5472665211
 20
9.9981658876
 30
0.0
 10
11.5447130337
 20
9.988894491
 30
0.0
 10
11.5417090478
 20
9.9797878217
 30
0.0
 10
11.5382614124
 20
9.9708666426
 30
0.0
 10
11.534378108
 20
9.9621515801
 30
0.0
 10
11.5300680656
 20
9.9536627163
 30
0.0
 10
11.5253411718
 20
9.9454196605
 30
0.0
 10
11.520208343
 20
9.9374414072
 30
0.0
 10
11.5146814352
 20
9.9297463695
 30
0.0
 10
11.5087730949
 20
9.9223522597
 30
0.0
 10
11.5024971779
 20
9.9152763731
 30
0.0
 10
11.4980770277
 20
9.9107812868
 30
0.0
 10
11.4958114247
 20
9.9085928706
 30
0.0
  0
SPLINE
  5
359
100
AcDbEntity
  8
0
100
AcDbSpline
 62
7
  6
CONTINUOUS
 70
0
 71
3
 72
21
 73
17
 74
0
 42
0.0000001
 43
0.0000001
 44
0.0000000001
 40
0.0
 40
0.0
 40
0.0
 40
0.0
 40
0.1273175725
 40
0.2538000026
 40
0.3167619332
 40
0.3795354925
 40
0.4421314982
 40
0.5045621433
 40
0.5668413429
 40
0.6289845306
 40
0.6910084612
 40
0.7529311022
 40
0.8147714553
 40
0.8765493457
 40
0.9382852283
 40
1.0
 40
1.0
 40
1.0
 40
1.0
 10
10.4663629283
 20
6.9823220651
 30
0.0
 10
10.4663629283
 20
6.9758237388
 30
0.0
 10
10.4657426209
 20
6.9628613483
 30
0.0
 10
10.4633999418
 20
6.9468370315
 30
0.0
 10
10.4605999021
 20
6.9342673522
 30
0.0
 10
10.4580464147
 20
6.9249959556
 30
0.0
 10
10.4550424288
 20
6.9158892863
 30
0.0
 10
10.4515947935
 20
6.9069681071
 30
0.0
 10
10.447711489
 20
6.8982530446
 30
0.0
 10
10.4434014467
 20
6.8897641809
 30
0.0
 10
10.4386745529
 20
6.881521125
 30
0.0
 10
10.4335417241
 20
6.8735428718
 30
0.0
 10
10.4280148163
 20
6.865847834
 30
0.0
 10
10.422106476
 20
6.8584537242
 30
0.0
 10
10.4158305589
 20
6.8513778376
 30
0.0
 10
10.4114104087
 20
6.8468827514
 30
0.0
 10
10.4091448058
 20
6.8446943351
 30
0.0
  0
SPLINE
  5
35A
100
AcDbEntity
  8
0
100
AcDbSpline
 62
7
  6
CONTINUOUS
 70
0
 71
3
 72
11
 73
7
 74
0
 42
0.0000001
 43
0.0000001
 44
0.0000000001
 40
0.0
 40
0.0
 40
0.0
 40
0.0
 40
0.246150559
 40
0.4958132301
 40
0.7475362236
 40
1.0
 40
1.0
 40
1.0
 40
1.0
 10
10.4236921106
 20
7.7766963349
 30
0.0
 10
10.4236921106
 20
7.7715445375
 30
0.0
 10
10.4240037404
 20
7.761165121
 30
0.0
 10
10.4253695612
 20
7.7455713047
 30
0.0
 10
10.4276236206
 20
7.7299475786
 30
0.0
 10
10.4297055458
 20
7.7195962179
 30
0.0
 10
10.4308897876
 20
7.714446705
 30
0.0
  0
SPLINE
  5
35B
100
AcDbEntity
  8
0
100
AcDbSpline
 62
7
  6
CONTINUOUS
 70
0
 71
3
 72
23
 73
19
 74
0
 42
0.0000001
 43
0.0000001
 44
0.0000000001
 40
0.0
 40
0.0
 40
0.0
 40
0.0
 40
0.0640332065
 40
0.12803922
 40
0.1919694707
 40
0.2557760572
 40
0.3194139512
 40
0.382842765
 40
0.4460279882
 40
0.5089412477
 40
0.5715599862
 40
0.633865837
 40
0.6958421734
 40
0.7574713911
 40
0.818732118
 40
0.8795973061
 40
0.9400332501
 40
1.0
 40
1.0
 40
1.0
 40
1.0
 10
10.5460724931
 20
7.6546998877
 30
0.0
 10
10.549662522
 20
7.6531015182
 30
0.0
 10
10.5568624232
 20
7.6499530769
 30
0.0
 10
10.5677329543
 20
7.645409335
 30
0.0
 10
10.5786787485
 20
7.6410869028
 30
0.0
 10
10.5897033494
 20
7.6370335461
 30
0.0
 10
10.6008088599
 20
7.6333014256
 30
0.0
 10
10.6119946474
 20
7.6299456802
 30
0.0
 10
10.6232558382
 20
7.6270221101
 30
0.0
 10
10.6345818101
 20
7.6245837632
 30
0.0
 10
10.645955166
 20
7.6226767801
 30
0.0
 10
10.6573516156
 20
7.6213358207
 30
0.0
 10
10.6687411046
 20
7.6205799265
 30
0.0
 10
10.6800901717
 20
7.6204103434
 30
0.0
 10
10.6913648775
 20
7.6208103772
 30
0.0
 10
10.7025337239
 20
7.6217475868
 30
0.0
 10
10.7135693457
 20
7.6231778372
 30
0.0
 10
10.7208537784
 20
7.6244310733
 30
0.0
 10
10.724468296
 20
7.6251233128
 30
0.0
  0
SPLINE
  5
35C
100
AcDbEntity
  8
0
100
AcDbSpline
 62
7
  6
CONTINUOUS
 70
0
 71
3
 72
9
 73
5
 74
0
 42
0.0000001
 43
0.0000001
 44
0.0000000001
 40
0.0
 40
0.0
 40
0.0
 40
0.0
 40
0.4791450176
 40
1.0
 40
1.0
 40
1.0
 40
1.0
 10
10.4308897876
 20
7.714446705
 30
0.0
 10
10.4354057969
 20
7.7115495492
 30
0.0
 10
10.44494625
 20
7.7056817838
 30
0.0
 10
10.454668513
 20
7.7001220753
 30
0.0
 10
10.4597692391
 20
7.6972935408
 30
0.0
  0
SPLINE
  5
35D
100
AcDbEntity
  8
0
100
AcDbSpline
 62
7
  6
CONTINUOUS
 70
0
 71
3
 72
9
 73
5
 74
0
 42
0.0000001
 43
0.0000001
 44
0.0000000001
 40
0.0
 40
0.0
 40
0.0
 40
0.0
 40
0.2375431261
 40
1.0
 40
1.0
 40
1.0
 40
1.0
 10
10.4597692391
 20
7.6972935408
 30
0.0
 10
10.4617152872
 20
7.6962143878
 30
0.0
 10
10.469930536
 20
7.6917126171
 30
0.0
 10
10.4782318566
 20
7.6873689449
 30
0.0
 10
10.4845934933
 20
7.6841217061
 30
0.0
  0
SPLINE
  5
35E
100
AcDbEntity
  8
0
100
AcDbSpline
 62
7
  6
CONTINUOUS
 70
0
 71
3
 72
9
 73
5
 74
0
 42
0.0000001
 43
0.0000001
 44
0.0000000001
 40
0.0
 40
0.0
 40
0.0
 40
0.0
 40
0.501716077
 40
1.0
 40
1.0
 40
1.0
 40
1.0
 10
10.4845934933
 20
7.6841217061
 30
0.0
 10
10.4880726278
 20
7.6806148121
 30
0.0
 10
10.4953198346
 20
7.6739291129
 30
0.0
 10
10.5030999957
 20
7.6678752905
 30
0.0
 10
10.5070879859
 20
7.6650176883
 30
0.0
  0
SPLINE
  5
35F
100
AcDbEntity
  8
0
100
AcDbSpline
 62
7
  6
CONTINUOUS
 70
0
 71
3
 72
21
 73
17
 74
0
 42
0.0000001
 43
0.0000001
 44
0.0000000001
 40
0.0
 40
0.0
 40
0.0
 40
0.0
 40
0.1273176368
 40
0.2537999758
 40
0.3167619477
 40
0.3795355043
 40
0.4421314993
 40
0.504562144
 40
0.5668413432
 40
0.6289845282
 40
0.6910084527
 40
0.7529310934
 40
0.8147714494
 40
0.8765493364
 40
0.9382852193
 40
1.0
 40
1.0
 40
1.0
 40
1.0
 10
10.7257028986
 20
7.646416372
 30
0.0
 10
10.7257028986
 20
7.6399180007
 30
0.0
 10
10.7250825861
 20
7.6269555277
 30
0.0
 10
10.7227398671
 20
7.6109311106
 30
0.0
 10
10.719939797
 20
7.5983613562
 30
0.0
 10
10.7173862836
 20
7.5890899009
 30
0.0
 10
10.7143822468
 20
7.579983184
 30
0.0
 10
10.71093457
 20
7.571061956
 30
0.0
 10
10.7070512276
 20
7.5623468432
 30
0.0
 10
10.7027411206
 20
7.5538579439
 30
0.0
 10
10.6980141633
 20
7.5456148549
 30
0.0
 10
10.6928812846
 20
7.5376365616
 30
0.0
 10
10.6873543071
 20
7.5299414982
 30
0.0
 10
10.6814458797
 20
7.5225473807
 30
0.0
 10
10.6751699057
 20
7.5154714627
 30
0.0
 10
10.6707496961
 20
7.5109763775
 30
0.0
 10
10.6684840723
 20
7.508787953
 30
0.0
  0
SPLINE
  5
360
100
AcDbEntity
  8
0
100
AcDbSpline
 62
7
  6
CONTINUOUS
 70
0
 71
3
 72
40
 73
36
 74
0
 42
0.0000001
 43
0.0000001
 44
0.0000000001
 40
0.0
 40
0.0
 40
0.0
 40
0.0
 40
0.0310751297
 40
0.046674719
 40
0.0623128023
 40
0.0936978569
 40
0.1252268442
 40
0.1568884391
 40
0.1886684324
 40
0.2205502263
 40
0.2525151435
 40
0.2845428352
 40
0.3166116956
 40
0.348699299
 40
0.3807828474
 40
0.4128396233
 40
0.4448474412
 40
0.4767850923
 40
0.5086327748
 40
0.5403725043
 40
0.571988497
 40
0.6034675183
 40
0.6347991897
 40
0.665976246
 40
0.6969947359
 40
0.7278541571
 40
0.7585575208
 40
0.7891113379
 40
0.8195255236
 40
0.8498132176
 40
0.8799905191
 40
0.9100761418
 40
0.9400909923
 40
0.9700576842
 40
1.0
 40
1.0
 40
1.0
 40
1.0
 10
10.7257028986
 20
7.646416372
 30
0.0
 10
10.7257028986
 20
7.6514672289
 30
0.0
 10
10.7254205669
 20
7.6590574082
 30
0.0
 10
10.7244881317
 20
7.6691441202
 30
0.0
 10
10.7231816031
 20
7.679240491
 30
0.0
 10
10.7208525596
 20
7.6918061803
 30
0.0
 10
10.7169677203
 20
7.7066925193
 30
0.0
 10
10.712010755
 20
7.7213250052
 30
0.0
 10
10.706009043
 20
7.7356228389
 30
0.0
 10
10.6989956299
 20
7.7495076877
 30
0.0
 10
10.691009099
 20
7.7629033267
 30
0.0
 10
10.6820933509
 20
7.7757362646
 30
0.0
 10
10.6722973646
 20
7.7879360832
 30
0.0
 10
10.6616749309
 20
7.7994358361
 30
0.0
 10
10.6502843596
 20
7.8101724067
 30
0.0
 10
10.6381881623
 20
7.8200868533
 30
0.0
 10
10.6254527136
 20
7.8291247282
 30
0.0
 10
10.6121478903
 20
7.8372363749
 30
0.0
 10
10.5983466933
 20
7.8443771982
 30
0.0
 10
10.5841248515
 20
7.8505079085
 30
0.0
 10
10.5695604124
 20
7.8555947376
 30
0.0
 10
10.5547333193
 20
7.8596096246
 30
0.0
 10
10.5397249786
 20
7.8625303717
 30
0.0
 10
10.524617819
 20
7.8643407698
 30
0.0
 10
10.5094948455
 20
7.8650306927
 30
0.0
 10
10.4944391877
 20
7.8645961598
 30
0.0
 10
10.4795336481
 20
7.8630393664
 30
0.0
 10
10.4648602486
 20
7.860368682
 30
0.0
 10
10.4504997784
 20
7.8565986134
 30
0.0
 10
10.4365313534
 20
7.8517497437
 30
0.0
 10
10.4230319478
 20
7.8458486029
 30
0.0
 10
10.4100760635
 20
7.8389276292
 30
0.0
 10
10.3977349312
 20
7.8310246335
 30
0.0
 10
10.3860775079
 20
7.8221839492
 30
0.0
 10
10.378801422
 20
7.81569453
 30
0.0
 10
10.375301002
 20
7.8123133841
 30
0.0
  0
SPLINE
  5
361
100
AcDbEntity
  8
0
100
AcDbSpline
 62
7
  6
CONTINUOUS
 70
0
 71
3
 72
18
 73
14
 74
0
 42
0.0000001
 43
0.0000001
 44
0.0000000001
 40
0.0
 40
0.0
 40
0.0
 40
0.0
 40
0.0548620589
 40
0.1099280789
 40
0.165399508
 40
0.2214731255
 40
0.2783387361
 40
0.3361775086
 40
0.4554063416
 40
0.5804417492
 40
0.7123343341
 40
0.8519577333
 40
1.0
 40
1.0
 40
1.0
 40
1.0
 10
11.3551481614
 20
10.668690749
 30
0.0
 10
11.3551481613
 20
10.6677628817
 30
0.0
 10
11.3550892591
 20
10.6659031647
 30
0.0
 10
11.3548244565
 20
10.6631166149
 30
0.0
 10
11.3543832695
 20
10.6603316708
 30
0.0
 10
11.3537658437
 20
10.6575493497
 30
0.0
 10
11.3529724184
 20
10.6547703539
 30
0.0
 10
11.3516674113
 20
10.6510333496
 30
0.0
 10
11.3495768121
 20
10.6463593577
 30
0.0
 10
11.3463947897
 20
10.6408393554
 30
0.0
 10
11.3425192589
 20
10.6353550827
 30
0.0
 10
11.3379561161
 20
10.6299120438
 30
0.0
 10
11.3345623359
 20
10.6264196728
 30
0.0
 10
11.3327614669
 20
10.6246801667
 30
0.0
  0
SPLINE
  5
362
100
AcDbEntity
  8
0
100
AcDbSpline
 62
7
  6
CONTINUOUS
 70
0
 71
3
 72
14
 73
10
 74
0
 42
0.0000001
 43
0.0000001
 44
0.0000000001
 40
0.0
 40
0.0
 40
0.0
 40
0.0
 40
0.1161952295
 40
0.2348112449
 40
0.4797365357
 40
0.6061806076
 40
0.7351636011
 40
0.8665210784
 40
1.0
 40
1.0
 40
1.0
 40
1.0
 10
10.4364938061
 20
7.8515187865
 30
0.0
 10
10.435437344
 20
7.8487580689
 30
0.0
 10
10.4334490379
 20
7.8431217261
 30
0.0
 10
10.4299745529
 20
7.8314184839
 30
0.0
 10
10.4273156404
 20
7.8192174984
 30
0.0
 10
10.4254494331
 20
7.8066234997
 30
0.0
 10
10.4244349645
 20
7.7968329026
 30
0.0
 10
10.4238255667
 20
7.7868301658
 30
0.0
 10
10.4236921106
 20
7.7800919801
 30
0.0
 10
10.4236921106
 20
7.7766963349
 30
0.0
  0
SPLINE
  5
363
100
AcDbEntity
  8
0
100
AcDbSpline
 62
7
  6
CONTINUOUS
 70
0
 71
3
 72
41
 73
37
 74
0
 42
0.0000001
 43
0.0000001
 44
0.0000000001
 40
0.0
 40
0.0
 40
0.0
 40
0.0
 40
0.0299421722
 40
0.0599087187
 40
0.0899234222
 40
0.1200088965
 40
0.1501860486
 40
0.1804735921
 40
0.2108876267
 40
0.2414412921
 40
0.2721445039
 40
0.3030037728
 40
0.3340221097
 40
0.3651990124
 40
0.3965305293
 40
0.4280093954
 40
0.4596252325
 40
0.4913648061
 40
0.523212333
 40
0.5551498293
 40
0.5871574933
 40
0.6192141165
 40
0.6512975132
 40
0.6833849656
 40
0.7154536753
 40
0.7314763803
 40
0.7474860474
 40
0.7794508144
 40
0.8113324582
 40
0.8431123019
 40
0.8747737477
 40
0.9063025846
 40
0.9376874998
 40
0.9533255315
 40
0.9689249968
 40
1.0
 40
1.0
 40
1.0
 40
1.0
 10
11.202626947
 20
10.2121169238
 30
0.0
 10
11.2061273649
 20
10.2154980862
 30
0.0
 10
11.2134034202
 20
10.2219875683
 30
0.0
 10
11.2250608267
 20
10.2308283247
 30
0.0
 10
11.2374019421
 20
10.2387313994
 30
0.0
 10
11.2503578173
 20
10.2456524502
 30
0.0
 10
11.26385722
 20
10.2515536676
 30
0.0
 10
11.2778256489
 20
10.2564026116
 30
0.0
 10
11.2921861295
 20
10.2601727509
 30
0.0
 10
11.3068595458
 20
10.2628435011
 30
0.0
 10
11.3217651081
 20
10.2644003536
 30
0.0
 10
11.3368207933
 20
10.2648349377
 30
0.0
 10
11.351943798
 20
10.2641450594
 30
0.0
 10
11.3670509917
 20
10.2623347004
 30
0.0
 10
11.3820593691
 20
10.2594139876
 30
0.0
 10
11.396886501
 20
10.2553991309
 30
0.0
 10
11.411450981
 20
10.2503123285
 30
0.0
 10
11.4256728657
 20
10.2441816418
 30
0.0
 10
11.4394741079
 20
10.2370408385
 30
0.0
 10
11.4527789767
 20
10.2289292092
 30
0.0
 10
11.4655144756
 20
10.2198913405
 30
0.0
 10
11.4776107069
 20
10.209976916
 30
0.0
 10
11.4890013671
 20
10.1992402785
 30
0.0
 10
11.4996236714
 20
10.1877407573
 30
0.0
 10
11.5077901757
 20
10.1775702129
 30
0.0
 10
11.513883151
 20
10.1691164483
 30
0.0
 10
11.5196695583
 20
10.1604702957
 30
0.0
 10
11.5263222995
 20
10.1493119296
 30
0.0
 10
11.5333355749
 20
10.1354272967
 30
0.0
 10
11.5393373541
 20
10.1211293727
 30
0.0
 10
11.5442943272
 20
10.106496876
 30
0.0
 10
11.5481791876
 20
10.0916105018
 30
0.0
 10
11.5505082389
 20
10.0790447827
 30
0.0
 10
11.5518147761
 20
10.0689483941
 30
0.0
 10
11.5527472146
 20
10.0588616621
 30
0.0
 10
11.5530295473
 20
10.0512714715
 30
0.0
 10
11.5530295473
 20
10.0462206006
 30
0.0
  0
SPLINE
  5
364
100
AcDbEntity
  8
0
100
AcDbSpline
 62
7
  6
CONTINUOUS
 70
0
 71
3
 72
41
 73
37
 74
0
 42
0.0000001
 43
0.0000001
 44
0.0000000001
 40
0.0
 40
0.0
 40
0.0
 40
0.0
 40
0.0299421722
 40
0.0599087187
 40
0.0899234222
 40
0.1200088965
 40
0.1501860486
 40
0.1804735921
 40
0.2108876267
 40
0.2414412921
 40
0.2721445039
 40
0.3030037728
 40
0.3340221097
 40
0.3651990124
 40
0.3965305293
 40
0.4280093954
 40
0.4596252325
 40
0.4913648061
 40
0.523212333
 40
0.5551498293
 40
0.5871574933
 40
0.6192141165
 40
0.6512975132
 40
0.6833849656
 40
0.7154536753
 40
0.7314763803
 40
0.7474860474
 40
0.7794508144
 40
0.8113324582
 40
0.8431123019
 40
0.8747737477
 40
0.9063025846
 40
0.9376874998
 40
0.9533255315
 40
0.9689249968
 40
1.0
 40
1.0
 40
1.0
 40
1.0
 10
10.115960328
 20
7.1482183883
 30
0.0
 10
10.1194607459
 20
7.1515995507
 30
0.0
 10
10.1267368012
 20
7.1580890328
 30
0.0
 10
10.1383942077
 20
7.1669297892
 30
0.0
 10
10.1507353231
 20
7.174832864
 30
0.0
 10
10.1636911984
 20
7.1817539148
 30
0.0
 10
10.177190601
 20
7.1876551322
 30
0.0
 10
10.1911590299
 20
7.1925040761
 30
0.0
 10
10.2055195106
 20
7.1962742154
 30
0.0
 10
10.2201929268
 20
7.1989449656
 30
0.0
 10
10.2350984891
 20
7.2005018181
 30
0.0
 10
10.2501541743
 20
7.2009364022
 30
0.0
 10
10.2652771791
 20
7.200246524
 30
0.0
 10
10.2803843728
 20
7.1984361649
 30
0.0
 10
10.2953927501
 20
7.1955154521
 30
0.0
 10
10.310219882
 20
7.1915005954
 30
0.0
 10
10.324784362
 20
7.186413793
 30
0.0
 10
10.3390062467
 20
7.1802831063
 30
0.0
 10
10.352807489
 20
7.173142303
 30
0.0
 10
10.3661123578
 20
7.1650306737
 30
0.0
 10
10.3788478567
 20
7.1559928051
 30
0.0
 10
10.390944088
 20
7.1460783805
 30
0.0
 10
10.4023347481
 20
7.135341743
 30
0.0
 10
10.4129570524
 20
7.1238422218
 30
0.0
 10
10.4211235568
 20
7.1136716774
 30
0.0
 10
10.4272165321
 20
7.1052179128
 30
0.0
 10
10.4330029394
 20
7.0965717603
 30
0.0
 10
10.4396556805
 20
7.0854133941
 30
0.0
 10
10.4466689559
 20
7.0715287613
 30
0.0
 10
10.4526707351
 20
7.0572308372
 30
0.0
 10
10.4576277083
 20
7.0425983405
 30
0.0
 10
10.4615125686
 20
7.0277119664
 30
0.0
 10
10.4638416199
 20
7.0151462472
 30
0.0
 10
10.4651481571
 20
7.0050498587
 30
0.0
 10
10.4660805956
 20
6.9949631266
 30
0.0
 10
10.4663629283
 20
6.987372936
 30
0.0
 10
10.4663629283
 20
6.9823220651
 30
0.0
  0
SPLINE
  5
365
100
AcDbEntity
  8
0
100
AcDbSpline
 62
7
  6
CONTINUOUS
 70
0
 71
3
 72
57
 73
53
 74
0
 42
0.0000001
 43
0.0000001
 44
0.0000000001
 40
0.0
 40
0.0
 40
0.0
 40
0.0
 40
0.0075207377
 40
0.015624028
 40
0.0243308638
 40
0.0336546157
 40
0.0436024319
 40
0.0541763732
 40
0.0653744197
 40
0.0771909865
 40
0.0896175199
 40
0.1026429537
 40
0.1162538777
 40
0.130434935
 40
0.1451689949
 40
0.1604372405
 40
0.1762194575
 40
0.1924940617
 40
0.2092382116
 40
0.2264279995
 40
0.2620427455
 40
0.2991284346
 40
0.3374614777
 40
0.3768078268
 40
0.4169251372
 40
0.4575648384
 40
0.4984741894
 40
0.53939832
 40
0.5800822389
 40
0.6202728588
 40
0.6597210285
 40
0.698183566
 40
0.7354253423
 40
0.7712214699
 40
0.7885109314
 40
0.8053604617
 40
0.8217458655
 40
0.8376440888
 40
0.8530332147
 40
0.867892698
 40
0.8822034271
 40
0.8959478125
 40
0.909110096
 40
0.921676418
 40
0.9336350902
 40
0.9449769868
 40
0.9556957896
 40
0.9657885936
 40
0.9752564118
 40
0.9841051077
 40
0.992346922
 40
1.0
 40
1.0
 40
1.0
 40
1.0
 10
12.7139956274
 20
8.7489592958
 30
0.0
 10
12.7131137535
 20
8.7500435975
 30
0.0
 10
12.7113761439
 20
8.7523739691
 30
0.0
 10
12.7089309333
 20
8.7561808135
 30
0.0
 10
12.7065555017
 20
8.7604199311
 30
0.0
 10
12.7042536622
 20
8.7650844048
 30
0.0
 10
12.7020288943
 20
8.7701669753
 30
0.0
 10
12.699884746
 20
8.7756594853
 30
0.0
 10
12.6978247386
 20
8.7815530918
 30
0.0
 10
12.6958522508
 20
8.7878382015
 30
0.0
 10
12.6939705483
 20
8.7945045351
 30
0.0
 10
12.6921828023
 20
8.8015411501
 30
0.0
 10
12.6904919747
 20
8.8089364499
 30
0.0
 10
12.6889009071
 20
8.8166782264
 30
0.0
 10
12.6874122858
 20
8.8247536795
 30
0.0
 10
12.6860285812
 20
8.8331494358
 30
0.0
 10
12.684752134
 20
8.841851584
 30
0.0
 10
12.6835850943
 20
8.8508456897
 30
0.0
 10
12.6825293777
 20
8.8601168435
 30
0.0
 10
12.6812576605
 20
8.8729793687
 30
0.0
 10
12.6799690976
 20
8.8896369415
 30
0.0
 10
12.678906979
 20
8.9102459452
 30
0.0
 10
12.6783188799
 20
8.9315675783
 30
0.0
 10
12.6782089021
 20
8.9534602652
 30
0.0
 10
12.6785779834
 20
8.9757787534
 30
0.0
 10
12.6794237982
 20
8.9983748699
 30
0.0
 10
12.6807407973
 20
9.0210985863
 30
0.0
 10
12.6825202616
 20
9.0437990127
 30
0.0
 10
12.684750364
 20
9.0663254161
 30
0.0
 10
12.6874162246
 20
9.0885282398
 30
0.0
 10
12.6905000235
 20
9.1102600921
 30
0.0
 10
12.6939811097
 20
9.1313768044
 30
0.0
 10
12.6978361887
 20
9.1517381812
 30
0.0
 10
12.7013785029
 20
9.16814876
 30
0.0
 10
12.7043883758
 20
9.1807924895
 30
0.0
 10
12.7066964926
 20
9.1898941473
 30
0.0
 10
12.7090775544
 20
9.1987094696
 30
0.0
 10
12.7115275924
 20
9.2072238464
 30
0.0
 10
12.7140425367
 20
9.2154231518
 30
0.0
 10
12.7166181793
 20
9.2232938032
 30
0.0
 10
12.7192502118
 20
9.2308227729
 30
0.0
 10
12.7219342716
 20
9.2379976041
 30
0.0
 10
12.7246658582
 20
9.2448064597
 30
0.0
 10
12.7274404297
 20
9.2512381226
 30
0.0
 10
12.7302533979
 20
9.2572820195
 30
0.0
 10
12.7331000732
 20
9.2629282757
 30
0.0
 10
12.7359757948
 20
9.2681676969
 30
0.0
 10
12.7388758929
 20
9.2729918059
 30
0.0
 10
12.7417956372
 20
9.277392873
 30
0.0
 10
12.7447306195
 20
9.2813640554
 30
0.0
 10
12.7476760989
 20
9.2848987258
 30
0.0
 10
12.7497177119
 20
9.287037862
 30
0.0
 10
12.7507406639
 20
9.2880259577
 30
0.0
  0
SPLINE
  5
366
100
AcDbEntity
  8
0
100
AcDbSpline
 62
7
  6
CONTINUOUS
 70
0
 71
3
 72
67
 73
63
 74
0
 42
0.0000001
 43
0.0000001
 44
0.0000000001
 40
0.0
 40
0.0
 40
0.0
 40
0.0
 40
0.0155846213
 40
0.0311170668
 40
0.0465968192
 40
0.0620259865
 40
0.0774060849
 40
0.0927394311
 40
0.1080287937
 40
0.1232773619
 40
0.1384887615
 40
0.1536669979
 40
0.1688164255
 40
0.1839417028
 40
0.199047742
 40
0.2141396589
 40
0.2292227208
 40
0.2443022904
 40
0.2593837676
 40
0.2744725309
 40
0.2895738804
 40
0.3046929831
 40
0.319834818
 40
0.3350041228
 40
0.3502053439
 40
0.3654425945
 40
0.3807196143
 40
0.3960397325
 40
0.4114058354
 40
0.426820342
 40
0.4422851868
 40
0.4578018036
 40
0.4733711146
 40
0.4889935259
 40
0.5046689328
 40
0.520396725
 40
0.5361757955
 40
0.5520045539
 40
0.5678809505
 40
0.5838024983
 40
0.599766298
 40
0.6157690657
 40
0.6318071682
 40
0.6478766587
 40
0.663973312
 40
0.6800926609
 40
0.7123721235
 40
0.7446846192
 40
0.7769900058
 40
0.8092483936
 40
0.8253521889
 40
0.8414301118
 40
0.8574778627
 40
0.8734914072
 40
0.889467014
 40
0.9054013002
 40
0.9212912382
 40
0.9371342307
 40
0.9529281326
 40
0.9686709488
 40
0.9843622542
 40
1.0
 40
1.0
 40
1.0
 40
1.0
 10
10.2335747904
 20
7.6620570943
 30
0.0
 10
10.2335747904
 20
7.6664744223
 30
0.0
 10
10.2337909879
 20
7.675295855
 30
0.0
 10
10.234766799
 20
7.6884723985
 30
0.0
 10
10.2363914622
 20
7.7015407436
 30
0.0
 10
10.2386608969
 20
7.7144687953
 30
0.0
 10
10.2415698121
 20
7.7272256542
 30
0.0
 10
10.2451111748
 20
7.7397804836
 30
0.0
 10
10.2492764673
 20
7.7521030398
 30
0.0
 10
10.2540556854
 20
7.7641636081
 30
0.0
 10
10.2594373484
 20
7.7759330937
 30
0.0
 10
10.2654085071
 20
7.7873831064
 30
0.0
 10
10.2719547633
 20
7.7984860362
 30
0.0
 10
10.2790603479
 20
7.8092151005
 30
0.0
 10
10.2867081504
 20
7.8195444075
 30
0.0
 10
10.2948797477
 20
7.8294490255
 30
0.0
 10
10.3035554168
 20
7.8389050748
 30
0.0
 10
10.312714233
 20
7.8478897483
 30
0.0
 10
10.3223341112
 20
7.85638137
 30
0.0
 10
10.3323918607
 20
7.8643594408
 30
0.0
 10
10.3428632028
 20
7.8718047397
 30
0.0
 10
10.3537228698
 20
7.8786993282
 30
0.0
 10
10.3649446657
 20
7.8850265902
 30
0.0
 10
10.3765015306
 20
7.8907712619
 30
0.0
 10
10.3883655806
 20
7.8959195183
 30
0.0
 10
10.4005081928
 20
7.9004589859
 30
0.0
 10
10.4129000848
 20
7.9043787467
 30
0.0
 10
10.425511382
 20
7.9076693615
 30
0.0
 10
10.438311678
 20
7.9103229228
 30
0.0
 10
10.4512701111
 20
7.9123330902
 30
0.0
 10
10.4643554503
 20
7.913695054
 30
0.0
 10
10.477536165
 20
7.9144055537
 30
0.0
 10
10.4907804969
 20
7.9144628921
 30
0.0
 10
10.5040565384
 20
7.9138669884
 30
0.0
 10
10.5173323131
 20
7.9126193152
 30
0.0
 10
10.5305758495
 20
7.9107229023
 30
0.0
 10
10.543755252
 20
7.9081823221
 30
0.0
 10
10.5568387894
 20
7.9050037385
 30
0.0
 10
10.5697949659
 20
7.901194842
 30
0.0
 10
10.5825925925
 20
7.8967648253
 30
0.0
 10
10.5952008574
 20
7.891724353
 30
0.0
 10
10.6075894073
 20
7.88608559
 30
0.0
 10
10.6197284523
 20
7.8798621277
 30
0.0
 10
10.6315887022
 20
7.8730690278
 30
0.0
 10
10.6431418864
 20
7.8657223958
 30
0.0
 10
10.6581038594
 20
7.8552096903
 30
0.0
 10
10.6758983048
 20
7.8407765413
 30
0.0
 10
10.6955826648
 20
7.8215695067
 30
0.0
 10
10.7134250595
 20
7.800648091
 30
0.0
 10
10.726626065
 20
7.7819364019
 30
0.0
 10
10.7361022219
 20
7.7663156724
 30
0.0
 10
10.7426477288
 20
7.7543085376
 30
0.0
 10
10.7486184232
 20
7.7420341908
 30
0.0
 10
10.7540001242
 20
7.7295218691
 30
0.0
 10
10.7587798013
 20
7.7168017699
 30
0.0
 10
10.7629459591
 20
7.7039044968
 30
0.0
 10
10.7664885494
 20
7.6908611024
 30
0.0
 10
10.7693990089
 20
7.6777029602
 30
0.0
 10
10.7716702501
 20
7.6644618362
 30
0.0
 10
10.7732969195
 20
7.6511693483
 30
0.0
 10
10.7742748754
 20
7.6378581159
 30
0.0
 10
10.7744932852
 20
7.628976655
 30
0.0
 10
10.7744932852
 20
7.6245442693
 30
0.0
  0
SPLINE
  5
367
100
AcDbEntity
  8
0
100
AcDbSpline
 62
7
  6
CONTINUOUS
 70
0
 71
3
 72
21
 73
17
 74
0
 42
0.0000001
 43
0.0000001
 44
0.0000000001
 40
0.0
 40
0.0
 40
0.0
 40
0.0
 40
0.1273175725
 40
0.2538000026
 40
0.3167619332
 40
0.3795354925
 40
0.4421314982
 40
0.5045621433
 40
0.5668413429
 40
0.6289845306
 40
0.6910084612
 40
0.7529311022
 40
0.8147714553
 40
0.8765493457
 40
0.9382852283
 40
1.0
 40
1.0
 40
1.0
 40
1.0
 10
10.0587422055
 20
7.0105906583
 30
0.0
 10
10.0587422055
 20
7.0170889846
 30
0.0
 10
10.0593625129
 20
7.030051375
 30
0.0
 10
10.061705192
 20
7.0460756919
 30
0.0
 10
10.0645052317
 20
7.0586453712
 30
0.0
 10
10.0670587191
 20
7.0679167678
 30
0.0
 10
10.070062705
 20
7.0770234371
 30
0.0
 10
10.0735103403
 20
7.0859446162
 30
0.0
 10
10.0773936448
 20
7.0946596788
 30
0.0
 10
10.0817036871
 20
7.1031485425
 30
0.0
 10
10.0864305809
 20
7.1113915984
 30
0.0
 10
10.0915634097
 20
7.1193698516
 30
0.0
 10
10.0970903175
 20
7.1270648894
 30
0.0
 10
10.1029986578
 20
7.1344589992
 30
0.0
 10
10.1092745749
 20
7.1415348858
 30
0.0
 10
10.1136947251
 20
7.146029972
 30
0.0
 10
10.115960328
 20
7.1482183883
 30
0.0
  0
SPLINE
  5
368
100
AcDbEntity
  8
0
100
AcDbSpline
 62
7
  6
CONTINUOUS
 70
0
 71
3
 72
23
 73
19
 74
0
 42
0.0000001
 43
0.0000001
 44
0.0000000001
 40
0.0
 40
0.0
 40
0.0
 40
0.0
 40
0.0755957668
 40
0.1466392768
 40
0.213465616
 40
0.2765144371
 40
0.3363265454
 40
0.3935471053
 40
0.4489233774
 40
0.5032884899
 40
0.5575264287
 40
0.6125277193
 40
0.6691437645
 40
0.7281492125
 40
0.7902196994
 40
0.8559237551
 40
0.9257265947
 40
1.0
 40
1.0
 40
1.0
 40
1.0
 10
12.7507406639
 20
8.747107463
 30
0.0
 10
12.7499624807
 20
8.7463557957
 30
0.0
 10
12.7484071292
 20
8.7449439254
 30
0.0
 10
12.7460000757
 20
8.7430577325
 30
0.0
 10
12.7435958269
 20
8.7414735998
 30
0.0
 10
12.7411966277
 20
8.7401939015
 30
0.0
 10
12.7388044585
 20
8.7392209827
 30
0.0
 10
12.7364217993
 20
8.7385571728
 30
0.0
 10
12.7340517542
 20
8.7382048865
 30
0.0
 10
12.7316982904
 20
8.7381657172
 30
0.0
 10
12.7293659241
 20
8.7384403172
 30
0.0
 10
12.7270591715
 20
8.7390277981
 30
0.0
 10
12.72478196
 20
8.7399262368
 30
0.0
 10
12.7225372984
 20
8.741132971
 30
0.0
 10
12.720327468
 20
8.7426452646
 30
0.0
 10
12.7181542448
 20
8.7444604781
 30
0.0
 10
12.7160193894
 20
8.746575939
 30
0.0
 10
12.7146663527
 20
8.7481346103
 30
0.0
 10
12.7139956274
 20
8.7489592958
 30
0.0
  0
SPLINE
  5
369
100
AcDbEntity
  8
0
100
AcDbSpline
 62
7
  6
CONTINUOUS
 70
0
 71
3
 72
51
 73
47
 74
0
 42
0.0000001
 43
0.0000001
 44
0.0000000001
 40
0.0
 40
0.0
 40
0.0
 40
0.0
 40
0.076286172
 40
0.1142443979
 40
0.1520646549
 40
0.1897347972
 40
0.2272426947
 40
0.2645732648
 40
0.3017091269
 40
0.3386305532
 40
0.3753138651
 40
0.411731659
 40
0.4298307955
 40
0.4478509194
 40
0.4836298175
 40
0.5190192612
 40
0.5365483856
 40
0.5539556018
 40
0.5883566196
 40
0.6221200252
 40
0.6387239236
 40
0.6551160258
 40
0.6712750257
 40
0.6871768626
 40
0.7027972965
 40
0.7181111185
 40
0.73309714
 40
0.7477388954
 40
0.7620304173
 40
0.7759797149
 40
0.7896103577
 40
0.8029596106
 40
0.8160719557
 40
0.8289897758
 40
0.8417446075
 40
0.8543519056
 40
0.8790901606
 40
0.8911881747
 40
0.9030558809
 40
0.9146523294
 40
0.9259341164
 40
0.9473766363
 40
0.9670493249
 40
0.9846615385
 40
0.9926247243
 40
1.0
 40
1.0
 40
1.0
 40
1.0
 10
10.4799785906
 20
7.8400845984
 30
0.0
 10
10.4861489957
 20
7.8359992781
 30
0.0
 10
10.4953525309
 20
7.8298247507
 30
0.0
 10
10.5075168047
 20
7.8214801275
 30
0.0
 10
10.5165463728
 20
7.8151884728
 30
0.0
 10
10.5254903047
 20
7.8088509126
 30
0.0
 10
10.5343417145
 20
7.8024655832
 30
0.0
 10
10.5430919906
 20
7.7960293958
 30
0.0
 10
10.5517310787
 20
7.7895389434
 30
0.0
 10
10.5602472872
 20
7.7829904975
 30
0.0
 10
10.5686260194
 20
7.7763788423
 30
0.0
 10
10.5754934337
 20
7.7708007669
 30
0.0
 10
10.5809007617
 20
7.7662979751
 30
0.0
 10
10.5862216504
 20
7.7617886441
 30
0.0
 10
10.5927428448
 20
7.7561019092
 30
0.0
 10
10.5991026797
 20
7.7503052552
 30
0.0
 10
10.6040518411
 20
7.7456095966
 30
0.0
 10
10.6088634691
 20
7.7409093442
 30
0.0
 10
10.6146606219
 20
7.7349655796
 30
0.0
 10
10.6201635798
 20
7.7288509105
 30
0.0
 10
10.6243063468
 20
7.7238722483
 30
0.0
 10
10.6272475794
 20
7.7201180603
 30
0.0
 10
10.6300207438
 20
7.7163218232
 30
0.0
 10
10.6326032222
 20
7.7124828982
 30
0.0
 10
10.6349691375
 20
7.7086020753
 30
0.0
 10
10.6370895077
 20
7.70468194
 30
0.0
 10
10.6389328771
 20
7.7007279383
 30
0.0
 10
10.6404663527
 20
7.696748983
 30
0.0
 10
10.6416585652
 20
7.6927587299
 30
0.0
 10
10.6424824514
 20
7.6887757161
 30
0.0
 10
10.6429199414
 20
7.684823284
 30
0.0
 10
10.64296616
 20
7.6809279336
 30
0.0
 10
10.642631844
 20
7.6771163252
 30
0.0
 10
10.6419429203
 20
7.6734119708
 30
0.0
 10
10.6409370562
 20
7.669832536
 30
0.0
 10
10.6392443613
 20
7.6652722166
 30
0.0
 10
10.6370978323
 20
7.6609662202
 30
0.0
 10
10.6346570479
 20
7.6569199762
 30
0.0
 10
10.632743192
 20
7.6540483588
 30
0.0
 10
10.6307682036
 20
7.6513162281
 30
0.0
 10
10.6281388298
 20
7.6479138408
 30
0.0
 10
10.6248732827
 20
7.6440161856
 30
0.0
 10
10.6210511363
 20
7.6397905398
 30
0.0
 10
10.6180159065
 20
7.6366190145
 30
0.0
 10
10.6157626268
 20
7.6343517981
 30
0.0
 10
10.6147001346
 20
7.6333100601
 30
0.0
 10
10.6141855442
 20
7.632813004
 30
0.0
  0
SPLINE
  5
36A
100
AcDbEntity
  8
0
100
AcDbSpline
 62
7
  6
CONTINUOUS
 70
0
 71
3
 72
40
 73
36
 74
0
 42
0.0000001
 43
0.0000001
 44
0.0000000001
 40
0.0
 40
0.0
 40
0.0
 40
0.0
 40
0.0299423158
 40
0.0599090077
 40
0.0899238582
 40
0.1200094809
 40
0.1501867824
 40
0.1804744764
 40
0.2108886621
 40
0.2414424792
 40
0.2721458429
 40
0.3030052641
 40
0.334023754
 40
0.3652008103
 40
0.3965324817
 40
0.428011503
 40
0.4596274957
 40
0.4913672252
 40
0.5232149077
 40
0.5551525588
 40
0.5871603767
 40
0.6192171526
 40
0.651300701
 40
0.6833883044
 40
0.7154571648
 40
0.7474848565
 40
0.7794497737
 40
0.8113315676
 40
0.8431115609
 40
0.8747731558
 40
0.9063021431
 40
0.9376871977
 40
0.953325281
 40
0.9689248703
 40
1.0
 40
1.0
 40
1.0
 40
1.0
 10
10.6684840723
 20
7.508787953
 30
0.0
 10
10.6649836523
 20
7.5054068071
 30
0.0
 10
10.6577075664
 20
7.498917388
 30
0.0
 10
10.646050143
 20
7.4900767037
 30
0.0
 10
10.6337090107
 20
7.4821737079
 30
0.0
 10
10.6207531265
 20
7.4752527343
 30
0.0
 10
10.6072537209
 20
7.4693515934
 30
0.0
 10
10.5932852959
 20
7.4645027237
 30
0.0
 10
10.5789248256
 20
7.4607326552
 30
0.0
 10
10.5642514262
 20
7.4580619708
 30
0.0
 10
10.5493458866
 20
7.4565051773
 30
0.0
 10
10.5342902288
 20
7.4560706445
 30
0.0
 10
10.5191672552
 20
7.4567605674
 30
0.0
 10
10.5040600957
 20
7.4585709655
 30
0.0
 10
10.489051755
 20
7.4614917126
 30
0.0
 10
10.4742246619
 20
7.4655065996
 30
0.0
 10
10.4596602228
 20
7.4705934287
 30
0.0
 10
10.445438381
 20
7.476724139
 30
0.0
 10
10.4316371839
 20
7.4838649623
 30
0.0
 10
10.4183323607
 20
7.491976609
 30
0.0
 10
10.405596912
 20
7.5010144839
 30
0.0
 10
10.3935007147
 20
7.5109289304
 30
0.0
 10
10.3821101434
 20
7.5216655011
 30
0.0
 10
10.3714877097
 20
7.5331652539
 30
0.0
 10
10.3616917234
 20
7.5453650726
 30
0.0
 10
10.3527759753
 20
7.5581980104
 30
0.0
 10
10.3447894444
 20
7.5715936495
 30
0.0
 10
10.3377760312
 20
7.5854784982
 30
0.0
 10
10.3317743193
 20
7.599776332
 30
0.0
 10
10.326817354
 20
7.6144088178
 30
0.0
 10
10.3229325147
 20
7.6292951569
 30
0.0
 10
10.3206034712
 20
7.6418608462
 30
0.0
 10
10.3192969426
 20
7.651957217
 30
0.0
 10
10.3183645074
 20
7.662043929
 30
0.0
 10
10.3180821757
 20
7.6696341083
 30
0.0
 10
10.3180821757
 20
7.6746849652
 30
0.0
  0
SPLINE
  5
36B
100
AcDbEntity
  8
0
100
AcDbSpline
 62
7
  6
CONTINUOUS
 70
0
 71
3
 72
27
 73
23
 74
0
 42
0.0000001
 43
0.0000001
 44
0.0000000001
 40
0.0
 40
0.0
 40
0.0
 40
0.0
 40
0.0605721551
 40
0.0909668069
 40
0.1214331456
 40
0.1825767897
 40
0.2440208522
 40
0.2748610975
 40
0.3057765704
 40
0.3678204507
 40
0.4301518164
 40
0.4927548376
 40
0.5556084713
 40
0.6186869243
 40
0.6819601842
 40
0.7136639103
 40
0.7454034528
 40
0.8089624664
 40
0.8726072619
 40
0.9044529979
 40
0.9363058881
 40
1.0
 40
1.0
 40
1.0
 40
1.0
 10
10.7184359862
 20
7.5930206923
 30
0.0
 10
10.7138288334
 20
7.5919037807
 30
0.0
 10
10.7068445946
 20
7.5904805937
 30
0.0
 10
10.6974410848
 20
7.5890934035
 30
0.0
 10
10.6879485831
 20
7.5880427588
 30
0.0
 10
10.6759779079
 20
7.5873708595
 30
0.0
 10
10.663960752
 20
7.5875557354
 30
0.0
 10
10.654339458
 20
7.5882145244
 30
0.0
 10
10.6447006156
 20
7.5892162338
 30
0.0
 10
10.6326842504
 20
7.5911079976
 30
0.0
 10
10.6184101779
 20
7.5943831403
 30
0.0
 10
10.6043340189
 20
7.5986496495
 30
0.0
 10
10.5905267448
 20
7.6038860217
 30
0.0
 10
10.5770578289
 20
7.6100656883
 30
0.0
 10
10.5661777691
 20
7.6159725208
 30
0.0
 10
10.5577086501
 20
7.6211356982
 30
0.0
 10
10.5493975771
 20
7.6265905597
 30
0.0
 10
10.5393437306
 20
7.6339324912
 30
0.0
 10
10.5297923135
 20
7.6419299028
 30
0.0
 10
10.5224764377
 20
7.6487004136
 30
0.0
 10
10.5153859388
 20
7.6557115608
 30
0.0
 10
10.510331016
 20
7.6612318717
 30
0.0
 10
10.5070879859
 20
7.6650176883
 30
0.0
  0
SPLINE
  5
36C
100
AcDbEntity
  8
0
100
AcDbSpline
 62
7
  6
CONTINUOUS
 70
0
 71
3
 72
13
 73
9
 74
0
 42
0.0000001
 43
0.0000001
 44
0.0000000001
 40
0.0
 40
0.0
 40
0.0
 40
0.0
 40
0.2649757324
 40
0.5208920661
 40
0.6450109812
 40
0.7663417186
 40
0.8847279031
 40
1.0
 40
1.0
 40
1.0
 40
1.0
 10
10.5732882075
 20
7.8541526266
 30
0.0
 10
10.5649914132
 20
7.8533189579
 30
0.0
 10
10.5486994629
 20
7.8514943799
 30
0.0
 10
10.5285868485
 20
7.8487400314
 30
0.0
 10
10.5130009624
 20
7.8462852636
 30
0.0
 10
10.5017162148
 20
7.844346833
 30
0.0
 10
10.4907345788
 20
7.8422953797
 30
0.0
 10
10.4835277593
 20
7.8408344673
 30
0.0
 10
10.4799785906
 20
7.8400845984
 30
0.0
  0
SPLINE
  5
36D
100
AcDbEntity
  8
0
100
AcDbSpline
 62
7
  6
CONTINUOUS
 70
0
 71
3
 72
21
 73
17
 74
0
 42
0.0000001
 43
0.0000001
 44
0.0000000001
 40
0.0
 40
0.0
 40
0.0
 40
0.0
 40
0.0617147807
 40
0.1234506636
 40
0.1852285506
 40
0.2470689066
 40
0.3089915473
 40
0.3710154718
 40
0.4331586568
 40
0.495437856
 40
0.5578685007
 40
0.6204644957
 40
0.6832380523
 40
0.7462000242
 40
0.8726823632
 40
1.0
 40
1.0
 40
1.0
 40
1.0
 10
10.375301002
 20
7.8123133841
 30
0.0
 10
10.3730353782
 20
7.8101249597
 30
0.0
 10
10.3686151685
 20
7.8056298744
 30
0.0
 10
10.3623391946
 20
7.7985539565
 30
0.0
 10
10.3564307672
 20
7.791159839
 30
0.0
 10
10.3509037897
 20
7.7834647756
 30
0.0
 10
10.345770911
 20
7.7754864823
 30
0.0
 10
10.3410439537
 20
7.7672433933
 30
0.0
 10
10.3367338467
 20
7.758754494
 30
0.0
 10
10.3328505043
 20
7.7500393811
 30
0.0
 10
10.3294028274
 20
7.7411181531
 30
0.0
 10
10.3263987907
 20
7.7320114363
 30
0.0
 10
10.3238452773
 20
7.722739981
 30
0.0
 10
10.3210452072
 20
7.7101702266
 30
0.0
 10
10.3187024882
 20
7.6941458094
 30
0.0
 10
10.3180821757
 20
7.6811833365
 30
0.0
 10
10.3180821757
 20
7.6746849652
 30
0.0
  0
SPLINE
  5
36E
100
AcDbEntity
  8
0
100
AcDbSpline
 62
7
  6
CONTINUOUS
 70
0
 71
3
 72
18
 73
14
 74
0
 42
0.0000001
 43
0.0000001
 44
0.0000000001
 40
0.0
 40
0.0
 40
0.0
 40
0.0
 40
0.0548620589
 40
0.1099280789
 40
0.165399508
 40
0.2214731255
 40
0.2783387361
 40
0.3361775086
 40
0.4554063416
 40
0.5804417492
 40
0.7123343341
 40
0.8519577333
 40
1.0
 40
1.0
 40
1.0
 40
1.0
 10
10.0411481614
 20
10.6686907489
 30
0.0
 10
10.0411481615
 20
10.6696186162
 30
0.0
 10
10.0412070637
 20
10.6714783332
 30
0.0
 10
10.0414718663
 20
10.674264883
 30
0.0
 10
10.0419130533
 20
10.6770498271
 30
0.0
 10
10.0425304791
 20
10.6798321482
 30
0.0
 10
10.0433239044
 20
10.682611144
 30
0.0
 10
10.0446289115
 20
10.6863481483
 30
0.0
 10
10.0467195107
 20
10.6910221402
 30
0.0
 10
10.0499015331
 20
10.6965421425
 30
0.0
 10
10.0537770639
 20
10.7020264152
 30
0.0
 10
10.0583402067
 20
10.7074694541
 30
0.0
 10
10.0617339869
 20
10.7109618251
 30
0.0
 10
10.0635348559
 20
10.7127013312
 30
0.0
  0
SPLINE
  5
36F
100
AcDbEntity
  8
0
100
AcDbSpline
 62
7
  6
CONTINUOUS
 70
0
 71
3
 72
9
 73
5
 74
0
 42
0.0000001
 43
0.0000001
 44
0.0000000001
 40
0.0
 40
0.0
 40
0.0
 40
0.0
 40
0.4862217708
 40
1.0
 40
1.0
 40
1.0
 40
1.0
 10
10.054273172
 20
10.6348951546
 30
0.0
 10
10.0556511668
 20
10.6366525813
 30
0.0
 10
10.0586281809
 20
10.6401564017
 30
0.0
 10
10.0618375434
 20
10.6434470412
 30
0.0
 10
10.0635348559
 20
10.6450865193
 30
0.0
  0
SPLINE
  5
370
100
AcDbEntity
  8
0
100
AcDbSpline
 62
7
  6
CONTINUOUS
 70
0
 71
3
 72
41
 73
37
 74
0
 42
0.0000001
 43
0.0000001
 44
0.0000000001
 40
0.0
 40
0.0
 40
0.0
 40
0.0
 40
0.0299421722
 40
0.0599087187
 40
0.0899234222
 40
0.1200088965
 40
0.1501860486
 40
0.1804735921
 40
0.2108876267
 40
0.2414412921
 40
0.2721445039
 40
0.3030037728
 40
0.3340221097
 40
0.3651990124
 40
0.3965305293
 40
0.4280093954
 40
0.4596252325
 40
0.4913648061
 40
0.523212333
 40
0.5551498293
 40
0.5871574933
 40
0.6192141165
 40
0.6512975132
 40
0.6833849656
 40
0.7154536753
 40
0.7314763803
 40
0.7474860474
 40
0.7794508144
 40
0.8113324582
 40
0.8431123019
 40
0.8747737477
 40
0.9063025846
 40
0.9376874998
 40
0.9533255315
 40
0.9689249968
 40
1.0
 40
1.0
 40
1.0
 40
1.0
 10
11.4958114247
 20
9.9085928706
 30
0.0
 10
11.4923110068
 20
9.9052117082
 30
0.0
 10
11.4850349515
 20
9.8987222261
 30
0.0
 10
11.473377545
 20
9.8898814696
 30
0.0
 10
11.4610364296
 20
9.8819783949
 30
0.0
 10
11.4480805544
 20
9.8750573441
 30
0.0
 10
11.4345811517
 20
9.8691561267
 30
0.0
 10
11.4206127228
 20
9.8643071828
 30
0.0
 10
11.4062522422
 20
9.8605370435
 30
0.0
 10
11.3915788259
 20
9.8578662932
 30
0.0
 10
11.3766732636
 20
9.8563094407
 30
0.0
 10
11.3616175784
 20
9.8558748566
 30
0.0
 10
11.3464945737
 20
9.8565647349
 30
0.0
 10
11.33138738
 20
9.8583750939
 30
0.0
 10
11.3163790026
 20
9.8612958067
 30
0.0
 10
11.3015518707
 20
9.8653106635
 30
0.0
 10
11.2869873907
 20
9.8703974659
 30
0.0
 10
11.272765506
 20
9.8765281525
 30
0.0
 10
11.2589642638
 20
9.8836689559
 30
0.0
 10
11.245659395
 20
9.8917805851
 30
0.0
 10
11.2329238961
 20
9.9008184538
 30
0.0
 10
11.2208276648
 20
9.9107328783
 30
0.0
 10
11.2094370046
 20
9.9214695158
 30
0.0
 10
11.1988147003
 20
9.932969037
 30
0.0
 10
11.190648196
 20
9.9431395814
 30
0.0
 10
11.1845552207
 20
9.9515933461
 30
0.0
 10
11.1787688134
 20
9.9602394986
 30
0.0
 10
11.1721160722
 20
9.9713978648
 30
0.0
 10
11.1651027968
 20
9.9852824976
 30
0.0
 10
11.1591010176
 20
9.9995804216
 30
0.0
 10
11.1541440445
 20
10.0142129183
 30
0.0
 10
11.1502591841
 20
10.0290992925
 30
0.0
 10
11.1479301328
 20
10.0416650116
 30
0.0
 10
11.1466235956
 20
10.0517614002
 30
0.0
 10
11.1456911571
 20
10.0618481322
 30
0.0
 10
11.1454088244
 20
10.0694383228
 30
0.0
 10
11.1454088244
 20
10.0744891937
 30
0.0
  0
SPLINE
  5
371
100
AcDbEntity
  8
0
100
AcDbSpline
 62
7
  6
CONTINUOUS
 70
0
 71
3
 72
41
 73
37
 74
0
 42
0.0000001
 43
0.0000001
 44
0.0000000001
 40
0.0
 40
0.0
 40
0.0
 40
0.0
 40
0.0299421722
 40
0.0599087187
 40
0.0899234222
 40
0.1200088965
 40
0.1501860486
 40
0.1804735921
 40
0.2108876267
 40
0.2414412921
 40
0.2721445039
 40
0.3030037728
 40
0.3340221097
 40
0.3651990124
 40
0.3965305293
 40
0.4280093954
 40
0.4596252325
 40
0.4913648061
 40
0.523212333
 40
0.5551498293
 40
0.5871574933
 40
0.6192141165
 40
0.6512975132
 40
0.6833849656
 40
0.7154536753
 40
0.7314763803
 40
0.7474860474
 40
0.7794508144
 40
0.8113324582
 40
0.8431123019
 40
0.8747737477
 40
0.9063025846
 40
0.9376874998
 40
0.9533255315
 40
0.9689249968
 40
1.0
 40
1.0
 40
1.0
 40
1.0
 10
10.4091448058
 20
6.8446943351
 30
0.0
 10
10.4056443878
 20
6.8413131727
 30
0.0
 10
10.3983683326
 20
6.8348236906
 30
0.0
 10
10.386710926
 20
6.8259829342
 30
0.0
 10
10.3743698107
 20
6.8180798594
 30
0.0
 10
10.3614139354
 20
6.8111588086
 30
0.0
 10
10.3479145328
 20
6.8052575912
 30
0.0
 10
10.3339461038
 20
6.8004086473
 30
0.0
 10
10.3195856232
 20
6.796638508
 30
0.0
 10
10.304912207
 20
6.7939677578
 30
0.0
 10
10.2900066447
 20
6.7924109052
 30
0.0
 10
10.2749509595
 20
6.7919763212
 30
0.0
 10
10.2598279547
 20
6.7926661994
 30
0.0
 10
10.244720761
 20
6.7944765585
 30
0.0
 10
10.2297123836
 20
6.7973972713
 30
0.0
 10
10.2148852517
 20
6.801412128
 30
0.0
 10
10.2003207718
 20
6.8064989304
 30
0.0
 10
10.1860988871
 20
6.8126296171
 30
0.0
 10
10.1722976448
 20
6.8197704204
 30
0.0
 10
10.158992776
 20
6.8278820497
 30
0.0
 10
10.1462572771
 20
6.8369199183
 30
0.0
 10
10.1341610458
 20
6.8468343429
 30
0.0
 10
10.1227703856
 20
6.8575709804
 30
0.0
 10
10.1121480814
 20
6.8690705016
 30
0.0
 10
10.103981577
 20
6.879241046
 30
0.0
 10
10.0978886017
 20
6.8876948106
 30
0.0
 10
10.0921021944
 20
6.8963409631
 30
0.0
 10
10.0854494532
 20
6.9074993293
 30
0.0
 10
10.0784361779
 20
6.9213839621
 30
0.0
 10
10.0724343987
 20
6.9356818861
 30
0.0
 10
10.0674774255
 20
6.9503143829
 30
0.0
 10
10.0635925652
 20
6.965200757
 30
0.0
 10
10.0612635138
 20
6.9777664762
 30
0.0
 10
10.0599569766
 20
6.9878628647
 30
0.0
 10
10.0590245382
 20
6.9979495967
 30
0.0
 10
10.0587422055
 20
7.0055397874
 30
0.0
 10
10.0587422055
 20
7.0105906583
 30
0.0
  0
SPLINE
  5
372
100
AcDbEntity
  8
0
100
AcDbSpline
 62
7
  6
CONTINUOUS
 70
0
 71
3
 72
83
 73
79
 74
0
 42
0.0000001
 43
0.0000001
 44
0.0000000001
 40
0.0
 40
0.0
 40
0.0
 40
0.0
 40
0.0039487455
 40
0.0077209311
 40
0.0113257631
 40
0.0147747002
 40
0.021256824
 40
0.0243283873
 40
0.0273115005
 40
0.0302283884
 40
0.0331029934
 40
0.0359604092
 40
0.0388262255
 40
0.0417257838
 40
0.0446834906
 40
0.0477221948
 40
0.0508628256
 40
0.0541240947
 40
0.0575224451
 40
0.0610721495
 40
0.0647853339
 40
0.0686722786
 40
0.0727415516
 40
0.0770001705
 40
0.0814539086
 40
0.0861073059
 40
0.0909639196
 40
0.096026458
 40
0.1012967689
 40
0.1067760999
 40
0.1124650493
 40
0.1244708105
 40
0.1373099366
 40
0.1509710797
 40
0.1654376038
 40
0.1806883818
 40
0.196698439
 40
0.2134394286
 40
0.2308799915
 40
0.24898606
 40
0.2677211651
 40
0.2870466726
 40
0.3069219799
 40
0.3273046877
 40
0.3481508099
 40
0.3694149462
 40
0.3910504357
 40
0.4130094975
 40
0.4577017174
 40
0.50309408
 40
0.5487800039
 40
0.5943495727
 40
0.6393941902
 40
0.6835112693
 40
0.7050994816
 40
0.7263099977
 40
0.747096307
 40
0.7674131738
 40
0.7872168278
 40
0.8064651206
 40
0.8251176923
 40
0.8431361639
 40
0.8604843841
 40
0.8771286616
 40
0.8930380171
 40
0.9081845045
 40
0.9225436364
 40
0.9360948887
 40
0.948822282
 40
0.9607152272
 40
0.9663476617
 40
0.9717705945
 40
0.9769847486
 40
0.9819914979
 40
0.9867930928
 40
0.9913924918
 40
0.995793314
 40
1.0
 40
1.0
 40
1.0
 40
1.0
 10
12.7514255018
 20
9.2886753775
 30
0.0
 10
12.7520031635
 20
9.2892129733
 30
0.0
 10
12.7531580228
 20
9.2902373997
 30
0.0
 10
12.754929967
 20
9.2916472897
 30
0.0
 10
12.7567003297
 20
9.2928935344
 30
0.0
 10
12.7590084888
 20
9.294306138
 30
0.0
 10
12.7613634034
 20
9.295432667
 30
0.0
 10
12.7637432324
 20
9.2962240585
 30
0.0
 10
12.7654898429
 20
9.2966396006
 30
0.0
 10
12.767228423
 20
9.2968869333
 30
0.0
 10
12.7689577369
 20
9.2969657472
 30
0.0
 10
12.7706763298
 20
9.2968757318
 30
0.0
 10
12.7723827398
 20
9.2966170249
 30
0.0
 10
12.7740755467
 20
9.2961899203
 30
0.0
 10
12.7757534194
 20
9.2955949212
 30
0.0
 10
12.7774152225
 20
9.294832809
 30
0.0
 10
12.7790598991
 20
9.2939043091
 30
0.0
 10
12.7806865488
 20
9.2928103055
 30
0.0
 10
12.7822943497
 20
9.2915516872
 30
0.0
 10
12.7838824526
 20
9.2901293046
 30
0.0
 10
12.7854501188
 20
9.288544149
 30
0.0
 10
12.7869965272
 20
9.286797175
 30
0.0
 10
12.7885208689
 20
9.2848894314
 30
0.0
 10
12.7900223745
 20
9.282822069
 30
0.0
 10
12.7915001729
 20
9.2805962632
 30
0.0
 10
12.7929534793
 20
9.2782133363
 30
0.0
 10
12.7943814682
 20
9.2756746748
 30
0.0
 10
12.7957832885
 20
9.2729817497
 30
0.0
 10
12.7971581693
 20
9.2701361617
 30
0.0
 10
12.7985052893
 20
9.267139564
 30
0.0
 10
12.8002955822
 20
9.2628680631
 30
0.0
 10
12.8024499548
 20
9.2571567824
 30
0.0
 10
12.804867969
 20
9.2498496428
 30
0.0
 10
12.8071573265
 20
9.241987804
 30
0.0
 10
12.8093125264
 20
9.2335899004
 30
0.0
 10
12.8113283707
 20
9.2246757216
 30
0.0
 10
12.8131999754
 20
9.2152664175
 30
0.0
 10
12.8149227955
 20
9.2053843473
 30
0.0
 10
12.8164926452
 20
9.1950530477
 30
0.0
 10
12.8179057214
 20
9.1842971623
 30
0.0
 10
12.8191585937
 20
9.17314237
 30
0.0
 10
12.8202482172
 20
9.1616153147
 30
0.0
 10
12.8211719394
 20
9.1497435459
 30
0.0
 10
12.821927523
 20
9.137555452
 30
0.0
 10
12.8225131339
 20
9.1250801842
 30
0.0
 10
12.822927339
 20
9.1123475905
 30
0.0
 10
12.8231691394
 20
9.0993881093
 30
0.0
 10
12.8232613126
 20
9.0817447409
 30
0.0
 10
12.8229376166
 20
9.0593536676
 30
0.0
 10
12.8218666572
 20
9.0322398398
 30
0.0
 10
12.8201208272
 20
9.0049853509
 30
0.0
 10
12.8177168227
 20
8.9778507573
 30
0.0
 10
12.8146776881
 20
8.9510954668
 30
0.0
 10
12.8116186787
 20
8.9291728704
 30
0.0
 10
12.8088690274
 20
8.912022225
 30
0.0
 10
12.8066828102
 20
8.8995044657
 30
0.0
 10
12.8043631003
 20
8.8872692468
 30
0.0
 10
12.8019154402
 20
8.8753458157
 30
0.0
 10
12.7993457263
 20
8.8637626882
 30
0.0
 10
12.7966601396
 20
8.8525475487
 30
0.0
 10
12.7938651413
 20
8.841727197
 30
0.0
 10
12.7909674503
 20
8.8313274773
 30
0.0
 10
12.7879740442
 20
8.8213732046
 30
0.0
 10
12.7848921336
 20
8.8118881006
 30
0.0
 10
12.7817291373
 20
8.8028947416
 30
0.0
 10
12.7784926575
 20
8.79441449
 30
0.0
 10
12.7751904699
 20
8.786467444
 30
0.0
 10
12.7718304833
 20
8.7790722875
 30
0.0
 10
12.7684207316
 20
8.7722465253
 30
0.0
 10
12.7654937567
 20
8.7669539731
 30
0.0
 10
12.7631275736
 20
8.7630250606
 30
0.0
 10
12.7613778109
 20
8.7602842816
 30
0.0
 10
12.7596217119
 20
8.7576973209
 30
0.0
 10
12.7578602369
 20
8.755265701
 30
0.0
 10
12.756094426
 20
8.7529907991
 30
0.0
 10
12.7543252309
 20
8.7508739627
 30
0.0
 10
12.752553819
 20
8.7489165516
 30
0.0
 10
12.7513453135
 20
8.7476915097
 30
0.0
 10
12.7507406639
 20
8.747107463
 30
0.0
  0
SPLINE
  5
373
100
AcDbEntity
  8
0
100
AcDbSpline
 62
7
  6
CONTINUOUS
 70
0
 71
3
 72
91
 73
87
 74
0
 42
0.0000001
 43
0.0000001
 44
0.0000000001
 40
0.0
 40
0.0
 40
0.0
 40
0.0
 40
0.0039801824
 40
0.0081241125
 40
0.0124359604
 40
0.0169193082
 40
0.0215771808
 40
0.0264119179
 40
0.0314251804
 40
0.036618156
 40
0.0419915391
 40
0.0475456573
 40
0.0532804234
 40
0.0591954189
 40
0.0652899227
 40
0.0715629017
 40
0.0780131034
 40
0.0846389837
 40
0.0984102885
 40
0.1128608532
 40
0.1279713725
 40
0.1437199568
 40
0.1600824082
 40
0.1770324532
 40
0.1945419392
 40
0.2125810061
 40
0.2311182422
 40
0.2501208275
 40
0.2695546626
 40
0.2893844909
 40
0.3095740146
 40
0.330086005
 40
0.35088241
 40
0.3719244606
 40
0.3931727759
 40
0.4145874652
 40
0.4361282289
 40
0.4577544586
 40
0.4794253371
 40
0.501099938
 40
0.5227373261
 40
0.5442966575
 40
0.5657372785
 40
0.5870188258
 40
0.6081013261
 40
0.6289452975
 40
0.6495118524
 40
0.6697628021
 40
0.6896607608
 40
0.7091692527
 40
0.7282528228
 40
0.7468771515
 40
0.7650091753
 40
0.7826172172
 40
0.7996711268
 40
0.8161424293
 40
0.8320044948
 40
0.8472327309
 40
0.8618048077
 40
0.8757009255
 40
0.8889041429
 40
0.8952417292
 40
0.9014012652
 40
0.9073816417
 40
0.9131820083
 40
0.9188018518
 40
0.9242409423
 40
0.9294994633
 40
0.9345779585
 40
0.9394774438
 40
0.944199427
 40
0.9487459568
 40
0.95311974
 40
0.9573241405
 40
0.9613633601
 40
0.9652424499
 40
0.9689674846
 40
0.9725456466
 40
0.9759853437
 40
0.9824865016
 40
0.9855753543
 40
0.9885738189
 40
0.9914977372
 40
0.9943643366
 40
0.9971920099
 40
1.0
 40
1.0
 40
1.0
 40
1.0
 10
10.0635348559
 20
10.7127013312
 30
0.0
 10
10.0648360878
 20
10.7139582247
 30
0.0
 10
10.0675511772
 20
10.7164631222
 30
0.0
 10
10.0718619042
 20
10.7201217136
 30
0.0
 10
10.0764891839
 20
10.7237540614
 30
0.0
 10
10.0814304778
 20
10.7273582371
 30
0.0
 10
10.0866833769
 20
10.7309325574
 30
0.0
 10
10.0922453073
 20
10.7344752834
 30
0.0
 10
10.0981134873
 20
10.7379847164
 30
0.0
 10
10.1042850054
 20
10.7414590353
 30
0.0
 10
10.110756745
 20
10.7448965724
 30
0.0
 10
10.117525489
 20
10.7482955592
 30
0.0
 10
10.124587834
 20
10.751654324
 30
0.0
 10
10.1319402374
 20
10.7549711694
 30
0.0
 10
10.1395790084
 20
10.758244405
 30
0.0
 10
10.1475002915
 20
10.7614724137
 30
0.0
 10
10.1557001205
 20
10.7646535358
 30
0.0
 10
10.1671466328
 20
10.7688848758
 30
0.0
 10
10.1821283333
 20
10.7740344986
 30
0.0
 10
10.200925174
 20
10.7799253565
 30
0.0
 10
10.2207271305
 20
10.7855923394
 30
0.0
 10
10.2414942305
 20
10.7910239199
 30
0.0
 10
10.263184703
 20
10.796209034
 30
0.0
 10
10.2857548061
 20
10.8011371191
 30
0.0
 10
10.3091589998
 20
10.8057981339
 30
0.0
 10
10.3333500223
 20
10.8101825858
 30
0.0
 10
10.3582789987
 20
10.8142815468
 30
0.0
 10
10.3838955445
 20
10.8180866719
 30
0.0
 10
10.4101478714
 20
10.8215902154
 30
0.0
 10
10.4369828946
 20
10.824785047
 30
0.0
 10
10.4643463416
 20
10.8276646654
 30
0.0
 10
10.4921828629
 20
10.8302232107
 30
0.0
 10
10.5204361444
 20
10.8324554797
 30
0.0
 10
10.549049024
 20
10.834356934
 30
0.0
 10
10.5779636084
 20
10.8359237078
 30
0.0
 10
10.6071213918
 20
10.8371526159
 30
0.0
 10
10.6364633746
 20
10.8380411594
 30
0.0
 10
10.6659301823
 20
10.8385875315
 30
0.0
 10
10.6954621866
 20
10.8387906197
 30
0.0
 10
10.724999626
 20
10.8386500115
 30
0.0
 10
10.7544827285
 20
10.8381659941
 30
0.0
 10
10.7838518328
 20
10.8373395523
 30
0.0
 10
10.8130475098
 20
10.8361723662
 30
0.0
 10
10.8420106821
 20
10.8346668086
 30
0.0
 10
10.8706827447
 20
10.8328259397
 30
0.0
 10
10.8990056835
 20
10.8306535013
 30
0.0
 10
10.9269221951
 20
10.8281539108
 30
0.0
 10
10.9543758041
 20
10.8253322541
 30
0.0
 10
10.9813109779
 20
10.8221942716
 30
0.0
 10
11.0076732393
 20
10.8187463483
 30
0.0
 10
11.0334092785
 20
10.8149955007
 30
0.0
 10
11.058467062
 20
10.8109493631
 30
0.0
 10
11.0827959412
 20
10.8066161718
 30
0.0
 10
11.1063467596
 20
10.8020047506
 30
0.0
 10
11.1290719585
 20
10.7971244937
 30
0.0
 10
11.1509256742
 20
10.7919853436
 30
0.0
 10
11.1718638445
 20
10.7865977693
 30
0.0
 10
11.1918442802
 20
10.780972744
 30
0.0
 10
11.2108268506
 20
10.7751217166
 30
0.0
 10
11.228773272
 20
10.769056585
 30
0.0
 10
11.2430234131
 20
10.7637644502
 30
0.0
 10
11.2538692398
 20
10.7594235983
 30
0.0
 10
11.2616112031
 20
10.7561665959
 30
0.0
 10
11.2690681796
 20
10.7528654306
 30
0.0
 10
11.2762364191
 20
10.7495217031
 30
0.0
 10
11.2831123354
 20
10.7461371574
 30
0.0
 10
11.2896924595
 20
10.7427134295
 30
0.0
 10
11.2959735159
 20
10.7392522933
 30
0.0
 10
11.3019523483
 20
10.7357554334
 30
0.0
 10
11.307625978
 20
10.7322246061
 30
0.0
 10
11.312991584
 20
10.7286615665
 30
0.0
 10
11.3180464747
 20
10.7250680246
 30
0.0
 10
11.3227881711
 20
10.72144579
 30
0.0
 10
11.327214273
 20
10.7177965332
 30
0.0
 10
11.3313226126
 20
10.7141220688
 30
0.0
 10
11.3351111183
 20
10.7104240338
 30
0.0
 10
11.338577803
 20
10.7067042905
 30
0.0
 10
11.3417211703
 20
10.7029640922
 30
0.0
 10
11.3454086371
 20
10.6980461627
 30
0.0
 10
11.3485398967
 20
10.6929956746
 30
0.0
 10
11.3510259807
 20
10.6878373459
 30
0.0
 10
11.3525280615
 20
10.6840223768
 30
0.0
 10
11.3536977866
 20
10.6801981253
 30
0.0
 10
11.3545341968
 20
10.6763664489
 30
0.0
 10
11.3550363679
 20
10.6725300793
 30
0.0
 10
11.3551481616
 20
10.6699670839
 30
0.0
 10
11.3551481614
 20
10.668690749
 30
0.0
  0
SPLINE
  5
374
100
AcDbEntity
  8
0
100
AcDbSpline
 62
7
  6
CONTINUOUS
 70
0
 71
3
 72
53
 73
49
 74
0
 42
0.0000001
 43
0.0000001
 44
0.0000000001
 40
0.0
 40
0.0
 40
0.0
 40
0.0
 40
0.0083984147
 40
0.0173605623
 40
0.0268937616
 40
0.0370005104
 40
0.0476798801
 40
0.0589279822
 40
0.0707383576
 40
0.0831023546
 40
0.0960092805
 40
0.1094468479
 40
0.1234010561
 40
0.1378566622
 40
0.1527969945
 40
0.1682043354
 40
0.2003427112
 40
0.2341105913
 40
0.2693322256
 40
0.3058203849
 40
0.3433781996
 40
0.381800881
 40
0.4208773644
 40
0.4603919081
 40
0.500125666
 40
0.5398582471
 40
0.5793692678
 40
0.6184399057
 40
0.6568544585
 40
0.694401919
 40
0.7308775764
 40
0.766084659
 40
0.7998360517
 40
0.8319561369
 40
0.8473537085
 40
0.8622838735
 40
0.8767289341
 40
0.8906722855
 40
0.9040986395
 40
0.9169941287
 40
0.9293463789
 40
0.9411448635
 40
0.9523808628
 40
0.9630480586
 40
0.9731425232
 40
0.9826634964
 40
0.991613645
 40
1.0
 40
1.0
 40
1.0
 40
1.0
 10
12.6878806816
 20
8.8225293884
 30
0.0
 10
12.6886032392
 20
8.8234148588
 30
0.0
 10
12.6900427132
 20
8.8252898461
 30
0.0
 10
12.6921234667
 20
8.828302034
 30
0.0
 10
12.6941923512
 20
8.831600218
 30
0.0
 10
12.6962463693
 20
8.8351795652
 30
0.0
 10
12.6982825351
 20
8.8390349757
 30
0.0
 10
12.7002978832
 20
8.8431608448
 30
0.0
 10
12.7022894645
 20
8.8475511747
 30
0.0
 10
12.7042543121
 20
8.8521995576
 30
0.0
 10
12.7061895572
 20
8.8570991732
 30
0.0
 10
12.7080922831
 20
8.8622428349
 30
0.0
 10
12.7099597206
 20
8.8676229679
 30
0.0
 10
12.7117890413
 20
8.8732316526
 30
0.0
 10
12.7135775946
 20
8.8790606203
 30
0.0
 10
12.7159375828
 20
8.8872300844
 30
0.0
 10
12.7187576163
 20
8.8979318113
 30
0.0
 10
12.7218931765
 20
8.911333046
 30
0.0
 10
12.7248072932
 20
8.9253891413
 30
0.0
 10
12.727482578
 20
8.9400170814
 30
0.0
 10
12.7299030555
 20
8.9551305574
 30
0.0
 10
12.7320542992
 20
8.9706402932
 30
0.0
 10
12.733923501
 20
8.986454648
 30
0.0
 10
12.7354995481
 20
9.0024801525
 30
0.0
 10
12.7367730862
 20
9.0186220751
 30
0.0
 10
12.7377365738
 20
9.0347849873
 30
0.0
 10
12.7383843271
 20
9.050873335
 30
0.0
 10
12.7387125547
 20
9.0667920091
 30
0.0
 10
12.7387193808
 20
9.0824469145
 30
0.0
 10
12.7384048619
 20
9.0977455393
 30
0.0
 10
12.7377709847
 20
9.112597497
 30
0.0
 10
12.7368216795
 20
9.1269151324
 30
0.0
 10
12.7355627295
 20
9.1406138623
 30
0.0
 10
12.7342442118
 20
9.1515959835
 30
0.0
 10
12.7330323709
 20
9.1600074457
 30
0.0
 10
12.7320640232
 20
9.1660230531
 30
0.0
 10
12.7310249163
 20
9.1718259276
 30
0.0
 10
12.7299165613
 20
9.1774075205
 30
0.0
 10
12.728740622
 20
9.1827596048
 30
0.0
 10
12.7274988624
 20
9.1878743051
 30
0.0
 10
12.7261931038
 20
9.1927441045
 30
0.0
 10
12.7248253319
 20
9.197361868
 30
0.0
 10
12.7233975183
 20
9.2017208379
 30
0.0
 10
12.7219118312
 20
9.2058146817
 30
0.0
 10
12.7203703892
 20
9.2096374457
 30
0.0
 10
12.7187754559
 20
9.2131836918
 30
0.0
 10
12.7171293364
 20
9.2164481994
 30
0.0
 10
12.715961719
 20
9.2184997578
 30
0.0
 10
12.7153679576
 20
9.2194743585
 30
0.0
  0
SPLINE
  5
375
100
AcDbEntity
  8
0
100
AcDbSpline
 62
7
  6
CONTINUOUS
 70
0
 71
3
 72
21
 73
17
 74
0
 42
0.0000001
 43
0.0000001
 44
0.0000000001
 40
0.0
 40
0.0
 40
0.0
 40
0.0
 40
0.1273175725
 40
0.2538000026
 40
0.3167619332
 40
0.3795354925
 40
0.4421314982
 40
0.5045621433
 40
0.5668413429
 40
0.6289845306
 40
0.6910084612
 40
0.7529311022
 40
0.8147714553
 40
0.8765493457
 40
0.9382852283
 40
1.0
 40
1.0
 40
1.0
 40
1.0
 10
11.1454088244
 20
10.0744891937
 30
0.0
 10
11.1454088244
 20
10.0809875201
 30
0.0
 10
11.1460291319
 20
10.0939499105
 30
0.0
 10
11.148371811
 20
10.1099742273
 30
0.0
 10
11.1511718506
 20
10.1225439067
 30
0.0
 10
11.153725338
 20
10.1318153033
 30
0.0
 10
11.1567293239
 20
10.1409219726
 30
0.0
 10
11.1601769593
 20
10.1498431517
 30
0.0
 10
11.1640602637
 20
10.1585582142
 30
0.0
 10
11.1683703061
 20
10.167047078
 30
0.0
 10
11.1730971999
 20
10.1752901339
 30
0.0
 10
11.1782300287
 20
10.1832683871
 30
0.0
 10
11.1837569365
 20
10.1909634248
 30
0.0
 10
11.1896652768
 20
10.1983575346
 30
0.0
 10
11.1959411939
 20
10.2054334212
 30
0.0
 10
11.200361344
 20
10.2099285075
 30
0.0
 10
11.202626947
 20
10.2121169238
 30
0.0
  0
SPLINE
  5
376
100
AcDbEntity
  8
0
100
AcDbSpline
 62
7
  6
CONTINUOUS
 70
0
 71
3
 72
79
 73
75
 74
0
 42
0.0000001
 43
0.0000001
 44
0.0000000001
 40
0.0
 40
0.0
 40
0.0
 40
0.0
 40
0.0069315574
 40
0.0105986767
 40
0.0144066877
 40
0.0183600657
 40
0.022462566
 40
0.026717331
 40
0.0311268813
 40
0.0356932613
 40
0.0404180349
 40
0.0453023372
 40
0.0503469664
 40
0.0555523326
 40
0.060918574
 40
0.06644554
 40
0.0721328008
 40
0.0839850491
 40
0.0964680903
 40
0.1095712258
 40
0.1232811587
 40
0.1375823026
 40
0.1524570208
 40
0.1678858364
 40
0.1838476189
 40
0.2003197345
 40
0.2172781737
 40
0.2346976581
 40
0.252551756
 40
0.2708129854
 40
0.2894529036
 40
0.308442189
 40
0.327750719
 40
0.3473476593
 40
0.3672015419
 40
0.3872803383
 40
0.4075515304
 40
0.4485384014
 40
0.4898957113
 40
0.531353215
 40
0.572639826
 40
0.6134858936
 40
0.6336607498
 40
0.6536261848
 40
0.6733499231
 40
0.6928002158
 40
0.711945919
 40
0.7307565654
 40
0.7492024402
 40
0.7672546618
 40
0.7848852768
 40
0.8020673462
 40
0.818775033
 40
0.8349837026
 40
0.8506700379
 40
0.8658121762
 40
0.8803898387
 40
0.8943844882
 40
0.90777952
 40
0.9205605005
 40
0.9327154537
 40
0.944235197
 40
0.949755112
 40
0.9551143006
 40
0.9603126017
 40
0.9653501843
 40
0.9702274804
 40
0.9749452775
 40
0.9795047293
 40
0.9839073988
 40
0.9881554274
 40
0.9922514367
 40
0.9961984568
 40
1.0
 40
1.0
 40
1.0
 40
1.0
 10
11.3420638879
 20
10.6348431395
 30
0.0
 10
11.3401743136
 20
10.6372568867
 30
0.0
 10
11.3370840284
 20
10.6407937899
 30
0.0
 10
11.332584042
 20
10.6453053295
 30
0.0
 10
11.3288676925
 20
10.6487329939
 30
0.0
 10
11.3248755767
 20
10.6521392378
 30
0.0
 10
11.3206091603
 20
10.6555229296
 30
0.0
 10
11.3160703305
 20
10.6588825303
 30
0.0
 10
11.3112610622
 20
10.6622167048
 30
0.0
 10
11.3061834118
 20
10.6655239882
 30
0.0
 10
11.3008395782
 20
10.6688029753
 30
0.0
 10
11.2952318859
 20
10.6720522862
 30
0.0
 10
11.2893627407
 20
10.675270464
 30
0.0
 10
11.2832347114
 20
10.6784561698
 30
0.0
 10
11.2768504496
 20
10.6816079831
 30
0.0
 10
11.2702127226
 20
10.6847245536
 30
0.0
 10
11.2608998845
 20
10.6888885391
 30
0.0
 10
11.2486370498
 20
10.6939852677
 30
0.0
 10
11.2331545056
 20
10.699858295
 30
0.0
 10
11.2167356934
 20
10.7055591904
 30
0.0
 10
11.1994092626
 20
10.7110779375
 30
0.0
 10
11.1812052779
 20
10.7164048268
 30
0.0
 10
11.1621554646
 20
10.7215304777
 30
0.0
 10
11.1422930552
 20
10.7264458647
 30
0.0
 10
11.1216527382
 20
10.7311423239
 30
0.0
 10
11.1002705828
 20
10.7356115758
 30
0.0
 10
11.078183979
 20
10.739845736
 30
0.0
 10
11.0554315724
 20
10.7438373469
 30
0.0
 10
11.0320531899
 20
10.7475793782
 30
0.0
 10
11.0080897616
 20
10.751065237
 30
0.0
 10
10.9835832479
 20
10.7542887802
 30
0.0
 10
10.9585765701
 20
10.7572443261
 30
0.0
 10
10.9331135361
 20
10.7599266763
 30
0.0
 10
10.9072387544
 20
10.7623311116
 30
0.0
 10
10.8809975682
 20
10.7644533921
 30
0.0
 10
10.8544359167
 20
10.7662898032
 30
0.0
 10
10.8185246592
 20
10.768360287
 30
0.0
 10
10.7731777377
 20
10.7702067208
 30
0.0
 10
10.7184334407
 20
10.7712369543
 30
0.0
 10
10.6635469445
 20
10.7710822136
 30
0.0
 10
10.6089028625
 20
10.7697436207
 30
0.0
 10
10.5637033292
 20
10.7676411191
 30
0.0
 10
10.5279596854
 20
10.7653671888
 30
0.0
 10
10.501559507
 20
10.763381129
 30
0.0
 10
10.4755038677
 20
10.7611110882
 30
0.0
 10
10.4498383829
 20
10.7585610341
 30
0.0
 10
10.4246080262
 20
10.7557354687
 30
0.0
 10
10.3998569921
 20
10.7526393657
 30
0.0
 10
10.3756286371
 20
10.749278177
 30
0.0
 10
10.3519653959
 20
10.7456578164
 30
0.0
 10
10.3289087016
 20
10.7417846644
 30
0.0
 10
10.3064989116
 20
10.7376655495
 30
0.0
 10
10.2847752412
 20
10.7333077308
 30
0.0
 10
10.2637756937
 20
10.7287188868
 30
0.0
 10
10.2435369859
 20
10.7239071003
 30
0.0
 10
10.2240944717
 20
10.7188808589
 30
0.0
 10
10.2054820824
 20
10.713649023
 30
0.0
 10
10.1877322593
 20
10.7082208084
 30
0.0
 10
10.1708759147
 20
10.7026057653
 30
0.0
 10
10.1549422621
 20
10.6968137515
 30
0.0
 10
10.139959076
 20
10.6908549421
 30
0.0
 10
10.1281238459
 20
10.6856880511
 30
0.0
 10
10.1191603938
 20
10.6814704162
 30
0.0
 10
10.1127873072
 20
10.6783170798
 30
0.0
 10
10.1066705888
 20
10.6751299192
 30
0.0
 10
10.1008128618
 20
10.6719103419
 30
0.0
 10
10.0952166889
 20
10.6686597026
 30
0.0
 10
10.0898844964
 20
10.6653794276
 30
0.0
 10
10.0848185868
 20
10.6620709632
 30
0.0
 10
10.0800211583
 20
10.6587356588
 30
0.0
 10
10.0754942171
 20
10.655374947
 30
0.0
 10
10.071239718
 20
10.6519901634
 30
0.0
 10
10.0672596898
 20
10.6485829342
 30
0.0
 10
10.0647440574
 20
10.6462545183
 30
0.0
 10
10.0635348559
 20
10.6450865193
 30
0.0
  0
SPLINE
  5
377
100
AcDbEntity
  8
0
100
AcDbSpline
 62
7
  6
CONTINUOUS
 70
0
 71
3
 72
54
 73
50
 74
0
 42
0.0000001
 43
0.0000001
 44
0.0000000001
 40
0.0
 40
0.0
 40
0.0
 40
0.0
 40
0.0099472337
 40
0.0203698704
 40
0.0312644864
 40
0.0426260491
 40
0.0544480896
 40
0.0667227976
 40
0.0794412503
 40
0.0925934343
 40
0.1061683672
 40
0.1201542188
 40
0.1345382898
 40
0.1493071622
 40
0.1644467127
 40
0.1799421393
 40
0.1957780755
 40
0.2119385556
 40
0.2451662193
 40
0.2794882552
 40
0.3147604925
 40
0.3508330981
 40
0.3875515635
 40
0.424757678
 40
0.4622904654
 40
0.4999871083
 40
0.5376838689
 40
0.5752170109
 40
0.6124237148
 40
0.6491429955
 40
0.6852166394
 40
0.7204901413
 40
0.7548136583
 40
0.7880429977
 40
0.8200406729
 40
0.8355371161
 40
0.8506777018
 40
0.8654476672
 40
0.8798328731
 40
0.8938198766
 40
0.9073960261
 40
0.9205494374
 40
0.9332691503
 40
0.9455451651
 40
0.9573685051
 40
0.9687314146
 40
0.9796273864
 40
0.9900513765
 40
1.0
 40
1.0
 40
1.0
 40
1.0
 10
11.1774439653
 20
10.5524432501
 30
0.0
 10
11.1745450543
 20
10.5538889378
 30
0.0
 10
11.1685579462
 20
10.5567484948
 30
0.0
 10
11.1592410033
 20
10.5608576283
 30
0.0
 10
11.1493879443
 20
10.5648824088
 30
0.0
 10
11.1390102443
 20
10.5688180939
 30
0.0
 10
11.1281198263
 20
10.5726601046
 30
0.0
 10
11.1167292957
 20
10.5764039975
 30
0.0
 10
11.1048518258
 20
10.5800453738
 30
0.0
 10
11.0925011833
 20
10.5835799934
 30
0.0
 10
11.0796916947
 20
10.5870037428
 30
0.0
 10
11.0664382234
 20
10.5903125883
 30
0.0
 10
11.052756166
 20
10.5935026956
 30
0.0
 10
11.0386614189
 20
10.5965703217
 30
0.0
 10
11.0241703628
 20
10.5995118733
 30
0.0
 10
11.0092998532
 20
10.6023239339
 30
0.0
 10
10.9940671643
 20
10.6050032105
 30
0.0
 10
10.9731035509
 20
10.6084259694
 30
0.0
 10
10.9461222955
 20
10.6123388411
 30
0.0
 10
10.9128843023
 20
10.6164169246
 30
0.0
 10
10.8786474572
 20
10.6199006838
 30
0.0
 10
10.8435710575
 20
10.6227737469
 30
0.0
 10
10.8078181659
 20
10.6250225914
 30
0.0
 10
10.7715550826
 20
10.6266366428
 30
0.0
 10
10.7349504897
 20
10.6276083078
 30
0.0
 10
10.6981746782
 20
10.6279330124
 30
0.0
 10
10.661398743
 20
10.627609237
 30
0.0
 10
10.6247937797
 20
10.6266385057
 30
0.0
 10
10.588530081
 20
10.6250253809
 30
0.0
 10
10.5527763382
 20
10.6227774403
 30
0.0
 10
10.5176988377
 20
10.6199052638
 30
0.0
 10
10.4834607003
 20
10.616422368
 30
0.0
 10
10.4502210286
 20
10.6123451623
 30
0.0
 10
10.4181344397
 20
10.6076928103
 30
0.0
 10
10.3922112365
 20
10.6033094907
 30
0.0
 10
10.3721682854
 20
10.5995201881
 30
0.0
 10
10.3576761023
 20
10.5965789719
 30
0.0
 10
10.3435801915
 20
10.5935117142
 30
0.0
 10
10.3298969202
 20
10.5903219614
 30
0.0
 10
10.3166421939
 20
10.5870134347
 30
0.0
 10
10.3038314014
 20
10.5835900297
 30
0.0
 10
10.2914794171
 20
10.5800557146
 30
0.0
 10
10.2796005646
 20
10.5764146336
 30
0.0
 10
10.2682086075
 20
10.5726710491
 30
0.0
 10
10.2573167351
 20
10.5688292925
 30
0.0
 10
10.246937537
 20
10.5648938839
 30
0.0
 10
10.2370829472
 20
10.5608693581
 30
0.0
 10
10.2277644523
 20
10.5567604379
 30
0.0
 10
10.2217762666
 20
10.5539010655
 30
0.0
 10
10.2188768132
 20
10.5524554515
 30
0.0
  0
LINE
  5
378
100
AcDbEntity
  8
0
100
AcDbLine
 62
7
  6
CONTINUOUS
 10
10.6141855442
 20
7.632813004
 11
10.6113585021
 21
7.6301733111
  0
SPLINE
  5
379
100
AcDbEntity
  8
0
100
AcDbSpline
 62
7
  6
CONTINUOUS
 70
0
 71
3
 72
67
 73
63
 74
0
 42
0.0000001
 43
0.0000001
 44
0.0000000001
 40
0.0
 40
0.0
 40
0.0
 40
0.0
 40
0.0155846213
 40
0.0311170668
 40
0.0465968192
 40
0.0620259865
 40
0.0774060849
 40
0.0927394311
 40
0.1080287937
 40
0.1232773619
 40
0.1384887615
 40
0.1536669979
 40
0.1688164255
 40
0.1839417028
 40
0.199047742
 40
0.2141396589
 40
0.2292227208
 40
0.2443022904
 40
0.2593837676
 40
0.2744725309
 40
0.2895738804
 40
0.3046929831
 40
0.319834818
 40
0.3350041228
 40
0.3502053439
 40
0.3654425945
 40
0.3807196143
 40
0.3960397325
 40
0.4114058354
 40
0.426820342
 40
0.4422851868
 40
0.4578018036
 40
0.4733711146
 40
0.4889935259
 40
0.5046689328
 40
0.520396725
 40
0.5361757955
 40
0.5520045539
 40
0.5678809505
 40
0.5838024983
 40
0.599766298
 40
0.6157690657
 40
0.6318071682
 40
0.6478766587
 40
0.663973312
 40
0.6800926609
 40
0.7123721235
 40
0.7446846192
 40
0.7769900058
 40
0.8092483936
 40
0.8253521889
 40
0.8414301118
 40
0.8574778627
 40
0.8734914072
 40
0.889467014
 40
0.9054013002
 40
0.9212912382
 40
0.9371342307
 40
0.9529281326
 40
0.9686709488
 40
0.9843622542
 40
1.0
 40
1.0
 40
1.0
 40
1.0
 10
10.7744932852
 20
7.6245442693
 30
0.0
 10
10.7744932852
 20
7.6201269413
 30
0.0
 10
10.7742770877
 20
7.6113055086
 30
0.0
 10
10.7733012766
 20
7.5981289651
 30
0.0
 10
10.7716766134
 20
7.58506062
 30
0.0
 10
10.7694071787
 20
7.5721325683
 30
0.0
 10
10.7664982634
 20
7.5593757094
 30
0.0
 10
10.7629569008
 20
7.54682088
 30
0.0
 10
10.7587916082
 20
7.5344983238
 30
0.0
 10
10.7540123901
 20
7.5224377555
 30
0.0
 10
10.7486307272
 20
7.5106682698
 30
0.0
 10
10.7426595685
 20
7.4992182572
 30
0.0
 10
10.7361133122
 20
7.4881153274
 30
0.0
 10
10.7290077276
 20
7.4773862631
 30
0.0
 10
10.7213599252
 20
7.4670569561
 30
0.0
 10
10.7131883278
 20
7.4571523381
 30
0.0
 10
10.7045126587
 20
7.4476962888
 30
0.0
 10
10.6953538425
 20
7.4387116152
 30
0.0
 10
10.6857339644
 20
7.4302199936
 30
0.0
 10
10.6756762148
 20
7.4222419228
 30
0.0
 10
10.6652048727
 20
7.4147966239
 30
0.0
 10
10.6543452057
 20
7.4079020354
 30
0.0
 10
10.6431234098
 20
7.4015747734
 30
0.0
 10
10.6315665449
 20
7.3958301017
 30
0.0
 10
10.6197024949
 20
7.3906818453
 30
0.0
 10
10.6075598828
 20
7.3861423777
 30
0.0
 10
10.5951679907
 20
7.3822226169
 30
0.0
 10
10.5825566936
 20
7.3789320021
 30
0.0
 10
10.5697563975
 20
7.3762784407
 30
0.0
 10
10.5567979644
 20
7.3742682734
 30
0.0
 10
10.5437126253
 20
7.3729063096
 30
0.0
 10
10.5305319105
 20
7.3721958099
 30
0.0
 10
10.5172875786
 20
7.3721384715
 30
0.0
 10
10.5040115371
 20
7.3727343752
 30
0.0
 10
10.4907357624
 20
7.3739820484
 30
0.0
 10
10.4774922261
 20
7.3758784613
 30
0.0
 10
10.4643128235
 20
7.3784190415
 30
0.0
 10
10.4512292861
 20
7.3815976251
 30
0.0
 10
10.4382731096
 20
7.3854065215
 30
0.0
 10
10.425475483
 20
7.3898365383
 30
0.0
 10
10.4128672182
 20
7.3948770106
 30
0.0
 10
10.4004786682
 20
7.4005157736
 30
0.0
 10
10.3883396233
 20
7.4067392359
 30
0.0
 10
10.3764793733
 20
7.4135323358
 30
0.0
 10
10.3649261891
 20
7.4208789677
 30
0.0
 10
10.3499642162
 20
7.4313916733
 30
0.0
 10
10.3321697707
 20
7.4458248223
 30
0.0
 10
10.3124854107
 20
7.4650318569
 30
0.0
 10
10.2946430161
 20
7.4859532726
 30
0.0
 10
10.2814420105
 20
7.5046649617
 30
0.0
 10
10.2719658536
 20
7.5202856912
 30
0.0
 10
10.2654203468
 20
7.532292826
 30
0.0
 10
10.2594496523
 20
7.5445671728
 30
0.0
 10
10.2540679514
 20
7.5570794945
 30
0.0
 10
10.2492882743
 20
7.5697995937
 30
0.0
 10
10.2451221164
 20
7.5826968668
 30
0.0
 10
10.2415795261
 20
7.5957402612
 30
0.0
 10
10.2386690666
 20
7.6088984034
 30
0.0
 10
10.2363978255
 20
7.6221395274
 30
0.0
 10
10.2347711561
 20
7.6354320153
 30
0.0
 10
10.2337932002
 20
7.6487432477
 30
0.0
 10
10.2335747904
 20
7.6576247086
 30
0.0
 10
10.2335747904
 20
7.6620570943
 30
0.0
  0
SPLINE
  5
37A
100
AcDbEntity
  8
0
100
AcDbSpline
 62
4
  6
CONTINUOUS
 70
0
 71
3
 72
330
 73
326
 74
0
 42
0.0000001
 43
0.0000001
 44
0.0000000001
 40
0.0
 40
0.0
 40
0.0
 40
0.0
 40
0.015625
 40
0.0234375
 40
0.03125
 40
0.0390625
 40
0.04296875
 40
0.046875
 40
0.05078125
 40
0.0546875
 40
0.056640625
 40
0.05859375
 40
0.060546875
 40
0.0615234375
 40
0.0620117188
 40
0.0625
 40
0.0629882812
 40
0.0634765625
 40
0.064453125
 40
0.06640625
 40
0.068359375
 40
0.0703125
 40
0.07421875
 40
0.078125
 40
0.08203125
 40
0.0859375
 40
0.09375
 40
0.1015625
 40
0.10546875
 40
0.109375
 40
0.11328125
 40
0.1171875
 40
0.119140625
 40
0.12109375
 40
0.123046875
 40
0.1240234375
 40
0.1245117188
 40
0.125
 40
0.1254882812
 40
0.1259765625
 40
0.126953125
 40
0.12890625
 40
0.130859375
 40
0.1328125
 40
0.13671875
 40
0.140625
 40
0.14453125
 40
0.1484375
 40
0.15625
 40
0.1640625
 40
0.16796875
 40
0.171875
 40
0.17578125
 40
0.1796875
 40
0.181640625
 40
0.18359375
 40
0.185546875
 40
0.1865234375
 40
0.1870117188
 40
0.1875
 40
0.1879882812
 40
0.1884765625
 40
0.189453125
 40
0.19140625
 40
0.193359375
 40
0.1953125
 40
0.19921875
 40
0.203125
 40
0.20703125
 40
0.2109375
 40
0.21875
 40
0.2265625
 40
0.23046875
 40
0.234375
 40
0.23828125
 40
0.2421875
 40
0.244140625
 40
0.24609375
 40
0.248046875
 40
0.2490234375
 40
0.2495117188
 40
0.25
 40
0.2504882812
 40
0.2509765625
 40
0.251953125
 40
0.25390625
 40
0.255859375
 40
0.2578125
 40
0.26171875
 40
0.265625
 40
0.26953125
 40
0.2734375
 40
0.28125
 40
0.2890625
 40
0.29296875
 40
0.296875
 40
0.30078125
 40
0.3046875
 40
0.306640625
 40
0.30859375
 40
0.310546875
 40
0.3115234375
 40
0.3120117188
 40
0.3125
 40
0.3129882812
 40
0.3134765625
 40
0.314453125
 40
0.31640625
 40
0.318359375
 40
0.3203125
 40
0.32421875
 40
0.328125
 40
0.33203125
 40
0.3359375
 40
0.34375
 40
0.3515625
 40
0.35546875
 40
0.359375
 40
0.36328125
 40
0.3671875
 40
0.369140625
 40
0.37109375
 40
0.373046875
 40
0.3740234375
 40
0.3745117188
 40
0.375
 40
0.3754882812
 40
0.3759765625
 40
0.376953125
 40
0.37890625
 40
0.380859375
 40
0.3828125
 40
0.38671875
 40
0.390625
 40
0.39453125
 40
0.3984375
 40
0.40625
 40
0.4140625
 40
0.41796875
 40
0.421875
 40
0.42578125
 40
0.4296875
 40
0.431640625
 40
0.43359375
 40
0.435546875
 40
0.4365234375
 40
0.4370117188
 40
0.4375
 40
0.4379882812
 40
0.4384765625
 40
0.439453125
 40
0.44140625
 40
0.443359375
 40
0.4453125
 40
0.44921875
 40
0.453125
 40
0.45703125
 40
0.4609375
 40
0.46875
 40
0.4765625
 40
0.48046875
 40
0.484375
 40
0.48828125
 40
0.4921875
 40
0.494140625
 40
0.49609375
 40
0.498046875
 40
0.4990234375
 40
0.4995117188
 40
0.5
 40
0.5004882812
 40
0.5009765625
 40
0.501953125
 40
0.50390625
 40
0.505859375
 40
0.5078125
 40
0.51171875
 40
0.515625
 40
0.51953125
 40
0.5234375
 40
0.53125
 40
0.5390625
 40
0.546875
 40
0.55078125
 40
0.5546875
 40
0.556640625
 40
0.55859375
 40
0.560546875
 40
0.5615234375
 40
0.5620117188
 40
0.5625
 40
0.5629882812
 40
0.5634765625
 40
0.564453125
 40
0.56640625
 40
0.568359375
 40
0.5703125
 40
0.57421875
 40
0.578125
 40
0.5859375
 40
0.59375
 40
0.6015625
 40
0.609375
 40
0.61328125
 40
0.6171875
 40
0.619140625
 40
0.62109375
 40
0.623046875
 40
0.6240234375
 40
0.6245117188
 40
0.625
 40
0.6254882812
 40
0.6259765625
 40
0.626953125
 40
0.62890625
 40
0.630859375
 40
0.6328125
 40
0.63671875
 40
0.640625
 40
0.6484375
 40
0.65625
 40
0.6640625
 40
0.671875
 40
0.67578125
 40
0.6796875
 40
0.681640625
 40
0.68359375
 40
0.685546875
 40
0.6865234375
 40
0.6870117188
 40
0.6875
 40
0.6879882812
 40
0.6884765625
 40
0.689453125
 40
0.69140625
 40
0.693359375
 40
0.6953125
 40
0.69921875
 40
0.703125
 40
0.7109375
 40
0.71875
 40
0.7265625
 40
0.734375
 40
0.73828125
 40
0.7421875
 40
0.744140625
 40
0.74609375
 40
0.748046875
 40
0.7490234375
 40
0.7495117188
 40
0.75
 40
0.7504882812
 40
0.7509765625
 40
0.751953125
 40
0.75390625
 40
0.755859375
 40
0.7578125
 40
0.76171875
 40
0.765625
 40
0.7734375
 40
0.78125
 40
0.7890625
 40
0.796875
 40
0.80078125
 40
0.8046875
 40
0.806640625
 40
0.80859375
 40
0.810546875
 40
0.8115234375
 40
0.8120117188
 40
0.8125
 40
0.8129882812
 40
0.8134765625
 40
0.814453125
 40
0.81640625
 40
0.818359375
 40
0.8203125
 40
0.82421875
 40
0.828125
 40
0.8359375
 40
0.84375
 40
0.8515625
 40
0.859375
 40
0.86328125
 40
0.8671875
 40
0.869140625
 40
0.87109375
 40
0.873046875
 40
0.8740234375
 40
0.8745117188
 40
0.875
 40
0.8754882812
 40
0.8759765625
 40
0.876953125
 40
0.87890625
 40
0.880859375
 40
0.8828125
 40
0.88671875
 40
0.890625
 40
0.8984375
 40
0.90625
 40
0.9140625
 40
0.921875
 40
0.92578125
 40
0.9296875
 40
0.931640625
 40
0.93359375
 40
0.935546875
 40
0.9365234375
 40
0.9370117188
 40
0.9375
 40
0.9379882812
 40
0.9384765625
 40
0.939453125
 40
0.94140625
 40
0.943359375
 40
0.9453125
 40
0.94921875
 40
0.953125
 40
0.95703125
 40
0.9609375
 40
0.96875
 40
0.9765625
 40
0.984375
 40
1.0
 40
1.0
 40
1.0
 40
1.0
 10
10.3726680826
 20
8.8675456682
 30
0.0
 10
10.3754823224
 20
8.8676264386
 30
0.0
 10
10.3797036821
 20
8.8677475943
 30
0.0
 10
10.3853321618
 20
8.867909135
 30
0.0
 10
10.3895535214
 20
8.8680302912
 30
0.0
 10
10.3930713214
 20
8.8681312527
 30
0.0
 10
10.3958855607
 20
8.8682120262
 30
0.0
 10
10.3979962423
 20
8.8682725947
 30
0.0
 10
10.4001069153
 20
8.8683332076
 30
0.0
 10
10.4018658365
 20
8.86838358
 30
0.0
 10
10.403272913
 20
8.8684241876
 30
0.0
 10
10.4043283856
 20
8.8684537974
 30
0.0
 10
10.4052074205
 20
8.8684811631
 30
0.0
 10
10.4058237764
 20
8.8684950382
 30
0.0
 10
10.4061743692
 20
8.8685112125
 30
0.0
 10
10.4064418508
 20
8.8685001152
 30
0.0
 10
10.4066919898
 20
8.868577807
 30
0.0
 10
10.4070315577
 20
8.8686504255
 30
0.0
 10
10.4076229831
 20
8.8687919375
 30
0.0
 10
10.4084693502
 20
8.8689865536
 30
0.0
 10
10.4094843599
 20
8.8692233219
 30
0.0
 10
10.4108379264
 20
8.8695378851
 30
0.0
 10
10.4125298091
 20
8.8699314762
 30
0.0
 10
10.4145601006
 20
8.8704036195
 30
0.0
 10
10.4165903835
 20
8.8708758072
 30
0.0
 10
10.4192974304
 20
8.8715053752
 30
0.0
 10
10.4226812378
 20
8.8722923411
 30
0.0
 10
10.4260650464
 20
8.8730793032
 30
0.0
 10
10.4287720915
 20
8.8737088773
 30
0.0
 10
10.4308023798
 20
8.8741810468
 30
0.0
 10
10.4328326511
 20
8.8746532587
 30
0.0
 10
10.4345245968
 20
8.8750466364
 30
0.0
 10
10.4358780347
 20
8.8753616346
 30
0.0
 10
10.4368934373
 20
8.8755970743
 30
0.0
 10
10.437738575
 20
8.8757958474
 30
0.0
 10
10.438332195
 20
8.8759299385
 30
0.0
 10
10.4386682467
 20
8.8760144472
 30
0.0
 10
10.4389291866
 20
8.8760556158
 30
0.0
 10
10.4391561019
 20
8.8761816937
 30
0.0
 10
10.4394705238
 20
8.8763201803
 30
0.0
 10
10.4400152325
 20
8.8765763311
 30
0.0
 10
10.4407962787
 20
8.8769350465
 30
0.0
 10
10.4417322968
 20
8.8773685929
 30
0.0
 10
10.4429807531
 20
8.877945576
 30
0.0
 10
10.4445411752
 20
8.8786671752
 30
0.0
 10
10.4464137453
 20
8.8795329354
 30
0.0
 10
10.4482862984
 20
8.8803987382
 30
0.0
 10
10.4507830418
 20
8.8815531269
 30
0.0
 10
10.4539039688
 20
8.8829961184
 30
0.0
 10
10.4570248974
 20
8.8844391063
 30
0.0
 10
10.4595216381
 20
8.8855935009
 30
0.0
 10
10.4613941994
 20
8.8864592859
 30
0.0
 10
10.4632667388
 20
8.8873251126
 30
0.0
 10
10.4648272563
 20
8.8880465052
 30
0.0
 10
10.4660755182
 20
8.8886239094
 30
0.0
 10
10.4670121301
 20
8.8890561701
 30
0.0
 10
10.4677913182
 20
8.889418908
 30
0.0
 10
10.468339344
 20
8.8896678779
 30
0.0
 10
10.4686484512
 20
8.8898178701
 30
0.0
 10
10.4688916915
 20
8.8899086065
 30
0.0
 10
10.4690913173
 20
8.8900825122
 30
0.0
 10
10.4693726982
 20
8.8902853761
 30
0.0
 10
10.4698580267
 20
8.8906539045
 30
0.0
 10
10.4705550589
 20
8.8911733069
 30
0.0
 10
10.4713899113
 20
8.8917996147
 30
0.0
 10
10.472503602
 20
8.892633635
 30
0.0
 10
10.4738955252
 20
8.893676523
 30
0.0
 10
10.4755659145
 20
8.8949278332
 30
0.0
 10
10.477236282
 20
8.896179185
 30
0.0
 10
10.4794634464
 20
8.8978476395
 30
0.0
 10
10.4822473988
 20
8.899933213
 30
0.0
 10
10.4850313538
 20
8.9020187832
 30
0.0
 10
10.4872585141
 20
8.9036872428
 30
0.0
 10
10.4889288936
 20
8.9049385792
 30
0.0
 10
10.4905992381
 20
8.9061899472
 30
0.0
 10
10.4919913008
 20
8.9072326552
 30
0.0
 10
10.493104707
 20
8.9080670428
 30
0.0
 10
10.4939404281
 20
8.908692229
 30
0.0
 10
10.4946347425
 20
8.9092151403
 30
0.0
 10
10.4951249226
 20
8.9095774048
 30
0.0
 10
10.4953985301
 20
8.909790305
 30
0.0
 10
10.4956220334
 20
8.9099333823
 30
0.0
 10
10.4957755938
 20
8.9101399054
 30
0.0
 10
10.4960047379
 20
8.9103931389
 30
0.0
 10
10.4963943731
 20
8.9108466086
 30
0.0
 10
10.4969569377
 20
8.9114890317
 30
0.0
 10
10.4976294714
 20
8.9122622468
 30
0.0
 10
10.4985270716
 20
8.9132923943
 30
0.0
 10
10.4996487669
 20
8.9145803553
 30
0.0
 10
10.500994932
 20
8.9161257899
 30
0.0
 10
10.5023410621
 20
8.9176712562
 30
0.0
 10
10.5041359146
 20
8.9197318668
 30
0.0
 10
10.5063794755
 20
8.9223076342
 30
0.0
 10
10.5086230396
 20
8.9248833991
 30
0.0
 10
10.5104178869
 20
8.9269440139
 30
0.0
 10
10.5117640322
 20
8.9284894677
 30
0.0
 10
10.5131101404
 20
8.930034949
 30
0.0
 10
10.5142320128
 20
8.9313227647
 30
0.0
 10
10.5151292519
 20
8.9323532085
 30
0.0
 10
10.5158028882
 20
8.933125519
 30
0.0
 10
10.5163620032
 20
8.9337707724
 30
0.0
 10
10.5167577965
 20
8.9342191895
 30
0.0
 10
10.5169770738
 20
8.9344805185
 30
0.0
 10
10.517160942
 20
8.934662175
 30
0.0
 10
10.5172706142
 20
8.9348986469
 30
0.0
 10
10.5174427243
 20
8.9351948226
 30
0.0
 10
10.5177318588
 20
8.9357220384
 30
0.0
 10
10.5181512121
 20
8.9364705465
 30
0.0
 10
10.5186517378
 20
8.9373707498
 30
0.0
 10
10.5193200479
 20
8.9385703244
 30
0.0
 10
10.5201551121
 20
8.9400700317
 30
0.0
 10
10.5211573278
 20
8.9418695779
 30
0.0
 10
10.5221595064
 20
8.9436691516
 30
0.0
 10
10.5234957576
 20
8.9460685736
 30
0.0
 10
10.5251660666
 20
8.9490678545
 30
0.0
 10
10.5268363791
 20
8.9520671334
 30
0.0
 10
10.5281726248
 20
8.9544665587
 30
0.0
 10
10.5291748198
 20
8.9562661224
 30
0.0
 10
10.5301769737
 20
8.9580657061
 30
0.0
 10
10.5310122303
 20
8.9595652968
 30
0.0
 10
10.5316801481
 20
8.960765109
 30
0.0
 10
10.5321818719
 20
8.9616645868
 30
0.0
 10
10.5325974768
 20
8.9624153647
 30
0.0
 10
10.5328933029
 20
8.9629385285
 30
0.0
 10
10.5330546913
 20
8.9632411967
 30
0.0
 10
10.5331972971
 20
8.9634577258
 30
0.0
 10
10.5332574724
 20
8.963714284
 30
0.0
 10
10.5333664588
 20
8.9640423991
 30
0.0
 10
10.5335437886
 20
8.9646231059
 30
0.0
 10
10.5338041207
 20
8.9654492859
 30
0.0
 10
10.5341135213
 20
8.9664421577
 30
0.0
 10
10.5345271027
 20
8.9677654782
 30
0.0
 10
10.5350437201
 20
8.9694198033
 30
0.0
 10
10.535663815
 20
8.9714049187
 30
0.0
 10
10.5362838687
 20
8.9733900541
 30
0.0
 10
10.5371106215
 20
8.9760368943
 30
0.0
 10
10.5381440569
 20
8.9793454471
 30
0.0
 10
10.5391774961
 20
8.9826539983
 30
0.0
 10
10.5400042429
 20
8.985300841
 30
0.0
 10
10.5406243145
 20
8.9872859688
 30
0.0
 10
10.5412443423
 20
8.9892711126
 30
0.0
 10
10.5417611684
 20
8.9909253494
 30
0.0
 10
10.5421743242
 20
8.9922488501
 30
0.0
 10
10.5424850247
 20
8.9932411717
 30
0.0
 10
10.5427412897
 20
8.9940690731
 30
0.0
 10
10.54292588
 20
8.9946467068
 30
0.0
 10
10.5430232333
 20
8.9949797457
 30
0.0
 10
10.5431191419
 20
8.9952211796
 30
0.0
 10
10.5431275394
 20
8.9954945131
 30
0.0
 10
10.543169261
 20
8.9958478309
 30
0.0
 10
10.5432280516
 20
8.9964713213
 30
0.0
 10
10.5433194737
 20
8.9973593114
 30
0.0
 10
10.5434259976
 20
8.9984260597
 30
0.0
 10
10.5435691411
 20
8.9998479855
 30
0.0
 10
10.5437476891
 20
9.0016255319
 30
0.0
 10
10.5439621102
 20
9.0037585279
 30
0.0
 10
10.5441764876
 20
9.0058915398
 30
0.0
 10
10.5444623394
 20
9.0087355501
 30
0.0
 10
10.5448196484
 20
9.012290565
 30
0.0
 10
10.5451769613
 20
9.0158455791
 30
0.0
 10
10.5454628068
 20
9.0186895905
 30
0.0
 10
10.545677203
 20
9.0208225993
 30
0.0
 10
10.5458915537
 20
9.0229556072
 30
0.0
 10
10.5460703208
 20
9.0247331165
 30
0.0
 10
10.5462130175
 20
9.0261551179
 30
0.0
 10
10.546320906
 20
9.0272216353
 30
0.0
 10
10.5464080585
 20
9.0281103477
 30
0.0
 10
10.5464744711
 20
9.0287325487
 30
0.0
 10
10.5465039804
 20
9.0290879324
 30
0.0
 10
10.54654989
 20
9.0293549202
 30
0.0
 10
10.5465049095
 20
9.0296201875
 30
0.0
 10
10.5464766389
 20
9.0299744773
 30
0.0
 10
10.5464123942
 20
9.0305942048
 30
0.0
 10
10.5463283386
 20
9.0314796761
 30
0.0
 10
10.5462241664
 20
9.032542179
 30
0.0
 10
10.5460864247
 20
9.0339588714
 30
0.0
 10
10.5459138514
 20
9.0357297294
 30
0.0
 10
10.5457069333
 20
9.0378547623
 30
0.0
 10
10.5454999698
 20
9.0399797943
 30
0.0
 10
10.5452240341
 20
9.0428131705
 30
0.0
 10
10.5448791109
 20
9.046354891
 30
0.0
 10
10.5444651968
 20
9.0506049544
 30
0.0
 10
10.544120294
 20
9.0541466774
 30
0.0
 10
10.5438443134
 20
9.0569800482
 30
0.0
 10
10.5436719586
 20
9.0587509221
 30
0.0
 10
10.54353377
 20
9.060167582
 30
0.0
 10
10.543430963
 20
9.0612301842
 30
0.0
 10
10.543342636
 20
9.0621153446
 30
0.0
 10
10.5432860164
 20
9.0627356271
 30
0.0
 10
10.5432455285
 20
9.0630890278
 30
0.0
 10
10.5432380759
 20
9.0633570262
 30
0.0
 10
10.5431430369
 20
9.0636137561
 30
0.0
 10
10.5430468693
 20
9.0639599933
 30
0.0
 10
10.5428643417
 20
9.0645640771
 30
0.0
 10
10.5426110299
 20
9.0654280114
 30
0.0
 10
10.5423038704
 20
9.0664643226
 30
0.0
 10
10.541895437
 20
9.0678462142
 30
0.0
 10
10.5413845142
 20
9.0695735296
 30
0.0
 10
10.5405672508
 20
9.0723372616
 30
0.0
 10
10.539545598
 20
9.0757919171
 30
0.0
 10
10.5383196481
 20
9.0799375084
 30
0.0
 10
10.5370936819
 20
9.084083096
 30
0.0
 10
10.5360720699
 20
9.087537761
 30
0.0
 10
10.5352547248
 20
9.090301474
 30
0.0
 10
10.5347440096
 20
9.0920288377
 30
0.0
 10
10.5343351502
 20
9.0934106301
 30
0.0
 10
10.5340292921
 20
9.0944472441
 30
0.0
 10
10.5337719085
 20
9.0953102313
 30
0.0
 10
10.5335966497
 20
9.0959160056
 30
0.0
 10
10.5334888357
 20
9.0962595342
 30
0.0
 10
10.5334295709
 20
9.0965245841
 30
0.0
 10
10.5332877563
 20
9.0967613343
 30
0.0
 10
10.5331274645
 20
9.0970868724
 30
0.0
 10
10.532833538
 20
9.097651965
 30
0.0
 10
10.5324206569
 20
9.0984616447
 30
0.0
 10
10.5319221975
 20
9.099432231
 30
0.0
 10
10.5312586335
 20
9.1007267056
 30
0.0
 10
10.5304288194
 20
9.1023446758
 30
0.0
 10
10.5291013176
 20
9.1049334969
 30
0.0
 10
10.5274418711
 20
9.1081694995
 30
0.0
 10
10.5254505669
 20
9.1120527137
 30
0.0
 10
10.5234592471
 20
9.1159359215
 30
0.0
 10
10.5217998396
 20
9.11917194
 30
0.0
 10
10.5204722597
 20
9.1217607293
 30
0.0
 10
10.5196426441
 20
9.1233787804
 30
0.0
 10
10.5189786728
 20
9.1246730889
 30
0.0
 10
10.5184814578
 20
9.1256441828
 30
0.0
 10
10.518064683
 20
9.1264522744
 30
0.0
 10
10.5177777074
 20
9.1270202019
 30
0.0
 10
10.5176062786
 20
9.1273411978
 30
0.0
 10
10.5174986734
 20
9.1275919005
 30
0.0
 10
10.5173109236
 20
9.1278045468
 30
0.0
 10
10.5170885458
 20
9.1281013497
 30
0.0
 10
10.5166863598
 20
9.1286145699
 30
0.0
 10
10.516118618
 20
9.1293509751
 30
0.0
 10
10.5154344131
 20
9.1302332773
 30
0.0
 10
10.5145231579
 20
9.1314101637
 30
0.0
 10
10.5133837404
 20
9.1328811061
 30
0.0
 10
10.5115608672
 20
9.1352347066
 30
0.0
 10
10.5092822085
 20
9.138176675
 30
0.0
 10
10.5065478483
 20
9.1417070525
 30
0.0
 10
10.5038134748
 20
9.14523742
 30
0.0
 10
10.5015348494
 20
9.1481794134
 30
0.0
 10
10.4997119096
 20
9.1505329639
 30
0.0
 10
10.4985726613
 20
9.1520040331
 30
0.0
 10
10.4976610588
 20
9.1531806593
 30
0.0
 10
10.4969779151
 20
9.1540637565
 30
0.0
 10
10.4964068529
 20
9.1547976743
 30
0.0
 10
10.4960105944
 20
9.155315335
 30
0.0
 10
10.4957787194
 20
9.1556050231
 30
0.0
 10
10.4956201421
 20
9.1558395237
 30
0.0
 10
10.4954029696
 20
9.1560081451
 30
0.0
 10
10.4951338449
 20
9.1562559531
 30
0.0
 10
10.4946533539
 20
9.1566789105
 30
0.0
 10
10.4939719168
 20
9.1572887328
 30
0.0
 10
10.4931520613
 20
9.1580181237
 30
0.0
 10
10.4920596649
 20
9.1589914818
 30
0.0
 10
10.4906939146
 20
9.1602078928
 30
0.0
 10
10.4885088566
 20
9.1621543106
 30
0.0
 10
10.485777485
 20
9.1645872776
 30
0.0
 10
10.4824998612
 20
9.1675068633
 30
0.0
 10
10.4792222271
 20
9.170426436
 30
0.0
 10
10.4764908814
 20
9.1728594357
 30
0.0
 10
10.4743057714
 20
9.1748057879
 30
0.0
 10
10.4729401532
 20
9.1760223656
 30
0.0
 10
10.4718474857
 20
9.1769953816
 30
0.0
 10
10.4710284584
 20
9.1777258176
 30
0.0
 10
10.4703444302
 20
9.1783323701
 30
0.0
 10
10.4698685647
 20
9.1787611648
 30
0.0
 10
10.4695920289
 20
9.1789996199
 30
0.0
 10
10.469397621
 20
9.1791969703
 30
0.0
 10
10.4691535433
 20
9.1793235694
 30
0.0
 10
10.4688454318
 20
9.1795170471
 30
0.0
 10
10.4682981644
 20
9.1798441347
 30
0.0
 10
10.467520574
 20
9.1803174141
 30
0.0
 10
10.4665856592
 20
9.1808827764
 30
0.0
 10
10.465339737
 20
9.1816374914
 30
0.0
 10
10.4637821183
 20
9.1825805775
 30
0.0
 10
10.4612900491
 20
9.1840896872
 30
0.0
 10
10.458174921
 20
9.1859760149
 30
0.0
 10
10.4544367859
 20
9.1882396356
 30
0.0
 10
10.4506986428
 20
9.1905032418
 30
0.0
 10
10.4475835348
 20
9.1923896057
 30
0.0
 10
10.4450914253
 20
9.1938986431
 30
0.0
 10
10.443533909
 20
9.1948419131
 30
0.0
 10
10.4422877766
 20
9.1955962506
 30
0.0
 10
10.4413535042
 20
9.1961627663
 30
0.0
 10
10.4405739039
 20
9.1966324367
 30
0.0
 10
10.4400302245
 20
9.1969659671
 30
0.0
 10
10.4397163641
 20
9.1971491218
 30
0.0
 10
10.4394899452
 20
9.1973074298
 30
0.0
 10
10.4392292138
 20
9.1973856869
 30
0.0
 10
10.4388935405
 20
9.1975179523
 30
0.0
 10
10.4383005359
 20
9.1977364071
 30
0.0
 10
10.4374563018
 20
9.198055287
 30
0.0
 10
10.436441973
 20
9.1984350316
 30
0.0
 10
10.4350899705
 20
9.1989423746
 30
0.0
 10
10.4333998181
 20
9.1995762052
 30
0.0
 10
10.4306956576
 20
9.2005905287
 30
0.0
 10
10.4273154284
 20
9.2018583659
 30
0.0
 10
10.4232591662
 20
9.2033798014
 30
0.0
 10
10.4192028982
 20
9.204901221
 30
0.0
 10
10.4158226834
 20
9.206169098
 30
0.0
 10
10.4131184941
 20
9.207183342
 30
0.0
 10
10.4114284151
 20
9.2078173748
 30
0.0
 10
10.410076262
 20
9.2083243027
 30
0.0
 10
10.4090623932
 20
9.2087053154
 30
0.0
 10
10.4082167198
 20
9.209020228
 30
0.0
 10
10.4076262847
 20
9.2092457651
 30
0.0
 10
10.4072864943
 20
9.2093666829
 30
0.0
 10
10.4070384092
 20
9.2094797962
 30
0.0
 10
10.4067644931
 20
9.2095071899
 30
0.0
 10
10.4064082818
 20
9.2095736148
 30
0.0
 10
10.405780714
 20
9.2096759274
 30
0.0
 10
10.4048863833
 20
9.2098293716
 30
0.0
 10
10.4038122471
 20
9.210010387
 30
0.0
 10
10.4023803936
 20
9.21025283
 30
0.0
 10
10.4005904641
 20
9.21055551
 30
0.0
 10
10.398442597
 20
9.2109188862
 30
0.0
 10
10.396294717
 20
9.2112822195
 30
0.0
 10
10.3934308815
 20
9.211766679
 30
0.0
 10
10.3898510856
 20
9.2123722481
 30
0.0
 10
10.3855553312
 20
9.2130989333
 30
0.0
 10
10.3798276583
 20
9.2140678461
 30
0.0
 10
10.3755319038
 20
9.2147945308
 30
0.0
 10
10.3726680674
 20
9.2152789873
 30
0.0
  0
SPLINE
  5
37B
100
AcDbEntity
  8
0
100
AcDbSpline
 62
4
  6
CONTINUOUS
 70
0
 71
3
 72
330
 73
326
 74
0
 42
0.0000001
 43
0.0000001
 44
0.0000000001
 40
0.0
 40
0.0
 40
0.0
 40
0.0
 40
0.015625
 40
0.0234375
 40
0.03125
 40
0.0390625
 40
0.04296875
 40
0.046875
 40
0.05078125
 40
0.0546875
 40
0.056640625
 40
0.05859375
 40
0.060546875
 40
0.0615234375
 40
0.0620117188
 40
0.0625
 40
0.0629882812
 40
0.0634765625
 40
0.064453125
 40
0.06640625
 40
0.068359375
 40
0.0703125
 40
0.07421875
 40
0.078125
 40
0.08203125
 40
0.0859375
 40
0.09375
 40
0.1015625
 40
0.10546875
 40
0.109375
 40
0.11328125
 40
0.1171875
 40
0.119140625
 40
0.12109375
 40
0.123046875
 40
0.1240234375
 40
0.1245117188
 40
0.125
 40
0.1254882812
 40
0.1259765625
 40
0.126953125
 40
0.12890625
 40
0.130859375
 40
0.1328125
 40
0.13671875
 40
0.140625
 40
0.14453125
 40
0.1484375
 40
0.15625
 40
0.1640625
 40
0.16796875
 40
0.171875
 40
0.17578125
 40
0.1796875
 40
0.181640625
 40
0.18359375
 40
0.185546875
 40
0.1865234375
 40
0.1870117188
 40
0.1875
 40
0.1879882812
 40
0.1884765625
 40
0.189453125
 40
0.19140625
 40
0.193359375
 40
0.1953125
 40
0.19921875
 40
0.203125
 40
0.20703125
 40
0.2109375
 40
0.21875
 40
0.2265625
 40
0.23046875
 40
0.234375
 40
0.23828125
 40
0.2421875
 40
0.244140625
 40
0.24609375
 40
0.248046875
 40
0.2490234375
 40
0.2495117188
 40
0.25
 40
0.2504882812
 40
0.2509765625
 40
0.251953125
 40
0.25390625
 40
0.255859375
 40
0.2578125
 40
0.26171875
 40
0.265625
 40
0.26953125
 40
0.2734375
 40
0.28125
 40
0.2890625
 40
0.29296875
 40
0.296875
 40
0.30078125
 40
0.3046875
 40
0.306640625
 40
0.30859375
 40
0.310546875
 40
0.3115234375
 40
0.3120117188
 40
0.3125
 40
0.3129882812
 40
0.3134765625
 40
0.314453125
 40
0.31640625
 40
0.318359375
 40
0.3203125
 40
0.32421875
 40
0.328125
 40
0.33203125
 40
0.3359375
 40
0.34375
 40
0.3515625
 40
0.35546875
 40
0.359375
 40
0.36328125
 40
0.3671875
 40
0.369140625
 40
0.37109375
 40
0.373046875
 40
0.3740234375
 40
0.3745117188
 40
0.375
 40
0.3754882812
 40
0.3759765625
 40
0.376953125
 40
0.37890625
 40
0.380859375
 40
0.3828125
 40
0.38671875
 40
0.390625
 40
0.39453125
 40
0.3984375
 40
0.40625
 40
0.4140625
 40
0.41796875
 40
0.421875
 40
0.42578125
 40
0.4296875
 40
0.431640625
 40
0.43359375
 40
0.435546875
 40
0.4365234375
 40
0.4370117188
 40
0.4375
 40
0.4379882812
 40
0.4384765625
 40
0.439453125
 40
0.44140625
 40
0.443359375
 40
0.4453125
 40
0.44921875
 40
0.453125
 40
0.45703125
 40
0.4609375
 40
0.46875
 40
0.4765625
 40
0.48046875
 40
0.484375
 40
0.48828125
 40
0.4921875
 40
0.494140625
 40
0.49609375
 40
0.498046875
 40
0.4990234375
 40
0.4995117188
 40
0.5
 40
0.5004882812
 40
0.5009765625
 40
0.501953125
 40
0.50390625
 40
0.505859375
 40
0.5078125
 40
0.51171875
 40
0.515625
 40
0.51953125
 40
0.5234375
 40
0.53125
 40
0.5390625
 40
0.546875
 40
0.55078125
 40
0.5546875
 40
0.556640625
 40
0.55859375
 40
0.560546875
 40
0.5615234375
 40
0.5620117188
 40
0.5625
 40
0.5629882812
 40
0.5634765625
 40
0.564453125
 40
0.56640625
 40
0.568359375
 40
0.5703125
 40
0.57421875
 40
0.578125
 40
0.5859375
 40
0.59375
 40
0.6015625
 40
0.609375
 40
0.61328125
 40
0.6171875
 40
0.619140625
 40
0.62109375
 40
0.623046875
 40
0.6240234375
 40
0.6245117188
 40
0.625
 40
0.6254882812
 40
0.6259765625
 40
0.626953125
 40
0.62890625
 40
0.630859375
 40
0.6328125
 40
0.63671875
 40
0.640625
 40
0.6484375
 40
0.65625
 40
0.6640625
 40
0.671875
 40
0.67578125
 40
0.6796875
 40
0.681640625
 40
0.68359375
 40
0.685546875
 40
0.6865234375
 40
0.6870117188
 40
0.6875
 40
0.6879882812
 40
0.6884765625
 40
0.689453125
 40
0.69140625
 40
0.693359375
 40
0.6953125
 40
0.69921875
 40
0.703125
 40
0.7109375
 40
0.71875
 40
0.7265625
 40
0.734375
 40
0.73828125
 40
0.7421875
 40
0.744140625
 40
0.74609375
 40
0.748046875
 40
0.7490234375
 40
0.7495117188
 40
0.75
 40
0.7504882812
 40
0.7509765625
 40
0.751953125
 40
0.75390625
 40
0.755859375
 40
0.7578125
 40
0.76171875
 40
0.765625
 40
0.7734375
 40
0.78125
 40
0.7890625
 40
0.796875
 40
0.80078125
 40
0.8046875
 40
0.806640625
 40
0.80859375
 40
0.810546875
 40
0.8115234375
 40
0.8120117188
 40
0.8125
 40
0.8129882812
 40
0.8134765625
 40
0.814453125
 40
0.81640625
 40
0.818359375
 40
0.8203125
 40
0.82421875
 40
0.828125
 40
0.8359375
 40
0.84375
 40
0.8515625
 40
0.859375
 40
0.86328125
 40
0.8671875
 40
0.869140625
 40
0.87109375
 40
0.873046875
 40
0.8740234375
 40
0.8745117188
 40
0.875
 40
0.8754882812
 40
0.8759765625
 40
0.876953125
 40
0.87890625
 40
0.880859375
 40
0.8828125
 40
0.88671875
 40
0.890625
 40
0.8984375
 40
0.90625
 40
0.9140625
 40
0.921875
 40
0.92578125
 40
0.9296875
 40
0.931640625
 40
0.93359375
 40
0.935546875
 40
0.9365234375
 40
0.9370117188
 40
0.9375
 40
0.9379882812
 40
0.9384765625
 40
0.939453125
 40
0.94140625
 40
0.943359375
 40
0.9453125
 40
0.94921875
 40
0.953125
 40
0.95703125
 40
0.9609375
 40
0.96875
 40
0.9765625
 40
0.984375
 40
1.0
 40
1.0
 40
1.0
 40
1.0
 10
10.3726680826
 20
9.2152789863
 30
0.0
 10
10.3698538428
 20
9.2151982158
 30
0.0
 10
10.3656324831
 20
9.2150770601
 30
0.0
 10
10.3600040034
 20
9.2149155194
 30
0.0
 10
10.3557826438
 20
9.2147943633
 30
0.0
 10
10.3522648438
 20
9.2146934017
 30
0.0
 10
10.3494506046
 20
9.2146126283
 30
0.0
 10
10.3473399229
 20
9.2145520598
 30
0.0
 10
10.3452292499
 20
9.2144914469
 30
0.0
 10
10.3434703287
 20
9.2144410744
 30
0.0
 10
10.3420632522
 20
9.2144004668
 30
0.0
 10
10.3410077796
 20
9.2143708571
 30
0.0
 10
10.3401287447
 20
9.2143434914
 30
0.0
 10
10.3395123888
 20
9.2143296162
 30
0.0
 10
10.339161796
 20
9.214313442
 30
0.0
 10
10.3388943145
 20
9.2143245393
 30
0.0
 10
10.3386441755
 20
9.2142468475
 30
0.0
 10
10.3383046075
 20
9.214174229
 30
0.0
 10
10.3377131821
 20
9.2140327169
 30
0.0
 10
10.3368668151
 20
9.2138381009
 30
0.0
 10
10.3358518054
 20
9.2136013325
 30
0.0
 10
10.3344982388
 20
9.2132867693
 30
0.0
 10
10.3328063561
 20
9.2128931783
 30
0.0
 10
10.3307760646
 20
9.212421035
 30
0.0
 10
10.3287457817
 20
9.2119488473
 30
0.0
 10
10.3260387348
 20
9.2113192792
 30
0.0
 10
10.3226549274
 20
9.2105323133
 30
0.0
 10
10.3192711189
 20
9.2097453513
 30
0.0
 10
10.3165640737
 20
9.2091157771
 30
0.0
 10
10.3145337854
 20
9.2086436077
 30
0.0
 10
10.3125035142
 20
9.2081713958
 30
0.0
 10
10.3108115684
 20
9.2077780181
 30
0.0
 10
10.3094581305
 20
9.2074630198
 30
0.0
 10
10.3084427279
 20
9.2072275802
 30
0.0
 10
10.3075975902
 20
9.2070288071
 30
0.0
 10
10.3070039702
 20
9.206894716
 30
0.0
 10
10.3066679185
 20
9.2068102072
 30
0.0
 10
10.3064069787
 20
9.2067690387
 30
0.0
 10
10.3061800633
 20
9.2066429607
 30
0.0
 10
10.3058656415
 20
9.2065044741
 30
0.0
 10
10.3053209328
 20
9.2062483233
 30
0.0
 10
10.3045398865
 20
9.205889608
 30
0.0
 10
10.3036038685
 20
9.2054560616
 30
0.0
 10
10.3023554121
 20
9.2048790784
 30
0.0
 10
10.30079499
 20
9.2041574793
 30
0.0
 10
10.2989224199
 20
9.203291719
 30
0.0
 10
10.2970498668
 20
9.2024259163
 30
0.0
 10
10.2945531234
 20
9.2012715275
 30
0.0
 10
10.2914321964
 20
9.199828536
 30
0.0
 10
10.2883112678
 20
9.1983855482
 30
0.0
 10
10.2858145271
 20
9.1972311536
 30
0.0
 10
10.2839419658
 20
9.1963653685
 30
0.0
 10
10.2820694264
 20
9.1954995419
 30
0.0
 10
10.2805089089
 20
9.1947781492
 30
0.0
 10
10.2792606471
 20
9.194200745
 30
0.0
 10
10.2783240351
 20
9.1937684843
 30
0.0
 10
10.277544847
 20
9.1934057465
 30
0.0
 10
10.2769968212
 20
9.1931567766
 30
0.0
 10
10.276687714
 20
9.1930067843
 30
0.0
 10
10.2764444737
 20
9.192916048
 30
0.0
 10
10.2762448479
 20
9.1927421422
 30
0.0
 10
10.275963467
 20
9.1925392783
 30
0.0
 10
10.2754781385
 20
9.19217075
 30
0.0
 10
10.2747811063
 20
9.1916513475
 30
0.0
 10
10.2739462539
 20
9.1910250398
 30
0.0
 10
10.2728325632
 20
9.1901910194
 30
0.0
 10
10.27144064
 20
9.1891481314
 30
0.0
 10
10.2697702507
 20
9.1878968212
 30
0.0
 10
10.2680998832
 20
9.1866454694
 30
0.0
 10
10.2658727188
 20
9.184977015
 30
0.0
 10
10.2630887664
 20
9.1828914415
 30
0.0
 10
10.2603048115
 20
9.1808058713
 30
0.0
 10
10.2580776511
 20
9.1791374117
 30
0.0
 10
10.2564072716
 20
9.1778860753
 30
0.0
 10
10.2547369271
 20
9.1766347072
 30
0.0
 10
10.2533448644
 20
9.1755919993
 30
0.0
 10
10.2522314582
 20
9.1747576117
 30
0.0
 10
10.2513957371
 20
9.1741324255
 30
0.0
 10
10.2507014227
 20
9.1736095141
 30
0.0
 10
10.2502112426
 20
9.1732472497
 30
0.0
 10
10.2499376351
 20
9.1730343494
 30
0.0
 10
10.2497141318
 20
9.1728912722
 30
0.0
 10
10.2495605714
 20
9.1726847491
 30
0.0
 10
10.2493314273
 20
9.1724315156
 30
0.0
 10
10.2489417921
 20
9.1719780459
 30
0.0
 10
10.2483792275
 20
9.1713356228
 30
0.0
 10
10.2477066938
 20
9.1705624077
 30
0.0
 10
10.2468090936
 20
9.1695322602
 30
0.0
 10
10.2456873983
 20
9.1682442992
 30
0.0
 10
10.2443412332
 20
9.1666988646
 30
0.0
 10
10.2429951031
 20
9.1651533983
 30
0.0
 10
10.2412002507
 20
9.1630927876
 30
0.0
 10
10.2389566897
 20
9.1605170202
 30
0.0
 10
10.2367131257
 20
9.1579412554
 30
0.0
 10
10.2349182783
 20
9.1558806406
 30
0.0
 10
10.233572133
 20
9.1543351867
 30
0.0
 10
10.2322260248
 20
9.1527897054
 30
0.0
 10
10.2311041524
 20
9.1515018897
 30
0.0
 10
10.2302069133
 20
9.150471446
 30
0.0
 10
10.229533277
 20
9.1496991355
 30
0.0
 10
10.2289741621
 20
9.1490538821
 30
0.0
 10
10.2285783687
 20
9.1486054649
 30
0.0
 10
10.2283590915
 20
9.148344136
 30
0.0
 10
10.2281752232
 20
9.1481624795
 30
0.0
 10
10.228065551
 20
9.1479260076
 30
0.0
 10
10.2278934409
 20
9.1476298319
 30
0.0
 10
10.2276043064
 20
9.147102616
 30
0.0
 10
10.2271849531
 20
9.1463541079
 30
0.0
 10
10.2266844274
 20
9.1454539047
 30
0.0
 10
10.2260161173
 20
9.14425433
 30
0.0
 10
10.2251810531
 20
9.1427546228
 30
0.0
 10
10.2241788374
 20
9.1409550765
 30
0.0
 10
10.2231766588
 20
9.1391555029
 30
0.0
 10
10.2218404076
 20
9.1367560809
 30
0.0
 10
10.2201700986
 20
9.1337567999
 30
0.0
 10
10.2184997861
 20
9.1307575211
 30
0.0
 10
10.2171635405
 20
9.1283580958
 30
0.0
 10
10.2161613454
 20
9.1265585321
 30
0.0
 10
10.2151591915
 20
9.1247589484
 30
0.0
 10
10.2143239349
 20
9.1232593576
 30
0.0
 10
10.2136560171
 20
9.1220595454
 30
0.0
 10
10.2131542933
 20
9.1211600677
 30
0.0
 10
10.2127386884
 20
9.1204092897
 30
0.0
 10
10.2124428623
 20
9.1198861259
 30
0.0
 10
10.212281474
 20
9.1195834578
 30
0.0
 10
10.2121388682
 20
9.1193669286
 30
0.0
 10
10.2120786929
 20
9.1191103704
 30
0.0
 10
10.2119697065
 20
9.1187822554
 30
0.0
 10
10.2117923766
 20
9.1182015486
 30
0.0
 10
10.2115320445
 20
9.1173753686
 30
0.0
 10
10.2112226439
 20
9.1163824968
 30
0.0
 10
10.2108090625
 20
9.1150591763
 30
0.0
 10
10.2102924451
 20
9.1134048511
 30
0.0
 10
10.2096723502
 20
9.1114197358
 30
0.0
 10
10.2090522965
 20
9.1094346004
 30
0.0
 10
10.2082255438
 20
9.1067877602
 30
0.0
 10
10.2071921083
 20
9.1034792074
 30
0.0
 10
10.2061586691
 20
9.1001706562
 30
0.0
 10
10.2053319223
 20
9.0975238135
 30
0.0
 10
10.2047118507
 20
9.0955386856
 30
0.0
 10
10.2040918229
 20
9.0935535419
 30
0.0
 10
10.2035749968
 20
9.0918993051
 30
0.0
 10
10.2031618411
 20
9.0905758044
 30
0.0
 10
10.2028511405
 20
9.0895834828
 30
0.0
 10
10.2025948755
 20
9.0887555814
 30
0.0
 10
10.2024102852
 20
9.0881779476
 30
0.0
 10
10.2023129319
 20
9.0878449088
 30
0.0
 10
10.2022170234
 20
9.0876034749
 30
0.0
 10
10.2022086258
 20
9.0873301413
 30
0.0
 10
10.2021669043
 20
9.0869768235
 30
0.0
 10
10.2021081136
 20
9.0863533332
 30
0.0
 10
10.2020166915
 20
9.085465343
 30
0.0
 10
10.2019101677
 20
9.0843985947
 30
0.0
 10
10.2017670241
 20
9.0829766689
 30
0.0
 10
10.2015884761
 20
9.0811991226
 30
0.0
 10
10.201374055
 20
9.0790661266
 30
0.0
 10
10.2011596776
 20
9.0769331147
 30
0.0
 10
10.2008738258
 20
9.0740891043
 30
0.0
 10
10.2005165168
 20
9.0705340895
 30
0.0
 10
10.2001592039
 20
9.0669790753
 30
0.0
 10
10.1998733584
 20
9.0641350639
 30
0.0
 10
10.1996589622
 20
9.0620020552
 30
0.0
 10
10.1994446116
 20
9.0598690473
 30
0.0
 10
10.1992658445
 20
9.058091538
 30
0.0
 10
10.1991231477
 20
9.0566695366
 30
0.0
 10
10.1990152592
 20
9.0556030191
 30
0.0
 10
10.1989281067
 20
9.0547143067
 30
0.0
 10
10.1988616941
 20
9.0540921057
 30
0.0
 10
10.1988321848
 20
9.0537367221
 30
0.0
 10
10.1987862752
 20
9.0534697342
 30
0.0
 10
10.1988312558
 20
9.053204467
 30
0.0
 10
10.1988595263
 20
9.0528501772
 30
0.0
 10
10.198923771
 20
9.0522304496
 30
0.0
 10
10.1990078266
 20
9.0513449784
 30
0.0
 10
10.1991119989
 20
9.0502824755
 30
0.0
 10
10.1992497405
 20
9.0488657831
 30
0.0
 10
10.1994223138
 20
9.047094925
 30
0.0
 10
10.1996292319
 20
9.0449698922
 30
0.0
 10
10.1998361954
 20
9.0428448602
 30
0.0
 10
10.2001121311
 20
9.040011484
 30
0.0
 10
10.2004570543
 20
9.0364697635
 30
0.0
 10
10.2008709684
 20
9.0322197
 30
0.0
 10
10.2012158712
 20
9.0286779771
 30
0.0
 10
10.2014918518
 20
9.0258446063
 30
0.0
 10
10.2016642066
 20
9.0240737324
 30
0.0
 10
10.2018023952
 20
9.0226570725
 30
0.0
 10
10.2019052022
 20
9.0215944702
 30
0.0
 10
10.2019935292
 20
9.0207093098
 30
0.0
 10
10.2020501488
 20
9.0200890274
 30
0.0
 10
10.2020906367
 20
9.0197356267
 30
0.0
 10
10.2020980894
 20
9.0194676283
 30
0.0
 10
10.2021931284
 20
9.0192108983
 30
0.0
 10
10.2022892959
 20
9.0188646611
 30
0.0
 10
10.2024718235
 20
9.0182605774
 30
0.0
 10
10.2027251353
 20
9.0173966431
 30
0.0
 10
10.2030322948
 20
9.0163603318
 30
0.0
 10
10.2034407282
 20
9.0149784403
 30
0.0
 10
10.203951651
 20
9.0132511249
 30
0.0
 10
10.2047689144
 20
9.0104873929
 30
0.0
 10
10.2057905672
 20
9.0070327374
 30
0.0
 10
10.2070165171
 20
9.002887146
 30
0.0
 10
10.2082424833
 20
8.9987415585
 30
0.0
 10
10.2092640953
 20
8.9952868935
 30
0.0
 10
10.2100814404
 20
8.9925231805
 30
0.0
 10
10.2105921556
 20
8.9907958168
 30
0.0
 10
10.2110010151
 20
8.9894140244
 30
0.0
 10
10.2113068732
 20
8.9883774104
 30
0.0
 10
10.2115642567
 20
8.9875144231
 30
0.0
 10
10.2117395155
 20
8.9869086489
 30
0.0
 10
10.2118473295
 20
8.9865651203
 30
0.0
 10
10.2119065943
 20
8.9863000704
 30
0.0
 10
10.2120484089
 20
8.9860633202
 30
0.0
 10
10.2122087007
 20
8.985737782
 30
0.0
 10
10.2125026272
 20
8.9851726894
 30
0.0
 10
10.2129155083
 20
8.9843630098
 30
0.0
 10
10.2134139678
 20
8.9833924234
 30
0.0
 10
10.2140775318
 20
8.9820979488
 30
0.0
 10
10.2149073458
 20
8.9804799786
 30
0.0
 10
10.2162348476
 20
8.9778911575
 30
0.0
 10
10.2178942941
 20
8.974655155
 30
0.0
 10
10.2198855983
 20
8.9707719408
 30
0.0
 10
10.2218769182
 20
8.9668887329
 30
0.0
 10
10.2235363256
 20
8.9636527144
 30
0.0
 10
10.2248639055
 20
8.9610639252
 30
0.0
 10
10.2256935211
 20
8.959445874
 30
0.0
 10
10.2263574924
 20
8.9581515656
 30
0.0
 10
10.2268547074
 20
8.9571804716
 30
0.0
 10
10.2272714822
 20
8.9563723801
 30
0.0
 10
10.2275584578
 20
8.9558044525
 30
0.0
 10
10.2277298867
 20
8.9554834567
 30
0.0
 10
10.2278374918
 20
8.9552327539
 30
0.0
 10
10.2280252416
 20
8.9550201077
 30
0.0
 10
10.2282476194
 20
8.9547233048
 30
0.0
 10
10.2286498054
 20
8.9542100846
 30
0.0
 10
10.2292175472
 20
8.9534736794
 30
0.0
 10
10.2299017521
 20
8.9525913772
 30
0.0
 10
10.2308130073
 20
8.9514144908
 30
0.0
 10
10.2319524248
 20
8.9499435484
 30
0.0
 10
10.233775298
 20
8.9475899479
 30
0.0
 10
10.2360539567
 20
8.9446479795
 30
0.0
 10
10.2387883169
 20
8.941117602
 30
0.0
 10
10.2415226904
 20
8.9375872345
 30
0.0
 10
10.2438013158
 20
8.9346452411
 30
0.0
 10
10.2456242556
 20
8.9322916905
 30
0.0
 10
10.2467635039
 20
8.9308206213
 30
0.0
 10
10.2476751064
 20
8.9296439952
 30
0.0
 10
10.2483582501
 20
8.9287608979
 30
0.0
 10
10.2489293123
 20
8.9280269802
 30
0.0
 10
10.2493255708
 20
8.9275093195
 30
0.0
 10
10.2495574459
 20
8.9272196314
 30
0.0
 10
10.2497160231
 20
8.9269851308
 30
0.0
 10
10.2499331956
 20
8.9268165093
 30
0.0
 10
10.2502023203
 20
8.9265687014
 30
0.0
 10
10.2506828113
 20
8.926145744
 30
0.0
 10
10.2513642484
 20
8.9255359216
 30
0.0
 10
10.2521841039
 20
8.9248065307
 30
0.0
 10
10.2532765003
 20
8.9238331727
 30
0.0
 10
10.2546422506
 20
8.9226167617
 30
0.0
 10
10.2568273086
 20
8.9206703438
 30
0.0
 10
10.2595586803
 20
8.9182373769
 30
0.0
 10
10.262836304
 20
8.9153177911
 30
0.0
 10
10.2661139382
 20
8.9123982185
 30
0.0
 10
10.2688452838
 20
8.9099652188
 30
0.0
 10
10.2710303938
 20
8.9080188665
 30
0.0
 10
10.2723960121
 20
8.9068022888
 30
0.0
 10
10.2734886795
 20
8.9058292729
 30
0.0
 10
10.2743077068
 20
8.9050988368
 30
0.0
 10
10.274991735
 20
8.9044922844
 30
0.0
 10
10.2754676005
 20
8.9040634897
 30
0.0
 10
10.2757441364
 20
8.9038250346
 30
0.0
 10
10.2759385442
 20
8.9036276841
 30
0.0
 10
10.2761826219
 20
8.903501085
 30
0.0
 10
10.2764907334
 20
8.9033076073
 30
0.0
 10
10.2770380009
 20
8.9029805198
 30
0.0
 10
10.2778155912
 20
8.9025072403
 30
0.0
 10
10.278750506
 20
8.9019418781
 30
0.0
 10
10.2799964282
 20
8.9011871631
 30
0.0
 10
10.2815540469
 20
8.900244077
 30
0.0
 10
10.2840461161
 20
8.8987349672
 30
0.0
 10
10.2871612442
 20
8.8968486395
 30
0.0
 10
10.2908993793
 20
8.8945850188
 30
0.0
 10
10.2946375224
 20
8.8923214127
 30
0.0
 10
10.2977526304
 20
8.8904350488
 30
0.0
 10
10.3002447399
 20
8.8889260114
 30
0.0
 10
10.3018022562
 20
8.8879827414
 30
0.0
 10
10.3030483886
 20
8.8872284039
 30
0.0
 10
10.303982661
 20
8.8866618881
 30
0.0
 10
10.3047622613
 20
8.8861922178
 30
0.0
 10
10.3053059407
 20
8.8858586874
 30
0.0
 10
10.3056198011
 20
8.8856755327
 30
0.0
 10
10.30584622
 20
8.8855172247
 30
0.0
 10
10.3061069514
 20
8.8854389676
 30
0.0
 10
10.3064426247
 20
8.8853067022
 30
0.0
 10
10.3070356294
 20
8.8850882474
 30
0.0
 10
10.3078798634
 20
8.8847693674
 30
0.0
 10
10.3088941922
 20
8.8843896228
 30
0.0
 10
10.3102461948
 20
8.8838822798
 30
0.0
 10
10.3119363472
 20
8.8832484493
 30
0.0
 10
10.3146405076
 20
8.8822341257
 30
0.0
 10
10.3180207368
 20
8.8809662885
 30
0.0
 10
10.322076999
 20
8.879444853
 30
0.0
 10
10.326133267
 20
8.8779234334
 30
0.0
 10
10.3295134818
 20
8.8766555565
 30
0.0
 10
10.3322176711
 20
8.8756413124
 30
0.0
 10
10.3339077501
 20
8.8750072797
 30
0.0
 10
10.3352599032
 20
8.8745003517
 30
0.0
 10
10.336273772
 20
8.8741193391
 30
0.0
 10
10.3371194454
 20
8.8738044265
 30
0.0
 10
10.3377098806
 20
8.8735788894
 30
0.0
 10
10.3380496709
 20
8.8734579716
 30
0.0
 10
10.338297756
 20
8.8733448582
 30
0.0
 10
10.3385716721
 20
8.8733174645
 30
0.0
 10
10.3389278835
 20
8.8732510396
 30
0.0
 10
10.3395554512
 20
8.873148727
 30
0.0
 10
10.3404497819
 20
8.8729952829
 30
0.0
 10
10.3415239182
 20
8.8728142674
 30
0.0
 10
10.3429557716
 20
8.8725718245
 30
0.0
 10
10.3447457011
 20
8.8722691445
 30
0.0
 10
10.3468935682
 20
8.8719057683
 30
0.0
 10
10.3490414482
 20
8.8715424349
 30
0.0
 10
10.3519052837
 20
8.8710579755
 30
0.0
 10
10.3554850796
 20
8.8704524064
 30
0.0
 10
10.3597808341
 20
8.8697257212
 30
0.0
 10
10.3655085069
 20
8.8687568084
 30
0.0
 10
10.3698042614
 20
8.8680301236
 30
0.0
 10
10.3726680978
 20
8.8675456671
 30
0.0
  0
ENDSEC
  0
SECTION
  2
OBJECTS
  0
DICTIONARY
  5
C
100
AcDbDictionary
280
0
281
1
  3
ACAD_GROUP
350
D
  3
ACAD_MLINESTYLE
350
17
  3
ACAD_LAYOUT
350
1A
  3
ACAD_PLOTSETTINGS
350
19
  3
ACAD_PLOTSTYLENAME
350
E
  3
ACAD_IMAGE_DICT
350
       37D
  3
ACAD_IMAGE_VARS
350
       37E
  3
ACAD_TABLESTYLE
350
       37F
  0
IMAGEDEF_REACTOR
  5
37C
100
AcDbRasterImageDefReactor
 90
2
330
292
  0
DICTIONARY
  5
D
102
{ACAD_REACTORS
330
C
102
}
100
AcDbDictionary
280
0
281
1
  0
ACDBDICTIONARYWDFLT
  5
E
102
{ACAD_REACTORS
330
C
102
}
100
AcDbDictionary
281
1
  3
Normal
350
F
100
AcDbDictionaryWithDefault
340
F
  0
DICTIONARY
  5
37D
330
C
100
AcDbDictionary
281
1
  3
B2A_assy_2_img_1
350
       382
  0
RASTERVARIABLES
  5
37E
330
C
100
AcDbRasterVariables
 90
0
 70
0
 71
1
 72
5
  0
DICTIONARY
  5
17
102
{ACAD_REACTORS
330
C
102
}
100
AcDbDictionary
280
0
281
1
  3
Standard
350
18
  0
DICTIONARY
  5
37F
330
C
100
AcDbDictionary
281
1
  3
Standard
350
       383
  3
Standard1
350
       384
  0
DICTIONARY
  5
19
102
{ACAD_REACTORS
330
C
102
}
100
AcDbDictionary
281
1
  0
DICTIONARY
  5
1A
102
{ACAD_REACTORS
330
C
102
}
100
AcDbDictionary
281
1
  3
Model
350
380
  3
Layout1
350
381
  0
ACDBPLACEHOLDER
  5
F
102
{ACAD_REACTORS
330
E
102
}
  0
MLINESTYLE
  5
18
102
{ACAD_REACTORS
330
17
102
}
100
AcDbMlineStyle
  2
STANDARD
 70
0
  3

 62
256
 51
90.0
 52
90.0
 71
2
 49
0.5
 62
256
  6
BYLAYER
 49
-0.5
 62
256
  6
BYLAYER
  0
LAYOUT
  5
380
102
{ACAD_REACTORS
330
1A
102
}
100
AcDbPlotSettings
  1

  2
none_device
  4
ANSI_C_(22.00_x_17.00_Inches)
  6

 40
0.0
 41
0.0
 42
0.0
 43
0.0
 44
558.8
 45
431.8
 46
0.0
 47
0.0
 48
0.0
 49
0.0
140
0.0
141
0.0
142
1.0
143
1.0
 70
1024
 72
0
 73
0
 74
0
  7

 75
0
147
1.0
148
0.0
149
0.0
100
AcDbLayout
  1
Model
 70
0
 71
0
 10
0.0
 20
0.0
 11
22.0
 21
17.0
 12
0.0
 22
0.0
 32
0.0
 14
0.0
 24
0.0
 34
0.0
 15
0.0
 25
0.0
 35
0.0
146
0.0
 13
0.0
 23
0.0
 33
0.0
 16
1.0
 26
0.0
 36
0.0
 17
0.0
 27
1.0
 37
0.0
 76
0
330
20C
345
0
346
0
  0
LAYOUT
  5
381
102
{ACAD_REACTORS
330
1A
102
}
100
AcDbPlotSettings
  1

  2
none_device
  4
ANSI_C_(22.00_x_17.00_Inches)
  6

 40
0.0
 41
0.0
 42
0.0
 43
0.0
 44
558.8
 45
431.8
 46
0.0
 47
0.0
 48
0.0
 49
0.0
140
0.0
141
0.0
142
1.0
143
1.0
 70
0
 72
0
 73
0
 74
0
  7

 75
0
147
1.0
148
0.0
149
0.0
100
AcDbLayout
  1
Layout1
 70
0
 71
1
 10
0.0
 20
0.0
 11
22.0
 21
17.0
 12
0.0
 22
0.0
 32
0.0
 14
0.0
 24
0.0
 34
0.0
 15
0.0
 25
0.0
 35
0.0
146
0.0
 13
0.0
 23
0.0
 33
0.0
 16
1.0
 26
0.0
 36
0.0
 17
0.0
 27
1.0
 37
0.0
 76
0
330
20D
345
0
346
0
  0
IMAGEDEF
  5
382
102
{ACAD_REACTORS
330
37D
330
37C
102
}
100
AcDbRasterImageDef
 90
0
  1
B2A_assy_2_img_1.png
 10
369.0
 20
92.0
 11
0.0066666667
 21
0.0066666667
280
1
281
0
  0
TABLESTYLE
  5
383
102
{ACAD_REACTORS
330
37F
330
295
330
296
102
}
330
37F
100
AcDbTableStyle
  3
Standard
 70
0
 71
0
 40
0.06
 41
0.06
280
1
281
1
  7
Standard
140
0.18
170
1
 62
0
 63
7
283
0
  7
Standard
140
0.18
170
1
 62
0
 63
7
283
0
  7
Standard
140
0.18
170
1
 62
0
 63
7
283
0
  0
TABLESTYLE
  5
384
102
{ACAD_REACTORS
330
37F
330
294
102
}
330
37F
100
AcDbTableStyle
  3
Standard1
 70
1
 71
0
 40
0.06
 41
0.06
280
1
281
1
  7
Standard
140
0.18
170
1
 62
0
 63
7
283
0
  7
Standard
140
0.18
170
1
 62
0
 63
7
283
0
  7
Standard
140
0.18
170
1
 62
0
 63
7
283
0
  0
ENDSEC
  0
EOF
