999
DXF file: A7V_assy_2.dxf
999
Pro/ENGINEER 2014200 by Parametric Technology Corporation
  0
SECTION
  2
HEADER
  9
$ACADVER
  1
AC1021
  9
$DWGCODEPAGE
  3
ANSI_1252
  9
$EXTMAX
 10
22.0
 20
17.0
 30
0.0
  9
$EXTMIN
 10
0.0
 20
0.0
 30
0.0
  9
$LIMMIN
 10
0.0
 20
0.0
  9
$LIMMAX
 10
22.0
 20
17.0
  9
$VIEWCTR
 10
11.0
 20
8.5
  9
$VIEWSIZE
 40
17.0
  9
$CLAYER
  8
0
  9
$LTSCALE
 40
1.21
  9
$CELTYPE
  6
BYLAYER
  9
$DIMSCALE
 40
1.0
  9
$DIMASZ
 40
0.1875
  9
$DIMEXO
 40
0.0625
  9
$DIMDLI
 40
0.836
  9
$DIMEXE
 40
0.125
  9
$DIMCEN
 40
0.198
  9
$DIMLFAC
 40
1.0
  9
$DIMBLK
  1
_FILLED
  9
$DIMTXT
 40
0.1
  9
$DIMTOL
 70
0
  9
$DIMLIM
 70
0
  9
$DIMTFAC
 40
1.0
  9
$DIMGAP
 40
0.09
  9
$DIMDSEP
 70
46
  9
$AUNITS
 70
0
  9
$PDMODE
 70
3
  9
$PDSIZE
 40
0.3125
  9
$HANDSEED
  5
3AC
  9
$TILEMODE
 70
1
  9
$MEASUREMENT
 70
0
  9
$INSUNITS
 70
1
  0
ENDSEC
  0
SECTION
  2
CLASSES
  0
CLASS
  1
ACDBDICTIONARYWDFLT
  2
AcDbDictionaryWithDefault
  3
AutoCAD 2000
 90
0
 91
1
280
0
281
0
  0
CLASS
  1
ACDBPLACEHOLDER
  2
AcDbPlaceHolder
  3
AutoCAD 2000
 90
0
 91
1
280
0
281
0
  0
CLASS
  1
LAYOUT
  2
AcDbLayout
  3
AutoCAD 2000
 90
0
 91
0
280
0
281
0
  0
CLASS
  1
RASTERVARIABLES
  2
AcDbRasterVariables
  3
ISM
 90
0
 91
1
280
0
281
0
  0
CLASS
  1
IMAGEDEF
  2
AcDbRasterImageDef
  3
ISM
 90
0
 91
1
280
0
281
0
  0
CLASS
  1
IMAGEDEF_REACTOR
  2
AcDbRasterImageDefReactor
  3
ISM
 90
0
 91
1
280
0
281
0
  0
CLASS
  1
IMAGE
  2
AcDbRasterImage
  3
ISM
 90
127
 91
1
280
0
281
1
  0
CLASS
  1
TABLESTYLE
  2
AcDbTableStyle
  3
ObjectDBX Classes
 90
2047
 91
1
280
0
281
0
  0
CLASS
  1
ACAD_TABLE
  2
AcDbTable
  3
ObjectDBX Classes
 90
1025
 91
3
280
0
281
1
  0
ENDSEC
  0
SECTION
  2
TABLES
  0
TABLE
  2
VPORT
  5
8
100
AcDbSymbolTable
 70
2
  0
VPORT
  5
1F4
100
AcDbSymbolTableRecord
100
AcDbViewportTableRecord
  2
*ACTIVE
 70
0
 10
0.0
 20
0.0
 11
1.0
 21
1.0
 12
11.0
 22
8.5
 13
0.0
 23
0.0
 14
1.0
 24
1.0
 15
0.0
 25
0.0
 16
0.0
 26
0.0
 36
1.0
 17
0.0
 27
0.0
 37
0.0
 40
17.0
 41
1.2941176471
 42
50.0
 43
0.0
 44
0.0
 50
0.0
 51
0.0
 71
0
 72
100
 73
1
 74
1
 75
0
 76
0
 77
0
 78
0
  0
ENDTAB
  0
TABLE
  2
LTYPE
  5
5
100
AcDbSymbolTable
 70
6
  0
LTYPE
  5
14
100
AcDbSymbolTableRecord
100
AcDbLinetypeTableRecord
  2
BYBLOCK
 70
0
  3

 72
65
 73
0
 40
0.0
  0
LTYPE
  5
15
100
AcDbSymbolTableRecord
100
AcDbLinetypeTableRecord
  2
BYLAYER
 70
0
  3

 72
65
 73
0
 40
0.0
  0
LTYPE
  5
16
100
AcDbSymbolTableRecord
100
AcDbLinetypeTableRecord
  2
CONTINUOUS
 70
64
  3
Solid line
 72
65
 73
0
 40
0.0
  0
LTYPE
  5
1F5
100
AcDbSymbolTableRecord
100
AcDbLinetypeTableRecord
  2
CENTER
 70
64
  3
____ _ ____ _ ____ _ ____ _ ____ _ ____ _ ____
 72
65
 73
4
 40
0.6
 49
0.375
 74
0
 49
-0.075
 74
0
 49
0.075
 74
0
 49
-0.075
 74
0
  0
LTYPE
  5
1F6
100
AcDbSymbolTableRecord
100
AcDbLinetypeTableRecord
  2
HIDDEN
 70
64
  3
- - - - - - - - - - - - - - - - - - - -
 72
65
 73
2
 40
0.2
 49
0.1
 74
0
 49
-0.1
 74
0
  0
LTYPE
  5
1F7
100
AcDbSymbolTableRecord
100
AcDbLinetypeTableRecord
  2
PHANTOM
 70
64
  3
_____ _ _ _____ _ _ _____ _ _ _____
 72
65
 73
6
 40
0.8
 49
0.45
 74
0
 49
-0.05
 74
0
 49
0.1
 74
0
 49
-0.05
 74
0
 49
0.1
 74
0
 49
-0.05
 74
0
  0
LTYPE
  5
1F8
100
AcDbSymbolTableRecord
100
AcDbLinetypeTableRecord
  2
DOT
 70
64
  3
. . . . . . . . . . . . . . . . . . . .
 72
65
 73
2
 40
0.2
 49
0.1
 74
0
 49
-0.1
 74
0
  0
LTYPE
  5
1F9
100
AcDbSymbolTableRecord
100
AcDbLinetypeTableRecord
  2
DASHED
 70
64
  3
- - - - - - - - - - - - - - - - - - - -
 72
65
 73
2
 40
0.2
 49
0.1
 74
0
 49
-0.1
 74
0
  0
ENDTAB
  0
TABLE
  2
LAYER
  5
2
100
AcDbSymbolTable
 70
36
  0
LAYER
  5
10
100
AcDbSymbolTableRecord
100
AcDbLayerTableRecord
  2
0
 70
0
 62
7
  6
CONTINUOUS
370
-3
390
F
  0
LAYER
  5
1FA
100
AcDbSymbolTableRecord
100
AcDbLayerTableRecord
  2
DEFAULT_1
 70
0
 62
7
  6
CENTER
370
-3
390
F
  0
LAYER
  5
1FB
100
AcDbSymbolTableRecord
100
AcDbLayerTableRecord
  2
DEFAULT_2
 70
0
 62
8
  6
HIDDEN
370
-3
390
F
  0
LAYER
  5
1FC
100
AcDbSymbolTableRecord
100
AcDbLayerTableRecord
  2
DEFAULT_3
 70
0
 62
7
  6
PHANTOM
370
-3
390
F
  0
LAYER
  5
1FD
100
AcDbSymbolTableRecord
100
AcDbLayerTableRecord
  2
01___PRT_ALL_DTM_PLN
 70
0
 62
7
  6
CONTINUOUS
370
-3
390
F
  0
LAYER
  5
1FE
100
AcDbSymbolTableRecord
100
AcDbLayerTableRecord
  2
01___PRT_DEF_DTM_PLN
 70
0
 62
7
  6
CONTINUOUS
370
-3
390
F
  0
LAYER
  5
1FF
100
AcDbSymbolTableRecord
100
AcDbLayerTableRecord
  2
02___PRT_ALL_AXES
 70
0
 62
7
  6
CONTINUOUS
370
-3
390
F
  0
LAYER
  5
200
100
AcDbSymbolTableRecord
100
AcDbLayerTableRecord
  2
03___PRT_ALL_CURVES
 70
0
 62
7
  6
CONTINUOUS
370
-3
390
F
  0
LAYER
  5
201
100
AcDbSymbolTableRecord
100
AcDbLayerTableRecord
  2
04___PRT_ALL_DTM_PNT
 70
0
 62
7
  6
CONTINUOUS
370
-3
390
F
  0
LAYER
  5
202
100
AcDbSymbolTableRecord
100
AcDbLayerTableRecord
  2
05___PRT_ALL_DTM_CSYS
 70
0
 62
7
  6
CONTINUOUS
370
-3
390
F
  0
LAYER
  5
203
100
AcDbSymbolTableRecord
100
AcDbLayerTableRecord
  2
05___PRT_DEF_DTM_CSYS
 70
0
 62
7
  6
CONTINUOUS
370
-3
390
F
  0
LAYER
  5
204
100
AcDbSymbolTableRecord
100
AcDbLayerTableRecord
  2
06___PRT_ALL_SURFS
 70
0
 62
7
  6
CONTINUOUS
370
-3
390
F
  0
LAYER
  5
205
100
AcDbSymbolTableRecord
100
AcDbLayerTableRecord
  2
DATUM_PLANES
 70
0
 62
7
  6
CONTINUOUS
370
-3
390
F
  0
LAYER
  5
206
100
AcDbSymbolTableRecord
100
AcDbLayerTableRecord
  2
PORT_AREAS
 70
0
 62
7
  6
CONTINUOUS
370
-3
390
F
  0
LAYER
  5
207
100
AcDbSymbolTableRecord
100
AcDbLayerTableRecord
  2
SUNNBOMCOSMETIC
 70
0
 62
7
  6
CONTINUOUS
370
-3
390
F
  0
LAYER
  5
208
100
AcDbSymbolTableRecord
100
AcDbLayerTableRecord
  2
SUNNBOMSTAMPING
 70
0
 62
7
  6
CONTINUOUS
370
-3
390
F
  0
LAYER
  5
209
100
AcDbSymbolTableRecord
100
AcDbLayerTableRecord
  2
THREADS
 70
0
 62
7
  6
CONTINUOUS
370
-3
390
F
  0
ENDTAB
  0
TABLE
  2
STYLE
  5
3
100
AcDbSymbolTable
 70
1
  0
STYLE
  5
11
100
AcDbSymbolTableRecord
100
AcDbTextStyleTableRecord
  2
STANDARD
 70
0
 40
0.0
 41
0.8
 50
0.0
 71
0
 42
0.2
  3
txt
  4

  0
STYLE
  5
20A
100
AcDbSymbolTableRecord
100
AcDbTextStyleTableRecord
  2
TEXTSTYLE_1
 70
0
 40
0.0
 41
0.8
 50
0.0
 71
0
 42
0.2
  3
gdt
  4

  0
ENDTAB
  0
TABLE
  2
VIEW
  5
6
100
AcDbSymbolTable
 70
0
  0
ENDTAB
  0
TABLE
  2
UCS
  5
7
100
AcDbSymbolTable
 70
0
  0
ENDTAB
  0
TABLE
  2
APPID
  5
9
100
AcDbSymbolTable
 70
1
  0
APPID
  5
20B
100
AcDbSymbolTableRecord
100
AcDbRegAppTableRecord
  2
ACAD
 70
0
  0
ENDTAB
  0
TABLE
  2
BLOCK_RECORD
  5
1
100
AcDbSymbolTable
 70
0
  0
BLOCK_RECORD
  5
20C
100
AcDbSymbolTableRecord
100
AcDbBlockTableRecord
  2
*Model_Space
  0
BLOCK_RECORD
  5
20D
100
AcDbSymbolTableRecord
100
AcDbBlockTableRecord
  2
*Paper_Space
  0
BLOCK_RECORD
  5
20E
100
AcDbSymbolTableRecord
100
AcDbBlockTableRecord
  2
SUN_FIRST_THIRD_ANGLE_BL0
  0
BLOCK_RECORD
  5
20F
100
AcDbSymbolTableRecord
100
AcDbBlockTableRecord
  2
*T1
  0
BLOCK_RECORD
  5
210
100
AcDbSymbolTableRecord
100
AcDbBlockTableRecord
  2
*T2
  0
BLOCK_RECORD
  5
211
100
AcDbSymbolTableRecord
100
AcDbBlockTableRecord
  2
*T3
  0
ENDTAB
  0
TABLE
  2
DIMSTYLE
  5
A
100
AcDbSymbolTable
 70
1
100
AcDbDimStyleTable
 71
0
  0
DIMSTYLE
105
212
100
AcDbSymbolTableRecord
100
AcDbDimStyleTableRecord
  2
STANDARD
 70
0
  3

  4

 40
1.0
 41
0.1875
 42
0.0625
 43
0.38
 44
0.125
 45
0.0
 46
0.0
 47
0.001
 48
0.001
140
0.1
141
0.09
142
0.0
143
25.4
144
1.0
145
0.0
146
1.0
147
0.09
 71
0.0
 72
0.0
 73
1
 74
1
 75
0
 76
0
 77
0
 78
4
170
0
171
2
172
0
173
0
174
0
175
0
176
0
177
0
178
0
270
2
271
3
272
3
273
2
274
2
275
0
280
0
281
0
282
0
283
1
284
4
285
0
286
0
287
3
288
0
340
11
278
46
  0
ENDTAB
  0
ENDSEC
  0
SECTION
  2
BLOCKS
  0
BLOCK
  5
20
100
AcDbEntity
  8
0
100
AcDbBlockBegin
  2
*Model_Space
 70
0
 10
0.0
 20
0.0
 30
0.0
  3
*Model_Space
  1

  0
ENDBLK
  5
21
100
AcDbEntity
  8
0
100
AcDbBlockEnd
  0
BLOCK
  5
1C
100
AcDbEntity
  8
0
100
AcDbBlockBegin
  2
*Paper_Space
 70
0
 10
0.0
 20
0.0
 30
0.0
  3
*Paper_Space
  1

  0
ENDBLK
  5
1D
100
AcDbEntity
  8
0
100
AcDbBlockEnd
  0
BLOCK
  5
213
100
AcDbEntity
  8
0
100
AcDbBlockBegin
 62
2
  6
CONTINUOUS
  2
SUN_FIRST_THIRD_ANGLE_BL0
 70
64
 10
20.4816717061
 20
1.2289683772
  3
SUN_FIRST_THIRD_ANGLE_BL0
  1

  0
TEXT
  5
214
100
AcDbEntity
  8
0
100
AcDbText
 62
2
  6
CONTINUOUS
 10
19.4750896608
 20
1.4136269581
  7
STANDARD
 40
0.08
  1
FIRST ANGLE
 41
0.8
 72
0
100
AcDbText
  0
TEXT
  5
215
100
AcDbEntity
  8
0
100
AcDbText
 62
2
  6
CONTINUOUS
 10
20.7842537513
 20
1.4047600029
  7
STANDARD
 40
0.08
  1
THIRD ANGLE
 41
0.8
 72
0
100
AcDbText
  0
LINE
  5
216
100
AcDbEntity
  8
0
100
AcDbLine
 62
7
  6
CONTINUOUS
 10
19.4767170086
 20
1.1727031207
 11
19.6334271527
 21
1.1717972817
  0
LINE
  5
217
100
AcDbEntity
  8
0
100
AcDbLine
 62
7
  6
CONTINUOUS
 10
19.6596964832
 20
1.1717972817
 11
19.6950230232
 21
1.171593082
  0
LINE
  5
218
100
AcDbEntity
  8
0
100
AcDbLine
 62
7
  6
CONTINUOUS
 10
19.7194818561
 20
1.1708914427
 11
19.8852396156
 21
1.1699333054
  0
LINE
  5
219
100
AcDbEntity
  8
0
100
AcDbLine
 62
7
  6
CONTINUOUS
 10
19.4758111696
 20
1.2723454088
 11
19.88525039
 21
1.3511534004
  0
LINE
  5
21A
100
AcDbEntity
  8
0
100
AcDbLine
 62
7
  6
CONTINUOUS
 10
19.88525039
 20
1.3511534004
 11
19.8831348489
 21
0.9851647912
  0
LINE
  5
21B
100
AcDbEntity
  8
0
100
AcDbLine
 62
7
  6
CONTINUOUS
 10
19.8831348489
 20
0.9851647912
 11
19.4767170086
 21
1.0658141206
  0
LINE
  5
21C
100
AcDbEntity
  8
0
100
AcDbLine
 62
7
  6
CONTINUOUS
 10
19.4767170086
 20
1.0658141206
 11
19.4779056764
 21
1.2714536432
  0
CIRCLE
  5
21D
100
AcDbEntity
  8
0
100
AcDbCircle
 62
7
  6
CONTINUOUS
 10
20.2068232291
 20
1.1717972817
 40
0.175742101
  0
CIRCLE
  5
21E
100
AcDbEntity
  8
0
100
AcDbCircle
 62
7
  6
CONTINUOUS
 10
20.2068232291
 20
1.1717972817
 40
0.1005522074
  0
LINE
  5
21F
100
AcDbEntity
  8
0
100
AcDbLine
 62
7
  6
CONTINUOUS
 10
20.2077290681
 20
1.3756110529
 11
20.2071171714
 21
1.2379342989
  0
LINE
  5
220
100
AcDbEntity
  8
0
100
AcDbLine
 62
7
  6
CONTINUOUS
 10
20.2077290681
 20
1.2016899681
 11
20.2074674401
 21
1.1428236749
  0
LINE
  5
221
100
AcDbEntity
  8
0
100
AcDbLine
 62
7
  6
CONTINUOUS
 10
20.208634907
 20
1.101141841
 11
20.2080230104
 21
0.963465087
  0
LINE
  5
222
100
AcDbEntity
  8
0
100
AcDbLine
 62
7
  6
CONTINUOUS
 10
20.0066328138
 20
1.1745147986
 11
20.1443095678
 21
1.1739029019
  0
LINE
  5
223
100
AcDbEntity
  8
0
100
AcDbLine
 62
7
  6
CONTINUOUS
 10
20.1832714155
 20
1.1727031207
 11
20.238153505
 21
1.172335442
  0
LINE
  5
224
100
AcDbEntity
  8
0
100
AcDbLine
 62
7
  6
CONTINUOUS
 10
20.2756669918
 20
1.1717972817
 11
20.407916871
 21
1.1712095044
  0
CIRCLE
  5
225
100
AcDbEntity
  8
0
100
AcDbCircle
 62
7
  6
CONTINUOUS
 10
20.7509457401
 20
1.1693297793
 40
0.1722024983
  0
CIRCLE
  5
226
100
AcDbEntity
  8
0
100
AcDbCircle
 62
7
  6
CONTINUOUS
 10
20.7509457401
 20
1.1693297793
 40
0.0985164967
  0
LINE
  5
227
100
AcDbEntity
  8
0
100
AcDbLine
 62
7
  6
CONTINUOUS
 10
20.7169767782
 20
1.170462078
 11
20.7825395137
 21
1.1682766535
  0
LINE
  5
228
100
AcDbEntity
  8
0
100
AcDbLine
 62
7
  6
CONTINUOUS
 10
20.8177513651
 20
1.1693297793
 11
20.947965719
 21
1.1693297793
  0
LINE
  5
229
100
AcDbEntity
  8
0
100
AcDbLine
 62
7
  6
CONTINUOUS
 10
20.6875370113
 20
1.170462078
 11
20.5573226574
 21
1.170462078
  0
LINE
  5
22A
100
AcDbEntity
  8
0
100
AcDbLine
 62
7
  6
CONTINUOUS
 10
20.7486811426
 20
1.1987695462
 11
20.7486811426
 21
1.1432869085
  0
LINE
  5
22B
100
AcDbEntity
  8
0
100
AcDbLine
 62
7
  6
CONTINUOUS
 10
20.7498134414
 20
1.1059210505
 11
20.7498134414
 21
0.9757066966
  0
LINE
  5
22C
100
AcDbEntity
  8
0
100
AcDbLine
 62
7
  6
CONTINUOUS
 10
20.7486811426
 20
1.2338708068
 11
20.7486811426
 21
1.3640851607
  0
LINE
  5
22D
100
AcDbEntity
  8
0
100
AcDbLine
 62
7
  6
CONTINUOUS
 10
21.0702539817
 20
1.2701043662
 11
21.4790138229
 21
1.3448360823
  0
LINE
  5
22E
100
AcDbEntity
  8
0
100
AcDbLine
 62
7
  6
CONTINUOUS
 10
21.4790138229
 20
1.3448360823
 11
21.4790138229
 21
0.9779712941
  0
LINE
  5
22F
100
AcDbEntity
  8
0
100
AcDbLine
 62
7
  6
CONTINUOUS
 10
21.4790138229
 20
0.9779712941
 11
21.069121683
 21
1.0617614
  0
LINE
  5
230
100
AcDbEntity
  8
0
100
AcDbLine
 62
7
  6
CONTINUOUS
 10
21.0702539817
 20
1.2701043662
 11
21.069121683
 21
1.0617614
  0
LINE
  5
231
100
AcDbEntity
  8
0
100
AcDbLine
 62
7
  6
CONTINUOUS
 10
21.4790138229
 20
1.1693297793
 11
21.3159628059
 21
1.1693297793
  0
LINE
  5
232
100
AcDbEntity
  8
0
100
AcDbLine
 62
7
  6
CONTINUOUS
 10
21.2876553377
 20
1.1693297793
 11
21.2502894796
 21
1.1693297793
  0
LINE
  5
233
100
AcDbEntity
  8
0
100
AcDbLine
 62
7
  6
CONTINUOUS
 10
21.2208497126
 20
1.1659328831
 11
21.0713862804
 21
1.1659328831
  0
LINE
  5
234
100
AcDbEntity
  8
0
100
AcDbLine
 62
7
  6
CONTINUOUS
 10
20.4796138713
 20
1.5284908897
 11
20.4766766948
 21
0.9294458646
  0
ENDBLK
  5
235
100
AcDbEntity
  8
0
  6
BYBLOCK
 62
0
100
AcDbBlockEnd
  0
BLOCK
  5
236
100
AcDbEntity
  8
0
100
AcDbBlockBegin
  2
*T1
 70
1
 10
0.0
 20
0.0
  3
*T1
  1

  0
LINE
  5
237
100
AcDbEntity
  8
0
100
AcDbLine
 62
2
  6
CONTINUOUS
 10
9.275
 20
0.0
 11
-0.0
 21
0.0
  0
LINE
  5
238
100
AcDbEntity
  8
0
100
AcDbLine
 62
2
  6
CONTINUOUS
 10
9.275
 20
0.0
 11
9.275
 21
1.25
  0
LINE
  5
239
100
AcDbEntity
  8
0
100
AcDbLine
 62
2
  6
CONTINUOUS
 10
9.275
 20
0.625
 11
-0.0
 21
0.625
  0
LINE
  5
23A
100
AcDbEntity
  8
0
100
AcDbLine
 62
2
  6
CONTINUOUS
 10
9.275
 20
1.25
 11
-0.0
 21
1.25
  0
LINE
  5
23B
100
AcDbEntity
  8
0
100
AcDbLine
 62
2
  6
CONTINUOUS
 10
6.8
 20
0.0
 11
6.8
 21
1.25
  0
LINE
  5
23C
100
AcDbEntity
  8
0
100
AcDbLine
 62
2
  6
CONTINUOUS
 10
6.4
 20
0.0
 11
6.4
 21
0.625
  0
LINE
  5
23D
100
AcDbEntity
  8
0
100
AcDbLine
 62
2
  6
CONTINUOUS
 10
5.9
 20
0.0
 11
5.9
 21
0.625
  0
LINE
  5
23E
100
AcDbEntity
  8
0
100
AcDbLine
 62
2
  6
CONTINUOUS
 10
5.2
 20
0.0
 11
5.2
 21
0.625
  0
LINE
  5
23F
100
AcDbEntity
  8
0
100
AcDbLine
 62
2
  6
CONTINUOUS
 10
4.1
 20
0.0
 11
4.1
 21
1.25
  0
LINE
  5
240
100
AcDbEntity
  8
0
100
AcDbLine
 62
2
  6
CONTINUOUS
 10
-0.0
 20
0.0
 11
-0.0
 21
1.25
  0
MTEXT
  5
241
100
AcDbEntity
  8
0
100
AcDbMText
 62
2
  6
CONTINUOUS
  7
STANDARD
 71
2
 72
1
 10
6.6
 20
0.325
 30
0.0
 11
1.0
 21
0.0
 31
0.0
 44
0.9
  1
2
 40
0.125
 41
0.2
  0
MTEXT
  5
242
100
AcDbEntity
  8
0
100
AcDbMText
 62
2
  6
CONTINUOUS
  7
STANDARD
 71
2
 72
1
 10
6.15
 20
0.325
 30
0.0
 11
1.0
 21
0.0
 31
0.0
 44
0.9
  1
C
 40
0.125
 41
0.2
  0
MTEXT
  5
243
100
AcDbEntity
  8
0
100
AcDbMText
 62
2
  6
CONTINUOUS
  7
STANDARD
 71
2
 72
1
 10
5.55
 20
0.325
 30
0.0
 11
1.0
 21
0.0
 31
0.0
 44
0.9
  1
1.000
 40
0.125
 41
1.0
  0
MTEXT
  5
244
100
AcDbEntity
  8
0
100
AcDbMText
 62
2
  6
CONTINUOUS
  7
STANDARD
 71
2
 72
1
 10
4.65
 20
0.325
 30
0.0
 11
1.0
 21
0.0
 31
0.0
 44
0.9
  1
Apr-18-24
 40
0.125
 41
1.8
  0
MTEXT
  5
245
100
AcDbEntity
  8
0
100
AcDbMText
 62
2
  6
CONTINUOUS
  7
STANDARD
 71
2
 72
1
 10
2.05
 20
0.4625
 30
0.0
 11
1.0
 21
0.0
 31
0.0
 44
0.9
  1
T-11A Line mount\P(See Notes for Body Features)
 40
0.125
 41
5.8
  0
MTEXT
  5
246
100
AcDbEntity
  8
0
100
AcDbMText
 62
2
  6
CONTINUOUS
  7
STANDARD
 71
1
 72
1
 10
6.45
 20
0.5625
 30
0.0
 11
1.0
 21
0.0
 31
0.0
 44
0.9
  1
SHEET
 40
0.06
 41
0.48
  0
MTEXT
  5
247
100
AcDbEntity
  8
0
100
AcDbMText
 62
2
  6
CONTINUOUS
  7
STANDARD
 71
1
 72
1
 10
5.95
 20
0.5625
 30
0.0
 11
1.0
 21
0.0
 31
0.0
 44
0.9
  1
DWG SIZE
 40
0.06
 41
0.768
  0
MTEXT
  5
248
100
AcDbEntity
  8
0
100
AcDbMText
 62
2
  6
CONTINUOUS
  7
STANDARD
 71
1
 72
1
 10
5.25
 20
0.5625
 30
0.0
 11
1.0
 21
0.0
 31
0.0
 44
0.9
  1
SCALE
 40
0.06
 41
0.48
  0
MTEXT
  5
249
100
AcDbEntity
  8
0
100
AcDbMText
 62
2
  6
CONTINUOUS
  7
STANDARD
 71
1
 72
1
 10
4.15
 20
0.5625
 30
0.0
 11
1.0
 21
0.0
 31
0.0
 44
0.9
  1
DATE
 40
0.06
 41
0.384
  0
MTEXT
  5
24A
100
AcDbEntity
  8
0
100
AcDbMText
 62
2
  6
CONTINUOUS
  7
STANDARD
 71
1
 72
1
 10
0.05
 20
0.5625
 30
0.0
 11
1.0
 21
0.0
 31
0.0
 44
0.9
  1
DESCRIPTION
 40
0.06
 41
1.056
  0
MTEXT
  5
24B
100
AcDbEntity
  8
0
100
AcDbMText
 62
2
  6
CONTINUOUS
  7
STANDARD
 71
2
 72
1
 10
5.45
 20
1.0375
 30
0.0
 11
1.0
 21
0.0
 31
0.0
 44
0.9
  1
ALL DIMENSIONS IN INCH\PVIEWS ARE THIRD ANGLE
 40
0.12
 41
4.224
  0
MTEXT
  5
24C
100
AcDbEntity
  8
0
100
AcDbMText
 62
2
  6
CONTINUOUS
  7
STANDARD
 71
2
 72
1
 10
2.05
 20
0.95
 30
0.0
 11
1.0
 21
0.0
 31
0.0
 44
0.9
  1
A7V
 40
0.125
 41
0.6
  0
MTEXT
  5
24D
100
AcDbEntity
  8
0
100
AcDbMText
 62
2
  6
CONTINUOUS
  7
STANDARD
 71
1
 72
1
 10
0.05
 20
1.1875
 30
0.0
 11
1.0
 21
0.0
 31
0.0
 44
0.9
  1
MODEL
 40
0.06
 41
0.48
  0
ENDBLK
  5
24E
100
AcDbEntity
  8
0
  6
BYBLOCK
 62
0
100
AcDbBlockEnd
  0
BLOCK
  5
24F
100
AcDbEntity
  8
0
100
AcDbBlockBegin
  2
*T2
 70
1
 10
0.0
 20
0.0
  3
*T2
  1

  0
LINE
  5
250
100
AcDbEntity
  8
0
100
AcDbLine
 62
2
  6
CONTINUOUS
 10
0.0
 20
0.0
 11
9.055
 21
0.0
  0
LINE
  5
251
100
AcDbEntity
  8
0
100
AcDbLine
 62
2
  6
CONTINUOUS
 10
0.0
 20
0.0
 11
0.0
 21
-2.844
  0
LINE
  5
252
100
AcDbEntity
  8
0
100
AcDbLine
 62
2
  6
CONTINUOUS
 10
0.0
 20
-0.344
 11
9.055
 21
-0.344
  0
LINE
  5
253
100
AcDbEntity
  8
0
100
AcDbLine
 62
2
  6
CONTINUOUS
 10
0.0
 20
-0.594
 11
9.055
 21
-0.594
  0
LINE
  5
254
100
AcDbEntity
  8
0
100
AcDbLine
 62
2
  6
CONTINUOUS
 10
0.0
 20
-0.844
 11
9.055
 21
-0.844
  0
LINE
  5
255
100
AcDbEntity
  8
0
100
AcDbLine
 62
2
  6
CONTINUOUS
 10
0.0
 20
-1.094
 11
9.055
 21
-1.094
  0
LINE
  5
256
100
AcDbEntity
  8
0
100
AcDbLine
 62
2
  6
CONTINUOUS
 10
0.0
 20
-1.344
 11
9.055
 21
-1.344
  0
LINE
  5
257
100
AcDbEntity
  8
0
100
AcDbLine
 62
2
  6
CONTINUOUS
 10
0.0
 20
-1.594
 11
9.055
 21
-1.594
  0
LINE
  5
258
100
AcDbEntity
  8
0
100
AcDbLine
 62
2
  6
CONTINUOUS
 10
0.0
 20
-1.844
 11
9.055
 21
-1.844
  0
LINE
  5
259
100
AcDbEntity
  8
0
100
AcDbLine
 62
2
  6
CONTINUOUS
 10
0.0
 20
-2.094
 11
9.055
 21
-2.094
  0
LINE
  5
25A
100
AcDbEntity
  8
0
100
AcDbLine
 62
2
  6
CONTINUOUS
 10
0.0
 20
-2.344
 11
9.055
 21
-2.344
  0
LINE
  5
25B
100
AcDbEntity
  8
0
100
AcDbLine
 62
2
  6
CONTINUOUS
 10
0.0
 20
-2.594
 11
9.055
 21
-2.594
  0
LINE
  5
25C
100
AcDbEntity
  8
0
100
AcDbLine
 62
2
  6
CONTINUOUS
 10
0.0
 20
-2.844
 11
9.055
 21
-2.844
  0
LINE
  5
25D
100
AcDbEntity
  8
0
100
AcDbLine
 62
2
  6
CONTINUOUS
 10
3.055
 20
0.0
 11
3.055
 21
-2.844
  0
LINE
  5
25E
100
AcDbEntity
  8
0
100
AcDbLine
 62
2
  6
CONTINUOUS
 10
9.055
 20
0.0
 11
9.055
 21
-2.844
  0
MTEXT
  5
25F
100
AcDbEntity
  8
0
100
AcDbMText
 62
2
  6
CONTINUOUS
  7
STANDARD
 71
2
 72
1
 10
1.5275
 20
-0.0995
 30
0.0
 11
1.0
 21
0.0
 31
0.0
 44
0.9
  1
Technical Data
 40
0.145
 41
3.248
  0
MTEXT
  5
260
100
AcDbEntity
  8
0
100
AcDbMText
 62
2
  6
CONTINUOUS
  7
STANDARD
 71
2
 72
1
 10
4.555
 20
-0.0995
 30
0.0
 11
1.0
 21
0.0
 31
0.0
 44
0.9
  1
U.S. Units
 40
0.145
 41
2.32
  0
MTEXT
  5
261
100
AcDbEntity
  8
0
100
AcDbMText
 62
2
  6
CONTINUOUS
  7
STANDARD
 71
2
 72
1
 10
7.555
 20
-0.0995
 30
0.0
 11
1.0
 21
0.0
 31
0.0
 44
0.9
  1
Metric Units
 40
0.145
 41
2.784
  0
MTEXT
  5
262
100
AcDbEntity
  8
0
100
AcDbMText
 62
2
  6
CONTINUOUS
  7
STANDARD
 71
2
 72
1
 10
1.5275
 20
-0.4065
 30
0.0
 11
1.0
 21
0.0
 31
0.0
 44
0.9
  1
Cavity
 40
0.125
 41
1.2
  0
MTEXT
  5
263
100
AcDbEntity
  8
0
100
AcDbMText
 62
2
  6
CONTINUOUS
  7
STANDARD
 71
2
 72
1
 10
6.055
 20
-0.4065
 30
0.0
 11
1.0
 21
0.0
 31
0.0
 44
0.9
  1
T-11A
 40
0.125
 41
1.0
  0
MTEXT
  5
264
100
AcDbEntity
  8
0
100
AcDbMText
 62
2
  6
CONTINUOUS
  7
STANDARD
 71
2
 72
1
 10
1.5275
 20
-0.6565
 30
0.0
 11
1.0
 21
0.0
 31
0.0
 44
0.9
  1
Body Features
 40
0.125
 41
2.6
  0
MTEXT
  5
265
100
AcDbEntity
  8
0
100
AcDbMText
 62
2
  6
CONTINUOUS
  7
STANDARD
 71
2
 72
1
 10
6.055
 20
-0.6565
 30
0.0
 11
1.0
 21
0.0
 31
0.0
 44
0.9
  1
(See Notes)
 40
0.125
 41
2.2
  0
MTEXT
  5
266
100
AcDbEntity
  8
0
100
AcDbMText
 62
2
  6
CONTINUOUS
  7
STANDARD
 71
2
 72
1
 10
1.5275
 20
-0.9065
 30
0.0
 11
1.0
 21
0.0
 31
0.0
 44
0.9
  1
Body Type
 40
0.125
 41
1.8
  0
MTEXT
  5
267
100
AcDbEntity
  8
0
100
AcDbMText
 62
2
  6
CONTINUOUS
  7
STANDARD
 71
2
 72
1
 10
6.055
 20
-0.9065
 30
0.0
 11
1.0
 21
0.0
 31
0.0
 44
0.9
  1
Line mount
 40
0.125
 41
2.0
  0
MTEXT
  5
268
100
AcDbEntity
  8
0
100
AcDbMText
 62
2
  6
CONTINUOUS
  7
STANDARD
 71
2
 72
1
 10
1.5275
 20
-1.1565
 30
0.0
 11
1.0
 21
0.0
 31
0.0
 44
0.9
  1
Interface
 40
0.125
 41
1.8
  0
MTEXT
  5
269
100
AcDbEntity
  8
0
100
AcDbMText
 62
2
  6
CONTINUOUS
  7
STANDARD
 71
2
 72
1
 10
6.055
 20
-1.1565
 30
0.0
 11
1.0
 21
0.0
 31
0.0
 44
0.9
  1
None
 40
0.125
 41
0.8
  0
MTEXT
  5
26A
100
AcDbEntity
  8
0
100
AcDbMText
 62
2
  6
CONTINUOUS
  7
STANDARD
 71
2
 72
1
 10
1.5275
 20
-1.4065
 30
0.0
 11
1.0
 21
0.0
 31
0.0
 44
0.9
  1
Open Cavity Quantity
 40
0.125
 41
4.0
  0
MTEXT
  5
26B
100
AcDbEntity
  8
0
100
AcDbMText
 62
2
  6
CONTINUOUS
  7
STANDARD
 71
2
 72
1
 10
6.055
 20
-1.4065
 30
0.0
 11
1.0
 21
0.0
 31
0.0
 44
0.9
  1
1
 40
0.125
 41
0.2
  0
MTEXT
  5
26C
100
AcDbEntity
  8
0
100
AcDbMText
 62
2
  6
CONTINUOUS
  7
STANDARD
 71
2
 72
1
 10
1.5275
 20
-1.6565
 30
0.0
 11
1.0
 21
0.0
 31
0.0
 44
0.9
  1
Weight
 40
0.125
 41
1.2
  0
MTEXT
  5
26D
100
AcDbEntity
  8
0
100
AcDbMText
 62
2
  6
CONTINUOUS
  7
STANDARD
 71
2
 72
1
 10
4.555
 20
-1.6565
 30
0.0
 11
1.0
 21
0.0
 31
0.0
 44
0.9
  1
1.974 lb.
 40
0.125
 41
1.8
  0
MTEXT
  5
26E
100
AcDbEntity
  8
0
100
AcDbMText
 62
2
  6
CONTINUOUS
  7
STANDARD
 71
2
 72
1
 10
7.555
 20
-1.6565
 30
0.0
 11
1.0
 21
0.0
 31
0.0
 44
0.9
  1
0,895 kg.
 40
0.125
 41
1.8
  0
MTEXT
  5
26F
100
AcDbEntity
  8
0
100
AcDbMText
 62
2
  6
CONTINUOUS
  7
STANDARD
 71
2
 72
1
 10
1.5275
 20
-1.9065
 30
0.0
 11
1.0
 21
0.0
 31
0.0
 44
0.9
  1
Mounting Hole Diameter
 40
0.125
 41
4.4
  0
MTEXT
  5
270
100
AcDbEntity
  8
0
100
AcDbMText
 62
2
  6
CONTINUOUS
  7
STANDARD
 71
2
 72
1
 10
4.555
 20
-1.9065
 30
0.0
 11
1.0
 21
0.0
 31
0.0
 44
0.9
  1
.34 in.
 40
0.125
 41
1.4
  0
MTEXT
  5
271
100
AcDbEntity
  8
0
100
AcDbMText
 62
2
  6
CONTINUOUS
  7
STANDARD
 71
2
 72
1
 10
7.555
 20
-1.9065
 30
0.0
 11
1.0
 21
0.0
 31
0.0
 44
0.9
  1
8.6 mm
 40
0.125
 41
1.2
  0
MTEXT
  5
272
100
AcDbEntity
  8
0
100
AcDbMText
 62
2
  6
CONTINUOUS
  7
STANDARD
 71
2
 72
1
 10
1.5275
 20
-2.1565
 30
0.0
 11
1.0
 21
0.0
 31
0.0
 44
0.9
  1
Mounting Hole Depth
 40
0.125
 41
3.8
  0
MTEXT
  5
273
100
AcDbEntity
  8
0
100
AcDbMText
 62
2
  6
CONTINUOUS
  7
STANDARD
 71
2
 72
1
 10
6.055
 20
-2.1565
 30
0.0
 11
1.0
 21
0.0
 31
0.0
 44
0.9
  1
Through
 40
0.125
 41
1.4
  0
MTEXT
  5
274
100
AcDbEntity
  8
0
100
AcDbMText
 62
2
  6
CONTINUOUS
  7
STANDARD
 71
2
 72
1
 10
1.5275
 20
-2.4065
 30
0.0
 11
1.0
 21
0.0
 31
0.0
 44
0.9
  1
Mounting Hole Quantity
 40
0.125
 41
4.4
  0
MTEXT
  5
275
100
AcDbEntity
  8
0
100
AcDbMText
 62
2
  6
CONTINUOUS
  7
STANDARD
 71
2
 72
1
 10
6.055
 20
-2.4065
 30
0.0
 11
1.0
 21
0.0
 31
0.0
 44
0.9
  1
2
 40
0.125
 41
0.2
  0
MTEXT
  5
276
100
AcDbEntity
  8
0
100
AcDbMText
 62
2
  6
CONTINUOUS
  7
STANDARD
 71
2
 72
1
 10
1.5275
 20
-2.6565
 30
0.0
 11
1.0
 21
0.0
 31
0.0
 44
0.9
  1
Includes integral cartridge(s)
 40
0.125
 41
6.0
  0
MTEXT
  5
277
100
AcDbEntity
  8
0
100
AcDbMText
 62
2
  6
CONTINUOUS
  7
STANDARD
 71
2
 72
1
 10
6.055
 20
-2.6565
 30
0.0
 11
1.0
 21
0.0
 31
0.0
 44
0.9
  1
Yes (see Included Components)
 40
0.125
 41
5.8
  0
ENDBLK
  5
278
100
AcDbEntity
  8
0
  6
BYBLOCK
 62
0
100
AcDbBlockEnd
  0
BLOCK
  5
279
100
AcDbEntity
  8
0
100
AcDbBlockBegin
  2
*T3
 70
1
 10
0.0
 20
0.0
  3
*T3
  1

  0
LINE
  5
27A
100
AcDbEntity
  8
0
100
AcDbLine
 62
2
  6
CONTINUOUS
 10
0.0
 20
0.0
 11
4.6
 21
0.0
  0
LINE
  5
27B
100
AcDbEntity
  8
0
100
AcDbLine
 62
2
  6
CONTINUOUS
 10
0.0
 20
0.0
 11
0.0
 21
-1.43775
  0
LINE
  5
27C
100
AcDbEntity
  8
0
100
AcDbLine
 62
2
  6
CONTINUOUS
 10
0.0
 20
-0.34375
 11
4.6
 21
-0.34375
  0
LINE
  5
27D
100
AcDbEntity
  8
0
100
AcDbLine
 62
2
  6
CONTINUOUS
 10
0.0
 20
-0.68775
 11
4.6
 21
-0.68775
  0
LINE
  5
27E
100
AcDbEntity
  8
0
100
AcDbLine
 62
2
  6
CONTINUOUS
 10
0.0
 20
-0.93775
 11
4.6
 21
-0.93775
  0
LINE
  5
27F
100
AcDbEntity
  8
0
100
AcDbLine
 62
2
  6
CONTINUOUS
 10
0.0
 20
-1.18775
 11
4.6
 21
-1.18775
  0
LINE
  5
280
100
AcDbEntity
  8
0
100
AcDbLine
 62
2
  6
CONTINUOUS
 10
0.0
 20
-1.43775
 11
4.6
 21
-1.43775
  0
LINE
  5
281
100
AcDbEntity
  8
0
100
AcDbLine
 62
2
  6
CONTINUOUS
 10
1.3
 20
-0.34375
 11
1.3
 21
-1.43775
  0
LINE
  5
282
100
AcDbEntity
  8
0
100
AcDbLine
 62
2
  6
CONTINUOUS
 10
3.3
 20
-0.34375
 11
3.3
 21
-1.43775
  0
LINE
  5
283
100
AcDbEntity
  8
0
100
AcDbLine
 62
2
  6
CONTINUOUS
 10
4.6
 20
0.0
 11
4.6
 21
-1.43775
  0
MTEXT
  5
284
100
AcDbEntity
  8
0
100
AcDbMText
 62
2
  6
CONTINUOUS
  7
STANDARD
 71
2
 72
1
 10
2.3
 20
-0.099375
 30
0.0
 11
1.0
 21
0.0
 31
0.0
 44
0.9
  1
Port Headings
 40
0.145
 41
3.016
  0
MTEXT
  5
285
100
AcDbEntity
  8
0
100
AcDbMText
 62
2
  6
CONTINUOUS
  7
STANDARD
 71
2
 72
1
 10
0.65
 20
-0.44325
 30
0.0
 11
1.0
 21
0.0
 31
0.0
 44
0.9
  1
Product
 40
0.145
 41
1.624
  0
MTEXT
  5
286
100
AcDbEntity
  8
0
100
AcDbMText
 62
2
  6
CONTINUOUS
  7
STANDARD
 71
2
 72
1
 10
2.3
 20
-0.44325
 30
0.0
 11
1.0
 21
0.0
 31
0.0
 44
0.9
  1
Port
 40
0.145
 41
0.928
  0
MTEXT
  5
287
100
AcDbEntity
  8
0
100
AcDbMText
 62
2
  6
CONTINUOUS
  7
STANDARD
 71
2
 72
1
 10
3.95
 20
-0.44325
 30
0.0
 11
1.0
 21
0.0
 31
0.0
 44
0.9
  1
Size
 40
0.145
 41
0.928
  0
MTEXT
  5
288
100
AcDbEntity
  8
0
100
AcDbMText
 62
2
  6
CONTINUOUS
  7
STANDARD
 71
2
 72
1
 10
0.65
 20
-0.75025
 30
0.0
 11
1.0
 21
0.0
 31
0.0
 44
0.9
  1
A7V
 40
0.125
 41
0.6
  0
MTEXT
  5
289
100
AcDbEntity
  8
0
100
AcDbMText
 62
2
  6
CONTINUOUS
  7
STANDARD
 71
2
 72
1
 10
2.3
 20
-0.75025
 30
0.0
 11
1.0
 21
0.0
 31
0.0
 44
0.9
  1
Ports 1 &  2
 40
0.125
 41
2.4
  0
MTEXT
  5
28A
100
AcDbEntity
  8
0
100
AcDbMText
 62
2
  6
CONTINUOUS
  7
STANDARD
 71
2
 72
1
 10
3.95
 20
-0.75025
 30
0.0
 11
1.0
 21
0.0
 31
0.0
 44
0.9
  1
1/2" BSPP
 40
0.125
 41
1.8
  0
MTEXT
  5
28B
100
AcDbEntity
  8
0
100
AcDbMText
 62
2
  6
CONTINUOUS
  7
STANDARD
 71
2
 72
1
 10
0.65
 20
-1.00025
 30
0.0
 11
1.0
 21
0.0
 31
0.0
 44
0.9
  1
A7V
 40
0.125
 41
0.6
  0
MTEXT
  5
28C
100
AcDbEntity
  8
0
100
AcDbMText
 62
2
  6
CONTINUOUS
  7
STANDARD
 71
2
 72
1
 10
2.3
 20
-1.00025
 30
0.0
 11
1.0
 21
0.0
 31
0.0
 44
0.9
  1
Port 3
 40
0.125
 41
1.2
  0
MTEXT
  5
28D
100
AcDbEntity
  8
0
100
AcDbMText
 62
2
  6
CONTINUOUS
  7
STANDARD
 71
2
 72
1
 10
3.95
 20
-1.00025
 30
0.0
 11
1.0
 21
0.0
 31
0.0
 44
0.9
  1
1/4" BSPP
 40
0.125
 41
1.8
  0
MTEXT
  5
28E
100
AcDbEntity
  8
0
100
AcDbMText
 62
2
  6
CONTINUOUS
  7
STANDARD
 71
2
 72
1
 10
0.65
 20
-1.25025
 30
0.0
 11
1.0
 21
0.0
 31
0.0
 44
0.9
  1
A7V
 40
0.125
 41
0.6
  0
MTEXT
  5
28F
100
AcDbEntity
  8
0
100
AcDbMText
 62
2
  6
CONTINUOUS
  7
STANDARD
 71
2
 72
1
 10
2.3
 20
-1.25025
 30
0.0
 11
1.0
 21
0.0
 31
0.0
 44
0.9
  1
Gage Port
 40
0.125
 41
1.8
  0
MTEXT
  5
290
100
AcDbEntity
  8
0
100
AcDbMText
 62
2
  6
CONTINUOUS
  7
STANDARD
 71
2
 72
1
 10
3.95
 20
-1.25025
 30
0.0
 11
1.0
 21
0.0
 31
0.0
 44
0.9
  1
1/4" BSPP
 40
0.125
 41
1.8
  0
ENDBLK
  5
291
100
AcDbEntity
  8
0
  6
BYBLOCK
 62
0
100
AcDbBlockEnd
  0
ENDSEC
  0
SECTION
  2
ENTITIES
  0
IMAGE
  5
292
100
AcDbEntity
  8
0
100
AcDbRasterImage
 62
7
  6
CONTINUOUS
 10
19.2297077316
 20
0.3094318264
 30
0.0
 11
0.0066666667
 21
0.0
 31
0.0
 12
0.0
 22
0.0066666667
 32
0.0
 13
369.0
 23
92.0
340
       3A9
 70
9
280
0
281
50
282
50
283
0
360
       3A3
 71
1
 91
2
 14
-0.5
 24
-0.5
 14
368.5
 24
91.5
  0
INSERT
  5
293
100
AcDbEntity
  8
0
100
AcDbBlockReference
 62
2
  6
CONTINUOUS
  2
SUN_FIRST_THIRD_ANGLE_BL0
 10
20.4816717061
 20
1.2289683772
  0
ACAD_TABLE
  5
294
100
AcDbEntity
  8
0
 62
2
  6
CONTINUOUS
100
AcDbBlockReference
  2
*T1
 10
12.42375
 20
0.30125
 30
0.0
100
AcDbTable
342
       3AB
343
20F
 11
1.0
 21
0.0
 31
0.0
 90
6
 91
4
 92
6
 93
20
 94
0
 95
0
 96
0
 70
1
 41
0.0
141
0.525
141
0.1
141
0.525
141
0.1
142
4.1
142
1.1
142
0.7
142
0.5
142
0.4
142
2.475
171
1
172
0
173
0
174
0
175
1
176
1
 91
33
178
0
145
0.0
301
CELL_VALUE
 90
4
  1
T-11A Line mount\P(See Notes for Body Features)
304
ACVALUE_END
170
2
140
0.125
171
1
172
0
173
0
174
0
175
1
176
1
 91
33
178
0
145
0.0
301
CELL_VALUE
 90
4
  1
Apr-18-24
304
ACVALUE_END
170
5
140
0.125
171
1
172
0
173
0
174
0
175
1
176
1
 91
33
178
0
145
0.0
301
CELL_VALUE
 90
4
  1
1.000
304
ACVALUE_END
170
5
140
0.125
171
1
172
0
173
0
174
0
175
1
176
1
 91
33
178
0
145
0.0
301
CELL_VALUE
 90
4
  1
C
304
ACVALUE_END
170
5
140
0.125
171
1
172
0
173
0
174
0
175
1
176
1
 91
33
178
0
145
0.0
301
CELL_VALUE
 90
4
  1
2
304
ACVALUE_END
170
5
140
0.125
171
1
172
0
173
0
174
0
175
1
176
1
 91
33
178
0
145
0.0
301
CELL_VALUE
 90
4
  1
 
304
ACVALUE_END
170
1
140
0.125
171
1
172
0
173
0
174
0
175
1
176
1
 91
33
178
0
145
0.0
301
CELL_VALUE
 90
4
  1
DESCRIPTION
304
ACVALUE_END
170
1
140
0.06
171
1
172
0
173
0
174
0
175
1
176
1
 91
33
178
0
145
0.0
301
CELL_VALUE
 90
4
  1
DATE
304
ACVALUE_END
170
1
140
0.06
171
1
172
0
173
0
174
0
175
1
176
1
 91
33
178
0
145
0.0
301
CELL_VALUE
 90
4
  1
SCALE
304
ACVALUE_END
170
1
140
0.06
171
1
172
0
173
0
174
0
175
1
176
1
 91
33
178
0
145
0.0
301
CELL_VALUE
 90
4
  1
DWG SIZE
304
ACVALUE_END
170
1
140
0.06
171
1
172
0
173
0
174
0
175
1
176
1
 91
33
178
0
145
0.0
301
CELL_VALUE
 90
4
  1
SHEET
304
ACVALUE_END
170
1
140
0.06
171
1
172
0
173
0
174
0
175
1
176
1
 91
33
178
0
145
0.0
301
CELL_VALUE
 90
4
  1
 
304
ACVALUE_END
170
1
140
0.125
171
1
172
0
173
0
174
0
175
1
176
1
 91
33
178
0
145
0.0
301
CELL_VALUE
 90
4
  1
A7V
304
ACVALUE_END
170
5
140
0.125
171
1
172
0
173
0
174
0
175
4
176
1
 91
33
178
0
145
0.0
301
CELL_VALUE
 90
4
  1
ALL DIMENSIONS IN INCH\PVIEWS ARE THIRD ANGLE
304
ACVALUE_END
170
5
140
0.12
171
1
172
0
173
1
174
0
175
1
176
1
 91
1
178
0
145
0.0
170
1
171
1
172
0
173
1
174
0
175
1
176
1
 91
1
178
0
145
0.0
170
1
171
1
172
0
173
1
174
0
175
1
176
1
 91
1
178
0
145
0.0
170
5
171
1
172
0
173
0
174
0
175
1
176
1
 91
33
178
0
145
0.0
301
CELL_VALUE
 90
4
  1
 
304
ACVALUE_END
170
1
140
0.125
171
1
172
0
173
0
174
0
175
1
176
1
 91
33
178
0
145
0.0
301
CELL_VALUE
 90
4
  1
MODEL
304
ACVALUE_END
170
1
140
0.06
171
1
172
0
173
0
174
0
175
1
176
1
 91
33
178
0
145
0.0
301
CELL_VALUE
 90
4
  1
 
304
ACVALUE_END
170
1
140
0.125
171
1
172
0
173
0
174
0
175
1
176
1
 91
33
178
0
145
0.0
301
CELL_VALUE
 90
4
  1
 
304
ACVALUE_END
170
1
140
0.125
171
1
172
0
173
0
174
0
175
1
176
1
 91
33
178
0
145
0.0
301
CELL_VALUE
 90
4
  1
 
304
ACVALUE_END
170
1
140
0.125
171
1
172
0
173
0
174
0
175
1
176
1
 91
33
178
0
145
0.0
301
CELL_VALUE
 90
4
  1
 
304
ACVALUE_END
170
1
140
0.125
171
1
172
0
173
0
174
0
175
1
176
1
 91
33
178
0
145
0.0
301
CELL_VALUE
 90
4
  1
 
304
ACVALUE_END
170
1
140
0.125
  0
ACAD_TABLE
  5
295
100
AcDbEntity
  8
0
 62
2
  6
CONTINUOUS
100
AcDbBlockReference
  2
*T2
 10
12.4237499994
 20
16.47875
 30
0.0
100
AcDbTable
342
       3AA
343
210
 11
1.0
 21
0.0
 31
0.0
 90
22
 91
11
 92
3
 93
16
 94
0
 95
0
 96
0
 41
0.028
141
0.344
141
0.25
141
0.25
141
0.25
141
0.25
141
0.25
141
0.25
141
0.25
141
0.25
141
0.25
141
0.25
142
3.055
142
3.0
142
3.0
171
1
172
0
173
0
174
0
175
1
176
1
 91
33
178
0
145
0.0
301
CELL_VALUE
 90
4
  1
Technical Data
304
ACVALUE_END
170
5
140
0.145
171
1
172
0
173
0
174
0
175
1
176
1
 91
33
178
0
145
0.0
301
CELL_VALUE
 90
4
  1
U.S. Units
304
ACVALUE_END
170
5
140
0.145
171
1
172
0
173
0
174
0
175
1
176
1
 91
33
178
0
145
0.0
301
CELL_VALUE
 90
4
  1
Metric Units
304
ACVALUE_END
170
5
140
0.145
171
1
172
0
173
0
174
0
175
1
176
1
 91
33
178
0
145
0.0
301
CELL_VALUE
 90
4
  1
Cavity
304
ACVALUE_END
170
5
140
0.125
171
1
172
0
173
0
174
0
175
2
176
1
 91
33
178
0
145
0.0
301
CELL_VALUE
 90
4
  1
T-11A
304
ACVALUE_END
170
5
140
0.125
171
1
172
0
173
1
174
0
175
1
176
1
 91
1
178
0
145
0.0
170
1
171
1
172
0
173
0
174
0
175
1
176
1
 91
33
178
0
145
0.0
301
CELL_VALUE
 90
4
  1
Body Features
304
ACVALUE_END
170
5
140
0.125
171
1
172
0
173
0
174
0
175
2
176
1
 91
33
178
0
145
0.0
301
CELL_VALUE
 90
4
  1
(See Notes)
304
ACVALUE_END
170
5
140
0.125
171
1
172
0
173
1
174
0
175
1
176
1
 91
1
178
0
145
0.0
170
1
171
1
172
0
173
0
174
0
175
1
176
1
 91
33
178
0
145
0.0
301
CELL_VALUE
 90
4
  1
Body Type
304
ACVALUE_END
170
5
140
0.125
171
1
172
0
173
0
174
0
175
2
176
1
 91
33
178
0
145
0.0
301
CELL_VALUE
 90
4
  1
Line mount
304
ACVALUE_END
170
5
140
0.125
171
1
172
0
173
1
174
0
175
1
176
1
 91
1
178
0
145
0.0
170
1
171
1
172
0
173
0
174
0
175
1
176
1
 91
33
178
0
145
0.0
301
CELL_VALUE
 90
4
  1
Interface
304
ACVALUE_END
170
5
140
0.125
171
1
172
0
173
0
174
0
175
2
176
1
 91
33
178
0
145
0.0
301
CELL_VALUE
 90
4
  1
None
304
ACVALUE_END
170
5
140
0.125
171
1
172
0
173
1
174
0
175
1
176
1
 91
1
178
0
145
0.0
170
1
171
1
172
0
173
0
174
0
175
1
176
1
 91
33
178
0
145
0.0
301
CELL_VALUE
 90
4
  1
Open Cavity Quantity
304
ACVALUE_END
170
5
140
0.125
171
1
172
0
173
0
174
0
175
2
176
1
 91
33
178
0
145
0.0
301
CELL_VALUE
 90
4
  1
1
304
ACVALUE_END
170
5
140
0.125
171
1
172
0
173
1
174
0
175
1
176
1
 91
1
178
0
145
0.0
170
1
171
1
172
0
173
0
174
0
175
1
176
1
 91
33
178
0
145
0.0
301
CELL_VALUE
 90
4
  1
Weight
304
ACVALUE_END
170
5
140
0.125
171
1
172
0
173
0
174
0
175
1
176
1
 91
33
178
0
145
0.0
301
CELL_VALUE
 90
4
  1
1.974 lb.
304
ACVALUE_END
170
5
140
0.125
171
1
172
0
173
0
174
0
175
1
176
1
 91
33
178
0
145
0.0
301
CELL_VALUE
 90
4
  1
0,895 kg.
304
ACVALUE_END
170
5
140
0.125
171
1
172
0
173
0
174
0
175
1
176
1
 91
33
178
0
145
0.0
301
CELL_VALUE
 90
4
  1
Mounting Hole Diameter
304
ACVALUE_END
170
5
140
0.125
171
1
172
0
173
0
174
0
175
1
176
1
 91
33
178
0
145
0.0
301
CELL_VALUE
 90
4
  1
.34 in.
304
ACVALUE_END
170
5
140
0.125
171
1
172
0
173
0
174
0
175
1
176
1
 91
33
178
0
145
0.0
301
CELL_VALUE
 90
4
  1
8.6 mm
304
ACVALUE_END
170
5
140
0.125
171
1
172
0
173
0
174
0
175
1
176
1
 91
33
178
0
145
0.0
301
CELL_VALUE
 90
4
  1
Mounting Hole Depth
304
ACVALUE_END
170
5
140
0.125
171
1
172
0
173
0
174
0
175
2
176
1
 91
33
178
0
145
0.0
301
CELL_VALUE
 90
4
  1
Through
304
ACVALUE_END
170
5
140
0.125
171
1
172
0
173
1
174
0
175
1
176
1
 91
1
178
0
145
0.0
170
1
171
1
172
0
173
0
174
0
175
1
176
1
 91
33
178
0
145
0.0
301
CELL_VALUE
 90
4
  1
Mounting Hole Quantity
304
ACVALUE_END
170
5
140
0.125
171
1
172
0
173
0
174
0
175
2
176
1
 91
33
178
0
145
0.0
301
CELL_VALUE
 90
4
  1
2
304
ACVALUE_END
170
5
140
0.125
171
1
172
0
173
1
174
0
175
1
176
1
 91
1
178
0
145
0.0
170
1
171
1
172
0
173
0
174
0
175
1
176
1
 91
33
178
0
145
0.0
301
CELL_VALUE
 90
4
  1
Includes integral cartridge(s)
304
ACVALUE_END
170
5
140
0.125
171
1
172
0
173
0
174
0
175
2
176
1
 91
33
178
0
145
0.0
301
CELL_VALUE
 90
4
  1
Yes (see Included Components)
304
ACVALUE_END
170
5
140
0.125
171
1
172
0
173
1
174
0
175
1
176
1
 91
1
178
0
145
0.0
170
1
  0
ACAD_TABLE
  5
296
100
AcDbEntity
  8
0
 62
2
  6
CONTINUOUS
100
AcDbBlockReference
  2
*T3
 10
0.52125
 20
1.959
 30
0.0
100
AcDbTable
342
       3AA
343
211
 11
1.0
 21
0.0
 31
0.0
 90
22
 91
5
 92
3
 93
16
 94
0
 95
0
 96
0
 41
0.05
141
0.34375
141
0.344
141
0.25
141
0.25
141
0.25
142
1.3
142
2.0
142
1.3
171
1
172
0
173
0
174
0
175
3
176
1
 91
33
178
0
145
0.0
301
CELL_VALUE
 90
4
  1
Port Headings
304
ACVALUE_END
170
5
140
0.145
171
1
172
0
173
1
174
0
175
1
176
1
 91
1
178
0
145
0.0
170
1
171
1
172
0
173
1
174
0
175
1
176
1
 91
1
178
0
145
0.0
170
1
171
1
172
0
173
0
174
0
175
1
176
1
 91
33
178
0
145
0.0
301
CELL_VALUE
 90
4
  1
Product
304
ACVALUE_END
170
5
140
0.145
171
1
172
0
173
0
174
0
175
1
176
1
 91
33
178
0
145
0.0
301
CELL_VALUE
 90
4
  1
Port
304
ACVALUE_END
170
5
140
0.145
171
1
172
0
173
0
174
0
175
1
176
1
 91
33
178
0
145
0.0
301
CELL_VALUE
 90
4
  1
Size
304
ACVALUE_END
170
5
140
0.145
171
1
172
0
173
0
174
0
175
1
176
1
 91
33
178
0
145
0.0
301
CELL_VALUE
 90
4
  1
A7V
304
ACVALUE_END
170
5
140
0.125
171
1
172
0
173
0
174
0
175
1
176
1
 91
33
178
0
145
0.0
301
CELL_VALUE
 90
4
  1
Ports 1 &  2
304
ACVALUE_END
170
5
140
0.125
171
1
172
0
173
0
174
0
175
1
176
1
 91
33
178
0
145
0.0
301
CELL_VALUE
 90
4
  1
1/2" BSPP
304
ACVALUE_END
170
5
140
0.125
171
1
172
0
173
0
174
0
175
1
176
1
 91
33
178
0
145
0.0
301
CELL_VALUE
 90
4
  1
A7V
304
ACVALUE_END
170
5
140
0.125
171
1
172
0
173
0
174
0
175
1
176
1
 91
33
178
0
145
0.0
301
CELL_VALUE
 90
4
  1
Port 3
304
ACVALUE_END
170
5
140
0.125
171
1
172
0
173
0
174
0
175
1
176
1
 91
33
178
0
145
0.0
301
CELL_VALUE
 90
4
  1
1/4" BSPP
304
ACVALUE_END
170
5
140
0.125
171
1
172
0
173
0
174
0
175
1
176
1
 91
33
178
0
145
0.0
301
CELL_VALUE
 90
4
  1
A7V
304
ACVALUE_END
170
5
140
0.125
171
1
172
0
173
0
174
0
175
1
176
1
 91
33
178
0
145
0.0
301
CELL_VALUE
 90
4
  1
Gage Port
304
ACVALUE_END
170
5
140
0.125
171
1
172
0
173
0
174
0
175
1
176
1
 91
33
178
0
145
0.0
301
CELL_VALUE
 90
4
  1
1/4" BSPP
304
ACVALUE_END
170
5
140
0.125
  0
MTEXT
  5
297
100
AcDbEntity
  8
0
100
AcDbMText
 62
2
  6
CONTINUOUS
  7
STANDARD
 71
1
 72
1
 10
0.52125
 20
5.75995
 30
0.0
 11
1.0
 21
0.0
 31
0.0
 44
0.6
  3
Notes\P \P1. Important: Carefully consider\P   the maximum system pressure. The\P   pressure rating of the manifold is\P   dependent on the manifold material,\P   with the port type/size a secondary\P   consideration. Manifolds\P   constructed of alu
  3
minum are not\P   rated for pressures higher than\P   3000 psi (210 bar), regardless of\P   the port type/size specified.\P2. This drawing is for reference\P   only. It is generated by an\P   automated process and does not fall\P   under Sun's docume
  1
nt control\P   process.\P3. Body Features: Ninety degree\P   with reverse flow check, accepts\P   standard and weatherized coils.
 40
0.1
 41
3.04
  0
LINE
  5
298
100
AcDbEntity
  8
0
100
AcDbLine
 62
7
  6
CONTINUOUS
 10
0.30125
 20
0.30125
 11
0.30125
 21
16.69875
  0
LINE
  5
299
100
AcDbEntity
  8
0
100
AcDbLine
 62
7
  6
CONTINUOUS
 10
0.30125
 20
0.30125
 11
21.69875
 21
0.30125
  0
LINE
  5
29A
100
AcDbEntity
  8
0
100
AcDbLine
 62
7
  6
CONTINUOUS
 10
0.30125
 20
16.69875
 11
21.69875
 21
16.69875
  0
LINE
  5
29B
100
AcDbEntity
  8
0
100
AcDbLine
 62
7
  6
CONTINUOUS
 10
21.69875
 20
0.30125
 11
21.69875
 21
16.69875
  0
LINE
  5
29C
100
AcDbEntity
  8
0
100
AcDbLine
 62
7
  6
CONTINUOUS
 10
9.8099300062
 20
10.7894385006
 11
9.2922923432
 21
10.2894388836
  0
LINE
  5
29D
100
AcDbEntity
  8
0
100
AcDbLine
 62
4
  6
CONTINUOUS
 10
9.4468403912
 20
9.694335843
 11
9.4395959472
 21
9.6851789906
  0
LINE
  5
29E
100
AcDbEntity
  8
0
100
AcDbLine
 62
4
  6
CONTINUOUS
 10
9.4540848351
 20
9.6358778874
 11
9.4395959472
 21
9.6175641783
  0
LINE
  5
29F
100
AcDbEntity
  8
0
100
AcDbLine
 62
7
  6
CONTINUOUS
 10
11.2065145113
 20
6.2782521044
 11
11.2228173394
 21
6.2701988194
  0
LINE
  5
2A0
100
AcDbEntity
  8
0
100
AcDbLine
 62
7
  6
CONTINUOUS
 10
9.2922923432
 20
6.7879575558
 11
9.2922923432
 21
10.2894388836
  0
LINE
  5
2A1
100
AcDbEntity
  8
0
100
AcDbLine
 62
4
  6
CONTINUOUS
 10
9.3961292834
 20
9.7171711899
 11
9.4106181713
 21
9.7258256384
  0
LINE
  5
2A2
100
AcDbEntity
  8
0
100
AcDbLine
 62
4
  6
CONTINUOUS
 10
9.4395959472
 20
9.6851789906
 11
9.4251070593
 21
9.6765245352
  0
LINE
  5
2A3
100
AcDbEntity
  8
0
100
AcDbLine
 62
4
  6
CONTINUOUS
 10
9.4395959472
 20
9.6175641783
 11
9.4251070593
 21
9.6089097272
  0
LINE
  5
2A4
100
AcDbEntity
  8
0
100
AcDbLine
 62
7
  6
CONTINUOUS
 10
9.2922923432
 20
6.7879575558
 11
12.1900699938
 21
6.5869959932
  0
LINE
  5
2A5
100
AcDbEntity
  8
0
100
AcDbLine
 62
4
  6
CONTINUOUS
 10
11.518751473
 20
6.7301446805
 11
11.4897736971
 21
6.7321542961
  0
LINE
  5
2A6
100
AcDbEntity
  8
0
100
AcDbLine
 62
4
  6
CONTINUOUS
 10
11.4100848135
 20
6.7376807389
 11
11.3955959256
 21
6.7386855467
  0
LINE
  5
2A7
100
AcDbEntity
  8
0
100
AcDbLine
 62
4
  6
CONTINUOUS
 10
11.1782626066
 20
6.7537576636
 11
11.1637737187
 21
6.7547624714
  0
LINE
  5
2A8
100
AcDbEntity
  8
0
100
AcDbLine
 62
4
  6
CONTINUOUS
 10
9.4468403912
 20
9.7039950994
 11
9.4468403912
 21
9.694335843
  0
LINE
  5
2A9
100
AcDbEntity
  8
0
100
AcDbLine
 62
4
  6
CONTINUOUS
 10
9.4468403912
 20
7.6755506837
 11
9.4468403912
 21
7.5596395802
  0
LINE
  5
2AA
100
AcDbEntity
  8
0
100
AcDbLine
 62
4
  6
CONTINUOUS
 10
9.4540848351
 20
9.6455371472
 11
9.4540848351
 21
9.6358778874
  0
LINE
  5
2AB
100
AcDbEntity
  8
0
100
AcDbLine
 62
4
  6
CONTINUOUS
 10
11.1637737187
 20
6.8706735748
 11
11.1782626066
 21
6.869668767
  0
LINE
  5
2AC
100
AcDbEntity
  8
0
100
AcDbLine
 62
4
  6
CONTINUOUS
 10
11.3955959256
 20
6.8545966502
 11
11.4100848135
 21
6.8535918424
  0
LINE
  5
2AD
100
AcDbEntity
  8
0
100
AcDbLine
 62
4
  6
CONTINUOUS
 10
11.4897736971
 20
6.8480653995
 11
11.518751473
 21
6.8460557839
  0
LINE
  5
2AE
100
AcDbEntity
  8
0
100
AcDbLine
 62
4
  6
CONTINUOUS
 10
11.1637737187
 20
6.7547624714
 11
11.1492848308
 21
6.7654265381
  0
LINE
  5
2AF
100
AcDbEntity
  8
0
100
AcDbLine
 62
7
  6
CONTINUOUS
 10
11.1796621762
 20
10.3067234889
 11
11.178497032
 21
10.3056191093
  0
LINE
  5
2B0
100
AcDbEntity
  8
0
100
AcDbLine
 62
4
  6
CONTINUOUS
 10
11.1782626066
 20
6.869668767
 11
11.1927514946
 21
6.8590047029
  0
LINE
  5
2B1
100
AcDbEntity
  8
0
100
AcDbLine
 62
4
  6
CONTINUOUS
 10
11.3955959256
 20
6.7386855467
 11
11.3811070376
 21
6.7493496134
  0
LINE
  5
2B2
100
AcDbEntity
  8
0
100
AcDbLine
 62
4
  6
CONTINUOUS
 10
11.4100848135
 20
6.8535918424
 11
11.4245737014
 21
6.8429277783
  0
LINE
  5
2B3
100
AcDbEntity
  8
0
100
AcDbLine
 62
4
  6
CONTINUOUS
 10
11.518751473
 20
6.8460557839
 11
11.5332403609
 21
6.8353917198
  0
LINE
  5
2B4
100
AcDbEntity
  8
0
100
AcDbLine
 62
4
  6
CONTINUOUS
 10
10.191569352
 20
9.4398442148
 11
10.191569352
 21
9.3818886631
  0
LINE
  5
2B5
100
AcDbEntity
  8
0
100
AcDbLine
 62
4
  6
CONTINUOUS
 10
10.1978479508
 20
10.1252162606
 11
10.1978479508
 21
10.0093051572
  0
LINE
  5
2B6
100
AcDbEntity
  8
0
100
AcDbLine
 62
4
  6
CONTINUOUS
 10
10.2495249037
 20
9.3778694319
 11
10.2495249037
 21
9.3199138802
  0
LINE
  5
2B7
100
AcDbEntity
  8
0
100
AcDbLine
 62
4
  6
CONTINUOUS
 10
10.6252701447
 20
9.9796633274
 11
10.6614923645
 21
10.0930624113
  0
LINE
  5
2B8
100
AcDbEntity
  8
0
100
AcDbLine
 62
4
  6
CONTINUOUS
 10
11.1492848308
 20
6.7654265381
 11
11.1347959428
 21
6.7857498628
  0
LINE
  5
2B9
100
AcDbEntity
  8
0
100
AcDbLine
 62
4
  6
CONTINUOUS
 10
11.1927514946
 20
6.8590047029
 11
11.1999959385
 21
6.8488430358
  0
LINE
  5
2BA
100
AcDbEntity
  8
0
100
AcDbLine
 62
4
  6
CONTINUOUS
 10
10.2785026796
 20
9.3179042646
 11
10.2785026796
 21
9.4338153681
  0
LINE
  5
2BB
100
AcDbEntity
  8
0
100
AcDbLine
 62
4
  6
CONTINUOUS
 10
10.3258330429
 20
8.7234752653
 11
10.3258330429
 21
8.8393863687
  0
LINE
  5
2BC
100
AcDbEntity
  8
0
100
AcDbLine
 62
4
  6
CONTINUOUS
 10
10.3364582313
 20
9.4297961369
 11
10.3364582313
 21
9.3138850335
  0
LINE
  5
2BD
100
AcDbEntity
  8
0
100
AcDbLine
 62
4
  6
CONTINUOUS
 10
10.3654360071
 20
9.4277865213
 11
10.3654360071
 21
9.3118754179
  0
LINE
  5
2BE
100
AcDbEntity
  8
0
100
AcDbLine
 62
4
  6
CONTINUOUS
 10
10.3837885877
 20
8.81880841
 11
10.3837885877
 21
8.7360147644
  0
LINE
  5
2BF
100
AcDbEntity
  8
0
100
AcDbLine
 62
4
  6
CONTINUOUS
 10
10.4233915589
 20
9.4237672902
 11
10.4233915589
 21
9.3078561867
  0
LINE
  5
2C0
100
AcDbEntity
  8
0
100
AcDbLine
 62
4
  6
CONTINUOUS
 10
10.4296701576
 20
10.109139336
 11
10.4296701576
 21
9.9932282326
  0
LINE
  5
2C1
100
AcDbEntity
  8
0
100
AcDbLine
 62
4
  6
CONTINUOUS
 10
10.4307049873
 20
8.7162023713
 11
10.4638224435
 21
8.8298167713
  0
LINE
  5
2C2
100
AcDbEntity
  8
0
100
AcDbLine
 62
4
  6
CONTINUOUS
 10
10.3837885877
 20
8.7360147644
 11
10.3672298596
 21
8.7206043863
  0
LINE
  5
2C3
100
AcDbEntity
  8
0
100
AcDbLine
 62
4
  6
CONTINUOUS
 10
10.3037547353
 20
8.7967608964
 11
10.2595981236
 21
8.7777448602
  0
LINE
  5
2C4
100
AcDbEntity
  8
0
100
AcDbLine
 62
4
  6
CONTINUOUS
 10
11.1782626066
 20
7.8355946793
 11
11.1637737187
 21
7.8365994871
  0
LINE
  5
2C5
100
AcDbEntity
  8
0
100
AcDbLine
 62
4
  6
CONTINUOUS
 10
11.1710181627
 20
7.8940526349
 11
11.1999959385
 21
7.8920430194
  0
LINE
  5
2C6
100
AcDbEntity
  8
0
100
AcDbLine
 62
4
  6
CONTINUOUS
 10
11.3811070376
 20
6.7493496134
 11
11.3666181497
 21
6.7696729382
  0
LINE
  5
2C7
100
AcDbEntity
  8
0
100
AcDbLine
 62
4
  6
CONTINUOUS
 10
9.3961292834
 20
9.6205786016
 11
9.3888848394
 21
9.6307402645
  0
LINE
  5
2C8
100
AcDbEntity
  8
0
100
AcDbLine
 62
4
  6
CONTINUOUS
 10
11.4245737014
 20
6.8429277783
 11
11.4318181454
 21
6.8327661111
  0
LINE
  5
2C9
100
AcDbEntity
  8
0
100
AcDbLine
 62
4
  6
CONTINUOUS
 10
9.4395959472
 20
9.6658604711
 11
9.4540848351
 21
9.6455371472
  0
LINE
  5
2CA
100
AcDbEntity
  8
0
100
AcDbLine
 62
4
  6
CONTINUOUS
 10
9.4395959472
 20
9.7141567665
 11
9.4468403912
 21
9.7039950994
  0
LINE
  5
2CB
100
AcDbEntity
  8
0
100
AcDbLine
 62
4
  6
CONTINUOUS
 10
10.5393026623
 20
9.2998177244
 11
10.5393026623
 21
9.4157288278
  0
LINE
  5
2CC
100
AcDbEntity
  8
0
100
AcDbLine
 62
4
  6
CONTINUOUS
 10
10.5455812611
 20
10.1011008737
 11
10.5455812611
 21
9.9851897702
  0
LINE
  5
2CD
100
AcDbEntity
  8
0
100
AcDbLine
 62
4
  6
CONTINUOUS
 10
10.5631748257
 20
8.7070155568
 11
10.5631748257
 21
8.8229266602
  0
LINE
  5
2CE
100
AcDbEntity
  8
0
100
AcDbLine
 62
4
  6
CONTINUOUS
 10
10.597258214
 20
9.2957984933
 11
10.597258214
 21
9.353754045
  0
LINE
  5
2CF
100
AcDbEntity
  8
0
100
AcDbLine
 62
4
  6
CONTINUOUS
 10
10.629409738
 20
8.70242215
 11
10.629409738
 21
8.8183332534
  0
LINE
  5
2D0
100
AcDbEntity
  8
0
100
AcDbLine
 62
4
  6
CONTINUOUS
 10
10.6445885823
 20
9.2925161211
 11
10.6445885823
 21
9.3504716728
  0
LINE
  5
2D1
100
AcDbEntity
  8
0
100
AcDbLine
 62
4
  6
CONTINUOUS
 10
10.6128510144
 20
8.9585749289
 11
10.645968474
 21
9.0721893287
  0
LINE
  5
2D2
100
AcDbEntity
  8
0
100
AcDbLine
 62
4
  6
CONTINUOUS
 10
10.7701589346
 20
9.063576691
 11
10.7370414784
 21
8.949962291
  0
LINE
  5
2D3
100
AcDbEntity
  8
0
100
AcDbLine
 62
4
  6
CONTINUOUS
 10
11.1637737187
 20
7.9525105906
 11
11.1782626066
 21
7.9515057828
  0
LINE
  5
2D4
100
AcDbEntity
  8
0
100
AcDbLine
 62
4
  6
CONTINUOUS
 10
11.1637737187
 20
7.8365994871
 11
11.1492848308
 21
7.8472635538
  0
LINE
  5
2D5
100
AcDbEntity
  8
0
100
AcDbLine
 62
4
  6
CONTINUOUS
 10
11.5332403609
 20
6.8353917198
 11
11.5477292488
 21
6.8150683925
  0
LINE
  5
2D6
100
AcDbEntity
  8
0
100
AcDbLine
 62
4
  6
CONTINUOUS
 10
11.2579514902
 20
6.8641423242
 11
11.315907042
 21
6.7442119896
  0
LINE
  5
2D7
100
AcDbEntity
  8
0
100
AcDbLine
 62
4
  6
CONTINUOUS
 10
10.4638224435
 20
8.8298167713
 11
10.4969399134
 21
8.7116089635
  0
LINE
  5
2D8
100
AcDbEntity
  8
0
100
AcDbLine
 62
4
  6
CONTINUOUS
 10
10.702544134
 20
9.3464524416
 11
10.702544134
 21
9.2305413382
  0
LINE
  5
2D9
100
AcDbEntity
  8
0
100
AcDbLine
 62
4
  6
CONTINUOUS
 10
10.7122033898
 20
9.0427578262
 11
10.7122033898
 21
9.0675959217
  0
LINE
  5
2DA
100
AcDbEntity
  8
0
100
AcDbLine
 62
4
  6
CONTINUOUS
 10
10.7411811685
 20
9.2858174025
 11
10.7411811685
 21
9.3437729542
  0
LINE
  5
2DB
100
AcDbEntity
  8
0
100
AcDbLine
 62
4
  6
CONTINUOUS
 10
10.7991367202
 20
9.3977092747
 11
10.7991367202
 21
9.2817981713
  0
LINE
  5
2DC
100
AcDbEntity
  8
0
100
AcDbLine
 62
4
  6
CONTINUOUS
 10
10.8032764208
 20
8.7069231844
 11
10.8032764208
 21
8.7897168299
  0
LINE
  5
2DD
100
AcDbEntity
  8
0
100
AcDbLine
 62
4
  6
CONTINUOUS
 10
10.8363938607
 20
8.9430721799
 11
10.869511303
 21
9.0566865809
  0
LINE
  5
2DE
100
AcDbEntity
  8
0
100
AcDbLine
 62
7
  6
CONTINUOUS
 10
12.1900699938
 20
10.0884773209
 11
12.7077076568
 21
10.5884769379
  0
LINE
  5
2DF
100
AcDbEntity
  8
0
100
AcDbLine
 62
4
  6
CONTINUOUS
 10
10.8032764208
 20
8.7897168299
 11
10.819835142
 21
8.8051272068
  0
LINE
  5
2E0
100
AcDbEntity
  8
0
100
AcDbLine
 62
4
  6
CONTINUOUS
 10
10.8998689702
 20
8.7830181139
 11
10.9164276913
 21
8.7984284907
  0
LINE
  5
2E1
100
AcDbEntity
  8
0
100
AcDbLine
 62
4
  6
CONTINUOUS
 10
10.9578245219
 20
8.6962052372
 11
10.9412658007
 21
8.6807948586
  0
LINE
  5
2E2
100
AcDbEntity
  8
0
100
AcDbLine
 62
4
  6
CONTINUOUS
 10
11.1782626066
 20
7.9515057828
 11
11.1927514946
 21
7.9408417187
  0
LINE
  5
2E3
100
AcDbEntity
  8
0
100
AcDbLine
 62
4
  6
CONTINUOUS
 10
10.3672298596
 20
8.8365154897
 11
10.3837885877
 21
8.81880841
  0
LINE
  5
2E4
100
AcDbEntity
  8
0
100
AcDbLine
 62
4
  6
CONTINUOUS
 10
11.1492848308
 20
7.8472635538
 11
11.1347959428
 21
7.8675868786
  0
LINE
  5
2E5
100
AcDbEntity
  8
0
100
AcDbLine
 62
4
  6
CONTINUOUS
 10
11.1927514946
 20
7.9408417187
 11
11.1999959385
 21
7.9306800515
  0
LINE
  5
2E6
100
AcDbEntity
  8
0
100
AcDbLine
 62
4
  6
CONTINUOUS
 10
10.645968474
 20
9.0721893287
 11
10.6790859336
 21
8.9539815217
  0
LINE
  5
2E7
100
AcDbEntity
  8
0
100
AcDbLine
 62
4
  6
CONTINUOUS
 10
11.1347959428
 20
6.7857498628
 11
11.1275514989
 21
6.8152300426
  0
LINE
  5
2E8
100
AcDbEntity
  8
0
100
AcDbLine
 62
4
  6
CONTINUOUS
 10
10.8377737547
 20
9.3370742356
 11
10.8377737547
 21
9.2791186839
  0
LINE
  5
2E9
100
AcDbEntity
  8
0
100
AcDbLine
 62
4
  6
CONTINUOUS
 10
10.8998689702
 20
8.7002244683
 11
10.8998689702
 21
8.7830181139
  0
LINE
  5
2EA
100
AcDbEntity
  8
0
100
AcDbLine
 62
4
  6
CONTINUOUS
 10
10.9343663409
 20
9.2724199652
 11
10.9343663409
 21
9.3110569997
  0
LINE
  5
2EB
100
AcDbEntity
  8
0
100
AcDbLine
 62
4
  6
CONTINUOUS
 10
10.9578245219
 20
8.7789988827
 11
10.9578245219
 21
8.6962052372
  0
LINE
  5
2EC
100
AcDbEntity
  8
0
100
AcDbLine
 62
4
  6
CONTINUOUS
 10
10.9909419642
 20
8.6773498049
 11
10.9909419642
 21
8.7932609084
  0
LINE
  5
2ED
100
AcDbEntity
  8
0
100
AcDbLine
 62
4
  6
CONTINUOUS
 10
10.9923218926
 20
9.3263562858
 11
10.9923218926
 21
9.2684007341
  0
LINE
  5
2EE
100
AcDbEntity
  8
0
100
AcDbLine
 62
4
  6
CONTINUOUS
 10
11.0488975159
 20
8.6898893036
 11
11.0323387948
 21
8.674478925
  0
LINE
  5
2EF
100
AcDbEntity
  8
0
100
AcDbLine
 62
4
  6
CONTINUOUS
 10
11.2227641711
 20
8.710949068
 11
11.1786075629
 21
8.6919330333
  0
LINE
  5
2F0
100
AcDbEntity
  8
0
100
AcDbLine
 62
4
  6
CONTINUOUS
 10
10.2595981236
 20
8.7777448602
 11
10.3037547353
 21
8.752604283
  0
LINE
  5
2F1
100
AcDbEntity
  8
0
100
AcDbLine
 62
4
  6
CONTINUOUS
 10
9.4106181713
 20
9.609914535
 11
9.3961292834
 21
9.6205786016
  0
LINE
  5
2F2
100
AcDbEntity
  8
0
100
AcDbLine
 62
4
  6
CONTINUOUS
 10
9.4251070593
 20
9.6765245352
 11
9.4395959472
 21
9.6658604711
  0
LINE
  5
2F3
100
AcDbEntity
  8
0
100
AcDbLine
 62
4
  6
CONTINUOUS
 10
10.819835142
 20
8.6892161034
 11
10.8032764208
 21
8.7069231844
  0
LINE
  5
2F4
100
AcDbEntity
  8
0
100
AcDbLine
 62
4
  6
CONTINUOUS
 10
10.8032764045
 20
9.0612799867
 11
10.8363938607
 21
8.9430721799
  0
LINE
  5
2F5
100
AcDbEntity
  8
0
100
AcDbLine
 62
4
  6
CONTINUOUS
 10
11.3666181497
 20
6.7696729382
 11
11.3593737057
 21
6.7991531179
  0
LINE
  5
2F6
100
AcDbEntity
  8
0
100
AcDbLine
 62
4
  6
CONTINUOUS
 10
11.1347959428
 20
7.8675868786
 11
11.1275514989
 21
7.8970670583
  0
LINE
  5
2F7
100
AcDbEntity
  8
0
100
AcDbLine
 62
4
  6
CONTINUOUS
 10
11.0309589271
 20
9.3236767984
 11
11.0309589271
 21
9.2657212466
  0
LINE
  5
2F8
100
AcDbEntity
  8
0
100
AcDbLine
 62
4
  6
CONTINUOUS
 10
11.0488975159
 20
8.7726829491
 11
11.0488975159
 21
8.6898893036
  0
LINE
  5
2F9
100
AcDbEntity
  8
0
100
AcDbLine
 62
4
  6
CONTINUOUS
 10
11.0889144788
 20
9.2617020155
 11
11.0889144788
 21
9.3196575672
  0
LINE
  5
2FA
100
AcDbEntity
  8
0
100
AcDbLine
 62
4
  6
CONTINUOUS
 10
11.0958139571
 20
8.6700769075
 11
11.0958139571
 21
8.785988011
  0
LINE
  5
2FB
100
AcDbEntity
  8
0
100
AcDbLine
 62
7
  6
CONTINUOUS
 10
11.1245682596
 20
6.6608887894
 11
11.1245682596
 21
6.3800457635
  0
LINE
  5
2FC
100
AcDbEntity
  8
0
100
AcDbLine
 62
4
  6
CONTINUOUS
 10
11.1275515133
 20
9.259022528
 11
11.1275515133
 21
9.3749336315
  0
LINE
  5
2FD
100
AcDbEntity
  8
0
100
AcDbLine
 62
4
  6
CONTINUOUS
 10
11.1661885477
 20
9.2563430406
 11
11.1661885477
 21
9.3142985923
  0
LINE
  5
2FE
100
AcDbEntity
  8
0
100
AcDbLine
 62
4
  6
CONTINUOUS
 10
11.1999959385
 20
7.8920430194
 11
11.1999959385
 21
7.8534059855
  0
LINE
  5
2FF
100
AcDbEntity
  8
0
100
AcDbLine
 62
4
  6
CONTINUOUS
 10
11.2048255822
 20
9.3116191049
 11
11.2048255822
 21
9.2536635532
  0
LINE
  5
300
100
AcDbEntity
  8
0
100
AcDbLine
 62
4
  6
CONTINUOUS
 10
11.9968848142
 20
8.4936081994
 11
12.0548403659
 21
8.4895889683
  0
LINE
  5
301
100
AcDbEntity
  8
0
100
AcDbLine
 62
4
  6
CONTINUOUS
 10
11.0323387948
 20
8.674478925
 11
10.9909419642
 21
8.6773498049
  0
LINE
  5
302
100
AcDbEntity
  8
0
100
AcDbLine
 62
4
  6
CONTINUOUS
 10
10.9412658007
 20
8.6807948586
 11
10.9164276913
 21
8.6825173873
  0
LINE
  5
303
100
AcDbEntity
  8
0
100
AcDbLine
 62
4
  6
CONTINUOUS
 10
10.8529525843
 20
8.6869194009
 11
10.819835142
 21
8.6892161034
  0
LINE
  5
304
100
AcDbEntity
  8
0
100
AcDbLine
 62
4
  6
CONTINUOUS
 10
10.3672298596
 20
8.7206043863
 11
10.3258330429
 21
8.7234752653
  0
LINE
  5
305
100
AcDbEntity
  8
0
100
AcDbLine
 62
4
  6
CONTINUOUS
 10
10.629409738
 20
8.70242215
 11
10.6790859292
 21
8.6989770944
  0
LINE
  5
306
100
AcDbEntity
  8
0
100
AcDbLine
 62
4
  6
CONTINUOUS
 10
11.0958139571
 20
8.6700769075
 11
11.1454901206
 21
8.6666318539
  0
LINE
  5
307
100
AcDbEntity
  8
0
100
AcDbLine
 62
4
  6
CONTINUOUS
 10
12.0186181461
 20
8.6080120912
 11
12.033107034
 21
8.6070072834
  0
LINE
  5
308
100
AcDbEntity
  8
0
100
AcDbLine
 62
4
  6
CONTINUOUS
 10
10.4417441394
 20
8.7485542631
 11
10.4859007476
 21
8.7454919919
  0
LINE
  5
309
100
AcDbEntity
  8
0
100
AcDbLine
 62
4
  6
CONTINUOUS
 10
9.4251070593
 20
9.7248208306
 11
9.4395959472
 21
9.7141567665
  0
LINE
  5
30A
100
AcDbEntity
  8
0
100
AcDbLine
 62
4
  6
CONTINUOUS
 10
10.9164276913
 20
8.6825173873
 11
10.8998689702
 21
8.7002244683
  0
LINE
  5
30B
100
AcDbEntity
  8
0
100
AcDbLine
 62
4
  6
CONTINUOUS
 10
10.9412658007
 20
8.796705962
 11
10.9578245219
 21
8.7789988827
  0
LINE
  5
30C
100
AcDbEntity
  8
0
100
AcDbLine
 62
4
  6
CONTINUOUS
 10
10.6614923645
 20
10.0930624113
 11
10.6977145843
 21
9.9746392884
  0
LINE
  5
30D
100
AcDbEntity
  8
0
100
AcDbLine
 62
4
  6
CONTINUOUS
 10
11.5477292488
 20
6.8150683925
 11
11.5549736928
 21
6.7855882128
  0
LINE
  5
30E
100
AcDbEntity
  8
0
100
AcDbLine
 62
7
  6
CONTINUOUS
 10
11.2376230716
 20
6.6530484116
 11
11.2376230716
 21
6.2708433876
  0
LINE
  5
30F
100
AcDbEntity
  8
0
100
AcDbLine
 62
7
  6
CONTINUOUS
 10
11.2795032991
 20
6.6501440079
 11
11.2795032991
 21
6.2600040008
  0
LINE
  5
310
100
AcDbEntity
  8
0
100
AcDbLine
 62
4
  6
CONTINUOUS
 10
11.3014181684
 20
9.3049203863
 11
11.3014181684
 21
9.2759426104
  0
LINE
  5
311
100
AcDbEntity
  8
0
100
AcDbLine
 62
4
  6
CONTINUOUS
 10
11.3593737201
 20
9.2719233792
 11
11.3593737201
 21
9.2429456034
  0
LINE
  5
312
100
AcDbEntity
  8
0
100
AcDbLine
 62
4
  6
CONTINUOUS
 10
11.1275514989
 20
7.8970670583
 11
11.1347959428
 21
7.9255424303
  0
LINE
  5
313
100
AcDbEntity
  8
0
100
AcDbLine
 62
4
  6
CONTINUOUS
 10
11.1289313994
 20
8.7340151243
 11
11.0958139571
 21
8.7363118267
  0
LINE
  5
314
100
AcDbEntity
  8
0
100
AcDbLine
 62
4
  6
CONTINUOUS
 10
10.662527208
 20
8.7663603648
 11
10.629409738
 21
8.7686570692
  0
LINE
  5
315
100
AcDbEntity
  8
0
100
AcDbLine
 62
4
  6
CONTINUOUS
 10
10.3258330429
 20
8.8393863687
 11
10.3672298596
 21
8.8365154897
  0
LINE
  5
316
100
AcDbEntity
  8
0
100
AcDbLine
 62
4
  6
CONTINUOUS
 10
10.5300573558
 20
8.8252233645
 11
10.5962922681
 21
8.8206299578
  0
LINE
  5
317
100
AcDbEntity
  8
0
100
AcDbLine
 62
4
  6
CONTINUOUS
 10
10.629409738
 20
8.8183332534
 11
10.6790859292
 21
8.8148881979
  0
LINE
  5
318
100
AcDbEntity
  8
0
100
AcDbLine
 62
4
  6
CONTINUOUS
 10
10.819835142
 20
8.8051272068
 11
10.8529525843
 21
8.8028305044
  0
LINE
  5
319
100
AcDbEntity
  8
0
100
AcDbLine
 62
4
  6
CONTINUOUS
 10
10.9164276913
 20
8.7984284907
 11
10.9412658007
 21
8.796705962
  0
LINE
  5
31A
100
AcDbEntity
  8
0
100
AcDbLine
 62
4
  6
CONTINUOUS
 10
10.9909419642
 20
8.7932609084
 11
11.0323387948
 21
8.7903900284
  0
LINE
  5
31B
100
AcDbEntity
  8
0
100
AcDbLine
 62
4
  6
CONTINUOUS
 10
11.0958139571
 20
8.785988011
 11
11.1454901206
 21
8.7825429573
  0
LINE
  5
31C
100
AcDbEntity
  8
0
100
AcDbLine
 62
4
  6
CONTINUOUS
 10
11.1786075629
 20
8.7360896467
 11
11.2227641711
 21
8.710949068
  0
LINE
  5
31D
100
AcDbEntity
  8
0
100
AcDbLine
 62
4
  6
CONTINUOUS
 10
11.0323387948
 20
8.7903900284
 11
11.0488975159
 21
8.7726829491
  0
LINE
  5
31E
100
AcDbEntity
  8
0
100
AcDbLine
 62
4
  6
CONTINUOUS
 10
11.4897736971
 20
6.7321542961
 11
11.4897736971
 21
6.8480653995
  0
LINE
  5
31F
100
AcDbEntity
  8
0
100
AcDbLine
 62
4
  6
CONTINUOUS
 10
11.1275514989
 20
6.8152300426
 11
11.1347959428
 21
6.8437054145
  0
LINE
  5
320
100
AcDbEntity
  8
0
100
AcDbLine
 62
4
  6
CONTINUOUS
 10
11.1347959428
 20
7.9255424303
 11
11.1492848308
 21
7.943856142
  0
LINE
  5
321
100
AcDbEntity
  8
0
100
AcDbLine
 62
4
  6
CONTINUOUS
 10
11.1999959385
 20
7.8534059855
 11
11.1927514946
 21
7.8442491304
  0
LINE
  5
322
100
AcDbEntity
  8
0
100
AcDbLine
 62
7
  6
CONTINUOUS
 10
12.4344488213
 20
9.2316282654
 11
12.4334340104
 21
9.2306660452
  0
LINE
  5
323
100
AcDbEntity
  8
0
100
AcDbLine
 62
4
  6
CONTINUOUS
 10
12.0041292582
 20
8.5993576427
 11
12.0186181461
 21
8.6080120912
  0
LINE
  5
324
100
AcDbEntity
  8
0
100
AcDbLine
 62
4
  6
CONTINUOUS
 10
12.0475959219
 20
8.5577061802
 11
12.0186181461
 21
8.5403972797
  0
LINE
  5
325
100
AcDbEntity
  8
0
100
AcDbLine
 62
4
  6
CONTINUOUS
 10
11.1492848308
 20
7.943856142
 11
11.1637737187
 21
7.9525105906
  0
LINE
  5
326
100
AcDbEntity
  8
0
100
AcDbLine
 62
4
  6
CONTINUOUS
 10
10.6238901673
 20
8.9909268207
 11
10.6680467781
 21
8.9878645493
  0
LINE
  5
327
100
AcDbEntity
  8
0
100
AcDbLine
 62
4
  6
CONTINUOUS
 10
10.7122033898
 20
9.0675959217
 11
10.7701589346
 21
9.063576691
  0
LINE
  5
328
100
AcDbEntity
  8
0
100
AcDbLine
 62
7
  6
CONTINUOUS
 10
11.701429278
 20
6.6208833419
 11
11.701429278
 21
6.2307433348
  0
LINE
  5
329
100
AcDbEntity
  8
0
100
AcDbLine
 62
7
  6
CONTINUOUS
 10
11.7586387166
 20
6.6169158539
 11
11.7586387166
 21
6.2347108299
  0
LINE
  5
32A
100
AcDbEntity
  8
0
100
AcDbLine
 62
4
  6
CONTINUOUS
 10
11.3593737057
 20
6.7991531179
 11
11.3666181497
 21
6.8276284899
  0
LINE
  5
32B
100
AcDbEntity
  8
0
100
AcDbLine
 62
4
  6
CONTINUOUS
 10
11.9968848142
 20
8.5902007833
 11
12.0041292582
 21
8.5993576427
  0
LINE
  5
32C
100
AcDbEntity
  8
0
100
AcDbLine
 62
4
  6
CONTINUOUS
 10
12.0186181461
 20
8.5403972797
 11
12.0041292582
 21
8.5220835714
  0
LINE
  5
32D
100
AcDbEntity
  8
0
100
AcDbLine
 62
4
  6
CONTINUOUS
 10
12.0548403659
 20
8.5668630395
 11
12.0475959219
 21
8.5577061802
  0
LINE
  5
32E
100
AcDbEntity
  8
0
100
AcDbLine
 62
4
  6
CONTINUOUS
 10
11.1927514946
 20
7.8442491304
 11
11.1782626066
 21
7.8355946793
  0
LINE
  5
32F
100
AcDbEntity
  8
0
100
AcDbLine
 62
4
  6
CONTINUOUS
 10
10.702544134
 20
9.2305413382
 11
10.6639070995
 21
9.2332208256
  0
LINE
  5
330
100
AcDbEntity
  8
0
100
AcDbLine
 62
4
  6
CONTINUOUS
 10
11.3593737201
 20
9.2429456034
 11
11.3014181684
 21
9.2469648346
  0
LINE
  5
331
100
AcDbEntity
  8
0
100
AcDbLine
 62
4
  6
CONTINUOUS
 10
10.9923218926
 20
9.2684007341
 11
10.9343663409
 21
9.2724199652
  0
LINE
  5
332
100
AcDbEntity
  8
0
100
AcDbLine
 62
4
  6
CONTINUOUS
 10
10.7991367202
 20
9.2817981713
 11
10.7411811685
 21
9.2858174025
  0
LINE
  5
333
100
AcDbEntity
  8
0
100
AcDbLine
 62
4
  6
CONTINUOUS
 10
10.702544134
 20
9.2884968899
 11
10.6445885823
 21
9.2925161211
  0
LINE
  5
334
100
AcDbEntity
  8
0
100
AcDbLine
 62
4
  6
CONTINUOUS
 10
10.3364582313
 20
9.3138850335
 11
10.2785026796
 21
9.3179042646
  0
LINE
  5
335
100
AcDbEntity
  8
0
100
AcDbLine
 62
4
  6
CONTINUOUS
 10
10.2495249037
 20
9.3199138802
 11
10.191569352
 21
9.3239331114
  0
LINE
  5
336
100
AcDbEntity
  8
0
100
AcDbLine
 62
4
  6
CONTINUOUS
 10
11.0309589271
 20
9.2657212466
 11
11.0889144788
 21
9.2617020155
  0
LINE
  5
337
100
AcDbEntity
  8
0
100
AcDbLine
 62
4
  6
CONTINUOUS
 10
11.2048255822
 20
9.2536635532
 11
11.2627811339
 21
9.249644322
  0
LINE
  5
338
100
AcDbEntity
  8
0
100
AcDbLine
 62
4
  6
CONTINUOUS
 10
12.033107034
 20
8.6070072834
 11
12.0475959219
 21
8.5963432193
  0
LINE
  5
339
100
AcDbEntity
  8
0
100
AcDbLine
 62
4
  6
CONTINUOUS
 10
11.5549736928
 20
6.7855882128
 11
11.5477292488
 21
6.7571128408
  0
LINE
  5
33A
100
AcDbEntity
  8
0
100
AcDbLine
 62
4
  6
CONTINUOUS
 10
12.0041292582
 20
8.5220835714
 11
11.9968848142
 21
8.4936081994
  0
LINE
  5
33B
100
AcDbEntity
  8
0
100
AcDbLine
 62
4
  6
CONTINUOUS
 10
11.3014181684
 20
9.2759426104
 11
11.3593737201
 21
9.2719233792
  0
LINE
  5
33C
100
AcDbEntity
  8
0
100
AcDbLine
 62
4
  6
CONTINUOUS
 10
10.9343663409
 20
9.3110569997
 11
10.9923218926
 21
9.3070377686
  0
LINE
  5
33D
100
AcDbEntity
  8
0
100
AcDbLine
 62
4
  6
CONTINUOUS
 10
10.9923218926
 20
9.3263562858
 11
10.9536848581
 21
9.3290357732
  0
LINE
  5
33E
100
AcDbEntity
  8
0
100
AcDbLine
 62
4
  6
CONTINUOUS
 10
10.597258214
 20
9.353754045
 11
10.5393026623
 21
9.3577732761
  0
LINE
  5
33F
100
AcDbEntity
  8
0
100
AcDbLine
 62
4
  6
CONTINUOUS
 10
10.191569352
 20
9.3818886631
 11
10.2495249037
 21
9.3778694319
  0
LINE
  5
340
100
AcDbEntity
  8
0
100
AcDbLine
 62
4
  6
CONTINUOUS
 10
10.7411811685
 20
9.3437729542
 11
10.7991367202
 21
9.339753723
  0
LINE
  5
341
100
AcDbEntity
  8
0
100
AcDbLine
 62
4
  6
CONTINUOUS
 10
10.8377737547
 20
9.3370742356
 11
10.8957293064
 21
9.3330550044
  0
LINE
  5
342
100
AcDbEntity
  8
0
100
AcDbLine
 62
4
  6
CONTINUOUS
 10
11.2048255822
 20
9.3116191049
 11
11.2627811339
 21
9.3075998737
  0
LINE
  5
343
100
AcDbEntity
  8
0
100
AcDbLine
 62
4
  6
CONTINUOUS
 10
11.3014181684
 20
9.3049203863
 11
11.3593737201
 21
9.3009011551
  0
LINE
  5
344
100
AcDbEntity
  8
0
100
AcDbLine
 62
4
  6
CONTINUOUS
 10
11.1589441038
 20
9.3437787721
 11
11.1734329917
 21
9.3427739643
  0
LINE
  5
345
100
AcDbEntity
  8
0
100
AcDbLine
 62
4
  6
CONTINUOUS
 10
10.2495249037
 20
9.4358249837
 11
10.191569352
 21
9.4398442148
  0
LINE
  5
346
100
AcDbEntity
  8
0
100
AcDbLine
 62
4
  6
CONTINUOUS
 10
10.3654360071
 20
9.4277865213
 11
10.4233915589
 21
9.4237672902
  0
LINE
  5
347
100
AcDbEntity
  8
0
100
AcDbLine
 62
4
  6
CONTINUOUS
 10
12.0475959219
 20
8.5963432193
 11
12.0548403659
 21
8.5861815522
  0
LINE
  5
348
100
AcDbEntity
  8
0
100
AcDbLine
 62
4
  6
CONTINUOUS
 10
12.0548403659
 20
8.5861815522
 11
12.0548403659
 21
8.5668630395
  0
LINE
  5
349
100
AcDbEntity
  8
0
100
AcDbLine
 62
7
  6
CONTINUOUS
 10
12.0675098836
 20
6.5954955657
 11
12.0675098836
 21
6.3146525397
  0
LINE
  5
34A
100
AcDbEntity
  8
0
100
AcDbLine
 62
7
  6
CONTINUOUS
 10
12.0828390948
 20
6.5944324813
 11
12.0828390948
 21
6.3294594216
  0
LINE
  5
34B
100
AcDbEntity
  8
0
100
AcDbLine
 62
4
  6
CONTINUOUS
 10
11.2579514902
 20
6.7482312207
 11
11.315907042
 21
6.860123093
  0
LINE
  5
34C
100
AcDbEntity
  8
0
100
AcDbLine
 62
4
  6
CONTINUOUS
 10
11.1347959428
 20
6.8437054145
 11
11.1492848308
 21
6.8620191263
  0
LINE
  5
34D
100
AcDbEntity
  8
0
100
AcDbLine
 62
4
  6
CONTINUOUS
 10
9.4251070593
 20
9.6089097272
 11
9.4106181713
 21
9.609914535
  0
LINE
  5
34E
100
AcDbEntity
  8
0
100
AcDbLine
 62
4
  6
CONTINUOUS
 10
9.4106181713
 20
9.677529343
 11
9.4251070593
 21
9.6765245352
  0
LINE
  5
34F
100
AcDbEntity
  8
0
100
AcDbLine
 62
4
  6
CONTINUOUS
 10
9.4106181713
 20
9.7258256384
 11
9.4251070593
 21
9.7248208306
  0
LINE
  5
350
100
AcDbEntity
  8
0
100
AcDbLine
 62
7
  6
CONTINUOUS
 10
12.1900699938
 20
6.5869959932
 11
12.1900699938
 21
10.0884773209
  0
LINE
  5
351
100
AcDbEntity
  8
0
100
AcDbLine
 62
4
  6
CONTINUOUS
 10
11.1999959385
 20
6.7715689697
 11
11.1927514946
 21
6.7624121147
  0
LINE
  5
352
100
AcDbEntity
  8
0
100
AcDbLine
 62
4
  6
CONTINUOUS
 10
11.3666181497
 20
6.8276284899
 11
11.3811070376
 21
6.8459422016
  0
LINE
  5
353
100
AcDbEntity
  8
0
100
AcDbLine
 62
4
  6
CONTINUOUS
 10
11.4318181454
 20
6.7554920451
 11
11.4245737014
 21
6.7463351901
  0
LINE
  5
354
100
AcDbEntity
  8
0
100
AcDbLine
 62
4
  6
CONTINUOUS
 10
11.5477292488
 20
6.7571128408
 11
11.5332403609
 21
6.7387991316
  0
LINE
  5
355
100
AcDbEntity
  8
0
100
AcDbLine
 62
4
  6
CONTINUOUS
 10
11.1492848308
 20
6.8620191263
 11
11.1637737187
 21
6.8706735748
  0
LINE
  5
356
100
AcDbEntity
  8
0
100
AcDbLine
 62
4
  6
CONTINUOUS
 10
10.6397590326
 20
10.0172955552
 11
10.6832256964
 21
10.0142811319
  0
LINE
  5
357
100
AcDbEntity
  8
0
100
AcDbLine
 62
4
  6
CONTINUOUS
 10
10.2920257223
 20
10.0607294583
 11
10.3354923861
 21
10.0577150349
  0
LINE
  5
358
100
AcDbEntity
  8
0
100
AcDbLine
 62
7
  6
CONTINUOUS
 10
12.7077076568
 20
7.0869956102
 11
12.7077076568
 21
10.5884769379
  0
LINE
  5
359
100
AcDbEntity
  8
0
100
AcDbLine
 62
4
  6
CONTINUOUS
 10
11.1927514946
 20
6.7624121147
 11
11.1782626066
 21
6.7537576636
  0
LINE
  5
35A
100
AcDbEntity
  8
0
100
AcDbLine
 62
4
  6
CONTINUOUS
 10
11.3811070376
 20
6.8459422016
 11
11.3955959256
 21
6.8545966502
  0
LINE
  5
35B
100
AcDbEntity
  8
0
100
AcDbLine
 62
4
  6
CONTINUOUS
 10
11.4245737014
 20
6.7463351901
 11
11.4100848135
 21
6.7376807389
  0
LINE
  5
35C
100
AcDbEntity
  8
0
100
AcDbLine
 62
4
  6
CONTINUOUS
 10
10.1616257309
 20
10.1277282801
 11
10.2340701706
 21
10.1227042412
  0
LINE
  5
35D
100
AcDbEntity
  8
0
100
AcDbLine
 62
7
  6
CONTINUOUS
 10
9.2922923432
 20
10.2894388836
 11
12.1900699938
 21
10.0884773209
  0
LINE
  5
35E
100
AcDbEntity
  8
0
100
AcDbLine
 62
4
  6
CONTINUOUS
 10
11.5332403609
 20
6.7387991316
 11
11.518751473
 21
6.7301446805
  0
LINE
  5
35F
100
AcDbEntity
  8
0
100
AcDbLine
 62
7
  6
CONTINUOUS
 10
12.1900699938
 20
6.5869959932
 11
12.7077076568
 21
7.0869956102
  0
LINE
  5
360
100
AcDbEntity
  8
0
100
AcDbLine
 62
7
  6
CONTINUOUS
 10
12.7077076568
 20
10.5884769379
 11
9.8099300062
 21
10.7894385006
  0
LINE
  5
361
100
AcDbEntity
  8
0
100
AcDbLine
 62
7
  6
CONTINUOUS
 10
12.0097556245
 20
6.2826301487
 11
11.984590015
 21
6.2701988194
  0
ARC
  5
362
100
AcDbEntity
  8
0
100
AcDbCircle
 62
7
  6
CONTINUOUS
 10
11.6115059339
 20
7.9418467821
 40
1.7134646816
100
AcDbArc
 50
273.0082884861
 51
274.9259735842
  0
ARC
  5
363
100
AcDbEntity
  8
0
100
AcDbCircle
 62
7
  6
CONTINUOUS
 10
11.7472714954
 20
6.8135656409
 40
0.5922756118
100
AcDbArc
 50
293.5909107106
 51
296.3039528614
  0
ARC
  5
364
100
AcDbEntity
  8
0
100
AcDbCircle
 62
7
  6
CONTINUOUS
 10
10.3271324141
 20
10.3027565382
 40
0.0290575936
100
AcDbArc
 50
180.0124386196
 51
187.8522742044
  0
ARC
  5
365
100
AcDbEntity
  8
0
100
AcDbCircle
 62
7
  6
CONTINUOUS
 10
11.1300178076
 20
10.3027565683
 40
0.0290569904
100
AcDbArc
 50
352.2255437801
 51
359.9875017606
  0
SPLINE
  5
366
100
AcDbEntity
  8
0
100
AcDbSpline
 62
7
  6
CONTINUOUS
 70
0
 71
3
 72
9
 73
5
 74
0
 42
0.0000001
 43
0.0000001
 44
0.0000000001
 40
0.0
 40
0.0
 40
0.0
 40
0.0
 40
0.4865082157
 40
1.0
 40
1.0
 40
1.0
 40
1.0
 10
12.0760414342
 20
6.3219958578
 30
0.0
 10
12.0747279642
 20
6.3207271431
 30
0.0
 10
12.0719468229
 20
6.3182027382
 30
0.0
 10
12.0690335169
 20
6.3158330338
 30
0.0
 10
12.0675098836
 20
6.3146525397
 30
0.0
  0
SPLINE
  5
367
100
AcDbEntity
  8
0
100
AcDbSpline
 62
7
  6
CONTINUOUS
 70
0
 71
3
 72
9
 73
5
 74
0
 42
0.0000001
 43
0.0000001
 44
0.0000000001
 40
0.0
 40
0.0
 40
0.0
 40
0.0
 40
0.4864210225
 40
1.0
 40
1.0
 40
1.0
 40
1.0
 10
12.0828390948
 20
6.3294594216
 30
0.0
 10
12.0818253878
 20
6.3281730715
 30
0.0
 10
12.0796388976
 20
6.3256082867
 30
0.0
 10
12.0772851785
 20
6.3231972226
 30
0.0
 10
12.0760414342
 20
6.3219958578
 30
0.0
  0
SPLINE
  5
368
100
AcDbEntity
  8
0
100
AcDbSpline
 62
7
  6
CONTINUOUS
 70
0
 71
3
 72
9
 73
5
 74
0
 42
0.0000001
 43
0.0000001
 44
0.0000000001
 40
0.0
 40
0.0
 40
0.0
 40
0.0
 40
0.503991706
 40
1.0
 40
1.0
 40
1.0
 40
1.0
 10
12.0675098836
 20
6.3146525397
 30
0.0
 10
12.0580365361
 20
6.3088636645
 30
0.0
 10
12.0390211191
 20
6.2977304843
 30
0.0
 10
12.0195244542
 20
6.2874559707
 30
0.0
 10
12.0097283871
 20
6.2826166976
 30
0.0
  0
SPLINE
  5
369
100
AcDbEntity
  8
0
100
AcDbSpline
 62
7
  6
CONTINUOUS
 70
0
 71
3
 72
23
 73
19
 74
0
 42
0.0000001
 43
0.0000001
 44
0.0000000001
 40
0.0
 40
0.0
 40
0.0
 40
0.0
 40
0.0439943064
 40
0.0899281819
 40
0.1380403338
 40
0.1885309998
 40
0.2415683448
 40
0.2972701743
 40
0.3557174883
 40
0.4169406608
 40
0.4809367475
 40
0.5476614984
 40
0.617045644
 40
0.688992165
 40
0.7633891149
 40
0.8401121098
 40
0.9190285012
 40
1.0
 40
1.0
 40
1.0
 40
1.0
 10
11.206515405
 20
6.2782516628
 30
0.0
 10
11.2047715237
 20
6.2791131224
 30
0.0
 10
11.201271393
 20
6.281007429
 30
0.0
 10
11.1961149208
 20
6.2842801037
 30
0.0
 10
11.1909515278
 20
6.2880522011
 30
0.0
 10
11.1857838084
 20
6.2923290674
 30
0.0
 10
11.1806159683
 20
6.2971143037
 30
0.0
 10
11.1754500776
 20
6.302404913
 30
0.0
 10
11.1702904092
 20
6.30819555
 30
0.0
 10
11.1651388447
 20
6.3144749862
 30
0.0
 10
11.1599991712
 20
6.3212297437
 30
0.0
 10
11.1548730069
 20
6.3284419088
 30
0.0
 10
11.1497632772
 20
6.336091943
 30
0.0
 10
11.1446712101
 20
6.344157627
 30
0.0
 10
11.1395986736
 20
6.3526160845
 30
0.0
 10
11.1345464214
 20
6.3614433999
 30
0.0
 10
11.1295153937
 20
6.3706156352
 30
0.0
 10
11.1262163251
 20
6.3768678153
 30
0.0
 10
11.1245682596
 20
6.3800457635
 30
0.0
  0
SPLINE
  5
36A
100
AcDbEntity
  8
0
100
AcDbSpline
 62
7
  6
CONTINUOUS
 70
0
 71
3
 72
46
 73
42
 74
0
 42
0.0000001
 43
0.0000001
 44
0.0000000001
 40
0.0
 40
0.0
 40
0.0
 40
0.0
 40
0.0099874435
 40
0.0204476157
 40
0.0313771114
 40
0.0427707225
 40
0.054621686
 40
0.0669224317
 40
0.0796639566
 40
0.0928360449
 40
0.1204269131
 40
0.1495981875
 40
0.1802403745
 40
0.2122335405
 40
0.2454486791
 40
0.2797494061
 40
0.3149926211
 40
0.3510295021
 40
0.387706851
 40
0.4248677397
 40
0.4623524596
 40
0.499999592
 40
0.537646712
 40
0.5751314595
 40
0.6122923998
 40
0.6489698028
 40
0.6850067986
 40
0.7202500982
 40
0.7545508962
 40
0.7877662248
 40
0.8197595459
 40
0.8504018313
 40
0.8795733387
 40
0.9071643906
 40
0.9330770134
 40
0.9453779539
 40
0.9572290359
 40
0.9686226679
 40
0.9795523026
 40
0.9900125123
 40
1.0
 40
1.0
 40
1.0
 40
1.0
 10
11.9845935448
 20
6.2702006068
 30
0.0
 10
11.9822765659
 20
6.2690560457
 30
0.0
 10
11.9774933731
 20
6.2667921957
 30
0.0
 10
11.9700538708
 20
6.2635385364
 30
0.0
 10
11.9621913311
 20
6.2603520789
 30
0.0
 10
11.9539148968
 20
6.2572365195
 30
0.0
 10
11.9452340775
 20
6.2541952538
 30
0.0
 10
11.9361587631
 20
6.2512320203
 30
0.0
 10
11.9266993856
 20
6.2483501477
 30
0.0
 10
11.913382749
 20
6.2445618187
 30
0.0
 10
11.8958493845
 20
6.2400716591
 30
0.0
 10
11.8737751165
 20
6.2351373865
 30
0.0
 10
11.8504544306
 20
6.2306005696
 30
0.0
 10
11.8259948337
 20
6.2264824304
 30
0.0
 10
11.8005089302
 20
6.2228021283
 30
0.0
 10
11.7741142258
 20
6.219576994
 30
0.0
 10
11.7469324796
 20
6.2168221688
 30
0.0
 10
11.719089182
 20
6.2145503785
 30
0.0
 10
11.6907128957
 20
6.2127723289
 30
0.0
 10
11.6619346625
 20
6.2114963888
 30
0.0
 10
11.6328874167
 20
6.2107283674
 30
0.0
 10
11.6037053518
 20
6.2104719225
 30
0.0
 10
11.5745232798
 20
6.210728332
 30
0.0
 10
11.545476014
 20
6.2114962496
 30
0.0
 10
11.516697744
 20
6.2127721494
 30
0.0
 10
11.4883213993
 20
6.2145501723
 30
0.0
 10
11.4604780276
 20
6.2168218594
 30
0.0
 10
11.4332962066
 20
6.2195766428
 30
0.0
 10
11.406901409
 20
6.2228017598
 30
0.0
 10
11.3814153879
 20
6.2264819642
 30
0.0
 10
11.3569556485
 20
6.2306000565
 30
0.0
 10
11.3336348986
 20
6.2351368888
 30
0.0
 10
11.311560252
 20
6.2400710088
 30
0.0
 10
11.2908333129
 20
6.2453793214
 30
0.0
 10
11.2744906424
 20
6.2501736834
 30
0.0
 10
11.2621753032
 20
6.2541945253
 30
0.0
 10
11.2534943792
 20
6.257235808
 30
0.0
 10
11.2452178902
 20
6.2603514119
 30
0.0
 10
11.2373552501
 20
6.2635377587
 30
0.0
 10
11.2299156633
 20
6.2667913697
 30
0.0
 10
11.2251324562
 20
6.2690552394
 30
0.0
 10
11.2228154642
 20
6.2701997995
 30
0.0
  0
SPLINE
  5
36B
100
AcDbEntity
  8
0
100
AcDbSpline
 62
7
  6
CONTINUOUS
 70
0
 71
3
 72
9
 73
5
 74
0
 42
0.0000001
 43
0.0000001
 44
0.0000000001
 40
0.0
 40
0.0
 40
0.0
 40
0.0
 40
0.5132482879
 40
1.0
 40
1.0
 40
1.0
 40
1.0
 10
11.2795032991
 20
6.2600040008
 30
0.0
 10
11.2722885177
 20
6.2616576968
 30
0.0
 10
11.2582722734
 20
6.2650615562
 30
0.0
 10
11.2443609716
 20
6.2688742166
 30
0.0
 10
11.2376230716
 20
6.2708433876
 30
0.0
  0
SPLINE
  5
36C
100
AcDbEntity
  8
0
100
AcDbSpline
 62
7
  6
CONTINUOUS
 70
0
 71
3
 72
21
 73
17
 74
0
 42
0.0000001
 43
0.0000001
 44
0.0000000001
 40
0.0
 40
0.0
 40
0.0
 40
0.0
 40
0.1230814817
 40
0.1847942657
 40
0.2466337258
 40
0.3086097846
 40
0.3707312098
 40
0.4330051319
 40
0.4954352436
 40
0.5580223626
 40
0.6207641208
 40
0.6836547008
 40
0.7466862848
 40
0.8098488395
 40
0.8731308835
 40
1.0
 40
1.0
 40
1.0
 40
1.0
 10
11.701429278
 20
6.2307433348
 30
0.0
 10
11.6841766374
 20
6.2274909514
 30
0.0
 10
11.6581454998
 20
6.2232402329
 30
0.0
 10
11.6232089096
 20
6.2190728835
 30
0.0
 10
11.596842212
 20
6.2167508371
 30
0.0
 10
11.5703551452
 20
6.215291137
 30
0.0
 10
11.5437710861
 20
6.2147409952
 30
0.0
 10
11.5171192218
 20
6.2151374268
 30
0.0
 10
11.4904327289
 20
6.2165024145
 30
0.0
 10
11.4637469571
 20
6.218841238
 30
0.0
 10
11.437097254
 20
6.2221435273
 30
0.0
 10
11.4105165899
 20
6.226382547
 30
0.0
 10
11.3840337466
 20
6.2315171882
 30
0.0
 10
11.3576718692
 20
6.2374969361
 30
0.0
 10
11.3226811947
 20
6.2465260558
 30
0.0
 10
11.2967027362
 20
6.254376077
 30
0.0
 10
11.2795032991
 20
6.2600040008
 30
0.0
  0
SPLINE
  5
36D
100
AcDbEntity
  8
0
100
AcDbSpline
 62
7
  6
CONTINUOUS
 70
0
 71
3
 72
13
 73
9
 74
0
 42
0.0000001
 43
0.0000001
 44
0.0000000001
 40
0.0
 40
0.0
 40
0.0
 40
0.0
 40
0.2392401476
 40
0.3604630295
 40
0.4832816768
 40
0.6081576999
 40
0.7355839368
 40
1.0
 40
1.0
 40
1.0
 40
1.0
 10
11.2376230716
 20
6.2708433876
 30
0.0
 10
11.2350510601
 20
6.2708525397
 30
0.0
 10
11.2311718337
 20
6.2710714316
 30
0.0
 10
11.2260254741
 20
6.2718002494
 30
0.0
 10
11.2221347149
 20
6.272581988
 30
0.0
 10
11.2182316966
 20
6.2736067193
 30
0.0
 10
11.2129484779
 20
6.275330924
 30
0.0
 10
11.2090640815
 20
6.2769926428
 30
0.0
 10
11.206515405
 20
6.2782516628
 30
0.0
  0
SPLINE
  5
36E
100
AcDbEntity
  8
0
100
AcDbSpline
 62
7
  6
CONTINUOUS
 70
0
 71
3
 72
15
 73
11
 74
0
 42
0.0000001
 43
0.0000001
 44
0.0000000001
 40
0.0
 40
0.0
 40
0.0
 40
0.0
 40
0.1319943798
 40
0.2615530082
 40
0.3887795478
 40
0.5138991626
 40
0.6372282088
 40
0.759125931
 40
0.8799459217
 40
1.0
 40
1.0
 40
1.0
 40
1.0
 10
11.9843023616
 20
6.2707887356
 30
0.0
 10
11.9749803544
 20
6.2667264534
 30
0.0
 10
11.9562794724
 20
6.2591872705
 30
0.0
 10
11.9278409127
 20
6.2497258298
 30
0.0
 10
11.8993449249
 20
6.2423124542
 30
0.0
 10
11.8708764255
 20
6.2369735799
 30
0.0
 10
11.8425164758
 20
6.2336587074
 30
0.0
 10
11.8143322091
 20
6.2322507793
 30
0.0
 10
11.7863710472
 20
6.2325861154
 30
0.0
 10
11.7678474202
 20
6.2338504444
 30
0.0
 10
11.7586387166
 20
6.2347108299
 30
0.0
  0
SPLINE
  5
36F
100
AcDbEntity
  8
0
100
AcDbSpline
 62
7
  6
CONTINUOUS
 70
0
 71
3
 72
93
 73
89
 74
0
 42
0.0000001
 43
0.0000001
 44
0.0000000001
 40
0.0
 40
0.0
 40
0.0
 40
0.0
 40
0.0039802005
 40
0.0081241083
 40
0.0124359116
 40
0.0169192331
 40
0.0215771071
 40
0.0264118291
 40
0.0314250775
 40
0.0366180274
 40
0.0419913947
 40
0.0475454967
 40
0.0532802394
 40
0.0591952227
 40
0.0652896963
 40
0.071562666
 40
0.0780128361
 40
0.0846387029
 40
0.0984099586
 40
0.1128604728
 40
0.1279709419
 40
0.1437194762
 40
0.1600818774
 40
0.1770318697
 40
0.1945412988
 40
0.2125803054
 40
0.2311174799
 40
0.2501200027
 40
0.2695537746
 40
0.2893835385
 40
0.3095729955
 40
0.3300849166
 40
0.3508812506
 40
0.3719232299
 40
0.3931714738
 40
0.4145860912
 40
0.4361267819
 40
0.4577529372
 40
0.47942374
 40
0.5010982647
 40
0.5227355766
 40
0.5442948315
 40
0.5657353757
 40
0.5870168455
 40
0.608099268
 40
0.628943162
 40
0.6495096405
 40
0.6697605141
 40
0.6896583964
 40
0.7091668111
 40
0.7282503034
 40
0.7468745548
 40
0.7650065038
 40
0.7826144744
 40
0.7996683149
 40
0.8161395488
 40
0.8320015451
 40
0.8472297111
 40
0.8618017176
 40
0.8756977675
 40
0.8823870871
 40
0.8889013284
 40
0.8952388858
 40
0.9013983901
 40
0.9073787355
 40
0.9131790737
 40
0.918798886
 40
0.9242379489
 40
0.9294964425
 40
0.9345749072
 40
0.9394743702
 40
0.9441963202
 40
0.9487428314
 40
0.9531165822
 40
0.9573209639
 40
0.9613601573
 40
0.9652392239
 40
0.9689642405
 40
0.9725423751
 40
0.9759820598
 40
0.97929305
 40
0.982486587
 40
0.9855754179
 40
0.9885738696
 40
0.9914977727
 40
0.9943643586
 40
0.997192021
 40
1.0
 40
1.0
 40
1.0
 40
1.0
 10
11.4530192219
 20
10.407540921
 30
0.0
 10
11.4515337847
 20
10.4061060987
 30
0.0
 10
11.4484343599
 20
10.4032466134
 30
0.0
 10
11.4435134378
 20
10.3990701392
 30
0.0
 10
11.4382311647
 20
10.3949236461
 30
0.0
 10
11.4325904296
 20
10.3908092885
 30
0.0
 10
11.4265939559
 20
10.3867290196
 30
0.0
 10
11.4202447182
 20
10.3826847859
 30
0.0
 10
11.413545869
 20
10.3786786009
 30
0.0
 10
11.4065007603
 20
10.374712471
 30
0.0
 10
11.399112923
 20
10.3707883467
 30
0.0
 10
11.3913860403
 20
10.3669082243
 30
0.0
 10
11.3833239996
 20
10.3630740035
 30
0.0
 10
11.3749308333
 20
10.35928767
 30
0.0
 10
11.3662107751
 20
10.3555510715
 30
0.0
 10
11.3571682007
 20
10.3518661578
 30
0.0
 10
11.3478076637
 20
10.3482347114
 30
0.0
 10
11.3347408529
 20
10.3434044375
 30
0.0
 10
11.3176384476
 20
10.337525854
 30
0.0
 10
11.2961808536
 20
10.3308011311
 30
0.0
 10
11.2735758652
 20
10.3243319685
 30
0.0
 10
11.2498691096
 20
10.3181315336
 30
0.0
 10
11.2251082729
 20
10.3122124541
 30
0.0
 10
11.1993432918
 20
10.3065867875
 30
0.0
 10
11.1726261547
 20
10.3012659938
 30
0.0
 10
11.1450108127
 20
10.2962609106
 30
0.0
 10
11.1165530571
 20
10.2915817309
 30
0.0
 10
11.0873104036
 20
10.2872379815
 30
0.0
 10
11.0573419711
 20
10.2832385044
 30
0.0
 10
11.02670836
 20
10.2795914393
 30
0.0
 10
10.9954715263
 20
10.2763042068
 30
0.0
 10
10.9636946552
 20
10.2733834943
 30
0.0
 10
10.931442031
 20
10.2708352426
 30
0.0
 10
10.8987789064
 20
10.2686646343
 30
0.0
 10
10.8657713689
 20
10.2668760834
 30
0.0
 10
10.8324862067
 20
10.265473226
 30
0.0
 10
10.7989907722
 20
10.264458914
 30
0.0
 10
10.765352845
 20
10.2638352092
 30
0.0
 10
10.7316404941
 20
10.2636033792
 30
0.0
 10
10.6979219395
 20
10.2637638953
 30
0.0
 10
10.6642654141
 20
10.2643164311
 30
0.0
 10
10.6307390243
 20
10.2652598635
 30
0.0
 10
10.5974106126
 20
10.2665922746
 30
0.0
 10
10.5643476189
 20
10.2683109559
 30
0.0
 10
10.5316169441
 20
10.2704124132
 30
0.0
 10
10.4992848133
 20
10.2728923737
 30
0.0
 10
10.4674166413
 20
10.2757457944
 30
0.0
 10
10.4360768985
 20
10.2789668714
 30
0.0
 10
10.4053289797
 20
10.282549052
 30
0.0
 10
10.3752350739
 20
10.2864850476
 30
0.0
 10
10.3458560372
 20
10.2907668481
 30
0.0
 10
10.3172512668
 20
10.2953857379
 30
0.0
 10
10.2894785788
 20
10.300332313
 30
0.0
 10
10.2625940862
 20
10.3055965001
 30
0.0
 10
10.2366520834
 20
10.311167577
 30
0.0
 10
10.211704923
 20
10.3170341951
 30
0.0
 10
10.1878029258
 20
10.3231844036
 30
0.0
 10
10.1649941855
 20
10.3296056754
 30
0.0
 10
10.1433247507
 20
10.3362849437
 30
0.0
 10
10.126039955
 20
10.3421263413
 30
0.0
 10
10.1128232365
 20
10.3469280024
 30
0.0
 10
10.1033482524
 20
10.3505395232
 30
0.0
 10
10.0941895389
 20
10.3542052056
 30
0.0
 10
10.0853517007
 20
10.3579232323
 30
0.0
 10
10.0768391825
 20
10.3616916968
 30
0.0
 10
10.0686562734
 20
10.3655087368
 30
0.0
 10
10.0608070695
 20
10.3693723823
 30
0.0
 10
10.0532955261
 20
10.37328075
 30
0.0
 10
10.046125384
 20
10.3772318197
 30
0.0
 10
10.0393002528
 20
10.3812236828
 30
0.0
 10
10.0328235155
 20
10.3852542956
 30
0.0
 10
10.0266984227
 20
10.3893217182
 30
0.0
 10
10.020928004
 20
10.3934239145
 30
0.0
 10
10.0155151403
 20
10.3975589134
 30
0.0
 10
10.0104625206
 20
10.4017247156
 30
0.0
 10
10.0057726543
 20
10.4059193288
 30
0.0
 10
10.0014479156
 20
10.4101408121
 30
0.0
 10
9.99749046
 20
10.4143871702
 30
0.0
 10
9.9939023892
 20
10.4186565231
 30
0.0
 10
9.9906855536
 20
10.4229468822
 30
0.0
 10
9.9878418379
 20
10.4272563882
 30
0.0
 10
9.9853728643
 20
10.4315830278
 30
0.0
 10
9.9832803359
 20
10.4359248458
 30
0.0
 10
9.9815656977
 20
10.4402796976
 30
0.0
 10
9.9802304084
 20
10.4446453216
 30
0.0
 10
9.9792756454
 20
10.449019377
 30
0.0
 10
9.9787023783
 20
10.4533987956
 30
0.0
 10
9.9785748138
 20
10.4563245918
 30
0.0
 10
9.978574818
 20
10.4577815952
 30
0.0
  0
SPLINE
  5
370
100
AcDbEntity
  8
0
100
AcDbSpline
 62
7
  6
CONTINUOUS
 70
0
 71
3
 72
18
 73
14
 74
0
 42
0.0000001
 43
0.0000001
 44
0.0000000001
 40
0.0
 40
0.0
 40
0.0
 40
0.0
 40
0.1504673397
 40
0.291710036
 40
0.4244360001
 40
0.5495624032
 40
0.6682140019
 40
0.7255497517
 40
0.7817912955
 40
0.8371402647
 40
0.891809381
 40
0.9460201143
 40
1.0
 40
1.0
 40
1.0
 40
1.0
 10
12.4488888253
 20
9.4034609092
 30
0.0
 10
12.4505709407
 20
9.405085708
 30
0.0
 10
12.4539327909
 20
9.4081342526
 30
0.0
 10
12.459138584
 20
9.4121969645
 30
0.0
 10
12.4643382669
 20
9.415594812
 30
0.0
 10
12.4695264515
 20
9.4183222098
 30
0.0
 10
12.4738870577
 20
9.4200516993
 30
0.0
 10
12.4773491919
 20
9.4210792498
 30
0.0
 10
12.4799089126
 20
9.4216715173
 30
0.0
 10
12.4824601399
 20
9.4220936492
 30
0.0
 10
12.4850021623
 20
9.4223454753
 30
0.0
 10
12.4875339654
 20
9.4224268815
 30
0.0
 10
12.4892160232
 20
9.4223673972
 30
0.0
 10
12.4900530149
 20
9.4223093554
 30
0.0
  0
SPLINE
  5
371
100
AcDbEntity
  8
0
100
AcDbSpline
 62
7
  6
CONTINUOUS
 70
0
 71
3
 72
23
 73
19
 74
0
 42
0.0000001
 43
0.0000001
 44
0.0000000001
 40
0.0
 40
0.0
 40
0.0
 40
0.0
 40
0.0637775561
 40
0.1273446565
 40
0.1907020307
 40
0.2538561431
 40
0.3168131834
 40
0.3795821015
 40
0.4421733894
 40
0.5045993415
 40
0.5668738676
 40
0.6290123791
 40
0.6910316472
 40
0.7529496401
 40
0.8147853492
 40
0.8765585998
 40
0.9382898533
 40
1.0
 40
1.0
 40
1.0
 40
1.0
 10
11.1661885572
 20
7.5331312799
 30
0.0
 10
11.1661885572
 20
7.5263425582
 30
0.0
 10
11.16586364
 20
7.5127852151
 30
0.0
 10
11.1643970209
 20
7.4925316344
 30
0.0
 10
11.1619551632
 20
7.4724386562
 30
0.0
 10
11.1585437957
 20
7.4525533235
 30
0.0
 10
11.1541706297
 20
7.4329212025
 30
0.0
 10
11.1488457529
 20
7.4135876387
 30
0.0
 10
11.1425813695
 20
7.3945971843
 30
0.0
 10
11.1353918835
 20
7.3759936398
 30
0.0
 10
11.1272938367
 20
7.3578199078
 30
0.0
 10
11.1183058699
 20
7.3401179053
 30
0.0
 10
11.108448683
 20
7.322928469
 30
0.0
 10
11.0977449724
 20
7.3062912455
 30
0.0
 10
11.0862194376
 20
7.2902446537
 30
0.0
 10
11.0738985084
 20
7.2748255929
 30
0.0
 10
11.060811089
 20
7.26007011
 30
0.0
 10
11.0515935068
 20
7.2506964975
 30
0.0
 10
11.0468689629
 20
7.24613295
 30
0.0
  0
SPLINE
  5
372
100
AcDbEntity
  8
0
100
AcDbSpline
 62
7
  6
CONTINUOUS
 70
0
 71
3
 72
21
 73
17
 74
0
 42
0.0000001
 43
0.0000001
 44
0.0000000001
 40
0.0
 40
0.0
 40
0.0
 40
0.0
 40
0.1273176984
 40
0.2537999461
 40
0.3167619614
 40
0.3795355204
 40
0.4421314992
 40
0.5045621453
 40
0.5668413456
 40
0.6289845231
 40
0.6910084433
 40
0.7529310869
 40
0.8147714401
 40
0.8765493236
 40
0.9382852134
 40
1.0
 40
1.0
 40
1.0
 40
1.0
 10
11.9939870394
 20
9.7398535137
 30
0.0
 10
11.9939870394
 20
9.7345562215
 30
0.0
 10
11.9934813775
 20
9.7239895787
 30
0.0
 10
11.9915716346
 20
9.7109269271
 30
0.0
 10
11.9892890869
 20
9.7006804208
 30
0.0
 10
11.9872075226
 20
9.6931225928
 30
0.0
 10
11.9847586866
 20
9.6856990636
 30
0.0
 10
11.9819482248
 20
9.6784267351
 30
0.0
 10
11.9787826169
 20
9.6713224271
 30
0.0
 10
11.9752690984
 20
9.6644025361
 30
0.0
 10
11.9714157972
 20
9.6576830132
 30
0.0
 10
11.9672315998
 20
9.6511793446
 30
0.0
 10
11.9627261153
 20
9.6449065795
 30
0.0
 10
11.9579097059
 20
9.6388791242
 30
0.0
 10
11.9527936928
 20
9.6331110467
 30
0.0
 10
11.9491904163
 20
9.6294468242
 30
0.0
 10
11.9473435379
 20
9.6276628875
 30
0.0
  0
SPLINE
  5
373
100
AcDbEntity
  8
0
100
AcDbSpline
 62
7
  6
CONTINUOUS
 70
0
 71
3
 72
21
 73
17
 74
0
 42
0.0000001
 43
0.0000001
 44
0.0000000001
 40
0.0
 40
0.0
 40
0.0
 40
0.0
 40
0.1273176984
 40
0.2537999461
 40
0.3167619614
 40
0.3795355204
 40
0.4421314992
 40
0.5045621453
 40
0.5668413456
 40
0.6289845231
 40
0.6910084433
 40
0.7529310869
 40
0.8147714401
 40
0.8765493236
 40
0.9382852134
 40
1.0
 40
1.0
 40
1.0
 40
1.0
 10
10.4243574787
 20
7.0108174539
 30
0.0
 10
10.4243574787
 20
7.0055201617
 30
0.0
 10
10.4238518167
 20
6.9949535188
 30
0.0
 10
10.4219420739
 20
6.9818908673
 30
0.0
 10
10.4196595262
 20
6.971644361
 30
0.0
 10
10.4175779618
 20
6.964086533
 30
0.0
 10
10.4151291258
 20
6.9566630038
 30
0.0
 10
10.4123186641
 20
6.9493906753
 30
0.0
 10
10.4091530562
 20
6.9422863673
 30
0.0
 10
10.4056395377
 20
6.9353664762
 30
0.0
 10
10.4017862365
 20
6.9286469534
 30
0.0
 10
10.3976020391
 20
6.9221432848
 30
0.0
 10
10.3930965546
 20
6.9158705197
 30
0.0
 10
10.3882801452
 20
6.9098430644
 30
0.0
 10
10.3831641321
 20
6.9040749869
 30
0.0
 10
10.3795608555
 20
6.9004107644
 30
0.0
 10
10.3777139771
 20
6.8986268277
 30
0.0
  0
SPLINE
  5
374
100
AcDbEntity
  8
0
100
AcDbSpline
 62
7
  6
CONTINUOUS
 70
0
 71
3
 72
39
 73
35
 74
0
 42
0.0000001
 43
0.0000001
 44
0.0000000001
 40
0.0
 40
0.0
 40
0.0
 40
0.0
 40
0.0314533787
 40
0.0627198421
 40
0.0938024302
 40
0.1247117849
 40
0.1554639237
 40
0.186080631
 40
0.2165881316
 40
0.2470161981
 40
0.2773970193
 40
0.3077642206
 40
0.3381520428
 40
0.3685946182
 40
0.3991251732
 40
0.4297753936
 40
0.4605749875
 40
0.4915510816
 40
0.5227271671
 40
0.5541220896
 40
0.5857487606
 40
0.6176121796
 40
0.6497070811
 40
0.6820151282
 40
0.7145016854
 40
0.7471126406
 40
0.7797720548
 40
0.812381587
 40
0.8448229848
 40
0.8769641275
 40
0.9086689106
 40
0.9398096103
 40
0.9702789983
 40
1.0
 40
1.0
 40
1.0
 40
1.0
 10
10.7461608052
 20
7.7549156024
 30
0.0
 10
10.7461608052
 20
7.7515000419
 30
0.0
 10
10.7463881802
 20
7.744686941
 30
0.0
 10
10.7474151947
 20
7.7345452609
 30
0.0
 10
10.7491175714
 20
7.7245543392
 30
0.0
 10
10.7514796414
 20
7.714756187
 30
0.0
 10
10.7544807519
 20
7.7051876739
 30
0.0
 10
10.758096133
 20
7.6958810156
 30
0.0
 10
10.762298172
 20
7.6868632266
 30
0.0
 10
10.767057476
 20
7.6781562695
 30
0.0
 10
10.7723439266
 20
7.6697773447
 30
0.0
 10
10.778127531
 20
7.6617393704
 30
0.0
 10
10.7843790978
 20
7.6540515488
 30
0.0
 10
10.7910707515
 20
7.646720028
 30
0.0
 10
10.7981762258
 20
7.6397485635
 30
0.0
 10
10.8056709822
 20
7.6331391315
 30
0.0
 10
10.8135321951
 20
7.6268924877
 30
0.0
 10
10.8217386228
 20
7.6210087588
 30
0.0
 10
10.8302702666
 20
7.6154879325
 30
0.0
 10
10.8391078942
 20
7.6103303024
 30
0.0
 10
10.8482324421
 20
7.6055369176
 30
0.0
 10
10.8576242196
 20
7.6011099879
 30
0.0
 10
10.8672618848
 20
7.5970531768
 30
0.0
 10
10.8771212847
 20
7.5933718714
 30
0.0
 10
10.887174161
 20
7.5900733134
 30
0.0
 10
10.897386863
 20
7.5871665348
 30
0.0
 10
10.9077193144
 20
7.58466203
 30
0.0
 10
10.918124577
 20
7.5825711324
 30
0.0
 10
10.9285493261
 20
7.5809051098
 30
0.0
 10
10.9389355111
 20
7.5796740694
 30
0.0
 10
10.9492231135
 20
7.5788858696
 30
0.0
 10
10.9593538397
 20
7.5785453131
 30
0.0
 10
10.9692742263
 20
7.5786537265
 30
0.0
 10
10.9758025325
 20
7.5790289964
 30
0.0
 10
10.9790191083
 20
7.5792935834
 30
0.0
  0
SPLINE
  5
375
100
AcDbEntity
  8
0
100
AcDbSpline
 62
7
  6
CONTINUOUS
 70
0
 71
3
 72
21
 73
17
 74
0
 42
0.0000001
 43
0.0000001
 44
0.0000000001
 40
0.0
 40
0.0
 40
0.0
 40
0.0
 40
0.1273175206
 40
0.2538000425
 40
0.3167619346
 40
0.3795354981
 40
0.4421315046
 40
0.5045621465
 40
0.5668413435
 40
0.6289845248
 40
0.6910084554
 40
0.7529310971
 40
0.8147714458
 40
0.876549335
 40
0.938285224
 40
1.0
 40
1.0
 40
1.0
 40
1.0
 10
10.9800794176
 20
7.5583636448
 30
0.0
 10
10.9800794176
 20
7.5511261287
 30
0.0
 10
10.9793885426
 20
7.5366892482
 30
0.0
 10
10.9767793713
 20
7.5188421464
 30
0.0
 10
10.9736608001
 20
7.5048426521
 30
0.0
 10
10.9708168253
 20
7.4945166315
 30
0.0
 10
10.9674711168
 20
7.4843740724
 30
0.0
 10
10.9636312898
 20
7.4744381054
 30
0.0
 10
10.959306219
 20
7.4647317101
 30
0.0
 10
10.9545058693
 20
7.4552772462
 30
0.0
 10
10.9492412706
 20
7.4460965413
 30
0.0
 10
10.9435245352
 20
7.4372107778
 30
0.0
 10
10.9373688872
 20
7.4286404548
 30
0.0
 10
10.9307884411
 20
7.4204052762
 30
0.0
 10
10.9237986013
 20
7.4125245225
 30
0.0
 10
10.9188756054
 20
7.4075181617
 30
0.0
 10
10.9163522802
 20
7.4050808172
 30
0.0
  0
SPLINE
  5
376
100
AcDbEntity
  8
0
100
AcDbSpline
 62
7
  6
CONTINUOUS
 70
0
 71
3
 72
39
 73
35
 74
0
 42
0.0000001
 43
0.0000001
 44
0.0000000001
 40
0.0
 40
0.0
 40
0.0
 40
0.0
 40
0.0310753278
 40
0.0623079062
 40
0.093693137
 40
0.1252222865
 40
0.1568840454
 40
0.1886642043
 40
0.2205461643
 40
0.2525112486
 40
0.2845391082
 40
0.3166081368
 40
0.3486959081
 40
0.3807796237
 40
0.412836566
 40
0.4448445497
 40
0.4767823661
 40
0.5086302138
 40
0.5403701085
 40
0.5719862661
 40
0.6034654517
 40
0.6347972864
 40
0.6659745051
 40
0.6969931566
 40
0.7278527388
 40
0.758556263
 40
0.78911024
 40
0.8195245851
 40
0.8498124377
 40
0.8799898969
 40
0.9100756761
 40
0.9400906823
 40
0.9700575294
 40
1.0
 40
1.0
 40
1.0
 40
1.0
 10
10.9800794176
 20
7.5583636448
 30
0.0
 10
10.9800794176
 20
7.5639890133
 30
0.0
 10
10.9796597786
 20
7.5752725452
 30
0.0
 10
10.9777861766
 20
7.5921438301
 30
0.0
 10
10.9746774099
 20
7.6089160486
 30
0.0
 10
10.970350652
 20
7.6254959068
 30
0.0
 10
10.9648298745
 20
7.6417926747
 30
0.0
 10
10.9581455043
 20
7.6577168246
 30
0.0
 10
10.9503343619
 20
7.6731809894
 30
0.0
 10
10.9414394139
 20
7.6881003072
 30
0.0
 10
10.9315095536
 20
7.702392917
 30
0.0
 10
10.9205993292
 20
7.7159803916
 30
0.0
 10
10.908768652
 20
7.7287881696
 30
0.0
 10
10.8960824663
 20
7.7407459572
 30
0.0
 10
10.8826103952
 20
7.7517881092
 30
0.0
 10
10.8684263633
 20
7.7618539862
 30
0.0
 10
10.8536081955
 20
7.7708882842
 30
0.0
 10
10.8382371956
 20
7.7788413361
 30
0.0
 10
10.8223977055
 20
7.7856693828
 30
0.0
 10
10.8061766492
 20
7.7913348133
 30
0.0
 10
10.7896630621
 20
7.7958063712
 30
0.0
 10
10.7729476111
 20
7.7990593349
 30
0.0
 10
10.7561221015
 20
7.8010756535
 30
0.0
 10
10.7392789791
 20
7.8018440503
 30
0.0
 10
10.7225108293
 20
7.8013600925
 30
0.0
 10
10.7059098722
 20
7.7996262251
 30
0.0
 10
10.6895674595
 20
7.7966517691
 30
0.0
 10
10.6735735696
 20
7.7924528803
 30
0.0
 10
10.6580163179
 20
7.7870524815
 30
0.0
 10
10.6429814359
 20
7.7804801176
 30
0.0
 10
10.6285518996
 20
7.7727719184
 30
0.0
 10
10.6148070406
 20
7.7639699979
 30
0.0
 10
10.6018236578
 20
7.7541237345
 30
0.0
 10
10.5937199618
 20
7.7468961813
 30
0.0
 10
10.5898213896
 20
7.7431304504
 30
0.0
  0
LINE
  5
377
100
AcDbEntity
  8
0
100
AcDbLine
 62
7
  6
CONTINUOUS
 10
11.1784971365
 20
10.3056191017
 11
11.1739235364
 21
10.3016302766
  0
LINE
  5
378
100
AcDbEntity
  8
0
100
AcDbLine
 62
7
  6
CONTINUOUS
 10
10.2832353196
 20
10.301622696
 11
10.2786518404
 21
10.3056197
  0
SPLINE
  5
379
100
AcDbEntity
  8
0
100
AcDbSpline
 62
7
  6
CONTINUOUS
 70
0
 71
3
 72
18
 73
14
 74
0
 42
0.0000001
 43
0.0000001
 44
0.0000000001
 40
0.0
 40
0.0
 40
0.0
 40
0.0
 40
0.0548620116
 40
0.1099280288
 40
0.1653995063
 40
0.2214731041
 40
0.278338737
 40
0.3361775376
 40
0.455406238
 40
0.580442112
 40
0.7123345554
 40
0.8519568421
 40
1.0
 40
1.0
 40
1.0
 40
1.0
 10
11.4785748005
 20
10.4577810281
 30
0.0
 10
11.4785747975
 20
10.456721825
 30
0.0
 10
11.4785075724
 20
10.4545988712
 30
0.0
 10
11.4782052568
 20
10.4514178955
 30
0.0
 10
11.4777015838
 20
10.4482387575
 30
0.0
 10
11.4769967794
 20
10.4450626029
 30
0.0
 10
11.4760910265
 20
10.4418902532
 30
0.0
 10
11.474601269
 20
10.4376243004
 30
0.0
 10
11.472214764
 20
10.4322887065
 30
0.0
 10
11.4685823003
 20
10.4259873796
 30
0.0
 10
11.4641582038
 20
10.4197268426
 30
0.0
 10
11.4589491763
 20
10.4135133547
 30
0.0
 10
11.4550750108
 20
10.4095266608
 30
0.0
 10
11.4530192219
 20
10.407540921
 30
0.0
  0
SPLINE
  5
37A
100
AcDbEntity
  8
0
100
AcDbSpline
 62
7
  6
CONTINUOUS
 70
0
 71
3
 72
46
 73
42
 74
0
 42
0.0000001
 43
0.0000001
 44
0.0000000001
 40
0.0
 40
0.0
 40
0.0
 40
0.0
 40
0.0149720525
 40
0.0299471649
 40
0.0449283772
 40
0.0599186917
 40
0.0749210573
 40
0.0899383484
 40
0.1049733476
 40
0.1200287333
 40
0.1351070597
 40
0.1502107421
 40
0.1653420474
 40
0.1805030776
 40
0.1956957572
 40
0.2109218287
 40
0.2414745667
 40
0.2721768461
 40
0.3030351766
 40
0.3340525707
 40
0.3652285255
 40
0.3965590884
 40
0.4280369959
 40
0.4596518697
 40
0.4913904744
 40
0.523237028
 40
0.5551735471
 40
0.5871802301
 40
0.6192358692
 40
0.6513182802
 40
0.6834047461
 40
0.7154724694
 40
0.7474990252
 40
0.7794628091
 40
0.811343472
 40
0.843122339
 40
0.8747828041
 40
0.9063106918
 40
0.9376946023
 40
0.9689259241
 40
1.0
 40
1.0
 40
1.0
 40
1.0
 10
10.4354933741
 20
7.8790783349
 30
0.0
 10
10.4391434493
 20
7.882604028
 30
0.0
 10
10.4465853942
 20
7.8895117747
 30
0.0
 10
10.4581524435
 20
7.8994227608
 30
0.0
 10
10.4701089944
 20
7.9088705768
 30
0.0
 10
10.4824383218
 20
7.9178420518
 30
0.0
 10
10.4951235203
 20
7.9263249033
 30
0.0
 10
10.5081471435
 20
7.9343073997
 30
0.0
 10
10.52149124
 20
7.9417786141
 30
0.0
 10
10.5351374471
 20
7.9487282688
 30
0.0
 10
10.5490670079
 20
7.9551467618
 30
0.0
 10
10.5632607209
 20
7.9610253226
 30
0.0
 10
10.5776990804
 20
7.9663558668
 30
0.0
 10
10.5923621565
 20
7.971131015
 30
0.0
 10
10.6072300401
 20
7.9753443028
 30
0.0
 10
10.6273197271
 20
7.9802101528
 30
0.0
 10
10.6528511616
 20
7.9848572384
 30
0.0
 10
10.6839330462
 20
7.9881033657
 30
0.0
 10
10.7153289038
 20
7.9890095157
 30
0.0
 10
10.7468648792
 20
7.9875707369
 30
0.0
 10
10.7783679396
 20
7.9837954448
 30
0.0
 10
10.809664915
 20
7.9777047582
 30
0.0
 10
10.8405839313
 20
7.9693324388
 30
0.0
 10
10.870955226
 20
7.9587247901
 30
0.0
 10
10.9006121091
 20
7.9459403602
 30
0.0
 10
10.9293918129
 20
7.9310495268
 30
0.0
 10
10.9571364179
 20
7.9141342242
 30
0.0
 10
10.9836937175
 20
7.8952874785
 30
0.0
 10
11.0089179778
 20
7.8746128074
 30
0.0
 10
11.032670779
 20
7.852223745
 30
0.0
 10
11.0548217959
 20
7.8282432348
 30
0.0
 10
11.0752494157
 20
7.8028028713
 30
0.0
 10
11.0938414497
 20
7.7760422496
 30
0.0
 10
11.1104958011
 20
7.7481082353
 30
0.0
 10
11.1251209077
 20
7.7191540843
 30
0.0
 10
11.1376362843
 20
7.689338675
 30
0.0
 10
11.1479730514
 20
7.6588256038
 30
0.0
 10
11.1560741924
 20
7.627782502
 30
0.0
 10
11.1618948431
 20
7.5963792313
 30
0.0
 10
11.1654028425
 20
7.5647904785
 30
0.0
 10
11.1661885572
 20
7.5436638784
 30
0.0
 10
11.1661885572
 20
7.5331312799
 30
0.0
  0
SPLINE
  5
37B
100
AcDbEntity
  8
0
100
AcDbSpline
 62
7
  6
CONTINUOUS
 70
0
 71
3
 72
11
 73
7
 74
0
 42
0.0000001
 43
0.0000001
 44
0.0000000001
 40
0.0
 40
0.0
 40
0.0
 40
0.0
 40
0.2520071408
 40
0.5027861234
 40
0.7521617076
 40
1.0
 40
1.0
 40
1.0
 40
1.0
 10
10.7529925479
 20
7.8009867746
 30
0.0
 10
10.7518741397
 20
7.7972242645
 30
0.0
 10
10.7498991519
 20
7.7896384197
 30
0.0
 10
10.7477527724
 20
7.778111325
 30
0.0
 10
10.7464530576
 20
7.766523381
 30
0.0
 10
10.7461608052
 20
7.758775885
 30
0.0
 10
10.7461608052
 20
7.7549156024
 30
0.0
  0
SPLINE
  5
37C
100
AcDbEntity
  8
0
100
AcDbSpline
 62
7
  6
CONTINUOUS
 70
0
 71
3
 72
42
 73
38
 74
0
 42
0.0000001
 43
0.0000001
 44
0.0000000001
 40
0.0
 40
0.0
 40
0.0
 40
0.0
 40
0.0299419634
 40
0.0449235299
 40
0.0599142017
 40
0.0899287029
 40
0.1200139772
 40
0.1350926626
 40
0.1501967046
 40
0.1804840506
 40
0.2108978877
 40
0.2414513551
 40
0.2721543675
 40
0.3030134354
 40
0.3340315696
 40
0.3652082675
 40
0.3965395775
 40
0.4280182343
 40
0.4596338596
 40
0.4913732188
 40
0.5232205284
 40
0.5551578047
 40
0.5871652463
 40
0.6192216448
 40
0.6513048151
 40
0.6833920402
 40
0.7154605222
 40
0.747487836
 40
0.7794523759
 40
0.8113337934
 40
0.8431134117
 40
0.8747746318
 40
0.9063032512
 40
0.9376879208
 40
0.9533258
 40
0.9689252634
 40
1.0
 40
1.0
 40
1.0
 40
1.0
 10
11.7083520371
 20
9.8750877324
 30
0.0
 10
11.7112054614
 20
9.8778439119
 30
0.0
 10
11.7156537957
 20
9.881811169
 30
0.0
 10
11.7218835876
 20
9.886733671
 30
0.0
 10
11.7283117671
 20
9.8914112219
 30
0.0
 10
11.7366994844
 20
9.8967825656
 30
0.0
 10
11.7454950176
 20
9.9014809369
 30
0.0
 10
11.752749053
 20
9.9048233629
 30
0.0
 10
11.7601529355
 20
9.9078898665
 30
0.0
 10
11.769651781
 20
9.9111872245
 30
0.0
 10
11.7813576683
 20
9.9142602795
 30
0.0
 10
11.7933189799
 20
9.9164373024
 30
0.0
 10
11.8054694279
 20
9.9177062828
 30
0.0
 10
11.8177422673
 20
9.9180604486
 30
0.0
 10
11.8300699695
 20
9.9174979974
 30
0.0
 10
11.8423847786
 20
9.9160221781
 30
0.0
 10
11.8546190302
 20
9.9136412449
 30
0.0
 10
11.8667055324
 20
9.9103684115
 30
0.0
 10
11.8785779258
 20
9.9062217733
 30
0.0
 10
11.8901710445
 20
9.901224205
 30
0.0
 10
11.9014212676
 20
9.8954032335
 30
0.0
 10
11.912266864
 20
9.888790886
 30
0.0
 10
11.9226483265
 20
9.8814235143
 30
0.0
 10
11.9325086943
 20
9.8733415963
 30
0.0
 10
11.9417938614
 20
9.8645895152
 30
0.0
 10
11.9504528708
 20
9.855215318
 30
0.0
 10
11.9584381905
 20
9.8452704548
 30
0.0
 10
11.9657059725
 20
9.8348094978
 30
0.0
 10
11.972216291
 20
9.8238898488
 30
0.0
 10
11.9779333599
 20
9.8125714155
 30
0.0
 10
11.9828257274
 20
9.8009163333
 30
0.0
 10
11.9868664576
 20
9.7889884559
 30
0.0
 10
11.9900332281
 20
9.776853649
 30
0.0
 10
11.9919317773
 20
9.7666105564
 30
0.0
 10
11.9929968072
 20
9.7583803556
 30
0.0
 10
11.9937568928
 20
9.7501580305
 30
0.0
 10
11.9939870394
 20
9.7439707863
 30
0.0
 10
11.9939870394
 20
9.7398535137
 30
0.0
  0
SPLINE
  5
37D
100
AcDbEntity
  8
0
100
AcDbSpline
 62
7
  6
CONTINUOUS
 70
0
 71
3
 72
42
 73
38
 74
0
 42
0.0000001
 43
0.0000001
 44
0.0000000001
 40
0.0
 40
0.0
 40
0.0
 40
0.0
 40
0.0299419634
 40
0.0449235299
 40
0.0599142017
 40
0.0899287029
 40
0.1200139772
 40
0.1350926626
 40
0.1501967046
 40
0.1804840506
 40
0.2108978877
 40
0.2414513551
 40
0.2721543675
 40
0.3030134354
 40
0.3340315696
 40
0.3652082675
 40
0.3965395775
 40
0.4280182343
 40
0.4596338596
 40
0.4913732188
 40
0.5232205284
 40
0.5551578047
 40
0.5871652463
 40
0.6192216448
 40
0.6513048151
 40
0.6833920402
 40
0.7154605222
 40
0.747487836
 40
0.7794523759
 40
0.8113337934
 40
0.8431134117
 40
0.8747746318
 40
0.9063032512
 40
0.9376879208
 40
0.9533258
 40
0.9689252634
 40
1.0
 40
1.0
 40
1.0
 40
1.0
 10
10.1387224763
 20
7.1460516726
 30
0.0
 10
10.1415759007
 20
7.1488078521
 30
0.0
 10
10.146024235
 20
7.1527751092
 30
0.0
 10
10.1522540269
 20
7.1576976112
 30
0.0
 10
10.1586822064
 20
7.1623751621
 30
0.0
 10
10.1670699237
 20
7.1677465058
 30
0.0
 10
10.1758654568
 20
7.1724448771
 30
0.0
 10
10.1831194923
 20
7.1757873031
 30
0.0
 10
10.1905233748
 20
7.1788538067
 30
0.0
 10
10.2000222203
 20
7.1821511647
 30
0.0
 10
10.2117281076
 20
7.1852242197
 30
0.0
 10
10.2236894192
 20
7.1874012426
 30
0.0
 10
10.2358398671
 20
7.188670223
 30
0.0
 10
10.2481127066
 20
7.1890243888
 30
0.0
 10
10.2604404088
 20
7.1884619376
 30
0.0
 10
10.2727552179
 20
7.1869861183
 30
0.0
 10
10.2849894695
 20
7.1846051851
 30
0.0
 10
10.2970759717
 20
7.1813323517
 30
0.0
 10
10.3089483651
 20
7.1771857134
 30
0.0
 10
10.3205414838
 20
7.1721881452
 30
0.0
 10
10.3317917069
 20
7.1663671737
 30
0.0
 10
10.3426373033
 20
7.1597548262
 30
0.0
 10
10.3530187658
 20
7.1523874545
 30
0.0
 10
10.3628791336
 20
7.1443055365
 30
0.0
 10
10.3721643007
 20
7.1355534553
 30
0.0
 10
10.38082331
 20
7.1261792582
 30
0.0
 10
10.3888086298
 20
7.116234395
 30
0.0
 10
10.3960764118
 20
7.1057734379
 30
0.0
 10
10.4025867303
 20
7.094853789
 30
0.0
 10
10.4083037992
 20
7.0835353557
 30
0.0
 10
10.4131961667
 20
7.0718802735
 30
0.0
 10
10.4172368968
 20
7.059952396
 30
0.0
 10
10.4204036673
 20
7.0478175891
 30
0.0
 10
10.4223022166
 20
7.0375744965
 30
0.0
 10
10.4233672464
 20
7.0293442958
 30
0.0
 10
10.4241273321
 20
7.0211219707
 30
0.0
 10
10.4243574787
 20
7.0149347265
 30
0.0
 10
10.4243574787
 20
7.0108174539
 30
0.0
  0
SPLINE
  5
37E
100
AcDbEntity
  8
0
100
AcDbSpline
 62
7
  6
CONTINUOUS
 70
0
 71
3
 72
91
 73
87
 74
0
 42
0.0000001
 43
0.0000001
 44
0.0000000001
 40
0.0
 40
0.0
 40
0.0
 40
0.0
 40
0.0027164149
 40
0.0054532017
 40
0.0082302519
 40
0.0110665199
 40
0.0139797039
 40
0.0169859829
 40
0.0200999141
 40
0.0233344008
 40
0.0267007145
 40
0.0302086362
 40
0.0338665065
 40
0.0376814358
 40
0.0416593677
 40
0.0458052497
 40
0.0501231396
 40
0.0546162795
 40
0.059287253
 40
0.0641379749
 40
0.0691698569
 40
0.0743837851
 40
0.0797802236
 40
0.0853592475
 40
0.091120549
 40
0.0970635401
 40
0.1031872872
 40
0.1094906342
 40
0.122629771
 40
0.1364673248
 40
0.150986028
 40
0.1661658166
 40
0.1819841497
 40
0.1984162706
 40
0.2154354241
 40
0.2330130434
 40
0.251118914
 40
0.2697213196
 40
0.2887871741
 40
0.3082821495
 40
0.3281707942
 40
0.3484166458
 40
0.3689823383
 40
0.3898297074
 40
0.4109198931
 40
0.4322134396
 40
0.4536703979
 40
0.4752504252
 40
0.496912883
 40
0.5186169358
 40
0.5403216477
 40
0.5619860811
 40
0.5835693946
 40
0.6050309417
 40
0.6263303693
 40
0.647427715
 40
0.6682835069
 40
0.6888588628
 40
0.7091155924
 40
0.7290163019
 40
0.7485244988
 40
0.7676046989
 40
0.7862225381
 40
0.8043448897
 40
0.8219399883
 40
0.8389775652
 40
0.8554289983
 40
0.8712674731
 40
0.8864681675
 40
0.9010084679
 40
0.9148682273
 40
0.928030078
 40
0.9343449249
 40
0.9404802778
 40
0.9464349222
 40
0.9522079436
 40
0.9577987067
 40
0.9632068911
 40
0.9684325654
 40
0.9734761401
 40
0.9783384911
 40
0.9830209352
 40
0.9875254368
 40
0.9918546053
 40
0.9960115672
 40
1.0
 40
1.0
 40
1.0
 40
1.0
 10
12.4077246356
 20
8.2351606616
 30
0.0
 10
12.4066141407
 20
8.2352376696
 30
0.0
 10
12.4043905093
 20
8.2354927738
 30
0.0
 10
12.4010833599
 20
8.2361753995
 30
0.0
 10
12.3978012222
 20
8.2371579804
 30
0.0
 10
12.3945463948
 20
8.2384394469
 30
0.0
 10
12.3913206033
 20
8.2400187665
 30
0.0
 10
12.3881254673
 20
8.2418946291
 30
0.0
 10
12.3849624715
 20
8.2440657292
 30
0.0
 10
12.3818330377
 20
8.2465307024
 30
0.0
 10
12.3787384747
 20
8.2492880662
 30
0.0
 10
12.3756801798
 20
8.2523363741
 30
0.0
 10
12.372659419
 20
8.2556739748
 30
0.0
 10
12.369677593
 20
8.2592992245
 30
0.0
 10
12.3667360129
 20
8.2632102857
 30
0.0
 10
12.363836048
 20
8.267405236
 30
0.0
 10
12.3609790784
 20
8.2718820171
 30
0.0
 10
12.3581664224
 20
8.2766384064
 30
0.0
 10
12.3553994963
 20
8.2816720867
 30
0.0
 10
12.3526795848
 20
8.2869805474
 30
0.0
 10
12.3500080772
 20
8.2925611829
 30
0.0
 10
12.3473862585
 20
8.2984112136
 30
0.0
 10
12.3448154401
 20
8.3045277378
 30
0.0
 10
12.3422969191
 20
8.310907714
 30
0.0
 10
12.3398319156
 20
8.3175479552
 30
0.0
 10
12.3374217212
 20
8.3244451543
 30
0.0
 10
12.3350674687
 20
8.3315958647
 30
0.0
 10
12.3319617176
 20
8.3416021983
 30
0.0
 10
12.3282389071
 20
8.3547245627
 30
0.0
 10
12.3240724418
 20
8.3712127662
 30
0.0
 10
12.3201557791
 20
8.3886201322
 30
0.0
 10
12.3164968652
 20
8.4069117632
 30
0.0
 10
12.3131031444
 20
8.4260511259
 30
0.0
 10
12.309981522
 20
8.4459998771
 30
0.0
 10
12.3071383521
 20
8.4667180275
 30
0.0
 10
12.3045794225
 20
8.4881640085
 30
0.0
 10
12.3023099432
 20
8.5102947673
 30
0.0
 10
12.300334536
 20
8.533065855
 30
0.0
 10
12.298657222
 20
8.5564315198
 30
0.0
 10
12.2972814169
 20
8.5803448021
 30
0.0
 10
12.2962099254
 20
8.6047576334
 30
0.0
 10
12.2954449353
 20
8.6296209343
 30
0.0
 10
12.2949880139
 20
8.6548847143
 30
0.0
 10
12.2948401052
 20
8.6804981731
 30
0.0
 10
12.2950015285
 20
8.7064098026
 30
0.0
 10
12.2954719744
 20
8.7325674916
 30
0.0
 10
12.296250509
 20
8.7589186317
 30
0.0
 10
12.2973355759
 20
8.7854102245
 30
0.0
 10
12.2987249998
 20
8.8119889883
 30
0.0
 10
12.3004159909
 20
8.8386014656
 30
0.0
 10
12.3024051503
 20
8.8651941303
 30
0.0
 10
12.3046884774
 20
8.891713496
 30
0.0
 10
12.3072613743
 20
8.9181062245
 30
0.0
 10
12.3101186583
 20
8.9443192339
 30
0.0
 10
12.3132545724
 20
8.9702998055
 30
0.0
 10
12.3166627968
 20
8.99599569
 30
0.0
 10
12.3203364613
 20
9.0213552127
 30
0.0
 10
12.3242681592
 20
9.0463273777
 30
0.0
 10
12.3284499618
 20
9.0708619725
 30
0.0
 10
12.3328734314
 20
9.0949096705
 30
0.0
 10
12.3375296408
 20
9.1184221319
 30
0.0
 10
12.3424091912
 20
9.1413521008
 30
0.0
 10
12.3475022308
 20
9.1636535012
 30
0.0
 10
12.3527984744
 20
9.185281532
 30
0.0
 10
12.3582872239
 20
9.2061927597
 30
0.0
 10
12.3639573909
 20
9.2263452108
 30
0.0
 10
12.3697975151
 20
9.2456984617
 30
0.0
 10
12.3757957929
 20
9.264213731
 30
0.0
 10
12.3819401023
 20
9.2818539415
 30
0.0
 10
12.3882180336
 20
9.2985838813
 30
0.0
 10
12.3946169124
 20
9.3143700197
 30
0.0
 10
12.4001125134
 20
9.3268794189
 30
0.0
 10
12.4045676451
 20
9.3363829948
 30
0.0
 10
12.4078850262
 20
9.3431568254
 30
0.0
 10
12.4112229674
 20
9.3496720511
 30
0.0
 10
12.4145797991
 20
9.3559254279
 30
0.0
 10
12.4179538327
 20
9.3619138347
 30
0.0
 10
12.4213434099
 20
9.3676342786
 30
0.0
 10
12.4247468024
 20
9.3730839329
 30
0.0
 10
12.4281623733
 20
9.37826006
 30
0.0
 10
12.4315883628
 20
9.3831601094
 30
0.0
 10
12.435023129
 20
9.3877816436
 30
0.0
 10
12.4384650033
 20
9.3921224152
 30
0.0
 10
12.4419123758
 20
9.3961803192
 30
0.0
 10
12.4453634222
 20
9.3999531534
 30
0.0
 10
12.447713259
 20
9.4023253993
 30
0.0
 10
12.4488888253
 20
9.4034609092
 30
0.0
  0
SPLINE
  5
37F
100
AcDbEntity
  8
0
100
AcDbSpline
 62
7
  6
CONTINUOUS
 70
0
 71
3
 72
61
 73
57
 74
0
 42
0.0000001
 43
0.0000001
 44
0.0000000001
 40
0.0
 40
0.0
 40
0.0
 40
0.0
 40
0.007520736
 40
0.0156240064
 40
0.0243308314
 40
0.0336545627
 40
0.0436023576
 40
0.0541762911
 40
0.065374298
 40
0.0771908404
 40
0.0896173637
 40
0.1026427459
 40
0.1162536401
 40
0.1304346776
 40
0.1451686827
 40
0.1604368921
 40
0.1762190747
 40
0.1924936262
 40
0.2092377338
 40
0.2264274719
 40
0.2440378492
 40
0.2620429285
 40
0.2804159201
 40
0.2991292233
 40
0.337462144
 40
0.3768083795
 40
0.4169255651
 40
0.4575651352
 40
0.4984743559
 40
0.5393983541
 40
0.5800821394
 40
0.6202726307
 40
0.6597206676
 40
0.6981830696
 40
0.7169711587
 40
0.73542544
 40
0.7535181279
 40
0.7712222409
 40
0.788511644
 40
0.8053611137
 40
0.821746466
 40
0.8376446296
 40
0.8530337122
 40
0.8678931419
 40
0.8822038118
 40
0.8959481707
 40
0.9091104
 40
0.921676668
 40
0.9336353219
 40
0.9449771721
 40
0.9556959291
 40
0.9657887028
 40
0.9752565161
 40
0.9841051753
 40
0.9923468585
 40
1.0
 40
1.0
 40
1.0
 40
1.0
 10
12.3789725314
 20
8.4316923371
 30
0.0
 10
12.3776654663
 20
8.4332994327
 30
0.0
 10
12.3750900961
 20
8.4367533959
 30
0.0
 10
12.3714659336
 20
8.4423956876
 30
0.0
 10
12.3679452172
 20
8.4486786806
 30
0.0
 10
12.3645335616
 20
8.4555921048
 30
0.0
 10
12.3612361362
 20
8.463125211
 30
0.0
 10
12.3580582212
 20
8.4712659094
 30
0.0
 10
12.3550049839
 20
8.480001079
 30
0.0
 10
12.3520814796
 20
8.4893165192
 30
0.0
 10
12.3492925481
 20
8.4991969895
 30
0.0
 10
12.3466428377
 20
8.5096262601
 30
0.0
 10
12.3441367968
 20
8.5205871574
 30
0.0
 10
12.3417786241
 20
8.5320615846
 30
0.0
 10
12.3395722625
 20
8.5440305618
 30
0.0
 10
12.3375214225
 20
8.5564742755
 30
0.0
 10
12.3356295566
 20
8.5693721065
 30
0.0
 10
12.3338998257
 20
8.5827026618
 30
0.0
 10
12.3323351344
 20
8.5964438235
 30
0.0
 10
12.3309381236
 20
8.6105727859
 30
0.0
 10
12.3297111277
 20
8.6250660892
 30
0.0
 10
12.328656207
 20
8.6398996559
 30
0.0
 10
12.3277751229
 20
8.6550488697
 30
0.0
 10
12.3268266186
 20
8.6758011521
 30
0.0
 10
12.3260945906
 20
8.7023440883
 30
0.0
 10
12.3259315767
 20
8.734792093
 30
0.0
 10
12.3264786183
 20
8.7678712959
 30
0.0
 10
12.3277322313
 20
8.8013619529
 30
0.0
 10
12.3296842216
 20
8.8350417361
 30
0.0
 10
12.3323216425
 20
8.868687
 30
0.0
 10
12.3356269808
 20
8.9020743291
 30
0.0
 10
12.3395781565
 20
8.9349820951
 30
0.0
 10
12.344148806
 20
8.9671917079
 30
0.0
 10
12.3484814062
 20
8.9934742984
 30
0.0
 10
12.3522421426
 20
9.0139849687
 30
0.0
 10
12.3551754378
 20
9.02894198
 30
0.0
 10
12.3582385035
 20
9.043568045
 30
0.0
 10
12.3614262439
 20
9.0578388922
 30
0.0
 10
12.3647333344
 20
9.0717308187
 30
0.0
 10
12.3681542732
 20
9.0852207572
 30
0.0
 10
12.3716833467
 20
9.09828632
 30
0.0
 10
12.3753146582
 20
9.1109058351
 30
0.0
 10
12.3790421568
 20
9.123058373
 30
0.0
 10
12.3828596271
 20
9.1347237947
 30
0.0
 10
12.3867606855
 20
9.145882795
 30
0.0
 10
12.3907388271
 20
9.1565169205
 30
0.0
 10
12.3947874356
 20
9.1666086083
 30
0.0
 10
12.3988997564
 20
9.1761412418
 30
0.0
 10
12.4030689541
 20
9.1850991664
 30
0.0
 10
12.4072881466
 20
9.1934677148
 30
0.0
 10
12.4115503806
 20
9.2012332733
 30
0.0
 10
12.4158487174
 20
9.208383308
 30
0.0
 10
12.4201762202
 20
9.2149063057
 30
0.0
 10
12.4245262667
 20
9.2207921432
 30
0.0
 10
12.428891862
 20
9.2260310404
 30
0.0
 10
12.4319178325
 20
9.2292015297
 30
0.0
 10
12.4334340104
 20
9.2306660452
 30
0.0
  0
SPLINE
  5
380
100
AcDbEntity
  8
0
100
AcDbSpline
 62
7
  6
CONTINUOUS
 70
0
 71
3
 72
9
 73
5
 74
0
 42
0.0000001
 43
0.0000001
 44
0.0000000001
 40
0.0
 40
0.0
 40
0.0
 40
0.0
 40
0.4960832116
 40
1.0
 40
1.0
 40
1.0
 40
1.0
 10
12.3688529511
 20
8.4583848364
 30
0.0
 10
12.3678330169
 20
8.4584555666
 30
0.0
 10
12.3657842528
 20
8.4587336719
 30
0.0
 10
12.3637890447
 20
8.4592738406
 30
0.0
 10
12.362804914
 20
8.4596055441
 30
0.0
  0
SPLINE
  5
381
100
AcDbEntity
  8
0
100
AcDbSpline
 62
7
  6
CONTINUOUS
 70
0
 71
3
 72
9
 73
5
 74
0
 42
0.0000001
 43
0.0000001
 44
0.0000000001
 40
0.0
 40
0.0
 40
0.0
 40
0.0
 40
0.4959653682
 40
1.0
 40
1.0
 40
1.0
 40
1.0
 10
12.4207409991
 20
9.2065877457
 30
0.0
 10
12.4197054388
 20
9.2066595596
 30
0.0
 10
12.4176055096
 20
9.2066649148
 30
0.0
 10
12.415523537
 20
9.2063951176
 30
0.0
 10
12.4144876573
 20
9.2061955092
 30
0.0
  0
SPLINE
  5
382
100
AcDbEntity
  8
0
100
AcDbSpline
 62
7
  6
CONTINUOUS
 70
0
 71
3
 72
18
 73
14
 74
0
 42
0.0000001
 43
0.0000001
 44
0.0000000001
 40
0.0
 40
0.0
 40
0.0
 40
0.0
 40
0.0548620116
 40
0.1099280288
 40
0.1653995063
 40
0.2214731041
 40
0.278338737
 40
0.3361775376
 40
0.455406238
 40
0.580442112
 40
0.7123345554
 40
0.8519568421
 40
1.0
 40
1.0
 40
1.0
 40
1.0
 10
9.978574818
 20
10.4577815952
 30
0.0
 10
9.978574821
 20
10.4588407984
 30
0.0
 10
9.9786420461
 20
10.4609637522
 30
0.0
 10
9.9789443617
 20
10.4641447278
 30
0.0
 10
9.9794480347
 20
10.4673238658
 30
0.0
 10
9.9801528391
 20
10.4705000204
 30
0.0
 10
9.981058592
 20
10.4736723701
 30
0.0
 10
9.9825483495
 20
10.4779383229
 30
0.0
 10
9.9849348544
 20
10.4832739168
 30
0.0
 10
9.9885673181
 20
10.4895752437
 30
0.0
 10
9.9929914146
 20
10.4958357808
 30
0.0
 10
9.9982004422
 20
10.5020492686
 30
0.0
 10
10.0020746076
 20
10.5060359626
 30
0.0
 10
10.0041303966
 20
10.5080217023
 30
0.0
  0
SPLINE
  5
383
100
AcDbEntity
  8
0
100
AcDbSpline
 62
7
  6
CONTINUOUS
 70
0
 71
3
 72
74
 73
70
 74
0
 42
0.0000001
 43
0.0000001
 44
0.0000000001
 40
0.0
 40
0.0
 40
0.0
 40
0.0
 40
0.0040238046
 40
0.0081866324
 40
0.0124904874
 40
0.0169369898
 40
0.0215274084
 40
0.0262626557
 40
0.0311433853
 40
0.0361699509
 40
0.046660395
 40
0.0577328534
 40
0.0693825864
 40
0.0816022176
 40
0.0943820653
 40
0.1077104251
 40
0.1215737994
 40
0.1359570806
 40
0.1508437004
 40
0.1662157529
 40
0.1820541193
 40
0.1983385698
 40
0.215047852
 40
0.2321597663
 40
0.249651239
 40
0.2674984014
 40
0.2856766556
 40
0.3041607357
 40
0.3229247633
 40
0.3419423104
 40
0.3611864601
 40
0.3806298629
 40
0.4200026365
 40
0.4598357886
 40
0.4999004651
 40
0.5399660854
 40
0.5798020655
 40
0.6191795235
 40
0.6386259585
 40
0.6578735926
 40
0.6768950651
 40
0.6956634521
 40
0.7141523219
 40
0.7323357892
 40
0.7501885725
 40
0.7676860571
 40
0.7848043658
 40
0.8015204186
 40
0.8178120001
 40
0.8336578337
 40
0.8490376688
 40
0.8639323752
 40
0.8783240336
 40
0.8921960478
 40
0.905533275
 40
0.918322191
 40
0.9305510705
 40
0.9422102012
 40
0.9532921578
 40
0.9586152944
 40
0.9637925965
 40
0.968823936
 40
0.9737094259
 40
0.9784494393
 40
0.9830445834
 40
0.9874957843
 40
0.9918042626
 40
0.9959716401
 40
1.0
 40
1.0
 40
1.0
 40
1.0
 10
11.4420590604
 20
10.3978380096
 30
0.0
 10
11.4405192053
 20
10.3990680697
 30
0.0
 10
11.4373445715
 20
10.4015188478
 30
0.0
 10
11.4323896097
 20
10.405108507
 30
0.0
 10
11.4271633938
 20
10.4086722378
 30
0.0
 10
11.4216679777
 20
10.4122086365
 30
0.0
 10
11.4159054234
 20
10.4157163587
 30
0.0
 10
11.409877959
 20
10.419194108
 30
0.0
 10
11.403587853
 20
10.4226405429
 30
0.0
 10
11.3947275935
 20
10.4272581163
 30
0.0
 10
11.3830012301
 20
10.4329315409
 30
0.0
 10
11.368115998
 20
10.4395004113
 30
0.0
 10
11.3522458782
 20
10.4459135405
 30
0.0
 10
11.3354151991
 20
10.452161041
 30
0.0
 10
11.3176495657
 20
10.4582332978
 30
0.0
 10
11.2989761671
 20
10.4641209268
 30
0.0
 10
11.2794236105
 20
10.4698148158
 30
0.0
 10
11.2590218986
 20
10.4753061405
 30
0.0
 10
11.2378023745
 20
10.4805863838
 30
0.0
 10
11.2157976738
 20
10.4856473648
 30
0.0
 10
11.1930416625
 20
10.4904812371
 30
0.0
 10
11.1695693765
 20
10.4950805052
 30
0.0
 10
11.1454169671
 20
10.4994380343
 30
0.0
 10
11.1206216488
 20
10.5035470676
 30
0.0
 10
11.0952216404
 20
10.5074012415
 30
0.0
 10
11.0692560987
 20
10.5109945834
 30
0.0
 10
11.042765055
 20
10.5143215248
 30
0.0
 10
11.0157893569
 20
10.5173769057
 30
0.0
 10
10.9883706035
 20
10.5201559966
 30
0.0
 10
10.9605510942
 20
10.5226544903
 30
0.0
 10
10.9323737018
 20
10.5248685422
 30
0.0
 10
10.8942266175
 20
10.5274473506
 30
0.0
 10
10.845968573
 20
10.5299294739
 30
0.0
 10
10.7875738844
 20
10.5317187671
 30
0.0
 10
10.7288154384
 20
10.5323196769
 30
0.0
 10
10.6700555088
 20
10.5317285119
 30
0.0
 10
10.6116563809
 20
10.5299489169
 30
0.0
 10
10.5633927545
 20
10.5274748155
 30
0.0
 10
10.5252397412
 20
10.5249023867
 30
0.0
 10
10.4970568509
 20
10.5226930238
 30
0.0
 10
10.4692311396
 20
10.5201991533
 30
0.0
 10
10.4418054889
 20
10.5174246156
 30
0.0
 10
10.4148222045
 20
10.5143737179
 30
0.0
 10
10.3883228959
 20
10.5110511847
 30
0.0
 10
10.3623484281
 20
10.5074621617
 30
0.0
 10
10.3369388504
 20
10.5036122056
 30
0.0
 10
10.3121333309
 20
10.499507288
 30
0.0
 10
10.2879700977
 20
10.495153773
 30
0.0
 10
10.2644863832
 20
10.4905584095
 30
0.0
 10
10.2417183643
 20
10.4857283184
 30
0.0
 10
10.2197010984
 20
10.4806709869
 30
0.0
 10
10.1984684639
 20
10.4753942626
 30
0.0
 10
10.1780531098
 20
10.4699063276
 30
0.0
 10
10.1584864073
 20
10.4642156887
 30
0.0
 10
10.1397983853
 20
10.4583311562
 30
0.0
 10
10.1220176942
 20
10.4522618419
 30
0.0
 10
10.1051714649
 20
10.4460171244
 30
0.0
 10
10.0892855713
 20
10.4396066496
 30
0.0
 10
10.0767043081
 20
10.4340628288
 30
0.0
 10
10.0671472406
 20
10.4295442084
 30
0.0
 10
10.0603308174
 20
10.4261654793
 30
0.0
 10
10.0537720313
 20
10.4227527841
 30
0.0
 10
10.0474733838
 20
10.4193073982
 30
0.0
 10
10.0414372697
 20
10.4158306725
 30
0.0
 10
10.0356660189
 20
10.4123238795
 30
0.0
 10
10.0301618267
 20
10.4087884132
 30
0.0
 10
10.0249267808
 20
10.4052255808
 30
0.0
 10
10.019962929
 20
10.4016367413
 30
0.0
 10
10.0167822296
 20
10.3991865303
 30
0.0
 10
10.0152393183
 20
10.3979567231
 30
0.0
  0
SPLINE
  5
384
100
AcDbEntity
  8
0
100
AcDbSpline
 62
7
  6
CONTINUOUS
 70
0
 71
3
 72
71
 73
67
 74
0
 42
0.0000001
 43
0.0000001
 44
0.0000000001
 40
0.0
 40
0.0
 40
0.0
 40
0.0
 40
0.015584053
 40
0.0311160245
 40
0.0465952359
 40
0.0620238753
 40
0.0774034566
 40
0.0927362788
 40
0.1080251228
 40
0.1232731735
 40
0.1384840555
 40
0.1536617757
 40
0.168810689
 40
0.1839354529
 40
0.1990409785
 40
0.2141323819
 40
0.2292149313
 40
0.2442939893
 40
0.2593749543
 40
0.2744632039
 40
0.2895640398
 40
0.3046826297
 40
0.3198239509
 40
0.3349927393
 40
0.3501934428
 40
0.3654301763
 40
0.3807066785
 40
0.3960262755
 40
0.4113918547
 40
0.4268058378
 40
0.4422701589
 40
0.4577862483
 40
0.4733550284
 40
0.4889769088
 40
0.5046517849
 40
0.5203790429
 40
0.5361575753
 40
0.5519857957
 40
0.5678616545
 40
0.5837826616
 40
0.5997459172
 40
0.6157481409
 40
0.6317856999
 40
0.6478546446
 40
0.6639507495
 40
0.6800695506
 40
0.6962063821
 40
0.7123564197
 40
0.7285147264
 40
0.7446762932
 40
0.7608360806
 40
0.7769890646
 40
0.7931302829
 40
0.8092548751
 40
0.8253581239
 40
0.8414355002
 40
0.8574827052
 40
0.8734957057
 40
0.8894707703
 40
0.9054045154
 40
0.9212939103
 40
0.9371363704
 40
0.9529297322
 40
0.9686719981
 40
0.9843628241
 40
1.0
 40
1.0
 40
1.0
 40
1.0
 10
11.0012926291
 20
7.5488540349
 30
0.0
 10
11.0012926291
 20
7.5446733599
 30
0.0
 10
11.0010880092
 20
7.5363245001
 30
0.0
 10
11.0001644802
 20
7.5238538424
 30
0.0
 10
10.9986268509
 20
7.5114855778
 30
0.0
 10
10.9964789934
 20
7.4992501038
 30
0.0
 10
10.9937259087
 20
7.4871766493
 30
0.0
 10
10.9903742625
 20
7.4752943992
 30
0.0
 10
10.986432117
 20
7.4636319782
 30
0.0
 10
10.981908929
 20
7.4522175111
 30
0.0
 10
10.976815558
 20
7.441078539
 30
0.0
 10
10.9711642868
 20
7.4302419184
 30
0.0
 10
10.9649687304
 20
7.4197337837
 30
0.0
 10
10.9582438043
 20
7.4095794887
 30
0.0
 10
10.9510056908
 20
7.3998035484
 30
0.0
 10
10.9432718612
 20
7.3904295329
 30
0.0
 10
10.9350609689
 20
7.3814800496
 30
0.0
 10
10.9263928071
 20
7.3729766933
 30
0.0
 10
10.9172882647
 20
7.3649399966
 30
0.0
 10
10.9077693249
 20
7.3573893217
 30
0.0
 10
10.8978589563
 20
7.3503428662
 30
0.0
 10
10.8875810611
 20
7.343817623
 30
0.0
 10
10.876960421
 20
7.3378293416
 30
0.0
 10
10.8660226731
 20
7.3323924236
 30
0.0
 10
10.8547942046
 20
7.327519951
 30
0.0
 10
10.8433020928
 20
7.3232236583
 30
0.0
 10
10.8315740447
 20
7.3195139058
 30
0.0
 10
10.8196383512
 20
7.316399583
 30
0.0
 10
10.8075237898
 20
7.3138881589
 30
0.0
 10
10.7952595601
 20
7.3119856651
 30
0.0
 10
10.7828752183
 20
7.3106966833
 30
0.0
 10
10.7704006131
 20
7.3100242604
 30
0.0
 10
10.7578658
 20
7.3099699761
 30
0.0
 10
10.7453009738
 20
7.3105339398
 30
0.0
 10
10.732736402
 20
7.3117147901
 30
0.0
 10
10.7202023436
 20
7.3135096265
 30
0.0
 10
10.7077289787
 20
7.31591409
 30
0.0
 10
10.6953463403
 20
7.3189223738
 30
0.0
 10
10.6830842479
 20
7.3225272356
 30
0.0
 10
10.6709722141
 20
7.3267199468
 30
0.0
 10
10.6590393903
 20
7.3314903844
 30
0.0
 10
10.6473145007
 20
7.3368270543
 30
0.0
 10
10.6358257779
 20
7.3427171165
 30
0.0
 10
10.6246008622
 20
7.349146353
 30
0.0
 10
10.6136667635
 20
7.356099268
 30
0.0
 10
10.6030498008
 20
7.363559123
 30
0.0
 10
10.5927755427
 20
7.3715079742
 30
0.0
 10
10.5828687017
 20
7.37992666
 30
0.0
 10
10.5733531155
 20
7.3887949058
 30
0.0
 10
10.5642516925
 20
7.3980913703
 30
0.0
 10
10.5555863608
 20
7.4077936932
 30
0.0
 10
10.5473779616
 20
7.417878502
 30
0.0
 10
10.5396462488
 20
7.4283215194
 30
0.0
 10
10.5324098453
 20
7.4390976172
 30
0.0
 10
10.5256862005
 20
7.4501808733
 30
0.0
 10
10.5194914867
 20
7.4615445981
 30
0.0
 10
10.5138406191
 20
7.4731614387
 30
0.0
 10
10.508747222
 20
7.4850034401
 30
0.0
 10
10.504223597
 20
7.4970421095
 30
0.0
 10
10.5002806331
 20
7.5092484577
 30
0.0
 10
10.4969278248
 20
7.5215931
 30
0.0
 10
10.4941732787
 20
7.5340463406
 30
0.0
 10
10.4920237115
 20
7.5465781152
 30
0.0
 10
10.4904841835
 20
7.5591585149
 30
0.0
 10
10.4895586245
 20
7.5717566459
 30
0.0
 10
10.4893519109
 20
7.5801623182
 30
0.0
 10
10.4893519109
 20
7.5843572443
 30
0.0
  0
SPLINE
  5
385
100
AcDbEntity
  8
0
100
AcDbSpline
 62
7
  6
CONTINUOUS
 70
0
 71
3
 72
21
 73
17
 74
0
 42
0.0000001
 43
0.0000001
 44
0.0000000001
 40
0.0
 40
0.0
 40
0.0
 40
0.0
 40
0.1273176984
 40
0.2537999461
 40
0.3167619614
 40
0.3795355204
 40
0.4421314992
 40
0.5045621453
 40
0.5668413456
 40
0.6289845231
 40
0.6910084433
 40
0.7529310869
 40
0.8147714401
 40
0.8765493236
 40
0.9382852134
 40
1.0
 40
1.0
 40
1.0
 40
1.0
 10
10.0920789748
 20
7.0338610464
 30
0.0
 10
10.0920789748
 20
7.0391583386
 30
0.0
 10
10.0925846367
 20
7.0497249814
 30
0.0
 10
10.0944943796
 20
7.062787633
 30
0.0
 10
10.0967769273
 20
7.0730341392
 30
0.0
 10
10.0988584916
 20
7.0805919673
 30
0.0
 10
10.1013073276
 20
7.0880154965
 30
0.0
 10
10.1041177894
 20
7.095287825
 30
0.0
 10
10.1072833973
 20
7.1023921329
 30
0.0
 10
10.1107969158
 20
7.109312024
 30
0.0
 10
10.114650217
 20
7.1160315469
 30
0.0
 10
10.1188344143
 20
7.1225352155
 30
0.0
 10
10.1233398989
 20
7.1288079806
 30
0.0
 10
10.1281563083
 20
7.1348354359
 30
0.0
 10
10.1332723214
 20
7.1406035134
 30
0.0
 10
10.1368755979
 20
7.1442677359
 30
0.0
 10
10.1387224763
 20
7.1460516726
 30
0.0
  0
SPLINE
  5
386
100
AcDbEntity
  8
0
100
AcDbSpline
 62
7
  6
CONTINUOUS
 70
0
 71
3
 72
93
 73
89
 74
0
 42
0.0000001
 43
0.0000001
 44
0.0000000001
 40
0.0
 40
0.0
 40
0.0
 40
0.0
 40
0.0039802005
 40
0.0081241083
 40
0.0124359116
 40
0.0169192331
 40
0.0215771071
 40
0.0264118291
 40
0.0314250775
 40
0.0366180274
 40
0.0419913947
 40
0.0475454967
 40
0.0532802394
 40
0.0591952227
 40
0.0652896963
 40
0.071562666
 40
0.0780128361
 40
0.0846387029
 40
0.0984099586
 40
0.1128604728
 40
0.1279709419
 40
0.1437194762
 40
0.1600818774
 40
0.1770318697
 40
0.1945412988
 40
0.2125803054
 40
0.2311174799
 40
0.2501200027
 40
0.2695537746
 40
0.2893835385
 40
0.3095729955
 40
0.3300849166
 40
0.3508812506
 40
0.3719232299
 40
0.3931714738
 40
0.4145860912
 40
0.4361267819
 40
0.4577529372
 40
0.47942374
 40
0.5010982647
 40
0.5227355766
 40
0.5442948315
 40
0.5657353757
 40
0.5870168455
 40
0.608099268
 40
0.628943162
 40
0.6495096405
 40
0.6697605141
 40
0.6896583964
 40
0.7091668111
 40
0.7282503034
 40
0.7468745548
 40
0.7650065038
 40
0.7826144744
 40
0.7996683149
 40
0.8161395488
 40
0.8320015451
 40
0.8472297111
 40
0.8618017176
 40
0.8756977675
 40
0.8823870871
 40
0.8889013284
 40
0.8952388858
 40
0.9013983901
 40
0.9073787355
 40
0.9131790737
 40
0.918798886
 40
0.9242379489
 40
0.9294964425
 40
0.9345749072
 40
0.9394743702
 40
0.9441963202
 40
0.9487428314
 40
0.9531165822
 40
0.9573209639
 40
0.9613601573
 40
0.9652392239
 40
0.9689642405
 40
0.9725423751
 40
0.9759820598
 40
0.97929305
 40
0.982486587
 40
0.9855754179
 40
0.9885738696
 40
0.9914977727
 40
0.9943643586
 40
0.997192021
 40
1.0
 40
1.0
 40
1.0
 40
1.0
 10
10.0041303966
 20
10.5080217023
 30
0.0
 10
10.0056158338
 20
10.5094565246
 30
0.0
 10
10.0087152586
 20
10.5123160099
 30
0.0
 10
10.0136361807
 20
10.5164924841
 30
0.0
 10
10.0189184538
 20
10.5206389772
 30
0.0
 10
10.0245591888
 20
10.5247533348
 30
0.0
 10
10.0305556625
 20
10.5288336038
 30
0.0
 10
10.0369049003
 20
10.5328778374
 30
0.0
 10
10.0436037494
 20
10.5368840225
 30
0.0
 10
10.0506488581
 20
10.5408501523
 30
0.0
 10
10.0580366954
 20
10.5447742767
 30
0.0
 10
10.0657635782
 20
10.548654399
 30
0.0
 10
10.0738256188
 20
10.5524886199
 30
0.0
 10
10.0822187852
 20
10.5562749533
 30
0.0
 10
10.0909388434
 20
10.5600115518
 30
0.0
 10
10.0999814177
 20
10.5636964655
 30
0.0
 10
10.1093419547
 20
10.567327912
 30
0.0
 10
10.1224087655
 20
10.5721581858
 30
0.0
 10
10.1395111709
 20
10.5780367693
 30
0.0
 10
10.1609687648
 20
10.5847614922
 30
0.0
 10
10.1835737532
 20
10.5912306548
 30
0.0
 10
10.2072805089
 20
10.5974310897
 30
0.0
 10
10.2320413455
 20
10.6033501692
 30
0.0
 10
10.2578063267
 20
10.6089758358
 30
0.0
 10
10.2845234638
 20
10.6142966295
 30
0.0
 10
10.3121388058
 20
10.6193017127
 30
0.0
 10
10.3405965613
 20
10.6239808924
 30
0.0
 10
10.3698392149
 20
10.6283246419
 30
0.0
 10
10.3998076473
 20
10.6323241189
 30
0.0
 10
10.4304412585
 20
10.635971184
 30
0.0
 10
10.4616780921
 20
10.6392584165
 30
0.0
 10
10.4934549633
 20
10.642179129
 30
0.0
 10
10.5257075874
 20
10.6447273807
 30
0.0
 10
10.5583707121
 20
10.646897989
 30
0.0
 10
10.5913782495
 20
10.6486865399
 30
0.0
 10
10.6246634117
 20
10.6500893973
 30
0.0
 10
10.6581588462
 20
10.6511037093
 30
0.0
 10
10.6917967734
 20
10.6517274142
 30
0.0
 10
10.7255091244
 20
10.6519592441
 30
0.0
 10
10.7592276789
 20
10.6517987281
 30
0.0
 10
10.7928842044
 20
10.6512461923
 30
0.0
 10
10.8264105941
 20
10.6503027599
 30
0.0
 10
10.8597390059
 20
10.6489703487
 30
0.0
 10
10.8928019995
 20
10.6472516674
 30
0.0
 10
10.9255326744
 20
10.6451502101
 30
0.0
 10
10.9578648052
 20
10.6426702496
 30
0.0
 10
10.9897329772
 20
10.6398168289
 30
0.0
 10
11.02107272
 20
10.6365957519
 30
0.0
 10
11.0518206388
 20
10.6330135713
 30
0.0
 10
11.0819145445
 20
10.6290775757
 30
0.0
 10
11.1112935813
 20
10.6247957752
 30
0.0
 10
11.1398983516
 20
10.6201768854
 30
0.0
 10
11.1676710397
 20
10.6152303104
 30
0.0
 10
11.1945555322
 20
10.6099661233
 30
0.0
 10
11.220497535
 20
10.6043950463
 30
0.0
 10
11.2454446955
 20
10.5985284282
 30
0.0
 10
11.2693466926
 20
10.5923782198
 30
0.0
 10
11.292155433
 20
10.5859569479
 30
0.0
 10
11.3138248678
 20
10.5792776796
 30
0.0
 10
11.3311096634
 20
10.573436282
 30
0.0
 10
11.344326382
 20
10.5686346209
 30
0.0
 10
11.3538013661
 20
10.5650231002
 30
0.0
 10
11.3629600795
 20
10.5613574178
 30
0.0
 10
11.3717979177
 20
10.557639391
 30
0.0
 10
11.380310436
 20
10.5538709265
 30
0.0
 10
11.388493345
 20
10.5500538866
 30
0.0
 10
11.396342549
 20
10.5461902411
 30
0.0
 10
11.4038540924
 20
10.5422818733
 30
0.0
 10
11.4110242345
 20
10.5383308037
 30
0.0
 10
11.4178493657
 20
10.5343389405
 30
0.0
 10
11.424326103
 20
10.5303083277
 30
0.0
 10
11.4304511958
 20
10.5262409051
 30
0.0
 10
11.4362216145
 20
10.5221387088
 30
0.0
 10
11.4416344782
 20
10.5180037099
 30
0.0
 10
11.4466870979
 20
10.5138379077
 30
0.0
 10
11.4513769641
 20
10.5096432945
 30
0.0
 10
11.4557017029
 20
10.5054218112
 30
0.0
 10
11.4596591585
 20
10.5011754531
 30
0.0
 10
11.4632472293
 20
10.4969061002
 30
0.0
 10
11.4664640649
 20
10.4926157411
 30
0.0
 10
11.4693077806
 20
10.4883062352
 30
0.0
 10
11.4717767542
 20
10.4839795955
 30
0.0
 10
11.4738692825
 20
10.4796377775
 30
0.0
 10
11.4755839208
 20
10.4752829258
 30
0.0
 10
11.4769192101
 20
10.4709173018
 30
0.0
 10
11.477873973
 20
10.4665432464
 30
0.0
 10
11.4784472401
 20
10.4621638277
 30
0.0
 10
11.4785748046
 20
10.4592380316
 30
0.0
 10
11.4785748005
 20
10.4577810281
 30
0.0
  0
SPLINE
  5
387
100
AcDbEntity
  8
0
100
AcDbSpline
 62
7
  6
CONTINUOUS
 70
0
 71
3
 72
71
 73
67
 74
0
 42
0.0000001
 43
0.0000001
 44
0.0000000001
 40
0.0
 40
0.0
 40
0.0
 40
0.0
 40
0.0156371759
 40
0.0313280019
 40
0.0470702678
 40
0.0628636296
 40
0.0787060897
 40
0.0945954846
 40
0.1105292297
 40
0.1265042943
 40
0.1425172948
 40
0.1585644998
 40
0.1746418761
 40
0.1907451249
 40
0.2068697171
 40
0.2230109354
 40
0.2391639194
 40
0.2553237068
 40
0.2714852736
 40
0.2876435803
 40
0.3037936179
 40
0.3199304494
 40
0.3360492505
 40
0.3521453554
 40
0.3682143001
 40
0.3842518591
 40
0.4002540828
 40
0.4162173384
 40
0.4321383455
 40
0.4480142043
 40
0.4638424247
 40
0.4796209571
 40
0.4953482151
 40
0.5110230912
 40
0.5266449716
 40
0.5422137517
 40
0.5577298411
 40
0.5731941622
 40
0.5886081453
 40
0.6039737245
 40
0.6192933215
 40
0.6345698237
 40
0.6498065572
 40
0.6650072607
 40
0.6801760491
 40
0.6953173703
 40
0.7104359602
 40
0.7255367961
 40
0.7406250457
 40
0.7557060107
 40
0.7707850687
 40
0.7858676181
 40
0.8009590215
 40
0.8160645471
 40
0.831189311
 40
0.8463382243
 40
0.8615159445
 40
0.8767268265
 40
0.8919748772
 40
0.9072637212
 40
0.9225965434
 40
0.9379761247
 40
0.9534047641
 40
0.9688839755
 40
0.984415947
 40
1.0
 40
1.0
 40
1.0
 40
1.0
 10
11.0012926291
 20
7.5488540349
 30
0.0
 10
11.0012926291
 20
7.553048961
 30
0.0
 10
11.0010859155
 20
7.5614546333
 30
0.0
 10
11.0001603565
 20
7.5740527643
 30
0.0
 10
10.9986208285
 20
7.5866331639
 30
0.0
 10
10.9964712613
 20
7.5991649386
 30
0.0
 10
10.9937167152
 20
7.6116181791
 30
0.0
 10
10.9903639069
 20
7.6239628214
 30
0.0
 10
10.986420943
 20
7.6361691696
 30
0.0
 10
10.981897318
 20
7.648207839
 30
0.0
 10
10.9768039209
 20
7.6600498405
 30
0.0
 10
10.9711530533
 20
7.6716666811
 30
0.0
 10
10.9649583395
 20
7.6830304058
 30
0.0
 10
10.9582346947
 20
7.694113662
 30
0.0
 10
10.9509982912
 20
7.7048897598
 30
0.0
 10
10.9432665784
 20
7.7153327771
 30
0.0
 10
10.9350581792
 20
7.725417586
 30
0.0
 10
10.9263928475
 20
7.7351199089
 30
0.0
 10
10.9172914245
 20
7.7444163734
 30
0.0
 10
10.9077758383
 20
7.7532846192
 30
0.0
 10
10.8978689973
 20
7.761703305
 30
0.0
 10
10.8875947392
 20
7.7696521562
 30
0.0
 10
10.8769777764
 20
7.7771120112
 30
0.0
 10
10.8660436778
 20
7.7840649261
 30
0.0
 10
10.8548187621
 20
7.7904941626
 30
0.0
 10
10.8433300393
 20
7.7963842248
 30
0.0
 10
10.8316051497
 20
7.8017208947
 30
0.0
 10
10.8196723259
 20
7.8064913324
 30
0.0
 10
10.8075602921
 20
7.8106840436
 30
0.0
 10
10.7952981997
 20
7.8142889054
 30
0.0
 10
10.7829155613
 20
7.8172971891
 30
0.0
 10
10.7704421964
 20
7.8197016526
 30
0.0
 10
10.757908138
 20
7.821496489
 30
0.0
 10
10.7453435661
 20
7.8226773394
 30
0.0
 10
10.73277874
 20
7.8232413031
 30
0.0
 10
10.7202439269
 20
7.8231870188
 30
0.0
 10
10.7077693217
 20
7.8225145959
 30
0.0
 10
10.6953849799
 20
7.8212256141
 30
0.0
 10
10.6831207502
 20
7.8193231203
 30
0.0
 10
10.6710061888
 20
7.8168116961
 30
0.0
 10
10.6590704953
 20
7.8136973734
 30
0.0
 10
10.6473424472
 20
7.8099876208
 30
0.0
 10
10.6358503354
 20
7.8056913281
 30
0.0
 10
10.6246218669
 20
7.8008188556
 30
0.0
 10
10.613684119
 20
7.7953819375
 30
0.0
 10
10.6030634789
 20
7.7893936562
 30
0.0
 10
10.5927855837
 20
7.782868413
 30
0.0
 10
10.5828752151
 20
7.7758219575
 30
0.0
 10
10.5733562753
 20
7.7682712825
 30
0.0
 10
10.5642517329
 20
7.7602345859
 30
0.0
 10
10.5555835711
 20
7.7517312296
 30
0.0
 10
10.5473726788
 20
7.7427817463
 30
0.0
 10
10.5396388492
 20
7.7334077307
 30
0.0
 10
10.5324007357
 20
7.7236317905
 30
0.0
 10
10.5256758096
 20
7.7134774955
 30
0.0
 10
10.5194802532
 20
7.7029693608
 30
0.0
 10
10.513828982
 20
7.6921327402
 30
0.0
 10
10.508735611
 20
7.6809937681
 30
0.0
 10
10.504212423
 20
7.669579301
 30
0.0
 10
10.5002702775
 20
7.65791688
 30
0.0
 10
10.4969186313
 20
7.6460346298
 30
0.0
 10
10.4941655465
 20
7.6339611754
 30
0.0
 10
10.4920176891
 20
7.6217257014
 30
0.0
 10
10.4904800598
 20
7.6093574368
 30
0.0
 10
10.4895565307
 20
7.5968867791
 30
0.0
 10
10.4893519109
 20
7.5885379193
 30
0.0
 10
10.4893519109
 20
7.5843572443
 30
0.0
  0
SPLINE
  5
388
100
AcDbEntity
  8
0
100
AcDbSpline
 62
7
  6
CONTINUOUS
 70
0
 71
3
 72
46
 73
42
 74
0
 42
0.0000001
 43
0.0000001
 44
0.0000000001
 40
0.0
 40
0.0
 40
0.0
 40
0.0
 40
0.0149720525
 40
0.0299471649
 40
0.0449283772
 40
0.0599186917
 40
0.0749210573
 40
0.0899383484
 40
0.1049733476
 40
0.1200287333
 40
0.1351070597
 40
0.1502107421
 40
0.1653420474
 40
0.1805030776
 40
0.1956957572
 40
0.2109218287
 40
0.2414745667
 40
0.2721768461
 40
0.3030351766
 40
0.3340525707
 40
0.3652285255
 40
0.3965590884
 40
0.4280369959
 40
0.4596518697
 40
0.4913904744
 40
0.523237028
 40
0.5551735471
 40
0.5871802301
 40
0.6192358692
 40
0.6513182802
 40
0.6834047461
 40
0.7154724694
 40
0.7474990252
 40
0.7794628091
 40
0.811343472
 40
0.843122339
 40
0.8747828041
 40
0.9063106918
 40
0.9376946023
 40
0.9689259241
 40
1.0
 40
1.0
 40
1.0
 40
1.0
 10
11.0468689629
 20
7.24613295
 30
0.0
 10
11.0432188877
 20
7.2426072569
 30
0.0
 10
11.0357769428
 20
7.2356995102
 30
0.0
 10
11.0242098934
 20
7.2257885241
 30
0.0
 10
11.0122533426
 20
7.2163407081
 30
0.0
 10
10.9999240152
 20
7.2073692331
 30
0.0
 10
10.9872388167
 20
7.1988863816
 30
0.0
 10
10.9742151935
 20
7.1909038852
 30
0.0
 10
10.960871097
 20
7.1834326708
 30
0.0
 10
10.9472248899
 20
7.1764830161
 30
0.0
 10
10.9332953291
 20
7.1700645231
 30
0.0
 10
10.9191016161
 20
7.1641859623
 30
0.0
 10
10.9046632565
 20
7.1588554181
 30
0.0
 10
10.8900001805
 20
7.15408027
 30
0.0
 10
10.8751322969
 20
7.1498669821
 30
0.0
 10
10.8550426099
 20
7.1450011321
 30
0.0
 10
10.8295111754
 20
7.1403540465
 30
0.0
 10
10.7984292908
 20
7.1371079192
 30
0.0
 10
10.7670334332
 20
7.1362017692
 30
0.0
 10
10.7354974577
 20
7.137640548
 30
0.0
 10
10.7039943973
 20
7.1414158401
 30
0.0
 10
10.672697422
 20
7.1475065267
 30
0.0
 10
10.6417784057
 20
7.1558788462
 30
0.0
 10
10.611407111
 20
7.1664864948
 30
0.0
 10
10.5817502279
 20
7.1792709248
 30
0.0
 10
10.5529705241
 20
7.1941617581
 30
0.0
 10
10.5252259191
 20
7.2110770607
 30
0.0
 10
10.4986686195
 20
7.2299238064
 30
0.0
 10
10.4734443592
 20
7.2505984775
 30
0.0
 10
10.449691558
 20
7.2729875399
 30
0.0
 10
10.4275405411
 20
7.2969680501
 30
0.0
 10
10.4071129213
 20
7.3224084136
 30
0.0
 10
10.3885208873
 20
7.3491690354
 30
0.0
 10
10.3718665359
 20
7.3771030496
 30
0.0
 10
10.3572414293
 20
7.4060572006
 30
0.0
 10
10.3447260527
 20
7.4358726099
 30
0.0
 10
10.3343892856
 20
7.4663856811
 30
0.0
 10
10.3262881446
 20
7.4974287829
 30
0.0
 10
10.3204674939
 20
7.5288320536
 30
0.0
 10
10.3169594945
 20
7.5604208064
 30
0.0
 10
10.3161737797
 20
7.5815474065
 30
0.0
 10
10.3161737797
 20
7.592080005
 30
0.0
  0
SPLINE
  5
389
100
AcDbEntity
  8
0
100
AcDbSpline
 62
7
  6
CONTINUOUS
 70
0
 71
3
 72
39
 73
35
 74
0
 42
0.0000001
 43
0.0000001
 44
0.0000000001
 40
0.0
 40
0.0
 40
0.0
 40
0.0
 40
0.0299377059
 40
0.0599040296
 40
0.0899223011
 40
0.1200146053
 40
0.1502012657
 40
0.1805003782
 40
0.2109274105
 40
0.2414948792
 40
0.2722121041
 40
0.30308504
 40
0.3341161987
 40
0.3653046476
 40
0.3966460771
 40
0.4281329424
 40
0.4597546683
 40
0.4914979049
 40
0.523346829
 40
0.5552834915
 40
0.5872881942
 40
0.6193398896
 40
0.6514166045
 40
0.6834958745
 40
0.715555185
 40
0.7475724136
 40
0.779526266
 40
0.8113967008
 40
0.8431653398
 40
0.8748158472
 40
0.9063342829
 40
0.9377094559
 40
0.9689328727
 40
1.0
 40
1.0
 40
1.0
 40
1.0
 10
11.0468395739
 20
7.2461647297
 30
0.0
 10
11.0394780417
 20
7.2392648759
 30
0.0
 10
11.024195119
 20
7.2260351181
 30
0.0
 10
10.9997645023
 20
7.2080521137
 30
0.0
 10
10.9739492695
 20
7.1920181196
 30
0.0
 10
10.9468919787
 20
7.1780219936
 30
0.0
 10
10.9187396022
 20
7.16613931
 30
0.0
 10
10.8896456707
 20
7.1564346027
 30
0.0
 10
10.8597686149
 20
7.1489602925
 30
0.0
 10
10.8292710738
 20
7.1437566995
 30
0.0
 10
10.7983189645
 20
7.1408517688
 30
0.0
 10
10.7670805964
 20
7.1402608567
 30
0.0
 10
10.7357257335
 20
7.1419867748
 30
0.0
 10
10.7044246938
 20
7.1460198078
 30
0.0
 10
10.6733474271
 20
7.1523376851
 30
0.0
 10
10.642662594
 20
7.1609057517
 30
0.0
 10
10.6125366819
 20
7.1716772301
 30
0.0
 10
10.5831331131
 20
7.1845934365
 30
0.0
 10
10.5546113353
 20
7.1995840372
 30
0.0
 10
10.527126007
 20
7.2165675328
 30
0.0
 10
10.5008261837
 20
7.2354516933
 30
0.0
 10
10.4758544617
 20
7.2561339699
 30
0.0
 10
10.4523462416
 20
7.278502105
 30
0.0
 10
10.430429039
 20
7.3024347676
 30
0.0
 10
10.4102217663
 20
7.3278021586
 30
0.0
 10
10.3918340513
 20
7.3544666852
 30
0.0
 10
10.3753657233
 20
7.3822837612
 30
0.0
 10
10.3609062785
 20
7.4111025711
 30
0.0
 10
10.3485343003
 20
7.4407668096
 30
0.0
 10
10.3383171081
 20
7.4711156375
 30
0.0
 10
10.3303104114
 20
7.5019842904
 30
0.0
 10
10.324558006
 20
7.5332058317
 30
0.0
 10
10.3210912988
 20
7.5646086369
 30
0.0
 10
10.3203148812
 20
7.5856097591
 30
0.0
 10
10.3203148812
 20
7.5960800021
 30
0.0
  0
SPLINE
  5
38A
100
AcDbEntity
  8
0
100
AcDbSpline
 62
7
  6
CONTINUOUS
 70
0
 71
3
 72
15
 73
11
 74
0
 42
0.0000001
 43
0.0000001
 44
0.0000000001
 40
0.0
 40
0.0
 40
0.0
 40
0.0
 40
0.12656008
 40
0.252648392
 40
0.3782623189
 40
0.5034236476
 40
0.6281497749
 40
0.7524666547
 40
0.8764049426
 40
1.0
 40
1.0
 40
1.0
 40
1.0
 10
10.7162475958
 20
7.7260216592
 30
0.0
 10
10.7162475958
 20
7.7293163146
 30
0.0
 10
10.716427181
 20
7.7358947962
 30
0.0
 10
10.7172379514
 20
7.7457132154
 30
0.0
 10
10.7185874048
 20
7.7554357954
 30
0.0
 10
10.7204713598
 20
7.7650329322
 30
0.0
 10
10.7228843388
 20
7.7744761076
 30
0.0
 10
10.7258191639
 20
7.7837370913
 30
0.0
 10
10.7292669041
 20
7.792787803
 30
0.0
 10
10.731904292
 20
7.7986718498
 30
0.0
 10
10.7333045743
 20
7.8015686265
 30
0.0
  0
SPLINE
  5
38B
100
AcDbEntity
  8
0
100
AcDbSpline
 62
7
  6
CONTINUOUS
 70
0
 71
3
 72
39
 73
35
 74
0
 42
0.0000001
 43
0.0000001
 44
0.0000000001
 40
0.0
 40
0.0
 40
0.0
 40
0.0
 40
0.0299424706
 40
0.0599093177
 40
0.0899243239
 40
0.1200101031
 40
0.1501875623
 40
0.1804754149
 40
0.21088976
 40
0.241443737
 40
0.2721472612
 40
0.3030068434
 40
0.3340254949
 40
0.3652027136
 40
0.3965345483
 40
0.4280137339
 40
0.4596298915
 40
0.4913697862
 40
0.5232176339
 40
0.5551554503
 40
0.587163434
 40
0.6192203763
 40
0.6513040919
 40
0.6833918632
 40
0.7154608918
 40
0.7474887514
 40
0.7794538357
 40
0.8113357957
 40
0.8431159546
 40
0.8747777135
 40
0.906306863
 40
0.9376920938
 40
0.9689246722
 40
1.0
 40
1.0
 40
1.0
 40
1.0
 10
10.9163522802
 20
7.4050808172
 30
0.0
 10
10.9124537081
 20
7.4013150864
 30
0.0
 10
10.9043500121
 20
7.3940875332
 30
0.0
 10
10.8913666292
 20
7.3842412697
 30
0.0
 10
10.8776217702
 20
7.3754393493
 30
0.0
 10
10.863192234
 20
7.36773115
 30
0.0
 10
10.8481573519
 20
7.3611587862
 30
0.0
 10
10.8326001003
 20
7.3557583874
 30
0.0
 10
10.8166062104
 20
7.3515594986
 30
0.0
 10
10.8002637977
 20
7.3485850426
 30
0.0
 10
10.7836628406
 20
7.3468511752
 30
0.0
 10
10.7668946908
 20
7.3463672174
 30
0.0
 10
10.7500515684
 20
7.3471356141
 30
0.0
 10
10.7332260587
 20
7.3491519328
 30
0.0
 10
10.7165106078
 20
7.3524048965
 30
0.0
 10
10.6999970207
 20
7.3568764544
 30
0.0
 10
10.6837759644
 20
7.3625418849
 30
0.0
 10
10.6679364743
 20
7.3693699315
 30
0.0
 10
10.6525654743
 20
7.3773229835
 30
0.0
 10
10.6377473066
 20
7.3863572815
 30
0.0
 10
10.6235632747
 20
7.3964231585
 30
0.0
 10
10.6100912036
 20
7.4074653105
 30
0.0
 10
10.5974050178
 20
7.4194230981
 30
0.0
 10
10.5855743407
 20
7.4322308761
 30
0.0
 10
10.5746641163
 20
7.4458183507
 30
0.0
 10
10.564734256
 20
7.4601109605
 30
0.0
 10
10.5558393079
 20
7.4750302783
 30
0.0
 10
10.5480281656
 20
7.4904944431
 30
0.0
 10
10.5413437954
 20
7.506418593
 30
0.0
 10
10.5358230179
 20
7.5227153609
 30
0.0
 10
10.53149626
 20
7.5392952191
 30
0.0
 10
10.5283874933
 20
7.5560674376
 30
0.0
 10
10.5265138913
 20
7.5729387225
 30
0.0
 10
10.5260942523
 20
7.5842222544
 30
0.0
 10
10.5260942523
 20
7.5898476229
 30
0.0
  0
SPLINE
  5
38C
100
AcDbEntity
  8
0
100
AcDbSpline
 62
7
  6
CONTINUOUS
 70
0
 71
3
 72
39
 73
35
 74
0
 42
0.0000001
 43
0.0000001
 44
0.0000000001
 40
0.0
 40
0.0
 40
0.0
 40
0.0
 40
0.0301474175
 40
0.0604059028
 40
0.090782378
 40
0.1212819915
 40
0.1519080634
 40
0.1826620594
 40
0.2135435923
 40
0.2445504506
 40
0.2756786514
 40
0.3069225168
 40
0.338274771
 40
0.3697266566
 40
0.4012680674
 40
0.4328876952
 40
0.4645731909
 40
0.4963113345
 40
0.5280882138
 40
0.5598894089
 40
0.5917001828
 40
0.623505673
 40
0.6552910861
 40
0.6870418901
 40
0.7187440059
 40
0.7503839937
 40
0.7819492357
 40
0.8134281038
 40
0.8448101395
 40
0.8760861459
 40
0.9072485171
 40
0.9382907968
 40
0.9692091933
 40
1.0
 40
1.0
 40
1.0
 40
1.0
 10
10.9686438532
 20
7.4881397711
 30
0.0
 10
10.9643689933
 20
7.4868633368
 30
0.0
 10
10.9557208562
 20
7.4845739734
 30
0.0
 10
10.9425371179
 20
7.4819486949
 30
0.0
 10
10.9291644278
 20
7.4801348299
 30
0.0
 10
10.9156517734
 20
7.4791390658
 30
0.0
 10
10.9020477928
 20
7.4789648642
 30
0.0
 10
10.888401666
 20
7.4796127931
 30
0.0
 10
10.8747626505
 20
7.4810804348
 30
0.0
 10
10.8611799823
 20
7.4833624219
 30
0.0
 10
10.8477026785
 20
7.4864504516
 30
0.0
 10
10.8343793682
 20
7.4903333192
 30
0.0
 10
10.8212581166
 20
7.4949969592
 30
0.0
 10
10.8083862543
 20
7.5004244963
 30
0.0
 10
10.7958102083
 20
7.5065963077
 30
0.0
 10
10.7835753335
 20
7.5134900897
 30
0.0
 10
10.7717257519
 20
7.5210809416
 30
0.0
 10
10.7603041954
 20
7.5293414564
 30
0.0
 10
10.7493518526
 20
7.5382418189
 30
0.0
 10
10.7389082218
 20
7.5477499127
 30
0.0
 10
10.7290109699
 20
7.5578314355
 30
0.0
 10
10.7196957972
 20
7.5684500218
 30
0.0
 10
10.71099631
 20
7.5795673731
 30
0.0
 10
10.7029438997
 20
7.5911433951
 30
0.0
 10
10.6955676311
 20
7.6031363411
 30
0.0
 10
10.6888941328
 20
7.6155029591
 30
0.0
 10
10.6829475072
 20
7.6281986495
 30
0.0
 10
10.6777492378
 20
7.6411776255
 30
0.0
 10
10.6733181284
 20
7.6543930697
 30
0.0
 10
10.669670193
 20
7.6677973327
 30
0.0
 10
10.6668186949
 20
7.6813419853
 30
0.0
 10
10.6647739027
 20
7.6949783924
 30
0.0
 10
10.6635433744
 20
7.7086566165
 30
0.0
 10
10.663268233
 20
7.717790952
 30
0.0
 10
10.663268233
 20
7.7223475214
 30
0.0
  0
SPLINE
  5
38D
100
AcDbEntity
  8
0
100
AcDbSpline
 62
7
  6
CONTINUOUS
 70
0
 71
3
 72
28
 73
24
 74
0
 42
0.0000001
 43
0.0000001
 44
0.0000000001
 40
0.0
 40
0.0
 40
0.0
 40
0.0
 40
0.0749525414
 40
0.1455492598
 40
0.2121319828
 40
0.2751267504
 40
0.3350537751
 40
0.3925311517
 40
0.4205831712
 40
0.4482964194
 40
0.4757713564
 40
0.5031112904
 40
0.5304212607
 40
0.5578066529
 40
0.585371914
 40
0.6132193169
 40
0.6414476915
 40
0.6701515776
 40
0.7293157133
 40
0.7913812221
 40
0.8568968201
 40
0.9263175734
 40
1.0
 40
1.0
 40
1.0
 40
1.0
 10
10.2786518404
 20
10.3056197
 30
0.0
 10
10.2773033034
 20
10.3068746501
 30
0.0
 10
10.2747593564
 20
10.3093941439
 30
0.0
 10
10.27132678
 20
10.3133249175
 30
0.0
 10
10.2683997068
 20
10.3172868004
 30
0.0
 10
10.2659824596
 20
10.3212764751
 30
0.0
 10
10.2640791786
 20
10.3252899598
 30
0.0
 10
10.262915374
 20
10.3286795989
 30
0.0
 10
10.2622545193
 20
10.3313847445
 30
0.0
 10
10.2618925039
 20
10.3333996819
 30
0.0
 10
10.2616604389
 20
10.3354160504
 30
0.0
 10
10.2615584286
 20
10.3374332758
 30
0.0
 10
10.2615865267
 20
10.3394506829
 30
0.0
 10
10.2617446811
 20
10.3414676206
 30
0.0
 10
10.2620328451
 20
10.3434834421
 30
0.0
 10
10.2624509046
 20
10.3454974891
 30
0.0
 10
10.2629986726
 20
10.347509204
 30
0.0
 10
10.2639106366
 20
10.3502143706
 30
0.0
 10
10.2653892821
 20
10.3535986358
 30
0.0
 10
10.2676608234
 20
10.3575951943
 30
0.0
 10
10.2704434985
 20
10.3615654528
 30
0.0
 10
10.2737328554
 20
10.3655052901
 30
0.0
 10
10.2761849324
 20
10.3680313912
 30
0.0
 10
10.2774874422
 20
10.3692895192
 30
0.0
  0
SPLINE
  5
38E
100
AcDbEntity
  8
0
100
AcDbSpline
 62
7
  6
CONTINUOUS
 70
0
 71
3
 72
23
 73
19
 74
0
 42
0.0000001
 43
0.0000001
 44
0.0000000001
 40
0.0
 40
0.0
 40
0.0
 40
0.0
 40
0.0616994034
 40
0.1234251675
 40
0.1851973347
 40
0.2470354909
 40
0.3089585741
 40
0.3709846903
 40
0.4331309434
 40
0.4954132778
 40
0.557846327
 40
0.6204432945
 40
0.6832158241
 40
0.7461738639
 40
0.8093259129
 40
0.8726776493
 40
0.9362357225
 40
1.0
 40
1.0
 40
1.0
 40
1.0
 10
10.4355238589
 20
7.8790476534
 30
0.0
 10
10.4309531247
 20
7.8744979367
 30
0.0
 10
10.4220380253
 20
7.8651638218
 30
0.0
 10
10.4093862482
 20
7.8505023084
 30
0.0
 10
10.3974803884
 20
7.8352098611
 30
0.0
 10
10.3863473547
 20
7.8193209479
 30
0.0
 10
10.3760117664
 20
7.8028707686
 30
0.0
 10
10.3664966121
 20
7.7858959347
 30
0.0
 10
10.3578229978
 20
7.7684341852
 30
0.0
 10
10.3500101717
 20
7.7505243452
 30
0.0
 10
10.3430754628
 20
7.7322062268
 30
0.0
 10
10.3370342494
 20
7.7135205434
 30
0.0
 10
10.3318999326
 20
7.6945088264
 30
0.0
 10
10.3276838533
 20
7.675213298
 30
0.0
 10
10.3243953878
 20
7.655676928
 30
0.0
 10
10.3220416727
 20
7.6359428273
 30
0.0
 10
10.3206280746
 20
7.6160555692
 30
0.0
 10
10.3203148812
 20
7.6027449835
 30
0.0
 10
10.3203148812
 20
7.5960800021
 30
0.0
  0
SPLINE
  5
38F
100
AcDbEntity
  8
0
100
AcDbSpline
 62
7
  6
CONTINUOUS
 70
0
 71
3
 72
21
 73
17
 74
0
 42
0.0000001
 43
0.0000001
 44
0.0000000001
 40
0.0
 40
0.0
 40
0.0
 40
0.0
 40
0.061714776
 40
0.123450665
 40
0.1852285542
 40
0.2470689029
 40
0.3089915446
 40
0.3710154752
 40
0.4331586565
 40
0.4954378535
 40
0.5578684954
 40
0.6204645019
 40
0.6832380654
 40
0.7461999575
 40
0.8726824794
 40
1.0
 40
1.0
 40
1.0
 40
1.0
 10
10.5898213896
 20
7.7431304504
 30
0.0
 10
10.5872980645
 20
7.740693106
 30
0.0
 10
10.5823750686
 20
7.7356867452
 30
0.0
 10
10.5753852288
 20
7.7278059915
 30
0.0
 10
10.5688047826
 20
7.7195708129
 30
0.0
 10
10.5626491347
 20
7.7110004899
 30
0.0
 10
10.5569323992
 20
7.7021147264
 30
0.0
 10
10.5516678006
 20
7.6929340215
 30
0.0
 10
10.5468674509
 20
7.6834795576
 30
0.0
 10
10.5425423801
 20
7.6737731623
 30
0.0
 10
10.5387025531
 20
7.6638371953
 30
0.0
 10
10.5353568446
 20
7.6536946362
 30
0.0
 10
10.5325128698
 20
7.6433686156
 30
0.0
 10
10.5293942986
 20
7.6293691213
 30
0.0
 10
10.5267851273
 20
7.6115220195
 30
0.0
 10
10.5260942523
 20
7.597085139
 30
0.0
 10
10.5260942523
 20
7.5898476229
 30
0.0
  0
SPLINE
  5
390
100
AcDbEntity
  8
0
100
AcDbSpline
 62
7
  6
CONTINUOUS
 70
0
 71
3
 72
11
 73
7
 74
0
 42
0.0000001
 43
0.0000001
 44
0.0000000001
 40
0.0
 40
0.0
 40
0.0
 40
0.0
 40
0.248070702
 40
0.4973757535
 40
0.7479993143
 40
1.0
 40
1.0
 40
1.0
 40
1.0
 10
10.6746457029
 20
7.7925215285
 30
0.0
 10
10.6727616132
 20
7.7869274978
 30
0.0
 10
10.6694484114
 20
7.7755492598
 30
0.0
 10
10.6658869979
 20
7.7580912722
 30
0.0
 10
10.6637425917
 20
7.7403092619
 30
0.0
 10
10.663268233
 20
7.7283438283
 30
0.0
 10
10.663268233
 20
7.7223475214
 30
0.0
  0
SPLINE
  5
391
100
AcDbEntity
  8
0
100
AcDbSpline
 62
7
  6
CONTINUOUS
 70
0
 71
3
 72
39
 73
35
 74
0
 42
0.0000001
 43
0.0000001
 44
0.0000000001
 40
0.0
 40
0.0
 40
0.0
 40
0.0
 40
0.0300266482
 40
0.0601523734
 40
0.0903885121
 40
0.1207444901
 40
0.151227683
 40
0.1818433167
 40
0.2125944077
 40
0.2434817417
 40
0.2745038907
 40
0.3056572639
 40
0.3369361925
 40
0.3683330435
 40
0.3998383605
 40
0.431441027
 40
0.4631284511
 40
0.4948867668
 40
0.52670105
 40
0.558555546
 40
0.5904339056
 40
0.622319428
 40
0.6541953067
 40
0.6860448769
 40
0.7178518618
 40
0.7496006144
 40
0.7812763535
 40
0.8128653852
 40
0.8443553337
 40
0.8757352835
 40
0.90699614
 40
0.9381302771
 40
0.9691329473
 40
1.0
 40
1.0
 40
1.0
 40
1.0
 10
10.9797216665
 20
7.5464500398
 30
0.0
 10
10.9762846352
 20
7.5449333672
 30
0.0
 10
10.9692944386
 20
7.5421265122
 30
0.0
 10
10.9585338421
 20
7.5386217827
 30
0.0
 10
10.9475237954
 20
7.5358295288
 30
0.0
 10
10.9363098361
 20
7.5337613245
 30
0.0
 10
10.9249375276
 20
7.5324254506
 30
0.0
 10
10.9134532751
 20
7.5318272896
 30
0.0
 10
10.9019038662
 20
7.5319691922
 30
0.0
 10
10.8903363538
 20
7.5328505022
 30
0.0
 10
10.878797846
 20
7.5344675536
 30
0.0
 10
10.8673353208
 20
7.536813689
 30
0.0
 10
10.8559954347
 20
7.5398792875
 30
0.0
 10
10.844824335
 20
7.5436518077
 30
0.0
 10
10.8338674746
 20
7.5481158394
 30
0.0
 10
10.823169428
 20
7.5532531675
 30
0.0
 10
10.8127737131
 20
7.5590428461
 30
0.0
 10
10.8027226152
 20
7.5654612837
 30
0.0
 10
10.7930570171
 20
7.5724823396
 30
0.0
 10
10.7838162343
 20
7.5800774289
 30
0.0
 10
10.7750378566
 20
7.5882156386
 30
0.0
 10
10.7667575964
 20
7.5968638526
 30
0.0
 10
10.7590091448
 20
7.6059868854
 30
0.0
 10
10.7518240339
 20
7.6155476227
 30
0.0
 10
10.7452315095
 20
7.6255071724
 30
0.0
 10
10.739258414
 20
7.6358250222
 30
0.0
 10
10.7339290788
 20
7.6464592026
 30
0.0
 10
10.7292652205
 20
7.6573664571
 30
0.0
 10
10.7252858674
 20
7.6685024104
 30
0.0
 10
10.7220072457
 20
7.6798217737
 30
0.0
 10
10.7194427944
 20
7.6912784248
 30
0.0
 10
10.7176029493
 20
7.7028259503
 30
0.0
 10
10.716495361
 20
7.7144166652
 30
0.0
 10
10.7162475958
 20
7.7221597206
 30
0.0
 10
10.7162475958
 20
7.7260216592
 30
0.0
  0
SPLINE
  5
392
100
AcDbEntity
  8
0
100
AcDbSpline
 62
7
  6
CONTINUOUS
 70
0
 71
3
 72
18
 73
14
 74
0
 42
0.0000001
 43
0.0000001
 44
0.0000000001
 40
0.0
 40
0.0
 40
0.0
 40
0.0
 40
0.0548626505
 40
0.1099292212
 40
0.1654012836
 40
0.2214755222
 40
0.3361333874
 40
0.4553634688
 40
0.517104949
 40
0.58043661
 40
0.7123312106
 40
0.8519577725
 40
1.0
 40
1.0
 40
1.0
 40
1.0
 10
10.2980748211
 20
10.3027502299
 30
0.0
 10
10.2980748227
 20
10.3033582159
 30
0.0
 10
10.2981134088
 20
10.3045767986
 30
0.0
 10
10.298286898
 20
10.3064026817
 30
0.0
 10
10.2985760317
 20
10.3082275481
 30
0.0
 10
10.2991193222
 20
10.3106761137
 30
0.0
 10
10.3000980774
 20
10.3137450111
 30
0.0
 10
10.3014385787
 20
10.3167414572
 30
0.0
 10
10.3027284507
 20
10.3191228161
 30
0.0
 10
10.3042054102
 20
10.32155875
 30
0.0
 10
10.3063499862
 20
10.3245935863
 30
0.0
 10
10.3093399169
 20
10.3281599918
 30
0.0
 10
10.3115637082
 20
10.3304484137
 30
0.0
 10
10.3127437164
 20
10.3315882142
 30
0.0
  0
SPLINE
  5
393
100
AcDbEntity
  8
0
100
AcDbSpline
 62
7
  6
CONTINUOUS
 70
0
 71
3
 72
42
 73
38
 74
0
 42
0.0000001
 43
0.0000001
 44
0.0000000001
 40
0.0
 40
0.0
 40
0.0
 40
0.0
 40
0.0299419634
 40
0.0449235299
 40
0.0599142017
 40
0.0899287029
 40
0.1200139772
 40
0.1350926626
 40
0.1501967046
 40
0.1804840506
 40
0.2108978877
 40
0.2414513551
 40
0.2721543675
 40
0.3030134354
 40
0.3340315696
 40
0.3652082675
 40
0.3965395775
 40
0.4280182343
 40
0.4596338596
 40
0.4913732188
 40
0.5232205284
 40
0.5551578047
 40
0.5871652463
 40
0.6192216448
 40
0.6513048151
 40
0.6833920402
 40
0.7154605222
 40
0.747487836
 40
0.7794523759
 40
0.8113337934
 40
0.8431134117
 40
0.8747746318
 40
0.9063032512
 40
0.9376879208
 40
0.9533258
 40
0.9689252634
 40
1.0
 40
1.0
 40
1.0
 40
1.0
 10
11.9473435379
 20
9.6276628875
 30
0.0
 10
11.9444901135
 20
9.624906708
 30
0.0
 10
11.9400417792
 20
9.6209394509
 30
0.0
 10
11.9338119873
 20
9.6160169489
 30
0.0
 10
11.9273838078
 20
9.611339398
 30
0.0
 10
11.9189960905
 20
9.6059680543
 30
0.0
 10
11.9102005573
 20
9.601269683
 30
0.0
 10
11.9029465219
 20
9.597927257
 30
0.0
 10
11.8955426394
 20
9.5948607534
 30
0.0
 10
11.8860437939
 20
9.5915633954
 30
0.0
 10
11.8743379066
 20
9.5884903404
 30
0.0
 10
11.862376595
 20
9.5863133175
 30
0.0
 10
11.850226147
 20
9.5850443371
 30
0.0
 10
11.8379533076
 20
9.5846901713
 30
0.0
 10
11.8256256054
 20
9.5852526225
 30
0.0
 10
11.8133107963
 20
9.5867284418
 30
0.0
 10
11.8010765447
 20
9.589109375
 30
0.0
 10
11.7889900425
 20
9.5923822084
 30
0.0
 10
11.7771176491
 20
9.5965288466
 30
0.0
 10
11.7655245304
 20
9.6015264149
 30
0.0
 10
11.7542743073
 20
9.6073473864
 30
0.0
 10
11.7434287109
 20
9.6139597339
 30
0.0
 10
11.7330472484
 20
9.6213271056
 30
0.0
 10
11.7231868806
 20
9.6294090236
 30
0.0
 10
11.7139017135
 20
9.6381611047
 30
0.0
 10
11.7052427041
 20
9.6475353019
 30
0.0
 10
11.6972573844
 20
9.6574801651
 30
0.0
 10
11.6899896024
 20
9.6679411221
 30
0.0
 10
11.6834792839
 20
9.6788607711
 30
0.0
 10
11.677762215
 20
9.6901792044
 30
0.0
 10
11.6728698475
 20
9.7018342866
 30
0.0
 10
11.6688291173
 20
9.713762164
 30
0.0
 10
11.6656623468
 20
9.7258969709
 30
0.0
 10
11.6637637976
 20
9.7361400636
 30
0.0
 10
11.6626987678
 20
9.7443702643
 30
0.0
 10
11.6619386821
 20
9.7525925894
 30
0.0
 10
11.6617085355
 20
9.7587798336
 30
0.0
 10
11.6617085355
 20
9.7628971062
 30
0.0
  0
SPLINE
  5
394
100
AcDbEntity
  8
0
100
AcDbSpline
 62
7
  6
CONTINUOUS
 70
0
 71
3
 72
18
 73
14
 74
0
 42
0.0000001
 43
0.0000001
 44
0.0000000001
 40
0.0
 40
0.0
 40
0.0
 40
0.0
 40
0.1504673397
 40
0.291710036
 40
0.4244360001
 40
0.5495624032
 40
0.6682140019
 40
0.7255497517
 40
0.7817912955
 40
0.8371402647
 40
0.891809381
 40
0.9460201143
 40
1.0
 40
1.0
 40
1.0
 40
1.0
 10
12.4488888253
 20
8.2540091078
 30
0.0
 10
12.4472067099
 20
8.252384309
 30
0.0
 10
12.4438448596
 20
8.2493357644
 30
0.0
 10
12.4386390665
 20
8.2452730525
 30
0.0
 10
12.4334393836
 20
8.241875205
 30
0.0
 10
12.4282511991
 20
8.2391478072
 30
0.0
 10
12.4238905928
 20
8.2374183177
 30
0.0
 10
12.4204284586
 20
8.2363907672
 30
0.0
 10
12.417868738
 20
8.2357984997
 30
0.0
 10
12.4153175106
 20
8.2353763678
 30
0.0
 10
12.4127754883
 20
8.2351245417
 30
0.0
 10
12.4102436852
 20
8.2350431355
 30
0.0
 10
12.4085616273
 20
8.2351026198
 30
0.0
 10
12.4077246356
 20
8.2351606616
 30
0.0
  0
SPLINE
  5
395
100
AcDbEntity
  8
0
100
AcDbSpline
 62
7
  6
CONTINUOUS
 70
0
 71
3
 72
42
 73
38
 74
0
 42
0.0000001
 43
0.0000001
 44
0.0000000001
 40
0.0
 40
0.0
 40
0.0
 40
0.0
 40
0.0299419634
 40
0.0449235299
 40
0.0599142017
 40
0.0899287029
 40
0.1200139772
 40
0.1350926626
 40
0.1501967046
 40
0.1804840506
 40
0.2108978877
 40
0.2414513551
 40
0.2721543675
 40
0.3030134354
 40
0.3340315696
 40
0.3652082675
 40
0.3965395775
 40
0.4280182343
 40
0.4596338596
 40
0.4913732188
 40
0.5232205284
 40
0.5551578047
 40
0.5871652463
 40
0.6192216448
 40
0.6513048151
 40
0.6833920402
 40
0.7154605222
 40
0.747487836
 40
0.7794523759
 40
0.8113337934
 40
0.8431134117
 40
0.8747746318
 40
0.9063032512
 40
0.9376879208
 40
0.9533258
 40
0.9689252634
 40
1.0
 40
1.0
 40
1.0
 40
1.0
 10
10.3777139771
 20
6.8986268277
 30
0.0
 10
10.3748605528
 20
6.8958706482
 30
0.0
 10
10.3704122185
 20
6.8919033911
 30
0.0
 10
10.3641824266
 20
6.8869808891
 30
0.0
 10
10.3577542471
 20
6.8823033382
 30
0.0
 10
10.3493665298
 20
6.8769319945
 30
0.0
 10
10.3405709966
 20
6.8722336232
 30
0.0
 10
10.3333169612
 20
6.8688911972
 30
0.0
 10
10.3259130787
 20
6.8658246936
 30
0.0
 10
10.3164142332
 20
6.8625273356
 30
0.0
 10
10.3047083459
 20
6.8594542806
 30
0.0
 10
10.2927470343
 20
6.8572772577
 30
0.0
 10
10.2805965863
 20
6.8560082773
 30
0.0
 10
10.2683237469
 20
6.8556541114
 30
0.0
 10
10.2559960447
 20
6.8562165627
 30
0.0
 10
10.2436812356
 20
6.857692382
 30
0.0
 10
10.231446984
 20
6.8600733152
 30
0.0
 10
10.2193604818
 20
6.8633461486
 30
0.0
 10
10.2074880883
 20
6.8674927868
 30
0.0
 10
10.1958949697
 20
6.8724903551
 30
0.0
 10
10.1846447466
 20
6.8783113266
 30
0.0
 10
10.1737991502
 20
6.8849236741
 30
0.0
 10
10.1634176877
 20
6.8922910458
 30
0.0
 10
10.1535573199
 20
6.9003729638
 30
0.0
 10
10.1442721528
 20
6.9091250449
 30
0.0
 10
10.1356131434
 20
6.918499242
 30
0.0
 10
10.1276278237
 20
6.9284441053
 30
0.0
 10
10.1203600417
 20
6.9389050623
 30
0.0
 10
10.1138497232
 20
6.9498247113
 30
0.0
 10
10.1081326542
 20
6.9611431445
 30
0.0
 10
10.1032402867
 20
6.9727982268
 30
0.0
 10
10.0991995566
 20
6.9847261042
 30
0.0
 10
10.0960327861
 20
6.9968609111
 30
0.0
 10
10.0941342368
 20
7.0071040037
 30
0.0
 10
10.093069207
 20
7.0153342045
 30
0.0
 10
10.0923091214
 20
7.0235565295
 30
0.0
 10
10.0920789748
 20
7.0297437738
 30
0.0
 10
10.0920789748
 20
7.0338610464
 30
0.0
  0
SPLINE
  5
396
100
AcDbEntity
  8
0
100
AcDbSpline
 62
7
  6
CONTINUOUS
 70
0
 71
3
 72
88
 73
84
 74
0
 42
0.0000001
 43
0.0000001
 44
0.0000000001
 40
0.0
 40
0.0
 40
0.0
 40
0.0
 40
0.0039385771
 40
0.008040498
 40
0.0123092759
 40
0.0167478965
 40
0.021358873
 40
0.0261441438
 40
0.0311050106
 40
0.0362423567
 40
0.0415566314
 40
0.0470479395
 40
0.0527160572
 40
0.0585604156
 40
0.0645802166
 40
0.0707743577
 40
0.0836798495
 40
0.0972642747
 40
0.1115115545
 40
0.1264029602
 40
0.1419174104
 40
0.1580317106
 40
0.1747207585
 40
0.1919577273
 40
0.2097142195
 40
0.2279604045
 40
0.2466651434
 40
0.2657961005
 40
0.2853198566
 40
0.305202016
 40
0.3254073068
 40
0.3458996773
 40
0.3666423896
 40
0.3875981109
 40
0.4087290096
 40
0.4299968474
 40
0.4513630683
 40
0.4942347376
 40
0.5370332801
 40
0.5583082567
 40
0.5794486483
 40
0.6004161926
 40
0.6211730305
 40
0.6416817987
 40
0.661905721
 40
0.6818086997
 40
0.7013554106
 40
0.7205113992
 40
0.7392431856
 40
0.7575183691
 40
0.7753057334
 40
0.7925753624
 40
0.809298764
 40
0.8254490083
 40
0.8410008881
 40
0.8559310906
 40
0.8702183963
 40
0.8838439214
 40
0.8967914115
 40
0.9030068237
 40
0.9090480465
 40
0.9149139527
 40
0.9206036917
 40
0.9261166916
 40
0.9314526531
 40
0.9366116564
 40
0.9415940975
 40
0.9464008204
 40
0.9510331048
 40
0.9554927295
 40
0.9597820774
 40
0.9639041269
 40
0.9678626301
 40
0.9716621234
 40
0.9753080779
 40
0.9788070144
 40
0.9821665795
 40
0.98539574
 40
0.9885048207
 40
0.9915056561
 40
0.9944116179
 40
0.9972376074
 40
1.0
 40
1.0
 40
1.0
 40
1.0
 10
12.4334340104
 20
8.2550809029
 30
0.0
 10
12.4345873655
 20
8.2561949584
 30
0.0
 10
12.4368928601
 20
8.2585205066
 30
0.0
 10
12.440280134
 20
8.2622155313
 30
0.0
 10
12.4436639497
 20
8.2661852583
 30
0.0
 10
12.4470425555
 20
8.2704276097
 30
0.0
 10
12.4504144412
 20
8.2749405869
 30
0.0
 10
12.4537780144
 20
8.2797220911
 30
0.0
 10
12.4571317412
 20
8.2847698247
 30
0.0
 10
12.4604739559
 20
8.2900813928
 30
0.0
 10
12.4638030888
 20
8.295654229
 30
0.0
 10
12.4671175387
 20
8.3014856662
 30
0.0
 10
12.4704156941
 20
8.3075729141
 30
0.0
 10
12.4736960004
 20
8.3139130301
 30
0.0
 10
12.4769568458
 20
8.3205029857
 30
0.0
 10
12.4813366111
 20
8.329745216
 30
0.0
 10
12.4867418506
 20
8.3419073628
 30
0.0
 10
12.4930402751
 20
8.3572526776
 30
0.0
 10
12.4992242185
 20
8.3735124248
 30
0.0
 10
12.505281656
 20
8.390655215
 30
0.0
 10
12.511200803
 20
8.4086480919
 30
0.0
 10
12.5169701384
 20
8.4274563475
 30
0.0
 10
12.5225784348
 20
8.4470436725
 30
0.0
 10
12.528014776
 20
8.4673722176
 30
0.0
 10
12.5332685818
 20
8.48840268
 30
0.0
 10
12.5383296286
 20
8.5100943815
 30
0.0
 10
12.543188068
 20
8.5324053486
 30
0.0
 10
12.5478344521
 20
8.5552923937
 30
0.0
 10
12.5522597489
 20
8.5787112027
 30
0.0
 10
12.5564553563
 20
8.6026164253
 30
0.0
 10
12.5604131204
 20
8.6269617648
 30
0.0
 10
12.5641253503
 20
8.651700068
 30
0.0
 10
12.5675848318
 20
8.6767834144
 30
0.0
 10
12.5707848505
 20
8.702163213
 30
0.0
 10
12.5737191884
 20
8.7277902843
 30
0.0
 10
12.5763821751
 20
8.7536150125
 30
0.0
 10
12.5795674579
 20
8.7882821667
 30
0.0
 10
12.5828355551
 20
8.8317417426
 30
0.0
 10
12.585146979
 20
8.8752255165
 30
0.0
 10
12.5864099764
 20
8.9098969028
 30
0.0
 10
12.5870593638
 20
8.9356948612
 30
0.0
 10
12.5874115566
 20
8.9612875997
 30
0.0
 10
12.587465864
 20
8.9866255706
 30
0.0
 10
12.5872222052
 20
9.0116596768
 30
0.0
 10
12.5866810716
 20
9.0363414258
 30
0.0
 10
12.5858435351
 20
9.0606230069
 30
0.0
 10
12.5847112444
 20
9.0844573886
 30
0.0
 10
12.5832864217
 20
9.10779841
 30
0.0
 10
12.5815718637
 20
9.1306008744
 30
0.0
 10
12.5795709357
 20
9.152820639
 30
0.0
 10
12.5772875616
 20
9.1744147004
 30
0.0
 10
12.5747262171
 20
9.1953412782
 30
0.0
 10
12.5718919219
 20
9.2155598995
 30
0.0
 10
12.5687902277
 20
9.2350314822
 30
0.0
 10
12.5654272161
 20
9.2537184256
 30
0.0
 10
12.5618094781
 20
9.2715846693
 30
0.0
 10
12.5579441039
 20
9.2885958418
 30
0.0
 10
12.5538386406
 20
9.3047190848
 30
0.0
 10
12.5501759517
 20
9.317558533
 30
0.0
 10
12.547123255
 20
9.327355911
 30
0.0
 10
12.5448099396
 20
9.334362653
 30
0.0
 10
12.5424427402
 20
9.3411250432
 30
0.0
 10
12.5400227858
 20
9.3476398352
 30
0.0
 10
12.5375512708
 20
9.3539038986
 30
0.0
 10
12.5350293393
 20
9.359914213
 30
0.0
 10
12.5324582593
 20
9.3656679109
 30
0.0
 10
12.5298392091
 20
9.3711622226
 30
0.0
 10
12.5271734686
 20
9.3763945318
 30
0.0
 10
12.5244622985
 20
9.3813623445
 30
0.0
 10
12.5217069435
 20
9.3860632817
 30
0.0
 10
12.5189087424
 20
9.3904951362
 30
0.0
 10
12.5160689197
 20
9.3946557726
 30
0.0
 10
12.5131888228
 20
9.3985432456
 30
0.0
 10
12.5102697106
 20
9.4021556907
 30
0.0
 10
12.5073128616
 20
9.4054913682
 30
0.0
 10
12.5043195905
 20
9.4085486902
 30
0.0
 10
12.5012911042
 20
9.4113260776
 30
0.0
 10
12.4982287392
 20
9.4138221542
 30
0.0
 10
12.4951337175
 20
9.4160355015
 30
0.0
 10
12.492007403
 20
9.4179648225
 30
0.0
 10
12.4888510947
 20
9.4196089048
 30
0.0
 10
12.485666566
 20
9.4209664048
 30
0.0
 10
12.483505032
 20
9.4216865667
 30
0.0
 10
12.4824238222
 20
9.4219962047
 30
0.0
  0
SPLINE
  5
397
100
AcDbEntity
  8
0
100
AcDbSpline
 62
7
  6
CONTINUOUS
 70
0
 71
3
 72
15
 73
11
 74
0
 42
0.0000001
 43
0.0000001
 44
0.0000000001
 40
0.0
 40
0.0
 40
0.0
 40
0.0
 40
0.1467556313
 40
0.2862151517
 40
0.4187841468
 40
0.5449781079
 40
0.6654150807
 40
0.7808201665
 40
0.8920314677
 40
1.0
 40
1.0
 40
1.0
 40
1.0
 10
12.4334340104
 20
8.2550809029
 30
0.0
 10
12.4320701828
 20
8.2537635464
 30
0.0
 10
12.4293438524
 20
8.251261734
 30
0.0
 10
12.4251487699
 20
8.2478390652
 30
0.0
 10
12.4209577026
 20
8.2448475029
 30
0.0
 10
12.416773529
 20
8.2422896984
 30
0.0
 10
12.4125987589
 20
8.2401680728
 30
0.0
 10
12.4084359407
 20
8.2384848805
 30
0.0
 10
12.4042886091
 20
8.2372426563
 30
0.0
 10
12.4015024911
 20
8.2367033869
 30
0.0
 10
12.4001207612
 20
8.2365113121
 30
0.0
  0
SPLINE
  5
398
100
AcDbEntity
  8
0
100
AcDbSpline
 62
7
  6
CONTINUOUS
 70
0
 71
3
 72
23
 73
19
 74
0
 42
0.0000001
 43
0.0000001
 44
0.0000000001
 40
0.0
 40
0.0
 40
0.0
 40
0.0
 40
0.0755970481
 40
0.1466395192
 40
0.2134651039
 40
0.2765141432
 40
0.3363266137
 40
0.3935468688
 40
0.4489231172
 40
0.5032882226
 40
0.5575261408
 40
0.6125274601
 40
0.6691434874
 40
0.7281489695
 40
0.7902195499
 40
0.8559235776
 40
0.9257266248
 40
1.0
 40
1.0
 40
1.0
 40
1.0
 10
12.4334340104
 20
8.4289475619
 30
0.0
 10
12.4322806098
 20
8.4278334624
 30
0.0
 10
12.4299753591
 20
8.425740848
 30
0.0
 10
12.4264077455
 20
8.4229452649
 30
0.0
 10
12.4228443318
 20
8.4205973563
 30
0.0
 10
12.4192883576
 20
8.41870069
 30
0.0
 10
12.4157428298
 20
8.4172586209
 30
0.0
 10
12.4122113608
 20
8.4162748318
 30
0.0
 10
12.4086986238
 20
8.4157526344
 30
0.0
 10
12.4052104464
 20
8.4156946455
 30
0.0
 10
12.4017535349
 20
8.4161015956
 30
0.0
 10
12.3983346006
 20
8.4169723741
 30
0.0
 10
12.3949594381
 20
8.4183039807
 30
0.0
 10
12.3916325223
 20
8.420092546
 30
0.0
 10
12.3883572432
 20
8.4223340053
 30
0.0
 10
12.3851361944
 20
8.4250244084
 30
0.0
 10
12.3819720513
 20
8.4281598594
 30
0.0
 10
12.3799666426
 20
8.4304700325
 30
0.0
 10
12.3789725314
 20
8.4316923371
 30
0.0
  0
SPLINE
  5
399
100
AcDbEntity
  8
0
100
AcDbSpline
 62
7
  6
CONTINUOUS
 70
0
 71
3
 72
18
 73
14
 74
0
 42
0.0000001
 43
0.0000001
 44
0.0000000001
 40
0.0
 40
0.0
 40
0.0
 40
0.0
 40
0.150467008
 40
0.2917141408
 40
0.4244426259
 40
0.4879099277
 40
0.549609295
 40
0.6682624161
 40
0.7817883561
 40
0.8371380822
 40
0.8918079419
 40
0.9460193459
 40
1.0
 40
1.0
 40
1.0
 40
1.0
 10
12.3947969751
 20
8.4702640847
 30
0.0
 10
12.3937368274
 20
8.4692400607
 30
0.0
 10
12.3916179542
 20
8.4673186859
 30
0.0
 10
12.3883371146
 20
8.464758199
 30
0.0
 10
12.3855658699
 20
8.4629472919
 30
0.0
 10
12.3833560599
 20
8.4617209938
 30
0.0
 10
12.3812112596
 20
8.460668187
 30
0.0
 10
12.378529577
 20
8.4596043611
 30
0.0
 10
12.375800194
 20
8.4588783756
 30
0.0
 10
12.3736384355
 20
8.4585207585
 30
0.0
 10
12.3720362781
 20
8.4583620157
 30
0.0
 10
12.3704405995
 20
8.4583107513
 30
0.0
 10
12.3693804709
 20
8.458348254
 30
0.0
 10
12.3688529511
 20
8.4583848364
 30
0.0
  0
SPLINE
  5
39A
100
AcDbEntity
  8
0
100
AcDbSpline
 62
7
  6
CONTINUOUS
 70
0
 71
3
 72
23
 73
19
 74
0
 42
0.0000001
 43
0.0000001
 44
0.0000000001
 40
0.0
 40
0.0
 40
0.0
 40
0.0
 40
0.0637775561
 40
0.1273446565
 40
0.1907020307
 40
0.2538561431
 40
0.3168131834
 40
0.3795821015
 40
0.4421733894
 40
0.5045993415
 40
0.5668738676
 40
0.6290123791
 40
0.6910316472
 40
0.7529496401
 40
0.8147853492
 40
0.8765585998
 40
0.9382898533
 40
1.0
 40
1.0
 40
1.0
 40
1.0
 10
10.3161737797
 20
7.592080005
 30
0.0
 10
10.3161737797
 20
7.5988687267
 30
0.0
 10
10.316498697
 20
7.6124260698
 30
0.0
 10
10.3179653161
 20
7.6326796505
 30
0.0
 10
10.3204071738
 20
7.6527726288
 30
0.0
 10
10.3238185413
 20
7.6726579614
 30
0.0
 10
10.3281917073
 20
7.6922900825
 30
0.0
 10
10.3335165841
 20
7.7116236462
 30
0.0
 10
10.3397809675
 20
7.7306141006
 30
0.0
 10
10.3469704535
 20
7.7492176451
 30
0.0
 10
10.3550685002
 20
7.7673913772
 30
0.0
 10
10.3640564671
 20
7.7850933796
 30
0.0
 10
10.373913654
 20
7.8022828159
 30
0.0
 10
10.3846173646
 20
7.8189200394
 30
0.0
 10
10.3961428993
 20
7.8349666312
 30
0.0
 10
10.4084638286
 20
7.850385692
 30
0.0
 10
10.421551248
 20
7.8651411749
 30
0.0
 10
10.4307688302
 20
7.8745147874
 30
0.0
 10
10.4354933741
 20
7.8790783349
 30
0.0
  0
SPLINE
  5
39B
100
AcDbEntity
  8
0
100
AcDbSpline
 62
7
  6
CONTINUOUS
 70
0
 71
3
 72
91
 73
87
 74
0
 42
0.0000001
 43
0.0000001
 44
0.0000000001
 40
0.0
 40
0.0
 40
0.0
 40
0.0
 40
0.0027164149
 40
0.0054532017
 40
0.0082302519
 40
0.0110665199
 40
0.0139797039
 40
0.0169859829
 40
0.0200999141
 40
0.0233344008
 40
0.0267007145
 40
0.0302086362
 40
0.0338665065
 40
0.0376814358
 40
0.0416593677
 40
0.0458052497
 40
0.0501231396
 40
0.0546162795
 40
0.059287253
 40
0.0641379749
 40
0.0691698569
 40
0.0743837851
 40
0.0797802236
 40
0.0853592475
 40
0.091120549
 40
0.0970635401
 40
0.1031872872
 40
0.1094906342
 40
0.122629771
 40
0.1364673248
 40
0.150986028
 40
0.1661658166
 40
0.1819841497
 40
0.1984162706
 40
0.2154354241
 40
0.2330130434
 40
0.251118914
 40
0.2697213196
 40
0.2887871741
 40
0.3082821495
 40
0.3281707942
 40
0.3484166458
 40
0.3689823383
 40
0.3898297074
 40
0.4109198931
 40
0.4322134396
 40
0.4536703979
 40
0.4752504252
 40
0.496912883
 40
0.5186169358
 40
0.5403216477
 40
0.5619860811
 40
0.5835693946
 40
0.6050309417
 40
0.6263303693
 40
0.647427715
 40
0.6682835069
 40
0.6888588628
 40
0.7091155924
 40
0.7290163019
 40
0.7485244988
 40
0.7676046989
 40
0.7862225381
 40
0.8043448897
 40
0.8219399883
 40
0.8389775652
 40
0.8554289983
 40
0.8712674731
 40
0.8864681675
 40
0.9010084679
 40
0.9148682273
 40
0.928030078
 40
0.9343449249
 40
0.9404802778
 40
0.9464349222
 40
0.9522079436
 40
0.9577987067
 40
0.9632068911
 40
0.9684325654
 40
0.9734761401
 40
0.9783384911
 40
0.9830209352
 40
0.9875254368
 40
0.9918546053
 40
0.9960115672
 40
1.0
 40
1.0
 40
1.0
 40
1.0
 10
12.4900530149
 20
9.4223093554
 30
0.0
 10
12.4911635099
 20
9.4222323474
 30
0.0
 10
12.4933871412
 20
9.4219772432
 30
0.0
 10
12.4966942906
 20
9.4212946175
 30
0.0
 10
12.4999764284
 20
9.4203120366
 30
0.0
 10
12.5032312558
 20
9.4190305701
 30
0.0
 10
12.5064570473
 20
9.4174512505
 30
0.0
 10
12.5096521833
 20
9.4155753879
 30
0.0
 10
12.5128151791
 20
9.4134042878
 30
0.0
 10
12.5159446129
 20
9.4109393146
 30
0.0
 10
12.5190391759
 20
9.4081819508
 30
0.0
 10
12.5220974707
 20
9.4051336429
 30
0.0
 10
12.5251182315
 20
9.4017960422
 30
0.0
 10
12.5281000575
 20
9.3981707925
 30
0.0
 10
12.5310416377
 20
9.3942597313
 30
0.0
 10
12.5339416026
 20
9.390064781
 30
0.0
 10
12.5367985721
 20
9.3855879999
 30
0.0
 10
12.5396112282
 20
9.3808316106
 30
0.0
 10
12.5423781542
 20
9.3757979303
 30
0.0
 10
12.5450980658
 20
9.3704894696
 30
0.0
 10
12.5477695734
 20
9.3649088341
 30
0.0
 10
12.550391392
 20
9.3590588034
 30
0.0
 10
12.5529622105
 20
9.3529422792
 30
0.0
 10
12.5554807315
 20
9.3465623029
 30
0.0
 10
12.5579457349
 20
9.3399220618
 30
0.0
 10
12.5603559294
 20
9.3330248627
 30
0.0
 10
12.5627101818
 20
9.3258741523
 30
0.0
 10
12.5658159329
 20
9.3158678187
 30
0.0
 10
12.5695387434
 20
9.3027454543
 30
0.0
 10
12.5737052087
 20
9.2862572508
 30
0.0
 10
12.5776218715
 20
9.2688498848
 30
0.0
 10
12.5812807854
 20
9.2505582538
 30
0.0
 10
12.5846745061
 20
9.2314188911
 30
0.0
 10
12.5877961285
 20
9.2114701399
 30
0.0
 10
12.5906392985
 20
9.1907519895
 30
0.0
 10
12.593198228
 20
9.1693060085
 30
0.0
 10
12.5954677074
 20
9.1471752497
 30
0.0
 10
12.5974431145
 20
9.124404162
 30
0.0
 10
12.5991204286
 20
9.1010384972
 30
0.0
 10
12.6004962336
 20
9.0771252149
 30
0.0
 10
12.6015677252
 20
9.0527123836
 30
0.0
 10
12.6023327153
 20
9.0278490827
 30
0.0
 10
12.6027896367
 20
9.0025853027
 30
0.0
 10
12.6029375454
 20
8.9769718439
 30
0.0
 10
12.6027761221
 20
8.9510602144
 30
0.0
 10
12.6023056761
 20
8.9249025254
 30
0.0
 10
12.6015271416
 20
8.8985513853
 30
0.0
 10
12.6004420747
 20
8.8720597925
 30
0.0
 10
12.5990526508
 20
8.8454810287
 30
0.0
 10
12.5973616597
 20
8.8188685514
 30
0.0
 10
12.5953725003
 20
8.7922758867
 30
0.0
 10
12.5930891732
 20
8.765756521
 30
0.0
 10
12.5905162763
 20
8.7393637925
 30
0.0
 10
12.5876589923
 20
8.7131507831
 30
0.0
 10
12.5845230782
 20
8.6871702115
 30
0.0
 10
12.5811148538
 20
8.661474327
 30
0.0
 10
12.5774411892
 20
8.6361148043
 30
0.0
 10
12.5735094914
 20
8.6111426392
 30
0.0
 10
12.5693276888
 20
8.5866080445
 30
0.0
 10
12.5649042191
 20
8.5625603465
 30
0.0
 10
12.5602480097
 20
8.5390478851
 30
0.0
 10
12.5553684593
 20
8.5161179162
 30
0.0
 10
12.5502754197
 20
8.4938165158
 30
0.0
 10
12.5449791761
 20
8.4721884849
 30
0.0
 10
12.5394904266
 20
8.4512772573
 30
0.0
 10
12.5338202597
 20
8.4311248062
 30
0.0
 10
12.5279801355
 20
8.4117715553
 30
0.0
 10
12.5219818577
 20
8.393256286
 30
0.0
 10
12.5158375483
 20
8.3756160755
 30
0.0
 10
12.509559617
 20
8.3588861357
 30
0.0
 10
12.5031607382
 20
8.3430999973
 30
0.0
 10
12.4976651371
 20
8.3305905981
 30
0.0
 10
12.4932100055
 20
8.3210870222
 30
0.0
 10
12.4898926244
 20
8.3143131916
 30
0.0
 10
12.4865546832
 20
8.3077979659
 30
0.0
 10
12.4831978514
 20
8.3015445891
 30
0.0
 10
12.4798238178
 20
8.2955561823
 30
0.0
 10
12.4764342406
 20
8.2898357384
 30
0.0
 10
12.4730308482
 20
8.2843860841
 30
0.0
 10
12.4696152773
 20
8.279209957
 30
0.0
 10
12.4661892878
 20
8.2743099076
 30
0.0
 10
12.4627545216
 20
8.2696883734
 30
0.0
 10
12.4593126473
 20
8.2653476018
 30
0.0
 10
12.4558652747
 20
8.2612896978
 30
0.0
 10
12.4524142284
 20
8.2575168636
 30
0.0
 10
12.4500643915
 20
8.2551446177
 30
0.0
 10
12.4488888253
 20
8.2540091078
 30
0.0
  0
SPLINE
  5
39C
100
AcDbEntity
  8
0
100
AcDbSpline
 62
7
  6
CONTINUOUS
 70
0
 71
3
 72
92
 73
88
 74
0
 42
0.0000001
 43
0.0000001
 44
0.0000000001
 40
0.0
 40
0.0
 40
0.0
 40
0.0
 40
0.0042067366
 40
0.0086075244
 40
0.0132068283
 40
0.0180083448
 40
0.0230150823
 40
0.0282292321
 40
0.0336521258
 40
0.0392845348
 40
0.0451266321
 40
0.0511781492
 40
0.0574383514
 40
0.0639060741
 40
0.0705798373
 40
0.077457758
 40
0.0918168161
 40
0.1069632118
 40
0.1228724598
 40
0.1395166315
 40
0.1568647495
 40
0.1748831121
 40
0.1935355649
 40
0.21278374
 40
0.2325872776
 40
0.25290402
 40
0.2736901926
 40
0.2949005737
 40
0.3164886563
 40
0.3384068041
 40
0.3606064109
 40
0.3830380523
 40
0.4056516338
 40
0.451220911
 40
0.4969065388
 40
0.5196652416
 40
0.5422994728
 40
0.5647585554
 40
0.5869923134
 40
0.6089512217
 40
0.6305865578
 40
0.65185055
 40
0.6726965308
 40
0.6930790933
 40
0.7129542534
 40
0.7322796223
 40
0.7510145912
 40
0.7691205189
 40
0.7865609415
 40
0.8033018079
 40
0.8193117499
 40
0.8345624012
 40
0.8490287911
 40
0.8626898153
 40
0.8692132197
 40
0.8755294441
 40
0.8816372756
 40
0.8875358419
 40
0.8932247283
 40
0.8987040149
 40
0.903974277
 40
0.9090367625
 40
0.9138933332
 40
0.9185466869
 40
0.9230003746
 40
0.927258958
 40
0.9313281896
 40
0.9352150892
 40
0.9389282476
 40
0.9424779032
 40
0.9458762283
 40
0.9491374667
 40
0.9522780607
 40
0.9553167475
 40
0.9582744218
 40
0.9611739598
 40
0.9640397557
 40
0.9668971558
 40
0.9697717436
 40
0.972688619
 40
0.9756717075
 40
0.9787432566
 40
0.9852254055
 40
0.9886743218
 40
0.9922790758
 40
0.9960512115
 40
1.0
 40
1.0
 40
1.0
 40
1.0
 10
12.4334340104
 20
8.4289475619
 30
0.0
 10
12.4343302048
 20
8.4298132192
 30
0.0
 10
12.4361214028
 20
8.4316289187
 30
0.0
 10
12.4387468951
 20
8.4345300824
 30
0.0
 10
12.441369057
 20
8.4376675261
 30
0.0
 10
12.4439862347
 20
8.4410392301
 30
0.0
 10
12.446596986
 20
8.4446432468
 30
0.0
 10
12.4491997949
 20
8.4484775035
 30
0.0
 10
12.4517931929
 20
8.452539731
 30
0.0
 10
12.454375582
 20
8.4568275529
 30
0.0
 10
12.4569454799
 20
8.4613384093
 30
0.0
 10
12.4595013388
 20
8.4660696428
 30
0.0
 10
12.4620416421
 20
8.4710184482
 30
0.0
 10
12.4645648933
 20
8.4761818789
 30
0.0
 10
12.4670695639
 20
8.4815568813
 30
0.0
 10
12.4704307051
 20
8.4891100952
 30
0.0
 10
12.4745664536
 20
8.4990634725
 30
0.0
 10
12.4793633832
 20
8.5116323471
 30
0.0
 10
12.4840514026
 20
8.5249618241
 30
0.0
 10
12.4886192378
 20
8.5390201089
 30
0.0
 10
12.4930558927
 20
8.5537737831
 30
0.0
 10
12.4973506852
 20
8.5691876707
 30
0.0
 10
12.5014932769
 20
8.5852249942
 30
0.0
 10
12.5054737009
 20
8.6018474519
 30
0.0
 10
12.5092823818
 20
8.6190153235
 30
0.0
 10
12.5129101601
 20
8.6366875693
 30
0.0
 10
12.5163483137
 20
8.6548219313
 30
0.0
 10
12.5195885787
 20
8.6733750361
 30
0.0
 10
12.5226231681
 20
8.6923024982
 30
0.0
 10
12.5254447975
 20
8.7115590308
 30
0.0
 10
12.5280466864
 20
8.7310985442
 30
0.0
 10
12.5304226172
 20
8.7508743082
 30
0.0
 10
12.5332887124
 20
8.7775607795
 30
0.0
 10
12.5362653073
 20
8.811159817
 30
0.0
 10
12.5384244105
 20
8.8448643006
 30
0.0
 10
12.5396529835
 20
8.8718136844
 30
0.0
 10
12.5403194355
 20
8.8919004411
 30
0.0
 10
12.5407305331
 20
8.9118385128
 30
0.0
 10
12.540885283
 20
8.9315802136
 30
0.0
 10
12.5407833375
 20
8.9510782856
 30
0.0
 10
12.5404249631
 20
8.97028607
 30
0.0
 10
12.5398110447
 20
8.9891576046
 30
0.0
 10
12.538943083
 20
9.0076477377
 30
0.0
 10
12.5378231915
 20
9.0257122358
 30
0.0
 10
12.5364540919
 20
9.0433078916
 30
0.0
 10
12.5348391087
 20
9.0603926322
 30
0.0
 10
12.5329821665
 20
9.076925624
 30
0.0
 10
12.5308877752
 20
9.0928673737
 30
0.0
 10
12.5285610201
 20
9.1081798247
 30
0.0
 10
12.5260075501
 20
9.1228264604
 30
0.0
 10
12.5232335614
 20
9.1367723802
 30
0.0
 10
12.520245784
 20
9.1499844739
 30
0.0
 10
12.5170514456
 20
9.1624312598
 30
0.0
 10
12.5141814115
 20
9.1722874521
 30
0.0
 10
12.5117795793
 20
9.1797606788
 30
0.0
 10
12.509959106
 20
9.1850697112
 30
0.0
 10
12.5080929373
 20
9.1901662276
 30
0.0
 10
12.5061821361
 20
9.1950472076
 30
0.0
 10
12.5042278447
 20
9.1997097566
 30
0.0
 10
12.5022312458
 20
9.2041511272
 30
0.0
 10
12.5001934661
 20
9.2083686837
 30
0.0
 10
12.4981157599
 20
9.2123599663
 30
0.0
 10
12.4959992751
 20
9.2161226131
 30
0.0
 10
12.4938452669
 20
9.2196544384
 30
0.0
 10
12.4916549439
 20
9.222953379
 30
0.0
 10
12.4894295032
 20
9.2260174957
 30
0.0
 10
12.4871702077
 20
9.2288450296
 30
0.0
 10
12.4848781906
 20
9.2314342656
 30
0.0
 10
12.482554707
 20
9.2337836985
 30
0.0
 10
12.4802008794
 20
9.2358918267
 30
0.0
 10
12.4778179022
 20
9.2377572787
 30
0.0
 10
12.4754069734
 20
9.2393787382
 30
0.0
 10
12.4729693039
 20
9.2407548511
 30
0.0
 10
12.4705062973
 20
9.2418844478
 30
0.0
 10
12.4680194241
 20
9.2427662451
 30
0.0
 10
12.4655104512
 20
9.2433992871
 30
0.0
 10
12.4629813013
 20
9.2437827168
 30
0.0
 10
12.4604340969
 20
9.2439160607
 30
0.0
 10
12.4578709995
 20
9.2437992895
 30
0.0
 10
12.4552941822
 20
9.2434326326
 30
0.0
 10
12.4527054506
 20
9.2428167535
 30
0.0
 10
12.4491781904
 20
9.2416437614
 30
0.0
 10
12.4456878637
 20
9.2399740423
 30
0.0
 10
12.4422668547
 20
9.2378803284
 30
0.0
 10
12.4396429426
 20
9.236033227
 30
0.0
 10
12.4370166743
 20
9.2339435615
 30
0.0
 10
12.4353050096
 20
9.2324251916
 30
0.0
 10
12.4344488216
 20
9.2316283785
 30
0.0
  0
SPLINE
  5
39D
100
AcDbEntity
  8
0
100
AcDbSpline
 62
7
  6
CONTINUOUS
 70
0
 71
3
 72
21
 73
17
 74
0
 42
0.0000001
 43
0.0000001
 44
0.0000000001
 40
0.0
 40
0.0
 40
0.0
 40
0.0
 40
0.1273176984
 40
0.2537999461
 40
0.3167619614
 40
0.3795355204
 40
0.4421314992
 40
0.5045621453
 40
0.5668413456
 40
0.6289845231
 40
0.6910084433
 40
0.7529310869
 40
0.8147714401
 40
0.8765493236
 40
0.9382852134
 40
1.0
 40
1.0
 40
1.0
 40
1.0
 10
11.6617085355
 20
9.7628971062
 30
0.0
 10
11.6617085355
 20
9.7681943984
 30
0.0
 10
11.6622141974
 20
9.7787610412
 30
0.0
 10
11.6641239403
 20
9.7918236928
 30
0.0
 10
11.666406488
 20
9.8020701991
 30
0.0
 10
11.6684880524
 20
9.8096280271
 30
0.0
 10
11.6709368884
 20
9.8170515563
 30
0.0
 10
11.6737473501
 20
9.8243238848
 30
0.0
 10
11.676912958
 20
9.8314281928
 30
0.0
 10
11.6804264765
 20
9.8383480838
 30
0.0
 10
11.6842797777
 20
9.8450676067
 30
0.0
 10
11.6884639751
 20
9.8515712753
 30
0.0
 10
11.6929694596
 20
9.8578440404
 30
0.0
 10
11.697785869
 20
9.8638714957
 30
0.0
 10
11.7029018821
 20
9.8696395732
 30
0.0
 10
11.7065051586
 20
9.8733037957
 30
0.0
 10
11.7083520371
 20
9.8750877324
 30
0.0
  0
SPLINE
  5
39E
100
AcDbEntity
  8
0
100
AcDbSpline
 62
7
  6
CONTINUOUS
 70
0
 71
3
 72
80
 73
76
 74
0
 42
0.0000001
 43
0.0000001
 44
0.0000000001
 40
0.0
 40
0.0
 40
0.0
 40
0.0
 40
0.0039883799
 40
0.0081453752
 40
0.0124746386
 40
0.0169792156
 40
0.021661669
 40
0.0265240231
 40
0.0315676328
 40
0.0367933336
 40
0.042201574
 40
0.0477923628
 40
0.0595195651
 40
0.0719693889
 40
0.0851313116
 40
0.0989911574
 40
0.1135315518
 40
0.1287323373
 40
0.1445709047
 40
0.1610224436
 40
0.1780601318
 40
0.1956553356
 40
0.2137777909
 40
0.2323957448
 40
0.2514760677
 40
0.2709843863
 40
0.2908852167
 40
0.311142073
 40
0.3317175598
 40
0.3736702008
 40
0.4164307353
 40
0.4596780682
 40
0.5030864323
 40
0.5463285118
 40
0.5890785868
 40
0.6310156693
 40
0.6515815081
 40
0.6718274996
 40
0.6917162816
 40
0.711211397
 40
0.7302773921
 40
0.7488799298
 40
0.7669859313
 40
0.7845636874
 40
0.801582979
 40
0.818015225
 40
0.8338336755
 40
0.8490135854
 40
0.8635324141
 40
0.8773700842
 40
0.8905093296
 40
0.9029360806
 40
0.9146399417
 40
0.9202190025
 40
0.9256155028
 40
0.9308294768
 40
0.9358613995
 40
0.940712184
 40
0.9453831863
 40
0.9498763813
 40
0.9541943136
 40
0.9583402313
 40
0.9623182136
 40
0.9661331738
 40
0.9697910847
 40
0.9732990446
 40
0.9766653897
 40
0.9798999101
 40
0.9830138747
 40
0.9860201789
 40
0.9889333931
 40
0.9917696852
 40
0.9945467564
 40
0.9972835667
 40
1.0
 40
1.0
 40
1.0
 40
1.0
 10
12.3947969751
 20
8.4702640847
 30
0.0
 10
12.395537863
 20
8.4709797275
 30
0.0
 10
12.397018835
 20
8.4724748294
 30
0.0
 10
12.3991938588
 20
8.4748526653
 30
0.0
 10
12.4013666047
 20
8.4774101776
 30
0.0
 10
12.4035358596
 20
8.4801459799
 30
0.0
 10
12.4057006322
 20
8.4830587039
 30
0.0
 10
12.4078598565
 20
8.4861469609
 30
0.0
 10
12.4100125105
 20
8.4894092232
 30
0.0
 10
12.4121575238
 20
8.4928438663
 30
0.0
 10
12.4142938082
 20
8.4964491978
 30
0.0
 10
12.4171751525
 20
8.5015632377
 30
0.0
 10
12.4207400417
 20
8.5083772898
 30
0.0
 10
12.4249009185
 20
8.5170789252
 30
0.0
 10
12.4290019381
 20
8.5264137041
 30
0.0
 10
12.4330348417
 20
8.5363629925
 30
0.0
 10
12.4369915161
 20
8.546907046
 30
0.0
 10
12.4408639787
 20
8.5580248159
 30
0.0
 10
12.4446444068
 20
8.5696940865
 30
0.0
 10
12.4483251534
 20
8.5818915019
 30
0.0
 10
12.4518987831
 20
8.5945926146
 30
0.0
 10
12.4553580787
 20
8.6077719429
 30
0.0
 10
12.4586960502
 20
8.621403035
 30
0.0
 10
12.4619059483
 20
8.6354585226
 30
0.0
 10
12.4649812914
 20
8.6499101691
 30
0.0
 10
12.4679158776
 20
8.6647289326
 30
0.0
 10
12.4707037767
 20
8.6798850238
 30
0.0
 10
12.4733393825
 20
8.695348001
 30
0.0
 10
12.4766646962
 20
8.7164691532
 30
0.0
 10
12.4803956016
 20
8.7434077602
 30
0.0
 10
12.4841617158
 20
8.7762436326
 30
0.0
 10
12.4872146883
 20
8.8095310616
 30
0.0
 10
12.4895299023
 20
8.8430025203
 30
0.0
 10
12.4910887787
 20
8.876389228
 30
0.0
 10
12.4918788477
 20
8.9094228511
 30
0.0
 10
12.4918917234
 20
8.9366093786
 30
0.0
 10
12.4915053334
 20
8.9579778887
 30
0.0
 10
12.4910231868
 20
8.9736480478
 30
0.0
 10
12.4903478849
 20
8.9890342777
 30
0.0
 10
12.4894807872
 20
9.0041056738
 30
0.0
 10
12.488423666
 20
9.0188319327
 30
0.0
 10
12.4871786654
 20
9.0331834585
 30
0.0
 10
12.4857483268
 20
9.0471314175
 30
0.0
 10
12.4841355653
 20
9.060647799
 30
0.0
 10
12.4823436634
 20
9.0737054659
 30
0.0
 10
12.48037626
 20
9.0862782154
 30
0.0
 10
12.4782373644
 20
9.0983408433
 30
0.0
 10
12.475931334
 20
9.1098691967
 30
0.0
 10
12.4734628597
 20
9.1208402254
 30
0.0
 10
12.4708369476
 20
9.1312320181
 30
0.0
 10
12.4680589263
 20
9.141023943
 30
0.0
 10
12.4651344106
 20
9.1501964476
 30
0.0
 10
12.4625404054
 20
9.1574200439
 30
0.0
 10
12.4603895796
 20
9.1628686902
 30
0.0
 10
12.4587693196
 20
9.166723661
 30
0.0
 10
12.4571169178
 20
9.1704106649
 30
0.0
 10
12.4554331862
 20
9.1739278797
 30
0.0
 10
12.4537189823
 20
9.1772735692
 30
0.0
 10
12.4519751017
 20
9.1804460592
 30
0.0
 10
12.4502024384
 20
9.1834438029
 30
0.0
 10
12.4484018292
 20
9.1862653172
 30
0.0
 10
12.4465741143
 20
9.1889092009
 30
0.0
 10
12.4447201966
 20
9.1913741799
 30
0.0
 10
12.4428408844
 20
9.193659006
 30
0.0
 10
12.4409370533
 20
9.1957625545
 30
0.0
 10
12.4390095619
 20
9.197683775
 30
0.0
 10
12.4370592066
 20
9.1994216204
 30
0.0
 10
12.4350868786
 20
9.2009751913
 30
0.0
 10
12.4330934022
 20
9.2023435557
 30
0.0
 10
12.4310796564
 20
9.2035258256
 30
0.0
 10
12.4290466046
 20
9.2045212237
 30
0.0
 10
12.4269952451
 20
9.2053288889
 30
0.0
 10
12.4249266693
 20
9.2059481603
 30
0.0
 10
12.4228423414
 20
9.2063784402
 30
0.0
 10
12.4214408904
 20
9.2065392098
 30
0.0
 10
12.4207409991
 20
9.2065877457
 30
0.0
  0
SPLINE
  5
39F
100
AcDbEntity
  8
0
100
AcDbSpline
 62
7
  6
CONTINUOUS
 70
0
 71
3
 72
82
 73
78
 74
0
 42
0.0000001
 43
0.0000001
 44
0.0000000001
 40
0.0
 40
0.0
 40
0.0
 40
0.0
 40
0.0028079978
 40
0.0056356818
 40
0.008502288
 40
0.0114262137
 40
0.0144246915
 40
0.0175135456
 40
0.0207071116
 40
0.0240181329
 40
0.0274578407
 40
0.0310360169
 40
0.0347610554
 40
0.0386401641
 40
0.0426793911
 40
0.0468838046
 40
0.0512576023
 40
0.0558041427
 40
0.0605261407
 40
0.0654256423
 40
0.0705041474
 40
0.0757626885
 40
0.0812017941
 40
0.0868216501
 40
0.0986018514
 40
0.1110985366
 40
0.1243017998
 40
0.1381979568
 40
0.1527700681
 40
0.1679983437
 40
0.1838604597
 40
0.2003318152
 40
0.2173857749
 40
0.2349938652
 40
0.2531259409
 40
0.2717503259
 40
0.2908339515
 40
0.3103424976
 40
0.3302405123
 40
0.3504915237
 40
0.3710581416
 40
0.3919021732
 40
0.4129847321
 40
0.455706257
 40
0.49890236
 40
0.5422472303
 40
0.5854136043
 40
0.6280759645
 40
0.6491180759
 40
0.6699145381
 40
0.6904265863
 40
0.7106161713
 40
0.7304460619
 40
0.7498799532
 40
0.76888259
 40
0.7874198781
 40
0.805458999
 40
0.822968538
 40
0.8399186299
 40
0.8562811274
 40
0.8720297604
 40
0.8871403291
 40
0.9015909348
 40
0.9153622713
 40
0.9284379678
 40
0.9408049977
 40
0.9524542077
 40
0.958008328
 40
0.9633817425
 40
0.9685747309
 40
0.9735880096
 40
0.978422747
 40
0.9830806142
 40
0.9875640035
 40
0.9918759102
 40
0.9960198585
 40
1.0
 40
1.0
 40
1.0
 40
1.0
 10
11.1590747973
 20
10.3027502299
 30
0.0
 10
11.1590747995
 20
10.3035865497
 30
0.0
 10
11.1590015792
 20
10.3052659579
 30
0.0
 10
11.1586724891
 20
10.3077797402
 30
0.0
 10
11.1581244541
 20
10.3102904486
 30
0.0
 10
11.1573579834
 20
10.3127963156
 30
0.0
 10
11.1563737598
 20
10.3152959948
 30
0.0
 10
11.1551726465
 20
10.3177882018
 30
0.0
 10
11.1537554379
 20
10.3202716893
 30
0.0
 10
11.1521231258
 20
10.3227453374
 30
0.0
 10
11.1502766679
 20
10.3252080174
 30
0.0
 10
11.1482170807
 20
10.3276586017
 30
0.0
 10
11.1459455117
 20
10.330096032
 30
0.0
 10
11.1434630854
 20
10.3325191447
 30
0.0
 10
11.1407710962
 20
10.3349268556
 30
0.0
 10
11.1378708863
 20
10.3373180309
 30
0.0
 10
11.134763883
 20
10.3396915028
 30
0.0
 10
11.1314516624
 20
10.3420461784
 30
0.0
 10
11.1279358419
 20
10.3443808631
 30
0.0
 10
11.1242181884
 20
10.3466944382
 30
0.0
 10
11.1203005546
 20
10.3489857674
 30
0.0
 10
11.116184883
 20
10.3512536706
 30
0.0
 10
11.1118732459
 20
10.3534970894
 30
0.0
 10
11.1057697873
 20
10.3565013404
 30
0.0
 10
11.0976573114
 20
10.3601783064
 30
0.0
 10
11.0873247102
 20
10.364408638
 30
0.0
 10
11.0762675612
 20
10.3685150555
 30
0.0
 10
11.0645080843
 20
10.3724892405
 30
0.0
 10
11.0520697574
 20
10.3763231362
 30
0.0
 10
11.0389775522
 20
10.380008943
 30
0.0
 10
11.0252577917
 20
10.3835391545
 30
0.0
 10
11.0109381156
 20
10.3869065864
 30
0.0
 10
10.9960474025
 20
10.39010438
 30
0.0
 10
10.9806157032
 20
10.3931260208
 30
0.0
 10
10.964674178
 20
10.39596535
 30
0.0
 10
10.9482550362
 20
10.3986165844
 30
0.0
 10
10.9313914674
 20
10.4010743314
 30
0.0
 10
10.914117567
 20
10.4033335887
 30
0.0
 10
10.8964682648
 20
10.4053897572
 30
0.0
 10
10.8784792535
 20
10.4072386501
 30
0.0
 10
10.8601869306
 20
10.4088765024
 30
0.0
 10
10.8416282734
 20
10.4103000092
 30
0.0
 10
10.8164683756
 20
10.4119153195
 30
0.0
 10
10.7846300392
 20
10.4133741399
 30
0.0
 10
10.7461372438
 20
10.4142288476
 30
0.0
 10
10.7075023593
 20
10.4141881029
 30
0.0
 10
10.6690379293
 20
10.4132522159
 30
0.0
 10
10.6372413017
 20
10.4117260396
 30
0.0
 10
10.6121288217
 20
10.4100572693
 30
0.0
 10
10.5936158095
 20
10.4085945542
 30
0.0
 10
10.5753759032
 20
10.4069180674
 30
0.0
 10
10.5574459703
 20
10.4050311956
 30
0.0
 10
10.5398622887
 20
10.4029377824
 30
0.0
 10
10.5226604215
 20
10.4006420802
 30
0.0
 10
10.5058751529
 20
10.3981487653
 30
0.0
 10
10.4895404141
 20
10.3954629155
 30
0.0
 10
10.4736892184
 20
10.3925899997
 30
0.0
 10
10.4583535933
 20
10.3895358659
 30
0.0
 10
10.4435645081
 20
10.3863067308
 30
0.0
 10
10.4293518033
 20
10.382909178
 30
0.0
 10
10.4157441296
 20
10.3793501299
 30
0.0
 10
10.4027688912
 20
10.375636835
 30
0.0
 10
10.3904521741
 20
10.3717768459
 30
0.0
 10
10.3788187019
 20
10.3677780079
 30
0.0
 10
10.3678916767
 20
10.3636484306
 30
0.0
 10
10.3576930428
 20
10.359396469
 30
0.0
 10
10.3496954388
 20
10.3557018696
 30
0.0
 10
10.3436859219
 20
10.3526841871
 30
0.0
 10
10.3394452943
 20
10.3504317376
 30
0.0
 10
10.3354014059
 20
10.3481551724
 30
0.0
 10
10.3315562748
 20
10.3458556189
 30
0.0
 10
10.3279118164
 20
10.3435342566
 30
0.0
 10
10.3244698542
 20
10.3411921726
 30
0.0
 10
10.3212320475
 20
10.3388305293
 30
0.0
 10
10.3182000069
 20
10.3364504032
 30
0.0
 10
10.3153753968
 20
10.334053109
 30
0.0
 10
10.3135963388
 20
10.3324117842
 30
0.0
 10
10.3127437164
 20
10.3315882142
 30
0.0
  0
SPLINE
  5
3A0
100
AcDbEntity
  8
0
100
AcDbSpline
 62
7
  6
CONTINUOUS
 70
0
 71
3
 72
96
 73
92
 74
0
 42
0.0000001
 43
0.0000001
 44
0.0000000001
 40
0.0
 40
0.0
 40
0.0
 40
0.0
 40
0.0041939212
 40
0.0085762269
 40
0.0131520052
 40
0.0179255503
 40
0.0229003895
 40
0.0280791136
 40
0.0334634798
 40
0.039054619
 40
0.0448530484
 40
0.0508588136
 40
0.0570714162
 40
0.0634899855
 40
0.0701132151
 40
0.0769394762
 40
0.0911924427
 40
0.1062302232
 40
0.1220294549
 40
0.1385631627
 40
0.1558011854
 40
0.173710526
 40
0.1922556446
 40
0.2113987132
 40
0.2310998404
 40
0.2513172756
 40
0.2720075971
 40
0.2931258893
 40
0.3146259101
 40
0.3364602548
 40
0.358580515
 40
0.380937433
 40
0.4034810543
 40
0.4261608786
 40
0.4489260088
 40
0.4717253002
 40
0.4945075089
 40
0.5172214402
 40
0.5398160978
 40
0.5622408322
 40
0.5844454903
 40
0.6063805658
 40
0.6279973504
 40
0.649248088
 40
0.6700861315
 40
0.6904661036
 40
0.7103440641
 40
0.7296776851
 40
0.7484264339
 40
0.7665517712
 40
0.7840173684
 40
0.8007893512
 40
0.8168365781
 40
0.8321309695
 40
0.8466479033
 40
0.8536084389
 40
0.8603672363
 40
0.8669224108
 40
0.8732724521
 40
0.8794161948
 40
0.8853528766
 40
0.891082198
 40
0.8966043145
 40
0.9019199826
 40
0.9070305141
 40
0.9119379754
 40
0.9166451634
 40
0.9211558052
 40
0.925474617
 40
0.9296074706
 40
0.9335615598
 40
0.9373455271
 40
0.9409697129
 40
0.9444462457
 40
0.9477892864
 40
0.9510150553
 40
0.9541419228
 40
0.9571902809
 40
0.9601823275
 40
0.9631416685
 40
0.9660927703
 40
0.969060322
 40
0.9720685748
 40
0.9751407156
 40
0.9782983924
 40
0.981561316
 40
0.9849471178
 40
0.9884713701
 40
0.9921476423
 40
0.9959874147
 40
1.0
 40
1.0
 40
1.0
 40
1.0
 10
10.2774874422
 20
10.3692895192
 30
0.0
 10
10.2784982996
 20
10.3702659325
 30
0.0
 10
10.2806156862
 20
10.3722110979
 30
0.0
 10
10.2839926749
 20
10.3750451634
 30
0.0
 10
10.2876370054
 20
10.3778567024
 30
0.0
 10
10.2915463098
 20
10.3806439753
 30
0.0
 10
10.2957183413
 20
10.3834054244
 30
0.0
 10
10.3001506549
 20
10.3861394745
 30
0.0
 10
10.3048406289
 20
10.3888445351
 30
0.0
 10
10.3097854864
 20
10.391518961
 30
0.0
 10
10.3149822688
 20
10.3941612172
 30
0.0
 10
10.3204279035
 20
10.3967696756
 30
0.0
 10
10.3261191273
 20
10.3993428365
 30
0.0
 10
10.3320525525
 20
10.4018790999
 30
0.0
 10
10.3382246276
 20
10.4043770062
 30
0.0
 10
10.3468924682
 20
10.4077022624
 30
0.0
 10
10.3583041279
 20
10.4117418184
 30
0.0
 10
10.3726978476
 20
10.4163458435
 30
0.0
 10
10.3879473975
 20
10.4207624649
 30
0.0
 10
10.4040161883
 20
10.4249809807
 30
0.0
 10
10.4208658004
 20
10.4289911549
 30
0.0
 10
10.4384558214
 20
10.4327832552
 30
0.0
 10
10.4567440342
 20
10.4363480777
 30
0.0
 10
10.475686505
 20
10.4396769719
 30
0.0
 10
10.4952377024
 20
10.4427618616
 30
0.0
 10
10.5153506103
 20
10.4455952646
 30
0.0
 10
10.5359768453
 20
10.4481703105
 30
0.0
 10
10.5570667759
 20
10.4504807568
 30
0.0
 10
10.578569644
 20
10.4525210049
 30
0.0
 10
10.6004336897
 20
10.4542861122
 30
0.0
 10
10.6226062779
 20
10.4557718034
 30
0.0
 10
10.6450340263
 20
10.4569744807
 30
0.0
 10
10.6676629352
 20
10.4578912317
 30
0.0
 10
10.6904385178
 20
10.4585198367
 30
0.0
 10
10.7133059323
 20
10.4588587733
 30
0.0
 10
10.7362101146
 20
10.4589072207
 30
0.0
 10
10.7590959111
 20
10.4586650608
 30
0.0
 10
10.7819082128
 20
10.4581328801
 30
0.0
 10
10.8045920887
 20
10.4573119676
 30
0.0
 10
10.8270929188
 20
10.4562043113
 30
0.0
 10
10.8493565267
 20
10.4548125937
 30
0.0
 10
10.8713293098
 20
10.4531401852
 30
0.0
 10
10.8929583703
 20
10.4511911365
 30
0.0
 10
10.9141916429
 20
10.4489701693
 30
0.0
 10
10.9349780216
 20
10.4464826648
 30
0.0
 10
10.9552674848
 20
10.4437346515
 30
0.0
 10
10.9750112188
 20
10.4407327915
 30
0.0
 10
10.9941617383
 20
10.4374843655
 30
0.0
 10
11.0126730045
 20
10.433997254
 30
0.0
 10
11.0305005385
 20
10.4302799185
 30
0.0
 10
11.0476015405
 20
10.4263413812
 30
0.0
 10
11.0639349801
 20
10.4221912009
 30
0.0
 10
11.0794617797
 20
10.4178394509
 30
0.0
 10
11.0941446661
 20
10.413296675
 30
0.0
 10
11.105805953
 20
10.4093071371
 30
0.0
 10
11.1146793963
 20
10.4060202279
 30
0.0
 10
11.121008533
 20
10.4035487684
 30
0.0
 10
11.1271014601
 20
10.4010379164
 30
0.0
 10
11.1329545433
 20
10.3984891812
 30
0.0
 10
11.1385642806
 20
10.3959040902
 30
0.0
 10
11.1439273193
 20
10.3932841788
 30
0.0
 10
11.1490404729
 20
10.3906310411
 30
0.0
 10
11.1539006825
 20
10.38794621
 30
0.0
 10
11.158505085
 20
10.3852313331
 30
0.0
 10
11.1628509261
 20
10.3824879463
 30
0.0
 10
11.1669356645
 20
10.3797177129
 30
0.0
 10
11.1707568656
 20
10.3769221863
 30
0.0
 10
11.1743122936
 20
10.374102999
 30
0.0
 10
11.177599844
 20
10.3712617268
 30
0.0
 10
11.1806175558
 20
10.3683999347
 30
0.0
 10
11.1833636443
 20
10.3655192089
 30
0.0
 10
11.1858363752
 20
10.3626210368
 30
0.0
 10
11.1880342331
 20
10.3597069994
 30
0.0
 10
11.1899556517
 20
10.3567785523
 30
0.0
 10
11.1915992895
 20
10.3538372971
 30
0.0
 10
11.1929637187
 20
10.3508847943
 30
0.0
 10
11.1940477059
 20
10.3479227962
 30
0.0
 10
11.1948500559
 20
10.3449531762
 30
0.0
 10
11.1953697691
 20
10.341978026
 30
0.0
 10
11.195606183
 20
10.3389996332
 30
0.0
 10
11.1955588716
 20
10.3360204188
 30
0.0
 10
11.1952280127
 20
10.3330428399
 30
0.0
 10
11.1946139645
 20
10.3300692955
 30
0.0
 10
11.1937176467
 20
10.3271019829
 30
0.0
 10
11.1925400213
 20
10.3241429537
 30
0.0
 10
11.1910823874
 20
10.3211940207
 30
0.0
 10
11.1893460324
 20
10.318256867
 30
0.0
 10
11.1873323035
 20
10.3153330536
 30
0.0
 10
11.1850426019
 20
10.3124240605
 30
0.0
 10
11.1824785872
 20
10.3095316057
 30
0.0
 10
11.1806293264
 20
10.3076576843
 30
0.0
 10
11.1796621762
 20
10.3067234889
 30
0.0
  0
SPLINE
  5
3A1
100
AcDbEntity
  8
0
100
AcDbSpline
 62
4
  6
CONTINUOUS
 70
0
 71
3
 72
377
 73
373
 74
0
 42
0.0000001
 43
0.0000001
 44
0.0000000001
 40
0.0
 40
0.0
 40
0.0
 40
0.0
 40
0.015625
 40
0.0234375
 40
0.03125
 40
0.0390625
 40
0.04296875
 40
0.046875
 40
0.05078125
 40
0.0546875
 40
0.056640625
 40
0.05859375
 40
0.0595703125
 40
0.060546875
 40
0.0615234375
 40
0.0620117188
 40
0.0625
 40
0.0629882812
 40
0.0634765625
 40
0.064453125
 40
0.0654296875
 40
0.06640625
 40
0.068359375
 40
0.0703125
 40
0.07421875
 40
0.078125
 40
0.08203125
 40
0.0859375
 40
0.09375
 40
0.1015625
 40
0.10546875
 40
0.109375
 40
0.11328125
 40
0.1171875
 40
0.119140625
 40
0.12109375
 40
0.1220703125
 40
0.123046875
 40
0.1240234375
 40
0.1245117188
 40
0.125
 40
0.1254882812
 40
0.1259765625
 40
0.126953125
 40
0.1279296875
 40
0.12890625
 40
0.130859375
 40
0.1328125
 40
0.13671875
 40
0.140625
 40
0.14453125
 40
0.1484375
 40
0.15625
 40
0.1640625
 40
0.16796875
 40
0.171875
 40
0.17578125
 40
0.1796875
 40
0.181640625
 40
0.18359375
 40
0.1845703125
 40
0.185546875
 40
0.1865234375
 40
0.1870117188
 40
0.1872558594
 40
0.1875
 40
0.1877441406
 40
0.1879882812
 40
0.1884765625
 40
0.189453125
 40
0.1904296875
 40
0.19140625
 40
0.193359375
 40
0.1953125
 40
0.19921875
 40
0.203125
 40
0.20703125
 40
0.2109375
 40
0.21875
 40
0.2265625
 40
0.23046875
 40
0.234375
 40
0.23828125
 40
0.2421875
 40
0.244140625
 40
0.24609375
 40
0.2470703125
 40
0.248046875
 40
0.2490234375
 40
0.2495117188
 40
0.2497558594
 40
0.25
 40
0.2502441406
 40
0.2504882812
 40
0.2509765625
 40
0.251953125
 40
0.2529296875
 40
0.25390625
 40
0.255859375
 40
0.2578125
 40
0.26171875
 40
0.265625
 40
0.26953125
 40
0.2734375
 40
0.28125
 40
0.2890625
 40
0.29296875
 40
0.296875
 40
0.30078125
 40
0.3046875
 40
0.306640625
 40
0.30859375
 40
0.3095703125
 40
0.310546875
 40
0.3115234375
 40
0.3120117188
 40
0.3125
 40
0.3129882812
 40
0.3134765625
 40
0.314453125
 40
0.3154296875
 40
0.31640625
 40
0.318359375
 40
0.3203125
 40
0.32421875
 40
0.328125
 40
0.33203125
 40
0.3359375
 40
0.34375
 40
0.3515625
 40
0.35546875
 40
0.359375
 40
0.36328125
 40
0.3671875
 40
0.369140625
 40
0.37109375
 40
0.3720703125
 40
0.373046875
 40
0.3740234375
 40
0.3745117188
 40
0.375
 40
0.3754882812
 40
0.3759765625
 40
0.376953125
 40
0.3779296875
 40
0.37890625
 40
0.380859375
 40
0.3828125
 40
0.38671875
 40
0.390625
 40
0.39453125
 40
0.3984375
 40
0.40625
 40
0.4140625
 40
0.41796875
 40
0.421875
 40
0.42578125
 40
0.4296875
 40
0.431640625
 40
0.43359375
 40
0.4345703125
 40
0.435546875
 40
0.4365234375
 40
0.4370117188
 40
0.4372558594
 40
0.4375
 40
0.4377441406
 40
0.4379882812
 40
0.4384765625
 40
0.439453125
 40
0.4404296875
 40
0.44140625
 40
0.443359375
 40
0.4453125
 40
0.44921875
 40
0.453125
 40
0.45703125
 40
0.4609375
 40
0.46875
 40
0.4765625
 40
0.48046875
 40
0.484375
 40
0.48828125
 40
0.4921875
 40
0.494140625
 40
0.49609375
 40
0.4970703125
 40
0.498046875
 40
0.4990234375
 40
0.4995117188
 40
0.5
 40
0.5004882812
 40
0.5009765625
 40
0.501953125
 40
0.5029296875
 40
0.50390625
 40
0.505859375
 40
0.5078125
 40
0.51171875
 40
0.515625
 40
0.51953125
 40
0.5234375
 40
0.53125
 40
0.5390625
 40
0.54296875
 40
0.546875
 40
0.55078125
 40
0.5546875
 40
0.556640625
 40
0.55859375
 40
0.5595703125
 40
0.560546875
 40
0.5615234375
 40
0.5620117188
 40
0.5625
 40
0.5629882812
 40
0.5634765625
 40
0.564453125
 40
0.5654296875
 40
0.56640625
 40
0.568359375
 40
0.5703125
 40
0.57421875
 40
0.578125
 40
0.58203125
 40
0.5859375
 40
0.59375
 40
0.6015625
 40
0.60546875
 40
0.609375
 40
0.61328125
 40
0.6171875
 40
0.619140625
 40
0.62109375
 40
0.6220703125
 40
0.623046875
 40
0.6240234375
 40
0.6245117188
 40
0.625
 40
0.6254882812
 40
0.6259765625
 40
0.626953125
 40
0.6279296875
 40
0.62890625
 40
0.630859375
 40
0.6328125
 40
0.63671875
 40
0.640625
 40
0.64453125
 40
0.6484375
 40
0.65625
 40
0.6640625
 40
0.66796875
 40
0.671875
 40
0.67578125
 40
0.6796875
 40
0.681640625
 40
0.68359375
 40
0.6845703125
 40
0.685546875
 40
0.6865234375
 40
0.6870117188
 40
0.6875
 40
0.6879882812
 40
0.6884765625
 40
0.689453125
 40
0.6904296875
 40
0.69140625
 40
0.693359375
 40
0.6953125
 40
0.69921875
 40
0.703125
 40
0.70703125
 40
0.7109375
 40
0.71875
 40
0.7265625
 40
0.73046875
 40
0.734375
 40
0.73828125
 40
0.7421875
 40
0.744140625
 40
0.74609375
 40
0.7470703125
 40
0.748046875
 40
0.7490234375
 40
0.7495117188
 40
0.75
 40
0.7504882812
 40
0.7509765625
 40
0.751953125
 40
0.7529296875
 40
0.75390625
 40
0.755859375
 40
0.7578125
 40
0.76171875
 40
0.765625
 40
0.76953125
 40
0.7734375
 40
0.78125
 40
0.7890625
 40
0.79296875
 40
0.796875
 40
0.80078125
 40
0.8046875
 40
0.806640625
 40
0.80859375
 40
0.810546875
 40
0.8115234375
 40
0.8120117188
 40
0.8125
 40
0.8129882812
 40
0.8134765625
 40
0.814453125
 40
0.81640625
 40
0.818359375
 40
0.8203125
 40
0.82421875
 40
0.828125
 40
0.83203125
 40
0.8359375
 40
0.84375
 40
0.8515625
 40
0.85546875
 40
0.859375
 40
0.86328125
 40
0.8671875
 40
0.869140625
 40
0.87109375
 40
0.8720703125
 40
0.873046875
 40
0.8740234375
 40
0.8745117188
 40
0.875
 40
0.8754882812
 40
0.8759765625
 40
0.876953125
 40
0.8779296875
 40
0.87890625
 40
0.880859375
 40
0.8828125
 40
0.88671875
 40
0.890625
 40
0.89453125
 40
0.8984375
 40
0.90625
 40
0.9140625
 40
0.91796875
 40
0.921875
 40
0.92578125
 40
0.9296875
 40
0.931640625
 40
0.93359375
 40
0.9345703125
 40
0.935546875
 40
0.9365234375
 40
0.9370117188
 40
0.9375
 40
0.9379882812
 40
0.9384765625
 40
0.939453125
 40
0.9404296875
 40
0.94140625
 40
0.943359375
 40
0.9453125
 40
0.94921875
 40
0.953125
 40
0.95703125
 40
0.9609375
 40
0.96875
 40
0.9765625
 40
0.984375
 40
1.0
 40
1.0
 40
1.0
 40
1.0
 10
10.3074804554
 20
9.1999835456
 30
0.0
 10
10.3102946952
 20
9.2000643161
 30
0.0
 10
10.3145160548
 20
9.2001854717
 30
0.0
 10
10.3201445343
 20
9.2003470126
 30
0.0
 10
10.3243658939
 20
9.2004681681
 30
0.0
 10
10.3278836935
 20
9.2005691316
 30
0.0
 10
10.3306979334
 20
9.2006499012
 30
0.0
 10
10.3328086128
 20
9.2007104815
 30
0.0
 10
10.3349192944
 20
9.2007710499
 30
0.0
 10
10.3366781885
 20
9.2008215608
 30
0.0
 10
10.3380853201
 20
9.200861886
 30
0.0
 10
10.3389647402
 20
9.2008872796
 30
0.0
 10
10.3396683614
 20
9.2009071585
 30
0.0
 10
10.3401958442
 20
9.2009232612
 30
0.0
 10
10.3406361547
 20
9.2009328836
 30
0.0
 10
10.34098674
 20
9.2009490963
 30
0.0
 10
10.3412542234
 20
9.2009379894
 30
0.0
 10
10.3415043606
 20
9.2010156908
 30
0.0
 10
10.341843936
 20
9.2010882708
 30
0.0
 10
10.3422663264
 20
9.2011896393
 30
0.0
 10
10.3427740847
 20
9.2013067257
 30
0.0
 10
10.343450785
 20
9.2014644321
 30
0.0
 10
10.3442967668
 20
9.2016610203
 30
0.0
 10
10.3456502782
 20
9.2019758659
 30
0.0
 10
10.3473421879
 20
9.2023693184
 30
0.0
 10
10.3493724707
 20
9.2028415062
 30
0.0
 10
10.3514027559
 20
9.2033136821
 30
0.0
 10
10.3541098019
 20
9.2039432541
 30
0.0
 10
10.3574936098
 20
9.2047302175
 30
0.0
 10
10.3608774174
 20
9.2055171819
 30
0.0
 10
10.363584464
 20
9.2061467523
 30
0.0
 10
10.3656147477
 20
9.2066189331
 30
0.0
 10
10.367645036
 20
9.2070911024
 30
0.0
 10
10.3693369286
 20
9.2074846125
 30
0.0
 10
10.3706904747
 20
9.2077993406
 30
0.0
 10
10.3715363681
 20
9.2079962278
 30
0.0
 10
10.3722132499
 20
9.2081533206
 30
0.0
 10
10.3727204538
 20
9.2082722815
 30
0.0
 10
10.3731445786
 20
9.2083677851
 30
0.0
 10
10.3734806156
 20
9.2084523306
 30
0.0
 10
10.3737415591
 20
9.20849349
 30
0.0
 10
10.3739684707
 20
9.2086195771
 30
0.0
 10
10.3742829074
 20
9.2087580269
 30
0.0
 10
10.3746718745
 20
9.2089412676
 30
0.0
 10
10.3751403808
 20
9.2091567997
 30
0.0
 10
10.3757644462
 20
9.2094456976
 30
0.0
 10
10.3765447367
 20
9.2098062989
 30
0.0
 10
10.3777930847
 20
9.2103835521
 30
0.0
 10
10.3793535599
 20
9.2111050188
 30
0.0
 10
10.3812261129
 20
9.2119708216
 30
0.0
 10
10.3830986704
 20
9.212836613
 30
0.0
 10
10.3855954123
 20
9.2139910054
 30
0.0
 10
10.3887163401
 20
9.2154339947
 30
0.0
 10
10.3918372679
 20
9.2168769843
 30
0.0
 10
10.3943340099
 20
9.2180313763
 30
0.0
 10
10.3962065669
 20
9.2188971692
 30
0.0
 10
10.3980791219
 20
9.2197629661
 30
0.0
 10
10.3996395909
 20
9.2204844512
 30
0.0
 10
10.4008879515
 20
9.221061667
 30
0.0
 10
10.4016682101
 20
9.2214223636
 30
0.0
 10
10.402292341
 20
9.2217110657
 30
0.0
 10
10.402760647
 20
9.221927196
 30
0.0
 10
10.403150241
 20
9.222108565
 30
0.0
 10
10.4034242539
 20
9.2222330499
 30
0.0
 10
10.4035788075
 20
9.222308046
 30
0.0
 10
10.4037004276
 20
9.2223534142
 30
0.0
 10
10.4038002405
 20
9.2224403671
 30
0.0
 10
10.403940931
 20
9.222541799
 30
0.0
 10
10.4041835952
 20
9.2227260632
 30
0.0
 10
10.4045321113
 20
9.2229857644
 30
0.0
 10
10.4049495375
 20
9.2232989183
 30
0.0
 10
10.4055063828
 20
9.2237159285
 30
0.0
 10
10.4062023446
 20
9.2242373721
 30
0.0
 10
10.4073159364
 20
9.2250715809
 30
0.0
 10
10.408707908
 20
9.2261143765
 30
0.0
 10
10.4103782817
 20
9.2273657163
 30
0.0
 10
10.4120486534
 20
9.2286170602
 30
0.0
 10
10.4142758163
 20
9.2302855172
 30
0.0
 10
10.4170597696
 20
9.2323710891
 30
0.0
 10
10.4198437232
 20
9.2344566606
 30
0.0
 10
10.4220708858
 20
9.2361251182
 30
0.0
 10
10.4237412586
 20
9.2373764605
 30
0.0
 10
10.425411628
 20
9.2386278059
 30
0.0
 10
10.4268036129
 20
9.2396705843
 30
0.0
 10
10.4279171776
 20
9.2405048282
 30
0.0
 10
10.4286132086
 20
9.2410261824
 30
0.0
 10
10.4291699117
 20
9.2414433762
 30
0.0
 10
10.4295877722
 20
9.2417559693
 30
0.0
 10
10.4299349295
 20
9.242017425
 30
0.0
 10
10.4301800195
 20
9.2421985572
 30
0.0
 10
10.4303168232
 20
9.2423050073
 30
0.0
 10
10.4304285749
 20
9.2423765459
 30
0.0
 10
10.4305053551
 20
9.2424798075
 30
0.0
 10
10.4306199271
 20
9.2426064242
 30
0.0
 10
10.4308147448
 20
9.242833159
 30
0.0
 10
10.431096027
 20
9.2431543706
 30
0.0
 10
10.4314322939
 20
9.2435409782
 30
0.0
 10
10.4318810939
 20
9.2440560519
 30
0.0
 10
10.4324419419
 20
9.2447000321
 30
0.0
 10
10.4333393836
 20
9.2457303233
 30
0.0
 10
10.4344611566
 20
9.2470182138
 30
0.0
 10
10.4358072967
 20
9.248563671
 30
0.0
 10
10.4371534334
 20
9.2501091312
 30
0.0
 10
10.4389482836
 20
9.2521697439
 30
0.0
 10
10.441191846
 20
9.2547455099
 30
0.0
 10
10.4434354081
 20
9.2573212761
 30
0.0
 10
10.4452302587
 20
9.2593818884
 30
0.0
 10
10.4465763941
 20
9.2609273496
 30
0.0
 10
10.4479225395
 20
9.2624728034
 30
0.0
 10
10.4490442961
 20
9.2637607046
 30
0.0
 10
10.4499417712
 20
9.2647909739
 30
0.0
 10
10.4505025341
 20
9.2654350097
 30
0.0
 10
10.4509515087
 20
9.2659499693
 30
0.0
 10
10.4512872424
 20
9.2663369258
 30
0.0
 10
10.4515701929
 20
9.2666570457
 30
0.0
 10
10.451789438
 20
9.2669183983
 30
0.0
 10
10.4519733143
 20
9.2671000489
 30
0.0
 10
10.4520829785
 20
9.2673365268
 30
0.0
 10
10.4522551207
 20
9.2676326787
 30
0.0
 10
10.4524614043
 20
9.2680094395
 30
0.0
 10
10.4527127516
 20
9.2684587399
 30
0.0
 10
10.4530465516
 20
9.2690587895
 30
0.0
 10
10.453464257
 20
9.2698085151
 30
0.0
 10
10.4541323311
 20
9.2710082641
 30
0.0
 10
10.454967511
 20
9.2725078858
 30
0.0
 10
10.4559696895
 20
9.2743074595
 30
0.0
 10
10.456971878
 20
9.2761070258
 30
0.0
 10
10.4583081258
 20
9.2785064501
 30
0.0
 10
10.4599784369
 20
9.2815057296
 30
0.0
 10
10.4616487471
 20
9.2845050096
 30
0.0
 10
10.4629849964
 20
9.2869044331
 30
0.0
 10
10.4639871804
 20
9.2887040021
 30
0.0
 10
10.4649893756
 20
9.2905035657
 30
0.0
 10
10.4658245036
 20
9.2920032188
 30
0.0
 10
10.4664926836
 20
9.2932029037
 30
0.0
 10
10.4669101194
 20
9.2939527925
 30
0.0
 10
10.4672444727
 20
9.294552507
 30
0.0
 10
10.4674941298
 20
9.295002831
 30
0.0
 10
10.4677057019
 20
9.2953763894
 30
0.0
 10
10.4678670545
 20
9.2956790748
 30
0.0
 10
10.4680096693
 20
9.2958955997
 30
0.0
 10
10.4680698356
 20
9.2961521622
 30
0.0
 10
10.4681788577
 20
9.2964802599
 30
0.0
 10
10.4683052541
 20
9.2968951805
 30
0.0
 10
10.4684611593
 20
9.2973910313
 30
0.0
 10
10.4686675556
 20
9.2980528831
 30
0.0
 10
10.4689260568
 20
9.2988799522
 30
0.0
 10
10.4693393759
 20
9.3002034
 30
0.0
 10
10.4698561219
 20
9.3018576627
 30
0.0
 10
10.4704761755
 20
9.3038427981
 30
0.0
 10
10.4710962402
 20
9.3058279281
 30
0.0
 10
10.4719229892
 20
9.3084747699
 30
0.0
 10
10.4729564268
 20
9.3117833217
 30
0.0
 10
10.4739898642
 20
9.3150918736
 30
0.0
 10
10.4748166137
 20
9.3177387152
 30
0.0
 10
10.4754366769
 20
9.319723846
 30
0.0
 10
10.476056736
 20
9.3217089783
 30
0.0
 10
10.4765734649
 20
9.3233632505
 30
0.0
 10
10.4769868189
 20
9.3246866789
 30
0.0
 10
10.4772452315
 20
9.3255137974
 30
0.0
 10
10.4774518094
 20
9.3261755478
 30
0.0
 10
10.4776071597
 20
9.3266717085
 30
0.0
 10
10.4777352922
 20
9.3270856592
 30
0.0
 10
10.4778275874
 20
9.3273744761
 30
0.0
 10
10.477876264
 20
9.3275409955
 30
0.0
 10
10.4779242183
 20
9.3276617125
 30
0.0
 10
10.4779284171
 20
9.3277983793
 30
0.0
 10
10.4779492778
 20
9.3279750381
 30
0.0
 10
10.4779786732
 20
9.3282867833
 30
0.0
 10
10.4780243842
 20
9.3287307784
 30
0.0
 10
10.4780776461
 20
9.3292641525
 30
0.0
 10
10.4781492179
 20
9.3299751154
 30
0.0
 10
10.4782384922
 20
9.3308638884
 30
0.0
 10
10.4783814376
 20
9.3322858865
 30
0.0
 10
10.4785600828
 20
9.3340633973
 30
0.0
 10
10.4787744726
 20
9.3361964047
 30
0.0
 10
10.4789888583
 20
9.3383294135
 30
0.0
 10
10.4792747073
 20
9.3411734248
 30
0.0
 10
10.4796320182
 20
9.3447284391
 30
0.0
 10
10.4799893288
 20
9.3482834533
 30
0.0
 10
10.4802751783
 20
9.3511274646
 30
0.0
 10
10.4804895623
 20
9.3532604731
 30
0.0
 10
10.4807039586
 20
9.3553934818
 30
0.0
 10
10.4808825839
 20
9.3571709884
 30
0.0
 10
10.4810255697
 20
9.3585929952
 30
0.0
 10
10.481114741
 20
9.3594817458
 30
0.0
 10
10.4811865243
 20
9.3601927547
 30
0.0
 10
10.48123914
 20
9.3607259883
 30
0.0
 10
10.4812868728
 20
9.3611704232
 30
0.0
 10
10.4813163428
 20
9.3615258061
 30
0.0
 10
10.4813622622
 20
9.3617927941
 30
0.0
 10
10.4813172718
 20
9.3620580612
 30
0.0
 10
10.4812890406
 20
9.3624123517
 30
0.0
 10
10.4812428563
 20
9.3628550086
 30
0.0
 10
10.4811920987
 20
9.3633862852
 30
0.0
 10
10.481122793
 20
9.3640946232
 30
0.0
 10
10.4810367186
 20
9.3649800562
 30
0.0
 10
10.4808986878
 20
9.3663967431
 30
0.0
 10
10.4807262563
 20
9.3681676038
 30
0.0
 10
10.4805192927
 20
9.3702926357
 30
0.0
 10
10.4803123413
 20
9.3724176679
 30
0.0
 10
10.4800364018
 20
9.375251044
 30
0.0
 10
10.4796914791
 20
9.3787927642
 30
0.0
 10
10.4793465553
 20
9.3823344844
 30
0.0
 10
10.4790706175
 20
9.3851678606
 30
0.0
 10
10.478863661
 20
9.3872928924
 30
0.0
 10
10.4786567164
 20
9.3894179258
 30
0.0
 10
10.4784842257
 20
9.3911887821
 30
0.0
 10
10.4783463156
 20
9.3926054778
 30
0.0
 10
10.4782599341
 20
9.3934908885
 30
0.0
 10
10.4781912588
 20
9.3941992723
 30
0.0
 10
10.4781385751
 20
9.3947304087
 30
0.0
 10
10.4780984171
 20
9.3951735042
 30
0.0
 10
10.4780578912
 20
9.3955269
 30
0.0
 10
10.478050448
 20
9.3957948996
 30
0.0
 10
10.4779553995
 20
9.3960516284
 30
0.0
 10
10.4778592699
 20
9.3963978705
 30
0.0
 10
10.4777286086
 20
9.3968293222
 30
0.0
 10
10.477576309
 20
9.3973476426
 30
0.0
 10
10.4773716733
 20
9.3980385344
 30
0.0
 10
10.4771164161
 20
9.3989022184
 30
0.0
 10
10.4767077041
 20
9.400284074
 30
0.0
 10
10.4761969173
 20
9.4020114068
 30
0.0
 10
10.4755839288
 20
9.4040842006
 30
0.0
 10
10.4749709522
 20
9.4061569958
 30
0.0
 10
10.474153646
 20
9.4089207222
 30
0.0
 10
10.4731320147
 20
9.4123753805
 30
0.0
 10
10.4721103824
 20
9.4158300386
 30
0.0
 10
10.4712930777
 20
9.4185937654
 30
0.0
 10
10.4706800963
 20
9.4206665595
 30
0.0
 10
10.470067126
 20
9.4227393574
 30
0.0
 10
10.4695562827
 20
9.4244666771
 30
0.0
 10
10.4691476858
 20
9.4258485596
 30
0.0
 10
10.4688921358
 20
9.4267121754
 30
0.0
 10
10.4686881011
 20
9.427403207
 30
0.0
 10
10.4685339654
 20
9.4279211003
 30
0.0
 10
10.4684090487
 20
9.4283538881
 30
0.0
 10
10.468301199
 20
9.4286974045
 30
0.0
 10
10.4682419431
 20
9.4289624574
 30
0.0
 10
10.4681001196
 20
9.4291992046
 30
0.0
 10
10.4679398635
 20
9.429524755
 30
0.0
 10
10.4677296479
 20
9.4299283006
 30
0.0
 10
10.4674816247
 20
9.4304140074
 30
0.0
 10
10.4671494478
 20
9.4310611093
 30
0.0
 10
10.4667347332
 20
9.4318701603
 30
0.0
 10
10.4660709067
 20
9.4331645449
 30
0.0
 10
10.4652412207
 20
9.434782559
 30
0.0
 10
10.4642455559
 20
9.4367241616
 30
0.0
 10
10.4632499022
 20
9.438665768
 30
0.0
 10
10.4619223601
 20
9.4412545752
 30
0.0
 10
10.4602629339
 20
9.4444905847
 30
0.0
 10
10.4586035067
 20
9.4477265938
 30
0.0
 10
10.4572759661
 20
9.4503154016
 30
0.0
 10
10.4562803078
 20
9.4522570062
 30
0.0
 10
10.4552846603
 20
9.4541986158
 30
0.0
 10
10.4544549204
 20
9.4558166079
 30
0.0
 10
10.4537912039
 20
9.4571110373
 30
0.0
 10
10.4533762093
 20
9.4579199742
 30
0.0
 10
10.4530446071
 20
9.4585673105
 30
0.0
 10
10.4527948282
 20
9.4590523012
 30
0.0
 10
10.4525901059
 20
9.4594580873
 30
0.0
 10
10.4524186423
 20
9.4597790667
 30
0.0
 10
10.4523110459
 20
9.4600297735
 30
0.0
 10
10.4521232874
 20
9.4602424157
 30
0.0
 10
10.4519009444
 20
9.460539235
 30
0.0
 10
10.4516134083
 20
9.4609056973
 30
0.0
 10
10.4512724773
 20
9.4613474046
 30
0.0
 10
10.4508164663
 20
9.4619356657
 30
0.0
 10
10.4502469444
 20
9.4626712256
 30
0.0
 10
10.4493354344
 20
9.4638479909
 30
0.0
 10
10.4481961412
 20
9.4653189924
 30
0.0
 10
10.4468289489
 20
9.4670841749
 30
0.0
 10
10.4454617675
 20
9.4688493626
 30
0.0
 10
10.4436388552
 20
9.4712029443
 30
0.0
 10
10.4413602161
 20
9.4741449222
 30
0.0
 10
10.4390815762
 20
9.4770868995
 30
0.0
 10
10.4372586652
 20
9.4794404823
 30
0.0
 10
10.4358914798
 20
9.481205667
 30
0.0
 10
10.4345243023
 20
9.4829708606
 30
0.0
 10
10.4333849632
 20
9.4844418276
 30
0.0
 10
10.432473547
 20
9.4856186632
 30
0.0
 10
10.4319037863
 20
9.4863540442
 30
0.0
 10
10.4314482653
 20
9.4869426725
 30
0.0
 10
10.4311058371
 20
9.4873832582
 30
0.0
 10
10.4308229856
 20
9.4877532298
 30
0.0
 10
10.4305910852
 20
9.4880428893
 30
0.0
 10
10.4304325143
 20
9.4882773971
 30
0.0
 10
10.4302153354
 20
9.4884460114
 30
0.0
 10
10.4299462361
 20
9.4886938478
 30
0.0
 10
10.4296028379
 20
9.4889957463
 30
0.0
 10
10.4291937667
 20
9.4893614046
 30
0.0
 10
10.4286472882
 20
9.4898477685
 30
0.0
 10
10.4279645496
 20
9.4904561275
 30
0.0
 10
10.4268719669
 20
9.4914292761
 30
0.0
 10
10.4255063076
 20
9.4926457893
 30
0.0
 10
10.4238674868
 20
9.4941055719
 30
0.0
 10
10.4222286739
 20
9.4955653634
 30
0.0
 10
10.4200435873
 20
9.497511749
 30
0.0
 10
10.4173122297
 20
9.4999447316
 30
0.0
 10
10.4145808729
 20
9.5023777155
 30
0.0
 10
10.4123957851
 20
9.5043240992
 30
0.0
 10
10.4107569757
 20
9.5057838963
 30
0.0
 10
10.4091181416
 20
9.507243658
 30
0.0
 10
10.4077525238
 20
9.5084602362
 30
0.0
 10
10.4066598563
 20
9.5094332521
 30
0.0
 10
10.405840829
 20
9.5101636881
 30
0.0
 10
10.4051568009
 20
9.5107702406
 30
0.0
 10
10.4046809354
 20
9.5111990353
 30
0.0
 10
10.4044043995
 20
9.5114374904
 30
0.0
 10
10.4042099917
 20
9.5116348408
 30
0.0
 10
10.403965914
 20
9.5117614399
 30
0.0
 10
10.4036578024
 20
9.5119549176
 30
0.0
 10
10.403110535
 20
9.5122820052
 30
0.0
 10
10.4023329447
 20
9.5127552846
 30
0.0
 10
10.4013980299
 20
9.5133206468
 30
0.0
 10
10.4001521078
 20
9.5140753619
 30
0.0
 10
10.3985944887
 20
9.5150184473
 30
0.0
 10
10.3967254386
 20
9.5161502821
 30
0.0
 10
10.3948563637
 20
9.5172820815
 30
0.0
 10
10.3923642724
 20
9.5187911596
 30
0.0
 10
10.3892491554
 20
9.5206775033
 30
0.0
 10
10.3861340393
 20
9.5225638479
 30
0.0
 10
10.3836419466
 20
9.5240729244
 30
0.0
 10
10.3817728759
 20
9.5252047289
 30
0.0
 10
10.3799038098
 20
9.5263365443
 30
0.0
 10
10.3783462403
 20
9.5272796901
 30
0.0
 10
10.3771002171
 20
9.5280342821
 30
0.0
 10
10.376321379
 20
9.5285057305
 30
0.0
 10
10.3756984769
 20
9.5288832822
 30
0.0
 10
10.3752308392
 20
9.52916537
 30
0.0
 10
10.3748426082
 20
9.529403866
 30
0.0
 10
10.3745287329
 20
9.5295869861
 30
0.0
 10
10.3743023178
 20
9.5297453027
 30
0.0
 10
10.3740415826
 20
9.5298235511
 30
0.0
 10
10.3737059242
 20
9.5299558512
 30
0.0
 10
10.373282238
 20
9.5301116304
 30
0.0
 10
10.3727755752
 20
9.5303026727
 30
0.0
 10
10.3720994098
 20
9.5305559612
 30
0.0
 10
10.3712544136
 20
9.5308730631
 30
0.0
 10
10.369902302
 20
9.5313801515
 30
0.0
 10
10.3682122028
 20
9.5320141063
 30
0.0
 10
10.3661840666
 20
9.5327748116
 30
0.0
 10
10.3641559349
 20
9.5335355277
 30
0.0
 10
10.3614517578
 20
9.534549812
 30
0.0
 10
10.358071537
 20
9.5358176689
 30
0.0
 10
10.3546913158
 20
9.5370855248
 30
0.0
 10
10.3519871393
 20
9.5380998107
 30
0.0
 10
10.3499590059
 20
9.5388605221
 30
0.0
 10
10.3479308761
 20
9.5396212451
 30
0.0
 10
10.346240757
 20
9.5402551449
 30
0.0
 10
10.3448886861
 20
9.5407623454
 30
0.0
 10
10.3440435863
 20
9.541079162
 30
0.0
 10
10.3433676334
 20
9.5413330361
 30
0.0
 10
10.3428603215
 20
9.5415222895
 30
0.0
 10
10.342438666
 20
9.5416836658
 30
0.0
 10
10.3420988645
 20
9.5418045465
 30
0.0
 10
10.3418507822
 20
9.5419176691
 30
0.0
 10
10.3415768633
 20
9.5419450535
 30
0.0
 10
10.3412206632
 20
9.5420115155
 30
0.0
 10
10.3407723166
 20
9.5420843176
 30
0.0
 10
10.340235626
 20
9.5421760782
 30
0.0
 10
10.3395195757
 20
9.5422968895
 30
0.0
 10
10.3386246713
 20
9.5424484297
 30
0.0
 10
10.3371927357
 20
9.5426906
 30
0.0
 10
10.3354028465
 20
9.5429934137
 30
0.0
 10
10.3332549665
 20
9.5433567469
 30
0.0
 10
10.33110709
 20
9.5437200917
 30
0.0
 10
10.3282432535
 20
9.5442045473
 30
0.0
 10
10.3246634582
 20
9.5448101183
 30
0.0
 10
10.3203677037
 20
9.5455368029
 30
0.0
 10
10.314640031
 20
9.5465057158
 30
0.0
 10
10.3103442765
 20
9.5472324005
 30
0.0
 10
10.3074804402
 20
9.547716857
 30
0.0
  0
SPLINE
  5
3A2
100
AcDbEntity
  8
0
100
AcDbSpline
 62
4
  6
CONTINUOUS
 70
0
 71
3
 72
377
 73
373
 74
0
 42
0.0000001
 43
0.0000001
 44
0.0000000001
 40
0.0
 40
0.0
 40
0.0
 40
0.0
 40
0.015625
 40
0.0234375
 40
0.03125
 40
0.0390625
 40
0.04296875
 40
0.046875
 40
0.05078125
 40
0.0546875
 40
0.056640625
 40
0.05859375
 40
0.0595703125
 40
0.060546875
 40
0.0615234375
 40
0.0620117188
 40
0.0625
 40
0.0629882812
 40
0.0634765625
 40
0.064453125
 40
0.0654296875
 40
0.06640625
 40
0.068359375
 40
0.0703125
 40
0.07421875
 40
0.078125
 40
0.08203125
 40
0.0859375
 40
0.09375
 40
0.1015625
 40
0.10546875
 40
0.109375
 40
0.11328125
 40
0.1171875
 40
0.119140625
 40
0.12109375
 40
0.1220703125
 40
0.123046875
 40
0.1240234375
 40
0.1245117188
 40
0.125
 40
0.1254882812
 40
0.1259765625
 40
0.126953125
 40
0.1279296875
 40
0.12890625
 40
0.130859375
 40
0.1328125
 40
0.13671875
 40
0.140625
 40
0.14453125
 40
0.1484375
 40
0.15625
 40
0.1640625
 40
0.16796875
 40
0.171875
 40
0.17578125
 40
0.1796875
 40
0.181640625
 40
0.18359375
 40
0.1845703125
 40
0.185546875
 40
0.1865234375
 40
0.1870117188
 40
0.1872558594
 40
0.1875
 40
0.1877441406
 40
0.1879882812
 40
0.1884765625
 40
0.189453125
 40
0.1904296875
 40
0.19140625
 40
0.193359375
 40
0.1953125
 40
0.19921875
 40
0.203125
 40
0.20703125
 40
0.2109375
 40
0.21875
 40
0.2265625
 40
0.23046875
 40
0.234375
 40
0.23828125
 40
0.2421875
 40
0.244140625
 40
0.24609375
 40
0.2470703125
 40
0.248046875
 40
0.2490234375
 40
0.2495117188
 40
0.2497558594
 40
0.25
 40
0.2502441406
 40
0.2504882812
 40
0.2509765625
 40
0.251953125
 40
0.2529296875
 40
0.25390625
 40
0.255859375
 40
0.2578125
 40
0.26171875
 40
0.265625
 40
0.26953125
 40
0.2734375
 40
0.28125
 40
0.2890625
 40
0.29296875
 40
0.296875
 40
0.30078125
 40
0.3046875
 40
0.306640625
 40
0.30859375
 40
0.3095703125
 40
0.310546875
 40
0.3115234375
 40
0.3120117188
 40
0.3125
 40
0.3129882812
 40
0.3134765625
 40
0.314453125
 40
0.3154296875
 40
0.31640625
 40
0.318359375
 40
0.3203125
 40
0.32421875
 40
0.328125
 40
0.33203125
 40
0.3359375
 40
0.34375
 40
0.3515625
 40
0.35546875
 40
0.359375
 40
0.36328125
 40
0.3671875
 40
0.369140625
 40
0.37109375
 40
0.3720703125
 40
0.373046875
 40
0.3740234375
 40
0.3745117188
 40
0.375
 40
0.3754882812
 40
0.3759765625
 40
0.376953125
 40
0.3779296875
 40
0.37890625
 40
0.380859375
 40
0.3828125
 40
0.38671875
 40
0.390625
 40
0.39453125
 40
0.3984375
 40
0.40625
 40
0.4140625
 40
0.41796875
 40
0.421875
 40
0.42578125
 40
0.4296875
 40
0.431640625
 40
0.43359375
 40
0.4345703125
 40
0.435546875
 40
0.4365234375
 40
0.4370117188
 40
0.4372558594
 40
0.4375
 40
0.4377441406
 40
0.4379882812
 40
0.4384765625
 40
0.439453125
 40
0.4404296875
 40
0.44140625
 40
0.443359375
 40
0.4453125
 40
0.44921875
 40
0.453125
 40
0.45703125
 40
0.4609375
 40
0.46875
 40
0.4765625
 40
0.48046875
 40
0.484375
 40
0.48828125
 40
0.4921875
 40
0.494140625
 40
0.49609375
 40
0.4970703125
 40
0.498046875
 40
0.4990234375
 40
0.4995117188
 40
0.5
 40
0.5004882812
 40
0.5009765625
 40
0.501953125
 40
0.5029296875
 40
0.50390625
 40
0.505859375
 40
0.5078125
 40
0.51171875
 40
0.515625
 40
0.51953125
 40
0.5234375
 40
0.53125
 40
0.5390625
 40
0.54296875
 40
0.546875
 40
0.55078125
 40
0.5546875
 40
0.556640625
 40
0.55859375
 40
0.5595703125
 40
0.560546875
 40
0.5615234375
 40
0.5620117188
 40
0.5625
 40
0.5629882812
 40
0.5634765625
 40
0.564453125
 40
0.5654296875
 40
0.56640625
 40
0.568359375
 40
0.5703125
 40
0.57421875
 40
0.578125
 40
0.58203125
 40
0.5859375
 40
0.59375
 40
0.6015625
 40
0.60546875
 40
0.609375
 40
0.61328125
 40
0.6171875
 40
0.619140625
 40
0.62109375
 40
0.6220703125
 40
0.623046875
 40
0.6240234375
 40
0.6245117188
 40
0.625
 40
0.6254882812
 40
0.6259765625
 40
0.626953125
 40
0.6279296875
 40
0.62890625
 40
0.630859375
 40
0.6328125
 40
0.63671875
 40
0.640625
 40
0.64453125
 40
0.6484375
 40
0.65625
 40
0.6640625
 40
0.66796875
 40
0.671875
 40
0.67578125
 40
0.6796875
 40
0.681640625
 40
0.68359375
 40
0.6845703125
 40
0.685546875
 40
0.6865234375
 40
0.6870117188
 40
0.6875
 40
0.6879882812
 40
0.6884765625
 40
0.689453125
 40
0.6904296875
 40
0.69140625
 40
0.693359375
 40
0.6953125
 40
0.69921875
 40
0.703125
 40
0.70703125
 40
0.7109375
 40
0.71875
 40
0.7265625
 40
0.73046875
 40
0.734375
 40
0.73828125
 40
0.7421875
 40
0.744140625
 40
0.74609375
 40
0.7470703125
 40
0.748046875
 40
0.7490234375
 40
0.7495117188
 40
0.75
 40
0.7504882812
 40
0.7509765625
 40
0.751953125
 40
0.7529296875
 40
0.75390625
 40
0.755859375
 40
0.7578125
 40
0.76171875
 40
0.765625
 40
0.76953125
 40
0.7734375
 40
0.78125
 40
0.7890625
 40
0.79296875
 40
0.796875
 40
0.80078125
 40
0.8046875
 40
0.806640625
 40
0.80859375
 40
0.810546875
 40
0.8115234375
 40
0.8120117188
 40
0.8125
 40
0.8129882812
 40
0.8134765625
 40
0.814453125
 40
0.81640625
 40
0.818359375
 40
0.8203125
 40
0.82421875
 40
0.828125
 40
0.83203125
 40
0.8359375
 40
0.84375
 40
0.8515625
 40
0.85546875
 40
0.859375
 40
0.86328125
 40
0.8671875
 40
0.869140625
 40
0.87109375
 40
0.8720703125
 40
0.873046875
 40
0.8740234375
 40
0.8745117188
 40
0.875
 40
0.8754882812
 40
0.8759765625
 40
0.876953125
 40
0.8779296875
 40
0.87890625
 40
0.880859375
 40
0.8828125
 40
0.88671875
 40
0.890625
 40
0.89453125
 40
0.8984375
 40
0.90625
 40
0.9140625
 40
0.91796875
 40
0.921875
 40
0.92578125
 40
0.9296875
 40
0.931640625
 40
0.93359375
 40
0.9345703125
 40
0.935546875
 40
0.9365234375
 40
0.9370117188
 40
0.9375
 40
0.9379882812
 40
0.9384765625
 40
0.939453125
 40
0.9404296875
 40
0.94140625
 40
0.943359375
 40
0.9453125
 40
0.94921875
 40
0.953125
 40
0.95703125
 40
0.9609375
 40
0.96875
 40
0.9765625
 40
0.984375
 40
1.0
 40
1.0
 40
1.0
 40
1.0
 10
10.3074804554
 20
9.5477168559
 30
0.0
 10
10.3046662157
 20
9.5476360855
 30
0.0
 10
10.3004448561
 20
9.5475149299
 30
0.0
 10
10.2948163766
 20
9.547353389
 30
0.0
 10
10.2905950169
 20
9.5472322334
 30
0.0
 10
10.2870772173
 20
9.54713127
 30
0.0
 10
10.2842629774
 20
9.5470505004
 30
0.0
 10
10.2821522981
 20
9.5469899201
 30
0.0
 10
10.2800416164
 20
9.5469293517
 30
0.0
 10
10.2782827223
 20
9.5468788407
 30
0.0
 10
10.2768755907
 20
9.5468385156
 30
0.0
 10
10.2759961707
 20
9.546813122
 30
0.0
 10
10.2752925495
 20
9.546793243
 30
0.0
 10
10.2747650667
 20
9.5467771404
 30
0.0
 10
10.2743247561
 20
9.546767518
 30
0.0
 10
10.2739741709
 20
9.5467513053
 30
0.0
 10
10.2737066874
 20
9.5467624121
 30
0.0
 10
10.2734565503
 20
9.5466847107
 30
0.0
 10
10.2731169748
 20
9.5466121307
 30
0.0
 10
10.2726945844
 20
9.5465107623
 30
0.0
 10
10.2721868261
 20
9.5463936759
 30
0.0
 10
10.2715101258
 20
9.5462359695
 30
0.0
 10
10.270664144
 20
9.5460393813
 30
0.0
 10
10.2693106326
 20
9.5457245357
 30
0.0
 10
10.267618723
 20
9.5453310831
 30
0.0
 10
10.2655884402
 20
9.5448588953
 30
0.0
 10
10.263558155
 20
9.5443867195
 30
0.0
 10
10.2608511089
 20
9.5437571475
 30
0.0
 10
10.257467301
 20
9.5429701841
 30
0.0
 10
10.2540834934
 20
9.5421832196
 30
0.0
 10
10.2513764469
 20
9.5415536493
 30
0.0
 10
10.2493461632
 20
9.5410814685
 30
0.0
 10
10.2473158749
 20
9.5406092992
 30
0.0
 10
10.2456239823
 20
9.5402157891
 30
0.0
 10
10.2442704361
 20
9.5399010609
 30
0.0
 10
10.2434245427
 20
9.5397041738
 30
0.0
 10
10.242747661
 20
9.539547081
 30
0.0
 10
10.242240457
 20
9.53942812
 30
0.0
 10
10.2418163322
 20
9.5393326165
 30
0.0
 10
10.2414802953
 20
9.539248071
 30
0.0
 10
10.2412193517
 20
9.5392069116
 30
0.0
 10
10.2409924401
 20
9.5390808245
 30
0.0
 10
10.2406780035
 20
9.5389423746
 30
0.0
 10
10.2402890364
 20
9.538759134
 30
0.0
 10
10.23982053
 20
9.5385436019
 30
0.0
 10
10.2391964647
 20
9.538254704
 30
0.0
 10
10.2384161742
 20
9.5378941027
 30
0.0
 10
10.2371678261
 20
9.5373168494
 30
0.0
 10
10.235607351
 20
9.5365953828
 30
0.0
 10
10.233734798
 20
9.53572958
 30
0.0
 10
10.2318622404
 20
9.5348637886
 30
0.0
 10
10.2293654986
 20
9.5337093961
 30
0.0
 10
10.2262445707
 20
9.5322664068
 30
0.0
 10
10.223123643
 20
9.5308234172
 30
0.0
 10
10.220626901
 20
9.5296690253
 30
0.0
 10
10.2187543439
 20
9.5288032323
 30
0.0
 10
10.2168817889
 20
9.5279374354
 30
0.0
 10
10.21532132
 20
9.5272159504
 30
0.0
 10
10.2140729593
 20
9.5266387346
 30
0.0
 10
10.2132927008
 20
9.5262780379
 30
0.0
 10
10.2126685699
 20
9.5259893359
 30
0.0
 10
10.2122002639
 20
9.5257732055
 30
0.0
 10
10.2118106698
 20
9.5255918366
 30
0.0
 10
10.211536657
 20
9.5254673517
 30
0.0
 10
10.2113821034
 20
9.5253923555
 30
0.0
 10
10.2112604832
 20
9.5253469874
 30
0.0
 10
10.2111606703
 20
9.5252600345
 30
0.0
 10
10.2110199799
 20
9.5251586025
 30
0.0
 10
10.2107773156
 20
9.5249743384
 30
0.0
 10
10.2104287996
 20
9.5247146371
 30
0.0
 10
10.2100113733
 20
9.5244014833
 30
0.0
 10
10.2094545281
 20
9.5239844731
 30
0.0
 10
10.2087585663
 20
9.5234630294
 30
0.0
 10
10.2076449745
 20
9.5226288207
 30
0.0
 10
10.2062530028
 20
9.5215860251
 30
0.0
 10
10.2045826291
 20
9.5203346852
 30
0.0
 10
10.2029122575
 20
9.5190833414
 30
0.0
 10
10.2006850946
 20
9.5174148843
 30
0.0
 10
10.1979011412
 20
9.5153293125
 30
0.0
 10
10.1951171876
 20
9.5132437409
 30
0.0
 10
10.1928900251
 20
9.5115752834
 30
0.0
 10
10.1912196523
 20
9.510323941
 30
0.0
 10
10.1895492829
 20
9.5090725956
 30
0.0
 10
10.1881572979
 20
9.5080298172
 30
0.0
 10
10.1870437333
 20
9.5071955734
 30
0.0
 10
10.1863477023
 20
9.5066742191
 30
0.0
 10
10.1857909991
 20
9.5062570254
 30
0.0
 10
10.1853731386
 20
9.5059444323
 30
0.0
 10
10.1850259814
 20
9.5056829766
 30
0.0
 10
10.1847808914
 20
9.5055018444
 30
0.0
 10
10.1846440876
 20
9.5053953943
 30
0.0
 10
10.184532336
 20
9.5053238556
 30
0.0
 10
10.1844555558
 20
9.5052205941
 30
0.0
 10
10.1843409837
 20
9.5050939774
 30
0.0
 10
10.1841461661
 20
9.5048672425
 30
0.0
 10
10.1838648839
 20
9.504546031
 30
0.0
 10
10.183528617
 20
9.5041594234
 30
0.0
 10
10.1830798169
 20
9.5036443496
 30
0.0
 10
10.182518969
 20
9.5030003694
 30
0.0
 10
10.1816215273
 20
9.5019700782
 30
0.0
 10
10.1804997543
 20
9.5006821878
 30
0.0
 10
10.1791536142
 20
9.4991367306
 30
0.0
 10
10.1778074774
 20
9.4975912703
 30
0.0
 10
10.1760126273
 20
9.4955306577
 30
0.0
 10
10.1737690649
 20
9.4929548917
 30
0.0
 10
10.1715255027
 20
9.4903791254
 30
0.0
 10
10.1697306521
 20
9.4883185131
 30
0.0
 10
10.1683845168
 20
9.4867730519
 30
0.0
 10
10.1670383714
 20
9.4852275982
 30
0.0
 10
10.1659166148
 20
9.483939697
 30
0.0
 10
10.1650191397
 20
9.4829094277
 30
0.0
 10
10.1644583767
 20
9.4822653918
 30
0.0
 10
10.1640094022
 20
9.4817504322
 30
0.0
 10
10.1636736685
 20
9.4813634758
 30
0.0
 10
10.163390718
 20
9.4810433559
 30
0.0
 10
10.1631714729
 20
9.4807820032
 30
0.0
 10
10.1629875966
 20
9.4806003526
 30
0.0
 10
10.1628779324
 20
9.4803638748
 30
0.0
 10
10.1627057902
 20
9.4800677229
 30
0.0
 10
10.1624995066
 20
9.4796909621
 30
0.0
 10
10.1622481593
 20
9.4792416616
 30
0.0
 10
10.1619143592
 20
9.4786416121
 30
0.0
 10
10.1614966539
 20
9.4778918865
 30
0.0
 10
10.1608285798
 20
9.4766921375
 30
0.0
 10
10.1599933999
 20
9.4751925158
 30
0.0
 10
10.1589912214
 20
9.4733929421
 30
0.0
 10
10.1579890329
 20
9.4715933758
 30
0.0
 10
10.1566527851
 20
9.4691939514
 30
0.0
 10
10.1549824739
 20
9.466194672
 30
0.0
 10
10.1533121638
 20
9.4631953919
 30
0.0
 10
10.1519759145
 20
9.4607959685
 30
0.0
 10
10.1509737304
 20
9.4589963995
 30
0.0
 10
10.1499715352
 20
9.4571968359
 30
0.0
 10
10.1491364072
 20
9.4556971827
 30
0.0
 10
10.1484682272
 20
9.4544974979
 30
0.0
 10
10.1480507914
 20
9.4537476091
 30
0.0
 10
10.1477164381
 20
9.4531478945
 30
0.0
 10
10.1474667811
 20
9.4526975706
 30
0.0
 10
10.147255209
 20
9.4523240122
 30
0.0
 10
10.1470938563
 20
9.4520213267
 30
0.0
 10
10.1469512416
 20
9.4518048019
 30
0.0
 10
10.1468910752
 20
9.4515482393
 30
0.0
 10
10.1467820531
 20
9.4512201416
 30
0.0
 10
10.1466556567
 20
9.4508052211
 30
0.0
 10
10.1464997516
 20
9.4503093703
 30
0.0
 10
10.1462933553
 20
9.4496475185
 30
0.0
 10
10.1460348541
 20
9.4488204494
 30
0.0
 10
10.1456215349
 20
9.4474970016
 30
0.0
 10
10.145104789
 20
9.4458427389
 30
0.0
 10
10.1444847354
 20
9.4438576035
 30
0.0
 10
10.1438646707
 20
9.4418724735
 30
0.0
 10
10.1430379216
 20
9.4392256316
 30
0.0
 10
10.142004484
 20
9.4359170799
 30
0.0
 10
10.1409710467
 20
9.432608528
 30
0.0
 10
10.1401442972
 20
9.4299616864
 30
0.0
 10
10.1395242339
 20
9.4279765556
 30
0.0
 10
10.1389041749
 20
9.4259914232
 30
0.0
 10
10.1383874459
 20
9.424337151
 30
0.0
 10
10.137974092
 20
9.4230137226
 30
0.0
 10
10.1377156793
 20
9.4221866041
 30
0.0
 10
10.1375091014
 20
9.4215248538
 30
0.0
 10
10.1373537511
 20
9.421028693
 30
0.0
 10
10.1372256186
 20
9.4206147423
 30
0.0
 10
10.1371333235
 20
9.4203259255
 30
0.0
 10
10.1370846469
 20
9.420159406
 30
0.0
 10
10.1370366926
 20
9.4200386891
 30
0.0
 10
10.1370324938
 20
9.4199020223
 30
0.0
 10
10.137011633
 20
9.4197253634
 30
0.0
 10
10.1369822377
 20
9.4194136182
 30
0.0
 10
10.1369365267
 20
9.4189696232
 30
0.0
 10
10.1368832647
 20
9.4184362491
 30
0.0
 10
10.136811693
 20
9.4177252861
 30
0.0
 10
10.1367224186
 20
9.4168365131
 30
0.0
 10
10.1365794733
 20
9.4154145151
 30
0.0
 10
10.1364008281
 20
9.4136370042
 30
0.0
 10
10.1361864382
 20
9.4115039969
 30
0.0
 10
10.1359720526
 20
9.4093709881
 30
0.0
 10
10.1356862036
 20
9.4065269768
 30
0.0
 10
10.1353288927
 20
9.4029719625
 30
0.0
 10
10.1349715821
 20
9.3994169483
 30
0.0
 10
10.1346857325
 20
9.3965729369
 30
0.0
 10
10.1344713485
 20
9.3944399284
 30
0.0
 10
10.1342569523
 20
9.3923069197
 30
0.0
 10
10.134078327
 20
9.3905294132
 30
0.0
 10
10.1339353411
 20
9.3891074063
 30
0.0
 10
10.1338461698
 20
9.3882186557
 30
0.0
 10
10.1337743866
 20
9.3875076468
 30
0.0
 10
10.1337217708
 20
9.3869744132
 30
0.0
 10
10.1336740381
 20
9.3865299784
 30
0.0
 10
10.1336445681
 20
9.3861745955
 30
0.0
 10
10.1335986486
 20
9.3859076074
 30
0.0
 10
10.133643639
 20
9.3856423404
 30
0.0
 10
10.1336718702
 20
9.3852880499
 30
0.0
 10
10.1337180545
 20
9.3848453929
 30
0.0
 10
10.1337688121
 20
9.3843141163
 30
0.0
 10
10.1338381179
 20
9.3836057784
 30
0.0
 10
10.1339241923
 20
9.3827203454
 30
0.0
 10
10.134062223
 20
9.3813036584
 30
0.0
 10
10.1342346545
 20
9.3795327978
 30
0.0
 10
10.1344416182
 20
9.3774077658
 30
0.0
 10
10.1346485696
 20
9.3752827337
 30
0.0
 10
10.134924509
 20
9.3724493575
 30
0.0
 10
10.1352694318
 20
9.3689076373
 30
0.0
 10
10.1356143556
 20
9.3653659172
 30
0.0
 10
10.1358902934
 20
9.3625325409
 30
0.0
 10
10.1360972498
 20
9.3604075091
 30
0.0
 10
10.1363041945
 20
9.3582824758
 30
0.0
 10
10.1364766851
 20
9.3565116194
 30
0.0
 10
10.1366145952
 20
9.3550949238
 30
0.0
 10
10.1367009768
 20
9.3542095131
 30
0.0
 10
10.136769652
 20
9.3535011293
 30
0.0
 10
10.1368223357
 20
9.3529699928
 30
0.0
 10
10.1368624938
 20
9.3525268973
 30
0.0
 10
10.1369030197
 20
9.3521735016
 30
0.0
 10
10.1369104628
 20
9.3519055019
 30
0.0
 10
10.1370055113
 20
9.3516487732
 30
0.0
 10
10.1371016409
 20
9.3513025311
 30
0.0
 10
10.1372323023
 20
9.3508710793
 30
0.0
 10
10.1373846018
 20
9.350352759
 30
0.0
 10
10.1375892376
 20
9.3496618671
 30
0.0
 10
10.1378444948
 20
9.3487981832
 30
0.0
 10
10.1382532067
 20
9.3474163275
 30
0.0
 10
10.1387639936
 20
9.3456889947
 30
0.0
 10
10.139376982
 20
9.343616201
 30
0.0
 10
10.1399899586
 20
9.3415434058
 30
0.0
 10
10.1408072649
 20
9.3387796793
 30
0.0
 10
10.1418288962
 20
9.335325021
 30
0.0
 10
10.1428505285
 20
9.331870363
 30
0.0
 10
10.1436678331
 20
9.3291066362
 30
0.0
 10
10.1442808146
 20
9.3270338421
 30
0.0
 10
10.1448937848
 20
9.3249610441
 30
0.0
 10
10.1454046281
 20
9.3232337244
 30
0.0
 10
10.145813225
 20
9.321851842
 30
0.0
 10
10.146068775
 20
9.3209882262
 30
0.0
 10
10.1462728098
 20
9.3202971945
 30
0.0
 10
10.1464269454
 20
9.3197793012
 30
0.0
 10
10.1465518621
 20
9.3193465134
 30
0.0
 10
10.1466597119
 20
9.3190029971
 30
0.0
 10
10.1467189678
 20
9.3187379441
 30
0.0
 10
10.1468607913
 20
9.318501197
 30
0.0
 10
10.1470210474
 20
9.3181756466
 30
0.0
 10
10.147231263
 20
9.317772101
 30
0.0
 10
10.1474792861
 20
9.3172863942
 30
0.0
 10
10.1478114631
 20
9.3166392923
 30
0.0
 10
10.1482261777
 20
9.3158302412
 30
0.0
 10
10.1488900042
 20
9.3145358566
 30
0.0
 10
10.1497196901
 20
9.3129178426
 30
0.0
 10
10.150715355
 20
9.31097624
 30
0.0
 10
10.1517110086
 20
9.3090346336
 30
0.0
 10
10.1530385508
 20
9.3064458264
 30
0.0
 10
10.154697977
 20
9.3032098169
 30
0.0
 10
10.1563574042
 20
9.2999738078
 30
0.0
 10
10.1576849447
 20
9.2973849999
 30
0.0
 10
10.158680603
 20
9.2954433954
 30
0.0
 10
10.1596762505
 20
9.2935017857
 30
0.0
 10
10.1605059904
 20
9.2918837937
 30
0.0
 10
10.1611697069
 20
9.2905893642
 30
0.0
 10
10.1615847015
 20
9.2897804274
 30
0.0
 10
10.1619163038
 20
9.2891330911
 30
0.0
 10
10.1621660827
 20
9.2886481004
 30
0.0
 10
10.1623708049
 20
9.2882423143
 30
0.0
 10
10.1625422685
 20
9.2879213349
 30
0.0
 10
10.162649865
 20
9.287670628
 30
0.0
 10
10.1628376235
 20
9.2874579859
 30
0.0
 10
10.1630599665
 20
9.2871611665
 30
0.0
 10
10.1633475025
 20
9.2867947043
 30
0.0
 10
10.1636884335
 20
9.286352997
 30
0.0
 10
10.1641444445
 20
9.2857647359
 30
0.0
 10
10.1647139665
 20
9.2850291759
 30
0.0
 10
10.1656254765
 20
9.2838524106
 30
0.0
 10
10.1667647697
 20
9.2823814092
 30
0.0
 10
10.1681319619
 20
9.2806162267
 30
0.0
 10
10.1694991433
 20
9.278851039
 30
0.0
 10
10.1713220557
 20
9.2764974572
 30
0.0
 10
10.1736006948
 20
9.2735554793
 30
0.0
 10
10.1758793346
 20
9.270613502
 30
0.0
 10
10.1777022457
 20
9.2682599193
 30
0.0
 10
10.1790694311
 20
9.2664947346
 30
0.0
 10
10.1804366085
 20
9.264729541
 30
0.0
 10
10.1815759477
 20
9.263258574
 30
0.0
 10
10.1824873639
 20
9.2620817384
 30
0.0
 10
10.1830571246
 20
9.2613463573
 30
0.0
 10
10.1835126455
 20
9.2607577291
 30
0.0
 10
10.1838550738
 20
9.2603171434
 30
0.0
 10
10.1841379253
 20
9.2599471718
 30
0.0
 10
10.1843698257
 20
9.2596575122
 30
0.0
 10
10.1845283966
 20
9.2594230045
 30
0.0
 10
10.1847455754
 20
9.2592543902
 30
0.0
 10
10.1850146748
 20
9.2590065537
 30
0.0
 10
10.1853580729
 20
9.2587046553
 30
0.0
 10
10.1857671442
 20
9.2583389969
 30
0.0
 10
10.1863136227
 20
9.2578526331
 30
0.0
 10
10.1869963613
 20
9.257244274
 30
0.0
 10
10.1880889439
 20
9.2562711255
 30
0.0
 10
10.1894546033
 20
9.2550546123
 30
0.0
 10
10.1910934241
 20
9.2535948297
 30
0.0
 10
10.192732237
 20
9.2521350382
 30
0.0
 10
10.1949173236
 20
9.2501886526
 30
0.0
 10
10.1976486812
 20
9.2477556699
 30
0.0
 10
10.200380038
 20
9.2453226861
 30
0.0
 10
10.2025651258
 20
9.2433763023
 30
0.0
 10
10.2042039351
 20
9.2419165053
 30
0.0
 10
10.2058427693
 20
9.2404567436
 30
0.0
 10
10.2072083871
 20
9.2392401653
 30
0.0
 10
10.2083010545
 20
9.2382671494
 30
0.0
 10
10.2091200819
 20
9.2375367134
 30
0.0
 10
10.20980411
 20
9.236930161
 30
0.0
 10
10.2102799755
 20
9.2365013663
 30
0.0
 10
10.2105565113
 20
9.2362629112
 30
0.0
 10
10.2107509192
 20
9.2360655608
 30
0.0
 10
10.2109949969
 20
9.2359389617
 30
0.0
 10
10.2113031084
 20
9.235745484
 30
0.0
 10
10.2118503758
 20
9.2354183964
 30
0.0
 10
10.2126279661
 20
9.234945117
 30
0.0
 10
10.213562881
 20
9.2343797548
 30
0.0
 10
10.214808803
 20
9.2336250397
 30
0.0
 10
10.2163664221
 20
9.2326819542
 30
0.0
 10
10.2182354723
 20
9.2315501195
 30
0.0
 10
10.2201045472
 20
9.2304183201
 30
0.0
 10
10.2225966385
 20
9.2289092419
 30
0.0
 10
10.2257117555
 20
9.2270228983
 30
0.0
 10
10.2288268716
 20
9.2251365536
 30
0.0
 10
10.2313189643
 20
9.2236274772
 30
0.0
 10
10.233188035
 20
9.2224956726
 30
0.0
 10
10.235057101
 20
9.2213638573
 30
0.0
 10
10.2366146705
 20
9.2204207115
 30
0.0
 10
10.2378606938
 20
9.2196661195
 30
0.0
 10
10.2386395319
 20
9.219194671
 30
0.0
 10
10.2392624339
 20
9.2188171193
 30
0.0
 10
10.2397300717
 20
9.2185350315
 30
0.0
 10
10.2401183026
 20
9.2182965355
 30
0.0
 10
10.2404321779
 20
9.2181134155
 30
0.0
 10
10.2406585931
 20
9.2179550988
 30
0.0
 10
10.2409193282
 20
9.2178768504
 30
0.0
 10
10.2412549866
 20
9.2177445503
 30
0.0
 10
10.2416786728
 20
9.2175887712
 30
0.0
 10
10.2421853357
 20
9.2173977288
 30
0.0
 10
10.2428615011
 20
9.2171444403
 30
0.0
 10
10.2437064973
 20
9.2168273385
 30
0.0
 10
10.2450586089
 20
9.21632025
 30
0.0
 10
10.246748708
 20
9.2156862953
 30
0.0
 10
10.2487768443
 20
9.21492559
 30
0.0
 10
10.2508049759
 20
9.2141648739
 30
0.0
 10
10.2535091531
 20
9.2131505895
 30
0.0
 10
10.2568893739
 20
9.2118827326
 30
0.0
 10
10.260269595
 20
9.2106148767
 30
0.0
 10
10.2629737716
 20
9.2096005908
 30
0.0
 10
10.2650019049
 20
9.2088398794
 30
0.0
 10
10.2670300348
 20
9.2080791564
 30
0.0
 10
10.2687201539
 20
9.2074452567
 30
0.0
 10
10.2700722248
 20
9.2069380561
 30
0.0
 10
10.2709173245
 20
9.2066212396
 30
0.0
 10
10.2715932775
 20
9.2063673655
 30
0.0
 10
10.2721005894
 20
9.2061781121
 30
0.0
 10
10.2725222448
 20
9.2060167357
 30
0.0
 10
10.2728620463
 20
9.2058958551
 30
0.0
 10
10.2731101287
 20
9.2057827324
 30
0.0
 10
10.2733840476
 20
9.205755348
 30
0.0
 10
10.2737402477
 20
9.205688886
 30
0.0
 10
10.2741885943
 20
9.205616084
 30
0.0
 10
10.2747252849
 20
9.2055243234
 30
0.0
 10
10.2754413352
 20
9.205403512
 30
0.0
 10
10.2763362396
 20
9.2052519719
 30
0.0
 10
10.2777681752
 20
9.2050098016
 30
0.0
 10
10.2795580643
 20
9.2047069879
 30
0.0
 10
10.2817059443
 20
9.2043436547
 30
0.0
 10
10.2838538208
 20
9.2039803099
 30
0.0
 10
10.2867176574
 20
9.2034958542
 30
0.0
 10
10.2902974527
 20
9.2028902833
 30
0.0
 10
10.2945932072
 20
9.2021635987
 30
0.0
 10
10.3003208798
 20
9.2011946857
 30
0.0
 10
10.3046166343
 20
9.200468001
 30
0.0
 10
10.3074804706
 20
9.1999835446
 30
0.0
  0
ENDSEC
  0
SECTION
  2
OBJECTS
  0
DICTIONARY
  5
C
100
AcDbDictionary
280
0
281
1
  3
ACAD_GROUP
350
D
  3
ACAD_MLINESTYLE
350
17
  3
ACAD_LAYOUT
350
1A
  3
ACAD_PLOTSETTINGS
350
19
  3
ACAD_PLOTSTYLENAME
350
E
  3
ACAD_IMAGE_DICT
350
       3A4
  3
ACAD_IMAGE_VARS
350
       3A5
  3
ACAD_TABLESTYLE
350
       3A6
  0
IMAGEDEF_REACTOR
  5
3A3
100
AcDbRasterImageDefReactor
 90
2
330
292
  0
DICTIONARY
  5
D
102
{ACAD_REACTORS
330
C
102
}
100
AcDbDictionary
280
0
281
1
  0
ACDBDICTIONARYWDFLT
  5
E
102
{ACAD_REACTORS
330
C
102
}
100
AcDbDictionary
281
1
  3
Normal
350
F
100
AcDbDictionaryWithDefault
340
F
  0
DICTIONARY
  5
3A4
330
C
100
AcDbDictionary
281
1
  3
A7V_assy_2_img_1
350
       3A9
  0
RASTERVARIABLES
  5
3A5
330
C
100
AcDbRasterVariables
 90
0
 70
0
 71
1
 72
5
  0
DICTIONARY
  5
17
102
{ACAD_REACTORS
330
C
102
}
100
AcDbDictionary
280
0
281
1
  3
Standard
350
18
  0
DICTIONARY
  5
3A6
330
C
100
AcDbDictionary
281
1
  3
Standard
350
       3AA
  3
Standard1
350
       3AB
  0
DICTIONARY
  5
19
102
{ACAD_REACTORS
330
C
102
}
100
AcDbDictionary
281
1
  0
DICTIONARY
  5
1A
102
{ACAD_REACTORS
330
C
102
}
100
AcDbDictionary
281
1
  3
Model
350
3A7
  3
Layout1
350
3A8
  0
ACDBPLACEHOLDER
  5
F
102
{ACAD_REACTORS
330
E
102
}
  0
MLINESTYLE
  5
18
102
{ACAD_REACTORS
330
17
102
}
100
AcDbMlineStyle
  2
STANDARD
 70
0
  3

 62
256
 51
90.0
 52
90.0
 71
2
 49
0.5
 62
256
  6
BYLAYER
 49
-0.5
 62
256
  6
BYLAYER
  0
LAYOUT
  5
3A7
102
{ACAD_REACTORS
330
1A
102
}
100
AcDbPlotSettings
  1

  2
none_device
  4
ANSI_C_(22.00_x_17.00_Inches)
  6

 40
0.0
 41
0.0
 42
0.0
 43
0.0
 44
558.8
 45
431.8
 46
0.0
 47
0.0
 48
0.0
 49
0.0
140
0.0
141
0.0
142
1.0
143
1.0
 70
1024
 72
0
 73
0
 74
0
  7

 75
0
147
1.0
148
0.0
149
0.0
100
AcDbLayout
  1
Model
 70
0
 71
0
 10
0.0
 20
0.0
 11
22.0
 21
17.0
 12
0.0
 22
0.0
 32
0.0
 14
0.0
 24
0.0
 34
0.0
 15
0.0
 25
0.0
 35
0.0
146
0.0
 13
0.0
 23
0.0
 33
0.0
 16
1.0
 26
0.0
 36
0.0
 17
0.0
 27
1.0
 37
0.0
 76
0
330
20C
345
0
346
0
  0
LAYOUT
  5
3A8
102
{ACAD_REACTORS
330
1A
102
}
100
AcDbPlotSettings
  1

  2
none_device
  4
ANSI_C_(22.00_x_17.00_Inches)
  6

 40
0.0
 41
0.0
 42
0.0
 43
0.0
 44
558.8
 45
431.8
 46
0.0
 47
0.0
 48
0.0
 49
0.0
140
0.0
141
0.0
142
1.0
143
1.0
 70
0
 72
0
 73
0
 74
0
  7

 75
0
147
1.0
148
0.0
149
0.0
100
AcDbLayout
  1
Layout1
 70
0
 71
1
 10
0.0
 20
0.0
 11
22.0
 21
17.0
 12
0.0
 22
0.0
 32
0.0
 14
0.0
 24
0.0
 34
0.0
 15
0.0
 25
0.0
 35
0.0
146
0.0
 13
0.0
 23
0.0
 33
0.0
 16
1.0
 26
0.0
 36
0.0
 17
0.0
 27
1.0
 37
0.0
 76
0
330
20D
345
0
346
0
  0
IMAGEDEF
  5
3A9
102
{ACAD_REACTORS
330
3A4
330
3A3
102
}
100
AcDbRasterImageDef
 90
0
  1
A7V_assy_2_img_1.png
 10
369.0
 20
92.0
 11
0.0066666667
 21
0.0066666667
280
1
281
0
  0
TABLESTYLE
  5
3AA
102
{ACAD_REACTORS
330
3A6
330
295
330
296
102
}
330
3A6
100
AcDbTableStyle
  3
Standard
 70
0
 71
0
 40
0.06
 41
0.06
280
1
281
1
  7
Standard
140
0.18
170
1
 62
0
 63
7
283
0
  7
Standard
140
0.18
170
1
 62
0
 63
7
283
0
  7
Standard
140
0.18
170
1
 62
0
 63
7
283
0
  0
TABLESTYLE
  5
3AB
102
{ACAD_REACTORS
330
3A6
330
294
102
}
330
3A6
100
AcDbTableStyle
  3
Standard1
 70
1
 71
0
 40
0.06
 41
0.06
280
1
281
1
  7
Standard
140
0.18
170
1
 62
0
 63
7
283
0
  7
Standard
140
0.18
170
1
 62
0
 63
7
283
0
  7
Standard
140
0.18
170
1
 62
0
 63
7
283
0
  0
ENDSEC
  0
EOF
