999
DXF file: A7K_7.dxf
999
Pro/ENGINEER 2006240 by Parametric Technology Corporation
  0
SECTION
  2
HEADER
  9
$ACADVER
  1
AC1015
  9
$DWGCODEPAGE
  3
ANSI_1252
  9
$EXTMAX
 10
22.0
 20
17.0
 30
0.0
  9
$EXTMIN
 10
0.0
 20
0.0
 30
0.0
  9
$LIMMIN
 10
0.0
 20
0.0
  9
$LIMMAX
 10
22.0
 20
17.0
  9
$VIEWCTR
 10
11.0
 20
8.5
  9
$VIEWSIZE
 40
17.0
  9
$CLAYER
  8
0
  9
$LTSCALE
 40
1.21
  9
$CELTYPE
  6
BYLAYER
  9
$DIMSCALE
 40
1.0
  9
$DIMASZ
 40
0.1875
  9
$DIMEXO
 40
0.1375
  9
$DIMDLI
 40
0.836
  9
$DIMEXE
 40
0.396
  9
$DIMCEN
 40
0.198
  9
$DIMLFAC
 40
1.0
  9
$DIMBLK
  1
_CLOSED
  9
$DIMTXT
 40
0.15625
  9
$DIMTOL
 70
0
  9
$DIMLIM
 70
0
  9
$DIMTFAC
 40
1.0
  9
$PDMODE
 70
3
  9
$PDSIZE
 40
0.3125
  9
$HANDSEED
  5
4B5
  9
$MEASUREMENT
 70
0
  9
$INSUNITS
 70
1
  0
ENDSEC
  0
SECTION
  2
CLASSES
  0
CLASS
  1
ACDBDICTIONARYWDFLT
  2
AcDbDictionaryWithDefault
  3
AutoCAD 2000
 90
0
280
0
281
0
  0
CLASS
  1
ACDBPLACEHOLDER
  2
AcDbPlaceHolder
  3
AutoCAD 2000
 90
0
280
0
281
0
  0
CLASS
  1
LAYOUT
  2
AcDbLayout
  3
AutoCAD 2000
 90
0
280
0
281
0
  0
ENDSEC
  0
SECTION
  2
TABLES
  0
TABLE
  2
VPORT
  5
8
100
AcDbSymbolTable
 70
2
  0
VPORT
  5
1F4
100
AcDbSymbolTableRecord
100
AcDbViewportTableRecord
  2
*ACTIVE
 70
0
 10
0.0
 20
0.0
 11
1.0
 21
1.0
 12
11.0
 22
8.5
 13
0.0
 23
0.0
 14
1.0
 24
1.0
 15
0.0
 25
0.0
 16
0.0
 26
0.0
 36
1.0
 17
0.0
 27
0.0
 37
0.0
 40
17.0
 41
1.2941176471
 42
50.0
 43
0.0
 44
0.0
 50
0.0
 51
0.0
 71
0
 72
100
 73
1
 74
1
 75
0
 76
0
 77
0
 78
0
  0
ENDTAB
  0
TABLE
  2
LTYPE
  5
5
100
AcDbSymbolTable
 70
6
  0
LTYPE
  5
14
100
AcDbSymbolTableRecord
100
AcDbLinetypeTableRecord
  2
BYBLOCK
 70
0
  3

 72
65
 73
0
 40
0.0
  0
LTYPE
  5
15
100
AcDbSymbolTableRecord
100
AcDbLinetypeTableRecord
  2
BYLAYER
 70
0
  3

 72
65
 73
0
 40
0.0
  0
LTYPE
  5
16
100
AcDbSymbolTableRecord
100
AcDbLinetypeTableRecord
  2
CONTINUOUS
 70
64
  3
Solid line
 72
65
 73
0
 40
0.0
  0
LTYPE
  5
1F5
100
AcDbSymbolTableRecord
100
AcDbLinetypeTableRecord
  2
CENTER
 70
64
  3
____ _ ____ _ ____ _ ____ _ ____ _ ____ _ ____
 72
65
 73
4
 40
0.6
 49
0.375
 74
0
 49
-0.075
 74
0
 49
0.075
 74
0
 49
-0.075
 74
0
  0
LTYPE
  5
1F6
100
AcDbSymbolTableRecord
100
AcDbLinetypeTableRecord
  2
HIDDEN
 70
64
  3
- - - - - - - - - - - - - - - - - - - -
 72
65
 73
2
 40
0.2
 49
0.1
 74
0
 49
-0.1
 74
0
  0
LTYPE
  5
1F7
100
AcDbSymbolTableRecord
100
AcDbLinetypeTableRecord
  2
PHANTOM
 70
64
  3
_____ _ _ _____ _ _ _____ _ _ _____
 72
65
 73
6
 40
0.8
 49
0.45
 74
0
 49
-0.05
 74
0
 49
0.1
 74
0
 49
-0.05
 74
0
 49
0.1
 74
0
 49
-0.05
 74
0
  0
LTYPE
  5
1F8
100
AcDbSymbolTableRecord
100
AcDbLinetypeTableRecord
  2
DOT
 70
64
  3
. . . . . . . . . . . . . . . . . . . .
 72
65
 73
2
 40
0.2
 49
0.1
 74
0
 49
-0.1
 74
0
  0
LTYPE
  5
1F9
100
AcDbSymbolTableRecord
100
AcDbLinetypeTableRecord
  2
DASHED
 70
64
  3
- - - - - - - - - - - - - - - - - - - -
 72
65
 73
2
 40
0.2
 49
0.1
 74
0
 49
-0.1
 74
0
  0
ENDTAB
  0
TABLE
  2
LAYER
  5
2
100
AcDbSymbolTable
 70
36
  0
LAYER
  5
10
100
AcDbSymbolTableRecord
100
AcDbLayerTableRecord
  2
0
 70
0
 62
7
  6
CONTINUOUS
370
-3
390
F
  0
LAYER
  5
1FA
100
AcDbSymbolTableRecord
100
AcDbLayerTableRecord
  2
DEFAULT_1
 70
0
 62
7
  6
CENTER
370
-3
390
F
  0
LAYER
  5
1FB
100
AcDbSymbolTableRecord
100
AcDbLayerTableRecord
  2
DEFAULT_2
 70
0
 62
8
  6
HIDDEN
370
-3
390
F
  0
LAYER
  5
1FC
100
AcDbSymbolTableRecord
100
AcDbLayerTableRecord
  2
DEFAULT_3
 70
0
 62
7
  6
PHANTOM
370
-3
390
F
  0
LAYER
  5
1FD
100
AcDbSymbolTableRecord
100
AcDbLayerTableRecord
  2
_BLACK_HOLE
 70
0
 62
7
  6
CONTINUOUS
370
-3
390
F
  0
LAYER
  5
1FE
100
AcDbSymbolTableRecord
100
AcDbLayerTableRecord
  2
01_ALL_DTM_PLN
 70
0
 62
7
  6
CONTINUOUS
370
-3
390
F
  0
LAYER
  5
1FF
100
AcDbSymbolTableRecord
100
AcDbLayerTableRecord
  2
01__ASM_ALL_DTM_PLN
 70
0
 62
7
  6
CONTINUOUS
370
-3
390
F
  0
LAYER
  5
200
100
AcDbSymbolTableRecord
100
AcDbLayerTableRecord
  2
01__ASM_DEF_DTM_PLN
 70
0
 62
7
  6
CONTINUOUS
370
-3
390
F
  0
LAYER
  5
201
100
AcDbSymbolTableRecord
100
AcDbLayerTableRecord
  2
01___PRT_ALL_DTM_PLN
 70
0
 62
7
  6
CONTINUOUS
370
-3
390
F
  0
LAYER
  5
202
100
AcDbSymbolTableRecord
100
AcDbLayerTableRecord
  2
01___PRT_DEF_DTM_PLN
 70
0
 62
7
  6
CONTINUOUS
370
-3
390
F
  0
LAYER
  5
203
100
AcDbSymbolTableRecord
100
AcDbLayerTableRecord
  2
02_ALL_AXES
 70
0
 62
7
  6
CONTINUOUS
370
-3
390
F
  0
LAYER
  5
204
100
AcDbSymbolTableRecord
100
AcDbLayerTableRecord
  2
02__ASM_ALL_AXES
 70
0
 62
7
  6
CONTINUOUS
370
-3
390
F
  0
LAYER
  5
205
100
AcDbSymbolTableRecord
100
AcDbLayerTableRecord
  2
02___PRT_ALL_AXES
 70
0
 62
7
  6
CONTINUOUS
370
-3
390
F
  0
LAYER
  5
206
100
AcDbSymbolTableRecord
100
AcDbLayerTableRecord
  2
03_ALL_CURVES
 70
0
 62
7
  6
CONTINUOUS
370
-3
390
F
  0
LAYER
  5
207
100
AcDbSymbolTableRecord
100
AcDbLayerTableRecord
  2
03__ASM_ALL_CURVES
 70
0
 62
7
  6
CONTINUOUS
370
-3
390
F
  0
LAYER
  5
208
100
AcDbSymbolTableRecord
100
AcDbLayerTableRecord
  2
03___PRT_ALL_CURVES
 70
0
 62
7
  6
CONTINUOUS
370
-3
390
F
  0
LAYER
  5
209
100
AcDbSymbolTableRecord
100
AcDbLayerTableRecord
  2
04_ALL_DTM_PNT
 70
0
 62
7
  6
CONTINUOUS
370
-3
390
F
  0
LAYER
  5
20A
100
AcDbSymbolTableRecord
100
AcDbLayerTableRecord
  2
04__ASM_ALL_DTM_PNT
 70
0
 62
7
  6
CONTINUOUS
370
-3
390
F
  0
LAYER
  5
20B
100
AcDbSymbolTableRecord
100
AcDbLayerTableRecord
  2
04___PRT_ALL_DTM_PNT
 70
0
 62
7
  6
CONTINUOUS
370
-3
390
F
  0
LAYER
  5
20C
100
AcDbSymbolTableRecord
100
AcDbLayerTableRecord
  2
05_ALL_DTM_CSYS
 70
0
 62
7
  6
CONTINUOUS
370
-3
390
F
  0
LAYER
  5
20D
100
AcDbSymbolTableRecord
100
AcDbLayerTableRecord
  2
05__ASM_ALL_DTM_CSYS
 70
0
 62
7
  6
CONTINUOUS
370
-3
390
F
  0
LAYER
  5
20E
100
AcDbSymbolTableRecord
100
AcDbLayerTableRecord
  2
05__ASM_DEF_DTM_CSYS
 70
0
 62
7
  6
CONTINUOUS
370
-3
390
F
  0
LAYER
  5
20F
100
AcDbSymbolTableRecord
100
AcDbLayerTableRecord
  2
05___PRT_ALL_DTM_CSYS
 70
0
 62
7
  6
CONTINUOUS
370
-3
390
F
  0
LAYER
  5
210
100
AcDbSymbolTableRecord
100
AcDbLayerTableRecord
  2
05___PRT_DEF_DTM_CSYS
 70
0
 62
7
  6
CONTINUOUS
370
-3
390
F
  0
LAYER
  5
211
100
AcDbSymbolTableRecord
100
AcDbLayerTableRecord
  2
06_ALL_SURFS
 70
0
 62
7
  6
CONTINUOUS
370
-3
390
F
  0
LAYER
  5
212
100
AcDbSymbolTableRecord
100
AcDbLayerTableRecord
  2
06__ASM_ALL_SURFS
 70
0
 62
7
  6
CONTINUOUS
370
-3
390
F
  0
LAYER
  5
213
100
AcDbSymbolTableRecord
100
AcDbLayerTableRecord
  2
06___PRT_ALL_SURFS
 70
0
 62
7
  6
CONTINUOUS
370
-3
390
F
  0
LAYER
  5
214
100
AcDbSymbolTableRecord
100
AcDbLayerTableRecord
  2
07__ASM_ALL_SKELETONS
 70
0
 62
7
  6
CONTINUOUS
370
-3
390
F
  0
LAYER
  5
215
100
AcDbSymbolTableRecord
100
AcDbLayerTableRecord
  2
A7K_10
 70
0
 62
7
  6
CONTINUOUS
370
-3
390
F
  0
LAYER
  5
216
100
AcDbSymbolTableRecord
100
AcDbLayerTableRecord
  2
A7K_2
 70
0
 62
7
  6
CONTINUOUS
370
-3
390
F
  0
LAYER
  5
217
100
AcDbSymbolTableRecord
100
AcDbLayerTableRecord
  2
A7K_5
 70
0
 62
7
  6
CONTINUOUS
370
-3
390
F
  0
LAYER
  5
218
100
AcDbSymbolTableRecord
100
AcDbLayerTableRecord
  2
A7K_6
 70
0
 62
7
  6
CONTINUOUS
370
-3
390
F
  0
LAYER
  5
219
100
AcDbSymbolTableRecord
100
AcDbLayerTableRecord
  2
A7K_7
 70
0
 62
7
  6
CONTINUOUS
370
-3
390
F
  0
LAYER
  5
21A
100
AcDbSymbolTableRecord
100
AcDbLayerTableRecord
  2
COPY_GEO_FET
 70
0
 62
7
  6
CONTINUOUS
370
-3
390
F
  0
LAYER
  5
21B
100
AcDbSymbolTableRecord
100
AcDbLayerTableRecord
  2
COSMETIC
 70
0
 62
7
  6
CONTINUOUS
370
-3
390
F
  0
LAYER
  5
21C
100
AcDbSymbolTableRecord
100
AcDbLayerTableRecord
  2
CUT_REF_SURF
 70
0
 62
7
  6
CONTINUOUS
370
-3
390
F
  0
LAYER
  5
21D
100
AcDbSymbolTableRecord
100
AcDbLayerTableRecord
  2
DATESTAMP
 70
0
 62
7
  6
CONTINUOUS
370
-3
390
F
  0
LAYER
  5
21E
100
AcDbSymbolTableRecord
100
AcDbLayerTableRecord
  2
DATUM
 70
0
 62
7
  6
CONTINUOUS
370
-3
390
F
  0
LAYER
  5
21F
100
AcDbSymbolTableRecord
100
AcDbLayerTableRecord
  2
DATUM_B
 70
0
 62
7
  6
CONTINUOUS
370
-3
390
F
  0
LAYER
  5
220
100
AcDbSymbolTableRecord
100
AcDbLayerTableRecord
  2
DATUM_PLANES
 70
0
 62
7
  6
CONTINUOUS
370
-3
390
F
  0
LAYER
  5
221
100
AcDbSymbolTableRecord
100
AcDbLayerTableRecord
  2
DIM
 70
0
 62
7
  6
CONTINUOUS
370
-3
390
F
  0
LAYER
  5
222
100
AcDbSymbolTableRecord
100
AcDbLayerTableRecord
  2
DIM_1
 70
0
 62
7
  6
CONTINUOUS
370
-3
390
F
  0
LAYER
  5
223
100
AcDbSymbolTableRecord
100
AcDbLayerTableRecord
  2
DIM_2
 70
0
 62
7
  6
CONTINUOUS
370
-3
390
F
  0
LAYER
  5
224
100
AcDbSymbolTableRecord
100
AcDbLayerTableRecord
  2
DIM_3
 70
0
 62
7
  6
CONTINUOUS
370
-3
390
F
  0
LAYER
  5
225
100
AcDbSymbolTableRecord
100
AcDbLayerTableRecord
  2
DIM_4
 70
0
 62
7
  6
CONTINUOUS
370
-3
390
F
  0
LAYER
  5
226
100
AcDbSymbolTableRecord
100
AcDbLayerTableRecord
  2
DIM_5
 70
0
 62
7
  6
CONTINUOUS
370
-3
390
F
  0
LAYER
  5
227
100
AcDbSymbolTableRecord
100
AcDbLayerTableRecord
  2
DIM_6
 70
0
 62
7
  6
CONTINUOUS
370
-3
390
F
  0
LAYER
  5
228
100
AcDbSymbolTableRecord
100
AcDbLayerTableRecord
  2
DIM_7
 70
0
 62
7
  6
CONTINUOUS
370
-3
390
F
  0
LAYER
  5
229
100
AcDbSymbolTableRecord
100
AcDbLayerTableRecord
  2
DIM_8
 70
0
 62
7
  6
CONTINUOUS
370
-3
390
F
  0
LAYER
  5
22A
100
AcDbSymbolTableRecord
100
AcDbLayerTableRecord
  2
DTM
 70
0
 62
7
  6
CONTINUOUS
370
-3
390
F
  0
LAYER
  5
22B
100
AcDbSymbolTableRecord
100
AcDbLayerTableRecord
  2
EXT_COPY_GEO
 70
0
 62
7
  6
CONTINUOUS
370
-3
390
F
  0
LAYER
  5
22C
100
AcDbSymbolTableRecord
100
AcDbLayerTableRecord
  2
LS
 70
0
 62
7
  6
CONTINUOUS
370
-3
390
F
  0
LAYER
  5
22D
100
AcDbSymbolTableRecord
100
AcDbLayerTableRecord
  2
ORIGIN
 70
0
 62
7
  6
CONTINUOUS
370
-3
390
F
  0
LAYER
  5
22E
100
AcDbSymbolTableRecord
100
AcDbLayerTableRecord
  2
PARTNUMBER
 70
0
 62
7
  6
CONTINUOUS
370
-3
390
F
  0
LAYER
  5
22F
100
AcDbSymbolTableRecord
100
AcDbLayerTableRecord
  2
PORT_AREAS
 70
0
 62
7
  6
CONTINUOUS
370
-3
390
F
  0
LAYER
  5
230
100
AcDbSymbolTableRecord
100
AcDbLayerTableRecord
  2
TEXT
 70
0
 62
7
  6
CONTINUOUS
370
-3
390
F
  0
LAYER
  5
231
100
AcDbSymbolTableRecord
100
AcDbLayerTableRecord
  2
THREAD
 70
0
 62
7
  6
CONTINUOUS
370
-3
390
F
  0
LAYER
  5
232
100
AcDbSymbolTableRecord
100
AcDbLayerTableRecord
  2
THREADS
 70
0
 62
7
  6
CONTINUOUS
370
-3
390
F
  0
ENDTAB
  0
TABLE
  2
STYLE
  5
3
100
AcDbSymbolTable
 70
1
  0
STYLE
  5
11
100
AcDbSymbolTableRecord
100
AcDbTextStyleTableRecord
  2
STANDARD
 70
0
 40
0.0
 41
0.8
 50
0.0
 71
0
 42
0.2
  3
txt
  4

  0
ENDTAB
  0
TABLE
  2
VIEW
  5
6
100
AcDbSymbolTable
 70
0
  0
ENDTAB
  0
TABLE
  2
UCS
  5
7
100
AcDbSymbolTable
 70
0
  0
ENDTAB
  0
TABLE
  2
APPID
  5
9
100
AcDbSymbolTable
 70
1
  0
APPID
  5
233
100
AcDbSymbolTableRecord
100
AcDbRegAppTableRecord
  2
ACAD
 70
0
  0
ENDTAB
  0
TABLE
  2
BLOCK_RECORD
  5
1
100
AcDbSymbolTable
 70
0
  0
BLOCK_RECORD
  5
1F
100
AcDbSymbolTableRecord
100
AcDbBlockTableRecord
  2
*MODEL_SPACE
  0
BLOCK_RECORD
  5
1B
100
AcDbSymbolTableRecord
100
AcDbBlockTableRecord
  2
*PAPER_SPACE
  0
ENDTAB
  0
TABLE
  2
DIMSTYLE
  5
A
100
AcDbSymbolTable
 70
1
100
AcDbDimStyleTable
 71
0
  0
DIMSTYLE
105
234
100
AcDbSymbolTableRecord
100
AcDbDimStyleTableRecord
  2
STANDARD
 70
0
  3

  4

 40
1.0
 41
0.1875
 42
0.0625
 43
0.38
 44
0.18
 45
0.0
 46
0.0
 47
0.01
 48
0.01
140
0.15625
141
0.09
142
0.0
143
25.4
144
1.0
145
0.0
146
1.0
147
0.09
 71
0.0
 72
0.0
 73
1
 74
1
 75
0
 76
0
 77
0
 78
4
170
0
171
2
172
0
173
0
174
0
175
0
176
0
177
0
178
0
270
2
271
2
272
2
273
2
274
2
275
0
280
0
281
0
282
0
283
1
284
4
285
0
286
0
287
3
288
0
340
11
  0
ENDTAB
  0
ENDSEC
  0
SECTION
  2
BLOCKS
  0
BLOCK
  5
20
100
AcDbEntity
  8
0
100
AcDbBlockBegin
  2
*MODEL_SPACE
 70
0
 10
0.0
 20
0.0
 30
0.0
  3
*MODEL_SPACE
  1

  0
ENDBLK
  5
21
100
AcDbEntity
  8
0
100
AcDbBlockEnd
  0
BLOCK
  5
1C
100
AcDbEntity
  8
0
100
AcDbBlockBegin
  2
*PAPER_SPACE
 70
0
 10
0.0
 20
0.0
 30
0.0
  3
*PAPER_SPACE
  1

  0
ENDBLK
  5
1D
100
AcDbEntity
  8
0
100
AcDbBlockEnd
  0
ENDSEC
  0
SECTION
  2
ENTITIES
  0
LINE
  5
235
100
AcDbEntity
  8
03__ASM_ALL_CURVES
100
AcDbLine
 62
4
  6
CONTINUOUS
 10
8.5138508341
 20
11.8870373075
 11
8.5250070841
 21
11.8944748058
  0
LINE
  5
236
100
AcDbEntity
  8
03__ASM_ALL_CURVES
100
AcDbLine
 62
4
  6
CONTINUOUS
 10
8.5473195841
 20
11.8647248075
 11
8.5361633341
 21
11.857287304
  0
LINE
  5
237
100
AcDbEntity
  8
03__ASM_ALL_CURVES
100
AcDbLine
 62
4
  6
CONTINUOUS
 10
8.5473195841
 20
11.812662306
 11
8.5361633341
 21
11.8052248058
  0
LINE
  5
238
100
AcDbEntity
  8
03__ASM_ALL_CURVES
100
AcDbLine
 62
4
  6
CONTINUOUS
 10
8.6979289591
 20
11.8870373075
 11
8.7090852091
 21
11.8944748058
  0
LINE
  5
239
100
AcDbEntity
  8
03__ASM_ALL_CURVES
100
AcDbLine
 62
4
  6
CONTINUOUS
 10
8.7816008341
 20
11.8870373075
 11
8.7927570841
 21
11.8944748058
  0
LINE
  5
23A
100
AcDbEntity
  8
03__ASM_ALL_CURVES
100
AcDbLine
 62
4
  6
CONTINUOUS
 10
8.7202414591
 20
11.812662306
 11
8.7090852091
 21
11.8052248058
  0
LINE
  5
23B
100
AcDbEntity
  8
03__ASM_ALL_CURVES
100
AcDbLine
 62
4
  6
CONTINUOUS
 10
8.8150695841
 20
11.857287304
 11
8.7927570841
 21
11.8424123049
  0
LINE
  5
23C
100
AcDbEntity
  8
03__ASM_ALL_CURVES
100
AcDbLine
 62
4
  6
CONTINUOUS
 10
8.6923508341
 20
11.8498498058
 11
8.7090852091
 21
11.857287304
  0
LINE
  5
23D
100
AcDbEntity
  8
03__ASM_ALL_CURVES
100
AcDbLine
 62
4
  6
CONTINUOUS
 10
8.5528977091
 20
11.8721623058
 11
8.5473195841
 21
11.8647248075
  0
LINE
  5
23E
100
AcDbEntity
  8
03__ASM_ALL_CURVES
100
AcDbLine
 62
4
  6
CONTINUOUS
 10
8.5584758341
 20
11.8275373058
 11
8.5473195841
 21
11.812662306
  0
LINE
  5
23F
100
AcDbEntity
  8
03__ASM_ALL_CURVES
100
AcDbLine
 62
4
  6
CONTINUOUS
 10
9.0549289591
 20
11.8870373075
 11
9.0660852091
 21
11.8944748058
  0
LINE
  5
240
100
AcDbEntity
  8
03__ASM_ALL_CURVES
100
AcDbLine
 62
4
  6
CONTINUOUS
 10
9.0772414591
 20
11.812662306
 11
9.0660852091
 21
11.8052248058
  0
LINE
  5
241
100
AcDbEntity
  8
03__ASM_ALL_CURVES
100
AcDbLine
 62
4
  6
CONTINUOUS
 10
9.3226789591
 20
11.8870373075
 11
9.3338352091
 21
11.8944748058
  0
LINE
  5
242
100
AcDbEntity
  8
03__ASM_ALL_CURVES
100
AcDbLine
 62
4
  6
CONTINUOUS
 10
9.0828195841
 20
11.8498498058
 11
9.0660852091
 21
11.8424123049
  0
LINE
  5
243
100
AcDbEntity
  8
03__ASM_ALL_CURVES
100
AcDbLine
 62
4
  6
CONTINUOUS
 10
9.3505695841
 20
11.8498498058
 11
9.3338352091
 21
11.8424123049
  0
LINE
  5
244
100
AcDbEntity
  8
03__ASM_ALL_CURVES
100
AcDbLine
 62
4
  6
CONTINUOUS
 10
8.6923508341
 20
11.879599804
 11
8.6979289591
 21
11.8870373075
  0
LINE
  5
245
100
AcDbEntity
  8
03__ASM_ALL_CURVES
100
AcDbLine
 62
4
  6
CONTINUOUS
 10
8.1512727091
 20
11.067599804
 11
8.1568508341
 21
11.0750373075
  0
LINE
  5
246
100
AcDbEntity
  8
03__ASM_ALL_CURVES
100
AcDbLine
 62
4
  6
CONTINUOUS
 10
8.7258195841
 20
11.8200998062
 11
8.7202414591
 21
11.812662306
  0
LINE
  5
247
100
AcDbEntity
  8
03__ASM_ALL_CURVES
100
AcDbLine
 62
4
  6
CONTINUOUS
 10
8.7760227091
 20
11.879599804
 11
8.7816008341
 21
11.8870373075
  0
LINE
  5
248
100
AcDbEntity
  8
03__ASM_ALL_CURVES
100
AcDbLine
 62
4
  6
CONTINUOUS
 10
8.1680070841
 20
11.0304123049
 11
8.1568508341
 21
11.0155373058
  0
LINE
  5
249
100
AcDbEntity
  8
03__ASM_ALL_CURVES
100
AcDbLine
 62
4
  6
CONTINUOUS
 10
8.1958977091
 20
11.0527248075
 11
8.1903195841
 21
11.045287304
  0
LINE
  5
24A
100
AcDbEntity
  8
03__ASM_ALL_CURVES
100
AcDbLine
 62
4
  6
CONTINUOUS
 10
8.7927570841
 20
11.8424123049
 11
8.7816008341
 21
11.8275373058
  0
LINE
  5
24B
100
AcDbEntity
  8
03__ASM_ALL_CURVES
100
AcDbLine
 62
4
  6
CONTINUOUS
 10
8.8206477091
 20
11.8647248075
 11
8.8150695841
 21
11.857287304
  0
LINE
  5
24C
100
AcDbEntity
  8
03__ASM_ALL_CURVES
100
AcDbLine
 62
4
  6
CONTINUOUS
 10
8.3297727091
 20
11.067599804
 11
8.3353508341
 21
11.0750373075
  0
LINE
  5
24D
100
AcDbEntity
  8
03__ASM_ALL_CURVES
100
AcDbLine
 62
4
  6
CONTINUOUS
 10
8.3241945841
 20
11.0229748066
 11
8.3353508341
 21
11.0378498058
  0
LINE
  5
24E
100
AcDbEntity
  8
03__ASM_ALL_CURVES
100
AcDbLine
 62
4
  6
CONTINUOUS
 10
8.1568508341
 20
11.0750373075
 11
8.1680070841
 21
11.0824748058
  0
LINE
  5
24F
100
AcDbEntity
  8
03__ASM_ALL_CURVES
100
AcDbLine
 62
4
  6
CONTINUOUS
 10
8.1903195841
 20
11.045287304
 11
8.1680070841
 21
11.0304123049
  0
LINE
  5
250
100
AcDbEntity
  8
03__ASM_ALL_CURVES
100
AcDbLine
 62
4
  6
CONTINUOUS
 10
9.3449914591
 20
11.812662306
 11
9.3338352091
 21
11.8052248058
  0
LINE
  5
251
100
AcDbEntity
  8
03__ASM_ALL_CURVES
100
AcDbLine
 62
4
  6
CONTINUOUS
 10
8.3353508341
 20
11.0750373075
 11
8.3465070841
 21
11.0824748058
  0
LINE
  5
252
100
AcDbEntity
  8
03__ASM_ALL_CURVES
100
AcDbLine
 62
4
  6
CONTINUOUS
 10
8.3353508341
 20
11.0378498058
 11
8.3465070841
 21
11.045287304
  0
LINE
  5
253
100
AcDbEntity
  8
03__ASM_ALL_CURVES
100
AcDbLine
 62
4
  6
CONTINUOUS
 10
8.3688195841
 20
11.0527248075
 11
8.3576633341
 21
11.045287304
  0
LINE
  5
254
100
AcDbEntity
  8
03__ASM_ALL_CURVES
100
AcDbLine
 62
4
  6
CONTINUOUS
 10
8.3688195841
 20
11.000662306
 11
8.3576633341
 21
10.9932248058
  0
LINE
  5
255
100
AcDbEntity
  8
03__ASM_ALL_CURVES
100
AcDbLine
 62
4
  6
CONTINUOUS
 10
12.01064771
 20
6.4890685558
 11
12.0329602087
 21
6.4946466808
  0
LINE
  5
256
100
AcDbEntity
  8
03__ASM_ALL_CURVES
100
AcDbLine
 62
4
  6
CONTINUOUS
 10
10.9585852091
 20
6.1432248058
 11
11.0478352091
 21
6.1432248058
  0
LINE
  5
257
100
AcDbEntity
  8
03__ASM_ALL_CURVES
100
AcDbLine
 62
4
  6
CONTINUOUS
 10
11.9734602109
 20
6.1655373058
 11
11.9883352073
 21
6.1655373058
  0
LINE
  5
258
100
AcDbEntity
  8
03__ASM_ALL_CURVES
100
AcDbLine
 62
4
  6
CONTINUOUS
 10
8.9824133341
 20
11.8944748058
 11
8.9712570841
 21
11.879599804
  0
LINE
  5
259
100
AcDbEntity
  8
03__ASM_ALL_CURVES
100
AcDbLine
 62
4
  6
CONTINUOUS
 10
8.3743977091
 20
11.0601623058
 11
8.3688195841
 21
11.0527248075
  0
LINE
  5
25A
100
AcDbEntity
  8
03__ASM_ALL_CURVES
100
AcDbLine
 62
4
  6
CONTINUOUS
 10
8.3799758341
 20
11.0155373058
 11
8.3688195841
 21
11.000662306
  0
LINE
  5
25B
100
AcDbEntity
  8
03__ASM_ALL_CURVES
100
AcDbLine
 62
4
  6
CONTINUOUS
 10
9.0493508341
 20
11.879599804
 11
9.0549289591
 21
11.8870373075
  0
LINE
  5
25C
100
AcDbEntity
  8
03__ASM_ALL_CURVES
100
AcDbLine
 62
4
  6
CONTINUOUS
 10
9.0828195841
 20
11.8200998062
 11
9.0772414591
 21
11.812662306
  0
LINE
  5
25D
100
AcDbEntity
  8
03__ASM_ALL_CURVES
100
AcDbLine
 62
4
  6
CONTINUOUS
 10
8.6254133341
 20
11.0824748058
 11
8.6142570841
 21
11.067599804
  0
LINE
  5
25E
100
AcDbEntity
  8
03__ASM_ALL_CURVES
100
AcDbLine
 62
4
  6
CONTINUOUS
 10
8.9601008341
 20
11.0750373075
 11
8.9712570841
 21
11.0824748058
  0
LINE
  5
25F
100
AcDbEntity
  8
03__ASM_ALL_CURVES
100
AcDbLine
 62
4
  6
CONTINUOUS
 10
11.01064771
 20
6.4890685558
 11
11.0329602087
 21
6.4946466808
  0
LINE
  5
260
100
AcDbEntity
  8
03__ASM_ALL_CURVES
100
AcDbLine
 62
4
  6
CONTINUOUS
 10
12.0478352091
 20
6.2464201183
 11
12.0366789588
 21
6.2464201183
  0
LINE
  5
261
100
AcDbEntity
  8
03__ASM_ALL_CURVES
100
AcDbLine
 62
4
  6
CONTINUOUS
 10
11.0478352091
 20
6.2464201183
 11
11.0366789588
 21
6.2464201183
  0
LINE
  5
262
100
AcDbEntity
  8
03__ASM_ALL_CURVES
100
AcDbLine
 62
4
  6
CONTINUOUS
 10
12.0180852082
 20
6.2994123058
 11
11.9883352073
 21
6.2994123058
  0
LINE
  5
263
100
AcDbEntity
  8
03__ASM_ALL_CURVES
100
AcDbLine
 62
4
  6
CONTINUOUS
 10
11.0180852082
 20
6.2994123058
 11
10.9883352073
 21
6.2994123058
  0
LINE
  5
264
100
AcDbEntity
  8
03__ASM_ALL_CURVES
100
AcDbLine
 62
4
  6
CONTINUOUS
 10
10.9883352073
 20
6.3440373058
 11
11.0180852082
 21
6.3440373058
  0
LINE
  5
265
100
AcDbEntity
  8
03__ASM_ALL_CURVES
100
AcDbLine
 62
4
  6
CONTINUOUS
 10
11.9883352073
 20
6.3440373058
 11
12.0180852082
 21
6.3440373058
  0
LINE
  5
266
100
AcDbEntity
  8
03__ASM_ALL_CURVES
100
AcDbLine
 62
4
  6
CONTINUOUS
 10
8.1568508341
 20
11.0155373058
 11
8.1512727091
 21
10.9932248058
  0
LINE
  5
267
100
AcDbEntity
  8
03__ASM_ALL_CURVES
100
AcDbLine
 62
4
  6
CONTINUOUS
 10
8.6867727091
 20
11.8647248075
 11
8.6923508341
 21
11.879599804
  0
LINE
  5
268
100
AcDbEntity
  8
03__ASM_ALL_CURVES
100
AcDbLine
 62
4
  6
CONTINUOUS
 10
8.6867727091
 20
11.8349748066
 11
8.6923508341
 21
11.8498498058
  0
LINE
  5
269
100
AcDbEntity
  8
03__ASM_ALL_CURVES
100
AcDbLine
 62
4
  6
CONTINUOUS
 10
8.7313977091
 20
11.8349748066
 11
8.7258195841
 21
11.8200998062
  0
LINE
  5
26A
100
AcDbEntity
  8
03__ASM_ALL_CURVES
100
AcDbLine
 62
4
  6
CONTINUOUS
 10
9.3171008341
 20
11.879599804
 11
9.3226789591
 21
11.8870373075
  0
LINE
  5
26B
100
AcDbEntity
  8
03__ASM_ALL_CURVES
100
AcDbLine
 62
4
  6
CONTINUOUS
 10
9.3505695841
 20
11.8200998062
 11
9.3449914591
 21
11.812662306
  0
LINE
  5
26C
100
AcDbEntity
  8
03__ASM_ALL_CURVES
100
AcDbLine
 62
4
  6
CONTINUOUS
 10
9.5179133341
 20
11.8200998062
 11
9.5067570841
 21
11.8052248058
  0
LINE
  5
26D
100
AcDbEntity
  8
03__ASM_ALL_CURVES
100
AcDbLine
 62
4
  6
CONTINUOUS
 10
8.9935695841
 20
11.0527248075
 11
8.9824133341
 21
11.045287304
  0
LINE
  5
26E
100
AcDbEntity
  8
03__ASM_ALL_CURVES
100
AcDbLine
 62
4
  6
CONTINUOUS
 10
8.9935695841
 20
11.000662306
 11
8.9824133341
 21
10.9932248058
  0
LINE
  5
26F
100
AcDbEntity
  8
03__ASM_ALL_CURVES
100
AcDbLine
 62
4
  6
CONTINUOUS
 10
11.9734602109
 20
6.9520529308
 11
11.9957727109
 21
6.9576310558
  0
LINE
  5
270
100
AcDbEntity
  8
03__ASM_ALL_CURVES
100
AcDbLine
 62
4
  6
CONTINUOUS
 10
10.9957727109
 20
6.4890685558
 11
11.01064771
 21
6.4890685558
  0
LINE
  5
271
100
AcDbEntity
  8
03__ASM_ALL_CURVES
100
AcDbLine
 62
4
  6
CONTINUOUS
 10
11.9957727109
 20
6.4890685558
 11
12.01064771
 21
6.4890685558
  0
LINE
  5
272
100
AcDbEntity
  8
03__ASM_ALL_CURVES
100
AcDbLine
 62
4
  6
CONTINUOUS
 10
10.9734602109
 20
6.6117873058
 11
10.9883352073
 21
6.6117873058
  0
LINE
  5
273
100
AcDbEntity
  8
03__ASM_ALL_CURVES
100
AcDbLine
 62
4
  6
CONTINUOUS
 10
12.0180852082
 20
6.6564123058
 11
11.9883352073
 21
6.6564123058
  0
LINE
  5
274
100
AcDbEntity
  8
03__ASM_ALL_CURVES
100
AcDbLine
 62
4
  6
CONTINUOUS
 10
8.7202414591
 20
11.0527248075
 11
8.7313977091
 21
11.0824748058
  0
LINE
  5
275
100
AcDbEntity
  8
03__ASM_ALL_CURVES
100
AcDbLine
 62
4
  6
CONTINUOUS
 10
9.0437727091
 20
11.8647248075
 11
9.0493508341
 21
11.879599804
  0
LINE
  5
276
100
AcDbEntity
  8
03__ASM_ALL_CURVES
100
AcDbLine
 62
4
  6
CONTINUOUS
 10
9.0883977091
 20
11.8647248075
 11
9.0828195841
 21
11.8498498058
  0
LINE
  5
277
100
AcDbEntity
  8
03__ASM_ALL_CURVES
100
AcDbLine
 62
4
  6
CONTINUOUS
 10
9.4398195841
 20
11.8944748058
 11
9.4007727091
 21
11.8275373058
  0
LINE
  5
278
100
AcDbEntity
  8
03__ASM_ALL_CURVES
100
AcDbLine
 62
4
  6
CONTINUOUS
 10
8.9991477091
 20
11.0601623058
 11
8.9935695841
 21
11.0527248075
  0
LINE
  5
279
100
AcDbEntity
  8
03__ASM_ALL_CURVES
100
AcDbLine
 62
4
  6
CONTINUOUS
 10
9.0047258341
 20
11.0155373058
 11
8.9935695841
 21
11.000662306
  0
LINE
  5
27A
100
AcDbEntity
  8
03__ASM_ALL_CURVES
100
AcDbLine
 62
4
  6
CONTINUOUS
 10
8.5082727091
 20
10.316599804
 11
8.5138508341
 21
10.3240373075
  0
LINE
  5
27B
100
AcDbEntity
  8
03__ASM_ALL_CURVES
100
AcDbLine
 62
4
  6
CONTINUOUS
 10
8.5250070841
 20
10.2794123049
 11
8.5138508341
 21
10.2645373058
  0
LINE
  5
27C
100
AcDbEntity
  8
03__ASM_ALL_CURVES
100
AcDbLine
 62
4
  6
CONTINUOUS
 10
8.5528977091
 20
10.3017248075
 11
8.5473195841
 21
10.294287304
  0
LINE
  5
27D
100
AcDbEntity
  8
03__ASM_ALL_CURVES
100
AcDbLine
 62
4
  6
CONTINUOUS
 10
9.1609133341
 20
11.0080998062
 11
9.1497570841
 21
10.9932248058
  0
LINE
  5
27E
100
AcDbEntity
  8
03__ASM_ALL_CURVES
100
AcDbLine
 62
4
  6
CONTINUOUS
 10
8.6923508341
 20
10.316599804
 11
8.6979289591
 21
10.3240373075
  0
LINE
  5
27F
100
AcDbEntity
  8
03__ASM_ALL_CURVES
100
AcDbLine
 62
4
  6
CONTINUOUS
 10
9.5067570841
 20
11.0824748058
 11
9.4956008341
 21
11.0750373075
  0
LINE
  5
280
100
AcDbEntity
  8
03__ASM_ALL_CURVES
100
AcDbLine
 62
4
  6
CONTINUOUS
 10
8.5138508341
 20
10.3240373075
 11
8.5250070841
 21
10.3314748058
  0
LINE
  5
281
100
AcDbEntity
  8
03__ASM_ALL_CURVES
100
AcDbLine
 62
4
  6
CONTINUOUS
 10
9.5290695841
 20
11.000662306
 11
9.5179133341
 21
10.9932248058
  0
LINE
  5
282
100
AcDbEntity
  8
03__ASM_ALL_CURVES
100
AcDbLine
 62
4
  6
CONTINUOUS
 10
8.5473195841
 20
10.294287304
 11
8.5250070841
 21
10.2794123049
  0
LINE
  5
283
100
AcDbEntity
  8
03__ASM_ALL_CURVES
100
AcDbLine
 62
4
  6
CONTINUOUS
 10
8.6979289591
 20
10.3240373075
 11
8.7090852091
 21
10.3314748058
  0
LINE
  5
284
100
AcDbEntity
  8
03__ASM_ALL_CURVES
100
AcDbLine
 62
4
  6
CONTINUOUS
 10
10.9734602109
 20
6.9520529308
 11
10.9957727109
 21
6.9576310558
  0
LINE
  5
285
100
AcDbEntity
  8
03__ASM_ALL_CURVES
100
AcDbLine
 62
4
  6
CONTINUOUS
 10
11.9883352073
 20
6.7010373058
 11
12.0180852082
 21
6.7010373058
  0
LINE
  5
286
100
AcDbEntity
  8
03__ASM_ALL_CURVES
100
AcDbLine
 62
4
  6
CONTINUOUS
 10
12.0478352091
 20
6.7819201183
 11
12.0366789588
 21
6.7819201183
  0
LINE
  5
287
100
AcDbEntity
  8
03__ASM_ALL_CURVES
100
AcDbLine
 62
4
  6
CONTINUOUS
 10
11.0478352091
 20
6.7819201183
 11
11.0366789588
 21
6.7819201183
  0
LINE
  5
288
100
AcDbEntity
  8
03__ASM_ALL_CURVES
100
AcDbLine
 62
4
  6
CONTINUOUS
 10
12.0255227091
 20
6.8293341808
 11
12.0180852082
 21
6.8293341808
  0
LINE
  5
289
100
AcDbEntity
  8
03__ASM_ALL_CURVES
100
AcDbLine
 62
4
  6
CONTINUOUS
 10
11.9808977091
 20
6.8349123058
 11
11.9734602109
 21
6.8349123058
  0
LINE
  5
28A
100
AcDbEntity
  8
03__ASM_ALL_CURVES
100
AcDbLine
 62
4
  6
CONTINUOUS
 10
11.0478352091
 20
6.8739591808
 11
10.9585852091
 21
6.8739591808
  0
LINE
  5
28B
100
AcDbEntity
  8
03__ASM_ALL_CURVES
100
AcDbLine
 62
4
  6
CONTINUOUS
 10
11.9734602109
 20
6.8795373058
 11
11.9808977091
 21
6.8795373058
  0
LINE
  5
28C
100
AcDbEntity
  8
03__ASM_ALL_CURVES
100
AcDbLine
 62
4
  6
CONTINUOUS
 10
12.0180852082
 20
6.8851154308
 11
12.0255227091
 21
6.8851154308
  0
LINE
  5
28D
100
AcDbEntity
  8
03__ASM_ALL_CURVES
100
AcDbLine
 62
4
  6
CONTINUOUS
 10
10.9585852091
 20
6.6675685558
 11
10.9957727109
 21
6.6619904308
  0
LINE
  5
28E
100
AcDbEntity
  8
03__ASM_ALL_CURVES
100
AcDbLine
 62
4
  6
CONTINUOUS
 10
11.9585852091
 20
6.5783185558
 11
11.9957727109
 21
6.5727404308
  0
LINE
  5
28F
100
AcDbEntity
  8
03__ASM_ALL_CURVES
100
AcDbLine
 62
4
  6
CONTINUOUS
 10
12.0255227091
 20
6.1264904308
 11
12.0478352091
 21
6.1209123058
  0
LINE
  5
290
100
AcDbEntity
  8
03__ASM_ALL_CURVES
100
AcDbLine
 62
4
  6
CONTINUOUS
 10
10.9734602109
 20
6.4946466808
 11
10.9957727109
 21
6.4890685558
  0
LINE
  5
291
100
AcDbEntity
  8
03__ASM_ALL_CURVES
100
AcDbLine
 62
4
  6
CONTINUOUS
 10
11.0255227091
 20
6.5727404308
 11
11.0478352091
 21
6.5671623058
  0
LINE
  5
292
100
AcDbEntity
  8
03__ASM_ALL_CURVES
100
AcDbLine
 62
4
  6
CONTINUOUS
 10
10.9883352073
 20
6.2994123058
 11
10.9734602109
 21
6.3049904308
  0
LINE
  5
293
100
AcDbEntity
  8
03__ASM_ALL_CURVES
100
AcDbLine
 62
4
  6
CONTINUOUS
 10
11.0180852082
 20
6.3440373058
 11
11.0329602087
 21
6.3384591808
  0
LINE
  5
294
100
AcDbEntity
  8
03__ASM_ALL_CURVES
100
AcDbLine
 62
4
  6
CONTINUOUS
 10
8.5194289591
 20
7.593662306
 11
8.5138508341
 21
7.6010998062
  0
LINE
  5
295
100
AcDbEntity
  8
03__ASM_ALL_CURVES
100
AcDbLine
 62
4
  6
CONTINUOUS
 10
8.1958977091
 20
11.067599804
 11
8.1958977091
 21
11.0527248075
  0
LINE
  5
296
100
AcDbEntity
  8
03__ASM_ALL_CURVES
100
AcDbLine
 62
4
  6
CONTINUOUS
 10
8.2767805216
 20
10.9932248058
 11
8.2767805216
 21
11.0043810561
  0
LINE
  5
297
100
AcDbEntity
  8
03__ASM_ALL_CURVES
100
AcDbLine
 62
4
  6
CONTINUOUS
 10
8.3241945841
 20
11.0155373058
 11
8.3241945841
 21
11.0229748066
  0
LINE
  5
298
100
AcDbEntity
  8
03__ASM_ALL_CURVES
100
AcDbLine
 62
4
  6
CONTINUOUS
 10
8.3297727091
 20
11.0601623058
 11
8.3297727091
 21
11.067599804
  0
LINE
  5
299
100
AcDbEntity
  8
03__ASM_ALL_CURVES
100
AcDbLine
 62
4
  6
CONTINUOUS
 10
8.7816008341
 20
11.8275373058
 11
8.7760227091
 21
11.8052248058
  0
LINE
  5
29A
100
AcDbEntity
  8
03__ASM_ALL_CURVES
100
AcDbLine
 62
4
  6
CONTINUOUS
 10
8.6142570841
 20
11.067599804
 11
8.6086789591
 21
11.045287304
  0
LINE
  5
29B
100
AcDbEntity
  8
03__ASM_ALL_CURVES
100
AcDbLine
 62
4
  6
CONTINUOUS
 10
8.5138508341
 20
10.2645373058
 11
8.5082727091
 21
10.2422248058
  0
LINE
  5
29C
100
AcDbEntity
  8
03__ASM_ALL_CURVES
100
AcDbLine
 62
4
  6
CONTINUOUS
 10
8.7146633341
 20
11.0304123049
 11
8.7202414591
 21
11.0527248075
  0
LINE
  5
29D
100
AcDbEntity
  8
03__ASM_ALL_CURVES
100
AcDbLine
 62
4
  6
CONTINUOUS
 10
8.9712570841
 20
11.879599804
 11
8.9656789591
 21
11.857287304
  0
LINE
  5
29E
100
AcDbEntity
  8
03__ASM_ALL_CURVES
100
AcDbLine
 62
4
  6
CONTINUOUS
 10
9.0883977091
 20
11.8349748066
 11
9.0828195841
 21
11.8200998062
  0
LINE
  5
29F
100
AcDbEntity
  8
03__ASM_ALL_CURVES
100
AcDbLine
 62
4
  6
CONTINUOUS
 10
8.6867727091
 20
10.3017248075
 11
8.6923508341
 21
10.316599804
  0
LINE
  5
2A0
100
AcDbEntity
  8
03__ASM_ALL_CURVES
100
AcDbLine
 62
4
  6
CONTINUOUS
 10
9.3115227091
 20
11.8647248075
 11
9.3171008341
 21
11.879599804
  0
LINE
  5
2A1
100
AcDbEntity
  8
03__ASM_ALL_CURVES
100
AcDbLine
 62
4
  6
CONTINUOUS
 10
8.7313977091
 20
10.2719748066
 11
8.7258195841
 21
10.2570998062
  0
LINE
  5
2A2
100
AcDbEntity
  8
03__ASM_ALL_CURVES
100
AcDbLine
 62
4
  6
CONTINUOUS
 10
9.3394133341
 20
11.0824748058
 11
9.3282570841
 21
11.067599804
  0
LINE
  5
2A3
100
AcDbEntity
  8
03__ASM_ALL_CURVES
100
AcDbLine
 62
4
  6
CONTINUOUS
 10
8.7258195841
 20
10.2570998062
 11
8.7202414591
 21
10.249662306
  0
LINE
  5
2A4
100
AcDbEntity
  8
03__ASM_ALL_CURVES
100
AcDbLine
 62
4
  6
CONTINUOUS
 10
8.7816008341
 20
10.316599804
 11
8.7871789591
 21
10.3240373075
  0
LINE
  5
2A5
100
AcDbEntity
  8
03__ASM_ALL_CURVES
100
AcDbLine
 62
4
  6
CONTINUOUS
 10
8.8150695841
 20
10.2570998062
 11
8.8094914591
 21
10.249662306
  0
LINE
  5
2A6
100
AcDbEntity
  8
03__ASM_ALL_CURVES
100
AcDbLine
 62
4
  6
CONTINUOUS
 10
9.4956008341
 20
11.0750373075
 11
9.4900227091
 21
11.067599804
  0
LINE
  5
2A7
100
AcDbEntity
  8
03__ASM_ALL_CURVES
100
AcDbLine
 62
4
  6
CONTINUOUS
 10
8.9824133341
 20
10.3314748058
 11
8.9712570841
 21
10.316599804
  0
LINE
  5
2A8
100
AcDbEntity
  8
03__ASM_ALL_CURVES
100
AcDbLine
 62
4
  6
CONTINUOUS
 10
9.5346477091
 20
11.0080998062
 11
9.5290695841
 21
11.000662306
  0
LINE
  5
2A9
100
AcDbEntity
  8
03__ASM_ALL_CURVES
100
AcDbLine
 62
4
  6
CONTINUOUS
 10
8.7871789591
 20
10.3240373075
 11
8.7983352091
 21
10.3314748058
  0
LINE
  5
2AA
100
AcDbEntity
  8
03__ASM_ALL_CURVES
100
AcDbLine
 62
4
  6
CONTINUOUS
 10
8.7202414591
 20
10.249662306
 11
8.7090852091
 21
10.2422248058
  0
LINE
  5
2AB
100
AcDbEntity
  8
03__ASM_ALL_CURVES
100
AcDbLine
 62
4
  6
CONTINUOUS
 10
8.8094914591
 20
10.249662306
 11
8.7983352091
 21
10.2422248058
  0
LINE
  5
2AC
100
AcDbEntity
  8
03__ASM_ALL_CURVES
100
AcDbLine
 62
4
  6
CONTINUOUS
 10
9.0493508341
 20
10.294287304
 11
9.0605070841
 21
10.3017248075
  0
LINE
  5
2AD
100
AcDbEntity
  8
03__ASM_ALL_CURVES
100
AcDbLine
 62
4
  6
CONTINUOUS
 10
9.1386008341
 20
10.3240373075
 11
9.1497570841
 21
10.3314748058
  0
LINE
  5
2AE
100
AcDbEntity
  8
03__ASM_ALL_CURVES
100
AcDbLine
 62
4
  6
CONTINUOUS
 10
9.0828195841
 20
10.249662306
 11
9.0716633341
 21
10.2422248058
  0
LINE
  5
2AF
100
AcDbEntity
  8
03__ASM_ALL_CURVES
100
AcDbLine
 62
4
  6
CONTINUOUS
 10
8.7816008341
 20
10.2868498058
 11
8.7983352091
 21
10.294287304
  0
LINE
  5
2B0
100
AcDbEntity
  8
03__ASM_ALL_CURVES
100
AcDbLine
 62
4
  6
CONTINUOUS
 10
10.9957727109
 20
6.9576310558
 11
11.01064771
 21
6.9576310558
  0
LINE
  5
2B1
100
AcDbEntity
  8
03__ASM_ALL_CURVES
100
AcDbLine
 62
4
  6
CONTINUOUS
 10
11.9957727109
 20
6.9576310558
 11
12.01064771
 21
6.9576310558
  0
LINE
  5
2B2
100
AcDbEntity
  8
03__ASM_ALL_CURVES
100
AcDbLine
 62
4
  6
CONTINUOUS
 10
11.9734602109
 20
6.4946466808
 11
11.9957727109
 21
6.4890685558
  0
LINE
  5
2B3
100
AcDbEntity
  8
03__ASM_ALL_CURVES
100
AcDbLine
 62
4
  6
CONTINUOUS
 10
11.9883352073
 20
6.2994123058
 11
11.9734602109
 21
6.3049904308
  0
LINE
  5
2B4
100
AcDbEntity
  8
03__ASM_ALL_CURVES
100
AcDbLine
 62
4
  6
CONTINUOUS
 10
8.5305852091
 20
7.5862248058
 11
8.5194289591
 21
7.593662306
  0
LINE
  5
2B5
100
AcDbEntity
  8
03__ASM_ALL_CURVES
100
AcDbLine
 62
4
  6
CONTINUOUS
 10
8.5305852091
 20
7.6754748058
 11
8.5417414591
 21
7.6680373075
  0
LINE
  5
2B6
100
AcDbEntity
  8
03__ASM_ALL_CURVES
100
AcDbLine
 62
4
  6
CONTINUOUS
 10
8.7035070841
 20
7.5862248058
 11
8.6923508341
 21
7.593662306
  0
LINE
  5
2B7
100
AcDbEntity
  8
03__ASM_ALL_CURVES
100
AcDbLine
 62
4
  6
CONTINUOUS
 10
8.7983352091
 20
7.5862248058
 11
8.7871789591
 21
7.593662306
  0
LINE
  5
2B8
100
AcDbEntity
  8
03__ASM_ALL_CURVES
100
AcDbLine
 62
4
  6
CONTINUOUS
 10
8.7146633341
 20
7.6457248075
 11
8.7258195841
 21
7.638287304
  0
LINE
  5
2B9
100
AcDbEntity
  8
03__ASM_ALL_CURVES
100
AcDbLine
 62
4
  6
CONTINUOUS
 10
8.5417414591
 20
7.6680373075
 11
8.5473195841
 21
7.660599804
  0
LINE
  5
2BA
100
AcDbEntity
  8
03__ASM_ALL_CURVES
100
AcDbLine
 62
4
  6
CONTINUOUS
 10
8.6337805216
 20
7.5973810561
 11
8.6421477091
 21
7.5862248058
  0
LINE
  5
2BB
100
AcDbEntity
  8
03__ASM_ALL_CURVES
100
AcDbLine
 62
4
  6
CONTINUOUS
 10
8.6923508341
 20
7.593662306
 11
8.6867727091
 21
7.6010998062
  0
LINE
  5
2BC
100
AcDbEntity
  8
03__ASM_ALL_CURVES
100
AcDbLine
 62
4
  6
CONTINUOUS
 10
8.7258195841
 20
7.638287304
 11
8.7313977091
 21
7.6308498058
  0
LINE
  5
2BD
100
AcDbEntity
  8
03__ASM_ALL_CURVES
100
AcDbLine
 62
4
  6
CONTINUOUS
 10
8.7871789591
 20
7.593662306
 11
8.7816008341
 21
7.6010998062
  0
LINE
  5
2BE
100
AcDbEntity
  8
03__ASM_ALL_CURVES
100
AcDbLine
 62
4
  6
CONTINUOUS
 10
8.8094914591
 20
7.6680373075
 11
8.8150695841
 21
7.660599804
  0
LINE
  5
2BF
100
AcDbEntity
  8
03__ASM_ALL_CURVES
100
AcDbLine
 62
4
  6
CONTINUOUS
 10
8.5138508341
 20
7.6010998062
 11
8.5082727091
 21
7.6159748066
  0
LINE
  5
2C0
100
AcDbEntity
  8
03__ASM_ALL_CURVES
100
AcDbLine
 62
4
  6
CONTINUOUS
 10
8.5473195841
 20
7.660599804
 11
8.5528977091
 21
7.6457248075
  0
LINE
  5
2C1
100
AcDbEntity
  8
03__ASM_ALL_CURVES
100
AcDbLine
 62
4
  6
CONTINUOUS
 10
8.3743977091
 20
11.067599804
 11
8.3743977091
 21
11.0601623058
  0
LINE
  5
2C2
100
AcDbEntity
  8
03__ASM_ALL_CURVES
100
AcDbLine
 62
4
  6
CONTINUOUS
 10
8.3799758341
 20
11.0229748066
 11
8.3799758341
 21
11.0155373058
  0
LINE
  5
2C3
100
AcDbEntity
  8
03__ASM_ALL_CURVES
100
AcDbLine
 62
4
  6
CONTINUOUS
 10
8.4413352091
 20
11.0824748058
 11
8.4413352091
 21
10.9932248058
  0
LINE
  5
2C4
100
AcDbEntity
  8
03__ASM_ALL_CURVES
100
AcDbLine
 62
4
  6
CONTINUOUS
 10
8.5082727091
 20
7.6159748066
 11
8.5082727091
 21
7.6457248075
  0
LINE
  5
2C5
100
AcDbEntity
  8
03__ASM_ALL_CURVES
100
AcDbLine
 62
4
  6
CONTINUOUS
 10
8.5528977091
 20
11.879599804
 11
8.5528977091
 21
11.8721623058
  0
LINE
  5
2C6
100
AcDbEntity
  8
03__ASM_ALL_CURVES
100
AcDbLine
 62
4
  6
CONTINUOUS
 10
8.5528977091
 20
10.316599804
 11
8.5528977091
 21
10.3017248075
  0
LINE
  5
2C7
100
AcDbEntity
  8
03__ASM_ALL_CURVES
100
AcDbLine
 62
4
  6
CONTINUOUS
 10
8.5528977091
 20
7.6457248075
 11
8.5528977091
 21
7.6159748066
  0
LINE
  5
2C8
100
AcDbEntity
  8
03__ASM_ALL_CURVES
100
AcDbLine
 62
4
  6
CONTINUOUS
 10
8.5584758341
 20
11.8349748066
 11
8.5584758341
 21
11.8275373058
  0
LINE
  5
2C9
100
AcDbEntity
  8
03__ASM_ALL_CURVES
100
AcDbLine
 62
4
  6
CONTINUOUS
 10
8.7090852091
 20
10.9932248058
 11
8.7146633341
 21
11.0304123049
  0
LINE
  5
2CA
100
AcDbEntity
  8
03__ASM_ALL_CURVES
100
AcDbLine
 62
4
  6
CONTINUOUS
 10
9.0716633341
 20
11.0304123049
 11
9.0772414591
 21
11.0527248075
  0
LINE
  5
2CB
100
AcDbEntity
  8
03__ASM_ALL_CURVES
100
AcDbLine
 62
4
  6
CONTINUOUS
 10
9.3561477091
 20
11.8647248075
 11
9.3505695841
 21
11.8498498058
  0
LINE
  5
2CC
100
AcDbEntity
  8
03__ASM_ALL_CURVES
100
AcDbLine
 62
4
  6
CONTINUOUS
 10
8.7760227091
 20
10.3017248075
 11
8.7816008341
 21
10.316599804
  0
LINE
  5
2CD
100
AcDbEntity
  8
03__ASM_ALL_CURVES
100
AcDbLine
 62
4
  6
CONTINUOUS
 10
9.3561477091
 20
11.8349748066
 11
9.3505695841
 21
11.8200998062
  0
LINE
  5
2CE
100
AcDbEntity
  8
03__ASM_ALL_CURVES
100
AcDbLine
 62
4
  6
CONTINUOUS
 10
8.7760227091
 20
10.2719748066
 11
8.7816008341
 21
10.2868498058
  0
LINE
  5
2CF
100
AcDbEntity
  8
03__ASM_ALL_CURVES
100
AcDbLine
 62
4
  6
CONTINUOUS
 10
9.0772414591
 20
11.0527248075
 11
9.0883977091
 21
11.0824748058
  0
LINE
  5
2D0
100
AcDbEntity
  8
03__ASM_ALL_CURVES
100
AcDbLine
 62
4
  6
CONTINUOUS
 10
8.8206477091
 20
10.2719748066
 11
8.8150695841
 21
10.2570998062
  0
LINE
  5
2D1
100
AcDbEntity
  8
03__ASM_ALL_CURVES
100
AcDbLine
 62
4
  6
CONTINUOUS
 10
9.6071633341
 20
11.0080998062
 11
9.5960070841
 21
10.9932248058
  0
LINE
  5
2D2
100
AcDbEntity
  8
03__ASM_ALL_CURVES
100
AcDbLine
 62
4
  6
CONTINUOUS
 10
9.0883977091
 20
10.2570998062
 11
9.0828195841
 21
10.249662306
  0
LINE
  5
2D3
100
AcDbEntity
  8
03__ASM_ALL_CURVES
100
AcDbLine
 62
4
  6
CONTINUOUS
 10
9.1330227091
 20
10.316599804
 11
9.1386008341
 21
10.3240373075
  0
LINE
  5
2D4
100
AcDbEntity
  8
03__ASM_ALL_CURVES
100
AcDbLine
 62
4
  6
CONTINUOUS
 10
9.1497570841
 20
10.2794123049
 11
9.1386008341
 21
10.2645373058
  0
LINE
  5
2D5
100
AcDbEntity
  8
03__ASM_ALL_CURVES
100
AcDbLine
 62
4
  6
CONTINUOUS
 10
9.1776477091
 20
10.3017248075
 11
9.1720695841
 21
10.294287304
  0
LINE
  5
2D6
100
AcDbEntity
  8
03__ASM_ALL_CURVES
100
AcDbLine
 62
4
  6
CONTINUOUS
 10
9.1720695841
 20
10.294287304
 11
9.1497570841
 21
10.2794123049
  0
LINE
  5
2D7
100
AcDbEntity
  8
03__ASM_ALL_CURVES
100
AcDbLine
 62
4
  6
CONTINUOUS
 10
9.3171008341
 20
10.3240373075
 11
9.3282570841
 21
10.3314748058
  0
LINE
  5
2D8
100
AcDbEntity
  8
03__ASM_ALL_CURVES
100
AcDbLine
 62
4
  6
CONTINUOUS
 10
9.3505695841
 20
10.3017248075
 11
9.3394133341
 21
10.294287304
  0
LINE
  5
2D9
100
AcDbEntity
  8
03__ASM_ALL_CURVES
100
AcDbLine
 62
4
  6
CONTINUOUS
 10
9.4063508341
 20
10.3240373075
 11
9.4175070841
 21
10.3314748058
  0
LINE
  5
2DA
100
AcDbEntity
  8
03__ASM_ALL_CURVES
100
AcDbLine
 62
4
  6
CONTINUOUS
 10
9.3505695841
 20
10.249662306
 11
9.3394133341
 21
10.2422248058
  0
LINE
  5
2DB
100
AcDbEntity
  8
03__ASM_ALL_CURVES
100
AcDbLine
 62
4
  6
CONTINUOUS
 10
9.4398195841
 20
10.294287304
 11
9.4175070841
 21
10.2794123049
  0
LINE
  5
2DC
100
AcDbEntity
  8
03__ASM_ALL_CURVES
100
AcDbLine
 62
4
  6
CONTINUOUS
 10
11.01064771
 20
6.9576310558
 11
11.0329602087
 21
6.9520529308
  0
LINE
  5
2DD
100
AcDbEntity
  8
03__ASM_ALL_CURVES
100
AcDbLine
 62
4
  6
CONTINUOUS
 10
11.0180852082
 20
6.7066154308
 11
11.0329602087
 21
6.7010373058
  0
LINE
  5
2DE
100
AcDbEntity
  8
03__ASM_ALL_CURVES
100
AcDbLine
 62
4
  6
CONTINUOUS
 10
12.0180852082
 20
6.3440373058
 11
12.0329602087
 21
6.3384591808
  0
LINE
  5
2DF
100
AcDbEntity
  8
03__ASM_ALL_CURVES
100
AcDbLine
 62
4
  6
CONTINUOUS
 10
8.7983352091
 20
7.6234123049
 11
8.7816008341
 21
7.6308498058
  0
LINE
  5
2E0
100
AcDbEntity
  8
03__ASM_ALL_CURVES
100
AcDbLine
 62
4
  6
CONTINUOUS
 10
8.7983352091
 20
7.6754748058
 11
8.8094914591
 21
7.6680373075
  0
LINE
  5
2E1
100
AcDbEntity
  8
03__ASM_ALL_CURVES
100
AcDbLine
 62
4
  6
CONTINUOUS
 10
9.3338352091
 20
7.5862248058
 11
9.3226789591
 21
7.593662306
  0
LINE
  5
2E2
100
AcDbEntity
  8
03__ASM_ALL_CURVES
100
AcDbLine
 62
4
  6
CONTINUOUS
 10
10.9734602109
 20
6.3049904308
 11
10.9660227073
 21
6.3105685558
  0
LINE
  5
2E3
100
AcDbEntity
  8
03__ASM_ALL_CURVES
100
AcDbLine
 62
4
  6
CONTINUOUS
 10
8.9712570841
 20
7.6010998062
 11
8.9824133341
 21
7.5862248058
  0
LINE
  5
2E4
100
AcDbEntity
  8
03__ASM_ALL_CURVES
100
AcDbLine
 62
4
  6
CONTINUOUS
 10
8.7313977091
 20
7.6308498058
 11
8.7369758341
 21
7.6159748066
  0
LINE
  5
2E5
100
AcDbEntity
  8
03__ASM_ALL_CURVES
100
AcDbLine
 62
4
  6
CONTINUOUS
 10
8.7816008341
 20
7.6308498058
 11
8.7760227091
 21
7.6457248075
  0
LINE
  5
2E6
100
AcDbEntity
  8
03__ASM_ALL_CURVES
100
AcDbLine
 62
4
  6
CONTINUOUS
 10
8.8150695841
 20
7.660599804
 11
8.8206477091
 21
7.6457248075
  0
LINE
  5
2E7
100
AcDbEntity
  8
03__ASM_ALL_CURVES
100
AcDbLine
 62
4
  6
CONTINUOUS
 10
8.6086789591
 20
11.045287304
 11
8.6086789591
 21
11.0304123049
  0
LINE
  5
2E8
100
AcDbEntity
  8
03__ASM_ALL_CURVES
100
AcDbLine
 62
4
  6
CONTINUOUS
 10
8.6337805216
 20
7.5862248058
 11
8.6337805216
 21
7.5973810561
  0
LINE
  5
2E9
100
AcDbEntity
  8
03__ASM_ALL_CURVES
100
AcDbLine
 62
4
  6
CONTINUOUS
 10
8.6337805216
 20
10.2422248058
 11
8.6337805216
 21
10.2533810561
  0
LINE
  5
2EA
100
AcDbEntity
  8
03__ASM_ALL_CURVES
100
AcDbLine
 62
4
  6
CONTINUOUS
 10
8.6337805216
 20
11.8052248058
 11
8.6337805216
 21
11.8163810561
  0
LINE
  5
2EB
100
AcDbEntity
  8
03__ASM_ALL_CURVES
100
AcDbLine
 62
4
  6
CONTINUOUS
 10
8.6867727091
 20
10.2719748066
 11
8.6867727091
 21
10.3017248075
  0
LINE
  5
2EC
100
AcDbEntity
  8
03__ASM_ALL_CURVES
100
AcDbLine
 62
4
  6
CONTINUOUS
 10
8.6867727091
 20
11.8349748066
 11
8.6867727091
 21
11.8647248075
  0
LINE
  5
2ED
100
AcDbEntity
  8
03__ASM_ALL_CURVES
100
AcDbLine
 62
4
  6
CONTINUOUS
 10
8.7313977091
 20
10.3017248075
 11
8.7313977091
 21
10.2719748066
  0
LINE
  5
2EE
100
AcDbEntity
  8
03__ASM_ALL_CURVES
100
AcDbLine
 62
4
  6
CONTINUOUS
 10
8.7760227091
 20
10.2719748066
 11
8.7760227091
 21
10.3017248075
  0
LINE
  5
2EF
100
AcDbEntity
  8
03__ASM_ALL_CURVES
100
AcDbLine
 62
4
  6
CONTINUOUS
 10
8.7983352091
 20
11.0824748058
 11
8.7983352091
 21
10.9932248058
  0
LINE
  5
2F0
100
AcDbEntity
  8
03__ASM_ALL_CURVES
100
AcDbLine
 62
4
  6
CONTINUOUS
 10
8.8206477091
 20
11.879599804
 11
8.8206477091
 21
11.8647248075
  0
LINE
  5
2F1
100
AcDbEntity
  8
03__ASM_ALL_CURVES
100
AcDbLine
 62
4
  6
CONTINUOUS
 10
8.8206477091
 20
7.6457248075
 11
8.8206477091
 21
7.6159748066
  0
LINE
  5
2F2
100
AcDbEntity
  8
03__ASM_ALL_CURVES
100
AcDbLine
 62
4
  6
CONTINUOUS
 10
9.0660852091
 20
10.9932248058
 11
9.0716633341
 21
11.0304123049
  0
LINE
  5
2F3
100
AcDbEntity
  8
03__ASM_ALL_CURVES
100
AcDbLine
 62
4
  6
CONTINUOUS
 10
8.9712570841
 20
10.316599804
 11
8.9656789591
 21
10.294287304
  0
LINE
  5
2F4
100
AcDbEntity
  8
03__ASM_ALL_CURVES
100
AcDbLine
 62
4
  6
CONTINUOUS
 10
9.1664914591
 20
11.0304123049
 11
9.1609133341
 21
11.0080998062
  0
LINE
  5
2F5
100
AcDbEntity
  8
03__ASM_ALL_CURVES
100
AcDbLine
 62
4
  6
CONTINUOUS
 10
9.3282570841
 20
11.067599804
 11
9.3226789591
 21
11.045287304
  0
LINE
  5
2F6
100
AcDbEntity
  8
03__ASM_ALL_CURVES
100
AcDbLine
 62
4
  6
CONTINUOUS
 10
9.5234914591
 20
11.8424123049
 11
9.5179133341
 21
11.8200998062
  0
LINE
  5
2F7
100
AcDbEntity
  8
03__ASM_ALL_CURVES
100
AcDbLine
 62
4
  6
CONTINUOUS
 10
9.1386008341
 20
10.2645373058
 11
9.1330227091
 21
10.2422248058
  0
LINE
  5
2F8
100
AcDbEntity
  8
03__ASM_ALL_CURVES
100
AcDbLine
 62
4
  6
CONTINUOUS
 10
9.0939758341
 20
10.2719748066
 11
9.0883977091
 21
10.2570998062
  0
LINE
  5
2F9
100
AcDbEntity
  8
03__ASM_ALL_CURVES
100
AcDbLine
 62
4
  6
CONTINUOUS
 10
9.3561477091
 20
10.3091623058
 11
9.3505695841
 21
10.3017248075
  0
LINE
  5
2FA
100
AcDbEntity
  8
03__ASM_ALL_CURVES
100
AcDbLine
 62
4
  6
CONTINUOUS
 10
9.3617258341
 20
10.2645373058
 11
9.3505695841
 21
10.249662306
  0
LINE
  5
2FB
100
AcDbEntity
  8
03__ASM_ALL_CURVES
100
AcDbLine
 62
4
  6
CONTINUOUS
 10
9.4007727091
 20
10.316599804
 11
9.4063508341
 21
10.3240373075
  0
LINE
  5
2FC
100
AcDbEntity
  8
03__ASM_ALL_CURVES
100
AcDbLine
 62
4
  6
CONTINUOUS
 10
9.4175070841
 20
10.2794123049
 11
9.4063508341
 21
10.2645373058
  0
LINE
  5
2FD
100
AcDbEntity
  8
03__ASM_ALL_CURVES
100
AcDbLine
 62
4
  6
CONTINUOUS
 10
9.4453977091
 20
10.3017248075
 11
9.4398195841
 21
10.294287304
  0
LINE
  5
2FE
100
AcDbEntity
  8
03__ASM_ALL_CURVES
100
AcDbLine
 62
4
  6
CONTINUOUS
 10
9.5179133341
 20
10.2570998062
 11
9.5067570841
 21
10.2422248058
  0
LINE
  5
2FF
100
AcDbEntity
  8
03__ASM_ALL_CURVES
100
AcDbLine
 62
4
  6
CONTINUOUS
 10
9.4286633341
 20
7.5862248058
 11
9.4175070841
 21
7.5862248058
  0
LINE
  5
300
100
AcDbEntity
  8
03__ASM_ALL_CURVES
100
AcDbLine
 62
4
  6
CONTINUOUS
 10
9.2668977091
 20
7.5862248058
 11
9.2585305216
 21
7.5862248058
  0
LINE
  5
301
100
AcDbEntity
  8
03__ASM_ALL_CURVES
100
AcDbLine
 62
4
  6
CONTINUOUS
 10
8.7146633341
 20
7.5862248058
 11
8.7035070841
 21
7.5862248058
  0
LINE
  5
302
100
AcDbEntity
  8
03__ASM_ALL_CURVES
100
AcDbLine
 62
4
  6
CONTINUOUS
 10
8.6421477091
 20
7.5862248058
 11
8.6337805216
 21
7.5862248058
  0
LINE
  5
303
100
AcDbEntity
  8
03__ASM_ALL_CURVES
100
AcDbLine
 62
4
  6
CONTINUOUS
 10
9.1330227091
 20
7.6085373058
 11
9.1832258341
 21
7.6085373058
  0
LINE
  5
304
100
AcDbEntity
  8
03__ASM_ALL_CURVES
100
AcDbLine
 62
4
  6
CONTINUOUS
 10
10.0180852082
 20
7.6224123058
 11
9.9883352073
 21
7.6224123058
  0
LINE
  5
305
100
AcDbEntity
  8
0
100
AcDbLine
 62
7
  6
CONTINUOUS
 10
11.4332088426
 20
7.6308498058
 11
10.5732115756
 21
7.6308498058
  0
LINE
  5
306
100
AcDbEntity
  8
03__ASM_ALL_CURVES
100
AcDbLine
 62
4
  6
CONTINUOUS
 10
9.9139602091
 20
7.6308498058
 11
9.6462102091
 21
7.6308498058
  0
LINE
  5
307
100
AcDbEntity
  8
03__ASM_ALL_CURVES
100
AcDbLine
 62
4
  6
CONTINUOUS
 10
9.4175070841
 20
7.638287304
 11
9.4286633341
 21
7.638287304
  0
LINE
  5
308
100
AcDbEntity
  8
03__ASM_ALL_CURVES
100
AcDbLine
 62
4
  6
CONTINUOUS
 10
8.7035070841
 20
7.6457248075
 11
8.7146633341
 21
7.6457248075
  0
LINE
  5
309
100
AcDbEntity
  8
0
100
AcDbLine
 62
7
  6
CONTINUOUS
 10
11.4407262431
 20
7.6649134716
 11
11.4111124568
 21
7.6649134716
  0
LINE
  5
30A
100
AcDbEntity
  8
0
100
AcDbLine
 62
7
  6
CONTINUOUS
 10
11.0328239954
 20
7.6649134716
 11
10.9735964228
 21
7.6649134716
  0
LINE
  5
30B
100
AcDbEntity
  8
0
100
AcDbLine
 62
7
  6
CONTINUOUS
 10
10.5953079614
 20
7.6649134716
 11
10.5656941751
 21
7.6649134716
  0
LINE
  5
30C
100
AcDbEntity
  8
03__ASM_ALL_CURVES
100
AcDbLine
 62
4
  6
CONTINUOUS
 10
9.9883352073
 20
7.6670373058
 11
10.0180852082
 21
7.6670373058
  0
LINE
  5
30D
100
AcDbEntity
  8
03__ASM_ALL_CURVES
100
AcDbLine
 62
4
  6
CONTINUOUS
 10
12.01064771
 20
6.9576310558
 11
12.0329602087
 21
6.9520529308
  0
LINE
  5
30E
100
AcDbEntity
  8
03__ASM_ALL_CURVES
100
AcDbLine
 62
4
  6
CONTINUOUS
 10
12.0180852082
 20
6.6173654308
 11
12.0329602087
 21
6.6117873058
  0
LINE
  5
30F
100
AcDbEntity
  8
03__ASM_ALL_CURVES
100
AcDbLine
 62
4
  6
CONTINUOUS
 10
11.9883352073
 20
6.6564123058
 11
11.9734602109
 21
6.6619904308
  0
LINE
  5
310
100
AcDbEntity
  8
03__ASM_ALL_CURVES
100
AcDbLine
 62
4
  6
CONTINUOUS
 10
12.0180852082
 20
6.7010373058
 11
12.0329602087
 21
6.6954591808
  0
LINE
  5
311
100
AcDbEntity
  8
03__ASM_ALL_CURVES
100
AcDbLine
 62
4
  6
CONTINUOUS
 10
9.3338352091
 20
7.6234123049
 11
9.3171008341
 21
7.6308498058
  0
LINE
  5
312
100
AcDbEntity
  8
03__ASM_ALL_CURVES
100
AcDbLine
 62
4
  6
CONTINUOUS
 10
10.9585852091
 20
6.8739591808
 11
11.0255227091
 21
6.8349123058
  0
LINE
  5
313
100
AcDbEntity
  8
03__ASM_ALL_CURVES
100
AcDbLine
 62
4
  6
CONTINUOUS
 10
9.4175070841
 20
7.5862248058
 11
9.4063508341
 21
7.593662306
  0
LINE
  5
314
100
AcDbEntity
  8
03__ASM_ALL_CURVES
100
AcDbLine
 62
4
  6
CONTINUOUS
 10
9.3338352091
 20
7.6754748058
 11
9.3449914591
 21
7.6680373075
  0
LINE
  5
315
100
AcDbEntity
  8
03__ASM_ALL_CURVES
100
AcDbLine
 62
4
  6
CONTINUOUS
 10
9.4175070841
 20
7.638287304
 11
9.4063508341
 21
7.6457248075
  0
LINE
  5
316
100
AcDbEntity
  8
03__ASM_ALL_CURVES
100
AcDbLine
 62
4
  6
CONTINUOUS
 10
9.4286633341
 20
7.638287304
 11
9.4398195841
 21
7.6308498058
  0
LINE
  5
317
100
AcDbEntity
  8
03__ASM_ALL_CURVES
100
AcDbLine
 62
4
  6
CONTINUOUS
 10
9.4286633341
 20
7.6754748058
 11
9.4398195841
 21
7.6680373075
  0
LINE
  5
318
100
AcDbEntity
  8
03__ASM_ALL_CURVES
100
AcDbLine
 62
4
  6
CONTINUOUS
 10
11.0329602087
 20
6.3384591808
 11
11.0403977089
 21
6.3328810558
  0
LINE
  5
319
100
AcDbEntity
  8
03__ASM_ALL_CURVES
100
AcDbLine
 62
4
  6
CONTINUOUS
 10
10.9585852091
 20
6.5058029308
 11
10.9734602109
 21
6.4946466808
  0
LINE
  5
31A
100
AcDbEntity
  8
03__ASM_ALL_CURVES
100
AcDbLine
 62
4
  6
CONTINUOUS
 10
10.9734602109
 20
6.5671623058
 11
10.9660227073
 21
6.5727404308
  0
LINE
  5
31B
100
AcDbEntity
  8
03__ASM_ALL_CURVES
100
AcDbLine
 62
4
  6
CONTINUOUS
 10
11.01064771
 20
6.5838966808
 11
11.0255227091
 21
6.5727404308
  0
LINE
  5
31C
100
AcDbEntity
  8
03__ASM_ALL_CURVES
100
AcDbLine
 62
4
  6
CONTINUOUS
 10
10.9883352073
 20
6.6117873058
 11
10.9957727109
 21
6.6062091808
  0
LINE
  5
31D
100
AcDbEntity
  8
03__ASM_ALL_CURVES
100
AcDbLine
 62
4
  6
CONTINUOUS
 10
9.2585305216
 20
7.5973810561
 11
9.2668977091
 21
7.5862248058
  0
LINE
  5
31E
100
AcDbEntity
  8
03__ASM_ALL_CURVES
100
AcDbLine
 62
4
  6
CONTINUOUS
 10
9.3226789591
 20
7.593662306
 11
9.3171008341
 21
7.6010998062
  0
LINE
  5
31F
100
AcDbEntity
  8
03__ASM_ALL_CURVES
100
AcDbLine
 62
4
  6
CONTINUOUS
 10
9.3449914591
 20
7.6680373075
 11
9.3505695841
 21
7.660599804
  0
LINE
  5
320
100
AcDbEntity
  8
03__ASM_ALL_CURVES
100
AcDbLine
 62
4
  6
CONTINUOUS
 10
9.4063508341
 20
7.593662306
 11
9.3951945841
 21
7.6085373058
  0
LINE
  5
321
100
AcDbEntity
  8
03__ASM_ALL_CURVES
100
AcDbLine
 62
4
  6
CONTINUOUS
 10
9.4063508341
 20
7.6457248075
 11
9.4007727091
 21
7.6531623058
  0
LINE
  5
322
100
AcDbEntity
  8
03__ASM_ALL_CURVES
100
AcDbLine
 62
4
  6
CONTINUOUS
 10
9.4398195841
 20
7.6308498058
 11
9.4509758341
 21
7.6159748066
  0
LINE
  5
323
100
AcDbEntity
  8
03__ASM_ALL_CURVES
100
AcDbLine
 62
4
  6
CONTINUOUS
 10
8.9656789591
 20
7.6234123049
 11
8.9712570841
 21
7.6010998062
  0
LINE
  5
324
100
AcDbEntity
  8
03__ASM_ALL_CURVES
100
AcDbLine
 62
4
  6
CONTINUOUS
 10
8.9015305216
 20
10.9932248058
 11
8.9015305216
 21
11.0043810561
  0
LINE
  5
325
100
AcDbEntity
  8
03__ASM_ALL_CURVES
100
AcDbLine
 62
4
  6
CONTINUOUS
 10
8.9656789591
 20
11.857287304
 11
8.9656789591
 21
11.8424123049
  0
LINE
  5
326
100
AcDbEntity
  8
03__ASM_ALL_CURVES
100
AcDbLine
 62
4
  6
CONTINUOUS
 10
8.9656789591
 20
10.294287304
 11
8.9656789591
 21
10.2794123049
  0
LINE
  5
327
100
AcDbEntity
  8
03__ASM_ALL_CURVES
100
AcDbLine
 62
4
  6
CONTINUOUS
 10
8.9656789591
 20
7.638287304
 11
8.9656789591
 21
7.6234123049
  0
LINE
  5
328
100
AcDbEntity
  8
03__ASM_ALL_CURVES
100
AcDbLine
 62
4
  6
CONTINUOUS
 10
8.9991477091
 20
11.067599804
 11
8.9991477091
 21
11.0601623058
  0
LINE
  5
329
100
AcDbEntity
  8
03__ASM_ALL_CURVES
100
AcDbLine
 62
4
  6
CONTINUOUS
 10
9.0047258341
 20
11.0229748066
 11
9.0047258341
 21
11.0155373058
  0
LINE
  5
32A
100
AcDbEntity
  8
03__ASM_ALL_CURVES
100
AcDbLine
 62
4
  6
CONTINUOUS
 10
9.0660852091
 20
7.6754748058
 11
9.0660852091
 21
7.5862248058
  0
LINE
  5
32B
100
AcDbEntity
  8
03__ASM_ALL_CURVES
100
AcDbLine
 62
4
  6
CONTINUOUS
 10
9.0549289591
 20
10.3314748058
 11
9.0493508341
 21
10.294287304
  0
LINE
  5
32C
100
AcDbEntity
  8
03__ASM_ALL_CURVES
100
AcDbLine
 62
4
  6
CONTINUOUS
 10
8.6979289591
 20
7.6754748058
 11
8.6923508341
 21
7.638287304
  0
LINE
  5
32D
100
AcDbEntity
  8
03__ASM_ALL_CURVES
100
AcDbLine
 62
4
  6
CONTINUOUS
 10
8.5082727091
 20
7.6457248075
 11
8.5138508341
 21
7.660599804
  0
LINE
  5
32E
100
AcDbEntity
  8
03__ASM_ALL_CURVES
100
AcDbLine
 62
4
  6
CONTINUOUS
 10
8.7313977091
 20
7.6754748058
 11
8.6979289591
 21
7.6754748058
  0
LINE
  5
32F
100
AcDbEntity
  8
03__ASM_ALL_CURVES
100
AcDbLine
 62
4
  6
CONTINUOUS
 10
9.4175070841
 20
7.6754748058
 11
9.4286633341
 21
7.6754748058
  0
LINE
  5
330
100
AcDbEntity
  8
03__ASM_ALL_CURVES
100
AcDbLine
 62
4
  6
CONTINUOUS
 10
9.9883352073
 20
7.6224123058
 11
9.9734602109
 21
7.6279904308
  0
LINE
  5
331
100
AcDbEntity
  8
03__ASM_ALL_CURVES
100
AcDbLine
 62
4
  6
CONTINUOUS
 10
10.0180852082
 20
7.6670373058
 11
10.0329602087
 21
7.6614591808
  0
LINE
  5
332
100
AcDbEntity
  8
03__ASM_ALL_CURVES
100
AcDbLine
 62
4
  6
CONTINUOUS
 10
11.0329602087
 20
6.7010373058
 11
11.0403977089
 21
6.6954591808
  0
LINE
  5
333
100
AcDbEntity
  8
03__ASM_ALL_CURVES
100
AcDbLine
 62
4
  6
CONTINUOUS
 10
11.9734602109
 20
6.1209123058
 11
11.9660227073
 21
6.1264904308
  0
LINE
  5
334
100
AcDbEntity
  8
03__ASM_ALL_CURVES
100
AcDbLine
 62
4
  6
CONTINUOUS
 10
9.9734602109
 20
7.6279904308
 11
9.9660227073
 21
7.6335685558
  0
LINE
  5
335
100
AcDbEntity
  8
03__ASM_ALL_CURVES
100
AcDbLine
 62
4
  6
CONTINUOUS
 10
12.01064771
 20
6.1376466808
 11
12.0255227091
 21
6.1264904308
  0
LINE
  5
336
100
AcDbEntity
  8
03__ASM_ALL_CURVES
100
AcDbLine
 62
4
  6
CONTINUOUS
 10
11.9883352073
 20
6.1655373058
 11
11.9957727109
 21
6.1599591808
  0
LINE
  5
337
100
AcDbEntity
  8
03__ASM_ALL_CURVES
100
AcDbLine
 62
4
  6
CONTINUOUS
 10
10.0329602087
 20
7.6614591808
 11
10.0403977089
 21
7.6558810558
  0
LINE
  5
338
100
AcDbEntity
  8
03__ASM_ALL_CURVES
100
AcDbLine
 62
4
  6
CONTINUOUS
 10
9.4398195841
 20
7.6680373075
 11
9.4453977091
 21
7.660599804
  0
LINE
  5
339
100
AcDbEntity
  8
03__ASM_ALL_CURVES
100
AcDbLine
 62
4
  6
CONTINUOUS
 10
9.5067570841
 20
7.6754748058
 11
9.5179133341
 21
7.660599804
  0
LINE
  5
33A
100
AcDbEntity
  8
03__ASM_ALL_CURVES
100
AcDbLine
 62
4
  6
CONTINUOUS
 10
9.3171008341
 20
7.6308498058
 11
9.3115227091
 21
7.6457248075
  0
LINE
  5
33B
100
AcDbEntity
  8
03__ASM_ALL_CURVES
100
AcDbLine
 62
4
  6
CONTINUOUS
 10
9.3505695841
 20
7.660599804
 11
9.3561477091
 21
7.6457248075
  0
LINE
  5
33C
100
AcDbEntity
  8
03__ASM_ALL_CURVES
100
AcDbLine
 62
4
  6
CONTINUOUS
 10
9.0883977091
 20
11.8647248075
 11
9.0883977091
 21
11.8349748066
  0
LINE
  5
33D
100
AcDbEntity
  8
03__ASM_ALL_CURVES
100
AcDbLine
 62
4
  6
CONTINUOUS
 10
9.1553352091
 20
11.8944748058
 11
9.1553352091
 21
11.8052248058
  0
LINE
  5
33E
100
AcDbEntity
  8
03__ASM_ALL_CURVES
100
AcDbLine
 62
4
  6
CONTINUOUS
 10
9.1664914591
 20
11.045287304
 11
9.1664914591
 21
11.0304123049
  0
LINE
  5
33F
100
AcDbEntity
  8
03__ASM_ALL_CURVES
100
AcDbLine
 62
4
  6
CONTINUOUS
 10
9.1720695841
 20
7.5862248058
 11
9.1720695841
 21
7.6754748058
  0
LINE
  5
340
100
AcDbEntity
  8
03__ASM_ALL_CURVES
100
AcDbLine
 62
4
  6
CONTINUOUS
 10
9.1776477091
 20
10.316599804
 11
9.1776477091
 21
10.3017248075
  0
LINE
  5
341
100
AcDbEntity
  8
03__ASM_ALL_CURVES
100
AcDbLine
 62
4
  6
CONTINUOUS
 10
9.2585305216
 20
7.5862248058
 11
9.2585305216
 21
7.5973810561
  0
LINE
  5
342
100
AcDbEntity
  8
03__ASM_ALL_CURVES
100
AcDbLine
 62
4
  6
CONTINUOUS
 10
9.2585305216
 20
10.2422248058
 11
9.2585305216
 21
10.2533810561
  0
LINE
  5
343
100
AcDbEntity
  8
03__ASM_ALL_CURVES
100
AcDbLine
 62
4
  6
CONTINUOUS
 10
9.2585305216
 20
11.8052248058
 11
9.2585305216
 21
11.8163810561
  0
LINE
  5
344
100
AcDbEntity
  8
03__ASM_ALL_CURVES
100
AcDbLine
 62
4
  6
CONTINUOUS
 10
9.4063508341
 20
10.2645373058
 11
9.4007727091
 21
10.2422248058
  0
LINE
  5
345
100
AcDbEntity
  8
03__ASM_ALL_CURVES
100
AcDbLine
 62
4
  6
CONTINUOUS
 10
9.6127414591
 20
11.0304123049
 11
9.6071633341
 21
11.0080998062
  0
LINE
  5
346
100
AcDbEntity
  8
03__ASM_ALL_CURVES
100
AcDbLine
 62
4
  6
CONTINUOUS
 10
9.5234914591
 20
10.2794123049
 11
9.5179133341
 21
10.2570998062
  0
LINE
  5
347
100
AcDbEntity
  8
03__ASM_ALL_CURVES
100
AcDbLine
 62
4
  6
CONTINUOUS
 10
8.9712570841
 20
7.660599804
 11
8.9656789591
 21
7.638287304
  0
LINE
  5
348
100
AcDbEntity
  8
03__ASM_ALL_CURVES
100
AcDbLine
 62
4
  6
CONTINUOUS
 10
8.5528977091
 20
7.6159748066
 11
8.5473195841
 21
7.6010998062
  0
LINE
  5
349
100
AcDbEntity
  8
03__ASM_ALL_CURVES
100
AcDbLine
 62
4
  6
CONTINUOUS
 10
8.7369758341
 20
7.6159748066
 11
8.7313977091
 21
7.6010998062
  0
LINE
  5
34A
100
AcDbEntity
  8
03__ASM_ALL_CURVES
100
AcDbLine
 62
4
  6
CONTINUOUS
 10
8.7760227091
 20
7.6457248075
 11
8.7816008341
 21
7.660599804
  0
LINE
  5
34B
100
AcDbEntity
  8
0
100
AcDbLine
 62
7
  6
CONTINUOUS
 10
10.5953079614
 20
8.1013498058
 11
10.5656941751
 21
8.1013498058
  0
LINE
  5
34C
100
AcDbEntity
  8
0
100
AcDbLine
 62
7
  6
CONTINUOUS
 10
10.9735964228
 20
8.1013498058
 11
11.0328239954
 21
8.1013498058
  0
LINE
  5
34D
100
AcDbEntity
  8
0
100
AcDbLine
 62
7
  6
CONTINUOUS
 10
11.4111124568
 20
8.1013498058
 11
11.4407262431
 21
8.1013498058
  0
LINE
  5
34E
100
AcDbEntity
  8
0
100
AcDbLine
 62
7
  6
CONTINUOUS
 10
10.5652539783
 20
7.6354433378
 11
10.5732102091
 21
7.6308498058
  0
LINE
  5
34F
100
AcDbEntity
  8
03__ASM_ALL_CURVES
100
AcDbLine
 62
4
  6
CONTINUOUS
 10
9.4230852091
 20
8.1802248058
 11
9.4119289591
 21
8.187662306
  0
LINE
  5
350
100
AcDbEntity
  8
03__ASM_ALL_CURVES
100
AcDbLine
 62
4
  6
CONTINUOUS
 10
9.4230852091
 20
8.2694748058
 11
9.4342414591
 21
8.2620373075
  0
LINE
  5
351
100
AcDbEntity
  8
03__ASM_ALL_CURVES
100
AcDbLine
 62
4
  6
CONTINUOUS
 10
11.0329602087
 20
6.9520529308
 11
11.0478352091
 21
6.9408966808
  0
LINE
  5
352
100
AcDbEntity
  8
03__ASM_ALL_CURVES
100
AcDbLine
 62
4
  6
CONTINUOUS
 10
11.9734602109
 20
6.3049904308
 11
11.9660227073
 21
6.3105685558
  0
LINE
  5
353
100
AcDbEntity
  8
03__ASM_ALL_CURVES
100
AcDbLine
 62
4
  6
CONTINUOUS
 10
12.0329602087
 20
6.3384591808
 11
12.0403977089
 21
6.3328810558
  0
LINE
  5
354
100
AcDbEntity
  8
03__ASM_ALL_CURVES
100
AcDbLine
 62
4
  6
CONTINUOUS
 10
11.9585852091
 20
6.5058029308
 11
11.9734602109
 21
6.4946466808
  0
LINE
  5
355
100
AcDbEntity
  8
03__ASM_ALL_CURVES
100
AcDbLine
 62
4
  6
CONTINUOUS
 10
9.4119289591
 20
8.187662306
 11
9.4063508341
 21
8.1950998062
  0
LINE
  5
356
100
AcDbEntity
  8
03__ASM_ALL_CURVES
100
AcDbLine
 62
4
  6
CONTINUOUS
 10
9.4342414591
 20
8.2620373075
 11
9.4398195841
 21
8.254599804
  0
LINE
  5
357
100
AcDbEntity
  8
03__ASM_ALL_CURVES
100
AcDbLine
 62
4
  6
CONTINUOUS
 10
9.9660227073
 20
7.6335685558
 11
9.9585852091
 21
7.6447248058
  0
LINE
  5
358
100
AcDbEntity
  8
03__ASM_ALL_CURVES
100
AcDbLine
 62
4
  6
CONTINUOUS
 10
9.4063508341
 20
8.1950998062
 11
9.4007727091
 21
8.2099748066
  0
LINE
  5
359
100
AcDbEntity
  8
03__ASM_ALL_CURVES
100
AcDbLine
 62
4
  6
CONTINUOUS
 10
9.4398195841
 20
8.254599804
 11
9.4453977091
 21
8.2397248075
  0
LINE
  5
35A
100
AcDbEntity
  8
03__ASM_ALL_CURVES
100
AcDbLine
 62
4
  6
CONTINUOUS
 10
8.6923508341
 20
10.2570998062
 11
8.6867727091
 21
10.2719748066
  0
LINE
  5
35B
100
AcDbEntity
  8
03__ASM_ALL_CURVES
100
AcDbLine
 62
4
  6
CONTINUOUS
 10
8.6086789591
 20
11.0304123049
 11
8.6142570841
 21
11.0080998062
  0
LINE
  5
35C
100
AcDbEntity
  8
03__ASM_ALL_CURVES
100
AcDbLine
 62
4
  6
CONTINUOUS
 10
9.5179133341
 20
7.660599804
 11
9.5234914591
 21
7.638287304
  0
LINE
  5
35D
100
AcDbEntity
  8
03__ASM_ALL_CURVES
100
AcDbLine
 62
4
  6
CONTINUOUS
 10
9.3226789591
 20
11.045287304
 11
9.3226789591
 21
11.0304123049
  0
LINE
  5
35E
100
AcDbEntity
  8
03__ASM_ALL_CURVES
100
AcDbLine
 62
4
  6
CONTINUOUS
 10
9.3561477091
 20
11.8647248075
 11
9.3561477091
 21
11.8349748066
  0
LINE
  5
35F
100
AcDbEntity
  8
03__ASM_ALL_CURVES
100
AcDbLine
 62
4
  6
CONTINUOUS
 10
9.3561477091
 20
10.316599804
 11
9.3561477091
 21
10.3091623058
  0
LINE
  5
360
100
AcDbEntity
  8
03__ASM_ALL_CURVES
100
AcDbLine
 62
4
  6
CONTINUOUS
 10
9.3561477091
 20
7.6457248075
 11
9.3561477091
 21
7.6159748066
  0
LINE
  5
361
100
AcDbEntity
  8
03__ASM_ALL_CURVES
100
AcDbLine
 62
4
  6
CONTINUOUS
 10
9.3617258341
 20
10.2719748066
 11
9.3617258341
 21
10.2645373058
  0
LINE
  5
362
100
AcDbEntity
  8
03__ASM_ALL_CURVES
100
AcDbLine
 62
4
  6
CONTINUOUS
 10
9.3951945841
 20
7.6085373058
 11
9.3951945841
 21
7.6159748066
  0
LINE
  5
363
100
AcDbEntity
  8
03__ASM_ALL_CURVES
100
AcDbLine
 62
4
  6
CONTINUOUS
 10
9.4007727091
 20
11.0824748058
 11
9.4007727091
 21
10.9932248058
  0
LINE
  5
364
100
AcDbEntity
  8
03__ASM_ALL_CURVES
100
AcDbLine
 62
4
  6
CONTINUOUS
 10
9.4007727091
 20
7.6531623058
 11
9.4007727091
 21
7.660599804
  0
LINE
  5
365
100
AcDbEntity
  8
03__ASM_ALL_CURVES
100
AcDbLine
 62
4
  6
CONTINUOUS
 10
9.4007727091
 20
8.2099748066
 11
9.4007727091
 21
8.2397248075
  0
LINE
  5
366
100
AcDbEntity
  8
03__ASM_ALL_CURVES
100
AcDbLine
 62
4
  6
CONTINUOUS
 10
9.4398195841
 20
11.8052248058
 11
9.4398195841
 21
11.8944748058
  0
LINE
  5
367
100
AcDbEntity
  8
03__ASM_ALL_CURVES
100
AcDbLine
 62
4
  6
CONTINUOUS
 10
9.4453977091
 20
10.316599804
 11
9.4453977091
 21
10.3017248075
  0
LINE
  5
368
100
AcDbEntity
  8
03__ASM_ALL_CURVES
100
AcDbLine
 62
4
  6
CONTINUOUS
 10
9.4453977091
 20
8.2397248075
 11
9.4453977091
 21
8.2099748066
  0
LINE
  5
369
100
AcDbEntity
  8
03__ASM_ALL_CURVES
100
AcDbLine
 62
4
  6
CONTINUOUS
 10
9.4453977091
 20
7.660599804
 11
9.4453977091
 21
7.6531623058
  0
LINE
  5
36A
100
AcDbEntity
  8
03__ASM_ALL_CURVES
100
AcDbLine
 62
4
  6
CONTINUOUS
 10
9.4509758341
 20
7.6159748066
 11
9.4509758341
 21
7.6085373058
  0
LINE
  5
36B
100
AcDbEntity
  8
03__ASM_ALL_CURVES
100
AcDbLine
 62
4
  6
CONTINUOUS
 10
9.4900227091
 20
11.067599804
 11
9.4900227091
 21
11.0601623058
  0
LINE
  5
36C
100
AcDbEntity
  8
03__ASM_ALL_CURVES
100
AcDbLine
 62
4
  6
CONTINUOUS
 10
9.5234914591
 20
11.857287304
 11
9.5234914591
 21
11.8424123049
  0
LINE
  5
36D
100
AcDbEntity
  8
03__ASM_ALL_CURVES
100
AcDbLine
 62
4
  6
CONTINUOUS
 10
9.5234914591
 20
10.294287304
 11
9.5234914591
 21
10.2794123049
  0
LINE
  5
36E
100
AcDbEntity
  8
03__ASM_ALL_CURVES
100
AcDbLine
 62
4
  6
CONTINUOUS
 10
9.5234914591
 20
7.638287304
 11
9.5234914591
 21
7.6234123049
  0
LINE
  5
36F
100
AcDbEntity
  8
03__ASM_ALL_CURVES
100
AcDbLine
 62
4
  6
CONTINUOUS
 10
9.5346477091
 20
11.0229748066
 11
9.5346477091
 21
11.0080998062
  0
LINE
  5
370
100
AcDbEntity
  8
03__ASM_ALL_CURVES
100
AcDbLine
 62
4
  6
CONTINUOUS
 10
8.8206477091
 20
7.6457248075
 11
8.8150695841
 21
7.6308498058
  0
LINE
  5
371
100
AcDbEntity
  8
03__ASM_ALL_CURVES
100
AcDbLine
 62
4
  6
CONTINUOUS
 10
8.8206477091
 20
7.6159748066
 11
8.8150695841
 21
7.6010998062
  0
LINE
  5
372
100
AcDbEntity
  8
03__ASM_ALL_CURVES
100
AcDbLine
 62
4
  6
CONTINUOUS
 10
8.5138508341
 20
7.660599804
 11
8.5194289591
 21
7.6680373075
  0
LINE
  5
373
100
AcDbEntity
  8
0
100
AcDbLine
 62
7
  6
CONTINUOUS
 10
10.5747102091
 20
8.1618498058
 11
11.4317102091
 21
8.1618498058
  0
LINE
  5
374
100
AcDbEntity
  8
03__ASM_ALL_CURVES
100
AcDbLine
 62
4
  6
CONTINUOUS
 10
9.9139602091
 20
8.2248498058
 11
9.6462102091
 21
8.2248498058
  0
LINE
  5
375
100
AcDbEntity
  8
0
100
AcDbLine
 62
7
  6
CONTINUOUS
 10
10.0032102091
 20
8.2248498058
 11
12.0032102091
 21
8.2248498058
  0
LINE
  5
376
100
AcDbEntity
  8
03__ASM_ALL_CURVES
100
AcDbLine
 62
4
  6
CONTINUOUS
 10
12.0329602087
 20
6.6117873058
 11
12.0403977089
 21
6.6062091808
  0
LINE
  5
377
100
AcDbEntity
  8
03__ASM_ALL_CURVES
100
AcDbLine
 62
4
  6
CONTINUOUS
 10
11.9734602109
 20
6.6619904308
 11
11.9660227073
 21
6.6675685558
  0
LINE
  5
378
100
AcDbEntity
  8
03__ASM_ALL_CURVES
100
AcDbLine
 62
4
  6
CONTINUOUS
 10
12.0329602087
 20
6.6954591808
 11
12.0403977089
 21
6.6898810558
  0
LINE
  5
379
100
AcDbEntity
  8
03__ASM_ALL_CURVES
100
AcDbLine
 62
4
  6
CONTINUOUS
 10
10.0403977089
 20
7.6558810558
 11
10.0478352091
 21
7.6447248058
  0
LINE
  5
37A
100
AcDbEntity
  8
03__ASM_ALL_CURVES
100
AcDbLine
 62
4
  6
CONTINUOUS
 10
10.9660227073
 20
6.3105685558
 11
10.9585852091
 21
6.3217248058
  0
LINE
  5
37B
100
AcDbEntity
  8
03__ASM_ALL_CURVES
100
AcDbLine
 62
4
  6
CONTINUOUS
 10
11.0403977089
 20
6.3328810558
 11
11.0478352091
 21
6.3217248058
  0
LINE
  5
37C
100
AcDbEntity
  8
03__ASM_ALL_CURVES
100
AcDbLine
 62
4
  6
CONTINUOUS
 10
10.9660227073
 20
6.5727404308
 11
10.9585852091
 21
6.5838966808
  0
LINE
  5
37D
100
AcDbEntity
  8
03__ASM_ALL_CURVES
100
AcDbLine
 62
4
  6
CONTINUOUS
 10
8.7258195841
 20
10.316599804
 11
8.7313977091
 21
10.3017248075
  0
LINE
  5
37E
100
AcDbEntity
  8
03__ASM_ALL_CURVES
100
AcDbLine
 62
4
  6
CONTINUOUS
 10
8.7816008341
 20
10.2570998062
 11
8.7760227091
 21
10.2719748066
  0
LINE
  5
37F
100
AcDbEntity
  8
03__ASM_ALL_CURVES
100
AcDbLine
 62
4
  6
CONTINUOUS
 10
8.8150695841
 20
10.2868498058
 11
8.8206477091
 21
10.2719748066
  0
LINE
  5
380
100
AcDbEntity
  8
03__ASM_ALL_CURVES
100
AcDbLine
 62
4
  6
CONTINUOUS
 10
8.9656789591
 20
10.2794123049
 11
8.9712570841
 21
10.2570998062
  0
LINE
  5
381
100
AcDbEntity
  8
03__ASM_ALL_CURVES
100
AcDbLine
 62
4
  6
CONTINUOUS
 10
9.6127414591
 20
11.045287304
 11
9.6127414591
 21
11.0304123049
  0
LINE
  5
382
100
AcDbEntity
  8
03__ASM_ALL_CURVES
100
AcDbLine
 62
4
  6
CONTINUOUS
 10
9.4007727091
 20
8.2397248075
 11
9.4063508341
 21
8.254599804
  0
LINE
  5
383
100
AcDbEntity
  8
03__ASM_ALL_CURVES
100
AcDbLine
 62
4
  6
CONTINUOUS
 10
9.4453977091
 20
8.2099748066
 11
9.4398195841
 21
8.1950998062
  0
LINE
  5
384
100
AcDbEntity
  8
03__ASM_ALL_CURVES
100
AcDbLine
 62
4
  6
CONTINUOUS
 10
9.3115227091
 20
7.6457248075
 11
9.3171008341
 21
7.660599804
  0
LINE
  5
385
100
AcDbEntity
  8
03__ASM_ALL_CURVES
100
AcDbLine
 62
4
  6
CONTINUOUS
 10
8.5473195841
 20
7.6010998062
 11
8.5417414591
 21
7.593662306
  0
LINE
  5
386
100
AcDbEntity
  8
03__ASM_ALL_CURVES
100
AcDbLine
 62
4
  6
CONTINUOUS
 10
8.7313977091
 20
7.6010998062
 11
8.7258195841
 21
7.593662306
  0
LINE
  5
387
100
AcDbEntity
  8
03__ASM_ALL_CURVES
100
AcDbLine
 62
4
  6
CONTINUOUS
 10
8.7816008341
 20
7.660599804
 11
8.7871789591
 21
7.6680373075
  0
LINE
  5
388
100
AcDbEntity
  8
03__ASM_ALL_CURVES
100
AcDbLine
 62
4
  6
CONTINUOUS
 10
11.9734602109
 20
6.8349123058
 11
11.9660227073
 21
6.8404904308
  0
LINE
  5
389
100
AcDbEntity
  8
03__ASM_ALL_CURVES
100
AcDbLine
 62
4
  6
CONTINUOUS
 10
12.0180852082
 20
6.8293341808
 11
12.0032102091
 21
6.8404904308
  0
LINE
  5
38A
100
AcDbEntity
  8
03__ASM_ALL_CURVES
100
AcDbLine
 62
4
  6
CONTINUOUS
 10
11.9808977091
 20
6.8795373058
 11
11.9883352073
 21
6.8739591808
  0
LINE
  5
38B
100
AcDbEntity
  8
03__ASM_ALL_CURVES
100
AcDbLine
 62
4
  6
CONTINUOUS
 10
12.0255227091
 20
6.8851154308
 11
12.0403977089
 21
6.8739591808
  0
LINE
  5
38C
100
AcDbEntity
  8
03__ASM_ALL_CURVES
100
AcDbLine
 62
4
  6
CONTINUOUS
 10
12.0329602087
 20
6.9520529308
 11
12.0478352091
 21
6.9408966808
  0
LINE
  5
38D
100
AcDbEntity
  8
03__ASM_ALL_CURVES
100
AcDbLine
 62
4
  6
CONTINUOUS
 10
8.5473195841
 20
10.3240373075
 11
8.5528977091
 21
10.316599804
  0
LINE
  5
38E
100
AcDbEntity
  8
03__ASM_ALL_CURVES
100
AcDbLine
 62
4
  6
CONTINUOUS
 10
8.6337805216
 20
10.2533810561
 11
8.6421477091
 21
10.2422248058
  0
LINE
  5
38F
100
AcDbEntity
  8
03__ASM_ALL_CURVES
100
AcDbLine
 62
4
  6
CONTINUOUS
 10
8.6979289591
 20
10.249662306
 11
8.6923508341
 21
10.2570998062
  0
LINE
  5
390
100
AcDbEntity
  8
03__ASM_ALL_CURVES
100
AcDbLine
 62
4
  6
CONTINUOUS
 10
10.9957727109
 20
6.6062091808
 11
11.01064771
 21
6.5838966808
  0
LINE
  5
391
100
AcDbEntity
  8
03__ASM_ALL_CURVES
100
AcDbLine
 62
4
  6
CONTINUOUS
 10
10.9957727109
 20
6.6619904308
 11
10.9883352073
 21
6.6731466808
  0
LINE
  5
392
100
AcDbEntity
  8
03__ASM_ALL_CURVES
100
AcDbLine
 62
4
  6
CONTINUOUS
 10
11.0403977089
 20
6.6954591808
 11
11.0478352091
 21
6.6843029308
  0
LINE
  5
393
100
AcDbEntity
  8
03__ASM_ALL_CURVES
100
AcDbLine
 62
4
  6
CONTINUOUS
 10
9.0883977091
 20
10.2868498058
 11
9.0939758341
 21
10.2719748066
  0
LINE
  5
394
100
AcDbEntity
  8
03__ASM_ALL_CURVES
100
AcDbLine
 62
4
  6
CONTINUOUS
 10
8.9656789591
 20
11.8424123049
 11
8.9712570841
 21
11.8200998062
  0
LINE
  5
395
100
AcDbEntity
  8
03__ASM_ALL_CURVES
100
AcDbLine
 62
4
  6
CONTINUOUS
 10
9.1609133341
 20
11.067599804
 11
9.1664914591
 21
11.045287304
  0
LINE
  5
396
100
AcDbEntity
  8
03__ASM_ALL_CURVES
100
AcDbLine
 62
4
  6
CONTINUOUS
 10
10.0032102091
 20
8.1355998058
 11
10.0032102091
 21
7.8678498058
  0
LINE
  5
397
100
AcDbEntity
  8
0
100
AcDbLine
 62
7
  6
CONTINUOUS
 10
10.0032102091
 20
8.2248498058
 11
10.0032102091
 21
11.8498498058
  0
LINE
  5
398
100
AcDbEntity
  8
03__ASM_ALL_CURVES
100
AcDbLine
 62
4
  6
CONTINUOUS
 10
9.5234914591
 20
7.6234123049
 11
9.5179133341
 21
7.6010998062
  0
LINE
  5
399
100
AcDbEntity
  8
03__ASM_ALL_CURVES
100
AcDbLine
 62
4
  6
CONTINUOUS
 10
9.3561477091
 20
7.6457248075
 11
9.3505695841
 21
7.6308498058
  0
LINE
  5
39A
100
AcDbEntity
  8
03__ASM_ALL_CURVES
100
AcDbLine
 62
4
  6
CONTINUOUS
 10
9.3561477091
 20
7.6159748066
 11
9.3505695841
 21
7.6010998062
  0
LINE
  5
39B
100
AcDbEntity
  8
03__ASM_ALL_CURVES
100
AcDbLine
 62
4
  6
CONTINUOUS
 10
9.1720695841
 20
7.6754748058
 11
9.1330227091
 21
7.6085373058
  0
LINE
  5
39C
100
AcDbEntity
  8
03__ASM_ALL_CURVES
100
AcDbLine
 62
4
  6
CONTINUOUS
 10
8.8150695841
 20
7.6010998062
 11
8.8094914591
 21
7.593662306
  0
LINE
  5
39D
100
AcDbEntity
  8
03__ASM_ALL_CURVES
100
AcDbLine
 62
4
  6
CONTINUOUS
 10
9.4063508341
 20
8.254599804
 11
9.4119289591
 21
8.2620373075
  0
LINE
  5
39E
100
AcDbEntity
  8
03__ASM_ALL_CURVES
100
AcDbLine
 62
4
  6
CONTINUOUS
 10
8.9824133341
 20
7.6754748058
 11
8.9712570841
 21
7.660599804
  0
LINE
  5
39F
100
AcDbEntity
  8
03__ASM_ALL_CURVES
100
AcDbLine
 62
4
  6
CONTINUOUS
 10
9.4398195841
 20
8.1950998062
 11
9.4342414591
 21
8.187662306
  0
LINE
  5
3A0
100
AcDbEntity
  8
03__ASM_ALL_CURVES
100
AcDbLine
 62
4
  6
CONTINUOUS
 10
8.7202414591
 20
10.3240373075
 11
8.7258195841
 21
10.316599804
  0
LINE
  5
3A1
100
AcDbEntity
  8
03__ASM_ALL_CURVES
100
AcDbLine
 62
4
  6
CONTINUOUS
 10
8.7871789591
 20
10.249662306
 11
8.7816008341
 21
10.2570998062
  0
LINE
  5
3A2
100
AcDbEntity
  8
03__ASM_ALL_CURVES
100
AcDbLine
 62
4
  6
CONTINUOUS
 10
8.1903195841
 20
11.0750373075
 11
8.1958977091
 21
11.067599804
  0
LINE
  5
3A3
100
AcDbEntity
  8
03__ASM_ALL_CURVES
100
AcDbLine
 62
4
  6
CONTINUOUS
 10
8.2767805216
 20
11.0043810561
 11
8.2851477091
 21
10.9932248058
  0
LINE
  5
3A4
100
AcDbEntity
  8
03__ASM_ALL_CURVES
100
AcDbLine
 62
4
  6
CONTINUOUS
 10
8.8094914591
 20
10.3240373075
 11
8.8150695841
 21
10.316599804
  0
LINE
  5
3A5
100
AcDbEntity
  8
03__ASM_ALL_CURVES
100
AcDbLine
 62
4
  6
CONTINUOUS
 10
8.3353508341
 20
11.000662306
 11
8.3241945841
 21
11.0155373058
  0
LINE
  5
3A6
100
AcDbEntity
  8
03__ASM_ALL_CURVES
100
AcDbLine
 62
4
  6
CONTINUOUS
 10
8.3353508341
 20
11.0527248075
 11
8.3297727091
 21
11.0601623058
  0
LINE
  5
3A7
100
AcDbEntity
  8
03__ASM_ALL_CURVES
100
AcDbLine
 62
4
  6
CONTINUOUS
 10
8.3688195841
 20
11.0378498058
 11
8.3799758341
 21
11.0229748066
  0
LINE
  5
3A8
100
AcDbEntity
  8
03__ASM_ALL_CURVES
100
AcDbLine
 62
4
  6
CONTINUOUS
 10
8.9712570841
 20
10.2570998062
 11
8.9824133341
 21
10.2422248058
  0
LINE
  5
3A9
100
AcDbEntity
  8
03__ASM_ALL_CURVES
100
AcDbLine
 62
4
  6
CONTINUOUS
 10
8.3688195841
 20
11.0750373075
 11
8.3743977091
 21
11.067599804
  0
LINE
  5
3AA
100
AcDbEntity
  8
03__ASM_ALL_CURVES
100
AcDbLine
 62
4
  6
CONTINUOUS
 10
8.6923508341
 20
11.8200998062
 11
8.6867727091
 21
11.8349748066
  0
LINE
  5
3AB
100
AcDbEntity
  8
03__ASM_ALL_CURVES
100
AcDbLine
 62
4
  6
CONTINUOUS
 10
8.7258195841
 20
11.8498498058
 11
8.7313977091
 21
11.8349748066
  0
LINE
  5
3AC
100
AcDbEntity
  8
03__ASM_ALL_CURVES
100
AcDbLine
 62
4
  6
CONTINUOUS
 10
9.3226789591
 20
11.0304123049
 11
9.3282570841
 21
11.0080998062
  0
LINE
  5
3AD
100
AcDbEntity
  8
03__ASM_ALL_CURVES
100
AcDbLine
 62
4
  6
CONTINUOUS
 10
9.5179133341
 20
10.316599804
 11
9.5234914591
 21
10.294287304
  0
LINE
  5
3AE
100
AcDbEntity
  8
03__ASM_ALL_CURVES
100
AcDbLine
 62
4
  6
CONTINUOUS
 10
9.3171008341
 20
7.660599804
 11
9.3226789591
 21
7.6680373075
  0
LINE
  5
3AF
100
AcDbEntity
  8
03__ASM_ALL_CURVES
100
AcDbLine
 62
4
  6
CONTINUOUS
 10
9.3505695841
 20
7.6010998062
 11
9.3449914591
 21
7.593662306
  0
LINE
  5
3B0
100
AcDbEntity
  8
03__ASM_ALL_CURVES
100
AcDbLine
 62
4
  6
CONTINUOUS
 10
9.4007727091
 20
7.660599804
 11
9.4063508341
 21
7.6680373075
  0
LINE
  5
3B1
100
AcDbEntity
  8
03__ASM_ALL_CURVES
100
AcDbLine
 62
4
  6
CONTINUOUS
 10
9.3951945841
 20
7.6159748066
 11
9.4063508341
 21
7.6308498058
  0
LINE
  5
3B2
100
AcDbEntity
  8
03__ASM_ALL_CURVES
100
AcDbLine
 62
4
  6
CONTINUOUS
 10
9.4453977091
 20
7.6531623058
 11
9.4398195841
 21
7.6457248075
  0
LINE
  5
3B3
100
AcDbEntity
  8
03__ASM_ALL_CURVES
100
AcDbLine
 62
4
  6
CONTINUOUS
 10
8.5194289591
 20
7.6680373075
 11
8.5305852091
 21
7.6754748058
  0
LINE
  5
3B4
100
AcDbEntity
  8
03__ASM_ALL_CURVES
100
AcDbLine
 62
4
  6
CONTINUOUS
 10
9.4119289591
 20
8.2620373075
 11
9.4230852091
 21
8.2694748058
  0
LINE
  5
3B5
100
AcDbEntity
  8
03__ASM_ALL_CURVES
100
AcDbLine
 62
4
  6
CONTINUOUS
 10
8.5417414591
 20
7.593662306
 11
8.5305852091
 21
7.5862248058
  0
LINE
  5
3B6
100
AcDbEntity
  8
03__ASM_ALL_CURVES
100
AcDbLine
 62
4
  6
CONTINUOUS
 10
9.4342414591
 20
8.187662306
 11
9.4230852091
 21
8.1802248058
  0
LINE
  5
3B7
100
AcDbEntity
  8
03__ASM_ALL_CURVES
100
AcDbLine
 62
4
  6
CONTINUOUS
 10
9.0493508341
 20
10.249662306
 11
9.0437727091
 21
10.2570998062
  0
LINE
  5
3B8
100
AcDbEntity
  8
03__ASM_ALL_CURVES
100
AcDbLine
 62
4
  6
CONTINUOUS
 10
9.0828195841
 20
10.294287304
 11
9.0883977091
 21
10.2868498058
  0
LINE
  5
3B9
100
AcDbEntity
  8
03__ASM_ALL_CURVES
100
AcDbLine
 62
4
  6
CONTINUOUS
 10
8.6142570841
 20
11.0080998062
 11
8.6254133341
 21
10.9932248058
  0
LINE
  5
3BA
100
AcDbEntity
  8
03__ASM_ALL_CURVES
100
AcDbLine
 62
4
  6
CONTINUOUS
 10
9.1720695841
 20
10.3240373075
 11
9.1776477091
 21
10.316599804
  0
LINE
  5
3BB
100
AcDbEntity
  8
03__ASM_ALL_CURVES
100
AcDbLine
 62
4
  6
CONTINUOUS
 10
9.2585305216
 20
10.2533810561
 11
9.2668977091
 21
10.2422248058
  0
LINE
  5
3BC
100
AcDbEntity
  8
03__ASM_ALL_CURVES
100
AcDbLine
 62
4
  6
CONTINUOUS
 10
11.9660227073
 20
6.1264904308
 11
11.9585852091
 21
6.1376466808
  0
LINE
  5
3BD
100
AcDbEntity
  8
03__ASM_ALL_CURVES
100
AcDbLine
 62
4
  6
CONTINUOUS
 10
11.9957727109
 20
6.1599591808
 11
12.01064771
 21
6.1376466808
  0
LINE
  5
3BE
100
AcDbEntity
  8
03__ASM_ALL_CURVES
100
AcDbLine
 62
4
  6
CONTINUOUS
 10
11.9660227073
 20
6.3105685558
 11
11.9585852091
 21
6.3217248058
  0
LINE
  5
3BF
100
AcDbEntity
  8
03__ASM_ALL_CURVES
100
AcDbLine
 62
4
  6
CONTINUOUS
 10
9.0493508341
 20
11.8498498058
 11
9.0437727091
 21
11.8647248075
  0
LINE
  5
3C0
100
AcDbEntity
  8
03__ASM_ALL_CURVES
100
AcDbLine
 62
4
  6
CONTINUOUS
 10
9.0828195841
 20
11.879599804
 11
9.0883977091
 21
11.8647248075
  0
LINE
  5
3C1
100
AcDbEntity
  8
03__ASM_ALL_CURVES
100
AcDbLine
 62
4
  6
CONTINUOUS
 10
9.6071633341
 20
11.067599804
 11
9.6127414591
 21
11.045287304
  0
LINE
  5
3C2
100
AcDbEntity
  8
03__ASM_ALL_CURVES
100
AcDbLine
 62
4
  6
CONTINUOUS
 10
9.5179133341
 20
11.879599804
 11
9.5234914591
 21
11.857287304
  0
LINE
  5
3C3
100
AcDbEntity
  8
03__ASM_ALL_CURVES
100
AcDbLine
 62
4
  6
CONTINUOUS
 10
9.4509758341
 20
7.6085373058
 11
9.4398195841
 21
7.593662306
  0
LINE
  5
3C4
100
AcDbEntity
  8
03__ASM_ALL_CURVES
100
AcDbLine
 62
4
  6
CONTINUOUS
 10
9.5179133341
 20
7.6010998062
 11
9.5067570841
 21
7.5862248058
  0
LINE
  5
3C5
100
AcDbEntity
  8
03__ASM_ALL_CURVES
100
AcDbLine
 62
4
  6
CONTINUOUS
 10
8.6923508341
 20
7.638287304
 11
8.7035070841
 21
7.6457248075
  0
LINE
  5
3C6
100
AcDbEntity
  8
03__ASM_ALL_CURVES
100
AcDbLine
 62
4
  6
CONTINUOUS
 10
8.7871789591
 20
7.6680373075
 11
8.7983352091
 21
7.6754748058
  0
LINE
  5
3C7
100
AcDbEntity
  8
03__ASM_ALL_CURVES
100
AcDbLine
 62
4
  6
CONTINUOUS
 10
8.7258195841
 20
7.593662306
 11
8.7146633341
 21
7.5862248058
  0
LINE
  5
3C8
100
AcDbEntity
  8
03__ASM_ALL_CURVES
100
AcDbLine
 62
4
  6
CONTINUOUS
 10
8.8094914591
 20
7.593662306
 11
8.7983352091
 21
7.5862248058
  0
LINE
  5
3C9
100
AcDbEntity
  8
03__ASM_ALL_CURVES
100
AcDbLine
 62
4
  6
CONTINUOUS
 10
8.5361633341
 20
10.3314748058
 11
8.5473195841
 21
10.3240373075
  0
LINE
  5
3CA
100
AcDbEntity
  8
03__ASM_ALL_CURVES
100
AcDbLine
 62
4
  6
CONTINUOUS
 10
8.7090852091
 20
10.2422248058
 11
8.6979289591
 21
10.249662306
  0
LINE
  5
3CB
100
AcDbEntity
  8
03__ASM_ALL_CURVES
100
AcDbLine
 62
4
  6
CONTINUOUS
 10
8.7983352091
 20
10.2422248058
 11
8.7871789591
 21
10.249662306
  0
LINE
  5
3CC
100
AcDbEntity
  8
03__ASM_ALL_CURVES
100
AcDbLine
 62
4
  6
CONTINUOUS
 10
8.7090852091
 20
10.3314748058
 11
8.7202414591
 21
10.3240373075
  0
LINE
  5
3CD
100
AcDbEntity
  8
0
100
AcDbLine
 62
7
  6
CONTINUOUS
 10
11.4317102091
 20
8.1618498058
 11
11.4410236802
 21
8.1525363346
  0
LINE
  5
3CE
100
AcDbEntity
  8
03__ASM_ALL_CURVES
100
AcDbLine
 62
4
  6
CONTINUOUS
 10
9.3171008341
 20
10.249662306
 11
9.3115227091
 21
10.2570998062
  0
LINE
  5
3CF
100
AcDbEntity
  8
03__ASM_ALL_CURVES
100
AcDbLine
 62
4
  6
CONTINUOUS
 10
9.3505695841
 20
10.2868498058
 11
9.3617258341
 21
10.2719748066
  0
LINE
  5
3D0
100
AcDbEntity
  8
03__ASM_ALL_CURVES
100
AcDbLine
 62
4
  6
CONTINUOUS
 10
9.3505695841
 20
10.3240373075
 11
9.3561477091
 21
10.316599804
  0
LINE
  5
3D1
100
AcDbEntity
  8
03__ASM_ALL_CURVES
100
AcDbLine
 62
4
  6
CONTINUOUS
 10
8.9015305216
 20
11.0043810561
 11
8.9098977091
 21
10.9932248058
  0
LINE
  5
3D2
100
AcDbEntity
  8
03__ASM_ALL_CURVES
100
AcDbLine
 62
4
  6
CONTINUOUS
 10
9.4398195841
 20
10.3240373075
 11
9.4453977091
 21
10.316599804
  0
LINE
  5
3D3
100
AcDbEntity
  8
03__ASM_ALL_CURVES
100
AcDbLine
 62
4
  6
CONTINUOUS
 10
8.9601008341
 20
11.000662306
 11
8.9545227091
 21
11.0080998062
  0
LINE
  5
3D4
100
AcDbEntity
  8
03__ASM_ALL_CURVES
100
AcDbLine
 62
4
  6
CONTINUOUS
 10
9.5067570841
 20
10.3314748058
 11
9.5179133341
 21
10.316599804
  0
LINE
  5
3D5
100
AcDbEntity
  8
03__ASM_ALL_CURVES
100
AcDbLine
 62
4
  6
CONTINUOUS
 10
8.9935695841
 20
11.0378498058
 11
9.0047258341
 21
11.0229748066
  0
LINE
  5
3D6
100
AcDbEntity
  8
03__ASM_ALL_CURVES
100
AcDbLine
 62
4
  6
CONTINUOUS
 10
8.9935695841
 20
11.0750373075
 11
8.9991477091
 21
11.067599804
  0
LINE
  5
3D7
100
AcDbEntity
  8
03__ASM_ALL_CURVES
100
AcDbLine
 62
4
  6
CONTINUOUS
 10
12.0403977089
 20
6.3328810558
 11
12.0478352091
 21
6.3217248058
  0
LINE
  5
3D8
100
AcDbEntity
  8
03__ASM_ALL_CURVES
100
AcDbLine
 62
4
  6
CONTINUOUS
 10
11.9957727109
 20
6.5727404308
 11
11.9883352073
 21
6.5838966808
  0
LINE
  5
3D9
100
AcDbEntity
  8
03__ASM_ALL_CURVES
100
AcDbLine
 62
4
  6
CONTINUOUS
 10
11.9660227073
 20
6.6675685558
 11
11.9585852091
 21
6.6787248058
  0
LINE
  5
3DA
100
AcDbEntity
  8
03__ASM_ALL_CURVES
100
AcDbLine
 62
4
  6
CONTINUOUS
 10
12.0403977089
 20
6.6062091808
 11
12.0478352091
 21
6.5950529308
  0
LINE
  5
3DB
100
AcDbEntity
  8
03__ASM_ALL_CURVES
100
AcDbLine
 62
4
  6
CONTINUOUS
 10
12.0403977089
 20
6.6898810558
 11
12.0478352091
 21
6.6787248058
  0
LINE
  5
3DC
100
AcDbEntity
  8
03__ASM_ALL_CURVES
100
AcDbLine
 62
4
  6
CONTINUOUS
 10
11.9660227073
 20
6.8404904308
 11
11.9585852091
 21
6.8516466808
  0
LINE
  5
3DD
100
AcDbEntity
  8
03__ASM_ALL_CURVES
100
AcDbLine
 62
4
  6
CONTINUOUS
 10
9.3171008341
 20
11.8498498058
 11
9.3115227091
 21
11.8647248075
  0
LINE
  5
3DE
100
AcDbEntity
  8
03__ASM_ALL_CURVES
100
AcDbLine
 62
4
  6
CONTINUOUS
 10
9.3505695841
 20
11.879599804
 11
9.3561477091
 21
11.8647248075
  0
LINE
  5
3DF
100
AcDbEntity
  8
0
100
AcDbLine
 62
7
  6
CONTINUOUS
 10
10.5656941751
 20
7.6352008696
 11
10.5656941751
 21
8.152833981
  0
LINE
  5
3E0
100
AcDbEntity
  8
0
100
AcDbLine
 62
7
  6
CONTINUOUS
 10
10.5747102091
 20
8.2248498058
 11
10.5747102091
 21
8.1618498058
  0
LINE
  5
3E1
100
AcDbEntity
  8
0
100
AcDbLine
 62
7
  6
CONTINUOUS
 10
10.5953079614
 20
8.1013498058
 11
10.5953079614
 21
7.6649134716
  0
LINE
  5
3E2
100
AcDbEntity
  8
03__ASM_ALL_CURVES
100
AcDbLine
 62
4
  6
CONTINUOUS
 10
9.9585852091
 20
7.6447248058
 11
9.9660227073
 21
7.6558810558
  0
LINE
  5
3E3
100
AcDbEntity
  8
03__ASM_ALL_CURVES
100
AcDbLine
 62
4
  6
CONTINUOUS
 10
10.0478352091
 20
7.6447248058
 11
10.0403977089
 21
7.6335685558
  0
LINE
  5
3E4
100
AcDbEntity
  8
03__ASM_ALL_CURVES
100
AcDbLine
 62
4
  6
CONTINUOUS
 10
9.3226789591
 20
7.6680373075
 11
9.3338352091
 21
7.6754748058
  0
LINE
  5
3E5
100
AcDbEntity
  8
03__ASM_ALL_CURVES
100
AcDbLine
 62
4
  6
CONTINUOUS
 10
9.4063508341
 20
7.6680373075
 11
9.4175070841
 21
7.6754748058
  0
LINE
  5
3E6
100
AcDbEntity
  8
03__ASM_ALL_CURVES
100
AcDbLine
 62
4
  6
CONTINUOUS
 10
9.3449914591
 20
7.593662306
 11
9.3338352091
 21
7.5862248058
  0
LINE
  5
3E7
100
AcDbEntity
  8
03__ASM_ALL_CURVES
100
AcDbLine
 62
4
  6
CONTINUOUS
 10
9.4063508341
 20
7.6308498058
 11
9.4175070841
 21
7.638287304
  0
LINE
  5
3E8
100
AcDbEntity
  8
03__ASM_ALL_CURVES
100
AcDbLine
 62
4
  6
CONTINUOUS
 10
9.4398195841
 20
7.6457248075
 11
9.4286633341
 21
7.638287304
  0
LINE
  5
3E9
100
AcDbEntity
  8
03__ASM_ALL_CURVES
100
AcDbLine
 62
4
  6
CONTINUOUS
 10
9.4398195841
 20
7.593662306
 11
9.4286633341
 21
7.5862248058
  0
LINE
  5
3EA
100
AcDbEntity
  8
03__ASM_ALL_CURVES
100
AcDbLine
 62
4
  6
CONTINUOUS
 10
8.8150695841
 20
7.6308498058
 11
8.7983352091
 21
7.6234123049
  0
LINE
  5
3EB
100
AcDbEntity
  8
03__ASM_ALL_CURVES
100
AcDbLine
 62
4
  6
CONTINUOUS
 10
8.7983352091
 20
10.3314748058
 11
8.8094914591
 21
10.3240373075
  0
LINE
  5
3EC
100
AcDbEntity
  8
03__ASM_ALL_CURVES
100
AcDbLine
 62
4
  6
CONTINUOUS
 10
9.0605070841
 20
10.2422248058
 11
9.0493508341
 21
10.249662306
  0
LINE
  5
3ED
100
AcDbEntity
  8
03__ASM_ALL_CURVES
100
AcDbLine
 62
4
  6
CONTINUOUS
 10
9.0716633341
 20
10.3017248075
 11
9.0828195841
 21
10.294287304
  0
LINE
  5
3EE
100
AcDbEntity
  8
03__ASM_ALL_CURVES
100
AcDbLine
 62
4
  6
CONTINUOUS
 10
9.1609133341
 20
10.3314748058
 11
9.1720695841
 21
10.3240373075
  0
LINE
  5
3EF
100
AcDbEntity
  8
03__ASM_ALL_CURVES
100
AcDbLine
 62
4
  6
CONTINUOUS
 10
8.5138508341
 20
11.812662306
 11
8.5082727091
 21
11.8200998062
  0
LINE
  5
3F0
100
AcDbEntity
  8
03__ASM_ALL_CURVES
100
AcDbLine
 62
4
  6
CONTINUOUS
 10
8.5473195841
 20
11.8498498058
 11
8.5584758341
 21
11.8349748066
  0
LINE
  5
3F1
100
AcDbEntity
  8
03__ASM_ALL_CURVES
100
AcDbLine
 62
4
  6
CONTINUOUS
 10
9.1497570841
 20
11.0824748058
 11
9.1609133341
 21
11.067599804
  0
LINE
  5
3F2
100
AcDbEntity
  8
03__ASM_ALL_CURVES
100
AcDbLine
 62
4
  6
CONTINUOUS
 10
8.5473195841
 20
11.8870373075
 11
8.5528977091
 21
11.879599804
  0
LINE
  5
3F3
100
AcDbEntity
  8
03__ASM_ALL_CURVES
100
AcDbLine
 62
4
  6
CONTINUOUS
 10
8.6337805216
 20
11.8163810561
 11
8.6421477091
 21
11.8052248058
  0
LINE
  5
3F4
100
AcDbEntity
  8
03__ASM_ALL_CURVES
100
AcDbLine
 62
4
  6
CONTINUOUS
 10
8.6979289591
 20
11.812662306
 11
8.6923508341
 21
11.8200998062
  0
LINE
  5
3F5
100
AcDbEntity
  8
03__ASM_ALL_CURVES
100
AcDbLine
 62
4
  6
CONTINUOUS
 10
9.3282570841
 20
11.0080998062
 11
9.3394133341
 21
10.9932248058
  0
LINE
  5
3F6
100
AcDbEntity
  8
03__ASM_ALL_CURVES
100
AcDbLine
 62
4
  6
CONTINUOUS
 10
12.0032102091
 20
6.8404904308
 11
11.9957727109
 21
6.8516466808
  0
LINE
  5
3F7
100
AcDbEntity
  8
03__ASM_ALL_CURVES
100
AcDbLine
 62
4
  6
CONTINUOUS
 10
11.9883352073
 20
6.8739591808
 11
11.9957727109
 21
6.8628029308
  0
LINE
  5
3F8
100
AcDbEntity
  8
03__ASM_ALL_CURVES
100
AcDbLine
 62
4
  6
CONTINUOUS
 10
12.0403977089
 20
6.8739591808
 11
12.0478352091
 21
6.8628029308
  0
LINE
  5
3F9
100
AcDbEntity
  8
03__ASM_ALL_CURVES
100
AcDbLine
 62
4
  6
CONTINUOUS
 10
10.9585852091
 20
6.7010373058
 11
10.9585852091
 21
6.6675685558
  0
LINE
  5
3FA
100
AcDbEntity
  8
03__ASM_ALL_CURVES
100
AcDbLine
 62
4
  6
CONTINUOUS
 10
10.9585852091
 20
6.5838966808
 11
10.9585852091
 21
6.5950529308
  0
LINE
  5
3FB
100
AcDbEntity
  8
0
100
AcDbLine
 62
7
  6
CONTINUOUS
 10
10.9735964228
 20
8.1013498058
 11
10.9735964228
 21
7.6649134716
  0
LINE
  5
3FC
100
AcDbEntity
  8
03__ASM_ALL_CURVES
100
AcDbLine
 62
4
  6
CONTINUOUS
 10
10.9883352073
 20
6.6731466808
 11
10.9883352073
 21
6.6843029308
  0
LINE
  5
3FD
100
AcDbEntity
  8
03__ASM_ALL_CURVES
100
AcDbLine
 62
4
  6
CONTINUOUS
 10
11.0032102091
 20
8.1355998058
 11
11.0032102091
 21
7.3480998058
  0
LINE
  5
3FE
100
AcDbEntity
  8
0
100
AcDbLine
 62
7
  6
CONTINUOUS
 10
10.5747102091
 20
8.1618498058
 11
10.565396738
 21
8.1525363346
  0
LINE
  5
3FF
100
AcDbEntity
  8
03__ASM_ALL_CURVES
100
AcDbLine
 62
4
  6
CONTINUOUS
 10
9.9660227073
 20
7.6558810558
 11
9.9734602109
 21
7.6614591808
  0
LINE
  5
400
100
AcDbEntity
  8
03__ASM_ALL_CURVES
100
AcDbLine
 62
4
  6
CONTINUOUS
 10
10.0403977089
 20
7.6335685558
 11
10.0329602087
 21
7.6279904308
  0
LINE
  5
401
100
AcDbEntity
  8
03__ASM_ALL_CURVES
100
AcDbLine
 62
4
  6
CONTINUOUS
 10
9.3505695841
 20
7.6308498058
 11
9.3338352091
 21
7.6234123049
  0
LINE
  5
402
100
AcDbEntity
  8
03__ASM_ALL_CURVES
100
AcDbLine
 62
4
  6
CONTINUOUS
 10
8.7983352091
 20
10.294287304
 11
8.8150695841
 21
10.2868498058
  0
LINE
  5
403
100
AcDbEntity
  8
03__ASM_ALL_CURVES
100
AcDbLine
 62
4
  6
CONTINUOUS
 10
9.3282570841
 20
10.2422248058
 11
9.3171008341
 21
10.249662306
  0
LINE
  5
404
100
AcDbEntity
  8
03__ASM_ALL_CURVES
100
AcDbLine
 62
4
  6
CONTINUOUS
 10
9.3394133341
 20
10.294287304
 11
9.3505695841
 21
10.2868498058
  0
LINE
  5
405
100
AcDbEntity
  8
03__ASM_ALL_CURVES
100
AcDbLine
 62
4
  6
CONTINUOUS
 10
8.1791633341
 20
11.0824748058
 11
8.1903195841
 21
11.0750373075
  0
LINE
  5
406
100
AcDbEntity
  8
03__ASM_ALL_CURVES
100
AcDbLine
 62
4
  6
CONTINUOUS
 10
8.3465070841
 20
10.9932248058
 11
8.3353508341
 21
11.000662306
  0
LINE
  5
407
100
AcDbEntity
  8
03__ASM_ALL_CURVES
100
AcDbLine
 62
4
  6
CONTINUOUS
 10
9.3394133341
 20
10.3314748058
 11
9.3505695841
 21
10.3240373075
  0
LINE
  5
408
100
AcDbEntity
  8
03__ASM_ALL_CURVES
100
AcDbLine
 62
4
  6
CONTINUOUS
 10
8.3465070841
 20
11.045287304
 11
8.3353508341
 21
11.0527248075
  0
LINE
  5
409
100
AcDbEntity
  8
03__ASM_ALL_CURVES
100
AcDbLine
 62
4
  6
CONTINUOUS
 10
8.3576633341
 20
11.045287304
 11
8.3688195841
 21
11.0378498058
  0
LINE
  5
40A
100
AcDbEntity
  8
03__ASM_ALL_CURVES
100
AcDbLine
 62
4
  6
CONTINUOUS
 10
9.4286633341
 20
10.3314748058
 11
9.4398195841
 21
10.3240373075
  0
LINE
  5
40B
100
AcDbEntity
  8
03__ASM_ALL_CURVES
100
AcDbLine
 62
4
  6
CONTINUOUS
 10
8.3576633341
 20
11.0824748058
 11
8.3688195841
 21
11.0750373075
  0
LINE
  5
40C
100
AcDbEntity
  8
03__ASM_ALL_CURVES
100
AcDbLine
 62
4
  6
CONTINUOUS
 10
8.7202414591
 20
11.8870373075
 11
8.7258195841
 21
11.879599804
  0
LINE
  5
40D
100
AcDbEntity
  8
03__ASM_ALL_CURVES
100
AcDbLine
 62
4
  6
CONTINUOUS
 10
8.8150695841
 20
11.8870373075
 11
8.8206477091
 21
11.879599804
  0
LINE
  5
40E
100
AcDbEntity
  8
03__ASM_ALL_CURVES
100
AcDbLine
 62
4
  6
CONTINUOUS
 10
9.4956008341
 20
11.000662306
 11
9.4844445841
 21
11.0155373058
  0
LINE
  5
40F
100
AcDbEntity
  8
03__ASM_ALL_CURVES
100
AcDbLine
 62
4
  6
CONTINUOUS
 10
9.4900227091
 20
11.0601623058
 11
9.4956008341
 21
11.0527248075
  0
LINE
  5
410
100
AcDbEntity
  8
03__ASM_ALL_CURVES
100
AcDbLine
 62
4
  6
CONTINUOUS
 10
9.5290695841
 20
11.0304123049
 11
9.5346477091
 21
11.0229748066
  0
LINE
  5
411
100
AcDbEntity
  8
03__ASM_ALL_CURVES
100
AcDbLine
 62
4
  6
CONTINUOUS
 10
9.5346477091
 20
11.067599804
 11
9.5290695841
 21
11.0750373075
  0
LINE
  5
412
100
AcDbEntity
  8
03__ASM_ALL_CURVES
100
AcDbLine
 62
4
  6
CONTINUOUS
 10
8.9712570841
 20
11.8200998062
 11
8.9824133341
 21
11.8052248058
  0
LINE
  5
413
100
AcDbEntity
  8
03__ASM_ALL_CURVES
100
AcDbLine
 62
4
  6
CONTINUOUS
 10
9.5960070841
 20
11.0824748058
 11
9.6071633341
 21
11.067599804
  0
LINE
  5
414
100
AcDbEntity
  8
03__ASM_ALL_CURVES
100
AcDbLine
 62
4
  6
CONTINUOUS
 10
9.0549289591
 20
11.812662306
 11
9.0493508341
 21
11.8200998062
  0
LINE
  5
415
100
AcDbEntity
  8
03__ASM_ALL_CURVES
100
AcDbLine
 62
4
  6
CONTINUOUS
 10
11.0255227091
 20
6.8349123058
 11
11.0255227091
 21
6.8851154308
  0
LINE
  5
416
100
AcDbEntity
  8
0
100
AcDbLine
 62
7
  6
CONTINUOUS
 10
11.0328239954
 20
8.1013498058
 11
11.0328239954
 21
7.6649134716
  0
LINE
  5
417
100
AcDbEntity
  8
03__ASM_ALL_CURVES
100
AcDbLine
 62
4
  6
CONTINUOUS
 10
11.0478352091
 20
6.7902873058
 11
11.0478352091
 21
6.7819201183
  0
LINE
  5
418
100
AcDbEntity
  8
03__ASM_ALL_CURVES
100
AcDbLine
 62
4
  6
CONTINUOUS
 10
11.0478352091
 20
6.6843029308
 11
11.0478352091
 21
6.6731466808
  0
LINE
  5
419
100
AcDbEntity
  8
03__ASM_ALL_CURVES
100
AcDbLine
 62
4
  6
CONTINUOUS
 10
11.0478352091
 20
6.2547873058
 11
11.0478352091
 21
6.2464201183
  0
LINE
  5
41A
100
AcDbEntity
  8
03__ASM_ALL_CURVES
100
AcDbLine
 62
4
  6
CONTINUOUS
 10
11.0478352091
 20
6.5671623058
 11
11.0478352091
 21
6.6117873058
  0
LINE
  5
41B
100
AcDbEntity
  8
03__ASM_ALL_CURVES
100
AcDbLine
 62
4
  6
CONTINUOUS
 10
9.9734602109
 20
7.6614591808
 11
9.9883352073
 21
7.6670373058
  0
LINE
  5
41C
100
AcDbEntity
  8
03__ASM_ALL_CURVES
100
AcDbLine
 62
4
  6
CONTINUOUS
 10
10.0329602087
 20
7.6279904308
 11
10.0180852082
 21
7.6224123058
  0
LINE
  5
41D
100
AcDbEntity
  8
03__ASM_ALL_CURVES
100
AcDbLine
 62
4
  6
CONTINUOUS
 10
8.9712570841
 20
10.9932248058
 11
8.9601008341
 21
11.000662306
  0
LINE
  5
41E
100
AcDbEntity
  8
03__ASM_ALL_CURVES
100
AcDbLine
 62
4
  6
CONTINUOUS
 10
8.9824133341
 20
11.045287304
 11
8.9935695841
 21
11.0378498058
  0
LINE
  5
41F
100
AcDbEntity
  8
03__ASM_ALL_CURVES
100
AcDbLine
 62
4
  6
CONTINUOUS
 10
9.0772414591
 20
11.8870373075
 11
9.0828195841
 21
11.879599804
  0
LINE
  5
420
100
AcDbEntity
  8
03__ASM_ALL_CURVES
100
AcDbLine
 62
4
  6
CONTINUOUS
 10
9.2585305216
 20
11.8163810561
 11
9.2668977091
 21
11.8052248058
  0
LINE
  5
421
100
AcDbEntity
  8
03__ASM_ALL_CURVES
100
AcDbLine
 62
4
  6
CONTINUOUS
 10
9.3226789591
 20
11.812662306
 11
9.3171008341
 21
11.8200998062
  0
LINE
  5
422
100
AcDbEntity
  8
0
100
AcDbLine
 62
7
  6
CONTINUOUS
 10
11.4111124568
 20
8.1013498058
 11
11.4111124568
 21
7.6649134716
  0
LINE
  5
423
100
AcDbEntity
  8
0
100
AcDbLine
 62
7
  6
CONTINUOUS
 10
11.4317102091
 20
8.2248498058
 11
11.4317102091
 21
8.1618498058
  0
LINE
  5
424
100
AcDbEntity
  8
0
100
AcDbLine
 62
7
  6
CONTINUOUS
 10
11.4407262431
 20
7.6352008702
 11
11.4407262431
 21
8.152833981
  0
LINE
  5
425
100
AcDbEntity
  8
03__ASM_ALL_CURVES
100
AcDbLine
 62
4
  6
CONTINUOUS
 10
9.3394133341
 20
10.2422248058
 11
9.3282570841
 21
10.2422248058
  0
LINE
  5
426
100
AcDbEntity
  8
03__ASM_ALL_CURVES
100
AcDbLine
 62
4
  6
CONTINUOUS
 10
9.2668977091
 20
10.2422248058
 11
9.2585305216
 21
10.2422248058
  0
LINE
  5
427
100
AcDbEntity
  8
03__ASM_ALL_CURVES
100
AcDbLine
 62
4
  6
CONTINUOUS
 10
9.0716633341
 20
10.2422248058
 11
9.0605070841
 21
10.2422248058
  0
LINE
  5
428
100
AcDbEntity
  8
03__ASM_ALL_CURVES
100
AcDbLine
 62
4
  6
CONTINUOUS
 10
8.6421477091
 20
10.2422248058
 11
8.6337805216
 21
10.2422248058
  0
LINE
  5
429
100
AcDbEntity
  8
03__ASM_ALL_CURVES
100
AcDbLine
 62
4
  6
CONTINUOUS
 10
8.5082727091
 20
10.2422248058
 11
8.5528977091
 21
10.2422248058
  0
LINE
  5
42A
100
AcDbEntity
  8
03__ASM_ALL_CURVES
100
AcDbLine
 62
4
  6
CONTINUOUS
 10
9.1330227091
 20
10.2422248058
 11
9.1776477091
 21
10.2422248058
  0
LINE
  5
42B
100
AcDbEntity
  8
03__ASM_ALL_CURVES
100
AcDbLine
 62
4
  6
CONTINUOUS
 10
9.4007727091
 20
10.2422248058
 11
9.4453977091
 21
10.2422248058
  0
LINE
  5
42C
100
AcDbEntity
  8
03__ASM_ALL_CURVES
100
AcDbLine
 62
4
  6
CONTINUOUS
 10
9.9139602091
 20
10.2868498058
 11
9.6462102091
 21
10.2868498058
  0
LINE
  5
42D
100
AcDbEntity
  8
03__ASM_ALL_CURVES
100
AcDbLine
 62
4
  6
CONTINUOUS
 10
9.3282570841
 20
10.294287304
 11
9.3394133341
 21
10.294287304
  0
LINE
  5
42E
100
AcDbEntity
  8
03__ASM_ALL_CURVES
100
AcDbLine
 62
4
  6
CONTINUOUS
 10
9.0605070841
 20
10.3017248075
 11
9.0716633341
 21
10.3017248075
  0
LINE
  5
42F
100
AcDbEntity
  8
03__ASM_ALL_CURVES
100
AcDbLine
 62
4
  6
CONTINUOUS
 10
9.0883977091
 20
10.3314748058
 11
9.0549289591
 21
10.3314748058
  0
LINE
  5
430
100
AcDbEntity
  8
03__ASM_ALL_CURVES
100
AcDbLine
 62
4
  6
CONTINUOUS
 10
8.5250070841
 20
10.3314748058
 11
8.5361633341
 21
10.3314748058
  0
LINE
  5
431
100
AcDbEntity
  8
03__ASM_ALL_CURVES
100
AcDbLine
 62
4
  6
CONTINUOUS
 10
9.1497570841
 20
10.3314748058
 11
9.1609133341
 21
10.3314748058
  0
LINE
  5
432
100
AcDbEntity
  8
03__ASM_ALL_CURVES
100
AcDbLine
 62
4
  6
CONTINUOUS
 10
9.3282570841
 20
10.3314748058
 11
9.3394133341
 21
10.3314748058
  0
LINE
  5
433
100
AcDbEntity
  8
03__ASM_ALL_CURVES
100
AcDbLine
 62
4
  6
CONTINUOUS
 10
9.4175070841
 20
10.3314748058
 11
9.4286633341
 21
10.3314748058
  0
LINE
  5
434
100
AcDbEntity
  8
03__ASM_ALL_CURVES
100
AcDbLine
 62
4
  6
CONTINUOUS
 10
8.9824133341
 20
11.0824748058
 11
8.9935695841
 21
11.0750373075
  0
LINE
  5
435
100
AcDbEntity
  8
03__ASM_ALL_CURVES
100
AcDbLine
 62
4
  6
CONTINUOUS
 10
9.5067570841
 20
10.9932248058
 11
9.4956008341
 21
11.000662306
  0
LINE
  5
436
100
AcDbEntity
  8
03__ASM_ALL_CURVES
100
AcDbLine
 62
4
  6
CONTINUOUS
 10
9.3449914591
 20
11.8870373075
 11
9.3505695841
 21
11.879599804
  0
LINE
  5
437
100
AcDbEntity
  8
03__ASM_ALL_CURVES
100
AcDbLine
 62
4
  6
CONTINUOUS
 10
9.5067570841
 20
11.8944748058
 11
9.5179133341
 21
11.879599804
  0
LINE
  5
438
100
AcDbEntity
  8
03__ASM_ALL_CURVES
100
AcDbLine
 62
4
  6
CONTINUOUS
 10
9.4956008341
 20
11.0527248075
 11
9.5290695841
 21
11.0304123049
  0
LINE
  5
439
100
AcDbEntity
  8
03__ASM_ALL_CURVES
100
AcDbLine
 62
4
  6
CONTINUOUS
 10
9.5290695841
 20
11.0750373075
 11
9.5179133341
 21
11.0824748058
  0
LINE
  5
43A
100
AcDbEntity
  8
03__ASM_ALL_CURVES
100
AcDbLine
 62
4
  6
CONTINUOUS
 10
8.5250070841
 20
11.8052248058
 11
8.5138508341
 21
11.812662306
  0
LINE
  5
43B
100
AcDbEntity
  8
03__ASM_ALL_CURVES
100
AcDbLine
 62
4
  6
CONTINUOUS
 10
8.5361633341
 20
11.857287304
 11
8.5473195841
 21
11.8498498058
  0
LINE
  5
43C
100
AcDbEntity
  8
03__ASM_ALL_CURVES
100
AcDbLine
 62
4
  6
CONTINUOUS
 10
8.5361633341
 20
11.8944748058
 11
8.5473195841
 21
11.8870373075
  0
LINE
  5
43D
100
AcDbEntity
  8
03__ASM_ALL_CURVES
100
AcDbLine
 62
4
  6
CONTINUOUS
 10
8.7090852091
 20
11.8052248058
 11
8.6979289591
 21
11.812662306
  0
LINE
  5
43E
100
AcDbEntity
  8
03__ASM_ALL_CURVES
100
AcDbLine
 62
4
  6
CONTINUOUS
 10
11.9585852091
 20
6.6117873058
 11
11.9585852091
 21
6.5783185558
  0
LINE
  5
43F
100
AcDbEntity
  8
03__ASM_ALL_CURVES
100
AcDbLine
 62
4
  6
CONTINUOUS
 10
11.9585852091
 20
6.1376466808
 11
11.9585852091
 21
6.1488029308
  0
LINE
  5
440
100
AcDbEntity
  8
03__ASM_ALL_CURVES
100
AcDbLine
 62
4
  6
CONTINUOUS
 10
11.9585852091
 20
6.8516466808
 11
11.9585852091
 21
6.8628029308
  0
LINE
  5
441
100
AcDbEntity
  8
03__ASM_ALL_CURVES
100
AcDbLine
 62
4
  6
CONTINUOUS
 10
11.9883352073
 20
6.5838966808
 11
11.9883352073
 21
6.5950529308
  0
LINE
  5
442
100
AcDbEntity
  8
03__ASM_ALL_CURVES
100
AcDbLine
 62
4
  6
CONTINUOUS
 10
11.9957727109
 20
6.8516466808
 11
11.9957727109
 21
6.8628029308
  0
LINE
  5
443
100
AcDbEntity
  8
0
100
AcDbLine
 62
7
  6
CONTINUOUS
 10
11.4411664399
 20
7.6354433378
 11
11.4332102091
 21
7.6308498058
  0
LINE
  5
444
100
AcDbEntity
  8
03__ASM_ALL_CURVES
100
AcDbLine
 62
4
  6
CONTINUOUS
 10
8.7090852091
 20
11.8944748058
 11
8.7202414591
 21
11.8870373075
  0
LINE
  5
445
100
AcDbEntity
  8
03__ASM_ALL_CURVES
100
AcDbLine
 62
4
  6
CONTINUOUS
 10
8.8039133341
 20
11.8944748058
 11
8.8150695841
 21
11.8870373075
  0
LINE
  5
446
100
AcDbEntity
  8
03__ASM_ALL_CURVES
100
AcDbLine
 62
4
  6
CONTINUOUS
 10
9.0660852091
 20
11.8052248058
 11
9.0549289591
 21
11.812662306
  0
LINE
  5
447
100
AcDbEntity
  8
03__ASM_ALL_CURVES
100
AcDbLine
 62
4
  6
CONTINUOUS
 10
12.0032102091
 20
8.1355998058
 11
12.0032102091
 21
7.3480998058
  0
LINE
  5
448
100
AcDbEntity
  8
0
100
AcDbLine
 62
7
  6
CONTINUOUS
 10
12.0032102091
 20
8.2248498058
 11
12.0032102091
 21
11.8498498058
  0
LINE
  5
449
100
AcDbEntity
  8
03__ASM_ALL_CURVES
100
AcDbLine
 62
4
  6
CONTINUOUS
 10
12.0478352091
 20
6.8628029308
 11
12.0478352091
 21
6.8516466808
  0
LINE
  5
44A
100
AcDbEntity
  8
03__ASM_ALL_CURVES
100
AcDbLine
 62
4
  6
CONTINUOUS
 10
12.0478352091
 20
6.7902873058
 11
12.0478352091
 21
6.7819201183
  0
LINE
  5
44B
100
AcDbEntity
  8
03__ASM_ALL_CURVES
100
AcDbLine
 62
4
  6
CONTINUOUS
 10
12.0478352091
 20
6.5950529308
 11
12.0478352091
 21
6.5838966808
  0
LINE
  5
44C
100
AcDbEntity
  8
03__ASM_ALL_CURVES
100
AcDbLine
 62
4
  6
CONTINUOUS
 10
12.0478352091
 20
6.2547873058
 11
12.0478352091
 21
6.2464201183
  0
LINE
  5
44D
100
AcDbEntity
  8
03__ASM_ALL_CURVES
100
AcDbLine
 62
4
  6
CONTINUOUS
 10
12.0478352091
 20
6.1209123058
 11
12.0478352091
 21
6.1655373058
  0
LINE
  5
44E
100
AcDbEntity
  8
03__ASM_ALL_CURVES
100
AcDbLine
 62
4
  6
CONTINUOUS
 10
10.9883352073
 20
6.6843029308
 11
10.9957727109
 21
6.6954591808
  0
LINE
  5
44F
100
AcDbEntity
  8
03__ASM_ALL_CURVES
100
AcDbLine
 62
4
  6
CONTINUOUS
 10
10.9585852091
 20
6.5950529308
 11
10.9660227073
 21
6.6062091808
  0
LINE
  5
450
100
AcDbEntity
  8
03__ASM_ALL_CURVES
100
AcDbLine
 62
4
  6
CONTINUOUS
 10
11.0478352091
 20
6.6731466808
 11
11.0403977089
 21
6.6619904308
  0
LINE
  5
451
100
AcDbEntity
  8
03__ASM_ALL_CURVES
100
AcDbLine
 62
4
  6
CONTINUOUS
 10
10.9585852091
 20
6.3217248058
 11
10.9660227073
 21
6.3328810558
  0
LINE
  5
452
100
AcDbEntity
  8
03__ASM_ALL_CURVES
100
AcDbLine
 62
4
  6
CONTINUOUS
 10
10.9585852091
 20
6.9408966808
 11
10.9734602109
 21
6.9520529308
  0
LINE
  5
453
100
AcDbEntity
  8
03__ASM_ALL_CURVES
100
AcDbLine
 62
4
  6
CONTINUOUS
 10
9.5179133341
 20
10.9932248058
 11
9.5067570841
 21
10.9932248058
  0
LINE
  5
454
100
AcDbEntity
  8
03__ASM_ALL_CURVES
100
AcDbLine
 62
4
  6
CONTINUOUS
 10
8.9824133341
 20
10.9932248058
 11
8.9712570841
 21
10.9932248058
  0
LINE
  5
455
100
AcDbEntity
  8
03__ASM_ALL_CURVES
100
AcDbLine
 62
4
  6
CONTINUOUS
 10
8.9098977091
 20
10.9932248058
 11
8.9015305216
 21
10.9932248058
  0
LINE
  5
456
100
AcDbEntity
  8
03__ASM_ALL_CURVES
100
AcDbLine
 62
4
  6
CONTINUOUS
 10
8.3576633341
 20
10.9932248058
 11
8.3465070841
 21
10.9932248058
  0
LINE
  5
457
100
AcDbEntity
  8
03__ASM_ALL_CURVES
100
AcDbLine
 62
4
  6
CONTINUOUS
 10
8.2851477091
 20
10.9932248058
 11
8.2767805216
 21
10.9932248058
  0
LINE
  5
458
100
AcDbEntity
  8
03__ASM_ALL_CURVES
100
AcDbLine
 62
4
  6
CONTINUOUS
 10
8.1512727091
 20
10.9932248058
 11
8.1958977091
 21
10.9932248058
  0
LINE
  5
459
100
AcDbEntity
  8
03__ASM_ALL_CURVES
100
AcDbLine
 62
4
  6
CONTINUOUS
 10
9.4007727091
 20
10.9932248058
 11
9.4453977091
 21
10.9932248058
  0
LINE
  5
45A
100
AcDbEntity
  8
03__ASM_ALL_CURVES
100
AcDbLine
 62
4
  6
CONTINUOUS
 10
9.9139602091
 20
11.0378498058
 11
9.6462102091
 21
11.0378498058
  0
LINE
  5
45B
100
AcDbEntity
  8
03__ASM_ALL_CURVES
100
AcDbLine
 62
4
  6
CONTINUOUS
 10
8.3465070841
 20
11.045287304
 11
8.3576633341
 21
11.045287304
  0
LINE
  5
45C
100
AcDbEntity
  8
03__ASM_ALL_CURVES
100
AcDbLine
 62
4
  6
CONTINUOUS
 10
8.9712570841
 20
11.045287304
 11
8.9824133341
 21
11.045287304
  0
LINE
  5
45D
100
AcDbEntity
  8
03__ASM_ALL_CURVES
100
AcDbLine
 62
4
  6
CONTINUOUS
 10
9.5179133341
 20
11.0824748058
 11
9.5067570841
 21
11.0824748058
  0
LINE
  5
45E
100
AcDbEntity
  8
03__ASM_ALL_CURVES
100
AcDbLine
 62
4
  6
CONTINUOUS
 10
9.0883977091
 20
11.0824748058
 11
9.0437727091
 21
11.0824748058
  0
LINE
  5
45F
100
AcDbEntity
  8
03__ASM_ALL_CURVES
100
AcDbLine
 62
4
  6
CONTINUOUS
 10
8.7313977091
 20
11.0824748058
 11
8.6867727091
 21
11.0824748058
  0
LINE
  5
460
100
AcDbEntity
  8
03__ASM_ALL_CURVES
100
AcDbLine
 62
4
  6
CONTINUOUS
 10
8.1680070841
 20
11.0824748058
 11
8.1791633341
 21
11.0824748058
  0
LINE
  5
461
100
AcDbEntity
  8
03__ASM_ALL_CURVES
100
AcDbLine
 62
4
  6
CONTINUOUS
 10
8.3465070841
 20
11.0824748058
 11
8.3576633341
 21
11.0824748058
  0
LINE
  5
462
100
AcDbEntity
  8
03__ASM_ALL_CURVES
100
AcDbLine
 62
4
  6
CONTINUOUS
 10
8.9712570841
 20
11.0824748058
 11
8.9824133341
 21
11.0824748058
  0
LINE
  5
463
100
AcDbEntity
  8
03__ASM_ALL_CURVES
100
AcDbLine
 62
4
  6
CONTINUOUS
 10
8.7090852091
 20
11.857287304
 11
8.7258195841
 21
11.8498498058
  0
LINE
  5
464
100
AcDbEntity
  8
03__ASM_ALL_CURVES
100
AcDbLine
 62
4
  6
CONTINUOUS
 10
9.0660852091
 20
11.8944748058
 11
9.0772414591
 21
11.8870373075
  0
LINE
  5
465
100
AcDbEntity
  8
03__ASM_ALL_CURVES
100
AcDbLine
 62
4
  6
CONTINUOUS
 10
9.3338352091
 20
11.8052248058
 11
9.3226789591
 21
11.812662306
  0
LINE
  5
466
100
AcDbEntity
  8
03__ASM_ALL_CURVES
100
AcDbLine
 62
4
  6
CONTINUOUS
 10
9.3338352091
 20
11.8944748058
 11
9.3449914591
 21
11.8870373075
  0
LINE
  5
467
100
AcDbEntity
  8
03__ASM_ALL_CURVES
100
AcDbLine
 62
4
  6
CONTINUOUS
 10
11.0478352091
 20
6.3217248058
 11
11.0403977089
 21
6.3105685558
  0
LINE
  5
468
100
AcDbEntity
  8
03__ASM_ALL_CURVES
100
AcDbLine
 62
4
  6
CONTINUOUS
 10
11.0366789588
 20
6.7819201183
 11
11.0478352091
 21
6.7902873058
  0
LINE
  5
469
100
AcDbEntity
  8
03__ASM_ALL_CURVES
100
AcDbLine
 62
4
  6
CONTINUOUS
 10
10.9957727109
 20
6.6954591808
 11
11.0032102091
 21
6.7010373058
  0
LINE
  5
46A
100
AcDbEntity
  8
03__ASM_ALL_CURVES
100
AcDbLine
 62
4
  6
CONTINUOUS
 10
11.0403977089
 20
6.6619904308
 11
11.0329602087
 21
6.6564123058
  0
LINE
  5
46B
100
AcDbEntity
  8
03__ASM_ALL_CURVES
100
AcDbLine
 62
4
  6
CONTINUOUS
 10
10.9660227073
 20
6.6062091808
 11
10.9734602109
 21
6.6117873058
  0
LINE
  5
46C
100
AcDbEntity
  8
03__ASM_ALL_CURVES
100
AcDbLine
 62
4
  6
CONTINUOUS
 10
11.0032102091
 20
6.7010373058
 11
11.0180852082
 21
6.7066154308
  0
LINE
  5
46D
100
AcDbEntity
  8
03__ASM_ALL_CURVES
100
AcDbLine
 62
4
  6
CONTINUOUS
 10
9.0660852091
 20
11.8424123049
 11
9.0493508341
 21
11.8498498058
  0
LINE
  5
46E
100
AcDbEntity
  8
03__ASM_ALL_CURVES
100
AcDbLine
 62
4
  6
CONTINUOUS
 10
9.3338352091
 20
11.8424123049
 11
9.3171008341
 21
11.8498498058
  0
LINE
  5
46F
100
AcDbEntity
  8
03__ASM_ALL_CURVES
100
AcDbLine
 62
4
  6
CONTINUOUS
 10
11.0329602087
 20
6.4946466808
 11
11.0478352091
 21
6.5058029308
  0
LINE
  5
470
100
AcDbEntity
  8
03__ASM_ALL_CURVES
100
AcDbLine
 62
4
  6
CONTINUOUS
 10
10.9660227073
 20
6.3328810558
 11
10.9734602109
 21
6.3384591808
  0
LINE
  5
471
100
AcDbEntity
  8
03__ASM_ALL_CURVES
100
AcDbLine
 62
4
  6
CONTINUOUS
 10
11.0403977089
 20
6.3105685558
 11
11.0329602087
 21
6.3049904308
  0
LINE
  5
472
100
AcDbEntity
  8
03__ASM_ALL_CURVES
100
AcDbLine
 62
4
  6
CONTINUOUS
 10
11.9585852091
 20
6.9408966808
 11
11.9734602109
 21
6.9520529308
  0
LINE
  5
473
100
AcDbEntity
  8
03__ASM_ALL_CURVES
100
AcDbLine
 62
4
  6
CONTINUOUS
 10
11.0366789588
 20
6.2464201183
 11
11.0478352091
 21
6.2547873058
  0
LINE
  5
474
100
AcDbEntity
  8
03__ASM_ALL_CURVES
100
AcDbLine
 62
4
  6
CONTINUOUS
 10
10.9734602109
 20
6.3384591808
 11
10.9883352073
 21
6.3440373058
  0
LINE
  5
475
100
AcDbEntity
  8
03__ASM_ALL_CURVES
100
AcDbLine
 62
4
  6
CONTINUOUS
 10
11.9734602109
 20
6.6954591808
 11
11.9883352073
 21
6.7010373058
  0
LINE
  5
476
100
AcDbEntity
  8
03__ASM_ALL_CURVES
100
AcDbLine
 62
4
  6
CONTINUOUS
 10
11.9585852091
 20
6.8628029308
 11
11.9660227073
 21
6.8739591808
  0
LINE
  5
477
100
AcDbEntity
  8
03__ASM_ALL_CURVES
100
AcDbLine
 62
4
  6
CONTINUOUS
 10
11.9957727109
 20
6.8628029308
 11
12.0032102091
 21
6.8739591808
  0
LINE
  5
478
100
AcDbEntity
  8
03__ASM_ALL_CURVES
100
AcDbLine
 62
4
  6
CONTINUOUS
 10
11.9957727109
 20
6.8516466808
 11
11.9883352073
 21
6.8404904308
  0
LINE
  5
479
100
AcDbEntity
  8
03__ASM_ALL_CURVES
100
AcDbLine
 62
4
  6
CONTINUOUS
 10
12.0478352091
 20
6.8516466808
 11
12.0403977089
 21
6.8404904308
  0
LINE
  5
47A
100
AcDbEntity
  8
03__ASM_ALL_CURVES
100
AcDbLine
 62
4
  6
CONTINUOUS
 10
11.9585852091
 20
6.6787248058
 11
11.9660227073
 21
6.6898810558
  0
LINE
  5
47B
100
AcDbEntity
  8
03__ASM_ALL_CURVES
100
AcDbLine
 62
4
  6
CONTINUOUS
 10
11.9883352073
 20
6.5950529308
 11
11.9957727109
 21
6.6062091808
  0
LINE
  5
47C
100
AcDbEntity
  8
03__ASM_ALL_CURVES
100
AcDbLine
 62
4
  6
CONTINUOUS
 10
12.0478352091
 20
6.6787248058
 11
12.0403977089
 21
6.6675685558
  0
LINE
  5
47D
100
AcDbEntity
  8
03__ASM_ALL_CURVES
100
AcDbLine
 62
4
  6
CONTINUOUS
 10
12.0478352091
 20
6.5838966808
 11
12.0403977089
 21
6.5727404308
  0
LINE
  5
47E
100
AcDbEntity
  8
03__ASM_ALL_CURVES
100
AcDbLine
 62
4
  6
CONTINUOUS
 10
11.9660227073
 20
6.8739591808
 11
11.9734602109
 21
6.8795373058
  0
LINE
  5
47F
100
AcDbEntity
  8
03__ASM_ALL_CURVES
100
AcDbLine
 62
4
  6
CONTINUOUS
 10
12.0032102091
 20
6.8739591808
 11
12.0180852082
 21
6.8851154308
  0
LINE
  5
480
100
AcDbEntity
  8
03__ASM_ALL_CURVES
100
AcDbLine
 62
4
  6
CONTINUOUS
 10
11.9883352073
 20
6.8404904308
 11
11.9808977091
 21
6.8349123058
  0
LINE
  5
481
100
AcDbEntity
  8
03__ASM_ALL_CURVES
100
AcDbLine
 62
4
  6
CONTINUOUS
 10
12.0403977089
 20
6.8404904308
 11
12.0255227091
 21
6.8293341808
  0
LINE
  5
482
100
AcDbEntity
  8
03__ASM_ALL_CURVES
100
AcDbLine
 62
4
  6
CONTINUOUS
 10
12.0366789588
 20
6.7819201183
 11
12.0478352091
 21
6.7902873058
  0
LINE
  5
483
100
AcDbEntity
  8
03__ASM_ALL_CURVES
100
AcDbLine
 62
4
  6
CONTINUOUS
 10
11.9660227073
 20
6.6898810558
 11
11.9734602109
 21
6.6954591808
  0
LINE
  5
484
100
AcDbEntity
  8
03__ASM_ALL_CURVES
100
AcDbLine
 62
4
  6
CONTINUOUS
 10
11.0329602087
 20
6.3049904308
 11
11.0180852082
 21
6.2994123058
  0
LINE
  5
485
100
AcDbEntity
  8
03__ASM_ALL_CURVES
100
AcDbLine
 62
4
  6
CONTINUOUS
 10
12.0329602087
 20
6.6619904308
 11
12.0180852082
 21
6.6564123058
  0
LINE
  5
486
100
AcDbEntity
  8
03__ASM_ALL_CURVES
100
AcDbLine
 62
4
  6
CONTINUOUS
 10
12.0032102091
 20
6.6117873058
 11
12.0180852082
 21
6.6173654308
  0
LINE
  5
487
100
AcDbEntity
  8
03__ASM_ALL_CURVES
100
AcDbLine
 62
4
  6
CONTINUOUS
 10
9.2668977091
 20
11.8052248058
 11
9.2585305216
 21
11.8052248058
  0
LINE
  5
488
100
AcDbEntity
  8
03__ASM_ALL_CURVES
100
AcDbLine
 62
4
  6
CONTINUOUS
 10
8.6421477091
 20
11.8052248058
 11
8.6337805216
 21
11.8052248058
  0
LINE
  5
489
100
AcDbEntity
  8
03__ASM_ALL_CURVES
100
AcDbLine
 62
4
  6
CONTINUOUS
 10
8.5361633341
 20
11.8052248058
 11
8.5250070841
 21
11.8052248058
  0
LINE
  5
48A
100
AcDbEntity
  8
03__ASM_ALL_CURVES
100
AcDbLine
 62
4
  6
CONTINUOUS
 10
8.7760227091
 20
11.8052248058
 11
8.8206477091
 21
11.8052248058
  0
LINE
  5
48B
100
AcDbEntity
  8
03__ASM_ALL_CURVES
100
AcDbLine
 62
4
  6
CONTINUOUS
 10
11.9585852091
 20
6.3217248058
 11
11.9660227073
 21
6.3328810558
  0
LINE
  5
48C
100
AcDbEntity
  8
03__ASM_ALL_CURVES
100
AcDbLine
 62
4
  6
CONTINUOUS
 10
12.0478352091
 20
6.3217248058
 11
12.0403977089
 21
6.3105685558
  0
LINE
  5
48D
100
AcDbEntity
  8
03__ASM_ALL_CURVES
100
AcDbLine
 62
4
  6
CONTINUOUS
 10
11.9585852091
 20
6.1488029308
 11
11.9660227073
 21
6.1599591808
  0
LINE
  5
48E
100
AcDbEntity
  8
03__ASM_ALL_CURVES
100
AcDbLine
 62
4
  6
CONTINUOUS
 10
12.0403977089
 20
6.6675685558
 11
12.0329602087
 21
6.6619904308
  0
LINE
  5
48F
100
AcDbEntity
  8
03__ASM_ALL_CURVES
100
AcDbLine
 62
4
  6
CONTINUOUS
 10
11.9957727109
 20
6.6062091808
 11
12.0032102091
 21
6.6117873058
  0
LINE
  5
490
100
AcDbEntity
  8
03__ASM_ALL_CURVES
100
AcDbLine
 62
4
  6
CONTINUOUS
 10
12.0403977089
 20
6.5727404308
 11
12.0329602087
 21
6.5671623058
  0
LINE
  5
491
100
AcDbEntity
  8
03__ASM_ALL_CURVES
100
AcDbLine
 62
4
  6
CONTINUOUS
 10
12.0329602087
 20
6.4946466808
 11
12.0478352091
 21
6.5058029308
  0
LINE
  5
492
100
AcDbEntity
  8
03__ASM_ALL_CURVES
100
AcDbLine
 62
4
  6
CONTINUOUS
 10
11.9660227073
 20
6.3328810558
 11
11.9734602109
 21
6.3384591808
  0
LINE
  5
493
100
AcDbEntity
  8
03__ASM_ALL_CURVES
100
AcDbLine
 62
4
  6
CONTINUOUS
 10
11.9734602109
 20
6.3384591808
 11
11.9883352073
 21
6.3440373058
  0
LINE
  5
494
100
AcDbEntity
  8
03__ASM_ALL_CURVES
100
AcDbLine
 62
4
  6
CONTINUOUS
 10
12.0329602087
 20
6.3049904308
 11
12.0180852082
 21
6.2994123058
  0
LINE
  5
495
100
AcDbEntity
  8
03__ASM_ALL_CURVES
100
AcDbLine
 62
4
  6
CONTINUOUS
 10
9.4007727091
 20
11.8275373058
 11
9.4509758341
 21
11.8275373058
  0
LINE
  5
496
100
AcDbEntity
  8
03__ASM_ALL_CURVES
100
AcDbLine
 62
4
  6
CONTINUOUS
 10
9.9139602091
 20
11.8498498058
 11
9.6462102091
 21
11.8498498058
  0
LINE
  5
497
100
AcDbEntity
  8
0
100
AcDbLine
 62
7
  6
CONTINUOUS
 10
10.0032102091
 20
11.8498498058
 11
12.0032102091
 21
11.8498498058
  0
LINE
  5
498
100
AcDbEntity
  8
03__ASM_ALL_CURVES
100
AcDbLine
 62
4
  6
CONTINUOUS
 10
8.5250070841
 20
11.857287304
 11
8.5361633341
 21
11.857287304
  0
LINE
  5
499
100
AcDbEntity
  8
03__ASM_ALL_CURVES
100
AcDbLine
 62
4
  6
CONTINUOUS
 10
8.5250070841
 20
11.8944748058
 11
8.5361633341
 21
11.8944748058
  0
LINE
  5
49A
100
AcDbEntity
  8
03__ASM_ALL_CURVES
100
AcDbLine
 62
4
  6
CONTINUOUS
 10
8.7927570841
 20
11.8944748058
 11
8.8039133341
 21
11.8944748058
  0
LINE
  5
49B
100
AcDbEntity
  8
03__ASM_ALL_CURVES
100
AcDbLine
 62
4
  6
CONTINUOUS
 10
12.0403977089
 20
6.3105685558
 11
12.0329602087
 21
6.3049904308
  0
LINE
  5
49C
100
AcDbEntity
  8
03__ASM_ALL_CURVES
100
AcDbLine
 62
4
  6
CONTINUOUS
 10
12.0366789588
 20
6.2464201183
 11
12.0478352091
 21
6.2547873058
  0
LINE
  5
49D
100
AcDbEntity
  8
03__ASM_ALL_CURVES
100
AcDbLine
 62
4
  6
CONTINUOUS
 10
11.9660227073
 20
6.1599591808
 11
11.9734602109
 21
6.1655373058
  0
CIRCLE
  5
49E
100
AcDbEntity
  8
0
100
AcDbCircle
 62
7
  6
CONTINUOUS
 10
11.0032102091
 20
10.286849842
 40
0.67
  0
CIRCLE
  5
49F
100
AcDbEntity
  8
0
100
AcDbCircle
 62
7
  6
CONTINUOUS
 10
11.0032102091
 20
10.286849842
 40
0.47
  0
CIRCLE
  5
4A0
100
AcDbEntity
  8
0
100
AcDbCircle
 62
7
  6
CONTINUOUS
 10
11.0032102091
 20
10.286849842
 40
0.4405255888
  0
CIRCLE
  5
4A1
100
AcDbEntity
  8
0
100
AcDbCircle
 62
7
  6
CONTINUOUS
 10
11.0032102091
 20
10.286849842
 40
0.405
  0
CIRCLE
  5
4A2
100
AcDbEntity
  8
0
100
AcDbCircle
 62
7
  6
CONTINUOUS
 10
11.0032102091
 20
10.286849842
 40
0.281
  0
SPLINE
  5
4A3
100
AcDbEntity
  8
0
100
AcDbSpline
 62
7
  6
CONTINUOUS
 70
0
 71
3
 72
18
 73
14
 74
12
 42
0.0000001
 43
0.0000001
 44
0.0000000001
 12
-0.3682779078
 22
-0.1096574181
 32
0.0
 13
-0.3682779078
 23
0.1096574181
 33
0.0
 40
0.0
 40
0.0
 40
0.0
 40
0.0
 40
0.0953883454
 40
0.1876633775
 40
0.2779243546
 40
0.3671054087
 40
0.4557561952
 40
0.5442440342
 40
0.6328948332
 40
0.7220758637
 40
0.8123367918
 40
0.9046116831
 40
1.0
 40
1.0
 40
1.0
 40
1.0
 10
11.4111124568
 20
7.6649134716
 30
0.0
 10
11.39940265
 20
7.6614267917
 30
0.0
 10
11.3762220153
 20
7.655034295
 30
0.0
 10
11.3414925817
 20
7.6471577773
 30
0.0
 10
11.3071899723
 20
7.6411819362
 30
0.0
 10
11.2730709404
 20
7.6371446523
 30
0.0
 10
11.2390003283
 20
7.6351047584
 30
0.0
 10
11.2049360341
 20
7.635104761
 30
0.0
 10
11.1708654237
 20
7.6371446603
 30
0.0
 10
11.1367464
 20
7.6411819482
 30
0.0
 10
11.1024438183
 20
7.6471577884
 30
0.0
 10
11.0677144125
 20
7.6550343017
 30
0.0
 10
11.0445337987
 20
7.6614267928
 30
0.0
 10
11.0328239954
 20
7.6649134716
 30
0.0
 11
11.4111124568
 21
7.6649134716
 31
0.0
 11
11.3757677486
 21
7.6552057324
 31
0.0
 11
11.341181019
 21
7.6473967931
 31
0.0
 11
11.3070072427
 21
7.6414729858
 31
0.0
 11
11.2729736913
 21
7.6374676076
 31
0.0
 11
11.2389692135
 21
7.6354433364
 31
0.0
 11
11.2049671506
 21
7.6354433391
 31
0.0
 11
11.1709626682
 21
7.6374676159
 31
0.0
 11
11.1369291264
 21
7.6414729979
 31
0.0
 11
11.1027553694
 21
7.6473968059
 31
0.0
 11
11.068168693
 21
7.655205735
 31
0.0
 11
11.0328239954
 21
7.6649134716
 31
0.0
  0
SPLINE
  5
4A4
100
AcDbEntity
  8
0
100
AcDbSpline
 62
7
  6
CONTINUOUS
 70
0
 71
3
 72
20
 73
16
 74
14
 42
0.0000001
 43
0.0000001
 44
0.0000000001
 12
-0.3517658614
 22
0.1814164505
 32
0.0
 13
-0.3517658614
 23
-0.1814164505
 33
0.0
 40
0.0
 40
0.0
 40
0.0
 40
0.0
 40
0.0875940146
 40
0.1694919913
 40
0.2470152696
 40
0.3213916059
 40
0.3936502912
 40
0.4646943991
 40
0.5353061881
 40
0.6063502865
 40
0.6786088392
 40
0.7529851583
 40
0.830508166
 40
0.9124059307
 40
1.0
 40
1.0
 40
1.0
 40
1.0
 10
11.4111124568
 20
8.1013498058
 30
0.0
 10
11.4008415954
 20
8.1066468042
 30
0.0
 10
11.3806899655
 20
8.1163726154
 30
0.0
 10
11.3505081584
 20
8.1287218037
 30
0.0
 10
11.3212131485
 20
8.1384586091
 30
0.0
 10
11.2925120995
 20
8.1457060668
 30
0.0
 10
11.264168717
 20
8.1505247371
 30
0.0
 10
11.2360160577
 20
8.152932526
 30
0.0
 10
11.2079201631
 20
8.152932516
 30
0.0
 10
11.1797675242
 20
8.1505247092
 30
0.0
 10
11.1514241653
 20
8.1457060263
 30
0.0
 10
11.1227231734
 20
8.1384585693
 30
0.0
 10
11.0934282289
 20
8.1287217772
 30
0.0
 10
11.0632464746
 20
8.1163726094
 30
0.0
 10
11.0430948632
 20
8.1066468075
 30
0.0
 10
11.0328239954
 20
8.1013498058
 30
0.0
 11
11.4111124568
 21
8.1013498058
 31
0.0
 11
11.3798637272
 21
8.1163649969
 31
0.0
 11
11.3498425862
 21
8.1285893166
 31
0.0
 11
11.3207104879
 21
8.1382211452
 31
0.0
 11
11.2921591701
 21
8.1453899145
 31
0.0
 11
11.263959566
 21
8.1501551782
 31
0.0
 11
11.2359418935
 21
8.1525363396
 31
0.0
 11
11.2079943263
 21
8.1525363297
 31
0.0
 11
11.1799766591
 21
8.1501551493
 31
0.0
 11
11.1517771096
 21
8.1453898782
 31
0.0
 11
11.1232258016
 21
8.1382210978
 31
0.0
 11
11.0940938075
 21
8.1285892951
 31
0.0
 11
11.0640727447
 21
8.1163650057
 31
0.0
 11
11.0328239954
 21
8.1013498058
 31
0.0
  0
SPLINE
  5
4A5
100
AcDbEntity
  8
0
100
AcDbSpline
 62
7
  6
CONTINUOUS
 70
0
 71
3
 72
18
 73
14
 74
12
 42
0.0000001
 43
0.0000001
 44
0.0000000001
 12
-0.3682779078
 22
-0.1096574181
 32
0.0
 13
-0.3682779078
 23
0.1096574181
 33
0.0
 40
0.0
 40
0.0
 40
0.0
 40
0.0
 40
0.0953883454
 40
0.1876633775
 40
0.2779243546
 40
0.3671054087
 40
0.4557561952
 40
0.5442440342
 40
0.6328948332
 40
0.7220758637
 40
0.8123367918
 40
0.9046116831
 40
1.0
 40
1.0
 40
1.0
 40
1.0
 10
10.9735964228
 20
7.6649134716
 30
0.0
 10
10.961886616
 20
7.6614267917
 30
0.0
 10
10.9387059813
 20
7.655034295
 30
0.0
 10
10.9039765477
 20
7.6471577773
 30
0.0
 10
10.8696739383
 20
7.6411819362
 30
0.0
 10
10.8355549064
 20
7.6371446523
 30
0.0
 10
10.8014842943
 20
7.6351047584
 30
0.0
 10
10.7674200001
 20
7.635104761
 30
0.0
 10
10.7333493897
 20
7.6371446603
 30
0.0
 10
10.6992303661
 20
7.6411819482
 30
0.0
 10
10.6649277843
 20
7.6471577884
 30
0.0
 10
10.6301983785
 20
7.6550343017
 30
0.0
 10
10.6070177647
 20
7.6614267928
 30
0.0
 10
10.5953079614
 20
7.6649134716
 30
0.0
 11
10.9735964228
 21
7.6649134716
 31
0.0
 11
10.9382517146
 21
7.6552057324
 31
0.0
 11
10.903664985
 21
7.6473967931
 31
0.0
 11
10.8694912088
 21
7.6414729858
 31
0.0
 11
10.8354576574
 21
7.6374676076
 31
0.0
 11
10.8014531795
 21
7.6354433364
 31
0.0
 11
10.7674511166
 21
7.6354433391
 31
0.0
 11
10.7334466342
 21
7.6374676159
 31
0.0
 11
10.6994130924
 21
7.6414729979
 31
0.0
 11
10.6652393354
 21
7.6473968059
 31
0.0
 11
10.630652659
 21
7.655205735
 31
0.0
 11
10.5953079614
 21
7.6649134716
 31
0.0
  0
SPLINE
  5
4A6
100
AcDbEntity
  8
0
100
AcDbSpline
 62
7
  6
CONTINUOUS
 70
0
 71
3
 72
20
 73
16
 74
14
 42
0.0000001
 43
0.0000001
 44
0.0000000001
 12
-0.3517658614
 22
0.1814164505
 32
0.0
 13
-0.3517658614
 23
-0.1814164505
 33
0.0
 40
0.0
 40
0.0
 40
0.0
 40
0.0
 40
0.0875940146
 40
0.1694919913
 40
0.2470152696
 40
0.3213916059
 40
0.3936502912
 40
0.4646943991
 40
0.5353061881
 40
0.6063502865
 40
0.6786088392
 40
0.7529851583
 40
0.830508166
 40
0.9124059307
 40
1.0
 40
1.0
 40
1.0
 40
1.0
 10
10.9735964228
 20
8.1013498058
 30
0.0
 10
10.9633255614
 20
8.1066468042
 30
0.0
 10
10.9431739315
 20
8.1163726154
 30
0.0
 10
10.9129921244
 20
8.1287218037
 30
0.0
 10
10.8836971145
 20
8.1384586091
 30
0.0
 10
10.8549960655
 20
8.1457060668
 30
0.0
 10
10.826652683
 20
8.1505247371
 30
0.0
 10
10.7985000237
 20
8.152932526
 30
0.0
 10
10.7704041291
 20
8.152932516
 30
0.0
 10
10.7422514902
 20
8.1505247092
 30
0.0
 10
10.7139081313
 20
8.1457060263
 30
0.0
 10
10.6852071395
 20
8.1384585693
 30
0.0
 10
10.6559121949
 20
8.1287217772
 30
0.0
 10
10.6257304406
 20
8.1163726094
 30
0.0
 10
10.6055788292
 20
8.1066468075
 30
0.0
 10
10.5953079614
 20
8.1013498058
 30
0.0
 11
10.9735964228
 21
8.1013498058
 31
0.0
 11
10.9423476932
 21
8.1163649969
 31
0.0
 11
10.9123265522
 21
8.1285893166
 31
0.0
 11
10.8831944539
 21
8.1382211452
 31
0.0
 11
10.8546431361
 21
8.1453899145
 31
0.0
 11
10.8264435321
 21
8.1501551782
 31
0.0
 11
10.7984258595
 21
8.1525363396
 31
0.0
 11
10.7704782923
 21
8.1525363297
 31
0.0
 11
10.7424606251
 21
8.1501551493
 31
0.0
 11
10.7142610756
 21
8.1453898782
 31
0.0
 11
10.6857097676
 21
8.1382210978
 31
0.0
 11
10.6565777735
 21
8.1285892951
 31
0.0
 11
10.6265567107
 21
8.1163650057
 31
0.0
 11
10.5953079614
 21
8.1013498058
 31
0.0
  0
SPLINE
  5
4A7
100
AcDbEntity
  8
0
100
AcDbSpline
 62
7
  6
CONTINUOUS
 70
0
 71
3
 72
8
 73
4
 74
2
 42
0.0000001
 43
0.0000001
 44
0.0000000001
 12
-0.0000061121
 22
0.000151219
 32
0.0
 13
-0.0000061073
 23
0.0001512192
 33
0.0
 40
0.0
 40
0.0
 40
0.0
 40
0.0
 40
1.0
 40
1.0
 40
1.0
 40
1.0
 10
10.7430540059
 20
9.9764569459
 30
0.0
 10
10.7430519685
 20
9.9765073523
 30
0.0
 10
10.7430499319
 20
9.9765577587
 30
0.0
 10
10.7430478962
 20
9.9766081651
 30
0.0
 11
10.7430540059
 21
9.9764569459
 31
0.0
 11
10.7430478962
 21
9.9766081651
 31
0.0
  0
SPLINE
  5
4A8
100
AcDbEntity
  8
0
100
AcDbSpline
 62
7
  6
CONTINUOUS
 70
0
 71
3
 72
17
 73
13
 74
11
 42
0.0000001
 43
0.0000001
 44
0.0000000001
 12
-0.0080032548
 22
0.1981649547
 32
0.0
 13
-0.0016474343
 23
0.1983196893
 33
0.0
 40
0.0
 40
0.0
 40
0.0
 40
0.0
 40
0.1196072723
 40
0.2325693449
 40
0.3393275297
 40
0.4410602924
 40
0.5389553892
 40
0.6340450701
 40
0.7269818192
 40
0.8184027974
 40
0.9089632211
 40
1.0
 40
1.0
 40
1.0
 40
1.0
 10
10.7430478962
 20
9.9766081651
 30
0.0
 10
10.7427288137
 20
9.9845088216
 30
0.0
 10
10.7421467787
 20
9.9998727628
 30
0.0
 10
10.7414015763
 20
10.0222929958
 30
0.0
 10
10.7407841864
 20
10.0435349657
 30
0.0
 10
10.7402716297
 20
10.0637833454
 30
0.0
 10
10.7398445068
 20
10.0832621292
 30
0.0
 10
10.7394880776
 20
10.1021607334
 30
0.0
 10
10.739191076
 20
10.1206323092
 30
0.0
 10
10.7389446265
 20
10.1388051735
 30
0.0
 10
10.7387409095
 20
10.156852951
 30
0.0
 10
10.7386300904
 20
10.1688576259
 30
0.0
 10
10.738580098
 20
10.1748757545
 30
0.0
 11
10.7430478962
 21
9.9766081651
 31
0.0
 11
10.7421490026
 21
10.0003124195
 31
0.0
 11
10.7414039513
 21
10.0227033995
 31
0.0
 11
10.7407880758
 21
10.0438674173
 31
0.0
 11
10.7402768045
 21
10.0640372409
 31
0.0
 11
10.7398505051
 21
10.0834477519
 31
0.0
 11
10.7394942316
 21
10.1023031897
 31
0.0
 11
10.7391972595
 21
10.1207326171
 31
0.0
 11
10.7389507569
 21
10.1388621438
 31
0.0
 11
10.7387474033
 21
10.1568215242
 31
0.0
 11
10.738580098
 21
10.1748757545
 31
0.0
  0
SPLINE
  5
4A9
100
AcDbEntity
  8
0
100
AcDbSpline
 62
7
  6
CONTINUOUS
 70
0
 71
3
 72
8
 73
4
 74
2
 42
0.0000001
 43
0.0000001
 44
0.0000000001
 12
-0.0001481711
 22
0.0178369769
 32
0.0
 13
-0.0001173721
 23
0.0178372031
 33
0.0
 40
0.0
 40
0.0
 40
0.0
 40
0.0
 40
1.0
 40
1.0
 40
1.0
 40
1.0
 10
10.738580098
 20
10.1748757545
 30
0.0
 10
10.7385307076
 20
10.1808214135
 30
0.0
 10
10.7384867469
 20
10.1867671175
 30
0.0
 10
10.7384476228
 20
10.1927128518
 30
0.0
 11
10.738580098
 21
10.1748757545
 31
0.0
 11
10.7384476228
 21
10.1927128518
 31
0.0
  0
SPLINE
  5
4AA
100
AcDbEntity
  8
0
100
AcDbSpline
 62
7
  6
CONTINUOUS
 70
0
 71
3
 72
8
 73
4
 74
2
 42
0.0000001
 43
0.0000001
 44
0.0000000001
 12
-0.0001179956
 22
-0.0179319596
 32
0.0
 13
-0.0001491323
 23
-0.0179317308
 33
0.0
 40
0.0
 40
0.0
 40
0.0
 40
0.0
 40
1.0
 40
1.0
 40
1.0
 40
1.0
 10
11.2679727954
 20
10.1927128518
 30
0.0
 10
11.2679334635
 20
10.186735532
 30
0.0
 10
11.2678892434
 20
10.1807582428
 30
0.0
 10
11.2678395326
 20
10.1747809992
 30
0.0
 11
11.2679727954
 21
10.1927128518
 31
0.0
 11
11.2678395326
 21
10.1747809992
 31
0.0
  0
SPLINE
  5
4AB
100
AcDbEntity
  8
0
100
AcDbSpline
 62
7
  6
CONTINUOUS
 70
0
 71
3
 72
17
 73
13
 74
11
 42
0.0000001
 43
0.0000001
 44
0.0000000001
 12
-0.001648571
 22
-0.198224918
 32
0.0
 13
-0.0079994309
 23
-0.1980702733
 33
0.0
 40
0.0
 40
0.0
 40
0.0
 40
0.0
 40
0.0905937747
 40
0.1811950779
 40
0.2726582409
 40
0.3656386018
 40
0.4607731837
 40
0.5587150928
 40
0.6604982129
 40
0.767310486
 40
0.8803306917
 40
1.0
 40
1.0
 40
1.0
 40
1.0
 10
11.2678395326
 20
10.1747809992
 30
0.0
 10
11.2677897492
 20
10.168795018
 30
0.0
 10
11.2676791645
 20
10.1568226496
 30
0.0
 10
11.2674758175
 20
10.1388072774
 30
0.0
 10
11.2672293778
 20
10.1206347263
 30
0.0
 10
11.2669323859
 20
10.1021633409
 30
0.0
 10
11.2665759663
 20
10.0832648257
 30
0.0
 10
11.2661488505
 20
10.0637859631
 30
0.0
 10
11.2656362949
 20
10.0435372662
 30
0.0
 10
11.2650188962
 20
10.022294707
 30
0.0
 10
11.2642736734
 20
9.9998736779
 30
0.0
 10
11.2636916175
 20
9.9845091426
 30
0.0
 10
11.263372522
 20
9.9766081651
 30
0.0
 11
11.2678395326
 21
10.1747809992
 31
0.0
 11
11.2676730322
 21
10.1568232095
 31
0.0
 11
11.2674696881
 21
10.1388643068
 31
0.0
 11
11.2672231952
 21
10.1207350806
 31
0.0
 11
11.2669262324
 21
10.1023058143
 31
0.0
 11
11.2665699688
 21
10.0834504861
 31
0.0
 11
11.2661436781
 21
10.0640399717
 31
0.0
 11
11.2656324072
 21
10.0438698055
 31
0.0
 11
11.2650165223
 21
10.022705182
 31
0.0
 11
11.2642714497
 21
10.0003133826
 31
0.0
 11
11.263372522
 21
9.9766081651
 31
0.0
  0
SPLINE
  5
4AC
100
AcDbEntity
  8
0
100
AcDbSpline
 62
7
  6
CONTINUOUS
 70
0
 71
3
 72
8
 73
4
 74
2
 42
0.0000001
 43
0.0000001
 44
0.0000000001
 12
-0.0000061073
 22
-0.0001512192
 32
0.0
 13
-0.0000061121
 23
-0.000151219
 33
0.0
 40
0.0
 40
0.0
 40
0.0
 40
0.0
 40
1.0
 40
1.0
 40
1.0
 40
1.0
 10
11.263372522
 20
9.9766081651
 30
0.0
 10
11.2633704862
 20
9.9765577587
 30
0.0
 10
11.2633684497
 20
9.9765073523
 30
0.0
 10
11.2633664123
 20
9.9764569459
 30
0.0
 11
11.263372522
 21
9.9766081651
 31
0.0
 11
11.2633664123
 21
9.9764569459
 31
0.0
  0
SPLINE
  5
4AD
100
AcDbEntity
  8
0
100
AcDbSpline
 62
7
  6
CONTINUOUS
 70
0
 71
3
 72
16
 73
12
 74
10
 42
0.0000001
 43
0.0000001
 44
0.0000000001
 12
-0.001450573
 22
-0.1744176654
 32
0.0
 13
-0.0061840661
 23
-0.1743142182
 33
0.0
 40
0.0
 40
0.0
 40
0.0
 40
0.0
 40
0.1021363237
 40
0.2049233371
 40
0.3086848588
 40
0.4141241245
 40
0.5220495461
 40
0.6333883815
 40
0.7492117504
 40
0.870772074
 40
1.0
 40
1.0
 40
1.0
 40
1.0
 10
11.2678395326
 20
10.1747809992
 30
0.0
 10
11.2677901472
 20
10.1688428728
 30
0.0
 10
11.2676801893
 20
10.1569288797
 30
0.0
 10
11.2674779648
 20
10.1389826901
 30
0.0
 10
11.2672324535
 20
10.1208449824
 30
0.0
 10
11.266936635
 20
10.1024092288
 30
0.0
 10
11.2665814249
 20
10.0835338845
 30
0.0
 10
11.2661552357
 20
10.0640561089
 30
0.0
 10
11.2656431188
 20
10.0437873811
 30
0.0
 10
11.2650248092
 20
10.0224810468
 30
0.0
 10
11.2645408777
 20
10.0079079
 30
0.0
 10
11.264274493
 20
10.0003991451
 30
0.0
 11
11.2678395326
 21
10.1747809992
 31
0.0
 11
11.2676745043
 21
10.1569667714
 31
0.0
 11
11.267471861
 21
10.1390394288
 31
0.0
 11
11.2672262659
 21
10.1209426301
 31
0.0
 11
11.2669305577
 21
10.1025539041
 31
0.0
 11
11.2665757073
 21
10.0837325011
 31
0.0
 11
11.2661502067
 21
10.0643170351
 31
0.0
 11
11.2656392241
 21
10.0441211615
 31
0.0
 11
11.2650234177
 21
10.0229271085
 31
0.0
 11
11.264274493
 21
10.0003991451
 31
0.0
  0
SPLINE
  5
4AE
100
AcDbEntity
  8
0
100
AcDbSpline
 62
7
  6
CONTINUOUS
 70
0
 71
3
 72
8
 73
4
 74
2
 42
0.0000001
 43
0.0000001
 44
0.0000000001
 12
-0.0008440982
 22
-0.0237931342
 32
0.0
 13
-0.0009607495
 23
-0.0237886811
 33
0.0
 40
0.0
 40
0.0
 40
0.0
 40
0.0
 40
1.0
 40
1.0
 40
1.0
 40
1.0
 10
11.264274493
 20
10.0003991451
 30
0.0
 10
11.263993127
 20
9.9924681003
 30
0.0
 10
11.2636927717
 20
9.9845377231
 30
0.0
 10
11.2633725219
 20
9.9766081627
 30
0.0
 11
11.264274493
 21
10.0003991451
 31
0.0
 11
11.2633725219
 21
9.9766081627
 31
0.0
  0
SPLINE
  5
4AF
100
AcDbEntity
  8
0
100
AcDbSpline
 62
7
  6
CONTINUOUS
 70
0
 71
3
 72
8
 73
4
 74
2
 42
0.0000001
 43
0.0000001
 44
0.0000000001
 12
-0.0009665409
 22
0.023932079
 32
0.0
 13
-0.000848496
 23
0.0239365842
 33
0.0
 40
0.0
 40
0.0
 40
0.0
 40
0.0
 40
1.0
 40
1.0
 40
1.0
 40
1.0
 10
10.7430478964
 20
9.9766081588
 30
0.0
 10
10.7427257161
 20
9.9845855184
 30
0.0
 10
10.7424236712
 20
9.992563705
 30
0.0
 10
10.7421408391
 20
10.0005425664
 30
0.0
 11
10.7430478964
 21
9.9766081588
 31
0.0
 11
10.7421408391
 21
10.0005425664
 31
0.0
  0
SPLINE
  5
4B0
100
AcDbEntity
  8
0
100
AcDbSpline
 62
7
  6
CONTINUOUS
 70
0
 71
3
 72
16
 73
12
 74
10
 42
0.0000001
 43
0.0000001
 44
0.0000000001
 12
-0.0061773117
 22
0.1742656793
 32
0.0
 13
-0.0014484736
 23
0.1743689272
 33
0.0
 40
0.0
 40
0.0
 40
0.0
 40
0.0
 40
0.1310684106
 40
0.2533451943
 40
0.3695615919
 40
0.4810200229
 40
0.5888275177
 40
0.6939371685
 40
0.7971755983
 40
0.8992590564
 40
1.0
 40
1.0
 40
1.0
 40
1.0
 10
10.7421408391
 20
10.0005425664
 30
0.0
 10
10.7418709557
 20
10.0081561416
 30
0.0
 10
10.7413831074
 20
10.0228737862
 30
0.0
 10
10.7407620731
 20
10.0443456213
 30
0.0
 10
10.7402504758
 20
10.0646801566
 30
0.0
 10
10.7398259931
 20
10.0841754698
 30
0.0
 10
10.7394731103
 20
10.1030265146
 30
0.0
 10
10.7391798502
 20
10.1214007293
 30
0.0
 10
10.7389368587
 20
10.1394429341
 30
0.0
 10
10.7387372689
 20
10.1572317213
 30
0.0
 10
10.7386287382
 20
10.1690203911
 30
0.0
 10
10.738580098
 20
10.1748757545
 30
0.0
 11
10.7421408391
 21
10.0005425664
 31
0.0
 11
10.7413828022
 21
10.0233850346
 31
0.0
 11
10.7407655904
 21
10.0446981031
 31
0.0
 11
10.740255184
 21
10.0649568988
 31
0.0
 11
10.739831425
 21
10.0843878329
 31
0.0
 11
10.7394789257
 21
10.1031834504
 31
0.0
 11
10.7391857942
 21
10.1215095926
 31
0.0
 11
10.7389427357
 21
10.139510144
 31
0.0
 11
10.738742406
 21
10.1573098109
 31
0.0
 11
10.738580098
 21
10.1748757545
 31
0.0
  0
SPLINE
  5
4B1
100
AcDbEntity
  8
0
100
AcDbSpline
 62
7
  6
CONTINUOUS
 70
0
 71
3
 72
30
 73
26
 74
24
 42
0.0000001
 43
0.0000001
 44
0.0000000001
 12
-0.3518193163
 22
0.1814440189
 32
0.0
 13
-0.3518193163
 23
-0.1814440189
 33
0.0
 40
0.0
 40
0.0
 40
0.0
 40
0.0
 40
0.0503463085
 40
0.0986249459
 40
0.1451187352
 40
0.1900928048
 40
0.2338002389
 40
0.2764435793
 40
0.318220909
 40
0.3593092364
 40
0.3998714689
 40
0.4400702996
 40
0.480045492
 40
0.5199545091
 40
0.5599297015
 40
0.6001285322
 40
0.6406907645
 40
0.6817790918
 40
0.7235564214
 40
0.7661997619
 40
0.8099071956
 40
0.854881265
 40
0.9013750541
 40
0.9496536914
 40
1.0
 40
1.0
 40
1.0
 40
1.0
 10
10.9735964228
 20
8.1013498058
 30
0.0
 10
10.9676921548
 20
8.1043948179
 30
0.0
 10
10.9560340832
 20
8.1101838037
 30
0.0
 10
10.9386077507
 20
8.1181288916
 30
0.0
 10
10.9215681051
 20
8.1251871647
 30
0.0
 10
10.9048440749
 20
8.1313999724
 30
0.0
 10
10.8883730982
 20
8.1367981234
 30
0.0
 10
10.8721007124
 20
8.1414034112
 30
0.0
 10
10.8559824224
 20
8.1452297359
 30
0.0
 10
10.8399796821
 20
8.1482856885
 30
0.0
 10
10.8240596922
 20
8.1505759078
 30
0.0
 10
10.8081957576
 20
8.1521022514
 30
0.0
 10
10.7923630195
 20
8.1528654207
 30
0.0
 10
10.7765413643
 20
8.1528654207
 30
0.0
 10
10.7607086262
 20
8.1521022514
 30
0.0
 10
10.7448446916
 20
8.1505759077
 30
0.0
 10
10.7289247017
 20
8.1482856885
 30
0.0
 10
10.7129219615
 20
8.1452297358
 30
0.0
 10
10.6968036715
 20
8.1414034112
 30
0.0
 10
10.6805312857
 20
8.1367981233
 30
0.0
 10
10.6640603091
 20
8.1313999723
 30
0.0
 10
10.647336279
 20
8.1251871647
 30
0.0
 10
10.6302966335
 20
8.1181288916
 30
0.0
 10
10.612870301
 20
8.1101838038
 30
0.0
 10
10.6012122294
 20
8.104394818
 30
0.0
 10
10.5953079614
 20
8.1013498058
 30
0.0
 11
10.9735964228
 21
8.1013498058
 31
0.0
 11
10.9557414272
 21
8.1102037001
 31
0.0
 11
10.9383479394
 21
8.1181223026
 31
0.0
 11
10.9213405336
 21
8.1251564724
 31
0.0
 11
10.9046485783
 21
8.1313474365
 31
0.0
 11
10.8882046995
 21
8.1367276534
 31
0.0
 11
10.8719600876
 21
8.1413170055
 31
0.0
 11
10.8558680493
 21
8.1451301077
 31
0.0
 11
10.8398907864
 21
8.1481754092
 31
0.0
 11
10.8239971313
 21
8.1504573762
 31
0.0
 11
10.8081572033
 21
8.1519783688
 31
0.0
 11
10.7923512229
 21
8.152738708
 31
0.0
 11
10.7765531609
 21
8.1527387079
 31
0.0
 11
10.7607471804
 21
8.1519783688
 31
0.0
 11
10.7449072524
 21
8.1504573761
 31
0.0
 11
10.7290135974
 21
8.1481754091
 31
0.0
 11
10.7130363346
 21
8.1451301076
 31
0.0
 11
10.6969442963
 21
8.1413170054
 31
0.0
 11
10.6806996844
 21
8.1367276534
 31
0.0
 11
10.6642558058
 21
8.1313474364
 31
0.0
 11
10.6475638505
 21
8.1251564724
 31
0.0
 11
10.6305564448
 21
8.1181223026
 31
0.0
 11
10.613162957
 21
8.1102037002
 31
0.0
 11
10.5953079614
 21
8.1013498058
 31
0.0
  0
SPLINE
  5
4B2
100
AcDbEntity
  8
0
100
AcDbSpline
 62
7
  6
CONTINUOUS
 70
0
 71
3
 72
27
 73
23
 74
21
 42
0.0000001
 43
0.0000001
 44
0.0000000001
 12
-0.3683077477
 22
-0.1096663032
 32
0.0
 13
-0.3683077477
 23
0.1096663032
 33
0.0
 40
0.0
 40
0.0
 40
0.0
 40
0.0
 40
0.0529108398
 40
0.1046953431
 40
0.1555709001
 40
0.2057439969
 40
0.2554037966
 40
0.3046840737
 40
0.3537048192
 40
0.4025524989
 40
0.451300081
 40
0.5000000002
 40
0.5486999194
 40
0.5974475016
 40
0.6462951813
 40
0.6953159267
 40
0.7445962038
 40
0.7942560034
 40
0.8444291002
 40
0.895304657
 40
0.9470891602
 40
1.0
 40
1.0
 40
1.0
 40
1.0
 10
10.9735964228
 20
7.6649134716
 30
0.0
 10
10.9671005987
 20
7.6629792929
 30
0.0
 10
10.9542035
 20
7.6592968902
 30
0.0
 10
10.9349127214
 20
7.6542899185
 30
0.0
 10
10.915841733
 20
7.649856268
 30
0.0
 10
10.8969249514
 20
7.6459912645
 30
0.0
 10
10.8781077311
 20
7.6426966926
 30
0.0
 10
10.8593474532
 20
7.6399793995
 30
0.0
 10
10.8406159346
 20
7.6378496178
 30
0.0
 10
10.8218943316
 20
7.6363182184
 30
0.0
 10
10.8031739347
 20
7.6353949246
 30
0.0
 10
10.784452192
 20
7.635086373
 30
0.0
 10
10.7657304493
 20
7.6353949246
 30
0.0
 10
10.7470100524
 20
7.6363182184
 30
0.0
 10
10.7282884494
 20
7.6378496178
 30
0.0
 10
10.7095569309
 20
7.6399793995
 30
0.0
 10
10.6907966529
 20
7.6426966926
 30
0.0
 10
10.6719794326
 20
7.6459912645
 30
0.0
 10
10.6530626511
 20
7.6498562681
 30
0.0
 10
10.6339916627
 20
7.6542899185
 30
0.0
 10
10.6147008842
 20
7.6592968902
 30
0.0
 10
10.6018037855
 20
7.6629792929
 30
0.0
 10
10.5953079614
 20
7.6649134716
 30
0.0
 11
10.9735964228
 21
7.6649134716
 31
0.0
 11
10.954043011
 21
7.6593371747
 31
0.0
 11
10.9347795554
 21
7.654343594
 31
0.0
 11
10.9157352257
 21
7.6499220619
 31
0.0
 11
10.8968434981
 21
7.6460676442
 31
0.0
 11
10.8780449328
 21
7.6427812653
 31
0.0
 11
10.8593020871
 21
7.640070768
 31
0.0
 11
10.8405842084
 21
7.6379460325
 31
0.0
 11
10.8218749052
 21
7.6364182396
 31
0.0
 11
10.8031644561
 21
7.6354970422
 31
0.0
 11
10.784452192
 21
7.63518919
 31
0.0
 11
10.7657399279
 21
7.6354970422
 31
0.0
 11
10.7470294788
 21
7.6364182396
 31
0.0
 11
10.7283201757
 21
7.6379460325
 31
0.0
 11
10.709602297
 21
7.640070768
 31
0.0
 11
10.6908594512
 21
7.6427812653
 31
0.0
 11
10.672060886
 21
7.6460676443
 31
0.0
 11
10.6531691583
 21
7.649922062
 31
0.0
 11
10.6341248288
 21
7.654343594
 31
0.0
 11
10.6148613732
 21
7.6593371747
 31
0.0
 11
10.5953079614
 21
7.6649134716
 31
0.0
  0
SPLINE
  5
4B3
100
AcDbEntity
  8
0
100
AcDbSpline
 62
7
  6
CONTINUOUS
 70
0
 71
3
 72
30
 73
26
 74
24
 42
0.0000001
 43
0.0000001
 44
0.0000000001
 12
-0.3518193163
 22
0.1814440189
 32
0.0
 13
-0.3518193163
 23
-0.1814440189
 33
0.0
 40
0.0
 40
0.0
 40
0.0
 40
0.0
 40
0.0503463085
 40
0.0986249459
 40
0.1451187352
 40
0.1900928048
 40
0.2338002389
 40
0.2764435793
 40
0.318220909
 40
0.3593092364
 40
0.3998714689
 40
0.4400702996
 40
0.480045492
 40
0.5199545091
 40
0.5599297015
 40
0.6001285322
 40
0.6406907645
 40
0.6817790918
 40
0.7235564214
 40
0.7661997619
 40
0.8099071956
 40
0.854881265
 40
0.9013750541
 40
0.9496536914
 40
1.0
 40
1.0
 40
1.0
 40
1.0
 10
11.4111124568
 20
8.1013498058
 30
0.0
 10
11.4052081888
 20
8.1043948179
 30
0.0
 10
11.3935501172
 20
8.1101838037
 30
0.0
 10
11.3761237847
 20
8.1181288916
 30
0.0
 10
11.3590841391
 20
8.1251871647
 30
0.0
 10
11.3423601089
 20
8.1313999724
 30
0.0
 10
11.3258891322
 20
8.1367981234
 30
0.0
 10
11.3096167464
 20
8.1414034112
 30
0.0
 10
11.2934984563
 20
8.1452297359
 30
0.0
 10
11.2774957161
 20
8.1482856885
 30
0.0
 10
11.2615757262
 20
8.1505759078
 30
0.0
 10
11.2457117916
 20
8.1521022514
 30
0.0
 10
11.2298790535
 20
8.1528654207
 30
0.0
 10
11.2140573983
 20
8.1528654207
 30
0.0
 10
11.1982246601
 20
8.1521022514
 30
0.0
 10
11.1823607255
 20
8.1505759077
 30
0.0
 10
11.1664407357
 20
8.1482856885
 30
0.0
 10
11.1504379955
 20
8.1452297358
 30
0.0
 10
11.1343197055
 20
8.1414034112
 30
0.0
 10
11.1180473197
 20
8.1367981233
 30
0.0
 10
11.1015763431
 20
8.1313999723
 30
0.0
 10
11.084852313
 20
8.1251871647
 30
0.0
 10
11.0678126675
 20
8.1181288916
 30
0.0
 10
11.050386335
 20
8.1101838038
 30
0.0
 10
11.0387282634
 20
8.104394818
 30
0.0
 10
11.0328239954
 20
8.1013498058
 30
0.0
 11
11.4111124568
 21
8.1013498058
 31
0.0
 11
11.3932574612
 21
8.1102037001
 31
0.0
 11
11.3758639734
 21
8.1181223026
 31
0.0
 11
11.3588565676
 21
8.1251564724
 31
0.0
 11
11.3421646123
 21
8.1313474365
 31
0.0
 11
11.3257207335
 21
8.1367276534
 31
0.0
 11
11.3094761216
 21
8.1413170055
 31
0.0
 11
11.2933840833
 21
8.1451301077
 31
0.0
 11
11.2774068204
 21
8.1481754092
 31
0.0
 11
11.2615131653
 21
8.1504573762
 31
0.0
 11
11.2456732373
 21
8.1519783688
 31
0.0
 11
11.2298672569
 21
8.152738708
 31
0.0
 11
11.2140691948
 21
8.1527387079
 31
0.0
 11
11.1982632144
 21
8.1519783688
 31
0.0
 11
11.1824232864
 21
8.1504573761
 31
0.0
 11
11.1665296314
 21
8.1481754091
 31
0.0
 11
11.1505523686
 21
8.1451301076
 31
0.0
 11
11.1344603303
 21
8.1413170054
 31
0.0
 11
11.1182157184
 21
8.1367276534
 31
0.0
 11
11.1017718397
 21
8.1313474364
 31
0.0
 11
11.0850798845
 21
8.1251564724
 31
0.0
 11
11.0680724788
 21
8.1181223026
 31
0.0
 11
11.050678991
 21
8.1102037002
 31
0.0
 11
11.0328239954
 21
8.1013498058
 31
0.0
  0
SPLINE
  5
4B4
100
AcDbEntity
  8
0
100
AcDbSpline
 62
7
  6
CONTINUOUS
 70
0
 71
3
 72
27
 73
23
 74
21
 42
0.0000001
 43
0.0000001
 44
0.0000000001
 12
-0.3683077477
 22
-0.1096663032
 32
0.0
 13
-0.3683077477
 23
0.1096663032
 33
0.0
 40
0.0
 40
0.0
 40
0.0
 40
0.0
 40
0.0529108398
 40
0.1046953431
 40
0.1555709001
 40
0.2057439969
 40
0.2554037966
 40
0.3046840737
 40
0.3537048192
 40
0.4025524989
 40
0.451300081
 40
0.5000000002
 40
0.5486999194
 40
0.5974475016
 40
0.6462951813
 40
0.6953159267
 40
0.7445962038
 40
0.7942560034
 40
0.8444291002
 40
0.895304657
 40
0.9470891602
 40
1.0
 40
1.0
 40
1.0
 40
1.0
 10
11.4111124568
 20
7.6649134716
 30
0.0
 10
11.4046166327
 20
7.6629792929
 30
0.0
 10
11.391719534
 20
7.6592968902
 30
0.0
 10
11.3724287554
 20
7.6542899185
 30
0.0
 10
11.353357767
 20
7.649856268
 30
0.0
 10
11.3344409854
 20
7.6459912645
 30
0.0
 10
11.3156237651
 20
7.6426966926
 30
0.0
 10
11.2968634872
 20
7.6399793995
 30
0.0
 10
11.2781319686
 20
7.6378496178
 30
0.0
 10
11.2594103656
 20
7.6363182184
 30
0.0
 10
11.2406899687
 20
7.6353949246
 30
0.0
 10
11.221968226
 20
7.635086373
 30
0.0
 10
11.2032464833
 20
7.6353949246
 30
0.0
 10
11.1845260864
 20
7.6363182184
 30
0.0
 10
11.1658044834
 20
7.6378496178
 30
0.0
 10
11.1470729649
 20
7.6399793995
 30
0.0
 10
11.1283126869
 20
7.6426966926
 30
0.0
 10
11.1094954666
 20
7.6459912645
 30
0.0
 10
11.0905786851
 20
7.6498562681
 30
0.0
 10
11.0715076967
 20
7.6542899185
 30
0.0
 10
11.0522169182
 20
7.6592968902
 30
0.0
 10
11.0393198195
 20
7.6629792929
 30
0.0
 10
11.0328239954
 20
7.6649134716
 30
0.0
 11
11.4111124568
 21
7.6649134716
 31
0.0
 11
11.391559045
 21
7.6593371747
 31
0.0
 11
11.3722955894
 21
7.654343594
 31
0.0
 11
11.3532512597
 21
7.6499220619
 31
0.0
 11
11.3343595321
 21
7.6460676442
 31
0.0
 11
11.3155609668
 21
7.6427812653
 31
0.0
 11
11.2968181211
 21
7.640070768
 31
0.0
 11
11.2781002423
 21
7.6379460325
 31
0.0
 11
11.2593909392
 21
7.6364182396
 31
0.0
 11
11.2406804901
 21
7.6354970422
 31
0.0
 11
11.221968226
 21
7.63518919
 31
0.0
 11
11.2032559619
 21
7.6354970422
 31
0.0
 11
11.1845455128
 21
7.6364182396
 31
0.0
 11
11.1658362097
 21
7.6379460325
 31
0.0
 11
11.1471183309
 21
7.640070768
 31
0.0
 11
11.1283754852
 21
7.6427812653
 31
0.0
 11
11.10957692
 21
7.6460676443
 31
0.0
 11
11.0906851923
 21
7.649922062
 31
0.0
 11
11.0716408628
 21
7.654343594
 31
0.0
 11
11.0523774072
 21
7.6593371747
 31
0.0
 11
11.0328239954
 21
7.6649134716
 31
0.0
  0
ENDSEC
  0
SECTION
  2
OBJECTS
  0
DICTIONARY
  5
C
100
AcDbDictionary
280
0
281
1
  3
ACAD_GROUP
350
D
  3
ACAD_MLINESTYLE
350
17
  3
ACAD_LAYOUT
350
1A
  3
ACAD_PLOTSETTINGS
350
19
  3
ACAD_PLOTSTYLENAME
350
E
  0
DICTIONARY
  5
D
102
{ACAD_REACTORS
330
C
102
}
100
AcDbDictionary
280
0
281
1
  0
ACDBDICTIONARYWDFLT
  5
E
102
{ACAD_REACTORS
330
C
102
}
100
AcDbDictionary
281
1
  3
Normal
350
F
100
AcDbDictionaryWithDefault
340
F
  0
DICTIONARY
  5
17
102
{ACAD_REACTORS
330
C
102
}
100
AcDbDictionary
280
0
281
1
  3
Standard
350
18
  0
DICTIONARY
  5
19
102
{ACAD_REACTORS
330
C
102
}
100
AcDbDictionary
281
1
  0
DICTIONARY
  5
1A
102
{ACAD_REACTORS
330
C
102
}
100
AcDbDictionary
281
1
  3
Layout1
350
1E
  3
Model
350
22
  0
ACDBPLACEHOLDER
  5
F
102
{ACAD_REACTORS
330
E
102
}
  0
MLINESTYLE
  5
18
102
{ACAD_REACTORS
330
17
102
}
100
AcDbMlineStyle
  2
STANDARD
 70
0
  3

 62
256
 51
90.0
 52
90.0
 71
2
 49
0.5
 62
256
  6
BYLAYER
 49
-0.5
 62
256
  6
BYLAYER
  0
LAYOUT
  5
1E
102
{ACAD_REACTORS
330
1A
102
}
100
AcDbPlotSettings
  1

  2

  4

  6

 40
0.0
 41
0.0
 42
0.0
 43
0.0
 44
0.0
 45
0.0
 46
0.0
 47
0.0
 48
0.0
 49
0.0
140
0.0
141
0.0
142
1.0
143
1.0
 70
0
 72
0
 73
0
 74
0
  7

 75
0
147
1.0
148
0.0
149
0.0
100
AcDbLayout
  1
Layout1
 70
0
 71
0
 10
0.0
 20
0.0
 11
0.0
 21
0.0
 12
0.0
 22
0.0
 32
0.0
 14
0.0
 24
0.0
 34
0.0
 15
0.0
 25
0.0
 35
0.0
146
0.0
 13
0.0
 23
0.0
 33
0.0
 16
0.0
 26
0.0
 36
0.0
 17
0.0
 27
0.0
 37
0.0
 76
0
330
1B
331
0
345
0
346
0
  0
LAYOUT
  5
22
102
{ACAD_REACTORS
330
1A
102
}
100
AcDbPlotSettings
  1

  2

  4

  6

 40
0.0
 41
0.0
 42
0.0
 43
0.0
 44
0.0
 45
0.0
 46
0.0
 47
0.0
 48
0.0
 49
0.0
140
0.0
141
0.0
142
1.0
143
1.0
 70
0
 72
0
 73
0
 74
0
  7

 75
0
147
1.0
148
0.0
149
0.0
100
AcDbLayout
  1
Model
 70
0
 71
0
 10
0.0
 20
0.0
 11
0.0
 21
0.0
 12
0.0
 22
0.0
 32
0.0
 14
0.0
 24
0.0
 34
0.0
 15
0.0
 25
0.0
 35
0.0
146
0.0
 13
0.0
 23
0.0
 33
0.0
 16
0.0
 26
0.0
 36
0.0
 17
0.0
 27
0.0
 37
0.0
 76
0
330
1F
331
0
345
0
346
0
  0
ENDSEC
  0
EOF
