999
DXF file: A7K_6.dxf
999
Pro/ENGINEER 2006240 by Parametric Technology Corporation
  0
SECTION
  2
HEADER
  9
$ACADVER
  1
AC1015
  9
$DWGCODEPAGE
  3
ANSI_1252
  9
$EXTMAX
 10
22.0
 20
17.0
 30
0.0
  9
$EXTMIN
 10
0.0
 20
0.0
 30
0.0
  9
$LIMMIN
 10
0.0
 20
0.0
  9
$LIMMAX
 10
22.0
 20
17.0
  9
$VIEWCTR
 10
11.0
 20
8.5
  9
$VIEWSIZE
 40
17.0
  9
$CLAYER
  8
0
  9
$LTSCALE
 40
1.21
  9
$CELTYPE
  6
BYLAYER
  9
$DIMSCALE
 40
1.0
  9
$DIMASZ
 40
0.1875
  9
$DIMEXO
 40
0.1375
  9
$DIMDLI
 40
0.836
  9
$DIMEXE
 40
0.396
  9
$DIMCEN
 40
0.198
  9
$DIMLFAC
 40
1.0
  9
$DIMBLK
  1
_CLOSED
  9
$DIMTXT
 40
0.15625
  9
$DIMTOL
 70
0
  9
$DIMLIM
 70
0
  9
$DIMTFAC
 40
1.0
  9
$PDMODE
 70
3
  9
$PDSIZE
 40
0.3125
  9
$HANDSEED
  5
732
  9
$MEASUREMENT
 70
0
  9
$INSUNITS
 70
1
  0
ENDSEC
  0
SECTION
  2
CLASSES
  0
CLASS
  1
ACDBDICTIONARYWDFLT
  2
AcDbDictionaryWithDefault
  3
AutoCAD 2000
 90
0
280
0
281
0
  0
CLASS
  1
ACDBPLACEHOLDER
  2
AcDbPlaceHolder
  3
AutoCAD 2000
 90
0
280
0
281
0
  0
CLASS
  1
LAYOUT
  2
AcDbLayout
  3
AutoCAD 2000
 90
0
280
0
281
0
  0
ENDSEC
  0
SECTION
  2
TABLES
  0
TABLE
  2
VPORT
  5
8
100
AcDbSymbolTable
 70
2
  0
VPORT
  5
1F4
100
AcDbSymbolTableRecord
100
AcDbViewportTableRecord
  2
*ACTIVE
 70
0
 10
0.0
 20
0.0
 11
1.0
 21
1.0
 12
11.0
 22
8.5
 13
0.0
 23
0.0
 14
1.0
 24
1.0
 15
0.0
 25
0.0
 16
0.0
 26
0.0
 36
1.0
 17
0.0
 27
0.0
 37
0.0
 40
17.0
 41
1.2941176471
 42
50.0
 43
0.0
 44
0.0
 50
0.0
 51
0.0
 71
0
 72
100
 73
1
 74
1
 75
0
 76
0
 77
0
 78
0
  0
ENDTAB
  0
TABLE
  2
LTYPE
  5
5
100
AcDbSymbolTable
 70
6
  0
LTYPE
  5
14
100
AcDbSymbolTableRecord
100
AcDbLinetypeTableRecord
  2
BYBLOCK
 70
0
  3

 72
65
 73
0
 40
0.0
  0
LTYPE
  5
15
100
AcDbSymbolTableRecord
100
AcDbLinetypeTableRecord
  2
BYLAYER
 70
0
  3

 72
65
 73
0
 40
0.0
  0
LTYPE
  5
16
100
AcDbSymbolTableRecord
100
AcDbLinetypeTableRecord
  2
CONTINUOUS
 70
64
  3
Solid line
 72
65
 73
0
 40
0.0
  0
LTYPE
  5
1F5
100
AcDbSymbolTableRecord
100
AcDbLinetypeTableRecord
  2
CENTER
 70
64
  3
____ _ ____ _ ____ _ ____ _ ____ _ ____ _ ____
 72
65
 73
4
 40
0.6
 49
0.375
 74
0
 49
-0.075
 74
0
 49
0.075
 74
0
 49
-0.075
 74
0
  0
LTYPE
  5
1F6
100
AcDbSymbolTableRecord
100
AcDbLinetypeTableRecord
  2
HIDDEN
 70
64
  3
- - - - - - - - - - - - - - - - - - - -
 72
65
 73
2
 40
0.2
 49
0.1
 74
0
 49
-0.1
 74
0
  0
LTYPE
  5
1F7
100
AcDbSymbolTableRecord
100
AcDbLinetypeTableRecord
  2
PHANTOM
 70
64
  3
_____ _ _ _____ _ _ _____ _ _ _____
 72
65
 73
6
 40
0.8
 49
0.45
 74
0
 49
-0.05
 74
0
 49
0.1
 74
0
 49
-0.05
 74
0
 49
0.1
 74
0
 49
-0.05
 74
0
  0
LTYPE
  5
1F8
100
AcDbSymbolTableRecord
100
AcDbLinetypeTableRecord
  2
DOT
 70
64
  3
. . . . . . . . . . . . . . . . . . . .
 72
65
 73
2
 40
0.2
 49
0.1
 74
0
 49
-0.1
 74
0
  0
LTYPE
  5
1F9
100
AcDbSymbolTableRecord
100
AcDbLinetypeTableRecord
  2
DASHED
 70
64
  3
- - - - - - - - - - - - - - - - - - - -
 72
65
 73
2
 40
0.2
 49
0.1
 74
0
 49
-0.1
 74
0
  0
ENDTAB
  0
TABLE
  2
LAYER
  5
2
100
AcDbSymbolTable
 70
36
  0
LAYER
  5
10
100
AcDbSymbolTableRecord
100
AcDbLayerTableRecord
  2
0
 70
0
 62
7
  6
CONTINUOUS
370
-3
390
F
  0
LAYER
  5
1FA
100
AcDbSymbolTableRecord
100
AcDbLayerTableRecord
  2
DEFAULT_1
 70
0
 62
7
  6
CENTER
370
-3
390
F
  0
LAYER
  5
1FB
100
AcDbSymbolTableRecord
100
AcDbLayerTableRecord
  2
DEFAULT_2
 70
0
 62
8
  6
HIDDEN
370
-3
390
F
  0
LAYER
  5
1FC
100
AcDbSymbolTableRecord
100
AcDbLayerTableRecord
  2
DEFAULT_3
 70
0
 62
7
  6
PHANTOM
370
-3
390
F
  0
LAYER
  5
1FD
100
AcDbSymbolTableRecord
100
AcDbLayerTableRecord
  2
_BLACK_HOLE
 70
0
 62
7
  6
CONTINUOUS
370
-3
390
F
  0
LAYER
  5
1FE
100
AcDbSymbolTableRecord
100
AcDbLayerTableRecord
  2
01_ALL_DTM_PLN
 70
0
 62
7
  6
CONTINUOUS
370
-3
390
F
  0
LAYER
  5
1FF
100
AcDbSymbolTableRecord
100
AcDbLayerTableRecord
  2
01__ASM_ALL_DTM_PLN
 70
0
 62
7
  6
CONTINUOUS
370
-3
390
F
  0
LAYER
  5
200
100
AcDbSymbolTableRecord
100
AcDbLayerTableRecord
  2
01__ASM_DEF_DTM_PLN
 70
0
 62
7
  6
CONTINUOUS
370
-3
390
F
  0
LAYER
  5
201
100
AcDbSymbolTableRecord
100
AcDbLayerTableRecord
  2
01___PRT_ALL_DTM_PLN
 70
0
 62
7
  6
CONTINUOUS
370
-3
390
F
  0
LAYER
  5
202
100
AcDbSymbolTableRecord
100
AcDbLayerTableRecord
  2
01___PRT_DEF_DTM_PLN
 70
0
 62
7
  6
CONTINUOUS
370
-3
390
F
  0
LAYER
  5
203
100
AcDbSymbolTableRecord
100
AcDbLayerTableRecord
  2
02_ALL_AXES
 70
0
 62
7
  6
CONTINUOUS
370
-3
390
F
  0
LAYER
  5
204
100
AcDbSymbolTableRecord
100
AcDbLayerTableRecord
  2
02__ASM_ALL_AXES
 70
0
 62
7
  6
CONTINUOUS
370
-3
390
F
  0
LAYER
  5
205
100
AcDbSymbolTableRecord
100
AcDbLayerTableRecord
  2
02___PRT_ALL_AXES
 70
0
 62
7
  6
CONTINUOUS
370
-3
390
F
  0
LAYER
  5
206
100
AcDbSymbolTableRecord
100
AcDbLayerTableRecord
  2
03_ALL_CURVES
 70
0
 62
7
  6
CONTINUOUS
370
-3
390
F
  0
LAYER
  5
207
100
AcDbSymbolTableRecord
100
AcDbLayerTableRecord
  2
03__ASM_ALL_CURVES
 70
0
 62
7
  6
CONTINUOUS
370
-3
390
F
  0
LAYER
  5
208
100
AcDbSymbolTableRecord
100
AcDbLayerTableRecord
  2
03___PRT_ALL_CURVES
 70
0
 62
7
  6
CONTINUOUS
370
-3
390
F
  0
LAYER
  5
209
100
AcDbSymbolTableRecord
100
AcDbLayerTableRecord
  2
04_ALL_DTM_PNT
 70
0
 62
7
  6
CONTINUOUS
370
-3
390
F
  0
LAYER
  5
20A
100
AcDbSymbolTableRecord
100
AcDbLayerTableRecord
  2
04__ASM_ALL_DTM_PNT
 70
0
 62
7
  6
CONTINUOUS
370
-3
390
F
  0
LAYER
  5
20B
100
AcDbSymbolTableRecord
100
AcDbLayerTableRecord
  2
04___PRT_ALL_DTM_PNT
 70
0
 62
7
  6
CONTINUOUS
370
-3
390
F
  0
LAYER
  5
20C
100
AcDbSymbolTableRecord
100
AcDbLayerTableRecord
  2
05_ALL_DTM_CSYS
 70
0
 62
7
  6
CONTINUOUS
370
-3
390
F
  0
LAYER
  5
20D
100
AcDbSymbolTableRecord
100
AcDbLayerTableRecord
  2
05__ASM_ALL_DTM_CSYS
 70
0
 62
7
  6
CONTINUOUS
370
-3
390
F
  0
LAYER
  5
20E
100
AcDbSymbolTableRecord
100
AcDbLayerTableRecord
  2
05__ASM_DEF_DTM_CSYS
 70
0
 62
7
  6
CONTINUOUS
370
-3
390
F
  0
LAYER
  5
20F
100
AcDbSymbolTableRecord
100
AcDbLayerTableRecord
  2
05___PRT_ALL_DTM_CSYS
 70
0
 62
7
  6
CONTINUOUS
370
-3
390
F
  0
LAYER
  5
210
100
AcDbSymbolTableRecord
100
AcDbLayerTableRecord
  2
05___PRT_DEF_DTM_CSYS
 70
0
 62
7
  6
CONTINUOUS
370
-3
390
F
  0
LAYER
  5
211
100
AcDbSymbolTableRecord
100
AcDbLayerTableRecord
  2
06_ALL_SURFS
 70
0
 62
7
  6
CONTINUOUS
370
-3
390
F
  0
LAYER
  5
212
100
AcDbSymbolTableRecord
100
AcDbLayerTableRecord
  2
06__ASM_ALL_SURFS
 70
0
 62
7
  6
CONTINUOUS
370
-3
390
F
  0
LAYER
  5
213
100
AcDbSymbolTableRecord
100
AcDbLayerTableRecord
  2
06___PRT_ALL_SURFS
 70
0
 62
7
  6
CONTINUOUS
370
-3
390
F
  0
LAYER
  5
214
100
AcDbSymbolTableRecord
100
AcDbLayerTableRecord
  2
07__ASM_ALL_SKELETONS
 70
0
 62
7
  6
CONTINUOUS
370
-3
390
F
  0
LAYER
  5
215
100
AcDbSymbolTableRecord
100
AcDbLayerTableRecord
  2
A7K_10
 70
0
 62
7
  6
CONTINUOUS
370
-3
390
F
  0
LAYER
  5
216
100
AcDbSymbolTableRecord
100
AcDbLayerTableRecord
  2
A7K_2
 70
0
 62
7
  6
CONTINUOUS
370
-3
390
F
  0
LAYER
  5
217
100
AcDbSymbolTableRecord
100
AcDbLayerTableRecord
  2
A7K_5
 70
0
 62
7
  6
CONTINUOUS
370
-3
390
F
  0
LAYER
  5
218
100
AcDbSymbolTableRecord
100
AcDbLayerTableRecord
  2
A7K_6
 70
0
 62
7
  6
CONTINUOUS
370
-3
390
F
  0
LAYER
  5
219
100
AcDbSymbolTableRecord
100
AcDbLayerTableRecord
  2
A7K_7
 70
0
 62
7
  6
CONTINUOUS
370
-3
390
F
  0
LAYER
  5
21A
100
AcDbSymbolTableRecord
100
AcDbLayerTableRecord
  2
COPY_GEO_FET
 70
0
 62
7
  6
CONTINUOUS
370
-3
390
F
  0
LAYER
  5
21B
100
AcDbSymbolTableRecord
100
AcDbLayerTableRecord
  2
COSMETIC
 70
0
 62
7
  6
CONTINUOUS
370
-3
390
F
  0
LAYER
  5
21C
100
AcDbSymbolTableRecord
100
AcDbLayerTableRecord
  2
CUT_REF_SURF
 70
0
 62
7
  6
CONTINUOUS
370
-3
390
F
  0
LAYER
  5
21D
100
AcDbSymbolTableRecord
100
AcDbLayerTableRecord
  2
DATESTAMP
 70
0
 62
7
  6
CONTINUOUS
370
-3
390
F
  0
LAYER
  5
21E
100
AcDbSymbolTableRecord
100
AcDbLayerTableRecord
  2
DATUM
 70
0
 62
7
  6
CONTINUOUS
370
-3
390
F
  0
LAYER
  5
21F
100
AcDbSymbolTableRecord
100
AcDbLayerTableRecord
  2
DATUM_B
 70
0
 62
7
  6
CONTINUOUS
370
-3
390
F
  0
LAYER
  5
220
100
AcDbSymbolTableRecord
100
AcDbLayerTableRecord
  2
DATUM_PLANES
 70
0
 62
7
  6
CONTINUOUS
370
-3
390
F
  0
LAYER
  5
221
100
AcDbSymbolTableRecord
100
AcDbLayerTableRecord
  2
DIM
 70
0
 62
7
  6
CONTINUOUS
370
-3
390
F
  0
LAYER
  5
222
100
AcDbSymbolTableRecord
100
AcDbLayerTableRecord
  2
DIM_1
 70
0
 62
7
  6
CONTINUOUS
370
-3
390
F
  0
LAYER
  5
223
100
AcDbSymbolTableRecord
100
AcDbLayerTableRecord
  2
DIM_2
 70
0
 62
7
  6
CONTINUOUS
370
-3
390
F
  0
LAYER
  5
224
100
AcDbSymbolTableRecord
100
AcDbLayerTableRecord
  2
DIM_3
 70
0
 62
7
  6
CONTINUOUS
370
-3
390
F
  0
LAYER
  5
225
100
AcDbSymbolTableRecord
100
AcDbLayerTableRecord
  2
DIM_4
 70
0
 62
7
  6
CONTINUOUS
370
-3
390
F
  0
LAYER
  5
226
100
AcDbSymbolTableRecord
100
AcDbLayerTableRecord
  2
DIM_5
 70
0
 62
7
  6
CONTINUOUS
370
-3
390
F
  0
LAYER
  5
227
100
AcDbSymbolTableRecord
100
AcDbLayerTableRecord
  2
DIM_6
 70
0
 62
7
  6
CONTINUOUS
370
-3
390
F
  0
LAYER
  5
228
100
AcDbSymbolTableRecord
100
AcDbLayerTableRecord
  2
DIM_7
 70
0
 62
7
  6
CONTINUOUS
370
-3
390
F
  0
LAYER
  5
229
100
AcDbSymbolTableRecord
100
AcDbLayerTableRecord
  2
DIM_8
 70
0
 62
7
  6
CONTINUOUS
370
-3
390
F
  0
LAYER
  5
22A
100
AcDbSymbolTableRecord
100
AcDbLayerTableRecord
  2
DTM
 70
0
 62
7
  6
CONTINUOUS
370
-3
390
F
  0
LAYER
  5
22B
100
AcDbSymbolTableRecord
100
AcDbLayerTableRecord
  2
EXT_COPY_GEO
 70
0
 62
7
  6
CONTINUOUS
370
-3
390
F
  0
LAYER
  5
22C
100
AcDbSymbolTableRecord
100
AcDbLayerTableRecord
  2
LS
 70
0
 62
7
  6
CONTINUOUS
370
-3
390
F
  0
LAYER
  5
22D
100
AcDbSymbolTableRecord
100
AcDbLayerTableRecord
  2
ORIGIN
 70
0
 62
7
  6
CONTINUOUS
370
-3
390
F
  0
LAYER
  5
22E
100
AcDbSymbolTableRecord
100
AcDbLayerTableRecord
  2
PARTNUMBER
 70
0
 62
7
  6
CONTINUOUS
370
-3
390
F
  0
LAYER
  5
22F
100
AcDbSymbolTableRecord
100
AcDbLayerTableRecord
  2
PORT_AREAS
 70
0
 62
7
  6
CONTINUOUS
370
-3
390
F
  0
LAYER
  5
230
100
AcDbSymbolTableRecord
100
AcDbLayerTableRecord
  2
TEXT
 70
0
 62
7
  6
CONTINUOUS
370
-3
390
F
  0
LAYER
  5
231
100
AcDbSymbolTableRecord
100
AcDbLayerTableRecord
  2
THREAD
 70
0
 62
7
  6
CONTINUOUS
370
-3
390
F
  0
LAYER
  5
232
100
AcDbSymbolTableRecord
100
AcDbLayerTableRecord
  2
THREADS
 70
0
 62
7
  6
CONTINUOUS
370
-3
390
F
  0
ENDTAB
  0
TABLE
  2
STYLE
  5
3
100
AcDbSymbolTable
 70
1
  0
STYLE
  5
11
100
AcDbSymbolTableRecord
100
AcDbTextStyleTableRecord
  2
STANDARD
 70
0
 40
0.0
 41
0.8
 50
0.0
 71
0
 42
0.2
  3
txt
  4

  0
ENDTAB
  0
TABLE
  2
VIEW
  5
6
100
AcDbSymbolTable
 70
0
  0
ENDTAB
  0
TABLE
  2
UCS
  5
7
100
AcDbSymbolTable
 70
0
  0
ENDTAB
  0
TABLE
  2
APPID
  5
9
100
AcDbSymbolTable
 70
1
  0
APPID
  5
233
100
AcDbSymbolTableRecord
100
AcDbRegAppTableRecord
  2
ACAD
 70
0
  0
ENDTAB
  0
TABLE
  2
BLOCK_RECORD
  5
1
100
AcDbSymbolTable
 70
0
  0
BLOCK_RECORD
  5
1F
100
AcDbSymbolTableRecord
100
AcDbBlockTableRecord
  2
*MODEL_SPACE
  0
BLOCK_RECORD
  5
1B
100
AcDbSymbolTableRecord
100
AcDbBlockTableRecord
  2
*PAPER_SPACE
  0
ENDTAB
  0
TABLE
  2
DIMSTYLE
  5
A
100
AcDbSymbolTable
 70
1
100
AcDbDimStyleTable
 71
0
  0
DIMSTYLE
105
234
100
AcDbSymbolTableRecord
100
AcDbDimStyleTableRecord
  2
STANDARD
 70
0
  3

  4

 40
1.0
 41
0.1875
 42
0.0625
 43
0.38
 44
0.18
 45
0.0
 46
0.0
 47
0.01
 48
0.01
140
0.15625
141
0.09
142
0.0
143
25.4
144
1.0
145
0.0
146
1.0
147
0.09
 71
0.0
 72
0.0
 73
1
 74
1
 75
0
 76
0
 77
0
 78
4
170
0
171
2
172
0
173
0
174
0
175
0
176
0
177
0
178
0
270
2
271
2
272
2
273
2
274
2
275
0
280
0
281
0
282
0
283
1
284
4
285
0
286
0
287
3
288
0
340
11
  0
ENDTAB
  0
ENDSEC
  0
SECTION
  2
BLOCKS
  0
BLOCK
  5
20
100
AcDbEntity
  8
0
100
AcDbBlockBegin
  2
*MODEL_SPACE
 70
0
 10
0.0
 20
0.0
 30
0.0
  3
*MODEL_SPACE
  1

  0
ENDBLK
  5
21
100
AcDbEntity
  8
0
100
AcDbBlockEnd
  0
BLOCK
  5
1C
100
AcDbEntity
  8
0
100
AcDbBlockBegin
  2
*PAPER_SPACE
 70
0
 10
0.0
 20
0.0
 30
0.0
  3
*PAPER_SPACE
  1

  0
ENDBLK
  5
1D
100
AcDbEntity
  8
0
100
AcDbBlockEnd
  0
ENDSEC
  0
SECTION
  2
ENTITIES
  0
LINE
  5
235
100
AcDbEntity
  8
03__ASM_ALL_CURVES
100
AcDbLine
 62
4
  6
CONTINUOUS
 10
7.6193472635
 20
6.2021383112
 11
7.6279514281
 21
6.1956851862
  0
LINE
  5
236
100
AcDbEntity
  8
03__ASM_ALL_CURVES
100
AcDbLine
 62
4
  6
CONTINUOUS
 10
7.6709722635
 20
6.2085914362
 11
7.6881805966
 21
6.1956851862
  0
LINE
  5
237
100
AcDbEntity
  8
03__ASM_ALL_CURVES
100
AcDbLine
 62
4
  6
CONTINUOUS
 10
7.6107430989
 20
6.3634664362
 11
7.6021389281
 21
6.3699195612
  0
LINE
  5
238
100
AcDbEntity
  8
03__ASM_ALL_CURVES
100
AcDbLine
 62
4
  6
CONTINUOUS
 10
7.6795764296
 20
6.4021851862
 11
7.6881805966
 21
6.3957320612
  0
LINE
  5
239
100
AcDbEntity
  8
03__ASM_ALL_CURVES
100
AcDbLine
 62
4
  6
CONTINUOUS
 10
7.6021389281
 20
6.1569664362
 11
7.5935347635
 21
6.1698726862
  0
LINE
  5
23A
100
AcDbEntity
  8
03__ASM_ALL_CURVES
100
AcDbLine
 62
4
  6
CONTINUOUS
 10
7.6279514281
 20
6.1956851862
 11
7.6365555989
 21
6.1827789362
  0
LINE
  5
23B
100
AcDbEntity
  8
03__ASM_ALL_CURVES
100
AcDbLine
 62
4
  6
CONTINUOUS
 10
7.6881805966
 20
6.1956851862
 11
7.6967847635
 21
6.1827789362
  0
LINE
  5
23C
100
AcDbEntity
  8
03__ASM_ALL_CURVES
100
AcDbLine
 62
4
  6
CONTINUOUS
 10
7.6021389281
 20
6.3699195612
 11
7.5935347635
 21
6.3828258112
  0
LINE
  5
23D
100
AcDbEntity
  8
03__ASM_ALL_CURVES
100
AcDbLine
 62
4
  6
CONTINUOUS
 10
7.6279514281
 20
6.3570133112
 11
7.6107430989
 21
6.3634664362
  0
LINE
  5
23E
100
AcDbEntity
  8
03__ASM_ALL_CURVES
100
AcDbLine
 62
4
  6
CONTINUOUS
 10
7.6623680958
 20
6.4086383112
 11
7.6795764296
 21
6.4021851862
  0
LINE
  5
23F
100
AcDbEntity
  8
03__ASM_ALL_CURVES
100
AcDbLine
 62
4
  6
CONTINUOUS
 10
7.5935347635
 20
6.5957789362
 11
7.6107430989
 21
6.5828726862
  0
LINE
  5
240
100
AcDbEntity
  8
03__ASM_ALL_CURVES
100
AcDbLine
 62
4
  6
CONTINUOUS
 10
7.6107430989
 20
6.7764664362
 11
7.6021389281
 21
6.7829195612
  0
LINE
  5
241
100
AcDbEntity
  8
03__ASM_ALL_CURVES
100
AcDbLine
 62
4
  6
CONTINUOUS
 10
7.6881805966
 20
6.3957320612
 11
7.6967847635
 21
6.3828258112
  0
LINE
  5
242
100
AcDbEntity
  8
03__ASM_ALL_CURVES
100
AcDbLine
 62
4
  6
CONTINUOUS
 10
7.6021389281
 20
6.7829195612
 11
7.5935347635
 21
6.7958258112
  0
LINE
  5
243
100
AcDbEntity
  8
03__ASM_ALL_CURVES
100
AcDbLine
 62
4
  6
CONTINUOUS
 10
7.8351597635
 20
11.5842008112
 11
7.8276597635
 21
11.5742008136
  0
LINE
  5
244
100
AcDbEntity
  8
03__ASM_ALL_CURVES
100
AcDbLine
 62
4
  6
CONTINUOUS
 10
7.8426597635
 20
11.5242008112
 11
7.8276597635
 21
11.5042008115
  0
LINE
  5
245
100
AcDbEntity
  8
03__ASM_ALL_CURVES
100
AcDbLine
 62
4
  6
CONTINUOUS
 10
7.7826597635
 20
11.6042008136
 11
7.7976597635
 21
11.6142008112
  0
LINE
  5
246
100
AcDbEntity
  8
03__ASM_ALL_CURVES
100
AcDbLine
 62
4
  6
CONTINUOUS
 10
7.8276597635
 20
11.5742008136
 11
7.8126597635
 21
11.5642008089
  0
LINE
  5
247
100
AcDbEntity
  8
03__ASM_ALL_CURVES
100
AcDbLine
 62
4
  6
CONTINUOUS
 10
7.8276597635
 20
11.5042008115
 11
7.8126597635
 21
11.4942008112
  0
LINE
  5
248
100
AcDbEntity
  8
03__ASM_ALL_CURVES
100
AcDbLine
 62
4
  6
CONTINUOUS
 10
8.6709722635
 20
6.2602164362
 11
8.6967847635
 21
6.2537633112
  0
LINE
  5
249
100
AcDbEntity
  8
03__ASM_ALL_CURVES
100
AcDbLine
 62
4
  6
CONTINUOUS
 10
7.6279514281
 20
6.7054820612
 11
7.5935347635
 21
6.7183883112
  0
LINE
  5
24A
100
AcDbEntity
  8
03__ASM_ALL_CURVES
100
AcDbLine
 62
4
  6
CONTINUOUS
 10
7.6795764296
 20
6.8151851862
 11
7.6881805966
 21
6.8087320612
  0
LINE
  5
24B
100
AcDbEntity
  8
03__ASM_ALL_CURVES
100
AcDbLine
 62
4
  6
CONTINUOUS
 10
8.6107430989
 20
6.2537633112
 11
8.6021389281
 21
6.2602164362
  0
LINE
  5
24C
100
AcDbEntity
  8
03__ASM_ALL_CURVES
100
AcDbLine
 62
4
  6
CONTINUOUS
 10
8.6537639312
 20
6.2731226862
 11
8.6709722635
 21
6.2602164362
  0
LINE
  5
24D
100
AcDbEntity
  8
03__ASM_ALL_CURVES
100
AcDbLine
 62
4
  6
CONTINUOUS
 10
8.6279514281
 20
6.3053883112
 11
8.6365555989
 21
6.2989351862
  0
LINE
  5
24E
100
AcDbEntity
  8
03__ASM_ALL_CURVES
100
AcDbLine
 62
4
  6
CONTINUOUS
 10
7.6107430989
 20
7.0862164362
 11
7.6021389281
 21
7.0926695612
  0
LINE
  5
24F
100
AcDbEntity
  8
03__ASM_ALL_CURVES
100
AcDbLine
 62
4
  6
CONTINUOUS
 10
7.6795764296
 20
7.1249351862
 11
7.6881805966
 21
7.1184820612
  0
LINE
  5
250
100
AcDbEntity
  8
03__ASM_ALL_CURVES
100
AcDbLine
 62
4
  6
CONTINUOUS
 10
7.6881805966
 20
6.8087320612
 11
7.6967847635
 21
6.7958258112
  0
LINE
  5
251
100
AcDbEntity
  8
03__ASM_ALL_CURVES
100
AcDbLine
 62
4
  6
CONTINUOUS
 10
7.6021389281
 20
7.0926695612
 11
7.5935347635
 21
7.1055758112
  0
LINE
  5
252
100
AcDbEntity
  8
03__ASM_ALL_CURVES
100
AcDbLine
 62
4
  6
CONTINUOUS
 10
7.6881805966
 20
7.1184820612
 11
7.6967847635
 21
7.1055758112
  0
LINE
  5
253
100
AcDbEntity
  8
03__ASM_ALL_CURVES
100
AcDbLine
 62
4
  6
CONTINUOUS
 10
7.6451597635
 20
6.7764664362
 11
7.6365555989
 21
6.7958258112
  0
LINE
  5
254
100
AcDbEntity
  8
03__ASM_ALL_CURVES
100
AcDbLine
 62
4
  6
CONTINUOUS
 10
7.6451597635
 20
7.1249351862
 11
7.6537639312
 21
7.1055758112
  0
LINE
  5
255
100
AcDbEntity
  8
03__ASM_ALL_CURVES
100
AcDbLine
 62
4
  6
CONTINUOUS
 10
10.2873680958
 20
6.1505133112
 11
10.2529514281
 21
6.1505133112
  0
LINE
  5
256
100
AcDbEntity
  8
03__ASM_ALL_CURVES
100
AcDbLine
 62
4
  6
CONTINUOUS
 10
9.0935347635
 20
6.1763258112
 11
9.1967847635
 21
6.1763258112
  0
LINE
  5
257
100
AcDbEntity
  8
03__ASM_ALL_CURVES
100
AcDbLine
 62
4
  6
CONTINUOUS
 10
7.6107430989
 20
6.2021383112
 11
7.6193472635
 21
6.2021383112
  0
LINE
  5
258
100
AcDbEntity
  8
03__ASM_ALL_CURVES
100
AcDbLine
 62
4
  6
CONTINUOUS
 10
10.2529514281
 20
6.2021383112
 11
10.2873680958
 21
6.2021383112
  0
LINE
  5
259
100
AcDbEntity
  8
03__ASM_ALL_CURVES
100
AcDbLine
 62
4
  6
CONTINUOUS
 10
7.6623680958
 20
6.2085914362
 11
7.6709722635
 21
6.2085914362
  0
LINE
  5
25A
100
AcDbEntity
  8
03__ASM_ALL_CURVES
100
AcDbLine
 62
4
  6
CONTINUOUS
 10
9.0935347635
 20
6.3699195612
 11
9.1365555989
 21
6.3634664362
  0
LINE
  5
25B
100
AcDbEntity
  8
03__ASM_ALL_CURVES
100
AcDbLine
 62
4
  6
CONTINUOUS
 10
7.6107430989
 20
6.5828726862
 11
7.6365555989
 21
6.5764195612
  0
LINE
  5
25C
100
AcDbEntity
  8
03__ASM_ALL_CURVES
100
AcDbLine
 62
4
  6
CONTINUOUS
 10
7.6537639312
 20
6.6990289362
 11
7.6279514281
 21
6.7054820612
  0
LINE
  5
25D
100
AcDbEntity
  8
03__ASM_ALL_CURVES
100
AcDbLine
 62
4
  6
CONTINUOUS
 10
7.6279514281
 20
6.7700133112
 11
7.6107430989
 21
6.7764664362
  0
LINE
  5
25E
100
AcDbEntity
  8
03__ASM_ALL_CURVES
100
AcDbLine
 62
4
  6
CONTINUOUS
 10
7.6623680958
 20
6.7700133112
 11
7.6451597635
 21
6.7764664362
  0
LINE
  5
25F
100
AcDbEntity
  8
03__ASM_ALL_CURVES
100
AcDbLine
 62
4
  6
CONTINUOUS
 10
7.6623680958
 20
6.8216383112
 11
7.6795764296
 21
6.8151851862
  0
LINE
  5
260
100
AcDbEntity
  8
03__ASM_ALL_CURVES
100
AcDbLine
 62
4
  6
CONTINUOUS
 10
8.6279514281
 20
6.4602633112
 11
8.6107430989
 21
6.4667164362
  0
LINE
  5
261
100
AcDbEntity
  8
03__ASM_ALL_CURVES
100
AcDbLine
 62
4
  6
CONTINUOUS
 10
8.6623680958
 20
6.5118883112
 11
8.6795764296
 21
6.5054351862
  0
LINE
  5
262
100
AcDbEntity
  8
03__ASM_ALL_CURVES
100
AcDbLine
 62
4
  6
CONTINUOUS
 10
9.1623680958
 20
6.4150914362
 11
9.1795764296
 21
6.4086383112
  0
LINE
  5
263
100
AcDbEntity
  8
03__ASM_ALL_CURVES
100
AcDbLine
 62
4
  6
CONTINUOUS
 10
8.6107430989
 20
6.4667164362
 11
8.6021389281
 21
6.4731695612
  0
LINE
  5
264
100
AcDbEntity
  8
03__ASM_ALL_CURVES
100
AcDbLine
 62
4
  6
CONTINUOUS
 10
7.6795764296
 20
7.2152789362
 11
7.6967847635
 21
7.2023726862
  0
LINE
  5
265
100
AcDbEntity
  8
03__ASM_ALL_CURVES
100
AcDbLine
 62
4
  6
CONTINUOUS
 10
8.6795764296
 20
6.5054351862
 11
8.6881805966
 21
6.4989820612
  0
LINE
  5
266
100
AcDbEntity
  8
03__ASM_ALL_CURVES
100
AcDbLine
 62
4
  6
CONTINUOUS
 10
8.5935347635
 20
6.6990289362
 11
8.6107430989
 21
6.6861226862
  0
LINE
  5
267
100
AcDbEntity
  8
03__ASM_ALL_CURVES
100
AcDbLine
 62
4
  6
CONTINUOUS
 10
8.6021389281
 20
6.2602164362
 11
8.5935347635
 21
6.2731226862
  0
LINE
  5
268
100
AcDbEntity
  8
03__ASM_ALL_CURVES
100
AcDbLine
 62
4
  6
CONTINUOUS
 10
8.6365555989
 20
6.2989351862
 11
8.6537639312
 21
6.2731226862
  0
LINE
  5
269
100
AcDbEntity
  8
03__ASM_ALL_CURVES
100
AcDbLine
 62
4
  6
CONTINUOUS
 10
7.5935347635
 20
6.7183883112
 11
7.5935347635
 21
6.6667633112
  0
LINE
  5
26A
100
AcDbEntity
  8
03__ASM_ALL_CURVES
100
AcDbLine
 62
4
  6
CONTINUOUS
 10
7.5935347635
 20
6.1698726862
 11
7.5935347635
 21
6.1827789362
  0
LINE
  5
26B
100
AcDbEntity
  8
03__ASM_ALL_CURVES
100
AcDbLine
 62
4
  6
CONTINUOUS
 10
10.3217847635
 20
6.2957086237
 11
10.3088785131
 21
6.2957086237
  0
LINE
  5
26C
100
AcDbEntity
  8
03__ASM_ALL_CURVES
100
AcDbLine
 62
4
  6
CONTINUOUS
 10
9.1967847635
 20
6.2957086237
 11
9.1838785131
 21
6.2957086237
  0
LINE
  5
26D
100
AcDbEntity
  8
03__ASM_ALL_CURVES
100
AcDbLine
 62
4
  6
CONTINUOUS
 10
7.6967847635
 20
6.2957086237
 11
7.6838785131
 21
6.2957086237
  0
LINE
  5
26E
100
AcDbEntity
  8
03__ASM_ALL_CURVES
100
AcDbLine
 62
4
  6
CONTINUOUS
 10
8.6107430989
 20
6.3053883112
 11
8.6279514281
 21
6.3053883112
  0
LINE
  5
26F
100
AcDbEntity
  8
03__ASM_ALL_CURVES
100
AcDbLine
 62
4
  6
CONTINUOUS
 10
7.6623680958
 20
6.3570133112
 11
7.6279514281
 21
6.3570133112
  0
LINE
  5
270
100
AcDbEntity
  8
03__ASM_ALL_CURVES
100
AcDbLine
 62
4
  6
CONTINUOUS
 10
8.6967847635
 20
6.3989586237
 11
8.6838785131
 21
6.3989586237
  0
LINE
  5
271
100
AcDbEntity
  8
03__ASM_ALL_CURVES
100
AcDbLine
 62
4
  6
CONTINUOUS
 10
7.6279514281
 20
6.4086383112
 11
7.6623680958
 21
6.4086383112
  0
LINE
  5
272
100
AcDbEntity
  8
03__ASM_ALL_CURVES
100
AcDbLine
 62
4
  6
CONTINUOUS
 10
10.2357430989
 20
6.4086383112
 11
10.2443472635
 21
6.4086383112
  0
LINE
  5
273
100
AcDbEntity
  8
03__ASM_ALL_CURVES
100
AcDbLine
 62
4
  6
CONTINUOUS
 10
10.2873680958
 20
6.4150914362
 11
10.2959722635
 21
6.4150914362
  0
LINE
  5
274
100
AcDbEntity
  8
03__ASM_ALL_CURVES
100
AcDbLine
 62
4
  6
CONTINUOUS
 10
8.6623680958
 20
6.4602633112
 11
8.6279514281
 21
6.4602633112
  0
LINE
  5
275
100
AcDbEntity
  8
03__ASM_ALL_CURVES
100
AcDbLine
 62
4
  6
CONTINUOUS
 10
8.6279514281
 20
6.5118883112
 11
8.6623680958
 21
6.5118883112
  0
LINE
  5
276
100
AcDbEntity
  8
03__ASM_ALL_CURVES
100
AcDbLine
 62
4
  6
CONTINUOUS
 10
7.6967847635
 20
6.6925758112
 11
7.6537639312
 21
6.6990289362
  0
LINE
  5
277
100
AcDbEntity
  8
03__ASM_ALL_CURVES
100
AcDbLine
 62
4
  6
CONTINUOUS
 10
10.3217847635
 20
6.4860758112
 11
10.2787639312
 21
6.4925289362
  0
LINE
  5
278
100
AcDbEntity
  8
03__ASM_ALL_CURVES
100
AcDbLine
 62
4
  6
CONTINUOUS
 10
8.6107430989
 20
6.6861226862
 11
8.6365555989
 21
6.6796695612
  0
LINE
  5
279
100
AcDbEntity
  8
03__ASM_ALL_CURVES
100
AcDbLine
 62
4
  6
CONTINUOUS
 10
9.1107430989
 20
6.5828726862
 11
9.1365555989
 21
6.5764195612
  0
LINE
  5
27A
100
AcDbEntity
  8
03__ASM_ALL_CURVES
100
AcDbLine
 62
4
  6
CONTINUOUS
 10
7.6279514281
 20
7.0797633112
 11
7.6107430989
 21
7.0862164362
  0
LINE
  5
27B
100
AcDbEntity
  8
03__ASM_ALL_CURVES
100
AcDbLine
 62
4
  6
CONTINUOUS
 10
7.6279514281
 20
7.1313883112
 11
7.6451597635
 21
7.1249351862
  0
LINE
  5
27C
100
AcDbEntity
  8
03__ASM_ALL_CURVES
100
AcDbLine
 62
4
  6
CONTINUOUS
 10
10.2529514281
 20
6.1505133112
 11
10.2357430989
 21
6.1569664362
  0
LINE
  5
27D
100
AcDbEntity
  8
03__ASM_ALL_CURVES
100
AcDbLine
 62
4
  6
CONTINUOUS
 10
7.6623680958
 20
7.1313883112
 11
7.6795764296
 21
7.1249351862
  0
LINE
  5
27E
100
AcDbEntity
  8
03__ASM_ALL_CURVES
100
AcDbLine
 62
4
  6
CONTINUOUS
 10
10.2873680958
 20
6.2021383112
 11
10.3045764296
 21
6.1956851862
  0
LINE
  5
27F
100
AcDbEntity
  8
03__ASM_ALL_CURVES
100
AcDbLine
 62
4
  6
CONTINUOUS
 10
8.6623680958
 20
6.8280914362
 11
8.6795764296
 21
6.8216383112
  0
LINE
  5
280
100
AcDbEntity
  8
03__ASM_ALL_CURVES
100
AcDbLine
 62
4
  6
CONTINUOUS
 10
8.6279514281
 20
6.8732633112
 11
8.6107430989
 21
6.8797164362
  0
LINE
  5
281
100
AcDbEntity
  8
03__ASM_ALL_CURVES
100
AcDbLine
 62
4
  6
CONTINUOUS
 10
8.6623680958
 20
6.9248883112
 11
8.6795764296
 21
6.9184351862
  0
LINE
  5
282
100
AcDbEntity
  8
03__ASM_ALL_CURVES
100
AcDbLine
 62
4
  6
CONTINUOUS
 10
9.1795764296
 20
6.4086383112
 11
9.1881805966
 21
6.4021851862
  0
LINE
  5
283
100
AcDbEntity
  8
03__ASM_ALL_CURVES
100
AcDbLine
 62
4
  6
CONTINUOUS
 10
8.6795764296
 20
6.8216383112
 11
8.6881805966
 21
6.8151851862
  0
LINE
  5
284
100
AcDbEntity
  8
03__ASM_ALL_CURVES
100
AcDbLine
 62
4
  6
CONTINUOUS
 10
8.6107430989
 20
6.8797164362
 11
8.6021389281
 21
6.8861695612
  0
LINE
  5
285
100
AcDbEntity
  8
03__ASM_ALL_CURVES
100
AcDbLine
 62
4
  6
CONTINUOUS
 10
9.0935347635
 20
6.5957789362
 11
9.1107430989
 21
6.5828726862
  0
LINE
  5
286
100
AcDbEntity
  8
03__ASM_ALL_CURVES
100
AcDbLine
 62
4
  6
CONTINUOUS
 10
8.6795764296
 20
6.9184351862
 11
8.6881805966
 21
6.9119820612
  0
LINE
  5
287
100
AcDbEntity
  8
03__ASM_ALL_CURVES
100
AcDbLine
 62
4
  6
CONTINUOUS
 10
8.6107430989
 20
7.0797633112
 11
8.6021389281
 21
7.0862164362
  0
LINE
  5
288
100
AcDbEntity
  8
03__ASM_ALL_CURVES
100
AcDbLine
 62
4
  6
CONTINUOUS
 10
9.1193472635
 20
6.7183883112
 11
9.1279514281
 21
6.7119351862
  0
LINE
  5
289
100
AcDbEntity
  8
03__ASM_ALL_CURVES
100
AcDbLine
 62
4
  6
CONTINUOUS
 10
8.6021389281
 20
6.4731695612
 11
8.5935347635
 21
6.4860758112
  0
LINE
  5
28A
100
AcDbEntity
  8
03__ASM_ALL_CURVES
100
AcDbLine
 62
4
  6
CONTINUOUS
 10
8.6881805966
 20
6.4989820612
 11
8.6967847635
 21
6.4860758112
  0
LINE
  5
28B
100
AcDbEntity
  8
03__ASM_ALL_CURVES
100
AcDbLine
 62
4
  6
CONTINUOUS
 10
8.6365555989
 20
6.7764664362
 11
8.6279514281
 21
6.7893726862
  0
LINE
  5
28C
100
AcDbEntity
  8
03__ASM_ALL_CURVES
100
AcDbLine
 62
4
  6
CONTINUOUS
 10
8.6021389281
 20
6.8861695612
 11
8.5935347635
 21
6.8990758112
  0
LINE
  5
28D
100
AcDbEntity
  8
03__ASM_ALL_CURVES
100
AcDbLine
 62
4
  6
CONTINUOUS
 10
7.6365555989
 20
6.1698726862
 11
7.6365555989
 21
6.1827789362
  0
LINE
  5
28E
100
AcDbEntity
  8
03__ASM_ALL_CURVES
100
AcDbLine
 62
4
  6
CONTINUOUS
 10
7.6451597635
 20
8.4609508112
 11
7.6451597635
 21
7.6734508112
  0
LINE
  5
28F
100
AcDbEntity
  8
0
100
AcDbLine
 62
7
  6
CONTINUOUS
 10
7.6451597635
 20
8.5642008112
 11
7.6451597635
 21
12.1892008112
  0
LINE
  5
290
100
AcDbEntity
  8
03__ASM_ALL_CURVES
100
AcDbLine
 62
4
  6
CONTINUOUS
 10
7.6967847635
 20
6.9248883112
 11
7.6967847635
 21
6.9152086237
  0
LINE
  5
291
100
AcDbEntity
  8
03__ASM_ALL_CURVES
100
AcDbLine
 62
4
  6
CONTINUOUS
 10
7.6967847635
 20
6.3053883112
 11
7.6967847635
 21
6.2957086237
  0
LINE
  5
292
100
AcDbEntity
  8
03__ASM_ALL_CURVES
100
AcDbLine
 62
4
  6
CONTINUOUS
 10
7.6967847635
 20
6.1827789362
 11
7.6967847635
 21
6.1698726862
  0
LINE
  5
293
100
AcDbEntity
  8
03__ASM_ALL_CURVES
100
AcDbLine
 62
4
  6
CONTINUOUS
 10
7.8051597635
 20
9.4942008112
 11
7.8051597635
 21
9.3742008112
  0
LINE
  5
294
100
AcDbEntity
  8
03__ASM_ALL_CURVES
100
AcDbLine
 62
4
  6
CONTINUOUS
 10
7.8351597635
 20
11.5942008089
 11
7.8351597635
 21
11.5842008112
  0
LINE
  5
295
100
AcDbEntity
  8
03__ASM_ALL_CURVES
100
AcDbLine
 62
4
  6
CONTINUOUS
 10
7.8426597635
 20
11.5342008124
 11
7.8426597635
 21
11.5242008112
  0
LINE
  5
296
100
AcDbEntity
  8
03__ASM_ALL_CURVES
100
AcDbLine
 62
4
  6
CONTINUOUS
 10
10.2787639312
 20
6.6796695612
 11
10.3045764296
 21
6.6861226862
  0
LINE
  5
297
100
AcDbEntity
  8
03__ASM_ALL_CURVES
100
AcDbLine
 62
4
  6
CONTINUOUS
 10
7.6365555989
 20
6.5764195612
 11
7.6537639312
 21
6.5764195612
  0
LINE
  5
298
100
AcDbEntity
  8
03__ASM_ALL_CURVES
100
AcDbLine
 62
4
  6
CONTINUOUS
 10
9.1365555989
 20
6.5764195612
 11
9.1537639312
 21
6.5764195612
  0
LINE
  5
299
100
AcDbEntity
  8
03__ASM_ALL_CURVES
100
AcDbLine
 62
4
  6
CONTINUOUS
 10
8.6365555989
 20
6.6796695612
 11
8.6537639312
 21
6.6796695612
  0
LINE
  5
29A
100
AcDbEntity
  8
03__ASM_ALL_CURVES
100
AcDbLine
 62
4
  6
CONTINUOUS
 10
10.2615555989
 20
6.6796695612
 11
10.2787639312
 21
6.6796695612
  0
LINE
  5
29B
100
AcDbEntity
  8
03__ASM_ALL_CURVES
100
AcDbLine
 62
4
  6
CONTINUOUS
 10
9.1107430989
 20
6.7183883112
 11
9.1193472635
 21
6.7183883112
  0
LINE
  5
29C
100
AcDbEntity
  8
03__ASM_ALL_CURVES
100
AcDbLine
 62
4
  6
CONTINUOUS
 10
9.1623680958
 20
6.7248414362
 11
9.1709722635
 21
6.7248414362
  0
LINE
  5
29D
100
AcDbEntity
  8
03__ASM_ALL_CURVES
100
AcDbLine
 62
4
  6
CONTINUOUS
 10
9.1709722635
 20
6.7635601862
 11
9.1623680958
 21
6.7635601862
  0
LINE
  5
29E
100
AcDbEntity
  8
03__ASM_ALL_CURVES
100
AcDbLine
 62
4
  6
CONTINUOUS
 10
9.1193472635
 20
6.7700133112
 11
9.1107430989
 21
6.7700133112
  0
LINE
  5
29F
100
AcDbEntity
  8
03__ASM_ALL_CURVES
100
AcDbLine
 62
4
  6
CONTINUOUS
 10
7.6623680958
 20
6.7700133112
 11
7.6279514281
 21
6.7700133112
  0
LINE
  5
2A0
100
AcDbEntity
  8
03__ASM_ALL_CURVES
100
AcDbLine
 62
4
  6
CONTINUOUS
 10
8.5935347635
 20
6.7829195612
 11
8.6365555989
 21
6.7764664362
  0
LINE
  5
2A1
100
AcDbEntity
  8
03__ASM_ALL_CURVES
100
AcDbLine
 62
4
  6
CONTINUOUS
 10
10.2787639312
 20
6.4925289362
 11
10.2529514281
 21
6.4989820612
  0
LINE
  5
2A2
100
AcDbEntity
  8
03__ASM_ALL_CURVES
100
AcDbLine
 62
4
  6
CONTINUOUS
 10
7.6537639312
 20
7.2217320612
 11
7.6795764296
 21
7.2152789362
  0
LINE
  5
2A3
100
AcDbEntity
  8
03__ASM_ALL_CURVES
100
AcDbLine
 62
4
  6
CONTINUOUS
 10
10.2357430989
 20
6.6861226862
 11
10.2615555989
 21
6.6796695612
  0
LINE
  5
2A4
100
AcDbEntity
  8
03__ASM_ALL_CURVES
100
AcDbLine
 62
4
  6
CONTINUOUS
 10
10.2529514281
 20
6.4989820612
 11
10.2185347635
 21
6.5118883112
  0
LINE
  5
2A5
100
AcDbEntity
  8
03__ASM_ALL_CURVES
100
AcDbLine
 62
4
  6
CONTINUOUS
 10
9.1279514281
 20
6.9765133112
 11
9.1107430989
 21
6.9829664362
  0
LINE
  5
2A6
100
AcDbEntity
  8
03__ASM_ALL_CURVES
100
AcDbLine
 62
4
  6
CONTINUOUS
 10
9.1623680958
 20
7.0281383112
 11
9.1795764296
 21
7.0216851862
  0
LINE
  5
2A7
100
AcDbEntity
  8
03__ASM_ALL_CURVES
100
AcDbLine
 62
4
  6
CONTINUOUS
 10
8.6623680958
 20
7.0733101862
 11
8.6451597635
 21
7.0862164362
  0
LINE
  5
2A8
100
AcDbEntity
  8
03__ASM_ALL_CURVES
100
AcDbLine
 62
4
  6
CONTINUOUS
 10
8.6193472635
 20
7.1313883112
 11
8.6279514281
 21
7.1249351862
  0
LINE
  5
2A9
100
AcDbEntity
  8
03__ASM_ALL_CURVES
100
AcDbLine
 62
4
  6
CONTINUOUS
 10
9.1107430989
 20
6.7700133112
 11
9.1021389281
 21
6.7764664362
  0
LINE
  5
2AA
100
AcDbEntity
  8
03__ASM_ALL_CURVES
100
AcDbLine
 62
4
  6
CONTINUOUS
 10
9.1709722635
 20
6.7248414362
 11
9.1881805966
 21
6.7119351862
  0
LINE
  5
2AB
100
AcDbEntity
  8
03__ASM_ALL_CURVES
100
AcDbLine
 62
4
  6
CONTINUOUS
 10
9.1623680958
 20
6.7635601862
 11
9.1451597635
 21
6.7764664362
  0
LINE
  5
2AC
100
AcDbEntity
  8
03__ASM_ALL_CURVES
100
AcDbLine
 62
4
  6
CONTINUOUS
 10
8.6709722635
 20
7.1378414362
 11
8.6881805966
 21
7.1249351862
  0
LINE
  5
2AD
100
AcDbEntity
  8
03__ASM_ALL_CURVES
100
AcDbLine
 62
4
  6
CONTINUOUS
 10
9.1193472635
 20
6.8216383112
 11
9.1279514281
 21
6.8151851862
  0
LINE
  5
2AE
100
AcDbEntity
  8
03__ASM_ALL_CURVES
100
AcDbLine
 62
4
  6
CONTINUOUS
 10
9.1709722635
 20
6.8280914362
 11
9.1881805966
 21
6.8151851862
  0
LINE
  5
2AF
100
AcDbEntity
  8
03__ASM_ALL_CURVES
100
AcDbLine
 62
4
  6
CONTINUOUS
 10
8.6795764296
 20
7.2152789362
 11
8.6967847635
 21
7.2023726862
  0
LINE
  5
2B0
100
AcDbEntity
  8
03__ASM_ALL_CURVES
100
AcDbLine
 62
4
  6
CONTINUOUS
 10
9.1107430989
 20
6.9829664362
 11
9.1021389281
 21
6.9894195612
  0
LINE
  5
2B1
100
AcDbEntity
  8
03__ASM_ALL_CURVES
100
AcDbLine
 62
4
  6
CONTINUOUS
 10
10.2357430989
 20
6.1569664362
 11
10.2271389281
 21
6.1634195612
  0
LINE
  5
2B2
100
AcDbEntity
  8
03__ASM_ALL_CURVES
100
AcDbLine
 62
4
  6
CONTINUOUS
 10
9.1795764296
 20
7.0216851862
 11
9.1881805966
 21
7.0152320612
  0
LINE
  5
2B3
100
AcDbEntity
  8
03__ASM_ALL_CURVES
100
AcDbLine
 62
4
  6
CONTINUOUS
 10
8.6881805966
 20
6.8151851862
 11
8.6967847635
 21
6.8022789362
  0
LINE
  5
2B4
100
AcDbEntity
  8
03__ASM_ALL_CURVES
100
AcDbLine
 62
4
  6
CONTINUOUS
 10
8.6881805966
 20
6.9119820612
 11
8.6967847635
 21
6.8990758112
  0
LINE
  5
2B5
100
AcDbEntity
  8
03__ASM_ALL_CURVES
100
AcDbLine
 62
4
  6
CONTINUOUS
 10
8.6021389281
 20
7.0862164362
 11
8.5935347635
 21
7.0991226862
  0
LINE
  5
2B6
100
AcDbEntity
  8
03__ASM_ALL_CURVES
100
AcDbLine
 62
4
  6
CONTINUOUS
 10
8.6451597635
 20
7.0862164362
 11
8.6365555989
 21
7.0991226862
  0
LINE
  5
2B7
100
AcDbEntity
  8
03__ASM_ALL_CURVES
100
AcDbLine
 62
4
  6
CONTINUOUS
 10
8.6279514281
 20
7.1249351862
 11
8.6365555989
 21
7.1120289362
  0
LINE
  5
2B8
100
AcDbEntity
  8
03__ASM_ALL_CURVES
100
AcDbLine
 62
4
  6
CONTINUOUS
 10
9.1365555989
 20
6.3634664362
 11
9.1279514281
 21
6.3763726862
  0
LINE
  5
2B9
100
AcDbEntity
  8
03__ASM_ALL_CURVES
100
AcDbLine
 62
4
  6
CONTINUOUS
 10
8.6881805966
 20
7.1249351862
 11
8.6967847635
 21
7.1120289362
  0
LINE
  5
2BA
100
AcDbEntity
  8
03__ASM_ALL_CURVES
100
AcDbLine
 62
4
  6
CONTINUOUS
 10
9.1881805966
 20
6.4021851862
 11
9.1967847635
 21
6.3892789362
  0
LINE
  5
2BB
100
AcDbEntity
  8
03__ASM_ALL_CURVES
100
AcDbLine
 62
4
  6
CONTINUOUS
 10
8.6126597635
 20
10.8342008112
 11
8.5976597635
 21
10.8142008089
  0
LINE
  5
2BC
100
AcDbEntity
  8
03__ASM_ALL_CURVES
100
AcDbLine
 62
4
  6
CONTINUOUS
 10
8.7551597635
 20
10.7442008112
 11
8.7401597635
 21
10.7242008115
  0
LINE
  5
2BD
100
AcDbEntity
  8
03__ASM_ALL_CURVES
100
AcDbLine
 62
4
  6
CONTINUOUS
 10
11.5034253885
 20
12.1892008112
 11
11.5227847635
 21
12.1978049759
  0
LINE
  5
2BE
100
AcDbEntity
  8
03__ASM_ALL_CURVES
100
AcDbLine
 62
4
  6
CONTINUOUS
 10
9.1537639312
 20
6.5764195612
 11
9.1795764296
 21
6.5828726862
  0
LINE
  5
2BF
100
AcDbEntity
  8
03__ASM_ALL_CURVES
100
AcDbLine
 62
4
  6
CONTINUOUS
 10
9.1107430989
 20
6.8216383112
 11
9.1193472635
 21
6.8216383112
  0
LINE
  5
2C0
100
AcDbEntity
  8
03__ASM_ALL_CURVES
100
AcDbLine
 62
4
  6
CONTINUOUS
 10
10.2529514281
 20
6.8216383112
 11
10.2873680958
 21
6.8216383112
  0
LINE
  5
2C1
100
AcDbEntity
  8
03__ASM_ALL_CURVES
100
AcDbLine
 62
4
  6
CONTINUOUS
 10
9.1623680958
 20
6.8280914362
 11
9.1709722635
 21
6.8280914362
  0
LINE
  5
2C2
100
AcDbEntity
  8
03__ASM_ALL_CURVES
100
AcDbLine
 62
4
  6
CONTINUOUS
 10
8.6623680958
 20
6.8732633112
 11
8.6279514281
 21
6.8732633112
  0
LINE
  5
2C3
100
AcDbEntity
  8
03__ASM_ALL_CURVES
100
AcDbLine
 62
4
  6
CONTINUOUS
 10
10.3217847635
 20
6.9152086237
 11
10.3088785131
 21
6.9152086237
  0
LINE
  5
2C4
100
AcDbEntity
  8
03__ASM_ALL_CURVES
100
AcDbLine
 62
4
  6
CONTINUOUS
 10
9.1967847635
 20
6.9152086237
 11
9.1838785131
 21
6.9152086237
  0
LINE
  5
2C5
100
AcDbEntity
  8
03__ASM_ALL_CURVES
100
AcDbLine
 62
4
  6
CONTINUOUS
 10
7.6967847635
 20
6.9152086237
 11
7.6838785131
 21
6.9152086237
  0
LINE
  5
2C6
100
AcDbEntity
  8
03__ASM_ALL_CURVES
100
AcDbLine
 62
4
  6
CONTINUOUS
 10
8.6279514281
 20
6.9248883112
 11
8.6623680958
 21
6.9248883112
  0
LINE
  5
2C7
100
AcDbEntity
  8
03__ASM_ALL_CURVES
100
AcDbLine
 62
4
  6
CONTINUOUS
 10
9.1623680958
 20
6.9765133112
 11
9.1279514281
 21
6.9765133112
  0
LINE
  5
2C8
100
AcDbEntity
  8
03__ASM_ALL_CURVES
100
AcDbLine
 62
4
  6
CONTINUOUS
 10
7.5935347635
 20
7.0023258112
 11
7.6967847635
 21
7.0023258112
  0
LINE
  5
2C9
100
AcDbEntity
  8
03__ASM_ALL_CURVES
100
AcDbLine
 62
4
  6
CONTINUOUS
 10
8.6967847635
 20
7.0184586237
 11
8.6838785131
 21
7.0184586237
  0
LINE
  5
2CA
100
AcDbEntity
  8
03__ASM_ALL_CURVES
100
AcDbLine
 62
4
  6
CONTINUOUS
 10
9.1279514281
 20
7.0281383112
 11
9.1623680958
 21
7.0281383112
  0
LINE
  5
2CB
100
AcDbEntity
  8
03__ASM_ALL_CURVES
100
AcDbLine
 62
4
  6
CONTINUOUS
 10
10.2357430989
 20
7.0281383112
 11
10.2443472635
 21
7.0281383112
  0
LINE
  5
2CC
100
AcDbEntity
  8
03__ASM_ALL_CURVES
100
AcDbLine
 62
4
  6
CONTINUOUS
 10
10.2873680958
 20
7.0345914362
 11
10.2959722635
 21
7.0345914362
  0
LINE
  5
2CD
100
AcDbEntity
  8
03__ASM_ALL_CURVES
100
AcDbLine
 62
4
  6
CONTINUOUS
 10
8.6537639312
 20
7.2217320612
 11
8.6795764296
 21
7.2152789362
  0
LINE
  5
2CE
100
AcDbEntity
  8
03__ASM_ALL_CURVES
100
AcDbLine
 62
4
  6
CONTINUOUS
 10
9.1537639312
 20
7.2217320612
 11
9.1795764296
 21
7.2152789362
  0
LINE
  5
2CF
100
AcDbEntity
  8
03__ASM_ALL_CURVES
100
AcDbLine
 62
4
  6
CONTINUOUS
 10
9.1279514281
 20
7.0797633112
 11
9.1107430989
 21
7.0862164362
  0
LINE
  5
2D0
100
AcDbEntity
  8
03__ASM_ALL_CURVES
100
AcDbLine
 62
4
  6
CONTINUOUS
 10
9.1279514281
 20
7.1313883112
 11
9.1451597635
 21
7.1249351862
  0
LINE
  5
2D1
100
AcDbEntity
  8
03__ASM_ALL_CURVES
100
AcDbLine
 62
4
  6
CONTINUOUS
 10
9.1623680958
 20
7.1313883112
 11
9.1795764296
 21
7.1249351862
  0
LINE
  5
2D2
100
AcDbEntity
  8
03__ASM_ALL_CURVES
100
AcDbLine
 62
4
  6
CONTINUOUS
 10
10.2529514281
 20
6.7700133112
 11
10.2357430989
 21
6.7764664362
  0
LINE
  5
2D3
100
AcDbEntity
  8
03__ASM_ALL_CURVES
100
AcDbLine
 62
4
  6
CONTINUOUS
 10
10.2529514281
 20
6.8216383112
 11
10.2701597635
 21
6.8151851862
  0
LINE
  5
2D4
100
AcDbEntity
  8
03__ASM_ALL_CURVES
100
AcDbLine
 62
4
  6
CONTINUOUS
 10
10.2873680958
 20
6.8216383112
 11
10.3045764296
 21
6.8151851862
  0
LINE
  5
2D5
100
AcDbEntity
  8
03__ASM_ALL_CURVES
100
AcDbLine
 62
4
  6
CONTINUOUS
 10
9.1107430989
 20
7.0862164362
 11
9.1021389281
 21
7.0926695612
  0
LINE
  5
2D6
100
AcDbEntity
  8
03__ASM_ALL_CURVES
100
AcDbLine
 62
4
  6
CONTINUOUS
 10
10.3045764296
 20
6.1956851862
 11
10.3131805966
 21
6.1892320612
  0
LINE
  5
2D7
100
AcDbEntity
  8
03__ASM_ALL_CURVES
100
AcDbLine
 62
4
  6
CONTINUOUS
 10
9.1795764296
 20
7.1249351862
 11
9.1881805966
 21
7.1184820612
  0
LINE
  5
2D8
100
AcDbEntity
  8
03__ASM_ALL_CURVES
100
AcDbLine
 62
4
  6
CONTINUOUS
 10
10.2443472635
 20
6.4086383112
 11
10.2529514281
 21
6.4021851862
  0
LINE
  5
2D9
100
AcDbEntity
  8
03__ASM_ALL_CURVES
100
AcDbLine
 62
4
  6
CONTINUOUS
 10
9.1795764296
 20
7.2152789362
 11
9.1967847635
 21
7.2023726862
  0
LINE
  5
2DA
100
AcDbEntity
  8
03__ASM_ALL_CURVES
100
AcDbLine
 62
4
  6
CONTINUOUS
 10
10.2959722635
 20
6.4150914362
 11
10.3131805966
 21
6.4021851862
  0
LINE
  5
2DB
100
AcDbEntity
  8
03__ASM_ALL_CURVES
100
AcDbLine
 62
4
  6
CONTINUOUS
 10
9.1021389281
 20
6.6732164362
 11
9.0935347635
 21
6.6861226862
  0
LINE
  5
2DC
100
AcDbEntity
  8
03__ASM_ALL_CURVES
100
AcDbLine
 62
4
  6
CONTINUOUS
 10
9.1279514281
 20
6.7119351862
 11
9.1365555989
 21
6.6990289362
  0
LINE
  5
2DD
100
AcDbEntity
  8
03__ASM_ALL_CURVES
100
AcDbLine
 62
4
  6
CONTINUOUS
 10
9.1021389281
 20
6.7764664362
 11
9.0935347635
 21
6.7893726862
  0
LINE
  5
2DE
100
AcDbEntity
  8
03__ASM_ALL_CURVES
100
AcDbLine
 62
4
  6
CONTINUOUS
 10
9.1881805966
 20
6.7119351862
 11
9.1967847635
 21
6.6990289362
  0
LINE
  5
2DF
100
AcDbEntity
  8
03__ASM_ALL_CURVES
100
AcDbLine
 62
4
  6
CONTINUOUS
 10
9.1451597635
 20
6.7764664362
 11
9.1365555989
 21
6.7893726862
  0
LINE
  5
2E0
100
AcDbEntity
  8
03__ASM_ALL_CURVES
100
AcDbLine
 62
4
  6
CONTINUOUS
 10
9.1279514281
 20
6.8151851862
 11
9.1365555989
 21
6.8022789362
  0
LINE
  5
2E1
100
AcDbEntity
  8
03__ASM_ALL_CURVES
100
AcDbLine
 62
4
  6
CONTINUOUS
 10
9.1881805966
 20
6.8151851862
 11
9.1967847635
 21
6.8022789362
  0
LINE
  5
2E2
100
AcDbEntity
  8
03__ASM_ALL_CURVES
100
AcDbLine
 62
4
  6
CONTINUOUS
 10
9.1021389281
 20
6.9894195612
 11
9.0935347635
 21
7.0023258112
  0
LINE
  5
2E3
100
AcDbEntity
  8
03__ASM_ALL_CURVES
100
AcDbLine
 62
4
  6
CONTINUOUS
 10
9.1021389281
 20
7.0926695612
 11
9.0935347635
 21
7.1055758112
  0
LINE
  5
2E4
100
AcDbEntity
  8
03__ASM_ALL_CURVES
100
AcDbLine
 62
4
  6
CONTINUOUS
 10
8.5976597635
 20
10.8142008089
 11
8.5901597635
 21
10.7842008089
  0
LINE
  5
2E5
100
AcDbEntity
  8
03__ASM_ALL_CURVES
100
AcDbLine
 62
4
  6
CONTINUOUS
 10
8.7626597635
 20
10.7742008112
 11
8.7551597635
 21
10.7442008112
  0
LINE
  5
2E6
100
AcDbEntity
  8
03__ASM_ALL_CURVES
100
AcDbLine
 62
4
  6
CONTINUOUS
 10
9.0476597635
 20
11.9642008112
 11
9.0851597635
 21
12.0842008112
  0
LINE
  5
2E7
100
AcDbEntity
  8
03__ASM_ALL_CURVES
100
AcDbLine
 62
4
  6
CONTINUOUS
 10
8.8076597635
 20
10.7142008112
 11
8.8451597635
 21
10.8342008112
  0
LINE
  5
2E8
100
AcDbEntity
  8
03__ASM_ALL_CURVES
100
AcDbLine
 62
4
  6
CONTINUOUS
 10
9.2351597635
 20
11.0042008101
 11
9.2951597635
 21
11.0742008112
  0
LINE
  5
2E9
100
AcDbEntity
  8
03__ASM_ALL_CURVES
100
AcDbLine
 62
4
  6
CONTINUOUS
 10
8.7401597635
 20
10.7242008115
 11
8.7251597635
 21
10.7142008112
  0
LINE
  5
2EA
100
AcDbEntity
  8
03__ASM_ALL_CURVES
100
AcDbLine
 62
4
  6
CONTINUOUS
 10
9.1826597635
 20
10.8242008136
 11
9.1976597635
 21
10.8342008112
  0
LINE
  5
2EB
100
AcDbEntity
  8
03__ASM_ALL_CURVES
100
AcDbLine
 62
4
  6
CONTINUOUS
 10
11.2969253885
 20
12.2322216466
 11
11.3098316385
 21
12.2408258112
  0
LINE
  5
2EC
100
AcDbEntity
  8
03__ASM_ALL_CURVES
100
AcDbLine
 62
4
  6
CONTINUOUS
 10
11.3356441385
 20
12.2064091466
 11
11.3227378885
 21
12.1978049759
  0
LINE
  5
2ED
100
AcDbEntity
  8
03__ASM_ALL_CURVES
100
AcDbLine
 62
4
  6
CONTINUOUS
 10
9.3026597635
 20
10.8242008136
 11
9.3176597635
 21
10.8342008112
  0
LINE
  5
2EE
100
AcDbEntity
  8
03__ASM_ALL_CURVES
100
AcDbLine
 62
4
  6
CONTINUOUS
 10
11.3356441385
 20
12.1461799782
 11
11.3227378885
 21
12.1375758112
  0
LINE
  5
2EF
100
AcDbEntity
  8
03__ASM_ALL_CURVES
100
AcDbLine
 62
4
  6
CONTINUOUS
 10
11.9551441385
 20
12.1892008112
 11
11.9357847635
 21
12.1805966436
  0
LINE
  5
2F0
100
AcDbEntity
  8
03__ASM_ALL_CURVES
100
AcDbLine
 62
4
  6
CONTINUOUS
 10
12.2648941385
 20
12.1892008112
 11
12.2455347635
 21
12.1805966436
  0
LINE
  5
2F1
100
AcDbEntity
  8
03__ASM_ALL_CURVES
100
AcDbLine
 62
4
  6
CONTINUOUS
 10
8.6537639312
 20
6.6796695612
 11
8.6795764296
 21
6.6861226862
  0
LINE
  5
2F2
100
AcDbEntity
  8
03__ASM_ALL_CURVES
100
AcDbLine
 62
4
  6
CONTINUOUS
 10
10.2357430989
 20
7.2152789362
 11
10.2615555989
 21
7.2217320612
  0
LINE
  5
2F3
100
AcDbEntity
  8
03__ASM_ALL_CURVES
100
AcDbLine
 62
4
  6
CONTINUOUS
 10
7.6537639312
 20
6.5764195612
 11
7.6795764296
 21
6.5828726862
  0
LINE
  5
2F4
100
AcDbEntity
  8
03__ASM_ALL_CURVES
100
AcDbLine
 62
4
  6
CONTINUOUS
 10
8.6709722635
 20
7.0733101862
 11
8.6623680958
 21
7.0733101862
  0
LINE
  5
2F5
100
AcDbEntity
  8
03__ASM_ALL_CURVES
100
AcDbLine
 62
4
  6
CONTINUOUS
 10
8.6193472635
 20
7.0797633112
 11
8.6107430989
 21
7.0797633112
  0
LINE
  5
2F6
100
AcDbEntity
  8
03__ASM_ALL_CURVES
100
AcDbLine
 62
4
  6
CONTINUOUS
 10
7.6279514281
 20
7.1313883112
 11
7.6623680958
 21
7.1313883112
  0
LINE
  5
2F7
100
AcDbEntity
  8
03__ASM_ALL_CURVES
100
AcDbLine
 62
4
  6
CONTINUOUS
 10
8.6107430989
 20
7.1313883112
 11
8.6193472635
 21
7.1313883112
  0
LINE
  5
2F8
100
AcDbEntity
  8
03__ASM_ALL_CURVES
100
AcDbLine
 62
4
  6
CONTINUOUS
 10
9.1279514281
 20
7.1313883112
 11
9.1623680958
 21
7.1313883112
  0
LINE
  5
2F9
100
AcDbEntity
  8
03__ASM_ALL_CURVES
100
AcDbLine
 62
4
  6
CONTINUOUS
 10
10.2529514281
 20
7.1313883112
 11
10.2873680958
 21
7.1313883112
  0
LINE
  5
2FA
100
AcDbEntity
  8
03__ASM_ALL_CURVES
100
AcDbLine
 62
4
  6
CONTINUOUS
 10
8.6623680958
 20
7.1378414362
 11
8.6709722635
 21
7.1378414362
  0
LINE
  5
2FB
100
AcDbEntity
  8
03__ASM_ALL_CURVES
100
AcDbLine
 62
4
  6
CONTINUOUS
 10
7.6365555989
 20
7.2217320612
 11
7.6537639312
 21
7.2217320612
  0
LINE
  5
2FC
100
AcDbEntity
  8
03__ASM_ALL_CURVES
100
AcDbLine
 62
4
  6
CONTINUOUS
 10
8.6365555989
 20
7.2217320612
 11
8.6537639312
 21
7.2217320612
  0
LINE
  5
2FD
100
AcDbEntity
  8
03__ASM_ALL_CURVES
100
AcDbLine
 62
4
  6
CONTINUOUS
 10
9.1365555989
 20
7.2217320612
 11
9.1537639312
 21
7.2217320612
  0
LINE
  5
2FE
100
AcDbEntity
  8
03__ASM_ALL_CURVES
100
AcDbLine
 62
4
  6
CONTINUOUS
 10
10.2615555989
 20
7.2217320612
 11
10.2787639312
 21
7.2217320612
  0
LINE
  5
2FF
100
AcDbEntity
  8
03__ASM_ALL_CURVES
100
AcDbLine
 62
4
  6
CONTINUOUS
 10
10.2787639312
 20
7.2217320612
 11
10.3045764296
 21
7.2152789362
  0
LINE
  5
300
100
AcDbEntity
  8
03__ASM_ALL_CURVES
100
AcDbLine
 62
4
  6
CONTINUOUS
 10
10.2529514281
 20
7.0797633112
 11
10.2357430989
 21
7.0862164362
  0
LINE
  5
301
100
AcDbEntity
  8
03__ASM_ALL_CURVES
100
AcDbLine
 62
4
  6
CONTINUOUS
 10
10.2529514281
 20
7.1313883112
 11
10.2701597635
 21
7.1249351862
  0
LINE
  5
302
100
AcDbEntity
  8
03__ASM_ALL_CURVES
100
AcDbLine
 62
4
  6
CONTINUOUS
 10
10.2873680958
 20
7.1313883112
 11
10.3045764296
 21
7.1249351862
  0
LINE
  5
303
100
AcDbEntity
  8
03__ASM_ALL_CURVES
100
AcDbLine
 62
4
  6
CONTINUOUS
 10
10.2185347635
 20
6.6990289362
 11
10.2357430989
 21
6.6861226862
  0
LINE
  5
304
100
AcDbEntity
  8
03__ASM_ALL_CURVES
100
AcDbLine
 62
4
  6
CONTINUOUS
 10
10.2357430989
 20
6.7764664362
 11
10.2271389281
 21
6.7829195612
  0
LINE
  5
305
100
AcDbEntity
  8
03__ASM_ALL_CURVES
100
AcDbLine
 62
4
  6
CONTINUOUS
 10
10.3045764296
 20
6.8151851862
 11
10.3131805966
 21
6.8087320612
  0
LINE
  5
306
100
AcDbEntity
  8
03__ASM_ALL_CURVES
100
AcDbLine
 62
4
  6
CONTINUOUS
 10
9.1881805966
 20
7.0152320612
 11
9.1967847635
 21
7.0023258112
  0
LINE
  5
307
100
AcDbEntity
  8
03__ASM_ALL_CURVES
100
AcDbLine
 62
4
  6
CONTINUOUS
 10
9.1881805966
 20
7.1184820612
 11
9.1967847635
 21
7.1055758112
  0
LINE
  5
308
100
AcDbEntity
  8
03__ASM_ALL_CURVES
100
AcDbLine
 62
4
  6
CONTINUOUS
 10
9.1451597635
 20
7.1249351862
 11
9.1537639312
 21
7.1055758112
  0
LINE
  5
309
100
AcDbEntity
  8
0
100
AcDbLine
 62
7
  6
CONTINUOUS
 10
8.4851597635
 20
11.3742008112
 11
8.4851597635
 21
11.3142008112
  0
LINE
  5
30A
100
AcDbEntity
  8
0
100
AcDbLine
 62
7
  6
CONTINUOUS
 10
8.5451597635
 20
11.3142008112
 11
8.5451597635
 21
11.2542008112
  0
LINE
  5
30B
100
AcDbEntity
  8
0
100
AcDbLine
 62
7
  6
CONTINUOUS
 10
8.5751597635
 20
11.2542008112
 11
8.5751597635
 21
11.3742008112
  0
LINE
  5
30C
100
AcDbEntity
  8
03__ASM_ALL_CURVES
100
AcDbLine
 62
4
  6
CONTINUOUS
 10
8.5901597635
 20
10.7842008089
 11
8.5901597635
 21
10.7642008101
  0
LINE
  5
30D
100
AcDbEntity
  8
03__ASM_ALL_CURVES
100
AcDbLine
 62
4
  6
CONTINUOUS
 10
8.5935347635
 20
6.8216383112
 11
8.5935347635
 21
6.7829195612
  0
LINE
  5
30E
100
AcDbEntity
  8
03__ASM_ALL_CURVES
100
AcDbLine
 62
4
  6
CONTINUOUS
 10
8.5935347635
 20
6.2731226862
 11
8.5935347635
 21
6.2860289362
  0
LINE
  5
30F
100
AcDbEntity
  8
03__ASM_ALL_CURVES
100
AcDbLine
 62
4
  6
CONTINUOUS
 10
8.5935347635
 20
7.0991226862
 11
8.5935347635
 21
7.1120289362
  0
LINE
  5
310
100
AcDbEntity
  8
03__ASM_ALL_CURVES
100
AcDbLine
 62
4
  6
CONTINUOUS
 10
8.6051597635
 20
12.0842008112
 11
8.6051597635
 21
11.9642008112
  0
LINE
  5
311
100
AcDbEntity
  8
03__ASM_ALL_CURVES
100
AcDbLine
 62
4
  6
CONTINUOUS
 10
8.6279514281
 20
6.7893726862
 11
8.6279514281
 21
6.8022789362
  0
LINE
  5
312
100
AcDbEntity
  8
0
100
AcDbLine
 62
7
  6
CONTINUOUS
 10
8.6351597635
 20
11.3742008112
 11
8.6351597635
 21
11.2542008112
  0
LINE
  5
313
100
AcDbEntity
  8
03__ASM_ALL_CURVES
100
AcDbLine
 62
4
  6
CONTINUOUS
 10
8.6365555989
 20
7.0991226862
 11
8.6365555989
 21
7.1120289362
  0
LINE
  5
314
100
AcDbEntity
  8
03__ASM_ALL_CURVES
100
AcDbLine
 62
4
  6
CONTINUOUS
 10
8.6451597635
 20
8.4609508112
 11
8.6451597635
 21
7.6734508112
  0
LINE
  5
315
100
AcDbEntity
  8
0
100
AcDbLine
 62
7
  6
CONTINUOUS
 10
8.6651597635
 20
11.3742008112
 11
8.6651597635
 21
11.2542008112
  0
LINE
  5
316
100
AcDbEntity
  8
03__ASM_ALL_CURVES
100
AcDbLine
 62
4
  6
CONTINUOUS
 10
8.6951597635
 20
10.7142008112
 11
8.6951597635
 21
10.8342008112
  0
LINE
  5
317
100
AcDbEntity
  8
03__ASM_ALL_CURVES
100
AcDbLine
 62
4
  6
CONTINUOUS
 10
8.6967847635
 20
7.1120289362
 11
8.6967847635
 21
7.0991226862
  0
LINE
  5
318
100
AcDbEntity
  8
03__ASM_ALL_CURVES
100
AcDbLine
 62
4
  6
CONTINUOUS
 10
8.6967847635
 20
7.0281383112
 11
8.6967847635
 21
7.0184586237
  0
LINE
  5
319
100
AcDbEntity
  8
03__ASM_ALL_CURVES
100
AcDbLine
 62
4
  6
CONTINUOUS
 10
8.6967847635
 20
6.8022789362
 11
8.6967847635
 21
6.7893726862
  0
LINE
  5
31A
100
AcDbEntity
  8
03__ASM_ALL_CURVES
100
AcDbLine
 62
4
  6
CONTINUOUS
 10
8.6967847635
 20
6.4086383112
 11
8.6967847635
 21
6.3989586237
  0
LINE
  5
31B
100
AcDbEntity
  8
03__ASM_ALL_CURVES
100
AcDbLine
 62
4
  6
CONTINUOUS
 10
8.6967847635
 20
6.2537633112
 11
8.6967847635
 21
6.3053883112
  0
LINE
  5
31C
100
AcDbEntity
  8
03__ASM_ALL_CURVES
100
AcDbLine
 62
4
  6
CONTINUOUS
 10
8.9876597635
 20
10.9542008112
 11
9.0251597635
 21
11.0742008112
  0
LINE
  5
31D
100
AcDbEntity
  8
03__ASM_ALL_CURVES
100
AcDbLine
 62
4
  6
CONTINUOUS
 10
9.1601597635
 20
11.0342008136
 11
9.1751597635
 21
11.0742008112
  0
LINE
  5
31E
100
AcDbEntity
  8
03__ASM_ALL_CURVES
100
AcDbLine
 62
4
  6
CONTINUOUS
 10
9.1676597635
 20
10.8042008112
 11
9.1826597635
 21
10.8242008136
  0
LINE
  5
31F
100
AcDbEntity
  8
03__ASM_ALL_CURVES
100
AcDbLine
 62
4
  6
CONTINUOUS
 10
9.2351597635
 20
10.7342008118
 11
9.2276597635
 21
10.7242008115
  0
LINE
  5
320
100
AcDbEntity
  8
03__ASM_ALL_CURVES
100
AcDbLine
 62
4
  6
CONTINUOUS
 10
9.2876597635
 20
10.8042008112
 11
9.3026597635
 21
10.8242008136
  0
LINE
  5
321
100
AcDbEntity
  8
03__ASM_ALL_CURVES
100
AcDbLine
 62
4
  6
CONTINUOUS
 10
9.3626597635
 20
10.7442008112
 11
9.3476597635
 21
10.7242008115
  0
LINE
  5
322
100
AcDbEntity
  8
03__ASM_ALL_CURVES
100
AcDbLine
 62
4
  6
CONTINUOUS
 10
9.2276597635
 20
10.7242008115
 11
9.2126597635
 21
10.7142008112
  0
LINE
  5
323
100
AcDbEntity
  8
03__ASM_ALL_CURVES
100
AcDbLine
 62
4
  6
CONTINUOUS
 10
11.5098785135
 20
12.2322216466
 11
11.5227847635
 21
12.2408258112
  0
LINE
  5
324
100
AcDbEntity
  8
03__ASM_ALL_CURVES
100
AcDbLine
 62
4
  6
CONTINUOUS
 10
11.6066753885
 20
12.2322216466
 11
11.6195816385
 21
12.2408258112
  0
LINE
  5
325
100
AcDbEntity
  8
03__ASM_ALL_CURVES
100
AcDbLine
 62
4
  6
CONTINUOUS
 10
9.3476597635
 20
10.7242008115
 11
9.3326597635
 21
10.7142008112
  0
LINE
  5
326
100
AcDbEntity
  8
03__ASM_ALL_CURVES
100
AcDbLine
 62
4
  6
CONTINUOUS
 10
11.5356910135
 20
12.1461799782
 11
11.5227847635
 21
12.1375758112
  0
LINE
  5
327
100
AcDbEntity
  8
03__ASM_ALL_CURVES
100
AcDbLine
 62
4
  6
CONTINUOUS
 10
11.6453941385
 20
12.1978049759
 11
11.6195816385
 21
12.1805966436
  0
LINE
  5
328
100
AcDbEntity
  8
03__ASM_ALL_CURVES
100
AcDbLine
 62
4
  6
CONTINUOUS
 10
9.4601597635
 20
10.7242008115
 11
9.4451597635
 21
10.7142008112
  0
LINE
  5
329
100
AcDbEntity
  8
03__ASM_ALL_CURVES
100
AcDbLine
 62
4
  6
CONTINUOUS
 10
11.2969253885
 20
11.8572216466
 11
11.3098316385
 21
11.8658258112
  0
LINE
  5
32A
100
AcDbEntity
  8
03__ASM_ALL_CURVES
100
AcDbLine
 62
4
  6
CONTINUOUS
 10
11.9228785135
 20
12.2322216466
 11
11.9357847635
 21
12.2408258112
  0
LINE
  5
32B
100
AcDbEntity
  8
03__ASM_ALL_CURVES
100
AcDbLine
 62
4
  6
CONTINUOUS
 10
11.3356441385
 20
11.8314091466
 11
11.3227378885
 21
11.8228049759
  0
LINE
  5
32C
100
AcDbEntity
  8
03__ASM_ALL_CURVES
100
AcDbLine
 62
4
  6
CONTINUOUS
 10
9.1107430989
 20
7.2152789362
 11
9.1365555989
 21
7.2217320612
  0
LINE
  5
32D
100
AcDbEntity
  8
03__ASM_ALL_CURVES
100
AcDbLine
 62
4
  6
CONTINUOUS
 10
10.2443472635
 20
7.0281383112
 11
10.2529514281
 21
7.0216851862
  0
LINE
  5
32E
100
AcDbEntity
  8
03__ASM_ALL_CURVES
100
AcDbLine
 62
4
  6
CONTINUOUS
 10
10.2959722635
 20
7.0345914362
 11
10.3131805966
 21
7.0216851862
  0
LINE
  5
32F
100
AcDbEntity
  8
03__ASM_ALL_CURVES
100
AcDbLine
 62
4
  6
CONTINUOUS
 10
10.2357430989
 20
7.0862164362
 11
10.2271389281
 21
7.0926695612
  0
LINE
  5
330
100
AcDbEntity
  8
03__ASM_ALL_CURVES
100
AcDbLine
 62
4
  6
CONTINUOUS
 10
10.3045764296
 20
7.1249351862
 11
10.3131805966
 21
7.1184820612
  0
LINE
  5
331
100
AcDbEntity
  8
03__ASM_ALL_CURVES
100
AcDbLine
 62
4
  6
CONTINUOUS
 10
10.2271389281
 20
6.1634195612
 11
10.2185347635
 21
6.1763258112
  0
LINE
  5
332
100
AcDbEntity
  8
03__ASM_ALL_CURVES
100
AcDbLine
 62
4
  6
CONTINUOUS
 10
10.3131805966
 20
6.1892320612
 11
10.3217847635
 21
6.1763258112
  0
LINE
  5
333
100
AcDbEntity
  8
03__ASM_ALL_CURVES
100
AcDbLine
 62
4
  6
CONTINUOUS
 10
10.2271389281
 20
6.3634664362
 11
10.2185347635
 21
6.3763726862
  0
LINE
  5
334
100
AcDbEntity
  8
0
100
AcDbLine
 62
7
  6
CONTINUOUS
 10
8.7251597635
 20
11.3742008112
 11
8.7251597635
 21
11.2542008112
  0
LINE
  5
335
100
AcDbEntity
  8
03__ASM_ALL_CURVES
100
AcDbLine
 62
4
  6
CONTINUOUS
 10
8.8451597635
 20
12.0842008112
 11
8.8451597635
 21
11.9642008112
  0
LINE
  5
336
100
AcDbEntity
  8
0
100
AcDbLine
 62
7
  6
CONTINUOUS
 10
8.8451597635
 20
11.2542008112
 11
8.8451597635
 21
11.3742008112
  0
LINE
  5
337
100
AcDbEntity
  8
0
100
AcDbLine
 62
7
  6
CONTINUOUS
 10
8.9051597635
 20
11.2542008112
 11
8.9051597635
 21
11.3142008112
  0
LINE
  5
338
100
AcDbEntity
  8
0
100
AcDbLine
 62
7
  6
CONTINUOUS
 10
8.9451597635
 20
11.2542008112
 11
8.9451597635
 21
11.3142008112
  0
LINE
  5
339
100
AcDbEntity
  8
03__ASM_ALL_CURVES
100
AcDbLine
 62
4
  6
CONTINUOUS
 10
8.9651597635
 20
12.0842008112
 11
8.9651597635
 21
11.9642008112
  0
LINE
  5
33A
100
AcDbEntity
  8
03__ASM_ALL_CURVES
100
AcDbLine
 62
4
  6
CONTINUOUS
 10
8.9651597635
 20
10.8342008112
 11
8.9651597635
 21
10.7142008112
  0
LINE
  5
33B
100
AcDbEntity
  8
03__ASM_ALL_CURVES
100
AcDbLine
 62
4
  6
CONTINUOUS
 10
9.1451597635
 20
10.9542008112
 11
9.1526597635
 21
11.0042008101
  0
LINE
  5
33C
100
AcDbEntity
  8
03__ASM_ALL_CURVES
100
AcDbLine
 62
4
  6
CONTINUOUS
 10
9.1526597635
 20
11.0042008101
 11
9.1601597635
 21
11.0342008136
  0
LINE
  5
33D
100
AcDbEntity
  8
03__ASM_ALL_CURVES
100
AcDbLine
 62
4
  6
CONTINUOUS
 10
9.1601597635
 20
10.7742008112
 11
9.1676597635
 21
10.8042008112
  0
LINE
  5
33E
100
AcDbEntity
  8
03__ASM_ALL_CURVES
100
AcDbLine
 62
4
  6
CONTINUOUS
 10
9.2801597635
 20
10.7742008112
 11
9.2876597635
 21
10.8042008112
  0
LINE
  5
33F
100
AcDbEntity
  8
03__ASM_ALL_CURVES
100
AcDbLine
 62
4
  6
CONTINUOUS
 10
7.6537639312
 20
7.1055758112
 11
7.6451597635
 21
7.0862164362
  0
LINE
  5
340
100
AcDbEntity
  8
03__ASM_ALL_CURVES
100
AcDbLine
 62
4
  6
CONTINUOUS
 10
7.6365555989
 20
6.7958258112
 11
7.6451597635
 21
6.8151851862
  0
LINE
  5
341
100
AcDbEntity
  8
03__ASM_ALL_CURVES
100
AcDbLine
 62
4
  6
CONTINUOUS
 10
9.4751597635
 20
10.7442008112
 11
9.4601597635
 21
10.7242008115
  0
LINE
  5
342
100
AcDbEntity
  8
03__ASM_ALL_CURVES
100
AcDbLine
 62
4
  6
CONTINUOUS
 10
9.6926597635
 20
10.7342008118
 11
9.6776597635
 21
10.7142008112
  0
LINE
  5
343
100
AcDbEntity
  8
03__ASM_ALL_CURVES
100
AcDbLine
 62
4
  6
CONTINUOUS
 10
11.3356441385
 20
11.7711799782
 11
11.3227378885
 21
11.7625758112
  0
LINE
  5
344
100
AcDbEntity
  8
03__ASM_ALL_CURVES
100
AcDbLine
 62
4
  6
CONTINUOUS
 10
11.5034253885
 20
11.8572216466
 11
11.5163316385
 21
11.8658258112
  0
LINE
  5
345
100
AcDbEntity
  8
03__ASM_ALL_CURVES
100
AcDbLine
 62
4
  6
CONTINUOUS
 10
11.9486910135
 20
12.1461799782
 11
11.9357847635
 21
12.1375758112
  0
LINE
  5
346
100
AcDbEntity
  8
03__ASM_ALL_CURVES
100
AcDbLine
 62
4
  6
CONTINUOUS
 10
11.5421441385
 20
11.8228049759
 11
11.5163316385
 21
11.8055966436
  0
LINE
  5
347
100
AcDbEntity
  8
03__ASM_ALL_CURVES
100
AcDbLine
 62
4
  6
CONTINUOUS
 10
11.6066753885
 20
11.8228049759
 11
11.6195816385
 21
11.8314091466
  0
LINE
  5
348
100
AcDbEntity
  8
03__ASM_ALL_CURVES
100
AcDbLine
 62
4
  6
CONTINUOUS
 10
12.2326285135
 20
12.2322216466
 11
12.2455347635
 21
12.2408258112
  0
LINE
  5
349
100
AcDbEntity
  8
03__ASM_ALL_CURVES
100
AcDbLine
 62
4
  6
CONTINUOUS
 10
11.6453941385
 20
11.7711799782
 11
11.6324878885
 21
11.7625758112
  0
LINE
  5
34A
100
AcDbEntity
  8
03__ASM_ALL_CURVES
100
AcDbLine
 62
4
  6
CONTINUOUS
 10
12.2584410135
 20
12.1461799782
 11
12.2455347635
 21
12.1375758112
  0
LINE
  5
34B
100
AcDbEntity
  8
03__ASM_ALL_CURVES
100
AcDbLine
 62
4
  6
CONTINUOUS
 10
8.6107430989
 20
7.2152789362
 11
8.6365555989
 21
7.2217320612
  0
LINE
  5
34C
100
AcDbEntity
  8
03__ASM_ALL_CURVES
100
AcDbLine
 62
4
  6
CONTINUOUS
 10
10.6623680958
 20
7.8672633112
 11
10.6279514281
 21
7.8672633112
  0
LINE
  5
34D
100
AcDbEntity
  8
0
100
AcDbLine
 62
7
  6
CONTINUOUS
 10
9.2811597635
 20
8.0042644771
 11
9.3401597635
 21
7.9702008112
  0
LINE
  5
34E
100
AcDbEntity
  8
03__ASM_ALL_CURVES
100
AcDbLine
 62
4
  6
CONTINUOUS
 10
10.3045764296
 20
7.2152789362
 11
10.3217847635
 21
7.2023726862
  0
LINE
  5
34F
100
AcDbEntity
  8
03__ASM_ALL_CURVES
100
AcDbLine
 62
4
  6
CONTINUOUS
 10
10.2529514281
 20
6.4021851862
 11
10.2615555989
 21
6.3892789362
  0
LINE
  5
350
100
AcDbEntity
  8
03__ASM_ALL_CURVES
100
AcDbLine
 62
4
  6
CONTINUOUS
 10
10.3131805966
 20
6.4021851862
 11
10.3217847635
 21
6.3892789362
  0
LINE
  5
351
100
AcDbEntity
  8
03__ASM_ALL_CURVES
100
AcDbLine
 62
4
  6
CONTINUOUS
 10
10.2271389281
 20
6.7829195612
 11
10.2185347635
 21
6.7958258112
  0
LINE
  5
352
100
AcDbEntity
  8
0
100
AcDbLine
 62
7
  6
CONTINUOUS
 10
9.0051597635
 20
11.3142008112
 11
9.0051597635
 21
11.1942008112
  0
LINE
  5
353
100
AcDbEntity
  8
0
100
AcDbLine
 62
7
  6
CONTINUOUS
 10
9.0451597635
 20
11.2542008112
 11
9.0451597635
 21
11.3142008112
  0
LINE
  5
354
100
AcDbEntity
  8
03__ASM_ALL_CURVES
100
AcDbLine
 62
4
  6
CONTINUOUS
 10
9.0551597635
 20
10.7142008112
 11
9.0551597635
 21
10.8342008112
  0
LINE
  5
355
100
AcDbEntity
  8
03__ASM_ALL_CURVES
100
AcDbLine
 62
4
  6
CONTINUOUS
 10
9.0935347635
 20
6.4086383112
 11
9.0935347635
 21
6.3699195612
  0
LINE
  5
356
100
AcDbEntity
  8
03__ASM_ALL_CURVES
100
AcDbLine
 62
4
  6
CONTINUOUS
 10
9.0935347635
 20
6.6861226862
 11
9.0935347635
 21
6.6990289362
  0
LINE
  5
357
100
AcDbEntity
  8
03__ASM_ALL_CURVES
100
AcDbLine
 62
4
  6
CONTINUOUS
 10
9.0935347635
 20
6.7893726862
 11
9.0935347635
 21
6.8022789362
  0
LINE
  5
358
100
AcDbEntity
  8
0
100
AcDbLine
 62
7
  6
CONTINUOUS
 10
9.1051597635
 20
11.3742008112
 11
9.1051597635
 21
11.2542008112
  0
LINE
  5
359
100
AcDbEntity
  8
03__ASM_ALL_CURVES
100
AcDbLine
 62
4
  6
CONTINUOUS
 10
9.1279514281
 20
6.3763726862
 11
9.1279514281
 21
6.3892789362
  0
LINE
  5
35A
100
AcDbEntity
  8
03__ASM_ALL_CURVES
100
AcDbLine
 62
4
  6
CONTINUOUS
 10
9.1365555989
 20
6.6861226862
 11
9.1365555989
 21
6.6990289362
  0
LINE
  5
35B
100
AcDbEntity
  8
03__ASM_ALL_CURVES
100
AcDbLine
 62
4
  6
CONTINUOUS
 10
9.1365555989
 20
6.7893726862
 11
9.1365555989
 21
6.8022789362
  0
LINE
  5
35C
100
AcDbEntity
  8
0
100
AcDbLine
 62
7
  6
CONTINUOUS
 10
9.1451597635
 20
11.3142008112
 11
9.1451597635
 21
11.2542008112
  0
LINE
  5
35D
100
AcDbEntity
  8
03__ASM_ALL_CURVES
100
AcDbLine
 62
4
  6
CONTINUOUS
 10
9.1451597635
 20
8.4609508112
 11
9.1451597635
 21
7.6734508112
  0
LINE
  5
35E
100
AcDbEntity
  8
03__ASM_ALL_CURVES
100
AcDbLine
 62
4
  6
CONTINUOUS
 10
9.1967847635
 20
6.9248883112
 11
9.1967847635
 21
6.9152086237
  0
LINE
  5
35F
100
AcDbEntity
  8
03__ASM_ALL_CURVES
100
AcDbLine
 62
4
  6
CONTINUOUS
 10
9.1967847635
 20
6.8022789362
 11
9.1967847635
 21
6.7893726862
  0
LINE
  5
360
100
AcDbEntity
  8
03__ASM_ALL_CURVES
100
AcDbLine
 62
4
  6
CONTINUOUS
 10
9.1967847635
 20
6.6990289362
 11
9.1967847635
 21
6.6861226862
  0
LINE
  5
361
100
AcDbEntity
  8
03__ASM_ALL_CURVES
100
AcDbLine
 62
4
  6
CONTINUOUS
 10
9.1967847635
 20
6.3892789362
 11
9.1967847635
 21
6.3763726862
  0
LINE
  5
362
100
AcDbEntity
  8
03__ASM_ALL_CURVES
100
AcDbLine
 62
4
  6
CONTINUOUS
 10
9.1967847635
 20
6.3053883112
 11
9.1967847635
 21
6.2957086237
  0
LINE
  5
363
100
AcDbEntity
  8
03__ASM_ALL_CURVES
100
AcDbLine
 62
4
  6
CONTINUOUS
 10
9.2351597635
 20
11.0742008112
 11
9.2351597635
 21
10.9542008112
  0
LINE
  5
364
100
AcDbEntity
  8
03__ASM_ALL_CURVES
100
AcDbLine
 62
4
  6
CONTINUOUS
 10
9.3701597635
 20
10.7742008112
 11
9.3626597635
 21
10.7442008112
  0
LINE
  5
365
100
AcDbEntity
  8
03__ASM_ALL_CURVES
100
AcDbLine
 62
4
  6
CONTINUOUS
 10
9.4826597635
 20
10.7742008112
 11
9.4751597635
 21
10.7442008112
  0
LINE
  5
366
100
AcDbEntity
  8
03__ASM_ALL_CURVES
100
AcDbLine
 62
4
  6
CONTINUOUS
 10
7.5935347635
 20
7.1055758112
 11
7.6021389281
 21
7.1184820612
  0
LINE
  5
367
100
AcDbEntity
  8
03__ASM_ALL_CURVES
100
AcDbLine
 62
4
  6
CONTINUOUS
 10
11.9164253885
 20
11.8572216466
 11
11.9293316385
 21
11.8658258112
  0
LINE
  5
368
100
AcDbEntity
  8
03__ASM_ALL_CURVES
100
AcDbLine
 62
4
  6
CONTINUOUS
 10
11.2969253885
 20
11.4202216466
 11
11.3098316385
 21
11.4288258112
  0
LINE
  5
369
100
AcDbEntity
  8
03__ASM_ALL_CURVES
100
AcDbLine
 62
4
  6
CONTINUOUS
 10
11.9164253885
 20
11.8142008112
 11
11.9293316385
 21
11.8228049759
  0
LINE
  5
36A
100
AcDbEntity
  8
03__ASM_ALL_CURVES
100
AcDbLine
 62
4
  6
CONTINUOUS
 10
11.9551441385
 20
11.8314091466
 11
11.9422378885
 21
11.8228049759
  0
LINE
  5
36B
100
AcDbEntity
  8
03__ASM_ALL_CURVES
100
AcDbLine
 62
4
  6
CONTINUOUS
 10
12.0196753885
 20
11.8572216466
 11
12.0325816385
 21
11.8658258112
  0
LINE
  5
36C
100
AcDbEntity
  8
03__ASM_ALL_CURVES
100
AcDbLine
 62
4
  6
CONTINUOUS
 10
11.3356441385
 20
11.3858049759
 11
11.3098316385
 21
11.3685966436
  0
LINE
  5
36D
100
AcDbEntity
  8
03__ASM_ALL_CURVES
100
AcDbLine
 62
4
  6
CONTINUOUS
 10
11.9551441385
 20
11.7711799782
 11
11.9422378885
 21
11.7625758112
  0
LINE
  5
36E
100
AcDbEntity
  8
03__ASM_ALL_CURVES
100
AcDbLine
 62
4
  6
CONTINUOUS
 10
12.0583941385
 20
11.8228049759
 11
12.0325816385
 21
11.8055966436
  0
LINE
  5
36F
100
AcDbEntity
  8
03__ASM_ALL_CURVES
100
AcDbLine
 62
4
  6
CONTINUOUS
 10
11.5034253885
 20
11.4202216466
 11
11.5163316385
 21
11.4288258112
  0
LINE
  5
370
100
AcDbEntity
  8
03__ASM_ALL_CURVES
100
AcDbLine
 62
4
  6
CONTINUOUS
 10
11.5034253885
 20
11.3772008112
 11
11.5163316385
 21
11.3858049759
  0
LINE
  5
371
100
AcDbEntity
  8
03__ASM_ALL_CURVES
100
AcDbLine
 62
4
  6
CONTINUOUS
 10
11.5421441385
 20
11.3944091466
 11
11.5292378885
 21
11.3858049759
  0
LINE
  5
372
100
AcDbEntity
  8
03__ASM_ALL_CURVES
100
AcDbLine
 62
4
  6
CONTINUOUS
 10
12.2261753885
 20
11.8228049759
 11
12.2390816385
 21
11.8314091466
  0
LINE
  5
373
100
AcDbEntity
  8
03__ASM_ALL_CURVES
100
AcDbLine
 62
4
  6
CONTINUOUS
 10
10.4826597635
 20
10.6342008136
 11
10.4976597635
 21
10.6442008112
  0
LINE
  5
374
100
AcDbEntity
  8
03__ASM_ALL_CURVES
100
AcDbLine
 62
4
  6
CONTINUOUS
 10
11.5421441385
 20
11.3341799782
 11
11.5292378885
 21
11.3255758112
  0
LINE
  5
375
100
AcDbEntity
  8
03__ASM_ALL_CURVES
100
AcDbLine
 62
4
  6
CONTINUOUS
 10
12.3294253885
 20
11.8228049759
 11
12.3423316385
 21
11.8314091466
  0
LINE
  5
376
100
AcDbEntity
  8
03__ASM_ALL_CURVES
100
AcDbLine
 62
4
  6
CONTINUOUS
 10
7.6107430989
 20
7.2152789362
 11
7.6365555989
 21
7.2217320612
  0
LINE
  5
377
100
AcDbEntity
  8
03__ASM_ALL_CURVES
100
AcDbLine
 62
4
  6
CONTINUOUS
 10
12.3552378885
 20
7.9185758112
 11
12.3423316385
 21
7.9185758112
  0
LINE
  5
378
100
AcDbEntity
  8
03__ASM_ALL_CURVES
100
AcDbLine
 62
4
  6
CONTINUOUS
 10
12.1680972635
 20
7.9185758112
 11
12.158417576
 21
7.9185758112
  0
LINE
  5
379
100
AcDbEntity
  8
03__ASM_ALL_CURVES
100
AcDbLine
 62
4
  6
CONTINUOUS
 10
11.5292378885
 20
7.9185758112
 11
11.5163316385
 21
7.9185758112
  0
LINE
  5
37A
100
AcDbEntity
  8
03__ASM_ALL_CURVES
100
AcDbLine
 62
4
  6
CONTINUOUS
 10
11.4453472635
 20
7.9185758112
 11
11.435667576
 21
7.9185758112
  0
LINE
  5
37B
100
AcDbEntity
  8
03__ASM_ALL_CURVES
100
AcDbLine
 62
4
  6
CONTINUOUS
 10
10.6279514281
 20
7.9188883112
 11
10.6623680958
 21
7.9188883112
  0
LINE
  5
37C
100
AcDbEntity
  8
03__ASM_ALL_CURVES
100
AcDbLine
 62
4
  6
CONTINUOUS
 10
12.0132222635
 20
7.9443883112
 11
12.0713003885
 21
7.9443883112
  0
LINE
  5
37D
100
AcDbEntity
  8
0
100
AcDbLine
 62
7
  6
CONTINUOUS
 10
10.2001597635
 20
7.9702008112
 11
9.3401597635
 21
7.9702008112
  0
LINE
  5
37E
100
AcDbEntity
  8
03__ASM_ALL_CURVES
100
AcDbLine
 62
4
  6
CONTINUOUS
 10
10.7484097635
 20
7.9702008112
 11
11.0581597635
 21
7.9702008112
  0
LINE
  5
37F
100
AcDbEntity
  8
03__ASM_ALL_CURVES
100
AcDbLine
 62
4
  6
CONTINUOUS
 10
12.3423316385
 20
7.9788049759
 11
12.3552378885
 21
7.9788049759
  0
LINE
  5
380
100
AcDbEntity
  8
03__ASM_ALL_CURVES
100
AcDbLine
 62
4
  6
CONTINUOUS
 10
11.5163316385
 20
7.9874091466
 11
11.5292378885
 21
7.9874091466
  0
LINE
  5
381
100
AcDbEntity
  8
0
100
AcDbLine
 62
7
  6
CONTINUOUS
 10
10.2591597635
 20
8.0042644771
 11
10.258262236
 21
8.0042644771
  0
LINE
  5
382
100
AcDbEntity
  8
0
100
AcDbLine
 62
7
  6
CONTINUOUS
 10
10.039857291
 20
8.0042644771
 11
9.9885647085
 21
8.0042644771
  0
LINE
  5
383
100
AcDbEntity
  8
0
100
AcDbLine
 62
7
  6
CONTINUOUS
 10
9.5517548185
 20
8.0042644771
 11
9.500462236
 21
8.0042644771
  0
LINE
  5
384
100
AcDbEntity
  8
0
100
AcDbLine
 62
7
  6
CONTINUOUS
 10
9.282057291
 20
8.0042644771
 11
9.2811597635
 21
8.0042644771
  0
LINE
  5
385
100
AcDbEntity
  8
03__ASM_ALL_CURVES
100
AcDbLine
 62
4
  6
CONTINUOUS
 10
11.5485972635
 20
8.0218258112
 11
11.5098785135
 21
8.0218258112
  0
LINE
  5
386
100
AcDbEntity
  8
03__ASM_ALL_CURVES
100
AcDbLine
 62
4
  6
CONTINUOUS
 10
12.3423316385
 20
8.0218258112
 11
12.3552378885
 21
8.0218258112
  0
LINE
  5
387
100
AcDbEntity
  8
03__ASM_ALL_CURVES
100
AcDbLine
 62
4
  6
CONTINUOUS
 10
10.6279514281
 20
7.8672633112
 11
10.6107430989
 21
7.8737164362
  0
LINE
  5
388
100
AcDbEntity
  8
03__ASM_ALL_CURVES
100
AcDbLine
 62
4
  6
CONTINUOUS
 10
10.6623680958
 20
7.9188883112
 11
10.6795764296
 21
7.9124351862
  0
LINE
  5
389
100
AcDbEntity
  8
03__ASM_ALL_CURVES
100
AcDbLine
 62
4
  6
CONTINUOUS
 10
10.3131805966
 20
6.8087320612
 11
10.3217847635
 21
6.7958258112
  0
LINE
  5
38A
100
AcDbEntity
  8
03__ASM_ALL_CURVES
100
AcDbLine
 62
4
  6
CONTINUOUS
 10
10.2271389281
 20
6.9829664362
 11
10.2185347635
 21
6.9958726862
  0
LINE
  5
38B
100
AcDbEntity
  8
03__ASM_ALL_CURVES
100
AcDbLine
 62
4
  6
CONTINUOUS
 10
10.2529514281
 20
7.0216851862
 11
10.2615555989
 21
7.0087789362
  0
LINE
  5
38C
100
AcDbEntity
  8
03__ASM_ALL_CURVES
100
AcDbLine
 62
4
  6
CONTINUOUS
 10
10.2271389281
 20
7.0926695612
 11
10.2185347635
 21
7.1055758112
  0
LINE
  5
38D
100
AcDbEntity
  8
03__ASM_ALL_CURVES
100
AcDbLine
 62
4
  6
CONTINUOUS
 10
10.3131805966
 20
7.0216851862
 11
10.3217847635
 21
7.0087789362
  0
LINE
  5
38E
100
AcDbEntity
  8
03__ASM_ALL_CURVES
100
AcDbLine
 62
4
  6
CONTINUOUS
 10
10.3131805966
 20
7.1184820612
 11
10.3217847635
 21
7.1055758112
  0
LINE
  5
38F
100
AcDbEntity
  8
03__ASM_ALL_CURVES
100
AcDbLine
 62
4
  6
CONTINUOUS
 10
8.5901597635
 20
10.7642008101
 11
8.5976597635
 21
10.7342008118
  0
LINE
  5
390
100
AcDbEntity
  8
03__ASM_ALL_CURVES
100
AcDbLine
 62
4
  6
CONTINUOUS
 10
8.7551597635
 20
10.8042008112
 11
8.7626597635
 21
10.7742008112
  0
LINE
  5
391
100
AcDbEntity
  8
0
100
AcDbLine
 62
7
  6
CONTINUOUS
 10
9.2451597635
 20
11.2542008112
 11
9.2451597635
 21
11.2942008112
  0
LINE
  5
392
100
AcDbEntity
  8
0
100
AcDbLine
 62
7
  6
CONTINUOUS
 10
9.2811597635
 20
8.4407008112
 11
9.2811597635
 21
8.0042644771
  0
LINE
  5
393
100
AcDbEntity
  8
0
100
AcDbLine
 62
7
  6
CONTINUOUS
 10
9.282057291
 20
8.4407008112
 11
9.282057291
 21
8.0042644771
  0
LINE
  5
394
100
AcDbEntity
  8
0
100
AcDbLine
 62
7
  6
CONTINUOUS
 10
9.3051597635
 20
11.3142008112
 11
9.3051597635
 21
11.2542008112
  0
LINE
  5
395
100
AcDbEntity
  8
0
100
AcDbLine
 62
7
  6
CONTINUOUS
 10
9.3416597635
 20
8.5642008112
 11
9.3416597635
 21
8.5012008112
  0
LINE
  5
396
100
AcDbEntity
  8
0
100
AcDbLine
 62
7
  6
CONTINUOUS
 10
9.3451597635
 20
11.3142008112
 11
9.3451597635
 21
11.2542008112
  0
LINE
  5
397
100
AcDbEntity
  8
0
100
AcDbLine
 62
7
  6
CONTINUOUS
 10
9.4051597635
 20
11.2542008112
 11
9.4051597635
 21
11.3142008112
  0
LINE
  5
398
100
AcDbEntity
  8
03__ASM_ALL_CURVES
100
AcDbLine
 62
4
  6
CONTINUOUS
 10
9.4151597635
 20
10.7142008112
 11
9.4151597635
 21
10.8342008112
  0
LINE
  5
399
100
AcDbEntity
  8
0
100
AcDbLine
 62
7
  6
CONTINUOUS
 10
9.4451597635
 20
11.2542008112
 11
9.4451597635
 21
11.3742008112
  0
LINE
  5
39A
100
AcDbEntity
  8
0
100
AcDbLine
 62
7
  6
CONTINUOUS
 10
9.4851597635
 20
11.2542008112
 11
9.4851597635
 21
11.3142008112
  0
LINE
  5
39B
100
AcDbEntity
  8
0
100
AcDbLine
 62
7
  6
CONTINUOUS
 10
9.500462236
 20
8.4407008112
 11
9.500462236
 21
8.0042644771
  0
LINE
  5
39C
100
AcDbEntity
  8
03__ASM_ALL_CURVES
100
AcDbLine
 62
4
  6
CONTINUOUS
 10
9.7001597635
 20
10.7642008101
 11
9.6926597635
 21
10.7342008118
  0
LINE
  5
39D
100
AcDbEntity
  8
03__ASM_ALL_CURVES
100
AcDbLine
 62
4
  6
CONTINUOUS
 10
9.5601597635
 20
9.8442008112
 11
9.5676597635
 21
9.8742008112
  0
LINE
  5
39E
100
AcDbEntity
  8
03__ASM_ALL_CURVES
100
AcDbLine
 62
4
  6
CONTINUOUS
 10
7.6967847635
 20
7.1055758112
 11
7.6881805966
 21
7.0926695612
  0
LINE
  5
39F
100
AcDbEntity
  8
03__ASM_ALL_CURVES
100
AcDbLine
 62
4
  6
CONTINUOUS
 10
7.5935347635
 20
6.7958258112
 11
7.6021389281
 21
6.8087320612
  0
LINE
  5
3A0
100
AcDbEntity
  8
03__ASM_ALL_CURVES
100
AcDbLine
 62
4
  6
CONTINUOUS
 10
7.6967847635
 20
6.7958258112
 11
7.6881805966
 21
6.7829195612
  0
LINE
  5
3A1
100
AcDbEntity
  8
03__ASM_ALL_CURVES
100
AcDbLine
 62
4
  6
CONTINUOUS
 10
9.5676597635
 20
9.8742008112
 11
9.5826597635
 21
9.8942008136
  0
LINE
  5
3A2
100
AcDbEntity
  8
03__ASM_ALL_CURVES
100
AcDbLine
 62
4
  6
CONTINUOUS
 10
11.3420972635
 20
12.2150133112
 11
11.3356441385
 21
12.2064091466
  0
LINE
  5
3A3
100
AcDbEntity
  8
03__ASM_ALL_CURVES
100
AcDbLine
 62
4
  6
CONTINUOUS
 10
11.3485503885
 20
12.1633883112
 11
11.3356441385
 21
12.1461799782
  0
LINE
  5
3A4
100
AcDbEntity
  8
03__ASM_ALL_CURVES
100
AcDbLine
 62
4
  6
CONTINUOUS
 10
9.6351597635
 20
9.8042008118
 11
9.6276597635
 21
9.7942008115
  0
LINE
  5
3A5
100
AcDbEntity
  8
03__ASM_ALL_CURVES
100
AcDbLine
 62
4
  6
CONTINUOUS
 10
11.5034253885
 20
12.2236174759
 11
11.5098785135
 21
12.2322216466
  0
LINE
  5
3A6
100
AcDbEntity
  8
03__ASM_ALL_CURVES
100
AcDbLine
 62
4
  6
CONTINUOUS
 10
12.2648941385
 20
11.7711799782
 11
12.2519878885
 21
11.7625758112
  0
LINE
  5
3A7
100
AcDbEntity
  8
03__ASM_ALL_CURVES
100
AcDbLine
 62
4
  6
CONTINUOUS
 10
10.5276597635
 20
10.5942008089
 11
10.4976597635
 21
10.5742008101
  0
LINE
  5
3A8
100
AcDbEntity
  8
03__ASM_ALL_CURVES
100
AcDbLine
 62
4
  6
CONTINUOUS
 10
12.3681441385
 20
11.7711799782
 11
12.3552378885
 21
11.7625758112
  0
LINE
  5
3A9
100
AcDbEntity
  8
03__ASM_ALL_CURVES
100
AcDbLine
 62
4
  6
CONTINUOUS
 10
9.5826597635
 20
9.8942008136
 11
9.5976597635
 21
9.9042008112
  0
LINE
  5
3AA
100
AcDbEntity
  8
03__ASM_ALL_CURVES
100
AcDbLine
 62
4
  6
CONTINUOUS
 10
9.6276597635
 20
9.7942008115
 11
9.6126597635
 21
9.7842008112
  0
LINE
  5
3AB
100
AcDbEntity
  8
03__ASM_ALL_CURVES
100
AcDbLine
 62
4
  6
CONTINUOUS
 10
9.5976597635
 20
8.6642008112
 11
9.5826597635
 21
8.6742008115
  0
LINE
  5
3AC
100
AcDbEntity
  8
03__ASM_ALL_CURVES
100
AcDbLine
 62
4
  6
CONTINUOUS
 10
10.6107430989
 20
7.8737164362
 11
10.6021389281
 21
7.8801695612
  0
LINE
  5
3AD
100
AcDbEntity
  8
03__ASM_ALL_CURVES
100
AcDbLine
 62
4
  6
CONTINUOUS
 10
10.6795764296
 20
7.9124351862
 11
10.6881805966
 21
7.9059820612
  0
LINE
  5
3AE
100
AcDbEntity
  8
03__ASM_ALL_CURVES
100
AcDbLine
 62
4
  6
CONTINUOUS
 10
9.5826597635
 20
8.6742008115
 11
9.5676597635
 21
8.6942008112
  0
LINE
  5
3AF
100
AcDbEntity
  8
03__ASM_ALL_CURVES
100
AcDbLine
 62
4
  6
CONTINUOUS
 10
9.6276597635
 20
8.7742008136
 11
9.6351597635
 21
8.7642008089
  0
LINE
  5
3B0
100
AcDbEntity
  8
03__ASM_ALL_CURVES
100
AcDbLine
 62
4
  6
CONTINUOUS
 10
10.2701597635
 20
6.8151851862
 11
10.2787639312
 21
6.7958258112
  0
LINE
  5
3B1
100
AcDbEntity
  8
03__ASM_ALL_CURVES
100
AcDbLine
 62
4
  6
CONTINUOUS
 10
10.2701597635
 20
7.1249351862
 11
10.2787639312
 21
7.1055758112
  0
LINE
  5
3B2
100
AcDbEntity
  8
03__ASM_ALL_CURVES
100
AcDbLine
 62
4
  6
CONTINUOUS
 10
8.8451597635
 20
10.8342008112
 11
8.8826597635
 21
10.7142008112
  0
LINE
  5
3B3
100
AcDbEntity
  8
03__ASM_ALL_CURVES
100
AcDbLine
 62
4
  6
CONTINUOUS
 10
9.5676597635
 20
8.6942008112
 11
9.5601597635
 21
8.7242008112
  0
LINE
  5
3B4
100
AcDbEntity
  8
0
100
AcDbLine
 62
7
  6
CONTINUOUS
 10
9.5251597635
 20
11.3142008112
 11
9.5251597635
 21
11.2542008112
  0
LINE
  5
3B5
100
AcDbEntity
  8
03__ASM_ALL_CURVES
100
AcDbLine
 62
4
  6
CONTINUOUS
 10
9.5351597635
 20
10.7142008112
 11
9.5351597635
 21
10.8342008112
  0
LINE
  5
3B6
100
AcDbEntity
  8
0
100
AcDbLine
 62
7
  6
CONTINUOUS
 10
9.5517548185
 20
8.4407008112
 11
9.5517548185
 21
8.0042644771
  0
LINE
  5
3B7
100
AcDbEntity
  8
0
100
AcDbLine
 62
7
  6
CONTINUOUS
 10
9.6251597635
 20
11.3142008112
 11
9.6251597635
 21
11.2842008112
  0
LINE
  5
3B8
100
AcDbEntity
  8
03__ASM_ALL_CURVES
100
AcDbLine
 62
4
  6
CONTINUOUS
 10
9.6351597635
 20
9.8442008112
 11
9.6351597635
 21
9.8042008118
  0
LINE
  5
3B9
100
AcDbEntity
  8
0
100
AcDbLine
 62
7
  6
CONTINUOUS
 10
9.6851597635
 20
11.2842008112
 11
9.6851597635
 21
11.2542008112
  0
LINE
  5
3BA
100
AcDbEntity
  8
03__ASM_ALL_CURVES
100
AcDbLine
 62
4
  6
CONTINUOUS
 10
9.7001597635
 20
10.7842008089
 11
9.7001597635
 21
10.7642008101
  0
LINE
  5
3BB
100
AcDbEntity
  8
03__ASM_ALL_CURVES
100
AcDbLine
 62
4
  6
CONTINUOUS
 10
9.5601597635
 20
8.7242008112
 11
9.5676597635
 21
8.7542008112
  0
LINE
  5
3BC
100
AcDbEntity
  8
03__ASM_ALL_CURVES
100
AcDbLine
 62
4
  6
CONTINUOUS
 10
7.5935347635
 20
6.3828258112
 11
7.6021389281
 21
6.3957320612
  0
LINE
  5
3BD
100
AcDbEntity
  8
03__ASM_ALL_CURVES
100
AcDbLine
 62
4
  6
CONTINUOUS
 10
7.6967847635
 20
6.3828258112
 11
7.6881805966
 21
6.3699195612
  0
LINE
  5
3BE
100
AcDbEntity
  8
03__ASM_ALL_CURVES
100
AcDbLine
 62
4
  6
CONTINUOUS
 10
7.5935347635
 20
6.1827789362
 11
7.6021389281
 21
6.1956851862
  0
LINE
  5
3BF
100
AcDbEntity
  8
03__ASM_ALL_CURVES
100
AcDbLine
 62
4
  6
CONTINUOUS
 10
7.6365555989
 20
6.1827789362
 11
7.6451597635
 21
6.1956851862
  0
LINE
  5
3C0
100
AcDbEntity
  8
03__ASM_ALL_CURVES
100
AcDbLine
 62
4
  6
CONTINUOUS
 10
11.5421441385
 20
12.1547841451
 11
11.5356910135
 21
12.1461799782
  0
LINE
  5
3C1
100
AcDbEntity
  8
03__ASM_ALL_CURVES
100
AcDbLine
 62
4
  6
CONTINUOUS
 10
11.6002222635
 20
12.2236174759
 11
11.6066753885
 21
12.2322216466
  0
LINE
  5
3C2
100
AcDbEntity
  8
03__ASM_ALL_CURVES
100
AcDbLine
 62
4
  6
CONTINUOUS
 10
11.3420972635
 20
11.8400133112
 11
11.3356441385
 21
11.8314091466
  0
LINE
  5
3C3
100
AcDbEntity
  8
03__ASM_ALL_CURVES
100
AcDbLine
 62
4
  6
CONTINUOUS
 10
11.6195816385
 20
12.1805966436
 11
11.6066753885
 21
12.1633883112
  0
LINE
  5
3C4
100
AcDbEntity
  8
03__ASM_ALL_CURVES
100
AcDbLine
 62
4
  6
CONTINUOUS
 10
11.6518472635
 20
12.2064091466
 11
11.6453941385
 21
12.1978049759
  0
LINE
  5
3C5
100
AcDbEntity
  8
03__ASM_ALL_CURVES
100
AcDbLine
 62
4
  6
CONTINUOUS
 10
10.4751597635
 20
10.6242008089
 11
10.4826597635
 21
10.6342008136
  0
LINE
  5
3C6
100
AcDbEntity
  8
03__ASM_ALL_CURVES
100
AcDbLine
 62
4
  6
CONTINUOUS
 10
11.3485503885
 20
11.7883883112
 11
11.3356441385
 21
11.7711799782
  0
LINE
  5
3C7
100
AcDbEntity
  8
03__ASM_ALL_CURVES
100
AcDbLine
 62
4
  6
CONTINUOUS
 10
10.4976597635
 20
10.5742008101
 11
10.4826597635
 21
10.5542008112
  0
LINE
  5
3C8
100
AcDbEntity
  8
03__ASM_ALL_CURVES
100
AcDbLine
 62
4
  6
CONTINUOUS
 10
10.5351597635
 20
10.6042008136
 11
10.5276597635
 21
10.5942008089
  0
LINE
  5
3C9
100
AcDbEntity
  8
03__ASM_ALL_CURVES
100
AcDbLine
 62
4
  6
CONTINUOUS
 10
11.4969722635
 20
11.8486174759
 11
11.5034253885
 21
11.8572216466
  0
LINE
  5
3CA
100
AcDbEntity
  8
03__ASM_ALL_CURVES
100
AcDbLine
 62
4
  6
CONTINUOUS
 10
11.8389878885
 20
12.2408258112
 11
11.8260816385
 21
12.2236174759
  0
LINE
  5
3CB
100
AcDbEntity
  8
03__ASM_ALL_CURVES
100
AcDbLine
 62
4
  6
CONTINUOUS
 10
11.5163316385
 20
11.8055966436
 11
11.5034253885
 21
11.7883883112
  0
LINE
  5
3CC
100
AcDbEntity
  8
03__ASM_ALL_CURVES
100
AcDbLine
 62
4
  6
CONTINUOUS
 10
11.5485972635
 20
11.8314091466
 11
11.5421441385
 21
11.8228049759
  0
LINE
  5
3CD
100
AcDbEntity
  8
03__ASM_ALL_CURVES
100
AcDbLine
 62
4
  6
CONTINUOUS
 10
11.2904722635
 20
11.4116174759
 11
11.2969253885
 21
11.4202216466
  0
LINE
  5
3CE
100
AcDbEntity
  8
03__ASM_ALL_CURVES
100
AcDbLine
 62
4
  6
CONTINUOUS
 10
11.9164253885
 20
12.2236174759
 11
11.9228785135
 21
12.2322216466
  0
LINE
  5
3CF
100
AcDbEntity
  8
03__ASM_ALL_CURVES
100
AcDbLine
 62
4
  6
CONTINUOUS
 10
12.2261753885
 20
11.4202216466
 11
12.2390816385
 21
11.4288258112
  0
LINE
  5
3D0
100
AcDbEntity
  8
03__ASM_ALL_CURVES
100
AcDbLine
 62
4
  6
CONTINUOUS
 10
12.2648941385
 20
11.3944091466
 11
12.2519878885
 21
11.3858049759
  0
LINE
  5
3D1
100
AcDbEntity
  8
03__ASM_ALL_CURVES
100
AcDbLine
 62
4
  6
CONTINUOUS
 10
12.2648941385
 20
11.3341799782
 11
12.2519878885
 21
11.3255758112
  0
LINE
  5
3D2
100
AcDbEntity
  8
0
100
AcDbLine
 62
7
  6
CONTINUOUS
 10
10.2591597635
 20
8.4407008112
 11
10.258262236
 21
8.4407008112
  0
LINE
  5
3D3
100
AcDbEntity
  8
0
100
AcDbLine
 62
7
  6
CONTINUOUS
 10
10.039857291
 20
8.4407008112
 11
9.9885647085
 21
8.4407008112
  0
LINE
  5
3D4
100
AcDbEntity
  8
0
100
AcDbLine
 62
7
  6
CONTINUOUS
 10
9.5517548185
 20
8.4407008112
 11
9.500462236
 21
8.4407008112
  0
LINE
  5
3D5
100
AcDbEntity
  8
0
100
AcDbLine
 62
7
  6
CONTINUOUS
 10
9.282057291
 20
8.4407008112
 11
9.2811597635
 21
8.4407008112
  0
LINE
  5
3D6
100
AcDbEntity
  8
0
100
AcDbLine
 62
7
  6
CONTINUOUS
 10
10.1986597635
 20
8.5012008112
 11
9.3416597635
 21
8.5012008112
  0
LINE
  5
3D7
100
AcDbEntity
  8
0
100
AcDbLine
 62
7
  6
CONTINUOUS
 10
7.6451597635
 20
8.5642008112
 11
10.6451597635
 21
8.5642008112
  0
LINE
  5
3D8
100
AcDbEntity
  8
03__ASM_ALL_CURVES
100
AcDbLine
 62
4
  6
CONTINUOUS
 10
10.7484097635
 20
8.5642008112
 11
11.0581597635
 21
8.5642008112
  0
LINE
  5
3D9
100
AcDbEntity
  8
03__ASM_ALL_CURVES
100
AcDbLine
 62
4
  6
CONTINUOUS
 10
9.9651597635
 20
8.6642008112
 11
9.9351597635
 21
8.6642008112
  0
LINE
  5
3DA
100
AcDbEntity
  8
03__ASM_ALL_CURVES
100
AcDbLine
 62
4
  6
CONTINUOUS
 10
9.8526597635
 20
8.6642008112
 11
9.8376597635
 21
8.6642008112
  0
LINE
  5
3DB
100
AcDbEntity
  8
03__ASM_ALL_CURVES
100
AcDbLine
 62
4
  6
CONTINUOUS
 10
9.6126597635
 20
8.6642008112
 11
9.5976597635
 21
8.6642008112
  0
LINE
  5
3DC
100
AcDbEntity
  8
03__ASM_ALL_CURVES
100
AcDbLine
 62
4
  6
CONTINUOUS
 10
11.6260347635
 20
7.9615966436
 11
11.6066753885
 21
7.9702008112
  0
LINE
  5
3DD
100
AcDbEntity
  8
03__ASM_ALL_CURVES
100
AcDbLine
 62
4
  6
CONTINUOUS
 10
9.6126597635
 20
8.7842008112
 11
9.6276597635
 21
8.7742008136
  0
LINE
  5
3DE
100
AcDbEntity
  8
03__ASM_ALL_CURVES
100
AcDbLine
 62
4
  6
CONTINUOUS
 10
9.8376597635
 20
8.6642008112
 11
9.8226597635
 21
8.6742008115
  0
LINE
  5
3DF
100
AcDbEntity
  8
03__ASM_ALL_CURVES
100
AcDbLine
 62
4
  6
CONTINUOUS
 10
9.8526597635
 20
8.7842008112
 11
9.8676597635
 21
8.7742008136
  0
LINE
  5
3E0
100
AcDbEntity
  8
03__ASM_ALL_CURVES
100
AcDbLine
 62
4
  6
CONTINUOUS
 10
9.9651597635
 20
8.7842008112
 11
9.9801597635
 21
8.7742008136
  0
LINE
  5
3E1
100
AcDbEntity
  8
0
100
AcDbLine
 62
7
  6
CONTINUOUS
 10
10.1986597635
 20
8.5012008112
 11
10.2591597635
 21
8.4407008112
  0
LINE
  5
3E2
100
AcDbEntity
  8
03__ASM_ALL_CURVES
100
AcDbLine
 62
4
  6
CONTINUOUS
 10
9.8226597635
 20
8.6742008115
 11
9.8076597635
 21
8.6942008112
  0
LINE
  5
3E3
100
AcDbEntity
  8
03__ASM_ALL_CURVES
100
AcDbLine
 62
4
  6
CONTINUOUS
 10
7.7826597635
 20
11.5042008115
 11
7.7751597635
 21
11.5142008118
  0
LINE
  5
3E4
100
AcDbEntity
  8
03__ASM_ALL_CURVES
100
AcDbLine
 62
4
  6
CONTINUOUS
 10
9.8676597635
 20
8.7742008136
 11
9.8751597635
 21
8.7642008089
  0
LINE
  5
3E5
100
AcDbEntity
  8
03__ASM_ALL_CURVES
100
AcDbLine
 62
4
  6
CONTINUOUS
 10
7.8276597635
 20
11.5542008112
 11
7.8426597635
 21
11.5342008124
  0
LINE
  5
3E6
100
AcDbEntity
  8
03__ASM_ALL_CURVES
100
AcDbLine
 62
4
  6
CONTINUOUS
 10
7.8276597635
 20
11.6042008136
 11
7.8351597635
 21
11.5942008089
  0
LINE
  5
3E7
100
AcDbEntity
  8
03__ASM_ALL_CURVES
100
AcDbLine
 62
4
  6
CONTINUOUS
 10
9.6951597635
 20
8.7842008112
 11
9.7551597635
 21
8.6642008112
  0
LINE
  5
3E8
100
AcDbEntity
  8
03__ASM_ALL_CURVES
100
AcDbLine
 62
4
  6
CONTINUOUS
 10
9.0251597635
 20
11.0742008112
 11
9.0626597635
 21
10.9542008112
  0
LINE
  5
3E9
100
AcDbEntity
  8
03__ASM_ALL_CURVES
100
AcDbLine
 62
4
  6
CONTINUOUS
 10
9.1676597635
 20
10.7442008112
 11
9.1601597635
 21
10.7742008112
  0
LINE
  5
3EA
100
AcDbEntity
  8
03__ASM_ALL_CURVES
100
AcDbLine
 62
4
  6
CONTINUOUS
 10
9.2876597635
 20
10.7442008112
 11
9.2801597635
 21
10.7742008112
  0
LINE
  5
3EB
100
AcDbEntity
  8
03__ASM_ALL_CURVES
100
AcDbLine
 62
4
  6
CONTINUOUS
 10
9.8076597635
 20
8.6942008112
 11
9.8001597635
 21
8.7242008112
  0
LINE
  5
3EC
100
AcDbEntity
  8
03__ASM_ALL_CURVES
100
AcDbLine
 62
4
  6
CONTINUOUS
 10
9.5676597635
 20
9.8142008112
 11
9.5601597635
 21
9.8442008112
  0
LINE
  5
3ED
100
AcDbEntity
  8
03__ASM_ALL_CURVES
100
AcDbLine
 62
4
  6
CONTINUOUS
 10
9.3626597635
 20
10.8042008112
 11
9.3701597635
 21
10.7742008112
  0
LINE
  5
3EE
100
AcDbEntity
  8
03__ASM_ALL_CURVES
100
AcDbLine
 62
4
  6
CONTINUOUS
 10
9.9351597635
 20
8.6642008112
 11
9.9351597635
 21
8.7842008112
  0
LINE
  5
3EF
100
AcDbEntity
  8
0
100
AcDbLine
 62
7
  6
CONTINUOUS
 10
9.9885647085
 20
8.4407008112
 11
9.9885647085
 21
8.0042644771
  0
LINE
  5
3F0
100
AcDbEntity
  8
0
100
AcDbLine
 62
7
  6
CONTINUOUS
 10
10.039857291
 20
8.4407008112
 11
10.039857291
 21
8.0042644771
  0
LINE
  5
3F1
100
AcDbEntity
  8
03__ASM_ALL_CURVES
100
AcDbLine
 62
4
  6
CONTINUOUS
 10
9.8001597635
 20
8.7242008112
 11
9.8076597635
 21
8.7542008112
  0
LINE
  5
3F2
100
AcDbEntity
  8
03__ASM_ALL_CURVES
100
AcDbLine
 62
4
  6
CONTINUOUS
 10
9.6951597635
 20
8.6642008112
 11
9.7551597635
 21
8.7842008112
  0
LINE
  5
3F3
100
AcDbEntity
  8
03__ASM_ALL_CURVES
100
AcDbLine
 62
4
  6
CONTINUOUS
 10
7.6967847635
 20
6.1698726862
 11
7.6881805966
 21
6.1569664362
  0
LINE
  5
3F4
100
AcDbEntity
  8
03__ASM_ALL_CURVES
100
AcDbLine
 62
4
  6
CONTINUOUS
 10
8.5935347635
 20
7.1120289362
 11
8.6021389281
 21
7.1249351862
  0
LINE
  5
3F5
100
AcDbEntity
  8
03__ASM_ALL_CURVES
100
AcDbLine
 62
4
  6
CONTINUOUS
 10
11.3098316385
 20
11.3685966436
 11
11.2969253885
 21
11.3513883112
  0
LINE
  5
3F6
100
AcDbEntity
  8
03__ASM_ALL_CURVES
100
AcDbLine
 62
4
  6
CONTINUOUS
 10
11.3420972635
 20
11.3944091466
 11
11.3356441385
 21
11.3858049759
  0
LINE
  5
3F7
100
AcDbEntity
  8
03__ASM_ALL_CURVES
100
AcDbLine
 62
4
  6
CONTINUOUS
 10
11.6518472635
 20
11.7797841451
 11
11.6453941385
 21
11.7711799782
  0
LINE
  5
3F8
100
AcDbEntity
  8
03__ASM_ALL_CURVES
100
AcDbLine
 62
4
  6
CONTINUOUS
 10
11.9551441385
 20
12.1547841451
 11
11.9486910135
 21
12.1461799782
  0
LINE
  5
3F9
100
AcDbEntity
  8
03__ASM_ALL_CURVES
100
AcDbLine
 62
4
  6
CONTINUOUS
 10
11.4969722635
 20
11.4116174759
 11
11.5034253885
 21
11.4202216466
  0
LINE
  5
3FA
100
AcDbEntity
  8
03__ASM_ALL_CURVES
100
AcDbLine
 62
4
  6
CONTINUOUS
 10
11.8389878885
 20
11.8658258112
 11
11.8260816385
 21
11.8486174759
  0
LINE
  5
3FB
100
AcDbEntity
  8
03__ASM_ALL_CURVES
100
AcDbLine
 62
4
  6
CONTINUOUS
 10
11.4905191385
 20
11.3599924789
 11
11.5034253885
 21
11.3772008112
  0
LINE
  5
3FC
100
AcDbEntity
  8
03__ASM_ALL_CURVES
100
AcDbLine
 62
4
  6
CONTINUOUS
 10
11.5485972635
 20
11.4030133112
 11
11.5421441385
 21
11.3944091466
  0
LINE
  5
3FD
100
AcDbEntity
  8
03__ASM_ALL_CURVES
100
AcDbLine
 62
4
  6
CONTINUOUS
 10
9.5676597635
 20
8.7542008112
 11
9.5826597635
 21
8.7742008136
  0
LINE
  5
3FE
100
AcDbEntity
  8
03__ASM_ALL_CURVES
100
AcDbLine
 62
4
  6
CONTINUOUS
 10
11.9099722635
 20
11.8486174759
 11
11.9164253885
 21
11.8572216466
  0
LINE
  5
3FF
100
AcDbEntity
  8
03__ASM_ALL_CURVES
100
AcDbLine
 62
4
  6
CONTINUOUS
 10
11.5550503885
 20
11.3513883112
 11
11.5421441385
 21
11.3341799782
  0
LINE
  5
400
100
AcDbEntity
  8
03__ASM_ALL_CURVES
100
AcDbLine
 62
4
  6
CONTINUOUS
 10
11.9035191385
 20
11.7969924789
 11
11.9164253885
 21
11.8142008112
  0
LINE
  5
401
100
AcDbEntity
  8
03__ASM_ALL_CURVES
100
AcDbLine
 62
4
  6
CONTINUOUS
 10
12.2261753885
 20
12.2236174759
 11
12.2326285135
 21
12.2322216466
  0
LINE
  5
402
100
AcDbEntity
  8
03__ASM_ALL_CURVES
100
AcDbLine
 62
4
  6
CONTINUOUS
 10
11.9615972635
 20
11.8400133112
 11
11.9551441385
 21
11.8314091466
  0
LINE
  5
403
100
AcDbEntity
  8
03__ASM_ALL_CURVES
100
AcDbLine
 62
4
  6
CONTINUOUS
 10
12.8585816385
 20
11.4288258112
 11
12.8456753885
 21
11.4202216466
  0
LINE
  5
404
100
AcDbEntity
  8
03__ASM_ALL_CURVES
100
AcDbLine
 62
4
  6
CONTINUOUS
 10
12.8843941385
 20
11.3341799782
 11
12.8714878885
 21
11.3255758112
  0
LINE
  5
405
100
AcDbEntity
  8
03__ASM_ALL_CURVES
100
AcDbLine
 62
4
  6
CONTINUOUS
 10
9.5976597635
 20
8.7842008112
 11
9.6126597635
 21
8.7842008112
  0
LINE
  5
406
100
AcDbEntity
  8
03__ASM_ALL_CURVES
100
AcDbLine
 62
4
  6
CONTINUOUS
 10
9.8376597635
 20
8.7842008112
 11
9.8526597635
 21
8.7842008112
  0
LINE
  5
407
100
AcDbEntity
  8
03__ASM_ALL_CURVES
100
AcDbLine
 62
4
  6
CONTINUOUS
 10
9.9351597635
 20
8.7842008112
 11
9.9651597635
 21
8.7842008112
  0
LINE
  5
408
100
AcDbEntity
  8
03__ASM_ALL_CURVES
100
AcDbLine
 62
4
  6
CONTINUOUS
 10
12.1487378885
 20
8.8245758112
 11
12.1358316385
 21
8.8245758112
  0
LINE
  5
409
100
AcDbEntity
  8
03__ASM_ALL_CURVES
100
AcDbLine
 62
4
  6
CONTINUOUS
 10
12.0648472635
 20
8.8245758112
 11
12.055167576
 21
8.8245758112
  0
LINE
  5
40A
100
AcDbEntity
  8
03__ASM_ALL_CURVES
100
AcDbLine
 62
4
  6
CONTINUOUS
 10
11.5292378885
 20
8.8245758112
 11
11.5163316385
 21
8.8245758112
  0
LINE
  5
40B
100
AcDbEntity
  8
03__ASM_ALL_CURVES
100
AcDbLine
 62
4
  6
CONTINUOUS
 10
11.4453472635
 20
8.8245758112
 11
11.435667576
 21
8.8245758112
  0
LINE
  5
40C
100
AcDbEntity
  8
03__ASM_ALL_CURVES
100
AcDbLine
 62
4
  6
CONTINUOUS
 10
10.7484097635
 20
8.8762008112
 11
11.0581597635
 21
8.8762008112
  0
LINE
  5
40D
100
AcDbEntity
  8
03__ASM_ALL_CURVES
100
AcDbLine
 62
4
  6
CONTINUOUS
 10
11.5163316385
 20
8.8848049759
 11
11.5292378885
 21
8.8848049759
  0
LINE
  5
40E
100
AcDbEntity
  8
03__ASM_ALL_CURVES
100
AcDbLine
 62
4
  6
CONTINUOUS
 10
12.1358316385
 20
8.8848049759
 11
12.1487378885
 21
8.8848049759
  0
LINE
  5
40F
100
AcDbEntity
  8
03__ASM_ALL_CURVES
100
AcDbLine
 62
4
  6
CONTINUOUS
 10
12.2713472635
 20
8.9278258112
 11
12.2197222635
 21
8.9278258112
  0
LINE
  5
410
100
AcDbEntity
  8
03__ASM_ALL_CURVES
100
AcDbLine
 62
4
  6
CONTINUOUS
 10
11.9615972635
 20
8.9278258112
 11
11.9099722635
 21
8.9278258112
  0
LINE
  5
411
100
AcDbEntity
  8
03__ASM_ALL_CURVES
100
AcDbLine
 62
4
  6
CONTINUOUS
 10
11.5163316385
 20
8.9278258112
 11
11.5292378885
 21
8.9278258112
  0
LINE
  5
412
100
AcDbEntity
  8
03__ASM_ALL_CURVES
100
AcDbLine
 62
4
  6
CONTINUOUS
 10
12.1358316385
 20
8.9278258112
 11
12.1487378885
 21
8.9278258112
  0
LINE
  5
413
100
AcDbEntity
  8
03__ASM_ALL_CURVES
100
AcDbLine
 62
4
  6
CONTINUOUS
 10
12.2455347635
 20
7.9615966436
 11
12.2261753885
 21
7.9702008112
  0
LINE
  5
414
100
AcDbEntity
  8
03__ASM_ALL_CURVES
100
AcDbLine
 62
4
  6
CONTINUOUS
 10
11.3162847635
 20
7.9185758112
 11
11.3033785135
 21
7.9271799782
  0
LINE
  5
415
100
AcDbEntity
  8
03__ASM_ALL_CURVES
100
AcDbLine
 62
4
  6
CONTINUOUS
 10
11.3162847635
 20
8.0218258112
 11
11.3291910135
 21
8.0132216466
  0
LINE
  5
416
100
AcDbEntity
  8
03__ASM_ALL_CURVES
100
AcDbLine
 62
4
  6
CONTINUOUS
 10
11.5163316385
 20
7.9185758112
 11
11.5034253885
 21
7.9271799782
  0
LINE
  5
417
100
AcDbEntity
  8
03__ASM_ALL_CURVES
100
AcDbLine
 62
4
  6
CONTINUOUS
 10
11.6260347635
 20
7.9185758112
 11
11.6131285135
 21
7.9271799782
  0
LINE
  5
418
100
AcDbEntity
  8
03__ASM_ALL_CURVES
100
AcDbLine
 62
4
  6
CONTINUOUS
 10
11.5292378885
 20
7.9874091466
 11
11.5421441385
 21
7.9788049759
  0
LINE
  5
419
100
AcDbEntity
  8
03__ASM_ALL_CURVES
100
AcDbLine
 62
4
  6
CONTINUOUS
 10
9.9801597635
 20
8.7742008136
 11
9.9951597635
 21
8.7542008112
  0
LINE
  5
41A
100
AcDbEntity
  8
03__ASM_ALL_CURVES
100
AcDbLine
 62
4
  6
CONTINUOUS
 10
8.5976597635
 20
10.7342008118
 11
8.6126597635
 21
10.7142008112
  0
LINE
  5
41B
100
AcDbEntity
  8
03__ASM_ALL_CURVES
100
AcDbLine
 62
4
  6
CONTINUOUS
 10
8.7401597635
 20
10.8242008136
 11
8.7551597635
 21
10.8042008112
  0
LINE
  5
41C
100
AcDbEntity
  8
03__ASM_ALL_CURVES
100
AcDbLine
 62
4
  6
CONTINUOUS
 10
10.6021389281
 20
7.8801695612
 11
10.5935347635
 21
7.8930758112
  0
LINE
  5
41D
100
AcDbEntity
  8
03__ASM_ALL_CURVES
100
AcDbLine
 62
4
  6
CONTINUOUS
 10
10.6881805966
 20
7.9059820612
 11
10.6967847635
 21
7.8930758112
  0
LINE
  5
41E
100
AcDbEntity
  8
03__ASM_ALL_CURVES
100
AcDbLine
 62
4
  6
CONTINUOUS
 10
9.2651597635
 20
11.0342008136
 11
9.2951597635
 21
10.9542008112
  0
LINE
  5
41F
100
AcDbEntity
  8
03__ASM_ALL_CURVES
100
AcDbLine
 62
4
  6
CONTINUOUS
 10
9.0851597635
 20
12.0842008112
 11
9.1226597635
 21
11.9642008112
  0
LINE
  5
420
100
AcDbEntity
  8
03__ASM_ALL_CURVES
100
AcDbLine
 62
4
  6
CONTINUOUS
 10
9.4751597635
 20
10.8042008112
 11
9.4826597635
 21
10.7742008112
  0
LINE
  5
421
100
AcDbEntity
  8
03__ASM_ALL_CURVES
100
AcDbLine
 62
4
  6
CONTINUOUS
 10
9.9951597635
 20
8.7542008112
 11
10.0026597635
 21
8.7242008112
  0
LINE
  5
422
100
AcDbEntity
  8
0
100
AcDbLine
 62
7
  6
CONTINUOUS
 10
10.1986597635
 20
8.5642008112
 11
10.1986597635
 21
8.5012008112
  0
LINE
  5
423
100
AcDbEntity
  8
03__ASM_ALL_CURVES
100
AcDbLine
 62
4
  6
CONTINUOUS
 10
10.2185347635
 20
6.5118883112
 11
10.2185347635
 21
6.4602633112
  0
LINE
  5
424
100
AcDbEntity
  8
03__ASM_ALL_CURVES
100
AcDbLine
 62
4
  6
CONTINUOUS
 10
10.2185347635
 20
6.3763726862
 11
10.2185347635
 21
6.3892789362
  0
LINE
  5
425
100
AcDbEntity
  8
03__ASM_ALL_CURVES
100
AcDbLine
 62
4
  6
CONTINUOUS
 10
10.2185347635
 20
6.9958726862
 11
10.2185347635
 21
7.0087789362
  0
LINE
  5
426
100
AcDbEntity
  8
0
100
AcDbLine
 62
7
  6
CONTINUOUS
 10
10.258262236
 20
8.4407008112
 11
10.258262236
 21
8.0042644771
  0
LINE
  5
427
100
AcDbEntity
  8
0
100
AcDbLine
 62
7
  6
CONTINUOUS
 10
10.2591597635
 20
8.4407008112
 11
10.2591597635
 21
8.0042644771
  0
LINE
  5
428
100
AcDbEntity
  8
03__ASM_ALL_CURVES
100
AcDbLine
 62
4
  6
CONTINUOUS
 10
10.2615555989
 20
6.3763726862
 11
10.2615555989
 21
6.3892789362
  0
LINE
  5
429
100
AcDbEntity
  8
03__ASM_ALL_CURVES
100
AcDbLine
 62
4
  6
CONTINUOUS
 10
10.2615555989
 20
6.9958726862
 11
10.2615555989
 21
7.0087789362
  0
LINE
  5
42A
100
AcDbEntity
  8
03__ASM_ALL_CURVES
100
AcDbLine
 62
4
  6
CONTINUOUS
 10
10.2701597635
 20
8.4609508112
 11
10.2701597635
 21
7.6734508112
  0
LINE
  5
42B
100
AcDbEntity
  8
03__ASM_ALL_CURVES
100
AcDbLine
 62
4
  6
CONTINUOUS
 10
10.3217847635
 20
7.0087789362
 11
10.3217847635
 21
6.9958726862
  0
LINE
  5
42C
100
AcDbEntity
  8
03__ASM_ALL_CURVES
100
AcDbLine
 62
4
  6
CONTINUOUS
 10
10.3217847635
 20
6.9248883112
 11
10.3217847635
 21
6.9152086237
  0
LINE
  5
42D
100
AcDbEntity
  8
03__ASM_ALL_CURVES
100
AcDbLine
 62
4
  6
CONTINUOUS
 10
10.3217847635
 20
6.3892789362
 11
10.3217847635
 21
6.3763726862
  0
LINE
  5
42E
100
AcDbEntity
  8
03__ASM_ALL_CURVES
100
AcDbLine
 62
4
  6
CONTINUOUS
 10
10.3217847635
 20
6.3053883112
 11
10.3217847635
 21
6.2957086237
  0
LINE
  5
42F
100
AcDbEntity
  8
03__ASM_ALL_CURVES
100
AcDbLine
 62
4
  6
CONTINUOUS
 10
10.0026597635
 20
8.7242008112
 11
9.9951597635
 21
8.6942008112
  0
LINE
  5
430
100
AcDbEntity
  8
03__ASM_ALL_CURVES
100
AcDbLine
 62
4
  6
CONTINUOUS
 10
10.4826597635
 20
10.5542008112
 11
10.4751597635
 21
10.5242008112
  0
LINE
  5
431
100
AcDbEntity
  8
03__ASM_ALL_CURVES
100
AcDbLine
 62
4
  6
CONTINUOUS
 10
9.1537639312
 20
7.1055758112
 11
9.1451597635
 21
7.0862164362
  0
LINE
  5
432
100
AcDbEntity
  8
03__ASM_ALL_CURVES
100
AcDbLine
 62
4
  6
CONTINUOUS
 10
8.6365555989
 20
7.1120289362
 11
8.6451597635
 21
7.1249351862
  0
LINE
  5
433
100
AcDbEntity
  8
03__ASM_ALL_CURVES
100
AcDbLine
 62
4
  6
CONTINUOUS
 10
8.6365555989
 20
7.0991226862
 11
8.6279514281
 21
7.0862164362
  0
LINE
  5
434
100
AcDbEntity
  8
03__ASM_ALL_CURVES
100
AcDbLine
 62
4
  6
CONTINUOUS
 10
8.6967847635
 20
7.0991226862
 11
8.6881805966
 21
7.0862164362
  0
LINE
  5
435
100
AcDbEntity
  8
03__ASM_ALL_CURVES
100
AcDbLine
 62
4
  6
CONTINUOUS
 10
8.5935347635
 20
6.8990758112
 11
8.6021389281
 21
6.9119820612
  0
LINE
  5
436
100
AcDbEntity
  8
03__ASM_ALL_CURVES
100
AcDbLine
 62
4
  6
CONTINUOUS
 10
8.6279514281
 20
6.8022789362
 11
8.6365555989
 21
6.8151851862
  0
LINE
  5
437
100
AcDbEntity
  8
03__ASM_ALL_CURVES
100
AcDbLine
 62
4
  6
CONTINUOUS
 10
8.6967847635
 20
6.8990758112
 11
8.6881805966
 21
6.8861695612
  0
LINE
  5
438
100
AcDbEntity
  8
03__ASM_ALL_CURVES
100
AcDbLine
 62
4
  6
CONTINUOUS
 10
8.6967847635
 20
6.7893726862
 11
8.6881805966
 21
6.7764664362
  0
LINE
  5
439
100
AcDbEntity
  8
03__ASM_ALL_CURVES
100
AcDbLine
 62
4
  6
CONTINUOUS
 10
9.6351597635
 20
8.6842008118
 11
9.6276597635
 21
8.6742008115
  0
LINE
  5
43A
100
AcDbEntity
  8
03__ASM_ALL_CURVES
100
AcDbLine
 62
4
  6
CONTINUOUS
 10
11.9680503885
 20
11.7883883112
 11
11.9551441385
 21
11.7711799782
  0
LINE
  5
43B
100
AcDbEntity
  8
03__ASM_ALL_CURVES
100
AcDbLine
 62
4
  6
CONTINUOUS
 10
12.0132222635
 20
11.8486174759
 11
12.0196753885
 21
11.8572216466
  0
LINE
  5
43C
100
AcDbEntity
  8
03__ASM_ALL_CURVES
100
AcDbLine
 62
4
  6
CONTINUOUS
 10
12.2648941385
 20
12.1547841451
 11
12.2584410135
 21
12.1461799782
  0
LINE
  5
43D
100
AcDbEntity
  8
03__ASM_ALL_CURVES
100
AcDbLine
 62
4
  6
CONTINUOUS
 10
12.0325816385
 20
11.8055966436
 11
12.0196753885
 21
11.7883883112
  0
LINE
  5
43E
100
AcDbEntity
  8
03__ASM_ALL_CURVES
100
AcDbLine
 62
4
  6
CONTINUOUS
 10
12.0648472635
 20
11.8314091466
 11
12.0583941385
 21
11.8228049759
  0
LINE
  5
43F
100
AcDbEntity
  8
03__ASM_ALL_CURVES
100
AcDbLine
 62
4
  6
CONTINUOUS
 10
9.8076597635
 20
8.7542008112
 11
9.8226597635
 21
8.7742008136
  0
LINE
  5
440
100
AcDbEntity
  8
03__ASM_ALL_CURVES
100
AcDbLine
 62
4
  6
CONTINUOUS
 10
11.8389878885
 20
11.4288258112
 11
11.8260816385
 21
11.4116174759
  0
LINE
  5
441
100
AcDbEntity
  8
03__ASM_ALL_CURVES
100
AcDbLine
 62
4
  6
CONTINUOUS
 10
12.4584878885
 20
12.1547841451
 11
12.4455816385
 21
12.1375758112
  0
LINE
  5
442
100
AcDbEntity
  8
03__ASM_ALL_CURVES
100
AcDbLine
 62
4
  6
CONTINUOUS
 10
9.8751597635
 20
8.6842008118
 11
9.8676597635
 21
8.6742008115
  0
LINE
  5
443
100
AcDbEntity
  8
0
100
AcDbLine
 62
7
  6
CONTINUOUS
 10
9.3416597635
 20
8.5012008112
 11
9.2811597635
 21
8.4407008112
  0
LINE
  5
444
100
AcDbEntity
  8
03__ASM_ALL_CURVES
100
AcDbLine
 62
4
  6
CONTINUOUS
 10
7.5935347635
 20
7.2023726862
 11
7.6107430989
 21
7.2152789362
  0
LINE
  5
445
100
AcDbEntity
  8
03__ASM_ALL_CURVES
100
AcDbLine
 62
4
  6
CONTINUOUS
 10
9.5826597635
 20
8.7742008136
 11
9.5976597635
 21
8.7842008112
  0
LINE
  5
446
100
AcDbEntity
  8
03__ASM_ALL_CURVES
100
AcDbLine
 62
4
  6
CONTINUOUS
 10
11.6260347635
 20
8.0218258112
 11
11.6389410135
 21
8.0132216466
  0
LINE
  5
447
100
AcDbEntity
  8
03__ASM_ALL_CURVES
100
AcDbLine
 62
4
  6
CONTINUOUS
 10
11.3162847635
 20
8.5125758112
 11
11.3033785135
 21
8.5211799782
  0
LINE
  5
448
100
AcDbEntity
  8
03__ASM_ALL_CURVES
100
AcDbLine
 62
4
  6
CONTINUOUS
 10
12.2455347635
 20
7.9185758112
 11
12.2326285135
 21
7.9271799782
  0
LINE
  5
449
100
AcDbEntity
  8
03__ASM_ALL_CURVES
100
AcDbLine
 62
4
  6
CONTINUOUS
 10
9.5826597635
 20
9.7942008115
 11
9.5676597635
 21
9.8142008112
  0
LINE
  5
44A
100
AcDbEntity
  8
03__ASM_ALL_CURVES
100
AcDbLine
 62
4
  6
CONTINUOUS
 10
9.6276597635
 20
9.8942008136
 11
9.6351597635
 21
9.8842008089
  0
LINE
  5
44B
100
AcDbEntity
  8
03__ASM_ALL_CURVES
100
AcDbLine
 62
4
  6
CONTINUOUS
 10
9.1826597635
 20
10.7242008115
 11
9.1676597635
 21
10.7442008112
  0
LINE
  5
44C
100
AcDbEntity
  8
03__ASM_ALL_CURVES
100
AcDbLine
 62
4
  6
CONTINUOUS
 10
9.6926597635
 20
10.8142008089
 11
9.7001597635
 21
10.7842008089
  0
LINE
  5
44D
100
AcDbEntity
  8
03__ASM_ALL_CURVES
100
AcDbLine
 62
4
  6
CONTINUOUS
 10
10.5351597635
 20
10.6242008089
 11
10.5351597635
 21
10.6042008136
  0
LINE
  5
44E
100
AcDbEntity
  8
03__ASM_ALL_CURVES
100
AcDbLine
 62
4
  6
CONTINUOUS
 10
11.4969722635
 20
12.2064091466
 11
11.5034253885
 21
12.2236174759
  0
LINE
  5
44F
100
AcDbEntity
  8
03__ASM_ALL_CURVES
100
AcDbLine
 62
4
  6
CONTINUOUS
 10
11.4969722635
 20
12.1719924789
 11
11.5034253885
 21
12.1892008112
  0
LINE
  5
450
100
AcDbEntity
  8
03__ASM_ALL_CURVES
100
AcDbLine
 62
4
  6
CONTINUOUS
 10
11.5485972635
 20
12.1719924789
 11
11.5421441385
 21
12.1547841451
  0
LINE
  5
451
100
AcDbEntity
  8
03__ASM_ALL_CURVES
100
AcDbLine
 62
4
  6
CONTINUOUS
 10
12.3681441385
 20
12.2408258112
 11
12.3229722635
 21
12.1633883112
  0
LINE
  5
452
100
AcDbEntity
  8
03__ASM_ALL_CURVES
100
AcDbLine
 62
4
  6
CONTINUOUS
 10
8.5935347635
 20
6.4860758112
 11
8.6021389281
 21
6.4989820612
  0
LINE
  5
453
100
AcDbEntity
  8
03__ASM_ALL_CURVES
100
AcDbLine
 62
4
  6
CONTINUOUS
 10
9.0935347635
 20
7.1055758112
 11
9.1021389281
 21
7.1184820612
  0
LINE
  5
454
100
AcDbEntity
  8
03__ASM_ALL_CURVES
100
AcDbLine
 62
4
  6
CONTINUOUS
 10
8.6967847635
 20
6.4860758112
 11
8.6881805966
 21
6.4731695612
  0
LINE
  5
455
100
AcDbEntity
  8
03__ASM_ALL_CURVES
100
AcDbLine
 62
4
  6
CONTINUOUS
 10
8.5935347635
 20
6.2860289362
 11
8.6021389281
 21
6.2989351862
  0
LINE
  5
456
100
AcDbEntity
  8
03__ASM_ALL_CURVES
100
AcDbLine
 62
4
  6
CONTINUOUS
 10
9.0935347635
 20
7.0023258112
 11
9.1021389281
 21
7.0152320612
  0
LINE
  5
457
100
AcDbEntity
  8
03__ASM_ALL_CURVES
100
AcDbLine
 62
4
  6
CONTINUOUS
 10
9.1967847635
 20
7.1055758112
 11
9.1881805966
 21
7.0926695612
  0
LINE
  5
458
100
AcDbEntity
  8
03__ASM_ALL_CURVES
100
AcDbLine
 62
4
  6
CONTINUOUS
 10
12.2713472635
 20
11.7797841451
 11
12.2648941385
 21
11.7711799782
  0
LINE
  5
459
100
AcDbEntity
  8
03__ASM_ALL_CURVES
100
AcDbLine
 62
4
  6
CONTINUOUS
 10
9.9951597635
 20
8.6942008112
 11
9.9801597635
 21
8.6742008115
  0
LINE
  5
45A
100
AcDbEntity
  8
03__ASM_ALL_CURVES
100
AcDbLine
 62
4
  6
CONTINUOUS
 10
12.3745972635
 20
11.7797841451
 11
12.3681441385
 21
11.7711799782
  0
LINE
  5
45B
100
AcDbEntity
  8
03__ASM_ALL_CURVES
100
AcDbLine
 62
4
  6
CONTINUOUS
 10
12.4584878885
 20
11.7797841451
 11
12.4455816385
 21
11.7625758112
  0
LINE
  5
45C
100
AcDbEntity
  8
03__ASM_ALL_CURVES
100
AcDbLine
 62
4
  6
CONTINUOUS
 10
12.2713472635
 20
11.4030133112
 11
12.2648941385
 21
11.3944091466
  0
LINE
  5
45D
100
AcDbEntity
  8
03__ASM_ALL_CURVES
100
AcDbLine
 62
4
  6
CONTINUOUS
 10
12.2778003885
 20
11.3513883112
 11
12.2648941385
 21
11.3341799782
  0
LINE
  5
45E
100
AcDbEntity
  8
03__ASM_ALL_CURVES
100
AcDbLine
 62
4
  6
CONTINUOUS
 10
7.6021389281
 20
7.1184820612
 11
7.6107430989
 21
7.1249351862
  0
LINE
  5
45F
100
AcDbEntity
  8
03__ASM_ALL_CURVES
100
AcDbLine
 62
4
  6
CONTINUOUS
 10
7.6881805966
 20
7.0926695612
 11
7.6795764296
 21
7.0862164362
  0
LINE
  5
460
100
AcDbEntity
  8
03__ASM_ALL_CURVES
100
AcDbLine
 62
4
  6
CONTINUOUS
 10
7.6838785131
 20
6.9152086237
 11
7.6967847635
 21
6.9248883112
  0
LINE
  5
461
100
AcDbEntity
  8
03__ASM_ALL_CURVES
100
AcDbLine
 62
4
  6
CONTINUOUS
 10
7.6021389281
 20
6.8087320612
 11
7.6107430989
 21
6.8151851862
  0
LINE
  5
462
100
AcDbEntity
  8
03__ASM_ALL_CURVES
100
AcDbLine
 62
4
  6
CONTINUOUS
 10
9.6276597635
 20
8.6742008115
 11
9.6126597635
 21
8.6642008112
  0
LINE
  5
463
100
AcDbEntity
  8
03__ASM_ALL_CURVES
100
AcDbLine
 62
4
  6
CONTINUOUS
 10
9.8226597635
 20
8.7742008136
 11
9.8376597635
 21
8.7842008112
  0
LINE
  5
464
100
AcDbEntity
  8
03__ASM_ALL_CURVES
100
AcDbLine
 62
4
  6
CONTINUOUS
 10
9.8676597635
 20
8.6742008115
 11
9.8526597635
 21
8.6642008112
  0
LINE
  5
465
100
AcDbEntity
  8
03__ASM_ALL_CURVES
100
AcDbLine
 62
4
  6
CONTINUOUS
 10
9.9801597635
 20
8.6742008115
 11
9.9651597635
 21
8.6642008112
  0
LINE
  5
466
100
AcDbEntity
  8
03__ASM_ALL_CURVES
100
AcDbLine
 62
4
  6
CONTINUOUS
 10
11.3033785135
 20
9.5132216466
 11
11.3162847635
 21
9.5218258112
  0
LINE
  5
467
100
AcDbEntity
  8
03__ASM_ALL_CURVES
100
AcDbLine
 62
4
  6
CONTINUOUS
 10
11.5421441385
 20
9.4702008112
 11
11.5227847635
 21
9.4615966436
  0
LINE
  5
468
100
AcDbEntity
  8
03__ASM_ALL_CURVES
100
AcDbLine
 62
4
  6
CONTINUOUS
 10
12.2519878885
 20
9.4185758112
 11
12.2390816385
 21
9.4185758112
  0
LINE
  5
469
100
AcDbEntity
  8
03__ASM_ALL_CURVES
100
AcDbLine
 62
4
  6
CONTINUOUS
 10
12.1680972635
 20
9.4185758112
 11
12.158417576
 21
9.4185758112
  0
LINE
  5
46A
100
AcDbEntity
  8
03__ASM_ALL_CURVES
100
AcDbLine
 62
4
  6
CONTINUOUS
 10
11.4453472635
 20
9.4185758112
 11
11.435667576
 21
9.4185758112
  0
LINE
  5
46B
100
AcDbEntity
  8
03__ASM_ALL_CURVES
100
AcDbLine
 62
4
  6
CONTINUOUS
 10
11.9099722635
 20
9.4185758112
 11
11.9615972635
 21
9.4185758112
  0
LINE
  5
46C
100
AcDbEntity
  8
03__ASM_ALL_CURVES
100
AcDbLine
 62
4
  6
CONTINUOUS
 10
12.0132222635
 20
9.4185758112
 11
12.0648472635
 21
9.4185758112
  0
LINE
  5
46D
100
AcDbEntity
  8
03__ASM_ALL_CURVES
100
AcDbLine
 62
4
  6
CONTINUOUS
 10
10.7484097635
 20
9.4702008112
 11
11.0581597635
 21
9.4702008112
  0
LINE
  5
46E
100
AcDbEntity
  8
03__ASM_ALL_CURVES
100
AcDbLine
 62
4
  6
CONTINUOUS
 10
12.2390816385
 20
9.4788049759
 11
12.2519878885
 21
9.4788049759
  0
LINE
  5
46F
100
AcDbEntity
  8
03__ASM_ALL_CURVES
100
AcDbLine
 62
4
  6
CONTINUOUS
 10
12.3423316385
 20
7.9185758112
 11
12.3294253885
 21
7.9271799782
  0
LINE
  5
470
100
AcDbEntity
  8
03__ASM_ALL_CURVES
100
AcDbLine
 62
4
  6
CONTINUOUS
 10
11.3162847635
 20
8.6158258112
 11
11.3291910135
 21
8.6072216466
  0
LINE
  5
471
100
AcDbEntity
  8
03__ASM_ALL_CURVES
100
AcDbLine
 62
4
  6
CONTINUOUS
 10
9.5976597635
 20
9.7842008112
 11
9.5826597635
 21
9.7942008115
  0
LINE
  5
472
100
AcDbEntity
  8
03__ASM_ALL_CURVES
100
AcDbLine
 62
4
  6
CONTINUOUS
 10
12.2455347635
 20
8.0218258112
 11
12.2584410135
 21
8.0132216466
  0
LINE
  5
473
100
AcDbEntity
  8
03__ASM_ALL_CURVES
100
AcDbLine
 62
4
  6
CONTINUOUS
 10
12.3423316385
 20
7.9788049759
 11
12.3294253885
 21
7.9874091466
  0
LINE
  5
474
100
AcDbEntity
  8
03__ASM_ALL_CURVES
100
AcDbLine
 62
4
  6
CONTINUOUS
 10
12.3552378885
 20
7.9788049759
 11
12.3681441385
 21
7.9702008112
  0
LINE
  5
475
100
AcDbEntity
  8
03__ASM_ALL_CURVES
100
AcDbLine
 62
4
  6
CONTINUOUS
 10
12.3552378885
 20
8.0218258112
 11
12.3681441385
 21
8.0132216466
  0
LINE
  5
476
100
AcDbEntity
  8
03__ASM_ALL_CURVES
100
AcDbLine
 62
4
  6
CONTINUOUS
 10
9.6126597635
 20
9.9042008112
 11
9.6276597635
 21
9.8942008136
  0
LINE
  5
477
100
AcDbEntity
  8
03__ASM_ALL_CURVES
100
AcDbLine
 62
4
  6
CONTINUOUS
 10
11.3162847635
 20
8.8245758112
 11
11.3033785135
 21
8.8331799782
  0
LINE
  5
478
100
AcDbEntity
  8
03__ASM_ALL_CURVES
100
AcDbLine
 62
4
  6
CONTINUOUS
 10
11.3033785135
 20
7.9271799782
 11
11.2969253885
 21
7.9357841451
  0
LINE
  5
479
100
AcDbEntity
  8
03__ASM_ALL_CURVES
100
AcDbLine
 62
4
  6
CONTINUOUS
 10
11.3291910135
 20
8.0132216466
 11
11.3356441385
 21
8.0046174759
  0
LINE
  5
47A
100
AcDbEntity
  8
03__ASM_ALL_CURVES
100
AcDbLine
 62
4
  6
CONTINUOUS
 10
9.2276597635
 20
10.8242008136
 11
9.2351597635
 21
10.8142008089
  0
LINE
  5
47B
100
AcDbEntity
  8
03__ASM_ALL_CURVES
100
AcDbLine
 62
4
  6
CONTINUOUS
 10
9.3026597635
 20
10.7242008115
 11
9.2876597635
 21
10.7442008112
  0
LINE
  5
47C
100
AcDbEntity
  8
03__ASM_ALL_CURVES
100
AcDbLine
 62
4
  6
CONTINUOUS
 10
11.435667576
 20
7.9314820616
 11
11.4453472635
 21
7.9185758112
  0
LINE
  5
47D
100
AcDbEntity
  8
03__ASM_ALL_CURVES
100
AcDbLine
 62
4
  6
CONTINUOUS
 10
11.5034253885
 20
7.9271799782
 11
11.4969722635
 21
7.9357841451
  0
LINE
  5
47E
100
AcDbEntity
  8
03__ASM_ALL_CURVES
100
AcDbLine
 62
4
  6
CONTINUOUS
 10
9.3476597635
 20
10.8242008136
 11
9.3626597635
 21
10.8042008112
  0
LINE
  5
47F
100
AcDbEntity
  8
03__ASM_ALL_CURVES
100
AcDbLine
 62
4
  6
CONTINUOUS
 10
11.5421441385
 20
7.9788049759
 11
11.5485972635
 21
7.9702008112
  0
LINE
  5
480
100
AcDbEntity
  8
03__ASM_ALL_CURVES
100
AcDbLine
 62
4
  6
CONTINUOUS
 10
11.6131285135
 20
7.9271799782
 11
11.6066753885
 21
7.9357841451
  0
LINE
  5
481
100
AcDbEntity
  8
03__ASM_ALL_CURVES
100
AcDbLine
 62
4
  6
CONTINUOUS
 10
10.6451597635
 20
8.4609508112
 11
10.6451597635
 21
8.1512008112
  0
LINE
  5
482
100
AcDbEntity
  8
0
100
AcDbLine
 62
7
  6
CONTINUOUS
 10
10.6451597635
 20
8.5642008112
 11
10.6451597635
 21
12.1892008112
  0
LINE
  5
483
100
AcDbEntity
  8
03__ASM_ALL_CURVES
100
AcDbLine
 62
4
  6
CONTINUOUS
 10
11.2969253885
 20
11.3513883112
 11
11.2904722635
 21
11.3255758112
  0
LINE
  5
484
100
AcDbEntity
  8
03__ASM_ALL_CURVES
100
AcDbLine
 62
4
  6
CONTINUOUS
 10
11.5034253885
 20
11.7883883112
 11
11.4969722635
 21
11.7625758112
  0
LINE
  5
485
100
AcDbEntity
  8
03__ASM_ALL_CURVES
100
AcDbLine
 62
4
  6
CONTINUOUS
 10
11.6066753885
 20
12.1633883112
 11
11.6002222635
 21
12.1375758112
  0
LINE
  5
486
100
AcDbEntity
  8
03__ASM_ALL_CURVES
100
AcDbLine
 62
4
  6
CONTINUOUS
 10
11.6583003885
 20
11.7969924789
 11
11.6518472635
 21
11.7797841451
  0
LINE
  5
487
100
AcDbEntity
  8
03__ASM_ALL_CURVES
100
AcDbLine
 62
4
  6
CONTINUOUS
 10
11.9099722635
 20
12.2064091466
 11
11.9164253885
 21
12.2236174759
  0
LINE
  5
488
100
AcDbEntity
  8
03__ASM_ALL_CURVES
100
AcDbLine
 62
4
  6
CONTINUOUS
 10
11.9615972635
 20
12.2064091466
 11
11.9551441385
 21
12.1892008112
  0
LINE
  5
489
100
AcDbEntity
  8
03__ASM_ALL_CURVES
100
AcDbLine
 62
4
  6
CONTINUOUS
 10
11.9615972635
 20
12.1719924789
 11
11.9551441385
 21
12.1547841451
  0
LINE
  5
48A
100
AcDbEntity
  8
03__ASM_ALL_CURVES
100
AcDbLine
 62
4
  6
CONTINUOUS
 10
9.1967847635
 20
7.0023258112
 11
9.1881805966
 21
6.9894195612
  0
LINE
  5
48B
100
AcDbEntity
  8
03__ASM_ALL_CURVES
100
AcDbLine
 62
4
  6
CONTINUOUS
 10
9.0935347635
 20
6.8022789362
 11
9.1021389281
 21
6.8151851862
  0
LINE
  5
48C
100
AcDbEntity
  8
03__ASM_ALL_CURVES
100
AcDbLine
 62
4
  6
CONTINUOUS
 10
9.1365555989
 20
6.8022789362
 11
9.1451597635
 21
6.8151851862
  0
LINE
  5
48D
100
AcDbEntity
  8
03__ASM_ALL_CURVES
100
AcDbLine
 62
4
  6
CONTINUOUS
 10
9.1365555989
 20
6.7893726862
 11
9.1279514281
 21
6.7764664362
  0
LINE
  5
48E
100
AcDbEntity
  8
03__ASM_ALL_CURVES
100
AcDbLine
 62
4
  6
CONTINUOUS
 10
9.0935347635
 20
6.6990289362
 11
9.1021389281
 21
6.7119351862
  0
LINE
  5
48F
100
AcDbEntity
  8
03__ASM_ALL_CURVES
100
AcDbLine
 62
4
  6
CONTINUOUS
 10
9.1365555989
 20
6.6990289362
 11
9.1451597635
 21
6.7119351862
  0
LINE
  5
490
100
AcDbEntity
  8
03__ASM_ALL_CURVES
100
AcDbLine
 62
4
  6
CONTINUOUS
 10
9.1967847635
 20
6.7893726862
 11
9.1881805966
 21
6.7764664362
  0
LINE
  5
491
100
AcDbEntity
  8
03__ASM_ALL_CURVES
100
AcDbLine
 62
4
  6
CONTINUOUS
 10
9.1967847635
 20
6.6861226862
 11
9.1881805966
 21
6.6732164362
  0
LINE
  5
492
100
AcDbEntity
  8
03__ASM_ALL_CURVES
100
AcDbLine
 62
4
  6
CONTINUOUS
 10
12.4584878885
 20
11.3427841451
 11
12.4455816385
 21
11.3255758112
  0
LINE
  5
493
100
AcDbEntity
  8
03__ASM_ALL_CURVES
100
AcDbLine
 62
4
  6
CONTINUOUS
 10
12.6649878885
 20
11.4288258112
 11
12.6520816385
 21
11.4116174759
  0
LINE
  5
494
100
AcDbEntity
  8
03__ASM_ALL_CURVES
100
AcDbLine
 62
4
  6
CONTINUOUS
 10
7.6881805966
 20
6.7829195612
 11
7.6795764296
 21
6.7764664362
  0
LINE
  5
495
100
AcDbEntity
  8
03__ASM_ALL_CURVES
100
AcDbLine
 62
4
  6
CONTINUOUS
 10
7.6795764296
 20
6.5828726862
 11
7.6967847635
 21
6.5957789362
  0
LINE
  5
496
100
AcDbEntity
  8
03__ASM_ALL_CURVES
100
AcDbLine
 62
4
  6
CONTINUOUS
 10
8.5935347635
 20
7.2023726862
 11
8.6107430989
 21
7.2152789362
  0
LINE
  5
497
100
AcDbEntity
  8
03__ASM_ALL_CURVES
100
AcDbLine
 62
4
  6
CONTINUOUS
 10
11.3291910135
 20
9.4271799782
 11
11.3162847635
 21
9.4185758112
  0
LINE
  5
498
100
AcDbEntity
  8
03__ASM_ALL_CURVES
100
AcDbLine
 62
4
  6
CONTINUOUS
 10
11.5098785135
 20
9.5132216466
 11
11.5227847635
 21
9.5218258112
  0
LINE
  5
499
100
AcDbEntity
  8
03__ASM_ALL_CURVES
100
AcDbLine
 62
4
  6
CONTINUOUS
 10
11.6131285135
 20
9.5132216466
 11
11.6260347635
 21
9.5218258112
  0
LINE
  5
49A
100
AcDbEntity
  8
03__ASM_ALL_CURVES
100
AcDbLine
 62
4
  6
CONTINUOUS
 10
11.5356910135
 20
9.4271799782
 11
11.5227847635
 21
9.4185758112
  0
LINE
  5
49B
100
AcDbEntity
  8
03__ASM_ALL_CURVES
100
AcDbLine
 62
4
  6
CONTINUOUS
 10
11.6389410135
 20
9.4271799782
 11
11.6260347635
 21
9.4185758112
  0
LINE
  5
49C
100
AcDbEntity
  8
03__ASM_ALL_CURVES
100
AcDbLine
 62
4
  6
CONTINUOUS
 10
11.9293316385
 20
9.5218258112
 11
11.9422378885
 21
9.5218258112
  0
LINE
  5
49D
100
AcDbEntity
  8
03__ASM_ALL_CURVES
100
AcDbLine
 62
4
  6
CONTINUOUS
 10
12.0325816385
 20
9.5218258112
 11
12.0454878885
 21
9.5218258112
  0
LINE
  5
49E
100
AcDbEntity
  8
03__ASM_ALL_CURVES
100
AcDbLine
 62
4
  6
CONTINUOUS
 10
12.2390816385
 20
9.5218258112
 11
12.2519878885
 21
9.5218258112
  0
LINE
  5
49F
100
AcDbEntity
  8
03__ASM_ALL_CURVES
100
AcDbLine
 62
4
  6
CONTINUOUS
 10
11.3162847635
 20
8.9278258112
 11
11.3291910135
 21
8.9192216466
  0
LINE
  5
4A0
100
AcDbEntity
  8
03__ASM_ALL_CURVES
100
AcDbLine
 62
4
  6
CONTINUOUS
 10
11.5163316385
 20
8.8245758112
 11
11.5034253885
 21
8.8331799782
  0
LINE
  5
4A1
100
AcDbEntity
  8
03__ASM_ALL_CURVES
100
AcDbLine
 62
4
  6
CONTINUOUS
 10
11.5292378885
 20
8.8848049759
 11
11.5421441385
 21
8.8762008112
  0
LINE
  5
4A2
100
AcDbEntity
  8
03__ASM_ALL_CURVES
100
AcDbLine
 62
4
  6
CONTINUOUS
 10
11.5292378885
 20
8.9278258112
 11
11.5421441385
 21
8.9192216466
  0
LINE
  5
4A3
100
AcDbEntity
  8
03__ASM_ALL_CURVES
100
AcDbLine
 62
4
  6
CONTINUOUS
 10
8.7251597635
 20
10.8342008112
 11
8.7401597635
 21
10.8242008136
  0
LINE
  5
4A4
100
AcDbEntity
  8
03__ASM_ALL_CURVES
100
AcDbLine
 62
4
  6
CONTINUOUS
 10
7.7976597635
 20
11.4942008112
 11
7.7826597635
 21
11.5042008115
  0
LINE
  5
4A5
100
AcDbEntity
  8
03__ASM_ALL_CURVES
100
AcDbLine
 62
4
  6
CONTINUOUS
 10
9.4601597635
 20
10.8242008136
 11
9.4751597635
 21
10.8042008112
  0
LINE
  5
4A6
100
AcDbEntity
  8
03__ASM_ALL_CURVES
100
AcDbLine
 62
4
  6
CONTINUOUS
 10
11.6389410135
 20
8.0132216466
 11
11.6453941385
 21
8.0046174759
  0
LINE
  5
4A7
100
AcDbEntity
  8
03__ASM_ALL_CURVES
100
AcDbLine
 62
4
  6
CONTINUOUS
 10
11.3033785135
 20
8.5211799782
 11
11.2969253885
 21
8.5297841451
  0
LINE
  5
4A8
100
AcDbEntity
  8
03__ASM_ALL_CURVES
100
AcDbLine
 62
4
  6
CONTINUOUS
 10
11.8260816385
 20
7.9357841451
 11
11.8389878885
 21
7.9185758112
  0
LINE
  5
4A9
100
AcDbEntity
  8
03__ASM_ALL_CURVES
100
AcDbLine
 62
4
  6
CONTINUOUS
 10
11.3291910135
 20
8.6072216466
 11
11.3356441385
 21
8.5986174759
  0
LINE
  5
4AA
100
AcDbEntity
  8
03__ASM_ALL_CURVES
100
AcDbLine
 62
4
  6
CONTINUOUS
 10
9.6776597635
 20
10.8342008112
 11
9.6926597635
 21
10.8142008089
  0
LINE
  5
4AB
100
AcDbEntity
  8
03__ASM_ALL_CURVES
100
AcDbLine
 62
4
  6
CONTINUOUS
 10
11.2969253885
 20
7.9357841451
 11
11.2904722635
 21
7.9529924789
  0
LINE
  5
4AC
100
AcDbEntity
  8
03__ASM_ALL_CURVES
100
AcDbLine
 62
4
  6
CONTINUOUS
 10
11.3356441385
 20
8.0046174759
 11
11.3420972635
 21
7.9874091466
  0
LINE
  5
4AD
100
AcDbEntity
  8
03__ASM_ALL_CURVES
100
AcDbLine
 62
4
  6
CONTINUOUS
 10
11.8260816385
 20
12.2236174759
 11
11.8196285135
 21
12.1978049759
  0
LINE
  5
4AE
100
AcDbEntity
  8
03__ASM_ALL_CURVES
100
AcDbLine
 62
4
  6
CONTINUOUS
 10
11.8260816385
 20
11.8486174759
 11
11.8196285135
 21
11.8228049759
  0
LINE
  5
4AF
100
AcDbEntity
  8
03__ASM_ALL_CURVES
100
AcDbLine
 62
4
  6
CONTINUOUS
 10
12.2197222635
 20
12.2064091466
 11
12.2261753885
 21
12.2236174759
  0
LINE
  5
4B0
100
AcDbEntity
  8
03__ASM_ALL_CURVES
100
AcDbLine
 62
4
  6
CONTINUOUS
 10
11.9486910135
 20
11.3944091466
 11
11.9615972635
 21
11.4288258112
  0
LINE
  5
4B1
100
AcDbEntity
  8
03__ASM_ALL_CURVES
100
AcDbLine
 62
4
  6
CONTINUOUS
 10
12.2713472635
 20
12.2064091466
 11
12.2648941385
 21
12.1892008112
  0
LINE
  5
4B2
100
AcDbEntity
  8
03__ASM_ALL_CURVES
100
AcDbLine
 62
4
  6
CONTINUOUS
 10
12.2713472635
 20
12.1719924789
 11
12.2648941385
 21
12.1547841451
  0
LINE
  5
4B3
100
AcDbEntity
  8
03__ASM_ALL_CURVES
100
AcDbLine
 62
4
  6
CONTINUOUS
 10
11.2904722635
 20
9.4874091466
 11
11.2969253885
 21
9.5046174759
  0
LINE
  5
4B4
100
AcDbEntity
  8
03__ASM_ALL_CURVES
100
AcDbLine
 62
4
  6
CONTINUOUS
 10
10.2787639312
 20
7.1055758112
 11
10.2701597635
 21
7.0862164362
  0
LINE
  5
4B5
100
AcDbEntity
  8
03__ASM_ALL_CURVES
100
AcDbLine
 62
4
  6
CONTINUOUS
 10
9.1279514281
 20
6.3892789362
 11
9.1365555989
 21
6.4021851862
  0
LINE
  5
4B6
100
AcDbEntity
  8
03__ASM_ALL_CURVES
100
AcDbLine
 62
4
  6
CONTINUOUS
 10
9.1967847635
 20
6.3763726862
 11
9.1881805966
 21
6.3634664362
  0
LINE
  5
4B7
100
AcDbEntity
  8
03__ASM_ALL_CURVES
100
AcDbLine
 62
4
  6
CONTINUOUS
 10
11.2969253885
 20
9.5046174759
 11
11.3033785135
 21
9.5132216466
  0
LINE
  5
4B8
100
AcDbEntity
  8
03__ASM_ALL_CURVES
100
AcDbLine
 62
4
  6
CONTINUOUS
 10
11.3356441385
 20
9.4357841451
 11
11.3291910135
 21
9.4271799782
  0
LINE
  5
4B9
100
AcDbEntity
  8
03__ASM_ALL_CURVES
100
AcDbLine
 62
4
  6
CONTINUOUS
 10
12.8456753885
 20
11.4202216466
 11
12.8392222635
 21
11.4116174759
  0
LINE
  5
4BA
100
AcDbEntity
  8
03__ASM_ALL_CURVES
100
AcDbLine
 62
4
  6
CONTINUOUS
 10
11.5034253885
 20
9.5046174759
 11
11.5098785135
 21
9.5132216466
  0
LINE
  5
4BB
100
AcDbEntity
  8
03__ASM_ALL_CURVES
100
AcDbLine
 62
4
  6
CONTINUOUS
 10
12.8908472635
 20
11.3427841451
 11
12.8843941385
 21
11.3341799782
  0
LINE
  5
4BC
100
AcDbEntity
  8
03__ASM_ALL_CURVES
100
AcDbLine
 62
4
  6
CONTINUOUS
 10
7.6021389281
 20
6.3957320612
 11
7.6107430989
 21
6.4021851862
  0
LINE
  5
4BD
100
AcDbEntity
  8
03__ASM_ALL_CURVES
100
AcDbLine
 62
4
  6
CONTINUOUS
 10
8.6021389281
 20
7.1249351862
 11
8.6107430989
 21
7.1313883112
  0
LINE
  5
4BE
100
AcDbEntity
  8
03__ASM_ALL_CURVES
100
AcDbLine
 62
4
  6
CONTINUOUS
 10
8.6451597635
 20
7.1249351862
 11
8.6623680958
 21
7.1378414362
  0
LINE
  5
4BF
100
AcDbEntity
  8
03__ASM_ALL_CURVES
100
AcDbLine
 62
4
  6
CONTINUOUS
 10
8.6279514281
 20
7.0862164362
 11
8.6193472635
 21
7.0797633112
  0
LINE
  5
4C0
100
AcDbEntity
  8
03__ASM_ALL_CURVES
100
AcDbLine
 62
4
  6
CONTINUOUS
 10
7.6881805966
 20
6.3699195612
 11
7.6795764296
 21
6.3634664362
  0
LINE
  5
4C1
100
AcDbEntity
  8
03__ASM_ALL_CURVES
100
AcDbLine
 62
4
  6
CONTINUOUS
 10
8.6881805966
 20
7.0862164362
 11
8.6709722635
 21
7.0733101862
  0
LINE
  5
4C2
100
AcDbEntity
  8
03__ASM_ALL_CURVES
100
AcDbLine
 62
4
  6
CONTINUOUS
 10
7.6838785131
 20
6.2957086237
 11
7.6967847635
 21
6.3053883112
  0
LINE
  5
4C3
100
AcDbEntity
  8
03__ASM_ALL_CURVES
100
AcDbLine
 62
4
  6
CONTINUOUS
 10
8.6838785131
 20
7.0184586237
 11
8.6967847635
 21
7.0281383112
  0
LINE
  5
4C4
100
AcDbEntity
  8
03__ASM_ALL_CURVES
100
AcDbLine
 62
4
  6
CONTINUOUS
 10
7.6021389281
 20
6.1956851862
 11
7.6107430989
 21
6.2021383112
  0
LINE
  5
4C5
100
AcDbEntity
  8
03__ASM_ALL_CURVES
100
AcDbLine
 62
4
  6
CONTINUOUS
 10
7.6451597635
 20
6.1956851862
 11
7.6623680958
 21
6.2085914362
  0
LINE
  5
4C6
100
AcDbEntity
  8
03__ASM_ALL_CURVES
100
AcDbLine
 62
4
  6
CONTINUOUS
 10
8.6021389281
 20
6.9119820612
 11
8.6107430989
 21
6.9184351862
  0
LINE
  5
4C7
100
AcDbEntity
  8
03__ASM_ALL_CURVES
100
AcDbLine
 62
4
  6
CONTINUOUS
 10
11.9164253885
 20
9.5132216466
 11
11.9293316385
 21
9.5218258112
  0
LINE
  5
4C8
100
AcDbEntity
  8
03__ASM_ALL_CURVES
100
AcDbLine
 62
4
  6
CONTINUOUS
 10
11.9551441385
 20
9.4788049759
 11
11.9293316385
 21
9.4615966436
  0
LINE
  5
4C9
100
AcDbEntity
  8
03__ASM_ALL_CURVES
100
AcDbLine
 62
4
  6
CONTINUOUS
 10
12.0196753885
 20
9.5132216466
 11
12.0325816385
 21
9.5218258112
  0
LINE
  5
4CA
100
AcDbEntity
  8
03__ASM_ALL_CURVES
100
AcDbLine
 62
4
  6
CONTINUOUS
 10
12.0583941385
 20
9.4788049759
 11
12.0325816385
 21
9.4615966436
  0
LINE
  5
4CB
100
AcDbEntity
  8
03__ASM_ALL_CURVES
100
AcDbLine
 62
4
  6
CONTINUOUS
 10
11.3033785135
 20
8.9192216466
 11
11.3162847635
 21
8.9278258112
  0
LINE
  5
4CC
100
AcDbEntity
  8
03__ASM_ALL_CURVES
100
AcDbLine
 62
4
  6
CONTINUOUS
 10
12.2261753885
 20
9.5132216466
 11
12.2390816385
 21
9.5218258112
  0
LINE
  5
4CD
100
AcDbEntity
  8
03__ASM_ALL_CURVES
100
AcDbLine
 62
4
  6
CONTINUOUS
 10
12.2261753885
 20
9.4702008112
 11
12.2390816385
 21
9.4788049759
  0
LINE
  5
4CE
100
AcDbEntity
  8
03__ASM_ALL_CURVES
100
AcDbLine
 62
4
  6
CONTINUOUS
 10
12.3294253885
 20
9.4702008112
 11
12.3487847635
 21
9.4788049759
  0
LINE
  5
4CF
100
AcDbEntity
  8
03__ASM_ALL_CURVES
100
AcDbLine
 62
4
  6
CONTINUOUS
 10
9.6126597635
 20
9.7842008112
 11
9.5976597635
 21
9.7842008112
  0
LINE
  5
4D0
100
AcDbEntity
  8
03__ASM_ALL_CURVES
100
AcDbLine
 62
4
  6
CONTINUOUS
 10
9.6051597635
 20
9.8442008112
 11
9.6351597635
 21
9.8442008112
  0
LINE
  5
4D1
100
AcDbEntity
  8
03__ASM_ALL_CURVES
100
AcDbLine
 62
4
  6
CONTINUOUS
 10
9.5976597635
 20
9.9042008112
 11
9.6126597635
 21
9.9042008112
  0
LINE
  5
4D2
100
AcDbEntity
  8
03__ASM_ALL_CURVES
100
AcDbLine
 62
4
  6
CONTINUOUS
 10
11.5227847635
 20
9.4615966436
 11
11.5034253885
 21
9.4702008112
  0
LINE
  5
4D3
100
AcDbEntity
  8
03__ASM_ALL_CURVES
100
AcDbLine
 62
4
  6
CONTINUOUS
 10
7.8126597635
 20
11.5642008089
 11
7.8276597635
 21
11.5542008112
  0
LINE
  5
4D4
100
AcDbEntity
  8
03__ASM_ALL_CURVES
100
AcDbLine
 62
4
  6
CONTINUOUS
 10
7.8126597635
 20
11.6142008112
 11
7.8276597635
 21
11.6042008136
  0
LINE
  5
4D5
100
AcDbEntity
  8
03__ASM_ALL_CURVES
100
AcDbLine
 62
4
  6
CONTINUOUS
 10
9.1976597635
 20
10.7142008112
 11
9.1826597635
 21
10.7242008115
  0
LINE
  5
4D6
100
AcDbEntity
  8
03__ASM_ALL_CURVES
100
AcDbLine
 62
4
  6
CONTINUOUS
 10
12.1358316385
 20
8.8245758112
 11
12.1229253885
 21
8.8331799782
  0
LINE
  5
4D7
100
AcDbEntity
  8
03__ASM_ALL_CURVES
100
AcDbLine
 62
4
  6
CONTINUOUS
 10
9.3176597635
 20
10.7142008112
 11
9.3026597635
 21
10.7242008115
  0
LINE
  5
4D8
100
AcDbEntity
  8
03__ASM_ALL_CURVES
100
AcDbLine
 62
4
  6
CONTINUOUS
 10
11.3162847635
 20
9.4185758112
 11
11.3033785135
 21
9.4271799782
  0
LINE
  5
4D9
100
AcDbEntity
  8
03__ASM_ALL_CURVES
100
AcDbLine
 62
4
  6
CONTINUOUS
 10
12.1358316385
 20
8.8848049759
 11
12.1229253885
 21
8.8934091466
  0
LINE
  5
4DA
100
AcDbEntity
  8
03__ASM_ALL_CURVES
100
AcDbLine
 62
4
  6
CONTINUOUS
 10
9.2126597635
 20
10.8342008112
 11
9.2276597635
 21
10.8242008136
  0
LINE
  5
4DB
100
AcDbEntity
  8
03__ASM_ALL_CURVES
100
AcDbLine
 62
4
  6
CONTINUOUS
 10
12.1487378885
 20
8.8848049759
 11
12.1616441385
 21
8.8762008112
  0
LINE
  5
4DC
100
AcDbEntity
  8
03__ASM_ALL_CURVES
100
AcDbLine
 62
4
  6
CONTINUOUS
 10
12.1487378885
 20
8.9278258112
 11
12.1616441385
 21
8.9192216466
  0
LINE
  5
4DD
100
AcDbEntity
  8
03__ASM_ALL_CURVES
100
AcDbLine
 62
4
  6
CONTINUOUS
 10
9.3326597635
 20
10.8342008112
 11
9.3476597635
 21
10.8242008136
  0
LINE
  5
4DE
100
AcDbEntity
  8
03__ASM_ALL_CURVES
100
AcDbLine
 62
4
  6
CONTINUOUS
 10
11.3162847635
 20
9.5218258112
 11
11.3291910135
 21
9.5132216466
  0
LINE
  5
4DF
100
AcDbEntity
  8
03__ASM_ALL_CURVES
100
AcDbLine
 62
4
  6
CONTINUOUS
 10
11.3033785135
 20
8.8331799782
 11
11.2969253885
 21
8.8417841451
  0
LINE
  5
4E0
100
AcDbEntity
  8
03__ASM_ALL_CURVES
100
AcDbLine
 62
4
  6
CONTINUOUS
 10
11.3291910135
 20
8.9192216466
 11
11.3356441385
 21
8.9106174759
  0
LINE
  5
4E1
100
AcDbEntity
  8
03__ASM_ALL_CURVES
100
AcDbLine
 62
4
  6
CONTINUOUS
 10
11.435667576
 20
8.8374820616
 11
11.4453472635
 21
8.8245758112
  0
LINE
  5
4E2
100
AcDbEntity
  8
03__ASM_ALL_CURVES
100
AcDbLine
 62
4
  6
CONTINUOUS
 10
12.158417576
 20
7.9314820616
 11
12.1680972635
 21
7.9185758112
  0
LINE
  5
4E3
100
AcDbEntity
  8
03__ASM_ALL_CURVES
100
AcDbLine
 62
4
  6
CONTINUOUS
 10
11.5034253885
 20
8.8331799782
 11
11.4969722635
 21
8.8417841451
  0
LINE
  5
4E4
100
AcDbEntity
  8
03__ASM_ALL_CURVES
100
AcDbLine
 62
4
  6
CONTINUOUS
 10
12.2326285135
 20
7.9271799782
 11
12.2261753885
 21
7.9357841451
  0
LINE
  5
4E5
100
AcDbEntity
  8
03__ASM_ALL_CURVES
100
AcDbLine
 62
4
  6
CONTINUOUS
 10
11.5421441385
 20
8.8762008112
 11
11.5550503885
 21
8.8589924789
  0
LINE
  5
4E6
100
AcDbEntity
  8
03__ASM_ALL_CURVES
100
AcDbLine
 62
4
  6
CONTINUOUS
 10
11.5421441385
 20
8.9192216466
 11
11.5485972635
 21
8.9106174759
  0
LINE
  5
4E7
100
AcDbEntity
  8
03__ASM_ALL_CURVES
100
AcDbLine
 62
4
  6
CONTINUOUS
 10
11.2969253885
 20
8.5297841451
 11
11.2904722635
 21
8.5469924789
  0
LINE
  5
4E8
100
AcDbEntity
  8
03__ASM_ALL_CURVES
100
AcDbLine
 62
4
  6
CONTINUOUS
 10
11.5485972635
 20
7.9702008112
 11
11.5550503885
 21
7.9529924789
  0
LINE
  5
4E9
100
AcDbEntity
  8
03__ASM_ALL_CURVES
100
AcDbLine
 62
4
  6
CONTINUOUS
 10
11.3356441385
 20
8.5986174759
 11
11.3420972635
 21
8.5814091466
  0
LINE
  5
4EA
100
AcDbEntity
  8
03__ASM_ALL_CURVES
100
AcDbLine
 62
4
  6
CONTINUOUS
 10
11.6066753885
 20
7.9702008112
 11
11.6002222635
 21
7.9874091466
  0
LINE
  5
4EB
100
AcDbEntity
  8
03__ASM_ALL_CURVES
100
AcDbLine
 62
4
  6
CONTINUOUS
 10
11.2969253885
 20
8.8417841451
 11
11.2904722635
 21
8.8589924789
  0
LINE
  5
4EC
100
AcDbEntity
  8
03__ASM_ALL_CURVES
100
AcDbLine
 62
4
  6
CONTINUOUS
 10
11.2904722635
 20
7.9529924789
 11
11.2904722635
 21
7.9874091466
  0
LINE
  5
4ED
100
AcDbEntity
  8
03__ASM_ALL_CURVES
100
AcDbLine
 62
4
  6
CONTINUOUS
 10
11.2904722635
 20
8.5469924789
 11
11.2904722635
 21
8.5814091466
  0
LINE
  5
4EE
100
AcDbEntity
  8
03__ASM_ALL_CURVES
100
AcDbLine
 62
4
  6
CONTINUOUS
 10
11.2904722635
 20
8.8589924789
 11
11.2904722635
 21
8.8934091466
  0
LINE
  5
4EF
100
AcDbEntity
  8
03__ASM_ALL_CURVES
100
AcDbLine
 62
4
  6
CONTINUOUS
 10
11.2904722635
 20
9.4529924789
 11
11.2904722635
 21
9.4874091466
  0
LINE
  5
4F0
100
AcDbEntity
  8
03__ASM_ALL_CURVES
100
AcDbLine
 62
4
  6
CONTINUOUS
 10
11.3420972635
 20
12.2236174759
 11
11.3420972635
 21
12.2150133112
  0
LINE
  5
4F1
100
AcDbEntity
  8
03__ASM_ALL_CURVES
100
AcDbLine
 62
4
  6
CONTINUOUS
 10
11.3420972635
 20
11.8486174759
 11
11.3420972635
 21
11.8400133112
  0
LINE
  5
4F2
100
AcDbEntity
  8
03__ASM_ALL_CURVES
100
AcDbLine
 62
4
  6
CONTINUOUS
 10
11.3420972635
 20
11.4116174759
 11
11.3420972635
 21
11.3944091466
  0
LINE
  5
4F3
100
AcDbEntity
  8
03__ASM_ALL_CURVES
100
AcDbLine
 62
4
  6
CONTINUOUS
 10
11.3420972635
 20
9.4874091466
 11
11.3420972635
 21
9.4529924789
  0
LINE
  5
4F4
100
AcDbEntity
  8
03__ASM_ALL_CURVES
100
AcDbLine
 62
4
  6
CONTINUOUS
 10
11.3420972635
 20
8.8934091466
 11
11.3420972635
 21
8.8589924789
  0
LINE
  5
4F5
100
AcDbEntity
  8
03__ASM_ALL_CURVES
100
AcDbLine
 62
4
  6
CONTINUOUS
 10
11.3420972635
 20
8.5814091466
 11
11.3420972635
 21
8.5469924789
  0
LINE
  5
4F6
100
AcDbEntity
  8
03__ASM_ALL_CURVES
100
AcDbLine
 62
4
  6
CONTINUOUS
 10
11.3420972635
 20
7.9874091466
 11
11.3420972635
 21
7.9529924789
  0
LINE
  5
4F7
100
AcDbEntity
  8
03__ASM_ALL_CURVES
100
AcDbLine
 62
4
  6
CONTINUOUS
 10
11.3485503885
 20
12.1719924789
 11
11.3485503885
 21
12.1633883112
  0
LINE
  5
4F8
100
AcDbEntity
  8
03__ASM_ALL_CURVES
100
AcDbLine
 62
4
  6
CONTINUOUS
 10
11.3485503885
 20
11.7969924789
 11
11.3485503885
 21
11.7883883112
  0
LINE
  5
4F9
100
AcDbEntity
  8
03__ASM_ALL_CURVES
100
AcDbLine
 62
4
  6
CONTINUOUS
 10
11.6131285135
 20
11.8658258112
 11
11.6066753885
 21
11.8228049759
  0
LINE
  5
4FA
100
AcDbEntity
  8
03__ASM_ALL_CURVES
100
AcDbLine
 62
4
  6
CONTINUOUS
 10
11.8260816385
 20
11.4116174759
 11
11.8196285135
 21
11.3858049759
  0
LINE
  5
4FB
100
AcDbEntity
  8
03__ASM_ALL_CURVES
100
AcDbLine
 62
4
  6
CONTINUOUS
 10
12.0196753885
 20
11.7883883112
 11
12.0132222635
 21
11.7625758112
  0
LINE
  5
4FC
100
AcDbEntity
  8
03__ASM_ALL_CURVES
100
AcDbLine
 62
4
  6
CONTINUOUS
 10
11.9422378885
 20
11.3685966436
 11
11.9486910135
 21
11.3944091466
  0
LINE
  5
4FD
100
AcDbEntity
  8
03__ASM_ALL_CURVES
100
AcDbLine
 62
4
  6
CONTINUOUS
 10
11.3420972635
 20
9.4529924789
 11
11.3356441385
 21
9.4357841451
  0
LINE
  5
4FE
100
AcDbEntity
  8
03__ASM_ALL_CURVES
100
AcDbLine
 62
4
  6
CONTINUOUS
 10
12.2778003885
 20
11.7969924789
 11
12.2713472635
 21
11.7797841451
  0
LINE
  5
4FF
100
AcDbEntity
  8
03__ASM_ALL_CURVES
100
AcDbLine
 62
4
  6
CONTINUOUS
 10
11.4969722635
 20
9.4874091466
 11
11.5034253885
 21
9.5046174759
  0
LINE
  5
500
100
AcDbEntity
  8
03__ASM_ALL_CURVES
100
AcDbLine
 62
4
  6
CONTINUOUS
 10
11.2904722635
 20
8.8934091466
 11
11.2969253885
 21
8.9106174759
  0
LINE
  5
501
100
AcDbEntity
  8
03__ASM_ALL_CURVES
100
AcDbLine
 62
4
  6
CONTINUOUS
 10
12.3810503885
 20
11.7969924789
 11
12.3745972635
 21
11.7797841451
  0
LINE
  5
502
100
AcDbEntity
  8
03__ASM_ALL_CURVES
100
AcDbLine
 62
4
  6
CONTINUOUS
 10
11.5485972635
 20
9.4874091466
 11
11.5421441385
 21
9.4702008112
  0
LINE
  5
503
100
AcDbEntity
  8
03__ASM_ALL_CURVES
100
AcDbLine
 62
4
  6
CONTINUOUS
 10
11.5485972635
 20
9.4529924789
 11
11.5421441385
 21
9.4357841451
  0
LINE
  5
504
100
AcDbEntity
  8
03__ASM_ALL_CURVES
100
AcDbLine
 62
4
  6
CONTINUOUS
 10
11.3420972635
 20
8.8589924789
 11
11.3356441385
 21
8.8417841451
  0
LINE
  5
505
100
AcDbEntity
  8
03__ASM_ALL_CURVES
100
AcDbLine
 62
4
  6
CONTINUOUS
 10
10.2787639312
 20
6.7958258112
 11
10.2701597635
 21
6.7764664362
  0
LINE
  5
506
100
AcDbEntity
  8
03__ASM_ALL_CURVES
100
AcDbLine
 62
4
  6
CONTINUOUS
 10
10.5935347635
 20
7.8930758112
 11
10.6021389281
 21
7.9059820612
  0
LINE
  5
507
100
AcDbEntity
  8
03__ASM_ALL_CURVES
100
AcDbLine
 62
4
  6
CONTINUOUS
 10
10.6967847635
 20
7.8930758112
 11
10.6881805966
 21
7.8801695612
  0
LINE
  5
508
100
AcDbEntity
  8
03__ASM_ALL_CURVES
100
AcDbLine
 62
4
  6
CONTINUOUS
 10
10.2185347635
 20
7.1055758112
 11
10.2271389281
 21
7.1184820612
  0
LINE
  5
509
100
AcDbEntity
  8
03__ASM_ALL_CURVES
100
AcDbLine
 62
4
  6
CONTINUOUS
 10
11.5421441385
 20
9.4357841451
 11
11.5356910135
 21
9.4271799782
  0
LINE
  5
50A
100
AcDbEntity
  8
03__ASM_ALL_CURVES
100
AcDbLine
 62
4
  6
CONTINUOUS
 10
12.9747378885
 20
11.3427841451
 11
12.9618316385
 21
11.3255758112
  0
LINE
  5
50B
100
AcDbEntity
  8
03__ASM_ALL_CURVES
100
AcDbLine
 62
4
  6
CONTINUOUS
 10
11.6066753885
 20
9.5046174759
 11
11.6131285135
 21
9.5132216466
  0
LINE
  5
50C
100
AcDbEntity
  8
03__ASM_ALL_CURVES
100
AcDbLine
 62
4
  6
CONTINUOUS
 10
11.6453941385
 20
9.4357841451
 11
11.6389410135
 21
9.4271799782
  0
LINE
  5
50D
100
AcDbEntity
  8
03__ASM_ALL_CURVES
100
AcDbLine
 62
4
  6
CONTINUOUS
 10
11.2969253885
 20
8.9106174759
 11
11.3033785135
 21
8.9192216466
  0
LINE
  5
50E
100
AcDbEntity
  8
03__ASM_ALL_CURVES
100
AcDbLine
 62
4
  6
CONTINUOUS
 10
11.8389878885
 20
9.5218258112
 11
11.8260816385
 21
9.5046174759
  0
LINE
  5
50F
100
AcDbEntity
  8
03__ASM_ALL_CURVES
100
AcDbLine
 62
4
  6
CONTINUOUS
 10
11.3356441385
 20
8.8417841451
 11
11.3291910135
 21
8.8331799782
  0
LINE
  5
510
100
AcDbEntity
  8
03__ASM_ALL_CURVES
100
AcDbLine
 62
4
  6
CONTINUOUS
 10
11.9099722635
 20
9.5046174759
 11
11.9164253885
 21
9.5132216466
  0
LINE
  5
511
100
AcDbEntity
  8
03__ASM_ALL_CURVES
100
AcDbLine
 62
4
  6
CONTINUOUS
 10
7.6881805966
 20
6.1569664362
 11
7.6795764296
 21
6.1505133112
  0
LINE
  5
512
100
AcDbEntity
  8
03__ASM_ALL_CURVES
100
AcDbLine
 62
4
  6
CONTINUOUS
 10
9.0935347635
 20
7.2023726862
 11
9.1107430989
 21
7.2152789362
  0
LINE
  5
513
100
AcDbEntity
  8
03__ASM_ALL_CURVES
100
AcDbLine
 62
4
  6
CONTINUOUS
 10
8.6881805966
 20
6.8861695612
 11
8.6795764296
 21
6.8797164362
  0
LINE
  5
514
100
AcDbEntity
  8
03__ASM_ALL_CURVES
100
AcDbLine
 62
4
  6
CONTINUOUS
 10
8.6365555989
 20
6.8151851862
 11
8.6451597635
 21
6.8216383112
  0
LINE
  5
515
100
AcDbEntity
  8
03__ASM_ALL_CURVES
100
AcDbLine
 62
4
  6
CONTINUOUS
 10
9.1021389281
 20
7.1184820612
 11
9.1107430989
 21
7.1249351862
  0
LINE
  5
516
100
AcDbEntity
  8
03__ASM_ALL_CURVES
100
AcDbLine
 62
4
  6
CONTINUOUS
 10
8.6881805966
 20
6.7764664362
 11
8.6795764296
 21
6.7700133112
  0
LINE
  5
517
100
AcDbEntity
  8
03__ASM_ALL_CURVES
100
AcDbLine
 62
4
  6
CONTINUOUS
 10
9.1881805966
 20
7.0926695612
 11
9.1795764296
 21
7.0862164362
  0
LINE
  5
518
100
AcDbEntity
  8
03__ASM_ALL_CURVES
100
AcDbLine
 62
4
  6
CONTINUOUS
 10
9.1021389281
 20
7.0152320612
 11
9.1107430989
 21
7.0216851862
  0
LINE
  5
519
100
AcDbEntity
  8
03__ASM_ALL_CURVES
100
AcDbLine
 62
4
  6
CONTINUOUS
 10
8.6795764296
 20
6.6861226862
 11
8.6967847635
 21
6.6990289362
  0
LINE
  5
51A
100
AcDbEntity
  8
03__ASM_ALL_CURVES
100
AcDbLine
 62
4
  6
CONTINUOUS
 10
9.1881805966
 20
6.9894195612
 11
9.1795764296
 21
6.9829664362
  0
LINE
  5
51B
100
AcDbEntity
  8
03__ASM_ALL_CURVES
100
AcDbLine
 62
4
  6
CONTINUOUS
 10
12.2648941385
 20
9.4874091466
 11
12.2519878885
 21
9.4788049759
  0
LINE
  5
51C
100
AcDbEntity
  8
03__ASM_ALL_CURVES
100
AcDbLine
 62
4
  6
CONTINUOUS
 10
12.3358785135
 20
9.5132216466
 11
12.3487847635
 21
9.5218258112
  0
LINE
  5
51D
100
AcDbEntity
  8
03__ASM_ALL_CURVES
100
AcDbLine
 62
4
  6
CONTINUOUS
 10
11.3291910135
 20
8.8331799782
 11
11.3162847635
 21
8.8245758112
  0
LINE
  5
51E
100
AcDbEntity
  8
03__ASM_ALL_CURVES
100
AcDbLine
 62
4
  6
CONTINUOUS
 10
12.2648941385
 20
9.4271799782
 11
12.2519878885
 21
9.4185758112
  0
LINE
  5
51F
100
AcDbEntity
  8
03__ASM_ALL_CURVES
100
AcDbLine
 62
4
  6
CONTINUOUS
 10
11.5034253885
 20
8.9192216466
 11
11.5163316385
 21
8.9278258112
  0
LINE
  5
520
100
AcDbEntity
  8
03__ASM_ALL_CURVES
100
AcDbLine
 62
4
  6
CONTINUOUS
 10
11.5421441385
 20
8.8934091466
 11
11.5292378885
 21
8.8848049759
  0
LINE
  5
521
100
AcDbEntity
  8
03__ASM_ALL_CURVES
100
AcDbLine
 62
4
  6
CONTINUOUS
 10
12.3616910135
 20
9.4271799782
 11
12.3487847635
 21
9.4185758112
  0
LINE
  5
522
100
AcDbEntity
  8
03__ASM_ALL_CURVES
100
AcDbLine
 62
4
  6
CONTINUOUS
 10
11.5421441385
 20
8.8331799782
 11
11.5292378885
 21
8.8245758112
  0
LINE
  5
523
100
AcDbEntity
  8
03__ASM_ALL_CURVES
100
AcDbLine
 62
4
  6
CONTINUOUS
 10
11.3033785135
 20
8.6072216466
 11
11.3162847635
 21
8.6158258112
  0
LINE
  5
524
100
AcDbEntity
  8
0
100
AcDbLine
 62
7
  6
CONTINUOUS
 10
10.2591597635
 20
8.0042644771
 11
10.2001597635
 21
7.9702008112
  0
LINE
  5
525
100
AcDbEntity
  8
03__ASM_ALL_CURVES
100
AcDbLine
 62
4
  6
CONTINUOUS
 10
7.6107430989
 20
7.1249351862
 11
7.6279514281
 21
7.1313883112
  0
LINE
  5
526
100
AcDbEntity
  8
03__ASM_ALL_CURVES
100
AcDbLine
 62
4
  6
CONTINUOUS
 10
7.6451597635
 20
7.0862164362
 11
7.6279514281
 21
7.0797633112
  0
LINE
  5
527
100
AcDbEntity
  8
03__ASM_ALL_CURVES
100
AcDbLine
 62
4
  6
CONTINUOUS
 10
12.3487847635
 20
9.4788049759
 11
12.3681441385
 21
9.4702008112
  0
LINE
  5
528
100
AcDbEntity
  8
03__ASM_ALL_CURVES
100
AcDbLine
 62
4
  6
CONTINUOUS
 10
11.5227847635
 20
9.4185758112
 11
11.5098785135
 21
9.4271799782
  0
LINE
  5
529
100
AcDbEntity
  8
03__ASM_ALL_CURVES
100
AcDbLine
 62
4
  6
CONTINUOUS
 10
9.4451597635
 20
10.8342008112
 11
9.4601597635
 21
10.8242008136
  0
LINE
  5
52A
100
AcDbEntity
  8
03__ASM_ALL_CURVES
100
AcDbLine
 62
4
  6
CONTINUOUS
 10
11.6260347635
 20
9.4185758112
 11
11.6131285135
 21
9.4271799782
  0
LINE
  5
52B
100
AcDbEntity
  8
03__ASM_ALL_CURVES
100
AcDbLine
 62
4
  6
CONTINUOUS
 10
11.5227847635
 20
9.5218258112
 11
11.5356910135
 21
9.5132216466
  0
LINE
  5
52C
100
AcDbEntity
  8
03__ASM_ALL_CURVES
100
AcDbLine
 62
4
  6
CONTINUOUS
 10
11.6260347635
 20
9.5218258112
 11
11.6389410135
 21
9.5132216466
  0
LINE
  5
52D
100
AcDbEntity
  8
03__ASM_ALL_CURVES
100
AcDbLine
 62
4
  6
CONTINUOUS
 10
12.2584410135
 20
8.0132216466
 11
12.2648941385
 21
8.0046174759
  0
LINE
  5
52E
100
AcDbEntity
  8
03__ASM_ALL_CURVES
100
AcDbLine
 62
4
  6
CONTINUOUS
 10
12.3294253885
 20
7.9271799782
 11
12.3165191385
 21
7.9443883112
  0
LINE
  5
52F
100
AcDbEntity
  8
03__ASM_ALL_CURVES
100
AcDbLine
 62
4
  6
CONTINUOUS
 10
12.3294253885
 20
7.9874091466
 11
12.3229722635
 21
7.9960133112
  0
LINE
  5
530
100
AcDbEntity
  8
03__ASM_ALL_CURVES
100
AcDbLine
 62
4
  6
CONTINUOUS
 10
12.3681441385
 20
7.9702008112
 11
12.3810503885
 21
7.9529924789
  0
LINE
  5
531
100
AcDbEntity
  8
03__ASM_ALL_CURVES
100
AcDbLine
 62
4
  6
CONTINUOUS
 10
11.3033785135
 20
9.4271799782
 11
11.2969253885
 21
9.4357841451
  0
LINE
  5
532
100
AcDbEntity
  8
03__ASM_ALL_CURVES
100
AcDbLine
 62
4
  6
CONTINUOUS
 10
12.3681441385
 20
8.0132216466
 11
12.3745972635
 21
8.0046174759
  0
LINE
  5
533
100
AcDbEntity
  8
03__ASM_ALL_CURVES
100
AcDbLine
 62
4
  6
CONTINUOUS
 10
11.8260816385
 20
8.8417841451
 11
11.8389878885
 21
8.8245758112
  0
LINE
  5
534
100
AcDbEntity
  8
03__ASM_ALL_CURVES
100
AcDbLine
 62
4
  6
CONTINUOUS
 10
12.4455816385
 20
8.0218258112
 11
12.4584878885
 21
8.0046174759
  0
LINE
  5
535
100
AcDbEntity
  8
03__ASM_ALL_CURVES
100
AcDbLine
 62
4
  6
CONTINUOUS
 10
11.3291910135
 20
9.5132216466
 11
11.3356441385
 21
9.5046174759
  0
LINE
  5
536
100
AcDbEntity
  8
03__ASM_ALL_CURVES
100
AcDbLine
 62
4
  6
CONTINUOUS
 10
10.5276597635
 20
10.6342008136
 11
10.5351597635
 21
10.6242008089
  0
LINE
  5
537
100
AcDbEntity
  8
03__ASM_ALL_CURVES
100
AcDbLine
 62
4
  6
CONTINUOUS
 10
11.435667576
 20
9.4314820616
 11
11.4453472635
 21
9.4185758112
  0
LINE
  5
538
100
AcDbEntity
  8
03__ASM_ALL_CURVES
100
AcDbLine
 62
4
  6
CONTINUOUS
 10
11.5098785135
 20
9.4271799782
 11
11.5034253885
 21
9.4357841451
  0
LINE
  5
539
100
AcDbEntity
  8
03__ASM_ALL_CURVES
100
AcDbLine
 62
4
  6
CONTINUOUS
 10
11.6453941385
 20
8.0046174759
 11
11.6518472635
 21
7.9874091466
  0
LINE
  5
53A
100
AcDbEntity
  8
03__ASM_ALL_CURVES
100
AcDbLine
 62
4
  6
CONTINUOUS
 10
11.3356441385
 20
8.9106174759
 11
11.3420972635
 21
8.8934091466
  0
LINE
  5
53B
100
AcDbEntity
  8
03__ASM_ALL_CURVES
100
AcDbLine
 62
4
  6
CONTINUOUS
 10
11.2969253885
 20
9.4357841451
 11
11.2904722635
 21
9.4529924789
  0
LINE
  5
53C
100
AcDbEntity
  8
03__ASM_ALL_CURVES
100
AcDbLine
 62
4
  6
CONTINUOUS
 10
11.3356441385
 20
9.5046174759
 11
11.3420972635
 21
9.4874091466
  0
LINE
  5
53D
100
AcDbEntity
  8
03__ASM_ALL_CURVES
100
AcDbLine
 62
4
  6
CONTINUOUS
 10
11.435667576
 20
7.9185758112
 11
11.435667576
 21
7.9314820616
  0
LINE
  5
53E
100
AcDbEntity
  8
03__ASM_ALL_CURVES
100
AcDbLine
 62
4
  6
CONTINUOUS
 10
11.435667576
 20
8.8245758112
 11
11.435667576
 21
8.8374820616
  0
LINE
  5
53F
100
AcDbEntity
  8
03__ASM_ALL_CURVES
100
AcDbLine
 62
4
  6
CONTINUOUS
 10
11.435667576
 20
9.4185758112
 11
11.435667576
 21
9.4314820616
  0
LINE
  5
540
100
AcDbEntity
  8
03__ASM_ALL_CURVES
100
AcDbLine
 62
4
  6
CONTINUOUS
 10
11.435667576
 20
11.3255758112
 11
11.435667576
 21
11.3384820616
  0
LINE
  5
541
100
AcDbEntity
  8
03__ASM_ALL_CURVES
100
AcDbLine
 62
4
  6
CONTINUOUS
 10
11.435667576
 20
11.7625758112
 11
11.435667576
 21
11.7754820616
  0
LINE
  5
542
100
AcDbEntity
  8
03__ASM_ALL_CURVES
100
AcDbLine
 62
4
  6
CONTINUOUS
 10
11.435667576
 20
12.1375758112
 11
11.435667576
 21
12.1504820616
  0
LINE
  5
543
100
AcDbEntity
  8
03__ASM_ALL_CURVES
100
AcDbLine
 62
4
  6
CONTINUOUS
 10
11.4905191385
 20
11.3513883112
 11
11.4905191385
 21
11.3599924789
  0
LINE
  5
544
100
AcDbEntity
  8
03__ASM_ALL_CURVES
100
AcDbLine
 62
4
  6
CONTINUOUS
 10
11.4969722635
 20
11.4030133112
 11
11.4969722635
 21
11.4116174759
  0
LINE
  5
545
100
AcDbEntity
  8
03__ASM_ALL_CURVES
100
AcDbLine
 62
4
  6
CONTINUOUS
 10
11.4969722635
 20
12.1719924789
 11
11.4969722635
 21
12.2064091466
  0
LINE
  5
546
100
AcDbEntity
  8
03__ASM_ALL_CURVES
100
AcDbLine
 62
4
  6
CONTINUOUS
 10
11.5485972635
 20
11.8486174759
 11
11.5485972635
 21
11.8314091466
  0
LINE
  5
547
100
AcDbEntity
  8
03__ASM_ALL_CURVES
100
AcDbLine
 62
4
  6
CONTINUOUS
 10
11.5485972635
 20
11.4116174759
 11
11.5485972635
 21
11.4030133112
  0
LINE
  5
548
100
AcDbEntity
  8
03__ASM_ALL_CURVES
100
AcDbLine
 62
4
  6
CONTINUOUS
 10
11.5485972635
 20
9.4874091466
 11
11.5485972635
 21
9.4529924789
  0
LINE
  5
549
100
AcDbEntity
  8
03__ASM_ALL_CURVES
100
AcDbLine
 62
4
  6
CONTINUOUS
 10
11.5485972635
 20
8.9106174759
 11
11.5485972635
 21
8.9020133112
  0
LINE
  5
54A
100
AcDbEntity
  8
03__ASM_ALL_CURVES
100
AcDbLine
 62
4
  6
CONTINUOUS
 10
11.5550503885
 20
11.3599924789
 11
11.5550503885
 21
11.3513883112
  0
LINE
  5
54B
100
AcDbEntity
  8
03__ASM_ALL_CURVES
100
AcDbLine
 62
4
  6
CONTINUOUS
 10
11.5550503885
 20
8.8589924789
 11
11.5550503885
 21
8.8503883112
  0
LINE
  5
54C
100
AcDbEntity
  8
03__ASM_ALL_CURVES
100
AcDbLine
 62
4
  6
CONTINUOUS
 10
11.6002222635
 20
9.4529924789
 11
11.6002222635
 21
9.4874091466
  0
LINE
  5
54D
100
AcDbEntity
  8
03__ASM_ALL_CURVES
100
AcDbLine
 62
4
  6
CONTINUOUS
 10
11.6260347635
 20
11.4288258112
 11
11.6260347635
 21
11.3255758112
  0
LINE
  5
54E
100
AcDbEntity
  8
03__ASM_ALL_CURVES
100
AcDbLine
 62
4
  6
CONTINUOUS
 10
11.6260347635
 20
8.9278258112
 11
11.6260347635
 21
8.8245758112
  0
LINE
  5
54F
100
AcDbEntity
  8
03__ASM_ALL_CURVES
100
AcDbLine
 62
4
  6
CONTINUOUS
 10
11.6518472635
 20
12.2236174759
 11
11.6518472635
 21
12.2064091466
  0
LINE
  5
550
100
AcDbEntity
  8
03__ASM_ALL_CURVES
100
AcDbLine
 62
4
  6
CONTINUOUS
 10
11.6518472635
 20
9.4874091466
 11
11.6518472635
 21
9.4529924789
  0
LINE
  5
551
100
AcDbEntity
  8
03__ASM_ALL_CURVES
100
AcDbLine
 62
4
  6
CONTINUOUS
 10
11.6518472635
 20
7.9874091466
 11
11.6518472635
 21
7.9529924789
  0
LINE
  5
552
100
AcDbEntity
  8
03__ASM_ALL_CURVES
100
AcDbLine
 62
4
  6
CONTINUOUS
 10
11.9357847635
 20
11.3255758112
 11
11.9422378885
 21
11.3685966436
  0
LINE
  5
553
100
AcDbEntity
  8
03__ASM_ALL_CURVES
100
AcDbLine
 62
4
  6
CONTINUOUS
 10
11.5098785135
 20
8.0218258112
 11
11.5034253885
 21
7.9788049759
  0
LINE
  5
554
100
AcDbEntity
  8
03__ASM_ALL_CURVES
100
AcDbLine
 62
4
  6
CONTINUOUS
 10
12.4649410135
 20
12.1805966436
 11
12.4584878885
 21
12.1547841451
  0
LINE
  5
555
100
AcDbEntity
  8
03__ASM_ALL_CURVES
100
AcDbLine
 62
4
  6
CONTINUOUS
 10
11.6002222635
 20
9.4874091466
 11
11.6066753885
 21
9.5046174759
  0
LINE
  5
556
100
AcDbEntity
  8
03__ASM_ALL_CURVES
100
AcDbLine
 62
4
  6
CONTINUOUS
 10
11.2904722635
 20
8.5814091466
 11
11.2969253885
 21
8.5986174759
  0
LINE
  5
557
100
AcDbEntity
  8
03__ASM_ALL_CURVES
100
AcDbLine
 62
4
  6
CONTINUOUS
 10
12.3616910135
 20
11.3944091466
 11
12.3745972635
 21
11.4288258112
  0
LINE
  5
558
100
AcDbEntity
  8
03__ASM_ALL_CURVES
100
AcDbLine
 62
4
  6
CONTINUOUS
 10
11.6518472635
 20
9.4529924789
 11
11.6453941385
 21
9.4357841451
  0
LINE
  5
559
100
AcDbEntity
  8
03__ASM_ALL_CURVES
100
AcDbLine
 62
4
  6
CONTINUOUS
 10
11.3420972635
 20
8.5469924789
 11
11.3356441385
 21
8.5297841451
  0
LINE
  5
55A
100
AcDbEntity
  8
03__ASM_ALL_CURVES
100
AcDbLine
 62
4
  6
CONTINUOUS
 10
11.2904722635
 20
7.9874091466
 11
11.2969253885
 21
8.0046174759
  0
LINE
  5
55B
100
AcDbEntity
  8
03__ASM_ALL_CURVES
100
AcDbLine
 62
4
  6
CONTINUOUS
 10
10.2185347635
 20
7.0087789362
 11
10.2271389281
 21
7.0216851862
  0
LINE
  5
55C
100
AcDbEntity
  8
03__ASM_ALL_CURVES
100
AcDbLine
 62
4
  6
CONTINUOUS
 10
10.3217847635
 20
7.1055758112
 11
10.3131805966
 21
7.0926695612
  0
LINE
  5
55D
100
AcDbEntity
  8
03__ASM_ALL_CURVES
100
AcDbLine
 62
4
  6
CONTINUOUS
 10
10.2615555989
 20
7.0087789362
 11
10.2701597635
 21
7.0216851862
  0
LINE
  5
55E
100
AcDbEntity
  8
03__ASM_ALL_CURVES
100
AcDbLine
 62
4
  6
CONTINUOUS
 10
10.3217847635
 20
6.9958726862
 11
10.3131805966
 21
6.9829664362
  0
LINE
  5
55F
100
AcDbEntity
  8
03__ASM_ALL_CURVES
100
AcDbLine
 62
4
  6
CONTINUOUS
 10
10.2185347635
 20
6.7958258112
 11
10.2271389281
 21
6.8087320612
  0
LINE
  5
560
100
AcDbEntity
  8
03__ASM_ALL_CURVES
100
AcDbLine
 62
4
  6
CONTINUOUS
 10
10.3217847635
 20
6.7958258112
 11
10.3131805966
 21
6.7829195612
  0
LINE
  5
561
100
AcDbEntity
  8
03__ASM_ALL_CURVES
100
AcDbLine
 62
4
  6
CONTINUOUS
 10
11.9293316385
 20
9.4615966436
 11
11.9164253885
 21
9.4443883112
  0
LINE
  5
562
100
AcDbEntity
  8
03__ASM_ALL_CURVES
100
AcDbLine
 62
4
  6
CONTINUOUS
 10
11.9615972635
 20
9.4874091466
 11
11.9551441385
 21
9.4788049759
  0
LINE
  5
563
100
AcDbEntity
  8
03__ASM_ALL_CURVES
100
AcDbLine
 62
4
  6
CONTINUOUS
 10
11.2969253885
 20
8.5986174759
 11
11.3033785135
 21
8.6072216466
  0
LINE
  5
564
100
AcDbEntity
  8
03__ASM_ALL_CURVES
100
AcDbLine
 62
4
  6
CONTINUOUS
 10
11.5485972635
 20
8.9020133112
 11
11.5421441385
 21
8.8934091466
  0
LINE
  5
565
100
AcDbEntity
  8
03__ASM_ALL_CURVES
100
AcDbLine
 62
4
  6
CONTINUOUS
 10
12.0132222635
 20
9.5046174759
 11
12.0196753885
 21
9.5132216466
  0
LINE
  5
566
100
AcDbEntity
  8
03__ASM_ALL_CURVES
100
AcDbLine
 62
4
  6
CONTINUOUS
 10
11.5550503885
 20
8.8503883112
 11
11.5421441385
 21
8.8331799782
  0
LINE
  5
567
100
AcDbEntity
  8
03__ASM_ALL_CURVES
100
AcDbLine
 62
4
  6
CONTINUOUS
 10
12.0325816385
 20
9.4615966436
 11
12.0196753885
 21
9.4443883112
  0
LINE
  5
568
100
AcDbEntity
  8
03__ASM_ALL_CURVES
100
AcDbLine
 62
4
  6
CONTINUOUS
 10
11.3356441385
 20
8.5297841451
 11
11.3291910135
 21
8.5211799782
  0
LINE
  5
569
100
AcDbEntity
  8
03__ASM_ALL_CURVES
100
AcDbLine
 62
4
  6
CONTINUOUS
 10
12.0648472635
 20
9.4874091466
 11
12.0583941385
 21
9.4788049759
  0
LINE
  5
56A
100
AcDbEntity
  8
03__ASM_ALL_CURVES
100
AcDbLine
 62
4
  6
CONTINUOUS
 10
12.2197222635
 20
9.5046174759
 11
12.2261753885
 21
9.5132216466
  0
LINE
  5
56B
100
AcDbEntity
  8
03__ASM_ALL_CURVES
100
AcDbLine
 62
4
  6
CONTINUOUS
 10
12.2132691385
 20
9.4529924789
 11
12.2261753885
 21
9.4702008112
  0
LINE
  5
56C
100
AcDbEntity
  8
03__ASM_ALL_CURVES
100
AcDbLine
 62
4
  6
CONTINUOUS
 10
8.6021389281
 20
6.4989820612
 11
8.6107430989
 21
6.5054351862
  0
LINE
  5
56D
100
AcDbEntity
  8
03__ASM_ALL_CURVES
100
AcDbLine
 62
4
  6
CONTINUOUS
 10
9.1838785131
 20
6.9152086237
 11
9.1967847635
 21
6.9248883112
  0
LINE
  5
56E
100
AcDbEntity
  8
03__ASM_ALL_CURVES
100
AcDbLine
 62
4
  6
CONTINUOUS
 10
9.1021389281
 20
6.8151851862
 11
9.1107430989
 21
6.8216383112
  0
LINE
  5
56F
100
AcDbEntity
  8
03__ASM_ALL_CURVES
100
AcDbLine
 62
4
  6
CONTINUOUS
 10
8.6881805966
 20
6.4731695612
 11
8.6795764296
 21
6.4667164362
  0
LINE
  5
570
100
AcDbEntity
  8
03__ASM_ALL_CURVES
100
AcDbLine
 62
4
  6
CONTINUOUS
 10
9.1451597635
 20
6.8151851862
 11
9.1623680958
 21
6.8280914362
  0
LINE
  5
571
100
AcDbEntity
  8
03__ASM_ALL_CURVES
100
AcDbLine
 62
4
  6
CONTINUOUS
 10
10.6021389281
 20
7.9059820612
 11
10.6107430989
 21
7.9124351862
  0
LINE
  5
572
100
AcDbEntity
  8
03__ASM_ALL_CURVES
100
AcDbLine
 62
4
  6
CONTINUOUS
 10
9.1279514281
 20
6.7764664362
 11
9.1193472635
 21
6.7700133112
  0
LINE
  5
573
100
AcDbEntity
  8
03__ASM_ALL_CURVES
100
AcDbLine
 62
4
  6
CONTINUOUS
 10
8.6838785131
 20
6.3989586237
 11
8.6967847635
 21
6.4086383112
  0
LINE
  5
574
100
AcDbEntity
  8
03__ASM_ALL_CURVES
100
AcDbLine
 62
4
  6
CONTINUOUS
 10
9.1881805966
 20
6.7764664362
 11
9.1709722635
 21
6.7635601862
  0
LINE
  5
575
100
AcDbEntity
  8
03__ASM_ALL_CURVES
100
AcDbLine
 62
4
  6
CONTINUOUS
 10
9.1021389281
 20
6.7119351862
 11
9.1107430989
 21
6.7183883112
  0
LINE
  5
576
100
AcDbEntity
  8
03__ASM_ALL_CURVES
100
AcDbLine
 62
4
  6
CONTINUOUS
 10
10.6881805966
 20
7.8801695612
 11
10.6795764296
 21
7.8737164362
  0
LINE
  5
577
100
AcDbEntity
  8
03__ASM_ALL_CURVES
100
AcDbLine
 62
4
  6
CONTINUOUS
 10
9.1451597635
 20
6.7119351862
 11
9.1623680958
 21
6.7248414362
  0
LINE
  5
578
100
AcDbEntity
  8
03__ASM_ALL_CURVES
100
AcDbLine
 62
4
  6
CONTINUOUS
 10
8.6021389281
 20
6.2989351862
 11
8.6107430989
 21
6.3053883112
  0
LINE
  5
579
100
AcDbEntity
  8
03__ASM_ALL_CURVES
100
AcDbLine
 62
4
  6
CONTINUOUS
 10
9.1881805966
 20
6.6732164362
 11
9.1795764296
 21
6.6667633112
  0
LINE
  5
57A
100
AcDbEntity
  8
03__ASM_ALL_CURVES
100
AcDbLine
 62
4
  6
CONTINUOUS
 10
11.3291910135
 20
8.5211799782
 11
11.3162847635
 21
8.5125758112
  0
LINE
  5
57B
100
AcDbEntity
  8
03__ASM_ALL_CURVES
100
AcDbLine
 62
4
  6
CONTINUOUS
 10
12.1229253885
 20
8.9192216466
 11
12.1358316385
 21
8.9278258112
  0
LINE
  5
57C
100
AcDbEntity
  8
03__ASM_ALL_CURVES
100
AcDbLine
 62
4
  6
CONTINUOUS
 10
12.1229253885
 20
8.8762008112
 11
12.1358316385
 21
8.8848049759
  0
LINE
  5
57D
100
AcDbEntity
  8
03__ASM_ALL_CURVES
100
AcDbLine
 62
4
  6
CONTINUOUS
 10
12.1616441385
 20
8.8934091466
 11
12.1487378885
 21
8.8848049759
  0
LINE
  5
57E
100
AcDbEntity
  8
03__ASM_ALL_CURVES
100
AcDbLine
 62
4
  6
CONTINUOUS
 10
12.1616441385
 20
8.8331799782
 11
12.1487378885
 21
8.8245758112
  0
LINE
  5
57F
100
AcDbEntity
  8
03__ASM_ALL_CURVES
100
AcDbLine
 62
4
  6
CONTINUOUS
 10
7.6451597635
 20
6.8151851862
 11
7.6623680958
 21
6.8216383112
  0
LINE
  5
580
100
AcDbEntity
  8
03__ASM_ALL_CURVES
100
AcDbLine
 62
4
  6
CONTINUOUS
 10
10.6107430989
 20
7.9124351862
 11
10.6279514281
 21
7.9188883112
  0
LINE
  5
581
100
AcDbEntity
  8
03__ASM_ALL_CURVES
100
AcDbLine
 62
4
  6
CONTINUOUS
 10
7.6795764296
 20
6.7764664362
 11
7.6623680958
 21
6.7700133112
  0
LINE
  5
582
100
AcDbEntity
  8
03__ASM_ALL_CURVES
100
AcDbLine
 62
4
  6
CONTINUOUS
 10
10.6795764296
 20
7.8737164362
 11
10.6623680958
 21
7.8672633112
  0
LINE
  5
583
100
AcDbEntity
  8
03__ASM_ALL_CURVES
100
AcDbLine
 62
4
  6
CONTINUOUS
 10
10.4751597635
 20
10.5242008112
 11
10.5351597635
 21
10.5242008112
  0
LINE
  5
584
100
AcDbEntity
  8
03__ASM_ALL_CURVES
100
AcDbLine
 62
4
  6
CONTINUOUS
 10
11.9422378885
 20
9.5218258112
 11
11.9551441385
 21
9.5132216466
  0
LINE
  5
585
100
AcDbEntity
  8
03__ASM_ALL_CURVES
100
AcDbLine
 62
4
  6
CONTINUOUS
 10
12.0454878885
 20
9.5218258112
 11
12.0583941385
 21
9.5132216466
  0
LINE
  5
586
100
AcDbEntity
  8
03__ASM_ALL_CURVES
100
AcDbLine
 62
4
  6
CONTINUOUS
 10
12.2390816385
 20
9.4185758112
 11
12.2261753885
 21
9.4271799782
  0
LINE
  5
587
100
AcDbEntity
  8
03__ASM_ALL_CURVES
100
AcDbLine
 62
4
  6
CONTINUOUS
 10
12.2390816385
 20
9.4788049759
 11
12.2261753885
 21
9.4874091466
  0
LINE
  5
588
100
AcDbEntity
  8
03__ASM_ALL_CURVES
100
AcDbLine
 62
4
  6
CONTINUOUS
 10
12.2519878885
 20
9.4788049759
 11
12.2648941385
 21
9.4702008112
  0
LINE
  5
589
100
AcDbEntity
  8
03__ASM_ALL_CURVES
100
AcDbLine
 62
4
  6
CONTINUOUS
 10
12.3487847635
 20
9.4185758112
 11
12.3358785135
 21
9.4271799782
  0
LINE
  5
58A
100
AcDbEntity
  8
03__ASM_ALL_CURVES
100
AcDbLine
 62
4
  6
CONTINUOUS
 10
10.5126597635
 20
10.6442008112
 11
10.5276597635
 21
10.6342008136
  0
LINE
  5
58B
100
AcDbEntity
  8
03__ASM_ALL_CURVES
100
AcDbLine
 62
4
  6
CONTINUOUS
 10
12.2519878885
 20
9.5218258112
 11
12.2648941385
 21
9.5132216466
  0
LINE
  5
58C
100
AcDbEntity
  8
03__ASM_ALL_CURVES
100
AcDbLine
 62
4
  6
CONTINUOUS
 10
11.5356910135
 20
9.5132216466
 11
11.5421441385
 21
9.5046174759
  0
LINE
  5
58D
100
AcDbEntity
  8
03__ASM_ALL_CURVES
100
AcDbLine
 62
4
  6
CONTINUOUS
 10
12.055167576
 20
8.8374820616
 11
12.0648472635
 21
8.8245758112
  0
LINE
  5
58E
100
AcDbEntity
  8
03__ASM_ALL_CURVES
100
AcDbLine
 62
4
  6
CONTINUOUS
 10
11.6131285135
 20
9.4271799782
 11
11.6066753885
 21
9.4357841451
  0
LINE
  5
58F
100
AcDbEntity
  8
03__ASM_ALL_CURVES
100
AcDbLine
 62
4
  6
CONTINUOUS
 10
12.1229253885
 20
8.8331799782
 11
12.1100191385
 21
8.8503883112
  0
LINE
  5
590
100
AcDbEntity
  8
03__ASM_ALL_CURVES
100
AcDbLine
 62
4
  6
CONTINUOUS
 10
11.6389410135
 20
9.5132216466
 11
11.6453941385
 21
9.5046174759
  0
LINE
  5
591
100
AcDbEntity
  8
03__ASM_ALL_CURVES
100
AcDbLine
 62
4
  6
CONTINUOUS
 10
12.1229253885
 20
8.8934091466
 11
12.1164722635
 21
8.9020133112
  0
LINE
  5
592
100
AcDbEntity
  8
03__ASM_ALL_CURVES
100
AcDbLine
 62
4
  6
CONTINUOUS
 10
12.1616441385
 20
8.8762008112
 11
12.1745503885
 21
8.8589924789
  0
LINE
  5
593
100
AcDbEntity
  8
03__ASM_ALL_CURVES
100
AcDbLine
 62
4
  6
CONTINUOUS
 10
12.1616441385
 20
8.9192216466
 11
12.1680972635
 21
8.9106174759
  0
LINE
  5
594
100
AcDbEntity
  8
03__ASM_ALL_CURVES
100
AcDbLine
 62
4
  6
CONTINUOUS
 10
11.8260816385
 20
9.4357841451
 11
11.8389878885
 21
9.4185758112
  0
LINE
  5
595
100
AcDbEntity
  8
03__ASM_ALL_CURVES
100
AcDbLine
 62
4
  6
CONTINUOUS
 10
11.5034253885
 20
9.4702008112
 11
11.4969722635
 21
9.4874091466
  0
LINE
  5
596
100
AcDbEntity
  8
03__ASM_ALL_CURVES
100
AcDbLine
 62
4
  6
CONTINUOUS
 10
11.5421441385
 20
9.5046174759
 11
11.5485972635
 21
9.4874091466
  0
LINE
  5
597
100
AcDbEntity
  8
03__ASM_ALL_CURVES
100
AcDbLine
 62
4
  6
CONTINUOUS
 10
11.6066753885
 20
9.4357841451
 11
11.6002222635
 21
9.4529924789
  0
LINE
  5
598
100
AcDbEntity
  8
03__ASM_ALL_CURVES
100
AcDbLine
 62
4
  6
CONTINUOUS
 10
11.6453941385
 20
9.5046174759
 11
11.6518472635
 21
9.4874091466
  0
LINE
  5
599
100
AcDbEntity
  8
03__ASM_ALL_CURVES
100
AcDbLine
 62
4
  6
CONTINUOUS
 10
12.2261753885
 20
7.9702008112
 11
12.2197222635
 21
7.9874091466
  0
LINE
  5
59A
100
AcDbEntity
  8
03__ASM_ALL_CURVES
100
AcDbLine
 62
4
  6
CONTINUOUS
 10
11.8196285135
 20
7.9615966436
 11
11.8260816385
 21
7.9357841451
  0
LINE
  5
59B
100
AcDbEntity
  8
03__ASM_ALL_CURVES
100
AcDbLine
 62
4
  6
CONTINUOUS
 10
11.8196285135
 20
12.1978049759
 11
11.8196285135
 21
12.1805966436
  0
LINE
  5
59C
100
AcDbEntity
  8
03__ASM_ALL_CURVES
100
AcDbLine
 62
4
  6
CONTINUOUS
 10
11.8196285135
 20
11.8228049759
 11
11.8196285135
 21
11.8055966436
  0
LINE
  5
59D
100
AcDbEntity
  8
03__ASM_ALL_CURVES
100
AcDbLine
 62
4
  6
CONTINUOUS
 10
11.8196285135
 20
11.3858049759
 11
11.8196285135
 21
11.3685966436
  0
LINE
  5
59E
100
AcDbEntity
  8
03__ASM_ALL_CURVES
100
AcDbLine
 62
4
  6
CONTINUOUS
 10
11.8196285135
 20
9.4788049759
 11
11.8196285135
 21
9.4615966436
  0
LINE
  5
59F
100
AcDbEntity
  8
03__ASM_ALL_CURVES
100
AcDbLine
 62
4
  6
CONTINUOUS
 10
11.8196285135
 20
8.8848049759
 11
11.8196285135
 21
8.8675966436
  0
LINE
  5
5A0
100
AcDbEntity
  8
03__ASM_ALL_CURVES
100
AcDbLine
 62
4
  6
CONTINUOUS
 10
11.8196285135
 20
7.9788049759
 11
11.8196285135
 21
7.9615966436
  0
LINE
  5
5A1
100
AcDbEntity
  8
03__ASM_ALL_CURVES
100
AcDbLine
 62
4
  6
CONTINUOUS
 10
11.9035191385
 20
11.7883883112
 11
11.9035191385
 21
11.7969924789
  0
LINE
  5
5A2
100
AcDbEntity
  8
03__ASM_ALL_CURVES
100
AcDbLine
 62
4
  6
CONTINUOUS
 10
11.9099722635
 20
11.8400133112
 11
11.9099722635
 21
11.8486174759
  0
LINE
  5
5A3
100
AcDbEntity
  8
03__ASM_ALL_CURVES
100
AcDbLine
 62
4
  6
CONTINUOUS
 10
11.9357847635
 20
8.0218258112
 11
11.9357847635
 21
7.9185758112
  0
LINE
  5
5A4
100
AcDbEntity
  8
03__ASM_ALL_CURVES
100
AcDbLine
 62
4
  6
CONTINUOUS
 10
12.2326285135
 20
11.8658258112
 11
12.2261753885
 21
11.8228049759
  0
LINE
  5
5A5
100
AcDbEntity
  8
03__ASM_ALL_CURVES
100
AcDbLine
 62
4
  6
CONTINUOUS
 10
12.3358785135
 20
11.8658258112
 11
12.3294253885
 21
11.8228049759
  0
LINE
  5
5A6
100
AcDbEntity
  8
03__ASM_ALL_CURVES
100
AcDbLine
 62
4
  6
CONTINUOUS
 10
11.8260816385
 20
9.5046174759
 11
11.8196285135
 21
9.4788049759
  0
LINE
  5
5A7
100
AcDbEntity
  8
03__ASM_ALL_CURVES
100
AcDbLine
 62
4
  6
CONTINUOUS
 10
12.3552378885
 20
11.3685966436
 11
12.3616910135
 21
11.3944091466
  0
LINE
  5
5A8
100
AcDbEntity
  8
03__ASM_ALL_CURVES
100
AcDbLine
 62
4
  6
CONTINUOUS
 10
12.4649410135
 20
11.8055966436
 11
12.4584878885
 21
11.7797841451
  0
LINE
  5
5A9
100
AcDbEntity
  8
03__ASM_ALL_CURVES
100
AcDbLine
 62
4
  6
CONTINUOUS
 10
11.9164253885
 20
9.4443883112
 11
11.9099722635
 21
9.4185758112
  0
LINE
  5
5AA
100
AcDbEntity
  8
03__ASM_ALL_CURVES
100
AcDbLine
 62
4
  6
CONTINUOUS
 10
11.8260816385
 20
8.9106174759
 11
11.8196285135
 21
8.8848049759
  0
LINE
  5
5AB
100
AcDbEntity
  8
03__ASM_ALL_CURVES
100
AcDbLine
 62
4
  6
CONTINUOUS
 10
12.4649410135
 20
11.3685966436
 11
12.4584878885
 21
11.3427841451
  0
LINE
  5
5AC
100
AcDbEntity
  8
03__ASM_ALL_CURVES
100
AcDbLine
 62
4
  6
CONTINUOUS
 10
12.0196753885
 20
9.4443883112
 11
12.0132222635
 21
9.4185758112
  0
LINE
  5
5AD
100
AcDbEntity
  8
03__ASM_ALL_CURVES
100
AcDbLine
 62
4
  6
CONTINUOUS
 10
11.3420972635
 20
7.9529924789
 11
11.3356441385
 21
7.9357841451
  0
LINE
  5
5AE
100
AcDbEntity
  8
03__ASM_ALL_CURVES
100
AcDbLine
 62
4
  6
CONTINUOUS
 10
11.5550503885
 20
7.9529924789
 11
11.5485972635
 21
7.9357841451
  0
LINE
  5
5AF
100
AcDbEntity
  8
03__ASM_ALL_CURVES
100
AcDbLine
 62
4
  6
CONTINUOUS
 10
11.6002222635
 20
7.9874091466
 11
11.6066753885
 21
8.0046174759
  0
LINE
  5
5B0
100
AcDbEntity
  8
03__ASM_ALL_CURVES
100
AcDbLine
 62
4
  6
CONTINUOUS
 10
11.9486910135
 20
8.8934091466
 11
11.9615972635
 21
8.9278258112
  0
LINE
  5
5B1
100
AcDbEntity
  8
03__ASM_ALL_CURVES
100
AcDbLine
 62
4
  6
CONTINUOUS
 10
10.2185347635
 20
6.3892789362
 11
10.2271389281
 21
6.4021851862
  0
LINE
  5
5B2
100
AcDbEntity
  8
03__ASM_ALL_CURVES
100
AcDbLine
 62
4
  6
CONTINUOUS
 10
10.2615555989
 20
6.3892789362
 11
10.2701597635
 21
6.4021851862
  0
LINE
  5
5B3
100
AcDbEntity
  8
03__ASM_ALL_CURVES
100
AcDbLine
 62
4
  6
CONTINUOUS
 10
10.3217847635
 20
6.3763726862
 11
10.3131805966
 21
6.3634664362
  0
LINE
  5
5B4
100
AcDbEntity
  8
03__ASM_ALL_CURVES
100
AcDbLine
 62
4
  6
CONTINUOUS
 10
10.2185347635
 20
6.1763258112
 11
10.2271389281
 21
6.1892320612
  0
LINE
  5
5B5
100
AcDbEntity
  8
03__ASM_ALL_CURVES
100
AcDbLine
 62
4
  6
CONTINUOUS
 10
11.8389878885
 20
8.9278258112
 11
11.8260816385
 21
8.9106174759
  0
LINE
  5
5B6
100
AcDbEntity
  8
03__ASM_ALL_CURVES
100
AcDbLine
 62
4
  6
CONTINUOUS
 10
12.2713472635
 20
9.4960133112
 11
12.2648941385
 21
9.4874091466
  0
LINE
  5
5B7
100
AcDbEntity
  8
03__ASM_ALL_CURVES
100
AcDbLine
 62
4
  6
CONTINUOUS
 10
12.2778003885
 20
9.4443883112
 11
12.2648941385
 21
9.4271799782
  0
LINE
  5
5B8
100
AcDbEntity
  8
03__ASM_ALL_CURVES
100
AcDbLine
 62
4
  6
CONTINUOUS
 10
12.3294253885
 20
9.5046174759
 11
12.3358785135
 21
9.5132216466
  0
LINE
  5
5B9
100
AcDbEntity
  8
03__ASM_ALL_CURVES
100
AcDbLine
 62
4
  6
CONTINUOUS
 10
12.3681441385
 20
9.4357841451
 11
12.3616910135
 21
9.4271799782
  0
LINE
  5
5BA
100
AcDbEntity
  8
03__ASM_ALL_CURVES
100
AcDbLine
 62
4
  6
CONTINUOUS
 10
11.2969253885
 20
8.0046174759
 11
11.3033785135
 21
8.0132216466
  0
LINE
  5
5BB
100
AcDbEntity
  8
03__ASM_ALL_CURVES
100
AcDbLine
 62
4
  6
CONTINUOUS
 10
12.4584878885
 20
9.4357841451
 11
12.4455816385
 21
9.4185758112
  0
LINE
  5
5BC
100
AcDbEntity
  8
03__ASM_ALL_CURVES
100
AcDbLine
 62
4
  6
CONTINUOUS
 10
11.3356441385
 20
7.9357841451
 11
11.3291910135
 21
7.9271799782
  0
LINE
  5
5BD
100
AcDbEntity
  8
03__ASM_ALL_CURVES
100
AcDbLine
 62
4
  6
CONTINUOUS
 10
12.1164722635
 20
8.9106174759
 11
12.1229253885
 21
8.9192216466
  0
LINE
  5
5BE
100
AcDbEntity
  8
03__ASM_ALL_CURVES
100
AcDbLine
 62
4
  6
CONTINUOUS
 10
12.1100191385
 20
8.8589924789
 11
12.1229253885
 21
8.8762008112
  0
LINE
  5
5BF
100
AcDbEntity
  8
03__ASM_ALL_CURVES
100
AcDbLine
 62
4
  6
CONTINUOUS
 10
9.1795764296
 20
6.5828726862
 11
9.1967847635
 21
6.5957789362
  0
LINE
  5
5C0
100
AcDbEntity
  8
03__ASM_ALL_CURVES
100
AcDbLine
 62
4
  6
CONTINUOUS
 10
9.1365555989
 20
6.4021851862
 11
9.1451597635
 21
6.4086383112
  0
LINE
  5
5C1
100
AcDbEntity
  8
03__ASM_ALL_CURVES
100
AcDbLine
 62
4
  6
CONTINUOUS
 10
10.2185347635
 20
7.2023726862
 11
10.2357430989
 21
7.2152789362
  0
LINE
  5
5C2
100
AcDbEntity
  8
03__ASM_ALL_CURVES
100
AcDbLine
 62
4
  6
CONTINUOUS
 10
9.1881805966
 20
6.3634664362
 11
9.1795764296
 21
6.3570133112
  0
LINE
  5
5C3
100
AcDbEntity
  8
03__ASM_ALL_CURVES
100
AcDbLine
 62
4
  6
CONTINUOUS
 10
10.2271389281
 20
7.1184820612
 11
10.2357430989
 21
7.1249351862
  0
LINE
  5
5C4
100
AcDbEntity
  8
03__ASM_ALL_CURVES
100
AcDbLine
 62
4
  6
CONTINUOUS
 10
9.1838785131
 20
6.2957086237
 11
9.1967847635
 21
6.3053883112
  0
LINE
  5
5C5
100
AcDbEntity
  8
03__ASM_ALL_CURVES
100
AcDbLine
 62
4
  6
CONTINUOUS
 10
11.3033785135
 20
8.0132216466
 11
11.3162847635
 21
8.0218258112
  0
LINE
  5
5C6
100
AcDbEntity
  8
03__ASM_ALL_CURVES
100
AcDbLine
 62
4
  6
CONTINUOUS
 10
11.3291910135
 20
7.9271799782
 11
11.3162847635
 21
7.9185758112
  0
LINE
  5
5C7
100
AcDbEntity
  8
03__ASM_ALL_CURVES
100
AcDbLine
 62
4
  6
CONTINUOUS
 10
9.1107430989
 20
7.1249351862
 11
9.1279514281
 21
7.1313883112
  0
LINE
  5
5C8
100
AcDbEntity
  8
03__ASM_ALL_CURVES
100
AcDbLine
 62
4
  6
CONTINUOUS
 10
8.6107430989
 20
6.9184351862
 11
8.6279514281
 21
6.9248883112
  0
LINE
  5
5C9
100
AcDbEntity
  8
03__ASM_ALL_CURVES
100
AcDbLine
 62
4
  6
CONTINUOUS
 10
9.1451597635
 20
7.0862164362
 11
9.1279514281
 21
7.0797633112
  0
LINE
  5
5CA
100
AcDbEntity
  8
03__ASM_ALL_CURVES
100
AcDbLine
 62
4
  6
CONTINUOUS
 10
8.6795764296
 20
6.8797164362
 11
8.6623680958
 21
6.8732633112
  0
LINE
  5
5CB
100
AcDbEntity
  8
03__ASM_ALL_CURVES
100
AcDbLine
 62
4
  6
CONTINUOUS
 10
9.1107430989
 20
7.0216851862
 11
9.1279514281
 21
7.0281383112
  0
LINE
  5
5CC
100
AcDbEntity
  8
03__ASM_ALL_CURVES
100
AcDbLine
 62
4
  6
CONTINUOUS
 10
8.6451597635
 20
6.8216383112
 11
8.6623680958
 21
6.8280914362
  0
LINE
  5
5CD
100
AcDbEntity
  8
03__ASM_ALL_CURVES
100
AcDbLine
 62
4
  6
CONTINUOUS
 10
10.4976597635
 20
10.6442008112
 11
10.5126597635
 21
10.6442008112
  0
LINE
  5
5CE
100
AcDbEntity
  8
03__ASM_ALL_CURVES
100
AcDbLine
 62
4
  6
CONTINUOUS
 10
9.5951597635
 20
10.7142008112
 11
9.5351597635
 21
10.7142008112
  0
LINE
  5
5CF
100
AcDbEntity
  8
03__ASM_ALL_CURVES
100
AcDbLine
 62
4
  6
CONTINUOUS
 10
9.4451597635
 20
10.7142008112
 11
9.4151597635
 21
10.7142008112
  0
LINE
  5
5D0
100
AcDbEntity
  8
03__ASM_ALL_CURVES
100
AcDbLine
 62
4
  6
CONTINUOUS
 10
9.3326597635
 20
10.7142008112
 11
9.3176597635
 21
10.7142008112
  0
LINE
  5
5D1
100
AcDbEntity
  8
03__ASM_ALL_CURVES
100
AcDbLine
 62
4
  6
CONTINUOUS
 10
9.2126597635
 20
10.7142008112
 11
9.1976597635
 21
10.7142008112
  0
LINE
  5
5D2
100
AcDbEntity
  8
03__ASM_ALL_CURVES
100
AcDbLine
 62
4
  6
CONTINUOUS
 10
9.1151597635
 20
10.7142008112
 11
9.0551597635
 21
10.7142008112
  0
LINE
  5
5D3
100
AcDbEntity
  8
03__ASM_ALL_CURVES
100
AcDbLine
 62
4
  6
CONTINUOUS
 10
8.7251597635
 20
10.7142008112
 11
8.6951597635
 21
10.7142008112
  0
LINE
  5
5D4
100
AcDbEntity
  8
03__ASM_ALL_CURVES
100
AcDbLine
 62
4
  6
CONTINUOUS
 10
8.8226597635
 20
10.7542008124
 11
8.8676597635
 21
10.7542008124
  0
LINE
  5
5D5
100
AcDbEntity
  8
03__ASM_ALL_CURVES
100
AcDbLine
 62
4
  6
CONTINUOUS
 10
9.0551597635
 20
10.7742008112
 11
9.0926597635
 21
10.7742008112
  0
LINE
  5
5D6
100
AcDbEntity
  8
03__ASM_ALL_CURVES
100
AcDbLine
 62
4
  6
CONTINUOUS
 10
9.5351597635
 20
10.7742008112
 11
9.5726597635
 21
10.7742008112
  0
LINE
  5
5D7
100
AcDbEntity
  8
03__ASM_ALL_CURVES
100
AcDbLine
 62
4
  6
CONTINUOUS
 10
8.6951597635
 20
10.8342008112
 11
8.7251597635
 21
10.8342008112
  0
LINE
  5
5D8
100
AcDbEntity
  8
03__ASM_ALL_CURVES
100
AcDbLine
 62
4
  6
CONTINUOUS
 10
8.9276597635
 20
10.8342008112
 11
9.0026597635
 21
10.8342008112
  0
LINE
  5
5D9
100
AcDbEntity
  8
03__ASM_ALL_CURVES
100
AcDbLine
 62
4
  6
CONTINUOUS
 10
9.0551597635
 20
10.8342008112
 11
9.1151597635
 21
10.8342008112
  0
LINE
  5
5DA
100
AcDbEntity
  8
03__ASM_ALL_CURVES
100
AcDbLine
 62
4
  6
CONTINUOUS
 10
9.1976597635
 20
10.8342008112
 11
9.2126597635
 21
10.8342008112
  0
LINE
  5
5DB
100
AcDbEntity
  8
03__ASM_ALL_CURVES
100
AcDbLine
 62
4
  6
CONTINUOUS
 10
9.3176597635
 20
10.8342008112
 11
9.3326597635
 21
10.8342008112
  0
LINE
  5
5DC
100
AcDbEntity
  8
03__ASM_ALL_CURVES
100
AcDbLine
 62
4
  6
CONTINUOUS
 10
9.4151597635
 20
10.8342008112
 11
9.4451597635
 21
10.8342008112
  0
LINE
  5
5DD
100
AcDbEntity
  8
03__ASM_ALL_CURVES
100
AcDbLine
 62
4
  6
CONTINUOUS
 10
9.5351597635
 20
10.8342008112
 11
9.5951597635
 21
10.8342008112
  0
LINE
  5
5DE
100
AcDbEntity
  8
03__ASM_ALL_CURVES
100
AcDbLine
 62
4
  6
CONTINUOUS
 10
12.3487847635
 20
9.5218258112
 11
12.3616910135
 21
9.5132216466
  0
LINE
  5
5DF
100
AcDbEntity
  8
03__ASM_ALL_CURVES
100
AcDbLine
 62
4
  6
CONTINUOUS
 10
12.3423316385
 20
8.9278258112
 11
12.3552378885
 21
8.9106174759
  0
LINE
  5
5E0
100
AcDbEntity
  8
03__ASM_ALL_CURVES
100
AcDbLine
 62
4
  6
CONTINUOUS
 10
11.9551441385
 20
9.5132216466
 11
11.9615972635
 21
9.5046174759
  0
LINE
  5
5E1
100
AcDbEntity
  8
03__ASM_ALL_CURVES
100
AcDbLine
 62
4
  6
CONTINUOUS
 10
12.0583941385
 20
9.5132216466
 11
12.0648472635
 21
9.5046174759
  0
LINE
  5
5E2
100
AcDbEntity
  8
03__ASM_ALL_CURVES
100
AcDbLine
 62
4
  6
CONTINUOUS
 10
12.158417576
 20
9.4314820616
 11
12.1680972635
 21
9.4185758112
  0
LINE
  5
5E3
100
AcDbEntity
  8
03__ASM_ALL_CURVES
100
AcDbLine
 62
4
  6
CONTINUOUS
 10
12.2648941385
 20
8.0046174759
 11
12.2713472635
 21
7.9874091466
  0
LINE
  5
5E4
100
AcDbEntity
  8
03__ASM_ALL_CURVES
100
AcDbLine
 62
4
  6
CONTINUOUS
 10
11.8196285135
 20
8.8675966436
 11
11.8260816385
 21
8.8417841451
  0
LINE
  5
5E5
100
AcDbEntity
  8
03__ASM_ALL_CURVES
100
AcDbLine
 62
4
  6
CONTINUOUS
 10
11.8196285135
 20
9.4615966436
 11
11.8260816385
 21
9.4357841451
  0
LINE
  5
5E6
100
AcDbEntity
  8
03__ASM_ALL_CURVES
100
AcDbLine
 62
4
  6
CONTINUOUS
 10
11.9615972635
 20
12.2064091466
 11
11.9615972635
 21
12.1719924789
  0
LINE
  5
5E7
100
AcDbEntity
  8
03__ASM_ALL_CURVES
100
AcDbLine
 62
4
  6
CONTINUOUS
 10
11.9615972635
 20
11.8486174759
 11
11.9615972635
 21
11.8400133112
  0
LINE
  5
5E8
100
AcDbEntity
  8
03__ASM_ALL_CURVES
100
AcDbLine
 62
4
  6
CONTINUOUS
 10
11.9615972635
 20
9.5046174759
 11
11.9615972635
 21
9.4874091466
  0
LINE
  5
5E9
100
AcDbEntity
  8
03__ASM_ALL_CURVES
100
AcDbLine
 62
4
  6
CONTINUOUS
 10
11.9680503885
 20
11.7969924789
 11
11.9680503885
 21
11.7883883112
  0
LINE
  5
5EA
100
AcDbEntity
  8
03__ASM_ALL_CURVES
100
AcDbLine
 62
4
  6
CONTINUOUS
 10
12.0390347635
 20
12.2408258112
 11
12.0390347635
 21
12.1375758112
  0
LINE
  5
5EB
100
AcDbEntity
  8
03__ASM_ALL_CURVES
100
AcDbLine
 62
4
  6
CONTINUOUS
 10
12.0390347635
 20
11.4288258112
 11
12.0390347635
 21
11.3255758112
  0
LINE
  5
5EC
100
AcDbEntity
  8
03__ASM_ALL_CURVES
100
AcDbLine
 62
4
  6
CONTINUOUS
 10
12.055167576
 20
8.8245758112
 11
12.055167576
 21
8.8374820616
  0
LINE
  5
5ED
100
AcDbEntity
  8
03__ASM_ALL_CURVES
100
AcDbLine
 62
4
  6
CONTINUOUS
 10
12.0583941385
 20
7.9185758112
 11
12.0583941385
 21
8.0218258112
  0
LINE
  5
5EE
100
AcDbEntity
  8
03__ASM_ALL_CURVES
100
AcDbLine
 62
4
  6
CONTINUOUS
 10
12.0648472635
 20
11.8486174759
 11
12.0648472635
 21
11.8314091466
  0
LINE
  5
5EF
100
AcDbEntity
  8
03__ASM_ALL_CURVES
100
AcDbLine
 62
4
  6
CONTINUOUS
 10
12.0648472635
 20
9.5046174759
 11
12.0648472635
 21
9.4874091466
  0
LINE
  5
5F0
100
AcDbEntity
  8
03__ASM_ALL_CURVES
100
AcDbLine
 62
4
  6
CONTINUOUS
 10
12.1100191385
 20
8.8503883112
 11
12.1100191385
 21
8.8589924789
  0
LINE
  5
5F1
100
AcDbEntity
  8
03__ASM_ALL_CURVES
100
AcDbLine
 62
4
  6
CONTINUOUS
 10
12.1164722635
 20
8.9020133112
 11
12.1164722635
 21
8.9106174759
  0
LINE
  5
5F2
100
AcDbEntity
  8
03__ASM_ALL_CURVES
100
AcDbLine
 62
4
  6
CONTINUOUS
 10
12.158417576
 20
7.9185758112
 11
12.158417576
 21
7.9314820616
  0
LINE
  5
5F3
100
AcDbEntity
  8
03__ASM_ALL_CURVES
100
AcDbLine
 62
4
  6
CONTINUOUS
 10
12.158417576
 20
9.4185758112
 11
12.158417576
 21
9.4314820616
  0
LINE
  5
5F4
100
AcDbEntity
  8
03__ASM_ALL_CURVES
100
AcDbLine
 62
4
  6
CONTINUOUS
 10
12.158417576
 20
11.3255758112
 11
12.158417576
 21
11.3384820616
  0
LINE
  5
5F5
100
AcDbEntity
  8
03__ASM_ALL_CURVES
100
AcDbLine
 62
4
  6
CONTINUOUS
 10
12.158417576
 20
11.7625758112
 11
12.158417576
 21
11.7754820616
  0
LINE
  5
5F6
100
AcDbEntity
  8
03__ASM_ALL_CURVES
100
AcDbLine
 62
4
  6
CONTINUOUS
 10
12.158417576
 20
12.1375758112
 11
12.158417576
 21
12.1504820616
  0
LINE
  5
5F7
100
AcDbEntity
  8
03__ASM_ALL_CURVES
100
AcDbLine
 62
4
  6
CONTINUOUS
 10
12.1680972635
 20
8.9106174759
 11
12.1680972635
 21
8.9020133112
  0
LINE
  5
5F8
100
AcDbEntity
  8
03__ASM_ALL_CURVES
100
AcDbLine
 62
4
  6
CONTINUOUS
 10
12.1745503885
 20
8.8589924789
 11
12.1745503885
 21
8.8503883112
  0
LINE
  5
5F9
100
AcDbEntity
  8
03__ASM_ALL_CURVES
100
AcDbLine
 62
4
  6
CONTINUOUS
 10
12.2132691385
 20
9.4443883112
 11
12.2132691385
 21
9.4529924789
  0
LINE
  5
5FA
100
AcDbEntity
  8
03__ASM_ALL_CURVES
100
AcDbLine
 62
4
  6
CONTINUOUS
 10
12.2197222635
 20
9.4960133112
 11
12.2197222635
 21
9.5046174759
  0
LINE
  5
5FB
100
AcDbEntity
  8
03__ASM_ALL_CURVES
100
AcDbLine
 62
4
  6
CONTINUOUS
 10
11.9357847635
 20
8.8245758112
 11
11.9422378885
 21
8.8675966436
  0
LINE
  5
5FC
100
AcDbEntity
  8
03__ASM_ALL_CURVES
100
AcDbLine
 62
4
  6
CONTINUOUS
 10
12.3487847635
 20
11.3255758112
 11
12.3552378885
 21
11.3685966436
  0
LINE
  5
5FD
100
AcDbEntity
  8
03__ASM_ALL_CURVES
100
AcDbLine
 62
4
  6
CONTINUOUS
 10
11.9422378885
 20
8.8675966436
 11
11.9486910135
 21
8.8934091466
  0
LINE
  5
5FE
100
AcDbEntity
  8
03__ASM_ALL_CURVES
100
AcDbLine
 62
4
  6
CONTINUOUS
 10
12.6520816385
 20
11.4116174759
 11
12.6456285135
 21
11.3858049759
  0
LINE
  5
5FF
100
AcDbEntity
  8
03__ASM_ALL_CURVES
100
AcDbLine
 62
4
  6
CONTINUOUS
 10
11.8260816385
 20
8.0046174759
 11
11.8196285135
 21
7.9788049759
  0
LINE
  5
600
100
AcDbEntity
  8
03__ASM_ALL_CURVES
100
AcDbLine
 62
4
  6
CONTINUOUS
 10
11.6518472635
 20
7.9874091466
 11
11.6453941385
 21
7.9702008112
  0
LINE
  5
601
100
AcDbEntity
  8
03__ASM_ALL_CURVES
100
AcDbLine
 62
4
  6
CONTINUOUS
 10
11.6518472635
 20
7.9529924789
 11
11.6453941385
 21
7.9357841451
  0
LINE
  5
602
100
AcDbEntity
  8
03__ASM_ALL_CURVES
100
AcDbLine
 62
4
  6
CONTINUOUS
 10
12.3229722635
 20
9.4874091466
 11
12.3294253885
 21
9.5046174759
  0
LINE
  5
603
100
AcDbEntity
  8
03__ASM_ALL_CURVES
100
AcDbLine
 62
4
  6
CONTINUOUS
 10
12.3229722635
 20
9.4529924789
 11
12.3294253885
 21
9.4702008112
  0
LINE
  5
604
100
AcDbEntity
  8
03__ASM_ALL_CURVES
100
AcDbLine
 62
4
  6
CONTINUOUS
 10
12.3745972635
 20
9.4529924789
 11
12.3681441385
 21
9.4357841451
  0
LINE
  5
605
100
AcDbEntity
  8
03__ASM_ALL_CURVES
100
AcDbLine
 62
4
  6
CONTINUOUS
 10
10.3217847635
 20
6.1763258112
 11
10.3131805966
 21
6.1634195612
  0
LINE
  5
606
100
AcDbEntity
  8
03__ASM_ALL_CURVES
100
AcDbLine
 62
4
  6
CONTINUOUS
 10
12.1680972635
 20
8.9020133112
 11
12.1616441385
 21
8.8934091466
  0
LINE
  5
607
100
AcDbEntity
  8
03__ASM_ALL_CURVES
100
AcDbLine
 62
4
  6
CONTINUOUS
 10
12.1745503885
 20
8.8503883112
 11
12.1616441385
 21
8.8331799782
  0
LINE
  5
608
100
AcDbEntity
  8
03__ASM_ALL_CURVES
100
AcDbLine
 62
4
  6
CONTINUOUS
 10
11.5485972635
 20
7.9357841451
 11
11.5421441385
 21
7.9271799782
  0
LINE
  5
609
100
AcDbEntity
  8
03__ASM_ALL_CURVES
100
AcDbLine
 62
4
  6
CONTINUOUS
 10
11.6066753885
 20
8.0046174759
 11
11.6131285135
 21
8.0132216466
  0
LINE
  5
60A
100
AcDbEntity
  8
03__ASM_ALL_CURVES
100
AcDbLine
 62
4
  6
CONTINUOUS
 10
11.6453941385
 20
7.9357841451
 11
11.6389410135
 21
7.9271799782
  0
LINE
  5
60B
100
AcDbEntity
  8
03__ASM_ALL_CURVES
100
AcDbLine
 62
4
  6
CONTINUOUS
 10
12.3552378885
 20
8.8417841451
 11
12.3423316385
 21
8.8245758112
  0
LINE
  5
60C
100
AcDbEntity
  8
03__ASM_ALL_CURVES
100
AcDbLine
 62
4
  6
CONTINUOUS
 10
10.3131805966
 20
7.0926695612
 11
10.3045764296
 21
7.0862164362
  0
LINE
  5
60D
100
AcDbEntity
  8
03__ASM_ALL_CURVES
100
AcDbLine
 62
4
  6
CONTINUOUS
 10
10.2271389281
 20
7.0216851862
 11
10.2357430989
 21
7.0281383112
  0
LINE
  5
60E
100
AcDbEntity
  8
03__ASM_ALL_CURVES
100
AcDbLine
 62
4
  6
CONTINUOUS
 10
10.2701597635
 20
7.0216851862
 11
10.2873680958
 21
7.0345914362
  0
LINE
  5
60F
100
AcDbEntity
  8
03__ASM_ALL_CURVES
100
AcDbLine
 62
4
  6
CONTINUOUS
 10
10.3131805966
 20
6.9829664362
 11
10.3045764296
 21
6.9765133112
  0
LINE
  5
610
100
AcDbEntity
  8
03__ASM_ALL_CURVES
100
AcDbLine
 62
4
  6
CONTINUOUS
 10
10.3088785131
 20
6.9152086237
 11
10.3217847635
 21
6.9248883112
  0
LINE
  5
611
100
AcDbEntity
  8
03__ASM_ALL_CURVES
100
AcDbLine
 62
4
  6
CONTINUOUS
 10
10.2271389281
 20
6.8087320612
 11
10.2357430989
 21
6.8151851862
  0
LINE
  5
612
100
AcDbEntity
  8
03__ASM_ALL_CURVES
100
AcDbLine
 62
4
  6
CONTINUOUS
 10
11.5034253885
 20
7.9788049759
 11
11.5163316385
 21
7.9874091466
  0
LINE
  5
613
100
AcDbEntity
  8
03__ASM_ALL_CURVES
100
AcDbLine
 62
4
  6
CONTINUOUS
 10
11.6131285135
 20
8.0132216466
 11
11.6260347635
 21
8.0218258112
  0
LINE
  5
614
100
AcDbEntity
  8
03__ASM_ALL_CURVES
100
AcDbLine
 62
4
  6
CONTINUOUS
 10
11.5421441385
 20
7.9271799782
 11
11.5292378885
 21
7.9185758112
  0
LINE
  5
615
100
AcDbEntity
  8
03__ASM_ALL_CURVES
100
AcDbLine
 62
4
  6
CONTINUOUS
 10
11.6389410135
 20
7.9271799782
 11
11.6260347635
 21
7.9185758112
  0
LINE
  5
616
100
AcDbEntity
  8
03__ASM_ALL_CURVES
100
AcDbLine
 62
4
  6
CONTINUOUS
 10
11.6453941385
 20
7.9702008112
 11
11.6260347635
 21
7.9615966436
  0
LINE
  5
617
100
AcDbEntity
  8
03__ASM_ALL_CURVES
100
AcDbLine
 62
4
  6
CONTINUOUS
 10
12.2648941385
 20
7.9702008112
 11
12.2455347635
 21
7.9615966436
  0
LINE
  5
618
100
AcDbEntity
  8
03__ASM_ALL_CURVES
100
AcDbLine
 62
4
  6
CONTINUOUS
 10
7.6107430989
 20
6.4021851862
 11
7.6279514281
 21
6.4086383112
  0
LINE
  5
619
100
AcDbEntity
  8
03__ASM_ALL_CURVES
100
AcDbLine
 62
4
  6
CONTINUOUS
 10
9.1795764296
 20
6.9829664362
 11
9.1623680958
 21
6.9765133112
  0
LINE
  5
61A
100
AcDbEntity
  8
03__ASM_ALL_CURVES
100
AcDbLine
 62
4
  6
CONTINUOUS
 10
7.6795764296
 20
6.3634664362
 11
7.6623680958
 21
6.3570133112
  0
LINE
  5
61B
100
AcDbEntity
  8
03__ASM_ALL_CURVES
100
AcDbLine
 62
4
  6
CONTINUOUS
 10
10.2357430989
 20
7.1249351862
 11
10.2529514281
 21
7.1313883112
  0
LINE
  5
61C
100
AcDbEntity
  8
03__ASM_ALL_CURVES
100
AcDbLine
 62
4
  6
CONTINUOUS
 10
8.6107430989
 20
6.5054351862
 11
8.6279514281
 21
6.5118883112
  0
LINE
  5
61D
100
AcDbEntity
  8
03__ASM_ALL_CURVES
100
AcDbLine
 62
4
  6
CONTINUOUS
 10
9.0026597635
 20
10.9942008124
 11
9.0476597635
 21
10.9942008124
  0
LINE
  5
61E
100
AcDbEntity
  8
03__ASM_ALL_CURVES
100
AcDbLine
 62
4
  6
CONTINUOUS
 10
9.1751597635
 20
11.0742008112
 11
9.1151597635
 21
11.0742008112
  0
LINE
  5
61F
100
AcDbEntity
  8
03__ASM_ALL_CURVES
100
AcDbLine
 62
4
  6
CONTINUOUS
 10
12.2261753885
 20
9.4271799782
 11
12.2132691385
 21
9.4443883112
  0
LINE
  5
620
100
AcDbEntity
  8
03__ASM_ALL_CURVES
100
AcDbLine
 62
4
  6
CONTINUOUS
 10
12.2261753885
 20
9.4874091466
 11
12.2197222635
 21
9.4960133112
  0
LINE
  5
621
100
AcDbEntity
  8
03__ASM_ALL_CURVES
100
AcDbLine
 62
4
  6
CONTINUOUS
 10
12.2648941385
 20
9.4702008112
 11
12.2778003885
 21
9.4529924789
  0
LINE
  5
622
100
AcDbEntity
  8
03__ASM_ALL_CURVES
100
AcDbLine
 62
4
  6
CONTINUOUS
 10
12.2648941385
 20
9.5132216466
 11
12.2713472635
 21
9.5046174759
  0
LINE
  5
623
100
AcDbEntity
  8
03__ASM_ALL_CURVES
100
AcDbLine
 62
4
  6
CONTINUOUS
 10
12.3358785135
 20
9.4271799782
 11
12.3294253885
 21
9.4357841451
  0
LINE
  5
624
100
AcDbEntity
  8
03__ASM_ALL_CURVES
100
AcDbLine
 62
4
  6
CONTINUOUS
 10
12.3616910135
 20
9.5132216466
 11
12.3681441385
 21
9.5046174759
  0
LINE
  5
625
100
AcDbEntity
  8
03__ASM_ALL_CURVES
100
AcDbLine
 62
4
  6
CONTINUOUS
 10
12.4455816385
 20
9.5218258112
 11
12.4584878885
 21
9.5046174759
  0
LINE
  5
626
100
AcDbEntity
  8
03__ASM_ALL_CURVES
100
AcDbLine
 62
4
  6
CONTINUOUS
 10
12.4584878885
 20
8.0046174759
 11
12.4649410135
 21
7.9788049759
  0
LINE
  5
627
100
AcDbEntity
  8
03__ASM_ALL_CURVES
100
AcDbLine
 62
4
  6
CONTINUOUS
 10
12.2713472635
 20
12.2064091466
 11
12.2713472635
 21
12.1719924789
  0
LINE
  5
628
100
AcDbEntity
  8
03__ASM_ALL_CURVES
100
AcDbLine
 62
4
  6
CONTINUOUS
 10
12.2713472635
 20
11.4116174759
 11
12.2713472635
 21
11.4030133112
  0
LINE
  5
629
100
AcDbEntity
  8
03__ASM_ALL_CURVES
100
AcDbLine
 62
4
  6
CONTINUOUS
 10
12.2713472635
 20
9.5046174759
 11
12.2713472635
 21
9.4960133112
  0
LINE
  5
62A
100
AcDbEntity
  8
03__ASM_ALL_CURVES
100
AcDbLine
 62
4
  6
CONTINUOUS
 10
12.2713472635
 20
7.9874091466
 11
12.2713472635
 21
7.9529924789
  0
LINE
  5
62B
100
AcDbEntity
  8
03__ASM_ALL_CURVES
100
AcDbLine
 62
4
  6
CONTINUOUS
 10
12.2778003885
 20
11.3599924789
 11
12.2778003885
 21
11.3513883112
  0
LINE
  5
62C
100
AcDbEntity
  8
03__ASM_ALL_CURVES
100
AcDbLine
 62
4
  6
CONTINUOUS
 10
12.2778003885
 20
9.4529924789
 11
12.2778003885
 21
9.4443883112
  0
LINE
  5
62D
100
AcDbEntity
  8
03__ASM_ALL_CURVES
100
AcDbLine
 62
4
  6
CONTINUOUS
 10
12.3165191385
 20
7.9443883112
 11
12.3165191385
 21
7.9529924789
  0
LINE
  5
62E
100
AcDbEntity
  8
03__ASM_ALL_CURVES
100
AcDbLine
 62
4
  6
CONTINUOUS
 10
12.3229722635
 20
7.9960133112
 11
12.3229722635
 21
8.0046174759
  0
LINE
  5
62F
100
AcDbEntity
  8
03__ASM_ALL_CURVES
100
AcDbLine
 62
4
  6
CONTINUOUS
 10
12.3229722635
 20
9.4529924789
 11
12.3229722635
 21
9.4874091466
  0
LINE
  5
630
100
AcDbEntity
  8
03__ASM_ALL_CURVES
100
AcDbLine
 62
4
  6
CONTINUOUS
 10
12.3616910135
 20
8.8848049759
 11
12.3616910135
 21
8.8675966436
  0
LINE
  5
631
100
AcDbEntity
  8
03__ASM_ALL_CURVES
100
AcDbLine
 62
4
  6
CONTINUOUS
 10
12.3681441385
 20
12.1375758112
 11
12.3681441385
 21
12.2408258112
  0
LINE
  5
632
100
AcDbEntity
  8
03__ASM_ALL_CURVES
100
AcDbLine
 62
4
  6
CONTINUOUS
 10
12.3745972635
 20
8.0046174759
 11
12.3745972635
 21
7.9960133112
  0
LINE
  5
633
100
AcDbEntity
  8
03__ASM_ALL_CURVES
100
AcDbLine
 62
4
  6
CONTINUOUS
 10
12.3810503885
 20
7.9529924789
 11
12.3810503885
 21
7.9443883112
  0
LINE
  5
634
100
AcDbEntity
  8
03__ASM_ALL_CURVES
100
AcDbLine
 62
4
  6
CONTINUOUS
 10
12.4649410135
 20
12.1978049759
 11
12.4649410135
 21
12.1805966436
  0
LINE
  5
635
100
AcDbEntity
  8
03__ASM_ALL_CURVES
100
AcDbLine
 62
4
  6
CONTINUOUS
 10
12.4649410135
 20
11.8228049759
 11
12.4649410135
 21
11.8055966436
  0
LINE
  5
636
100
AcDbEntity
  8
03__ASM_ALL_CURVES
100
AcDbLine
 62
4
  6
CONTINUOUS
 10
12.4649410135
 20
11.3858049759
 11
12.4649410135
 21
11.3685966436
  0
LINE
  5
637
100
AcDbEntity
  8
03__ASM_ALL_CURVES
100
AcDbLine
 62
4
  6
CONTINUOUS
 10
12.4649410135
 20
9.4788049759
 11
12.4649410135
 21
9.4615966436
  0
LINE
  5
638
100
AcDbEntity
  8
03__ASM_ALL_CURVES
100
AcDbLine
 62
4
  6
CONTINUOUS
 10
12.4649410135
 20
7.9788049759
 11
12.4649410135
 21
7.9615966436
  0
LINE
  5
639
100
AcDbEntity
  8
03__ASM_ALL_CURVES
100
AcDbLine
 62
4
  6
CONTINUOUS
 10
12.2455347635
 20
8.8245758112
 11
12.2519878885
 21
8.8675966436
  0
LINE
  5
63A
100
AcDbEntity
  8
03__ASM_ALL_CURVES
100
AcDbLine
 62
4
  6
CONTINUOUS
 10
12.2519878885
 20
8.8675966436
 11
12.2584410135
 21
8.8934091466
  0
LINE
  5
63B
100
AcDbEntity
  8
03__ASM_ALL_CURVES
100
AcDbLine
 62
4
  6
CONTINUOUS
 10
12.4649410135
 20
9.4615966436
 11
12.4584878885
 21
9.4357841451
  0
LINE
  5
63C
100
AcDbEntity
  8
03__ASM_ALL_CURVES
100
AcDbLine
 62
4
  6
CONTINUOUS
 10
12.9811910135
 20
11.3685966436
 11
12.9747378885
 21
11.3427841451
  0
LINE
  5
63D
100
AcDbEntity
  8
03__ASM_ALL_CURVES
100
AcDbLine
 62
4
  6
CONTINUOUS
 10
12.3616910135
 20
8.8675966436
 11
12.3552378885
 21
8.8417841451
  0
LINE
  5
63E
100
AcDbEntity
  8
03__ASM_ALL_CURVES
100
AcDbLine
 62
4
  6
CONTINUOUS
 10
12.2584410135
 20
8.8934091466
 11
12.2713472635
 21
8.9278258112
  0
LINE
  5
63F
100
AcDbEntity
  8
03__ASM_ALL_CURVES
100
AcDbLine
 62
4
  6
CONTINUOUS
 10
12.0583941385
 20
8.0218258112
 11
12.0132222635
 21
7.9443883112
  0
LINE
  5
640
100
AcDbEntity
  8
03__ASM_ALL_CURVES
100
AcDbLine
 62
4
  6
CONTINUOUS
 10
11.8389878885
 20
8.0218258112
 11
11.8260816385
 21
8.0046174759
  0
LINE
  5
641
100
AcDbEntity
  8
03__ASM_ALL_CURVES
100
AcDbLine
 62
4
  6
CONTINUOUS
 10
10.3131805966
 20
6.7829195612
 11
10.3045764296
 21
6.7764664362
  0
LINE
  5
642
100
AcDbEntity
  8
03__ASM_ALL_CURVES
100
AcDbLine
 62
4
  6
CONTINUOUS
 10
10.3045764296
 20
6.6861226862
 11
10.3217847635
 21
6.6990289362
  0
LINE
  5
643
100
AcDbEntity
  8
03__ASM_ALL_CURVES
100
AcDbLine
 62
4
  6
CONTINUOUS
 10
10.2271389281
 20
6.4021851862
 11
10.2357430989
 21
6.4086383112
  0
LINE
  5
644
100
AcDbEntity
  8
03__ASM_ALL_CURVES
100
AcDbLine
 62
4
  6
CONTINUOUS
 10
12.2326285135
 20
8.0132216466
 11
12.2455347635
 21
8.0218258112
  0
LINE
  5
645
100
AcDbEntity
  8
03__ASM_ALL_CURVES
100
AcDbLine
 62
4
  6
CONTINUOUS
 10
12.3294253885
 20
8.0132216466
 11
12.3423316385
 21
8.0218258112
  0
LINE
  5
646
100
AcDbEntity
  8
03__ASM_ALL_CURVES
100
AcDbLine
 62
4
  6
CONTINUOUS
 10
12.2584410135
 20
7.9271799782
 11
12.2455347635
 21
7.9185758112
  0
LINE
  5
647
100
AcDbEntity
  8
03__ASM_ALL_CURVES
100
AcDbLine
 62
4
  6
CONTINUOUS
 10
12.3294253885
 20
7.9702008112
 11
12.3423316385
 21
7.9788049759
  0
LINE
  5
648
100
AcDbEntity
  8
03__ASM_ALL_CURVES
100
AcDbLine
 62
4
  6
CONTINUOUS
 10
12.3681441385
 20
7.9874091466
 11
12.3552378885
 21
7.9788049759
  0
LINE
  5
649
100
AcDbEntity
  8
03__ASM_ALL_CURVES
100
AcDbLine
 62
4
  6
CONTINUOUS
 10
10.2701597635
 20
7.0862164362
 11
10.2529514281
 21
7.0797633112
  0
LINE
  5
64A
100
AcDbEntity
  8
03__ASM_ALL_CURVES
100
AcDbLine
 62
4
  6
CONTINUOUS
 10
8.6795764296
 20
6.4667164362
 11
8.6623680958
 21
6.4602633112
  0
LINE
  5
64B
100
AcDbEntity
  8
0
100
AcDbLine
 62
7
  6
CONTINUOUS
 10
9.0051597635
 20
11.1942008112
 11
8.9651597635
 21
11.1942008112
  0
LINE
  5
64C
100
AcDbEntity
  8
0
100
AcDbLine
 62
7
  6
CONTINUOUS
 10
9.6851597635
 20
11.2542008112
 11
9.6251597635
 21
11.2542008112
  0
LINE
  5
64D
100
AcDbEntity
  8
0
100
AcDbLine
 62
7
  6
CONTINUOUS
 10
9.3051597635
 20
11.2542008112
 11
9.2451597635
 21
11.2542008112
  0
LINE
  5
64E
100
AcDbEntity
  8
0
100
AcDbLine
 62
7
  6
CONTINUOUS
 10
9.1051597635
 20
11.2542008112
 11
9.0451597635
 21
11.2542008112
  0
LINE
  5
64F
100
AcDbEntity
  8
0
100
AcDbLine
 62
7
  6
CONTINUOUS
 10
9.0051597635
 20
11.2542008112
 11
8.9451597635
 21
11.2542008112
  0
LINE
  5
650
100
AcDbEntity
  8
0
100
AcDbLine
 62
7
  6
CONTINUOUS
 10
8.6351597635
 20
11.2542008112
 11
8.5751597635
 21
11.2542008112
  0
LINE
  5
651
100
AcDbEntity
  8
0
100
AcDbLine
 62
7
  6
CONTINUOUS
 10
8.5451597635
 20
11.2542008112
 11
8.4851597635
 21
11.2542008112
  0
LINE
  5
652
100
AcDbEntity
  8
0
100
AcDbLine
 62
7
  6
CONTINUOUS
 10
9.3451597635
 20
11.2542008112
 11
9.4051597635
 21
11.2542008112
  0
LINE
  5
653
100
AcDbEntity
  8
0
100
AcDbLine
 62
7
  6
CONTINUOUS
 10
9.5251597635
 20
11.2542008112
 11
9.5851597635
 21
11.2542008112
  0
LINE
  5
654
100
AcDbEntity
  8
0
100
AcDbLine
 62
7
  6
CONTINUOUS
 10
9.6251597635
 20
11.2842008112
 11
9.6851597635
 21
11.2842008112
  0
LINE
  5
655
100
AcDbEntity
  8
0
100
AcDbLine
 62
7
  6
CONTINUOUS
 10
9.2451597635
 20
11.2942008112
 11
9.3051597635
 21
11.2942008112
  0
LINE
  5
656
100
AcDbEntity
  8
0
100
AcDbLine
 62
7
  6
CONTINUOUS
 10
9.3051597635
 20
11.3142008112
 11
9.2651597635
 21
11.3142008112
  0
LINE
  5
657
100
AcDbEntity
  8
0
100
AcDbLine
 62
7
  6
CONTINUOUS
 10
8.9051597635
 20
11.3142008112
 11
8.8451597635
 21
11.3142008112
  0
LINE
  5
658
100
AcDbEntity
  8
0
100
AcDbLine
 62
7
  6
CONTINUOUS
 10
8.4851597635
 20
11.3142008112
 11
8.5451597635
 21
11.3142008112
  0
LINE
  5
659
100
AcDbEntity
  8
0
100
AcDbLine
 62
7
  6
CONTINUOUS
 10
9.0451597635
 20
11.3142008112
 11
9.1051597635
 21
11.3142008112
  0
LINE
  5
65A
100
AcDbEntity
  8
0
100
AcDbLine
 62
7
  6
CONTINUOUS
 10
9.1451597635
 20
11.3142008112
 11
9.2051597635
 21
11.3142008112
  0
LINE
  5
65B
100
AcDbEntity
  8
0
100
AcDbLine
 62
7
  6
CONTINUOUS
 10
9.5251597635
 20
11.3142008112
 11
9.5851597635
 21
11.3142008112
  0
LINE
  5
65C
100
AcDbEntity
  8
0
100
AcDbLine
 62
7
  6
CONTINUOUS
 10
9.6251597635
 20
11.3142008112
 11
9.6851597635
 21
11.3142008112
  0
LINE
  5
65D
100
AcDbEntity
  8
03__ASM_ALL_CURVES
100
AcDbLine
 62
4
  6
CONTINUOUS
 10
12.8714878885
 20
11.3255758112
 11
12.8585816385
 21
11.3255758112
  0
LINE
  5
65E
100
AcDbEntity
  8
03__ASM_ALL_CURVES
100
AcDbLine
 62
4
  6
CONTINUOUS
 10
12.2519878885
 20
11.3255758112
 11
12.2390816385
 21
11.3255758112
  0
LINE
  5
65F
100
AcDbEntity
  8
03__ASM_ALL_CURVES
100
AcDbLine
 62
4
  6
CONTINUOUS
 10
12.1680972635
 20
11.3255758112
 11
12.158417576
 21
11.3255758112
  0
LINE
  5
660
100
AcDbEntity
  8
03__ASM_ALL_CURVES
100
AcDbLine
 62
4
  6
CONTINUOUS
 10
11.5292378885
 20
11.3255758112
 11
11.5163316385
 21
11.3255758112
  0
LINE
  5
661
100
AcDbEntity
  8
03__ASM_ALL_CURVES
100
AcDbLine
 62
4
  6
CONTINUOUS
 10
11.4453472635
 20
11.3255758112
 11
11.435667576
 21
11.3255758112
  0
LINE
  5
662
100
AcDbEntity
  8
03__ASM_ALL_CURVES
100
AcDbLine
 62
4
  6
CONTINUOUS
 10
11.2904722635
 20
11.3255758112
 11
11.3420972635
 21
11.3255758112
  0
LINE
  5
663
100
AcDbEntity
  8
03__ASM_ALL_CURVES
100
AcDbLine
 62
4
  6
CONTINUOUS
 10
12.7359722635
 20
11.3255758112
 11
12.7875972635
 21
11.3255758112
  0
LINE
  5
664
100
AcDbEntity
  8
0
100
AcDbLine
 62
7
  6
CONTINUOUS
 10
9.4776597635
 20
11.3442008112
 11
9.4926597635
 21
11.3442008112
  0
LINE
  5
665
100
AcDbEntity
  8
0
100
AcDbLine
 62
7
  6
CONTINUOUS
 10
8.5451597635
 20
11.3742008112
 11
8.4851597635
 21
11.3742008112
  0
LINE
  5
666
100
AcDbEntity
  8
0
100
AcDbLine
 62
7
  6
CONTINUOUS
 10
8.6651597635
 20
11.3742008112
 11
8.7251597635
 21
11.3742008112
  0
LINE
  5
667
100
AcDbEntity
  8
03__ASM_ALL_CURVES
100
AcDbLine
 62
4
  6
CONTINUOUS
 10
10.7484097635
 20
11.3772008112
 11
11.0581597635
 21
11.3772008112
  0
LINE
  5
668
100
AcDbEntity
  8
03__ASM_ALL_CURVES
100
AcDbLine
 62
4
  6
CONTINUOUS
 10
11.5163316385
 20
11.3858049759
 11
11.5292378885
 21
11.3858049759
  0
LINE
  5
669
100
AcDbEntity
  8
03__ASM_ALL_CURVES
100
AcDbLine
 62
4
  6
CONTINUOUS
 10
12.2390816385
 20
11.3858049759
 11
12.2519878885
 21
11.3858049759
  0
LINE
  5
66A
100
AcDbEntity
  8
03__ASM_ALL_CURVES
100
AcDbLine
 62
4
  6
CONTINUOUS
 10
11.3356441385
 20
11.4202216466
 11
11.3420972635
 21
11.4116174759
  0
LINE
  5
66B
100
AcDbEntity
  8
03__ASM_ALL_CURVES
100
AcDbLine
 62
4
  6
CONTINUOUS
 10
11.435667576
 20
11.3384820616
 11
11.4453472635
 21
11.3255758112
  0
LINE
  5
66C
100
AcDbEntity
  8
03__ASM_ALL_CURVES
100
AcDbLine
 62
4
  6
CONTINUOUS
 10
12.3294253885
 20
9.4357841451
 11
12.3229722635
 21
9.4529924789
  0
LINE
  5
66D
100
AcDbEntity
  8
03__ASM_ALL_CURVES
100
AcDbLine
 62
4
  6
CONTINUOUS
 10
12.3681441385
 20
9.4702008112
 11
12.3745972635
 21
9.4529924789
  0
LINE
  5
66E
100
AcDbEntity
  8
03__ASM_ALL_CURVES
100
AcDbLine
 62
4
  6
CONTINUOUS
 10
11.5034253885
 20
12.1547841451
 11
11.4969722635
 21
12.1719924789
  0
LINE
  5
66F
100
AcDbEntity
  8
03__ASM_ALL_CURVES
100
AcDbLine
 62
4
  6
CONTINUOUS
 10
11.6518472635
 20
11.8142008112
 11
11.6583003885
 21
11.7969924789
  0
LINE
  5
670
100
AcDbEntity
  8
03__ASM_ALL_CURVES
100
AcDbLine
 62
4
  6
CONTINUOUS
 10
12.3552378885
 20
8.9106174759
 11
12.3616910135
 21
8.8848049759
  0
LINE
  5
671
100
AcDbEntity
  8
03__ASM_ALL_CURVES
100
AcDbLine
 62
4
  6
CONTINUOUS
 10
11.8196285135
 20
11.3685966436
 11
11.8260816385
 21
11.3427841451
  0
LINE
  5
672
100
AcDbEntity
  8
03__ASM_ALL_CURVES
100
AcDbLine
 62
4
  6
CONTINUOUS
 10
11.8196285135
 20
11.8055966436
 11
11.8260816385
 21
11.7797841451
  0
LINE
  5
673
100
AcDbEntity
  8
03__ASM_ALL_CURVES
100
AcDbLine
 62
4
  6
CONTINUOUS
 10
12.4584878885
 20
9.5046174759
 11
12.4649410135
 21
9.4788049759
  0
LINE
  5
674
100
AcDbEntity
  8
03__ASM_ALL_CURVES
100
AcDbLine
 62
4
  6
CONTINUOUS
 10
12.6456285135
 20
11.3858049759
 11
12.6456285135
 21
11.3685966436
  0
LINE
  5
675
100
AcDbEntity
  8
03__ASM_ALL_CURVES
100
AcDbLine
 62
4
  6
CONTINUOUS
 10
12.7359722635
 20
11.4288258112
 11
12.7359722635
 21
11.3255758112
  0
LINE
  5
676
100
AcDbEntity
  8
03__ASM_ALL_CURVES
100
AcDbLine
 62
4
  6
CONTINUOUS
 10
12.4649410135
 20
7.9615966436
 11
12.4584878885
 21
7.9357841451
  0
LINE
  5
677
100
AcDbEntity
  8
03__ASM_ALL_CURVES
100
AcDbLine
 62
4
  6
CONTINUOUS
 10
12.2197222635
 20
7.9874091466
 11
12.2261753885
 21
8.0046174759
  0
LINE
  5
678
100
AcDbEntity
  8
03__ASM_ALL_CURVES
100
AcDbLine
 62
4
  6
CONTINUOUS
 10
12.2713472635
 20
7.9874091466
 11
12.2648941385
 21
7.9702008112
  0
LINE
  5
679
100
AcDbEntity
  8
03__ASM_ALL_CURVES
100
AcDbLine
 62
4
  6
CONTINUOUS
 10
12.2713472635
 20
7.9529924789
 11
12.2648941385
 21
7.9357841451
  0
LINE
  5
67A
100
AcDbEntity
  8
03__ASM_ALL_CURVES
100
AcDbLine
 62
4
  6
CONTINUOUS
 10
12.2261753885
 20
8.0046174759
 11
12.2326285135
 21
8.0132216466
  0
LINE
  5
67B
100
AcDbEntity
  8
03__ASM_ALL_CURVES
100
AcDbLine
 62
4
  6
CONTINUOUS
 10
12.2648941385
 20
7.9357841451
 11
12.2584410135
 21
7.9271799782
  0
LINE
  5
67C
100
AcDbEntity
  8
03__ASM_ALL_CURVES
100
AcDbLine
 62
4
  6
CONTINUOUS
 10
12.3229722635
 20
8.0046174759
 11
12.3294253885
 21
8.0132216466
  0
LINE
  5
67D
100
AcDbEntity
  8
03__ASM_ALL_CURVES
100
AcDbLine
 62
4
  6
CONTINUOUS
 10
12.3165191385
 20
7.9529924789
 11
12.3294253885
 21
7.9702008112
  0
LINE
  5
67E
100
AcDbEntity
  8
03__ASM_ALL_CURVES
100
AcDbLine
 62
4
  6
CONTINUOUS
 10
12.3745972635
 20
7.9960133112
 11
12.3681441385
 21
7.9874091466
  0
LINE
  5
67F
100
AcDbEntity
  8
03__ASM_ALL_CURVES
100
AcDbLine
 62
4
  6
CONTINUOUS
 10
12.3810503885
 20
7.9443883112
 11
12.3681441385
 21
7.9271799782
  0
LINE
  5
680
100
AcDbEntity
  8
03__ASM_ALL_CURVES
100
AcDbLine
 62
4
  6
CONTINUOUS
 10
10.2701597635
 20
6.4021851862
 11
10.2873680958
 21
6.4150914362
  0
LINE
  5
681
100
AcDbEntity
  8
03__ASM_ALL_CURVES
100
AcDbLine
 62
4
  6
CONTINUOUS
 10
10.3131805966
 20
6.3634664362
 11
10.3045764296
 21
6.3570133112
  0
LINE
  5
682
100
AcDbEntity
  8
03__ASM_ALL_CURVES
100
AcDbLine
 62
4
  6
CONTINUOUS
 10
10.3088785131
 20
6.2957086237
 11
10.3217847635
 21
6.3053883112
  0
LINE
  5
683
100
AcDbEntity
  8
03__ASM_ALL_CURVES
100
AcDbLine
 62
4
  6
CONTINUOUS
 10
10.2271389281
 20
6.1892320612
 11
10.2357430989
 21
6.1956851862
  0
LINE
  5
684
100
AcDbEntity
  8
03__ASM_ALL_CURVES
100
AcDbLine
 62
4
  6
CONTINUOUS
 10
10.3131805966
 20
6.1634195612
 11
10.3045764296
 21
6.1569664362
  0
LINE
  5
685
100
AcDbEntity
  8
03__ASM_ALL_CURVES
100
AcDbLine
 62
4
  6
CONTINUOUS
 10
12.3681441385
 20
7.9271799782
 11
12.3552378885
 21
7.9185758112
  0
LINE
  5
686
100
AcDbEntity
  8
03__ASM_ALL_CURVES
100
AcDbLine
 62
4
  6
CONTINUOUS
 10
9.1451597635
 20
6.4086383112
 11
9.1623680958
 21
6.4150914362
  0
LINE
  5
687
100
AcDbEntity
  8
03__ASM_ALL_CURVES
100
AcDbLine
 62
4
  6
CONTINUOUS
 10
10.2357430989
 20
6.8151851862
 11
10.2529514281
 21
6.8216383112
  0
LINE
  5
688
100
AcDbEntity
  8
03__ASM_ALL_CURVES
100
AcDbLine
 62
4
  6
CONTINUOUS
 10
10.2701597635
 20
6.7764664362
 11
10.2529514281
 21
6.7700133112
  0
LINE
  5
689
100
AcDbEntity
  8
03__ASM_ALL_CURVES
100
AcDbLine
 62
4
  6
CONTINUOUS
 10
12.8714878885
 20
11.4288258112
 11
12.8585816385
 21
11.4288258112
  0
LINE
  5
68A
100
AcDbEntity
  8
03__ASM_ALL_CURVES
100
AcDbLine
 62
4
  6
CONTINUOUS
 10
12.3745972635
 20
11.4288258112
 11
12.3229722635
 21
11.4288258112
  0
LINE
  5
68B
100
AcDbEntity
  8
03__ASM_ALL_CURVES
100
AcDbLine
 62
4
  6
CONTINUOUS
 10
11.9615972635
 20
11.4288258112
 11
11.9099722635
 21
11.4288258112
  0
LINE
  5
68C
100
AcDbEntity
  8
03__ASM_ALL_CURVES
100
AcDbLine
 62
4
  6
CONTINUOUS
 10
11.3098316385
 20
11.4288258112
 11
11.3227378885
 21
11.4288258112
  0
LINE
  5
68D
100
AcDbEntity
  8
03__ASM_ALL_CURVES
100
AcDbLine
 62
4
  6
CONTINUOUS
 10
11.5163316385
 20
11.4288258112
 11
11.5292378885
 21
11.4288258112
  0
LINE
  5
68E
100
AcDbEntity
  8
03__ASM_ALL_CURVES
100
AcDbLine
 62
4
  6
CONTINUOUS
 10
12.2390816385
 20
11.4288258112
 11
12.2519878885
 21
11.4288258112
  0
LINE
  5
68F
100
AcDbEntity
  8
03__ASM_ALL_CURVES
100
AcDbLine
 62
4
  6
CONTINUOUS
 10
7.8126597635
 20
11.4942008112
 11
7.7976597635
 21
11.4942008112
  0
LINE
  5
690
100
AcDbEntity
  8
03__ASM_ALL_CURVES
100
AcDbLine
 62
4
  6
CONTINUOUS
 10
7.7976597635
 20
11.5642008089
 11
7.8126597635
 21
11.5642008089
  0
LINE
  5
691
100
AcDbEntity
  8
03__ASM_ALL_CURVES
100
AcDbLine
 62
4
  6
CONTINUOUS
 10
7.7976597635
 20
11.6142008112
 11
7.8126597635
 21
11.6142008112
  0
LINE
  5
692
100
AcDbEntity
  8
03__ASM_ALL_CURVES
100
AcDbLine
 62
4
  6
CONTINUOUS
 10
11.3227378885
 20
11.4288258112
 11
11.3356441385
 21
11.4202216466
  0
LINE
  5
693
100
AcDbEntity
  8
03__ASM_ALL_CURVES
100
AcDbLine
 62
4
  6
CONTINUOUS
 10
11.5163316385
 20
11.3255758112
 11
11.5034253885
 21
11.3341799782
  0
LINE
  5
694
100
AcDbEntity
  8
03__ASM_ALL_CURVES
100
AcDbLine
 62
4
  6
CONTINUOUS
 10
11.5034253885
 20
11.3341799782
 11
11.4905191385
 21
11.3513883112
  0
LINE
  5
695
100
AcDbEntity
  8
03__ASM_ALL_CURVES
100
AcDbLine
 62
4
  6
CONTINUOUS
 10
11.5034253885
 20
11.3944091466
 11
11.4969722635
 21
11.4030133112
  0
LINE
  5
696
100
AcDbEntity
  8
03__ASM_ALL_CURVES
100
AcDbLine
 62
4
  6
CONTINUOUS
 10
11.5421441385
 20
11.3772008112
 11
11.5550503885
 21
11.3599924789
  0
LINE
  5
697
100
AcDbEntity
  8
03__ASM_ALL_CURVES
100
AcDbLine
 62
4
  6
CONTINUOUS
 10
11.5421441385
 20
11.4202216466
 11
11.5485972635
 21
11.4116174759
  0
LINE
  5
698
100
AcDbEntity
  8
03__ASM_ALL_CURVES
100
AcDbLine
 62
4
  6
CONTINUOUS
 10
11.2969253885
 20
11.7711799782
 11
11.2904722635
 21
11.7797841451
  0
LINE
  5
699
100
AcDbEntity
  8
03__ASM_ALL_CURVES
100
AcDbLine
 62
4
  6
CONTINUOUS
 10
11.3356441385
 20
11.8142008112
 11
11.3485503885
 21
11.7969924789
  0
LINE
  5
69A
100
AcDbEntity
  8
03__ASM_ALL_CURVES
100
AcDbLine
 62
4
  6
CONTINUOUS
 10
11.3356441385
 20
11.8572216466
 11
11.3420972635
 21
11.8486174759
  0
LINE
  5
69B
100
AcDbEntity
  8
03__ASM_ALL_CURVES
100
AcDbLine
 62
4
  6
CONTINUOUS
 10
11.435667576
 20
11.7754820616
 11
11.4453472635
 21
11.7625758112
  0
LINE
  5
69C
100
AcDbEntity
  8
03__ASM_ALL_CURVES
100
AcDbLine
 62
4
  6
CONTINUOUS
 10
11.5421441385
 20
12.1892008112
 11
11.5485972635
 21
12.1719924789
  0
LINE
  5
69D
100
AcDbEntity
  8
03__ASM_ALL_CURVES
100
AcDbLine
 62
4
  6
CONTINUOUS
 10
11.8196285135
 20
12.1805966436
 11
11.8260816385
 21
12.1547841451
  0
LINE
  5
69E
100
AcDbEntity
  8
03__ASM_ALL_CURVES
100
AcDbLine
 62
4
  6
CONTINUOUS
 10
12.8392222635
 20
11.4116174759
 11
12.8392222635
 21
11.4030133112
  0
LINE
  5
69F
100
AcDbEntity
  8
03__ASM_ALL_CURVES
100
AcDbLine
 62
4
  6
CONTINUOUS
 10
12.8908472635
 20
11.3599924789
 11
12.8908472635
 21
11.3427841451
  0
LINE
  5
6A0
100
AcDbEntity
  8
03__ASM_ALL_CURVES
100
AcDbLine
 62
4
  6
CONTINUOUS
 10
12.9811910135
 20
11.3858049759
 11
12.9811910135
 21
11.3685966436
  0
LINE
  5
6A1
100
AcDbEntity
  8
03__ASM_ALL_CURVES
100
AcDbLine
 62
4
  6
CONTINUOUS
 10
12.4584878885
 20
7.9357841451
 11
12.4455816385
 21
7.9185758112
  0
LINE
  5
6A2
100
AcDbEntity
  8
03__ASM_ALL_CURVES
100
AcDbLine
 62
4
  6
CONTINUOUS
 10
12.3552378885
 20
11.7625758112
 11
12.3423316385
 21
11.7625758112
  0
LINE
  5
6A3
100
AcDbEntity
  8
03__ASM_ALL_CURVES
100
AcDbLine
 62
4
  6
CONTINUOUS
 10
12.2519878885
 20
11.7625758112
 11
12.2390816385
 21
11.7625758112
  0
LINE
  5
6A4
100
AcDbEntity
  8
03__ASM_ALL_CURVES
100
AcDbLine
 62
4
  6
CONTINUOUS
 10
12.1680972635
 20
11.7625758112
 11
12.158417576
 21
11.7625758112
  0
LINE
  5
6A5
100
AcDbEntity
  8
03__ASM_ALL_CURVES
100
AcDbLine
 62
4
  6
CONTINUOUS
 10
11.9422378885
 20
11.7625758112
 11
11.9293316385
 21
11.7625758112
  0
LINE
  5
6A6
100
AcDbEntity
  8
03__ASM_ALL_CURVES
100
AcDbLine
 62
4
  6
CONTINUOUS
 10
11.6324878885
 20
11.7625758112
 11
11.6195816385
 21
11.7625758112
  0
LINE
  5
6A7
100
AcDbEntity
  8
03__ASM_ALL_CURVES
100
AcDbLine
 62
4
  6
CONTINUOUS
 10
11.4453472635
 20
11.7625758112
 11
11.435667576
 21
11.7625758112
  0
LINE
  5
6A8
100
AcDbEntity
  8
03__ASM_ALL_CURVES
100
AcDbLine
 62
4
  6
CONTINUOUS
 10
11.3227378885
 20
11.7625758112
 11
11.3098316385
 21
11.7625758112
  0
LINE
  5
6A9
100
AcDbEntity
  8
03__ASM_ALL_CURVES
100
AcDbLine
 62
4
  6
CONTINUOUS
 10
11.4969722635
 20
11.7625758112
 11
11.5485972635
 21
11.7625758112
  0
LINE
  5
6AA
100
AcDbEntity
  8
03__ASM_ALL_CURVES
100
AcDbLine
 62
4
  6
CONTINUOUS
 10
12.0132222635
 20
11.7625758112
 11
12.0648472635
 21
11.7625758112
  0
LINE
  5
6AB
100
AcDbEntity
  8
03__ASM_ALL_CURVES
100
AcDbLine
 62
4
  6
CONTINUOUS
 10
10.7484097635
 20
11.8142008112
 11
11.0581597635
 21
11.8142008112
  0
LINE
  5
6AC
100
AcDbEntity
  8
03__ASM_ALL_CURVES
100
AcDbLine
 62
4
  6
CONTINUOUS
 10
11.3098316385
 20
11.8228049759
 11
11.3227378885
 21
11.8228049759
  0
LINE
  5
6AD
100
AcDbEntity
  8
03__ASM_ALL_CURVES
100
AcDbLine
 62
4
  6
CONTINUOUS
 10
11.9293316385
 20
11.8228049759
 11
11.9422378885
 21
11.8228049759
  0
LINE
  5
6AE
100
AcDbEntity
  8
03__ASM_ALL_CURVES
100
AcDbLine
 62
4
  6
CONTINUOUS
 10
11.6195816385
 20
11.8314091466
 11
11.6324878885
 21
11.8314091466
  0
LINE
  5
6AF
100
AcDbEntity
  8
03__ASM_ALL_CURVES
100
AcDbLine
 62
4
  6
CONTINUOUS
 10
12.2390816385
 20
11.8314091466
 11
12.2519878885
 21
11.8314091466
  0
LINE
  5
6B0
100
AcDbEntity
  8
03__ASM_ALL_CURVES
100
AcDbLine
 62
4
  6
CONTINUOUS
 10
12.3423316385
 20
11.8314091466
 11
12.3552378885
 21
11.8314091466
  0
LINE
  5
6B1
100
AcDbEntity
  8
03__ASM_ALL_CURVES
100
AcDbLine
 62
4
  6
CONTINUOUS
 10
12.3745972635
 20
11.8658258112
 11
12.3358785135
 21
11.8658258112
  0
LINE
  5
6B2
100
AcDbEntity
  8
03__ASM_ALL_CURVES
100
AcDbLine
 62
4
  6
CONTINUOUS
 10
12.2713472635
 20
11.8658258112
 11
12.2326285135
 21
11.8658258112
  0
LINE
  5
6B3
100
AcDbEntity
  8
03__ASM_ALL_CURVES
100
AcDbLine
 62
4
  6
CONTINUOUS
 10
11.6518472635
 20
11.8658258112
 11
11.6131285135
 21
11.8658258112
  0
LINE
  5
6B4
100
AcDbEntity
  8
03__ASM_ALL_CURVES
100
AcDbLine
 62
4
  6
CONTINUOUS
 10
11.3098316385
 20
11.8658258112
 11
11.3227378885
 21
11.8658258112
  0
LINE
  5
6B5
100
AcDbEntity
  8
03__ASM_ALL_CURVES
100
AcDbLine
 62
4
  6
CONTINUOUS
 10
11.5163316385
 20
11.8658258112
 11
11.5292378885
 21
11.8658258112
  0
LINE
  5
6B6
100
AcDbEntity
  8
03__ASM_ALL_CURVES
100
AcDbLine
 62
4
  6
CONTINUOUS
 10
11.9293316385
 20
11.8658258112
 11
11.9422378885
 21
11.8658258112
  0
LINE
  5
6B7
100
AcDbEntity
  8
03__ASM_ALL_CURVES
100
AcDbLine
 62
4
  6
CONTINUOUS
 10
12.0325816385
 20
11.8658258112
 11
12.0454878885
 21
11.8658258112
  0
LINE
  5
6B8
100
AcDbEntity
  8
03__ASM_ALL_CURVES
100
AcDbLine
 62
4
  6
CONTINUOUS
 10
11.5163316385
 20
11.3858049759
 11
11.5034253885
 21
11.3944091466
  0
LINE
  5
6B9
100
AcDbEntity
  8
03__ASM_ALL_CURVES
100
AcDbLine
 62
4
  6
CONTINUOUS
 10
11.5292378885
 20
11.3858049759
 11
11.5421441385
 21
11.3772008112
  0
LINE
  5
6BA
100
AcDbEntity
  8
03__ASM_ALL_CURVES
100
AcDbLine
 62
4
  6
CONTINUOUS
 10
11.5292378885
 20
11.4288258112
 11
11.5421441385
 21
11.4202216466
  0
LINE
  5
6BB
100
AcDbEntity
  8
03__ASM_ALL_CURVES
100
AcDbLine
 62
4
  6
CONTINUOUS
 10
11.3098316385
 20
11.7625758112
 11
11.2969253885
 21
11.7711799782
  0
LINE
  5
6BC
100
AcDbEntity
  8
03__ASM_ALL_CURVES
100
AcDbLine
 62
4
  6
CONTINUOUS
 10
11.8260816385
 20
11.3427841451
 11
11.8389878885
 21
11.3255758112
  0
LINE
  5
6BD
100
AcDbEntity
  8
03__ASM_ALL_CURVES
100
AcDbLine
 62
4
  6
CONTINUOUS
 10
11.2969253885
 20
12.1461799782
 11
11.2904722635
 21
12.1547841451
  0
LINE
  5
6BE
100
AcDbEntity
  8
03__ASM_ALL_CURVES
100
AcDbLine
 62
4
  6
CONTINUOUS
 10
11.5421441385
 20
11.8572216466
 11
11.5485972635
 21
11.8486174759
  0
LINE
  5
6BF
100
AcDbEntity
  8
03__ASM_ALL_CURVES
100
AcDbLine
 62
4
  6
CONTINUOUS
 10
11.6066753885
 20
11.7711799782
 11
11.6002222635
 21
11.7797841451
  0
LINE
  5
6C0
100
AcDbEntity
  8
03__ASM_ALL_CURVES
100
AcDbLine
 62
4
  6
CONTINUOUS
 10
11.3356441385
 20
12.1892008112
 11
11.3485503885
 21
12.1719924789
  0
LINE
  5
6C1
100
AcDbEntity
  8
03__ASM_ALL_CURVES
100
AcDbLine
 62
4
  6
CONTINUOUS
 10
11.3356441385
 20
12.2322216466
 11
11.3420972635
 21
12.2236174759
  0
LINE
  5
6C2
100
AcDbEntity
  8
03__ASM_ALL_CURVES
100
AcDbLine
 62
4
  6
CONTINUOUS
 10
11.6453941385
 20
11.8228049759
 11
11.6518472635
 21
11.8142008112
  0
LINE
  5
6C3
100
AcDbEntity
  8
03__ASM_ALL_CURVES
100
AcDbLine
 62
4
  6
CONTINUOUS
 10
11.435667576
 20
12.1504820616
 11
11.4453472635
 21
12.1375758112
  0
LINE
  5
6C4
100
AcDbEntity
  8
03__ASM_ALL_CURVES
100
AcDbLine
 62
4
  6
CONTINUOUS
 10
11.9164253885
 20
12.1892008112
 11
11.9099722635
 21
12.2064091466
  0
LINE
  5
6C5
100
AcDbEntity
  8
03__ASM_ALL_CURVES
100
AcDbLine
 62
4
  6
CONTINUOUS
 10
11.9551441385
 20
12.2236174759
 11
11.9615972635
 21
12.2064091466
  0
LINE
  5
6C6
100
AcDbEntity
  8
03__ASM_ALL_CURVES
100
AcDbLine
 62
4
  6
CONTINUOUS
 10
12.4584878885
 20
11.4116174759
 11
12.4649410135
 21
11.3858049759
  0
LINE
  5
6C7
100
AcDbEntity
  8
03__ASM_ALL_CURVES
100
AcDbLine
 62
4
  6
CONTINUOUS
 10
10.2357430989
 20
6.1956851862
 11
10.2529514281
 21
6.2021383112
  0
LINE
  5
6C8
100
AcDbEntity
  8
03__ASM_ALL_CURVES
100
AcDbLine
 62
4
  6
CONTINUOUS
 10
10.3045764296
 20
6.1569664362
 11
10.2873680958
 21
6.1505133112
  0
LINE
  5
6C9
100
AcDbEntity
  8
03__ASM_ALL_CURVES
100
AcDbLine
 62
4
  6
CONTINUOUS
 10
9.0626597635
 20
12.0042008124
 11
9.1076597635
 21
12.0042008124
  0
LINE
  5
6CA
100
AcDbEntity
  8
03__ASM_ALL_CURVES
100
AcDbLine
 62
4
  6
CONTINUOUS
 10
8.7026597635
 20
12.0242008112
 11
8.7476597635
 21
12.0242008112
  0
LINE
  5
6CB
100
AcDbEntity
  8
03__ASM_ALL_CURVES
100
AcDbLine
 62
4
  6
CONTINUOUS
 10
8.5676597635
 20
12.0842008112
 11
8.6426597635
 21
12.0842008112
  0
LINE
  5
6CC
100
AcDbEntity
  8
03__ASM_ALL_CURVES
100
AcDbLine
 62
4
  6
CONTINUOUS
 10
12.1680972635
 20
12.1375758112
 11
12.158417576
 21
12.1375758112
  0
LINE
  5
6CD
100
AcDbEntity
  8
03__ASM_ALL_CURVES
100
AcDbLine
 62
4
  6
CONTINUOUS
 10
11.4453472635
 20
12.1375758112
 11
11.435667576
 21
12.1375758112
  0
LINE
  5
6CE
100
AcDbEntity
  8
03__ASM_ALL_CURVES
100
AcDbLine
 62
4
  6
CONTINUOUS
 10
11.3227378885
 20
12.1375758112
 11
11.3098316385
 21
12.1375758112
  0
LINE
  5
6CF
100
AcDbEntity
  8
03__ASM_ALL_CURVES
100
AcDbLine
 62
4
  6
CONTINUOUS
 10
11.6002222635
 20
12.1375758112
 11
11.6518472635
 21
12.1375758112
  0
LINE
  5
6D0
100
AcDbEntity
  8
03__ASM_ALL_CURVES
100
AcDbLine
 62
4
  6
CONTINUOUS
 10
12.3229722635
 20
12.1633883112
 11
12.3810503885
 21
12.1633883112
  0
LINE
  5
6D1
100
AcDbEntity
  8
0
100
AcDbLine
 62
7
  6
CONTINUOUS
 10
7.6451597635
 20
12.1892008112
 11
10.6451597635
 21
12.1892008112
  0
LINE
  5
6D2
100
AcDbEntity
  8
03__ASM_ALL_CURVES
100
AcDbLine
 62
4
  6
CONTINUOUS
 10
10.7484097635
 20
12.1892008112
 11
11.0581597635
 21
12.1892008112
  0
LINE
  5
6D3
100
AcDbEntity
  8
03__ASM_ALL_CURVES
100
AcDbLine
 62
4
  6
CONTINUOUS
 10
11.3098316385
 20
12.1978049759
 11
11.3227378885
 21
12.1978049759
  0
LINE
  5
6D4
100
AcDbEntity
  8
03__ASM_ALL_CURVES
100
AcDbLine
 62
4
  6
CONTINUOUS
 10
11.3227378885
 20
11.8228049759
 11
11.3356441385
 21
11.8142008112
  0
LINE
  5
6D5
100
AcDbEntity
  8
03__ASM_ALL_CURVES
100
AcDbLine
 62
4
  6
CONTINUOUS
 10
11.3227378885
 20
11.8658258112
 11
11.3356441385
 21
11.8572216466
  0
LINE
  5
6D6
100
AcDbEntity
  8
03__ASM_ALL_CURVES
100
AcDbLine
 62
4
  6
CONTINUOUS
 10
12.2390816385
 20
11.3255758112
 11
12.2261753885
 21
11.3341799782
  0
LINE
  5
6D7
100
AcDbEntity
  8
03__ASM_ALL_CURVES
100
AcDbLine
 62
4
  6
CONTINUOUS
 10
11.6195816385
 20
11.7625758112
 11
11.6066753885
 21
11.7711799782
  0
LINE
  5
6D8
100
AcDbEntity
  8
03__ASM_ALL_CURVES
100
AcDbLine
 62
4
  6
CONTINUOUS
 10
11.5292378885
 20
11.8658258112
 11
11.5421441385
 21
11.8572216466
  0
LINE
  5
6D9
100
AcDbEntity
  8
03__ASM_ALL_CURVES
100
AcDbLine
 62
4
  6
CONTINUOUS
 10
12.2519878885
 20
11.3858049759
 11
12.2648941385
 21
11.3772008112
  0
LINE
  5
6DA
100
AcDbEntity
  8
03__ASM_ALL_CURVES
100
AcDbLine
 62
4
  6
CONTINUOUS
 10
11.6324878885
 20
11.8314091466
 11
11.6453941385
 21
11.8228049759
  0
LINE
  5
6DB
100
AcDbEntity
  8
03__ASM_ALL_CURVES
100
AcDbLine
 62
4
  6
CONTINUOUS
 10
12.2519878885
 20
11.4288258112
 11
12.2648941385
 21
11.4202216466
  0
LINE
  5
6DC
100
AcDbEntity
  8
03__ASM_ALL_CURVES
100
AcDbLine
 62
4
  6
CONTINUOUS
 10
11.3098316385
 20
12.1375758112
 11
11.2969253885
 21
12.1461799782
  0
LINE
  5
6DD
100
AcDbEntity
  8
03__ASM_ALL_CURVES
100
AcDbLine
 62
4
  6
CONTINUOUS
 10
11.5098785135
 20
12.1461799782
 11
11.5034253885
 21
12.1547841451
  0
LINE
  5
6DE
100
AcDbEntity
  8
03__ASM_ALL_CURVES
100
AcDbLine
 62
4
  6
CONTINUOUS
 10
11.8260816385
 20
11.7797841451
 11
11.8389878885
 21
11.7625758112
  0
LINE
  5
6DF
100
AcDbEntity
  8
03__ASM_ALL_CURVES
100
AcDbLine
 62
4
  6
CONTINUOUS
 10
12.158417576
 20
11.3384820616
 11
12.1680972635
 21
11.3255758112
  0
LINE
  5
6E0
100
AcDbEntity
  8
03__ASM_ALL_CURVES
100
AcDbLine
 62
4
  6
CONTINUOUS
 10
11.5356910135
 20
12.2322216466
 11
11.5421441385
 21
12.2236174759
  0
LINE
  5
6E1
100
AcDbEntity
  8
03__ASM_ALL_CURVES
100
AcDbLine
 62
4
  6
CONTINUOUS
 10
12.2261753885
 20
11.3341799782
 11
12.2197222635
 21
11.3427841451
  0
LINE
  5
6E2
100
AcDbEntity
  8
03__ASM_ALL_CURVES
100
AcDbLine
 62
4
  6
CONTINUOUS
 10
11.9164253885
 20
11.7711799782
 11
11.9035191385
 21
11.7883883112
  0
LINE
  5
6E3
100
AcDbEntity
  8
03__ASM_ALL_CURVES
100
AcDbLine
 62
4
  6
CONTINUOUS
 10
11.9164253885
 20
11.8314091466
 11
11.9099722635
 21
11.8400133112
  0
LINE
  5
6E4
100
AcDbEntity
  8
03__ASM_ALL_CURVES
100
AcDbLine
 62
4
  6
CONTINUOUS
 10
12.2648941385
 20
11.3772008112
 11
12.2778003885
 21
11.3599924789
  0
LINE
  5
6E5
100
AcDbEntity
  8
03__ASM_ALL_CURVES
100
AcDbLine
 62
4
  6
CONTINUOUS
 10
11.9551441385
 20
11.8142008112
 11
11.9680503885
 21
11.7969924789
  0
LINE
  5
6E6
100
AcDbEntity
  8
03__ASM_ALL_CURVES
100
AcDbLine
 62
4
  6
CONTINUOUS
 10
11.6453941385
 20
12.2322216466
 11
11.6518472635
 21
12.2236174759
  0
LINE
  5
6E7
100
AcDbEntity
  8
03__ASM_ALL_CURVES
100
AcDbLine
 62
4
  6
CONTINUOUS
 10
12.2648941385
 20
11.4202216466
 11
12.2713472635
 21
11.4116174759
  0
LINE
  5
6E8
100
AcDbEntity
  8
03__ASM_ALL_CURVES
100
AcDbLine
 62
4
  6
CONTINUOUS
 10
11.9551441385
 20
11.8572216466
 11
11.9615972635
 21
11.8486174759
  0
LINE
  5
6E9
100
AcDbEntity
  8
03__ASM_ALL_CURVES
100
AcDbLine
 62
4
  6
CONTINUOUS
 10
11.8260816385
 20
12.1547841451
 11
11.8389878885
 21
12.1375758112
  0
LINE
  5
6EA
100
AcDbEntity
  8
03__ASM_ALL_CURVES
100
AcDbLine
 62
4
  6
CONTINUOUS
 10
12.0583941385
 20
11.8572216466
 11
12.0648472635
 21
11.8486174759
  0
LINE
  5
6EB
100
AcDbEntity
  8
03__ASM_ALL_CURVES
100
AcDbLine
 62
4
  6
CONTINUOUS
 10
12.2713472635
 20
11.8142008112
 11
12.2778003885
 21
11.7969924789
  0
LINE
  5
6EC
100
AcDbEntity
  8
03__ASM_ALL_CURVES
100
AcDbLine
 62
4
  6
CONTINUOUS
 10
12.2261753885
 20
12.1892008112
 11
12.2197222635
 21
12.2064091466
  0
LINE
  5
6ED
100
AcDbEntity
  8
03__ASM_ALL_CURVES
100
AcDbLine
 62
4
  6
CONTINUOUS
 10
12.3745972635
 20
11.8142008112
 11
12.3810503885
 21
11.7969924789
  0
LINE
  5
6EE
100
AcDbEntity
  8
03__ASM_ALL_CURVES
100
AcDbLine
 62
4
  6
CONTINUOUS
 10
12.2648941385
 20
12.2236174759
 11
12.2713472635
 21
12.2064091466
  0
LINE
  5
6EF
100
AcDbEntity
  8
03__ASM_ALL_CURVES
100
AcDbLine
 62
4
  6
CONTINUOUS
 10
12.4584878885
 20
11.8486174759
 11
12.4649410135
 21
11.8228049759
  0
LINE
  5
6F0
100
AcDbEntity
  8
03__ASM_ALL_CURVES
100
AcDbLine
 62
4
  6
CONTINUOUS
 10
12.6456285135
 20
11.3685966436
 11
12.6520816385
 21
11.3427841451
  0
LINE
  5
6F1
100
AcDbEntity
  8
03__ASM_ALL_CURVES
100
AcDbLine
 62
4
  6
CONTINUOUS
 10
12.4584878885
 20
12.2236174759
 11
12.4649410135
 21
12.1978049759
  0
LINE
  5
6F2
100
AcDbEntity
  8
03__ASM_ALL_CURVES
100
AcDbLine
 62
4
  6
CONTINUOUS
 10
11.3098316385
 20
12.2408258112
 11
11.3227378885
 21
12.2408258112
  0
LINE
  5
6F3
100
AcDbEntity
  8
03__ASM_ALL_CURVES
100
AcDbLine
 62
4
  6
CONTINUOUS
 10
11.6195816385
 20
12.2408258112
 11
11.6324878885
 21
12.2408258112
  0
LINE
  5
6F4
100
AcDbEntity
  8
03__ASM_ALL_CURVES
100
AcDbLine
 62
4
  6
CONTINUOUS
 10
11.5227847635
 20
12.1978049759
 11
11.5421441385
 21
12.1892008112
  0
LINE
  5
6F5
100
AcDbEntity
  8
03__ASM_ALL_CURVES
100
AcDbLine
 62
4
  6
CONTINUOUS
 10
11.9293316385
 20
11.7625758112
 11
11.9164253885
 21
11.7711799782
  0
LINE
  5
6F6
100
AcDbEntity
  8
03__ASM_ALL_CURVES
100
AcDbLine
 62
4
  6
CONTINUOUS
 10
11.3227378885
 20
12.1978049759
 11
11.3356441385
 21
12.1892008112
  0
LINE
  5
6F7
100
AcDbEntity
  8
03__ASM_ALL_CURVES
100
AcDbLine
 62
4
  6
CONTINUOUS
 10
11.9293316385
 20
11.8228049759
 11
11.9164253885
 21
11.8314091466
  0
LINE
  5
6F8
100
AcDbEntity
  8
03__ASM_ALL_CURVES
100
AcDbLine
 62
4
  6
CONTINUOUS
 10
11.9422378885
 20
11.8228049759
 11
11.9551441385
 21
11.8142008112
  0
LINE
  5
6F9
100
AcDbEntity
  8
03__ASM_ALL_CURVES
100
AcDbLine
 62
4
  6
CONTINUOUS
 10
11.3227378885
 20
12.2408258112
 11
11.3356441385
 21
12.2322216466
  0
LINE
  5
6FA
100
AcDbEntity
  8
03__ASM_ALL_CURVES
100
AcDbLine
 62
4
  6
CONTINUOUS
 10
11.5227847635
 20
12.1375758112
 11
11.5098785135
 21
12.1461799782
  0
LINE
  5
6FB
100
AcDbEntity
  8
03__ASM_ALL_CURVES
100
AcDbLine
 62
4
  6
CONTINUOUS
 10
11.9422378885
 20
11.8658258112
 11
11.9551441385
 21
11.8572216466
  0
LINE
  5
6FC
100
AcDbEntity
  8
03__ASM_ALL_CURVES
100
AcDbLine
 62
4
  6
CONTINUOUS
 10
12.0454878885
 20
11.8658258112
 11
12.0583941385
 21
11.8572216466
  0
LINE
  5
6FD
100
AcDbEntity
  8
03__ASM_ALL_CURVES
100
AcDbLine
 62
4
  6
CONTINUOUS
 10
12.8585816385
 20
11.3255758112
 11
12.8456753885
 21
11.3341799782
  0
LINE
  5
6FE
100
AcDbEntity
  8
03__ASM_ALL_CURVES
100
AcDbLine
 62
4
  6
CONTINUOUS
 10
12.2390816385
 20
11.7625758112
 11
12.2261753885
 21
11.7711799782
  0
LINE
  5
6FF
100
AcDbEntity
  8
03__ASM_ALL_CURVES
100
AcDbLine
 62
4
  6
CONTINUOUS
 10
11.5227847635
 20
12.2408258112
 11
11.5356910135
 21
12.2322216466
  0
LINE
  5
700
100
AcDbEntity
  8
03__ASM_ALL_CURVES
100
AcDbLine
 62
4
  6
CONTINUOUS
 10
12.8456753885
 20
11.3944091466
 11
12.8843941385
 21
11.3685966436
  0
LINE
  5
701
100
AcDbEntity
  8
03__ASM_ALL_CURVES
100
AcDbLine
 62
4
  6
CONTINUOUS
 10
12.3423316385
 20
11.7625758112
 11
12.3294253885
 21
11.7711799782
  0
LINE
  5
702
100
AcDbEntity
  8
03__ASM_ALL_CURVES
100
AcDbLine
 62
4
  6
CONTINUOUS
 10
11.6324878885
 20
12.2408258112
 11
11.6453941385
 21
12.2322216466
  0
LINE
  5
703
100
AcDbEntity
  8
03__ASM_ALL_CURVES
100
AcDbLine
 62
4
  6
CONTINUOUS
 10
12.2519878885
 20
11.8314091466
 11
12.2648941385
 21
11.8228049759
  0
LINE
  5
704
100
AcDbEntity
  8
03__ASM_ALL_CURVES
100
AcDbLine
 62
4
  6
CONTINUOUS
 10
12.158417576
 20
11.7754820616
 11
12.1680972635
 21
11.7625758112
  0
LINE
  5
705
100
AcDbEntity
  8
03__ASM_ALL_CURVES
100
AcDbLine
 62
4
  6
CONTINUOUS
 10
12.4455816385
 20
11.4288258112
 11
12.4584878885
 21
11.4116174759
  0
LINE
  5
706
100
AcDbEntity
  8
03__ASM_ALL_CURVES
100
AcDbLine
 62
4
  6
CONTINUOUS
 10
11.9228785135
 20
12.1461799782
 11
11.9164253885
 21
12.1547841451
  0
LINE
  5
707
100
AcDbEntity
  8
03__ASM_ALL_CURVES
100
AcDbLine
 62
4
  6
CONTINUOUS
 10
12.2261753885
 20
11.7711799782
 11
12.2197222635
 21
11.7797841451
  0
LINE
  5
708
100
AcDbEntity
  8
03__ASM_ALL_CURVES
100
AcDbLine
 62
4
  6
CONTINUOUS
 10
11.9486910135
 20
12.2322216466
 11
11.9551441385
 21
12.2236174759
  0
LINE
  5
709
100
AcDbEntity
  8
03__ASM_ALL_CURVES
100
AcDbLine
 62
4
  6
CONTINUOUS
 10
12.2648941385
 20
11.8228049759
 11
12.2713472635
 21
11.8142008112
  0
LINE
  5
70A
100
AcDbEntity
  8
03__ASM_ALL_CURVES
100
AcDbLine
 62
4
  6
CONTINUOUS
 10
12.3294253885
 20
11.7711799782
 11
12.3229722635
 21
11.7797841451
  0
LINE
  5
70B
100
AcDbEntity
  8
03__ASM_ALL_CURVES
100
AcDbLine
 62
4
  6
CONTINUOUS
 10
12.6520816385
 20
11.3427841451
 11
12.6649878885
 21
11.3255758112
  0
LINE
  5
70C
100
AcDbEntity
  8
03__ASM_ALL_CURVES
100
AcDbLine
 62
4
  6
CONTINUOUS
 10
12.3681441385
 20
11.8228049759
 11
12.3745972635
 21
11.8142008112
  0
LINE
  5
70D
100
AcDbEntity
  8
03__ASM_ALL_CURVES
100
AcDbLine
 62
4
  6
CONTINUOUS
 10
12.158417576
 20
12.1504820616
 11
12.1680972635
 21
12.1375758112
  0
LINE
  5
70E
100
AcDbEntity
  8
03__ASM_ALL_CURVES
100
AcDbLine
 62
4
  6
CONTINUOUS
 10
12.9747378885
 20
11.4116174759
 11
12.9811910135
 21
11.3858049759
  0
LINE
  5
70F
100
AcDbEntity
  8
03__ASM_ALL_CURVES
100
AcDbLine
 62
4
  6
CONTINUOUS
 10
11.9357847635
 20
12.1805966436
 11
11.9164253885
 21
12.1892008112
  0
LINE
  5
710
100
AcDbEntity
  8
03__ASM_ALL_CURVES
100
AcDbLine
 62
4
  6
CONTINUOUS
 10
12.2455347635
 20
12.1805966436
 11
12.2261753885
 21
12.1892008112
  0
LINE
  5
711
100
AcDbEntity
  8
03__ASM_ALL_CURVES
100
AcDbLine
 62
4
  6
CONTINUOUS
 10
12.8843941385
 20
11.4202216466
 11
12.8714878885
 21
11.4288258112
  0
LINE
  5
712
100
AcDbEntity
  8
03__ASM_ALL_CURVES
100
AcDbLine
 62
4
  6
CONTINUOUS
 10
12.3552378885
 20
11.8314091466
 11
12.3681441385
 21
11.8228049759
  0
LINE
  5
713
100
AcDbEntity
  8
03__ASM_ALL_CURVES
100
AcDbLine
 62
4
  6
CONTINUOUS
 10
11.9357847635
 20
12.1375758112
 11
11.9228785135
 21
12.1461799782
  0
LINE
  5
714
100
AcDbEntity
  8
03__ASM_ALL_CURVES
100
AcDbLine
 62
4
  6
CONTINUOUS
 10
11.9357847635
 20
12.2408258112
 11
11.9486910135
 21
12.2322216466
  0
LINE
  5
715
100
AcDbEntity
  8
03__ASM_ALL_CURVES
100
AcDbLine
 62
4
  6
CONTINUOUS
 10
12.2455347635
 20
12.1375758112
 11
12.2326285135
 21
12.1461799782
  0
LINE
  5
716
100
AcDbEntity
  8
03__ASM_ALL_CURVES
100
AcDbLine
 62
4
  6
CONTINUOUS
 10
12.2326285135
 20
12.1461799782
 11
12.2261753885
 21
12.1547841451
  0
LINE
  5
717
100
AcDbEntity
  8
03__ASM_ALL_CURVES
100
AcDbLine
 62
4
  6
CONTINUOUS
 10
12.4455816385
 20
11.8658258112
 11
12.4584878885
 21
11.8486174759
  0
LINE
  5
718
100
AcDbEntity
  8
03__ASM_ALL_CURVES
100
AcDbLine
 62
4
  6
CONTINUOUS
 10
12.8456753885
 20
11.3341799782
 11
12.8327691385
 21
11.3513883112
  0
LINE
  5
719
100
AcDbEntity
  8
03__ASM_ALL_CURVES
100
AcDbLine
 62
4
  6
CONTINUOUS
 10
12.8392222635
 20
11.4030133112
 11
12.8456753885
 21
11.3944091466
  0
LINE
  5
71A
100
AcDbEntity
  8
03__ASM_ALL_CURVES
100
AcDbLine
 62
4
  6
CONTINUOUS
 10
12.8843941385
 20
11.3685966436
 11
12.8908472635
 21
11.3599924789
  0
LINE
  5
71B
100
AcDbEntity
  8
03__ASM_ALL_CURVES
100
AcDbLine
 62
4
  6
CONTINUOUS
 10
12.2584410135
 20
12.2322216466
 11
12.2648941385
 21
12.2236174759
  0
LINE
  5
71C
100
AcDbEntity
  8
03__ASM_ALL_CURVES
100
AcDbLine
 62
4
  6
CONTINUOUS
 10
12.8908472635
 20
11.4116174759
 11
12.8843941385
 21
11.4202216466
  0
LINE
  5
71D
100
AcDbEntity
  8
03__ASM_ALL_CURVES
100
AcDbLine
 62
4
  6
CONTINUOUS
 10
12.9618316385
 20
11.4288258112
 11
12.9747378885
 21
11.4116174759
  0
LINE
  5
71E
100
AcDbEntity
  8
03__ASM_ALL_CURVES
100
AcDbLine
 62
4
  6
CONTINUOUS
 10
12.4455816385
 20
12.2408258112
 11
12.4584878885
 21
12.2236174759
  0
LINE
  5
71F
100
AcDbEntity
  8
03__ASM_ALL_CURVES
100
AcDbLine
 62
4
  6
CONTINUOUS
 10
12.2455347635
 20
12.2408258112
 11
12.2584410135
 21
12.2322216466
  0
CIRCLE
  5
720
100
AcDbEntity
  8
0
100
AcDbCircle
 62
7
  6
CONTINUOUS
 10
9.1451597635
 20
9.4702008294
 40
0.28
  0
CIRCLE
  5
721
100
AcDbEntity
  8
0
100
AcDbCircle
 62
7
  6
CONTINUOUS
 10
9.1451597635
 20
9.4702008294
 40
0.211
  0
CIRCLE
  5
722
100
AcDbEntity
  8
0
100
AcDbCircle
 62
7
  6
CONTINUOUS
 10
9.1451597635
 20
9.4702008294
 40
0.1875
  0
CIRCLE
  5
723
100
AcDbEntity
  8
0
100
AcDbCircle
 62
7
  6
CONTINUOUS
 10
8.6451597635
 20
8.8762008177
 40
0.172
  0
CIRCLE
  5
724
100
AcDbEntity
  8
0
100
AcDbCircle
 62
7
  6
CONTINUOUS
 10
8.6051597635
 20
11.3142008112
 40
0.18
  0
CIRCLE
  5
725
100
AcDbEntity
  8
0
100
AcDbCircle
 62
7
  6
CONTINUOUS
 10
10.2701597635
 20
11.8142008112
 40
0.172
  0
SPLINE
  5
726
100
AcDbEntity
  8
0
100
AcDbSpline
 62
7
  6
CONTINUOUS
 70
0
 71
3
 72
18
 73
14
 74
12
 42
0.0000001
 43
0.0000001
 44
0.0000000001
 12
-0.203073441
 22
-0.1047312059
 32
0.0
 13
-0.203073441
 23
0.1047312059
 33
0.0
 40
0.0
 40
0.0
 40
0.0
 40
0.0
 40
0.0989004186
 40
0.1927394872
 40
0.2828982743
 40
0.3706631871
 40
0.4570416804
 40
0.5429585424
 40
0.6293370494
 40
0.717101942
 40
0.8072606833
 40
0.9010996106
 40
1.0
 40
1.0
 40
1.0
 40
1.0
 10
10.258262236
 20
8.0042644771
 30
0.0
 10
10.2515675532
 20
8.0008118238
 30
0.0
 10
10.2383142605
 20
7.9944707757
 30
0.0
 10
10.2182467105
 20
7.9865709786
 30
0.0
 10
10.1984106034
 20
7.9805697936
 30
0.0
 10
10.1786631124
 20
7.9765097614
 30
0.0
 10
10.1589283389
 20
7.9744559963
 30
0.0
 10
10.1391911361
 20
7.974455999
 30
0.0
 10
10.1194563635
 20
7.9765097694
 30
0.0
 10
10.0997088776
 20
7.9805698057
 30
0.0
 10
10.0798727867
 20
7.9865709896
 30
0.0
 10
10.0598052527
 20
7.9944707822
 30
0.0
 10
10.0465519718
 20
8.0008118248
 30
0.0
 10
10.039857291
 20
8.0042644771
 30
0.0
 11
10.258262236
 21
8.0042644771
 31
0.0
 11
10.2378559592
 21
7.9945567378
 31
0.0
 11
10.2178873015
 21
7.9867477986
 31
0.0
 11
10.1981570626
 21
7.9808239913
 31
0.0
 11
10.1785077826
 21
7.9768186131
 31
0.0
 11
10.1588752881
 21
7.9747943419
 31
0.0
 11
10.139244188
 21
7.9747943446
 31
0.0
 11
10.1196116909
 21
7.9768186214
 31
0.0
 11
10.0999624164
 21
7.9808240034
 31
0.0
 11
10.0802321886
 21
7.9867478114
 31
0.0
 11
10.0602635616
 21
7.9945567405
 31
0.0
 11
10.039857291
 21
8.0042644771
 31
0.0
  0
SPLINE
  5
727
100
AcDbEntity
  8
0
100
AcDbSpline
 62
7
  6
CONTINUOUS
 70
0
 71
3
 72
20
 73
16
 74
14
 42
0.0000001
 43
0.0000001
 44
0.0000000001
 12
-0.1840920498
 22
0.1644442291
 32
0.0
 13
-0.1840920498
 23
-0.1644442291
 33
0.0
 40
0.0
 40
0.0
 40
0.0
 40
0.0
 40
0.0950898725
 40
0.1810140265
 40
0.2595337041
 40
0.3323549423
 40
0.4010789642
 40
0.467316556
 40
0.5326839878
 40
0.5989215784
 40
0.6676454863
 40
0.7404667215
 40
0.8189861356
 40
0.9049100691
 40
1.0
 40
1.0
 40
1.0
 40
1.0
 10
10.258262236
 20
8.4407008112
 30
0.0
 10
10.2524271395
 20
8.4459131382
 30
0.0
 10
10.240999739
 20
8.455489283
 30
0.0
 10
10.2235745364
 20
8.4678779699
 30
0.0
 10
10.2066438688
 20
8.4776653197
 30
0.0
 10
10.1900297565
 20
8.4849700519
 30
0.0
 10
10.1735891392
 20
8.4898420285
 30
0.0
 10
10.1572292301
 20
8.4922829505
 30
0.0
 10
10.1408901624
 20
8.4922829403
 30
0.0
 10
10.1245302656
 20
8.4898420002
 30
0.0
 10
10.1080896625
 20
8.4849700112
 30
0.0
 10
10.0914755841
 20
8.4776652802
 30
0.0
 10
10.0745449549
 20
8.4678779446
 30
0.0
 10
10.0571197816
 20
8.4554892774
 30
0.0
 10
10.0456923911
 20
8.4459131414
 30
0.0
 10
10.039857291
 20
8.4407008112
 30
0.0
 11
10.258262236
 21
8.4407008112
 31
0.0
 11
10.2402207736
 21
8.4557160024
 31
0.0
 11
10.2228880597
 21
8.4679403221
 31
0.0
 11
10.2060686349
 21
8.4775721507
 31
0.0
 11
10.1895845239
 21
8.48474092
 31
0.0
 11
10.1733034749
 21
8.4895061836
 31
0.0
 11
10.1571274641
 21
8.4918873451
 31
0.0
 11
10.1409919287
 21
8.4918873352
 31
0.0
 11
10.124815921
 21
8.4895061548
 31
0.0
 11
10.1085349035
 21
8.4847408837
 31
0.0
 11
10.0920507981
 21
8.4775721033
 31
0.0
 11
10.0752314335
 21
8.4679403006
 31
0.0
 11
10.0578987648
 21
8.4557160112
 31
0.0
 11
10.039857291
 21
8.4407008112
 31
0.0
  0
SPLINE
  5
728
100
AcDbEntity
  8
0
100
AcDbSpline
 62
7
  6
CONTINUOUS
 70
0
 71
3
 72
18
 73
14
 74
12
 42
0.0000001
 43
0.0000001
 44
0.0000000001
 12
-0.4279949124
 22
-0.1103650558
 32
0.0
 13
-0.4279949124
 23
0.1103650558
 33
0.0
 40
0.0
 40
0.0
 40
0.0
 40
0.0
 40
0.0949132086
 40
0.1869810871
 40
0.27725946
 40
0.366631735
 40
0.455585417
 40
0.5444148132
 40
0.6333685075
 40
0.7227407587
 40
0.813019082
 40
0.9050868197
 40
1.0
 40
1.0
 40
1.0
 40
1.0
 10
9.9885647085
 20
8.0042644771
 30
0.0
 10
9.9750239183
 20
8.0007727766
 30
0.0
 10
9.9482210929
 20
7.9943732163
 30
0.0
 10
9.9081258356
 20
7.9865003685
 30
0.0
 10
9.868526686
 20
7.9805281517
 30
0.0
 10
9.8291429403
 20
7.9764938797
 30
0.0
 10
9.7898179859
 20
7.974455736
 30
0.0
 10
9.7505014374
 20
7.9744557387
 30
0.0
 10
9.711176485
 20
7.9764938877
 30
0.0
 10
9.6717927488
 20
7.9805281637
 30
0.0
 10
9.632193631
 20
7.9865003796
 30
0.0
 10
9.5920984057
 20
7.994373223
 30
0.0
 10
9.5652956046
 20
8.0007727776
 30
0.0
 10
9.5517548185
 20
8.0042644771
 30
0.0
 11
9.9885647085
 21
8.0042644771
 31
0.0
 11
9.9477521549
 21
7.9945567378
 31
0.0
 11
9.9078148396
 21
7.9867477986
 31
0.0
 11
9.8683543618
 21
7.9808239913
 31
0.0
 11
9.8290558017
 21
7.9768186131
 31
0.0
 11
9.7897908128
 21
7.9747943419
 31
0.0
 11
9.7505286125
 21
7.9747943446
 31
0.0
 11
9.7112636184
 21
7.9768186214
 31
0.0
 11
9.6719650693
 21
7.9808240034
 31
0.0
 11
9.6325046137
 21
7.9867478114
 31
0.0
 11
9.5925673598
 21
7.9945567405
 31
0.0
 11
9.5517548185
 21
8.0042644771
 31
0.0
  0
SPLINE
  5
729
100
AcDbEntity
  8
0
100
AcDbSpline
 62
7
  6
CONTINUOUS
 70
0
 71
3
 72
20
 73
16
 74
14
 42
0.0000001
 43
0.0000001
 44
0.0000000001
 12
-0.4128035879
 22
0.1843728935
 32
0.0
 13
-0.4128035879
 23
-0.1843728935
 33
0.0
 40
0.0
 40
0.0
 40
0.0
 40
0.0
 40
0.0864451283
 40
0.1677482616
 40
0.2451429513
 40
0.3197683693
 40
0.3925586171
 40
0.4643106081
 40
0.5356899854
 40
0.6074419658
 40
0.6802320783
 40
0.754857477
 40
0.8322518951
 40
0.9135548175
 40
1.0
 40
1.0
 40
1.0
 40
1.0
 10
9.9885647085
 20
8.4407008112
 30
0.0
 10
9.9766697554
 20
8.4460135241
 30
0.0
 10
9.9533309456
 20
8.4557641334
 30
0.0
 10
9.9184881596
 20
8.4681038003
 30
0.0
 10
9.884673944
 20
8.4778307063
 30
0.0
 10
9.8515508424
 20
8.4850688445
 30
0.0
 10
9.8188462387
 20
8.4898800309
 30
0.0
 10
9.7863661207
 20
8.4922835982
 30
0.0
 10
9.7539531393
 20
8.4922835882
 30
0.0
 10
9.7214730448
 20
8.489880003
 30
0.0
 10
9.6887684683
 20
8.485068804
 30
0.0
 10
9.6556454323
 20
8.4778306665
 30
0.0
 10
9.6218312919
 20
8.4681037737
 30
0.0
 10
9.5869885672
 20
8.4557641273
 30
0.0
 10
9.563649779
 20
8.4460135274
 30
0.0
 10
9.5517548185
 20
8.4407008112
 30
0.0
 11
9.9885647085
 21
8.4407008112
 31
0.0
 11
9.9524817837
 21
8.4557160024
 31
0.0
 11
9.917816356
 21
8.4679403221
 31
0.0
 11
9.8841775064
 21
8.4775721507
 31
0.0
 11
9.8512092843
 21
8.48474092
 31
0.0
 11
9.8186471863
 21
8.4895061836
 31
0.0
 11
9.7862951648
 21
8.4918873451
 31
0.0
 11
9.7540240939
 21
8.4918873352
 31
0.0
 11
9.7216720785
 21
8.4895061548
 31
0.0
 11
9.6891100435
 21
8.4847408837
 31
0.0
 11
9.6561418327
 21
8.4775721033
 31
0.0
 11
9.6225031035
 21
8.4679403006
 31
0.0
 11
9.5878377662
 21
8.4557160112
 31
0.0
 11
9.5517548185
 21
8.4407008112
 31
0.0
  0
SPLINE
  5
72A
100
AcDbEntity
  8
0
100
AcDbSpline
 62
7
  6
CONTINUOUS
 70
0
 71
3
 72
18
 73
14
 74
12
 42
0.0000001
 43
0.0000001
 44
0.0000000001
 12
-0.203073441
 22
-0.1047312059
 32
0.0
 13
-0.203073441
 23
0.1047312059
 33
0.0
 40
0.0
 40
0.0
 40
0.0
 40
0.0
 40
0.0989004186
 40
0.1927394872
 40
0.2828982743
 40
0.3706631871
 40
0.4570416804
 40
0.5429585424
 40
0.6293370494
 40
0.717101942
 40
0.8072606833
 40
0.9010996106
 40
1.0
 40
1.0
 40
1.0
 40
1.0
 10
9.500462236
 20
8.0042644771
 30
0.0
 10
9.4937675532
 20
8.0008118238
 30
0.0
 10
9.4805142605
 20
7.9944707757
 30
0.0
 10
9.4604467105
 20
7.9865709786
 30
0.0
 10
9.4406106034
 20
7.9805697936
 30
0.0
 10
9.4208631124
 20
7.9765097614
 30
0.0
 10
9.4011283389
 20
7.9744559963
 30
0.0
 10
9.3813911361
 20
7.974455999
 30
0.0
 10
9.3616563635
 20
7.9765097694
 30
0.0
 10
9.3419088776
 20
7.9805698057
 30
0.0
 10
9.3220727867
 20
7.9865709896
 30
0.0
 10
9.3020052527
 20
7.9944707822
 30
0.0
 10
9.2887519718
 20
8.0008118248
 30
0.0
 10
9.282057291
 20
8.0042644771
 30
0.0
 11
9.500462236
 21
8.0042644771
 31
0.0
 11
9.4800559592
 21
7.9945567378
 31
0.0
 11
9.4600873015
 21
7.9867477986
 31
0.0
 11
9.4403570626
 21
7.9808239913
 31
0.0
 11
9.4207077826
 21
7.9768186131
 31
0.0
 11
9.4010752881
 21
7.9747943419
 31
0.0
 11
9.381444188
 21
7.9747943446
 31
0.0
 11
9.3618116909
 21
7.9768186214
 31
0.0
 11
9.3421624164
 21
7.9808240034
 31
0.0
 11
9.3224321886
 21
7.9867478114
 31
0.0
 11
9.3024635616
 21
7.9945567405
 31
0.0
 11
9.282057291
 21
8.0042644771
 31
0.0
  0
SPLINE
  5
72B
100
AcDbEntity
  8
0
100
AcDbSpline
 62
7
  6
CONTINUOUS
 70
0
 71
3
 72
20
 73
16
 74
14
 42
0.0000001
 43
0.0000001
 44
0.0000000001
 12
-0.1840920498
 22
0.1644442291
 32
0.0
 13
-0.1840920498
 23
-0.1644442291
 33
0.0
 40
0.0
 40
0.0
 40
0.0
 40
0.0
 40
0.0950898725
 40
0.1810140265
 40
0.2595337041
 40
0.3323549423
 40
0.4010789642
 40
0.467316556
 40
0.5326839878
 40
0.5989215784
 40
0.6676454863
 40
0.7404667215
 40
0.8189861356
 40
0.9049100691
 40
1.0
 40
1.0
 40
1.0
 40
1.0
 10
9.500462236
 20
8.4407008112
 30
0.0
 10
9.4946271395
 20
8.4459131382
 30
0.0
 10
9.483199739
 20
8.455489283
 30
0.0
 10
9.4657745364
 20
8.4678779699
 30
0.0
 10
9.4488438688
 20
8.4776653197
 30
0.0
 10
9.4322297565
 20
8.4849700519
 30
0.0
 10
9.4157891392
 20
8.4898420285
 30
0.0
 10
9.3994292301
 20
8.4922829505
 30
0.0
 10
9.3830901624
 20
8.4922829403
 30
0.0
 10
9.3667302656
 20
8.4898420002
 30
0.0
 10
9.3502896625
 20
8.4849700112
 30
0.0
 10
9.3336755841
 20
8.4776652802
 30
0.0
 10
9.3167449549
 20
8.4678779446
 30
0.0
 10
9.2993197816
 20
8.4554892774
 30
0.0
 10
9.2878923911
 20
8.4459131414
 30
0.0
 10
9.282057291
 20
8.4407008112
 30
0.0
 11
9.500462236
 21
8.4407008112
 31
0.0
 11
9.4824207736
 21
8.4557160024
 31
0.0
 11
9.4650880597
 21
8.4679403221
 31
0.0
 11
9.4482686349
 21
8.4775721507
 31
0.0
 11
9.4317845239
 21
8.48474092
 31
0.0
 11
9.4155034749
 21
8.4895061836
 31
0.0
 11
9.3993274641
 21
8.4918873451
 31
0.0
 11
9.3831919287
 21
8.4918873352
 31
0.0
 11
9.367015921
 21
8.4895061548
 31
0.0
 11
9.3507349035
 21
8.4847408837
 31
0.0
 11
9.3342507981
 21
8.4775721033
 31
0.0
 11
9.3174314335
 21
8.4679403006
 31
0.0
 11
9.3000987648
 21
8.4557160112
 31
0.0
 11
9.282057291
 21
8.4407008112
 31
0.0
  0
SPLINE
  5
72C
100
AcDbEntity
  8
0
100
AcDbSpline
 62
7
  6
CONTINUOUS
 70
0
 71
3
 72
30
 73
26
 74
24
 42
0.0000001
 43
0.0000001
 44
0.0000000001
 12
-0.1841574698
 22
0.1645026669
 32
0.0
 13
-0.1841574698
 23
-0.1645026669
 33
0.0
 40
0.0
 40
0.0
 40
0.0
 40
0.0
 40
0.0550311098
 40
0.1068212794
 40
0.1557367981
 40
0.2021235193
 40
0.2463155512
 40
0.288600522
 40
0.3292708948
 40
0.3686103945
 40
0.4069031925
 40
0.4444472551
 40
0.4815312749
 40
0.5184687261
 40
0.5555527459
 40
0.5930968086
 40
0.6313896064
 40
0.670729106
 40
0.7113994787
 40
0.7536844495
 40
0.7978764811
 40
0.8442632021
 40
0.8931787206
 40
0.9449688901
 40
1.0
 40
1.0
 40
1.0
 40
1.0
 10
9.500462236
 20
8.4407008112
 30
0.0
 10
9.497084106
 20
8.4437183994
 30
0.0
 10
9.4904180421
 20
8.4494559688
 30
0.0
 10
9.4803580769
 20
8.4574070168
 30
0.0
 10
9.4705203305
 20
8.4644723085
 30
0.0
 10
9.460863414
 20
8.470693172
 30
0.0
 10
9.4513506282
 20
8.4761004056
 30
0.0
 10
9.4419499359
 20
8.4807155886
 30
0.0
 10
9.4326351638
 20
8.4845521584
 30
0.0
 10
9.4233837298
 20
8.4876180147
 30
0.0
 10
9.4141767255
 20
8.489916901
 30
0.0
 10
9.4049991822
 20
8.4914497268
 30
0.0
 10
9.3958376721
 20
8.4922163741
 30
0.0
 10
9.3866818546
 20
8.4922163741
 30
0.0
 10
9.3775203446
 20
8.4914497267
 30
0.0
 10
9.3683428013
 20
8.489916901
 30
0.0
 10
9.3591357969
 20
8.4876180146
 30
0.0
 10
9.349884363
 20
8.4845521584
 30
0.0
 10
9.3405695909
 20
8.4807155885
 30
0.0
 10
9.3311688986
 20
8.4761004056
 30
0.0
 10
9.3216561129
 20
8.4706931719
 30
0.0
 10
9.3119991964
 20
8.4644723084
 30
0.0
 10
9.30216145
 20
8.4574070168
 30
0.0
 10
9.2921014848
 20
8.4494559688
 30
0.0
 10
9.285435421
 20
8.4437183994
 30
0.0
 10
9.282057291
 20
8.4407008112
 30
0.0
 11
9.500462236
 21
8.4407008112
 31
0.0
 11
9.4901536495
 21
8.4495547056
 31
0.0
 11
9.4801115146
 21
8.4574733081
 31
0.0
 11
9.4702922843
 21
8.4645074779
 31
0.0
 11
9.4606551794
 21
8.470698442
 31
0.0
 11
9.4511613016
 21
8.4760786589
 31
0.0
 11
9.4417824705
 21
8.480668011
 31
0.0
 11
9.4324917278
 21
8.4844811132
 31
0.0
 11
9.4232672509
 21
8.4875264147
 31
0.0
 11
9.4140910448
 21
8.4898083816
 31
0.0
 11
9.4049458581
 21
8.4913293743
 31
0.0
 11
9.3958202711
 21
8.4920897134
 31
0.0
 11
9.3866992557
 21
8.4920897134
 31
0.0
 11
9.3775736686
 21
8.4913293743
 31
0.0
 11
9.3684284819
 21
8.4898083816
 31
0.0
 11
9.3592522759
 21
8.4875264146
 31
0.0
 11
9.3500277989
 21
8.4844811131
 31
0.0
 11
9.3407370563
 21
8.4806680109
 31
0.0
 11
9.3313582252
 21
8.4760786588
 31
0.0
 11
9.3218643475
 21
8.4706984419
 31
0.0
 11
9.3122272426
 21
8.4645074779
 31
0.0
 11
9.3024080123
 21
8.4574733081
 31
0.0
 11
9.2923658775
 21
8.4495547056
 31
0.0
 11
9.282057291
 21
8.4407008112
 31
0.0
  0
SPLINE
  5
72D
100
AcDbEntity
  8
0
100
AcDbSpline
 62
7
  6
CONTINUOUS
 70
0
 71
3
 72
27
 73
23
 74
21
 42
0.0000001
 43
0.0000001
 44
0.0000000001
 12
-0.2031180953
 22
-0.1047542355
 32
0.0
 13
-0.2031180953
 23
0.1047542355
 33
0.0
 40
0.0
 40
0.0
 40
0.0
 40
0.0
 40
0.0550944997
 40
0.1084391259
 40
0.160294301
 40
0.2109120199
 40
0.2605314075
 40
0.3093434302
 40
0.3575348992
 40
0.4052698391
 40
0.4527088102
 40
0.5000000002
 40
0.5472911903
 40
0.5947301613
 40
0.6424651012
 40
0.6906565702
 40
0.7394685929
 40
0.7890879805
 40
0.8397056993
 40
0.8915608742
 40
0.9449055003
 40
1.0
 40
1.0
 40
1.0
 40
1.0
 10
9.500462236
 20
8.0042644771
 30
0.0
 10
9.496732006
 20
8.0023406831
 30
0.0
 10
9.4893260362
 20
7.9986763871
 30
0.0
 10
9.4781869621
 20
7.9936659812
 30
0.0
 10
9.4671737846
 20
7.9892285428
 30
0.0
 10
9.4562485015
 20
7.9853595175
 30
0.0
 10
9.4453792816
 20
7.9820608025
 30
0.0
 10
9.4345413384
 20
7.9793394604
 30
0.0
 10
9.4237183608
 20
7.9772060142
 30
0.0
 10
9.4128996063
 20
7.9756716652
 30
0.0
 10
9.4020803901
 20
7.9747464493
 30
0.0
 10
9.3912597634
 20
7.9744372295
 30
0.0
 10
9.3804391368
 20
7.9747464493
 30
0.0
 10
9.3696199205
 20
7.9756716652
 30
0.0
 10
9.358801166
 20
7.9772060142
 30
0.0
 10
9.3479781884
 20
7.9793394604
 30
0.0
 10
9.3371402453
 20
7.9820608025
 30
0.0
 10
9.3262710253
 20
7.9853595175
 30
0.0
 10
9.3153457423
 20
7.9892285429
 30
0.0
 10
9.3043325648
 20
7.9936659812
 30
0.0
 10
9.2931934908
 20
7.9986763871
 30
0.0
 10
9.2857875209
 20
8.0023406831
 30
0.0
 10
9.282057291
 20
8.0042644771
 30
0.0
 11
9.500462236
 21
8.0042644771
 31
0.0
 11
9.4891730684
 21
7.9986881802
 31
0.0
 11
9.4780513071
 21
7.9936945994
 31
0.0
 11
9.4670560583
 21
7.9892730674
 31
0.0
 11
9.4561489142
 21
7.9854186497
 31
0.0
 11
9.4452955575
 21
7.9821322708
 31
0.0
 11
9.4344743705
 21
7.9794217735
 31
0.0
 11
9.4236675982
 21
7.977297038
 31
0.0
 11
9.412865777
 21
7.9757692451
 31
0.0
 11
9.4020632942
 21
7.9748480477
 31
0.0
 11
9.3912597634
 21
7.9745401955
 31
0.0
 11
9.3804562327
 21
7.9748480477
 31
0.0
 11
9.3696537499
 21
7.9757692451
 31
0.0
 11
9.3588519287
 21
7.977297038
 31
0.0
 11
9.3480451564
 21
7.9794217735
 31
0.0
 11
9.3372239694
 21
7.9821322708
 31
0.0
 11
9.3263706126
 21
7.9854186498
 31
0.0
 11
9.3154634686
 21
7.9892730674
 31
0.0
 11
9.3044682198
 21
7.9936945995
 31
0.0
 11
9.2933464586
 21
7.9986881802
 31
0.0
 11
9.282057291
 21
8.0042644771
 31
0.0
  0
SPLINE
  5
72E
100
AcDbEntity
  8
0
100
AcDbSpline
 62
7
  6
CONTINUOUS
 70
0
 71
3
 72
30
 73
26
 74
24
 42
0.0000001
 43
0.0000001
 44
0.0000000001
 12
-0.41285242
 22
0.1843947036
 32
0.0
 13
-0.41285242
 23
-0.1843947036
 33
0.0
 40
0.0
 40
0.0
 40
0.0
 40
0.0
 40
0.0496238182
 40
0.0973700655
 40
0.1435046744
 40
0.1882766518
 40
0.2319233584
 40
0.2746315527
 40
0.3165828537
 40
0.3579368204
 40
0.3988377091
 40
0.4394284559
 40
0.4798278967
 40
0.5201721044
 40
0.5605715452
 40
0.6011622921
 40
0.6420631805
 40
0.6834171472
 40
0.725368448
 40
0.7680766423
 40
0.8117233486
 40
0.8564953257
 40
0.9026299344
 40
0.9503761817
 40
1.0
 40
1.0
 40
1.0
 40
1.0
 10
9.9885647085
 20
8.4407008112
 30
0.0
 10
9.981735604
 20
8.4437509343
 30
0.0
 10
9.9682512029
 20
8.4495489435
 30
0.0
 10
9.9481301172
 20
8.4574923887
 30
0.0
 10
9.9284558964
 20
8.4645489456
 30
0.0
 10
9.9091464935
 20
8.4707600034
 30
0.0
 10
9.8901297621
 20
8.4761563928
 30
0.0
 10
9.8713428816
 20
8.4807599544
 30
0.0
 10
9.8527345035
 20
8.4845846541
 30
0.0
 10
9.8342601197
 20
8.4876391609
 30
0.0
 10
9.8158818034
 20
8.4899281977
 30
0.0
 10
9.7975686326
 20
8.4914537005
 30
0.0
 10
9.7792917557
 20
8.4922164325
 30
0.0
 10
9.7610277708
 20
8.4922164325
 30
0.0
 10
9.7427508938
 20
8.4914537005
 30
0.0
 10
9.7244377231
 20
8.4899281976
 30
0.0
 10
9.7060594068
 20
8.4876391608
 30
0.0
 10
9.6875850231
 20
8.4845846541
 30
0.0
 10
9.668976645
 20
8.4807599543
 30
0.0
 10
9.6501897646
 20
8.4761563927
 30
0.0
 10
9.6311730333
 20
8.4707600034
 30
0.0
 10
9.6118636305
 20
8.4645489456
 30
0.0
 10
9.5921894097
 20
8.4574923887
 30
0.0
 10
9.5720683241
 20
8.4495489435
 30
0.0
 10
9.558583923
 20
8.4437509343
 30
0.0
 10
9.5517548185
 20
8.4407008112
 30
0.0
 11
9.9885647085
 21
8.4407008112
 31
0.0
 11
9.9679475355
 21
8.4495547056
 31
0.0
 11
9.9478632658
 21
8.4574733081
 31
0.0
 11
9.9282248051
 21
8.4645074779
 31
0.0
 11
9.9089505953
 21
8.470698442
 31
0.0
 11
9.8899628397
 21
8.4760786589
 31
0.0
 11
9.8712051776
 21
8.480668011
 31
0.0
 11
9.8526236922
 21
8.4844811132
 31
0.0
 11
9.8341747382
 21
8.4875264147
 31
0.0
 11
9.8158223261
 21
8.4898083816
 31
0.0
 11
9.7975319527
 21
8.4913293743
 31
0.0
 11
9.7792807786
 21
8.4920897134
 31
0.0
 11
9.7610387479
 21
8.4920897134
 31
0.0
 11
9.7427875738
 21
8.4913293743
 31
0.0
 11
9.7244972003
 21
8.4898083816
 31
0.0
 11
9.7061447883
 21
8.4875264146
 31
0.0
 11
9.6876958344
 21
8.4844811131
 31
0.0
 11
9.6691143491
 21
8.4806680109
 31
0.0
 11
9.650356687
 21
8.4760786588
 31
0.0
 11
9.6313689315
 21
8.4706984419
 31
0.0
 11
9.6120947218
 21
8.4645074779
 31
0.0
 11
9.5924562612
 21
8.4574733081
 31
0.0
 11
9.5723719915
 21
8.4495547056
 31
0.0
 11
9.5517548185
 21
8.4407008112
 31
0.0
  0
SPLINE
  5
72F
100
AcDbEntity
  8
0
100
AcDbSpline
 62
7
  6
CONTINUOUS
 70
0
 71
3
 72
27
 73
23
 74
21
 42
0.0000001
 43
0.0000001
 44
0.0000000001
 12
-0.4280212744
 22
-0.1103718537
 32
0.0
 13
-0.4280212744
 23
0.1103718537
 33
0.0
 40
0.0
 40
0.0
 40
0.0
 40
0.0
 40
0.0526143615
 40
0.1041889681
 40
0.15493432
 40
0.2050498207
 40
0.2547171262
 40
0.3040617421
 40
0.3531943441
 40
0.4021909051
 40
0.4511128063
 40
0.5000000002
 40
0.5488871942
 40
0.5978090953
 40
0.6468056564
 40
0.6959382583
 40
0.7452828742
 40
0.7949501796
 40
0.8450656803
 40
0.895811032
 40
0.9473856384
 40
1.0
 40
1.0
 40
1.0
 40
1.0
 10
9.9885647085
 20
8.0042644771
 30
0.0
 10
9.9810580198
 20
8.0023287623
 30
0.0
 10
9.9661542308
 20
7.9986437751
 30
0.0
 10
9.9438800129
 20
7.9936373876
 30
0.0
 10
9.921859827
 20
7.9892043436
 30
0.0
 10
9.9000179494
 20
7.9853399479
 30
0.0
 10
9.8782913352
 20
7.9820459709
 30
0.0
 10
9.8566307973
 20
7.9793292336
 30
0.0
 10
9.8350037903
 20
7.9771999368
 30
0.0
 10
9.8133885203
 20
7.9756689166
 30
0.0
 10
9.7917748601
 20
7.9747458652
 30
0.0
 10
9.7701597634
 20
7.9744373971
 30
0.0
 10
9.7485446666
 20
7.9747458652
 30
0.0
 10
9.7269310065
 20
7.9756689166
 30
0.0
 10
9.7053157364
 20
7.9771999368
 30
0.0
 10
9.6836887294
 20
7.9793292337
 30
0.0
 10
9.6620281916
 20
7.982045971
 30
0.0
 10
9.6403015774
 20
7.9853399479
 30
0.0
 10
9.6184596999
 20
7.9892043436
 30
0.0
 10
9.596439514
 20
7.9936373877
 30
0.0
 10
9.5741652962
 20
7.9986437751
 30
0.0
 10
9.5592615072
 20
8.0023287623
 30
0.0
 10
9.5517548185
 20
8.0042644771
 30
0.0
 11
9.9885647085
 21
8.0042644771
 31
0.0
 11
9.9659863734
 21
7.9986881802
 31
0.0
 11
9.9437428508
 21
7.9936945994
 31
0.0
 11
9.9217523531
 21
7.9892730674
 31
0.0
 11
9.899938065
 21
7.9854186497
 31
0.0
 11
9.8782313516
 21
7.9821322708
 31
0.0
 11
9.8565889775
 21
7.9794217735
 31
0.0
 11
9.8349754329
 21
7.977297038
 31
0.0
 11
9.8133717905
 21
7.9757692451
 31
0.0
 11
9.7917668248
 21
7.9748480477
 31
0.0
 11
9.7701597634
 21
7.9745401955
 31
0.0
 11
9.7485527019
 21
7.9748480477
 31
0.0
 11
9.7269477363
 21
7.9757692451
 31
0.0
 11
9.7053440939
 21
7.977297038
 31
0.0
 11
9.6837305493
 21
7.9794217735
 31
0.0
 11
9.6620881752
 21
7.9821322708
 31
0.0
 11
9.6403814618
 21
7.9854186498
 31
0.0
 11
9.6185671737
 21
7.9892730674
 31
0.0
 11
9.5965766761
 21
7.9936945995
 31
0.0
 11
9.5743331536
 21
7.9986881802
 31
0.0
 11
9.5517548185
 21
8.0042644771
 31
0.0
  0
SPLINE
  5
730
100
AcDbEntity
  8
0
100
AcDbSpline
 62
7
  6
CONTINUOUS
 70
0
 71
3
 72
30
 73
26
 74
24
 42
0.0000001
 43
0.0000001
 44
0.0000000001
 12
-0.1841574698
 22
0.1645026669
 32
0.0
 13
-0.1841574698
 23
-0.1645026669
 33
0.0
 40
0.0
 40
0.0
 40
0.0
 40
0.0
 40
0.0550311098
 40
0.1068212794
 40
0.1557367981
 40
0.2021235193
 40
0.2463155512
 40
0.288600522
 40
0.3292708948
 40
0.3686103945
 40
0.4069031925
 40
0.4444472551
 40
0.4815312749
 40
0.5184687261
 40
0.5555527459
 40
0.5930968086
 40
0.6313896064
 40
0.670729106
 40
0.7113994787
 40
0.7536844495
 40
0.7978764811
 40
0.8442632021
 40
0.8931787206
 40
0.9449688901
 40
1.0
 40
1.0
 40
1.0
 40
1.0
 10
10.258262236
 20
8.4407008112
 30
0.0
 10
10.254884106
 20
8.4437183994
 30
0.0
 10
10.2482180421
 20
8.4494559688
 30
0.0
 10
10.2381580769
 20
8.4574070168
 30
0.0
 10
10.2283203305
 20
8.4644723085
 30
0.0
 10
10.218663414
 20
8.470693172
 30
0.0
 10
10.2091506282
 20
8.4761004056
 30
0.0
 10
10.1997499359
 20
8.4807155886
 30
0.0
 10
10.1904351638
 20
8.4845521584
 30
0.0
 10
10.1811837298
 20
8.4876180147
 30
0.0
 10
10.1719767255
 20
8.489916901
 30
0.0
 10
10.1627991822
 20
8.4914497268
 30
0.0
 10
10.1536376721
 20
8.4922163741
 30
0.0
 10
10.1444818546
 20
8.4922163741
 30
0.0
 10
10.1353203446
 20
8.4914497267
 30
0.0
 10
10.1261428013
 20
8.489916901
 30
0.0
 10
10.1169357969
 20
8.4876180146
 30
0.0
 10
10.107684363
 20
8.4845521584
 30
0.0
 10
10.0983695909
 20
8.4807155885
 30
0.0
 10
10.0889688986
 20
8.4761004056
 30
0.0
 10
10.0794561129
 20
8.4706931719
 30
0.0
 10
10.0697991964
 20
8.4644723084
 30
0.0
 10
10.05996145
 20
8.4574070168
 30
0.0
 10
10.0499014848
 20
8.4494559688
 30
0.0
 10
10.043235421
 20
8.4437183994
 30
0.0
 10
10.039857291
 20
8.4407008112
 30
0.0
 11
10.258262236
 21
8.4407008112
 31
0.0
 11
10.2479536495
 21
8.4495547056
 31
0.0
 11
10.2379115146
 21
8.4574733081
 31
0.0
 11
10.2280922843
 21
8.4645074779
 31
0.0
 11
10.2184551794
 21
8.470698442
 31
0.0
 11
10.2089613016
 21
8.4760786589
 31
0.0
 11
10.1995824705
 21
8.480668011
 31
0.0
 11
10.1902917278
 21
8.4844811132
 31
0.0
 11
10.1810672509
 21
8.4875264147
 31
0.0
 11
10.1718910448
 21
8.4898083816
 31
0.0
 11
10.1627458581
 21
8.4913293743
 31
0.0
 11
10.1536202711
 21
8.4920897134
 31
0.0
 11
10.1444992557
 21
8.4920897134
 31
0.0
 11
10.1353736686
 21
8.4913293743
 31
0.0
 11
10.1262284819
 21
8.4898083816
 31
0.0
 11
10.1170522759
 21
8.4875264146
 31
0.0
 11
10.1078277989
 21
8.4844811131
 31
0.0
 11
10.0985370563
 21
8.4806680109
 31
0.0
 11
10.0891582252
 21
8.4760786588
 31
0.0
 11
10.0796643475
 21
8.4706984419
 31
0.0
 11
10.0700272426
 21
8.4645074779
 31
0.0
 11
10.0602080123
 21
8.4574733081
 31
0.0
 11
10.0501658775
 21
8.4495547056
 31
0.0
 11
10.039857291
 21
8.4407008112
 31
0.0
  0
SPLINE
  5
731
100
AcDbEntity
  8
0
100
AcDbSpline
 62
7
  6
CONTINUOUS
 70
0
 71
3
 72
27
 73
23
 74
21
 42
0.0000001
 43
0.0000001
 44
0.0000000001
 12
-0.2031180953
 22
-0.1047542355
 32
0.0
 13
-0.2031180953
 23
0.1047542355
 33
0.0
 40
0.0
 40
0.0
 40
0.0
 40
0.0
 40
0.0550944997
 40
0.1084391259
 40
0.160294301
 40
0.2109120199
 40
0.2605314075
 40
0.3093434302
 40
0.3575348992
 40
0.4052698391
 40
0.4527088102
 40
0.5000000002
 40
0.5472911903
 40
0.5947301613
 40
0.6424651012
 40
0.6906565702
 40
0.7394685929
 40
0.7890879805
 40
0.8397056993
 40
0.8915608742
 40
0.9449055003
 40
1.0
 40
1.0
 40
1.0
 40
1.0
 10
10.258262236
 20
8.0042644771
 30
0.0
 10
10.254532006
 20
8.0023406831
 30
0.0
 10
10.2471260362
 20
7.9986763871
 30
0.0
 10
10.2359869621
 20
7.9936659812
 30
0.0
 10
10.2249737846
 20
7.9892285428
 30
0.0
 10
10.2140485015
 20
7.9853595175
 30
0.0
 10
10.2031792816
 20
7.9820608025
 30
0.0
 10
10.1923413384
 20
7.9793394604
 30
0.0
 10
10.1815183608
 20
7.9772060142
 30
0.0
 10
10.1706996063
 20
7.9756716652
 30
0.0
 10
10.1598803901
 20
7.9747464493
 30
0.0
 10
10.1490597634
 20
7.9744372295
 30
0.0
 10
10.1382391368
 20
7.9747464493
 30
0.0
 10
10.1274199205
 20
7.9756716652
 30
0.0
 10
10.116601166
 20
7.9772060142
 30
0.0
 10
10.1057781884
 20
7.9793394604
 30
0.0
 10
10.0949402453
 20
7.9820608025
 30
0.0
 10
10.0840710253
 20
7.9853595175
 30
0.0
 10
10.0731457423
 20
7.9892285429
 30
0.0
 10
10.0621325648
 20
7.9936659812
 30
0.0
 10
10.0509934908
 20
7.9986763871
 30
0.0
 10
10.0435875209
 20
8.0023406831
 30
0.0
 10
10.039857291
 20
8.0042644771
 30
0.0
 11
10.258262236
 21
8.0042644771
 31
0.0
 11
10.2469730684
 21
7.9986881802
 31
0.0
 11
10.2358513071
 21
7.9936945994
 31
0.0
 11
10.2248560583
 21
7.9892730674
 31
0.0
 11
10.2139489142
 21
7.9854186497
 31
0.0
 11
10.2030955575
 21
7.9821322708
 31
0.0
 11
10.1922743705
 21
7.9794217735
 31
0.0
 11
10.1814675982
 21
7.977297038
 31
0.0
 11
10.170665777
 21
7.9757692451
 31
0.0
 11
10.1598632942
 21
7.9748480477
 31
0.0
 11
10.1490597634
 21
7.9745401955
 31
0.0
 11
10.1382562327
 21
7.9748480477
 31
0.0
 11
10.1274537499
 21
7.9757692451
 31
0.0
 11
10.1166519287
 21
7.977297038
 31
0.0
 11
10.1058451564
 21
7.9794217735
 31
0.0
 11
10.0950239694
 21
7.9821322708
 31
0.0
 11
10.0841706126
 21
7.9854186498
 31
0.0
 11
10.0732634686
 21
7.9892730674
 31
0.0
 11
10.0622682198
 21
7.9936945995
 31
0.0
 11
10.0511464586
 21
7.9986881802
 31
0.0
 11
10.039857291
 21
8.0042644771
 31
0.0
  0
ENDSEC
  0
SECTION
  2
OBJECTS
  0
DICTIONARY
  5
C
100
AcDbDictionary
280
0
281
1
  3
ACAD_GROUP
350
D
  3
ACAD_MLINESTYLE
350
17
  3
ACAD_LAYOUT
350
1A
  3
ACAD_PLOTSETTINGS
350
19
  3
ACAD_PLOTSTYLENAME
350
E
  0
DICTIONARY
  5
D
102
{ACAD_REACTORS
330
C
102
}
100
AcDbDictionary
280
0
281
1
  0
ACDBDICTIONARYWDFLT
  5
E
102
{ACAD_REACTORS
330
C
102
}
100
AcDbDictionary
281
1
  3
Normal
350
F
100
AcDbDictionaryWithDefault
340
F
  0
DICTIONARY
  5
17
102
{ACAD_REACTORS
330
C
102
}
100
AcDbDictionary
280
0
281
1
  3
Standard
350
18
  0
DICTIONARY
  5
19
102
{ACAD_REACTORS
330
C
102
}
100
AcDbDictionary
281
1
  0
DICTIONARY
  5
1A
102
{ACAD_REACTORS
330
C
102
}
100
AcDbDictionary
281
1
  3
Layout1
350
1E
  3
Model
350
22
  0
ACDBPLACEHOLDER
  5
F
102
{ACAD_REACTORS
330
E
102
}
  0
MLINESTYLE
  5
18
102
{ACAD_REACTORS
330
17
102
}
100
AcDbMlineStyle
  2
STANDARD
 70
0
  3

 62
256
 51
90.0
 52
90.0
 71
2
 49
0.5
 62
256
  6
BYLAYER
 49
-0.5
 62
256
  6
BYLAYER
  0
LAYOUT
  5
1E
102
{ACAD_REACTORS
330
1A
102
}
100
AcDbPlotSettings
  1

  2

  4

  6

 40
0.0
 41
0.0
 42
0.0
 43
0.0
 44
0.0
 45
0.0
 46
0.0
 47
0.0
 48
0.0
 49
0.0
140
0.0
141
0.0
142
1.0
143
1.0
 70
0
 72
0
 73
0
 74
0
  7

 75
0
147
1.0
148
0.0
149
0.0
100
AcDbLayout
  1
Layout1
 70
0
 71
0
 10
0.0
 20
0.0
 11
0.0
 21
0.0
 12
0.0
 22
0.0
 32
0.0
 14
0.0
 24
0.0
 34
0.0
 15
0.0
 25
0.0
 35
0.0
146
0.0
 13
0.0
 23
0.0
 33
0.0
 16
0.0
 26
0.0
 36
0.0
 17
0.0
 27
0.0
 37
0.0
 76
0
330
1B
331
0
345
0
346
0
  0
LAYOUT
  5
22
102
{ACAD_REACTORS
330
1A
102
}
100
AcDbPlotSettings
  1

  2

  4

  6

 40
0.0
 41
0.0
 42
0.0
 43
0.0
 44
0.0
 45
0.0
 46
0.0
 47
0.0
 48
0.0
 49
0.0
140
0.0
141
0.0
142
1.0
143
1.0
 70
0
 72
0
 73
0
 74
0
  7

 75
0
147
1.0
148
0.0
149
0.0
100
AcDbLayout
  1
Model
 70
0
 71
0
 10
0.0
 20
0.0
 11
0.0
 21
0.0
 12
0.0
 22
0.0
 32
0.0
 14
0.0
 24
0.0
 34
0.0
 15
0.0
 25
0.0
 35
0.0
146
0.0
 13
0.0
 23
0.0
 33
0.0
 16
0.0
 26
0.0
 36
0.0
 17
0.0
 27
0.0
 37
0.0
 76
0
330
1F
331
0
345
0
346
0
  0
ENDSEC
  0
EOF
