999
DXF file: A7K_5.dxf
999
Pro/ENGINEER 2006240 by Parametric Technology Corporation
  0
SECTION
  2
HEADER
  9
$ACADVER
  1
AC1015
  9
$DWGCODEPAGE
  3
ANSI_1252
  9
$EXTMAX
 10
22.0
 20
17.0
 30
0.0
  9
$EXTMIN
 10
0.0
 20
0.0
 30
0.0
  9
$LIMMIN
 10
0.0
 20
0.0
  9
$LIMMAX
 10
22.0
 20
17.0
  9
$VIEWCTR
 10
11.0
 20
8.5
  9
$VIEWSIZE
 40
17.0
  9
$CLAYER
  8
0
  9
$LTSCALE
 40
1.21
  9
$CELTYPE
  6
BYLAYER
  9
$DIMSCALE
 40
1.0
  9
$DIMASZ
 40
0.1875
  9
$DIMEXO
 40
0.1375
  9
$DIMDLI
 40
0.836
  9
$DIMEXE
 40
0.396
  9
$DIMCEN
 40
0.198
  9
$DIMLFAC
 40
1.0
  9
$DIMBLK
  1
_CLOSED
  9
$DIMTXT
 40
0.15625
  9
$DIMTOL
 70
0
  9
$DIMLIM
 70
0
  9
$DIMTFAC
 40
1.0
  9
$PDMODE
 70
3
  9
$PDSIZE
 40
0.3125
  9
$HANDSEED
  5
579
  9
$MEASUREMENT
 70
0
  9
$INSUNITS
 70
1
  0
ENDSEC
  0
SECTION
  2
CLASSES
  0
CLASS
  1
ACDBDICTIONARYWDFLT
  2
AcDbDictionaryWithDefault
  3
AutoCAD 2000
 90
0
280
0
281
0
  0
CLASS
  1
ACDBPLACEHOLDER
  2
AcDbPlaceHolder
  3
AutoCAD 2000
 90
0
280
0
281
0
  0
CLASS
  1
LAYOUT
  2
AcDbLayout
  3
AutoCAD 2000
 90
0
280
0
281
0
  0
ENDSEC
  0
SECTION
  2
TABLES
  0
TABLE
  2
VPORT
  5
8
100
AcDbSymbolTable
 70
2
  0
VPORT
  5
1F4
100
AcDbSymbolTableRecord
100
AcDbViewportTableRecord
  2
*ACTIVE
 70
0
 10
0.0
 20
0.0
 11
1.0
 21
1.0
 12
11.0
 22
8.5
 13
0.0
 23
0.0
 14
1.0
 24
1.0
 15
0.0
 25
0.0
 16
0.0
 26
0.0
 36
1.0
 17
0.0
 27
0.0
 37
0.0
 40
17.0
 41
1.2941176471
 42
50.0
 43
0.0
 44
0.0
 50
0.0
 51
0.0
 71
0
 72
100
 73
1
 74
1
 75
0
 76
0
 77
0
 78
0
  0
ENDTAB
  0
TABLE
  2
LTYPE
  5
5
100
AcDbSymbolTable
 70
6
  0
LTYPE
  5
14
100
AcDbSymbolTableRecord
100
AcDbLinetypeTableRecord
  2
BYBLOCK
 70
0
  3

 72
65
 73
0
 40
0.0
  0
LTYPE
  5
15
100
AcDbSymbolTableRecord
100
AcDbLinetypeTableRecord
  2
BYLAYER
 70
0
  3

 72
65
 73
0
 40
0.0
  0
LTYPE
  5
16
100
AcDbSymbolTableRecord
100
AcDbLinetypeTableRecord
  2
CONTINUOUS
 70
64
  3
Solid line
 72
65
 73
0
 40
0.0
  0
LTYPE
  5
1F5
100
AcDbSymbolTableRecord
100
AcDbLinetypeTableRecord
  2
CENTER
 70
64
  3
____ _ ____ _ ____ _ ____ _ ____ _ ____ _ ____
 72
65
 73
4
 40
0.6
 49
0.375
 74
0
 49
-0.075
 74
0
 49
0.075
 74
0
 49
-0.075
 74
0
  0
LTYPE
  5
1F6
100
AcDbSymbolTableRecord
100
AcDbLinetypeTableRecord
  2
HIDDEN
 70
64
  3
- - - - - - - - - - - - - - - - - - - -
 72
65
 73
2
 40
0.2
 49
0.1
 74
0
 49
-0.1
 74
0
  0
LTYPE
  5
1F7
100
AcDbSymbolTableRecord
100
AcDbLinetypeTableRecord
  2
PHANTOM
 70
64
  3
_____ _ _ _____ _ _ _____ _ _ _____
 72
65
 73
6
 40
0.8
 49
0.45
 74
0
 49
-0.05
 74
0
 49
0.1
 74
0
 49
-0.05
 74
0
 49
0.1
 74
0
 49
-0.05
 74
0
  0
LTYPE
  5
1F8
100
AcDbSymbolTableRecord
100
AcDbLinetypeTableRecord
  2
DOT
 70
64
  3
. . . . . . . . . . . . . . . . . . . .
 72
65
 73
2
 40
0.2
 49
0.1
 74
0
 49
-0.1
 74
0
  0
LTYPE
  5
1F9
100
AcDbSymbolTableRecord
100
AcDbLinetypeTableRecord
  2
DASHED
 70
64
  3
- - - - - - - - - - - - - - - - - - - -
 72
65
 73
2
 40
0.2
 49
0.1
 74
0
 49
-0.1
 74
0
  0
ENDTAB
  0
TABLE
  2
LAYER
  5
2
100
AcDbSymbolTable
 70
36
  0
LAYER
  5
10
100
AcDbSymbolTableRecord
100
AcDbLayerTableRecord
  2
0
 70
0
 62
7
  6
CONTINUOUS
370
-3
390
F
  0
LAYER
  5
1FA
100
AcDbSymbolTableRecord
100
AcDbLayerTableRecord
  2
DEFAULT_1
 70
0
 62
7
  6
CENTER
370
-3
390
F
  0
LAYER
  5
1FB
100
AcDbSymbolTableRecord
100
AcDbLayerTableRecord
  2
DEFAULT_2
 70
0
 62
8
  6
HIDDEN
370
-3
390
F
  0
LAYER
  5
1FC
100
AcDbSymbolTableRecord
100
AcDbLayerTableRecord
  2
DEFAULT_3
 70
0
 62
7
  6
PHANTOM
370
-3
390
F
  0
LAYER
  5
1FD
100
AcDbSymbolTableRecord
100
AcDbLayerTableRecord
  2
_BLACK_HOLE
 70
0
 62
7
  6
CONTINUOUS
370
-3
390
F
  0
LAYER
  5
1FE
100
AcDbSymbolTableRecord
100
AcDbLayerTableRecord
  2
01_ALL_DTM_PLN
 70
0
 62
7
  6
CONTINUOUS
370
-3
390
F
  0
LAYER
  5
1FF
100
AcDbSymbolTableRecord
100
AcDbLayerTableRecord
  2
01__ASM_ALL_DTM_PLN
 70
0
 62
7
  6
CONTINUOUS
370
-3
390
F
  0
LAYER
  5
200
100
AcDbSymbolTableRecord
100
AcDbLayerTableRecord
  2
01__ASM_DEF_DTM_PLN
 70
0
 62
7
  6
CONTINUOUS
370
-3
390
F
  0
LAYER
  5
201
100
AcDbSymbolTableRecord
100
AcDbLayerTableRecord
  2
01___PRT_ALL_DTM_PLN
 70
0
 62
7
  6
CONTINUOUS
370
-3
390
F
  0
LAYER
  5
202
100
AcDbSymbolTableRecord
100
AcDbLayerTableRecord
  2
01___PRT_DEF_DTM_PLN
 70
0
 62
7
  6
CONTINUOUS
370
-3
390
F
  0
LAYER
  5
203
100
AcDbSymbolTableRecord
100
AcDbLayerTableRecord
  2
02_ALL_AXES
 70
0
 62
7
  6
CONTINUOUS
370
-3
390
F
  0
LAYER
  5
204
100
AcDbSymbolTableRecord
100
AcDbLayerTableRecord
  2
02__ASM_ALL_AXES
 70
0
 62
7
  6
CONTINUOUS
370
-3
390
F
  0
LAYER
  5
205
100
AcDbSymbolTableRecord
100
AcDbLayerTableRecord
  2
02___PRT_ALL_AXES
 70
0
 62
7
  6
CONTINUOUS
370
-3
390
F
  0
LAYER
  5
206
100
AcDbSymbolTableRecord
100
AcDbLayerTableRecord
  2
03_ALL_CURVES
 70
0
 62
7
  6
CONTINUOUS
370
-3
390
F
  0
LAYER
  5
207
100
AcDbSymbolTableRecord
100
AcDbLayerTableRecord
  2
03__ASM_ALL_CURVES
 70
0
 62
7
  6
CONTINUOUS
370
-3
390
F
  0
LAYER
  5
208
100
AcDbSymbolTableRecord
100
AcDbLayerTableRecord
  2
03___PRT_ALL_CURVES
 70
0
 62
7
  6
CONTINUOUS
370
-3
390
F
  0
LAYER
  5
209
100
AcDbSymbolTableRecord
100
AcDbLayerTableRecord
  2
04_ALL_DTM_PNT
 70
0
 62
7
  6
CONTINUOUS
370
-3
390
F
  0
LAYER
  5
20A
100
AcDbSymbolTableRecord
100
AcDbLayerTableRecord
  2
04__ASM_ALL_DTM_PNT
 70
0
 62
7
  6
CONTINUOUS
370
-3
390
F
  0
LAYER
  5
20B
100
AcDbSymbolTableRecord
100
AcDbLayerTableRecord
  2
04___PRT_ALL_DTM_PNT
 70
0
 62
7
  6
CONTINUOUS
370
-3
390
F
  0
LAYER
  5
20C
100
AcDbSymbolTableRecord
100
AcDbLayerTableRecord
  2
05_ALL_DTM_CSYS
 70
0
 62
7
  6
CONTINUOUS
370
-3
390
F
  0
LAYER
  5
20D
100
AcDbSymbolTableRecord
100
AcDbLayerTableRecord
  2
05__ASM_ALL_DTM_CSYS
 70
0
 62
7
  6
CONTINUOUS
370
-3
390
F
  0
LAYER
  5
20E
100
AcDbSymbolTableRecord
100
AcDbLayerTableRecord
  2
05__ASM_DEF_DTM_CSYS
 70
0
 62
7
  6
CONTINUOUS
370
-3
390
F
  0
LAYER
  5
20F
100
AcDbSymbolTableRecord
100
AcDbLayerTableRecord
  2
05___PRT_ALL_DTM_CSYS
 70
0
 62
7
  6
CONTINUOUS
370
-3
390
F
  0
LAYER
  5
210
100
AcDbSymbolTableRecord
100
AcDbLayerTableRecord
  2
05___PRT_DEF_DTM_CSYS
 70
0
 62
7
  6
CONTINUOUS
370
-3
390
F
  0
LAYER
  5
211
100
AcDbSymbolTableRecord
100
AcDbLayerTableRecord
  2
06_ALL_SURFS
 70
0
 62
7
  6
CONTINUOUS
370
-3
390
F
  0
LAYER
  5
212
100
AcDbSymbolTableRecord
100
AcDbLayerTableRecord
  2
06__ASM_ALL_SURFS
 70
0
 62
7
  6
CONTINUOUS
370
-3
390
F
  0
LAYER
  5
213
100
AcDbSymbolTableRecord
100
AcDbLayerTableRecord
  2
06___PRT_ALL_SURFS
 70
0
 62
7
  6
CONTINUOUS
370
-3
390
F
  0
LAYER
  5
214
100
AcDbSymbolTableRecord
100
AcDbLayerTableRecord
  2
07__ASM_ALL_SKELETONS
 70
0
 62
7
  6
CONTINUOUS
370
-3
390
F
  0
LAYER
  5
215
100
AcDbSymbolTableRecord
100
AcDbLayerTableRecord
  2
A7K_10
 70
0
 62
7
  6
CONTINUOUS
370
-3
390
F
  0
LAYER
  5
216
100
AcDbSymbolTableRecord
100
AcDbLayerTableRecord
  2
A7K_2
 70
0
 62
7
  6
CONTINUOUS
370
-3
390
F
  0
LAYER
  5
217
100
AcDbSymbolTableRecord
100
AcDbLayerTableRecord
  2
A7K_5
 70
0
 62
7
  6
CONTINUOUS
370
-3
390
F
  0
LAYER
  5
218
100
AcDbSymbolTableRecord
100
AcDbLayerTableRecord
  2
A7K_6
 70
0
 62
7
  6
CONTINUOUS
370
-3
390
F
  0
LAYER
  5
219
100
AcDbSymbolTableRecord
100
AcDbLayerTableRecord
  2
A7K_7
 70
0
 62
7
  6
CONTINUOUS
370
-3
390
F
  0
LAYER
  5
21A
100
AcDbSymbolTableRecord
100
AcDbLayerTableRecord
  2
COPY_GEO_FET
 70
0
 62
7
  6
CONTINUOUS
370
-3
390
F
  0
LAYER
  5
21B
100
AcDbSymbolTableRecord
100
AcDbLayerTableRecord
  2
COSMETIC
 70
0
 62
7
  6
CONTINUOUS
370
-3
390
F
  0
LAYER
  5
21C
100
AcDbSymbolTableRecord
100
AcDbLayerTableRecord
  2
CUT_REF_SURF
 70
0
 62
7
  6
CONTINUOUS
370
-3
390
F
  0
LAYER
  5
21D
100
AcDbSymbolTableRecord
100
AcDbLayerTableRecord
  2
DATESTAMP
 70
0
 62
7
  6
CONTINUOUS
370
-3
390
F
  0
LAYER
  5
21E
100
AcDbSymbolTableRecord
100
AcDbLayerTableRecord
  2
DATUM
 70
0
 62
7
  6
CONTINUOUS
370
-3
390
F
  0
LAYER
  5
21F
100
AcDbSymbolTableRecord
100
AcDbLayerTableRecord
  2
DATUM_B
 70
0
 62
7
  6
CONTINUOUS
370
-3
390
F
  0
LAYER
  5
220
100
AcDbSymbolTableRecord
100
AcDbLayerTableRecord
  2
DATUM_PLANES
 70
0
 62
7
  6
CONTINUOUS
370
-3
390
F
  0
LAYER
  5
221
100
AcDbSymbolTableRecord
100
AcDbLayerTableRecord
  2
DIM
 70
0
 62
7
  6
CONTINUOUS
370
-3
390
F
  0
LAYER
  5
222
100
AcDbSymbolTableRecord
100
AcDbLayerTableRecord
  2
DIM_1
 70
0
 62
7
  6
CONTINUOUS
370
-3
390
F
  0
LAYER
  5
223
100
AcDbSymbolTableRecord
100
AcDbLayerTableRecord
  2
DIM_2
 70
0
 62
7
  6
CONTINUOUS
370
-3
390
F
  0
LAYER
  5
224
100
AcDbSymbolTableRecord
100
AcDbLayerTableRecord
  2
DIM_3
 70
0
 62
7
  6
CONTINUOUS
370
-3
390
F
  0
LAYER
  5
225
100
AcDbSymbolTableRecord
100
AcDbLayerTableRecord
  2
DIM_4
 70
0
 62
7
  6
CONTINUOUS
370
-3
390
F
  0
LAYER
  5
226
100
AcDbSymbolTableRecord
100
AcDbLayerTableRecord
  2
DIM_5
 70
0
 62
7
  6
CONTINUOUS
370
-3
390
F
  0
LAYER
  5
227
100
AcDbSymbolTableRecord
100
AcDbLayerTableRecord
  2
DIM_6
 70
0
 62
7
  6
CONTINUOUS
370
-3
390
F
  0
LAYER
  5
228
100
AcDbSymbolTableRecord
100
AcDbLayerTableRecord
  2
DIM_7
 70
0
 62
7
  6
CONTINUOUS
370
-3
390
F
  0
LAYER
  5
229
100
AcDbSymbolTableRecord
100
AcDbLayerTableRecord
  2
DIM_8
 70
0
 62
7
  6
CONTINUOUS
370
-3
390
F
  0
LAYER
  5
22A
100
AcDbSymbolTableRecord
100
AcDbLayerTableRecord
  2
DTM
 70
0
 62
7
  6
CONTINUOUS
370
-3
390
F
  0
LAYER
  5
22B
100
AcDbSymbolTableRecord
100
AcDbLayerTableRecord
  2
EXT_COPY_GEO
 70
0
 62
7
  6
CONTINUOUS
370
-3
390
F
  0
LAYER
  5
22C
100
AcDbSymbolTableRecord
100
AcDbLayerTableRecord
  2
LS
 70
0
 62
7
  6
CONTINUOUS
370
-3
390
F
  0
LAYER
  5
22D
100
AcDbSymbolTableRecord
100
AcDbLayerTableRecord
  2
ORIGIN
 70
0
 62
7
  6
CONTINUOUS
370
-3
390
F
  0
LAYER
  5
22E
100
AcDbSymbolTableRecord
100
AcDbLayerTableRecord
  2
PARTNUMBER
 70
0
 62
7
  6
CONTINUOUS
370
-3
390
F
  0
LAYER
  5
22F
100
AcDbSymbolTableRecord
100
AcDbLayerTableRecord
  2
PORT_AREAS
 70
0
 62
7
  6
CONTINUOUS
370
-3
390
F
  0
LAYER
  5
230
100
AcDbSymbolTableRecord
100
AcDbLayerTableRecord
  2
TEXT
 70
0
 62
7
  6
CONTINUOUS
370
-3
390
F
  0
LAYER
  5
231
100
AcDbSymbolTableRecord
100
AcDbLayerTableRecord
  2
THREAD
 70
0
 62
7
  6
CONTINUOUS
370
-3
390
F
  0
LAYER
  5
232
100
AcDbSymbolTableRecord
100
AcDbLayerTableRecord
  2
THREADS
 70
0
 62
7
  6
CONTINUOUS
370
-3
390
F
  0
ENDTAB
  0
TABLE
  2
STYLE
  5
3
100
AcDbSymbolTable
 70
1
  0
STYLE
  5
11
100
AcDbSymbolTableRecord
100
AcDbTextStyleTableRecord
  2
STANDARD
 70
0
 40
0.0
 41
0.8
 50
0.0
 71
0
 42
0.2
  3
txt
  4

  0
ENDTAB
  0
TABLE
  2
VIEW
  5
6
100
AcDbSymbolTable
 70
0
  0
ENDTAB
  0
TABLE
  2
UCS
  5
7
100
AcDbSymbolTable
 70
0
  0
ENDTAB
  0
TABLE
  2
APPID
  5
9
100
AcDbSymbolTable
 70
1
  0
APPID
  5
233
100
AcDbSymbolTableRecord
100
AcDbRegAppTableRecord
  2
ACAD
 70
0
  0
ENDTAB
  0
TABLE
  2
BLOCK_RECORD
  5
1
100
AcDbSymbolTable
 70
0
  0
BLOCK_RECORD
  5
1F
100
AcDbSymbolTableRecord
100
AcDbBlockTableRecord
  2
*MODEL_SPACE
  0
BLOCK_RECORD
  5
1B
100
AcDbSymbolTableRecord
100
AcDbBlockTableRecord
  2
*PAPER_SPACE
  0
ENDTAB
  0
TABLE
  2
DIMSTYLE
  5
A
100
AcDbSymbolTable
 70
1
100
AcDbDimStyleTable
 71
0
  0
DIMSTYLE
105
234
100
AcDbSymbolTableRecord
100
AcDbDimStyleTableRecord
  2
STANDARD
 70
0
  3

  4

 40
1.0
 41
0.1875
 42
0.0625
 43
0.38
 44
0.18
 45
0.0
 46
0.0
 47
0.01
 48
0.01
140
0.15625
141
0.09
142
0.0
143
25.4
144
1.0
145
0.0
146
1.0
147
0.09
 71
0.0
 72
0.0
 73
1
 74
1
 75
0
 76
0
 77
0
 78
4
170
0
171
2
172
0
173
0
174
0
175
0
176
0
177
0
178
0
270
2
271
2
272
2
273
2
274
2
275
0
280
0
281
0
282
0
283
1
284
4
285
0
286
0
287
3
288
0
340
11
  0
ENDTAB
  0
ENDSEC
  0
SECTION
  2
BLOCKS
  0
BLOCK
  5
20
100
AcDbEntity
  8
0
100
AcDbBlockBegin
  2
*MODEL_SPACE
 70
0
 10
0.0
 20
0.0
 30
0.0
  3
*MODEL_SPACE
  1

  0
ENDBLK
  5
21
100
AcDbEntity
  8
0
100
AcDbBlockEnd
  0
BLOCK
  5
1C
100
AcDbEntity
  8
0
100
AcDbBlockBegin
  2
*PAPER_SPACE
 70
0
 10
0.0
 20
0.0
 30
0.0
  3
*PAPER_SPACE
  1

  0
ENDBLK
  5
1D
100
AcDbEntity
  8
0
100
AcDbBlockEnd
  0
ENDSEC
  0
SECTION
  2
ENTITIES
  0
LINE
  5
235
100
AcDbEntity
  8
03__ASM_ALL_CURVES
100
AcDbLine
 62
4
  6
CONTINUOUS
 10
8.5078304691
 20
6.4941984118
 11
8.5003929655
 21
6.4997765368
  0
LINE
  5
236
100
AcDbEntity
  8
03__ASM_ALL_CURVES
100
AcDbLine
 62
4
  6
CONTINUOUS
 10
8.5450179682
 20
6.5109327868
 11
8.5598929673
 21
6.4997765368
  0
LINE
  5
237
100
AcDbEntity
  8
03__ASM_ALL_CURVES
100
AcDbLine
 62
4
  6
CONTINUOUS
 10
8.5227054655
 20
6.5388234118
 11
8.5301429691
 21
6.5332452868
  0
LINE
  5
238
100
AcDbEntity
  8
03__ASM_ALL_CURVES
100
AcDbLine
 62
4
  6
CONTINUOUS
 10
8.5078304691
 20
6.6782765368
 11
8.5003929655
 21
6.6838546618
  0
LINE
  5
239
100
AcDbEntity
  8
03__ASM_ALL_CURVES
100
AcDbLine
 62
4
  6
CONTINUOUS
 10
8.5673304669
 20
6.7117452868
 11
8.5747679671
 21
6.7061671618
  0
LINE
  5
23A
100
AcDbEntity
  8
03__ASM_ALL_CURVES
100
AcDbLine
 62
4
  6
CONTINUOUS
 10
8.5003929655
 20
6.4997765368
 11
8.4929554673
 21
6.5109327868
  0
LINE
  5
23B
100
AcDbEntity
  8
03__ASM_ALL_CURVES
100
AcDbLine
 62
4
  6
CONTINUOUS
 10
8.5301429691
 20
6.5332452868
 11
8.5450179682
 21
6.5109327868
  0
LINE
  5
23C
100
AcDbEntity
  8
03__ASM_ALL_CURVES
100
AcDbLine
 62
4
  6
CONTINUOUS
 10
8.5598929673
 20
6.4997765368
 11
8.5822054673
 21
6.4941984118
  0
LINE
  5
23D
100
AcDbEntity
  8
03__ASM_ALL_CURVES
100
AcDbLine
 62
4
  6
CONTINUOUS
 10
8.5227054655
 20
6.6726984118
 11
8.5078304691
 21
6.6782765368
  0
LINE
  5
23E
100
AcDbEntity
  8
03__ASM_ALL_CURVES
100
AcDbLine
 62
4
  6
CONTINUOUS
 10
8.5524554664
 20
6.7173234118
 11
8.5673304669
 21
6.7117452868
  0
LINE
  5
23F
100
AcDbEntity
  8
03__ASM_ALL_CURVES
100
AcDbLine
 62
4
  6
CONTINUOUS
 10
8.4929554673
 20
6.8790890368
 11
8.5078304691
 21
6.8679327868
  0
LINE
  5
240
100
AcDbEntity
  8
03__ASM_ALL_CURVES
100
AcDbLine
 62
4
  6
CONTINUOUS
 10
8.5673304669
 20
6.9850734118
 11
8.5747679671
 21
6.9794952868
  0
LINE
  5
241
100
AcDbEntity
  8
03__ASM_ALL_CURVES
100
AcDbLine
 62
4
  6
CONTINUOUS
 10
8.5078304691
 20
7.0352765368
 11
8.5003929655
 21
7.0408546618
  0
LINE
  5
242
100
AcDbEntity
  8
03__ASM_ALL_CURVES
100
AcDbLine
 62
4
  6
CONTINUOUS
 10
8.5673304669
 20
7.0687452868
 11
8.5747679671
 21
7.0631671618
  0
LINE
  5
243
100
AcDbEntity
  8
03__ASM_ALL_CURVES
100
AcDbLine
 62
4
  6
CONTINUOUS
 10
8.5003929655
 20
6.6838546618
 11
8.4929554673
 21
6.6950109118
  0
LINE
  5
244
100
AcDbEntity
  8
03__ASM_ALL_CURVES
100
AcDbLine
 62
4
  6
CONTINUOUS
 10
8.5747679671
 20
6.7061671618
 11
8.5822054673
 21
6.6950109118
  0
LINE
  5
245
100
AcDbEntity
  8
03__ASM_ALL_CURVES
100
AcDbLine
 62
4
  6
CONTINUOUS
 10
8.5301429691
 20
6.9460265368
 11
8.5227054655
 21
6.9571827868
  0
LINE
  5
246
100
AcDbEntity
  8
03__ASM_ALL_CURVES
100
AcDbLine
 62
4
  6
CONTINUOUS
 10
8.5003929655
 20
7.0408546618
 11
8.4929554673
 21
7.0520109118
  0
LINE
  5
247
100
AcDbEntity
  8
03__ASM_ALL_CURVES
100
AcDbLine
 62
4
  6
CONTINUOUS
 10
9.4929554673
 20
6.5165109118
 11
9.5822054673
 21
6.5165109118
  0
LINE
  5
248
100
AcDbEntity
  8
03__ASM_ALL_CURVES
100
AcDbLine
 62
4
  6
CONTINUOUS
 10
8.5078304691
 20
6.5388234118
 11
8.5227054655
 21
6.5388234118
  0
LINE
  5
249
100
AcDbEntity
  8
03__ASM_ALL_CURVES
100
AcDbLine
 62
4
  6
CONTINUOUS
 10
8.5078304691
 20
6.8679327868
 11
8.5301429691
 21
6.8623546618
  0
LINE
  5
24A
100
AcDbEntity
  8
03__ASM_ALL_CURVES
100
AcDbLine
 62
4
  6
CONTINUOUS
 10
8.5524554664
 20
6.9906515368
 11
8.5673304669
 21
6.9850734118
  0
LINE
  5
24B
100
AcDbEntity
  8
03__ASM_ALL_CURVES
100
AcDbLine
 62
4
  6
CONTINUOUS
 10
8.5227054655
 20
7.0296984118
 11
8.5078304691
 21
7.0352765368
  0
LINE
  5
24C
100
AcDbEntity
  8
03__ASM_ALL_CURVES
100
AcDbLine
 62
4
  6
CONTINUOUS
 10
9.5227054655
 20
6.6726984118
 11
9.5078304691
 21
6.6782765368
  0
LINE
  5
24D
100
AcDbEntity
  8
03__ASM_ALL_CURVES
100
AcDbLine
 62
4
  6
CONTINUOUS
 10
8.5524554664
 20
7.0743234118
 11
8.5673304669
 21
7.0687452868
  0
LINE
  5
24E
100
AcDbEntity
  8
03__ASM_ALL_CURVES
100
AcDbLine
 62
4
  6
CONTINUOUS
 10
9.5524554664
 20
6.7173234118
 11
9.5673304669
 21
6.7117452868
  0
LINE
  5
24F
100
AcDbEntity
  8
03__ASM_ALL_CURVES
100
AcDbLine
 62
4
  6
CONTINUOUS
 10
8.5078304691
 20
7.2081984118
 11
8.5003929655
 21
7.2137765368
  0
LINE
  5
250
100
AcDbEntity
  8
03__ASM_ALL_CURVES
100
AcDbLine
 62
4
  6
CONTINUOUS
 10
8.5524554664
 20
7.2026202868
 11
8.5375804673
 21
7.2137765368
  0
LINE
  5
251
100
AcDbEntity
  8
03__ASM_ALL_CURVES
100
AcDbLine
 62
4
  6
CONTINUOUS
 10
8.5152679673
 20
7.2528234118
 11
8.5227054655
 21
7.2472452868
  0
LINE
  5
252
100
AcDbEntity
  8
03__ASM_ALL_CURVES
100
AcDbLine
 62
4
  6
CONTINUOUS
 10
8.5598929673
 20
7.2584015368
 11
8.5747679671
 21
7.2472452868
  0
LINE
  5
253
100
AcDbEntity
  8
03__ASM_ALL_CURVES
100
AcDbLine
 62
4
  6
CONTINUOUS
 10
8.5673304669
 20
7.3253390368
 11
8.5822054673
 21
7.3141827868
  0
LINE
  5
254
100
AcDbEntity
  8
03__ASM_ALL_CURVES
100
AcDbLine
 62
4
  6
CONTINUOUS
 10
8.5747679671
 20
6.9794952868
 11
8.5822054673
 21
6.9683390368
  0
LINE
  5
255
100
AcDbEntity
  8
03__ASM_ALL_CURVES
100
AcDbLine
 62
4
  6
CONTINUOUS
 10
8.5747679671
 20
7.0631671618
 11
8.5822054673
 21
7.0520109118
  0
LINE
  5
256
100
AcDbEntity
  8
03__ASM_ALL_CURVES
100
AcDbLine
 62
4
  6
CONTINUOUS
 10
8.5003929655
 20
7.2137765368
 11
8.4929554673
 21
7.2249327868
  0
LINE
  5
257
100
AcDbEntity
  8
03__ASM_ALL_CURVES
100
AcDbLine
 62
4
  6
CONTINUOUS
 10
8.5375804673
 20
7.2137765368
 11
8.5301429691
 21
7.2249327868
  0
LINE
  5
258
100
AcDbEntity
  8
03__ASM_ALL_CURVES
100
AcDbLine
 62
4
  6
CONTINUOUS
 10
8.5227054655
 20
7.2472452868
 11
8.5301429691
 21
7.2360890368
  0
LINE
  5
259
100
AcDbEntity
  8
03__ASM_ALL_CURVES
100
AcDbLine
 62
4
  6
CONTINUOUS
 10
8.5747679671
 20
7.2472452868
 11
8.5822054673
 21
7.2360890368
  0
LINE
  5
25A
100
AcDbEntity
  8
03__ASM_ALL_CURVES
100
AcDbLine
 62
4
  6
CONTINUOUS
 10
11.2794710923
 20
12.2231359118
 11
11.2962054673
 21
12.23057341
  0
LINE
  5
25B
100
AcDbEntity
  8
03__ASM_ALL_CURVES
100
AcDbLine
 62
4
  6
CONTINUOUS
 10
9.5822054673
 20
6.6197062243
 11
9.571049217
 21
6.6197062243
  0
LINE
  5
25C
100
AcDbEntity
  8
03__ASM_ALL_CURVES
100
AcDbLine
 62
4
  6
CONTINUOUS
 10
8.5822054673
 20
6.6197062243
 11
8.571049217
 21
6.6197062243
  0
LINE
  5
25D
100
AcDbEntity
  8
03__ASM_ALL_CURVES
100
AcDbLine
 62
4
  6
CONTINUOUS
 10
9.5524554664
 20
6.6726984118
 11
9.5227054655
 21
6.6726984118
  0
LINE
  5
25E
100
AcDbEntity
  8
03__ASM_ALL_CURVES
100
AcDbLine
 62
4
  6
CONTINUOUS
 10
8.5524554664
 20
6.6726984118
 11
8.5227054655
 21
6.6726984118
  0
LINE
  5
25F
100
AcDbEntity
  8
03__ASM_ALL_CURVES
100
AcDbLine
 62
4
  6
CONTINUOUS
 10
8.5227054655
 20
6.7173234118
 11
8.5524554664
 21
6.7173234118
  0
LINE
  5
260
100
AcDbEntity
  8
03__ASM_ALL_CURVES
100
AcDbLine
 62
4
  6
CONTINUOUS
 10
9.5227054655
 20
6.7173234118
 11
9.5524554664
 21
6.7173234118
  0
LINE
  5
261
100
AcDbEntity
  8
03__ASM_ALL_CURVES
100
AcDbLine
 62
4
  6
CONTINUOUS
 10
8.4929554673
 20
6.9516046618
 11
8.5301429691
 21
6.9460265368
  0
LINE
  5
262
100
AcDbEntity
  8
03__ASM_ALL_CURVES
100
AcDbLine
 62
4
  6
CONTINUOUS
 10
9.5078304691
 20
6.8679327868
 11
9.5301429691
 21
6.8623546618
  0
LINE
  5
263
100
AcDbEntity
  8
03__ASM_ALL_CURVES
100
AcDbLine
 62
4
  6
CONTINUOUS
 10
9.5598929673
 20
6.9460265368
 11
9.5822054673
 21
6.9404484118
  0
LINE
  5
264
100
AcDbEntity
  8
03__ASM_ALL_CURVES
100
AcDbLine
 62
4
  6
CONTINUOUS
 10
9.5078304691
 20
6.6782765368
 11
9.5003929655
 21
6.6838546618
  0
LINE
  5
265
100
AcDbEntity
  8
03__ASM_ALL_CURVES
100
AcDbLine
 62
4
  6
CONTINUOUS
 10
9.5673304669
 20
6.7117452868
 11
9.5747679671
 21
6.7061671618
  0
LINE
  5
266
100
AcDbEntity
  8
03__ASM_ALL_CURVES
100
AcDbLine
 62
4
  6
CONTINUOUS
 10
9.4929554673
 20
6.8790890368
 11
9.5078304691
 21
6.8679327868
  0
LINE
  5
267
100
AcDbEntity
  8
03__ASM_ALL_CURVES
100
AcDbLine
 62
4
  6
CONTINUOUS
 10
9.5078304691
 20
6.9404484118
 11
9.5003929655
 21
6.9460265368
  0
LINE
  5
268
100
AcDbEntity
  8
03__ASM_ALL_CURVES
100
AcDbLine
 62
4
  6
CONTINUOUS
 10
11.1009710923
 20
12.2603234136
 11
11.1121273423
 21
12.2677609118
  0
LINE
  5
269
100
AcDbEntity
  8
03__ASM_ALL_CURVES
100
AcDbLine
 62
4
  6
CONTINUOUS
 10
11.1344398423
 20
12.2380109136
 11
11.1232835923
 21
12.23057341
  0
LINE
  5
26A
100
AcDbEntity
  8
03__ASM_ALL_CURVES
100
AcDbLine
 62
4
  6
CONTINUOUS
 10
11.6699398423
 20
12.2231359118
 11
11.6532054673
 21
12.2156984109
  0
LINE
  5
26B
100
AcDbEntity
  8
03__ASM_ALL_CURVES
100
AcDbLine
 62
4
  6
CONTINUOUS
 10
8.5301429691
 20
6.8623546618
 11
8.5450179682
 21
6.8623546618
  0
LINE
  5
26C
100
AcDbEntity
  8
03__ASM_ALL_CURVES
100
AcDbLine
 62
4
  6
CONTINUOUS
 10
9.5301429691
 20
6.8623546618
 11
9.5450179682
 21
6.8623546618
  0
LINE
  5
26D
100
AcDbEntity
  8
03__ASM_ALL_CURVES
100
AcDbLine
 62
4
  6
CONTINUOUS
 10
9.5078304691
 20
6.9850734118
 11
9.5227054655
 21
6.9850734118
  0
LINE
  5
26E
100
AcDbEntity
  8
03__ASM_ALL_CURVES
100
AcDbLine
 62
4
  6
CONTINUOUS
 10
8.5524554664
 20
7.0296984118
 11
8.5227054655
 21
7.0296984118
  0
LINE
  5
26F
100
AcDbEntity
  8
03__ASM_ALL_CURVES
100
AcDbLine
 62
4
  6
CONTINUOUS
 10
9.4929554673
 20
7.0408546618
 11
9.5301429691
 21
7.0352765368
  0
LINE
  5
270
100
AcDbEntity
  8
03__ASM_ALL_CURVES
100
AcDbLine
 62
4
  6
CONTINUOUS
 10
8.5450179682
 20
7.3309171618
 11
8.5673304669
 21
7.3253390368
  0
LINE
  5
271
100
AcDbEntity
  8
03__ASM_ALL_CURVES
100
AcDbLine
 62
4
  6
CONTINUOUS
 10
9.5524554664
 20
7.0799015368
 11
9.5673304669
 21
7.0743234118
  0
LINE
  5
272
100
AcDbEntity
  8
03__ASM_ALL_CURVES
100
AcDbLine
 62
4
  6
CONTINUOUS
 10
9.4929554673
 20
7.2472452868
 11
9.5598929673
 21
7.2081984118
  0
LINE
  5
273
100
AcDbEntity
  8
03__ASM_ALL_CURVES
100
AcDbLine
 62
4
  6
CONTINUOUS
 10
9.5450179682
 20
6.9571827868
 11
9.5598929673
 21
6.9460265368
  0
LINE
  5
274
100
AcDbEntity
  8
03__ASM_ALL_CURVES
100
AcDbLine
 62
4
  6
CONTINUOUS
 10
9.5227054655
 20
6.9850734118
 11
9.5301429691
 21
6.9794952868
  0
LINE
  5
275
100
AcDbEntity
  8
03__ASM_ALL_CURVES
100
AcDbLine
 62
4
  6
CONTINUOUS
 10
9.5673304669
 20
7.0743234118
 11
9.5747679671
 21
7.0687452868
  0
LINE
  5
276
100
AcDbEntity
  8
03__ASM_ALL_CURVES
100
AcDbLine
 62
4
  6
CONTINUOUS
 10
9.5003929655
 20
6.6838546618
 11
9.4929554673
 21
6.6950109118
  0
LINE
  5
277
100
AcDbEntity
  8
03__ASM_ALL_CURVES
100
AcDbLine
 62
4
  6
CONTINUOUS
 10
9.5747679671
 20
6.7061671618
 11
9.5822054673
 21
6.6950109118
  0
LINE
  5
278
100
AcDbEntity
  8
03__ASM_ALL_CURVES
100
AcDbLine
 62
4
  6
CONTINUOUS
 10
8.4929554673
 20
6.9850734118
 11
8.4929554673
 21
6.9516046618
  0
LINE
  5
279
100
AcDbEntity
  8
03__ASM_ALL_CURVES
100
AcDbLine
 62
4
  6
CONTINUOUS
 10
8.4929554673
 20
6.5109327868
 11
8.4929554673
 21
6.5220890368
  0
LINE
  5
27A
100
AcDbEntity
  8
03__ASM_ALL_CURVES
100
AcDbLine
 62
4
  6
CONTINUOUS
 10
8.4929554673
 20
7.2249327868
 11
8.4929554673
 21
7.2360890368
  0
LINE
  5
27B
100
AcDbEntity
  8
03__ASM_ALL_CURVES
100
AcDbLine
 62
4
  6
CONTINUOUS
 10
8.5227054655
 20
6.9571827868
 11
8.5227054655
 21
6.9683390368
  0
LINE
  5
27C
100
AcDbEntity
  8
03__ASM_ALL_CURVES
100
AcDbLine
 62
4
  6
CONTINUOUS
 10
8.5301429691
 20
7.2249327868
 11
8.5301429691
 21
7.2360890368
  0
LINE
  5
27D
100
AcDbEntity
  8
03__ASM_ALL_CURVES
100
AcDbLine
 62
4
  6
CONTINUOUS
 10
8.5375804673
 20
8.5088859118
 11
8.5375804673
 21
7.7213859118
  0
LINE
  5
27E
100
AcDbEntity
  8
0
100
AcDbLine
 62
7
  6
CONTINUOUS
 10
8.5375804673
 20
8.5981359118
 11
8.5375804673
 21
12.2231359118
  0
LINE
  5
27F
100
AcDbEntity
  8
03__ASM_ALL_CURVES
100
AcDbLine
 62
4
  6
CONTINUOUS
 10
8.5822054673
 20
7.2360890368
 11
8.5822054673
 21
7.2249327868
  0
LINE
  5
280
100
AcDbEntity
  8
03__ASM_ALL_CURVES
100
AcDbLine
 62
4
  6
CONTINUOUS
 10
8.5822054673
 20
7.1635734118
 11
8.5822054673
 21
7.1552062243
  0
LINE
  5
281
100
AcDbEntity
  8
03__ASM_ALL_CURVES
100
AcDbLine
 62
4
  6
CONTINUOUS
 10
8.5822054673
 20
6.9683390368
 11
8.5822054673
 21
6.9571827868
  0
LINE
  5
282
100
AcDbEntity
  8
03__ASM_ALL_CURVES
100
AcDbLine
 62
4
  6
CONTINUOUS
 10
8.5822054673
 20
6.6280734118
 11
8.5822054673
 21
6.6197062243
  0
LINE
  5
283
100
AcDbEntity
  8
03__ASM_ALL_CURVES
100
AcDbLine
 62
4
  6
CONTINUOUS
 10
8.5822054673
 20
6.4941984118
 11
8.5822054673
 21
6.5388234118
  0
LINE
  5
284
100
AcDbEntity
  8
03__ASM_ALL_CURVES
100
AcDbLine
 62
4
  6
CONTINUOUS
 10
11.1344398423
 20
12.185948412
 11
11.1232835923
 21
12.1785109118
  0
LINE
  5
285
100
AcDbEntity
  8
03__ASM_ALL_CURVES
100
AcDbLine
 62
4
  6
CONTINUOUS
 10
11.2850492173
 20
12.2603234136
 11
11.2962054673
 21
12.2677609118
  0
LINE
  5
286
100
AcDbEntity
  8
03__ASM_ALL_CURVES
100
AcDbLine
 62
4
  6
CONTINUOUS
 10
11.3687210923
 20
12.2603234136
 11
11.3798773423
 21
12.2677609118
  0
LINE
  5
287
100
AcDbEntity
  8
03__ASM_ALL_CURVES
100
AcDbLine
 62
4
  6
CONTINUOUS
 10
11.3073617173
 20
12.185948412
 11
11.2962054673
 21
12.1785109118
  0
LINE
  5
288
100
AcDbEntity
  8
03__ASM_ALL_CURVES
100
AcDbLine
 62
4
  6
CONTINUOUS
 10
11.4021898423
 20
12.23057341
 11
11.3798773423
 21
12.2156984109
  0
LINE
  5
289
100
AcDbEntity
  8
03__ASM_ALL_CURVES
100
AcDbLine
 62
4
  6
CONTINUOUS
 10
11.9376898423
 20
12.2231359118
 11
11.9209554673
 21
12.2156984109
  0
LINE
  5
28A
100
AcDbEntity
  8
03__ASM_ALL_CURVES
100
AcDbLine
 62
4
  6
CONTINUOUS
 10
9.5450179682
 20
6.8623546618
 11
9.5673304669
 21
6.8679327868
  0
LINE
  5
28B
100
AcDbEntity
  8
03__ASM_ALL_CURVES
100
AcDbLine
 62
4
  6
CONTINUOUS
 10
8.5227054655
 20
7.0743234118
 11
8.5524554664
 21
7.0743234118
  0
LINE
  5
28C
100
AcDbEntity
  8
03__ASM_ALL_CURVES
100
AcDbLine
 62
4
  6
CONTINUOUS
 10
9.5822054673
 20
7.1552062243
 11
9.571049217
 21
7.1552062243
  0
LINE
  5
28D
100
AcDbEntity
  8
03__ASM_ALL_CURVES
100
AcDbLine
 62
4
  6
CONTINUOUS
 10
8.5822054673
 20
7.1552062243
 11
8.571049217
 21
7.1552062243
  0
LINE
  5
28E
100
AcDbEntity
  8
03__ASM_ALL_CURVES
100
AcDbLine
 62
4
  6
CONTINUOUS
 10
8.5598929673
 20
7.2026202868
 11
8.5524554664
 21
7.2026202868
  0
LINE
  5
28F
100
AcDbEntity
  8
03__ASM_ALL_CURVES
100
AcDbLine
 62
4
  6
CONTINUOUS
 10
8.5152679673
 20
7.2081984118
 11
8.5078304691
 21
7.2081984118
  0
LINE
  5
290
100
AcDbEntity
  8
03__ASM_ALL_CURVES
100
AcDbLine
 62
4
  6
CONTINUOUS
 10
9.5822054673
 20
7.2472452868
 11
9.4929554673
 21
7.2472452868
  0
LINE
  5
291
100
AcDbEntity
  8
03__ASM_ALL_CURVES
100
AcDbLine
 62
4
  6
CONTINUOUS
 10
8.5078304691
 20
7.2528234118
 11
8.5152679673
 21
7.2528234118
  0
LINE
  5
292
100
AcDbEntity
  8
03__ASM_ALL_CURVES
100
AcDbLine
 62
4
  6
CONTINUOUS
 10
8.5524554664
 20
7.2584015368
 11
8.5598929673
 21
7.2584015368
  0
LINE
  5
293
100
AcDbEntity
  8
03__ASM_ALL_CURVES
100
AcDbLine
 62
4
  6
CONTINUOUS
 10
9.5450179682
 20
7.3309171618
 11
9.5673304669
 21
7.3253390368
  0
LINE
  5
294
100
AcDbEntity
  8
03__ASM_ALL_CURVES
100
AcDbLine
 62
4
  6
CONTINUOUS
 10
9.5673304669
 20
7.3253390368
 11
9.5822054673
 21
7.3141827868
  0
LINE
  5
295
100
AcDbEntity
  8
03__ASM_ALL_CURVES
100
AcDbLine
 62
4
  6
CONTINUOUS
 10
9.5003929655
 20
6.9460265368
 11
9.4929554673
 21
6.9571827868
  0
LINE
  5
296
100
AcDbEntity
  8
03__ASM_ALL_CURVES
100
AcDbLine
 62
4
  6
CONTINUOUS
 10
9.5301429691
 20
6.9794952868
 11
9.5450179682
 21
6.9571827868
  0
LINE
  5
297
100
AcDbEntity
  8
03__ASM_ALL_CURVES
100
AcDbLine
 62
4
  6
CONTINUOUS
 10
9.5301429691
 20
7.0352765368
 11
9.5227054655
 21
7.0464327868
  0
LINE
  5
298
100
AcDbEntity
  8
03__ASM_ALL_CURVES
100
AcDbLine
 62
4
  6
CONTINUOUS
 10
9.5747679671
 20
7.0687452868
 11
9.5822054673
 21
7.0575890368
  0
LINE
  5
299
100
AcDbEntity
  8
03__ASM_ALL_CURVES
100
AcDbLine
 62
4
  6
CONTINUOUS
 10
11.6420492173
 20
12.2603234136
 11
11.6532054673
 21
12.2677609118
  0
LINE
  5
29A
100
AcDbEntity
  8
03__ASM_ALL_CURVES
100
AcDbLine
 62
4
  6
CONTINUOUS
 10
11.6643617173
 20
12.185948412
 11
11.6532054673
 21
12.1785109118
  0
LINE
  5
29B
100
AcDbEntity
  8
03__ASM_ALL_CURVES
100
AcDbLine
 62
4
  6
CONTINUOUS
 10
11.9097992173
 20
12.2603234136
 11
11.9209554673
 21
12.2677609118
  0
LINE
  5
29C
100
AcDbEntity
  8
03__ASM_ALL_CURVES
100
AcDbLine
 62
4
  6
CONTINUOUS
 10
11.1009710923
 20
11.6663234136
 11
11.1121273423
 21
11.6737609118
  0
LINE
  5
29D
100
AcDbEntity
  8
03__ASM_ALL_CURVES
100
AcDbLine
 62
4
  6
CONTINUOUS
 10
11.9321117173
 20
12.185948412
 11
11.9209554673
 21
12.1785109118
  0
LINE
  5
29E
100
AcDbEntity
  8
03__ASM_ALL_CURVES
100
AcDbLine
 62
4
  6
CONTINUOUS
 10
11.7257210923
 20
11.6291359118
 11
11.7424554673
 21
11.63657341
  0
LINE
  5
29F
100
AcDbEntity
  8
03__ASM_ALL_CURVES
100
AcDbLine
 62
4
  6
CONTINUOUS
 10
8.5450179682
 20
6.8623546618
 11
8.5673304669
 21
6.8679327868
  0
LINE
  5
2A0
100
AcDbEntity
  8
03__ASM_ALL_CURVES
100
AcDbLine
 62
4
  6
CONTINUOUS
 10
8.5301429691
 20
7.3309171618
 11
8.5450179682
 21
7.3309171618
  0
LINE
  5
2A1
100
AcDbEntity
  8
03__ASM_ALL_CURVES
100
AcDbLine
 62
4
  6
CONTINUOUS
 10
9.5301429691
 20
7.3309171618
 11
9.5450179682
 21
7.3309171618
  0
LINE
  5
2A2
100
AcDbEntity
  8
0
100
AcDbLine
 62
7
  6
CONTINUOUS
 10
9.0996242365
 20
8.0087294438
 11
9.1075804673
 21
8.0041359118
  0
LINE
  5
2A3
100
AcDbEntity
  8
03__ASM_ALL_CURVES
100
AcDbLine
 62
4
  6
CONTINUOUS
 10
11.1344398423
 20
11.6440109136
 11
11.1232835923
 21
11.63657341
  0
LINE
  5
2A4
100
AcDbEntity
  8
03__ASM_ALL_CURVES
100
AcDbLine
 62
4
  6
CONTINUOUS
 10
11.1344398423
 20
11.591948412
 11
11.1232835923
 21
11.5845109118
  0
LINE
  5
2A5
100
AcDbEntity
  8
03__ASM_ALL_CURVES
100
AcDbLine
 62
4
  6
CONTINUOUS
 10
11.2850492173
 20
11.6663234136
 11
11.2962054673
 21
11.6737609118
  0
LINE
  5
2A6
100
AcDbEntity
  8
03__ASM_ALL_CURVES
100
AcDbLine
 62
4
  6
CONTINUOUS
 10
11.3687210923
 20
11.6663234136
 11
11.3798773423
 21
11.6737609118
  0
LINE
  5
2A7
100
AcDbEntity
  8
03__ASM_ALL_CURVES
100
AcDbLine
 62
4
  6
CONTINUOUS
 10
11.3073617173
 20
11.591948412
 11
11.2962054673
 21
11.5845109118
  0
LINE
  5
2A8
100
AcDbEntity
  8
03__ASM_ALL_CURVES
100
AcDbLine
 62
4
  6
CONTINUOUS
 10
11.1009710923
 20
11.4483234136
 11
11.1121273423
 21
11.4557609118
  0
LINE
  5
2A9
100
AcDbEntity
  8
03__ASM_ALL_CURVES
100
AcDbLine
 62
4
  6
CONTINUOUS
 10
11.4021898423
 20
11.6440109136
 11
11.3910335923
 21
11.63657341
  0
LINE
  5
2AA
100
AcDbEntity
  8
03__ASM_ALL_CURVES
100
AcDbLine
 62
4
  6
CONTINUOUS
 10
11.1344398423
 20
11.41857341
 11
11.1121273423
 21
11.4036984109
  0
LINE
  5
2AB
100
AcDbEntity
  8
03__ASM_ALL_CURVES
100
AcDbLine
 62
4
  6
CONTINUOUS
 10
11.4021898423
 20
11.591948412
 11
11.3910335923
 21
11.5845109118
  0
LINE
  5
2AC
100
AcDbEntity
  8
03__ASM_ALL_CURVES
100
AcDbLine
 62
4
  6
CONTINUOUS
 10
11.9376898423
 20
11.6291359118
 11
11.9209554673
 21
11.6216984109
  0
LINE
  5
2AD
100
AcDbEntity
  8
03__ASM_ALL_CURVES
100
AcDbLine
 62
4
  6
CONTINUOUS
 10
11.9934710923
 20
11.6291359118
 11
12.0102054673
 21
11.63657341
  0
LINE
  5
2AE
100
AcDbEntity
  8
03__ASM_ALL_CURVES
100
AcDbLine
 62
4
  6
CONTINUOUS
 10
9.5078304691
 20
7.3253390368
 11
9.5301429691
 21
7.3309171618
  0
LINE
  5
2AF
100
AcDbEntity
  8
0
100
AcDbLine
 62
7
  6
CONTINUOUS
 10
9.1000644333
 20
8.0084869756
 11
9.1000644333
 21
8.526120087
  0
LINE
  5
2B0
100
AcDbEntity
  8
0
100
AcDbLine
 62
7
  6
CONTINUOUS
 10
9.1090804673
 20
8.5981359118
 11
9.1090804673
 21
8.5351359118
  0
LINE
  5
2B1
100
AcDbEntity
  8
0
100
AcDbLine
 62
7
  6
CONTINUOUS
 10
9.1296782196
 20
8.4746359118
 11
9.1296782196
 21
8.0381995777
  0
LINE
  5
2B2
100
AcDbEntity
  8
0
100
AcDbLine
 62
7
  6
CONTINUOUS
 10
9.2570804673
 20
9.5200461879
 11
9.2570804673
 21
9.4882256719
  0
LINE
  5
2B3
100
AcDbEntity
  8
03__ASM_ALL_CURVES
100
AcDbLine
 62
4
  6
CONTINUOUS
 10
11.1400179673
 20
12.2454484118
 11
11.1344398423
 21
12.2380109136
  0
LINE
  5
2B4
100
AcDbEntity
  8
03__ASM_ALL_CURVES
100
AcDbLine
 62
4
  6
CONTINUOUS
 10
11.1455960923
 20
12.2008234118
 11
11.1344398423
 21
12.185948412
  0
LINE
  5
2B5
100
AcDbEntity
  8
03__ASM_ALL_CURVES
100
AcDbLine
 62
4
  6
CONTINUOUS
 10
11.2794710923
 20
12.25288591
 11
11.2850492173
 21
12.2603234136
  0
LINE
  5
2B6
100
AcDbEntity
  8
03__ASM_ALL_CURVES
100
AcDbLine
 62
4
  6
CONTINUOUS
 10
11.2794710923
 20
11.4483234136
 11
11.2906273423
 21
11.4557609118
  0
LINE
  5
2B7
100
AcDbEntity
  8
03__ASM_ALL_CURVES
100
AcDbLine
 62
4
  6
CONTINUOUS
 10
11.2794710923
 20
11.4111359118
 11
11.2906273423
 21
11.41857341
  0
LINE
  5
2B8
100
AcDbEntity
  8
03__ASM_ALL_CURVES
100
AcDbLine
 62
4
  6
CONTINUOUS
 10
11.3129398423
 20
11.4260109136
 11
11.3017835923
 21
11.41857341
  0
LINE
  5
2B9
100
AcDbEntity
  8
03__ASM_ALL_CURVES
100
AcDbLine
 62
4
  6
CONTINUOUS
 10
11.7312992173
 20
11.6663234136
 11
11.7424554673
 21
11.6737609118
  0
LINE
  5
2BA
100
AcDbEntity
  8
03__ASM_ALL_CURVES
100
AcDbLine
 62
4
  6
CONTINUOUS
 10
11.3129398423
 20
11.373948412
 11
11.3017835923
 21
11.3665109118
  0
LINE
  5
2BB
100
AcDbEntity
  8
03__ASM_ALL_CURVES
100
AcDbLine
 62
4
  6
CONTINUOUS
 10
11.7536117173
 20
11.591948412
 11
11.7424554673
 21
11.5845109118
  0
LINE
  5
2BC
100
AcDbEntity
  8
03__ASM_ALL_CURVES
100
AcDbLine
 62
4
  6
CONTINUOUS
 10
11.9097992173
 20
11.6663234136
 11
11.9209554673
 21
11.6737609118
  0
LINE
  5
2BD
100
AcDbEntity
  8
03__ASM_ALL_CURVES
100
AcDbLine
 62
4
  6
CONTINUOUS
 10
11.9990492173
 20
11.6663234136
 11
12.0102054673
 21
11.6737609118
  0
LINE
  5
2BE
100
AcDbEntity
  8
03__ASM_ALL_CURVES
100
AcDbLine
 62
4
  6
CONTINUOUS
 10
8.5078304691
 20
7.3253390368
 11
8.5301429691
 21
7.3309171618
  0
LINE
  5
2BF
100
AcDbEntity
  8
03__ASM_ALL_CURVES
100
AcDbLine
 62
4
  6
CONTINUOUS
 10
12.0157835923
 20
7.9595109118
 11
12.0046273423
 21
7.9595109118
  0
LINE
  5
2C0
100
AcDbEntity
  8
03__ASM_ALL_CURVES
100
AcDbLine
 62
4
  6
CONTINUOUS
 10
11.8540179673
 20
7.9595109118
 11
11.8456507798
 21
7.9595109118
  0
LINE
  5
2C1
100
AcDbEntity
  8
03__ASM_ALL_CURVES
100
AcDbLine
 62
4
  6
CONTINUOUS
 10
11.3017835923
 20
7.9595109118
 11
11.2906273423
 21
7.9595109118
  0
LINE
  5
2C2
100
AcDbEntity
  8
03__ASM_ALL_CURVES
100
AcDbLine
 62
4
  6
CONTINUOUS
 10
11.2292679673
 20
7.9595109118
 11
11.2209007798
 21
7.9595109118
  0
LINE
  5
2C3
100
AcDbEntity
  8
03__ASM_ALL_CURVES
100
AcDbLine
 62
4
  6
CONTINUOUS
 10
11.7201429673
 20
7.9818234118
 11
11.7703460923
 21
7.9818234118
  0
LINE
  5
2C4
100
AcDbEntity
  8
03__ASM_ALL_CURVES
100
AcDbLine
 62
4
  6
CONTINUOUS
 10
10.5524554664
 20
7.9956984118
 11
10.5227054655
 21
7.9956984118
  0
LINE
  5
2C5
100
AcDbEntity
  8
0
100
AcDbLine
 62
7
  6
CONTINUOUS
 10
9.9675791008
 20
8.0041359118
 11
9.1075818338
 21
8.0041359118
  0
LINE
  5
2C6
100
AcDbEntity
  8
03__ASM_ALL_CURVES
100
AcDbLine
 62
4
  6
CONTINUOUS
 10
10.6268304673
 20
8.0041359118
 11
10.8945804673
 21
8.0041359118
  0
LINE
  5
2C7
100
AcDbEntity
  8
03__ASM_ALL_CURVES
100
AcDbLine
 62
4
  6
CONTINUOUS
 10
12.0046273423
 20
8.01157341
 11
12.0157835923
 21
8.01157341
  0
LINE
  5
2C8
100
AcDbEntity
  8
03__ASM_ALL_CURVES
100
AcDbLine
 62
4
  6
CONTINUOUS
 10
11.2906273423
 20
8.0190109136
 11
11.3017835923
 21
8.0190109136
  0
LINE
  5
2C9
100
AcDbEntity
  8
0
100
AcDbLine
 62
7
  6
CONTINUOUS
 10
9.9750965013
 20
8.0381995777
 11
9.945482715
 21
8.0381995777
  0
LINE
  5
2CA
100
AcDbEntity
  8
0
100
AcDbLine
 62
7
  6
CONTINUOUS
 10
9.5671942536
 20
8.0381995777
 11
9.507966681
 21
8.0381995777
  0
LINE
  5
2CB
100
AcDbEntity
  8
0
100
AcDbLine
 62
7
  6
CONTINUOUS
 10
9.1296782196
 20
8.0381995777
 11
9.1000644333
 21
8.0381995777
  0
LINE
  5
2CC
100
AcDbEntity
  8
03__ASM_ALL_CURVES
100
AcDbLine
 62
4
  6
CONTINUOUS
 10
10.5227054655
 20
8.0403234118
 11
10.5524554664
 21
8.0403234118
  0
LINE
  5
2CD
100
AcDbEntity
  8
03__ASM_ALL_CURVES
100
AcDbLine
 62
4
  6
CONTINUOUS
 10
9.4929554673
 20
7.0743234118
 11
9.4929554673
 21
7.0408546618
  0
LINE
  5
2CE
100
AcDbEntity
  8
03__ASM_ALL_CURVES
100
AcDbLine
 62
4
  6
CONTINUOUS
 10
9.4929554673
 20
6.9571827868
 11
9.4929554673
 21
6.9683390368
  0
LINE
  5
2CF
100
AcDbEntity
  8
0
100
AcDbLine
 62
7
  6
CONTINUOUS
 10
9.507966681
 20
8.4746359118
 11
9.507966681
 21
8.0381995777
  0
LINE
  5
2D0
100
AcDbEntity
  8
03__ASM_ALL_CURVES
100
AcDbLine
 62
4
  6
CONTINUOUS
 10
9.5227054655
 20
7.0464327868
 11
9.5227054655
 21
7.0575890368
  0
LINE
  5
2D1
100
AcDbEntity
  8
03__ASM_ALL_CURVES
100
AcDbLine
 62
4
  6
CONTINUOUS
 10
9.5375804673
 20
8.5088859118
 11
9.5375804673
 21
7.7213859118
  0
LINE
  5
2D2
100
AcDbEntity
  8
03__ASM_ALL_CURVES
100
AcDbLine
 62
4
  6
CONTINUOUS
 10
9.5598929673
 20
7.2081984118
 11
9.5598929673
 21
7.2584015368
  0
LINE
  5
2D3
100
AcDbEntity
  8
0
100
AcDbLine
 62
7
  6
CONTINUOUS
 10
9.5671942536
 20
8.4746359118
 11
9.5671942536
 21
8.0381995777
  0
LINE
  5
2D4
100
AcDbEntity
  8
03__ASM_ALL_CURVES
100
AcDbLine
 62
4
  6
CONTINUOUS
 10
11.3129398423
 20
12.1933859122
 11
11.3073617173
 21
12.185948412
  0
LINE
  5
2D5
100
AcDbEntity
  8
03__ASM_ALL_CURVES
100
AcDbLine
 62
4
  6
CONTINUOUS
 10
11.3631429673
 20
12.25288591
 11
11.3687210923
 21
12.2603234136
  0
LINE
  5
2D6
100
AcDbEntity
  8
03__ASM_ALL_CURVES
100
AcDbLine
 62
4
  6
CONTINUOUS
 10
11.3798773423
 20
12.2156984109
 11
11.3687210923
 21
12.2008234118
  0
LINE
  5
2D7
100
AcDbEntity
  8
03__ASM_ALL_CURVES
100
AcDbLine
 62
4
  6
CONTINUOUS
 10
11.4077679673
 20
12.2380109136
 11
11.4021898423
 21
12.23057341
  0
LINE
  5
2D8
100
AcDbEntity
  8
03__ASM_ALL_CURVES
100
AcDbLine
 62
4
  6
CONTINUOUS
 10
11.5695335923
 20
12.2677609118
 11
11.5583773423
 21
12.25288591
  0
LINE
  5
2D9
100
AcDbEntity
  8
03__ASM_ALL_CURVES
100
AcDbLine
 62
4
  6
CONTINUOUS
 10
11.1400179673
 20
11.6514484118
 11
11.1344398423
 21
11.6440109136
  0
LINE
  5
2DA
100
AcDbEntity
  8
03__ASM_ALL_CURVES
100
AcDbLine
 62
4
  6
CONTINUOUS
 10
11.9321117173
 20
11.591948412
 11
11.9209554673
 21
11.5845109118
  0
LINE
  5
2DB
100
AcDbEntity
  8
03__ASM_ALL_CURVES
100
AcDbLine
 62
4
  6
CONTINUOUS
 10
12.0213617173
 20
11.591948412
 11
12.0102054673
 21
11.5845109118
  0
LINE
  5
2DC
100
AcDbEntity
  8
03__ASM_ALL_CURVES
100
AcDbLine
 62
4
  6
CONTINUOUS
 10
11.9042210923
 20
11.4483234136
 11
11.9153773423
 21
11.4557609118
  0
LINE
  5
2DD
100
AcDbEntity
  8
03__ASM_ALL_CURVES
100
AcDbLine
 62
4
  6
CONTINUOUS
 10
11.9376898423
 20
11.4260109136
 11
11.9265335923
 21
11.41857341
  0
LINE
  5
2DE
100
AcDbEntity
  8
03__ASM_ALL_CURVES
100
AcDbLine
 62
4
  6
CONTINUOUS
 10
11.9376898423
 20
11.373948412
 11
11.9265335923
 21
11.3665109118
  0
LINE
  5
2DF
100
AcDbEntity
  8
03__ASM_ALL_CURVES
100
AcDbLine
 62
4
  6
CONTINUOUS
 10
11.3185179673
 20
8.0487609118
 11
11.2850492173
 21
8.0487609118
  0
LINE
  5
2E0
100
AcDbEntity
  8
03__ASM_ALL_CURVES
100
AcDbLine
 62
4
  6
CONTINUOUS
 10
12.0046273423
 20
8.0487609118
 11
12.0157835923
 21
8.0487609118
  0
LINE
  5
2E1
100
AcDbEntity
  8
03__ASM_ALL_CURVES
100
AcDbLine
 62
4
  6
CONTINUOUS
 10
10.5227054655
 20
7.9956984118
 11
10.5078304691
 21
8.0012765368
  0
LINE
  5
2E2
100
AcDbEntity
  8
03__ASM_ALL_CURVES
100
AcDbLine
 62
4
  6
CONTINUOUS
 10
10.5524554664
 20
8.0403234118
 11
10.5673304669
 21
8.0347452868
  0
LINE
  5
2E3
100
AcDbEntity
  8
03__ASM_ALL_CURVES
100
AcDbLine
 62
4
  6
CONTINUOUS
 10
10.5078304691
 20
8.0012765368
 11
10.5003929655
 21
8.0068546618
  0
LINE
  5
2E4
100
AcDbEntity
  8
03__ASM_ALL_CURVES
100
AcDbLine
 62
4
  6
CONTINUOUS
 10
9.5822054673
 20
7.1635734118
 11
9.5822054673
 21
7.1552062243
  0
LINE
  5
2E5
100
AcDbEntity
  8
03__ASM_ALL_CURVES
100
AcDbLine
 62
4
  6
CONTINUOUS
 10
9.5822054673
 20
7.0575890368
 11
9.5822054673
 21
7.0464327868
  0
LINE
  5
2E6
100
AcDbEntity
  8
03__ASM_ALL_CURVES
100
AcDbLine
 62
4
  6
CONTINUOUS
 10
9.5822054673
 20
6.6280734118
 11
9.5822054673
 21
6.6197062243
  0
LINE
  5
2E7
100
AcDbEntity
  8
03__ASM_ALL_CURVES
100
AcDbLine
 62
4
  6
CONTINUOUS
 10
9.5822054673
 20
6.9404484118
 11
9.5822054673
 21
6.9850734118
  0
LINE
  5
2E8
100
AcDbEntity
  8
0
100
AcDbLine
 62
7
  6
CONTINUOUS
 10
9.8180804673
 20
9.5200461879
 11
9.8180804673
 21
9.4882256719
  0
LINE
  5
2E9
100
AcDbEntity
  8
03__ASM_ALL_CURVES
100
AcDbLine
 62
4
  6
CONTINUOUS
 10
11.1455960923
 20
11.6068234118
 11
11.1344398423
 21
11.591948412
  0
LINE
  5
2EA
100
AcDbEntity
  8
03__ASM_ALL_CURVES
100
AcDbLine
 62
4
  6
CONTINUOUS
 10
11.6364710923
 20
12.25288591
 11
11.6420492173
 21
12.2603234136
  0
LINE
  5
2EB
100
AcDbEntity
  8
03__ASM_ALL_CURVES
100
AcDbLine
 62
4
  6
CONTINUOUS
 10
11.0953929673
 20
11.44088591
 11
11.1009710923
 21
11.4483234136
  0
LINE
  5
2EC
100
AcDbEntity
  8
03__ASM_ALL_CURVES
100
AcDbLine
 62
4
  6
CONTINUOUS
 10
11.6699398423
 20
12.1933859122
 11
11.6643617173
 21
12.185948412
  0
LINE
  5
2ED
100
AcDbEntity
  8
03__ASM_ALL_CURVES
100
AcDbLine
 62
4
  6
CONTINUOUS
 10
11.2794710923
 20
11.65888591
 11
11.2850492173
 21
11.6663234136
  0
LINE
  5
2EE
100
AcDbEntity
  8
03__ASM_ALL_CURVES
100
AcDbLine
 62
4
  6
CONTINUOUS
 10
11.1121273423
 20
11.4036984109
 11
11.1009710923
 21
11.3888234118
  0
LINE
  5
2EF
100
AcDbEntity
  8
03__ASM_ALL_CURVES
100
AcDbLine
 62
4
  6
CONTINUOUS
 10
11.1400179673
 20
11.4260109136
 11
11.1344398423
 21
11.41857341
  0
LINE
  5
2F0
100
AcDbEntity
  8
03__ASM_ALL_CURVES
100
AcDbLine
 62
4
  6
CONTINUOUS
 10
11.3129398423
 20
11.5993859122
 11
11.3073617173
 21
11.591948412
  0
LINE
  5
2F1
100
AcDbEntity
  8
03__ASM_ALL_CURVES
100
AcDbLine
 62
4
  6
CONTINUOUS
 10
11.4077679673
 20
11.6514484118
 11
11.4021898423
 21
11.6440109136
  0
LINE
  5
2F2
100
AcDbEntity
  8
03__ASM_ALL_CURVES
100
AcDbLine
 62
4
  6
CONTINUOUS
 10
11.2738929673
 20
11.44088591
 11
11.2794710923
 21
11.4483234136
  0
LINE
  5
2F3
100
AcDbEntity
  8
03__ASM_ALL_CURVES
100
AcDbLine
 62
4
  6
CONTINUOUS
 10
11.4133460923
 20
11.6068234118
 11
11.4021898423
 21
11.591948412
  0
LINE
  5
2F4
100
AcDbEntity
  8
03__ASM_ALL_CURVES
100
AcDbLine
 62
4
  6
CONTINUOUS
 10
11.9042210923
 20
12.25288591
 11
11.9097992173
 21
12.2603234136
  0
LINE
  5
2F5
100
AcDbEntity
  8
03__ASM_ALL_CURVES
100
AcDbLine
 62
4
  6
CONTINUOUS
 10
11.2683148423
 20
11.3962609127
 11
11.2794710923
 21
11.4111359118
  0
LINE
  5
2F6
100
AcDbEntity
  8
03__ASM_ALL_CURVES
100
AcDbLine
 62
4
  6
CONTINUOUS
 10
12.4508773423
 20
11.4557609118
 11
12.4397210923
 21
11.4483234136
  0
LINE
  5
2F7
100
AcDbEntity
  8
03__ASM_ALL_CURVES
100
AcDbLine
 62
4
  6
CONTINUOUS
 10
12.4731898423
 20
11.373948412
 11
12.4620335923
 21
11.3665109118
  0
LINE
  5
2F8
100
AcDbEntity
  8
0
100
AcDbLine
 62
7
  6
CONTINUOUS
 10
9.9750965013
 20
8.4746359118
 11
9.945482715
 21
8.4746359118
  0
LINE
  5
2F9
100
AcDbEntity
  8
0
100
AcDbLine
 62
7
  6
CONTINUOUS
 10
9.1000644333
 20
8.4746359118
 11
9.1296782196
 21
8.4746359118
  0
LINE
  5
2FA
100
AcDbEntity
  8
0
100
AcDbLine
 62
7
  6
CONTINUOUS
 10
9.507966681
 20
8.4746359118
 11
9.5671942536
 21
8.4746359118
  0
LINE
  5
2FB
100
AcDbEntity
  8
03__ASM_ALL_CURVES
100
AcDbLine
 62
4
  6
CONTINUOUS
 10
11.3854554673
 20
7.9966984109
 11
11.3687210923
 21
8.0041359118
  0
LINE
  5
2FC
100
AcDbEntity
  8
03__ASM_ALL_CURVES
100
AcDbLine
 62
4
  6
CONTINUOUS
 10
11.1177054673
 20
7.9595109118
 11
11.1065492173
 21
7.966948412
  0
LINE
  5
2FD
100
AcDbEntity
  8
03__ASM_ALL_CURVES
100
AcDbLine
 62
4
  6
CONTINUOUS
 10
10.5673304669
 20
8.0347452868
 11
10.5747679671
 21
8.0291671618
  0
LINE
  5
2FE
100
AcDbEntity
  8
0
100
AcDbLine
 62
7
  6
CONTINUOUS
 10
9.9660804673
 20
8.5351359118
 11
9.9753939385
 21
8.5258224407
  0
LINE
  5
2FF
100
AcDbEntity
  8
0
100
AcDbLine
 62
7
  6
CONTINUOUS
 10
9.945482715
 20
8.4746359118
 11
9.945482715
 21
8.0381995777
  0
LINE
  5
300
100
AcDbEntity
  8
0
100
AcDbLine
 62
7
  6
CONTINUOUS
 10
9.9660804673
 20
8.5981359118
 11
9.9660804673
 21
8.5351359118
  0
LINE
  5
301
100
AcDbEntity
  8
0
100
AcDbLine
 62
7
  6
CONTINUOUS
 10
9.9750965013
 20
8.0084869762
 11
9.9750965013
 21
8.526120087
  0
LINE
  5
302
100
AcDbEntity
  8
03__ASM_ALL_CURVES
100
AcDbLine
 62
4
  6
CONTINUOUS
 10
8.4929554673
 20
7.2360890368
 11
8.5003929655
 21
7.2472452868
  0
LINE
  5
303
100
AcDbEntity
  8
03__ASM_ALL_CURVES
100
AcDbLine
 62
4
  6
CONTINUOUS
 10
8.5301429691
 20
7.2360890368
 11
8.5375804673
 21
7.2472452868
  0
LINE
  5
304
100
AcDbEntity
  8
03__ASM_ALL_CURVES
100
AcDbLine
 62
4
  6
CONTINUOUS
 10
8.5301429691
 20
7.2249327868
 11
8.5227054655
 21
7.2137765368
  0
LINE
  5
305
100
AcDbEntity
  8
03__ASM_ALL_CURVES
100
AcDbLine
 62
4
  6
CONTINUOUS
 10
8.5822054673
 20
7.2249327868
 11
8.5747679671
 21
7.2137765368
  0
LINE
  5
306
100
AcDbEntity
  8
03__ASM_ALL_CURVES
100
AcDbLine
 62
4
  6
CONTINUOUS
 10
8.4929554673
 20
7.0520109118
 11
8.5003929655
 21
7.0631671618
  0
LINE
  5
307
100
AcDbEntity
  8
03__ASM_ALL_CURVES
100
AcDbLine
 62
4
  6
CONTINUOUS
 10
11.3185179673
 20
11.4334484118
 11
11.3129398423
 21
11.4260109136
  0
LINE
  5
308
100
AcDbEntity
  8
03__ASM_ALL_CURVES
100
AcDbLine
 62
4
  6
CONTINUOUS
 10
11.3240960923
 20
11.3888234118
 11
11.3129398423
 21
11.373948412
  0
LINE
  5
309
100
AcDbEntity
  8
03__ASM_ALL_CURVES
100
AcDbLine
 62
4
  6
CONTINUOUS
 10
11.9376898423
 20
12.1933859122
 11
11.9321117173
 21
12.185948412
  0
LINE
  5
30A
100
AcDbEntity
  8
03__ASM_ALL_CURVES
100
AcDbLine
 62
4
  6
CONTINUOUS
 10
11.5695335923
 20
11.6737609118
 11
11.5583773423
 21
11.65888591
  0
LINE
  5
30B
100
AcDbEntity
  8
03__ASM_ALL_CURVES
100
AcDbLine
 62
4
  6
CONTINUOUS
 10
12.1050335923
 20
12.1933859122
 11
12.0938773423
 21
12.1785109118
  0
LINE
  5
30C
100
AcDbEntity
  8
03__ASM_ALL_CURVES
100
AcDbLine
 62
4
  6
CONTINUOUS
 10
11.5695335923
 20
11.4557609118
 11
11.5583773423
 21
11.44088591
  0
LINE
  5
30D
100
AcDbEntity
  8
03__ASM_ALL_CURVES
100
AcDbLine
 62
4
  6
CONTINUOUS
 10
11.7257210923
 20
11.65888591
 11
11.7312992173
 21
11.6663234136
  0
LINE
  5
30E
100
AcDbEntity
  8
0
100
AcDbLine
 62
7
  6
CONTINUOUS
 10
9.1090804673
 20
8.5351359118
 11
9.0997669962
 21
8.5258224407
  0
LINE
  5
30F
100
AcDbEntity
  8
0
100
AcDbLine
 62
7
  6
CONTINUOUS
 10
9.1090804673
 20
8.5351359118
 11
9.9660804673
 21
8.5351359118
  0
LINE
  5
310
100
AcDbEntity
  8
0
100
AcDbLine
 62
7
  6
CONTINUOUS
 10
8.5375804673
 20
8.5981359118
 11
10.5375804673
 21
8.5981359118
  0
LINE
  5
311
100
AcDbEntity
  8
03__ASM_ALL_CURVES
100
AcDbLine
 62
4
  6
CONTINUOUS
 10
10.6268304673
 20
8.5981359118
 11
10.8945804673
 21
8.5981359118
  0
LINE
  5
312
100
AcDbEntity
  8
03__ASM_ALL_CURVES
100
AcDbLine
 62
4
  6
CONTINUOUS
 10
11.9209554673
 20
7.9966984109
 11
11.9042210923
 21
8.0041359118
  0
LINE
  5
313
100
AcDbEntity
  8
03__ASM_ALL_CURVES
100
AcDbLine
 62
4
  6
CONTINUOUS
 10
11.1177054673
 20
8.0487609118
 11
11.1288617173
 21
8.0413234136
  0
LINE
  5
314
100
AcDbEntity
  8
03__ASM_ALL_CURVES
100
AcDbLine
 62
4
  6
CONTINUOUS
 10
11.2906273423
 20
7.9595109118
 11
11.2794710923
 21
7.966948412
  0
LINE
  5
315
100
AcDbEntity
  8
03__ASM_ALL_CURVES
100
AcDbLine
 62
4
  6
CONTINUOUS
 10
11.3854554673
 20
7.9595109118
 11
11.3742992173
 21
7.966948412
  0
LINE
  5
316
100
AcDbEntity
  8
03__ASM_ALL_CURVES
100
AcDbLine
 62
4
  6
CONTINUOUS
 10
11.3017835923
 20
8.0190109136
 11
11.3129398423
 21
8.01157341
  0
LINE
  5
317
100
AcDbEntity
  8
03__ASM_ALL_CURVES
100
AcDbLine
 62
4
  6
CONTINUOUS
 10
11.3854554673
 20
8.0487609118
 11
11.3966117173
 21
8.0413234136
  0
LINE
  5
318
100
AcDbEntity
  8
03__ASM_ALL_CURVES
100
AcDbLine
 62
4
  6
CONTINUOUS
 10
10.5003929655
 20
8.0068546618
 11
10.4929554673
 21
8.0180109118
  0
LINE
  5
319
100
AcDbEntity
  8
03__ASM_ALL_CURVES
100
AcDbLine
 62
4
  6
CONTINUOUS
 10
10.5747679671
 20
8.0291671618
 11
10.5822054673
 21
8.0180109118
  0
LINE
  5
31A
100
AcDbEntity
  8
03__ASM_ALL_CURVES
100
AcDbLine
 62
4
  6
CONTINUOUS
 10
11.2738929673
 20
12.2380109136
 11
11.2794710923
 21
12.25288591
  0
LINE
  5
31B
100
AcDbEntity
  8
03__ASM_ALL_CURVES
100
AcDbLine
 62
4
  6
CONTINUOUS
 10
11.2738929673
 20
12.2082609127
 11
11.2794710923
 21
12.2231359118
  0
LINE
  5
31C
100
AcDbEntity
  8
03__ASM_ALL_CURVES
100
AcDbLine
 62
4
  6
CONTINUOUS
 10
11.3185179673
 20
12.2082609127
 11
11.3129398423
 21
12.1933859122
  0
LINE
  5
31D
100
AcDbEntity
  8
03__ASM_ALL_CURVES
100
AcDbLine
 62
4
  6
CONTINUOUS
 10
12.0269398423
 20
12.2677609118
 11
11.9878929673
 21
12.2008234118
  0
LINE
  5
31E
100
AcDbEntity
  8
03__ASM_ALL_CURVES
100
AcDbLine
 62
4
  6
CONTINUOUS
 10
8.5227054655
 20
6.9683390368
 11
8.5301429691
 21
6.9794952868
  0
LINE
  5
31F
100
AcDbEntity
  8
03__ASM_ALL_CURVES
100
AcDbLine
 62
4
  6
CONTINUOUS
 10
8.5822054673
 20
7.0520109118
 11
8.5747679671
 21
7.0408546618
  0
LINE
  5
320
100
AcDbEntity
  8
03__ASM_ALL_CURVES
100
AcDbLine
 62
4
  6
CONTINUOUS
 10
8.5822054673
 20
6.9571827868
 11
8.5747679671
 21
6.9460265368
  0
LINE
  5
321
100
AcDbEntity
  8
03__ASM_ALL_CURVES
100
AcDbLine
 62
4
  6
CONTINUOUS
 10
8.4929554673
 20
6.6950109118
 11
8.5003929655
 21
6.7061671618
  0
LINE
  5
322
100
AcDbEntity
  8
03__ASM_ALL_CURVES
100
AcDbLine
 62
4
  6
CONTINUOUS
 10
11.7591898423
 20
11.5993859122
 11
11.7536117173
 21
11.591948412
  0
LINE
  5
323
100
AcDbEntity
  8
03__ASM_ALL_CURVES
100
AcDbLine
 62
4
  6
CONTINUOUS
 10
11.9042210923
 20
11.65888591
 11
11.9097992173
 21
11.6663234136
  0
LINE
  5
324
100
AcDbEntity
  8
03__ASM_ALL_CURVES
100
AcDbLine
 62
4
  6
CONTINUOUS
 10
11.9376898423
 20
11.5993859122
 11
11.9321117173
 21
11.591948412
  0
LINE
  5
325
100
AcDbEntity
  8
03__ASM_ALL_CURVES
100
AcDbLine
 62
4
  6
CONTINUOUS
 10
11.9934710923
 20
11.65888591
 11
11.9990492173
 21
11.6663234136
  0
LINE
  5
326
100
AcDbEntity
  8
03__ASM_ALL_CURVES
100
AcDbLine
 62
4
  6
CONTINUOUS
 10
12.0269398423
 20
11.5993859122
 11
12.0213617173
 21
11.591948412
  0
LINE
  5
327
100
AcDbEntity
  8
03__ASM_ALL_CURVES
100
AcDbLine
 62
4
  6
CONTINUOUS
 10
11.9209554673
 20
7.9595109118
 11
11.9097992173
 21
7.966948412
  0
LINE
  5
328
100
AcDbEntity
  8
03__ASM_ALL_CURVES
100
AcDbLine
 62
4
  6
CONTINUOUS
 10
12.0046273423
 20
7.9595109118
 11
11.9934710923
 21
7.966948412
  0
LINE
  5
329
100
AcDbEntity
  8
03__ASM_ALL_CURVES
100
AcDbLine
 62
4
  6
CONTINUOUS
 10
11.1177054673
 20
8.5535109118
 11
11.1065492173
 21
8.560948412
  0
LINE
  5
32A
100
AcDbEntity
  8
03__ASM_ALL_CURVES
100
AcDbLine
 62
4
  6
CONTINUOUS
 10
11.1065492173
 20
7.966948412
 11
11.1009710923
 21
7.9743859122
  0
LINE
  5
32B
100
AcDbEntity
  8
03__ASM_ALL_CURVES
100
AcDbLine
 62
4
  6
CONTINUOUS
 10
11.1288617173
 20
8.0413234136
 11
11.1344398423
 21
8.03388591
  0
LINE
  5
32C
100
AcDbEntity
  8
03__ASM_ALL_CURVES
100
AcDbLine
 62
4
  6
CONTINUOUS
 10
10.5375804673
 20
8.5088859118
 11
10.5375804673
 21
8.2411359118
  0
LINE
  5
32D
100
AcDbEntity
  8
0
100
AcDbLine
 62
7
  6
CONTINUOUS
 10
10.5375804673
 20
8.5981359118
 11
10.5375804673
 21
12.2231359118
  0
LINE
  5
32E
100
AcDbEntity
  8
03__ASM_ALL_CURVES
100
AcDbLine
 62
4
  6
CONTINUOUS
 10
11.2738929673
 20
11.6440109136
 11
11.2794710923
 21
11.65888591
  0
LINE
  5
32F
100
AcDbEntity
  8
03__ASM_ALL_CURVES
100
AcDbLine
 62
4
  6
CONTINUOUS
 10
11.3185179673
 20
11.6142609127
 11
11.3129398423
 21
11.5993859122
  0
LINE
  5
330
100
AcDbEntity
  8
03__ASM_ALL_CURVES
100
AcDbLine
 62
4
  6
CONTINUOUS
 10
11.6308929673
 20
12.2380109136
 11
11.6364710923
 21
12.25288591
  0
LINE
  5
331
100
AcDbEntity
  8
03__ASM_ALL_CURVES
100
AcDbLine
 62
4
  6
CONTINUOUS
 10
11.6755179673
 20
12.2380109136
 11
11.6699398423
 21
12.2231359118
  0
LINE
  5
332
100
AcDbEntity
  8
03__ASM_ALL_CURVES
100
AcDbLine
 62
4
  6
CONTINUOUS
 10
11.6755179673
 20
12.2082609127
 11
11.6699398423
 21
12.1933859122
  0
LINE
  5
333
100
AcDbEntity
  8
03__ASM_ALL_CURVES
100
AcDbLine
 62
4
  6
CONTINUOUS
 10
8.5822054673
 20
6.6950109118
 11
8.5747679671
 21
6.6838546618
  0
LINE
  5
334
100
AcDbEntity
  8
03__ASM_ALL_CURVES
100
AcDbLine
 62
4
  6
CONTINUOUS
 10
8.4929554673
 20
6.5220890368
 11
8.5003929655
 21
6.5332452868
  0
LINE
  5
335
100
AcDbEntity
  8
03__ASM_ALL_CURVES
100
AcDbLine
 62
4
  6
CONTINUOUS
 10
11.9432679673
 20
11.4334484118
 11
11.9376898423
 21
11.4260109136
  0
LINE
  5
336
100
AcDbEntity
  8
03__ASM_ALL_CURVES
100
AcDbLine
 62
4
  6
CONTINUOUS
 10
12.1050335923
 20
11.5993859122
 11
12.0938773423
 21
11.5845109118
  0
LINE
  5
337
100
AcDbEntity
  8
03__ASM_ALL_CURVES
100
AcDbLine
 62
4
  6
CONTINUOUS
 10
11.9488460923
 20
11.3888234118
 11
11.9376898423
 21
11.373948412
  0
LINE
  5
338
100
AcDbEntity
  8
03__ASM_ALL_CURVES
100
AcDbLine
 62
4
  6
CONTINUOUS
 10
12.1050335923
 20
11.3813859122
 11
12.0938773423
 21
11.3665109118
  0
LINE
  5
339
100
AcDbEntity
  8
0
100
AcDbLine
 62
7
  6
CONTINUOUS
 10
9.4095828632
 20
9.2541359118
 11
9.6655780715
 21
9.2541359118
  0
LINE
  5
33A
100
AcDbEntity
  8
03__ASM_ALL_CURVES
100
AcDbLine
 62
4
  6
CONTINUOUS
 10
11.9209554673
 20
8.0487609118
 11
11.9321117173
 21
8.0413234136
  0
LINE
  5
33B
100
AcDbEntity
  8
03__ASM_ALL_CURVES
100
AcDbLine
 62
4
  6
CONTINUOUS
 10
12.0046273423
 20
8.01157341
 11
11.9934710923
 21
8.0190109136
  0
LINE
  5
33C
100
AcDbEntity
  8
03__ASM_ALL_CURVES
100
AcDbLine
 62
4
  6
CONTINUOUS
 10
12.0157835923
 20
8.01157341
 11
12.0269398423
 21
8.0041359118
  0
LINE
  5
33D
100
AcDbEntity
  8
03__ASM_ALL_CURVES
100
AcDbLine
 62
4
  6
CONTINUOUS
 10
11.1177054673
 20
8.6427609118
 11
11.1288617173
 21
8.6353234136
  0
LINE
  5
33E
100
AcDbEntity
  8
03__ASM_ALL_CURVES
100
AcDbLine
 62
4
  6
CONTINUOUS
 10
12.0157835923
 20
8.0487609118
 11
12.0269398423
 21
8.0413234136
  0
LINE
  5
33F
100
AcDbEntity
  8
03__ASM_ALL_CURVES
100
AcDbLine
 62
4
  6
CONTINUOUS
 10
11.2209007798
 20
7.9706671621
 11
11.2292679673
 21
7.9595109118
  0
LINE
  5
340
100
AcDbEntity
  8
03__ASM_ALL_CURVES
100
AcDbLine
 62
4
  6
CONTINUOUS
 10
11.2794710923
 20
7.966948412
 11
11.2738929673
 21
7.9743859122
  0
LINE
  5
341
100
AcDbEntity
  8
03__ASM_ALL_CURVES
100
AcDbLine
 62
4
  6
CONTINUOUS
 10
11.3129398423
 20
8.01157341
 11
11.3185179673
 21
8.0041359118
  0
LINE
  5
342
100
AcDbEntity
  8
03__ASM_ALL_CURVES
100
AcDbLine
 62
4
  6
CONTINUOUS
 10
11.3742992173
 20
7.966948412
 11
11.3687210923
 21
7.9743859122
  0
LINE
  5
343
100
AcDbEntity
  8
03__ASM_ALL_CURVES
100
AcDbLine
 62
4
  6
CONTINUOUS
 10
11.3966117173
 20
8.0413234136
 11
11.4021898423
 21
8.03388591
  0
LINE
  5
344
100
AcDbEntity
  8
03__ASM_ALL_CURVES
100
AcDbLine
 62
4
  6
CONTINUOUS
 10
11.1009710923
 20
11.3888234118
 11
11.0953929673
 21
11.3665109118
  0
LINE
  5
345
100
AcDbEntity
  8
03__ASM_ALL_CURVES
100
AcDbLine
 62
4
  6
CONTINUOUS
 10
11.3687210923
 20
12.2008234118
 11
11.3631429673
 21
12.1785109118
  0
LINE
  5
346
100
AcDbEntity
  8
03__ASM_ALL_CURVES
100
AcDbLine
 62
4
  6
CONTINUOUS
 10
11.5583773423
 20
12.25288591
 11
11.5527992173
 21
12.23057341
  0
LINE
  5
347
100
AcDbEntity
  8
03__ASM_ALL_CURVES
100
AcDbLine
 62
4
  6
CONTINUOUS
 10
11.6643617173
 20
11.6440109136
 11
11.6755179673
 21
11.6737609118
  0
LINE
  5
348
100
AcDbEntity
  8
03__ASM_ALL_CURVES
100
AcDbLine
 62
4
  6
CONTINUOUS
 10
11.8986429673
 20
12.2380109136
 11
11.9042210923
 21
12.25288591
  0
LINE
  5
349
100
AcDbEntity
  8
03__ASM_ALL_CURVES
100
AcDbLine
 62
4
  6
CONTINUOUS
 10
11.7201429673
 20
11.6440109136
 11
11.7257210923
 21
11.65888591
  0
LINE
  5
34A
100
AcDbEntity
  8
03__ASM_ALL_CURVES
100
AcDbLine
 62
4
  6
CONTINUOUS
 10
11.9432679673
 20
12.2380109136
 11
11.9376898423
 21
12.2231359118
  0
LINE
  5
34B
100
AcDbEntity
  8
03__ASM_ALL_CURVES
100
AcDbLine
 62
4
  6
CONTINUOUS
 10
12.2835335923
 20
11.4557609118
 11
12.2723773423
 21
11.44088591
  0
LINE
  5
34C
100
AcDbEntity
  8
03__ASM_ALL_CURVES
100
AcDbLine
 62
4
  6
CONTINUOUS
 10
12.4397210923
 20
11.4483234136
 11
12.4341429673
 21
11.44088591
  0
LINE
  5
34D
100
AcDbEntity
  8
03__ASM_ALL_CURVES
100
AcDbLine
 62
4
  6
CONTINUOUS
 10
12.4787679673
 20
11.3813859122
 11
12.4731898423
 21
11.373948412
  0
LINE
  5
34E
100
AcDbEntity
  8
03__ASM_ALL_CURVES
100
AcDbLine
 62
4
  6
CONTINUOUS
 10
11.1065492173
 20
9.5413234136
 11
11.1177054673
 21
9.5487609118
  0
LINE
  5
34F
100
AcDbEntity
  8
03__ASM_ALL_CURVES
100
AcDbLine
 62
4
  6
CONTINUOUS
 10
11.1288617173
 20
9.466948412
 11
11.1177054673
 21
9.4595109118
  0
LINE
  5
350
100
AcDbEntity
  8
03__ASM_ALL_CURVES
100
AcDbLine
 62
4
  6
CONTINUOUS
 10
11.2850492173
 20
9.5413234136
 11
11.2962054673
 21
9.5487609118
  0
LINE
  5
351
100
AcDbEntity
  8
03__ASM_ALL_CURVES
100
AcDbLine
 62
4
  6
CONTINUOUS
 10
11.3742992173
 20
9.5413234136
 11
11.3854554673
 21
9.5487609118
  0
LINE
  5
352
100
AcDbEntity
  8
03__ASM_ALL_CURVES
100
AcDbLine
 62
4
  6
CONTINUOUS
 10
11.3073617173
 20
9.466948412
 11
11.2962054673
 21
9.4595109118
  0
LINE
  5
353
100
AcDbEntity
  8
03__ASM_ALL_CURVES
100
AcDbLine
 62
4
  6
CONTINUOUS
 10
11.3129398423
 20
9.5041359118
 11
11.2962054673
 21
9.4966984109
  0
LINE
  5
354
100
AcDbEntity
  8
0
100
AcDbLine
 62
7
  6
CONTINUOUS
 10
9.8091369533
 20
9.4321359118
 11
9.2660239814
 21
9.4321359118
  0
LINE
  5
355
100
AcDbEntity
  8
0
100
AcDbLine
 62
7
  6
CONTINUOUS
 10
9.8115141356
 20
9.4421359118
 11
9.263646799
 21
9.4421359118
  0
LINE
  5
356
100
AcDbEntity
  8
03__ASM_ALL_CURVES
100
AcDbLine
 62
4
  6
CONTINUOUS
 10
11.9265335923
 20
9.4595109118
 11
11.9153773423
 21
9.4595109118
  0
LINE
  5
357
100
AcDbEntity
  8
03__ASM_ALL_CURVES
100
AcDbLine
 62
4
  6
CONTINUOUS
 10
11.8540179673
 20
9.4595109118
 11
11.8456507798
 21
9.4595109118
  0
LINE
  5
358
100
AcDbEntity
  8
03__ASM_ALL_CURVES
100
AcDbLine
 62
4
  6
CONTINUOUS
 10
11.2292679673
 20
9.4595109118
 11
11.2209007798
 21
9.4595109118
  0
LINE
  5
359
100
AcDbEntity
  8
03__ASM_ALL_CURVES
100
AcDbLine
 62
4
  6
CONTINUOUS
 10
11.6308929673
 20
9.4595109118
 11
11.6755179673
 21
9.4595109118
  0
LINE
  5
35A
100
AcDbEntity
  8
03__ASM_ALL_CURVES
100
AcDbLine
 62
4
  6
CONTINUOUS
 10
11.7201429673
 20
9.4595109118
 11
11.7647679673
 21
9.4595109118
  0
LINE
  5
35B
100
AcDbEntity
  8
03__ASM_ALL_CURVES
100
AcDbLine
 62
4
  6
CONTINUOUS
 10
10.6268304673
 20
9.5041359118
 11
10.8945804673
 21
9.5041359118
  0
LINE
  5
35C
100
AcDbEntity
  8
03__ASM_ALL_CURVES
100
AcDbLine
 62
4
  6
CONTINUOUS
 10
11.1065492173
 20
8.560948412
 11
11.1009710923
 21
8.5683859122
  0
LINE
  5
35D
100
AcDbEntity
  8
03__ASM_ALL_CURVES
100
AcDbLine
 62
4
  6
CONTINUOUS
 10
11.5583773423
 20
7.9743859122
 11
11.5695335923
 21
7.9595109118
  0
LINE
  5
35E
100
AcDbEntity
  8
03__ASM_ALL_CURVES
100
AcDbLine
 62
4
  6
CONTINUOUS
 10
11.1288617173
 20
8.6353234136
 11
11.1344398423
 21
8.62788591
  0
LINE
  5
35F
100
AcDbEntity
  8
03__ASM_ALL_CURVES
100
AcDbLine
 62
4
  6
CONTINUOUS
 10
11.1009710923
 20
7.9743859122
 11
11.0953929673
 21
7.9892609127
  0
LINE
  5
360
100
AcDbEntity
  8
03__ASM_ALL_CURVES
100
AcDbLine
 62
4
  6
CONTINUOUS
 10
11.1344398423
 20
8.03388591
 11
11.1400179673
 21
8.0190109136
  0
LINE
  5
361
100
AcDbEntity
  8
03__ASM_ALL_CURVES
100
AcDbLine
 62
4
  6
CONTINUOUS
 10
11.5583773423
 20
11.65888591
 11
11.5527992173
 21
11.63657341
  0
LINE
  5
362
100
AcDbEntity
  8
03__ASM_ALL_CURVES
100
AcDbLine
 62
4
  6
CONTINUOUS
 10
11.5583773423
 20
11.44088591
 11
11.5527992173
 21
11.41857341
  0
LINE
  5
363
100
AcDbEntity
  8
03__ASM_ALL_CURVES
100
AcDbLine
 62
4
  6
CONTINUOUS
 10
11.6587835923
 20
11.6216984109
 11
11.6643617173
 21
11.6440109136
  0
LINE
  5
364
100
AcDbEntity
  8
03__ASM_ALL_CURVES
100
AcDbLine
 62
4
  6
CONTINUOUS
 10
11.7201429673
 20
11.6142609127
 11
11.7257210923
 21
11.6291359118
  0
LINE
  5
365
100
AcDbEntity
  8
03__ASM_ALL_CURVES
100
AcDbLine
 62
4
  6
CONTINUOUS
 10
11.9432679673
 20
12.2082609127
 11
11.9376898423
 21
12.1933859122
  0
LINE
  5
366
100
AcDbEntity
  8
03__ASM_ALL_CURVES
100
AcDbLine
 62
4
  6
CONTINUOUS
 10
11.6643617173
 20
11.4260109136
 11
11.6755179673
 21
11.4557609118
  0
LINE
  5
367
100
AcDbEntity
  8
03__ASM_ALL_CURVES
100
AcDbLine
 62
4
  6
CONTINUOUS
 10
11.7647679673
 20
11.6142609127
 11
11.7591898423
 21
11.5993859122
  0
LINE
  5
368
100
AcDbEntity
  8
03__ASM_ALL_CURVES
100
AcDbLine
 62
4
  6
CONTINUOUS
 10
11.0953929673
 20
9.5190109136
 11
11.1009710923
 21
9.53388591
  0
LINE
  5
369
100
AcDbEntity
  8
03__ASM_ALL_CURVES
100
AcDbLine
 62
4
  6
CONTINUOUS
 10
11.8986429673
 20
11.6440109136
 11
11.9042210923
 21
11.65888591
  0
LINE
  5
36A
100
AcDbEntity
  8
03__ASM_ALL_CURVES
100
AcDbLine
 62
4
  6
CONTINUOUS
 10
11.9432679673
 20
11.6440109136
 11
11.9376898423
 21
11.6291359118
  0
LINE
  5
36B
100
AcDbEntity
  8
03__ASM_ALL_CURVES
100
AcDbLine
 62
4
  6
CONTINUOUS
 10
11.1400179673
 20
9.4892609127
 11
11.1344398423
 21
9.4743859122
  0
LINE
  5
36C
100
AcDbEntity
  8
03__ASM_ALL_CURVES
100
AcDbLine
 62
4
  6
CONTINUOUS
 10
11.9432679673
 20
11.6142609127
 11
11.9376898423
 21
11.5993859122
  0
LINE
  5
36D
100
AcDbEntity
  8
03__ASM_ALL_CURVES
100
AcDbLine
 62
4
  6
CONTINUOUS
 10
9.5227054655
 20
7.0575890368
 11
9.5301429691
 21
7.0687452868
  0
LINE
  5
36E
100
AcDbEntity
  8
03__ASM_ALL_CURVES
100
AcDbLine
 62
4
  6
CONTINUOUS
 10
9.4929554673
 20
6.9683390368
 11
9.5003929655
 21
6.9794952868
  0
LINE
  5
36F
100
AcDbEntity
  8
03__ASM_ALL_CURVES
100
AcDbLine
 62
4
  6
CONTINUOUS
 10
9.5822054673
 20
7.0464327868
 11
9.5747679671
 21
7.0352765368
  0
LINE
  5
370
100
AcDbEntity
  8
03__ASM_ALL_CURVES
100
AcDbLine
 62
4
  6
CONTINUOUS
 10
11.1009710923
 20
9.53388591
 11
11.1065492173
 21
9.5413234136
  0
LINE
  5
371
100
AcDbEntity
  8
03__ASM_ALL_CURVES
100
AcDbLine
 62
4
  6
CONTINUOUS
 10
12.5512835923
 20
11.3813859122
 11
12.5401273423
 21
11.3665109118
  0
LINE
  5
372
100
AcDbEntity
  8
03__ASM_ALL_CURVES
100
AcDbLine
 62
4
  6
CONTINUOUS
 10
11.1344398423
 20
9.4743859122
 11
11.1288617173
 21
9.466948412
  0
LINE
  5
373
100
AcDbEntity
  8
03__ASM_ALL_CURVES
100
AcDbLine
 62
4
  6
CONTINUOUS
 10
11.2794710923
 20
9.53388591
 11
11.2850492173
 21
9.5413234136
  0
LINE
  5
374
100
AcDbEntity
  8
03__ASM_ALL_CURVES
100
AcDbLine
 62
4
  6
CONTINUOUS
 10
11.3129398423
 20
9.4743859122
 11
11.3073617173
 21
9.466948412
  0
LINE
  5
375
100
AcDbEntity
  8
03__ASM_ALL_CURVES
100
AcDbLine
 62
4
  6
CONTINUOUS
 10
11.3687210923
 20
9.53388591
 11
11.3742992173
 21
9.5413234136
  0
LINE
  5
376
100
AcDbEntity
  8
03__ASM_ALL_CURVES
100
AcDbLine
 62
4
  6
CONTINUOUS
 10
8.4929554673
 20
7.3141827868
 11
8.5078304691
 21
7.3253390368
  0
LINE
  5
377
100
AcDbEntity
  8
03__ASM_ALL_CURVES
100
AcDbLine
 62
4
  6
CONTINUOUS
 10
8.5003929655
 20
7.2472452868
 11
8.5078304691
 21
7.2528234118
  0
LINE
  5
378
100
AcDbEntity
  8
03__ASM_ALL_CURVES
100
AcDbLine
 62
4
  6
CONTINUOUS
 10
8.5375804673
 20
7.2472452868
 11
8.5524554664
 21
7.2584015368
  0
LINE
  5
379
100
AcDbEntity
  8
03__ASM_ALL_CURVES
100
AcDbLine
 62
4
  6
CONTINUOUS
 10
8.5227054655
 20
7.2137765368
 11
8.5152679673
 21
7.2081984118
  0
LINE
  5
37A
100
AcDbEntity
  8
03__ASM_ALL_CURVES
100
AcDbLine
 62
4
  6
CONTINUOUS
 10
8.5747679671
 20
7.2137765368
 11
8.5598929673
 21
7.2026202868
  0
LINE
  5
37B
100
AcDbEntity
  8
03__ASM_ALL_CURVES
100
AcDbLine
 62
4
  6
CONTINUOUS
 10
8.571049217
 20
7.1552062243
 11
8.5822054673
 21
7.1635734118
  0
LINE
  5
37C
100
AcDbEntity
  8
03__ASM_ALL_CURVES
100
AcDbLine
 62
4
  6
CONTINUOUS
 10
8.5003929655
 20
7.0631671618
 11
8.5078304691
 21
7.0687452868
  0
LINE
  5
37D
100
AcDbEntity
  8
03__ASM_ALL_CURVES
100
AcDbLine
 62
4
  6
CONTINUOUS
 10
11.3966117173
 20
9.466948412
 11
11.3854554673
 21
9.4595109118
  0
LINE
  5
37E
100
AcDbEntity
  8
03__ASM_ALL_CURVES
100
AcDbLine
 62
4
  6
CONTINUOUS
 10
11.6364710923
 20
9.5413234136
 11
11.6476273423
 21
9.5487609118
  0
LINE
  5
37F
100
AcDbEntity
  8
03__ASM_ALL_CURVES
100
AcDbLine
 62
4
  6
CONTINUOUS
 10
11.6699398423
 20
9.51157341
 11
11.6476273423
 21
9.4966984109
  0
LINE
  5
380
100
AcDbEntity
  8
03__ASM_ALL_CURVES
100
AcDbLine
 62
4
  6
CONTINUOUS
 10
11.7257210923
 20
9.5413234136
 11
11.7368773423
 21
9.5487609118
  0
LINE
  5
381
100
AcDbEntity
  8
03__ASM_ALL_CURVES
100
AcDbLine
 62
4
  6
CONTINUOUS
 10
11.7591898423
 20
9.51157341
 11
11.7368773423
 21
9.4966984109
  0
LINE
  5
382
100
AcDbEntity
  8
03__ASM_ALL_CURVES
100
AcDbLine
 62
4
  6
CONTINUOUS
 10
11.9042210923
 20
9.5413234136
 11
11.9153773423
 21
9.5487609118
  0
LINE
  5
383
100
AcDbEntity
  8
03__ASM_ALL_CURVES
100
AcDbLine
 62
4
  6
CONTINUOUS
 10
11.9934710923
 20
9.5041359118
 11
12.0102054673
 21
9.51157341
  0
LINE
  5
384
100
AcDbEntity
  8
03__ASM_ALL_CURVES
100
AcDbLine
 62
4
  6
CONTINUOUS
 10
11.9153773423
 20
9.51157341
 11
11.9265335923
 21
9.51157341
  0
LINE
  5
385
100
AcDbEntity
  8
03__ASM_ALL_CURVES
100
AcDbLine
 62
4
  6
CONTINUOUS
 10
11.6476273423
 20
9.5487609118
 11
11.6587835923
 21
9.5487609118
  0
LINE
  5
386
100
AcDbEntity
  8
03__ASM_ALL_CURVES
100
AcDbLine
 62
4
  6
CONTINUOUS
 10
11.7368773423
 20
9.5487609118
 11
11.7480335923
 21
9.5487609118
  0
LINE
  5
387
100
AcDbEntity
  8
03__ASM_ALL_CURVES
100
AcDbLine
 62
4
  6
CONTINUOUS
 10
11.9153773423
 20
9.5487609118
 11
11.9265335923
 21
9.5487609118
  0
LINE
  5
388
100
AcDbEntity
  8
03__ASM_ALL_CURVES
100
AcDbLine
 62
4
  6
CONTINUOUS
 10
11.1177054673
 20
9.4595109118
 11
11.1065492173
 21
9.466948412
  0
LINE
  5
389
100
AcDbEntity
  8
03__ASM_ALL_CURVES
100
AcDbLine
 62
4
  6
CONTINUOUS
 10
11.8456507798
 20
7.9706671621
 11
11.8540179673
 21
7.9595109118
  0
LINE
  5
38A
100
AcDbEntity
  8
03__ASM_ALL_CURVES
100
AcDbLine
 62
4
  6
CONTINUOUS
 10
11.9097992173
 20
7.966948412
 11
11.9042210923
 21
7.9743859122
  0
LINE
  5
38B
100
AcDbEntity
  8
03__ASM_ALL_CURVES
100
AcDbLine
 62
4
  6
CONTINUOUS
 10
11.9321117173
 20
8.0413234136
 11
11.9376898423
 21
8.03388591
  0
LINE
  5
38C
100
AcDbEntity
  8
03__ASM_ALL_CURVES
100
AcDbLine
 62
4
  6
CONTINUOUS
 10
11.9934710923
 20
7.966948412
 11
11.9823148423
 21
7.9818234118
  0
LINE
  5
38D
100
AcDbEntity
  8
03__ASM_ALL_CURVES
100
AcDbLine
 62
4
  6
CONTINUOUS
 10
11.9934710923
 20
8.0190109136
 11
11.9878929673
 21
8.0264484118
  0
LINE
  5
38E
100
AcDbEntity
  8
03__ASM_ALL_CURVES
100
AcDbLine
 62
4
  6
CONTINUOUS
 10
12.0269398423
 20
8.0041359118
 11
12.0380960923
 21
7.9892609127
  0
LINE
  5
38F
100
AcDbEntity
  8
03__ASM_ALL_CURVES
100
AcDbLine
 62
4
  6
CONTINUOUS
 10
12.0269398423
 20
8.0413234136
 11
12.0325179673
 21
8.03388591
  0
LINE
  5
390
100
AcDbEntity
  8
03__ASM_ALL_CURVES
100
AcDbLine
 62
4
  6
CONTINUOUS
 10
11.1009710923
 20
8.5683859122
 11
11.0953929673
 21
8.5832609127
  0
LINE
  5
391
100
AcDbEntity
  8
03__ASM_ALL_CURVES
100
AcDbLine
 62
4
  6
CONTINUOUS
 10
11.3185179673
 20
8.0041359118
 11
11.3240960923
 21
7.9892609127
  0
LINE
  5
392
100
AcDbEntity
  8
03__ASM_ALL_CURVES
100
AcDbLine
 62
4
  6
CONTINUOUS
 10
11.1344398423
 20
8.62788591
 11
11.1400179673
 21
8.6130109136
  0
LINE
  5
393
100
AcDbEntity
  8
03__ASM_ALL_CURVES
100
AcDbLine
 62
4
  6
CONTINUOUS
 10
11.3687210923
 20
8.0041359118
 11
11.3631429673
 21
8.0190109136
  0
LINE
  5
394
100
AcDbEntity
  8
03__ASM_ALL_CURVES
100
AcDbLine
 62
4
  6
CONTINUOUS
 10
11.4021898423
 20
8.03388591
 11
11.4077679673
 21
8.0190109136
  0
LINE
  5
395
100
AcDbEntity
  8
03__ASM_ALL_CURVES
100
AcDbLine
 62
4
  6
CONTINUOUS
 10
11.0953929673
 20
7.9892609127
 11
11.0953929673
 21
8.0190109136
  0
LINE
  5
396
100
AcDbEntity
  8
03__ASM_ALL_CURVES
100
AcDbLine
 62
4
  6
CONTINUOUS
 10
11.0953929673
 20
8.5832609127
 11
11.0953929673
 21
8.6130109136
  0
LINE
  5
397
100
AcDbEntity
  8
03__ASM_ALL_CURVES
100
AcDbLine
 62
4
  6
CONTINUOUS
 10
11.0953929673
 20
9.4892609127
 11
11.0953929673
 21
9.5190109136
  0
LINE
  5
398
100
AcDbEntity
  8
03__ASM_ALL_CURVES
100
AcDbLine
 62
4
  6
CONTINUOUS
 10
11.1400179673
 20
12.25288591
 11
11.1400179673
 21
12.2454484118
  0
LINE
  5
399
100
AcDbEntity
  8
03__ASM_ALL_CURVES
100
AcDbLine
 62
4
  6
CONTINUOUS
 10
11.1400179673
 20
11.65888591
 11
11.1400179673
 21
11.6514484118
  0
LINE
  5
39A
100
AcDbEntity
  8
03__ASM_ALL_CURVES
100
AcDbLine
 62
4
  6
CONTINUOUS
 10
11.1400179673
 20
11.44088591
 11
11.1400179673
 21
11.4260109136
  0
LINE
  5
39B
100
AcDbEntity
  8
03__ASM_ALL_CURVES
100
AcDbLine
 62
4
  6
CONTINUOUS
 10
11.1400179673
 20
9.5190109136
 11
11.1400179673
 21
9.4892609127
  0
LINE
  5
39C
100
AcDbEntity
  8
03__ASM_ALL_CURVES
100
AcDbLine
 62
4
  6
CONTINUOUS
 10
11.1400179673
 20
8.6130109136
 11
11.1400179673
 21
8.5832609127
  0
LINE
  5
39D
100
AcDbEntity
  8
03__ASM_ALL_CURVES
100
AcDbLine
 62
4
  6
CONTINUOUS
 10
11.1400179673
 20
8.0190109136
 11
11.1400179673
 21
7.9892609127
  0
LINE
  5
39E
100
AcDbEntity
  8
03__ASM_ALL_CURVES
100
AcDbLine
 62
4
  6
CONTINUOUS
 10
11.1455960923
 20
12.2082609127
 11
11.1455960923
 21
12.2008234118
  0
LINE
  5
39F
100
AcDbEntity
  8
03__ASM_ALL_CURVES
100
AcDbLine
 62
4
  6
CONTINUOUS
 10
11.1455960923
 20
11.6142609127
 11
11.1455960923
 21
11.6068234118
  0
LINE
  5
3A0
100
AcDbEntity
  8
03__ASM_ALL_CURVES
100
AcDbLine
 62
4
  6
CONTINUOUS
 10
11.2209007798
 20
7.9595109118
 11
11.2209007798
 21
7.9706671621
  0
LINE
  5
3A1
100
AcDbEntity
  8
03__ASM_ALL_CURVES
100
AcDbLine
 62
4
  6
CONTINUOUS
 10
11.2209007798
 20
9.4595109118
 11
11.2209007798
 21
9.4706671621
  0
LINE
  5
3A2
100
AcDbEntity
  8
03__ASM_ALL_CURVES
100
AcDbLine
 62
4
  6
CONTINUOUS
 10
11.2209007798
 20
11.3665109118
 11
11.2209007798
 21
11.3776671621
  0
LINE
  5
3A3
100
AcDbEntity
  8
03__ASM_ALL_CURVES
100
AcDbLine
 62
4
  6
CONTINUOUS
 10
11.2209007798
 20
11.5845109118
 11
11.2209007798
 21
11.5956671621
  0
LINE
  5
3A4
100
AcDbEntity
  8
03__ASM_ALL_CURVES
100
AcDbLine
 62
4
  6
CONTINUOUS
 10
11.2209007798
 20
12.1785109118
 11
11.2209007798
 21
12.1896671621
  0
LINE
  5
3A5
100
AcDbEntity
  8
03__ASM_ALL_CURVES
100
AcDbLine
 62
4
  6
CONTINUOUS
 10
11.2683148423
 20
11.3888234118
 11
11.2683148423
 21
11.3962609127
  0
LINE
  5
3A6
100
AcDbEntity
  8
03__ASM_ALL_CURVES
100
AcDbLine
 62
4
  6
CONTINUOUS
 10
11.2738929673
 20
11.4334484118
 11
11.2738929673
 21
11.44088591
  0
LINE
  5
3A7
100
AcDbEntity
  8
03__ASM_ALL_CURVES
100
AcDbLine
 62
4
  6
CONTINUOUS
 10
11.2738929673
 20
11.6142609127
 11
11.2738929673
 21
11.6440109136
  0
LINE
  5
3A8
100
AcDbEntity
  8
03__ASM_ALL_CURVES
100
AcDbLine
 62
4
  6
CONTINUOUS
 10
11.2738929673
 20
12.2082609127
 11
11.2738929673
 21
12.2380109136
  0
LINE
  5
3A9
100
AcDbEntity
  8
03__ASM_ALL_CURVES
100
AcDbLine
 62
4
  6
CONTINUOUS
 10
11.6587835923
 20
11.4036984109
 11
11.6643617173
 21
11.4260109136
  0
LINE
  5
3AA
100
AcDbEntity
  8
03__ASM_ALL_CURVES
100
AcDbLine
 62
4
  6
CONTINUOUS
 10
11.9878929673
 20
11.6440109136
 11
11.9934710923
 21
11.65888591
  0
LINE
  5
3AB
100
AcDbEntity
  8
03__ASM_ALL_CURVES
100
AcDbLine
 62
4
  6
CONTINUOUS
 10
11.9878929673
 20
11.6142609127
 11
11.9934710923
 21
11.6291359118
  0
LINE
  5
3AC
100
AcDbEntity
  8
03__ASM_ALL_CURVES
100
AcDbLine
 62
4
  6
CONTINUOUS
 10
12.0325179673
 20
11.6142609127
 11
12.0269398423
 21
11.5993859122
  0
LINE
  5
3AD
100
AcDbEntity
  8
03__ASM_ALL_CURVES
100
AcDbLine
 62
4
  6
CONTINUOUS
 10
11.2738929673
 20
9.5190109136
 11
11.2794710923
 21
9.53388591
  0
LINE
  5
3AE
100
AcDbEntity
  8
03__ASM_ALL_CURVES
100
AcDbLine
 62
4
  6
CONTINUOUS
 10
12.0213617173
 20
11.4260109136
 11
12.0325179673
 21
11.4557609118
  0
LINE
  5
3AF
100
AcDbEntity
  8
03__ASM_ALL_CURVES
100
AcDbLine
 62
4
  6
CONTINUOUS
 10
11.3185179673
 20
9.5190109136
 11
11.3129398423
 21
9.5041359118
  0
LINE
  5
3B0
100
AcDbEntity
  8
03__ASM_ALL_CURVES
100
AcDbLine
 62
4
  6
CONTINUOUS
 10
11.3185179673
 20
9.4892609127
 11
11.3129398423
 21
9.4743859122
  0
LINE
  5
3B1
100
AcDbEntity
  8
03__ASM_ALL_CURVES
100
AcDbLine
 62
4
  6
CONTINUOUS
 10
11.3631429673
 20
9.5190109136
 11
11.3687210923
 21
9.53388591
  0
LINE
  5
3B2
100
AcDbEntity
  8
03__ASM_ALL_CURVES
100
AcDbLine
 62
4
  6
CONTINUOUS
 10
11.4077679673
 20
9.4892609127
 11
11.4021898423
 21
9.4743859122
  0
LINE
  5
3B3
100
AcDbEntity
  8
03__ASM_ALL_CURVES
100
AcDbLine
 62
4
  6
CONTINUOUS
 10
11.0953929673
 20
8.6130109136
 11
11.1009710923
 21
8.62788591
  0
LINE
  5
3B4
100
AcDbEntity
  8
03__ASM_ALL_CURVES
100
AcDbLine
 62
4
  6
CONTINUOUS
 10
9.4929554673
 20
6.6950109118
 11
9.5003929655
 21
6.7061671618
  0
LINE
  5
3B5
100
AcDbEntity
  8
03__ASM_ALL_CURVES
100
AcDbLine
 62
4
  6
CONTINUOUS
 10
9.5822054673
 20
6.6950109118
 11
9.5747679671
 21
6.6838546618
  0
LINE
  5
3B6
100
AcDbEntity
  8
03__ASM_ALL_CURVES
100
AcDbLine
 62
4
  6
CONTINUOUS
 10
10.4929554673
 20
8.0180109118
 11
10.5003929655
 21
8.0291671618
  0
LINE
  5
3B7
100
AcDbEntity
  8
03__ASM_ALL_CURVES
100
AcDbLine
 62
4
  6
CONTINUOUS
 10
10.5822054673
 20
8.0180109118
 11
10.5747679671
 21
8.0068546618
  0
LINE
  5
3B8
100
AcDbEntity
  8
03__ASM_ALL_CURVES
100
AcDbLine
 62
4
  6
CONTINUOUS
 10
11.4021898423
 20
9.4743859122
 11
11.3966117173
 21
9.466948412
  0
LINE
  5
3B9
100
AcDbEntity
  8
03__ASM_ALL_CURVES
100
AcDbLine
 62
4
  6
CONTINUOUS
 10
11.5695335923
 20
9.5487609118
 11
11.5583773423
 21
9.53388591
  0
LINE
  5
3BA
100
AcDbEntity
  8
03__ASM_ALL_CURVES
100
AcDbLine
 62
4
  6
CONTINUOUS
 10
11.6308929673
 20
9.53388591
 11
11.6364710923
 21
9.5413234136
  0
LINE
  5
3BB
100
AcDbEntity
  8
03__ASM_ALL_CURVES
100
AcDbLine
 62
4
  6
CONTINUOUS
 10
11.6476273423
 20
9.4966984109
 11
11.6364710923
 21
9.4818234118
  0
LINE
  5
3BC
100
AcDbEntity
  8
03__ASM_ALL_CURVES
100
AcDbLine
 62
4
  6
CONTINUOUS
 10
11.6755179673
 20
9.5190109136
 11
11.6699398423
 21
9.51157341
  0
LINE
  5
3BD
100
AcDbEntity
  8
03__ASM_ALL_CURVES
100
AcDbLine
 62
4
  6
CONTINUOUS
 10
8.5747679671
 20
7.0408546618
 11
8.5673304669
 21
7.0352765368
  0
LINE
  5
3BE
100
AcDbEntity
  8
03__ASM_ALL_CURVES
100
AcDbLine
 62
4
  6
CONTINUOUS
 10
8.5301429691
 20
6.9794952868
 11
8.5375804673
 21
6.9850734118
  0
LINE
  5
3BF
100
AcDbEntity
  8
03__ASM_ALL_CURVES
100
AcDbLine
 62
4
  6
CONTINUOUS
 10
8.5747679671
 20
6.9460265368
 11
8.5673304669
 21
6.9404484118
  0
LINE
  5
3C0
100
AcDbEntity
  8
03__ASM_ALL_CURVES
100
AcDbLine
 62
4
  6
CONTINUOUS
 10
8.5673304669
 20
6.8679327868
 11
8.5822054673
 21
6.8790890368
  0
LINE
  5
3C1
100
AcDbEntity
  8
03__ASM_ALL_CURVES
100
AcDbLine
 62
4
  6
CONTINUOUS
 10
11.9042210923
 20
9.5041359118
 11
11.9153773423
 21
9.51157341
  0
LINE
  5
3C2
100
AcDbEntity
  8
03__ASM_ALL_CURVES
100
AcDbLine
 62
4
  6
CONTINUOUS
 10
11.9376898423
 20
9.5190109136
 11
11.9265335923
 21
9.51157341
  0
LINE
  5
3C3
100
AcDbEntity
  8
03__ASM_ALL_CURVES
100
AcDbLine
 62
4
  6
CONTINUOUS
 10
11.9990492173
 20
9.5413234136
 11
12.0102054673
 21
9.5487609118
  0
LINE
  5
3C4
100
AcDbEntity
  8
03__ASM_ALL_CURVES
100
AcDbLine
 62
4
  6
CONTINUOUS
 10
11.9376898423
 20
9.466948412
 11
11.9265335923
 21
9.4595109118
  0
LINE
  5
3C5
100
AcDbEntity
  8
03__ASM_ALL_CURVES
100
AcDbLine
 62
4
  6
CONTINUOUS
 10
12.0213617173
 20
9.466948412
 11
12.0102054673
 21
9.4595109118
  0
LINE
  5
3C6
100
AcDbEntity
  8
03__ASM_ALL_CURVES
100
AcDbLine
 62
4
  6
CONTINUOUS
 10
11.2962054673
 20
9.4966984109
 11
11.2794710923
 21
9.5041359118
  0
LINE
  5
3C7
100
AcDbEntity
  8
03__ASM_ALL_CURVES
100
AcDbLine
 62
4
  6
CONTINUOUS
 10
11.1177054673
 20
9.5487609118
 11
11.1288617173
 21
9.5413234136
  0
LINE
  5
3C8
100
AcDbEntity
  8
03__ASM_ALL_CURVES
100
AcDbLine
 62
4
  6
CONTINUOUS
 10
11.2962054673
 20
9.4595109118
 11
11.2850492173
 21
9.466948412
  0
LINE
  5
3C9
100
AcDbEntity
  8
03__ASM_ALL_CURVES
100
AcDbLine
 62
4
  6
CONTINUOUS
 10
11.3854554673
 20
9.4595109118
 11
11.3742992173
 21
9.466948412
  0
LINE
  5
3CA
100
AcDbEntity
  8
03__ASM_ALL_CURVES
100
AcDbLine
 62
4
  6
CONTINUOUS
 10
11.2962054673
 20
9.5487609118
 11
11.3073617173
 21
9.5413234136
  0
LINE
  5
3CB
100
AcDbEntity
  8
03__ASM_ALL_CURVES
100
AcDbLine
 62
4
  6
CONTINUOUS
 10
11.3854554673
 20
9.5487609118
 11
11.3966117173
 21
9.5413234136
  0
LINE
  5
3CC
100
AcDbEntity
  8
03__ASM_ALL_CURVES
100
AcDbLine
 62
4
  6
CONTINUOUS
 10
12.0938773423
 20
8.0487609118
 11
12.1050335923
 21
8.03388591
  0
LINE
  5
3CD
100
AcDbEntity
  8
03__ASM_ALL_CURVES
100
AcDbLine
 62
4
  6
CONTINUOUS
 10
11.1065492173
 20
9.466948412
 11
11.1009710923
 21
9.4743859122
  0
LINE
  5
3CE
100
AcDbEntity
  8
03__ASM_ALL_CURVES
100
AcDbLine
 62
4
  6
CONTINUOUS
 10
11.1288617173
 20
9.5413234136
 11
11.1344398423
 21
9.53388591
  0
LINE
  5
3CF
100
AcDbEntity
  8
03__ASM_ALL_CURVES
100
AcDbLine
 62
4
  6
CONTINUOUS
 10
11.2209007798
 20
9.4706671621
 11
11.2292679673
 21
9.4595109118
  0
LINE
  5
3D0
100
AcDbEntity
  8
03__ASM_ALL_CURVES
100
AcDbLine
 62
4
  6
CONTINUOUS
 10
11.2850492173
 20
9.466948412
 11
11.2794710923
 21
9.4743859122
  0
LINE
  5
3D1
100
AcDbEntity
  8
03__ASM_ALL_CURVES
100
AcDbLine
 62
4
  6
CONTINUOUS
 10
11.1009710923
 20
9.4743859122
 11
11.0953929673
 21
9.4892609127
  0
LINE
  5
3D2
100
AcDbEntity
  8
03__ASM_ALL_CURVES
100
AcDbLine
 62
4
  6
CONTINUOUS
 10
11.1344398423
 20
9.53388591
 11
11.1400179673
 21
9.5190109136
  0
LINE
  5
3D3
100
AcDbEntity
  8
03__ASM_ALL_CURVES
100
AcDbLine
 62
4
  6
CONTINUOUS
 10
11.5527992173
 20
7.9966984109
 11
11.5583773423
 21
7.9743859122
  0
LINE
  5
3D4
100
AcDbEntity
  8
03__ASM_ALL_CURVES
100
AcDbLine
 62
4
  6
CONTINUOUS
 10
11.3185179673
 20
11.6440109136
 11
11.3185179673
 21
11.6142609127
  0
LINE
  5
3D5
100
AcDbEntity
  8
03__ASM_ALL_CURVES
100
AcDbLine
 62
4
  6
CONTINUOUS
 10
11.3185179673
 20
11.44088591
 11
11.3185179673
 21
11.4334484118
  0
LINE
  5
3D6
100
AcDbEntity
  8
03__ASM_ALL_CURVES
100
AcDbLine
 62
4
  6
CONTINUOUS
 10
11.3185179673
 20
9.5190109136
 11
11.3185179673
 21
9.4892609127
  0
LINE
  5
3D7
100
AcDbEntity
  8
03__ASM_ALL_CURVES
100
AcDbLine
 62
4
  6
CONTINUOUS
 10
11.3240960923
 20
11.3962609127
 11
11.3240960923
 21
11.3888234118
  0
LINE
  5
3D8
100
AcDbEntity
  8
03__ASM_ALL_CURVES
100
AcDbLine
 62
4
  6
CONTINUOUS
 10
11.3631429673
 20
9.4892609127
 11
11.3631429673
 21
9.5190109136
  0
LINE
  5
3D9
100
AcDbEntity
  8
03__ASM_ALL_CURVES
100
AcDbLine
 62
4
  6
CONTINUOUS
 10
11.3854554673
 20
11.4557609118
 11
11.3854554673
 21
11.3665109118
  0
LINE
  5
3DA
100
AcDbEntity
  8
03__ASM_ALL_CURVES
100
AcDbLine
 62
4
  6
CONTINUOUS
 10
11.4077679673
 20
12.25288591
 11
11.4077679673
 21
12.2380109136
  0
LINE
  5
3DB
100
AcDbEntity
  8
03__ASM_ALL_CURVES
100
AcDbLine
 62
4
  6
CONTINUOUS
 10
11.4077679673
 20
11.65888591
 11
11.4077679673
 21
11.6514484118
  0
LINE
  5
3DC
100
AcDbEntity
  8
03__ASM_ALL_CURVES
100
AcDbLine
 62
4
  6
CONTINUOUS
 10
11.4077679673
 20
9.5190109136
 11
11.4077679673
 21
9.4892609127
  0
LINE
  5
3DD
100
AcDbEntity
  8
03__ASM_ALL_CURVES
100
AcDbLine
 62
4
  6
CONTINUOUS
 10
11.4077679673
 20
8.0190109136
 11
11.4077679673
 21
7.9892609127
  0
LINE
  5
3DE
100
AcDbEntity
  8
03__ASM_ALL_CURVES
100
AcDbLine
 62
4
  6
CONTINUOUS
 10
11.4133460923
 20
11.6142609127
 11
11.4133460923
 21
11.6068234118
  0
LINE
  5
3DF
100
AcDbEntity
  8
03__ASM_ALL_CURVES
100
AcDbLine
 62
4
  6
CONTINUOUS
 10
11.6532054673
 20
11.5845109118
 11
11.6587835923
 21
11.6216984109
  0
LINE
  5
3E0
100
AcDbEntity
  8
03__ASM_ALL_CURVES
100
AcDbLine
 62
4
  6
CONTINUOUS
 10
11.6532054673
 20
11.3665109118
 11
11.6587835923
 21
11.4036984109
  0
LINE
  5
3E1
100
AcDbEntity
  8
03__ASM_ALL_CURVES
100
AcDbLine
 62
4
  6
CONTINUOUS
 10
11.2850492173
 20
8.0487609118
 11
11.2794710923
 21
8.01157341
  0
LINE
  5
3E2
100
AcDbEntity
  8
03__ASM_ALL_CURVES
100
AcDbLine
 62
4
  6
CONTINUOUS
 10
12.1106117173
 20
12.2156984109
 11
12.1050335923
 21
12.1933859122
  0
LINE
  5
3E3
100
AcDbEntity
  8
03__ASM_ALL_CURVES
100
AcDbLine
 62
4
  6
CONTINUOUS
 10
12.0157835923
 20
11.4036984109
 11
12.0213617173
 21
11.4260109136
  0
LINE
  5
3E4
100
AcDbEntity
  8
03__ASM_ALL_CURVES
100
AcDbLine
 62
4
  6
CONTINUOUS
 10
11.5583773423
 20
9.53388591
 11
11.5527992173
 21
9.51157341
  0
LINE
  5
3E5
100
AcDbEntity
  8
03__ASM_ALL_CURVES
100
AcDbLine
 62
4
  6
CONTINUOUS
 10
12.1106117173
 20
11.6216984109
 11
12.1050335923
 21
11.5993859122
  0
LINE
  5
3E6
100
AcDbEntity
  8
03__ASM_ALL_CURVES
100
AcDbLine
 62
4
  6
CONTINUOUS
 10
11.1400179673
 20
8.5832609127
 11
11.1344398423
 21
8.5683859122
  0
LINE
  5
3E7
100
AcDbEntity
  8
03__ASM_ALL_CURVES
100
AcDbLine
 62
4
  6
CONTINUOUS
 10
11.0953929673
 20
8.0190109136
 11
11.1009710923
 21
8.03388591
  0
LINE
  5
3E8
100
AcDbEntity
  8
03__ASM_ALL_CURVES
100
AcDbLine
 62
4
  6
CONTINUOUS
 10
11.7201429673
 20
9.53388591
 11
11.7257210923
 21
9.5413234136
  0
LINE
  5
3E9
100
AcDbEntity
  8
03__ASM_ALL_CURVES
100
AcDbLine
 62
4
  6
CONTINUOUS
 10
11.7368773423
 20
9.4966984109
 11
11.7257210923
 21
9.4818234118
  0
LINE
  5
3EA
100
AcDbEntity
  8
03__ASM_ALL_CURVES
100
AcDbLine
 62
4
  6
CONTINUOUS
 10
11.7647679673
 20
9.5190109136
 11
11.7591898423
 21
9.51157341
  0
LINE
  5
3EB
100
AcDbEntity
  8
03__ASM_ALL_CURVES
100
AcDbLine
 62
4
  6
CONTINUOUS
 10
11.1009710923
 20
8.62788591
 11
11.1065492173
 21
8.6353234136
  0
LINE
  5
3EC
100
AcDbEntity
  8
03__ASM_ALL_CURVES
100
AcDbLine
 62
4
  6
CONTINUOUS
 10
11.1344398423
 20
8.5683859122
 11
11.1288617173
 21
8.560948412
  0
LINE
  5
3ED
100
AcDbEntity
  8
03__ASM_ALL_CURVES
100
AcDbLine
 62
4
  6
CONTINUOUS
 10
11.8986429673
 20
9.53388591
 11
11.9042210923
 21
9.5413234136
  0
LINE
  5
3EE
100
AcDbEntity
  8
03__ASM_ALL_CURVES
100
AcDbLine
 62
4
  6
CONTINUOUS
 10
11.8930648423
 20
9.4892609127
 11
11.9042210923
 21
9.5041359118
  0
LINE
  5
3EF
100
AcDbEntity
  8
03__ASM_ALL_CURVES
100
AcDbLine
 62
4
  6
CONTINUOUS
 10
11.9432679673
 20
9.5264484118
 11
11.9376898423
 21
9.5190109136
  0
LINE
  5
3F0
100
AcDbEntity
  8
03__ASM_ALL_CURVES
100
AcDbLine
 62
4
  6
CONTINUOUS
 10
11.9488460923
 20
9.4818234118
 11
11.9376898423
 21
9.466948412
  0
LINE
  5
3F1
100
AcDbEntity
  8
03__ASM_ALL_CURVES
100
AcDbLine
 62
4
  6
CONTINUOUS
 10
11.9934710923
 20
9.53388591
 11
11.9990492173
 21
9.5413234136
  0
LINE
  5
3F2
100
AcDbEntity
  8
03__ASM_ALL_CURVES
100
AcDbLine
 62
4
  6
CONTINUOUS
 10
8.5003929655
 20
6.7061671618
 11
8.5078304691
 21
6.7117452868
  0
LINE
  5
3F3
100
AcDbEntity
  8
03__ASM_ALL_CURVES
100
AcDbLine
 62
4
  6
CONTINUOUS
 10
8.5747679671
 20
6.6838546618
 11
8.5673304669
 21
6.6782765368
  0
LINE
  5
3F4
100
AcDbEntity
  8
03__ASM_ALL_CURVES
100
AcDbLine
 62
4
  6
CONTINUOUS
 10
9.4929554673
 20
7.3141827868
 11
9.5078304691
 21
7.3253390368
  0
LINE
  5
3F5
100
AcDbEntity
  8
03__ASM_ALL_CURVES
100
AcDbLine
 62
4
  6
CONTINUOUS
 10
8.571049217
 20
6.6197062243
 11
8.5822054673
 21
6.6280734118
  0
LINE
  5
3F6
100
AcDbEntity
  8
03__ASM_ALL_CURVES
100
AcDbLine
 62
4
  6
CONTINUOUS
 10
8.5003929655
 20
6.5332452868
 11
8.5078304691
 21
6.5388234118
  0
LINE
  5
3F7
100
AcDbEntity
  8
03__ASM_ALL_CURVES
100
AcDbLine
 62
4
  6
CONTINUOUS
 10
10.5003929655
 20
8.0291671618
 11
10.5078304691
 21
8.0347452868
  0
LINE
  5
3F8
100
AcDbEntity
  8
03__ASM_ALL_CURVES
100
AcDbLine
 62
4
  6
CONTINUOUS
 10
10.5747679671
 20
8.0068546618
 11
10.5673304669
 21
8.0012765368
  0
LINE
  5
3F9
100
AcDbEntity
  8
03__ASM_ALL_CURVES
100
AcDbLine
 62
4
  6
CONTINUOUS
 10
11.1065492173
 20
8.6353234136
 11
11.1177054673
 21
8.6427609118
  0
LINE
  5
3FA
100
AcDbEntity
  8
03__ASM_ALL_CURVES
100
AcDbLine
 62
4
  6
CONTINUOUS
 10
11.1288617173
 20
8.560948412
 11
11.1177054673
 21
8.5535109118
  0
LINE
  5
3FB
100
AcDbEntity
  8
0
100
AcDbLine
 62
7
  6
CONTINUOUS
 10
9.9755366981
 20
8.0087294438
 11
9.9675804673
 21
8.0041359118
  0
LINE
  5
3FC
100
AcDbEntity
  8
03__ASM_ALL_CURVES
100
AcDbLine
 62
4
  6
CONTINUOUS
 10
12.0102054673
 20
9.51157341
 11
12.0269398423
 21
9.5041359118
  0
LINE
  5
3FD
100
AcDbEntity
  8
03__ASM_ALL_CURVES
100
AcDbLine
 62
4
  6
CONTINUOUS
 10
11.6587835923
 20
9.5487609118
 11
11.6699398423
 21
9.5413234136
  0
LINE
  5
3FE
100
AcDbEntity
  8
03__ASM_ALL_CURVES
100
AcDbLine
 62
4
  6
CONTINUOUS
 10
11.7480335923
 20
9.5487609118
 11
11.7591898423
 21
9.5413234136
  0
LINE
  5
3FF
100
AcDbEntity
  8
03__ASM_ALL_CURVES
100
AcDbLine
 62
4
  6
CONTINUOUS
 10
11.9153773423
 20
9.4595109118
 11
11.9042210923
 21
9.466948412
  0
LINE
  5
400
100
AcDbEntity
  8
03__ASM_ALL_CURVES
100
AcDbLine
 62
4
  6
CONTINUOUS
 10
11.9153773423
 20
9.51157341
 11
11.9042210923
 21
9.5190109136
  0
LINE
  5
401
100
AcDbEntity
  8
03__ASM_ALL_CURVES
100
AcDbLine
 62
4
  6
CONTINUOUS
 10
11.3073617173
 20
9.5413234136
 11
11.3129398423
 21
9.53388591
  0
LINE
  5
402
100
AcDbEntity
  8
03__ASM_ALL_CURVES
100
AcDbLine
 62
4
  6
CONTINUOUS
 10
11.3742992173
 20
9.466948412
 11
11.3687210923
 21
9.4743859122
  0
LINE
  5
403
100
AcDbEntity
  8
03__ASM_ALL_CURVES
100
AcDbLine
 62
4
  6
CONTINUOUS
 10
11.3966117173
 20
9.5413234136
 11
11.4021898423
 21
9.53388591
  0
LINE
  5
404
100
AcDbEntity
  8
03__ASM_ALL_CURVES
100
AcDbLine
 62
4
  6
CONTINUOUS
 10
11.5583773423
 20
9.4743859122
 11
11.5695335923
 21
9.4595109118
  0
LINE
  5
405
100
AcDbEntity
  8
03__ASM_ALL_CURVES
100
AcDbLine
 62
4
  6
CONTINUOUS
 10
11.2794710923
 20
9.5041359118
 11
11.2738929673
 21
9.5190109136
  0
LINE
  5
406
100
AcDbEntity
  8
03__ASM_ALL_CURVES
100
AcDbLine
 62
4
  6
CONTINUOUS
 10
11.3129398423
 20
9.53388591
 11
11.3185179673
 21
9.5190109136
  0
LINE
  5
407
100
AcDbEntity
  8
03__ASM_ALL_CURVES
100
AcDbLine
 62
4
  6
CONTINUOUS
 10
11.9042210923
 20
8.0041359118
 11
11.8986429673
 21
8.0190109136
  0
LINE
  5
408
100
AcDbEntity
  8
03__ASM_ALL_CURVES
100
AcDbLine
 62
4
  6
CONTINUOUS
 10
11.3687210923
 20
9.4743859122
 11
11.3631429673
 21
9.4892609127
  0
LINE
  5
409
100
AcDbEntity
  8
03__ASM_ALL_CURVES
100
AcDbLine
 62
4
  6
CONTINUOUS
 10
11.9376898423
 20
8.03388591
 11
11.9432679673
 21
8.0190109136
  0
LINE
  5
40A
100
AcDbEntity
  8
03__ASM_ALL_CURVES
100
AcDbLine
 62
4
  6
CONTINUOUS
 10
11.4021898423
 20
9.53388591
 11
11.4077679673
 21
9.5190109136
  0
LINE
  5
40B
100
AcDbEntity
  8
03__ASM_ALL_CURVES
100
AcDbLine
 62
4
  6
CONTINUOUS
 10
11.5527992173
 20
12.23057341
 11
11.5527992173
 21
12.2156984109
  0
LINE
  5
40C
100
AcDbEntity
  8
03__ASM_ALL_CURVES
100
AcDbLine
 62
4
  6
CONTINUOUS
 10
11.5527992173
 20
11.63657341
 11
11.5527992173
 21
11.6216984109
  0
LINE
  5
40D
100
AcDbEntity
  8
03__ASM_ALL_CURVES
100
AcDbLine
 62
4
  6
CONTINUOUS
 10
11.5527992173
 20
11.41857341
 11
11.5527992173
 21
11.4036984109
  0
LINE
  5
40E
100
AcDbEntity
  8
03__ASM_ALL_CURVES
100
AcDbLine
 62
4
  6
CONTINUOUS
 10
11.5527992173
 20
9.51157341
 11
11.5527992173
 21
9.4966984109
  0
LINE
  5
40F
100
AcDbEntity
  8
03__ASM_ALL_CURVES
100
AcDbLine
 62
4
  6
CONTINUOUS
 10
11.5527992173
 20
8.01157341
 11
11.5527992173
 21
7.9966984109
  0
LINE
  5
410
100
AcDbEntity
  8
03__ASM_ALL_CURVES
100
AcDbLine
 62
4
  6
CONTINUOUS
 10
11.6532054673
 20
8.0487609118
 11
11.6532054673
 21
7.9595109118
  0
LINE
  5
411
100
AcDbEntity
  8
03__ASM_ALL_CURVES
100
AcDbLine
 62
4
  6
CONTINUOUS
 10
11.6755179673
 20
12.2380109136
 11
11.6755179673
 21
12.2082609127
  0
LINE
  5
412
100
AcDbEntity
  8
03__ASM_ALL_CURVES
100
AcDbLine
 62
4
  6
CONTINUOUS
 10
11.6755179673
 20
9.53388591
 11
11.6755179673
 21
9.5190109136
  0
LINE
  5
413
100
AcDbEntity
  8
03__ASM_ALL_CURVES
100
AcDbLine
 62
4
  6
CONTINUOUS
 10
11.7201429673
 20
11.6142609127
 11
11.7201429673
 21
11.6440109136
  0
LINE
  5
414
100
AcDbEntity
  8
03__ASM_ALL_CURVES
100
AcDbLine
 62
4
  6
CONTINUOUS
 10
11.7424554673
 20
12.2677609118
 11
11.7424554673
 21
12.1785109118
  0
LINE
  5
415
100
AcDbEntity
  8
03__ASM_ALL_CURVES
100
AcDbLine
 62
4
  6
CONTINUOUS
 10
11.7424554673
 20
11.4557609118
 11
11.7424554673
 21
11.3665109118
  0
LINE
  5
416
100
AcDbEntity
  8
03__ASM_ALL_CURVES
100
AcDbLine
 62
4
  6
CONTINUOUS
 10
11.7591898423
 20
7.9595109118
 11
11.7591898423
 21
8.0487609118
  0
LINE
  5
417
100
AcDbEntity
  8
03__ASM_ALL_CURVES
100
AcDbLine
 62
4
  6
CONTINUOUS
 10
11.7647679673
 20
9.53388591
 11
11.7647679673
 21
9.5190109136
  0
LINE
  5
418
100
AcDbEntity
  8
03__ASM_ALL_CURVES
100
AcDbLine
 62
4
  6
CONTINUOUS
 10
12.0102054673
 20
11.3665109118
 11
12.0157835923
 21
11.4036984109
  0
LINE
  5
419
100
AcDbEntity
  8
03__ASM_ALL_CURVES
100
AcDbLine
 62
4
  6
CONTINUOUS
 10
12.1106117173
 20
11.4036984109
 11
12.1050335923
 21
11.3813859122
  0
LINE
  5
41A
100
AcDbEntity
  8
03__ASM_ALL_CURVES
100
AcDbLine
 62
4
  6
CONTINUOUS
 10
11.6364710923
 20
9.4818234118
 11
11.6308929673
 21
9.4595109118
  0
LINE
  5
41B
100
AcDbEntity
  8
03__ASM_ALL_CURVES
100
AcDbLine
 62
4
  6
CONTINUOUS
 10
11.7257210923
 20
9.4818234118
 11
11.7201429673
 21
9.4595109118
  0
LINE
  5
41C
100
AcDbEntity
  8
03__ASM_ALL_CURVES
100
AcDbLine
 62
4
  6
CONTINUOUS
 10
12.2723773423
 20
11.44088591
 11
12.2667992173
 21
11.41857341
  0
LINE
  5
41D
100
AcDbEntity
  8
03__ASM_ALL_CURVES
100
AcDbLine
 62
4
  6
CONTINUOUS
 10
11.1400179673
 20
7.9892609127
 11
11.1344398423
 21
7.9743859122
  0
LINE
  5
41E
100
AcDbEntity
  8
03__ASM_ALL_CURVES
100
AcDbLine
 62
4
  6
CONTINUOUS
 10
11.3240960923
 20
7.9892609127
 11
11.3185179673
 21
7.9743859122
  0
LINE
  5
41F
100
AcDbEntity
  8
03__ASM_ALL_CURVES
100
AcDbLine
 62
4
  6
CONTINUOUS
 10
11.3631429673
 20
8.0190109136
 11
11.3687210923
 21
8.03388591
  0
LINE
  5
420
100
AcDbEntity
  8
03__ASM_ALL_CURVES
100
AcDbLine
 62
4
  6
CONTINUOUS
 10
11.4077679673
 20
8.0190109136
 11
11.4021898423
 21
8.0041359118
  0
LINE
  5
421
100
AcDbEntity
  8
03__ASM_ALL_CURVES
100
AcDbLine
 62
4
  6
CONTINUOUS
 10
12.0269398423
 20
9.4743859122
 11
12.0213617173
 21
9.466948412
  0
LINE
  5
422
100
AcDbEntity
  8
03__ASM_ALL_CURVES
100
AcDbLine
 62
4
  6
CONTINUOUS
 10
12.1050335923
 20
9.4743859122
 11
12.0938773423
 21
9.4595109118
  0
LINE
  5
423
100
AcDbEntity
  8
03__ASM_ALL_CURVES
100
AcDbLine
 62
4
  6
CONTINUOUS
 10
11.1009710923
 20
8.03388591
 11
11.1065492173
 21
8.0413234136
  0
LINE
  5
424
100
AcDbEntity
  8
03__ASM_ALL_CURVES
100
AcDbLine
 62
4
  6
CONTINUOUS
 10
11.1344398423
 20
7.9743859122
 11
11.1288617173
 21
7.966948412
  0
LINE
  5
425
100
AcDbEntity
  8
03__ASM_ALL_CURVES
100
AcDbLine
 62
4
  6
CONTINUOUS
 10
9.571049217
 20
7.1552062243
 11
9.5822054673
 21
7.1635734118
  0
LINE
  5
426
100
AcDbEntity
  8
03__ASM_ALL_CURVES
100
AcDbLine
 62
4
  6
CONTINUOUS
 10
9.5301429691
 20
7.0687452868
 11
9.5375804673
 21
7.0743234118
  0
LINE
  5
427
100
AcDbEntity
  8
03__ASM_ALL_CURVES
100
AcDbLine
 62
4
  6
CONTINUOUS
 10
9.5747679671
 20
7.0352765368
 11
9.5673304669
 21
7.0296984118
  0
LINE
  5
428
100
AcDbEntity
  8
03__ASM_ALL_CURVES
100
AcDbLine
 62
4
  6
CONTINUOUS
 10
9.5003929655
 20
6.9794952868
 11
9.5078304691
 21
6.9850734118
  0
LINE
  5
429
100
AcDbEntity
  8
03__ASM_ALL_CURVES
100
AcDbLine
 62
4
  6
CONTINUOUS
 10
10.5078304691
 20
8.0347452868
 11
10.5227054655
 21
8.0403234118
  0
LINE
  5
42A
100
AcDbEntity
  8
03__ASM_ALL_CURVES
100
AcDbLine
 62
4
  6
CONTINUOUS
 10
10.5673304669
 20
8.0012765368
 11
10.5524554664
 21
7.9956984118
  0
LINE
  5
42B
100
AcDbEntity
  8
03__ASM_ALL_CURVES
100
AcDbLine
 62
4
  6
CONTINUOUS
 10
11.9265335923
 20
9.51157341
 11
11.9376898423
 21
9.5041359118
  0
LINE
  5
42C
100
AcDbEntity
  8
03__ASM_ALL_CURVES
100
AcDbLine
 62
4
  6
CONTINUOUS
 10
12.0102054673
 20
9.4595109118
 11
11.9990492173
 21
9.466948412
  0
LINE
  5
42D
100
AcDbEntity
  8
03__ASM_ALL_CURVES
100
AcDbLine
 62
4
  6
CONTINUOUS
 10
11.9265335923
 20
9.5487609118
 11
11.9376898423
 21
9.5413234136
  0
LINE
  5
42E
100
AcDbEntity
  8
03__ASM_ALL_CURVES
100
AcDbLine
 62
4
  6
CONTINUOUS
 10
12.0102054673
 20
9.5487609118
 11
12.0213617173
 21
9.5413234136
  0
LINE
  5
42F
100
AcDbEntity
  8
03__ASM_ALL_CURVES
100
AcDbLine
 62
4
  6
CONTINUOUS
 10
11.6699398423
 20
9.5413234136
 11
11.6755179673
 21
9.53388591
  0
LINE
  5
430
100
AcDbEntity
  8
03__ASM_ALL_CURVES
100
AcDbLine
 62
4
  6
CONTINUOUS
 10
11.7591898423
 20
9.5413234136
 11
11.7647679673
 21
9.53388591
  0
LINE
  5
431
100
AcDbEntity
  8
03__ASM_ALL_CURVES
100
AcDbLine
 62
4
  6
CONTINUOUS
 10
11.8456507798
 20
9.4706671621
 11
11.8540179673
 21
9.4595109118
  0
LINE
  5
432
100
AcDbEntity
  8
03__ASM_ALL_CURVES
100
AcDbLine
 62
4
  6
CONTINUOUS
 10
11.9042210923
 20
9.466948412
 11
11.8930648423
 21
9.4818234118
  0
LINE
  5
433
100
AcDbEntity
  8
03__ASM_ALL_CURVES
100
AcDbLine
 62
4
  6
CONTINUOUS
 10
11.5527992173
 20
9.4966984109
 11
11.5583773423
 21
9.4743859122
  0
LINE
  5
434
100
AcDbEntity
  8
03__ASM_ALL_CURVES
100
AcDbLine
 62
4
  6
CONTINUOUS
 10
12.1050335923
 20
8.03388591
 11
12.1106117173
 21
8.01157341
  0
LINE
  5
435
100
AcDbEntity
  8
03__ASM_ALL_CURVES
100
AcDbLine
 62
4
  6
CONTINUOUS
 10
11.8456507798
 20
7.9595109118
 11
11.8456507798
 21
7.9706671621
  0
LINE
  5
436
100
AcDbEntity
  8
03__ASM_ALL_CURVES
100
AcDbLine
 62
4
  6
CONTINUOUS
 10
11.8456507798
 20
9.4595109118
 11
11.8456507798
 21
9.4706671621
  0
LINE
  5
437
100
AcDbEntity
  8
03__ASM_ALL_CURVES
100
AcDbLine
 62
4
  6
CONTINUOUS
 10
11.8456507798
 20
11.3665109118
 11
11.8456507798
 21
11.3776671621
  0
LINE
  5
438
100
AcDbEntity
  8
03__ASM_ALL_CURVES
100
AcDbLine
 62
4
  6
CONTINUOUS
 10
11.8456507798
 20
11.5845109118
 11
11.8456507798
 21
11.5956671621
  0
LINE
  5
439
100
AcDbEntity
  8
03__ASM_ALL_CURVES
100
AcDbLine
 62
4
  6
CONTINUOUS
 10
11.8456507798
 20
12.1785109118
 11
11.8456507798
 21
12.1896671621
  0
LINE
  5
43A
100
AcDbEntity
  8
03__ASM_ALL_CURVES
100
AcDbLine
 62
4
  6
CONTINUOUS
 10
11.8930648423
 20
9.4818234118
 11
11.8930648423
 21
9.4892609127
  0
LINE
  5
43B
100
AcDbEntity
  8
03__ASM_ALL_CURVES
100
AcDbLine
 62
4
  6
CONTINUOUS
 10
11.8986429673
 20
9.5264484118
 11
11.8986429673
 21
9.53388591
  0
LINE
  5
43C
100
AcDbEntity
  8
03__ASM_ALL_CURVES
100
AcDbLine
 62
4
  6
CONTINUOUS
 10
11.9432679673
 20
12.2380109136
 11
11.9432679673
 21
12.2082609127
  0
LINE
  5
43D
100
AcDbEntity
  8
03__ASM_ALL_CURVES
100
AcDbLine
 62
4
  6
CONTINUOUS
 10
11.9432679673
 20
11.6440109136
 11
11.9432679673
 21
11.6142609127
  0
LINE
  5
43E
100
AcDbEntity
  8
03__ASM_ALL_CURVES
100
AcDbLine
 62
4
  6
CONTINUOUS
 10
11.9432679673
 20
11.44088591
 11
11.9432679673
 21
11.4334484118
  0
LINE
  5
43F
100
AcDbEntity
  8
03__ASM_ALL_CURVES
100
AcDbLine
 62
4
  6
CONTINUOUS
 10
11.9432679673
 20
9.53388591
 11
11.9432679673
 21
9.5264484118
  0
LINE
  5
440
100
AcDbEntity
  8
03__ASM_ALL_CURVES
100
AcDbLine
 62
4
  6
CONTINUOUS
 10
11.9432679673
 20
8.0190109136
 11
11.9432679673
 21
7.9892609127
  0
LINE
  5
441
100
AcDbEntity
  8
03__ASM_ALL_CURVES
100
AcDbLine
 62
4
  6
CONTINUOUS
 10
11.9488460923
 20
11.3962609127
 11
11.9488460923
 21
11.3888234118
  0
LINE
  5
442
100
AcDbEntity
  8
03__ASM_ALL_CURVES
100
AcDbLine
 62
4
  6
CONTINUOUS
 10
11.9488460923
 20
9.4892609127
 11
11.9488460923
 21
9.4818234118
  0
LINE
  5
443
100
AcDbEntity
  8
03__ASM_ALL_CURVES
100
AcDbLine
 62
4
  6
CONTINUOUS
 10
11.9823148423
 20
7.9818234118
 11
11.9823148423
 21
7.9892609127
  0
LINE
  5
444
100
AcDbEntity
  8
03__ASM_ALL_CURVES
100
AcDbLine
 62
4
  6
CONTINUOUS
 10
11.9878929673
 20
8.0264484118
 11
11.9878929673
 21
8.03388591
  0
LINE
  5
445
100
AcDbEntity
  8
03__ASM_ALL_CURVES
100
AcDbLine
 62
4
  6
CONTINUOUS
 10
11.9878929673
 20
9.4892609127
 11
11.9878929673
 21
9.5190109136
  0
LINE
  5
446
100
AcDbEntity
  8
03__ASM_ALL_CURVES
100
AcDbLine
 62
4
  6
CONTINUOUS
 10
11.9878929673
 20
11.6142609127
 11
11.9878929673
 21
11.6440109136
  0
LINE
  5
447
100
AcDbEntity
  8
03__ASM_ALL_CURVES
100
AcDbLine
 62
4
  6
CONTINUOUS
 10
11.5583773423
 20
8.03388591
 11
11.5527992173
 21
8.01157341
  0
LINE
  5
448
100
AcDbEntity
  8
03__ASM_ALL_CURVES
100
AcDbLine
 62
4
  6
CONTINUOUS
 10
12.5568617173
 20
11.4036984109
 11
12.5512835923
 21
11.3813859122
  0
LINE
  5
449
100
AcDbEntity
  8
03__ASM_ALL_CURVES
100
AcDbLine
 62
4
  6
CONTINUOUS
 10
12.1106117173
 20
9.4966984109
 11
12.1050335923
 21
9.4743859122
  0
LINE
  5
44A
100
AcDbEntity
  8
03__ASM_ALL_CURVES
100
AcDbLine
 62
4
  6
CONTINUOUS
 10
11.4077679673
 20
7.9892609127
 11
11.4021898423
 21
7.9743859122
  0
LINE
  5
44B
100
AcDbEntity
  8
03__ASM_ALL_CURVES
100
AcDbLine
 62
4
  6
CONTINUOUS
 10
11.9878929673
 20
9.5190109136
 11
11.9934710923
 21
9.53388591
  0
LINE
  5
44C
100
AcDbEntity
  8
03__ASM_ALL_CURVES
100
AcDbLine
 62
4
  6
CONTINUOUS
 10
11.9878929673
 20
9.4892609127
 11
11.9934710923
 21
9.5041359118
  0
LINE
  5
44D
100
AcDbEntity
  8
03__ASM_ALL_CURVES
100
AcDbLine
 62
4
  6
CONTINUOUS
 10
12.0325179673
 20
9.4892609127
 11
12.0269398423
 21
9.4743859122
  0
LINE
  5
44E
100
AcDbEntity
  8
03__ASM_ALL_CURVES
100
AcDbLine
 62
4
  6
CONTINUOUS
 10
11.3185179673
 20
7.9743859122
 11
11.3129398423
 21
7.966948412
  0
LINE
  5
44F
100
AcDbEntity
  8
03__ASM_ALL_CURVES
100
AcDbLine
 62
4
  6
CONTINUOUS
 10
11.3687210923
 20
8.03388591
 11
11.3742992173
 21
8.0413234136
  0
LINE
  5
450
100
AcDbEntity
  8
03__ASM_ALL_CURVES
100
AcDbLine
 62
4
  6
CONTINUOUS
 10
11.4021898423
 20
7.9743859122
 11
11.3966117173
 21
7.966948412
  0
LINE
  5
451
100
AcDbEntity
  8
03__ASM_ALL_CURVES
100
AcDbLine
 62
4
  6
CONTINUOUS
 10
9.5673304669
 20
6.8679327868
 11
9.5822054673
 21
6.8790890368
  0
LINE
  5
452
100
AcDbEntity
  8
03__ASM_ALL_CURVES
100
AcDbLine
 62
4
  6
CONTINUOUS
 10
9.5003929655
 20
6.7061671618
 11
9.5078304691
 21
6.7117452868
  0
LINE
  5
453
100
AcDbEntity
  8
03__ASM_ALL_CURVES
100
AcDbLine
 62
4
  6
CONTINUOUS
 10
9.5747679671
 20
6.6838546618
 11
9.5673304669
 21
6.6782765368
  0
LINE
  5
454
100
AcDbEntity
  8
03__ASM_ALL_CURVES
100
AcDbLine
 62
4
  6
CONTINUOUS
 10
11.1065492173
 20
8.0413234136
 11
11.1177054673
 21
8.0487609118
  0
LINE
  5
455
100
AcDbEntity
  8
03__ASM_ALL_CURVES
100
AcDbLine
 62
4
  6
CONTINUOUS
 10
11.1288617173
 20
7.966948412
 11
11.1177054673
 21
7.9595109118
  0
LINE
  5
456
100
AcDbEntity
  8
03__ASM_ALL_CURVES
100
AcDbLine
 62
4
  6
CONTINUOUS
 10
11.2794710923
 20
8.01157341
 11
11.2906273423
 21
8.0190109136
  0
LINE
  5
457
100
AcDbEntity
  8
03__ASM_ALL_CURVES
100
AcDbLine
 62
4
  6
CONTINUOUS
 10
11.3742992173
 20
8.0413234136
 11
11.3854554673
 21
8.0487609118
  0
LINE
  5
458
100
AcDbEntity
  8
03__ASM_ALL_CURVES
100
AcDbLine
 62
4
  6
CONTINUOUS
 10
11.3129398423
 20
7.966948412
 11
11.3017835923
 21
7.9595109118
  0
LINE
  5
459
100
AcDbEntity
  8
03__ASM_ALL_CURVES
100
AcDbLine
 62
4
  6
CONTINUOUS
 10
11.4021898423
 20
8.0041359118
 11
11.3854554673
 21
7.9966984109
  0
LINE
  5
45A
100
AcDbEntity
  8
03__ASM_ALL_CURVES
100
AcDbLine
 62
4
  6
CONTINUOUS
 10
8.5078304691
 20
7.0687452868
 11
8.5227054655
 21
7.0743234118
  0
LINE
  5
45B
100
AcDbEntity
  8
03__ASM_ALL_CURVES
100
AcDbLine
 62
4
  6
CONTINUOUS
 10
8.5673304669
 20
7.0352765368
 11
8.5524554664
 21
7.0296984118
  0
LINE
  5
45C
100
AcDbEntity
  8
03__ASM_ALL_CURVES
100
AcDbLine
 62
4
  6
CONTINUOUS
 10
8.5375804673
 20
6.9850734118
 11
8.5524554664
 21
6.9906515368
  0
LINE
  5
45D
100
AcDbEntity
  8
03__ASM_ALL_CURVES
100
AcDbLine
 62
4
  6
CONTINUOUS
 10
11.9042210923
 20
9.5190109136
 11
11.8986429673
 21
9.5264484118
  0
LINE
  5
45E
100
AcDbEntity
  8
03__ASM_ALL_CURVES
100
AcDbLine
 62
4
  6
CONTINUOUS
 10
11.9376898423
 20
9.5041359118
 11
11.9488460923
 21
9.4892609127
  0
LINE
  5
45F
100
AcDbEntity
  8
03__ASM_ALL_CURVES
100
AcDbLine
 62
4
  6
CONTINUOUS
 10
11.9376898423
 20
9.5413234136
 11
11.9432679673
 21
9.53388591
  0
LINE
  5
460
100
AcDbEntity
  8
03__ASM_ALL_CURVES
100
AcDbLine
 62
4
  6
CONTINUOUS
 10
11.9990492173
 20
9.466948412
 11
11.9934710923
 21
9.4743859122
  0
LINE
  5
461
100
AcDbEntity
  8
03__ASM_ALL_CURVES
100
AcDbLine
 62
4
  6
CONTINUOUS
 10
12.0213617173
 20
9.5413234136
 11
12.0269398423
 21
9.53388591
  0
LINE
  5
462
100
AcDbEntity
  8
03__ASM_ALL_CURVES
100
AcDbLine
 62
4
  6
CONTINUOUS
 10
12.0938773423
 20
9.5487609118
 11
12.1050335923
 21
9.53388591
  0
LINE
  5
463
100
AcDbEntity
  8
03__ASM_ALL_CURVES
100
AcDbLine
 62
4
  6
CONTINUOUS
 10
11.9934710923
 20
9.4743859122
 11
11.9878929673
 21
9.4892609127
  0
LINE
  5
464
100
AcDbEntity
  8
03__ASM_ALL_CURVES
100
AcDbLine
 62
4
  6
CONTINUOUS
 10
12.0269398423
 20
12.1785109118
 11
12.0269398423
 21
12.2677609118
  0
LINE
  5
465
100
AcDbEntity
  8
03__ASM_ALL_CURVES
100
AcDbLine
 62
4
  6
CONTINUOUS
 10
12.0325179673
 20
8.03388591
 11
12.0325179673
 21
8.0264484118
  0
LINE
  5
466
100
AcDbEntity
  8
03__ASM_ALL_CURVES
100
AcDbLine
 62
4
  6
CONTINUOUS
 10
12.0380960923
 20
7.9892609127
 11
12.0380960923
 21
7.9818234118
  0
LINE
  5
467
100
AcDbEntity
  8
03__ASM_ALL_CURVES
100
AcDbLine
 62
4
  6
CONTINUOUS
 10
12.1106117173
 20
12.23057341
 11
12.1106117173
 21
12.2156984109
  0
LINE
  5
468
100
AcDbEntity
  8
03__ASM_ALL_CURVES
100
AcDbLine
 62
4
  6
CONTINUOUS
 10
12.1106117173
 20
11.63657341
 11
12.1106117173
 21
11.6216984109
  0
LINE
  5
469
100
AcDbEntity
  8
03__ASM_ALL_CURVES
100
AcDbLine
 62
4
  6
CONTINUOUS
 10
12.1106117173
 20
11.41857341
 11
12.1106117173
 21
11.4036984109
  0
LINE
  5
46A
100
AcDbEntity
  8
03__ASM_ALL_CURVES
100
AcDbLine
 62
4
  6
CONTINUOUS
 10
12.1106117173
 20
9.51157341
 11
12.1106117173
 21
9.4966984109
  0
LINE
  5
46B
100
AcDbEntity
  8
03__ASM_ALL_CURVES
100
AcDbLine
 62
4
  6
CONTINUOUS
 10
12.1106117173
 20
8.01157341
 11
12.1106117173
 21
7.9966984109
  0
LINE
  5
46C
100
AcDbEntity
  8
03__ASM_ALL_CURVES
100
AcDbLine
 62
4
  6
CONTINUOUS
 10
11.8986429673
 20
8.0190109136
 11
11.9042210923
 21
8.03388591
  0
LINE
  5
46D
100
AcDbEntity
  8
03__ASM_ALL_CURVES
100
AcDbLine
 62
4
  6
CONTINUOUS
 10
11.7591898423
 20
8.0487609118
 11
11.7201429673
 21
7.9818234118
  0
LINE
  5
46E
100
AcDbEntity
  8
03__ASM_ALL_CURVES
100
AcDbLine
 62
4
  6
CONTINUOUS
 10
11.5695335923
 20
8.0487609118
 11
11.5583773423
 21
8.03388591
  0
LINE
  5
46F
100
AcDbEntity
  8
03__ASM_ALL_CURVES
100
AcDbLine
 62
4
  6
CONTINUOUS
 10
9.571049217
 20
6.6197062243
 11
9.5822054673
 21
6.6280734118
  0
LINE
  5
470
100
AcDbEntity
  8
03__ASM_ALL_CURVES
100
AcDbLine
 62
4
  6
CONTINUOUS
 10
11.3966117173
 20
7.966948412
 11
11.3854554673
 21
7.9595109118
  0
LINE
  5
471
100
AcDbEntity
  8
03__ASM_ALL_CURVES
100
AcDbLine
 62
4
  6
CONTINUOUS
 10
11.9376898423
 20
8.0041359118
 11
11.9209554673
 21
7.9966984109
  0
LINE
  5
472
100
AcDbEntity
  8
03__ASM_ALL_CURVES
100
AcDbLine
 62
4
  6
CONTINUOUS
 10
8.5078304691
 20
6.7117452868
 11
8.5227054655
 21
6.7173234118
  0
LINE
  5
473
100
AcDbEntity
  8
03__ASM_ALL_CURVES
100
AcDbLine
 62
4
  6
CONTINUOUS
 10
9.5375804673
 20
7.0743234118
 11
9.5524554664
 21
7.0799015368
  0
LINE
  5
474
100
AcDbEntity
  8
03__ASM_ALL_CURVES
100
AcDbLine
 62
4
  6
CONTINUOUS
 10
8.5673304669
 20
6.6782765368
 11
8.5524554664
 21
6.6726984118
  0
LINE
  5
475
100
AcDbEntity
  8
03__ASM_ALL_CURVES
100
AcDbLine
 62
4
  6
CONTINUOUS
 10
12.0269398423
 20
9.5041359118
 11
12.0325179673
 21
9.4892609127
  0
LINE
  5
476
100
AcDbEntity
  8
03__ASM_ALL_CURVES
100
AcDbLine
 62
4
  6
CONTINUOUS
 10
11.2794710923
 20
11.5993859122
 11
11.2738929673
 21
11.6142609127
  0
LINE
  5
477
100
AcDbEntity
  8
03__ASM_ALL_CURVES
100
AcDbLine
 62
4
  6
CONTINUOUS
 10
11.3129398423
 20
11.65888591
 11
11.3185179673
 21
11.6440109136
  0
LINE
  5
478
100
AcDbEntity
  8
03__ASM_ALL_CURVES
100
AcDbLine
 62
4
  6
CONTINUOUS
 10
11.5527992173
 20
11.4036984109
 11
11.5583773423
 21
11.3813859122
  0
LINE
  5
479
100
AcDbEntity
  8
03__ASM_ALL_CURVES
100
AcDbLine
 62
4
  6
CONTINUOUS
 10
11.5527992173
 20
11.6216984109
 11
11.5583773423
 21
11.5993859122
  0
LINE
  5
47A
100
AcDbEntity
  8
03__ASM_ALL_CURVES
100
AcDbLine
 62
4
  6
CONTINUOUS
 10
12.1050335923
 20
9.53388591
 11
12.1106117173
 21
9.51157341
  0
LINE
  5
47B
100
AcDbEntity
  8
03__ASM_ALL_CURVES
100
AcDbLine
 62
4
  6
CONTINUOUS
 10
11.5527992173
 20
12.2156984109
 11
11.5583773423
 21
12.1933859122
  0
LINE
  5
47C
100
AcDbEntity
  8
03__ASM_ALL_CURVES
100
AcDbLine
 62
4
  6
CONTINUOUS
 10
12.2667992173
 20
11.41857341
 11
12.2667992173
 21
11.4036984109
  0
LINE
  5
47D
100
AcDbEntity
  8
03__ASM_ALL_CURVES
100
AcDbLine
 62
4
  6
CONTINUOUS
 10
12.3448929673
 20
11.4557609118
 11
12.3448929673
 21
11.3665109118
  0
LINE
  5
47E
100
AcDbEntity
  8
03__ASM_ALL_CURVES
100
AcDbLine
 62
4
  6
CONTINUOUS
 10
12.4341429673
 20
11.44088591
 11
12.4341429673
 21
11.4334484118
  0
LINE
  5
47F
100
AcDbEntity
  8
03__ASM_ALL_CURVES
100
AcDbLine
 62
4
  6
CONTINUOUS
 10
12.4787679673
 20
11.3962609127
 11
12.4787679673
 21
11.3813859122
  0
LINE
  5
480
100
AcDbEntity
  8
03__ASM_ALL_CURVES
100
AcDbLine
 62
4
  6
CONTINUOUS
 10
12.1106117173
 20
7.9966984109
 11
12.1050335923
 21
7.9743859122
  0
LINE
  5
481
100
AcDbEntity
  8
03__ASM_ALL_CURVES
100
AcDbLine
 62
4
  6
CONTINUOUS
 10
11.9432679673
 20
8.0190109136
 11
11.9376898423
 21
8.0041359118
  0
LINE
  5
482
100
AcDbEntity
  8
03__ASM_ALL_CURVES
100
AcDbLine
 62
4
  6
CONTINUOUS
 10
11.9432679673
 20
7.9892609127
 11
11.9376898423
 21
7.9743859122
  0
LINE
  5
483
100
AcDbEntity
  8
03__ASM_ALL_CURVES
100
AcDbLine
 62
4
  6
CONTINUOUS
 10
11.9042210923
 20
8.03388591
 11
11.9097992173
 21
8.0413234136
  0
LINE
  5
484
100
AcDbEntity
  8
03__ASM_ALL_CURVES
100
AcDbLine
 62
4
  6
CONTINUOUS
 10
11.9376898423
 20
7.9743859122
 11
11.9321117173
 21
7.966948412
  0
LINE
  5
485
100
AcDbEntity
  8
03__ASM_ALL_CURVES
100
AcDbLine
 62
4
  6
CONTINUOUS
 10
11.9878929673
 20
8.03388591
 11
11.9934710923
 21
8.0413234136
  0
LINE
  5
486
100
AcDbEntity
  8
03__ASM_ALL_CURVES
100
AcDbLine
 62
4
  6
CONTINUOUS
 10
11.9823148423
 20
7.9892609127
 11
11.9934710923
 21
8.0041359118
  0
LINE
  5
487
100
AcDbEntity
  8
03__ASM_ALL_CURVES
100
AcDbLine
 62
4
  6
CONTINUOUS
 10
12.0325179673
 20
8.0264484118
 11
12.0269398423
 21
8.0190109136
  0
LINE
  5
488
100
AcDbEntity
  8
03__ASM_ALL_CURVES
100
AcDbLine
 62
4
  6
CONTINUOUS
 10
12.0380960923
 20
7.9818234118
 11
12.0269398423
 21
7.966948412
  0
LINE
  5
489
100
AcDbEntity
  8
03__ASM_ALL_CURVES
100
AcDbLine
 62
4
  6
CONTINUOUS
 10
11.9097992173
 20
8.0413234136
 11
11.9209554673
 21
8.0487609118
  0
LINE
  5
48A
100
AcDbEntity
  8
03__ASM_ALL_CURVES
100
AcDbLine
 62
4
  6
CONTINUOUS
 10
11.9934710923
 20
8.0413234136
 11
12.0046273423
 21
8.0487609118
  0
LINE
  5
48B
100
AcDbEntity
  8
03__ASM_ALL_CURVES
100
AcDbLine
 62
4
  6
CONTINUOUS
 10
11.9321117173
 20
7.966948412
 11
11.9209554673
 21
7.9595109118
  0
LINE
  5
48C
100
AcDbEntity
  8
03__ASM_ALL_CURVES
100
AcDbLine
 62
4
  6
CONTINUOUS
 10
11.9934710923
 20
8.0041359118
 11
12.0046273423
 21
8.01157341
  0
LINE
  5
48D
100
AcDbEntity
  8
03__ASM_ALL_CURVES
100
AcDbLine
 62
4
  6
CONTINUOUS
 10
12.0269398423
 20
8.0190109136
 11
12.0157835923
 21
8.01157341
  0
LINE
  5
48E
100
AcDbEntity
  8
03__ASM_ALL_CURVES
100
AcDbLine
 62
4
  6
CONTINUOUS
 10
12.0269398423
 20
7.966948412
 11
12.0157835923
 21
7.9595109118
  0
LINE
  5
48F
100
AcDbEntity
  8
03__ASM_ALL_CURVES
100
AcDbLine
 62
4
  6
CONTINUOUS
 10
11.1344398423
 20
11.4483234136
 11
11.1400179673
 21
11.44088591
  0
LINE
  5
490
100
AcDbEntity
  8
03__ASM_ALL_CURVES
100
AcDbLine
 62
4
  6
CONTINUOUS
 10
11.2209007798
 20
11.3776671621
 11
11.2292679673
 21
11.3665109118
  0
LINE
  5
491
100
AcDbEntity
  8
03__ASM_ALL_CURVES
100
AcDbLine
 62
4
  6
CONTINUOUS
 10
11.1009710923
 20
11.591948412
 11
11.0953929673
 21
11.5993859122
  0
LINE
  5
492
100
AcDbEntity
  8
03__ASM_ALL_CURVES
100
AcDbLine
 62
4
  6
CONTINUOUS
 10
11.2794710923
 20
11.373948412
 11
11.2683148423
 21
11.3888234118
  0
LINE
  5
493
100
AcDbEntity
  8
03__ASM_ALL_CURVES
100
AcDbLine
 62
4
  6
CONTINUOUS
 10
11.2794710923
 20
11.4260109136
 11
11.2738929673
 21
11.4334484118
  0
LINE
  5
494
100
AcDbEntity
  8
03__ASM_ALL_CURVES
100
AcDbLine
 62
4
  6
CONTINUOUS
 10
11.1344398423
 20
11.6291359118
 11
11.1455960923
 21
11.6142609127
  0
LINE
  5
495
100
AcDbEntity
  8
03__ASM_ALL_CURVES
100
AcDbLine
 62
4
  6
CONTINUOUS
 10
11.3129398423
 20
11.4111359118
 11
11.3240960923
 21
11.3962609127
  0
LINE
  5
496
100
AcDbEntity
  8
03__ASM_ALL_CURVES
100
AcDbLine
 62
4
  6
CONTINUOUS
 10
11.1344398423
 20
11.6663234136
 11
11.1400179673
 21
11.65888591
  0
LINE
  5
497
100
AcDbEntity
  8
03__ASM_ALL_CURVES
100
AcDbLine
 62
4
  6
CONTINUOUS
 10
11.3129398423
 20
11.4483234136
 11
11.3185179673
 21
11.44088591
  0
LINE
  5
498
100
AcDbEntity
  8
03__ASM_ALL_CURVES
100
AcDbLine
 62
4
  6
CONTINUOUS
 10
11.2209007798
 20
11.5956671621
 11
11.2292679673
 21
11.5845109118
  0
LINE
  5
499
100
AcDbEntity
  8
03__ASM_ALL_CURVES
100
AcDbLine
 62
4
  6
CONTINUOUS
 10
11.2794710923
 20
12.1933859122
 11
11.2738929673
 21
12.2082609127
  0
LINE
  5
49A
100
AcDbEntity
  8
03__ASM_ALL_CURVES
100
AcDbLine
 62
4
  6
CONTINUOUS
 10
11.3129398423
 20
12.2231359118
 11
11.3185179673
 21
12.2082609127
  0
LINE
  5
49B
100
AcDbEntity
  8
03__ASM_ALL_CURVES
100
AcDbLine
 62
4
  6
CONTINUOUS
 10
11.7257210923
 20
11.5993859122
 11
11.7201429673
 21
11.6142609127
  0
LINE
  5
49C
100
AcDbEntity
  8
03__ASM_ALL_CURVES
100
AcDbLine
 62
4
  6
CONTINUOUS
 10
12.5568617173
 20
11.41857341
 11
12.5568617173
 21
11.4036984109
  0
LINE
  5
49D
100
AcDbEntity
  8
03__ASM_ALL_CURVES
100
AcDbLine
 62
4
  6
CONTINUOUS
 10
12.1050335923
 20
7.9743859122
 11
12.0938773423
 21
7.9595109118
  0
LINE
  5
49E
100
AcDbEntity
  8
03__ASM_ALL_CURVES
100
AcDbLine
 62
4
  6
CONTINUOUS
 10
9.5078304691
 20
6.7117452868
 11
9.5227054655
 21
6.7173234118
  0
LINE
  5
49F
100
AcDbEntity
  8
03__ASM_ALL_CURVES
100
AcDbLine
 62
4
  6
CONTINUOUS
 10
9.5673304669
 20
6.6782765368
 11
9.5524554664
 21
6.6726984118
  0
LINE
  5
4A0
100
AcDbEntity
  8
03__ASM_ALL_CURVES
100
AcDbLine
 62
4
  6
CONTINUOUS
 10
12.4620335923
 20
11.3665109118
 11
12.4508773423
 21
11.3665109118
  0
LINE
  5
4A1
100
AcDbEntity
  8
03__ASM_ALL_CURVES
100
AcDbLine
 62
4
  6
CONTINUOUS
 10
11.9265335923
 20
11.3665109118
 11
11.9153773423
 21
11.3665109118
  0
LINE
  5
4A2
100
AcDbEntity
  8
03__ASM_ALL_CURVES
100
AcDbLine
 62
4
  6
CONTINUOUS
 10
11.8540179673
 20
11.3665109118
 11
11.8456507798
 21
11.3665109118
  0
LINE
  5
4A3
100
AcDbEntity
  8
03__ASM_ALL_CURVES
100
AcDbLine
 62
4
  6
CONTINUOUS
 10
11.3017835923
 20
11.3665109118
 11
11.2906273423
 21
11.3665109118
  0
LINE
  5
4A4
100
AcDbEntity
  8
03__ASM_ALL_CURVES
100
AcDbLine
 62
4
  6
CONTINUOUS
 10
11.2292679673
 20
11.3665109118
 11
11.2209007798
 21
11.3665109118
  0
LINE
  5
4A5
100
AcDbEntity
  8
03__ASM_ALL_CURVES
100
AcDbLine
 62
4
  6
CONTINUOUS
 10
11.0953929673
 20
11.3665109118
 11
11.1400179673
 21
11.3665109118
  0
LINE
  5
4A6
100
AcDbEntity
  8
03__ASM_ALL_CURVES
100
AcDbLine
 62
4
  6
CONTINUOUS
 10
12.3448929673
 20
11.3665109118
 11
12.3895179673
 21
11.3665109118
  0
LINE
  5
4A7
100
AcDbEntity
  8
03__ASM_ALL_CURVES
100
AcDbLine
 62
4
  6
CONTINUOUS
 10
10.6268304673
 20
11.4111359118
 11
10.8945804673
 21
11.4111359118
  0
LINE
  5
4A8
100
AcDbEntity
  8
03__ASM_ALL_CURVES
100
AcDbLine
 62
4
  6
CONTINUOUS
 10
11.2906273423
 20
11.41857341
 11
11.3017835923
 21
11.41857341
  0
LINE
  5
4A9
100
AcDbEntity
  8
03__ASM_ALL_CURVES
100
AcDbLine
 62
4
  6
CONTINUOUS
 10
11.9153773423
 20
11.41857341
 11
11.9265335923
 21
11.41857341
  0
LINE
  5
4AA
100
AcDbEntity
  8
03__ASM_ALL_CURVES
100
AcDbLine
 62
4
  6
CONTINUOUS
 10
12.4620335923
 20
11.4557609118
 11
12.4508773423
 21
11.4557609118
  0
LINE
  5
4AB
100
AcDbEntity
  8
03__ASM_ALL_CURVES
100
AcDbLine
 62
4
  6
CONTINUOUS
 10
12.0325179673
 20
11.4557609118
 11
11.9878929673
 21
11.4557609118
  0
LINE
  5
4AC
100
AcDbEntity
  8
03__ASM_ALL_CURVES
100
AcDbLine
 62
4
  6
CONTINUOUS
 10
11.6755179673
 20
11.4557609118
 11
11.6308929673
 21
11.4557609118
  0
LINE
  5
4AD
100
AcDbEntity
  8
03__ASM_ALL_CURVES
100
AcDbLine
 62
4
  6
CONTINUOUS
 10
11.1121273423
 20
11.4557609118
 11
11.1232835923
 21
11.4557609118
  0
LINE
  5
4AE
100
AcDbEntity
  8
03__ASM_ALL_CURVES
100
AcDbLine
 62
4
  6
CONTINUOUS
 10
11.2906273423
 20
11.4557609118
 11
11.3017835923
 21
11.4557609118
  0
LINE
  5
4AF
100
AcDbEntity
  8
03__ASM_ALL_CURVES
100
AcDbLine
 62
4
  6
CONTINUOUS
 10
11.9153773423
 20
11.4557609118
 11
11.9265335923
 21
11.4557609118
  0
LINE
  5
4B0
100
AcDbEntity
  8
03__ASM_ALL_CURVES
100
AcDbLine
 62
4
  6
CONTINUOUS
 10
11.1232835923
 20
11.4557609118
 11
11.1344398423
 21
11.4483234136
  0
LINE
  5
4B1
100
AcDbEntity
  8
03__ASM_ALL_CURVES
100
AcDbLine
 62
4
  6
CONTINUOUS
 10
11.2906273423
 20
11.3665109118
 11
11.2794710923
 21
11.373948412
  0
LINE
  5
4B2
100
AcDbEntity
  8
03__ASM_ALL_CURVES
100
AcDbLine
 62
4
  6
CONTINUOUS
 10
11.2850492173
 20
11.591948412
 11
11.2794710923
 21
11.5993859122
  0
LINE
  5
4B3
100
AcDbEntity
  8
03__ASM_ALL_CURVES
100
AcDbLine
 62
4
  6
CONTINUOUS
 10
11.3073617173
 20
11.6663234136
 11
11.3129398423
 21
11.65888591
  0
LINE
  5
4B4
100
AcDbEntity
  8
03__ASM_ALL_CURVES
100
AcDbLine
 62
4
  6
CONTINUOUS
 10
11.3687210923
 20
11.591948412
 11
11.3631429673
 21
11.5993859122
  0
LINE
  5
4B5
100
AcDbEntity
  8
03__ASM_ALL_CURVES
100
AcDbLine
 62
4
  6
CONTINUOUS
 10
11.5583773423
 20
11.3813859122
 11
11.5695335923
 21
11.3665109118
  0
LINE
  5
4B6
100
AcDbEntity
  8
03__ASM_ALL_CURVES
100
AcDbLine
 62
4
  6
CONTINUOUS
 10
11.4021898423
 20
11.6291359118
 11
11.4133460923
 21
11.6142609127
  0
LINE
  5
4B7
100
AcDbEntity
  8
03__ASM_ALL_CURVES
100
AcDbLine
 62
4
  6
CONTINUOUS
 10
11.4021898423
 20
11.6663234136
 11
11.4077679673
 21
11.65888591
  0
LINE
  5
4B8
100
AcDbEntity
  8
03__ASM_ALL_CURVES
100
AcDbLine
 62
4
  6
CONTINUOUS
 10
11.7591898423
 20
11.6291359118
 11
11.7647679673
 21
11.6142609127
  0
LINE
  5
4B9
100
AcDbEntity
  8
03__ASM_ALL_CURVES
100
AcDbLine
 62
4
  6
CONTINUOUS
 10
11.6364710923
 20
12.2231359118
 11
11.6308929673
 21
12.2380109136
  0
LINE
  5
4BA
100
AcDbEntity
  8
03__ASM_ALL_CURVES
100
AcDbLine
 62
4
  6
CONTINUOUS
 10
11.6699398423
 20
12.25288591
 11
11.6755179673
 21
12.2380109136
  0
LINE
  5
4BB
100
AcDbEntity
  8
03__ASM_ALL_CURVES
100
AcDbLine
 62
4
  6
CONTINUOUS
 10
11.9042210923
 20
11.6291359118
 11
11.8986429673
 21
11.6440109136
  0
LINE
  5
4BC
100
AcDbEntity
  8
03__ASM_ALL_CURVES
100
AcDbLine
 62
4
  6
CONTINUOUS
 10
11.9376898423
 20
11.65888591
 11
11.9432679673
 21
11.6440109136
  0
LINE
  5
4BD
100
AcDbEntity
  8
03__ASM_ALL_CURVES
100
AcDbLine
 62
4
  6
CONTINUOUS
 10
11.9934710923
 20
11.5993859122
 11
11.9878929673
 21
11.6142609127
  0
LINE
  5
4BE
100
AcDbEntity
  8
03__ASM_ALL_CURVES
100
AcDbLine
 62
4
  6
CONTINUOUS
 10
12.1050335923
 20
11.44088591
 11
12.1106117173
 21
11.41857341
  0
LINE
  5
4BF
100
AcDbEntity
  8
03__ASM_ALL_CURVES
100
AcDbLine
 62
4
  6
CONTINUOUS
 10
12.1050335923
 20
11.65888591
 11
12.1106117173
 21
11.63657341
  0
LINE
  5
4C0
100
AcDbEntity
  8
03__ASM_ALL_CURVES
100
AcDbLine
 62
4
  6
CONTINUOUS
 10
12.2667992173
 20
11.4036984109
 11
12.2723773423
 21
11.3813859122
  0
LINE
  5
4C1
100
AcDbEntity
  8
03__ASM_ALL_CURVES
100
AcDbLine
 62
4
  6
CONTINUOUS
 10
11.8540179673
 20
11.5845109118
 11
11.8456507798
 21
11.5845109118
  0
LINE
  5
4C2
100
AcDbEntity
  8
03__ASM_ALL_CURVES
100
AcDbLine
 62
4
  6
CONTINUOUS
 10
11.3910335923
 20
11.5845109118
 11
11.3798773423
 21
11.5845109118
  0
LINE
  5
4C3
100
AcDbEntity
  8
03__ASM_ALL_CURVES
100
AcDbLine
 62
4
  6
CONTINUOUS
 10
11.2292679673
 20
11.5845109118
 11
11.2209007798
 21
11.5845109118
  0
LINE
  5
4C4
100
AcDbEntity
  8
03__ASM_ALL_CURVES
100
AcDbLine
 62
4
  6
CONTINUOUS
 10
11.1232835923
 20
11.5845109118
 11
11.1121273423
 21
11.5845109118
  0
LINE
  5
4C5
100
AcDbEntity
  8
03__ASM_ALL_CURVES
100
AcDbLine
 62
4
  6
CONTINUOUS
 10
10.6268304673
 20
11.6291359118
 11
10.8945804673
 21
11.6291359118
  0
LINE
  5
4C6
100
AcDbEntity
  8
03__ASM_ALL_CURVES
100
AcDbLine
 62
4
  6
CONTINUOUS
 10
11.1121273423
 20
11.63657341
 11
11.1232835923
 21
11.63657341
  0
LINE
  5
4C7
100
AcDbEntity
  8
03__ASM_ALL_CURVES
100
AcDbLine
 62
4
  6
CONTINUOUS
 10
11.3798773423
 20
11.63657341
 11
11.3910335923
 21
11.63657341
  0
LINE
  5
4C8
100
AcDbEntity
  8
03__ASM_ALL_CURVES
100
AcDbLine
 62
4
  6
CONTINUOUS
 10
11.6755179673
 20
11.6737609118
 11
11.6308929673
 21
11.6737609118
  0
LINE
  5
4C9
100
AcDbEntity
  8
03__ASM_ALL_CURVES
100
AcDbLine
 62
4
  6
CONTINUOUS
 10
11.1121273423
 20
11.6737609118
 11
11.1232835923
 21
11.6737609118
  0
LINE
  5
4CA
100
AcDbEntity
  8
03__ASM_ALL_CURVES
100
AcDbLine
 62
4
  6
CONTINUOUS
 10
11.3798773423
 20
11.6737609118
 11
11.3910335923
 21
11.6737609118
  0
LINE
  5
4CB
100
AcDbEntity
  8
03__ASM_ALL_CURVES
100
AcDbLine
 62
4
  6
CONTINUOUS
 10
11.2906273423
 20
11.41857341
 11
11.2794710923
 21
11.4260109136
  0
LINE
  5
4CC
100
AcDbEntity
  8
03__ASM_ALL_CURVES
100
AcDbLine
 62
4
  6
CONTINUOUS
 10
11.3017835923
 20
11.41857341
 11
11.3129398423
 21
11.4111359118
  0
LINE
  5
4CD
100
AcDbEntity
  8
03__ASM_ALL_CURVES
100
AcDbLine
 62
4
  6
CONTINUOUS
 10
11.3017835923
 20
11.4557609118
 11
11.3129398423
 21
11.4483234136
  0
LINE
  5
4CE
100
AcDbEntity
  8
03__ASM_ALL_CURVES
100
AcDbLine
 62
4
  6
CONTINUOUS
 10
11.1121273423
 20
11.5845109118
 11
11.1009710923
 21
11.591948412
  0
LINE
  5
4CF
100
AcDbEntity
  8
03__ASM_ALL_CURVES
100
AcDbLine
 62
4
  6
CONTINUOUS
 10
11.1232835923
 20
11.63657341
 11
11.1344398423
 21
11.6291359118
  0
LINE
  5
4D0
100
AcDbEntity
  8
03__ASM_ALL_CURVES
100
AcDbLine
 62
4
  6
CONTINUOUS
 10
11.1232835923
 20
11.6737609118
 11
11.1344398423
 21
11.6663234136
  0
LINE
  5
4D1
100
AcDbEntity
  8
03__ASM_ALL_CURVES
100
AcDbLine
 62
4
  6
CONTINUOUS
 10
11.2962054673
 20
11.5845109118
 11
11.2850492173
 21
11.591948412
  0
LINE
  5
4D2
100
AcDbEntity
  8
03__ASM_ALL_CURVES
100
AcDbLine
 62
4
  6
CONTINUOUS
 10
11.3798773423
 20
11.5845109118
 11
11.3687210923
 21
11.591948412
  0
LINE
  5
4D3
100
AcDbEntity
  8
03__ASM_ALL_CURVES
100
AcDbLine
 62
4
  6
CONTINUOUS
 10
11.2962054673
 20
11.6737609118
 11
11.3073617173
 21
11.6663234136
  0
LINE
  5
4D4
100
AcDbEntity
  8
03__ASM_ALL_CURVES
100
AcDbLine
 62
4
  6
CONTINUOUS
 10
11.1009710923
 20
12.185948412
 11
11.0953929673
 21
12.1933859122
  0
LINE
  5
4D5
100
AcDbEntity
  8
03__ASM_ALL_CURVES
100
AcDbLine
 62
4
  6
CONTINUOUS
 10
11.5583773423
 20
11.5993859122
 11
11.5695335923
 21
11.5845109118
  0
LINE
  5
4D6
100
AcDbEntity
  8
03__ASM_ALL_CURVES
100
AcDbLine
 62
4
  6
CONTINUOUS
 10
11.1344398423
 20
12.2231359118
 11
11.1455960923
 21
12.2082609127
  0
LINE
  5
4D7
100
AcDbEntity
  8
03__ASM_ALL_CURVES
100
AcDbLine
 62
4
  6
CONTINUOUS
 10
11.1344398423
 20
12.2603234136
 11
11.1400179673
 21
12.25288591
  0
LINE
  5
4D8
100
AcDbEntity
  8
03__ASM_ALL_CURVES
100
AcDbLine
 62
4
  6
CONTINUOUS
 10
11.2209007798
 20
12.1896671621
 11
11.2292679673
 21
12.1785109118
  0
LINE
  5
4D9
100
AcDbEntity
  8
03__ASM_ALL_CURVES
100
AcDbLine
 62
4
  6
CONTINUOUS
 10
11.8456507798
 20
11.3776671621
 11
11.8540179673
 21
11.3665109118
  0
LINE
  5
4DA
100
AcDbEntity
  8
03__ASM_ALL_CURVES
100
AcDbLine
 62
4
  6
CONTINUOUS
 10
11.2850492173
 20
12.185948412
 11
11.2794710923
 21
12.1933859122
  0
LINE
  5
4DB
100
AcDbEntity
  8
03__ASM_ALL_CURVES
100
AcDbLine
 62
4
  6
CONTINUOUS
 10
11.7312992173
 20
11.591948412
 11
11.7257210923
 21
11.5993859122
  0
LINE
  5
4DC
100
AcDbEntity
  8
03__ASM_ALL_CURVES
100
AcDbLine
 62
4
  6
CONTINUOUS
 10
11.9042210923
 20
11.373948412
 11
11.8986429673
 21
11.3813859122
  0
LINE
  5
4DD
100
AcDbEntity
  8
03__ASM_ALL_CURVES
100
AcDbLine
 62
4
  6
CONTINUOUS
 10
11.9376898423
 20
11.4111359118
 11
11.9488460923
 21
11.3962609127
  0
LINE
  5
4DE
100
AcDbEntity
  8
03__ASM_ALL_CURVES
100
AcDbLine
 62
4
  6
CONTINUOUS
 10
11.3073617173
 20
12.2603234136
 11
11.3129398423
 21
12.25288591
  0
LINE
  5
4DF
100
AcDbEntity
  8
03__ASM_ALL_CURVES
100
AcDbLine
 62
4
  6
CONTINUOUS
 10
11.7536117173
 20
11.6663234136
 11
11.7591898423
 21
11.65888591
  0
LINE
  5
4E0
100
AcDbEntity
  8
03__ASM_ALL_CURVES
100
AcDbLine
 62
4
  6
CONTINUOUS
 10
11.9376898423
 20
11.4483234136
 11
11.9432679673
 21
11.44088591
  0
LINE
  5
4E1
100
AcDbEntity
  8
03__ASM_ALL_CURVES
100
AcDbLine
 62
4
  6
CONTINUOUS
 10
12.0269398423
 20
11.6291359118
 11
12.0325179673
 21
11.6142609127
  0
LINE
  5
4E2
100
AcDbEntity
  8
03__ASM_ALL_CURVES
100
AcDbLine
 62
4
  6
CONTINUOUS
 10
11.9042210923
 20
12.2231359118
 11
11.8986429673
 21
12.2380109136
  0
LINE
  5
4E3
100
AcDbEntity
  8
03__ASM_ALL_CURVES
100
AcDbLine
 62
4
  6
CONTINUOUS
 10
11.9376898423
 20
12.25288591
 11
11.9432679673
 21
12.2380109136
  0
LINE
  5
4E4
100
AcDbEntity
  8
03__ASM_ALL_CURVES
100
AcDbLine
 62
4
  6
CONTINUOUS
 10
12.1050335923
 20
12.25288591
 11
12.1106117173
 21
12.23057341
  0
LINE
  5
4E5
100
AcDbEntity
  8
03__ASM_ALL_CURVES
100
AcDbLine
 62
4
  6
CONTINUOUS
 10
11.7424554673
 20
11.63657341
 11
11.7591898423
 21
11.6291359118
  0
LINE
  5
4E6
100
AcDbEntity
  8
03__ASM_ALL_CURVES
100
AcDbLine
 62
4
  6
CONTINUOUS
 10
11.3910335923
 20
11.63657341
 11
11.4021898423
 21
11.6291359118
  0
LINE
  5
4E7
100
AcDbEntity
  8
03__ASM_ALL_CURVES
100
AcDbLine
 62
4
  6
CONTINUOUS
 10
11.3910335923
 20
11.6737609118
 11
11.4021898423
 21
11.6663234136
  0
LINE
  5
4E8
100
AcDbEntity
  8
03__ASM_ALL_CURVES
100
AcDbLine
 62
4
  6
CONTINUOUS
 10
11.9153773423
 20
11.3665109118
 11
11.9042210923
 21
11.373948412
  0
LINE
  5
4E9
100
AcDbEntity
  8
03__ASM_ALL_CURVES
100
AcDbLine
 62
4
  6
CONTINUOUS
 10
11.9265335923
 20
11.41857341
 11
11.9376898423
 21
11.4111359118
  0
LINE
  5
4EA
100
AcDbEntity
  8
03__ASM_ALL_CURVES
100
AcDbLine
 62
4
  6
CONTINUOUS
 10
11.9265335923
 20
11.4557609118
 11
11.9376898423
 21
11.4483234136
  0
LINE
  5
4EB
100
AcDbEntity
  8
03__ASM_ALL_CURVES
100
AcDbLine
 62
4
  6
CONTINUOUS
 10
11.7424554673
 20
11.5845109118
 11
11.7312992173
 21
11.591948412
  0
LINE
  5
4EC
100
AcDbEntity
  8
03__ASM_ALL_CURVES
100
AcDbLine
 62
4
  6
CONTINUOUS
 10
11.7424554673
 20
11.6737609118
 11
11.7536117173
 21
11.6663234136
  0
LINE
  5
4ED
100
AcDbEntity
  8
03__ASM_ALL_CURVES
100
AcDbLine
 62
4
  6
CONTINUOUS
 10
11.8456507798
 20
11.5956671621
 11
11.8540179673
 21
11.5845109118
  0
LINE
  5
4EE
100
AcDbEntity
  8
03__ASM_ALL_CURVES
100
AcDbLine
 62
4
  6
CONTINUOUS
 10
11.4021898423
 20
12.2603234136
 11
11.4077679673
 21
12.25288591
  0
LINE
  5
4EF
100
AcDbEntity
  8
03__ASM_ALL_CURVES
100
AcDbLine
 62
4
  6
CONTINUOUS
 10
11.9097992173
 20
11.591948412
 11
11.9042210923
 21
11.5993859122
  0
LINE
  5
4F0
100
AcDbEntity
  8
03__ASM_ALL_CURVES
100
AcDbLine
 62
4
  6
CONTINUOUS
 10
11.9321117173
 20
11.6663234136
 11
11.9376898423
 21
11.65888591
  0
LINE
  5
4F1
100
AcDbEntity
  8
03__ASM_ALL_CURVES
100
AcDbLine
 62
4
  6
CONTINUOUS
 10
12.0938773423
 20
11.4557609118
 11
12.1050335923
 21
11.44088591
  0
LINE
  5
4F2
100
AcDbEntity
  8
03__ASM_ALL_CURVES
100
AcDbLine
 62
4
  6
CONTINUOUS
 10
11.9990492173
 20
11.591948412
 11
11.9934710923
 21
11.5993859122
  0
LINE
  5
4F3
100
AcDbEntity
  8
03__ASM_ALL_CURVES
100
AcDbLine
 62
4
  6
CONTINUOUS
 10
11.5583773423
 20
12.1933859122
 11
11.5695335923
 21
12.1785109118
  0
LINE
  5
4F4
100
AcDbEntity
  8
03__ASM_ALL_CURVES
100
AcDbLine
 62
4
  6
CONTINUOUS
 10
12.0213617173
 20
11.6663234136
 11
12.0269398423
 21
11.65888591
  0
LINE
  5
4F5
100
AcDbEntity
  8
03__ASM_ALL_CURVES
100
AcDbLine
 62
4
  6
CONTINUOUS
 10
11.6420492173
 20
12.185948412
 11
11.6364710923
 21
12.1933859122
  0
LINE
  5
4F6
100
AcDbEntity
  8
03__ASM_ALL_CURVES
100
AcDbLine
 62
4
  6
CONTINUOUS
 10
12.2723773423
 20
11.3813859122
 11
12.2835335923
 21
11.3665109118
  0
LINE
  5
4F7
100
AcDbEntity
  8
03__ASM_ALL_CURVES
100
AcDbLine
 62
4
  6
CONTINUOUS
 10
12.5512835923
 20
11.44088591
 11
12.5568617173
 21
11.41857341
  0
LINE
  5
4F8
100
AcDbEntity
  8
03__ASM_ALL_CURVES
100
AcDbLine
 62
4
  6
CONTINUOUS
 10
11.8540179673
 20
12.1785109118
 11
11.8456507798
 21
12.1785109118
  0
LINE
  5
4F9
100
AcDbEntity
  8
03__ASM_ALL_CURVES
100
AcDbLine
 62
4
  6
CONTINUOUS
 10
11.2292679673
 20
12.1785109118
 11
11.2209007798
 21
12.1785109118
  0
LINE
  5
4FA
100
AcDbEntity
  8
03__ASM_ALL_CURVES
100
AcDbLine
 62
4
  6
CONTINUOUS
 10
11.1232835923
 20
12.1785109118
 11
11.1121273423
 21
12.1785109118
  0
LINE
  5
4FB
100
AcDbEntity
  8
03__ASM_ALL_CURVES
100
AcDbLine
 62
4
  6
CONTINUOUS
 10
11.3631429673
 20
12.1785109118
 11
11.4077679673
 21
12.1785109118
  0
LINE
  5
4FC
100
AcDbEntity
  8
03__ASM_ALL_CURVES
100
AcDbLine
 62
4
  6
CONTINUOUS
 10
11.9209554673
 20
11.6216984109
 11
11.9042210923
 21
11.6291359118
  0
LINE
  5
4FD
100
AcDbEntity
  8
03__ASM_ALL_CURVES
100
AcDbLine
 62
4
  6
CONTINUOUS
 10
12.0102054673
 20
11.63657341
 11
12.0269398423
 21
11.6291359118
  0
LINE
  5
4FE
100
AcDbEntity
  8
03__ASM_ALL_CURVES
100
AcDbLine
 62
4
  6
CONTINUOUS
 10
11.9209554673
 20
11.5845109118
 11
11.9097992173
 21
11.591948412
  0
LINE
  5
4FF
100
AcDbEntity
  8
03__ASM_ALL_CURVES
100
AcDbLine
 62
4
  6
CONTINUOUS
 10
11.1121273423
 20
12.1785109118
 11
11.1009710923
 21
12.185948412
  0
LINE
  5
500
100
AcDbEntity
  8
03__ASM_ALL_CURVES
100
AcDbLine
 62
4
  6
CONTINUOUS
 10
12.0102054673
 20
11.5845109118
 11
11.9990492173
 21
11.591948412
  0
LINE
  5
501
100
AcDbEntity
  8
03__ASM_ALL_CURVES
100
AcDbLine
 62
4
  6
CONTINUOUS
 10
11.9209554673
 20
11.6737609118
 11
11.9321117173
 21
11.6663234136
  0
LINE
  5
502
100
AcDbEntity
  8
03__ASM_ALL_CURVES
100
AcDbLine
 62
4
  6
CONTINUOUS
 10
11.1232835923
 20
12.23057341
 11
11.1344398423
 21
12.2231359118
  0
LINE
  5
503
100
AcDbEntity
  8
03__ASM_ALL_CURVES
100
AcDbLine
 62
4
  6
CONTINUOUS
 10
12.4508773423
 20
11.3665109118
 11
12.4397210923
 21
11.373948412
  0
LINE
  5
504
100
AcDbEntity
  8
03__ASM_ALL_CURVES
100
AcDbLine
 62
4
  6
CONTINUOUS
 10
12.0102054673
 20
11.6737609118
 11
12.0213617173
 21
11.6663234136
  0
LINE
  5
505
100
AcDbEntity
  8
03__ASM_ALL_CURVES
100
AcDbLine
 62
4
  6
CONTINUOUS
 10
11.1232835923
 20
12.2677609118
 11
11.1344398423
 21
12.2603234136
  0
LINE
  5
506
100
AcDbEntity
  8
03__ASM_ALL_CURVES
100
AcDbLine
 62
4
  6
CONTINUOUS
 10
11.2962054673
 20
12.1785109118
 11
11.2850492173
 21
12.185948412
  0
LINE
  5
507
100
AcDbEntity
  8
03__ASM_ALL_CURVES
100
AcDbLine
 62
4
  6
CONTINUOUS
 10
12.4397210923
 20
11.4260109136
 11
12.4731898423
 21
11.4036984109
  0
LINE
  5
508
100
AcDbEntity
  8
03__ASM_ALL_CURVES
100
AcDbLine
 62
4
  6
CONTINUOUS
 10
12.4731898423
 20
11.4483234136
 11
12.4620335923
 21
11.4557609118
  0
LINE
  5
509
100
AcDbEntity
  8
03__ASM_ALL_CURVES
100
AcDbLine
 62
4
  6
CONTINUOUS
 10
11.2962054673
 20
12.2677609118
 11
11.3073617173
 21
12.2603234136
  0
LINE
  5
50A
100
AcDbEntity
  8
03__ASM_ALL_CURVES
100
AcDbLine
 62
4
  6
CONTINUOUS
 10
12.0938773423
 20
11.6737609118
 11
12.1050335923
 21
11.65888591
  0
LINE
  5
50B
100
AcDbEntity
  8
03__ASM_ALL_CURVES
100
AcDbLine
 62
4
  6
CONTINUOUS
 10
11.6643617173
 20
12.2603234136
 11
11.6699398423
 21
12.25288591
  0
LINE
  5
50C
100
AcDbEntity
  8
03__ASM_ALL_CURVES
100
AcDbLine
 62
4
  6
CONTINUOUS
 10
12.4397210923
 20
11.373948412
 11
12.4285648423
 21
11.3888234118
  0
LINE
  5
50D
100
AcDbEntity
  8
03__ASM_ALL_CURVES
100
AcDbLine
 62
4
  6
CONTINUOUS
 10
11.8456507798
 20
12.1896671621
 11
11.8540179673
 21
12.1785109118
  0
LINE
  5
50E
100
AcDbEntity
  8
03__ASM_ALL_CURVES
100
AcDbLine
 62
4
  6
CONTINUOUS
 10
12.4341429673
 20
11.4334484118
 11
12.4397210923
 21
11.4260109136
  0
LINE
  5
50F
100
AcDbEntity
  8
03__ASM_ALL_CURVES
100
AcDbLine
 62
4
  6
CONTINUOUS
 10
12.4731898423
 20
11.4036984109
 11
12.4787679673
 21
11.3962609127
  0
LINE
  5
510
100
AcDbEntity
  8
03__ASM_ALL_CURVES
100
AcDbLine
 62
4
  6
CONTINUOUS
 10
11.9097992173
 20
12.185948412
 11
11.9042210923
 21
12.1933859122
  0
LINE
  5
511
100
AcDbEntity
  8
03__ASM_ALL_CURVES
100
AcDbLine
 62
4
  6
CONTINUOUS
 10
12.4787679673
 20
11.44088591
 11
12.4731898423
 21
11.4483234136
  0
LINE
  5
512
100
AcDbEntity
  8
03__ASM_ALL_CURVES
100
AcDbLine
 62
4
  6
CONTINUOUS
 10
11.9321117173
 20
12.2603234136
 11
11.9376898423
 21
12.25288591
  0
LINE
  5
513
100
AcDbEntity
  8
03__ASM_ALL_CURVES
100
AcDbLine
 62
4
  6
CONTINUOUS
 10
12.5401273423
 20
11.4557609118
 11
12.5512835923
 21
11.44088591
  0
LINE
  5
514
100
AcDbEntity
  8
03__ASM_ALL_CURVES
100
AcDbLine
 62
4
  6
CONTINUOUS
 10
11.9878929673
 20
12.2008234118
 11
12.0380960923
 21
12.2008234118
  0
LINE
  5
515
100
AcDbEntity
  8
0
100
AcDbLine
 62
7
  6
CONTINUOUS
 10
8.5375804673
 20
12.2231359118
 11
10.5375804673
 21
12.2231359118
  0
LINE
  5
516
100
AcDbEntity
  8
03__ASM_ALL_CURVES
100
AcDbLine
 62
4
  6
CONTINUOUS
 10
10.6268304673
 20
12.2231359118
 11
10.8945804673
 21
12.2231359118
  0
LINE
  5
517
100
AcDbEntity
  8
03__ASM_ALL_CURVES
100
AcDbLine
 62
4
  6
CONTINUOUS
 10
11.1121273423
 20
12.23057341
 11
11.1232835923
 21
12.23057341
  0
LINE
  5
518
100
AcDbEntity
  8
03__ASM_ALL_CURVES
100
AcDbLine
 62
4
  6
CONTINUOUS
 10
11.1121273423
 20
12.2677609118
 11
11.1232835923
 21
12.2677609118
  0
LINE
  5
519
100
AcDbEntity
  8
03__ASM_ALL_CURVES
100
AcDbLine
 62
4
  6
CONTINUOUS
 10
11.3798773423
 20
12.2677609118
 11
11.3910335923
 21
12.2677609118
  0
LINE
  5
51A
100
AcDbEntity
  8
03__ASM_ALL_CURVES
100
AcDbLine
 62
4
  6
CONTINUOUS
 10
11.2962054673
 20
12.23057341
 11
11.3129398423
 21
12.2231359118
  0
LINE
  5
51B
100
AcDbEntity
  8
03__ASM_ALL_CURVES
100
AcDbLine
 62
4
  6
CONTINUOUS
 10
11.6532054673
 20
12.2156984109
 11
11.6364710923
 21
12.2231359118
  0
LINE
  5
51C
100
AcDbEntity
  8
03__ASM_ALL_CURVES
100
AcDbLine
 62
4
  6
CONTINUOUS
 10
11.3910335923
 20
12.2677609118
 11
11.4021898423
 21
12.2603234136
  0
LINE
  5
51D
100
AcDbEntity
  8
03__ASM_ALL_CURVES
100
AcDbLine
 62
4
  6
CONTINUOUS
 10
11.6532054673
 20
12.1785109118
 11
11.6420492173
 21
12.185948412
  0
LINE
  5
51E
100
AcDbEntity
  8
03__ASM_ALL_CURVES
100
AcDbLine
 62
4
  6
CONTINUOUS
 10
11.6532054673
 20
12.2677609118
 11
11.6643617173
 21
12.2603234136
  0
LINE
  5
51F
100
AcDbEntity
  8
03__ASM_ALL_CURVES
100
AcDbLine
 62
4
  6
CONTINUOUS
 10
12.0938773423
 20
12.2677609118
 11
12.1050335923
 21
12.25288591
  0
LINE
  5
520
100
AcDbEntity
  8
03__ASM_ALL_CURVES
100
AcDbLine
 62
4
  6
CONTINUOUS
 10
11.9209554673
 20
12.2156984109
 11
11.9042210923
 21
12.2231359118
  0
LINE
  5
521
100
AcDbEntity
  8
03__ASM_ALL_CURVES
100
AcDbLine
 62
4
  6
CONTINUOUS
 10
11.9209554673
 20
12.1785109118
 11
11.9097992173
 21
12.185948412
  0
LINE
  5
522
100
AcDbEntity
  8
03__ASM_ALL_CURVES
100
AcDbLine
 62
4
  6
CONTINUOUS
 10
11.9209554673
 20
12.2677609118
 11
11.9321117173
 21
12.2603234136
  0
CIRCLE
  5
523
100
AcDbEntity
  8
0
100
AcDbCircle
 62
7
  6
CONTINUOUS
 10
9.5375804673
 20
9.5041359299
 40
0.67
  0
CIRCLE
  5
524
100
AcDbEntity
  8
0
100
AcDbCircle
 62
7
  6
CONTINUOUS
 10
9.5375804673
 20
11.6291358107
 40
0.49
  0
CIRCLE
  5
525
100
AcDbEntity
  8
0
100
AcDbCircle
 62
7
  6
CONTINUOUS
 10
9.5375804673
 20
9.5041359299
 40
0.47
  0
CIRCLE
  5
526
100
AcDbEntity
  8
0
100
AcDbCircle
 62
7
  6
CONTINUOUS
 10
9.5375804673
 20
9.5041359299
 40
0.4405255888
  0
CIRCLE
  5
527
100
AcDbEntity
  8
0
100
AcDbCircle
 62
7
  6
CONTINUOUS
 10
9.5375804673
 20
9.5041359299
 40
0.405
  0
CIRCLE
  5
528
100
AcDbEntity
  8
0
100
AcDbCircle
 62
7
  6
CONTINUOUS
 10
9.5375804673
 20
11.6291358107
 40
0.31
  0
CIRCLE
  5
529
100
AcDbEntity
  8
0
100
AcDbCircle
 62
7
  6
CONTINUOUS
 10
9.5375804673
 20
11.6291358107
 40
0.2866187782
  0
CIRCLE
  5
52A
100
AcDbEntity
  8
0
100
AcDbCircle
 62
7
  6
CONTINUOUS
 10
9.5375804673
 20
9.5041359299
 40
0.281
  0
CIRCLE
  5
52B
100
AcDbEntity
  8
0
100
AcDbCircle
 62
7
  6
CONTINUOUS
 10
9.5375804673
 20
11.6291358107
 40
0.255
  0
CIRCLE
  5
52C
100
AcDbEntity
  8
0
100
AcDbCircle
 62
7
  6
CONTINUOUS
 10
9.5375804673
 20
11.6291358107
 40
0.1875
  0
SPLINE
  5
52D
100
AcDbEntity
  8
0
100
AcDbSpline
 62
7
  6
CONTINUOUS
 70
0
 71
3
 72
8
 73
4
 74
2
 42
0.0000001
 43
0.0000001
 44
0.0000000001
 12
0.0054814801
 22
0.0
 32
0.0
 13
0.0051222812
 23
-0.0020423468
 33
0.0
 40
0.0
 40
0.0
 40
0.0
 40
0.0
 40
1.0
 40
1.0
 40
1.0
 40
1.0
 10
9.7805005931
 20
9.6353046954
 30
0.0
 10
9.7823277531
 20
9.6353046954
 30
0.0
 10
9.7841780729
 20
9.6349548395
 30
0.0
 10
9.7858855
 20
9.6342740572
 30
0.0
 11
9.7805005931
 21
9.6353046954
 31
0.0
 11
9.7858855
 21
9.6342740572
 31
0.0
  0
SPLINE
  5
52E
100
AcDbEntity
  8
0
100
AcDbSpline
 62
7
  6
CONTINUOUS
 70
0
 71
3
 72
9
 73
5
 74
3
 42
0.0000001
 43
0.0000001
 44
0.0000000001
 12
0.0007653454
 22
-0.0003051572
 32
0.0
 13
0.0007455908
 23
-0.0003483445
 33
0.0
 40
0.0
 40
0.0
 40
0.0
 40
0.0
 40
0.1135111439
 40
1.0
 40
1.0
 40
1.0
 40
1.0
 10
9.7858855
 20
9.6342740572
 30
0.0
 10
9.7859144584
 20
9.634262511
 30
0.0
 10
9.7861692114
 20
9.6341599533
 30
0.0
 10
9.7864207115
 20
9.6340500149
 30
0.0
 10
9.7866410308
 20
9.6339470804
 30
0.0
 11
9.7858855
 21
9.6342740572
 31
0.0
 11
9.7859722511
 21
9.634239133
 31
0.0
 11
9.7866410308
 21
9.6339470804
 31
0.0
  0
SPLINE
  5
52F
100
AcDbEntity
  8
0
100
AcDbSpline
 62
7
  6
CONTINUOUS
 70
0
 71
3
 72
8
 73
4
 74
2
 42
0.0000001
 43
0.0000001
 44
0.0000000001
 12
0.0000934375
 22
-0.0000436546
 32
0.0
 13
0.0000931212
 23
-0.0000443083
 33
0.0
 40
0.0
 40
0.0
 40
0.0
 40
0.0
 40
1.0
 40
1.0
 40
1.0
 40
1.0
 10
9.7866410308
 20
9.6339470804
 30
0.0
 10
9.7866721767
 20
9.6339325289
 30
0.0
 10
9.7867032699
 20
9.633917868
 30
0.0
 10
9.7867343103
 20
9.6339030985
 30
0.0
 11
9.7866410308
 21
9.6339470804
 31
0.0
 11
9.7867343103
 21
9.6339030985
 31
0.0
  0
SPLINE
  5
530
100
AcDbEntity
  8
0
100
AcDbSpline
 62
7
  6
CONTINUOUS
 70
0
 71
3
 72
8
 73
4
 74
2
 42
0.0000001
 43
0.0000001
 44
0.0000000001
 12
0.0111967144
 22
0.0
 32
0.0
 13
0.0110279425
 23
-0.0020545995
 33
0.0
 40
0.0
 40
0.0
 40
0.0
 40
0.0
 40
1.0
 40
1.0
 40
1.0
 40
1.0
 10
9.5375804673
 20
9.6353046954
 30
0.0
 10
9.5413127055
 20
9.6353046954
 30
0.0
 10
9.5450542308
 20
9.6349598643
 30
0.0
 10
9.5487302117
 20
9.6342749978
 30
0.0
 11
9.5375804673
 21
9.6353046954
 31
0.0
 11
9.5487302117
 21
9.6342749978
 31
0.0
  0
SPLINE
  5
531
100
AcDbEntity
  8
0
100
AcDbSpline
 62
7
  6
CONTINUOUS
 70
0
 71
3
 72
16
 73
12
 74
10
 42
0.0000001
 43
0.0000001
 44
0.0000000001
 12
0.0841663407
 22
-0.015680905
 32
0.0
 13
0.0065536164
 23
-0.0853112662
 33
0.0
 40
0.0
 40
0.0
 40
0.0
 40
0.0
 40
0.002267678
 40
0.1357106665
 40
0.2697739826
 40
0.4053844641
 40
0.5440311113
 40
0.6876473967
 40
0.8383011762
 40
0.997603521
 40
1.0
 40
1.0
 40
1.0
 40
1.0
 10
9.5487302117
 20
9.6342749978
 30
0.0
 10
9.5487938324
 20
9.6342631447
 30
0.0
 10
9.5526000808
 20
9.6335476939
 30
0.0
 10
9.5600238351
 20
9.631400507
 30
0.0
 10
9.5703184919
 20
9.6261569455
 30
0.0
 10
9.579545178
 20
9.6189592881
 30
0.0
 10
9.5874126484
 20
9.6099309392
 30
0.0
 10
9.5936557761
 20
9.5992129818
 30
0.0
 10
9.5980201948
 20
9.5869767517
 30
0.0
 10
9.5994767108
 20
9.5781527629
 30
0.0
 10
9.5998357956
 20
9.5735549472
 30
0.0
 10
9.5998410308
 20
9.5734867983
 30
0.0
 11
9.5487302117
 21
9.6342749978
 31
0.0
 11
9.5489210146
 21
9.634239133
 31
0.0
 11
9.5598749113
 21
9.6310693924
 31
0.0
 11
9.5700829735
 21
9.625869166
 31
0.0
 11
9.5792238233
 21
9.6187460654
 31
0.0
 11
9.5870190005
 21
9.6098236446
 31
0.0
 11
9.5932179385
 21
9.5992316178
 31
0.0
 11
9.5975738327
 21
9.5871168794
 31
0.0
 11
9.5998250652
 21
9.5736912257
 31
0.0
 11
9.5998410308
 21
9.5734867983
 31
0.0
  0
SPLINE
  5
532
100
AcDbEntity
  8
0
100
AcDbSpline
 62
7
  6
CONTINUOUS
 70
0
 71
3
 72
8
 73
4
 74
2
 42
0.0000001
 43
0.0000001
 44
0.0000000001
 12
0.0004781808
 22
-0.0062246863
 32
0.0
 13
0.0000031748
 23
-0.0062427213
 33
0.0
 40
0.0
 40
0.0
 40
0.0
 40
0.0
 40
1.0
 40
1.0
 40
1.0
 40
1.0
 10
9.5998410308
 20
9.5734867983
 30
0.0
 10
9.6000004244
 20
9.5714119029
 30
0.0
 10
9.6000794823
 20
9.5693311266
 30
0.0
 10
9.6000805406
 20
9.5672502195
 30
0.0
 11
9.5998410308
 21
9.5734867983
 31
0.0
 11
9.6000805406
 21
9.5672502195
 31
0.0
  0
SPLINE
  5
533
100
AcDbEntity
  8
0
100
AcDbSpline
 62
7
  6
CONTINUOUS
 70
0
 71
3
 72
8
 73
4
 74
2
 42
0.0000001
 43
0.0000001
 44
0.0000000001
 12
0.0058657169
 22
0.0
 32
0.0
 13
0.0055736165
 23
-0.0019357023
 33
0.0
 40
0.0
 40
0.0
 40
0.0
 40
0.0
 40
1.0
 40
1.0
 40
1.0
 40
1.0
 10
9.2946603416
 20
9.6353046954
 30
0.0
 10
9.2966155805
 20
9.6353046954
 30
0.0
 10
9.2985772761
 20
9.6349172895
 30
0.0
 10
9.3004351482
 20
9.6342720554
 30
0.0
 11
9.2946603416
 21
9.6353046954
 31
0.0
 11
9.3004351482
 21
9.6342720554
 31
0.0
  0
SPLINE
  5
534
100
AcDbEntity
  8
0
100
AcDbSpline
 62
7
  6
CONTINUOUS
 70
0
 71
3
 72
23
 73
19
 74
17
 42
0.0000001
 43
0.0000001
 44
0.0000000001
 12
0.1506609172
 22
-0.0523241398
 32
0.0
 13
-0.1314924841
 23
-0.0895278515
 33
0.0
 40
0.0
 40
0.0
 40
0.0
 40
0.0
 40
0.0006371506
 40
0.0437022687
 40
0.0936481884
 40
0.1509001668
 40
0.2154407346
 40
0.2871360698
 40
0.3658134524
 40
0.4510619975
 40
0.5416953902
 40
0.6350143316
 40
0.7264815734
 40
0.8107397283
 40
0.8836866193
 40
0.9438090875
 40
0.9919739609
 40
1.0
 40
1.0
 40
1.0
 40
1.0
 10
9.3004351482
 20
9.6342720554
 30
0.0
 10
9.3004671461
 20
9.6342609426
 30
0.0
 10
9.3026597751
 20
9.633493469
 30
0.0
 10
9.3070421352
 20
9.6310845369
 30
0.0
 10
9.3130062956
 20
9.6257587429
 30
0.0
 10
9.3185979685
 20
9.6185567426
 30
0.0
 10
9.323572747
 20
9.6095809556
 30
0.0
 10
9.3276648892
 20
9.5989488716
 30
0.0
 10
9.3306061768
 20
9.5868138204
 30
0.0
 10
9.3321353278
 20
9.573413119
 30
0.0
 10
9.3320362719
 20
9.5591516509
 30
0.0
 10
9.3302182284
 20
9.5446751416
 30
0.0
 10
9.3268088607
 20
9.5308365627
 30
0.0
 10
9.3221739186
 20
9.5185037334
 30
0.0
 10
9.3168101114
 20
9.5083093339
 30
0.0
 10
9.3111792492
 20
9.5005138336
 30
0.0
 10
9.3067421577
 20
9.4962016419
 30
0.0
 10
9.3043203204
 20
9.4944644415
 30
0.0
 10
9.3039685324
 20
9.4942249235
 30
0.0
 11
9.3004351482
 21
9.6342720554
 31
0.0
 11
9.300531049
 21
9.6342384883
 31
0.0
 11
9.3065784798
 21
9.6310677214
 31
0.0
 11
9.3125503336
 21
9.6258666011
 31
0.0
 11
9.3181763535
 21
9.6187425382
 31
0.0
 11
9.3231848466
 21
9.609818624
 31
0.0
 11
9.3273077787
 21
9.5992248629
 31
0.0
 11
9.3302796007
 21
9.5871091879
 31
0.0
 11
9.3318395698
 21
9.573682779
 31
0.0
 11
9.3317589233
 21
9.5593124727
 31
0.0
 11
9.3299198903
 21
9.5446308596
 31
0.0
 11
9.3264334366
 21
9.5305534219
 31
0.0
 11
9.3216902318
 21
9.5180640872
 31
0.0
 11
9.3162381173
 21
9.5078635053
 31
0.0
 11
9.3105714568
 21
9.5001977613
 31
0.0
 11
9.30500649
 21
9.4949677676
 31
0.0
 11
9.3039685324
 21
9.4942249235
 31
0.0
  0
SPLINE
  5
535
100
AcDbEntity
  8
0
100
AcDbSpline
 62
7
  6
CONTINUOUS
 70
0
 71
3
 72
8
 73
4
 74
2
 42
0.0000001
 43
0.0000001
 44
0.0000000001
 12
-0.000193932
 22
-0.0001320404
 32
0.0
 13
-0.0001951236
 23
-0.0001302659
 33
0.0
 40
0.0
 40
0.0
 40
0.0
 40
0.0
 40
1.0
 40
1.0
 40
1.0
 40
1.0
 10
9.3039685324
 20
9.4942249235
 30
0.0
 10
9.3039038884
 20
9.49418091
 30
0.0
 10
9.3038390464
 20
9.4941371875
 30
0.0
 10
9.3037740052
 20
9.4940937655
 30
0.0
 11
9.3039685324
 21
9.4942249235
 31
0.0
 11
9.3037740052
 21
9.4940937655
 31
0.0
  0
SPLINE
  5
536
100
AcDbEntity
  8
0
100
AcDbSpline
 62
7
  6
CONTINUOUS
 70
0
 71
3
 72
13
 73
9
 74
7
 42
0.0000001
 43
0.0000001
 44
0.0000000001
 12
0.0598634256
 22
0.0
 32
0.0
 13
0.0314410554
 23
0.051019567
 33
0.0
 40
0.0
 40
0.0
 40
0.0
 40
0.0
 40
0.1430772904
 40
0.2943664387
 40
0.4615696362
 40
0.6503082389
 40
0.8647812369
 40
1.0
 40
1.0
 40
1.0
 40
1.0
 10
9.5375804673
 20
9.5801677447
 30
0.0
 10
9.5404354996
 20
9.5801677447
 30
0.0
 10
9.5463249564
 20
9.5807548896
 30
0.0
 10
9.5551848264
 20
9.583468751
 30
0.0
 10
9.5641675089
 20
9.5882647294
 30
0.0
 10
9.573099327
 20
9.595417855
 30
0.0
 10
9.5802335076
 20
9.6035190247
 30
0.0
 10
9.5841636968
 20
9.6093015683
 30
0.0
 10
9.585580837
 20
9.6116011693
 30
0.0
 11
9.5375804673
 21
9.5801677447
 31
0.0
 11
9.5461041812
 21
9.5810086867
 31
0.0
 11
9.5547725757
 21
9.5836321408
 31
0.0
 11
9.5636250564
 21
9.5883034142
 31
0.0
 11
9.5724835837
 21
9.595316508
 31
0.0
 11
9.5810191015
 21
9.6049075
 31
0.0
 11
9.585580837
 21
9.6116011693
 31
0.0
  0
SPLINE
  5
537
100
AcDbEntity
  8
0
100
AcDbSpline
 62
7
  6
CONTINUOUS
 70
0
 71
3
 72
8
 73
4
 74
2
 42
0.0000001
 43
0.0000001
 44
0.0000000001
 12
0.0000907809
 22
0.0001473107
 32
0.0
 13
0.0000905003
 23
0.0001474843
 33
0.0
 40
0.0
 40
0.0
 40
0.0
 40
0.0
 40
1.0
 40
1.0
 40
1.0
 40
1.0
 10
9.585580837
 20
9.6116011693
 30
0.0
 10
9.5856110973
 20
9.6116502728
 30
0.0
 10
9.5856413108
 20
9.6116994054
 30
0.0
 10
9.5856714776
 20
9.6117485668
 30
0.0
 11
9.585580837
 21
9.6116011693
 31
0.0
 11
9.5856714776
 21
9.6117485668
 31
0.0
  0
SPLINE
  5
538
100
AcDbEntity
  8
0
100
AcDbSpline
 62
7
  6
CONTINUOUS
 70
0
 71
3
 72
8
 73
4
 74
2
 42
0.0000001
 43
0.0000001
 44
0.0000000001
 12
-0.0048757615
 22
0.0
 32
0.0
 13
-0.0048056041
 23
0.0008720126
 33
0.0
 40
0.0
 40
0.0
 40
0.0
 40
0.0
 40
1.0
 40
1.0
 40
1.0
 40
1.0
 10
9.5375804673
 20
9.5264741697
 30
0.0
 10
9.5359552135
 20
9.5264741697
 30
0.0
 10
9.5343262857
 20
9.5266226213
 30
0.0
 10
9.5327244176
 20
9.5269132921
 30
0.0
 11
9.5375804673
 21
9.5264741697
 31
0.0
 11
9.5327244176
 21
9.5269132921
 31
0.0
  0
SPLINE
  5
539
100
AcDbEntity
  8
0
100
AcDbSpline
 62
7
  6
CONTINUOUS
 70
0
 71
3
 72
13
 73
9
 74
7
 42
0.0000001
 43
0.0000001
 44
0.0000000001
 12
-0.0351200867
 22
0.0063728006
 32
0.0
 13
-0.0103604798
 23
0.0343018327
 33
0.0
 40
0.0
 40
0.0
 40
0.0
 40
0.0
 40
0.1469456072
 40
0.3047362235
 40
0.4737448891
 40
0.6522134025
 40
0.8360812428
 40
1.0
 40
1.0
 40
1.0
 40
1.0
 10
9.5327244176
 20
9.5269132921
 30
0.0
 10
9.5310041701
 20
9.5272254438
 30
0.0
 10
9.5275016762
 20
9.5282131325
 30
0.0
 10
9.5224258359
 20
9.5307122085
 30
0.0
 10
9.5175627359
 20
9.5342785186
 30
0.0
 10
9.5131427691
 20
9.5388223527
 30
0.0
 10
9.5095649291
 20
9.5439882449
 30
0.0
 10
9.5078453721
 20
9.5477678905
 30
0.0
 10
9.5072792797
 20
9.5496421285
 30
0.0
 11
9.5327244176
 21
9.5269132921
 31
0.0
 11
9.5276815388
 21
9.5283221095
 31
0.0
 11
9.5226290346
 21
9.5307888812
 31
0.0
 11
9.5177611717
 21
9.5343345045
 31
0.0
 11
9.5133212778
 21
9.5388873579
 31
0.0
 11
9.509609562
 21
9.5442862742
 31
0.0
 11
9.5072792797
 21
9.5496421285
 31
0.0
  0
SPLINE
  5
53A
100
AcDbEntity
  8
0
100
AcDbSpline
 62
7
  6
CONTINUOUS
 70
0
 71
3
 72
8
 73
4
 74
2
 42
0.0000001
 43
0.0000001
 44
0.0000000001
 12
-0.0012473728
 22
0.0041298449
 32
0.0
 13
0.0
 23
0.0042900905
 33
0.0
 40
0.0
 40
0.0
 40
0.0
 40
0.0
 40
1.0
 40
1.0
 40
1.0
 40
1.0
 10
9.5072792797
 20
9.5496421285
 30
0.0
 10
9.5068634888
 20
9.5510187434
 30
0.0
 10
9.5065804673
 20
9.5524450014
 30
0.0
 10
9.5065804673
 20
9.5538750316
 30
0.0
 11
9.5072792797
 21
9.5496421285
 31
0.0
 11
9.5065804673
 21
9.5538750316
 31
0.0
  0
SPLINE
  5
53B
100
AcDbEntity
  8
0
100
AcDbSpline
 62
7
  6
CONTINUOUS
 70
0
 71
3
 72
8
 73
4
 74
2
 42
0.0000001
 43
0.0000001
 44
0.0000000001
 12
0.0
 22
-0.0042948512
 32
0.0
 13
-0.0012497807
 23
-0.0041342093
 33
0.0
 40
0.0
 40
0.0
 40
0.0
 40
0.0
 40
1.0
 40
1.0
 40
1.0
 40
1.0
 10
9.5685804673
 20
9.5538750316
 30
0.0
 10
9.5685804673
 20
9.5524434145
 30
0.0
 10
9.5682968594
 20
9.5510155966
 30
0.0
 10
9.5678802659
 20
9.5496375269
 30
0.0
 11
9.5685804673
 21
9.5538750316
 31
0.0
 11
9.5678802659
 21
9.5496375269
 31
0.0
  0
SPLINE
  5
53C
100
AcDbEntity
  8
0
100
AcDbSpline
 62
7
  6
CONTINUOUS
 70
0
 71
3
 72
13
 73
9
 74
7
 42
0.0000001
 43
0.0000001
 44
0.0000000001
 12
-0.0103686504
 22
-0.0342989543
 32
0.0
 13
-0.0351197094
 23
-0.0063678986
 33
0.0
 40
0.0
 40
0.0
 40
0.0
 40
0.0
 40
0.1642261499
 40
0.348396672
 40
0.5268113526
 40
0.6956963486
 40
0.8532566999
 40
1.0
 40
1.0
 40
1.0
 40
1.0
 10
9.5678802659
 20
9.5496375269
 30
0.0
 10
9.5673126647
 20
9.5477599318
 30
0.0
 10
9.5655887056
 20
9.5439744147
 30
0.0
 10
9.5620042796
 20
9.5388051238
 30
0.0
 10
9.5575804741
 20
9.5342632442
 30
0.0
 10
9.5527192493
 20
9.5307029454
 30
0.0
 10
9.5476483619
 20
9.5282094255
 30
0.0
 10
9.5441507309
 20
9.5272241122
 30
0.0
 10
9.5424328702
 20
9.5269126301
 30
0.0
 11
9.5678802659
 21
9.5496375269
 31
0.0
 11
9.5655437385
 21
9.5442726459
 31
0.0
 11
9.5618229524
 21
9.5388671258
 31
0.0
 11
9.5573815286
 21
9.5343187215
 31
0.0
 11
9.5525151836
 21
9.5307788186
 31
0.0
 11
9.5474690157
 21
9.5283181697
 31
0.0
 11
9.5424328702
 21
9.5269126301
 31
0.0
  0
SPLINE
  5
53D
100
AcDbEntity
  8
0
100
AcDbSpline
 62
7
  6
CONTINUOUS
 70
0
 71
3
 72
8
 73
4
 74
2
 42
0.0000001
 43
0.0000001
 44
0.0000000001
 12
-0.0048020671
 22
-0.0008707098
 32
0.0
 13
-0.0048720738
 23
0.0
 33
0.0
 40
0.0
 40
0.0
 40
0.0
 40
0.0
 40
1.0
 40
1.0
 40
1.0
 40
1.0
 10
9.5424328702
 20
9.5269126301
 30
0.0
 10
9.5408321811
 20
9.5266223935
 30
0.0
 10
9.5392044919
 20
9.5264741697
 30
0.0
 10
9.5375804673
 20
9.5264741697
 30
0.0
 11
9.5424328702
 21
9.5269126301
 31
0.0
 11
9.5375804673
 21
9.5264741697
 31
0.0
  0
SPLINE
  5
53E
100
AcDbEntity
  8
0
100
AcDbSpline
 62
7
  6
CONTINUOUS
 70
0
 71
3
 72
8
 73
4
 74
2
 42
0.0000001
 43
0.0000001
 44
0.0000000001
 12
0.0001217502
 22
0.0000593078
 32
0.0
 13
0.0001222984
 23
0.0000581911
 33
0.0
 40
0.0
 40
0.0
 40
0.0
 40
0.0
 40
1.0
 40
1.0
 40
1.0
 40
1.0
 10
9.288304613
 20
9.6338443546
 30
0.0
 10
9.2883451964
 20
9.6338641238
 30
0.0
 10
9.2883858714
 20
9.633883708
 30
0.0
 10
9.2884266376
 20
9.6339031051
 30
0.0
 11
9.288304613
 21
9.6338443546
 31
0.0
 11
9.2884266376
 21
9.6339031051
 31
0.0
  0
SPLINE
  5
53F
100
AcDbEntity
  8
0
100
AcDbSpline
 62
7
  6
CONTINUOUS
 70
0
 71
3
 72
8
 73
4
 74
2
 42
0.0000001
 43
0.0000001
 44
0.0000000001
 12
0.0000928157
 22
0.0000441628
 32
0.0
 13
0.00009313
 23
0.0000435134
 33
0.0
 40
0.0
 40
0.0
 40
0.0
 40
0.0
 40
1.0
 40
1.0
 40
1.0
 40
1.0
 10
9.2884266376
 20
9.6339031051
 30
0.0
 10
9.2884575761
 20
9.633917826
 30
0.0
 10
9.2884885672
 20
9.6339324392
 30
0.0
 10
9.2885196105
 20
9.6339469436
 30
0.0
 11
9.2884266376
 21
9.6339031051
 31
0.0
 11
9.2885196105
 21
9.6339469436
 31
0.0
  0
SPLINE
  5
540
100
AcDbEntity
  8
0
100
AcDbSpline
 62
7
  6
CONTINUOUS
 70
0
 71
3
 72
9
 73
5
 74
3
 42
0.0000001
 43
0.0000001
 44
0.0000000001
 12
0.0007457869
 22
0.0003484559
 32
0.0
 13
0.0007655528
 23
0.0003052456
 33
0.0
 40
0.0
 40
0.0
 40
0.0
 40
0.0
 40
0.8864758663
 40
1.0
 40
1.0
 40
1.0
 40
1.0
 10
9.2885196105
 20
9.6339469436
 30
0.0
 10
9.2887399845
 20
9.6340499095
 30
0.0
 10
9.2889915517
 20
9.6341598819
 30
0.0
 10
9.2892463736
 20
9.6342624696
 30
0.0
 10
9.2892753432
 20
9.6342740205
 30
0.0
 11
9.2885196105
 21
9.6339469436
 31
0.0
 11
9.2891885587
 21
9.634239082
 31
0.0
 11
9.2892753432
 21
9.6342740205
 31
0.0
  0
SPLINE
  5
541
100
AcDbEntity
  8
0
100
AcDbSpline
 62
7
  6
CONTINUOUS
 70
0
 71
3
 72
8
 73
4
 74
2
 42
0.0000001
 43
0.0000001
 44
0.0000000001
 12
0.0051223594
 22
0.0020424161
 32
0.0
 13
0.0054815764
 23
0.0
 33
0.0
 40
0.0
 40
0.0
 40
0.0
 40
0.0
 40
1.0
 40
1.0
 40
1.0
 40
1.0
 10
9.2892753432
 20
9.6342740205
 30
0.0
 10
9.2909827963
 20
9.6349548258
 30
0.0
 10
9.2928331494
 20
9.6353046954
 30
0.0
 10
9.2946603416
 20
9.6353046954
 30
0.0
 11
9.2892753432
 21
9.6342740205
 31
0.0
 11
9.2946603416
 21
9.6353046954
 31
0.0
  0
SPLINE
  5
542
100
AcDbEntity
  8
0
100
AcDbSpline
 62
7
  6
CONTINUOUS
 70
0
 71
3
 72
8
 73
4
 74
2
 42
0.0000001
 43
0.0000001
 44
0.0000000001
 12
0.0000031749
 22
0.0062422984
 32
0.0
 13
0.000478116
 23
0.0062242673
 33
0.0
 40
0.0
 40
0.0
 40
0.0
 40
0.0
 40
1.0
 40
1.0
 40
1.0
 40
1.0
 10
9.475080394
 20
9.5672502224
 30
0.0
 10
9.4750814523
 20
9.5693309886
 30
0.0
 10
9.4751604997
 20
9.5714116239
 30
0.0
 10
9.4753198717
 20
9.5734863796
 30
0.0
 11
9.475080394
 21
9.5672502224
 31
0.0
 11
9.4753198717
 21
9.5734863796
 31
0.0
  0
SPLINE
  5
543
100
AcDbEntity
  8
0
100
AcDbSpline
 62
7
  6
CONTINUOUS
 70
0
 71
3
 72
16
 73
12
 74
10
 42
0.0000001
 43
0.0000001
 44
0.0000000001
 12
0.0065531892
 22
0.0853115219
 32
0.0
 13
0.0841665126
 23
0.0156812201
 33
0.0
 40
0.0
 40
0.0
 40
0.0
 40
0.0
 40
0.0023919062
 40
0.1616953215
 40
0.3123508726
 40
0.455968254
 40
0.5946148949
 40
0.730224883
 40
0.8642881021
 40
0.9977314463
 40
1.0
 40
1.0
 40
1.0
 40
1.0
 10
9.4753198717
 20
9.5734863796
 30
0.0
 10
9.4753250965
 20
9.5735543987
 30
0.0
 10
9.4756841394
 20
9.5781521295
 30
0.0
 10
9.4771405657
 20
9.5869761066
 30
0.0
 10
9.4815049316
 20
9.5992125125
 30
0.0
 10
9.4877480458
 20
9.609930611
 30
0.0
 10
9.495615496
 20
9.6189590414
 30
0.0
 10
9.5048421507
 20
9.6261567598
 30
0.0
 10
9.5151367983
 20
9.6314003908
 30
0.0
 10
9.5225605924
 20
9.6335476296
 30
0.0
 10
9.5263668827
 20
9.6342631035
 30
0.0
 10
9.5264305281
 20
9.6342749614
 30
0.0
 11
9.4753198717
 21
9.5734863796
 31
0.0
 11
9.4753358054
 21
9.5736904176
 31
0.0
 11
9.4775869291
 21
9.5871162179
 31
0.0
 11
9.4819427851
 21
9.5992311661
 31
0.0
 11
9.4881417164
 21
9.609823342
 31
0.0
 11
9.4959368623
 21
9.61874583
 31
0.0
 11
9.5050776614
 21
9.6258689755
 31
0.0
 11
9.5152857129
 21
9.6310692699
 31
0.0
 11
9.5262396512
 21
9.634239082
 31
0.0
 11
9.5264305281
 21
9.6342749614
 31
0.0
  0
SPLINE
  5
544
100
AcDbEntity
  8
0
100
AcDbSpline
 62
7
  6
CONTINUOUS
 70
0
 71
3
 72
8
 73
4
 74
2
 42
0.0000001
 43
0.0000001
 44
0.0000000001
 12
0.0110281308
 22
0.0020546716
 32
0.0
 13
0.0111969116
 23
0.0
 33
0.0
 40
0.0
 40
0.0
 40
0.0
 40
0.0
 40
1.0
 40
1.0
 40
1.0
 40
1.0
 10
9.5264305281
 20
9.6342749614
 30
0.0
 10
9.5301065717
 20
9.634959852
 30
0.0
 10
9.5338481635
 20
9.6353046954
 30
0.0
 10
9.5375804673
 20
9.6353046954
 30
0.0
 11
9.5264305281
 21
9.6342749614
 31
0.0
 11
9.5375804673
 21
9.6353046954
 31
0.0
  0
SPLINE
  5
545
100
AcDbEntity
  8
0
100
AcDbSpline
 62
7
  6
CONTINUOUS
 70
0
 71
3
 72
8
 73
4
 74
2
 42
0.0000001
 43
0.0000001
 44
0.0000000001
 12
0.0000905082
 22
-0.000147497
 32
0.0
 13
0.0000907888
 23
-0.0001473234
 33
0.0
 40
0.0
 40
0.0
 40
0.0
 40
0.0
 40
1.0
 40
1.0
 40
1.0
 40
1.0
 10
9.489489464
 20
9.6117485561
 30
0.0
 10
9.4895196334
 20
9.6116993905
 30
0.0
 10
9.4895498495
 20
9.6116502536
 30
0.0
 10
9.4895801125
 20
9.6116011458
 30
0.0
 11
9.489489464
 21
9.6117485561
 31
0.0
 11
9.4895801125
 21
9.6116011458
 31
0.0
  0
SPLINE
  5
546
100
AcDbEntity
  8
0
100
AcDbSpline
 62
7
  6
CONTINUOUS
 70
0
 71
3
 72
13
 73
9
 74
7
 42
0.0000001
 43
0.0000001
 44
0.0000000001
 12
0.0314410653
 22
-0.0510195719
 32
0.0
 13
0.05986341
 23
0.0
 33
0.0
 40
0.0
 40
0.0
 40
0.0
 40
0.0
 40
0.1353173656
 40
0.3497706698
 40
0.5385123935
 40
0.7056864897
 40
0.8569378689
 40
1.0
 40
1.0
 40
1.0
 40
1.0
 10
9.4895801125
 20
9.6116011458
 30
0.0
 10
9.4909982865
 20
9.6092998678
 30
0.0
 10
9.4949295558
 20
9.6035161395
 30
0.0
 10
9.5020653858
 20
9.5954142401
 30
0.0
 10
9.5109970428
 20
9.5882623592
 30
0.0
 10
9.519978955
 20
9.5834676896
 30
0.0
 10
9.5288373441
 20
9.5807547206
 30
0.0
 10
9.5347257383
 20
9.5801677447
 30
0.0
 10
9.5375804673
 20
9.5801677447
 30
0.0
 11
9.4895801125
 21
9.6116011458
 31
0.0
 11
9.4941454032
 21
9.6049027585
 31
0.0
 11
9.5026808062
 21
9.5953132472
 31
0.0
 11
9.5115400161
 21
9.5883007195
 31
0.0
 11
9.5203913083
 21
9.583630932
 31
0.0
 11
9.52905765
 21
9.5810085091
 31
0.0
 11
9.5375804673
 21
9.5801677447
 31
0.0
  0
SPLINE
  5
547
100
AcDbEntity
  8
0
100
AcDbSpline
 62
7
  6
CONTINUOUS
 70
0
 71
3
 72
8
 73
4
 74
2
 42
0.0000001
 43
0.0000001
 44
0.0000000001
 12
-0.0001952623
 22
0.0001303585
 32
0.0
 13
-0.000194069
 23
0.0001321355
 33
0.0
 40
0.0
 40
0.0
 40
0.0
 40
0.0
 40
1.0
 40
1.0
 40
1.0
 40
1.0
 10
9.7713869306
 20
9.4940937644
 30
0.0
 10
9.7713218432
 20
9.4941372173
 30
0.0
 10
9.7712569552
 20
9.4941809711
 30
0.0
 10
9.7711922655
 20
9.4942250162
 30
0.0
 11
9.7713869306
 21
9.4940937644
 31
0.0
 11
9.7711922655
 21
9.4942250162
 31
0.0
  0
SPLINE
  5
548
100
AcDbEntity
  8
0
100
AcDbSpline
 62
7
  6
CONTINUOUS
 70
0
 71
3
 72
23
 73
19
 74
17
 42
0.0000001
 43
0.0000001
 44
0.0000000001
 12
-0.1314917471
 22
0.0895285846
 32
0.0
 13
0.1506608157
 23
0.0523239582
 33
0.0
 40
0.0
 40
0.0
 40
0.0
 40
0.0
 40
0.0080256595
 40
0.0561904902
 40
0.1163131977
 40
0.1892594177
 40
0.2735168649
 40
0.3649849107
 40
0.4583044984
 40
0.5489380288
 40
0.6341868027
 40
0.7128647337
 40
0.7845601991
 40
0.8491005067
 40
0.9063521597
 40
0.9562979291
 40
0.9993628891
 40
1.0
 40
1.0
 40
1.0
 40
1.0
 10
9.7711922655
 20
9.4942250162
 30
0.0
 10
9.7708404962
 20
9.4944645249
 30
0.0
 10
9.7684186887
 20
9.4962017219
 30
0.0
 10
9.763981618
 20
9.5005139129
 30
0.0
 10
9.7583507893
 20
9.5083093952
 30
0.0
 10
9.7529870211
 20
9.5185037341
 30
0.0
 10
9.7483520869
 20
9.5308365203
 30
0.0
 10
9.7449427056
 20
9.5446751236
 30
0.0
 10
9.7431246572
 20
9.5591517039
 30
0.0
 10
9.7430256109
 20
9.5734132127
 30
0.0
 10
9.7445547782
 20
9.5868139487
 30
0.0
 10
9.7474960927
 20
9.5989490317
 30
0.0
 10
9.7515882631
 20
9.6095811176
 30
0.0
 10
9.7565630475
 20
9.618556863
 30
0.0
 10
9.7621547069
 20
9.6257588132
 30
0.0
 10
9.7681188467
 20
9.6310845687
 30
0.0
 10
9.7725011903
 20
9.6334934823
 30
0.0
 10
9.774693808
 20
9.6342609495
 30
0.0
 10
9.7747258039
 20
9.6342720615
 30
0.0
 11
9.7711922655
 21
9.4942250162
 31
0.0
 11
9.770154362
 21
9.4949678295
 31
0.0
 11
9.7645894189
 21
9.5001978283
 31
0.0
 11
9.7589227543
 21
9.5078636055
 31
0.0
 11
9.7534707023
 21
9.5180640882
 31
0.0
 11
9.7487275349
 21
9.5305533039
 31
0.0
 11
9.745241046
 21
9.5446308505
 31
0.0
 11
9.7434020061
 21
9.5593125524
 31
0.0
 11
9.7433213697
 21
9.5736828674
 31
0.0
 11
9.7448813539
 21
9.5871092985
 31
0.0
 11
9.7478532126
 21
9.5992250423
 31
0.0
 11
9.7519761726
 21
9.6098188034
 31
0.0
 11
9.7569846631
 21
9.6187426611
 31
0.0
 11
9.7626106613
 21
9.6258666648
 31
0.0
 11
9.7685825012
 21
9.6310677536
 31
0.0
 11
9.7746299092
 21
9.6342384966
 31
0.0
 11
9.7747258039
 21
9.6342720615
 31
0.0
  0
SPLINE
  5
549
100
AcDbEntity
  8
0
100
AcDbSpline
 62
7
  6
CONTINUOUS
 70
0
 71
3
 72
8
 73
4
 74
2
 42
0.0000001
 43
0.0000001
 44
0.0000000001
 12
0.0055736005
 22
0.0019356914
 32
0.0
 13
0.0058656987
 23
0.0
 33
0.0
 40
0.0
 40
0.0
 40
0.0
 40
0.0
 40
1.0
 40
1.0
 40
1.0
 40
1.0
 10
9.7747258039
 20
9.6342720615
 30
0.0
 10
9.7765836707
 20
9.634917292
 30
0.0
 10
9.7785453602
 20
9.6353046954
 30
0.0
 10
9.7805005931
 20
9.6353046954
 30
0.0
 11
9.7747258039
 21
9.6342720615
 31
0.0
 11
9.7805005931
 21
9.6353046954
 31
0.0
  0
SPLINE
  5
54A
100
AcDbEntity
  8
0
100
AcDbSpline
 62
7
  6
CONTINUOUS
 70
0
 71
3
 72
9
 73
5
 74
3
 42
0.0000001
 43
0.0000001
 44
0.0000000001
 12
-0.0097311605
 22
0.0
 32
0.0
 13
-0.008119722
 23
0.0054207838
 33
0.0
 40
0.0
 40
0.0
 40
0.0
 40
0.0
 40
0.5264872746
 40
1.0
 40
1.0
 40
1.0
 40
1.0
 10
9.7805005931
 20
9.4909671281
 30
0.0
 10
9.7787928157
 20
9.4909671281
 30
0.0
 10
9.7755384246
 20
9.4916776901
 30
0.0
 10
9.7726685279
 20
9.4932381611
 30
0.0
 10
9.7713869306
 20
9.4940937644
 30
0.0
 11
9.7805005931
 21
9.4909671281
 31
0.0
 11
9.7754726022
 21
9.4919509171
 31
0.0
 11
9.7713869306
 21
9.4940937644
 31
0.0
  0
SPLINE
  5
54B
100
AcDbEntity
  8
0
100
AcDbSpline
 62
7
  6
CONTINUOUS
 70
0
 71
3
 72
16
 73
12
 74
10
 42
0.0000001
 43
0.0000001
 44
0.0000000001
 12
-0.1087125019
 22
0.0
 32
0.0
 13
0.0000553592
 23
0.1088448276
 33
0.0
 40
0.0
 40
0.0
 40
0.0
 40
0.0
 40
0.0902958355
 40
0.1842090024
 40
0.2853305481
 40
0.3966281255
 40
0.5193874697
 40
0.6520064832
 40
0.7898403279
 40
0.9270590434
 40
1.0
 40
1.0
 40
1.0
 40
1.0
 10
9.5375804673
 20
9.4909671281
 30
0.0
 10
9.5343083719
 20
9.4909671281
 30
0.0
 10
9.5276144447
 20
9.4916475565
 30
0.0
 10
9.5176830406
 20
9.4947498829
 30
0.0
 10
9.5078773651
 20
9.5001016578
 30
0.0
 10
9.4984587448
 20
9.5078825976
 30
0.0
 10
9.4898862883
 20
9.5181294529
 30
0.0
 10
9.4827714397
 20
9.5305587
 30
0.0
 10
9.4777021759
 20
9.5445111573
 30
0.0
 10
9.4754386505
 20
9.5569782663
 30
0.0
 10
9.475079048
 20
9.5646038072
 30
0.0
 10
9.475080394
 20
9.5672502224
 30
0.0
 11
9.5375804673
 21
9.4909671281
 31
0.0
 11
9.5278137069
 21
9.4919519453
 31
0.0
 11
9.5180604115
 21
9.4949698652
 31
0.0
 11
9.5083913028
 21
9.5002003777
 31
0.0
 11
9.499030702
 21
9.5078668994
 31
0.0
 11
9.4904286436
 21
9.5180701491
 31
0.0
 11
9.48323384
 21
9.5305639328
 31
0.0
 11
9.4781041301
 21
9.5446427889
 31
0.0
 11
9.4754500149
 21
9.5593221687
 31
0.0
 11
9.475080394
 21
9.5672502224
 31
0.0
  0
SPLINE
  5
54C
100
AcDbEntity
  8
0
100
AcDbSpline
 62
7
  6
CONTINUOUS
 70
0
 71
3
 72
18
 73
14
 74
12
 42
0.0000001
 43
0.0000001
 44
0.0000000001
 12
-0.1109391489
 22
0.0
 32
0.0
 13
0.0120902125
 23
0.1102997426
 33
0.0
 40
0.0
 40
0.0
 40
0.0
 40
0.0
 40
0.0436039882
 40
0.0919588597
 40
0.1518906532
 40
0.2286003771
 40
0.3248534031
 40
0.4396185094
 40
0.5673872453
 40
0.6999110623
 40
0.8294261184
 40
0.9506054755
 40
1.0
 40
1.0
 40
1.0
 40
1.0
 10
9.2946603416
 20
9.4909671281
 30
0.0
 10
9.2930478784
 20
9.4909671281
 30
0.0
 10
9.2896055641
 20
9.491696215
 30
0.0
 10
9.2849545823
 20
9.4950558693
 30
0.0
 10
9.2808334055
 20
9.500604835
 30
0.0
 10
9.2772171913
 20
9.5084658431
 30
0.0
 10
9.274185988
 20
9.5186911382
 30
0.0
 10
9.271852667
 20
9.5310156839
 30
0.0
 10
9.2702907696
 20
9.5448068362
 30
0.0
 10
9.2695077494
 20
9.559207504
 30
0.0
 10
9.2694663869
 20
9.5733848393
 30
0.0
 10
9.2700125441
 20
9.5844742011
 30
0.0
 10
9.2706035587
 20
9.5907563404
 30
0.0
 10
9.2708026221
 20
9.5925724082
 30
0.0
 11
9.2946603416
 21
9.4909671281
 31
0.0
 11
9.2899242598
 21
9.4919519456
 31
0.0
 11
9.2854892332
 21
9.4949698661
 31
0.0
 11
9.281384597
 21
9.500200379
 31
0.0
 11
9.2776904885
 21
9.5078669011
 31
0.0
 11
9.2745411618
 21
9.5180701511
 31
0.0
 11
9.2720900943
 21
9.5305639354
 31
0.0
 11
9.2704457705
 21
9.544642792
 31
0.0
 11
9.2696291024
 21
9.5593221719
 31
0.0
 11
9.2695944857
 21
9.5736904203
 31
0.0
 11
9.2702847961
 21
9.58711622
 31
0.0
 11
9.2708026221
 21
9.5925724082
 31
0.0
  0
SPLINE
  5
54D
100
AcDbEntity
  8
0
100
AcDbSpline
 62
7
  6
CONTINUOUS
 70
0
 71
3
 72
18
 73
14
 74
12
 42
0.0000001
 43
0.0000001
 44
0.0000000001
 12
-0.3682779078
 22
-0.1096574181
 32
0.0
 13
-0.3682779078
 23
0.1096574181
 33
0.0
 40
0.0
 40
0.0
 40
0.0
 40
0.0
 40
0.0953883454
 40
0.1876633775
 40
0.2779243546
 40
0.3671054087
 40
0.4557561952
 40
0.5442440342
 40
0.6328948332
 40
0.7220758637
 40
0.8123367918
 40
0.9046116831
 40
1.0
 40
1.0
 40
1.0
 40
1.0
 10
9.945482715
 20
8.0381995777
 30
0.0
 10
9.9337729082
 20
8.0347128978
 30
0.0
 10
9.9105922735
 20
8.0283204011
 30
0.0
 10
9.8758628399
 20
8.0204438833
 30
0.0
 10
9.8415602306
 20
8.0144680423
 30
0.0
 10
9.8074411987
 20
8.0104307584
 30
0.0
 10
9.7733705865
 20
8.0083908644
 30
0.0
 10
9.7393062923
 20
8.0083908671
 30
0.0
 10
9.7052356819
 20
8.0104307663
 30
0.0
 10
9.6711166583
 20
8.0144680543
 30
0.0
 10
9.6368140765
 20
8.0204438944
 30
0.0
 10
9.6020846707
 20
8.0283204077
 30
0.0
 10
9.5789040569
 20
8.0347128988
 30
0.0
 10
9.5671942536
 20
8.0381995777
 30
0.0
 11
9.945482715
 21
8.0381995777
 31
0.0
 11
9.9101380068
 21
8.0284918384
 31
0.0
 11
9.8755512772
 21
8.0206828991
 31
0.0
 11
9.841377501
 21
8.0147590918
 31
0.0
 11
9.8073439496
 21
8.0107537137
 31
0.0
 11
9.7733394717
 21
8.0087294425
 31
0.0
 11
9.7393374088
 21
8.0087294451
 31
0.0
 11
9.7053329265
 21
8.0107537219
 31
0.0
 11
9.6712993846
 21
8.0147591039
 31
0.0
 11
9.6371256276
 21
8.0206829119
 31
0.0
 11
9.6025389512
 21
8.0284918411
 31
0.0
 11
9.5671942536
 21
8.0381995777
 31
0.0
  0
SPLINE
  5
54E
100
AcDbEntity
  8
0
100
AcDbSpline
 62
7
  6
CONTINUOUS
 70
0
 71
3
 72
20
 73
16
 74
14
 42
0.0000001
 43
0.0000001
 44
0.0000000001
 12
-0.3517658614
 22
0.1814164505
 32
0.0
 13
-0.3517658614
 23
-0.1814164505
 33
0.0
 40
0.0
 40
0.0
 40
0.0
 40
0.0
 40
0.0875940146
 40
0.1694919913
 40
0.2470152696
 40
0.3213916059
 40
0.3936502912
 40
0.4646943991
 40
0.5353061881
 40
0.6063502865
 40
0.6786088392
 40
0.7529851583
 40
0.830508166
 40
0.9124059307
 40
1.0
 40
1.0
 40
1.0
 40
1.0
 10
9.945482715
 20
8.4746359118
 30
0.0
 10
9.9352118537
 20
8.4799329102
 30
0.0
 10
9.9150602238
 20
8.4896587215
 30
0.0
 10
9.8848784167
 20
8.5020079097
 30
0.0
 10
9.8555834067
 20
8.5117447151
 30
0.0
 10
9.8268823578
 20
8.5189921729
 30
0.0
 10
9.7985389752
 20
8.5238108432
 30
0.0
 10
9.770386316
 20
8.5262186321
 30
0.0
 10
9.7422904213
 20
8.5262186221
 30
0.0
 10
9.7141377824
 20
8.5238108153
 30
0.0
 10
9.6857944236
 20
8.5189921323
 30
0.0
 10
9.6570934317
 20
8.5117446753
 30
0.0
 10
9.6277984871
 20
8.5020078833
 30
0.0
 10
9.5976167328
 20
8.4896587154
 30
0.0
 10
9.5774651214
 20
8.4799329135
 30
0.0
 10
9.5671942536
 20
8.4746359118
 30
0.0
 11
9.945482715
 21
8.4746359118
 31
0.0
 11
9.9142339855
 21
8.4896511029
 31
0.0
 11
9.8842128445
 21
8.5018754227
 31
0.0
 11
9.8550807462
 21
8.5115072512
 31
0.0
 11
9.8265294283
 21
8.5186760205
 31
0.0
 11
9.7983298243
 21
8.5234412842
 31
0.0
 11
9.7703121517
 21
8.5258224456
 31
0.0
 11
9.7423645846
 21
8.5258224357
 31
0.0
 11
9.7143469174
 21
8.5234412553
 31
0.0
 11
9.6861473678
 21
8.5186759843
 31
0.0
 11
9.6575960598
 21
8.5115072039
 31
0.0
 11
9.6284640657
 21
8.5018754011
 31
0.0
 11
9.598443003
 21
8.4896511117
 31
0.0
 11
9.5671942536
 21
8.4746359118
 31
0.0
  0
SPLINE
  5
54F
100
AcDbEntity
  8
0
100
AcDbSpline
 62
7
  6
CONTINUOUS
 70
0
 71
3
 72
18
 73
14
 74
12
 42
0.0000001
 43
0.0000001
 44
0.0000000001
 12
-0.3682779078
 22
-0.1096574181
 32
0.0
 13
-0.3682779078
 23
0.1096574181
 33
0.0
 40
0.0
 40
0.0
 40
0.0
 40
0.0
 40
0.0953883454
 40
0.1876633775
 40
0.2779243546
 40
0.3671054087
 40
0.4557561952
 40
0.5442440342
 40
0.6328948332
 40
0.7220758637
 40
0.8123367918
 40
0.9046116831
 40
1.0
 40
1.0
 40
1.0
 40
1.0
 10
9.507966681
 20
8.0381995777
 30
0.0
 10
9.4962568743
 20
8.0347128978
 30
0.0
 10
9.4730762395
 20
8.0283204011
 30
0.0
 10
9.4383468059
 20
8.0204438833
 30
0.0
 10
9.4040441966
 20
8.0144680423
 30
0.0
 10
9.3699251647
 20
8.0104307584
 30
0.0
 10
9.3358545526
 20
8.0083908644
 30
0.0
 10
9.3017902583
 20
8.0083908671
 30
0.0
 10
9.2677196479
 20
8.0104307663
 30
0.0
 10
9.2336006243
 20
8.0144680543
 30
0.0
 10
9.1992980425
 20
8.0204438944
 30
0.0
 10
9.1645686367
 20
8.0283204077
 30
0.0
 10
9.1413880229
 20
8.0347128988
 30
0.0
 10
9.1296782196
 20
8.0381995777
 30
0.0
 11
9.507966681
 21
8.0381995777
 31
0.0
 11
9.4726219728
 21
8.0284918384
 31
0.0
 11
9.4380352432
 21
8.0206828991
 31
0.0
 11
9.403861467
 21
8.0147590918
 31
0.0
 11
9.3698279156
 21
8.0107537137
 31
0.0
 11
9.3358234377
 21
8.0087294425
 31
0.0
 11
9.3018213748
 21
8.0087294451
 31
0.0
 11
9.2678168925
 21
8.0107537219
 31
0.0
 11
9.2337833506
 21
8.0147591039
 31
0.0
 11
9.1996095936
 21
8.0206829119
 31
0.0
 11
9.1650229172
 21
8.0284918411
 31
0.0
 11
9.1296782196
 21
8.0381995777
 31
0.0
  0
SPLINE
  5
550
100
AcDbEntity
  8
0
100
AcDbSpline
 62
7
  6
CONTINUOUS
 70
0
 71
3
 72
20
 73
16
 74
14
 42
0.0000001
 43
0.0000001
 44
0.0000000001
 12
-0.3517658614
 22
0.1814164505
 32
0.0
 13
-0.3517658614
 23
-0.1814164505
 33
0.0
 40
0.0
 40
0.0
 40
0.0
 40
0.0
 40
0.0875940146
 40
0.1694919913
 40
0.2470152696
 40
0.3213916059
 40
0.3936502912
 40
0.4646943991
 40
0.5353061881
 40
0.6063502865
 40
0.6786088392
 40
0.7529851583
 40
0.830508166
 40
0.9124059307
 40
1.0
 40
1.0
 40
1.0
 40
1.0
 10
9.507966681
 20
8.4746359118
 30
0.0
 10
9.4976958197
 20
8.4799329102
 30
0.0
 10
9.4775441898
 20
8.4896587215
 30
0.0
 10
9.4473623827
 20
8.5020079097
 30
0.0
 10
9.4180673727
 20
8.5117447151
 30
0.0
 10
9.3893663238
 20
8.5189921729
 30
0.0
 10
9.3610229412
 20
8.5238108432
 30
0.0
 10
9.332870282
 20
8.5262186321
 30
0.0
 10
9.3047743873
 20
8.5262186221
 30
0.0
 10
9.2766217485
 20
8.5238108153
 30
0.0
 10
9.2482783896
 20
8.5189921323
 30
0.0
 10
9.2195773977
 20
8.5117446753
 30
0.0
 10
9.1902824531
 20
8.5020078833
 30
0.0
 10
9.1601006988
 20
8.4896587154
 30
0.0
 10
9.1399490874
 20
8.4799329135
 30
0.0
 10
9.1296782196
 20
8.4746359118
 30
0.0
 11
9.507966681
 21
8.4746359118
 31
0.0
 11
9.4767179515
 21
8.4896511029
 31
0.0
 11
9.4466968105
 21
8.5018754227
 31
0.0
 11
9.4175647122
 21
8.5115072512
 31
0.0
 11
9.3890133944
 21
8.5186760205
 31
0.0
 11
9.3608137903
 21
8.5234412842
 31
0.0
 11
9.3327961177
 21
8.5258224456
 31
0.0
 11
9.3048485506
 21
8.5258224357
 31
0.0
 11
9.2768308834
 21
8.5234412553
 31
0.0
 11
9.2486313338
 21
8.5186759843
 31
0.0
 11
9.2200800258
 21
8.5115072039
 31
0.0
 11
9.1909480318
 21
8.5018754011
 31
0.0
 11
9.160926969
 21
8.4896511117
 31
0.0
 11
9.1296782196
 21
8.4746359118
 31
0.0
  0
SPLINE
  5
551
100
AcDbEntity
  8
0
100
AcDbSpline
 62
7
  6
CONTINUOUS
 70
0
 71
3
 72
9
 73
5
 74
3
 42
0.0000001
 43
0.0000001
 44
0.0000000001
 12
-0.0081197272
 22
-0.0054207874
 32
0.0
 13
-0.0097311636
 23
0.0
 33
0.0
 40
0.0
 40
0.0
 40
0.0
 40
0.0
 40
0.4735286252
 40
1.0
 40
1.0
 40
1.0
 40
1.0
 10
9.3037740052
 20
9.4940937655
 30
0.0
 10
9.3024923641
 20
9.4932381329
 30
0.0
 10
9.2996224602
 20
9.4916776683
 30
0.0
 10
9.2963680679
 20
9.4909671281
 30
0.0
 10
9.2946603416
 20
9.4909671281
 30
0.0
 11
9.3037740052
 21
9.4940937655
 31
0.0
 11
9.2996881872
 21
9.4919508616
 31
0.0
 11
9.2946603416
 21
9.4909671281
 31
0.0
  0
SPLINE
  5
552
100
AcDbEntity
  8
0
100
AcDbSpline
 62
7
  6
CONTINUOUS
 70
0
 71
3
 72
16
 73
12
 74
10
 42
0.0000001
 43
0.0000001
 44
0.0000000001
 12
0.0000553548
 22
-0.1088448247
 32
0.0
 13
-0.1087124971
 23
-0.0
 33
0.0
 40
0.0
 40
0.0
 40
0.0
 40
0.0
 40
0.0729331338
 40
0.210150561
 40
0.3479822605
 40
0.4806006469
 40
0.6033608668
 40
0.7146595804
 40
0.8157828212
 40
0.9096991363
 40
1.0
 40
1.0
 40
1.0
 40
1.0
 10
9.6000805406
 20
9.5672502195
 30
0.0
 10
9.6000818863
 20
9.5646040881
 30
0.0
 10
9.5997223383
 20
9.5569788781
 30
0.0
 10
9.5974590162
 20
9.5445121502
 30
0.0
 10
9.5923899791
 20
9.5305597715
 30
0.0
 10
9.5852753545
 20
9.5181304786
 30
0.0
 10
9.5767030386
 20
9.5078834415
 30
0.0
 10
9.5672844518
 20
9.5001022506
 30
0.0
 10
9.5574786775
 20
9.4947502008
 30
0.0
 10
9.547546971
 20
9.4916476255
 30
0.0
 10
9.5408527448
 20
9.4909671281
 30
0.0
 10
9.5375804673
 20
9.4909671281
 30
0.0
 11
9.6000805406
 21
9.5672502195
 31
0.0
 11
9.5997109987
 21
9.5593230139
 31
0.0
 11
9.5970570627
 21
9.5446437446
 31
0.0
 11
9.5919276118
 21
9.5305650432
 31
0.0
 11
9.5847330343
 21
9.5180712087
 31
0.0
 11
9.5761310873
 21
9.5078677412
 31
0.0
 11
9.5667705261
 21
9.5002009771
 31
0.0
 11
9.5571013458
 21
9.4949702106
 31
0.0
 11
9.5473477657
 21
9.4919520544
 31
0.0
 11
9.5375804673
 21
9.4909671281
 31
0.0
  0
SPLINE
  5
553
100
AcDbEntity
  8
0
100
AcDbSpline
 62
7
  6
CONTINUOUS
 70
0
 71
3
 72
18
 73
14
 74
12
 42
0.0000001
 43
0.0000001
 44
0.0000000001
 12
0.0120901947
 22
-0.1102997209
 32
0.0
 13
-0.1109391248
 23
-0.0
 33
0.0
 40
0.0
 40
0.0
 40
0.0
 40
0.0
 40
0.0493884057
 40
0.1705664905
 40
0.3000812443
 40
0.4326040664
 40
0.5603713476
 40
0.6751367638
 40
0.7713915167
 40
0.8481030618
 40
0.9080366912
 40
0.9563935788
 40
1.0
 40
1.0
 40
1.0
 40
1.0
 10
9.8043583145
 20
9.5925723898
 30
0.0
 10
9.804557353
 20
9.5907565473
 30
0.0
 10
9.8051483531
 20
9.5844746828
 30
0.0
 10
9.8056945297
 20
9.5733856093
 30
0.0
 10
9.8056532086
 20
9.559208372
 30
0.0
 10
9.8048702414
 20
9.5448078066
 30
0.0
 10
9.803308418
 20
9.5310167293
 30
0.0
 10
9.8009751843
 20
9.5186921491
 30
0.0
 10
9.7979440547
 20
9.5084666873
 30
0.0
 10
9.7943278843
 20
9.5006054436
 30
0.0
 10
9.7902067112
 20
9.4950562196
 30
0.0
 10
9.785555629
 20
9.4916962974
 30
0.0
 10
9.7821131458
 20
9.4909671281
 30
0.0
 10
9.7805005931
 20
9.4909671281
 30
0.0
 11
9.8043583145
 21
9.5925723898
 31
0.0
 11
9.8048760851
 21
9.5871168794
 31
0.0
 11
9.8055664296
 21
9.5736912257
 31
0.0
 11
9.8055318561
 21
9.5593230139
 31
0.0
 11
9.8047152445
 21
9.5446437446
 31
0.0
 11
9.80307101
 21
9.5305650432
 31
0.0
 11
9.8006200341
 21
9.5180712087
 31
0.0
 11
9.7974707701
 21
9.5078677412
 31
0.0
 11
9.7937767029
 21
9.5002009771
 31
0.0
 11
9.7896720622
 21
9.4949702106
 31
0.0
 11
9.7852369268
 21
9.4919520544
 31
0.0
 11
9.7805005931
 21
9.4909671281
 31
0.0
  0
SPLINE
  5
554
100
AcDbEntity
  8
0
100
AcDbSpline
 62
7
  6
CONTINUOUS
 70
0
 71
3
 72
15
 73
11
 74
9
 42
0.0000001
 43
0.0000001
 44
0.0000000001
 12
0.0
 22
0.0351643522
 32
0.0
 13
0.0351643522
 23
-0.0
 33
0.0
 40
0.0
 40
0.0
 40
0.0
 40
0.0
 40
0.0884024253
 40
0.1659783527
 40
0.2521466365
 40
0.359583863
 40
0.492582737
 40
0.6484558012
 40
0.8202969887
 40
1.0
 40
1.0
 40
1.0
 40
1.0
 10
9.5065804673
 20
9.5538750316
 30
0.0
 10
9.5065804673
 20
9.5549112362
 30
0.0
 10
9.5068724238
 20
9.5569093066
 30
0.0
 10
9.5087262919
 20
9.5593582179
 30
0.0
 10
9.5116222072
 20
9.5608285118
 30
0.0
 10
9.5153737616
 20
9.5616611163
 30
0.0
 10
9.5200071327
 20
9.5620795136
 30
0.0
 10
9.5254057007
 20
9.5622370293
 30
0.0
 10
9.5313535192
 20
9.5622698449
 30
0.0
 10
9.5354740873
 20
9.5622698864
 30
0.0
 10
9.5375804673
 20
9.5622698864
 30
0.0
 11
9.5065804673
 21
9.5538750316
 31
0.0
 11
9.5071548265
 21
9.5569301245
 31
0.0
 11
9.508785377
 21
9.5591170819
 31
0.0
 11
9.511426053
 21
9.560603031
 31
0.0
 11
9.5150899769
 21
9.5615242513
 31
0.0
 11
9.5197413292
 21
9.5620116535
 31
0.0
 11
9.5252188776
 21
9.5622110168
 31
0.0
 11
9.5312613302
 21
9.562263914
 31
0.0
 11
9.5375804673
 21
9.5622698864
 31
0.0
  0
SPLINE
  5
555
100
AcDbEntity
  8
0
100
AcDbSpline
 62
7
  6
CONTINUOUS
 70
0
 71
3
 72
15
 73
11
 74
9
 42
0.0000001
 43
0.0000001
 44
0.0000000001
 12
0.0351643138
 22
-0.0
 32
0.0
 13
-0.0
 23
-0.0351643138
 33
0.0
 40
0.0
 40
0.0
 40
0.0
 40
0.0
 40
0.179668907
 40
0.3514788911
 40
0.5073329037
 40
0.6403160469
 40
0.7477592436
 40
0.8339782446
 40
0.9115983642
 40
1.0
 40
1.0
 40
1.0
 40
1.0
 10
9.5375804673
 20
9.5622698864
 30
0.0
 10
9.5396864453
 20
9.5622698864
 30
0.0
 10
9.5438062432
 20
9.5622698443
 30
0.0
 10
9.5497530674
 20
9.5622370497
 30
0.0
 10
9.5551508542
 20
9.5620796464
 30
0.0
 10
9.5597839094
 20
9.561661545
 30
0.0
 10
9.5635360015
 20
9.560829416
 30
0.0
 10
9.5664334572
 20
9.5593594667
 30
0.0
 10
9.5682884584
 20
9.5569098231
 30
0.0
 10
9.5685804673
 20
9.5549112258
 30
0.0
 10
9.5685804673
 20
9.5538750316
 30
0.0
 11
9.5375804673
 21
9.5622698864
 31
0.0
 11
9.5438983983
 21
9.5622639175
 31
0.0
 11
9.5499397473
 21
9.5622110585
 31
0.0
 11
9.5554166246
 21
9.5620118393
 31
0.0
 11
9.5600674559
 21
9.5615248229
 31
0.0
 11
9.5637317442
 21
9.5606042081
 31
0.0
 11
9.5663743681
 21
9.5591180909
 31
0.0
 11
9.5680061208
 21
9.5569300951
 31
0.0
 11
9.5685804673
 21
9.5538750316
 31
0.0
  0
SPLINE
  5
556
100
AcDbEntity
  8
0
100
AcDbSpline
 62
7
  6
CONTINUOUS
 70
0
 71
3
 72
8
 73
4
 74
2
 42
0.0000001
 43
0.0000001
 44
0.0000000001
 12
0.0001159002
 22
0.0000562692
 32
0.0
 13
0.0001163742
 23
0.0000552763
 33
0.0
 40
0.0
 40
0.0
 40
0.0
 40
0.0
 40
1.0
 40
1.0
 40
1.0
 40
1.0
 10
9.2883148688
 20
9.633848952
 30
0.0
 10
9.2883535022
 20
9.6338677084
 30
0.0
 10
9.2883922152
 20
9.6338863001
 30
0.0
 10
9.2884310066
 20
9.6339047255
 30
0.0
 11
9.2883148688
 21
9.633848952
 31
0.0
 11
9.2884310066
 21
9.6339047255
 31
0.0
  0
SPLINE
  5
557
100
AcDbEntity
  8
0
100
AcDbSpline
 62
7
  6
CONTINUOUS
 70
0
 71
3
 72
8
 73
4
 74
2
 42
0.0000001
 43
0.0000001
 44
0.0000000001
 12
0.0000886637
 22
0.0000421141
 32
0.0
 13
0.0000889356
 23
0.0000415332
 33
0.0
 40
0.0
 40
0.0
 40
0.0
 40
0.0
 40
1.0
 40
1.0
 40
1.0
 40
1.0
 10
9.2884310066
 20
9.6339047255
 30
0.0
 10
9.2884605612
 20
9.6339187636
 30
0.0
 10
9.2884901613
 20
9.6339327051
 30
0.0
 10
9.2885198065
 20
9.6339465495
 30
0.0
 11
9.2884310066
 21
9.6339047255
 31
0.0
 11
9.2885198065
 21
9.6339465495
 31
0.0
  0
SPLINE
  5
558
100
AcDbEntity
  8
0
100
AcDbSpline
 62
7
  6
CONTINUOUS
 70
0
 71
3
 72
8
 73
4
 74
2
 42
0.0000001
 43
0.0000001
 44
0.0000000001
 12
0.000746217
 22
0.0003484854
 32
0.0
 13
0.0007644325
 23
0.0003062745
 33
0.0
 40
0.0
 40
0.0
 40
0.0
 40
0.0
 40
1.0
 40
1.0
 40
1.0
 40
1.0
 10
9.2885198065
 20
9.6339465495
 30
0.0
 10
9.2887685455
 20
9.6340627113
 30
0.0
 10
9.2890204583
 20
9.6341720331
 30
0.0
 10
9.2892752691
 20
9.6342741246
 30
0.0
 11
9.2885198065
 21
9.6339465495
 31
0.0
 11
9.2892752691
 21
9.6342741246
 31
0.0
  0
SPLINE
  5
559
100
AcDbEntity
  8
0
100
AcDbSpline
 62
7
  6
CONTINUOUS
 70
0
 71
3
 72
10
 73
6
 74
4
 42
0.0000001
 43
0.0000001
 44
0.0000000001
 12
0.0051199027
 22
0.0020513197
 32
0.0
 13
0.0055088133
 23
-0.0
 33
0.0
 40
0.0
 40
0.0
 40
0.0
 40
0.0
 40
0.0397268955
 40
0.517981274
 40
1.0
 40
1.0
 40
1.0
 40
1.0
 10
9.2892752691
 20
9.6342741246
 30
0.0
 10
9.2893430684
 20
9.6343012887
 30
0.0
 10
9.2902297481
 20
9.6346487963
 30
0.0
 10
9.2920071785
 20
9.6351492704
 30
0.0
 10
9.2937752245
 20
9.6353046954
 30
0.0
 10
9.2946603416
 20
9.6353046954
 30
0.0
 11
9.2892752691
 21
9.6342741246
 31
0.0
 11
9.2894792773
 21
9.6343540741
 31
0.0
 11
9.2920156747
 21
9.6350667308
 31
0.0
 11
9.2946603416
 21
9.6353046954
 31
0.0
  0
SPLINE
  5
55A
100
AcDbEntity
  8
0
100
AcDbSpline
 62
7
  6
CONTINUOUS
 70
0
 71
3
 72
9
 73
5
 74
3
 42
0.0000001
 43
0.0000001
 44
0.0000000001
 12
0.0000002235
 22
0.0062823536
 32
0.0
 13
0.0004809973
 23
0.0062639317
 33
0.0
 40
0.0
 40
0.0
 40
0.0
 40
0.0
 40
0.9681047964
 40
1.0
 40
1.0
 40
1.0
 40
1.0
 10
9.4750804677
 20
9.5672101398
 30
0.0
 10
9.4750805399
 20
9.5692374653
 30
0.0
 10
9.4751570252
 20
9.5713316079
 30
0.0
 10
9.4753147637
 20
9.5734197825
 30
0.0
 10
9.4753198775
 20
9.573486379
 30
0.0
 11
9.4750804677
 21
9.5672101398
 31
0.0
 11
9.4753047842
 21
9.5732865709
 31
0.0
 11
9.4753198775
 21
9.573486379
 31
0.0
  0
SPLINE
  5
55B
100
AcDbEntity
  8
0
100
AcDbSpline
 62
7
  6
CONTINUOUS
 70
0
 71
3
 72
24
 73
20
 74
18
 42
0.0000001
 43
0.0000001
 44
0.0000000001
 12
0.0074103538
 22
0.0965035564
 32
0.0
 13
0.096760187
 23
0.0
 33
0.0
 40
0.0
 40
0.0
 40
0.0
 40
0.0
 40
0.0655681995
 40
0.1314294257
 40
0.1955084989
 40
0.2580127993
 40
0.3190142854
 40
0.3788142963
 40
0.4374913799
 40
0.4953704468
 40
0.5525005821
 40
0.6091812848
 40
0.6654202181
 40
0.7214604965
 40
0.7772761576
 40
0.8330370549
 40
0.8886993205
 40
0.944358077
 40
1.0
 40
1.0
 40
1.0
 40
1.0
 10
9.4753198775
 20
9.573486379
 30
0.0
 10
9.4754818387
 20
9.5755955671
 30
0.0
 10
9.4759728328
 20
9.5798107128
 30
0.0
 10
9.4772136443
 20
9.5860007649
 30
0.0
 10
9.4789439239
 20
9.5919694765
 30
0.0
 10
9.4811215908
 20
9.5976222666
 30
0.0
 10
9.4837202874
 20
9.602941109
 30
0.0
 10
9.4867119951
 20
9.6079057045
 30
0.0
 10
9.4900727564
 20
9.6125041077
 30
0.0
 10
9.4937743725
 20
9.6167189269
 30
0.0
 10
9.497793166
 20
9.6205395465
 30
0.0
 10
9.502098451
 20
9.6239495624
 30
0.0
 10
9.5066640959
 20
9.6269383318
 30
0.0
 10
9.5114554123
 20
9.6294911351
 30
0.0
 10
9.5164420109
 20
9.6315980739
 30
0.0
 10
9.5215850864
 20
9.6332477131
 30
0.0
 10
9.5268495493
 20
9.63443249
 30
0.0
 10
9.5321939768
 20
9.6351458608
 30
0.0
 10
9.5357858264
 20
9.6353046954
 30
0.0
 10
9.5375804673
 20
9.6353046954
 30
0.0
 11
9.4753198775
 21
9.573486379
 31
0.0
 11
9.4760571395
 21
9.5797878951
 31
0.0
 11
9.4773132332
 21
9.5860356228
 31
0.0
 11
9.4790430031
 21
9.591989752
 31
0.0
 11
9.4812202649
 21
9.5976321772
 31
0.0
 11
9.4838140858
 21
9.6029342314
 31
0.0
 11
9.4868027845
 21
9.6078888744
 31
0.0
 11
9.4901545874
 21
9.612471518
 31
0.0
 11
9.4938513627
 21
9.6166784424
 31
0.0
 11
9.4978584755
 21
9.620486457
 31
0.0
 11
9.5021581241
 21
9.6238911675
 31
0.0
 11
9.506711199
 21
9.6268713513
 31
0.0
 11
9.5114968075
 21
9.6294210785
 31
0.0
 11
9.5164716425
 21
9.6315232066
 31
0.0
 11
9.521609199
 21
9.6331713056
 31
0.0
 11
9.5268636145
 21
9.6343540741
 31
0.0
 11
9.5322018059
 21
9.6350667308
 31
0.0
 11
9.5375804673
 21
9.6353046954
 31
0.0
  0
SPLINE
  5
55C
100
AcDbEntity
  8
0
100
AcDbSpline
 62
7
  6
CONTINUOUS
 70
0
 71
3
 72
8
 73
4
 74
2
 42
0.0000001
 43
0.0000001
 44
0.0000000001
 12
0.0000796817
 22
-0.0001295461
 32
0.0
 13
0.0000798983
 23
-0.0001294126
 33
0.0
 40
0.0
 40
0.0
 40
0.0
 40
0.0
 40
1.0
 40
1.0
 40
1.0
 40
1.0
 10
9.4895374424
 20
9.6116713197
 30
0.0
 10
9.4895640029
 20
9.6116281377
 30
0.0
 10
9.4895905996
 20
9.6115849779
 30
0.0
 10
9.4896172324
 20
9.6115418403
 30
0.0
 11
9.4895374424
 21
9.6116713197
 31
0.0
 11
9.4896172324
 21
9.6115418403
 31
0.0
  0
SPLINE
  5
55D
100
AcDbEntity
  8
0
100
AcDbSpline
 62
7
  6
CONTINUOUS
 70
0
 71
3
 72
17
 73
13
 74
11
 42
0.0000001
 43
0.0000001
 44
0.0000000001
 12
0.0269983214
 22
-0.0437295925
 32
0.0
 13
0.0504383049
 23
-0.0098768256
 33
0.0
 40
0.0
 40
0.0
 40
0.0
 40
0.0
 40
0.0465152766
 40
0.1842385959
 40
0.313245842
 40
0.4330991245
 40
0.5442407601
 40
0.647409501
 40
0.7438668305
 40
0.834626684
 40
0.9210442182
 40
1.0
 40
1.0
 40
1.0
 40
1.0
 10
9.4896172324
 20
9.6115418403
 30
0.0
 10
9.4900358439
 20
9.610863809
 30
0.0
 10
9.4917292212
 20
9.6082000721
 30
0.0
 10
9.4948477475
 20
9.6038273053
 30
0.0
 10
9.4991345486
 20
9.5987713468
 30
0.0
 10
9.5035150617
 20
9.5944216908
 30
0.0
 10
9.5079185446
 20
9.5907546754
 30
0.0
 10
9.5123010613
 20
9.5877221181
 30
0.0
 10
9.5166357638
 20
9.5852701978
 30
0.0
 10
9.5209151773
 20
9.5833438636
 30
0.0
 10
9.5250709366
 20
9.5819199183
 30
0.0
 10
9.5278266909
 20
9.5812494479
 30
0.0
 10
9.5291541562
 20
9.5809895038
 30
0.0
 11
9.4896172324
 21
9.6115418403
 31
0.0
 11
9.490899884
 21
9.6095246204
 31
0.0
 11
9.4950151192
 21
9.6037682812
 31
0.0
 11
9.4993082217
 21
9.5987182518
 31
0.0
 11
9.5036838492
 21
9.5943853738
 31
0.0
 11
9.5080769009
 21
9.5907372386
 31
0.0
 11
9.5124397034
 21
9.5877267198
 31
0.0
 11
9.5167561842
 21
9.5852918569
 31
0.0
 11
9.5210103247
 21
9.5833821218
 31
0.0
 11
9.525211821
 21
9.5819464038
 31
0.0
 11
9.5291541562
 21
9.5809895038
 31
0.0
  0
SPLINE
  5
55E
100
AcDbEntity
  8
0
100
AcDbSpline
 62
7
  6
CONTINUOUS
 70
0
 71
3
 72
10
 73
6
 74
4
 42
0.0000001
 43
0.0000001
 44
0.0000000001
 12
0.0083212208
 22
-0.0016294609
 32
0.0
 13
0.0084763814
 23
0.0
 33
0.0
 40
0.0
 40
0.0
 40
0.0
 40
0.0
 40
0.0249605004
 40
0.5156784092
 40
1.0
 40
1.0
 40
1.0
 40
1.0
 10
9.5291541562
 20
9.5809895038
 30
0.0
 10
9.5292233901
 20
9.5809759464
 30
0.0
 10
9.5306544089
 20
9.5806992349
 30
0.0
 10
9.5334553433
 20
9.5802984994
 30
0.0
 10
9.5362120358
 20
9.5801677447
 30
0.0
 10
9.5375804673
 20
9.5801677447
 30
0.0
 11
9.5291541562
 21
9.5809895038
 31
0.0
 11
9.5293619533
 21
9.5809493231
 31
0.0
 11
9.5334797612
 21
9.5803617863
 31
0.0
 11
9.5375804673
 21
9.5801677447
 31
0.0
  0
SPLINE
  5
55F
100
AcDbEntity
  8
0
100
AcDbSpline
 62
7
  6
CONTINUOUS
 70
0
 71
3
 72
8
 73
4
 74
2
 42
0.0000001
 43
0.0000001
 44
0.0000000001
 12
-0.000180902
 22
0.0001205672
 32
0.0
 13
-0.0001798771
 23
0.0001220879
 33
0.0
 40
0.0
 40
0.0
 40
0.0
 40
0.0
 40
1.0
 40
1.0
 40
1.0
 40
1.0
 10
9.7713735097
 20
9.4941049362
 30
0.0
 10
9.771313209
 20
9.4941451253
 30
0.0
 10
9.7712530795
 20
9.4941855711
 30
0.0
 10
9.7711931205
 20
9.4942262671
 30
0.0
 11
9.7713735097
 21
9.4941049362
 31
0.0
 11
9.7711931205
 21
9.4942262671
 31
0.0
  0
SPLINE
  5
560
100
AcDbEntity
  8
0
100
AcDbSpline
 62
7
  6
CONTINUOUS
 70
0
 71
3
 72
40
 73
36
 74
34
 42
0.0000001
 43
0.0000001
 44
0.0000000001
 12
-0.1362522139
 22
0.0924783787
 32
0.0
 13
0.1645615367
 23
0.0
 33
0.0
 40
0.0
 40
0.0
 40
0.0
 40
0.0
 40
0.0030900564
 40
0.0231776767
 40
0.0455758296
 40
0.0704711719
 40
0.0980881092
 40
0.1284613163
 40
0.1616364234
 40
0.1973989206
 40
0.2355401053
 40
0.2755617364
 40
0.3170274075
 40
0.3593082116
 40
0.4018963301
 40
0.4442664358
 40
0.4860144797
 40
0.5268283933
 40
0.566463342
 40
0.6047955069
 40
0.6416923014
 40
0.6771446903
 40
0.7110672298
 40
0.743502456
 40
0.7743718743
 40
0.8037306761
 40
0.8314979299
 40
0.8577275792
 40
0.8823521655
 40
0.9054355108
 40
0.9269612656
 40
0.9470384633
 40
0.965755377
 40
0.9833233592
 40
1.0
 40
1.0
 40
1.0
 40
1.0
 10
9.7711931205
 20
9.4942262671
 30
0.0
 10
9.7710527782
 20
9.4943215215
 30
0.0
 10
9.7700071128
 20
9.4950462772
 30
0.0
 10
9.7680532532
 20
9.4966135327
 30
0.0
 10
9.7654112661
 20
9.4992059689
 30
0.0
 10
9.7627384268
 20
9.5023331148
 30
0.0
 10
9.7600608114
 20
9.5060127691
 30
0.0
 10
9.7574104553
 20
9.510257979
 30
0.0
 10
9.7548330297
 20
9.5150614174
 30
0.0
 10
9.7523792035
 20
9.5204018981
 30
0.0
 10
9.7501088926
 20
9.5262279539
 30
0.0
 10
9.7480798608
 20
9.5324721803
 30
0.0
 10
9.7463480286
 20
9.539040434
 30
0.0
 10
9.7449576224
 20
9.5458331345
 30
0.0
 10
9.7439408105
 20
9.5527418966
 30
0.0
 10
9.7433143611
 20
9.5596675971
 30
0.0
 10
9.7430814513
 20
9.5665202901
 30
0.0
 10
9.743233735
 20
9.5732251611
 30
0.0
 10
9.7437543753
 20
9.5797235348
 30
0.0
 10
9.7446208015
 20
9.5859680165
 30
0.0
 10
9.7458075645
 20
9.5919258147
 30
0.0
 10
9.7472868362
 20
9.5975680837
 30
0.0
 10
9.7490313945
 20
9.6028770292
 30
0.0
 10
9.7510121641
 20
9.6078327421
 30
0.0
 10
9.7532024188
 20
9.6124236909
 30
0.0
 10
9.7555726182
 20
9.6166330219
 30
0.0
 10
9.7580964862
 20
9.6204506552
 30
0.0
 10
9.7607439288
 20
9.6238607786
 30
0.0
 10
9.7634887905
 20
9.6268532946
 30
0.0
 10
9.7663010658
 20
9.6294139423
 30
0.0
 10
9.7691553226
 20
9.6315330367
 30
0.0
 10
9.7720232634
 20
9.6331988109
 30
0.0
 10
9.7748816044
 20
9.634402309
 30
0.0
 10
9.777704219
 20
9.6351340101
 30
0.0
 10
9.7795858152
 20
9.6353046954
 30
0.0
 10
9.7805005931
 20
9.6353046954
 30
0.0
 11
9.7711931205
 21
9.4942262671
 31
0.0
 11
9.7707748859
 21
9.4945160556
 31
0.0
 11
9.7681870768
 21
9.496572889
 31
0.0
 11
9.7655466161
 21
9.4991445884
 31
0.0
 11
9.7628753737
 21
9.5022507699
 31
0.0
 11
9.7601923735
 21
9.505918968
 31
0.0
 11
9.7575371889
 21
9.5101536597
 31
0.0
 11
9.7549486669
 21
9.5149603238
 31
0.0
 11
9.7524854235
 21
9.5203051535
 31
0.0
 11
9.7502015866
 21
9.5261514724
 31
0.0
 11
9.7481627038
 21
9.5324139504
 31
0.0
 11
9.7464207568
 21
9.5390115168
 31
0.0
 11
9.7450244993
 21
9.5458277741
 31
0.0
 11
9.744004123
 21
9.5527614621
 31
0.0
 11
9.7433770141
 21
9.5597056933
 31
0.0
 11
9.7431453732
 21
9.5665719094
 31
0.0
 11
9.7433001586
 21
9.5732865259
 31
0.0
 11
9.7438237527
 21
9.5797878638
 31
0.0
 11
9.7446937254
 21
9.5860355843
 31
0.0
 11
9.7458832159
 21
9.5919897244
 31
0.0
 11
9.7473663903
 21
9.5976321452
 31
0.0
 11
9.7491130177
 21
9.6029342081
 31
0.0
 11
9.7510983085
 21
9.6078888518
 31
0.0
 11
9.7532903179
 21
9.6124715007
 31
0.0
 11
9.755665925
 21
9.6166784279
 31
0.0
 11
9.7581915191
 21
9.6204864446
 31
0.0
 11
9.7608446611
 21
9.6238911578
 31
0.0
 11
9.763590442
 21
9.6268713418
 31
0.0
 11
9.7664061959
 21
9.6294210723
 31
0.0
 11
9.7692573409
 21
9.6315232002
 31
0.0
 11
9.7721208599
 21
9.6331713028
 31
0.0
 11
9.7749647966
 21
9.6343540715
 31
0.0
 11
9.7777665961
 21
9.6350667304
 31
0.0
 11
9.7805005931
 21
9.6353046954
 31
0.0
  0
SPLINE
  5
561
100
AcDbEntity
  8
0
100
AcDbSpline
 62
7
  6
CONTINUOUS
 70
0
 71
3
 72
10
 73
6
 74
4
 42
0.0000001
 43
0.0000001
 44
0.0000000001
 12
0.0055087148
 22
0.0
 32
0.0
 13
0.0051198251
 23
-0.0020512482
 33
0.0
 40
0.0
 40
0.0
 40
0.0
 40
0.0
 40
0.4820272879
 40
0.9602901187
 40
1.0
 40
1.0
 40
1.0
 40
1.0
 10
9.7805005931
 20
9.6353046954
 30
0.0
 10
9.78138571
 20
9.6353046954
 30
0.0
 10
9.7831537557
 20
9.6351492704
 30
0.0
 10
9.7849311544
 20
9.6346488054
 30
0.0
 10
9.7858178047
 20
9.6343013128
 30
0.0
 10
9.7858855739
 20
9.6342741612
 30
0.0
 11
9.7805005931
 21
9.6353046954
 31
0.0
 11
9.7831452596
 21
9.6350667309
 31
0.0
 11
9.7856816565
 21
9.6343540744
 31
0.0
 11
9.7858855739
 21
9.6342741612
 31
0.0
  0
SPLINE
  5
562
100
AcDbEntity
  8
0
100
AcDbSpline
 62
7
  6
CONTINUOUS
 70
0
 71
3
 72
8
 73
4
 74
2
 42
0.0000001
 43
0.0000001
 44
0.0000000001
 12
0.0007642258
 22
-0.0003061856
 32
0.0
 13
0.0007460206
 23
-0.0003483741
 33
0.0
 40
0.0
 40
0.0
 40
0.0
 40
0.0
 40
1.0
 40
1.0
 40
1.0
 40
1.0
 10
9.7858855739
 20
9.6342741612
 30
0.0
 10
9.7861403159
 20
9.6341720994
 30
0.0
 10
9.7863921614
 20
9.6340628111
 30
0.0
 10
9.786640835
 20
9.6339466864
 30
0.0
 11
9.7858855739
 21
9.6342741612
 31
0.0
 11
9.786640835
 21
9.6339466864
 31
0.0
  0
SPLINE
  5
563
100
AcDbEntity
  8
0
100
AcDbSpline
 62
7
  6
CONTINUOUS
 70
0
 71
3
 72
8
 73
4
 74
2
 42
0.0000001
 43
0.0000001
 44
0.0000000001
 12
0.0000892297
 22
-0.0000416682
 32
0.0
 13
0.000088956
 23
-0.000042253
 33
0.0
 40
0.0
 40
0.0
 40
0.0
 40
0.0
 40
1.0
 40
1.0
 40
1.0
 40
1.0
 10
9.786640835
 20
9.6339466864
 30
0.0
 10
9.7866705782
 20
9.633932797
 30
0.0
 10
9.7867002761
 20
9.6339188098
 30
0.0
 10
9.7867299281
 20
9.6339047255
 30
0.0
 11
9.786640835
 21
9.6339466864
 31
0.0
 11
9.7867299281
 21
9.6339047255
 31
0.0
  0
SPLINE
  5
564
100
AcDbEntity
  8
0
100
AcDbSpline
 62
7
  6
CONTINUOUS
 70
0
 71
3
 72
24
 73
20
 74
18
 42
0.0000001
 43
0.0000001
 44
0.0000000001
 12
0.0967597672
 22
0.0
 32
0.0
 13
0.0074108242
 23
-0.0965030995
 33
0.0
 40
0.0
 40
0.0
 40
0.0
 40
0.0
 40
0.0556421576
 40
0.1113011439
 40
0.1669636528
 40
0.2227247837
 40
0.2785406878
 40
0.3345812031
 40
0.3908203798
 40
0.447501325
 40
0.5046317051
 40
0.56251102
 40
0.6211883519
 40
0.6809886182
 40
0.7419903582
 40
0.8044949275
 40
0.8685742634
 40
0.9344357786
 40
1.0
 40
1.0
 40
1.0
 40
1.0
 10
9.5375804673
 20
9.6353046954
 30
0.0
 10
9.5393751081
 20
9.6353046954
 30
0.0
 10
9.5429669571
 20
9.6351458609
 30
0.0
 10
9.548311384
 20
9.6344324902
 30
0.0
 10
9.5535758464
 20
9.6332477136
 30
0.0
 10
9.5587189217
 20
9.6315980746
 30
0.0
 10
9.5637055201
 20
9.6294911362
 30
0.0
 10
9.5684968363
 20
9.6269383332
 30
0.0
 10
9.5730624812
 20
9.6239495642
 30
0.0
 10
9.5773677662
 20
9.6205395487
 30
0.0
 10
9.5813865596
 20
9.6167189295
 30
0.0
 10
9.5850881757
 20
9.6125041109
 30
0.0
 10
9.5884489371
 20
9.6079057082
 30
0.0
 10
9.5914406447
 20
9.6029411135
 30
0.0
 10
9.5940393415
 20
9.5976222718
 30
0.0
 10
9.5962170086
 20
9.5919694828
 30
0.0
 10
9.5979472887
 20
9.5860007718
 30
0.0
 10
9.5991880737
 20
9.5798108552
 30
0.0
 10
9.5996790633
 20
9.5755958478
 30
0.0
 10
9.5998410249
 20
9.5734867976
 30
0.0
 11
9.5375804673
 21
9.6353046954
 31
0.0
 11
9.5429591281
 21
9.6350667309
 31
0.0
 11
9.5482973184
 21
9.6343540744
 31
0.0
 11
9.5535517341
 21
9.6331713061
 31
0.0
 11
9.5586892899
 21
9.6315232075
 31
0.0
 11
9.563664125
 21
9.6294210795
 31
0.0
 11
9.5684497331
 21
9.6268713528
 31
0.0
 11
9.5730028081
 21
9.6238911693
 31
0.0
 11
9.5773024567
 21
9.6204864592
 31
0.0
 11
9.5813095694
 21
9.616678445
 31
0.0
 11
9.5850063448
 21
9.6124715211
 31
0.0
 11
9.5883581476
 21
9.6078888782
 31
0.0
 11
9.5913468465
 21
9.6029342357
 31
0.0
 11
9.5939406674
 21
9.5976321826
 31
0.0
 11
9.5961179296
 21
9.5919897579
 31
0.0
 11
9.5978476996
 21
9.5860356302
 31
0.0
 11
9.599103794
 21
9.5797879023
 31
0.0
 11
9.5998410249
 21
9.5734867976
 31
0.0
  0
SPLINE
  5
565
100
AcDbEntity
  8
0
100
AcDbSpline
 62
7
  6
CONTINUOUS
 70
0
 71
3
 72
9
 73
5
 74
3
 42
0.0000001
 43
0.0000001
 44
0.0000000001
 12
0.0004810621
 22
-0.006264348
 32
0.0
 13
0.0000002235
 23
-0.0062827737
 33
0.0
 40
0.0
 40
0.0
 40
0.0
 40
0.0
 40
0.0319584413
 40
1.0
 40
1.0
 40
1.0
 40
1.0
 10
9.5998410249
 20
9.5734867976
 30
0.0
 10
9.5998461496
 20
9.5734200647
 30
0.0
 10
9.6000039042
 20
9.5713317509
 30
0.0
 10
9.6000803948
 20
9.5692374683
 30
0.0
 10
9.6000804669
 20
9.5672101396
 30
0.0
 11
9.5998410249
 21
9.5734867976
 31
0.0
 11
9.5998561498
 21
9.5732865801
 31
0.0
 11
9.6000804669
 21
9.5672101396
 31
0.0
  0
SPLINE
  5
566
100
AcDbEntity
  8
0
100
AcDbSpline
 62
7
  6
CONTINUOUS
 70
0
 71
3
 72
40
 73
36
 74
34
 42
0.0000001
 43
0.0000001
 44
0.0000000001
 12
0.1645617018
 22
0.0
 32
0.0
 13
-0.1362529391
 23
-0.0924776078
 33
0.0
 40
0.0
 40
0.0
 40
0.0
 40
0.0
 40
0.0166766244
 40
0.0342445898
 40
0.0529614848
 40
0.0730386633
 40
0.0945643967
 40
0.11764772
 40
0.142272282
 40
0.1685019065
 40
0.1962691333
 40
0.2256279067
 40
0.2564972954
 40
0.2889324886
 40
0.3228549955
 40
0.3583073474
 40
0.395204106
 40
0.4335362321
 40
0.4731711426
 40
0.513985015
 40
0.5557330186
 40
0.5981030817
 40
0.6406911591
 40
0.6829719241
 40
0.7244375544
 40
0.764459145
 40
0.8026002889
 40
0.8383627463
 40
0.8715378186
 40
0.9019109943
 40
0.9295279033
 40
0.9544232205
 40
0.9768213503
 40
0.9969089513
 40
1.0
 40
1.0
 40
1.0
 40
1.0
 10
9.2946603416
 20
9.6353046954
 30
0.0
 10
9.2955751195
 20
9.6353046954
 30
0.0
 10
9.2974567157
 20
9.6351340101
 30
0.0
 10
9.3002793304
 20
9.634402309
 30
0.0
 10
9.3031376714
 20
9.6331988108
 30
0.0
 10
9.3060056123
 20
9.6315330365
 30
0.0
 10
9.3088598692
 20
9.629413942
 30
0.0
 10
9.3116721445
 20
9.6268532943
 30
0.0
 10
9.3144170063
 20
9.6238607781
 30
0.0
 10
9.3170644489
 20
9.6204506545
 30
0.0
 10
9.319588317
 20
9.616633021
 30
0.0
 10
9.3219585164
 20
9.6124236898
 30
0.0
 10
9.3241487711
 20
9.6078327409
 30
0.0
 10
9.3261295406
 20
9.6028770278
 30
0.0
 10
9.3278740988
 20
9.5975680823
 30
0.0
 10
9.3293533705
 20
9.5919258133
 30
0.0
 10
9.3305401334
 20
9.5859680151
 30
0.0
 10
9.3314065596
 20
9.5797235332
 30
0.0
 10
9.3319271997
 20
9.5732251595
 30
0.0
 10
9.3320794834
 20
9.5665202883
 30
0.0
 10
9.3318465734
 20
9.5596675952
 30
0.0
 10
9.3312201239
 20
9.5527418946
 30
0.0
 10
9.3302033118
 20
9.5458331323
 30
0.0
 10
9.3288129054
 20
9.5390404315
 30
0.0
 10
9.3270810731
 20
9.5324721776
 30
0.0
 10
9.3250520411
 20
9.5262279514
 30
0.0
 10
9.3227817302
 20
9.5204018959
 30
0.0
 10
9.3203279041
 20
9.5150614158
 30
0.0
 10
9.3177504786
 20
9.5102579776
 30
0.0
 10
9.3151001225
 20
9.5060127679
 30
0.0
 10
9.312422507
 20
9.5023331138
 30
0.0
 10
9.3097496678
 20
9.499205968
 30
0.0
 10
9.3071076806
 20
9.4966135319
 30
0.0
 10
9.3051537782
 20
9.4950462422
 30
0.0
 10
9.3041080656
 20
9.4943214586
 30
0.0
 10
9.3039676775
 20
9.4942261743
 30
0.0
 11
9.2946603416
 21
9.6353046954
 31
0.0
 11
9.2973943386
 21
9.6350667304
 31
0.0
 11
9.3001961382
 21
9.6343540714
 31
0.0
 11
9.3030400749
 21
9.6331713027
 31
0.0
 11
9.3059035941
 21
9.6315232
 31
0.0
 11
9.308754739
 21
9.629421072
 31
0.0
 11
9.3115704931
 21
9.6268713414
 31
0.0
 11
9.3143162739
 21
9.6238911573
 31
0.0
 11
9.3169694161
 21
9.6204864439
 31
0.0
 11
9.3194950102
 21
9.616678427
 31
0.0
 11
9.3218706173
 21
9.6124714996
 31
0.0
 11
9.3240626267
 21
9.6078888505
 31
0.0
 11
9.3260479174
 21
9.6029342068
 31
0.0
 11
9.3277945448
 21
9.5976321437
 31
0.0
 11
9.329277719
 21
9.5919897231
 31
0.0
 11
9.3304672095
 21
9.5860355828
 31
0.0
 11
9.3313371821
 21
9.5797878624
 31
0.0
 11
9.3318607762
 21
9.5732865242
 31
0.0
 11
9.3320155614
 21
9.5665719077
 31
0.0
 11
9.3317839204
 21
9.5597056914
 31
0.0
 11
9.3311568114
 21
9.5527614602
 31
0.0
 11
9.3301364349
 21
9.545827772
 31
0.0
 11
9.3287401773
 21
9.5390115141
 31
0.0
 11
9.3269982301
 21
9.5324139477
 31
0.0
 11
9.3249593471
 21
9.5261514698
 31
0.0
 11
9.3226755102
 21
9.5203051513
 31
0.0
 11
9.320212267
 21
9.5149603222
 31
0.0
 11
9.317623745
 21
9.5101536585
 31
0.0
 11
9.3149685603
 21
9.5059189669
 31
0.0
 11
9.3122855602
 21
9.5022507689
 31
0.0
 11
9.3096143177
 21
9.4991445875
 31
0.0
 11
9.306973857
 21
9.4965728882
 31
0.0
 11
9.3043860477
 21
9.4945160548
 31
0.0
 11
9.3039676775
 21
9.4942261743
 31
0.0
  0
SPLINE
  5
567
100
AcDbEntity
  8
0
100
AcDbSpline
 62
7
  6
CONTINUOUS
 70
0
 71
3
 72
8
 73
4
 74
2
 42
0.0000001
 43
0.0000001
 44
0.0000000001
 12
-0.0001797412
 22
-0.000121994
 32
0.0
 13
-0.0001807645
 23
-0.0001204756
 33
0.0
 40
0.0
 40
0.0
 40
0.0
 40
0.0
 40
1.0
 40
1.0
 40
1.0
 40
1.0
 10
9.3039676775
 20
9.4942261743
 30
0.0
 10
9.3039077637
 20
9.4941855097
 30
0.0
 10
9.3038476798
 20
9.4941450947
 30
0.0
 10
9.303787425
 20
9.4941049362
 30
0.0
 11
9.3039676775
 21
9.4942261743
 31
0.0
 11
9.303787425
 21
9.4941049362
 31
0.0
  0
SPLINE
  5
568
100
AcDbEntity
  8
0
100
AcDbSpline
 62
7
  6
CONTINUOUS
 70
0
 71
3
 72
10
 73
6
 74
4
 42
0.0000001
 43
0.0000001
 44
0.0000000001
 12
0.0084770235
 22
0.0
 32
0.0
 13
0.0083218278
 23
0.0016297038
 33
0.0
 40
0.0
 40
0.0
 40
0.0
 40
0.0
 40
0.484285067
 40
0.9749666945
 40
1.0
 40
1.0
 40
1.0
 40
1.0
 10
9.5375804673
 20
9.5801677447
 30
0.0
 10
9.5389488993
 20
9.5801677447
 30
0.0
 10
9.5417055947
 20
9.5802984996
 30
0.0
 10
9.5445067413
 20
9.5806992658
 30
0.0
 10
9.5459379679
 20
9.5809760283
 30
0.0
 10
9.5460074089
 20
9.5809896272
 30
0.0
 11
9.5375804673
 21
9.5801677447
 31
0.0
 11
9.5416811749
 21
9.5803617864
 31
0.0
 11
9.5457989901
 21
9.5809493248
 31
0.0
 11
9.5460074089
 21
9.5809896272
 31
0.0
  0
SPLINE
  5
569
100
AcDbEntity
  8
0
100
AcDbSpline
 62
7
  6
CONTINUOUS
 70
0
 71
3
 72
17
 73
13
 74
11
 42
0.0000001
 43
0.0000001
 44
0.0000000001
 12
0.0504375556
 22
0.0098774303
 32
0.0
 13
0.026997985
 23
0.0437290724
 33
0.0
 40
0.0
 40
0.0
 40
0.0
 40
0.0
 40
0.0789445103
 40
0.1653633449
 40
0.2561242262
 40
0.3525828246
 40
0.4557527465
 40
0.5668957982
 40
0.686750428
 40
0.8157592355
 40
0.9534839484
 40
1.0
 40
1.0
 40
1.0
 40
1.0
 10
9.5460074089
 20
9.5809896272
 30
0.0
 10
9.5473346649
 20
9.5812495502
 30
0.0
 10
9.5500902143
 20
9.5819199913
 30
0.0
 10
9.5542457778
 20
9.5833438715
 30
0.0
 10
9.558525195
 20
9.58527021
 30
0.0
 10
9.562859896
 20
9.5877221323
 30
0.0
 10
9.5672424129
 20
9.5907546928
 30
0.0
 10
9.5716458931
 20
9.5944217093
 30
0.0
 10
9.5760264044
 20
9.5987713668
 30
0.0
 10
9.5803131999
 20
9.603827322
 30
0.0
 10
9.5834317247
 20
9.6082000888
 30
0.0
 10
9.5851251011
 20
9.6108638253
 30
0.0
 10
9.5855437143
 20
9.6115418599
 30
0.0
 11
9.5460074089
 21
9.5809896272
 31
0.0
 11
9.5499491273
 21
9.5819464078
 31
0.0
 11
9.5541506354
 21
9.5833821319
 31
0.0
 11
9.558404772
 21
9.5852918678
 31
0.0
 11
9.5627212563
 21
9.5877267355
 31
0.0
 11
9.5670840547
 21
9.5907372545
 31
0.0
 11
9.5714771079
 21
9.5943853942
 31
0.0
 11
9.5758527301
 21
9.5987182703
 31
0.0
 11
9.5801458312
 21
9.6037683014
 31
0.0
 11
9.5842610572
 21
9.6095246304
 31
0.0
 11
9.5855437143
 21
9.6115418599
 31
0.0
  0
SPLINE
  5
56A
100
AcDbEntity
  8
0
100
AcDbSpline
 62
7
  6
CONTINUOUS
 70
0
 71
3
 72
8
 73
4
 74
2
 42
0.0000001
 43
0.0000001
 44
0.0000000001
 12
0.0000798862
 22
0.000129393
 32
0.0
 13
0.0000796697
 23
0.0001295265
 33
0.0
 40
0.0
 40
0.0
 40
0.0
 40
0.0
 40
1.0
 40
1.0
 40
1.0
 40
1.0
 10
9.5855437143
 20
9.6115418599
 30
0.0
 10
9.585570343
 20
9.6115849909
 30
0.0
 10
9.5855969357
 20
9.6116281441
 30
0.0
 10
9.5856234922
 20
9.6116713196
 30
0.0
 11
9.5855437143
 21
9.6115418599
 31
0.0
 11
9.5856234922
 21
9.6116713196
 31
0.0
  0
SPLINE
  5
56B
100
AcDbEntity
  8
0
100
AcDbSpline
 62
7
  6
CONTINUOUS
 70
0
 71
3
 72
23
 73
19
 74
17
 42
0.0000001
 43
0.0000001
 44
0.0000000001
 12
-0.0448521968
 22
0.0
 32
0.0
 13
0.0
 23
0.0448521968
 33
0.0
 40
0.0
 40
0.0
 40
0.0
 40
0.0
 40
0.0530322711
 40
0.1067647418
 40
0.1619016672
 40
0.2192447564
 40
0.2793435111
 40
0.3429312475
 40
0.4103322444
 40
0.4816679456
 40
0.5563809581
 40
0.6328578981
 40
0.7088278039
 40
0.7811176036
 40
0.8472314555
 40
0.9059962024
 40
0.9569397449
 40
1.0
 40
1.0
 40
1.0
 40
1.0
 10
9.5375804673
 20
9.5264741697
 30
0.0
 10
9.536787596
 20
9.5264741697
 30
0.0
 10
9.5351904986
 20
9.5265447624
 30
0.0
 10
9.5327882261
 20
9.5268651627
 30
0.0
 10
9.5303605087
 20
9.5274108051
 30
0.0
 10
9.5278999494
 20
9.5281984746
 30
0.0
 10
9.525402439
 20
9.5292506275
 30
0.0
 10
9.5228753504
 20
9.5305912605
 30
0.0
 10
9.5203365243
 20
9.5322430974
 30
0.0
 10
9.5178234381
 20
9.5342167279
 30
0.0
 10
9.5153960346
 20
9.5364982285
 30
0.0
 10
9.5131333572
 20
9.539036881
 30
0.0
 10
9.5111256659
 20
9.5417366555
 30
0.0
 10
9.5094496834
 20
9.5444738843
 30
0.0
 10
9.5081512312
 20
9.5471254822
 30
0.0
 10
9.507241882
 20
9.5495976477
 30
0.0
 10
9.5067106533
 20
9.5518249159
 30
0.0
 10
9.5065804673
 20
9.5532312492
 30
0.0
 10
9.5065804673
 20
9.5538750316
 30
0.0
 11
9.5375804673
 21
9.5264741697
 31
0.0
 11
9.5352041652
 21
9.5265790127
 31
0.0
 11
9.5328152109
 21
9.5268969601
 31
0.0
 11
9.5304021515
 21
9.5274381937
 31
0.0
 11
9.5279521588
 21
9.5282208381
 31
0.0
 11
9.5254672586
 21
9.5292655012
 31
0.0
 11
9.5229466617
 21
9.5305999593
 31
0.0
 11
9.5204112629
 21
9.5322464048
 31
0.0
 11
9.5178933493
 21
9.5342205663
 31
0.0
 11
9.5154502658
 21
9.5365142163
 31
0.0
 11
9.5131677159
 21
9.5390746763
 31
0.0
 11
9.5111362128
 21
9.5418102725
 31
0.0
 11
9.5094479378
 21
9.5445784131
 31
0.0
 11
9.50815231
 21
9.5472457447
 31
0.0
 11
9.5072547732
 21
9.5497239476
 31
0.0
 11
9.5067410083
 21
9.5519503685
 31
0.0
 11
9.5065804673
 21
9.5538750316
 31
0.0
  0
SPLINE
  5
56C
100
AcDbEntity
  8
0
100
AcDbSpline
 62
7
  6
CONTINUOUS
 70
0
 71
3
 72
23
 73
19
 74
17
 42
0.0000001
 43
0.0000001
 44
0.0000000001
 12
0.0
 22
-0.0448521968
 32
0.0
 13
-0.0448521968
 23
0.0
 33
0.0
 40
0.0
 40
0.0
 40
0.0
 40
0.0
 40
0.0430584272
 40
0.0940037107
 40
0.152770137
 40
0.2188837969
 40
0.2911691912
 40
0.3671393524
 40
0.443615893
 40
0.5183309512
 40
0.5896672037
 40
0.657069595
 40
0.7206572752
 40
0.7807569964
 40
0.8380994691
 40
0.8932366268
 40
0.9469682805
 40
1.0
 40
1.0
 40
1.0
 40
1.0
 10
9.5685804673
 20
9.5538750316
 30
0.0
 10
9.5685804673
 20
9.5532312765
 30
0.0
 10
9.5684502868
 20
9.5518249446
 30
0.0
 10
9.5679190569
 20
9.5495976514
 30
0.0
 10
9.567009687
 20
9.5471254418
 30
0.0
 10
9.5657112483
 20
9.5444738859
 30
0.0
 10
9.5640353033
 20
9.5417367112
 30
0.0
 10
9.5620276617
 20
9.5390369844
 30
0.0
 10
9.559764974
 20
9.5364983031
 30
0.0
 10
9.5573375522
 20
9.5342167736
 30
0.0
 10
9.5548244211
 20
9.5322431035
 30
0.0
 10
9.5522855708
 20
9.5305912515
 30
0.0
 10
9.5497584502
 20
9.5292506052
 30
0.0
 10
9.5472609337
 20
9.5281984552
 30
0.0
 10
9.5448003644
 20
9.5274107885
 30
0.0
 10
9.5423726634
 20
9.526865155
 30
0.0
 10
9.5399704073
 20
9.5265447607
 30
0.0
 10
9.5383733304
 20
9.5264741697
 30
0.0
 10
9.5375804673
 20
9.5264741697
 30
0.0
 11
9.5685804673
 21
9.5538750316
 31
0.0
 11
9.5684199392
 21
9.5519504497
 31
0.0
 11
9.5679061626
 21
9.5497239514
 31
0.0
 11
9.5670085967
 21
9.5472456789
 31
0.0
 11
9.5657129666
 21
9.5445783579
 31
0.0
 11
9.5640247973
 21
9.5418103844
 31
0.0
 11
9.5619932967
 21
9.539074772
 31
0.0
 11
9.5597107676
 21
9.5365143175
 31
0.0
 11
9.5572676229
 21
9.5342205986
 31
0.0
 11
9.5547496919
 21
9.5322464192
 31
0.0
 11
9.5522142404
 21
9.5305999402
 31
0.0
 11
9.5496936442
 21
9.5292654861
 31
0.0
 11
9.547208702
 21
9.5282208108
 31
0.0
 11
9.5447587339
 21
9.5274381804
 31
0.0
 11
9.5423456633
 21
9.5268969493
 31
0.0
 11
9.5399567448
 21
9.5265790106
 31
0.0
 11
9.5375804673
 21
9.5264741697
 31
0.0
  0
SPLINE
  5
56D
100
AcDbEntity
  8
0
100
AcDbSpline
 62
7
  6
CONTINUOUS
 70
0
 71
3
 72
11
 73
7
 74
5
 42
0.0000001
 43
0.0000001
 44
0.0000000001
 12
-0.0081456679
 22
-0.00542891
 32
0.0
 13
-0.0097823692
 23
-0.0
 33
0.0
 40
0.0
 40
0.0
 40
0.0
 40
0.0
 40
0.2303047926
 40
0.506330996
 40
0.7606014667
 40
1.0
 40
1.0
 40
1.0
 40
1.0
 10
9.303787425
 20
9.4941049362
 30
0.0
 10
9.3031620962
 20
9.4936881682
 30
0.0
 10
9.3017468256
 20
9.4928326035
 30
0.0
 10
9.2994814164
 20
9.4918019311
 30
0.0
 10
9.2970538476
 20
9.4911237252
 30
0.0
 10
9.2954409698
 20
9.4909671281
 30
0.0
 10
9.2946603416
 20
9.4909671281
 30
0.0
 11
9.303787425
 21
9.4941049362
 31
0.0
 11
9.3018554228
 21
9.4929449174
 31
0.0
 11
9.2993914045
 21
9.4918405438
 31
0.0
 11
9.2969921187
 21
9.4911844756
 31
0.0
 11
9.2946603416
 21
9.4909671281
 31
0.0
  0
SPLINE
  5
56E
100
AcDbEntity
  8
0
100
AcDbSpline
 62
7
  6
CONTINUOUS
 70
0
 71
3
 72
26
 73
22
 74
20
 42
0.0000001
 43
0.0000001
 44
0.0000000001
 12
0.0000038706
 22
-0.1088204786
 32
0.0
 13
-0.1087899176
 23
0.0
 33
0.0
 40
0.0
 40
0.0
 40
0.0
 40
0.0
 40
0.0058646547
 40
0.0690527571
 40
0.1334206205
 40
0.1985829326
 40
0.2639754393
 40
0.329056691
 40
0.3930802595
 40
0.4555723684
 40
0.5159101659
 40
0.5738907223
 40
0.6292329194
 40
0.6820505639
 40
0.7323718329
 40
0.7805376224
 40
0.826751709
 40
0.8714577873
 40
0.9149514708
 40
0.9576850865
 40
1.0
 40
1.0
 40
1.0
 40
1.0
 10
9.6000804669
 20
9.5672101396
 30
0.0
 10
9.6000804745
 20
9.5669974081
 30
0.0
 10
9.6000709732
 20
9.5644926265
 30
0.0
 10
9.5998351105
 20
9.5596548096
 30
0.0
 10
9.5989322976
 20
9.5527171404
 30
0.0
 10
9.5974584246
 20
9.5457961604
 30
0.0
 10
9.5954256804
 20
9.5389911723
 30
0.0
 10
9.592865054
 20
9.5324109538
 30
0.0
 10
9.5898232422
 20
9.5261555999
 30
0.0
 10
9.5863643713
 20
9.5203199112
 30
0.0
 10
9.5825574891
 20
9.5149719378
 30
0.0
 10
9.5784786968
 20
9.5101636974
 30
0.0
 10
9.5741945365
 20
9.5059168487
 30
0.0
 10
9.5697686217
 20
9.5022390654
 30
0.0
 10
9.5652473223
 20
9.4991175753
 30
0.0
 10
9.5606712931
 20
9.4965348003
 30
0.0
 10
9.5560640042
 20
9.494465031
 30
0.0
 10
9.5514453817
 20
9.4928853049
 30
0.0
 10
9.5468220941
 20
9.491773361
 30
0.0
 10
9.5422010544
 20
9.4911132558
 30
0.0
 10
9.539114946
 20
9.4909671281
 30
0.0
 10
9.5375804673
 20
9.4909671281
 30
0.0
 11
9.6000804669
 21
9.5672101396
 31
0.0
 11
9.6000780486
 21
9.5665719524
 31
0.0
 11
9.5997458945
 21
9.5597057533
 31
0.0
 11
9.5988440037
 21
9.5527615007
 31
0.0
 11
9.5973681519
 21
9.5458278279
 31
0.0
 11
9.5953315005
 21
9.5390115464
 31
0.0
 11
9.5927621973
 21
9.5324139949
 31
0.0
 11
9.5897135551
 21
9.5261515145
 31
0.0
 11
9.5862436273
 21
9.520305203
 31
0.0
 11
9.5824330072
 21
9.5149603774
 31
0.0
 11
9.578348522
 21
9.5101537091
 31
0.0
 11
9.5740688194
 21
9.5059190132
 31
0.0
 11
9.5696460263
 21
9.5022508079
 31
0.0
 11
9.5651381251
 21
9.4991446217
 31
0.0
 11
9.5605726647
 21
9.4965729157
 31
0.0
 11
9.555985023
 21
9.4945160799
 31
0.0
 11
9.5513822173
 21
9.4929449345
 31
0.0
 11
9.5467812293
 21
9.4918405565
 31
0.0
 11
9.5421787693
 21
9.4911844787
 31
0.0
 11
9.5375804673
 21
9.4909671281
 31
0.0
  0
SPLINE
  5
56F
100
AcDbEntity
  8
0
100
AcDbSpline
 62
7
  6
CONTINUOUS
 70
0
 71
3
 72
30
 73
26
 74
24
 42
0.0000001
 43
0.0000001
 44
0.0000000001
 12
0.0118001416
 22
-0.1099823318
 32
0.0
 13
-0.1106085706
 23
0.0
 33
0.0
 40
0.0
 40
0.0
 40
0.0
 40
0.0
 40
0.0015148216
 40
0.0555666
 40
0.1121593924
 40
0.1709735114
 40
0.2316827588
 40
0.2937659663
 40
0.3565973268
 40
0.4194190156
 40
0.4813156465
 40
0.5414305781
 40
0.5987802469
 40
0.6527129178
 40
0.7025466819
 40
0.7480592579
 40
0.7890651686
 40
0.8257700801
 40
0.8583946864
 40
0.8874373313
 40
0.913373692
 40
0.9368842099
 40
0.958631834
 40
0.9794147452
 40
1.0
 40
1.0
 40
1.0
 40
1.0
 10
9.8044028869
 20
9.5921563695
 30
0.0
 10
9.8044088452
 20
9.592100835
 30
0.0
 10
9.8046264774
 20
9.5900636215
 30
0.0
 10
9.804997103
 20
9.58594438
 30
0.0
 10
9.8053790413
 20
9.5797074239
 30
0.0
 10
9.8056049491
 20
9.5732173287
 30
0.0
 10
9.8056705154
 20
9.5665212252
 30
0.0
 10
9.8055701513
 20
9.5596774158
 30
0.0
 10
9.8052975646
 20
9.5527603075
 30
0.0
 10
9.8048467871
 20
9.5458593235
 30
0.0
 10
9.8042133508
 20
9.5390731418
 30
0.0
 10
9.8033961059
 20
9.5325096863
 30
0.0
 10
9.8023973958
 20
9.5262682969
 30
0.0
 10
9.8012251334
 20
9.5204429785
 30
0.0
 10
9.7998900456
 20
9.5151011582
 30
0.0
 10
9.7984076725
 20
9.5102944115
 30
0.0
 10
9.7967928683
 20
9.5060439985
 30
0.0
 10
9.7950623695
 20
9.5023573137
 30
0.0
 10
9.7932285685
 20
9.4992213753
 30
0.0
 10
9.7913033947
 20
9.4966187159
 30
0.0
 10
9.7892925893
 20
9.4945246568
 30
0.0
 10
9.7872015971
 20
9.4929190344
 30
0.0
 10
9.7850316576
 20
9.4917846732
 30
0.0
 10
9.7827892536
 20
9.4911117802
 30
0.0
 10
9.7812595616
 20
9.4909671281
 30
0.0
 10
9.7805005931
 20
9.4909671281
 30
0.0
 11
9.8044028869
 21
9.5921563695
 31
0.0
 11
9.8044206859
 21
9.5919897579
 31
0.0
 11
9.8049609655
 21
9.5860356302
 31
0.0
 11
9.8053470836
 21
9.5797879023
 31
0.0
 11
9.8055758439
 21
9.5732865801
 31
0.0
 11
9.8056429542
 21
9.5665719524
 31
0.0
 11
9.8055424376
 21
9.5597057533
 31
0.0
 11
9.8052676548
 21
9.5527615007
 31
0.0
 11
9.8048121744
 21
9.5458278279
 31
0.0
 11
9.804171783
 21
9.5390115464
 31
0.0
 11
9.8033444206
 21
9.5324139949
 31
0.0
 11
9.8023346593
 21
9.5261515145
 31
0.0
 11
9.8011485624
 21
9.520305203
 31
0.0
 11
9.79980118
 21
9.5149603774
 31
0.0
 11
9.7983052149
 21
9.5101537091
 31
0.0
 11
9.796680695
 21
9.5059190132
 31
0.0
 11
9.7949409026
 21
9.5022508079
 31
0.0
 11
9.7931042426
 21
9.4991446217
 31
0.0
 11
9.7911792439
 21
9.4965729157
 31
0.0
 11
9.7891794072
 21
9.4945160799
 31
0.0
 11
9.7871072298
 21
9.4929449345
 31
0.0
 11
9.784970257
 21
9.4918405565
 31
0.0
 11
9.7827671009
 21
9.4911844787
 31
0.0
 11
9.7805005931
 21
9.4909671281
 31
0.0
  0
SPLINE
  5
570
100
AcDbEntity
  8
0
100
AcDbSpline
 62
7
  6
CONTINUOUS
 70
0
 71
3
 72
23
 73
19
 74
17
 42
0.0000001
 43
0.0000001
 44
0.0000000001
 12
0.0
 22
0.0352168462
 32
0.0
 13
0.0352168462
 23
-0.0
 33
0.0
 40
0.0
 40
0.0
 40
0.0
 40
0.0
 40
0.0469724847
 40
0.0887740567
 40
0.1278885599
 40
0.1668726728
 40
0.2080920815
 40
0.2533835655
 40
0.3040684474
 40
0.3608931417
 40
0.4241630519
 40
0.4937015695
 40
0.5689892253
 40
0.6492280655
 40
0.7334488763
 40
0.8206731368
 40
0.909876431
 40
1.0
 40
1.0
 40
1.0
 40
1.0
 10
9.5065804673
 20
9.5538750316
 30
0.0
 10
9.5065804673
 20
9.5544264391
 30
0.0
 10
9.5066634611
 20
9.5554724283
 30
0.0
 10
9.5070907873
 20
9.5569242185
 30
0.0
 10
9.5078001987
 20
9.5581558464
 30
0.0
 10
9.5087771798
 20
9.5591767289
 30
0.0
 10
9.5100068411
 20
9.5600046411
 30
0.0
 10
9.5114829822
 20
9.5606636041
 30
0.0
 10
9.5132057319
 20
9.5611762257
 30
0.0
 10
9.515175126
 20
9.5615624513
 30
0.0
 10
9.5173849301
 20
9.5618408948
 30
0.0
 10
9.5198210157
 20
9.562030367
 30
0.0
 10
9.5224606271
 20
9.5621499344
 30
0.0
 10
9.5252743027
 20
9.5622181858
 30
0.0
 10
9.5282286552
 20
9.5622520522
 30
0.0
 10
9.5312883734
 20
9.5622656547
 30
0.0
 10
9.5344174025
 20
9.5622695115
 30
0.0
 10
9.5365225114
 20
9.5622698864
 30
0.0
 10
9.5375804673
 20
9.5622698864
 30
0.0
 11
9.5065804673
 21
9.5538750316
 31
0.0
 11
9.5067281073
 21
9.5555226527
 31
0.0
 11
9.5071553788
 21
9.5569314021
 31
0.0
 11
9.5078454659
 21
9.558123567
 31
0.0
 11
9.5087893931
 21
9.5591204867
 31
0.0
 11
9.5099858124
 21
9.5599425418
 31
0.0
 11
9.5114359616
 21
9.5606067454
 31
0.0
 11
9.5131426579
 21
9.5611295035
 31
0.0
 11
9.5151040613
 21
9.5615265475
 31
0.0
 11
9.5173134941
 21
9.5618148766
 31
0.0
 11
9.5197544369
 21
9.5620124697
 31
0.0
 11
9.5224028424
 21
9.5621383174
 31
0.0
 11
9.5252276618
 21
9.5622111753
 31
0.0
 11
9.5281934216
 21
9.5622482401
 31
0.0
 11
9.5312651449
 21
9.5622639249
 31
0.0
 11
9.5344065996
 21
9.5622689489
 31
0.0
 11
9.5375804673
 21
9.5622698864
 31
0.0
  0
SPLINE
  5
571
100
AcDbEntity
  8
0
100
AcDbSpline
 62
7
  6
CONTINUOUS
 70
0
 71
3
 72
11
 73
7
 74
5
 42
0.0000001
 43
0.0000001
 44
0.0000000001
 12
-0.0097823692
 22
0.0
 32
0.0
 13
-0.0081456679
 23
0.00542891
 33
0.0
 40
0.0
 40
0.0
 40
0.0
 40
0.0
 40
0.239398626
 40
0.4936691817
 40
0.7696953525
 40
1.0
 40
1.0
 40
1.0
 40
1.0
 10
9.7805005931
 20
9.4909671281
 30
0.0
 10
9.7797199645
 20
9.4909671281
 30
0.0
 10
9.7781070861
 20
9.4911237253
 30
0.0
 10
9.775679517
 20
9.4918019315
 30
0.0
 10
9.7734141081
 20
9.4928326041
 30
0.0
 10
9.7719988381
 20
9.4936881684
 30
0.0
 10
9.7713735097
 20
9.4941049362
 30
0.0
 11
9.7805005931
 21
9.4909671281
 31
0.0
 11
9.778168815
 21
9.4911844757
 31
0.0
 11
9.7757695285
 21
9.4918405444
 31
0.0
 11
9.7733055106
 21
9.4929449181
 31
0.0
 11
9.7713735097
 21
9.4941049362
 31
0.0
  0
SPLINE
  5
572
100
AcDbEntity
  8
0
100
AcDbSpline
 62
7
  6
CONTINUOUS
 70
0
 71
3
 72
26
 73
22
 74
20
 42
0.0000001
 43
0.0000001
 44
0.0000000001
 12
-0.1087899177
 22
0.0
 32
0.0
 13
0.0000038708
 23
0.1088204788
 33
0.0
 40
0.0
 40
0.0
 40
0.0
 40
0.0
 40
0.0423148913
 40
0.0850484762
 40
0.1285421575
 40
0.1732482164
 40
0.219462309
 40
0.2676280899
 40
0.3179493629
 40
0.3707670028
 40
0.4261092019
 40
0.484089756
 40
0.5444275508
 40
0.6069196622
 40
0.6709432154
 40
0.7360244758
 40
0.8014169657
 40
0.8665792923
 40
0.9309471464
 40
0.9941352666
 40
1.0
 40
1.0
 40
1.0
 40
1.0
 10
9.5375804673
 20
9.4909671281
 30
0.0
 10
9.5360459895
 20
9.4909671281
 30
0.0
 10
9.532959883
 20
9.4911132557
 30
0.0
 10
9.5283388452
 20
9.4917733601
 30
0.0
 10
9.5237155593
 20
9.4928853031
 30
0.0
 10
9.5190969371
 20
9.4944650284
 30
0.0
 10
9.5144896487
 20
9.4965347967
 30
0.0
 10
9.509913619
 20
9.4991175711
 30
0.0
 10
9.5053923195
 20
9.5022390604
 30
0.0
 10
9.5009664042
 20
9.5059168432
 30
0.0
 10
9.4966822436
 20
9.5101636912
 30
0.0
 10
9.4926034508
 20
9.5149719311
 30
0.0
 10
9.488796568
 20
9.520319904
 30
0.0
 10
9.4853376968
 20
9.5261555919
 30
0.0
 10
9.4822958844
 20
9.5324109453
 30
0.0
 10
9.4797352575
 20
9.5389911628
 30
0.0
 10
9.4777025125
 20
9.5457961509
 30
0.0
 10
9.4762286388
 20
9.5527171303
 30
0.0
 10
9.475325825
 20
9.5596548002
 30
0.0
 10
9.4750899615
 20
9.5644926203
 30
0.0
 10
9.4750804602
 20
9.5669974054
 30
0.0
 10
9.4750804677
 20
9.5672101398
 30
0.0
 11
9.5375804673
 21
9.4909671281
 31
0.0
 11
9.5329821677
 21
9.4911844785
 31
0.0
 11
9.528379711
 21
9.4918405554
 31
0.0
 11
9.5237787231
 21
9.4929449329
 31
0.0
 11
9.5191759192
 21
9.4945160769
 31
0.0
 11
9.5145882765
 21
9.4965729123
 31
0.0
 11
9.5100228167
 21
9.4991446172
 31
0.0
 11
9.5055149146
 21
9.5022508031
 31
0.0
 11
9.5010921215
 21
9.5059190076
 31
0.0
 11
9.4968124182
 21
9.5101537031
 31
0.0
 11
9.4927279327
 21
9.5149603707
 31
0.0
 11
9.4889173121
 21
9.5203051957
 31
0.0
 11
9.4854473835
 21
9.5261515071
 31
0.0
 11
9.4823987414
 21
9.5324139856
 31
0.0
 11
9.4798294371
 21
9.5390115378
 31
0.0
 11
9.4777927855
 21
9.5458278173
 31
0.0
 11
9.4763169325
 21
9.5527614915
 31
0.0
 11
9.4754150411
 21
9.5597057429
 31
0.0
 11
9.4750828861
 21
9.566571944
 31
0.0
 11
9.4750804677
 21
9.5672101398
 31
0.0
  0
SPLINE
  5
573
100
AcDbEntity
  8
0
100
AcDbSpline
 62
7
  6
CONTINUOUS
 70
0
 71
3
 72
30
 73
26
 74
24
 42
0.0000001
 43
0.0000001
 44
0.0000000001
 12
-0.110608571
 22
0.0
 32
0.0
 13
0.0118001419
 23
0.1099823322
 33
0.0
 40
0.0
 40
0.0
 40
0.0
 40
0.0
 40
0.0205852441
 40
0.04136814
 40
0.0631157619
 40
0.0866262675
 40
0.1125626288
 40
0.1416052653
 40
0.1742298705
 40
0.2109347753
 40
0.2519406839
 40
0.2974532548
 40
0.3472870135
 40
0.4012196837
 40
0.4585693359
 40
0.5186842732
 40
0.5805808862
 40
0.6434025874
 40
0.7062339379
 40
0.7683171624
 40
0.8290264028
 40
0.8878405388
 40
0.9444333292
 40
0.9984851216
 40
1.0
 40
1.0
 40
1.0
 40
1.0
 10
9.2946603416
 20
9.4909671281
 30
0.0
 10
9.2939013734
 20
9.4909671281
 30
0.0
 10
9.2923716824
 20
9.49111178
 30
0.0
 10
9.2901292793
 20
9.4917846723
 30
0.0
 10
9.2879593405
 20
9.4929190325
 30
0.0
 10
9.2858683483
 20
9.4945246541
 30
0.0
 10
9.283857543
 20
9.4966187122
 30
0.0
 10
9.2819323689
 20
9.499221371
 30
0.0
 10
9.2800985677
 20
9.5023573087
 30
0.0
 10
9.2783680687
 20
9.506043993
 30
0.0
 10
9.2767532642
 20
9.5102944054
 30
0.0
 10
9.2752708909
 20
9.5151011516
 30
0.0
 10
9.2739358028
 20
9.5204429713
 30
0.0
 10
9.2727635403
 20
9.526268289
 30
0.0
 10
9.2717648299
 20
9.5325096779
 30
0.0
 10
9.2709475848
 20
9.5390731323
 30
0.0
 10
9.2703141482
 20
9.5458593141
 30
0.0
 10
9.2698633706
 20
9.5527602975
 30
0.0
 10
9.2695907836
 20
9.5596774065
 30
0.0
 10
9.2694904192
 20
9.5665212159
 30
0.0
 10
9.2695559854
 20
9.5732173204
 30
0.0
 10
9.2697818929
 20
9.579707416
 30
0.0
 10
9.2701638311
 20
9.5859443731
 30
0.0
 10
9.2705344568
 20
9.5900636172
 30
0.0
 10
9.2707520892
 20
9.5921008333
 30
0.0
 10
9.2707580478
 20
9.5921563699
 30
0.0
 11
9.2946603416
 21
9.4909671281
 31
0.0
 11
9.2923938349
 21
9.4911844785
 31
0.0
 11
9.2901906803
 21
9.4918405554
 31
0.0
 11
9.2880537075
 21
9.4929449329
 31
0.0
 11
9.2859815308
 21
9.4945160769
 31
0.0
 11
9.2839816936
 21
9.4965729123
 31
0.0
 11
9.2820566949
 21
9.4991446173
 31
0.0
 11
9.2802200346
 21
9.5022508032
 31
0.0
 11
9.278480242
 21
9.5059190076
 31
0.0
 11
9.2768557218
 21
9.5101537031
 31
0.0
 11
9.2753597566
 21
9.5149603708
 31
0.0
 11
9.2740123739
 21
9.5203051958
 31
0.0
 11
9.2728262766
 21
9.5261515071
 31
0.0
 11
9.2718165153
 21
9.5324139856
 31
0.0
 11
9.2709891526
 21
9.5390115378
 31
0.0
 11
9.2703487611
 21
9.5458278173
 31
0.0
 11
9.2698932803
 21
9.5527614915
 31
0.0
 11
9.2696184973
 21
9.5597057429
 31
0.0
 11
9.2695179804
 21
9.566571944
 31
0.0
 11
9.2695850906
 21
9.5732865709
 31
0.0
 11
9.2698138507
 21
9.5797878951
 31
0.0
 11
9.2701999686
 21
9.5860356228
 31
0.0
 11
9.2707402482
 21
9.591989752
 31
0.0
 11
9.2707580478
 21
9.5921563699
 31
0.0
  0
SPLINE
  5
574
100
AcDbEntity
  8
0
100
AcDbSpline
 62
7
  6
CONTINUOUS
 70
0
 71
3
 72
23
 73
19
 74
17
 42
0.0000001
 43
0.0000001
 44
0.0000000001
 12
0.0352168462
 22
-0.0
 32
0.0
 13
0.0
 23
-0.0352168462
 33
0.0
 40
0.0
 40
0.0
 40
0.0
 40
0.0
 40
0.0901234558
 40
0.1793265192
 40
0.2665507352
 40
0.350771291
 40
0.4310102454
 40
0.5062976296
 40
0.5758363597
 40
0.6391059475
 40
0.6959308778
 40
0.7466155016
 40
0.7919073906
 40
0.8331268931
 40
0.8721113273
 40
0.9112260321
 40
0.9530276548
 40
1.0
 40
1.0
 40
1.0
 40
1.0
 10
9.5375804673
 20
9.5622698864
 30
0.0
 10
9.5386384219
 20
9.5622698864
 30
0.0
 10
9.5407435268
 20
9.5622695115
 30
0.0
 10
9.5438725513
 20
9.5622656548
 30
0.0
 10
9.5469322632
 20
9.5622520524
 30
0.0
 10
9.5498866136
 20
9.5622181861
 30
0.0
 10
9.5527002843
 20
9.5621499351
 30
0.0
 10
9.5553398964
 20
9.5620303683
 30
0.0
 10
9.5577759776
 20
9.5618408974
 30
0.0
 10
9.5599857833
 20
9.5615624552
 30
0.0
 10
9.5619551739
 20
9.5611762326
 30
0.0
 10
9.5636779287
 20
9.5606636127
 30
0.0
 10
9.5651540741
 20
9.5600046523
 30
0.0
 10
9.5663837452
 20
9.5591767374
 30
0.0
 10
9.5673607333
 20
9.5581558513
 30
0.0
 10
9.5680701482
 20
9.5569242173
 30
0.0
 10
9.5684974738
 20
9.5554724255
 30
0.0
 10
9.5685804673
 20
9.5544264375
 30
0.0
 10
9.5685804673
 20
9.5538750316
 30
0.0
 11
9.5375804673
 21
9.5622698864
 31
0.0
 11
9.5407543311
 21
9.5622689489
 31
0.0
 11
9.5438957776
 21
9.562263925
 31
0.0
 11
9.5469674994
 21
9.5622482403
 31
0.0
 11
9.5499332501
 21
9.5622111757
 31
0.0
 11
9.5527580736
 21
9.5621383181
 31
0.0
 11
9.5554064695
 21
9.5620124715
 31
0.0
 11
9.5578474199
 21
9.5618148788
 31
0.0
 11
9.5600568416
 21
9.5615265527
 31
0.0
 11
9.5620182536
 21
9.5611295092
 31
0.0
 11
9.5637249422
 21
9.5606067569
 31
0.0
 11
9.5651751059
 21
9.5599425509
 31
0.0
 11
9.5663715298
 21
9.5591204966
 31
0.0
 11
9.5673154663
 21
9.5581235702
 31
0.0
 11
9.5680055571
 21
9.5569313992
 31
0.0
 11
9.5684328283
 21
9.5555226478
 31
0.0
 11
9.5685804673
 21
9.5538750316
 31
0.0
  0
SPLINE
  5
575
100
AcDbEntity
  8
0
100
AcDbSpline
 62
7
  6
CONTINUOUS
 70
0
 71
3
 72
30
 73
26
 74
24
 42
0.0000001
 43
0.0000001
 44
0.0000000001
 12
-0.3518193163
 22
0.1814440189
 32
0.0
 13
-0.3518193163
 23
-0.1814440189
 33
0.0
 40
0.0
 40
0.0
 40
0.0
 40
0.0
 40
0.0503463085
 40
0.0986249459
 40
0.1451187352
 40
0.1900928048
 40
0.2338002389
 40
0.2764435793
 40
0.318220909
 40
0.3593092364
 40
0.3998714689
 40
0.4400702996
 40
0.480045492
 40
0.5199545091
 40
0.5599297015
 40
0.6001285322
 40
0.6406907645
 40
0.6817790918
 40
0.7235564214
 40
0.7661997619
 40
0.8099071956
 40
0.854881265
 40
0.9013750541
 40
0.9496536914
 40
1.0
 40
1.0
 40
1.0
 40
1.0
 10
9.507966681
 20
8.4746359118
 30
0.0
 10
9.5020624131
 20
8.477680924
 30
0.0
 10
9.4904043415
 20
8.4834699098
 30
0.0
 10
9.4729780089
 20
8.4914149976
 30
0.0
 10
9.4559383633
 20
8.4984732707
 30
0.0
 10
9.4392143332
 20
8.5046860784
 30
0.0
 10
9.4227433565
 20
8.5100842294
 30
0.0
 10
9.4064709706
 20
8.5146895173
 30
0.0
 10
9.3903526806
 20
8.5185158419
 30
0.0
 10
9.3743499404
 20
8.5215717946
 30
0.0
 10
9.3584299505
 20
8.5238620138
 30
0.0
 10
9.3425660158
 20
8.5253883574
 30
0.0
 10
9.3267332777
 20
8.5261515268
 30
0.0
 10
9.3109116225
 20
8.5261515267
 30
0.0
 10
9.2950788844
 20
8.5253883574
 30
0.0
 10
9.2792149498
 20
8.5238620138
 30
0.0
 10
9.2632949599
 20
8.5215717945
 30
0.0
 10
9.2472922197
 20
8.5185158419
 30
0.0
 10
9.2311739297
 20
8.5146895172
 30
0.0
 10
9.214901544
 20
8.5100842294
 30
0.0
 10
9.1984305673
 20
8.5046860783
 30
0.0
 10
9.1817065373
 20
8.4984732707
 30
0.0
 10
9.1646668918
 20
8.4914149976
 30
0.0
 10
9.1472405592
 20
8.4834699098
 30
0.0
 10
9.1355824876
 20
8.477680924
 30
0.0
 10
9.1296782196
 20
8.4746359118
 30
0.0
 11
9.507966681
 21
8.4746359118
 31
0.0
 11
9.4901116854
 21
8.4834898062
 31
0.0
 11
9.4727181977
 21
8.4914084086
 31
0.0
 11
9.4557107918
 21
8.4984425785
 31
0.0
 11
9.4390188365
 21
8.5046335425
 31
0.0
 11
9.4225749578
 21
8.5100137595
 31
0.0
 11
9.4063303458
 21
8.5146031115
 31
0.0
 11
9.3902383075
 21
8.5184162137
 31
0.0
 11
9.3742610447
 21
8.5214615152
 31
0.0
 11
9.3583673896
 21
8.5237434822
 31
0.0
 11
9.3425274616
 21
8.5252644748
 31
0.0
 11
9.3267214811
 21
8.526024814
 31
0.0
 11
9.3109234191
 21
8.526024814
 31
0.0
 11
9.2951174387
 21
8.5252644748
 31
0.0
 11
9.2792775106
 21
8.5237434821
 31
0.0
 11
9.2633838556
 21
8.5214615152
 31
0.0
 11
9.2474065928
 21
8.5184162137
 31
0.0
 11
9.2313145545
 21
8.5146031115
 31
0.0
 11
9.2150699426
 21
8.5100137594
 31
0.0
 11
9.198626064
 21
8.5046335425
 31
0.0
 11
9.1819341088
 21
8.4984425784
 31
0.0
 11
9.164926703
 21
8.4914084086
 31
0.0
 11
9.1475332153
 21
8.4834898062
 31
0.0
 11
9.1296782196
 21
8.4746359118
 31
0.0
  0
SPLINE
  5
576
100
AcDbEntity
  8
0
100
AcDbSpline
 62
7
  6
CONTINUOUS
 70
0
 71
3
 72
27
 73
23
 74
21
 42
0.0000001
 43
0.0000001
 44
0.0000000001
 12
-0.3683077477
 22
-0.1096663032
 32
0.0
 13
-0.3683077477
 23
0.1096663032
 33
0.0
 40
0.0
 40
0.0
 40
0.0
 40
0.0
 40
0.0529108398
 40
0.1046953431
 40
0.1555709001
 40
0.2057439969
 40
0.2554037966
 40
0.3046840737
 40
0.3537048192
 40
0.4025524989
 40
0.451300081
 40
0.5000000002
 40
0.5486999194
 40
0.5974475016
 40
0.6462951813
 40
0.6953159267
 40
0.7445962038
 40
0.7942560034
 40
0.8444291002
 40
0.895304657
 40
0.9470891602
 40
1.0
 40
1.0
 40
1.0
 40
1.0
 10
9.507966681
 20
8.0381995777
 30
0.0
 10
9.5014708569
 20
8.0362653989
 30
0.0
 10
9.4885737582
 20
8.0325829962
 30
0.0
 10
9.4692829796
 20
8.0275760245
 30
0.0
 10
9.4502119913
 20
8.0231423741
 30
0.0
 10
9.4312952096
 20
8.0192773705
 30
0.0
 10
9.4124779893
 20
8.0159827986
 30
0.0
 10
9.3937177114
 20
8.0132655055
 30
0.0
 10
9.3749861928
 20
8.0111357238
 30
0.0
 10
9.3562645898
 20
8.0096043244
 30
0.0
 10
9.3375441929
 20
8.0086810306
 30
0.0
 10
9.3188224502
 20
8.0083724791
 30
0.0
 10
9.3001007075
 20
8.0086810306
 30
0.0
 10
9.2813803106
 20
8.0096043244
 30
0.0
 10
9.2626587076
 20
8.0111357238
 30
0.0
 10
9.2439271891
 20
8.0132655055
 30
0.0
 10
9.2251669112
 20
8.0159827987
 30
0.0
 10
9.2063496909
 20
8.0192773705
 30
0.0
 10
9.1874329093
 20
8.0231423741
 30
0.0
 10
9.168361921
 20
8.0275760245
 30
0.0
 10
9.1490711424
 20
8.0325829962
 30
0.0
 10
9.1361740437
 20
8.0362653989
 30
0.0
 10
9.1296782196
 20
8.0381995777
 30
0.0
 11
9.507966681
 21
8.0381995777
 31
0.0
 11
9.4884132692
 21
8.0326232808
 31
0.0
 11
9.4691498136
 21
8.0276297
 31
0.0
 11
9.450105484
 21
8.023208168
 31
0.0
 11
9.4312137563
 21
8.0193537503
 31
0.0
 11
9.412415191
 21
8.0160673713
 31
0.0
 11
9.3936723453
 21
8.013356874
 31
0.0
 11
9.3749544666
 21
8.0112321385
 31
0.0
 11
9.3562451634
 21
8.0097043456
 31
0.0
 11
9.3375347144
 21
8.0087831482
 31
0.0
 11
9.3188224502
 21
8.008475296
 31
0.0
 11
9.3001101861
 21
8.0087831482
 31
0.0
 11
9.2813997371
 21
8.0097043457
 31
0.0
 11
9.2626904339
 21
8.0112321385
 31
0.0
 11
9.2439725552
 21
8.0133568741
 31
0.0
 11
9.2252297095
 21
8.0160673714
 31
0.0
 11
9.2064311442
 21
8.0193537503
 31
0.0
 11
9.1875394166
 21
8.023208168
 31
0.0
 11
9.168495087
 21
8.0276297
 31
0.0
 11
9.1492316315
 21
8.0326232808
 31
0.0
 11
9.1296782196
 21
8.0381995777
 31
0.0
  0
SPLINE
  5
577
100
AcDbEntity
  8
0
100
AcDbSpline
 62
7
  6
CONTINUOUS
 70
0
 71
3
 72
30
 73
26
 74
24
 42
0.0000001
 43
0.0000001
 44
0.0000000001
 12
-0.3518193163
 22
0.1814440189
 32
0.0
 13
-0.3518193163
 23
-0.1814440189
 33
0.0
 40
0.0
 40
0.0
 40
0.0
 40
0.0
 40
0.0503463085
 40
0.0986249459
 40
0.1451187352
 40
0.1900928048
 40
0.2338002389
 40
0.2764435793
 40
0.318220909
 40
0.3593092364
 40
0.3998714689
 40
0.4400702996
 40
0.480045492
 40
0.5199545091
 40
0.5599297015
 40
0.6001285322
 40
0.6406907645
 40
0.6817790918
 40
0.7235564214
 40
0.7661997619
 40
0.8099071956
 40
0.854881265
 40
0.9013750541
 40
0.9496536914
 40
1.0
 40
1.0
 40
1.0
 40
1.0
 10
9.945482715
 20
8.4746359118
 30
0.0
 10
9.939578447
 20
8.477680924
 30
0.0
 10
9.9279203755
 20
8.4834699098
 30
0.0
 10
9.9104940429
 20
8.4914149976
 30
0.0
 10
9.8934543973
 20
8.4984732707
 30
0.0
 10
9.8767303672
 20
8.5046860784
 30
0.0
 10
9.8602593904
 20
8.5100842294
 30
0.0
 10
9.8439870046
 20
8.5146895173
 30
0.0
 10
9.8278687146
 20
8.5185158419
 30
0.0
 10
9.8118659744
 20
8.5215717946
 30
0.0
 10
9.7959459845
 20
8.5238620138
 30
0.0
 10
9.7800820498
 20
8.5253883574
 30
0.0
 10
9.7642493117
 20
8.5261515268
 30
0.0
 10
9.7484276565
 20
8.5261515267
 30
0.0
 10
9.7325949184
 20
8.5253883574
 30
0.0
 10
9.7167309838
 20
8.5238620138
 30
0.0
 10
9.7008109939
 20
8.5215717945
 30
0.0
 10
9.6848082537
 20
8.5185158419
 30
0.0
 10
9.6686899637
 20
8.5146895172
 30
0.0
 10
9.652417578
 20
8.5100842294
 30
0.0
 10
9.6359466013
 20
8.5046860783
 30
0.0
 10
9.6192225713
 20
8.4984732707
 30
0.0
 10
9.6021829257
 20
8.4914149976
 30
0.0
 10
9.5847565932
 20
8.4834699098
 30
0.0
 10
9.5730985216
 20
8.477680924
 30
0.0
 10
9.5671942536
 20
8.4746359118
 30
0.0
 11
9.945482715
 21
8.4746359118
 31
0.0
 11
9.9276277194
 21
8.4834898062
 31
0.0
 11
9.9102342317
 21
8.4914084086
 31
0.0
 11
9.8932268258
 21
8.4984425785
 31
0.0
 11
9.8765348705
 21
8.5046335425
 31
0.0
 11
9.8600909918
 21
8.5100137595
 31
0.0
 11
9.8438463798
 21
8.5146031115
 31
0.0
 11
9.8277543415
 21
8.5184162137
 31
0.0
 11
9.8117770787
 21
8.5214615152
 31
0.0
 11
9.7958834236
 21
8.5237434822
 31
0.0
 11
9.7800434956
 21
8.5252644748
 31
0.0
 11
9.7642375151
 21
8.526024814
 31
0.0
 11
9.7484394531
 21
8.526024814
 31
0.0
 11
9.7326334727
 21
8.5252644748
 31
0.0
 11
9.7167935446
 21
8.5237434821
 31
0.0
 11
9.7008998896
 21
8.5214615152
 31
0.0
 11
9.6849226268
 21
8.5184162137
 31
0.0
 11
9.6688305885
 21
8.5146031115
 31
0.0
 11
9.6525859766
 21
8.5100137594
 31
0.0
 11
9.636142098
 21
8.5046335425
 31
0.0
 11
9.6194501428
 21
8.4984425784
 31
0.0
 11
9.602442737
 21
8.4914084086
 31
0.0
 11
9.5850492493
 21
8.4834898062
 31
0.0
 11
9.5671942536
 21
8.4746359118
 31
0.0
  0
SPLINE
  5
578
100
AcDbEntity
  8
0
100
AcDbSpline
 62
7
  6
CONTINUOUS
 70
0
 71
3
 72
27
 73
23
 74
21
 42
0.0000001
 43
0.0000001
 44
0.0000000001
 12
-0.3683077477
 22
-0.1096663032
 32
0.0
 13
-0.3683077477
 23
0.1096663032
 33
0.0
 40
0.0
 40
0.0
 40
0.0
 40
0.0
 40
0.0529108398
 40
0.1046953431
 40
0.1555709001
 40
0.2057439969
 40
0.2554037966
 40
0.3046840737
 40
0.3537048192
 40
0.4025524989
 40
0.451300081
 40
0.5000000002
 40
0.5486999194
 40
0.5974475016
 40
0.6462951813
 40
0.6953159267
 40
0.7445962038
 40
0.7942560034
 40
0.8444291002
 40
0.895304657
 40
0.9470891602
 40
1.0
 40
1.0
 40
1.0
 40
1.0
 10
9.945482715
 20
8.0381995777
 30
0.0
 10
9.9389868909
 20
8.0362653989
 30
0.0
 10
9.9260897922
 20
8.0325829962
 30
0.0
 10
9.9067990136
 20
8.0275760245
 30
0.0
 10
9.8877280253
 20
8.0231423741
 30
0.0
 10
9.8688112436
 20
8.0192773705
 30
0.0
 10
9.8499940233
 20
8.0159827986
 30
0.0
 10
9.8312337454
 20
8.0132655055
 30
0.0
 10
9.8125022268
 20
8.0111357238
 30
0.0
 10
9.7937806238
 20
8.0096043244
 30
0.0
 10
9.7750602269
 20
8.0086810306
 30
0.0
 10
9.7563384842
 20
8.0083724791
 30
0.0
 10
9.7376167415
 20
8.0086810306
 30
0.0
 10
9.7188963446
 20
8.0096043244
 30
0.0
 10
9.7001747416
 20
8.0111357238
 30
0.0
 10
9.6814432231
 20
8.0132655055
 30
0.0
 10
9.6626829451
 20
8.0159827987
 30
0.0
 10
9.6438657249
 20
8.0192773705
 30
0.0
 10
9.6249489433
 20
8.0231423741
 30
0.0
 10
9.605877955
 20
8.0275760245
 30
0.0
 10
9.5865871764
 20
8.0325829962
 30
0.0
 10
9.5736900777
 20
8.0362653989
 30
0.0
 10
9.5671942536
 20
8.0381995777
 30
0.0
 11
9.945482715
 21
8.0381995777
 31
0.0
 11
9.9259293032
 21
8.0326232808
 31
0.0
 11
9.9066658476
 21
8.0276297
 31
0.0
 11
9.887621518
 21
8.023208168
 31
0.0
 11
9.8687297903
 21
8.0193537503
 31
0.0
 11
9.849931225
 21
8.0160673713
 31
0.0
 11
9.8311883793
 21
8.013356874
 31
0.0
 11
9.8124705006
 21
8.0112321385
 31
0.0
 11
9.7937611974
 21
8.0097043456
 31
0.0
 11
9.7750507484
 21
8.0087831482
 31
0.0
 11
9.7563384842
 21
8.008475296
 31
0.0
 11
9.7376262201
 21
8.0087831482
 31
0.0
 11
9.718915771
 21
8.0097043457
 31
0.0
 11
9.7002064679
 21
8.0112321385
 31
0.0
 11
9.6814885892
 21
8.0133568741
 31
0.0
 11
9.6627457435
 21
8.0160673714
 31
0.0
 11
9.6439471782
 21
8.0193537503
 31
0.0
 11
9.6250554506
 21
8.023208168
 31
0.0
 11
9.606011121
 21
8.0276297
 31
0.0
 11
9.5867476654
 21
8.0326232808
 31
0.0
 11
9.5671942536
 21
8.0381995777
 31
0.0
  0
ENDSEC
  0
SECTION
  2
OBJECTS
  0
DICTIONARY
  5
C
100
AcDbDictionary
280
0
281
1
  3
ACAD_GROUP
350
D
  3
ACAD_MLINESTYLE
350
17
  3
ACAD_LAYOUT
350
1A
  3
ACAD_PLOTSETTINGS
350
19
  3
ACAD_PLOTSTYLENAME
350
E
  0
DICTIONARY
  5
D
102
{ACAD_REACTORS
330
C
102
}
100
AcDbDictionary
280
0
281
1
  0
ACDBDICTIONARYWDFLT
  5
E
102
{ACAD_REACTORS
330
C
102
}
100
AcDbDictionary
281
1
  3
Normal
350
F
100
AcDbDictionaryWithDefault
340
F
  0
DICTIONARY
  5
17
102
{ACAD_REACTORS
330
C
102
}
100
AcDbDictionary
280
0
281
1
  3
Standard
350
18
  0
DICTIONARY
  5
19
102
{ACAD_REACTORS
330
C
102
}
100
AcDbDictionary
281
1
  0
DICTIONARY
  5
1A
102
{ACAD_REACTORS
330
C
102
}
100
AcDbDictionary
281
1
  3
Layout1
350
1E
  3
Model
350
22
  0
ACDBPLACEHOLDER
  5
F
102
{ACAD_REACTORS
330
E
102
}
  0
MLINESTYLE
  5
18
102
{ACAD_REACTORS
330
17
102
}
100
AcDbMlineStyle
  2
STANDARD
 70
0
  3

 62
256
 51
90.0
 52
90.0
 71
2
 49
0.5
 62
256
  6
BYLAYER
 49
-0.5
 62
256
  6
BYLAYER
  0
LAYOUT
  5
1E
102
{ACAD_REACTORS
330
1A
102
}
100
AcDbPlotSettings
  1

  2

  4

  6

 40
0.0
 41
0.0
 42
0.0
 43
0.0
 44
0.0
 45
0.0
 46
0.0
 47
0.0
 48
0.0
 49
0.0
140
0.0
141
0.0
142
1.0
143
1.0
 70
0
 72
0
 73
0
 74
0
  7

 75
0
147
1.0
148
0.0
149
0.0
100
AcDbLayout
  1
Layout1
 70
0
 71
0
 10
0.0
 20
0.0
 11
0.0
 21
0.0
 12
0.0
 22
0.0
 32
0.0
 14
0.0
 24
0.0
 34
0.0
 15
0.0
 25
0.0
 35
0.0
146
0.0
 13
0.0
 23
0.0
 33
0.0
 16
0.0
 26
0.0
 36
0.0
 17
0.0
 27
0.0
 37
0.0
 76
0
330
1B
331
0
345
0
346
0
  0
LAYOUT
  5
22
102
{ACAD_REACTORS
330
1A
102
}
100
AcDbPlotSettings
  1

  2

  4

  6

 40
0.0
 41
0.0
 42
0.0
 43
0.0
 44
0.0
 45
0.0
 46
0.0
 47
0.0
 48
0.0
 49
0.0
140
0.0
141
0.0
142
1.0
143
1.0
 70
0
 72
0
 73
0
 74
0
  7

 75
0
147
1.0
148
0.0
149
0.0
100
AcDbLayout
  1
Model
 70
0
 71
0
 10
0.0
 20
0.0
 11
0.0
 21
0.0
 12
0.0
 22
0.0
 32
0.0
 14
0.0
 24
0.0
 34
0.0
 15
0.0
 25
0.0
 35
0.0
146
0.0
 13
0.0
 23
0.0
 33
0.0
 16
0.0
 26
0.0
 36
0.0
 17
0.0
 27
0.0
 37
0.0
 76
0
330
1F
331
0
345
0
346
0
  0
ENDSEC
  0
EOF
