999
DXF file: A7A_assy_2.dxf
999
Pro/ENGINEER 2014200 by Parametric Technology Corporation
  0
SECTION
  2
HEADER
  9
$ACADVER
  1
AC1021
  9
$DWGCODEPAGE
  3
ANSI_1252
  9
$EXTMAX
 10
22.0
 20
17.0
 30
0.0
  9
$EXTMIN
 10
0.0
 20
0.0
 30
0.0
  9
$LIMMIN
 10
0.0
 20
0.0
  9
$LIMMAX
 10
22.0
 20
17.0
  9
$VIEWCTR
 10
11.0
 20
8.5
  9
$VIEWSIZE
 40
17.0
  9
$CLAYER
  8
0
  9
$LTSCALE
 40
1.21
  9
$CELTYPE
  6
BYLAYER
  9
$DIMSCALE
 40
1.0
  9
$DIMASZ
 40
0.1875
  9
$DIMEXO
 40
0.0625
  9
$DIMDLI
 40
0.836
  9
$DIMEXE
 40
0.125
  9
$DIMCEN
 40
0.198
  9
$DIMLFAC
 40
1.0
  9
$DIMBLK
  1
_FILLED
  9
$DIMTXT
 40
0.1
  9
$DIMTOL
 70
0
  9
$DIMLIM
 70
0
  9
$DIMTFAC
 40
1.0
  9
$DIMGAP
 40
0.09
  9
$DIMDSEP
 70
46
  9
$AUNITS
 70
0
  9
$PDMODE
 70
3
  9
$PDSIZE
 40
0.3125
  9
$HANDSEED
  5
3AE
  9
$TILEMODE
 70
1
  9
$MEASUREMENT
 70
0
  9
$INSUNITS
 70
1
  0
ENDSEC
  0
SECTION
  2
CLASSES
  0
CLASS
  1
ACDBDICTIONARYWDFLT
  2
AcDbDictionaryWithDefault
  3
AutoCAD 2000
 90
0
 91
1
280
0
281
0
  0
CLASS
  1
ACDBPLACEHOLDER
  2
AcDbPlaceHolder
  3
AutoCAD 2000
 90
0
 91
1
280
0
281
0
  0
CLASS
  1
LAYOUT
  2
AcDbLayout
  3
AutoCAD 2000
 90
0
 91
0
280
0
281
0
  0
CLASS
  1
RASTERVARIABLES
  2
AcDbRasterVariables
  3
ISM
 90
0
 91
1
280
0
281
0
  0
CLASS
  1
IMAGEDEF
  2
AcDbRasterImageDef
  3
ISM
 90
0
 91
1
280
0
281
0
  0
CLASS
  1
IMAGEDEF_REACTOR
  2
AcDbRasterImageDefReactor
  3
ISM
 90
0
 91
1
280
0
281
0
  0
CLASS
  1
IMAGE
  2
AcDbRasterImage
  3
ISM
 90
127
 91
1
280
0
281
1
  0
CLASS
  1
TABLESTYLE
  2
AcDbTableStyle
  3
ObjectDBX Classes
 90
2047
 91
1
280
0
281
0
  0
CLASS
  1
ACAD_TABLE
  2
AcDbTable
  3
ObjectDBX Classes
 90
1025
 91
3
280
0
281
1
  0
ENDSEC
  0
SECTION
  2
TABLES
  0
TABLE
  2
VPORT
  5
8
100
AcDbSymbolTable
 70
2
  0
VPORT
  5
1F4
100
AcDbSymbolTableRecord
100
AcDbViewportTableRecord
  2
*ACTIVE
 70
0
 10
0.0
 20
0.0
 11
1.0
 21
1.0
 12
11.0
 22
8.5
 13
0.0
 23
0.0
 14
1.0
 24
1.0
 15
0.0
 25
0.0
 16
0.0
 26
0.0
 36
1.0
 17
0.0
 27
0.0
 37
0.0
 40
17.0
 41
1.2941176471
 42
50.0
 43
0.0
 44
0.0
 50
0.0
 51
0.0
 71
0
 72
100
 73
1
 74
1
 75
0
 76
0
 77
0
 78
0
  0
ENDTAB
  0
TABLE
  2
LTYPE
  5
5
100
AcDbSymbolTable
 70
6
  0
LTYPE
  5
14
100
AcDbSymbolTableRecord
100
AcDbLinetypeTableRecord
  2
BYBLOCK
 70
0
  3

 72
65
 73
0
 40
0.0
  0
LTYPE
  5
15
100
AcDbSymbolTableRecord
100
AcDbLinetypeTableRecord
  2
BYLAYER
 70
0
  3

 72
65
 73
0
 40
0.0
  0
LTYPE
  5
16
100
AcDbSymbolTableRecord
100
AcDbLinetypeTableRecord
  2
CONTINUOUS
 70
64
  3
Solid line
 72
65
 73
0
 40
0.0
  0
LTYPE
  5
1F5
100
AcDbSymbolTableRecord
100
AcDbLinetypeTableRecord
  2
CENTER
 70
64
  3
____ _ ____ _ ____ _ ____ _ ____ _ ____ _ ____
 72
65
 73
4
 40
0.6
 49
0.375
 74
0
 49
-0.075
 74
0
 49
0.075
 74
0
 49
-0.075
 74
0
  0
LTYPE
  5
1F6
100
AcDbSymbolTableRecord
100
AcDbLinetypeTableRecord
  2
HIDDEN
 70
64
  3
- - - - - - - - - - - - - - - - - - - -
 72
65
 73
2
 40
0.2
 49
0.1
 74
0
 49
-0.1
 74
0
  0
LTYPE
  5
1F7
100
AcDbSymbolTableRecord
100
AcDbLinetypeTableRecord
  2
PHANTOM
 70
64
  3
_____ _ _ _____ _ _ _____ _ _ _____
 72
65
 73
6
 40
0.8
 49
0.45
 74
0
 49
-0.05
 74
0
 49
0.1
 74
0
 49
-0.05
 74
0
 49
0.1
 74
0
 49
-0.05
 74
0
  0
LTYPE
  5
1F8
100
AcDbSymbolTableRecord
100
AcDbLinetypeTableRecord
  2
DOT
 70
64
  3
. . . . . . . . . . . . . . . . . . . .
 72
65
 73
2
 40
0.2
 49
0.1
 74
0
 49
-0.1
 74
0
  0
LTYPE
  5
1F9
100
AcDbSymbolTableRecord
100
AcDbLinetypeTableRecord
  2
DASHED
 70
64
  3
- - - - - - - - - - - - - - - - - - - -
 72
65
 73
2
 40
0.2
 49
0.1
 74
0
 49
-0.1
 74
0
  0
ENDTAB
  0
TABLE
  2
LAYER
  5
2
100
AcDbSymbolTable
 70
36
  0
LAYER
  5
10
100
AcDbSymbolTableRecord
100
AcDbLayerTableRecord
  2
0
 70
0
 62
7
  6
CONTINUOUS
370
-3
390
F
  0
LAYER
  5
1FA
100
AcDbSymbolTableRecord
100
AcDbLayerTableRecord
  2
DEFAULT_1
 70
0
 62
7
  6
CENTER
370
-3
390
F
  0
LAYER
  5
1FB
100
AcDbSymbolTableRecord
100
AcDbLayerTableRecord
  2
DEFAULT_2
 70
0
 62
8
  6
HIDDEN
370
-3
390
F
  0
LAYER
  5
1FC
100
AcDbSymbolTableRecord
100
AcDbLayerTableRecord
  2
DEFAULT_3
 70
0
 62
7
  6
PHANTOM
370
-3
390
F
  0
LAYER
  5
1FD
100
AcDbSymbolTableRecord
100
AcDbLayerTableRecord
  2
01___PRT_ALL_DTM_PLN
 70
0
 62
7
  6
CONTINUOUS
370
-3
390
F
  0
LAYER
  5
1FE
100
AcDbSymbolTableRecord
100
AcDbLayerTableRecord
  2
01___PRT_DEF_DTM_PLN
 70
0
 62
7
  6
CONTINUOUS
370
-3
390
F
  0
LAYER
  5
1FF
100
AcDbSymbolTableRecord
100
AcDbLayerTableRecord
  2
02___PRT_ALL_AXES
 70
0
 62
7
  6
CONTINUOUS
370
-3
390
F
  0
LAYER
  5
200
100
AcDbSymbolTableRecord
100
AcDbLayerTableRecord
  2
03___PRT_ALL_CURVES
 70
0
 62
7
  6
CONTINUOUS
370
-3
390
F
  0
LAYER
  5
201
100
AcDbSymbolTableRecord
100
AcDbLayerTableRecord
  2
04___PRT_ALL_DTM_PNT
 70
0
 62
7
  6
CONTINUOUS
370
-3
390
F
  0
LAYER
  5
202
100
AcDbSymbolTableRecord
100
AcDbLayerTableRecord
  2
05___PRT_ALL_DTM_CSYS
 70
0
 62
7
  6
CONTINUOUS
370
-3
390
F
  0
LAYER
  5
203
100
AcDbSymbolTableRecord
100
AcDbLayerTableRecord
  2
05___PRT_DEF_DTM_CSYS
 70
0
 62
7
  6
CONTINUOUS
370
-3
390
F
  0
LAYER
  5
204
100
AcDbSymbolTableRecord
100
AcDbLayerTableRecord
  2
06___PRT_ALL_SURFS
 70
0
 62
7
  6
CONTINUOUS
370
-3
390
F
  0
LAYER
  5
205
100
AcDbSymbolTableRecord
100
AcDbLayerTableRecord
  2
DATUM_PLANES
 70
0
 62
7
  6
CONTINUOUS
370
-3
390
F
  0
LAYER
  5
206
100
AcDbSymbolTableRecord
100
AcDbLayerTableRecord
  2
PORT_AREAS
 70
0
 62
7
  6
CONTINUOUS
370
-3
390
F
  0
LAYER
  5
207
100
AcDbSymbolTableRecord
100
AcDbLayerTableRecord
  2
SUNNBOMCOSMETIC
 70
0
 62
7
  6
CONTINUOUS
370
-3
390
F
  0
LAYER
  5
208
100
AcDbSymbolTableRecord
100
AcDbLayerTableRecord
  2
SUNNBOMSTAMPING
 70
0
 62
7
  6
CONTINUOUS
370
-3
390
F
  0
LAYER
  5
209
100
AcDbSymbolTableRecord
100
AcDbLayerTableRecord
  2
THREADS
 70
0
 62
7
  6
CONTINUOUS
370
-3
390
F
  0
ENDTAB
  0
TABLE
  2
STYLE
  5
3
100
AcDbSymbolTable
 70
1
  0
STYLE
  5
11
100
AcDbSymbolTableRecord
100
AcDbTextStyleTableRecord
  2
STANDARD
 70
0
 40
0.0
 41
0.8
 50
0.0
 71
0
 42
0.2
  3
txt
  4

  0
STYLE
  5
20A
100
AcDbSymbolTableRecord
100
AcDbTextStyleTableRecord
  2
TEXTSTYLE_1
 70
0
 40
0.0
 41
0.8
 50
0.0
 71
0
 42
0.2
  3
gdt
  4

  0
ENDTAB
  0
TABLE
  2
VIEW
  5
6
100
AcDbSymbolTable
 70
0
  0
ENDTAB
  0
TABLE
  2
UCS
  5
7
100
AcDbSymbolTable
 70
0
  0
ENDTAB
  0
TABLE
  2
APPID
  5
9
100
AcDbSymbolTable
 70
1
  0
APPID
  5
20B
100
AcDbSymbolTableRecord
100
AcDbRegAppTableRecord
  2
ACAD
 70
0
  0
ENDTAB
  0
TABLE
  2
BLOCK_RECORD
  5
1
100
AcDbSymbolTable
 70
0
  0
BLOCK_RECORD
  5
20C
100
AcDbSymbolTableRecord
100
AcDbBlockTableRecord
  2
*Model_Space
  0
BLOCK_RECORD
  5
20D
100
AcDbSymbolTableRecord
100
AcDbBlockTableRecord
  2
*Paper_Space
  0
BLOCK_RECORD
  5
20E
100
AcDbSymbolTableRecord
100
AcDbBlockTableRecord
  2
SUN_FIRST_THIRD_ANGLE_BL0
  0
BLOCK_RECORD
  5
20F
100
AcDbSymbolTableRecord
100
AcDbBlockTableRecord
  2
*T1
  0
BLOCK_RECORD
  5
210
100
AcDbSymbolTableRecord
100
AcDbBlockTableRecord
  2
*T2
  0
BLOCK_RECORD
  5
211
100
AcDbSymbolTableRecord
100
AcDbBlockTableRecord
  2
*T3
  0
ENDTAB
  0
TABLE
  2
DIMSTYLE
  5
A
100
AcDbSymbolTable
 70
1
100
AcDbDimStyleTable
 71
0
  0
DIMSTYLE
105
212
100
AcDbSymbolTableRecord
100
AcDbDimStyleTableRecord
  2
STANDARD
 70
0
  3

  4

 40
1.0
 41
0.1875
 42
0.0625
 43
0.38
 44
0.125
 45
0.0
 46
0.0
 47
0.001
 48
0.001
140
0.1
141
0.09
142
0.0
143
25.4
144
1.0
145
0.0
146
1.0
147
0.09
 71
0.0
 72
0.0
 73
1
 74
1
 75
0
 76
0
 77
0
 78
4
170
0
171
2
172
0
173
0
174
0
175
0
176
0
177
0
178
0
270
2
271
3
272
3
273
2
274
2
275
0
280
0
281
0
282
0
283
1
284
4
285
0
286
0
287
3
288
0
340
11
278
46
  0
ENDTAB
  0
ENDSEC
  0
SECTION
  2
BLOCKS
  0
BLOCK
  5
20
100
AcDbEntity
  8
0
100
AcDbBlockBegin
  2
*Model_Space
 70
0
 10
0.0
 20
0.0
 30
0.0
  3
*Model_Space
  1

  0
ENDBLK
  5
21
100
AcDbEntity
  8
0
100
AcDbBlockEnd
  0
BLOCK
  5
1C
100
AcDbEntity
  8
0
100
AcDbBlockBegin
  2
*Paper_Space
 70
0
 10
0.0
 20
0.0
 30
0.0
  3
*Paper_Space
  1

  0
ENDBLK
  5
1D
100
AcDbEntity
  8
0
100
AcDbBlockEnd
  0
BLOCK
  5
213
100
AcDbEntity
  8
0
100
AcDbBlockBegin
 62
2
  6
CONTINUOUS
  2
SUN_FIRST_THIRD_ANGLE_BL0
 70
64
 10
20.4816717061
 20
1.2289683772
  3
SUN_FIRST_THIRD_ANGLE_BL0
  1

  0
TEXT
  5
214
100
AcDbEntity
  8
0
100
AcDbText
 62
2
  6
CONTINUOUS
 10
19.4750896608
 20
1.4136269581
  7
STANDARD
 40
0.08
  1
FIRST ANGLE
 41
0.8
 72
0
100
AcDbText
  0
TEXT
  5
215
100
AcDbEntity
  8
0
100
AcDbText
 62
2
  6
CONTINUOUS
 10
20.7842537513
 20
1.4047600029
  7
STANDARD
 40
0.08
  1
THIRD ANGLE
 41
0.8
 72
0
100
AcDbText
  0
LINE
  5
216
100
AcDbEntity
  8
0
100
AcDbLine
 62
7
  6
CONTINUOUS
 10
19.4767170086
 20
1.1727031207
 11
19.6334271527
 21
1.1717972817
  0
LINE
  5
217
100
AcDbEntity
  8
0
100
AcDbLine
 62
7
  6
CONTINUOUS
 10
19.6596964832
 20
1.1717972817
 11
19.6950230232
 21
1.171593082
  0
LINE
  5
218
100
AcDbEntity
  8
0
100
AcDbLine
 62
7
  6
CONTINUOUS
 10
19.7194818561
 20
1.1708914427
 11
19.8852396156
 21
1.1699333054
  0
LINE
  5
219
100
AcDbEntity
  8
0
100
AcDbLine
 62
7
  6
CONTINUOUS
 10
19.4758111696
 20
1.2723454088
 11
19.88525039
 21
1.3511534004
  0
LINE
  5
21A
100
AcDbEntity
  8
0
100
AcDbLine
 62
7
  6
CONTINUOUS
 10
19.88525039
 20
1.3511534004
 11
19.8831348489
 21
0.9851647912
  0
LINE
  5
21B
100
AcDbEntity
  8
0
100
AcDbLine
 62
7
  6
CONTINUOUS
 10
19.8831348489
 20
0.9851647912
 11
19.4767170086
 21
1.0658141206
  0
LINE
  5
21C
100
AcDbEntity
  8
0
100
AcDbLine
 62
7
  6
CONTINUOUS
 10
19.4767170086
 20
1.0658141206
 11
19.4779056764
 21
1.2714536432
  0
CIRCLE
  5
21D
100
AcDbEntity
  8
0
100
AcDbCircle
 62
7
  6
CONTINUOUS
 10
20.2068232291
 20
1.1717972817
 40
0.175742101
  0
CIRCLE
  5
21E
100
AcDbEntity
  8
0
100
AcDbCircle
 62
7
  6
CONTINUOUS
 10
20.2068232291
 20
1.1717972817
 40
0.1005522074
  0
LINE
  5
21F
100
AcDbEntity
  8
0
100
AcDbLine
 62
7
  6
CONTINUOUS
 10
20.2077290681
 20
1.3756110529
 11
20.2071171714
 21
1.2379342989
  0
LINE
  5
220
100
AcDbEntity
  8
0
100
AcDbLine
 62
7
  6
CONTINUOUS
 10
20.2077290681
 20
1.2016899681
 11
20.2074674401
 21
1.1428236749
  0
LINE
  5
221
100
AcDbEntity
  8
0
100
AcDbLine
 62
7
  6
CONTINUOUS
 10
20.208634907
 20
1.101141841
 11
20.2080230104
 21
0.963465087
  0
LINE
  5
222
100
AcDbEntity
  8
0
100
AcDbLine
 62
7
  6
CONTINUOUS
 10
20.0066328138
 20
1.1745147986
 11
20.1443095678
 21
1.1739029019
  0
LINE
  5
223
100
AcDbEntity
  8
0
100
AcDbLine
 62
7
  6
CONTINUOUS
 10
20.1832714155
 20
1.1727031207
 11
20.238153505
 21
1.172335442
  0
LINE
  5
224
100
AcDbEntity
  8
0
100
AcDbLine
 62
7
  6
CONTINUOUS
 10
20.2756669918
 20
1.1717972817
 11
20.407916871
 21
1.1712095044
  0
CIRCLE
  5
225
100
AcDbEntity
  8
0
100
AcDbCircle
 62
7
  6
CONTINUOUS
 10
20.7509457401
 20
1.1693297793
 40
0.1722024983
  0
CIRCLE
  5
226
100
AcDbEntity
  8
0
100
AcDbCircle
 62
7
  6
CONTINUOUS
 10
20.7509457401
 20
1.1693297793
 40
0.0985164967
  0
LINE
  5
227
100
AcDbEntity
  8
0
100
AcDbLine
 62
7
  6
CONTINUOUS
 10
20.7169767782
 20
1.170462078
 11
20.7825395137
 21
1.1682766535
  0
LINE
  5
228
100
AcDbEntity
  8
0
100
AcDbLine
 62
7
  6
CONTINUOUS
 10
20.8177513651
 20
1.1693297793
 11
20.947965719
 21
1.1693297793
  0
LINE
  5
229
100
AcDbEntity
  8
0
100
AcDbLine
 62
7
  6
CONTINUOUS
 10
20.6875370113
 20
1.170462078
 11
20.5573226574
 21
1.170462078
  0
LINE
  5
22A
100
AcDbEntity
  8
0
100
AcDbLine
 62
7
  6
CONTINUOUS
 10
20.7486811426
 20
1.1987695462
 11
20.7486811426
 21
1.1432869085
  0
LINE
  5
22B
100
AcDbEntity
  8
0
100
AcDbLine
 62
7
  6
CONTINUOUS
 10
20.7498134414
 20
1.1059210505
 11
20.7498134414
 21
0.9757066966
  0
LINE
  5
22C
100
AcDbEntity
  8
0
100
AcDbLine
 62
7
  6
CONTINUOUS
 10
20.7486811426
 20
1.2338708068
 11
20.7486811426
 21
1.3640851607
  0
LINE
  5
22D
100
AcDbEntity
  8
0
100
AcDbLine
 62
7
  6
CONTINUOUS
 10
21.0702539817
 20
1.2701043662
 11
21.4790138229
 21
1.3448360823
  0
LINE
  5
22E
100
AcDbEntity
  8
0
100
AcDbLine
 62
7
  6
CONTINUOUS
 10
21.4790138229
 20
1.3448360823
 11
21.4790138229
 21
0.9779712941
  0
LINE
  5
22F
100
AcDbEntity
  8
0
100
AcDbLine
 62
7
  6
CONTINUOUS
 10
21.4790138229
 20
0.9779712941
 11
21.069121683
 21
1.0617614
  0
LINE
  5
230
100
AcDbEntity
  8
0
100
AcDbLine
 62
7
  6
CONTINUOUS
 10
21.0702539817
 20
1.2701043662
 11
21.069121683
 21
1.0617614
  0
LINE
  5
231
100
AcDbEntity
  8
0
100
AcDbLine
 62
7
  6
CONTINUOUS
 10
21.4790138229
 20
1.1693297793
 11
21.3159628059
 21
1.1693297793
  0
LINE
  5
232
100
AcDbEntity
  8
0
100
AcDbLine
 62
7
  6
CONTINUOUS
 10
21.2876553377
 20
1.1693297793
 11
21.2502894796
 21
1.1693297793
  0
LINE
  5
233
100
AcDbEntity
  8
0
100
AcDbLine
 62
7
  6
CONTINUOUS
 10
21.2208497126
 20
1.1659328831
 11
21.0713862804
 21
1.1659328831
  0
LINE
  5
234
100
AcDbEntity
  8
0
100
AcDbLine
 62
7
  6
CONTINUOUS
 10
20.4796138713
 20
1.5284908897
 11
20.4766766948
 21
0.9294458646
  0
ENDBLK
  5
235
100
AcDbEntity
  8
0
  6
BYBLOCK
 62
0
100
AcDbBlockEnd
  0
BLOCK
  5
236
100
AcDbEntity
  8
0
100
AcDbBlockBegin
  2
*T1
 70
1
 10
0.0
 20
0.0
  3
*T1
  1

  0
LINE
  5
237
100
AcDbEntity
  8
0
100
AcDbLine
 62
2
  6
CONTINUOUS
 10
9.275
 20
0.0
 11
-0.0
 21
0.0
  0
LINE
  5
238
100
AcDbEntity
  8
0
100
AcDbLine
 62
2
  6
CONTINUOUS
 10
9.275
 20
0.0
 11
9.275
 21
1.25
  0
LINE
  5
239
100
AcDbEntity
  8
0
100
AcDbLine
 62
2
  6
CONTINUOUS
 10
9.275
 20
0.625
 11
-0.0
 21
0.625
  0
LINE
  5
23A
100
AcDbEntity
  8
0
100
AcDbLine
 62
2
  6
CONTINUOUS
 10
9.275
 20
1.25
 11
-0.0
 21
1.25
  0
LINE
  5
23B
100
AcDbEntity
  8
0
100
AcDbLine
 62
2
  6
CONTINUOUS
 10
6.8
 20
0.0
 11
6.8
 21
1.25
  0
LINE
  5
23C
100
AcDbEntity
  8
0
100
AcDbLine
 62
2
  6
CONTINUOUS
 10
6.4
 20
0.0
 11
6.4
 21
0.625
  0
LINE
  5
23D
100
AcDbEntity
  8
0
100
AcDbLine
 62
2
  6
CONTINUOUS
 10
5.9
 20
0.0
 11
5.9
 21
0.625
  0
LINE
  5
23E
100
AcDbEntity
  8
0
100
AcDbLine
 62
2
  6
CONTINUOUS
 10
5.2
 20
0.0
 11
5.2
 21
0.625
  0
LINE
  5
23F
100
AcDbEntity
  8
0
100
AcDbLine
 62
2
  6
CONTINUOUS
 10
4.1
 20
0.0
 11
4.1
 21
1.25
  0
LINE
  5
240
100
AcDbEntity
  8
0
100
AcDbLine
 62
2
  6
CONTINUOUS
 10
-0.0
 20
0.0
 11
-0.0
 21
1.25
  0
MTEXT
  5
241
100
AcDbEntity
  8
0
100
AcDbMText
 62
2
  6
CONTINUOUS
  7
STANDARD
 71
2
 72
1
 10
6.6
 20
0.325
 30
0.0
 11
1.0
 21
0.0
 31
0.0
 44
0.9
  1
2
 40
0.125
 41
0.2
  0
MTEXT
  5
242
100
AcDbEntity
  8
0
100
AcDbMText
 62
2
  6
CONTINUOUS
  7
STANDARD
 71
2
 72
1
 10
6.15
 20
0.325
 30
0.0
 11
1.0
 21
0.0
 31
0.0
 44
0.9
  1
C
 40
0.125
 41
0.2
  0
MTEXT
  5
243
100
AcDbEntity
  8
0
100
AcDbMText
 62
2
  6
CONTINUOUS
  7
STANDARD
 71
2
 72
1
 10
5.55
 20
0.325
 30
0.0
 11
1.0
 21
0.0
 31
0.0
 44
0.9
  1
1.000
 40
0.125
 41
1.0
  0
MTEXT
  5
244
100
AcDbEntity
  8
0
100
AcDbMText
 62
2
  6
CONTINUOUS
  7
STANDARD
 71
2
 72
1
 10
4.65
 20
0.325
 30
0.0
 11
1.0
 21
0.0
 31
0.0
 44
0.9
  1
Sep-19-19
 40
0.125
 41
1.8
  0
MTEXT
  5
245
100
AcDbEntity
  8
0
100
AcDbMText
 62
2
  6
CONTINUOUS
  7
STANDARD
 71
2
 72
1
 10
2.05
 20
0.4625
 30
0.0
 11
1.0
 21
0.0
 31
0.0
 44
0.9
  1
T-11A Line mount\P(See Notes for Body Features)
 40
0.125
 41
5.8
  0
MTEXT
  5
246
100
AcDbEntity
  8
0
100
AcDbMText
 62
2
  6
CONTINUOUS
  7
STANDARD
 71
1
 72
1
 10
6.45
 20
0.5625
 30
0.0
 11
1.0
 21
0.0
 31
0.0
 44
0.9
  1
SHEET
 40
0.06
 41
0.48
  0
MTEXT
  5
247
100
AcDbEntity
  8
0
100
AcDbMText
 62
2
  6
CONTINUOUS
  7
STANDARD
 71
1
 72
1
 10
5.95
 20
0.5625
 30
0.0
 11
1.0
 21
0.0
 31
0.0
 44
0.9
  1
DWG SIZE
 40
0.06
 41
0.768
  0
MTEXT
  5
248
100
AcDbEntity
  8
0
100
AcDbMText
 62
2
  6
CONTINUOUS
  7
STANDARD
 71
1
 72
1
 10
5.25
 20
0.5625
 30
0.0
 11
1.0
 21
0.0
 31
0.0
 44
0.9
  1
SCALE
 40
0.06
 41
0.48
  0
MTEXT
  5
249
100
AcDbEntity
  8
0
100
AcDbMText
 62
2
  6
CONTINUOUS
  7
STANDARD
 71
1
 72
1
 10
4.15
 20
0.5625
 30
0.0
 11
1.0
 21
0.0
 31
0.0
 44
0.9
  1
DATE
 40
0.06
 41
0.384
  0
MTEXT
  5
24A
100
AcDbEntity
  8
0
100
AcDbMText
 62
2
  6
CONTINUOUS
  7
STANDARD
 71
1
 72
1
 10
0.05
 20
0.5625
 30
0.0
 11
1.0
 21
0.0
 31
0.0
 44
0.9
  1
DESCRIPTION
 40
0.06
 41
1.056
  0
MTEXT
  5
24B
100
AcDbEntity
  8
0
100
AcDbMText
 62
2
  6
CONTINUOUS
  7
STANDARD
 71
2
 72
1
 10
5.45
 20
1.0375
 30
0.0
 11
1.0
 21
0.0
 31
0.0
 44
0.9
  1
ALL DIMENSIONS IN INCH\PVIEWS ARE THIRD ANGLE
 40
0.12
 41
4.224
  0
MTEXT
  5
24C
100
AcDbEntity
  8
0
100
AcDbMText
 62
2
  6
CONTINUOUS
  7
STANDARD
 71
2
 72
1
 10
2.05
 20
0.95
 30
0.0
 11
1.0
 21
0.0
 31
0.0
 44
0.9
  1
A7A
 40
0.125
 41
0.6
  0
MTEXT
  5
24D
100
AcDbEntity
  8
0
100
AcDbMText
 62
2
  6
CONTINUOUS
  7
STANDARD
 71
1
 72
1
 10
0.05
 20
1.1875
 30
0.0
 11
1.0
 21
0.0
 31
0.0
 44
0.9
  1
MODEL
 40
0.06
 41
0.48
  0
ENDBLK
  5
24E
100
AcDbEntity
  8
0
  6
BYBLOCK
 62
0
100
AcDbBlockEnd
  0
BLOCK
  5
24F
100
AcDbEntity
  8
0
100
AcDbBlockBegin
  2
*T2
 70
1
 10
0.0
 20
0.0
  3
*T2
  1

  0
LINE
  5
250
100
AcDbEntity
  8
0
100
AcDbLine
 62
2
  6
CONTINUOUS
 10
0.0
 20
0.0
 11
9.055
 21
0.0
  0
LINE
  5
251
100
AcDbEntity
  8
0
100
AcDbLine
 62
2
  6
CONTINUOUS
 10
0.0
 20
0.0
 11
0.0
 21
-2.594
  0
LINE
  5
252
100
AcDbEntity
  8
0
100
AcDbLine
 62
2
  6
CONTINUOUS
 10
0.0
 20
-0.344
 11
9.055
 21
-0.344
  0
LINE
  5
253
100
AcDbEntity
  8
0
100
AcDbLine
 62
2
  6
CONTINUOUS
 10
0.0
 20
-0.594
 11
9.055
 21
-0.594
  0
LINE
  5
254
100
AcDbEntity
  8
0
100
AcDbLine
 62
2
  6
CONTINUOUS
 10
0.0
 20
-0.844
 11
9.055
 21
-0.844
  0
LINE
  5
255
100
AcDbEntity
  8
0
100
AcDbLine
 62
2
  6
CONTINUOUS
 10
0.0
 20
-1.094
 11
9.055
 21
-1.094
  0
LINE
  5
256
100
AcDbEntity
  8
0
100
AcDbLine
 62
2
  6
CONTINUOUS
 10
0.0
 20
-1.344
 11
9.055
 21
-1.344
  0
LINE
  5
257
100
AcDbEntity
  8
0
100
AcDbLine
 62
2
  6
CONTINUOUS
 10
0.0
 20
-1.594
 11
9.055
 21
-1.594
  0
LINE
  5
258
100
AcDbEntity
  8
0
100
AcDbLine
 62
2
  6
CONTINUOUS
 10
0.0
 20
-1.844
 11
9.055
 21
-1.844
  0
LINE
  5
259
100
AcDbEntity
  8
0
100
AcDbLine
 62
2
  6
CONTINUOUS
 10
0.0
 20
-2.094
 11
9.055
 21
-2.094
  0
LINE
  5
25A
100
AcDbEntity
  8
0
100
AcDbLine
 62
2
  6
CONTINUOUS
 10
0.0
 20
-2.344
 11
9.055
 21
-2.344
  0
LINE
  5
25B
100
AcDbEntity
  8
0
100
AcDbLine
 62
2
  6
CONTINUOUS
 10
0.0
 20
-2.594
 11
9.055
 21
-2.594
  0
LINE
  5
25C
100
AcDbEntity
  8
0
100
AcDbLine
 62
2
  6
CONTINUOUS
 10
3.055
 20
0.0
 11
3.055
 21
-2.594
  0
LINE
  5
25D
100
AcDbEntity
  8
0
100
AcDbLine
 62
2
  6
CONTINUOUS
 10
9.055
 20
0.0
 11
9.055
 21
-2.594
  0
MTEXT
  5
25E
100
AcDbEntity
  8
0
100
AcDbMText
 62
2
  6
CONTINUOUS
  7
STANDARD
 71
2
 72
1
 10
1.5275
 20
-0.0995
 30
0.0
 11
1.0
 21
0.0
 31
0.0
 44
0.9
  1
Technical Data
 40
0.145
 41
3.248
  0
MTEXT
  5
25F
100
AcDbEntity
  8
0
100
AcDbMText
 62
2
  6
CONTINUOUS
  7
STANDARD
 71
2
 72
1
 10
4.555
 20
-0.0995
 30
0.0
 11
1.0
 21
0.0
 31
0.0
 44
0.9
  1
U.S. Units
 40
0.145
 41
2.32
  0
MTEXT
  5
260
100
AcDbEntity
  8
0
100
AcDbMText
 62
2
  6
CONTINUOUS
  7
STANDARD
 71
2
 72
1
 10
7.555
 20
-0.0995
 30
0.0
 11
1.0
 21
0.0
 31
0.0
 44
0.9
  1
Metric Units
 40
0.145
 41
2.784
  0
MTEXT
  5
261
100
AcDbEntity
  8
0
100
AcDbMText
 62
2
  6
CONTINUOUS
  7
STANDARD
 71
2
 72
1
 10
1.5275
 20
-0.4065
 30
0.0
 11
1.0
 21
0.0
 31
0.0
 44
0.9
  1
Cavity
 40
0.125
 41
1.2
  0
MTEXT
  5
262
100
AcDbEntity
  8
0
100
AcDbMText
 62
2
  6
CONTINUOUS
  7
STANDARD
 71
2
 72
1
 10
6.055
 20
-0.4065
 30
0.0
 11
1.0
 21
0.0
 31
0.0
 44
0.9
  1
T-11A
 40
0.125
 41
1.0
  0
MTEXT
  5
263
100
AcDbEntity
  8
0
100
AcDbMText
 62
2
  6
CONTINUOUS
  7
STANDARD
 71
2
 72
1
 10
1.5275
 20
-0.6565
 30
0.0
 11
1.0
 21
0.0
 31
0.0
 44
0.9
  1
Body Features
 40
0.125
 41
2.6
  0
MTEXT
  5
264
100
AcDbEntity
  8
0
100
AcDbMText
 62
2
  6
CONTINUOUS
  7
STANDARD
 71
2
 72
1
 10
6.055
 20
-0.6565
 30
0.0
 11
1.0
 21
0.0
 31
0.0
 44
0.9
  1
(See Notes)
 40
0.125
 41
2.2
  0
MTEXT
  5
265
100
AcDbEntity
  8
0
100
AcDbMText
 62
2
  6
CONTINUOUS
  7
STANDARD
 71
2
 72
1
 10
1.5275
 20
-0.9065
 30
0.0
 11
1.0
 21
0.0
 31
0.0
 44
0.9
  1
Body Type
 40
0.125
 41
1.8
  0
MTEXT
  5
266
100
AcDbEntity
  8
0
100
AcDbMText
 62
2
  6
CONTINUOUS
  7
STANDARD
 71
2
 72
1
 10
6.055
 20
-0.9065
 30
0.0
 11
1.0
 21
0.0
 31
0.0
 44
0.9
  1
Line mount
 40
0.125
 41
2.0
  0
MTEXT
  5
267
100
AcDbEntity
  8
0
100
AcDbMText
 62
2
  6
CONTINUOUS
  7
STANDARD
 71
2
 72
1
 10
1.5275
 20
-1.1565
 30
0.0
 11
1.0
 21
0.0
 31
0.0
 44
0.9
  1
Interface
 40
0.125
 41
1.8
  0
MTEXT
  5
268
100
AcDbEntity
  8
0
100
AcDbMText
 62
2
  6
CONTINUOUS
  7
STANDARD
 71
2
 72
1
 10
6.055
 20
-1.1565
 30
0.0
 11
1.0
 21
0.0
 31
0.0
 44
0.9
  1
None
 40
0.125
 41
0.8
  0
MTEXT
  5
269
100
AcDbEntity
  8
0
100
AcDbMText
 62
2
  6
CONTINUOUS
  7
STANDARD
 71
2
 72
1
 10
1.5275
 20
-1.4065
 30
0.0
 11
1.0
 21
0.0
 31
0.0
 44
0.9
  1
Open Cavity Quantity
 40
0.125
 41
4.0
  0
MTEXT
  5
26A
100
AcDbEntity
  8
0
100
AcDbMText
 62
2
  6
CONTINUOUS
  7
STANDARD
 71
2
 72
1
 10
6.055
 20
-1.4065
 30
0.0
 11
1.0
 21
0.0
 31
0.0
 44
0.9
  1
1
 40
0.125
 41
0.2
  0
MTEXT
  5
26B
100
AcDbEntity
  8
0
100
AcDbMText
 62
2
  6
CONTINUOUS
  7
STANDARD
 71
2
 72
1
 10
1.5275
 20
-1.6565
 30
0.0
 11
1.0
 21
0.0
 31
0.0
 44
0.9
  1
Weight
 40
0.125
 41
1.2
  0
MTEXT
  5
26C
100
AcDbEntity
  8
0
100
AcDbMText
 62
2
  6
CONTINUOUS
  7
STANDARD
 71
2
 72
1
 10
4.555
 20
-1.6565
 30
0.0
 11
1.0
 21
0.0
 31
0.0
 44
0.9
  1
2.044 lb.
 40
0.125
 41
1.8
  0
MTEXT
  5
26D
100
AcDbEntity
  8
0
100
AcDbMText
 62
2
  6
CONTINUOUS
  7
STANDARD
 71
2
 72
1
 10
7.555
 20
-1.6565
 30
0.0
 11
1.0
 21
0.0
 31
0.0
 44
0.9
  1
0,927 kg.
 40
0.125
 41
1.8
  0
MTEXT
  5
26E
100
AcDbEntity
  8
0
100
AcDbMText
 62
2
  6
CONTINUOUS
  7
STANDARD
 71
2
 72
1
 10
1.5275
 20
-1.9065
 30
0.0
 11
1.0
 21
0.0
 31
0.0
 44
0.9
  1
Mounting Hole Diameter
 40
0.125
 41
4.4
  0
MTEXT
  5
26F
100
AcDbEntity
  8
0
100
AcDbMText
 62
2
  6
CONTINUOUS
  7
STANDARD
 71
2
 72
1
 10
4.555
 20
-1.9065
 30
0.0
 11
1.0
 21
0.0
 31
0.0
 44
0.9
  1
.34 in.
 40
0.125
 41
1.4
  0
MTEXT
  5
270
100
AcDbEntity
  8
0
100
AcDbMText
 62
2
  6
CONTINUOUS
  7
STANDARD
 71
2
 72
1
 10
7.555
 20
-1.9065
 30
0.0
 11
1.0
 21
0.0
 31
0.0
 44
0.9
  1
8.6 mm
 40
0.125
 41
1.2
  0
MTEXT
  5
271
100
AcDbEntity
  8
0
100
AcDbMText
 62
2
  6
CONTINUOUS
  7
STANDARD
 71
2
 72
1
 10
1.5275
 20
-2.1565
 30
0.0
 11
1.0
 21
0.0
 31
0.0
 44
0.9
  1
Mounting Hole Depth
 40
0.125
 41
3.8
  0
MTEXT
  5
272
100
AcDbEntity
  8
0
100
AcDbMText
 62
2
  6
CONTINUOUS
  7
STANDARD
 71
2
 72
1
 10
6.055
 20
-2.1565
 30
0.0
 11
1.0
 21
0.0
 31
0.0
 44
0.9
  1
Through
 40
0.125
 41
1.4
  0
MTEXT
  5
273
100
AcDbEntity
  8
0
100
AcDbMText
 62
2
  6
CONTINUOUS
  7
STANDARD
 71
2
 72
1
 10
1.5275
 20
-2.4065
 30
0.0
 11
1.0
 21
0.0
 31
0.0
 44
0.9
  1
Mounting Hole Quantity
 40
0.125
 41
4.4
  0
MTEXT
  5
274
100
AcDbEntity
  8
0
100
AcDbMText
 62
2
  6
CONTINUOUS
  7
STANDARD
 71
2
 72
1
 10
6.055
 20
-2.4065
 30
0.0
 11
1.0
 21
0.0
 31
0.0
 44
0.9
  1
2
 40
0.125
 41
0.2
  0
ENDBLK
  5
275
100
AcDbEntity
  8
0
  6
BYBLOCK
 62
0
100
AcDbBlockEnd
  0
BLOCK
  5
276
100
AcDbEntity
  8
0
100
AcDbBlockBegin
  2
*T3
 70
1
 10
0.0
 20
0.0
  3
*T3
  1

  0
LINE
  5
277
100
AcDbEntity
  8
0
100
AcDbLine
 62
2
  6
CONTINUOUS
 10
0.0
 20
0.0
 11
4.6
 21
0.0
  0
LINE
  5
278
100
AcDbEntity
  8
0
100
AcDbLine
 62
2
  6
CONTINUOUS
 10
0.0
 20
0.0
 11
0.0
 21
-0.93775
  0
LINE
  5
279
100
AcDbEntity
  8
0
100
AcDbLine
 62
2
  6
CONTINUOUS
 10
0.0
 20
-0.34375
 11
4.6
 21
-0.34375
  0
LINE
  5
27A
100
AcDbEntity
  8
0
100
AcDbLine
 62
2
  6
CONTINUOUS
 10
0.0
 20
-0.68775
 11
4.6
 21
-0.68775
  0
LINE
  5
27B
100
AcDbEntity
  8
0
100
AcDbLine
 62
2
  6
CONTINUOUS
 10
0.0
 20
-0.93775
 11
4.6
 21
-0.93775
  0
LINE
  5
27C
100
AcDbEntity
  8
0
100
AcDbLine
 62
2
  6
CONTINUOUS
 10
1.3
 20
-0.34375
 11
1.3
 21
-0.93775
  0
LINE
  5
27D
100
AcDbEntity
  8
0
100
AcDbLine
 62
2
  6
CONTINUOUS
 10
3.3
 20
-0.34375
 11
3.3
 21
-0.93775
  0
LINE
  5
27E
100
AcDbEntity
  8
0
100
AcDbLine
 62
2
  6
CONTINUOUS
 10
4.6
 20
0.0
 11
4.6
 21
-0.93775
  0
MTEXT
  5
27F
100
AcDbEntity
  8
0
100
AcDbMText
 62
2
  6
CONTINUOUS
  7
STANDARD
 71
2
 72
1
 10
2.3
 20
-0.099375
 30
0.0
 11
1.0
 21
0.0
 31
0.0
 44
0.9
  1
Port Headings
 40
0.145
 41
3.016
  0
MTEXT
  5
280
100
AcDbEntity
  8
0
100
AcDbMText
 62
2
  6
CONTINUOUS
  7
STANDARD
 71
2
 72
1
 10
0.65
 20
-0.44325
 30
0.0
 11
1.0
 21
0.0
 31
0.0
 44
0.9
  1
Product
 40
0.145
 41
1.624
  0
MTEXT
  5
281
100
AcDbEntity
  8
0
100
AcDbMText
 62
2
  6
CONTINUOUS
  7
STANDARD
 71
2
 72
1
 10
2.3
 20
-0.44325
 30
0.0
 11
1.0
 21
0.0
 31
0.0
 44
0.9
  1
Port
 40
0.145
 41
0.928
  0
MTEXT
  5
282
100
AcDbEntity
  8
0
100
AcDbMText
 62
2
  6
CONTINUOUS
  7
STANDARD
 71
2
 72
1
 10
3.95
 20
-0.44325
 30
0.0
 11
1.0
 21
0.0
 31
0.0
 44
0.9
  1
Size
 40
0.145
 41
0.928
  0
MTEXT
  5
283
100
AcDbEntity
  8
0
100
AcDbMText
 62
2
  6
CONTINUOUS
  7
STANDARD
 71
2
 72
1
 10
0.65
 20
-0.75025
 30
0.0
 11
1.0
 21
0.0
 31
0.0
 44
0.9
  1
A7A
 40
0.125
 41
0.6
  0
MTEXT
  5
284
100
AcDbEntity
  8
0
100
AcDbMText
 62
2
  6
CONTINUOUS
  7
STANDARD
 71
2
 72
1
 10
2.3
 20
-0.75025
 30
0.0
 11
1.0
 21
0.0
 31
0.0
 44
0.9
  1
All Ports
 40
0.125
 41
1.8
  0
MTEXT
  5
285
100
AcDbEntity
  8
0
100
AcDbMText
 62
2
  6
CONTINUOUS
  7
STANDARD
 71
2
 72
1
 10
3.95
 20
-0.75025
 30
0.0
 11
1.0
 21
0.0
 31
0.0
 44
0.9
  1
1/4" NPTF
 40
0.125
 41
1.8
  0
ENDBLK
  5
286
100
AcDbEntity
  8
0
  6
BYBLOCK
 62
0
100
AcDbBlockEnd
  0
ENDSEC
  0
SECTION
  2
ENTITIES
  0
IMAGE
  5
287
100
AcDbEntity
  8
0
100
AcDbRasterImage
 62
7
  6
CONTINUOUS
 10
19.2297077316
 20
0.3094318264
 30
0.0
 11
0.0066666667
 21
0.0
 31
0.0
 12
0.0
 22
0.0066666667
 32
0.0
 13
369.0
 23
92.0
340
       3AB
 70
9
280
0
281
50
282
50
283
0
360
       3A5
 71
1
 91
2
 14
-0.5
 24
-0.5
 14
368.5
 24
91.5
  0
INSERT
  5
288
100
AcDbEntity
  8
0
100
AcDbBlockReference
 62
2
  6
CONTINUOUS
  2
SUN_FIRST_THIRD_ANGLE_BL0
 10
20.4816717061
 20
1.2289683772
  0
ACAD_TABLE
  5
289
100
AcDbEntity
  8
0
 62
2
  6
CONTINUOUS
100
AcDbBlockReference
  2
*T1
 10
12.42375
 20
0.30125
 30
0.0
100
AcDbTable
342
       3AD
343
20F
 11
1.0
 21
0.0
 31
0.0
 90
6
 91
4
 92
6
 93
20
 94
0
 95
0
 96
0
 70
1
 41
0.0
141
0.525
141
0.1
141
0.525
141
0.1
142
4.1
142
1.1
142
0.7
142
0.5
142
0.4
142
2.475
171
1
172
0
173
0
174
0
175
1
176
1
 91
33
178
0
145
0.0
301
CELL_VALUE
 90
4
  1
T-11A Line mount\P(See Notes for Body Features)
304
ACVALUE_END
170
2
140
0.125
171
1
172
0
173
0
174
0
175
1
176
1
 91
33
178
0
145
0.0
301
CELL_VALUE
 90
4
  1
Sep-19-19
304
ACVALUE_END
170
5
140
0.125
171
1
172
0
173
0
174
0
175
1
176
1
 91
33
178
0
145
0.0
301
CELL_VALUE
 90
4
  1
1.000
304
ACVALUE_END
170
5
140
0.125
171
1
172
0
173
0
174
0
175
1
176
1
 91
33
178
0
145
0.0
301
CELL_VALUE
 90
4
  1
C
304
ACVALUE_END
170
5
140
0.125
171
1
172
0
173
0
174
0
175
1
176
1
 91
33
178
0
145
0.0
301
CELL_VALUE
 90
4
  1
2
304
ACVALUE_END
170
5
140
0.125
171
1
172
0
173
0
174
0
175
1
176
1
 91
33
178
0
145
0.0
301
CELL_VALUE
 90
4
  1
 
304
ACVALUE_END
170
1
140
0.125
171
1
172
0
173
0
174
0
175
1
176
1
 91
33
178
0
145
0.0
301
CELL_VALUE
 90
4
  1
DESCRIPTION
304
ACVALUE_END
170
1
140
0.06
171
1
172
0
173
0
174
0
175
1
176
1
 91
33
178
0
145
0.0
301
CELL_VALUE
 90
4
  1
DATE
304
ACVALUE_END
170
1
140
0.06
171
1
172
0
173
0
174
0
175
1
176
1
 91
33
178
0
145
0.0
301
CELL_VALUE
 90
4
  1
SCALE
304
ACVALUE_END
170
1
140
0.06
171
1
172
0
173
0
174
0
175
1
176
1
 91
33
178
0
145
0.0
301
CELL_VALUE
 90
4
  1
DWG SIZE
304
ACVALUE_END
170
1
140
0.06
171
1
172
0
173
0
174
0
175
1
176
1
 91
33
178
0
145
0.0
301
CELL_VALUE
 90
4
  1
SHEET
304
ACVALUE_END
170
1
140
0.06
171
1
172
0
173
0
174
0
175
1
176
1
 91
33
178
0
145
0.0
301
CELL_VALUE
 90
4
  1
 
304
ACVALUE_END
170
1
140
0.125
171
1
172
0
173
0
174
0
175
1
176
1
 91
33
178
0
145
0.0
301
CELL_VALUE
 90
4
  1
A7A
304
ACVALUE_END
170
5
140
0.125
171
1
172
0
173
0
174
0
175
4
176
1
 91
33
178
0
145
0.0
301
CELL_VALUE
 90
4
  1
ALL DIMENSIONS IN INCH\PVIEWS ARE THIRD ANGLE
304
ACVALUE_END
170
5
140
0.12
171
1
172
0
173
1
174
0
175
1
176
1
 91
1
178
0
145
0.0
170
1
171
1
172
0
173
1
174
0
175
1
176
1
 91
1
178
0
145
0.0
170
1
171
1
172
0
173
1
174
0
175
1
176
1
 91
1
178
0
145
0.0
170
5
171
1
172
0
173
0
174
0
175
1
176
1
 91
33
178
0
145
0.0
301
CELL_VALUE
 90
4
  1
 
304
ACVALUE_END
170
1
140
0.125
171
1
172
0
173
0
174
0
175
1
176
1
 91
33
178
0
145
0.0
301
CELL_VALUE
 90
4
  1
MODEL
304
ACVALUE_END
170
1
140
0.06
171
1
172
0
173
0
174
0
175
1
176
1
 91
33
178
0
145
0.0
301
CELL_VALUE
 90
4
  1
 
304
ACVALUE_END
170
1
140
0.125
171
1
172
0
173
0
174
0
175
1
176
1
 91
33
178
0
145
0.0
301
CELL_VALUE
 90
4
  1
 
304
ACVALUE_END
170
1
140
0.125
171
1
172
0
173
0
174
0
175
1
176
1
 91
33
178
0
145
0.0
301
CELL_VALUE
 90
4
  1
 
304
ACVALUE_END
170
1
140
0.125
171
1
172
0
173
0
174
0
175
1
176
1
 91
33
178
0
145
0.0
301
CELL_VALUE
 90
4
  1
 
304
ACVALUE_END
170
1
140
0.125
171
1
172
0
173
0
174
0
175
1
176
1
 91
33
178
0
145
0.0
301
CELL_VALUE
 90
4
  1
 
304
ACVALUE_END
170
1
140
0.125
  0
ACAD_TABLE
  5
28A
100
AcDbEntity
  8
0
 62
2
  6
CONTINUOUS
100
AcDbBlockReference
  2
*T2
 10
12.4237499994
 20
16.47875
 30
0.0
100
AcDbTable
342
       3AC
343
210
 11
1.0
 21
0.0
 31
0.0
 90
22
 91
10
 92
3
 93
16
 94
0
 95
0
 96
0
 41
0.028
141
0.344
141
0.25
141
0.25
141
0.25
141
0.25
141
0.25
141
0.25
141
0.25
141
0.25
141
0.25
142
3.055
142
3.0
142
3.0
171
1
172
0
173
0
174
0
175
1
176
1
 91
33
178
0
145
0.0
301
CELL_VALUE
 90
4
  1
Technical Data
304
ACVALUE_END
170
5
140
0.145
171
1
172
0
173
0
174
0
175
1
176
1
 91
33
178
0
145
0.0
301
CELL_VALUE
 90
4
  1
U.S. Units
304
ACVALUE_END
170
5
140
0.145
171
1
172
0
173
0
174
0
175
1
176
1
 91
33
178
0
145
0.0
301
CELL_VALUE
 90
4
  1
Metric Units
304
ACVALUE_END
170
5
140
0.145
171
1
172
0
173
0
174
0
175
1
176
1
 91
33
178
0
145
0.0
301
CELL_VALUE
 90
4
  1
Cavity
304
ACVALUE_END
170
5
140
0.125
171
1
172
0
173
0
174
0
175
2
176
1
 91
33
178
0
145
0.0
301
CELL_VALUE
 90
4
  1
T-11A
304
ACVALUE_END
170
5
140
0.125
171
1
172
0
173
1
174
0
175
1
176
1
 91
1
178
0
145
0.0
170
1
171
1
172
0
173
0
174
0
175
1
176
1
 91
33
178
0
145
0.0
301
CELL_VALUE
 90
4
  1
Body Features
304
ACVALUE_END
170
5
140
0.125
171
1
172
0
173
0
174
0
175
2
176
1
 91
33
178
0
145
0.0
301
CELL_VALUE
 90
4
  1
(See Notes)
304
ACVALUE_END
170
5
140
0.125
171
1
172
0
173
1
174
0
175
1
176
1
 91
1
178
0
145
0.0
170
1
171
1
172
0
173
0
174
0
175
1
176
1
 91
33
178
0
145
0.0
301
CELL_VALUE
 90
4
  1
Body Type
304
ACVALUE_END
170
5
140
0.125
171
1
172
0
173
0
174
0
175
2
176
1
 91
33
178
0
145
0.0
301
CELL_VALUE
 90
4
  1
Line mount
304
ACVALUE_END
170
5
140
0.125
171
1
172
0
173
1
174
0
175
1
176
1
 91
1
178
0
145
0.0
170
1
171
1
172
0
173
0
174
0
175
1
176
1
 91
33
178
0
145
0.0
301
CELL_VALUE
 90
4
  1
Interface
304
ACVALUE_END
170
5
140
0.125
171
1
172
0
173
0
174
0
175
2
176
1
 91
33
178
0
145
0.0
301
CELL_VALUE
 90
4
  1
None
304
ACVALUE_END
170
5
140
0.125
171
1
172
0
173
1
174
0
175
1
176
1
 91
1
178
0
145
0.0
170
1
171
1
172
0
173
0
174
0
175
1
176
1
 91
33
178
0
145
0.0
301
CELL_VALUE
 90
4
  1
Open Cavity Quantity
304
ACVALUE_END
170
5
140
0.125
171
1
172
0
173
0
174
0
175
2
176
1
 91
33
178
0
145
0.0
301
CELL_VALUE
 90
4
  1
1
304
ACVALUE_END
170
5
140
0.125
171
1
172
0
173
1
174
0
175
1
176
1
 91
1
178
0
145
0.0
170
1
171
1
172
0
173
0
174
0
175
1
176
1
 91
33
178
0
145
0.0
301
CELL_VALUE
 90
4
  1
Weight
304
ACVALUE_END
170
5
140
0.125
171
1
172
0
173
0
174
0
175
1
176
1
 91
33
178
0
145
0.0
301
CELL_VALUE
 90
4
  1
2.044 lb.
304
ACVALUE_END
170
5
140
0.125
171
1
172
0
173
0
174
0
175
1
176
1
 91
33
178
0
145
0.0
301
CELL_VALUE
 90
4
  1
0,927 kg.
304
ACVALUE_END
170
5
140
0.125
171
1
172
0
173
0
174
0
175
1
176
1
 91
33
178
0
145
0.0
301
CELL_VALUE
 90
4
  1
Mounting Hole Diameter
304
ACVALUE_END
170
5
140
0.125
171
1
172
0
173
0
174
0
175
1
176
1
 91
33
178
0
145
0.0
301
CELL_VALUE
 90
4
  1
.34 in.
304
ACVALUE_END
170
5
140
0.125
171
1
172
0
173
0
174
0
175
1
176
1
 91
33
178
0
145
0.0
301
CELL_VALUE
 90
4
  1
8.6 mm
304
ACVALUE_END
170
5
140
0.125
171
1
172
0
173
0
174
0
175
1
176
1
 91
33
178
0
145
0.0
301
CELL_VALUE
 90
4
  1
Mounting Hole Depth
304
ACVALUE_END
170
5
140
0.125
171
1
172
0
173
0
174
0
175
2
176
1
 91
33
178
0
145
0.0
301
CELL_VALUE
 90
4
  1
Through
304
ACVALUE_END
170
5
140
0.125
171
1
172
0
173
1
174
0
175
1
176
1
 91
1
178
0
145
0.0
170
1
171
1
172
0
173
0
174
0
175
1
176
1
 91
33
178
0
145
0.0
301
CELL_VALUE
 90
4
  1
Mounting Hole Quantity
304
ACVALUE_END
170
5
140
0.125
171
1
172
0
173
0
174
0
175
2
176
1
 91
33
178
0
145
0.0
301
CELL_VALUE
 90
4
  1
2
304
ACVALUE_END
170
5
140
0.125
171
1
172
0
173
1
174
0
175
1
176
1
 91
1
178
0
145
0.0
170
1
  0
ACAD_TABLE
  5
28B
100
AcDbEntity
  8
0
 62
2
  6
CONTINUOUS
100
AcDbBlockReference
  2
*T3
 10
0.52125
 20
1.459
 30
0.0
100
AcDbTable
342
       3AC
343
211
 11
1.0
 21
0.0
 31
0.0
 90
22
 91
3
 92
3
 93
16
 94
0
 95
0
 96
0
 41
0.05
141
0.34375
141
0.344
141
0.25
142
1.3
142
2.0
142
1.3
171
1
172
0
173
0
174
0
175
3
176
1
 91
33
178
0
145
0.0
301
CELL_VALUE
 90
4
  1
Port Headings
304
ACVALUE_END
170
5
140
0.145
171
1
172
0
173
1
174
0
175
1
176
1
 91
1
178
0
145
0.0
170
1
171
1
172
0
173
1
174
0
175
1
176
1
 91
1
178
0
145
0.0
170
1
171
1
172
0
173
0
174
0
175
1
176
1
 91
33
178
0
145
0.0
301
CELL_VALUE
 90
4
  1
Product
304
ACVALUE_END
170
5
140
0.145
171
1
172
0
173
0
174
0
175
1
176
1
 91
33
178
0
145
0.0
301
CELL_VALUE
 90
4
  1
Port
304
ACVALUE_END
170
5
140
0.145
171
1
172
0
173
0
174
0
175
1
176
1
 91
33
178
0
145
0.0
301
CELL_VALUE
 90
4
  1
Size
304
ACVALUE_END
170
5
140
0.145
171
1
172
0
173
0
174
0
175
1
176
1
 91
33
178
0
145
0.0
301
CELL_VALUE
 90
4
  1
A7A
304
ACVALUE_END
170
5
140
0.125
171
1
172
0
173
0
174
0
175
1
176
1
 91
33
178
0
145
0.0
301
CELL_VALUE
 90
4
  1
All Ports
304
ACVALUE_END
170
5
140
0.125
171
1
172
0
173
0
174
0
175
1
176
1
 91
33
178
0
145
0.0
301
CELL_VALUE
 90
4
  1
1/4" NPTF
304
ACVALUE_END
170
5
140
0.125
  0
MTEXT
  5
28C
100
AcDbEntity
  8
0
100
AcDbMText
 62
2
  6
CONTINUOUS
  7
STANDARD
 71
1
 72
1
 10
0.52125
 20
5.75995
 30
0.0
 11
1.0
 21
0.0
 31
0.0
 44
0.6
  3
Notes\P \P1. Important: Carefully consider\P   the maximum system pressure. The\P   pressure rating of the manifold is\P   dependent on the manifold material,\P   with the port type/size a secondary\P   consideration. Manifolds\P   constructed of alu
  1
minum are not\P   rated for pressures higher than\P   3000 psi (210 bar), regardless of\P   the port type/size specified.\P2. Body Features: Ninety degree\P   with reverse flow check, accepts\P   standard and weatherized coils.
 40
0.1
 41
3.04
  0
LINE
  5
28D
100
AcDbEntity
  8
0
100
AcDbLine
 62
7
  6
CONTINUOUS
 10
0.30125
 20
0.30125
 11
0.30125
 21
16.69875
  0
LINE
  5
28E
100
AcDbEntity
  8
0
100
AcDbLine
 62
7
  6
CONTINUOUS
 10
0.30125
 20
0.30125
 11
21.69875
 21
0.30125
  0
LINE
  5
28F
100
AcDbEntity
  8
0
100
AcDbLine
 62
7
  6
CONTINUOUS
 10
0.30125
 20
16.69875
 11
21.69875
 21
16.69875
  0
LINE
  5
290
100
AcDbEntity
  8
0
100
AcDbLine
 62
7
  6
CONTINUOUS
 10
21.69875
 20
0.30125
 11
21.69875
 21
16.69875
  0
LINE
  5
291
100
AcDbEntity
  8
0
100
AcDbLine
 62
7
  6
CONTINUOUS
 10
9.8099300062
 20
10.7894385006
 11
9.2922923432
 21
10.2894388836
  0
LINE
  5
292
100
AcDbEntity
  8
0
100
AcDbLine
 62
4
  6
CONTINUOUS
 10
9.4468403912
 20
9.694335843
 11
9.4395959472
 21
9.6851789906
  0
LINE
  5
293
100
AcDbEntity
  8
0
100
AcDbLine
 62
4
  6
CONTINUOUS
 10
9.4540848351
 20
9.6358778874
 11
9.4395959472
 21
9.6175641783
  0
LINE
  5
294
100
AcDbEntity
  8
0
100
AcDbLine
 62
7
  6
CONTINUOUS
 10
11.2065145113
 20
6.2782521044
 11
11.2228173394
 21
6.2701988194
  0
LINE
  5
295
100
AcDbEntity
  8
0
100
AcDbLine
 62
7
  6
CONTINUOUS
 10
9.2922923432
 20
6.7879575558
 11
9.2922923432
 21
10.2894388836
  0
LINE
  5
296
100
AcDbEntity
  8
0
100
AcDbLine
 62
4
  6
CONTINUOUS
 10
9.3961292834
 20
9.7171711899
 11
9.4106181713
 21
9.7258256384
  0
LINE
  5
297
100
AcDbEntity
  8
0
100
AcDbLine
 62
4
  6
CONTINUOUS
 10
9.4395959472
 20
9.6851789906
 11
9.4251070593
 21
9.6765245352
  0
LINE
  5
298
100
AcDbEntity
  8
0
100
AcDbLine
 62
4
  6
CONTINUOUS
 10
9.4395959472
 20
9.6175641783
 11
9.4251070593
 21
9.6089097272
  0
LINE
  5
299
100
AcDbEntity
  8
0
100
AcDbLine
 62
7
  6
CONTINUOUS
 10
9.2922923432
 20
6.7879575558
 11
12.1900699938
 21
6.5869959932
  0
LINE
  5
29A
100
AcDbEntity
  8
0
100
AcDbLine
 62
4
  6
CONTINUOUS
 10
11.518751473
 20
6.7301446805
 11
11.4897736971
 21
6.7321542961
  0
LINE
  5
29B
100
AcDbEntity
  8
0
100
AcDbLine
 62
4
  6
CONTINUOUS
 10
11.4100848135
 20
6.7376807389
 11
11.3955959256
 21
6.7386855467
  0
LINE
  5
29C
100
AcDbEntity
  8
0
100
AcDbLine
 62
4
  6
CONTINUOUS
 10
11.1782626066
 20
6.7537576636
 11
11.1637737187
 21
6.7547624714
  0
LINE
  5
29D
100
AcDbEntity
  8
0
100
AcDbLine
 62
4
  6
CONTINUOUS
 10
9.4468403912
 20
9.7039950994
 11
9.4468403912
 21
9.694335843
  0
LINE
  5
29E
100
AcDbEntity
  8
0
100
AcDbLine
 62
4
  6
CONTINUOUS
 10
9.4468403912
 20
7.6755506837
 11
9.4468403912
 21
7.5596395802
  0
LINE
  5
29F
100
AcDbEntity
  8
0
100
AcDbLine
 62
4
  6
CONTINUOUS
 10
9.4540848351
 20
9.6455371472
 11
9.4540848351
 21
9.6358778874
  0
LINE
  5
2A0
100
AcDbEntity
  8
0
100
AcDbLine
 62
4
  6
CONTINUOUS
 10
11.1637737187
 20
6.8706735748
 11
11.1782626066
 21
6.869668767
  0
LINE
  5
2A1
100
AcDbEntity
  8
0
100
AcDbLine
 62
4
  6
CONTINUOUS
 10
11.3955959256
 20
6.8545966502
 11
11.4100848135
 21
6.8535918424
  0
LINE
  5
2A2
100
AcDbEntity
  8
0
100
AcDbLine
 62
4
  6
CONTINUOUS
 10
11.4897736971
 20
6.8480653995
 11
11.518751473
 21
6.8460557839
  0
LINE
  5
2A3
100
AcDbEntity
  8
0
100
AcDbLine
 62
4
  6
CONTINUOUS
 10
11.1637737187
 20
6.7547624714
 11
11.1492848308
 21
6.7654265381
  0
LINE
  5
2A4
100
AcDbEntity
  8
0
100
AcDbLine
 62
7
  6
CONTINUOUS
 10
11.1796621762
 20
10.3067234889
 11
11.178497032
 21
10.3056191093
  0
LINE
  5
2A5
100
AcDbEntity
  8
0
100
AcDbLine
 62
4
  6
CONTINUOUS
 10
10.1988828033
 20
9.4227782972
 11
10.2154415331
 21
9.4381886734
  0
LINE
  5
2A6
100
AcDbEntity
  8
0
100
AcDbLine
 62
4
  6
CONTINUOUS
 10
10.2402796269
 20
9.3205550424
 11
10.256838355
 21
9.3359654205
  0
LINE
  5
2A7
100
AcDbEntity
  8
0
100
AcDbLine
 62
4
  6
CONTINUOUS
 10
11.1782626066
 20
6.869668767
 11
11.1927514946
 21
6.8590047029
  0
LINE
  5
2A8
100
AcDbEntity
  8
0
100
AcDbLine
 62
4
  6
CONTINUOUS
 10
11.3955959256
 20
6.7386855467
 11
11.3811070376
 21
6.7493496134
  0
LINE
  5
2A9
100
AcDbEntity
  8
0
100
AcDbLine
 62
4
  6
CONTINUOUS
 10
10.3313526417
 20
9.3142391073
 11
10.3479113629
 21
9.3296494859
  0
LINE
  5
2AA
100
AcDbEntity
  8
0
100
AcDbLine
 62
4
  6
CONTINUOUS
 10
11.4100848135
 20
6.8535918424
 11
11.4245737014
 21
6.8429277783
  0
LINE
  5
2AB
100
AcDbEntity
  8
0
100
AcDbLine
 62
4
  6
CONTINUOUS
 10
11.518751473
 20
6.8460557839
 11
11.5332403609
 21
6.8353917198
  0
LINE
  5
2AC
100
AcDbEntity
  8
0
100
AcDbLine
 62
4
  6
CONTINUOUS
 10
10.1978479508
 20
10.1252162606
 11
10.1978479508
 21
10.0093051572
  0
LINE
  5
2AD
100
AcDbEntity
  8
0
100
AcDbLine
 62
4
  6
CONTINUOUS
 10
10.1988828033
 20
9.4062195691
 11
10.1988828033
 21
9.4227782972
  0
LINE
  5
2AE
100
AcDbEntity
  8
0
100
AcDbLine
 62
4
  6
CONTINUOUS
 10
10.256838355
 20
9.3359654205
 11
10.256838355
 21
9.3525241503
  0
LINE
  5
2AF
100
AcDbEntity
  8
0
100
AcDbLine
 62
4
  6
CONTINUOUS
 10
10.6252701447
 20
9.9796633274
 11
10.6614923645
 21
10.0930624113
  0
LINE
  5
2B0
100
AcDbEntity
  8
0
100
AcDbLine
 62
4
  6
CONTINUOUS
 10
10.7177229911
 20
9.3619585124
 11
10.7342817123
 21
9.3690895287
  0
LINE
  5
2B1
100
AcDbEntity
  8
0
100
AcDbLine
 62
4
  6
CONTINUOUS
 10
10.8750309251
 20
9.3096523499
 11
10.8915896462
 21
9.3167833627
  0
LINE
  5
2B2
100
AcDbEntity
  8
0
100
AcDbLine
 62
4
  6
CONTINUOUS
 10
11.1492848308
 20
6.7654265381
 11
11.1347959428
 21
6.7857498628
  0
LINE
  5
2B3
100
AcDbEntity
  8
0
100
AcDbLine
 62
4
  6
CONTINUOUS
 10
11.1927514946
 20
6.8590047029
 11
11.1999959385
 21
6.8488430358
  0
LINE
  5
2B4
100
AcDbEntity
  8
0
100
AcDbLine
 62
4
  6
CONTINUOUS
 10
10.2899558112
 20
9.4330210907
 11
10.2899558112
 21
9.3336687171
  0
LINE
  5
2B5
100
AcDbEntity
  8
0
100
AcDbLine
 62
4
  6
CONTINUOUS
 10
10.3258330716
 20
8.7234752633
 11
10.3258330716
 21
8.8393863667
  0
LINE
  5
2B6
100
AcDbEntity
  8
0
100
AcDbLine
 62
4
  6
CONTINUOUS
 10
10.3479113629
 20
9.3296494859
 11
10.3479113629
 21
9.4290018595
  0
LINE
  5
2B7
100
AcDbEntity
  8
0
100
AcDbLine
 62
4
  6
CONTINUOUS
 10
10.381028819
 20
9.3107940527
 11
10.381028819
 21
9.4267051562
  0
LINE
  5
2B8
100
AcDbEntity
  8
0
100
AcDbLine
 62
4
  6
CONTINUOUS
 10
10.3837886165
 20
8.818808408
 11
10.3837886165
 21
8.7360147624
  0
LINE
  5
2B9
100
AcDbEntity
  8
0
100
AcDbLine
 62
4
  6
CONTINUOUS
 10
10.4296701576
 20
10.109139336
 11
10.4296701576
 21
9.9932282326
  0
LINE
  5
2BA
100
AcDbEntity
  8
0
100
AcDbLine
 62
4
  6
CONTINUOUS
 10
10.4389843707
 20
9.3067748216
 11
10.4389843707
 21
9.422685925
  0
LINE
  5
2BB
100
AcDbEntity
  8
0
100
AcDbLine
 62
4
  6
CONTINUOUS
 10
10.4307050161
 20
8.7162023693
 11
10.4638224723
 21
8.8298167693
  0
LINE
  5
2BC
100
AcDbEntity
  8
0
100
AcDbLine
 62
4
  6
CONTINUOUS
 10
10.662527217
 20
9.2636741907
 11
10.6956446593
 21
9.3717690174
  0
LINE
  5
2BD
100
AcDbEntity
  8
0
100
AcDbLine
 62
4
  6
CONTINUOUS
 10
10.3837886165
 20
8.7360147624
 11
10.3672298884
 21
8.7206043843
  0
LINE
  5
2BE
100
AcDbEntity
  8
0
100
AcDbLine
 62
4
  6
CONTINUOUS
 10
10.3037547641
 20
8.7967608944
 11
10.2595981524
 21
8.7777448582
  0
LINE
  5
2BF
100
AcDbEntity
  8
0
100
AcDbLine
 62
4
  6
CONTINUOUS
 10
11.0333737471
 20
7.8263242566
 11
11.0188848592
 21
7.8273290644
  0
LINE
  5
2C0
100
AcDbEntity
  8
0
100
AcDbLine
 62
4
  6
CONTINUOUS
 10
11.0261293032
 20
7.8847822122
 11
11.055107079
 21
7.8827725967
  0
LINE
  5
2C1
100
AcDbEntity
  8
0
100
AcDbLine
 62
4
  6
CONTINUOUS
 10
11.0188848592
 20
7.9432401678
 11
11.0333737471
 21
7.9422353601
  0
LINE
  5
2C2
100
AcDbEntity
  8
0
100
AcDbLine
 62
4
  6
CONTINUOUS
 10
11.3811070376
 20
6.7493496134
 11
11.3666181497
 21
6.7696729382
  0
LINE
  5
2C3
100
AcDbEntity
  8
0
100
AcDbLine
 62
4
  6
CONTINUOUS
 10
9.3961292834
 20
9.6205786016
 11
9.3888848394
 21
9.6307402645
  0
LINE
  5
2C4
100
AcDbEntity
  8
0
100
AcDbLine
 62
4
  6
CONTINUOUS
 10
11.4245737014
 20
6.8429277783
 11
11.4318181454
 21
6.8327661111
  0
LINE
  5
2C5
100
AcDbEntity
  8
0
100
AcDbLine
 62
4
  6
CONTINUOUS
 10
9.4395959472
 20
9.6658604711
 11
9.4540848351
 21
9.6455371472
  0
LINE
  5
2C6
100
AcDbEntity
  8
0
100
AcDbLine
 62
4
  6
CONTINUOUS
 10
9.4395959472
 20
9.7141567665
 11
9.4468403912
 21
9.7039950994
  0
LINE
  5
2C7
100
AcDbEntity
  8
0
100
AcDbLine
 62
4
  6
CONTINUOUS
 10
10.5455812611
 20
10.1011008737
 11
10.5455812611
 21
9.9851897702
  0
LINE
  5
2C8
100
AcDbEntity
  8
0
100
AcDbLine
 62
4
  6
CONTINUOUS
 10
10.5631748348
 20
9.2981621836
 11
10.5631748348
 21
9.4140732871
  0
LINE
  5
2C9
100
AcDbEntity
  8
0
100
AcDbLine
 62
4
  6
CONTINUOUS
 10
10.5631748545
 20
8.7070155548
 11
10.5631748545
 21
8.8229266582
  0
LINE
  5
2CA
100
AcDbEntity
  8
0
100
AcDbLine
 62
4
  6
CONTINUOUS
 10
10.6128510259
 20
9.3692314079
 11
10.6128510259
 21
9.2947171281
  0
LINE
  5
2CB
100
AcDbEntity
  8
0
100
AcDbLine
 62
4
  6
CONTINUOUS
 10
10.6294097668
 20
8.702422148
 11
10.6294097668
 21
8.8183332514
  0
LINE
  5
2CC
100
AcDbEntity
  8
0
100
AcDbLine
 62
4
  6
CONTINUOUS
 10
10.612851072
 20
8.9585749249
 11
10.6459685316
 21
9.0721893247
  0
LINE
  5
2CD
100
AcDbEntity
  8
0
100
AcDbLine
 62
4
  6
CONTINUOUS
 10
10.7701589921
 20
9.063576687
 11
10.737041536
 21
8.949962287
  0
LINE
  5
2CE
100
AcDbEntity
  8
0
100
AcDbLine
 62
4
  6
CONTINUOUS
 10
11.1592890731
 20
9.3313358006
 11
11.167568406
 21
9.3390409944
  0
LINE
  5
2CF
100
AcDbEntity
  8
0
100
AcDbLine
 62
4
  6
CONTINUOUS
 10
11.2338034012
 20
9.3261682144
 11
11.2420827342
 21
9.3338734082
  0
LINE
  5
2D0
100
AcDbEntity
  8
0
100
AcDbLine
 62
4
  6
CONTINUOUS
 10
11.2752001765
 20
9.2487830585
 11
11.2834795095
 21
9.2564882497
  0
LINE
  5
2D1
100
AcDbEntity
  8
0
100
AcDbLine
 62
4
  6
CONTINUOUS
 10
11.0188848592
 20
7.8273290644
 11
11.0043959713
 21
7.8379931311
  0
LINE
  5
2D2
100
AcDbEntity
  8
0
100
AcDbLine
 62
4
  6
CONTINUOUS
 10
11.0333737471
 20
7.9422353601
 11
11.0478626351
 21
7.9315712959
  0
LINE
  5
2D3
100
AcDbEntity
  8
0
100
AcDbLine
 62
4
  6
CONTINUOUS
 10
11.5332403609
 20
6.8353917198
 11
11.5477292488
 21
6.8150683925
  0
LINE
  5
2D4
100
AcDbEntity
  8
0
100
AcDbLine
 62
4
  6
CONTINUOUS
 10
11.0043959713
 20
7.8379931311
 11
10.9899070833
 21
7.8583164559
  0
LINE
  5
2D5
100
AcDbEntity
  8
0
100
AcDbLine
 62
4
  6
CONTINUOUS
 10
11.2579514902
 20
6.8641423242
 11
11.315907042
 21
6.7442119896
  0
LINE
  5
2D6
100
AcDbEntity
  8
0
100
AcDbLine
 62
4
  6
CONTINUOUS
 10
10.4638224723
 20
8.8298167693
 11
10.4969399422
 21
8.7116089615
  0
LINE
  5
2D7
100
AcDbEntity
  8
0
100
AcDbLine
 62
4
  6
CONTINUOUS
 10
10.7122034473
 20
9.0427578222
 11
10.7122034473
 21
9.0675959177
  0
LINE
  5
2D8
100
AcDbEntity
  8
0
100
AcDbLine
 62
4
  6
CONTINUOUS
 10
10.7177229911
 20
9.2957235975
 11
10.7177229911
 21
9.3619585124
  0
LINE
  5
2D9
100
AcDbEntity
  8
0
100
AcDbLine
 62
4
  6
CONTINUOUS
 10
10.7673991546
 20
9.3999102824
 11
10.7673991546
 21
9.2839991789
  0
LINE
  5
2DA
100
AcDbEntity
  8
0
100
AcDbLine
 62
4
  6
CONTINUOUS
 10
10.8005166522
 20
9.2817024727
 11
10.8005166522
 21
9.36449612
  0
LINE
  5
2DB
100
AcDbEntity
  8
0
100
AcDbLine
 62
4
  6
CONTINUOUS
 10
10.8032764496
 20
8.7069231824
 11
10.8032764496
 21
8.7897168279
  0
LINE
  5
2DC
100
AcDbEntity
  8
0
100
AcDbLine
 62
4
  6
CONTINUOUS
 10
10.8032764621
 20
8.9453688793
 11
10.8363939183
 21
9.0589832793
  0
LINE
  5
2DD
100
AcDbEntity
  8
0
100
AcDbLine
 62
4
  6
CONTINUOUS
 10
11.1178922425
 20
9.3756035042
 11
11.1151324649
 21
9.3675155279
  0
LINE
  5
2DE
100
AcDbEntity
  8
0
100
AcDbLine
 62
7
  6
CONTINUOUS
 10
12.1900699938
 20
10.0884773209
 11
12.7077076568
 21
10.5884769379
  0
LINE
  5
2DF
100
AcDbEntity
  8
0
100
AcDbLine
 62
4
  6
CONTINUOUS
 10
10.8032764496
 20
8.7897168279
 11
10.8198351708
 21
8.8051272048
  0
LINE
  5
2E0
100
AcDbEntity
  8
0
100
AcDbLine
 62
4
  6
CONTINUOUS
 10
10.899868999
 20
8.7830181119
 11
10.9164277201
 21
8.7984284888
  0
LINE
  5
2E1
100
AcDbEntity
  8
0
100
AcDbLine
 62
4
  6
CONTINUOUS
 10
10.9578245507
 20
8.6962052352
 11
10.9412658295
 21
8.6807948566
  0
LINE
  5
2E2
100
AcDbEntity
  8
0
100
AcDbLine
 62
4
  6
CONTINUOUS
 10
10.3672298884
 20
8.8365154877
 11
10.3837886165
 21
8.818808408
  0
LINE
  5
2E3
100
AcDbEntity
  8
0
100
AcDbLine
 62
4
  6
CONTINUOUS
 10
11.0478626351
 20
7.9315712959
 11
11.055107079
 21
7.9214096288
  0
LINE
  5
2E4
100
AcDbEntity
  8
0
100
AcDbLine
 62
4
  6
CONTINUOUS
 10
10.6459685316
 20
9.0721893247
 11
10.6790859912
 21
8.9539815177
  0
LINE
  5
2E5
100
AcDbEntity
  8
0
100
AcDbLine
 62
4
  6
CONTINUOUS
 10
11.1347959428
 20
6.7857498628
 11
11.1275514989
 21
6.8152300426
  0
LINE
  5
2E6
100
AcDbEntity
  8
0
100
AcDbLine
 62
4
  6
CONTINUOUS
 10
10.8391536498
 20
9.3535372676
 11
10.8391536498
 21
9.3369785395
  0
LINE
  5
2E7
100
AcDbEntity
  8
0
100
AcDbLine
 62
4
  6
CONTINUOUS
 10
10.8750309251
 20
9.2848142552
 11
10.8750309251
 21
9.3096523499
  0
LINE
  5
2E8
100
AcDbEntity
  8
0
100
AcDbLine
 62
4
  6
CONTINUOUS
 10
10.899868999
 20
8.7002244663
 11
10.899868999
 21
8.7830181119
  0
LINE
  5
2E9
100
AcDbEntity
  8
0
100
AcDbLine
 62
4
  6
CONTINUOUS
 10
10.9247070886
 20
9.2730898367
 11
10.9247070886
 21
9.3393247559
  0
LINE
  5
2EA
100
AcDbEntity
  8
0
100
AcDbLine
 62
4
  6
CONTINUOUS
 10
10.9578245309
 20
9.3535867815
 11
10.9578245309
 21
9.2790724991
  0
LINE
  5
2EB
100
AcDbEntity
  8
0
100
AcDbLine
 62
4
  6
CONTINUOUS
 10
10.9578245507
 20
8.7789988807
 11
10.9578245507
 21
8.6962052352
  0
LINE
  5
2EC
100
AcDbEntity
  8
0
100
AcDbLine
 62
4
  6
CONTINUOUS
 10
10.990941993
 20
8.6773498029
 11
10.990941993
 21
8.7932609064
  0
LINE
  5
2ED
100
AcDbEntity
  8
0
100
AcDbLine
 62
4
  6
CONTINUOUS
 10
11.0075007497
 20
9.2673480768
 11
11.0075007497
 21
9.3501417241
  0
LINE
  5
2EE
100
AcDbEntity
  8
0
100
AcDbLine
 62
4
  6
CONTINUOUS
 10
11.0488975447
 20
8.6898893016
 11
11.0323388236
 21
8.674478923
  0
LINE
  5
2EF
100
AcDbEntity
  8
0
100
AcDbLine
 62
4
  6
CONTINUOUS
 10
11.2227641999
 20
8.710949066
 11
11.1786075917
 21
8.6919330313
  0
LINE
  5
2F0
100
AcDbEntity
  8
0
100
AcDbLine
 62
4
  6
CONTINUOUS
 10
10.2595981524
 20
8.7777448582
 11
10.3037547641
 21
8.752604281
  0
LINE
  5
2F1
100
AcDbEntity
  8
0
100
AcDbLine
 62
4
  6
CONTINUOUS
 10
9.4106181713
 20
9.609914535
 11
9.3961292834
 21
9.6205786016
  0
LINE
  5
2F2
100
AcDbEntity
  8
0
100
AcDbLine
 62
4
  6
CONTINUOUS
 10
9.4251070593
 20
9.6765245352
 11
9.4395959472
 21
9.6658604711
  0
LINE
  5
2F3
100
AcDbEntity
  8
0
100
AcDbLine
 62
4
  6
CONTINUOUS
 10
10.1988828033
 20
9.3317052867
 11
10.2071621682
 21
9.3228517459
  0
LINE
  5
2F4
100
AcDbEntity
  8
0
100
AcDbLine
 62
4
  6
CONTINUOUS
 10
10.8198351708
 20
8.6892161014
 11
10.8032764496
 21
8.7069231824
  0
LINE
  5
2F5
100
AcDbEntity
  8
0
100
AcDbLine
 62
4
  6
CONTINUOUS
 10
10.381028819
 20
9.4267051562
 11
10.4389843707
 21
9.3067748216
  0
LINE
  5
2F6
100
AcDbEntity
  8
0
100
AcDbLine
 62
4
  6
CONTINUOUS
 10
10.6459684959
 20
9.375214071
 11
10.6708066052
 21
9.290697895
  0
LINE
  5
2F7
100
AcDbEntity
  8
0
100
AcDbLine
 62
4
  6
CONTINUOUS
 10
10.8363939183
 20
9.0589832793
 11
10.8695113606
 21
8.9407754735
  0
LINE
  5
2F8
100
AcDbEntity
  8
0
100
AcDbLine
 62
4
  6
CONTINUOUS
 10
10.9899070833
 20
7.8583164559
 11
10.9826626394
 21
7.8877966356
  0
LINE
  5
2F9
100
AcDbEntity
  8
0
100
AcDbLine
 62
4
  6
CONTINUOUS
 10
11.3666181497
 20
6.7696729382
 11
11.3593737057
 21
6.7991531179
  0
LINE
  5
2FA
100
AcDbEntity
  8
0
100
AcDbLine
 62
4
  6
CONTINUOUS
 10
11.040618192
 20
9.2733307392
 11
11.040618192
 21
9.3809624778
  0
LINE
  5
2FB
100
AcDbEntity
  8
0
100
AcDbLine
 62
4
  6
CONTINUOUS
 10
11.0488975447
 20
8.7726829471
 11
11.0488975447
 21
8.6898893016
  0
LINE
  5
2FC
100
AcDbEntity
  8
0
100
AcDbLine
 62
4
  6
CONTINUOUS
 10
11.055107079
 20
7.8827725967
 11
11.055107079
 21
7.8441355627
  0
LINE
  5
2FD
100
AcDbEntity
  8
0
100
AcDbLine
 62
4
  6
CONTINUOUS
 10
11.0958139858
 20
8.6700769055
 11
11.0958139858
 21
8.785988009
  0
LINE
  5
2FE
100
AcDbEntity
  8
0
100
AcDbLine
 62
4
  6
CONTINUOUS
 10
11.1151324649
 20
9.259883792
 11
11.1151324649
 21
9.3426774393
  0
LINE
  5
2FF
100
AcDbEntity
  8
0
100
AcDbLine
 62
4
  6
CONTINUOUS
 10
11.1151324649
 20
9.3675155279
 11
11.1151324649
 21
9.3757948954
  0
LINE
  5
300
100
AcDbEntity
  8
0
100
AcDbLine
 62
7
  6
CONTINUOUS
 10
11.1245682596
 20
6.6608887894
 11
11.1245682596
 21
6.3800457635
  0
LINE
  5
301
100
AcDbEntity
  8
0
100
AcDbLine
 62
4
  6
CONTINUOUS
 10
11.1592890731
 20
9.2651008857
 11
11.1592890731
 21
9.3313358006
  0
LINE
  5
302
100
AcDbEntity
  8
0
100
AcDbLine
 62
4
  6
CONTINUOUS
 10
10.9826626394
 20
7.8877966356
 11
10.9899070833
 21
7.9162720076
  0
LINE
  5
303
100
AcDbEntity
  8
0
100
AcDbLine
 62
4
  6
CONTINUOUS
 10
11.9968848142
 20
8.4936081994
 11
12.0548403659
 21
8.4895889683
  0
LINE
  5
304
100
AcDbEntity
  8
0
100
AcDbLine
 62
4
  6
CONTINUOUS
 10
11.0323388236
 20
8.674478923
 11
10.990941993
 21
8.6773498029
  0
LINE
  5
305
100
AcDbEntity
  8
0
100
AcDbLine
 62
4
  6
CONTINUOUS
 10
10.9412658295
 20
8.6807948566
 11
10.9164277201
 21
8.6825173853
  0
LINE
  5
306
100
AcDbEntity
  8
0
100
AcDbLine
 62
4
  6
CONTINUOUS
 10
10.8529526131
 20
8.6869193989
 11
10.8198351708
 21
8.6892161014
  0
LINE
  5
307
100
AcDbEntity
  8
0
100
AcDbLine
 62
4
  6
CONTINUOUS
 10
10.3672298884
 20
8.7206043843
 11
10.3258330716
 21
8.7234752633
  0
LINE
  5
308
100
AcDbEntity
  8
0
100
AcDbLine
 62
4
  6
CONTINUOUS
 10
10.6294097668
 20
8.702422148
 11
10.679085958
 21
8.6989770924
  0
LINE
  5
309
100
AcDbEntity
  8
0
100
AcDbLine
 62
4
  6
CONTINUOUS
 10
11.0958139858
 20
8.6700769055
 11
11.1454901493
 21
8.6666318519
  0
LINE
  5
30A
100
AcDbEntity
  8
0
100
AcDbLine
 62
4
  6
CONTINUOUS
 10
12.0186181461
 20
8.6080120912
 11
12.033107034
 21
8.6070072834
  0
LINE
  5
30B
100
AcDbEntity
  8
0
100
AcDbLine
 62
4
  6
CONTINUOUS
 10
10.4417441682
 20
8.7485542611
 11
10.4859007764
 21
8.7454919899
  0
LINE
  5
30C
100
AcDbEntity
  8
0
100
AcDbLine
 62
4
  6
CONTINUOUS
 10
9.4251070593
 20
9.7248208306
 11
9.4395959472
 21
9.7141567665
  0
LINE
  5
30D
100
AcDbEntity
  8
0
100
AcDbLine
 62
4
  6
CONTINUOUS
 10
10.256838355
 20
9.3525241503
 11
10.1988828033
 21
9.4062195691
  0
LINE
  5
30E
100
AcDbEntity
  8
0
100
AcDbLine
 62
4
  6
CONTINUOUS
 10
10.2899558112
 20
9.3336687171
 11
10.3065145392
 21
9.3159616356
  0
LINE
  5
30F
100
AcDbEntity
  8
0
100
AcDbLine
 62
4
  6
CONTINUOUS
 10
10.9164277201
 20
8.6825173853
 11
10.899868999
 21
8.7002244663
  0
LINE
  5
310
100
AcDbEntity
  8
0
100
AcDbLine
 62
4
  6
CONTINUOUS
 10
10.248558991
 20
9.4358919699
 11
10.256838355
 21
9.4270384266
  0
LINE
  5
311
100
AcDbEntity
  8
0
100
AcDbLine
 62
4
  6
CONTINUOUS
 10
10.9412658295
 20
8.79670596
 11
10.9578245507
 21
8.7789988807
  0
LINE
  5
312
100
AcDbEntity
  8
0
100
AcDbLine
 62
4
  6
CONTINUOUS
 10
10.6614923645
 20
10.0930624113
 11
10.6977145843
 21
9.9746392884
  0
LINE
  5
313
100
AcDbEntity
  8
0
100
AcDbLine
 62
4
  6
CONTINUOUS
 10
11.5477292488
 20
6.8150683925
 11
11.5549736928
 21
6.7855882128
  0
LINE
  5
314
100
AcDbEntity
  8
0
100
AcDbLine
 62
4
  6
CONTINUOUS
 10
11.2338034012
 20
9.3013301223
 11
11.2338034012
 21
9.3261682144
  0
LINE
  5
315
100
AcDbEntity
  8
0
100
AcDbLine
 62
7
  6
CONTINUOUS
 10
11.2376230716
 20
6.6530484116
 11
11.2376230716
 21
6.2708433876
  0
LINE
  5
316
100
AcDbEntity
  8
0
100
AcDbLine
 62
7
  6
CONTINUOUS
 10
11.2795032991
 20
6.6501440079
 11
11.2795032991
 21
6.2600040008
  0
LINE
  5
317
100
AcDbEntity
  8
0
100
AcDbLine
 62
4
  6
CONTINUOUS
 10
11.2834795095
 20
9.2564882497
 11
11.2834795095
 21
9.2813263444
  0
LINE
  5
318
100
AcDbEntity
  8
0
100
AcDbLine
 62
4
  6
CONTINUOUS
 10
10.9899070833
 20
7.9162720076
 11
11.0043959713
 21
7.9345857193
  0
LINE
  5
319
100
AcDbEntity
  8
0
100
AcDbLine
 62
4
  6
CONTINUOUS
 10
11.1289314282
 20
8.7340151223
 11
11.0958139858
 21
8.7363118247
  0
LINE
  5
31A
100
AcDbEntity
  8
0
100
AcDbLine
 62
4
  6
CONTINUOUS
 10
10.6625272368
 20
8.7663603629
 11
10.6294097668
 21
8.7686570672
  0
LINE
  5
31B
100
AcDbEntity
  8
0
100
AcDbLine
 62
4
  6
CONTINUOUS
 10
10.3258330716
 20
8.8393863667
 11
10.3672298884
 21
8.8365154877
  0
LINE
  5
31C
100
AcDbEntity
  8
0
100
AcDbLine
 62
4
  6
CONTINUOUS
 10
10.5300573846
 20
8.8252233625
 11
10.5962922969
 21
8.8206299558
  0
LINE
  5
31D
100
AcDbEntity
  8
0
100
AcDbLine
 62
4
  6
CONTINUOUS
 10
10.6294097668
 20
8.8183332514
 11
10.679085958
 21
8.8148881959
  0
LINE
  5
31E
100
AcDbEntity
  8
0
100
AcDbLine
 62
4
  6
CONTINUOUS
 10
10.8198351708
 20
8.8051272048
 11
10.8529526131
 21
8.8028305024
  0
LINE
  5
31F
100
AcDbEntity
  8
0
100
AcDbLine
 62
4
  6
CONTINUOUS
 10
10.9164277201
 20
8.7984284888
 11
10.9412658295
 21
8.79670596
  0
LINE
  5
320
100
AcDbEntity
  8
0
100
AcDbLine
 62
4
  6
CONTINUOUS
 10
10.990941993
 20
8.7932609064
 11
11.0323388236
 21
8.7903900264
  0
LINE
  5
321
100
AcDbEntity
  8
0
100
AcDbLine
 62
4
  6
CONTINUOUS
 10
11.0958139858
 20
8.785988009
 11
11.1454901493
 21
8.7825429553
  0
LINE
  5
322
100
AcDbEntity
  8
0
100
AcDbLine
 62
4
  6
CONTINUOUS
 10
11.1786075917
 20
8.7360896447
 11
11.2227641999
 21
8.710949066
  0
LINE
  5
323
100
AcDbEntity
  8
0
100
AcDbLine
 62
4
  6
CONTINUOUS
 10
11.0323388236
 20
8.7903900264
 11
11.0488975447
 21
8.7726829471
  0
LINE
  5
324
100
AcDbEntity
  8
0
100
AcDbLine
 62
4
  6
CONTINUOUS
 10
10.6045716653
 20
9.378084951
 11
10.6128510259
 21
9.3692314079
  0
LINE
  5
325
100
AcDbEntity
  8
0
100
AcDbLine
 62
4
  6
CONTINUOUS
 10
10.8336340945
 20
9.3621994175
 11
10.8391536498
 21
9.3535372676
  0
LINE
  5
326
100
AcDbEntity
  8
0
100
AcDbLine
 62
4
  6
CONTINUOUS
 10
10.9247070886
 20
9.3393247559
 11
10.9164277556
 21
9.3564576576
  0
LINE
  5
327
100
AcDbEntity
  8
0
100
AcDbLine
 62
4
  6
CONTINUOUS
 10
11.4897736971
 20
6.7321542961
 11
11.4897736971
 21
6.8480653995
  0
LINE
  5
328
100
AcDbEntity
  8
0
100
AcDbLine
 62
4
  6
CONTINUOUS
 10
11.1275514989
 20
6.8152300426
 11
11.1347959428
 21
6.8437054145
  0
LINE
  5
329
100
AcDbEntity
  8
0
100
AcDbLine
 62
4
  6
CONTINUOUS
 10
11.055107079
 20
7.8441355627
 11
11.0478626351
 21
7.8349787077
  0
LINE
  5
32A
100
AcDbEntity
  8
0
100
AcDbLine
 62
7
  6
CONTINUOUS
 10
12.4488888253
 20
9.0991942559
 11
12.4495736301
 21
9.0998435453
  0
LINE
  5
32B
100
AcDbEntity
  8
0
100
AcDbLine
 62
4
  6
CONTINUOUS
 10
12.0041292582
 20
8.5993576427
 11
12.0186181461
 21
8.6080120912
  0
LINE
  5
32C
100
AcDbEntity
  8
0
100
AcDbLine
 62
4
  6
CONTINUOUS
 10
11.0043959713
 20
7.9345857193
 11
11.0188848592
 21
7.9432401678
  0
LINE
  5
32D
100
AcDbEntity
  8
0
100
AcDbLine
 62
4
  6
CONTINUOUS
 10
12.0475959219
 20
8.5577061802
 11
12.0186181461
 21
8.5403972797
  0
LINE
  5
32E
100
AcDbEntity
  8
0
100
AcDbLine
 62
4
  6
CONTINUOUS
 10
11.0478626351
 20
7.8349787077
 11
11.0333737471
 21
7.8263242566
  0
LINE
  5
32F
100
AcDbEntity
  8
0
100
AcDbLine
 62
4
  6
CONTINUOUS
 10
10.6238902249
 20
8.9909268167
 11
10.6680468357
 21
8.9878645453
  0
LINE
  5
330
100
AcDbEntity
  8
0
100
AcDbLine
 62
4
  6
CONTINUOUS
 10
10.8143156142
 20
8.9777207711
 11
10.8584722224
 21
8.9746584999
  0
LINE
  5
331
100
AcDbEntity
  8
0
100
AcDbLine
 62
4
  6
CONTINUOUS
 10
10.7122034473
 20
9.0675959177
 11
10.7701589921
 21
9.063576687
  0
LINE
  5
332
100
AcDbEntity
  8
0
100
AcDbLine
 62
4
  6
CONTINUOUS
 10
10.7342817123
 20
9.2862958814
 11
10.7177229911
 21
9.2957235975
  0
LINE
  5
333
100
AcDbEntity
  8
0
100
AcDbLine
 62
4
  6
CONTINUOUS
 10
10.9578245309
 20
9.2790724991
 11
10.9661039191
 21
9.2702189567
  0
LINE
  5
334
100
AcDbEntity
  8
0
100
AcDbLine
 62
4
  6
CONTINUOUS
 10
11.0488975802
 20
9.2644771968
 11
11.040618192
 21
9.2733307392
  0
LINE
  5
335
100
AcDbEntity
  8
0
100
AcDbLine
 62
7
  6
CONTINUOUS
 10
11.701429278
 20
6.6208833419
 11
11.701429278
 21
6.2307433348
  0
LINE
  5
336
100
AcDbEntity
  8
0
100
AcDbLine
 62
7
  6
CONTINUOUS
 10
11.7586387166
 20
6.6169158539
 11
11.7586387166
 21
6.2347108299
  0
LINE
  5
337
100
AcDbEntity
  8
0
100
AcDbLine
 62
4
  6
CONTINUOUS
 10
11.3593737057
 20
6.7991531179
 11
11.3666181497
 21
6.8276284899
  0
LINE
  5
338
100
AcDbEntity
  8
0
100
AcDbLine
 62
4
  6
CONTINUOUS
 10
11.9968848142
 20
8.5902007833
 11
12.0041292582
 21
8.5993576427
  0
LINE
  5
339
100
AcDbEntity
  8
0
100
AcDbLine
 62
4
  6
CONTINUOUS
 10
12.0186181461
 20
8.5403972797
 11
12.0041292582
 21
8.5220835714
  0
LINE
  5
33A
100
AcDbEntity
  8
0
100
AcDbLine
 62
4
  6
CONTINUOUS
 10
12.0548403659
 20
8.5668630395
 11
12.0475959219
 21
8.5577061802
  0
LINE
  5
33B
100
AcDbEntity
  8
0
100
AcDbLine
 62
4
  6
CONTINUOUS
 10
10.6459684959
 20
9.2648225419
 11
10.662527217
 21
9.2636741907
  0
LINE
  5
33C
100
AcDbEntity
  8
0
100
AcDbLine
 62
4
  6
CONTINUOUS
 10
11.2006859589
 20
9.253950637
 11
11.167568406
 21
9.2562473471
  0
LINE
  5
33D
100
AcDbEntity
  8
0
100
AcDbLine
 62
4
  6
CONTINUOUS
 10
11.0654563014
 20
9.2633288456
 11
11.0488975802
 21
9.2644771968
  0
LINE
  5
33E
100
AcDbEntity
  8
0
100
AcDbLine
 62
4
  6
CONTINUOUS
 10
10.9247070886
 20
9.2730898367
 11
10.8915896462
 21
9.2753865391
  0
LINE
  5
33F
100
AcDbEntity
  8
0
100
AcDbLine
 62
4
  6
CONTINUOUS
 10
10.7673991546
 20
9.2839991789
 11
10.7342817123
 21
9.2862958814
  0
LINE
  5
340
100
AcDbEntity
  8
0
100
AcDbLine
 62
4
  6
CONTINUOUS
 10
10.2071621682
 20
9.3228517459
 11
10.2402796269
 21
9.3205550424
  0
LINE
  5
341
100
AcDbEntity
  8
0
100
AcDbLine
 62
4
  6
CONTINUOUS
 10
10.3065145392
 20
9.3159616356
 11
10.3313526417
 21
9.3142391073
  0
LINE
  5
342
100
AcDbEntity
  8
0
100
AcDbLine
 62
4
  6
CONTINUOUS
 10
10.9661039191
 20
9.2702189567
 11
11.0075007497
 21
9.2673480768
  0
LINE
  5
343
100
AcDbEntity
  8
0
100
AcDbLine
 62
4
  6
CONTINUOUS
 10
11.2420827342
 20
9.2510797609
 11
11.2752001765
 21
9.2487830585
  0
LINE
  5
344
100
AcDbEntity
  8
0
100
AcDbLine
 62
4
  6
CONTINUOUS
 10
10.8915896462
 20
9.2753865391
 11
10.8750309251
 21
9.2848142552
  0
LINE
  5
345
100
AcDbEntity
  8
0
100
AcDbLine
 62
4
  6
CONTINUOUS
 10
12.033107034
 20
8.6070072834
 11
12.0475959219
 21
8.5963432193
  0
LINE
  5
346
100
AcDbEntity
  8
0
100
AcDbLine
 62
4
  6
CONTINUOUS
 10
11.2420827342
 20
9.2952363725
 11
11.2338034012
 21
9.3013301223
  0
LINE
  5
347
100
AcDbEntity
  8
0
100
AcDbLine
 62
4
  6
CONTINUOUS
 10
11.167568406
 20
9.2562473471
 11
11.1592890731
 21
9.2651008857
  0
LINE
  5
348
100
AcDbEntity
  8
0
100
AcDbLine
 62
4
  6
CONTINUOUS
 10
11.2338034012
 20
9.2599332995
 11
11.2420827342
 21
9.2510797609
  0
LINE
  5
349
100
AcDbEntity
  8
0
100
AcDbLine
 62
4
  6
CONTINUOUS
 10
11.2752001765
 20
9.3315767057
 11
11.2834795095
 21
9.3227231646
  0
LINE
  5
34A
100
AcDbEntity
  8
0
100
AcDbLine
 62
4
  6
CONTINUOUS
 10
11.5549736928
 20
6.7855882128
 11
11.5477292488
 21
6.7571128408
  0
LINE
  5
34B
100
AcDbEntity
  8
0
100
AcDbLine
 62
4
  6
CONTINUOUS
 10
12.0041292582
 20
8.5220835714
 11
11.9968848142
 21
8.4936081994
  0
LINE
  5
34C
100
AcDbEntity
  8
0
100
AcDbLine
 62
4
  6
CONTINUOUS
 10
10.8915896462
 20
9.3167833627
 11
10.9247070886
 21
9.3144866603
  0
LINE
  5
34D
100
AcDbEntity
  8
0
100
AcDbLine
 62
4
  6
CONTINUOUS
 10
10.9164277556
 20
9.3564576576
 11
10.8750309251
 21
9.3593285376
  0
LINE
  5
34E
100
AcDbEntity
  8
0
100
AcDbLine
 62
4
  6
CONTINUOUS
 10
10.5631748348
 20
9.3809558309
 11
10.6045716653
 21
9.378084951
  0
LINE
  5
34F
100
AcDbEntity
  8
0
100
AcDbLine
 62
4
  6
CONTINUOUS
 10
10.7342817123
 20
9.3690895287
 11
10.7673991546
 21
9.3667928262
  0
LINE
  5
350
100
AcDbEntity
  8
0
100
AcDbLine
 62
4
  6
CONTINUOUS
 10
10.8005166522
 20
9.36449612
 11
10.8336340945
 21
9.3621994175
  0
LINE
  5
351
100
AcDbEntity
  8
0
100
AcDbLine
 62
4
  6
CONTINUOUS
 10
11.167568406
 20
9.3390409944
 11
11.2006859589
 21
9.3367442843
  0
LINE
  5
352
100
AcDbEntity
  8
0
100
AcDbLine
 62
4
  6
CONTINUOUS
 10
11.2420827342
 20
9.3338734082
 11
11.2752001765
 21
9.3315767057
  0
LINE
  5
353
100
AcDbEntity
  8
0
100
AcDbLine
 62
4
  6
CONTINUOUS
 10
10.2154415331
 20
9.4381886734
 11
10.248558991
 21
9.4358919699
  0
LINE
  5
354
100
AcDbEntity
  8
0
100
AcDbLine
 62
4
  6
CONTINUOUS
 10
11.1151324649
 20
9.3757948954
 11
11.1178922425
 21
9.3756035042
  0
LINE
  5
355
100
AcDbEntity
  8
0
100
AcDbLine
 62
4
  6
CONTINUOUS
 10
11.2752001765
 20
9.2874200941
 11
11.2420827342
 21
9.2952363725
  0
LINE
  5
356
100
AcDbEntity
  8
0
100
AcDbLine
 62
4
  6
CONTINUOUS
 10
11.2834795095
 20
9.2813263444
 11
11.2752001765
 21
9.2874200941
  0
LINE
  5
357
100
AcDbEntity
  8
0
100
AcDbLine
 62
4
  6
CONTINUOUS
 10
12.0475959219
 20
8.5963432193
 11
12.0548403659
 21
8.5861815522
  0
LINE
  5
358
100
AcDbEntity
  8
0
100
AcDbLine
 62
4
  6
CONTINUOUS
 10
12.0548403659
 20
8.5861815522
 11
12.0548403659
 21
8.5668630395
  0
LINE
  5
359
100
AcDbEntity
  8
0
100
AcDbLine
 62
7
  6
CONTINUOUS
 10
12.0675098836
 20
6.5954955657
 11
12.0675098836
 21
6.3146525397
  0
LINE
  5
35A
100
AcDbEntity
  8
0
100
AcDbLine
 62
7
  6
CONTINUOUS
 10
12.0828390948
 20
6.5944324813
 11
12.0828390948
 21
6.3294594216
  0
LINE
  5
35B
100
AcDbEntity
  8
0
100
AcDbLine
 62
4
  6
CONTINUOUS
 10
11.2579514902
 20
6.7482312207
 11
11.315907042
 21
6.860123093
  0
LINE
  5
35C
100
AcDbEntity
  8
0
100
AcDbLine
 62
4
  6
CONTINUOUS
 10
11.1347959428
 20
6.8437054145
 11
11.1492848308
 21
6.8620191263
  0
LINE
  5
35D
100
AcDbEntity
  8
0
100
AcDbLine
 62
4
  6
CONTINUOUS
 10
9.4251070593
 20
9.6089097272
 11
9.4106181713
 21
9.609914535
  0
LINE
  5
35E
100
AcDbEntity
  8
0
100
AcDbLine
 62
4
  6
CONTINUOUS
 10
9.4106181713
 20
9.677529343
 11
9.4251070593
 21
9.6765245352
  0
LINE
  5
35F
100
AcDbEntity
  8
0
100
AcDbLine
 62
4
  6
CONTINUOUS
 10
9.4106181713
 20
9.7258256384
 11
9.4251070593
 21
9.7248208306
  0
LINE
  5
360
100
AcDbEntity
  8
0
100
AcDbLine
 62
7
  6
CONTINUOUS
 10
12.1900699938
 20
6.5869959932
 11
12.1900699938
 21
10.0884773209
  0
LINE
  5
361
100
AcDbEntity
  8
0
100
AcDbLine
 62
4
  6
CONTINUOUS
 10
11.1999959385
 20
6.7715689697
 11
11.1927514946
 21
6.7624121147
  0
LINE
  5
362
100
AcDbEntity
  8
0
100
AcDbLine
 62
4
  6
CONTINUOUS
 10
11.3666181497
 20
6.8276284899
 11
11.3811070376
 21
6.8459422016
  0
LINE
  5
363
100
AcDbEntity
  8
0
100
AcDbLine
 62
4
  6
CONTINUOUS
 10
11.4318181454
 20
6.7554920451
 11
11.4245737014
 21
6.7463351901
  0
LINE
  5
364
100
AcDbEntity
  8
0
100
AcDbLine
 62
4
  6
CONTINUOUS
 10
11.5477292488
 20
6.7571128408
 11
11.5332403609
 21
6.7387991316
  0
LINE
  5
365
100
AcDbEntity
  8
0
100
AcDbLine
 62
4
  6
CONTINUOUS
 10
11.1492848308
 20
6.8620191263
 11
11.1637737187
 21
6.8706735748
  0
LINE
  5
366
100
AcDbEntity
  8
0
100
AcDbLine
 62
4
  6
CONTINUOUS
 10
10.6397590326
 20
10.0172955552
 11
10.6832256964
 21
10.0142811319
  0
LINE
  5
367
100
AcDbEntity
  8
0
100
AcDbLine
 62
4
  6
CONTINUOUS
 10
10.2920257223
 20
10.0607294583
 11
10.3354923861
 21
10.0577150349
  0
LINE
  5
368
100
AcDbEntity
  8
0
100
AcDbLine
 62
7
  6
CONTINUOUS
 10
12.7077076568
 20
7.0869956102
 11
12.7077076568
 21
10.5884769379
  0
LINE
  5
369
100
AcDbEntity
  8
0
100
AcDbLine
 62
4
  6
CONTINUOUS
 10
11.1927514946
 20
6.7624121147
 11
11.1782626066
 21
6.7537576636
  0
LINE
  5
36A
100
AcDbEntity
  8
0
100
AcDbLine
 62
4
  6
CONTINUOUS
 10
11.3811070376
 20
6.8459422016
 11
11.3955959256
 21
6.8545966502
  0
LINE
  5
36B
100
AcDbEntity
  8
0
100
AcDbLine
 62
4
  6
CONTINUOUS
 10
11.4245737014
 20
6.7463351901
 11
11.4100848135
 21
6.7376807389
  0
LINE
  5
36C
100
AcDbEntity
  8
0
100
AcDbLine
 62
4
  6
CONTINUOUS
 10
10.1616257309
 20
10.1277282801
 11
10.2340701706
 21
10.1227042412
  0
LINE
  5
36D
100
AcDbEntity
  8
0
100
AcDbLine
 62
7
  6
CONTINUOUS
 10
9.2922923432
 20
10.2894388836
 11
12.1900699938
 21
10.0884773209
  0
LINE
  5
36E
100
AcDbEntity
  8
0
100
AcDbLine
 62
4
  6
CONTINUOUS
 10
11.5332403609
 20
6.7387991316
 11
11.518751473
 21
6.7301446805
  0
LINE
  5
36F
100
AcDbEntity
  8
0
100
AcDbLine
 62
7
  6
CONTINUOUS
 10
12.1900699938
 20
6.5869959932
 11
12.7077076568
 21
7.0869956102
  0
LINE
  5
370
100
AcDbEntity
  8
0
100
AcDbLine
 62
7
  6
CONTINUOUS
 10
12.7077076568
 20
10.5884769379
 11
9.8099300062
 21
10.7894385006
  0
LINE
  5
371
100
AcDbEntity
  8
0
100
AcDbLine
 62
7
  6
CONTINUOUS
 10
12.0097556245
 20
6.2826301487
 11
11.984590015
 21
6.2701988194
  0
ARC
  5
372
100
AcDbEntity
  8
0
100
AcDbCircle
 62
7
  6
CONTINUOUS
 10
11.6115059339
 20
7.9418467821
 40
1.7134646816
100
AcDbArc
 50
273.0082884861
 51
274.9259735842
  0
ARC
  5
373
100
AcDbEntity
  8
0
100
AcDbCircle
 62
7
  6
CONTINUOUS
 10
11.7472714954
 20
6.8135656409
 40
0.5922756118
100
AcDbArc
 50
293.5909107106
 51
296.3039528614
  0
ARC
  5
374
100
AcDbEntity
  8
0
100
AcDbCircle
 62
7
  6
CONTINUOUS
 10
10.9200280226
 20
7.7631587178
 40
0.1653151057
100
AcDbArc
 50
172.8352876985
 51
179.9939429065
  0
ARC
  5
375
100
AcDbEntity
  8
0
100
AcDbCircle
 62
7
  6
CONTINUOUS
 10
10.3271324141
 20
10.3027565382
 40
0.0290575936
100
AcDbArc
 50
180.0124386196
 51
187.8522742044
  0
ARC
  5
376
100
AcDbEntity
  8
0
100
AcDbCircle
 62
7
  6
CONTINUOUS
 10
11.1300178076
 20
10.3027565683
 40
0.0290569904
100
AcDbArc
 50
352.2255437801
 51
359.9875017606
  0
SPLINE
  5
377
100
AcDbEntity
  8
0
100
AcDbSpline
 62
7
  6
CONTINUOUS
 70
0
 71
3
 72
9
 73
5
 74
0
 42
0.0000001
 43
0.0000001
 44
0.0000000001
 40
0.0
 40
0.0
 40
0.0
 40
0.0
 40
0.4865082157
 40
1.0
 40
1.0
 40
1.0
 40
1.0
 10
12.0760414342
 20
6.3219958578
 30
0.0
 10
12.0747279642
 20
6.3207271431
 30
0.0
 10
12.0719468229
 20
6.3182027382
 30
0.0
 10
12.0690335169
 20
6.3158330338
 30
0.0
 10
12.0675098836
 20
6.3146525397
 30
0.0
  0
SPLINE
  5
378
100
AcDbEntity
  8
0
100
AcDbSpline
 62
7
  6
CONTINUOUS
 70
0
 71
3
 72
9
 73
5
 74
0
 42
0.0000001
 43
0.0000001
 44
0.0000000001
 40
0.0
 40
0.0
 40
0.0
 40
0.0
 40
0.4864210225
 40
1.0
 40
1.0
 40
1.0
 40
1.0
 10
12.0828390948
 20
6.3294594216
 30
0.0
 10
12.0818253878
 20
6.3281730715
 30
0.0
 10
12.0796388976
 20
6.3256082867
 30
0.0
 10
12.0772851785
 20
6.3231972226
 30
0.0
 10
12.0760414342
 20
6.3219958578
 30
0.0
  0
SPLINE
  5
379
100
AcDbEntity
  8
0
100
AcDbSpline
 62
7
  6
CONTINUOUS
 70
0
 71
3
 72
9
 73
5
 74
0
 42
0.0000001
 43
0.0000001
 44
0.0000000001
 40
0.0
 40
0.0
 40
0.0
 40
0.0
 40
0.503991706
 40
1.0
 40
1.0
 40
1.0
 40
1.0
 10
12.0675098836
 20
6.3146525397
 30
0.0
 10
12.0580365361
 20
6.3088636645
 30
0.0
 10
12.0390211191
 20
6.2977304843
 30
0.0
 10
12.0195244542
 20
6.2874559707
 30
0.0
 10
12.0097283871
 20
6.2826166976
 30
0.0
  0
SPLINE
  5
37A
100
AcDbEntity
  8
0
100
AcDbSpline
 62
7
  6
CONTINUOUS
 70
0
 71
3
 72
23
 73
19
 74
0
 42
0.0000001
 43
0.0000001
 44
0.0000000001
 40
0.0
 40
0.0
 40
0.0
 40
0.0
 40
0.0439943064
 40
0.0899281819
 40
0.1380403338
 40
0.1885309998
 40
0.2415683448
 40
0.2972701743
 40
0.3557174883
 40
0.4169406608
 40
0.4809367475
 40
0.5476614984
 40
0.617045644
 40
0.688992165
 40
0.7633891149
 40
0.8401121098
 40
0.9190285012
 40
1.0
 40
1.0
 40
1.0
 40
1.0
 10
11.206515405
 20
6.2782516628
 30
0.0
 10
11.2047715237
 20
6.2791131224
 30
0.0
 10
11.201271393
 20
6.281007429
 30
0.0
 10
11.1961149208
 20
6.2842801037
 30
0.0
 10
11.1909515278
 20
6.2880522011
 30
0.0
 10
11.1857838084
 20
6.2923290674
 30
0.0
 10
11.1806159683
 20
6.2971143037
 30
0.0
 10
11.1754500776
 20
6.302404913
 30
0.0
 10
11.1702904092
 20
6.30819555
 30
0.0
 10
11.1651388447
 20
6.3144749862
 30
0.0
 10
11.1599991712
 20
6.3212297437
 30
0.0
 10
11.1548730069
 20
6.3284419088
 30
0.0
 10
11.1497632772
 20
6.336091943
 30
0.0
 10
11.1446712101
 20
6.344157627
 30
0.0
 10
11.1395986736
 20
6.3526160845
 30
0.0
 10
11.1345464214
 20
6.3614433999
 30
0.0
 10
11.1295153937
 20
6.3706156352
 30
0.0
 10
11.1262163251
 20
6.3768678153
 30
0.0
 10
11.1245682596
 20
6.3800457635
 30
0.0
  0
SPLINE
  5
37B
100
AcDbEntity
  8
0
100
AcDbSpline
 62
7
  6
CONTINUOUS
 70
0
 71
3
 72
46
 73
42
 74
0
 42
0.0000001
 43
0.0000001
 44
0.0000000001
 40
0.0
 40
0.0
 40
0.0
 40
0.0
 40
0.0099874435
 40
0.0204476157
 40
0.0313771114
 40
0.0427707225
 40
0.054621686
 40
0.0669224317
 40
0.0796639566
 40
0.0928360449
 40
0.1204269131
 40
0.1495981875
 40
0.1802403745
 40
0.2122335405
 40
0.2454486791
 40
0.2797494061
 40
0.3149926211
 40
0.3510295021
 40
0.387706851
 40
0.4248677397
 40
0.4623524596
 40
0.499999592
 40
0.537646712
 40
0.5751314595
 40
0.6122923998
 40
0.6489698028
 40
0.6850067986
 40
0.7202500982
 40
0.7545508962
 40
0.7877662248
 40
0.8197595459
 40
0.8504018313
 40
0.8795733387
 40
0.9071643906
 40
0.9330770134
 40
0.9453779539
 40
0.9572290359
 40
0.9686226679
 40
0.9795523026
 40
0.9900125123
 40
1.0
 40
1.0
 40
1.0
 40
1.0
 10
11.9845935448
 20
6.2702006068
 30
0.0
 10
11.9822765659
 20
6.2690560457
 30
0.0
 10
11.9774933731
 20
6.2667921957
 30
0.0
 10
11.9700538708
 20
6.2635385364
 30
0.0
 10
11.9621913311
 20
6.2603520789
 30
0.0
 10
11.9539148968
 20
6.2572365195
 30
0.0
 10
11.9452340775
 20
6.2541952538
 30
0.0
 10
11.9361587631
 20
6.2512320203
 30
0.0
 10
11.9266993856
 20
6.2483501477
 30
0.0
 10
11.913382749
 20
6.2445618187
 30
0.0
 10
11.8958493845
 20
6.2400716591
 30
0.0
 10
11.8737751165
 20
6.2351373865
 30
0.0
 10
11.8504544306
 20
6.2306005696
 30
0.0
 10
11.8259948337
 20
6.2264824304
 30
0.0
 10
11.8005089302
 20
6.2228021283
 30
0.0
 10
11.7741142258
 20
6.219576994
 30
0.0
 10
11.7469324796
 20
6.2168221688
 30
0.0
 10
11.719089182
 20
6.2145503785
 30
0.0
 10
11.6907128957
 20
6.2127723289
 30
0.0
 10
11.6619346625
 20
6.2114963888
 30
0.0
 10
11.6328874167
 20
6.2107283674
 30
0.0
 10
11.6037053518
 20
6.2104719225
 30
0.0
 10
11.5745232798
 20
6.210728332
 30
0.0
 10
11.545476014
 20
6.2114962496
 30
0.0
 10
11.516697744
 20
6.2127721494
 30
0.0
 10
11.4883213993
 20
6.2145501723
 30
0.0
 10
11.4604780276
 20
6.2168218594
 30
0.0
 10
11.4332962066
 20
6.2195766428
 30
0.0
 10
11.406901409
 20
6.2228017598
 30
0.0
 10
11.3814153879
 20
6.2264819642
 30
0.0
 10
11.3569556485
 20
6.2306000565
 30
0.0
 10
11.3336348986
 20
6.2351368888
 30
0.0
 10
11.311560252
 20
6.2400710088
 30
0.0
 10
11.2908333129
 20
6.2453793214
 30
0.0
 10
11.2744906424
 20
6.2501736834
 30
0.0
 10
11.2621753032
 20
6.2541945253
 30
0.0
 10
11.2534943792
 20
6.257235808
 30
0.0
 10
11.2452178902
 20
6.2603514119
 30
0.0
 10
11.2373552501
 20
6.2635377587
 30
0.0
 10
11.2299156633
 20
6.2667913697
 30
0.0
 10
11.2251324562
 20
6.2690552394
 30
0.0
 10
11.2228154642
 20
6.2701997995
 30
0.0
  0
SPLINE
  5
37C
100
AcDbEntity
  8
0
100
AcDbSpline
 62
7
  6
CONTINUOUS
 70
0
 71
3
 72
9
 73
5
 74
0
 42
0.0000001
 43
0.0000001
 44
0.0000000001
 40
0.0
 40
0.0
 40
0.0
 40
0.0
 40
0.5132482879
 40
1.0
 40
1.0
 40
1.0
 40
1.0
 10
11.2795032991
 20
6.2600040008
 30
0.0
 10
11.2722885177
 20
6.2616576968
 30
0.0
 10
11.2582722734
 20
6.2650615562
 30
0.0
 10
11.2443609716
 20
6.2688742166
 30
0.0
 10
11.2376230716
 20
6.2708433876
 30
0.0
  0
SPLINE
  5
37D
100
AcDbEntity
  8
0
100
AcDbSpline
 62
7
  6
CONTINUOUS
 70
0
 71
3
 72
21
 73
17
 74
0
 42
0.0000001
 43
0.0000001
 44
0.0000000001
 40
0.0
 40
0.0
 40
0.0
 40
0.0
 40
0.1230814817
 40
0.1847942657
 40
0.2466337258
 40
0.3086097846
 40
0.3707312098
 40
0.4330051319
 40
0.4954352436
 40
0.5580223626
 40
0.6207641208
 40
0.6836547008
 40
0.7466862848
 40
0.8098488395
 40
0.8731308835
 40
1.0
 40
1.0
 40
1.0
 40
1.0
 10
11.701429278
 20
6.2307433348
 30
0.0
 10
11.6841766374
 20
6.2274909514
 30
0.0
 10
11.6581454998
 20
6.2232402329
 30
0.0
 10
11.6232089096
 20
6.2190728835
 30
0.0
 10
11.596842212
 20
6.2167508371
 30
0.0
 10
11.5703551452
 20
6.215291137
 30
0.0
 10
11.5437710861
 20
6.2147409952
 30
0.0
 10
11.5171192218
 20
6.2151374268
 30
0.0
 10
11.4904327289
 20
6.2165024145
 30
0.0
 10
11.4637469571
 20
6.218841238
 30
0.0
 10
11.437097254
 20
6.2221435273
 30
0.0
 10
11.4105165899
 20
6.226382547
 30
0.0
 10
11.3840337466
 20
6.2315171882
 30
0.0
 10
11.3576718692
 20
6.2374969361
 30
0.0
 10
11.3226811947
 20
6.2465260558
 30
0.0
 10
11.2967027362
 20
6.254376077
 30
0.0
 10
11.2795032991
 20
6.2600040008
 30
0.0
  0
SPLINE
  5
37E
100
AcDbEntity
  8
0
100
AcDbSpline
 62
7
  6
CONTINUOUS
 70
0
 71
3
 72
13
 73
9
 74
0
 42
0.0000001
 43
0.0000001
 44
0.0000000001
 40
0.0
 40
0.0
 40
0.0
 40
0.0
 40
0.2392401476
 40
0.3604630295
 40
0.4832816768
 40
0.6081576999
 40
0.7355839368
 40
1.0
 40
1.0
 40
1.0
 40
1.0
 10
11.2376230716
 20
6.2708433876
 30
0.0
 10
11.2350510601
 20
6.2708525397
 30
0.0
 10
11.2311718337
 20
6.2710714316
 30
0.0
 10
11.2260254741
 20
6.2718002494
 30
0.0
 10
11.2221347149
 20
6.272581988
 30
0.0
 10
11.2182316966
 20
6.2736067193
 30
0.0
 10
11.2129484779
 20
6.275330924
 30
0.0
 10
11.2090640815
 20
6.2769926428
 30
0.0
 10
11.206515405
 20
6.2782516628
 30
0.0
  0
SPLINE
  5
37F
100
AcDbEntity
  8
0
100
AcDbSpline
 62
7
  6
CONTINUOUS
 70
0
 71
3
 72
15
 73
11
 74
0
 42
0.0000001
 43
0.0000001
 44
0.0000000001
 40
0.0
 40
0.0
 40
0.0
 40
0.0
 40
0.1319943798
 40
0.2615530082
 40
0.3887795478
 40
0.5138991626
 40
0.6372282088
 40
0.759125931
 40
0.8799459217
 40
1.0
 40
1.0
 40
1.0
 40
1.0
 10
11.9843023616
 20
6.2707887356
 30
0.0
 10
11.9749803544
 20
6.2667264534
 30
0.0
 10
11.9562794724
 20
6.2591872705
 30
0.0
 10
11.9278409127
 20
6.2497258298
 30
0.0
 10
11.8993449249
 20
6.2423124542
 30
0.0
 10
11.8708764255
 20
6.2369735799
 30
0.0
 10
11.8425164758
 20
6.2336587074
 30
0.0
 10
11.8143322091
 20
6.2322507793
 30
0.0
 10
11.7863710472
 20
6.2325861154
 30
0.0
 10
11.7678474202
 20
6.2338504444
 30
0.0
 10
11.7586387166
 20
6.2347108299
 30
0.0
  0
SPLINE
  5
380
100
AcDbEntity
  8
0
100
AcDbSpline
 62
7
  6
CONTINUOUS
 70
0
 71
3
 72
93
 73
89
 74
0
 42
0.0000001
 43
0.0000001
 44
0.0000000001
 40
0.0
 40
0.0
 40
0.0
 40
0.0
 40
0.0039802005
 40
0.0081241083
 40
0.0124359116
 40
0.0169192331
 40
0.0215771071
 40
0.0264118291
 40
0.0314250775
 40
0.0366180274
 40
0.0419913947
 40
0.0475454967
 40
0.0532802394
 40
0.0591952227
 40
0.0652896963
 40
0.071562666
 40
0.0780128361
 40
0.0846387029
 40
0.0984099586
 40
0.1128604728
 40
0.1279709419
 40
0.1437194762
 40
0.1600818774
 40
0.1770318697
 40
0.1945412988
 40
0.2125803054
 40
0.2311174799
 40
0.2501200027
 40
0.2695537746
 40
0.2893835385
 40
0.3095729955
 40
0.3300849166
 40
0.3508812506
 40
0.3719232299
 40
0.3931714738
 40
0.4145860912
 40
0.4361267819
 40
0.4577529372
 40
0.47942374
 40
0.5010982647
 40
0.5227355766
 40
0.5442948315
 40
0.5657353757
 40
0.5870168455
 40
0.608099268
 40
0.628943162
 40
0.6495096405
 40
0.6697605141
 40
0.6896583964
 40
0.7091668111
 40
0.7282503034
 40
0.7468745548
 40
0.7650065038
 40
0.7826144744
 40
0.7996683149
 40
0.8161395488
 40
0.8320015451
 40
0.8472297111
 40
0.8618017176
 40
0.8756977675
 40
0.8823870871
 40
0.8889013284
 40
0.8952388858
 40
0.9013983901
 40
0.9073787355
 40
0.9131790737
 40
0.918798886
 40
0.9242379489
 40
0.9294964425
 40
0.9345749072
 40
0.9394743702
 40
0.9441963202
 40
0.9487428314
 40
0.9531165822
 40
0.9573209639
 40
0.9613601573
 40
0.9652392239
 40
0.9689642405
 40
0.9725423751
 40
0.9759820598
 40
0.97929305
 40
0.982486587
 40
0.9855754179
 40
0.9885738696
 40
0.9914977727
 40
0.9943643586
 40
0.997192021
 40
1.0
 40
1.0
 40
1.0
 40
1.0
 10
11.4530192219
 20
10.407540921
 30
0.0
 10
11.4515337847
 20
10.4061060987
 30
0.0
 10
11.4484343599
 20
10.4032466134
 30
0.0
 10
11.4435134378
 20
10.3990701392
 30
0.0
 10
11.4382311647
 20
10.3949236461
 30
0.0
 10
11.4325904296
 20
10.3908092885
 30
0.0
 10
11.4265939559
 20
10.3867290196
 30
0.0
 10
11.4202447182
 20
10.3826847859
 30
0.0
 10
11.413545869
 20
10.3786786009
 30
0.0
 10
11.4065007603
 20
10.374712471
 30
0.0
 10
11.399112923
 20
10.3707883467
 30
0.0
 10
11.3913860403
 20
10.3669082243
 30
0.0
 10
11.3833239996
 20
10.3630740035
 30
0.0
 10
11.3749308333
 20
10.35928767
 30
0.0
 10
11.3662107751
 20
10.3555510715
 30
0.0
 10
11.3571682007
 20
10.3518661578
 30
0.0
 10
11.3478076637
 20
10.3482347114
 30
0.0
 10
11.3347408529
 20
10.3434044375
 30
0.0
 10
11.3176384476
 20
10.337525854
 30
0.0
 10
11.2961808536
 20
10.3308011311
 30
0.0
 10
11.2735758652
 20
10.3243319685
 30
0.0
 10
11.2498691096
 20
10.3181315336
 30
0.0
 10
11.2251082729
 20
10.3122124541
 30
0.0
 10
11.1993432918
 20
10.3065867875
 30
0.0
 10
11.1726261547
 20
10.3012659938
 30
0.0
 10
11.1450108127
 20
10.2962609106
 30
0.0
 10
11.1165530571
 20
10.2915817309
 30
0.0
 10
11.0873104036
 20
10.2872379815
 30
0.0
 10
11.0573419711
 20
10.2832385044
 30
0.0
 10
11.02670836
 20
10.2795914393
 30
0.0
 10
10.9954715263
 20
10.2763042068
 30
0.0
 10
10.9636946552
 20
10.2733834943
 30
0.0
 10
10.931442031
 20
10.2708352426
 30
0.0
 10
10.8987789064
 20
10.2686646343
 30
0.0
 10
10.8657713689
 20
10.2668760834
 30
0.0
 10
10.8324862067
 20
10.265473226
 30
0.0
 10
10.7989907722
 20
10.264458914
 30
0.0
 10
10.765352845
 20
10.2638352092
 30
0.0
 10
10.7316404941
 20
10.2636033792
 30
0.0
 10
10.6979219395
 20
10.2637638953
 30
0.0
 10
10.6642654141
 20
10.2643164311
 30
0.0
 10
10.6307390243
 20
10.2652598635
 30
0.0
 10
10.5974106126
 20
10.2665922746
 30
0.0
 10
10.5643476189
 20
10.2683109559
 30
0.0
 10
10.5316169441
 20
10.2704124132
 30
0.0
 10
10.4992848133
 20
10.2728923737
 30
0.0
 10
10.4674166413
 20
10.2757457944
 30
0.0
 10
10.4360768985
 20
10.2789668714
 30
0.0
 10
10.4053289797
 20
10.282549052
 30
0.0
 10
10.3752350739
 20
10.2864850476
 30
0.0
 10
10.3458560372
 20
10.2907668481
 30
0.0
 10
10.3172512668
 20
10.2953857379
 30
0.0
 10
10.2894785788
 20
10.300332313
 30
0.0
 10
10.2625940862
 20
10.3055965001
 30
0.0
 10
10.2366520834
 20
10.311167577
 30
0.0
 10
10.211704923
 20
10.3170341951
 30
0.0
 10
10.1878029258
 20
10.3231844036
 30
0.0
 10
10.1649941855
 20
10.3296056754
 30
0.0
 10
10.1433247507
 20
10.3362849437
 30
0.0
 10
10.126039955
 20
10.3421263413
 30
0.0
 10
10.1128232365
 20
10.3469280024
 30
0.0
 10
10.1033482524
 20
10.3505395232
 30
0.0
 10
10.0941895389
 20
10.3542052056
 30
0.0
 10
10.0853517007
 20
10.3579232323
 30
0.0
 10
10.0768391825
 20
10.3616916968
 30
0.0
 10
10.0686562734
 20
10.3655087368
 30
0.0
 10
10.0608070695
 20
10.3693723823
 30
0.0
 10
10.0532955261
 20
10.37328075
 30
0.0
 10
10.046125384
 20
10.3772318197
 30
0.0
 10
10.0393002528
 20
10.3812236828
 30
0.0
 10
10.0328235155
 20
10.3852542956
 30
0.0
 10
10.0266984227
 20
10.3893217182
 30
0.0
 10
10.020928004
 20
10.3934239145
 30
0.0
 10
10.0155151403
 20
10.3975589134
 30
0.0
 10
10.0104625206
 20
10.4017247156
 30
0.0
 10
10.0057726543
 20
10.4059193288
 30
0.0
 10
10.0014479156
 20
10.4101408121
 30
0.0
 10
9.99749046
 20
10.4143871702
 30
0.0
 10
9.9939023892
 20
10.4186565231
 30
0.0
 10
9.9906855536
 20
10.4229468822
 30
0.0
 10
9.9878418379
 20
10.4272563882
 30
0.0
 10
9.9853728643
 20
10.4315830278
 30
0.0
 10
9.9832803359
 20
10.4359248458
 30
0.0
 10
9.9815656977
 20
10.4402796976
 30
0.0
 10
9.9802304084
 20
10.4446453216
 30
0.0
 10
9.9792756454
 20
10.449019377
 30
0.0
 10
9.9787023783
 20
10.4533987956
 30
0.0
 10
9.9785748138
 20
10.4563245918
 30
0.0
 10
9.978574818
 20
10.4577815952
 30
0.0
  0
SPLINE
  5
381
100
AcDbEntity
  8
0
100
AcDbSpline
 62
7
  6
CONTINUOUS
 70
0
 71
3
 72
21
 73
17
 74
0
 42
0.0000001
 43
0.0000001
 44
0.0000000001
 40
0.0
 40
0.0
 40
0.0
 40
0.0
 40
0.1273176984
 40
0.2537999461
 40
0.3167619614
 40
0.3795355204
 40
0.4421314992
 40
0.5045621453
 40
0.5668413456
 40
0.6289845231
 40
0.6910084433
 40
0.7529310869
 40
0.8147714401
 40
0.8765493236
 40
0.9382852134
 40
1.0
 40
1.0
 40
1.0
 40
1.0
 10
11.9939870394
 20
9.7398535137
 30
0.0
 10
11.9939870394
 20
9.7345562215
 30
0.0
 10
11.9934813775
 20
9.7239895787
 30
0.0
 10
11.9915716346
 20
9.7109269271
 30
0.0
 10
11.9892890869
 20
9.7006804208
 30
0.0
 10
11.9872075226
 20
9.6931225928
 30
0.0
 10
11.9847586866
 20
9.6856990636
 30
0.0
 10
11.9819482248
 20
9.6784267351
 30
0.0
 10
11.9787826169
 20
9.6713224271
 30
0.0
 10
11.9752690984
 20
9.6644025361
 30
0.0
 10
11.9714157972
 20
9.6576830132
 30
0.0
 10
11.9672315998
 20
9.6511793446
 30
0.0
 10
11.9627261153
 20
9.6449065795
 30
0.0
 10
11.9579097059
 20
9.6388791242
 30
0.0
 10
11.9527936928
 20
9.6331110467
 30
0.0
 10
11.9491904163
 20
9.6294468242
 30
0.0
 10
11.9473435379
 20
9.6276628875
 30
0.0
  0
SPLINE
  5
382
100
AcDbEntity
  8
0
100
AcDbSpline
 62
7
  6
CONTINUOUS
 70
0
 71
3
 72
21
 73
17
 74
0
 42
0.0000001
 43
0.0000001
 44
0.0000000001
 40
0.0
 40
0.0
 40
0.0
 40
0.0
 40
0.1273176984
 40
0.2537999461
 40
0.3167619614
 40
0.3795355204
 40
0.4421314992
 40
0.5045621453
 40
0.5668413456
 40
0.6289845231
 40
0.6910084433
 40
0.7529310869
 40
0.8147714401
 40
0.8765493236
 40
0.9382852134
 40
1.0
 40
1.0
 40
1.0
 40
1.0
 10
10.4243574787
 20
7.0108174539
 30
0.0
 10
10.4243574787
 20
7.0055201617
 30
0.0
 10
10.4238518167
 20
6.9949535188
 30
0.0
 10
10.4219420739
 20
6.9818908673
 30
0.0
 10
10.4196595262
 20
6.971644361
 30
0.0
 10
10.4175779618
 20
6.964086533
 30
0.0
 10
10.4151291258
 20
6.9566630038
 30
0.0
 10
10.4123186641
 20
6.9493906753
 30
0.0
 10
10.4091530562
 20
6.9422863673
 30
0.0
 10
10.4056395377
 20
6.9353664762
 30
0.0
 10
10.4017862365
 20
6.9286469534
 30
0.0
 10
10.3976020391
 20
6.9221432848
 30
0.0
 10
10.3930965546
 20
6.9158705197
 30
0.0
 10
10.3882801452
 20
6.9098430644
 30
0.0
 10
10.3831641321
 20
6.9040749869
 30
0.0
 10
10.3795608555
 20
6.9004107644
 30
0.0
 10
10.3777139771
 20
6.8986268277
 30
0.0
  0
SPLINE
  5
383
100
AcDbEntity
  8
0
100
AcDbSpline
 62
7
  6
CONTINUOUS
 70
0
 71
3
 72
9
 73
5
 74
0
 42
0.0000001
 43
0.0000001
 44
0.0000000001
 40
0.0
 40
0.0
 40
0.0
 40
0.0
 40
0.490921466
 40
1.0
 40
1.0
 40
1.0
 40
1.0
 10
10.7547128607
 20
7.7631762543
 30
0.0
 10
10.7563718858
 20
7.7614339429
 30
0.0
 10
10.7598798578
 20
7.7580056169
 30
0.0
 10
10.7636092337
 20
7.7548201993
 30
0.0
 10
10.7655574231
 20
7.7532617912
 30
0.0
  0
SPLINE
  5
384
100
AcDbEntity
  8
0
100
AcDbSpline
 62
7
  6
CONTINUOUS
 70
0
 71
3
 72
32
 73
28
 74
0
 42
0.0000001
 43
0.0000001
 44
0.0000000001
 40
0.0
 40
0.0
 40
0.0
 40
0.0
 40
0.0320848871
 40
0.0638936526
 40
0.0954286195
 40
0.1267021739
 40
0.1577293982
 40
0.1885305482
 40
0.2191291922
 40
0.2495513894
 40
0.279824665
 40
0.3099775005
 40
0.3400392059
 40
0.3700387658
 40
0.4000049596
 40
0.4299667904
 40
0.4899758869
 40
0.5503067137
 40
0.6111868079
 40
0.6728540314
 40
0.7355614501
 40
0.7995686628
 40
0.865087627
 40
0.8984308109
 40
0.9321120062
 40
0.9660282166
 40
1.0
 40
1.0
 40
1.0
 40
1.0
 10
10.7655574231
 20
7.7532617912
 30
0.0
 10
10.7659302577
 20
7.7505025947
 30
0.0
 10
10.766836596
 20
7.7450286149
 30
0.0
 10
10.768677375
 20
7.7369498228
 30
0.0
 10
10.7709781756
 20
7.7290629095
 30
0.0
 10
10.7737201854
 20
7.721390538
 30
0.0
 10
10.7768828769
 20
7.713951089
 30
0.0
 10
10.780444182
 20
7.7067595309
 30
0.0
 10
10.7843813981
 20
7.6998272527
 30
0.0
 10
10.7886717688
 20
7.6931624907
 30
0.0
 10
10.7932929952
 20
7.686770681
 30
0.0
 10
10.7982235565
 20
7.6806547687
 30
0.0
 10
10.8034430475
 20
7.6748156142
 30
0.0
 10
10.8089323601
 20
7.6692524433
 30
0.0
 10
10.8146739312
 20
7.6639629103
 30
0.0
 10
10.8226469777
 20
7.6572682352
 30
0.0
 10
10.8331855735
 20
7.6495536717
 30
0.0
 10
10.8466096865
 20
7.6413317923
 30
0.0
 10
10.8607477525
 20
7.6340914278
 30
0.0
 10
10.8755484584
 20
7.6277848695
 30
0.0
 10
10.8909820499
 20
7.6223635614
 30
0.0
 10
10.9070312082
 20
7.6177809819
 30
0.0
 10
10.9208189697
 20
7.6146432952
 30
0.0
 10
10.9321208943
 20
7.6125034956
 30
0.0
 10
10.9407639607
 20
7.6110752713
 30
0.0
 10
10.9494904647
 20
7.6098318268
 30
0.0
 10
10.9553396739
 20
7.6091253246
 30
0.0
 10
10.9582699494
 20
7.608802416
 30
0.0
  0
SPLINE
  5
385
100
AcDbEntity
  8
0
100
AcDbSpline
 62
7
  6
CONTINUOUS
 70
0
 71
3
 72
21
 73
17
 74
0
 42
0.0000001
 43
0.0000001
 44
0.0000000001
 40
0.0
 40
0.0
 40
0.0
 40
0.0
 40
0.12731758
 40
0.2538000122
 40
0.3167619425
 40
0.3795355005
 40
0.4421315041
 40
0.5045621466
 40
0.5668413435
 40
0.6289845285
 40
0.6910084568
 40
0.7529310961
 40
0.8147714484
 40
0.8765493394
 40
0.9382852242
 40
1.0
 40
1.0
 40
1.0
 40
1.0
 10
10.9628500293
 20
7.5657213327
 30
0.0
 10
10.9628500293
 20
7.5592229642
 30
0.0
 10
10.9622297138
 20
7.5462604898
 30
0.0
 10
10.9598870043
 20
7.5302360714
 30
0.0
 10
10.9570869284
 20
7.5176663152
 30
0.0
 10
10.9545334081
 20
7.5083948637
 30
0.0
 10
10.9515293837
 20
7.4992881424
 30
0.0
 10
10.9480817044
 20
7.4903669147
 30
0.0
 10
10.9441983507
 20
7.4816518074
 30
0.0
 10
10.9398882542
 20
7.4731629029
 30
0.0
 10
10.9351613014
 20
7.4649198107
 30
0.0
 10
10.9300284092
 20
7.456941526
 30
0.0
 10
10.9245014338
 20
7.4492464619
 30
0.0
 10
10.918593022
 20
7.4418523311
 30
0.0
 10
10.91231703
 20
7.4347764292
 30
0.0
 10
10.9078968278
 20
7.4302813368
 30
0.0
 10
10.9056311984
 20
7.4280929184
 30
0.0
  0
SPLINE
  5
386
100
AcDbEntity
  8
0
100
AcDbSpline
 62
7
  6
CONTINUOUS
 70
0
 71
3
 72
41
 73
37
 74
0
 42
0.0000001
 43
0.0000001
 44
0.0000000001
 40
0.0
 40
0.0
 40
0.0
 40
0.0
 40
0.0310750003
 40
0.046674464
 40
0.062312494
 40
0.0936974057
 40
0.1252262387
 40
0.1568876805
 40
0.1886675201
 40
0.2205491599
 40
0.2525139229
 40
0.268523588
 40
0.2845462912
 40
0.3166149974
 40
0.3487024468
 40
0.3807858411
 40
0.4128424624
 40
0.4448501254
 40
0.4767876212
 40
0.5086351486
 40
0.5403747235
 40
0.5719905626
 40
0.6034694315
 40
0.6348009518
 40
0.6659778585
 40
0.6969962
 40
0.7278554736
 40
0.7585586902
 40
0.7891123605
 40
0.8195263996
 40
0.849813947
 40
0.8799911023
 40
0.9100765789
 40
0.9400912834
 40
0.9700578297
 40
1.0
 40
1.0
 40
1.0
 40
1.0
 10
10.9628500293
 20
7.5657213327
 30
0.0
 10
10.9628500293
 20
7.5707721929
 30
0.0
 10
10.9625676978
 20
7.5783623675
 30
0.0
 10
10.9616352632
 20
7.5884490783
 30
0.0
 10
10.9603287315
 20
7.5985454457
 30
0.0
 10
10.95799969
 20
7.6111111389
 30
0.0
 10
10.9541148458
 20
7.6259974832
 30
0.0
 10
10.9491578932
 20
7.6406299519
 30
0.0
 10
10.9431561386
 20
7.6549278501
 30
0.0
 10
10.9361428916
 20
7.6688124598
 30
0.0
 10
10.929490177
 20
7.6799708094
 30
0.0
 10
10.9237037926
 20
7.6886169504
 30
0.0
 10
10.9176108411
 20
7.6970707048
 30
0.0
 10
10.9094443682
 20
7.7072412389
 30
0.0
 10
10.898822104
 20
7.7187407521
 30
0.0
 10
10.8874314857
 20
7.7294773861
 30
0.0
 10
10.8753352977
 20
7.7393918122
 30
0.0
 10
10.8625998428
 20
7.7484296874
 30
0.0
 10
10.8492950184
 20
7.7565413286
 30
0.0
 10
10.8354938202
 20
7.7636821492
 30
0.0
 10
10.8212719788
 20
7.7698128587
 30
0.0
 10
10.8067075407
 20
7.7748996894
 30
0.0
 10
10.7918804488
 20
7.7789145799
 30
0.0
 10
10.7768721088
 20
7.7818353319
 30
0.0
 10
10.7617649495
 20
7.7836457353
 30
0.0
 10
10.7466419755
 20
7.784335663
 30
0.0
 10
10.7315863169
 20
7.7839011332
 30
0.0
 10
10.7166807766
 20
7.7823443394
 30
0.0
 10
10.7020073773
 20
7.779673652
 30
0.0
 10
10.687646908
 20
7.7759035792
 30
0.0
 10
10.6736784845
 20
7.7710547051
 30
0.0
 10
10.660179081
 20
7.7651535602
 30
0.0
 10
10.6472231983
 20
7.7582325843
 30
0.0
 10
10.6348820686
 20
7.7503295859
 30
0.0
 10
10.6232246407
 20
7.741488907
 30
0.0
 10
10.6159485661
 20
7.7349994767
 30
0.0
 10
10.6124481373
 20
7.7316183401
 30
0.0
  0
LINE
  5
387
100
AcDbEntity
  8
0
100
AcDbLine
 62
7
  6
CONTINUOUS
 10
11.1784971365
 20
10.3056191017
 11
11.1739235364
 21
10.3016302766
  0
LINE
  5
388
100
AcDbEntity
  8
0
100
AcDbLine
 62
7
  6
CONTINUOUS
 10
10.2832353196
 20
10.301622696
 11
10.2786518404
 21
10.3056197
  0
SPLINE
  5
389
100
AcDbEntity
  8
0
100
AcDbSpline
 62
7
  6
CONTINUOUS
 70
0
 71
3
 72
18
 73
14
 74
0
 42
0.0000001
 43
0.0000001
 44
0.0000000001
 40
0.0
 40
0.0
 40
0.0
 40
0.0
 40
0.0548620116
 40
0.1099280288
 40
0.1653995063
 40
0.2214731041
 40
0.278338737
 40
0.3361775376
 40
0.455406238
 40
0.580442112
 40
0.7123345554
 40
0.8519568421
 40
1.0
 40
1.0
 40
1.0
 40
1.0
 10
11.4785748005
 20
10.4577810281
 30
0.0
 10
11.4785747975
 20
10.456721825
 30
0.0
 10
11.4785075724
 20
10.4545988712
 30
0.0
 10
11.4782052568
 20
10.4514178955
 30
0.0
 10
11.4777015838
 20
10.4482387575
 30
0.0
 10
11.4769967794
 20
10.4450626029
 30
0.0
 10
11.4760910265
 20
10.4418902532
 30
0.0
 10
11.474601269
 20
10.4376243004
 30
0.0
 10
11.472214764
 20
10.4322887065
 30
0.0
 10
11.4685823003
 20
10.4259873796
 30
0.0
 10
11.4641582038
 20
10.4197268426
 30
0.0
 10
11.4589491763
 20
10.4135133547
 30
0.0
 10
11.4550750108
 20
10.4095266608
 30
0.0
 10
11.4530192219
 20
10.407540921
 30
0.0
  0
SPLINE
  5
38A
100
AcDbEntity
  8
0
100
AcDbSpline
 62
7
  6
CONTINUOUS
 70
0
 71
3
 72
42
 73
38
 74
0
 42
0.0000001
 43
0.0000001
 44
0.0000000001
 40
0.0
 40
0.0
 40
0.0
 40
0.0
 40
0.0299419634
 40
0.0449235299
 40
0.0599142017
 40
0.0899287029
 40
0.1200139772
 40
0.1350926626
 40
0.1501967046
 40
0.1804840506
 40
0.2108978877
 40
0.2414513551
 40
0.2721543675
 40
0.3030134354
 40
0.3340315696
 40
0.3652082675
 40
0.3965395775
 40
0.4280182343
 40
0.4596338596
 40
0.4913732188
 40
0.5232205284
 40
0.5551578047
 40
0.5871652463
 40
0.6192216448
 40
0.6513048151
 40
0.6833920402
 40
0.7154605222
 40
0.747487836
 40
0.7794523759
 40
0.8113337934
 40
0.8431134117
 40
0.8747746318
 40
0.9063032512
 40
0.9376879208
 40
0.9533258
 40
0.9689252634
 40
1.0
 40
1.0
 40
1.0
 40
1.0
 10
11.7083520371
 20
9.8750877324
 30
0.0
 10
11.7112054614
 20
9.8778439119
 30
0.0
 10
11.7156537957
 20
9.881811169
 30
0.0
 10
11.7218835876
 20
9.886733671
 30
0.0
 10
11.7283117671
 20
9.8914112219
 30
0.0
 10
11.7366994844
 20
9.8967825656
 30
0.0
 10
11.7454950176
 20
9.9014809369
 30
0.0
 10
11.752749053
 20
9.9048233629
 30
0.0
 10
11.7601529355
 20
9.9078898665
 30
0.0
 10
11.769651781
 20
9.9111872245
 30
0.0
 10
11.7813576683
 20
9.9142602795
 30
0.0
 10
11.7933189799
 20
9.9164373024
 30
0.0
 10
11.8054694279
 20
9.9177062828
 30
0.0
 10
11.8177422673
 20
9.9180604486
 30
0.0
 10
11.8300699695
 20
9.9174979974
 30
0.0
 10
11.8423847786
 20
9.9160221781
 30
0.0
 10
11.8546190302
 20
9.9136412449
 30
0.0
 10
11.8667055324
 20
9.9103684115
 30
0.0
 10
11.8785779258
 20
9.9062217733
 30
0.0
 10
11.8901710445
 20
9.901224205
 30
0.0
 10
11.9014212676
 20
9.8954032335
 30
0.0
 10
11.912266864
 20
9.888790886
 30
0.0
 10
11.9226483265
 20
9.8814235143
 30
0.0
 10
11.9325086943
 20
9.8733415963
 30
0.0
 10
11.9417938614
 20
9.8645895152
 30
0.0
 10
11.9504528708
 20
9.855215318
 30
0.0
 10
11.9584381905
 20
9.8452704548
 30
0.0
 10
11.9657059725
 20
9.8348094978
 30
0.0
 10
11.972216291
 20
9.8238898488
 30
0.0
 10
11.9779333599
 20
9.8125714155
 30
0.0
 10
11.9828257274
 20
9.8009163333
 30
0.0
 10
11.9868664576
 20
9.7889884559
 30
0.0
 10
11.9900332281
 20
9.776853649
 30
0.0
 10
11.9919317773
 20
9.7666105564
 30
0.0
 10
11.9929968072
 20
9.7583803556
 30
0.0
 10
11.9937568928
 20
9.7501580305
 30
0.0
 10
11.9939870394
 20
9.7439707863
 30
0.0
 10
11.9939870394
 20
9.7398535137
 30
0.0
  0
SPLINE
  5
38B
100
AcDbEntity
  8
0
100
AcDbSpline
 62
7
  6
CONTINUOUS
 70
0
 71
3
 72
42
 73
38
 74
0
 42
0.0000001
 43
0.0000001
 44
0.0000000001
 40
0.0
 40
0.0
 40
0.0
 40
0.0
 40
0.0299419634
 40
0.0449235299
 40
0.0599142017
 40
0.0899287029
 40
0.1200139772
 40
0.1350926626
 40
0.1501967046
 40
0.1804840506
 40
0.2108978877
 40
0.2414513551
 40
0.2721543675
 40
0.3030134354
 40
0.3340315696
 40
0.3652082675
 40
0.3965395775
 40
0.4280182343
 40
0.4596338596
 40
0.4913732188
 40
0.5232205284
 40
0.5551578047
 40
0.5871652463
 40
0.6192216448
 40
0.6513048151
 40
0.6833920402
 40
0.7154605222
 40
0.747487836
 40
0.7794523759
 40
0.8113337934
 40
0.8431134117
 40
0.8747746318
 40
0.9063032512
 40
0.9376879208
 40
0.9533258
 40
0.9689252634
 40
1.0
 40
1.0
 40
1.0
 40
1.0
 10
10.1387224763
 20
7.1460516726
 30
0.0
 10
10.1415759007
 20
7.1488078521
 30
0.0
 10
10.146024235
 20
7.1527751092
 30
0.0
 10
10.1522540269
 20
7.1576976112
 30
0.0
 10
10.1586822064
 20
7.1623751621
 30
0.0
 10
10.1670699237
 20
7.1677465058
 30
0.0
 10
10.1758654568
 20
7.1724448771
 30
0.0
 10
10.1831194923
 20
7.1757873031
 30
0.0
 10
10.1905233748
 20
7.1788538067
 30
0.0
 10
10.2000222203
 20
7.1821511647
 30
0.0
 10
10.2117281076
 20
7.1852242197
 30
0.0
 10
10.2236894192
 20
7.1874012426
 30
0.0
 10
10.2358398671
 20
7.188670223
 30
0.0
 10
10.2481127066
 20
7.1890243888
 30
0.0
 10
10.2604404088
 20
7.1884619376
 30
0.0
 10
10.2727552179
 20
7.1869861183
 30
0.0
 10
10.2849894695
 20
7.1846051851
 30
0.0
 10
10.2970759717
 20
7.1813323517
 30
0.0
 10
10.3089483651
 20
7.1771857134
 30
0.0
 10
10.3205414838
 20
7.1721881452
 30
0.0
 10
10.3317917069
 20
7.1663671737
 30
0.0
 10
10.3426373033
 20
7.1597548262
 30
0.0
 10
10.3530187658
 20
7.1523874545
 30
0.0
 10
10.3628791336
 20
7.1443055365
 30
0.0
 10
10.3721643007
 20
7.1355534553
 30
0.0
 10
10.38082331
 20
7.1261792582
 30
0.0
 10
10.3888086298
 20
7.116234395
 30
0.0
 10
10.3960764118
 20
7.1057734379
 30
0.0
 10
10.4025867303
 20
7.094853789
 30
0.0
 10
10.4083037992
 20
7.0835353557
 30
0.0
 10
10.4131961667
 20
7.0718802735
 30
0.0
 10
10.4172368968
 20
7.059952396
 30
0.0
 10
10.4204036673
 20
7.0478175891
 30
0.0
 10
10.4223022166
 20
7.0375744965
 30
0.0
 10
10.4233672464
 20
7.0293442958
 30
0.0
 10
10.4241273321
 20
7.0211219707
 30
0.0
 10
10.4243574787
 20
7.0149347265
 30
0.0
 10
10.4243574787
 20
7.0108174539
 30
0.0
  0
SPLINE
  5
38C
100
AcDbEntity
  8
0
100
AcDbSpline
 62
7
  6
CONTINUOUS
 70
0
 71
3
 72
58
 73
54
 74
0
 42
0.0000001
 43
0.0000001
 44
0.0000000001
 40
0.0
 40
0.0
 40
0.0
 40
0.0
 40
0.007520766
 40
0.0156240791
 40
0.0243309607
 40
0.0336547307
 40
0.0436025742
 40
0.0541765586
 40
0.0653746103
 40
0.0771912081
 40
0.0896177744
 40
0.1026432042
 40
0.1162541598
 40
0.130435234
 40
0.1451692871
 40
0.1604375606
 40
0.1762197767
 40
0.1924943755
 40
0.2092385449
 40
0.2264283174
 40
0.244038741
 40
0.2620438758
 40
0.2991295368
 40
0.3374625458
 40
0.376808867
 40
0.4169261354
 40
0.457565783
 40
0.4984750787
 40
0.5393991485
 40
0.5800830059
 40
0.6202735617
 40
0.6597216568
 40
0.6981841228
 40
0.735425841
 40
0.771221897
 40
0.7885113271
 40
0.8053608142
 40
0.8217461976
 40
0.8376443854
 40
0.8530334766
 40
0.8678929416
 40
0.8822036335
 40
0.8959479941
 40
0.9091102597
 40
0.9216765478
 40
0.9336352027
 40
0.9449770826
 40
0.9556958582
 40
0.9657886468
 40
0.9752564583
 40
0.9841051337
 40
0.9923469125
 40
1.0
 40
1.0
 40
1.0
 40
1.0
 10
12.4121436018
 20
8.560127827
 30
0.0
 10
12.4112617276
 20
8.5612121358
 30
0.0
 10
12.4095241298
 20
8.5635425291
 30
0.0
 10
12.4070789159
 20
8.567349394
 30
0.0
 10
12.4047035066
 20
8.5715885443
 30
0.0
 10
12.4024016647
 20
8.5762530368
 30
0.0
 10
12.4001769036
 20
8.5813356304
 30
0.0
 10
12.3980327754
 20
8.5868281648
 30
0.0
 10
12.3959727617
 20
8.5927217864
 30
0.0
 10
12.3940002874
 20
8.5990069159
 30
0.0
 10
12.3921186008
 20
8.6056732673
 30
0.0
 10
12.390330848
 20
8.6127098943
 30
0.0
 10
12.3886400385
 20
8.6201052089
 30
0.0
 10
12.3870489807
 20
8.6278469974
 30
0.0
 10
12.3855603555
 20
8.6359224592
 30
0.0
 10
12.384176671
 20
8.6443182252
 30
0.0
 10
12.382900228
 20
8.6530203798
 30
0.0
 10
12.3817331854
 20
8.6620144928
 30
0.0
 10
12.3806775034
 20
8.6712856426
 30
0.0
 10
12.3797349417
 20
8.6808184355
 30
0.0
 10
12.378907083
 20
8.6905970586
 30
0.0
 10
12.3779487037
 20
8.7040740772
 30
0.0
 10
12.3770551481
 20
8.7214148235
 30
0.0
 10
12.3764670205
 20
8.7427363516
 30
0.0
 10
12.3763570712
 20
8.7646290516
 30
0.0
 10
12.3767261605
 20
8.7869475154
 30
0.0
 10
12.3775719768
 20
8.809543612
 30
0.0
 10
12.3788889855
 20
8.832267302
 30
0.0
 10
12.3806684622
 20
8.8549677007
 30
0.0
 10
12.3828985647
 20
8.8774940754
 30
0.0
 10
12.3855644252
 20
8.8996968678
 30
0.0
 10
12.3886482317
 20
8.9214286858
 30
0.0
 10
12.3921293216
 20
8.9425453647
 30
0.0
 10
12.3959843924
 20
8.9629067109
 30
0.0
 10
12.3995267111
 20
8.9793172628
 30
0.0
 10
12.4025365788
 20
8.9919609693
 30
0.0
 10
12.4048447017
 20
9.00106261
 30
0.0
 10
12.4072257541
 20
9.0098779183
 30
0.0
 10
12.4096757939
 20
9.0183922797
 30
0.0
 10
12.4121907391
 20
9.02659157
 30
0.0
 10
12.4147663728
 20
9.0344622091
 30
0.0
 10
12.4173984092
 20
9.0419911639
 30
0.0
 10
12.4200824653
 20
9.0491659828
 30
0.0
 10
12.4228140448
 20
9.0559748281
 30
0.0
 10
12.4255886199
 20
9.0624064776
 30
0.0
 10
12.4284015816
 20
9.0684503654
 30
0.0
 10
12.4312482529
 20
9.0740966131
 30
0.0
 10
12.4341239753
 20
9.079336023
 30
0.0
 10
12.4370240661
 20
9.0841601275
 30
0.0
 10
12.4399438105
 20
9.0885611869
 30
0.0
 10
12.4428787878
 20
9.0925323599
 30
0.0
 10
12.4458242594
 20
9.0960670274
 30
0.0
 10
12.4478658718
 20
9.0982061586
 30
0.0
 10
12.4488888253
 20
9.0991942559
 30
0.0
  0
SPLINE
  5
38D
100
AcDbEntity
  8
0
100
AcDbSpline
 62
7
  6
CONTINUOUS
 70
0
 71
3
 72
96
 73
92
 74
0
 42
0.0000001
 43
0.0000001
 44
0.0000000001
 40
0.0
 40
0.0
 40
0.0
 40
0.0
 40
0.0041939212
 40
0.0085762269
 40
0.0131520052
 40
0.0179255503
 40
0.0229003895
 40
0.0280791136
 40
0.0334634798
 40
0.039054619
 40
0.0448530484
 40
0.0508588136
 40
0.0570714162
 40
0.0634899855
 40
0.0701132151
 40
0.0769394762
 40
0.0911924427
 40
0.1062302232
 40
0.1220294549
 40
0.1385631627
 40
0.1558011854
 40
0.173710526
 40
0.1922556446
 40
0.2113987132
 40
0.2310998404
 40
0.2513172756
 40
0.2720075971
 40
0.2931258893
 40
0.3146259101
 40
0.3364602548
 40
0.358580515
 40
0.380937433
 40
0.4034810543
 40
0.4261608786
 40
0.4489260088
 40
0.4717253002
 40
0.4945075089
 40
0.5172214402
 40
0.5398160978
 40
0.5622408322
 40
0.5844454903
 40
0.6063805658
 40
0.6279973504
 40
0.649248088
 40
0.6700861315
 40
0.6904661036
 40
0.7103440641
 40
0.7296776851
 40
0.7484264339
 40
0.7665517712
 40
0.7840173684
 40
0.8007893512
 40
0.8168365781
 40
0.8321309695
 40
0.8466479033
 40
0.8536084389
 40
0.8603672363
 40
0.8669224108
 40
0.8732724521
 40
0.8794161948
 40
0.8853528766
 40
0.891082198
 40
0.8966043145
 40
0.9019199826
 40
0.9070305141
 40
0.9119379754
 40
0.9166451634
 40
0.9211558052
 40
0.925474617
 40
0.9296074706
 40
0.9335615598
 40
0.9373455271
 40
0.9409697129
 40
0.9444462457
 40
0.9477892864
 40
0.9510150553
 40
0.9541419228
 40
0.9571902809
 40
0.9601823275
 40
0.9631416685
 40
0.9660927703
 40
0.969060322
 40
0.9720685748
 40
0.9751407156
 40
0.9782983924
 40
0.981561316
 40
0.9849471178
 40
0.9884713701
 40
0.9921476423
 40
0.9959874147
 40
1.0
 40
1.0
 40
1.0
 40
1.0
 10
10.2774874422
 20
10.3692895192
 30
0.0
 10
10.2784982996
 20
10.3702659325
 30
0.0
 10
10.2806156862
 20
10.3722110979
 30
0.0
 10
10.2839926749
 20
10.3750451634
 30
0.0
 10
10.2876370054
 20
10.3778567024
 30
0.0
 10
10.2915463098
 20
10.3806439753
 30
0.0
 10
10.2957183413
 20
10.3834054244
 30
0.0
 10
10.3001506549
 20
10.3861394745
 30
0.0
 10
10.3048406289
 20
10.3888445351
 30
0.0
 10
10.3097854864
 20
10.391518961
 30
0.0
 10
10.3149822688
 20
10.3941612172
 30
0.0
 10
10.3204279035
 20
10.3967696756
 30
0.0
 10
10.3261191273
 20
10.3993428365
 30
0.0
 10
10.3320525525
 20
10.4018790999
 30
0.0
 10
10.3382246276
 20
10.4043770062
 30
0.0
 10
10.3468924682
 20
10.4077022624
 30
0.0
 10
10.3583041279
 20
10.4117418184
 30
0.0
 10
10.3726978476
 20
10.4163458435
 30
0.0
 10
10.3879473975
 20
10.4207624649
 30
0.0
 10
10.4040161883
 20
10.4249809807
 30
0.0
 10
10.4208658004
 20
10.4289911549
 30
0.0
 10
10.4384558214
 20
10.4327832552
 30
0.0
 10
10.4567440342
 20
10.4363480777
 30
0.0
 10
10.475686505
 20
10.4396769719
 30
0.0
 10
10.4952377024
 20
10.4427618616
 30
0.0
 10
10.5153506103
 20
10.4455952646
 30
0.0
 10
10.5359768453
 20
10.4481703105
 30
0.0
 10
10.5570667759
 20
10.4504807568
 30
0.0
 10
10.578569644
 20
10.4525210049
 30
0.0
 10
10.6004336897
 20
10.4542861122
 30
0.0
 10
10.6226062779
 20
10.4557718034
 30
0.0
 10
10.6450340263
 20
10.4569744807
 30
0.0
 10
10.6676629352
 20
10.4578912317
 30
0.0
 10
10.6904385178
 20
10.4585198367
 30
0.0
 10
10.7133059323
 20
10.4588587733
 30
0.0
 10
10.7362101146
 20
10.4589072207
 30
0.0
 10
10.7590959111
 20
10.4586650608
 30
0.0
 10
10.7819082128
 20
10.4581328801
 30
0.0
 10
10.8045920887
 20
10.4573119676
 30
0.0
 10
10.8270929188
 20
10.4562043113
 30
0.0
 10
10.8493565267
 20
10.4548125937
 30
0.0
 10
10.8713293098
 20
10.4531401852
 30
0.0
 10
10.8929583703
 20
10.4511911365
 30
0.0
 10
10.9141916429
 20
10.4489701693
 30
0.0
 10
10.9349780216
 20
10.4464826648
 30
0.0
 10
10.9552674848
 20
10.4437346515
 30
0.0
 10
10.9750112188
 20
10.4407327915
 30
0.0
 10
10.9941617383
 20
10.4374843655
 30
0.0
 10
11.0126730045
 20
10.433997254
 30
0.0
 10
11.0305005385
 20
10.4302799185
 30
0.0
 10
11.0476015405
 20
10.4263413812
 30
0.0
 10
11.0639349801
 20
10.4221912009
 30
0.0
 10
11.0794617797
 20
10.4178394509
 30
0.0
 10
11.0941446661
 20
10.413296675
 30
0.0
 10
11.105805953
 20
10.4093071371
 30
0.0
 10
11.1146793963
 20
10.4060202279
 30
0.0
 10
11.121008533
 20
10.4035487684
 30
0.0
 10
11.1271014601
 20
10.4010379164
 30
0.0
 10
11.1329545433
 20
10.3984891812
 30
0.0
 10
11.1385642806
 20
10.3959040902
 30
0.0
 10
11.1439273193
 20
10.3932841788
 30
0.0
 10
11.1490404729
 20
10.3906310411
 30
0.0
 10
11.1539006825
 20
10.38794621
 30
0.0
 10
11.158505085
 20
10.3852313331
 30
0.0
 10
11.1628509261
 20
10.3824879463
 30
0.0
 10
11.1669356645
 20
10.3797177129
 30
0.0
 10
11.1707568656
 20
10.3769221863
 30
0.0
 10
11.1743122936
 20
10.374102999
 30
0.0
 10
11.177599844
 20
10.3712617268
 30
0.0
 10
11.1806175558
 20
10.3683999347
 30
0.0
 10
11.1833636443
 20
10.3655192089
 30
0.0
 10
11.1858363752
 20
10.3626210368
 30
0.0
 10
11.1880342331
 20
10.3597069994
 30
0.0
 10
11.1899556517
 20
10.3567785523
 30
0.0
 10
11.1915992895
 20
10.3538372971
 30
0.0
 10
11.1929637187
 20
10.3508847943
 30
0.0
 10
11.1940477059
 20
10.3479227962
 30
0.0
 10
11.1948500559
 20
10.3449531762
 30
0.0
 10
11.1953697691
 20
10.341978026
 30
0.0
 10
11.195606183
 20
10.3389996332
 30
0.0
 10
11.1955588716
 20
10.3360204188
 30
0.0
 10
11.1952280127
 20
10.3330428399
 30
0.0
 10
11.1946139645
 20
10.3300692955
 30
0.0
 10
11.1937176467
 20
10.3271019829
 30
0.0
 10
11.1925400213
 20
10.3241429537
 30
0.0
 10
11.1910823874
 20
10.3211940207
 30
0.0
 10
11.1893460324
 20
10.318256867
 30
0.0
 10
11.1873323035
 20
10.3153330536
 30
0.0
 10
11.1850426019
 20
10.3124240605
 30
0.0
 10
11.1824785872
 20
10.3095316057
 30
0.0
 10
11.1806293264
 20
10.3076576843
 30
0.0
 10
11.1796621762
 20
10.3067234889
 30
0.0
  0
SPLINE
  5
38E
100
AcDbEntity
  8
0
100
AcDbSpline
 62
7
  6
CONTINUOUS
 70
0
 71
3
 72
21
 73
17
 74
0
 42
0.0000001
 43
0.0000001
 44
0.0000000001
 40
0.0
 40
0.0
 40
0.0
 40
0.0
 40
0.1273176984
 40
0.2537999461
 40
0.3167619614
 40
0.3795355204
 40
0.4421314992
 40
0.5045621453
 40
0.5668413456
 40
0.6289845231
 40
0.6910084433
 40
0.7529310869
 40
0.8147714401
 40
0.8765493236
 40
0.9382852134
 40
1.0
 40
1.0
 40
1.0
 40
1.0
 10
10.0920789748
 20
7.0338610464
 30
0.0
 10
10.0920789748
 20
7.0391583386
 30
0.0
 10
10.0925846367
 20
7.0497249814
 30
0.0
 10
10.0944943796
 20
7.062787633
 30
0.0
 10
10.0967769273
 20
7.0730341392
 30
0.0
 10
10.0988584916
 20
7.0805919673
 30
0.0
 10
10.1013073276
 20
7.0880154965
 30
0.0
 10
10.1041177894
 20
7.095287825
 30
0.0
 10
10.1072833973
 20
7.1023921329
 30
0.0
 10
10.1107969158
 20
7.109312024
 30
0.0
 10
10.114650217
 20
7.1160315469
 30
0.0
 10
10.1188344143
 20
7.1225352155
 30
0.0
 10
10.1233398989
 20
7.1288079806
 30
0.0
 10
10.1281563083
 20
7.1348354359
 30
0.0
 10
10.1332723214
 20
7.1406035134
 30
0.0
 10
10.1368755979
 20
7.1442677359
 30
0.0
 10
10.1387224763
 20
7.1460516726
 30
0.0
  0
SPLINE
  5
38F
100
AcDbEntity
  8
0
100
AcDbSpline
 62
7
  6
CONTINUOUS
 70
0
 71
3
 72
41
 73
37
 74
0
 42
0.0000001
 43
0.0000001
 44
0.0000000001
 40
0.0
 40
0.0
 40
0.0
 40
0.0
 40
0.0299421703
 40
0.0599087166
 40
0.0899234211
 40
0.1200088977
 40
0.150186053
 40
0.1804736004
 40
0.2108876395
 40
0.2414413098
 40
0.2721445264
 40
0.3030038
 40
0.3340221415
 40
0.3651990482
 40
0.3965305685
 40
0.4280094374
 40
0.4596252765
 40
0.4913648514
 40
0.5232123788
 40
0.5551498746
 40
0.5871575376
 40
0.6192141589
 40
0.6512975532
 40
0.6833850026
 40
0.7154537088
 40
0.731476412
 40
0.7474860771
 40
0.7794508401
 40
0.8113324799
 40
0.8431123195
 40
0.8747737613
 40
0.9063025943
 40
0.937687506
 40
0.953325536
 40
0.9689249997
 40
1.0
 40
1.0
 40
1.0
 40
1.0
 10
10.9056311984
 20
7.4280929184
 30
0.0
 10
10.9021307696
 20
7.4247117818
 30
0.0
 10
10.8948546951
 20
7.4182223515
 30
0.0
 10
10.8831972672
 20
7.4093816726
 30
0.0
 10
10.8708561375
 20
7.4014786742
 30
0.0
 10
10.8579002547
 20
7.3945576982
 30
0.0
 10
10.8444008512
 20
7.3886565534
 30
0.0
 10
10.8304324278
 20
7.3838076793
 30
0.0
 10
10.8160719585
 20
7.3800376065
 30
0.0
 10
10.8013985591
 20
7.3773669191
 30
0.0
 10
10.7864930188
 20
7.3758101253
 30
0.0
 10
10.7714373603
 20
7.3753755954
 30
0.0
 10
10.7563143862
 20
7.3760655232
 30
0.0
 10
10.7412072269
 20
7.3778759266
 30
0.0
 10
10.726198887
 20
7.3807966785
 30
0.0
 10
10.711371795
 20
7.3848115691
 30
0.0
 10
10.6968073569
 20
7.3898983998
 30
0.0
 10
10.6825855155
 20
7.3960291093
 30
0.0
 10
10.6687843174
 20
7.4031699299
 30
0.0
 10
10.6554794929
 20
7.4112815711
 30
0.0
 10
10.6427440381
 20
7.4203194463
 30
0.0
 10
10.63064785
 20
7.4302338724
 30
0.0
 10
10.6192572317
 20
7.4409705064
 30
0.0
 10
10.6086349675
 20
7.4524700196
 30
0.0
 10
10.6004684946
 20
7.4626405537
 30
0.0
 10
10.5943755432
 20
7.4710943081
 30
0.0
 10
10.5885891587
 20
7.4797404491
 30
0.0
 10
10.5819364441
 20
7.4908987987
 30
0.0
 10
10.5749231972
 20
7.5047834084
 30
0.0
 10
10.5689214426
 20
7.5190813066
 30
0.0
 10
10.5639644899
 20
7.5337137753
 30
0.0
 10
10.5600796458
 20
7.5486001196
 30
0.0
 10
10.5577506042
 20
7.5611658128
 30
0.0
 10
10.5564440725
 20
7.5712621802
 30
0.0
 10
10.555511638
 20
7.581348891
 30
0.0
 10
10.5552293064
 20
7.5889390656
 30
0.0
 10
10.5552293064
 20
7.5939899258
 30
0.0
  0
SPLINE
  5
390
100
AcDbEntity
  8
0
100
AcDbSpline
 62
7
  6
CONTINUOUS
 70
0
 71
3
 72
39
 73
35
 74
0
 42
0.0000001
 43
0.0000001
 44
0.0000000001
 40
0.0
 40
0.0
 40
0.0
 40
0.0
 40
0.0302093221
 40
0.0605322915
 40
0.090974138
 40
0.1215384125
 40
0.1522269562
 40
0.1830398961
 40
0.2139756651
 40
0.2450310444
 40
0.2762012242
 40
0.3074798843
 40
0.3388592918
 40
0.3703304138
 40
0.4018830447
 40
0.4335059469
 40
0.4651869992
 40
0.4969133533
 40
0.5286715966
 40
0.56044792
 40
0.5922282891
 40
0.6239986198
 40
0.6557449531
 40
0.6874536283
 40
0.7191114526
 40
0.750705868
 40
0.7822251096
 40
0.8136583604
 40
0.8449959067
 40
0.8762292136
 40
0.9073512899
 40
0.9383559868
 40
0.9692402514
 40
1.0
 40
1.0
 40
1.0
 40
1.0
 10
10.9556219372
 20
7.5123350691
 30
0.0
 10
10.9518192255
 20
7.5114123492
 30
0.0
 10
10.9441413055
 20
7.5097946314
 30
0.0
 10
10.9324784756
 20
7.5080626326
 30
0.0
 10
10.9206868572
 20
7.507026231
 30
0.0
 10
10.9088074147
 20
7.5066890528
 30
0.0
 10
10.896880698
 20
7.5070521636
 30
0.0
 10
10.8849475989
 20
7.5081142655
 30
0.0
 10
10.8730489693
 20
7.509871659
 30
0.0
 10
10.8612255474
 20
7.5123182726
 30
0.0
 10
10.8495178029
 20
7.5154456807
 30
0.0
 10
10.8379658042
 20
7.5192431345
 30
0.0
 10
10.8266090824
 20
7.5236975987
 30
0.0
 10
10.8154864982
 20
7.5287937964
 30
0.0
 10
10.8046361036
 20
7.5345142503
 30
0.0
 10
10.7940950171
 20
7.5408393551
 30
0.0
 10
10.7838992984
 20
7.5477474437
 30
0.0
 10
10.774083826
 20
7.5552148617
 30
0.0
 10
10.7646821799
 20
7.5632160472
 30
0.0
 10
10.7557265275
 20
7.5717236175
 30
0.0
 10
10.7472475147
 20
7.5807084619
 30
0.0
 10
10.7392741523
 20
7.5901398328
 30
0.0
 10
10.7318337256
 20
7.5999854592
 30
0.0
 10
10.7249517014
 20
7.610211657
 30
0.0
 10
10.7186516423
 20
7.6207834422
 30
0.0
 10
10.7129551267
 20
7.6316646495
 30
0.0
 10
10.7078816754
 20
7.6428180544
 30
0.0
 10
10.7034486827
 20
7.6542055008
 30
0.0
 10
10.699671357
 20
7.6657880186
 30
0.0
 10
10.6965626379
 20
7.677525994
 30
0.0
 10
10.6941332639
 20
7.689379183
 30
0.0
 10
10.6923914921
 20
7.7013072462
 30
0.0
 10
10.6913434882
 20
7.7132687063
 30
0.0
 10
10.691109193
 20
7.721255469
 30
0.0
 10
10.691109193
 20
7.7252398253
 30
0.0
  0
SPLINE
  5
391
100
AcDbEntity
  8
0
100
AcDbSpline
 62
7
  6
CONTINUOUS
 70
0
 71
3
 72
21
 73
17
 74
0
 42
0.0000001
 43
0.0000001
 44
0.0000000001
 40
0.0
 40
0.0
 40
0.0
 40
0.0
 40
0.0617147758
 40
0.1234506606
 40
0.1852285516
 40
0.2470689039
 40
0.3089915432
 40
0.3710154715
 40
0.4331586565
 40
0.4954378534
 40
0.5578684959
 40
0.6204644995
 40
0.6832380575
 40
0.7461999878
 40
0.87268242
 40
1.0
 40
1.0
 40
1.0
 40
1.0
 10
10.6124481373
 20
7.7316183401
 30
0.0
 10
10.6101825079
 20
7.7294299217
 30
0.0
 10
10.6057623057
 20
7.7249348293
 30
0.0
 10
10.5994863137
 20
7.7178589274
 30
0.0
 10
10.5935779019
 20
7.7104647966
 30
0.0
 10
10.5880509265
 20
7.7027697325
 30
0.0
 10
10.5829180343
 20
7.6947914478
 30
0.0
 10
10.5781910815
 20
7.6865483556
 30
0.0
 10
10.573880985
 20
7.6780594511
 30
0.0
 10
10.5699976314
 20
7.6693443438
 30
0.0
 10
10.566549952
 20
7.660423116
 30
0.0
 10
10.5635459277
 20
7.6513163948
 30
0.0
 10
10.5609924074
 20
7.6420449433
 30
0.0
 10
10.5581923315
 20
7.6294751871
 30
0.0
 10
10.5558496219
 20
7.6134507687
 30
0.0
 10
10.5552293064
 20
7.6004882943
 30
0.0
 10
10.5552293064
 20
7.5939899258
 30
0.0
  0
SPLINE
  5
392
100
AcDbEntity
  8
0
100
AcDbSpline
 62
7
  6
CONTINUOUS
 70
0
 71
3
 72
11
 73
7
 74
0
 42
0.0000001
 43
0.0000001
 44
0.0000000001
 40
0.0
 40
0.0
 40
0.0
 40
0.0
 40
0.2483429646
 40
0.4977591531
 40
0.7483015582
 40
1.0
 40
1.0
 40
1.0
 40
1.0
 10
10.6983345703
 20
7.7785254252
 30
0.0
 10
10.6971352676
 20
7.7742252396
 30
0.0
 10
10.6950296228
 20
7.7655200406
 30
0.0
 10
10.6927694086
 20
7.752249353
 30
0.0
 10
10.6914100543
 20
7.7387958433
 30
0.0
 10
10.691109193
 20
7.7297644387
 30
0.0
 10
10.691109193
 20
7.7252398253
 30
0.0
  0
SPLINE
  5
393
100
AcDbEntity
  8
0
100
AcDbSpline
 62
7
  6
CONTINUOUS
 70
0
 71
3
 72
39
 73
35
 74
0
 42
0.0000001
 43
0.0000001
 44
0.0000000001
 40
0.0
 40
0.0
 40
0.0
 40
0.0
 40
0.0301456692
 40
0.060402308
 40
0.0907768908
 40
0.1212746161
 40
0.1518988489
 40
0.1826510963
 40
0.2135310084
 40
0.2445364065
 40
0.275663335
 40
0.3069061375
 40
0.3382575532
 40
0.3697088332
 40
0.4012498747
 40
0.4328693697
 40
0.4645549648
 40
0.4962934309
 40
0.5280708416
 40
0.5598727587
 40
0.5916844224
 40
0.6234909461
 40
0.6552775116
 40
0.6870295621
 40
0.7187329932
 40
0.7503743401
 40
0.7819409572
 40
0.8134211918
 40
0.844804561
 40
0.8760818397
 40
0.9072454511
 40
0.9382887641
 40
0.9692083828
 40
1.0
 40
1.0
 40
1.0
 40
1.0
 10
10.9612240951
 20
7.5402655251
 30
0.0
 10
10.9578125451
 20
7.5392410847
 30
0.0
 10
10.9509104807
 20
7.5374026914
 30
0.0
 10
10.9403874003
 20
7.5352911886
 30
0.0
 10
10.9297124334
 20
7.533827948
 30
0.0
 10
10.9189247469
 20
7.5330183735
 30
0.0
 10
10.9080632315
 20
7.5328652845
 30
0.0
 10
10.8971672145
 20
7.5333691823
 30
0.0
 10
10.8862760872
 20
7.534528181
 30
0.0
 10
10.8754292266
 20
7.5363380346
 30
0.0
 10
10.8646658377
 20
7.5387921485
 30
0.0
 10
10.8540248177
 20
7.5418816062
 30
0.0
 10
10.8435446166
 20
7.5455952026
 30
0.0
 10
10.8332630969
 20
7.5499194759
 30
0.0
 10
10.8232173974
 20
7.5548387616
 30
0.0
 10
10.8134438027
 20
7.5603352542
 30
0.0
 10
10.803977613
 20
7.5663890703
 30
0.0
 10
10.7948530185
 20
7.5729783204
 30
0.0
 10
10.7861029768
 20
7.5800791868
 30
0.0
 10
10.7777590967
 20
7.5876660105
 30
0.0
 10
10.7698515195
 20
7.5957113774
 30
0.0
 10
10.7624088093
 20
7.6041862173
 30
0.0
 10
10.7554578561
 20
7.6130599143
 30
0.0
 10
10.7490237783
 20
7.6223004153
 30
0.0
 10
10.7431298338
 20
7.6318743448
 30
0.0
 10
10.7377973356
 20
7.641747124
 30
0.0
 10
10.7330455769
 20
7.6518830945
 30
0.0
 10
10.7288917557
 20
7.6622456452
 30
0.0
 10
10.7253509178
 20
7.6727973356
 30
0.0
 10
10.7224358713
 20
7.6835000641
 30
0.0
 10
10.7201572466
 20
7.6943150907
 30
0.0
 10
10.7185232263
 20
7.7052035505
 30
0.0
 10
10.7175399119
 20
7.7161254735
 30
0.0
 10
10.7173200356
 20
7.7234191876
 30
0.0
 10
10.7173200356
 20
7.7270575566
 30
0.0
  0
SPLINE
  5
394
100
AcDbEntity
  8
0
100
AcDbSpline
 62
7
  6
CONTINUOUS
 70
0
 71
3
 72
42
 73
38
 74
0
 42
0.0000001
 43
0.0000001
 44
0.0000000001
 40
0.0
 40
0.0
 40
0.0
 40
0.0
 40
0.0299419634
 40
0.0449235299
 40
0.0599142017
 40
0.0899287029
 40
0.1200139772
 40
0.1350926626
 40
0.1501967046
 40
0.1804840506
 40
0.2108978877
 40
0.2414513551
 40
0.2721543675
 40
0.3030134354
 40
0.3340315696
 40
0.3652082675
 40
0.3965395775
 40
0.4280182343
 40
0.4596338596
 40
0.4913732188
 40
0.5232205284
 40
0.5551578047
 40
0.5871652463
 40
0.6192216448
 40
0.6513048151
 40
0.6833920402
 40
0.7154605222
 40
0.747487836
 40
0.7794523759
 40
0.8113337934
 40
0.8431134117
 40
0.8747746318
 40
0.9063032512
 40
0.9376879208
 40
0.9533258
 40
0.9689252634
 40
1.0
 40
1.0
 40
1.0
 40
1.0
 10
11.9473435379
 20
9.6276628875
 30
0.0
 10
11.9444901135
 20
9.624906708
 30
0.0
 10
11.9400417792
 20
9.6209394509
 30
0.0
 10
11.9338119873
 20
9.6160169489
 30
0.0
 10
11.9273838078
 20
9.611339398
 30
0.0
 10
11.9189960905
 20
9.6059680543
 30
0.0
 10
11.9102005573
 20
9.601269683
 30
0.0
 10
11.9029465219
 20
9.597927257
 30
0.0
 10
11.8955426394
 20
9.5948607534
 30
0.0
 10
11.8860437939
 20
9.5915633954
 30
0.0
 10
11.8743379066
 20
9.5884903404
 30
0.0
 10
11.862376595
 20
9.5863133175
 30
0.0
 10
11.850226147
 20
9.5850443371
 30
0.0
 10
11.8379533076
 20
9.5846901713
 30
0.0
 10
11.8256256054
 20
9.5852526225
 30
0.0
 10
11.8133107963
 20
9.5867284418
 30
0.0
 10
11.8010765447
 20
9.589109375
 30
0.0
 10
11.7889900425
 20
9.5923822084
 30
0.0
 10
11.7771176491
 20
9.5965288466
 30
0.0
 10
11.7655245304
 20
9.6015264149
 30
0.0
 10
11.7542743073
 20
9.6073473864
 30
0.0
 10
11.7434287109
 20
9.6139597339
 30
0.0
 10
11.7330472484
 20
9.6213271056
 30
0.0
 10
11.7231868806
 20
9.6294090236
 30
0.0
 10
11.7139017135
 20
9.6381611047
 30
0.0
 10
11.7052427041
 20
9.6475353019
 30
0.0
 10
11.6972573844
 20
9.6574801651
 30
0.0
 10
11.6899896024
 20
9.6679411221
 30
0.0
 10
11.6834792839
 20
9.6788607711
 30
0.0
 10
11.677762215
 20
9.6901792044
 30
0.0
 10
11.6728698475
 20
9.7018342866
 30
0.0
 10
11.6688291173
 20
9.713762164
 30
0.0
 10
11.6656623468
 20
9.7258969709
 30
0.0
 10
11.6637637976
 20
9.7361400636
 30
0.0
 10
11.6626987678
 20
9.7443702643
 30
0.0
 10
11.6619386821
 20
9.7525925894
 30
0.0
 10
11.6617085355
 20
9.7587798336
 30
0.0
 10
11.6617085355
 20
9.7628971062
 30
0.0
  0
SPLINE
  5
395
100
AcDbEntity
  8
0
100
AcDbSpline
 62
7
  6
CONTINUOUS
 70
0
 71
3
 72
42
 73
38
 74
0
 42
0.0000001
 43
0.0000001
 44
0.0000000001
 40
0.0
 40
0.0
 40
0.0
 40
0.0
 40
0.0299419634
 40
0.0449235299
 40
0.0599142017
 40
0.0899287029
 40
0.1200139772
 40
0.1350926626
 40
0.1501967046
 40
0.1804840506
 40
0.2108978877
 40
0.2414513551
 40
0.2721543675
 40
0.3030134354
 40
0.3340315696
 40
0.3652082675
 40
0.3965395775
 40
0.4280182343
 40
0.4596338596
 40
0.4913732188
 40
0.5232205284
 40
0.5551578047
 40
0.5871652463
 40
0.6192216448
 40
0.6513048151
 40
0.6833920402
 40
0.7154605222
 40
0.747487836
 40
0.7794523759
 40
0.8113337934
 40
0.8431134117
 40
0.8747746318
 40
0.9063032512
 40
0.9376879208
 40
0.9533258
 40
0.9689252634
 40
1.0
 40
1.0
 40
1.0
 40
1.0
 10
10.3777139771
 20
6.8986268277
 30
0.0
 10
10.3748605528
 20
6.8958706482
 30
0.0
 10
10.3704122185
 20
6.8919033911
 30
0.0
 10
10.3641824266
 20
6.8869808891
 30
0.0
 10
10.3577542471
 20
6.8823033382
 30
0.0
 10
10.3493665298
 20
6.8769319945
 30
0.0
 10
10.3405709966
 20
6.8722336232
 30
0.0
 10
10.3333169612
 20
6.8688911972
 30
0.0
 10
10.3259130787
 20
6.8658246936
 30
0.0
 10
10.3164142332
 20
6.8625273356
 30
0.0
 10
10.3047083459
 20
6.8594542806
 30
0.0
 10
10.2927470343
 20
6.8572772577
 30
0.0
 10
10.2805965863
 20
6.8560082773
 30
0.0
 10
10.2683237469
 20
6.8556541114
 30
0.0
 10
10.2559960447
 20
6.8562165627
 30
0.0
 10
10.2436812356
 20
6.857692382
 30
0.0
 10
10.231446984
 20
6.8600733152
 30
0.0
 10
10.2193604818
 20
6.8633461486
 30
0.0
 10
10.2074880883
 20
6.8674927868
 30
0.0
 10
10.1958949697
 20
6.8724903551
 30
0.0
 10
10.1846447466
 20
6.8783113266
 30
0.0
 10
10.1737991502
 20
6.8849236741
 30
0.0
 10
10.1634176877
 20
6.8922910458
 30
0.0
 10
10.1535573199
 20
6.9003729638
 30
0.0
 10
10.1442721528
 20
6.9091250449
 30
0.0
 10
10.1356131434
 20
6.918499242
 30
0.0
 10
10.1276278237
 20
6.9284441053
 30
0.0
 10
10.1203600417
 20
6.9389050623
 30
0.0
 10
10.1138497232
 20
6.9498247113
 30
0.0
 10
10.1081326542
 20
6.9611431445
 30
0.0
 10
10.1032402867
 20
6.9727982268
 30
0.0
 10
10.0991995566
 20
6.9847261042
 30
0.0
 10
10.0960327861
 20
6.9968609111
 30
0.0
 10
10.0941342368
 20
7.0071040037
 30
0.0
 10
10.093069207
 20
7.0153342045
 30
0.0
 10
10.0923091214
 20
7.0235565295
 30
0.0
 10
10.0920789748
 20
7.0297437738
 30
0.0
 10
10.0920789748
 20
7.0338610464
 30
0.0
  0
SPLINE
  5
396
100
AcDbEntity
  8
0
100
AcDbSpline
 62
7
  6
CONTINUOUS
 70
0
 71
3
 72
28
 73
24
 74
0
 42
0.0000001
 43
0.0000001
 44
0.0000000001
 40
0.0
 40
0.0
 40
0.0
 40
0.0
 40
0.0749525414
 40
0.1455492598
 40
0.2121319828
 40
0.2751267504
 40
0.3350537751
 40
0.3925311517
 40
0.4205831712
 40
0.4482964194
 40
0.4757713564
 40
0.5031112904
 40
0.5304212607
 40
0.5578066529
 40
0.585371914
 40
0.6132193169
 40
0.6414476915
 40
0.6701515776
 40
0.7293157133
 40
0.7913812221
 40
0.8568968201
 40
0.9263175734
 40
1.0
 40
1.0
 40
1.0
 40
1.0
 10
10.2786518404
 20
10.3056197
 30
0.0
 10
10.2773033034
 20
10.3068746501
 30
0.0
 10
10.2747593564
 20
10.3093941439
 30
0.0
 10
10.27132678
 20
10.3133249175
 30
0.0
 10
10.2683997068
 20
10.3172868004
 30
0.0
 10
10.2659824596
 20
10.3212764751
 30
0.0
 10
10.2640791786
 20
10.3252899598
 30
0.0
 10
10.262915374
 20
10.3286795989
 30
0.0
 10
10.2622545193
 20
10.3313847445
 30
0.0
 10
10.2618925039
 20
10.3333996819
 30
0.0
 10
10.2616604389
 20
10.3354160504
 30
0.0
 10
10.2615584286
 20
10.3374332758
 30
0.0
 10
10.2615865267
 20
10.3394506829
 30
0.0
 10
10.2617446811
 20
10.3414676206
 30
0.0
 10
10.2620328451
 20
10.3434834421
 30
0.0
 10
10.2624509046
 20
10.3454974891
 30
0.0
 10
10.2629986726
 20
10.347509204
 30
0.0
 10
10.2639106366
 20
10.3502143706
 30
0.0
 10
10.2653892821
 20
10.3535986358
 30
0.0
 10
10.2676608234
 20
10.3575951943
 30
0.0
 10
10.2704434985
 20
10.3615654528
 30
0.0
 10
10.2737328554
 20
10.3655052901
 30
0.0
 10
10.2761849324
 20
10.3680313912
 30
0.0
 10
10.2774874422
 20
10.3692895192
 30
0.0
  0
SPLINE
  5
397
100
AcDbEntity
  8
0
100
AcDbSpline
 62
7
  6
CONTINUOUS
 70
0
 71
3
 72
11
 73
7
 74
0
 42
0.0000001
 43
0.0000001
 44
0.0000000001
 40
0.0
 40
0.0
 40
0.0
 40
0.0
 40
0.2520074767
 40
0.5026329171
 40
0.7519354304
 40
1.0
 40
1.0
 40
1.0
 40
1.0
 10
10.7173200356
 20
7.7270575566
 30
0.0
 10
10.7173200356
 20
7.7318596387
 30
0.0
 10
10.7177013327
 20
7.741441977
 30
0.0
 10
10.7194250594
 20
7.7556815922
 30
0.0
 10
10.7222877361
 20
7.7696600834
 30
0.0
 10
10.7249507923
 20
7.7787690611
 30
0.0
 10
10.7264651156
 20
7.7832468809
 30
0.0
  0
SPLINE
  5
398
100
AcDbEntity
  8
0
100
AcDbSpline
 62
7
  6
CONTINUOUS
 70
0
 71
3
 72
18
 73
14
 74
0
 42
0.0000001
 43
0.0000001
 44
0.0000000001
 40
0.0
 40
0.0
 40
0.0
 40
0.0
 40
0.0548626505
 40
0.1099292212
 40
0.1654012836
 40
0.2214755222
 40
0.3361333874
 40
0.4553634688
 40
0.517104949
 40
0.58043661
 40
0.7123312106
 40
0.8519577725
 40
1.0
 40
1.0
 40
1.0
 40
1.0
 10
10.2980748211
 20
10.3027502299
 30
0.0
 10
10.2980748227
 20
10.3033582159
 30
0.0
 10
10.2981134088
 20
10.3045767986
 30
0.0
 10
10.298286898
 20
10.3064026817
 30
0.0
 10
10.2985760317
 20
10.3082275481
 30
0.0
 10
10.2991193222
 20
10.3106761137
 30
0.0
 10
10.3000980774
 20
10.3137450111
 30
0.0
 10
10.3014385787
 20
10.3167414572
 30
0.0
 10
10.3027284507
 20
10.3191228161
 30
0.0
 10
10.3042054102
 20
10.32155875
 30
0.0
 10
10.3063499862
 20
10.3245935863
 30
0.0
 10
10.3093399169
 20
10.3281599918
 30
0.0
 10
10.3115637082
 20
10.3304484137
 30
0.0
 10
10.3127437164
 20
10.3315882142
 30
0.0
  0
SPLINE
  5
399
100
AcDbEntity
  8
0
100
AcDbSpline
 62
7
  6
CONTINUOUS
 70
0
 71
3
 72
93
 73
89
 74
0
 42
0.0000001
 43
0.0000001
 44
0.0000000001
 40
0.0
 40
0.0
 40
0.0
 40
0.0
 40
0.0039802005
 40
0.0081241083
 40
0.0124359116
 40
0.0169192331
 40
0.0215771071
 40
0.0264118291
 40
0.0314250775
 40
0.0366180274
 40
0.0419913947
 40
0.0475454967
 40
0.0532802394
 40
0.0591952227
 40
0.0652896963
 40
0.071562666
 40
0.0780128361
 40
0.0846387029
 40
0.0984099586
 40
0.1128604728
 40
0.1279709419
 40
0.1437194762
 40
0.1600818774
 40
0.1770318697
 40
0.1945412988
 40
0.2125803054
 40
0.2311174799
 40
0.2501200027
 40
0.2695537746
 40
0.2893835385
 40
0.3095729955
 40
0.3300849166
 40
0.3508812506
 40
0.3719232299
 40
0.3931714738
 40
0.4145860912
 40
0.4361267819
 40
0.4577529372
 40
0.47942374
 40
0.5010982647
 40
0.5227355766
 40
0.5442948315
 40
0.5657353757
 40
0.5870168455
 40
0.608099268
 40
0.628943162
 40
0.6495096405
 40
0.6697605141
 40
0.6896583964
 40
0.7091668111
 40
0.7282503034
 40
0.7468745548
 40
0.7650065038
 40
0.7826144744
 40
0.7996683149
 40
0.8161395488
 40
0.8320015451
 40
0.8472297111
 40
0.8618017176
 40
0.8756977675
 40
0.8823870871
 40
0.8889013284
 40
0.8952388858
 40
0.9013983901
 40
0.9073787355
 40
0.9131790737
 40
0.918798886
 40
0.9242379489
 40
0.9294964425
 40
0.9345749072
 40
0.9394743702
 40
0.9441963202
 40
0.9487428314
 40
0.9531165822
 40
0.9573209639
 40
0.9613601573
 40
0.9652392239
 40
0.9689642405
 40
0.9725423751
 40
0.9759820598
 40
0.97929305
 40
0.982486587
 40
0.9855754179
 40
0.9885738696
 40
0.9914977727
 40
0.9943643586
 40
0.997192021
 40
1.0
 40
1.0
 40
1.0
 40
1.0
 10
10.0041303966
 20
10.5080217023
 30
0.0
 10
10.0056158338
 20
10.5094565246
 30
0.0
 10
10.0087152586
 20
10.5123160099
 30
0.0
 10
10.0136361807
 20
10.5164924841
 30
0.0
 10
10.0189184538
 20
10.5206389772
 30
0.0
 10
10.0245591888
 20
10.5247533348
 30
0.0
 10
10.0305556625
 20
10.5288336038
 30
0.0
 10
10.0369049003
 20
10.5328778374
 30
0.0
 10
10.0436037494
 20
10.5368840225
 30
0.0
 10
10.0506488581
 20
10.5408501523
 30
0.0
 10
10.0580366954
 20
10.5447742767
 30
0.0
 10
10.0657635782
 20
10.548654399
 30
0.0
 10
10.0738256188
 20
10.5524886199
 30
0.0
 10
10.0822187852
 20
10.5562749533
 30
0.0
 10
10.0909388434
 20
10.5600115518
 30
0.0
 10
10.0999814177
 20
10.5636964655
 30
0.0
 10
10.1093419547
 20
10.567327912
 30
0.0
 10
10.1224087655
 20
10.5721581858
 30
0.0
 10
10.1395111709
 20
10.5780367693
 30
0.0
 10
10.1609687648
 20
10.5847614922
 30
0.0
 10
10.1835737532
 20
10.5912306548
 30
0.0
 10
10.2072805089
 20
10.5974310897
 30
0.0
 10
10.2320413455
 20
10.6033501692
 30
0.0
 10
10.2578063267
 20
10.6089758358
 30
0.0
 10
10.2845234638
 20
10.6142966295
 30
0.0
 10
10.3121388058
 20
10.6193017127
 30
0.0
 10
10.3405965613
 20
10.6239808924
 30
0.0
 10
10.3698392149
 20
10.6283246419
 30
0.0
 10
10.3998076473
 20
10.6323241189
 30
0.0
 10
10.4304412585
 20
10.635971184
 30
0.0
 10
10.4616780921
 20
10.6392584165
 30
0.0
 10
10.4934549633
 20
10.642179129
 30
0.0
 10
10.5257075874
 20
10.6447273807
 30
0.0
 10
10.5583707121
 20
10.646897989
 30
0.0
 10
10.5913782495
 20
10.6486865399
 30
0.0
 10
10.6246634117
 20
10.6500893973
 30
0.0
 10
10.6581588462
 20
10.6511037093
 30
0.0
 10
10.6917967734
 20
10.6517274142
 30
0.0
 10
10.7255091244
 20
10.6519592441
 30
0.0
 10
10.7592276789
 20
10.6517987281
 30
0.0
 10
10.7928842044
 20
10.6512461923
 30
0.0
 10
10.8264105941
 20
10.6503027599
 30
0.0
 10
10.8597390059
 20
10.6489703487
 30
0.0
 10
10.8928019995
 20
10.6472516674
 30
0.0
 10
10.9255326744
 20
10.6451502101
 30
0.0
 10
10.9578648052
 20
10.6426702496
 30
0.0
 10
10.9897329772
 20
10.6398168289
 30
0.0
 10
11.02107272
 20
10.6365957519
 30
0.0
 10
11.0518206388
 20
10.6330135713
 30
0.0
 10
11.0819145445
 20
10.6290775757
 30
0.0
 10
11.1112935813
 20
10.6247957752
 30
0.0
 10
11.1398983516
 20
10.6201768854
 30
0.0
 10
11.1676710397
 20
10.6152303104
 30
0.0
 10
11.1945555322
 20
10.6099661233
 30
0.0
 10
11.220497535
 20
10.6043950463
 30
0.0
 10
11.2454446955
 20
10.5985284282
 30
0.0
 10
11.2693466926
 20
10.5923782198
 30
0.0
 10
11.292155433
 20
10.5859569479
 30
0.0
 10
11.3138248678
 20
10.5792776796
 30
0.0
 10
11.3311096634
 20
10.573436282
 30
0.0
 10
11.344326382
 20
10.5686346209
 30
0.0
 10
11.3538013661
 20
10.5650231002
 30
0.0
 10
11.3629600795
 20
10.5613574178
 30
0.0
 10
11.3717979177
 20
10.557639391
 30
0.0
 10
11.380310436
 20
10.5538709265
 30
0.0
 10
11.388493345
 20
10.5500538866
 30
0.0
 10
11.396342549
 20
10.5461902411
 30
0.0
 10
11.4038540924
 20
10.5422818733
 30
0.0
 10
11.4110242345
 20
10.5383308037
 30
0.0
 10
11.4178493657
 20
10.5343389405
 30
0.0
 10
11.424326103
 20
10.5303083277
 30
0.0
 10
11.4304511958
 20
10.5262409051
 30
0.0
 10
11.4362216145
 20
10.5221387088
 30
0.0
 10
11.4416344782
 20
10.5180037099
 30
0.0
 10
11.4466870979
 20
10.5138379077
 30
0.0
 10
11.4513769641
 20
10.5096432945
 30
0.0
 10
11.4557017029
 20
10.5054218112
 30
0.0
 10
11.4596591585
 20
10.5011754531
 30
0.0
 10
11.4632472293
 20
10.4969061002
 30
0.0
 10
11.4664640649
 20
10.4926157411
 30
0.0
 10
11.4693077806
 20
10.4883062352
 30
0.0
 10
11.4717767542
 20
10.4839795955
 30
0.0
 10
11.4738692825
 20
10.4796377775
 30
0.0
 10
11.4755839208
 20
10.4752829258
 30
0.0
 10
11.4769192101
 20
10.4709173018
 30
0.0
 10
11.477873973
 20
10.4665432464
 30
0.0
 10
11.4784472401
 20
10.4621638277
 30
0.0
 10
11.4785748046
 20
10.4592380316
 30
0.0
 10
11.4785748005
 20
10.4577810281
 30
0.0
  0
SPLINE
  5
39A
100
AcDbEntity
  8
0
100
AcDbSpline
 62
7
  6
CONTINUOUS
 70
0
 71
3
 72
83
 73
79
 74
0
 42
0.0000001
 43
0.0000001
 44
0.0000000001
 40
0.0
 40
0.0
 40
0.0
 40
0.0
 40
0.003948762
 40
0.0077209436
 40
0.0113257625
 40
0.0147746989
 40
0.0212568377
 40
0.024328405
 40
0.0273115158
 40
0.0302284054
 40
0.0331030109
 40
0.0359604277
 40
0.0388262432
 40
0.0417258028
 40
0.0446835064
 40
0.0477222087
 40
0.0508628416
 40
0.0541241025
 40
0.0575224574
 40
0.0610721563
 40
0.0647853328
 40
0.0686722859
 40
0.0727415451
 40
0.0770001672
 40
0.0814539045
 40
0.086107287
 40
0.0909639144
 40
0.0960264383
 40
0.1012967456
 40
0.106776085
 40
0.1124650147
 40
0.1244707803
 40
0.1373099109
 40
0.1509710406
 40
0.165437547
 40
0.1806883277
 40
0.1966983938
 40
0.2134393785
 40
0.2308799232
 40
0.2489859891
 40
0.267721104
 40
0.2870466141
 40
0.3069219087
 40
0.3273046098
 40
0.3481507395
 40
0.3694148817
 40
0.3910503657
 40
0.4130094222
 40
0.4577016512
 40
0.5030940125
 40
0.5487799421
 40
0.5943495143
 40
0.6393941392
 40
0.6835112202
 40
0.7050994416
 40
0.7263099618
 40
0.7470962654
 40
0.7674131344
 40
0.7872167986
 40
0.806465099
 40
0.8251176659
 40
0.8431361353
 40
0.8604843641
 40
0.8771286503
 40
0.8930380054
 40
0.9081844876
 40
0.9225436247
 40
0.9360948837
 40
0.9488222803
 40
0.9607152195
 40
0.9663476577
 40
0.9717705899
 40
0.9769847538
 40
0.9819915051
 40
0.9867930884
 40
0.9913924736
 40
0.9957932958
 40
1.0
 40
1.0
 40
1.0
 40
1.0
 10
12.4495736303
 20
9.0998436453
 30
0.0
 10
12.4501512938
 20
9.1003812441
 30
0.0
 10
12.4513061531
 20
9.1014056743
 30
0.0
 10
12.4530780962
 20
9.1028155661
 30
0.0
 10
12.4548484565
 20
9.104061808
 30
0.0
 10
12.4571566127
 20
9.1054744175
 30
0.0
 10
12.4595115299
 20
9.1066009489
 30
0.0
 10
12.461891359
 20
9.1073923526
 30
0.0
 10
12.4636379718
 20
9.1078078875
 30
0.0
 10
12.46537655
 20
9.1080552326
 30
0.0
 10
12.4671058653
 20
9.1081340445
 30
0.0
 10
12.4688244579
 20
9.1080440301
 30
0.0
 10
12.470530871
 20
9.1077853382
 30
0.0
 10
12.4722236744
 20
9.1073582205
 30
0.0
 10
12.4739015507
 20
9.1067632355
 30
0.0
 10
12.4755633556
 20
9.1060011263
 30
0.0
 10
12.4772080261
 20
9.1050726196
 30
0.0
 10
12.478834687
 20
9.1039786328
 30
0.0
 10
12.4804424782
 20
9.1027200043
 30
0.0
 10
12.4820305855
 20
9.10129763
 30
0.0
 10
12.4835982588
 20
9.0997124819
 30
0.0
 10
12.4851446538
 20
9.0979654995
 30
0.0
 10
12.4866690105
 20
9.0960577685
 30
0.0
 10
12.4881705088
 20
9.0939904029
 30
0.0
 10
12.4896483054
 20
9.0917645991
 30
0.0
 10
12.4911016252
 20
9.0893816803
 30
0.0
 10
12.4925295977
 20
9.0868430128
 30
0.0
 10
12.4939314308
 20
9.0841500954
 30
0.0
 10
12.4953063112
 20
9.0813045088
 30
0.0
 10
12.4966534227
 20
9.0783079104
 30
0.0
 10
12.4984437328
 20
9.0740364178
 30
0.0
 10
12.5005980947
 20
9.0683251345
 30
0.0
 10
12.503016109
 20
9.0610179956
 30
0.0
 10
12.5053054701
 20
9.0531561627
 30
0.0
 10
12.5074606773
 20
9.0447582661
 30
0.0
 10
12.5094765196
 20
9.0358440873
 30
0.0
 10
12.5113481213
 20
9.0264347805
 30
0.0
 10
12.5130709424
 20
9.0165527126
 30
0.0
 10
12.5146408003
 20
9.0062214187
 30
0.0
 10
12.5160538774
 20
8.9954655347
 30
0.0
 10
12.5173067462
 20
8.9843107391
 30
0.0
 10
12.518396368
 20
8.9727836829
 30
0.0
 10
12.5193200969
 20
8.9609119171
 30
0.0
 10
12.520075685
 20
8.9487238249
 30
0.0
 10
12.5206612928
 20
8.9362485546
 30
0.0
 10
12.5210754945
 20
8.9235159583
 30
0.0
 10
12.5213172987
 20
8.9105564772
 30
0.0
 10
12.5214094806
 20
8.8929131077
 30
0.0
 10
12.5210857734
 20
8.8705220323
 30
0.0
 10
12.5200148265
 20
8.8434081993
 30
0.0
 10
12.5182689906
 20
8.8161537071
 30
0.0
 10
12.51586499
 20
8.7890191078
 30
0.0
 10
12.5128258576
 20
8.7622638124
 30
0.0
 10
12.5097668432
 20
8.7403412112
 30
0.0
 10
12.5070171979
 20
8.7231905605
 30
0.0
 10
12.5048309809
 20
8.7106727986
 30
0.0
 10
12.5025112658
 20
8.6984375796
 30
0.0
 10
12.5000636063
 20
8.6865141461
 30
0.0
 10
12.4974938951
 20
8.674931013
 30
0.0
 10
12.4948083102
 20
8.6637158695
 30
0.0
 10
12.492013308
 20
8.6528955177
 30
0.0
 10
12.4891156153
 20
8.6424957974
 30
0.0
 10
12.4861222112
 20
8.6325415201
 30
0.0
 10
12.4830403019
 20
8.6230564112
 30
0.0
 10
12.4798773045
 20
8.6140630512
 30
0.0
 10
12.4766408211
 20
8.6055828003
 30
0.0
 10
12.4733386349
 20
8.5976357516
 30
0.0
 10
12.4699786488
 20
8.5902405908
 30
0.0
 10
12.4665688975
 20
8.5834148268
 30
0.0
 10
12.4636419178
 20
8.5781222766
 30
0.0
 10
12.4612757402
 20
8.574193361
 30
0.0
 10
12.4595259723
 20
8.5714525819
 30
0.0
 10
12.4577698729
 20
8.5688656186
 30
0.0
 10
12.4560083979
 20
8.5664339984
 30
0.0
 10
12.4542425889
 20
8.5641591007
 30
0.0
 10
12.4524733996
 20
8.5620422657
 30
0.0
 10
12.4507019863
 20
8.5600848544
 30
0.0
 10
12.4494934776
 20
8.5588598104
 30
0.0
 10
12.4488888253
 20
8.5582757611
 30
0.0
  0
SPLINE
  5
39B
100
AcDbEntity
  8
0
100
AcDbSpline
 62
7
  6
CONTINUOUS
 70
0
 71
3
 72
53
 73
49
 74
0
 42
0.0000001
 43
0.0000001
 44
0.0000000001
 40
0.0
 40
0.0
 40
0.0
 40
0.0
 40
0.0083958805
 40
0.0173554351
 40
0.0268859487
 40
0.0369899485
 40
0.0476664998
 40
0.0589117674
 40
0.07071926
 40
0.0830803697
 40
0.0959843964
 40
0.1094190603
 40
0.1233703939
 40
0.1378231173
 40
0.1527606308
 40
0.1681651533
 40
0.2002980835
 40
0.2340607751
 40
0.2692775355
 40
0.3057611952
 40
0.3433149467
 40
0.3817340616
 40
0.4208075319
 40
0.4603196681
 40
0.5000516705
 40
0.5397831882
 40
0.5792938746
 40
0.6183649409
 40
0.6567807147
 40
0.6943302118
 40
0.730808734
 40
0.7660195115
 40
0.7997754194
 40
0.8319008228
 40
0.8473013328
 40
0.8622346569
 40
0.876683057
 40
0.8906299112
 40
0.9040599786
 40
0.9169592886
 40
0.929315576
 40
0.9411181718
 40
0.9523584656
 40
0.9630300174
 40
0.973128947
 40
0.9826544377
 40
0.9916091092
 40
1.0
 40
1.0
 40
1.0
 40
1.0
 10
12.3860206474
 20
8.6336876442
 30
0.0
 10
12.3867431577
 20
8.6345726515
 30
0.0
 10
12.3881825508
 20
8.6364467075
 30
0.0
 10
12.3902631885
 20
8.639457513
 30
0.0
 10
12.3923319823
 20
8.6427542884
 30
0.0
 10
12.3943859098
 20
8.6463322104
 30
0.0
 10
12.3964220136
 20
8.6501861714
 30
0.0
 10
12.3984373028
 20
8.6543105805
 30
0.0
 10
12.4004288533
 20
8.6586994354
 30
0.0
 10
12.4023936784
 20
8.6633463366
 30
0.0
 10
12.404328921
 20
8.6682444641
 30
0.0
 10
12.406231667
 20
8.6733866349
 30
0.0
 10
12.4080991309
 20
8.6787652794
 30
0.0
 10
12.4099285144
 20
8.6843724776
 30
0.0
 10
12.4117171283
 20
8.6901999689
 30
0.0
 10
12.4140772609
 20
8.6983674812
 30
0.0
 10
12.4168975003
 20
8.7090668213
 30
0.0
 10
12.4200333793
 20
8.7224652709
 30
0.0
 10
12.4229478925
 20
8.7365186968
 30
0.0
 10
12.4256236561
 20
8.7511441095
 30
0.0
 10
12.4280446927
 20
8.7662552284
 30
0.0
 10
12.4301965747
 20
8.7817628058
 30
0.0
 10
12.4320664917
 20
8.797575228
 30
0.0
 10
12.4336433275
 20
8.8135990515
 30
0.0
 10
12.4349177233
 20
8.8297395683
 30
0.0
 10
12.4358821335
 20
8.8459013719
 30
0.0
 10
12.4365308708
 20
8.8619889281
 30
0.0
 10
12.4368601394
 20
8.877907147
 30
0.0
 10
12.4368680585
 20
8.8935619512
 30
0.0
 10
12.4365546782
 20
8.9088608436
 30
0.0
 10
12.4359219771
 20
8.9237134496
 30
0.0
 10
12.4349738774
 20
8.9380321216
 30
0.0
 10
12.4337161503
 20
8.9517322801
 30
0.0
 10
12.4323986914
 20
8.9627158492
 30
0.0
 10
12.4311876957
 20
8.9711286721
 30
0.0
 10
12.4302199777
 20
8.9771454439
 30
0.0
 10
12.4291814955
 20
8.9829495823
 30
0.0
 10
12.428073753
 20
8.9885325376
 30
0.0
 10
12.4268984462
 20
8.9938860825
 30
0.0
 10
12.4256572796
 20
8.9990023381
 30
0.0
 10
12.4243521499
 20
9.0038737909
 30
0.0
 10
12.4229849561
 20
9.0084932975
 30
0.0
 10
12.4215577529
 20
9.0128541079
 30
0.0
 10
12.4200726355
 20
9.0169498776
 30
0.0
 10
12.4185317717
 20
9.0207746588
 30
0.0
 10
12.4169374023
 20
9.0243230075
 30
0.0
 10
12.4152918234
 20
9.0275896964
 30
0.0
 10
12.4141245992
 20
9.0296427889
 30
0.0
 10
12.4135310293
 20
9.0306181774
 30
0.0
  0
SPLINE
  5
39C
100
AcDbEntity
  8
0
100
AcDbSpline
 62
7
  6
CONTINUOUS
 70
0
 71
3
 72
71
 73
67
 74
0
 42
0.0000001
 43
0.0000001
 44
0.0000000001
 40
0.0
 40
0.0
 40
0.0
 40
0.0
 40
0.0155841267
 40
0.0311159948
 40
0.046595237
 40
0.0620238811
 40
0.0774034528
 40
0.0927362808
 40
0.108025123
 40
0.1232731726
 40
0.1384840554
 40
0.1536617766
 40
0.1688106897
 40
0.1839354524
 40
0.1990409778
 40
0.2141323823
 40
0.2292149324
 40
0.2442939895
 40
0.2593749535
 40
0.2744632036
 40
0.2895640407
 40
0.3046826304
 40
0.3198239505
 40
0.3349927386
 40
0.3501934431
 40
0.3654301773
 40
0.3807066784
 40
0.3960262749
 40
0.4113918546
 40
0.4268058385
 40
0.4422701591
 40
0.4577862482
 40
0.4733550284
 40
0.4889769089
 40
0.5046517849
 40
0.520379043
 40
0.5361575757
 40
0.5519857956
 40
0.567861654
 40
0.5837826618
 40
0.599745918
 40
0.6157481409
 40
0.631785699
 40
0.6478546447
 40
0.6639507505
 40
0.6800695507
 40
0.6962063813
 40
0.7123564198
 40
0.7285147273
 40
0.7446762932
 40
0.7608360797
 40
0.7769890647
 40
0.7931302839
 40
0.8092548751
 40
0.8253581231
 40
0.8414355003
 40
0.8574827061
 40
0.8734957059
 40
0.8894707697
 40
0.9054045141
 40
0.921293915
 40
0.9371363644
 40
0.9529297309
 40
0.9686720281
 40
0.9843627508
 40
1.0
 40
1.0
 40
1.0
 40
1.0
 10
11.0116404159
 20
7.5438492299
 30
0.0
 10
11.0116404159
 20
7.5394318921
 30
0.0
 10
11.0114242226
 20
7.5306104633
 30
0.0
 10
11.0104484052
 20
7.5174339199
 30
0.0
 10
11.0088237448
 20
7.5043655838
 30
0.0
 10
11.006554307
 20
7.4914375289
 30
0.0
 10
11.0036453968
 20
7.478680669
 30
0.0
 10
11.0001040357
 20
7.4661258397
 30
0.0
 10
10.9959387382
 20
7.4538032845
 30
0.0
 10
10.991159515
 20
7.4417427188
 30
0.0
 10
10.9857778599
 20
7.4299732296
 30
0.0
 10
10.9798067059
 20
7.418523214
 30
0.0
 10
10.9732604442
 20
7.4074202871
 30
0.0
 10
10.9661548524
 20
7.3966912279
 30
0.0
 10
10.958507052
 20
7.38636192
 30
0.0
 10
10.9503354668
 20
7.3764572916
 30
0.0
 10
10.9416597935
 20
7.3670012452
 30
0.0
 10
10.9325009696
 20
7.3580165796
 30
0.0
 10
10.9228810877
 20
7.3495249633
 30
0.0
 10
10.9128233504
 20
7.3415468775
 30
0.0
 10
10.90235201
 20
7.3341015749
 30
0.0
 10
10.8914923358
 20
7.3272069967
 30
0.0
 10
10.880270534
 20
7.3208797461
 30
0.0
 10
10.8687136752
 20
7.3151350639
 30
0.0
 10
10.8568496317
 20
7.3099867917
 30
0.0
 10
10.8447070152
 20
7.3054473331
 30
0.0
 10
10.832315118
 20
7.3015275882
 30
0.0
 10
10.819703822
 20
7.2982369729
 30
0.0
 10
10.8069035307
 20
7.2955833901
 30
0.0
 10
10.7939450969
 20
7.2935732214
 30
0.0
 10
10.7808597552
 20
7.2922112757
 30
0.0
 10
10.7676790406
 20
7.2915007857
 30
0.0
 10
10.7544347096
 20
7.2914434293
 30
0.0
 10
10.7411586671
 20
7.2920393195
 30
0.0
 10
10.7278828927
 20
7.2932870064
 30
0.0
 10
10.7146393589
 20
7.2951834368
 30
0.0
 10
10.7014599554
 20
7.2977240073
 30
0.0
 10
10.688376414
 20
7.3009025736
 30
0.0
 10
10.6754202371
 20
7.3047114715
 30
0.0
 10
10.6626226168
 20
7.3091415086
 30
0.0
 10
10.6500143537
 20
7.3141819806
 30
0.0
 10
10.6376257942
 20
7.3198207317
 30
0.0
 10
10.6254867571
 20
7.326044175
 30
0.0
 10
10.6136264677
 20
7.3328373301
 30
0.0
 10
10.6020734653
 20
7.3401838188
 30
0.0
 10
10.5908555493
 20
7.3480659385
 30
0.0
 10
10.5799997174
 20
7.3564647085
 30
0.0
 10
10.5695321043
 20
7.3653599158
 30
0.0
 10
10.5594779107
 20
7.3747301503
 30
0.0
 10
10.5498613246
 20
7.3845528405
 30
0.0
 10
10.540705491
 20
7.3948043405
 30
0.0
 10
10.5320324522
 20
7.4054599776
 30
0.0
 10
10.5238631036
 20
7.4164941162
 30
0.0
 10
10.5162171094
 20
7.4278801926
 30
0.0
 10
10.5091128718
 20
7.4395907967
 30
0.0
 10
10.5025675007
 20
7.4515977445
 30
0.0
 10
10.4965967731
 20
7.4638721431
 30
0.0
 10
10.4912150899
 20
7.4763844546
 30
0.0
 10
10.4864354052
 20
7.4891045551
 30
0.0
 10
10.4822692432
 20
7.5020018265
 30
0.0
 10
10.4787266542
 20
7.5150452211
 30
0.0
 10
10.4758161997
 20
7.528203364
 30
0.0
 10
10.4735449555
 20
7.5414444912
 30
0.0
 10
10.4719182889
 20
7.5547369702
 30
0.0
 10
10.4709403267
 20
7.5680482025
 30
0.0
 10
10.4707219211
 20
7.5769296594
 30
0.0
 10
10.4707219211
 20
7.581362055
 30
0.0
  0
SPLINE
  5
39D
100
AcDbEntity
  8
0
100
AcDbSpline
 62
7
  6
CONTINUOUS
 70
0
 71
3
 72
71
 73
67
 74
0
 42
0.0000001
 43
0.0000001
 44
0.0000000001
 40
0.0
 40
0.0
 40
0.0
 40
0.0
 40
0.0155841267
 40
0.0311159948
 40
0.046595237
 40
0.0620238811
 40
0.0774034528
 40
0.0927362808
 40
0.108025123
 40
0.1232731726
 40
0.1384840554
 40
0.1536617766
 40
0.1688106897
 40
0.1839354524
 40
0.1990409778
 40
0.2141323823
 40
0.2292149324
 40
0.2442939895
 40
0.2593749535
 40
0.2744632036
 40
0.2895640407
 40
0.3046826304
 40
0.3198239505
 40
0.3349927386
 40
0.3501934431
 40
0.3654301773
 40
0.3807066784
 40
0.3960262749
 40
0.4113918546
 40
0.4268058385
 40
0.4422701591
 40
0.4577862482
 40
0.4733550284
 40
0.4889769089
 40
0.5046517849
 40
0.520379043
 40
0.5361575757
 40
0.5519857956
 40
0.567861654
 40
0.5837826618
 40
0.599745918
 40
0.6157481409
 40
0.631785699
 40
0.6478546447
 40
0.6639507505
 40
0.6800695507
 40
0.6962063813
 40
0.7123564198
 40
0.7285147273
 40
0.7446762932
 40
0.7608360797
 40
0.7769890647
 40
0.7931302839
 40
0.8092548751
 40
0.8253581231
 40
0.8414355003
 40
0.8574827061
 40
0.8734957059
 40
0.8894707697
 40
0.9054045141
 40
0.921293915
 40
0.9371363644
 40
0.9529297309
 40
0.9686720281
 40
0.9843627508
 40
1.0
 40
1.0
 40
1.0
 40
1.0
 10
10.4707219211
 20
7.581362055
 30
0.0
 10
10.4707219211
 20
7.5857793929
 30
0.0
 10
10.4709381144
 20
7.5946008217
 30
0.0
 10
10.4719139318
 20
7.607777365
 30
0.0
 10
10.4735385922
 20
7.6208457011
 30
0.0
 10
10.47580803
 20
7.633773756
 30
0.0
 10
10.4787169402
 20
7.6465306159
 30
0.0
 10
10.4822583013
 20
7.6590854453
 30
0.0
 10
10.4864235988
 20
7.6714080004
 30
0.0
 10
10.491202822
 20
7.6834685661
 30
0.0
 10
10.496584477
 20
7.6952380553
 30
0.0
 10
10.5025556311
 20
7.7066880709
 30
0.0
 10
10.5091018928
 20
7.7177909978
 30
0.0
 10
10.5162074846
 20
7.728520057
 30
0.0
 10
10.523855285
 20
7.7388493649
 30
0.0
 10
10.5320268702
 20
7.7487539933
 30
0.0
 10
10.5407025434
 20
7.7582100397
 30
0.0
 10
10.5498613674
 20
7.7671947053
 30
0.0
 10
10.5594812493
 20
7.7756863216
 30
0.0
 10
10.5695389866
 20
7.7836644075
 30
0.0
 10
10.580010327
 20
7.79110971
 30
0.0
 10
10.5908700012
 20
7.7980042882
 30
0.0
 10
10.6020918029
 20
7.8043315389
 30
0.0
 10
10.6136486618
 20
7.810076221
 30
0.0
 10
10.6255127053
 20
7.8152244932
 30
0.0
 10
10.6376553218
 20
7.8197639518
 30
0.0
 10
10.650047219
 20
7.8236836967
 30
0.0
 10
10.662658515
 20
7.826974312
 30
0.0
 10
10.6754588063
 20
7.8296278948
 30
0.0
 10
10.68841724
 20
7.8316380635
 30
0.0
 10
10.7015025818
 20
7.8330000093
 30
0.0
 10
10.7146832964
 20
7.8337104992
 30
0.0
 10
10.7279276274
 20
7.8337678557
 30
0.0
 10
10.7412036699
 20
7.8331719655
 30
0.0
 10
10.7544794443
 20
7.8319242786
 30
0.0
 10
10.767722978
 20
7.8300278481
 30
0.0
 10
10.7809023816
 20
7.8274872776
 30
0.0
 10
10.793985923
 20
7.8243087113
 30
0.0
 10
10.8069420999
 20
7.8204998134
 30
0.0
 10
10.8197397202
 20
7.8160697763
 30
0.0
 10
10.8323479833
 20
7.8110293044
 30
0.0
 10
10.8447365428
 20
7.8053905533
 30
0.0
 10
10.8568755799
 20
7.7991671099
 30
0.0
 10
10.8687358693
 20
7.7923739549
 30
0.0
 10
10.8802888717
 20
7.7850274661
 30
0.0
 10
10.8915067876
 20
7.7771453464
 30
0.0
 10
10.9023626196
 20
7.7687465765
 30
0.0
 10
10.9128302327
 20
7.7598513691
 30
0.0
 10
10.9228844262
 20
7.7504811347
 30
0.0
 10
10.9325010123
 20
7.7406584444
 30
0.0
 10
10.941656846
 20
7.7304069445
 30
0.0
 10
10.9503298848
 20
7.7197513073
 30
0.0
 10
10.9584992334
 20
7.7087171688
 30
0.0
 10
10.9661452276
 20
7.6973310923
 30
0.0
 10
10.9732494652
 20
7.6856204883
 30
0.0
 10
10.9797948362
 20
7.6736135404
 30
0.0
 10
10.9857655639
 20
7.6613391418
 30
0.0
 10
10.9911472471
 20
7.6488268303
 30
0.0
 10
10.9959269318
 20
7.6361067298
 30
0.0
 10
11.0000930938
 20
7.6232094584
 30
0.0
 10
11.0036356828
 20
7.6101660638
 30
0.0
 10
11.0065461373
 20
7.5970079209
 30
0.0
 10
11.0088173815
 20
7.5837667937
 30
0.0
 10
11.0104440481
 20
7.5704743147
 30
0.0
 10
11.0114220103
 20
7.5571630825
 30
0.0
 10
11.0116404159
 20
7.5482816255
 30
0.0
 10
11.0116404159
 20
7.5438492299
 30
0.0
  0
SPLINE
  5
39E
100
AcDbEntity
  8
0
100
AcDbSpline
 62
7
  6
CONTINUOUS
 70
0
 71
3
 72
82
 73
78
 74
0
 42
0.0000001
 43
0.0000001
 44
0.0000000001
 40
0.0
 40
0.0
 40
0.0
 40
0.0
 40
0.0028079978
 40
0.0056356818
 40
0.008502288
 40
0.0114262137
 40
0.0144246915
 40
0.0175135456
 40
0.0207071116
 40
0.0240181329
 40
0.0274578407
 40
0.0310360169
 40
0.0347610554
 40
0.0386401641
 40
0.0426793911
 40
0.0468838046
 40
0.0512576023
 40
0.0558041427
 40
0.0605261407
 40
0.0654256423
 40
0.0705041474
 40
0.0757626885
 40
0.0812017941
 40
0.0868216501
 40
0.0986018514
 40
0.1110985366
 40
0.1243017998
 40
0.1381979568
 40
0.1527700681
 40
0.1679983437
 40
0.1838604597
 40
0.2003318152
 40
0.2173857749
 40
0.2349938652
 40
0.2531259409
 40
0.2717503259
 40
0.2908339515
 40
0.3103424976
 40
0.3302405123
 40
0.3504915237
 40
0.3710581416
 40
0.3919021732
 40
0.4129847321
 40
0.455706257
 40
0.49890236
 40
0.5422472303
 40
0.5854136043
 40
0.6280759645
 40
0.6491180759
 40
0.6699145381
 40
0.6904265863
 40
0.7106161713
 40
0.7304460619
 40
0.7498799532
 40
0.76888259
 40
0.7874198781
 40
0.805458999
 40
0.822968538
 40
0.8399186299
 40
0.8562811274
 40
0.8720297604
 40
0.8871403291
 40
0.9015909348
 40
0.9153622713
 40
0.9284379678
 40
0.9408049977
 40
0.9524542077
 40
0.958008328
 40
0.9633817425
 40
0.9685747309
 40
0.9735880096
 40
0.978422747
 40
0.9830806142
 40
0.9875640035
 40
0.9918759102
 40
0.9960198585
 40
1.0
 40
1.0
 40
1.0
 40
1.0
 10
11.1590747973
 20
10.3027502299
 30
0.0
 10
11.1590747995
 20
10.3035865497
 30
0.0
 10
11.1590015792
 20
10.3052659579
 30
0.0
 10
11.1586724891
 20
10.3077797402
 30
0.0
 10
11.1581244541
 20
10.3102904486
 30
0.0
 10
11.1573579834
 20
10.3127963156
 30
0.0
 10
11.1563737598
 20
10.3152959948
 30
0.0
 10
11.1551726465
 20
10.3177882018
 30
0.0
 10
11.1537554379
 20
10.3202716893
 30
0.0
 10
11.1521231258
 20
10.3227453374
 30
0.0
 10
11.1502766679
 20
10.3252080174
 30
0.0
 10
11.1482170807
 20
10.3276586017
 30
0.0
 10
11.1459455117
 20
10.330096032
 30
0.0
 10
11.1434630854
 20
10.3325191447
 30
0.0
 10
11.1407710962
 20
10.3349268556
 30
0.0
 10
11.1378708863
 20
10.3373180309
 30
0.0
 10
11.134763883
 20
10.3396915028
 30
0.0
 10
11.1314516624
 20
10.3420461784
 30
0.0
 10
11.1279358419
 20
10.3443808631
 30
0.0
 10
11.1242181884
 20
10.3466944382
 30
0.0
 10
11.1203005546
 20
10.3489857674
 30
0.0
 10
11.116184883
 20
10.3512536706
 30
0.0
 10
11.1118732459
 20
10.3534970894
 30
0.0
 10
11.1057697873
 20
10.3565013404
 30
0.0
 10
11.0976573114
 20
10.3601783064
 30
0.0
 10
11.0873247102
 20
10.364408638
 30
0.0
 10
11.0762675612
 20
10.3685150555
 30
0.0
 10
11.0645080843
 20
10.3724892405
 30
0.0
 10
11.0520697574
 20
10.3763231362
 30
0.0
 10
11.0389775522
 20
10.380008943
 30
0.0
 10
11.0252577917
 20
10.3835391545
 30
0.0
 10
11.0109381156
 20
10.3869065864
 30
0.0
 10
10.9960474025
 20
10.39010438
 30
0.0
 10
10.9806157032
 20
10.3931260208
 30
0.0
 10
10.964674178
 20
10.39596535
 30
0.0
 10
10.9482550362
 20
10.3986165844
 30
0.0
 10
10.9313914674
 20
10.4010743314
 30
0.0
 10
10.914117567
 20
10.4033335887
 30
0.0
 10
10.8964682648
 20
10.4053897572
 30
0.0
 10
10.8784792535
 20
10.4072386501
 30
0.0
 10
10.8601869306
 20
10.4088765024
 30
0.0
 10
10.8416282734
 20
10.4103000092
 30
0.0
 10
10.8164683756
 20
10.4119153195
 30
0.0
 10
10.7846300392
 20
10.4133741399
 30
0.0
 10
10.7461372438
 20
10.4142288476
 30
0.0
 10
10.7075023593
 20
10.4141881029
 30
0.0
 10
10.6690379293
 20
10.4132522159
 30
0.0
 10
10.6372413017
 20
10.4117260396
 30
0.0
 10
10.6121288217
 20
10.4100572693
 30
0.0
 10
10.5936158095
 20
10.4085945542
 30
0.0
 10
10.5753759032
 20
10.4069180674
 30
0.0
 10
10.5574459703
 20
10.4050311956
 30
0.0
 10
10.5398622887
 20
10.4029377824
 30
0.0
 10
10.5226604215
 20
10.4006420802
 30
0.0
 10
10.5058751529
 20
10.3981487653
 30
0.0
 10
10.4895404141
 20
10.3954629155
 30
0.0
 10
10.4736892184
 20
10.3925899997
 30
0.0
 10
10.4583535933
 20
10.3895358659
 30
0.0
 10
10.4435645081
 20
10.3863067308
 30
0.0
 10
10.4293518033
 20
10.382909178
 30
0.0
 10
10.4157441296
 20
10.3793501299
 30
0.0
 10
10.4027688912
 20
10.375636835
 30
0.0
 10
10.3904521741
 20
10.3717768459
 30
0.0
 10
10.3788187019
 20
10.3677780079
 30
0.0
 10
10.3678916767
 20
10.3636484306
 30
0.0
 10
10.3576930428
 20
10.359396469
 30
0.0
 10
10.3496954388
 20
10.3557018696
 30
0.0
 10
10.3436859219
 20
10.3526841871
 30
0.0
 10
10.3394452943
 20
10.3504317376
 30
0.0
 10
10.3354014059
 20
10.3481551724
 30
0.0
 10
10.3315562748
 20
10.3458556189
 30
0.0
 10
10.3279118164
 20
10.3435342566
 30
0.0
 10
10.3244698542
 20
10.3411921726
 30
0.0
 10
10.3212320475
 20
10.3388305293
 30
0.0
 10
10.3182000069
 20
10.3364504032
 30
0.0
 10
10.3153753968
 20
10.334053109
 30
0.0
 10
10.3135963388
 20
10.3324117842
 30
0.0
 10
10.3127437164
 20
10.3315882142
 30
0.0
  0
SPLINE
  5
39F
100
AcDbEntity
  8
0
100
AcDbSpline
 62
7
  6
CONTINUOUS
 70
0
 71
3
 72
23
 73
19
 74
0
 42
0.0000001
 43
0.0000001
 44
0.0000000001
 40
0.0
 40
0.0
 40
0.0
 40
0.0
 40
0.075595957
 40
0.1466391305
 40
0.2134651345
 40
0.2765138419
 40
0.3363259052
 40
0.3935462661
 40
0.4489224105
 40
0.5032874244
 40
0.5575253055
 40
0.6125266122
 40
0.6691426489
 40
0.72814827
 40
0.7902188159
 40
0.8559231893
 40
0.9257261654
 40
1.0
 40
1.0
 40
1.0
 40
1.0
 10
12.4488888253
 20
8.5582757611
 30
0.0
 10
12.4481106347
 20
8.5575240867
 30
0.0
 10
12.4465552753
 20
8.5561122063
 30
0.0
 10
12.4441482069
 20
8.5542260091
 30
0.0
 10
12.4417439495
 20
8.552641873
 30
0.0
 10
12.4393447353
 20
8.5513621783
 30
0.0
 10
12.4369525549
 20
8.5503892513
 30
0.0
 10
12.4345698789
 20
8.5497254585
 30
0.0
 10
12.4321998231
 20
8.5493731694
 30
0.0
 10
12.4298463467
 20
8.5493340285
 30
0.0
 10
12.4275139654
 20
8.5496086264
 30
0.0
 10
12.4252072065
 20
8.5501961472
 30
0.0
 10
12.4229299755
 20
8.5510945896
 30
0.0
 10
12.4206853145
 20
8.5523013696
 30
0.0
 10
12.4184754607
 20
8.5538136754
 30
0.0
 10
12.4163022429
 20
8.5556289382
 30
0.0
 10
12.4141673622
 20
8.5577444208
 30
0.0
 10
12.4128143331
 20
8.559303129
 30
0.0
 10
12.4121436018
 20
8.560127827
 30
0.0
  0
SPLINE
  5
3A0
100
AcDbEntity
  8
0
100
AcDbSpline
 62
7
  6
CONTINUOUS
 70
0
 71
3
 72
21
 73
17
 74
0
 42
0.0000001
 43
0.0000001
 44
0.0000000001
 40
0.0
 40
0.0
 40
0.0
 40
0.0
 40
0.1273176984
 40
0.2537999461
 40
0.3167619614
 40
0.3795355204
 40
0.4421314992
 40
0.5045621453
 40
0.5668413456
 40
0.6289845231
 40
0.6910084433
 40
0.7529310869
 40
0.8147714401
 40
0.8765493236
 40
0.9382852134
 40
1.0
 40
1.0
 40
1.0
 40
1.0
 10
11.6617085355
 20
9.7628971062
 30
0.0
 10
11.6617085355
 20
9.7681943984
 30
0.0
 10
11.6622141974
 20
9.7787610412
 30
0.0
 10
11.6641239403
 20
9.7918236928
 30
0.0
 10
11.666406488
 20
9.8020701991
 30
0.0
 10
11.6684880524
 20
9.8096280271
 30
0.0
 10
11.6709368884
 20
9.8170515563
 30
0.0
 10
11.6737473501
 20
9.8243238848
 30
0.0
 10
11.676912958
 20
9.8314281928
 30
0.0
 10
11.6804264765
 20
9.8383480838
 30
0.0
 10
11.6842797777
 20
9.8450676067
 30
0.0
 10
11.6884639751
 20
9.8515712753
 30
0.0
 10
11.6929694596
 20
9.8578440404
 30
0.0
 10
11.697785869
 20
9.8638714957
 30
0.0
 10
11.7029018821
 20
9.8696395732
 30
0.0
 10
11.7065051586
 20
9.8733037957
 30
0.0
 10
11.7083520371
 20
9.8750877324
 30
0.0
  0
SPLINE
  5
3A1
100
AcDbEntity
  8
0
100
AcDbSpline
 62
7
  6
CONTINUOUS
 70
0
 71
3
 72
18
 73
14
 74
0
 42
0.0000001
 43
0.0000001
 44
0.0000000001
 40
0.0
 40
0.0
 40
0.0
 40
0.0
 40
0.0548620116
 40
0.1099280288
 40
0.1653995063
 40
0.2214731041
 40
0.278338737
 40
0.3361775376
 40
0.455406238
 40
0.580442112
 40
0.7123345554
 40
0.8519568421
 40
1.0
 40
1.0
 40
1.0
 40
1.0
 10
9.978574818
 20
10.4577815952
 30
0.0
 10
9.978574821
 20
10.4588407984
 30
0.0
 10
9.9786420461
 20
10.4609637522
 30
0.0
 10
9.9789443617
 20
10.4641447278
 30
0.0
 10
9.9794480347
 20
10.4673238658
 30
0.0
 10
9.9801528391
 20
10.4705000204
 30
0.0
 10
9.981058592
 20
10.4736723701
 30
0.0
 10
9.9825483495
 20
10.4779383229
 30
0.0
 10
9.9849348544
 20
10.4832739168
 30
0.0
 10
9.9885673181
 20
10.4895752437
 30
0.0
 10
9.9929914146
 20
10.4958357808
 30
0.0
 10
9.9982004422
 20
10.5020492686
 30
0.0
 10
10.0020746076
 20
10.5060359626
 30
0.0
 10
10.0041303966
 20
10.5080217023
 30
0.0
  0
SPLINE
  5
3A2
100
AcDbEntity
  8
0
100
AcDbSpline
 62
7
  6
CONTINUOUS
 70
0
 71
3
 72
74
 73
70
 74
0
 42
0.0000001
 43
0.0000001
 44
0.0000000001
 40
0.0
 40
0.0
 40
0.0
 40
0.0
 40
0.0040238046
 40
0.0081866324
 40
0.0124904874
 40
0.0169369898
 40
0.0215274084
 40
0.0262626557
 40
0.0311433853
 40
0.0361699509
 40
0.046660395
 40
0.0577328534
 40
0.0693825864
 40
0.0816022176
 40
0.0943820653
 40
0.1077104251
 40
0.1215737994
 40
0.1359570806
 40
0.1508437004
 40
0.1662157529
 40
0.1820541193
 40
0.1983385698
 40
0.215047852
 40
0.2321597663
 40
0.249651239
 40
0.2674984014
 40
0.2856766556
 40
0.3041607357
 40
0.3229247633
 40
0.3419423104
 40
0.3611864601
 40
0.3806298629
 40
0.4200026365
 40
0.4598357886
 40
0.4999004651
 40
0.5399660854
 40
0.5798020655
 40
0.6191795235
 40
0.6386259585
 40
0.6578735926
 40
0.6768950651
 40
0.6956634521
 40
0.7141523219
 40
0.7323357892
 40
0.7501885725
 40
0.7676860571
 40
0.7848043658
 40
0.8015204186
 40
0.8178120001
 40
0.8336578337
 40
0.8490376688
 40
0.8639323752
 40
0.8783240336
 40
0.8921960478
 40
0.905533275
 40
0.918322191
 40
0.9305510705
 40
0.9422102012
 40
0.9532921578
 40
0.9586152944
 40
0.9637925965
 40
0.968823936
 40
0.9737094259
 40
0.9784494393
 40
0.9830445834
 40
0.9874957843
 40
0.9918042626
 40
0.9959716401
 40
1.0
 40
1.0
 40
1.0
 40
1.0
 10
11.4420590604
 20
10.3978380096
 30
0.0
 10
11.4405192053
 20
10.3990680697
 30
0.0
 10
11.4373445715
 20
10.4015188478
 30
0.0
 10
11.4323896097
 20
10.405108507
 30
0.0
 10
11.4271633938
 20
10.4086722378
 30
0.0
 10
11.4216679777
 20
10.4122086365
 30
0.0
 10
11.4159054234
 20
10.4157163587
 30
0.0
 10
11.409877959
 20
10.419194108
 30
0.0
 10
11.403587853
 20
10.4226405429
 30
0.0
 10
11.3947275935
 20
10.4272581163
 30
0.0
 10
11.3830012301
 20
10.4329315409
 30
0.0
 10
11.368115998
 20
10.4395004113
 30
0.0
 10
11.3522458782
 20
10.4459135405
 30
0.0
 10
11.3354151991
 20
10.452161041
 30
0.0
 10
11.3176495657
 20
10.4582332978
 30
0.0
 10
11.2989761671
 20
10.4641209268
 30
0.0
 10
11.2794236105
 20
10.4698148158
 30
0.0
 10
11.2590218986
 20
10.4753061405
 30
0.0
 10
11.2378023745
 20
10.4805863838
 30
0.0
 10
11.2157976738
 20
10.4856473648
 30
0.0
 10
11.1930416625
 20
10.4904812371
 30
0.0
 10
11.1695693765
 20
10.4950805052
 30
0.0
 10
11.1454169671
 20
10.4994380343
 30
0.0
 10
11.1206216488
 20
10.5035470676
 30
0.0
 10
11.0952216404
 20
10.5074012415
 30
0.0
 10
11.0692560987
 20
10.5109945834
 30
0.0
 10
11.042765055
 20
10.5143215248
 30
0.0
 10
11.0157893569
 20
10.5173769057
 30
0.0
 10
10.9883706035
 20
10.5201559966
 30
0.0
 10
10.9605510942
 20
10.5226544903
 30
0.0
 10
10.9323737018
 20
10.5248685422
 30
0.0
 10
10.8942266175
 20
10.5274473506
 30
0.0
 10
10.845968573
 20
10.5299294739
 30
0.0
 10
10.7875738844
 20
10.5317187671
 30
0.0
 10
10.7288154384
 20
10.5323196769
 30
0.0
 10
10.6700555088
 20
10.5317285119
 30
0.0
 10
10.6116563809
 20
10.5299489169
 30
0.0
 10
10.5633927545
 20
10.5274748155
 30
0.0
 10
10.5252397412
 20
10.5249023867
 30
0.0
 10
10.4970568509
 20
10.5226930238
 30
0.0
 10
10.4692311396
 20
10.5201991533
 30
0.0
 10
10.4418054889
 20
10.5174246156
 30
0.0
 10
10.4148222045
 20
10.5143737179
 30
0.0
 10
10.3883228959
 20
10.5110511847
 30
0.0
 10
10.3623484281
 20
10.5074621617
 30
0.0
 10
10.3369388504
 20
10.5036122056
 30
0.0
 10
10.3121333309
 20
10.499507288
 30
0.0
 10
10.2879700977
 20
10.495153773
 30
0.0
 10
10.2644863832
 20
10.4905584095
 30
0.0
 10
10.2417183643
 20
10.4857283184
 30
0.0
 10
10.2197010984
 20
10.4806709869
 30
0.0
 10
10.1984684639
 20
10.4753942626
 30
0.0
 10
10.1780531098
 20
10.4699063276
 30
0.0
 10
10.1584864073
 20
10.4642156887
 30
0.0
 10
10.1397983853
 20
10.4583311562
 30
0.0
 10
10.1220176942
 20
10.4522618419
 30
0.0
 10
10.1051714649
 20
10.4460171244
 30
0.0
 10
10.0892855713
 20
10.4396066496
 30
0.0
 10
10.0767043081
 20
10.4340628288
 30
0.0
 10
10.0671472406
 20
10.4295442084
 30
0.0
 10
10.0603308174
 20
10.4261654793
 30
0.0
 10
10.0537720313
 20
10.4227527841
 30
0.0
 10
10.0474733838
 20
10.4193073982
 30
0.0
 10
10.0414372697
 20
10.4158306725
 30
0.0
 10
10.0356660189
 20
10.4123238795
 30
0.0
 10
10.0301618267
 20
10.4087884132
 30
0.0
 10
10.0249267808
 20
10.4052255808
 30
0.0
 10
10.019962929
 20
10.4016367413
 30
0.0
 10
10.0167822296
 20
10.3991865303
 30
0.0
 10
10.0152393183
 20
10.3979567231
 30
0.0
  0
SPLINE
  5
3A3
100
AcDbEntity
  8
0
100
AcDbSpline
 62
4
  6
CONTINUOUS
 70
0
 71
3
 72
403
 73
399
 74
0
 42
0.0000001
 43
0.0000001
 44
0.0000000001
 40
0.0
 40
0.0
 40
0.0
 40
0.0
 40
0.015625
 40
0.0234375
 40
0.03125
 40
0.0390625
 40
0.04296875
 40
0.046875
 40
0.05078125
 40
0.0546875
 40
0.056640625
 40
0.05859375
 40
0.0595703125
 40
0.060546875
 40
0.0615234375
 40
0.0620117188
 40
0.0622558594
 40
0.0625
 40
0.0627441406
 40
0.0629882812
 40
0.0634765625
 40
0.064453125
 40
0.0654296875
 40
0.06640625
 40
0.068359375
 40
0.0703125
 40
0.07421875
 40
0.078125
 40
0.08203125
 40
0.0859375
 40
0.09375
 40
0.1015625
 40
0.10546875
 40
0.109375
 40
0.11328125
 40
0.1171875
 40
0.119140625
 40
0.12109375
 40
0.1220703125
 40
0.123046875
 40
0.1240234375
 40
0.1245117188
 40
0.1247558594
 40
0.125
 40
0.1252441406
 40
0.1254882812
 40
0.1259765625
 40
0.126953125
 40
0.1279296875
 40
0.12890625
 40
0.130859375
 40
0.1328125
 40
0.13671875
 40
0.140625
 40
0.14453125
 40
0.1484375
 40
0.15625
 40
0.1640625
 40
0.16796875
 40
0.171875
 40
0.17578125
 40
0.1796875
 40
0.181640625
 40
0.18359375
 40
0.1845703125
 40
0.185546875
 40
0.1865234375
 40
0.1870117188
 40
0.1872558594
 40
0.1875
 40
0.1877441406
 40
0.1879882812
 40
0.1884765625
 40
0.189453125
 40
0.1904296875
 40
0.19140625
 40
0.193359375
 40
0.1953125
 40
0.19921875
 40
0.203125
 40
0.20703125
 40
0.2109375
 40
0.21875
 40
0.2265625
 40
0.23046875
 40
0.234375
 40
0.23828125
 40
0.2421875
 40
0.244140625
 40
0.24609375
 40
0.2470703125
 40
0.248046875
 40
0.2490234375
 40
0.2495117188
 40
0.2497558594
 40
0.25
 40
0.2502441406
 40
0.2504882812
 40
0.2509765625
 40
0.251953125
 40
0.2529296875
 40
0.25390625
 40
0.255859375
 40
0.2578125
 40
0.26171875
 40
0.265625
 40
0.26953125
 40
0.2734375
 40
0.28125
 40
0.2890625
 40
0.29296875
 40
0.296875
 40
0.30078125
 40
0.3046875
 40
0.306640625
 40
0.30859375
 40
0.3095703125
 40
0.310546875
 40
0.3115234375
 40
0.3120117188
 40
0.3122558594
 40
0.3125
 40
0.3127441406
 40
0.3129882812
 40
0.3134765625
 40
0.314453125
 40
0.3154296875
 40
0.31640625
 40
0.318359375
 40
0.3203125
 40
0.32421875
 40
0.328125
 40
0.33203125
 40
0.3359375
 40
0.34375
 40
0.3515625
 40
0.35546875
 40
0.359375
 40
0.36328125
 40
0.3671875
 40
0.369140625
 40
0.37109375
 40
0.3720703125
 40
0.373046875
 40
0.3740234375
 40
0.3745117188
 40
0.3747558594
 40
0.375
 40
0.3752441406
 40
0.3754882812
 40
0.3759765625
 40
0.376953125
 40
0.3779296875
 40
0.37890625
 40
0.380859375
 40
0.3828125
 40
0.38671875
 40
0.390625
 40
0.39453125
 40
0.3984375
 40
0.40625
 40
0.4140625
 40
0.41796875
 40
0.421875
 40
0.42578125
 40
0.4296875
 40
0.431640625
 40
0.43359375
 40
0.4345703125
 40
0.435546875
 40
0.4365234375
 40
0.4370117188
 40
0.4372558594
 40
0.4375
 40
0.4377441406
 40
0.4379882812
 40
0.4384765625
 40
0.439453125
 40
0.4404296875
 40
0.44140625
 40
0.443359375
 40
0.4453125
 40
0.44921875
 40
0.453125
 40
0.45703125
 40
0.4609375
 40
0.46875
 40
0.4765625
 40
0.48046875
 40
0.484375
 40
0.48828125
 40
0.4921875
 40
0.494140625
 40
0.49609375
 40
0.4970703125
 40
0.498046875
 40
0.4990234375
 40
0.4995117188
 40
0.4997558594
 40
0.5
 40
0.5002441406
 40
0.5004882812
 40
0.5009765625
 40
0.501953125
 40
0.5029296875
 40
0.50390625
 40
0.505859375
 40
0.5078125
 40
0.51171875
 40
0.515625
 40
0.51953125
 40
0.5234375
 40
0.53125
 40
0.5390625
 40
0.54296875
 40
0.546875
 40
0.55078125
 40
0.5546875
 40
0.556640625
 40
0.55859375
 40
0.5595703125
 40
0.560546875
 40
0.5615234375
 40
0.5620117188
 40
0.5622558594
 40
0.5625
 40
0.5627441406
 40
0.5629882812
 40
0.5634765625
 40
0.564453125
 40
0.5654296875
 40
0.56640625
 40
0.568359375
 40
0.5703125
 40
0.57421875
 40
0.578125
 40
0.58203125
 40
0.5859375
 40
0.59375
 40
0.6015625
 40
0.60546875
 40
0.609375
 40
0.61328125
 40
0.6171875
 40
0.619140625
 40
0.62109375
 40
0.6220703125
 40
0.623046875
 40
0.6240234375
 40
0.6245117188
 40
0.6247558594
 40
0.625
 40
0.6252441406
 40
0.6254882812
 40
0.6259765625
 40
0.626953125
 40
0.6279296875
 40
0.62890625
 40
0.630859375
 40
0.6328125
 40
0.63671875
 40
0.640625
 40
0.64453125
 40
0.6484375
 40
0.65625
 40
0.6640625
 40
0.66796875
 40
0.671875
 40
0.67578125
 40
0.6796875
 40
0.681640625
 40
0.68359375
 40
0.6845703125
 40
0.685546875
 40
0.6865234375
 40
0.6870117188
 40
0.6872558594
 40
0.6875
 40
0.6877441406
 40
0.6879882812
 40
0.6884765625
 40
0.689453125
 40
0.6904296875
 40
0.69140625
 40
0.693359375
 40
0.6953125
 40
0.69921875
 40
0.703125
 40
0.70703125
 40
0.7109375
 40
0.71875
 40
0.7265625
 40
0.73046875
 40
0.734375
 40
0.73828125
 40
0.7421875
 40
0.744140625
 40
0.74609375
 40
0.7470703125
 40
0.748046875
 40
0.7490234375
 40
0.7495117188
 40
0.7497558594
 40
0.75
 40
0.7502441406
 40
0.7504882812
 40
0.7509765625
 40
0.751953125
 40
0.7529296875
 40
0.75390625
 40
0.755859375
 40
0.7578125
 40
0.76171875
 40
0.765625
 40
0.76953125
 40
0.7734375
 40
0.78125
 40
0.7890625
 40
0.79296875
 40
0.796875
 40
0.80078125
 40
0.8046875
 40
0.806640625
 40
0.80859375
 40
0.8095703125
 40
0.810546875
 40
0.8115234375
 40
0.8120117188
 40
0.8122558594
 40
0.8125
 40
0.8127441406
 40
0.8129882812
 40
0.8134765625
 40
0.814453125
 40
0.8154296875
 40
0.81640625
 40
0.818359375
 40
0.8203125
 40
0.82421875
 40
0.828125
 40
0.83203125
 40
0.8359375
 40
0.84375
 40
0.8515625
 40
0.85546875
 40
0.859375
 40
0.86328125
 40
0.8671875
 40
0.869140625
 40
0.87109375
 40
0.8720703125
 40
0.873046875
 40
0.8740234375
 40
0.8745117188
 40
0.8747558594
 40
0.875
 40
0.8752441406
 40
0.8754882812
 40
0.8759765625
 40
0.876953125
 40
0.8779296875
 40
0.87890625
 40
0.880859375
 40
0.8828125
 40
0.88671875
 40
0.890625
 40
0.89453125
 40
0.8984375
 40
0.90625
 40
0.9140625
 40
0.91796875
 40
0.921875
 40
0.92578125
 40
0.9296875
 40
0.931640625
 40
0.93359375
 40
0.9345703125
 40
0.935546875
 40
0.9365234375
 40
0.9370117188
 40
0.9372558594
 40
0.9375
 40
0.9377441406
 40
0.9379882812
 40
0.9384765625
 40
0.939453125
 40
0.9404296875
 40
0.94140625
 40
0.943359375
 40
0.9453125
 40
0.94921875
 40
0.953125
 40
0.95703125
 40
0.9609375
 40
0.96875
 40
0.9765625
 40
0.984375
 40
1.0
 40
1.0
 40
1.0
 40
1.0
 10
10.3157874189
 20
9.5668456536
 30
0.0
 10
10.312654232
 20
9.5667557292
 30
0.0
 10
10.3079544516
 20
9.5666208426
 30
0.0
 10
10.3016880778
 20
9.5664409938
 30
0.0
 10
10.2969882974
 20
9.5663061071
 30
0.0
 10
10.2930718137
 20
9.5661937018
 30
0.0
 10
10.2899386269
 20
9.566103777
 30
0.0
 10
10.2875887365
 20
9.5660363347
 30
0.0
 10
10.285238847
 20
9.5659688877
 30
0.0
 10
10.2832806029
 20
9.5659126965
 30
0.0
 10
10.2817140141
 20
9.5658677106
 30
0.0
 10
10.2807348814
 20
9.5658396695
 30
0.0
 10
10.2799516089
 20
9.5658170647
 30
0.0
 10
10.2793640625
 20
9.5658005819
 30
0.0
 10
10.278874733
 20
9.5657853484
 30
0.0
 10
10.2785316283
 20
9.5657776245
 30
0.0
 10
10.2783364649
 20
9.5657686209
 30
0.0
 10
10.2781875669
 20
9.5657747983
 30
0.0
 10
10.2780483228
 20
9.5657315499
 30
0.0
 10
10.2778592967
 20
9.5656911256
 30
0.0
 10
10.2775300699
 20
9.5656123506
 30
0.0
 10
10.2770589256
 20
9.5655040143
 30
0.0
 10
10.2764939035
 20
9.5653722133
 30
0.0
 10
10.2757404181
 20
9.5651971064
 30
0.0
 10
10.2747986034
 20
9.5649780078
 30
0.0
 10
10.2732916764
 20
9.5646275702
 30
0.0
 10
10.2714080257
 20
9.564189482
 30
0.0
 10
10.2691476413
 20
9.5636637938
 30
0.0
 10
10.2668872579
 20
9.5631381009
 30
0.0
 10
10.263873413
 20
9.5624371787
 30
0.0
 10
10.2601061071
 20
9.5615610253
 30
0.0
 10
10.256338801
 20
9.5606848723
 30
0.0
 10
10.2533249563
 20
9.5599839495
 30
0.0
 10
10.2510645724
 20
9.5594582585
 30
0.0
 10
10.2488041902
 20
9.558932563
 30
0.0
 10
10.2469205327
 20
9.5584944976
 30
0.0
 10
10.2454136194
 20
9.5581440136
 30
0.0
 10
10.2444717698
 20
9.557925033
 30
0.0
 10
10.243718356
 20
9.557749684
 30
0.0
 10
10.2431531153
 20
9.5576186226
 30
0.0
 10
10.2426826553
 20
9.5575079722
 30
0.0
 10
10.2423522068
 20
9.5574333282
 30
0.0
 10
10.2421651381
 20
9.557386285
 30
0.0
 10
10.2420198815
 20
9.5573633678
 30
0.0
 10
10.2418935654
 20
9.5572931844
 30
0.0
 10
10.2417185372
 20
9.5572160936
 30
0.0
 10
10.241415316
 20
9.557073503
 30
0.0
 10
10.2409805336
 20
9.5568738181
 30
0.0
 10
10.2404594836
 20
9.5566324773
 30
0.0
 10
10.2397645096
 20
9.5563112899
 30
0.0
 10
10.2388958745
 20
9.5559096002
 30
0.0
 10
10.2375060122
 20
9.5552670114
 30
0.0
 10
10.2357687003
 20
9.5544637361
 30
0.0
 10
10.2336839191
 20
9.5534998226
 30
0.0
 10
10.2315991398
 20
9.5525359046
 30
0.0
 10
10.2288194334
 20
9.5512506822
 30
0.0
 10
10.2253448007
 20
9.5496441535
 30
0.0
 10
10.2218701677
 20
9.5480376253
 30
0.0
 10
10.2190904616
 20
9.5467524022
 30
0.0
 10
10.2170056814
 20
9.545788486
 30
0.0
 10
10.2149209035
 20
9.5448245655
 30
0.0
 10
10.2131835814
 20
9.5440213121
 30
0.0
 10
10.2117937399
 20
9.5433786786
 30
0.0
 10
10.2109250521
 20
9.5429771029
 30
0.0
 10
10.2102301863
 20
9.5426556813
 30
0.0
 10
10.2097088057
 20
9.5424150562
 30
0.0
 10
10.2092750576
 20
9.5422131321
 30
0.0
 10
10.20896999
 20
9.5420745389
 30
0.0
 10
10.2087979203
 20
9.5419910432
 30
0.0
 10
10.2086625165
 20
9.5419405333
 30
0.0
 10
10.2085513915
 20
9.5418437258
 30
0.0
 10
10.2083947561
 20
9.5417307982
 30
0.0
 10
10.2081245899
 20
9.5415256508
 30
0.0
 10
10.2077365754
 20
9.5412365167
 30
0.0
 10
10.2072718408
 20
9.5408878721
 30
0.0
 10
10.2066518864
 20
9.5404236007
 30
0.0
 10
10.205877049
 20
9.5398430601
 30
0.0
 10
10.2046372501
 20
9.5389143078
 30
0.0
 10
10.2030875217
 20
9.5377533286
 30
0.0
 10
10.2012278389
 20
9.5363601703
 30
0.0
 10
10.1993681585
 20
9.5349670074
 30
0.0
 10
10.1968885838
 20
9.5331094586
 30
0.0
 10
10.1937891157
 20
9.5307875219
 30
0.0
 10
10.1906896474
 20
9.5284655856
 30
0.0
 10
10.1882100731
 20
9.5266080362
 30
0.0
 10
10.1863503914
 20
9.525214875
 30
0.0
 10
10.1844907134
 20
9.5238217105
 30
0.0
 10
10.1829409702
 20
9.5226607506
 30
0.0
 10
10.1817012016
 20
9.521731959
 30
0.0
 10
10.1809262871
 20
9.521151518
 30
0.0
 10
10.1803064909
 20
9.5206870423
 30
0.0
 10
10.1798412728
 20
9.520339022
 30
0.0
 10
10.1794547711
 20
9.5200479347
 30
0.0
 10
10.1791819042
 20
9.5198462741
 30
0.0
 10
10.1790295961
 20
9.5197277597
 30
0.0
 10
10.1789051793
 20
9.5196481133
 30
0.0
 10
10.1788196973
 20
9.5195331488
 30
0.0
 10
10.1786921404
 20
9.5193921822
 30
0.0
 10
10.1784752435
 20
9.5191397507
 30
0.0
 10
10.1781620825
 20
9.5187821352
 30
0.0
 10
10.1777877054
 20
9.5183517121
 30
0.0
 10
10.1772880414
 20
9.5177782633
 30
0.0
 10
10.1766636307
 20
9.5170612987
 30
0.0
 10
10.1756644789
 20
9.5159142411
 30
0.0
 10
10.1744155716
 20
9.5144803898
 30
0.0
 10
10.172916869
 20
9.5127597807
 30
0.0
 10
10.1714181701
 20
9.5110391683
 30
0.0
 10
10.1694199035
 20
9.5087450196
 30
0.0
 10
10.1669220709
 20
9.5058773333
 30
0.0
 10
10.1644242379
 20
9.5030096473
 30
0.0
 10
10.1624259719
 20
9.5007154981
 30
0.0
 10
10.1609272713
 20
9.4989948871
 30
0.0
 10
10.1594285748
 20
9.4972742731
 30
0.0
 10
10.1581796486
 20
9.4958404372
 30
0.0
 10
10.1571805353
 20
9.4946933481
 30
0.0
 10
10.1565560267
 20
9.4939764637
 30
0.0
 10
10.1560565636
 20
9.4934028501
 30
0.0
 10
10.1556815727
 20
9.4929729306
 30
0.0
 10
10.1553703321
 20
9.4926137395
 30
0.0
 10
10.1551500071
 20
9.4923641207
 30
0.0
 10
10.1550279428
 20
9.4922186476
 30
0.0
 10
10.1549255895
 20
9.4921175254
 30
0.0
 10
10.1548645386
 20
9.4919858894
 30
0.0
 10
10.1547687306
 20
9.4918210183
 30
0.0
 10
10.1546077791
 20
9.4915275348
 30
0.0
 10
10.1543743391
 20
9.4911108653
 30
0.0
 10
10.1540957131
 20
9.4906097522
 30
0.0
 10
10.1537236872
 20
9.4899419889
 30
0.0
 10
10.1532588345
 20
9.4891071522
 30
0.0
 10
10.1525149697
 20
9.4877714876
 30
0.0
 10
10.1515851731
 20
9.4861018813
 30
0.0
 10
10.1504694025
 20
9.4840983647
 30
0.0
 10
10.1493536358
 20
9.4820948452
 30
0.0
 10
10.1478659455
 20
9.4794234869
 30
0.0
 10
10.1460063331
 20
9.4760842886
 30
0.0
 10
10.1441467204
 20
9.4727450906
 30
0.0
 10
10.1426590307
 20
9.4700737319
 30
0.0
 10
10.1415432622
 20
9.4680702135
 30
0.0
 10
10.1404274982
 20
9.4660666929
 30
0.0
 10
10.1394976811
 20
9.4643970991
 30
0.0
 10
10.1387538581
 20
9.4630614092
 30
0.0
 10
10.138288899
 20
9.4622266368
 30
0.0
 10
10.1379170914
 20
9.4615587414
 30
0.0
 10
10.1376377985
 20
9.4610580321
 30
0.0
 10
10.1374064451
 20
9.4606400991
 30
0.0
 10
10.1372417686
 20
9.4603488712
 30
0.0
 10
10.1371519291
 20
9.460180386
 30
0.0
 10
10.1370725452
 20
9.4600598514
 30
0.0
 10
10.1370390476
 20
9.459917034
 30
0.0
 10
10.1369783785
 20
9.4597343833
 30
0.0
 10
10.1368796649
 20
9.4594111232
 30
0.0
 10
10.1367347467
 20
9.4589512163
 30
0.0
 10
10.1365625137
 20
9.4583985177
 30
0.0
 10
10.1363322868
 20
9.4576618693
 30
0.0
 10
10.1360447027
 20
9.4567409618
 30
0.0
 10
10.1355844566
 20
9.4552675641
 30
0.0
 10
10.1350091873
 20
9.4534257983
 30
0.0
 10
10.1343188478
 20
9.4512156873
 30
0.0
 10
10.1336285126
 20
9.4490055742
 30
0.0
 10
10.1327080642
 20
9.4460587574
 30
0.0
 10
10.1315575042
 20
9.4423752362
 30
0.0
 10
10.1304069438
 20
9.4386917152
 30
0.0
 10
10.129486496
 20
9.4357448982
 30
0.0
 10
10.128796159
 20
9.4335347859
 30
0.0
 10
10.1281058265
 20
9.4313246719
 30
0.0
 10
10.127530535
 20
9.4294829155
 30
0.0
 10
10.1270703343
 20
9.4280094986
 30
0.0
 10
10.1267826348
 20
9.42708864
 30
0.0
 10
10.1265526448
 20
9.4263518913
 30
0.0
 10
10.1263796881
 20
9.4257994989
 30
0.0
 10
10.1262370339
 20
9.4253386338
 30
0.0
 10
10.1261342787
 20
9.4250170844
 30
0.0
 10
10.1260800854
 20
9.4248316928
 30
0.0
 10
10.1260266963
 20
9.4246972945
 30
0.0
 10
10.1260220216
 20
9.4245451389
 30
0.0
 10
10.1259987966
 20
9.4243484586
 30
0.0
 10
10.1259660698
 20
9.4240013824
 30
0.0
 10
10.1259151782
 20
9.4235070679
 30
0.0
 10
10.1258558799
 20
9.4229132446
 30
0.0
 10
10.1257761967
 20
9.4221217059
 30
0.0
 10
10.1256768046
 20
9.4211322053
 30
0.0
 10
10.1255176588
 20
9.4195490475
 30
0.0
 10
10.1253187671
 20
9.4175700854
 30
0.0
 10
10.1250800798
 20
9.4151953373
 30
0.0
 10
10.124841397
 20
9.4128205874
 30
0.0
 10
10.1245231518
 20
9.4096542549
 30
0.0
 10
10.1241253458
 20
9.405696339
 30
0.0
 10
10.1237275395
 20
9.4017384231
 30
0.0
 10
10.1234092949
 20
9.3985720905
 30
0.0
 10
10.1231706102
 20
9.396197341
 30
0.0
 10
10.1229319303
 20
9.3938225915
 30
0.0
 10
10.1227330153
 20
9.3918436334
 30
0.0
 10
10.1225739171
 20
9.3902604675
 30
0.0
 10
10.1224744038
 20
9.3892709874
 30
0.0
 10
10.1223949693
 20
9.3884794066
 30
0.0
 10
10.1223349113
 20
9.3878857119
 30
0.0
 10
10.1222863964
 20
9.3873909954
 30
0.0
 10
10.1222494268
 20
9.3870446368
 30
0.0
 10
10.1222329999
 20
9.3868468066
 30
0.0
 10
10.1222074436
 20
9.3866981834
 30
0.0
 10
10.1222324828
 20
9.3865505179
 30
0.0
 10
10.12224822
 20
9.3863532966
 30
0.0
 10
10.1222839829
 20
9.386008315
 30
0.0
 10
10.1223307739
 20
9.3855154026
 30
0.0
 10
10.1223887631
 20
9.3849239427
 30
0.0
 10
10.1224654393
 20
9.3841353173
 30
0.0
 10
10.1225615047
 20
9.3831495396
 30
0.0
 10
10.1227150862
 20
9.3815722931
 30
0.0
 10
10.1229071054
 20
9.3796007358
 30
0.0
 10
10.1231375104
 20
9.3772348666
 30
0.0
 10
10.1233679201
 20
9.3748689975
 30
0.0
 10
10.1236751314
 20
9.3717145054
 30
0.0
 10
10.1240591462
 20
9.3677713903
 30
0.0
 10
10.1244431606
 20
9.3638282751
 30
0.0
 10
10.1247503726
 20
9.360673783
 30
0.0
 10
10.1249807804
 20
9.3583079138
 30
0.0
 10
10.1252111928
 20
9.3559420452
 30
0.0
 10
10.1254031886
 20
9.3539704862
 30
0.0
 10
10.1255568178
 20
9.3523932431
 30
0.0
 10
10.125652762
 20
9.3514074567
 30
0.0
 10
10.125729687
 20
9.3506188493
 30
0.0
 10
10.1257869162
 20
9.3500273341
 30
0.0
 10
10.1258360849
 20
9.3495345948
 30
0.0
 10
10.1258676031
 20
9.3491893042
 30
0.0
 10
10.1258901414
 20
9.3489925779
 30
0.0
 10
10.1258942901
 20
9.3488433921
 30
0.0
 10
10.1259471951
 20
9.3487004791
 30
0.0
 10
10.1260007284
 20
9.3485077404
 30
0.0
 10
10.1261023354
 20
9.3481714671
 30
0.0
 10
10.1262433456
 20
9.3476905437
 30
0.0
 10
10.1264143311
 20
9.3471136638
 30
0.0
 10
10.1266416924
 20
9.3463444108
 30
0.0
 10
10.126926106
 20
9.345382872
 30
0.0
 10
10.1273810493
 20
9.3438443945
 30
0.0
 10
10.1279497692
 20
9.3419213029
 30
0.0
 10
10.1286322155
 20
9.3396135908
 30
0.0
 10
10.1293146666
 20
9.3373058792
 30
0.0
 10
10.1302245996
 20
9.3342289303
 30
0.0
 10
10.1313620166
 20
9.3303827442
 30
0.0
 10
10.1324994331
 20
9.326536558
 30
0.0
 10
10.1334093668
 20
9.3234596092
 30
0.0
 10
10.1340918159
 20
9.3211518972
 30
0.0
 10
10.1347742695
 20
9.3188441868
 30
0.0
 10
10.135342967
 20
9.31692109
 30
0.0
 10
10.1357979557
 20
9.3153826231
 30
0.0
 10
10.1360822539
 20
9.3144210573
 30
0.0
 10
10.1363098523
 20
9.3136518596
 30
0.0
 10
10.1364801133
 20
9.3130748111
 30
0.0
 10
10.1366233901
 20
9.3125944149
 30
0.0
 10
10.1367209508
 20
9.3122572006
 30
0.0
 10
10.1367809673
 20
9.3120659696
 30
0.0
 10
10.1368139581
 20
9.3119184252
 30
0.0
 10
10.1368929015
 20
9.3117866343
 30
0.0
 10
10.1369821306
 20
9.311605418
 30
0.0
 10
10.1371457497
 20
9.3112908498
 30
0.0
 10
10.1373755868
 20
9.3108401282
 30
0.0
 10
10.1376530626
 20
9.3102998351
 30
0.0
 10
10.1380224465
 20
9.3095792443
 30
0.0
 10
10.1384843764
 20
9.3086785742
 30
0.0
 10
10.1392233524
 20
9.3072374639
 30
0.0
 10
10.1401471107
 20
9.305436089
 30
0.0
 10
10.1412556042
 20
9.3032744336
 30
0.0
 10
10.1423641022
 20
9.3011127797
 30
0.0
 10
10.1438420979
 20
9.2982305739
 30
0.0
 10
10.1456895932
 20
9.2946278169
 30
0.0
 10
10.147537088
 20
9.2910250598
 30
0.0
 10
10.1490150844
 20
9.2881428543
 30
0.0
 10
10.1501235805
 20
9.2859811996
 30
0.0
 10
10.1512320809
 20
9.283819547
 30
0.0
 10
10.152155818
 20
9.2820181635
 30
0.0
 10
10.1528948374
 20
9.2805770708
 30
0.0
 10
10.1533566567
 20
9.2796763557
 30
0.0
 10
10.1537262674
 20
9.2789558573
 30
0.0
 10
10.1540030504
 20
9.2784152817
 30
0.0
 10
10.154235055
 20
9.2779654441
 30
0.0
 10
10.1543948048
 20
9.2776492978
 30
0.0
 10
10.1544902335
 20
9.2774706101
 30
0.0
 10
10.1545501337
 20
9.2773310522
 30
0.0
 10
10.1546546478
 20
9.2772126791
 30
0.0
 10
10.1547784381
 20
9.2770474589
 30
0.0
 10
10.1550023216
 20
9.2767617663
 30
0.0
 10
10.1553183645
 20
9.2763518341
 30
0.0
 10
10.1556992386
 20
9.2758606859
 30
0.0
 10
10.156206504
 20
9.2752055525
 30
0.0
 10
10.1568407797
 20
9.2743867279
 30
0.0
 10
10.1578555124
 20
9.273076557
 30
0.0
 10
10.1591239656
 20
9.2714388611
 30
0.0
 10
10.1606460934
 20
9.2694736184
 30
0.0
 10
10.1621682255
 20
9.2675083778
 30
0.0
 10
10.1641977334
 20
9.2648880562
 30
0.0
 10
10.1667346189
 20
9.2616126545
 30
0.0
 10
10.1692715041
 20
9.2583372526
 30
0.0
 10
10.1713010126
 20
9.2557169314
 30
0.0
 10
10.1728231431
 20
9.2537516896
 30
0.0
 10
10.1743452768
 20
9.2517864513
 30
0.0
 10
10.1756137118
 20
9.2501487418
 30
0.0
 10
10.1766284815
 20
9.2488385987
 30
0.0
 10
10.1772626631
 20
9.2480197035
 30
0.0
 10
10.1777701218
 20
9.247364715
 30
0.0
 10
10.1781504051
 20
9.2468731242
 30
0.0
 10
10.1784682964
 20
9.2464645766
 30
0.0
 10
10.1786888803
 20
9.2461764122
 30
0.0
 10
10.1788179574
 20
9.2460151525
 30
0.0
 10
10.178906232
 20
9.2458846138
 30
0.0
 10
10.1790271248
 20
9.2457907479
 30
0.0
 10
10.1791769375
 20
9.2456528015
 30
0.0
 10
10.1794444108
 20
9.2454173552
 30
0.0
 10
10.1798237441
 20
9.2450778874
 30
0.0
 10
10.1802801303
 20
9.2446718598
 30
0.0
 10
10.180888231
 20
9.2441300239
 30
0.0
 10
10.1816484986
 20
9.2434528884
 30
0.0
 10
10.1828648476
 20
9.2423693825
 30
0.0
 10
10.184385311
 20
9.2410150308
 30
0.0
 10
10.1862098554
 20
9.2393897955
 30
0.0
 10
10.1880344029
 20
9.2377645638
 30
0.0
 10
10.1904671319
 20
9.235597587
 30
0.0
 10
10.1935080434
 20
9.2328888664
 30
0.0
 10
10.1965489548
 20
9.2301801454
 30
0.0
 10
10.1989816841
 20
9.2280131691
 30
0.0
 10
10.2008062305
 20
9.2263879358
 30
0.0
 10
10.2026307794
 20
9.2247627064
 30
0.0
 10
10.2041512286
 20
9.2234083367
 30
0.0
 10
10.2053676065
 20
9.2223248673
 30
0.0
 10
10.2061278006
 20
9.2216476391
 30
0.0
 10
10.2067360521
 20
9.2211059935
 30
0.0
 10
10.2071919774
 20
9.2206993842
 30
0.0
 10
10.207572753
 20
9.2203617366
 30
0.0
 10
10.2078376515
 20
9.2201230409
 30
0.0
 10
10.2079915898
 20
9.2199903009
 30
0.0
 10
10.2080998101
 20
9.2198804425
 30
0.0
 10
10.2082356801
 20
9.219809969
 30
0.0
 10
10.2084071955
 20
9.2197022664
 30
0.0
 10
10.208711841
 20
9.2195201877
 30
0.0
 10
10.2091446996
 20
9.2192567288
 30
0.0
 10
10.2096651355
 20
9.2189420105
 30
0.0
 10
10.2103586988
 20
9.2185218858
 30
0.0
 10
10.2112257732
 20
9.2179969012
 30
0.0
 10
10.2126130251
 20
9.2171568302
 30
0.0
 10
10.2143471129
 20
9.2161067742
 30
0.0
 10
10.2164280085
 20
9.214846693
 30
0.0
 10
10.2185089066
 20
9.2135866155
 30
0.0
 10
10.2212834366
 20
9.2119065109
 30
0.0
 10
10.2247515995
 20
9.2098063807
 30
0.0
 10
10.2282197621
 20
9.20770625
 30
0.0
 10
10.2309942924
 20
9.206026146
 30
0.0
 10
10.2330751896
 20
9.2047660668
 30
0.0
 10
10.2351560887
 20
9.2035059919
 30
0.0
 10
10.2368901656
 20
9.2024559163
 30
0.0
 10
10.2382774398
 20
9.2016158854
 30
0.0
 10
10.2391444572
 20
9.2010907985
 30
0.0
 10
10.2398381375
 20
9.200670884
 30
0.0
 10
10.2403582158
 20
9.2003555235
 30
0.0
 10
10.2407921933
 20
9.2000940737
 30
0.0
 10
10.2410948415
 20
9.1999084085
 30
0.0
 10
10.2412695571
 20
9.1998064524
 30
0.0
 10
10.241395597
 20
9.1997183276
 30
0.0
 10
10.2415407375
 20
9.1996747645
 30
0.0
 10
10.2417275956
 20
9.1996011367
 30
0.0
 10
10.2420577015
 20
9.1994795302
 30
0.0
 10
10.2425276585
 20
9.1993020204
 30
0.0
 10
10.2430923015
 20
9.1990906292
 30
0.0
 10
10.2438449162
 20
9.1988082083
 30
0.0
 10
10.2447857677
 20
9.1984553759
 30
0.0
 10
10.2462910836
 20
9.1978907359
 30
0.0
 10
10.2481727445
 20
9.197184973
 30
0.0
 10
10.2504307307
 20
9.1963380415
 30
0.0
 10
10.2526887187
 20
9.1954911143
 30
0.0
 10
10.2556993687
 20
9.1943618766
 30
0.0
 10
10.2594626815
 20
9.19295033
 30
0.0
 10
10.2632259942
 20
9.191538783
 30
0.0
 10
10.2662366445
 20
9.1904095459
 30
0.0
 10
10.2684946318
 20
9.1895626169
 30
0.0
 10
10.2707526205
 20
9.1887156924
 30
0.0
 10
10.2726342735
 20
9.1880099078
 30
0.0
 10
10.2741396055
 20
9.187445312
 30
0.0
 10
10.2750804161
 20
9.1870923671
 30
0.0
 10
10.2758331147
 20
9.1868101772
 30
0.0
 10
10.2763975016
 20
9.1865980802
 30
0.0
 10
10.2768682598
 20
9.1864227788
 30
0.0
 10
10.2771969354
 20
9.1862972298
 30
0.0
 10
10.2773860853
 20
9.1862299189
 30
0.0
 10
10.2775241861
 20
9.1861669525
 30
0.0
 10
10.277676666
 20
9.1861517033
 30
0.0
 10
10.277874957
 20
9.1861147268
 30
0.0
 10
10.278224303
 20
9.1860577728
 30
0.0
 10
10.2787221471
 20
9.1859723555
 30
0.0
 10
10.2793200829
 20
9.1858715903
 30
0.0
 10
10.280117148
 20
9.1857366304
 30
0.0
 10
10.281113542
 20
9.1855681381
 30
0.0
 10
10.2827077373
 20
9.1852984345
 30
0.0
 10
10.2847004934
 20
9.1849613448
 30
0.0
 10
10.2870917957
 20
9.18455682
 30
0.0
 10
10.2894830993
 20
9.1841522998
 30
0.0
 10
10.2926715036
 20
9.183612938
 30
0.0
 10
10.2966570092
 20
9.1829387362
 30
0.0
 10
10.3014396159
 20
9.1821296939
 30
0.0
 10
10.3078164247
 20
9.1810509708
 30
0.0
 10
10.3125990314
 20
9.1802419285
 30
0.0
 10
10.3157874358
 20
9.179702567
 30
0.0
  0
SPLINE
  5
3A4
100
AcDbEntity
  8
0
100
AcDbSpline
 62
4
  6
CONTINUOUS
 70
0
 71
3
 72
403
 73
399
 74
0
 42
0.0000001
 43
0.0000001
 44
0.0000000001
 40
0.0
 40
0.0
 40
0.0
 40
0.0
 40
0.015625
 40
0.0234375
 40
0.03125
 40
0.0390625
 40
0.04296875
 40
0.046875
 40
0.05078125
 40
0.0546875
 40
0.056640625
 40
0.05859375
 40
0.0595703125
 40
0.060546875
 40
0.0615234375
 40
0.0620117188
 40
0.0622558594
 40
0.0625
 40
0.0627441406
 40
0.0629882812
 40
0.0634765625
 40
0.064453125
 40
0.0654296875
 40
0.06640625
 40
0.068359375
 40
0.0703125
 40
0.07421875
 40
0.078125
 40
0.08203125
 40
0.0859375
 40
0.09375
 40
0.1015625
 40
0.10546875
 40
0.109375
 40
0.11328125
 40
0.1171875
 40
0.119140625
 40
0.12109375
 40
0.1220703125
 40
0.123046875
 40
0.1240234375
 40
0.1245117188
 40
0.1247558594
 40
0.125
 40
0.1252441406
 40
0.1254882812
 40
0.1259765625
 40
0.126953125
 40
0.1279296875
 40
0.12890625
 40
0.130859375
 40
0.1328125
 40
0.13671875
 40
0.140625
 40
0.14453125
 40
0.1484375
 40
0.15625
 40
0.1640625
 40
0.16796875
 40
0.171875
 40
0.17578125
 40
0.1796875
 40
0.181640625
 40
0.18359375
 40
0.1845703125
 40
0.185546875
 40
0.1865234375
 40
0.1870117188
 40
0.1872558594
 40
0.1875
 40
0.1877441406
 40
0.1879882812
 40
0.1884765625
 40
0.189453125
 40
0.1904296875
 40
0.19140625
 40
0.193359375
 40
0.1953125
 40
0.19921875
 40
0.203125
 40
0.20703125
 40
0.2109375
 40
0.21875
 40
0.2265625
 40
0.23046875
 40
0.234375
 40
0.23828125
 40
0.2421875
 40
0.244140625
 40
0.24609375
 40
0.2470703125
 40
0.248046875
 40
0.2490234375
 40
0.2495117188
 40
0.2497558594
 40
0.25
 40
0.2502441406
 40
0.2504882812
 40
0.2509765625
 40
0.251953125
 40
0.2529296875
 40
0.25390625
 40
0.255859375
 40
0.2578125
 40
0.26171875
 40
0.265625
 40
0.26953125
 40
0.2734375
 40
0.28125
 40
0.2890625
 40
0.29296875
 40
0.296875
 40
0.30078125
 40
0.3046875
 40
0.306640625
 40
0.30859375
 40
0.3095703125
 40
0.310546875
 40
0.3115234375
 40
0.3120117188
 40
0.3122558594
 40
0.3125
 40
0.3127441406
 40
0.3129882812
 40
0.3134765625
 40
0.314453125
 40
0.3154296875
 40
0.31640625
 40
0.318359375
 40
0.3203125
 40
0.32421875
 40
0.328125
 40
0.33203125
 40
0.3359375
 40
0.34375
 40
0.3515625
 40
0.35546875
 40
0.359375
 40
0.36328125
 40
0.3671875
 40
0.369140625
 40
0.37109375
 40
0.3720703125
 40
0.373046875
 40
0.3740234375
 40
0.3745117188
 40
0.3747558594
 40
0.375
 40
0.3752441406
 40
0.3754882812
 40
0.3759765625
 40
0.376953125
 40
0.3779296875
 40
0.37890625
 40
0.380859375
 40
0.3828125
 40
0.38671875
 40
0.390625
 40
0.39453125
 40
0.3984375
 40
0.40625
 40
0.4140625
 40
0.41796875
 40
0.421875
 40
0.42578125
 40
0.4296875
 40
0.431640625
 40
0.43359375
 40
0.4345703125
 40
0.435546875
 40
0.4365234375
 40
0.4370117188
 40
0.4372558594
 40
0.4375
 40
0.4377441406
 40
0.4379882812
 40
0.4384765625
 40
0.439453125
 40
0.4404296875
 40
0.44140625
 40
0.443359375
 40
0.4453125
 40
0.44921875
 40
0.453125
 40
0.45703125
 40
0.4609375
 40
0.46875
 40
0.4765625
 40
0.48046875
 40
0.484375
 40
0.48828125
 40
0.4921875
 40
0.494140625
 40
0.49609375
 40
0.4970703125
 40
0.498046875
 40
0.4990234375
 40
0.4995117188
 40
0.4997558594
 40
0.5
 40
0.5002441406
 40
0.5004882812
 40
0.5009765625
 40
0.501953125
 40
0.5029296875
 40
0.50390625
 40
0.505859375
 40
0.5078125
 40
0.51171875
 40
0.515625
 40
0.51953125
 40
0.5234375
 40
0.53125
 40
0.5390625
 40
0.54296875
 40
0.546875
 40
0.55078125
 40
0.5546875
 40
0.556640625
 40
0.55859375
 40
0.5595703125
 40
0.560546875
 40
0.5615234375
 40
0.5620117188
 40
0.5622558594
 40
0.5625
 40
0.5627441406
 40
0.5629882812
 40
0.5634765625
 40
0.564453125
 40
0.5654296875
 40
0.56640625
 40
0.568359375
 40
0.5703125
 40
0.57421875
 40
0.578125
 40
0.58203125
 40
0.5859375
 40
0.59375
 40
0.6015625
 40
0.60546875
 40
0.609375
 40
0.61328125
 40
0.6171875
 40
0.619140625
 40
0.62109375
 40
0.6220703125
 40
0.623046875
 40
0.6240234375
 40
0.6245117188
 40
0.6247558594
 40
0.625
 40
0.6252441406
 40
0.6254882812
 40
0.6259765625
 40
0.626953125
 40
0.6279296875
 40
0.62890625
 40
0.630859375
 40
0.6328125
 40
0.63671875
 40
0.640625
 40
0.64453125
 40
0.6484375
 40
0.65625
 40
0.6640625
 40
0.66796875
 40
0.671875
 40
0.67578125
 40
0.6796875
 40
0.681640625
 40
0.68359375
 40
0.6845703125
 40
0.685546875
 40
0.6865234375
 40
0.6870117188
 40
0.6872558594
 40
0.6875
 40
0.6877441406
 40
0.6879882812
 40
0.6884765625
 40
0.689453125
 40
0.6904296875
 40
0.69140625
 40
0.693359375
 40
0.6953125
 40
0.69921875
 40
0.703125
 40
0.70703125
 40
0.7109375
 40
0.71875
 40
0.7265625
 40
0.73046875
 40
0.734375
 40
0.73828125
 40
0.7421875
 40
0.744140625
 40
0.74609375
 40
0.7470703125
 40
0.748046875
 40
0.7490234375
 40
0.7495117188
 40
0.7497558594
 40
0.75
 40
0.7502441406
 40
0.7504882812
 40
0.7509765625
 40
0.751953125
 40
0.7529296875
 40
0.75390625
 40
0.755859375
 40
0.7578125
 40
0.76171875
 40
0.765625
 40
0.76953125
 40
0.7734375
 40
0.78125
 40
0.7890625
 40
0.79296875
 40
0.796875
 40
0.80078125
 40
0.8046875
 40
0.806640625
 40
0.80859375
 40
0.8095703125
 40
0.810546875
 40
0.8115234375
 40
0.8120117188
 40
0.8122558594
 40
0.8125
 40
0.8127441406
 40
0.8129882812
 40
0.8134765625
 40
0.814453125
 40
0.8154296875
 40
0.81640625
 40
0.818359375
 40
0.8203125
 40
0.82421875
 40
0.828125
 40
0.83203125
 40
0.8359375
 40
0.84375
 40
0.8515625
 40
0.85546875
 40
0.859375
 40
0.86328125
 40
0.8671875
 40
0.869140625
 40
0.87109375
 40
0.8720703125
 40
0.873046875
 40
0.8740234375
 40
0.8745117188
 40
0.8747558594
 40
0.875
 40
0.8752441406
 40
0.8754882812
 40
0.8759765625
 40
0.876953125
 40
0.8779296875
 40
0.87890625
 40
0.880859375
 40
0.8828125
 40
0.88671875
 40
0.890625
 40
0.89453125
 40
0.8984375
 40
0.90625
 40
0.9140625
 40
0.91796875
 40
0.921875
 40
0.92578125
 40
0.9296875
 40
0.931640625
 40
0.93359375
 40
0.9345703125
 40
0.935546875
 40
0.9365234375
 40
0.9370117188
 40
0.9372558594
 40
0.9375
 40
0.9377441406
 40
0.9379882812
 40
0.9384765625
 40
0.939453125
 40
0.9404296875
 40
0.94140625
 40
0.943359375
 40
0.9453125
 40
0.94921875
 40
0.953125
 40
0.95703125
 40
0.9609375
 40
0.96875
 40
0.9765625
 40
0.984375
 40
1.0
 40
1.0
 40
1.0
 40
1.0
 10
10.3157874189
 20
9.1797025682
 30
0.0
 10
10.3189206058
 20
9.1797924926
 30
0.0
 10
10.3236203862
 20
9.1799273792
 30
0.0
 10
10.32988676
 20
9.180107228
 30
0.0
 10
10.3345865404
 20
9.1802421147
 30
0.0
 10
10.3385030241
 20
9.18035452
 30
0.0
 10
10.3416362109
 20
9.1804444448
 30
0.0
 10
10.3439861013
 20
9.1805118871
 30
0.0
 10
10.3463359908
 20
9.1805793341
 30
0.0
 10
10.3482942349
 20
9.1806355253
 30
0.0
 10
10.3498608237
 20
9.1806805112
 30
0.0
 10
10.3508399564
 20
9.1807085523
 30
0.0
 10
10.3516232289
 20
9.1807311571
 30
0.0
 10
10.3522107753
 20
9.1807476399
 30
0.0
 10
10.3527001048
 20
9.1807628735
 30
0.0
 10
10.3530432095
 20
9.1807705973
 30
0.0
 10
10.3532383729
 20
9.180779601
 30
0.0
 10
10.3533872709
 20
9.1807734235
 30
0.0
 10
10.353526515
 20
9.1808166719
 30
0.0
 10
10.3537155411
 20
9.1808570962
 30
0.0
 10
10.3540447679
 20
9.1809358712
 30
0.0
 10
10.3545159122
 20
9.1810442075
 30
0.0
 10
10.3550809343
 20
9.1811760085
 30
0.0
 10
10.3558344197
 20
9.1813511154
 30
0.0
 10
10.3567762344
 20
9.181570214
 30
0.0
 10
10.3582831614
 20
9.1819206516
 30
0.0
 10
10.3601668121
 20
9.1823587398
 30
0.0
 10
10.3624271965
 20
9.182884428
 30
0.0
 10
10.3646875799
 20
9.1834101209
 30
0.0
 10
10.3677014248
 20
9.1841110431
 30
0.0
 10
10.3714687307
 20
9.1849871965
 30
0.0
 10
10.3752360368
 20
9.1858633495
 30
0.0
 10
10.3782498815
 20
9.1865642723
 30
0.0
 10
10.3805102654
 20
9.1870899633
 30
0.0
 10
10.3827706476
 20
9.1876156588
 30
0.0
 10
10.3846543051
 20
9.1880537243
 30
0.0
 10
10.3861612184
 20
9.1884042082
 30
0.0
 10
10.387103068
 20
9.1886231888
 30
0.0
 10
10.3878564818
 20
9.1887985378
 30
0.0
 10
10.3884217225
 20
9.1889295992
 30
0.0
 10
10.3888921825
 20
9.1890402496
 30
0.0
 10
10.389222631
 20
9.1891148936
 30
0.0
 10
10.3894096997
 20
9.1891619368
 30
0.0
 10
10.3895549563
 20
9.189184854
 30
0.0
 10
10.3896812724
 20
9.1892550374
 30
0.0
 10
10.3898563006
 20
9.1893321282
 30
0.0
 10
10.3901595218
 20
9.1894747189
 30
0.0
 10
10.3905943042
 20
9.1896744037
 30
0.0
 10
10.3911153542
 20
9.1899157445
 30
0.0
 10
10.3918103282
 20
9.1902369319
 30
0.0
 10
10.3926789633
 20
9.1906386216
 30
0.0
 10
10.3940688256
 20
9.1912812104
 30
0.0
 10
10.3958061375
 20
9.1920844857
 30
0.0
 10
10.3978909187
 20
9.1930483992
 30
0.0
 10
10.399975698
 20
9.1940123172
 30
0.0
 10
10.4027554044
 20
9.1952975397
 30
0.0
 10
10.4062300371
 20
9.1969040683
 30
0.0
 10
10.4097046701
 20
9.1985105966
 30
0.0
 10
10.4124843762
 20
9.1997958196
 30
0.0
 10
10.4145691564
 20
9.2007597358
 30
0.0
 10
10.4166539343
 20
9.2017236563
 30
0.0
 10
10.4183912564
 20
9.2025269097
 30
0.0
 10
10.4197810979
 20
9.2031695432
 30
0.0
 10
10.4206497857
 20
9.2035711189
 30
0.0
 10
10.4213446515
 20
9.2038925405
 30
0.0
 10
10.4218660321
 20
9.2041331656
 30
0.0
 10
10.4222997802
 20
9.2043350897
 30
0.0
 10
10.4226048478
 20
9.2044736829
 30
0.0
 10
10.4227769175
 20
9.2045571786
 30
0.0
 10
10.4229123213
 20
9.2046076885
 30
0.0
 10
10.4230234463
 20
9.204704496
 30
0.0
 10
10.4231800817
 20
9.2048174236
 30
0.0
 10
10.4234502479
 20
9.2050225711
 30
0.0
 10
10.4238382624
 20
9.2053117051
 30
0.0
 10
10.424302997
 20
9.2056603497
 30
0.0
 10
10.4249229514
 20
9.2061246211
 30
0.0
 10
10.4256977888
 20
9.2067051617
 30
0.0
 10
10.4269375877
 20
9.2076339141
 30
0.0
 10
10.4284873161
 20
9.2087948932
 30
0.0
 10
10.4303469989
 20
9.2101880516
 30
0.0
 10
10.4322066793
 20
9.2115812144
 30
0.0
 10
10.434686254
 20
9.2134387632
 30
0.0
 10
10.4377857221
 20
9.2157606999
 30
0.0
 10
10.4408851904
 20
9.2180826362
 30
0.0
 10
10.4433647647
 20
9.2199401856
 30
0.0
 10
10.4452244464
 20
9.2213333468
 30
0.0
 10
10.4470841244
 20
9.2227265113
 30
0.0
 10
10.4486338676
 20
9.2238874713
 30
0.0
 10
10.4498736362
 20
9.2248162628
 30
0.0
 10
10.4506485507
 20
9.2253967038
 30
0.0
 10
10.4512683469
 20
9.2258611795
 30
0.0
 10
10.451733565
 20
9.2262091998
 30
0.0
 10
10.4521200667
 20
9.2265002872
 30
0.0
 10
10.4523929336
 20
9.2267019477
 30
0.0
 10
10.4525452417
 20
9.2268204622
 30
0.0
 10
10.4526696585
 20
9.2269001085
 30
0.0
 10
10.4527551405
 20
9.227015073
 30
0.0
 10
10.4528826974
 20
9.2271560397
 30
0.0
 10
10.4530995943
 20
9.2274084711
 30
0.0
 10
10.4534127553
 20
9.2277660866
 30
0.0
 10
10.4537871324
 20
9.2281965097
 30
0.0
 10
10.4542867964
 20
9.2287699585
 30
0.0
 10
10.4549112071
 20
9.2294869231
 30
0.0
 10
10.4559103589
 20
9.2306339807
 30
0.0
 10
10.4571592662
 20
9.2320678321
 30
0.0
 10
10.4586579688
 20
9.2337884411
 30
0.0
 10
10.4601566677
 20
9.2355090535
 30
0.0
 10
10.4621549343
 20
9.2378032022
 30
0.0
 10
10.4646527669
 20
9.2406708885
 30
0.0
 10
10.4671505999
 20
9.2435385745
 30
0.0
 10
10.4691488659
 20
9.2458327237
 30
0.0
 10
10.4706475665
 20
9.2475533347
 30
0.0
 10
10.472146263
 20
9.2492739488
 30
0.0
 10
10.4733951892
 20
9.2507077847
 30
0.0
 10
10.4743943025
 20
9.2518548738
 30
0.0
 10
10.4750188111
 20
9.2525717581
 30
0.0
 10
10.4755182742
 20
9.2531453717
 30
0.0
 10
10.4758932651
 20
9.2535752912
 30
0.0
 10
10.4762045057
 20
9.2539344823
 30
0.0
 10
10.4764248307
 20
9.2541841011
 30
0.0
 10
10.476546895
 20
9.2543295742
 30
0.0
 10
10.4766492483
 20
9.2544306964
 30
0.0
 10
10.4767102992
 20
9.2545623324
 30
0.0
 10
10.4768061072
 20
9.2547272035
 30
0.0
 10
10.4769670587
 20
9.255020687
 30
0.0
 10
10.4772004987
 20
9.2554373565
 30
0.0
 10
10.4774791247
 20
9.2559384696
 30
0.0
 10
10.4778511506
 20
9.2566062329
 30
0.0
 10
10.4783160033
 20
9.2574410696
 30
0.0
 10
10.4790598681
 20
9.2587767343
 30
0.0
 10
10.4799896647
 20
9.2604463405
 30
0.0
 10
10.4811054353
 20
9.2624498571
 30
0.0
 10
10.482221202
 20
9.2644533766
 30
0.0
 10
10.4837088923
 20
9.2671247349
 30
0.0
 10
10.4855685047
 20
9.2704639332
 30
0.0
 10
10.4874281174
 20
9.2738031312
 30
0.0
 10
10.4889158071
 20
9.2764744899
 30
0.0
 10
10.4900315756
 20
9.2784780083
 30
0.0
 10
10.4911473396
 20
9.2804815289
 30
0.0
 10
10.4920771567
 20
9.2821511227
 30
0.0
 10
10.4928209797
 20
9.2834868127
 30
0.0
 10
10.4932859388
 20
9.284321585
 30
0.0
 10
10.4936577464
 20
9.2849894804
 30
0.0
 10
10.4939370393
 20
9.2854901897
 30
0.0
 10
10.4941683927
 20
9.2859081228
 30
0.0
 10
10.4943330692
 20
9.2861993506
 30
0.0
 10
10.4944229087
 20
9.2863678359
 30
0.0
 10
10.4945022926
 20
9.2864883704
 30
0.0
 10
10.4945357902
 20
9.2866311878
 30
0.0
 10
10.4945964593
 20
9.2868138385
 30
0.0
 10
10.4946951729
 20
9.2871370986
 30
0.0
 10
10.4948400911
 20
9.2875970055
 30
0.0
 10
10.4950123241
 20
9.2881497041
 30
0.0
 10
10.495242551
 20
9.2888863525
 30
0.0
 10
10.4955301351
 20
9.28980726
 30
0.0
 10
10.4959903812
 20
9.2912806577
 30
0.0
 10
10.4965656505
 20
9.2931224235
 30
0.0
 10
10.49725599
 20
9.2953325345
 30
0.0
 10
10.4979463252
 20
9.2975426476
 30
0.0
 10
10.4988667736
 20
9.3004894644
 30
0.0
 10
10.5000173336
 20
9.3041729856
 30
0.0
 10
10.501167894
 20
9.3078565066
 30
0.0
 10
10.5020883418
 20
9.3108033236
 30
0.0
 10
10.5027786788
 20
9.3130134359
 30
0.0
 10
10.5034690113
 20
9.3152235499
 30
0.0
 10
10.5040443028
 20
9.3170653063
 30
0.0
 10
10.5045045035
 20
9.3185387232
 30
0.0
 10
10.504792203
 20
9.3194595819
 30
0.0
 10
10.505022193
 20
9.3201963305
 30
0.0
 10
10.5051951497
 20
9.3207487229
 30
0.0
 10
10.5053378039
 20
9.321209588
 30
0.0
 10
10.5054405591
 20
9.3215311374
 30
0.0
 10
10.5054947524
 20
9.3217165291
 30
0.0
 10
10.5055481415
 20
9.3218509273
 30
0.0
 10
10.5055528162
 20
9.3220030829
 30
0.0
 10
10.5055760412
 20
9.3221997632
 30
0.0
 10
10.505608768
 20
9.3225468395
 30
0.0
 10
10.5056596596
 20
9.323041154
 30
0.0
 10
10.5057189579
 20
9.3236349772
 30
0.0
 10
10.5057986411
 20
9.3244265159
 30
0.0
 10
10.5058980332
 20
9.3254160165
 30
0.0
 10
10.506057179
 20
9.3269991743
 30
0.0
 10
10.5062560707
 20
9.3289781364
 30
0.0
 10
10.506494758
 20
9.3313528846
 30
0.0
 10
10.5067334408
 20
9.3337276344
 30
0.0
 10
10.507051686
 20
9.336893967
 30
0.0
 10
10.507449492
 20
9.3408518828
 30
0.0
 10
10.5078472983
 20
9.3448097987
 30
0.0
 10
10.5081655429
 20
9.3479761313
 30
0.0
 10
10.5084042276
 20
9.3503508808
 30
0.0
 10
10.5086429075
 20
9.3527256303
 30
0.0
 10
10.5088418225
 20
9.3547045884
 30
0.0
 10
10.5090009207
 20
9.3562877543
 30
0.0
 10
10.509100434
 20
9.3572772344
 30
0.0
 10
10.5091798685
 20
9.3580688152
 30
0.0
 10
10.5092399265
 20
9.3586625099
 30
0.0
 10
10.5092884414
 20
9.3591572264
 30
0.0
 10
10.509325411
 20
9.359503585
 30
0.0
 10
10.5093418379
 20
9.3597014152
 30
0.0
 10
10.5093673942
 20
9.3598500385
 30
0.0
 10
10.509342355
 20
9.3599977039
 30
0.0
 10
10.5093266178
 20
9.3601949252
 30
0.0
 10
10.5092908549
 20
9.3605399069
 30
0.0
 10
10.5092440639
 20
9.3610328192
 30
0.0
 10
10.5091860747
 20
9.3616242791
 30
0.0
 10
10.5091093985
 20
9.3624129045
 30
0.0
 10
10.5090133331
 20
9.3633986822
 30
0.0
 10
10.5088597516
 20
9.3649759287
 30
0.0
 10
10.5086677324
 20
9.366947486
 30
0.0
 10
10.5084373274
 20
9.3693133552
 30
0.0
 10
10.5082069177
 20
9.3716792243
 30
0.0
 10
10.5078997064
 20
9.3748337164
 30
0.0
 10
10.5075156916
 20
9.3787768315
 30
0.0
 10
10.5071316772
 20
9.3827199467
 30
0.0
 10
10.5068244652
 20
9.3858744388
 30
0.0
 10
10.5065940574
 20
9.388240308
 30
0.0
 10
10.506363645
 20
9.3906061766
 30
0.0
 10
10.5061716492
 20
9.3925777357
 30
0.0
 10
10.50601802
 20
9.3941549787
 30
0.0
 10
10.5059220758
 20
9.3951407652
 30
0.0
 10
10.5058451508
 20
9.3959293725
 30
0.0
 10
10.5057879216
 20
9.3965208877
 30
0.0
 10
10.5057387529
 20
9.397013627
 30
0.0
 10
10.5057072347
 20
9.3973589176
 30
0.0
 10
10.5056846964
 20
9.3975556439
 30
0.0
 10
10.5056805477
 20
9.3977048297
 30
0.0
 10
10.5056276427
 20
9.3978477427
 30
0.0
 10
10.5055741094
 20
9.3980404814
 30
0.0
 10
10.5054725024
 20
9.3983767547
 30
0.0
 10
10.5053314922
 20
9.3988576781
 30
0.0
 10
10.5051605067
 20
9.3994345581
 30
0.0
 10
10.5049331454
 20
9.400203811
 30
0.0
 10
10.5046487318
 20
9.4011653499
 30
0.0
 10
10.5041937885
 20
9.4027038273
 30
0.0
 10
10.5036250686
 20
9.4046269189
 30
0.0
 10
10.5029426223
 20
9.406934631
 30
0.0
 10
10.5022601712
 20
9.4092423426
 30
0.0
 10
10.5013502382
 20
9.4123192915
 30
0.0
 10
10.5002128212
 20
9.4161654776
 30
0.0
 10
10.4990754047
 20
9.4200116638
 30
0.0
 10
10.498165471
 20
9.4230886126
 30
0.0
 10
10.4974830219
 20
9.4253963246
 30
0.0
 10
10.4968005683
 20
9.4277040351
 30
0.0
 10
10.4962318708
 20
9.4296271318
 30
0.0
 10
10.4957768821
 20
9.4311655987
 30
0.0
 10
10.4954925839
 20
9.4321271645
 30
0.0
 10
10.4952649855
 20
9.4328963623
 30
0.0
 10
10.4950947245
 20
9.4334734107
 30
0.0
 10
10.4949514477
 20
9.4339538069
 30
0.0
 10
10.494853887
 20
9.4342910212
 30
0.0
 10
10.4947938705
 20
9.4344822522
 30
0.0
 10
10.4947608797
 20
9.4346297966
 30
0.0
 10
10.4946819363
 20
9.4347615875
 30
0.0
 10
10.4945927072
 20
9.4349428038
 30
0.0
 10
10.4944290881
 20
9.435257372
 30
0.0
 10
10.494199251
 20
9.4357080936
 30
0.0
 10
10.4939217752
 20
9.4362483867
 30
0.0
 10
10.4935523913
 20
9.4369689775
 30
0.0
 10
10.4930904614
 20
9.4378696476
 30
0.0
 10
10.4923514854
 20
9.439310758
 30
0.0
 10
10.4914277271
 20
9.4411121328
 30
0.0
 10
10.4903192336
 20
9.4432737882
 30
0.0
 10
10.4892107356
 20
9.4454354421
 30
0.0
 10
10.4877327399
 20
9.4483176479
 30
0.0
 10
10.4858852446
 20
9.4519204049
 30
0.0
 10
10.4840377498
 20
9.455523162
 30
0.0
 10
10.4825597534
 20
9.4584053675
 30
0.0
 10
10.4814512573
 20
9.4605670222
 30
0.0
 10
10.4803427569
 20
9.4627286748
 30
0.0
 10
10.4794190198
 20
9.4645300583
 30
0.0
 10
10.4786800004
 20
9.465971151
 30
0.0
 10
10.4782181811
 20
9.4668718661
 30
0.0
 10
10.4778485704
 20
9.4675923645
 30
0.0
 10
10.4775717874
 20
9.4681329401
 30
0.0
 10
10.4773397828
 20
9.4685827777
 30
0.0
 10
10.477180033
 20
9.468898924
 30
0.0
 10
10.4770846043
 20
9.4690776117
 30
0.0
 10
10.4770247041
 20
9.4692171696
 30
0.0
 10
10.47692019
 20
9.4693355427
 30
0.0
 10
10.4767963997
 20
9.4695007629
 30
0.0
 10
10.4765725162
 20
9.4697864555
 30
0.0
 10
10.4762564733
 20
9.4701963877
 30
0.0
 10
10.4758755992
 20
9.4706875359
 30
0.0
 10
10.4753683338
 20
9.4713426693
 30
0.0
 10
10.4747340581
 20
9.472161494
 30
0.0
 10
10.4737193254
 20
9.4734716648
 30
0.0
 10
10.4724508722
 20
9.4751093607
 30
0.0
 10
10.4709287444
 20
9.4770746034
 30
0.0
 10
10.4694066123
 20
9.479039844
 30
0.0
 10
10.4673771044
 20
9.4816601656
 30
0.0
 10
10.4648402189
 20
9.4849355673
 30
0.0
 10
10.4623033337
 20
9.4882109692
 30
0.0
 10
10.4602738252
 20
9.4908312904
 30
0.0
 10
10.4587516947
 20
9.4927965322
 30
0.0
 10
10.457229561
 20
9.4947617705
 30
0.0
 10
10.455961126
 20
9.49639948
 30
0.0
 10
10.4549463563
 20
9.4977096231
 30
0.0
 10
10.4543121747
 20
9.4985285183
 30
0.0
 10
10.453804716
 20
9.4991835068
 30
0.0
 10
10.4534244327
 20
9.4996750976
 30
0.0
 10
10.4531065414
 20
9.5000836452
 30
0.0
 10
10.4528859575
 20
9.5003718096
 30
0.0
 10
10.4527568804
 20
9.5005330693
 30
0.0
 10
10.4526686058
 20
9.500663608
 30
0.0
 10
10.452547713
 20
9.5007574739
 30
0.0
 10
10.4523979003
 20
9.5008954204
 30
0.0
 10
10.452130427
 20
9.5011308666
 30
0.0
 10
10.4517510937
 20
9.5014703344
 30
0.0
 10
10.4512947075
 20
9.501876362
 30
0.0
 10
10.4506866068
 20
9.502418198
 30
0.0
 10
10.4499263392
 20
9.5030953334
 30
0.0
 10
10.4487099902
 20
9.5041788393
 30
0.0
 10
10.4471895268
 20
9.5055331911
 30
0.0
 10
10.4453649824
 20
9.5071584263
 30
0.0
 10
10.4435404349
 20
9.508783658
 30
0.0
 10
10.4411077059
 20
9.5109506349
 30
0.0
 10
10.4380667944
 20
9.5136593555
 30
0.0
 10
10.435025883
 20
9.5163680764
 30
0.0
 10
10.4325931537
 20
9.5185350527
 30
0.0
 10
10.4307686073
 20
9.520160286
 30
0.0
 10
10.4289440584
 20
9.5217855154
 30
0.0
 10
10.4274236092
 20
9.5231398851
 30
0.0
 10
10.4262072313
 20
9.5242233545
 30
0.0
 10
10.4254470372
 20
9.5249005827
 30
0.0
 10
10.4248387857
 20
9.5254422283
 30
0.0
 10
10.4243828604
 20
9.5258488377
 30
0.0
 10
10.4240020848
 20
9.5261864852
 30
0.0
 10
10.4237371863
 20
9.5264251809
 30
0.0
 10
10.423583248
 20
9.5265579209
 30
0.0
 10
10.4234750277
 20
9.5266677793
 30
0.0
 10
10.4233391577
 20
9.5267382528
 30
0.0
 10
10.4231676423
 20
9.5268459554
 30
0.0
 10
10.4228629968
 20
9.5270280341
 30
0.0
 10
10.4224301382
 20
9.527291493
 30
0.0
 10
10.4219097023
 20
9.5276062113
 30
0.0
 10
10.421216139
 20
9.528026336
 30
0.0
 10
10.4203490646
 20
9.5285513206
 30
0.0
 10
10.4189618127
 20
9.5293913916
 30
0.0
 10
10.4172277249
 20
9.5304414476
 30
0.0
 10
10.4151468293
 20
9.5317015288
 30
0.0
 10
10.4130659312
 20
9.5329616063
 30
0.0
 10
10.4102914012
 20
9.5346417109
 30
0.0
 10
10.4068232384
 20
9.5367418412
 30
0.0
 10
10.4033550757
 20
9.5388419718
 30
0.0
 10
10.4005805454
 20
9.5405220758
 30
0.0
 10
10.3984996482
 20
9.541782155
 30
0.0
 10
10.3964187491
 20
9.5430422299
 30
0.0
 10
10.3946846722
 20
9.5440923056
 30
0.0
 10
10.393297398
 20
9.5449323364
 30
0.0
 10
10.3924303806
 20
9.5454574233
 30
0.0
 10
10.3917367003
 20
9.5458773378
 30
0.0
 10
10.391216622
 20
9.5461926983
 30
0.0
 10
10.3907826445
 20
9.5464541481
 30
0.0
 10
10.3904799963
 20
9.5466398134
 30
0.0
 10
10.3903052807
 20
9.5467417695
 30
0.0
 10
10.3901792408
 20
9.5468298942
 30
0.0
 10
10.3900341003
 20
9.5468734574
 30
0.0
 10
10.3898472422
 20
9.5469470851
 30
0.0
 10
10.3895171363
 20
9.5470686916
 30
0.0
 10
10.3890471793
 20
9.5472462014
 30
0.0
 10
10.3884825363
 20
9.5474575926
 30
0.0
 10
10.3877299216
 20
9.5477400135
 30
0.0
 10
10.3867890701
 20
9.5480928459
 30
0.0
 10
10.3852837542
 20
9.5486574859
 30
0.0
 10
10.3834020933
 20
9.5493632489
 30
0.0
 10
10.3811441071
 20
9.5502101803
 30
0.0
 10
10.3788861191
 20
9.5510571075
 30
0.0
 10
10.3758754691
 20
9.5521863452
 30
0.0
 10
10.3721121563
 20
9.5535978918
 30
0.0
 10
10.3683488436
 20
9.5550094388
 30
0.0
 10
10.3653381933
 20
9.5561386759
 30
0.0
 10
10.363080206
 20
9.5569856049
 30
0.0
 10
10.3608222173
 20
9.5578325294
 30
0.0
 10
10.3589405643
 20
9.558538314
 30
0.0
 10
10.3574352323
 20
9.5591029099
 30
0.0
 10
10.3564944217
 20
9.5594558548
 30
0.0
 10
10.3557417231
 20
9.5597380446
 30
0.0
 10
10.3551773362
 20
9.5599501417
 30
0.0
 10
10.354706578
 20
9.560125443
 30
0.0
 10
10.3543779024
 20
9.560250992
 30
0.0
 10
10.3541887525
 20
9.5603183029
 30
0.0
 10
10.3540506517
 20
9.5603812693
 30
0.0
 10
10.3538981718
 20
9.5603965185
 30
0.0
 10
10.3536998808
 20
9.560433495
 30
0.0
 10
10.3533505348
 20
9.560490449
 30
0.0
 10
10.3528526907
 20
9.5605758663
 30
0.0
 10
10.3522547549
 20
9.5606766316
 30
0.0
 10
10.3514576898
 20
9.5608115914
 30
0.0
 10
10.3504612958
 20
9.5609800837
 30
0.0
 10
10.3488671005
 20
9.5612497873
 30
0.0
 10
10.3468743444
 20
9.5615868771
 30
0.0
 10
10.3444830421
 20
9.5619914018
 30
0.0
 10
10.3420917385
 20
9.562395922
 30
0.0
 10
10.3389033342
 20
9.5629352838
 30
0.0
 10
10.3349178286
 20
9.5636094856
 30
0.0
 10
10.3301352219
 20
9.5644185279
 30
0.0
 10
10.3237584131
 20
9.565497251
 30
0.0
 10
10.3189758064
 20
9.5663062933
 30
0.0
 10
10.315787402
 20
9.5668456548
 30
0.0
  0
ENDSEC
  0
SECTION
  2
OBJECTS
  0
DICTIONARY
  5
C
100
AcDbDictionary
280
0
281
1
  3
ACAD_GROUP
350
D
  3
ACAD_MLINESTYLE
350
17
  3
ACAD_LAYOUT
350
1A
  3
ACAD_PLOTSETTINGS
350
19
  3
ACAD_PLOTSTYLENAME
350
E
  3
ACAD_IMAGE_DICT
350
       3A6
  3
ACAD_IMAGE_VARS
350
       3A7
  3
ACAD_TABLESTYLE
350
       3A8
  0
IMAGEDEF_REACTOR
  5
3A5
100
AcDbRasterImageDefReactor
 90
2
330
287
  0
DICTIONARY
  5
D
102
{ACAD_REACTORS
330
C
102
}
100
AcDbDictionary
280
0
281
1
  0
ACDBDICTIONARYWDFLT
  5
E
102
{ACAD_REACTORS
330
C
102
}
100
AcDbDictionary
281
1
  3
Normal
350
F
100
AcDbDictionaryWithDefault
340
F
  0
DICTIONARY
  5
3A6
330
C
100
AcDbDictionary
281
1
  3
A7A_assy_2_img_1
350
       3AB
  0
RASTERVARIABLES
  5
3A7
330
C
100
AcDbRasterVariables
 90
0
 70
0
 71
1
 72
5
  0
DICTIONARY
  5
17
102
{ACAD_REACTORS
330
C
102
}
100
AcDbDictionary
280
0
281
1
  3
Standard
350
18
  0
DICTIONARY
  5
3A8
330
C
100
AcDbDictionary
281
1
  3
Standard
350
       3AC
  3
Standard1
350
       3AD
  0
DICTIONARY
  5
19
102
{ACAD_REACTORS
330
C
102
}
100
AcDbDictionary
281
1
  0
DICTIONARY
  5
1A
102
{ACAD_REACTORS
330
C
102
}
100
AcDbDictionary
281
1
  3
Model
350
3A9
  3
Layout1
350
3AA
  0
ACDBPLACEHOLDER
  5
F
102
{ACAD_REACTORS
330
E
102
}
  0
MLINESTYLE
  5
18
102
{ACAD_REACTORS
330
17
102
}
100
AcDbMlineStyle
  2
STANDARD
 70
0
  3

 62
256
 51
90.0
 52
90.0
 71
2
 49
0.5
 62
256
  6
BYLAYER
 49
-0.5
 62
256
  6
BYLAYER
  0
LAYOUT
  5
3A9
102
{ACAD_REACTORS
330
1A
102
}
100
AcDbPlotSettings
  1

  2
none_device
  4
ANSI_C_(22.00_x_17.00_Inches)
  6

 40
0.0
 41
0.0
 42
0.0
 43
0.0
 44
558.8
 45
431.8
 46
0.0
 47
0.0
 48
0.0
 49
0.0
140
0.0
141
0.0
142
1.0
143
1.0
 70
1024
 72
0
 73
0
 74
0
  7

 75
0
147
1.0
148
0.0
149
0.0
100
AcDbLayout
  1
Model
 70
0
 71
0
 10
0.0
 20
0.0
 11
22.0
 21
17.0
 12
0.0
 22
0.0
 32
0.0
 14
0.0
 24
0.0
 34
0.0
 15
0.0
 25
0.0
 35
0.0
146
0.0
 13
0.0
 23
0.0
 33
0.0
 16
1.0
 26
0.0
 36
0.0
 17
0.0
 27
1.0
 37
0.0
 76
0
330
20C
345
0
346
0
  0
LAYOUT
  5
3AA
102
{ACAD_REACTORS
330
1A
102
}
100
AcDbPlotSettings
  1

  2
none_device
  4
ANSI_C_(22.00_x_17.00_Inches)
  6

 40
0.0
 41
0.0
 42
0.0
 43
0.0
 44
558.8
 45
431.8
 46
0.0
 47
0.0
 48
0.0
 49
0.0
140
0.0
141
0.0
142
1.0
143
1.0
 70
0
 72
0
 73
0
 74
0
  7

 75
0
147
1.0
148
0.0
149
0.0
100
AcDbLayout
  1
Layout1
 70
0
 71
1
 10
0.0
 20
0.0
 11
22.0
 21
17.0
 12
0.0
 22
0.0
 32
0.0
 14
0.0
 24
0.0
 34
0.0
 15
0.0
 25
0.0
 35
0.0
146
0.0
 13
0.0
 23
0.0
 33
0.0
 16
1.0
 26
0.0
 36
0.0
 17
0.0
 27
1.0
 37
0.0
 76
0
330
20D
345
0
346
0
  0
IMAGEDEF
  5
3AB
102
{ACAD_REACTORS
330
3A6
330
3A5
102
}
100
AcDbRasterImageDef
 90
0
  1
A7A_assy_2_img_1.png
 10
369.0
 20
92.0
 11
0.0066666667
 21
0.0066666667
280
1
281
0
  0
TABLESTYLE
  5
3AC
102
{ACAD_REACTORS
330
3A8
330
28A
330
28B
102
}
330
3A8
100
AcDbTableStyle
  3
Standard
 70
0
 71
0
 40
0.06
 41
0.06
280
1
281
1
  7
Standard
140
0.18
170
1
 62
0
 63
7
283
0
  7
Standard
140
0.18
170
1
 62
0
 63
7
283
0
  7
Standard
140
0.18
170
1
 62
0
 63
7
283
0
  0
TABLESTYLE
  5
3AD
102
{ACAD_REACTORS
330
3A8
330
289
102
}
330
3A8
100
AcDbTableStyle
  3
Standard1
 70
1
 71
0
 40
0.06
 41
0.06
280
1
281
1
  7
Standard
140
0.18
170
1
 62
0
 63
7
283
0
  7
Standard
140
0.18
170
1
 62
0
 63
7
283
0
  7
Standard
140
0.18
170
1
 62
0
 63
7
283
0
  0
ENDSEC
  0
EOF
