999
DXF file: A2V_assy_2.dxf
999
Pro/ENGINEER 2014200 by Parametric Technology Corporation
  0
SECTION
  2
HEADER
  9
$ACADVER
  1
AC1021
  9
$DWGCODEPAGE
  3
ANSI_1252
  9
$EXTMAX
 10
22.0
 20
17.0
 30
0.0
  9
$EXTMIN
 10
0.0
 20
0.0
 30
0.0
  9
$LIMMIN
 10
0.0
 20
0.0
  9
$LIMMAX
 10
22.0
 20
17.0
  9
$VIEWCTR
 10
11.0
 20
8.5
  9
$VIEWSIZE
 40
17.0
  9
$CLAYER
  8
0
  9
$LTSCALE
 40
1.21
  9
$CELTYPE
  6
BYLAYER
  9
$DIMSCALE
 40
1.0
  9
$DIMASZ
 40
0.1875
  9
$DIMEXO
 40
0.0625
  9
$DIMDLI
 40
0.836
  9
$DIMEXE
 40
0.125
  9
$DIMCEN
 40
0.198
  9
$DIMLFAC
 40
1.0
  9
$DIMBLK
  1
_FILLED
  9
$DIMTXT
 40
0.1
  9
$DIMTOL
 70
0
  9
$DIMLIM
 70
0
  9
$DIMTFAC
 40
1.0
  9
$DIMGAP
 40
0.09
  9
$DIMDSEP
 70
46
  9
$AUNITS
 70
0
  9
$PDMODE
 70
3
  9
$PDSIZE
 40
0.3125
  9
$HANDSEED
  5
3BC
  9
$TILEMODE
 70
1
  9
$MEASUREMENT
 70
0
  9
$INSUNITS
 70
1
  0
ENDSEC
  0
SECTION
  2
CLASSES
  0
CLASS
  1
ACDBDICTIONARYWDFLT
  2
AcDbDictionaryWithDefault
  3
AutoCAD 2000
 90
0
 91
1
280
0
281
0
  0
CLASS
  1
ACDBPLACEHOLDER
  2
AcDbPlaceHolder
  3
AutoCAD 2000
 90
0
 91
1
280
0
281
0
  0
CLASS
  1
LAYOUT
  2
AcDbLayout
  3
AutoCAD 2000
 90
0
 91
0
280
0
281
0
  0
CLASS
  1
RASTERVARIABLES
  2
AcDbRasterVariables
  3
ISM
 90
0
 91
1
280
0
281
0
  0
CLASS
  1
IMAGEDEF
  2
AcDbRasterImageDef
  3
ISM
 90
0
 91
1
280
0
281
0
  0
CLASS
  1
IMAGEDEF_REACTOR
  2
AcDbRasterImageDefReactor
  3
ISM
 90
0
 91
1
280
0
281
0
  0
CLASS
  1
IMAGE
  2
AcDbRasterImage
  3
ISM
 90
127
 91
1
280
0
281
1
  0
CLASS
  1
TABLESTYLE
  2
AcDbTableStyle
  3
ObjectDBX Classes
 90
2047
 91
1
280
0
281
0
  0
CLASS
  1
ACAD_TABLE
  2
AcDbTable
  3
ObjectDBX Classes
 90
1025
 91
3
280
0
281
1
  0
ENDSEC
  0
SECTION
  2
TABLES
  0
TABLE
  2
VPORT
  5
8
100
AcDbSymbolTable
 70
2
  0
VPORT
  5
1F4
100
AcDbSymbolTableRecord
100
AcDbViewportTableRecord
  2
*ACTIVE
 70
0
 10
0.0
 20
0.0
 11
1.0
 21
1.0
 12
11.0
 22
8.5
 13
0.0
 23
0.0
 14
1.0
 24
1.0
 15
0.0
 25
0.0
 16
0.0
 26
0.0
 36
1.0
 17
0.0
 27
0.0
 37
0.0
 40
17.0
 41
1.2941176471
 42
50.0
 43
0.0
 44
0.0
 50
0.0
 51
0.0
 71
0
 72
100
 73
1
 74
1
 75
0
 76
0
 77
0
 78
0
  0
ENDTAB
  0
TABLE
  2
LTYPE
  5
5
100
AcDbSymbolTable
 70
6
  0
LTYPE
  5
14
100
AcDbSymbolTableRecord
100
AcDbLinetypeTableRecord
  2
BYBLOCK
 70
0
  3

 72
65
 73
0
 40
0.0
  0
LTYPE
  5
15
100
AcDbSymbolTableRecord
100
AcDbLinetypeTableRecord
  2
BYLAYER
 70
0
  3

 72
65
 73
0
 40
0.0
  0
LTYPE
  5
16
100
AcDbSymbolTableRecord
100
AcDbLinetypeTableRecord
  2
CONTINUOUS
 70
64
  3
Solid line
 72
65
 73
0
 40
0.0
  0
LTYPE
  5
1F5
100
AcDbSymbolTableRecord
100
AcDbLinetypeTableRecord
  2
CENTER
 70
64
  3
____ _ ____ _ ____ _ ____ _ ____ _ ____ _ ____
 72
65
 73
4
 40
0.6
 49
0.375
 74
0
 49
-0.075
 74
0
 49
0.075
 74
0
 49
-0.075
 74
0
  0
LTYPE
  5
1F6
100
AcDbSymbolTableRecord
100
AcDbLinetypeTableRecord
  2
HIDDEN
 70
64
  3
- - - - - - - - - - - - - - - - - - - -
 72
65
 73
2
 40
0.2
 49
0.1
 74
0
 49
-0.1
 74
0
  0
LTYPE
  5
1F7
100
AcDbSymbolTableRecord
100
AcDbLinetypeTableRecord
  2
PHANTOM
 70
64
  3
_____ _ _ _____ _ _ _____ _ _ _____
 72
65
 73
6
 40
0.8
 49
0.45
 74
0
 49
-0.05
 74
0
 49
0.1
 74
0
 49
-0.05
 74
0
 49
0.1
 74
0
 49
-0.05
 74
0
  0
LTYPE
  5
1F8
100
AcDbSymbolTableRecord
100
AcDbLinetypeTableRecord
  2
DOT
 70
64
  3
. . . . . . . . . . . . . . . . . . . .
 72
65
 73
2
 40
0.2
 49
0.1
 74
0
 49
-0.1
 74
0
  0
LTYPE
  5
1F9
100
AcDbSymbolTableRecord
100
AcDbLinetypeTableRecord
  2
DASHED
 70
64
  3
- - - - - - - - - - - - - - - - - - - -
 72
65
 73
2
 40
0.2
 49
0.1
 74
0
 49
-0.1
 74
0
  0
ENDTAB
  0
TABLE
  2
LAYER
  5
2
100
AcDbSymbolTable
 70
36
  0
LAYER
  5
10
100
AcDbSymbolTableRecord
100
AcDbLayerTableRecord
  2
0
 70
0
 62
7
  6
CONTINUOUS
370
-3
390
F
  0
LAYER
  5
1FA
100
AcDbSymbolTableRecord
100
AcDbLayerTableRecord
  2
DEFAULT_1
 70
0
 62
7
  6
CENTER
370
-3
390
F
  0
LAYER
  5
1FB
100
AcDbSymbolTableRecord
100
AcDbLayerTableRecord
  2
DEFAULT_2
 70
0
 62
8
  6
HIDDEN
370
-3
390
F
  0
LAYER
  5
1FC
100
AcDbSymbolTableRecord
100
AcDbLayerTableRecord
  2
DEFAULT_3
 70
0
 62
7
  6
PHANTOM
370
-3
390
F
  0
LAYER
  5
1FD
100
AcDbSymbolTableRecord
100
AcDbLayerTableRecord
  2
01___PRT_ALL_DTM_PLN
 70
0
 62
7
  6
CONTINUOUS
370
-3
390
F
  0
LAYER
  5
1FE
100
AcDbSymbolTableRecord
100
AcDbLayerTableRecord
  2
01___PRT_DEF_DTM_PLN
 70
0
 62
7
  6
CONTINUOUS
370
-3
390
F
  0
LAYER
  5
1FF
100
AcDbSymbolTableRecord
100
AcDbLayerTableRecord
  2
02___PRT_ALL_AXES
 70
0
 62
7
  6
CONTINUOUS
370
-3
390
F
  0
LAYER
  5
200
100
AcDbSymbolTableRecord
100
AcDbLayerTableRecord
  2
03___PRT_ALL_CURVES
 70
0
 62
7
  6
CONTINUOUS
370
-3
390
F
  0
LAYER
  5
201
100
AcDbSymbolTableRecord
100
AcDbLayerTableRecord
  2
04___PRT_ALL_DTM_PNT
 70
0
 62
7
  6
CONTINUOUS
370
-3
390
F
  0
LAYER
  5
202
100
AcDbSymbolTableRecord
100
AcDbLayerTableRecord
  2
05___PRT_ALL_DTM_CSYS
 70
0
 62
7
  6
CONTINUOUS
370
-3
390
F
  0
LAYER
  5
203
100
AcDbSymbolTableRecord
100
AcDbLayerTableRecord
  2
05___PRT_DEF_DTM_CSYS
 70
0
 62
7
  6
CONTINUOUS
370
-3
390
F
  0
LAYER
  5
204
100
AcDbSymbolTableRecord
100
AcDbLayerTableRecord
  2
06___PRT_ALL_SURFS
 70
0
 62
7
  6
CONTINUOUS
370
-3
390
F
  0
LAYER
  5
205
100
AcDbSymbolTableRecord
100
AcDbLayerTableRecord
  2
DATUM_PLANES
 70
0
 62
7
  6
CONTINUOUS
370
-3
390
F
  0
LAYER
  5
206
100
AcDbSymbolTableRecord
100
AcDbLayerTableRecord
  2
PORT_AREAS
 70
0
 62
7
  6
CONTINUOUS
370
-3
390
F
  0
LAYER
  5
207
100
AcDbSymbolTableRecord
100
AcDbLayerTableRecord
  2
SUNNBOMCOSMETIC
 70
0
 62
7
  6
CONTINUOUS
370
-3
390
F
  0
LAYER
  5
208
100
AcDbSymbolTableRecord
100
AcDbLayerTableRecord
  2
SUNNBOMSTAMPING
 70
0
 62
7
  6
CONTINUOUS
370
-3
390
F
  0
LAYER
  5
209
100
AcDbSymbolTableRecord
100
AcDbLayerTableRecord
  2
THREADS
 70
0
 62
7
  6
CONTINUOUS
370
-3
390
F
  0
ENDTAB
  0
TABLE
  2
STYLE
  5
3
100
AcDbSymbolTable
 70
1
  0
STYLE
  5
11
100
AcDbSymbolTableRecord
100
AcDbTextStyleTableRecord
  2
STANDARD
 70
0
 40
0.0
 41
0.8
 50
0.0
 71
0
 42
0.2
  3
txt
  4

  0
STYLE
  5
20A
100
AcDbSymbolTableRecord
100
AcDbTextStyleTableRecord
  2
TEXTSTYLE_1
 70
0
 40
0.0
 41
0.8
 50
0.0
 71
0
 42
0.2
  3
gdt
  4

  0
ENDTAB
  0
TABLE
  2
VIEW
  5
6
100
AcDbSymbolTable
 70
0
  0
ENDTAB
  0
TABLE
  2
UCS
  5
7
100
AcDbSymbolTable
 70
0
  0
ENDTAB
  0
TABLE
  2
APPID
  5
9
100
AcDbSymbolTable
 70
1
  0
APPID
  5
20B
100
AcDbSymbolTableRecord
100
AcDbRegAppTableRecord
  2
ACAD
 70
0
  0
ENDTAB
  0
TABLE
  2
BLOCK_RECORD
  5
1
100
AcDbSymbolTable
 70
0
  0
BLOCK_RECORD
  5
20C
100
AcDbSymbolTableRecord
100
AcDbBlockTableRecord
  2
*Model_Space
  0
BLOCK_RECORD
  5
20D
100
AcDbSymbolTableRecord
100
AcDbBlockTableRecord
  2
*Paper_Space
  0
BLOCK_RECORD
  5
20E
100
AcDbSymbolTableRecord
100
AcDbBlockTableRecord
  2
SUN_FIRST_THIRD_ANGLE_BL0
  0
BLOCK_RECORD
  5
20F
100
AcDbSymbolTableRecord
100
AcDbBlockTableRecord
  2
*T1
  0
BLOCK_RECORD
  5
210
100
AcDbSymbolTableRecord
100
AcDbBlockTableRecord
  2
*T2
  0
BLOCK_RECORD
  5
211
100
AcDbSymbolTableRecord
100
AcDbBlockTableRecord
  2
*T3
  0
ENDTAB
  0
TABLE
  2
DIMSTYLE
  5
A
100
AcDbSymbolTable
 70
1
100
AcDbDimStyleTable
 71
0
  0
DIMSTYLE
105
212
100
AcDbSymbolTableRecord
100
AcDbDimStyleTableRecord
  2
STANDARD
 70
0
  3

  4

 40
1.0
 41
0.1875
 42
0.0625
 43
0.38
 44
0.125
 45
0.0
 46
0.0
 47
0.001
 48
0.001
140
0.1
141
0.09
142
0.0
143
25.4
144
1.0
145
0.0
146
1.0
147
0.09
 71
0.0
 72
0.0
 73
1
 74
1
 75
0
 76
0
 77
0
 78
4
170
0
171
2
172
0
173
0
174
0
175
0
176
0
177
0
178
0
270
2
271
3
272
3
273
2
274
2
275
0
280
0
281
0
282
0
283
1
284
4
285
0
286
0
287
3
288
0
340
11
278
46
  0
ENDTAB
  0
ENDSEC
  0
SECTION
  2
BLOCKS
  0
BLOCK
  5
20
100
AcDbEntity
  8
0
100
AcDbBlockBegin
  2
*Model_Space
 70
0
 10
0.0
 20
0.0
 30
0.0
  3
*Model_Space
  1

  0
ENDBLK
  5
21
100
AcDbEntity
  8
0
100
AcDbBlockEnd
  0
BLOCK
  5
1C
100
AcDbEntity
  8
0
100
AcDbBlockBegin
  2
*Paper_Space
 70
0
 10
0.0
 20
0.0
 30
0.0
  3
*Paper_Space
  1

  0
ENDBLK
  5
1D
100
AcDbEntity
  8
0
100
AcDbBlockEnd
  0
BLOCK
  5
213
100
AcDbEntity
  8
0
100
AcDbBlockBegin
 62
2
  6
CONTINUOUS
  2
SUN_FIRST_THIRD_ANGLE_BL0
 70
64
 10
20.4816717061
 20
1.2289683772
  3
SUN_FIRST_THIRD_ANGLE_BL0
  1

  0
TEXT
  5
214
100
AcDbEntity
  8
0
100
AcDbText
 62
2
  6
CONTINUOUS
 10
19.4750896608
 20
1.4136269581
  7
STANDARD
 40
0.08
  1
FIRST ANGLE
 41
0.8
 72
0
100
AcDbText
  0
TEXT
  5
215
100
AcDbEntity
  8
0
100
AcDbText
 62
2
  6
CONTINUOUS
 10
20.7842537513
 20
1.4047600029
  7
STANDARD
 40
0.08
  1
THIRD ANGLE
 41
0.8
 72
0
100
AcDbText
  0
LINE
  5
216
100
AcDbEntity
  8
0
100
AcDbLine
 62
7
  6
CONTINUOUS
 10
19.4767170086
 20
1.1727031207
 11
19.6334271527
 21
1.1717972817
  0
LINE
  5
217
100
AcDbEntity
  8
0
100
AcDbLine
 62
7
  6
CONTINUOUS
 10
19.6596964832
 20
1.1717972817
 11
19.6950230232
 21
1.171593082
  0
LINE
  5
218
100
AcDbEntity
  8
0
100
AcDbLine
 62
7
  6
CONTINUOUS
 10
19.7194818561
 20
1.1708914427
 11
19.8852396156
 21
1.1699333054
  0
LINE
  5
219
100
AcDbEntity
  8
0
100
AcDbLine
 62
7
  6
CONTINUOUS
 10
19.4758111696
 20
1.2723454088
 11
19.88525039
 21
1.3511534004
  0
LINE
  5
21A
100
AcDbEntity
  8
0
100
AcDbLine
 62
7
  6
CONTINUOUS
 10
19.88525039
 20
1.3511534004
 11
19.8831348489
 21
0.9851647912
  0
LINE
  5
21B
100
AcDbEntity
  8
0
100
AcDbLine
 62
7
  6
CONTINUOUS
 10
19.8831348489
 20
0.9851647912
 11
19.4767170086
 21
1.0658141206
  0
LINE
  5
21C
100
AcDbEntity
  8
0
100
AcDbLine
 62
7
  6
CONTINUOUS
 10
19.4767170086
 20
1.0658141206
 11
19.4779056764
 21
1.2714536432
  0
CIRCLE
  5
21D
100
AcDbEntity
  8
0
100
AcDbCircle
 62
7
  6
CONTINUOUS
 10
20.2068232291
 20
1.1717972817
 40
0.175742101
  0
CIRCLE
  5
21E
100
AcDbEntity
  8
0
100
AcDbCircle
 62
7
  6
CONTINUOUS
 10
20.2068232291
 20
1.1717972817
 40
0.1005522074
  0
LINE
  5
21F
100
AcDbEntity
  8
0
100
AcDbLine
 62
7
  6
CONTINUOUS
 10
20.2077290681
 20
1.3756110529
 11
20.2071171714
 21
1.2379342989
  0
LINE
  5
220
100
AcDbEntity
  8
0
100
AcDbLine
 62
7
  6
CONTINUOUS
 10
20.2077290681
 20
1.2016899681
 11
20.2074674401
 21
1.1428236749
  0
LINE
  5
221
100
AcDbEntity
  8
0
100
AcDbLine
 62
7
  6
CONTINUOUS
 10
20.208634907
 20
1.101141841
 11
20.2080230104
 21
0.963465087
  0
LINE
  5
222
100
AcDbEntity
  8
0
100
AcDbLine
 62
7
  6
CONTINUOUS
 10
20.0066328138
 20
1.1745147986
 11
20.1443095678
 21
1.1739029019
  0
LINE
  5
223
100
AcDbEntity
  8
0
100
AcDbLine
 62
7
  6
CONTINUOUS
 10
20.1832714155
 20
1.1727031207
 11
20.238153505
 21
1.172335442
  0
LINE
  5
224
100
AcDbEntity
  8
0
100
AcDbLine
 62
7
  6
CONTINUOUS
 10
20.2756669918
 20
1.1717972817
 11
20.407916871
 21
1.1712095044
  0
CIRCLE
  5
225
100
AcDbEntity
  8
0
100
AcDbCircle
 62
7
  6
CONTINUOUS
 10
20.7509457401
 20
1.1693297793
 40
0.1722024983
  0
CIRCLE
  5
226
100
AcDbEntity
  8
0
100
AcDbCircle
 62
7
  6
CONTINUOUS
 10
20.7509457401
 20
1.1693297793
 40
0.0985164967
  0
LINE
  5
227
100
AcDbEntity
  8
0
100
AcDbLine
 62
7
  6
CONTINUOUS
 10
20.7169767782
 20
1.170462078
 11
20.7825395137
 21
1.1682766535
  0
LINE
  5
228
100
AcDbEntity
  8
0
100
AcDbLine
 62
7
  6
CONTINUOUS
 10
20.8177513651
 20
1.1693297793
 11
20.947965719
 21
1.1693297793
  0
LINE
  5
229
100
AcDbEntity
  8
0
100
AcDbLine
 62
7
  6
CONTINUOUS
 10
20.6875370113
 20
1.170462078
 11
20.5573226574
 21
1.170462078
  0
LINE
  5
22A
100
AcDbEntity
  8
0
100
AcDbLine
 62
7
  6
CONTINUOUS
 10
20.7486811426
 20
1.1987695462
 11
20.7486811426
 21
1.1432869085
  0
LINE
  5
22B
100
AcDbEntity
  8
0
100
AcDbLine
 62
7
  6
CONTINUOUS
 10
20.7498134414
 20
1.1059210505
 11
20.7498134414
 21
0.9757066966
  0
LINE
  5
22C
100
AcDbEntity
  8
0
100
AcDbLine
 62
7
  6
CONTINUOUS
 10
20.7486811426
 20
1.2338708068
 11
20.7486811426
 21
1.3640851607
  0
LINE
  5
22D
100
AcDbEntity
  8
0
100
AcDbLine
 62
7
  6
CONTINUOUS
 10
21.0702539817
 20
1.2701043662
 11
21.4790138229
 21
1.3448360823
  0
LINE
  5
22E
100
AcDbEntity
  8
0
100
AcDbLine
 62
7
  6
CONTINUOUS
 10
21.4790138229
 20
1.3448360823
 11
21.4790138229
 21
0.9779712941
  0
LINE
  5
22F
100
AcDbEntity
  8
0
100
AcDbLine
 62
7
  6
CONTINUOUS
 10
21.4790138229
 20
0.9779712941
 11
21.069121683
 21
1.0617614
  0
LINE
  5
230
100
AcDbEntity
  8
0
100
AcDbLine
 62
7
  6
CONTINUOUS
 10
21.0702539817
 20
1.2701043662
 11
21.069121683
 21
1.0617614
  0
LINE
  5
231
100
AcDbEntity
  8
0
100
AcDbLine
 62
7
  6
CONTINUOUS
 10
21.4790138229
 20
1.1693297793
 11
21.3159628059
 21
1.1693297793
  0
LINE
  5
232
100
AcDbEntity
  8
0
100
AcDbLine
 62
7
  6
CONTINUOUS
 10
21.2876553377
 20
1.1693297793
 11
21.2502894796
 21
1.1693297793
  0
LINE
  5
233
100
AcDbEntity
  8
0
100
AcDbLine
 62
7
  6
CONTINUOUS
 10
21.2208497126
 20
1.1659328831
 11
21.0713862804
 21
1.1659328831
  0
LINE
  5
234
100
AcDbEntity
  8
0
100
AcDbLine
 62
7
  6
CONTINUOUS
 10
20.4796138713
 20
1.5284908897
 11
20.4766766948
 21
0.9294458646
  0
ENDBLK
  5
235
100
AcDbEntity
  8
0
  6
BYBLOCK
 62
0
100
AcDbBlockEnd
  0
BLOCK
  5
236
100
AcDbEntity
  8
0
100
AcDbBlockBegin
  2
*T1
 70
1
 10
0.0
 20
0.0
  3
*T1
  1

  0
LINE
  5
237
100
AcDbEntity
  8
0
100
AcDbLine
 62
2
  6
CONTINUOUS
 10
9.275
 20
0.0
 11
-0.0
 21
0.0
  0
LINE
  5
238
100
AcDbEntity
  8
0
100
AcDbLine
 62
2
  6
CONTINUOUS
 10
9.275
 20
0.0
 11
9.275
 21
1.25
  0
LINE
  5
239
100
AcDbEntity
  8
0
100
AcDbLine
 62
2
  6
CONTINUOUS
 10
9.275
 20
0.625
 11
-0.0
 21
0.625
  0
LINE
  5
23A
100
AcDbEntity
  8
0
100
AcDbLine
 62
2
  6
CONTINUOUS
 10
9.275
 20
1.25
 11
-0.0
 21
1.25
  0
LINE
  5
23B
100
AcDbEntity
  8
0
100
AcDbLine
 62
2
  6
CONTINUOUS
 10
6.8
 20
0.0
 11
6.8
 21
1.25
  0
LINE
  5
23C
100
AcDbEntity
  8
0
100
AcDbLine
 62
2
  6
CONTINUOUS
 10
6.4
 20
0.0
 11
6.4
 21
0.625
  0
LINE
  5
23D
100
AcDbEntity
  8
0
100
AcDbLine
 62
2
  6
CONTINUOUS
 10
5.9
 20
0.0
 11
5.9
 21
0.625
  0
LINE
  5
23E
100
AcDbEntity
  8
0
100
AcDbLine
 62
2
  6
CONTINUOUS
 10
5.2
 20
0.0
 11
5.2
 21
0.625
  0
LINE
  5
23F
100
AcDbEntity
  8
0
100
AcDbLine
 62
2
  6
CONTINUOUS
 10
4.1
 20
0.0
 11
4.1
 21
1.25
  0
LINE
  5
240
100
AcDbEntity
  8
0
100
AcDbLine
 62
2
  6
CONTINUOUS
 10
-0.0
 20
0.0
 11
-0.0
 21
1.25
  0
MTEXT
  5
241
100
AcDbEntity
  8
0
100
AcDbMText
 62
2
  6
CONTINUOUS
  7
STANDARD
 71
2
 72
1
 10
6.6
 20
0.325
 30
0.0
 11
1.0
 21
0.0
 31
0.0
 44
0.9
  1
2
 40
0.125
 41
0.2
  0
MTEXT
  5
242
100
AcDbEntity
  8
0
100
AcDbMText
 62
2
  6
CONTINUOUS
  7
STANDARD
 71
2
 72
1
 10
6.15
 20
0.325
 30
0.0
 11
1.0
 21
0.0
 31
0.0
 44
0.9
  1
C
 40
0.125
 41
0.2
  0
MTEXT
  5
243
100
AcDbEntity
  8
0
100
AcDbMText
 62
2
  6
CONTINUOUS
  7
STANDARD
 71
2
 72
1
 10
5.55
 20
0.325
 30
0.0
 11
1.0
 21
0.0
 31
0.0
 44
0.9
  1
1.000
 40
0.125
 41
1.0
  0
MTEXT
  5
244
100
AcDbEntity
  8
0
100
AcDbMText
 62
2
  6
CONTINUOUS
  7
STANDARD
 71
2
 72
1
 10
4.65
 20
0.325
 30
0.0
 11
1.0
 21
0.0
 31
0.0
 44
0.9
  1
Sep-29-20
 40
0.125
 41
1.8
  0
MTEXT
  5
245
100
AcDbEntity
  8
0
100
AcDbMText
 62
2
  6
CONTINUOUS
  7
STANDARD
 71
2
 72
1
 10
2.05
 20
0.4625
 30
0.0
 11
1.0
 21
0.0
 31
0.0
 44
0.9
  1
T-11A Line mount\P(See Notes for Body Features)
 40
0.125
 41
5.8
  0
MTEXT
  5
246
100
AcDbEntity
  8
0
100
AcDbMText
 62
2
  6
CONTINUOUS
  7
STANDARD
 71
1
 72
1
 10
6.45
 20
0.5625
 30
0.0
 11
1.0
 21
0.0
 31
0.0
 44
0.9
  1
SHEET
 40
0.06
 41
0.48
  0
MTEXT
  5
247
100
AcDbEntity
  8
0
100
AcDbMText
 62
2
  6
CONTINUOUS
  7
STANDARD
 71
1
 72
1
 10
5.95
 20
0.5625
 30
0.0
 11
1.0
 21
0.0
 31
0.0
 44
0.9
  1
DWG SIZE
 40
0.06
 41
0.768
  0
MTEXT
  5
248
100
AcDbEntity
  8
0
100
AcDbMText
 62
2
  6
CONTINUOUS
  7
STANDARD
 71
1
 72
1
 10
5.25
 20
0.5625
 30
0.0
 11
1.0
 21
0.0
 31
0.0
 44
0.9
  1
SCALE
 40
0.06
 41
0.48
  0
MTEXT
  5
249
100
AcDbEntity
  8
0
100
AcDbMText
 62
2
  6
CONTINUOUS
  7
STANDARD
 71
1
 72
1
 10
4.15
 20
0.5625
 30
0.0
 11
1.0
 21
0.0
 31
0.0
 44
0.9
  1
DATE
 40
0.06
 41
0.384
  0
MTEXT
  5
24A
100
AcDbEntity
  8
0
100
AcDbMText
 62
2
  6
CONTINUOUS
  7
STANDARD
 71
1
 72
1
 10
0.05
 20
0.5625
 30
0.0
 11
1.0
 21
0.0
 31
0.0
 44
0.9
  1
DESCRIPTION
 40
0.06
 41
1.056
  0
MTEXT
  5
24B
100
AcDbEntity
  8
0
100
AcDbMText
 62
2
  6
CONTINUOUS
  7
STANDARD
 71
2
 72
1
 10
5.45
 20
1.0375
 30
0.0
 11
1.0
 21
0.0
 31
0.0
 44
0.9
  1
ALL DIMENSIONS IN INCH\PVIEWS ARE THIRD ANGLE
 40
0.12
 41
4.224
  0
MTEXT
  5
24C
100
AcDbEntity
  8
0
100
AcDbMText
 62
2
  6
CONTINUOUS
  7
STANDARD
 71
2
 72
1
 10
2.05
 20
0.95
 30
0.0
 11
1.0
 21
0.0
 31
0.0
 44
0.9
  1
A2V
 40
0.125
 41
0.6
  0
MTEXT
  5
24D
100
AcDbEntity
  8
0
100
AcDbMText
 62
2
  6
CONTINUOUS
  7
STANDARD
 71
1
 72
1
 10
0.05
 20
1.1875
 30
0.0
 11
1.0
 21
0.0
 31
0.0
 44
0.9
  1
MODEL
 40
0.06
 41
0.48
  0
ENDBLK
  5
24E
100
AcDbEntity
  8
0
  6
BYBLOCK
 62
0
100
AcDbBlockEnd
  0
BLOCK
  5
24F
100
AcDbEntity
  8
0
100
AcDbBlockBegin
  2
*T2
 70
1
 10
0.0
 20
0.0
  3
*T2
  1

  0
LINE
  5
250
100
AcDbEntity
  8
0
100
AcDbLine
 62
2
  6
CONTINUOUS
 10
0.0
 20
0.0
 11
9.055
 21
0.0
  0
LINE
  5
251
100
AcDbEntity
  8
0
100
AcDbLine
 62
2
  6
CONTINUOUS
 10
0.0
 20
0.0
 11
0.0
 21
-2.594
  0
LINE
  5
252
100
AcDbEntity
  8
0
100
AcDbLine
 62
2
  6
CONTINUOUS
 10
0.0
 20
-0.344
 11
9.055
 21
-0.344
  0
LINE
  5
253
100
AcDbEntity
  8
0
100
AcDbLine
 62
2
  6
CONTINUOUS
 10
0.0
 20
-0.594
 11
9.055
 21
-0.594
  0
LINE
  5
254
100
AcDbEntity
  8
0
100
AcDbLine
 62
2
  6
CONTINUOUS
 10
0.0
 20
-0.844
 11
9.055
 21
-0.844
  0
LINE
  5
255
100
AcDbEntity
  8
0
100
AcDbLine
 62
2
  6
CONTINUOUS
 10
0.0
 20
-1.094
 11
9.055
 21
-1.094
  0
LINE
  5
256
100
AcDbEntity
  8
0
100
AcDbLine
 62
2
  6
CONTINUOUS
 10
0.0
 20
-1.344
 11
9.055
 21
-1.344
  0
LINE
  5
257
100
AcDbEntity
  8
0
100
AcDbLine
 62
2
  6
CONTINUOUS
 10
0.0
 20
-1.594
 11
9.055
 21
-1.594
  0
LINE
  5
258
100
AcDbEntity
  8
0
100
AcDbLine
 62
2
  6
CONTINUOUS
 10
0.0
 20
-1.844
 11
9.055
 21
-1.844
  0
LINE
  5
259
100
AcDbEntity
  8
0
100
AcDbLine
 62
2
  6
CONTINUOUS
 10
0.0
 20
-2.094
 11
9.055
 21
-2.094
  0
LINE
  5
25A
100
AcDbEntity
  8
0
100
AcDbLine
 62
2
  6
CONTINUOUS
 10
0.0
 20
-2.344
 11
9.055
 21
-2.344
  0
LINE
  5
25B
100
AcDbEntity
  8
0
100
AcDbLine
 62
2
  6
CONTINUOUS
 10
0.0
 20
-2.594
 11
9.055
 21
-2.594
  0
LINE
  5
25C
100
AcDbEntity
  8
0
100
AcDbLine
 62
2
  6
CONTINUOUS
 10
3.055
 20
0.0
 11
3.055
 21
-2.594
  0
LINE
  5
25D
100
AcDbEntity
  8
0
100
AcDbLine
 62
2
  6
CONTINUOUS
 10
9.055
 20
0.0
 11
9.055
 21
-2.594
  0
MTEXT
  5
25E
100
AcDbEntity
  8
0
100
AcDbMText
 62
2
  6
CONTINUOUS
  7
STANDARD
 71
2
 72
1
 10
1.5275
 20
-0.0995
 30
0.0
 11
1.0
 21
0.0
 31
0.0
 44
0.9
  1
Technical Data
 40
0.145
 41
3.248
  0
MTEXT
  5
25F
100
AcDbEntity
  8
0
100
AcDbMText
 62
2
  6
CONTINUOUS
  7
STANDARD
 71
2
 72
1
 10
4.555
 20
-0.0995
 30
0.0
 11
1.0
 21
0.0
 31
0.0
 44
0.9
  1
U.S. Units
 40
0.145
 41
2.32
  0
MTEXT
  5
260
100
AcDbEntity
  8
0
100
AcDbMText
 62
2
  6
CONTINUOUS
  7
STANDARD
 71
2
 72
1
 10
7.555
 20
-0.0995
 30
0.0
 11
1.0
 21
0.0
 31
0.0
 44
0.9
  1
Metric Units
 40
0.145
 41
2.784
  0
MTEXT
  5
261
100
AcDbEntity
  8
0
100
AcDbMText
 62
2
  6
CONTINUOUS
  7
STANDARD
 71
2
 72
1
 10
1.5275
 20
-0.4065
 30
0.0
 11
1.0
 21
0.0
 31
0.0
 44
0.9
  1
Cavity
 40
0.125
 41
1.2
  0
MTEXT
  5
262
100
AcDbEntity
  8
0
100
AcDbMText
 62
2
  6
CONTINUOUS
  7
STANDARD
 71
2
 72
1
 10
6.055
 20
-0.4065
 30
0.0
 11
1.0
 21
0.0
 31
0.0
 44
0.9
  1
T-11A
 40
0.125
 41
1.0
  0
MTEXT
  5
263
100
AcDbEntity
  8
0
100
AcDbMText
 62
2
  6
CONTINUOUS
  7
STANDARD
 71
2
 72
1
 10
1.5275
 20
-0.6565
 30
0.0
 11
1.0
 21
0.0
 31
0.0
 44
0.9
  1
Body Features
 40
0.125
 41
2.6
  0
MTEXT
  5
264
100
AcDbEntity
  8
0
100
AcDbMText
 62
2
  6
CONTINUOUS
  7
STANDARD
 71
2
 72
1
 10
6.055
 20
-0.6565
 30
0.0
 11
1.0
 21
0.0
 31
0.0
 44
0.9
  1
(See Notes)
 40
0.125
 41
2.2
  0
MTEXT
  5
265
100
AcDbEntity
  8
0
100
AcDbMText
 62
2
  6
CONTINUOUS
  7
STANDARD
 71
2
 72
1
 10
1.5275
 20
-0.9065
 30
0.0
 11
1.0
 21
0.0
 31
0.0
 44
0.9
  1
Body Type
 40
0.125
 41
1.8
  0
MTEXT
  5
266
100
AcDbEntity
  8
0
100
AcDbMText
 62
2
  6
CONTINUOUS
  7
STANDARD
 71
2
 72
1
 10
6.055
 20
-0.9065
 30
0.0
 11
1.0
 21
0.0
 31
0.0
 44
0.9
  1
Line mount
 40
0.125
 41
2.0
  0
MTEXT
  5
267
100
AcDbEntity
  8
0
100
AcDbMText
 62
2
  6
CONTINUOUS
  7
STANDARD
 71
2
 72
1
 10
1.5275
 20
-1.1565
 30
0.0
 11
1.0
 21
0.0
 31
0.0
 44
0.9
  1
Interface
 40
0.125
 41
1.8
  0
MTEXT
  5
268
100
AcDbEntity
  8
0
100
AcDbMText
 62
2
  6
CONTINUOUS
  7
STANDARD
 71
2
 72
1
 10
6.055
 20
-1.1565
 30
0.0
 11
1.0
 21
0.0
 31
0.0
 44
0.9
  1
None
 40
0.125
 41
0.8
  0
MTEXT
  5
269
100
AcDbEntity
  8
0
100
AcDbMText
 62
2
  6
CONTINUOUS
  7
STANDARD
 71
2
 72
1
 10
1.5275
 20
-1.4065
 30
0.0
 11
1.0
 21
0.0
 31
0.0
 44
0.9
  1
Open Cavity Quantity
 40
0.125
 41
4.0
  0
MTEXT
  5
26A
100
AcDbEntity
  8
0
100
AcDbMText
 62
2
  6
CONTINUOUS
  7
STANDARD
 71
2
 72
1
 10
6.055
 20
-1.4065
 30
0.0
 11
1.0
 21
0.0
 31
0.0
 44
0.9
  1
1
 40
0.125
 41
0.2
  0
MTEXT
  5
26B
100
AcDbEntity
  8
0
100
AcDbMText
 62
2
  6
CONTINUOUS
  7
STANDARD
 71
2
 72
1
 10
1.5275
 20
-1.6565
 30
0.0
 11
1.0
 21
0.0
 31
0.0
 44
0.9
  1
Weight
 40
0.125
 41
1.2
  0
MTEXT
  5
26C
100
AcDbEntity
  8
0
100
AcDbMText
 62
2
  6
CONTINUOUS
  7
STANDARD
 71
2
 72
1
 10
4.555
 20
-1.6565
 30
0.0
 11
1.0
 21
0.0
 31
0.0
 44
0.9
  1
2.002 lb.
 40
0.125
 41
1.8
  0
MTEXT
  5
26D
100
AcDbEntity
  8
0
100
AcDbMText
 62
2
  6
CONTINUOUS
  7
STANDARD
 71
2
 72
1
 10
7.555
 20
-1.6565
 30
0.0
 11
1.0
 21
0.0
 31
0.0
 44
0.9
  1
0,908 kg.
 40
0.125
 41
1.8
  0
MTEXT
  5
26E
100
AcDbEntity
  8
0
100
AcDbMText
 62
2
  6
CONTINUOUS
  7
STANDARD
 71
2
 72
1
 10
1.5275
 20
-1.9065
 30
0.0
 11
1.0
 21
0.0
 31
0.0
 44
0.9
  1
Mounting Hole Diameter
 40
0.125
 41
4.4
  0
MTEXT
  5
26F
100
AcDbEntity
  8
0
100
AcDbMText
 62
2
  6
CONTINUOUS
  7
STANDARD
 71
2
 72
1
 10
4.555
 20
-1.9065
 30
0.0
 11
1.0
 21
0.0
 31
0.0
 44
0.9
  1
.34 in.
 40
0.125
 41
1.4
  0
MTEXT
  5
270
100
AcDbEntity
  8
0
100
AcDbMText
 62
2
  6
CONTINUOUS
  7
STANDARD
 71
2
 72
1
 10
7.555
 20
-1.9065
 30
0.0
 11
1.0
 21
0.0
 31
0.0
 44
0.9
  1
8.6 mm
 40
0.125
 41
1.2
  0
MTEXT
  5
271
100
AcDbEntity
  8
0
100
AcDbMText
 62
2
  6
CONTINUOUS
  7
STANDARD
 71
2
 72
1
 10
1.5275
 20
-2.1565
 30
0.0
 11
1.0
 21
0.0
 31
0.0
 44
0.9
  1
Mounting Hole Depth
 40
0.125
 41
3.8
  0
MTEXT
  5
272
100
AcDbEntity
  8
0
100
AcDbMText
 62
2
  6
CONTINUOUS
  7
STANDARD
 71
2
 72
1
 10
6.055
 20
-2.1565
 30
0.0
 11
1.0
 21
0.0
 31
0.0
 44
0.9
  1
Through
 40
0.125
 41
1.4
  0
MTEXT
  5
273
100
AcDbEntity
  8
0
100
AcDbMText
 62
2
  6
CONTINUOUS
  7
STANDARD
 71
2
 72
1
 10
1.5275
 20
-2.4065
 30
0.0
 11
1.0
 21
0.0
 31
0.0
 44
0.9
  1
Mounting Hole Quantity
 40
0.125
 41
4.4
  0
MTEXT
  5
274
100
AcDbEntity
  8
0
100
AcDbMText
 62
2
  6
CONTINUOUS
  7
STANDARD
 71
2
 72
1
 10
6.055
 20
-2.4065
 30
0.0
 11
1.0
 21
0.0
 31
0.0
 44
0.9
  1
2
 40
0.125
 41
0.2
  0
ENDBLK
  5
275
100
AcDbEntity
  8
0
  6
BYBLOCK
 62
0
100
AcDbBlockEnd
  0
BLOCK
  5
276
100
AcDbEntity
  8
0
100
AcDbBlockBegin
  2
*T3
 70
1
 10
0.0
 20
0.0
  3
*T3
  1

  0
LINE
  5
277
100
AcDbEntity
  8
0
100
AcDbLine
 62
2
  6
CONTINUOUS
 10
0.0
 20
0.0
 11
4.6
 21
0.0
  0
LINE
  5
278
100
AcDbEntity
  8
0
100
AcDbLine
 62
2
  6
CONTINUOUS
 10
0.0
 20
0.0
 11
0.0
 21
-1.43775
  0
LINE
  5
279
100
AcDbEntity
  8
0
100
AcDbLine
 62
2
  6
CONTINUOUS
 10
0.0
 20
-0.34375
 11
4.6
 21
-0.34375
  0
LINE
  5
27A
100
AcDbEntity
  8
0
100
AcDbLine
 62
2
  6
CONTINUOUS
 10
0.0
 20
-0.68775
 11
4.6
 21
-0.68775
  0
LINE
  5
27B
100
AcDbEntity
  8
0
100
AcDbLine
 62
2
  6
CONTINUOUS
 10
0.0
 20
-0.93775
 11
4.6
 21
-0.93775
  0
LINE
  5
27C
100
AcDbEntity
  8
0
100
AcDbLine
 62
2
  6
CONTINUOUS
 10
0.0
 20
-1.18775
 11
4.6
 21
-1.18775
  0
LINE
  5
27D
100
AcDbEntity
  8
0
100
AcDbLine
 62
2
  6
CONTINUOUS
 10
0.0
 20
-1.43775
 11
4.6
 21
-1.43775
  0
LINE
  5
27E
100
AcDbEntity
  8
0
100
AcDbLine
 62
2
  6
CONTINUOUS
 10
1.3
 20
-0.34375
 11
1.3
 21
-1.43775
  0
LINE
  5
27F
100
AcDbEntity
  8
0
100
AcDbLine
 62
2
  6
CONTINUOUS
 10
3.3
 20
-0.34375
 11
3.3
 21
-1.43775
  0
LINE
  5
280
100
AcDbEntity
  8
0
100
AcDbLine
 62
2
  6
CONTINUOUS
 10
4.6
 20
0.0
 11
4.6
 21
-1.43775
  0
MTEXT
  5
281
100
AcDbEntity
  8
0
100
AcDbMText
 62
2
  6
CONTINUOUS
  7
STANDARD
 71
2
 72
1
 10
2.3
 20
-0.099375
 30
0.0
 11
1.0
 21
0.0
 31
0.0
 44
0.9
  1
Port Headings
 40
0.145
 41
3.016
  0
MTEXT
  5
282
100
AcDbEntity
  8
0
100
AcDbMText
 62
2
  6
CONTINUOUS
  7
STANDARD
 71
2
 72
1
 10
0.65
 20
-0.44325
 30
0.0
 11
1.0
 21
0.0
 31
0.0
 44
0.9
  1
Product
 40
0.145
 41
1.624
  0
MTEXT
  5
283
100
AcDbEntity
  8
0
100
AcDbMText
 62
2
  6
CONTINUOUS
  7
STANDARD
 71
2
 72
1
 10
2.3
 20
-0.44325
 30
0.0
 11
1.0
 21
0.0
 31
0.0
 44
0.9
  1
Port
 40
0.145
 41
0.928
  0
MTEXT
  5
284
100
AcDbEntity
  8
0
100
AcDbMText
 62
2
  6
CONTINUOUS
  7
STANDARD
 71
2
 72
1
 10
3.95
 20
-0.44325
 30
0.0
 11
1.0
 21
0.0
 31
0.0
 44
0.9
  1
Size
 40
0.145
 41
0.928
  0
MTEXT
  5
285
100
AcDbEntity
  8
0
100
AcDbMText
 62
2
  6
CONTINUOUS
  7
STANDARD
 71
2
 72
1
 10
0.65
 20
-0.75025
 30
0.0
 11
1.0
 21
0.0
 31
0.0
 44
0.9
  1
A2V
 40
0.125
 41
0.6
  0
MTEXT
  5
286
100
AcDbEntity
  8
0
100
AcDbMText
 62
2
  6
CONTINUOUS
  7
STANDARD
 71
2
 72
1
 10
2.3
 20
-0.75025
 30
0.0
 11
1.0
 21
0.0
 31
0.0
 44
0.9
  1
Ports 1 &  2
 40
0.125
 41
2.4
  0
MTEXT
  5
287
100
AcDbEntity
  8
0
100
AcDbMText
 62
2
  6
CONTINUOUS
  7
STANDARD
 71
2
 72
1
 10
3.95
 20
-0.75025
 30
0.0
 11
1.0
 21
0.0
 31
0.0
 44
0.9
  1
1/2" BSPP
 40
0.125
 41
1.8
  0
MTEXT
  5
288
100
AcDbEntity
  8
0
100
AcDbMText
 62
2
  6
CONTINUOUS
  7
STANDARD
 71
2
 72
1
 10
0.65
 20
-1.00025
 30
0.0
 11
1.0
 21
0.0
 31
0.0
 44
0.9
  1
A2V
 40
0.125
 41
0.6
  0
MTEXT
  5
289
100
AcDbEntity
  8
0
100
AcDbMText
 62
2
  6
CONTINUOUS
  7
STANDARD
 71
2
 72
1
 10
2.3
 20
-1.00025
 30
0.0
 11
1.0
 21
0.0
 31
0.0
 44
0.9
  1
Port 3
 40
0.125
 41
1.2
  0
MTEXT
  5
28A
100
AcDbEntity
  8
0
100
AcDbMText
 62
2
  6
CONTINUOUS
  7
STANDARD
 71
2
 72
1
 10
3.95
 20
-1.00025
 30
0.0
 11
1.0
 21
0.0
 31
0.0
 44
0.9
  1
1/4" BSPP
 40
0.125
 41
1.8
  0
MTEXT
  5
28B
100
AcDbEntity
  8
0
100
AcDbMText
 62
2
  6
CONTINUOUS
  7
STANDARD
 71
2
 72
1
 10
0.65
 20
-1.25025
 30
0.0
 11
1.0
 21
0.0
 31
0.0
 44
0.9
  1
A2V
 40
0.125
 41
0.6
  0
MTEXT
  5
28C
100
AcDbEntity
  8
0
100
AcDbMText
 62
2
  6
CONTINUOUS
  7
STANDARD
 71
2
 72
1
 10
2.3
 20
-1.25025
 30
0.0
 11
1.0
 21
0.0
 31
0.0
 44
0.9
  1
Gage Port
 40
0.125
 41
1.8
  0
MTEXT
  5
28D
100
AcDbEntity
  8
0
100
AcDbMText
 62
2
  6
CONTINUOUS
  7
STANDARD
 71
2
 72
1
 10
3.95
 20
-1.25025
 30
0.0
 11
1.0
 21
0.0
 31
0.0
 44
0.9
  1
1/4" BSPP
 40
0.125
 41
1.8
  0
ENDBLK
  5
28E
100
AcDbEntity
  8
0
  6
BYBLOCK
 62
0
100
AcDbBlockEnd
  0
ENDSEC
  0
SECTION
  2
ENTITIES
  0
IMAGE
  5
28F
100
AcDbEntity
  8
0
100
AcDbRasterImage
 62
7
  6
CONTINUOUS
 10
19.2297077316
 20
0.3094318264
 30
0.0
 11
0.0066666667
 21
0.0
 31
0.0
 12
0.0
 22
0.0066666667
 32
0.0
 13
369.0
 23
92.0
340
       3B9
 70
9
280
0
281
50
282
50
283
0
360
       3B3
 71
1
 91
2
 14
-0.5
 24
-0.5
 14
368.5
 24
91.5
  0
INSERT
  5
290
100
AcDbEntity
  8
0
100
AcDbBlockReference
 62
2
  6
CONTINUOUS
  2
SUN_FIRST_THIRD_ANGLE_BL0
 10
20.4816717061
 20
1.2289683772
  0
ACAD_TABLE
  5
291
100
AcDbEntity
  8
0
 62
2
  6
CONTINUOUS
100
AcDbBlockReference
  2
*T1
 10
12.42375
 20
0.30125
 30
0.0
100
AcDbTable
342
       3BB
343
20F
 11
1.0
 21
0.0
 31
0.0
 90
6
 91
4
 92
6
 93
20
 94
0
 95
0
 96
0
 70
1
 41
0.0
141
0.525
141
0.1
141
0.525
141
0.1
142
4.1
142
1.1
142
0.7
142
0.5
142
0.4
142
2.475
171
1
172
0
173
0
174
0
175
1
176
1
 91
33
178
0
145
0.0
301
CELL_VALUE
 90
4
  1
T-11A Line mount\P(See Notes for Body Features)
304
ACVALUE_END
170
2
140
0.125
171
1
172
0
173
0
174
0
175
1
176
1
 91
33
178
0
145
0.0
301
CELL_VALUE
 90
4
  1
Sep-29-20
304
ACVALUE_END
170
5
140
0.125
171
1
172
0
173
0
174
0
175
1
176
1
 91
33
178
0
145
0.0
301
CELL_VALUE
 90
4
  1
1.000
304
ACVALUE_END
170
5
140
0.125
171
1
172
0
173
0
174
0
175
1
176
1
 91
33
178
0
145
0.0
301
CELL_VALUE
 90
4
  1
C
304
ACVALUE_END
170
5
140
0.125
171
1
172
0
173
0
174
0
175
1
176
1
 91
33
178
0
145
0.0
301
CELL_VALUE
 90
4
  1
2
304
ACVALUE_END
170
5
140
0.125
171
1
172
0
173
0
174
0
175
1
176
1
 91
33
178
0
145
0.0
301
CELL_VALUE
 90
4
  1
 
304
ACVALUE_END
170
1
140
0.125
171
1
172
0
173
0
174
0
175
1
176
1
 91
33
178
0
145
0.0
301
CELL_VALUE
 90
4
  1
DESCRIPTION
304
ACVALUE_END
170
1
140
0.06
171
1
172
0
173
0
174
0
175
1
176
1
 91
33
178
0
145
0.0
301
CELL_VALUE
 90
4
  1
DATE
304
ACVALUE_END
170
1
140
0.06
171
1
172
0
173
0
174
0
175
1
176
1
 91
33
178
0
145
0.0
301
CELL_VALUE
 90
4
  1
SCALE
304
ACVALUE_END
170
1
140
0.06
171
1
172
0
173
0
174
0
175
1
176
1
 91
33
178
0
145
0.0
301
CELL_VALUE
 90
4
  1
DWG SIZE
304
ACVALUE_END
170
1
140
0.06
171
1
172
0
173
0
174
0
175
1
176
1
 91
33
178
0
145
0.0
301
CELL_VALUE
 90
4
  1
SHEET
304
ACVALUE_END
170
1
140
0.06
171
1
172
0
173
0
174
0
175
1
176
1
 91
33
178
0
145
0.0
301
CELL_VALUE
 90
4
  1
 
304
ACVALUE_END
170
1
140
0.125
171
1
172
0
173
0
174
0
175
1
176
1
 91
33
178
0
145
0.0
301
CELL_VALUE
 90
4
  1
A2V
304
ACVALUE_END
170
5
140
0.125
171
1
172
0
173
0
174
0
175
4
176
1
 91
33
178
0
145
0.0
301
CELL_VALUE
 90
4
  1
ALL DIMENSIONS IN INCH\PVIEWS ARE THIRD ANGLE
304
ACVALUE_END
170
5
140
0.12
171
1
172
0
173
1
174
0
175
1
176
1
 91
1
178
0
145
0.0
170
1
171
1
172
0
173
1
174
0
175
1
176
1
 91
1
178
0
145
0.0
170
1
171
1
172
0
173
1
174
0
175
1
176
1
 91
1
178
0
145
0.0
170
5
171
1
172
0
173
0
174
0
175
1
176
1
 91
33
178
0
145
0.0
301
CELL_VALUE
 90
4
  1
 
304
ACVALUE_END
170
1
140
0.125
171
1
172
0
173
0
174
0
175
1
176
1
 91
33
178
0
145
0.0
301
CELL_VALUE
 90
4
  1
MODEL
304
ACVALUE_END
170
1
140
0.06
171
1
172
0
173
0
174
0
175
1
176
1
 91
33
178
0
145
0.0
301
CELL_VALUE
 90
4
  1
 
304
ACVALUE_END
170
1
140
0.125
171
1
172
0
173
0
174
0
175
1
176
1
 91
33
178
0
145
0.0
301
CELL_VALUE
 90
4
  1
 
304
ACVALUE_END
170
1
140
0.125
171
1
172
0
173
0
174
0
175
1
176
1
 91
33
178
0
145
0.0
301
CELL_VALUE
 90
4
  1
 
304
ACVALUE_END
170
1
140
0.125
171
1
172
0
173
0
174
0
175
1
176
1
 91
33
178
0
145
0.0
301
CELL_VALUE
 90
4
  1
 
304
ACVALUE_END
170
1
140
0.125
171
1
172
0
173
0
174
0
175
1
176
1
 91
33
178
0
145
0.0
301
CELL_VALUE
 90
4
  1
 
304
ACVALUE_END
170
1
140
0.125
  0
ACAD_TABLE
  5
292
100
AcDbEntity
  8
0
 62
2
  6
CONTINUOUS
100
AcDbBlockReference
  2
*T2
 10
12.4237499994
 20
16.47875
 30
0.0
100
AcDbTable
342
       3BA
343
210
 11
1.0
 21
0.0
 31
0.0
 90
22
 91
10
 92
3
 93
16
 94
0
 95
0
 96
0
 41
0.028
141
0.344
141
0.25
141
0.25
141
0.25
141
0.25
141
0.25
141
0.25
141
0.25
141
0.25
141
0.25
142
3.055
142
3.0
142
3.0
171
1
172
0
173
0
174
0
175
1
176
1
 91
33
178
0
145
0.0
301
CELL_VALUE
 90
4
  1
Technical Data
304
ACVALUE_END
170
5
140
0.145
171
1
172
0
173
0
174
0
175
1
176
1
 91
33
178
0
145
0.0
301
CELL_VALUE
 90
4
  1
U.S. Units
304
ACVALUE_END
170
5
140
0.145
171
1
172
0
173
0
174
0
175
1
176
1
 91
33
178
0
145
0.0
301
CELL_VALUE
 90
4
  1
Metric Units
304
ACVALUE_END
170
5
140
0.145
171
1
172
0
173
0
174
0
175
1
176
1
 91
33
178
0
145
0.0
301
CELL_VALUE
 90
4
  1
Cavity
304
ACVALUE_END
170
5
140
0.125
171
1
172
0
173
0
174
0
175
2
176
1
 91
33
178
0
145
0.0
301
CELL_VALUE
 90
4
  1
T-11A
304
ACVALUE_END
170
5
140
0.125
171
1
172
0
173
1
174
0
175
1
176
1
 91
1
178
0
145
0.0
170
1
171
1
172
0
173
0
174
0
175
1
176
1
 91
33
178
0
145
0.0
301
CELL_VALUE
 90
4
  1
Body Features
304
ACVALUE_END
170
5
140
0.125
171
1
172
0
173
0
174
0
175
2
176
1
 91
33
178
0
145
0.0
301
CELL_VALUE
 90
4
  1
(See Notes)
304
ACVALUE_END
170
5
140
0.125
171
1
172
0
173
1
174
0
175
1
176
1
 91
1
178
0
145
0.0
170
1
171
1
172
0
173
0
174
0
175
1
176
1
 91
33
178
0
145
0.0
301
CELL_VALUE
 90
4
  1
Body Type
304
ACVALUE_END
170
5
140
0.125
171
1
172
0
173
0
174
0
175
2
176
1
 91
33
178
0
145
0.0
301
CELL_VALUE
 90
4
  1
Line mount
304
ACVALUE_END
170
5
140
0.125
171
1
172
0
173
1
174
0
175
1
176
1
 91
1
178
0
145
0.0
170
1
171
1
172
0
173
0
174
0
175
1
176
1
 91
33
178
0
145
0.0
301
CELL_VALUE
 90
4
  1
Interface
304
ACVALUE_END
170
5
140
0.125
171
1
172
0
173
0
174
0
175
2
176
1
 91
33
178
0
145
0.0
301
CELL_VALUE
 90
4
  1
None
304
ACVALUE_END
170
5
140
0.125
171
1
172
0
173
1
174
0
175
1
176
1
 91
1
178
0
145
0.0
170
1
171
1
172
0
173
0
174
0
175
1
176
1
 91
33
178
0
145
0.0
301
CELL_VALUE
 90
4
  1
Open Cavity Quantity
304
ACVALUE_END
170
5
140
0.125
171
1
172
0
173
0
174
0
175
2
176
1
 91
33
178
0
145
0.0
301
CELL_VALUE
 90
4
  1
1
304
ACVALUE_END
170
5
140
0.125
171
1
172
0
173
1
174
0
175
1
176
1
 91
1
178
0
145
0.0
170
1
171
1
172
0
173
0
174
0
175
1
176
1
 91
33
178
0
145
0.0
301
CELL_VALUE
 90
4
  1
Weight
304
ACVALUE_END
170
5
140
0.125
171
1
172
0
173
0
174
0
175
1
176
1
 91
33
178
0
145
0.0
301
CELL_VALUE
 90
4
  1
2.002 lb.
304
ACVALUE_END
170
5
140
0.125
171
1
172
0
173
0
174
0
175
1
176
1
 91
33
178
0
145
0.0
301
CELL_VALUE
 90
4
  1
0,908 kg.
304
ACVALUE_END
170
5
140
0.125
171
1
172
0
173
0
174
0
175
1
176
1
 91
33
178
0
145
0.0
301
CELL_VALUE
 90
4
  1
Mounting Hole Diameter
304
ACVALUE_END
170
5
140
0.125
171
1
172
0
173
0
174
0
175
1
176
1
 91
33
178
0
145
0.0
301
CELL_VALUE
 90
4
  1
.34 in.
304
ACVALUE_END
170
5
140
0.125
171
1
172
0
173
0
174
0
175
1
176
1
 91
33
178
0
145
0.0
301
CELL_VALUE
 90
4
  1
8.6 mm
304
ACVALUE_END
170
5
140
0.125
171
1
172
0
173
0
174
0
175
1
176
1
 91
33
178
0
145
0.0
301
CELL_VALUE
 90
4
  1
Mounting Hole Depth
304
ACVALUE_END
170
5
140
0.125
171
1
172
0
173
0
174
0
175
2
176
1
 91
33
178
0
145
0.0
301
CELL_VALUE
 90
4
  1
Through
304
ACVALUE_END
170
5
140
0.125
171
1
172
0
173
1
174
0
175
1
176
1
 91
1
178
0
145
0.0
170
1
171
1
172
0
173
0
174
0
175
1
176
1
 91
33
178
0
145
0.0
301
CELL_VALUE
 90
4
  1
Mounting Hole Quantity
304
ACVALUE_END
170
5
140
0.125
171
1
172
0
173
0
174
0
175
2
176
1
 91
33
178
0
145
0.0
301
CELL_VALUE
 90
4
  1
2
304
ACVALUE_END
170
5
140
0.125
171
1
172
0
173
1
174
0
175
1
176
1
 91
1
178
0
145
0.0
170
1
  0
ACAD_TABLE
  5
293
100
AcDbEntity
  8
0
 62
2
  6
CONTINUOUS
100
AcDbBlockReference
  2
*T3
 10
0.52125
 20
1.959
 30
0.0
100
AcDbTable
342
       3BA
343
211
 11
1.0
 21
0.0
 31
0.0
 90
22
 91
5
 92
3
 93
16
 94
0
 95
0
 96
0
 41
0.05
141
0.34375
141
0.344
141
0.25
141
0.25
141
0.25
142
1.3
142
2.0
142
1.3
171
1
172
0
173
0
174
0
175
3
176
1
 91
33
178
0
145
0.0
301
CELL_VALUE
 90
4
  1
Port Headings
304
ACVALUE_END
170
5
140
0.145
171
1
172
0
173
1
174
0
175
1
176
1
 91
1
178
0
145
0.0
170
1
171
1
172
0
173
1
174
0
175
1
176
1
 91
1
178
0
145
0.0
170
1
171
1
172
0
173
0
174
0
175
1
176
1
 91
33
178
0
145
0.0
301
CELL_VALUE
 90
4
  1
Product
304
ACVALUE_END
170
5
140
0.145
171
1
172
0
173
0
174
0
175
1
176
1
 91
33
178
0
145
0.0
301
CELL_VALUE
 90
4
  1
Port
304
ACVALUE_END
170
5
140
0.145
171
1
172
0
173
0
174
0
175
1
176
1
 91
33
178
0
145
0.0
301
CELL_VALUE
 90
4
  1
Size
304
ACVALUE_END
170
5
140
0.145
171
1
172
0
173
0
174
0
175
1
176
1
 91
33
178
0
145
0.0
301
CELL_VALUE
 90
4
  1
A2V
304
ACVALUE_END
170
5
140
0.125
171
1
172
0
173
0
174
0
175
1
176
1
 91
33
178
0
145
0.0
301
CELL_VALUE
 90
4
  1
Ports 1 &  2
304
ACVALUE_END
170
5
140
0.125
171
1
172
0
173
0
174
0
175
1
176
1
 91
33
178
0
145
0.0
301
CELL_VALUE
 90
4
  1
1/2" BSPP
304
ACVALUE_END
170
5
140
0.125
171
1
172
0
173
0
174
0
175
1
176
1
 91
33
178
0
145
0.0
301
CELL_VALUE
 90
4
  1
A2V
304
ACVALUE_END
170
5
140
0.125
171
1
172
0
173
0
174
0
175
1
176
1
 91
33
178
0
145
0.0
301
CELL_VALUE
 90
4
  1
Port 3
304
ACVALUE_END
170
5
140
0.125
171
1
172
0
173
0
174
0
175
1
176
1
 91
33
178
0
145
0.0
301
CELL_VALUE
 90
4
  1
1/4" BSPP
304
ACVALUE_END
170
5
140
0.125
171
1
172
0
173
0
174
0
175
1
176
1
 91
33
178
0
145
0.0
301
CELL_VALUE
 90
4
  1
A2V
304
ACVALUE_END
170
5
140
0.125
171
1
172
0
173
0
174
0
175
1
176
1
 91
33
178
0
145
0.0
301
CELL_VALUE
 90
4
  1
Gage Port
304
ACVALUE_END
170
5
140
0.125
171
1
172
0
173
0
174
0
175
1
176
1
 91
33
178
0
145
0.0
301
CELL_VALUE
 90
4
  1
1/4" BSPP
304
ACVALUE_END
170
5
140
0.125
  0
MTEXT
  5
294
100
AcDbEntity
  8
0
100
AcDbMText
 62
2
  6
CONTINUOUS
  7
STANDARD
 71
1
 72
1
 10
0.52125
 20
5.75995
 30
0.0
 11
1.0
 21
0.0
 31
0.0
 44
0.6
  3
Notes\P \P1. Important: Carefully consider\P   the maximum system pressure. The\P   pressure rating of the manifold is\P   dependent on the manifold material,\P   with the port type/size a secondary\P   consideration. Manifolds\P   constructed of alu
  1
minum are not\P   rated for pressures higher than\P   3000 psi (210 bar), regardless of\P   the port type/size specified.\P2. Body Features: Ninety degree\P   with reverse flow check, accepts\P   standard and weatherized coils.
 40
0.1
 41
3.04
  0
LINE
  5
295
100
AcDbEntity
  8
0
100
AcDbLine
 62
7
  6
CONTINUOUS
 10
0.30125
 20
0.30125
 11
0.30125
 21
16.69875
  0
LINE
  5
296
100
AcDbEntity
  8
0
100
AcDbLine
 62
7
  6
CONTINUOUS
 10
0.30125
 20
0.30125
 11
21.69875
 21
0.30125
  0
LINE
  5
297
100
AcDbEntity
  8
0
100
AcDbLine
 62
7
  6
CONTINUOUS
 10
0.30125
 20
16.69875
 11
21.69875
 21
16.69875
  0
LINE
  5
298
100
AcDbEntity
  8
0
100
AcDbLine
 62
7
  6
CONTINUOUS
 10
21.69875
 20
0.30125
 11
21.69875
 21
16.69875
  0
LINE
  5
299
100
AcDbEntity
  8
0
100
AcDbLine
 62
7
  6
CONTINUOUS
 10
9.8099300062
 20
10.7894403113
 11
9.2922923432
 21
10.2894406943
  0
LINE
  5
29A
100
AcDbEntity
  8
0
100
AcDbLine
 62
4
  6
CONTINUOUS
 10
9.4468403912
 20
9.6943376538
 11
9.4395959472
 21
9.6851808014
  0
LINE
  5
29B
100
AcDbEntity
  8
0
100
AcDbLine
 62
4
  6
CONTINUOUS
 10
9.4540848351
 20
9.6358796982
 11
9.4395959472
 21
9.617565989
  0
LINE
  5
29C
100
AcDbEntity
  8
0
100
AcDbLine
 62
7
  6
CONTINUOUS
 10
11.2064931483
 20
6.2782644681
 11
11.2228173394
 21
6.2702006302
  0
LINE
  5
29D
100
AcDbEntity
  8
0
100
AcDbLine
 62
7
  6
CONTINUOUS
 10
9.2922923432
 20
6.7879593666
 11
9.2922923432
 21
10.2894406943
  0
LINE
  5
29E
100
AcDbEntity
  8
0
100
AcDbLine
 62
4
  6
CONTINUOUS
 10
9.3961292834
 20
9.7171730006
 11
9.4106181713
 21
9.7258274491
  0
LINE
  5
29F
100
AcDbEntity
  8
0
100
AcDbLine
 62
4
  6
CONTINUOUS
 10
9.4395959472
 20
9.6851808014
 11
9.4251070593
 21
9.676526346
  0
LINE
  5
2A0
100
AcDbEntity
  8
0
100
AcDbLine
 62
4
  6
CONTINUOUS
 10
9.4395959472
 20
9.617565989
 11
9.4251070593
 21
9.6089115379
  0
LINE
  5
2A1
100
AcDbEntity
  8
0
100
AcDbLine
 62
7
  6
CONTINUOUS
 10
9.2922923432
 20
6.7879593666
 11
12.1900699938
 21
6.5869978039
  0
LINE
  5
2A2
100
AcDbEntity
  8
0
100
AcDbLine
 62
4
  6
CONTINUOUS
 10
11.4028403695
 20
6.7381849536
 11
11.3738625937
 21
6.7401945692
  0
LINE
  5
2A3
100
AcDbEntity
  8
0
100
AcDbLine
 62
4
  6
CONTINUOUS
 10
11.1782626066
 20
6.7537594744
 11
11.1637737187
 21
6.7547642821
  0
LINE
  5
2A4
100
AcDbEntity
  8
0
100
AcDbLine
 62
4
  6
CONTINUOUS
 10
11.4970181411
 20
6.7702907386
 11
11.5404848049
 21
6.7672763152
  0
LINE
  5
2A5
100
AcDbEntity
  8
0
100
AcDbLine
 62
4
  6
CONTINUOUS
 10
9.4468403912
 20
9.7039969101
 11
9.4468403912
 21
9.6943376538
  0
LINE
  5
2A6
100
AcDbEntity
  8
0
100
AcDbLine
 62
4
  6
CONTINUOUS
 10
9.4468403912
 20
7.6755524944
 11
9.4468403912
 21
7.559641391
  0
LINE
  5
2A7
100
AcDbEntity
  8
0
100
AcDbLine
 62
4
  6
CONTINUOUS
 10
9.4540848351
 20
9.645538958
 11
9.4540848351
 21
9.6358796982
  0
LINE
  5
2A8
100
AcDbEntity
  8
0
100
AcDbLine
 62
4
  6
CONTINUOUS
 10
11.1637737187
 20
6.8706753856
 11
11.1782626066
 21
6.8696705778
  0
LINE
  5
2A9
100
AcDbEntity
  8
0
100
AcDbLine
 62
4
  6
CONTINUOUS
 10
11.3738625937
 20
6.8561056726
 11
11.4028403695
 21
6.854096057
  0
LINE
  5
2AA
100
AcDbEntity
  8
0
100
AcDbLine
 62
4
  6
CONTINUOUS
 10
11.1637737187
 20
6.7547642821
 11
11.1492848308
 21
6.7654283488
  0
LINE
  5
2AB
100
AcDbEntity
  8
0
100
AcDbLine
 62
7
  6
CONTINUOUS
 10
11.1796621762
 20
10.3067252997
 11
11.178497032
 21
10.30562092
  0
LINE
  5
2AC
100
AcDbEntity
  8
0
100
AcDbLine
 62
4
  6
CONTINUOUS
 10
10.1988828033
 20
9.4227801079
 11
10.2154415331
 21
9.4381904842
  0
LINE
  5
2AD
100
AcDbEntity
  8
0
100
AcDbLine
 62
4
  6
CONTINUOUS
 10
10.2402796269
 20
9.3205568531
 11
10.256838355
 21
9.3359672312
  0
LINE
  5
2AE
100
AcDbEntity
  8
0
100
AcDbLine
 62
4
  6
CONTINUOUS
 10
11.1782626066
 20
6.8696705778
 11
11.1927514946
 21
6.8590065137
  0
LINE
  5
2AF
100
AcDbEntity
  8
0
100
AcDbLine
 62
4
  6
CONTINUOUS
 10
10.3313526417
 20
9.3142409181
 11
10.3479113629
 21
9.3296512967
  0
LINE
  5
2B0
100
AcDbEntity
  8
0
100
AcDbLine
 62
4
  6
CONTINUOUS
 10
11.4028403695
 20
6.854096057
 11
11.4173292575
 21
6.8434319929
  0
LINE
  5
2B1
100
AcDbEntity
  8
0
100
AcDbLine
 62
4
  6
CONTINUOUS
 10
10.1978479508
 20
10.1252180714
 11
10.1978479508
 21
10.009306968
  0
LINE
  5
2B2
100
AcDbEntity
  8
0
100
AcDbLine
 62
4
  6
CONTINUOUS
 10
10.1988828033
 20
9.4062213799
 11
10.1988828033
 21
9.4227801079
  0
LINE
  5
2B3
100
AcDbEntity
  8
0
100
AcDbLine
 62
4
  6
CONTINUOUS
 10
10.256838355
 20
9.3359672312
 11
10.256838355
 21
9.352525961
  0
LINE
  5
2B4
100
AcDbEntity
  8
0
100
AcDbLine
 62
4
  6
CONTINUOUS
 10
10.6252701447
 20
9.9796651381
 11
10.6614923645
 21
10.0930642221
  0
LINE
  5
2B5
100
AcDbEntity
  8
0
100
AcDbLine
 62
4
  6
CONTINUOUS
 10
10.7177229911
 20
9.3619603231
 11
10.7342817123
 21
9.3690913394
  0
LINE
  5
2B6
100
AcDbEntity
  8
0
100
AcDbLine
 62
4
  6
CONTINUOUS
 10
10.8750309251
 20
9.3096541607
 11
10.8915896462
 21
9.3167851735
  0
LINE
  5
2B7
100
AcDbEntity
  8
0
100
AcDbLine
 62
4
  6
CONTINUOUS
 10
11.1492848308
 20
6.7654283488
 11
11.1347959428
 21
6.7857516736
  0
LINE
  5
2B8
100
AcDbEntity
  8
0
100
AcDbLine
 62
4
  6
CONTINUOUS
 10
11.1927514946
 20
6.8590065137
 11
11.1999959385
 21
6.8488448466
  0
LINE
  5
2B9
100
AcDbEntity
  8
0
100
AcDbLine
 62
4
  6
CONTINUOUS
 10
10.2899558112
 20
9.4330229015
 11
10.2899558112
 21
9.3336705278
  0
LINE
  5
2BA
100
AcDbEntity
  8
0
100
AcDbLine
 62
4
  6
CONTINUOUS
 10
10.3258330716
 20
8.7234770741
 11
10.3258330716
 21
8.8393881775
  0
LINE
  5
2BB
100
AcDbEntity
  8
0
100
AcDbLine
 62
4
  6
CONTINUOUS
 10
10.3479113629
 20
9.3296512967
 11
10.3479113629
 21
9.4290036703
  0
LINE
  5
2BC
100
AcDbEntity
  8
0
100
AcDbLine
 62
4
  6
CONTINUOUS
 10
10.381028819
 20
9.3107958635
 11
10.381028819
 21
9.4267069669
  0
LINE
  5
2BD
100
AcDbEntity
  8
0
100
AcDbLine
 62
4
  6
CONTINUOUS
 10
10.3837886165
 20
8.8188102187
 11
10.3837886165
 21
8.7360165732
  0
LINE
  5
2BE
100
AcDbEntity
  8
0
100
AcDbLine
 62
4
  6
CONTINUOUS
 10
10.4296701576
 20
10.1091411467
 11
10.4296701576
 21
9.9932300433
  0
LINE
  5
2BF
100
AcDbEntity
  8
0
100
AcDbLine
 62
4
  6
CONTINUOUS
 10
10.4389843707
 20
9.3067766323
 11
10.4389843707
 21
9.4226877358
  0
LINE
  5
2C0
100
AcDbEntity
  8
0
100
AcDbLine
 62
4
  6
CONTINUOUS
 10
10.4307050161
 20
8.71620418
 11
10.4638224723
 21
8.8298185801
  0
LINE
  5
2C1
100
AcDbEntity
  8
0
100
AcDbLine
 62
4
  6
CONTINUOUS
 10
10.662527217
 20
9.2636760014
 11
10.6956446593
 21
9.3717708281
  0
LINE
  5
2C2
100
AcDbEntity
  8
0
100
AcDbLine
 62
4
  6
CONTINUOUS
 10
10.7287621754
 20
9.0664493768
 11
10.7122034473
 21
9.0427596329
  0
LINE
  5
2C3
100
AcDbEntity
  8
0
100
AcDbLine
 62
4
  6
CONTINUOUS
 10
10.3837886165
 20
8.7360165732
 11
10.3672298884
 21
8.7206061951
  0
LINE
  5
2C4
100
AcDbEntity
  8
0
100
AcDbLine
 62
4
  6
CONTINUOUS
 10
10.3037547641
 20
8.7967627051
 11
10.2595981524
 21
8.777746669
  0
LINE
  5
2C5
100
AcDbEntity
  8
0
100
AcDbLine
 62
4
  6
CONTINUOUS
 10
11.1782626066
 20
7.8355964901
 11
11.1637737187
 21
7.8366012979
  0
LINE
  5
2C6
100
AcDbEntity
  8
0
100
AcDbLine
 62
4
  6
CONTINUOUS
 10
11.1710181627
 20
7.8940544457
 11
11.1999959385
 21
7.8920448301
  0
LINE
  5
2C7
100
AcDbEntity
  8
0
100
AcDbLine
 62
4
  6
CONTINUOUS
 10
9.3961292834
 20
9.6205804124
 11
9.3888848394
 21
9.6307420752
  0
LINE
  5
2C8
100
AcDbEntity
  8
0
100
AcDbLine
 62
4
  6
CONTINUOUS
 10
11.4173292575
 20
6.8434319929
 11
11.4318181454
 21
6.8231086656
  0
LINE
  5
2C9
100
AcDbEntity
  8
0
100
AcDbLine
 62
4
  6
CONTINUOUS
 10
9.4395959472
 20
9.6658622818
 11
9.4540848351
 21
9.645538958
  0
LINE
  5
2CA
100
AcDbEntity
  8
0
100
AcDbLine
 62
4
  6
CONTINUOUS
 10
9.4395959472
 20
9.7141585772
 11
9.4468403912
 21
9.7039969101
  0
LINE
  5
2CB
100
AcDbEntity
  8
0
100
AcDbLine
 62
4
  6
CONTINUOUS
 10
10.5455812611
 20
10.1011026844
 11
10.5455812611
 21
9.985191581
  0
LINE
  5
2CC
100
AcDbEntity
  8
0
100
AcDbLine
 62
4
  6
CONTINUOUS
 10
10.5631748348
 20
9.2981639944
 11
10.5631748348
 21
9.4140750978
  0
LINE
  5
2CD
100
AcDbEntity
  8
0
100
AcDbLine
 62
4
  6
CONTINUOUS
 10
10.5631748545
 20
8.7070173655
 11
10.5631748545
 21
8.8229284689
  0
LINE
  5
2CE
100
AcDbEntity
  8
0
100
AcDbLine
 62
4
  6
CONTINUOUS
 10
10.6128510259
 20
9.3692332186
 11
10.6128510259
 21
9.2947189388
  0
LINE
  5
2CF
100
AcDbEntity
  8
0
100
AcDbLine
 62
4
  6
CONTINUOUS
 10
10.6294097668
 20
8.7024239587
 11
10.6294097668
 21
8.8183350622
  0
LINE
  5
2D0
100
AcDbEntity
  8
0
100
AcDbLine
 62
4
  6
CONTINUOUS
 10
10.612851072
 20
8.9585767357
 11
10.6459685316
 21
9.0721911355
  0
LINE
  5
2D1
100
AcDbEntity
  8
0
100
AcDbLine
 62
4
  6
CONTINUOUS
 10
10.7122034473
 20
8.9516866251
 11
10.7701589921
 21
9.0304610417
  0
LINE
  5
2D2
100
AcDbEntity
  8
0
100
AcDbLine
 62
4
  6
CONTINUOUS
 10
11.1592890731
 20
9.3313376113
 11
11.167568406
 21
9.3390428051
  0
LINE
  5
2D3
100
AcDbEntity
  8
0
100
AcDbLine
 62
4
  6
CONTINUOUS
 10
11.2338034012
 20
9.3261700251
 11
11.2420827342
 21
9.3338752189
  0
LINE
  5
2D4
100
AcDbEntity
  8
0
100
AcDbLine
 62
4
  6
CONTINUOUS
 10
11.2752001765
 20
9.2487848692
 11
11.2834795095
 21
9.2564900604
  0
LINE
  5
2D5
100
AcDbEntity
  8
0
100
AcDbLine
 62
4
  6
CONTINUOUS
 10
11.1637737187
 20
7.9525124013
 11
11.1782626066
 21
7.9515075935
  0
LINE
  5
2D6
100
AcDbEntity
  8
0
100
AcDbLine
 62
4
  6
CONTINUOUS
 10
11.1637737187
 20
7.8366012979
 11
11.1492848308
 21
7.8472653646
  0
LINE
  5
2D7
100
AcDbEntity
  8
0
100
AcDbLine
 62
4
  6
CONTINUOUS
 10
11.2579514902
 20
6.8641441349
 11
11.315907042
 21
6.7442138003
  0
LINE
  5
2D8
100
AcDbEntity
  8
0
100
AcDbLine
 62
4
  6
CONTINUOUS
 10
10.4638224723
 20
8.8298185801
 11
10.4969399422
 21
8.7116107723
  0
LINE
  5
2D9
100
AcDbEntity
  8
0
100
AcDbLine
 62
4
  6
CONTINUOUS
 10
10.7177229911
 20
9.2957254082
 11
10.7177229911
 21
9.3619603231
  0
LINE
  5
2DA
100
AcDbEntity
  8
0
100
AcDbLine
 62
4
  6
CONTINUOUS
 10
10.7673991546
 20
9.3999120931
 11
10.7673991546
 21
9.2840009897
  0
LINE
  5
2DB
100
AcDbEntity
  8
0
100
AcDbLine
 62
4
  6
CONTINUOUS
 10
10.7701589921
 20
9.0304610417
 11
10.7701589921
 21
9.0470197697
  0
LINE
  5
2DC
100
AcDbEntity
  8
0
100
AcDbLine
 62
4
  6
CONTINUOUS
 10
10.8005166522
 20
9.2817042834
 11
10.8005166522
 21
9.3644979307
  0
LINE
  5
2DD
100
AcDbEntity
  8
0
100
AcDbLine
 62
4
  6
CONTINUOUS
 10
10.8032764496
 20
8.7069249931
 11
10.8032764496
 21
8.7897186387
  0
LINE
  5
2DE
100
AcDbEntity
  8
0
100
AcDbLine
 62
4
  6
CONTINUOUS
 10
10.8363939183
 20
8.9430739866
 11
10.8695113606
 21
9.0566883876
  0
LINE
  5
2DF
100
AcDbEntity
  8
0
100
AcDbLine
 62
4
  6
CONTINUOUS
 10
11.1178922425
 20
9.3756053149
 11
11.1151324649
 21
9.3675173387
  0
LINE
  5
2E0
100
AcDbEntity
  8
0
100
AcDbLine
 62
7
  6
CONTINUOUS
 10
12.1900699938
 20
10.0884791317
 11
12.7077076568
 21
10.5884787487
  0
LINE
  5
2E1
100
AcDbEntity
  8
0
100
AcDbLine
 62
4
  6
CONTINUOUS
 10
10.8032764496
 20
8.7897186387
 11
10.8198351708
 21
8.8051290156
  0
LINE
  5
2E2
100
AcDbEntity
  8
0
100
AcDbLine
 62
4
  6
CONTINUOUS
 10
10.899868999
 20
8.7830199227
 11
10.9164277201
 21
8.7984302995
  0
LINE
  5
2E3
100
AcDbEntity
  8
0
100
AcDbLine
 62
4
  6
CONTINUOUS
 10
10.9578245507
 20
8.6962070459
 11
10.9412658295
 21
8.6807966673
  0
LINE
  5
2E4
100
AcDbEntity
  8
0
100
AcDbLine
 62
4
  6
CONTINUOUS
 10
11.1782626066
 20
7.9515075935
 11
11.1927514946
 21
7.9408435294
  0
LINE
  5
2E5
100
AcDbEntity
  8
0
100
AcDbLine
 62
4
  6
CONTINUOUS
 10
10.3672298884
 20
8.8365172985
 11
10.3837886165
 21
8.8188102187
  0
LINE
  5
2E6
100
AcDbEntity
  8
0
100
AcDbLine
 62
4
  6
CONTINUOUS
 10
11.1492848308
 20
7.8472653646
 11
11.1347959428
 21
7.8675886893
  0
LINE
  5
2E7
100
AcDbEntity
  8
0
100
AcDbLine
 62
4
  6
CONTINUOUS
 10
11.1927514946
 20
7.9408435294
 11
11.1999959385
 21
7.9306818623
  0
LINE
  5
2E8
100
AcDbEntity
  8
0
100
AcDbLine
 62
4
  6
CONTINUOUS
 10
10.6459685316
 20
9.0721911355
 11
10.6790859912
 21
8.9539833284
  0
LINE
  5
2E9
100
AcDbEntity
  8
0
100
AcDbLine
 62
4
  6
CONTINUOUS
 10
11.1347959428
 20
6.7857516736
 11
11.1275514989
 21
6.8152318533
  0
LINE
  5
2EA
100
AcDbEntity
  8
0
100
AcDbLine
 62
4
  6
CONTINUOUS
 10
10.8391536498
 20
9.3535390784
 11
10.8391536498
 21
9.3369803503
  0
LINE
  5
2EB
100
AcDbEntity
  8
0
100
AcDbLine
 62
4
  6
CONTINUOUS
 10
10.8750309251
 20
9.284816066
 11
10.8750309251
 21
9.3096541607
  0
LINE
  5
2EC
100
AcDbEntity
  8
0
100
AcDbLine
 62
4
  6
CONTINUOUS
 10
10.899868999
 20
8.7002262771
 11
10.899868999
 21
8.7830199227
  0
LINE
  5
2ED
100
AcDbEntity
  8
0
100
AcDbLine
 62
4
  6
CONTINUOUS
 10
10.9247070886
 20
9.2730916474
 11
10.9247070886
 21
9.3393265666
  0
LINE
  5
2EE
100
AcDbEntity
  8
0
100
AcDbLine
 62
4
  6
CONTINUOUS
 10
10.9578245309
 20
9.3535885923
 11
10.9578245309
 21
9.2790743099
  0
LINE
  5
2EF
100
AcDbEntity
  8
0
100
AcDbLine
 62
4
  6
CONTINUOUS
 10
10.9578245507
 20
8.7790006915
 11
10.9578245507
 21
8.6962070459
  0
LINE
  5
2F0
100
AcDbEntity
  8
0
100
AcDbLine
 62
4
  6
CONTINUOUS
 10
10.990941993
 20
8.6773516137
 11
10.990941993
 21
8.7932627171
  0
LINE
  5
2F1
100
AcDbEntity
  8
0
100
AcDbLine
 62
4
  6
CONTINUOUS
 10
11.0075007497
 20
9.2673498875
 11
11.0075007497
 21
9.3501435348
  0
LINE
  5
2F2
100
AcDbEntity
  8
0
100
AcDbLine
 62
4
  6
CONTINUOUS
 10
11.0488975447
 20
8.6898911123
 11
11.0323388236
 21
8.6744807338
  0
LINE
  5
2F3
100
AcDbEntity
  8
0
100
AcDbLine
 62
4
  6
CONTINUOUS
 10
11.2227641999
 20
8.7109508767
 11
11.1786075917
 21
8.6919348421
  0
LINE
  5
2F4
100
AcDbEntity
  8
0
100
AcDbLine
 62
4
  6
CONTINUOUS
 10
10.2595981524
 20
8.777746669
 11
10.3037547641
 21
8.7526060917
  0
LINE
  5
2F5
100
AcDbEntity
  8
0
100
AcDbLine
 62
4
  6
CONTINUOUS
 10
9.4106181713
 20
9.6099163457
 11
9.3961292834
 21
9.6205804124
  0
LINE
  5
2F6
100
AcDbEntity
  8
0
100
AcDbLine
 62
4
  6
CONTINUOUS
 10
9.4251070593
 20
9.676526346
 11
9.4395959472
 21
9.6658622818
  0
LINE
  5
2F7
100
AcDbEntity
  8
0
100
AcDbLine
 62
4
  6
CONTINUOUS
 10
10.1988828033
 20
9.3317070975
 11
10.2071621682
 21
9.3228535567
  0
LINE
  5
2F8
100
AcDbEntity
  8
0
100
AcDbLine
 62
4
  6
CONTINUOUS
 10
10.8198351708
 20
8.6892179121
 11
10.8032764496
 21
8.7069249931
  0
LINE
  5
2F9
100
AcDbEntity
  8
0
100
AcDbLine
 62
4
  6
CONTINUOUS
 10
10.381028819
 20
9.4267069669
 11
10.4389843707
 21
9.3067766323
  0
LINE
  5
2FA
100
AcDbEntity
  8
0
100
AcDbLine
 62
4
  6
CONTINUOUS
 10
11.518751473
 20
6.8460575947
 11
11.5549736928
 21
6.7276344718
  0
LINE
  5
2FB
100
AcDbEntity
  8
0
100
AcDbLine
 62
4
  6
CONTINUOUS
 10
10.6459684959
 20
9.3752158818
 11
10.6708066052
 21
9.2906997058
  0
LINE
  5
2FC
100
AcDbEntity
  8
0
100
AcDbLine
 62
4
  6
CONTINUOUS
 10
10.8032764621
 20
9.0612817935
 11
10.8363939183
 21
8.9430739866
  0
LINE
  5
2FD
100
AcDbEntity
  8
0
100
AcDbLine
 62
4
  6
CONTINUOUS
 10
11.1347959428
 20
7.8675886893
 11
11.1275514989
 21
7.8970688691
  0
LINE
  5
2FE
100
AcDbEntity
  8
0
100
AcDbLine
 62
4
  6
CONTINUOUS
 10
11.4318181454
 20
6.8231086656
 11
11.4390625893
 21
6.7936284858
  0
LINE
  5
2FF
100
AcDbEntity
  8
0
100
AcDbLine
 62
4
  6
CONTINUOUS
 10
11.040618192
 20
9.27333255
 11
11.040618192
 21
9.3809642885
  0
LINE
  5
300
100
AcDbEntity
  8
0
100
AcDbLine
 62
4
  6
CONTINUOUS
 10
11.0488975447
 20
8.7726847579
 11
11.0488975447
 21
8.6898911123
  0
LINE
  5
301
100
AcDbEntity
  8
0
100
AcDbLine
 62
4
  6
CONTINUOUS
 10
11.0958139858
 20
8.6700787163
 11
11.0958139858
 21
8.7859898197
  0
LINE
  5
302
100
AcDbEntity
  8
0
100
AcDbLine
 62
4
  6
CONTINUOUS
 10
11.1151324649
 20
9.2598856027
 11
11.1151324649
 21
9.34267925
  0
LINE
  5
303
100
AcDbEntity
  8
0
100
AcDbLine
 62
4
  6
CONTINUOUS
 10
11.1151324649
 20
9.3675173387
 11
11.1151324649
 21
9.3757967062
  0
LINE
  5
304
100
AcDbEntity
  8
0
100
AcDbLine
 62
7
  6
CONTINUOUS
 10
11.1245682596
 20
6.6608906002
 11
11.1245682596
 21
6.3800475742
  0
LINE
  5
305
100
AcDbEntity
  8
0
100
AcDbLine
 62
4
  6
CONTINUOUS
 10
11.1592890731
 20
9.2651026965
 11
11.1592890731
 21
9.3313376113
  0
LINE
  5
306
100
AcDbEntity
  8
0
100
AcDbLine
 62
4
  6
CONTINUOUS
 10
11.1999959385
 20
7.8920448301
 11
11.1999959385
 21
7.8534077962
  0
LINE
  5
307
100
AcDbEntity
  8
0
100
AcDbLine
 62
4
  6
CONTINUOUS
 10
11.9968848142
 20
8.4936100102
 11
12.0548403659
 21
8.489590779
  0
LINE
  5
308
100
AcDbEntity
  8
0
100
AcDbLine
 62
4
  6
CONTINUOUS
 10
11.0323388236
 20
8.6744807338
 11
10.990941993
 21
8.6773516137
  0
LINE
  5
309
100
AcDbEntity
  8
0
100
AcDbLine
 62
4
  6
CONTINUOUS
 10
10.9412658295
 20
8.6807966673
 11
10.9164277201
 21
8.6825191961
  0
LINE
  5
30A
100
AcDbEntity
  8
0
100
AcDbLine
 62
4
  6
CONTINUOUS
 10
10.8529526131
 20
8.6869212097
 11
10.8198351708
 21
8.6892179121
  0
LINE
  5
30B
100
AcDbEntity
  8
0
100
AcDbLine
 62
4
  6
CONTINUOUS
 10
10.3672298884
 20
8.7206061951
 11
10.3258330716
 21
8.7234770741
  0
LINE
  5
30C
100
AcDbEntity
  8
0
100
AcDbLine
 62
4
  6
CONTINUOUS
 10
10.6294097668
 20
8.7024239587
 11
10.679085958
 21
8.6989789032
  0
LINE
  5
30D
100
AcDbEntity
  8
0
100
AcDbLine
 62
4
  6
CONTINUOUS
 10
11.0958139858
 20
8.6700787163
 11
11.1454901493
 21
8.6666336627
  0
LINE
  5
30E
100
AcDbEntity
  8
0
100
AcDbLine
 62
4
  6
CONTINUOUS
 10
12.0186181461
 20
8.6080139019
 11
12.033107034
 21
8.6070090941
  0
LINE
  5
30F
100
AcDbEntity
  8
0
100
AcDbLine
 62
4
  6
CONTINUOUS
 10
10.4417441682
 20
8.7485560718
 11
10.4859007764
 21
8.7454938006
  0
LINE
  5
310
100
AcDbEntity
  8
0
100
AcDbLine
 62
4
  6
CONTINUOUS
 10
9.4251070593
 20
9.7248226414
 11
9.4395959472
 21
9.7141585772
  0
LINE
  5
311
100
AcDbEntity
  8
0
100
AcDbLine
 62
4
  6
CONTINUOUS
 10
10.256838355
 20
9.352525961
 11
10.1988828033
 21
9.4062213799
  0
LINE
  5
312
100
AcDbEntity
  8
0
100
AcDbLine
 62
4
  6
CONTINUOUS
 10
10.2899558112
 20
9.3336705278
 11
10.3065145392
 21
9.3159634463
  0
LINE
  5
313
100
AcDbEntity
  8
0
100
AcDbLine
 62
4
  6
CONTINUOUS
 10
10.9164277201
 20
8.6825191961
 11
10.899868999
 21
8.7002262771
  0
LINE
  5
314
100
AcDbEntity
  8
0
100
AcDbLine
 62
4
  6
CONTINUOUS
 10
10.248558991
 20
9.4358937807
 11
10.256838355
 21
9.4270402374
  0
LINE
  5
315
100
AcDbEntity
  8
0
100
AcDbLine
 62
4
  6
CONTINUOUS
 10
10.9412658295
 20
8.7967077708
 11
10.9578245507
 21
8.7790006915
  0
LINE
  5
316
100
AcDbEntity
  8
0
100
AcDbLine
 62
4
  6
CONTINUOUS
 10
10.7701589921
 20
9.0470197697
 11
10.753600271
 21
9.064726849
  0
LINE
  5
317
100
AcDbEntity
  8
0
100
AcDbLine
 62
4
  6
CONTINUOUS
 10
10.6614923645
 20
10.0930642221
 11
10.6977145843
 21
9.9746410992
  0
LINE
  5
318
100
AcDbEntity
  8
0
100
AcDbLine
 62
4
  6
CONTINUOUS
 10
11.2338034012
 20
9.301331933
 11
11.2338034012
 21
9.3261700251
  0
LINE
  5
319
100
AcDbEntity
  8
0
100
AcDbLine
 62
7
  6
CONTINUOUS
 10
11.2376230716
 20
6.6530502223
 11
11.2376230716
 21
6.2708451983
  0
LINE
  5
31A
100
AcDbEntity
  8
0
100
AcDbLine
 62
7
  6
CONTINUOUS
 10
11.2795032991
 20
6.6501458187
 11
11.2795032991
 21
6.2600058116
  0
LINE
  5
31B
100
AcDbEntity
  8
0
100
AcDbLine
 62
4
  6
CONTINUOUS
 10
11.2834795095
 20
9.2564900604
 11
11.2834795095
 21
9.2813281551
  0
LINE
  5
31C
100
AcDbEntity
  8
0
100
AcDbLine
 62
4
  6
CONTINUOUS
 10
11.3738625937
 20
6.7401945692
 11
11.3738625937
 21
6.8561056726
  0
LINE
  5
31D
100
AcDbEntity
  8
0
100
AcDbLine
 62
4
  6
CONTINUOUS
 10
11.1275514989
 20
7.8970688691
 11
11.1347959428
 21
7.925544241
  0
LINE
  5
31E
100
AcDbEntity
  8
0
100
AcDbLine
 62
4
  6
CONTINUOUS
 10
11.1289314282
 20
8.7340169331
 11
11.0958139858
 21
8.7363136355
  0
LINE
  5
31F
100
AcDbEntity
  8
0
100
AcDbLine
 62
4
  6
CONTINUOUS
 10
10.6625272368
 20
8.7663621736
 11
10.6294097668
 21
8.768658878
  0
LINE
  5
320
100
AcDbEntity
  8
0
100
AcDbLine
 62
4
  6
CONTINUOUS
 10
10.3258330716
 20
8.8393881775
 11
10.3672298884
 21
8.8365172985
  0
LINE
  5
321
100
AcDbEntity
  8
0
100
AcDbLine
 62
4
  6
CONTINUOUS
 10
10.5300573846
 20
8.8252251733
 11
10.5962922969
 21
8.8206317665
  0
LINE
  5
322
100
AcDbEntity
  8
0
100
AcDbLine
 62
4
  6
CONTINUOUS
 10
10.6294097668
 20
8.8183350622
 11
10.679085958
 21
8.8148900066
  0
LINE
  5
323
100
AcDbEntity
  8
0
100
AcDbLine
 62
4
  6
CONTINUOUS
 10
10.8198351708
 20
8.8051290156
 11
10.8529526131
 21
8.8028323131
  0
LINE
  5
324
100
AcDbEntity
  8
0
100
AcDbLine
 62
4
  6
CONTINUOUS
 10
10.9164277201
 20
8.7984302995
 11
10.9412658295
 21
8.7967077708
  0
LINE
  5
325
100
AcDbEntity
  8
0
100
AcDbLine
 62
4
  6
CONTINUOUS
 10
10.990941993
 20
8.7932627171
 11
11.0323388236
 21
8.7903918372
  0
LINE
  5
326
100
AcDbEntity
  8
0
100
AcDbLine
 62
4
  6
CONTINUOUS
 10
11.0958139858
 20
8.7859898197
 11
11.1454901493
 21
8.7825447661
  0
LINE
  5
327
100
AcDbEntity
  8
0
100
AcDbLine
 62
4
  6
CONTINUOUS
 10
11.1786075917
 20
8.7360914555
 11
11.2227641999
 21
8.7109508767
  0
LINE
  5
328
100
AcDbEntity
  8
0
100
AcDbLine
 62
4
  6
CONTINUOUS
 10
11.0323388236
 20
8.7903918372
 11
11.0488975447
 21
8.7726847579
  0
LINE
  5
329
100
AcDbEntity
  8
0
100
AcDbLine
 62
4
  6
CONTINUOUS
 10
10.6045716653
 20
9.3780867617
 11
10.6128510259
 21
9.3692332186
  0
LINE
  5
32A
100
AcDbEntity
  8
0
100
AcDbLine
 62
4
  6
CONTINUOUS
 10
10.8336340945
 20
9.3622012283
 11
10.8391536498
 21
9.3535390784
  0
LINE
  5
32B
100
AcDbEntity
  8
0
100
AcDbLine
 62
4
  6
CONTINUOUS
 10
10.9247070886
 20
9.3393265666
 11
10.9164277556
 21
9.3564594684
  0
LINE
  5
32C
100
AcDbEntity
  8
0
100
AcDbLine
 62
4
  6
CONTINUOUS
 10
11.1275514989
 20
6.8152318533
 11
11.1347959428
 21
6.8437072253
  0
LINE
  5
32D
100
AcDbEntity
  8
0
100
AcDbLine
 62
4
  6
CONTINUOUS
 10
11.1347959428
 20
7.925544241
 11
11.1492848308
 21
7.9438579528
  0
LINE
  5
32E
100
AcDbEntity
  8
0
100
AcDbLine
 62
4
  6
CONTINUOUS
 10
11.1999959385
 20
7.8534077962
 11
11.1927514946
 21
7.8442509412
  0
LINE
  5
32F
100
AcDbEntity
  8
0
100
AcDbLine
 62
7
  6
CONTINUOUS
 10
12.4344488213
 20
9.2316300762
 11
12.4334340104
 21
9.230667856
  0
LINE
  5
330
100
AcDbEntity
  8
0
100
AcDbLine
 62
4
  6
CONTINUOUS
 10
12.0041292582
 20
8.5993594534
 11
12.0186181461
 21
8.6080139019
  0
LINE
  5
331
100
AcDbEntity
  8
0
100
AcDbLine
 62
4
  6
CONTINUOUS
 10
12.0475959219
 20
8.557707991
 11
12.0186181461
 21
8.5403990905
  0
LINE
  5
332
100
AcDbEntity
  8
0
100
AcDbLine
 62
4
  6
CONTINUOUS
 10
11.1492848308
 20
7.9438579528
 11
11.1637737187
 21
7.9525124013
  0
LINE
  5
333
100
AcDbEntity
  8
0
100
AcDbLine
 62
4
  6
CONTINUOUS
 10
10.7701589921
 20
8.9476673944
 11
10.7122034473
 21
8.9516866251
  0
LINE
  5
334
100
AcDbEntity
  8
0
100
AcDbLine
 62
4
  6
CONTINUOUS
 10
10.6238902249
 20
8.9909286274
 11
10.6680468357
 21
8.9878663561
  0
LINE
  5
335
100
AcDbEntity
  8
0
100
AcDbLine
 62
4
  6
CONTINUOUS
 10
10.753600271
 20
9.064726849
 11
10.7287621754
 21
9.0664493768
  0
LINE
  5
336
100
AcDbEntity
  8
0
100
AcDbLine
 62
4
  6
CONTINUOUS
 10
10.7342817123
 20
9.2862976921
 11
10.7177229911
 21
9.2957254082
  0
LINE
  5
337
100
AcDbEntity
  8
0
100
AcDbLine
 62
4
  6
CONTINUOUS
 10
10.9578245309
 20
9.2790743099
 11
10.9661039191
 21
9.2702207675
  0
LINE
  5
338
100
AcDbEntity
  8
0
100
AcDbLine
 62
4
  6
CONTINUOUS
 10
11.0488975802
 20
9.2644790076
 11
11.040618192
 21
9.27333255
  0
LINE
  5
339
100
AcDbEntity
  8
0
100
AcDbLine
 62
7
  6
CONTINUOUS
 10
11.701429278
 20
6.6208851527
 11
11.701429278
 21
6.2307451456
  0
LINE
  5
33A
100
AcDbEntity
  8
0
100
AcDbLine
 62
7
  6
CONTINUOUS
 10
11.7586387166
 20
6.6169176646
 11
11.7586387166
 21
6.2347126406
  0
LINE
  5
33B
100
AcDbEntity
  8
0
100
AcDbLine
 62
4
  6
CONTINUOUS
 10
11.9968848142
 20
8.5902025941
 11
12.0041292582
 21
8.5993594534
  0
LINE
  5
33C
100
AcDbEntity
  8
0
100
AcDbLine
 62
4
  6
CONTINUOUS
 10
12.0186181461
 20
8.5403990905
 11
12.0041292582
 21
8.5220853822
  0
LINE
  5
33D
100
AcDbEntity
  8
0
100
AcDbLine
 62
4
  6
CONTINUOUS
 10
12.0548403659
 20
8.5668648503
 11
12.0475959219
 21
8.557707991
  0
LINE
  5
33E
100
AcDbEntity
  8
0
100
AcDbLine
 62
4
  6
CONTINUOUS
 10
11.1927514946
 20
7.8442509412
 11
11.1782626066
 21
7.8355964901
  0
LINE
  5
33F
100
AcDbEntity
  8
0
100
AcDbLine
 62
4
  6
CONTINUOUS
 10
10.6459684959
 20
9.2648243526
 11
10.662527217
 21
9.2636760014
  0
LINE
  5
340
100
AcDbEntity
  8
0
100
AcDbLine
 62
4
  6
CONTINUOUS
 10
11.2006859589
 20
9.2539524478
 11
11.167568406
 21
9.2562491579
  0
LINE
  5
341
100
AcDbEntity
  8
0
100
AcDbLine
 62
4
  6
CONTINUOUS
 10
11.0654563014
 20
9.2633306564
 11
11.0488975802
 21
9.2644790076
  0
LINE
  5
342
100
AcDbEntity
  8
0
100
AcDbLine
 62
4
  6
CONTINUOUS
 10
10.9247070886
 20
9.2730916474
 11
10.8915896462
 21
9.2753883499
  0
LINE
  5
343
100
AcDbEntity
  8
0
100
AcDbLine
 62
4
  6
CONTINUOUS
 10
10.7673991546
 20
9.2840009897
 11
10.7342817123
 21
9.2862976921
  0
LINE
  5
344
100
AcDbEntity
  8
0
100
AcDbLine
 62
4
  6
CONTINUOUS
 10
10.2071621682
 20
9.3228535567
 11
10.2402796269
 21
9.3205568531
  0
LINE
  5
345
100
AcDbEntity
  8
0
100
AcDbLine
 62
4
  6
CONTINUOUS
 10
10.3065145392
 20
9.3159634463
 11
10.3313526417
 21
9.3142409181
  0
LINE
  5
346
100
AcDbEntity
  8
0
100
AcDbLine
 62
4
  6
CONTINUOUS
 10
10.9661039191
 20
9.2702207675
 11
11.0075007497
 21
9.2673498875
  0
LINE
  5
347
100
AcDbEntity
  8
0
100
AcDbLine
 62
4
  6
CONTINUOUS
 10
11.2420827342
 20
9.2510815717
 11
11.2752001765
 21
9.2487848692
  0
LINE
  5
348
100
AcDbEntity
  8
0
100
AcDbLine
 62
4
  6
CONTINUOUS
 10
10.8915896462
 20
9.2753883499
 11
10.8750309251
 21
9.284816066
  0
LINE
  5
349
100
AcDbEntity
  8
0
100
AcDbLine
 62
4
  6
CONTINUOUS
 10
12.033107034
 20
8.6070090941
 11
12.0475959219
 21
8.59634503
  0
LINE
  5
34A
100
AcDbEntity
  8
0
100
AcDbLine
 62
4
  6
CONTINUOUS
 10
11.2420827342
 20
9.2952381833
 11
11.2338034012
 21
9.301331933
  0
LINE
  5
34B
100
AcDbEntity
  8
0
100
AcDbLine
 62
4
  6
CONTINUOUS
 10
11.167568406
 20
9.2562491579
 11
11.1592890731
 21
9.2651026965
  0
LINE
  5
34C
100
AcDbEntity
  8
0
100
AcDbLine
 62
4
  6
CONTINUOUS
 10
11.2338034012
 20
9.2599351102
 11
11.2420827342
 21
9.2510815717
  0
LINE
  5
34D
100
AcDbEntity
  8
0
100
AcDbLine
 62
4
  6
CONTINUOUS
 10
11.2752001765
 20
9.3315785165
 11
11.2834795095
 21
9.3227249753
  0
LINE
  5
34E
100
AcDbEntity
  8
0
100
AcDbLine
 62
4
  6
CONTINUOUS
 10
11.4390625893
 20
6.7936284858
 11
11.4318181454
 21
6.7651531139
  0
LINE
  5
34F
100
AcDbEntity
  8
0
100
AcDbLine
 62
4
  6
CONTINUOUS
 10
12.0041292582
 20
8.5220853822
 11
11.9968848142
 21
8.4936100102
  0
LINE
  5
350
100
AcDbEntity
  8
0
100
AcDbLine
 62
4
  6
CONTINUOUS
 10
10.8915896462
 20
9.3167851735
 11
10.9247070886
 21
9.3144884711
  0
LINE
  5
351
100
AcDbEntity
  8
0
100
AcDbLine
 62
4
  6
CONTINUOUS
 10
10.9164277556
 20
9.3564594684
 11
10.8750309251
 21
9.3593303484
  0
LINE
  5
352
100
AcDbEntity
  8
0
100
AcDbLine
 62
4
  6
CONTINUOUS
 10
10.5631748348
 20
9.3809576417
 11
10.6045716653
 21
9.3780867617
  0
LINE
  5
353
100
AcDbEntity
  8
0
100
AcDbLine
 62
4
  6
CONTINUOUS
 10
10.7342817123
 20
9.3690913394
 11
10.7673991546
 21
9.366794637
  0
LINE
  5
354
100
AcDbEntity
  8
0
100
AcDbLine
 62
4
  6
CONTINUOUS
 10
10.8005166522
 20
9.3644979307
 11
10.8336340945
 21
9.3622012283
  0
LINE
  5
355
100
AcDbEntity
  8
0
100
AcDbLine
 62
4
  6
CONTINUOUS
 10
11.167568406
 20
9.3390428051
 11
11.2006859589
 21
9.3367460951
  0
LINE
  5
356
100
AcDbEntity
  8
0
100
AcDbLine
 62
4
  6
CONTINUOUS
 10
11.2420827342
 20
9.3338752189
 11
11.2752001765
 21
9.3315785165
  0
LINE
  5
357
100
AcDbEntity
  8
0
100
AcDbLine
 62
4
  6
CONTINUOUS
 10
10.2154415331
 20
9.4381904842
 11
10.248558991
 21
9.4358937807
  0
LINE
  5
358
100
AcDbEntity
  8
0
100
AcDbLine
 62
4
  6
CONTINUOUS
 10
11.1151324649
 20
9.3757967062
 11
11.1178922425
 21
9.3756053149
  0
LINE
  5
359
100
AcDbEntity
  8
0
100
AcDbLine
 62
4
  6
CONTINUOUS
 10
11.2752001765
 20
9.2874219049
 11
11.2420827342
 21
9.2952381833
  0
LINE
  5
35A
100
AcDbEntity
  8
0
100
AcDbLine
 62
4
  6
CONTINUOUS
 10
11.2834795095
 20
9.2813281551
 11
11.2752001765
 21
9.2874219049
  0
LINE
  5
35B
100
AcDbEntity
  8
0
100
AcDbLine
 62
4
  6
CONTINUOUS
 10
12.0475959219
 20
8.59634503
 11
12.0548403659
 21
8.5861833629
  0
LINE
  5
35C
100
AcDbEntity
  8
0
100
AcDbLine
 62
4
  6
CONTINUOUS
 10
12.0548403659
 20
8.5861833629
 11
12.0548403659
 21
8.5668648503
  0
LINE
  5
35D
100
AcDbEntity
  8
0
100
AcDbLine
 62
7
  6
CONTINUOUS
 10
12.0675098836
 20
6.5954973764
 11
12.0675098836
 21
6.3146543505
  0
LINE
  5
35E
100
AcDbEntity
  8
0
100
AcDbLine
 62
7
  6
CONTINUOUS
 10
12.0828390948
 20
6.594434292
 11
12.0828390948
 21
6.3294612323
  0
LINE
  5
35F
100
AcDbEntity
  8
0
100
AcDbLine
 62
4
  6
CONTINUOUS
 10
11.4825292531
 20
6.7326585107
 11
11.518751473
 21
6.8460575947
  0
LINE
  5
360
100
AcDbEntity
  8
0
100
AcDbLine
 62
4
  6
CONTINUOUS
 10
11.2579514902
 20
6.7482330315
 11
11.315907042
 21
6.8601249038
  0
LINE
  5
361
100
AcDbEntity
  8
0
100
AcDbLine
 62
4
  6
CONTINUOUS
 10
11.1347959428
 20
6.8437072253
 11
11.1492848308
 21
6.862020937
  0
LINE
  5
362
100
AcDbEntity
  8
0
100
AcDbLine
 62
4
  6
CONTINUOUS
 10
9.4251070593
 20
9.6089115379
 11
9.4106181713
 21
9.6099163457
  0
LINE
  5
363
100
AcDbEntity
  8
0
100
AcDbLine
 62
4
  6
CONTINUOUS
 10
9.4106181713
 20
9.6775311537
 11
9.4251070593
 21
9.676526346
  0
LINE
  5
364
100
AcDbEntity
  8
0
100
AcDbLine
 62
4
  6
CONTINUOUS
 10
9.4106181713
 20
9.7258274491
 11
9.4251070593
 21
9.7248226414
  0
LINE
  5
365
100
AcDbEntity
  8
0
100
AcDbLine
 62
7
  6
CONTINUOUS
 10
12.1900699938
 20
6.5869978039
 11
12.1900699938
 21
10.0884791317
  0
LINE
  5
366
100
AcDbEntity
  8
0
100
AcDbLine
 62
4
  6
CONTINUOUS
 10
11.1999959385
 20
6.7715707805
 11
11.1927514946
 21
6.7624139255
  0
LINE
  5
367
100
AcDbEntity
  8
0
100
AcDbLine
 62
4
  6
CONTINUOUS
 10
11.4318181454
 20
6.7651531139
 11
11.4173292575
 21
6.7468394047
  0
LINE
  5
368
100
AcDbEntity
  8
0
100
AcDbLine
 62
4
  6
CONTINUOUS
 10
11.1492848308
 20
6.862020937
 11
11.1637737187
 21
6.8706753856
  0
LINE
  5
369
100
AcDbEntity
  8
0
100
AcDbLine
 62
4
  6
CONTINUOUS
 10
10.6397590326
 20
10.017297366
 11
10.6832256964
 21
10.0142829426
  0
LINE
  5
36A
100
AcDbEntity
  8
0
100
AcDbLine
 62
4
  6
CONTINUOUS
 10
10.2920257223
 20
10.060731269
 11
10.3354923861
 21
10.0577168457
  0
LINE
  5
36B
100
AcDbEntity
  8
0
100
AcDbLine
 62
7
  6
CONTINUOUS
 10
12.7077076568
 20
7.0869974209
 11
12.7077076568
 21
10.5884787487
  0
LINE
  5
36C
100
AcDbEntity
  8
0
100
AcDbLine
 62
4
  6
CONTINUOUS
 10
11.1927514946
 20
6.7624139255
 11
11.1782626066
 21
6.7537594744
  0
LINE
  5
36D
100
AcDbEntity
  8
0
100
AcDbLine
 62
4
  6
CONTINUOUS
 10
11.4173292575
 20
6.7468394047
 11
11.4028403695
 21
6.7381849536
  0
LINE
  5
36E
100
AcDbEntity
  8
0
100
AcDbLine
 62
4
  6
CONTINUOUS
 10
10.1616257309
 20
10.1277300909
 11
10.2340701706
 21
10.1227060519
  0
LINE
  5
36F
100
AcDbEntity
  8
0
100
AcDbLine
 62
7
  6
CONTINUOUS
 10
9.2922923432
 20
10.2894406943
 11
12.1900699938
 21
10.0884791317
  0
LINE
  5
370
100
AcDbEntity
  8
0
100
AcDbLine
 62
7
  6
CONTINUOUS
 10
12.1900699938
 20
6.5869978039
 11
12.7077076568
 21
7.0869974209
  0
LINE
  5
371
100
AcDbEntity
  8
0
100
AcDbLine
 62
7
  6
CONTINUOUS
 10
12.7077076568
 20
10.5884787487
 11
9.8099300062
 21
10.7894403113
  0
LINE
  5
372
100
AcDbEntity
  8
0
100
AcDbLine
 62
7
  6
CONTINUOUS
 10
12.0097523677
 20
6.2826303507
 11
11.984590015
 21
6.2702006302
  0
ARC
  5
373
100
AcDbEntity
  8
0
100
AcDbCircle
 62
7
  6
CONTINUOUS
 10
11.6115053758
 20
7.9418566393
 40
1.7134727463
100
AcDbArc
 50
273.0082929995
 51
274.9259690708
  0
ARC
  5
374
100
AcDbEntity
  8
0
100
AcDbCircle
 62
7
  6
CONTINUOUS
 10
10.3271324141
 20
10.3027583489
 40
0.0290575936
100
AcDbArc
 50
180.0124386196
 51
187.8522742044
  0
ARC
  5
375
100
AcDbEntity
  8
0
100
AcDbCircle
 62
7
  6
CONTINUOUS
 10
11.1300178076
 20
10.302758379
 40
0.0290569904
100
AcDbArc
 50
352.2255437801
 51
359.9875017606
  0
SPLINE
  5
376
100
AcDbEntity
  8
0
100
AcDbSpline
 62
7
  6
CONTINUOUS
 70
0
 71
3
 72
11
 73
7
 74
0
 42
0.0000001
 43
0.0000001
 44
0.0000000001
 40
0.0
 40
0.0
 40
0.0
 40
0.0
 40
0.2399502312
 40
0.4865132022
 40
0.7398237866
 40
1.0
 40
1.0
 40
1.0
 40
1.0
 10
12.0760414342
 20
6.3219976686
 30
0.0
 10
12.0753935591
 20
6.3213718692
 30
0.0
 10
12.0740604201
 20
6.3201231043
 30
0.0
 10
12.071979688
 20
6.3182831035
 30
0.0
 10
12.0697915778
 20
6.3164515269
 30
0.0
 10
12.0682819502
 20
6.315252539
 30
0.0
 10
12.0675098836
 20
6.3146543505
 30
0.0
  0
SPLINE
  5
377
100
AcDbEntity
  8
0
100
AcDbSpline
 62
7
  6
CONTINUOUS
 70
0
 71
3
 72
11
 73
7
 74
0
 42
0.0000001
 43
0.0000001
 44
0.0000000001
 40
0.0
 40
0.0
 40
0.0
 40
0.0
 40
0.2399382843
 40
0.4864287737
 40
0.7397111676
 40
1.0
 40
1.0
 40
1.0
 40
1.0
 10
12.0828390948
 20
6.3294612323
 30
0.0
 10
12.0823389892
 20
6.32882662
 30
0.0
 10
12.0813005261
 20
6.3275592721
 30
0.0
 10
12.0796538016
 20
6.3256896439
 30
0.0
 10
12.077897936
 20
6.3238268007
 30
0.0
 10
12.0766718709
 20
6.3226066237
 30
0.0
 10
12.0760414342
 20
6.3219976686
 30
0.0
  0
SPLINE
  5
378
100
AcDbEntity
  8
0
100
AcDbSpline
 62
7
  6
CONTINUOUS
 70
0
 71
3
 72
11
 73
7
 74
0
 42
0.0000001
 43
0.0000001
 44
0.0000000001
 40
0.0
 40
0.0
 40
0.0
 40
0.0
 40
0.2529398012
 40
0.5039896517
 40
0.7530425508
 40
1.0
 40
1.0
 40
1.0
 40
1.0
 10
12.0675098836
 20
6.3146543505
 30
0.0
 10
12.0627552126
 20
6.3117489153
 30
0.0
 10
12.0532262414
 20
6.306049352
 30
0.0
 10
12.0388155898
 20
6.2978291171
 30
0.0
 10
12.0243404697
 20
6.2899958819
 30
0.0
 10
12.0146065664
 20
6.285028369
 30
0.0
 10
12.009728958
 20
6.2826187873
 30
0.0
  0
SPLINE
  5
379
100
AcDbEntity
  8
0
100
AcDbSpline
 62
7
  6
CONTINUOUS
 70
0
 71
3
 72
79
 73
75
 74
0
 42
0.0000001
 43
0.0000001
 44
0.0000000001
 40
0.0
 40
0.0
 40
0.0
 40
0.0
 40
0.0049346149
 40
0.0099877251
 40
0.0151590499
 40
0.0204481992
 40
0.0258546713
 40
0.0313778714
 40
0.0370171043
 40
0.0427715926
 40
0.0546226141
 40
0.066923307
 40
0.0796646949
 40
0.0928367656
 40
0.10642856
 40
0.1204282499
 40
0.1348232052
 40
0.1496000531
 40
0.1647447325
 40
0.1802425411
 40
0.1960781811
 40
0.2122357989
 40
0.2286990254
 40
0.2454510106
 40
0.26247446
 40
0.2797516671
 40
0.2972645466
 40
0.3149946648
 40
0.3329232712
 40
0.3510313283
 40
0.3692995407
 40
0.3877083857
 40
0.4062381408
 40
0.424868914
 40
0.443580671
 40
0.462353265
 40
0.4811664639
 40
0.4999999795
 40
0.5188334952
 40
0.5376466942
 40
0.5564192885
 40
0.5751310457
 40
0.5937618193
 40
0.6122915748
 40
0.6307004205
 40
0.6489686336
 40
0.6670766916
 40
0.685005299
 40
0.7027354182
 40
0.7202482986
 40
0.7375255067
 40
0.7545489571
 40
0.7713009434
 40
0.7877641713
 40
0.8039217908
 40
0.8197574325
 40
0.8352552428
 40
0.8503999238
 40
0.8651767734
 40
0.8795717301
 40
0.8935714217
 40
0.9071632179
 40
0.9203352906
 40
0.9330766807
 40
0.945377376
 40
0.9572283997
 40
0.9629828881
 40
0.9686221229
 40
0.9741453233
 40
0.979551797
 40
0.9848409473
 40
0.990012273
 40
0.9950653848
 40
1.0
 40
1.0
 40
1.0
 40
1.0
 10
11.9845900594
 20
6.2702006524
 30
0.0
 10
11.9834452692
 20
6.269635148
 30
0.0
 10
11.9811186545
 20
6.2685097849
 30
0.0
 10
11.9775611601
 20
6.2668572107
 30
0.0
 10
11.9738956309
 20
6.2652205126
 30
0.0
 10
11.9701231342
 20
6.2636001728
 30
0.0
 10
11.9662447541
 20
6.2619966524
 30
0.0
 10
11.9622616091
 20
6.2604104209
 30
0.0
 10
11.9581748446
 20
6.2588419264
 30
0.0
 10
11.9525339399
 20
6.2567544182
 30
0.0
 10
11.9452301187
 20
6.2541957402
 30
0.0
 10
11.9361547662
 20
6.2512325489
 30
0.0
 10
11.9266953546
 20
6.2483507231
 30
0.0
 10
11.916862811
 20
6.2455536067
 30
0.0
 10
11.906668449
 20
6.2428444432
 30
0.0
 10
11.8961240222
 20
6.240226376
 30
0.0
 10
11.8852416905
 20
6.2377024429
 30
0.0
 10
11.8740340102
 20
6.235275573
 30
0.0
 10
11.8625139173
 20
6.2329485825
 30
0.0
 10
11.8506947122
 20
6.2307241714
 30
0.0
 10
11.8385900438
 20
6.2286049209
 30
0.0
 10
11.8262138935
 20
6.2265932897
 30
0.0
 10
11.8135805585
 20
6.2246916115
 30
0.0
 10
11.8007046349
 20
6.2229020919
 30
0.0
 10
11.7876010008
 20
6.2212268066
 30
0.0
 10
11.7742847985
 20
6.2196676983
 30
0.0
 10
11.7607714172
 20
6.2182265751
 30
0.0
 10
11.7470764749
 20
6.2169051079
 30
0.0
 10
11.7332157998
 20
6.215704829
 30
0.0
 10
11.719205413
 20
6.21462713
 30
0.0
 10
11.7050615085
 20
6.2136732603
 30
0.0
 10
11.6908004357
 20
6.2128443255
 30
0.0
 10
11.6764386795
 20
6.2121412865
 30
0.0
 10
11.6619928417
 20
6.2115649581
 30
0.0
 10
11.6474796214
 20
6.2111160084
 30
0.0
 10
11.6329157956
 20
6.2107949578
 30
0.0
 10
11.6183182003
 20
6.2106021782
 30
0.0
 10
11.6037037105
 20
6.2105378933
 30
0.0
 10
11.5890892205
 20
6.2106021775
 30
0.0
 10
11.5744916251
 20
6.2107949565
 30
0.0
 10
11.5599277992
 20
6.2111160066
 30
0.0
 10
11.5454145786
 20
6.2115649558
 30
0.0
 10
11.5309687405
 20
6.2121412836
 30
0.0
 10
11.5166069839
 20
6.2128443221
 30
0.0
 10
11.5023459106
 20
6.2136732563
 30
0.0
 10
11.4882020056
 20
6.2146271255
 30
0.0
 10
11.4741916179
 20
6.2157048238
 30
0.0
 10
11.4603309421
 20
6.2169051021
 30
0.0
 10
11.4466359989
 20
6.2182265687
 30
0.0
 10
11.4331226168
 20
6.2196676914
 30
0.0
 10
11.4198064138
 20
6.2212267992
 30
0.0
 10
11.4067027788
 20
6.2229020841
 30
0.0
 10
11.3938268541
 20
6.2246916032
 30
0.0
 10
11.381193518
 20
6.226593281
 30
0.0
 10
11.3688173663
 20
6.2286049116
 30
0.0
 10
11.3567126966
 20
6.2307241615
 30
0.0
 10
11.34489349
 20
6.232948572
 30
0.0
 10
11.3333733957
 20
6.2352755621
 30
0.0
 10
11.322165714
 20
6.2377024316
 30
0.0
 10
11.311283381
 20
6.2402263643
 30
0.0
 10
11.3007389528
 20
6.2428444311
 30
0.0
 10
11.2905445893
 20
6.2455535943
 30
0.0
 10
11.2807120439
 20
6.2483507103
 30
0.0
 10
11.2712526304
 20
6.2512325356
 30
0.0
 10
11.2621772759
 20
6.2541957266
 30
0.0
 10
11.2548734531
 20
6.2567544036
 30
0.0
 10
11.2492325476
 20
6.2588419127
 30
0.0
 10
11.2451457819
 20
6.2604104061
 30
0.0
 10
11.2411626363
 20
6.2619966382
 30
0.0
 10
11.237284255
 20
6.2636001579
 30
0.0
 10
11.2335117574
 20
6.2652204978
 30
0.0
 10
11.2298462272
 20
6.266857196
 30
0.0
 10
11.2262887317
 20
6.2685097694
 30
0.0
 10
11.2239621165
 20
6.2696351328
 30
0.0
 10
11.2228173263
 20
6.2702006372
 30
0.0
  0
SPLINE
  5
37A
100
AcDbEntity
  8
0
100
AcDbSpline
 62
7
  6
CONTINUOUS
 70
0
 71
3
 72
34
 73
30
 74
0
 42
0.0000001
 43
0.0000001
 44
0.0000000001
 40
0.0
 40
0.0
 40
0.0
 40
0.0
 40
0.0217726103
 40
0.043998712
 40
0.0899309812
 40
0.1380396824
 40
0.1885283882
 40
0.2147207498
 40
0.2415663873
 40
0.2690791435
 40
0.2972700689
 40
0.3261474357
 40
0.3557167999
 40
0.3859810872
 40
0.4169407062
 40
0.4485936851
 40
0.4809358243
 40
0.5139608702
 40
0.5476607044
 40
0.5820255323
 40
0.6170440742
 40
0.6527037538
 40
0.6889908834
 40
0.7258908481
 40
0.7633882775
 40
0.8014672032
 40
0.8401112084
 40
0.9190266208
 40
1.0
 40
1.0
 40
1.0
 40
1.0
 10
11.2065178067
 20
6.2782522876
 30
0.0
 10
11.2056547035
 20
6.2786786052
 30
0.0
 10
11.2039262085
 20
6.2795723079
 30
0.0
 10
11.2004609478
 20
6.2815235482
 30
0.0
 10
11.1961170498
 20
6.2842805725
 30
0.0
 10
11.1909535738
 20
6.2880520957
 30
0.0
 10
11.1867005552
 20
6.2915721628
 30
0.0
 10
11.1832970581
 20
6.2946334905
 30
0.0
 10
11.1807129135
 20
6.2970848576
 30
0.0
 10
11.178129002
 20
6.2996630735
 30
0.0
 10
11.1755457213
 20
6.3023675507
 30
0.0
 10
11.1729635102
 20
6.3051973776
 30
0.0
 10
11.1703827868
 20
6.3081513879
 30
0.0
 10
11.1678039616
 20
6.3112281561
 30
0.0
 10
11.1652274296
 20
6.314426016
 30
0.0
 10
11.1626535694
 20
6.3177430764
 30
0.0
 10
11.1600827397
 20
6.3211772391
 30
0.0
 10
11.1575152771
 20
6.3247262187
 30
0.0
 10
11.1549514953
 20
6.3283875654
 30
0.0
 10
11.1523916833
 20
6.3321586858
 30
0.0
 10
11.1498361047
 20
6.3360368654
 30
0.0
 10
11.1472849968
 20
6.3400192891
 30
0.0
 10
11.1447385705
 20
6.3441030628
 30
0.0
 10
11.1421970098
 20
6.3482852337
 30
0.0
 10
11.1396604752
 20
6.3525628097
 30
0.0
 10
11.1371290953
 20
6.3569327774
 30
0.0
 10
11.1337373327
 20
6.3629202886
 30
0.0
 10
11.1295157159
 20
6.3706168703
 30
0.0
 10
11.1262164486
 20
6.3768693879
 30
0.0
 10
11.1245682596
 20
6.3800475742
 30
0.0
  0
SPLINE
  5
37B
100
AcDbEntity
  8
0
100
AcDbSpline
 62
7
  6
CONTINUOUS
 70
0
 71
3
 72
11
 73
7
 74
0
 42
0.0000001
 43
0.0000001
 44
0.0000000001
 40
0.0
 40
0.0
 40
0.0
 40
0.0
 40
0.2598462974
 40
0.5132467876
 40
0.7600213203
 40
1.0
 40
1.0
 40
1.0
 40
1.0
 10
11.2795032991
 20
6.2600058116
 30
0.0
 10
11.275850515
 20
6.2608430642
 30
0.0
 10
11.2686463041
 20
6.2625441617
 30
0.0
 10
11.2580144247
 20
6.2652116725
 30
0.0
 10
11.2476996973
 20
6.2679611865
 30
0.0
 10
11.2409450862
 20
6.2698743299
 30
0.0
 10
11.2376230716
 20
6.2708451983
 30
0.0
  0
SPLINE
  5
37C
100
AcDbEntity
  8
0
100
AcDbSpline
 62
7
  6
CONTINUOUS
 70
0
 71
3
 72
34
 73
30
 74
0
 42
0.0000001
 43
0.0000001
 44
0.0000000001
 40
0.0
 40
0.0
 40
0.0
 40
0.0
 40
0.0614928409
 40
0.1230891667
 40
0.153930456
 40
0.1848018751
 40
0.2157048016
 40
0.2466405691
 40
0.2776104456
 40
0.308615611
 40
0.339657133
 40
0.3707359447
 40
0.4018528241
 40
0.433008375
 40
0.4642030116
 40
0.4954369474
 40
0.5267101883
 40
0.5580225326
 40
0.5893735753
 40
0.6207627182
 40
0.6521891835
 40
0.6836520324
 40
0.7151501852
 40
0.7466824453
 40
0.7782475226
 40
0.8098440566
 40
0.8731242422
 40
0.9365133522
 40
1.0
 40
1.0
 40
1.0
 40
1.0
 10
11.701429278
 20
6.2307451456
 30
0.0
 10
11.6928092805
 20
6.2291201458
 30
0.0
 10
11.6755142226
 20
6.2260780558
 30
0.0
 10
11.6537918454
 20
6.2228503962
 30
0.0
 10
11.6363408031
 20
6.220641095
 30
0.0
 10
11.6232101715
 20
6.2191774457
 30
0.0
 10
11.6100450843
 20
6.2179153327
 30
0.0
 10
11.5968475313
 20
6.2168618727
 30
0.0
 10
11.5836199075
 20
6.2160238027
 30
0.0
 10
11.5703649714
 20
6.2154073633
 30
0.0
 10
11.5570858437
 20
6.2150181925
 30
0.0
 10
11.5437859814
 20
6.2148612203
 30
0.0
 10
11.530469144
 20
6.2149405721
 30
0.0
 10
11.5171393481
 20
6.2152594823
 30
0.0
 10
11.5038008125
 20
6.2158202238
 30
0.0
 10
11.4904578954
 20
6.2166240559
 30
0.0
 10
11.4771150255
 20
6.2176711949
 30
0.0
 10
11.46377663
 20
6.2189608043
 30
0.0
 10
11.4504470634
 20
6.2204910146
 30
0.0
 10
11.4371305384
 20
6.222258963
 30
0.0
 10
11.4238310636
 20
6.2242608542
 30
0.0
 10
11.4105523897
 20
6.2264920382
 30
0.0
 10
11.3972979612
 20
6.2289471047
 30
0.0
 10
11.384070896
 20
6.2316199793
 30
0.0
 10
11.3708739121
 20
6.2345040496
 30
0.0
 10
11.3533133775
 20
6.2386234698
 30
0.0
 10
11.3314498471
 20
6.2442651018
 30
0.0
 10
11.3053766168
 20
6.2517569069
 30
0.0
 10
11.2881104702
 20
6.2571894111
 30
0.0
 10
11.2795032991
 20
6.2600058116
 30
0.0
  0
SPLINE
  5
37D
100
AcDbEntity
  8
0
100
AcDbSpline
 62
7
  6
CONTINUOUS
 70
0
 71
3
 72
15
 73
11
 74
0
 42
0.0000001
 43
0.0000001
 44
0.0000000001
 40
0.0
 40
0.0
 40
0.0
 40
0.0
 40
0.1192556975
 40
0.2392875357
 40
0.3604859033
 40
0.483279967
 40
0.6081324973
 40
0.7355322617
 40
0.8659845135
 40
1.0
 40
1.0
 40
1.0
 40
1.0
 10
11.2376230716
 20
6.2708451983
 30
0.0
 10
11.2363408365
 20
6.270849761
 30
0.0
 10
11.2337677072
 20
6.2709264387
 30
0.0
 10
11.2299036198
 20
6.271253016
 30
0.0
 10
11.2260261243
 20
6.2718019044
 30
0.0
 10
11.2221357981
 20
6.2725835233
 30
0.0
 10
11.2182332219
 20
6.273608078
 30
0.0
 10
11.2143191391
 20
6.2748854312
 30
0.0
 10
11.21039462
 20
6.2764248171
 30
0.0
 10
11.2078097422
 20
6.2776141544
 30
0.0
 10
11.2065178067
 20
6.2782522876
 30
0.0
  0
SPLINE
  5
37E
100
AcDbEntity
  8
0
100
AcDbSpline
 62
7
  6
CONTINUOUS
 70
0
 71
3
 72
32
 73
28
 74
0
 42
0.0000001
 43
0.0000001
 44
0.0000000001
 40
0.0
 40
0.0
 40
0.0
 40
0.0
 40
0.0668467461
 40
0.1330343711
 40
0.1985498456
 40
0.2633895225
 40
0.2955589434
 40
0.3275629011
 40
0.3594039835
 40
0.3910854601
 40
0.4226112559
 40
0.4539859114
 40
0.4852145321
 40
0.5163027271
 40
0.54725654
 40
0.5780823734
 40
0.6087869096
 40
0.6393770305
 40
0.6698597382
 40
0.7002420785
 40
0.7305310697
 40
0.7607336373
 40
0.790856557
 40
0.8209064041
 40
0.880809966
 40
0.940493758
 40
1.0
 40
1.0
 40
1.0
 40
1.0
 10
12.009728958
 20
6.2826187873
 30
0.0
 10
12.0045509161
 20
6.2800607888
 30
0.0
 10
11.9941747482
 20
6.2751123048
 30
0.0
 10
11.9784749899
 20
6.2681928996
 30
0.0
 10
11.9627231061
 20
6.2618422884
 30
0.0
 10
11.9495271872
 20
6.2570333373
 30
0.0
 10
11.9389561146
 20
6.2534967873
 30
0.0
 10
11.931042542
 20
6.2510072534
 30
0.0
 10
11.9231250066
 20
6.2486754774
 30
0.0
 10
11.9152051863
 20
6.2465026894
 30
0.0
 10
11.9072848173
 20
6.244489695
 30
0.0
 10
11.8993656339
 20
6.2426368423
 30
0.0
 10
11.8914493608
 20
6.2409440249
 30
0.0
 10
11.8835376917
 20
6.2394106834
 30
0.0
 10
11.8756322731
 20
6.2380358158
 30
0.0
 10
11.8677346869
 20
6.2368179937
 30
0.0
 10
11.8598464369
 20
6.2357553844
 30
0.0
 10
11.8519689357
 20
6.2348457778
 30
0.0
 10
11.844103494
 20
6.2340866174
 30
0.0
 10
11.836251314
 20
6.2334750339
 30
0.0
 10
11.8284134803
 20
6.2330078827
 30
0.0
 10
11.8205909681
 20
6.2326817786
 30
0.0
 10
11.8127845997
 20
6.2324931402
 30
0.0
 10
11.8024100998
 20
6.2324199715
 30
0.0
 10
11.7894813104
 20
6.2326522146
 30
0.0
 10
11.7740247488
 20
6.233418879
 30
0.0
 10
11.763757638
 20
6.2342343708
 30
0.0
 10
11.7586387166
 20
6.2347126406
 30
0.0
  0
SPLINE
  5
37F
100
AcDbEntity
  8
0
100
AcDbSpline
 62
7
  6
CONTINUOUS
 70
0
 71
3
 72
93
 73
89
 74
0
 42
0.0000001
 43
0.0000001
 44
0.0000000001
 40
0.0
 40
0.0
 40
0.0
 40
0.0
 40
0.0039802005
 40
0.0081241083
 40
0.0124359116
 40
0.0169192331
 40
0.0215771071
 40
0.0264118291
 40
0.0314250775
 40
0.0366180274
 40
0.0419913947
 40
0.0475454967
 40
0.0532802394
 40
0.0591952227
 40
0.0652896963
 40
0.071562666
 40
0.0780128361
 40
0.0846387029
 40
0.0984099586
 40
0.1128604728
 40
0.1279709419
 40
0.1437194762
 40
0.1600818774
 40
0.1770318697
 40
0.1945412988
 40
0.2125803054
 40
0.2311174799
 40
0.2501200027
 40
0.2695537746
 40
0.2893835385
 40
0.3095729955
 40
0.3300849166
 40
0.3508812506
 40
0.3719232299
 40
0.3931714738
 40
0.4145860912
 40
0.4361267819
 40
0.4577529372
 40
0.47942374
 40
0.5010982647
 40
0.5227355766
 40
0.5442948315
 40
0.5657353757
 40
0.5870168455
 40
0.608099268
 40
0.628943162
 40
0.6495096405
 40
0.6697605141
 40
0.6896583964
 40
0.7091668111
 40
0.7282503034
 40
0.7468745548
 40
0.7650065038
 40
0.7826144744
 40
0.7996683149
 40
0.8161395488
 40
0.8320015451
 40
0.8472297111
 40
0.8618017176
 40
0.8756977675
 40
0.8823870871
 40
0.8889013284
 40
0.8952388858
 40
0.9013983901
 40
0.9073787355
 40
0.9131790737
 40
0.918798886
 40
0.9242379489
 40
0.9294964425
 40
0.9345749072
 40
0.9394743702
 40
0.9441963202
 40
0.9487428314
 40
0.9531165822
 40
0.9573209639
 40
0.9613601573
 40
0.9652392239
 40
0.9689642405
 40
0.9725423751
 40
0.9759820598
 40
0.97929305
 40
0.982486587
 40
0.9855754179
 40
0.9885738696
 40
0.9914977727
 40
0.9943643586
 40
0.997192021
 40
1.0
 40
1.0
 40
1.0
 40
1.0
 10
11.4530192219
 20
10.4075427318
 30
0.0
 10
11.4515337847
 20
10.4061079095
 30
0.0
 10
11.4484343599
 20
10.4032484241
 30
0.0
 10
11.4435134378
 20
10.39907195
 30
0.0
 10
11.4382311647
 20
10.3949254569
 30
0.0
 10
11.4325904296
 20
10.3908110993
 30
0.0
 10
11.4265939559
 20
10.3867308303
 30
0.0
 10
11.4202447182
 20
10.3826865967
 30
0.0
 10
11.413545869
 20
10.3786804116
 30
0.0
 10
11.4065007603
 20
10.3747142818
 30
0.0
 10
11.399112923
 20
10.3707901574
 30
0.0
 10
11.3913860403
 20
10.366910035
 30
0.0
 10
11.3833239996
 20
10.3630758142
 30
0.0
 10
11.3749308333
 20
10.3592894808
 30
0.0
 10
11.3662107751
 20
10.3555528823
 30
0.0
 10
11.3571682007
 20
10.3518679686
 30
0.0
 10
11.3478076637
 20
10.3482365221
 30
0.0
 10
11.3347408529
 20
10.3434062483
 30
0.0
 10
11.3176384476
 20
10.3375276648
 30
0.0
 10
11.2961808536
 20
10.3308029418
 30
0.0
 10
11.2735758652
 20
10.3243337793
 30
0.0
 10
11.2498691096
 20
10.3181333444
 30
0.0
 10
11.2251082729
 20
10.3122142649
 30
0.0
 10
11.1993432918
 20
10.3065885983
 30
0.0
 10
11.1726261547
 20
10.3012678045
 30
0.0
 10
11.1450108127
 20
10.2962627214
 30
0.0
 10
11.1165530571
 20
10.2915835416
 30
0.0
 10
11.0873104036
 20
10.2872397922
 30
0.0
 10
11.0573419711
 20
10.2832403152
 30
0.0
 10
11.02670836
 20
10.2795932501
 30
0.0
 10
10.9954715263
 20
10.2763060175
 30
0.0
 10
10.9636946552
 20
10.2733853051
 30
0.0
 10
10.931442031
 20
10.2708370534
 30
0.0
 10
10.8987789064
 20
10.2686664451
 30
0.0
 10
10.8657713689
 20
10.2668778942
 30
0.0
 10
10.8324862067
 20
10.2654750368
 30
0.0
 10
10.7989907722
 20
10.2644607248
 30
0.0
 10
10.765352845
 20
10.2638370199
 30
0.0
 10
10.7316404941
 20
10.2636051899
 30
0.0
 10
10.6979219395
 20
10.263765706
 30
0.0
 10
10.6642654141
 20
10.2643182418
 30
0.0
 10
10.6307390243
 20
10.2652616742
 30
0.0
 10
10.5974106126
 20
10.2665940854
 30
0.0
 10
10.5643476189
 20
10.2683127667
 30
0.0
 10
10.5316169441
 20
10.270414224
 30
0.0
 10
10.4992848133
 20
10.2728941845
 30
0.0
 10
10.4674166413
 20
10.2757476052
 30
0.0
 10
10.4360768985
 20
10.2789686822
 30
0.0
 10
10.4053289797
 20
10.2825508628
 30
0.0
 10
10.3752350739
 20
10.2864868584
 30
0.0
 10
10.3458560372
 20
10.2907686589
 30
0.0
 10
10.3172512668
 20
10.2953875486
 30
0.0
 10
10.2894785788
 20
10.3003341237
 30
0.0
 10
10.2625940862
 20
10.3055983108
 30
0.0
 10
10.2366520834
 20
10.3111693878
 30
0.0
 10
10.211704923
 20
10.3170360058
 30
0.0
 10
10.1878029258
 20
10.3231862143
 30
0.0
 10
10.1649941855
 20
10.3296074861
 30
0.0
 10
10.1433247507
 20
10.3362867544
 30
0.0
 10
10.126039955
 20
10.3421281521
 30
0.0
 10
10.1128232365
 20
10.3469298132
 30
0.0
 10
10.1033482524
 20
10.3505413339
 30
0.0
 10
10.0941895389
 20
10.3542070163
 30
0.0
 10
10.0853517007
 20
10.3579250431
 30
0.0
 10
10.0768391825
 20
10.3616935076
 30
0.0
 10
10.0686562734
 20
10.3655105475
 30
0.0
 10
10.0608070695
 20
10.369374193
 30
0.0
 10
10.0532955261
 20
10.3732825608
 30
0.0
 10
10.046125384
 20
10.3772336304
 30
0.0
 10
10.0393002528
 20
10.3812254936
 30
0.0
 10
10.0328235155
 20
10.3852561063
 30
0.0
 10
10.0266984227
 20
10.3893235289
 30
0.0
 10
10.020928004
 20
10.3934257253
 30
0.0
 10
10.0155151403
 20
10.3975607242
 30
0.0
 10
10.0104625206
 20
10.4017265263
 30
0.0
 10
10.0057726543
 20
10.4059211395
 30
0.0
 10
10.0014479156
 20
10.4101426229
 30
0.0
 10
9.99749046
 20
10.4143889809
 30
0.0
 10
9.9939023892
 20
10.4186583338
 30
0.0
 10
9.9906855536
 20
10.4229486929
 30
0.0
 10
9.9878418379
 20
10.4272581989
 30
0.0
 10
9.9853728643
 20
10.4315848386
 30
0.0
 10
9.9832803359
 20
10.4359266566
 30
0.0
 10
9.9815656977
 20
10.4402815083
 30
0.0
 10
9.9802304084
 20
10.4446471323
 30
0.0
 10
9.9792756454
 20
10.4490211877
 30
0.0
 10
9.9787023783
 20
10.4534006063
 30
0.0
 10
9.9785748138
 20
10.4563264025
 30
0.0
 10
9.978574818
 20
10.4577834059
 30
0.0
  0
SPLINE
  5
380
100
AcDbEntity
  8
0
100
AcDbSpline
 62
7
  6
CONTINUOUS
 70
0
 71
3
 72
18
 73
14
 74
0
 42
0.0000001
 43
0.0000001
 44
0.0000000001
 40
0.0
 40
0.0
 40
0.0
 40
0.0
 40
0.1504673397
 40
0.291710036
 40
0.4244360001
 40
0.5495624032
 40
0.6682140019
 40
0.7255497517
 40
0.7817912955
 40
0.8371402647
 40
0.891809381
 40
0.9460201143
 40
1.0
 40
1.0
 40
1.0
 40
1.0
 10
12.4488888253
 20
9.40346272
 30
0.0
 10
12.4505709407
 20
9.4050875187
 30
0.0
 10
12.4539327909
 20
9.4081360633
 30
0.0
 10
12.459138584
 20
9.4121987753
 30
0.0
 10
12.4643382669
 20
9.4155966227
 30
0.0
 10
12.4695264515
 20
9.4183240206
 30
0.0
 10
12.4738870577
 20
9.4200535101
 30
0.0
 10
12.4773491919
 20
9.4210810606
 30
0.0
 10
12.4799089126
 20
9.421673328
 30
0.0
 10
12.4824601399
 20
9.42209546
 30
0.0
 10
12.4850021623
 20
9.422347286
 30
0.0
 10
12.4875339654
 20
9.4224286922
 30
0.0
 10
12.4892160232
 20
9.422369208
 30
0.0
 10
12.4900530149
 20
9.4223111662
 30
0.0
  0
SPLINE
  5
381
100
AcDbEntity
  8
0
100
AcDbSpline
 62
7
  6
CONTINUOUS
 70
0
 71
3
 72
23
 73
19
 74
0
 42
0.0000001
 43
0.0000001
 44
0.0000000001
 40
0.0
 40
0.0
 40
0.0
 40
0.0
 40
0.0637775561
 40
0.1273446565
 40
0.1907020307
 40
0.2538561431
 40
0.3168131834
 40
0.3795821015
 40
0.4421733894
 40
0.5045993415
 40
0.5668738676
 40
0.6290123791
 40
0.6910316472
 40
0.7529496401
 40
0.8147853492
 40
0.8765585998
 40
0.9382898533
 40
1.0
 40
1.0
 40
1.0
 40
1.0
 10
11.1661885572
 20
7.5331330907
 30
0.0
 10
11.1661885572
 20
7.526344369
 30
0.0
 10
11.16586364
 20
7.5127870259
 30
0.0
 10
11.1643970209
 20
7.4925334452
 30
0.0
 10
11.1619551632
 20
7.4724404669
 30
0.0
 10
11.1585437957
 20
7.4525551342
 30
0.0
 10
11.1541706297
 20
7.4329230132
 30
0.0
 10
11.1488457529
 20
7.4135894494
 30
0.0
 10
11.1425813695
 20
7.3945989951
 30
0.0
 10
11.1353918835
 20
7.3759954506
 30
0.0
 10
11.1272938367
 20
7.3578217185
 30
0.0
 10
11.1183058699
 20
7.3401197161
 30
0.0
 10
11.108448683
 20
7.3229302798
 30
0.0
 10
11.0977449724
 20
7.3062930563
 30
0.0
 10
11.0862194376
 20
7.2902464645
 30
0.0
 10
11.0738985084
 20
7.2748274036
 30
0.0
 10
11.060811089
 20
7.2600719208
 30
0.0
 10
11.0515935068
 20
7.2506983083
 30
0.0
 10
11.0468689629
 20
7.2461347608
 30
0.0
  0
SPLINE
  5
382
100
AcDbEntity
  8
0
100
AcDbSpline
 62
7
  6
CONTINUOUS
 70
0
 71
3
 72
21
 73
17
 74
0
 42
0.0000001
 43
0.0000001
 44
0.0000000001
 40
0.0
 40
0.0
 40
0.0
 40
0.0
 40
0.1273176984
 40
0.2537999461
 40
0.3167619614
 40
0.3795355204
 40
0.4421314992
 40
0.5045621453
 40
0.5668413456
 40
0.6289845231
 40
0.6910084433
 40
0.7529310869
 40
0.8147714401
 40
0.8765493236
 40
0.9382852134
 40
1.0
 40
1.0
 40
1.0
 40
1.0
 10
11.9939870394
 20
9.7398553245
 30
0.0
 10
11.9939870394
 20
9.7345580322
 30
0.0
 10
11.9934813775
 20
9.7239913894
 30
0.0
 10
11.9915716346
 20
9.7109287378
 30
0.0
 10
11.9892890869
 20
9.7006822316
 30
0.0
 10
11.9872075226
 20
9.6931244036
 30
0.0
 10
11.9847586866
 20
9.6857008744
 30
0.0
 10
11.9819482248
 20
9.6784285459
 30
0.0
 10
11.9787826169
 20
9.6713242379
 30
0.0
 10
11.9752690984
 20
9.6644043468
 30
0.0
 10
11.9714157972
 20
9.657684824
 30
0.0
 10
11.9672315998
 20
9.6511811553
 30
0.0
 10
11.9627261153
 20
9.6449083903
 30
0.0
 10
11.9579097059
 20
9.638880935
 30
0.0
 10
11.9527936928
 20
9.6331128574
 30
0.0
 10
11.9491904163
 20
9.6294486349
 30
0.0
 10
11.9473435379
 20
9.6276646983
 30
0.0
  0
SPLINE
  5
383
100
AcDbEntity
  8
0
100
AcDbSpline
 62
7
  6
CONTINUOUS
 70
0
 71
3
 72
21
 73
17
 74
0
 42
0.0000001
 43
0.0000001
 44
0.0000000001
 40
0.0
 40
0.0
 40
0.0
 40
0.0
 40
0.1273176984
 40
0.2537999461
 40
0.3167619614
 40
0.3795355204
 40
0.4421314992
 40
0.5045621453
 40
0.5668413456
 40
0.6289845231
 40
0.6910084433
 40
0.7529310869
 40
0.8147714401
 40
0.8765493236
 40
0.9382852134
 40
1.0
 40
1.0
 40
1.0
 40
1.0
 10
10.4243574787
 20
7.0108192646
 30
0.0
 10
10.4243574787
 20
7.0055219724
 30
0.0
 10
10.4238518167
 20
6.9949553296
 30
0.0
 10
10.4219420739
 20
6.981892678
 30
0.0
 10
10.4196595262
 20
6.9716461718
 30
0.0
 10
10.4175779618
 20
6.9640883438
 30
0.0
 10
10.4151291258
 20
6.9566648145
 30
0.0
 10
10.4123186641
 20
6.9493924861
 30
0.0
 10
10.4091530562
 20
6.9422881781
 30
0.0
 10
10.4056395377
 20
6.935368287
 30
0.0
 10
10.4017862365
 20
6.9286487642
 30
0.0
 10
10.3976020391
 20
6.9221450955
 30
0.0
 10
10.3930965546
 20
6.9158723305
 30
0.0
 10
10.3882801452
 20
6.9098448752
 30
0.0
 10
10.3831641321
 20
6.9040767976
 30
0.0
 10
10.3795608555
 20
6.9004125751
 30
0.0
 10
10.3777139771
 20
6.8986286384
 30
0.0
  0
SPLINE
  5
384
100
AcDbEntity
  8
0
100
AcDbSpline
 62
7
  6
CONTINUOUS
 70
0
 71
3
 72
39
 73
35
 74
0
 42
0.0000001
 43
0.0000001
 44
0.0000000001
 40
0.0
 40
0.0
 40
0.0
 40
0.0
 40
0.0314533787
 40
0.0627198421
 40
0.0938024302
 40
0.1247117849
 40
0.1554639237
 40
0.186080631
 40
0.2165881316
 40
0.2470161981
 40
0.2773970193
 40
0.3077642206
 40
0.3381520428
 40
0.3685946182
 40
0.3991251732
 40
0.4297753936
 40
0.4605749875
 40
0.4915510816
 40
0.5227271671
 40
0.5541220896
 40
0.5857487606
 40
0.6176121796
 40
0.6497070811
 40
0.6820151282
 40
0.7145016854
 40
0.7471126406
 40
0.7797720548
 40
0.812381587
 40
0.8448229848
 40
0.8769641275
 40
0.9086689106
 40
0.9398096103
 40
0.9702789983
 40
1.0
 40
1.0
 40
1.0
 40
1.0
 10
10.7461608052
 20
7.7549174132
 30
0.0
 10
10.7461608052
 20
7.7515018527
 30
0.0
 10
10.7463881802
 20
7.7446887518
 30
0.0
 10
10.7474151947
 20
7.7345470716
 30
0.0
 10
10.7491175714
 20
7.72455615
 30
0.0
 10
10.7514796414
 20
7.7147579978
 30
0.0
 10
10.7544807519
 20
7.7051894846
 30
0.0
 10
10.758096133
 20
7.6958828263
 30
0.0
 10
10.762298172
 20
7.6868650373
 30
0.0
 10
10.767057476
 20
7.6781580803
 30
0.0
 10
10.7723439266
 20
7.6697791555
 30
0.0
 10
10.778127531
 20
7.6617411811
 30
0.0
 10
10.7843790978
 20
7.6540533596
 30
0.0
 10
10.7910707515
 20
7.6467218388
 30
0.0
 10
10.7981762258
 20
7.6397503743
 30
0.0
 10
10.8056709822
 20
7.6331409423
 30
0.0
 10
10.8135321951
 20
7.6268942985
 30
0.0
 10
10.8217386228
 20
7.6210105696
 30
0.0
 10
10.8302702666
 20
7.6154897433
 30
0.0
 10
10.8391078942
 20
7.6103321132
 30
0.0
 10
10.8482324421
 20
7.6055387283
 30
0.0
 10
10.8576242196
 20
7.6011117986
 30
0.0
 10
10.8672618848
 20
7.5970549875
 30
0.0
 10
10.8771212847
 20
7.5933736821
 30
0.0
 10
10.887174161
 20
7.5900751242
 30
0.0
 10
10.897386863
 20
7.5871683456
 30
0.0
 10
10.9077193144
 20
7.5846638408
 30
0.0
 10
10.918124577
 20
7.5825729432
 30
0.0
 10
10.9285493261
 20
7.5809069206
 30
0.0
 10
10.9389355111
 20
7.5796758801
 30
0.0
 10
10.9492231135
 20
7.5788876803
 30
0.0
 10
10.9593538397
 20
7.5785471239
 30
0.0
 10
10.9692742263
 20
7.5786555373
 30
0.0
 10
10.9758025325
 20
7.5790308072
 30
0.0
 10
10.9790191083
 20
7.5792953942
 30
0.0
  0
SPLINE
  5
385
100
AcDbEntity
  8
0
100
AcDbSpline
 62
7
  6
CONTINUOUS
 70
0
 71
3
 72
21
 73
17
 74
0
 42
0.0000001
 43
0.0000001
 44
0.0000000001
 40
0.0
 40
0.0
 40
0.0
 40
0.0
 40
0.1273175206
 40
0.2538000425
 40
0.3167619346
 40
0.3795354981
 40
0.4421315046
 40
0.5045621465
 40
0.5668413435
 40
0.6289845248
 40
0.6910084554
 40
0.7529310971
 40
0.8147714458
 40
0.876549335
 40
0.938285224
 40
1.0
 40
1.0
 40
1.0
 40
1.0
 10
10.9800794176
 20
7.5583654555
 30
0.0
 10
10.9800794176
 20
7.5511279395
 30
0.0
 10
10.9793885426
 20
7.536691059
 30
0.0
 10
10.9767793713
 20
7.5188439571
 30
0.0
 10
10.9736608001
 20
7.5048444628
 30
0.0
 10
10.9708168253
 20
7.4945184423
 30
0.0
 10
10.9674711168
 20
7.4843758832
 30
0.0
 10
10.9636312898
 20
7.4744399162
 30
0.0
 10
10.959306219
 20
7.4647335208
 30
0.0
 10
10.9545058693
 20
7.4552790569
 30
0.0
 10
10.9492412706
 20
7.446098352
 30
0.0
 10
10.9435245352
 20
7.4372125885
 30
0.0
 10
10.9373688872
 20
7.4286422655
 30
0.0
 10
10.9307884411
 20
7.4204070869
 30
0.0
 10
10.9237986013
 20
7.4125263333
 30
0.0
 10
10.9188756054
 20
7.4075199724
 30
0.0
 10
10.9163522802
 20
7.405082628
 30
0.0
  0
SPLINE
  5
386
100
AcDbEntity
  8
0
100
AcDbSpline
 62
7
  6
CONTINUOUS
 70
0
 71
3
 72
39
 73
35
 74
0
 42
0.0000001
 43
0.0000001
 44
0.0000000001
 40
0.0
 40
0.0
 40
0.0
 40
0.0
 40
0.0310753278
 40
0.0623079062
 40
0.093693137
 40
0.1252222865
 40
0.1568840454
 40
0.1886642043
 40
0.2205461643
 40
0.2525112486
 40
0.2845391082
 40
0.3166081368
 40
0.3486959081
 40
0.3807796237
 40
0.412836566
 40
0.4448445497
 40
0.4767823661
 40
0.5086302138
 40
0.5403701085
 40
0.5719862661
 40
0.6034654517
 40
0.6347972864
 40
0.6659745051
 40
0.6969931566
 40
0.7278527388
 40
0.758556263
 40
0.78911024
 40
0.8195245851
 40
0.8498124377
 40
0.8799898969
 40
0.9100756761
 40
0.9400906823
 40
0.9700575294
 40
1.0
 40
1.0
 40
1.0
 40
1.0
 10
10.9800794176
 20
7.5583654555
 30
0.0
 10
10.9800794176
 20
7.563990824
 30
0.0
 10
10.9796597786
 20
7.5752743559
 30
0.0
 10
10.9777861766
 20
7.5921456409
 30
0.0
 10
10.9746774099
 20
7.6089178594
 30
0.0
 10
10.970350652
 20
7.6254977175
 30
0.0
 10
10.9648298745
 20
7.6417944855
 30
0.0
 10
10.9581455043
 20
7.6577186353
 30
0.0
 10
10.9503343619
 20
7.6731828001
 30
0.0
 10
10.9414394139
 20
7.6881021179
 30
0.0
 10
10.9315095536
 20
7.7023947278
 30
0.0
 10
10.9205993292
 20
7.7159822024
 30
0.0
 10
10.908768652
 20
7.7287899804
 30
0.0
 10
10.8960824663
 20
7.7407477679
 30
0.0
 10
10.8826103952
 20
7.7517899199
 30
0.0
 10
10.8684263633
 20
7.7618557969
 30
0.0
 10
10.8536081955
 20
7.770890095
 30
0.0
 10
10.8382371956
 20
7.7788431469
 30
0.0
 10
10.8223977055
 20
7.7856711936
 30
0.0
 10
10.8061766492
 20
7.791336624
 30
0.0
 10
10.7896630621
 20
7.795808182
 30
0.0
 10
10.7729476111
 20
7.7990611457
 30
0.0
 10
10.7561221015
 20
7.8010774643
 30
0.0
 10
10.7392789791
 20
7.8018458611
 30
0.0
 10
10.7225108293
 20
7.8013619033
 30
0.0
 10
10.7059098722
 20
7.7996280358
 30
0.0
 10
10.6895674595
 20
7.7966535798
 30
0.0
 10
10.6735735696
 20
7.7924546911
 30
0.0
 10
10.6580163179
 20
7.7870542922
 30
0.0
 10
10.6429814359
 20
7.7804819284
 30
0.0
 10
10.6285518996
 20
7.7727737291
 30
0.0
 10
10.6148070406
 20
7.7639718087
 30
0.0
 10
10.6018236578
 20
7.7541255452
 30
0.0
 10
10.5937199618
 20
7.746897992
 30
0.0
 10
10.5898213896
 20
7.7431322612
 30
0.0
  0
LINE
  5
387
100
AcDbEntity
  8
0
100
AcDbLine
 62
7
  6
CONTINUOUS
 10
11.1784971365
 20
10.3056209125
 11
11.1739235364
 21
10.3016320874
  0
LINE
  5
388
100
AcDbEntity
  8
0
100
AcDbLine
 62
7
  6
CONTINUOUS
 10
10.2832353196
 20
10.3016245068
 11
10.2786518404
 21
10.3056215108
  0
SPLINE
  5
389
100
AcDbEntity
  8
0
100
AcDbSpline
 62
7
  6
CONTINUOUS
 70
0
 71
3
 72
18
 73
14
 74
0
 42
0.0000001
 43
0.0000001
 44
0.0000000001
 40
0.0
 40
0.0
 40
0.0
 40
0.0
 40
0.0548620116
 40
0.1099280288
 40
0.1653995063
 40
0.2214731041
 40
0.278338737
 40
0.3361775376
 40
0.455406238
 40
0.580442112
 40
0.7123345554
 40
0.8519568421
 40
1.0
 40
1.0
 40
1.0
 40
1.0
 10
11.4785748005
 20
10.4577828389
 30
0.0
 10
11.4785747975
 20
10.4567236357
 30
0.0
 10
11.4785075724
 20
10.4546006819
 30
0.0
 10
11.4782052568
 20
10.4514197063
 30
0.0
 10
11.4777015838
 20
10.4482405683
 30
0.0
 10
11.4769967794
 20
10.4450644137
 30
0.0
 10
11.4760910265
 20
10.4418920639
 30
0.0
 10
11.474601269
 20
10.4376261111
 30
0.0
 10
11.472214764
 20
10.4322905173
 30
0.0
 10
11.4685823003
 20
10.4259891904
 30
0.0
 10
11.4641582038
 20
10.4197286533
 30
0.0
 10
11.4589491763
 20
10.4135151655
 30
0.0
 10
11.4550750108
 20
10.4095284715
 30
0.0
 10
11.4530192219
 20
10.4075427318
 30
0.0
  0
SPLINE
  5
38A
100
AcDbEntity
  8
0
100
AcDbSpline
 62
7
  6
CONTINUOUS
 70
0
 71
3
 72
46
 73
42
 74
0
 42
0.0000001
 43
0.0000001
 44
0.0000000001
 40
0.0
 40
0.0
 40
0.0
 40
0.0
 40
0.0149720525
 40
0.0299471649
 40
0.0449283772
 40
0.0599186917
 40
0.0749210573
 40
0.0899383484
 40
0.1049733476
 40
0.1200287333
 40
0.1351070597
 40
0.1502107421
 40
0.1653420474
 40
0.1805030776
 40
0.1956957572
 40
0.2109218287
 40
0.2414745667
 40
0.2721768461
 40
0.3030351766
 40
0.3340525707
 40
0.3652285255
 40
0.3965590884
 40
0.4280369959
 40
0.4596518697
 40
0.4913904744
 40
0.523237028
 40
0.5551735471
 40
0.5871802301
 40
0.6192358692
 40
0.6513182802
 40
0.6834047461
 40
0.7154724694
 40
0.7474990252
 40
0.7794628091
 40
0.811343472
 40
0.843122339
 40
0.8747828041
 40
0.9063106918
 40
0.9376946023
 40
0.9689259241
 40
1.0
 40
1.0
 40
1.0
 40
1.0
 10
10.4354933741
 20
7.8790801456
 30
0.0
 10
10.4391434493
 20
7.8826058387
 30
0.0
 10
10.4465853942
 20
7.8895135855
 30
0.0
 10
10.4581524435
 20
7.8994245715
 30
0.0
 10
10.4701089944
 20
7.9088723875
 30
0.0
 10
10.4824383218
 20
7.9178438626
 30
0.0
 10
10.4951235203
 20
7.926326714
 30
0.0
 10
10.5081471435
 20
7.9343092105
 30
0.0
 10
10.52149124
 20
7.9417804248
 30
0.0
 10
10.5351374471
 20
7.9487300795
 30
0.0
 10
10.5490670079
 20
7.9551485726
 30
0.0
 10
10.5632607209
 20
7.9610271334
 30
0.0
 10
10.5776990804
 20
7.9663576775
 30
0.0
 10
10.5923621565
 20
7.9711328257
 30
0.0
 10
10.6072300401
 20
7.9753461136
 30
0.0
 10
10.6273197271
 20
7.9802119636
 30
0.0
 10
10.6528511616
 20
7.9848590492
 30
0.0
 10
10.6839330462
 20
7.9881051764
 30
0.0
 10
10.7153289038
 20
7.9890113264
 30
0.0
 10
10.7468648792
 20
7.9875725477
 30
0.0
 10
10.7783679396
 20
7.9837972555
 30
0.0
 10
10.809664915
 20
7.9777065689
 30
0.0
 10
10.8405839313
 20
7.9693342495
 30
0.0
 10
10.870955226
 20
7.9587266009
 30
0.0
 10
10.9006121091
 20
7.9459421709
 30
0.0
 10
10.9293918129
 20
7.9310513376
 30
0.0
 10
10.9571364179
 20
7.914136035
 30
0.0
 10
10.9836937175
 20
7.8952892893
 30
0.0
 10
11.0089179778
 20
7.8746146182
 30
0.0
 10
11.032670779
 20
7.8522255558
 30
0.0
 10
11.0548217959
 20
7.8282450455
 30
0.0
 10
11.0752494157
 20
7.802804682
 30
0.0
 10
11.0938414497
 20
7.7760440603
 30
0.0
 10
11.1104958011
 20
7.7481100461
 30
0.0
 10
11.1251209077
 20
7.7191558951
 30
0.0
 10
11.1376362843
 20
7.6893404858
 30
0.0
 10
11.1479730514
 20
7.6588274145
 30
0.0
 10
11.1560741924
 20
7.6277843128
 30
0.0
 10
11.1618948431
 20
7.5963810421
 30
0.0
 10
11.1654028425
 20
7.5647922893
 30
0.0
 10
11.1661885572
 20
7.5436656891
 30
0.0
 10
11.1661885572
 20
7.5331330907
 30
0.0
  0
SPLINE
  5
38B
100
AcDbEntity
  8
0
100
AcDbSpline
 62
7
  6
CONTINUOUS
 70
0
 71
3
 72
11
 73
7
 74
0
 42
0.0000001
 43
0.0000001
 44
0.0000000001
 40
0.0
 40
0.0
 40
0.0
 40
0.0
 40
0.2520071408
 40
0.5027861234
 40
0.7521617076
 40
1.0
 40
1.0
 40
1.0
 40
1.0
 10
10.7529925479
 20
7.8009885853
 30
0.0
 10
10.7518741397
 20
7.7972260753
 30
0.0
 10
10.7498991519
 20
7.7896402304
 30
0.0
 10
10.7477527724
 20
7.7781131357
 30
0.0
 10
10.7464530576
 20
7.7665251917
 30
0.0
 10
10.7461608052
 20
7.7587776958
 30
0.0
 10
10.7461608052
 20
7.7549174132
 30
0.0
  0
SPLINE
  5
38C
100
AcDbEntity
  8
0
100
AcDbSpline
 62
7
  6
CONTINUOUS
 70
0
 71
3
 72
42
 73
38
 74
0
 42
0.0000001
 43
0.0000001
 44
0.0000000001
 40
0.0
 40
0.0
 40
0.0
 40
0.0
 40
0.0299419634
 40
0.0449235299
 40
0.0599142017
 40
0.0899287029
 40
0.1200139772
 40
0.1350926626
 40
0.1501967046
 40
0.1804840506
 40
0.2108978877
 40
0.2414513551
 40
0.2721543675
 40
0.3030134354
 40
0.3340315696
 40
0.3652082675
 40
0.3965395775
 40
0.4280182343
 40
0.4596338596
 40
0.4913732188
 40
0.5232205284
 40
0.5551578047
 40
0.5871652463
 40
0.6192216448
 40
0.6513048151
 40
0.6833920402
 40
0.7154605222
 40
0.747487836
 40
0.7794523759
 40
0.8113337934
 40
0.8431134117
 40
0.8747746318
 40
0.9063032512
 40
0.9376879208
 40
0.9533258
 40
0.9689252634
 40
1.0
 40
1.0
 40
1.0
 40
1.0
 10
11.7083520371
 20
9.8750895432
 30
0.0
 10
11.7112054614
 20
9.8778457227
 30
0.0
 10
11.7156537957
 20
9.8818129797
 30
0.0
 10
11.7218835876
 20
9.8867354818
 30
0.0
 10
11.7283117671
 20
9.8914130326
 30
0.0
 10
11.7366994844
 20
9.8967843764
 30
0.0
 10
11.7454950176
 20
9.9014827477
 30
0.0
 10
11.752749053
 20
9.9048251737
 30
0.0
 10
11.7601529355
 20
9.9078916773
 30
0.0
 10
11.769651781
 20
9.9111890353
 30
0.0
 10
11.7813576683
 20
9.9142620903
 30
0.0
 10
11.7933189799
 20
9.9164391131
 30
0.0
 10
11.8054694279
 20
9.9177080936
 30
0.0
 10
11.8177422673
 20
9.9180622594
 30
0.0
 10
11.8300699695
 20
9.9174998082
 30
0.0
 10
11.8423847786
 20
9.9160239889
 30
0.0
 10
11.8546190302
 20
9.9136430556
 30
0.0
 10
11.8667055324
 20
9.9103702222
 30
0.0
 10
11.8785779258
 20
9.906223584
 30
0.0
 10
11.8901710445
 20
9.9012260157
 30
0.0
 10
11.9014212676
 20
9.8954050443
 30
0.0
 10
11.912266864
 20
9.8887926968
 30
0.0
 10
11.9226483265
 20
9.8814253251
 30
0.0
 10
11.9325086943
 20
9.873343407
 30
0.0
 10
11.9417938614
 20
9.8645913259
 30
0.0
 10
11.9504528708
 20
9.8552171288
 30
0.0
 10
11.9584381905
 20
9.8452722656
 30
0.0
 10
11.9657059725
 20
9.8348113085
 30
0.0
 10
11.972216291
 20
9.8238916596
 30
0.0
 10
11.9779333599
 20
9.8125732263
 30
0.0
 10
11.9828257274
 20
9.8009181441
 30
0.0
 10
11.9868664576
 20
9.7889902666
 30
0.0
 10
11.9900332281
 20
9.7768554597
 30
0.0
 10
11.9919317773
 20
9.7666123671
 30
0.0
 10
11.9929968072
 20
9.7583821664
 30
0.0
 10
11.9937568928
 20
9.7501598413
 30
0.0
 10
11.9939870394
 20
9.7439725971
 30
0.0
 10
11.9939870394
 20
9.7398553245
 30
0.0
  0
SPLINE
  5
38D
100
AcDbEntity
  8
0
100
AcDbSpline
 62
7
  6
CONTINUOUS
 70
0
 71
3
 72
42
 73
38
 74
0
 42
0.0000001
 43
0.0000001
 44
0.0000000001
 40
0.0
 40
0.0
 40
0.0
 40
0.0
 40
0.0299419634
 40
0.0449235299
 40
0.0599142017
 40
0.0899287029
 40
0.1200139772
 40
0.1350926626
 40
0.1501967046
 40
0.1804840506
 40
0.2108978877
 40
0.2414513551
 40
0.2721543675
 40
0.3030134354
 40
0.3340315696
 40
0.3652082675
 40
0.3965395775
 40
0.4280182343
 40
0.4596338596
 40
0.4913732188
 40
0.5232205284
 40
0.5551578047
 40
0.5871652463
 40
0.6192216448
 40
0.6513048151
 40
0.6833920402
 40
0.7154605222
 40
0.747487836
 40
0.7794523759
 40
0.8113337934
 40
0.8431134117
 40
0.8747746318
 40
0.9063032512
 40
0.9376879208
 40
0.9533258
 40
0.9689252634
 40
1.0
 40
1.0
 40
1.0
 40
1.0
 10
10.1387224763
 20
7.1460534834
 30
0.0
 10
10.1415759007
 20
7.1488096629
 30
0.0
 10
10.146024235
 20
7.1527769199
 30
0.0
 10
10.1522540269
 20
7.157699422
 30
0.0
 10
10.1586822064
 20
7.1623769728
 30
0.0
 10
10.1670699237
 20
7.1677483166
 30
0.0
 10
10.1758654568
 20
7.1724466879
 30
0.0
 10
10.1831194923
 20
7.1757891138
 30
0.0
 10
10.1905233748
 20
7.1788556175
 30
0.0
 10
10.2000222203
 20
7.1821529755
 30
0.0
 10
10.2117281076
 20
7.1852260304
 30
0.0
 10
10.2236894192
 20
7.1874030533
 30
0.0
 10
10.2358398671
 20
7.1886720338
 30
0.0
 10
10.2481127066
 20
7.1890261996
 30
0.0
 10
10.2604404088
 20
7.1884637483
 30
0.0
 10
10.2727552179
 20
7.1869879291
 30
0.0
 10
10.2849894695
 20
7.1846069958
 30
0.0
 10
10.2970759717
 20
7.1813341624
 30
0.0
 10
10.3089483651
 20
7.1771875242
 30
0.0
 10
10.3205414838
 20
7.1721899559
 30
0.0
 10
10.3317917069
 20
7.1663689845
 30
0.0
 10
10.3426373033
 20
7.159756637
 30
0.0
 10
10.3530187658
 20
7.1523892653
 30
0.0
 10
10.3628791336
 20
7.1443073472
 30
0.0
 10
10.3721643007
 20
7.1355552661
 30
0.0
 10
10.38082331
 20
7.126181069
 30
0.0
 10
10.3888086298
 20
7.1162362058
 30
0.0
 10
10.3960764118
 20
7.1057752487
 30
0.0
 10
10.4025867303
 20
7.0948555998
 30
0.0
 10
10.4083037992
 20
7.0835371665
 30
0.0
 10
10.4131961667
 20
7.0718820843
 30
0.0
 10
10.4172368968
 20
7.0599542068
 30
0.0
 10
10.4204036673
 20
7.0478193999
 30
0.0
 10
10.4223022166
 20
7.0375763073
 30
0.0
 10
10.4233672464
 20
7.0293461066
 30
0.0
 10
10.4241273321
 20
7.0211237815
 30
0.0
 10
10.4243574787
 20
7.0149365372
 30
0.0
 10
10.4243574787
 20
7.0108192646
 30
0.0
  0
SPLINE
  5
38E
100
AcDbEntity
  8
0
100
AcDbSpline
 62
7
  6
CONTINUOUS
 70
0
 71
3
 72
91
 73
87
 74
0
 42
0.0000001
 43
0.0000001
 44
0.0000000001
 40
0.0
 40
0.0
 40
0.0
 40
0.0
 40
0.0027164149
 40
0.0054532017
 40
0.0082302519
 40
0.0110665199
 40
0.0139797039
 40
0.0169859829
 40
0.0200999141
 40
0.0233344008
 40
0.0267007145
 40
0.0302086362
 40
0.0338665065
 40
0.0376814358
 40
0.0416593677
 40
0.0458052497
 40
0.0501231396
 40
0.0546162795
 40
0.059287253
 40
0.0641379749
 40
0.0691698569
 40
0.0743837851
 40
0.0797802236
 40
0.0853592475
 40
0.091120549
 40
0.0970635401
 40
0.1031872872
 40
0.1094906342
 40
0.122629771
 40
0.1364673248
 40
0.150986028
 40
0.1661658166
 40
0.1819841497
 40
0.1984162706
 40
0.2154354241
 40
0.2330130434
 40
0.251118914
 40
0.2697213196
 40
0.2887871741
 40
0.3082821495
 40
0.3281707942
 40
0.3484166458
 40
0.3689823383
 40
0.3898297074
 40
0.4109198931
 40
0.4322134396
 40
0.4536703979
 40
0.4752504252
 40
0.496912883
 40
0.5186169358
 40
0.5403216477
 40
0.5619860811
 40
0.5835693946
 40
0.6050309417
 40
0.6263303693
 40
0.647427715
 40
0.6682835069
 40
0.6888588628
 40
0.7091155924
 40
0.7290163019
 40
0.7485244988
 40
0.7676046989
 40
0.7862225381
 40
0.8043448897
 40
0.8219399883
 40
0.8389775652
 40
0.8554289983
 40
0.8712674731
 40
0.8864681675
 40
0.9010084679
 40
0.9148682273
 40
0.928030078
 40
0.9343449249
 40
0.9404802778
 40
0.9464349222
 40
0.9522079436
 40
0.9577987067
 40
0.9632068911
 40
0.9684325654
 40
0.9734761401
 40
0.9783384911
 40
0.9830209352
 40
0.9875254368
 40
0.9918546053
 40
0.9960115672
 40
1.0
 40
1.0
 40
1.0
 40
1.0
 10
12.4077246356
 20
8.2351624723
 30
0.0
 10
12.4066141407
 20
8.2352394804
 30
0.0
 10
12.4043905093
 20
8.2354945845
 30
0.0
 10
12.4010833599
 20
8.2361772102
 30
0.0
 10
12.3978012222
 20
8.2371597912
 30
0.0
 10
12.3945463948
 20
8.2384412576
 30
0.0
 10
12.3913206033
 20
8.2400205772
 30
0.0
 10
12.3881254673
 20
8.2418964398
 30
0.0
 10
12.3849624715
 20
8.2440675399
 30
0.0
 10
12.3818330377
 20
8.2465325132
 30
0.0
 10
12.3787384747
 20
8.249289877
 30
0.0
 10
12.3756801798
 20
8.2523381848
 30
0.0
 10
12.372659419
 20
8.2556757855
 30
0.0
 10
12.369677593
 20
8.2593010353
 30
0.0
 10
12.3667360129
 20
8.2632120964
 30
0.0
 10
12.363836048
 20
8.2674070468
 30
0.0
 10
12.3609790784
 20
8.2718838279
 30
0.0
 10
12.3581664224
 20
8.2766402172
 30
0.0
 10
12.3553994963
 20
8.2816738975
 30
0.0
 10
12.3526795848
 20
8.2869823581
 30
0.0
 10
12.3500080772
 20
8.2925629936
 30
0.0
 10
12.3473862585
 20
8.2984130243
 30
0.0
 10
12.3448154401
 20
8.3045295486
 30
0.0
 10
12.3422969191
 20
8.3109095248
 30
0.0
 10
12.3398319156
 20
8.317549766
 30
0.0
 10
12.3374217212
 20
8.3244469651
 30
0.0
 10
12.3350674687
 20
8.3315976754
 30
0.0
 10
12.3319617176
 20
8.3416040091
 30
0.0
 10
12.3282389071
 20
8.3547263735
 30
0.0
 10
12.3240724418
 20
8.3712145769
 30
0.0
 10
12.3201557791
 20
8.388621943
 30
0.0
 10
12.3164968652
 20
8.406913574
 30
0.0
 10
12.3131031444
 20
8.4260529367
 30
0.0
 10
12.309981522
 20
8.4460016879
 30
0.0
 10
12.3071383521
 20
8.4667198383
 30
0.0
 10
12.3045794225
 20
8.4881658192
 30
0.0
 10
12.3023099432
 20
8.510296578
 30
0.0
 10
12.300334536
 20
8.5330676658
 30
0.0
 10
12.298657222
 20
8.5564333305
 30
0.0
 10
12.2972814169
 20
8.5803466128
 30
0.0
 10
12.2962099254
 20
8.6047594441
 30
0.0
 10
12.2954449353
 20
8.629622745
 30
0.0
 10
12.2949880139
 20
8.654886525
 30
0.0
 10
12.2948401052
 20
8.6804999838
 30
0.0
 10
12.2950015285
 20
8.7064116134
 30
0.0
 10
12.2954719744
 20
8.7325693024
 30
0.0
 10
12.296250509
 20
8.7589204425
 30
0.0
 10
12.2973355759
 20
8.7854120352
 30
0.0
 10
12.2987249998
 20
8.8119907991
 30
0.0
 10
12.3004159909
 20
8.8386032764
 30
0.0
 10
12.3024051503
 20
8.8651959411
 30
0.0
 10
12.3046884774
 20
8.8917153068
 30
0.0
 10
12.3072613743
 20
8.9181080353
 30
0.0
 10
12.3101186583
 20
8.9443210446
 30
0.0
 10
12.3132545724
 20
8.9703016162
 30
0.0
 10
12.3166627968
 20
8.9959975008
 30
0.0
 10
12.3203364613
 20
9.0213570235
 30
0.0
 10
12.3242681592
 20
9.0463291885
 30
0.0
 10
12.3284499618
 20
9.0708637832
 30
0.0
 10
12.3328734314
 20
9.0949114813
 30
0.0
 10
12.3375296408
 20
9.1184239427
 30
0.0
 10
12.3424091912
 20
9.1413539115
 30
0.0
 10
12.3475022308
 20
9.1636553119
 30
0.0
 10
12.3527984744
 20
9.1852833428
 30
0.0
 10
12.3582872239
 20
9.2061945704
 30
0.0
 10
12.3639573909
 20
9.2263470215
 30
0.0
 10
12.3697975151
 20
9.2457002724
 30
0.0
 10
12.3757957929
 20
9.2642155417
 30
0.0
 10
12.3819401023
 20
9.2818557523
 30
0.0
 10
12.3882180336
 20
9.2985856921
 30
0.0
 10
12.3946169124
 20
9.3143718304
 30
0.0
 10
12.4001125134
 20
9.3268812297
 30
0.0
 10
12.4045676451
 20
9.3363848056
 30
0.0
 10
12.4078850262
 20
9.3431586361
 30
0.0
 10
12.4112229674
 20
9.3496738619
 30
0.0
 10
12.4145797991
 20
9.3559272386
 30
0.0
 10
12.4179538327
 20
9.3619156455
 30
0.0
 10
12.4213434099
 20
9.3676360894
 30
0.0
 10
12.4247468024
 20
9.3730857437
 30
0.0
 10
12.4281623733
 20
9.3782618707
 30
0.0
 10
12.4315883628
 20
9.3831619201
 30
0.0
 10
12.435023129
 20
9.3877834544
 30
0.0
 10
12.4384650033
 20
9.392124226
 30
0.0
 10
12.4419123758
 20
9.39618213
 30
0.0
 10
12.4453634222
 20
9.3999549642
 30
0.0
 10
12.447713259
 20
9.4023272101
 30
0.0
 10
12.4488888253
 20
9.40346272
 30
0.0
  0
SPLINE
  5
38F
100
AcDbEntity
  8
0
100
AcDbSpline
 62
7
  6
CONTINUOUS
 70
0
 71
3
 72
61
 73
57
 74
0
 42
0.0000001
 43
0.0000001
 44
0.0000000001
 40
0.0
 40
0.0
 40
0.0
 40
0.0
 40
0.007520736
 40
0.0156240064
 40
0.0243308314
 40
0.0336545627
 40
0.0436023576
 40
0.0541762911
 40
0.065374298
 40
0.0771908404
 40
0.0896173637
 40
0.1026427459
 40
0.1162536401
 40
0.1304346776
 40
0.1451686827
 40
0.1604368921
 40
0.1762190747
 40
0.1924936262
 40
0.2092377338
 40
0.2264274719
 40
0.2440378492
 40
0.2620429285
 40
0.2804159201
 40
0.2991292233
 40
0.337462144
 40
0.3768083795
 40
0.4169255651
 40
0.4575651352
 40
0.4984743559
 40
0.5393983541
 40
0.5800821394
 40
0.6202726307
 40
0.6597206676
 40
0.6981830696
 40
0.7169711587
 40
0.73542544
 40
0.7535181279
 40
0.7712222409
 40
0.788511644
 40
0.8053611137
 40
0.821746466
 40
0.8376446296
 40
0.8530337122
 40
0.8678931419
 40
0.8822038118
 40
0.8959481707
 40
0.9091104
 40
0.921676668
 40
0.9336353219
 40
0.9449771721
 40
0.9556959291
 40
0.9657887028
 40
0.9752565161
 40
0.9841051753
 40
0.9923468585
 40
1.0
 40
1.0
 40
1.0
 40
1.0
 10
12.3789725314
 20
8.4316941479
 30
0.0
 10
12.3776654663
 20
8.4333012434
 30
0.0
 10
12.3750900961
 20
8.4367552066
 30
0.0
 10
12.3714659336
 20
8.4423974984
 30
0.0
 10
12.3679452172
 20
8.4486804914
 30
0.0
 10
12.3645335616
 20
8.4555939156
 30
0.0
 10
12.3612361362
 20
8.4631270218
 30
0.0
 10
12.3580582212
 20
8.4712677201
 30
0.0
 10
12.3550049839
 20
8.4800028898
 30
0.0
 10
12.3520814796
 20
8.48931833
 30
0.0
 10
12.3492925481
 20
8.4991988003
 30
0.0
 10
12.3466428377
 20
8.5096280709
 30
0.0
 10
12.3441367968
 20
8.5205889681
 30
0.0
 10
12.3417786241
 20
8.5320633953
 30
0.0
 10
12.3395722625
 20
8.5440323726
 30
0.0
 10
12.3375214225
 20
8.5564760863
 30
0.0
 10
12.3356295566
 20
8.5693739172
 30
0.0
 10
12.3338998257
 20
8.5827044725
 30
0.0
 10
12.3323351344
 20
8.5964456342
 30
0.0
 10
12.3309381236
 20
8.6105745966
 30
0.0
 10
12.3297111277
 20
8.6250679
 30
0.0
 10
12.328656207
 20
8.6399014666
 30
0.0
 10
12.3277751229
 20
8.6550506804
 30
0.0
 10
12.3268266186
 20
8.6758029628
 30
0.0
 10
12.3260945906
 20
8.702345899
 30
0.0
 10
12.3259315767
 20
8.7347939037
 30
0.0
 10
12.3264786183
 20
8.7678731066
 30
0.0
 10
12.3277322313
 20
8.8013637636
 30
0.0
 10
12.3296842216
 20
8.8350435469
 30
0.0
 10
12.3323216425
 20
8.8686888108
 30
0.0
 10
12.3356269808
 20
8.9020761399
 30
0.0
 10
12.3395781565
 20
8.9349839058
 30
0.0
 10
12.344148806
 20
8.9671935187
 30
0.0
 10
12.3484814062
 20
8.9934761091
 30
0.0
 10
12.3522421426
 20
9.0139867794
 30
0.0
 10
12.3551754378
 20
9.0289437908
 30
0.0
 10
12.3582385035
 20
9.0435698558
 30
0.0
 10
12.3614262439
 20
9.057840703
 30
0.0
 10
12.3647333344
 20
9.0717326295
 30
0.0
 10
12.3681542732
 20
9.085222568
 30
0.0
 10
12.3716833467
 20
9.0982881308
 30
0.0
 10
12.3753146582
 20
9.1109076459
 30
0.0
 10
12.3790421568
 20
9.1230601837
 30
0.0
 10
12.3828596271
 20
9.1347256055
 30
0.0
 10
12.3867606855
 20
9.1458846057
 30
0.0
 10
12.3907388271
 20
9.1565187313
 30
0.0
 10
12.3947874356
 20
9.1666104191
 30
0.0
 10
12.3988997564
 20
9.1761430526
 30
0.0
 10
12.4030689541
 20
9.1851009772
 30
0.0
 10
12.4072881466
 20
9.1934695255
 30
0.0
 10
12.4115503806
 20
9.2012350841
 30
0.0
 10
12.4158487174
 20
9.2083851188
 30
0.0
 10
12.4201762202
 20
9.2149081165
 30
0.0
 10
12.4245262667
 20
9.220793954
 30
0.0
 10
12.428891862
 20
9.2260328512
 30
0.0
 10
12.4319178325
 20
9.2292033405
 30
0.0
 10
12.4334340104
 20
9.230667856
 30
0.0
  0
SPLINE
  5
390
100
AcDbEntity
  8
0
100
AcDbSpline
 62
7
  6
CONTINUOUS
 70
0
 71
3
 72
9
 73
5
 74
0
 42
0.0000001
 43
0.0000001
 44
0.0000000001
 40
0.0
 40
0.0
 40
0.0
 40
0.0
 40
0.4960832116
 40
1.0
 40
1.0
 40
1.0
 40
1.0
 10
12.3688529511
 20
8.4583866471
 30
0.0
 10
12.3678330169
 20
8.4584573773
 30
0.0
 10
12.3657842528
 20
8.4587354827
 30
0.0
 10
12.3637890447
 20
8.4592756514
 30
0.0
 10
12.362804914
 20
8.4596073549
 30
0.0
  0
SPLINE
  5
391
100
AcDbEntity
  8
0
100
AcDbSpline
 62
7
  6
CONTINUOUS
 70
0
 71
3
 72
9
 73
5
 74
0
 42
0.0000001
 43
0.0000001
 44
0.0000000001
 40
0.0
 40
0.0
 40
0.0
 40
0.0
 40
0.4959653682
 40
1.0
 40
1.0
 40
1.0
 40
1.0
 10
12.4207409991
 20
9.2065895565
 30
0.0
 10
12.4197054388
 20
9.2066613703
 30
0.0
 10
12.4176055096
 20
9.2066667256
 30
0.0
 10
12.415523537
 20
9.2063969284
 30
0.0
 10
12.4144876573
 20
9.2061973199
 30
0.0
  0
SPLINE
  5
392
100
AcDbEntity
  8
0
100
AcDbSpline
 62
7
  6
CONTINUOUS
 70
0
 71
3
 72
18
 73
14
 74
0
 42
0.0000001
 43
0.0000001
 44
0.0000000001
 40
0.0
 40
0.0
 40
0.0
 40
0.0
 40
0.0548620116
 40
0.1099280288
 40
0.1653995063
 40
0.2214731041
 40
0.278338737
 40
0.3361775376
 40
0.455406238
 40
0.580442112
 40
0.7123345554
 40
0.8519568421
 40
1.0
 40
1.0
 40
1.0
 40
1.0
 10
9.978574818
 20
10.4577834059
 30
0.0
 10
9.978574821
 20
10.4588426091
 30
0.0
 10
9.9786420461
 20
10.4609655629
 30
0.0
 10
9.9789443617
 20
10.4641465386
 30
0.0
 10
9.9794480347
 20
10.4673256766
 30
0.0
 10
9.9801528391
 20
10.4705018311
 30
0.0
 10
9.981058592
 20
10.4736741809
 30
0.0
 10
9.9825483495
 20
10.4779401337
 30
0.0
 10
9.9849348544
 20
10.4832757276
 30
0.0
 10
9.9885673181
 20
10.4895770545
 30
0.0
 10
9.9929914146
 20
10.4958375915
 30
0.0
 10
9.9982004422
 20
10.5020510793
 30
0.0
 10
10.0020746076
 20
10.5060377733
 30
0.0
 10
10.0041303966
 20
10.5080235131
 30
0.0
  0
SPLINE
  5
393
100
AcDbEntity
  8
0
100
AcDbSpline
 62
7
  6
CONTINUOUS
 70
0
 71
3
 72
74
 73
70
 74
0
 42
0.0000001
 43
0.0000001
 44
0.0000000001
 40
0.0
 40
0.0
 40
0.0
 40
0.0
 40
0.0040238046
 40
0.0081866324
 40
0.0124904874
 40
0.0169369898
 40
0.0215274084
 40
0.0262626557
 40
0.0311433853
 40
0.0361699509
 40
0.046660395
 40
0.0577328534
 40
0.0693825864
 40
0.0816022176
 40
0.0943820653
 40
0.1077104251
 40
0.1215737994
 40
0.1359570806
 40
0.1508437004
 40
0.1662157529
 40
0.1820541193
 40
0.1983385698
 40
0.215047852
 40
0.2321597663
 40
0.249651239
 40
0.2674984014
 40
0.2856766556
 40
0.3041607357
 40
0.3229247633
 40
0.3419423104
 40
0.3611864601
 40
0.3806298629
 40
0.4200026365
 40
0.4598357886
 40
0.4999004651
 40
0.5399660854
 40
0.5798020655
 40
0.6191795235
 40
0.6386259585
 40
0.6578735926
 40
0.6768950651
 40
0.6956634521
 40
0.7141523219
 40
0.7323357892
 40
0.7501885725
 40
0.7676860571
 40
0.7848043658
 40
0.8015204186
 40
0.8178120001
 40
0.8336578337
 40
0.8490376688
 40
0.8639323752
 40
0.8783240336
 40
0.8921960478
 40
0.905533275
 40
0.918322191
 40
0.9305510705
 40
0.9422102012
 40
0.9532921578
 40
0.9586152944
 40
0.9637925965
 40
0.968823936
 40
0.9737094259
 40
0.9784494393
 40
0.9830445834
 40
0.9874957843
 40
0.9918042626
 40
0.9959716401
 40
1.0
 40
1.0
 40
1.0
 40
1.0
 10
11.4420590604
 20
10.3978398204
 30
0.0
 10
11.4405192053
 20
10.3990698804
 30
0.0
 10
11.4373445715
 20
10.4015206585
 30
0.0
 10
11.4323896097
 20
10.4051103178
 30
0.0
 10
11.4271633938
 20
10.4086740486
 30
0.0
 10
11.4216679777
 20
10.4122104473
 30
0.0
 10
11.4159054234
 20
10.4157181695
 30
0.0
 10
11.409877959
 20
10.4191959187
 30
0.0
 10
11.403587853
 20
10.4226423537
 30
0.0
 10
11.3947275935
 20
10.4272599271
 30
0.0
 10
11.3830012301
 20
10.4329333516
 30
0.0
 10
11.368115998
 20
10.439502222
 30
0.0
 10
11.3522458782
 20
10.4459153513
 30
0.0
 10
11.3354151991
 20
10.4521628518
 30
0.0
 10
11.3176495657
 20
10.4582351085
 30
0.0
 10
11.2989761671
 20
10.4641227376
 30
0.0
 10
11.2794236105
 20
10.4698166266
 30
0.0
 10
11.2590218986
 20
10.4753079512
 30
0.0
 10
11.2378023745
 20
10.4805881946
 30
0.0
 10
11.2157976738
 20
10.4856491756
 30
0.0
 10
11.1930416625
 20
10.4904830478
 30
0.0
 10
11.1695693765
 20
10.495082316
 30
0.0
 10
11.1454169671
 20
10.4994398451
 30
0.0
 10
11.1206216488
 20
10.5035488784
 30
0.0
 10
11.0952216404
 20
10.5074030522
 30
0.0
 10
11.0692560987
 20
10.5109963941
 30
0.0
 10
11.042765055
 20
10.5143233355
 30
0.0
 10
11.0157893569
 20
10.5173787165
 30
0.0
 10
10.9883706035
 20
10.5201578074
 30
0.0
 10
10.9605510942
 20
10.5226563011
 30
0.0
 10
10.9323737018
 20
10.524870353
 30
0.0
 10
10.8942266175
 20
10.5274491614
 30
0.0
 10
10.845968573
 20
10.5299312846
 30
0.0
 10
10.7875738844
 20
10.5317205779
 30
0.0
 10
10.7288154384
 20
10.5323214877
 30
0.0
 10
10.6700555088
 20
10.5317303226
 30
0.0
 10
10.6116563809
 20
10.5299507277
 30
0.0
 10
10.5633927545
 20
10.5274766263
 30
0.0
 10
10.5252397412
 20
10.5249041974
 30
0.0
 10
10.4970568509
 20
10.5226948346
 30
0.0
 10
10.4692311396
 20
10.520200964
 30
0.0
 10
10.4418054889
 20
10.5174264264
 30
0.0
 10
10.4148222045
 20
10.5143755287
 30
0.0
 10
10.3883228959
 20
10.5110529954
 30
0.0
 10
10.3623484281
 20
10.5074639725
 30
0.0
 10
10.3369388504
 20
10.5036140164
 30
0.0
 10
10.3121333309
 20
10.4995090987
 30
0.0
 10
10.2879700977
 20
10.4951555837
 30
0.0
 10
10.2644863832
 20
10.4905602203
 30
0.0
 10
10.2417183643
 20
10.4857301292
 30
0.0
 10
10.2197010984
 20
10.4806727977
 30
0.0
 10
10.1984684639
 20
10.4753960734
 30
0.0
 10
10.1780531098
 20
10.4699081383
 30
0.0
 10
10.1584864073
 20
10.4642174995
 30
0.0
 10
10.1397983853
 20
10.4583329669
 30
0.0
 10
10.1220176942
 20
10.4522636527
 30
0.0
 10
10.1051714649
 20
10.4460189352
 30
0.0
 10
10.0892855713
 20
10.4396084604
 30
0.0
 10
10.0767043081
 20
10.4340646396
 30
0.0
 10
10.0671472406
 20
10.4295460192
 30
0.0
 10
10.0603308174
 20
10.42616729
 30
0.0
 10
10.0537720313
 20
10.4227545949
 30
0.0
 10
10.0474733838
 20
10.419309209
 30
0.0
 10
10.0414372697
 20
10.4158324833
 30
0.0
 10
10.0356660189
 20
10.4123256903
 30
0.0
 10
10.0301618267
 20
10.408790224
 30
0.0
 10
10.0249267808
 20
10.4052273915
 30
0.0
 10
10.019962929
 20
10.4016385521
 30
0.0
 10
10.0167822296
 20
10.3991883411
 30
0.0
 10
10.0152393183
 20
10.3979585339
 30
0.0
  0
SPLINE
  5
394
100
AcDbEntity
  8
0
100
AcDbSpline
 62
7
  6
CONTINUOUS
 70
0
 71
3
 72
71
 73
67
 74
0
 42
0.0000001
 43
0.0000001
 44
0.0000000001
 40
0.0
 40
0.0
 40
0.0
 40
0.0
 40
0.015584053
 40
0.0311160245
 40
0.0465952359
 40
0.0620238753
 40
0.0774034566
 40
0.0927362788
 40
0.1080251228
 40
0.1232731735
 40
0.1384840555
 40
0.1536617757
 40
0.168810689
 40
0.1839354529
 40
0.1990409785
 40
0.2141323819
 40
0.2292149313
 40
0.2442939893
 40
0.2593749543
 40
0.2744632039
 40
0.2895640398
 40
0.3046826297
 40
0.3198239509
 40
0.3349927393
 40
0.3501934428
 40
0.3654301763
 40
0.3807066785
 40
0.3960262755
 40
0.4113918547
 40
0.4268058378
 40
0.4422701589
 40
0.4577862483
 40
0.4733550284
 40
0.4889769088
 40
0.5046517849
 40
0.5203790429
 40
0.5361575753
 40
0.5519857957
 40
0.5678616545
 40
0.5837826616
 40
0.5997459172
 40
0.6157481409
 40
0.6317856999
 40
0.6478546446
 40
0.6639507495
 40
0.6800695506
 40
0.6962063821
 40
0.7123564197
 40
0.7285147264
 40
0.7446762932
 40
0.7608360806
 40
0.7769890646
 40
0.7931302829
 40
0.8092548751
 40
0.8253581239
 40
0.8414355002
 40
0.8574827052
 40
0.8734957057
 40
0.8894707703
 40
0.9054045154
 40
0.9212939103
 40
0.9371363704
 40
0.9529297322
 40
0.9686719981
 40
0.9843628241
 40
1.0
 40
1.0
 40
1.0
 40
1.0
 10
11.0012926291
 20
7.5488558456
 30
0.0
 10
11.0012926291
 20
7.5446751706
 30
0.0
 10
11.0010880092
 20
7.5363263108
 30
0.0
 10
11.0001644802
 20
7.5238556532
 30
0.0
 10
10.9986268509
 20
7.5114873886
 30
0.0
 10
10.9964789934
 20
7.4992519146
 30
0.0
 10
10.9937259087
 20
7.4871784601
 30
0.0
 10
10.9903742625
 20
7.4752962099
 30
0.0
 10
10.986432117
 20
7.4636337889
 30
0.0
 10
10.981908929
 20
7.4522193218
 30
0.0
 10
10.976815558
 20
7.4410803498
 30
0.0
 10
10.9711642868
 20
7.4302437291
 30
0.0
 10
10.9649687304
 20
7.4197355945
 30
0.0
 10
10.9582438043
 20
7.4095812994
 30
0.0
 10
10.9510056908
 20
7.3998053592
 30
0.0
 10
10.9432718612
 20
7.3904313436
 30
0.0
 10
10.9350609689
 20
7.3814818603
 30
0.0
 10
10.9263928071
 20
7.372978504
 30
0.0
 10
10.9172882647
 20
7.3649418074
 30
0.0
 10
10.9077693249
 20
7.3573911325
 30
0.0
 10
10.8978589563
 20
7.350344677
 30
0.0
 10
10.8875810611
 20
7.3438194337
 30
0.0
 10
10.876960421
 20
7.3378311524
 30
0.0
 10
10.8660226731
 20
7.3323942343
 30
0.0
 10
10.8547942046
 20
7.3275217618
 30
0.0
 10
10.8433020928
 20
7.3232254691
 30
0.0
 10
10.8315740447
 20
7.3195157165
 30
0.0
 10
10.8196383512
 20
7.3164013938
 30
0.0
 10
10.8075237898
 20
7.3138899696
 30
0.0
 10
10.7952595601
 20
7.3119874759
 30
0.0
 10
10.7828752183
 20
7.310698494
 30
0.0
 10
10.7704006131
 20
7.3100260712
 30
0.0
 10
10.7578658
 20
7.3099717869
 30
0.0
 10
10.7453009738
 20
7.3105357505
 30
0.0
 10
10.732736402
 20
7.3117166009
 30
0.0
 10
10.7202023436
 20
7.3135114373
 30
0.0
 10
10.7077289787
 20
7.3159159008
 30
0.0
 10
10.6953463403
 20
7.3189241845
 30
0.0
 10
10.6830842479
 20
7.3225290463
 30
0.0
 10
10.6709722141
 20
7.3267217576
 30
0.0
 10
10.6590393903
 20
7.3314921952
 30
0.0
 10
10.6473145007
 20
7.3368288651
 30
0.0
 10
10.6358257779
 20
7.3427189273
 30
0.0
 10
10.6246008622
 20
7.3491481638
 30
0.0
 10
10.6136667635
 20
7.3561010787
 30
0.0
 10
10.6030498008
 20
7.3635609337
 30
0.0
 10
10.5927755427
 20
7.371509785
 30
0.0
 10
10.5828687017
 20
7.3799284707
 30
0.0
 10
10.5733531155
 20
7.3887967165
 30
0.0
 10
10.5642516925
 20
7.3980931811
 30
0.0
 10
10.5555863608
 20
7.4077955039
 30
0.0
 10
10.5473779616
 20
7.4178803128
 30
0.0
 10
10.5396462488
 20
7.4283233301
 30
0.0
 10
10.5324098453
 20
7.4390994279
 30
0.0
 10
10.5256862005
 20
7.4501826841
 30
0.0
 10
10.5194914867
 20
7.4615464089
 30
0.0
 10
10.5138406191
 20
7.4731632494
 30
0.0
 10
10.508747222
 20
7.4850052509
 30
0.0
 10
10.504223597
 20
7.4970439203
 30
0.0
 10
10.5002806331
 20
7.5092502685
 30
0.0
 10
10.4969278248
 20
7.5215949108
 30
0.0
 10
10.4941732787
 20
7.5340481513
 30
0.0
 10
10.4920237115
 20
7.546579926
 30
0.0
 10
10.4904841835
 20
7.5591603256
 30
0.0
 10
10.4895586245
 20
7.5717584566
 30
0.0
 10
10.4893519109
 20
7.580164129
 30
0.0
 10
10.4893519109
 20
7.584359055
 30
0.0
  0
SPLINE
  5
395
100
AcDbEntity
  8
0
100
AcDbSpline
 62
7
  6
CONTINUOUS
 70
0
 71
3
 72
21
 73
17
 74
0
 42
0.0000001
 43
0.0000001
 44
0.0000000001
 40
0.0
 40
0.0
 40
0.0
 40
0.0
 40
0.1273176984
 40
0.2537999461
 40
0.3167619614
 40
0.3795355204
 40
0.4421314992
 40
0.5045621453
 40
0.5668413456
 40
0.6289845231
 40
0.6910084433
 40
0.7529310869
 40
0.8147714401
 40
0.8765493236
 40
0.9382852134
 40
1.0
 40
1.0
 40
1.0
 40
1.0
 10
10.0920789748
 20
7.0338628572
 30
0.0
 10
10.0920789748
 20
7.0391601494
 30
0.0
 10
10.0925846367
 20
7.0497267922
 30
0.0
 10
10.0944943796
 20
7.0627894438
 30
0.0
 10
10.0967769273
 20
7.07303595
 30
0.0
 10
10.0988584916
 20
7.080593778
 30
0.0
 10
10.1013073276
 20
7.0880173072
 30
0.0
 10
10.1041177894
 20
7.0952896357
 30
0.0
 10
10.1072833973
 20
7.1023939437
 30
0.0
 10
10.1107969158
 20
7.1093138348
 30
0.0
 10
10.114650217
 20
7.1160333576
 30
0.0
 10
10.1188344143
 20
7.1225370263
 30
0.0
 10
10.1233398989
 20
7.1288097913
 30
0.0
 10
10.1281563083
 20
7.1348372466
 30
0.0
 10
10.1332723214
 20
7.1406053242
 30
0.0
 10
10.1368755979
 20
7.1442695467
 30
0.0
 10
10.1387224763
 20
7.1460534834
 30
0.0
  0
SPLINE
  5
396
100
AcDbEntity
  8
0
100
AcDbSpline
 62
7
  6
CONTINUOUS
 70
0
 71
3
 72
93
 73
89
 74
0
 42
0.0000001
 43
0.0000001
 44
0.0000000001
 40
0.0
 40
0.0
 40
0.0
 40
0.0
 40
0.0039802005
 40
0.0081241083
 40
0.0124359116
 40
0.0169192331
 40
0.0215771071
 40
0.0264118291
 40
0.0314250775
 40
0.0366180274
 40
0.0419913947
 40
0.0475454967
 40
0.0532802394
 40
0.0591952227
 40
0.0652896963
 40
0.071562666
 40
0.0780128361
 40
0.0846387029
 40
0.0984099586
 40
0.1128604728
 40
0.1279709419
 40
0.1437194762
 40
0.1600818774
 40
0.1770318697
 40
0.1945412988
 40
0.2125803054
 40
0.2311174799
 40
0.2501200027
 40
0.2695537746
 40
0.2893835385
 40
0.3095729955
 40
0.3300849166
 40
0.3508812506
 40
0.3719232299
 40
0.3931714738
 40
0.4145860912
 40
0.4361267819
 40
0.4577529372
 40
0.47942374
 40
0.5010982647
 40
0.5227355766
 40
0.5442948315
 40
0.5657353757
 40
0.5870168455
 40
0.608099268
 40
0.628943162
 40
0.6495096405
 40
0.6697605141
 40
0.6896583964
 40
0.7091668111
 40
0.7282503034
 40
0.7468745548
 40
0.7650065038
 40
0.7826144744
 40
0.7996683149
 40
0.8161395488
 40
0.8320015451
 40
0.8472297111
 40
0.8618017176
 40
0.8756977675
 40
0.8823870871
 40
0.8889013284
 40
0.8952388858
 40
0.9013983901
 40
0.9073787355
 40
0.9131790737
 40
0.918798886
 40
0.9242379489
 40
0.9294964425
 40
0.9345749072
 40
0.9394743702
 40
0.9441963202
 40
0.9487428314
 40
0.9531165822
 40
0.9573209639
 40
0.9613601573
 40
0.9652392239
 40
0.9689642405
 40
0.9725423751
 40
0.9759820598
 40
0.97929305
 40
0.982486587
 40
0.9855754179
 40
0.9885738696
 40
0.9914977727
 40
0.9943643586
 40
0.997192021
 40
1.0
 40
1.0
 40
1.0
 40
1.0
 10
10.0041303966
 20
10.5080235131
 30
0.0
 10
10.0056158338
 20
10.5094583353
 30
0.0
 10
10.0087152586
 20
10.5123178207
 30
0.0
 10
10.0136361807
 20
10.5164942949
 30
0.0
 10
10.0189184538
 20
10.5206407879
 30
0.0
 10
10.0245591888
 20
10.5247551456
 30
0.0
 10
10.0305556625
 20
10.5288354145
 30
0.0
 10
10.0369049003
 20
10.5328796482
 30
0.0
 10
10.0436037494
 20
10.5368858332
 30
0.0
 10
10.0506488581
 20
10.540851963
 30
0.0
 10
10.0580366954
 20
10.5447760874
 30
0.0
 10
10.0657635782
 20
10.5486562098
 30
0.0
 10
10.0738256188
 20
10.5524904306
 30
0.0
 10
10.0822187852
 20
10.556276764
 30
0.0
 10
10.0909388434
 20
10.5600133625
 30
0.0
 10
10.0999814177
 20
10.5636982763
 30
0.0
 10
10.1093419547
 20
10.5673297227
 30
0.0
 10
10.1224087655
 20
10.5721599966
 30
0.0
 10
10.1395111709
 20
10.5780385801
 30
0.0
 10
10.1609687648
 20
10.584763303
 30
0.0
 10
10.1835737532
 20
10.5912324655
 30
0.0
 10
10.2072805089
 20
10.5974329005
 30
0.0
 10
10.2320413455
 20
10.6033519799
 30
0.0
 10
10.2578063267
 20
10.6089776466
 30
0.0
 10
10.2845234638
 20
10.6142984403
 30
0.0
 10
10.3121388058
 20
10.6193035234
 30
0.0
 10
10.3405965613
 20
10.6239827032
 30
0.0
 10
10.3698392149
 20
10.6283264526
 30
0.0
 10
10.3998076473
 20
10.6323259296
 30
0.0
 10
10.4304412585
 20
10.6359729948
 30
0.0
 10
10.4616780921
 20
10.6392602273
 30
0.0
 10
10.4934549633
 20
10.6421809398
 30
0.0
 10
10.5257075874
 20
10.6447291915
 30
0.0
 10
10.5583707121
 20
10.6468997998
 30
0.0
 10
10.5913782495
 20
10.6486883507
 30
0.0
 10
10.6246634117
 20
10.6500912081
 30
0.0
 10
10.6581588462
 20
10.6511055201
 30
0.0
 10
10.6917967734
 20
10.6517292249
 30
0.0
 10
10.7255091244
 20
10.6519610549
 30
0.0
 10
10.7592276789
 20
10.6518005388
 30
0.0
 10
10.7928842044
 20
10.651248003
 30
0.0
 10
10.8264105941
 20
10.6503045706
 30
0.0
 10
10.8597390059
 20
10.6489721595
 30
0.0
 10
10.8928019995
 20
10.6472534781
 30
0.0
 10
10.9255326744
 20
10.6451520208
 30
0.0
 10
10.9578648052
 20
10.6426720604
 30
0.0
 10
10.9897329772
 20
10.6398186397
 30
0.0
 10
11.02107272
 20
10.6365975627
 30
0.0
 10
11.0518206388
 20
10.6330153821
 30
0.0
 10
11.0819145445
 20
10.6290793865
 30
0.0
 10
11.1112935813
 20
10.624797586
 30
0.0
 10
11.1398983516
 20
10.6201786962
 30
0.0
 10
11.1676710397
 20
10.6152321211
 30
0.0
 10
11.1945555322
 20
10.609967934
 30
0.0
 10
11.220497535
 20
10.604396857
 30
0.0
 10
11.2454446955
 20
10.598530239
 30
0.0
 10
11.2693466926
 20
10.5923800305
 30
0.0
 10
11.292155433
 20
10.5859587587
 30
0.0
 10
11.3138248678
 20
10.5792794904
 30
0.0
 10
11.3311096634
 20
10.5734380928
 30
0.0
 10
11.344326382
 20
10.5686364317
 30
0.0
 10
11.3538013661
 20
10.5650249109
 30
0.0
 10
11.3629600795
 20
10.5613592285
 30
0.0
 10
11.3717979177
 20
10.5576412018
 30
0.0
 10
11.380310436
 20
10.5538727372
 30
0.0
 10
11.388493345
 20
10.5500556973
 30
0.0
 10
11.396342549
 20
10.5461920518
 30
0.0
 10
11.4038540924
 20
10.542283684
 30
0.0
 10
11.4110242345
 20
10.5383326144
 30
0.0
 10
11.4178493657
 20
10.5343407513
 30
0.0
 10
11.424326103
 20
10.5303101385
 30
0.0
 10
11.4304511958
 20
10.5262427159
 30
0.0
 10
11.4362216145
 20
10.5221405195
 30
0.0
 10
11.4416344782
 20
10.5180055206
 30
0.0
 10
11.4466870979
 20
10.5138397185
 30
0.0
 10
11.4513769641
 20
10.5096451053
 30
0.0
 10
11.4557017029
 20
10.5054236219
 30
0.0
 10
11.4596591585
 20
10.5011772639
 30
0.0
 10
11.4632472293
 20
10.496907911
 30
0.0
 10
11.4664640649
 20
10.4926175519
 30
0.0
 10
11.4693077806
 20
10.4883080459
 30
0.0
 10
11.4717767542
 20
10.4839814063
 30
0.0
 10
11.4738692825
 20
10.4796395883
 30
0.0
 10
11.4755839208
 20
10.4752847365
 30
0.0
 10
11.4769192101
 20
10.4709191125
 30
0.0
 10
11.477873973
 20
10.4665450571
 30
0.0
 10
11.4784472401
 20
10.4621656385
 30
0.0
 10
11.4785748046
 20
10.4592398423
 30
0.0
 10
11.4785748005
 20
10.4577828389
 30
0.0
  0
SPLINE
  5
397
100
AcDbEntity
  8
0
100
AcDbSpline
 62
7
  6
CONTINUOUS
 70
0
 71
3
 72
71
 73
67
 74
0
 42
0.0000001
 43
0.0000001
 44
0.0000000001
 40
0.0
 40
0.0
 40
0.0
 40
0.0
 40
0.0156371759
 40
0.0313280019
 40
0.0470702678
 40
0.0628636296
 40
0.0787060897
 40
0.0945954846
 40
0.1105292297
 40
0.1265042943
 40
0.1425172948
 40
0.1585644998
 40
0.1746418761
 40
0.1907451249
 40
0.2068697171
 40
0.2230109354
 40
0.2391639194
 40
0.2553237068
 40
0.2714852736
 40
0.2876435803
 40
0.3037936179
 40
0.3199304494
 40
0.3360492505
 40
0.3521453554
 40
0.3682143001
 40
0.3842518591
 40
0.4002540828
 40
0.4162173384
 40
0.4321383455
 40
0.4480142043
 40
0.4638424247
 40
0.4796209571
 40
0.4953482151
 40
0.5110230912
 40
0.5266449716
 40
0.5422137517
 40
0.5577298411
 40
0.5731941622
 40
0.5886081453
 40
0.6039737245
 40
0.6192933215
 40
0.6345698237
 40
0.6498065572
 40
0.6650072607
 40
0.6801760491
 40
0.6953173703
 40
0.7104359602
 40
0.7255367961
 40
0.7406250457
 40
0.7557060107
 40
0.7707850687
 40
0.7858676181
 40
0.8009590215
 40
0.8160645471
 40
0.831189311
 40
0.8463382243
 40
0.8615159445
 40
0.8767268265
 40
0.8919748772
 40
0.9072637212
 40
0.9225965434
 40
0.9379761247
 40
0.9534047641
 40
0.9688839755
 40
0.984415947
 40
1.0
 40
1.0
 40
1.0
 40
1.0
 10
11.0012926291
 20
7.5488558456
 30
0.0
 10
11.0012926291
 20
7.5530507717
 30
0.0
 10
11.0010859155
 20
7.561456444
 30
0.0
 10
11.0001603565
 20
7.574054575
 30
0.0
 10
10.9986208285
 20
7.5866349747
 30
0.0
 10
10.9964712613
 20
7.5991667494
 30
0.0
 10
10.9937167152
 20
7.6116199899
 30
0.0
 10
10.9903639069
 20
7.6239646322
 30
0.0
 10
10.986420943
 20
7.6361709804
 30
0.0
 10
10.981897318
 20
7.6482096498
 30
0.0
 10
10.9768039209
 20
7.6600516513
 30
0.0
 10
10.9711530533
 20
7.6716684918
 30
0.0
 10
10.9649583395
 20
7.6830322166
 30
0.0
 10
10.9582346947
 20
7.6941154728
 30
0.0
 10
10.9509982912
 20
7.7048915705
 30
0.0
 10
10.9432665784
 20
7.7153345879
 30
0.0
 10
10.9350581792
 20
7.7254193967
 30
0.0
 10
10.9263928475
 20
7.7351217196
 30
0.0
 10
10.9172914245
 20
7.7444181842
 30
0.0
 10
10.9077758383
 20
7.75328643
 30
0.0
 10
10.8978689973
 20
7.7617051157
 30
0.0
 10
10.8875947392
 20
7.7696539669
 30
0.0
 10
10.8769777764
 20
7.777113822
 30
0.0
 10
10.8660436778
 20
7.7840667369
 30
0.0
 10
10.8548187621
 20
7.7904959734
 30
0.0
 10
10.8433300393
 20
7.7963860356
 30
0.0
 10
10.8316051497
 20
7.8017227055
 30
0.0
 10
10.8196723259
 20
7.8064931431
 30
0.0
 10
10.8075602921
 20
7.8106858544
 30
0.0
 10
10.7952981997
 20
7.8142907162
 30
0.0
 10
10.7829155613
 20
7.8172989999
 30
0.0
 10
10.7704421964
 20
7.8197034634
 30
0.0
 10
10.757908138
 20
7.8214982998
 30
0.0
 10
10.7453435661
 20
7.8226791502
 30
0.0
 10
10.73277874
 20
7.8232431138
 30
0.0
 10
10.7202439269
 20
7.8231888295
 30
0.0
 10
10.7077693217
 20
7.8225164067
 30
0.0
 10
10.6953849799
 20
7.8212274248
 30
0.0
 10
10.6831207502
 20
7.819324931
 30
0.0
 10
10.6710061888
 20
7.8168135069
 30
0.0
 10
10.6590704953
 20
7.8136991842
 30
0.0
 10
10.6473424472
 20
7.8099894316
 30
0.0
 10
10.6358503354
 20
7.8056931389
 30
0.0
 10
10.6246218669
 20
7.8008206664
 30
0.0
 10
10.613684119
 20
7.7953837483
 30
0.0
 10
10.6030634789
 20
7.7893954669
 30
0.0
 10
10.5927855837
 20
7.7828702237
 30
0.0
 10
10.5828752151
 20
7.7758237682
 30
0.0
 10
10.5733562753
 20
7.7682730933
 30
0.0
 10
10.5642517329
 20
7.7602363966
 30
0.0
 10
10.5555835711
 20
7.7517330404
 30
0.0
 10
10.5473726788
 20
7.7427835571
 30
0.0
 10
10.5396388492
 20
7.7334095415
 30
0.0
 10
10.5324007357
 20
7.7236336012
 30
0.0
 10
10.5256758096
 20
7.7134793062
 30
0.0
 10
10.5194802532
 20
7.7029711716
 30
0.0
 10
10.513828982
 20
7.6921345509
 30
0.0
 10
10.508735611
 20
7.6809955789
 30
0.0
 10
10.504212423
 20
7.6695811118
 30
0.0
 10
10.5002702775
 20
7.6579186908
 30
0.0
 10
10.4969186313
 20
7.6460364406
 30
0.0
 10
10.4941655465
 20
7.6339629861
 30
0.0
 10
10.4920176891
 20
7.6217275121
 30
0.0
 10
10.4904800598
 20
7.6093592475
 30
0.0
 10
10.4895565307
 20
7.5968885899
 30
0.0
 10
10.4893519109
 20
7.5885397301
 30
0.0
 10
10.4893519109
 20
7.584359055
 30
0.0
  0
SPLINE
  5
398
100
AcDbEntity
  8
0
100
AcDbSpline
 62
7
  6
CONTINUOUS
 70
0
 71
3
 72
46
 73
42
 74
0
 42
0.0000001
 43
0.0000001
 44
0.0000000001
 40
0.0
 40
0.0
 40
0.0
 40
0.0
 40
0.0149720525
 40
0.0299471649
 40
0.0449283772
 40
0.0599186917
 40
0.0749210573
 40
0.0899383484
 40
0.1049733476
 40
0.1200287333
 40
0.1351070597
 40
0.1502107421
 40
0.1653420474
 40
0.1805030776
 40
0.1956957572
 40
0.2109218287
 40
0.2414745667
 40
0.2721768461
 40
0.3030351766
 40
0.3340525707
 40
0.3652285255
 40
0.3965590884
 40
0.4280369959
 40
0.4596518697
 40
0.4913904744
 40
0.523237028
 40
0.5551735471
 40
0.5871802301
 40
0.6192358692
 40
0.6513182802
 40
0.6834047461
 40
0.7154724694
 40
0.7474990252
 40
0.7794628091
 40
0.811343472
 40
0.843122339
 40
0.8747828041
 40
0.9063106918
 40
0.9376946023
 40
0.9689259241
 40
1.0
 40
1.0
 40
1.0
 40
1.0
 10
11.0468689629
 20
7.2461347608
 30
0.0
 10
11.0432188877
 20
7.2426090677
 30
0.0
 10
11.0357769428
 20
7.235701321
 30
0.0
 10
11.0242098934
 20
7.2257903349
 30
0.0
 10
11.0122533426
 20
7.2163425189
 30
0.0
 10
10.9999240152
 20
7.2073710439
 30
0.0
 10
10.9872388167
 20
7.1988881924
 30
0.0
 10
10.9742151935
 20
7.190905696
 30
0.0
 10
10.960871097
 20
7.1834344816
 30
0.0
 10
10.9472248899
 20
7.1764848269
 30
0.0
 10
10.9332953291
 20
7.1700663338
 30
0.0
 10
10.9191016161
 20
7.164187773
 30
0.0
 10
10.9046632565
 20
7.1588572289
 30
0.0
 10
10.8900001805
 20
7.1540820807
 30
0.0
 10
10.8751322969
 20
7.1498687929
 30
0.0
 10
10.8550426099
 20
7.1450029429
 30
0.0
 10
10.8295111754
 20
7.1403558573
 30
0.0
 10
10.7984292908
 20
7.13710973
 30
0.0
 10
10.7670334332
 20
7.13620358
 30
0.0
 10
10.7354974577
 20
7.1376423587
 30
0.0
 10
10.7039943973
 20
7.1414176509
 30
0.0
 10
10.672697422
 20
7.1475083375
 30
0.0
 10
10.6417784057
 20
7.1558806569
 30
0.0
 10
10.611407111
 20
7.1664883056
 30
0.0
 10
10.5817502279
 20
7.1792727355
 30
0.0
 10
10.5529705241
 20
7.1941635689
 30
0.0
 10
10.5252259191
 20
7.2110788715
 30
0.0
 10
10.4986686195
 20
7.2299256172
 30
0.0
 10
10.4734443592
 20
7.2506002882
 30
0.0
 10
10.449691558
 20
7.2729893507
 30
0.0
 10
10.4275405411
 20
7.2969698609
 30
0.0
 10
10.4071129213
 20
7.3224102244
 30
0.0
 10
10.3885208873
 20
7.3491708461
 30
0.0
 10
10.3718665359
 20
7.3771048603
 30
0.0
 10
10.3572414293
 20
7.4060590114
 30
0.0
 10
10.3447260527
 20
7.4358744206
 30
0.0
 10
10.3343892856
 20
7.4663874919
 30
0.0
 10
10.3262881446
 20
7.4974305937
 30
0.0
 10
10.3204674939
 20
7.5288338644
 30
0.0
 10
10.3169594945
 20
7.5604226172
 30
0.0
 10
10.3161737797
 20
7.5815492173
 30
0.0
 10
10.3161737797
 20
7.5920818157
 30
0.0
  0
SPLINE
  5
399
100
AcDbEntity
  8
0
100
AcDbSpline
 62
7
  6
CONTINUOUS
 70
0
 71
3
 72
39
 73
35
 74
0
 42
0.0000001
 43
0.0000001
 44
0.0000000001
 40
0.0
 40
0.0
 40
0.0
 40
0.0
 40
0.0299377059
 40
0.0599040296
 40
0.0899223011
 40
0.1200146053
 40
0.1502012657
 40
0.1805003782
 40
0.2109274105
 40
0.2414948792
 40
0.2722121041
 40
0.30308504
 40
0.3341161987
 40
0.3653046476
 40
0.3966460771
 40
0.4281329424
 40
0.4597546683
 40
0.4914979049
 40
0.523346829
 40
0.5552834915
 40
0.5872881942
 40
0.6193398896
 40
0.6514166045
 40
0.6834958745
 40
0.715555185
 40
0.7475724136
 40
0.779526266
 40
0.8113967008
 40
0.8431653398
 40
0.8748158472
 40
0.9063342829
 40
0.9377094559
 40
0.9689328727
 40
1.0
 40
1.0
 40
1.0
 40
1.0
 10
11.0468395739
 20
7.2461665404
 30
0.0
 10
11.0394780417
 20
7.2392666867
 30
0.0
 10
11.024195119
 20
7.2260369289
 30
0.0
 10
10.9997645023
 20
7.2080539245
 30
0.0
 10
10.9739492695
 20
7.1920199304
 30
0.0
 10
10.9468919787
 20
7.1780238043
 30
0.0
 10
10.9187396022
 20
7.1661411208
 30
0.0
 10
10.8896456707
 20
7.1564364135
 30
0.0
 10
10.8597686149
 20
7.1489621032
 30
0.0
 10
10.8292710738
 20
7.1437585102
 30
0.0
 10
10.7983189645
 20
7.1408535796
 30
0.0
 10
10.7670805964
 20
7.1402626674
 30
0.0
 10
10.7357257335
 20
7.1419885856
 30
0.0
 10
10.7044246938
 20
7.1460216186
 30
0.0
 10
10.6733474271
 20
7.1523394958
 30
0.0
 10
10.642662594
 20
7.1609075625
 30
0.0
 10
10.6125366819
 20
7.1716790409
 30
0.0
 10
10.5831331131
 20
7.1845952472
 30
0.0
 10
10.5546113353
 20
7.199585848
 30
0.0
 10
10.527126007
 20
7.2165693436
 30
0.0
 10
10.5008261837
 20
7.235453504
 30
0.0
 10
10.4758544617
 20
7.2561357806
 30
0.0
 10
10.4523462416
 20
7.2785039158
 30
0.0
 10
10.430429039
 20
7.3024365783
 30
0.0
 10
10.4102217663
 20
7.3278039693
 30
0.0
 10
10.3918340513
 20
7.3544684959
 30
0.0
 10
10.3753657233
 20
7.3822855719
 30
0.0
 10
10.3609062785
 20
7.4111043818
 30
0.0
 10
10.3485343003
 20
7.4407686203
 30
0.0
 10
10.3383171081
 20
7.4711174483
 30
0.0
 10
10.3303104114
 20
7.5019861011
 30
0.0
 10
10.324558006
 20
7.5332076425
 30
0.0
 10
10.3210912988
 20
7.5646104477
 30
0.0
 10
10.3203148812
 20
7.5856115698
 30
0.0
 10
10.3203148812
 20
7.5960818129
 30
0.0
  0
SPLINE
  5
39A
100
AcDbEntity
  8
0
100
AcDbSpline
 62
7
  6
CONTINUOUS
 70
0
 71
3
 72
15
 73
11
 74
0
 42
0.0000001
 43
0.0000001
 44
0.0000000001
 40
0.0
 40
0.0
 40
0.0
 40
0.0
 40
0.12656008
 40
0.252648392
 40
0.3782623189
 40
0.5034236476
 40
0.6281497749
 40
0.7524666547
 40
0.8764049426
 40
1.0
 40
1.0
 40
1.0
 40
1.0
 10
10.7162475958
 20
7.72602347
 30
0.0
 10
10.7162475958
 20
7.7293181253
 30
0.0
 10
10.716427181
 20
7.735896607
 30
0.0
 10
10.7172379514
 20
7.7457150261
 30
0.0
 10
10.7185874048
 20
7.7554376062
 30
0.0
 10
10.7204713598
 20
7.765034743
 30
0.0
 10
10.7228843388
 20
7.7744779184
 30
0.0
 10
10.7258191639
 20
7.7837389021
 30
0.0
 10
10.7292669041
 20
7.7927896138
 30
0.0
 10
10.731904292
 20
7.7986736606
 30
0.0
 10
10.7333045743
 20
7.8015704373
 30
0.0
  0
SPLINE
  5
39B
100
AcDbEntity
  8
0
100
AcDbSpline
 62
7
  6
CONTINUOUS
 70
0
 71
3
 72
39
 73
35
 74
0
 42
0.0000001
 43
0.0000001
 44
0.0000000001
 40
0.0
 40
0.0
 40
0.0
 40
0.0
 40
0.0299424706
 40
0.0599093177
 40
0.0899243239
 40
0.1200101031
 40
0.1501875623
 40
0.1804754149
 40
0.21088976
 40
0.241443737
 40
0.2721472612
 40
0.3030068434
 40
0.3340254949
 40
0.3652027136
 40
0.3965345483
 40
0.4280137339
 40
0.4596298915
 40
0.4913697862
 40
0.5232176339
 40
0.5551554503
 40
0.587163434
 40
0.6192203763
 40
0.6513040919
 40
0.6833918632
 40
0.7154608918
 40
0.7474887514
 40
0.7794538357
 40
0.8113357957
 40
0.8431159546
 40
0.8747777135
 40
0.906306863
 40
0.9376920938
 40
0.9689246722
 40
1.0
 40
1.0
 40
1.0
 40
1.0
 10
10.9163522802
 20
7.405082628
 30
0.0
 10
10.9124537081
 20
7.4013168972
 30
0.0
 10
10.9043500121
 20
7.394089344
 30
0.0
 10
10.8913666292
 20
7.3842430805
 30
0.0
 10
10.8776217702
 20
7.3754411601
 30
0.0
 10
10.863192234
 20
7.3677329608
 30
0.0
 10
10.8481573519
 20
7.361160597
 30
0.0
 10
10.8326001003
 20
7.3557601981
 30
0.0
 10
10.8166062104
 20
7.3515613094
 30
0.0
 10
10.8002637977
 20
7.3485868534
 30
0.0
 10
10.7836628406
 20
7.3468529859
 30
0.0
 10
10.7668946908
 20
7.3463690281
 30
0.0
 10
10.7500515684
 20
7.3471374249
 30
0.0
 10
10.7332260587
 20
7.3491537435
 30
0.0
 10
10.7165106078
 20
7.3524067072
 30
0.0
 10
10.6999970207
 20
7.3568782652
 30
0.0
 10
10.6837759644
 20
7.3625436956
 30
0.0
 10
10.6679364743
 20
7.3693717423
 30
0.0
 10
10.6525654743
 20
7.3773247942
 30
0.0
 10
10.6377473066
 20
7.3863590923
 30
0.0
 10
10.6235632747
 20
7.3964249693
 30
0.0
 10
10.6100912036
 20
7.4074671213
 30
0.0
 10
10.5974050178
 20
7.4194249088
 30
0.0
 10
10.5855743407
 20
7.4322326868
 30
0.0
 10
10.5746641163
 20
7.4458201614
 30
0.0
 10
10.564734256
 20
7.4601127713
 30
0.0
 10
10.5558393079
 20
7.4750320891
 30
0.0
 10
10.5480281656
 20
7.4904962539
 30
0.0
 10
10.5413437954
 20
7.5064204037
 30
0.0
 10
10.5358230179
 20
7.5227171717
 30
0.0
 10
10.53149626
 20
7.5392970298
 30
0.0
 10
10.5283874933
 20
7.5560692483
 30
0.0
 10
10.5265138913
 20
7.5729405333
 30
0.0
 10
10.5260942523
 20
7.5842240652
 30
0.0
 10
10.5260942523
 20
7.5898494337
 30
0.0
  0
SPLINE
  5
39C
100
AcDbEntity
  8
0
100
AcDbSpline
 62
7
  6
CONTINUOUS
 70
0
 71
3
 72
39
 73
35
 74
0
 42
0.0000001
 43
0.0000001
 44
0.0000000001
 40
0.0
 40
0.0
 40
0.0
 40
0.0
 40
0.0301474175
 40
0.0604059028
 40
0.090782378
 40
0.1212819915
 40
0.1519080634
 40
0.1826620594
 40
0.2135435923
 40
0.2445504506
 40
0.2756786514
 40
0.3069225168
 40
0.338274771
 40
0.3697266566
 40
0.4012680674
 40
0.4328876952
 40
0.4645731909
 40
0.4963113345
 40
0.5280882138
 40
0.5598894089
 40
0.5917001828
 40
0.623505673
 40
0.6552910861
 40
0.6870418901
 40
0.7187440059
 40
0.7503839937
 40
0.7819492357
 40
0.8134281038
 40
0.8448101395
 40
0.8760861459
 40
0.9072485171
 40
0.9382907968
 40
0.9692091933
 40
1.0
 40
1.0
 40
1.0
 40
1.0
 10
10.9686438532
 20
7.4881415819
 30
0.0
 10
10.9643689933
 20
7.4868651476
 30
0.0
 10
10.9557208562
 20
7.4845757841
 30
0.0
 10
10.9425371179
 20
7.4819505056
 30
0.0
 10
10.9291644278
 20
7.4801366407
 30
0.0
 10
10.9156517734
 20
7.4791408765
 30
0.0
 10
10.9020477928
 20
7.478966675
 30
0.0
 10
10.888401666
 20
7.4796146039
 30
0.0
 10
10.8747626505
 20
7.4810822456
 30
0.0
 10
10.8611799823
 20
7.4833642326
 30
0.0
 10
10.8477026785
 20
7.4864522623
 30
0.0
 10
10.8343793682
 20
7.49033513
 30
0.0
 10
10.8212581166
 20
7.4949987699
 30
0.0
 10
10.8083862543
 20
7.500426307
 30
0.0
 10
10.7958102083
 20
7.5065981185
 30
0.0
 10
10.7835753335
 20
7.5134919005
 30
0.0
 10
10.7717257519
 20
7.5210827524
 30
0.0
 10
10.7603041954
 20
7.5293432672
 30
0.0
 10
10.7493518526
 20
7.5382436297
 30
0.0
 10
10.7389082218
 20
7.5477517235
 30
0.0
 10
10.7290109699
 20
7.5578332462
 30
0.0
 10
10.7196957972
 20
7.5684518325
 30
0.0
 10
10.71099631
 20
7.5795691838
 30
0.0
 10
10.7029438997
 20
7.5911452059
 30
0.0
 10
10.6955676311
 20
7.6031381518
 30
0.0
 10
10.6888941328
 20
7.6155047699
 30
0.0
 10
10.6829475072
 20
7.6282004602
 30
0.0
 10
10.6777492378
 20
7.6411794363
 30
0.0
 10
10.6733181284
 20
7.6543948805
 30
0.0
 10
10.669670193
 20
7.6677991434
 30
0.0
 10
10.6668186949
 20
7.681343796
 30
0.0
 10
10.6647739027
 20
7.6949802031
 30
0.0
 10
10.6635433744
 20
7.7086584272
 30
0.0
 10
10.663268233
 20
7.7177927628
 30
0.0
 10
10.663268233
 20
7.7223493322
 30
0.0
  0
SPLINE
  5
39D
100
AcDbEntity
  8
0
100
AcDbSpline
 62
7
  6
CONTINUOUS
 70
0
 71
3
 72
28
 73
24
 74
0
 42
0.0000001
 43
0.0000001
 44
0.0000000001
 40
0.0
 40
0.0
 40
0.0
 40
0.0
 40
0.0749525414
 40
0.1455492598
 40
0.2121319828
 40
0.2751267504
 40
0.3350537751
 40
0.3925311517
 40
0.4205831712
 40
0.4482964194
 40
0.4757713564
 40
0.5031112904
 40
0.5304212607
 40
0.5578066529
 40
0.585371914
 40
0.6132193169
 40
0.6414476915
 40
0.6701515776
 40
0.7293157133
 40
0.7913812221
 40
0.8568968201
 40
0.9263175734
 40
1.0
 40
1.0
 40
1.0
 40
1.0
 10
10.2786518404
 20
10.3056215108
 30
0.0
 10
10.2773033034
 20
10.3068764608
 30
0.0
 10
10.2747593564
 20
10.3093959547
 30
0.0
 10
10.27132678
 20
10.3133267282
 30
0.0
 10
10.2683997068
 20
10.3172886112
 30
0.0
 10
10.2659824596
 20
10.3212782859
 30
0.0
 10
10.2640791786
 20
10.3252917706
 30
0.0
 10
10.262915374
 20
10.3286814096
 30
0.0
 10
10.2622545193
 20
10.3313865552
 30
0.0
 10
10.2618925039
 20
10.3334014927
 30
0.0
 10
10.2616604389
 20
10.3354178612
 30
0.0
 10
10.2615584286
 20
10.3374350866
 30
0.0
 10
10.2615865267
 20
10.3394524937
 30
0.0
 10
10.2617446811
 20
10.3414694313
 30
0.0
 10
10.2620328451
 20
10.3434852529
 30
0.0
 10
10.2624509046
 20
10.3454992998
 30
0.0
 10
10.2629986726
 20
10.3475110148
 30
0.0
 10
10.2639106366
 20
10.3502161814
 30
0.0
 10
10.2653892821
 20
10.3536004466
 30
0.0
 10
10.2676608234
 20
10.357597005
 30
0.0
 10
10.2704434985
 20
10.3615672636
 30
0.0
 10
10.2737328554
 20
10.3655071009
 30
0.0
 10
10.2761849324
 20
10.368033202
 30
0.0
 10
10.2774874422
 20
10.36929133
 30
0.0
  0
SPLINE
  5
39E
100
AcDbEntity
  8
0
100
AcDbSpline
 62
7
  6
CONTINUOUS
 70
0
 71
3
 72
23
 73
19
 74
0
 42
0.0000001
 43
0.0000001
 44
0.0000000001
 40
0.0
 40
0.0
 40
0.0
 40
0.0
 40
0.0616994034
 40
0.1234251675
 40
0.1851973347
 40
0.2470354909
 40
0.3089585741
 40
0.3709846903
 40
0.4331309434
 40
0.4954132778
 40
0.557846327
 40
0.6204432945
 40
0.6832158241
 40
0.7461738639
 40
0.8093259129
 40
0.8726776493
 40
0.9362357225
 40
1.0
 40
1.0
 40
1.0
 40
1.0
 10
10.4355238589
 20
7.8790494641
 30
0.0
 10
10.4309531247
 20
7.8744997475
 30
0.0
 10
10.4220380253
 20
7.8651656326
 30
0.0
 10
10.4093862482
 20
7.8505041191
 30
0.0
 10
10.3974803884
 20
7.8352116719
 30
0.0
 10
10.3863473547
 20
7.8193227587
 30
0.0
 10
10.3760117664
 20
7.8028725794
 30
0.0
 10
10.3664966121
 20
7.7858977455
 30
0.0
 10
10.3578229978
 20
7.768435996
 30
0.0
 10
10.3500101717
 20
7.7505261559
 30
0.0
 10
10.3430754628
 20
7.7322080376
 30
0.0
 10
10.3370342494
 20
7.7135223542
 30
0.0
 10
10.3318999326
 20
7.6945106371
 30
0.0
 10
10.3276838533
 20
7.6752151088
 30
0.0
 10
10.3243953878
 20
7.6556787387
 30
0.0
 10
10.3220416727
 20
7.6359446381
 30
0.0
 10
10.3206280746
 20
7.6160573799
 30
0.0
 10
10.3203148812
 20
7.6027467942
 30
0.0
 10
10.3203148812
 20
7.5960818129
 30
0.0
  0
SPLINE
  5
39F
100
AcDbEntity
  8
0
100
AcDbSpline
 62
7
  6
CONTINUOUS
 70
0
 71
3
 72
21
 73
17
 74
0
 42
0.0000001
 43
0.0000001
 44
0.0000000001
 40
0.0
 40
0.0
 40
0.0
 40
0.0
 40
0.061714776
 40
0.123450665
 40
0.1852285542
 40
0.2470689029
 40
0.3089915446
 40
0.3710154752
 40
0.4331586565
 40
0.4954378535
 40
0.5578684954
 40
0.6204645019
 40
0.6832380654
 40
0.7461999575
 40
0.8726824794
 40
1.0
 40
1.0
 40
1.0
 40
1.0
 10
10.5898213896
 20
7.7431322612
 30
0.0
 10
10.5872980645
 20
7.7406949168
 30
0.0
 10
10.5823750686
 20
7.7356885559
 30
0.0
 10
10.5753852288
 20
7.7278078023
 30
0.0
 10
10.5688047826
 20
7.7195726237
 30
0.0
 10
10.5626491347
 20
7.7110023007
 30
0.0
 10
10.5569323992
 20
7.7021165372
 30
0.0
 10
10.5516678006
 20
7.6929358323
 30
0.0
 10
10.5468674509
 20
7.6834813684
 30
0.0
 10
10.5425423801
 20
7.673774973
 30
0.0
 10
10.5387025531
 20
7.663839006
 30
0.0
 10
10.5353568446
 20
7.6536964469
 30
0.0
 10
10.5325128698
 20
7.6433704264
 30
0.0
 10
10.5293942986
 20
7.6293709321
 30
0.0
 10
10.5267851273
 20
7.6115238302
 30
0.0
 10
10.5260942523
 20
7.5970869497
 30
0.0
 10
10.5260942523
 20
7.5898494337
 30
0.0
  0
SPLINE
  5
3A0
100
AcDbEntity
  8
0
100
AcDbSpline
 62
7
  6
CONTINUOUS
 70
0
 71
3
 72
11
 73
7
 74
0
 42
0.0000001
 43
0.0000001
 44
0.0000000001
 40
0.0
 40
0.0
 40
0.0
 40
0.0
 40
0.248070702
 40
0.4973757535
 40
0.7479993143
 40
1.0
 40
1.0
 40
1.0
 40
1.0
 10
10.6746457029
 20
7.7925233392
 30
0.0
 10
10.6727616132
 20
7.7869293085
 30
0.0
 10
10.6694484114
 20
7.7755510706
 30
0.0
 10
10.6658869979
 20
7.7580930829
 30
0.0
 10
10.6637425917
 20
7.7403110727
 30
0.0
 10
10.663268233
 20
7.7283456391
 30
0.0
 10
10.663268233
 20
7.7223493322
 30
0.0
  0
SPLINE
  5
3A1
100
AcDbEntity
  8
0
100
AcDbSpline
 62
7
  6
CONTINUOUS
 70
0
 71
3
 72
39
 73
35
 74
0
 42
0.0000001
 43
0.0000001
 44
0.0000000001
 40
0.0
 40
0.0
 40
0.0
 40
0.0
 40
0.0300266482
 40
0.0601523734
 40
0.0903885121
 40
0.1207444901
 40
0.151227683
 40
0.1818433167
 40
0.2125944077
 40
0.2434817417
 40
0.2745038907
 40
0.3056572639
 40
0.3369361925
 40
0.3683330435
 40
0.3998383605
 40
0.431441027
 40
0.4631284511
 40
0.4948867668
 40
0.52670105
 40
0.558555546
 40
0.5904339056
 40
0.622319428
 40
0.6541953067
 40
0.6860448769
 40
0.7178518618
 40
0.7496006144
 40
0.7812763535
 40
0.8128653852
 40
0.8443553337
 40
0.8757352835
 40
0.90699614
 40
0.9381302771
 40
0.9691329473
 40
1.0
 40
1.0
 40
1.0
 40
1.0
 10
10.9797216665
 20
7.5464518505
 30
0.0
 10
10.9762846352
 20
7.544935178
 30
0.0
 10
10.9692944386
 20
7.542128323
 30
0.0
 10
10.9585338421
 20
7.5386235935
 30
0.0
 10
10.9475237954
 20
7.5358313396
 30
0.0
 10
10.9363098361
 20
7.5337631352
 30
0.0
 10
10.9249375276
 20
7.5324272614
 30
0.0
 10
10.9134532751
 20
7.5318291004
 30
0.0
 10
10.9019038662
 20
7.531971003
 30
0.0
 10
10.8903363538
 20
7.532852313
 30
0.0
 10
10.878797846
 20
7.5344693643
 30
0.0
 10
10.8673353208
 20
7.5368154998
 30
0.0
 10
10.8559954347
 20
7.5398810983
 30
0.0
 10
10.844824335
 20
7.5436536184
 30
0.0
 10
10.8338674746
 20
7.5481176502
 30
0.0
 10
10.823169428
 20
7.5532549783
 30
0.0
 10
10.8127737131
 20
7.5590446568
 30
0.0
 10
10.8027226152
 20
7.5654630945
 30
0.0
 10
10.7930570171
 20
7.5724841504
 30
0.0
 10
10.7838162343
 20
7.5800792396
 30
0.0
 10
10.7750378566
 20
7.5882174494
 30
0.0
 10
10.7667575964
 20
7.5968656634
 30
0.0
 10
10.7590091448
 20
7.6059886962
 30
0.0
 10
10.7518240339
 20
7.6155494335
 30
0.0
 10
10.7452315095
 20
7.6255089832
 30
0.0
 10
10.739258414
 20
7.635826833
 30
0.0
 10
10.7339290788
 20
7.6464610133
 30
0.0
 10
10.7292652205
 20
7.6573682678
 30
0.0
 10
10.7252858674
 20
7.6685042211
 30
0.0
 10
10.7220072457
 20
7.6798235844
 30
0.0
 10
10.7194427944
 20
7.6912802356
 30
0.0
 10
10.7176029493
 20
7.7028277611
 30
0.0
 10
10.716495361
 20
7.714418476
 30
0.0
 10
10.7162475958
 20
7.7221615314
 30
0.0
 10
10.7162475958
 20
7.72602347
 30
0.0
  0
SPLINE
  5
3A2
100
AcDbEntity
  8
0
100
AcDbSpline
 62
7
  6
CONTINUOUS
 70
0
 71
3
 72
18
 73
14
 74
0
 42
0.0000001
 43
0.0000001
 44
0.0000000001
 40
0.0
 40
0.0
 40
0.0
 40
0.0
 40
0.0548626505
 40
0.1099292212
 40
0.1654012836
 40
0.2214755222
 40
0.3361333874
 40
0.4553634688
 40
0.517104949
 40
0.58043661
 40
0.7123312106
 40
0.8519577725
 40
1.0
 40
1.0
 40
1.0
 40
1.0
 10
10.2980748211
 20
10.3027520407
 30
0.0
 10
10.2980748227
 20
10.3033600267
 30
0.0
 10
10.2981134088
 20
10.3045786094
 30
0.0
 10
10.298286898
 20
10.3064044924
 30
0.0
 10
10.2985760317
 20
10.3082293589
 30
0.0
 10
10.2991193222
 20
10.3106779244
 30
0.0
 10
10.3000980774
 20
10.3137468219
 30
0.0
 10
10.3014385787
 20
10.3167432679
 30
0.0
 10
10.3027284507
 20
10.3191246268
 30
0.0
 10
10.3042054102
 20
10.3215605608
 30
0.0
 10
10.3063499862
 20
10.324595397
 30
0.0
 10
10.3093399169
 20
10.3281618026
 30
0.0
 10
10.3115637082
 20
10.3304502245
 30
0.0
 10
10.3127437164
 20
10.3315900249
 30
0.0
  0
SPLINE
  5
3A3
100
AcDbEntity
  8
0
100
AcDbSpline
 62
7
  6
CONTINUOUS
 70
0
 71
3
 72
42
 73
38
 74
0
 42
0.0000001
 43
0.0000001
 44
0.0000000001
 40
0.0
 40
0.0
 40
0.0
 40
0.0
 40
0.0299419634
 40
0.0449235299
 40
0.0599142017
 40
0.0899287029
 40
0.1200139772
 40
0.1350926626
 40
0.1501967046
 40
0.1804840506
 40
0.2108978877
 40
0.2414513551
 40
0.2721543675
 40
0.3030134354
 40
0.3340315696
 40
0.3652082675
 40
0.3965395775
 40
0.4280182343
 40
0.4596338596
 40
0.4913732188
 40
0.5232205284
 40
0.5551578047
 40
0.5871652463
 40
0.6192216448
 40
0.6513048151
 40
0.6833920402
 40
0.7154605222
 40
0.747487836
 40
0.7794523759
 40
0.8113337934
 40
0.8431134117
 40
0.8747746318
 40
0.9063032512
 40
0.9376879208
 40
0.9533258
 40
0.9689252634
 40
1.0
 40
1.0
 40
1.0
 40
1.0
 10
11.9473435379
 20
9.6276646983
 30
0.0
 10
11.9444901135
 20
9.6249085187
 30
0.0
 10
11.9400417792
 20
9.6209412617
 30
0.0
 10
11.9338119873
 20
9.6160187596
 30
0.0
 10
11.9273838078
 20
9.6113412088
 30
0.0
 10
11.9189960905
 20
9.605969865
 30
0.0
 10
11.9102005573
 20
9.6012714937
 30
0.0
 10
11.9029465219
 20
9.5979290678
 30
0.0
 10
11.8955426394
 20
9.5948625642
 30
0.0
 10
11.8860437939
 20
9.5915652061
 30
0.0
 10
11.8743379066
 20
9.5884921512
 30
0.0
 10
11.862376595
 20
9.5863151283
 30
0.0
 10
11.850226147
 20
9.5850461478
 30
0.0
 10
11.8379533076
 20
9.584691982
 30
0.0
 10
11.8256256054
 20
9.5852544333
 30
0.0
 10
11.8133107963
 20
9.5867302525
 30
0.0
 10
11.8010765447
 20
9.5891111858
 30
0.0
 10
11.7889900425
 20
9.5923840192
 30
0.0
 10
11.7771176491
 20
9.5965306574
 30
0.0
 10
11.7655245304
 20
9.6015282257
 30
0.0
 10
11.7542743073
 20
9.6073491971
 30
0.0
 10
11.7434287109
 20
9.6139615446
 30
0.0
 10
11.7330472484
 20
9.6213289163
 30
0.0
 10
11.7231868806
 20
9.6294108344
 30
0.0
 10
11.7139017135
 20
9.6381629155
 30
0.0
 10
11.7052427041
 20
9.6475371126
 30
0.0
 10
11.6972573844
 20
9.6574819758
 30
0.0
 10
11.6899896024
 20
9.6679429329
 30
0.0
 10
11.6834792839
 20
9.6788625818
 30
0.0
 10
11.677762215
 20
9.6901810151
 30
0.0
 10
11.6728698475
 20
9.7018360973
 30
0.0
 10
11.6688291173
 20
9.7137639748
 30
0.0
 10
11.6656623468
 20
9.7258987817
 30
0.0
 10
11.6637637976
 20
9.7361418743
 30
0.0
 10
11.6626987678
 20
9.744372075
 30
0.0
 10
11.6619386821
 20
9.7525944001
 30
0.0
 10
11.6617085355
 20
9.7587816444
 30
0.0
 10
11.6617085355
 20
9.762898917
 30
0.0
  0
SPLINE
  5
3A4
100
AcDbEntity
  8
0
100
AcDbSpline
 62
7
  6
CONTINUOUS
 70
0
 71
3
 72
18
 73
14
 74
0
 42
0.0000001
 43
0.0000001
 44
0.0000000001
 40
0.0
 40
0.0
 40
0.0
 40
0.0
 40
0.1504673397
 40
0.291710036
 40
0.4244360001
 40
0.5495624032
 40
0.6682140019
 40
0.7255497517
 40
0.7817912955
 40
0.8371402647
 40
0.891809381
 40
0.9460201143
 40
1.0
 40
1.0
 40
1.0
 40
1.0
 10
12.4488888253
 20
8.2540109186
 30
0.0
 10
12.4472067099
 20
8.2523861198
 30
0.0
 10
12.4438448596
 20
8.2493375752
 30
0.0
 10
12.4386390665
 20
8.2452748632
 30
0.0
 10
12.4334393836
 20
8.2418770158
 30
0.0
 10
12.4282511991
 20
8.2391496179
 30
0.0
 10
12.4238905928
 20
8.2374201284
 30
0.0
 10
12.4204284586
 20
8.2363925779
 30
0.0
 10
12.417868738
 20
8.2358003105
 30
0.0
 10
12.4153175106
 20
8.2353781785
 30
0.0
 10
12.4127754883
 20
8.2351263525
 30
0.0
 10
12.4102436852
 20
8.2350449463
 30
0.0
 10
12.4085616273
 20
8.2351044305
 30
0.0
 10
12.4077246356
 20
8.2351624723
 30
0.0
  0
SPLINE
  5
3A5
100
AcDbEntity
  8
0
100
AcDbSpline
 62
7
  6
CONTINUOUS
 70
0
 71
3
 72
42
 73
38
 74
0
 42
0.0000001
 43
0.0000001
 44
0.0000000001
 40
0.0
 40
0.0
 40
0.0
 40
0.0
 40
0.0299419634
 40
0.0449235299
 40
0.0599142017
 40
0.0899287029
 40
0.1200139772
 40
0.1350926626
 40
0.1501967046
 40
0.1804840506
 40
0.2108978877
 40
0.2414513551
 40
0.2721543675
 40
0.3030134354
 40
0.3340315696
 40
0.3652082675
 40
0.3965395775
 40
0.4280182343
 40
0.4596338596
 40
0.4913732188
 40
0.5232205284
 40
0.5551578047
 40
0.5871652463
 40
0.6192216448
 40
0.6513048151
 40
0.6833920402
 40
0.7154605222
 40
0.747487836
 40
0.7794523759
 40
0.8113337934
 40
0.8431134117
 40
0.8747746318
 40
0.9063032512
 40
0.9376879208
 40
0.9533258
 40
0.9689252634
 40
1.0
 40
1.0
 40
1.0
 40
1.0
 10
10.3777139771
 20
6.8986286384
 30
0.0
 10
10.3748605528
 20
6.8958724589
 30
0.0
 10
10.3704122185
 20
6.8919052019
 30
0.0
 10
10.3641824266
 20
6.8869826998
 30
0.0
 10
10.3577542471
 20
6.882305149
 30
0.0
 10
10.3493665298
 20
6.8769338052
 30
0.0
 10
10.3405709966
 20
6.8722354339
 30
0.0
 10
10.3333169612
 20
6.8688930079
 30
0.0
 10
10.3259130787
 20
6.8658265043
 30
0.0
 10
10.3164142332
 20
6.8625291463
 30
0.0
 10
10.3047083459
 20
6.8594560914
 30
0.0
 10
10.2927470343
 20
6.8572790685
 30
0.0
 10
10.2805965863
 20
6.856010088
 30
0.0
 10
10.2683237469
 20
6.8556559222
 30
0.0
 10
10.2559960447
 20
6.8562183734
 30
0.0
 10
10.2436812356
 20
6.8576941927
 30
0.0
 10
10.231446984
 20
6.860075126
 30
0.0
 10
10.2193604818
 20
6.8633479594
 30
0.0
 10
10.2074880883
 20
6.8674945976
 30
0.0
 10
10.1958949697
 20
6.8724921659
 30
0.0
 10
10.1846447466
 20
6.8783131373
 30
0.0
 10
10.1737991502
 20
6.8849254848
 30
0.0
 10
10.1634176877
 20
6.8922928565
 30
0.0
 10
10.1535573199
 20
6.9003747746
 30
0.0
 10
10.1442721528
 20
6.9091268557
 30
0.0
 10
10.1356131434
 20
6.9185010528
 30
0.0
 10
10.1276278237
 20
6.928445916
 30
0.0
 10
10.1203600417
 20
6.9389068731
 30
0.0
 10
10.1138497232
 20
6.949826522
 30
0.0
 10
10.1081326542
 20
6.9611449553
 30
0.0
 10
10.1032402867
 20
6.9728000375
 30
0.0
 10
10.0991995566
 20
6.984727915
 30
0.0
 10
10.0960327861
 20
6.9968627219
 30
0.0
 10
10.0941342368
 20
7.0071058145
 30
0.0
 10
10.093069207
 20
7.0153360152
 30
0.0
 10
10.0923091214
 20
7.0235583403
 30
0.0
 10
10.0920789748
 20
7.0297455845
 30
0.0
 10
10.0920789748
 20
7.0338628572
 30
0.0
  0
SPLINE
  5
3A6
100
AcDbEntity
  8
0
100
AcDbSpline
 62
7
  6
CONTINUOUS
 70
0
 71
3
 72
88
 73
84
 74
0
 42
0.0000001
 43
0.0000001
 44
0.0000000001
 40
0.0
 40
0.0
 40
0.0
 40
0.0
 40
0.0039385771
 40
0.008040498
 40
0.0123092759
 40
0.0167478965
 40
0.021358873
 40
0.0261441438
 40
0.0311050106
 40
0.0362423567
 40
0.0415566314
 40
0.0470479395
 40
0.0527160572
 40
0.0585604156
 40
0.0645802166
 40
0.0707743577
 40
0.0836798495
 40
0.0972642747
 40
0.1115115545
 40
0.1264029602
 40
0.1419174104
 40
0.1580317106
 40
0.1747207585
 40
0.1919577273
 40
0.2097142195
 40
0.2279604045
 40
0.2466651434
 40
0.2657961005
 40
0.2853198566
 40
0.305202016
 40
0.3254073068
 40
0.3458996773
 40
0.3666423896
 40
0.3875981109
 40
0.4087290096
 40
0.4299968474
 40
0.4513630683
 40
0.4942347376
 40
0.5370332801
 40
0.5583082567
 40
0.5794486483
 40
0.6004161926
 40
0.6211730305
 40
0.6416817987
 40
0.661905721
 40
0.6818086997
 40
0.7013554106
 40
0.7205113992
 40
0.7392431856
 40
0.7575183691
 40
0.7753057334
 40
0.7925753624
 40
0.809298764
 40
0.8254490083
 40
0.8410008881
 40
0.8559310906
 40
0.8702183963
 40
0.8838439214
 40
0.8967914115
 40
0.9030068237
 40
0.9090480465
 40
0.9149139527
 40
0.9206036917
 40
0.9261166916
 40
0.9314526531
 40
0.9366116564
 40
0.9415940975
 40
0.9464008204
 40
0.9510331048
 40
0.9554927295
 40
0.9597820774
 40
0.9639041269
 40
0.9678626301
 40
0.9716621234
 40
0.9753080779
 40
0.9788070144
 40
0.9821665795
 40
0.98539574
 40
0.9885048207
 40
0.9915056561
 40
0.9944116179
 40
0.9972376074
 40
1.0
 40
1.0
 40
1.0
 40
1.0
 10
12.4334340104
 20
8.2550827136
 30
0.0
 10
12.4345873655
 20
8.2561967691
 30
0.0
 10
12.4368928601
 20
8.2585223174
 30
0.0
 10
12.440280134
 20
8.2622173421
 30
0.0
 10
12.4436639497
 20
8.2661870691
 30
0.0
 10
12.4470425555
 20
8.2704294205
 30
0.0
 10
12.4504144412
 20
8.2749423977
 30
0.0
 10
12.4537780144
 20
8.2797239018
 30
0.0
 10
12.4571317412
 20
8.2847716354
 30
0.0
 10
12.4604739559
 20
8.2900832035
 30
0.0
 10
12.4638030888
 20
8.2956560397
 30
0.0
 10
12.4671175387
 20
8.3014874769
 30
0.0
 10
12.4704156941
 20
8.3075747249
 30
0.0
 10
12.4736960004
 20
8.3139148409
 30
0.0
 10
12.4769568458
 20
8.3205047965
 30
0.0
 10
12.4813366111
 20
8.3297470268
 30
0.0
 10
12.4867418506
 20
8.3419091736
 30
0.0
 10
12.4930402751
 20
8.3572544884
 30
0.0
 10
12.4992242185
 20
8.3735142356
 30
0.0
 10
12.505281656
 20
8.3906570257
 30
0.0
 10
12.511200803
 20
8.4086499027
 30
0.0
 10
12.5169701384
 20
8.4274581583
 30
0.0
 10
12.5225784348
 20
8.4470454832
 30
0.0
 10
12.528014776
 20
8.4673740283
 30
0.0
 10
12.5332685818
 20
8.4884044908
 30
0.0
 10
12.5383296286
 20
8.5100961923
 30
0.0
 10
12.543188068
 20
8.5324071594
 30
0.0
 10
12.5478344521
 20
8.5552942045
 30
0.0
 10
12.5522597489
 20
8.5787130134
 30
0.0
 10
12.5564553563
 20
8.602618236
 30
0.0
 10
12.5604131204
 20
8.6269635756
 30
0.0
 10
12.5641253503
 20
8.6517018788
 30
0.0
 10
12.5675848318
 20
8.6767852251
 30
0.0
 10
12.5707848505
 20
8.7021650237
 30
0.0
 10
12.5737191884
 20
8.7277920951
 30
0.0
 10
12.5763821751
 20
8.7536168232
 30
0.0
 10
12.5795674579
 20
8.7882839774
 30
0.0
 10
12.5828355551
 20
8.8317435534
 30
0.0
 10
12.585146979
 20
8.8752273273
 30
0.0
 10
12.5864099764
 20
8.9098987136
 30
0.0
 10
12.5870593638
 20
8.935696672
 30
0.0
 10
12.5874115566
 20
8.9612894105
 30
0.0
 10
12.587465864
 20
8.9866273814
 30
0.0
 10
12.5872222052
 20
9.0116614876
 30
0.0
 10
12.5866810716
 20
9.0363432365
 30
0.0
 10
12.5858435351
 20
9.0606248177
 30
0.0
 10
12.5847112444
 20
9.0844591994
 30
0.0
 10
12.5832864217
 20
9.1078002208
 30
0.0
 10
12.5815718637
 20
9.1306026852
 30
0.0
 10
12.5795709357
 20
9.1528224498
 30
0.0
 10
12.5772875616
 20
9.1744165111
 30
0.0
 10
12.5747262171
 20
9.195343089
 30
0.0
 10
12.5718919219
 20
9.2155617103
 30
0.0
 10
12.5687902277
 20
9.235033293
 30
0.0
 10
12.5654272161
 20
9.2537202364
 30
0.0
 10
12.5618094781
 20
9.27158648
 30
0.0
 10
12.5579441039
 20
9.2885976525
 30
0.0
 10
12.5538386406
 20
9.3047208955
 30
0.0
 10
12.5501759517
 20
9.3175603438
 30
0.0
 10
12.547123255
 20
9.3273577217
 30
0.0
 10
12.5448099396
 20
9.3343644637
 30
0.0
 10
12.5424427402
 20
9.3411268539
 30
0.0
 10
12.5400227858
 20
9.347641646
 30
0.0
 10
12.5375512708
 20
9.3539057093
 30
0.0
 10
12.5350293393
 20
9.3599160237
 30
0.0
 10
12.5324582593
 20
9.3656697217
 30
0.0
 10
12.5298392091
 20
9.3711640334
 30
0.0
 10
12.5271734686
 20
9.3763963426
 30
0.0
 10
12.5244622985
 20
9.3813641552
 30
0.0
 10
12.5217069435
 20
9.3860650924
 30
0.0
 10
12.5189087424
 20
9.390496947
 30
0.0
 10
12.5160689197
 20
9.3946575834
 30
0.0
 10
12.5131888228
 20
9.3985450564
 30
0.0
 10
12.5102697106
 20
9.4021575014
 30
0.0
 10
12.5073128616
 20
9.405493179
 30
0.0
 10
12.5043195905
 20
9.4085505009
 30
0.0
 10
12.5012911042
 20
9.4113278883
 30
0.0
 10
12.4982287392
 20
9.413823965
 30
0.0
 10
12.4951337175
 20
9.4160373122
 30
0.0
 10
12.492007403
 20
9.4179666332
 30
0.0
 10
12.4888510947
 20
9.4196107156
 30
0.0
 10
12.485666566
 20
9.4209682155
 30
0.0
 10
12.483505032
 20
9.4216883775
 30
0.0
 10
12.4824238222
 20
9.4219980154
 30
0.0
  0
SPLINE
  5
3A7
100
AcDbEntity
  8
0
100
AcDbSpline
 62
7
  6
CONTINUOUS
 70
0
 71
3
 72
15
 73
11
 74
0
 42
0.0000001
 43
0.0000001
 44
0.0000000001
 40
0.0
 40
0.0
 40
0.0
 40
0.0
 40
0.1467556313
 40
0.2862151517
 40
0.4187841468
 40
0.5449781079
 40
0.6654150807
 40
0.7808201665
 40
0.8920314677
 40
1.0
 40
1.0
 40
1.0
 40
1.0
 10
12.4334340104
 20
8.2550827136
 30
0.0
 10
12.4320701828
 20
8.2537653572
 30
0.0
 10
12.4293438524
 20
8.2512635447
 30
0.0
 10
12.4251487699
 20
8.247840876
 30
0.0
 10
12.4209577026
 20
8.2448493137
 30
0.0
 10
12.416773529
 20
8.2422915091
 30
0.0
 10
12.4125987589
 20
8.2401698835
 30
0.0
 10
12.4084359407
 20
8.2384866912
 30
0.0
 10
12.4042886091
 20
8.2372444671
 30
0.0
 10
12.4015024911
 20
8.2367051977
 30
0.0
 10
12.4001207612
 20
8.2365131229
 30
0.0
  0
SPLINE
  5
3A8
100
AcDbEntity
  8
0
100
AcDbSpline
 62
7
  6
CONTINUOUS
 70
0
 71
3
 72
23
 73
19
 74
0
 42
0.0000001
 43
0.0000001
 44
0.0000000001
 40
0.0
 40
0.0
 40
0.0
 40
0.0
 40
0.0755970481
 40
0.1466395192
 40
0.2134651039
 40
0.2765141432
 40
0.3363266137
 40
0.3935468688
 40
0.4489231172
 40
0.5032882226
 40
0.5575261408
 40
0.6125274601
 40
0.6691434874
 40
0.7281489695
 40
0.7902195499
 40
0.8559235776
 40
0.9257266248
 40
1.0
 40
1.0
 40
1.0
 40
1.0
 10
12.4334340104
 20
8.4289493726
 30
0.0
 10
12.4322806098
 20
8.4278352731
 30
0.0
 10
12.4299753591
 20
8.4257426587
 30
0.0
 10
12.4264077455
 20
8.4229470756
 30
0.0
 10
12.4228443318
 20
8.4205991671
 30
0.0
 10
12.4192883576
 20
8.4187025008
 30
0.0
 10
12.4157428298
 20
8.4172604316
 30
0.0
 10
12.4122113608
 20
8.4162766426
 30
0.0
 10
12.4086986238
 20
8.4157544451
 30
0.0
 10
12.4052104464
 20
8.4156964562
 30
0.0
 10
12.4017535349
 20
8.4161034063
 30
0.0
 10
12.3983346006
 20
8.4169741849
 30
0.0
 10
12.3949594381
 20
8.4183057914
 30
0.0
 10
12.3916325223
 20
8.4200943568
 30
0.0
 10
12.3883572432
 20
8.4223358161
 30
0.0
 10
12.3851361944
 20
8.4250262192
 30
0.0
 10
12.3819720513
 20
8.4281616702
 30
0.0
 10
12.3799666426
 20
8.4304718433
 30
0.0
 10
12.3789725314
 20
8.4316941479
 30
0.0
  0
SPLINE
  5
3A9
100
AcDbEntity
  8
0
100
AcDbSpline
 62
7
  6
CONTINUOUS
 70
0
 71
3
 72
18
 73
14
 74
0
 42
0.0000001
 43
0.0000001
 44
0.0000000001
 40
0.0
 40
0.0
 40
0.0
 40
0.0
 40
0.150467008
 40
0.2917141408
 40
0.4244426259
 40
0.4879099277
 40
0.549609295
 40
0.6682624161
 40
0.7817883561
 40
0.8371380822
 40
0.8918079419
 40
0.9460193459
 40
1.0
 40
1.0
 40
1.0
 40
1.0
 10
12.3947969751
 20
8.4702658955
 30
0.0
 10
12.3937368274
 20
8.4692418715
 30
0.0
 10
12.3916179542
 20
8.4673204967
 30
0.0
 10
12.3883371146
 20
8.4647600097
 30
0.0
 10
12.3855658699
 20
8.4629491026
 30
0.0
 10
12.3833560599
 20
8.4617228045
 30
0.0
 10
12.3812112596
 20
8.4606699977
 30
0.0
 10
12.378529577
 20
8.4596061719
 30
0.0
 10
12.375800194
 20
8.4588801863
 30
0.0
 10
12.3736384355
 20
8.4585225693
 30
0.0
 10
12.3720362781
 20
8.4583638265
 30
0.0
 10
12.3704405995
 20
8.458312562
 30
0.0
 10
12.3693804709
 20
8.4583500648
 30
0.0
 10
12.3688529511
 20
8.4583866471
 30
0.0
  0
SPLINE
  5
3AA
100
AcDbEntity
  8
0
100
AcDbSpline
 62
7
  6
CONTINUOUS
 70
0
 71
3
 72
23
 73
19
 74
0
 42
0.0000001
 43
0.0000001
 44
0.0000000001
 40
0.0
 40
0.0
 40
0.0
 40
0.0
 40
0.0637775561
 40
0.1273446565
 40
0.1907020307
 40
0.2538561431
 40
0.3168131834
 40
0.3795821015
 40
0.4421733894
 40
0.5045993415
 40
0.5668738676
 40
0.6290123791
 40
0.6910316472
 40
0.7529496401
 40
0.8147853492
 40
0.8765585998
 40
0.9382898533
 40
1.0
 40
1.0
 40
1.0
 40
1.0
 10
10.3161737797
 20
7.5920818157
 30
0.0
 10
10.3161737797
 20
7.5988705375
 30
0.0
 10
10.316498697
 20
7.6124278805
 30
0.0
 10
10.3179653161
 20
7.6326814612
 30
0.0
 10
10.3204071738
 20
7.6527744395
 30
0.0
 10
10.3238185413
 20
7.6726597722
 30
0.0
 10
10.3281917073
 20
7.6922918932
 30
0.0
 10
10.3335165841
 20
7.711625457
 30
0.0
 10
10.3397809675
 20
7.7306159114
 30
0.0
 10
10.3469704535
 20
7.7492194559
 30
0.0
 10
10.3550685002
 20
7.7673931879
 30
0.0
 10
10.3640564671
 20
7.7850951904
 30
0.0
 10
10.373913654
 20
7.8022846267
 30
0.0
 10
10.3846173646
 20
7.8189218502
 30
0.0
 10
10.3961428993
 20
7.834968442
 30
0.0
 10
10.4084638286
 20
7.8503875028
 30
0.0
 10
10.421551248
 20
7.8651429856
 30
0.0
 10
10.4307688302
 20
7.8745165982
 30
0.0
 10
10.4354933741
 20
7.8790801456
 30
0.0
  0
SPLINE
  5
3AB
100
AcDbEntity
  8
0
100
AcDbSpline
 62
7
  6
CONTINUOUS
 70
0
 71
3
 72
91
 73
87
 74
0
 42
0.0000001
 43
0.0000001
 44
0.0000000001
 40
0.0
 40
0.0
 40
0.0
 40
0.0
 40
0.0027164149
 40
0.0054532017
 40
0.0082302519
 40
0.0110665199
 40
0.0139797039
 40
0.0169859829
 40
0.0200999141
 40
0.0233344008
 40
0.0267007145
 40
0.0302086362
 40
0.0338665065
 40
0.0376814358
 40
0.0416593677
 40
0.0458052497
 40
0.0501231396
 40
0.0546162795
 40
0.059287253
 40
0.0641379749
 40
0.0691698569
 40
0.0743837851
 40
0.0797802236
 40
0.0853592475
 40
0.091120549
 40
0.0970635401
 40
0.1031872872
 40
0.1094906342
 40
0.122629771
 40
0.1364673248
 40
0.150986028
 40
0.1661658166
 40
0.1819841497
 40
0.1984162706
 40
0.2154354241
 40
0.2330130434
 40
0.251118914
 40
0.2697213196
 40
0.2887871741
 40
0.3082821495
 40
0.3281707942
 40
0.3484166458
 40
0.3689823383
 40
0.3898297074
 40
0.4109198931
 40
0.4322134396
 40
0.4536703979
 40
0.4752504252
 40
0.496912883
 40
0.5186169358
 40
0.5403216477
 40
0.5619860811
 40
0.5835693946
 40
0.6050309417
 40
0.6263303693
 40
0.647427715
 40
0.6682835069
 40
0.6888588628
 40
0.7091155924
 40
0.7290163019
 40
0.7485244988
 40
0.7676046989
 40
0.7862225381
 40
0.8043448897
 40
0.8219399883
 40
0.8389775652
 40
0.8554289983
 40
0.8712674731
 40
0.8864681675
 40
0.9010084679
 40
0.9148682273
 40
0.928030078
 40
0.9343449249
 40
0.9404802778
 40
0.9464349222
 40
0.9522079436
 40
0.9577987067
 40
0.9632068911
 40
0.9684325654
 40
0.9734761401
 40
0.9783384911
 40
0.9830209352
 40
0.9875254368
 40
0.9918546053
 40
0.9960115672
 40
1.0
 40
1.0
 40
1.0
 40
1.0
 10
12.4900530149
 20
9.4223111662
 30
0.0
 10
12.4911635099
 20
9.4222341582
 30
0.0
 10
12.4933871412
 20
9.421979054
 30
0.0
 10
12.4966942906
 20
9.4212964283
 30
0.0
 10
12.4999764284
 20
9.4203138473
 30
0.0
 10
12.5032312558
 20
9.4190323809
 30
0.0
 10
12.5064570473
 20
9.4174530613
 30
0.0
 10
12.5096521833
 20
9.4155771987
 30
0.0
 10
12.5128151791
 20
9.4134060986
 30
0.0
 10
12.5159446129
 20
9.4109411253
 30
0.0
 10
12.5190391759
 20
9.4081837615
 30
0.0
 10
12.5220974707
 20
9.4051354537
 30
0.0
 10
12.5251182315
 20
9.401797853
 30
0.0
 10
12.5281000575
 20
9.3981726032
 30
0.0
 10
12.5310416377
 20
9.3942615421
 30
0.0
 10
12.5339416026
 20
9.3900665918
 30
0.0
 10
12.5367985721
 20
9.3855898106
 30
0.0
 10
12.5396112282
 20
9.3808334213
 30
0.0
 10
12.5423781542
 20
9.375799741
 30
0.0
 10
12.5450980658
 20
9.3704912804
 30
0.0
 10
12.5477695734
 20
9.3649106449
 30
0.0
 10
12.550391392
 20
9.3590606142
 30
0.0
 10
12.5529622105
 20
9.35294409
 30
0.0
 10
12.5554807315
 20
9.3465641137
 30
0.0
 10
12.5579457349
 20
9.3399238725
 30
0.0
 10
12.5603559294
 20
9.3330266734
 30
0.0
 10
12.5627101818
 20
9.3258759631
 30
0.0
 10
12.5658159329
 20
9.3158696294
 30
0.0
 10
12.5695387434
 20
9.302747265
 30
0.0
 10
12.5737052087
 20
9.2862590616
 30
0.0
 10
12.5776218715
 20
9.2688516955
 30
0.0
 10
12.5812807854
 20
9.2505600646
 30
0.0
 10
12.5846745061
 20
9.2314207018
 30
0.0
 10
12.5877961285
 20
9.2114719507
 30
0.0
 10
12.5906392985
 20
9.1907538002
 30
0.0
 10
12.593198228
 20
9.1693078193
 30
0.0
 10
12.5954677074
 20
9.1471770605
 30
0.0
 10
12.5974431145
 20
9.1244059727
 30
0.0
 10
12.5991204286
 20
9.101040308
 30
0.0
 10
12.6004962336
 20
9.0771270257
 30
0.0
 10
12.6015677252
 20
9.0527141944
 30
0.0
 10
12.6023327153
 20
9.0278508935
 30
0.0
 10
12.6027896367
 20
9.0025871135
 30
0.0
 10
12.6029375454
 20
8.9769736547
 30
0.0
 10
12.6027761221
 20
8.9510620251
 30
0.0
 10
12.6023056761
 20
8.9249043361
 30
0.0
 10
12.6015271416
 20
8.898553196
 30
0.0
 10
12.6004420747
 20
8.8720616033
 30
0.0
 10
12.5990526508
 20
8.8454828395
 30
0.0
 10
12.5973616597
 20
8.8188703621
 30
0.0
 10
12.5953725003
 20
8.7922776974
 30
0.0
 10
12.5930891732
 20
8.7657583317
 30
0.0
 10
12.5905162763
 20
8.7393656033
 30
0.0
 10
12.5876589923
 20
8.7131525939
 30
0.0
 10
12.5845230782
 20
8.6871720223
 30
0.0
 10
12.5811148538
 20
8.6614761378
 30
0.0
 10
12.5774411892
 20
8.6361166151
 30
0.0
 10
12.5735094914
 20
8.61114445
 30
0.0
 10
12.5693276888
 20
8.5866098553
 30
0.0
 10
12.5649042191
 20
8.5625621572
 30
0.0
 10
12.5602480097
 20
8.5390496958
 30
0.0
 10
12.5553684593
 20
8.516119727
 30
0.0
 10
12.5502754197
 20
8.4938183266
 30
0.0
 10
12.5449791761
 20
8.4721902957
 30
0.0
 10
12.5394904266
 20
8.4512790681
 30
0.0
 10
12.5338202597
 20
8.431126617
 30
0.0
 10
12.5279801355
 20
8.4117733661
 30
0.0
 10
12.5219818577
 20
8.3932580968
 30
0.0
 10
12.5158375483
 20
8.3756178862
 30
0.0
 10
12.509559617
 20
8.3588879464
 30
0.0
 10
12.5031607382
 20
8.3431018081
 30
0.0
 10
12.4976651371
 20
8.3305924088
 30
0.0
 10
12.4932100055
 20
8.3210888329
 30
0.0
 10
12.4898926244
 20
8.3143150024
 30
0.0
 10
12.4865546832
 20
8.3077997767
 30
0.0
 10
12.4831978514
 20
8.3015463999
 30
0.0
 10
12.4798238178
 20
8.295557993
 30
0.0
 10
12.4764342406
 20
8.2898375491
 30
0.0
 10
12.4730308482
 20
8.2843878948
 30
0.0
 10
12.4696152773
 20
8.2792117678
 30
0.0
 10
12.4661892878
 20
8.2743117184
 30
0.0
 10
12.4627545216
 20
8.2696901841
 30
0.0
 10
12.4593126473
 20
8.2653494126
 30
0.0
 10
12.4558652747
 20
8.2612915085
 30
0.0
 10
12.4524142284
 20
8.2575186744
 30
0.0
 10
12.4500643915
 20
8.2551464284
 30
0.0
 10
12.4488888253
 20
8.2540109186
 30
0.0
  0
SPLINE
  5
3AC
100
AcDbEntity
  8
0
100
AcDbSpline
 62
7
  6
CONTINUOUS
 70
0
 71
3
 72
92
 73
88
 74
0
 42
0.0000001
 43
0.0000001
 44
0.0000000001
 40
0.0
 40
0.0
 40
0.0
 40
0.0
 40
0.0042067366
 40
0.0086075244
 40
0.0132068283
 40
0.0180083448
 40
0.0230150823
 40
0.0282292321
 40
0.0336521258
 40
0.0392845348
 40
0.0451266321
 40
0.0511781492
 40
0.0574383514
 40
0.0639060741
 40
0.0705798373
 40
0.077457758
 40
0.0918168161
 40
0.1069632118
 40
0.1228724598
 40
0.1395166315
 40
0.1568647495
 40
0.1748831121
 40
0.1935355649
 40
0.21278374
 40
0.2325872776
 40
0.25290402
 40
0.2736901926
 40
0.2949005737
 40
0.3164886563
 40
0.3384068041
 40
0.3606064109
 40
0.3830380523
 40
0.4056516338
 40
0.451220911
 40
0.4969065388
 40
0.5196652416
 40
0.5422994728
 40
0.5647585554
 40
0.5869923134
 40
0.6089512217
 40
0.6305865578
 40
0.65185055
 40
0.6726965308
 40
0.6930790933
 40
0.7129542534
 40
0.7322796223
 40
0.7510145912
 40
0.7691205189
 40
0.7865609415
 40
0.8033018079
 40
0.8193117499
 40
0.8345624012
 40
0.8490287911
 40
0.8626898153
 40
0.8692132197
 40
0.8755294441
 40
0.8816372756
 40
0.8875358419
 40
0.8932247283
 40
0.8987040149
 40
0.903974277
 40
0.9090367625
 40
0.9138933332
 40
0.9185466869
 40
0.9230003746
 40
0.927258958
 40
0.9313281896
 40
0.9352150892
 40
0.9389282476
 40
0.9424779032
 40
0.9458762283
 40
0.9491374667
 40
0.9522780607
 40
0.9553167475
 40
0.9582744218
 40
0.9611739598
 40
0.9640397557
 40
0.9668971558
 40
0.9697717436
 40
0.972688619
 40
0.9756717075
 40
0.9787432566
 40
0.9852254055
 40
0.9886743218
 40
0.9922790758
 40
0.9960512115
 40
1.0
 40
1.0
 40
1.0
 40
1.0
 10
12.4334340104
 20
8.4289493726
 30
0.0
 10
12.4343302048
 20
8.42981503
 30
0.0
 10
12.4361214028
 20
8.4316307294
 30
0.0
 10
12.4387468951
 20
8.4345318932
 30
0.0
 10
12.441369057
 20
8.4376693368
 30
0.0
 10
12.4439862347
 20
8.4410410409
 30
0.0
 10
12.446596986
 20
8.4446450576
 30
0.0
 10
12.4491997949
 20
8.4484793142
 30
0.0
 10
12.4517931929
 20
8.4525415417
 30
0.0
 10
12.454375582
 20
8.4568293637
 30
0.0
 10
12.4569454799
 20
8.4613402201
 30
0.0
 10
12.4595013388
 20
8.4660714535
 30
0.0
 10
12.4620416421
 20
8.471020259
 30
0.0
 10
12.4645648933
 20
8.4761836897
 30
0.0
 10
12.4670695639
 20
8.481558692
 30
0.0
 10
12.4704307051
 20
8.4891119059
 30
0.0
 10
12.4745664536
 20
8.4990652832
 30
0.0
 10
12.4793633832
 20
8.5116341578
 30
0.0
 10
12.4840514026
 20
8.5249636349
 30
0.0
 10
12.4886192378
 20
8.5390219197
 30
0.0
 10
12.4930558927
 20
8.5537755939
 30
0.0
 10
12.4973506852
 20
8.5691894814
 30
0.0
 10
12.5014932769
 20
8.5852268049
 30
0.0
 10
12.5054737009
 20
8.6018492626
 30
0.0
 10
12.5092823818
 20
8.6190171342
 30
0.0
 10
12.5129101601
 20
8.63668938
 30
0.0
 10
12.5163483137
 20
8.654823742
 30
0.0
 10
12.5195885787
 20
8.6733768469
 30
0.0
 10
12.5226231681
 20
8.692304309
 30
0.0
 10
12.5254447975
 20
8.7115608416
 30
0.0
 10
12.5280466864
 20
8.7311003549
 30
0.0
 10
12.5304226172
 20
8.750876119
 30
0.0
 10
12.5332887124
 20
8.7775625903
 30
0.0
 10
12.5362653073
 20
8.8111616278
 30
0.0
 10
12.5384244105
 20
8.8448661114
 30
0.0
 10
12.5396529835
 20
8.8718154952
 30
0.0
 10
12.5403194355
 20
8.8919022519
 30
0.0
 10
12.5407305331
 20
8.9118403235
 30
0.0
 10
12.540885283
 20
8.9315820244
 30
0.0
 10
12.5407833375
 20
8.9510800964
 30
0.0
 10
12.5404249631
 20
8.9702878808
 30
0.0
 10
12.5398110447
 20
8.9891594154
 30
0.0
 10
12.538943083
 20
9.0076495485
 30
0.0
 10
12.5378231915
 20
9.0257140465
 30
0.0
 10
12.5364540919
 20
9.0433097023
 30
0.0
 10
12.5348391087
 20
9.060394443
 30
0.0
 10
12.5329821665
 20
9.0769274348
 30
0.0
 10
12.5308877752
 20
9.0928691845
 30
0.0
 10
12.5285610201
 20
9.1081816354
 30
0.0
 10
12.5260075501
 20
9.1228282712
 30
0.0
 10
12.5232335614
 20
9.1367741909
 30
0.0
 10
12.520245784
 20
9.1499862847
 30
0.0
 10
12.5170514456
 20
9.1624330705
 30
0.0
 10
12.5141814115
 20
9.1722892628
 30
0.0
 10
12.5117795793
 20
9.1797624895
 30
0.0
 10
12.509959106
 20
9.185071522
 30
0.0
 10
12.5080929373
 20
9.1901680383
 30
0.0
 10
12.5061821361
 20
9.1950490184
 30
0.0
 10
12.5042278447
 20
9.1997115674
 30
0.0
 10
12.5022312458
 20
9.204152938
 30
0.0
 10
12.5001934661
 20
9.2083704945
 30
0.0
 10
12.4981157599
 20
9.212361777
 30
0.0
 10
12.4959992751
 20
9.2161244238
 30
0.0
 10
12.4938452669
 20
9.2196562491
 30
0.0
 10
12.4916549439
 20
9.2229551897
 30
0.0
 10
12.4894295032
 20
9.2260193065
 30
0.0
 10
12.4871702077
 20
9.2288468403
 30
0.0
 10
12.4848781906
 20
9.2314360764
 30
0.0
 10
12.482554707
 20
9.2337855093
 30
0.0
 10
12.4802008794
 20
9.2358936375
 30
0.0
 10
12.4778179022
 20
9.2377590895
 30
0.0
 10
12.4754069734
 20
9.2393805489
 30
0.0
 10
12.4729693039
 20
9.2407566618
 30
0.0
 10
12.4705062973
 20
9.2418862585
 30
0.0
 10
12.4680194241
 20
9.2427680558
 30
0.0
 10
12.4655104512
 20
9.2434010979
 30
0.0
 10
12.4629813013
 20
9.2437845276
 30
0.0
 10
12.4604340969
 20
9.2439178715
 30
0.0
 10
12.4578709995
 20
9.2438011002
 30
0.0
 10
12.4552941822
 20
9.2434344434
 30
0.0
 10
12.4527054506
 20
9.2428185642
 30
0.0
 10
12.4491781904
 20
9.2416455722
 30
0.0
 10
12.4456878637
 20
9.239975853
 30
0.0
 10
12.4422668547
 20
9.2378821391
 30
0.0
 10
12.4396429426
 20
9.2360350378
 30
0.0
 10
12.4370166743
 20
9.2339453723
 30
0.0
 10
12.4353050096
 20
9.2324270023
 30
0.0
 10
12.4344488216
 20
9.2316301892
 30
0.0
  0
SPLINE
  5
3AD
100
AcDbEntity
  8
0
100
AcDbSpline
 62
7
  6
CONTINUOUS
 70
0
 71
3
 72
21
 73
17
 74
0
 42
0.0000001
 43
0.0000001
 44
0.0000000001
 40
0.0
 40
0.0
 40
0.0
 40
0.0
 40
0.1273176984
 40
0.2537999461
 40
0.3167619614
 40
0.3795355204
 40
0.4421314992
 40
0.5045621453
 40
0.5668413456
 40
0.6289845231
 40
0.6910084433
 40
0.7529310869
 40
0.8147714401
 40
0.8765493236
 40
0.9382852134
 40
1.0
 40
1.0
 40
1.0
 40
1.0
 10
11.6617085355
 20
9.762898917
 30
0.0
 10
11.6617085355
 20
9.7681962092
 30
0.0
 10
11.6622141974
 20
9.778762852
 30
0.0
 10
11.6641239403
 20
9.7918255036
 30
0.0
 10
11.666406488
 20
9.8020720098
 30
0.0
 10
11.6684880524
 20
9.8096298378
 30
0.0
 10
11.6709368884
 20
9.8170533671
 30
0.0
 10
11.6737473501
 20
9.8243256955
 30
0.0
 10
11.676912958
 20
9.8314300035
 30
0.0
 10
11.6804264765
 20
9.8383498946
 30
0.0
 10
11.6842797777
 20
9.8450694174
 30
0.0
 10
11.6884639751
 20
9.8515730861
 30
0.0
 10
11.6929694596
 20
9.8578458511
 30
0.0
 10
11.697785869
 20
9.8638733064
 30
0.0
 10
11.7029018821
 20
9.869641384
 30
0.0
 10
11.7065051586
 20
9.8733056065
 30
0.0
 10
11.7083520371
 20
9.8750895432
 30
0.0
  0
SPLINE
  5
3AE
100
AcDbEntity
  8
0
100
AcDbSpline
 62
7
  6
CONTINUOUS
 70
0
 71
3
 72
80
 73
76
 74
0
 42
0.0000001
 43
0.0000001
 44
0.0000000001
 40
0.0
 40
0.0
 40
0.0
 40
0.0
 40
0.0039883799
 40
0.0081453752
 40
0.0124746386
 40
0.0169792156
 40
0.021661669
 40
0.0265240231
 40
0.0315676328
 40
0.0367933336
 40
0.042201574
 40
0.0477923628
 40
0.0595195651
 40
0.0719693889
 40
0.0851313116
 40
0.0989911574
 40
0.1135315518
 40
0.1287323373
 40
0.1445709047
 40
0.1610224436
 40
0.1780601318
 40
0.1956553356
 40
0.2137777909
 40
0.2323957448
 40
0.2514760677
 40
0.2709843863
 40
0.2908852167
 40
0.311142073
 40
0.3317175598
 40
0.3736702008
 40
0.4164307353
 40
0.4596780682
 40
0.5030864323
 40
0.5463285118
 40
0.5890785868
 40
0.6310156693
 40
0.6515815081
 40
0.6718274996
 40
0.6917162816
 40
0.711211397
 40
0.7302773921
 40
0.7488799298
 40
0.7669859313
 40
0.7845636874
 40
0.801582979
 40
0.818015225
 40
0.8338336755
 40
0.8490135854
 40
0.8635324141
 40
0.8773700842
 40
0.8905093296
 40
0.9029360806
 40
0.9146399417
 40
0.9202190025
 40
0.9256155028
 40
0.9308294768
 40
0.9358613995
 40
0.940712184
 40
0.9453831863
 40
0.9498763813
 40
0.9541943136
 40
0.9583402313
 40
0.9623182136
 40
0.9661331738
 40
0.9697910847
 40
0.9732990446
 40
0.9766653897
 40
0.9798999101
 40
0.9830138747
 40
0.9860201789
 40
0.9889333931
 40
0.9917696852
 40
0.9945467564
 40
0.9972835667
 40
1.0
 40
1.0
 40
1.0
 40
1.0
 10
12.3947969751
 20
8.4702658955
 30
0.0
 10
12.395537863
 20
8.4709815383
 30
0.0
 10
12.397018835
 20
8.4724766401
 30
0.0
 10
12.3991938588
 20
8.474854476
 30
0.0
 10
12.4013666047
 20
8.4774119884
 30
0.0
 10
12.4035358596
 20
8.4801477906
 30
0.0
 10
12.4057006322
 20
8.4830605146
 30
0.0
 10
12.4078598565
 20
8.4861487716
 30
0.0
 10
12.4100125105
 20
8.489411034
 30
0.0
 10
12.4121575238
 20
8.4928456771
 30
0.0
 10
12.4142938082
 20
8.4964510086
 30
0.0
 10
12.4171751525
 20
8.5015650485
 30
0.0
 10
12.4207400417
 20
8.5083791006
 30
0.0
 10
12.4249009185
 20
8.517080736
 30
0.0
 10
12.4290019381
 20
8.5264155148
 30
0.0
 10
12.4330348417
 20
8.5363648033
 30
0.0
 10
12.4369915161
 20
8.5469088567
 30
0.0
 10
12.4408639787
 20
8.5580266266
 30
0.0
 10
12.4446444068
 20
8.5696958973
 30
0.0
 10
12.4483251534
 20
8.5818933127
 30
0.0
 10
12.4518987831
 20
8.5945944254
 30
0.0
 10
12.4553580787
 20
8.6077737536
 30
0.0
 10
12.4586960502
 20
8.6214048458
 30
0.0
 10
12.4619059483
 20
8.6354603334
 30
0.0
 10
12.4649812914
 20
8.6499119799
 30
0.0
 10
12.4679158776
 20
8.6647307433
 30
0.0
 10
12.4707037767
 20
8.6798868345
 30
0.0
 10
12.4733393825
 20
8.6953498118
 30
0.0
 10
12.4766646962
 20
8.716470964
 30
0.0
 10
12.4803956016
 20
8.7434095709
 30
0.0
 10
12.4841617158
 20
8.7762454434
 30
0.0
 10
12.4872146883
 20
8.8095328724
 30
0.0
 10
12.4895299023
 20
8.843004331
 30
0.0
 10
12.4910887787
 20
8.8763910388
 30
0.0
 10
12.4918788477
 20
8.9094246618
 30
0.0
 10
12.4918917234
 20
8.9366111894
 30
0.0
 10
12.4915053334
 20
8.9579796994
 30
0.0
 10
12.4910231868
 20
8.9736498585
 30
0.0
 10
12.4903478849
 20
8.9890360885
 30
0.0
 10
12.4894807872
 20
9.0041074845
 30
0.0
 10
12.488423666
 20
9.0188337434
 30
0.0
 10
12.4871786654
 20
9.0331852692
 30
0.0
 10
12.4857483268
 20
9.0471332282
 30
0.0
 10
12.4841355653
 20
9.0606496098
 30
0.0
 10
12.4823436634
 20
9.0737072767
 30
0.0
 10
12.48037626
 20
9.0862800261
 30
0.0
 10
12.4782373644
 20
9.0983426541
 30
0.0
 10
12.475931334
 20
9.1098710074
 30
0.0
 10
12.4734628597
 20
9.1208420362
 30
0.0
 10
12.4708369476
 20
9.1312338288
 30
0.0
 10
12.4680589263
 20
9.1410257537
 30
0.0
 10
12.4651344106
 20
9.1501982583
 30
0.0
 10
12.4625404054
 20
9.1574218546
 30
0.0
 10
12.4603895796
 20
9.1628705009
 30
0.0
 10
12.4587693196
 20
9.1667254718
 30
0.0
 10
12.4571169178
 20
9.1704124756
 30
0.0
 10
12.4554331862
 20
9.1739296905
 30
0.0
 10
12.4537189823
 20
9.1772753799
 30
0.0
 10
12.4519751017
 20
9.1804478699
 30
0.0
 10
12.4502024384
 20
9.1834456137
 30
0.0
 10
12.4484018292
 20
9.186267128
 30
0.0
 10
12.4465741143
 20
9.1889110116
 30
0.0
 10
12.4447201966
 20
9.1913759906
 30
0.0
 10
12.4428408844
 20
9.1936608168
 30
0.0
 10
12.4409370533
 20
9.1957643653
 30
0.0
 10
12.4390095619
 20
9.1976855857
 30
0.0
 10
12.4370592066
 20
9.1994234312
 30
0.0
 10
12.4350868786
 20
9.200977002
 30
0.0
 10
12.4330934022
 20
9.2023453665
 30
0.0
 10
12.4310796564
 20
9.2035276364
 30
0.0
 10
12.4290466046
 20
9.2045230345
 30
0.0
 10
12.4269952451
 20
9.2053306996
 30
0.0
 10
12.4249266693
 20
9.205949971
 30
0.0
 10
12.4228423414
 20
9.206380251
 30
0.0
 10
12.4214408904
 20
9.2065410205
 30
0.0
 10
12.4207409991
 20
9.2065895565
 30
0.0
  0
SPLINE
  5
3AF
100
AcDbEntity
  8
0
100
AcDbSpline
 62
7
  6
CONTINUOUS
 70
0
 71
3
 72
82
 73
78
 74
0
 42
0.0000001
 43
0.0000001
 44
0.0000000001
 40
0.0
 40
0.0
 40
0.0
 40
0.0
 40
0.0028079978
 40
0.0056356818
 40
0.008502288
 40
0.0114262137
 40
0.0144246915
 40
0.0175135456
 40
0.0207071116
 40
0.0240181329
 40
0.0274578407
 40
0.0310360169
 40
0.0347610554
 40
0.0386401641
 40
0.0426793911
 40
0.0468838046
 40
0.0512576023
 40
0.0558041427
 40
0.0605261407
 40
0.0654256423
 40
0.0705041474
 40
0.0757626885
 40
0.0812017941
 40
0.0868216501
 40
0.0986018514
 40
0.1110985366
 40
0.1243017998
 40
0.1381979568
 40
0.1527700681
 40
0.1679983437
 40
0.1838604597
 40
0.2003318152
 40
0.2173857749
 40
0.2349938652
 40
0.2531259409
 40
0.2717503259
 40
0.2908339515
 40
0.3103424976
 40
0.3302405123
 40
0.3504915237
 40
0.3710581416
 40
0.3919021732
 40
0.4129847321
 40
0.455706257
 40
0.49890236
 40
0.5422472303
 40
0.5854136043
 40
0.6280759645
 40
0.6491180759
 40
0.6699145381
 40
0.6904265863
 40
0.7106161713
 40
0.7304460619
 40
0.7498799532
 40
0.76888259
 40
0.7874198781
 40
0.805458999
 40
0.822968538
 40
0.8399186299
 40
0.8562811274
 40
0.8720297604
 40
0.8871403291
 40
0.9015909348
 40
0.9153622713
 40
0.9284379678
 40
0.9408049977
 40
0.9524542077
 40
0.958008328
 40
0.9633817425
 40
0.9685747309
 40
0.9735880096
 40
0.978422747
 40
0.9830806142
 40
0.9875640035
 40
0.9918759102
 40
0.9960198585
 40
1.0
 40
1.0
 40
1.0
 40
1.0
 10
11.1590747973
 20
10.3027520407
 30
0.0
 10
11.1590747995
 20
10.3035883605
 30
0.0
 10
11.1590015792
 20
10.3052677686
 30
0.0
 10
11.1586724891
 20
10.3077815509
 30
0.0
 10
11.1581244541
 20
10.3102922593
 30
0.0
 10
11.1573579834
 20
10.3127981263
 30
0.0
 10
11.1563737598
 20
10.3152978055
 30
0.0
 10
11.1551726465
 20
10.3177900125
 30
0.0
 10
11.1537554379
 20
10.3202735
 30
0.0
 10
11.1521231258
 20
10.3227471481
 30
0.0
 10
11.1502766679
 20
10.3252098281
 30
0.0
 10
11.1482170807
 20
10.3276604124
 30
0.0
 10
11.1459455117
 20
10.3300978428
 30
0.0
 10
11.1434630854
 20
10.3325209554
 30
0.0
 10
11.1407710962
 20
10.3349286663
 30
0.0
 10
11.1378708863
 20
10.3373198416
 30
0.0
 10
11.134763883
 20
10.3396933135
 30
0.0
 10
11.1314516624
 20
10.3420479891
 30
0.0
 10
11.1279358419
 20
10.3443826739
 30
0.0
 10
11.1242181884
 20
10.346696249
 30
0.0
 10
11.1203005546
 20
10.3489875781
 30
0.0
 10
11.116184883
 20
10.3512554813
 30
0.0
 10
11.1118732459
 20
10.3534989001
 30
0.0
 10
11.1057697873
 20
10.3565031511
 30
0.0
 10
11.0976573114
 20
10.3601801171
 30
0.0
 10
11.0873247102
 20
10.3644104488
 30
0.0
 10
11.0762675612
 20
10.3685168663
 30
0.0
 10
11.0645080843
 20
10.3724910513
 30
0.0
 10
11.0520697574
 20
10.3763249469
 30
0.0
 10
11.0389775522
 20
10.3800107538
 30
0.0
 10
11.0252577917
 20
10.3835409652
 30
0.0
 10
11.0109381156
 20
10.3869083972
 30
0.0
 10
10.9960474025
 20
10.3901061908
 30
0.0
 10
10.9806157032
 20
10.3931278316
 30
0.0
 10
10.964674178
 20
10.3959671607
 30
0.0
 10
10.9482550362
 20
10.3986183952
 30
0.0
 10
10.9313914674
 20
10.4010761422
 30
0.0
 10
10.914117567
 20
10.4033353994
 30
0.0
 10
10.8964682648
 20
10.405391568
 30
0.0
 10
10.8784792535
 20
10.4072404608
 30
0.0
 10
10.8601869306
 20
10.4088783131
 30
0.0
 10
10.8416282734
 20
10.41030182
 30
0.0
 10
10.8164683756
 20
10.4119171302
 30
0.0
 10
10.7846300392
 20
10.4133759506
 30
0.0
 10
10.7461372438
 20
10.4142306584
 30
0.0
 10
10.7075023593
 20
10.4141899137
 30
0.0
 10
10.6690379293
 20
10.4132540266
 30
0.0
 10
10.6372413017
 20
10.4117278503
 30
0.0
 10
10.6121288217
 20
10.4100590801
 30
0.0
 10
10.5936158095
 20
10.408596365
 30
0.0
 10
10.5753759032
 20
10.4069198781
 30
0.0
 10
10.5574459703
 20
10.4050330064
 30
0.0
 10
10.5398622887
 20
10.4029395931
 30
0.0
 10
10.5226604215
 20
10.400643891
 30
0.0
 10
10.5058751529
 20
10.398150576
 30
0.0
 10
10.4895404141
 20
10.3954647263
 30
0.0
 10
10.4736892184
 20
10.3925918104
 30
0.0
 10
10.4583535933
 20
10.3895376767
 30
0.0
 10
10.4435645081
 20
10.3863085415
 30
0.0
 10
10.4293518033
 20
10.3829109887
 30
0.0
 10
10.4157441296
 20
10.3793519407
 30
0.0
 10
10.4027688912
 20
10.3756386458
 30
0.0
 10
10.3904521741
 20
10.3717786567
 30
0.0
 10
10.3788187019
 20
10.3677798186
 30
0.0
 10
10.3678916767
 20
10.3636502413
 30
0.0
 10
10.3576930428
 20
10.3593982798
 30
0.0
 10
10.3496954388
 20
10.3557036803
 30
0.0
 10
10.3436859219
 20
10.3526859979
 30
0.0
 10
10.3394452943
 20
10.3504335483
 30
0.0
 10
10.3354014059
 20
10.3481569832
 30
0.0
 10
10.3315562748
 20
10.3458574297
 30
0.0
 10
10.3279118164
 20
10.3435360674
 30
0.0
 10
10.3244698542
 20
10.3411939834
 30
0.0
 10
10.3212320475
 20
10.3388323401
 30
0.0
 10
10.3182000069
 20
10.336452214
 30
0.0
 10
10.3153753968
 20
10.3340549198
 30
0.0
 10
10.3135963388
 20
10.332413595
 30
0.0
 10
10.3127437164
 20
10.3315900249
 30
0.0
  0
SPLINE
  5
3B0
100
AcDbEntity
  8
0
100
AcDbSpline
 62
7
  6
CONTINUOUS
 70
0
 71
3
 72
96
 73
92
 74
0
 42
0.0000001
 43
0.0000001
 44
0.0000000001
 40
0.0
 40
0.0
 40
0.0
 40
0.0
 40
0.0041939212
 40
0.0085762269
 40
0.0131520052
 40
0.0179255503
 40
0.0229003895
 40
0.0280791136
 40
0.0334634798
 40
0.039054619
 40
0.0448530484
 40
0.0508588136
 40
0.0570714162
 40
0.0634899855
 40
0.0701132151
 40
0.0769394762
 40
0.0911924427
 40
0.1062302232
 40
0.1220294549
 40
0.1385631627
 40
0.1558011854
 40
0.173710526
 40
0.1922556446
 40
0.2113987132
 40
0.2310998404
 40
0.2513172756
 40
0.2720075971
 40
0.2931258893
 40
0.3146259101
 40
0.3364602548
 40
0.358580515
 40
0.380937433
 40
0.4034810543
 40
0.4261608786
 40
0.4489260088
 40
0.4717253002
 40
0.4945075089
 40
0.5172214402
 40
0.5398160978
 40
0.5622408322
 40
0.5844454903
 40
0.6063805658
 40
0.6279973504
 40
0.649248088
 40
0.6700861315
 40
0.6904661036
 40
0.7103440641
 40
0.7296776851
 40
0.7484264339
 40
0.7665517712
 40
0.7840173684
 40
0.8007893512
 40
0.8168365781
 40
0.8321309695
 40
0.8466479033
 40
0.8536084389
 40
0.8603672363
 40
0.8669224108
 40
0.8732724521
 40
0.8794161948
 40
0.8853528766
 40
0.891082198
 40
0.8966043145
 40
0.9019199826
 40
0.9070305141
 40
0.9119379754
 40
0.9166451634
 40
0.9211558052
 40
0.925474617
 40
0.9296074706
 40
0.9335615598
 40
0.9373455271
 40
0.9409697129
 40
0.9444462457
 40
0.9477892864
 40
0.9510150553
 40
0.9541419228
 40
0.9571902809
 40
0.9601823275
 40
0.9631416685
 40
0.9660927703
 40
0.969060322
 40
0.9720685748
 40
0.9751407156
 40
0.9782983924
 40
0.981561316
 40
0.9849471178
 40
0.9884713701
 40
0.9921476423
 40
0.9959874147
 40
1.0
 40
1.0
 40
1.0
 40
1.0
 10
10.2774874422
 20
10.36929133
 30
0.0
 10
10.2784982996
 20
10.3702677433
 30
0.0
 10
10.2806156862
 20
10.3722129087
 30
0.0
 10
10.2839926749
 20
10.3750469741
 30
0.0
 10
10.2876370054
 20
10.3778585132
 30
0.0
 10
10.2915463098
 20
10.380645786
 30
0.0
 10
10.2957183413
 20
10.3834072352
 30
0.0
 10
10.3001506549
 20
10.3861412852
 30
0.0
 10
10.3048406289
 20
10.3888463458
 30
0.0
 10
10.3097854864
 20
10.3915207717
 30
0.0
 10
10.3149822688
 20
10.3941630279
 30
0.0
 10
10.3204279035
 20
10.3967714864
 30
0.0
 10
10.3261191273
 20
10.3993446473
 30
0.0
 10
10.3320525525
 20
10.4018809107
 30
0.0
 10
10.3382246276
 20
10.4043788169
 30
0.0
 10
10.3468924682
 20
10.4077040732
 30
0.0
 10
10.3583041279
 20
10.4117436292
 30
0.0
 10
10.3726978476
 20
10.4163476542
 30
0.0
 10
10.3879473975
 20
10.4207642757
 30
0.0
 10
10.4040161883
 20
10.4249827914
 30
0.0
 10
10.4208658004
 20
10.4289929657
 30
0.0
 10
10.4384558214
 20
10.4327850659
 30
0.0
 10
10.4567440342
 20
10.4363498884
 30
0.0
 10
10.475686505
 20
10.4396787826
 30
0.0
 10
10.4952377024
 20
10.4427636723
 30
0.0
 10
10.5153506103
 20
10.4455970753
 30
0.0
 10
10.5359768453
 20
10.4481721213
 30
0.0
 10
10.5570667759
 20
10.4504825676
 30
0.0
 10
10.578569644
 20
10.4525228156
 30
0.0
 10
10.6004336897
 20
10.4542879229
 30
0.0
 10
10.6226062779
 20
10.4557736142
 30
0.0
 10
10.6450340263
 20
10.4569762915
 30
0.0
 10
10.6676629352
 20
10.4578930425
 30
0.0
 10
10.6904385178
 20
10.4585216474
 30
0.0
 10
10.7133059323
 20
10.4588605841
 30
0.0
 10
10.7362101146
 20
10.4589090315
 30
0.0
 10
10.7590959111
 20
10.4586668716
 30
0.0
 10
10.7819082128
 20
10.4581346908
 30
0.0
 10
10.8045920887
 20
10.4573137783
 30
0.0
 10
10.8270929188
 20
10.4562061221
 30
0.0
 10
10.8493565267
 20
10.4548144045
 30
0.0
 10
10.8713293098
 20
10.453141996
 30
0.0
 10
10.8929583703
 20
10.4511929473
 30
0.0
 10
10.9141916429
 20
10.44897198
 30
0.0
 10
10.9349780216
 20
10.4464844755
 30
0.0
 10
10.9552674848
 20
10.4437364622
 30
0.0
 10
10.9750112188
 20
10.4407346023
 30
0.0
 10
10.9941617383
 20
10.4374861763
 30
0.0
 10
11.0126730045
 20
10.4339990647
 30
0.0
 10
11.0305005385
 20
10.4302817292
 30
0.0
 10
11.0476015405
 20
10.426343192
 30
0.0
 10
11.0639349801
 20
10.4221930116
 30
0.0
 10
11.0794617797
 20
10.4178412617
 30
0.0
 10
11.0941446661
 20
10.4132984857
 30
0.0
 10
11.105805953
 20
10.4093089479
 30
0.0
 10
11.1146793963
 20
10.4060220387
 30
0.0
 10
11.121008533
 20
10.4035505792
 30
0.0
 10
11.1271014601
 20
10.4010397272
 30
0.0
 10
11.1329545433
 20
10.3984909919
 30
0.0
 10
11.1385642806
 20
10.395905901
 30
0.0
 10
11.1439273193
 20
10.3932859896
 30
0.0
 10
11.1490404729
 20
10.3906328519
 30
0.0
 10
11.1539006825
 20
10.3879480208
 30
0.0
 10
11.158505085
 20
10.3852331439
 30
0.0
 10
11.1628509261
 20
10.3824897571
 30
0.0
 10
11.1669356645
 20
10.3797195236
 30
0.0
 10
11.1707568656
 20
10.3769239971
 30
0.0
 10
11.1743122936
 20
10.3741048097
 30
0.0
 10
11.177599844
 20
10.3712635376
 30
0.0
 10
11.1806175558
 20
10.3684017455
 30
0.0
 10
11.1833636443
 20
10.3655210197
 30
0.0
 10
11.1858363752
 20
10.3626228476
 30
0.0
 10
11.1880342331
 20
10.3597088102
 30
0.0
 10
11.1899556517
 20
10.356780363
 30
0.0
 10
11.1915992895
 20
10.3538391079
 30
0.0
 10
11.1929637187
 20
10.3508866051
 30
0.0
 10
11.1940477059
 20
10.3479246069
 30
0.0
 10
11.1948500559
 20
10.344954987
 30
0.0
 10
11.1953697691
 20
10.3419798368
 30
0.0
 10
11.195606183
 20
10.3390014439
 30
0.0
 10
11.1955588716
 20
10.3360222296
 30
0.0
 10
11.1952280127
 20
10.3330446506
 30
0.0
 10
11.1946139645
 20
10.3300711063
 30
0.0
 10
11.1937176467
 20
10.3271037937
 30
0.0
 10
11.1925400213
 20
10.3241447645
 30
0.0
 10
11.1910823874
 20
10.3211958315
 30
0.0
 10
11.1893460324
 20
10.3182586777
 30
0.0
 10
11.1873323035
 20
10.3153348643
 30
0.0
 10
11.1850426019
 20
10.3124258713
 30
0.0
 10
11.1824785872
 20
10.3095334165
 30
0.0
 10
11.1806293264
 20
10.307659495
 30
0.0
 10
11.1796621762
 20
10.3067252997
 30
0.0
  0
SPLINE
  5
3B1
100
AcDbEntity
  8
0
100
AcDbSpline
 62
4
  6
CONTINUOUS
 70
0
 71
3
 72
615
 73
611
 74
0
 42
0.0000001
 43
0.0000001
 44
0.0000000001
 40
0.0
 40
0.0
 40
0.0
 40
0.0
 40
0.0078125
 40
0.015625
 40
0.0234375
 40
0.03125
 40
0.03515625
 40
0.0390625
 40
0.04296875
 40
0.046875
 40
0.05078125
 40
0.052734375
 40
0.0546875
 40
0.056640625
 40
0.0576171875
 40
0.05859375
 40
0.0595703125
 40
0.060546875
 40
0.0610351562
 40
0.0615234375
 40
0.0617675781
 40
0.0620117188
 40
0.0622558594
 40
0.0623779297
 40
0.0624389648
 40
0.0625
 40
0.0625610352
 40
0.0626220703
 40
0.0627441406
 40
0.0629882812
 40
0.0632324219
 40
0.0634765625
 40
0.0639648438
 40
0.064453125
 40
0.0654296875
 40
0.06640625
 40
0.0673828125
 40
0.068359375
 40
0.0703125
 40
0.072265625
 40
0.07421875
 40
0.078125
 40
0.08203125
 40
0.0859375
 40
0.08984375
 40
0.09375
 40
0.09765625
 40
0.1015625
 40
0.10546875
 40
0.109375
 40
0.11328125
 40
0.115234375
 40
0.1171875
 40
0.119140625
 40
0.1201171875
 40
0.12109375
 40
0.1220703125
 40
0.123046875
 40
0.1235351562
 40
0.1240234375
 40
0.1242675781
 40
0.1245117188
 40
0.1247558594
 40
0.1248779297
 40
0.1249389648
 40
0.125
 40
0.1250610352
 40
0.1251220703
 40
0.1252441406
 40
0.1254882812
 40
0.1257324219
 40
0.1259765625
 40
0.1264648438
 40
0.126953125
 40
0.1279296875
 40
0.12890625
 40
0.1298828125
 40
0.130859375
 40
0.1328125
 40
0.134765625
 40
0.13671875
 40
0.140625
 40
0.14453125
 40
0.1484375
 40
0.15234375
 40
0.15625
 40
0.16015625
 40
0.1640625
 40
0.16796875
 40
0.171875
 40
0.17578125
 40
0.177734375
 40
0.1796875
 40
0.181640625
 40
0.1826171875
 40
0.18359375
 40
0.1845703125
 40
0.185546875
 40
0.1860351562
 40
0.1865234375
 40
0.1867675781
 40
0.1870117188
 40
0.1872558594
 40
0.1873779297
 40
0.1874389648
 40
0.1875
 40
0.1875610352
 40
0.1876220703
 40
0.1877441406
 40
0.1879882812
 40
0.1882324219
 40
0.1884765625
 40
0.1889648438
 40
0.189453125
 40
0.1904296875
 40
0.19140625
 40
0.1923828125
 40
0.193359375
 40
0.1953125
 40
0.197265625
 40
0.19921875
 40
0.203125
 40
0.20703125
 40
0.2109375
 40
0.21484375
 40
0.21875
 40
0.22265625
 40
0.2265625
 40
0.23046875
 40
0.234375
 40
0.23828125
 40
0.240234375
 40
0.2421875
 40
0.244140625
 40
0.2451171875
 40
0.24609375
 40
0.2470703125
 40
0.248046875
 40
0.2485351562
 40
0.2490234375
 40
0.2492675781
 40
0.2495117188
 40
0.2497558594
 40
0.2498779297
 40
0.2499389648
 40
0.25
 40
0.2500610352
 40
0.2501220703
 40
0.2502441406
 40
0.2504882812
 40
0.2507324219
 40
0.2509765625
 40
0.2514648438
 40
0.251953125
 40
0.2529296875
 40
0.25390625
 40
0.2548828125
 40
0.255859375
 40
0.2578125
 40
0.259765625
 40
0.26171875
 40
0.265625
 40
0.26953125
 40
0.2734375
 40
0.27734375
 40
0.28125
 40
0.28515625
 40
0.2890625
 40
0.29296875
 40
0.296875
 40
0.30078125
 40
0.302734375
 40
0.3046875
 40
0.306640625
 40
0.3076171875
 40
0.30859375
 40
0.3095703125
 40
0.310546875
 40
0.3110351562
 40
0.3115234375
 40
0.3117675781
 40
0.3120117188
 40
0.3122558594
 40
0.3123779297
 40
0.3124389648
 40
0.3125
 40
0.3125610352
 40
0.3126220703
 40
0.3127441406
 40
0.3129882812
 40
0.3132324219
 40
0.3134765625
 40
0.3139648438
 40
0.314453125
 40
0.3154296875
 40
0.31640625
 40
0.3173828125
 40
0.318359375
 40
0.3203125
 40
0.322265625
 40
0.32421875
 40
0.328125
 40
0.33203125
 40
0.3359375
 40
0.33984375
 40
0.34375
 40
0.34765625
 40
0.3515625
 40
0.35546875
 40
0.359375
 40
0.36328125
 40
0.365234375
 40
0.3671875
 40
0.369140625
 40
0.3701171875
 40
0.37109375
 40
0.3720703125
 40
0.373046875
 40
0.3735351562
 40
0.3740234375
 40
0.3742675781
 40
0.3745117188
 40
0.3747558594
 40
0.3748779297
 40
0.3749389648
 40
0.375
 40
0.3750610352
 40
0.3751220703
 40
0.3752441406
 40
0.3754882812
 40
0.3757324219
 40
0.3759765625
 40
0.3764648438
 40
0.376953125
 40
0.3779296875
 40
0.37890625
 40
0.3798828125
 40
0.380859375
 40
0.3828125
 40
0.384765625
 40
0.38671875
 40
0.390625
 40
0.39453125
 40
0.3984375
 40
0.40234375
 40
0.40625
 40
0.41015625
 40
0.4140625
 40
0.41796875
 40
0.421875
 40
0.42578125
 40
0.427734375
 40
0.4296875
 40
0.431640625
 40
0.4326171875
 40
0.43359375
 40
0.4345703125
 40
0.435546875
 40
0.4360351562
 40
0.4365234375
 40
0.4367675781
 40
0.4370117188
 40
0.4372558594
 40
0.4373779297
 40
0.4374389648
 40
0.4375
 40
0.4375610352
 40
0.4376220703
 40
0.4377441406
 40
0.4379882812
 40
0.4382324219
 40
0.4384765625
 40
0.4389648438
 40
0.439453125
 40
0.4404296875
 40
0.44140625
 40
0.4423828125
 40
0.443359375
 40
0.4453125
 40
0.447265625
 40
0.44921875
 40
0.453125
 40
0.45703125
 40
0.4609375
 40
0.46484375
 40
0.46875
 40
0.47265625
 40
0.4765625
 40
0.48046875
 40
0.484375
 40
0.48828125
 40
0.490234375
 40
0.4921875
 40
0.494140625
 40
0.4951171875
 40
0.49609375
 40
0.4970703125
 40
0.498046875
 40
0.4985351562
 40
0.4990234375
 40
0.4992675781
 40
0.4995117188
 40
0.4997558594
 40
0.4998779297
 40
0.4999389648
 40
0.5
 40
0.5000610352
 40
0.5001220703
 40
0.5002441406
 40
0.5004882812
 40
0.5007324219
 40
0.5009765625
 40
0.5014648438
 40
0.501953125
 40
0.5029296875
 40
0.50390625
 40
0.5048828125
 40
0.505859375
 40
0.5078125
 40
0.509765625
 40
0.51171875
 40
0.515625
 40
0.51953125
 40
0.5234375
 40
0.52734375
 40
0.53125
 40
0.53515625
 40
0.5390625
 40
0.54296875
 40
0.546875
 40
0.55078125
 40
0.552734375
 40
0.5546875
 40
0.556640625
 40
0.5576171875
 40
0.55859375
 40
0.5595703125
 40
0.560546875
 40
0.5610351562
 40
0.5615234375
 40
0.5617675781
 40
0.5620117188
 40
0.5622558594
 40
0.5623779297
 40
0.5624389648
 40
0.5625
 40
0.5625610352
 40
0.5626220703
 40
0.5627441406
 40
0.5629882812
 40
0.5632324219
 40
0.5634765625
 40
0.5639648438
 40
0.564453125
 40
0.5654296875
 40
0.56640625
 40
0.5673828125
 40
0.568359375
 40
0.5703125
 40
0.572265625
 40
0.57421875
 40
0.578125
 40
0.58203125
 40
0.5859375
 40
0.58984375
 40
0.59375
 40
0.59765625
 40
0.6015625
 40
0.60546875
 40
0.609375
 40
0.61328125
 40
0.615234375
 40
0.6171875
 40
0.619140625
 40
0.6201171875
 40
0.62109375
 40
0.6220703125
 40
0.623046875
 40
0.6235351562
 40
0.6240234375
 40
0.6242675781
 40
0.6245117188
 40
0.6247558594
 40
0.6248779297
 40
0.6249389648
 40
0.625
 40
0.6250610352
 40
0.6251220703
 40
0.6252441406
 40
0.6254882812
 40
0.6257324219
 40
0.6259765625
 40
0.6264648438
 40
0.626953125
 40
0.6279296875
 40
0.62890625
 40
0.6298828125
 40
0.630859375
 40
0.6328125
 40
0.634765625
 40
0.63671875
 40
0.640625
 40
0.64453125
 40
0.6484375
 40
0.65234375
 40
0.65625
 40
0.66015625
 40
0.6640625
 40
0.66796875
 40
0.671875
 40
0.67578125
 40
0.677734375
 40
0.6796875
 40
0.681640625
 40
0.6826171875
 40
0.68359375
 40
0.6845703125
 40
0.685546875
 40
0.6860351562
 40
0.6865234375
 40
0.6867675781
 40
0.6870117188
 40
0.6872558594
 40
0.6873779297
 40
0.6874389648
 40
0.6875
 40
0.6875610352
 40
0.6876220703
 40
0.6877441406
 40
0.6879882812
 40
0.6882324219
 40
0.6884765625
 40
0.6889648438
 40
0.689453125
 40
0.6904296875
 40
0.69140625
 40
0.6923828125
 40
0.693359375
 40
0.6953125
 40
0.697265625
 40
0.69921875
 40
0.703125
 40
0.70703125
 40
0.7109375
 40
0.71484375
 40
0.71875
 40
0.72265625
 40
0.7265625
 40
0.73046875
 40
0.734375
 40
0.73828125
 40
0.740234375
 40
0.7421875
 40
0.744140625
 40
0.7451171875
 40
0.74609375
 40
0.7470703125
 40
0.748046875
 40
0.7485351562
 40
0.7490234375
 40
0.7492675781
 40
0.7495117188
 40
0.7497558594
 40
0.7498779297
 40
0.7499389648
 40
0.75
 40
0.7500610352
 40
0.7501220703
 40
0.7502441406
 40
0.7504882812
 40
0.7507324219
 40
0.7509765625
 40
0.7514648438
 40
0.751953125
 40
0.7529296875
 40
0.75390625
 40
0.7548828125
 40
0.755859375
 40
0.7578125
 40
0.759765625
 40
0.76171875
 40
0.765625
 40
0.76953125
 40
0.7734375
 40
0.77734375
 40
0.78125
 40
0.78515625
 40
0.7890625
 40
0.79296875
 40
0.796875
 40
0.80078125
 40
0.802734375
 40
0.8046875
 40
0.806640625
 40
0.8076171875
 40
0.80859375
 40
0.8095703125
 40
0.810546875
 40
0.8110351562
 40
0.8115234375
 40
0.8117675781
 40
0.8120117188
 40
0.8122558594
 40
0.8123779297
 40
0.8124389648
 40
0.8125
 40
0.8125610352
 40
0.8126220703
 40
0.8127441406
 40
0.8129882812
 40
0.8132324219
 40
0.8134765625
 40
0.8139648438
 40
0.814453125
 40
0.8154296875
 40
0.81640625
 40
0.8173828125
 40
0.818359375
 40
0.8203125
 40
0.822265625
 40
0.82421875
 40
0.828125
 40
0.83203125
 40
0.8359375
 40
0.83984375
 40
0.84375
 40
0.84765625
 40
0.8515625
 40
0.85546875
 40
0.859375
 40
0.86328125
 40
0.865234375
 40
0.8671875
 40
0.869140625
 40
0.8701171875
 40
0.87109375
 40
0.8720703125
 40
0.873046875
 40
0.8735351562
 40
0.8740234375
 40
0.8742675781
 40
0.8745117188
 40
0.8747558594
 40
0.8748779297
 40
0.8749389648
 40
0.875
 40
0.8750610352
 40
0.8751220703
 40
0.8752441406
 40
0.8754882812
 40
0.8757324219
 40
0.8759765625
 40
0.8764648438
 40
0.876953125
 40
0.8779296875
 40
0.87890625
 40
0.8798828125
 40
0.880859375
 40
0.8828125
 40
0.884765625
 40
0.88671875
 40
0.890625
 40
0.89453125
 40
0.8984375
 40
0.90234375
 40
0.90625
 40
0.91015625
 40
0.9140625
 40
0.91796875
 40
0.921875
 40
0.92578125
 40
0.927734375
 40
0.9296875
 40
0.931640625
 40
0.9326171875
 40
0.93359375
 40
0.9345703125
 40
0.935546875
 40
0.9360351562
 40
0.9365234375
 40
0.9367675781
 40
0.9370117188
 40
0.9372558594
 40
0.9373779297
 40
0.9374389648
 40
0.9375
 40
0.9375610352
 40
0.9376220703
 40
0.9377441406
 40
0.9379882812
 40
0.9382324219
 40
0.9384765625
 40
0.9389648438
 40
0.939453125
 40
0.9404296875
 40
0.94140625
 40
0.9423828125
 40
0.943359375
 40
0.9453125
 40
0.947265625
 40
0.94921875
 40
0.953125
 40
0.95703125
 40
0.9609375
 40
0.96484375
 40
0.96875
 40
0.9765625
 40
0.984375
 40
0.9921875
 40
1.0
 40
1.0
 40
1.0
 40
1.0
 10
10.3157874189
 20
9.1797043789
 30
0.0
 10
10.3173540124
 20
9.1797493411
 30
0.0
 10
10.3204871993
 20
9.1798392656
 30
0.0
 10
10.3251869797
 20
9.1799741522
 30
0.0
 10
10.32988676
 20
9.1801090388
 30
0.0
 10
10.3338032437
 20
9.1802214443
 30
0.0
 10
10.3369364306
 20
9.1803113687
 30
0.0
 10
10.3392863208
 20
9.180378812
 30
0.0
 10
10.341636211
 20
9.1804462553
 30
0.0
 10
10.3439861012
 20
9.1805136986
 30
0.0
 10
10.345944343
 20
9.1805699014
 30
0.0
 10
10.3475109364
 20
9.1806148636
 30
0.0
 10
10.3486858815
 20
9.1806485853
 30
0.0
 10
10.3496650025
 20
9.1806766866
 30
0.0
 10
10.3504482992
 20
9.1806991678
 30
0.0
 10
10.3510357718
 20
9.1807160284
 30
0.0
 10
10.3516232441
 20
9.1807328901
 30
0.0
 10
10.3521128052
 20
9.1807469379
 30
0.0
 10
10.3525044524
 20
9.1807581844
 30
0.0
 10
10.3527492355
 20
9.1807651947
 30
0.0
 10
10.3529450537
 20
9.1807708459
 30
0.0
 10
10.3530919403
 20
9.1807749666
 30
0.0
 10
10.3532142726
 20
9.180778775
 30
0.0
 10
10.3533000488
 20
9.1807807059
 30
0.0
 10
10.3533488397
 20
9.1807829568
 30
0.0
 10
10.3533860642
 20
9.1807814125
 30
0.0
 10
10.3534208752
 20
9.1807922246
 30
0.0
 10
10.3534681317
 20
9.1808023306
 30
0.0
 10
10.3535504384
 20
9.1808220244
 30
0.0
 10
10.3536682245
 20
9.1808491085
 30
0.0
 10
10.35380948
 20
9.1808820587
 30
0.0
 10
10.3539978514
 20
9.1809258355
 30
0.0
 10
10.354233305
 20
9.1809806101
 30
0.0
 10
10.3546100368
 20
9.1810682195
 30
0.0
 10
10.3550809495
 20
9.1811777416
 30
0.0
 10
10.3556460456
 20
9.1813091636
 30
0.0
 10
10.3562111414
 20
9.1814405868
 30
0.0
 10
10.3569646026
 20
9.1816158174
 30
0.0
 10
10.3579064291
 20
9.1818348557
 30
0.0
 10
10.3590366209
 20
9.1820977017
 30
0.0
 10
10.3605435433
 20
9.1824481629
 30
0.0
 10
10.3624271963
 20
9.1828862395
 30
0.0
 10
10.3646875799
 20
9.1834119314
 30
0.0
 10
10.3669479635
 20
9.1839376233
 30
0.0
 10
10.3692083471
 20
9.1844633153
 30
0.0
 10
10.3714687307
 20
9.1849890072
 30
0.0
 10
10.3737291143
 20
9.1855146991
 30
0.0
 10
10.3759894979
 20
9.186040391
 30
0.0
 10
10.3782498815
 20
9.1865660829
 30
0.0
 10
10.3805102651
 20
9.1870917748
 30
0.0
 10
10.3823939181
 20
9.1875298514
 30
0.0
 10
10.3839008405
 20
9.1878803127
 30
0.0
 10
10.3850310323
 20
9.1881431586
 30
0.0
 10
10.3859728588
 20
9.1883621969
 30
0.0
 10
10.38672632
 20
9.1885374276
 30
0.0
 10
10.387291416
 20
9.1886688503
 30
0.0
 10
10.3878565116
 20
9.1888002742
 30
0.0
 10
10.3883274259
 20
9.1889097906
 30
0.0
 10
10.3887041543
 20
9.1889974116
 30
0.0
 10
10.3889396167
 20
9.1890521567
 30
0.0
 10
10.3891279701
 20
9.189095994
 30
0.0
 10
10.3892692803
 20
9.1891287593
 30
0.0
 10
10.3893868953
 20
9.1891564219
 30
0.0
 10
10.3894695074
 20
9.1891750829
 30
0.0
 10
10.3895162746
 20
9.1891868437
 30
0.0
 10
10.3895525887
 20
9.189192573
 30
0.0
 10
10.3895841678
 20
9.1892101189
 30
0.0
 10
10.3896279248
 20
9.1892293916
 30
0.0
 10
10.3897037301
 20
9.1892650392
 30
0.0
 10
10.3898124257
 20
9.1893149605
 30
0.0
 10
10.3899426882
 20
9.1893752957
 30
0.0
 10
10.3901164317
 20
9.1894555925
 30
0.0
 10
10.3903335905
 20
9.1895560149
 30
0.0
 10
10.390681056
 20
9.1897166621
 30
0.0
 10
10.391115384
 20
9.1899174809
 30
0.0
 10
10.3916365793
 20
9.1901584593
 30
0.0
 10
10.3921577742
 20
9.1903994388
 30
0.0
 10
10.3928527008
 20
9.1907207444
 30
0.0
 10
10.3937213589
 20
9.1911223766
 30
0.0
 10
10.3947637488
 20
9.1916043351
 30
0.0
 10
10.3961536019
 20
9.1922469465
 30
0.0
 10
10.3978909184
 20
9.1930502107
 30
0.0
 10
10.3999756981
 20
9.1940141278
 30
0.0
 10
10.4020604778
 20
9.1949780449
 30
0.0
 10
10.4041452575
 20
9.1959419619
 30
0.0
 10
10.4062300372
 20
9.196905879
 30
0.0
 10
10.4083148169
 20
9.1978697961
 30
0.0
 10
10.4103995966
 20
9.1988337131
 30
0.0
 10
10.4124843763
 20
9.1997976302
 30
0.0
 10
10.414569156
 20
9.2007615473
 30
0.0
 10
10.4163064724
 20
9.2015648115
 30
0.0
 10
10.4176963256
 20
9.2022074229
 30
0.0
 10
10.4187387154
 20
9.2026893814
 30
0.0
 10
10.4196073736
 20
9.2030910135
 30
0.0
 10
10.4203023002
 20
9.2034123193
 30
0.0
 10
10.4208234952
 20
9.2036532983
 30
0.0
 10
10.4213446897
 20
9.2038942784
 30
0.0
 10
10.4217790202
 20
9.2040950918
 30
0.0
 10
10.4221264806
 20
9.2042557502
 30
0.0
 10
10.4223436525
 20
9.2043561441
 30
0.0
 10
10.422517369
 20
9.2044364995
 30
0.0
 10
10.4226477141
 20
9.2044966557
 30
0.0
 10
10.4227561512
 20
9.2045471368
 30
0.0
 10
10.4228324181
 20
9.2045817851
 30
0.0
 10
10.4228754355
 20
9.204602659
 30
0.0
 10
10.4229092864
 20
9.2046152865
 30
0.0
 10
10.4229370677
 20
9.2046394884
 30
0.0
 10
10.4229762265
 20
9.2046677202
 30
0.0
 10
10.4230437681
 20
9.2047190071
 30
0.0
 10
10.4231407717
 20
9.2047912906
 30
0.0
 10
10.4232569554
 20
9.2048784518
 30
0.0
 10
10.423411944
 20
9.2049945196
 30
0.0
 10
10.4236056533
 20
9.2051396548
 30
0.0
 10
10.423915603
 20
9.2053718429
 30
0.0
 10
10.4243030351
 20
9.2056620876
 30
0.0
 10
10.4247679558
 20
9.2060103772
 30
0.0
 10
10.4252328759
 20
9.2063586679
 30
0.0
 10
10.4258527696
 20
9.2068230552
 30
0.0
 10
10.4266276366
 20
9.2074035393
 30
0.0
 10
10.4275574771
 20
9.2081001202
 30
0.0
 10
10.4287972644
 20
9.2090288948
 30
0.0
 10
10.4303469985
 20
9.2101898631
 30
0.0
 10
10.4322066794
 20
9.2115830249
 30
0.0
 10
10.4340663603
 20
9.2129761868
 30
0.0
 10
10.4359260412
 20
9.2143693487
 30
0.0
 10
10.4377857221
 20
9.2157625106
 30
0.0
 10
10.439645403
 20
9.2171556725
 30
0.0
 10
10.4415050839
 20
9.2185488343
 30
0.0
 10
10.4433647649
 20
9.2199419962
 30
0.0
 10
10.4452244458
 20
9.2213351581
 30
0.0
 10
10.4467741799
 20
9.2224961263
 30
0.0
 10
10.4480139671
 20
9.2234249009
 30
0.0
 10
10.4489438076
 20
9.2241214819
 30
0.0
 10
10.4497186747
 20
9.224701966
 30
0.0
 10
10.4503385682
 20
9.2251663533
 30
0.0
 10
10.4508034887
 20
9.2255146436
 30
0.0
 10
10.4512684081
 20
9.2258629347
 30
0.0
 10
10.451655844
 20
9.2261531747
 30
0.0
 10
10.4519657861
 20
9.2263853726
 30
0.0
 10
10.4521595147
 20
9.2265304829
 30
0.0
 10
10.4523144638
 20
9.2266466018
 30
0.0
 10
10.4524307683
 20
9.2267336069
 30
0.0
 10
10.4525273937
 20
9.2268063787
 30
0.0
 10
10.4525956104
 20
9.2268567938
 30
0.0
 10
10.4526336875
 20
9.2268864224
 30
0.0
 10
10.4526647917
 20
9.226906334
 30
0.0
 10
10.4526861622
 20
9.2269350752
 30
0.0
 10
10.4527180514
 20
9.2269703168
 30
0.0
 10
10.4527722756
 20
9.2270334247
 30
0.0
 10
10.4528505659
 20
9.2271228286
 30
0.0
 10
10.4529441601
 20
9.2272304343
 30
0.0
 10
10.4530690762
 20
9.2273737965
 30
0.0
 10
10.4532251788
 20
9.2275530377
 30
0.0
 10
10.4534749668
 20
9.2278398021
 30
0.0
 10
10.4537871936
 20
9.2281982649
 30
0.0
 10
10.4541618693
 20
9.2286284172
 30
0.0
 10
10.454536544
 20
9.2290585703
 30
0.0
 10
10.4550361106
 20
9.2296321075
 30
0.0
 10
10.4556605688
 20
9.230349029
 30
0.0
 10
10.4564099187
 20
9.2312093349
 30
0.0
 10
10.4574090518
 20
9.2323564093
 30
0.0
 10
10.4586579682
 20
9.2337902524
 30
0.0
 10
10.4601566679
 20
9.2355108641
 30
0.0
 10
10.4616553676
 20
9.2372314758
 30
0.0
 10
10.4631540673
 20
9.2389520875
 30
0.0
 10
10.464652767
 20
9.2406726992
 30
0.0
 10
10.4661514667
 20
9.2423933109
 30
0.0
 10
10.4676501664
 20
9.2441139226
 30
0.0
 10
10.4691488661
 20
9.2458345343
 30
0.0
 10
10.4706475658
 20
9.247555146
 30
0.0
 10
10.4718964822
 20
9.2489889891
 30
0.0
 10
10.4728956154
 20
9.2501360635
 30
0.0
 10
10.4736449652
 20
9.2509963694
 30
0.0
 10
10.4742694234
 20
9.2517132909
 30
0.0
 10
10.4747689899
 20
9.2522868282
 30
0.0
 10
10.4751436651
 20
9.252716981
 30
0.0
 10
10.4755183392
 20
9.2531471345
 30
0.0
 10
10.4758305707
 20
9.2535055934
 30
0.0
 10
10.4760803491
 20
9.2537923657
 30
0.0
 10
10.4762364762
 20
9.2539715868
 30
0.0
 10
10.476361342
 20
9.2541149902
 30
0.0
 10
10.4764550897
 20
9.2542224701
 30
0.0
 10
10.4765328999
 20
9.2543122678
 30
0.0
 10
10.4765879811
 20
9.2543746726
 30
0.0
 10
10.4766184972
 20
9.2544110408
 30
0.0
 10
10.4766440855
 20
9.2544363214
 30
0.0
 10
10.4766593483
 20
9.2544692304
 30
0.0
 10
10.4766833002
 20
9.2545104482
 30
0.0
 10
10.4767235381
 20
9.254583819
 30
0.0
 10
10.4767818981
 20
9.2546879864
 30
0.0
 10
10.4768515546
 20
9.2548132647
 30
0.0
 10
10.4769445611
 20
9.2549802055
 30
0.0
 10
10.4770607743
 20
9.2551889147
 30
0.0
 10
10.4772467405
 20
9.2555228308
 30
0.0
 10
10.4774791896
 20
9.2559402324
 30
0.0
 10
10.4777581323
 20
9.2564411116
 30
0.0
 10
10.478037074
 20
9.2569419914
 30
0.0
 10
10.4784089965
 20
9.257609831
 30
0.0
 10
10.4788738996
 20
9.2584446306
 30
0.0
 10
10.4794317834
 20
9.25944639
 30
0.0
 10
10.4801756284
 20
9.2607820693
 30
0.0
 10
10.4811054347
 20
9.2624516683
 30
0.0
 10
10.4822212022
 20
9.2644551872
 30
0.0
 10
10.4833369697
 20
9.2664587061
 30
0.0
 10
10.4844527372
 20
9.268462225
 30
0.0
 10
10.4855685047
 20
9.2704657439
 30
0.0
 10
10.4866842723
 20
9.2724692628
 30
0.0
 10
10.4878000398
 20
9.2744727817
 30
0.0
 10
10.4889158073
 20
9.2764763005
 30
0.0
 10
10.4900315748
 20
9.2784798194
 30
0.0
 10
10.4909613811
 20
9.2801494185
 30
0.0
 10
10.4917052261
 20
9.2814850978
 30
0.0
 10
10.4922631098
 20
9.2824868572
 30
0.0
 10
10.492728013
 20
9.2833216567
 30
0.0
 10
10.4930999354
 20
9.2839894964
 30
0.0
 10
10.4933788776
 20
9.284490376
 30
0.0
 10
10.4936578186
 20
9.2849912561
 30
0.0
 10
10.4938902728
 20
9.2854086546
 30
0.0
 10
10.4940762286
 20
9.2857425771
 30
0.0
 10
10.4941924684
 20
9.2859512702
 30
0.0
 10
10.4942854203
 20
9.286118244
 30
0.0
 10
10.4943552435
 20
9.2862434214
 30
0.0
 10
10.4944130818
 20
9.2863479046
 30
0.0
 10
10.494454251
 20
9.2864207116
 30
0.0
 10
10.4944767108
 20
9.2864628329
 30
0.0
 10
10.4944965568
 20
9.2864929665
 30
0.0
 10
10.4945049312
 20
9.2865286709
 30
0.0
 10
10.4945200985
 20
9.2865743336
 30
0.0
 10
10.4945447769
 20
9.2866551486
 30
0.0
 10
10.4945810064
 20
9.2867701253
 30
0.0
 10
10.4946240647
 20
9.2869082999
 30
0.0
 10
10.4946816214
 20
9.2870924621
 30
0.0
 10
10.4947535174
 20
9.2873226889
 30
0.0
 10
10.494868579
 20
9.2876910384
 30
0.0
 10
10.4950123963
 20
9.2881514798
 30
0.0
 10
10.4951849812
 20
9.2887040076
 30
0.0
 10
10.495357565
 20
9.2892565358
 30
0.0
 10
10.4955876771
 20
9.28999324
 30
0.0
 10
10.4958753171
 20
9.2909141203
 30
0.0
 10
10.4962204851
 20
9.2920191766
 30
0.0
 10
10.4966807092
 20
9.2934925851
 30
0.0
 10
10.4972559893
 20
9.2953343456
 30
0.0
 10
10.4979463254
 20
9.2975444583
 30
0.0
 10
10.4986366615
 20
9.299754571
 30
0.0
 10
10.4993269976
 20
9.3019646836
 30
0.0
 10
10.5000173337
 20
9.3041747963
 30
0.0
 10
10.5007076698
 20
9.306384909
 30
0.0
 10
10.5013980059
 20
9.3085950216
 30
0.0
 10
10.502088342
 20
9.3108051343
 30
0.0
 10
10.5027786781
 20
9.3130152469
 30
0.0
 10
10.5033539582
 20
9.3148570075
 30
0.0
 10
10.5038141822
 20
9.3163304159
 30
0.0
 10
10.5041593503
 20
9.3174354723
 30
0.0
 10
10.5044469903
 20
9.3183563525
 30
0.0
 10
10.5046771023
 20
9.3190930568
 30
0.0
 10
10.5048496866
 20
9.3196455849
 30
0.0
 10
10.5050222697
 20
9.3201981134
 30
0.0
 10
10.5051660925
 20
9.3206585525
 30
0.0
 10
10.5052811427
 20
9.3210269067
 30
0.0
 10
10.5053530676
 20
9.3212571214
 30
0.0
 10
10.5054105651
 20
9.3214413085
 30
0.0
 10
10.5054538043
 20
9.3215794066
 30
0.0
 10
10.5054894678
 20
9.3216946229
 30
0.0
 10
10.5055151566
 20
9.3217750103
 30
0.0
 10
10.505528705
 20
9.3218213582
 30
0.0
 10
10.5055420522
 20
9.3218549577
 30
0.0
 10
10.5055432209
 20
9.3218929966
 30
0.0
 10
10.5055490271
 20
9.3219421667
 30
0.0
 10
10.5055572088
 20
9.3220289358
 30
0.0
 10
10.5055699317
 20
9.3221525144
 30
0.0
 10
10.5055847563
 20
9.3223009702
 30
0.0
 10
10.5056046771
 20
9.3224988549
 30
0.0
 10
10.5056295252
 20
9.32274623
 30
0.0
 10
10.5056693116
 20
9.3231420195
 30
0.0
 10
10.5057190345
 20
9.32363676
 30
0.0
 10
10.5057787064
 20
9.324230447
 30
0.0
 10
10.505838377
 20
9.3248241345
 30
0.0
 10
10.5059179384
 20
9.3256157176
 30
0.0
 10
10.5060173899
 20
9.3266051966
 30
0.0
 10
10.5061367317
 20
9.3277925714
 30
0.0
 10
10.5062958542
 20
9.3293757377
 30
0.0
 10
10.5064947573
 20
9.3313546956
 30
0.0
 10
10.506733441
 20
9.3337294451
 30
0.0
 10
10.5069721247
 20
9.3361041946
 30
0.0
 10
10.5072108084
 20
9.3384789441
 30
0.0
 10
10.507449492
 20
9.3408536936
 30
0.0
 10
10.5076881757
 20
9.3432284431
 30
0.0
 10
10.5079268594
 20
9.3456031926
 30
0.0
 10
10.5081655431
 20
9.3479779421
 30
0.0
 10
10.5084042268
 20
9.3503526916
 30
0.0
 10
10.5086031299
 20
9.3523316495
 30
0.0
 10
10.5087622524
 20
9.3539148158
 30
0.0
 10
10.5088815942
 20
9.3551021906
 30
0.0
 10
10.5089810458
 20
9.3560916695
 30
0.0
 10
10.509060607
 20
9.3568832527
 30
0.0
 10
10.5091202781
 20
9.3574769401
 30
0.0
 10
10.5091799481
 20
9.3580706274
 30
0.0
 10
10.5092296768
 20
9.358565367
 30
0.0
 10
10.5092694514
 20
9.3589611584
 30
0.0
 10
10.5092943297
 20
9.3592085285
 30
0.0
 10
10.5093141884
 20
9.3594064237
 30
0.0
 10
10.5093292028
 20
9.3595548473
 30
0.0
 10
10.5093413316
 20
9.3596785265
 30
0.0
 10
10.509350574
 20
9.3597651161
 30
0.0
 10
10.5093546807
 20
9.3598145737
 30
0.0
 10
10.5093610698
 20
9.3598517295
 30
0.0
 10
10.50935481
 20
9.3598886458
 30
0.0
 10
10.5093508757
 20
9.3599379512
 30
0.0
 10
10.5093419349
 20
9.3600241966
 30
0.0
 10
10.5093302372
 20
9.3601474247
 30
0.0
 10
10.5093157399
 20
9.3602952897
 30
0.0
 10
10.5092965708
 20
9.360492446
 30
0.0
 10
10.5092725545
 20
9.3607388904
 30
0.0
 10
10.5092341591
 20
9.361133202
 30
0.0
 10
10.5091861543
 20
9.3616260914
 30
0.0
 10
10.5091285531
 20
9.3622175587
 30
0.0
 10
10.5090709506
 20
9.3628090259
 30
0.0
 10
10.5089941478
 20
9.363597649
 30
0.0
 10
10.5088981441
 20
9.3645834278
 30
0.0
 10
10.5087829398
 20
9.3657663623
 30
0.0
 10
10.5086293339
 20
9.3673436084
 30
0.0
 10
10.5084373266
 20
9.3693151659
 30
0.0
 10
10.5082069179
 20
9.371681035
 30
0.0
 10
10.5079765091
 20
9.3740469041
 30
0.0
 10
10.5077461004
 20
9.3764127732
 30
0.0
 10
10.5075156917
 20
9.3787786423
 30
0.0
 10
10.5072852829
 20
9.3811445114
 30
0.0
 10
10.5070548742
 20
9.3835103805
 30
0.0
 10
10.5068244654
 20
9.3858762496
 30
0.0
 10
10.5065940567
 20
9.3882421187
 30
0.0
 10
10.5064020494
 20
9.3902136762
 30
0.0
 10
10.5062484435
 20
9.3917909223
 30
0.0
 10
10.5061332392
 20
9.3929738568
 30
0.0
 10
10.5060372356
 20
9.3939596356
 30
0.0
 10
10.5059604326
 20
9.3947482586
 30
0.0
 10
10.5059028306
 20
9.395339726
 30
0.0
 10
10.5058452275
 20
9.3959311931
 30
0.0
 10
10.5057972285
 20
9.3964240829
 30
0.0
 10
10.5057588212
 20
9.3968183936
 30
0.0
 10
10.5057348352
 20
9.3970648402
 30
0.0
 10
10.505715604
 20
9.3972619921
 30
0.0
 10
10.5057012966
 20
9.3974098709
 30
0.0
 10
10.5056890045
 20
9.3975330557
 30
0.0
 10
10.5056811249
 20
9.3976193783
 30
0.0
 10
10.5056754903
 20
9.3976685599
 30
0.0
 10
10.5056744532
 20
9.3977058564
 30
0.0
 10
10.5056612269
 20
9.3977415846
 30
0.0
 10
10.5056478436
 20
9.3977897693
 30
0.0
 10
10.5056224419
 20
9.3978738376
 30
0.0
 10
10.5055871893
 20
9.3979940685
 30
0.0
 10
10.5055444429
 20
9.3981382885
 30
0.0
 10
10.5054876026
 20
9.3983306017
 30
0.0
 10
10.5054164992
 20
9.3985709864
 30
0.0
 10
10.5053027634
 20
9.3989556058
 30
0.0
 10
10.5051605834
 20
9.3994363787
 30
0.0
 10
10.5049899718
 20
9.4000133067
 30
0.0
 10
10.5048193591
 20
9.4005902346
 30
0.0
 10
10.5045918758
 20
9.4013594718
 30
0.0
 10
10.5043075216
 20
9.4023210184
 30
0.0
 10
10.5039662966
 20
9.4034748742
 30
0.0
 10
10.5035113299
 20
9.4050133486
 30
0.0
 10
10.5029426215
 20
9.4069364417
 30
0.0
 10
10.5022601714
 20
9.4092441534
 30
0.0
 10
10.5015777214
 20
9.4115518651
 30
0.0
 10
10.5008952714
 20
9.4138595767
 30
0.0
 10
10.5002128213
 20
9.4161672884
 30
0.0
 10
10.4995303713
 20
9.4184750001
 30
0.0
 10
10.4988479212
 20
9.4207827117
 30
0.0
 10
10.4981654712
 20
9.4230904234
 30
0.0
 10
10.4974830211
 20
9.4253981351
 30
0.0
 10
10.4969143128
 20
9.4273212281
 30
0.0
 10
10.4964593461
 20
9.4288597026
 30
0.0
 10
10.496118121
 20
9.4300135584
 30
0.0
 10
10.4958337669
 20
9.430975105
 30
0.0
 10
10.4956062835
 20
9.4317443422
 30
0.0
 10
10.4954356712
 20
9.4323212702
 30
0.0
 10
10.4952650578
 20
9.4328981978
 30
0.0
 10
10.4951228834
 20
9.433378972
 30
0.0
 10
10.4950091362
 20
9.4337635887
 30
0.0
 10
10.4949380617
 20
9.4340039801
 30
0.0
 10
10.4948811621
 20
9.4341962796
 30
0.0
 10
10.4948385968
 20
9.4343405417
 30
0.0
 10
10.4948027776
 20
9.4344606408
 30
0.0
 10
10.4947783875
 20
9.4345449443
 30
0.0
 10
10.4947633833
 20
9.4345927521
 30
0.0
 10
10.4947551356
 20
9.4346296382
 30
0.0
 10
10.4947353998
 20
9.4346625859
 30
0.0
 10
10.4947130925
 20
9.43470789
 30
0.0
 10
10.4946721877
 20
9.434786532
 30
0.0
 10
10.4946147285
 20
9.4348992124
 30
0.0
 10
10.4945453595
 20
9.4350342857
 30
0.0
 10
10.4944530135
 20
9.4352144334
 30
0.0
 10
10.4943375311
 20
9.4354396009
 30
0.0
 10
10.4941527871
 20
9.4357998785
 30
0.0
 10
10.4939218475
 20
9.4362502222
 30
0.0
 10
10.4936447241
 20
9.4367906361
 30
0.0
 10
10.4933675996
 20
9.4373310496
 30
0.0
 10
10.4929981007
 20
9.438051601
 30
0.0
 10
10.4925362269
 20
9.4389522902
 30
0.0
 10
10.4919819784
 20
9.4400331174
 30
0.0
 10
10.4912429803
 20
9.4414742202
 30
0.0
 10
10.4903192328
 20
9.4432755987
 30
0.0
 10
10.4892107358
 20
9.445437253
 30
0.0
 10
10.4881022388
 20
9.4475989072
 30
0.0
 10
10.4869937417
 20
9.4497605614
 30
0.0
 10
10.4858852447
 20
9.4519222157
 30
0.0
 10
10.4847767477
 20
9.4540838699
 30
0.0
 10
10.4836682506
 20
9.4562455241
 30
0.0
 10
10.4825597536
 20
9.4584071784
 30
0.0
 10
10.4814512566
 20
9.4605688326
 30
0.0
 10
10.480527509
 20
9.4623702111
 30
0.0
 10
10.479788511
 20
9.463811314
 30
0.0
 10
10.4792342625
 20
9.4648921411
 30
0.0
 10
10.4787723888
 20
9.4657928304
 30
0.0
 10
10.4784028897
 20
9.4665133817
 30
0.0
 10
10.4781257656
 20
9.4670537954
 30
0.0
 10
10.4778486405
 20
9.4675942086
 30
0.0
 10
10.4776177063
 20
9.4680445544
 30
0.0
 10
10.4774329514
 20
9.4684048276
 30
0.0
 10
10.4773174966
 20
9.4686300064
 30
0.0
 10
10.4772250939
 20
9.468810131
 30
0.0
 10
10.4771558982
 20
9.4689452749
 30
0.0
 10
10.477097897
 20
9.4690577343
 30
0.0
 10
10.4770579596
 20
9.4691367709
 30
0.0
 10
10.4770341024
 20
9.4691814428
 30
0.0
 10
10.4770191273
 20
9.4692163322
 30
0.0
 10
10.4769929988
 20
9.4692459255
 30
0.0
 10
10.4769620513
 20
9.4692872306
 30
0.0
 10
10.4769060804
 20
9.4693586537
 30
0.0
 10
10.4768270696
 20
9.4694611368
 30
0.0
 10
10.4767318511
 20
9.4695839238
 30
0.0
 10
10.4766050348
 20
9.4697477072
 30
0.0
 10
10.4764464659
 20
9.4699524133
 30
0.0
 10
10.4761927827
 20
9.4702799561
 30
0.0
 10
10.4758756694
 20
9.47068938
 30
0.0
 10
10.4754951374
 20
9.4711806907
 30
0.0
 10
10.4751146044
 20
9.4716720009
 30
0.0
 10
10.4746072274
 20
9.4723270812
 30
0.0
 10
10.4739730061
 20
9.4731459317
 30
0.0
 10
10.4732119405
 20
9.4741285522
 30
0.0
 10
10.4721971863
 20
9.4754387129
 30
0.0
 10
10.4709287437
 20
9.4770764138
 30
0.0
 10
10.4694066125
 20
9.4790416549
 30
0.0
 10
10.4678844813
 20
9.481006896
 30
0.0
 10
10.4663623501
 20
9.482972137
 30
0.0
 10
10.4648402189
 20
9.4849373781
 30
0.0
 10
10.4633180877
 20
9.4869026192
 30
0.0
 10
10.4617959565
 20
9.4888678602
 30
0.0
 10
10.4602738254
 20
9.4908331013
 30
0.0
 10
10.4587516942
 20
9.4927983424
 30
0.0
 10
10.4574832515
 20
9.4944360433
 30
0.0
 10
10.4564684974
 20
9.495746204
 30
0.0
 10
10.4557074318
 20
9.4967288245
 30
0.0
 10
10.4550732105
 20
9.497547675
 30
0.0
 10
10.4545658334
 20
9.4982027553
 30
0.0
 10
10.4541853007
 20
9.4986940657
 30
0.0
 10
10.4538047673
 20
9.4991853753
 30
0.0
 10
10.4534876586
 20
9.4995948027
 30
0.0
 10
10.4532339661
 20
9.4999223385
 30
0.0
 10
10.4530754207
 20
9.5001270622
 30
0.0
 10
10.4529485561
 20
9.5002908094
 30
0.0
 10
10.4528534852
 20
9.5004137071
 30
0.0
 10
10.4527740124
 20
9.500515844
 30
0.0
 10
10.4527188664
 20
9.5005878851
 30
0.0
 10
10.4526865972
 20
9.5006282
 30
0.0
 10
10.4526645285
 20
9.5006608347
 30
0.0
 10
10.4526343053
 20
9.5006843011
 30
0.0
 10
10.4525968521
 20
9.5007187878
 30
0.0
 10
10.4525299838
 20
9.5007776493
 30
0.0
 10
10.4524351505
 20
9.5008625163
 30
0.0
 10
10.4523210539
 20
9.5009640232
 30
0.0
 10
10.4521690288
 20
9.5010994822
 30
0.0
 10
10.4519789619
 20
9.501268766
 30
0.0
 10
10.4516748746
 20
9.5015396425
 30
0.0
 10
10.4512947588
 20
9.5018782304
 30
0.0
 10
10.4508386227
 20
9.5022845392
 30
0.0
 10
10.4503824858
 20
9.5026908472
 30
0.0
 10
10.4497743035
 20
9.5032325914
 30
0.0
 10
10.4490140757
 20
9.5039097715
 30
0.0
 10
10.4481018022
 20
9.5047223878
 30
0.0
 10
10.4468854376
 20
9.5058058761
 30
0.0
 10
10.4453649819
 20
9.5071602365
 30
0.0
 10
10.443540435
 20
9.5087854689
 30
0.0
 10
10.4417158882
 20
9.5104107014
 30
0.0
 10
10.4398913413
 20
9.5120359338
 30
0.0
 10
10.4380667944
 20
9.5136611663
 30
0.0
 10
10.4362422475
 20
9.5152863987
 30
0.0
 10
10.4344177007
 20
9.5169116312
 30
0.0
 10
10.4325931538
 20
9.5185368636
 30
0.0
 10
10.4307686069
 20
9.5201620961
 30
0.0
 10
10.4292481512
 20
9.5215164565
 30
0.0
 10
10.4280317866
 20
9.5225999448
 30
0.0
 10
10.4271195132
 20
9.523412561
 30
0.0
 10
10.4263592853
 20
9.5240897412
 30
0.0
 10
10.425751103
 20
9.5246314853
 30
0.0
 10
10.4252949664
 20
9.5250377936
 30
0.0
 10
10.4248388292
 20
9.525444101
 30
0.0
 10
10.4244587168
 20
9.5257826934
 30
0.0
 10
10.4241546224
 20
9.5260535608
 30
0.0
 10
10.4239645739
 20
9.5262228678
 30
0.0
 10
10.423812511
 20
9.5263582792
 30
0.0
 10
10.4236985297
 20
9.5264599315
 30
0.0
 10
10.4236033358
 20
9.5265443434
 30
0.0
 10
10.4235371111
 20
9.5266040174
 30
0.0
 10
10.4234986266
 20
9.5266372024
 30
0.0
 10
10.4234715715
 20
9.526664667
 30
0.0
 10
10.423437604
 20
9.5266822853
 30
0.0
 10
10.4233947251
 20
9.526709211
 30
0.0
 10
10.4233185638
 20
9.5267547307
 30
0.0
 10
10.4232103491
 20
9.5268205954
 30
0.0
 10
10.4230802401
 20
9.526899275
 30
0.0
 10
10.4229068493
 20
9.5270043061
 30
0.0
 10
10.4226900807
 20
9.5271355523
 30
0.0
 10
10.4223432677
 20
9.52734557
 30
0.0
 10
10.4219097458
 20
9.527608084
 30
0.0
 10
10.4213895219
 20
9.5279231043
 30
0.0
 10
10.4208692973
 20
9.5282381237
 30
0.0
 10
10.4201756648
 20
9.5286581499
 30
0.0
 10
10.4193086241
 20
9.5291831824
 30
0.0
 10
10.4182681753
 20
9.5298132216
 30
0.0
 10
10.4168809103
 20
9.5306532737
 30
0.0
 10
10.4151468289
 20
9.531703339
 30
0.0
 10
10.4130659313
 20
9.5329634172
 30
0.0
 10
10.4109850336
 20
9.5342234955
 30
0.0
 10
10.408904136
 20
9.5354835737
 30
0.0
 10
10.4068232384
 20
9.536743652
 30
0.0
 10
10.4047423408
 20
9.5380037302
 30
0.0
 10
10.4026614431
 20
9.5392638085
 30
0.0
 10
10.4005805455
 20
9.5405238868
 30
0.0
 10
10.3984996479
 20
9.541783965
 30
0.0
 10
10.3967655665
 20
9.5428340302
 30
0.0
 10
10.3953783014
 20
9.5436740824
 30
0.0
 10
10.3943378526
 20
9.5443041215
 30
0.0
 10
10.393470812
 20
9.5448291542
 30
0.0
 10
10.3927771794
 20
9.5452491802
 30
0.0
 10
10.3922569551
 20
9.5455642
 30
0.0
 10
10.3917367303
 20
9.5458792187
 30
0.0
 10
10.3913032111
 20
9.5461417376
 30
0.0
 10
10.3909563925
 20
9.5463517453
 30
0.0
 10
10.3907396382
 20
9.5464830171
 30
0.0
 10
10.3905662181
 20
9.5465879957
 30
0.0
 10
10.3904361985
 20
9.5466668358
 30
0.0
 10
10.3903277042
 20
9.5467321983
 30
0.0
 10
10.3902520421
 20
9.5467786146
 30
0.0
 10
10.3902083632
 20
9.5468041036
 30
0.0
 10
10.3901768532
 20
9.5468261348
 30
0.0
 10
10.3901405681
 20
9.5468370256
 30
0.0
 10
10.3900938536
 20
9.5468554325
 30
0.0
 10
10.3900113271
 20
9.5468858341
 30
0.0
 10
10.3898938379
 20
9.5469302116
 30
0.0
 10
10.3897526771
 20
9.5469830594
 30
0.0
 10
10.3895645234
 20
9.5470536646
 30
0.0
 10
10.3893293106
 20
9.5471418727
 30
0.0
 10
10.3889529816
 20
9.5472830327
 30
0.0
 10
10.3884825664
 20
9.5474594734
 30
0.0
 10
10.3879180698
 20
9.5476712063
 30
0.0
 10
10.3873535728
 20
9.5478829381
 30
0.0
 10
10.3866009103
 20
9.5481652475
 30
0.0
 10
10.3856600821
 20
9.5485181342
 30
0.0
 10
10.3845310883
 20
9.5489415982
 30
0.0
 10
10.3830257632
 20
9.549506217
 30
0.0
 10
10.3811441068
 20
9.5502119903
 30
0.0
 10
10.3788861192
 20
9.5510589184
 30
0.0
 10
10.3766281316
 20
9.5519058465
 30
0.0
 10
10.3743701439
 20
9.5527527746
 30
0.0
 10
10.3721121563
 20
9.5535997026
 30
0.0
 10
10.3698541687
 20
9.5544466307
 30
0.0
 10
10.367596181
 20
9.5552935588
 30
0.0
 10
10.3653381934
 20
9.5561404869
 30
0.0
 10
10.3630802058
 20
9.5569874149
 30
0.0
 10
10.3611985494
 20
9.5576931883
 30
0.0
 10
10.3596932243
 20
9.558257807
 30
0.0
 10
10.3585642305
 20
9.5586812711
 30
0.0
 10
10.3576234023
 20
9.5590341578
 30
0.0
 10
10.3568707397
 20
9.5593164671
 30
0.0
 10
10.3563062429
 20
9.5595281993
 30
0.0
 10
10.3557417457
 20
9.5597399305
 30
0.0
 10
10.3552713325
 20
9.5599163766
 30
0.0
 10
10.3548949995
 20
9.5600575256
 30
0.0
 10
10.3546597968
 20
9.5601457618
 30
0.0
 10
10.3544716222
 20
9.5602163093
 30
0.0
 10
10.3543305255
 20
9.5602693335
 30
0.0
 10
10.3542128359
 20
9.5603131589
 30
0.0
 10
10.354130667
 20
9.5603445461
 30
0.0
 10
10.3540833795
 20
9.5603613738
 30
0.0
 10
10.3540488543
 20
9.5603771154
 30
0.0
 10
10.3540107344
 20
9.5603809277
 30
0.0
 10
10.3539611616
 20
9.5603901719
 30
0.0
 10
10.3538738251
 20
9.5604044104
 30
0.0
 10
10.3537493641
 20
9.5604257647
 30
0.0
 10
10.3535998801
 20
9.560450956
 30
0.0
 10
10.3534006139
 20
9.560484696
 30
0.0
 10
10.3531515154
 20
9.560526819
 30
0.0
 10
10.3527529665
 20
9.5605942449
 30
0.0
 10
10.3522547775
 20
9.5606785174
 30
0.0
 10
10.3516569519
 20
9.5607796486
 30
0.0
 10
10.351059126
 20
9.5608807786
 30
0.0
 10
10.350262025
 20
9.5610156191
 30
0.0
 10
10.3492656486
 20
9.5611841695
 30
0.0
 10
10.3480699969
 20
9.5613864301
 30
0.0
 10
10.3464757947
 20
9.5616561109
 30
0.0
 10
10.3444830419
 20
9.5619932118
 30
0.0
 10
10.3420917386
 20
9.562397733
 30
0.0
 10
10.3397004352
 20
9.5628022541
 30
0.0
 10
10.3373091319
 20
9.5632067753
 30
0.0
 10
10.3341207275
 20
9.5637461368
 30
0.0
 10
10.3301352219
 20
9.5644203387
 30
0.0
 10
10.3253526153
 20
9.565229381
 30
0.0
 10
10.3205700086
 20
9.5660384233
 30
0.0
 10
10.3173816042
 20
9.5665777848
 30
0.0
 10
10.315787402
 20
9.5668474656
 30
0.0
  0
SPLINE
  5
3B2
100
AcDbEntity
  8
0
100
AcDbSpline
 62
4
  6
CONTINUOUS
 70
0
 71
3
 72
615
 73
611
 74
0
 42
0.0000001
 43
0.0000001
 44
0.0000000001
 40
0.0
 40
0.0
 40
0.0
 40
0.0
 40
0.0078125
 40
0.015625
 40
0.0234375
 40
0.03125
 40
0.03515625
 40
0.0390625
 40
0.04296875
 40
0.046875
 40
0.05078125
 40
0.052734375
 40
0.0546875
 40
0.056640625
 40
0.0576171875
 40
0.05859375
 40
0.0595703125
 40
0.060546875
 40
0.0610351562
 40
0.0615234375
 40
0.0617675781
 40
0.0620117188
 40
0.0622558594
 40
0.0623779297
 40
0.0624389648
 40
0.0625
 40
0.0625610352
 40
0.0626220703
 40
0.0627441406
 40
0.0629882812
 40
0.0632324219
 40
0.0634765625
 40
0.0639648438
 40
0.064453125
 40
0.0654296875
 40
0.06640625
 40
0.0673828125
 40
0.068359375
 40
0.0703125
 40
0.072265625
 40
0.07421875
 40
0.078125
 40
0.08203125
 40
0.0859375
 40
0.08984375
 40
0.09375
 40
0.09765625
 40
0.1015625
 40
0.10546875
 40
0.109375
 40
0.11328125
 40
0.115234375
 40
0.1171875
 40
0.119140625
 40
0.1201171875
 40
0.12109375
 40
0.1220703125
 40
0.123046875
 40
0.1235351562
 40
0.1240234375
 40
0.1242675781
 40
0.1245117188
 40
0.1247558594
 40
0.1248779297
 40
0.1249389648
 40
0.125
 40
0.1250610352
 40
0.1251220703
 40
0.1252441406
 40
0.1254882812
 40
0.1257324219
 40
0.1259765625
 40
0.1264648438
 40
0.126953125
 40
0.1279296875
 40
0.12890625
 40
0.1298828125
 40
0.130859375
 40
0.1328125
 40
0.134765625
 40
0.13671875
 40
0.140625
 40
0.14453125
 40
0.1484375
 40
0.15234375
 40
0.15625
 40
0.16015625
 40
0.1640625
 40
0.16796875
 40
0.171875
 40
0.17578125
 40
0.177734375
 40
0.1796875
 40
0.181640625
 40
0.1826171875
 40
0.18359375
 40
0.1845703125
 40
0.185546875
 40
0.1860351562
 40
0.1865234375
 40
0.1867675781
 40
0.1870117188
 40
0.1872558594
 40
0.1873779297
 40
0.1874389648
 40
0.1875
 40
0.1875610352
 40
0.1876220703
 40
0.1877441406
 40
0.1879882812
 40
0.1882324219
 40
0.1884765625
 40
0.1889648438
 40
0.189453125
 40
0.1904296875
 40
0.19140625
 40
0.1923828125
 40
0.193359375
 40
0.1953125
 40
0.197265625
 40
0.19921875
 40
0.203125
 40
0.20703125
 40
0.2109375
 40
0.21484375
 40
0.21875
 40
0.22265625
 40
0.2265625
 40
0.23046875
 40
0.234375
 40
0.23828125
 40
0.240234375
 40
0.2421875
 40
0.244140625
 40
0.2451171875
 40
0.24609375
 40
0.2470703125
 40
0.248046875
 40
0.2485351562
 40
0.2490234375
 40
0.2492675781
 40
0.2495117188
 40
0.2497558594
 40
0.2498779297
 40
0.2499389648
 40
0.25
 40
0.2500610352
 40
0.2501220703
 40
0.2502441406
 40
0.2504882812
 40
0.2507324219
 40
0.2509765625
 40
0.2514648438
 40
0.251953125
 40
0.2529296875
 40
0.25390625
 40
0.2548828125
 40
0.255859375
 40
0.2578125
 40
0.259765625
 40
0.26171875
 40
0.265625
 40
0.26953125
 40
0.2734375
 40
0.27734375
 40
0.28125
 40
0.28515625
 40
0.2890625
 40
0.29296875
 40
0.296875
 40
0.30078125
 40
0.302734375
 40
0.3046875
 40
0.306640625
 40
0.3076171875
 40
0.30859375
 40
0.3095703125
 40
0.310546875
 40
0.3110351562
 40
0.3115234375
 40
0.3117675781
 40
0.3120117188
 40
0.3122558594
 40
0.3123779297
 40
0.3124389648
 40
0.3125
 40
0.3125610352
 40
0.3126220703
 40
0.3127441406
 40
0.3129882812
 40
0.3132324219
 40
0.3134765625
 40
0.3139648438
 40
0.314453125
 40
0.3154296875
 40
0.31640625
 40
0.3173828125
 40
0.318359375
 40
0.3203125
 40
0.322265625
 40
0.32421875
 40
0.328125
 40
0.33203125
 40
0.3359375
 40
0.33984375
 40
0.34375
 40
0.34765625
 40
0.3515625
 40
0.35546875
 40
0.359375
 40
0.36328125
 40
0.365234375
 40
0.3671875
 40
0.369140625
 40
0.3701171875
 40
0.37109375
 40
0.3720703125
 40
0.373046875
 40
0.3735351562
 40
0.3740234375
 40
0.3742675781
 40
0.3745117188
 40
0.3747558594
 40
0.3748779297
 40
0.3749389648
 40
0.375
 40
0.3750610352
 40
0.3751220703
 40
0.3752441406
 40
0.3754882812
 40
0.3757324219
 40
0.3759765625
 40
0.3764648438
 40
0.376953125
 40
0.3779296875
 40
0.37890625
 40
0.3798828125
 40
0.380859375
 40
0.3828125
 40
0.384765625
 40
0.38671875
 40
0.390625
 40
0.39453125
 40
0.3984375
 40
0.40234375
 40
0.40625
 40
0.41015625
 40
0.4140625
 40
0.41796875
 40
0.421875
 40
0.42578125
 40
0.427734375
 40
0.4296875
 40
0.431640625
 40
0.4326171875
 40
0.43359375
 40
0.4345703125
 40
0.435546875
 40
0.4360351562
 40
0.4365234375
 40
0.4367675781
 40
0.4370117188
 40
0.4372558594
 40
0.4373779297
 40
0.4374389648
 40
0.4375
 40
0.4375610352
 40
0.4376220703
 40
0.4377441406
 40
0.4379882812
 40
0.4382324219
 40
0.4384765625
 40
0.4389648438
 40
0.439453125
 40
0.4404296875
 40
0.44140625
 40
0.4423828125
 40
0.443359375
 40
0.4453125
 40
0.447265625
 40
0.44921875
 40
0.453125
 40
0.45703125
 40
0.4609375
 40
0.46484375
 40
0.46875
 40
0.47265625
 40
0.4765625
 40
0.48046875
 40
0.484375
 40
0.48828125
 40
0.490234375
 40
0.4921875
 40
0.494140625
 40
0.4951171875
 40
0.49609375
 40
0.4970703125
 40
0.498046875
 40
0.4985351562
 40
0.4990234375
 40
0.4992675781
 40
0.4995117188
 40
0.4997558594
 40
0.4998779297
 40
0.4999389648
 40
0.5
 40
0.5000610352
 40
0.5001220703
 40
0.5002441406
 40
0.5004882812
 40
0.5007324219
 40
0.5009765625
 40
0.5014648438
 40
0.501953125
 40
0.5029296875
 40
0.50390625
 40
0.5048828125
 40
0.505859375
 40
0.5078125
 40
0.509765625
 40
0.51171875
 40
0.515625
 40
0.51953125
 40
0.5234375
 40
0.52734375
 40
0.53125
 40
0.53515625
 40
0.5390625
 40
0.54296875
 40
0.546875
 40
0.55078125
 40
0.552734375
 40
0.5546875
 40
0.556640625
 40
0.5576171875
 40
0.55859375
 40
0.5595703125
 40
0.560546875
 40
0.5610351562
 40
0.5615234375
 40
0.5617675781
 40
0.5620117188
 40
0.5622558594
 40
0.5623779297
 40
0.5624389648
 40
0.5625
 40
0.5625610352
 40
0.5626220703
 40
0.5627441406
 40
0.5629882812
 40
0.5632324219
 40
0.5634765625
 40
0.5639648438
 40
0.564453125
 40
0.5654296875
 40
0.56640625
 40
0.5673828125
 40
0.568359375
 40
0.5703125
 40
0.572265625
 40
0.57421875
 40
0.578125
 40
0.58203125
 40
0.5859375
 40
0.58984375
 40
0.59375
 40
0.59765625
 40
0.6015625
 40
0.60546875
 40
0.609375
 40
0.61328125
 40
0.615234375
 40
0.6171875
 40
0.619140625
 40
0.6201171875
 40
0.62109375
 40
0.6220703125
 40
0.623046875
 40
0.6235351562
 40
0.6240234375
 40
0.6242675781
 40
0.6245117188
 40
0.6247558594
 40
0.6248779297
 40
0.6249389648
 40
0.625
 40
0.6250610352
 40
0.6251220703
 40
0.6252441406
 40
0.6254882812
 40
0.6257324219
 40
0.6259765625
 40
0.6264648438
 40
0.626953125
 40
0.6279296875
 40
0.62890625
 40
0.6298828125
 40
0.630859375
 40
0.6328125
 40
0.634765625
 40
0.63671875
 40
0.640625
 40
0.64453125
 40
0.6484375
 40
0.65234375
 40
0.65625
 40
0.66015625
 40
0.6640625
 40
0.66796875
 40
0.671875
 40
0.67578125
 40
0.677734375
 40
0.6796875
 40
0.681640625
 40
0.6826171875
 40
0.68359375
 40
0.6845703125
 40
0.685546875
 40
0.6860351562
 40
0.6865234375
 40
0.6867675781
 40
0.6870117188
 40
0.6872558594
 40
0.6873779297
 40
0.6874389648
 40
0.6875
 40
0.6875610352
 40
0.6876220703
 40
0.6877441406
 40
0.6879882812
 40
0.6882324219
 40
0.6884765625
 40
0.6889648438
 40
0.689453125
 40
0.6904296875
 40
0.69140625
 40
0.6923828125
 40
0.693359375
 40
0.6953125
 40
0.697265625
 40
0.69921875
 40
0.703125
 40
0.70703125
 40
0.7109375
 40
0.71484375
 40
0.71875
 40
0.72265625
 40
0.7265625
 40
0.73046875
 40
0.734375
 40
0.73828125
 40
0.740234375
 40
0.7421875
 40
0.744140625
 40
0.7451171875
 40
0.74609375
 40
0.7470703125
 40
0.748046875
 40
0.7485351562
 40
0.7490234375
 40
0.7492675781
 40
0.7495117188
 40
0.7497558594
 40
0.7498779297
 40
0.7499389648
 40
0.75
 40
0.7500610352
 40
0.7501220703
 40
0.7502441406
 40
0.7504882812
 40
0.7507324219
 40
0.7509765625
 40
0.7514648438
 40
0.751953125
 40
0.7529296875
 40
0.75390625
 40
0.7548828125
 40
0.755859375
 40
0.7578125
 40
0.759765625
 40
0.76171875
 40
0.765625
 40
0.76953125
 40
0.7734375
 40
0.77734375
 40
0.78125
 40
0.78515625
 40
0.7890625
 40
0.79296875
 40
0.796875
 40
0.80078125
 40
0.802734375
 40
0.8046875
 40
0.806640625
 40
0.8076171875
 40
0.80859375
 40
0.8095703125
 40
0.810546875
 40
0.8110351562
 40
0.8115234375
 40
0.8117675781
 40
0.8120117188
 40
0.8122558594
 40
0.8123779297
 40
0.8124389648
 40
0.8125
 40
0.8125610352
 40
0.8126220703
 40
0.8127441406
 40
0.8129882812
 40
0.8132324219
 40
0.8134765625
 40
0.8139648438
 40
0.814453125
 40
0.8154296875
 40
0.81640625
 40
0.8173828125
 40
0.818359375
 40
0.8203125
 40
0.822265625
 40
0.82421875
 40
0.828125
 40
0.83203125
 40
0.8359375
 40
0.83984375
 40
0.84375
 40
0.84765625
 40
0.8515625
 40
0.85546875
 40
0.859375
 40
0.86328125
 40
0.865234375
 40
0.8671875
 40
0.869140625
 40
0.8701171875
 40
0.87109375
 40
0.8720703125
 40
0.873046875
 40
0.8735351562
 40
0.8740234375
 40
0.8742675781
 40
0.8745117188
 40
0.8747558594
 40
0.8748779297
 40
0.8749389648
 40
0.875
 40
0.8750610352
 40
0.8751220703
 40
0.8752441406
 40
0.8754882812
 40
0.8757324219
 40
0.8759765625
 40
0.8764648438
 40
0.876953125
 40
0.8779296875
 40
0.87890625
 40
0.8798828125
 40
0.880859375
 40
0.8828125
 40
0.884765625
 40
0.88671875
 40
0.890625
 40
0.89453125
 40
0.8984375
 40
0.90234375
 40
0.90625
 40
0.91015625
 40
0.9140625
 40
0.91796875
 40
0.921875
 40
0.92578125
 40
0.927734375
 40
0.9296875
 40
0.931640625
 40
0.9326171875
 40
0.93359375
 40
0.9345703125
 40
0.935546875
 40
0.9360351562
 40
0.9365234375
 40
0.9367675781
 40
0.9370117188
 40
0.9372558594
 40
0.9373779297
 40
0.9374389648
 40
0.9375
 40
0.9375610352
 40
0.9376220703
 40
0.9377441406
 40
0.9379882812
 40
0.9382324219
 40
0.9384765625
 40
0.9389648438
 40
0.939453125
 40
0.9404296875
 40
0.94140625
 40
0.9423828125
 40
0.943359375
 40
0.9453125
 40
0.947265625
 40
0.94921875
 40
0.953125
 40
0.95703125
 40
0.9609375
 40
0.96484375
 40
0.96875
 40
0.9765625
 40
0.984375
 40
0.9921875
 40
1.0
 40
1.0
 40
1.0
 40
1.0
 10
10.3157874189
 20
9.5668474644
 30
0.0
 10
10.3142208254
 20
9.5668025022
 30
0.0
 10
10.3110876385
 20
9.5667125778
 30
0.0
 10
10.3063878581
 20
9.5665776912
 30
0.0
 10
10.3016880778
 20
9.5664428045
 30
0.0
 10
10.2977715941
 20
9.566330399
 30
0.0
 10
10.2946384072
 20
9.5662404746
 30
0.0
 10
10.292288517
 20
9.5661730313
 30
0.0
 10
10.2899386268
 20
9.566105588
 30
0.0
 10
10.2875887366
 20
9.5660381447
 30
0.0
 10
10.2856304948
 20
9.5659819419
 30
0.0
 10
10.2840639014
 20
9.5659369797
 30
0.0
 10
10.2828889563
 20
9.5659032581
 30
0.0
 10
10.2819098353
 20
9.5658751567
 30
0.0
 10
10.2811265386
 20
9.5658526755
 30
0.0
 10
10.280539066
 20
9.565835815
 30
0.0
 10
10.2799515937
 20
9.5658189532
 30
0.0
 10
10.2794620326
 20
9.5658049054
 30
0.0
 10
10.2790703854
 20
9.5657936589
 30
0.0
 10
10.2788256023
 20
9.5657866487
 30
0.0
 10
10.2786297841
 20
9.5657809974
 30
0.0
 10
10.2784828975
 20
9.5657768768
 30
0.0
 10
10.2783605652
 20
9.5657730684
 30
0.0
 10
10.278274789
 20
9.5657711374
 30
0.0
 10
10.2782259981
 20
9.5657688865
 30
0.0
 10
10.2781887736
 20
9.5657704309
 30
0.0
 10
10.2781539626
 20
9.5657596188
 30
0.0
 10
10.2781067061
 20
9.5657495127
 30
0.0
 10
10.2780243994
 20
9.5657298189
 30
0.0
 10
10.2779066133
 20
9.5657027349
 30
0.0
 10
10.2777653578
 20
9.5656697846
 30
0.0
 10
10.2775769864
 20
9.5656260079
 30
0.0
 10
10.2773415328
 20
9.5655712332
 30
0.0
 10
10.276964801
 20
9.5654836238
 30
0.0
 10
10.2764938883
 20
9.5653741018
 30
0.0
 10
10.2759287922
 20
9.5652426797
 30
0.0
 10
10.2753636964
 20
9.5651112565
 30
0.0
 10
10.2746102352
 20
9.564936026
 30
0.0
 10
10.2736684087
 20
9.5647169876
 30
0.0
 10
10.2725382169
 20
9.5644541417
 30
0.0
 10
10.2710312945
 20
9.5641036804
 30
0.0
 10
10.2691476415
 20
9.5636656038
 30
0.0
 10
10.2668872579
 20
9.5631399119
 30
0.0
 10
10.2646268743
 20
9.56261422
 30
0.0
 10
10.2623664907
 20
9.5620885281
 30
0.0
 10
10.2601061071
 20
9.5615628362
 30
0.0
 10
10.2578457235
 20
9.5610371443
 30
0.0
 10
10.2555853399
 20
9.5605114523
 30
0.0
 10
10.2533249563
 20
9.5599857604
 30
0.0
 10
10.2510645727
 20
9.5594600685
 30
0.0
 10
10.2491809197
 20
9.5590219919
 30
0.0
 10
10.2476739973
 20
9.5586715307
 30
0.0
 10
10.2465438055
 20
9.5584086847
 30
0.0
 10
10.245601979
 20
9.5581896464
 30
0.0
 10
10.2448485178
 20
9.5580144157
 30
0.0
 10
10.2442834218
 20
9.557882993
 30
0.0
 10
10.2437183262
 20
9.5577515691
 30
0.0
 10
10.2432474119
 20
9.5576420527
 30
0.0
 10
10.2428706836
 20
9.5575544318
 30
0.0
 10
10.2426352211
 20
9.5574996866
 30
0.0
 10
10.2424468677
 20
9.5574558494
 30
0.0
 10
10.2423055575
 20
9.557423084
 30
0.0
 10
10.2421879425
 20
9.5573954214
 30
0.0
 10
10.2421053304
 20
9.5573767604
 30
0.0
 10
10.2420585632
 20
9.5573649996
 30
0.0
 10
10.2420222491
 20
9.5573592703
 30
0.0
 10
10.24199067
 20
9.5573417245
 30
0.0
 10
10.241946913
 20
9.5573224518
 30
0.0
 10
10.2418711077
 20
9.5572868041
 30
0.0
 10
10.2417624121
 20
9.5572368829
 30
0.0
 10
10.2416321496
 20
9.5571765477
 30
0.0
 10
10.2414584061
 20
9.5570962508
 30
0.0
 10
10.2412412473
 20
9.5569958284
 30
0.0
 10
10.2408937818
 20
9.5568351812
 30
0.0
 10
10.2404594538
 20
9.5566343624
 30
0.0
 10
10.2399382585
 20
9.556393384
 30
0.0
 10
10.2394170636
 20
9.5561524045
 30
0.0
 10
10.238722137
 20
9.5558310989
 30
0.0
 10
10.2378534789
 20
9.5554294667
 30
0.0
 10
10.236811089
 20
9.5549475082
 30
0.0
 10
10.2354212359
 20
9.5543048968
 30
0.0
 10
10.2336839194
 20
9.5535016326
 30
0.0
 10
10.2315991397
 20
9.5525377155
 30
0.0
 10
10.22951436
 20
9.5515737985
 30
0.0
 10
10.2274295803
 20
9.5506098814
 30
0.0
 10
10.2253448006
 20
9.5496459643
 30
0.0
 10
10.2232600209
 20
9.5486820473
 30
0.0
 10
10.2211752412
 20
9.5477181302
 30
0.0
 10
10.2190904615
 20
9.5467542131
 30
0.0
 10
10.2170056818
 20
9.5457902961
 30
0.0
 10
10.2152683654
 20
9.5449870318
 30
0.0
 10
10.2138785122
 20
9.5443444205
 30
0.0
 10
10.2128361224
 20
9.5438624619
 30
0.0
 10
10.2119674642
 20
9.5434608298
 30
0.0
 10
10.2112725376
 20
9.5431395241
 30
0.0
 10
10.2107513426
 20
9.542898545
 30
0.0
 10
10.2102301481
 20
9.5426575649
 30
0.0
 10
10.2097958176
 20
9.5424567516
 30
0.0
 10
10.2094483572
 20
9.5422960932
 30
0.0
 10
10.2092311853
 20
9.5421956993
 30
0.0
 10
10.2090574688
 20
9.5421153439
 30
0.0
 10
10.2089271237
 20
9.5420551876
 30
0.0
 10
10.2088186866
 20
9.5420047066
 30
0.0
 10
10.2087424197
 20
9.5419700583
 30
0.0
 10
10.2086994023
 20
9.5419491843
 30
0.0
 10
10.2086655514
 20
9.5419365569
 30
0.0
 10
10.2086377701
 20
9.541912355
 30
0.0
 10
10.2085986113
 20
9.5418841231
 30
0.0
 10
10.2085310697
 20
9.5418328362
 30
0.0
 10
10.2084340661
 20
9.5417605527
 30
0.0
 10
10.2083178824
 20
9.5416733916
 30
0.0
 10
10.2081628938
 20
9.5415573237
 30
0.0
 10
10.2079691845
 20
9.5414121886
 30
0.0
 10
10.2076592348
 20
9.5411800005
 30
0.0
 10
10.2072718027
 20
9.5408897557
 30
0.0
 10
10.206806882
 20
9.5405414661
 30
0.0
 10
10.2063419619
 20
9.5401931754
 30
0.0
 10
10.2057220682
 20
9.5397287882
 30
0.0
 10
10.2049472012
 20
9.539148304
 30
0.0
 10
10.2040173607
 20
9.5384517231
 30
0.0
 10
10.2027775734
 20
9.5375229485
 30
0.0
 10
10.2012278393
 20
9.5363619803
 30
0.0
 10
10.1993681584
 20
9.5349688184
 30
0.0
 10
10.1975084775
 20
9.5335756565
 30
0.0
 10
10.1956487966
 20
9.5321824946
 30
0.0
 10
10.1937891157
 20
9.5307893328
 30
0.0
 10
10.1919294348
 20
9.5293961709
 30
0.0
 10
10.1900697539
 20
9.528003009
 30
0.0
 10
10.1882100729
 20
9.5266098471
 30
0.0
 10
10.186350392
 20
9.5252166852
 30
0.0
 10
10.1848006579
 20
9.524055717
 30
0.0
 10
10.1835608707
 20
9.5231269424
 30
0.0
 10
10.1826310302
 20
9.5224303615
 30
0.0
 10
10.1818561631
 20
9.5218498774
 30
0.0
 10
10.1812362696
 20
9.52138549
 30
0.0
 10
10.1807713491
 20
9.5210371997
 30
0.0
 10
10.1803064297
 20
9.5206889086
 30
0.0
 10
10.1799189938
 20
9.5203986686
 30
0.0
 10
10.1796090517
 20
9.5201664707
 30
0.0
 10
10.1794153231
 20
9.5200213605
 30
0.0
 10
10.179260374
 20
9.5199052415
 30
0.0
 10
10.1791440695
 20
9.5198182365
 30
0.0
 10
10.1790474441
 20
9.5197454646
 30
0.0
 10
10.1789792274
 20
9.5196950495
 30
0.0
 10
10.1789411503
 20
9.5196654209
 30
0.0
 10
10.1789100461
 20
9.5196455093
 30
0.0
 10
10.1788886756
 20
9.5196167682
 30
0.0
 10
10.1788567864
 20
9.5195815265
 30
0.0
 10
10.1788025622
 20
9.5195184187
 30
0.0
 10
10.1787242719
 20
9.5194290148
 30
0.0
 10
10.1786306777
 20
9.519321409
 30
0.0
 10
10.1785057616
 20
9.5191780468
 30
0.0
 10
10.178349659
 20
9.5189988056
 30
0.0
 10
10.178099871
 20
9.5187120413
 30
0.0
 10
10.1777876442
 20
9.5183535784
 30
0.0
 10
10.1774129685
 20
9.5179234262
 30
0.0
 10
10.1770382938
 20
9.5174932731
 30
0.0
 10
10.1765387272
 20
9.5169197359
 30
0.0
 10
10.175914269
 20
9.5162028143
 30
0.0
 10
10.1751649191
 20
9.5153425085
 30
0.0
 10
10.174165786
 20
9.514195434
 30
0.0
 10
10.1729168696
 20
9.5127615909
 30
0.0
 10
10.1714181699
 20
9.5110409792
 30
0.0
 10
10.1699194702
 20
9.5093203675
 30
0.0
 10
10.1684207705
 20
9.5075997558
 30
0.0
 10
10.1669220708
 20
9.5058791441
 30
0.0
 10
10.1654233711
 20
9.5041585324
 30
0.0
 10
10.1639246714
 20
9.5024379207
 30
0.0
 10
10.1624259717
 20
9.500717309
 30
0.0
 10
10.160927272
 20
9.4989966973
 30
0.0
 10
10.1596783556
 20
9.4975628543
 30
0.0
 10
10.1586792224
 20
9.4964157798
 30
0.0
 10
10.1579298726
 20
9.4955554739
 30
0.0
 10
10.1573054144
 20
9.4948385524
 30
0.0
 10
10.1568058479
 20
9.4942650151
 30
0.0
 10
10.1564311727
 20
9.4938348624
 30
0.0
 10
10.1560564986
 20
9.4934047089
 30
0.0
 10
10.1557442671
 20
9.4930462499
 30
0.0
 10
10.1554944887
 20
9.4927594776
 30
0.0
 10
10.1553383616
 20
9.4925802565
 30
0.0
 10
10.1552134958
 20
9.4924368531
 30
0.0
 10
10.1551197481
 20
9.4923293732
 30
0.0
 10
10.1550419379
 20
9.4922395755
 30
0.0
 10
10.1549868567
 20
9.4921771708
 30
0.0
 10
10.1549563406
 20
9.4921408025
 30
0.0
 10
10.1549307523
 20
9.492115522
 30
0.0
 10
10.1549154895
 20
9.492082613
 30
0.0
 10
10.1548915376
 20
9.4920413952
 30
0.0
 10
10.1548512997
 20
9.4919680243
 30
0.0
 10
10.1547929397
 20
9.4918638569
 30
0.0
 10
10.1547232832
 20
9.4917385786
 30
0.0
 10
10.1546302767
 20
9.4915716378
 30
0.0
 10
10.1545140635
 20
9.4913629286
 30
0.0
 10
10.1543280973
 20
9.4910290125
 30
0.0
 10
10.1540956482
 20
9.4906116109
 30
0.0
 10
10.1538167055
 20
9.4901107318
 30
0.0
 10
10.1535377638
 20
9.4896098519
 30
0.0
 10
10.1531658413
 20
9.4889420123
 30
0.0
 10
10.1527009382
 20
9.4881072128
 30
0.0
 10
10.1521430544
 20
9.4871054533
 30
0.0
 10
10.1513992094
 20
9.4857697741
 30
0.0
 10
10.1504694031
 20
9.484100175
 30
0.0
 10
10.1493536356
 20
9.4820966561
 30
0.0
 10
10.1482378681
 20
9.4800931372
 30
0.0
 10
10.1471221006
 20
9.4780896183
 30
0.0
 10
10.1460063331
 20
9.4760860995
 30
0.0
 10
10.1448905655
 20
9.4740825806
 30
0.0
 10
10.143774798
 20
9.4720790617
 30
0.0
 10
10.1426590305
 20
9.4700755428
 30
0.0
 10
10.141543263
 20
9.4680720239
 30
0.0
 10
10.1406134567
 20
9.4664024248
 30
0.0
 10
10.1398696117
 20
9.4650667456
 30
0.0
 10
10.139311728
 20
9.4640649861
 30
0.0
 10
10.1388468248
 20
9.4632301866
 30
0.0
 10
10.1384749024
 20
9.4625623469
 30
0.0
 10
10.1381959602
 20
9.4620614673
 30
0.0
 10
10.1379170192
 20
9.4615605872
 30
0.0
 10
10.137684565
 20
9.4611431887
 30
0.0
 10
10.1374986092
 20
9.4608092662
 30
0.0
 10
10.1373823694
 20
9.4606005732
 30
0.0
 10
10.1372894175
 20
9.4604335993
 30
0.0
 10
10.1372195943
 20
9.460308422
 30
0.0
 10
10.137161756
 20
9.4602039387
 30
0.0
 10
10.1371205868
 20
9.4601311318
 30
0.0
 10
10.137098127
 20
9.4600890104
 30
0.0
 10
10.137078281
 20
9.4600588768
 30
0.0
 10
10.1370699066
 20
9.4600231725
 30
0.0
 10
10.1370547393
 20
9.4599775098
 30
0.0
 10
10.1370300609
 20
9.4598966948
 30
0.0
 10
10.1369938314
 20
9.459781718
 30
0.0
 10
10.1369507731
 20
9.4596435434
 30
0.0
 10
10.1368932164
 20
9.4594593813
 30
0.0
 10
10.1368213204
 20
9.4592291544
 30
0.0
 10
10.1367062588
 20
9.458860805
 30
0.0
 10
10.1365624415
 20
9.4584003635
 30
0.0
 10
10.1363898566
 20
9.4578478358
 30
0.0
 10
10.1362172728
 20
9.4572953075
 30
0.0
 10
10.1359871607
 20
9.4565586033
 30
0.0
 10
10.1356995207
 20
9.455637723
 30
0.0
 10
10.1353543527
 20
9.4545326667
 30
0.0
 10
10.1348941286
 20
9.4530592583
 30
0.0
 10
10.1343188485
 20
9.4512174977
 30
0.0
 10
10.1336285124
 20
9.449007385
 30
0.0
 10
10.1329381763
 20
9.4467972724
 30
0.0
 10
10.1322478402
 20
9.4445871597
 30
0.0
 10
10.1315575041
 20
9.442377047
 30
0.0
 10
10.130867168
 20
9.4401669344
 30
0.0
 10
10.1301768319
 20
9.4379568217
 30
0.0
 10
10.1294864958
 20
9.435746709
 30
0.0
 10
10.1287961597
 20
9.4335365964
 30
0.0
 10
10.1282208796
 20
9.4316948358
 30
0.0
 10
10.1277606556
 20
9.4302214274
 30
0.0
 10
10.1274154875
 20
9.4291163711
 30
0.0
 10
10.1271278475
 20
9.4281954908
 30
0.0
 10
10.1268977355
 20
9.4274587865
 30
0.0
 10
10.1267251512
 20
9.4269062585
 30
0.0
 10
10.1265525681
 20
9.42635373
 30
0.0
 10
10.1264087453
 20
9.4258932909
 30
0.0
 10
10.1262936951
 20
9.4255249366
 30
0.0
 10
10.1262217702
 20
9.425294722
 30
0.0
 10
10.1261642727
 20
9.4251105348
 30
0.0
 10
10.1261210335
 20
9.4249724367
 30
0.0
 10
10.12608537
 20
9.4248572204
 30
0.0
 10
10.1260596812
 20
9.4247768331
 30
0.0
 10
10.1260461328
 20
9.4247304852
 30
0.0
 10
10.1260327856
 20
9.4246968856
 30
0.0
 10
10.1260316169
 20
9.4246588467
 30
0.0
 10
10.1260258107
 20
9.4246096766
 30
0.0
 10
10.126017629
 20
9.4245229076
 30
0.0
 10
10.1260049061
 20
9.4243993289
 30
0.0
 10
10.1259900815
 20
9.4242508731
 30
0.0
 10
10.1259701607
 20
9.4240529885
 30
0.0
 10
10.1259453126
 20
9.4238056133
 30
0.0
 10
10.1259055262
 20
9.4234098239
 30
0.0
 10
10.1258558033
 20
9.4229150833
 30
0.0
 10
10.1257961314
 20
9.4223213963
 30
0.0
 10
10.1257364608
 20
9.4217277088
 30
0.0
 10
10.1256568994
 20
9.4209361257
 30
0.0
 10
10.1255574479
 20
9.4199466467
 30
0.0
 10
10.1254381061
 20
9.418759272
 30
0.0
 10
10.1252789836
 20
9.4171761056
 30
0.0
 10
10.1250800805
 20
9.4151971477
 30
0.0
 10
10.1248413968
 20
9.4128223982
 30
0.0
 10
10.1246027131
 20
9.4104476487
 30
0.0
 10
10.1243640294
 20
9.4080728992
 30
0.0
 10
10.1241253458
 20
9.4056981497
 30
0.0
 10
10.1238866621
 20
9.4033234002
 30
0.0
 10
10.1236479784
 20
9.4009486507
 30
0.0
 10
10.1234092947
 20
9.3985739012
 30
0.0
 10
10.123170611
 20
9.3961991517
 30
0.0
 10
10.1229717079
 20
9.3942201938
 30
0.0
 10
10.1228125854
 20
9.3926370275
 30
0.0
 10
10.1226932436
 20
9.3914496527
 30
0.0
 10
10.122593792
 20
9.3904601738
 30
0.0
 10
10.1225142308
 20
9.3896685906
 30
0.0
 10
10.1224545597
 20
9.3890749032
 30
0.0
 10
10.1223948897
 20
9.3884812159
 30
0.0
 10
10.122345161
 20
9.3879864764
 30
0.0
 10
10.1223053864
 20
9.3875906849
 30
0.0
 10
10.1222805081
 20
9.3873433149
 30
0.0
 10
10.1222606494
 20
9.3871454197
 30
0.0
 10
10.122245635
 20
9.386996996
 30
0.0
 10
10.1222335062
 20
9.3868733168
 30
0.0
 10
10.1222242638
 20
9.3867867272
 30
0.0
 10
10.1222201571
 20
9.3867372697
 30
0.0
 10
10.122213768
 20
9.3867001138
 30
0.0
 10
10.1222200278
 20
9.3866631975
 30
0.0
 10
10.1222239621
 20
9.3866138922
 30
0.0
 10
10.1222329029
 20
9.3865276467
 30
0.0
 10
10.1222446006
 20
9.3864044187
 30
0.0
 10
10.1222590979
 20
9.3862565537
 30
0.0
 10
10.122278267
 20
9.3860593973
 30
0.0
 10
10.1223022833
 20
9.3858129529
 30
0.0
 10
10.1223406787
 20
9.3854186413
 30
0.0
 10
10.1223886835
 20
9.3849257519
 30
0.0
 10
10.1224462847
 20
9.3843342847
 30
0.0
 10
10.1225038872
 20
9.3837428174
 30
0.0
 10
10.12258069
 20
9.3829541944
 30
0.0
 10
10.1226766937
 20
9.3819684156
 30
0.0
 10
10.122791898
 20
9.380785481
 30
0.0
 10
10.1229455039
 20
9.379208235
 30
0.0
 10
10.1231375112
 20
9.3772366774
 30
0.0
 10
10.1233679199
 20
9.3748708083
 30
0.0
 10
10.1235983287
 20
9.3725049392
 30
0.0
 10
10.1238287374
 20
9.3701390701
 30
0.0
 10
10.1240591461
 20
9.367773201
 30
0.0
 10
10.1242895549
 20
9.3654073319
 30
0.0
 10
10.1245199636
 20
9.3630414629
 30
0.0
 10
10.1247503724
 20
9.3606755938
 30
0.0
 10
10.1249807811
 20
9.3583097247
 30
0.0
 10
10.1251727884
 20
9.3563381671
 30
0.0
 10
10.1253263943
 20
9.354760921
 30
0.0
 10
10.1254415986
 20
9.3535779865
 30
0.0
 10
10.1255376022
 20
9.3525922077
 30
0.0
 10
10.1256144052
 20
9.3518035847
 30
0.0
 10
10.1256720072
 20
9.3512121174
 30
0.0
 10
10.1257296103
 20
9.3506206502
 30
0.0
 10
10.1257776093
 20
9.3501277605
 30
0.0
 10
10.1258160166
 20
9.3497334497
 30
0.0
 10
10.1258400026
 20
9.3494870031
 30
0.0
 10
10.1258592338
 20
9.3492898513
 30
0.0
 10
10.1258735412
 20
9.3491419724
 30
0.0
 10
10.1258858333
 20
9.3490187876
 30
0.0
 10
10.1258937129
 20
9.348932465
 30
0.0
 10
10.1258993475
 20
9.3488832834
 30
0.0
 10
10.1259003846
 20
9.348845987
 30
0.0
 10
10.1259136109
 20
9.3488102587
 30
0.0
 10
10.1259269942
 20
9.348762074
 30
0.0
 10
10.1259523959
 20
9.3486780057
 30
0.0
 10
10.1259876485
 20
9.3485577749
 30
0.0
 10
10.1260303949
 20
9.3484135549
 30
0.0
 10
10.1260872352
 20
9.3482212416
 30
0.0
 10
10.1261583386
 20
9.3479808569
 30
0.0
 10
10.1262720744
 20
9.3475962376
 30
0.0
 10
10.1264142544
 20
9.3471154647
 30
0.0
 10
10.126584866
 20
9.3465385366
 30
0.0
 10
10.1267554787
 20
9.3459616087
 30
0.0
 10
10.126982962
 20
9.3451923715
 30
0.0
 10
10.1272673162
 20
9.344230825
 30
0.0
 10
10.1276085412
 20
9.3430769691
 30
0.0
 10
10.1280635079
 20
9.3415384947
 30
0.0
 10
10.1286322163
 20
9.3396154016
 30
0.0
 10
10.1293146664
 20
9.33730769
 30
0.0
 10
10.1299971164
 20
9.3349999783
 30
0.0
 10
10.1306795664
 20
9.3326922666
 30
0.0
 10
10.1313620165
 20
9.3303845549
 30
0.0
 10
10.1320444665
 20
9.3280768433
 30
0.0
 10
10.1327269166
 20
9.3257691316
 30
0.0
 10
10.1334093666
 20
9.3234614199
 30
0.0
 10
10.1340918167
 20
9.3211537082
 30
0.0
 10
10.134660525
 20
9.3192306152
 30
0.0
 10
10.1351154917
 20
9.3176921407
 30
0.0
 10
10.1354567168
 20
9.3165382849
 30
0.0
 10
10.1357410709
 20
9.3155767384
 30
0.0
 10
10.1359685543
 20
9.3148075012
 30
0.0
 10
10.1361391666
 20
9.3142305732
 30
0.0
 10
10.13630978
 20
9.3136536455
 30
0.0
 10
10.1364519544
 20
9.3131728714
 30
0.0
 10
10.1365657016
 20
9.3127882546
 30
0.0
 10
10.1366367761
 20
9.3125478632
 30
0.0
 10
10.1366936757
 20
9.3123555637
 30
0.0
 10
10.136736241
 20
9.3122113016
 30
0.0
 10
10.1367720602
 20
9.3120912026
 30
0.0
 10
10.1367964503
 20
9.312006899
 30
0.0
 10
10.1368114545
 20
9.3119590913
 30
0.0
 10
10.1368197022
 20
9.3119222052
 30
0.0
 10
10.136839438
 20
9.3118892574
 30
0.0
 10
10.1368617453
 20
9.3118439534
 30
0.0
 10
10.1369026501
 20
9.3117653113
 30
0.0
 10
10.1369601093
 20
9.3116526309
 30
0.0
 10
10.1370294783
 20
9.3115175576
 30
0.0
 10
10.1371218243
 20
9.3113374099
 30
0.0
 10
10.1372373067
 20
9.3111122424
 30
0.0
 10
10.1374220507
 20
9.3107519648
 30
0.0
 10
10.1376529903
 20
9.3103016211
 30
0.0
 10
10.1379301137
 20
9.3097612073
 30
0.0
 10
10.1382072382
 20
9.3092207938
 30
0.0
 10
10.1385767371
 20
9.3085002423
 30
0.0
 10
10.1390386109
 20
9.3075995531
 30
0.0
 10
10.1395928594
 20
9.306518726
 30
0.0
 10
10.1403318575
 20
9.3050776231
 30
0.0
 10
10.141255605
 20
9.3032762446
 30
0.0
 10
10.142364102
 20
9.3011145904
 30
0.0
 10
10.143472599
 20
9.2989529361
 30
0.0
 10
10.1445810961
 20
9.2967912819
 30
0.0
 10
10.1456895931
 20
9.2946296277
 30
0.0
 10
10.1467980901
 20
9.2924679734
 30
0.0
 10
10.1479065872
 20
9.2903063192
 30
0.0
 10
10.1490150842
 20
9.288144665
 30
0.0
 10
10.1501235812
 20
9.2859830107
 30
0.0
 10
10.1510473288
 20
9.2841816322
 30
0.0
 10
10.1517863268
 20
9.2827405294
 30
0.0
 10
10.1523405753
 20
9.2816597023
 30
0.0
 10
10.152802449
 20
9.280759013
 30
0.0
 10
10.1531719481
 20
9.2800384616
 30
0.0
 10
10.1534490722
 20
9.2794980479
 30
0.0
 10
10.1537261973
 20
9.2789576348
 30
0.0
 10
10.1539571315
 20
9.2785072889
 30
0.0
 10
10.1541418864
 20
9.2781470157
 30
0.0
 10
10.1542573412
 20
9.277921837
 30
0.0
 10
10.1543497439
 20
9.2777417124
 30
0.0
 10
10.1544189396
 20
9.2776065685
 30
0.0
 10
10.1544769408
 20
9.2774941091
 30
0.0
 10
10.1545168782
 20
9.2774150725
 30
0.0
 10
10.1545407354
 20
9.2773704006
 30
0.0
 10
10.1545557105
 20
9.2773355111
 30
0.0
 10
10.154581839
 20
9.2773059178
 30
0.0
 10
10.1546127865
 20
9.2772646128
 30
0.0
 10
10.1546687574
 20
9.2771931896
 30
0.0
 10
10.1547477682
 20
9.2770907066
 30
0.0
 10
10.1548429867
 20
9.2769679195
 30
0.0
 10
10.154969803
 20
9.2768041361
 30
0.0
 10
10.1551283719
 20
9.27659943
 30
0.0
 10
10.1553820551
 20
9.2762718873
 30
0.0
 10
10.1556991684
 20
9.2758624633
 30
0.0
 10
10.1560797004
 20
9.2753711526
 30
0.0
 10
10.1564602334
 20
9.2748798425
 30
0.0
 10
10.1569676104
 20
9.2742247621
 30
0.0
 10
10.1576018317
 20
9.2734059117
 30
0.0
 10
10.1583628973
 20
9.2724232911
 30
0.0
 10
10.1593776515
 20
9.2711131304
 30
0.0
 10
10.1606460941
 20
9.2694754295
 30
0.0
 10
10.1621682253
 20
9.2675101884
 30
0.0
 10
10.1636903565
 20
9.2655449474
 30
0.0
 10
10.1652124877
 20
9.2635797063
 30
0.0
 10
10.1667346189
 20
9.2616144652
 30
0.0
 10
10.1682567501
 20
9.2596492242
 30
0.0
 10
10.1697788813
 20
9.2576839831
 30
0.0
 10
10.1713010124
 20
9.255718742
 30
0.0
 10
10.1728231436
 20
9.253753501
 30
0.0
 10
10.1740915863
 20
9.2521158001
 30
0.0
 10
10.1751063404
 20
9.2508056394
 30
0.0
 10
10.175867406
 20
9.2498230188
 30
0.0
 10
10.1765016273
 20
9.2490041684
 30
0.0
 10
10.1770090044
 20
9.2483490881
 30
0.0
 10
10.1773895371
 20
9.2478577776
 30
0.0
 10
10.1777700705
 20
9.247366468
 30
0.0
 10
10.1780871792
 20
9.2469570407
 30
0.0
 10
10.1783408717
 20
9.2466295049
 30
0.0
 10
10.1784994171
 20
9.2464247811
 30
0.0
 10
10.1786262817
 20
9.246261034
 30
0.0
 10
10.1787213526
 20
9.2461381363
 30
0.0
 10
10.1788008254
 20
9.2460359994
 30
0.0
 10
10.1788559714
 20
9.2459639583
 30
0.0
 10
10.1788882406
 20
9.2459236433
 30
0.0
 10
10.1789103093
 20
9.2458910087
 30
0.0
 10
10.1789405325
 20
9.2458675422
 30
0.0
 10
10.1789779857
 20
9.2458330556
 30
0.0
 10
10.179044854
 20
9.245774194
 30
0.0
 10
10.1791396873
 20
9.2456893271
 30
0.0
 10
10.1792537839
 20
9.2455878202
 30
0.0
 10
10.179405809
 20
9.2454523612
 30
0.0
 10
10.1795958759
 20
9.2452830773
 30
0.0
 10
10.1798999632
 20
9.2450122008
 30
0.0
 10
10.180280079
 20
9.2446736129
 30
0.0
 10
10.1807362151
 20
9.2442673041
 30
0.0
 10
10.181192352
 20
9.2438609962
 30
0.0
 10
10.1818005343
 20
9.243319252
 30
0.0
 10
10.1825607621
 20
9.2426420718
 30
0.0
 10
10.1834730356
 20
9.2418294556
 30
0.0
 10
10.1846894002
 20
9.2407459673
 30
0.0
 10
10.1862098559
 20
9.2393916069
 30
0.0
 10
10.1880344028
 20
9.2377663744
 30
0.0
 10
10.1898589496
 20
9.236141142
 30
0.0
 10
10.1916834965
 20
9.2345159095
 30
0.0
 10
10.1935080434
 20
9.2328906771
 30
0.0
 10
10.1953325903
 20
9.2312654446
 30
0.0
 10
10.1971571371
 20
9.2296402121
 30
0.0
 10
10.198981684
 20
9.2280149797
 30
0.0
 10
10.2008062309
 20
9.2263897472
 30
0.0
 10
10.2023266866
 20
9.2250353869
 30
0.0
 10
10.2035430512
 20
9.2239518985
 30
0.0
 10
10.2044553246
 20
9.2231392823
 30
0.0
 10
10.2052155525
 20
9.2224621021
 30
0.0
 10
10.2058237348
 20
9.221920358
 30
0.0
 10
10.2062798714
 20
9.2215140497
 30
0.0
 10
10.2067360086
 20
9.2211077423
 30
0.0
 10
10.207116121
 20
9.2207691499
 30
0.0
 10
10.2074202154
 20
9.2204982826
 30
0.0
 10
10.207610264
 20
9.2203289755
 30
0.0
 10
10.2077623268
 20
9.2201935641
 30
0.0
 10
10.2078763081
 20
9.2200919118
 30
0.0
 10
10.207971502
 20
9.2200074999
 30
0.0
 10
10.2080377267
 20
9.219947826
 30
0.0
 10
10.2080762112
 20
9.219914641
 30
0.0
 10
10.2081032663
 20
9.2198871764
 30
0.0
 10
10.2081372338
 20
9.219869558
 30
0.0
 10
10.2081801127
 20
9.2198426324
 30
0.0
 10
10.208256274
 20
9.2197971127
 30
0.0
 10
10.2083644887
 20
9.2197312479
 30
0.0
 10
10.2084945977
 20
9.2196525684
 30
0.0
 10
10.2086679885
 20
9.2195475372
 30
0.0
 10
10.2088847571
 20
9.2194162911
 30
0.0
 10
10.2092315701
 20
9.2192062733
 30
0.0
 10
10.209665092
 20
9.2189437593
 30
0.0
 10
10.2101853159
 20
9.218628739
 30
0.0
 10
10.2107055405
 20
9.2183137196
 30
0.0
 10
10.211399173
 20
9.2178936935
 30
0.0
 10
10.2122662137
 20
9.2173686609
 30
0.0
 10
10.2133066625
 20
9.2167386218
 30
0.0
 10
10.2146939275
 20
9.2158985696
 30
0.0
 10
10.2164280089
 20
9.2148485044
 30
0.0
 10
10.2185089065
 20
9.2135884261
 30
0.0
 10
10.2205898042
 20
9.2123283479
 30
0.0
 10
10.2226707018
 20
9.2110682696
 30
0.0
 10
10.2247515994
 20
9.2098081913
 30
0.0
 10
10.226832497
 20
9.2085481131
 30
0.0
 10
10.2289133947
 20
9.2072880348
 30
0.0
 10
10.2309942923
 20
9.2060279566
 30
0.0
 10
10.2330751899
 20
9.2047678783
 30
0.0
 10
10.2348092713
 20
9.2037178131
 30
0.0
 10
10.2361965364
 20
9.2028777609
 30
0.0
 10
10.2372369852
 20
9.2022477218
 30
0.0
 10
10.2381040258
 20
9.2017226892
 30
0.0
 10
10.2387976584
 20
9.2013026631
 30
0.0
 10
10.2393178827
 20
9.2009876434
 30
0.0
 10
10.2398381075
 20
9.2006726246
 30
0.0
 10
10.2402716267
 20
9.2004101057
 30
0.0
 10
10.2406184453
 20
9.200200098
 30
0.0
 10
10.2408351996
 20
9.2000688263
 30
0.0
 10
10.2410086197
 20
9.1999638476
 30
0.0
 10
10.2411386393
 20
9.1998850075
 30
0.0
 10
10.2412471336
 20
9.1998196451
 30
0.0
 10
10.2413227957
 20
9.1997732288
 30
0.0
 10
10.2413664746
 20
9.1997477397
 30
0.0
 10
10.2413979846
 20
9.1997257085
 30
0.0
 10
10.2414342697
 20
9.1997148178
 30
0.0
 10
10.2414809842
 20
9.1996964108
 30
0.0
 10
10.2415635107
 20
9.1996660092
 30
0.0
 10
10.2416809999
 20
9.1996216317
 30
0.0
 10
10.2418221607
 20
9.1995687839
 30
0.0
 10
10.2420103144
 20
9.1994981787
 30
0.0
 10
10.2422455272
 20
9.1994099706
 30
0.0
 10
10.2426218562
 20
9.1992688106
 30
0.0
 10
10.2430922714
 20
9.1990923699
 30
0.0
 10
10.243656768
 20
9.198880637
 30
0.0
 10
10.244221265
 20
9.1986689052
 30
0.0
 10
10.2449739275
 20
9.1983865958
 30
0.0
 10
10.2459147557
 20
9.1980337091
 30
0.0
 10
10.2470437495
 20
9.1976102451
 30
0.0
 10
10.2485490746
 20
9.1970456264
 30
0.0
 10
10.250430731
 20
9.196339853
 30
0.0
 10
10.2526887186
 20
9.1954929249
 30
0.0
 10
10.2549467062
 20
9.1946459968
 30
0.0
 10
10.2572046939
 20
9.1937990688
 30
0.0
 10
10.2594626815
 20
9.1929521407
 30
0.0
 10
10.2617206691
 20
9.1921052126
 30
0.0
 10
10.2639786568
 20
9.1912582845
 30
0.0
 10
10.2662366444
 20
9.1904113565
 30
0.0
 10
10.2684946321
 20
9.1895644284
 30
0.0
 10
10.2703762884
 20
9.188858655
 30
0.0
 10
10.2718816135
 20
9.1882940363
 30
0.0
 10
10.2730106073
 20
9.1878705723
 30
0.0
 10
10.2739514355
 20
9.1875176855
 30
0.0
 10
10.2747040981
 20
9.1872353763
 30
0.0
 10
10.2752685949
 20
9.187023644
 30
0.0
 10
10.2758330921
 20
9.1868119129
 30
0.0
 10
10.2763035053
 20
9.1866354667
 30
0.0
 10
10.2766798383
 20
9.1864943178
 30
0.0
 10
10.276915041
 20
9.1864060815
 30
0.0
 10
10.2771032156
 20
9.1863355341
 30
0.0
 10
10.2772443123
 20
9.1862825098
 30
0.0
 10
10.2773620019
 20
9.1862386845
 30
0.0
 10
10.2774441708
 20
9.1862072972
 30
0.0
 10
10.2774914583
 20
9.1861904695
 30
0.0
 10
10.2775259835
 20
9.1861747279
 30
0.0
 10
10.2775641034
 20
9.1861709156
 30
0.0
 10
10.2776136762
 20
9.1861616715
 30
0.0
 10
10.2777010127
 20
9.186147433
 30
0.0
 10
10.2778254737
 20
9.1861260787
 30
0.0
 10
10.2779749577
 20
9.1861008873
 30
0.0
 10
10.2781742239
 20
9.1860671474
 30
0.0
 10
10.2784233224
 20
9.1860250243
 30
0.0
 10
10.2788218713
 20
9.1859575984
 30
0.0
 10
10.2793200603
 20
9.185873326
 30
0.0
 10
10.2799178859
 20
9.1857721948
 30
0.0
 10
10.2805157118
 20
9.1856710647
 30
0.0
 10
10.2813128128
 20
9.1855362243
 30
0.0
 10
10.2823091892
 20
9.1853676738
 30
0.0
 10
10.2835048409
 20
9.1851654132
 30
0.0
 10
10.2850990431
 20
9.1848957325
 30
0.0
 10
10.2870917959
 20
9.1845586315
 30
0.0
 10
10.2894830992
 20
9.1841541104
 30
0.0
 10
10.2918744026
 20
9.1837495892
 30
0.0
 10
10.2942657059
 20
9.1833450681
 30
0.0
 10
10.2974541103
 20
9.1828057066
 30
0.0
 10
10.3014396159
 20
9.1821315046
 30
0.0
 10
10.3062222225
 20
9.1813224623
 30
0.0
 10
10.3110048292
 20
9.1805134201
 30
0.0
 10
10.3141932336
 20
9.1799740585
 30
0.0
 10
10.3157874358
 20
9.1797043778
 30
0.0
  0
ENDSEC
  0
SECTION
  2
OBJECTS
  0
DICTIONARY
  5
C
100
AcDbDictionary
280
0
281
1
  3
ACAD_GROUP
350
D
  3
ACAD_MLINESTYLE
350
17
  3
ACAD_LAYOUT
350
1A
  3
ACAD_PLOTSETTINGS
350
19
  3
ACAD_PLOTSTYLENAME
350
E
  3
ACAD_IMAGE_DICT
350
       3B4
  3
ACAD_IMAGE_VARS
350
       3B5
  3
ACAD_TABLESTYLE
350
       3B6
  0
IMAGEDEF_REACTOR
  5
3B3
100
AcDbRasterImageDefReactor
 90
2
330
28F
  0
DICTIONARY
  5
D
102
{ACAD_REACTORS
330
C
102
}
100
AcDbDictionary
280
0
281
1
  0
ACDBDICTIONARYWDFLT
  5
E
102
{ACAD_REACTORS
330
C
102
}
100
AcDbDictionary
281
1
  3
Normal
350
F
100
AcDbDictionaryWithDefault
340
F
  0
DICTIONARY
  5
3B4
330
C
100
AcDbDictionary
281
1
  3
A2V_assy_2_img_1
350
       3B9
  0
RASTERVARIABLES
  5
3B5
330
C
100
AcDbRasterVariables
 90
0
 70
0
 71
1
 72
5
  0
DICTIONARY
  5
17
102
{ACAD_REACTORS
330
C
102
}
100
AcDbDictionary
280
0
281
1
  3
Standard
350
18
  0
DICTIONARY
  5
3B6
330
C
100
AcDbDictionary
281
1
  3
Standard
350
       3BA
  3
Standard1
350
       3BB
  0
DICTIONARY
  5
19
102
{ACAD_REACTORS
330
C
102
}
100
AcDbDictionary
281
1
  0
DICTIONARY
  5
1A
102
{ACAD_REACTORS
330
C
102
}
100
AcDbDictionary
281
1
  3
Model
350
3B7
  3
Layout1
350
3B8
  0
ACDBPLACEHOLDER
  5
F
102
{ACAD_REACTORS
330
E
102
}
  0
MLINESTYLE
  5
18
102
{ACAD_REACTORS
330
17
102
}
100
AcDbMlineStyle
  2
STANDARD
 70
0
  3

 62
256
 51
90.0
 52
90.0
 71
2
 49
0.5
 62
256
  6
BYLAYER
 49
-0.5
 62
256
  6
BYLAYER
  0
LAYOUT
  5
3B7
102
{ACAD_REACTORS
330
1A
102
}
100
AcDbPlotSettings
  1

  2
none_device
  4
ANSI_C_(22.00_x_17.00_Inches)
  6

 40
0.0
 41
0.0
 42
0.0
 43
0.0
 44
558.8
 45
431.8
 46
0.0
 47
0.0
 48
0.0
 49
0.0
140
0.0
141
0.0
142
1.0
143
1.0
 70
1024
 72
0
 73
0
 74
0
  7

 75
0
147
1.0
148
0.0
149
0.0
100
AcDbLayout
  1
Model
 70
0
 71
0
 10
0.0
 20
0.0
 11
22.0
 21
17.0
 12
0.0
 22
0.0
 32
0.0
 14
0.0
 24
0.0
 34
0.0
 15
0.0
 25
0.0
 35
0.0
146
0.0
 13
0.0
 23
0.0
 33
0.0
 16
1.0
 26
0.0
 36
0.0
 17
0.0
 27
1.0
 37
0.0
 76
0
330
20C
345
0
346
0
  0
LAYOUT
  5
3B8
102
{ACAD_REACTORS
330
1A
102
}
100
AcDbPlotSettings
  1

  2
none_device
  4
ANSI_C_(22.00_x_17.00_Inches)
  6

 40
0.0
 41
0.0
 42
0.0
 43
0.0
 44
558.8
 45
431.8
 46
0.0
 47
0.0
 48
0.0
 49
0.0
140
0.0
141
0.0
142
1.0
143
1.0
 70
0
 72
0
 73
0
 74
0
  7

 75
0
147
1.0
148
0.0
149
0.0
100
AcDbLayout
  1
Layout1
 70
0
 71
1
 10
0.0
 20
0.0
 11
22.0
 21
17.0
 12
0.0
 22
0.0
 32
0.0
 14
0.0
 24
0.0
 34
0.0
 15
0.0
 25
0.0
 35
0.0
146
0.0
 13
0.0
 23
0.0
 33
0.0
 16
1.0
 26
0.0
 36
0.0
 17
0.0
 27
1.0
 37
0.0
 76
0
330
20D
345
0
346
0
  0
IMAGEDEF
  5
3B9
102
{ACAD_REACTORS
330
3B4
330
3B3
102
}
100
AcDbRasterImageDef
 90
0
  1
A2V_assy_2_img_1.png
 10
369.0
 20
92.0
 11
0.0066666667
 21
0.0066666667
280
1
281
0
  0
TABLESTYLE
  5
3BA
102
{ACAD_REACTORS
330
3B6
330
292
330
293
102
}
330
3B6
100
AcDbTableStyle
  3
Standard
 70
0
 71
0
 40
0.06
 41
0.06
280
1
281
1
  7
Standard
140
0.18
170
1
 62
0
 63
7
283
0
  7
Standard
140
0.18
170
1
 62
0
 63
7
283
0
  7
Standard
140
0.18
170
1
 62
0
 63
7
283
0
  0
TABLESTYLE
  5
3BB
102
{ACAD_REACTORS
330
3B6
330
291
102
}
330
3B6
100
AcDbTableStyle
  3
Standard1
 70
1
 71
0
 40
0.06
 41
0.06
280
1
281
1
  7
Standard
140
0.18
170
1
 62
0
 63
7
283
0
  7
Standard
140
0.18
170
1
 62
0
 63
7
283
0
  7
Standard
140
0.18
170
1
 62
0
 63
7
283
0
  0
ENDSEC
  0
EOF
