999
DXF file: A2J_assy_2.dxf
999
Pro/ENGINEER 2014200 by Parametric Technology Corporation
  0
SECTION
  2
HEADER
  9
$ACADVER
  1
AC1021
  9
$DWGCODEPAGE
  3
ANSI_1252
  9
$EXTMAX
 10
22.0
 20
17.0
 30
0.0
  9
$EXTMIN
 10
0.0
 20
0.0
 30
0.0
  9
$LIMMIN
 10
0.0
 20
0.0
  9
$LIMMAX
 10
22.0
 20
17.0
  9
$VIEWCTR
 10
11.0
 20
8.5
  9
$VIEWSIZE
 40
17.0
  9
$CLAYER
  8
0
  9
$LTSCALE
 40
1.21
  9
$CELTYPE
  6
BYLAYER
  9
$DIMSCALE
 40
1.0
  9
$DIMASZ
 40
0.1875
  9
$DIMEXO
 40
0.0625
  9
$DIMDLI
 40
0.836
  9
$DIMEXE
 40
0.125
  9
$DIMCEN
 40
0.198
  9
$DIMLFAC
 40
1.0
  9
$DIMBLK
  1
_FILLED
  9
$DIMTXT
 40
0.1
  9
$DIMTOL
 70
0
  9
$DIMLIM
 70
0
  9
$DIMTFAC
 40
1.0
  9
$DIMGAP
 40
0.09
  9
$DIMDSEP
 70
46
  9
$AUNITS
 70
0
  9
$PDMODE
 70
3
  9
$PDSIZE
 40
0.3125
  9
$HANDSEED
  5
39E
  9
$TILEMODE
 70
1
  9
$MEASUREMENT
 70
0
  9
$INSUNITS
 70
1
  0
ENDSEC
  0
SECTION
  2
CLASSES
  0
CLASS
  1
ACDBDICTIONARYWDFLT
  2
AcDbDictionaryWithDefault
  3
AutoCAD 2000
 90
0
 91
1
280
0
281
0
  0
CLASS
  1
ACDBPLACEHOLDER
  2
AcDbPlaceHolder
  3
AutoCAD 2000
 90
0
 91
1
280
0
281
0
  0
CLASS
  1
LAYOUT
  2
AcDbLayout
  3
AutoCAD 2000
 90
0
 91
0
280
0
281
0
  0
CLASS
  1
RASTERVARIABLES
  2
AcDbRasterVariables
  3
ISM
 90
0
 91
1
280
0
281
0
  0
CLASS
  1
IMAGEDEF
  2
AcDbRasterImageDef
  3
ISM
 90
0
 91
1
280
0
281
0
  0
CLASS
  1
IMAGEDEF_REACTOR
  2
AcDbRasterImageDefReactor
  3
ISM
 90
0
 91
1
280
0
281
0
  0
CLASS
  1
IMAGE
  2
AcDbRasterImage
  3
ISM
 90
127
 91
1
280
0
281
1
  0
CLASS
  1
TABLESTYLE
  2
AcDbTableStyle
  3
ObjectDBX Classes
 90
2047
 91
1
280
0
281
0
  0
CLASS
  1
ACAD_TABLE
  2
AcDbTable
  3
ObjectDBX Classes
 90
1025
 91
3
280
0
281
1
  0
ENDSEC
  0
SECTION
  2
TABLES
  0
TABLE
  2
VPORT
  5
8
100
AcDbSymbolTable
 70
2
  0
VPORT
  5
1F4
100
AcDbSymbolTableRecord
100
AcDbViewportTableRecord
  2
*ACTIVE
 70
0
 10
0.0
 20
0.0
 11
1.0
 21
1.0
 12
11.0
 22
8.5
 13
0.0
 23
0.0
 14
1.0
 24
1.0
 15
0.0
 25
0.0
 16
0.0
 26
0.0
 36
1.0
 17
0.0
 27
0.0
 37
0.0
 40
17.0
 41
1.2941176471
 42
50.0
 43
0.0
 44
0.0
 50
0.0
 51
0.0
 71
0
 72
100
 73
1
 74
1
 75
0
 76
0
 77
0
 78
0
  0
ENDTAB
  0
TABLE
  2
LTYPE
  5
5
100
AcDbSymbolTable
 70
6
  0
LTYPE
  5
14
100
AcDbSymbolTableRecord
100
AcDbLinetypeTableRecord
  2
BYBLOCK
 70
0
  3

 72
65
 73
0
 40
0.0
  0
LTYPE
  5
15
100
AcDbSymbolTableRecord
100
AcDbLinetypeTableRecord
  2
BYLAYER
 70
0
  3

 72
65
 73
0
 40
0.0
  0
LTYPE
  5
16
100
AcDbSymbolTableRecord
100
AcDbLinetypeTableRecord
  2
CONTINUOUS
 70
64
  3
Solid line
 72
65
 73
0
 40
0.0
  0
LTYPE
  5
1F5
100
AcDbSymbolTableRecord
100
AcDbLinetypeTableRecord
  2
CENTER
 70
64
  3
____ _ ____ _ ____ _ ____ _ ____ _ ____ _ ____
 72
65
 73
4
 40
0.6
 49
0.375
 74
0
 49
-0.075
 74
0
 49
0.075
 74
0
 49
-0.075
 74
0
  0
LTYPE
  5
1F6
100
AcDbSymbolTableRecord
100
AcDbLinetypeTableRecord
  2
HIDDEN
 70
64
  3
- - - - - - - - - - - - - - - - - - - -
 72
65
 73
2
 40
0.2
 49
0.1
 74
0
 49
-0.1
 74
0
  0
LTYPE
  5
1F7
100
AcDbSymbolTableRecord
100
AcDbLinetypeTableRecord
  2
PHANTOM
 70
64
  3
_____ _ _ _____ _ _ _____ _ _ _____
 72
65
 73
6
 40
0.8
 49
0.45
 74
0
 49
-0.05
 74
0
 49
0.1
 74
0
 49
-0.05
 74
0
 49
0.1
 74
0
 49
-0.05
 74
0
  0
LTYPE
  5
1F8
100
AcDbSymbolTableRecord
100
AcDbLinetypeTableRecord
  2
DOT
 70
64
  3
. . . . . . . . . . . . . . . . . . . .
 72
65
 73
2
 40
0.2
 49
0.1
 74
0
 49
-0.1
 74
0
  0
LTYPE
  5
1F9
100
AcDbSymbolTableRecord
100
AcDbLinetypeTableRecord
  2
DASHED
 70
64
  3
- - - - - - - - - - - - - - - - - - - -
 72
65
 73
2
 40
0.2
 49
0.1
 74
0
 49
-0.1
 74
0
  0
ENDTAB
  0
TABLE
  2
LAYER
  5
2
100
AcDbSymbolTable
 70
36
  0
LAYER
  5
10
100
AcDbSymbolTableRecord
100
AcDbLayerTableRecord
  2
0
 70
0
 62
7
  6
CONTINUOUS
370
-3
390
F
  0
LAYER
  5
1FA
100
AcDbSymbolTableRecord
100
AcDbLayerTableRecord
  2
DEFAULT_1
 70
0
 62
7
  6
CENTER
370
-3
390
F
  0
LAYER
  5
1FB
100
AcDbSymbolTableRecord
100
AcDbLayerTableRecord
  2
DEFAULT_2
 70
0
 62
8
  6
HIDDEN
370
-3
390
F
  0
LAYER
  5
1FC
100
AcDbSymbolTableRecord
100
AcDbLayerTableRecord
  2
DEFAULT_3
 70
0
 62
7
  6
PHANTOM
370
-3
390
F
  0
LAYER
  5
1FD
100
AcDbSymbolTableRecord
100
AcDbLayerTableRecord
  2
01___PRT_ALL_DTM_PLN
 70
0
 62
7
  6
CONTINUOUS
370
-3
390
F
  0
LAYER
  5
1FE
100
AcDbSymbolTableRecord
100
AcDbLayerTableRecord
  2
01___PRT_DEF_DTM_PLN
 70
0
 62
7
  6
CONTINUOUS
370
-3
390
F
  0
LAYER
  5
1FF
100
AcDbSymbolTableRecord
100
AcDbLayerTableRecord
  2
02___PRT_ALL_AXES
 70
0
 62
7
  6
CONTINUOUS
370
-3
390
F
  0
LAYER
  5
200
100
AcDbSymbolTableRecord
100
AcDbLayerTableRecord
  2
03___PRT_ALL_CURVES
 70
0
 62
7
  6
CONTINUOUS
370
-3
390
F
  0
LAYER
  5
201
100
AcDbSymbolTableRecord
100
AcDbLayerTableRecord
  2
04___PRT_ALL_DTM_PNT
 70
0
 62
7
  6
CONTINUOUS
370
-3
390
F
  0
LAYER
  5
202
100
AcDbSymbolTableRecord
100
AcDbLayerTableRecord
  2
05___PRT_ALL_DTM_CSYS
 70
0
 62
7
  6
CONTINUOUS
370
-3
390
F
  0
LAYER
  5
203
100
AcDbSymbolTableRecord
100
AcDbLayerTableRecord
  2
05___PRT_DEF_DTM_CSYS
 70
0
 62
7
  6
CONTINUOUS
370
-3
390
F
  0
LAYER
  5
204
100
AcDbSymbolTableRecord
100
AcDbLayerTableRecord
  2
06___PRT_ALL_SURFS
 70
0
 62
7
  6
CONTINUOUS
370
-3
390
F
  0
LAYER
  5
205
100
AcDbSymbolTableRecord
100
AcDbLayerTableRecord
  2
DATUM_PLANES
 70
0
 62
7
  6
CONTINUOUS
370
-3
390
F
  0
LAYER
  5
206
100
AcDbSymbolTableRecord
100
AcDbLayerTableRecord
  2
PORT_AREAS
 70
0
 62
7
  6
CONTINUOUS
370
-3
390
F
  0
LAYER
  5
207
100
AcDbSymbolTableRecord
100
AcDbLayerTableRecord
  2
SUNNBOMCOSMETIC
 70
0
 62
7
  6
CONTINUOUS
370
-3
390
F
  0
LAYER
  5
208
100
AcDbSymbolTableRecord
100
AcDbLayerTableRecord
  2
SUNNBOMSTAMPING
 70
0
 62
7
  6
CONTINUOUS
370
-3
390
F
  0
LAYER
  5
209
100
AcDbSymbolTableRecord
100
AcDbLayerTableRecord
  2
THREADS
 70
0
 62
7
  6
CONTINUOUS
370
-3
390
F
  0
ENDTAB
  0
TABLE
  2
STYLE
  5
3
100
AcDbSymbolTable
 70
1
  0
STYLE
  5
11
100
AcDbSymbolTableRecord
100
AcDbTextStyleTableRecord
  2
STANDARD
 70
0
 40
0.0
 41
0.8
 50
0.0
 71
0
 42
0.2
  3
txt
  4

  0
STYLE
  5
20A
100
AcDbSymbolTableRecord
100
AcDbTextStyleTableRecord
  2
TEXTSTYLE_1
 70
0
 40
0.0
 41
0.8
 50
0.0
 71
0
 42
0.2
  3
gdt
  4

  0
ENDTAB
  0
TABLE
  2
VIEW
  5
6
100
AcDbSymbolTable
 70
0
  0
ENDTAB
  0
TABLE
  2
UCS
  5
7
100
AcDbSymbolTable
 70
0
  0
ENDTAB
  0
TABLE
  2
APPID
  5
9
100
AcDbSymbolTable
 70
1
  0
APPID
  5
20B
100
AcDbSymbolTableRecord
100
AcDbRegAppTableRecord
  2
ACAD
 70
0
  0
ENDTAB
  0
TABLE
  2
BLOCK_RECORD
  5
1
100
AcDbSymbolTable
 70
0
  0
BLOCK_RECORD
  5
20C
100
AcDbSymbolTableRecord
100
AcDbBlockTableRecord
  2
*Model_Space
  0
BLOCK_RECORD
  5
20D
100
AcDbSymbolTableRecord
100
AcDbBlockTableRecord
  2
*Paper_Space
  0
BLOCK_RECORD
  5
20E
100
AcDbSymbolTableRecord
100
AcDbBlockTableRecord
  2
SUN_FIRST_THIRD_ANGLE_BL0
  0
BLOCK_RECORD
  5
20F
100
AcDbSymbolTableRecord
100
AcDbBlockTableRecord
  2
*T1
  0
BLOCK_RECORD
  5
210
100
AcDbSymbolTableRecord
100
AcDbBlockTableRecord
  2
*T2
  0
BLOCK_RECORD
  5
211
100
AcDbSymbolTableRecord
100
AcDbBlockTableRecord
  2
*T3
  0
ENDTAB
  0
TABLE
  2
DIMSTYLE
  5
A
100
AcDbSymbolTable
 70
1
100
AcDbDimStyleTable
 71
0
  0
DIMSTYLE
105
212
100
AcDbSymbolTableRecord
100
AcDbDimStyleTableRecord
  2
STANDARD
 70
0
  3

  4

 40
1.0
 41
0.1875
 42
0.0625
 43
0.38
 44
0.125
 45
0.0
 46
0.0
 47
0.001
 48
0.001
140
0.1
141
0.09
142
0.0
143
25.4
144
1.0
145
0.0
146
1.0
147
0.09
 71
0.0
 72
0.0
 73
1
 74
1
 75
0
 76
0
 77
0
 78
4
170
0
171
2
172
0
173
0
174
0
175
0
176
0
177
0
178
0
270
2
271
3
272
3
273
2
274
2
275
0
280
0
281
0
282
0
283
1
284
4
285
0
286
0
287
3
288
0
340
11
278
46
  0
ENDTAB
  0
ENDSEC
  0
SECTION
  2
BLOCKS
  0
BLOCK
  5
20
100
AcDbEntity
  8
0
100
AcDbBlockBegin
  2
*Model_Space
 70
0
 10
0.0
 20
0.0
 30
0.0
  3
*Model_Space
  1

  0
ENDBLK
  5
21
100
AcDbEntity
  8
0
100
AcDbBlockEnd
  0
BLOCK
  5
1C
100
AcDbEntity
  8
0
100
AcDbBlockBegin
  2
*Paper_Space
 70
0
 10
0.0
 20
0.0
 30
0.0
  3
*Paper_Space
  1

  0
ENDBLK
  5
1D
100
AcDbEntity
  8
0
100
AcDbBlockEnd
  0
BLOCK
  5
213
100
AcDbEntity
  8
0
100
AcDbBlockBegin
 62
2
  6
CONTINUOUS
  2
SUN_FIRST_THIRD_ANGLE_BL0
 70
64
 10
20.4816717061
 20
1.2289683772
  3
SUN_FIRST_THIRD_ANGLE_BL0
  1

  0
TEXT
  5
214
100
AcDbEntity
  8
0
100
AcDbText
 62
2
  6
CONTINUOUS
 10
19.4750896608
 20
1.4136269581
  7
STANDARD
 40
0.08
  1
FIRST ANGLE
 41
0.8
 72
0
100
AcDbText
  0
TEXT
  5
215
100
AcDbEntity
  8
0
100
AcDbText
 62
2
  6
CONTINUOUS
 10
20.7842537513
 20
1.4047600029
  7
STANDARD
 40
0.08
  1
THIRD ANGLE
 41
0.8
 72
0
100
AcDbText
  0
LINE
  5
216
100
AcDbEntity
  8
0
100
AcDbLine
 62
7
  6
CONTINUOUS
 10
19.4767170086
 20
1.1727031207
 11
19.6334271527
 21
1.1717972817
  0
LINE
  5
217
100
AcDbEntity
  8
0
100
AcDbLine
 62
7
  6
CONTINUOUS
 10
19.6596964832
 20
1.1717972817
 11
19.6950230232
 21
1.171593082
  0
LINE
  5
218
100
AcDbEntity
  8
0
100
AcDbLine
 62
7
  6
CONTINUOUS
 10
19.7194818561
 20
1.1708914427
 11
19.8852396156
 21
1.1699333054
  0
LINE
  5
219
100
AcDbEntity
  8
0
100
AcDbLine
 62
7
  6
CONTINUOUS
 10
19.4758111696
 20
1.2723454088
 11
19.88525039
 21
1.3511534004
  0
LINE
  5
21A
100
AcDbEntity
  8
0
100
AcDbLine
 62
7
  6
CONTINUOUS
 10
19.88525039
 20
1.3511534004
 11
19.8831348489
 21
0.9851647912
  0
LINE
  5
21B
100
AcDbEntity
  8
0
100
AcDbLine
 62
7
  6
CONTINUOUS
 10
19.8831348489
 20
0.9851647912
 11
19.4767170086
 21
1.0658141206
  0
LINE
  5
21C
100
AcDbEntity
  8
0
100
AcDbLine
 62
7
  6
CONTINUOUS
 10
19.4767170086
 20
1.0658141206
 11
19.4779056764
 21
1.2714536432
  0
CIRCLE
  5
21D
100
AcDbEntity
  8
0
100
AcDbCircle
 62
7
  6
CONTINUOUS
 10
20.2068232291
 20
1.1717972817
 40
0.175742101
  0
CIRCLE
  5
21E
100
AcDbEntity
  8
0
100
AcDbCircle
 62
7
  6
CONTINUOUS
 10
20.2068232291
 20
1.1717972817
 40
0.1005522074
  0
LINE
  5
21F
100
AcDbEntity
  8
0
100
AcDbLine
 62
7
  6
CONTINUOUS
 10
20.2077290681
 20
1.3756110529
 11
20.2071171714
 21
1.2379342989
  0
LINE
  5
220
100
AcDbEntity
  8
0
100
AcDbLine
 62
7
  6
CONTINUOUS
 10
20.2077290681
 20
1.2016899681
 11
20.2074674401
 21
1.1428236749
  0
LINE
  5
221
100
AcDbEntity
  8
0
100
AcDbLine
 62
7
  6
CONTINUOUS
 10
20.208634907
 20
1.101141841
 11
20.2080230104
 21
0.963465087
  0
LINE
  5
222
100
AcDbEntity
  8
0
100
AcDbLine
 62
7
  6
CONTINUOUS
 10
20.0066328138
 20
1.1745147986
 11
20.1443095678
 21
1.1739029019
  0
LINE
  5
223
100
AcDbEntity
  8
0
100
AcDbLine
 62
7
  6
CONTINUOUS
 10
20.1832714155
 20
1.1727031207
 11
20.238153505
 21
1.172335442
  0
LINE
  5
224
100
AcDbEntity
  8
0
100
AcDbLine
 62
7
  6
CONTINUOUS
 10
20.2756669918
 20
1.1717972817
 11
20.407916871
 21
1.1712095044
  0
CIRCLE
  5
225
100
AcDbEntity
  8
0
100
AcDbCircle
 62
7
  6
CONTINUOUS
 10
20.7509457401
 20
1.1693297793
 40
0.1722024983
  0
CIRCLE
  5
226
100
AcDbEntity
  8
0
100
AcDbCircle
 62
7
  6
CONTINUOUS
 10
20.7509457401
 20
1.1693297793
 40
0.0985164967
  0
LINE
  5
227
100
AcDbEntity
  8
0
100
AcDbLine
 62
7
  6
CONTINUOUS
 10
20.7169767782
 20
1.170462078
 11
20.7825395137
 21
1.1682766535
  0
LINE
  5
228
100
AcDbEntity
  8
0
100
AcDbLine
 62
7
  6
CONTINUOUS
 10
20.8177513651
 20
1.1693297793
 11
20.947965719
 21
1.1693297793
  0
LINE
  5
229
100
AcDbEntity
  8
0
100
AcDbLine
 62
7
  6
CONTINUOUS
 10
20.6875370113
 20
1.170462078
 11
20.5573226574
 21
1.170462078
  0
LINE
  5
22A
100
AcDbEntity
  8
0
100
AcDbLine
 62
7
  6
CONTINUOUS
 10
20.7486811426
 20
1.1987695462
 11
20.7486811426
 21
1.1432869085
  0
LINE
  5
22B
100
AcDbEntity
  8
0
100
AcDbLine
 62
7
  6
CONTINUOUS
 10
20.7498134414
 20
1.1059210505
 11
20.7498134414
 21
0.9757066966
  0
LINE
  5
22C
100
AcDbEntity
  8
0
100
AcDbLine
 62
7
  6
CONTINUOUS
 10
20.7486811426
 20
1.2338708068
 11
20.7486811426
 21
1.3640851607
  0
LINE
  5
22D
100
AcDbEntity
  8
0
100
AcDbLine
 62
7
  6
CONTINUOUS
 10
21.0702539817
 20
1.2701043662
 11
21.4790138229
 21
1.3448360823
  0
LINE
  5
22E
100
AcDbEntity
  8
0
100
AcDbLine
 62
7
  6
CONTINUOUS
 10
21.4790138229
 20
1.3448360823
 11
21.4790138229
 21
0.9779712941
  0
LINE
  5
22F
100
AcDbEntity
  8
0
100
AcDbLine
 62
7
  6
CONTINUOUS
 10
21.4790138229
 20
0.9779712941
 11
21.069121683
 21
1.0617614
  0
LINE
  5
230
100
AcDbEntity
  8
0
100
AcDbLine
 62
7
  6
CONTINUOUS
 10
21.0702539817
 20
1.2701043662
 11
21.069121683
 21
1.0617614
  0
LINE
  5
231
100
AcDbEntity
  8
0
100
AcDbLine
 62
7
  6
CONTINUOUS
 10
21.4790138229
 20
1.1693297793
 11
21.3159628059
 21
1.1693297793
  0
LINE
  5
232
100
AcDbEntity
  8
0
100
AcDbLine
 62
7
  6
CONTINUOUS
 10
21.2876553377
 20
1.1693297793
 11
21.2502894796
 21
1.1693297793
  0
LINE
  5
233
100
AcDbEntity
  8
0
100
AcDbLine
 62
7
  6
CONTINUOUS
 10
21.2208497126
 20
1.1659328831
 11
21.0713862804
 21
1.1659328831
  0
LINE
  5
234
100
AcDbEntity
  8
0
100
AcDbLine
 62
7
  6
CONTINUOUS
 10
20.4796138713
 20
1.5284908897
 11
20.4766766948
 21
0.9294458646
  0
ENDBLK
  5
235
100
AcDbEntity
  8
0
  6
BYBLOCK
 62
0
100
AcDbBlockEnd
  0
BLOCK
  5
236
100
AcDbEntity
  8
0
100
AcDbBlockBegin
  2
*T1
 70
1
 10
0.0
 20
0.0
  3
*T1
  1

  0
LINE
  5
237
100
AcDbEntity
  8
0
100
AcDbLine
 62
2
  6
CONTINUOUS
 10
9.275
 20
0.0
 11
-0.0
 21
0.0
  0
LINE
  5
238
100
AcDbEntity
  8
0
100
AcDbLine
 62
2
  6
CONTINUOUS
 10
9.275
 20
0.0
 11
9.275
 21
1.25
  0
LINE
  5
239
100
AcDbEntity
  8
0
100
AcDbLine
 62
2
  6
CONTINUOUS
 10
9.275
 20
0.625
 11
-0.0
 21
0.625
  0
LINE
  5
23A
100
AcDbEntity
  8
0
100
AcDbLine
 62
2
  6
CONTINUOUS
 10
9.275
 20
1.25
 11
-0.0
 21
1.25
  0
LINE
  5
23B
100
AcDbEntity
  8
0
100
AcDbLine
 62
2
  6
CONTINUOUS
 10
6.8
 20
0.0
 11
6.8
 21
1.25
  0
LINE
  5
23C
100
AcDbEntity
  8
0
100
AcDbLine
 62
2
  6
CONTINUOUS
 10
6.4
 20
0.0
 11
6.4
 21
0.625
  0
LINE
  5
23D
100
AcDbEntity
  8
0
100
AcDbLine
 62
2
  6
CONTINUOUS
 10
5.9
 20
0.0
 11
5.9
 21
0.625
  0
LINE
  5
23E
100
AcDbEntity
  8
0
100
AcDbLine
 62
2
  6
CONTINUOUS
 10
5.2
 20
0.0
 11
5.2
 21
0.625
  0
LINE
  5
23F
100
AcDbEntity
  8
0
100
AcDbLine
 62
2
  6
CONTINUOUS
 10
4.1
 20
0.0
 11
4.1
 21
1.25
  0
LINE
  5
240
100
AcDbEntity
  8
0
100
AcDbLine
 62
2
  6
CONTINUOUS
 10
-0.0
 20
0.0
 11
-0.0
 21
1.25
  0
MTEXT
  5
241
100
AcDbEntity
  8
0
100
AcDbMText
 62
2
  6
CONTINUOUS
  7
STANDARD
 71
2
 72
1
 10
6.6
 20
0.325
 30
0.0
 11
1.0
 21
0.0
 31
0.0
 44
0.9
  1
2
 40
0.125
 41
0.2
  0
MTEXT
  5
242
100
AcDbEntity
  8
0
100
AcDbMText
 62
2
  6
CONTINUOUS
  7
STANDARD
 71
2
 72
1
 10
6.15
 20
0.325
 30
0.0
 11
1.0
 21
0.0
 31
0.0
 44
0.9
  1
C
 40
0.125
 41
0.2
  0
MTEXT
  5
243
100
AcDbEntity
  8
0
100
AcDbMText
 62
2
  6
CONTINUOUS
  7
STANDARD
 71
2
 72
1
 10
5.55
 20
0.325
 30
0.0
 11
1.0
 21
0.0
 31
0.0
 44
0.9
  1
1.000
 40
0.125
 41
1.0
  0
MTEXT
  5
244
100
AcDbEntity
  8
0
100
AcDbMText
 62
2
  6
CONTINUOUS
  7
STANDARD
 71
2
 72
1
 10
4.65
 20
0.325
 30
0.0
 11
1.0
 21
0.0
 31
0.0
 44
0.9
  1
Oct-04-23
 40
0.125
 41
1.8
  0
MTEXT
  5
245
100
AcDbEntity
  8
0
100
AcDbMText
 62
2
  6
CONTINUOUS
  7
STANDARD
 71
2
 72
1
 10
2.05
 20
0.4625
 30
0.0
 11
1.0
 21
0.0
 31
0.0
 44
0.9
  1
T-11A Line mount\P(See Notes for Body Features)
 40
0.125
 41
5.8
  0
MTEXT
  5
246
100
AcDbEntity
  8
0
100
AcDbMText
 62
2
  6
CONTINUOUS
  7
STANDARD
 71
1
 72
1
 10
6.45
 20
0.5625
 30
0.0
 11
1.0
 21
0.0
 31
0.0
 44
0.9
  1
SHEET
 40
0.06
 41
0.48
  0
MTEXT
  5
247
100
AcDbEntity
  8
0
100
AcDbMText
 62
2
  6
CONTINUOUS
  7
STANDARD
 71
1
 72
1
 10
5.95
 20
0.5625
 30
0.0
 11
1.0
 21
0.0
 31
0.0
 44
0.9
  1
DWG SIZE
 40
0.06
 41
0.768
  0
MTEXT
  5
248
100
AcDbEntity
  8
0
100
AcDbMText
 62
2
  6
CONTINUOUS
  7
STANDARD
 71
1
 72
1
 10
5.25
 20
0.5625
 30
0.0
 11
1.0
 21
0.0
 31
0.0
 44
0.9
  1
SCALE
 40
0.06
 41
0.48
  0
MTEXT
  5
249
100
AcDbEntity
  8
0
100
AcDbMText
 62
2
  6
CONTINUOUS
  7
STANDARD
 71
1
 72
1
 10
4.15
 20
0.5625
 30
0.0
 11
1.0
 21
0.0
 31
0.0
 44
0.9
  1
DATE
 40
0.06
 41
0.384
  0
MTEXT
  5
24A
100
AcDbEntity
  8
0
100
AcDbMText
 62
2
  6
CONTINUOUS
  7
STANDARD
 71
1
 72
1
 10
0.05
 20
0.5625
 30
0.0
 11
1.0
 21
0.0
 31
0.0
 44
0.9
  1
DESCRIPTION
 40
0.06
 41
1.056
  0
MTEXT
  5
24B
100
AcDbEntity
  8
0
100
AcDbMText
 62
2
  6
CONTINUOUS
  7
STANDARD
 71
2
 72
1
 10
5.45
 20
1.0375
 30
0.0
 11
1.0
 21
0.0
 31
0.0
 44
0.9
  1
ALL DIMENSIONS IN INCH\PVIEWS ARE THIRD ANGLE
 40
0.12
 41
4.224
  0
MTEXT
  5
24C
100
AcDbEntity
  8
0
100
AcDbMText
 62
2
  6
CONTINUOUS
  7
STANDARD
 71
2
 72
1
 10
2.05
 20
0.95
 30
0.0
 11
1.0
 21
0.0
 31
0.0
 44
0.9
  1
A2J
 40
0.125
 41
0.6
  0
MTEXT
  5
24D
100
AcDbEntity
  8
0
100
AcDbMText
 62
2
  6
CONTINUOUS
  7
STANDARD
 71
1
 72
1
 10
0.05
 20
1.1875
 30
0.0
 11
1.0
 21
0.0
 31
0.0
 44
0.9
  1
MODEL
 40
0.06
 41
0.48
  0
ENDBLK
  5
24E
100
AcDbEntity
  8
0
  6
BYBLOCK
 62
0
100
AcDbBlockEnd
  0
BLOCK
  5
24F
100
AcDbEntity
  8
0
100
AcDbBlockBegin
  2
*T2
 70
1
 10
0.0
 20
0.0
  3
*T2
  1

  0
LINE
  5
250
100
AcDbEntity
  8
0
100
AcDbLine
 62
2
  6
CONTINUOUS
 10
0.0
 20
0.0
 11
9.055
 21
0.0
  0
LINE
  5
251
100
AcDbEntity
  8
0
100
AcDbLine
 62
2
  6
CONTINUOUS
 10
0.0
 20
0.0
 11
0.0
 21
-2.844
  0
LINE
  5
252
100
AcDbEntity
  8
0
100
AcDbLine
 62
2
  6
CONTINUOUS
 10
0.0
 20
-0.344
 11
9.055
 21
-0.344
  0
LINE
  5
253
100
AcDbEntity
  8
0
100
AcDbLine
 62
2
  6
CONTINUOUS
 10
0.0
 20
-0.594
 11
9.055
 21
-0.594
  0
LINE
  5
254
100
AcDbEntity
  8
0
100
AcDbLine
 62
2
  6
CONTINUOUS
 10
0.0
 20
-0.844
 11
9.055
 21
-0.844
  0
LINE
  5
255
100
AcDbEntity
  8
0
100
AcDbLine
 62
2
  6
CONTINUOUS
 10
0.0
 20
-1.094
 11
9.055
 21
-1.094
  0
LINE
  5
256
100
AcDbEntity
  8
0
100
AcDbLine
 62
2
  6
CONTINUOUS
 10
0.0
 20
-1.344
 11
9.055
 21
-1.344
  0
LINE
  5
257
100
AcDbEntity
  8
0
100
AcDbLine
 62
2
  6
CONTINUOUS
 10
0.0
 20
-1.594
 11
9.055
 21
-1.594
  0
LINE
  5
258
100
AcDbEntity
  8
0
100
AcDbLine
 62
2
  6
CONTINUOUS
 10
0.0
 20
-1.844
 11
9.055
 21
-1.844
  0
LINE
  5
259
100
AcDbEntity
  8
0
100
AcDbLine
 62
2
  6
CONTINUOUS
 10
0.0
 20
-2.094
 11
9.055
 21
-2.094
  0
LINE
  5
25A
100
AcDbEntity
  8
0
100
AcDbLine
 62
2
  6
CONTINUOUS
 10
0.0
 20
-2.344
 11
9.055
 21
-2.344
  0
LINE
  5
25B
100
AcDbEntity
  8
0
100
AcDbLine
 62
2
  6
CONTINUOUS
 10
0.0
 20
-2.594
 11
9.055
 21
-2.594
  0
LINE
  5
25C
100
AcDbEntity
  8
0
100
AcDbLine
 62
2
  6
CONTINUOUS
 10
0.0
 20
-2.844
 11
9.055
 21
-2.844
  0
LINE
  5
25D
100
AcDbEntity
  8
0
100
AcDbLine
 62
2
  6
CONTINUOUS
 10
3.055
 20
0.0
 11
3.055
 21
-2.844
  0
LINE
  5
25E
100
AcDbEntity
  8
0
100
AcDbLine
 62
2
  6
CONTINUOUS
 10
9.055
 20
0.0
 11
9.055
 21
-2.844
  0
MTEXT
  5
25F
100
AcDbEntity
  8
0
100
AcDbMText
 62
2
  6
CONTINUOUS
  7
STANDARD
 71
2
 72
1
 10
1.5275
 20
-0.0995
 30
0.0
 11
1.0
 21
0.0
 31
0.0
 44
0.9
  1
Technical Data
 40
0.145
 41
3.248
  0
MTEXT
  5
260
100
AcDbEntity
  8
0
100
AcDbMText
 62
2
  6
CONTINUOUS
  7
STANDARD
 71
2
 72
1
 10
4.555
 20
-0.0995
 30
0.0
 11
1.0
 21
0.0
 31
0.0
 44
0.9
  1
U.S. Units
 40
0.145
 41
2.32
  0
MTEXT
  5
261
100
AcDbEntity
  8
0
100
AcDbMText
 62
2
  6
CONTINUOUS
  7
STANDARD
 71
2
 72
1
 10
7.555
 20
-0.0995
 30
0.0
 11
1.0
 21
0.0
 31
0.0
 44
0.9
  1
Metric Units
 40
0.145
 41
2.784
  0
MTEXT
  5
262
100
AcDbEntity
  8
0
100
AcDbMText
 62
2
  6
CONTINUOUS
  7
STANDARD
 71
2
 72
1
 10
1.5275
 20
-0.4065
 30
0.0
 11
1.0
 21
0.0
 31
0.0
 44
0.9
  1
Cavity
 40
0.125
 41
1.2
  0
MTEXT
  5
263
100
AcDbEntity
  8
0
100
AcDbMText
 62
2
  6
CONTINUOUS
  7
STANDARD
 71
2
 72
1
 10
6.055
 20
-0.4065
 30
0.0
 11
1.0
 21
0.0
 31
0.0
 44
0.9
  1
T-11A
 40
0.125
 41
1.0
  0
MTEXT
  5
264
100
AcDbEntity
  8
0
100
AcDbMText
 62
2
  6
CONTINUOUS
  7
STANDARD
 71
2
 72
1
 10
1.5275
 20
-0.6565
 30
0.0
 11
1.0
 21
0.0
 31
0.0
 44
0.9
  1
Body Features
 40
0.125
 41
2.6
  0
MTEXT
  5
265
100
AcDbEntity
  8
0
100
AcDbMText
 62
2
  6
CONTINUOUS
  7
STANDARD
 71
2
 72
1
 10
6.055
 20
-0.6565
 30
0.0
 11
1.0
 21
0.0
 31
0.0
 44
0.9
  1
(See Notes)
 40
0.125
 41
2.2
  0
MTEXT
  5
266
100
AcDbEntity
  8
0
100
AcDbMText
 62
2
  6
CONTINUOUS
  7
STANDARD
 71
2
 72
1
 10
1.5275
 20
-0.9065
 30
0.0
 11
1.0
 21
0.0
 31
0.0
 44
0.9
  1
Body Type
 40
0.125
 41
1.8
  0
MTEXT
  5
267
100
AcDbEntity
  8
0
100
AcDbMText
 62
2
  6
CONTINUOUS
  7
STANDARD
 71
2
 72
1
 10
6.055
 20
-0.9065
 30
0.0
 11
1.0
 21
0.0
 31
0.0
 44
0.9
  1
Line mount
 40
0.125
 41
2.0
  0
MTEXT
  5
268
100
AcDbEntity
  8
0
100
AcDbMText
 62
2
  6
CONTINUOUS
  7
STANDARD
 71
2
 72
1
 10
1.5275
 20
-1.1565
 30
0.0
 11
1.0
 21
0.0
 31
0.0
 44
0.9
  1
Interface
 40
0.125
 41
1.8
  0
MTEXT
  5
269
100
AcDbEntity
  8
0
100
AcDbMText
 62
2
  6
CONTINUOUS
  7
STANDARD
 71
2
 72
1
 10
6.055
 20
-1.1565
 30
0.0
 11
1.0
 21
0.0
 31
0.0
 44
0.9
  1
None
 40
0.125
 41
0.8
  0
MTEXT
  5
26A
100
AcDbEntity
  8
0
100
AcDbMText
 62
2
  6
CONTINUOUS
  7
STANDARD
 71
2
 72
1
 10
1.5275
 20
-1.4065
 30
0.0
 11
1.0
 21
0.0
 31
0.0
 44
0.9
  1
Open Cavity Quantity
 40
0.125
 41
4.0
  0
MTEXT
  5
26B
100
AcDbEntity
  8
0
100
AcDbMText
 62
2
  6
CONTINUOUS
  7
STANDARD
 71
2
 72
1
 10
6.055
 20
-1.4065
 30
0.0
 11
1.0
 21
0.0
 31
0.0
 44
0.9
  1
1
 40
0.125
 41
0.2
  0
MTEXT
  5
26C
100
AcDbEntity
  8
0
100
AcDbMText
 62
2
  6
CONTINUOUS
  7
STANDARD
 71
2
 72
1
 10
1.5275
 20
-1.6565
 30
0.0
 11
1.0
 21
0.0
 31
0.0
 44
0.9
  1
Weight
 40
0.125
 41
1.2
  0
MTEXT
  5
26D
100
AcDbEntity
  8
0
100
AcDbMText
 62
2
  6
CONTINUOUS
  7
STANDARD
 71
2
 72
1
 10
4.555
 20
-1.6565
 30
0.0
 11
1.0
 21
0.0
 31
0.0
 44
0.9
  1
2.016 lb.
 40
0.125
 41
1.8
  0
MTEXT
  5
26E
100
AcDbEntity
  8
0
100
AcDbMText
 62
2
  6
CONTINUOUS
  7
STANDARD
 71
2
 72
1
 10
7.555
 20
-1.6565
 30
0.0
 11
1.0
 21
0.0
 31
0.0
 44
0.9
  1
0,915 kg.
 40
0.125
 41
1.8
  0
MTEXT
  5
26F
100
AcDbEntity
  8
0
100
AcDbMText
 62
2
  6
CONTINUOUS
  7
STANDARD
 71
2
 72
1
 10
1.5275
 20
-1.9065
 30
0.0
 11
1.0
 21
0.0
 31
0.0
 44
0.9
  1
Mounting Hole Diameter
 40
0.125
 41
4.4
  0
MTEXT
  5
270
100
AcDbEntity
  8
0
100
AcDbMText
 62
2
  6
CONTINUOUS
  7
STANDARD
 71
2
 72
1
 10
4.555
 20
-1.9065
 30
0.0
 11
1.0
 21
0.0
 31
0.0
 44
0.9
  1
.34 in.
 40
0.125
 41
1.4
  0
MTEXT
  5
271
100
AcDbEntity
  8
0
100
AcDbMText
 62
2
  6
CONTINUOUS
  7
STANDARD
 71
2
 72
1
 10
7.555
 20
-1.9065
 30
0.0
 11
1.0
 21
0.0
 31
0.0
 44
0.9
  1
8.6 mm
 40
0.125
 41
1.2
  0
MTEXT
  5
272
100
AcDbEntity
  8
0
100
AcDbMText
 62
2
  6
CONTINUOUS
  7
STANDARD
 71
2
 72
1
 10
1.5275
 20
-2.1565
 30
0.0
 11
1.0
 21
0.0
 31
0.0
 44
0.9
  1
Mounting Hole Depth
 40
0.125
 41
3.8
  0
MTEXT
  5
273
100
AcDbEntity
  8
0
100
AcDbMText
 62
2
  6
CONTINUOUS
  7
STANDARD
 71
2
 72
1
 10
6.055
 20
-2.1565
 30
0.0
 11
1.0
 21
0.0
 31
0.0
 44
0.9
  1
Through
 40
0.125
 41
1.4
  0
MTEXT
  5
274
100
AcDbEntity
  8
0
100
AcDbMText
 62
2
  6
CONTINUOUS
  7
STANDARD
 71
2
 72
1
 10
1.5275
 20
-2.4065
 30
0.0
 11
1.0
 21
0.0
 31
0.0
 44
0.9
  1
Mounting Hole Quantity
 40
0.125
 41
4.4
  0
MTEXT
  5
275
100
AcDbEntity
  8
0
100
AcDbMText
 62
2
  6
CONTINUOUS
  7
STANDARD
 71
2
 72
1
 10
6.055
 20
-2.4065
 30
0.0
 11
1.0
 21
0.0
 31
0.0
 44
0.9
  1
2
 40
0.125
 41
0.2
  0
MTEXT
  5
276
100
AcDbEntity
  8
0
100
AcDbMText
 62
2
  6
CONTINUOUS
  7
STANDARD
 71
2
 72
1
 10
1.5275
 20
-2.6565
 30
0.0
 11
1.0
 21
0.0
 31
0.0
 44
0.9
  1
Includes integral cartridge(s)
 40
0.125
 41
6.0
  0
MTEXT
  5
277
100
AcDbEntity
  8
0
100
AcDbMText
 62
2
  6
CONTINUOUS
  7
STANDARD
 71
2
 72
1
 10
6.055
 20
-2.6565
 30
0.0
 11
1.0
 21
0.0
 31
0.0
 44
0.9
  1
Yes (see Included Components)
 40
0.125
 41
5.8
  0
ENDBLK
  5
278
100
AcDbEntity
  8
0
  6
BYBLOCK
 62
0
100
AcDbBlockEnd
  0
BLOCK
  5
279
100
AcDbEntity
  8
0
100
AcDbBlockBegin
  2
*T3
 70
1
 10
0.0
 20
0.0
  3
*T3
  1

  0
LINE
  5
27A
100
AcDbEntity
  8
0
100
AcDbLine
 62
2
  6
CONTINUOUS
 10
0.0
 20
0.0
 11
4.6
 21
0.0
  0
LINE
  5
27B
100
AcDbEntity
  8
0
100
AcDbLine
 62
2
  6
CONTINUOUS
 10
0.0
 20
0.0
 11
0.0
 21
-1.43775
  0
LINE
  5
27C
100
AcDbEntity
  8
0
100
AcDbLine
 62
2
  6
CONTINUOUS
 10
0.0
 20
-0.34375
 11
4.6
 21
-0.34375
  0
LINE
  5
27D
100
AcDbEntity
  8
0
100
AcDbLine
 62
2
  6
CONTINUOUS
 10
0.0
 20
-0.68775
 11
4.6
 21
-0.68775
  0
LINE
  5
27E
100
AcDbEntity
  8
0
100
AcDbLine
 62
2
  6
CONTINUOUS
 10
0.0
 20
-0.93775
 11
4.6
 21
-0.93775
  0
LINE
  5
27F
100
AcDbEntity
  8
0
100
AcDbLine
 62
2
  6
CONTINUOUS
 10
0.0
 20
-1.18775
 11
4.6
 21
-1.18775
  0
LINE
  5
280
100
AcDbEntity
  8
0
100
AcDbLine
 62
2
  6
CONTINUOUS
 10
0.0
 20
-1.43775
 11
4.6
 21
-1.43775
  0
LINE
  5
281
100
AcDbEntity
  8
0
100
AcDbLine
 62
2
  6
CONTINUOUS
 10
1.3
 20
-0.34375
 11
1.3
 21
-1.43775
  0
LINE
  5
282
100
AcDbEntity
  8
0
100
AcDbLine
 62
2
  6
CONTINUOUS
 10
3.3
 20
-0.34375
 11
3.3
 21
-1.43775
  0
LINE
  5
283
100
AcDbEntity
  8
0
100
AcDbLine
 62
2
  6
CONTINUOUS
 10
4.6
 20
0.0
 11
4.6
 21
-1.43775
  0
MTEXT
  5
284
100
AcDbEntity
  8
0
100
AcDbMText
 62
2
  6
CONTINUOUS
  7
STANDARD
 71
2
 72
1
 10
2.3
 20
-0.099375
 30
0.0
 11
1.0
 21
0.0
 31
0.0
 44
0.9
  1
Port Headings
 40
0.145
 41
3.016
  0
MTEXT
  5
285
100
AcDbEntity
  8
0
100
AcDbMText
 62
2
  6
CONTINUOUS
  7
STANDARD
 71
2
 72
1
 10
0.65
 20
-0.44325
 30
0.0
 11
1.0
 21
0.0
 31
0.0
 44
0.9
  1
Product
 40
0.145
 41
1.624
  0
MTEXT
  5
286
100
AcDbEntity
  8
0
100
AcDbMText
 62
2
  6
CONTINUOUS
  7
STANDARD
 71
2
 72
1
 10
2.3
 20
-0.44325
 30
0.0
 11
1.0
 21
0.0
 31
0.0
 44
0.9
  1
Port
 40
0.145
 41
0.928
  0
MTEXT
  5
287
100
AcDbEntity
  8
0
100
AcDbMText
 62
2
  6
CONTINUOUS
  7
STANDARD
 71
2
 72
1
 10
3.95
 20
-0.44325
 30
0.0
 11
1.0
 21
0.0
 31
0.0
 44
0.9
  1
Size
 40
0.145
 41
0.928
  0
MTEXT
  5
288
100
AcDbEntity
  8
0
100
AcDbMText
 62
2
  6
CONTINUOUS
  7
STANDARD
 71
2
 72
1
 10
0.65
 20
-0.75025
 30
0.0
 11
1.0
 21
0.0
 31
0.0
 44
0.9
  1
A2J
 40
0.125
 41
0.6
  0
MTEXT
  5
289
100
AcDbEntity
  8
0
100
AcDbMText
 62
2
  6
CONTINUOUS
  7
STANDARD
 71
2
 72
1
 10
2.3
 20
-0.75025
 30
0.0
 11
1.0
 21
0.0
 31
0.0
 44
0.9
  1
Ports 1 &  2
 40
0.125
 41
2.4
  0
MTEXT
  5
28A
100
AcDbEntity
  8
0
100
AcDbMText
 62
2
  6
CONTINUOUS
  7
STANDARD
 71
2
 72
1
 10
3.95
 20
-0.75025
 30
0.0
 11
1.0
 21
0.0
 31
0.0
 44
0.9
  1
SAE 8
 40
0.125
 41
1.0
  0
MTEXT
  5
28B
100
AcDbEntity
  8
0
100
AcDbMText
 62
2
  6
CONTINUOUS
  7
STANDARD
 71
2
 72
1
 10
0.65
 20
-1.00025
 30
0.0
 11
1.0
 21
0.0
 31
0.0
 44
0.9
  1
A2J
 40
0.125
 41
0.6
  0
MTEXT
  5
28C
100
AcDbEntity
  8
0
100
AcDbMText
 62
2
  6
CONTINUOUS
  7
STANDARD
 71
2
 72
1
 10
2.3
 20
-1.00025
 30
0.0
 11
1.0
 21
0.0
 31
0.0
 44
0.9
  1
Port 3
 40
0.125
 41
1.2
  0
MTEXT
  5
28D
100
AcDbEntity
  8
0
100
AcDbMText
 62
2
  6
CONTINUOUS
  7
STANDARD
 71
2
 72
1
 10
3.95
 20
-1.00025
 30
0.0
 11
1.0
 21
0.0
 31
0.0
 44
0.9
  1
SAE 6
 40
0.125
 41
1.0
  0
MTEXT
  5
28E
100
AcDbEntity
  8
0
100
AcDbMText
 62
2
  6
CONTINUOUS
  7
STANDARD
 71
2
 72
1
 10
0.65
 20
-1.25025
 30
0.0
 11
1.0
 21
0.0
 31
0.0
 44
0.9
  1
A2J
 40
0.125
 41
0.6
  0
MTEXT
  5
28F
100
AcDbEntity
  8
0
100
AcDbMText
 62
2
  6
CONTINUOUS
  7
STANDARD
 71
2
 72
1
 10
2.3
 20
-1.25025
 30
0.0
 11
1.0
 21
0.0
 31
0.0
 44
0.9
  1
Gage Port
 40
0.125
 41
1.8
  0
MTEXT
  5
290
100
AcDbEntity
  8
0
100
AcDbMText
 62
2
  6
CONTINUOUS
  7
STANDARD
 71
2
 72
1
 10
3.95
 20
-1.25025
 30
0.0
 11
1.0
 21
0.0
 31
0.0
 44
0.9
  1
1/4" NPTF
 40
0.125
 41
1.8
  0
ENDBLK
  5
291
100
AcDbEntity
  8
0
  6
BYBLOCK
 62
0
100
AcDbBlockEnd
  0
ENDSEC
  0
SECTION
  2
ENTITIES
  0
IMAGE
  5
292
100
AcDbEntity
  8
0
100
AcDbRasterImage
 62
7
  6
CONTINUOUS
 10
19.2297077316
 20
0.3094318264
 30
0.0
 11
0.0066666667
 21
0.0
 31
0.0
 12
0.0
 22
0.0066666667
 32
0.0
 13
369.0
 23
92.0
340
       39B
 70
9
280
0
281
50
282
50
283
0
360
       395
 71
1
 91
2
 14
-0.5
 24
-0.5
 14
368.5
 24
91.5
  0
INSERT
  5
293
100
AcDbEntity
  8
0
100
AcDbBlockReference
 62
2
  6
CONTINUOUS
  2
SUN_FIRST_THIRD_ANGLE_BL0
 10
20.4816717061
 20
1.2289683772
  0
ACAD_TABLE
  5
294
100
AcDbEntity
  8
0
 62
2
  6
CONTINUOUS
100
AcDbBlockReference
  2
*T1
 10
12.42375
 20
0.30125
 30
0.0
100
AcDbTable
342
       39D
343
20F
 11
1.0
 21
0.0
 31
0.0
 90
6
 91
4
 92
6
 93
20
 94
0
 95
0
 96
0
 70
1
 41
0.0
141
0.525
141
0.1
141
0.525
141
0.1
142
4.1
142
1.1
142
0.7
142
0.5
142
0.4
142
2.475
171
1
172
0
173
0
174
0
175
1
176
1
 91
33
178
0
145
0.0
301
CELL_VALUE
 90
4
  1
T-11A Line mount\P(See Notes for Body Features)
304
ACVALUE_END
170
2
140
0.125
171
1
172
0
173
0
174
0
175
1
176
1
 91
33
178
0
145
0.0
301
CELL_VALUE
 90
4
  1
Oct-04-23
304
ACVALUE_END
170
5
140
0.125
171
1
172
0
173
0
174
0
175
1
176
1
 91
33
178
0
145
0.0
301
CELL_VALUE
 90
4
  1
1.000
304
ACVALUE_END
170
5
140
0.125
171
1
172
0
173
0
174
0
175
1
176
1
 91
33
178
0
145
0.0
301
CELL_VALUE
 90
4
  1
C
304
ACVALUE_END
170
5
140
0.125
171
1
172
0
173
0
174
0
175
1
176
1
 91
33
178
0
145
0.0
301
CELL_VALUE
 90
4
  1
2
304
ACVALUE_END
170
5
140
0.125
171
1
172
0
173
0
174
0
175
1
176
1
 91
33
178
0
145
0.0
301
CELL_VALUE
 90
4
  1
 
304
ACVALUE_END
170
1
140
0.125
171
1
172
0
173
0
174
0
175
1
176
1
 91
33
178
0
145
0.0
301
CELL_VALUE
 90
4
  1
DESCRIPTION
304
ACVALUE_END
170
1
140
0.06
171
1
172
0
173
0
174
0
175
1
176
1
 91
33
178
0
145
0.0
301
CELL_VALUE
 90
4
  1
DATE
304
ACVALUE_END
170
1
140
0.06
171
1
172
0
173
0
174
0
175
1
176
1
 91
33
178
0
145
0.0
301
CELL_VALUE
 90
4
  1
SCALE
304
ACVALUE_END
170
1
140
0.06
171
1
172
0
173
0
174
0
175
1
176
1
 91
33
178
0
145
0.0
301
CELL_VALUE
 90
4
  1
DWG SIZE
304
ACVALUE_END
170
1
140
0.06
171
1
172
0
173
0
174
0
175
1
176
1
 91
33
178
0
145
0.0
301
CELL_VALUE
 90
4
  1
SHEET
304
ACVALUE_END
170
1
140
0.06
171
1
172
0
173
0
174
0
175
1
176
1
 91
33
178
0
145
0.0
301
CELL_VALUE
 90
4
  1
 
304
ACVALUE_END
170
1
140
0.125
171
1
172
0
173
0
174
0
175
1
176
1
 91
33
178
0
145
0.0
301
CELL_VALUE
 90
4
  1
A2J
304
ACVALUE_END
170
5
140
0.125
171
1
172
0
173
0
174
0
175
4
176
1
 91
33
178
0
145
0.0
301
CELL_VALUE
 90
4
  1
ALL DIMENSIONS IN INCH\PVIEWS ARE THIRD ANGLE
304
ACVALUE_END
170
5
140
0.12
171
1
172
0
173
1
174
0
175
1
176
1
 91
1
178
0
145
0.0
170
1
171
1
172
0
173
1
174
0
175
1
176
1
 91
1
178
0
145
0.0
170
1
171
1
172
0
173
1
174
0
175
1
176
1
 91
1
178
0
145
0.0
170
5
171
1
172
0
173
0
174
0
175
1
176
1
 91
33
178
0
145
0.0
301
CELL_VALUE
 90
4
  1
 
304
ACVALUE_END
170
1
140
0.125
171
1
172
0
173
0
174
0
175
1
176
1
 91
33
178
0
145
0.0
301
CELL_VALUE
 90
4
  1
MODEL
304
ACVALUE_END
170
1
140
0.06
171
1
172
0
173
0
174
0
175
1
176
1
 91
33
178
0
145
0.0
301
CELL_VALUE
 90
4
  1
 
304
ACVALUE_END
170
1
140
0.125
171
1
172
0
173
0
174
0
175
1
176
1
 91
33
178
0
145
0.0
301
CELL_VALUE
 90
4
  1
 
304
ACVALUE_END
170
1
140
0.125
171
1
172
0
173
0
174
0
175
1
176
1
 91
33
178
0
145
0.0
301
CELL_VALUE
 90
4
  1
 
304
ACVALUE_END
170
1
140
0.125
171
1
172
0
173
0
174
0
175
1
176
1
 91
33
178
0
145
0.0
301
CELL_VALUE
 90
4
  1
 
304
ACVALUE_END
170
1
140
0.125
171
1
172
0
173
0
174
0
175
1
176
1
 91
33
178
0
145
0.0
301
CELL_VALUE
 90
4
  1
 
304
ACVALUE_END
170
1
140
0.125
  0
ACAD_TABLE
  5
295
100
AcDbEntity
  8
0
 62
2
  6
CONTINUOUS
100
AcDbBlockReference
  2
*T2
 10
12.4237499994
 20
16.47875
 30
0.0
100
AcDbTable
342
       39C
343
210
 11
1.0
 21
0.0
 31
0.0
 90
22
 91
11
 92
3
 93
16
 94
0
 95
0
 96
0
 41
0.028
141
0.344
141
0.25
141
0.25
141
0.25
141
0.25
141
0.25
141
0.25
141
0.25
141
0.25
141
0.25
141
0.25
142
3.055
142
3.0
142
3.0
171
1
172
0
173
0
174
0
175
1
176
1
 91
33
178
0
145
0.0
301
CELL_VALUE
 90
4
  1
Technical Data
304
ACVALUE_END
170
5
140
0.145
171
1
172
0
173
0
174
0
175
1
176
1
 91
33
178
0
145
0.0
301
CELL_VALUE
 90
4
  1
U.S. Units
304
ACVALUE_END
170
5
140
0.145
171
1
172
0
173
0
174
0
175
1
176
1
 91
33
178
0
145
0.0
301
CELL_VALUE
 90
4
  1
Metric Units
304
ACVALUE_END
170
5
140
0.145
171
1
172
0
173
0
174
0
175
1
176
1
 91
33
178
0
145
0.0
301
CELL_VALUE
 90
4
  1
Cavity
304
ACVALUE_END
170
5
140
0.125
171
1
172
0
173
0
174
0
175
2
176
1
 91
33
178
0
145
0.0
301
CELL_VALUE
 90
4
  1
T-11A
304
ACVALUE_END
170
5
140
0.125
171
1
172
0
173
1
174
0
175
1
176
1
 91
1
178
0
145
0.0
170
1
171
1
172
0
173
0
174
0
175
1
176
1
 91
33
178
0
145
0.0
301
CELL_VALUE
 90
4
  1
Body Features
304
ACVALUE_END
170
5
140
0.125
171
1
172
0
173
0
174
0
175
2
176
1
 91
33
178
0
145
0.0
301
CELL_VALUE
 90
4
  1
(See Notes)
304
ACVALUE_END
170
5
140
0.125
171
1
172
0
173
1
174
0
175
1
176
1
 91
1
178
0
145
0.0
170
1
171
1
172
0
173
0
174
0
175
1
176
1
 91
33
178
0
145
0.0
301
CELL_VALUE
 90
4
  1
Body Type
304
ACVALUE_END
170
5
140
0.125
171
1
172
0
173
0
174
0
175
2
176
1
 91
33
178
0
145
0.0
301
CELL_VALUE
 90
4
  1
Line mount
304
ACVALUE_END
170
5
140
0.125
171
1
172
0
173
1
174
0
175
1
176
1
 91
1
178
0
145
0.0
170
1
171
1
172
0
173
0
174
0
175
1
176
1
 91
33
178
0
145
0.0
301
CELL_VALUE
 90
4
  1
Interface
304
ACVALUE_END
170
5
140
0.125
171
1
172
0
173
0
174
0
175
2
176
1
 91
33
178
0
145
0.0
301
CELL_VALUE
 90
4
  1
None
304
ACVALUE_END
170
5
140
0.125
171
1
172
0
173
1
174
0
175
1
176
1
 91
1
178
0
145
0.0
170
1
171
1
172
0
173
0
174
0
175
1
176
1
 91
33
178
0
145
0.0
301
CELL_VALUE
 90
4
  1
Open Cavity Quantity
304
ACVALUE_END
170
5
140
0.125
171
1
172
0
173
0
174
0
175
2
176
1
 91
33
178
0
145
0.0
301
CELL_VALUE
 90
4
  1
1
304
ACVALUE_END
170
5
140
0.125
171
1
172
0
173
1
174
0
175
1
176
1
 91
1
178
0
145
0.0
170
1
171
1
172
0
173
0
174
0
175
1
176
1
 91
33
178
0
145
0.0
301
CELL_VALUE
 90
4
  1
Weight
304
ACVALUE_END
170
5
140
0.125
171
1
172
0
173
0
174
0
175
1
176
1
 91
33
178
0
145
0.0
301
CELL_VALUE
 90
4
  1
2.016 lb.
304
ACVALUE_END
170
5
140
0.125
171
1
172
0
173
0
174
0
175
1
176
1
 91
33
178
0
145
0.0
301
CELL_VALUE
 90
4
  1
0,915 kg.
304
ACVALUE_END
170
5
140
0.125
171
1
172
0
173
0
174
0
175
1
176
1
 91
33
178
0
145
0.0
301
CELL_VALUE
 90
4
  1
Mounting Hole Diameter
304
ACVALUE_END
170
5
140
0.125
171
1
172
0
173
0
174
0
175
1
176
1
 91
33
178
0
145
0.0
301
CELL_VALUE
 90
4
  1
.34 in.
304
ACVALUE_END
170
5
140
0.125
171
1
172
0
173
0
174
0
175
1
176
1
 91
33
178
0
145
0.0
301
CELL_VALUE
 90
4
  1
8.6 mm
304
ACVALUE_END
170
5
140
0.125
171
1
172
0
173
0
174
0
175
1
176
1
 91
33
178
0
145
0.0
301
CELL_VALUE
 90
4
  1
Mounting Hole Depth
304
ACVALUE_END
170
5
140
0.125
171
1
172
0
173
0
174
0
175
2
176
1
 91
33
178
0
145
0.0
301
CELL_VALUE
 90
4
  1
Through
304
ACVALUE_END
170
5
140
0.125
171
1
172
0
173
1
174
0
175
1
176
1
 91
1
178
0
145
0.0
170
1
171
1
172
0
173
0
174
0
175
1
176
1
 91
33
178
0
145
0.0
301
CELL_VALUE
 90
4
  1
Mounting Hole Quantity
304
ACVALUE_END
170
5
140
0.125
171
1
172
0
173
0
174
0
175
2
176
1
 91
33
178
0
145
0.0
301
CELL_VALUE
 90
4
  1
2
304
ACVALUE_END
170
5
140
0.125
171
1
172
0
173
1
174
0
175
1
176
1
 91
1
178
0
145
0.0
170
1
171
1
172
0
173
0
174
0
175
1
176
1
 91
33
178
0
145
0.0
301
CELL_VALUE
 90
4
  1
Includes integral cartridge(s)
304
ACVALUE_END
170
5
140
0.125
171
1
172
0
173
0
174
0
175
2
176
1
 91
33
178
0
145
0.0
301
CELL_VALUE
 90
4
  1
Yes (see Included Components)
304
ACVALUE_END
170
5
140
0.125
171
1
172
0
173
1
174
0
175
1
176
1
 91
1
178
0
145
0.0
170
1
  0
ACAD_TABLE
  5
296
100
AcDbEntity
  8
0
 62
2
  6
CONTINUOUS
100
AcDbBlockReference
  2
*T3
 10
0.52125
 20
1.959
 30
0.0
100
AcDbTable
342
       39C
343
211
 11
1.0
 21
0.0
 31
0.0
 90
22
 91
5
 92
3
 93
16
 94
0
 95
0
 96
0
 41
0.05
141
0.34375
141
0.344
141
0.25
141
0.25
141
0.25
142
1.3
142
2.0
142
1.3
171
1
172
0
173
0
174
0
175
3
176
1
 91
33
178
0
145
0.0
301
CELL_VALUE
 90
4
  1
Port Headings
304
ACVALUE_END
170
5
140
0.145
171
1
172
0
173
1
174
0
175
1
176
1
 91
1
178
0
145
0.0
170
1
171
1
172
0
173
1
174
0
175
1
176
1
 91
1
178
0
145
0.0
170
1
171
1
172
0
173
0
174
0
175
1
176
1
 91
33
178
0
145
0.0
301
CELL_VALUE
 90
4
  1
Product
304
ACVALUE_END
170
5
140
0.145
171
1
172
0
173
0
174
0
175
1
176
1
 91
33
178
0
145
0.0
301
CELL_VALUE
 90
4
  1
Port
304
ACVALUE_END
170
5
140
0.145
171
1
172
0
173
0
174
0
175
1
176
1
 91
33
178
0
145
0.0
301
CELL_VALUE
 90
4
  1
Size
304
ACVALUE_END
170
5
140
0.145
171
1
172
0
173
0
174
0
175
1
176
1
 91
33
178
0
145
0.0
301
CELL_VALUE
 90
4
  1
A2J
304
ACVALUE_END
170
5
140
0.125
171
1
172
0
173
0
174
0
175
1
176
1
 91
33
178
0
145
0.0
301
CELL_VALUE
 90
4
  1
Ports 1 &  2
304
ACVALUE_END
170
5
140
0.125
171
1
172
0
173
0
174
0
175
1
176
1
 91
33
178
0
145
0.0
301
CELL_VALUE
 90
4
  1
SAE 8
304
ACVALUE_END
170
5
140
0.125
171
1
172
0
173
0
174
0
175
1
176
1
 91
33
178
0
145
0.0
301
CELL_VALUE
 90
4
  1
A2J
304
ACVALUE_END
170
5
140
0.125
171
1
172
0
173
0
174
0
175
1
176
1
 91
33
178
0
145
0.0
301
CELL_VALUE
 90
4
  1
Port 3
304
ACVALUE_END
170
5
140
0.125
171
1
172
0
173
0
174
0
175
1
176
1
 91
33
178
0
145
0.0
301
CELL_VALUE
 90
4
  1
SAE 6
304
ACVALUE_END
170
5
140
0.125
171
1
172
0
173
0
174
0
175
1
176
1
 91
33
178
0
145
0.0
301
CELL_VALUE
 90
4
  1
A2J
304
ACVALUE_END
170
5
140
0.125
171
1
172
0
173
0
174
0
175
1
176
1
 91
33
178
0
145
0.0
301
CELL_VALUE
 90
4
  1
Gage Port
304
ACVALUE_END
170
5
140
0.125
171
1
172
0
173
0
174
0
175
1
176
1
 91
33
178
0
145
0.0
301
CELL_VALUE
 90
4
  1
1/4" NPTF
304
ACVALUE_END
170
5
140
0.125
  0
MTEXT
  5
297
100
AcDbEntity
  8
0
100
AcDbMText
 62
2
  6
CONTINUOUS
  7
STANDARD
 71
1
 72
1
 10
0.52125
 20
5.75995
 30
0.0
 11
1.0
 21
0.0
 31
0.0
 44
0.6
  3
Notes\P \P1. Important: Carefully consider\P   the maximum system pressure. The\P   pressure rating of the manifold is\P   dependent on the manifold material,\P   with the port type/size a secondary\P   consideration. Manifolds\P   constructed of alu
  3
minum are not\P   rated for pressures higher than\P   3000 psi (210 bar), regardless of\P   the port type/size specified.\P2. This drawing is for reference\P   only. It is generated by an\P   automated process and does not fall\P   under Sun's docume
  1
nt control\P   process.\P3. Body Features: Ninety degree\P   with reverse flow check, accepts\P   standard and weatherized coils.
 40
0.1
 41
3.04
  0
LINE
  5
298
100
AcDbEntity
  8
0
100
AcDbLine
 62
7
  6
CONTINUOUS
 10
0.30125
 20
0.30125
 11
0.30125
 21
16.69875
  0
LINE
  5
299
100
AcDbEntity
  8
0
100
AcDbLine
 62
7
  6
CONTINUOUS
 10
0.30125
 20
0.30125
 11
21.69875
 21
0.30125
  0
LINE
  5
29A
100
AcDbEntity
  8
0
100
AcDbLine
 62
7
  6
CONTINUOUS
 10
0.30125
 20
16.69875
 11
21.69875
 21
16.69875
  0
LINE
  5
29B
100
AcDbEntity
  8
0
100
AcDbLine
 62
7
  6
CONTINUOUS
 10
21.69875
 20
0.30125
 11
21.69875
 21
16.69875
  0
LINE
  5
29C
100
AcDbEntity
  8
0
100
AcDbLine
 62
7
  6
CONTINUOUS
 10
9.8099300062
 20
10.7894403113
 11
9.2922923432
 21
10.2894406943
  0
LINE
  5
29D
100
AcDbEntity
  8
0
100
AcDbLine
 62
4
  6
CONTINUOUS
 10
9.4468403912
 20
9.6943376538
 11
9.4395959472
 21
9.6851808014
  0
LINE
  5
29E
100
AcDbEntity
  8
0
100
AcDbLine
 62
4
  6
CONTINUOUS
 10
9.4540848351
 20
9.6358796982
 11
9.4395959472
 21
9.617565989
  0
LINE
  5
29F
100
AcDbEntity
  8
0
100
AcDbLine
 62
7
  6
CONTINUOUS
 10
11.2064931483
 20
6.2782644681
 11
11.2228173394
 21
6.2702006302
  0
LINE
  5
2A0
100
AcDbEntity
  8
0
100
AcDbLine
 62
7
  6
CONTINUOUS
 10
9.2922923432
 20
6.7879593666
 11
9.2922923432
 21
10.2894406943
  0
LINE
  5
2A1
100
AcDbEntity
  8
0
100
AcDbLine
 62
4
  6
CONTINUOUS
 10
9.3961292834
 20
9.7171730006
 11
9.4106181713
 21
9.7258274491
  0
LINE
  5
2A2
100
AcDbEntity
  8
0
100
AcDbLine
 62
4
  6
CONTINUOUS
 10
9.4395959472
 20
9.6851808014
 11
9.4251070593
 21
9.676526346
  0
LINE
  5
2A3
100
AcDbEntity
  8
0
100
AcDbLine
 62
4
  6
CONTINUOUS
 10
9.4395959472
 20
9.617565989
 11
9.4251070593
 21
9.6089115379
  0
LINE
  5
2A4
100
AcDbEntity
  8
0
100
AcDbLine
 62
7
  6
CONTINUOUS
 10
9.2922923432
 20
6.7879593666
 11
12.1900699938
 21
6.5869978039
  0
LINE
  5
2A5
100
AcDbEntity
  8
0
100
AcDbLine
 62
4
  6
CONTINUOUS
 10
11.4028403695
 20
6.7381849536
 11
11.3738625937
 21
6.7401945692
  0
LINE
  5
2A6
100
AcDbEntity
  8
0
100
AcDbLine
 62
4
  6
CONTINUOUS
 10
11.1782626066
 20
6.7537594744
 11
11.1637737187
 21
6.7547642821
  0
LINE
  5
2A7
100
AcDbEntity
  8
0
100
AcDbLine
 62
4
  6
CONTINUOUS
 10
11.4970181411
 20
6.7702907386
 11
11.5404848049
 21
6.7672763152
  0
LINE
  5
2A8
100
AcDbEntity
  8
0
100
AcDbLine
 62
4
  6
CONTINUOUS
 10
9.4468403912
 20
9.7039969101
 11
9.4468403912
 21
9.6943376538
  0
LINE
  5
2A9
100
AcDbEntity
  8
0
100
AcDbLine
 62
4
  6
CONTINUOUS
 10
9.4468403912
 20
7.6755524944
 11
9.4468403912
 21
7.559641391
  0
LINE
  5
2AA
100
AcDbEntity
  8
0
100
AcDbLine
 62
4
  6
CONTINUOUS
 10
9.4540848351
 20
9.645538958
 11
9.4540848351
 21
9.6358796982
  0
LINE
  5
2AB
100
AcDbEntity
  8
0
100
AcDbLine
 62
4
  6
CONTINUOUS
 10
11.1637737187
 20
6.8706753856
 11
11.1782626066
 21
6.8696705778
  0
LINE
  5
2AC
100
AcDbEntity
  8
0
100
AcDbLine
 62
4
  6
CONTINUOUS
 10
11.3738625937
 20
6.8561056726
 11
11.4028403695
 21
6.854096057
  0
LINE
  5
2AD
100
AcDbEntity
  8
0
100
AcDbLine
 62
4
  6
CONTINUOUS
 10
11.1637737187
 20
6.7547642821
 11
11.1492848308
 21
6.7654283488
  0
LINE
  5
2AE
100
AcDbEntity
  8
0
100
AcDbLine
 62
7
  6
CONTINUOUS
 10
11.1796621762
 20
10.3067252997
 11
11.178497032
 21
10.30562092
  0
LINE
  5
2AF
100
AcDbEntity
  8
0
100
AcDbLine
 62
4
  6
CONTINUOUS
 10
11.1782626066
 20
6.8696705778
 11
11.1927514946
 21
6.8590065137
  0
LINE
  5
2B0
100
AcDbEntity
  8
0
100
AcDbLine
 62
4
  6
CONTINUOUS
 10
11.4028403695
 20
6.854096057
 11
11.4173292575
 21
6.8434319929
  0
LINE
  5
2B1
100
AcDbEntity
  8
0
100
AcDbLine
 62
4
  6
CONTINUOUS
 10
10.1915693408
 20
9.4398460277
 11
10.1915693408
 21
9.3818904746
  0
LINE
  5
2B2
100
AcDbEntity
  8
0
100
AcDbLine
 62
4
  6
CONTINUOUS
 10
10.1978479508
 20
10.1252180714
 11
10.1978479508
 21
10.009306968
  0
LINE
  5
2B3
100
AcDbEntity
  8
0
100
AcDbLine
 62
4
  6
CONTINUOUS
 10
10.2495248938
 20
9.3778712434
 11
10.2495248938
 21
9.3199156904
  0
LINE
  5
2B4
100
AcDbEntity
  8
0
100
AcDbLine
 62
4
  6
CONTINUOUS
 10
10.6252701447
 20
9.9796651381
 11
10.6614923645
 21
10.0930642221
  0
LINE
  5
2B5
100
AcDbEntity
  8
0
100
AcDbLine
 62
4
  6
CONTINUOUS
 10
11.1492848308
 20
6.7654283488
 11
11.1347959428
 21
6.7857516736
  0
LINE
  5
2B6
100
AcDbEntity
  8
0
100
AcDbLine
 62
4
  6
CONTINUOUS
 10
11.1927514946
 20
6.8590065137
 11
11.1999959385
 21
6.8488448466
  0
LINE
  5
2B7
100
AcDbEntity
  8
0
100
AcDbLine
 62
4
  6
CONTINUOUS
 10
10.2785026703
 20
9.3179060748
 11
10.2785026703
 21
9.4338171808
  0
LINE
  5
2B8
100
AcDbEntity
  8
0
100
AcDbLine
 62
4
  6
CONTINUOUS
 10
10.3258330443
 20
8.7234770614
 11
10.3258330443
 21
8.8393881675
  0
LINE
  5
2B9
100
AcDbEntity
  8
0
100
AcDbLine
 62
4
  6
CONTINUOUS
 10
10.3364582233
 20
9.4297979495
 11
10.3364582233
 21
9.3138868435
  0
LINE
  5
2BA
100
AcDbEntity
  8
0
100
AcDbLine
 62
4
  6
CONTINUOUS
 10
10.3654359998
 20
9.4277883339
 11
10.3654359998
 21
9.3118772279
  0
LINE
  5
2BB
100
AcDbEntity
  8
0
100
AcDbLine
 62
4
  6
CONTINUOUS
 10
10.3837885904
 20
8.8188102083
 11
10.3837885904
 21
8.7360165608
  0
LINE
  5
2BC
100
AcDbEntity
  8
0
100
AcDbLine
 62
4
  6
CONTINUOUS
 10
10.4233915528
 20
9.4237691026
 11
10.4233915528
 21
9.3078579966
  0
LINE
  5
2BD
100
AcDbEntity
  8
0
100
AcDbLine
 62
4
  6
CONTINUOUS
 10
10.4296701576
 20
10.1091411467
 11
10.4296701576
 21
9.9932300433
  0
LINE
  5
2BE
100
AcDbEntity
  8
0
100
AcDbLine
 62
4
  6
CONTINUOUS
 10
10.4307049912
 20
8.7162041672
 11
10.463822448
 21
8.8298185698
  0
LINE
  5
2BF
100
AcDbEntity
  8
0
100
AcDbLine
 62
4
  6
CONTINUOUS
 10
10.3837885904
 20
8.7360165608
 11
10.367229862
 21
8.7206061824
  0
LINE
  5
2C0
100
AcDbEntity
  8
0
100
AcDbLine
 62
4
  6
CONTINUOUS
 10
10.3037547363
 20
8.7967626941
 11
10.2595981236
 21
8.7777466576
  0
LINE
  5
2C1
100
AcDbEntity
  8
0
100
AcDbLine
 62
4
  6
CONTINUOUS
 10
11.1782626066
 20
7.8355964901
 11
11.1637737187
 21
7.8366012979
  0
LINE
  5
2C2
100
AcDbEntity
  8
0
100
AcDbLine
 62
4
  6
CONTINUOUS
 10
11.1710181627
 20
7.8940544457
 11
11.1999959385
 21
7.8920448301
  0
LINE
  5
2C3
100
AcDbEntity
  8
0
100
AcDbLine
 62
4
  6
CONTINUOUS
 10
9.3961292834
 20
9.6205804124
 11
9.3888848394
 21
9.6307420752
  0
LINE
  5
2C4
100
AcDbEntity
  8
0
100
AcDbLine
 62
4
  6
CONTINUOUS
 10
11.4173292575
 20
6.8434319929
 11
11.4318181454
 21
6.8231086656
  0
LINE
  5
2C5
100
AcDbEntity
  8
0
100
AcDbLine
 62
4
  6
CONTINUOUS
 10
9.4395959472
 20
9.6658622818
 11
9.4540848351
 21
9.645538958
  0
LINE
  5
2C6
100
AcDbEntity
  8
0
100
AcDbLine
 62
4
  6
CONTINUOUS
 10
9.4395959472
 20
9.7141585772
 11
9.4468403912
 21
9.7039969101
  0
LINE
  5
2C7
100
AcDbEntity
  8
0
100
AcDbLine
 62
4
  6
CONTINUOUS
 10
10.5393026588
 20
9.2998195341
 11
10.5393026588
 21
9.4157306401
  0
LINE
  5
2C8
100
AcDbEntity
  8
0
100
AcDbLine
 62
4
  6
CONTINUOUS
 10
10.5455812611
 20
10.1011026844
 11
10.5455812611
 21
9.985191581
  0
LINE
  5
2C9
100
AcDbEntity
  8
0
100
AcDbLine
 62
4
  6
CONTINUOUS
 10
10.5631748325
 20
8.7070173525
 11
10.5631748325
 21
8.8229284586
  0
LINE
  5
2CA
100
AcDbEntity
  8
0
100
AcDbLine
 62
4
  6
CONTINUOUS
 10
10.5972582119
 20
9.2958003029
 11
10.5972582119
 21
9.3537558559
  0
LINE
  5
2CB
100
AcDbEntity
  8
0
100
AcDbLine
 62
4
  6
CONTINUOUS
 10
10.6294097463
 20
8.7024239457
 11
10.6294097463
 21
8.8183350517
  0
LINE
  5
2CC
100
AcDbEntity
  8
0
100
AcDbLine
 62
4
  6
CONTINUOUS
 10
10.6445885801
 20
9.2925179307
 11
10.6445885801
 21
9.3504734837
  0
LINE
  5
2CD
100
AcDbEntity
  8
0
100
AcDbLine
 62
4
  6
CONTINUOUS
 10
10.6252700651
 20
8.9577154668
 11
10.6583875254
 21
9.0713298691
  0
LINE
  5
2CE
100
AcDbEntity
  8
0
100
AcDbLine
 62
4
  6
CONTINUOUS
 10
10.7411811711
 20
9.0655881103
 11
10.7246224426
 21
9.0418983659
  0
LINE
  5
2CF
100
AcDbEntity
  8
0
100
AcDbLine
 62
4
  6
CONTINUOUS
 10
10.7246224426
 20
8.950825356
 11
10.7825779887
 21
9.0295997744
  0
LINE
  5
2D0
100
AcDbEntity
  8
0
100
AcDbLine
 62
4
  6
CONTINUOUS
 10
10.8405335418
 20
8.942786894
 11
10.8570922771
 21
8.9581972719
  0
LINE
  5
2D1
100
AcDbEntity
  8
0
100
AcDbLine
 62
4
  6
CONTINUOUS
 10
11.1637737187
 20
7.9525124013
 11
11.1782626066
 21
7.9515075935
  0
LINE
  5
2D2
100
AcDbEntity
  8
0
100
AcDbLine
 62
4
  6
CONTINUOUS
 10
11.1637737187
 20
7.8366012979
 11
11.1492848308
 21
7.8472653646
  0
LINE
  5
2D3
100
AcDbEntity
  8
0
100
AcDbLine
 62
4
  6
CONTINUOUS
 10
11.2579514902
 20
6.8641441349
 11
11.315907042
 21
6.7442138003
  0
LINE
  5
2D4
100
AcDbEntity
  8
0
100
AcDbLine
 62
4
  6
CONTINUOUS
 10
10.463822448
 20
8.8298185698
 11
10.4969399188
 21
8.7116107594
  0
LINE
  5
2D5
100
AcDbEntity
  8
0
100
AcDbLine
 62
4
  6
CONTINUOUS
 10
10.7025441332
 20
9.3464542524
 11
10.7025441332
 21
9.2305431464
  0
LINE
  5
2D6
100
AcDbEntity
  8
0
100
AcDbLine
 62
4
  6
CONTINUOUS
 10
10.7411811685
 20
9.2858192119
 11
10.7411811685
 21
9.3437747649
  0
LINE
  5
2D7
100
AcDbEntity
  8
0
100
AcDbLine
 62
4
  6
CONTINUOUS
 10
10.7825779887
 20
9.0295997744
 11
10.7825779887
 21
9.0461585028
  0
LINE
  5
2D8
100
AcDbEntity
  8
0
100
AcDbLine
 62
4
  6
CONTINUOUS
 10
10.7991367215
 20
9.3977110867
 11
10.7991367215
 21
9.2817999807
  0
LINE
  5
2D9
100
AcDbEntity
  8
0
100
AcDbLine
 62
4
  6
CONTINUOUS
 10
10.803276433
 20
8.7069249802
 11
10.803276433
 21
8.7897186276
  0
LINE
  5
2DA
100
AcDbEntity
  8
0
100
AcDbLine
 62
7
  6
CONTINUOUS
 10
12.1900699938
 20
10.0884791317
 11
12.7077076568
 21
10.5884787487
  0
LINE
  5
2DB
100
AcDbEntity
  8
0
100
AcDbLine
 62
4
  6
CONTINUOUS
 10
10.803276433
 20
8.7897186276
 11
10.8198351545
 21
8.8051290048
  0
LINE
  5
2DC
100
AcDbEntity
  8
0
100
AcDbLine
 62
4
  6
CONTINUOUS
 10
10.8998689845
 20
8.7830199114
 11
10.916427706
 21
8.7984302886
  0
LINE
  5
2DD
100
AcDbEntity
  8
0
100
AcDbLine
 62
4
  6
CONTINUOUS
 10
10.9578245375
 20
8.6962070327
 11
10.941265816
 21
8.6807966538
  0
LINE
  5
2DE
100
AcDbEntity
  8
0
100
AcDbLine
 62
4
  6
CONTINUOUS
 10
11.1782626066
 20
7.9515075935
 11
11.1927514946
 21
7.9408435294
  0
LINE
  5
2DF
100
AcDbEntity
  8
0
100
AcDbLine
 62
4
  6
CONTINUOUS
 10
10.367229862
 20
8.8365172884
 11
10.3837885904
 21
8.8188102083
  0
LINE
  5
2E0
100
AcDbEntity
  8
0
100
AcDbLine
 62
4
  6
CONTINUOUS
 10
11.1492848308
 20
7.8472653646
 11
11.1347959428
 21
7.8675886893
  0
LINE
  5
2E1
100
AcDbEntity
  8
0
100
AcDbLine
 62
4
  6
CONTINUOUS
 10
11.1927514946
 20
7.9408435294
 11
11.1999959385
 21
7.9306818623
  0
LINE
  5
2E2
100
AcDbEntity
  8
0
100
AcDbLine
 62
4
  6
CONTINUOUS
 10
10.6583875254
 20
9.0713298691
 11
10.6915049858
 21
8.9531220594
  0
LINE
  5
2E3
100
AcDbEntity
  8
0
100
AcDbLine
 62
4
  6
CONTINUOUS
 10
11.1347959428
 20
6.7857516736
 11
11.1275514989
 21
6.8152318533
  0
LINE
  5
2E4
100
AcDbEntity
  8
0
100
AcDbLine
 62
4
  6
CONTINUOUS
 10
10.8377737568
 20
9.3370760462
 11
10.8377737568
 21
9.2791204932
  0
LINE
  5
2E5
100
AcDbEntity
  8
0
100
AcDbLine
 62
4
  6
CONTINUOUS
 10
10.8570922771
 20
8.9581972719
 11
10.8570922771
 21
9.0575496478
  0
LINE
  5
2E6
100
AcDbEntity
  8
0
100
AcDbLine
 62
4
  6
CONTINUOUS
 10
10.8998689845
 20
8.700226264
 11
10.8998689845
 21
8.7830199114
  0
LINE
  5
2E7
100
AcDbEntity
  8
0
100
AcDbLine
 62
4
  6
CONTINUOUS
 10
10.9343663452
 20
9.2724217744
 11
10.9343663452
 21
9.3110588098
  0
LINE
  5
2E8
100
AcDbEntity
  8
0
100
AcDbLine
 62
4
  6
CONTINUOUS
 10
10.9578245375
 20
8.7790006801
 11
10.9578245375
 21
8.6962070327
  0
LINE
  5
2E9
100
AcDbEntity
  8
0
100
AcDbLine
 62
4
  6
CONTINUOUS
 10
10.9909419806
 20
8.6773516001
 11
10.9909419806
 21
8.7932627061
  0
LINE
  5
2EA
100
AcDbEntity
  8
0
100
AcDbLine
 62
4
  6
CONTINUOUS
 10
10.9923218982
 20
9.3263580962
 11
10.9923218982
 21
9.2684025432
  0
LINE
  5
2EB
100
AcDbEntity
  8
0
100
AcDbLine
 62
4
  6
CONTINUOUS
 10
11.0488975336
 20
8.689891099
 11
11.032338812
 21
8.67448072
  0
LINE
  5
2EC
100
AcDbEntity
  8
0
100
AcDbLine
 62
4
  6
CONTINUOUS
 10
11.2227641926
 20
8.7109508638
 11
11.1786075834
 21
8.6919348288
  0
LINE
  5
2ED
100
AcDbEntity
  8
0
100
AcDbLine
 62
4
  6
CONTINUOUS
 10
10.2595981236
 20
8.7777466576
 11
10.3037547363
 21
8.7526060798
  0
LINE
  5
2EE
100
AcDbEntity
  8
0
100
AcDbLine
 62
4
  6
CONTINUOUS
 10
9.4106181713
 20
9.6099163457
 11
9.3961292834
 21
9.6205804124
  0
LINE
  5
2EF
100
AcDbEntity
  8
0
100
AcDbLine
 62
4
  6
CONTINUOUS
 10
9.4251070593
 20
9.676526346
 11
9.4395959472
 21
9.6658622818
  0
LINE
  5
2F0
100
AcDbEntity
  8
0
100
AcDbLine
 62
4
  6
CONTINUOUS
 10
10.8198351545
 20
8.6892178987
 11
10.803276433
 21
8.7069249802
  0
LINE
  5
2F1
100
AcDbEntity
  8
0
100
AcDbLine
 62
4
  6
CONTINUOUS
 10
11.518751473
 20
6.8460575947
 11
11.5549736928
 21
6.7276344718
  0
LINE
  5
2F2
100
AcDbEntity
  8
0
100
AcDbLine
 62
4
  6
CONTINUOUS
 10
11.1347959428
 20
7.8675886893
 11
11.1275514989
 21
7.8970688691
  0
LINE
  5
2F3
100
AcDbEntity
  8
0
100
AcDbLine
 62
4
  6
CONTINUOUS
 10
11.4318181454
 20
6.8231086656
 11
11.4390625893
 21
6.7936284858
  0
LINE
  5
2F4
100
AcDbEntity
  8
0
100
AcDbLine
 62
4
  6
CONTINUOUS
 10
11.0309589336
 20
9.3236786087
 11
11.0309589336
 21
9.2657230557
  0
LINE
  5
2F5
100
AcDbEntity
  8
0
100
AcDbLine
 62
4
  6
CONTINUOUS
 10
11.0488975336
 20
8.7726847464
 11
11.0488975336
 21
8.689891099
  0
LINE
  5
2F6
100
AcDbEntity
  8
0
100
AcDbLine
 62
4
  6
CONTINUOUS
 10
11.0889144866
 20
9.2617038244
 11
11.0889144866
 21
9.3196593774
  0
LINE
  5
2F7
100
AcDbEntity
  8
0
100
AcDbLine
 62
4
  6
CONTINUOUS
 10
11.0958139757
 20
8.6700787025
 11
11.0958139757
 21
8.7859898085
  0
LINE
  5
2F8
100
AcDbEntity
  8
0
100
AcDbLine
 62
7
  6
CONTINUOUS
 10
11.1245682596
 20
6.6608906002
 11
11.1245682596
 21
6.3800475742
  0
LINE
  5
2F9
100
AcDbEntity
  8
0
100
AcDbLine
 62
4
  6
CONTINUOUS
 10
11.1275515219
 20
9.2590243369
 11
11.1275515219
 21
9.3749354429
  0
LINE
  5
2FA
100
AcDbEntity
  8
0
100
AcDbLine
 62
4
  6
CONTINUOUS
 10
11.1661885572
 20
9.2563448494
 11
11.1661885572
 21
9.3143004024
  0
LINE
  5
2FB
100
AcDbEntity
  8
0
100
AcDbLine
 62
4
  6
CONTINUOUS
 10
11.1999959385
 20
7.8920448301
 11
11.1999959385
 21
7.8534077962
  0
LINE
  5
2FC
100
AcDbEntity
  8
0
100
AcDbLine
 62
4
  6
CONTINUOUS
 10
11.2048255926
 20
9.3116209149
 11
11.2048255926
 21
9.2536653619
  0
LINE
  5
2FD
100
AcDbEntity
  8
0
100
AcDbLine
 62
4
  6
CONTINUOUS
 10
11.9968848142
 20
8.4936100102
 11
12.0548403659
 21
8.489590779
  0
LINE
  5
2FE
100
AcDbEntity
  8
0
100
AcDbLine
 62
4
  6
CONTINUOUS
 10
11.032338812
 20
8.67448072
 11
10.9909419806
 21
8.6773516001
  0
LINE
  5
2FF
100
AcDbEntity
  8
0
100
AcDbLine
 62
4
  6
CONTINUOUS
 10
10.941265816
 20
8.6807966538
 11
10.916427706
 21
8.6825191825
  0
LINE
  5
300
100
AcDbEntity
  8
0
100
AcDbLine
 62
4
  6
CONTINUOUS
 10
10.8529525976
 20
8.6869211963
 11
10.8198351545
 21
8.6892178987
  0
LINE
  5
301
100
AcDbEntity
  8
0
100
AcDbLine
 62
4
  6
CONTINUOUS
 10
10.367229862
 20
8.7206061824
 11
10.3258330443
 21
8.7234770614
  0
LINE
  5
302
100
AcDbEntity
  8
0
100
AcDbLine
 62
4
  6
CONTINUOUS
 10
10.6294097463
 20
8.7024239457
 11
10.6790859386
 21
8.69897889
  0
LINE
  5
303
100
AcDbEntity
  8
0
100
AcDbLine
 62
4
  6
CONTINUOUS
 10
11.0958139757
 20
8.6700787025
 11
11.1454901404
 21
8.6666336488
  0
LINE
  5
304
100
AcDbEntity
  8
0
100
AcDbLine
 62
4
  6
CONTINUOUS
 10
12.0186181461
 20
8.6080139019
 11
12.033107034
 21
8.6070090941
  0
LINE
  5
305
100
AcDbEntity
  8
0
100
AcDbLine
 62
4
  6
CONTINUOUS
 10
10.4417441435
 20
8.7485560598
 11
10.4859007526
 21
8.7454937885
  0
LINE
  5
306
100
AcDbEntity
  8
0
100
AcDbLine
 62
4
  6
CONTINUOUS
 10
9.4251070593
 20
9.7248226414
 11
9.4395959472
 21
9.7141585772
  0
LINE
  5
307
100
AcDbEntity
  8
0
100
AcDbLine
 62
4
  6
CONTINUOUS
 10
10.916427706
 20
8.6825191825
 11
10.8998689845
 21
8.700226264
  0
LINE
  5
308
100
AcDbEntity
  8
0
100
AcDbLine
 62
4
  6
CONTINUOUS
 10
10.941265816
 20
8.7967077598
 11
10.9578245375
 21
8.7790006801
  0
LINE
  5
309
100
AcDbEntity
  8
0
100
AcDbLine
 62
4
  6
CONTINUOUS
 10
10.7825779887
 20
9.0461585028
 11
10.7660192672
 21
9.0638655825
  0
LINE
  5
30A
100
AcDbEntity
  8
0
100
AcDbLine
 62
4
  6
CONTINUOUS
 10
10.6614923645
 20
10.0930642221
 11
10.6977145843
 21
9.9746410992
  0
LINE
  5
30B
100
AcDbEntity
  8
0
100
AcDbLine
 62
7
  6
CONTINUOUS
 10
11.2376230716
 20
6.6530502223
 11
11.2376230716
 21
6.2708451983
  0
LINE
  5
30C
100
AcDbEntity
  8
0
100
AcDbLine
 62
7
  6
CONTINUOUS
 10
11.2795032991
 20
6.6501458187
 11
11.2795032991
 21
6.2600058116
  0
LINE
  5
30D
100
AcDbEntity
  8
0
100
AcDbLine
 62
4
  6
CONTINUOUS
 10
11.3014181809
 20
9.3049221962
 11
11.3014181809
 21
9.2759444197
  0
LINE
  5
30E
100
AcDbEntity
  8
0
100
AcDbLine
 62
4
  6
CONTINUOUS
 10
11.3593737339
 20
9.2719251884
 11
11.3593737339
 21
9.2429474119
  0
LINE
  5
30F
100
AcDbEntity
  8
0
100
AcDbLine
 62
4
  6
CONTINUOUS
 10
11.3738625937
 20
6.7401945692
 11
11.3738625937
 21
6.8561056726
  0
LINE
  5
310
100
AcDbEntity
  8
0
100
AcDbLine
 62
4
  6
CONTINUOUS
 10
11.1275514989
 20
7.8970688691
 11
11.1347959428
 21
7.925544241
  0
LINE
  5
311
100
AcDbEntity
  8
0
100
AcDbLine
 62
4
  6
CONTINUOUS
 10
11.1289314188
 20
8.7340169207
 11
11.0958139757
 21
8.7363136232
  0
LINE
  5
312
100
AcDbEntity
  8
0
100
AcDbLine
 62
4
  6
CONTINUOUS
 10
10.662527217
 20
8.766362162
 11
10.6294097463
 21
8.7686588663
  0
LINE
  5
313
100
AcDbEntity
  8
0
100
AcDbLine
 62
4
  6
CONTINUOUS
 10
10.3258330443
 20
8.8393881675
 11
10.367229862
 21
8.8365172884
  0
LINE
  5
314
100
AcDbEntity
  8
0
100
AcDbLine
 62
4
  6
CONTINUOUS
 10
10.5300573618
 20
8.8252251629
 11
10.5962922756
 21
8.8206317561
  0
LINE
  5
315
100
AcDbEntity
  8
0
100
AcDbLine
 62
4
  6
CONTINUOUS
 10
10.6294097463
 20
8.8183350517
 11
10.6790859386
 21
8.8148899961
  0
LINE
  5
316
100
AcDbEntity
  8
0
100
AcDbLine
 62
4
  6
CONTINUOUS
 10
10.8198351545
 20
8.8051290048
 11
10.8529525976
 21
8.8028323023
  0
LINE
  5
317
100
AcDbEntity
  8
0
100
AcDbLine
 62
4
  6
CONTINUOUS
 10
10.916427706
 20
8.7984302886
 11
10.941265816
 21
8.7967077598
  0
LINE
  5
318
100
AcDbEntity
  8
0
100
AcDbLine
 62
4
  6
CONTINUOUS
 10
10.9909419806
 20
8.7932627061
 11
11.032338812
 21
8.7903918261
  0
LINE
  5
319
100
AcDbEntity
  8
0
100
AcDbLine
 62
4
  6
CONTINUOUS
 10
11.0958139757
 20
8.7859898085
 11
11.1454901404
 21
8.7825447548
  0
LINE
  5
31A
100
AcDbEntity
  8
0
100
AcDbLine
 62
4
  6
CONTINUOUS
 10
11.1786075834
 20
8.7360914431
 11
11.2227641926
 21
8.7109508638
  0
LINE
  5
31B
100
AcDbEntity
  8
0
100
AcDbLine
 62
4
  6
CONTINUOUS
 10
11.032338812
 20
8.7903918261
 11
11.0488975336
 21
8.7726847464
  0
LINE
  5
31C
100
AcDbEntity
  8
0
100
AcDbLine
 62
4
  6
CONTINUOUS
 10
11.1275514989
 20
6.8152318533
 11
11.1347959428
 21
6.8437072253
  0
LINE
  5
31D
100
AcDbEntity
  8
0
100
AcDbLine
 62
4
  6
CONTINUOUS
 10
11.1347959428
 20
7.925544241
 11
11.1492848308
 21
7.9438579528
  0
LINE
  5
31E
100
AcDbEntity
  8
0
100
AcDbLine
 62
4
  6
CONTINUOUS
 10
11.1999959385
 20
7.8534077962
 11
11.1927514946
 21
7.8442509412
  0
LINE
  5
31F
100
AcDbEntity
  8
0
100
AcDbLine
 62
4
  6
CONTINUOUS
 10
12.0041292582
 20
8.5993594534
 11
12.0186181461
 21
8.6080139019
  0
LINE
  5
320
100
AcDbEntity
  8
0
100
AcDbLine
 62
4
  6
CONTINUOUS
 10
12.0475959219
 20
8.557707991
 11
12.0186181461
 21
8.5403990905
  0
LINE
  5
321
100
AcDbEntity
  8
0
100
AcDbLine
 62
4
  6
CONTINUOUS
 10
11.1492848308
 20
7.9438579528
 11
11.1637737187
 21
7.9525124013
  0
LINE
  5
322
100
AcDbEntity
  8
0
100
AcDbLine
 62
4
  6
CONTINUOUS
 10
10.7825779887
 20
8.9468061252
 11
10.7246224426
 21
8.950825356
  0
LINE
  5
323
100
AcDbEntity
  8
0
100
AcDbLine
 62
4
  6
CONTINUOUS
 10
10.8156954595
 20
8.9445094208
 11
10.8405335418
 21
8.942786894
  0
LINE
  5
324
100
AcDbEntity
  8
0
100
AcDbLine
 62
4
  6
CONTINUOUS
 10
10.6363092182
 20
8.9900673593
 11
10.68046583
 21
8.9870050878
  0
LINE
  5
325
100
AcDbEntity
  8
0
100
AcDbLine
 62
4
  6
CONTINUOUS
 10
10.7660192672
 20
9.0638655825
 11
10.7411811711
 21
9.0655881103
  0
LINE
  5
326
100
AcDbEntity
  8
0
100
AcDbLine
 62
7
  6
CONTINUOUS
 10
11.701429278
 20
6.6208851527
 11
11.701429278
 21
6.2307451456
  0
LINE
  5
327
100
AcDbEntity
  8
0
100
AcDbLine
 62
7
  6
CONTINUOUS
 10
11.7586387166
 20
6.6169176646
 11
11.7586387166
 21
6.2347126406
  0
LINE
  5
328
100
AcDbEntity
  8
0
100
AcDbLine
 62
4
  6
CONTINUOUS
 10
11.9968848142
 20
8.5902025941
 11
12.0041292582
 21
8.5993594534
  0
LINE
  5
329
100
AcDbEntity
  8
0
100
AcDbLine
 62
4
  6
CONTINUOUS
 10
12.0186181461
 20
8.5403990905
 11
12.0041292582
 21
8.5220853822
  0
LINE
  5
32A
100
AcDbEntity
  8
0
100
AcDbLine
 62
4
  6
CONTINUOUS
 10
12.0548403659
 20
8.5668648503
 11
12.0475959219
 21
8.557707991
  0
LINE
  5
32B
100
AcDbEntity
  8
0
100
AcDbLine
 62
4
  6
CONTINUOUS
 10
11.1927514946
 20
7.8442509412
 11
11.1782626066
 21
7.8355964901
  0
LINE
  5
32C
100
AcDbEntity
  8
0
100
AcDbLine
 62
4
  6
CONTINUOUS
 10
10.7025441332
 20
9.2305431464
 11
10.6639070978
 21
9.2332226339
  0
LINE
  5
32D
100
AcDbEntity
  8
0
100
AcDbLine
 62
4
  6
CONTINUOUS
 10
11.3593737339
 20
9.2429474119
 11
11.3014181809
 21
9.2469666431
  0
LINE
  5
32E
100
AcDbEntity
  8
0
100
AcDbLine
 62
4
  6
CONTINUOUS
 10
10.9923218982
 20
9.2684025432
 11
10.9343663452
 21
9.2724217744
  0
LINE
  5
32F
100
AcDbEntity
  8
0
100
AcDbLine
 62
4
  6
CONTINUOUS
 10
10.7991367215
 20
9.2817999807
 11
10.7411811685
 21
9.2858192119
  0
LINE
  5
330
100
AcDbEntity
  8
0
100
AcDbLine
 62
4
  6
CONTINUOUS
 10
10.7025441332
 20
9.2884986994
 11
10.6445885801
 21
9.2925179307
  0
LINE
  5
331
100
AcDbEntity
  8
0
100
AcDbLine
 62
4
  6
CONTINUOUS
 10
10.3364582233
 20
9.3138868435
 11
10.2785026703
 21
9.3179060748
  0
LINE
  5
332
100
AcDbEntity
  8
0
100
AcDbLine
 62
4
  6
CONTINUOUS
 10
10.2495248938
 20
9.3199156904
 11
10.1915693408
 21
9.3239349216
  0
LINE
  5
333
100
AcDbEntity
  8
0
100
AcDbLine
 62
4
  6
CONTINUOUS
 10
11.0309589336
 20
9.2657230557
 11
11.0889144866
 21
9.2617038244
  0
LINE
  5
334
100
AcDbEntity
  8
0
100
AcDbLine
 62
4
  6
CONTINUOUS
 10
11.2048255926
 20
9.2536653619
 11
11.2627811456
 21
9.2496461306
  0
LINE
  5
335
100
AcDbEntity
  8
0
100
AcDbLine
 62
4
  6
CONTINUOUS
 10
12.033107034
 20
8.6070090941
 11
12.0475959219
 21
8.59634503
  0
LINE
  5
336
100
AcDbEntity
  8
0
100
AcDbLine
 62
4
  6
CONTINUOUS
 10
11.4390625893
 20
6.7936284858
 11
11.4318181454
 21
6.7651531139
  0
LINE
  5
337
100
AcDbEntity
  8
0
100
AcDbLine
 62
4
  6
CONTINUOUS
 10
12.0041292582
 20
8.5220853822
 11
11.9968848142
 21
8.4936100102
  0
LINE
  5
338
100
AcDbEntity
  8
0
100
AcDbLine
 62
4
  6
CONTINUOUS
 10
11.3014181809
 20
9.2759444197
 11
11.3593737339
 21
9.2719251884
  0
LINE
  5
339
100
AcDbEntity
  8
0
100
AcDbLine
 62
4
  6
CONTINUOUS
 10
10.9343663452
 20
9.3110588098
 11
10.9923218982
 21
9.3070395785
  0
LINE
  5
33A
100
AcDbEntity
  8
0
100
AcDbLine
 62
4
  6
CONTINUOUS
 10
10.9923218982
 20
9.3263580962
 11
10.9536848629
 21
9.3290375837
  0
LINE
  5
33B
100
AcDbEntity
  8
0
100
AcDbLine
 62
4
  6
CONTINUOUS
 10
10.5972582119
 20
9.3537558559
 11
10.5393026588
 21
9.3577750871
  0
LINE
  5
33C
100
AcDbEntity
  8
0
100
AcDbLine
 62
4
  6
CONTINUOUS
 10
10.1915693408
 20
9.3818904746
 11
10.2495248938
 21
9.3778712434
  0
LINE
  5
33D
100
AcDbEntity
  8
0
100
AcDbLine
 62
4
  6
CONTINUOUS
 10
10.7411811685
 20
9.3437747649
 11
10.7991367215
 21
9.3397555337
  0
LINE
  5
33E
100
AcDbEntity
  8
0
100
AcDbLine
 62
4
  6
CONTINUOUS
 10
10.8377737568
 20
9.3370760462
 11
10.8957293099
 21
9.3330568149
  0
LINE
  5
33F
100
AcDbEntity
  8
0
100
AcDbLine
 62
4
  6
CONTINUOUS
 10
11.2048255926
 20
9.3116209149
 11
11.2627811456
 21
9.3076016837
  0
LINE
  5
340
100
AcDbEntity
  8
0
100
AcDbLine
 62
4
  6
CONTINUOUS
 10
11.3014181809
 20
9.3049221962
 11
11.3593737339
 21
9.3009029649
  0
LINE
  5
341
100
AcDbEntity
  8
0
100
AcDbLine
 62
4
  6
CONTINUOUS
 10
11.1589441131
 20
9.3437805828
 11
11.1734330014
 21
9.342775775
  0
LINE
  5
342
100
AcDbEntity
  8
0
100
AcDbLine
 62
4
  6
CONTINUOUS
 10
10.2495248938
 20
9.4358267964
 11
10.1915693408
 21
9.4398460277
  0
LINE
  5
343
100
AcDbEntity
  8
0
100
AcDbLine
 62
4
  6
CONTINUOUS
 10
10.3654359998
 20
9.4277883339
 11
10.4233915528
 21
9.4237691026
  0
LINE
  5
344
100
AcDbEntity
  8
0
100
AcDbLine
 62
4
  6
CONTINUOUS
 10
12.0475959219
 20
8.59634503
 11
12.0548403659
 21
8.5861833629
  0
LINE
  5
345
100
AcDbEntity
  8
0
100
AcDbLine
 62
4
  6
CONTINUOUS
 10
12.0548403659
 20
8.5861833629
 11
12.0548403659
 21
8.5668648503
  0
LINE
  5
346
100
AcDbEntity
  8
0
100
AcDbLine
 62
7
  6
CONTINUOUS
 10
12.0675098836
 20
6.5954973764
 11
12.0675098836
 21
6.3146543505
  0
LINE
  5
347
100
AcDbEntity
  8
0
100
AcDbLine
 62
7
  6
CONTINUOUS
 10
12.0828390948
 20
6.594434292
 11
12.0828390948
 21
6.3294612323
  0
LINE
  5
348
100
AcDbEntity
  8
0
100
AcDbLine
 62
4
  6
CONTINUOUS
 10
11.4825292531
 20
6.7326585107
 11
11.518751473
 21
6.8460575947
  0
LINE
  5
349
100
AcDbEntity
  8
0
100
AcDbLine
 62
4
  6
CONTINUOUS
 10
11.2579514902
 20
6.7482330315
 11
11.315907042
 21
6.8601249038
  0
LINE
  5
34A
100
AcDbEntity
  8
0
100
AcDbLine
 62
4
  6
CONTINUOUS
 10
11.1347959428
 20
6.8437072253
 11
11.1492848308
 21
6.862020937
  0
LINE
  5
34B
100
AcDbEntity
  8
0
100
AcDbLine
 62
4
  6
CONTINUOUS
 10
9.4251070593
 20
9.6089115379
 11
9.4106181713
 21
9.6099163457
  0
LINE
  5
34C
100
AcDbEntity
  8
0
100
AcDbLine
 62
4
  6
CONTINUOUS
 10
9.4106181713
 20
9.6775311537
 11
9.4251070593
 21
9.676526346
  0
LINE
  5
34D
100
AcDbEntity
  8
0
100
AcDbLine
 62
4
  6
CONTINUOUS
 10
9.4106181713
 20
9.7258274491
 11
9.4251070593
 21
9.7248226414
  0
LINE
  5
34E
100
AcDbEntity
  8
0
100
AcDbLine
 62
7
  6
CONTINUOUS
 10
12.1900699938
 20
6.5869978039
 11
12.1900699938
 21
10.0884791317
  0
LINE
  5
34F
100
AcDbEntity
  8
0
100
AcDbLine
 62
4
  6
CONTINUOUS
 10
11.1999959385
 20
6.7715707805
 11
11.1927514946
 21
6.7624139255
  0
LINE
  5
350
100
AcDbEntity
  8
0
100
AcDbLine
 62
4
  6
CONTINUOUS
 10
11.4318181454
 20
6.7651531139
 11
11.4173292575
 21
6.7468394047
  0
LINE
  5
351
100
AcDbEntity
  8
0
100
AcDbLine
 62
4
  6
CONTINUOUS
 10
11.1492848308
 20
6.862020937
 11
11.1637737187
 21
6.8706753856
  0
LINE
  5
352
100
AcDbEntity
  8
0
100
AcDbLine
 62
4
  6
CONTINUOUS
 10
10.6397590326
 20
10.017297366
 11
10.6832256964
 21
10.0142829426
  0
LINE
  5
353
100
AcDbEntity
  8
0
100
AcDbLine
 62
4
  6
CONTINUOUS
 10
10.2920257223
 20
10.060731269
 11
10.3354923861
 21
10.0577168457
  0
LINE
  5
354
100
AcDbEntity
  8
0
100
AcDbLine
 62
7
  6
CONTINUOUS
 10
12.7077076568
 20
7.0869974209
 11
12.7077076568
 21
10.5884787487
  0
LINE
  5
355
100
AcDbEntity
  8
0
100
AcDbLine
 62
4
  6
CONTINUOUS
 10
11.1927514946
 20
6.7624139255
 11
11.1782626066
 21
6.7537594744
  0
LINE
  5
356
100
AcDbEntity
  8
0
100
AcDbLine
 62
4
  6
CONTINUOUS
 10
11.4173292575
 20
6.7468394047
 11
11.4028403695
 21
6.7381849536
  0
LINE
  5
357
100
AcDbEntity
  8
0
100
AcDbLine
 62
4
  6
CONTINUOUS
 10
10.1616257309
 20
10.1277300909
 11
10.2340701706
 21
10.1227060519
  0
LINE
  5
358
100
AcDbEntity
  8
0
100
AcDbLine
 62
7
  6
CONTINUOUS
 10
9.2922923432
 20
10.2894406943
 11
12.1900699938
 21
10.0884791317
  0
LINE
  5
359
100
AcDbEntity
  8
0
100
AcDbLine
 62
7
  6
CONTINUOUS
 10
12.1900699938
 20
6.5869978039
 11
12.7077076568
 21
7.0869974209
  0
LINE
  5
35A
100
AcDbEntity
  8
0
100
AcDbLine
 62
7
  6
CONTINUOUS
 10
12.7077076568
 20
10.5884787487
 11
9.8099300062
 21
10.7894403113
  0
LINE
  5
35B
100
AcDbEntity
  8
0
100
AcDbLine
 62
7
  6
CONTINUOUS
 10
12.0097523677
 20
6.2826303507
 11
11.984590015
 21
6.2702006302
  0
ARC
  5
35C
100
AcDbEntity
  8
0
100
AcDbCircle
 62
7
  6
CONTINUOUS
 10
11.6115053758
 20
7.9418566393
 40
1.7134727463
100
AcDbArc
 50
273.0082929995
 51
274.9259690708
  0
ARC
  5
35D
100
AcDbEntity
  8
0
100
AcDbCircle
 62
7
  6
CONTINUOUS
 10
10.9067318847
 20
7.7587991439
 40
0.1564300229
100
AcDbArc
 50
170.7636202892
 51
179.9566824982
  0
ARC
  5
35E
100
AcDbEntity
  8
0
100
AcDbCircle
 62
7
  6
CONTINUOUS
 10
10.3271324141
 20
10.3027583489
 40
0.0290575936
100
AcDbArc
 50
180.0124386196
 51
187.8522742044
  0
ARC
  5
35F
100
AcDbEntity
  8
0
100
AcDbCircle
 62
7
  6
CONTINUOUS
 10
11.1300178076
 20
10.302758379
 40
0.0290569904
100
AcDbArc
 50
352.2255437801
 51
359.9875017606
  0
SPLINE
  5
360
100
AcDbEntity
  8
0
100
AcDbSpline
 62
7
  6
CONTINUOUS
 70
0
 71
3
 72
11
 73
7
 74
0
 42
0.0000001
 43
0.0000001
 44
0.0000000001
 40
0.0
 40
0.0
 40
0.0
 40
0.0
 40
0.2399502312
 40
0.4865132022
 40
0.7398237866
 40
1.0
 40
1.0
 40
1.0
 40
1.0
 10
12.0760414342
 20
6.3219976686
 30
0.0
 10
12.0753935591
 20
6.3213718692
 30
0.0
 10
12.0740604201
 20
6.3201231043
 30
0.0
 10
12.071979688
 20
6.3182831035
 30
0.0
 10
12.0697915778
 20
6.3164515269
 30
0.0
 10
12.0682819502
 20
6.315252539
 30
0.0
 10
12.0675098836
 20
6.3146543505
 30
0.0
  0
SPLINE
  5
361
100
AcDbEntity
  8
0
100
AcDbSpline
 62
7
  6
CONTINUOUS
 70
0
 71
3
 72
11
 73
7
 74
0
 42
0.0000001
 43
0.0000001
 44
0.0000000001
 40
0.0
 40
0.0
 40
0.0
 40
0.0
 40
0.2399382843
 40
0.4864287737
 40
0.7397111676
 40
1.0
 40
1.0
 40
1.0
 40
1.0
 10
12.0828390948
 20
6.3294612323
 30
0.0
 10
12.0823389892
 20
6.32882662
 30
0.0
 10
12.0813005261
 20
6.3275592721
 30
0.0
 10
12.0796538016
 20
6.3256896439
 30
0.0
 10
12.077897936
 20
6.3238268007
 30
0.0
 10
12.0766718709
 20
6.3226066237
 30
0.0
 10
12.0760414342
 20
6.3219976686
 30
0.0
  0
SPLINE
  5
362
100
AcDbEntity
  8
0
100
AcDbSpline
 62
7
  6
CONTINUOUS
 70
0
 71
3
 72
11
 73
7
 74
0
 42
0.0000001
 43
0.0000001
 44
0.0000000001
 40
0.0
 40
0.0
 40
0.0
 40
0.0
 40
0.2529398012
 40
0.5039896517
 40
0.7530425508
 40
1.0
 40
1.0
 40
1.0
 40
1.0
 10
12.0675098836
 20
6.3146543505
 30
0.0
 10
12.0627552126
 20
6.3117489153
 30
0.0
 10
12.0532262414
 20
6.306049352
 30
0.0
 10
12.0388155898
 20
6.2978291171
 30
0.0
 10
12.0243404697
 20
6.2899958819
 30
0.0
 10
12.0146065664
 20
6.285028369
 30
0.0
 10
12.009728958
 20
6.2826187873
 30
0.0
  0
SPLINE
  5
363
100
AcDbEntity
  8
0
100
AcDbSpline
 62
7
  6
CONTINUOUS
 70
0
 71
3
 72
79
 73
75
 74
0
 42
0.0000001
 43
0.0000001
 44
0.0000000001
 40
0.0
 40
0.0
 40
0.0
 40
0.0
 40
0.0049346149
 40
0.0099877251
 40
0.0151590499
 40
0.0204481992
 40
0.0258546713
 40
0.0313778714
 40
0.0370171043
 40
0.0427715926
 40
0.0546226141
 40
0.066923307
 40
0.0796646949
 40
0.0928367656
 40
0.10642856
 40
0.1204282499
 40
0.1348232052
 40
0.1496000531
 40
0.1647447325
 40
0.1802425411
 40
0.1960781811
 40
0.2122357989
 40
0.2286990254
 40
0.2454510106
 40
0.26247446
 40
0.2797516671
 40
0.2972645466
 40
0.3149946648
 40
0.3329232712
 40
0.3510313283
 40
0.3692995407
 40
0.3877083857
 40
0.4062381408
 40
0.424868914
 40
0.443580671
 40
0.462353265
 40
0.4811664639
 40
0.4999999795
 40
0.5188334952
 40
0.5376466942
 40
0.5564192885
 40
0.5751310457
 40
0.5937618193
 40
0.6122915748
 40
0.6307004205
 40
0.6489686336
 40
0.6670766916
 40
0.685005299
 40
0.7027354182
 40
0.7202482986
 40
0.7375255067
 40
0.7545489571
 40
0.7713009434
 40
0.7877641713
 40
0.8039217908
 40
0.8197574325
 40
0.8352552428
 40
0.8503999238
 40
0.8651767734
 40
0.8795717301
 40
0.8935714217
 40
0.9071632179
 40
0.9203352906
 40
0.9330766807
 40
0.945377376
 40
0.9572283997
 40
0.9629828881
 40
0.9686221229
 40
0.9741453233
 40
0.979551797
 40
0.9848409473
 40
0.990012273
 40
0.9950653848
 40
1.0
 40
1.0
 40
1.0
 40
1.0
 10
11.9845900594
 20
6.2702006524
 30
0.0
 10
11.9834452692
 20
6.269635148
 30
0.0
 10
11.9811186545
 20
6.2685097849
 30
0.0
 10
11.9775611601
 20
6.2668572107
 30
0.0
 10
11.9738956309
 20
6.2652205126
 30
0.0
 10
11.9701231342
 20
6.2636001728
 30
0.0
 10
11.9662447541
 20
6.2619966524
 30
0.0
 10
11.9622616091
 20
6.2604104209
 30
0.0
 10
11.9581748446
 20
6.2588419264
 30
0.0
 10
11.9525339399
 20
6.2567544182
 30
0.0
 10
11.9452301187
 20
6.2541957402
 30
0.0
 10
11.9361547662
 20
6.2512325489
 30
0.0
 10
11.9266953546
 20
6.2483507231
 30
0.0
 10
11.916862811
 20
6.2455536067
 30
0.0
 10
11.906668449
 20
6.2428444432
 30
0.0
 10
11.8961240222
 20
6.240226376
 30
0.0
 10
11.8852416905
 20
6.2377024429
 30
0.0
 10
11.8740340102
 20
6.235275573
 30
0.0
 10
11.8625139173
 20
6.2329485825
 30
0.0
 10
11.8506947122
 20
6.2307241714
 30
0.0
 10
11.8385900438
 20
6.2286049209
 30
0.0
 10
11.8262138935
 20
6.2265932897
 30
0.0
 10
11.8135805585
 20
6.2246916115
 30
0.0
 10
11.8007046349
 20
6.2229020919
 30
0.0
 10
11.7876010008
 20
6.2212268066
 30
0.0
 10
11.7742847985
 20
6.2196676983
 30
0.0
 10
11.7607714172
 20
6.2182265751
 30
0.0
 10
11.7470764749
 20
6.2169051079
 30
0.0
 10
11.7332157998
 20
6.215704829
 30
0.0
 10
11.719205413
 20
6.21462713
 30
0.0
 10
11.7050615085
 20
6.2136732603
 30
0.0
 10
11.6908004357
 20
6.2128443255
 30
0.0
 10
11.6764386795
 20
6.2121412865
 30
0.0
 10
11.6619928417
 20
6.2115649581
 30
0.0
 10
11.6474796214
 20
6.2111160084
 30
0.0
 10
11.6329157956
 20
6.2107949578
 30
0.0
 10
11.6183182003
 20
6.2106021782
 30
0.0
 10
11.6037037105
 20
6.2105378933
 30
0.0
 10
11.5890892205
 20
6.2106021775
 30
0.0
 10
11.5744916251
 20
6.2107949565
 30
0.0
 10
11.5599277992
 20
6.2111160066
 30
0.0
 10
11.5454145786
 20
6.2115649558
 30
0.0
 10
11.5309687405
 20
6.2121412836
 30
0.0
 10
11.5166069839
 20
6.2128443221
 30
0.0
 10
11.5023459106
 20
6.2136732563
 30
0.0
 10
11.4882020056
 20
6.2146271255
 30
0.0
 10
11.4741916179
 20
6.2157048238
 30
0.0
 10
11.4603309421
 20
6.2169051021
 30
0.0
 10
11.4466359989
 20
6.2182265687
 30
0.0
 10
11.4331226168
 20
6.2196676914
 30
0.0
 10
11.4198064138
 20
6.2212267992
 30
0.0
 10
11.4067027788
 20
6.2229020841
 30
0.0
 10
11.3938268541
 20
6.2246916032
 30
0.0
 10
11.381193518
 20
6.226593281
 30
0.0
 10
11.3688173663
 20
6.2286049116
 30
0.0
 10
11.3567126966
 20
6.2307241615
 30
0.0
 10
11.34489349
 20
6.232948572
 30
0.0
 10
11.3333733957
 20
6.2352755621
 30
0.0
 10
11.322165714
 20
6.2377024316
 30
0.0
 10
11.311283381
 20
6.2402263643
 30
0.0
 10
11.3007389528
 20
6.2428444311
 30
0.0
 10
11.2905445893
 20
6.2455535943
 30
0.0
 10
11.2807120439
 20
6.2483507103
 30
0.0
 10
11.2712526304
 20
6.2512325356
 30
0.0
 10
11.2621772759
 20
6.2541957266
 30
0.0
 10
11.2548734531
 20
6.2567544036
 30
0.0
 10
11.2492325476
 20
6.2588419127
 30
0.0
 10
11.2451457819
 20
6.2604104061
 30
0.0
 10
11.2411626363
 20
6.2619966382
 30
0.0
 10
11.237284255
 20
6.2636001579
 30
0.0
 10
11.2335117574
 20
6.2652204978
 30
0.0
 10
11.2298462272
 20
6.266857196
 30
0.0
 10
11.2262887317
 20
6.2685097694
 30
0.0
 10
11.2239621165
 20
6.2696351328
 30
0.0
 10
11.2228173263
 20
6.2702006372
 30
0.0
  0
SPLINE
  5
364
100
AcDbEntity
  8
0
100
AcDbSpline
 62
7
  6
CONTINUOUS
 70
0
 71
3
 72
34
 73
30
 74
0
 42
0.0000001
 43
0.0000001
 44
0.0000000001
 40
0.0
 40
0.0
 40
0.0
 40
0.0
 40
0.0217726103
 40
0.043998712
 40
0.0899309812
 40
0.1380396824
 40
0.1885283882
 40
0.2147207498
 40
0.2415663873
 40
0.2690791435
 40
0.2972700689
 40
0.3261474357
 40
0.3557167999
 40
0.3859810872
 40
0.4169407062
 40
0.4485936851
 40
0.4809358243
 40
0.5139608702
 40
0.5476607044
 40
0.5820255323
 40
0.6170440742
 40
0.6527037538
 40
0.6889908834
 40
0.7258908481
 40
0.7633882775
 40
0.8014672032
 40
0.8401112084
 40
0.9190266208
 40
1.0
 40
1.0
 40
1.0
 40
1.0
 10
11.2065178067
 20
6.2782522876
 30
0.0
 10
11.2056547035
 20
6.2786786052
 30
0.0
 10
11.2039262085
 20
6.2795723079
 30
0.0
 10
11.2004609478
 20
6.2815235482
 30
0.0
 10
11.1961170498
 20
6.2842805725
 30
0.0
 10
11.1909535738
 20
6.2880520957
 30
0.0
 10
11.1867005552
 20
6.2915721628
 30
0.0
 10
11.1832970581
 20
6.2946334905
 30
0.0
 10
11.1807129135
 20
6.2970848576
 30
0.0
 10
11.178129002
 20
6.2996630735
 30
0.0
 10
11.1755457213
 20
6.3023675507
 30
0.0
 10
11.1729635102
 20
6.3051973776
 30
0.0
 10
11.1703827868
 20
6.3081513879
 30
0.0
 10
11.1678039616
 20
6.3112281561
 30
0.0
 10
11.1652274296
 20
6.314426016
 30
0.0
 10
11.1626535694
 20
6.3177430764
 30
0.0
 10
11.1600827397
 20
6.3211772391
 30
0.0
 10
11.1575152771
 20
6.3247262187
 30
0.0
 10
11.1549514953
 20
6.3283875654
 30
0.0
 10
11.1523916833
 20
6.3321586858
 30
0.0
 10
11.1498361047
 20
6.3360368654
 30
0.0
 10
11.1472849968
 20
6.3400192891
 30
0.0
 10
11.1447385705
 20
6.3441030628
 30
0.0
 10
11.1421970098
 20
6.3482852337
 30
0.0
 10
11.1396604752
 20
6.3525628097
 30
0.0
 10
11.1371290953
 20
6.3569327774
 30
0.0
 10
11.1337373327
 20
6.3629202886
 30
0.0
 10
11.1295157159
 20
6.3706168703
 30
0.0
 10
11.1262164486
 20
6.3768693879
 30
0.0
 10
11.1245682596
 20
6.3800475742
 30
0.0
  0
SPLINE
  5
365
100
AcDbEntity
  8
0
100
AcDbSpline
 62
7
  6
CONTINUOUS
 70
0
 71
3
 72
11
 73
7
 74
0
 42
0.0000001
 43
0.0000001
 44
0.0000000001
 40
0.0
 40
0.0
 40
0.0
 40
0.0
 40
0.2598462974
 40
0.5132467876
 40
0.7600213203
 40
1.0
 40
1.0
 40
1.0
 40
1.0
 10
11.2795032991
 20
6.2600058116
 30
0.0
 10
11.275850515
 20
6.2608430642
 30
0.0
 10
11.2686463041
 20
6.2625441617
 30
0.0
 10
11.2580144247
 20
6.2652116725
 30
0.0
 10
11.2476996973
 20
6.2679611865
 30
0.0
 10
11.2409450862
 20
6.2698743299
 30
0.0
 10
11.2376230716
 20
6.2708451983
 30
0.0
  0
SPLINE
  5
366
100
AcDbEntity
  8
0
100
AcDbSpline
 62
7
  6
CONTINUOUS
 70
0
 71
3
 72
34
 73
30
 74
0
 42
0.0000001
 43
0.0000001
 44
0.0000000001
 40
0.0
 40
0.0
 40
0.0
 40
0.0
 40
0.0614928409
 40
0.1230891667
 40
0.153930456
 40
0.1848018751
 40
0.2157048016
 40
0.2466405691
 40
0.2776104456
 40
0.308615611
 40
0.339657133
 40
0.3707359447
 40
0.4018528241
 40
0.433008375
 40
0.4642030116
 40
0.4954369474
 40
0.5267101883
 40
0.5580225326
 40
0.5893735753
 40
0.6207627182
 40
0.6521891835
 40
0.6836520324
 40
0.7151501852
 40
0.7466824453
 40
0.7782475226
 40
0.8098440566
 40
0.8731242422
 40
0.9365133522
 40
1.0
 40
1.0
 40
1.0
 40
1.0
 10
11.701429278
 20
6.2307451456
 30
0.0
 10
11.6928092805
 20
6.2291201458
 30
0.0
 10
11.6755142226
 20
6.2260780558
 30
0.0
 10
11.6537918454
 20
6.2228503962
 30
0.0
 10
11.6363408031
 20
6.220641095
 30
0.0
 10
11.6232101715
 20
6.2191774457
 30
0.0
 10
11.6100450843
 20
6.2179153327
 30
0.0
 10
11.5968475313
 20
6.2168618727
 30
0.0
 10
11.5836199075
 20
6.2160238027
 30
0.0
 10
11.5703649714
 20
6.2154073633
 30
0.0
 10
11.5570858437
 20
6.2150181925
 30
0.0
 10
11.5437859814
 20
6.2148612203
 30
0.0
 10
11.530469144
 20
6.2149405721
 30
0.0
 10
11.5171393481
 20
6.2152594823
 30
0.0
 10
11.5038008125
 20
6.2158202238
 30
0.0
 10
11.4904578954
 20
6.2166240559
 30
0.0
 10
11.4771150255
 20
6.2176711949
 30
0.0
 10
11.46377663
 20
6.2189608043
 30
0.0
 10
11.4504470634
 20
6.2204910146
 30
0.0
 10
11.4371305384
 20
6.222258963
 30
0.0
 10
11.4238310636
 20
6.2242608542
 30
0.0
 10
11.4105523897
 20
6.2264920382
 30
0.0
 10
11.3972979612
 20
6.2289471047
 30
0.0
 10
11.384070896
 20
6.2316199793
 30
0.0
 10
11.3708739121
 20
6.2345040496
 30
0.0
 10
11.3533133775
 20
6.2386234698
 30
0.0
 10
11.3314498471
 20
6.2442651018
 30
0.0
 10
11.3053766168
 20
6.2517569069
 30
0.0
 10
11.2881104702
 20
6.2571894111
 30
0.0
 10
11.2795032991
 20
6.2600058116
 30
0.0
  0
SPLINE
  5
367
100
AcDbEntity
  8
0
100
AcDbSpline
 62
7
  6
CONTINUOUS
 70
0
 71
3
 72
15
 73
11
 74
0
 42
0.0000001
 43
0.0000001
 44
0.0000000001
 40
0.0
 40
0.0
 40
0.0
 40
0.0
 40
0.1192556975
 40
0.2392875357
 40
0.3604859033
 40
0.483279967
 40
0.6081324973
 40
0.7355322617
 40
0.8659845135
 40
1.0
 40
1.0
 40
1.0
 40
1.0
 10
11.2376230716
 20
6.2708451983
 30
0.0
 10
11.2363408365
 20
6.270849761
 30
0.0
 10
11.2337677072
 20
6.2709264387
 30
0.0
 10
11.2299036198
 20
6.271253016
 30
0.0
 10
11.2260261243
 20
6.2718019044
 30
0.0
 10
11.2221357981
 20
6.2725835233
 30
0.0
 10
11.2182332219
 20
6.273608078
 30
0.0
 10
11.2143191391
 20
6.2748854312
 30
0.0
 10
11.21039462
 20
6.2764248171
 30
0.0
 10
11.2078097422
 20
6.2776141544
 30
0.0
 10
11.2065178067
 20
6.2782522876
 30
0.0
  0
SPLINE
  5
368
100
AcDbEntity
  8
0
100
AcDbSpline
 62
7
  6
CONTINUOUS
 70
0
 71
3
 72
32
 73
28
 74
0
 42
0.0000001
 43
0.0000001
 44
0.0000000001
 40
0.0
 40
0.0
 40
0.0
 40
0.0
 40
0.0668467461
 40
0.1330343711
 40
0.1985498456
 40
0.2633895225
 40
0.2955589434
 40
0.3275629011
 40
0.3594039835
 40
0.3910854601
 40
0.4226112559
 40
0.4539859114
 40
0.4852145321
 40
0.5163027271
 40
0.54725654
 40
0.5780823734
 40
0.6087869096
 40
0.6393770305
 40
0.6698597382
 40
0.7002420785
 40
0.7305310697
 40
0.7607336373
 40
0.790856557
 40
0.8209064041
 40
0.880809966
 40
0.940493758
 40
1.0
 40
1.0
 40
1.0
 40
1.0
 10
12.009728958
 20
6.2826187873
 30
0.0
 10
12.0045509161
 20
6.2800607888
 30
0.0
 10
11.9941747482
 20
6.2751123048
 30
0.0
 10
11.9784749899
 20
6.2681928996
 30
0.0
 10
11.9627231061
 20
6.2618422884
 30
0.0
 10
11.9495271872
 20
6.2570333373
 30
0.0
 10
11.9389561146
 20
6.2534967873
 30
0.0
 10
11.931042542
 20
6.2510072534
 30
0.0
 10
11.9231250066
 20
6.2486754774
 30
0.0
 10
11.9152051863
 20
6.2465026894
 30
0.0
 10
11.9072848173
 20
6.244489695
 30
0.0
 10
11.8993656339
 20
6.2426368423
 30
0.0
 10
11.8914493608
 20
6.2409440249
 30
0.0
 10
11.8835376917
 20
6.2394106834
 30
0.0
 10
11.8756322731
 20
6.2380358158
 30
0.0
 10
11.8677346869
 20
6.2368179937
 30
0.0
 10
11.8598464369
 20
6.2357553844
 30
0.0
 10
11.8519689357
 20
6.2348457778
 30
0.0
 10
11.844103494
 20
6.2340866174
 30
0.0
 10
11.836251314
 20
6.2334750339
 30
0.0
 10
11.8284134803
 20
6.2330078827
 30
0.0
 10
11.8205909681
 20
6.2326817786
 30
0.0
 10
11.8127845997
 20
6.2324931402
 30
0.0
 10
11.8024100998
 20
6.2324199715
 30
0.0
 10
11.7894813104
 20
6.2326522146
 30
0.0
 10
11.7740247488
 20
6.233418879
 30
0.0
 10
11.763757638
 20
6.2342343708
 30
0.0
 10
11.7586387166
 20
6.2347126406
 30
0.0
  0
SPLINE
  5
369
100
AcDbEntity
  8
0
100
AcDbSpline
 62
7
  6
CONTINUOUS
 70
0
 71
3
 72
93
 73
89
 74
0
 42
0.0000001
 43
0.0000001
 44
0.0000000001
 40
0.0
 40
0.0
 40
0.0
 40
0.0
 40
0.0039802005
 40
0.0081241083
 40
0.0124359116
 40
0.0169192331
 40
0.0215771071
 40
0.0264118291
 40
0.0314250775
 40
0.0366180274
 40
0.0419913947
 40
0.0475454967
 40
0.0532802394
 40
0.0591952227
 40
0.0652896963
 40
0.071562666
 40
0.0780128361
 40
0.0846387029
 40
0.0984099586
 40
0.1128604728
 40
0.1279709419
 40
0.1437194762
 40
0.1600818774
 40
0.1770318697
 40
0.1945412988
 40
0.2125803054
 40
0.2311174799
 40
0.2501200027
 40
0.2695537746
 40
0.2893835385
 40
0.3095729955
 40
0.3300849166
 40
0.3508812506
 40
0.3719232299
 40
0.3931714738
 40
0.4145860912
 40
0.4361267819
 40
0.4577529372
 40
0.47942374
 40
0.5010982647
 40
0.5227355766
 40
0.5442948315
 40
0.5657353757
 40
0.5870168455
 40
0.608099268
 40
0.628943162
 40
0.6495096405
 40
0.6697605141
 40
0.6896583964
 40
0.7091668111
 40
0.7282503034
 40
0.7468745548
 40
0.7650065038
 40
0.7826144744
 40
0.7996683149
 40
0.8161395488
 40
0.8320015451
 40
0.8472297111
 40
0.8618017176
 40
0.8756977675
 40
0.8823870871
 40
0.8889013284
 40
0.8952388858
 40
0.9013983901
 40
0.9073787355
 40
0.9131790737
 40
0.918798886
 40
0.9242379489
 40
0.9294964425
 40
0.9345749072
 40
0.9394743702
 40
0.9441963202
 40
0.9487428314
 40
0.9531165822
 40
0.9573209639
 40
0.9613601573
 40
0.9652392239
 40
0.9689642405
 40
0.9725423751
 40
0.9759820598
 40
0.97929305
 40
0.982486587
 40
0.9855754179
 40
0.9885738696
 40
0.9914977727
 40
0.9943643586
 40
0.997192021
 40
1.0
 40
1.0
 40
1.0
 40
1.0
 10
11.4530192219
 20
10.4075427318
 30
0.0
 10
11.4515337847
 20
10.4061079095
 30
0.0
 10
11.4484343599
 20
10.4032484241
 30
0.0
 10
11.4435134378
 20
10.39907195
 30
0.0
 10
11.4382311647
 20
10.3949254569
 30
0.0
 10
11.4325904296
 20
10.3908110993
 30
0.0
 10
11.4265939559
 20
10.3867308303
 30
0.0
 10
11.4202447182
 20
10.3826865967
 30
0.0
 10
11.413545869
 20
10.3786804116
 30
0.0
 10
11.4065007603
 20
10.3747142818
 30
0.0
 10
11.399112923
 20
10.3707901574
 30
0.0
 10
11.3913860403
 20
10.366910035
 30
0.0
 10
11.3833239996
 20
10.3630758142
 30
0.0
 10
11.3749308333
 20
10.3592894808
 30
0.0
 10
11.3662107751
 20
10.3555528823
 30
0.0
 10
11.3571682007
 20
10.3518679686
 30
0.0
 10
11.3478076637
 20
10.3482365221
 30
0.0
 10
11.3347408529
 20
10.3434062483
 30
0.0
 10
11.3176384476
 20
10.3375276648
 30
0.0
 10
11.2961808536
 20
10.3308029418
 30
0.0
 10
11.2735758652
 20
10.3243337793
 30
0.0
 10
11.2498691096
 20
10.3181333444
 30
0.0
 10
11.2251082729
 20
10.3122142649
 30
0.0
 10
11.1993432918
 20
10.3065885983
 30
0.0
 10
11.1726261547
 20
10.3012678045
 30
0.0
 10
11.1450108127
 20
10.2962627214
 30
0.0
 10
11.1165530571
 20
10.2915835416
 30
0.0
 10
11.0873104036
 20
10.2872397922
 30
0.0
 10
11.0573419711
 20
10.2832403152
 30
0.0
 10
11.02670836
 20
10.2795932501
 30
0.0
 10
10.9954715263
 20
10.2763060175
 30
0.0
 10
10.9636946552
 20
10.2733853051
 30
0.0
 10
10.931442031
 20
10.2708370534
 30
0.0
 10
10.8987789064
 20
10.2686664451
 30
0.0
 10
10.8657713689
 20
10.2668778942
 30
0.0
 10
10.8324862067
 20
10.2654750368
 30
0.0
 10
10.7989907722
 20
10.2644607248
 30
0.0
 10
10.765352845
 20
10.2638370199
 30
0.0
 10
10.7316404941
 20
10.2636051899
 30
0.0
 10
10.6979219395
 20
10.263765706
 30
0.0
 10
10.6642654141
 20
10.2643182418
 30
0.0
 10
10.6307390243
 20
10.2652616742
 30
0.0
 10
10.5974106126
 20
10.2665940854
 30
0.0
 10
10.5643476189
 20
10.2683127667
 30
0.0
 10
10.5316169441
 20
10.270414224
 30
0.0
 10
10.4992848133
 20
10.2728941845
 30
0.0
 10
10.4674166413
 20
10.2757476052
 30
0.0
 10
10.4360768985
 20
10.2789686822
 30
0.0
 10
10.4053289797
 20
10.2825508628
 30
0.0
 10
10.3752350739
 20
10.2864868584
 30
0.0
 10
10.3458560372
 20
10.2907686589
 30
0.0
 10
10.3172512668
 20
10.2953875486
 30
0.0
 10
10.2894785788
 20
10.3003341237
 30
0.0
 10
10.2625940862
 20
10.3055983108
 30
0.0
 10
10.2366520834
 20
10.3111693878
 30
0.0
 10
10.211704923
 20
10.3170360058
 30
0.0
 10
10.1878029258
 20
10.3231862143
 30
0.0
 10
10.1649941855
 20
10.3296074861
 30
0.0
 10
10.1433247507
 20
10.3362867544
 30
0.0
 10
10.126039955
 20
10.3421281521
 30
0.0
 10
10.1128232365
 20
10.3469298132
 30
0.0
 10
10.1033482524
 20
10.3505413339
 30
0.0
 10
10.0941895389
 20
10.3542070163
 30
0.0
 10
10.0853517007
 20
10.3579250431
 30
0.0
 10
10.0768391825
 20
10.3616935076
 30
0.0
 10
10.0686562734
 20
10.3655105475
 30
0.0
 10
10.0608070695
 20
10.369374193
 30
0.0
 10
10.0532955261
 20
10.3732825608
 30
0.0
 10
10.046125384
 20
10.3772336304
 30
0.0
 10
10.0393002528
 20
10.3812254936
 30
0.0
 10
10.0328235155
 20
10.3852561063
 30
0.0
 10
10.0266984227
 20
10.3893235289
 30
0.0
 10
10.020928004
 20
10.3934257253
 30
0.0
 10
10.0155151403
 20
10.3975607242
 30
0.0
 10
10.0104625206
 20
10.4017265263
 30
0.0
 10
10.0057726543
 20
10.4059211395
 30
0.0
 10
10.0014479156
 20
10.4101426229
 30
0.0
 10
9.99749046
 20
10.4143889809
 30
0.0
 10
9.9939023892
 20
10.4186583338
 30
0.0
 10
9.9906855536
 20
10.4229486929
 30
0.0
 10
9.9878418379
 20
10.4272581989
 30
0.0
 10
9.9853728643
 20
10.4315848386
 30
0.0
 10
9.9832803359
 20
10.4359266566
 30
0.0
 10
9.9815656977
 20
10.4402815083
 30
0.0
 10
9.9802304084
 20
10.4446471323
 30
0.0
 10
9.9792756454
 20
10.4490211877
 30
0.0
 10
9.9787023783
 20
10.4534006063
 30
0.0
 10
9.9785748138
 20
10.4563264025
 30
0.0
 10
9.978574818
 20
10.4577834059
 30
0.0
  0
SPLINE
  5
36A
100
AcDbEntity
  8
0
100
AcDbSpline
 62
7
  6
CONTINUOUS
 70
0
 71
3
 72
20
 73
16
 74
0
 42
0.0000001
 43
0.0000001
 44
0.0000000001
 40
0.0
 40
0.0
 40
0.0
 40
0.0
 40
0.1504572429
 40
0.2222009552
 40
0.2917179917
 40
0.4244350495
 40
0.4878976342
 40
0.5495926289
 40
0.6682362658
 40
0.7255681682
 40
0.781805938
 40
0.8371511931
 40
0.8918166409
 40
0.9460237365
 40
1.0
 40
1.0
 40
1.0
 40
1.0
 10
12.4488888253
 20
9.3986330905
 30
0.0
 10
12.4505568052
 20
9.4002442355
 30
0.0
 10
12.453096564
 20
9.402547346
 30
0.0
 10
12.456592847
 20
9.4053760839
 30
0.0
 10
12.4599786907
 20
9.4079010411
 30
0.0
 10
12.4634123149
 20
9.4101447935
 30
0.0
 10
12.4668890748
 20
9.4120741222
 30
0.0
 10
12.4702633215
 20
9.4137305442
 30
0.0
 10
12.473677067
 20
9.4150844934
 30
0.0
 10
12.477110015
 20
9.4161033723
 30
0.0
 10
12.4796482433
 20
9.4166906698
 30
0.0
 10
12.4821780271
 20
9.4171092525
 30
0.0
 10
12.4846986891
 20
9.4173589629
 30
0.0
 10
12.4872092162
 20
9.4174396849
 30
0.0
 10
12.4888771392
 20
9.4173807005
 30
0.0
 10
12.4897070974
 20
9.4173231465
 30
0.0
  0
SPLINE
  5
36B
100
AcDbEntity
  8
0
100
AcDbSpline
 62
7
  6
CONTINUOUS
 70
0
 71
3
 72
21
 73
17
 74
0
 42
0.0000001
 43
0.0000001
 44
0.0000000001
 40
0.0
 40
0.0
 40
0.0
 40
0.0
 40
0.1273176984
 40
0.2537999461
 40
0.3167619614
 40
0.3795355204
 40
0.4421314992
 40
0.5045621453
 40
0.5668413456
 40
0.6289845231
 40
0.6910084433
 40
0.7529310869
 40
0.8147714401
 40
0.8765493236
 40
0.9382852134
 40
1.0
 40
1.0
 40
1.0
 40
1.0
 10
11.9939870394
 20
9.7398553245
 30
0.0
 10
11.9939870394
 20
9.7345580322
 30
0.0
 10
11.9934813775
 20
9.7239913894
 30
0.0
 10
11.9915716346
 20
9.7109287378
 30
0.0
 10
11.9892890869
 20
9.7006822316
 30
0.0
 10
11.9872075226
 20
9.6931244036
 30
0.0
 10
11.9847586866
 20
9.6857008744
 30
0.0
 10
11.9819482248
 20
9.6784285459
 30
0.0
 10
11.9787826169
 20
9.6713242379
 30
0.0
 10
11.9752690984
 20
9.6644043468
 30
0.0
 10
11.9714157972
 20
9.657684824
 30
0.0
 10
11.9672315998
 20
9.6511811553
 30
0.0
 10
11.9627261153
 20
9.6449083903
 30
0.0
 10
11.9579097059
 20
9.638880935
 30
0.0
 10
11.9527936928
 20
9.6331128574
 30
0.0
 10
11.9491904163
 20
9.6294486349
 30
0.0
 10
11.9473435379
 20
9.6276646983
 30
0.0
  0
SPLINE
  5
36C
100
AcDbEntity
  8
0
100
AcDbSpline
 62
7
  6
CONTINUOUS
 70
0
 71
3
 72
21
 73
17
 74
0
 42
0.0000001
 43
0.0000001
 44
0.0000000001
 40
0.0
 40
0.0
 40
0.0
 40
0.0
 40
0.1273176984
 40
0.2537999461
 40
0.3167619614
 40
0.3795355204
 40
0.4421314992
 40
0.5045621453
 40
0.5668413456
 40
0.6289845231
 40
0.6910084433
 40
0.7529310869
 40
0.8147714401
 40
0.8765493236
 40
0.9382852134
 40
1.0
 40
1.0
 40
1.0
 40
1.0
 10
10.4243574787
 20
7.0108192646
 30
0.0
 10
10.4243574787
 20
7.0055219724
 30
0.0
 10
10.4238518167
 20
6.9949553296
 30
0.0
 10
10.4219420739
 20
6.981892678
 30
0.0
 10
10.4196595262
 20
6.9716461718
 30
0.0
 10
10.4175779618
 20
6.9640883438
 30
0.0
 10
10.4151291258
 20
6.9566648145
 30
0.0
 10
10.4123186641
 20
6.9493924861
 30
0.0
 10
10.4091530562
 20
6.9422881781
 30
0.0
 10
10.4056395377
 20
6.935368287
 30
0.0
 10
10.4017862365
 20
6.9286487642
 30
0.0
 10
10.3976020391
 20
6.9221450955
 30
0.0
 10
10.3930965546
 20
6.9158723305
 30
0.0
 10
10.3882801452
 20
6.9098448752
 30
0.0
 10
10.3831641321
 20
6.9040767976
 30
0.0
 10
10.3795608555
 20
6.9004125751
 30
0.0
 10
10.3777139771
 20
6.8986286384
 30
0.0
  0
SPLINE
  5
36D
100
AcDbEntity
  8
0
100
AcDbSpline
 62
7
  6
CONTINUOUS
 70
0
 71
3
 72
35
 73
31
 74
0
 42
0.0000001
 43
0.0000001
 44
0.0000000001
 40
0.0
 40
0.0
 40
0.0
 40
0.0
 40
0.0315097964
 40
0.0628254794
 40
0.0939463096
 40
0.1248800562
 40
0.1556385512
 40
0.1862394186
 40
0.2167045062
 40
0.2470593424
 40
0.2773322646
 40
0.3075534775
 40
0.3377542013
 40
0.3679660262
 40
0.3982207061
 40
0.428549451
 40
0.4589823258
 40
0.4895482016
 40
0.5511705195
 40
0.6136197969
 40
0.6770177597
 40
0.741371901
 40
0.7738641275
 40
0.8065034805
 40
0.839218873
 40
0.8719158963
 40
0.9044782822
 40
0.9367728673
 40
0.9686588083
 40
1.0
 40
1.0
 40
1.0
 40
1.0
 10
10.7503019065
 20
7.7589174101
 30
0.0
 10
10.7503019065
 20
7.7557314015
 30
0.0
 10
10.7505015222
 20
7.7493771275
 30
0.0
 10
10.7514034626
 20
7.7399147962
 30
0.0
 10
10.752899232
 20
7.7305866009
 30
0.0
 10
10.7549758947
 20
7.7214282404
 30
0.0
 10
10.7576164821
 20
7.7124711798
 30
0.0
 10
10.7608004392
 20
7.7037431854
 30
0.0
 10
10.7645047362
 20
7.6952677543
 30
0.0
 10
10.768704651
 20
7.6870641895
 30
0.0
 10
10.7733746225
 20
7.6791477419
 30
0.0
 10
10.7784890108
 20
7.6715299806
 30
0.0
 10
10.7840226832
 20
7.6642192343
 30
0.0
 10
10.789951451
 20
7.6572210282
 30
0.0
 10
10.7962524114
 20
7.6505385382
 30
0.0
 10
10.8029041243
 20
7.644173182
 30
0.0
 10
10.8098869263
 20
7.6381248635
 30
0.0
 10
10.8196390539
 20
7.630462367
 30
0.0
 10
10.8325927679
 20
7.6216652436
 30
0.0
 10
10.8491488384
 20
7.6123913795
 30
0.0
 10
10.8666454433
 20
7.604362456
 30
0.0
 10
10.8818560898
 20
7.5987341561
 30
0.0
 10
10.8943653385
 20
7.5948622743
 30
0.0
 10
10.903917175
 20
7.5922763658
 30
0.0
 10
10.9135746853
 20
7.5900260648
 30
0.0
 10
10.9232981908
 20
7.588120409
 30
0.0
 10
10.9330413626
 20
7.586568788
 30
0.0
 10
10.942752917
 20
7.5853799802
 30
0.0
 10
10.9523786582
 20
7.5845612261
 30
0.0
 10
10.9587665866
 20
7.5842624028
 30
0.0
 10
10.9619344134
 20
7.5841776385
 30
0.0
  0
SPLINE
  5
36E
100
AcDbEntity
  8
0
100
AcDbSpline
 62
7
  6
CONTINUOUS
 70
0
 71
3
 72
21
 73
17
 74
0
 42
0.0000001
 43
0.0000001
 44
0.0000000001
 40
0.0
 40
0.0
 40
0.0
 40
0.0
 40
0.12731758
 40
0.2538000122
 40
0.3167619425
 40
0.3795355005
 40
0.4421315041
 40
0.5045621466
 40
0.5668413435
 40
0.6289845285
 40
0.6910084568
 40
0.7529310961
 40
0.8147714484
 40
0.8765493394
 40
0.9382852242
 40
1.0
 40
1.0
 40
1.0
 40
1.0
 10
10.9628500293
 20
7.5657231434
 30
0.0
 10
10.9628500293
 20
7.559224775
 30
0.0
 10
10.9622297138
 20
7.5462623006
 30
0.0
 10
10.9598870043
 20
7.5302378822
 30
0.0
 10
10.9570869284
 20
7.517668126
 30
0.0
 10
10.9545334081
 20
7.5083966745
 30
0.0
 10
10.9515293837
 20
7.4992899532
 30
0.0
 10
10.9480817044
 20
7.4903687255
 30
0.0
 10
10.9441983507
 20
7.4816536181
 30
0.0
 10
10.9398882542
 20
7.4731647137
 30
0.0
 10
10.9351613014
 20
7.4649216215
 30
0.0
 10
10.9300284092
 20
7.4569433368
 30
0.0
 10
10.9245014338
 20
7.4492482727
 30
0.0
 10
10.918593022
 20
7.4418541419
 30
0.0
 10
10.91231703
 20
7.43477824
 30
0.0
 10
10.9078968278
 20
7.4302831475
 30
0.0
 10
10.9056311984
 20
7.4280947292
 30
0.0
  0
SPLINE
  5
36F
100
AcDbEntity
  8
0
100
AcDbSpline
 62
7
  6
CONTINUOUS
 70
0
 71
3
 72
41
 73
37
 74
0
 42
0.0000001
 43
0.0000001
 44
0.0000000001
 40
0.0
 40
0.0
 40
0.0
 40
0.0
 40
0.0310750003
 40
0.046674464
 40
0.062312494
 40
0.0936974057
 40
0.1252262387
 40
0.1568876805
 40
0.1886675201
 40
0.2205491599
 40
0.2525139229
 40
0.268523588
 40
0.2845462912
 40
0.3166149974
 40
0.3487024468
 40
0.3807858411
 40
0.4128424624
 40
0.4448501254
 40
0.4767876212
 40
0.5086351486
 40
0.5403747235
 40
0.5719905626
 40
0.6034694315
 40
0.6348009518
 40
0.6659778585
 40
0.6969962
 40
0.7278554736
 40
0.7585586902
 40
0.7891123605
 40
0.8195263996
 40
0.849813947
 40
0.8799911023
 40
0.9100765789
 40
0.9400912834
 40
0.9700578297
 40
1.0
 40
1.0
 40
1.0
 40
1.0
 10
10.9628500293
 20
7.5657231434
 30
0.0
 10
10.9628500293
 20
7.5707740037
 30
0.0
 10
10.9625676978
 20
7.5783641782
 30
0.0
 10
10.9616352632
 20
7.5884508891
 30
0.0
 10
10.9603287315
 20
7.5985472565
 30
0.0
 10
10.95799969
 20
7.6111129496
 30
0.0
 10
10.9541148458
 20
7.625999294
 30
0.0
 10
10.9491578932
 20
7.6406317626
 30
0.0
 10
10.9431561386
 20
7.6549296608
 30
0.0
 10
10.9361428916
 20
7.6688142706
 30
0.0
 10
10.929490177
 20
7.6799726201
 30
0.0
 10
10.9237037926
 20
7.6886187611
 30
0.0
 10
10.9176108411
 20
7.6970725155
 30
0.0
 10
10.9094443682
 20
7.7072430496
 30
0.0
 10
10.898822104
 20
7.7187425628
 30
0.0
 10
10.8874314857
 20
7.7294791969
 30
0.0
 10
10.8753352977
 20
7.7393936229
 30
0.0
 10
10.8625998428
 20
7.7484314982
 30
0.0
 10
10.8492950184
 20
7.7565431393
 30
0.0
 10
10.8354938202
 20
7.76368396
 30
0.0
 10
10.8212719788
 20
7.7698146695
 30
0.0
 10
10.8067075407
 20
7.7749015002
 30
0.0
 10
10.7918804488
 20
7.7789163907
 30
0.0
 10
10.7768721088
 20
7.7818371427
 30
0.0
 10
10.7617649495
 20
7.7836475461
 30
0.0
 10
10.7466419755
 20
7.7843374738
 30
0.0
 10
10.7315863169
 20
7.783902944
 30
0.0
 10
10.7166807766
 20
7.7823461502
 30
0.0
 10
10.7020073773
 20
7.7796754627
 30
0.0
 10
10.687646908
 20
7.77590539
 30
0.0
 10
10.6736784845
 20
7.7710565159
 30
0.0
 10
10.660179081
 20
7.765155371
 30
0.0
 10
10.6472231983
 20
7.758234395
 30
0.0
 10
10.6348820686
 20
7.7503313967
 30
0.0
 10
10.6232246407
 20
7.7414907177
 30
0.0
 10
10.6159485661
 20
7.7350012874
 30
0.0
 10
10.6124481373
 20
7.7316201508
 30
0.0
  0
LINE
  5
370
100
AcDbEntity
  8
0
100
AcDbLine
 62
7
  6
CONTINUOUS
 10
11.1784971365
 20
10.3056209125
 11
11.1739235364
 21
10.3016320874
  0
LINE
  5
371
100
AcDbEntity
  8
0
100
AcDbLine
 62
7
  6
CONTINUOUS
 10
10.2832353196
 20
10.3016245068
 11
10.2786518404
 21
10.3056215108
  0
SPLINE
  5
372
100
AcDbEntity
  8
0
100
AcDbSpline
 62
7
  6
CONTINUOUS
 70
0
 71
3
 72
18
 73
14
 74
0
 42
0.0000001
 43
0.0000001
 44
0.0000000001
 40
0.0
 40
0.0
 40
0.0
 40
0.0
 40
0.0548620116
 40
0.1099280288
 40
0.1653995063
 40
0.2214731041
 40
0.278338737
 40
0.3361775376
 40
0.455406238
 40
0.580442112
 40
0.7123345554
 40
0.8519568421
 40
1.0
 40
1.0
 40
1.0
 40
1.0
 10
11.4785748005
 20
10.4577828389
 30
0.0
 10
11.4785747975
 20
10.4567236357
 30
0.0
 10
11.4785075724
 20
10.4546006819
 30
0.0
 10
11.4782052568
 20
10.4514197063
 30
0.0
 10
11.4777015838
 20
10.4482405683
 30
0.0
 10
11.4769967794
 20
10.4450644137
 30
0.0
 10
11.4760910265
 20
10.4418920639
 30
0.0
 10
11.474601269
 20
10.4376261111
 30
0.0
 10
11.472214764
 20
10.4322905173
 30
0.0
 10
11.4685823003
 20
10.4259891904
 30
0.0
 10
11.4641582038
 20
10.4197286533
 30
0.0
 10
11.4589491763
 20
10.4135151655
 30
0.0
 10
11.4550750108
 20
10.4095284715
 30
0.0
 10
11.4530192219
 20
10.4075427318
 30
0.0
  0
SPLINE
  5
373
100
AcDbEntity
  8
0
100
AcDbSpline
 62
7
  6
CONTINUOUS
 70
0
 71
3
 72
42
 73
38
 74
0
 42
0.0000001
 43
0.0000001
 44
0.0000000001
 40
0.0
 40
0.0
 40
0.0
 40
0.0
 40
0.0299419634
 40
0.0449235299
 40
0.0599142017
 40
0.0899287029
 40
0.1200139772
 40
0.1350926626
 40
0.1501967046
 40
0.1804840506
 40
0.2108978877
 40
0.2414513551
 40
0.2721543675
 40
0.3030134354
 40
0.3340315696
 40
0.3652082675
 40
0.3965395775
 40
0.4280182343
 40
0.4596338596
 40
0.4913732188
 40
0.5232205284
 40
0.5551578047
 40
0.5871652463
 40
0.6192216448
 40
0.6513048151
 40
0.6833920402
 40
0.7154605222
 40
0.747487836
 40
0.7794523759
 40
0.8113337934
 40
0.8431134117
 40
0.8747746318
 40
0.9063032512
 40
0.9376879208
 40
0.9533258
 40
0.9689252634
 40
1.0
 40
1.0
 40
1.0
 40
1.0
 10
11.7083520371
 20
9.8750895432
 30
0.0
 10
11.7112054614
 20
9.8778457227
 30
0.0
 10
11.7156537957
 20
9.8818129797
 30
0.0
 10
11.7218835876
 20
9.8867354818
 30
0.0
 10
11.7283117671
 20
9.8914130326
 30
0.0
 10
11.7366994844
 20
9.8967843764
 30
0.0
 10
11.7454950176
 20
9.9014827477
 30
0.0
 10
11.752749053
 20
9.9048251737
 30
0.0
 10
11.7601529355
 20
9.9078916773
 30
0.0
 10
11.769651781
 20
9.9111890353
 30
0.0
 10
11.7813576683
 20
9.9142620903
 30
0.0
 10
11.7933189799
 20
9.9164391131
 30
0.0
 10
11.8054694279
 20
9.9177080936
 30
0.0
 10
11.8177422673
 20
9.9180622594
 30
0.0
 10
11.8300699695
 20
9.9174998082
 30
0.0
 10
11.8423847786
 20
9.9160239889
 30
0.0
 10
11.8546190302
 20
9.9136430556
 30
0.0
 10
11.8667055324
 20
9.9103702222
 30
0.0
 10
11.8785779258
 20
9.906223584
 30
0.0
 10
11.8901710445
 20
9.9012260157
 30
0.0
 10
11.9014212676
 20
9.8954050443
 30
0.0
 10
11.912266864
 20
9.8887926968
 30
0.0
 10
11.9226483265
 20
9.8814253251
 30
0.0
 10
11.9325086943
 20
9.873343407
 30
0.0
 10
11.9417938614
 20
9.8645913259
 30
0.0
 10
11.9504528708
 20
9.8552171288
 30
0.0
 10
11.9584381905
 20
9.8452722656
 30
0.0
 10
11.9657059725
 20
9.8348113085
 30
0.0
 10
11.972216291
 20
9.8238916596
 30
0.0
 10
11.9779333599
 20
9.8125732263
 30
0.0
 10
11.9828257274
 20
9.8009181441
 30
0.0
 10
11.9868664576
 20
9.7889902666
 30
0.0
 10
11.9900332281
 20
9.7768554597
 30
0.0
 10
11.9919317773
 20
9.7666123671
 30
0.0
 10
11.9929968072
 20
9.7583821664
 30
0.0
 10
11.9937568928
 20
9.7501598413
 30
0.0
 10
11.9939870394
 20
9.7439725971
 30
0.0
 10
11.9939870394
 20
9.7398553245
 30
0.0
  0
SPLINE
  5
374
100
AcDbEntity
  8
0
100
AcDbSpline
 62
7
  6
CONTINUOUS
 70
0
 71
3
 72
42
 73
38
 74
0
 42
0.0000001
 43
0.0000001
 44
0.0000000001
 40
0.0
 40
0.0
 40
0.0
 40
0.0
 40
0.0299419634
 40
0.0449235299
 40
0.0599142017
 40
0.0899287029
 40
0.1200139772
 40
0.1350926626
 40
0.1501967046
 40
0.1804840506
 40
0.2108978877
 40
0.2414513551
 40
0.2721543675
 40
0.3030134354
 40
0.3340315696
 40
0.3652082675
 40
0.3965395775
 40
0.4280182343
 40
0.4596338596
 40
0.4913732188
 40
0.5232205284
 40
0.5551578047
 40
0.5871652463
 40
0.6192216448
 40
0.6513048151
 40
0.6833920402
 40
0.7154605222
 40
0.747487836
 40
0.7794523759
 40
0.8113337934
 40
0.8431134117
 40
0.8747746318
 40
0.9063032512
 40
0.9376879208
 40
0.9533258
 40
0.9689252634
 40
1.0
 40
1.0
 40
1.0
 40
1.0
 10
10.1387224763
 20
7.1460534834
 30
0.0
 10
10.1415759007
 20
7.1488096629
 30
0.0
 10
10.146024235
 20
7.1527769199
 30
0.0
 10
10.1522540269
 20
7.157699422
 30
0.0
 10
10.1586822064
 20
7.1623769728
 30
0.0
 10
10.1670699237
 20
7.1677483166
 30
0.0
 10
10.1758654568
 20
7.1724466879
 30
0.0
 10
10.1831194923
 20
7.1757891138
 30
0.0
 10
10.1905233748
 20
7.1788556175
 30
0.0
 10
10.2000222203
 20
7.1821529755
 30
0.0
 10
10.2117281076
 20
7.1852260304
 30
0.0
 10
10.2236894192
 20
7.1874030533
 30
0.0
 10
10.2358398671
 20
7.1886720338
 30
0.0
 10
10.2481127066
 20
7.1890261996
 30
0.0
 10
10.2604404088
 20
7.1884637483
 30
0.0
 10
10.2727552179
 20
7.1869879291
 30
0.0
 10
10.2849894695
 20
7.1846069958
 30
0.0
 10
10.2970759717
 20
7.1813341624
 30
0.0
 10
10.3089483651
 20
7.1771875242
 30
0.0
 10
10.3205414838
 20
7.1721899559
 30
0.0
 10
10.3317917069
 20
7.1663689845
 30
0.0
 10
10.3426373033
 20
7.159756637
 30
0.0
 10
10.3530187658
 20
7.1523892653
 30
0.0
 10
10.3628791336
 20
7.1443073472
 30
0.0
 10
10.3721643007
 20
7.1355552661
 30
0.0
 10
10.38082331
 20
7.126181069
 30
0.0
 10
10.3888086298
 20
7.1162362058
 30
0.0
 10
10.3960764118
 20
7.1057752487
 30
0.0
 10
10.4025867303
 20
7.0948555998
 30
0.0
 10
10.4083037992
 20
7.0835371665
 30
0.0
 10
10.4131961667
 20
7.0718820843
 30
0.0
 10
10.4172368968
 20
7.0599542068
 30
0.0
 10
10.4204036673
 20
7.0478193999
 30
0.0
 10
10.4223022166
 20
7.0375763073
 30
0.0
 10
10.4233672464
 20
7.0293461066
 30
0.0
 10
10.4241273321
 20
7.0211237815
 30
0.0
 10
10.4243574787
 20
7.0149365372
 30
0.0
 10
10.4243574787
 20
7.0108192646
 30
0.0
  0
SPLINE
  5
375
100
AcDbEntity
  8
0
100
AcDbSpline
 62
7
  6
CONTINUOUS
 70
0
 71
3
 72
91
 73
87
 74
0
 42
0.0000001
 43
0.0000001
 44
0.0000000001
 40
0.0
 40
0.0
 40
0.0
 40
0.0
 40
0.0027164149
 40
0.0054532017
 40
0.0082302519
 40
0.0110665199
 40
0.0139797039
 40
0.0169859829
 40
0.0200999141
 40
0.0233344008
 40
0.0267007145
 40
0.0302086362
 40
0.0338665065
 40
0.0376814358
 40
0.0416593677
 40
0.0458052497
 40
0.0501231396
 40
0.0546162795
 40
0.059287253
 40
0.0641379749
 40
0.0691698569
 40
0.0743837851
 40
0.0797802236
 40
0.0853592475
 40
0.091120549
 40
0.0970635401
 40
0.1031872872
 40
0.1094906342
 40
0.122629771
 40
0.1364673248
 40
0.150986028
 40
0.1661658166
 40
0.1819841497
 40
0.1984162706
 40
0.2154354241
 40
0.2330130434
 40
0.251118914
 40
0.2697213196
 40
0.2887871741
 40
0.3082821495
 40
0.3281707942
 40
0.3484166458
 40
0.3689823383
 40
0.3898297074
 40
0.4109198931
 40
0.4322134396
 40
0.4536703979
 40
0.4752504252
 40
0.496912883
 40
0.5186169358
 40
0.5403216477
 40
0.5619860811
 40
0.5835693946
 40
0.6050309417
 40
0.6263303693
 40
0.647427715
 40
0.6682835069
 40
0.6888588628
 40
0.7091155924
 40
0.7290163019
 40
0.7485244988
 40
0.7676046989
 40
0.7862225381
 40
0.8043448897
 40
0.8219399883
 40
0.8389775652
 40
0.8554289983
 40
0.8712674731
 40
0.8864681675
 40
0.9010084679
 40
0.9148682273
 40
0.928030078
 40
0.9343449249
 40
0.9404802778
 40
0.9464349222
 40
0.9522079436
 40
0.9577987067
 40
0.9632068911
 40
0.9684325654
 40
0.9734761401
 40
0.9783384911
 40
0.9830209352
 40
0.9875254368
 40
0.9918546053
 40
0.9960115672
 40
1.0
 40
1.0
 40
1.0
 40
1.0
 10
12.4080705532
 20
8.240150492
 30
0.0
 10
12.4069693901
 20
8.2402268529
 30
0.0
 10
12.4047644448
 20
8.2404798134
 30
0.0
 10
12.4014850865
 20
8.2411567027
 30
0.0
 10
12.3982305298
 20
8.2421310267
 30
0.0
 10
12.3950030539
 20
8.2434017245
 30
0.0
 10
12.3918043698
 20
8.2449677726
 30
0.0
 10
12.3886360837
 20
8.2468278716
 30
0.0
 10
12.3854996677
 20
8.2489807272
 30
0.0
 10
12.3823965317
 20
8.2514249863
 30
0.0
 10
12.3793279734
 20
8.254159179
 30
0.0
 10
12.3762953785
 20
8.2571818708
 30
0.0
 10
12.3733000023
 20
8.2604914245
 30
0.0
 10
12.3703432336
 20
8.2640862099
 30
0.0
 10
12.3674263726
 20
8.267964405
 30
0.0
 10
12.3645507772
 20
8.2721241037
 30
0.0
 10
12.3617178158
 20
8.2765632648
 30
0.0
 10
12.3589287955
 20
8.2812796844
 30
0.0
 10
12.3561851209
 20
8.2862710649
 30
0.0
 10
12.3534880658
 20
8.2915349166
 30
0.0
 10
12.3508390079
 20
8.297068656
 30
0.0
 10
12.3482392213
 20
8.3028695268
 30
0.0
 10
12.3456900063
 20
8.3089346517
 30
0.0
 10
12.3431926494
 20
8.3152610147
 30
0.0
 10
12.3407483603
 20
8.3218454555
 30
0.0
 10
12.3383584195
 20
8.3286846949
 30
0.0
 10
12.3360239507
 20
8.3357753153
 30
0.0
 10
12.3329442984
 20
8.3456975621
 30
0.0
 10
12.329252772
 20
8.3587096546
 30
0.0
 10
12.325121319
 20
8.3750593016
 30
0.0
 10
12.3212375694
 20
8.3923203873
 30
0.0
 10
12.3176094027
 20
8.4104583071
 30
0.0
 10
12.3142442006
 20
8.4294368348
 30
0.0
 10
12.3111488103
 20
8.4492179495
 30
0.0
 10
12.3083295326
 20
8.4697619978
 30
0.0
 10
12.3057921066
 20
8.4910277604
 30
0.0
 10
12.3035416985
 20
8.5129725464
 30
0.0
 10
12.3015828914
 20
8.5355522805
 30
0.0
 10
12.2999196724
 20
8.5587215951
 30
0.0
 10
12.2985554288
 20
8.5824339255
 30
0.0
 10
12.2974929414
 20
8.606641607
 30
0.0
 10
12.2967343797
 20
8.6312959725
 30
0.0
 10
12.296281298
 20
8.6563474519
 30
0.0
 10
12.2961346323
 20
8.6817456715
 30
0.0
 10
12.2962946991
 20
8.7074395563
 30
0.0
 10
12.2967611917
 20
8.7333774328
 30
0.0
 10
12.2975331839
 20
8.7595071347
 30
0.0
 10
12.2986091326
 20
8.785776109
 30
0.0
 10
12.2999868807
 20
8.8121315219
 30
0.0
 10
12.3016636618
 20
8.838520365
 30
0.0
 10
12.3036361055
 20
8.8648895619
 30
0.0
 10
12.305900245
 20
8.8911860758
 30
0.0
 10
12.3084515209
 20
8.9173570166
 30
0.0
 10
12.3112847941
 20
8.9433497486
 30
0.0
 10
12.314394356
 20
8.9691119961
 30
0.0
 10
12.3177739399
 20
8.9945919488
 30
0.0
 10
12.3214167333
 20
9.0197383663
 30
0.0
 10
12.3253153916
 20
9.0445006812
 30
0.0
 10
12.3294620531
 20
9.0688291029
 30
0.0
 10
12.3338483507
 20
9.0926747194
 30
0.0
 10
12.3384654323
 20
9.1159895971
 30
0.0
 10
12.3433039781
 20
9.1387268771
 30
0.0
 10
12.348354219
 20
9.1608408708
 30
0.0
 10
12.3536059564
 20
9.1822871535
 30
0.0
 10
12.3590485819
 20
9.2030226566
 30
0.0
 10
12.3646711004
 20
9.2230057593
 30
0.0
 10
12.3704621479
 20
9.2421963779
 30
0.0
 10
12.37641002
 20
9.2605560567
 30
0.0
 10
12.3825026966
 20
9.2780480301
 30
0.0
 10
12.3887278721
 20
9.2946373822
 30
0.0
 10
12.3950729789
 20
9.310290864
 30
0.0
 10
12.4005223984
 20
9.3226951422
 30
0.0
 10
12.404940092
 20
9.3321188561
 30
0.0
 10
12.4082295959
 20
9.3388357637
 30
0.0
 10
12.4115394872
 20
9.3452962396
 30
0.0
 10
12.4148681103
 20
9.3514970671
 30
0.0
 10
12.4182137906
 20
9.3574351511
 30
0.0
 10
12.421574884
 20
9.3631075241
 30
0.0
 10
12.4249496766
 20
9.368511383
 30
0.0
 10
12.4283365452
 20
9.3736440131
 30
0.0
 10
12.4317337449
 20
9.3785028857
 30
0.0
 10
12.4351396474
 20
9.3830855835
 30
0.0
 10
12.4385525984
 20
9.387389878
 30
0.0
 10
12.4419710014
 20
9.391413682
 30
0.0
 10
12.4453930474
 20
9.3951548117
 30
0.0
 10
12.4477231377
 20
9.3975071227
 30
0.0
 10
12.4488888253
 20
9.3986330905
 30
0.0
  0
SPLINE
  5
376
100
AcDbEntity
  8
0
100
AcDbSpline
 62
7
  6
CONTINUOUS
 70
0
 71
3
 72
77
 73
73
 74
0
 42
0.0000001
 43
0.0000001
 44
0.0000000001
 40
0.0
 40
0.0
 40
0.0
 40
0.0
 40
0.0027966513
 40
0.0056682062
 40
0.0116913315
 40
0.0148721623
 40
0.0181792818
 40
0.0216219179
 40
0.0252079687
 40
0.0289442105
 40
0.0328363378
 40
0.0368890969
 40
0.0411064475
 40
0.0454915495
 40
0.0500469435
 40
0.0547745973
 40
0.0596759116
 40
0.0647518849
 40
0.0700030622
 40
0.0810308241
 40
0.0927574673
 40
0.1051760739
 40
0.1182759237
 40
0.1320430385
 40
0.1464606316
 40
0.1615094389
 40
0.1771679639
 40
0.1934127038
 40
0.2102183649
 40
0.2275580233
 40
0.2454032481
 40
0.2637242323
 40
0.2824899344
 40
0.3016681865
 40
0.3212257821
 40
0.3411285772
 40
0.3613416047
 40
0.3818291639
 40
0.4234812149
 40
0.4657884926
 40
0.5084479976
 40
0.5511535037
 40
0.5935983647
 40
0.6354783227
 40
0.6764942912
 40
0.6965873266
 40
0.7163560285
 40
0.7357657446
 40
0.7547827071
 40
0.7733741139
 40
0.7915082239
 40
0.809154472
 40
0.8262836038
 40
0.8428677769
 40
0.8588806876
 40
0.8742977326
 40
0.8890962082
 40
0.9032554846
 40
0.9167572376
 40
0.9295857533
 40
0.9417283263
 40
0.9531756826
 40
0.9586371322
 40
0.9639232226
 40
0.9690340348
 40
0.9739700602
 40
0.9787321474
 40
0.9833216356
 40
0.987740481
 40
0.9919911356
 40
0.9960764917
 40
1.0
 40
1.0
 40
1.0
 40
1.0
 10
12.3830383884
 20
8.4283036517
 30
0.0
 10
12.3823091644
 20
8.4285614758
 30
0.0
 10
12.3808521546
 20
8.429145469
 30
0.0
 10
12.3779514233
 20
8.4305796937
 30
0.0
 10
12.3751314093
 20
8.4323925664
 30
0.0
 10
12.3724092907
 20
8.4345306368
 30
0.0
 10
12.3703525093
 20
8.4363532804
 30
0.0
 10
12.3683193846
 20
8.4383644647
 30
0.0
 10
12.3663104264
 20
8.4405633189
 30
0.0
 10
12.3643266142
 20
8.4429487684
 30
0.0
 10
12.3623687684
 20
8.4455196775
 30
0.0
 10
12.3604377348
 20
8.4482748186
 30
0.0
 10
12.3585344238
 20
8.4512129275
 30
0.0
 10
12.3566596554
 20
8.4543325991
 30
0.0
 10
12.3548143063
 20
8.4576323786
 30
0.0
 10
12.3529992513
 20
8.4611107225
 30
0.0
 10
12.3512153016
 20
8.4647659726
 30
0.0
 10
12.3494633137
 20
8.468596426
 30
0.0
 10
12.3471329534
 20
8.4740237859
 30
0.0
 10
12.3443147088
 20
8.4812408891
 30
0.0
 10
12.3411260722
 20
8.4904332512
 30
0.0
 10
12.3380838108
 20
8.5002763924
 30
0.0
 10
12.3351937589
 20
8.510751617
 30
0.0
 10
12.3324614712
 20
8.5218391645
 30
0.0
 10
12.3298922265
 20
8.5335179848
 30
0.0
 10
12.3274910029
 20
8.5457658744
 30
0.0
 10
12.32526245
 20
8.558559494
 30
0.0
 10
12.3232108771
 20
8.5718744295
 30
0.0
 10
12.3213402593
 20
8.585685252
 30
0.0
 10
12.3196542278
 20
8.5999655709
 30
0.0
 10
12.3181560501
 20
8.6146880794
 30
0.0
 10
12.3168486219
 20
8.6298246098
 30
0.0
 10
12.3157344771
 20
8.6453461972
 30
0.0
 10
12.3148157823
 20
8.6612231351
 30
0.0
 10
12.3140943203
 20
8.6774250307
 30
0.0
 10
12.3135714909
 20
8.6939208535
 30
0.0
 10
12.3132482932
 20
8.7106790414
 30
0.0
 10
12.3130835879
 20
8.7334548877
 30
0.0
 10
12.3133859597
 20
8.7623426296
 30
0.0
 10
12.3145421497
 20
8.7973448809
 30
0.0
 10
12.3164851861
 20
8.832604121
 30
0.0
 10
12.3192001921
 20
8.8678504473
 30
0.0
 10
12.3226663966
 20
8.9028142891
 30
0.0
 10
12.326857141
 20
8.9372280203
 30
0.0
 10
12.3309537197
 20
8.9654181724
 30
0.0
 10
12.3345765868
 20
8.9874913951
 30
0.0
 10
12.3374346569
 20
9.0036332901
 30
0.0
 10
12.3404466329
 20
9.0194443227
 30
0.0
 10
12.343606745
 20
9.0348942498
 30
0.0
 10
12.3469089111
 20
9.049953496
 30
0.0
 10
12.3503467868
 20
9.064593242
 30
0.0
 10
12.353913766
 20
9.0787854784
 30
0.0
 10
12.3576029797
 20
9.0925030691
 30
0.0
 10
12.3614073285
 20
9.1057197976
 30
0.0
 10
12.3653194945
 20
9.1184104142
 30
0.0
 10
12.3693319566
 20
9.1305506956
 30
0.0
 10
12.3734369865
 20
9.1421175031
 30
0.0
 10
12.377626689
 20
9.1530888296
 30
0.0
 10
12.3818930158
 20
9.163443821
 30
0.0
 10
12.3862278009
 20
9.1731629086
 30
0.0
 10
12.3906227333
 20
9.1822276135
 30
0.0
 10
12.3943850331
 20
9.1893294086
 30
0.0
 10
12.3974244755
 20
9.1946629102
 30
0.0
 10
12.3996780561
 20
9.1984259785
 30
0.0
 10
12.4019404025
 20
9.2020131313
 30
0.0
 10
12.4042104197
 20
9.2054226864
 30
0.0
 10
12.4064870367
 20
9.2086530245
 30
0.0
 10
12.4087692246
 20
9.2117026249
 30
0.0
 10
12.4110559142
 20
9.2145701023
 30
0.0
 10
12.4133461082
 20
9.2172540882
 30
0.0
 10
12.4156385848
 20
9.2197531951
 30
0.0
 10
12.417198725
 20
9.2213265147
 30
0.0
 10
12.4179791963
 20
9.2220803921
 30
0.0
  0
SPLINE
  5
377
100
AcDbEntity
  8
0
100
AcDbSpline
 62
7
  6
CONTINUOUS
 70
0
 71
3
 72
15
 73
11
 74
0
 42
0.0000001
 43
0.0000001
 44
0.0000000001
 40
0.0
 40
0.0
 40
0.0
 40
0.0
 40
0.108441033
 40
0.2203202389
 40
0.3363917414
 40
0.457322038
 40
0.5836915292
 40
0.7159988585
 40
0.8546582553
 40
1.0
 40
1.0
 40
1.0
 40
1.0
 10
12.4389434368
 20
9.2344265049
 30
0.0
 10
12.4380704427
 20
9.2342483047
 30
0.0
 10
12.4363131047
 20
9.2338014651
 30
0.0
 10
12.4337025628
 20
9.2328837678
 30
0.0
 10
12.4310835459
 20
9.231710892
 30
0.0
 10
12.4284579308
 20
9.2302840167
 30
0.0
 10
12.4258270371
 20
9.2286043495
 30
0.0
 10
12.4231922819
 20
9.2266731187
 30
0.0
 10
12.4205552709
 20
9.2244918086
 30
0.0
 10
12.418838121
 20
9.2229100498
 30
0.0
 10
12.4179791963
 20
9.2220803921
 30
0.0
  0
SPLINE
  5
378
100
AcDbEntity
  8
0
100
AcDbSpline
 62
7
  6
CONTINUOUS
 70
0
 71
3
 72
83
 73
79
 74
0
 42
0.0000001
 43
0.0000001
 44
0.0000000001
 40
0.0
 40
0.0
 40
0.0
 40
0.0
 40
0.0040523069
 40
0.0082800599
 40
0.0126871261
 40
0.0172767319
 40
0.0220515677
 40
0.0270137131
 40
0.0321645083
 40
0.0375047909
 40
0.0430349425
 40
0.0487549062
 40
0.0607618115
 40
0.0735189169
 40
0.0870143566
 40
0.1012323748
 40
0.1161538487
 40
0.131756692
 40
0.1480161906
 40
0.1649052945
 40
0.1823948475
 40
0.2004537836
 40
0.2190492872
 40
0.2381469631
 40
0.2577109898
 40
0.2777042525
 40
0.2980884668
 40
0.3188242938
 40
0.3398714708
 40
0.3611889293
 40
0.3827349064
 40
0.4263417895
 40
0.4703490787
 40
0.5144089205
 40
0.5581729284
 40
0.6012956946
 40
0.6225107538
 40
0.6434391275
 40
0.6640400556
 40
0.6842736297
 40
0.704100911
 40
0.7234840642
 40
0.7423864744
 40
0.7607728729
 40
0.7786094736
 40
0.7958641303
 40
0.8125065146
 40
0.8285082843
 40
0.8438432909
 40
0.858487825
 40
0.8724209283
 40
0.8856247623
 40
0.8980850489
 40
0.9040332984
 40
0.9097922642
 40
0.9153614334
 40
0.9207407263
 40
0.9259304076
 40
0.9309312402
 40
0.9357444958
 40
0.9403719786
 40
0.9448162041
 40
0.9490803591
 40
0.9531684905
 40
0.9570855949
 40
0.9608376911
 40
0.964432062
 40
0.9678772938
 40
0.9711834911
 40
0.9774235074
 40
0.9803901161
 40
0.9832752966
 40
0.9860977836
 40
0.9888777229
 40
0.9916362715
 40
0.9943951316
 40
0.9971759929
 40
1.0
 40
1.0
 40
1.0
 40
1.0
 10
12.4179791963
 20
8.4396804265
 30
0.0
 10
12.4187990671
 20
8.4404723609
 30
0.0
 10
12.4204378667
 20
8.4421285887
 30
0.0
 10
12.4228434335
 20
8.4447659524
 30
0.0
 10
12.4252463385
 20
8.4476067515
 30
0.0
 10
12.4276452027
 20
8.4506493708
 30
0.0
 10
12.4300388742
 20
8.4538922335
 30
0.0
 10
12.4324261136
 20
8.4573337128
 30
0.0
 10
12.4348057458
 20
8.4609720126
 30
0.0
 10
12.4371764968
 20
8.4648052462
 30
0.0
 10
12.4395371406
 20
8.4688314167
 30
0.0
 10
12.4427211618
 20
8.474546865
 30
0.0
 10
12.4466586013
 20
8.4821670723
 30
0.0
 10
12.4512504532
 20
8.4919026557
 30
0.0
 10
12.4557729456
 20
8.5023518761
 30
0.0
 10
12.4602165317
 20
8.5134928549
 30
0.0
 10
12.4645718183
 20
8.5253024089
 30
0.0
 10
12.4688295823
 20
8.5377558152
 30
0.0
 10
12.4729808053
 20
8.5508269629
 30
0.0
 10
12.4770166864
 20
8.5644884018
 30
0.0
 10
12.4809286686
 20
8.5787114164
 30
0.0
 10
12.484708454
 20
8.5934660853
 30
0.0
 10
12.4883480347
 20
8.6087213443
 30
0.0
 10
12.491839702
 20
8.6244450581
 30
0.0
 10
12.4951760595
 20
8.6406040966
 30
0.0
 10
12.4983500404
 20
8.657164406
 30
0.0
 10
12.5013549205
 20
8.6740910778
 30
0.0
 10
12.504184346
 20
8.6913484239
 30
0.0
 10
12.5068323257
 20
8.7089000452
 30
0.0
 10
12.509293282
 20
8.7267089556
 30
0.0
 10
12.512330171
 20
8.7508427028
 30
0.0
 10
12.5156181823
 20
8.7813753579
 30
0.0
 10
12.518731415
 20
8.818286568
 30
0.0
 10
12.521001349
 20
8.8553036453
 30
0.0
 10
12.5224088996
 20
8.8921144472
 30
0.0
 10
12.5228560437
 20
8.9225227642
 30
0.0
 10
12.5227665369
 20
8.9465079855
 30
0.0
 10
12.5224790561
 20
8.9641557521
 30
0.0
 10
12.5219715716
 20
8.98152236
 30
0.0
 10
12.5212451511
 20
8.9985712157
 30
0.0
 10
12.5203013527
 20
9.0152663627
 30
0.0
 10
12.5191421988
 20
9.0315726086
 30
0.0
 10
12.5177701702
 20
9.0474555873
 30
0.0
 10
12.5161881988
 20
9.0628818319
 30
0.0
 10
12.5143996612
 20
9.0778188464
 30
0.0
 10
12.5124083742
 20
9.0922351818
 30
0.0
 10
12.5102185972
 20
9.1061005097
 30
0.0
 10
12.5078350087
 20
9.119385686
 30
0.0
 10
12.505262699
 20
9.1320628193
 30
0.0
 10
12.5025071524
 20
9.1441053195
 30
0.0
 10
12.4995742438
 20
9.1554880457
 30
0.0
 10
12.4964702065
 20
9.1661871231
 30
0.0
 10
12.4937052878
 20
9.1746409689
 30
0.0
 10
12.491405362
 20
9.1810386894
 30
0.0
 10
12.4896684943
 20
9.1855778477
 30
0.0
 10
12.4878938526
 20
9.1899300322
 30
0.0
 10
12.4860823923
 20
9.1940929911
 30
0.0
 10
12.4842350242
 20
9.1980645422
 30
0.0
 10
12.4823527188
 20
9.2018426233
 30
0.0
 10
12.4804364672
 20
9.2054252831
 30
0.0
 10
12.4784872034
 20
9.2088106461
 30
0.0
 10
12.4765059693
 20
9.2119969883
 30
0.0
 10
12.4744937194
 20
9.2149826491
 30
0.0
 10
12.4724514505
 20
9.2177660905
 30
0.0
 10
12.47038019
 20
9.2203458903
 30
0.0
 10
12.4682808399
 20
9.2227206812
 30
0.0
 10
12.4661545275
 20
9.2248891904
 30
0.0
 10
12.464001855
 20
9.2268504187
 30
0.0
 10
12.4611539125
 20
9.2291426203
 30
0.0
 10
12.4581974862
 20
9.2310793083
 30
0.0
 10
12.4551509072
 20
9.2325987161
 30
0.0
 10
12.4528829998
 20
9.2335068708
 30
0.0
 10
12.4505955925
 20
9.2342015163
 30
0.0
 10
12.448290031
 20
9.2346820969
 30
0.0
 10
12.4459679267
 20
9.234947987
 30
0.0
 10
12.4436309026
 20
9.2349990131
 30
0.0
 10
12.441280863
 20
9.2348352117
 30
0.0
 10
12.4397217632
 20
9.234585381
 30
0.0
 10
12.4389434368
 20
9.2344265049
 30
0.0
  0
SPLINE
  5
379
100
AcDbEntity
  8
0
100
AcDbSpline
 62
7
  6
CONTINUOUS
 70
0
 71
3
 72
82
 73
78
 74
0
 42
0.0000001
 43
0.0000001
 44
0.0000000001
 40
0.0
 40
0.0
 40
0.0
 40
0.0
 40
0.0028079978
 40
0.0056356818
 40
0.008502288
 40
0.0114262137
 40
0.0144246915
 40
0.0175135456
 40
0.0207071116
 40
0.0240181329
 40
0.0274578407
 40
0.0310360169
 40
0.0347610554
 40
0.0386401641
 40
0.0426793911
 40
0.0468838046
 40
0.0512576023
 40
0.0558041427
 40
0.0605261407
 40
0.0654256423
 40
0.0705041474
 40
0.0757626885
 40
0.0812017941
 40
0.0868216501
 40
0.0986018514
 40
0.1110985366
 40
0.1243017998
 40
0.1381979568
 40
0.1527700681
 40
0.1679983437
 40
0.1838604597
 40
0.2003318152
 40
0.2173857749
 40
0.2349938652
 40
0.2531259409
 40
0.2717503259
 40
0.2908339515
 40
0.3103424976
 40
0.3302405123
 40
0.3504915237
 40
0.3710581416
 40
0.3919021732
 40
0.4129847321
 40
0.455706257
 40
0.49890236
 40
0.5422472303
 40
0.5854136043
 40
0.6280759645
 40
0.6491180759
 40
0.6699145381
 40
0.6904265863
 40
0.7106161713
 40
0.7304460619
 40
0.7498799532
 40
0.76888259
 40
0.7874198781
 40
0.805458999
 40
0.822968538
 40
0.8399186299
 40
0.8562811274
 40
0.8720297604
 40
0.8871403291
 40
0.9015909348
 40
0.9153622713
 40
0.9284379678
 40
0.9408049977
 40
0.9524542077
 40
0.958008328
 40
0.9633817425
 40
0.9685747309
 40
0.9735880096
 40
0.978422747
 40
0.9830806142
 40
0.9875640035
 40
0.9918759102
 40
0.9960198585
 40
1.0
 40
1.0
 40
1.0
 40
1.0
 10
11.1590747973
 20
10.3027520407
 30
0.0
 10
11.1590747995
 20
10.3035883605
 30
0.0
 10
11.1590015792
 20
10.3052677686
 30
0.0
 10
11.1586724891
 20
10.3077815509
 30
0.0
 10
11.1581244541
 20
10.3102922593
 30
0.0
 10
11.1573579834
 20
10.3127981263
 30
0.0
 10
11.1563737598
 20
10.3152978055
 30
0.0
 10
11.1551726465
 20
10.3177900125
 30
0.0
 10
11.1537554379
 20
10.3202735
 30
0.0
 10
11.1521231258
 20
10.3227471481
 30
0.0
 10
11.1502766679
 20
10.3252098281
 30
0.0
 10
11.1482170807
 20
10.3276604124
 30
0.0
 10
11.1459455117
 20
10.3300978428
 30
0.0
 10
11.1434630854
 20
10.3325209554
 30
0.0
 10
11.1407710962
 20
10.3349286663
 30
0.0
 10
11.1378708863
 20
10.3373198416
 30
0.0
 10
11.134763883
 20
10.3396933135
 30
0.0
 10
11.1314516624
 20
10.3420479891
 30
0.0
 10
11.1279358419
 20
10.3443826739
 30
0.0
 10
11.1242181884
 20
10.346696249
 30
0.0
 10
11.1203005546
 20
10.3489875781
 30
0.0
 10
11.116184883
 20
10.3512554813
 30
0.0
 10
11.1118732459
 20
10.3534989001
 30
0.0
 10
11.1057697873
 20
10.3565031511
 30
0.0
 10
11.0976573114
 20
10.3601801171
 30
0.0
 10
11.0873247102
 20
10.3644104488
 30
0.0
 10
11.0762675612
 20
10.3685168663
 30
0.0
 10
11.0645080843
 20
10.3724910513
 30
0.0
 10
11.0520697574
 20
10.3763249469
 30
0.0
 10
11.0389775522
 20
10.3800107538
 30
0.0
 10
11.0252577917
 20
10.3835409652
 30
0.0
 10
11.0109381156
 20
10.3869083972
 30
0.0
 10
10.9960474025
 20
10.3901061908
 30
0.0
 10
10.9806157032
 20
10.3931278316
 30
0.0
 10
10.964674178
 20
10.3959671607
 30
0.0
 10
10.9482550362
 20
10.3986183952
 30
0.0
 10
10.9313914674
 20
10.4010761422
 30
0.0
 10
10.914117567
 20
10.4033353994
 30
0.0
 10
10.8964682648
 20
10.405391568
 30
0.0
 10
10.8784792535
 20
10.4072404608
 30
0.0
 10
10.8601869306
 20
10.4088783131
 30
0.0
 10
10.8416282734
 20
10.41030182
 30
0.0
 10
10.8164683756
 20
10.4119171302
 30
0.0
 10
10.7846300392
 20
10.4133759506
 30
0.0
 10
10.7461372438
 20
10.4142306584
 30
0.0
 10
10.7075023593
 20
10.4141899137
 30
0.0
 10
10.6690379293
 20
10.4132540266
 30
0.0
 10
10.6372413017
 20
10.4117278503
 30
0.0
 10
10.6121288217
 20
10.4100590801
 30
0.0
 10
10.5936158095
 20
10.408596365
 30
0.0
 10
10.5753759032
 20
10.4069198781
 30
0.0
 10
10.5574459703
 20
10.4050330064
 30
0.0
 10
10.5398622887
 20
10.4029395931
 30
0.0
 10
10.5226604215
 20
10.400643891
 30
0.0
 10
10.5058751529
 20
10.398150576
 30
0.0
 10
10.4895404141
 20
10.3954647263
 30
0.0
 10
10.4736892184
 20
10.3925918104
 30
0.0
 10
10.4583535933
 20
10.3895376767
 30
0.0
 10
10.4435645081
 20
10.3863085415
 30
0.0
 10
10.4293518033
 20
10.3829109887
 30
0.0
 10
10.4157441296
 20
10.3793519407
 30
0.0
 10
10.4027688912
 20
10.3756386458
 30
0.0
 10
10.3904521741
 20
10.3717786567
 30
0.0
 10
10.3788187019
 20
10.3677798186
 30
0.0
 10
10.3678916767
 20
10.3636502413
 30
0.0
 10
10.3576930428
 20
10.3593982798
 30
0.0
 10
10.3496954388
 20
10.3557036803
 30
0.0
 10
10.3436859219
 20
10.3526859979
 30
0.0
 10
10.3394452943
 20
10.3504335483
 30
0.0
 10
10.3354014059
 20
10.3481569832
 30
0.0
 10
10.3315562748
 20
10.3458574297
 30
0.0
 10
10.3279118164
 20
10.3435360674
 30
0.0
 10
10.3244698542
 20
10.3411939834
 30
0.0
 10
10.3212320475
 20
10.3388323401
 30
0.0
 10
10.3182000069
 20
10.336452214
 30
0.0
 10
10.3153753968
 20
10.3340549198
 30
0.0
 10
10.3135963388
 20
10.332413595
 30
0.0
 10
10.3127437164
 20
10.3315900249
 30
0.0
  0
SPLINE
  5
37A
100
AcDbEntity
  8
0
100
AcDbSpline
 62
7
  6
CONTINUOUS
 70
0
 71
3
 72
49
 73
45
 74
0
 42
0.0000001
 43
0.0000001
 44
0.0000000001
 40
0.0
 40
0.0
 40
0.0
 40
0.0
 40
0.010308701
 40
0.0210704948
 40
0.0322802816
 40
0.0439317491
 40
0.0560174196
 40
0.0685288851
 40
0.0814567312
 40
0.0947907967
 40
0.1085200622
 40
0.1226328583
 40
0.1519582919
 40
0.1826617609
 40
0.214628543
 40
0.2477363904
 40
0.281856521
 40
0.3168545315
 40
0.352591258
 40
0.3889236026
 40
0.4257053384
 40
0.462787901
 40
0.5000211718
 40
0.5372542559
 40
0.574336259
 40
0.6111170648
 40
0.6474481136
 40
0.6831831853
 40
0.7181791911
 40
0.7522969783
 40
0.7854021574
 40
0.8173659621
 40
0.8480661607
 40
0.8773880483
 40
0.8914989667
 40
0.9052263114
 40
0.9185583843
 40
0.9314841986
 40
0.9439935756
 40
0.9560771155
 40
0.9677264182
 40
0.9789339944
 40
0.9896935637
 40
1.0
 40
1.0
 40
1.0
 40
1.0
 10
12.3355857871
 20
8.5096630414
 30
0.0
 10
12.3366418508
 20
8.5116811504
 30
0.0
 10
12.338741427
 20
8.5158371424
 30
0.0
 10
12.3417935794
 20
8.5222842218
 30
0.0
 10
12.3448134614
 20
8.5290725243
 30
0.0
 10
12.347797754
 20
8.5361947107
 30
0.0
 10
12.3507432763
 20
8.5436431473
 30
0.0
 10
12.3536467918
 20
8.5514098293
 30
0.0
 10
12.3565052068
 20
8.5594863914
 30
0.0
 10
12.3593153717
 20
8.5678641383
 30
0.0
 10
12.3620743044
 20
8.5765340431
 30
0.0
 10
12.3657272467
 20
8.5886259533
 30
0.0
 10
12.3701329614
 20
8.604406354
 30
0.0
 10
12.3751045001
 20
8.6241175563
 30
0.0
 10
12.3798043085
 20
8.6447532361
 30
0.0
 10
12.3842119277
 20
8.6662243262
 30
0.0
 10
12.3883081585
 20
8.6884382653
 30
0.0
 10
12.3920751799
 20
8.7112991804
 30
0.0
 10
12.395496614
 20
8.7347083815
 30
0.0
 10
12.3985575977
 20
8.7585647791
 30
0.0
 10
12.4012448446
 20
8.7827653327
 30
0.0
 10
12.403546701
 20
8.807205501
 30
0.0
 10
12.4054531959
 20
8.8317796978
 30
0.0
 10
12.406956083
 20
8.8563817528
 30
0.0
 10
12.4080488777
 20
8.8809053737
 30
0.0
 10
12.4087268859
 20
8.9052446102
 30
0.0
 10
12.4089872236
 20
8.9292943152
 30
0.0
 10
12.4088288315
 20
8.9529506046
 30
0.0
 10
12.4082524811
 20
8.9761113097
 30
0.0
 10
12.4072607755
 20
8.9986764308
 30
0.0
 10
12.4058581353
 20
9.0205485604
 30
0.0
 10
12.404050805
 20
9.0416333814
 30
0.0
 10
12.4018467542
 20
9.061839863
 30
0.0
 10
12.3996606877
 20
9.0780753047
 30
0.0
 10
12.3977111984
 20
9.0905539578
 30
0.0
 10
12.3961749933
 20
9.0995203257
 30
0.0
 10
12.394547711
 20
9.1082043576
 30
0.0
 10
12.3928310882
 20
9.116596703
 30
0.0
 10
12.3910270229
 20
9.1246883161
 30
0.0
 10
12.3891374356
 20
9.1324704866
 30
0.0
 10
12.38716443
 20
9.1399348417
 30
0.0
 10
12.3851100861
 20
9.1470733813
 30
0.0
 10
12.3829767085
 20
9.1538783836
 30
0.0
 10
12.3814706407
 20
9.1582832693
 30
0.0
 10
12.3807031293
 20
9.1604272566
 30
0.0
  0
SPLINE
  5
37B
100
AcDbEntity
  8
0
100
AcDbSpline
 62
7
  6
CONTINUOUS
 70
0
 71
3
 72
39
 73
35
 74
0
 42
0.0000001
 43
0.0000001
 44
0.0000000001
 40
0.0
 40
0.0
 40
0.0
 40
0.0
 40
0.0248516718
 40
0.0508785803
 40
0.0780238769
 40
0.1062259306
 40
0.1354188324
 40
0.1655328354
 40
0.19649475
 40
0.228228317
 40
0.2606545532
 40
0.2936920778
 40
0.327257428
 40
0.3612653661
 40
0.395629181
 40
0.4302609844
 40
0.4650720094
 40
0.4999729049
 40
0.5348740281
 40
0.5696857356
 40
0.6043186744
 40
0.6386840743
 40
0.6726940412
 40
0.7062618569
 40
0.7393022754
 40
0.7717318243
 40
0.8034691116
 40
0.8344351414
 40
0.8645536407
 40
0.8937514031
 40
0.9219586614
 40
0.9491094861
 40
0.9751422236
 40
1.0
 40
1.0
 40
1.0
 40
1.0
 10
12.3220776658
 20
8.5805285442
 30
0.0
 10
12.3235069931
 20
8.5845682284
 30
0.0
 10
12.3263186967
 20
8.5928795049
 30
0.0
 10
12.3303161962
 20
8.6057264892
 30
0.0
 10
12.3341830108
 20
8.6192154005
 30
0.0
 10
12.3379084452
 20
8.6333093086
 30
0.0
 10
12.3414822418
 20
8.647969765
 30
0.0
 10
12.3448945512
 20
8.6631566925
 30
0.0
 10
12.3481359787
 20
8.6788285639
 30
0.0
 10
12.3511976022
 20
8.694942504
 30
0.0
 10
12.3540709979
 20
8.7114544168
 30
0.0
 10
12.3567482629
 20
8.7283191069
 30
0.0
 10
12.3592220365
 20
8.7454904057
 30
0.0
 10
12.3614855197
 20
8.762921299
 30
0.0
 10
12.3635324935
 20
8.7805640565
 30
0.0
 10
12.3653573374
 20
8.7983703634
 30
0.0
 10
12.3669550447
 20
8.816291454
 30
0.0
 10
12.3683212341
 20
8.8342782474
 30
0.0
 10
12.3694521622
 20
8.852281482
 30
0.0
 10
12.3703447334
 20
8.8702518512
 30
0.0
 10
12.3709965088
 20
8.8881401381
 30
0.0
 10
12.3714057129
 20
8.9058973516
 30
0.0
 10
12.3715712387
 20
8.9234748614
 30
0.0
 10
12.3714926539
 20
8.9408245323
 30
0.0
 10
12.3711701993
 20
8.9578988583
 30
0.0
 10
12.370604789
 20
8.9746510924
 30
0.0
 10
12.3697980084
 20
8.9910353765
 30
0.0
 10
12.3687521102
 20
9.0070068685
 30
0.0
 10
12.3674700098
 20
9.0225218661
 30
0.0
 10
12.3659552762
 20
9.0375379359
 30
0.0
 10
12.3642121287
 20
9.0520140171
 30
0.0
 10
12.362245416
 20
9.065910605
 30
0.0
 10
12.3600606311
 20
9.0791896386
 30
0.0
 10
12.3584238447
 20
9.0878117045
 30
0.0
 10
12.3575661931
 20
9.0920111665
 30
0.0
  0
SPLINE
  5
37C
100
AcDbEntity
  8
0
100
AcDbSpline
 62
7
  6
CONTINUOUS
 70
0
 71
3
 72
18
 73
14
 74
0
 42
0.0000001
 43
0.0000001
 44
0.0000000001
 40
0.0
 40
0.0
 40
0.0
 40
0.0
 40
0.0548620116
 40
0.1099280288
 40
0.1653995063
 40
0.2214731041
 40
0.278338737
 40
0.3361775376
 40
0.455406238
 40
0.580442112
 40
0.7123345554
 40
0.8519568421
 40
1.0
 40
1.0
 40
1.0
 40
1.0
 10
9.978574818
 20
10.4577834059
 30
0.0
 10
9.978574821
 20
10.4588426091
 30
0.0
 10
9.9786420461
 20
10.4609655629
 30
0.0
 10
9.9789443617
 20
10.4641465386
 30
0.0
 10
9.9794480347
 20
10.4673256766
 30
0.0
 10
9.9801528391
 20
10.4705018311
 30
0.0
 10
9.981058592
 20
10.4736741809
 30
0.0
 10
9.9825483495
 20
10.4779401337
 30
0.0
 10
9.9849348544
 20
10.4832757276
 30
0.0
 10
9.9885673181
 20
10.4895770545
 30
0.0
 10
9.9929914146
 20
10.4958375915
 30
0.0
 10
9.9982004422
 20
10.5020510793
 30
0.0
 10
10.0020746076
 20
10.5060377733
 30
0.0
 10
10.0041303966
 20
10.5080235131
 30
0.0
  0
SPLINE
  5
37D
100
AcDbEntity
  8
0
100
AcDbSpline
 62
7
  6
CONTINUOUS
 70
0
 71
3
 72
74
 73
70
 74
0
 42
0.0000001
 43
0.0000001
 44
0.0000000001
 40
0.0
 40
0.0
 40
0.0
 40
0.0
 40
0.0040238046
 40
0.0081866324
 40
0.0124904874
 40
0.0169369898
 40
0.0215274084
 40
0.0262626557
 40
0.0311433853
 40
0.0361699509
 40
0.046660395
 40
0.0577328534
 40
0.0693825864
 40
0.0816022176
 40
0.0943820653
 40
0.1077104251
 40
0.1215737994
 40
0.1359570806
 40
0.1508437004
 40
0.1662157529
 40
0.1820541193
 40
0.1983385698
 40
0.215047852
 40
0.2321597663
 40
0.249651239
 40
0.2674984014
 40
0.2856766556
 40
0.3041607357
 40
0.3229247633
 40
0.3419423104
 40
0.3611864601
 40
0.3806298629
 40
0.4200026365
 40
0.4598357886
 40
0.4999004651
 40
0.5399660854
 40
0.5798020655
 40
0.6191795235
 40
0.6386259585
 40
0.6578735926
 40
0.6768950651
 40
0.6956634521
 40
0.7141523219
 40
0.7323357892
 40
0.7501885725
 40
0.7676860571
 40
0.7848043658
 40
0.8015204186
 40
0.8178120001
 40
0.8336578337
 40
0.8490376688
 40
0.8639323752
 40
0.8783240336
 40
0.8921960478
 40
0.905533275
 40
0.918322191
 40
0.9305510705
 40
0.9422102012
 40
0.9532921578
 40
0.9586152944
 40
0.9637925965
 40
0.968823936
 40
0.9737094259
 40
0.9784494393
 40
0.9830445834
 40
0.9874957843
 40
0.9918042626
 40
0.9959716401
 40
1.0
 40
1.0
 40
1.0
 40
1.0
 10
11.4420590604
 20
10.3978398204
 30
0.0
 10
11.4405192053
 20
10.3990698804
 30
0.0
 10
11.4373445715
 20
10.4015206585
 30
0.0
 10
11.4323896097
 20
10.4051103178
 30
0.0
 10
11.4271633938
 20
10.4086740486
 30
0.0
 10
11.4216679777
 20
10.4122104473
 30
0.0
 10
11.4159054234
 20
10.4157181695
 30
0.0
 10
11.409877959
 20
10.4191959187
 30
0.0
 10
11.403587853
 20
10.4226423537
 30
0.0
 10
11.3947275935
 20
10.4272599271
 30
0.0
 10
11.3830012301
 20
10.4329333516
 30
0.0
 10
11.368115998
 20
10.439502222
 30
0.0
 10
11.3522458782
 20
10.4459153513
 30
0.0
 10
11.3354151991
 20
10.4521628518
 30
0.0
 10
11.3176495657
 20
10.4582351085
 30
0.0
 10
11.2989761671
 20
10.4641227376
 30
0.0
 10
11.2794236105
 20
10.4698166266
 30
0.0
 10
11.2590218986
 20
10.4753079512
 30
0.0
 10
11.2378023745
 20
10.4805881946
 30
0.0
 10
11.2157976738
 20
10.4856491756
 30
0.0
 10
11.1930416625
 20
10.4904830478
 30
0.0
 10
11.1695693765
 20
10.495082316
 30
0.0
 10
11.1454169671
 20
10.4994398451
 30
0.0
 10
11.1206216488
 20
10.5035488784
 30
0.0
 10
11.0952216404
 20
10.5074030522
 30
0.0
 10
11.0692560987
 20
10.5109963941
 30
0.0
 10
11.042765055
 20
10.5143233355
 30
0.0
 10
11.0157893569
 20
10.5173787165
 30
0.0
 10
10.9883706035
 20
10.5201578074
 30
0.0
 10
10.9605510942
 20
10.5226563011
 30
0.0
 10
10.9323737018
 20
10.524870353
 30
0.0
 10
10.8942266175
 20
10.5274491614
 30
0.0
 10
10.845968573
 20
10.5299312846
 30
0.0
 10
10.7875738844
 20
10.5317205779
 30
0.0
 10
10.7288154384
 20
10.5323214877
 30
0.0
 10
10.6700555088
 20
10.5317303226
 30
0.0
 10
10.6116563809
 20
10.5299507277
 30
0.0
 10
10.5633927545
 20
10.5274766263
 30
0.0
 10
10.5252397412
 20
10.5249041974
 30
0.0
 10
10.4970568509
 20
10.5226948346
 30
0.0
 10
10.4692311396
 20
10.520200964
 30
0.0
 10
10.4418054889
 20
10.5174264264
 30
0.0
 10
10.4148222045
 20
10.5143755287
 30
0.0
 10
10.3883228959
 20
10.5110529954
 30
0.0
 10
10.3623484281
 20
10.5074639725
 30
0.0
 10
10.3369388504
 20
10.5036140164
 30
0.0
 10
10.3121333309
 20
10.4995090987
 30
0.0
 10
10.2879700977
 20
10.4951555837
 30
0.0
 10
10.2644863832
 20
10.4905602203
 30
0.0
 10
10.2417183643
 20
10.4857301292
 30
0.0
 10
10.2197010984
 20
10.4806727977
 30
0.0
 10
10.1984684639
 20
10.4753960734
 30
0.0
 10
10.1780531098
 20
10.4699081383
 30
0.0
 10
10.1584864073
 20
10.4642174995
 30
0.0
 10
10.1397983853
 20
10.4583329669
 30
0.0
 10
10.1220176942
 20
10.4522636527
 30
0.0
 10
10.1051714649
 20
10.4460189352
 30
0.0
 10
10.0892855713
 20
10.4396084604
 30
0.0
 10
10.0767043081
 20
10.4340646396
 30
0.0
 10
10.0671472406
 20
10.4295460192
 30
0.0
 10
10.0603308174
 20
10.42616729
 30
0.0
 10
10.0537720313
 20
10.4227545949
 30
0.0
 10
10.0474733838
 20
10.419309209
 30
0.0
 10
10.0414372697
 20
10.4158324833
 30
0.0
 10
10.0356660189
 20
10.4123256903
 30
0.0
 10
10.0301618267
 20
10.408790224
 30
0.0
 10
10.0249267808
 20
10.4052273915
 30
0.0
 10
10.019962929
 20
10.4016385521
 30
0.0
 10
10.0167822296
 20
10.3991883411
 30
0.0
 10
10.0152393183
 20
10.3979585339
 30
0.0
  0
SPLINE
  5
37E
100
AcDbEntity
  8
0
100
AcDbSpline
 62
7
  6
CONTINUOUS
 70
0
 71
3
 72
21
 73
17
 74
0
 42
0.0000001
 43
0.0000001
 44
0.0000000001
 40
0.0
 40
0.0
 40
0.0
 40
0.0
 40
0.1273176984
 40
0.2537999461
 40
0.3167619614
 40
0.3795355204
 40
0.4421314992
 40
0.5045621453
 40
0.5668413456
 40
0.6289845231
 40
0.6910084433
 40
0.7529310869
 40
0.8147714401
 40
0.8765493236
 40
0.9382852134
 40
1.0
 40
1.0
 40
1.0
 40
1.0
 10
11.6617085355
 20
9.762898917
 30
0.0
 10
11.6617085355
 20
9.7681962092
 30
0.0
 10
11.6622141974
 20
9.778762852
 30
0.0
 10
11.6641239403
 20
9.7918255036
 30
0.0
 10
11.666406488
 20
9.8020720098
 30
0.0
 10
11.6684880524
 20
9.8096298378
 30
0.0
 10
11.6709368884
 20
9.8170533671
 30
0.0
 10
11.6737473501
 20
9.8243256955
 30
0.0
 10
11.676912958
 20
9.8314300035
 30
0.0
 10
11.6804264765
 20
9.8383498946
 30
0.0
 10
11.6842797777
 20
9.8450694174
 30
0.0
 10
11.6884639751
 20
9.8515730861
 30
0.0
 10
11.6929694596
 20
9.8578458511
 30
0.0
 10
11.697785869
 20
9.8638733064
 30
0.0
 10
11.7029018821
 20
9.869641384
 30
0.0
 10
11.7065051586
 20
9.8733056065
 30
0.0
 10
11.7083520371
 20
9.8750895432
 30
0.0
  0
SPLINE
  5
37F
100
AcDbEntity
  8
0
100
AcDbSpline
 62
7
  6
CONTINUOUS
 70
0
 71
3
 72
21
 73
17
 74
0
 42
0.0000001
 43
0.0000001
 44
0.0000000001
 40
0.0
 40
0.0
 40
0.0
 40
0.0
 40
0.1273176984
 40
0.2537999461
 40
0.3167619614
 40
0.3795355204
 40
0.4421314992
 40
0.5045621453
 40
0.5668413456
 40
0.6289845231
 40
0.6910084433
 40
0.7529310869
 40
0.8147714401
 40
0.8765493236
 40
0.9382852134
 40
1.0
 40
1.0
 40
1.0
 40
1.0
 10
10.0920789748
 20
7.0338628572
 30
0.0
 10
10.0920789748
 20
7.0391601494
 30
0.0
 10
10.0925846367
 20
7.0497267922
 30
0.0
 10
10.0944943796
 20
7.0627894438
 30
0.0
 10
10.0967769273
 20
7.07303595
 30
0.0
 10
10.0988584916
 20
7.080593778
 30
0.0
 10
10.1013073276
 20
7.0880173072
 30
0.0
 10
10.1041177894
 20
7.0952896357
 30
0.0
 10
10.1072833973
 20
7.1023939437
 30
0.0
 10
10.1107969158
 20
7.1093138348
 30
0.0
 10
10.114650217
 20
7.1160333576
 30
0.0
 10
10.1188344143
 20
7.1225370263
 30
0.0
 10
10.1233398989
 20
7.1288097913
 30
0.0
 10
10.1281563083
 20
7.1348372466
 30
0.0
 10
10.1332723214
 20
7.1406053242
 30
0.0
 10
10.1368755979
 20
7.1442695467
 30
0.0
 10
10.1387224763
 20
7.1460534834
 30
0.0
  0
SPLINE
  5
380
100
AcDbEntity
  8
0
100
AcDbSpline
 62
7
  6
CONTINUOUS
 70
0
 71
3
 72
28
 73
24
 74
0
 42
0.0000001
 43
0.0000001
 44
0.0000000001
 40
0.0
 40
0.0
 40
0.0
 40
0.0
 40
0.0749525414
 40
0.1455492598
 40
0.2121319828
 40
0.2751267504
 40
0.3350537751
 40
0.3925311517
 40
0.4205831712
 40
0.4482964194
 40
0.4757713564
 40
0.5031112904
 40
0.5304212607
 40
0.5578066529
 40
0.585371914
 40
0.6132193169
 40
0.6414476915
 40
0.6701515776
 40
0.7293157133
 40
0.7913812221
 40
0.8568968201
 40
0.9263175734
 40
1.0
 40
1.0
 40
1.0
 40
1.0
 10
10.2786518404
 20
10.3056215108
 30
0.0
 10
10.2773033034
 20
10.3068764608
 30
0.0
 10
10.2747593564
 20
10.3093959547
 30
0.0
 10
10.27132678
 20
10.3133267282
 30
0.0
 10
10.2683997068
 20
10.3172886112
 30
0.0
 10
10.2659824596
 20
10.3212782859
 30
0.0
 10
10.2640791786
 20
10.3252917706
 30
0.0
 10
10.262915374
 20
10.3286814096
 30
0.0
 10
10.2622545193
 20
10.3313865552
 30
0.0
 10
10.2618925039
 20
10.3334014927
 30
0.0
 10
10.2616604389
 20
10.3354178612
 30
0.0
 10
10.2615584286
 20
10.3374350866
 30
0.0
 10
10.2615865267
 20
10.3394524937
 30
0.0
 10
10.2617446811
 20
10.3414694313
 30
0.0
 10
10.2620328451
 20
10.3434852529
 30
0.0
 10
10.2624509046
 20
10.3454992998
 30
0.0
 10
10.2629986726
 20
10.3475110148
 30
0.0
 10
10.2639106366
 20
10.3502161814
 30
0.0
 10
10.2653892821
 20
10.3536004466
 30
0.0
 10
10.2676608234
 20
10.357597005
 30
0.0
 10
10.2704434985
 20
10.3615672636
 30
0.0
 10
10.2737328554
 20
10.3655071009
 30
0.0
 10
10.2761849324
 20
10.368033202
 30
0.0
 10
10.2774874422
 20
10.36929133
 30
0.0
  0
SPLINE
  5
381
100
AcDbEntity
  8
0
100
AcDbSpline
 62
7
  6
CONTINUOUS
 70
0
 71
3
 72
93
 73
89
 74
0
 42
0.0000001
 43
0.0000001
 44
0.0000000001
 40
0.0
 40
0.0
 40
0.0
 40
0.0
 40
0.0039802005
 40
0.0081241083
 40
0.0124359116
 40
0.0169192331
 40
0.0215771071
 40
0.0264118291
 40
0.0314250775
 40
0.0366180274
 40
0.0419913947
 40
0.0475454967
 40
0.0532802394
 40
0.0591952227
 40
0.0652896963
 40
0.071562666
 40
0.0780128361
 40
0.0846387029
 40
0.0984099586
 40
0.1128604728
 40
0.1279709419
 40
0.1437194762
 40
0.1600818774
 40
0.1770318697
 40
0.1945412988
 40
0.2125803054
 40
0.2311174799
 40
0.2501200027
 40
0.2695537746
 40
0.2893835385
 40
0.3095729955
 40
0.3300849166
 40
0.3508812506
 40
0.3719232299
 40
0.3931714738
 40
0.4145860912
 40
0.4361267819
 40
0.4577529372
 40
0.47942374
 40
0.5010982647
 40
0.5227355766
 40
0.5442948315
 40
0.5657353757
 40
0.5870168455
 40
0.608099268
 40
0.628943162
 40
0.6495096405
 40
0.6697605141
 40
0.6896583964
 40
0.7091668111
 40
0.7282503034
 40
0.7468745548
 40
0.7650065038
 40
0.7826144744
 40
0.7996683149
 40
0.8161395488
 40
0.8320015451
 40
0.8472297111
 40
0.8618017176
 40
0.8756977675
 40
0.8823870871
 40
0.8889013284
 40
0.8952388858
 40
0.9013983901
 40
0.9073787355
 40
0.9131790737
 40
0.918798886
 40
0.9242379489
 40
0.9294964425
 40
0.9345749072
 40
0.9394743702
 40
0.9441963202
 40
0.9487428314
 40
0.9531165822
 40
0.9573209639
 40
0.9613601573
 40
0.9652392239
 40
0.9689642405
 40
0.9725423751
 40
0.9759820598
 40
0.97929305
 40
0.982486587
 40
0.9855754179
 40
0.9885738696
 40
0.9914977727
 40
0.9943643586
 40
0.997192021
 40
1.0
 40
1.0
 40
1.0
 40
1.0
 10
10.0041303966
 20
10.5080235131
 30
0.0
 10
10.0056158338
 20
10.5094583353
 30
0.0
 10
10.0087152586
 20
10.5123178207
 30
0.0
 10
10.0136361807
 20
10.5164942949
 30
0.0
 10
10.0189184538
 20
10.5206407879
 30
0.0
 10
10.0245591888
 20
10.5247551456
 30
0.0
 10
10.0305556625
 20
10.5288354145
 30
0.0
 10
10.0369049003
 20
10.5328796482
 30
0.0
 10
10.0436037494
 20
10.5368858332
 30
0.0
 10
10.0506488581
 20
10.540851963
 30
0.0
 10
10.0580366954
 20
10.5447760874
 30
0.0
 10
10.0657635782
 20
10.5486562098
 30
0.0
 10
10.0738256188
 20
10.5524904306
 30
0.0
 10
10.0822187852
 20
10.556276764
 30
0.0
 10
10.0909388434
 20
10.5600133625
 30
0.0
 10
10.0999814177
 20
10.5636982763
 30
0.0
 10
10.1093419547
 20
10.5673297227
 30
0.0
 10
10.1224087655
 20
10.5721599966
 30
0.0
 10
10.1395111709
 20
10.5780385801
 30
0.0
 10
10.1609687648
 20
10.584763303
 30
0.0
 10
10.1835737532
 20
10.5912324655
 30
0.0
 10
10.2072805089
 20
10.5974329005
 30
0.0
 10
10.2320413455
 20
10.6033519799
 30
0.0
 10
10.2578063267
 20
10.6089776466
 30
0.0
 10
10.2845234638
 20
10.6142984403
 30
0.0
 10
10.3121388058
 20
10.6193035234
 30
0.0
 10
10.3405965613
 20
10.6239827032
 30
0.0
 10
10.3698392149
 20
10.6283264526
 30
0.0
 10
10.3998076473
 20
10.6323259296
 30
0.0
 10
10.4304412585
 20
10.6359729948
 30
0.0
 10
10.4616780921
 20
10.6392602273
 30
0.0
 10
10.4934549633
 20
10.6421809398
 30
0.0
 10
10.5257075874
 20
10.6447291915
 30
0.0
 10
10.5583707121
 20
10.6468997998
 30
0.0
 10
10.5913782495
 20
10.6486883507
 30
0.0
 10
10.6246634117
 20
10.6500912081
 30
0.0
 10
10.6581588462
 20
10.6511055201
 30
0.0
 10
10.6917967734
 20
10.6517292249
 30
0.0
 10
10.7255091244
 20
10.6519610549
 30
0.0
 10
10.7592276789
 20
10.6518005388
 30
0.0
 10
10.7928842044
 20
10.651248003
 30
0.0
 10
10.8264105941
 20
10.6503045706
 30
0.0
 10
10.8597390059
 20
10.6489721595
 30
0.0
 10
10.8928019995
 20
10.6472534781
 30
0.0
 10
10.9255326744
 20
10.6451520208
 30
0.0
 10
10.9578648052
 20
10.6426720604
 30
0.0
 10
10.9897329772
 20
10.6398186397
 30
0.0
 10
11.02107272
 20
10.6365975627
 30
0.0
 10
11.0518206388
 20
10.6330153821
 30
0.0
 10
11.0819145445
 20
10.6290793865
 30
0.0
 10
11.1112935813
 20
10.624797586
 30
0.0
 10
11.1398983516
 20
10.6201786962
 30
0.0
 10
11.1676710397
 20
10.6152321211
 30
0.0
 10
11.1945555322
 20
10.609967934
 30
0.0
 10
11.220497535
 20
10.604396857
 30
0.0
 10
11.2454446955
 20
10.598530239
 30
0.0
 10
11.2693466926
 20
10.5923800305
 30
0.0
 10
11.292155433
 20
10.5859587587
 30
0.0
 10
11.3138248678
 20
10.5792794904
 30
0.0
 10
11.3311096634
 20
10.5734380928
 30
0.0
 10
11.344326382
 20
10.5686364317
 30
0.0
 10
11.3538013661
 20
10.5650249109
 30
0.0
 10
11.3629600795
 20
10.5613592285
 30
0.0
 10
11.3717979177
 20
10.5576412018
 30
0.0
 10
11.380310436
 20
10.5538727372
 30
0.0
 10
11.388493345
 20
10.5500556973
 30
0.0
 10
11.396342549
 20
10.5461920518
 30
0.0
 10
11.4038540924
 20
10.542283684
 30
0.0
 10
11.4110242345
 20
10.5383326144
 30
0.0
 10
11.4178493657
 20
10.5343407513
 30
0.0
 10
11.424326103
 20
10.5303101385
 30
0.0
 10
11.4304511958
 20
10.5262427159
 30
0.0
 10
11.4362216145
 20
10.5221405195
 30
0.0
 10
11.4416344782
 20
10.5180055206
 30
0.0
 10
11.4466870979
 20
10.5138397185
 30
0.0
 10
11.4513769641
 20
10.5096451053
 30
0.0
 10
11.4557017029
 20
10.5054236219
 30
0.0
 10
11.4596591585
 20
10.5011772639
 30
0.0
 10
11.4632472293
 20
10.496907911
 30
0.0
 10
11.4664640649
 20
10.4926175519
 30
0.0
 10
11.4693077806
 20
10.4883080459
 30
0.0
 10
11.4717767542
 20
10.4839814063
 30
0.0
 10
11.4738692825
 20
10.4796395883
 30
0.0
 10
11.4755839208
 20
10.4752847365
 30
0.0
 10
11.4769192101
 20
10.4709191125
 30
0.0
 10
11.477873973
 20
10.4665450571
 30
0.0
 10
11.4784472401
 20
10.4621656385
 30
0.0
 10
11.4785748046
 20
10.4592398423
 30
0.0
 10
11.4785748005
 20
10.4577828389
 30
0.0
  0
SPLINE
  5
382
100
AcDbEntity
  8
0
100
AcDbSpline
 62
7
  6
CONTINUOUS
 70
0
 71
3
 72
18
 73
14
 74
0
 42
0.0000001
 43
0.0000001
 44
0.0000000001
 40
0.0
 40
0.0
 40
0.0
 40
0.0
 40
0.0548626505
 40
0.1099292212
 40
0.1654012836
 40
0.2214755222
 40
0.3361333874
 40
0.4553634688
 40
0.517104949
 40
0.58043661
 40
0.7123312106
 40
0.8519577725
 40
1.0
 40
1.0
 40
1.0
 40
1.0
 10
10.2980748211
 20
10.3027520407
 30
0.0
 10
10.2980748227
 20
10.3033600267
 30
0.0
 10
10.2981134088
 20
10.3045786094
 30
0.0
 10
10.298286898
 20
10.3064044924
 30
0.0
 10
10.2985760317
 20
10.3082293589
 30
0.0
 10
10.2991193222
 20
10.3106779244
 30
0.0
 10
10.3000980774
 20
10.3137468219
 30
0.0
 10
10.3014385787
 20
10.3167432679
 30
0.0
 10
10.3027284507
 20
10.3191246268
 30
0.0
 10
10.3042054102
 20
10.3215605608
 30
0.0
 10
10.3063499862
 20
10.324595397
 30
0.0
 10
10.3093399169
 20
10.3281618026
 30
0.0
 10
10.3115637082
 20
10.3304502245
 30
0.0
 10
10.3127437164
 20
10.3315900249
 30
0.0
  0
SPLINE
  5
383
100
AcDbEntity
  8
0
100
AcDbSpline
 62
7
  6
CONTINUOUS
 70
0
 71
3
 72
41
 73
37
 74
0
 42
0.0000001
 43
0.0000001
 44
0.0000000001
 40
0.0
 40
0.0
 40
0.0
 40
0.0
 40
0.0299421703
 40
0.0599087166
 40
0.0899234211
 40
0.1200088977
 40
0.150186053
 40
0.1804736004
 40
0.2108876395
 40
0.2414413098
 40
0.2721445264
 40
0.3030038
 40
0.3340221415
 40
0.3651990482
 40
0.3965305685
 40
0.4280094374
 40
0.4596252765
 40
0.4913648514
 40
0.5232123788
 40
0.5551498746
 40
0.5871575376
 40
0.6192141589
 40
0.6512975532
 40
0.6833850026
 40
0.7154537088
 40
0.731476412
 40
0.7474860771
 40
0.7794508401
 40
0.8113324799
 40
0.8431123195
 40
0.8747737613
 40
0.9063025943
 40
0.937687506
 40
0.953325536
 40
0.9689249997
 40
1.0
 40
1.0
 40
1.0
 40
1.0
 10
10.9056311984
 20
7.4280947292
 30
0.0
 10
10.9021307696
 20
7.4247135926
 30
0.0
 10
10.8948546951
 20
7.4182241623
 30
0.0
 10
10.8831972672
 20
7.4093834833
 30
0.0
 10
10.8708561375
 20
7.401480485
 30
0.0
 10
10.8579002547
 20
7.394559509
 30
0.0
 10
10.8444008512
 20
7.3886583642
 30
0.0
 10
10.8304324278
 20
7.38380949
 30
0.0
 10
10.8160719585
 20
7.3800394173
 30
0.0
 10
10.8013985591
 20
7.3773687298
 30
0.0
 10
10.7864930188
 20
7.375811936
 30
0.0
 10
10.7714373603
 20
7.3753774062
 30
0.0
 10
10.7563143862
 20
7.3760673339
 30
0.0
 10
10.7412072269
 20
7.3778777374
 30
0.0
 10
10.726198887
 20
7.3807984893
 30
0.0
 10
10.711371795
 20
7.3848133798
 30
0.0
 10
10.6968073569
 20
7.3899002105
 30
0.0
 10
10.6825855155
 20
7.39603092
 30
0.0
 10
10.6687843174
 20
7.4031717407
 30
0.0
 10
10.6554794929
 20
7.4112833818
 30
0.0
 10
10.6427440381
 20
7.4203212571
 30
0.0
 10
10.63064785
 20
7.4302356831
 30
0.0
 10
10.6192572317
 20
7.4409723172
 30
0.0
 10
10.6086349675
 20
7.4524718304
 30
0.0
 10
10.6004684946
 20
7.4626423645
 30
0.0
 10
10.5943755432
 20
7.4710961189
 30
0.0
 10
10.5885891587
 20
7.4797422599
 30
0.0
 10
10.5819364441
 20
7.4909006095
 30
0.0
 10
10.5749231972
 20
7.5047852192
 30
0.0
 10
10.5689214426
 20
7.5190831174
 30
0.0
 10
10.5639644899
 20
7.533715586
 30
0.0
 10
10.5600796458
 20
7.5486019304
 30
0.0
 10
10.5577506042
 20
7.5611676235
 30
0.0
 10
10.5564440725
 20
7.571263991
 30
0.0
 10
10.555511638
 20
7.5813507018
 30
0.0
 10
10.5552293064
 20
7.5889408763
 30
0.0
 10
10.5552293064
 20
7.5939917366
 30
0.0
  0
SPLINE
  5
384
100
AcDbEntity
  8
0
100
AcDbSpline
 62
7
  6
CONTINUOUS
 70
0
 71
3
 72
39
 73
35
 74
0
 42
0.0000001
 43
0.0000001
 44
0.0000000001
 40
0.0
 40
0.0
 40
0.0
 40
0.0
 40
0.0302093221
 40
0.0605322915
 40
0.090974138
 40
0.1215384125
 40
0.1522269562
 40
0.1830398961
 40
0.2139756651
 40
0.2450310444
 40
0.2762012242
 40
0.3074798843
 40
0.3388592918
 40
0.3703304138
 40
0.4018830447
 40
0.4335059469
 40
0.4651869992
 40
0.4969133533
 40
0.5286715966
 40
0.56044792
 40
0.5922282891
 40
0.6239986198
 40
0.6557449531
 40
0.6874536283
 40
0.7191114526
 40
0.750705868
 40
0.7822251096
 40
0.8136583604
 40
0.8449959067
 40
0.8762292136
 40
0.9073512899
 40
0.9383559868
 40
0.9692402514
 40
1.0
 40
1.0
 40
1.0
 40
1.0
 10
10.9556219372
 20
7.5123368799
 30
0.0
 10
10.9518192255
 20
7.5114141599
 30
0.0
 10
10.9441413055
 20
7.5097964421
 30
0.0
 10
10.9324784756
 20
7.5080644433
 30
0.0
 10
10.9206868572
 20
7.5070280418
 30
0.0
 10
10.9088074147
 20
7.5066908635
 30
0.0
 10
10.896880698
 20
7.5070539743
 30
0.0
 10
10.8849475989
 20
7.5081160763
 30
0.0
 10
10.8730489693
 20
7.5098734697
 30
0.0
 10
10.8612255474
 20
7.5123200833
 30
0.0
 10
10.8495178029
 20
7.5154474915
 30
0.0
 10
10.8379658042
 20
7.5192449453
 30
0.0
 10
10.8266090824
 20
7.5236994095
 30
0.0
 10
10.8154864982
 20
7.5287956072
 30
0.0
 10
10.8046361036
 20
7.5345160611
 30
0.0
 10
10.7940950171
 20
7.5408411658
 30
0.0
 10
10.7838992984
 20
7.5477492544
 30
0.0
 10
10.774083826
 20
7.5552166724
 30
0.0
 10
10.7646821799
 20
7.5632178579
 30
0.0
 10
10.7557265275
 20
7.5717254282
 30
0.0
 10
10.7472475147
 20
7.5807102727
 30
0.0
 10
10.7392741523
 20
7.5901416435
 30
0.0
 10
10.7318337256
 20
7.59998727
 30
0.0
 10
10.7249517014
 20
7.6102134678
 30
0.0
 10
10.7186516423
 20
7.6207852529
 30
0.0
 10
10.7129551267
 20
7.6316664602
 30
0.0
 10
10.7078816754
 20
7.6428198652
 30
0.0
 10
10.7034486827
 20
7.6542073116
 30
0.0
 10
10.699671357
 20
7.6657898293
 30
0.0
 10
10.6965626379
 20
7.6775278047
 30
0.0
 10
10.6941332639
 20
7.6893809938
 30
0.0
 10
10.6923914921
 20
7.7013090569
 30
0.0
 10
10.6913434882
 20
7.7132705171
 30
0.0
 10
10.691109193
 20
7.7212572798
 30
0.0
 10
10.691109193
 20
7.725241636
 30
0.0
  0
SPLINE
  5
385
100
AcDbEntity
  8
0
100
AcDbSpline
 62
7
  6
CONTINUOUS
 70
0
 71
3
 72
11
 73
7
 74
0
 42
0.0000001
 43
0.0000001
 44
0.0000000001
 40
0.0
 40
0.0
 40
0.0
 40
0.0
 40
0.2520027585
 40
0.5026269651
 40
0.7519312669
 40
1.0
 40
1.0
 40
1.0
 40
1.0
 10
10.7174731524
 20
7.7272072668
 30
0.0
 10
10.7174731524
 20
7.7319971552
 30
0.0
 10
10.7178525162
 20
7.7415552041
 30
0.0
 10
10.7195674909
 20
7.7557593013
 30
0.0
 10
10.7224156896
 20
7.7697040538
 30
0.0
 10
10.7250653443
 20
7.7787920728
 30
0.0
 10
10.7265720903
 20
7.7832599593
 30
0.0
  0
SPLINE
  5
386
100
AcDbEntity
  8
0
100
AcDbSpline
 62
7
  6
CONTINUOUS
 70
0
 71
3
 72
21
 73
17
 74
0
 42
0.0000001
 43
0.0000001
 44
0.0000000001
 40
0.0
 40
0.0
 40
0.0
 40
0.0
 40
0.0617147758
 40
0.1234506606
 40
0.1852285516
 40
0.2470689039
 40
0.3089915432
 40
0.3710154715
 40
0.4331586565
 40
0.4954378534
 40
0.5578684959
 40
0.6204644995
 40
0.6832380575
 40
0.7461999878
 40
0.87268242
 40
1.0
 40
1.0
 40
1.0
 40
1.0
 10
10.6124481373
 20
7.7316201508
 30
0.0
 10
10.6101825079
 20
7.7294317325
 30
0.0
 10
10.6057623057
 20
7.72493664
 30
0.0
 10
10.5994863137
 20
7.7178607381
 30
0.0
 10
10.5935779019
 20
7.7104666073
 30
0.0
 10
10.5880509265
 20
7.7027715432
 30
0.0
 10
10.5829180343
 20
7.6947932585
 30
0.0
 10
10.5781910815
 20
7.6865501664
 30
0.0
 10
10.573880985
 20
7.6780612619
 30
0.0
 10
10.5699976314
 20
7.6693461545
 30
0.0
 10
10.566549952
 20
7.6604249268
 30
0.0
 10
10.5635459277
 20
7.6513182056
 30
0.0
 10
10.5609924074
 20
7.642046754
 30
0.0
 10
10.5581923315
 20
7.6294769979
 30
0.0
 10
10.5558496219
 20
7.6134525794
 30
0.0
 10
10.5552293064
 20
7.6004901051
 30
0.0
 10
10.5552293064
 20
7.5939917366
 30
0.0
  0
SPLINE
  5
387
100
AcDbEntity
  8
0
100
AcDbSpline
 62
7
  6
CONTINUOUS
 70
0
 71
3
 72
11
 73
7
 74
0
 42
0.0000001
 43
0.0000001
 44
0.0000000001
 40
0.0
 40
0.0
 40
0.0
 40
0.0
 40
0.2483429646
 40
0.4977591531
 40
0.7483015582
 40
1.0
 40
1.0
 40
1.0
 40
1.0
 10
10.6983345703
 20
7.7785272359
 30
0.0
 10
10.6971352676
 20
7.7742270503
 30
0.0
 10
10.6950296228
 20
7.7655218514
 30
0.0
 10
10.6927694086
 20
7.7522511637
 30
0.0
 10
10.6914100543
 20
7.7387976541
 30
0.0
 10
10.691109193
 20
7.7297662494
 30
0.0
 10
10.691109193
 20
7.725241636
 30
0.0
  0
SPLINE
  5
388
100
AcDbEntity
  8
0
100
AcDbSpline
 62
7
  6
CONTINUOUS
 70
0
 71
3
 72
39
 73
35
 74
0
 42
0.0000001
 43
0.0000001
 44
0.0000000001
 40
0.0
 40
0.0
 40
0.0
 40
0.0
 40
0.0301466478
 40
0.0604043204
 40
0.0907799634
 40
0.1212787473
 40
0.1519040114
 40
0.1826572392
 40
0.2135380599
 40
0.2445442764
 40
0.2756719184
 40
0.3069153175
 40
0.3382672045
 40
0.3697188246
 40
0.4012600728
 40
0.4328796413
 40
0.46456518
 40
0.4963034654
 40
0.5280805792
 40
0.5598820933
 40
0.5916932593
 40
0.6234992037
 40
0.6552851221
 40
0.6870364725
 40
0.7187391654
 40
0.7503797509
 40
0.781945598
 40
0.8134250678
 40
0.84480769
 40
0.876084251
 40
0.9072471841
 40
0.9382898647
 40
0.9692089063
 40
1.0
 40
1.0
 40
1.0
 40
1.0
 10
10.9612352275
 20
7.5403726668
 30
0.0
 10
10.957824102
 20
7.5393515923
 30
0.0
 10
10.9509231297
 20
7.5375198062
 30
0.0
 10
10.9404023684
 20
7.535417757
 30
0.0
 10
10.9297303516
 20
7.5339634906
 30
0.0
 10
10.9189462017
 20
7.5331623731
 30
0.0
 10
10.9080887625
 20
7.5330171916
 30
0.0
 10
10.8971973123
 20
7.5335284184
 30
0.0
 10
10.8863111918
 20
7.5346941426
 30
0.0
 10
10.8754697256
 20
7.5365100975
 30
0.0
 10
10.864712065
 20
7.5389696725
 30
0.0
 10
10.8540770528
 20
7.5420639388
 30
0.0
 10
10.8436030839
 20
7.5457816841
 30
0.0
 10
10.8333279654
 20
7.5501094437
 30
0.0
 10
10.8232887811
 20
7.5550315541
 30
0.0
 10
10.8135217603
 20
7.5605302151
 30
0.0
 10
10.804062149
 20
7.5665855526
 30
0.0
 10
10.7949440839
 20
7.5731756906
 30
0.0
 10
10.7862004705
 20
7.580276829
 30
0.0
 10
10.7778628669
 20
7.5878633299
 30
0.0
 10
10.7699613661
 20
7.5959078047
 30
0.0
 10
10.7625244852
 20
7.6043812112
 30
0.0
 10
10.75557907
 20
7.6132529655
 30
0.0
 10
10.7491501972
 20
7.6224910491
 30
0.0
 10
10.7432610854
 20
7.6320621242
 30
0.0
 10
10.7379330119
 20
7.6419316523
 30
0.0
 10
10.7331852372
 20
7.6520640174
 30
0.0
 10
10.72903493
 20
7.6624226535
 30
0.0
 10
10.7254971105
 20
7.6729701665
 30
0.0
 10
10.7225845645
 20
7.6836685029
 30
0.0
 10
10.7203079044
 20
7.694478972
 30
0.0
 10
10.7186752982
 20
7.7053627593
 30
0.0
 10
10.7176928372
 20
7.7162799463
 30
0.0
 10
10.7174731524
 20
7.7235704803
 30
0.0
 10
10.7174731524
 20
7.7272072668
 30
0.0
  0
SPLINE
  5
389
100
AcDbEntity
  8
0
100
AcDbSpline
 62
7
  6
CONTINUOUS
 70
0
 71
3
 72
42
 73
38
 74
0
 42
0.0000001
 43
0.0000001
 44
0.0000000001
 40
0.0
 40
0.0
 40
0.0
 40
0.0
 40
0.0299419634
 40
0.0449235299
 40
0.0599142017
 40
0.0899287029
 40
0.1200139772
 40
0.1350926626
 40
0.1501967046
 40
0.1804840506
 40
0.2108978877
 40
0.2414513551
 40
0.2721543675
 40
0.3030134354
 40
0.3340315696
 40
0.3652082675
 40
0.3965395775
 40
0.4280182343
 40
0.4596338596
 40
0.4913732188
 40
0.5232205284
 40
0.5551578047
 40
0.5871652463
 40
0.6192216448
 40
0.6513048151
 40
0.6833920402
 40
0.7154605222
 40
0.747487836
 40
0.7794523759
 40
0.8113337934
 40
0.8431134117
 40
0.8747746318
 40
0.9063032512
 40
0.9376879208
 40
0.9533258
 40
0.9689252634
 40
1.0
 40
1.0
 40
1.0
 40
1.0
 10
11.9473435379
 20
9.6276646983
 30
0.0
 10
11.9444901135
 20
9.6249085187
 30
0.0
 10
11.9400417792
 20
9.6209412617
 30
0.0
 10
11.9338119873
 20
9.6160187596
 30
0.0
 10
11.9273838078
 20
9.6113412088
 30
0.0
 10
11.9189960905
 20
9.605969865
 30
0.0
 10
11.9102005573
 20
9.6012714937
 30
0.0
 10
11.9029465219
 20
9.5979290678
 30
0.0
 10
11.8955426394
 20
9.5948625642
 30
0.0
 10
11.8860437939
 20
9.5915652061
 30
0.0
 10
11.8743379066
 20
9.5884921512
 30
0.0
 10
11.862376595
 20
9.5863151283
 30
0.0
 10
11.850226147
 20
9.5850461478
 30
0.0
 10
11.8379533076
 20
9.584691982
 30
0.0
 10
11.8256256054
 20
9.5852544333
 30
0.0
 10
11.8133107963
 20
9.5867302525
 30
0.0
 10
11.8010765447
 20
9.5891111858
 30
0.0
 10
11.7889900425
 20
9.5923840192
 30
0.0
 10
11.7771176491
 20
9.5965306574
 30
0.0
 10
11.7655245304
 20
9.6015282257
 30
0.0
 10
11.7542743073
 20
9.6073491971
 30
0.0
 10
11.7434287109
 20
9.6139615446
 30
0.0
 10
11.7330472484
 20
9.6213289163
 30
0.0
 10
11.7231868806
 20
9.6294108344
 30
0.0
 10
11.7139017135
 20
9.6381629155
 30
0.0
 10
11.7052427041
 20
9.6475371126
 30
0.0
 10
11.6972573844
 20
9.6574819758
 30
0.0
 10
11.6899896024
 20
9.6679429329
 30
0.0
 10
11.6834792839
 20
9.6788625818
 30
0.0
 10
11.677762215
 20
9.6901810151
 30
0.0
 10
11.6728698475
 20
9.7018360973
 30
0.0
 10
11.6688291173
 20
9.7137639748
 30
0.0
 10
11.6656623468
 20
9.7258987817
 30
0.0
 10
11.6637637976
 20
9.7361418743
 30
0.0
 10
11.6626987678
 20
9.744372075
 30
0.0
 10
11.6619386821
 20
9.7525944001
 30
0.0
 10
11.6617085355
 20
9.7587816444
 30
0.0
 10
11.6617085355
 20
9.762898917
 30
0.0
  0
SPLINE
  5
38A
100
AcDbEntity
  8
0
100
AcDbSpline
 62
7
  6
CONTINUOUS
 70
0
 71
3
 72
42
 73
38
 74
0
 42
0.0000001
 43
0.0000001
 44
0.0000000001
 40
0.0
 40
0.0
 40
0.0
 40
0.0
 40
0.0299419634
 40
0.0449235299
 40
0.0599142017
 40
0.0899287029
 40
0.1200139772
 40
0.1350926626
 40
0.1501967046
 40
0.1804840506
 40
0.2108978877
 40
0.2414513551
 40
0.2721543675
 40
0.3030134354
 40
0.3340315696
 40
0.3652082675
 40
0.3965395775
 40
0.4280182343
 40
0.4596338596
 40
0.4913732188
 40
0.5232205284
 40
0.5551578047
 40
0.5871652463
 40
0.6192216448
 40
0.6513048151
 40
0.6833920402
 40
0.7154605222
 40
0.747487836
 40
0.7794523759
 40
0.8113337934
 40
0.8431134117
 40
0.8747746318
 40
0.9063032512
 40
0.9376879208
 40
0.9533258
 40
0.9689252634
 40
1.0
 40
1.0
 40
1.0
 40
1.0
 10
10.3777139771
 20
6.8986286384
 30
0.0
 10
10.3748605528
 20
6.8958724589
 30
0.0
 10
10.3704122185
 20
6.8919052019
 30
0.0
 10
10.3641824266
 20
6.8869826998
 30
0.0
 10
10.3577542471
 20
6.882305149
 30
0.0
 10
10.3493665298
 20
6.8769338052
 30
0.0
 10
10.3405709966
 20
6.8722354339
 30
0.0
 10
10.3333169612
 20
6.8688930079
 30
0.0
 10
10.3259130787
 20
6.8658265043
 30
0.0
 10
10.3164142332
 20
6.8625291463
 30
0.0
 10
10.3047083459
 20
6.8594560914
 30
0.0
 10
10.2927470343
 20
6.8572790685
 30
0.0
 10
10.2805965863
 20
6.856010088
 30
0.0
 10
10.2683237469
 20
6.8556559222
 30
0.0
 10
10.2559960447
 20
6.8562183734
 30
0.0
 10
10.2436812356
 20
6.8576941927
 30
0.0
 10
10.231446984
 20
6.860075126
 30
0.0
 10
10.2193604818
 20
6.8633479594
 30
0.0
 10
10.2074880883
 20
6.8674945976
 30
0.0
 10
10.1958949697
 20
6.8724921659
 30
0.0
 10
10.1846447466
 20
6.8783131373
 30
0.0
 10
10.1737991502
 20
6.8849254848
 30
0.0
 10
10.1634176877
 20
6.8922928565
 30
0.0
 10
10.1535573199
 20
6.9003747746
 30
0.0
 10
10.1442721528
 20
6.9091268557
 30
0.0
 10
10.1356131434
 20
6.9185010528
 30
0.0
 10
10.1276278237
 20
6.928445916
 30
0.0
 10
10.1203600417
 20
6.9389068731
 30
0.0
 10
10.1138497232
 20
6.949826522
 30
0.0
 10
10.1081326542
 20
6.9611449553
 30
0.0
 10
10.1032402867
 20
6.9728000375
 30
0.0
 10
10.0991995566
 20
6.984727915
 30
0.0
 10
10.0960327861
 20
6.9968627219
 30
0.0
 10
10.0941342368
 20
7.0071058145
 30
0.0
 10
10.093069207
 20
7.0153360152
 30
0.0
 10
10.0923091214
 20
7.0235583403
 30
0.0
 10
10.0920789748
 20
7.0297455845
 30
0.0
 10
10.0920789748
 20
7.0338628572
 30
0.0
  0
SPLINE
  5
38B
100
AcDbEntity
  8
0
100
AcDbSpline
 62
7
  6
CONTINUOUS
 70
0
 71
3
 72
83
 73
79
 74
0
 42
0.0000001
 43
0.0000001
 44
0.0000000001
 40
0.0
 40
0.0
 40
0.0
 40
0.0
 40
0.0038897122
 40
0.0079377235
 40
0.0121473933
 40
0.0165215815
 40
0.0210627116
 40
0.0257726815
 40
0.0306527801
 40
0.0357038935
 40
0.0409265069
 40
0.046320763
 40
0.051886514
 40
0.0576232689
 40
0.0696062552
 40
0.0822615696
 40
0.0955772263
 40
0.1095383586
 40
0.1241275741
 40
0.1393252299
 40
0.1551096646
 40
0.1714574025
 40
0.1883433208
 40
0.2057407948
 40
0.2236218237
 40
0.2419571444
 40
0.2607163488
 40
0.2798679867
 40
0.2993796625
 40
0.319218126
 40
0.3393493586
 40
0.3597386654
 40
0.3803507639
 40
0.4011498678
 40
0.4431632878
 40
0.4854863448
 40
0.5278230479
 40
0.5698772803
 40
0.5907068747
 40
0.6113561017
 40
0.6317890888
 40
0.6519704515
 40
0.6718653827
 40
0.6914397371
 40
0.7106601162
 40
0.7294939567
 40
0.7479096228
 40
0.7658765085
 40
0.7833651392
 40
0.8003472743
 40
0.8167960223
 40
0.8326859674
 40
0.8479933176
 40
0.8626960732
 40
0.8767742075
 40
0.8902098897
 40
0.9029877578
 40
0.91509526
 40
0.9208948123
 40
0.9265235858
 40
0.9319810276
 40
0.9372668309
 40
0.9423810469
 40
0.9473240186
 40
0.9520964948
 40
0.95669964
 40
0.961135059
 40
0.9654049249
 40
0.9695119501
 40
0.9734595429
 40
0.9772518452
 40
0.9808938202
 40
0.9843914075
 40
0.9877515539
 40
0.990982402
 40
0.9940933484
 40
0.9970951466
 40
1.0
 40
1.0
 40
1.0
 40
1.0
 10
12.4179791963
 20
8.260984138
 30
0.0
 10
12.4191010946
 20
8.2620678087
 30
0.0
 10
12.4213437589
 20
8.2643281221
 30
0.0
 10
12.424640016
 20
8.2679160771
 30
0.0
 10
12.4279330419
 20
8.2717664397
 30
0.0
 10
12.4312211799
 20
8.2758772674
 30
0.0
 10
12.4345030191
 20
8.2802466856
 30
0.0
 10
12.4377770616
 20
8.2848727438
 30
0.0
 10
12.4410418739
 20
8.2897533001
 30
0.0
 10
12.4442959013
 20
8.2948861213
 30
0.0
 10
12.4475376559
 20
8.300268825
 30
0.0
 10
12.4507656498
 20
8.305898919
 30
0.0
 10
12.453978379
 20
8.3117738228
 30
0.0
 10
12.4583026334
 20
8.3200504018
 30
0.0
 10
12.4636493224
 20
8.3309977335
 30
0.0
 10
12.4698912604
 20
8.344881145
 30
0.0
 10
12.4760372802
 20
8.3596700035
 30
0.0
 10
12.4820758895
 20
8.3753368558
 30
0.0
 10
12.4879957922
 20
8.3918527752
 30
0.0
 10
12.4937858985
 20
8.4091871283
 30
0.0
 10
12.4994353624
 20
8.4273077281
 30
0.0
 10
12.5049335951
 20
8.4461808848
 30
0.0
 10
12.5102702912
 20
8.4657714841
 30
0.0
 10
12.5154354477
 20
8.4860430547
 30
0.0
 10
12.5204193833
 20
8.5069578364
 30
0.0
 10
12.5252127653
 20
8.5284768519
 30
0.0
 10
12.5298066172
 20
8.5505599858
 30
0.0
 10
12.5341923373
 20
8.5731660646
 30
0.0
 10
12.5383617147
 20
8.5962529343
 30
0.0
 10
12.5423069418
 20
8.6197775364
 30
0.0
 10
12.5460206406
 20
8.6436959914
 30
0.0
 10
12.5494958591
 20
8.6679636689
 30
0.0
 10
12.5527261242
 20
8.6925353281
 30
0.0
 10
12.5567115604
 20
8.7257516413
 30
0.0
 10
12.5610344101
 20
8.7676934057
 30
0.0
 10
12.5651449426
 20
8.8183276994
 30
0.0
 10
12.5681647894
 20
8.8690551232
 30
0.0
 10
12.5697589049
 20
8.9112230042
 30
0.0
 10
12.5704664645
 20
8.944713563
 30
0.0
 10
12.5707112804
 20
8.9695400649
 30
0.0
 10
12.5706715492
 20
8.9941077834
 30
0.0
 10
12.5703473354
 20
9.0183709177
 30
0.0
 10
12.5697392711
 20
9.0422841924
 30
0.0
 10
12.5688485132
 20
9.0658030021
 30
0.0
 10
12.5676767499
 20
9.0888834777
 30
0.0
 10
12.5662261959
 20
9.1114825713
 30
0.0
 10
12.5644995874
 20
9.1335581383
 30
0.0
 10
12.5625001843
 20
9.1550690207
 30
0.0
 10
12.5602317634
 20
9.1759751263
 30
0.0
 10
12.5576986059
 20
9.1962375031
 30
0.0
 10
12.5549054911
 20
9.2158184118
 30
0.0
 10
12.5518576866
 20
9.2346814015
 30
0.0
 10
12.5485609402
 20
9.2527913853
 30
0.0
 10
12.5450214752
 20
9.2701147213
 30
0.0
 10
12.5412459653
 20
9.2866192576
 30
0.0
 10
12.5372415224
 20
9.3022744803
 30
0.0
 10
12.5330156674
 20
9.3170513022
 30
0.0
 10
12.5292643923
 20
9.3287730902
 30
0.0
 10
12.526149885
 20
9.3376829399
 30
0.0
 10
12.5237971271
 20
9.3440328388
 30
0.0
 10
12.5213950927
 20
9.3501434444
 30
0.0
 10
12.5189448244
 20
9.3560119255
 30
0.0
 10
12.5164475157
 20
9.3616355823
 30
0.0
 10
12.5139042756
 20
9.3670118094
 30
0.0
 10
12.5113162876
 20
9.3721381338
 30
0.0
 10
12.5086847522
 20
9.3770122075
 30
0.0
 10
12.5060108173
 20
9.3816317735
 30
0.0
 10
12.5032957461
 20
9.3859947434
 30
0.0
 10
12.5005406962
 20
9.3900990972
 30
0.0
 10
12.4977469077
 20
9.3939429702
 30
0.0
 10
12.4949156013
 20
9.3975246097
 30
0.0
 10
12.4920479431
 20
9.4008423338
 30
0.0
 10
12.4891451988
 20
9.4038946427
 30
0.0
 10
12.4862084997
 20
9.4066800391
 30
0.0
 10
12.4832390988
 20
9.4091971769
 30
0.0
 10
12.4802381238
 20
9.4114447933
 30
0.0
 10
12.4772070141
 20
9.4134214908
 30
0.0
 10
12.4751356805
 20
9.4145753738
 30
0.0
 10
12.4740974686
 20
9.4151036154
 30
0.0
  0
SPLINE
  5
38C
100
AcDbEntity
  8
0
100
AcDbSpline
 62
7
  6
CONTINUOUS
 70
0
 71
3
 72
15
 73
11
 74
0
 42
0.0000001
 43
0.0000001
 44
0.0000000001
 40
0.0
 40
0.0
 40
0.0
 40
0.0
 40
0.1419957443
 40
0.2786184937
 40
0.4100721067
 40
0.5366026121
 40
0.6585035146
 40
0.7761096801
 40
0.8898002082
 40
1.0
 40
1.0
 40
1.0
 40
1.0
 10
12.4179791963
 20
8.260984138
 30
0.0
 10
12.4169492674
 20
8.2599893031
 30
0.0
 10
12.4148899961
 20
8.2580764372
 30
0.0
 10
12.4117410827
 20
8.2553938719
 30
0.0
 10
12.4085941653
 20
8.2529557072
 30
0.0
 10
12.4054505906
 20
8.250763213
 30
0.0
 10
12.4023116096
 20
8.2488173349
 30
0.0
 10
12.3991782915
 20
8.2471190265
 30
0.0
 10
12.3960520917
 20
8.2456691977
 30
0.0
 10
12.3939431003
 20
8.2448571771
 30
0.0
 10
12.3928923583
 20
8.2444953462
 30
0.0
  0
SPLINE
  5
38D
100
AcDbEntity
  8
0
100
AcDbSpline
 62
7
  6
CONTINUOUS
 70
0
 71
3
 72
23
 73
19
 74
0
 42
0.0000001
 43
0.0000001
 44
0.0000000001
 40
0.0
 40
0.0
 40
0.0
 40
0.0
 40
0.0781363634
 40
0.1532312145
 40
0.2254044137
 40
0.2948000444
 40
0.3615918227
 40
0.425978862
 40
0.488187118
 40
0.5484703241
 40
0.6071102923
 40
0.6644171419
 40
0.7207254262
 40
0.7763893711
 40
0.8317768817
 40
0.8872617001
 40
0.9432155646
 40
1.0
 40
1.0
 40
1.0
 40
1.0
 10
12.4179791963
 20
8.4396804265
 30
0.0
 10
12.4172517047
 20
8.4389777235
 30
0.0
 10
12.4157971472
 20
8.437628111
 30
0.0
 10
12.4135716358
 20
8.4357396156
 30
0.0
 10
12.4113475963
 20
8.4340289748
 30
0.0
 10
12.4091260305
 20
8.4324971728
 30
0.0
 10
12.4069078766
 20
8.4311449095
 30
0.0
 10
12.4046939782
 20
8.4299729026
 30
0.0
 10
12.4024852339
 20
8.4289818083
 30
0.0
 10
12.4002826033
 20
8.4281722193
 30
0.0
 10
12.3980870577
 20
8.4275448042
 30
0.0
 10
12.3958996781
 20
8.4271000471
 30
0.0
 10
12.3937215978
 20
8.4268383546
 30
0.0
 10
12.3915540188
 20
8.426760098
 30
0.0
 10
12.3893982254
 20
8.426865335
 30
0.0
 10
12.3872554535
 20
8.4271540692
 30
0.0
 10
12.3851271445
 20
8.427626048
 30
0.0
 10
12.3837314061
 20
8.4280586286
 30
0.0
 10
12.3830383884
 20
8.4283036517
 30
0.0
  0
SPLINE
  5
38E
100
AcDbEntity
  8
0
100
AcDbSpline
 62
7
  6
CONTINUOUS
 70
0
 71
3
 72
71
 73
67
 74
0
 42
0.0000001
 43
0.0000001
 44
0.0000000001
 40
0.0
 40
0.0
 40
0.0
 40
0.0
 40
0.0155841267
 40
0.0311159948
 40
0.046595237
 40
0.0620238811
 40
0.0774034528
 40
0.0927362808
 40
0.108025123
 40
0.1232731726
 40
0.1384840554
 40
0.1536617766
 40
0.1688106897
 40
0.1839354524
 40
0.1990409778
 40
0.2141323823
 40
0.2292149324
 40
0.2442939895
 40
0.2593749535
 40
0.2744632036
 40
0.2895640407
 40
0.3046826304
 40
0.3198239505
 40
0.3349927386
 40
0.3501934431
 40
0.3654301773
 40
0.3807066784
 40
0.3960262749
 40
0.4113918546
 40
0.4268058385
 40
0.4422701591
 40
0.4577862482
 40
0.4733550284
 40
0.4889769089
 40
0.5046517849
 40
0.520379043
 40
0.5361575757
 40
0.5519857956
 40
0.567861654
 40
0.5837826618
 40
0.599745918
 40
0.6157481409
 40
0.631785699
 40
0.6478546447
 40
0.6639507505
 40
0.6800695507
 40
0.6962063813
 40
0.7123564198
 40
0.7285147273
 40
0.7446762932
 40
0.7608360797
 40
0.7769890647
 40
0.7931302839
 40
0.8092548751
 40
0.8253581231
 40
0.8414355003
 40
0.8574827061
 40
0.8734957059
 40
0.8894707697
 40
0.9054045141
 40
0.921293915
 40
0.9371363644
 40
0.9529297309
 40
0.9686720281
 40
0.9843627508
 40
1.0
 40
1.0
 40
1.0
 40
1.0
 10
11.0116404159
 20
7.5438510407
 30
0.0
 10
11.0116404159
 20
7.5394337028
 30
0.0
 10
11.0114242226
 20
7.530612274
 30
0.0
 10
11.0104484052
 20
7.5174357306
 30
0.0
 10
11.0088237448
 20
7.5043673945
 30
0.0
 10
11.006554307
 20
7.4914393397
 30
0.0
 10
11.0036453968
 20
7.4786824798
 30
0.0
 10
11.0001040357
 20
7.4661276504
 30
0.0
 10
10.9959387382
 20
7.4538050953
 30
0.0
 10
10.991159515
 20
7.4417445295
 30
0.0
 10
10.9857778599
 20
7.4299750404
 30
0.0
 10
10.9798067059
 20
7.4185250248
 30
0.0
 10
10.9732604442
 20
7.4074220978
 30
0.0
 10
10.9661548524
 20
7.3966930387
 30
0.0
 10
10.958507052
 20
7.3863637308
 30
0.0
 10
10.9503354668
 20
7.3764591024
 30
0.0
 10
10.9416597935
 20
7.367003056
 30
0.0
 10
10.9325009696
 20
7.3580183904
 30
0.0
 10
10.9228810877
 20
7.3495267741
 30
0.0
 10
10.9128233504
 20
7.3415486882
 30
0.0
 10
10.90235201
 20
7.3341033856
 30
0.0
 10
10.8914923358
 20
7.3272088074
 30
0.0
 10
10.880270534
 20
7.3208815568
 30
0.0
 10
10.8687136752
 20
7.3151368747
 30
0.0
 10
10.8568496317
 20
7.3099886025
 30
0.0
 10
10.8447070152
 20
7.3054491438
 30
0.0
 10
10.832315118
 20
7.301529399
 30
0.0
 10
10.819703822
 20
7.2982387836
 30
0.0
 10
10.8069035307
 20
7.2955852008
 30
0.0
 10
10.7939450969
 20
7.2935750322
 30
0.0
 10
10.7808597552
 20
7.2922130864
 30
0.0
 10
10.7676790406
 20
7.2915025964
 30
0.0
 10
10.7544347096
 20
7.29144524
 30
0.0
 10
10.7411586671
 20
7.2920411302
 30
0.0
 10
10.7278828927
 20
7.2932888171
 30
0.0
 10
10.7146393589
 20
7.2951852475
 30
0.0
 10
10.7014599554
 20
7.297725818
 30
0.0
 10
10.688376414
 20
7.3009043844
 30
0.0
 10
10.6754202371
 20
7.3047132823
 30
0.0
 10
10.6626226168
 20
7.3091433194
 30
0.0
 10
10.6500143537
 20
7.3141837913
 30
0.0
 10
10.6376257942
 20
7.3198225424
 30
0.0
 10
10.6254867571
 20
7.3260459858
 30
0.0
 10
10.6136264677
 20
7.3328391408
 30
0.0
 10
10.6020734653
 20
7.3401856296
 30
0.0
 10
10.5908555493
 20
7.3480677493
 30
0.0
 10
10.5799997174
 20
7.3564665192
 30
0.0
 10
10.5695321043
 20
7.3653617266
 30
0.0
 10
10.5594779107
 20
7.374731961
 30
0.0
 10
10.5498613246
 20
7.3845546513
 30
0.0
 10
10.540705491
 20
7.3948061512
 30
0.0
 10
10.5320324522
 20
7.4054617884
 30
0.0
 10
10.5238631036
 20
7.4164959269
 30
0.0
 10
10.5162171094
 20
7.4278820034
 30
0.0
 10
10.5091128718
 20
7.4395926074
 30
0.0
 10
10.5025675007
 20
7.4515995553
 30
0.0
 10
10.4965967731
 20
7.4638739539
 30
0.0
 10
10.4912150899
 20
7.4763862654
 30
0.0
 10
10.4864354052
 20
7.4891063659
 30
0.0
 10
10.4822692432
 20
7.5020036373
 30
0.0
 10
10.4787266542
 20
7.5150470319
 30
0.0
 10
10.4758161997
 20
7.5282051748
 30
0.0
 10
10.4735449555
 20
7.5414463019
 30
0.0
 10
10.4719182889
 20
7.5547387809
 30
0.0
 10
10.4709403267
 20
7.5680500132
 30
0.0
 10
10.4707219211
 20
7.5769314702
 30
0.0
 10
10.4707219211
 20
7.5813638657
 30
0.0
  0
SPLINE
  5
38F
100
AcDbEntity
  8
0
100
AcDbSpline
 62
7
  6
CONTINUOUS
 70
0
 71
3
 72
91
 73
87
 74
0
 42
0.0000001
 43
0.0000001
 44
0.0000000001
 40
0.0
 40
0.0
 40
0.0
 40
0.0
 40
0.0027164149
 40
0.0054532017
 40
0.0082302519
 40
0.0110665199
 40
0.0139797039
 40
0.0169859829
 40
0.0200999141
 40
0.0233344008
 40
0.0267007145
 40
0.0302086362
 40
0.0338665065
 40
0.0376814358
 40
0.0416593677
 40
0.0458052497
 40
0.0501231396
 40
0.0546162795
 40
0.059287253
 40
0.0641379749
 40
0.0691698569
 40
0.0743837851
 40
0.0797802236
 40
0.0853592475
 40
0.091120549
 40
0.0970635401
 40
0.1031872872
 40
0.1094906342
 40
0.122629771
 40
0.1364673248
 40
0.150986028
 40
0.1661658166
 40
0.1819841497
 40
0.1984162706
 40
0.2154354241
 40
0.2330130434
 40
0.251118914
 40
0.2697213196
 40
0.2887871741
 40
0.3082821495
 40
0.3281707942
 40
0.3484166458
 40
0.3689823383
 40
0.3898297074
 40
0.4109198931
 40
0.4322134396
 40
0.4536703979
 40
0.4752504252
 40
0.496912883
 40
0.5186169358
 40
0.5403216477
 40
0.5619860811
 40
0.5835693946
 40
0.6050309417
 40
0.6263303693
 40
0.647427715
 40
0.6682835069
 40
0.6888588628
 40
0.7091155924
 40
0.7290163019
 40
0.7485244988
 40
0.7676046989
 40
0.7862225381
 40
0.8043448897
 40
0.8219399883
 40
0.8389775652
 40
0.8554289983
 40
0.8712674731
 40
0.8864681675
 40
0.9010084679
 40
0.9148682273
 40
0.928030078
 40
0.9343449249
 40
0.9404802778
 40
0.9464349222
 40
0.9522079436
 40
0.9577987067
 40
0.9632068911
 40
0.9684325654
 40
0.9734761401
 40
0.9783384911
 40
0.9830209352
 40
0.9875254368
 40
0.9918546053
 40
0.9960115672
 40
1.0
 40
1.0
 40
1.0
 40
1.0
 10
12.4897070974
 20
9.4173231465
 30
0.0
 10
12.4908082604
 20
9.4172467856
 30
0.0
 10
12.4930132058
 20
9.4169938251
 30
0.0
 10
12.496292564
 20
9.4163169358
 30
0.0
 10
12.4995471208
 20
9.4153426118
 30
0.0
 10
12.5027745967
 20
9.414071914
 30
0.0
 10
12.5059732807
 20
9.412505866
 30
0.0
 10
12.5091415668
 20
9.4106457669
 30
0.0
 10
12.5122779828
 20
9.4084929114
 30
0.0
 10
12.5153811188
 20
9.4060486522
 30
0.0
 10
12.5184496771
 20
9.4033144595
 30
0.0
 10
12.521482272
 20
9.4002917677
 30
0.0
 10
12.5244776483
 20
9.3969822141
 30
0.0
 10
12.5274344169
 20
9.3933874286
 30
0.0
 10
12.5303512779
 20
9.3895092335
 30
0.0
 10
12.5332268734
 20
9.3853495348
 30
0.0
 10
12.5360598348
 20
9.3809103737
 30
0.0
 10
12.5388488551
 20
9.3761939541
 30
0.0
 10
12.5415925296
 20
9.3712025736
 30
0.0
 10
12.5442895848
 20
9.3659387219
 30
0.0
 10
12.5469386427
 20
9.3604049825
 30
0.0
 10
12.5495384293
 20
9.3546041117
 30
0.0
 10
12.5520876442
 20
9.3485389868
 30
0.0
 10
12.5545850012
 20
9.3422126238
 30
0.0
 10
12.5570292903
 20
9.335628183
 30
0.0
 10
12.559419231
 20
9.3287889436
 30
0.0
 10
12.5617536998
 20
9.3216983232
 30
0.0
 10
12.5648333522
 20
9.3117760764
 30
0.0
 10
12.5685248786
 20
9.298763984
 30
0.0
 10
12.5726563316
 20
9.2824143369
 30
0.0
 10
12.5765400811
 20
9.2651532512
 30
0.0
 10
12.5801682479
 20
9.2470153314
 30
0.0
 10
12.58353345
 20
9.2280368037
 30
0.0
 10
12.5866288403
 20
9.208255689
 30
0.0
 10
12.589448118
 20
9.1877116407
 30
0.0
 10
12.591985544
 20
9.1664458781
 30
0.0
 10
12.5942359521
 20
9.1445010921
 30
0.0
 10
12.5961947592
 20
9.121921358
 30
0.0
 10
12.5978579781
 20
9.0987520434
 30
0.0
 10
12.5992222218
 20
9.075039713
 30
0.0
 10
12.6002847092
 20
9.0508320316
 30
0.0
 10
12.6010432709
 20
9.026177666
 30
0.0
 10
12.6014963526
 20
9.0011261866
 30
0.0
 10
12.6016430183
 20
8.975727967
 30
0.0
 10
12.6014829515
 20
8.9500340822
 30
0.0
 10
12.6010164589
 20
8.9240962057
 30
0.0
 10
12.6002444667
 20
8.8979665038
 30
0.0
 10
12.599168518
 20
8.8716975295
 30
0.0
 10
12.5977907699
 20
8.8453421166
 30
0.0
 10
12.5961139888
 20
8.8189532736
 30
0.0
 10
12.594141545
 20
8.7925840766
 30
0.0
 10
12.5918774056
 20
8.7662875627
 30
0.0
 10
12.5893261296
 20
8.7401166219
 30
0.0
 10
12.5864928564
 20
8.7141238899
 30
0.0
 10
12.5833832945
 20
8.6883616424
 30
0.0
 10
12.5800037107
 20
8.6628816897
 30
0.0
 10
12.5763609173
 20
8.6377352722
 30
0.0
 10
12.5724622589
 20
8.6129729573
 30
0.0
 10
12.5683155975
 20
8.5886445356
 30
0.0
 10
12.5639292999
 20
8.5647989191
 30
0.0
 10
12.5593122183
 20
8.5414840414
 30
0.0
 10
12.5544736725
 20
8.5187467614
 30
0.0
 10
12.5494234315
 20
8.4966327677
 30
0.0
 10
12.5441716942
 20
8.475186485
 30
0.0
 10
12.5387290686
 20
8.454450982
 30
0.0
 10
12.5331065502
 20
8.4344678792
 30
0.0
 10
12.5273155027
 20
8.4152772606
 30
0.0
 10
12.5213676305
 20
8.3969175818
 30
0.0
 10
12.515274954
 20
8.3794256084
 30
0.0
 10
12.5090497784
 20
8.3628362563
 30
0.0
 10
12.5027046717
 20
8.3471827745
 30
0.0
 10
12.4972552522
 20
8.3347784963
 30
0.0
 10
12.4928375586
 20
8.3253547824
 30
0.0
 10
12.4895480547
 20
8.3186378748
 30
0.0
 10
12.4862381634
 20
8.3121773989
 30
0.0
 10
12.4829095403
 20
8.3059765715
 30
0.0
 10
12.4795638599
 20
8.3000384874
 30
0.0
 10
12.4762027665
 20
8.2943661144
 30
0.0
 10
12.472827974
 20
8.2889622555
 30
0.0
 10
12.4694411054
 20
8.2838296254
 30
0.0
 10
12.4660439057
 20
8.2789707529
 30
0.0
 10
12.4626380031
 20
8.274388055
 30
0.0
 10
12.4592250522
 20
8.2700837605
 30
0.0
 10
12.4558066491
 20
8.2660599565
 30
0.0
 10
12.4523846032
 20
8.2623188268
 30
0.0
 10
12.4500545128
 20
8.2599665158
 30
0.0
 10
12.4488888253
 20
8.258840548
 30
0.0
  0
SPLINE
  5
390
100
AcDbEntity
  8
0
100
AcDbSpline
 62
7
  6
CONTINUOUS
 70
0
 71
3
 72
71
 73
67
 74
0
 42
0.0000001
 43
0.0000001
 44
0.0000000001
 40
0.0
 40
0.0
 40
0.0
 40
0.0
 40
0.0155841267
 40
0.0311159948
 40
0.046595237
 40
0.0620238811
 40
0.0774034528
 40
0.0927362808
 40
0.108025123
 40
0.1232731726
 40
0.1384840554
 40
0.1536617766
 40
0.1688106897
 40
0.1839354524
 40
0.1990409778
 40
0.2141323823
 40
0.2292149324
 40
0.2442939895
 40
0.2593749535
 40
0.2744632036
 40
0.2895640407
 40
0.3046826304
 40
0.3198239505
 40
0.3349927386
 40
0.3501934431
 40
0.3654301773
 40
0.3807066784
 40
0.3960262749
 40
0.4113918546
 40
0.4268058385
 40
0.4422701591
 40
0.4577862482
 40
0.4733550284
 40
0.4889769089
 40
0.5046517849
 40
0.520379043
 40
0.5361575757
 40
0.5519857956
 40
0.567861654
 40
0.5837826618
 40
0.599745918
 40
0.6157481409
 40
0.631785699
 40
0.6478546447
 40
0.6639507505
 40
0.6800695507
 40
0.6962063813
 40
0.7123564198
 40
0.7285147273
 40
0.7446762932
 40
0.7608360797
 40
0.7769890647
 40
0.7931302839
 40
0.8092548751
 40
0.8253581231
 40
0.8414355003
 40
0.8574827061
 40
0.8734957059
 40
0.8894707697
 40
0.9054045141
 40
0.921293915
 40
0.9371363644
 40
0.9529297309
 40
0.9686720281
 40
0.9843627508
 40
1.0
 40
1.0
 40
1.0
 40
1.0
 10
10.4707219211
 20
7.5813638657
 30
0.0
 10
10.4707219211
 20
7.5857812036
 30
0.0
 10
10.4709381144
 20
7.5946026324
 30
0.0
 10
10.4719139318
 20
7.6077791758
 30
0.0
 10
10.4735385922
 20
7.6208475119
 30
0.0
 10
10.47580803
 20
7.6337755668
 30
0.0
 10
10.4787169402
 20
7.6465324267
 30
0.0
 10
10.4822583013
 20
7.659087256
 30
0.0
 10
10.4864235988
 20
7.6714098112
 30
0.0
 10
10.491202822
 20
7.6834703769
 30
0.0
 10
10.496584477
 20
7.6952398661
 30
0.0
 10
10.5025556311
 20
7.7066898817
 30
0.0
 10
10.5091018928
 20
7.7177928086
 30
0.0
 10
10.5162074846
 20
7.7285218678
 30
0.0
 10
10.523855285
 20
7.7388511757
 30
0.0
 10
10.5320268702
 20
7.7487558041
 30
0.0
 10
10.5407025434
 20
7.7582118504
 30
0.0
 10
10.5498613674
 20
7.7671965161
 30
0.0
 10
10.5594812493
 20
7.7756881324
 30
0.0
 10
10.5695389866
 20
7.7836662182
 30
0.0
 10
10.580010327
 20
7.7911115208
 30
0.0
 10
10.5908700012
 20
7.798006099
 30
0.0
 10
10.6020918029
 20
7.8043333496
 30
0.0
 10
10.6136486618
 20
7.8100780317
 30
0.0
 10
10.6255127053
 20
7.8152263039
 30
0.0
 10
10.6376553218
 20
7.8197657626
 30
0.0
 10
10.650047219
 20
7.8236855074
 30
0.0
 10
10.662658515
 20
7.8269761228
 30
0.0
 10
10.6754588063
 20
7.8296297056
 30
0.0
 10
10.68841724
 20
7.8316398743
 30
0.0
 10
10.7015025818
 20
7.83300182
 30
0.0
 10
10.7146832964
 20
7.83371231
 30
0.0
 10
10.7279276274
 20
7.8337696664
 30
0.0
 10
10.7412036699
 20
7.8331737762
 30
0.0
 10
10.7544794443
 20
7.8319260893
 30
0.0
 10
10.767722978
 20
7.8300296589
 30
0.0
 10
10.7809023816
 20
7.8274890884
 30
0.0
 10
10.793985923
 20
7.824310522
 30
0.0
 10
10.8069420999
 20
7.8205016241
 30
0.0
 10
10.8197397202
 20
7.8160715871
 30
0.0
 10
10.8323479833
 20
7.8110311151
 30
0.0
 10
10.8447365428
 20
7.805392364
 30
0.0
 10
10.8568755799
 20
7.7991689206
 30
0.0
 10
10.8687358693
 20
7.7923757656
 30
0.0
 10
10.8802888717
 20
7.7850292768
 30
0.0
 10
10.8915067876
 20
7.7771471571
 30
0.0
 10
10.9023626196
 20
7.7687483872
 30
0.0
 10
10.9128302327
 20
7.7598531799
 30
0.0
 10
10.9228844262
 20
7.7504829454
 30
0.0
 10
10.9325010123
 20
7.7406602552
 30
0.0
 10
10.941656846
 20
7.7304087552
 30
0.0
 10
10.9503298848
 20
7.7197531181
 30
0.0
 10
10.9584992334
 20
7.7087189795
 30
0.0
 10
10.9661452276
 20
7.697332903
 30
0.0
 10
10.9732494652
 20
7.685622299
 30
0.0
 10
10.9797948362
 20
7.6736153512
 30
0.0
 10
10.9857655639
 20
7.6613409526
 30
0.0
 10
10.9911472471
 20
7.648828641
 30
0.0
 10
10.9959269318
 20
7.6361085405
 30
0.0
 10
11.0000930938
 20
7.6232112691
 30
0.0
 10
11.0036356828
 20
7.6101678746
 30
0.0
 10
11.0065461373
 20
7.5970097316
 30
0.0
 10
11.0088173815
 20
7.5837686045
 30
0.0
 10
11.0104440481
 20
7.5704761255
 30
0.0
 10
11.0114220103
 20
7.5571648932
 30
0.0
 10
11.0116404159
 20
7.5482834363
 30
0.0
 10
11.0116404159
 20
7.5438510407
 30
0.0
  0
SPLINE
  5
391
100
AcDbEntity
  8
0
100
AcDbSpline
 62
7
  6
CONTINUOUS
 70
0
 71
3
 72
20
 73
16
 74
0
 42
0.0000001
 43
0.0000001
 44
0.0000000001
 40
0.0
 40
0.0
 40
0.0
 40
0.0
 40
0.1504572429
 40
0.2222009552
 40
0.2917179917
 40
0.4244350495
 40
0.4878976342
 40
0.5495926289
 40
0.6682362658
 40
0.7255681682
 40
0.781805938
 40
0.8371511931
 40
0.8918166409
 40
0.9460237365
 40
1.0
 40
1.0
 40
1.0
 40
1.0
 10
12.4488888253
 20
8.258840548
 30
0.0
 10
12.4472208453
 20
8.257229403
 30
0.0
 10
12.4446810866
 20
8.2549262926
 30
0.0
 10
12.4411848035
 20
8.2520975546
 30
0.0
 10
12.4377989599
 20
8.2495725974
 30
0.0
 10
12.4343653356
 20
8.247328845
 30
0.0
 10
12.4308885758
 20
8.2453995163
 30
0.0
 10
12.4275143291
 20
8.2437430943
 30
0.0
 10
12.4241005836
 20
8.2423891451
 30
0.0
 10
12.4206676355
 20
8.2413702662
 30
0.0
 10
12.4181294073
 20
8.2407829687
 30
0.0
 10
12.4155996235
 20
8.240364386
 30
0.0
 10
12.4130789615
 20
8.2401146756
 30
0.0
 10
12.4105684344
 20
8.2400339536
 30
0.0
 10
12.4089005113
 20
8.240092938
 30
0.0
 10
12.4080705532
 20
8.240150492
 30
0.0
  0
SPLINE
  5
392
100
AcDbEntity
  8
0
100
AcDbSpline
 62
7
  6
CONTINUOUS
 70
0
 71
3
 72
96
 73
92
 74
0
 42
0.0000001
 43
0.0000001
 44
0.0000000001
 40
0.0
 40
0.0
 40
0.0
 40
0.0
 40
0.0041939212
 40
0.0085762269
 40
0.0131520052
 40
0.0179255503
 40
0.0229003895
 40
0.0280791136
 40
0.0334634798
 40
0.039054619
 40
0.0448530484
 40
0.0508588136
 40
0.0570714162
 40
0.0634899855
 40
0.0701132151
 40
0.0769394762
 40
0.0911924427
 40
0.1062302232
 40
0.1220294549
 40
0.1385631627
 40
0.1558011854
 40
0.173710526
 40
0.1922556446
 40
0.2113987132
 40
0.2310998404
 40
0.2513172756
 40
0.2720075971
 40
0.2931258893
 40
0.3146259101
 40
0.3364602548
 40
0.358580515
 40
0.380937433
 40
0.4034810543
 40
0.4261608786
 40
0.4489260088
 40
0.4717253002
 40
0.4945075089
 40
0.5172214402
 40
0.5398160978
 40
0.5622408322
 40
0.5844454903
 40
0.6063805658
 40
0.6279973504
 40
0.649248088
 40
0.6700861315
 40
0.6904661036
 40
0.7103440641
 40
0.7296776851
 40
0.7484264339
 40
0.7665517712
 40
0.7840173684
 40
0.8007893512
 40
0.8168365781
 40
0.8321309695
 40
0.8466479033
 40
0.8536084389
 40
0.8603672363
 40
0.8669224108
 40
0.8732724521
 40
0.8794161948
 40
0.8853528766
 40
0.891082198
 40
0.8966043145
 40
0.9019199826
 40
0.9070305141
 40
0.9119379754
 40
0.9166451634
 40
0.9211558052
 40
0.925474617
 40
0.9296074706
 40
0.9335615598
 40
0.9373455271
 40
0.9409697129
 40
0.9444462457
 40
0.9477892864
 40
0.9510150553
 40
0.9541419228
 40
0.9571902809
 40
0.9601823275
 40
0.9631416685
 40
0.9660927703
 40
0.969060322
 40
0.9720685748
 40
0.9751407156
 40
0.9782983924
 40
0.981561316
 40
0.9849471178
 40
0.9884713701
 40
0.9921476423
 40
0.9959874147
 40
1.0
 40
1.0
 40
1.0
 40
1.0
 10
10.2774874422
 20
10.36929133
 30
0.0
 10
10.2784982996
 20
10.3702677433
 30
0.0
 10
10.2806156862
 20
10.3722129087
 30
0.0
 10
10.2839926749
 20
10.3750469741
 30
0.0
 10
10.2876370054
 20
10.3778585132
 30
0.0
 10
10.2915463098
 20
10.380645786
 30
0.0
 10
10.2957183413
 20
10.3834072352
 30
0.0
 10
10.3001506549
 20
10.3861412852
 30
0.0
 10
10.3048406289
 20
10.3888463458
 30
0.0
 10
10.3097854864
 20
10.3915207717
 30
0.0
 10
10.3149822688
 20
10.3941630279
 30
0.0
 10
10.3204279035
 20
10.3967714864
 30
0.0
 10
10.3261191273
 20
10.3993446473
 30
0.0
 10
10.3320525525
 20
10.4018809107
 30
0.0
 10
10.3382246276
 20
10.4043788169
 30
0.0
 10
10.3468924682
 20
10.4077040732
 30
0.0
 10
10.3583041279
 20
10.4117436292
 30
0.0
 10
10.3726978476
 20
10.4163476542
 30
0.0
 10
10.3879473975
 20
10.4207642757
 30
0.0
 10
10.4040161883
 20
10.4249827914
 30
0.0
 10
10.4208658004
 20
10.4289929657
 30
0.0
 10
10.4384558214
 20
10.4327850659
 30
0.0
 10
10.4567440342
 20
10.4363498884
 30
0.0
 10
10.475686505
 20
10.4396787826
 30
0.0
 10
10.4952377024
 20
10.4427636723
 30
0.0
 10
10.5153506103
 20
10.4455970753
 30
0.0
 10
10.5359768453
 20
10.4481721213
 30
0.0
 10
10.5570667759
 20
10.4504825676
 30
0.0
 10
10.578569644
 20
10.4525228156
 30
0.0
 10
10.6004336897
 20
10.4542879229
 30
0.0
 10
10.6226062779
 20
10.4557736142
 30
0.0
 10
10.6450340263
 20
10.4569762915
 30
0.0
 10
10.6676629352
 20
10.4578930425
 30
0.0
 10
10.6904385178
 20
10.4585216474
 30
0.0
 10
10.7133059323
 20
10.4588605841
 30
0.0
 10
10.7362101146
 20
10.4589090315
 30
0.0
 10
10.7590959111
 20
10.4586668716
 30
0.0
 10
10.7819082128
 20
10.4581346908
 30
0.0
 10
10.8045920887
 20
10.4573137783
 30
0.0
 10
10.8270929188
 20
10.4562061221
 30
0.0
 10
10.8493565267
 20
10.4548144045
 30
0.0
 10
10.8713293098
 20
10.453141996
 30
0.0
 10
10.8929583703
 20
10.4511929473
 30
0.0
 10
10.9141916429
 20
10.44897198
 30
0.0
 10
10.9349780216
 20
10.4464844755
 30
0.0
 10
10.9552674848
 20
10.4437364622
 30
0.0
 10
10.9750112188
 20
10.4407346023
 30
0.0
 10
10.9941617383
 20
10.4374861763
 30
0.0
 10
11.0126730045
 20
10.4339990647
 30
0.0
 10
11.0305005385
 20
10.4302817292
 30
0.0
 10
11.0476015405
 20
10.426343192
 30
0.0
 10
11.0639349801
 20
10.4221930116
 30
0.0
 10
11.0794617797
 20
10.4178412617
 30
0.0
 10
11.0941446661
 20
10.4132984857
 30
0.0
 10
11.105805953
 20
10.4093089479
 30
0.0
 10
11.1146793963
 20
10.4060220387
 30
0.0
 10
11.121008533
 20
10.4035505792
 30
0.0
 10
11.1271014601
 20
10.4010397272
 30
0.0
 10
11.1329545433
 20
10.3984909919
 30
0.0
 10
11.1385642806
 20
10.395905901
 30
0.0
 10
11.1439273193
 20
10.3932859896
 30
0.0
 10
11.1490404729
 20
10.3906328519
 30
0.0
 10
11.1539006825
 20
10.3879480208
 30
0.0
 10
11.158505085
 20
10.3852331439
 30
0.0
 10
11.1628509261
 20
10.3824897571
 30
0.0
 10
11.1669356645
 20
10.3797195236
 30
0.0
 10
11.1707568656
 20
10.3769239971
 30
0.0
 10
11.1743122936
 20
10.3741048097
 30
0.0
 10
11.177599844
 20
10.3712635376
 30
0.0
 10
11.1806175558
 20
10.3684017455
 30
0.0
 10
11.1833636443
 20
10.3655210197
 30
0.0
 10
11.1858363752
 20
10.3626228476
 30
0.0
 10
11.1880342331
 20
10.3597088102
 30
0.0
 10
11.1899556517
 20
10.356780363
 30
0.0
 10
11.1915992895
 20
10.3538391079
 30
0.0
 10
11.1929637187
 20
10.3508866051
 30
0.0
 10
11.1940477059
 20
10.3479246069
 30
0.0
 10
11.1948500559
 20
10.344954987
 30
0.0
 10
11.1953697691
 20
10.3419798368
 30
0.0
 10
11.195606183
 20
10.3390014439
 30
0.0
 10
11.1955588716
 20
10.3360222296
 30
0.0
 10
11.1952280127
 20
10.3330446506
 30
0.0
 10
11.1946139645
 20
10.3300711063
 30
0.0
 10
11.1937176467
 20
10.3271037937
 30
0.0
 10
11.1925400213
 20
10.3241447645
 30
0.0
 10
11.1910823874
 20
10.3211958315
 30
0.0
 10
11.1893460324
 20
10.3182586777
 30
0.0
 10
11.1873323035
 20
10.3153348643
 30
0.0
 10
11.1850426019
 20
10.3124258713
 30
0.0
 10
11.1824785872
 20
10.3095334165
 30
0.0
 10
11.1806293264
 20
10.307659495
 30
0.0
 10
11.1796621762
 20
10.3067252997
 30
0.0
  0
SPLINE
  5
393
100
AcDbEntity
  8
0
100
AcDbSpline
 62
4
  6
CONTINUOUS
 70
0
 71
3
 72
615
 73
611
 74
0
 42
0.0000001
 43
0.0000001
 44
0.0000000001
 40
0.0
 40
0.0
 40
0.0
 40
0.0
 40
0.0078125
 40
0.015625
 40
0.0234375
 40
0.03125
 40
0.03515625
 40
0.0390625
 40
0.04296875
 40
0.046875
 40
0.05078125
 40
0.052734375
 40
0.0546875
 40
0.056640625
 40
0.0576171875
 40
0.05859375
 40
0.0595703125
 40
0.060546875
 40
0.0610351562
 40
0.0615234375
 40
0.0617675781
 40
0.0620117188
 40
0.0622558594
 40
0.0623779297
 40
0.0624389648
 40
0.0625
 40
0.0625610352
 40
0.0626220703
 40
0.0627441406
 40
0.0629882812
 40
0.0632324219
 40
0.0634765625
 40
0.0639648438
 40
0.064453125
 40
0.0654296875
 40
0.06640625
 40
0.0673828125
 40
0.068359375
 40
0.0703125
 40
0.072265625
 40
0.07421875
 40
0.078125
 40
0.08203125
 40
0.0859375
 40
0.08984375
 40
0.09375
 40
0.09765625
 40
0.1015625
 40
0.10546875
 40
0.109375
 40
0.11328125
 40
0.115234375
 40
0.1171875
 40
0.119140625
 40
0.1201171875
 40
0.12109375
 40
0.1220703125
 40
0.123046875
 40
0.1235351562
 40
0.1240234375
 40
0.1242675781
 40
0.1245117188
 40
0.1247558594
 40
0.1248779297
 40
0.1249389648
 40
0.125
 40
0.1250610352
 40
0.1251220703
 40
0.1252441406
 40
0.1254882812
 40
0.1257324219
 40
0.1259765625
 40
0.1264648438
 40
0.126953125
 40
0.1279296875
 40
0.12890625
 40
0.1298828125
 40
0.130859375
 40
0.1328125
 40
0.134765625
 40
0.13671875
 40
0.140625
 40
0.14453125
 40
0.1484375
 40
0.15234375
 40
0.15625
 40
0.16015625
 40
0.1640625
 40
0.16796875
 40
0.171875
 40
0.17578125
 40
0.177734375
 40
0.1796875
 40
0.181640625
 40
0.1826171875
 40
0.18359375
 40
0.1845703125
 40
0.185546875
 40
0.1860351562
 40
0.1865234375
 40
0.1867675781
 40
0.1870117188
 40
0.1872558594
 40
0.1873779297
 40
0.1874389648
 40
0.1875
 40
0.1875610352
 40
0.1876220703
 40
0.1877441406
 40
0.1879882812
 40
0.1882324219
 40
0.1884765625
 40
0.1889648438
 40
0.189453125
 40
0.1904296875
 40
0.19140625
 40
0.1923828125
 40
0.193359375
 40
0.1953125
 40
0.197265625
 40
0.19921875
 40
0.203125
 40
0.20703125
 40
0.2109375
 40
0.21484375
 40
0.21875
 40
0.22265625
 40
0.2265625
 40
0.23046875
 40
0.234375
 40
0.23828125
 40
0.240234375
 40
0.2421875
 40
0.244140625
 40
0.2451171875
 40
0.24609375
 40
0.2470703125
 40
0.248046875
 40
0.2485351562
 40
0.2490234375
 40
0.2492675781
 40
0.2495117188
 40
0.2497558594
 40
0.2498779297
 40
0.2499389648
 40
0.25
 40
0.2500610352
 40
0.2501220703
 40
0.2502441406
 40
0.2504882812
 40
0.2507324219
 40
0.2509765625
 40
0.2514648438
 40
0.251953125
 40
0.2529296875
 40
0.25390625
 40
0.2548828125
 40
0.255859375
 40
0.2578125
 40
0.259765625
 40
0.26171875
 40
0.265625
 40
0.26953125
 40
0.2734375
 40
0.27734375
 40
0.28125
 40
0.28515625
 40
0.2890625
 40
0.29296875
 40
0.296875
 40
0.30078125
 40
0.302734375
 40
0.3046875
 40
0.306640625
 40
0.3076171875
 40
0.30859375
 40
0.3095703125
 40
0.310546875
 40
0.3110351562
 40
0.3115234375
 40
0.3117675781
 40
0.3120117188
 40
0.3122558594
 40
0.3123779297
 40
0.3124389648
 40
0.3125
 40
0.3125610352
 40
0.3126220703
 40
0.3127441406
 40
0.3129882812
 40
0.3132324219
 40
0.3134765625
 40
0.3139648438
 40
0.314453125
 40
0.3154296875
 40
0.31640625
 40
0.3173828125
 40
0.318359375
 40
0.3203125
 40
0.322265625
 40
0.32421875
 40
0.328125
 40
0.33203125
 40
0.3359375
 40
0.33984375
 40
0.34375
 40
0.34765625
 40
0.3515625
 40
0.35546875
 40
0.359375
 40
0.36328125
 40
0.365234375
 40
0.3671875
 40
0.369140625
 40
0.3701171875
 40
0.37109375
 40
0.3720703125
 40
0.373046875
 40
0.3735351562
 40
0.3740234375
 40
0.3742675781
 40
0.3745117188
 40
0.3747558594
 40
0.3748779297
 40
0.3749389648
 40
0.375
 40
0.3750610352
 40
0.3751220703
 40
0.3752441406
 40
0.3754882812
 40
0.3757324219
 40
0.3759765625
 40
0.3764648438
 40
0.376953125
 40
0.3779296875
 40
0.37890625
 40
0.3798828125
 40
0.380859375
 40
0.3828125
 40
0.384765625
 40
0.38671875
 40
0.390625
 40
0.39453125
 40
0.3984375
 40
0.40234375
 40
0.40625
 40
0.41015625
 40
0.4140625
 40
0.41796875
 40
0.421875
 40
0.42578125
 40
0.427734375
 40
0.4296875
 40
0.431640625
 40
0.4326171875
 40
0.43359375
 40
0.4345703125
 40
0.435546875
 40
0.4360351562
 40
0.4365234375
 40
0.4367675781
 40
0.4370117188
 40
0.4372558594
 40
0.4373779297
 40
0.4374389648
 40
0.4375
 40
0.4375610352
 40
0.4376220703
 40
0.4377441406
 40
0.4379882812
 40
0.4382324219
 40
0.4384765625
 40
0.4389648438
 40
0.439453125
 40
0.4404296875
 40
0.44140625
 40
0.4423828125
 40
0.443359375
 40
0.4453125
 40
0.447265625
 40
0.44921875
 40
0.453125
 40
0.45703125
 40
0.4609375
 40
0.46484375
 40
0.46875
 40
0.47265625
 40
0.4765625
 40
0.48046875
 40
0.484375
 40
0.48828125
 40
0.490234375
 40
0.4921875
 40
0.494140625
 40
0.4951171875
 40
0.49609375
 40
0.4970703125
 40
0.498046875
 40
0.4985351562
 40
0.4990234375
 40
0.4992675781
 40
0.4995117188
 40
0.4997558594
 40
0.4998779297
 40
0.4999389648
 40
0.5
 40
0.5000610352
 40
0.5001220703
 40
0.5002441406
 40
0.5004882812
 40
0.5007324219
 40
0.5009765625
 40
0.5014648438
 40
0.501953125
 40
0.5029296875
 40
0.50390625
 40
0.5048828125
 40
0.505859375
 40
0.5078125
 40
0.509765625
 40
0.51171875
 40
0.515625
 40
0.51953125
 40
0.5234375
 40
0.52734375
 40
0.53125
 40
0.53515625
 40
0.5390625
 40
0.54296875
 40
0.546875
 40
0.55078125
 40
0.552734375
 40
0.5546875
 40
0.556640625
 40
0.5576171875
 40
0.55859375
 40
0.5595703125
 40
0.560546875
 40
0.5610351562
 40
0.5615234375
 40
0.5617675781
 40
0.5620117188
 40
0.5622558594
 40
0.5623779297
 40
0.5624389648
 40
0.5625
 40
0.5625610352
 40
0.5626220703
 40
0.5627441406
 40
0.5629882812
 40
0.5632324219
 40
0.5634765625
 40
0.5639648438
 40
0.564453125
 40
0.5654296875
 40
0.56640625
 40
0.5673828125
 40
0.568359375
 40
0.5703125
 40
0.572265625
 40
0.57421875
 40
0.578125
 40
0.58203125
 40
0.5859375
 40
0.58984375
 40
0.59375
 40
0.59765625
 40
0.6015625
 40
0.60546875
 40
0.609375
 40
0.61328125
 40
0.615234375
 40
0.6171875
 40
0.619140625
 40
0.6201171875
 40
0.62109375
 40
0.6220703125
 40
0.623046875
 40
0.6235351562
 40
0.6240234375
 40
0.6242675781
 40
0.6245117188
 40
0.6247558594
 40
0.6248779297
 40
0.6249389648
 40
0.625
 40
0.6250610352
 40
0.6251220703
 40
0.6252441406
 40
0.6254882812
 40
0.6257324219
 40
0.6259765625
 40
0.6264648438
 40
0.626953125
 40
0.6279296875
 40
0.62890625
 40
0.6298828125
 40
0.630859375
 40
0.6328125
 40
0.634765625
 40
0.63671875
 40
0.640625
 40
0.64453125
 40
0.6484375
 40
0.65234375
 40
0.65625
 40
0.66015625
 40
0.6640625
 40
0.66796875
 40
0.671875
 40
0.67578125
 40
0.677734375
 40
0.6796875
 40
0.681640625
 40
0.6826171875
 40
0.68359375
 40
0.6845703125
 40
0.685546875
 40
0.6860351562
 40
0.6865234375
 40
0.6867675781
 40
0.6870117188
 40
0.6872558594
 40
0.6873779297
 40
0.6874389648
 40
0.6875
 40
0.6875610352
 40
0.6876220703
 40
0.6877441406
 40
0.6879882812
 40
0.6882324219
 40
0.6884765625
 40
0.6889648438
 40
0.689453125
 40
0.6904296875
 40
0.69140625
 40
0.6923828125
 40
0.693359375
 40
0.6953125
 40
0.697265625
 40
0.69921875
 40
0.703125
 40
0.70703125
 40
0.7109375
 40
0.71484375
 40
0.71875
 40
0.72265625
 40
0.7265625
 40
0.73046875
 40
0.734375
 40
0.73828125
 40
0.740234375
 40
0.7421875
 40
0.744140625
 40
0.7451171875
 40
0.74609375
 40
0.7470703125
 40
0.748046875
 40
0.7485351562
 40
0.7490234375
 40
0.7492675781
 40
0.7495117188
 40
0.7497558594
 40
0.7498779297
 40
0.7499389648
 40
0.75
 40
0.7500610352
 40
0.7501220703
 40
0.7502441406
 40
0.7504882812
 40
0.7507324219
 40
0.7509765625
 40
0.7514648438
 40
0.751953125
 40
0.7529296875
 40
0.75390625
 40
0.7548828125
 40
0.755859375
 40
0.7578125
 40
0.759765625
 40
0.76171875
 40
0.765625
 40
0.76953125
 40
0.7734375
 40
0.77734375
 40
0.78125
 40
0.78515625
 40
0.7890625
 40
0.79296875
 40
0.796875
 40
0.80078125
 40
0.802734375
 40
0.8046875
 40
0.806640625
 40
0.8076171875
 40
0.80859375
 40
0.8095703125
 40
0.810546875
 40
0.8110351562
 40
0.8115234375
 40
0.8117675781
 40
0.8120117188
 40
0.8122558594
 40
0.8123779297
 40
0.8124389648
 40
0.8125
 40
0.8125610352
 40
0.8126220703
 40
0.8127441406
 40
0.8129882812
 40
0.8132324219
 40
0.8134765625
 40
0.8139648438
 40
0.814453125
 40
0.8154296875
 40
0.81640625
 40
0.8173828125
 40
0.818359375
 40
0.8203125
 40
0.822265625
 40
0.82421875
 40
0.828125
 40
0.83203125
 40
0.8359375
 40
0.83984375
 40
0.84375
 40
0.84765625
 40
0.8515625
 40
0.85546875
 40
0.859375
 40
0.86328125
 40
0.865234375
 40
0.8671875
 40
0.869140625
 40
0.8701171875
 40
0.87109375
 40
0.8720703125
 40
0.873046875
 40
0.8735351562
 40
0.8740234375
 40
0.8742675781
 40
0.8745117188
 40
0.8747558594
 40
0.8748779297
 40
0.8749389648
 40
0.875
 40
0.8750610352
 40
0.8751220703
 40
0.8752441406
 40
0.8754882812
 40
0.8757324219
 40
0.8759765625
 40
0.8764648438
 40
0.876953125
 40
0.8779296875
 40
0.87890625
 40
0.8798828125
 40
0.880859375
 40
0.8828125
 40
0.884765625
 40
0.88671875
 40
0.890625
 40
0.89453125
 40
0.8984375
 40
0.90234375
 40
0.90625
 40
0.91015625
 40
0.9140625
 40
0.91796875
 40
0.921875
 40
0.92578125
 40
0.927734375
 40
0.9296875
 40
0.931640625
 40
0.9326171875
 40
0.93359375
 40
0.9345703125
 40
0.935546875
 40
0.9360351562
 40
0.9365234375
 40
0.9367675781
 40
0.9370117188
 40
0.9372558594
 40
0.9373779297
 40
0.9374389648
 40
0.9375
 40
0.9375610352
 40
0.9376220703
 40
0.9377441406
 40
0.9379882812
 40
0.9382324219
 40
0.9384765625
 40
0.9389648438
 40
0.939453125
 40
0.9404296875
 40
0.94140625
 40
0.9423828125
 40
0.943359375
 40
0.9453125
 40
0.947265625
 40
0.94921875
 40
0.953125
 40
0.95703125
 40
0.9609375
 40
0.96484375
 40
0.96875
 40
0.9765625
 40
0.984375
 40
0.9921875
 40
1.0
 40
1.0
 40
1.0
 40
1.0
 10
10.3074804468
 20
9.1999853531
 30
0.0
 10
10.3088875667
 20
9.2000257383
 30
0.0
 10
10.3117018065
 20
9.2001065088
 30
0.0
 10
10.3159231662
 20
9.2002276644
 30
0.0
 10
10.3201445259
 20
9.20034882
 30
0.0
 10
10.3236623257
 20
9.2004497831
 30
0.0
 10
10.3264765655
 20
9.2005305535
 30
0.0
 10
10.3285872454
 20
9.2005911313
 30
0.0
 10
10.3306979252
 20
9.2006517092
 30
0.0
 10
10.3328086051
 20
9.200712287
 30
0.0
 10
10.334567505
 20
9.2007627685
 30
0.0
 10
10.3359746249
 20
9.2008031537
 30
0.0
 10
10.3370299648
 20
9.2008334427
 30
0.0
 10
10.3379094147
 20
9.2008586834
 30
0.0
 10
10.3386129747
 20
9.2008788761
 30
0.0
 10
10.3391406447
 20
9.2008940203
 30
0.0
 10
10.3396683145
 20
9.2009091656
 30
0.0
 10
10.34010804
 20
9.2009217834
 30
0.0
 10
10.3404598189
 20
9.200931885
 30
0.0
 10
10.340679684
 20
9.2009381816
 30
0.0
 10
10.3408555686
 20
9.2009432576
 30
0.0
 10
10.3409875027
 20
9.2009469588
 30
0.0
 10
10.341097382
 20
9.2009503795
 30
0.0
 10
10.3411744265
 20
9.2009521139
 30
0.0
 10
10.3412182506
 20
9.2009541357
 30
0.0
 10
10.3412516858
 20
9.2009527485
 30
0.0
 10
10.3412829532
 20
9.20096246
 30
0.0
 10
10.3413253992
 20
9.2009715373
 30
0.0
 10
10.3413993274
 20
9.2009892263
 30
0.0
 10
10.3415051232
 20
9.2010135533
 30
0.0
 10
10.3416319995
 20
9.2010431494
 30
0.0
 10
10.3418011953
 20
9.2010824698
 30
0.0
 10
10.3420126806
 20
9.2011316686
 30
0.0
 10
10.3423510624
 20
9.2012103596
 30
0.0
 10
10.3427740379
 20
9.2013087327
 30
0.0
 10
10.3432816093
 20
9.2014267765
 30
0.0
 10
10.3437891804
 20
9.2015448213
 30
0.0
 10
10.344465942
 20
9.201702214
 30
0.0
 10
10.3453118939
 20
9.201898955
 30
0.0
 10
10.3463270363
 20
9.2021350442
 30
0.0
 10
10.3476805594
 20
9.2024498298
 30
0.0
 10
10.3493724634
 20
9.2028433118
 30
0.0
 10
10.3514027481
 20
9.2033154902
 30
0.0
 10
10.3534330328
 20
9.2037876685
 30
0.0
 10
10.3554633175
 20
9.2042598469
 30
0.0
 10
10.3574936022
 20
9.2047320253
 30
0.0
 10
10.359523887
 20
9.2052042036
 30
0.0
 10
10.3615541717
 20
9.205676382
 30
0.0
 10
10.3635844564
 20
9.2061485604
 30
0.0
 10
10.3656147411
 20
9.2066207388
 30
0.0
 10
10.367306645
 20
9.2070142207
 30
0.0
 10
10.3686601682
 20
9.2073290063
 30
0.0
 10
10.3696753105
 20
9.2075650955
 30
0.0
 10
10.3705212625
 20
9.2077618365
 30
0.0
 10
10.3711980241
 20
9.2079192293
 30
0.0
 10
10.3717055953
 20
9.2080372737
 30
0.0
 10
10.3722131662
 20
9.2081553191
 30
0.0
 10
10.3726361432
 20
9.2082536871
 30
0.0
 10
10.3729745219
 20
9.2083323886
 30
0.0
 10
10.3731860151
 20
9.2083815609
 30
0.0
 10
10.3733551948
 20
9.2084209357
 30
0.0
 10
10.3734821202
 20
9.2084503656
 30
0.0
 10
10.3735877624
 20
9.2084752123
 30
0.0
 10
10.3736619649
 20
9.2084919736
 30
0.0
 10
10.3737039713
 20
9.2085025372
 30
0.0
 10
10.3737365888
 20
9.2085076833
 30
0.0
 10
10.3737649532
 20
9.2085234431
 30
0.0
 10
10.373804256
 20
9.2085407539
 30
0.0
 10
10.3738723446
 20
9.2085727727
 30
0.0
 10
10.3739699753
 20
9.2086176121
 30
0.0
 10
10.3740869776
 20
9.2086718054
 30
0.0
 10
10.3742430346
 20
9.2087439284
 30
0.0
 10
10.3744380874
 20
9.2088341282
 30
0.0
 10
10.3747501823
 20
9.208978422
 30
0.0
 10
10.3751402972
 20
9.2091587982
 30
0.0
 10
10.3756084367
 20
9.2093752459
 30
0.0
 10
10.3760765758
 20
9.2095916945
 30
0.0
 10
10.3767007614
 20
9.2098802924
 30
0.0
 10
10.3774809933
 20
9.2102410398
 30
0.0
 10
10.3784172716
 20
9.2106739367
 30
0.0
 10
10.3796656428
 20
9.2112511326
 30
0.0
 10
10.3812261066
 20
9.2119726274
 30
0.0
 10
10.3830986633
 20
9.2128384212
 30
0.0
 10
10.38497122
 20
9.213704215
 30
0.0
 10
10.3868437766
 20
9.2145700088
 30
0.0
 10
10.3887163333
 20
9.2154358026
 30
0.0
 10
10.39058889
 20
9.2163015964
 30
0.0
 10
10.3924614466
 20
9.2171673902
 30
0.0
 10
10.3943340033
 20
9.218033184
 30
0.0
 10
10.3962065599
 20
9.2188989778
 30
0.0
 10
10.3977670238
 20
9.2196204726
 30
0.0
 10
10.3990153949
 20
9.2201976685
 30
0.0
 10
10.3999516733
 20
9.2206305654
 30
0.0
 10
10.4007319052
 20
9.2209913128
 30
0.0
 10
10.4013560907
 20
9.2212799108
 30
0.0
 10
10.40182423
 20
9.221496359
 30
0.0
 10
10.4022923688
 20
9.2217128082
 30
0.0
 10
10.402682486
 20
9.2218931795
 30
0.0
 10
10.4029945762
 20
9.2220374834
 30
0.0
 10
10.4031896408
 20
9.2221276576
 30
0.0
 10
10.4033456736
 20
9.2221998331
 30
0.0
 10
10.4034627501
 20
9.2222538657
 30
0.0
 10
10.4035601486
 20
9.2222992079
 30
0.0
 10
10.4036286518
 20
9.2223303292
 30
0.0
 10
10.4036672902
 20
9.2223490782
 30
0.0
 10
10.4036976952
 20
9.2223604203
 30
0.0
 10
10.4037226485
 20
9.2223821585
 30
0.0
 10
10.4037578211
 20
9.2224075165
 30
0.0
 10
10.4038184871
 20
9.2224535825
 30
0.0
 10
10.4039056162
 20
9.2225185078
 30
0.0
 10
10.4040099727
 20
9.2225967963
 30
0.0
 10
10.404149184
 20
9.2227010488
 30
0.0
 10
10.4043231745
 20
9.2228314097
 30
0.0
 10
10.4046015724
 20
9.2230399619
 30
0.0
 10
10.4049495654
 20
9.2233006608
 30
0.0
 10
10.4053671588
 20
9.2236134958
 30
0.0
 10
10.4057847517
 20
9.2239263318
 30
0.0
 10
10.4063415425
 20
9.2243434461
 30
0.0
 10
10.4070375308
 20
9.224864839
 30
0.0
 10
10.4078727169
 20
9.2254905105
 30
0.0
 10
10.4089862983
 20
9.2263247392
 30
0.0
 10
10.4103782751
 20
9.2273675251
 30
0.0
 10
10.4120486472
 20
9.2286188681
 30
0.0
 10
10.4137190193
 20
9.2298702112
 30
0.0
 10
10.4153893914
 20
9.2311215542
 30
0.0
 10
10.4170597635
 20
9.2323728972
 30
0.0
 10
10.4187301356
 20
9.2336242403
 30
0.0
 10
10.4204005077
 20
9.2348755833
 30
0.0
 10
10.4220708798
 20
9.2361269263
 30
0.0
 10
10.423741252
 20
9.2373782694
 30
0.0
 10
10.4251332287
 20
9.2384210552
 30
0.0
 10
10.4262468101
 20
9.2392552839
 30
0.0
 10
10.4270819962
 20
9.2398809554
 30
0.0
 10
10.4277779846
 20
9.2404023483
 30
0.0
 10
10.4283347752
 20
9.2408194627
 30
0.0
 10
10.4287523684
 20
9.2411322983
 30
0.0
 10
10.4291699608
 20
9.2414451347
 30
0.0
 10
10.4295179571
 20
9.2417058293
 30
0.0
 10
10.4297963482
 20
9.2419143903
 30
0.0
 10
10.429970356
 20
9.2420447288
 30
0.0
 10
10.4301095318
 20
9.2421490273
 30
0.0
 10
10.4302139969
 20
9.2422271755
 30
0.0
 10
10.4303007862
 20
9.2422925395
 30
0.0
 10
10.4303620587
 20
9.2423378225
 30
0.0
 10
10.4303962597
 20
9.242364435
 30
0.0
 10
10.4304241976
 20
9.2423823197
 30
0.0
 10
10.4304433926
 20
9.2424081351
 30
0.0
 10
10.4304720356
 20
9.2424397893
 30
0.0
 10
10.43052074
 20
9.242496473
 30
0.0
 10
10.4305910606
 20
9.2425767759
 30
0.0
 10
10.4306751273
 20
9.2426734278
 30
0.0
 10
10.4307873273
 20
9.2428021962
 30
0.0
 10
10.4309275393
 20
9.2429631913
 30
0.0
 10
10.4311518998
 20
9.2432207641
 30
0.0
 10
10.431432343
 20
9.2435427367
 30
0.0
 10
10.431768878
 20
9.243929101
 30
0.0
 10
10.4321054122
 20
9.2443154661
 30
0.0
 10
10.4325541248
 20
9.2448306192
 30
0.0
 10
10.4331150154
 20
9.2454745608
 30
0.0
 10
10.4337880841
 20
9.2462472906
 30
0.0
 10
10.4346855091
 20
9.247277597
 30
0.0
 10
10.4358072904
 20
9.2485654801
 30
0.0
 10
10.4371534278
 20
9.2501109397
 30
0.0
 10
10.4384995653
 20
9.2516563994
 30
0.0
 10
10.4398457028
 20
9.253201859
 30
0.0
 10
10.4411918403
 20
9.2547473186
 30
0.0
 10
10.4425379778
 20
9.2562927783
 30
0.0
 10
10.4438841153
 20
9.2578382379
 30
0.0
 10
10.4452302528
 20
9.2593836976
 30
0.0
 10
10.4465763902
 20
9.2609291572
 30
0.0
 10
10.4476981715
 20
9.2622170403
 30
0.0
 10
10.4485955965
 20
9.2632473467
 30
0.0
 10
10.4492686652
 20
9.2640200765
 30
0.0
 10
10.4498295558
 20
9.264664018
 30
0.0
 10
10.4502782683
 20
9.2651791713
 30
0.0
 10
10.4506148028
 20
9.265565536
 30
0.0
 10
10.4509513365
 20
9.2659519015
 30
0.0
 10
10.451231784
 20
9.2662738706
 30
0.0
 10
10.4514561358
 20
9.2665314505
 30
0.0
 10
10.4515963698
 20
9.2666924275
 30
0.0
 10
10.4517085247
 20
9.266821233
 30
0.0
 10
10.4517927292
 20
9.2669177718
 30
0.0
 10
10.4518626186
 20
9.2669984285
 30
0.0
 10
10.4519120927
 20
9.2670544806
 30
0.0
 10
10.4519395024
 20
9.2670871467
 30
0.0
 10
10.4519624859
 20
9.2671098538
 30
0.0
 10
10.451976195
 20
9.2671394128
 30
0.0
 10
10.4519977087
 20
9.2671764347
 30
0.0
 10
10.4520338505
 20
9.2672423367
 30
0.0
 10
10.4520862697
 20
9.2673359002
 30
0.0
 10
10.4521488354
 20
9.2674484256
 30
0.0
 10
10.4522323742
 20
9.2675983725
 30
0.0
 10
10.4523367573
 20
9.2677858358
 30
0.0
 10
10.4525037928
 20
9.2680857605
 30
0.0
 10
10.4527125794
 20
9.2684606721
 30
0.0
 10
10.4529631267
 20
9.2689105636
 30
0.0
 10
10.4532136732
 20
9.2693604557
 30
0.0
 10
10.4535477354
 20
9.2699603116
 30
0.0
 10
10.453965313
 20
9.2707101316
 30
0.0
 10
10.4544664062
 20
9.2716099155
 30
0.0
 10
10.4551345305
 20
9.2728096275
 30
0.0
 10
10.4559696858
 20
9.2743092674
 30
0.0
 10
10.4569718723
 20
9.2761088353
 30
0.0
 10
10.4579740587
 20
9.2779084032
 30
0.0
 10
10.4589762451
 20
9.2797079711
 30
0.0
 10
10.4599784315
 20
9.281507539
 30
0.0
 10
10.4609806179
 20
9.2833071069
 30
0.0
 10
10.4619828043
 20
9.2851066748
 30
0.0
 10
10.4629849907
 20
9.2869062427
 30
0.0
 10
10.4639871772
 20
9.2887058106
 30
0.0
 10
10.4648223325
 20
9.2902054505
 30
0.0
 10
10.4654904568
 20
9.2914051625
 30
0.0
 10
10.46599155
 20
9.2923049464
 30
0.0
 10
10.4664091277
 20
9.2930547664
 30
0.0
 10
10.4667431898
 20
9.2936546224
 30
0.0
 10
10.4669937366
 20
9.2941045143
 30
0.0
 10
10.4672442824
 20
9.2945544066
 30
0.0
 10
10.4674530737
 20
9.2949293154
 30
0.0
 10
10.4676200998
 20
9.2952292458
 30
0.0
 10
10.4677245068
 20
9.2954166947
 30
0.0
 10
10.4678079965
 20
9.2955666712
 30
0.0
 10
10.467870712
 20
9.2956791059
 30
0.0
 10
10.4679226626
 20
9.2957729532
 30
0.0
 10
10.4679596409
 20
9.2958383486
 30
0.0
 10
10.4679798144
 20
9.2958761822
 30
0.0
 10
10.4679976401
 20
9.2959032483
 30
0.0
 10
10.468005162
 20
9.2959353181
 30
0.0
 10
10.4680187853
 20
9.2959763325
 30
0.0
 10
10.4680409516
 20
9.2960489208
 30
0.0
 10
10.4680734931
 20
9.2961521933
 30
0.0
 10
10.4681121682
 20
9.2962763023
 30
0.0
 10
10.4681638658
 20
9.2964417173
 30
0.0
 10
10.4682284431
 20
9.2966485079
 30
0.0
 10
10.4683317918
 20
9.2969793607
 30
0.0
 10
10.468460969
 20
9.2973929309
 30
0.0
 10
10.4686159854
 20
9.2978892133
 30
0.0
 10
10.4687710008
 20
9.2983854962
 30
0.0
 10
10.4689776883
 20
9.2990472066
 30
0.0
 10
10.4692360476
 20
9.2998743446
 30
0.0
 10
10.4695460788
 20
9.3008669102
 30
0.0
 10
10.4699594537
 20
9.302190331
 30
0.0
 10
10.4704761723
 20
9.303844607
 30
0.0
 10
10.4710962347
 20
9.3058297381
 30
0.0
 10
10.4717162971
 20
9.3078148693
 30
0.0
 10
10.4723363595
 20
9.3098000005
 30
0.0
 10
10.4729564219
 20
9.3117851317
 30
0.0
 10
10.4735764842
 20
9.3137702629
 30
0.0
 10
10.4741965466
 20
9.315755394
 30
0.0
 10
10.474816609
 20
9.3177405252
 30
0.0
 10
10.4754366714
 20
9.3197256564
 30
0.0
 10
10.47595339
 20
9.3213799324
 30
0.0
 10
10.4763667649
 20
9.3227033532
 30
0.0
 10
10.4766767961
 20
9.3236959188
 30
0.0
 10
10.4769351555
 20
9.3245230567
 30
0.0
 10
10.4771418429
 20
9.3251847672
 30
0.0
 10
10.4772968587
 20
9.3256810499
 30
0.0
 10
10.4774518734
 20
9.326177333
 30
0.0
 10
10.4775810557
 20
9.326590901
 30
0.0
 10
10.4776843942
 20
9.3269217581
 30
0.0
 10
10.4777489973
 20
9.3271285378
 30
0.0
 10
10.4778006418
 20
9.3272939753
 30
0.0
 10
10.4778394794
 20
9.3274180155
 30
0.0
 10
10.4778715125
 20
9.3275215032
 30
0.0
 10
10.4778945863
 20
9.3275937074
 30
0.0
 10
10.4779067554
 20
9.3276353373
 30
0.0
 10
10.477918744
 20
9.3276655165
 30
0.0
 10
10.4779197937
 20
9.3276996832
 30
0.0
 10
10.4779250089
 20
9.327743848
 30
0.0
 10
10.4779323577
 20
9.3278217842
 30
0.0
 10
10.4779437855
 20
9.327932783
 30
0.0
 10
10.477957101
 20
9.3280661266
 30
0.0
 10
10.4779749939
 20
9.3282438673
 30
0.0
 10
10.4779973125
 20
9.3284660605
 30
0.0
 10
10.4780330488
 20
9.3288215601
 30
0.0
 10
10.4780777101
 20
9.3292659378
 30
0.0
 10
10.4781313076
 20
9.3297991896
 30
0.0
 10
10.478184904
 20
9.3303324419
 30
0.0
 10
10.4782563663
 20
9.3310434447
 30
0.0
 10
10.478345694
 20
9.3319321983
 30
0.0
 10
10.4784528873
 20
9.3329987026
 30
0.0
 10
10.4785958116
 20
9.3344207083
 30
0.0
 10
10.4787744671
 20
9.3361982154
 30
0.0
 10
10.4789888537
 20
9.338331224
 30
0.0
 10
10.4792032402
 20
9.3404642326
 30
0.0
 10
10.4794176268
 20
9.3425972412
 30
0.0
 10
10.4796320133
 20
9.3447302497
 30
0.0
 10
10.4798463999
 20
9.3468632583
 30
0.0
 10
10.4800607865
 20
9.3489962669
 30
0.0
 10
10.480275173
 20
9.3511292755
 30
0.0
 10
10.4804895596
 20
9.3532622841
 30
0.0
 10
10.4806682151
 20
9.3550397912
 30
0.0
 10
10.4808111394
 20
9.3564617969
 30
0.0
 10
10.4809183327
 20
9.3575283012
 30
0.0
 10
10.4810076605
 20
9.3584170548
 30
0.0
 10
10.4810791226
 20
9.3591280577
 30
0.0
 10
10.4811327194
 20
9.3596613098
 30
0.0
 10
10.4811863152
 20
9.3601945619
 30
0.0
 10
10.4812309818
 20
9.3606389388
 30
0.0
 10
10.4812667074
 20
9.3609944401
 30
0.0
 10
10.4812890532
 20
9.3612166288
 30
0.0
 10
10.4813068903
 20
9.3613943789
 30
0.0
 10
10.4813203764
 20
9.3615276936
 30
0.0
 10
10.4813312704
 20
9.3616387827
 30
0.0
 10
10.481339572
 20
9.3617165578
 30
0.0
 10
10.4813432607
 20
9.3617609807
 30
0.0
 10
10.4813489994
 20
9.3617943542
 30
0.0
 10
10.4813433768
 20
9.3618275126
 30
0.0
 10
10.481339843
 20
9.3618717989
 30
0.0
 10
10.4813318124
 20
9.3619492648
 30
0.0
 10
10.4813213054
 20
9.3620599487
 30
0.0
 10
10.4813082839
 20
9.3621927616
 30
0.0
 10
10.4812910662
 20
9.3623698481
 30
0.0
 10
10.4812694946
 20
9.3625912054
 30
0.0
 10
10.4812350078
 20
9.3629453775
 30
0.0
 10
10.4811918897
 20
9.3633880925
 30
0.0
 10
10.481140152
 20
9.3639193505
 30
0.0
 10
10.4810884133
 20
9.3644506086
 30
0.0
 10
10.4810194287
 20
9.3651589526
 30
0.0
 10
10.4809331979
 20
9.3660443827
 30
0.0
 10
10.4808297209
 20
9.3671068988
 30
0.0
 10
10.4806917516
 20
9.3685235869
 30
0.0
 10
10.48051929
 20
9.370294447
 30
0.0
 10
10.480312336
 20
9.3724194792
 30
0.0
 10
10.480105382
 20
9.3745445114
 30
0.0
 10
10.479898428
 20
9.3766695435
 30
0.0
 10
10.4796914741
 20
9.3787945757
 30
0.0
 10
10.4794845201
 20
9.3809196079
 30
0.0
 10
10.4792775661
 20
9.38304464
 30
0.0
 10
10.4790706122
 20
9.3851696722
 30
0.0
 10
10.4788636582
 20
9.3872947043
 30
0.0
 10
10.4786911966
 20
9.3890655645
 30
0.0
 10
10.4785532272
 20
9.3904822526
 30
0.0
 10
10.4784497502
 20
9.3915447687
 30
0.0
 10
10.4783635195
 20
9.3924301987
 30
0.0
 10
10.4782945347
 20
9.3931385428
 30
0.0
 10
10.4782427965
 20
9.3936698009
 30
0.0
 10
10.4781910571
 20
9.3942010588
 30
0.0
 10
10.4781479443
 20
9.3946437742
 30
0.0
 10
10.4781134467
 20
9.3949979455
 30
0.0
 10
10.4780919024
 20
9.3952193047
 30
0.0
 10
10.4780746288
 20
9.3953963872
 30
0.0
 10
10.4780617779
 20
9.3955292125
 30
0.0
 10
10.4780507371
 20
9.3956398576
 30
0.0
 10
10.4780436596
 20
9.3957173929
 30
0.0
 10
10.4780385986
 20
9.395761568
 30
0.0
 10
10.478037667
 20
9.3957950678
 30
0.0
 10
10.4780257872
 20
9.395827159
 30
0.0
 10
10.4780137662
 20
9.3958704387
 30
0.0
 10
10.4779909503
 20
9.3959459491
 30
0.0
 10
10.4779592863
 20
9.3960539409
 30
0.0
 10
10.4779208914
 20
9.3961834798
 30
0.0
 10
10.4778698372
 20
9.3963562163
 30
0.0
 10
10.4778059718
 20
9.3965721307
 30
0.0
 10
10.4777038139
 20
9.3969175972
 30
0.0
 10
10.4775761073
 20
9.3973494291
 30
0.0
 10
10.4774228634
 20
9.397867628
 30
0.0
 10
10.4772696184
 20
9.3983858267
 30
0.0
 10
10.4770652921
 20
9.3990767584
 30
0.0
 10
10.4768098841
 20
9.3999404229
 30
0.0
 10
10.4765033946
 20
9.4009768204
 30
0.0
 10
10.4760947418
 20
9.4023586837
 30
0.0
 10
10.4755839259
 20
9.4040860128
 30
0.0
 10
10.4749709468
 20
9.4061588078
 30
0.0
 10
10.4743579677
 20
9.4082316028
 30
0.0
 10
10.4737449886
 20
9.4103043977
 30
0.0
 10
10.4731320095
 20
9.4123771927
 30
0.0
 10
10.4725190305
 20
9.4144499877
 30
0.0
 10
10.4719060514
 20
9.4165227826
 30
0.0
 10
10.4712930723
 20
9.4185955776
 30
0.0
 10
10.4706800932
 20
9.4206683725
 30
0.0
 10
10.4701692773
 20
9.4223957017
 30
0.0
 10
10.4697606245
 20
9.423777565
 30
0.0
 10
10.469454135
 20
9.4248139625
 30
0.0
 10
10.469198727
 20
9.425677627
 30
0.0
 10
10.4689944006
 20
9.4263685587
 30
0.0
 10
10.468841156
 20
9.4268867575
 30
0.0
 10
10.4686879105
 20
9.427404956
 30
0.0
 10
10.4685602089
 20
9.4278367891
 30
0.0
 10
10.4684580408
 20
9.4281822532
 30
0.0
 10
10.4683942014
 20
9.4283981737
 30
0.0
 10
10.468343094
 20
9.4285708977
 30
0.0
 10
10.4683048617
 20
9.4287004745
 30
0.0
 10
10.4682726888
 20
9.4288083479
 30
0.0
 10
10.4682507814
 20
9.4288840697
 30
0.0
 10
10.4682373047
 20
9.4289270107
 30
0.0
 10
10.4682298966
 20
9.428960142
 30
0.0
 10
10.4682121697
 20
9.4289897357
 30
0.0
 10
10.4681921333
 20
9.429030428
 30
0.0
 10
10.4681553925
 20
9.4291010646
 30
0.0
 10
10.4681037823
 20
9.4292022745
 30
0.0
 10
10.4680414749
 20
9.4293235978
 30
0.0
 10
10.4679585294
 20
9.4294854072
 30
0.0
 10
10.4678548026
 20
9.4296876534
 30
0.0
 10
10.4676888649
 20
9.4300112561
 30
0.0
 10
10.4674814341
 20
9.4304157564
 30
0.0
 10
10.4672325209
 20
9.4309011581
 30
0.0
 10
10.4669836067
 20
9.4313865594
 30
0.0
 10
10.4666517214
 20
9.4320337613
 30
0.0
 10
10.4662368647
 20
9.4328427637
 30
0.0
 10
10.4657390367
 20
9.4338135665
 30
0.0
 10
10.465075266
 20
9.4351079703
 30
0.0
 10
10.4642455526
 20
9.436725975
 30
0.0
 10
10.4632498966
 20
9.4386675806
 30
0.0
 10
10.4622542405
 20
9.4406091863
 30
0.0
 10
10.4612585845
 20
9.4425507919
 30
0.0
 10
10.4602629285
 20
9.4444923975
 30
0.0
 10
10.4592672724
 20
9.4464340032
 30
0.0
 10
10.4582716164
 20
9.4483756088
 30
0.0
 10
10.4572759603
 20
9.4503172145
 30
0.0
 10
10.4562803043
 20
9.4522588201
 30
0.0
 10
10.4554505909
 20
9.4538768248
 30
0.0
 10
10.4547868203
 20
9.4551712286
 30
0.0
 10
10.4542889922
 20
9.4561420314
 30
0.0
 10
10.4538741356
 20
9.4569510338
 30
0.0
 10
10.4535422502
 20
9.4575982356
 30
0.0
 10
10.4532933364
 20
9.4580836371
 30
0.0
 10
10.4530444216
 20
9.4585690382
 30
0.0
 10
10.4528369956
 20
9.4589735405
 30
0.0
 10
10.4526710481
 20
9.4592971391
 30
0.0
 10
10.4525673462
 20
9.4594993955
 30
0.0
 10
10.4524843498
 20
9.4596611841
 30
0.0
 10
10.4524221979
 20
9.4597825708
 30
0.0
 10
10.452370101
 20
9.4598835823
 30
0.0
 10
10.4523342291
 20
9.4599545732
 30
0.0
 10
10.4523128005
 20
9.4599946977
 30
0.0
 10
10.4522993498
 20
9.4600260355
 30
0.0
 10
10.4522758811
 20
9.4600526163
 30
0.0
 10
10.4522480839
 20
9.4600897167
 30
0.0
 10
10.4521978106
 20
9.4601538692
 30
0.0
 10
10.4521268429
 20
9.4602459199
 30
0.0
 10
10.4520413173
 20
9.4603562076
 30
0.0
 10
10.4519274104
 20
9.4605033184
 30
0.0
 10
10.4517849832
 20
9.4606871862
 30
0.0
 10
10.4515571241
 20
9.4609813863
 30
0.0
 10
10.4512722918
 20
9.4613491324
 30
0.0
 10
10.4509304966
 20
9.4617904294
 30
0.0
 10
10.4505887004
 20
9.462231726
 30
0.0
 10
10.4501329726
 20
9.4628201215
 30
0.0
 10
10.4495633127
 20
9.463555616
 30
0.0
 10
10.4488797208
 20
9.4644382093
 30
0.0
 10
10.447968265
 20
9.4656150004
 30
0.0
 10
10.4468289452
 20
9.4670859892
 30
0.0
 10
10.4454617615
 20
9.4688511758
 30
0.0
 10
10.4440945778
 20
9.4706163625
 30
0.0
 10
10.442727394
 20
9.4723815491
 30
0.0
 10
10.4413602103
 20
9.4741467357
 30
0.0
 10
10.4399930266
 20
9.4759119223
 30
0.0
 10
10.4386258428
 20
9.477677109
 30
0.0
 10
10.4372586591
 20
9.4794422956
 30
0.0
 10
10.4358914754
 20
9.4812074822
 30
0.0
 10
10.4347521556
 20
9.4826784711
 30
0.0
 10
10.4338406998
 20
9.4838552622
 30
0.0
 10
10.4331571079
 20
9.4847378555
 30
0.0
 10
10.432587448
 20
9.4854733499
 30
0.0
 10
10.4321317201
 20
9.4860617454
 30
0.0
 10
10.4317899243
 20
9.4865030422
 30
0.0
 10
10.4314481278
 20
9.4869443383
 30
0.0
 10
10.4311632996
 20
9.4873120874
 30
0.0
 10
10.4309354321
 20
9.4876062813
 30
0.0
 10
10.4307930261
 20
9.4877901649
 30
0.0
 10
10.4306790757
 20
9.4879372432
 30
0.0
 10
10.4305936828
 20
9.4880476303
 30
0.0
 10
10.4305223
 20
9.4881393701
 30
0.0
 10
10.4304727677
 20
9.4882040776
 30
0.0
 10
10.4304437833
 20
9.4882402886
 30
0.0
 10
10.4304239612
 20
9.4882696012
 30
0.0
 10
10.4303968146
 20
9.4882906789
 30
0.0
 10
10.430363174
 20
9.4883216549
 30
0.0
 10
10.4303031126
 20
9.4883745246
 30
0.0
 10
10.430217933
 20
9.4884507524
 30
0.0
 10
10.4301154511
 20
9.4885419262
 30
0.0
 10
10.4299789015
 20
9.488663596
 30
0.0
 10
10.4298081827
 20
9.4888156474
 30
0.0
 10
10.4295350505
 20
9.4890589496
 30
0.0
 10
10.429193629
 20
9.4893630705
 30
0.0
 10
10.4287839259
 20
9.4897280185
 30
0.0
 10
10.4283742221
 20
9.4900929658
 30
0.0
 10
10.4278279507
 20
9.4905795624
 30
0.0
 10
10.4271451112
 20
9.4911878081
 30
0.0
 10
10.4263257039
 20
9.4919177029
 30
0.0
 10
10.4252331609
 20
9.492890896
 30
0.0
 10
10.423867482
 20
9.4941073874
 30
0.0
 10
10.4222286674
 20
9.4955671771
 30
0.0
 10
10.4205898528
 20
9.4970269667
 30
0.0
 10
10.4189510383
 20
9.4984867564
 30
0.0
 10
10.4173122237
 20
9.499946546
 30
0.0
 10
10.4156734091
 20
9.5014063357
 30
0.0
 10
10.4140345945
 20
9.5028661254
 30
0.0
 10
10.4123957799
 20
9.504325915
 30
0.0
 10
10.4107569653
 20
9.5057857047
 30
0.0
 10
10.4093912864
 20
9.5070021961
 30
0.0
 10
10.4082987434
 20
9.5079753892
 30
0.0
 10
10.4074793361
 20
9.508705284
 30
0.0
 10
10.4067964967
 20
9.5093135297
 30
0.0
 10
10.4062502251
 20
9.5098001262
 30
0.0
 10
10.4058405216
 20
9.5101650738
 30
0.0
 10
10.4054308175
 20
9.5105300206
 30
0.0
 10
10.4050893992
 20
9.5108341455
 30
0.0
 10
10.4048162605
 20
9.5110774395
 30
0.0
 10
10.4046455582
 20
9.5112295117
 30
0.0
 10
10.4045089748
 20
9.5113511387
 30
0.0
 10
10.4044065964
 20
9.5114424432
 30
0.0
 10
10.4043210928
 20
9.5115182623
 30
0.0
 10
10.4042616096
 20
9.5115718616
 30
0.0
 10
10.4042270427
 20
9.5116016685
 30
0.0
 10
10.4042027417
 20
9.5116263373
 30
0.0
 10
10.404172232
 20
9.5116421622
 30
0.0
 10
10.404133718
 20
9.5116663469
 30
0.0
 10
10.4040653096
 20
9.5117072329
 30
0.0
 10
10.4039681108
 20
9.5117663928
 30
0.0
 10
10.4038512465
 20
9.5118370631
 30
0.0
 10
10.4036955062
 20
9.5119314025
 30
0.0
 10
10.4035008038
 20
9.5120492882
 30
0.0
 10
10.4031892952
 20
9.5122379269
 30
0.0
 10
10.4027999042
 20
9.512473718
 30
0.0
 10
10.4023326372
 20
9.5127566703
 30
0.0
 10
10.4018653697
 20
9.5130396219
 30
0.0
 10
10.4012423464
 20
9.5134168909
 30
0.0
 10
10.4004635674
 20
9.513888477
 30
0.0
 10
10.3995290325
 20
9.5144543805
 30
0.0
 10
10.398282986
 20
9.5152089184
 30
0.0
 10
10.3967254278
 20
9.5161520907
 30
0.0
 10
10.3948563581
 20
9.5172838976
 30
0.0
 10
10.3929872883
 20
9.5184157044
 30
0.0
 10
10.3911182185
 20
9.5195475113
 30
0.0
 10
10.3892491488
 20
9.5206793181
 30
0.0
 10
10.387380079
 20
9.5218111249
 30
0.0
 10
10.3855110092
 20
9.5229429318
 30
0.0
 10
10.3836419395
 20
9.5240747386
 30
0.0
 10
10.3817728697
 20
9.5252065455
 30
0.0
 10
10.3802153116
 20
9.5261497179
 30
0.0
 10
10.378969265
 20
9.5269042558
 30
0.0
 10
10.3780347302
 20
9.5274701592
 30
0.0
 10
10.3772559511
 20
9.5279417454
 30
0.0
 10
10.3766329278
 20
9.5283190143
 30
0.0
 10
10.3761656605
 20
9.5286019662
 30
0.0
 10
10.3756983927
 20
9.5288849171
 30
0.0
 10
10.3753090042
 20
9.5291207126
 30
0.0
 10
10.3749974905
 20
9.5293093423
 30
0.0
 10
10.374802801
 20
9.529427251
 30
0.0
 10
10.3746470344
 20
9.5295215432
 30
0.0
 10
10.3745302503
 20
9.5295923577
 30
0.0
 10
10.3744328003
 20
9.5296510665
 30
0.0
 10
10.3743648404
 20
9.5296927578
 30
0.0
 10
10.3743256078
 20
9.5297156521
 30
0.0
 10
10.3742973055
 20
9.5297354406
 30
0.0
 10
10.374264714
 20
9.5297452227
 30
0.0
 10
10.3742227549
 20
9.5297617559
 30
0.0
 10
10.3741486293
 20
9.5297890628
 30
0.0
 10
10.3740431
 20
9.5298289227
 30
0.0
 10
10.3739163089
 20
9.5298763908
 30
0.0
 10
10.3737473086
 20
9.5299398087
 30
0.0
 10
10.3735360396
 20
9.5300190375
 30
0.0
 10
10.3731980195
 20
9.530145828
 30
0.0
 10
10.3727754909
 20
9.5303043077
 30
0.0
 10
10.372268458
 20
9.5304944869
 30
0.0
 10
10.3717614248
 20
9.5306846651
 30
0.0
 10
10.3710853806
 20
9.5309382365
 30
0.0
 10
10.3702403253
 20
9.5312552006
 30
0.0
 10
10.369226259
 20
9.5316355575
 30
0.0
 10
10.3678741706
 20
9.5321427001
 30
0.0
 10
10.36618406
 20
9.5327766283
 30
0.0
 10
10.3641559274
 20
9.5335373421
 30
0.0
 10
10.3621277947
 20
9.534298056
 30
0.0
 10
10.3600996621
 20
9.5350587698
 30
0.0
 10
10.3580715294
 20
9.5358194837
 30
0.0
 10
10.3560433968
 20
9.5365801976
 30
0.0
 10
10.3540152641
 20
9.5373409114
 30
0.0
 10
10.3519871315
 20
9.5381016253
 30
0.0
 10
10.3499589988
 20
9.5388623391
 30
0.0
 10
10.3482688883
 20
9.5394962673
 30
0.0
 10
10.3469167998
 20
9.5400034099
 30
0.0
 10
10.3459027335
 20
9.5403837668
 30
0.0
 10
10.3450576782
 20
9.540700731
 30
0.0
 10
10.344381634
 20
9.5409543022
 30
0.0
 10
10.3438746009
 20
9.5411444809
 30
0.0
 10
10.3433675675
 20
9.5413346585
 30
0.0
 10
10.3429450406
 20
9.5414931431
 30
0.0
 10
10.342607017
 20
9.5416199236
 30
0.0
 10
10.3423957571
 20
9.5416991777
 30
0.0
 10
10.3422267379
 20
9.5417625437
 30
0.0
 10
10.3421000044
 20
9.5418101703
 30
0.0
 10
10.3419942952
 20
9.5418495343
 30
0.0
 10
10.3419204908
 20
9.5418777265
 30
0.0
 10
10.341878017
 20
9.5418928412
 30
0.0
 10
10.3418470063
 20
9.5419069804
 30
0.0
 10
10.3418127668
 20
9.5419104046
 30
0.0
 10
10.3417682404
 20
9.5419187077
 30
0.0
 10
10.3416897944
 20
9.5419314968
 30
0.0
 10
10.3415780031
 20
9.5419506773
 30
0.0
 10
10.3414437361
 20
9.5419733042
 30
0.0
 10
10.3412647544
 20
9.5420036096
 30
0.0
 10
10.3410410132
 20
9.5420414447
 30
0.0
 10
10.3406830352
 20
9.5421020069
 30
0.0
 10
10.34023556
 20
9.5421777007
 30
0.0
 10
10.339698591
 20
9.5422685371
 30
0.0
 10
10.3391616216
 20
9.5423593724
 30
0.0
 10
10.3384456625
 20
9.5424804866
 30
0.0
 10
10.3375507136
 20
9.5426318792
 30
0.0
 10
10.336476775
 20
9.5428135504
 30
0.0
 10
10.3350448568
 20
9.5430557787
 30
0.0
 10
10.333254959
 20
9.543358564
 30
0.0
 10
10.3311070818
 20
9.5437219063
 30
0.0
 10
10.3289592045
 20
9.5440852487
 30
0.0
 10
10.3268113272
 20
9.544448591
 30
0.0
 10
10.3239474908
 20
9.5449330475
 30
0.0
 10
10.3203676953
 20
9.5455386181
 30
0.0
 10
10.3160719407
 20
9.5462653028
 30
0.0
 10
10.3117761862
 20
9.5469919875
 30
0.0
 10
10.3089123498
 20
9.547476444
 30
0.0
 10
10.3074804316
 20
9.5477186722
 30
0.0
  0
SPLINE
  5
394
100
AcDbEntity
  8
0
100
AcDbSpline
 62
4
  6
CONTINUOUS
 70
0
 71
3
 72
615
 73
611
 74
0
 42
0.0000001
 43
0.0000001
 44
0.0000000001
 40
0.0
 40
0.0
 40
0.0
 40
0.0
 40
0.0078125
 40
0.015625
 40
0.0234375
 40
0.03125
 40
0.03515625
 40
0.0390625
 40
0.04296875
 40
0.046875
 40
0.05078125
 40
0.052734375
 40
0.0546875
 40
0.056640625
 40
0.0576171875
 40
0.05859375
 40
0.0595703125
 40
0.060546875
 40
0.0610351562
 40
0.0615234375
 40
0.0617675781
 40
0.0620117188
 40
0.0622558594
 40
0.0623779297
 40
0.0624389648
 40
0.0625
 40
0.0625610352
 40
0.0626220703
 40
0.0627441406
 40
0.0629882812
 40
0.0632324219
 40
0.0634765625
 40
0.0639648438
 40
0.064453125
 40
0.0654296875
 40
0.06640625
 40
0.0673828125
 40
0.068359375
 40
0.0703125
 40
0.072265625
 40
0.07421875
 40
0.078125
 40
0.08203125
 40
0.0859375
 40
0.08984375
 40
0.09375
 40
0.09765625
 40
0.1015625
 40
0.10546875
 40
0.109375
 40
0.11328125
 40
0.115234375
 40
0.1171875
 40
0.119140625
 40
0.1201171875
 40
0.12109375
 40
0.1220703125
 40
0.123046875
 40
0.1235351562
 40
0.1240234375
 40
0.1242675781
 40
0.1245117188
 40
0.1247558594
 40
0.1248779297
 40
0.1249389648
 40
0.125
 40
0.1250610352
 40
0.1251220703
 40
0.1252441406
 40
0.1254882812
 40
0.1257324219
 40
0.1259765625
 40
0.1264648438
 40
0.126953125
 40
0.1279296875
 40
0.12890625
 40
0.1298828125
 40
0.130859375
 40
0.1328125
 40
0.134765625
 40
0.13671875
 40
0.140625
 40
0.14453125
 40
0.1484375
 40
0.15234375
 40
0.15625
 40
0.16015625
 40
0.1640625
 40
0.16796875
 40
0.171875
 40
0.17578125
 40
0.177734375
 40
0.1796875
 40
0.181640625
 40
0.1826171875
 40
0.18359375
 40
0.1845703125
 40
0.185546875
 40
0.1860351562
 40
0.1865234375
 40
0.1867675781
 40
0.1870117188
 40
0.1872558594
 40
0.1873779297
 40
0.1874389648
 40
0.1875
 40
0.1875610352
 40
0.1876220703
 40
0.1877441406
 40
0.1879882812
 40
0.1882324219
 40
0.1884765625
 40
0.1889648438
 40
0.189453125
 40
0.1904296875
 40
0.19140625
 40
0.1923828125
 40
0.193359375
 40
0.1953125
 40
0.197265625
 40
0.19921875
 40
0.203125
 40
0.20703125
 40
0.2109375
 40
0.21484375
 40
0.21875
 40
0.22265625
 40
0.2265625
 40
0.23046875
 40
0.234375
 40
0.23828125
 40
0.240234375
 40
0.2421875
 40
0.244140625
 40
0.2451171875
 40
0.24609375
 40
0.2470703125
 40
0.248046875
 40
0.2485351562
 40
0.2490234375
 40
0.2492675781
 40
0.2495117188
 40
0.2497558594
 40
0.2498779297
 40
0.2499389648
 40
0.25
 40
0.2500610352
 40
0.2501220703
 40
0.2502441406
 40
0.2504882812
 40
0.2507324219
 40
0.2509765625
 40
0.2514648438
 40
0.251953125
 40
0.2529296875
 40
0.25390625
 40
0.2548828125
 40
0.255859375
 40
0.2578125
 40
0.259765625
 40
0.26171875
 40
0.265625
 40
0.26953125
 40
0.2734375
 40
0.27734375
 40
0.28125
 40
0.28515625
 40
0.2890625
 40
0.29296875
 40
0.296875
 40
0.30078125
 40
0.302734375
 40
0.3046875
 40
0.306640625
 40
0.3076171875
 40
0.30859375
 40
0.3095703125
 40
0.310546875
 40
0.3110351562
 40
0.3115234375
 40
0.3117675781
 40
0.3120117188
 40
0.3122558594
 40
0.3123779297
 40
0.3124389648
 40
0.3125
 40
0.3125610352
 40
0.3126220703
 40
0.3127441406
 40
0.3129882812
 40
0.3132324219
 40
0.3134765625
 40
0.3139648438
 40
0.314453125
 40
0.3154296875
 40
0.31640625
 40
0.3173828125
 40
0.318359375
 40
0.3203125
 40
0.322265625
 40
0.32421875
 40
0.328125
 40
0.33203125
 40
0.3359375
 40
0.33984375
 40
0.34375
 40
0.34765625
 40
0.3515625
 40
0.35546875
 40
0.359375
 40
0.36328125
 40
0.365234375
 40
0.3671875
 40
0.369140625
 40
0.3701171875
 40
0.37109375
 40
0.3720703125
 40
0.373046875
 40
0.3735351562
 40
0.3740234375
 40
0.3742675781
 40
0.3745117188
 40
0.3747558594
 40
0.3748779297
 40
0.3749389648
 40
0.375
 40
0.3750610352
 40
0.3751220703
 40
0.3752441406
 40
0.3754882812
 40
0.3757324219
 40
0.3759765625
 40
0.3764648438
 40
0.376953125
 40
0.3779296875
 40
0.37890625
 40
0.3798828125
 40
0.380859375
 40
0.3828125
 40
0.384765625
 40
0.38671875
 40
0.390625
 40
0.39453125
 40
0.3984375
 40
0.40234375
 40
0.40625
 40
0.41015625
 40
0.4140625
 40
0.41796875
 40
0.421875
 40
0.42578125
 40
0.427734375
 40
0.4296875
 40
0.431640625
 40
0.4326171875
 40
0.43359375
 40
0.4345703125
 40
0.435546875
 40
0.4360351562
 40
0.4365234375
 40
0.4367675781
 40
0.4370117188
 40
0.4372558594
 40
0.4373779297
 40
0.4374389648
 40
0.4375
 40
0.4375610352
 40
0.4376220703
 40
0.4377441406
 40
0.4379882812
 40
0.4382324219
 40
0.4384765625
 40
0.4389648438
 40
0.439453125
 40
0.4404296875
 40
0.44140625
 40
0.4423828125
 40
0.443359375
 40
0.4453125
 40
0.447265625
 40
0.44921875
 40
0.453125
 40
0.45703125
 40
0.4609375
 40
0.46484375
 40
0.46875
 40
0.47265625
 40
0.4765625
 40
0.48046875
 40
0.484375
 40
0.48828125
 40
0.490234375
 40
0.4921875
 40
0.494140625
 40
0.4951171875
 40
0.49609375
 40
0.4970703125
 40
0.498046875
 40
0.4985351562
 40
0.4990234375
 40
0.4992675781
 40
0.4995117188
 40
0.4997558594
 40
0.4998779297
 40
0.4999389648
 40
0.5
 40
0.5000610352
 40
0.5001220703
 40
0.5002441406
 40
0.5004882812
 40
0.5007324219
 40
0.5009765625
 40
0.5014648438
 40
0.501953125
 40
0.5029296875
 40
0.50390625
 40
0.5048828125
 40
0.505859375
 40
0.5078125
 40
0.509765625
 40
0.51171875
 40
0.515625
 40
0.51953125
 40
0.5234375
 40
0.52734375
 40
0.53125
 40
0.53515625
 40
0.5390625
 40
0.54296875
 40
0.546875
 40
0.55078125
 40
0.552734375
 40
0.5546875
 40
0.556640625
 40
0.5576171875
 40
0.55859375
 40
0.5595703125
 40
0.560546875
 40
0.5610351562
 40
0.5615234375
 40
0.5617675781
 40
0.5620117188
 40
0.5622558594
 40
0.5623779297
 40
0.5624389648
 40
0.5625
 40
0.5625610352
 40
0.5626220703
 40
0.5627441406
 40
0.5629882812
 40
0.5632324219
 40
0.5634765625
 40
0.5639648438
 40
0.564453125
 40
0.5654296875
 40
0.56640625
 40
0.5673828125
 40
0.568359375
 40
0.5703125
 40
0.572265625
 40
0.57421875
 40
0.578125
 40
0.58203125
 40
0.5859375
 40
0.58984375
 40
0.59375
 40
0.59765625
 40
0.6015625
 40
0.60546875
 40
0.609375
 40
0.61328125
 40
0.615234375
 40
0.6171875
 40
0.619140625
 40
0.6201171875
 40
0.62109375
 40
0.6220703125
 40
0.623046875
 40
0.6235351562
 40
0.6240234375
 40
0.6242675781
 40
0.6245117188
 40
0.6247558594
 40
0.6248779297
 40
0.6249389648
 40
0.625
 40
0.6250610352
 40
0.6251220703
 40
0.6252441406
 40
0.6254882812
 40
0.6257324219
 40
0.6259765625
 40
0.6264648438
 40
0.626953125
 40
0.6279296875
 40
0.62890625
 40
0.6298828125
 40
0.630859375
 40
0.6328125
 40
0.634765625
 40
0.63671875
 40
0.640625
 40
0.64453125
 40
0.6484375
 40
0.65234375
 40
0.65625
 40
0.66015625
 40
0.6640625
 40
0.66796875
 40
0.671875
 40
0.67578125
 40
0.677734375
 40
0.6796875
 40
0.681640625
 40
0.6826171875
 40
0.68359375
 40
0.6845703125
 40
0.685546875
 40
0.6860351562
 40
0.6865234375
 40
0.6867675781
 40
0.6870117188
 40
0.6872558594
 40
0.6873779297
 40
0.6874389648
 40
0.6875
 40
0.6875610352
 40
0.6876220703
 40
0.6877441406
 40
0.6879882812
 40
0.6882324219
 40
0.6884765625
 40
0.6889648438
 40
0.689453125
 40
0.6904296875
 40
0.69140625
 40
0.6923828125
 40
0.693359375
 40
0.6953125
 40
0.697265625
 40
0.69921875
 40
0.703125
 40
0.70703125
 40
0.7109375
 40
0.71484375
 40
0.71875
 40
0.72265625
 40
0.7265625
 40
0.73046875
 40
0.734375
 40
0.73828125
 40
0.740234375
 40
0.7421875
 40
0.744140625
 40
0.7451171875
 40
0.74609375
 40
0.7470703125
 40
0.748046875
 40
0.7485351562
 40
0.7490234375
 40
0.7492675781
 40
0.7495117188
 40
0.7497558594
 40
0.7498779297
 40
0.7499389648
 40
0.75
 40
0.7500610352
 40
0.7501220703
 40
0.7502441406
 40
0.7504882812
 40
0.7507324219
 40
0.7509765625
 40
0.7514648438
 40
0.751953125
 40
0.7529296875
 40
0.75390625
 40
0.7548828125
 40
0.755859375
 40
0.7578125
 40
0.759765625
 40
0.76171875
 40
0.765625
 40
0.76953125
 40
0.7734375
 40
0.77734375
 40
0.78125
 40
0.78515625
 40
0.7890625
 40
0.79296875
 40
0.796875
 40
0.80078125
 40
0.802734375
 40
0.8046875
 40
0.806640625
 40
0.8076171875
 40
0.80859375
 40
0.8095703125
 40
0.810546875
 40
0.8110351562
 40
0.8115234375
 40
0.8117675781
 40
0.8120117188
 40
0.8122558594
 40
0.8123779297
 40
0.8124389648
 40
0.8125
 40
0.8125610352
 40
0.8126220703
 40
0.8127441406
 40
0.8129882812
 40
0.8132324219
 40
0.8134765625
 40
0.8139648438
 40
0.814453125
 40
0.8154296875
 40
0.81640625
 40
0.8173828125
 40
0.818359375
 40
0.8203125
 40
0.822265625
 40
0.82421875
 40
0.828125
 40
0.83203125
 40
0.8359375
 40
0.83984375
 40
0.84375
 40
0.84765625
 40
0.8515625
 40
0.85546875
 40
0.859375
 40
0.86328125
 40
0.865234375
 40
0.8671875
 40
0.869140625
 40
0.8701171875
 40
0.87109375
 40
0.8720703125
 40
0.873046875
 40
0.8735351562
 40
0.8740234375
 40
0.8742675781
 40
0.8745117188
 40
0.8747558594
 40
0.8748779297
 40
0.8749389648
 40
0.875
 40
0.8750610352
 40
0.8751220703
 40
0.8752441406
 40
0.8754882812
 40
0.8757324219
 40
0.8759765625
 40
0.8764648438
 40
0.876953125
 40
0.8779296875
 40
0.87890625
 40
0.8798828125
 40
0.880859375
 40
0.8828125
 40
0.884765625
 40
0.88671875
 40
0.890625
 40
0.89453125
 40
0.8984375
 40
0.90234375
 40
0.90625
 40
0.91015625
 40
0.9140625
 40
0.91796875
 40
0.921875
 40
0.92578125
 40
0.927734375
 40
0.9296875
 40
0.931640625
 40
0.9326171875
 40
0.93359375
 40
0.9345703125
 40
0.935546875
 40
0.9360351562
 40
0.9365234375
 40
0.9367675781
 40
0.9370117188
 40
0.9372558594
 40
0.9373779297
 40
0.9374389648
 40
0.9375
 40
0.9375610352
 40
0.9376220703
 40
0.9377441406
 40
0.9379882812
 40
0.9382324219
 40
0.9384765625
 40
0.9389648438
 40
0.939453125
 40
0.9404296875
 40
0.94140625
 40
0.9423828125
 40
0.943359375
 40
0.9453125
 40
0.947265625
 40
0.94921875
 40
0.953125
 40
0.95703125
 40
0.9609375
 40
0.96484375
 40
0.96875
 40
0.9765625
 40
0.984375
 40
0.9921875
 40
1.0
 40
1.0
 40
1.0
 40
1.0
 10
10.3074804468
 20
9.5477186712
 30
0.0
 10
10.3060733269
 20
9.547678286
 30
0.0
 10
10.3032590871
 20
9.5475975155
 30
0.0
 10
10.2990377274
 20
9.5474763599
 30
0.0
 10
10.2948163676
 20
9.5473552042
 30
0.0
 10
10.2912985679
 20
9.5472542412
 30
0.0
 10
10.2884843281
 20
9.5471734708
 30
0.0
 10
10.2863736482
 20
9.5471128929
 30
0.0
 10
10.2842629684
 20
9.5470523151
 30
0.0
 10
10.2821522885
 20
9.5469917373
 30
0.0
 10
10.2803933886
 20
9.5469412558
 30
0.0
 10
10.2789862687
 20
9.5469008705
 30
0.0
 10
10.2779309288
 20
9.5468705816
 30
0.0
 10
10.2770514788
 20
9.5468453409
 30
0.0
 10
10.2763479189
 20
9.5468251482
 30
0.0
 10
10.2758202489
 20
9.546810004
 30
0.0
 10
10.2752925791
 20
9.5467948587
 30
0.0
 10
10.2748528536
 20
9.5467822409
 30
0.0
 10
10.2745010747
 20
9.5467721393
 30
0.0
 10
10.2742812096
 20
9.5467658426
 30
0.0
 10
10.274105325
 20
9.5467607667
 30
0.0
 10
10.2739733909
 20
9.5467570655
 30
0.0
 10
10.2738635116
 20
9.5467536448
 30
0.0
 10
10.2737864671
 20
9.5467519104
 30
0.0
 10
10.273742643
 20
9.5467498886
 30
0.0
 10
10.2737092078
 20
9.5467512758
 30
0.0
 10
10.2736779404
 20
9.5467415643
 30
0.0
 10
10.2736354944
 20
9.546732487
 30
0.0
 10
10.2735615662
 20
9.546714798
 30
0.0
 10
10.2734557703
 20
9.546690471
 30
0.0
 10
10.2733288941
 20
9.5466608749
 30
0.0
 10
10.2731596983
 20
9.5466215545
 30
0.0
 10
10.272948213
 20
9.5465723557
 30
0.0
 10
10.2726098311
 20
9.5464936646
 30
0.0
 10
10.2721868557
 20
9.5463952915
 30
0.0
 10
10.2716792843
 20
9.5462772478
 30
0.0
 10
10.2711717132
 20
9.546159203
 30
0.0
 10
10.2704949516
 20
9.5460018103
 30
0.0
 10
10.2696489996
 20
9.5458050692
 30
0.0
 10
10.2686338573
 20
9.5455689801
 30
0.0
 10
10.2672803341
 20
9.5452541945
 30
0.0
 10
10.2655884302
 20
9.5448607125
 30
0.0
 10
10.2635581455
 20
9.5443885341
 30
0.0
 10
10.2615278608
 20
9.5439163557
 30
0.0
 10
10.2594975761
 20
9.5434441774
 30
0.0
 10
10.2574672913
 20
9.542971999
 30
0.0
 10
10.2554370066
 20
9.5424998206
 30
0.0
 10
10.2534067219
 20
9.5420276423
 30
0.0
 10
10.2513764372
 20
9.5415554639
 30
0.0
 10
10.2493461525
 20
9.5410832855
 30
0.0
 10
10.2476542485
 20
9.5406898035
 30
0.0
 10
10.2463007254
 20
9.540375018
 30
0.0
 10
10.245285583
 20
9.5401389288
 30
0.0
 10
10.2444396311
 20
9.5399421878
 30
0.0
 10
10.2437628695
 20
9.5397847949
 30
0.0
 10
10.2432552983
 20
9.5396667506
 30
0.0
 10
10.2427477274
 20
9.5395487052
 30
0.0
 10
10.2423247504
 20
9.5394503372
 30
0.0
 10
10.2419863717
 20
9.5393716357
 30
0.0
 10
10.2417748785
 20
9.5393224634
 30
0.0
 10
10.2416056987
 20
9.5392830886
 30
0.0
 10
10.2414787734
 20
9.5392536587
 30
0.0
 10
10.2413731312
 20
9.539228812
 30
0.0
 10
10.2412989287
 20
9.5392120506
 30
0.0
 10
10.2412569222
 20
9.539201487
 30
0.0
 10
10.2412243048
 20
9.539196341
 30
0.0
 10
10.2411959403
 20
9.5391805812
 30
0.0
 10
10.2411566376
 20
9.5391632704
 30
0.0
 10
10.241088549
 20
9.5391312515
 30
0.0
 10
10.2409909182
 20
9.5390864121
 30
0.0
 10
10.240873916
 20
9.5390322188
 30
0.0
 10
10.2407178589
 20
9.5389600959
 30
0.0
 10
10.2405228061
 20
9.5388698961
 30
0.0
 10
10.2402107113
 20
9.5387256022
 30
0.0
 10
10.2398205964
 20
9.538545226
 30
0.0
 10
10.2393524569
 20
9.5383287784
 30
0.0
 10
10.2388843178
 20
9.5381123297
 30
0.0
 10
10.2382601322
 20
9.5378237319
 30
0.0
 10
10.2374799003
 20
9.5374629844
 30
0.0
 10
10.2365436219
 20
9.5370300875
 30
0.0
 10
10.2352952508
 20
9.5364528917
 30
0.0
 10
10.2337347869
 20
9.5357313969
 30
0.0
 10
10.2318622303
 20
9.5348656031
 30
0.0
 10
10.2299896736
 20
9.5339998093
 30
0.0
 10
10.228117117
 20
9.5331340155
 30
0.0
 10
10.2262445603
 20
9.5322682217
 30
0.0
 10
10.2243720036
 20
9.5314024279
 30
0.0
 10
10.222499447
 20
9.5305366341
 30
0.0
 10
10.2206268903
 20
9.5296708403
 30
0.0
 10
10.2187543336
 20
9.5288050465
 30
0.0
 10
10.2171938698
 20
9.5280835517
 30
0.0
 10
10.2159454986
 20
9.5275063558
 30
0.0
 10
10.2150092203
 20
9.5270734589
 30
0.0
 10
10.2142289884
 20
9.5267127115
 30
0.0
 10
10.2136048028
 20
9.5264241135
 30
0.0
 10
10.2131366636
 20
9.5262076653
 30
0.0
 10
10.2126685248
 20
9.5259912161
 30
0.0
 10
10.2122784076
 20
9.5258108448
 30
0.0
 10
10.2119663174
 20
9.5256665408
 30
0.0
 10
10.2117712528
 20
9.5255763667
 30
0.0
 10
10.21161522
 20
9.5255041912
 30
0.0
 10
10.2114981435
 20
9.5254501586
 30
0.0
 10
10.211400745
 20
9.5254048163
 30
0.0
 10
10.2113322418
 20
9.5253736951
 30
0.0
 10
10.2112936034
 20
9.5253549461
 30
0.0
 10
10.2112631984
 20
9.525343604
 30
0.0
 10
10.2112382451
 20
9.5253218658
 30
0.0
 10
10.2112030725
 20
9.5252965078
 30
0.0
 10
10.2111424065
 20
9.5252504418
 30
0.0
 10
10.2110552774
 20
9.5251855165
 30
0.0
 10
10.2109509209
 20
9.525107228
 30
0.0
 10
10.2108117095
 20
9.5250029754
 30
0.0
 10
10.2106377191
 20
9.5248726145
 30
0.0
 10
10.2103593211
 20
9.5246640623
 30
0.0
 10
10.2100113282
 20
9.5244033634
 30
0.0
 10
10.2095937348
 20
9.5240905285
 30
0.0
 10
10.2091761419
 20
9.5237776925
 30
0.0
 10
10.2086193511
 20
9.5233605782
 30
0.0
 10
10.2079233628
 20
9.5228391853
 30
0.0
 10
10.2070881767
 20
9.5222135137
 30
0.0
 10
10.2059745953
 20
9.5213792851
 30
0.0
 10
10.2045826185
 20
9.5203364992
 30
0.0
 10
10.2029122464
 20
9.5190851562
 30
0.0
 10
10.2012418743
 20
9.5178338131
 30
0.0
 10
10.1995715022
 20
9.5165824701
 30
0.0
 10
10.1979011301
 20
9.5153311271
 30
0.0
 10
10.196230758
 20
9.514079784
 30
0.0
 10
10.1945603859
 20
9.512828441
 30
0.0
 10
10.1928900137
 20
9.511577098
 30
0.0
 10
10.1912196416
 20
9.5103257549
 30
0.0
 10
10.1898276649
 20
9.5092829691
 30
0.0
 10
10.1887140835
 20
9.5084487404
 30
0.0
 10
10.1878788974
 20
9.5078230688
 30
0.0
 10
10.187182909
 20
9.5073016759
 30
0.0
 10
10.1866261183
 20
9.5068845615
 30
0.0
 10
10.1862085251
 20
9.5065717259
 30
0.0
 10
10.1857909328
 20
9.5062588896
 30
0.0
 10
10.1854429365
 20
9.505998195
 30
0.0
 10
10.1851645454
 20
9.505789634
 30
0.0
 10
10.1849905376
 20
9.5056592955
 30
0.0
 10
10.1848513618
 20
9.505554997
 30
0.0
 10
10.1847468967
 20
9.5054768487
 30
0.0
 10
10.1846601074
 20
9.5054114848
 30
0.0
 10
10.1845988349
 20
9.5053662018
 30
0.0
 10
10.1845646339
 20
9.5053395892
 30
0.0
 10
10.184536696
 20
9.5053217046
 30
0.0
 10
10.184517501
 20
9.5052958892
 30
0.0
 10
10.184488858
 20
9.505264235
 30
0.0
 10
10.1844401536
 20
9.5052075513
 30
0.0
 10
10.184369833
 20
9.5051272484
 30
0.0
 10
10.1842857663
 20
9.5050305965
 30
0.0
 10
10.1841735663
 20
9.5049018281
 30
0.0
 10
10.1840333543
 20
9.504740833
 30
0.0
 10
10.1838089938
 20
9.5044832602
 30
0.0
 10
10.1835285506
 20
9.5041612876
 30
0.0
 10
10.1831920155
 20
9.5037749233
 30
0.0
 10
10.1828554813
 20
9.5033885582
 30
0.0
 10
10.1824067688
 20
9.502873405
 30
0.0
 10
10.1818458782
 20
9.5022294635
 30
0.0
 10
10.1811728095
 20
9.5014567337
 30
0.0
 10
10.1802753845
 20
9.5004264272
 30
0.0
 10
10.1791536032
 20
9.4991385442
 30
0.0
 10
10.1778074657
 20
9.4975930846
 30
0.0
 10
10.1764613283
 20
9.4960476249
 30
0.0
 10
10.1751151908
 20
9.4945021653
 30
0.0
 10
10.1737690533
 20
9.4929567056
 30
0.0
 10
10.1724229158
 20
9.491411246
 30
0.0
 10
10.1710767783
 20
9.4898657863
 30
0.0
 10
10.1697306408
 20
9.4883203267
 30
0.0
 10
10.1683845034
 20
9.4867748671
 30
0.0
 10
10.1672627221
 20
9.485486984
 30
0.0
 10
10.1663652971
 20
9.4844566776
 30
0.0
 10
10.1656922284
 20
9.4836839478
 30
0.0
 10
10.1651313377
 20
9.4830400063
 30
0.0
 10
10.1646826253
 20
9.482524853
 30
0.0
 10
10.1643460907
 20
9.4821384882
 30
0.0
 10
10.1640095571
 20
9.4817521228
 30
0.0
 10
10.1637291096
 20
9.4814301537
 30
0.0
 10
10.1635047578
 20
9.4811725738
 30
0.0
 10
10.1633645238
 20
9.4810115968
 30
0.0
 10
10.1632523689
 20
9.4808827913
 30
0.0
 10
10.1631681644
 20
9.4807862525
 30
0.0
 10
10.163098275
 20
9.4807055958
 30
0.0
 10
10.1630488008
 20
9.4806495437
 30
0.0
 10
10.1630213912
 20
9.4806168775
 30
0.0
 10
10.1629984077
 20
9.4805941705
 30
0.0
 10
10.1629846986
 20
9.4805646115
 30
0.0
 10
10.1629631849
 20
9.4805275895
 30
0.0
 10
10.1629270431
 20
9.4804616875
 30
0.0
 10
10.1628746239
 20
9.480368124
 30
0.0
 10
10.1628120582
 20
9.4802555986
 30
0.0
 10
10.1627285194
 20
9.4801056518
 30
0.0
 10
10.1626241363
 20
9.4799181884
 30
0.0
 10
10.1624571008
 20
9.4796182637
 30
0.0
 10
10.1622483142
 20
9.4792433522
 30
0.0
 10
10.1619977668
 20
9.4787934607
 30
0.0
 10
10.1617472204
 20
9.4783435686
 30
0.0
 10
10.1614131582
 20
9.4777437127
 30
0.0
 10
10.1609955806
 20
9.4769938927
 30
0.0
 10
10.1604944874
 20
9.4760941087
 30
0.0
 10
10.1598263631
 20
9.4748943968
 30
0.0
 10
10.1589912077
 20
9.4733947569
 30
0.0
 10
10.1579890213
 20
9.471595189
 30
0.0
 10
10.1569868349
 20
9.4697956211
 30
0.0
 10
10.1559846485
 20
9.4679960532
 30
0.0
 10
10.1549824621
 20
9.4661964853
 30
0.0
 10
10.1539802757
 20
9.4643969174
 30
0.0
 10
10.1529780893
 20
9.4625973495
 30
0.0
 10
10.1519759028
 20
9.4607977816
 30
0.0
 10
10.1509737164
 20
9.4589982137
 30
0.0
 10
10.1501385611
 20
9.4574985737
 30
0.0
 10
10.1494704368
 20
9.4562988618
 30
0.0
 10
10.1489693436
 20
9.4553990778
 30
0.0
 10
10.1485517659
 20
9.4546492579
 30
0.0
 10
10.1482177038
 20
9.4540494019
 30
0.0
 10
10.147967157
 20
9.45359951
 30
0.0
 10
10.1477166112
 20
9.4531496177
 30
0.0
 10
10.1475078199
 20
9.4527747089
 30
0.0
 10
10.1473407938
 20
9.4524747785
 30
0.0
 10
10.1472363868
 20
9.4522873296
 30
0.0
 10
10.1471528971
 20
9.4521373531
 30
0.0
 10
10.1470901816
 20
9.4520249184
 30
0.0
 10
10.147038231
 20
9.4519310711
 30
0.0
 10
10.1470012527
 20
9.4518656756
 30
0.0
 10
10.1469810792
 20
9.4518278421
 30
0.0
 10
10.1469632535
 20
9.451800776
 30
0.0
 10
10.1469557315
 20
9.4517687062
 30
0.0
 10
10.1469421082
 20
9.4517276918
 30
0.0
 10
10.146919942
 20
9.4516551035
 30
0.0
 10
10.1468874005
 20
9.451551831
 30
0.0
 10
10.1468487254
 20
9.451427722
 30
0.0
 10
10.1467970278
 20
9.4512623069
 30
0.0
 10
10.1467324505
 20
9.4510555163
 30
0.0
 10
10.1466291018
 20
9.4507246635
 30
0.0
 10
10.1464999246
 20
9.4503110934
 30
0.0
 10
10.1463449082
 20
9.4498148109
 30
0.0
 10
10.1461898928
 20
9.449318528
 30
0.0
 10
10.1459832053
 20
9.4486568177
 30
0.0
 10
10.145724846
 20
9.4478296797
 30
0.0
 10
10.1454148148
 20
9.4468371141
 30
0.0
 10
10.1450014399
 20
9.4455136933
 30
0.0
 10
10.1444847212
 20
9.4438594173
 30
0.0
 10
10.1438646589
 20
9.4418742861
 30
0.0
 10
10.1432445965
 20
9.439889155
 30
0.0
 10
10.1426245341
 20
9.4379040238
 30
0.0
 10
10.1420044717
 20
9.4359188926
 30
0.0
 10
10.1413844094
 20
9.4339337614
 30
0.0
 10
10.140764347
 20
9.4319486302
 30
0.0
 10
10.1401442846
 20
9.4299634991
 30
0.0
 10
10.1395242222
 20
9.4279783679
 30
0.0
 10
10.1390075036
 20
9.4263240919
 30
0.0
 10
10.1385941287
 20
9.4250006711
 30
0.0
 10
10.1382840975
 20
9.4240081055
 30
0.0
 10
10.1380257381
 20
9.4231809675
 30
0.0
 10
10.1378190507
 20
9.4225192571
 30
0.0
 10
10.1376640349
 20
9.4220229744
 30
0.0
 10
10.1375090201
 20
9.4215266913
 30
0.0
 10
10.1373798379
 20
9.4211131233
 30
0.0
 10
10.1372764994
 20
9.4207822661
 30
0.0
 10
10.1372118963
 20
9.4205754865
 30
0.0
 10
10.1371602518
 20
9.4204100489
 30
0.0
 10
10.1371214142
 20
9.4202860087
 30
0.0
 10
10.1370893811
 20
9.4201825211
 30
0.0
 10
10.1370663073
 20
9.4201103168
 30
0.0
 10
10.1370541381
 20
9.420068687
 30
0.0
 10
10.1370421496
 20
9.4200385077
 30
0.0
 10
10.1370410999
 20
9.420004341
 30
0.0
 10
10.1370358847
 20
9.4199601763
 30
0.0
 10
10.1370285359
 20
9.41988224
 30
0.0
 10
10.1370171081
 20
9.4197712413
 30
0.0
 10
10.1370037926
 20
9.4196378977
 30
0.0
 10
10.1369858997
 20
9.419460157
 30
0.0
 10
10.1369635811
 20
9.4192379637
 30
0.0
 10
10.1369278447
 20
9.4188824642
 30
0.0
 10
10.1368831834
 20
9.4184380865
 30
0.0
 10
10.136829586
 20
9.4179048347
 30
0.0
 10
10.1367759896
 20
9.4173715824
 30
0.0
 10
10.1367045273
 20
9.4166605796
 30
0.0
 10
10.1366151996
 20
9.415771826
 30
0.0
 10
10.1365080063
 20
9.4147053217
 30
0.0
 10
10.1363650819
 20
9.413283316
 30
0.0
 10
10.1361864265
 20
9.4115058088
 30
0.0
 10
10.1359720399
 20
9.4093728003
 30
0.0
 10
10.1357576534
 20
9.4072397917
 30
0.0
 10
10.1355432668
 20
9.4051067831
 30
0.0
 10
10.1353288802
 20
9.4029737745
 30
0.0
 10
10.1351144937
 20
9.400840766
 30
0.0
 10
10.1349001071
 20
9.3987077574
 30
0.0
 10
10.1346857206
 20
9.3965747488
 30
0.0
 10
10.134471334
 20
9.3944417402
 30
0.0
 10
10.1342926785
 20
9.3926642331
 30
0.0
 10
10.1341497542
 20
9.3912422273
 30
0.0
 10
10.1340425609
 20
9.3901757231
 30
0.0
 10
10.1339532331
 20
9.3892869695
 30
0.0
 10
10.133881771
 20
9.3885759666
 30
0.0
 10
10.1338281741
 20
9.3880427145
 30
0.0
 10
10.1337745784
 20
9.3875094623
 30
0.0
 10
10.1337299118
 20
9.3870650855
 30
0.0
 10
10.1336941862
 20
9.3867095842
 30
0.0
 10
10.1336718404
 20
9.3864873955
 30
0.0
 10
10.1336540033
 20
9.3863096453
 30
0.0
 10
10.1336405172
 20
9.3861763307
 30
0.0
 10
10.1336296232
 20
9.3860652416
 30
0.0
 10
10.1336213216
 20
9.3859874665
 30
0.0
 10
10.1336176329
 20
9.3859430435
 30
0.0
 10
10.1336118942
 20
9.38590967
 30
0.0
 10
10.1336175168
 20
9.3858765116
 30
0.0
 10
10.1336210506
 20
9.3858322254
 30
0.0
 10
10.1336290812
 20
9.3857547595
 30
0.0
 10
10.1336395881
 20
9.3856440756
 30
0.0
 10
10.1336526097
 20
9.3855112627
 30
0.0
 10
10.1336698274
 20
9.3853341762
 30
0.0
 10
10.133691399
 20
9.3851128189
 30
0.0
 10
10.1337258858
 20
9.3847586468
 30
0.0
 10
10.1337690039
 20
9.3843159318
 30
0.0
 10
10.1338207415
 20
9.3837846737
 30
0.0
 10
10.1338724803
 20
9.3832534157
 30
0.0
 10
10.1339414649
 20
9.3825450716
 30
0.0
 10
10.1340276957
 20
9.3816596416
 30
0.0
 10
10.1341311727
 20
9.3805971255
 30
0.0
 10
10.134269142
 20
9.3791804374
 30
0.0
 10
10.1344416036
 20
9.3774095772
 30
0.0
 10
10.1346485576
 20
9.3752845451
 30
0.0
 10
10.1348555116
 20
9.3731595129
 30
0.0
 10
10.1350624655
 20
9.3710344807
 30
0.0
 10
10.1352694195
 20
9.3689094486
 30
0.0
 10
10.1354763735
 20
9.3667844164
 30
0.0
 10
10.1356833275
 20
9.3646593843
 30
0.0
 10
10.1358902814
 20
9.3625343521
 30
0.0
 10
10.1360972354
 20
9.3604093199
 30
0.0
 10
10.136269697
 20
9.3586384598
 30
0.0
 10
10.1364076663
 20
9.3572217717
 30
0.0
 10
10.1365111433
 20
9.3561592556
 30
0.0
 10
10.1365973741
 20
9.3552738255
 30
0.0
 10
10.1366663589
 20
9.3545654815
 30
0.0
 10
10.1367180971
 20
9.3540342234
 30
0.0
 10
10.1367698364
 20
9.3535029655
 30
0.0
 10
10.1368129493
 20
9.3530602501
 30
0.0
 10
10.1368474469
 20
9.3527060788
 30
0.0
 10
10.1368689912
 20
9.3524847195
 30
0.0
 10
10.1368862648
 20
9.352307637
 30
0.0
 10
10.1368991157
 20
9.3521748118
 30
0.0
 10
10.1369101565
 20
9.3520641667
 30
0.0
 10
10.136917234
 20
9.3519866314
 30
0.0
 10
10.136922295
 20
9.3519424563
 30
0.0
 10
10.1369232266
 20
9.3519089565
 30
0.0
 10
10.1369351064
 20
9.3518768653
 30
0.0
 10
10.1369471274
 20
9.3518335856
 30
0.0
 10
10.1369699433
 20
9.3517580751
 30
0.0
 10
10.1370016073
 20
9.3516500834
 30
0.0
 10
10.1370400022
 20
9.3515205445
 30
0.0
 10
10.1370910564
 20
9.351347808
 30
0.0
 10
10.1371549218
 20
9.3511318936
 30
0.0
 10
10.1372570797
 20
9.3507864271
 30
0.0
 10
10.1373847862
 20
9.3503545951
 30
0.0
 10
10.1375380302
 20
9.3498363963
 30
0.0
 10
10.1376912752
 20
9.3493181976
 30
0.0
 10
10.1378956015
 20
9.3486272659
 30
0.0
 10
10.1381510095
 20
9.3477636014
 30
0.0
 10
10.138457499
 20
9.3467272039
 30
0.0
 10
10.1388661517
 20
9.3453453406
 30
0.0
 10
10.1393769677
 20
9.3436180114
 30
0.0
 10
10.1399899468
 20
9.3415452165
 30
0.0
 10
10.1406029258
 20
9.3394724215
 30
0.0
 10
10.1412159049
 20
9.3373996265
 30
0.0
 10
10.141828884
 20
9.3353268316
 30
0.0
 10
10.1424418631
 20
9.3332540366
 30
0.0
 10
10.1430548422
 20
9.3311812417
 30
0.0
 10
10.1436678213
 20
9.3291084467
 30
0.0
 10
10.1442808004
 20
9.3270356517
 30
0.0
 10
10.1447916163
 20
9.3253083226
 30
0.0
 10
10.1452002691
 20
9.3239264593
 30
0.0
 10
10.1455067586
 20
9.3228900618
 30
0.0
 10
10.1457621665
 20
9.3220263972
 30
0.0
 10
10.145966493
 20
9.3213354656
 30
0.0
 10
10.1461197375
 20
9.3208172668
 30
0.0
 10
10.1462729831
 20
9.3202990683
 30
0.0
 10
10.1464006847
 20
9.3198672352
 30
0.0
 10
10.1465028528
 20
9.3195217711
 30
0.0
 10
10.1465666922
 20
9.3193058506
 30
0.0
 10
10.1466177996
 20
9.3191331266
 30
0.0
 10
10.1466560319
 20
9.3190035498
 30
0.0
 10
10.1466882048
 20
9.3188956764
 30
0.0
 10
10.1467101122
 20
9.3188199546
 30
0.0
 10
10.1467235889
 20
9.3187770135
 30
0.0
 10
10.146730997
 20
9.3187438823
 30
0.0
 10
10.1467487238
 20
9.3187142885
 30
0.0
 10
10.1467687603
 20
9.3186735963
 30
0.0
 10
10.1468055011
 20
9.3186029597
 30
0.0
 10
10.1468571113
 20
9.3185017497
 30
0.0
 10
10.1469194187
 20
9.3183804264
 30
0.0
 10
10.1470023642
 20
9.3182186171
 30
0.0
 10
10.147106091
 20
9.3180163708
 30
0.0
 10
10.1472720287
 20
9.3176927682
 30
0.0
 10
10.1474794595
 20
9.3172882679
 30
0.0
 10
10.1477283727
 20
9.3168028662
 30
0.0
 10
10.1479772869
 20
9.3163174648
 30
0.0
 10
10.1483091722
 20
9.3156702629
 30
0.0
 10
10.1487240289
 20
9.3148612606
 30
0.0
 10
10.1492218569
 20
9.3138904578
 30
0.0
 10
10.1498856276
 20
9.312596054
 30
0.0
 10
10.150715341
 20
9.3109780493
 30
0.0
 10
10.151710997
 20
9.3090364437
 30
0.0
 10
10.152706653
 20
9.307094838
 30
0.0
 10
10.1537023091
 20
9.3051532324
 30
0.0
 10
10.1546979651
 20
9.3032116267
 30
0.0
 10
10.1556936212
 20
9.3012700211
 30
0.0
 10
10.1566892772
 20
9.2993284154
 30
0.0
 10
10.1576849332
 20
9.2973868098
 30
0.0
 10
10.1586805893
 20
9.2954452042
 30
0.0
 10
10.1595103026
 20
9.2938271995
 30
0.0
 10
10.1601740733
 20
9.2925327957
 30
0.0
 10
10.1606719014
 20
9.2915619929
 30
0.0
 10
10.161086758
 20
9.2907529905
 30
0.0
 10
10.1614186434
 20
9.2901057887
 30
0.0
 10
10.1616675572
 20
9.2896203871
 30
0.0
 10
10.161916472
 20
9.2891349861
 30
0.0
 10
10.162123898
 20
9.2887304838
 30
0.0
 10
10.1622898455
 20
9.2884068851
 30
0.0
 10
10.1623935474
 20
9.2882046288
 30
0.0
 10
10.1624765438
 20
9.2880428402
 30
0.0
 10
10.1625386957
 20
9.2879214534
 30
0.0
 10
10.1625907925
 20
9.287820442
 30
0.0
 10
10.1626266645
 20
9.2877494511
 30
0.0
 10
10.1626480931
 20
9.2877093266
 30
0.0
 10
10.1626615438
 20
9.2876779887
 30
0.0
 10
10.1626850125
 20
9.287651408
 30
0.0
 10
10.1627128097
 20
9.2876143076
 30
0.0
 10
10.1627630829
 20
9.2875501551
 30
0.0
 10
10.1628340507
 20
9.2874581044
 30
0.0
 10
10.1629195763
 20
9.2873478166
 30
0.0
 10
10.1630334832
 20
9.2872007058
 30
0.0
 10
10.1631759104
 20
9.287016838
 30
0.0
 10
10.1634037695
 20
9.286722638
 30
0.0
 10
10.1636886018
 20
9.2863548919
 30
0.0
 10
10.164030397
 20
9.2859135949
 30
0.0
 10
10.1643721931
 20
9.2854722983
 30
0.0
 10
10.164827921
 20
9.2848839027
 30
0.0
 10
10.1653975809
 20
9.2841484083
 30
0.0
 10
10.1660811728
 20
9.283265815
 30
0.0
 10
10.1669926286
 20
9.2820890239
 30
0.0
 10
10.1681319484
 20
9.2806180351
 30
0.0
 10
10.1694991321
 20
9.2788528484
 30
0.0
 10
10.1708663158
 20
9.2770876618
 30
0.0
 10
10.1722334996
 20
9.2753224752
 30
0.0
 10
10.1736006833
 20
9.2735572886
 30
0.0
 10
10.174967867
 20
9.2717921019
 30
0.0
 10
10.1763350508
 20
9.2700269153
 30
0.0
 10
10.1777022345
 20
9.2682617287
 30
0.0
 10
10.1790694182
 20
9.266496542
 30
0.0
 10
10.180208738
 20
9.2650255532
 30
0.0
 10
10.1811201938
 20
9.2638487621
 30
0.0
 10
10.1818037857
 20
9.2629661688
 30
0.0
 10
10.1823734456
 20
9.2622306743
 30
0.0
 10
10.1828291735
 20
9.2616422789
 30
0.0
 10
10.1831709693
 20
9.261200982
 30
0.0
 10
10.1835127658
 20
9.260759686
 30
0.0
 10
10.183797594
 20
9.2603919368
 30
0.0
 10
10.1840254615
 20
9.260097743
 30
0.0
 10
10.1841678675
 20
9.2599138594
 30
0.0
 10
10.1842818178
 20
9.2597667811
 30
0.0
 10
10.1843672108
 20
9.2596563939
 30
0.0
 10
10.1844385936
 20
9.2595646542
 30
0.0
 10
10.1844881259
 20
9.2594999466
 30
0.0
 10
10.1845171103
 20
9.2594637356
 30
0.0
 10
10.1845369324
 20
9.2594344231
 30
0.0
 10
10.184564079
 20
9.2594133454
 30
0.0
 10
10.1845977196
 20
9.2593823694
 30
0.0
 10
10.184657781
 20
9.2593294997
 30
0.0
 10
10.1847429606
 20
9.2592532719
 30
0.0
 10
10.1848454425
 20
9.259162098
 30
0.0
 10
10.1849819921
 20
9.2590404283
 30
0.0
 10
10.1851527109
 20
9.2588883769
 30
0.0
 10
10.1854258431
 20
9.2586450747
 30
0.0
 10
10.1857672646
 20
9.2583409538
 30
0.0
 10
10.1861769676
 20
9.2579760057
 30
0.0
 10
10.1865866714
 20
9.2576110585
 30
0.0
 10
10.1871329429
 20
9.2571244619
 30
0.0
 10
10.1878157824
 20
9.2565162162
 30
0.0
 10
10.1886351897
 20
9.2557863214
 30
0.0
 10
10.1897277327
 20
9.2548131283
 30
0.0
 10
10.1910934115
 20
9.2535966369
 30
0.0
 10
10.1927322261
 20
9.2521368472
 30
0.0
 10
10.1943710407
 20
9.2506770576
 30
0.0
 10
10.1960098553
 20
9.2492172679
 30
0.0
 10
10.1976486699
 20
9.2477574782
 30
0.0
 10
10.1992874845
 20
9.2462976886
 30
0.0
 10
10.2009262991
 20
9.2448378989
 30
0.0
 10
10.2025651137
 20
9.2433781092
 30
0.0
 10
10.2042039283
 20
9.2419183196
 30
0.0
 10
10.2055696071
 20
9.2407018282
 30
0.0
 10
10.2066621502
 20
9.2397286351
 30
0.0
 10
10.2074815575
 20
9.2389987403
 30
0.0
 10
10.2081643969
 20
9.2383904945
 30
0.0
 10
10.2087106685
 20
9.237903898
 30
0.0
 10
10.209120372
 20
9.2375389504
 30
0.0
 10
10.2095300761
 20
9.2371740037
 30
0.0
 10
10.2098714944
 20
9.2368698788
 30
0.0
 10
10.2101446331
 20
9.2366265847
 30
0.0
 10
10.2103153354
 20
9.2364745125
 30
0.0
 10
10.2104519188
 20
9.2363528855
 30
0.0
 10
10.2105542972
 20
9.236261581
 30
0.0
 10
10.2106398008
 20
9.236185762
 30
0.0
 10
10.2106992839
 20
9.2361321626
 30
0.0
 10
10.2107338509
 20
9.2361023557
 30
0.0
 10
10.2107581519
 20
9.2360776869
 30
0.0
 10
10.2107886616
 20
9.2360618621
 30
0.0
 10
10.2108271756
 20
9.2360376773
 30
0.0
 10
10.210895584
 20
9.2359967914
 30
0.0
 10
10.2109927828
 20
9.2359376315
 30
0.0
 10
10.2111096471
 20
9.2358669612
 30
0.0
 10
10.2112653874
 20
9.2357726218
 30
0.0
 10
10.2114600897
 20
9.235654736
 30
0.0
 10
10.2117715984
 20
9.2354660973
 30
0.0
 10
10.2121609894
 20
9.2352303063
 30
0.0
 10
10.2126282564
 20
9.2349473539
 30
0.0
 10
10.2130955239
 20
9.2346644024
 30
0.0
 10
10.2137185471
 20
9.2342871334
 30
0.0
 10
10.2144973262
 20
9.2338155472
 30
0.0
 10
10.2154318611
 20
9.2332496438
 30
0.0
 10
10.2166779076
 20
9.2324951059
 30
0.0
 10
10.2182354658
 20
9.2315519335
 30
0.0
 10
10.2201045355
 20
9.2304201267
 30
0.0
 10
10.2219736053
 20
9.2292883199
 30
0.0
 10
10.2238426751
 20
9.228156513
 30
0.0
 10
10.2257117448
 20
9.2270247062
 30
0.0
 10
10.2275808146
 20
9.2258928993
 30
0.0
 10
10.2294498844
 20
9.2247610925
 30
0.0
 10
10.2313189541
 20
9.2236292856
 30
0.0
 10
10.2331880239
 20
9.2224974788
 30
0.0
 10
10.234745582
 20
9.2215543064
 30
0.0
 10
10.2359916285
 20
9.2207997685
 30
0.0
 10
10.2369261634
 20
9.2202338651
 30
0.0
 10
10.2377049425
 20
9.2197622789
 30
0.0
 10
10.2383279658
 20
9.21938501
 30
0.0
 10
10.2387952331
 20
9.2191020581
 30
0.0
 10
10.2392625009
 20
9.2188191071
 30
0.0
 10
10.2396518894
 20
9.2185833117
 30
0.0
 10
10.2399634031
 20
9.218394682
 30
0.0
 10
10.2401580926
 20
9.2182767733
 30
0.0
 10
10.2403138592
 20
9.2181824811
 30
0.0
 10
10.2404306432
 20
9.2181116666
 30
0.0
 10
10.2405280933
 20
9.2180529578
 30
0.0
 10
10.2405960532
 20
9.2180112665
 30
0.0
 10
10.2406352858
 20
9.2179883722
 30
0.0
 10
10.2406635881
 20
9.2179685837
 30
0.0
 10
10.2406961795
 20
9.2179588016
 30
0.0
 10
10.2407381387
 20
9.2179422684
 30
0.0
 10
10.2408122643
 20
9.2179149615
 30
0.0
 10
10.2409177935
 20
9.2178751015
 30
0.0
 10
10.2410445846
 20
9.2178276335
 30
0.0
 10
10.241213585
 20
9.2177642156
 30
0.0
 10
10.241424854
 20
9.2176849868
 30
0.0
 10
10.2417628741
 20
9.2175581963
 30
0.0
 10
10.2421854027
 20
9.2173997166
 30
0.0
 10
10.2426924355
 20
9.2172095374
 30
0.0
 10
10.2431994688
 20
9.2170193591
 30
0.0
 10
10.243875513
 20
9.2167657878
 30
0.0
 10
10.2447205683
 20
9.2164488237
 30
0.0
 10
10.2457346346
 20
9.2160684668
 30
0.0
 10
10.247086723
 20
9.2155613242
 30
0.0
 10
10.2487768336
 20
9.214927396
 30
0.0
 10
10.2508049662
 20
9.2141666821
 30
0.0
 10
10.2528330989
 20
9.2134059683
 30
0.0
 10
10.2548612315
 20
9.2126452544
 30
0.0
 10
10.2568893642
 20
9.2118845406
 30
0.0
 10
10.2589174968
 20
9.2111238267
 30
0.0
 10
10.2609456295
 20
9.2103631129
 30
0.0
 10
10.2629737621
 20
9.209602399
 30
0.0
 10
10.2650018948
 20
9.2088416852
 30
0.0
 10
10.2666920053
 20
9.2082077569
 30
0.0
 10
10.2680440938
 20
9.2077006144
 30
0.0
 10
10.2690581601
 20
9.2073202575
 30
0.0
 10
10.2699032153
 20
9.2070032933
 30
0.0
 10
10.2705792596
 20
9.2067497221
 30
0.0
 10
10.2710862927
 20
9.2065595434
 30
0.0
 10
10.2715933261
 20
9.2063693658
 30
0.0
 10
10.272015853
 20
9.2062108812
 30
0.0
 10
10.2723538766
 20
9.2060841007
 30
0.0
 10
10.2725651365
 20
9.2060048466
 30
0.0
 10
10.2727341556
 20
9.2059414806
 30
0.0
 10
10.2728608892
 20
9.205893854
 30
0.0
 10
10.2729665984
 20
9.2058544899
 30
0.0
 10
10.2730404028
 20
9.2058262978
 30
0.0
 10
10.2730828766
 20
9.2058111831
 30
0.0
 10
10.2731138872
 20
9.2057970439
 30
0.0
 10
10.2731481268
 20
9.2057936197
 30
0.0
 10
10.2731926532
 20
9.2057853166
 30
0.0
 10
10.2732710991
 20
9.2057725275
 30
0.0
 10
10.2733828905
 20
9.205753347
 30
0.0
 10
10.2735171575
 20
9.2057307201
 30
0.0
 10
10.2736961392
 20
9.2057004147
 30
0.0
 10
10.2739198804
 20
9.2056625796
 30
0.0
 10
10.2742778584
 20
9.2056020174
 30
0.0
 10
10.2747253335
 20
9.2055263236
 30
0.0
 10
10.2752623026
 20
9.2054354872
 30
0.0
 10
10.275799272
 20
9.2053446518
 30
0.0
 10
10.2765152311
 20
9.2052235377
 30
0.0
 10
10.27741018
 20
9.205072145
 30
0.0
 10
10.2784841186
 20
9.2048904738
 30
0.0
 10
10.2799160368
 20
9.2046482456
 30
0.0
 10
10.2817059345
 20
9.2043454603
 30
0.0
 10
10.2838538118
 20
9.203982118
 30
0.0
 10
10.2860016891
 20
9.2036187756
 30
0.0
 10
10.2881495664
 20
9.2032554333
 30
0.0
 10
10.2910134028
 20
9.2027709768
 30
0.0
 10
10.2945931983
 20
9.2021654062
 30
0.0
 10
10.2988889528
 20
9.2014387215
 30
0.0
 10
10.3031847074
 20
9.2007120368
 30
0.0
 10
10.3060485438
 20
9.2002275803
 30
0.0
 10
10.307480462
 20
9.1999853521
 30
0.0
  0
ENDSEC
  0
SECTION
  2
OBJECTS
  0
DICTIONARY
  5
C
100
AcDbDictionary
280
0
281
1
  3
ACAD_GROUP
350
D
  3
ACAD_MLINESTYLE
350
17
  3
ACAD_LAYOUT
350
1A
  3
ACAD_PLOTSETTINGS
350
19
  3
ACAD_PLOTSTYLENAME
350
E
  3
ACAD_IMAGE_DICT
350
       396
  3
ACAD_IMAGE_VARS
350
       397
  3
ACAD_TABLESTYLE
350
       398
  0
IMAGEDEF_REACTOR
  5
395
100
AcDbRasterImageDefReactor
 90
2
330
292
  0
DICTIONARY
  5
D
102
{ACAD_REACTORS
330
C
102
}
100
AcDbDictionary
280
0
281
1
  0
ACDBDICTIONARYWDFLT
  5
E
102
{ACAD_REACTORS
330
C
102
}
100
AcDbDictionary
281
1
  3
Normal
350
F
100
AcDbDictionaryWithDefault
340
F
  0
DICTIONARY
  5
396
330
C
100
AcDbDictionary
281
1
  3
A2J_assy_2_img_1
350
       39B
  0
RASTERVARIABLES
  5
397
330
C
100
AcDbRasterVariables
 90
0
 70
0
 71
1
 72
5
  0
DICTIONARY
  5
17
102
{ACAD_REACTORS
330
C
102
}
100
AcDbDictionary
280
0
281
1
  3
Standard
350
18
  0
DICTIONARY
  5
398
330
C
100
AcDbDictionary
281
1
  3
Standard
350
       39C
  3
Standard1
350
       39D
  0
DICTIONARY
  5
19
102
{ACAD_REACTORS
330
C
102
}
100
AcDbDictionary
281
1
  0
DICTIONARY
  5
1A
102
{ACAD_REACTORS
330
C
102
}
100
AcDbDictionary
281
1
  3
Model
350
399
  3
Layout1
350
39A
  0
ACDBPLACEHOLDER
  5
F
102
{ACAD_REACTORS
330
E
102
}
  0
MLINESTYLE
  5
18
102
{ACAD_REACTORS
330
17
102
}
100
AcDbMlineStyle
  2
STANDARD
 70
0
  3

 62
256
 51
90.0
 52
90.0
 71
2
 49
0.5
 62
256
  6
BYLAYER
 49
-0.5
 62
256
  6
BYLAYER
  0
LAYOUT
  5
399
102
{ACAD_REACTORS
330
1A
102
}
100
AcDbPlotSettings
  1

  2
none_device
  4
ANSI_C_(22.00_x_17.00_Inches)
  6

 40
0.0
 41
0.0
 42
0.0
 43
0.0
 44
558.8
 45
431.8
 46
0.0
 47
0.0
 48
0.0
 49
0.0
140
0.0
141
0.0
142
1.0
143
1.0
 70
1024
 72
0
 73
0
 74
0
  7

 75
0
147
1.0
148
0.0
149
0.0
100
AcDbLayout
  1
Model
 70
0
 71
0
 10
0.0
 20
0.0
 11
22.0
 21
17.0
 12
0.0
 22
0.0
 32
0.0
 14
0.0
 24
0.0
 34
0.0
 15
0.0
 25
0.0
 35
0.0
146
0.0
 13
0.0
 23
0.0
 33
0.0
 16
1.0
 26
0.0
 36
0.0
 17
0.0
 27
1.0
 37
0.0
 76
0
330
20C
345
0
346
0
  0
LAYOUT
  5
39A
102
{ACAD_REACTORS
330
1A
102
}
100
AcDbPlotSettings
  1

  2
none_device
  4
ANSI_C_(22.00_x_17.00_Inches)
  6

 40
0.0
 41
0.0
 42
0.0
 43
0.0
 44
558.8
 45
431.8
 46
0.0
 47
0.0
 48
0.0
 49
0.0
140
0.0
141
0.0
142
1.0
143
1.0
 70
0
 72
0
 73
0
 74
0
  7

 75
0
147
1.0
148
0.0
149
0.0
100
AcDbLayout
  1
Layout1
 70
0
 71
1
 10
0.0
 20
0.0
 11
22.0
 21
17.0
 12
0.0
 22
0.0
 32
0.0
 14
0.0
 24
0.0
 34
0.0
 15
0.0
 25
0.0
 35
0.0
146
0.0
 13
0.0
 23
0.0
 33
0.0
 16
1.0
 26
0.0
 36
0.0
 17
0.0
 27
1.0
 37
0.0
 76
0
330
20D
345
0
346
0
  0
IMAGEDEF
  5
39B
102
{ACAD_REACTORS
330
396
330
395
102
}
100
AcDbRasterImageDef
 90
0
  1
A2J_assy_2_img_1.png
 10
369.0
 20
92.0
 11
0.0066666667
 21
0.0066666667
280
1
281
0
  0
TABLESTYLE
  5
39C
102
{ACAD_REACTORS
330
398
330
295
330
296
102
}
330
398
100
AcDbTableStyle
  3
Standard
 70
0
 71
0
 40
0.06
 41
0.06
280
1
281
1
  7
Standard
140
0.18
170
1
 62
0
 63
7
283
0
  7
Standard
140
0.18
170
1
 62
0
 63
7
283
0
  7
Standard
140
0.18
170
1
 62
0
 63
7
283
0
  0
TABLESTYLE
  5
39D
102
{ACAD_REACTORS
330
398
330
294
102
}
330
398
100
AcDbTableStyle
  3
Standard1
 70
1
 71
0
 40
0.06
 41
0.06
280
1
281
1
  7
Standard
140
0.18
170
1
 62
0
 63
7
283
0
  7
Standard
140
0.18
170
1
 62
0
 63
7
283
0
  7
Standard
140
0.18
170
1
 62
0
 63
7
283
0
  0
ENDSEC
  0
EOF
