999
DXF file: 5BD_assy_2.dxf
999
Pro/ENGINEER 2014200 by Parametric Technology Corporation
  0
SECTION
  2
HEADER
  9
$ACADVER
  1
AC1021
  9
$DWGCODEPAGE
  3
ANSI_1252
  9
$EXTMAX
 10
22.0
 20
17.0
 30
0.0
  9
$EXTMIN
 10
0.0
 20
0.0
 30
0.0
  9
$LIMMIN
 10
0.0
 20
0.0
  9
$LIMMAX
 10
22.0
 20
17.0
  9
$VIEWCTR
 10
11.0
 20
8.5
  9
$VIEWSIZE
 40
17.0
  9
$CLAYER
  8
0
  9
$LTSCALE
 40
1.21
  9
$CELTYPE
  6
BYLAYER
  9
$DIMSCALE
 40
1.0
  9
$DIMASZ
 40
0.1875
  9
$DIMEXO
 40
0.0625
  9
$DIMDLI
 40
0.836
  9
$DIMEXE
 40
0.125
  9
$DIMCEN
 40
0.198
  9
$DIMLFAC
 40
1.0
  9
$DIMBLK
  1
_FILLED
  9
$DIMTXT
 40
0.1
  9
$DIMTOL
 70
0
  9
$DIMLIM
 70
0
  9
$DIMTFAC
 40
1.0
  9
$DIMGAP
 40
0.09
  9
$DIMDSEP
 70
46
  9
$AUNITS
 70
0
  9
$PDMODE
 70
3
  9
$PDSIZE
 40
0.3125
  9
$HANDSEED
  5
422
  9
$TILEMODE
 70
1
  9
$MEASUREMENT
 70
0
  9
$INSUNITS
 70
1
  0
ENDSEC
  0
SECTION
  2
CLASSES
  0
CLASS
  1
ACDBDICTIONARYWDFLT
  2
AcDbDictionaryWithDefault
  3
AutoCAD 2000
 90
0
 91
1
280
0
281
0
  0
CLASS
  1
ACDBPLACEHOLDER
  2
AcDbPlaceHolder
  3
AutoCAD 2000
 90
0
 91
1
280
0
281
0
  0
CLASS
  1
LAYOUT
  2
AcDbLayout
  3
AutoCAD 2000
 90
0
 91
0
280
0
281
0
  0
CLASS
  1
RASTERVARIABLES
  2
AcDbRasterVariables
  3
ISM
 90
0
 91
1
280
0
281
0
  0
CLASS
  1
IMAGEDEF
  2
AcDbRasterImageDef
  3
ISM
 90
0
 91
1
280
0
281
0
  0
CLASS
  1
IMAGEDEF_REACTOR
  2
AcDbRasterImageDefReactor
  3
ISM
 90
0
 91
1
280
0
281
0
  0
CLASS
  1
IMAGE
  2
AcDbRasterImage
  3
ISM
 90
127
 91
1
280
0
281
1
  0
CLASS
  1
TABLESTYLE
  2
AcDbTableStyle
  3
ObjectDBX Classes
 90
2047
 91
1
280
0
281
0
  0
CLASS
  1
ACAD_TABLE
  2
AcDbTable
  3
ObjectDBX Classes
 90
1025
 91
3
280
0
281
1
  0
ENDSEC
  0
SECTION
  2
TABLES
  0
TABLE
  2
VPORT
  5
8
100
AcDbSymbolTable
 70
2
  0
VPORT
  5
1F4
100
AcDbSymbolTableRecord
100
AcDbViewportTableRecord
  2
*ACTIVE
 70
0
 10
0.0
 20
0.0
 11
1.0
 21
1.0
 12
11.0
 22
8.5
 13
0.0
 23
0.0
 14
1.0
 24
1.0
 15
0.0
 25
0.0
 16
0.0
 26
0.0
 36
1.0
 17
0.0
 27
0.0
 37
0.0
 40
17.0
 41
1.2941176471
 42
50.0
 43
0.0
 44
0.0
 50
0.0
 51
0.0
 71
0
 72
100
 73
1
 74
1
 75
0
 76
0
 77
0
 78
0
  0
ENDTAB
  0
TABLE
  2
LTYPE
  5
5
100
AcDbSymbolTable
 70
6
  0
LTYPE
  5
14
100
AcDbSymbolTableRecord
100
AcDbLinetypeTableRecord
  2
BYBLOCK
 70
0
  3

 72
65
 73
0
 40
0.0
  0
LTYPE
  5
15
100
AcDbSymbolTableRecord
100
AcDbLinetypeTableRecord
  2
BYLAYER
 70
0
  3

 72
65
 73
0
 40
0.0
  0
LTYPE
  5
16
100
AcDbSymbolTableRecord
100
AcDbLinetypeTableRecord
  2
CONTINUOUS
 70
64
  3
Solid line
 72
65
 73
0
 40
0.0
  0
LTYPE
  5
1F5
100
AcDbSymbolTableRecord
100
AcDbLinetypeTableRecord
  2
CENTER
 70
64
  3
____ _ ____ _ ____ _ ____ _ ____ _ ____ _ ____
 72
65
 73
4
 40
0.6
 49
0.375
 74
0
 49
-0.075
 74
0
 49
0.075
 74
0
 49
-0.075
 74
0
  0
LTYPE
  5
1F6
100
AcDbSymbolTableRecord
100
AcDbLinetypeTableRecord
  2
HIDDEN
 70
64
  3
- - - - - - - - - - - - - - - - - - - -
 72
65
 73
2
 40
0.2
 49
0.1
 74
0
 49
-0.1
 74
0
  0
LTYPE
  5
1F7
100
AcDbSymbolTableRecord
100
AcDbLinetypeTableRecord
  2
PHANTOM
 70
64
  3
_____ _ _ _____ _ _ _____ _ _ _____
 72
65
 73
6
 40
0.8
 49
0.45
 74
0
 49
-0.05
 74
0
 49
0.1
 74
0
 49
-0.05
 74
0
 49
0.1
 74
0
 49
-0.05
 74
0
  0
LTYPE
  5
1F8
100
AcDbSymbolTableRecord
100
AcDbLinetypeTableRecord
  2
DOT
 70
64
  3
. . . . . . . . . . . . . . . . . . . .
 72
65
 73
2
 40
0.2
 49
0.1
 74
0
 49
-0.1
 74
0
  0
LTYPE
  5
1F9
100
AcDbSymbolTableRecord
100
AcDbLinetypeTableRecord
  2
DASHED
 70
64
  3
- - - - - - - - - - - - - - - - - - - -
 72
65
 73
2
 40
0.2
 49
0.1
 74
0
 49
-0.1
 74
0
  0
ENDTAB
  0
TABLE
  2
LAYER
  5
2
100
AcDbSymbolTable
 70
36
  0
LAYER
  5
10
100
AcDbSymbolTableRecord
100
AcDbLayerTableRecord
  2
0
 70
0
 62
7
  6
CONTINUOUS
370
-3
390
F
  0
LAYER
  5
1FA
100
AcDbSymbolTableRecord
100
AcDbLayerTableRecord
  2
DEFAULT_1
 70
0
 62
7
  6
CENTER
370
-3
390
F
  0
LAYER
  5
1FB
100
AcDbSymbolTableRecord
100
AcDbLayerTableRecord
  2
DEFAULT_2
 70
0
 62
8
  6
HIDDEN
370
-3
390
F
  0
LAYER
  5
1FC
100
AcDbSymbolTableRecord
100
AcDbLayerTableRecord
  2
DEFAULT_3
 70
0
 62
7
  6
PHANTOM
370
-3
390
F
  0
LAYER
  5
1FD
100
AcDbSymbolTableRecord
100
AcDbLayerTableRecord
  2
01___PRT_ALL_DTM_PLN
 70
0
 62
7
  6
CONTINUOUS
370
-3
390
F
  0
LAYER
  5
1FE
100
AcDbSymbolTableRecord
100
AcDbLayerTableRecord
  2
01___PRT_DEF_DTM_PLN
 70
0
 62
7
  6
CONTINUOUS
370
-3
390
F
  0
LAYER
  5
1FF
100
AcDbSymbolTableRecord
100
AcDbLayerTableRecord
  2
02___PRT_ALL_AXES
 70
0
 62
7
  6
CONTINUOUS
370
-3
390
F
  0
LAYER
  5
200
100
AcDbSymbolTableRecord
100
AcDbLayerTableRecord
  2
03___PRT_ALL_CURVES
 70
0
 62
7
  6
CONTINUOUS
370
-3
390
F
  0
LAYER
  5
201
100
AcDbSymbolTableRecord
100
AcDbLayerTableRecord
  2
04___PRT_ALL_DTM_PNT
 70
0
 62
7
  6
CONTINUOUS
370
-3
390
F
  0
LAYER
  5
202
100
AcDbSymbolTableRecord
100
AcDbLayerTableRecord
  2
05___PRT_ALL_DTM_CSYS
 70
0
 62
7
  6
CONTINUOUS
370
-3
390
F
  0
LAYER
  5
203
100
AcDbSymbolTableRecord
100
AcDbLayerTableRecord
  2
05___PRT_DEF_DTM_CSYS
 70
0
 62
7
  6
CONTINUOUS
370
-3
390
F
  0
LAYER
  5
204
100
AcDbSymbolTableRecord
100
AcDbLayerTableRecord
  2
06___PRT_ALL_SURFS
 70
0
 62
7
  6
CONTINUOUS
370
-3
390
F
  0
LAYER
  5
205
100
AcDbSymbolTableRecord
100
AcDbLayerTableRecord
  2
DATUM_PLANES
 70
0
 62
7
  6
CONTINUOUS
370
-3
390
F
  0
LAYER
  5
206
100
AcDbSymbolTableRecord
100
AcDbLayerTableRecord
  2
PORT_AREAS
 70
0
 62
7
  6
CONTINUOUS
370
-3
390
F
  0
LAYER
  5
207
100
AcDbSymbolTableRecord
100
AcDbLayerTableRecord
  2
SUNNBOMCOSMETIC
 70
0
 62
7
  6
CONTINUOUS
370
-3
390
F
  0
LAYER
  5
208
100
AcDbSymbolTableRecord
100
AcDbLayerTableRecord
  2
SUNNBOMSTAMPING
 70
0
 62
7
  6
CONTINUOUS
370
-3
390
F
  0
LAYER
  5
209
100
AcDbSymbolTableRecord
100
AcDbLayerTableRecord
  2
THREADS
 70
0
 62
7
  6
CONTINUOUS
370
-3
390
F
  0
ENDTAB
  0
TABLE
  2
STYLE
  5
3
100
AcDbSymbolTable
 70
1
  0
STYLE
  5
11
100
AcDbSymbolTableRecord
100
AcDbTextStyleTableRecord
  2
STANDARD
 70
0
 40
0.0
 41
0.8
 50
0.0
 71
0
 42
0.2
  3
txt
  4

  0
STYLE
  5
20A
100
AcDbSymbolTableRecord
100
AcDbTextStyleTableRecord
  2
TEXTSTYLE_1
 70
0
 40
0.0
 41
0.8
 50
0.0
 71
0
 42
0.2
  3
gdt
  4

  0
ENDTAB
  0
TABLE
  2
VIEW
  5
6
100
AcDbSymbolTable
 70
0
  0
ENDTAB
  0
TABLE
  2
UCS
  5
7
100
AcDbSymbolTable
 70
0
  0
ENDTAB
  0
TABLE
  2
APPID
  5
9
100
AcDbSymbolTable
 70
1
  0
APPID
  5
20B
100
AcDbSymbolTableRecord
100
AcDbRegAppTableRecord
  2
ACAD
 70
0
  0
ENDTAB
  0
TABLE
  2
BLOCK_RECORD
  5
1
100
AcDbSymbolTable
 70
0
  0
BLOCK_RECORD
  5
20C
100
AcDbSymbolTableRecord
100
AcDbBlockTableRecord
  2
*Model_Space
  0
BLOCK_RECORD
  5
20D
100
AcDbSymbolTableRecord
100
AcDbBlockTableRecord
  2
*Paper_Space
  0
BLOCK_RECORD
  5
20E
100
AcDbSymbolTableRecord
100
AcDbBlockTableRecord
  2
SUN_FIRST_THIRD_ANGLE_BL0
  0
BLOCK_RECORD
  5
20F
100
AcDbSymbolTableRecord
100
AcDbBlockTableRecord
  2
*T1
  0
BLOCK_RECORD
  5
210
100
AcDbSymbolTableRecord
100
AcDbBlockTableRecord
  2
*T2
  0
BLOCK_RECORD
  5
211
100
AcDbSymbolTableRecord
100
AcDbBlockTableRecord
  2
*T3
  0
ENDTAB
  0
TABLE
  2
DIMSTYLE
  5
A
100
AcDbSymbolTable
 70
1
100
AcDbDimStyleTable
 71
0
  0
DIMSTYLE
105
212
100
AcDbSymbolTableRecord
100
AcDbDimStyleTableRecord
  2
STANDARD
 70
0
  3

  4

 40
1.0
 41
0.1875
 42
0.0625
 43
0.38
 44
0.125
 45
0.0
 46
0.0
 47
0.001
 48
0.001
140
0.1
141
0.09
142
0.0
143
25.4
144
1.0
145
0.0
146
1.0
147
0.09
 71
0.0
 72
0.0
 73
1
 74
1
 75
0
 76
0
 77
0
 78
4
170
0
171
2
172
0
173
0
174
0
175
0
176
0
177
0
178
0
270
2
271
3
272
3
273
2
274
2
275
0
280
0
281
0
282
0
283
1
284
4
285
0
286
0
287
3
288
0
340
11
278
46
  0
ENDTAB
  0
ENDSEC
  0
SECTION
  2
BLOCKS
  0
BLOCK
  5
20
100
AcDbEntity
  8
0
100
AcDbBlockBegin
  2
*Model_Space
 70
0
 10
0.0
 20
0.0
 30
0.0
  3
*Model_Space
  1

  0
ENDBLK
  5
21
100
AcDbEntity
  8
0
100
AcDbBlockEnd
  0
BLOCK
  5
1C
100
AcDbEntity
  8
0
100
AcDbBlockBegin
  2
*Paper_Space
 70
0
 10
0.0
 20
0.0
 30
0.0
  3
*Paper_Space
  1

  0
ENDBLK
  5
1D
100
AcDbEntity
  8
0
100
AcDbBlockEnd
  0
BLOCK
  5
213
100
AcDbEntity
  8
0
100
AcDbBlockBegin
 62
2
  6
CONTINUOUS
  2
SUN_FIRST_THIRD_ANGLE_BL0
 70
64
 10
20.4816717061
 20
1.2289683772
  3
SUN_FIRST_THIRD_ANGLE_BL0
  1

  0
TEXT
  5
214
100
AcDbEntity
  8
0
100
AcDbText
 62
2
  6
CONTINUOUS
 10
19.4750896608
 20
1.4136269581
  7
STANDARD
 40
0.08
  1
FIRST ANGLE
 41
0.8
 72
0
100
AcDbText
  0
TEXT
  5
215
100
AcDbEntity
  8
0
100
AcDbText
 62
2
  6
CONTINUOUS
 10
20.7842537513
 20
1.4047600029
  7
STANDARD
 40
0.08
  1
THIRD ANGLE
 41
0.8
 72
0
100
AcDbText
  0
LINE
  5
216
100
AcDbEntity
  8
0
100
AcDbLine
 62
7
  6
CONTINUOUS
 10
19.4767170086
 20
1.1727031207
 11
19.6334271527
 21
1.1717972817
  0
LINE
  5
217
100
AcDbEntity
  8
0
100
AcDbLine
 62
7
  6
CONTINUOUS
 10
19.6596964832
 20
1.1717972817
 11
19.6950230232
 21
1.171593082
  0
LINE
  5
218
100
AcDbEntity
  8
0
100
AcDbLine
 62
7
  6
CONTINUOUS
 10
19.7194818561
 20
1.1708914427
 11
19.8852396156
 21
1.1699333054
  0
LINE
  5
219
100
AcDbEntity
  8
0
100
AcDbLine
 62
7
  6
CONTINUOUS
 10
19.4758111696
 20
1.2723454088
 11
19.88525039
 21
1.3511534004
  0
LINE
  5
21A
100
AcDbEntity
  8
0
100
AcDbLine
 62
7
  6
CONTINUOUS
 10
19.88525039
 20
1.3511534004
 11
19.8831348489
 21
0.9851647912
  0
LINE
  5
21B
100
AcDbEntity
  8
0
100
AcDbLine
 62
7
  6
CONTINUOUS
 10
19.8831348489
 20
0.9851647912
 11
19.4767170086
 21
1.0658141206
  0
LINE
  5
21C
100
AcDbEntity
  8
0
100
AcDbLine
 62
7
  6
CONTINUOUS
 10
19.4767170086
 20
1.0658141206
 11
19.4779056764
 21
1.2714536432
  0
CIRCLE
  5
21D
100
AcDbEntity
  8
0
100
AcDbCircle
 62
7
  6
CONTINUOUS
 10
20.2068232291
 20
1.1717972817
 40
0.175742101
  0
CIRCLE
  5
21E
100
AcDbEntity
  8
0
100
AcDbCircle
 62
7
  6
CONTINUOUS
 10
20.2068232291
 20
1.1717972817
 40
0.1005522074
  0
LINE
  5
21F
100
AcDbEntity
  8
0
100
AcDbLine
 62
7
  6
CONTINUOUS
 10
20.2077290681
 20
1.3756110529
 11
20.2071171714
 21
1.2379342989
  0
LINE
  5
220
100
AcDbEntity
  8
0
100
AcDbLine
 62
7
  6
CONTINUOUS
 10
20.2077290681
 20
1.2016899681
 11
20.2074674401
 21
1.1428236749
  0
LINE
  5
221
100
AcDbEntity
  8
0
100
AcDbLine
 62
7
  6
CONTINUOUS
 10
20.208634907
 20
1.101141841
 11
20.2080230104
 21
0.963465087
  0
LINE
  5
222
100
AcDbEntity
  8
0
100
AcDbLine
 62
7
  6
CONTINUOUS
 10
20.0066328138
 20
1.1745147986
 11
20.1443095678
 21
1.1739029019
  0
LINE
  5
223
100
AcDbEntity
  8
0
100
AcDbLine
 62
7
  6
CONTINUOUS
 10
20.1832714155
 20
1.1727031207
 11
20.238153505
 21
1.172335442
  0
LINE
  5
224
100
AcDbEntity
  8
0
100
AcDbLine
 62
7
  6
CONTINUOUS
 10
20.2756669918
 20
1.1717972817
 11
20.407916871
 21
1.1712095044
  0
CIRCLE
  5
225
100
AcDbEntity
  8
0
100
AcDbCircle
 62
7
  6
CONTINUOUS
 10
20.7509457401
 20
1.1693297793
 40
0.1722024983
  0
CIRCLE
  5
226
100
AcDbEntity
  8
0
100
AcDbCircle
 62
7
  6
CONTINUOUS
 10
20.7509457401
 20
1.1693297793
 40
0.0985164967
  0
LINE
  5
227
100
AcDbEntity
  8
0
100
AcDbLine
 62
7
  6
CONTINUOUS
 10
20.7169767782
 20
1.170462078
 11
20.7825395137
 21
1.1682766535
  0
LINE
  5
228
100
AcDbEntity
  8
0
100
AcDbLine
 62
7
  6
CONTINUOUS
 10
20.8177513651
 20
1.1693297793
 11
20.947965719
 21
1.1693297793
  0
LINE
  5
229
100
AcDbEntity
  8
0
100
AcDbLine
 62
7
  6
CONTINUOUS
 10
20.6875370113
 20
1.170462078
 11
20.5573226574
 21
1.170462078
  0
LINE
  5
22A
100
AcDbEntity
  8
0
100
AcDbLine
 62
7
  6
CONTINUOUS
 10
20.7486811426
 20
1.1987695462
 11
20.7486811426
 21
1.1432869085
  0
LINE
  5
22B
100
AcDbEntity
  8
0
100
AcDbLine
 62
7
  6
CONTINUOUS
 10
20.7498134414
 20
1.1059210505
 11
20.7498134414
 21
0.9757066966
  0
LINE
  5
22C
100
AcDbEntity
  8
0
100
AcDbLine
 62
7
  6
CONTINUOUS
 10
20.7486811426
 20
1.2338708068
 11
20.7486811426
 21
1.3640851607
  0
LINE
  5
22D
100
AcDbEntity
  8
0
100
AcDbLine
 62
7
  6
CONTINUOUS
 10
21.0702539817
 20
1.2701043662
 11
21.4790138229
 21
1.3448360823
  0
LINE
  5
22E
100
AcDbEntity
  8
0
100
AcDbLine
 62
7
  6
CONTINUOUS
 10
21.4790138229
 20
1.3448360823
 11
21.4790138229
 21
0.9779712941
  0
LINE
  5
22F
100
AcDbEntity
  8
0
100
AcDbLine
 62
7
  6
CONTINUOUS
 10
21.4790138229
 20
0.9779712941
 11
21.069121683
 21
1.0617614
  0
LINE
  5
230
100
AcDbEntity
  8
0
100
AcDbLine
 62
7
  6
CONTINUOUS
 10
21.0702539817
 20
1.2701043662
 11
21.069121683
 21
1.0617614
  0
LINE
  5
231
100
AcDbEntity
  8
0
100
AcDbLine
 62
7
  6
CONTINUOUS
 10
21.4790138229
 20
1.1693297793
 11
21.3159628059
 21
1.1693297793
  0
LINE
  5
232
100
AcDbEntity
  8
0
100
AcDbLine
 62
7
  6
CONTINUOUS
 10
21.2876553377
 20
1.1693297793
 11
21.2502894796
 21
1.1693297793
  0
LINE
  5
233
100
AcDbEntity
  8
0
100
AcDbLine
 62
7
  6
CONTINUOUS
 10
21.2208497126
 20
1.1659328831
 11
21.0713862804
 21
1.1659328831
  0
LINE
  5
234
100
AcDbEntity
  8
0
100
AcDbLine
 62
7
  6
CONTINUOUS
 10
20.4796138713
 20
1.5284908897
 11
20.4766766948
 21
0.9294458646
  0
ENDBLK
  5
235
100
AcDbEntity
  8
0
  6
BYBLOCK
 62
0
100
AcDbBlockEnd
  0
BLOCK
  5
236
100
AcDbEntity
  8
0
100
AcDbBlockBegin
  2
*T1
 70
1
 10
0.0
 20
0.0
  3
*T1
  1

  0
LINE
  5
237
100
AcDbEntity
  8
0
100
AcDbLine
 62
2
  6
CONTINUOUS
 10
9.275
 20
0.0
 11
-0.0
 21
0.0
  0
LINE
  5
238
100
AcDbEntity
  8
0
100
AcDbLine
 62
2
  6
CONTINUOUS
 10
9.275
 20
0.0
 11
9.275
 21
1.25
  0
LINE
  5
239
100
AcDbEntity
  8
0
100
AcDbLine
 62
2
  6
CONTINUOUS
 10
9.275
 20
0.625
 11
-0.0
 21
0.625
  0
LINE
  5
23A
100
AcDbEntity
  8
0
100
AcDbLine
 62
2
  6
CONTINUOUS
 10
9.275
 20
1.25
 11
-0.0
 21
1.25
  0
LINE
  5
23B
100
AcDbEntity
  8
0
100
AcDbLine
 62
2
  6
CONTINUOUS
 10
6.8
 20
0.0
 11
6.8
 21
1.25
  0
LINE
  5
23C
100
AcDbEntity
  8
0
100
AcDbLine
 62
2
  6
CONTINUOUS
 10
6.4
 20
0.0
 11
6.4
 21
0.625
  0
LINE
  5
23D
100
AcDbEntity
  8
0
100
AcDbLine
 62
2
  6
CONTINUOUS
 10
5.9
 20
0.0
 11
5.9
 21
0.625
  0
LINE
  5
23E
100
AcDbEntity
  8
0
100
AcDbLine
 62
2
  6
CONTINUOUS
 10
5.2
 20
0.0
 11
5.2
 21
0.625
  0
LINE
  5
23F
100
AcDbEntity
  8
0
100
AcDbLine
 62
2
  6
CONTINUOUS
 10
4.1
 20
0.0
 11
4.1
 21
1.25
  0
LINE
  5
240
100
AcDbEntity
  8
0
100
AcDbLine
 62
2
  6
CONTINUOUS
 10
-0.0
 20
0.0
 11
-0.0
 21
1.25
  0
MTEXT
  5
241
100
AcDbEntity
  8
0
100
AcDbMText
 62
2
  6
CONTINUOUS
  7
STANDARD
 71
2
 72
1
 10
6.6
 20
0.325
 30
0.0
 11
1.0
 21
0.0
 31
0.0
 44
0.9
  1
2
 40
0.125
 41
0.2
  0
MTEXT
  5
242
100
AcDbEntity
  8
0
100
AcDbMText
 62
2
  6
CONTINUOUS
  7
STANDARD
 71
2
 72
1
 10
6.15
 20
0.325
 30
0.0
 11
1.0
 21
0.0
 31
0.0
 44
0.9
  1
C
 40
0.125
 41
0.2
  0
MTEXT
  5
243
100
AcDbEntity
  8
0
100
AcDbMText
 62
2
  6
CONTINUOUS
  7
STANDARD
 71
2
 72
1
 10
5.55
 20
0.325
 30
0.0
 11
1.0
 21
0.0
 31
0.0
 44
0.9
  1
1.000
 40
0.125
 41
1.0
  0
MTEXT
  5
244
100
AcDbEntity
  8
0
100
AcDbMText
 62
2
  6
CONTINUOUS
  7
STANDARD
 71
2
 72
1
 10
4.65
 20
0.325
 30
0.0
 11
1.0
 21
0.0
 31
0.0
 44
0.9
  1
May-11-22
 40
0.125
 41
1.8
  0
MTEXT
  5
245
100
AcDbEntity
  8
0
100
AcDbMText
 62
2
  6
CONTINUOUS
  7
STANDARD
 71
2
 72
1
 10
2.05
 20
0.4625
 30
0.0
 11
1.0
 21
0.0
 31
0.0
 44
0.9
  1
T-2A Line mount\P(See Technical Data for Body Features)
 40
0.125
 41
7.6
  0
MTEXT
  5
246
100
AcDbEntity
  8
0
100
AcDbMText
 62
2
  6
CONTINUOUS
  7
STANDARD
 71
1
 72
1
 10
6.45
 20
0.5625
 30
0.0
 11
1.0
 21
0.0
 31
0.0
 44
0.9
  1
SHEET
 40
0.06
 41
0.48
  0
MTEXT
  5
247
100
AcDbEntity
  8
0
100
AcDbMText
 62
2
  6
CONTINUOUS
  7
STANDARD
 71
1
 72
1
 10
5.95
 20
0.5625
 30
0.0
 11
1.0
 21
0.0
 31
0.0
 44
0.9
  1
DWG SIZE
 40
0.06
 41
0.768
  0
MTEXT
  5
248
100
AcDbEntity
  8
0
100
AcDbMText
 62
2
  6
CONTINUOUS
  7
STANDARD
 71
1
 72
1
 10
5.25
 20
0.5625
 30
0.0
 11
1.0
 21
0.0
 31
0.0
 44
0.9
  1
SCALE
 40
0.06
 41
0.48
  0
MTEXT
  5
249
100
AcDbEntity
  8
0
100
AcDbMText
 62
2
  6
CONTINUOUS
  7
STANDARD
 71
1
 72
1
 10
4.15
 20
0.5625
 30
0.0
 11
1.0
 21
0.0
 31
0.0
 44
0.9
  1
DATE
 40
0.06
 41
0.384
  0
MTEXT
  5
24A
100
AcDbEntity
  8
0
100
AcDbMText
 62
2
  6
CONTINUOUS
  7
STANDARD
 71
1
 72
1
 10
0.05
 20
0.5625
 30
0.0
 11
1.0
 21
0.0
 31
0.0
 44
0.9
  1
DESCRIPTION
 40
0.06
 41
1.056
  0
MTEXT
  5
24B
100
AcDbEntity
  8
0
100
AcDbMText
 62
2
  6
CONTINUOUS
  7
STANDARD
 71
2
 72
1
 10
5.45
 20
1.0375
 30
0.0
 11
1.0
 21
0.0
 31
0.0
 44
0.9
  1
ALL DIMENSIONS IN INCH\PVIEWS ARE THIRD ANGLE
 40
0.12
 41
4.224
  0
MTEXT
  5
24C
100
AcDbEntity
  8
0
100
AcDbMText
 62
2
  6
CONTINUOUS
  7
STANDARD
 71
2
 72
1
 10
2.05
 20
0.95
 30
0.0
 11
1.0
 21
0.0
 31
0.0
 44
0.9
  1
5BD
 40
0.125
 41
0.6
  0
MTEXT
  5
24D
100
AcDbEntity
  8
0
100
AcDbMText
 62
2
  6
CONTINUOUS
  7
STANDARD
 71
1
 72
1
 10
0.05
 20
1.1875
 30
0.0
 11
1.0
 21
0.0
 31
0.0
 44
0.9
  1
MODEL
 40
0.06
 41
0.48
  0
ENDBLK
  5
24E
100
AcDbEntity
  8
0
  6
BYBLOCK
 62
0
100
AcDbBlockEnd
  0
BLOCK
  5
24F
100
AcDbEntity
  8
0
100
AcDbBlockBegin
  2
*T2
 70
1
 10
0.0
 20
0.0
  3
*T2
  1

  0
LINE
  5
250
100
AcDbEntity
  8
0
100
AcDbLine
 62
2
  6
CONTINUOUS
 10
0.0
 20
0.0
 11
9.055
 21
0.0
  0
LINE
  5
251
100
AcDbEntity
  8
0
100
AcDbLine
 62
2
  6
CONTINUOUS
 10
0.0
 20
0.0
 11
0.0
 21
-2.594
  0
LINE
  5
252
100
AcDbEntity
  8
0
100
AcDbLine
 62
2
  6
CONTINUOUS
 10
0.0
 20
-0.344
 11
9.055
 21
-0.344
  0
LINE
  5
253
100
AcDbEntity
  8
0
100
AcDbLine
 62
2
  6
CONTINUOUS
 10
0.0
 20
-0.594
 11
9.055
 21
-0.594
  0
LINE
  5
254
100
AcDbEntity
  8
0
100
AcDbLine
 62
2
  6
CONTINUOUS
 10
0.0
 20
-0.844
 11
9.055
 21
-0.844
  0
LINE
  5
255
100
AcDbEntity
  8
0
100
AcDbLine
 62
2
  6
CONTINUOUS
 10
0.0
 20
-1.094
 11
9.055
 21
-1.094
  0
LINE
  5
256
100
AcDbEntity
  8
0
100
AcDbLine
 62
2
  6
CONTINUOUS
 10
0.0
 20
-1.344
 11
9.055
 21
-1.344
  0
LINE
  5
257
100
AcDbEntity
  8
0
100
AcDbLine
 62
2
  6
CONTINUOUS
 10
0.0
 20
-1.594
 11
9.055
 21
-1.594
  0
LINE
  5
258
100
AcDbEntity
  8
0
100
AcDbLine
 62
2
  6
CONTINUOUS
 10
0.0
 20
-1.844
 11
9.055
 21
-1.844
  0
LINE
  5
259
100
AcDbEntity
  8
0
100
AcDbLine
 62
2
  6
CONTINUOUS
 10
0.0
 20
-2.094
 11
9.055
 21
-2.094
  0
LINE
  5
25A
100
AcDbEntity
  8
0
100
AcDbLine
 62
2
  6
CONTINUOUS
 10
0.0
 20
-2.344
 11
9.055
 21
-2.344
  0
LINE
  5
25B
100
AcDbEntity
  8
0
100
AcDbLine
 62
2
  6
CONTINUOUS
 10
0.0
 20
-2.594
 11
9.055
 21
-2.594
  0
LINE
  5
25C
100
AcDbEntity
  8
0
100
AcDbLine
 62
2
  6
CONTINUOUS
 10
3.055
 20
0.0
 11
3.055
 21
-2.594
  0
LINE
  5
25D
100
AcDbEntity
  8
0
100
AcDbLine
 62
2
  6
CONTINUOUS
 10
9.055
 20
0.0
 11
9.055
 21
-2.594
  0
MTEXT
  5
25E
100
AcDbEntity
  8
0
100
AcDbMText
 62
2
  6
CONTINUOUS
  7
STANDARD
 71
2
 72
1
 10
1.5275
 20
-0.0995
 30
0.0
 11
1.0
 21
0.0
 31
0.0
 44
0.9
  1
Technical Data
 40
0.145
 41
3.248
  0
MTEXT
  5
25F
100
AcDbEntity
  8
0
100
AcDbMText
 62
2
  6
CONTINUOUS
  7
STANDARD
 71
2
 72
1
 10
4.555
 20
-0.0995
 30
0.0
 11
1.0
 21
0.0
 31
0.0
 44
0.9
  1
U.S. Units
 40
0.145
 41
2.32
  0
MTEXT
  5
260
100
AcDbEntity
  8
0
100
AcDbMText
 62
2
  6
CONTINUOUS
  7
STANDARD
 71
2
 72
1
 10
7.555
 20
-0.0995
 30
0.0
 11
1.0
 21
0.0
 31
0.0
 44
0.9
  1
Metric Units
 40
0.145
 41
2.784
  0
MTEXT
  5
261
100
AcDbEntity
  8
0
100
AcDbMText
 62
2
  6
CONTINUOUS
  7
STANDARD
 71
2
 72
1
 10
1.5275
 20
-0.4065
 30
0.0
 11
1.0
 21
0.0
 31
0.0
 44
0.9
  1
Cavity
 40
0.125
 41
1.2
  0
MTEXT
  5
262
100
AcDbEntity
  8
0
100
AcDbMText
 62
2
  6
CONTINUOUS
  7
STANDARD
 71
2
 72
1
 10
6.055
 20
-0.4065
 30
0.0
 11
1.0
 21
0.0
 31
0.0
 44
0.9
  1
T-2A
 40
0.125
 41
0.8
  0
MTEXT
  5
263
100
AcDbEntity
  8
0
100
AcDbMText
 62
2
  6
CONTINUOUS
  7
STANDARD
 71
2
 72
1
 10
1.5275
 20
-0.6565
 30
0.0
 11
1.0
 21
0.0
 31
0.0
 44
0.9
  1
Body Features
 40
0.125
 41
2.6
  0
MTEXT
  5
264
100
AcDbEntity
  8
0
100
AcDbMText
 62
2
  6
CONTINUOUS
  7
STANDARD
 71
2
 72
1
 10
6.055
 20
-0.6565
 30
0.0
 11
1.0
 21
0.0
 31
0.0
 44
0.9
  1
Cushion lock with make up checks and shuttle
 40
0.125
 41
8.8
  0
MTEXT
  5
265
100
AcDbEntity
  8
0
100
AcDbMText
 62
2
  6
CONTINUOUS
  7
STANDARD
 71
2
 72
1
 10
1.5275
 20
-0.9065
 30
0.0
 11
1.0
 21
0.0
 31
0.0
 44
0.9
  1
Body Type
 40
0.125
 41
1.8
  0
MTEXT
  5
266
100
AcDbEntity
  8
0
100
AcDbMText
 62
2
  6
CONTINUOUS
  7
STANDARD
 71
2
 72
1
 10
6.055
 20
-0.9065
 30
0.0
 11
1.0
 21
0.0
 31
0.0
 44
0.9
  1
Line mount
 40
0.125
 41
2.0
  0
MTEXT
  5
267
100
AcDbEntity
  8
0
100
AcDbMText
 62
2
  6
CONTINUOUS
  7
STANDARD
 71
2
 72
1
 10
1.5275
 20
-1.1565
 30
0.0
 11
1.0
 21
0.0
 31
0.0
 44
0.9
  1
Interface
 40
0.125
 41
1.8
  0
MTEXT
  5
268
100
AcDbEntity
  8
0
100
AcDbMText
 62
2
  6
CONTINUOUS
  7
STANDARD
 71
2
 72
1
 10
6.055
 20
-1.1565
 30
0.0
 11
1.0
 21
0.0
 31
0.0
 44
0.9
  1
None
 40
0.125
 41
0.8
  0
MTEXT
  5
269
100
AcDbEntity
  8
0
100
AcDbMText
 62
2
  6
CONTINUOUS
  7
STANDARD
 71
2
 72
1
 10
1.5275
 20
-1.4065
 30
0.0
 11
1.0
 21
0.0
 31
0.0
 44
0.9
  1
Open Cavity Quantity
 40
0.125
 41
4.0
  0
MTEXT
  5
26A
100
AcDbEntity
  8
0
100
AcDbMText
 62
2
  6
CONTINUOUS
  7
STANDARD
 71
2
 72
1
 10
6.055
 20
-1.4065
 30
0.0
 11
1.0
 21
0.0
 31
0.0
 44
0.9
  1
2
 40
0.125
 41
0.2
  0
MTEXT
  5
26B
100
AcDbEntity
  8
0
100
AcDbMText
 62
2
  6
CONTINUOUS
  7
STANDARD
 71
2
 72
1
 10
1.5275
 20
-1.6565
 30
0.0
 11
1.0
 21
0.0
 31
0.0
 44
0.9
  1
Weight
 40
0.125
 41
1.2
  0
MTEXT
  5
26C
100
AcDbEntity
  8
0
100
AcDbMText
 62
2
  6
CONTINUOUS
  7
STANDARD
 71
2
 72
1
 10
4.555
 20
-1.6565
 30
0.0
 11
1.0
 21
0.0
 31
0.0
 44
0.9
  1
7.297 lb.
 40
0.125
 41
1.8
  0
MTEXT
  5
26D
100
AcDbEntity
  8
0
100
AcDbMText
 62
2
  6
CONTINUOUS
  7
STANDARD
 71
2
 72
1
 10
7.555
 20
-1.6565
 30
0.0
 11
1.0
 21
0.0
 31
0.0
 44
0.9
  1
3,310 kg.
 40
0.125
 41
1.8
  0
MTEXT
  5
26E
100
AcDbEntity
  8
0
100
AcDbMText
 62
2
  6
CONTINUOUS
  7
STANDARD
 71
2
 72
1
 10
1.5275
 20
-1.9065
 30
0.0
 11
1.0
 21
0.0
 31
0.0
 44
0.9
  1
Mounting Hole Diameter
 40
0.125
 41
4.4
  0
MTEXT
  5
26F
100
AcDbEntity
  8
0
100
AcDbMText
 62
2
  6
CONTINUOUS
  7
STANDARD
 71
2
 72
1
 10
4.555
 20
-1.9065
 30
0.0
 11
1.0
 21
0.0
 31
0.0
 44
0.9
  1
.41 in.
 40
0.125
 41
1.4
  0
MTEXT
  5
270
100
AcDbEntity
  8
0
100
AcDbMText
 62
2
  6
CONTINUOUS
  7
STANDARD
 71
2
 72
1
 10
7.555
 20
-1.9065
 30
0.0
 11
1.0
 21
0.0
 31
0.0
 44
0.9
  1
10,4 mm
 40
0.125
 41
1.4
  0
MTEXT
  5
271
100
AcDbEntity
  8
0
100
AcDbMText
 62
2
  6
CONTINUOUS
  7
STANDARD
 71
2
 72
1
 10
1.5275
 20
-2.1565
 30
0.0
 11
1.0
 21
0.0
 31
0.0
 44
0.9
  1
Mounting Hole Depth
 40
0.125
 41
3.8
  0
MTEXT
  5
272
100
AcDbEntity
  8
0
100
AcDbMText
 62
2
  6
CONTINUOUS
  7
STANDARD
 71
2
 72
1
 10
6.055
 20
-2.1565
 30
0.0
 11
1.0
 21
0.0
 31
0.0
 44
0.9
  1
Through
 40
0.125
 41
1.4
  0
MTEXT
  5
273
100
AcDbEntity
  8
0
100
AcDbMText
 62
2
  6
CONTINUOUS
  7
STANDARD
 71
2
 72
1
 10
1.5275
 20
-2.4065
 30
0.0
 11
1.0
 21
0.0
 31
0.0
 44
0.9
  1
Mounting Hole Quantity
 40
0.125
 41
4.4
  0
MTEXT
  5
274
100
AcDbEntity
  8
0
100
AcDbMText
 62
2
  6
CONTINUOUS
  7
STANDARD
 71
2
 72
1
 10
6.055
 20
-2.4065
 30
0.0
 11
1.0
 21
0.0
 31
0.0
 44
0.9
  1
2
 40
0.125
 41
0.2
  0
ENDBLK
  5
275
100
AcDbEntity
  8
0
  6
BYBLOCK
 62
0
100
AcDbBlockEnd
  0
BLOCK
  5
276
100
AcDbEntity
  8
0
100
AcDbBlockBegin
  2
*T3
 70
1
 10
0.0
 20
0.0
  3
*T3
  1

  0
LINE
  5
277
100
AcDbEntity
  8
0
100
AcDbLine
 62
2
  6
CONTINUOUS
 10
0.0
 20
0.0
 11
4.6
 21
0.0
  0
LINE
  5
278
100
AcDbEntity
  8
0
100
AcDbLine
 62
2
  6
CONTINUOUS
 10
0.0
 20
0.0
 11
0.0
 21
-1.43775
  0
LINE
  5
279
100
AcDbEntity
  8
0
100
AcDbLine
 62
2
  6
CONTINUOUS
 10
0.0
 20
-0.34375
 11
4.6
 21
-0.34375
  0
LINE
  5
27A
100
AcDbEntity
  8
0
100
AcDbLine
 62
2
  6
CONTINUOUS
 10
0.0
 20
-0.68775
 11
4.6
 21
-0.68775
  0
LINE
  5
27B
100
AcDbEntity
  8
0
100
AcDbLine
 62
2
  6
CONTINUOUS
 10
0.0
 20
-0.93775
 11
4.6
 21
-0.93775
  0
LINE
  5
27C
100
AcDbEntity
  8
0
100
AcDbLine
 62
2
  6
CONTINUOUS
 10
0.0
 20
-1.18775
 11
4.6
 21
-1.18775
  0
LINE
  5
27D
100
AcDbEntity
  8
0
100
AcDbLine
 62
2
  6
CONTINUOUS
 10
0.0
 20
-1.43775
 11
4.6
 21
-1.43775
  0
LINE
  5
27E
100
AcDbEntity
  8
0
100
AcDbLine
 62
2
  6
CONTINUOUS
 10
1.3
 20
-0.34375
 11
1.3
 21
-1.43775
  0
LINE
  5
27F
100
AcDbEntity
  8
0
100
AcDbLine
 62
2
  6
CONTINUOUS
 10
3.3
 20
-0.34375
 11
3.3
 21
-1.43775
  0
LINE
  5
280
100
AcDbEntity
  8
0
100
AcDbLine
 62
2
  6
CONTINUOUS
 10
4.6
 20
0.0
 11
4.6
 21
-1.43775
  0
MTEXT
  5
281
100
AcDbEntity
  8
0
100
AcDbMText
 62
2
  6
CONTINUOUS
  7
STANDARD
 71
2
 72
1
 10
2.3
 20
-0.099375
 30
0.0
 11
1.0
 21
0.0
 31
0.0
 44
0.9
  1
Port Headings
 40
0.145
 41
3.016
  0
MTEXT
  5
282
100
AcDbEntity
  8
0
100
AcDbMText
 62
2
  6
CONTINUOUS
  7
STANDARD
 71
2
 72
1
 10
0.65
 20
-0.44325
 30
0.0
 11
1.0
 21
0.0
 31
0.0
 44
0.9
  1
Product
 40
0.145
 41
1.624
  0
MTEXT
  5
283
100
AcDbEntity
  8
0
100
AcDbMText
 62
2
  6
CONTINUOUS
  7
STANDARD
 71
2
 72
1
 10
2.3
 20
-0.44325
 30
0.0
 11
1.0
 21
0.0
 31
0.0
 44
0.9
  1
Port
 40
0.145
 41
0.928
  0
MTEXT
  5
284
100
AcDbEntity
  8
0
100
AcDbMText
 62
2
  6
CONTINUOUS
  7
STANDARD
 71
2
 72
1
 10
3.95
 20
-0.44325
 30
0.0
 11
1.0
 21
0.0
 31
0.0
 44
0.9
  1
Size
 40
0.145
 41
0.928
  0
MTEXT
  5
285
100
AcDbEntity
  8
0
100
AcDbMText
 62
2
  6
CONTINUOUS
  7
STANDARD
 71
2
 72
1
 10
0.65
 20
-0.75025
 30
0.0
 11
1.0
 21
0.0
 31
0.0
 44
0.9
  1
5BD
 40
0.125
 41
0.6
  0
MTEXT
  5
286
100
AcDbEntity
  8
0
100
AcDbMText
 62
2
  6
CONTINUOUS
  7
STANDARD
 71
2
 72
1
 10
2.3
 20
-0.75025
 30
0.0
 11
1.0
 21
0.0
 31
0.0
 44
0.9
  1
Ports C1, C2, V1, V2
 40
0.125
 41
4.0
  0
MTEXT
  5
287
100
AcDbEntity
  8
0
100
AcDbMText
 62
2
  6
CONTINUOUS
  7
STANDARD
 71
2
 72
1
 10
3.95
 20
-0.75025
 30
0.0
 11
1.0
 21
0.0
 31
0.0
 44
0.9
  1
3/4" NPTF
 40
0.125
 41
1.8
  0
MTEXT
  5
288
100
AcDbEntity
  8
0
100
AcDbMText
 62
2
  6
CONTINUOUS
  7
STANDARD
 71
2
 72
1
 10
0.65
 20
-1.00025
 30
0.0
 11
1.0
 21
0.0
 31
0.0
 44
0.9
  1
5BD
 40
0.125
 41
0.6
  0
MTEXT
  5
289
100
AcDbEntity
  8
0
100
AcDbMText
 62
2
  6
CONTINUOUS
  7
STANDARD
 71
2
 72
1
 10
2.3
 20
-1.00025
 30
0.0
 11
1.0
 21
0.0
 31
0.0
 44
0.9
  1
Port S
 40
0.125
 41
1.2
  0
MTEXT
  5
28A
100
AcDbEntity
  8
0
100
AcDbMText
 62
2
  6
CONTINUOUS
  7
STANDARD
 71
2
 72
1
 10
3.95
 20
-1.00025
 30
0.0
 11
1.0
 21
0.0
 31
0.0
 44
0.9
  1
1/4" NPTF
 40
0.125
 41
1.8
  0
MTEXT
  5
28B
100
AcDbEntity
  8
0
100
AcDbMText
 62
2
  6
CONTINUOUS
  7
STANDARD
 71
2
 72
1
 10
0.65
 20
-1.25025
 30
0.0
 11
1.0
 21
0.0
 31
0.0
 44
0.9
  1
5BD
 40
0.125
 41
0.6
  0
MTEXT
  5
28C
100
AcDbEntity
  8
0
100
AcDbMText
 62
2
  6
CONTINUOUS
  7
STANDARD
 71
2
 72
1
 10
2.3
 20
-1.25025
 30
0.0
 11
1.0
 21
0.0
 31
0.0
 44
0.9
  1
Port T
 40
0.125
 41
1.2
  0
MTEXT
  5
28D
100
AcDbEntity
  8
0
100
AcDbMText
 62
2
  6
CONTINUOUS
  7
STANDARD
 71
2
 72
1
 10
3.95
 20
-1.25025
 30
0.0
 11
1.0
 21
0.0
 31
0.0
 44
0.9
  1
3/4" NPTF
 40
0.125
 41
1.8
  0
ENDBLK
  5
28E
100
AcDbEntity
  8
0
  6
BYBLOCK
 62
0
100
AcDbBlockEnd
  0
ENDSEC
  0
SECTION
  2
ENTITIES
  0
IMAGE
  5
28F
100
AcDbEntity
  8
0
100
AcDbRasterImage
 62
7
  6
CONTINUOUS
 10
19.2297077316
 20
0.3094318264
 30
0.0
 11
0.0066666667
 21
0.0
 31
0.0
 12
0.0
 22
0.0066666667
 32
0.0
 13
369.0
 23
92.0
340
       41F
 70
9
280
0
281
50
282
50
283
0
360
       419
 71
1
 91
2
 14
-0.5
 24
-0.5
 14
368.5
 24
91.5
  0
INSERT
  5
290
100
AcDbEntity
  8
0
100
AcDbBlockReference
 62
2
  6
CONTINUOUS
  2
SUN_FIRST_THIRD_ANGLE_BL0
 10
20.4816717061
 20
1.2289683772
  0
ACAD_TABLE
  5
291
100
AcDbEntity
  8
0
 62
2
  6
CONTINUOUS
100
AcDbBlockReference
  2
*T1
 10
12.42375
 20
0.30125
 30
0.0
100
AcDbTable
342
       421
343
20F
 11
1.0
 21
0.0
 31
0.0
 90
6
 91
4
 92
6
 93
20
 94
0
 95
0
 96
0
 70
1
 41
0.0
141
0.525
141
0.1
141
0.525
141
0.1
142
4.1
142
1.1
142
0.7
142
0.5
142
0.4
142
2.475
171
1
172
0
173
0
174
0
175
1
176
1
 91
33
178
0
145
0.0
301
CELL_VALUE
 90
4
  1
T-2A Line mount\P(See Technical Data for Body Features)
304
ACVALUE_END
170
2
140
0.125
171
1
172
0
173
0
174
0
175
1
176
1
 91
33
178
0
145
0.0
301
CELL_VALUE
 90
4
  1
May-11-22
304
ACVALUE_END
170
5
140
0.125
171
1
172
0
173
0
174
0
175
1
176
1
 91
33
178
0
145
0.0
301
CELL_VALUE
 90
4
  1
1.000
304
ACVALUE_END
170
5
140
0.125
171
1
172
0
173
0
174
0
175
1
176
1
 91
33
178
0
145
0.0
301
CELL_VALUE
 90
4
  1
C
304
ACVALUE_END
170
5
140
0.125
171
1
172
0
173
0
174
0
175
1
176
1
 91
33
178
0
145
0.0
301
CELL_VALUE
 90
4
  1
2
304
ACVALUE_END
170
5
140
0.125
171
1
172
0
173
0
174
0
175
1
176
1
 91
33
178
0
145
0.0
301
CELL_VALUE
 90
4
  1
 
304
ACVALUE_END
170
1
140
0.125
171
1
172
0
173
0
174
0
175
1
176
1
 91
33
178
0
145
0.0
301
CELL_VALUE
 90
4
  1
DESCRIPTION
304
ACVALUE_END
170
1
140
0.06
171
1
172
0
173
0
174
0
175
1
176
1
 91
33
178
0
145
0.0
301
CELL_VALUE
 90
4
  1
DATE
304
ACVALUE_END
170
1
140
0.06
171
1
172
0
173
0
174
0
175
1
176
1
 91
33
178
0
145
0.0
301
CELL_VALUE
 90
4
  1
SCALE
304
ACVALUE_END
170
1
140
0.06
171
1
172
0
173
0
174
0
175
1
176
1
 91
33
178
0
145
0.0
301
CELL_VALUE
 90
4
  1
DWG SIZE
304
ACVALUE_END
170
1
140
0.06
171
1
172
0
173
0
174
0
175
1
176
1
 91
33
178
0
145
0.0
301
CELL_VALUE
 90
4
  1
SHEET
304
ACVALUE_END
170
1
140
0.06
171
1
172
0
173
0
174
0
175
1
176
1
 91
33
178
0
145
0.0
301
CELL_VALUE
 90
4
  1
 
304
ACVALUE_END
170
1
140
0.125
171
1
172
0
173
0
174
0
175
1
176
1
 91
33
178
0
145
0.0
301
CELL_VALUE
 90
4
  1
5BD
304
ACVALUE_END
170
5
140
0.125
171
1
172
0
173
0
174
0
175
4
176
1
 91
33
178
0
145
0.0
301
CELL_VALUE
 90
4
  1
ALL DIMENSIONS IN INCH\PVIEWS ARE THIRD ANGLE
304
ACVALUE_END
170
5
140
0.12
171
1
172
0
173
1
174
0
175
1
176
1
 91
1
178
0
145
0.0
170
1
171
1
172
0
173
1
174
0
175
1
176
1
 91
1
178
0
145
0.0
170
1
171
1
172
0
173
1
174
0
175
1
176
1
 91
1
178
0
145
0.0
170
5
171
1
172
0
173
0
174
0
175
1
176
1
 91
33
178
0
145
0.0
301
CELL_VALUE
 90
4
  1
 
304
ACVALUE_END
170
1
140
0.125
171
1
172
0
173
0
174
0
175
1
176
1
 91
33
178
0
145
0.0
301
CELL_VALUE
 90
4
  1
MODEL
304
ACVALUE_END
170
1
140
0.06
171
1
172
0
173
0
174
0
175
1
176
1
 91
33
178
0
145
0.0
301
CELL_VALUE
 90
4
  1
 
304
ACVALUE_END
170
1
140
0.125
171
1
172
0
173
0
174
0
175
1
176
1
 91
33
178
0
145
0.0
301
CELL_VALUE
 90
4
  1
 
304
ACVALUE_END
170
1
140
0.125
171
1
172
0
173
0
174
0
175
1
176
1
 91
33
178
0
145
0.0
301
CELL_VALUE
 90
4
  1
 
304
ACVALUE_END
170
1
140
0.125
171
1
172
0
173
0
174
0
175
1
176
1
 91
33
178
0
145
0.0
301
CELL_VALUE
 90
4
  1
 
304
ACVALUE_END
170
1
140
0.125
171
1
172
0
173
0
174
0
175
1
176
1
 91
33
178
0
145
0.0
301
CELL_VALUE
 90
4
  1
 
304
ACVALUE_END
170
1
140
0.125
  0
ACAD_TABLE
  5
292
100
AcDbEntity
  8
0
 62
2
  6
CONTINUOUS
100
AcDbBlockReference
  2
*T2
 10
12.4237499994
 20
16.47875
 30
0.0
100
AcDbTable
342
       420
343
210
 11
1.0
 21
0.0
 31
0.0
 90
22
 91
10
 92
3
 93
16
 94
0
 95
0
 96
0
 41
0.028
141
0.344
141
0.25
141
0.25
141
0.25
141
0.25
141
0.25
141
0.25
141
0.25
141
0.25
141
0.25
142
3.055
142
3.0
142
3.0
171
1
172
0
173
0
174
0
175
1
176
1
 91
33
178
0
145
0.0
301
CELL_VALUE
 90
4
  1
Technical Data
304
ACVALUE_END
170
5
140
0.145
171
1
172
0
173
0
174
0
175
1
176
1
 91
33
178
0
145
0.0
301
CELL_VALUE
 90
4
  1
U.S. Units
304
ACVALUE_END
170
5
140
0.145
171
1
172
0
173
0
174
0
175
1
176
1
 91
33
178
0
145
0.0
301
CELL_VALUE
 90
4
  1
Metric Units
304
ACVALUE_END
170
5
140
0.145
171
1
172
0
173
0
174
0
175
1
176
1
 91
33
178
0
145
0.0
301
CELL_VALUE
 90
4
  1
Cavity
304
ACVALUE_END
170
5
140
0.125
171
1
172
0
173
0
174
0
175
2
176
1
 91
33
178
0
145
0.0
301
CELL_VALUE
 90
4
  1
T-2A
304
ACVALUE_END
170
5
140
0.125
171
1
172
0
173
1
174
0
175
1
176
1
 91
1
178
0
145
0.0
170
1
171
1
172
0
173
0
174
0
175
1
176
1
 91
33
178
0
145
0.0
301
CELL_VALUE
 90
4
  1
Body Features
304
ACVALUE_END
170
5
140
0.125
171
1
172
0
173
0
174
0
175
2
176
1
 91
33
178
0
145
0.0
301
CELL_VALUE
 90
4
  1
Cushion lock with make up checks and shuttle
304
ACVALUE_END
170
5
140
0.125
171
1
172
0
173
1
174
0
175
1
176
1
 91
1
178
0
145
0.0
170
1
171
1
172
0
173
0
174
0
175
1
176
1
 91
33
178
0
145
0.0
301
CELL_VALUE
 90
4
  1
Body Type
304
ACVALUE_END
170
5
140
0.125
171
1
172
0
173
0
174
0
175
2
176
1
 91
33
178
0
145
0.0
301
CELL_VALUE
 90
4
  1
Line mount
304
ACVALUE_END
170
5
140
0.125
171
1
172
0
173
1
174
0
175
1
176
1
 91
1
178
0
145
0.0
170
1
171
1
172
0
173
0
174
0
175
1
176
1
 91
33
178
0
145
0.0
301
CELL_VALUE
 90
4
  1
Interface
304
ACVALUE_END
170
5
140
0.125
171
1
172
0
173
0
174
0
175
2
176
1
 91
33
178
0
145
0.0
301
CELL_VALUE
 90
4
  1
None
304
ACVALUE_END
170
5
140
0.125
171
1
172
0
173
1
174
0
175
1
176
1
 91
1
178
0
145
0.0
170
1
171
1
172
0
173
0
174
0
175
1
176
1
 91
33
178
0
145
0.0
301
CELL_VALUE
 90
4
  1
Open Cavity Quantity
304
ACVALUE_END
170
5
140
0.125
171
1
172
0
173
0
174
0
175
2
176
1
 91
33
178
0
145
0.0
301
CELL_VALUE
 90
4
  1
2
304
ACVALUE_END
170
5
140
0.125
171
1
172
0
173
1
174
0
175
1
176
1
 91
1
178
0
145
0.0
170
1
171
1
172
0
173
0
174
0
175
1
176
1
 91
33
178
0
145
0.0
301
CELL_VALUE
 90
4
  1
Weight
304
ACVALUE_END
170
5
140
0.125
171
1
172
0
173
0
174
0
175
1
176
1
 91
33
178
0
145
0.0
301
CELL_VALUE
 90
4
  1
7.297 lb.
304
ACVALUE_END
170
5
140
0.125
171
1
172
0
173
0
174
0
175
1
176
1
 91
33
178
0
145
0.0
301
CELL_VALUE
 90
4
  1
3,310 kg.
304
ACVALUE_END
170
5
140
0.125
171
1
172
0
173
0
174
0
175
1
176
1
 91
33
178
0
145
0.0
301
CELL_VALUE
 90
4
  1
Mounting Hole Diameter
304
ACVALUE_END
170
5
140
0.125
171
1
172
0
173
0
174
0
175
1
176
1
 91
33
178
0
145
0.0
301
CELL_VALUE
 90
4
  1
.41 in.
304
ACVALUE_END
170
5
140
0.125
171
1
172
0
173
0
174
0
175
1
176
1
 91
33
178
0
145
0.0
301
CELL_VALUE
 90
4
  1
10,4 mm
304
ACVALUE_END
170
5
140
0.125
171
1
172
0
173
0
174
0
175
1
176
1
 91
33
178
0
145
0.0
301
CELL_VALUE
 90
4
  1
Mounting Hole Depth
304
ACVALUE_END
170
5
140
0.125
171
1
172
0
173
0
174
0
175
2
176
1
 91
33
178
0
145
0.0
301
CELL_VALUE
 90
4
  1
Through
304
ACVALUE_END
170
5
140
0.125
171
1
172
0
173
1
174
0
175
1
176
1
 91
1
178
0
145
0.0
170
1
171
1
172
0
173
0
174
0
175
1
176
1
 91
33
178
0
145
0.0
301
CELL_VALUE
 90
4
  1
Mounting Hole Quantity
304
ACVALUE_END
170
5
140
0.125
171
1
172
0
173
0
174
0
175
2
176
1
 91
33
178
0
145
0.0
301
CELL_VALUE
 90
4
  1
2
304
ACVALUE_END
170
5
140
0.125
171
1
172
0
173
1
174
0
175
1
176
1
 91
1
178
0
145
0.0
170
1
  0
ACAD_TABLE
  5
293
100
AcDbEntity
  8
0
 62
2
  6
CONTINUOUS
100
AcDbBlockReference
  2
*T3
 10
0.52125
 20
1.959
 30
0.0
100
AcDbTable
342
       420
343
211
 11
1.0
 21
0.0
 31
0.0
 90
22
 91
5
 92
3
 93
16
 94
0
 95
0
 96
0
 41
0.05
141
0.34375
141
0.344
141
0.25
141
0.25
141
0.25
142
1.3
142
2.0
142
1.3
171
1
172
0
173
0
174
0
175
3
176
1
 91
33
178
0
145
0.0
301
CELL_VALUE
 90
4
  1
Port Headings
304
ACVALUE_END
170
5
140
0.145
171
1
172
0
173
1
174
0
175
1
176
1
 91
1
178
0
145
0.0
170
1
171
1
172
0
173
1
174
0
175
1
176
1
 91
1
178
0
145
0.0
170
1
171
1
172
0
173
0
174
0
175
1
176
1
 91
33
178
0
145
0.0
301
CELL_VALUE
 90
4
  1
Product
304
ACVALUE_END
170
5
140
0.145
171
1
172
0
173
0
174
0
175
1
176
1
 91
33
178
0
145
0.0
301
CELL_VALUE
 90
4
  1
Port
304
ACVALUE_END
170
5
140
0.145
171
1
172
0
173
0
174
0
175
1
176
1
 91
33
178
0
145
0.0
301
CELL_VALUE
 90
4
  1
Size
304
ACVALUE_END
170
5
140
0.145
171
1
172
0
173
0
174
0
175
1
176
1
 91
33
178
0
145
0.0
301
CELL_VALUE
 90
4
  1
5BD
304
ACVALUE_END
170
5
140
0.125
171
1
172
0
173
0
174
0
175
1
176
1
 91
33
178
0
145
0.0
301
CELL_VALUE
 90
4
  1
Ports C1, C2, V1, V2
304
ACVALUE_END
170
5
140
0.125
171
1
172
0
173
0
174
0
175
1
176
1
 91
33
178
0
145
0.0
301
CELL_VALUE
 90
4
  1
3/4" NPTF
304
ACVALUE_END
170
5
140
0.125
171
1
172
0
173
0
174
0
175
1
176
1
 91
33
178
0
145
0.0
301
CELL_VALUE
 90
4
  1
5BD
304
ACVALUE_END
170
5
140
0.125
171
1
172
0
173
0
174
0
175
1
176
1
 91
33
178
0
145
0.0
301
CELL_VALUE
 90
4
  1
Port S
304
ACVALUE_END
170
5
140
0.125
171
1
172
0
173
0
174
0
175
1
176
1
 91
33
178
0
145
0.0
301
CELL_VALUE
 90
4
  1
1/4" NPTF
304
ACVALUE_END
170
5
140
0.125
171
1
172
0
173
0
174
0
175
1
176
1
 91
33
178
0
145
0.0
301
CELL_VALUE
 90
4
  1
5BD
304
ACVALUE_END
170
5
140
0.125
171
1
172
0
173
0
174
0
175
1
176
1
 91
33
178
0
145
0.0
301
CELL_VALUE
 90
4
  1
Port T
304
ACVALUE_END
170
5
140
0.125
171
1
172
0
173
0
174
0
175
1
176
1
 91
33
178
0
145
0.0
301
CELL_VALUE
 90
4
  1
3/4" NPTF
304
ACVALUE_END
170
5
140
0.125
  0
MTEXT
  5
294
100
AcDbEntity
  8
0
100
AcDbMText
 62
2
  6
CONTINUOUS
  7
STANDARD
 71
1
 72
1
 10
0.52125
 20
5.75995
 30
0.0
 11
1.0
 21
0.0
 31
0.0
 44
0.6
  3
Notes\P \P1. Important: Carefully consider\P   the maximum system pressure. The\P   pressure rating of the manifold is\P   dependent on the manifold material,\P   with the port type/size a secondary\P   consideration. Manifolds\P   constructed of alu
  1
minum are not\P   rated for pressures higher than\P   3000 psi (210 bar), regardless of\P   the port type/size specified.
 40
0.1
 41
3.04
  0
LINE
  5
295
100
AcDbEntity
  8
0
100
AcDbLine
 62
7
  6
CONTINUOUS
 10
0.30125
 20
0.30125
 11
0.30125
 21
16.69875
  0
LINE
  5
296
100
AcDbEntity
  8
0
100
AcDbLine
 62
7
  6
CONTINUOUS
 10
0.30125
 20
0.30125
 11
21.69875
 21
0.30125
  0
LINE
  5
297
100
AcDbEntity
  8
0
100
AcDbLine
 62
7
  6
CONTINUOUS
 10
0.30125
 20
16.69875
 11
21.69875
 21
16.69875
  0
LINE
  5
298
100
AcDbEntity
  8
0
100
AcDbLine
 62
7
  6
CONTINUOUS
 10
21.69875
 20
0.30125
 11
21.69875
 21
16.69875
  0
LINE
  5
299
100
AcDbEntity
  8
0
100
AcDbLine
 62
7
  6
CONTINUOUS
 10
8.4211011542
 20
9.8200858855
 11
9.151828159
 21
10.5259140131
  0
LINE
  5
29A
100
AcDbEntity
  8
0
100
AcDbLine
 62
7
  6
CONTINUOUS
 10
9.5247854792
 20
10.8861631422
 11
9.7151953117
 21
11.0700849279
  0
LINE
  5
29B
100
AcDbEntity
  8
0
100
AcDbLine
 62
7
  6
CONTINUOUS
 10
9.2600283336
 20
10.8146680764
 11
9.2792462648
 21
10.8241613665
  0
LINE
  5
29C
100
AcDbEntity
  8
0
100
AcDbLine
 62
7
  6
CONTINUOUS
 10
8.4211011542
 20
9.8200858855
 11
8.4211011542
 21
6.1978638222
  0
LINE
  5
29D
100
AcDbEntity
  8
0
100
AcDbLine
 62
7
  6
CONTINUOUS
 10
12.2848046883
 20
5.9299150721
 11
8.4211011542
 21
6.1978638222
  0
LINE
  5
29E
100
AcDbEntity
  8
0
100
AcDbLine
 62
4
  6
CONTINUOUS
 10
9.6840492403
 20
6.5932411247
 11
9.6985381282
 21
6.5825770606
  0
LINE
  5
29F
100
AcDbEntity
  8
0
100
AcDbLine
 62
4
  6
CONTINUOUS
 10
9.6985381282
 20
6.5825770606
 11
9.7057825722
 21
6.5724153935
  0
LINE
  5
2A0
100
AcDbEntity
  8
0
100
AcDbLine
 62
4
  6
CONTINUOUS
 10
9.6478270204
 20
6.4798420408
 11
9.7057825722
 21
6.4758228096
  0
LINE
  5
2A1
100
AcDbEntity
  8
0
100
AcDbLine
 62
4
  6
CONTINUOUS
 10
11.0967158457
 20
6.3793612594
 11
11.1546713974
 21
6.3753420283
  0
LINE
  5
2A2
100
AcDbEntity
  8
0
100
AcDbLine
 62
4
  6
CONTINUOUS
 10
9.7709825678
 20
6.5099382102
 11
9.8144492316
 21
6.5069237868
  0
LINE
  5
2A3
100
AcDbEntity
  8
0
100
AcDbLine
 62
4
  6
CONTINUOUS
 10
11.2198713931
 20
6.4094574288
 11
11.2633380569
 21
6.4064430055
  0
LINE
  5
2A4
100
AcDbEntity
  8
0
100
AcDbLine
 62
4
  6
CONTINUOUS
 10
9.539160361
 20
6.5453336509
 11
9.5826270248
 21
6.5423192275
  0
LINE
  5
2A5
100
AcDbEntity
  8
0
100
AcDbLine
 62
4
  6
CONTINUOUS
 10
10.9880491863
 20
6.4448528696
 11
11.03151585
 21
6.4418384462
  0
LINE
  5
2A6
100
AcDbEntity
  8
0
100
AcDbLine
 62
4
  6
CONTINUOUS
 10
9.4087603696
 20
6.6123324727
 11
9.4812048093
 21
6.6073084338
  0
LINE
  5
2A7
100
AcDbEntity
  8
0
100
AcDbLine
 62
4
  6
CONTINUOUS
 10
9.6695603523
 20
6.5942459325
 11
9.6840492403
 21
6.5932411247
  0
LINE
  5
2A8
100
AcDbEntity
  8
0
100
AcDbLine
 62
4
  6
CONTINUOUS
 10
10.8576491949
 20
6.5118516914
 11
10.9300936345
 21
6.5068276525
  0
LINE
  5
2A9
100
AcDbEntity
  8
0
100
AcDbLine
 62
4
  6
CONTINUOUS
 10
11.1184491776
 20
6.4937651512
 11
11.1329380655
 21
6.4927603434
  0
LINE
  5
2AA
100
AcDbEntity
  8
0
100
AcDbLine
 62
7
  6
CONTINUOUS
 10
9.151828159
 20
10.2935849232
 11
9.151828159
 21
10.6779883645
  0
LINE
  5
2AB
100
AcDbEntity
  8
0
100
AcDbLine
 62
7
  6
CONTINUOUS
 10
9.1662762071
 20
10.2796292042
 11
9.1662762071
 21
10.6640326455
  0
LINE
  5
2AC
100
AcDbEntity
  8
0
100
AcDbLine
 62
7
  6
CONTINUOUS
 10
9.2328553752
 20
10.1119111603
 11
9.2328553752
 21
10.2416784329
  0
LINE
  5
2AD
100
AcDbEntity
  8
0
100
AcDbLine
 62
7
  6
CONTINUOUS
 10
11.1918801007
 20
10.6806937013
 11
11.2110980319
 21
10.6901869914
  0
LINE
  5
2AE
100
AcDbEntity
  8
0
100
AcDbLine
 62
7
  6
CONTINUOUS
 10
10.2474061885
 20
10.2108752329
 11
10.2816824168
 21
10.2278070334
  0
LINE
  5
2AF
100
AcDbEntity
  8
0
100
AcDbLine
 62
4
  6
CONTINUOUS
 10
9.7927158997
 20
6.5857050663
 11
9.8289381195
 21
6.4672819434
  0
LINE
  5
2B0
100
AcDbEntity
  8
0
100
AcDbLine
 62
7
  6
CONTINUOUS
 10
9.3968553752
 20
9.004024074
 11
9.3968553752
 21
9.1908442115
  0
LINE
  5
2B1
100
AcDbEntity
  8
0
100
AcDbLine
 62
4
  6
CONTINUOUS
 10
9.4449825894
 20
6.6098204533
 11
9.4449825894
 21
6.4939093498
  0
LINE
  5
2B2
100
AcDbEntity
  8
0
100
AcDbLine
 62
4
  6
CONTINUOUS
 10
11.1329380655
 20
6.4927603434
 11
11.1474269535
 21
6.4820962793
  0
LINE
  5
2B3
100
AcDbEntity
  8
0
100
AcDbLine
 62
7
  6
CONTINUOUS
 10
9.5799629252
 20
10.1725593386
 11
9.5799629252
 21
10.5569627799
  0
LINE
  5
2B4
100
AcDbEntity
  8
0
100
AcDbLine
 62
7
  6
CONTINUOUS
 10
9.6338837338
 20
10.1688199178
 11
9.6338837338
 21
10.5532233591
  0
LINE
  5
2B5
100
AcDbEntity
  8
0
100
AcDbLine
 62
4
  6
CONTINUOUS
 10
9.7057825722
 20
6.5724153935
 11
9.7057825722
 21
6.5530968808
  0
LINE
  5
2B6
100
AcDbEntity
  8
0
100
AcDbLine
 62
4
  6
CONTINUOUS
 10
9.7468343367
 20
8.3951682551
 11
9.7830565565
 21
8.2767451322
  0
LINE
  5
2B7
100
AcDbEntity
  8
0
100
AcDbLine
 62
4
  6
CONTINUOUS
 10
9.9279454358
 20
8.3632896382
 11
9.9279454358
 21
8.3439711256
  0
LINE
  5
2B8
100
AcDbEntity
  8
0
100
AcDbLine
 62
4
  6
CONTINUOUS
 10
9.8772343281
 20
8.2991916574
 11
9.8699898841
 21
8.2707162855
  0
LINE
  5
2B9
100
AcDbEntity
  8
0
100
AcDbLine
 62
4
  6
CONTINUOUS
 10
9.7830565565
 20
8.2767451322
 11
9.8192787764
 21
8.3901442162
  0
LINE
  5
2BA
100
AcDbEntity
  8
0
100
AcDbLine
 62
4
  6
CONTINUOUS
 10
11.1474269535
 20
6.4820962793
 11
11.1546713974
 21
6.4719346122
  0
LINE
  5
2BB
100
AcDbEntity
  8
0
100
AcDbLine
 62
4
  6
CONTINUOUS
 10
9.9207009919
 20
8.3734513053
 11
9.9279454358
 21
8.3632896382
  0
LINE
  5
2BC
100
AcDbEntity
  8
0
100
AcDbLine
 62
7
  6
CONTINUOUS
 10
10.1989901414
 20
10.2080102496
 11
10.1989901414
 21
10.5924136909
  0
LINE
  5
2BD
100
AcDbEntity
  8
0
100
AcDbLine
 62
7
  6
CONTINUOUS
 10
10.2384629019
 20
10.2182265478
 11
10.2384629019
 21
10.6026299892
  0
LINE
  5
2BE
100
AcDbEntity
  8
0
100
AcDbLine
 62
4
  6
CONTINUOUS
 10
9.6550714644
 20
6.5083174127
 11
9.6478270204
 21
6.4798420408
  0
LINE
  5
2BF
100
AcDbEntity
  8
0
100
AcDbLine
 62
4
  6
CONTINUOUS
 10
9.8699898841
 20
8.3673088694
 11
9.8772343281
 21
8.3764657287
  0
LINE
  5
2C0
100
AcDbEntity
  8
0
100
AcDbLine
 62
4
  6
CONTINUOUS
 10
9.891723216
 20
8.3175053657
 11
9.8772343281
 21
8.2991916574
  0
LINE
  5
2C1
100
AcDbEntity
  8
0
100
AcDbLine
 62
4
  6
CONTINUOUS
 10
9.9279454358
 20
8.3439711256
 11
9.9207009919
 21
8.3348142662
  0
LINE
  5
2C2
100
AcDbEntity
  8
0
100
AcDbLine
 62
7
  6
CONTINUOUS
 10
12.1792579555
 20
10.0769008578
 11
12.2135341838
 21
10.0938326583
  0
LINE
  5
2C3
100
AcDbEntity
  8
0
100
AcDbLine
 62
4
  6
CONTINUOUS
 10
9.9062121039
 20
8.3841153694
 11
9.9207009919
 21
8.3734513053
  0
LINE
  5
2C4
100
AcDbEntity
  8
0
100
AcDbLine
 62
7
  6
CONTINUOUS
 10
10.3088553752
 20
10.1119111312
 11
10.3088553752
 21
10.2466785082
  0
LINE
  5
2C5
100
AcDbEntity
  8
0
100
AcDbLine
 62
7
  6
CONTINUOUS
 10
10.3898825915
 20
10.3644867453
 11
10.3898825915
 21
10.7488901866
  0
LINE
  5
2C6
100
AcDbEntity
  8
0
100
AcDbLine
 62
4
  6
CONTINUOUS
 10
9.7564936799
 20
6.4723059823
 11
9.7927158997
 21
6.5857050663
  0
LINE
  5
2C7
100
AcDbEntity
  8
0
100
AcDbLine
 62
4
  6
CONTINUOUS
 10
9.8772343281
 20
8.3764657287
 11
9.891723216
 21
8.3851201772
  0
LINE
  5
2C8
100
AcDbEntity
  8
0
100
AcDbLine
 62
7
  6
CONTINUOUS
 10
9.3507985393
 20
9.2184828708
 11
9.3368919687
 21
9.2314243946
  0
LINE
  5
2C9
100
AcDbEntity
  8
0
100
AcDbLine
 62
4
  6
CONTINUOUS
 10
9.9207009919
 20
8.3348142662
 11
9.891723216
 21
8.3175053657
  0
LINE
  5
2CA
100
AcDbEntity
  8
0
100
AcDbLine
 62
4
  6
CONTINUOUS
 10
9.8699898841
 20
8.2707162855
 11
9.9279454358
 21
8.2666970543
  0
LINE
  5
2CB
100
AcDbEntity
  8
0
100
AcDbLine
 62
4
  6
CONTINUOUS
 10
11.241604725
 20
6.485224285
 11
11.2778269448
 21
6.3668011621
  0
LINE
  5
2CC
100
AcDbEntity
  8
0
100
AcDbLine
 62
4
  6
CONTINUOUS
 10
10.7127603354
 20
8.3281810596
 11
10.7489825552
 21
8.2097579367
  0
LINE
  5
2CD
100
AcDbEntity
  8
0
100
AcDbLine
 62
4
  6
CONTINUOUS
 10
10.8648936586
 20
8.3176305778
 11
10.8648936586
 21
8.2017194744
  0
LINE
  5
2CE
100
AcDbEntity
  8
0
100
AcDbLine
 62
4
  6
CONTINUOUS
 10
10.8938714147
 20
6.5093396719
 11
10.8938714147
 21
6.3934285685
  0
LINE
  5
2CF
100
AcDbEntity
  8
0
100
AcDbLine
 62
4
  6
CONTINUOUS
 10
10.7489825552
 20
8.2097579367
 11
10.785204775
 21
8.3231570206
  0
LINE
  5
2D0
100
AcDbEntity
  8
0
100
AcDbLine
 62
4
  6
CONTINUOUS
 10
9.891723216
 20
8.3851201772
 11
9.9062121039
 21
8.3841153694
  0
LINE
  5
2D1
100
AcDbEntity
  8
0
100
AcDbLine
 62
7
  6
CONTINUOUS
 10
11.083679926
 20
10.1596105481
 11
11.083679926
 21
10.5440139895
  0
LINE
  5
2D2
100
AcDbEntity
  8
0
100
AcDbLine
 62
7
  6
CONTINUOUS
 10
11.0981279742
 20
10.1456548291
 11
11.0981279742
 21
10.5300582704
  0
LINE
  5
2D3
100
AcDbEntity
  8
0
100
AcDbLine
 62
4
  6
CONTINUOUS
 10
11.1546713974
 20
6.4719346122
 11
11.1546713974
 21
6.4526160995
  0
LINE
  5
2D4
100
AcDbEntity
  8
0
100
AcDbLine
 62
7
  6
CONTINUOUS
 10
11.1647071422
 20
9.9779367852
 11
11.1647071422
 21
10.1077040578
  0
LINE
  5
2D5
100
AcDbEntity
  8
0
100
AcDbLine
 62
4
  6
CONTINUOUS
 10
9.6478270204
 20
6.5764346246
 11
9.6550714644
 21
6.585591484
  0
LINE
  5
2D6
100
AcDbEntity
  8
0
100
AcDbLine
 62
4
  6
CONTINUOUS
 10
9.6695603523
 20
6.526631121
 11
9.6550714644
 21
6.5083174127
  0
LINE
  5
2D7
100
AcDbEntity
  8
0
100
AcDbLine
 62
4
  6
CONTINUOUS
 10
9.7057825722
 20
6.5530968808
 11
9.6985381282
 21
6.5439400215
  0
LINE
  5
2D8
100
AcDbEntity
  8
0
100
AcDbLine
 62
7
  6
CONTINUOUS
 10
13.5788988458
 20
10.8021361778
 11
12.2848046883
 21
9.5521371353
  0
LINE
  5
2D9
100
AcDbEntity
  8
0
100
AcDbLine
 62
4
  6
CONTINUOUS
 10
12.9296333172
 20
8.206436854
 11
12.9318517651
 21
8.2058199188
  0
LINE
  5
2DA
100
AcDbEntity
  8
0
100
AcDbLine
 62
7
  6
CONTINUOUS
 10
11.3287071422
 20
8.8700496989
 11
11.3287071422
 21
9.0568698364
  0
LINE
  5
2DB
100
AcDbEntity
  8
0
100
AcDbLine
 62
7
  6
CONTINUOUS
 10
11.5118146922
 20
10.0385849635
 11
11.5118146922
 21
10.4229884048
  0
LINE
  5
2DC
100
AcDbEntity
  8
0
100
AcDbLine
 62
7
  6
CONTINUOUS
 10
11.5657355009
 20
10.0348455427
 11
11.5657355009
 21
10.419248984
  0
LINE
  5
2DD
100
AcDbEntity
  8
0
100
AcDbLine
 62
4
  6
CONTINUOUS
 10
11.1039602897
 20
6.4078366314
 11
11.0967158457
 21
6.3793612594
  0
LINE
  5
2DE
100
AcDbEntity
  8
0
100
AcDbLine
 62
4
  6
CONTINUOUS
 10
13.0749416024
 20
8.6056620199
 11
13.0660678183
 21
8.6026101782
  0
LINE
  5
2DF
100
AcDbEntity
  8
0
100
AcDbLine
 62
4
  6
CONTINUOUS
 10
12.8028121009
 20
7.7626976153
 11
12.8146438189
 21
7.7520478721
  0
LINE
  5
2E0
100
AcDbEntity
  8
0
100
AcDbLine
 62
7
  6
CONTINUOUS
 10
11.2826503063
 20
9.0845084957
 11
11.2687437357
 21
9.0974500195
  0
LINE
  5
2E1
100
AcDbEntity
  8
0
100
AcDbLine
 62
4
  6
CONTINUOUS
 10
11.2053825052
 20
6.371825201
 11
11.241604725
 21
6.485224285
  0
LINE
  5
2E2
100
AcDbEntity
  8
0
100
AcDbLine
 62
4
  6
CONTINUOUS
 10
9.6550714644
 20
6.585591484
 11
9.6695603523
 21
6.5942459325
  0
LINE
  5
2E3
100
AcDbEntity
  8
0
100
AcDbLine
 62
7
  6
CONTINUOUS
 10
9.2943045619
 20
10.2108752329
 11
9.2485721902
 21
10.2334661489
  0
LINE
  5
2E4
100
AcDbEntity
  8
0
100
AcDbLine
 62
7
  6
CONTINUOUS
 10
12.1308419085
 20
10.0740358745
 11
12.1308419085
 21
10.4584393158
  0
LINE
  5
2E5
100
AcDbEntity
  8
0
100
AcDbLine
 62
7
  6
CONTINUOUS
 10
12.1703146689
 20
10.0842521728
 11
12.1703146689
 21
10.4686556141
  0
LINE
  5
2E6
100
AcDbEntity
  8
0
100
AcDbLine
 62
7
  6
CONTINUOUS
 10
12.2407071422
 20
9.9779367561
 11
12.2407071422
 21
10.1127041331
  0
LINE
  5
2E7
100
AcDbEntity
  8
0
100
AcDbLine
 62
4
  6
CONTINUOUS
 10
9.6985381282
 20
6.5439400215
 11
9.6695603523
 21
6.526631121
  0
LINE
  5
2E8
100
AcDbEntity
  8
0
100
AcDbLine
 62
7
  6
CONTINUOUS
 10
12.2848046883
 20
9.5521371353
 11
8.4211011542
 21
9.8200858855
  0
LINE
  5
2E9
100
AcDbEntity
  8
0
100
AcDbLine
 62
4
  6
CONTINUOUS
 10
13.0490597202
 20
8.0226328721
 11
13.0608914373
 21
8.0119831263
  0
LINE
  5
2EA
100
AcDbEntity
  8
0
100
AcDbLine
 62
4
  6
CONTINUOUS
 10
12.930003065
 20
8.4270250994
 11
12.9255661729
 21
8.4310187555
  0
LINE
  5
2EB
100
AcDbEntity
  8
0
100
AcDbLine
 62
7
  6
CONTINUOUS
 10
12.2848046883
 20
9.5521371353
 11
12.2848046883
 21
5.9299150721
  0
LINE
  5
2EC
100
AcDbEntity
  8
0
100
AcDbLine
 62
7
  6
CONTINUOUS
 10
12.3217343585
 20
10.2305123702
 11
12.3217343585
 21
10.6149158115
  0
LINE
  5
2ED
100
AcDbEntity
  8
0
100
AcDbLine
 62
4
  6
CONTINUOUS
 10
11.0967158457
 20
6.4759538433
 11
11.1039602897
 21
6.4851107027
  0
LINE
  5
2EE
100
AcDbEntity
  8
0
100
AcDbLine
 62
4
  6
CONTINUOUS
 10
11.1184491776
 20
6.4261503397
 11
11.1039602897
 21
6.4078366314
  0
LINE
  5
2EF
100
AcDbEntity
  8
0
100
AcDbLine
 62
4
  6
CONTINUOUS
 10
11.1546713974
 20
6.4526160995
 11
11.1474269535
 21
6.4434592402
  0
LINE
  5
2F0
100
AcDbEntity
  8
0
100
AcDbLine
 62
4
  6
CONTINUOUS
 10
12.7909803809
 20
8.408650594
 11
12.7998541692
 21
8.4172220157
  0
LINE
  5
2F1
100
AcDbEntity
  8
0
100
AcDbLine
 62
4
  6
CONTINUOUS
 10
13.0320516263
 20
8.6415075496
 11
13.0327911058
 21
8.6422218321
  0
LINE
  5
2F2
100
AcDbEntity
  8
0
100
AcDbLine
 62
4
  6
CONTINUOUS
 10
12.978808907
 20
8.5569615728
 11
12.9677166695
 21
8.5462472935
  0
LINE
  5
2F3
100
AcDbEntity
  8
0
100
AcDbLine
 62
4
  6
CONTINUOUS
 10
12.8841551559
 20
8.4655330646
 11
12.8952473934
 21
8.4762473439
  0
LINE
  5
2F4
100
AcDbEntity
  8
0
100
AcDbLine
 62
4
  6
CONTINUOUS
 10
12.930003065
 20
8.5098187467
 11
12.938876849
 21
8.5183901644
  0
LINE
  5
2F5
100
AcDbEntity
  8
0
100
AcDbLine
 62
4
  6
CONTINUOUS
 10
12.9477506479
 20
8.5269615965
 11
12.956624432
 21
8.5355330142
  0
LINE
  5
2F6
100
AcDbEntity
  8
0
100
AcDbLine
 62
4
  6
CONTINUOUS
 10
13.0461017819
 20
8.6219615025
 11
13.0549755956
 21
8.6305329488
  0
LINE
  5
2F7
100
AcDbEntity
  8
0
100
AcDbLine
 62
4
  6
CONTINUOUS
 10
13.0660678183
 20
8.6412472139
 11
13.0749416024
 21
8.6498186316
  0
LINE
  5
2F8
100
AcDbEntity
  8
0
100
AcDbLine
 62
4
  6
CONTINUOUS
 10
12.9721535615
 20
8.5091361787
 11
12.9810273456
 21
8.5177075965
  0
LINE
  5
2F9
100
AcDbEntity
  8
0
100
AcDbLine
 62
4
  6
CONTINUOUS
 10
13.0549755956
 20
8.5477393016
 11
13.0461017819
 21
8.5391678552
  0
LINE
  5
2FA
100
AcDbEntity
  8
0
100
AcDbLine
 62
4
  6
CONTINUOUS
 10
13.0187409502
 20
8.5127393196
 11
13.0143040581
 21
8.5084536108
  0
LINE
  5
2FB
100
AcDbEntity
  8
0
100
AcDbLine
 62
4
  6
CONTINUOUS
 10
12.9810273456
 20
8.4763107728
 11
12.9721535615
 21
8.4677393551
  0
LINE
  5
2FC
100
AcDbEntity
  8
0
100
AcDbLine
 62
4
  6
CONTINUOUS
 10
12.938876849
 20
8.4355965172
 11
12.930003065
 21
8.4270250994
  0
LINE
  5
2FD
100
AcDbEntity
  8
0
100
AcDbLine
 62
4
  6
CONTINUOUS
 10
12.7887619337
 20
8.290596635
 11
12.7976357222
 21
8.299168057
  0
LINE
  5
2FE
100
AcDbEntity
  8
0
100
AcDbLine
 62
4
  6
CONTINUOUS
 10
12.8153832978
 20
8.3163108996
 11
12.8220386414
 21
8.3227394682
  0
LINE
  5
2FF
100
AcDbEntity
  8
0
100
AcDbLine
 62
4
  6
CONTINUOUS
 10
12.9921195831
 20
8.4870250521
 11
13.0032118206
 21
8.4977393314
  0
LINE
  5
300
100
AcDbEntity
  8
0
100
AcDbLine
 62
4
  6
CONTINUOUS
 10
13.0660678183
 20
8.5584535666
 11
13.0749416024
 21
8.5670249843
  0
LINE
  5
301
100
AcDbEntity
  8
0
100
AcDbLine
 62
4
  6
CONTINUOUS
 10
12.9063396309
 20
8.3765700941
 11
12.9107765229
 21
8.380855803
  0
LINE
  5
302
100
AcDbEntity
  8
0
100
AcDbLine
 62
4
  6
CONTINUOUS
 10
12.9721535615
 20
8.4677393551
 11
12.9677166695
 21
8.4717330111
  0
LINE
  5
303
100
AcDbEntity
  8
0
100
AcDbLine
 62
4
  6
CONTINUOUS
 10
12.900793506
 20
8.1785797339
 11
12.9141041886
 21
8.1914368668
  0
LINE
  5
304
100
AcDbEntity
  8
0
100
AcDbLine
 62
4
  6
CONTINUOUS
 10
12.9229779773
 20
8.200008289
 11
12.9296333172
 21
8.206436854
  0
LINE
  5
305
100
AcDbEntity
  8
0
100
AcDbLine
 62
4
  6
CONTINUOUS
 10
12.9473808947
 20
8.2235796984
 11
12.9584731285
 21
8.2342939742
  0
LINE
  5
306
100
AcDbEntity
  8
0
100
AcDbLine
 62
4
  6
CONTINUOUS
 10
12.9096672947
 20
8.1374749719
 11
12.900793506
 21
8.1289035497
  0
LINE
  5
307
100
AcDbEntity
  8
0
100
AcDbLine
 62
4
  6
CONTINUOUS
 10
12.9229779773
 20
8.1420527372
 11
12.9340702111
 21
8.152767013
  0
LINE
  5
308
100
AcDbEntity
  8
0
100
AcDbLine
 62
4
  6
CONTINUOUS
 10
12.9584731285
 20
8.1183828707
 11
12.9473808947
 21
8.107668595
  0
LINE
  5
309
100
AcDbEntity
  8
0
100
AcDbLine
 62
4
  6
CONTINUOUS
 10
12.9340702111
 20
8.0948114613
 11
12.9229779773
 21
8.0840971855
  0
LINE
  5
30A
100
AcDbEntity
  8
0
100
AcDbLine
 62
4
  6
CONTINUOUS
 10
12.900793506
 20
8.0626686305
 11
12.9096672947
 21
8.0712400527
  0
LINE
  5
30B
100
AcDbEntity
  8
0
100
AcDbLine
 62
7
  6
CONTINUOUS
 10
11.226156329
 20
10.0769008578
 11
11.1804239573
 21
10.0994917738
  0
LINE
  5
30C
100
AcDbEntity
  8
0
100
AcDbLine
 62
4
  6
CONTINUOUS
 10
12.9318517651
 20
8.2058199188
 11
12.9362886609
 21
8.1963066946
  0
LINE
  5
30D
100
AcDbEntity
  8
0
100
AcDbLine
 62
4
  6
CONTINUOUS
 10
12.8020726161
 20
8.3365712272
 11
12.7865434866
 21
8.3712474267
  0
LINE
  5
30E
100
AcDbEntity
  8
0
100
AcDbLine
 62
4
  6
CONTINUOUS
 10
12.8316519122
 20
7.8567896512
 11
12.836088806
 21
7.8445166338
  0
LINE
  5
30F
100
AcDbEntity
  8
0
100
AcDbLine
 62
4
  6
CONTINUOUS
 10
12.7865434866
 20
8.2967331443
 11
12.7887619337
 21
8.290596635
  0
LINE
  5
310
100
AcDbEntity
  8
0
100
AcDbLine
 62
4
  6
CONTINUOUS
 10
12.9529270248
 20
7.8580213181
 11
12.9484901328
 21
7.870294339
  0
LINE
  5
311
100
AcDbEntity
  8
0
100
AcDbLine
 62
4
  6
CONTINUOUS
 10
12.8109464039
 20
8.3285839187
 11
12.8153832978
 21
8.3163108996
  0
LINE
  5
312
100
AcDbEntity
  8
0
100
AcDbLine
 62
4
  6
CONTINUOUS
 10
12.9788088975
 20
7.8830212889
 11
12.9743720055
 21
7.8952943098
  0
LINE
  5
313
100
AcDbEntity
  8
0
100
AcDbLine
 62
4
  6
CONTINUOUS
 10
12.7998541692
 20
8.4172220157
 11
12.8020726161
 21
8.4110855035
  0
LINE
  5
314
100
AcDbEntity
  8
0
100
AcDbLine
 62
4
  6
CONTINUOUS
 10
12.9141041886
 20
8.125201951
 11
12.9096672947
 21
8.1374749719
  0
LINE
  5
315
100
AcDbEntity
  8
0
100
AcDbLine
 62
4
  6
CONTINUOUS
 10
12.985464243
 20
8.0053609627
 11
12.989901135
 21
7.9930879435
  0
LINE
  5
316
100
AcDbEntity
  8
0
100
AcDbLine
 62
4
  6
CONTINUOUS
 10
12.9340702111
 20
8.152767013
 11
12.9385071069
 21
8.1404939973
  0
LINE
  5
317
100
AcDbEntity
  8
0
100
AcDbLine
 62
4
  6
CONTINUOUS
 10
13.0098671566
 20
8.0289323686
 11
13.0143040486
 21
8.0166593494
  0
LINE
  5
318
100
AcDbEntity
  8
0
100
AcDbLine
 62
4
  6
CONTINUOUS
 10
12.9063396309
 20
8.4869616232
 11
12.9129949763
 21
8.4105965464
  0
LINE
  5
319
100
AcDbEntity
  8
0
100
AcDbLine
 62
4
  6
CONTINUOUS
 10
12.8575337941
 20
7.8817896309
 11
12.8664075856
 21
7.7744499524
  0
LINE
  5
31A
100
AcDbEntity
  8
0
100
AcDbLine
 62
4
  6
CONTINUOUS
 10
12.7865434866
 20
8.3712474267
 11
12.7865434866
 21
8.3878061548
  0
LINE
  5
31B
100
AcDbEntity
  8
0
100
AcDbLine
 62
4
  6
CONTINUOUS
 10
12.8020726161
 20
8.3200124974
 11
12.8020726161
 21
8.3365712272
  0
LINE
  5
31C
100
AcDbEntity
  8
0
100
AcDbLine
 62
4
  6
CONTINUOUS
 10
12.8109464039
 20
8.4279362923
 11
12.8109464039
 21
8.3285839187
  0
LINE
  5
31D
100
AcDbEntity
  8
0
100
AcDbLine
 62
4
  6
CONTINUOUS
 10
12.8205596784
 20
7.730164272
 11
12.8205596784
 21
7.8460753755
  0
LINE
  5
31E
100
AcDbEntity
  8
0
100
AcDbLine
 62
4
  6
CONTINUOUS
 10
12.8264755334
 20
8.3435839069
 11
12.8264755334
 21
8.4429362805
  0
LINE
  5
31F
100
AcDbEntity
  8
0
100
AcDbLine
 62
4
  6
CONTINUOUS
 10
12.8353493212
 20
8.3355965984
 11
12.8353493212
 21
8.4515077018
  0
LINE
  5
320
100
AcDbEntity
  8
0
100
AcDbLine
 62
4
  6
CONTINUOUS
 10
12.836088806
 20
7.8445166338
 11
12.836088806
 21
7.7617229882
  0
LINE
  5
321
100
AcDbEntity
  8
0
100
AcDbLine
 62
4
  6
CONTINUOUS
 10
12.8508784508
 20
8.3505965866
 11
12.8508784508
 21
8.46650769
  0
LINE
  5
322
100
AcDbEntity
  8
0
100
AcDbLine
 62
4
  6
CONTINUOUS
 10
12.8841551612
 20
7.791592795
 11
12.8841551612
 21
7.9075038984
  0
LINE
  5
323
100
AcDbEntity
  8
0
100
AcDbLine
 62
4
  6
CONTINUOUS
 10
12.8841551559
 20
8.3827394173
 11
12.8841551559
 21
8.4986505208
  0
LINE
  5
324
100
AcDbEntity
  8
0
100
AcDbLine
 62
4
  6
CONTINUOUS
 10
12.8974658394
 20
8.4701108309
 11
12.8974658394
 21
8.3955965511
  0
LINE
  5
325
100
AcDbEntity
  8
0
100
AcDbLine
 62
4
  6
CONTINUOUS
 10
12.900793506
 20
8.1289035497
 11
12.900793506
 21
8.1785797339
  0
LINE
  5
326
100
AcDbEntity
  8
0
100
AcDbLine
 62
4
  6
CONTINUOUS
 10
12.9019027367
 20
7.8087356376
 11
12.9019027367
 21
7.924646741
  0
LINE
  5
327
100
AcDbEntity
  8
0
100
AcDbLine
 62
4
  6
CONTINUOUS
 10
12.9141041886
 20
8.0920844931
 11
12.9141041886
 21
8.125201951
  0
LINE
  5
328
100
AcDbEntity
  8
0
100
AcDbLine
 62
4
  6
CONTINUOUS
 10
12.9229779773
 20
8.0840971855
 11
12.9229779773
 21
8.200008289
  0
LINE
  5
329
100
AcDbEntity
  8
0
100
AcDbLine
 62
4
  6
CONTINUOUS
 10
12.9255661729
 20
8.4310187555
 11
12.9255661729
 21
8.4972536704
  0
LINE
  5
32A
100
AcDbEntity
  8
0
100
AcDbLine
 62
4
  6
CONTINUOUS
 10
12.9362886609
 20
8.1963066946
 11
12.9362886609
 21
8.1714685991
  0
LINE
  5
32B
100
AcDbEntity
  8
0
100
AcDbLine
 62
4
  6
CONTINUOUS
 10
12.9385071069
 20
8.1404939973
 11
12.9385071069
 21
8.1156559035
  0
LINE
  5
32C
100
AcDbEntity
  8
0
100
AcDbLine
 62
4
  6
CONTINUOUS
 10
12.938876849
 20
8.5515076206
 11
12.938876849
 21
8.4355965172
  0
LINE
  5
32D
100
AcDbEntity
  8
0
100
AcDbLine
 62
4
  6
CONTINUOUS
 10
12.9473808947
 20
8.107668595
 11
12.9473808947
 21
8.2235796984
  0
LINE
  5
32E
100
AcDbEntity
  8
0
100
AcDbLine
 62
4
  6
CONTINUOUS
 10
12.9477506479
 20
8.4441679492
 11
12.9477506479
 21
8.5269615965
  0
LINE
  5
32F
100
AcDbEntity
  8
0
100
AcDbLine
 62
4
  6
CONTINUOUS
 10
12.9484901328
 20
7.870294339
 11
12.9484901328
 21
7.9530879846
  0
LINE
  5
330
100
AcDbEntity
  8
0
100
AcDbLine
 62
4
  6
CONTINUOUS
 10
12.9581033911
 20
8.5286822116
 11
12.9581033911
 21
8.5121234835
  0
LINE
  5
331
100
AcDbEntity
  8
0
100
AcDbLine
 62
4
  6
CONTINUOUS
 10
12.9629100242
 20
8.2220209585
 11
12.9629100242
 21
8.139227313
  0
LINE
  5
332
100
AcDbEntity
  8
0
100
AcDbLine
 62
4
  6
CONTINUOUS
 10
12.9677166695
 20
8.4717330111
 11
12.9677166695
 21
8.4965711058
  0
LINE
  5
333
100
AcDbEntity
  8
0
100
AcDbLine
 62
4
  6
CONTINUOUS
 10
12.9743720055
 20
7.8952943098
 11
12.9743720055
 21
7.9780879554
  0
LINE
  5
334
100
AcDbEntity
  8
0
100
AcDbLine
 62
4
  6
CONTINUOUS
 10
12.8486600063
 20
7.7573071062
 11
12.8575337941
 21
7.8817896309
  0
LINE
  5
335
100
AcDbEntity
  8
0
100
AcDbLine
 62
4
  6
CONTINUOUS
 10
12.9107765229
 20
8.380855803
 11
12.919650307
 21
8.4998187498
  0
LINE
  5
336
100
AcDbEntity
  8
0
100
AcDbLine
 62
4
  6
CONTINUOUS
 10
12.7865434866
 20
8.3878061548
 11
12.7909803809
 21
8.408650594
  0
LINE
  5
337
100
AcDbEntity
  8
0
100
AcDbLine
 62
4
  6
CONTINUOUS
 10
12.7976357222
 20
8.299168057
 11
12.8020726161
 21
8.3200124974
  0
LINE
  5
338
100
AcDbEntity
  8
0
100
AcDbLine
 62
4
  6
CONTINUOUS
 10
12.8220386414
 20
8.3227394682
 11
12.8264755334
 21
8.3435839069
  0
LINE
  5
339
100
AcDbEntity
  8
0
100
AcDbLine
 62
4
  6
CONTINUOUS
 10
12.836088806
 20
7.7617229882
 11
12.8316519122
 21
7.7408785478
  0
LINE
  5
33A
100
AcDbEntity
  8
0
100
AcDbLine
 62
4
  6
CONTINUOUS
 10
12.9096672947
 20
8.0712400527
 11
12.9141041886
 21
8.0920844931
  0
LINE
  5
33B
100
AcDbEntity
  8
0
100
AcDbLine
 62
4
  6
CONTINUOUS
 10
12.9362886609
 20
8.1714685991
 11
12.9318517651
 21
8.1506241585
  0
LINE
  5
33C
100
AcDbEntity
  8
0
100
AcDbLine
 62
4
  6
CONTINUOUS
 10
12.9255661729
 20
8.4972536704
 11
12.930003065
 21
8.5098187467
  0
LINE
  5
33D
100
AcDbEntity
  8
0
100
AcDbLine
 62
4
  6
CONTINUOUS
 10
12.9677166695
 20
8.4965711058
 11
12.9721535615
 21
8.5091361787
  0
LINE
  5
33E
100
AcDbEntity
  8
0
100
AcDbLine
 62
4
  6
CONTINUOUS
 10
12.8146438189
 20
7.7962044855
 11
12.8028121009
 21
7.7626976153
  0
LINE
  5
33F
100
AcDbEntity
  8
0
100
AcDbLine
 62
4
  6
CONTINUOUS
 10
12.8205596784
 20
7.8460753755
 11
12.8316519122
 21
7.8567896512
  0
LINE
  5
340
100
AcDbEntity
  8
0
100
AcDbLine
 62
4
  6
CONTINUOUS
 10
12.8752813697
 20
7.8989324735
 11
12.8930289452
 21
7.9160753161
  0
LINE
  5
341
100
AcDbEntity
  8
0
100
AcDbLine
 62
4
  6
CONTINUOUS
 10
12.9019027367
 20
7.924646741
 11
12.9152134202
 21
7.9375038747
  0
LINE
  5
342
100
AcDbEntity
  8
0
100
AcDbLine
 62
4
  6
CONTINUOUS
 10
12.9529270248
 20
7.9739324215
 11
12.9618008089
 21
7.9825038393
  0
LINE
  5
343
100
AcDbEntity
  8
0
100
AcDbLine
 62
4
  6
CONTINUOUS
 10
12.9788088975
 20
7.9989323923
 11
12.985464243
 21
8.0053609627
  0
LINE
  5
344
100
AcDbEntity
  8
0
100
AcDbLine
 62
4
  6
CONTINUOUS
 10
12.9987749191
 20
8.0182180893
 11
13.0098671566
 21
8.0289323686
  0
LINE
  5
345
100
AcDbEntity
  8
0
100
AcDbLine
 62
4
  6
CONTINUOUS
 10
13.02687526
 20
8.045360936
 11
13.0401859361
 21
8.0582180626
  0
LINE
  5
346
100
AcDbEntity
  8
0
100
AcDbLine
 62
4
  6
CONTINUOUS
 10
13.0357490441
 20
8.0042561695
 11
13.02687526
 21
7.9956847517
  0
LINE
  5
347
100
AcDbEntity
  8
0
100
AcDbLine
 62
4
  6
CONTINUOUS
 10
12.9107765282
 20
7.8835419817
 11
12.9019027367
 21
7.8749705568
  0
LINE
  5
348
100
AcDbEntity
  8
0
100
AcDbLine
 62
4
  6
CONTINUOUS
 10
12.8516179356
 20
7.7932817062
 11
12.8634496526
 21
7.8047102679
  0
LINE
  5
349
100
AcDbEntity
  8
0
100
AcDbLine
 62
4
  6
CONTINUOUS
 10
13.0098671566
 20
7.9130212652
 11
12.9987749191
 21
7.9023069859
  0
LINE
  5
34A
100
AcDbEntity
  8
0
100
AcDbLine
 62
4
  6
CONTINUOUS
 10
12.985464243
 20
7.8894498593
 11
12.9788088975
 21
7.8830212889
  0
LINE
  5
34B
100
AcDbEntity
  8
0
100
AcDbLine
 62
4
  6
CONTINUOUS
 10
12.9618008089
 20
7.8665927358
 11
12.9529270248
 21
7.8580213181
  0
LINE
  5
34C
100
AcDbEntity
  8
0
100
AcDbLine
 62
4
  6
CONTINUOUS
 10
12.8316519122
 20
7.7408785478
 11
12.8205596784
 21
7.730164272
  0
LINE
  5
34D
100
AcDbEntity
  8
0
100
AcDbLine
 62
4
  6
CONTINUOUS
 10
12.9019027367
 20
7.8087356376
 11
12.9152134202
 21
7.8215927713
  0
LINE
  5
34E
100
AcDbEntity
  8
0
100
AcDbLine
 62
4
  6
CONTINUOUS
 10
13.02687526
 20
7.9294498325
 11
13.0401859361
 21
7.9423069591
  0
LINE
  5
34F
100
AcDbEntity
  8
0
100
AcDbLine
 62
4
  6
CONTINUOUS
 10
11.1039602897
 20
6.4851107027
 11
11.1184491776
 21
6.4937651512
  0
LINE
  5
350
100
AcDbEntity
  8
0
100
AcDbLine
 62
4
  6
CONTINUOUS
 10
11.1474269535
 20
6.4434592402
 11
11.1184491776
 21
6.4261503397
  0
LINE
  5
351
100
AcDbEntity
  8
0
100
AcDbLine
 62
7
  6
CONTINUOUS
 10
10.2931385602
 20
10.8090089609
 11
10.2624644856
 21
10.8241613665
  0
LINE
  5
352
100
AcDbEntity
  8
0
100
AcDbLine
 62
4
  6
CONTINUOUS
 10
13.0660678183
 20
8.6026101782
 11
13.0638493797
 21
8.605986907
  0
LINE
  5
353
100
AcDbEntity
  8
0
100
AcDbLine
 62
4
  6
CONTINUOUS
 10
13.077160041
 20
8.6022852912
 11
13.0749416024
 21
8.6056620199
  0
LINE
  5
354
100
AcDbEntity
  8
0
100
AcDbLine
 62
4
  6
CONTINUOUS
 10
12.9584731285
 20
8.2342939742
 11
12.9629100242
 21
8.2220209585
  0
LINE
  5
355
100
AcDbEntity
  8
0
100
AcDbLine
 62
4
  6
CONTINUOUS
 10
12.8952473934
 20
8.4762473439
 11
12.8974658394
 21
8.4701108309
  0
LINE
  5
356
100
AcDbEntity
  8
0
100
AcDbLine
 62
4
  6
CONTINUOUS
 10
12.9899011297
 20
8.4931615555
 11
12.9921195831
 21
8.4870250521
  0
LINE
  5
357
100
AcDbEntity
  8
0
100
AcDbLine
 62
4
  6
CONTINUOUS
 10
13.0143040581
 20
8.5084536108
 11
13.0120856047
 21
8.5145901141
  0
LINE
  5
358
100
AcDbEntity
  8
0
100
AcDbLine
 62
4
  6
CONTINUOUS
 10
13.0461017819
 20
8.5391678552
 11
13.0438833433
 21
8.5453043728
  0
LINE
  5
359
100
AcDbEntity
  8
0
100
AcDbLine
 62
4
  6
CONTINUOUS
 10
13.0638493797
 20
8.5645900842
 11
13.0660678183
 21
8.5584535666
  0
LINE
  5
35A
100
AcDbEntity
  8
0
100
AcDbLine
 62
4
  6
CONTINUOUS
 10
12.956624432
 20
8.5355330142
 11
12.9581033911
 21
8.5286822116
  0
LINE
  5
35B
100
AcDbEntity
  8
0
100
AcDbLine
 62
4
  6
CONTINUOUS
 10
12.8353493212
 20
8.4515077018
 11
12.8508784508
 21
8.3505965866
  0
LINE
  5
35C
100
AcDbEntity
  8
0
100
AcDbLine
 62
4
  6
CONTINUOUS
 10
12.9810273456
 20
8.542545692
 11
12.978808907
 21
8.5569615728
  0
LINE
  5
35D
100
AcDbEntity
  8
0
100
AcDbLine
 62
4
  6
CONTINUOUS
 10
12.9810273456
 20
8.4763107728
 11
12.9810273456
 21
8.542545692
  0
LINE
  5
35E
100
AcDbEntity
  8
0
100
AcDbLine
 62
4
  6
CONTINUOUS
 10
12.9899011297
 20
8.5676758378
 11
12.9899011297
 21
8.4931615555
  0
LINE
  5
35F
100
AcDbEntity
  8
0
100
AcDbLine
 62
4
  6
CONTINUOUS
 10
12.989901135
 20
7.9930879435
 11
12.989901135
 21
7.910294298
  0
LINE
  5
360
100
AcDbEntity
  8
0
100
AcDbLine
 62
4
  6
CONTINUOUS
 10
12.9987749191
 20
7.9023069859
 11
12.9987749191
 21
8.0182180893
  0
LINE
  5
361
100
AcDbEntity
  8
0
100
AcDbLine
 62
4
  6
CONTINUOUS
 10
13.0032118206
 20
8.4977393314
 11
13.0032118206
 21
8.5805329787
  0
LINE
  5
362
100
AcDbEntity
  8
0
100
AcDbLine
 62
4
  6
CONTINUOUS
 10
13.0120856047
 20
8.5145901141
 11
13.0120856047
 21
8.6222218526
  0
LINE
  5
363
100
AcDbEntity
  8
0
100
AcDbLine
 62
4
  6
CONTINUOUS
 10
13.0143040486
 20
8.0166593494
 11
13.0143040486
 21
7.9338657039
  0
LINE
  5
364
100
AcDbEntity
  8
0
100
AcDbLine
 62
4
  6
CONTINUOUS
 10
13.02687526
 20
7.9294498325
 11
13.02687526
 21
8.045360936
  0
LINE
  5
365
100
AcDbEntity
  8
0
100
AcDbLine
 62
4
  6
CONTINUOUS
 10
13.0320516263
 20
8.5255964462
 11
13.0320516263
 21
8.6083900935
  0
LINE
  5
366
100
AcDbEntity
  8
0
100
AcDbLine
 62
4
  6
CONTINUOUS
 10
13.0320516263
 20
8.6332281822
 11
13.0320516263
 21
8.6415075496
  0
LINE
  5
367
100
AcDbEntity
  8
0
100
AcDbLine
 62
4
  6
CONTINUOUS
 10
13.0438833433
 20
8.5453043728
 11
13.0438833433
 21
8.6115392877
  0
LINE
  5
368
100
AcDbEntity
  8
0
100
AcDbLine
 62
4
  6
CONTINUOUS
 10
13.0638493797
 20
8.605986907
 11
13.0638493797
 21
8.6308249991
  0
LINE
  5
369
100
AcDbEntity
  8
0
100
AcDbLine
 62
4
  6
CONTINUOUS
 10
13.077160041
 20
8.5774471965
 11
13.077160041
 21
8.6022852912
  0
LINE
  5
36A
100
AcDbEntity
  8
0
100
AcDbLine
 62
4
  6
CONTINUOUS
 10
13.0327911058
 20
8.6422218321
 11
13.0320516263
 21
8.6332281822
  0
LINE
  5
36B
100
AcDbEntity
  8
0
100
AcDbLine
 62
4
  6
CONTINUOUS
 10
13.0438833433
 20
8.6115392877
 11
13.0461017819
 21
8.6219615025
  0
LINE
  5
36C
100
AcDbEntity
  8
0
100
AcDbLine
 62
4
  6
CONTINUOUS
 10
12.9385071069
 20
8.1156559035
 11
12.9340702111
 21
8.0948114613
  0
LINE
  5
36D
100
AcDbEntity
  8
0
100
AcDbLine
 62
4
  6
CONTINUOUS
 10
13.0638493797
 20
8.6308249991
 11
13.0660678183
 21
8.6412472139
  0
LINE
  5
36E
100
AcDbEntity
  8
0
100
AcDbLine
 62
4
  6
CONTINUOUS
 10
12.9629100242
 20
8.139227313
 11
12.9584731285
 21
8.1183828707
  0
LINE
  5
36F
100
AcDbEntity
  8
0
100
AcDbLine
 62
4
  6
CONTINUOUS
 10
13.0749416024
 20
8.5670249843
 11
13.077160041
 21
8.5774471965
  0
LINE
  5
370
100
AcDbEntity
  8
0
100
AcDbLine
 62
4
  6
CONTINUOUS
 10
12.9484901328
 20
7.9530879846
 11
12.9529270248
 21
7.9739324215
  0
LINE
  5
371
100
AcDbEntity
  8
0
100
AcDbLine
 62
4
  6
CONTINUOUS
 10
12.9743720055
 20
7.9780879554
 11
12.9788088975
 21
7.9989323923
  0
LINE
  5
372
100
AcDbEntity
  8
0
100
AcDbLine
 62
4
  6
CONTINUOUS
 10
12.989901135
 20
7.910294298
 11
12.985464243
 21
7.8894498593
  0
LINE
  5
373
100
AcDbEntity
  8
0
100
AcDbLine
 62
4
  6
CONTINUOUS
 10
13.0143040486
 20
7.9338657039
 11
13.0098671566
 21
7.9130212652
  0
LINE
  5
374
100
AcDbEntity
  8
0
100
AcDbLine
 62
4
  6
CONTINUOUS
 10
13.0608914373
 20
8.0119831263
 11
13.0490597202
 21
7.9784762587
  0
LINE
  5
375
100
AcDbEntity
  8
0
100
AcDbLine
 62
4
  6
CONTINUOUS
 10
13.0749416024
 20
8.6498186316
 11
13.077160041
 21
8.6436821114
  0
LINE
  5
376
100
AcDbEntity
  8
0
100
AcDbLine
 62
7
  6
CONTINUOUS
 10
13.5788988458
 20
10.8021361778
 11
13.5788988458
 21
7.1799141145
  0
LINE
  5
377
100
AcDbEntity
  8
0
100
AcDbLine
 62
7
  6
CONTINUOUS
 10
9.7151953117
 20
11.0700849279
 11
13.5788988458
 21
10.8021361778
  0
LINE
  5
378
100
AcDbEntity
  8
0
100
AcDbLine
 62
7
  6
CONTINUOUS
 10
12.2249903272
 20
10.6750345859
 11
12.1943162526
 21
10.6901869914
  0
LINE
  5
379
100
AcDbEntity
  8
0
100
AcDbLine
 62
7
  6
CONTINUOUS
 10
13.5788988458
 20
7.1799141145
 11
12.2848046883
 21
5.9299150721
  0
ARC
  5
37A
100
AcDbEntity
  8
0
100
AcDbCircle
 62
7
  6
CONTINUOUS
 10
11.6944404749
 20
12.2839918427
 40
2.252825792
100
AcDbArc
 50
266.0337727607
 51
266.7248824997
  0
ARC
  5
37B
100
AcDbEntity
  8
0
100
AcDbCircle
 62
7
  6
CONTINUOUS
 10
9.7625887079
 20
12.4179662177
 40
2.252825792
100
AcDbArc
 50
266.0337727607
 51
266.7248824997
  0
ARC
  5
37C
100
AcDbEntity
  8
0
100
AcDbCircle
 62
7
  6
CONTINUOUS
 10
11.6944404749
 20
12.668395284
 40
2.252825792
100
AcDbArc
 50
266.0337727607
 51
266.7248824997
  0
ARC
  5
37D
100
AcDbEntity
  8
0
100
AcDbCircle
 62
7
  6
CONTINUOUS
 10
9.7625887079
 20
12.8023696589
 40
2.2528257918
100
AcDbArc
 50
266.0337727607
 51
266.7248824998
  0
ARC
  5
37E
100
AcDbEntity
  8
0
100
AcDbCircle
 62
7
  6
CONTINUOUS
 10
9.7583731341
 20
12.3572300109
 40
2.1919434639
100
AcDbArc
 50
265.3313245689
 51
266.0338890315
  0
ARC
  5
37F
100
AcDbEntity
  8
0
100
AcDbCircle
 62
7
  6
CONTINUOUS
 10
11.6902249011
 20
12.2232556357
 40
2.1919434638
100
AcDbArc
 50
265.3313245689
 51
266.0338890315
  0
ARC
  5
380
100
AcDbEntity
  8
0
100
AcDbCircle
 62
7
  6
CONTINUOUS
 10
9.7573926761
 20
12.7286465089
 40
2.1789198093
100
AcDbArc
 50
265.329224888
 51
266.0359887124
  0
ARC
  5
381
100
AcDbEntity
  8
0
100
AcDbCircle
 62
7
  6
CONTINUOUS
 10
11.6892444431
 20
12.5946721337
 40
2.1789198092
100
AcDbArc
 50
265.329224888
 51
266.0359887124
  0
ARC
  5
382
100
AcDbEntity
  8
0
100
AcDbCircle
 62
7
  6
CONTINUOUS
 10
9.9797907036
 20
11.1362958624
 40
0.9538147475
100
AcDbArc
 50
283.286087793
 51
285.7355389587
  0
ARC
  5
383
100
AcDbEntity
  8
0
100
AcDbCircle
 62
7
  6
CONTINUOUS
 10
9.9797907036
 20
11.5206993038
 40
0.9538147475
100
AcDbArc
 50
283.286087793
 51
285.7355389587
  0
ARC
  5
384
100
AcDbEntity
  8
0
100
AcDbCircle
 62
7
  6
CONTINUOUS
 10
11.9116424706
 20
11.0023214873
 40
0.9538147475
100
AcDbArc
 50
283.286087793
 51
285.7355389587
  0
ARC
  5
385
100
AcDbEntity
  8
0
100
AcDbCircle
 62
7
  6
CONTINUOUS
 10
11.9116424706
 20
11.3867249287
 40
0.9538147475
100
AcDbArc
 50
283.286087793
 51
285.7355389587
  0
ARC
  5
386
100
AcDbEntity
  8
0
100
AcDbCircle
 62
7
  6
CONTINUOUS
 10
10.1167960451
 20
7.7876353629
 40
0.4482791961
100
AcDbArc
 50
266.0072891398
 51
275.2435144543
  0
ARC
  5
387
100
AcDbEntity
  8
0
100
AcDbCircle
 62
7
  6
CONTINUOUS
 10
11.5656848701
 20
7.6871545641
 40
0.4482791787
100
AcDbArc
 50
266.0072890233
 51
275.2435185303
  0
ARC
  5
388
100
AcDbEntity
  8
0
100
AcDbCircle
 62
7
  6
CONTINUOUS
 10
10.1225726725
 20
7.7960726932
 40
0.420168394
100
AcDbArc
 50
266.0114712862
 51
274.449896375
  0
ARC
  5
389
100
AcDbEntity
  8
0
100
AcDbCircle
 62
7
  6
CONTINUOUS
 10
11.5714614978
 20
7.6955919119
 40
0.420168394
100
AcDbArc
 50
266.0114712862
 51
274.449896375
  0
SPLINE
  5
38A
100
AcDbEntity
  8
0
100
AcDbSpline
 62
7
  6
CONTINUOUS
 70
0
 71
3
 72
29
 73
25
 74
0
 42
0.0000001
 43
0.0000001
 44
0.0000000001
 40
0.0
 40
0.0
 40
0.0
 40
0.0
 40
0.070984318
 40
0.1429825523
 40
0.2155057028
 40
0.2880809331
 40
0.3602234383
 40
0.4314560192
 40
0.5013085085
 40
0.5693229079
 40
0.6350576048
 40
0.6980916372
 40
0.728471958
 40
0.7580314442
 40
0.7867250902
 40
0.8145108681
 40
0.8413490867
 40
0.8672023195
 40
0.8920371672
 40
0.9158224349
 40
0.9385315725
 40
0.9601419631
 40
0.9806353258
 40
1.0
 40
1.0
 40
1.0
 40
1.0
 10
9.9144998267
 20
10.8962456972
 30
0.0
 10
9.8992816982
 20
10.897301078
 30
0.0
 10
9.8686020701
 20
10.8990672465
 30
0.0
 10
9.8223143672
 20
10.9006920513
 30
0.0
 10
9.7756601016
 20
10.9013045484
 30
0.0
 10
9.7289726368
 20
10.9009009216
 30
0.0
 10
9.6825823312
 20
10.8994836763
 30
0.0
 10
9.6368193296
 20
10.8970631705
 30
0.0
 10
9.5920085645
 20
10.8936568619
 30
0.0
 10
9.5484681072
 20
10.8892894497
 30
0.0
 10
9.5065072654
 20
10.8839923976
 30
0.0
 10
9.4727009045
 20
10.8787737916
 30
0.0
 10
9.4466816657
 20
10.8741420626
 30
0.0
 10
9.4279838843
 20
10.8705041338
 30
0.0
 10
9.4098958007
 20
10.8666656786
 30
0.0
 10
9.3924494866
 20
10.8626336717
 30
0.0
 10
9.3756758749
 20
10.8584154767
 30
0.0
 10
9.3596047425
 20
10.8540182246
 30
0.0
 10
9.344264472
 20
10.8494503332
 30
0.0
 10
9.3296822293
 20
10.8447194699
 30
0.0
 10
9.3158837265
 20
10.8398343384
 30
0.0
 10
9.3028931029
 20
10.8348037078
 30
0.0
 10
9.2907335243
 20
10.8296361791
 30
0.0
 10
9.2829739645
 20
10.8260027912
 30
0.0
 10
9.2792428682
 20
10.8241596741
 30
0.0
  0
SPLINE
  5
38B
100
AcDbEntity
  8
0
100
AcDbSpline
 62
7
  6
CONTINUOUS
 70
0
 71
3
 72
9
 73
5
 74
0
 42
0.0000001
 43
0.0000001
 44
0.0000000001
 40
0.0
 40
0.0
 40
0.0
 40
0.0
 40
0.5197971894
 40
1.0
 40
1.0
 40
1.0
 40
1.0
 10
9.1662762071
 20
10.2796292042
 30
0.0
 10
9.1635818711
 20
10.2818377756
 30
0.0
 10
9.1585484015
 20
10.2862749984
 30
0.0
 10
9.1539195819
 20
10.2911385881
 30
0.0
 10
9.151828159
 20
10.2935849232
 30
0.0
  0
SPLINE
  5
38C
100
AcDbEntity
  8
0
100
AcDbSpline
 62
7
  6
CONTINUOUS
 70
0
 71
3
 72
9
 73
5
 74
0
 42
0.0000001
 43
0.0000001
 44
0.0000000001
 40
0.0
 40
0.0
 40
0.0
 40
0.0
 40
0.4802028106
 40
1.0
 40
1.0
 40
1.0
 40
1.0
 10
10.3898825915
 20
10.7488901866
 30
0.0
 10
10.3877911686
 20
10.7513365217
 30
0.0
 10
10.3831623489
 20
10.7562001115
 30
0.0
 10
10.3781288793
 20
10.7606373342
 30
0.0
 10
10.3754345433
 20
10.7628459056
 30
0.0
  0
SPLINE
  5
38D
100
AcDbEntity
  8
0
100
AcDbSpline
 62
7
  6
CONTINUOUS
 70
0
 71
3
 72
9
 73
5
 74
0
 42
0.0000001
 43
0.0000001
 44
0.0000000001
 40
0.0
 40
0.0
 40
0.0
 40
0.0
 40
0.5043782952
 40
1.0
 40
1.0
 40
1.0
 40
1.0
 10
9.1662762071
 20
10.2796292042
 30
0.0
 10
9.1797799329
 20
10.271220371
 30
0.0
 10
9.206892721
 20
10.2550857529
 30
0.0
 10
9.2347654642
 20
10.2402885899
 30
0.0
 10
9.2487795752
 20
10.2333637609
 30
0.0
  0
SPLINE
  5
38E
100
AcDbEntity
  8
0
100
AcDbSpline
 62
7
  6
CONTINUOUS
 70
0
 71
3
 72
9
 73
5
 74
0
 42
0.0000001
 43
0.0000001
 44
0.0000000001
 40
0.0
 40
0.0
 40
0.0
 40
0.0
 40
0.5043782952
 40
1.0
 40
1.0
 40
1.0
 40
1.0
 10
10.3754345433
 20
10.7628459056
 30
0.0
 10
10.3619308175
 20
10.7712547389
 30
0.0
 10
10.3348180295
 20
10.7873893569
 30
0.0
 10
10.3069452862
 20
10.8021865199
 30
0.0
 10
10.2929311752
 20
10.8091113489
 30
0.0
  0
SPLINE
  5
38F
100
AcDbEntity
  8
0
100
AcDbSpline
 62
7
  6
CONTINUOUS
 70
0
 71
3
 72
11
 73
7
 74
0
 42
0.0000001
 43
0.0000001
 44
0.0000000001
 40
0.0
 40
0.0
 40
0.0
 40
0.0
 40
0.2463776306
 40
0.4961715004
 40
0.7478560968
 40
1.0
 40
1.0
 40
1.0
 40
1.0
 10
9.6580103647
 20
9.1397196569
 30
0.0
 10
9.6692315009
 20
9.1389414685
 30
0.0
 10
9.691847316
 20
9.1376232848
 30
0.0
 10
9.7259686653
 20
9.1363558179
 30
0.0
 10
9.760372106
 20
9.1357895239
 30
0.0
 10
9.7833755286
 20
9.1358816823
 30
0.0
 10
9.7948856946
 20
9.1360460945
 30
0.0
  0
SPLINE
  5
390
100
AcDbEntity
  8
0
100
AcDbSpline
 62
7
  6
CONTINUOUS
 70
0
 71
3
 72
23
 73
19
 74
0
 42
0.0000001
 43
0.0000001
 44
0.0000000001
 40
0.0
 40
0.0
 40
0.0
 40
0.0
 40
0.0436202716
 40
0.0892267831
 40
0.1370684894
 40
0.1873535484
 40
0.2402536978
 40
0.2958870825
 40
0.3543309839
 40
0.4156093066
 40
0.4797101
 40
0.5465786547
 40
0.6161344819
 40
0.6882693018
 40
0.7628605839
 40
0.8397743489
 40
0.9188692317
 40
1.0
 40
1.0
 40
1.0
 40
1.0
 10
10.2814741934
 20
10.2277042113
 30
0.0
 10
10.2837841266
 20
10.2288447787
 30
0.0
 10
10.2884212457
 20
10.2313598732
 30
0.0
 10
10.2952485279
 20
10.2357209227
 30
0.0
 10
10.3020849097
 20
10.2407632075
 30
0.0
 10
10.3089264523
 20
10.2464941388
 30
0.0
 10
10.3157675434
 20
10.2529177895
 30
0.0
 10
10.3226050768
 20
10.2600293627
 30
0.0
 10
10.3294333289
 20
10.2678201763
 30
0.0
 10
10.336249566
 20
10.2762735813
 30
0.0
 10
10.3430487275
 20
10.2853694907
 30
0.0
 10
10.3498285707
 20
10.2950818769
 30
0.0
 10
10.3565852307
 20
10.3053824302
 30
0.0
 10
10.3633171108
 20
10.3162393902
 30
0.0
 10
10.3700218209
 20
10.3276202504
 30
0.0
 10
10.3766984632
 20
10.3394913401
 30
0.0
 10
10.3833459488
 20
10.3518191871
 30
0.0
 10
10.3877050622
 20
10.3602186096
 30
0.0
 10
10.3898825915
 20
10.3644867453
 30
0.0
  0
SPLINE
  5
391
100
AcDbEntity
  8
0
100
AcDbSpline
 62
7
  6
CONTINUOUS
 70
0
 71
3
 72
23
 73
19
 74
0
 42
0.0000001
 43
0.0000001
 44
0.0000000001
 40
0.0
 40
0.0
 40
0.0
 40
0.0
 40
0.0430692708
 40
0.0891859059
 40
0.1383039462
 40
0.1903539308
 40
0.2452509344
 40
0.3028923159
 40
0.36316428
 40
0.4259386958
 40
0.4910792536
 40
0.558438617
 40
0.6278623889
 40
0.6991843849
 40
0.7722354743
 40
0.8468474017
 40
0.9228412057
 40
1.0
 40
1.0
 40
1.0
 40
1.0
 10
10.2624684039
 20
10.8241594163
 30
0.0
 10
10.2578706704
 20
10.8264306531
 30
0.0
 10
10.2482280259
 20
10.8308895345
 30
0.0
 10
10.2329942535
 20
10.8371538994
 30
0.0
 10
10.2165315184
 20
10.8432076334
 30
0.0
 10
10.1988835167
 20
10.849035082
 30
0.0
 10
10.1800963946
 20
10.8546200049
 30
0.0
 10
10.1602198545
 20
10.8599480893
 30
0.0
 10
10.139306466
 20
10.8650043309
 30
0.0
 10
10.1174117487
 20
10.8697758131
 30
0.0
 10
10.0945937848
 20
10.8742490599
 30
0.0
 10
10.0709131615
 20
10.8784126632
 30
0.0
 10
10.0464330845
 20
10.8822547648
 30
0.0
 10
10.0212190105
 20
10.8857657158
 30
0.0
 10
9.995337408
 20
10.8889355723
 30
0.0
 10
9.9688560149
 20
10.8917563126
 30
0.0
 10
9.9418479378
 20
10.8942195957
 30
0.0
 10
9.9236648736
 20
10.8956100991
 30
0.0
 10
9.9144998267
 20
10.8962456972
 30
0.0
  0
SPLINE
  5
392
100
AcDbEntity
  8
0
100
AcDbSpline
 62
7
  6
CONTINUOUS
 70
0
 71
3
 72
23
 73
19
 74
0
 42
0.0000001
 43
0.0000001
 44
0.0000000001
 40
0.0
 40
0.0
 40
0.0
 40
0.0
 40
0.0436202716
 40
0.0892267831
 40
0.1370684894
 40
0.1873535484
 40
0.2402536978
 40
0.2958870825
 40
0.3543309839
 40
0.4156093066
 40
0.4797101
 40
0.5465786547
 40
0.6161344819
 40
0.6882693018
 40
0.7628605839
 40
0.8397743489
 40
0.9188692317
 40
1.0
 40
1.0
 40
1.0
 40
1.0
 10
9.260236557
 20
10.8147708985
 30
0.0
 10
9.2579266238
 20
10.8136303311
 30
0.0
 10
9.2532895048
 20
10.8111152367
 30
0.0
 10
9.2464622225
 20
10.8067541871
 30
0.0
 10
9.2396258407
 20
10.8017119023
 30
0.0
 10
9.2327842981
 20
10.795980971
 30
0.0
 10
9.225943207
 20
10.7895573203
 30
0.0
 10
9.2191056736
 20
10.7824457472
 30
0.0
 10
9.2122774215
 20
10.7746549335
 30
0.0
 10
9.2054611844
 20
10.7662015285
 30
0.0
 10
9.1986620229
 20
10.7571056191
 30
0.0
 10
9.1918821797
 20
10.7473932329
 30
0.0
 10
9.1851255197
 20
10.7370926796
 30
0.0
 10
9.1783936396
 20
10.7262357196
 30
0.0
 10
9.1716889296
 20
10.7148548594
 30
0.0
 10
9.1650122872
 20
10.7029837697
 30
0.0
 10
9.1583648016
 20
10.6906559227
 30
0.0
 10
9.1540056882
 20
10.6822565002
 30
0.0
 10
9.151828159
 20
10.6779883645
 30
0.0
  0
SPLINE
  5
393
100
AcDbEntity
  8
0
100
AcDbSpline
 62
7
  6
CONTINUOUS
 70
0
 71
3
 72
28
 73
24
 74
0
 42
0.0000001
 43
0.0000001
 44
0.0000000001
 40
0.0
 40
0.0
 40
0.0
 40
0.0
 40
0.0165871052
 40
0.0341535937
 40
0.0527305364
 40
0.0723390866
 40
0.0929936513
 40
0.1147033577
 40
0.1374709508
 40
0.1612944416
 40
0.1861689377
 40
0.2120857194
 40
0.2669901087
 40
0.3258847519
 40
0.3886041301
 40
0.4549539099
 40
0.5247129201
 40
0.5976380021
 40
0.6734672954
 40
0.7519163431
 40
0.8326946248
 40
0.9155068431
 40
1.0
 40
1.0
 40
1.0
 40
1.0
 10
9.3507981216
 20
9.2184834025
 30
0.0
 10
9.3520981516
 20
9.217273585
 30
0.0
 10
9.3548555092
 20
9.2148680874
 30
0.0
 10
9.3593113031
 20
9.2113974992
 30
0.0
 10
9.3641986179
 20
9.207966748
 30
0.0
 10
9.3695120266
 20
9.2045790844
 30
0.0
 10
9.3752462045
 20
9.2012378065
 30
0.0
 10
9.3813954513
 20
9.1979465741
 30
0.0
 10
9.3879533537
 20
9.1947086009
 30
0.0
 10
9.3949130556
 20
9.1915271262
 30
0.0
 10
9.4022674765
 20
9.1884055793
 30
0.0
 10
9.4127931671
 20
9.1842476999
 30
0.0
 10
9.4268960129
 20
9.1792455332
 30
0.0
 10
9.4449490234
 20
9.173641449
 30
0.0
 10
9.4643685854
 20
9.1683492007
 30
0.0
 10
9.4850736458
 20
9.1633915927
 30
0.0
 10
9.5069780329
 20
9.1587896981
 30
0.0
 10
9.5299902249
 20
9.1545628983
 30
0.0
 10
9.554013619
 20
9.1507296685
 30
0.0
 10
9.5789475069
 20
9.1473057387
 30
0.0
 10
9.6046886646
 20
9.1443058928
 30
0.0
 10
9.6311270253
 20
9.1417433281
 30
0.0
 10
9.6489858934
 20
9.1403455062
 30
0.0
 10
9.6580103647
 20
9.1397196569
 30
0.0
  0
SPLINE
  5
394
100
AcDbEntity
  8
0
100
AcDbSpline
 62
7
  6
CONTINUOUS
 70
0
 71
3
 72
29
 73
25
 74
0
 42
0.0000001
 43
0.0000001
 44
0.0000000001
 40
0.0
 40
0.0
 40
0.0
 40
0.0
 40
0.0709839827
 40
0.1429818596
 40
0.2155046776
 40
0.2880795928
 40
0.3602217728
 40
0.4314540888
 40
0.5013064077
 40
0.5693206708
 40
0.6350552793
 40
0.698089349
 40
0.7284697338
 40
0.7580293054
 40
0.7867230494
 40
0.8145089399
 40
0.8413472991
 40
0.8672007086
 40
0.8920357659
 40
0.9158212707
 40
0.9385306691
 40
0.9601413418
 40
0.9806350048
 40
1.0
 40
1.0
 40
1.0
 40
1.0
 10
9.6316108439
 20
10.1409988907
 30
0.0
 10
9.6463626583
 20
10.1399758489
 30
0.0
 10
9.676102197
 20
10.1382637956
 30
0.0
 10
9.7209715495
 20
10.13668876
 30
0.0
 10
9.7661962385
 20
10.1360950032
 30
0.0
 10
9.8114531171
 20
10.1364862211
 30
0.0
 10
9.8564219558
 20
10.1378599886
 30
0.0
 10
9.9007827418
 20
10.1402062631
 30
0.0
 10
9.9442205071
 20
10.1435081262
 30
0.0
 10
9.9864269239
 20
10.1477416314
 30
0.0
 10
10.0271021677
 20
10.1528762853
 30
0.0
 10
10.0598728072
 20
10.1579349023
 30
0.0
 10
10.0850949382
 20
10.1624246406
 30
0.0
 10
10.1032199327
 20
10.1659510478
 30
0.0
 10
10.1207539213
 20
10.1696718347
 30
0.0
 10
10.1376658163
 20
10.1735802418
 30
0.0
 10
10.1539256375
 20
10.177669132
 30
0.0
 10
10.1695045248
 20
10.181931593
 30
0.0
 10
10.1843749651
 20
10.1863594661
 30
0.0
 10
10.1985106226
 20
10.1909453185
 30
0.0
 10
10.2118865713
 20
10.1956807133
 30
0.0
 10
10.2244794107
 20
10.2005571486
 30
0.0
 10
10.2362666849
 20
10.2055662881
 30
0.0
 10
10.2437886779
 20
10.209088308
 30
0.0
 10
10.2474055501
 20
10.2108749315
 30
0.0
  0
SPLINE
  5
395
100
AcDbEntity
  8
0
100
AcDbSpline
 62
7
  6
CONTINUOUS
 70
0
 71
3
 72
23
 73
19
 74
0
 42
0.0000001
 43
0.0000001
 44
0.0000000001
 40
0.0
 40
0.0
 40
0.0
 40
0.0
 40
0.0771582859
 40
0.1531516138
 40
0.2277631003
 40
0.3008138096
 40
0.3721355099
 40
0.4415590541
 40
0.5089182344
 40
0.5740586726
 40
0.6368330664
 40
0.6971051206
 40
0.7547467082
 40
0.809644014
 40
0.8616943682
 40
0.9108128577
 40
0.9569300549
 40
1.0
 40
1.0
 40
1.0
 40
1.0
 10
9.6316108439
 20
10.1409988907
 30
0.0
 10
9.6227267059
 20
10.1416150077
 30
0.0
 10
9.6051009503
 20
10.1429628899
 30
0.0
 10
9.5789206621
 20
10.1453506624
 30
0.0
 10
9.5532509023
 20
10.1480849289
 30
0.0
 10
9.528162531
 20
10.1511576055
 30
0.0
 10
9.5037212065
 20
10.154560917
 30
0.0
 10
9.4799913617
 20
10.1582852229
 30
0.0
 10
9.4570364494
 20
10.1623211706
 30
0.0
 10
9.4349177349
 20
10.1666572667
 30
0.0
 10
9.4136939403
 20
10.1712824528
 30
0.0
 10
9.3934213615
 20
10.1761836684
 30
0.0
 10
9.3741538166
 20
10.1813483946
 30
0.0
 10
9.355942268
 20
10.1867620841
 30
0.0
 10
9.3388348978
 20
10.1924108623
 30
0.0
 10
9.3228764355
 20
10.19827899
 30
0.0
 10
9.3081092308
 20
10.2043512927
 30
0.0
 10
9.2987618809
 20
10.208673463
 30
0.0
 10
9.2943049335
 20
10.2108750634
 30
0.0
  0
SPLINE
  5
396
100
AcDbEntity
  8
0
100
AcDbSpline
 62
7
  6
CONTINUOUS
 70
0
 71
3
 72
21
 73
17
 74
0
 42
0.0000001
 43
0.0000001
 44
0.0000000001
 40
0.0
 40
0.0
 40
0.0
 40
0.0
 40
0.1331620508
 40
0.198721389
 40
0.2635863969
 40
0.3277657689
 40
0.3912790145
 40
0.4541586317
 40
0.5164459921
 40
0.5781920281
 40
0.6394524084
 40
0.7002861096
 40
0.7607522371
 40
0.8209070106
 40
0.8808048208
 40
1.0
 40
1.0
 40
1.0
 40
1.0
 10
9.2487795752
 20
10.2333637609
 30
0.0
 10
9.2623745606
 20
10.2266460355
 30
0.0
 10
9.2829550906
 20
10.2171901473
 30
0.0
 10
9.3108211522
 20
10.2060214081
 30
0.0
 10
9.3316706391
 20
10.1984963041
 30
0.0
 10
9.3525587659
 20
10.1918073775
 30
0.0
 10
9.3734683303
 20
10.1859768884
 30
0.0
 10
9.3943790361
 20
10.1810124732
 30
0.0
 10
9.4152720908
 20
10.1769166892
 30
0.0
 10
9.4361281713
 20
10.1736768228
 30
0.0
 10
9.4569303914
 20
10.1712744863
 30
0.0
 10
9.4776636104
 20
10.1696802936
 30
0.0
 10
9.4983153544
 20
10.1688594281
 30
0.0
 10
9.5188765037
 20
10.1687716626
 30
0.0
 10
9.5461133468
 20
10.1695724162
 30
0.0
 10
9.5664635918
 20
10.1711410008
 30
0.0
 10
9.5799629252
 20
10.1725593386
 30
0.0
  0
SPLINE
  5
397
100
AcDbEntity
  8
0
100
AcDbSpline
 62
7
  6
CONTINUOUS
 70
0
 71
3
 72
9
 73
5
 74
0
 42
0.0000001
 43
0.0000001
 44
0.0000000001
 40
0.0
 40
0.0
 40
0.0
 40
0.0
 40
0.4802028106
 40
1.0
 40
1.0
 40
1.0
 40
1.0
 10
9.151828159
 20
10.6779883645
 30
0.0
 10
9.1539195819
 20
10.6755420294
 30
0.0
 10
9.1585484015
 20
10.6706784397
 30
0.0
 10
9.1635818711
 20
10.6662412169
 30
0.0
 10
9.1662762071
 20
10.6640326455
 30
0.0
  0
SPLINE
  5
398
100
AcDbEntity
  8
0
100
AcDbSpline
 62
7
  6
CONTINUOUS
 70
0
 71
3
 72
23
 73
19
 74
0
 42
0.0000001
 43
0.0000001
 44
0.0000000001
 40
0.0
 40
0.0
 40
0.0
 40
0.0
 40
0.0584073816
 40
0.1170342823
 40
0.175946792
 40
0.235225456
 40
0.2949566682
 40
0.3552310086
 40
0.416138202
 40
0.4777588108
 40
0.540158822
 40
0.6033849084
 40
0.6674605222
 40
0.7323867869
 40
0.7981446078
 40
0.8646981496
 40
0.9320021535
 40
1.0
 40
1.0
 40
1.0
 40
1.0
 10
9.1662762071
 20
10.6640326455
 30
0.0
 10
9.1747232399
 20
10.664920152
 30
0.0
 10
9.1916816925
 20
10.6664049687
 30
0.0
 10
9.2172427462
 20
10.6676701066
 30
0.0
 10
9.2429622936
 20
10.6678877313
 30
0.0
 10
9.2688280821
 20
10.666970055
 30
0.0
 10
9.2948217832
 20
10.6648370314
 30
0.0
 10
9.3209178462
 20
10.6614216414
 30
0.0
 10
9.347084267
 20
10.6566732723
 30
0.0
 10
9.373284481
 20
10.6505648801
 30
0.0
 10
9.3994799754
 20
10.643095286
 30
0.0
 10
9.4256324618
 20
10.634287229
 30
0.0
 10
9.4517070785
 20
10.6241876061
 30
0.0
 10
9.4776746163
 20
10.6128634859
 30
0.0
 10
9.5035117119
 20
10.6003946115
 30
0.0
 10
9.5292021632
 20
10.58686956
 30
0.0
 10
9.5547357243
 20
10.572381096
 30
0.0
 10
9.5715691328
 20
10.5621896337
 30
0.0
 10
9.5799629252
 20
10.5569627799
 30
0.0
  0
SPLINE
  5
399
100
AcDbEntity
  8
0
100
AcDbSpline
 62
7
  6
CONTINUOUS
 70
0
 71
3
 72
9
 73
5
 74
0
 42
0.0000001
 43
0.0000001
 44
0.0000000001
 40
0.0
 40
0.0
 40
0.0
 40
0.0
 40
0.5151645244
 40
1.0
 40
1.0
 40
1.0
 40
1.0
 10
9.2792428682
 20
10.8241596741
 30
0.0
 10
9.2759057215
 20
10.8225111634
 30
0.0
 10
9.2694869764
 20
10.8191895829
 30
0.0
 10
9.2632173068
 20
10.8155928499
 30
0.0
 10
9.2602238626
 20
10.8137734574
 30
0.0
  0
SPLINE
  5
39A
100
AcDbEntity
  8
0
100
AcDbSpline
 62
7
  6
CONTINUOUS
 70
0
 71
3
 72
55
 73
51
 74
0
 42
0.0000001
 43
0.0000001
 44
0.0000000001
 40
0.0
 40
0.0
 40
0.0
 40
0.0
 40
0.0126039668
 40
0.0246626451
 40
0.0361845815
 40
0.0471813629
 40
0.0576675083
 40
0.0676611077
 40
0.0771851246
 40
0.0862675479
 40
0.0949416347
 40
0.1032466857
 40
0.1112290233
 40
0.118941678
 40
0.1264439865
 40
0.1338010228
 40
0.1410823646
 40
0.1483598643
 40
0.1557054861
 40
0.1631891608
 40
0.1708765213
 40
0.1788275498
 40
0.1870959619
 40
0.195728829
 40
0.2047661593
 40
0.2142418107
 40
0.2241843014
 40
0.2346171506
 40
0.2455588974
 40
0.2570244016
 40
0.2690255426
 40
0.281571226
 40
0.294667253
 40
0.3083174627
 40
0.337285222
 40
0.3684733057
 40
0.4018562187
 40
0.4373894698
 40
0.4750146658
 40
0.514659581
 40
0.5562421653
 40
0.5996694007
 40
0.6448409651
 40
0.6916481552
 40
0.7399765684
 40
0.7897029257
 40
0.8407002665
 40
0.8928422091
 40
0.9459958947
 40
1.0
 40
1.0
 40
1.0
 40
1.0
 10
9.2602238626
 20
10.8137734574
 30
0.0
 10
9.2583269037
 20
10.8126205003
 30
0.0
 10
9.2546509345
 20
10.8103045924
 30
0.0
 10
9.2493829599
 20
10.8067155321
 30
0.0
 10
9.2444870343
 20
10.8030909337
 30
0.0
 10
9.2399664826
 20
10.7994333937
 30
0.0
 10
9.2358244518
 20
10.7957453052
 30
0.0
 10
9.232064115
 20
10.792028834
 30
0.0
 10
9.2286880832
 20
10.7882864135
 30
0.0
 10
9.2256986855
 20
10.7845204309
 30
0.0
 10
9.2230983211
 20
10.7807331289
 30
0.0
 10
9.2208896232
 20
10.7769266126
 30
0.0
 10
9.2190746058
 20
10.7731034177
 30
0.0
 10
9.2176551712
 20
10.7692661927
 30
0.0
 10
9.2166333413
 20
10.7654178009
 30
0.0
 10
9.2160112051
 20
10.7615614921
 30
0.0
 10
9.2157895492
 20
10.7577010691
 30
0.0
 10
9.2159686067
 20
10.7538404384
 30
0.0
 10
9.2165481768
 20
10.7499835072
 30
0.0
 10
9.2175275988
 20
10.7461341102
 30
0.0
 10
9.2189048564
 20
10.7422955579
 30
0.0
 10
9.2206779087
 20
10.7384707467
 30
0.0
 10
9.2228448303
 20
10.7346623291
 30
0.0
 10
9.2254036777
 20
10.7308728834
 30
0.0
 10
9.2283518283
 20
10.727104528
 30
0.0
 10
9.2316868649
 20
10.7233594938
 30
0.0
 10
9.2354064519
 20
10.719640138
 30
0.0
 10
9.2395080505
 20
10.7159489322
 30
0.0
 10
9.2439885102
 20
10.7122880285
 30
0.0
 10
9.2488446676
 20
10.7086598186
 30
0.0
 10
9.2540732868
 20
10.7050668242
 30
0.0
 10
9.2596707972
 20
10.701511612
 30
0.0
 10
9.265633108
 20
10.6979963703
 30
0.0
 10
9.2742350131
 20
10.6932721393
 30
0.0
 10
9.2858922785
 20
10.6875055725
 30
0.0
 10
9.3009962167
 20
10.6809142322
 30
0.0
 10
9.3174391807
 20
10.6745399577
 30
0.0
 10
9.3351746729
 20
10.6684003677
 30
0.0
 10
9.3541531146
 20
10.6625135953
 30
0.0
 10
9.3743207926
 20
10.6568960165
 30
0.0
 10
9.3956206072
 20
10.6515644035
 30
0.0
 10
9.4179919703
 20
10.6465335511
 30
0.0
 10
9.4413712672
 20
10.6418185444
 30
0.0
 10
9.4656919598
 20
10.6374324137
 30
0.0
 10
9.4908845483
 20
10.6333884498
 30
0.0
 10
9.5168767807
 20
10.6296976778
 30
0.0
 10
9.5435950118
 20
10.6263712009
 30
0.0
 10
9.5709642399
 20
10.6234181276
 30
0.0
 10
9.5989037702
 20
10.6208477638
 30
0.0
 10
9.617722314
 20
10.6194039471
 30
0.0
 10
9.6272109237
 20
10.6187459098
 30
0.0
  0
SPLINE
  5
39B
100
AcDbEntity
  8
0
100
AcDbSpline
 62
7
  6
CONTINUOUS
 70
0
 71
3
 72
56
 73
52
 74
0
 42
0.0000001
 43
0.0000001
 44
0.0000000001
 40
0.0
 40
0.0
 40
0.0
 40
0.0
 40
0.0460140365
 40
0.0926138763
 40
0.1395821546
 40
0.1867221822
 40
0.2338288136
 40
0.280695969
 40
0.3271205498
 40
0.3729016883
 40
0.4178419215
 40
0.4617486806
 40
0.5044357275
 40
0.5457237503
 40
0.5854421779
 40
0.623430808
 40
0.6595404895
 40
0.6936358272
 40
0.7098908177
 40
0.7255987191
 40
0.7407472814
 40
0.7553261698
 40
0.7693260262
 40
0.7827391099
 40
0.795560201
 40
0.8077857039
 40
0.8194143239
 40
0.8304482927
 40
0.8408926824
 40
0.8507562508
 40
0.8600531092
 40
0.8688025169
 40
0.8770301158
 40
0.8847700999
 40
0.8920656216
 40
0.8989701892
 40
0.9055493464
 40
0.9118801083
 40
0.9180498998
 40
0.9241540552
 40
0.93029114
 40
0.9365581198
 40
0.9430454648
 40
0.9498338051
 40
0.9533640988
 40
0.9569946791
 40
0.964581397
 40
0.9726423977
 40
0.9812148065
 40
0.9903269582
 40
1.0
 40
1.0
 40
1.0
 40
1.0
 10
9.6272109237
 20
10.6187459098
 30
0.0
 10
9.6395088111
 20
10.6178930484
 30
0.0
 10
9.6642780165
 20
10.6164114346
 30
0.0
 10
9.7016426233
 20
10.6148603865
 30
0.0
 10
9.739330687
 20
10.61397169
 30
0.0
 10
9.777164284
 20
10.6137493272
 30
0.0
 10
9.8149688416
 20
10.6141940928
 30
0.0
 10
9.8525679898
 20
10.615304125
 30
0.0
 10
9.8897863992
 20
10.6170742558
 30
0.0
 10
9.9264508455
 20
10.6194959019
 30
0.0
 10
9.9623905662
 20
10.6225578235
 30
0.0
 10
9.9974382285
 20
10.6262456722
 30
0.0
 10
10.0314307362
 20
10.6305418005
 30
0.0
 10
10.0642099502
 20
10.6354261503
 30
0.0
 10
10.0956234846
 20
10.6408756853
 30
0.0
 10
10.1255256297
 20
10.6468643796
 30
0.0
 10
10.1537773846
 20
10.6533642775
 30
0.0
 10
10.1761797657
 20
10.6592712354
 30
0.0
 10
10.1931636013
 20
10.6642490515
 30
0.0
 10
10.2052059117
 20
10.668031214
 30
0.0
 10
10.2167422376
 20
10.6719174346
 30
0.0
 10
10.2277593483
 20
10.6759029145
 30
0.0
 10
10.2382444634
 20
10.6799830995
 30
0.0
 10
10.248185383
 20
10.684153485
 30
0.0
 10
10.2575708166
 20
10.6884088935
 30
0.0
 10
10.2663899793
 20
10.6927444869
 30
0.0
 10
10.2746326348
 20
10.6971556034
 30
0.0
 10
10.2822896178
 20
10.7016368722
 30
0.0
 10
10.28935229
 20
10.7061833206
 30
0.0
 10
10.2958124599
 20
10.7107903491
 30
0.0
 10
10.3016631656
 20
10.7154526813
 30
0.0
 10
10.3068979095
 20
10.7201655628
 30
0.0
 10
10.3115102978
 20
10.7249248483
 30
0.0
 10
10.3154951381
 20
10.7297258025
 30
0.0
 10
10.3188472722
 20
10.7345642257
 30
0.0
 10
10.3215607678
 20
10.7394362759
 30
0.0
 10
10.3236306358
 20
10.7443369167
 30
0.0
 10
10.3250516517
 20
10.7492604315
 30
0.0
 10
10.3258181579
 20
10.7541996388
 30
0.0
 10
10.3259276126
 20
10.7591453236
 30
0.0
 10
10.3253797966
 20
10.764087755
 30
0.0
 10
10.3241761574
 20
10.7690174448
 30
0.0
 10
10.3223218096
 20
10.773926228
 30
0.0
 10
10.3202657026
 20
10.7779419749
 30
0.0
 10
10.3183174621
 20
10.7811323806
 30
0.0
 10
10.3160982769
 20
10.7844028925
 30
0.0
 10
10.3129070495
 20
10.7884726257
 30
0.0
 10
10.3085032452
 20
10.7932460999
 30
0.0
 10
10.3034750033
 20
10.7979749982
 30
0.0
 10
10.2978288224
 20
10.802654549
 30
0.0
 10
10.293779683
 20
10.8056477339
 30
0.0
 10
10.2916594593
 20
10.8071378127
 30
0.0
  0
SPLINE
  5
39C
100
AcDbEntity
  8
0
100
AcDbSpline
 62
7
  6
CONTINUOUS
 70
0
 71
3
 72
11
 73
7
 74
0
 42
0.0000001
 43
0.0000001
 44
0.0000000001
 40
0.0
 40
0.0
 40
0.0
 40
0.0
 40
0.2310152257
 40
0.4746103058
 40
0.7309143418
 40
1.0
 40
1.0
 40
1.0
 40
1.0
 10
10.2916594593
 20
10.8071378127
 30
0.0
 10
10.2895285932
 20
10.808635371
 30
0.0
 10
10.2850761554
 20
10.8116067674
 30
0.0
 10
10.2780337756
 20
10.8158895147
 30
0.0
 10
10.2704593564
 20
10.8201110595
 30
0.0
 10
10.265188315
 20
10.822815806
 30
0.0
 10
10.2624684039
 20
10.8241594163
 30
0.0
  0
SPLINE
  5
39D
100
AcDbEntity
  8
0
100
AcDbSpline
 62
7
  6
CONTINUOUS
 70
0
 71
3
 72
9
 73
5
 74
0
 42
0.0000001
 43
0.0000001
 44
0.0000000001
 40
0.0
 40
0.0
 40
0.0
 40
0.0
 40
0.4783776653
 40
1.0
 40
1.0
 40
1.0
 40
1.0
 10
9.3367584286
 20
9.2315758554
 30
0.0
 10
9.3389547212
 20
9.2296166829
 30
0.0
 10
9.3437443102
 20
9.2257413813
 30
0.0
 10
9.3488162982
 20
9.2222495846
 30
0.0
 10
9.3515151751
 20
9.2205132139
 30
0.0
  0
SPLINE
  5
39E
100
AcDbEntity
  8
0
100
AcDbSpline
 62
7
  6
CONTINUOUS
 70
0
 71
3
 72
23
 73
19
 74
0
 42
0.0000001
 43
0.0000001
 44
0.0000000001
 40
0.0
 40
0.0
 40
0.0
 40
0.0
 40
0.0389207046
 40
0.0814255686
 40
0.1275152005
 40
0.1771498773
 40
0.2302524773
 40
0.2867201288
 40
0.3464240776
 40
0.4092167948
 40
0.4749318021
 40
0.5433882711
 40
0.6143919456
 40
0.6877337187
 40
0.7631937098
 40
0.8405519861
 40
0.9195799858
 40
1.0
 40
1.0
 40
1.0
 40
1.0
 10
9.3515151751
 20
9.2205132139
 30
0.0
 10
9.3549264146
 20
9.2183185322
 30
0.0
 10
9.3622456056
 20
9.2140079259
 30
0.0
 10
9.3741032927
 20
9.2079929541
 30
0.0
 10
9.3872836666
 20
9.202163504
 30
0.0
 10
9.4017437284
 20
9.1965400386
 30
0.0
 10
9.4174365918
 20
9.1911403301
 30
0.0
 10
9.4343107383
 20
9.1859832077
 30
0.0
 10
9.4523103584
 20
9.1810855853
 30
0.0
 10
9.4713757012
 20
9.1764643878
 30
0.0
 10
9.4914433024
 20
9.1721350488
 30
0.0
 10
9.5124463236
 20
9.1681122871
 30
0.0
 10
9.5343145772
 20
9.1644098577
 30
0.0
 10
9.5569745983
 20
9.1610400787
 30
0.0
 10
9.5803509686
 20
9.1580145026
 30
0.0
 10
9.6043667343
 20
9.1553430752
 30
0.0
 10
9.6289392964
 20
9.153035531
 30
0.0
 10
9.6455081031
 20
9.1517543226
 30
0.0
 10
9.6538692634
 20
9.1511744741
 30
0.0
  0
SPLINE
  5
39F
100
AcDbEntity
  8
0
100
AcDbSpline
 62
7
  6
CONTINUOUS
 70
0
 71
3
 72
21
 73
17
 74
0
 42
0.0000001
 43
0.0000001
 44
0.0000000001
 40
0.0
 40
0.0
 40
0.0
 40
0.0
 40
0.1269266306
 40
0.1902356571
 40
0.2534226618
 40
0.3164750211
 40
0.379381614
 40
0.442133702
 40
0.5047247465
 40
0.5671521045
 40
0.6294167402
 40
0.6915228504
 40
0.7534784743
 40
0.8152934295
 40
0.8769787052
 40
1.0
 40
1.0
 40
1.0
 40
1.0
 10
9.6338837338
 20
10.5532233591
 30
0.0
 10
9.6568913168
 20
10.5609477742
 30
0.0
 10
9.6916517223
 20
10.5717355726
 30
0.0
 10
9.738495643
 20
10.58415513
 30
0.0
 10
9.7737998296
 20
10.5923808237
 30
0.0
 10
9.8092779649
 20
10.5994385419
 30
0.0
 10
9.844897574
 20
10.6052527877
 30
0.0
 10
9.8806175097
 20
10.6097617424
 30
0.0
 10
9.9163900317
 20
10.6129250325
 30
0.0
 10
9.9521636492
 20
10.6147270353
 30
0.0
 10
9.9878868565
 20
10.6151759346
 30
0.0
 10
10.0235115733
 20
10.6143052023
 30
0.0
 10
10.0589960119
 20
10.6121707988
 30
0.0
 10
10.0943073163
 20
10.6088435888
 30
0.0
 10
10.1410785257
 20
10.6029334468
 30
0.0
 10
10.1759109631
 20
10.5969610444
 30
0.0
 10
10.1989901414
 20
10.5924136909
 30
0.0
  0
SPLINE
  5
3A0
100
AcDbEntity
  8
0
100
AcDbSpline
 62
7
  6
CONTINUOUS
 70
0
 71
3
 72
21
 73
17
 74
0
 42
0.0000001
 43
0.0000001
 44
0.0000000001
 40
0.0
 40
0.0
 40
0.0
 40
0.0
 40
0.1230212948
 40
0.1847065705
 40
0.2465215258
 40
0.3084771496
 40
0.3705832599
 40
0.4328478955
 40
0.4952752535
 40
0.5578662981
 40
0.6206183861
 40
0.683524979
 40
0.7465773382
 40
0.8097643429
 40
0.8730733694
 40
1.0
 40
1.0
 40
1.0
 40
1.0
 10
9.6338837338
 20
10.1688199178
 30
0.0
 10
9.6569629122
 20
10.1642725643
 30
0.0
 10
9.6917953496
 20
10.1583001619
 30
0.0
 10
9.738566559
 20
10.1523900199
 30
0.0
 10
9.7738778634
 20
10.1490628099
 30
0.0
 10
9.809362302
 20
10.1469284064
 30
0.0
 10
9.8449870189
 20
10.1460576741
 30
0.0
 10
9.8807102261
 20
10.1465065734
 30
0.0
 10
9.9164838436
 20
10.1483085762
 30
0.0
 10
9.9522563656
 20
10.1514718663
 30
0.0
 10
9.9879763013
 20
10.155980821
 30
0.0
 10
10.0235959104
 20
10.1617950668
 30
0.0
 10
10.0590740457
 20
10.168852785
 30
0.0
 10
10.0943782323
 20
10.1770784787
 30
0.0
 10
10.141222153
 20
10.1894980361
 30
0.0
 10
10.1759825585
 20
10.2002858345
 30
0.0
 10
10.1989901414
 20
10.2080102496
 30
0.0
  0
SPLINE
  5
3A1
100
AcDbEntity
  8
0
100
AcDbSpline
 62
7
  6
CONTINUOUS
 70
0
 71
3
 72
24
 73
20
 74
0
 42
0.0000001
 43
0.0000001
 44
0.0000000001
 40
0.0
 40
0.0
 40
0.0
 40
0.0
 40
0.0904093868
 40
0.1775325331
 40
0.2610553835
 40
0.3406844661
 40
0.41616279
 40
0.4872998029
 40
0.521207684
 40
0.5540039824
 40
0.6162843266
 40
0.6743126111
 40
0.7283969377
 40
0.7789824074
 40
0.826623815
 40
0.8719379797
 40
0.9155549124
 40
0.9580698186
 40
1.0
 40
1.0
 40
1.0
 40
1.0
 10
10.2384629019
 20
10.6026299892
 30
0.0
 10
10.2414984303
 20
10.6085798733
 30
0.0
 10
10.2475724022
 20
10.6202061969
 30
0.0
 10
10.2568978863
 20
10.6370909683
 30
0.0
 10
10.2662781515
 20
10.6530285685
 30
0.0
 10
10.2757101648
 20
10.6679278561
 30
0.0
 10
10.2851890283
 20
10.6817009084
 30
0.0
 10
10.29324487
 20
10.6923379146
 30
0.0
 10
10.2997217649
 20
10.7001983326
 30
0.0
 10
10.3059943201
 20
10.7073736445
 30
0.0
 10
10.3138335094
 20
10.7155409573
 30
0.0
 10
10.3234200191
 20
10.7241686687
 30
0.0
 10
10.3330087217
 20
10.7314435772
 30
0.0
 10
10.3425875313
 20
10.7373834441
 30
0.0
 10
10.3521430909
 20
10.7420285286
 30
0.0
 10
10.3616616791
 20
10.7454370178
 30
0.0
 10
10.3711301529
 20
10.7476832361
 30
0.0
 10
10.3805362437
 20
10.7488535194
 30
0.0
 10
10.3867860038
 20
10.7489776036
 30
0.0
 10
10.3898825915
 20
10.7488901866
 30
0.0
  0
SPLINE
  5
3A2
100
AcDbEntity
  8
0
100
AcDbSpline
 62
7
  6
CONTINUOUS
 70
0
 71
3
 72
15
 73
11
 74
0
 42
0.0000001
 43
0.0000001
 44
0.0000000001
 40
0.0
 40
0.0
 40
0.0
 40
0.0
 40
0.1193884442
 40
0.2394118209
 40
0.3604965246
 40
0.4831212753
 40
0.6078106285
 40
0.735130254
 40
0.8656619472
 40
1.0
 40
1.0
 40
1.0
 40
1.0
 10
10.2384629019
 20
10.2182265478
 30
0.0
 10
10.2402326576
 20
10.2181765875
 30
0.0
 10
10.2437851845
 20
10.2181737559
 30
0.0
 10
10.2491254768
 20
10.2184769875
 30
0.0
 10
10.2544861704
 20
10.2191045311
 30
0.0
 10
10.2598663386
 20
10.2200731047
 30
0.0
 10
10.2652651584
 20
10.22139912
 30
0.0
 10
10.2706813281
 20
10.2230990426
 30
0.0
 10
10.2761132878
 20
10.225187346
 30
0.0
 10
10.2796879244
 20
10.2268222117
 30
0.0
 10
10.2814741934
 20
10.2277042113
 30
0.0
  0
SPLINE
  5
3A3
100
AcDbEntity
  8
0
100
AcDbSpline
 62
7
  6
CONTINUOUS
 70
0
 71
3
 72
11
 73
7
 74
0
 42
0.0000001
 43
0.0000001
 44
0.0000000001
 40
0.0
 40
0.0
 40
0.0
 40
0.0
 40
0.246379236
 40
0.496087256
 40
0.747724897
 40
1.0
 40
1.0
 40
1.0
 40
1.0
 10
9.6538692634
 20
9.1511744741
 30
0.0
 10
9.6649447278
 20
9.1504063881
 30
0.0
 10
9.6872621393
 20
9.1490938361
 30
0.0
 10
9.7209322782
 20
9.147792591
 30
0.0
 10
9.7548871261
 20
9.1471505332
 30
0.0
 10
9.7775955719
 20
9.1471643009
 30
0.0
 10
9.7889626993
 20
9.1472822139
 30
0.0
  0
SPLINE
  5
3A4
100
AcDbEntity
  8
0
100
AcDbSpline
 62
7
  6
CONTINUOUS
 70
0
 71
3
 72
29
 73
25
 74
0
 42
0.0000001
 43
0.0000001
 44
0.0000000001
 40
0.0
 40
0.0
 40
0.0
 40
0.0
 40
0.070984318
 40
0.1429825523
 40
0.2155057028
 40
0.2880809331
 40
0.3602234383
 40
0.4314560192
 40
0.5013085085
 40
0.5693229079
 40
0.6350576048
 40
0.6980916372
 40
0.728471958
 40
0.7580314442
 40
0.7867250902
 40
0.8145108681
 40
0.8413490867
 40
0.8672023195
 40
0.8920371672
 40
0.9158224349
 40
0.9385315725
 40
0.9601419631
 40
0.9806353258
 40
1.0
 40
1.0
 40
1.0
 40
1.0
 10
11.8463515937
 20
10.7622713221
 30
0.0
 10
11.8311334653
 20
10.7633267029
 30
0.0
 10
11.8004538372
 20
10.7650928714
 30
0.0
 10
11.7541661343
 20
10.7667176762
 30
0.0
 10
11.7075118687
 20
10.7673301733
 30
0.0
 10
11.6608244038
 20
10.7669265465
 30
0.0
 10
11.6144340983
 20
10.7655093012
 30
0.0
 10
11.5686710966
 20
10.7630887954
 30
0.0
 10
11.5238603315
 20
10.7596824868
 30
0.0
 10
11.4803198742
 20
10.7553150746
 30
0.0
 10
11.4383590324
 20
10.7500180225
 30
0.0
 10
11.4045526715
 20
10.7447994165
 30
0.0
 10
11.3785334328
 20
10.7401676875
 30
0.0
 10
11.3598356514
 20
10.7365297587
 30
0.0
 10
11.3417475677
 20
10.7326913035
 30
0.0
 10
11.3243012536
 20
10.7286592966
 30
0.0
 10
11.307527642
 20
10.7244411016
 30
0.0
 10
11.2914565095
 20
10.7200438496
 30
0.0
 10
11.276116239
 20
10.7154759581
 30
0.0
 10
11.2615339963
 20
10.7107450948
 30
0.0
 10
11.2477354936
 20
10.7058599633
 30
0.0
 10
11.2347448699
 20
10.7008293327
 30
0.0
 10
11.2225852913
 20
10.695661804
 30
0.0
 10
11.2148257315
 20
10.6920284161
 30
0.0
 10
11.2110946352
 20
10.690185299
 30
0.0
  0
SPLINE
  5
3A5
100
AcDbEntity
  8
0
100
AcDbSpline
 62
7
  6
CONTINUOUS
 70
0
 71
3
 72
9
 73
5
 74
0
 42
0.0000001
 43
0.0000001
 44
0.0000000001
 40
0.0
 40
0.0
 40
0.0
 40
0.0
 40
0.5197971894
 40
1.0
 40
1.0
 40
1.0
 40
1.0
 10
11.0981279742
 20
10.1456548291
 30
0.0
 10
11.0954336382
 20
10.1478634005
 30
0.0
 10
11.0904001686
 20
10.1523006233
 30
0.0
 10
11.0857713489
 20
10.157164213
 30
0.0
 10
11.083679926
 20
10.1596105481
 30
0.0
  0
SPLINE
  5
3A6
100
AcDbEntity
  8
0
100
AcDbSpline
 62
7
  6
CONTINUOUS
 70
0
 71
3
 72
9
 73
5
 74
0
 42
0.0000001
 43
0.0000001
 44
0.0000000001
 40
0.0
 40
0.0
 40
0.0
 40
0.0
 40
0.4802028106
 40
1.0
 40
1.0
 40
1.0
 40
1.0
 10
12.3217343585
 20
10.6149158115
 30
0.0
 10
12.3196429356
 20
10.6173621466
 30
0.0
 10
12.3150141159
 20
10.6222257364
 30
0.0
 10
12.3099806463
 20
10.6266629591
 30
0.0
 10
12.3072863103
 20
10.6288715305
 30
0.0
  0
SPLINE
  5
3A7
100
AcDbEntity
  8
0
100
AcDbSpline
 62
7
  6
CONTINUOUS
 70
0
 71
3
 72
9
 73
5
 74
0
 42
0.0000001
 43
0.0000001
 44
0.0000000001
 40
0.0
 40
0.0
 40
0.0
 40
0.0
 40
0.5043782952
 40
1.0
 40
1.0
 40
1.0
 40
1.0
 10
11.0981279742
 20
10.1456548291
 30
0.0
 10
11.1116316999
 20
10.1372459959
 30
0.0
 10
11.138744488
 20
10.1211113779
 30
0.0
 10
11.1666172313
 20
10.1063142148
 30
0.0
 10
11.1806313423
 20
10.0993893858
 30
0.0
  0
SPLINE
  5
3A8
100
AcDbEntity
  8
0
100
AcDbSpline
 62
7
  6
CONTINUOUS
 70
0
 71
3
 72
9
 73
5
 74
0
 42
0.0000001
 43
0.0000001
 44
0.0000000001
 40
0.0
 40
0.0
 40
0.0
 40
0.0
 40
0.5043782952
 40
1.0
 40
1.0
 40
1.0
 40
1.0
 10
12.3072863103
 20
10.6288715305
 30
0.0
 10
12.2937825846
 20
10.6372803638
 30
0.0
 10
12.2666697965
 20
10.6534149818
 30
0.0
 10
12.2387970532
 20
10.6682121449
 30
0.0
 10
12.2247829422
 20
10.6751369738
 30
0.0
  0
SPLINE
  5
3A9
100
AcDbEntity
  8
0
100
AcDbSpline
 62
7
  6
CONTINUOUS
 70
0
 71
3
 72
11
 73
7
 74
0
 42
0.0000001
 43
0.0000001
 44
0.0000000001
 40
0.0
 40
0.0
 40
0.0
 40
0.0
 40
0.2463776306
 40
0.4961715004
 40
0.7478560968
 40
1.0
 40
1.0
 40
1.0
 40
1.0
 10
11.5898621317
 20
9.0057452819
 30
0.0
 10
11.6010832679
 20
9.0049670934
 30
0.0
 10
11.623699083
 20
9.0036489097
 30
0.0
 10
11.6578204323
 20
9.0023814428
 30
0.0
 10
11.692223873
 20
9.0018151488
 30
0.0
 10
11.7152272957
 20
9.0019073072
 30
0.0
 10
11.7267374617
 20
9.0020717194
 30
0.0
  0
SPLINE
  5
3AA
100
AcDbEntity
  8
0
100
AcDbSpline
 62
7
  6
CONTINUOUS
 70
0
 71
3
 72
23
 73
19
 74
0
 42
0.0000001
 43
0.0000001
 44
0.0000000001
 40
0.0
 40
0.0
 40
0.0
 40
0.0
 40
0.0436202716
 40
0.0892267831
 40
0.1370684894
 40
0.1873535484
 40
0.2402536978
 40
0.2958870825
 40
0.3543309839
 40
0.4156093066
 40
0.4797101
 40
0.5465786547
 40
0.6161344819
 40
0.6882693018
 40
0.7628605839
 40
0.8397743489
 40
0.9188692317
 40
1.0
 40
1.0
 40
1.0
 40
1.0
 10
12.2133259604
 20
10.0937298362
 30
0.0
 10
12.2156358937
 20
10.0948704036
 30
0.0
 10
12.2202730127
 20
10.0973854981
 30
0.0
 10
12.227100295
 20
10.1017465476
 30
0.0
 10
12.2339366767
 20
10.1067888324
 30
0.0
 10
12.2407782193
 20
10.1125197637
 30
0.0
 10
12.2476193104
 20
10.1189434144
 30
0.0
 10
12.2544568439
 20
10.1260549876
 30
0.0
 10
12.261285096
 20
10.1338458012
 30
0.0
 10
12.268101333
 20
10.1422992063
 30
0.0
 10
12.2749004946
 20
10.1513951156
 30
0.0
 10
12.2816803378
 20
10.1611075019
 30
0.0
 10
12.2884369977
 20
10.1714080551
 30
0.0
 10
12.2951688778
 20
10.1822650151
 30
0.0
 10
12.3018735879
 20
10.1936458753
 30
0.0
 10
12.3085502302
 20
10.205516965
 30
0.0
 10
12.3151977158
 20
10.217844812
 30
0.0
 10
12.3195568292
 20
10.2262442345
 30
0.0
 10
12.3217343585
 20
10.2305123702
 30
0.0
  0
SPLINE
  5
3AB
100
AcDbEntity
  8
0
100
AcDbSpline
 62
7
  6
CONTINUOUS
 70
0
 71
3
 72
23
 73
19
 74
0
 42
0.0000001
 43
0.0000001
 44
0.0000000001
 40
0.0
 40
0.0
 40
0.0
 40
0.0
 40
0.0430692708
 40
0.0891859059
 40
0.1383039462
 40
0.1903539308
 40
0.2452509344
 40
0.3028923159
 40
0.36316428
 40
0.4259386958
 40
0.4910792536
 40
0.558438617
 40
0.6278623889
 40
0.6991843849
 40
0.7722354743
 40
0.8468474017
 40
0.9228412057
 40
1.0
 40
1.0
 40
1.0
 40
1.0
 10
12.1943201709
 20
10.6901850413
 30
0.0
 10
12.1897224374
 20
10.692456278
 30
0.0
 10
12.1800797929
 20
10.6969151594
 30
0.0
 10
12.1648460205
 20
10.7031795243
 30
0.0
 10
12.1483832854
 20
10.7092332583
 30
0.0
 10
12.1307352837
 20
10.7150607069
 30
0.0
 10
12.1119481617
 20
10.7206456298
 30
0.0
 10
12.0920716216
 20
10.7259737142
 30
0.0
 10
12.071158233
 20
10.7310299558
 30
0.0
 10
12.0492635157
 20
10.735801438
 30
0.0
 10
12.0264455518
 20
10.7402746849
 30
0.0
 10
12.0027649285
 20
10.7444382881
 30
0.0
 10
11.9782848516
 20
10.7482803897
 30
0.0
 10
11.9530707776
 20
10.7517913407
 30
0.0
 10
11.927189175
 20
10.7549611972
 30
0.0
 10
11.9007077819
 20
10.7577819375
 30
0.0
 10
11.8736997049
 20
10.7602452206
 30
0.0
 10
11.8555166407
 20
10.761635724
 30
0.0
 10
11.8463515937
 20
10.7622713221
 30
0.0
  0
SPLINE
  5
3AC
100
AcDbEntity
  8
0
100
AcDbSpline
 62
7
  6
CONTINUOUS
 70
0
 71
3
 72
23
 73
19
 74
0
 42
0.0000001
 43
0.0000001
 44
0.0000000001
 40
0.0
 40
0.0
 40
0.0
 40
0.0
 40
0.0436202716
 40
0.0892267831
 40
0.1370684894
 40
0.1873535484
 40
0.2402536978
 40
0.2958870825
 40
0.3543309839
 40
0.4156093066
 40
0.4797101
 40
0.5465786547
 40
0.6161344819
 40
0.6882693018
 40
0.7628605839
 40
0.8397743489
 40
0.9188692317
 40
1.0
 40
1.0
 40
1.0
 40
1.0
 10
11.1920883241
 20
10.6807965234
 30
0.0
 10
11.1897783908
 20
10.679655956
 30
0.0
 10
11.1851412718
 20
10.6771408616
 30
0.0
 10
11.1783139895
 20
10.672779812
 30
0.0
 10
11.1714776078
 20
10.6677375273
 30
0.0
 10
11.1646360652
 20
10.6620065959
 30
0.0
 10
11.1577949741
 20
10.6555829452
 30
0.0
 10
11.1509574406
 20
10.6484713721
 30
0.0
 10
11.1441291885
 20
10.6406805584
 30
0.0
 10
11.1373129515
 20
10.6322271534
 30
0.0
 10
11.1305137899
 20
10.6231312441
 30
0.0
 10
11.1237339467
 20
10.6134188578
 30
0.0
 10
11.1169772868
 20
10.6031183045
 30
0.0
 10
11.1102454067
 20
10.5922613445
 30
0.0
 10
11.1035406966
 20
10.5808804844
 30
0.0
 10
11.0968640543
 20
10.5690093946
 30
0.0
 10
11.0902165687
 20
10.5566815476
 30
0.0
 10
11.0858574553
 20
10.5482821251
 30
0.0
 10
11.083679926
 20
10.5440139895
 30
0.0
  0
SPLINE
  5
3AD
100
AcDbEntity
  8
0
100
AcDbSpline
 62
7
  6
CONTINUOUS
 70
0
 71
3
 72
28
 73
24
 74
0
 42
0.0000001
 43
0.0000001
 44
0.0000000001
 40
0.0
 40
0.0
 40
0.0
 40
0.0
 40
0.0165871052
 40
0.0341535937
 40
0.0527305364
 40
0.0723390866
 40
0.0929936513
 40
0.1147033577
 40
0.1374709508
 40
0.1612944416
 40
0.1861689377
 40
0.2120857194
 40
0.2669901087
 40
0.3258847519
 40
0.3886041301
 40
0.4549539099
 40
0.5247129201
 40
0.5976380021
 40
0.6734672954
 40
0.7519163431
 40
0.8326946248
 40
0.9155068431
 40
1.0
 40
1.0
 40
1.0
 40
1.0
 10
11.2826498887
 20
9.0845090274
 30
0.0
 10
11.2839499186
 20
9.0832992099
 30
0.0
 10
11.2867072762
 20
9.0808937123
 30
0.0
 10
11.2911630702
 20
9.0774231241
 30
0.0
 10
11.2960503849
 20
9.0739923729
 30
0.0
 10
11.3013637937
 20
9.0706047094
 30
0.0
 10
11.3070979716
 20
9.0672634314
 30
0.0
 10
11.3132472183
 20
9.063972199
 30
0.0
 10
11.3198051207
 20
9.0607342259
 30
0.0
 10
11.3267648226
 20
9.0575527511
 30
0.0
 10
11.3341192436
 20
9.0544312042
 30
0.0
 10
11.3446449341
 20
9.0502733248
 30
0.0
 10
11.3587477799
 20
9.0452711581
 30
0.0
 10
11.3768007904
 20
9.0396670739
 30
0.0
 10
11.3962203524
 20
9.0343748256
 30
0.0
 10
11.4169254129
 20
9.0294172176
 30
0.0
 10
11.4388297999
 20
9.0248153231
 30
0.0
 10
11.461841992
 20
9.0205885233
 30
0.0
 10
11.4858653861
 20
9.0167552935
 30
0.0
 10
11.510799274
 20
9.0133313636
 30
0.0
 10
11.5365404316
 20
9.0103315177
 30
0.0
 10
11.5629787923
 20
9.007768953
 30
0.0
 10
11.5808376604
 20
9.0063711311
 30
0.0
 10
11.5898621317
 20
9.0057452819
 30
0.0
  0
SPLINE
  5
3AE
100
AcDbEntity
  8
0
100
AcDbSpline
 62
7
  6
CONTINUOUS
 70
0
 71
3
 72
29
 73
25
 74
0
 42
0.0000001
 43
0.0000001
 44
0.0000000001
 40
0.0
 40
0.0
 40
0.0
 40
0.0
 40
0.0709839827
 40
0.1429818596
 40
0.2155046776
 40
0.2880795928
 40
0.3602217728
 40
0.4314540888
 40
0.5013064077
 40
0.5693206708
 40
0.6350552793
 40
0.698089349
 40
0.7284697338
 40
0.7580293054
 40
0.7867230494
 40
0.8145089399
 40
0.8413472991
 40
0.8672007086
 40
0.8920357659
 40
0.9158212707
 40
0.9385306691
 40
0.9601413418
 40
0.9806350048
 40
1.0
 40
1.0
 40
1.0
 40
1.0
 10
11.5634626109
 20
10.0070245156
 30
0.0
 10
11.5782144253
 20
10.0060014738
 30
0.0
 10
11.6079539641
 20
10.0042894205
 30
0.0
 10
11.6528233166
 20
10.0027143849
 30
0.0
 10
11.6980480056
 20
10.0021206281
 30
0.0
 10
11.7433048841
 20
10.002511846
 30
0.0
 10
11.7882737228
 20
10.0038856135
 30
0.0
 10
11.8326345088
 20
10.006231888
 30
0.0
 10
11.8760722741
 20
10.0095337511
 30
0.0
 10
11.9182786909
 20
10.0137672563
 30
0.0
 10
11.9589539347
 20
10.0189019102
 30
0.0
 10
11.9917245742
 20
10.0239605272
 30
0.0
 10
12.0169467052
 20
10.0284502655
 30
0.0
 10
12.0350716997
 20
10.0319766728
 30
0.0
 10
12.0526056884
 20
10.0356974596
 30
0.0
 10
12.0695175833
 20
10.0396058667
 30
0.0
 10
12.0857774045
 20
10.0436947569
 30
0.0
 10
12.1013562918
 20
10.047957218
 30
0.0
 10
12.1162267321
 20
10.052385091
 30
0.0
 10
12.1303623897
 20
10.0569709434
 30
0.0
 10
12.1437383383
 20
10.0617063382
 30
0.0
 10
12.1563311778
 20
10.0665827735
 30
0.0
 10
12.1681184519
 20
10.0715919131
 30
0.0
 10
12.175640445
 20
10.0751139329
 30
0.0
 10
12.1792573172
 20
10.0769005564
 30
0.0
  0
SPLINE
  5
3AF
100
AcDbEntity
  8
0
100
AcDbSpline
 62
7
  6
CONTINUOUS
 70
0
 71
3
 72
23
 73
19
 74
0
 42
0.0000001
 43
0.0000001
 44
0.0000000001
 40
0.0
 40
0.0
 40
0.0
 40
0.0
 40
0.0771582859
 40
0.1531516138
 40
0.2277631003
 40
0.3008138096
 40
0.3721355099
 40
0.4415590541
 40
0.5089182344
 40
0.5740586726
 40
0.6368330664
 40
0.6971051206
 40
0.7547467082
 40
0.809644014
 40
0.8616943682
 40
0.9108128577
 40
0.9569300549
 40
1.0
 40
1.0
 40
1.0
 40
1.0
 10
11.5634626109
 20
10.0070245156
 30
0.0
 10
11.554578473
 20
10.0076406326
 30
0.0
 10
11.5369527173
 20
10.0089885148
 30
0.0
 10
11.5107724292
 20
10.0113762873
 30
0.0
 10
11.4851026693
 20
10.0141105538
 30
0.0
 10
11.460014298
 20
10.0171832304
 30
0.0
 10
11.4355729735
 20
10.0205865419
 30
0.0
 10
11.4118431287
 20
10.0243108479
 30
0.0
 10
11.3888882164
 20
10.0283467955
 30
0.0
 10
11.366769502
 20
10.0326828917
 30
0.0
 10
11.3455457073
 20
10.0373080777
 30
0.0
 10
11.3252731286
 20
10.0422092933
 30
0.0
 10
11.3060055837
 20
10.0473740195
 30
0.0
 10
11.2877940351
 20
10.052787709
 30
0.0
 10
11.2706866648
 20
10.0584364872
 30
0.0
 10
11.2547282026
 20
10.064304615
 30
0.0
 10
11.2399609979
 20
10.0703769177
 30
0.0
 10
11.230613648
 20
10.0746990879
 30
0.0
 10
11.2261567005
 20
10.0769006883
 30
0.0
  0
SPLINE
  5
3B0
100
AcDbEntity
  8
0
100
AcDbSpline
 62
7
  6
CONTINUOUS
 70
0
 71
3
 72
21
 73
17
 74
0
 42
0.0000001
 43
0.0000001
 44
0.0000000001
 40
0.0
 40
0.0
 40
0.0
 40
0.0
 40
0.1331620508
 40
0.198721389
 40
0.2635863969
 40
0.3277657689
 40
0.3912790145
 40
0.4541586317
 40
0.5164459921
 40
0.5781920281
 40
0.6394524084
 40
0.7002861096
 40
0.7607522371
 40
0.8209070106
 40
0.8808048208
 40
1.0
 40
1.0
 40
1.0
 40
1.0
 10
11.1806313423
 20
10.0993893858
 30
0.0
 10
11.1942263276
 20
10.0926716604
 30
0.0
 10
11.2148068577
 20
10.0832157722
 30
0.0
 10
11.2426729192
 20
10.072047033
 30
0.0
 10
11.2635224062
 20
10.064521929
 30
0.0
 10
11.2844105329
 20
10.0578330024
 30
0.0
 10
11.3053200973
 20
10.0520025133
 30
0.0
 10
11.3262308032
 20
10.0470380981
 30
0.0
 10
11.3471238578
 20
10.0429423141
 30
0.0
 10
11.3679799384
 20
10.0397024477
 30
0.0
 10
11.3887821584
 20
10.0373001112
 30
0.0
 10
11.4095153775
 20
10.0357059185
 30
0.0
 10
11.4301671215
 20
10.034885053
 30
0.0
 10
11.4507282707
 20
10.0347972875
 30
0.0
 10
11.4779651139
 20
10.0355980412
 30
0.0
 10
11.4983153589
 20
10.0371666257
 30
0.0
 10
11.5118146922
 20
10.0385849635
 30
0.0
  0
SPLINE
  5
3B1
100
AcDbEntity
  8
0
100
AcDbSpline
 62
7
  6
CONTINUOUS
 70
0
 71
3
 72
9
 73
5
 74
0
 42
0.0000001
 43
0.0000001
 44
0.0000000001
 40
0.0
 40
0.0
 40
0.0
 40
0.0
 40
0.4802028106
 40
1.0
 40
1.0
 40
1.0
 40
1.0
 10
11.083679926
 20
10.5440139895
 30
0.0
 10
11.0857713489
 20
10.5415676544
 30
0.0
 10
11.0904001686
 20
10.5367040646
 30
0.0
 10
11.0954336382
 20
10.5322668419
 30
0.0
 10
11.0981279742
 20
10.5300582704
 30
0.0
  0
SPLINE
  5
3B2
100
AcDbEntity
  8
0
100
AcDbSpline
 62
7
  6
CONTINUOUS
 70
0
 71
3
 72
23
 73
19
 74
0
 42
0.0000001
 43
0.0000001
 44
0.0000000001
 40
0.0
 40
0.0
 40
0.0
 40
0.0
 40
0.0584073816
 40
0.1170342823
 40
0.175946792
 40
0.235225456
 40
0.2949566682
 40
0.3552310086
 40
0.416138202
 40
0.4777588108
 40
0.540158822
 40
0.6033849084
 40
0.6674605222
 40
0.7323867869
 40
0.7981446078
 40
0.8646981496
 40
0.9320021535
 40
1.0
 40
1.0
 40
1.0
 40
1.0
 10
11.0981279742
 20
10.5300582704
 30
0.0
 10
11.106575007
 20
10.5309457769
 30
0.0
 10
11.1235334595
 20
10.5324305936
 30
0.0
 10
11.1490945132
 20
10.5336957315
 30
0.0
 10
11.1748140607
 20
10.5339133562
 30
0.0
 10
11.2006798491
 20
10.5329956799
 30
0.0
 10
11.2266735503
 20
10.5308626564
 30
0.0
 10
11.2527696132
 20
10.5274472663
 30
0.0
 10
11.278936034
 20
10.5226988972
 30
0.0
 10
11.3051362481
 20
10.516590505
 30
0.0
 10
11.3313317425
 20
10.5091209109
 30
0.0
 10
11.3574842288
 20
10.5003128539
 30
0.0
 10
11.3835588456
 20
10.490213231
 30
0.0
 10
11.4095263834
 20
10.4788891109
 30
0.0
 10
11.435363479
 20
10.4664202364
 30
0.0
 10
11.4610539303
 20
10.4528951849
 30
0.0
 10
11.4865874914
 20
10.4384067209
 30
0.0
 10
11.5034208998
 20
10.4282152586
 30
0.0
 10
11.5118146922
 20
10.4229884048
 30
0.0
  0
SPLINE
  5
3B3
100
AcDbEntity
  8
0
100
AcDbSpline
 62
7
  6
CONTINUOUS
 70
0
 71
3
 72
9
 73
5
 74
0
 42
0.0000001
 43
0.0000001
 44
0.0000000001
 40
0.0
 40
0.0
 40
0.0
 40
0.0
 40
0.5151645244
 40
1.0
 40
1.0
 40
1.0
 40
1.0
 10
11.2110946352
 20
10.690185299
 30
0.0
 10
11.2077574886
 20
10.6885367883
 30
0.0
 10
11.2013387435
 20
10.6852152078
 30
0.0
 10
11.1950690738
 20
10.6816184748
 30
0.0
 10
11.1920756296
 20
10.6797990823
 30
0.0
  0
SPLINE
  5
3B4
100
AcDbEntity
  8
0
100
AcDbSpline
 62
7
  6
CONTINUOUS
 70
0
 71
3
 72
55
 73
51
 74
0
 42
0.0000001
 43
0.0000001
 44
0.0000000001
 40
0.0
 40
0.0
 40
0.0
 40
0.0
 40
0.0126039668
 40
0.0246626451
 40
0.0361845815
 40
0.0471813629
 40
0.0576675083
 40
0.0676611077
 40
0.0771851246
 40
0.0862675479
 40
0.0949416347
 40
0.1032466857
 40
0.1112290233
 40
0.118941678
 40
0.1264439865
 40
0.1338010228
 40
0.1410823646
 40
0.1483598643
 40
0.1557054861
 40
0.1631891608
 40
0.1708765213
 40
0.1788275498
 40
0.1870959619
 40
0.195728829
 40
0.2047661593
 40
0.2142418107
 40
0.2241843014
 40
0.2346171506
 40
0.2455588974
 40
0.2570244016
 40
0.2690255426
 40
0.281571226
 40
0.294667253
 40
0.3083174627
 40
0.337285222
 40
0.3684733057
 40
0.4018562187
 40
0.4373894698
 40
0.4750146658
 40
0.514659581
 40
0.5562421653
 40
0.5996694007
 40
0.6448409651
 40
0.6916481552
 40
0.7399765684
 40
0.7897029257
 40
0.8407002665
 40
0.8928422091
 40
0.9459958947
 40
1.0
 40
1.0
 40
1.0
 40
1.0
 10
11.1920756296
 20
10.6797990823
 30
0.0
 10
11.1901786707
 20
10.6786461252
 30
0.0
 10
11.1865027015
 20
10.6763302173
 30
0.0
 10
11.181234727
 20
10.6727411571
 30
0.0
 10
11.1763388014
 20
10.6691165586
 30
0.0
 10
11.1718182497
 20
10.6654590186
 30
0.0
 10
11.1676762188
 20
10.6617709301
 30
0.0
 10
11.163915882
 20
10.6580544589
 30
0.0
 10
11.1605398503
 20
10.6543120384
 30
0.0
 10
11.1575504526
 20
10.6505460558
 30
0.0
 10
11.1549500882
 20
10.6467587539
 30
0.0
 10
11.1527413902
 20
10.6429522375
 30
0.0
 10
11.1509263729
 20
10.6391290426
 30
0.0
 10
11.1495069382
 20
10.6352918176
 30
0.0
 10
11.1484851083
 20
10.6314434258
 30
0.0
 10
11.1478629721
 20
10.627587117
 30
0.0
 10
11.1476413162
 20
10.623726694
 30
0.0
 10
11.1478203737
 20
10.6198660633
 30
0.0
 10
11.1483999439
 20
10.6160091321
 30
0.0
 10
11.1493793658
 20
10.6121597351
 30
0.0
 10
11.1507566235
 20
10.6083211829
 30
0.0
 10
11.1525296758
 20
10.6044963716
 30
0.0
 10
11.1546965973
 20
10.600687954
 30
0.0
 10
11.1572554448
 20
10.5968985083
 30
0.0
 10
11.1602035953
 20
10.5931301529
 30
0.0
 10
11.1635386319
 20
10.5893851187
 30
0.0
 10
11.167258219
 20
10.5856657629
 30
0.0
 10
11.1713598176
 20
10.5819745572
 30
0.0
 10
11.1758402772
 20
10.5783136534
 30
0.0
 10
11.1806964347
 20
10.5746854435
 30
0.0
 10
11.1859250539
 20
10.5710924491
 30
0.0
 10
11.1915225643
 20
10.5675372369
 30
0.0
 10
11.1974848751
 20
10.5640219952
 30
0.0
 10
11.2060867801
 20
10.5592977642
 30
0.0
 10
11.2177440456
 20
10.5535311974
 30
0.0
 10
11.2328479837
 20
10.5469398571
 30
0.0
 10
11.2492909477
 20
10.5405655826
 30
0.0
 10
11.2670264399
 20
10.5344259926
 30
0.0
 10
11.2860048817
 20
10.5285392203
 30
0.0
 10
11.3061725597
 20
10.5229216414
 30
0.0
 10
11.3274723743
 20
10.5175900285
 30
0.0
 10
11.3498437374
 20
10.512559176
 30
0.0
 10
11.3732230343
 20
10.5078441693
 30
0.0
 10
11.3975437269
 20
10.5034580386
 30
0.0
 10
11.4227363154
 20
10.4994140747
 30
0.0
 10
11.4487285477
 20
10.4957233027
 30
0.0
 10
11.4754467789
 20
10.4923968258
 30
0.0
 10
11.502816007
 20
10.4894437525
 30
0.0
 10
11.5307555373
 20
10.4868733888
 30
0.0
 10
11.5495740811
 20
10.485429572
 30
0.0
 10
11.5590626908
 20
10.4847715347
 30
0.0
  0
SPLINE
  5
3B5
100
AcDbEntity
  8
0
100
AcDbSpline
 62
7
  6
CONTINUOUS
 70
0
 71
3
 72
56
 73
52
 74
0
 42
0.0000001
 43
0.0000001
 44
0.0000000001
 40
0.0
 40
0.0
 40
0.0
 40
0.0
 40
0.0460140365
 40
0.0926138763
 40
0.1395821546
 40
0.1867221822
 40
0.2338288136
 40
0.280695969
 40
0.3271205498
 40
0.3729016883
 40
0.4178419215
 40
0.4617486806
 40
0.5044357275
 40
0.5457237503
 40
0.5854421779
 40
0.623430808
 40
0.6595404895
 40
0.6936358272
 40
0.7098908177
 40
0.7255987191
 40
0.7407472814
 40
0.7553261698
 40
0.7693260262
 40
0.7827391099
 40
0.795560201
 40
0.8077857039
 40
0.8194143239
 40
0.8304482927
 40
0.8408926824
 40
0.8507562508
 40
0.8600531092
 40
0.8688025169
 40
0.8770301158
 40
0.8847700999
 40
0.8920656216
 40
0.8989701892
 40
0.9055493464
 40
0.9118801083
 40
0.9180498998
 40
0.9241540552
 40
0.93029114
 40
0.9365581198
 40
0.9430454648
 40
0.9498338051
 40
0.9533640988
 40
0.9569946791
 40
0.964581397
 40
0.9726423977
 40
0.9812148065
 40
0.9903269582
 40
1.0
 40
1.0
 40
1.0
 40
1.0
 10
11.5590626908
 20
10.4847715347
 30
0.0
 10
11.5713605781
 20
10.4839186733
 30
0.0
 10
11.5961297835
 20
10.4824370596
 30
0.0
 10
11.6334943903
 20
10.4808860114
 30
0.0
 10
11.6711824541
 20
10.4799973149
 30
0.0
 10
11.709016051
 20
10.4797749521
 30
0.0
 10
11.7468206086
 20
10.4802197177
 30
0.0
 10
11.7844197569
 20
10.48132975
 30
0.0
 10
11.8216381663
 20
10.4830998808
 30
0.0
 10
11.8583026125
 20
10.4855215268
 30
0.0
 10
11.8942423332
 20
10.4885834485
 30
0.0
 10
11.9292899956
 20
10.4922712971
 30
0.0
 10
11.9632825032
 20
10.4965674255
 30
0.0
 10
11.9960617172
 20
10.5014517752
 30
0.0
 10
12.0274752517
 20
10.5069013102
 30
0.0
 10
12.0573773968
 20
10.5128900045
 30
0.0
 10
12.0856291516
 20
10.5193899024
 30
0.0
 10
12.1080315328
 20
10.5252968603
 30
0.0
 10
12.1250153683
 20
10.5302746764
 30
0.0
 10
12.1370576787
 20
10.5340568389
 30
0.0
 10
12.1485940047
 20
10.5379430595
 30
0.0
 10
12.1596111153
 20
10.5419285394
 30
0.0
 10
12.1700962305
 20
10.5460087244
 30
0.0
 10
12.1800371501
 20
10.55017911
 30
0.0
 10
12.1894225837
 20
10.5544345184
 30
0.0
 10
12.1982417463
 20
10.5587701118
 30
0.0
 10
12.2064844018
 20
10.5631812283
 30
0.0
 10
12.2141413848
 20
10.5676624971
 30
0.0
 10
12.2212040571
 20
10.5722089456
 30
0.0
 10
12.2276642269
 20
10.576815974
 30
0.0
 10
12.2335149327
 20
10.5814783062
 30
0.0
 10
12.2387496765
 20
10.5861911877
 30
0.0
 10
12.2433620648
 20
10.5909504733
 30
0.0
 10
12.2473469052
 20
10.5957514274
 30
0.0
 10
12.2506990392
 20
10.6005898506
 30
0.0
 10
12.2534125349
 20
10.6054619008
 30
0.0
 10
12.2554824028
 20
10.6103625417
 30
0.0
 10
12.2569034188
 20
10.6152860565
 30
0.0
 10
12.2576699249
 20
10.6202252638
 30
0.0
 10
12.2577793797
 20
10.6251709486
 30
0.0
 10
12.2572315637
 20
10.6301133799
 30
0.0
 10
12.2560279244
 20
10.6350430697
 30
0.0
 10
12.2541735767
 20
10.6399518529
 30
0.0
 10
12.2521174697
 20
10.6439675998
 30
0.0
 10
12.2501692291
 20
10.6471580055
 30
0.0
 10
12.247950044
 20
10.6504285174
 30
0.0
 10
12.2447588165
 20
10.6544982506
 30
0.0
 10
12.2403550123
 20
10.6592717248
 30
0.0
 10
12.2353267704
 20
10.6640006232
 30
0.0
 10
12.2296805895
 20
10.6686801739
 30
0.0
 10
12.22563145
 20
10.6716733588
 30
0.0
 10
12.2235112264
 20
10.6731634376
 30
0.0
  0
SPLINE
  5
3B6
100
AcDbEntity
  8
0
100
AcDbSpline
 62
7
  6
CONTINUOUS
 70
0
 71
3
 72
11
 73
7
 74
0
 42
0.0000001
 43
0.0000001
 44
0.0000000001
 40
0.0
 40
0.0
 40
0.0
 40
0.0
 40
0.2310152257
 40
0.4746103058
 40
0.7309143418
 40
1.0
 40
1.0
 40
1.0
 40
1.0
 10
12.2235112264
 20
10.6731634376
 30
0.0
 10
12.2213803602
 20
10.6746609959
 30
0.0
 10
12.2169279224
 20
10.6776323923
 30
0.0
 10
12.2098855426
 20
10.6819151396
 30
0.0
 10
12.2023111234
 20
10.6861366844
 30
0.0
 10
12.197040082
 20
10.688841431
 30
0.0
 10
12.1943201709
 20
10.6901850413
 30
0.0
  0
SPLINE
  5
3B7
100
AcDbEntity
  8
0
100
AcDbSpline
 62
7
  6
CONTINUOUS
 70
0
 71
3
 72
9
 73
5
 74
0
 42
0.0000001
 43
0.0000001
 44
0.0000000001
 40
0.0
 40
0.0
 40
0.0
 40
0.0
 40
0.4783776653
 40
1.0
 40
1.0
 40
1.0
 40
1.0
 10
11.2686101956
 20
9.0976014804
 30
0.0
 10
11.2708064883
 20
9.0956423078
 30
0.0
 10
11.2755960773
 20
9.0917670063
 30
0.0
 10
11.2806680652
 20
9.0882752095
 30
0.0
 10
11.2833669422
 20
9.0865388389
 30
0.0
  0
SPLINE
  5
3B8
100
AcDbEntity
  8
0
100
AcDbSpline
 62
7
  6
CONTINUOUS
 70
0
 71
3
 72
23
 73
19
 74
0
 42
0.0000001
 43
0.0000001
 44
0.0000000001
 40
0.0
 40
0.0
 40
0.0
 40
0.0
 40
0.0389207046
 40
0.0814255686
 40
0.1275152005
 40
0.1771498773
 40
0.2302524773
 40
0.2867201288
 40
0.3464240776
 40
0.4092167948
 40
0.4749318021
 40
0.5433882711
 40
0.6143919456
 40
0.6877337187
 40
0.7631937098
 40
0.8405519861
 40
0.9195799858
 40
1.0
 40
1.0
 40
1.0
 40
1.0
 10
11.2833669422
 20
9.0865388389
 30
0.0
 10
11.2867781816
 20
9.0843441571
 30
0.0
 10
11.2940973726
 20
9.0800335508
 30
0.0
 10
11.3059550597
 20
9.074018579
 30
0.0
 10
11.3191354337
 20
9.0681891289
 30
0.0
 10
11.3335954954
 20
9.0625656635
 30
0.0
 10
11.3492883588
 20
9.057165955
 30
0.0
 10
11.3661625053
 20
9.0520088326
 30
0.0
 10
11.3841621255
 20
9.0471112102
 30
0.0
 10
11.4032274682
 20
9.0424900127
 30
0.0
 10
11.4232950695
 20
9.0381606737
 30
0.0
 10
11.4442980907
 20
9.034137912
 30
0.0
 10
11.4661663442
 20
9.0304354826
 30
0.0
 10
11.4888263653
 20
9.0270657036
 30
0.0
 10
11.5122027357
 20
9.0240401275
 30
0.0
 10
11.5362185013
 20
9.0213687001
 30
0.0
 10
11.5607910635
 20
9.0190611559
 30
0.0
 10
11.5773598701
 20
9.0177799475
 30
0.0
 10
11.5857210304
 20
9.0172000991
 30
0.0
  0
SPLINE
  5
3B9
100
AcDbEntity
  8
0
100
AcDbSpline
 62
7
  6
CONTINUOUS
 70
0
 71
3
 72
21
 73
17
 74
0
 42
0.0000001
 43
0.0000001
 44
0.0000000001
 40
0.0
 40
0.0
 40
0.0
 40
0.0
 40
0.1269266306
 40
0.1902356571
 40
0.2534226618
 40
0.3164750211
 40
0.379381614
 40
0.442133702
 40
0.5047247465
 40
0.5671521045
 40
0.6294167402
 40
0.6915228504
 40
0.7534784743
 40
0.8152934295
 40
0.8769787052
 40
1.0
 40
1.0
 40
1.0
 40
1.0
 10
11.5657355009
 20
10.419248984
 30
0.0
 10
11.5887430839
 20
10.4269733992
 30
0.0
 10
11.6235034894
 20
10.4377611975
 30
0.0
 10
11.6703474101
 20
10.4501807549
 30
0.0
 10
11.7056515966
 20
10.4584064487
 30
0.0
 10
11.7411297319
 20
10.4654641668
 30
0.0
 10
11.7767493411
 20
10.4712784127
 30
0.0
 10
11.8124692768
 20
10.4757873673
 30
0.0
 10
11.8482417988
 20
10.4789506574
 30
0.0
 10
11.8840154162
 20
10.4807526602
 30
0.0
 10
11.9197386235
 20
10.4812015595
 30
0.0
 10
11.9553633403
 20
10.4803308272
 30
0.0
 10
11.9908477789
 20
10.4781964237
 30
0.0
 10
12.0261590834
 20
10.4748692137
 30
0.0
 10
12.0729302927
 20
10.4689590717
 30
0.0
 10
12.1077627302
 20
10.4629866694
 30
0.0
 10
12.1308419085
 20
10.4584393158
 30
0.0
  0
SPLINE
  5
3BA
100
AcDbEntity
  8
0
100
AcDbSpline
 62
7
  6
CONTINUOUS
 70
0
 71
3
 72
21
 73
17
 74
0
 42
0.0000001
 43
0.0000001
 44
0.0000000001
 40
0.0
 40
0.0
 40
0.0
 40
0.0
 40
0.1230212948
 40
0.1847065705
 40
0.2465215258
 40
0.3084771496
 40
0.3705832599
 40
0.4328478955
 40
0.4952752535
 40
0.5578662981
 40
0.6206183861
 40
0.683524979
 40
0.7465773382
 40
0.8097643429
 40
0.8730733694
 40
1.0
 40
1.0
 40
1.0
 40
1.0
 10
11.5657355009
 20
10.0348455427
 30
0.0
 10
11.5888146792
 20
10.0302981892
 30
0.0
 10
11.6236471166
 20
10.0243257868
 30
0.0
 10
11.670418326
 20
10.0184156448
 30
0.0
 10
11.7057296305
 20
10.0150884349
 30
0.0
 10
11.7412140691
 20
10.0129540313
 30
0.0
 10
11.7768387859
 20
10.012083299
 30
0.0
 10
11.8125619932
 20
10.0125321983
 30
0.0
 10
11.8483356107
 20
10.0143342012
 30
0.0
 10
11.8841081326
 20
10.0174974912
 30
0.0
 10
11.9198280683
 20
10.0220064459
 30
0.0
 10
11.9554476775
 20
10.0278206917
 30
0.0
 10
11.9909258128
 20
10.0348784099
 30
0.0
 10
12.0262299993
 20
10.0431041036
 30
0.0
 10
12.07307392
 20
10.0555236611
 30
0.0
 10
12.1078343255
 20
10.0663114594
 30
0.0
 10
12.1308419085
 20
10.0740358745
 30
0.0
  0
SPLINE
  5
3BB
100
AcDbEntity
  8
0
100
AcDbSpline
 62
7
  6
CONTINUOUS
 70
0
 71
3
 72
24
 73
20
 74
0
 42
0.0000001
 43
0.0000001
 44
0.0000000001
 40
0.0
 40
0.0
 40
0.0
 40
0.0
 40
0.0904093868
 40
0.1775325331
 40
0.2610553835
 40
0.3406844661
 40
0.41616279
 40
0.4872998029
 40
0.521207684
 40
0.5540039824
 40
0.6162843266
 40
0.6743126111
 40
0.7283969377
 40
0.7789824074
 40
0.826623815
 40
0.8719379797
 40
0.9155549124
 40
0.9580698186
 40
1.0
 40
1.0
 40
1.0
 40
1.0
 10
12.1703146689
 20
10.4686556141
 30
0.0
 10
12.1733501973
 20
10.4746054982
 30
0.0
 10
12.1794241692
 20
10.4862318218
 30
0.0
 10
12.1887496534
 20
10.5031165932
 30
0.0
 10
12.1981299186
 20
10.5190541934
 30
0.0
 10
12.2075619319
 20
10.5339534811
 30
0.0
 10
12.2170407954
 20
10.5477265333
 30
0.0
 10
12.2250966371
 20
10.5583635395
 30
0.0
 10
12.231573532
 20
10.5662239575
 30
0.0
 10
12.2378460871
 20
10.5733992694
 30
0.0
 10
12.2456852764
 20
10.5815665823
 30
0.0
 10
12.2552717861
 20
10.5901942936
 30
0.0
 10
12.2648604887
 20
10.5974692021
 30
0.0
 10
12.2744392984
 20
10.6034090691
 30
0.0
 10
12.2839948579
 20
10.6080541536
 30
0.0
 10
12.2935134461
 20
10.6114626427
 30
0.0
 10
12.30298192
 20
10.613708861
 30
0.0
 10
12.3123880108
 20
10.6148791443
 30
0.0
 10
12.3186377709
 20
10.6150032285
 30
0.0
 10
12.3217343585
 20
10.6149158115
 30
0.0
  0
SPLINE
  5
3BC
100
AcDbEntity
  8
0
100
AcDbSpline
 62
7
  6
CONTINUOUS
 70
0
 71
3
 72
15
 73
11
 74
0
 42
0.0000001
 43
0.0000001
 44
0.0000000001
 40
0.0
 40
0.0
 40
0.0
 40
0.0
 40
0.1193884442
 40
0.2394118209
 40
0.3604965246
 40
0.4831212753
 40
0.6078106285
 40
0.735130254
 40
0.8656619472
 40
1.0
 40
1.0
 40
1.0
 40
1.0
 10
12.1703146689
 20
10.0842521728
 30
0.0
 10
12.1720844246
 20
10.0842022124
 30
0.0
 10
12.1756369515
 20
10.0841993809
 30
0.0
 10
12.1809772439
 20
10.0845026125
 30
0.0
 10
12.1863379375
 20
10.085130156
 30
0.0
 10
12.1917181057
 20
10.0860987296
 30
0.0
 10
12.1971169255
 20
10.0874247449
 30
0.0
 10
12.2025330951
 20
10.0891246675
 30
0.0
 10
12.2079650548
 20
10.091212971
 30
0.0
 10
12.2115396914
 20
10.0928478366
 30
0.0
 10
12.2133259604
 20
10.0937298362
 30
0.0
  0
SPLINE
  5
3BD
100
AcDbEntity
  8
0
100
AcDbSpline
 62
7
  6
CONTINUOUS
 70
0
 71
3
 72
11
 73
7
 74
0
 42
0.0000001
 43
0.0000001
 44
0.0000000001
 40
0.0
 40
0.0
 40
0.0
 40
0.0
 40
0.246379236
 40
0.496087256
 40
0.747724897
 40
1.0
 40
1.0
 40
1.0
 40
1.0
 10
11.5857210304
 20
9.0172000991
 30
0.0
 10
11.5967964948
 20
9.016432013
 30
0.0
 10
11.6191139063
 20
9.015119461
 30
0.0
 10
11.6527840452
 20
9.0138182159
 30
0.0
 10
11.6867388931
 20
9.0131761581
 30
0.0
 10
11.709447339
 20
9.0131899259
 30
0.0
 10
11.7208144664
 20
9.0133078388
 30
0.0
  0
SPLINE
  5
3BE
100
AcDbEntity
  8
0
100
AcDbSpline
 62
7
  6
CONTINUOUS
 70
0
 71
3
 72
58
 73
54
 74
0
 42
0.0000001
 43
0.0000001
 44
0.0000000001
 40
0.0
 40
0.0
 40
0.0
 40
0.0
 40
0.0074590286
 40
0.015452749
 40
0.0240004651
 40
0.0331158712
 40
0.0428067258
 40
0.0530762723
 40
0.0639240862
 40
0.0753464795
 40
0.0873370598
 40
0.099887109
 40
0.1129857854
 40
0.1266204268
 40
0.1407767563
 40
0.1554389664
 40
0.1705899132
 40
0.1862112493
 40
0.2022834572
 40
0.2187859896
 40
0.2356973692
 40
0.2529952036
 40
0.2886560054
 40
0.3255751056
 40
0.3635484299
 40
0.4023637669
 40
0.4418025691
 40
0.4816416446
 40
0.5216548461
 40
0.5616147539
 40
0.6012943362
 40
0.6404686274
 40
0.6789163894
 40
0.7164218292
 40
0.7527763378
 40
0.7704595603
 40
0.7877810149
 40
0.804717452
 40
0.8212464309
 40
0.8373464158
 40
0.852996792
 40
0.8681779792
 40
0.8828715554
 40
0.8970602902
 40
0.9107282928
 40
0.9238611882
 40
0.936446199
 40
0.9484723674
 40
0.9599308352
 40
0.9708150479
 40
0.9811211415
 40
0.9908484501
 40
1.0
 40
1.0
 40
1.0
 40
1.0
 10
10.2924553523
 20
10.0876753426
 30
0.0
 10
10.2905719133
 20
10.0858560802
 30
0.0
 10
10.2865173597
 20
10.0822432435
 30
0.0
 10
10.2798587403
 20
10.077072023
 30
0.0
 10
10.2724280883
 20
10.0719730714
 30
0.0
 10
10.2642368328
 20
10.0669538788
 30
0.0
 10
10.2552966549
 20
10.0620213556
 30
0.0
 10
10.2456207369
 20
10.0571827672
 30
0.0
 10
10.2352233897
 20
10.0524453064
 30
0.0
 10
10.2241201207
 20
10.0478160625
 30
0.0
 10
10.2123275649
 20
10.0433020369
 30
0.0
 10
10.1998634498
 20
10.0389101211
 30
0.0
 10
10.1867465886
 20
10.0346469858
 30
0.0
 10
10.1729968158
 20
10.0305191387
 30
0.0
 10
10.1586349485
 20
10.0265329204
 30
0.0
 10
10.1436827735
 20
10.0226944094
 30
0.0
 10
10.1281629905
 20
10.0190094751
 30
0.0
 10
10.1120991707
 20
10.0154837858
 30
0.0
 10
10.0955157346
 20
10.0121227189
 30
0.0
 10
10.0784379098
 20
10.0089314211
 30
0.0
 10
10.0608916467
 20
10.005914766
 30
0.0
 10
10.0366616942
 20
10.0020929209
 30
0.0
 10
10.0053983201
 20
9.9978007697
 30
0.0
 10
9.9668267085
 20
9.9934628398
 30
0.0
 10
9.9270626752
 20
9.9899137605
 30
0.0
 10
9.8863482383
 20
9.9871753745
 30
0.0
 10
9.8449309993
 20
9.9852646224
 30
0.0
 10
9.8030629768
 20
9.9841932968
 30
0.0
 10
9.7609989476
 20
9.9839679874
 30
0.0
 10
9.7189949038
 20
9.9845901006
 30
0.0
 10
9.677306459
 20
9.9860558004
 30
0.0
 10
9.6361873035
 20
9.988356028
 30
0.0
 10
9.5958875446
 20
9.9914765882
 30
0.0
 10
9.5566524911
 20
9.9953982648
 30
0.0
 10
9.5247551445
 20
9.9993490689
 30
0.0
 10
9.4999564524
 20
10.0029044622
 30
0.0
 10
9.4819415087
 20
10.005730378
 30
0.0
 10
9.464366593
 20
10.0087358273
 30
0.0
 10
9.447258426
 20
10.011916251
 30
0.0
 10
9.4306430365
 20
10.0152667495
 30
0.0
 10
9.4145456942
 20
10.0187822091
 30
0.0
 10
9.398990872
 20
10.0224572586
 30
0.0
 10
9.3840021948
 20
10.0262862461
 30
0.0
 10
9.3696024209
 20
10.0302633227
 30
0.0
 10
9.3558133941
 20
10.0343824174
 30
0.0
 10
9.3426559929
 20
10.0386372022
 30
0.0
 10
9.3301501171
 20
10.043021189
 30
0.0
 10
9.3183146467
 20
10.0475277104
 30
0.0
 10
9.3071673677
 20
10.0521498882
 30
0.0
 10
9.2967250171
 20
10.0568807194
 30
0.0
 10
9.2870030805
 20
10.06171318
 30
0.0
 10
9.2780162716
 20
10.0666398476
 30
0.0
 10
9.272351952
 20
10.0700869931
 30
0.0
 10
9.2696525765
 20
10.0718292165
 30
0.0
  0
SPLINE
  5
3BF
100
AcDbEntity
  8
0
100
AcDbSpline
 62
7
  6
CONTINUOUS
 70
0
 71
3
 72
23
 73
19
 74
0
 42
0.0000001
 43
0.0000001
 44
0.0000000001
 40
0.0
 40
0.0
 40
0.0
 40
0.0
 40
0.0827329981
 40
0.1622048005
 40
0.238469996
 40
0.3115982686
 40
0.3816767438
 40
0.4488108568
 40
0.513128782
 40
0.5747821818
 40
0.6339500933
 40
0.6908411152
 40
0.7456947835
 40
0.7987838098
 40
0.850412431
 40
0.9009151235
 40
0.9506515887
 40
1.0
 40
1.0
 40
1.0
 40
1.0
 10
9.2696525765
 20
10.0718292165
 30
0.0
 10
9.2680868774
 20
10.0728397457
 30
0.0
 10
9.2650474127
 20
10.0748683918
 30
0.0
 10
9.2606827652
 20
10.0780008855
 30
0.0
 10
9.2566073367
 20
10.0811596713
 30
0.0
 10
9.2528234705
 20
10.0843430374
 30
0.0
 10
9.2493332241
 20
10.0875492554
 30
0.0
 10
9.2461386335
 20
10.0907767388
 30
0.0
 10
9.2432414651
 20
10.094023766
 30
0.0
 10
9.2406434716
 20
10.0972887573
 30
0.0
 10
9.2383462608
 20
10.1005700824
 30
0.0
 10
9.2363513039
 20
10.1038660781
 30
0.0
 10
9.2346601471
 20
10.1071751257
 30
0.0
 10
9.2332740537
 20
10.1104954076
 30
0.0
 10
9.2321944027
 20
10.1138250469
 30
0.0
 10
9.2314222853
 20
10.1171620428
 30
0.0
 10
9.2309585859
 20
10.1205037482
 30
0.0
 10
9.2308553921
 20
10.1227368951
 30
0.0
 10
9.2308553923
 20
10.1238484239
 30
0.0
  0
SPLINE
  5
3C0
100
AcDbEntity
  8
0
100
AcDbSpline
 62
7
  6
CONTINUOUS
 70
0
 71
3
 72
58
 73
54
 74
0
 42
0.0000001
 43
0.0000001
 44
0.0000000001
 40
0.0
 40
0.0
 40
0.0
 40
0.0
 40
0.0074590286
 40
0.015452749
 40
0.0240004651
 40
0.0331158712
 40
0.0428067258
 40
0.0530762723
 40
0.0639240862
 40
0.0753464795
 40
0.0873370598
 40
0.099887109
 40
0.1129857854
 40
0.1266204268
 40
0.1407767563
 40
0.1554389664
 40
0.1705899132
 40
0.1862112493
 40
0.2022834572
 40
0.2187859896
 40
0.2356973692
 40
0.2529952036
 40
0.2886560054
 40
0.3255751056
 40
0.3635484299
 40
0.4023637669
 40
0.4418025691
 40
0.4816416446
 40
0.5216548461
 40
0.5616147539
 40
0.6012943362
 40
0.6404686274
 40
0.6789163894
 40
0.7164218292
 40
0.7527763378
 40
0.7704595603
 40
0.7877810149
 40
0.804717452
 40
0.8212464309
 40
0.8373464158
 40
0.852996792
 40
0.8681779792
 40
0.8828715554
 40
0.8970602902
 40
0.9107282928
 40
0.9238611882
 40
0.936446199
 40
0.9484723674
 40
0.9599308352
 40
0.9708150479
 40
0.9811211415
 40
0.9908484501
 40
1.0
 40
1.0
 40
1.0
 40
1.0
 10
12.2243071194
 20
9.9537009676
 30
0.0
 10
12.2224236803
 20
9.9518817051
 30
0.0
 10
12.2183691267
 20
9.9482688684
 30
0.0
 10
12.2117105074
 20
9.9430976479
 30
0.0
 10
12.2042798554
 20
9.9379986963
 30
0.0
 10
12.1960885998
 20
9.9329795037
 30
0.0
 10
12.1871484219
 20
9.9280469806
 30
0.0
 10
12.1774725039
 20
9.9232083921
 30
0.0
 10
12.1670751568
 20
9.9184709314
 30
0.0
 10
12.1559718878
 20
9.9138416874
 30
0.0
 10
12.1441793319
 20
9.9093276618
 30
0.0
 10
12.1317152168
 20
9.904935746
 30
0.0
 10
12.1185983556
 20
9.9006726107
 30
0.0
 10
12.1048485829
 20
9.8965447636
 30
0.0
 10
12.0904867155
 20
9.8925585453
 30
0.0
 10
12.0755345405
 20
9.8887200343
 30
0.0
 10
12.0600147575
 20
9.8850351
 30
0.0
 10
12.0439509378
 20
9.8815094107
 30
0.0
 10
12.0273675017
 20
9.8781483438
 30
0.0
 10
12.0102896768
 20
9.874957046
 30
0.0
 10
11.9927434137
 20
9.871940391
 30
0.0
 10
11.9685134612
 20
9.8681185459
 30
0.0
 10
11.9372500871
 20
9.8638263946
 30
0.0
 10
11.8986784755
 20
9.8594884647
 30
0.0
 10
11.8589144423
 20
9.8559393854
 30
0.0
 10
11.8182000053
 20
9.8532009994
 30
0.0
 10
11.7767827664
 20
9.8512902473
 30
0.0
 10
11.7349147438
 20
9.8502189217
 30
0.0
 10
11.6928507146
 20
9.8499936123
 30
0.0
 10
11.6508466708
 20
9.8506157256
 30
0.0
 10
11.609158226
 20
9.8520814253
 30
0.0
 10
11.5680390706
 20
9.8543816529
 30
0.0
 10
11.5277393116
 20
9.8575022131
 30
0.0
 10
11.4885042582
 20
9.8614238897
 30
0.0
 10
11.4566069116
 20
9.8653746938
 30
0.0
 10
11.4318082195
 20
9.8689300871
 30
0.0
 10
11.4137932758
 20
9.8717560029
 30
0.0
 10
11.3962183601
 20
9.8747614522
 30
0.0
 10
11.3791101931
 20
9.877941876
 30
0.0
 10
11.3624948035
 20
9.8812923744
 30
0.0
 10
11.3463974613
 20
9.884807834
 30
0.0
 10
11.330842639
 20
9.8884828835
 30
0.0
 10
11.3158539619
 20
9.892311871
 30
0.0
 10
11.3014541879
 20
9.8962889476
 30
0.0
 10
11.2876651611
 20
9.9004080423
 30
0.0
 10
11.2745077599
 20
9.9046628271
 30
0.0
 10
11.2620018842
 20
9.9090468139
 30
0.0
 10
11.2501664138
 20
9.9135533353
 30
0.0
 10
11.2390191347
 20
9.9181755131
 30
0.0
 10
11.2285767841
 20
9.9229063444
 30
0.0
 10
11.2188548476
 20
9.9277388049
 30
0.0
 10
11.2098680386
 20
9.9326654725
 30
0.0
 10
11.2042037191
 20
9.936112618
 30
0.0
 10
11.2015043436
 20
9.9378548414
 30
0.0
  0
SPLINE
  5
3C1
100
AcDbEntity
  8
0
100
AcDbSpline
 62
7
  6
CONTINUOUS
 70
0
 71
3
 72
23
 73
19
 74
0
 42
0.0000001
 43
0.0000001
 44
0.0000000001
 40
0.0
 40
0.0
 40
0.0
 40
0.0
 40
0.0827329981
 40
0.1622048005
 40
0.238469996
 40
0.3115982686
 40
0.3816767438
 40
0.4488108568
 40
0.513128782
 40
0.5747821818
 40
0.6339500933
 40
0.6908411152
 40
0.7456947835
 40
0.7987838098
 40
0.850412431
 40
0.9009151235
 40
0.9506515887
 40
1.0
 40
1.0
 40
1.0
 40
1.0
 10
11.2015043436
 20
9.9378548414
 30
0.0
 10
11.1999386444
 20
9.9388653706
 30
0.0
 10
11.1968991798
 20
9.9408940167
 30
0.0
 10
11.1925345322
 20
9.9440265104
 30
0.0
 10
11.1884591037
 20
9.9471852962
 30
0.0
 10
11.1846752376
 20
9.9503686623
 30
0.0
 10
11.1811849911
 20
9.9535748803
 30
0.0
 10
11.1779904005
 20
9.9568023637
 30
0.0
 10
11.1750932321
 20
9.9600493909
 30
0.0
 10
11.1724952387
 20
9.9633143822
 30
0.0
 10
11.1701980279
 20
9.9665957073
 30
0.0
 10
11.1682030709
 20
9.969891703
 30
0.0
 10
11.1665119142
 20
9.9732007506
 30
0.0
 10
11.1651258207
 20
9.9765210325
 30
0.0
 10
11.1640461698
 20
9.9798506718
 30
0.0
 10
11.1632740523
 20
9.9831876677
 30
0.0
 10
11.1628103529
 20
9.9865293731
 30
0.0
 10
11.1627071592
 20
9.98876252
 30
0.0
 10
11.1627071593
 20
9.9898740488
 30
0.0
  0
SPLINE
  5
3C2
100
AcDbEntity
  8
0
100
AcDbSpline
 62
7
  6
CONTINUOUS
 70
0
 71
3
 72
60
 73
56
 74
0
 42
0.0000001
 43
0.0000001
 44
0.0000000001
 40
0.0
 40
0.0
 40
0.0
 40
0.0
 40
0.0081437215
 40
0.01697685
 40
0.0265209466
 40
0.03678965
 40
0.0477883286
 40
0.0595158866
 40
0.0719660299
 40
0.0851283246
 40
0.0989885617
 40
0.1135293238
 40
0.1287305536
 40
0.1445695476
 40
0.1610215373
 40
0.1780596973
 40
0.2137771176
 40
0.2514753725
 40
0.290884692
 40
0.3317173433
 40
0.3736711531
 40
0.4164328736
 40
0.4596814124
 40
0.5030909931
 40
0.546334291
 40
0.5890855752
 40
0.6310238557
 40
0.6718360457
 40
0.7112201823
 40
0.7302867147
 40
0.7488898131
 40
0.7669963561
 40
0.7845746229
 40
0.8015944409
 40
0.8180271642
 40
0.8338461164
 40
0.8490264908
 40
0.8635457491
 40
0.8773838801
 40
0.890523522
 40
0.9029506859
 40
0.9146549165
 40
0.9256301632
 40
0.9358756224
 40
0.9453966901
 40
0.9542068483
 40
0.9623293949
 40
0.969800425
 40
0.9766722973
 40
0.9830175573
 40
0.9889330625
 40
0.9917694421
 40
0.994546604
 40
0.9972834941
 40
1.0
 40
1.0
 40
1.0
 40
1.0
 10
13.4494894301
 20
7.613219371
 30
0.0
 10
13.44867053
 20
7.6124283742
 30
0.0
 10
13.4470369607
 20
7.6107023576
 30
0.0
 10
13.444689586
 20
7.607828978
 30
0.0
 10
13.4423523225
 20
7.6045740676
 30
0.0
 10
13.4400296999
 20
7.6009441713
 30
0.0
 10
13.4377259315
 20
7.5969460764
 30
0.0
 10
13.4354456111
 20
7.5925874923
 30
0.0
 10
13.4331931792
 20
7.5878769675
 30
0.0
 10
13.4309731679
 20
7.5828237642
 30
0.0
 10
13.4287900307
 20
7.5774378889
 30
0.0
 10
13.426648139
 20
7.5717300589
 30
0.0
 10
13.424551861
 20
7.5657116479
 30
0.0
 10
13.4225053899
 20
7.5593946967
 30
0.0
 10
13.4205128598
 20
7.5527918379
 30
0.0
 10
13.4178922201
 20
7.5434773809
 30
0.0
 10
13.4147928379
 20
7.5312144391
 30
0.0
 10
13.4114044575
 20
7.5158068381
 30
0.0
 10
13.4083185969
 20
7.499607356
 30
0.0
 10
13.405560327
 20
7.4827459825
 30
0.0
 10
13.4031520719
 20
7.465357915
 30
0.0
 10
13.4011133538
 20
7.4475827402
 30
0.0
 10
13.39946067
 20
7.4295631881
 30
0.0
 10
13.3982073568
 20
7.4114439903
 30
0.0
 10
13.3973634853
 20
7.3933706881
 30
0.0
 10
13.3969357721
 20
7.3754884609
 30
0.0
 10
13.3969275096
 20
7.3579408873
 30
0.0
 10
13.3973386175
 20
7.3408689564
 30
0.0
 10
13.3980348543
 20
7.3270070003
 30
0.0
 10
13.3988061449
 20
7.3162617493
 30
0.0
 10
13.3994801033
 20
7.3084927803
 30
0.0
 10
13.4002543824
 20
7.300942284
 30
0.0
 10
13.4011274252
 20
7.2936254116
 30
0.0
 10
13.4020974241
 20
7.2865568569
 30
0.0
 10
13.4031624498
 20
7.2797508011
 30
0.0
 10
13.4043202883
 20
7.2732208887
 30
0.0
 10
13.4055686128
 20
7.2669801966
 30
0.0
 10
13.4069048834
 20
7.2610412044
 30
0.0
 10
13.4083263541
 20
7.2554157608
 30
0.0
 10
13.4098301962
 20
7.2501150655
 30
0.0
 10
13.4114133153
 20
7.2451496154
 30
0.0
 10
13.4130725698
 20
7.2405291983
 30
0.0
 10
13.4148046665
 20
7.2362628473
 30
0.0
 10
13.4166061908
 20
7.2323587936
 30
0.0
 10
13.418473815
 20
7.2288244943
 30
0.0
 10
13.4204041216
 20
7.22566653
 30
0.0
 10
13.422394015
 20
7.2228907278
 30
0.0
 10
13.4244406227
 20
7.2205022521
 30
0.0
 10
13.4265417325
 20
7.2185057887
 30
0.0
 10
13.4286949463
 20
7.2169065158
 30
0.0
 10
13.4305579234
 20
7.215895418
 30
0.0
 10
13.4320592295
 20
7.215304392
 30
0.0
 10
13.4331790386
 20
7.2149691021
 30
0.0
 10
13.434307344
 20
7.2147361647
 30
0.0
 10
13.435065996
 20
7.2146491269
 30
0.0
 10
13.4354448692
 20
7.2146228485
 30
0.0
  0
SPLINE
  5
3C3
100
AcDbEntity
  8
0
100
AcDbSpline
 62
7
  6
CONTINUOUS
 70
0
 71
3
 72
60
 73
56
 74
0
 42
0.0000001
 43
0.0000001
 44
0.0000000001
 40
0.0
 40
0.0
 40
0.0
 40
0.0
 40
0.0081437215
 40
0.01697685
 40
0.0265209466
 40
0.03678965
 40
0.0477883286
 40
0.0595158866
 40
0.0719660299
 40
0.0851283246
 40
0.0989885617
 40
0.1135293238
 40
0.1287305536
 40
0.1445695476
 40
0.1610215373
 40
0.1780596973
 40
0.2137771176
 40
0.2514753725
 40
0.290884692
 40
0.3317173433
 40
0.3736711531
 40
0.4164328736
 40
0.4596814124
 40
0.5030909931
 40
0.546334291
 40
0.5890855752
 40
0.6310238557
 40
0.6718360457
 40
0.7112201823
 40
0.7302867147
 40
0.7488898131
 40
0.7669963561
 40
0.7845746229
 40
0.8015944409
 40
0.8180271642
 40
0.8338461164
 40
0.8490264908
 40
0.8635457491
 40
0.8773838801
 40
0.890523522
 40
0.9029506859
 40
0.9146549165
 40
0.9256301632
 40
0.9358756224
 40
0.9453966901
 40
0.9542068483
 40
0.9623293949
 40
0.969800425
 40
0.9766722973
 40
0.9830175573
 40
0.9889330625
 40
0.9917694421
 40
0.994546604
 40
0.9972834941
 40
1.0
 40
1.0
 40
1.0
 40
1.0
 10
12.414214104
 20
6.613220137
 30
0.0
 10
12.413395204
 20
6.6124291402
 30
0.0
 10
12.4117616347
 20
6.6107031237
 30
0.0
 10
12.40941426
 20
6.6078297441
 30
0.0
 10
12.4070769965
 20
6.6045748336
 30
0.0
 10
12.4047543739
 20
6.6009449374
 30
0.0
 10
12.4024506054
 20
6.5969468424
 30
0.0
 10
12.4001702851
 20
6.5925882583
 30
0.0
 10
12.3979178532
 20
6.5878777335
 30
0.0
 10
12.3956978418
 20
6.5828245302
 30
0.0
 10
12.3935147047
 20
6.5774386549
 30
0.0
 10
12.391372813
 20
6.5717308249
 30
0.0
 10
12.389276535
 20
6.5657124139
 30
0.0
 10
12.3872300639
 20
6.5593954628
 30
0.0
 10
12.3852375338
 20
6.5527926039
 30
0.0
 10
12.3826168941
 20
6.543478147
 30
0.0
 10
12.3795175119
 20
6.5312152051
 30
0.0
 10
12.3761291315
 20
6.5158076042
 30
0.0
 10
12.3730432709
 20
6.499608122
 30
0.0
 10
12.370285001
 20
6.4827467486
 30
0.0
 10
12.3678767458
 20
6.4653586811
 30
0.0
 10
12.3658380278
 20
6.4475835062
 30
0.0
 10
12.364185344
 20
6.4295639541
 30
0.0
 10
12.3629320308
 20
6.4114447563
 30
0.0
 10
12.3620881593
 20
6.3933714541
 30
0.0
 10
12.361660446
 20
6.375489227
 30
0.0
 10
12.3616521836
 20
6.3579416533
 30
0.0
 10
12.3620632914
 20
6.3408697225
 30
0.0
 10
12.3627595283
 20
6.3270077663
 30
0.0
 10
12.3635308189
 20
6.3162625153
 30
0.0
 10
12.3642047773
 20
6.3084935463
 30
0.0
 10
12.3649790564
 20
6.3009430501
 30
0.0
 10
12.3658520992
 20
6.2936261776
 30
0.0
 10
12.3668220981
 20
6.286557623
 30
0.0
 10
12.3678871238
 20
6.2797515671
 30
0.0
 10
12.3690449623
 20
6.2732216547
 30
0.0
 10
12.3702932868
 20
6.2669809627
 30
0.0
 10
12.3716295574
 20
6.2610419704
 30
0.0
 10
12.373051028
 20
6.2554165269
 30
0.0
 10
12.3745548702
 20
6.2501158315
 30
0.0
 10
12.3761379893
 20
6.2451503814
 30
0.0
 10
12.3777972438
 20
6.2405299643
 30
0.0
 10
12.3795293404
 20
6.2362636133
 30
0.0
 10
12.3813308648
 20
6.2323595596
 30
0.0
 10
12.3831984889
 20
6.2288252603
 30
0.0
 10
12.3851287955
 20
6.2256672961
 30
0.0
 10
12.387118689
 20
6.2228914938
 30
0.0
 10
12.3891652967
 20
6.2205030181
 30
0.0
 10
12.3912664065
 20
6.2185065548
 30
0.0
 10
12.3934196203
 20
6.2169072818
 30
0.0
 10
12.3952825974
 20
6.215896184
 30
0.0
 10
12.3967839034
 20
6.215305158
 30
0.0
 10
12.3979037126
 20
6.2149698681
 30
0.0
 10
12.399032018
 20
6.2147369307
 30
0.0
 10
12.39979067
 20
6.2146498929
 30
0.0
 10
12.4001695432
 20
6.2146236146
 30
0.0
  0
SPLINE
  5
3C4
100
AcDbEntity
  8
0
100
AcDbSpline
 62
7
  6
CONTINUOUS
 70
0
 71
3
 72
19
 73
15
 74
0
 42
0.0000001
 43
0.0000001
 44
0.0000000001
 40
0.0
 40
0.0
 40
0.0
 40
0.0
 40
0.1227072696
 40
0.1844424246
 40
0.2464015442
 40
0.3085658774
 40
0.3709140018
 40
0.4334250024
 40
0.496077807
 40
0.6217038172
 40
0.7476535252
 40
0.8107134358
 40
0.873802511
 40
1.0
 40
1.0
 40
1.0
 40
1.0
 10
9.6495987526
 20
8.8292598791
 30
0.0
 10
9.6578216371
 20
8.8286896202
 30
0.0
 10
9.670224613
 20
8.828344867
 30
0.0
 10
9.6867702112
 20
8.8288854608
 30
0.0
 10
9.6992256981
 20
8.8297898697
 30
0.0
 10
9.7116765754
 20
8.8311865481
 30
0.0
 10
9.7241009168
 20
8.8330681586
 30
0.0
 10
9.7364772608
 20
8.8354254411
 30
0.0
 10
9.7529006135
 20
8.8391913589
 30
0.0
 10
9.7732039953
 20
8.845033345
 30
0.0
 10
9.7930726278
 20
8.8522901252
 30
0.0
 10
9.8086692911
 20
8.858893688
 30
0.0
 10
9.8240550936
 20
8.8660131103
 30
0.0
 10
9.8353330854
 20
8.87190897
 30
0.0
 10
9.842720378
 20
8.8760669569
 30
0.0
  0
SPLINE
  5
3C5
100
AcDbEntity
  8
0
100
AcDbSpline
 62
7
  6
CONTINUOUS
 70
0
 71
3
 72
19
 73
15
 74
0
 42
0.0000001
 43
0.0000001
 44
0.0000000001
 40
0.0
 40
0.0
 40
0.0
 40
0.0
 40
0.1227072696
 40
0.1844424246
 40
0.2464015442
 40
0.3085658774
 40
0.3709140018
 40
0.4334250024
 40
0.496077807
 40
0.6217038172
 40
0.7476535252
 40
0.8107134358
 40
0.873802511
 40
1.0
 40
1.0
 40
1.0
 40
1.0
 10
11.5814505197
 20
8.695285504
 30
0.0
 10
11.5896734042
 20
8.6947152451
 30
0.0
 10
11.6020763801
 20
8.6943704919
 30
0.0
 10
11.6186219783
 20
8.6949110857
 30
0.0
 10
11.6310774651
 20
8.6958154946
 30
0.0
 10
11.6435283424
 20
8.697212173
 30
0.0
 10
11.6559526839
 20
8.6990937835
 30
0.0
 10
11.6683290279
 20
8.701451066
 30
0.0
 10
11.6847523805
 20
8.7052169838
 30
0.0
 10
11.7050557623
 20
8.7110589699
 30
0.0
 10
11.7249243949
 20
8.7183157502
 30
0.0
 10
11.7405210581
 20
8.724919313
 30
0.0
 10
11.7559068607
 20
8.7320387352
 30
0.0
 10
11.7671848525
 20
8.737934595
 30
0.0
 10
11.774572145
 20
8.7420925819
 30
0.0
  0
SPLINE
  5
3C6
100
AcDbEntity
  8
0
100
AcDbSpline
 62
7
  6
CONTINUOUS
 70
0
 71
3
 72
39
 73
35
 74
0
 42
0.0000001
 43
0.0000001
 44
0.0000000001
 40
0.0
 40
0.0
 40
0.0
 40
0.0
 40
0.0311450424
 40
0.062443103
 40
0.093888348
 40
0.1254709887
 40
0.1571788844
 40
0.1889972605
 40
0.2209091753
 40
0.252895844
 40
0.2849370233
 40
0.3170114137
 40
0.3490970737
 40
0.3811718446
 40
0.413213777
 40
0.4452015562
 40
0.4771149179
 40
0.5089350501
 40
0.540644973
 40
0.572229893
 40
0.6036775227
 40
0.6349783628
 40
0.666125934
 40
0.6971169547
 40
0.7279514582
 40
0.7586328418
 40
0.7891678433
 40
0.8195664429
 40
0.8498416839
 40
0.8800094159
 40
0.9100879624
 40
0.9400977195
 40
0.9700606952
 40
1.0
 40
1.0
 40
1.0
 40
1.0
 10
9.4082501819
 20
9.3959216793
 30
0.0
 10
9.4189351029
 20
9.3951806775
 30
0.0
 10
9.440311154
 20
9.3929129453
 30
0.0
 10
9.4721160789
 20
9.3872004309
 30
0.0
 10
9.5035803404
 20
9.3791989498
 30
0.0
 10
9.5345340201
 20
9.36895148
 30
0.0
 10
9.5648126601
 20
9.3565129789
 30
0.0
 10
9.5942547487
 20
9.3419499593
 30
0.0
 10
9.6227034354
 20
9.3253402408
 30
0.0
 10
9.6500071321
 20
9.3067725155
 30
0.0
 10
9.6760203698
 20
9.2863458677
 30
0.0
 10
9.7006045418
 20
9.264169243
 30
0.0
 10
9.7236286384
 20
9.2403608738
 30
0.0
 10
9.7449699362
 20
9.2150476563
 30
0.0
 10
9.7645146419
 20
9.1883644798
 30
0.0
 10
9.7821585161
 20
9.1604535319
 30
0.0
 10
9.7978074138
 20
9.1314635356
 30
0.0
 10
9.8113777738
 20
9.1015489617
 30
0.0
 10
9.822797064
 20
9.0708692184
 30
0.0
 10
9.8320041683
 20
9.0395878143
 30
0.0
 10
9.8389497098
 20
9.0078714987
 30
0.0
 10
9.8435963451
 20
8.9758893905
 30
0.0
 10
9.8459189627
 20
8.9438120825
 30
0.0
 10
9.845904813
 20
8.9118107402
 30
0.0
 10
9.8435535935
 20
8.8800562015
 30
0.0
 10
9.8388774676
 20
8.8487180721
 30
0.0
 10
9.8319010165
 20
8.8179638266
 30
0.0
 10
9.8226611465
 20
8.787957905
 30
0.0
 10
9.8112069285
 20
8.7588608371
 30
0.0
 10
9.7975992783
 20
8.7308283237
 30
0.0
 10
9.7819108601
 20
8.7040105899
 30
0.0
 10
9.764224941
 20
8.6785508071
 30
0.0
 10
9.7446378115
 20
8.6545871094
 30
0.0
 10
9.7303758073
 20
8.6396879904
 30
0.0
 10
9.7229703909
 20
8.6325349374
 30
0.0
  0
SPLINE
  5
3C7
100
AcDbEntity
  8
0
100
AcDbSpline
 62
7
  6
CONTINUOUS
 70
0
 71
3
 72
23
 73
19
 74
0
 42
0.0000001
 43
0.0000001
 44
0.0000000001
 40
0.0
 40
0.0
 40
0.0
 40
0.0
 40
0.0638614315
 40
0.1275032443
 40
0.1909230334
 40
0.2541276741
 40
0.3171224002
 40
0.379915926
 40
0.4425188184
 40
0.5049436646
 40
0.5672049931
 40
0.6293190762
 40
0.6913037914
 40
0.7531784355
 40
0.8149635211
 40
0.876680553
 40
0.9383517903
 40
1.0
 40
1.0
 40
1.0
 40
1.0
 10
9.4082501819
 20
9.3959216793
 30
0.0
 10
9.4009461191
 20
9.3964282177
 30
0.0
 10
9.3863352176
 20
9.3970761553
 30
0.0
 10
9.3644377556
 20
9.3969456806
 30
0.0
 10
9.3426494828
 20
9.3957113177
 30
0.0
 10
9.3210262195
 20
9.3933763369
 30
0.0
 10
9.2996219909
 20
9.3899463824
 30
0.0
 10
9.2784908317
 20
9.3854300825
 30
0.0
 10
9.2576859158
 20
9.3798387547
 30
0.0
 10
9.2372596469
 20
9.3731864332
 30
0.0
 10
9.2172634784
 20
9.3654898235
 30
0.0
 10
9.1977477931
 20
9.3567682484
 30
0.0
 10
9.17876178
 20
9.3470436216
 30
0.0
 10
9.1603532639
 20
9.3363404167
 30
0.0
 10
9.1425686731
 20
9.3246856189
 30
0.0
 10
9.1254526769
 20
9.3121084152
 30
0.0
 10
9.1090489876
 20
9.2986410409
 30
0.0
 10
9.0986135768
 20
9.2890899343
 30
0.0
 10
9.0935299729
 20
9.2841795706
 30
0.0
  0
SPLINE
  5
3C8
100
AcDbEntity
  8
0
100
AcDbSpline
 62
7
  6
CONTINUOUS
 70
0
 71
3
 72
39
 73
35
 74
0
 42
0.0000001
 43
0.0000001
 44
0.0000000001
 40
0.0
 40
0.0
 40
0.0
 40
0.0
 40
0.0311450424
 40
0.062443103
 40
0.093888348
 40
0.1254709887
 40
0.1571788844
 40
0.1889972605
 40
0.2209091753
 40
0.252895844
 40
0.2849370233
 40
0.3170114137
 40
0.3490970737
 40
0.3811718446
 40
0.413213777
 40
0.4452015562
 40
0.4771149179
 40
0.5089350501
 40
0.540644973
 40
0.572229893
 40
0.6036775227
 40
0.6349783628
 40
0.666125934
 40
0.6971169547
 40
0.7279514582
 40
0.7586328418
 40
0.7891678433
 40
0.8195664429
 40
0.8498416839
 40
0.8800094159
 40
0.9100879624
 40
0.9400977195
 40
0.9700606952
 40
1.0
 40
1.0
 40
1.0
 40
1.0
 10
11.3401019489
 20
9.2619473042
 30
0.0
 10
11.3507868699
 20
9.2612063024
 30
0.0
 10
11.372162921
 20
9.2589385702
 30
0.0
 10
11.4039678459
 20
9.2532260558
 30
0.0
 10
11.4354321074
 20
9.2452245747
 30
0.0
 10
11.4663857872
 20
9.234977105
 30
0.0
 10
11.4966644272
 20
9.2225386038
 30
0.0
 10
11.5261065158
 20
9.2079755842
 30
0.0
 10
11.5545552024
 20
9.1913658657
 30
0.0
 10
11.5818588991
 20
9.1727981404
 30
0.0
 10
11.6078721369
 20
9.1523714927
 30
0.0
 10
11.6324563089
 20
9.1301948679
 30
0.0
 10
11.6554804054
 20
9.1063864987
 30
0.0
 10
11.6768217033
 20
9.0810732813
 30
0.0
 10
11.6963664089
 20
9.0543901048
 30
0.0
 10
11.7140102832
 20
9.0264791568
 30
0.0
 10
11.7296591808
 20
8.9974891605
 30
0.0
 10
11.7432295409
 20
8.9675745866
 30
0.0
 10
11.7546488311
 20
8.9368948433
 30
0.0
 10
11.7638559353
 20
8.9056134393
 30
0.0
 10
11.7708014769
 20
8.8738971236
 30
0.0
 10
11.7754481121
 20
8.8419150155
 30
0.0
 10
11.7777707297
 20
8.8098377074
 30
0.0
 10
11.7777565801
 20
8.7778363651
 30
0.0
 10
11.7754053606
 20
8.7460818264
 30
0.0
 10
11.7707292347
 20
8.714743697
 30
0.0
 10
11.7637527835
 20
8.6839894515
 30
0.0
 10
11.7545129136
 20
8.6539835299
 30
0.0
 10
11.7430586956
 20
8.6248864621
 30
0.0
 10
11.7294510454
 20
8.5968539486
 30
0.0
 10
11.7137626271
 20
8.5700362148
 30
0.0
 10
11.6960767081
 20
8.5445764321
 30
0.0
 10
11.6764895786
 20
8.5206127343
 30
0.0
 10
11.6622275743
 20
8.5057136153
 30
0.0
 10
11.6548221579
 20
8.4985605624
 30
0.0
  0
SPLINE
  5
3C9
100
AcDbEntity
  8
0
100
AcDbSpline
 62
7
  6
CONTINUOUS
 70
0
 71
3
 72
23
 73
19
 74
0
 42
0.0000001
 43
0.0000001
 44
0.0000000001
 40
0.0
 40
0.0
 40
0.0
 40
0.0
 40
0.0638614315
 40
0.1275032443
 40
0.1909230334
 40
0.2541276741
 40
0.3171224002
 40
0.379915926
 40
0.4425188184
 40
0.5049436646
 40
0.5672049931
 40
0.6293190762
 40
0.6913037914
 40
0.7531784355
 40
0.8149635211
 40
0.876680553
 40
0.9383517903
 40
1.0
 40
1.0
 40
1.0
 40
1.0
 10
11.3401019489
 20
9.2619473042
 30
0.0
 10
11.3327978861
 20
9.2624538426
 30
0.0
 10
11.3181869846
 20
9.2631017802
 30
0.0
 10
11.2962895226
 20
9.2629713055
 30
0.0
 10
11.2745012498
 20
9.2617369426
 30
0.0
 10
11.2528779865
 20
9.2594019618
 30
0.0
 10
11.2314737579
 20
9.2559720073
 30
0.0
 10
11.2103425988
 20
9.2514557075
 30
0.0
 10
11.1895376828
 20
9.2458643796
 30
0.0
 10
11.1691114139
 20
9.2392120582
 30
0.0
 10
11.1491152454
 20
9.2315154484
 30
0.0
 10
11.1295995602
 20
9.2227938733
 30
0.0
 10
11.110613547
 20
9.2130692465
 30
0.0
 10
11.092205031
 20
9.2023660416
 30
0.0
 10
11.0744204401
 20
9.1907112438
 30
0.0
 10
11.0573044439
 20
9.1781340402
 30
0.0
 10
11.0409007546
 20
9.1646666658
 30
0.0
 10
11.0304653438
 20
9.1551155592
 30
0.0
 10
11.0253817399
 20
9.1502051955
 30
0.0
  0
SPLINE
  5
3CA
100
AcDbEntity
  8
0
100
AcDbSpline
 62
7
  6
CONTINUOUS
 70
0
 71
3
 72
39
 73
35
 74
0
 42
0.0000001
 43
0.0000001
 44
0.0000000001
 40
0.0
 40
0.0
 40
0.0
 40
0.0
 40
0.0311450474
 40
0.0624431122
 40
0.0938883415
 40
0.1254709904
 40
0.157178884
 40
0.1889972611
 40
0.2209091755
 40
0.2528958437
 40
0.2849370231
 40
0.3170114138
 40
0.3490970738
 40
0.3811718446
 40
0.413213777
 40
0.4452015561
 40
0.477114918
 40
0.5089350506
 40
0.5406449736
 40
0.5722298927
 40
0.6036775219
 40
0.6349783626
 40
0.6661259349
 40
0.6971169558
 40
0.7279514584
 40
0.7586328412
 40
0.7891678431
 40
0.8195664432
 40
0.8498416843
 40
0.8800094163
 40
0.9100879629
 40
0.9400977199
 40
0.9700606953
 40
1.0
 40
1.0
 40
1.0
 40
1.0
 10
9.6365318877
 20
7.8808307636
 30
0.0
 10
9.6492688816
 20
7.8799474501
 30
0.0
 10
9.6747502705
 20
7.8772441891
 30
0.0
 10
9.7126634242
 20
7.8704345744
 30
0.0
 10
9.7501704903
 20
7.8608963884
 30
0.0
 10
9.787068919
 20
7.8486808802
 30
0.0
 10
9.8231626576
 20
7.8338535069
 30
0.0
 10
9.8582591764
 20
7.8164935967
 30
0.0
 10
9.8921715214
 20
7.7966939388
 30
0.0
 10
9.9247189892
 20
7.7745602486
 30
0.0
 10
9.9557281528
 20
7.7502106086
 30
0.0
 10
9.9850337761
 20
7.7237748827
 30
0.0
 10
10.0124797093
 20
7.6953940359
 30
0.0
 10
10.0379196673
 20
7.6652193403
 30
0.0
 10
10.0612180045
 20
7.6334115892
 30
0.0
 10
10.0822504349
 20
7.6001402584
 30
0.0
 10
10.1009047495
 20
7.5655826464
 30
0.0
 10
10.1170813427
 20
7.5299228914
 30
0.0
 10
10.1306937474
 20
7.4933510137
 30
0.0
 10
10.1416690828
 20
7.4560619167
 30
0.0
 10
10.1499485264
 20
7.4182543868
 30
0.0
 10
10.1554875767
 20
7.3801300215
 30
0.0
 10
10.1582562844
 20
7.3418921715
 30
0.0
 10
10.1582394153
 20
7.3037448749
 30
0.0
 10
10.1554366125
 20
7.2658917846
 30
0.0
 10
10.1498624089
 20
7.2285350771
 30
0.0
 10
10.1415461229
 20
7.1918743844
 30
0.0
 10
10.1305317277
 20
7.1561057293
 30
0.0
 10
10.1168776858
 20
7.1214204847
 30
0.0
 10
10.1006566407
 20
7.0880042461
 30
0.0
 10
10.0819552166
 20
7.0560360854
 30
0.0
 10
10.0608726636
 20
7.025686676
 30
0.0
 10
10.0375237626
 20
6.997120681
 30
0.0
 10
10.0205226801
 20
6.9793601611
 30
0.0
 10
10.0116950462
 20
6.9708333277
 30
0.0
  0
SPLINE
  5
3CB
100
AcDbEntity
  8
0
100
AcDbSpline
 62
7
  6
CONTINUOUS
 70
0
 71
3
 72
23
 73
19
 74
0
 42
0.0000001
 43
0.0000001
 44
0.0000000001
 40
0.0
 40
0.0
 40
0.0
 40
0.0
 40
0.0638617654
 40
0.1275030803
 40
0.1909230764
 40
0.2541276764
 40
0.317122389
 40
0.3799159305
 40
0.4425188195
 40
0.5049436701
 40
0.5672049961
 40
0.6293190749
 40
0.6913037887
 40
0.7531784352
 40
0.8149635246
 40
0.8766805577
 40
0.9383517929
 40
1.0
 40
1.0
 40
1.0
 40
1.0
 10
9.6365318877
 20
7.8808307636
 30
0.0
 10
9.6278250122
 20
7.8814345875
 30
0.0
 10
9.6104080663
 20
7.8822069812
 30
0.0
 10
9.5843051258
 20
7.8820514181
 30
0.0
 10
9.5583323944
 20
7.8805800156
 30
0.0
 10
9.5325562999
 20
7.8777965706
 30
0.0
 10
9.507041332
 20
7.8737078786
 30
0.0
 10
9.4818518655
 20
7.8683242357
 30
0.0
 10
9.457051298
 20
7.8616590859
 30
0.0
 10
9.4327021057
 20
7.8537291583
 30
0.0
 10
9.4088656216
 20
7.844554371
 30
0.0
 10
9.3856018978
 20
7.8341577794
 30
0.0
 10
9.3629695559
 20
7.8225655268
 30
0.0
 10
9.3410256178
 20
7.8098067578
 30
0.0
 10
9.3198254396
 20
7.7959136243
 30
0.0
 10
9.299422275
 20
7.780920916
 30
0.0
 10
9.2798682294
 20
7.7648670691
 30
0.0
 10
9.2674286439
 20
7.7534816692
 30
0.0
 10
9.2613687292
 20
7.7476282453
 30
0.0
  0
SPLINE
  5
3CC
100
AcDbEntity
  8
0
100
AcDbSpline
 62
7
  6
CONTINUOUS
 70
0
 71
3
 72
39
 73
35
 74
0
 42
0.0000001
 43
0.0000001
 44
0.0000000001
 40
0.0
 40
0.0
 40
0.0
 40
0.0
 40
0.0311450474
 40
0.0624431122
 40
0.0938883415
 40
0.1254709904
 40
0.157178884
 40
0.1889972611
 40
0.2209091755
 40
0.2528958437
 40
0.2849370231
 40
0.3170114138
 40
0.3490970738
 40
0.3811718446
 40
0.413213777
 40
0.4452015561
 40
0.477114918
 40
0.5089350506
 40
0.5406449736
 40
0.5722298927
 40
0.6036775219
 40
0.6349783626
 40
0.6661259349
 40
0.6971169558
 40
0.7279514584
 40
0.7586328412
 40
0.7891678431
 40
0.8195664432
 40
0.8498416843
 40
0.8800094163
 40
0.9100879629
 40
0.9400977199
 40
0.9700606953
 40
1.0
 40
1.0
 40
1.0
 40
1.0
 10
11.085420713
 20
7.7803499823
 30
0.0
 10
11.0981577069
 20
7.7794666688
 30
0.0
 10
11.1236390958
 20
7.7767634078
 30
0.0
 10
11.1615522495
 20
7.7699537931
 30
0.0
 10
11.1990593156
 20
7.760415607
 30
0.0
 10
11.2359577443
 20
7.7482000988
 30
0.0
 10
11.2720514829
 20
7.7333727256
 30
0.0
 10
11.3071480017
 20
7.7160128154
 30
0.0
 10
11.3410603467
 20
7.6962131575
 30
0.0
 10
11.3736078145
 20
7.6740794673
 30
0.0
 10
11.404616978
 20
7.6497298273
 30
0.0
 10
11.4339226014
 20
7.6232941014
 30
0.0
 10
11.4613685346
 20
7.5949132546
 30
0.0
 10
11.4868084926
 20
7.5647385589
 30
0.0
 10
11.5101068298
 20
7.5329308079
 30
0.0
 10
11.5311392602
 20
7.4996594771
 30
0.0
 10
11.5497935748
 20
7.4651018651
 30
0.0
 10
11.565970168
 20
7.4294421101
 30
0.0
 10
11.5795825727
 20
7.3928702324
 30
0.0
 10
11.590557908
 20
7.3555811354
 30
0.0
 10
11.5988373517
 20
7.3177736055
 30
0.0
 10
11.604376402
 20
7.2796492402
 30
0.0
 10
11.6071451097
 20
7.2414113901
 30
0.0
 10
11.6071282406
 20
7.2032640936
 30
0.0
 10
11.6043254378
 20
7.1654110033
 30
0.0
 10
11.5987512342
 20
7.1280542958
 30
0.0
 10
11.5904349482
 20
7.0913936031
 30
0.0
 10
11.579420553
 20
7.055624948
 30
0.0
 10
11.5657665111
 20
7.0209397034
 30
0.0
 10
11.5495454659
 20
6.9875234648
 30
0.0
 10
11.5308440419
 20
6.9555553041
 30
0.0
 10
11.5097614889
 20
6.9252058947
 30
0.0
 10
11.4864125879
 20
6.8966398997
 30
0.0
 10
11.4694115054
 20
6.8788793798
 30
0.0
 10
11.4605838715
 20
6.8703525464
 30
0.0
  0
SPLINE
  5
3CD
100
AcDbEntity
  8
0
100
AcDbSpline
 62
7
  6
CONTINUOUS
 70
0
 71
3
 72
23
 73
19
 74
0
 42
0.0000001
 43
0.0000001
 44
0.0000000001
 40
0.0
 40
0.0
 40
0.0
 40
0.0
 40
0.0638617654
 40
0.1275030803
 40
0.1909230764
 40
0.2541276764
 40
0.317122389
 40
0.3799159305
 40
0.4425188195
 40
0.5049436701
 40
0.5672049961
 40
0.6293190749
 40
0.6913037887
 40
0.7531784352
 40
0.8149635246
 40
0.8766805577
 40
0.9383517929
 40
1.0
 40
1.0
 40
1.0
 40
1.0
 10
11.085420713
 20
7.7803499823
 30
0.0
 10
11.0767138375
 20
7.7809538062
 30
0.0
 10
11.0592968916
 20
7.7817261999
 30
0.0
 10
11.0331939511
 20
7.7815706368
 30
0.0
 10
11.0072212197
 20
7.7800992343
 30
0.0
 10
10.9814451252
 20
7.7773157892
 30
0.0
 10
10.9559301573
 20
7.7732270973
 30
0.0
 10
10.9307406908
 20
7.7678434543
 30
0.0
 10
10.9059401233
 20
7.7611783046
 30
0.0
 10
10.881590931
 20
7.7532483769
 30
0.0
 10
10.8577544468
 20
7.7440735897
 30
0.0
 10
10.8344907231
 20
7.7336769981
 30
0.0
 10
10.8118583812
 20
7.7220847455
 30
0.0
 10
10.7899144431
 20
7.7093259765
 30
0.0
 10
10.7687142649
 20
7.6954328429
 30
0.0
 10
10.7483111003
 20
7.6804401346
 30
0.0
 10
10.7287570547
 20
7.6643862878
 30
0.0
 10
10.7163174692
 20
7.6530008879
 30
0.0
 10
10.7102575544
 20
7.647147464
 30
0.0
  0
LINE
  5
3CE
100
AcDbEntity
  8
0
100
AcDbLine
 62
7
  6
CONTINUOUS
 10
10.9723969455
 20
7.7752785486
 11
10.9726748524
 21
7.7756381946
  0
SPLINE
  5
3CF
100
AcDbEntity
  8
0
100
AcDbSpline
 62
7
  6
CONTINUOUS
 70
0
 71
3
 72
18
 73
14
 74
0
 42
0.0000001
 43
0.0000001
 44
0.0000000001
 40
0.0
 40
0.0
 40
0.0
 40
0.0
 40
0.0548626421
 40
0.1099292106
 40
0.1654012798
 40
0.2214755109
 40
0.3361334555
 40
0.4553634493
 40
0.5171048472
 40
0.5804364723
 40
0.7123312612
 40
0.8519581829
 40
1.0
 40
1.0
 40
1.0
 40
1.0
 10
10.3108553581
 20
10.1238484239
 30
0.0
 10
10.3108553581
 20
10.1230857935
 30
0.0
 10
10.310806963
 20
10.1215572576
 30
0.0
 10
10.3105893397
 20
10.1192669518
 30
0.0
 10
10.3102266595
 20
10.1169779217
 30
0.0
 10
10.3095451889
 20
10.1139065471
 30
0.0
 10
10.3083174699
 20
10.1100570629
 30
0.0
 10
10.3066360149
 20
10.1062984522
 30
0.0
 10
10.3050180576
 20
10.1033113845
 30
0.0
 10
10.3031654233
 20
10.100255858
 30
0.0
 10
10.3004753611
 20
10.0964490872
 30
0.0
 10
10.2967249191
 20
10.0919755498
 30
0.0
 10
10.2939354978
 20
10.0891050535
 30
0.0
 10
10.2924553523
 20
10.0876753426
 30
0.0
  0
SPLINE
  5
3D0
100
AcDbEntity
  8
0
100
AcDbSpline
 62
7
  6
CONTINUOUS
 70
0
 71
3
 72
18
 73
14
 74
0
 42
0.0000001
 43
0.0000001
 44
0.0000000001
 40
0.0
 40
0.0
 40
0.0
 40
0.0
 40
0.0548626421
 40
0.1099292106
 40
0.1654012798
 40
0.2214755109
 40
0.3361334555
 40
0.4553634493
 40
0.5171048472
 40
0.5804364723
 40
0.7123312612
 40
0.8519581829
 40
1.0
 40
1.0
 40
1.0
 40
1.0
 10
12.2427071252
 20
9.9898740488
 30
0.0
 10
12.2427071251
 20
9.9891114185
 30
0.0
 10
12.2426587301
 20
9.9875828825
 30
0.0
 10
12.2424411068
 20
9.9852925767
 30
0.0
 10
12.2420784266
 20
9.9830035466
 30
0.0
 10
12.2413969559
 20
9.979932172
 30
0.0
 10
12.240169237
 20
9.9760826878
 30
0.0
 10
12.2384877819
 20
9.9723240771
 30
0.0
 10
12.2368698246
 20
9.9693370094
 30
0.0
 10
12.2350171903
 20
9.9662814829
 30
0.0
 10
12.2323271281
 20
9.9624747121
 30
0.0
 10
12.2285766861
 20
9.9580011748
 30
0.0
 10
12.2257872649
 20
9.9551306784
 30
0.0
 10
12.2243071194
 20
9.9537009676
 30
0.0
  0
SPLINE
  5
3D1
100
AcDbEntity
  8
0
100
AcDbSpline
 62
7
  6
CONTINUOUS
 70
0
 71
3
 72
38
 73
34
 74
0
 42
0.0000001
 43
0.0000001
 44
0.0000000001
 40
0.0
 40
0.0
 40
0.0
 40
0.0
 40
0.0252612194
 40
0.051597917
 40
0.0791736239
 40
0.1080970901
 40
0.1383868021
 40
0.1699393201
 40
0.2025246303
 40
0.2358223648
 40
0.2694891395
 40
0.3032246282
 40
0.3368082216
 40
0.3701023941
 40
0.4030376102
 40
0.4355923576
 40
0.4995981408
 40
0.5311321806
 40
0.5624042286
 40
0.5934612426
 40
0.6243521816
 40
0.6551273374
 40
0.6858380347
 40
0.7165363502
 40
0.7472746927
 40
0.7781050408
 40
0.8090776894
 40
0.8402395408
 40
0.8716318312
 40
0.9032876853
 40
0.9352298376
 40
0.9674680724
 40
1.0
 40
1.0
 40
1.0
 40
1.0
 10
9.3562968163
 20
9.3964489549
 30
0.0
 10
9.3542084614
 20
9.3907078794
 30
0.0
 10
9.3503422146
 20
9.3788326091
 30
0.0
 10
9.3455707427
 20
9.3602780542
 30
0.0
 10
9.3417260285
 20
9.3406066102
 30
0.0
 10
9.3388219127
 20
9.3198101876
 30
0.0
 10
9.3368754361
 20
9.2979376547
 30
0.0
 10
9.3359023304
 20
9.2751147643
 30
0.0
 10
9.3359114546
 20
9.2515443609
 30
0.0
 10
9.3369012473
 20
9.2274834438
 30
0.0
 10
9.3388601339
 20
9.2032031177
 30
0.0
 10
9.341770628
 20
9.178948801
 30
0.0
 10
9.3456147944
 20
9.1549158746
 30
0.0
 10
9.3503788753
 20
9.1312456055
 30
0.0
 10
9.3560564218
 20
9.1080324221
 30
0.0
 10
9.3647939784
 20
9.0779522944
 30
0.0
 10
9.3754137446
 20
9.0487937254
 30
0.0
 10
9.3880076331
 20
9.0208195649
 30
0.0
 10
9.3983812698
 20
9.0006166959
 30
0.0
 10
9.409750552
 20
8.9811362858
 30
0.0
 10
9.422138594
 20
8.9624297662
 30
0.0
 10
9.4355669103
 20
8.9445585668
 30
0.0
 10
9.4500539969
 20
8.927593791
 30
0.0
 10
9.4656129817
 20
8.9116168017
 30
0.0
 10
9.482249018
 20
8.8967189023
 30
0.0
 10
9.499956216
 20
8.8830004213
 30
0.0
 10
9.5187142723
 20
8.8705688567
 30
0.0
 10
9.538484992
 20
8.8595359311
 30
0.0
 10
9.5592092234
 20
8.8500133914
 30
0.0
 10
9.5808044213
 20
8.8421075679
 30
0.0
 10
9.6031646853
 20
8.8359132294
 30
0.0
 10
9.6261592826
 20
8.8315070451
 30
0.0
 10
9.6417501693
 20
8.8298041802
 30
0.0
 10
9.6495987526
 20
8.8292598791
 30
0.0
  0
SPLINE
  5
3D2
100
AcDbEntity
  8
0
100
AcDbSpline
 62
7
  6
CONTINUOUS
 70
0
 71
3
 72
38
 73
34
 74
0
 42
0.0000001
 43
0.0000001
 44
0.0000000001
 40
0.0
 40
0.0
 40
0.0
 40
0.0
 40
0.0252612194
 40
0.051597917
 40
0.0791736239
 40
0.1080970901
 40
0.1383868021
 40
0.1699393201
 40
0.2025246303
 40
0.2358223648
 40
0.2694891395
 40
0.3032246282
 40
0.3368082216
 40
0.3701023941
 40
0.4030376102
 40
0.4355923576
 40
0.4995981408
 40
0.5311321806
 40
0.5624042286
 40
0.5934612426
 40
0.6243521816
 40
0.6551273374
 40
0.6858380347
 40
0.7165363502
 40
0.7472746927
 40
0.7781050408
 40
0.8090776894
 40
0.8402395408
 40
0.8716318312
 40
0.9032876853
 40
0.9352298376
 40
0.9674680724
 40
1.0
 40
1.0
 40
1.0
 40
1.0
 10
11.2881485833
 20
9.2624745798
 30
0.0
 10
11.2860602285
 20
9.2567335043
 30
0.0
 10
11.2821939817
 20
9.244858234
 30
0.0
 10
11.2774225098
 20
9.2263036791
 30
0.0
 10
11.2735777956
 20
9.2066322351
 30
0.0
 10
11.2706736797
 20
9.1858358125
 30
0.0
 10
11.2687272032
 20
9.1639632796
 30
0.0
 10
11.2677540975
 20
9.1411403892
 30
0.0
 10
11.2677632217
 20
9.1175699859
 30
0.0
 10
11.2687530143
 20
9.0935090687
 30
0.0
 10
11.2707119009
 20
9.0692287426
 30
0.0
 10
11.273622395
 20
9.044974426
 30
0.0
 10
11.2774665615
 20
9.0209414995
 30
0.0
 10
11.2822306424
 20
8.9972712304
 30
0.0
 10
11.2879081888
 20
8.974058047
 30
0.0
 10
11.2966457455
 20
8.9439779193
 30
0.0
 10
11.3072655116
 20
8.9148193503
 30
0.0
 10
11.3198594001
 20
8.8868451898
 30
0.0
 10
11.3302330369
 20
8.8666423208
 30
0.0
 10
11.341602319
 20
8.8471619107
 30
0.0
 10
11.353990361
 20
8.8284553911
 30
0.0
 10
11.3674186774
 20
8.8105841917
 30
0.0
 10
11.3819057639
 20
8.7936194159
 30
0.0
 10
11.3974647487
 20
8.7776424266
 30
0.0
 10
11.414100785
 20
8.7627445273
 30
0.0
 10
11.431807983
 20
8.7490260462
 30
0.0
 10
11.4505660394
 20
8.7365944816
 30
0.0
 10
11.4703367591
 20
8.725561556
 30
0.0
 10
11.4910609905
 20
8.7160390163
 30
0.0
 10
11.5126561883
 20
8.7081331929
 30
0.0
 10
11.5350164523
 20
8.7019388543
 30
0.0
 10
11.5580110496
 20
8.6975326701
 30
0.0
 10
11.5736019363
 20
8.6958298052
 30
0.0
 10
11.5814505197
 20
8.695285504
 30
0.0
  0
SPLINE
  5
3D3
100
AcDbEntity
  8
0
100
AcDbSpline
 62
7
  6
CONTINUOUS
 70
0
 71
3
 72
10
 73
6
 74
0
 42
0.0000001
 43
0.0000001
 44
0.0000000001
 40
0.0
 40
0.0
 40
0.0
 40
0.0
 40
0.2452629948
 40
0.4932227266
 40
1.0
 40
1.0
 40
1.0
 40
1.0
 10
9.5455968774
 20
7.8792156027
 30
0.0
 10
9.5441676193
 20
7.8752988124
 30
0.0
 10
9.5414424728
 20
7.8673667566
 30
0.0
 10
9.5365112353
 20
7.851095267
 30
0.0
 10
9.5334495612
 20
7.8386219267
 30
0.0
 10
9.5316643143
 20
7.8301938294
 30
0.0
  0
SPLINE
  5
3D4
100
AcDbEntity
  8
0
100
AcDbSpline
 62
7
  6
CONTINUOUS
 70
0
 71
3
 72
53
 73
49
 74
0
 42
0.0000001
 43
0.0000001
 44
0.0000000001
 40
0.0
 40
0.0
 40
0.0
 40
0.0
 40
0.0105529078
 40
0.0206381245
 40
0.0302965813
 40
0.0395748251
 40
0.0485253175
 40
0.0572054303
 40
0.0656772864
 40
0.0740059075
 40
0.0822583991
 40
0.0905015631
 40
0.0988007319
 40
0.1072176453
 40
0.1158095595
 40
0.1246280915
 40
0.1337189148
 40
0.1431216649
 40
0.1528699823
 40
0.1629921746
 40
0.1735112159
 40
0.1844458474
 40
0.195810306
 40
0.2076156394
 40
0.2198691119
 40
0.2325755743
 40
0.2457366957
 40
0.2593521887
 40
0.2879261307
 40
0.3182591527
 40
0.3502779488
 40
0.3838859688
 40
0.4189683703
 40
0.4553976877
 40
0.4930397065
 40
0.5317594707
 40
0.5714266618
 40
0.6119199507
 40
0.6531300631
 40
0.6949615254
 40
0.7373333758
 40
0.7801787584
 40
0.8234438996
 40
0.8670867325
 40
0.9110749845
 40
0.9331933531
 40
0.9553893449
 40
1.0
 40
1.0
 40
1.0
 40
1.0
 10
11.179687312
 20
7.3250353378
 30
0.0
 10
11.1796874533
 20
7.3232126916
 30
0.0
 10
11.1795954063
 20
7.319647199
 30
0.0
 10
11.1791522446
 20
7.3144300793
 30
0.0
 10
11.1784028047
 20
7.3094699322
 30
0.0
 10
11.1773442538
 20
7.304766598
 30
0.0
 10
11.1759740246
 20
7.3003203755
 30
0.0
 10
11.1742910232
 20
7.296132067
 30
0.0
 10
11.1722947358
 20
7.2922033297
 30
0.0
 10
11.1699860407
 20
7.2885362795
 30
0.0
 10
11.1673667052
 20
7.2851337661
 30
0.0
 10
11.164439701
 20
7.2819989492
 30
0.0
 10
11.1612089162
 20
7.2791354379
 30
0.0
 10
11.1576790964
 20
7.2765470997
 30
0.0
 10
11.1538557239
 20
7.2742381565
 30
0.0
 10
11.149744902
 20
7.2722132444
 30
0.0
 10
11.1453533814
 20
7.2704774538
 30
0.0
 10
11.140688568
 20
7.2690364394
 30
0.0
 10
11.135758587
 20
7.2678963881
 30
0.0
 10
11.1305724044
 20
7.267064032
 30
0.0
 10
11.1251398352
 20
7.2665465914
 30
0.0
 10
11.119471722
 20
7.2663516664
 30
0.0
 10
11.1135798662
 20
7.2664871849
 30
0.0
 10
11.1074772316
 20
7.2669612253
 30
0.0
 10
11.1011778066
 20
7.2677819381
 30
0.0
 10
11.0946968552
 20
7.2689573678
 30
0.0
 10
11.0880505435
 20
7.270495319
 30
0.0
 10
11.0788439366
 20
7.2730807732
 30
0.0
 10
11.0670278442
 20
7.2772900103
 30
0.0
 10
11.0527210128
 20
7.2838087149
 30
0.0
 10
11.0382373536
 20
7.2919028966
 30
0.0
 10
11.0237618754
 20
7.3015793873
 30
0.0
 10
11.0094827505
 20
7.3128216906
 30
0.0
 10
10.9955866342
 20
7.3255883882
 30
0.0
 10
10.9822519787
 20
7.3398143931
 30
0.0
 10
10.969643774
 20
7.3554137779
 30
0.0
 10
10.9579094899
 20
7.372283966
 30
0.0
 10
10.9471767875
 20
7.390310541
 30
0.0
 10
10.9375528498
 20
7.4093719977
 30
0.0
 10
10.929125095
 20
7.4293439579
 30
0.0
 10
10.9219628385
 20
7.4501025252
 30
0.0
 10
10.9161194558
 20
7.4715265985
 30
0.0
 10
10.9116346508
 20
7.4934995409
 30
0.0
 10
10.9085365875
 20
7.5159090396
 30
0.0
 10
10.9071282349
 20
7.5348254654
 30
0.0
 10
10.9067050871
 20
7.5500729466
 30
0.0
 10
10.9067531671
 20
7.5654333336
 30
0.0
 10
10.9073214466
 20
7.5769672687
 30
0.0
 10
10.9079323828
 20
7.5846479417
 30
0.0
  0
SPLINE
  5
3D5
100
AcDbEntity
  8
0
100
AcDbSpline
 62
7
  6
CONTINUOUS
 70
0
 71
3
 72
15
 73
11
 74
0
 42
0.0000001
 43
0.0000001
 44
0.0000000001
 40
0.0
 40
0.0
 40
0.0
 40
0.0
 40
0.1081481156
 40
0.2181275745
 40
0.3316716241
 40
0.4503409609
 40
0.5754873735
 40
0.7082426213
 40
0.8495167778
 40
1.0
 40
1.0
 40
1.0
 40
1.0
 10
13.4635339909
 20
7.6196499847
 30
0.0
 10
13.4629619592
 20
7.6196896604
 30
0.0
 10
13.4618012672
 20
7.6196910201
 30
0.0
 10
13.4600534817
 20
7.6194574872
 30
0.0
 10
13.4582956926
 20
7.6189898396
 30
0.0
 10
13.4565307738
 20
7.6182898118
 30
0.0
 10
13.4547605062
 20
7.6173592406
 30
0.0
 10
13.4529864457
 20
7.6161999316
 30
0.0
 10
13.451210313
 20
7.6148137637
 30
0.0
 10
13.4500633007
 20
7.6137736875
 30
0.0
 10
13.4494894301
 20
7.613219371
 30
0.0
  0
SPLINE
  5
3D6
100
AcDbEntity
  8
0
100
AcDbSpline
 62
7
  6
CONTINUOUS
 70
0
 71
3
 72
15
 73
11
 74
0
 42
0.0000001
 43
0.0000001
 44
0.0000000001
 40
0.0
 40
0.0
 40
0.0
 40
0.0
 40
0.1081481156
 40
0.2181275745
 40
0.3316716241
 40
0.4503409609
 40
0.5754873735
 40
0.7082426213
 40
0.8495167778
 40
1.0
 40
1.0
 40
1.0
 40
1.0
 10
12.4282586649
 20
6.6196507507
 30
0.0
 10
12.4276866332
 20
6.6196904265
 30
0.0
 10
12.4265259412
 20
6.6196917861
 30
0.0
 10
12.4247781557
 20
6.6194582532
 30
0.0
 10
12.4230203666
 20
6.6189906056
 30
0.0
 10
12.4212554478
 20
6.6182905778
 30
0.0
 10
12.4194851802
 20
6.6173600066
 30
0.0
 10
12.4177111197
 20
6.6162006976
 30
0.0
 10
12.415934987
 20
6.6148145297
 30
0.0
 10
12.4147879747
 20
6.6137744535
 30
0.0
 10
12.414214104
 20
6.613220137
 30
0.0
  0
SPLINE
  5
3D7
100
AcDbEntity
  8
0
100
AcDbSpline
 62
7
  6
CONTINUOUS
 70
0
 71
3
 72
15
 73
11
 74
0
 42
0.0000001
 43
0.0000001
 44
0.0000000001
 40
0.0
 40
0.0
 40
0.0
 40
0.0
 40
0.1231511954
 40
0.2470862132
 40
0.3717334212
 40
0.4969896388
 40
0.6227033665
 40
0.7486581123
 40
0.8745534892
 40
1.0
 40
1.0
 40
1.0
 40
1.0
 10
10.9079323828
 20
7.5846479417
 30
0.0
 10
10.9085934629
 20
7.5929590234
 30
0.0
 10
10.9104644619
 20
7.6095956311
 30
0.0
 10
10.9148725592
 20
7.6343891497
 30
0.0
 10
10.9208607576
 20
7.6589963715
 30
0.0
 10
10.9283826324
 20
7.6833039676
 30
0.0
 10
10.9373738173
 20
7.7072009921
 30
0.0
 10
10.9477488225
 20
7.7305769754
 30
0.0
 10
10.9593972886
 20
7.7533228009
 30
0.0
 10
10.9679485652
 20
7.768044028
 30
0.0
 10
10.9723969455
 20
7.7752785486
 30
0.0
  0
SPLINE
  5
3D8
100
AcDbEntity
  8
0
100
AcDbSpline
 62
7
  6
CONTINUOUS
 70
0
 71
3
 72
11
 73
7
 74
0
 42
0.0000001
 43
0.0000001
 44
0.0000000001
 40
0.0
 40
0.0
 40
0.0
 40
0.0
 40
0.2461493188
 40
0.493857647
 40
0.7446524264
 40
1.0
 40
1.0
 40
1.0
 40
1.0
 10
9.2308553923
 20
10.1238484239
 30
0.0
 10
9.2308553924
 20
10.1248452342
 30
0.0
 10
9.2309382645
 20
10.1268461351
 30
0.0
 10
9.2313107961
 20
10.1298418393
 30
0.0
 10
9.2319312319
 20
10.1328341309
 30
0.0
 10
9.2325037166
 20
10.1348046927
 30
0.0
 10
9.2328288576
 20
10.135786305
 30
0.0
  0
SPLINE
  5
3D9
100
AcDbEntity
  8
0
100
AcDbSpline
 62
7
  6
CONTINUOUS
 70
0
 71
3
 72
23
 73
19
 74
0
 42
0.0000001
 43
0.0000001
 44
0.0000000001
 40
0.0
 40
0.0
 40
0.0
 40
0.0
 40
0.1048748189
 40
0.2044410478
 40
0.2981689963
 40
0.3855843067
 40
0.4663254851
 40
0.5402038159
 40
0.6072525052
 40
0.6677513029
 40
0.7222165871
 40
0.7713569686
 40
0.8160035791
 40
0.8570286693
 40
0.8952680035
 40
0.93146074
 40
0.9662150893
 40
1.0
 40
1.0
 40
1.0
 40
1.0
 10
9.5991393176
 20
7.8819118615
 30
0.0
 10
9.5973882951
 20
7.8792459372
 30
0.0
 10
9.5939374218
 20
7.8740734188
 30
0.0
 10
9.588755722
 20
7.8666305829
 30
0.0
 10
9.5836962752
 20
7.8597525826
 30
0.0
 10
9.5787628904
 20
7.8534973649
 30
0.0
 10
9.5739607201
 20
7.8479148895
 30
0.0
 10
9.5692959778
 20
7.8430423485
 30
0.0
 10
9.5647754852
 20
7.8389002419
 30
0.0
 10
9.5604062622
 20
7.8354902976
 30
0.0
 10
9.5561952294
 20
7.8327957971
 30
0.0
 10
9.5521491501
 20
7.830784039
 30
0.0
 10
9.5482747515
 20
7.8294099366
 30
0.0
 10
9.5445785575
 20
7.8286198751
 30
0.0
 10
9.5410662884
 20
7.828355387
 30
0.0
 10
9.537741664
 20
7.8285568571
 30
0.0
 10
9.5346068039
 20
7.8291665362
 30
0.0
 10
9.5326203647
 20
7.8298173723
 30
0.0
 10
9.5316643143
 20
7.8301938294
 30
0.0
  0
SPLINE
  5
3DA
100
AcDbEntity
  8
0
100
AcDbSpline
 62
7
  6
CONTINUOUS
 70
0
 71
3
 72
71
 73
67
 74
0
 42
0.0000001
 43
0.0000001
 44
0.0000000001
 40
0.0
 40
0.0
 40
0.0
 40
0.0
 40
0.0156747439
 40
0.0314022082
 40
0.0471806388
 40
0.0630088954
 40
0.0788847426
 40
0.0948057519
 40
0.1107690087
 40
0.1267712324
 40
0.1428087906
 40
0.1588777352
 40
0.1749738406
 40
0.1910926413
 40
0.2072294725
 40
0.2233795109
 40
0.239537818
 40
0.255699384
 40
0.2718591706
 40
0.2880121553
 40
0.3041533743
 40
0.3202779661
 40
0.3363812146
 40
0.3524585914
 40
0.3685057961
 40
0.3845187957
 40
0.4004938614
 40
0.4164276041
 40
0.4323170079
 40
0.4481594607
 40
0.4639527819
 40
0.4796952457
 40
0.4953856017
 40
0.5110230908
 40
0.5266074579
 40
0.5421389597
 40
0.5576183678
 40
0.5730469656
 40
0.5884265412
 40
0.6037593735
 40
0.6190482143
 40
0.6342962647
 40
0.6495071464
 40
0.6646848669
 40
0.6798337803
 40
0.6949585438
 40
0.7100640694
 40
0.7251554736
 40
0.7402380233
 40
0.7553170806
 40
0.7703980447
 40
0.7854862946
 40
0.8005871313
 40
0.8157057213
 40
0.830847042
 40
0.8460158305
 40
0.8612165344
 40
0.8764532676
 40
0.8917297685
 40
0.907049366
 40
0.9224149485
 40
0.9378289216
 40
0.953293278
 40
0.9688092644
 40
0.9843782511
 40
1.0
 40
1.0
 40
1.0
 40
1.0
 10
9.6285085086
 20
7.903024459
 30
0.0
 10
9.6375473926
 20
7.9023976102
 30
0.0
 10
9.6556278742
 20
7.900698382
 30
0.0
 10
9.6826346856
 20
7.896831123
 30
0.0
 10
9.7095114659
 20
7.8916500872
 30
0.0
 10
9.7361924658
 20
7.8851681109
 30
0.0
 10
9.7626138341
 20
7.877400665
 30
0.0
 10
9.7887118406
 20
7.8683665877
 30
0.0
 10
9.8144236948
 20
7.8580876277
 30
0.0
 10
9.8396874992
 20
7.846588585
 30
0.0
 10
9.8644424521
 20
7.8338971844
 30
0.0
 10
9.8886289748
 20
7.8200440115
 30
0.0
 10
9.9121888577
 20
7.8050624403
 30
0.0
 10
9.9350653979
 20
7.7889885523
 30
0.0
 10
9.9572035328
 20
7.7718610501
 30
0.0
 10
9.978549976
 20
7.7537211699
 30
0.0
 10
9.9990533561
 20
7.7346125937
 30
0.0
 10
10.0186643261
 20
7.714581326
 30
0.0
 10
10.0373356825
 20
7.6936755855
 30
0.0
 10
10.055022477
 20
7.6719456906
 30
0.0
 10
10.0716821246
 20
7.6494439394
 30
0.0
 10
10.0872745025
 20
7.6262244836
 30
0.0
 10
10.1017620666
 20
7.6023432123
 30
0.0
 10
10.1151099291
 20
7.5778576061
 30
0.0
 10
10.1272859371
 20
7.5528265971
 30
0.0
 10
10.1382607498
 20
7.5273104296
 30
0.0
 10
10.1480079096
 20
7.5013705171
 30
0.0
 10
10.1565039023
 20
7.4750692944
 30
0.0
 10
10.1637282271
 20
7.4484700737
 30
0.0
 10
10.1696634527
 20
7.4216368916
 30
0.0
 10
10.1742952406
 20
7.39463435
 30
0.0
 10
10.1776123831
 20
7.3675274644
 30
0.0
 10
10.1796068304
 20
7.3403815081
 30
0.0
 10
10.1802737106
 20
7.3132618577
 30
0.0
 10
10.179611343
 20
7.2862338364
 30
0.0
 10
10.1776212675
 20
7.2593625561
 30
0.0
 10
10.174308218
 20
7.2327127589
 30
0.0
 10
10.1696801127
 20
7.2063486635
 30
0.0
 10
10.1637480363
 20
7.1803338111
 30
0.0
 10
10.1565262163
 20
7.1547309128
 30
0.0
 10
10.1480319866
 20
7.1296017002
 30
0.0
 10
10.1382857676
 20
7.1050067689
 30
0.0
 10
10.1273110117
 20
7.0810054304
 30
0.0
 10
10.1151341345
 20
7.0576555733
 30
0.0
 10
10.1017844561
 20
7.035013522
 30
0.0
 10
10.0872941306
 20
7.0131339002
 30
0.0
 10
10.071698069
 20
6.9920694986
 30
0.0
 10
10.0550338603
 20
6.9718711427
 30
0.0
 10
10.0373416935
 20
6.9525875552
 30
0.0
 10
10.018664239
 20
6.9342652512
 30
0.0
 10
9.9990465477
 20
6.9169484239
 30
0.0
 10
9.9785359412
 20
6.9006788377
 30
0.0
 10
9.9571818968
 20
6.8854957259
 30
0.0
 10
9.9350359261
 20
6.871435699
 30
0.0
 10
9.9121514617
 20
6.8585326339
 30
0.0
 10
9.8885837149
 20
6.846817606
 30
0.0
 10
9.8643895374
 20
6.83631882
 30
0.0
 10
9.8396272841
 20
6.8270615431
 30
0.0
 10
9.8143566721
 20
6.819068044
 30
0.0
 10
9.7886386326
 20
6.8123575421
 30
0.0
 10
9.7625351821
 20
6.8069461635
 30
0.0
 10
9.7361092096
 20
6.8028468432
 30
0.0
 10
9.7094245409
 20
6.8000694645
 30
0.0
 10
9.682545081
 20
6.7986205143
 30
0.0
 10
9.6555366464
 20
6.7985035796
 30
0.0
 10
9.6375168329
 20
6.7993124056
 30
0.0
 10
9.6285085086
 20
6.799937135
 30
0.0
  0
SPLINE
  5
3DB
100
AcDbEntity
  8
0
100
AcDbSpline
 62
7
  6
CONTINUOUS
 70
0
 71
3
 72
43
 73
39
 74
0
 42
0.0000001
 43
0.0000001
 44
0.0000000001
 40
0.0
 40
0.0
 40
0.0
 40
0.0
 40
0.0149644519
 40
0.029945728
 40
0.0449459508
 40
0.0599671551
 40
0.0900754905
 40
0.1202894876
 40
0.1354422366
 40
0.1506257404
 40
0.1658411623
 40
0.1810895096
 40
0.2116838487
 40
0.2424182149
 40
0.2732950533
 40
0.3043142597
 40
0.3354732171
 40
0.3667668749
 40
0.3981878673
 40
0.4297266664
 40
0.4613717669
 40
0.4931098977
 40
0.5249262566
 40
0.5568047641
 40
0.588728332
 40
0.6206791447
 40
0.6526389479
 40
0.6845893426
 40
0.7165120809
 40
0.7483893602
 40
0.7802041119
 40
0.811940283
 40
0.843583102
 40
0.8751193426
 40
0.9065375159
 40
0.9378282353
 40
0.968983917
 40
1.0
 40
1.0
 40
1.0
 40
1.0
 10
9.3844823754
 20
7.8333169235
 30
0.0
 10
9.38145336
 20
7.8287417133
 30
0.0
 10
9.3755541956
 20
7.8194775144
 30
0.0
 10
9.3671991394
 20
7.8052682785
 30
0.0
 10
9.3593419
 20
7.7907537182
 30
0.0
 10
9.3495346564
 20
7.7710029503
 30
0.0
 10
9.3385619979
 20
7.7456228254
 30
0.0
 10
9.329373834
 20
7.7194928887
 30
0.0
 10
9.3231063418
 20
7.6981900263
 30
0.0
 10
9.3189475904
 20
7.6820100478
 30
0.0
 10
9.3153405822
 20
7.6656623206
 30
0.0
 10
9.3112679092
 20
7.6436439715
 30
0.0
 10
9.3075785426
 20
7.6157850095
 30
0.0
 10
9.3054136812
 20
7.5820203553
 30
0.0
 10
9.3055147204
 20
7.5480302713
 30
0.0
 10
9.3078811467
 20
7.513967018
 30
0.0
 10
9.312502112
 20
7.479981823
 30
0.0
 10
9.3193568355
 20
7.4462258732
 30
0.0
 10
9.3284146106
 20
7.4128492025
 30
0.0
 10
9.3396349701
 20
7.3800001523
 30
0.0
 10
9.3529678574
 20
7.3478246847
 30
0.0
 10
9.3683538609
 20
7.316465752
 30
0.0
 10
9.3857244775
 20
7.2860626659
 30
0.0
 10
9.4050024168
 20
7.2567504859
 30
0.0
 10
9.4261019435
 20
7.2286594259
 30
0.0
 10
9.448929256
 20
7.201914281
 30
0.0
 10
9.4733829003
 20
7.1766338786
 30
0.0
 10
9.4993542175
 20
7.1529305549
 30
0.0
 10
9.5267278225
 20
7.1309096608
 30
0.0
 10
9.5553821092
 20
7.1106690926
 30
0.0
 10
9.5851897861
 20
7.0922988597
 30
0.0
 10
9.6160184441
 20
7.0758806926
 30
0.0
 10
9.6477311208
 20
7.0614876734
 30
0.0
 10
9.680186961
 20
7.0491839328
 30
0.0
 10
9.7132416277
 20
7.0390243114
 30
0.0
 10
9.7467487043
 20
7.03105422
 30
0.0
 10
9.7805573358
 20
7.0253093382
 30
0.0
 10
9.8032537997
 20
7.0229745233
 30
0.0
 10
9.8145992438
 20
7.0221877141
 30
0.0
  0
SPLINE
  5
3DC
100
AcDbEntity
  8
0
100
AcDbSpline
 62
7
  6
CONTINUOUS
 70
0
 71
3
 72
71
 73
67
 74
0
 42
0.0000001
 43
0.0000001
 44
0.0000000001
 40
0.0
 40
0.0
 40
0.0
 40
0.0
 40
0.0156747439
 40
0.0314022082
 40
0.0471806388
 40
0.0630088954
 40
0.0788847426
 40
0.0948057519
 40
0.1107690087
 40
0.1267712324
 40
0.1428087906
 40
0.1588777352
 40
0.1749738406
 40
0.1910926413
 40
0.2072294725
 40
0.2233795109
 40
0.239537818
 40
0.255699384
 40
0.2718591706
 40
0.2880121553
 40
0.3041533743
 40
0.3202779661
 40
0.3363812146
 40
0.3524585914
 40
0.3685057961
 40
0.3845187957
 40
0.4004938614
 40
0.4164276041
 40
0.4323170079
 40
0.4481594607
 40
0.4639527819
 40
0.4796952457
 40
0.4953856017
 40
0.5110230908
 40
0.5266074579
 40
0.5421389597
 40
0.5576183678
 40
0.5730469656
 40
0.5884265412
 40
0.6037593735
 40
0.6190482143
 40
0.6342962647
 40
0.6495071464
 40
0.6646848669
 40
0.6798337803
 40
0.6949585438
 40
0.7100640694
 40
0.7251554736
 40
0.7402380233
 40
0.7553170806
 40
0.7703980447
 40
0.7854862946
 40
0.8005871313
 40
0.8157057213
 40
0.830847042
 40
0.8460158305
 40
0.8612165344
 40
0.8764532676
 40
0.8917297685
 40
0.907049366
 40
0.9224149485
 40
0.9378289216
 40
0.953293278
 40
0.9688092644
 40
0.9843782511
 40
1.0
 40
1.0
 40
1.0
 40
1.0
 10
9.6285085086
 20
6.799937135
 30
0.0
 10
9.6194696246
 20
6.8005639837
 30
0.0
 10
9.601389143
 20
6.8022632119
 30
0.0
 10
9.5743823315
 20
6.8061304709
 30
0.0
 10
9.5475055513
 20
6.8113115067
 30
0.0
 10
9.5208245514
 20
6.8177934831
 30
0.0
 10
9.4944031831
 20
6.8255609289
 30
0.0
 10
9.4683051766
 20
6.8345950062
 30
0.0
 10
9.4425933224
 20
6.8448739662
 30
0.0
 10
9.417329518
 20
6.8563730089
 30
0.0
 10
9.3925745651
 20
6.8690644095
 30
0.0
 10
9.3683880424
 20
6.8829175824
 30
0.0
 10
9.3448281594
 20
6.8978991536
 30
0.0
 10
9.3219516193
 20
6.9139730417
 30
0.0
 10
9.2998134844
 20
6.9311005438
 30
0.0
 10
9.2784670412
 20
6.9492404241
 30
0.0
 10
9.2579636611
 20
6.9683490002
 30
0.0
 10
9.2383526911
 20
6.988380268
 30
0.0
 10
9.2196813347
 20
7.0092860084
 30
0.0
 10
9.2019945402
 20
7.0310159033
 30
0.0
 10
9.1853348926
 20
7.0535176546
 30
0.0
 10
9.1697425147
 20
7.0767371103
 30
0.0
 10
9.1552549506
 20
7.1006183816
 30
0.0
 10
9.1419070881
 20
7.1251039879
 30
0.0
 10
9.1297310801
 20
7.1501349969
 30
0.0
 10
9.1187562674
 20
7.1756511643
 30
0.0
 10
9.1090091076
 20
7.2015910769
 30
0.0
 10
9.1005131149
 20
7.2278922995
 30
0.0
 10
9.0932887901
 20
7.2544915202
 30
0.0
 10
9.0873535644
 20
7.2813247024
 30
0.0
 10
9.0827217766
 20
7.3083272439
 30
0.0
 10
9.0794046341
 20
7.3354341296
 30
0.0
 10
9.0774101868
 20
7.3625800858
 30
0.0
 10
9.0767433066
 20
7.3896997362
 30
0.0
 10
9.0774056742
 20
7.4167277575
 30
0.0
 10
9.0793957497
 20
7.4435990379
 30
0.0
 10
9.0827087992
 20
7.470248835
 30
0.0
 10
9.0873369045
 20
7.4966129304
 30
0.0
 10
9.0932689809
 20
7.5226277829
 30
0.0
 10
9.1004908009
 20
7.5482306812
 30
0.0
 10
9.1089850306
 20
7.5733598937
 30
0.0
 10
9.1187312495
 20
7.597954825
 30
0.0
 10
9.1297060055
 20
7.6219561635
 30
0.0
 10
9.1418828827
 20
7.6453060206
 30
0.0
 10
9.1552325611
 20
7.6679480719
 30
0.0
 10
9.1697228866
 20
7.6898276938
 30
0.0
 10
9.1853189482
 20
7.7108920953
 30
0.0
 10
9.2019831569
 20
7.7310904512
 30
0.0
 10
9.2196753237
 20
7.7503740388
 30
0.0
 10
9.2383527782
 20
7.7686963428
 30
0.0
 10
9.2579704695
 20
7.78601317
 30
0.0
 10
9.278481076
 20
7.8022827562
 30
0.0
 10
9.2998351204
 20
7.817465868
 30
0.0
 10
9.3219810911
 20
7.8315258949
 30
0.0
 10
9.3448655555
 20
7.84442896
 30
0.0
 10
9.3684333023
 20
7.856143988
 30
0.0
 10
9.3926274798
 20
7.866642774
 30
0.0
 10
9.4173897331
 20
7.8759000508
 30
0.0
 10
9.4426603451
 20
7.88389355
 30
0.0
 10
9.4683783846
 20
7.8906040518
 30
0.0
 10
9.4944818351
 20
7.8960154304
 30
0.0
 10
9.5209078076
 20
7.9001147508
 30
0.0
 10
9.5475924763
 20
7.9028921295
 30
0.0
 10
9.5744719362
 20
7.9043410796
 30
0.0
 10
9.6014803708
 20
7.9044580144
 30
0.0
 10
9.6195001843
 20
7.9036491884
 30
0.0
 10
9.6285085086
 20
7.903024459
 30
0.0
  0
SPLINE
  5
3DD
100
AcDbEntity
  8
0
100
AcDbSpline
 62
7
  6
CONTINUOUS
 70
0
 71
3
 72
11
 73
7
 74
0
 42
0.0000001
 43
0.0000001
 44
0.0000000001
 40
0.0
 40
0.0
 40
0.0
 40
0.0
 40
0.2553471795
 40
0.5061420951
 40
0.7538506305
 40
1.0
 40
1.0
 40
1.0
 40
1.0
 10
12.240733669
 20
10.0018119011
 30
0.0
 10
12.2410588065
 20
10.000830292
 30
0.0
 10
12.2416312871
 20
9.9988597356
 30
0.0
 10
12.242251722
 20
9.9958674519
 30
0.0
 10
12.2426242541
 20
9.9928717538
 30
0.0
 10
12.2427071253
 20
9.9908708568
 30
0.0
 10
12.2427071252
 20
9.9898740488
 30
0.0
  0
SPLINE
  5
3DE
100
AcDbEntity
  8
0
100
AcDbSpline
 62
7
  6
CONTINUOUS
 70
0
 71
3
 72
11
 73
7
 74
0
 42
0.0000001
 43
0.0000001
 44
0.0000000001
 40
0.0
 40
0.0
 40
0.0
 40
0.0
 40
0.2461493188
 40
0.493857647
 40
0.7446524264
 40
1.0
 40
1.0
 40
1.0
 40
1.0
 10
11.1627071593
 20
9.9898740488
 30
0.0
 10
11.1627071594
 20
9.9908708591
 30
0.0
 10
11.1627900315
 20
9.99287176
 30
0.0
 10
11.1631625631
 20
9.9958674642
 30
0.0
 10
11.1637829989
 20
9.9988597558
 30
0.0
 10
11.1643554837
 20
10.0008303176
 30
0.0
 10
11.1646806247
 20
10.0018119299
 30
0.0
  0
SPLINE
  5
3DF
100
AcDbEntity
  8
0
100
AcDbSpline
 62
7
  6
CONTINUOUS
 70
0
 71
3
 72
71
 73
67
 74
0
 42
0.0000001
 43
0.0000001
 44
0.0000000001
 40
0.0
 40
0.0
 40
0.0
 40
0.0
 40
0.0156747439
 40
0.0314022082
 40
0.0471806388
 40
0.0630088954
 40
0.0788847426
 40
0.0948057519
 40
0.1107690087
 40
0.1267712324
 40
0.1428087906
 40
0.1588777352
 40
0.1749738406
 40
0.1910926413
 40
0.2072294725
 40
0.2233795109
 40
0.239537818
 40
0.255699384
 40
0.2718591706
 40
0.2880121553
 40
0.3041533743
 40
0.3202779661
 40
0.3363812146
 40
0.3524585914
 40
0.3685057961
 40
0.3845187957
 40
0.4004938614
 40
0.4164276041
 40
0.4323170079
 40
0.4481594607
 40
0.4639527819
 40
0.4796952457
 40
0.4953856017
 40
0.5110230908
 40
0.5266074579
 40
0.5421389597
 40
0.5576183678
 40
0.5730469656
 40
0.5884265412
 40
0.6037593735
 40
0.6190482143
 40
0.6342962647
 40
0.6495071464
 40
0.6646848669
 40
0.6798337803
 40
0.6949585438
 40
0.7100640694
 40
0.7251554736
 40
0.7402380233
 40
0.7553170806
 40
0.7703980447
 40
0.7854862946
 40
0.8005871313
 40
0.8157057213
 40
0.830847042
 40
0.8460158305
 40
0.8612165344
 40
0.8764532676
 40
0.8917297685
 40
0.907049366
 40
0.9224149485
 40
0.9378289216
 40
0.953293278
 40
0.9688092644
 40
0.9843782511
 40
1.0
 40
1.0
 40
1.0
 40
1.0
 10
11.0773973339
 20
7.8025436776
 30
0.0
 10
11.0864362179
 20
7.8019168289
 30
0.0
 10
11.1045166994
 20
7.8002176007
 30
0.0
 10
11.1315235109
 20
7.7963503417
 30
0.0
 10
11.1584002911
 20
7.7911693059
 30
0.0
 10
11.1850812911
 20
7.7846873295
 30
0.0
 10
11.2115026594
 20
7.7769198837
 30
0.0
 10
11.2376006659
 20
7.7678858064
 30
0.0
 10
11.2633125201
 20
7.7576068464
 30
0.0
 10
11.2885763245
 20
7.7461078037
 30
0.0
 10
11.3133312773
 20
7.7334164031
 30
0.0
 10
11.3375178001
 20
7.7195632302
 30
0.0
 10
11.361077683
 20
7.704581659
 30
0.0
 10
11.3839542231
 20
7.688507771
 30
0.0
 10
11.4060923581
 20
7.6713802688
 30
0.0
 10
11.4274388012
 20
7.6532403886
 30
0.0
 10
11.4479421814
 20
7.6341318124
 30
0.0
 10
11.4675531514
 20
7.6141005446
 30
0.0
 10
11.4862245078
 20
7.5931948042
 30
0.0
 10
11.5039113023
 20
7.5714649093
 30
0.0
 10
11.5205709499
 20
7.548963158
 30
0.0
 10
11.5361633278
 20
7.5257437023
 30
0.0
 10
11.5506508918
 20
7.501862431
 30
0.0
 10
11.5639987544
 20
7.4773768248
 30
0.0
 10
11.5761747624
 20
7.4523458158
 30
0.0
 10
11.5871495751
 20
7.4268296483
 30
0.0
 10
11.5968967349
 20
7.4008897358
 30
0.0
 10
11.6053927276
 20
7.3745885131
 30
0.0
 10
11.6126170524
 20
7.3479892924
 30
0.0
 10
11.618552278
 20
7.3211561102
 30
0.0
 10
11.6231840659
 20
7.2941535687
 30
0.0
 10
11.6265012084
 20
7.2670466831
 30
0.0
 10
11.6284956557
 20
7.2399007268
 30
0.0
 10
11.6291625359
 20
7.2127810764
 30
0.0
 10
11.6285001683
 20
7.1857530551
 30
0.0
 10
11.6265100928
 20
7.1588817748
 30
0.0
 10
11.6231970433
 20
7.1322319776
 30
0.0
 10
11.618568938
 20
7.1058678822
 30
0.0
 10
11.6126368616
 20
7.0798530298
 30
0.0
 10
11.6054150416
 20
7.0542501315
 30
0.0
 10
11.5969208119
 20
7.0291209189
 30
0.0
 10
11.5871745929
 20
7.0045259876
 30
0.0
 10
11.576199837
 20
6.9805246491
 30
0.0
 10
11.5640229598
 20
6.957174792
 30
0.0
 10
11.5506732814
 20
6.9345327407
 30
0.0
 10
11.5361829559
 20
6.9126531189
 30
0.0
 10
11.5205868943
 20
6.8915887173
 30
0.0
 10
11.5039226855
 20
6.8713903614
 30
0.0
 10
11.4862305188
 20
6.8521067738
 30
0.0
 10
11.4675530642
 20
6.8337844698
 30
0.0
 10
11.447935373
 20
6.8164676426
 30
0.0
 10
11.4274247665
 20
6.8001980564
 30
0.0
 10
11.4060707221
 20
6.7850149446
 30
0.0
 10
11.3839247513
 20
6.7709549177
 30
0.0
 10
11.361040287
 20
6.7580518526
 30
0.0
 10
11.3374725401
 20
6.7463368247
 30
0.0
 10
11.3132783627
 20
6.7358380387
 30
0.0
 10
11.2885161094
 20
6.7265807618
 30
0.0
 10
11.2632454974
 20
6.7185872627
 30
0.0
 10
11.2375274579
 20
6.7118767608
 30
0.0
 10
11.2114240074
 20
6.7064653822
 30
0.0
 10
11.1849980349
 20
6.7023660618
 30
0.0
 10
11.1583133662
 20
6.6995886832
 30
0.0
 10
11.1314339063
 20
6.698139733
 30
0.0
 10
11.1044254716
 20
6.6980227982
 30
0.0
 10
11.0864056582
 20
6.6988316242
 30
0.0
 10
11.0773973339
 20
6.6994563537
 30
0.0
  0
SPLINE
  5
3E0
100
AcDbEntity
  8
0
100
AcDbSpline
 62
7
  6
CONTINUOUS
 70
0
 71
3
 72
69
 73
65
 74
0
 42
0.0000001
 43
0.0000001
 44
0.0000000001
 40
0.0
 40
0.0
 40
0.0
 40
0.0
 40
0.015675012
 40
0.0314027453
 40
0.0471814459
 40
0.0630099733
 40
0.0788860921
 40
0.0948073737
 40
0.1107709036
 40
0.1267734011
 40
0.1428112336
 40
0.158880453
 40
0.1749768338
 40
0.1910959103
 40
0.2072330175
 40
0.2233833321
 40
0.2395419157
 40
0.2557037581
 40
0.2718638212
 40
0.2880170822
 40
0.3202749255
 40
0.3524475142
 40
0.3684949934
 40
0.3845082669
 40
0.4004836059
 40
0.4164176212
 40
0.4323072968
 40
0.4481500206
 40
0.463943612
 40
0.4796863451
 40
0.4953769695
 40
0.5110147261
 40
0.5265993598
 40
0.5421311273
 40
0.5576108002
 40
0.573039662
 40
0.5884195006
 40
0.6037525952
 40
0.6190416975
 40
0.6342900088
 40
0.6495011507
 40
0.6646791308
 40
0.6798283034
 40
0.6949533256
 40
0.7100591096
 40
0.7251507719
 40
0.7402335797
 40
0.7553128949
 40
0.770394117
 40
0.785482625
 40
0.80058372
 40
0.8157025687
 40
0.8308441484
 40
0.8460131964
 40
0.8612141603
 40
0.8764511541
 40
0.8917279164
 40
0.9070477759
 40
0.9224136213
 40
0.9378278581
 40
0.953292479
 40
0.9688087309
 40
0.9843779839
 40
1.0
 40
1.0
 40
1.0
 40
1.0
 10
9.3870270377
 20
8.421086922
 30
0.0
 10
9.3785580305
 20
8.4216742497
 30
0.0
 10
9.3616174737
 20
8.4232663462
 30
0.0
 10
9.3363133676
 20
8.4268897852
 30
0.0
 10
9.3111310946
 20
8.4317441709
 30
0.0
 10
9.2861322585
 20
8.4378174764
 30
0.0
 10
9.261376685
 20
8.4450952061
 30
0.0
 10
9.2369240862
 20
8.4535597096
 30
0.0
 10
9.2128332938
 20
8.4631906094
 30
0.0
 10
9.1891623029
 20
8.473964669
 30
0.0
 10
9.1659680819
 20
8.4858559116
 30
0.0
 10
9.1433064531
 20
8.49883568
 30
0.0
 10
9.121231956
 20
8.5128727043
 30
0.0
 10
9.0997977193
 20
8.5279331774
 30
0.0
 10
9.0790553318
 20
8.5439808393
 30
0.0
 10
9.0590547278
 20
8.5609770433
 30
0.0
 10
9.0398440128
 20
8.5788809008
 30
0.0
 10
9.0214695229
 20
8.5976491599
 30
0.0
 10
9.003975112
 20
8.6172371949
 30
0.0
 10
8.9818927373
 20
8.6443671828
 30
0.0
 10
8.9566950535
 20
8.6800811981
 30
0.0
 10
8.934917959
 20
8.7179129551
 30
0.0
 10
8.9196963242
 20
8.7492054962
 30
0.0
 10
8.9094132319
 20
8.7731132859
 30
0.0
 10
8.9002806602
 20
8.7974176656
 30
0.0
 10
8.8923203014
 20
8.8220606931
 30
0.0
 10
8.8855514545
 20
8.8469828993
 30
0.0
 10
8.8799904275
 20
8.8721243247
 30
0.0
 10
8.8756506614
 20
8.8974244297
 30
0.0
 10
8.8725426556
 20
8.9228223007
 30
0.0
 10
8.8706739528
 20
8.9482567788
 30
0.0
 10
8.8700491175
 20
8.9736666097
 30
0.0
 10
8.8706697246
 20
8.9989905885
 30
0.0
 10
8.8725343313
 20
9.0241677083
 30
0.0
 10
8.8756385022
 20
9.0491373089
 30
0.0
 10
8.8799748181
 20
9.0738392204
 30
0.0
 10
8.8855328934
 20
9.0982139078
 30
0.0
 10
8.8922993974
 20
9.1222026136
 30
0.0
 10
8.9002580893
 20
9.1457474983
 30
0.0
 10
8.9093898359
 20
9.1687917867
 30
0.0
 10
8.9196726636
 20
9.1912799066
 30
0.0
 10
8.9310818221
 20
9.2131576193
 30
0.0
 10
8.9435898399
 20
9.2343721515
 30
0.0
 10
8.9571665901
 20
9.2548723232
 30
0.0
 10
8.9717793629
 20
9.274608672
 30
0.0
 10
8.987392939
 20
9.293533577
 30
0.0
 10
9.0039696632
 20
9.3116013873
 30
0.0
 10
9.0214695555
 20
9.3287685203
 30
0.0
 10
9.0398504051
 20
9.3449935691
 30
0.0
 10
9.0590678742
 20
9.3602374026
 30
0.0
 10
9.0790756046
 20
9.3744632608
 30
0.0
 10
9.0998253327
 20
9.3876368416
 30
0.0
 10
9.1212669944
 20
9.3997264039
 30
0.0
 10
9.1433488595
 20
9.4107028314
 30
0.0
 10
9.1660176605
 20
9.4205396978
 30
0.0
 10
9.1892187216
 20
9.4292133288
 30
0.0
 10
9.2128960909
 20
9.4367028597
 30
0.0
 10
9.2369926786
 20
9.4429902828
 30
0.0
 10
9.2614503782
 20
9.4480604889
 30
0.0
 10
9.2862102656
 20
9.4519013583
 30
0.0
 10
9.3112125392
 20
9.4545036309
 30
0.0
 10
9.3363973229
 20
9.4558612287
 30
0.0
 10
9.3617029499
 20
9.4559707911
 30
0.0
 10
9.3785866635
 20
9.4552129593
 30
0.0
 10
9.3870270377
 20
9.4546276174
 30
0.0
  0
SPLINE
  5
3E1
100
AcDbEntity
  8
0
100
AcDbSpline
 62
7
  6
CONTINUOUS
 70
0
 71
3
 72
71
 73
67
 74
0
 42
0.0000001
 43
0.0000001
 44
0.0000000001
 40
0.0
 40
0.0
 40
0.0
 40
0.0
 40
0.0156747439
 40
0.0314022082
 40
0.0471806388
 40
0.0630088954
 40
0.0788847426
 40
0.0948057519
 40
0.1107690087
 40
0.1267712324
 40
0.1428087906
 40
0.1588777352
 40
0.1749738406
 40
0.1910926413
 40
0.2072294725
 40
0.2233795109
 40
0.239537818
 40
0.255699384
 40
0.2718591706
 40
0.2880121553
 40
0.3041533743
 40
0.3202779661
 40
0.3363812146
 40
0.3524585914
 40
0.3685057961
 40
0.3845187957
 40
0.4004938614
 40
0.4164276041
 40
0.4323170079
 40
0.4481594607
 40
0.4639527819
 40
0.4796952457
 40
0.4953856017
 40
0.5110230908
 40
0.5266074579
 40
0.5421389597
 40
0.5576183678
 40
0.5730469656
 40
0.5884265412
 40
0.6037593735
 40
0.6190482143
 40
0.6342962647
 40
0.6495071464
 40
0.6646848669
 40
0.6798337803
 40
0.6949585438
 40
0.7100640694
 40
0.7251554736
 40
0.7402380233
 40
0.7553170806
 40
0.7703980447
 40
0.7854862946
 40
0.8005871313
 40
0.8157057213
 40
0.830847042
 40
0.8460158305
 40
0.8612165344
 40
0.8764532676
 40
0.8917297685
 40
0.907049366
 40
0.9224149485
 40
0.9378289216
 40
0.953293278
 40
0.9688092644
 40
0.9843782511
 40
1.0
 40
1.0
 40
1.0
 40
1.0
 10
11.0773973339
 20
6.6994563537
 30
0.0
 10
11.0683584499
 20
6.7000832024
 30
0.0
 10
11.0502779683
 20
6.7017824306
 30
0.0
 10
11.0232711568
 20
6.7056496896
 30
0.0
 10
10.9963943766
 20
6.7108307254
 30
0.0
 10
10.9697133766
 20
6.7173127018
 30
0.0
 10
10.9432920084
 20
6.7250801476
 30
0.0
 10
10.9171940019
 20
6.7341142249
 30
0.0
 10
10.8914821476
 20
6.7443931849
 30
0.0
 10
10.8662183433
 20
6.7558922276
 30
0.0
 10
10.8414633904
 20
6.7685836282
 30
0.0
 10
10.8172768677
 20
6.7824368011
 30
0.0
 10
10.7937169847
 20
6.7974183723
 30
0.0
 10
10.7708404446
 20
6.8134922603
 30
0.0
 10
10.7487023097
 20
6.8306197625
 30
0.0
 10
10.7273558665
 20
6.8487596427
 30
0.0
 10
10.7068524864
 20
6.8678682189
 30
0.0
 10
10.6872415164
 20
6.8878994867
 30
0.0
 10
10.66857016
 20
6.9088052271
 30
0.0
 10
10.6508833655
 20
6.930535122
 30
0.0
 10
10.6342237178
 20
6.9530368733
 30
0.0
 10
10.61863134
 20
6.976256329
 30
0.0
 10
10.6041437759
 20
7.0001376003
 30
0.0
 10
10.5907959134
 20
7.0246232065
 30
0.0
 10
10.5786199054
 20
7.0496542155
 30
0.0
 10
10.5676450927
 20
7.075170383
 30
0.0
 10
10.5578979329
 20
7.1011102955
 30
0.0
 10
10.5494019401
 20
7.1274115182
 30
0.0
 10
10.5421776154
 20
7.1540107389
 30
0.0
 10
10.5362423897
 20
7.1808439211
 30
0.0
 10
10.5316106019
 20
7.2078464626
 30
0.0
 10
10.5282934594
 20
7.2349533482
 30
0.0
 10
10.5262990121
 20
7.2620993045
 30
0.0
 10
10.5256321319
 20
7.2892189549
 30
0.0
 10
10.5262944994
 20
7.3162469762
 30
0.0
 10
10.528284575
 20
7.3431182566
 30
0.0
 10
10.5315976245
 20
7.3697680537
 30
0.0
 10
10.5362257298
 20
7.3961321491
 30
0.0
 10
10.5421578062
 20
7.4221470015
 30
0.0
 10
10.5493796262
 20
7.4477498998
 30
0.0
 10
10.5578738558
 20
7.4728791124
 30
0.0
 10
10.5676200748
 20
7.4974740437
 30
0.0
 10
10.5785948308
 20
7.5214753822
 30
0.0
 10
10.590771708
 20
7.5448252393
 30
0.0
 10
10.6041213864
 20
7.5674672906
 30
0.0
 10
10.6186117119
 20
7.5893469124
 30
0.0
 10
10.6342077735
 20
7.610411314
 30
0.0
 10
10.6508719822
 20
7.6306096699
 30
0.0
 10
10.668564149
 20
7.6498932575
 30
0.0
 10
10.6872416035
 20
7.6682155615
 30
0.0
 10
10.7068592947
 20
7.6855323887
 30
0.0
 10
10.7273699013
 20
7.7018019749
 30
0.0
 10
10.7487239456
 20
7.7169850867
 30
0.0
 10
10.7708699164
 20
7.7310451136
 30
0.0
 10
10.7937543808
 20
7.7439481787
 30
0.0
 10
10.8173221276
 20
7.7556632066
 30
0.0
 10
10.8415163051
 20
7.7661619926
 30
0.0
 10
10.8662785584
 20
7.7754192695
 30
0.0
 10
10.8915491704
 20
7.7834127686
 30
0.0
 10
10.9172672099
 20
7.7901232705
 30
0.0
 10
10.9433706604
 20
7.7955346491
 30
0.0
 10
10.9697966329
 20
7.7996339695
 30
0.0
 10
10.9964813016
 20
7.8024113481
 30
0.0
 10
11.0233607615
 20
7.8038602983
 30
0.0
 10
11.0503691961
 20
7.8039772331
 30
0.0
 10
11.0683890096
 20
7.8031684071
 30
0.0
 10
11.0773973339
 20
7.8025436776
 30
0.0
  0
SPLINE
  5
3E2
100
AcDbEntity
  8
0
100
AcDbSpline
 62
7
  6
CONTINUOUS
 70
0
 71
3
 72
15
 73
11
 74
0
 42
0.0000001
 43
0.0000001
 44
0.0000000001
 40
0.0
 40
0.0
 40
0.0
 40
0.0
 40
0.1232822653
 40
0.2469238437
 40
0.3710051123
 40
0.4955958288
 40
0.6207535625
 40
0.7465228097
 40
0.8729323529
 40
1.0
 40
1.0
 40
1.0
 40
1.0
 10
11.5502992147
 20
6.9903073396
 30
0.0
 10
11.5398010416
 20
6.9838757904
 30
0.0
 10
11.5182501613
 20
6.971827871
 30
0.0
 10
11.4845457267
 20
6.9563527329
 30
0.0
 10
11.4496032816
 20
6.9435327509
 30
0.0
 10
11.4136213804
 20
6.933441027
 30
0.0
 10
11.3768011938
 20
6.9261331913
 30
0.0
 10
11.3393485809
 20
6.9216498817
 30
0.0
 10
11.3014758036
 20
6.9200153088
 30
0.0
 10
11.2761473317
 20
6.92082901
 30
0.0
 10
11.263488069
 20
6.9217069328
 30
0.0
  0
SPLINE
  5
3E3
100
AcDbEntity
  8
0
100
AcDbSpline
 62
7
  6
CONTINUOUS
 70
0
 71
3
 72
11
 73
7
 74
0
 42
0.0000001
 43
0.0000001
 44
0.0000000001
 40
0.0
 40
0.0
 40
0.0
 40
0.0
 40
0.2553471795
 40
0.5061420951
 40
0.7538506305
 40
1.0
 40
1.0
 40
1.0
 40
1.0
 10
10.3088819019
 20
10.1357862762
 30
0.0
 10
10.3092070395
 20
10.1348046671
 30
0.0
 10
10.3097795201
 20
10.1328341107
 30
0.0
 10
10.310399955
 20
10.129841827
 30
0.0
 10
10.310772487
 20
10.1268461289
 30
0.0
 10
10.3108553583
 20
10.1248452319
 30
0.0
 10
10.3108553581
 20
10.1238484239
 30
0.0
  0
SPLINE
  5
3E4
100
AcDbEntity
  8
0
100
AcDbSpline
 62
7
  6
CONTINUOUS
 70
0
 71
3
 72
60
 73
56
 74
0
 42
0.0000001
 43
0.0000001
 44
0.0000000001
 40
0.0
 40
0.0
 40
0.0
 40
0.0
 40
0.0081437215
 40
0.01697685
 40
0.0265209466
 40
0.03678965
 40
0.0477883286
 40
0.0595158866
 40
0.0719660299
 40
0.0851283246
 40
0.0989885617
 40
0.1135293238
 40
0.1287305536
 40
0.1445695476
 40
0.1610215373
 40
0.1780596973
 40
0.2137771176
 40
0.2514753725
 40
0.290884692
 40
0.3317173433
 40
0.3736711531
 40
0.4164328736
 40
0.4596814124
 40
0.5030909931
 40
0.546334291
 40
0.5890855752
 40
0.6310238557
 40
0.6718360457
 40
0.7112201823
 40
0.7302867147
 40
0.7488898131
 40
0.7669963561
 40
0.7845746229
 40
0.8015944409
 40
0.8180271642
 40
0.8338461164
 40
0.8490264908
 40
0.8635457491
 40
0.8773838801
 40
0.890523522
 40
0.9029506859
 40
0.9146549165
 40
0.9256301632
 40
0.9358756224
 40
0.9453966901
 40
0.9542068483
 40
0.9623293949
 40
0.969800425
 40
0.9766722973
 40
0.9830175573
 40
0.9889330625
 40
0.9917694421
 40
0.994546604
 40
0.9972834941
 40
1.0
 40
1.0
 40
1.0
 40
1.0
 10
12.414214104
 20
6.2210542283
 30
0.0
 10
12.4150330041
 20
6.2218452251
 30
0.0
 10
12.4166665734
 20
6.2235712416
 30
0.0
 10
12.4190139481
 20
6.2264446212
 30
0.0
 10
12.4213512116
 20
6.2296995317
 30
0.0
 10
12.4236738342
 20
6.2333294279
 30
0.0
 10
12.4259776026
 20
6.2373275228
 30
0.0
 10
12.428257923
 20
6.241686107
 30
0.0
 10
12.4305103549
 20
6.2463966317
 30
0.0
 10
12.4327303662
 20
6.2514498351
 30
0.0
 10
12.4349135034
 20
6.2568357104
 30
0.0
 10
12.4370553951
 20
6.2625435404
 30
0.0
 10
12.4391516731
 20
6.2685619514
 30
0.0
 10
12.4411981442
 20
6.2748789025
 30
0.0
 10
12.4431906743
 20
6.2814817614
 30
0.0
 10
12.445811314
 20
6.2907962183
 30
0.0
 10
12.4489106962
 20
6.3030591602
 30
0.0
 10
12.4522990766
 20
6.3184667611
 30
0.0
 10
12.4553849372
 20
6.3346662433
 30
0.0
 10
12.4581432071
 20
6.3515276167
 30
0.0
 10
12.4605514622
 20
6.3689156842
 30
0.0
 10
12.4625901803
 20
6.3866908591
 30
0.0
 10
12.4642428641
 20
6.4047104112
 30
0.0
 10
12.4654961773
 20
6.422829609
 30
0.0
 10
12.4663400488
 20
6.4409029112
 30
0.0
 10
12.466767762
 20
6.4587851383
 30
0.0
 10
12.4667760245
 20
6.476332712
 30
0.0
 10
12.4663649166
 20
6.4934046428
 30
0.0
 10
12.4656686798
 20
6.507266599
 30
0.0
 10
12.4648973892
 20
6.51801185
 30
0.0
 10
12.4642234308
 20
6.525780819
 30
0.0
 10
12.4634491517
 20
6.5333313152
 30
0.0
 10
12.4625761089
 20
6.5406481877
 30
0.0
 10
12.46160611
 20
6.5477167423
 30
0.0
 10
12.4605410843
 20
6.5545227981
 30
0.0
 10
12.4593832458
 20
6.5610527106
 30
0.0
 10
12.4581349213
 20
6.5672934026
 30
0.0
 10
12.4567986507
 20
6.5732323948
 30
0.0
 10
12.45537718
 20
6.5788578384
 30
0.0
 10
12.4538733379
 20
6.5841585337
 30
0.0
 10
12.4522902188
 20
6.5891239839
 30
0.0
 10
12.4506309643
 20
6.593744401
 30
0.0
 10
12.4488988676
 20
6.598010752
 30
0.0
 10
12.4470973433
 20
6.6019148057
 30
0.0
 10
12.4452297191
 20
6.605449105
 30
0.0
 10
12.4432994125
 20
6.6086070692
 30
0.0
 10
12.4413095191
 20
6.6113828715
 30
0.0
 10
12.4392629114
 20
6.6137713472
 30
0.0
 10
12.4371618016
 20
6.6157678105
 30
0.0
 10
12.4350085878
 20
6.6173670835
 30
0.0
 10
12.4331456107
 20
6.6183781813
 30
0.0
 10
12.4316443046
 20
6.6189692073
 30
0.0
 10
12.4305244955
 20
6.6193044972
 30
0.0
 10
12.4293961901
 20
6.6195374346
 30
0.0
 10
12.4286375381
 20
6.6196244724
 30
0.0
 10
12.4282586649
 20
6.6196507507
 30
0.0
  0
SPLINE
  5
3E5
100
AcDbEntity
  8
0
100
AcDbSpline
 62
7
  6
CONTINUOUS
 70
0
 71
3
 72
23
 73
19
 74
0
 42
0.0000001
 43
0.0000001
 44
0.0000000001
 40
0.0
 40
0.0
 40
0.0
 40
0.0
 40
0.0616482097
 40
0.123319447
 40
0.1850364789
 40
0.2468215645
 40
0.3086962086
 40
0.3706809238
 40
0.4327950069
 40
0.4950563354
 40
0.5574811816
 40
0.620084074
 40
0.6828775998
 40
0.7458723259
 40
0.8090769666
 40
0.8724967557
 40
0.9361385685
 40
1.0
 40
1.0
 40
1.0
 40
1.0
 10
9.7229703909
 20
8.6325349374
 30
0.0
 10
9.717886787
 20
8.6276245738
 30
0.0
 10
9.7074513762
 20
8.6180734671
 30
0.0
 10
9.6910476869
 20
8.6046060928
 30
0.0
 10
9.6739316907
 20
8.5920288892
 30
0.0
 10
9.6561470999
 20
8.5803740914
 30
0.0
 10
9.6377385838
 20
8.5696708865
 30
0.0
 10
9.6187525707
 20
8.5599462596
 30
0.0
 10
9.5992368854
 20
8.5512246846
 30
0.0
 10
9.5792407169
 20
8.5435280748
 30
0.0
 10
9.558814448
 20
8.5368757534
 30
0.0
 10
9.5380095321
 20
8.5312844255
 30
0.0
 10
9.5168783729
 20
8.5267681257
 30
0.0
 10
9.4954741443
 20
8.5233381712
 30
0.0
 10
9.473850881
 20
8.5210031903
 30
0.0
 10
9.4520626082
 20
8.5197688274
 30
0.0
 10
9.4301651462
 20
8.5196383527
 30
0.0
 10
9.4155542447
 20
8.5202862903
 30
0.0
 10
9.4082501819
 20
8.5207928288
 30
0.0
  0
SPLINE
  5
3E6
100
AcDbEntity
  8
0
100
AcDbSpline
 62
7
  6
CONTINUOUS
 70
0
 71
3
 72
15
 73
11
 74
0
 42
0.0000001
 43
0.0000001
 44
0.0000000001
 40
0.0
 40
0.0
 40
0.0
 40
0.0
 40
0.1234948173
 40
0.2473602363
 40
0.3716334461
 40
0.4963458009
 40
0.6215230657
 40
0.7471833549
 40
0.8733413678
 40
1.0
 40
1.0
 40
1.0
 40
1.0
 10
9.8070788151
 20
8.7507697
 30
0.0
 10
9.7995762535
 20
8.7475888146
 30
0.0
 10
9.7843520072
 20
8.7416704281
 30
0.0
 10
9.7609902198
 20
8.7341683779
 30
0.0
 10
9.7371441157
 20
8.7280524641
 30
0.0
 10
9.7128930678
 20
8.7233430773
 30
0.0
 10
9.6883165234
 20
8.7200555012
 30
0.0
 10
9.6634948617
 20
8.7182003572
 30
0.0
 10
9.6385106899
 20
8.7177836812
 30
0.0
 10
9.621831275
 20
8.7184644513
 30
0.0
 10
9.6134935153
 20
8.7190426769
 30
0.0
  0
SPLINE
  5
3E7
100
AcDbEntity
  8
0
100
AcDbSpline
 62
7
  6
CONTINUOUS
 70
0
 71
3
 72
39
 73
35
 74
0
 42
0.0000001
 43
0.0000001
 44
0.0000000001
 40
0.0
 40
0.0
 40
0.0
 40
0.0
 40
0.0299393048
 40
0.0599022805
 40
0.0899120376
 40
0.1199905841
 40
0.1501583161
 40
0.1804335571
 40
0.2108321567
 40
0.2413671582
 40
0.2720485418
 40
0.3028830453
 40
0.333874066
 40
0.3650216372
 40
0.3963224773
 40
0.427770107
 40
0.459355027
 40
0.4910649499
 40
0.5228850821
 40
0.5547984438
 40
0.586786223
 40
0.6188281554
 40
0.6509029263
 40
0.6829885863
 40
0.7150629767
 40
0.747104156
 40
0.7790908247
 40
0.8110027395
 40
0.8428211156
 40
0.8745290113
 40
0.906111652
 40
0.937556897
 40
0.9688549576
 40
1.0
 40
1.0
 40
1.0
 40
1.0
 10
9.0935299729
 20
9.2841795706
 30
0.0
 10
9.0861245565
 20
9.2770265177
 30
0.0
 10
9.0718625523
 20
9.2621273987
 30
0.0
 10
9.0522754228
 20
9.2381637009
 30
0.0
 10
9.0345895037
 20
9.2127039181
 30
0.0
 10
9.0189010855
 20
9.1858861843
 30
0.0
 10
9.0052934353
 20
9.1578536709
 30
0.0
 10
8.9938392173
 20
9.128756603
 30
0.0
 10
8.9845993473
 20
9.0987506815
 30
0.0
 10
8.9776228961
 20
9.067996436
 30
0.0
 10
8.9729467702
 20
9.0366583065
 30
0.0
 10
8.9705955508
 20
9.0049037678
 30
0.0
 10
8.9705814011
 20
8.9729024256
 30
0.0
 10
8.9729040187
 20
8.9408251175
 30
0.0
 10
8.9775506539
 20
8.9088430093
 30
0.0
 10
8.9844961955
 20
8.8771266937
 30
0.0
 10
8.9937032998
 20
8.8458452896
 30
0.0
 10
9.00512259
 20
8.8151655464
 30
0.0
 10
9.01869295
 20
8.7852509725
 30
0.0
 10
9.0343418477
 20
8.7562609761
 30
0.0
 10
9.0519857219
 20
8.7283500282
 30
0.0
 10
9.0715304275
 20
8.7016668517
 30
0.0
 10
9.0928717254
 20
8.6763536343
 30
0.0
 10
9.115895822
 20
8.652545265
 30
0.0
 10
9.140479994
 20
8.6303686403
 30
0.0
 10
9.1664932317
 20
8.6099419926
 30
0.0
 10
9.1937969284
 20
8.5913742673
 30
0.0
 10
9.2222456151
 20
8.5747645487
 30
0.0
 10
9.2516877037
 20
8.5602015292
 30
0.0
 10
9.2819663436
 20
8.547763028
 30
0.0
 10
9.3129200234
 20
8.5375155582
 30
0.0
 10
9.3443842849
 20
8.5295140771
 30
0.0
 10
9.3761892098
 20
8.5238015627
 30
0.0
 10
9.3975652609
 20
8.5215338306
 30
0.0
 10
9.4082501819
 20
8.5207928288
 30
0.0
  0
SPLINE
  5
3E8
100
AcDbEntity
  8
0
100
AcDbSpline
 62
7
  6
CONTINUOUS
 70
0
 71
3
 72
42
 73
38
 74
0
 42
0.0000001
 43
0.0000001
 44
0.0000000001
 40
0.0
 40
0.0
 40
0.0
 40
0.0
 40
0.0300303539
 40
0.0450839438
 40
0.0601636525
 40
0.0904024039
 40
0.1207592705
 40
0.135986117
 40
0.1512448558
 40
0.181856209
 40
0.2125998672
 40
0.2434764446
 40
0.2744844982
 40
0.3056205762
 40
0.3368792944
 40
0.3682534397
 40
0.3997340966
 40
0.4313107951
 40
0.4629716765
 40
0.4947036747
 40
0.5264927112
 40
0.5583239002
 40
0.5901817619
 40
0.6220504415
 40
0.653913933
 40
0.6857563027
 40
0.7175619135
 40
0.7493156459
 40
0.7810031131
 40
0.8126108698
 40
0.8441266114
 40
0.875539357
 40
0.906839632
 40
0.938019592
 40
0.9535641017
 40
0.9690768736
 40
1.0
 40
1.0
 40
1.0
 40
1.0
 10
9.2145930324
 20
9.3641070416
 30
0.0
 10
9.2108520616
 20
9.3560684636
 30
0.0
 10
9.2056308176
 20
9.3438106211
 30
0.0
 10
9.1994766118
 20
9.3271451671
 30
0.0
 10
9.1938478598
 20
9.3102294017
 30
0.0
 10
9.1878287066
 20
9.2886952578
 30
0.0
 10
9.183197994
 20
9.2667763079
 30
0.0
 10
9.1803288254
 20
9.2490405698
 30
0.0
 10
9.1780148997
 20
9.2311481437
 30
0.0
 10
9.1761813538
 20
9.2085860799
 30
0.0
 10
9.1756819279
 20
9.1813420807
 30
0.0
 10
9.1768823418
 20
9.1540024058
 30
0.0
 10
9.1797778699
 20
9.1266738625
 30
0.0
 10
9.1843570912
 20
9.0994623121
 30
0.0
 10
9.1906020989
 20
9.0724733736
 30
0.0
 10
9.1984885292
 20
9.0458117175
 30
0.0
 10
9.2079856706
 20
9.0195807452
 30
0.0
 10
9.2190565811
 20
8.9938821701
 30
0.0
 10
9.2316582334
 20
8.9688156323
 30
0.0
 10
9.245741682
 20
8.944478315
 30
0.0
 10
9.2612522527
 20
8.9209645714
 30
0.0
 10
9.2781297538
 20
8.8983655618
 30
0.0
 10
9.2963087086
 20
8.8767689035
 30
0.0
 10
9.3157186079
 20
8.8562583334
 30
0.0
 10
9.3362841816
 20
8.836913386
 30
0.0
 10
9.3579256885
 20
8.8188090871
 30
0.0
 10
9.380559223
 20
8.802015665
 30
0.0
 10
9.4040970391
 20
8.7865982794
 30
0.0
 10
9.4284478827
 20
8.7726167712
 30
0.0
 10
9.4535173617
 20
8.7601254274
 30
0.0
 10
9.4792082362
 20
8.7491727853
 30
0.0
 10
9.505421061
 20
8.7398013937
 30
0.0
 10
9.5320535682
 20
8.7320478278
 30
0.0
 10
9.5545359078
 20
8.7269543388
 30
0.0
 10
9.5726268308
 20
8.7237182498
 30
0.0
 10
9.5907327332
 20
8.7210485374
 30
0.0
 10
9.6043853705
 20
8.7196743289
 30
0.0
 10
9.6134935153
 20
8.7190426769
 30
0.0
  0
SPLINE
  5
3E9
100
AcDbEntity
  8
0
100
AcDbSpline
 62
7
  6
CONTINUOUS
 70
0
 71
3
 72
15
 73
11
 74
0
 42
0.0000001
 43
0.0000001
 44
0.0000000001
 40
0.0
 40
0.0
 40
0.0
 40
0.0
 40
0.1232568082
 40
0.2468556791
 40
0.3708913774
 40
0.4954467457
 40
0.6205905798
 40
0.7463763366
 40
0.8728389443
 40
1.0
 40
1.0
 40
1.0
 40
1.0
 10
9.8405621184
 20
8.8618693478
 30
0.0
 10
9.8328392457
 20
8.8567129786
 30
0.0
 10
9.8169256467
 20
8.8470374449
 30
0.0
 10
9.7918830708
 20
8.8345709732
 30
0.0
 10
9.7657921564
 20
8.8242082521
 30
0.0
 10
9.7388198955
 20
8.8160158338
 30
0.0
 10
9.7111361703
 20
8.8100445815
 30
0.0
 10
9.6829153135
 20
8.8063318748
 30
0.0
 10
9.6543374622
 20
8.8049003026
 30
0.0
 10
9.6352144514
 20
8.8054713203
 30
0.0
 10
9.6256572041
 20
8.8061341177
 30
0.0
  0
SPLINE
  5
3EA
100
AcDbEntity
  8
0
100
AcDbSpline
 62
7
  6
CONTINUOUS
 70
0
 71
3
 72
15
 73
11
 74
0
 42
0.0000001
 43
0.0000001
 44
0.0000000001
 40
0.0
 40
0.0
 40
0.0
 40
0.0
 40
0.1232822653
 40
0.2469238437
 40
0.3710051123
 40
0.4955958288
 40
0.6207535625
 40
0.7465228097
 40
0.8729323529
 40
1.0
 40
1.0
 40
1.0
 40
1.0
 10
10.1014103895
 20
7.0907881209
 30
0.0
 10
10.0909122164
 20
7.0843565717
 30
0.0
 10
10.069361336
 20
7.0723086523
 30
0.0
 10
10.0356569014
 20
7.0568335142
 30
0.0
 10
10.0007144563
 20
7.0440135322
 30
0.0
 10
9.9647325551
 20
7.0339218083
 30
0.0
 10
9.9279123685
 20
7.0266139726
 30
0.0
 10
9.8904597556
 20
7.022130663
 30
0.0
 10
9.8525869783
 20
7.0204960901
 30
0.0
 10
9.8272585064
 20
7.0213097913
 30
0.0
 10
9.8145992438
 20
7.0221877141
 30
0.0
  0
SPLINE
  5
3EB
100
AcDbEntity
  8
0
100
AcDbSpline
 62
7
  6
CONTINUOUS
 70
0
 71
3
 72
23
 73
19
 74
0
 42
0.0000001
 43
0.0000001
 44
0.0000000001
 40
0.0
 40
0.0
 40
0.0
 40
0.0
 40
0.0616482097
 40
0.123319447
 40
0.1850364789
 40
0.2468215645
 40
0.3086962086
 40
0.3706809238
 40
0.4327950069
 40
0.4950563354
 40
0.5574811816
 40
0.620084074
 40
0.6828775998
 40
0.7458723259
 40
0.8090769666
 40
0.8724967557
 40
0.9361385685
 40
1.0
 40
1.0
 40
1.0
 40
1.0
 10
11.6548221579
 20
8.4985605624
 30
0.0
 10
11.6497385541
 20
8.4936501987
 30
0.0
 10
11.6393031433
 20
8.484099092
 30
0.0
 10
11.622899454
 20
8.4706317177
 30
0.0
 10
11.6057834578
 20
8.4580545141
 30
0.0
 10
11.5879988669
 20
8.4463997163
 30
0.0
 10
11.5695903509
 20
8.4356965114
 30
0.0
 10
11.5506043377
 20
8.4259718846
 30
0.0
 10
11.5310886524
 20
8.4172503095
 30
0.0
 10
11.5110924839
 20
8.4095536997
 30
0.0
 10
11.4906662151
 20
8.4029013783
 30
0.0
 10
11.4698612991
 20
8.3973100504
 30
0.0
 10
11.44873014
 20
8.3927937506
 30
0.0
 10
11.4273259114
 20
8.3893637961
 30
0.0
 10
11.4057026481
 20
8.3870288152
 30
0.0
 10
11.3839143752
 20
8.3857944524
 30
0.0
 10
11.3620169133
 20
8.3856639777
 30
0.0
 10
11.3474060118
 20
8.3863119152
 30
0.0
 10
11.3401019489
 20
8.3868184537
 30
0.0
  0
SPLINE
  5
3EC
100
AcDbEntity
  8
0
100
AcDbSpline
 62
7
  6
CONTINUOUS
 70
0
 71
3
 72
15
 73
11
 74
0
 42
0.0000001
 43
0.0000001
 44
0.0000000001
 40
0.0
 40
0.0
 40
0.0
 40
0.0
 40
0.1234948173
 40
0.2473602363
 40
0.3716334461
 40
0.4963458009
 40
0.6215230657
 40
0.7471833549
 40
0.8733413678
 40
1.0
 40
1.0
 40
1.0
 40
1.0
 10
11.7389305821
 20
8.6167953249
 30
0.0
 10
11.7314280206
 20
8.6136144395
 30
0.0
 10
11.7162037743
 20
8.6076960531
 30
0.0
 10
11.6928419868
 20
8.6001940028
 30
0.0
 10
11.6689958827
 20
8.594078089
 30
0.0
 10
11.6447448348
 20
8.5893687023
 30
0.0
 10
11.6201682905
 20
8.5860811261
 30
0.0
 10
11.5953466287
 20
8.5842259821
 30
0.0
 10
11.5703624569
 20
8.5838093061
 30
0.0
 10
11.5536830421
 20
8.5844900762
 30
0.0
 10
11.5453452823
 20
8.5850683018
 30
0.0
  0
SPLINE
  5
3ED
100
AcDbEntity
  8
0
100
AcDbSpline
 62
7
  6
CONTINUOUS
 70
0
 71
3
 72
39
 73
35
 74
0
 42
0.0000001
 43
0.0000001
 44
0.0000000001
 40
0.0
 40
0.0
 40
0.0
 40
0.0
 40
0.0299393048
 40
0.0599022805
 40
0.0899120376
 40
0.1199905841
 40
0.1501583161
 40
0.1804335571
 40
0.2108321567
 40
0.2413671582
 40
0.2720485418
 40
0.3028830453
 40
0.333874066
 40
0.3650216372
 40
0.3963224773
 40
0.427770107
 40
0.459355027
 40
0.4910649499
 40
0.5228850821
 40
0.5547984438
 40
0.586786223
 40
0.6188281554
 40
0.6509029263
 40
0.6829885863
 40
0.7150629767
 40
0.747104156
 40
0.7790908247
 40
0.8110027395
 40
0.8428211156
 40
0.8745290113
 40
0.906111652
 40
0.937556897
 40
0.9688549576
 40
1.0
 40
1.0
 40
1.0
 40
1.0
 10
11.0253817399
 20
9.1502051955
 30
0.0
 10
11.0179763236
 20
9.1430521426
 30
0.0
 10
11.0037143193
 20
9.1281530236
 30
0.0
 10
10.9841271898
 20
9.1041893258
 30
0.0
 10
10.9664412708
 20
9.078729543
 30
0.0
 10
10.9507528525
 20
9.0519118093
 30
0.0
 10
10.9371452023
 20
9.0238792958
 30
0.0
 10
10.9256909843
 20
8.9947822279
 30
0.0
 10
10.9164511144
 20
8.9647763064
 30
0.0
 10
10.9094746632
 20
8.9340220609
 30
0.0
 10
10.9047985373
 20
8.9026839314
 30
0.0
 10
10.9024473178
 20
8.8709293928
 30
0.0
 10
10.9024331682
 20
8.8389280505
 30
0.0
 10
10.9047557858
 20
8.8068507424
 30
0.0
 10
10.909402421
 20
8.7748686342
 30
0.0
 10
10.9163479626
 20
8.7431523186
 30
0.0
 10
10.9255550668
 20
8.7118709145
 30
0.0
 10
10.936974357
 20
8.6811911713
 30
0.0
 10
10.9505447171
 20
8.6512765974
 30
0.0
 10
10.9661936147
 20
8.622286601
 30
0.0
 10
10.983837489
 20
8.5943756531
 30
0.0
 10
11.0033821946
 20
8.5676924766
 30
0.0
 10
11.0247234925
 20
8.5423792592
 30
0.0
 10
11.047747589
 20
8.5185708899
 30
0.0
 10
11.072331761
 20
8.4963942652
 30
0.0
 10
11.0983449987
 20
8.4759676175
 30
0.0
 10
11.1256486955
 20
8.4573998922
 30
0.0
 10
11.1540973821
 20
8.4407901736
 30
0.0
 10
11.1835394707
 20
8.4262271541
 30
0.0
 10
11.2138181107
 20
8.4137886529
 30
0.0
 10
11.2447717904
 20
8.4035411831
 30
0.0
 10
11.276236052
 20
8.395539702
 30
0.0
 10
11.3080409768
 20
8.3898271876
 30
0.0
 10
11.329417028
 20
8.3875594555
 30
0.0
 10
11.3401019489
 20
8.3868184537
 30
0.0
  0
SPLINE
  5
3EE
100
AcDbEntity
  8
0
100
AcDbSpline
 62
7
  6
CONTINUOUS
 70
0
 71
3
 72
42
 73
38
 74
0
 42
0.0000001
 43
0.0000001
 44
0.0000000001
 40
0.0
 40
0.0
 40
0.0
 40
0.0
 40
0.0300303539
 40
0.0450839438
 40
0.0601636525
 40
0.0904024039
 40
0.1207592705
 40
0.135986117
 40
0.1512448558
 40
0.181856209
 40
0.2125998672
 40
0.2434764446
 40
0.2744844982
 40
0.3056205762
 40
0.3368792944
 40
0.3682534397
 40
0.3997340966
 40
0.4313107951
 40
0.4629716765
 40
0.4947036747
 40
0.5264927112
 40
0.5583239002
 40
0.5901817619
 40
0.6220504415
 40
0.653913933
 40
0.6857563027
 40
0.7175619135
 40
0.7493156459
 40
0.7810031131
 40
0.8126108698
 40
0.8441266114
 40
0.875539357
 40
0.906839632
 40
0.938019592
 40
0.9535641017
 40
0.9690768736
 40
1.0
 40
1.0
 40
1.0
 40
1.0
 10
11.1464447994
 20
9.2301326665
 30
0.0
 10
11.1427038286
 20
9.2220940885
 30
0.0
 10
11.1374825846
 20
9.209836246
 30
0.0
 10
11.1313283788
 20
9.193170792
 30
0.0
 10
11.1256996269
 20
9.1762550266
 30
0.0
 10
11.1196804736
 20
9.1547208827
 30
0.0
 10
11.1150497611
 20
9.1328019328
 30
0.0
 10
11.1121805925
 20
9.1150661947
 30
0.0
 10
11.1098666667
 20
9.0971737686
 30
0.0
 10
11.1080331209
 20
9.0746117048
 30
0.0
 10
11.1075336949
 20
9.0473677057
 30
0.0
 10
11.1087341089
 20
9.0200280308
 30
0.0
 10
11.1116296369
 20
8.9926994874
 30
0.0
 10
11.1162088583
 20
8.9654879371
 30
0.0
 10
11.1224538659
 20
8.9384989985
 30
0.0
 10
11.1303402963
 20
8.9118373424
 30
0.0
 10
11.1398374376
 20
8.8856063702
 30
0.0
 10
11.1509083481
 20
8.859907795
 30
0.0
 10
11.1635100005
 20
8.8348412572
 30
0.0
 10
11.1775934491
 20
8.8105039399
 30
0.0
 10
11.1931040197
 20
8.7869901963
 30
0.0
 10
11.2099815208
 20
8.7643911868
 30
0.0
 10
11.2281604756
 20
8.7427945285
 30
0.0
 10
11.247570375
 20
8.7222839583
 30
0.0
 10
11.2681359487
 20
8.7029390109
 30
0.0
 10
11.2897774556
 20
8.684834712
 30
0.0
 10
11.3124109901
 20
8.6680412899
 30
0.0
 10
11.3359488061
 20
8.6526239043
 30
0.0
 10
11.3602996498
 20
8.6386423961
 30
0.0
 10
11.3853691287
 20
8.6261510523
 30
0.0
 10
11.4110600032
 20
8.6151984102
 30
0.0
 10
11.4372728281
 20
8.6058270186
 30
0.0
 10
11.4639053353
 20
8.5980734527
 30
0.0
 10
11.4863876749
 20
8.5929799637
 30
0.0
 10
11.5044785979
 20
8.5897438748
 30
0.0
 10
11.5225845002
 20
8.5870741623
 30
0.0
 10
11.5362371375
 20
8.5856999538
 30
0.0
 10
11.5453452823
 20
8.5850683018
 30
0.0
  0
SPLINE
  5
3EF
100
AcDbEntity
  8
0
100
AcDbSpline
 62
7
  6
CONTINUOUS
 70
0
 71
3
 72
25
 73
21
 74
0
 42
0.0000001
 43
0.0000001
 44
0.0000000001
 40
0.0
 40
0.0
 40
0.0
 40
0.0
 40
0.0618715085
 40
0.1239819326
 40
0.1863056791
 40
0.2488133587
 40
0.3114722549
 40
0.3742469596
 40
0.4371000107
 40
0.4999925636
 40
0.5628850783
 40
0.6257380154
 40
0.6885125321
 40
0.7198628123
 40
0.7511796021
 40
0.8136869547
 40
0.8760103162
 40
0.9070979862
 40
0.9381289465
 40
1.0
 40
1.0
 40
1.0
 40
1.0
 10
11.5532290591
 20
7.4564912289
 30
0.0
 10
11.5456308017
 20
7.4586353091
 30
0.0
 10
11.5305456035
 20
7.4634489009
 30
0.0
 10
11.5084169383
 20
7.4721828385
 30
0.0
 10
11.486843707
 20
7.4824038419
 30
0.0
 10
11.4659321725
 20
7.4940616965
 30
0.0
 10
11.4457836167
 20
7.5070997181
 30
0.0
 10
11.4264960842
 20
7.5214544007
 30
0.0
 10
11.4081633011
 20
7.5370559102
 30
0.0
 10
11.3908744255
 20
7.5538283117
 30
0.0
 10
11.3747134248
 20
7.5716901868
 30
0.0
 10
11.3597592419
 20
7.5905541347
 30
0.0
 10
11.3483573712
 20
7.6070420726
 30
0.0
 10
11.3399094901
 20
7.6206408408
 30
0.0
 10
11.3319291229
 20
7.634479837
 30
0.0
 10
11.3228312583
 20
7.6522235542
 30
0.0
 10
11.3149372717
 20
7.6705029498
 30
0.0
 10
11.3093765801
 20
7.6853795032
 30
0.0
 10
11.304334101
 20
7.7003780392
 30
0.0
 10
11.301122178
 20
7.7118014151
 30
0.0
 10
11.2992437535
 20
7.7194696092
 30
0.0
  0
SPLINE
  5
3F0
100
AcDbEntity
  8
0
100
AcDbSpline
 62
7
  6
CONTINUOUS
 70
0
 71
3
 72
15
 73
11
 74
0
 42
0.0000001
 43
0.0000001
 44
0.0000000001
 40
0.0
 40
0.0
 40
0.0
 40
0.0
 40
0.1232568082
 40
0.2468556791
 40
0.3708913774
 40
0.4954467457
 40
0.6205905798
 40
0.7463763366
 40
0.8728389443
 40
1.0
 40
1.0
 40
1.0
 40
1.0
 10
11.7724138855
 20
8.7278949727
 30
0.0
 10
11.7646910127
 20
8.7227386035
 30
0.0
 10
11.7487774137
 20
8.7130630698
 30
0.0
 10
11.7237348378
 20
8.7005965982
 30
0.0
 10
11.6976439234
 20
8.690233877
 30
0.0
 10
11.6706716625
 20
8.6820414587
 30
0.0
 10
11.6429879374
 20
8.6760702064
 30
0.0
 10
11.6147670805
 20
8.6723574997
 30
0.0
 10
11.5861892293
 20
8.6709259275
 30
0.0
 10
11.5670662185
 20
8.6714969452
 30
0.0
 10
11.5575089711
 20
8.6721597426
 30
0.0
  0
SPLINE
  5
3F1
100
AcDbEntity
  8
0
100
AcDbSpline
 62
7
  6
CONTINUOUS
 70
0
 71
3
 72
23
 73
19
 74
0
 42
0.0000001
 43
0.0000001
 44
0.0000000001
 40
0.0
 40
0.0
 40
0.0
 40
0.0
 40
0.0616482071
 40
0.1233194423
 40
0.1850364754
 40
0.2468215648
 40
0.3086962113
 40
0.3706809251
 40
0.4327950039
 40
0.4950563299
 40
0.5574811805
 40
0.6200840695
 40
0.682877611
 40
0.7458723236
 40
0.8090769236
 40
0.8724969197
 40
0.9361382346
 40
1.0
 40
1.0
 40
1.0
 40
1.0
 10
10.0116950462
 20
6.9708333277
 30
0.0
 10
10.0056351314
 20
6.9649799038
 30
0.0
 10
9.993195546
 20
6.9535945039
 30
0.0
 10
9.9736415004
 20
6.937540657
 30
0.0
 10
9.9532383357
 20
6.9225479487
 30
0.0
 10
9.9320381576
 20
6.9086548152
 30
0.0
 10
9.9100942194
 20
6.8958960462
 30
0.0
 10
9.8874618776
 20
6.8843037936
 30
0.0
 10
9.8641981538
 20
6.873907202
 30
0.0
 10
9.8403616696
 20
6.8647324147
 30
0.0
 10
9.8160124773
 20
6.8568024871
 30
0.0
 10
9.7912119099
 20
6.8501373373
 30
0.0
 10
9.7660224433
 20
6.8447536944
 30
0.0
 10
9.7405074755
 20
6.8406650024
 30
0.0
 10
9.714731381
 20
6.8378815573
 30
0.0
 10
9.6887586495
 20
6.8364101549
 30
0.0
 10
9.662655709
 20
6.8362545918
 30
0.0
 10
9.6452387631
 20
6.8370269855
 30
0.0
 10
9.6365318877
 20
6.8376308094
 30
0.0
  0
SPLINE
  5
3F2
100
AcDbEntity
  8
0
100
AcDbSpline
 62
7
  6
CONTINUOUS
 70
0
 71
3
 72
15
 73
11
 74
0
 42
0.0000001
 43
0.0000001
 44
0.0000000001
 40
0.0
 40
0.0
 40
0.0
 40
0.0
 40
0.1233300035
 40
0.2470319918
 40
0.3711707243
 40
0.4958019575
 40
0.6209713123
 40
0.7467140007
 40
0.8730522424
 40
1.0
 40
1.0
 40
1.0
 40
1.0
 10
10.0892389389
 20
7.0687437345
 30
0.0
 10
10.0789821048
 20
7.0631025829
 30
0.0
 10
10.0580127075
 20
7.0525569242
 30
0.0
 10
10.0254376979
 20
7.0390633164
 30
0.0
 10
9.9918491883
 20
7.0279340607
 30
0.0
 10
9.9574109787
 20
7.0192235829
 30
0.0
 10
9.922288256
 20
7.0129730553
 30
0.0
 10
9.8866495284
 20
7.0092123725
 30
0.0
 10
9.8506681308
 20
7.0079589354
 30
0.0
 10
9.8266195273
 20
7.0087970681
 30
0.0
 10
9.8145992438
 20
7.0096306776
 30
0.0
  0
SPLINE
  5
3F3
100
AcDbEntity
  8
0
100
AcDbSpline
 62
7
  6
CONTINUOUS
 70
0
 71
3
 72
19
 73
15
 74
0
 42
0.0000001
 43
0.0000001
 44
0.0000000001
 40
0.0
 40
0.0
 40
0.0
 40
0.0
 40
0.0616005123
 40
0.123275487
 40
0.1850372408
 40
0.2468975041
 40
0.3088673655
 40
0.3709571717
 40
0.4331764723
 40
0.4955339892
 40
0.620668356
 40
0.7464372759
 40
0.8728743725
 40
1.0
 40
1.0
 40
1.0
 40
1.0
 10
10.1117443535
 20
7.111291396
 30
0.0
 10
10.1064677343
 20
7.107839745
 30
0.0
 10
10.0957624255
 20
7.1011521133
 30
0.0
 10
10.0792905606
 20
7.0917927642
 30
0.0
 10
10.0624200582
 20
7.0831136998
 30
0.0
 10
10.0451772141
 20
7.0751283484
 30
0.0
 10
10.027588312
 20
7.067848925
 30
0.0
 10
10.0096804424
 20
7.0612866406
 30
0.0
 10
9.9914806953
 20
7.0554513781
 30
0.0
 10
9.9668375988
 20
7.0486453355
 30
0.0
 10
9.9354298883
 20
7.042001393
 30
0.0
 10
9.8970817346
 20
7.0370663394
 30
0.0
 10
9.8582607473
 20
7.0351865468
 30
0.0
 10
9.8322873634
 20
7.0359763233
 30
0.0
 10
9.8193062611
 20
7.0368765658
 30
0.0
  0
SPLINE
  5
3F4
100
AcDbEntity
  8
0
100
AcDbSpline
 62
7
  6
CONTINUOUS
 70
0
 71
3
 72
15
 73
11
 74
0
 42
0.0000001
 43
0.0000001
 44
0.0000000001
 40
0.0
 40
0.0
 40
0.0
 40
0.0
 40
0.1233237137
 40
0.2470184172
 40
0.3711505349
 40
0.4957773122
 40
0.6209456154
 40
0.7466916675
 40
0.8730383423
 40
1.0
 40
1.0
 40
1.0
 40
1.0
 10
10.1197638177
 20
7.129033223
 30
0.0
 10
10.1098962387
 20
7.1235382064
 30
0.0
 10
10.0897137746
 20
7.1132633675
 30
0.0
 10
10.0583386062
 20
7.1001104621
 30
0.0
 10
10.0259682978
 20
7.0892565938
 30
0.0
 10
9.9927635535
 20
7.0807557919
 30
0.0
 10
9.9588865112
 20
7.074648963
 30
0.0
 10
9.9245026276
 20
7.0709658412
 30
0.0
 10
9.8897821443
 20
7.0697237758
 30
0.0
 10
9.8665747346
 20
7.0705254604
 30
0.0
 10
9.8549749815
 20
7.071329906
 30
0.0
  0
SPLINE
  5
3F5
100
AcDbEntity
  8
0
100
AcDbSpline
 62
7
  6
CONTINUOUS
 70
0
 71
3
 72
69
 73
65
 74
0
 42
0.0000001
 43
0.0000001
 44
0.0000000001
 40
0.0
 40
0.0
 40
0.0
 40
0.0
 40
0.015675012
 40
0.0314027453
 40
0.0471814459
 40
0.0630099733
 40
0.0788860921
 40
0.0948073737
 40
0.1107709036
 40
0.1267734011
 40
0.1428112336
 40
0.158880453
 40
0.1749768338
 40
0.1910959103
 40
0.2072330175
 40
0.2233833321
 40
0.2395419157
 40
0.2557037581
 40
0.2718638212
 40
0.2880170822
 40
0.3202749255
 40
0.3524475142
 40
0.3684949934
 40
0.3845082669
 40
0.4004836059
 40
0.4164176212
 40
0.4323072968
 40
0.4481500206
 40
0.463943612
 40
0.4796863451
 40
0.4953769695
 40
0.5110147261
 40
0.5265993598
 40
0.5421311273
 40
0.5576108002
 40
0.573039662
 40
0.5884195006
 40
0.6037525952
 40
0.6190416975
 40
0.6342900088
 40
0.6495011507
 40
0.6646791308
 40
0.6798283034
 40
0.6949533256
 40
0.7100591096
 40
0.7251507719
 40
0.7402335797
 40
0.7553128949
 40
0.770394117
 40
0.785482625
 40
0.80058372
 40
0.8157025687
 40
0.8308441484
 40
0.8460131964
 40
0.8612141603
 40
0.8764511541
 40
0.8917279164
 40
0.9070477759
 40
0.9224136213
 40
0.9378278581
 40
0.953292479
 40
0.9688087309
 40
0.9843779839
 40
1.0
 40
1.0
 40
1.0
 40
1.0
 10
11.3188788048
 20
9.3206532423
 30
0.0
 10
11.3273478119
 20
9.3200659147
 30
0.0
 10
11.3442883688
 20
9.3184738181
 30
0.0
 10
11.3695924749
 20
9.3148503792
 30
0.0
 10
11.3947747479
 20
9.3099959935
 30
0.0
 10
11.419773584
 20
9.303922688
 30
0.0
 10
11.4445291575
 20
9.2966449583
 30
0.0
 10
11.4689817563
 20
9.2881804548
 30
0.0
 10
11.4930725487
 20
9.2785495549
 30
0.0
 10
11.5167435396
 20
9.2677754953
 30
0.0
 10
11.5399377606
 20
9.2558842527
 30
0.0
 10
11.5625993894
 20
9.2429044844
 30
0.0
 10
11.5846738865
 20
9.22886746
 30
0.0
 10
11.6061081232
 20
9.213806987
 30
0.0
 10
11.6268505107
 20
9.1977593251
 30
0.0
 10
11.6468511147
 20
9.1807631211
 30
0.0
 10
11.6660618297
 20
9.1628592636
 30
0.0
 10
11.6844363196
 20
9.1440910045
 30
0.0
 10
11.7019307305
 20
9.1245029695
 30
0.0
 10
11.7240131051
 20
9.0973729815
 30
0.0
 10
11.749210789
 20
9.0616589663
 30
0.0
 10
11.7709878835
 20
9.0238272093
 30
0.0
 10
11.7862095183
 20
8.9925346682
 30
0.0
 10
11.7964926106
 20
8.9686268784
 30
0.0
 10
11.8056251823
 20
8.9443224987
 30
0.0
 10
11.8135855411
 20
8.9196794713
 30
0.0
 10
11.820354388
 20
8.894757265
 30
0.0
 10
11.825915415
 20
8.8696158396
 30
0.0
 10
11.830255181
 20
8.8443157347
 30
0.0
 10
11.8333631869
 20
8.8189178637
 30
0.0
 10
11.8352318897
 20
8.7934833855
 30
0.0
 10
11.835856725
 20
8.7680735546
 30
0.0
 10
11.8352361179
 20
8.7427495759
 30
0.0
 10
11.8333715111
 20
8.717572456
 30
0.0
 10
11.8302673403
 20
8.6926028555
 30
0.0
 10
11.8259310243
 20
8.6679009439
 30
0.0
 10
11.8203729491
 20
8.6435262565
 30
0.0
 10
11.813606445
 20
8.6195375507
 30
0.0
 10
11.8056477532
 20
8.595992666
 30
0.0
 10
11.7965160066
 20
8.5729483777
 30
0.0
 10
11.7862331789
 20
8.5504602577
 30
0.0
 10
11.7748240204
 20
8.528582545
 30
0.0
 10
11.7623160025
 20
8.5073680129
 30
0.0
 10
11.7487392523
 20
8.4868678412
 30
0.0
 10
11.7341264796
 20
8.4671314923
 30
0.0
 10
11.7185129035
 20
8.4482065874
 30
0.0
 10
11.7019361793
 20
8.4301387771
 30
0.0
 10
11.684436287
 20
8.412971644
 30
0.0
 10
11.6660554374
 20
8.3967465952
 30
0.0
 10
11.6468379683
 20
8.3815027618
 30
0.0
 10
11.6268302378
 20
8.3672769035
 30
0.0
 10
11.6060805097
 20
8.3541033227
 30
0.0
 10
11.584638848
 20
8.3420137605
 30
0.0
 10
11.562556983
 20
8.3310373329
 30
0.0
 10
11.539888182
 20
8.3212004666
 30
0.0
 10
11.5166871209
 20
8.3125268356
 30
0.0
 10
11.4930097516
 20
8.3050373046
 30
0.0
 10
11.4689131639
 20
8.2987498815
 30
0.0
 10
11.4444554643
 20
8.2936796755
 30
0.0
 10
11.4196955768
 20
8.289838806
 30
0.0
 10
11.3946933033
 20
8.2872365334
 30
0.0
 10
11.3695085196
 20
8.2858789356
 30
0.0
 10
11.3442028926
 20
8.2857693733
 30
0.0
 10
11.327319179
 20
8.286527205
 30
0.0
 10
11.3188788048
 20
8.287112547
 30
0.0
  0
SPLINE
  5
3F6
100
AcDbEntity
  8
0
100
AcDbSpline
 62
7
  6
CONTINUOUS
 70
0
 71
3
 72
21
 73
17
 74
0
 42
0.0000001
 43
0.0000001
 44
0.0000000001
 40
0.0
 40
0.0
 40
0.0
 40
0.0
 40
0.0615939524
 40
0.1232558874
 40
0.1849998474
 40
0.2468392788
 40
0.3087869141
 40
0.3708546805
 40
0.4330536378
 40
0.4953938864
 40
0.5578845106
 40
0.6205334818
 40
0.6833476514
 40
0.7463329639
 40
0.8728046027
 40
1.0
 40
1.0
 40
1.0
 40
1.0
 10
10.1443243221
 20
7.205113673
 30
0.0
 10
10.1394121752
 20
7.2016536858
 30
0.0
 10
10.1294287678
 20
7.1949451908
 30
0.0
 10
10.1140179584
 20
7.1855441913
 30
0.0
 10
10.0981891772
 20
7.1768150006
 30
0.0
 10
10.0819696164
 20
7.1687726837
 30
0.0
 10
10.0653866416
 20
7.1614308524
 30
0.0
 10
10.0484684265
 20
7.1548018761
 30
0.0
 10
10.0312436316
 20
7.1488969708
 30
0.0
 10
10.0137414354
 20
7.1437261978
 30
0.0
 10
9.9959915014
 20
7.1392982215
 30
0.0
 10
9.9780239963
 20
7.1356205256
 30
0.0
 10
9.9598689982
 20
7.132699381
 30
0.0
 10
9.9354236273
 20
7.1298160711
 30
0.0
 10
9.9045432462
 20
7.1281320226
 30
0.0
 10
9.879776251
 20
7.1288359244
 30
0.0
 10
9.8673982854
 20
7.1296943392
 30
0.0
  0
SPLINE
  5
3F7
100
AcDbEntity
  8
0
100
AcDbSpline
 62
7
  6
CONTINUOUS
 70
0
 71
3
 72
39
 73
35
 74
0
 42
0.0000001
 43
0.0000001
 44
0.0000000001
 40
0.0
 40
0.0
 40
0.0
 40
0.0
 40
0.0299393047
 40
0.0599022801
 40
0.0899120371
 40
0.1199905837
 40
0.1501583157
 40
0.1804335568
 40
0.2108321569
 40
0.2413671588
 40
0.2720485416
 40
0.3028830442
 40
0.3338740651
 40
0.3650216374
 40
0.3963224781
 40
0.4277701073
 40
0.4593550264
 40
0.4910649494
 40
0.522885082
 40
0.5547984439
 40
0.586786223
 40
0.6188281554
 40
0.6509029262
 40
0.6829885862
 40
0.7150629769
 40
0.7471041563
 40
0.7790908245
 40
0.8110027389
 40
0.842821116
 40
0.8745290096
 40
0.9061116585
 40
0.9375568878
 40
0.9688549526
 40
1.0
 40
1.0
 40
1.0
 40
1.0
 10
9.2613687292
 20
7.7476282453
 30
0.0
 10
9.2525410953
 20
7.7391014119
 30
0.0
 10
9.2355400128
 20
7.721340892
 30
0.0
 10
9.2121911118
 20
7.6927748969
 30
0.0
 10
9.1911085588
 20
7.6624254876
 30
0.0
 10
9.1724071347
 20
7.6304573269
 30
0.0
 10
9.1561860895
 20
7.5970410883
 30
0.0
 10
9.1425320477
 20
7.5623558437
 30
0.0
 10
9.1315176524
 20
7.5265871886
 30
0.0
 10
9.1232013664
 20
7.4899264959
 30
0.0
 10
9.1176271629
 20
7.4525697884
 30
0.0
 10
9.11482436
 20
7.4147166981
 30
0.0
 10
9.114807491
 20
7.3765694015
 30
0.0
 10
9.1175761987
 20
7.3383315515
 30
0.0
 10
9.1231152489
 20
7.3002071862
 30
0.0
 10
9.1313946926
 20
7.2623996563
 30
0.0
 10
9.1423700279
 20
7.2251105593
 30
0.0
 10
9.1559824327
 20
7.1885386815
 30
0.0
 10
9.1721590259
 20
7.1528789266
 30
0.0
 10
9.1908133404
 20
7.1183213146
 30
0.0
 10
9.2118457709
 20
7.0850499838
 30
0.0
 10
9.235144108
 20
7.0532422327
 30
0.0
 10
9.260584066
 20
7.0230675371
 30
0.0
 10
9.2880299992
 20
6.9946866903
 30
0.0
 10
9.3173356226
 20
6.9682509644
 30
0.0
 10
9.3483447862
 20
6.9439013244
 30
0.0
 10
9.3808922539
 20
6.9217676342
 30
0.0
 10
9.4148045989
 20
6.9019679763
 30
0.0
 10
9.4499011177
 20
6.8846080661
 30
0.0
 10
9.4859948563
 20
6.8697806928
 30
0.0
 10
9.5228932851
 20
6.8575651846
 30
0.0
 10
9.5604003511
 20
6.8480269986
 30
0.0
 10
9.5983135049
 20
6.8412173839
 30
0.0
 10
9.6237948937
 20
6.8385141229
 30
0.0
 10
9.6365318877
 20
6.8376308094
 30
0.0
  0
SPLINE
  5
3F8
100
AcDbEntity
  8
0
100
AcDbSpline
 62
7
  6
CONTINUOUS
 70
0
 71
3
 72
45
 73
41
 74
0
 42
0.0000001
 43
0.0000001
 44
0.0000000001
 40
0.0
 40
0.0
 40
0.0
 40
0.0
 40
0.0149735785
 40
0.0299663366
 40
0.0449801909
 40
0.0600169617
 40
0.0901615913
 40
0.1204169945
 40
0.1355917011
 40
0.150797785
 40
0.1660361962
 40
0.1813077369
 40
0.2119484963
 40
0.2427277944
 40
0.273646719
 40
0.3047039792
 40
0.3358959587
 40
0.367216806
 40
0.398658558
 40
0.4302112931
 40
0.4618633118
 40
0.4936013392
 40
0.5254107476
 40
0.5572757945
 40
0.5891798734
 40
0.621105774
 40
0.6530359498
 40
0.6849527881
 40
0.7168388816
 40
0.7486772978
 40
0.780451843
 40
0.8121473185
 40
0.8437497632
 40
0.8595140617
 40
0.8752505569
 40
0.9066311404
 40
0.9378865327
 40
0.9534668161
 40
0.9690135885
 40
1.0
 40
1.0
 40
1.0
 40
1.0
 10
9.3618472625
 20
7.8216313678
 30
0.0
 10
9.3590258
 20
7.8168949639
 30
0.0
 10
9.3535433708
 20
7.8073172132
 30
0.0
 10
9.3458169152
 20
7.7926653652
 30
0.0
 10
9.3385905117
 20
7.7777342732
 30
0.0
 10
9.3296258889
 20
7.7574610652
 30
0.0
 10
9.3197077548
 20
7.7314925631
 30
0.0
 10
9.3115667773
 20
7.7048606434
 30
0.0
 10
9.3061290837
 20
7.683203829
 30
0.0
 10
9.3025887287
 20
7.6667814031
 30
0.0
 10
9.2995946681
 20
7.6502144374
 30
0.0
 10
9.2963318015
 20
7.6279336841
 30
0.0
 10
9.2936373527
 20
7.5998029635
 30
0.0
 10
9.2926307541
 20
7.5657959858
 30
0.0
 10
9.2938506361
 20
7.5316420921
 30
0.0
 10
9.2972917168
 20
7.4974879148
 30
0.0
 10
9.3029390427
 20
7.4634787882
 30
0.0
 10
9.3107683345
 20
7.4297597278
 30
0.0
 10
9.3207460235
 20
7.3964743899
 30
0.0
 10
9.3328294123
 20
7.3637645798
 30
0.0
 10
9.3469668566
 20
7.3317696226
 30
0.0
 10
9.3630979914
 20
7.3006257859
 30
0.0
 10
9.3811539876
 20
7.2704657026
 30
0.0
 10
9.4010578447
 20
7.2414178129
 30
0.0
 10
9.4227247178
 20
7.2136058227
 30
0.0
 10
9.4460622759
 20
7.1871481811
 30
0.0
 10
9.4709710946
 20
7.1621575808
 30
0.0
 10
9.4973450696
 20
7.1387404836
 30
0.0
 10
9.5250718903
 20
7.1169966624
 30
0.0
 10
9.554033416
 20
7.0970188078
 30
0.0
 10
9.5841065307
 20
7.0788920107
 30
0.0
 10
9.6151623508
 20
7.0626938811
 30
0.0
 10
9.64177582
 20
7.050849384
 30
0.0
 10
9.6634245411
 20
7.0424056328
 30
0.0
 10
9.685250077
 20
7.0346711561
 30
0.0
 10
9.7128915912
 20
7.0263179062
 30
0.0
 10
9.7409508317
 20
7.019744634
 30
0.0
 10
9.7635428318
 20
7.0155831029
 30
0.0
 10
9.7861578616
 20
7.0121630088
 30
0.0
 10
9.8032177572
 20
7.0104199864
 30
0.0
 10
9.8145992438
 20
7.0096306776
 30
0.0
  0
SPLINE
  5
3F9
100
AcDbEntity
  8
0
100
AcDbSpline
 62
7
  6
CONTINUOUS
 70
0
 71
3
 72
43
 73
39
 74
0
 42
0.0000001
 43
0.0000001
 44
0.0000000001
 40
0.0
 40
0.0
 40
0.0
 40
0.0
 40
0.0149644519
 40
0.029945728
 40
0.0449459508
 40
0.0599671551
 40
0.0900754905
 40
0.1202894876
 40
0.1354422366
 40
0.1506257404
 40
0.1658411623
 40
0.1810895096
 40
0.2116838487
 40
0.2424182149
 40
0.2732950533
 40
0.3043142597
 40
0.3354732171
 40
0.3667668749
 40
0.3981878673
 40
0.4297266664
 40
0.4613717669
 40
0.4931098977
 40
0.5249262566
 40
0.5568047641
 40
0.588728332
 40
0.6206791447
 40
0.6526389479
 40
0.6845893426
 40
0.7165120809
 40
0.7483893602
 40
0.7802041119
 40
0.811940283
 40
0.843583102
 40
0.8751193426
 40
0.9065375159
 40
0.9378282353
 40
0.968983917
 40
1.0
 40
1.0
 40
1.0
 40
1.0
 10
10.8333712007
 20
7.7328361422
 30
0.0
 10
10.8303421853
 20
7.728260932
 30
0.0
 10
10.8244430209
 20
7.7189967331
 30
0.0
 10
10.8160879647
 20
7.7047874972
 30
0.0
 10
10.8082307253
 20
7.6902729369
 30
0.0
 10
10.7984234817
 20
7.670522169
 30
0.0
 10
10.7874508232
 20
7.6451420441
 30
0.0
 10
10.7782626592
 20
7.6190121074
 30
0.0
 10
10.7719951671
 20
7.597709245
 30
0.0
 10
10.7678364157
 20
7.5815292665
 30
0.0
 10
10.7642294075
 20
7.5651815392
 30
0.0
 10
10.7601567345
 20
7.5431631902
 30
0.0
 10
10.7564673679
 20
7.5153042282
 30
0.0
 10
10.7543025065
 20
7.481539574
 30
0.0
 10
10.7544035457
 20
7.44754949
 30
0.0
 10
10.756769972
 20
7.4134862367
 30
0.0
 10
10.7613909373
 20
7.3795010417
 30
0.0
 10
10.7682456608
 20
7.3457450919
 30
0.0
 10
10.7773034359
 20
7.3123684212
 30
0.0
 10
10.7885237954
 20
7.279519371
 30
0.0
 10
10.8018566827
 20
7.2473439034
 30
0.0
 10
10.8172426862
 20
7.2159849707
 30
0.0
 10
10.8346133028
 20
7.1855818846
 30
0.0
 10
10.8538912421
 20
7.1562697046
 30
0.0
 10
10.8749907687
 20
7.1281786446
 30
0.0
 10
10.8978180812
 20
7.1014334997
 30
0.0
 10
10.9222717256
 20
7.0761530973
 30
0.0
 10
10.9482430428
 20
7.0524497736
 30
0.0
 10
10.9756166478
 20
7.0304288795
 30
0.0
 10
11.0042709344
 20
7.0101883113
 30
0.0
 10
11.0340786114
 20
6.9918180784
 30
0.0
 10
11.0649072694
 20
6.9753999113
 30
0.0
 10
11.0966199461
 20
6.9610068921
 30
0.0
 10
11.1290757863
 20
6.9487031515
 30
0.0
 10
11.162130453
 20
6.9385435301
 30
0.0
 10
11.1956375296
 20
6.9305734387
 30
0.0
 10
11.2294461611
 20
6.9248285569
 30
0.0
 10
11.252142625
 20
6.922493742
 30
0.0
 10
11.263488069
 20
6.9217069328
 30
0.0
  0
SPLINE
  5
3FA
100
AcDbEntity
  8
0
100
AcDbSpline
 62
7
  6
CONTINUOUS
 70
0
 71
3
 72
42
 73
38
 74
0
 42
0.0000001
 43
0.0000001
 44
0.0000000001
 40
0.0
 40
0.0
 40
0.0
 40
0.0
 40
0.0299318279
 40
0.0599336148
 40
0.0749684732
 40
0.0900270166
 40
0.1051110802
 40
0.1202223807
 40
0.150528196
 40
0.180960108
 40
0.2115266215
 40
0.242233691
 40
0.2576432982
 40
0.2730890677
 40
0.3040845798
 40
0.3352226994
 40
0.3664989184
 40
0.397906286
 40
0.4294355605
 40
0.461075396
 40
0.4928125582
 40
0.5246321665
 40
0.5565179575
 40
0.5884525649
 40
0.6204178136
 40
0.6523950224
 40
0.6843653129
 40
0.7163099206
 40
0.7482105047
 40
0.7800494531
 40
0.8118101798
 40
0.843477407
 40
0.8750374419
 40
0.9064783856
 40
0.9377905098
 40
0.9689659496
 40
1.0
 40
1.0
 40
1.0
 40
1.0
 10
9.4051868036
 20
7.842717692
 30
0.0
 10
9.3989152595
 20
7.833817682
 30
0.0
 10
9.3869965542
 20
7.8155373174
 30
0.0
 10
9.3737692101
 20
7.7916626093
 30
0.0
 10
9.3642119748
 20
7.7719985215
 30
0.0
 10
9.3575577572
 20
7.7569687925
 30
0.0
 10
9.3514306636
 20
7.741686609
 30
0.0
 10
9.3439670381
 20
7.720979517
 30
0.0
 10
9.3359900888
 20
7.6945418737
 30
0.0
 10
9.3286355833
 20
7.6621274434
 30
0.0
 10
9.323521209
 20
7.629137521
 30
0.0
 10
9.321148204
 20
7.6013214609
 30
0.0
 10
9.3203840751
 20
7.5789374448
 30
0.0
 10
9.320378095
 20
7.5564354188
 30
0.0
 10
9.3217996912
 20
7.5282285994
 30
0.0
 10
9.3257740924
 20
7.4944593502
 30
0.0
 10
9.3320005631
 20
7.4608791601
 30
0.0
 10
9.3404504782
 20
7.4276421226
 30
0.0
 10
9.3510850872
 20
7.394899483
 30
0.0
 10
9.3638557172
 20
7.3628005414
 30
0.0
 10
9.378703992
 20
7.3314915537
 30
0.0
 10
9.3955620909
 20
7.3011151831
 30
0.0
 10
9.4143530663
 20
7.2718098283
 30
0.0
 10
9.4349911948
 20
7.243709009
 30
0.0
 10
9.4573823654
 20
7.2169407615
 30
0.0
 10
9.4814245052
 20
7.1916270616
 30
0.0
 10
9.5070080414
 20
7.1678832742
 30
0.0
 10
9.5340163952
 20
7.1458176318
 30
0.0
 10
9.56232651
 20
7.1255307466
 30
0.0
 10
9.5918094008
 20
7.1071151493
 30
0.0
 10
9.6223307421
 20
7.090654869
 30
0.0
 10
9.6537514605
 20
7.076225053
 30
0.0
 10
9.6859284206
 20
7.0638916434
 30
0.0
 10
9.7187148575
 20
7.0537110236
 30
0.0
 10
9.751961818
 20
7.0457298689
 30
0.0
 10
9.7855157826
 20
7.0399848229
 30
0.0
 10
9.8080446558
 20
7.0376575608
 30
0.0
 10
9.8193062611
 20
7.0368765658
 30
0.0
  0
SPLINE
  5
3FB
100
AcDbEntity
  8
0
100
AcDbSpline
 62
7
  6
CONTINUOUS
 70
0
 71
3
 72
44
 73
40
 74
0
 42
0.0000001
 43
0.0000001
 44
0.0000000001
 40
0.0
 40
0.0
 40
0.0
 40
0.0
 40
0.0149724263
 40
0.0299637806
 40
0.044976004
 40
0.0600109418
 40
0.0901513665
 40
0.1204020455
 40
0.1355742672
 40
0.1507778123
 40
0.181278328
 40
0.2119139443
 40
0.2426883047
 40
0.2736026434
 40
0.3046557967
 40
0.3358442542
 40
0.3671622488
 40
0.3986018792
 40
0.4301532637
 40
0.4618047206
 40
0.4935429726
 40
0.5253533695
 40
0.5572201289
 40
0.5891265884
 40
0.6210554689
 40
0.6529891436
 40
0.6849099115
 40
0.7168002718
 40
0.7327305786
 40
0.7486469527
 40
0.7804261481
 40
0.8121263224
 40
0.8437334247
 40
0.8752348901
 40
0.9066198122
 40
0.9378792844
 40
0.9534614928
 40
0.9690101517
 40
1.0
 40
1.0
 40
1.0
 40
1.0
 10
9.4231738007
 20
7.8500754275
 30
0.0
 10
9.4204450113
 20
7.8455495763
 30
0.0
 10
9.4151411454
 20
7.8363963123
 30
0.0
 10
9.4076620291
 20
7.8223898163
 30
0.0
 10
9.4006622347
 20
7.8081127513
 30
0.0
 10
9.3919724157
 20
7.7887228962
 30
0.0
 10
9.3823450398
 20
7.7638773192
 30
0.0
 10
9.3744232459
 20
7.7383863105
 30
0.0
 10
9.3691178251
 20
7.7176512855
 30
0.0
 10
9.3644964874
 20
7.6966628873
 30
0.0
 10
9.3600343867
 20
7.6700668792
 30
0.0
 10
9.3568083478
 20
7.6377624636
 30
0.0
 10
9.355717689
 20
7.6051691343
 30
0.0
 10
9.3567670582
 20
7.5724275093
 30
0.0
 10
9.359951653
 20
7.5396776384
 30
0.0
 10
9.3652576143
 20
7.5070598746
 30
0.0
 10
9.3726619956
 20
7.4747138823
 30
0.0
 10
9.3821328932
 20
7.4427781523
 30
0.0
 10
9.3936295794
 20
7.4113893865
 30
0.0
 10
9.407102682
 20
7.3806819267
 30
0.0
 10
9.4224943958
 20
7.3507871846
 30
0.0
 10
9.4397387322
 20
7.3218330843
 30
0.0
 10
9.4587617954
 20
7.2939435244
 30
0.0
 10
9.4794821178
 20
7.2672378391
 30
0.0
 10
9.5018109313
 20
7.2418303446
 30
0.0
 10
9.5256528265
 20
7.2178296574
 30
0.0
 10
9.5509051027
 20
7.1953389655
 30
0.0
 10
9.5730442153
 20
7.17792738
 30
0.0
 10
9.5913514495
 20
7.1648462641
 30
0.0
 10
9.6100191695
 20
7.1523554012
 30
0.0
 10
9.6340211416
 20
7.1378516385
 30
0.0
 10
9.6637831044
 20
7.1222919653
 30
0.0
 10
9.6943653537
 20
7.1086508496
 30
0.0
 10
9.7256365808
 20
7.0969872481
 30
0.0
 10
9.7574623164
 20
7.0873512492
 30
0.0
 10
9.7843636236
 20
7.0810383326
 30
0.0
 10
9.806023607
 20
7.0770424755
 30
0.0
 10
9.8277059618
 20
7.0737591462
 30
0.0
 10
9.8440626404
 20
7.0720866795
 30
0.0
 10
9.8549749815
 20
7.071329906
 30
0.0
  0
SPLINE
  5
3FC
100
AcDbEntity
  8
0
100
AcDbSpline
 62
7
  6
CONTINUOUS
 70
0
 71
3
 72
43
 73
39
 74
0
 42
0.0000001
 43
0.0000001
 44
0.0000000001
 40
0.0
 40
0.0
 40
0.0
 40
0.0
 40
0.0149579341
 40
0.0299291408
 40
0.0449160112
 40
0.0599208587
 40
0.0899883142
 40
0.1201529331
 40
0.1352787115
 40
0.150434025
 40
0.1656203315
 40
0.1808389298
 40
0.2113727036
 40
0.2420472704
 40
0.2728670561
 40
0.3038337161
 40
0.3349461427
 40
0.3662005248
 40
0.3975904539
 40
0.4291070737
 40
0.4607392681
 40
0.4924738817
 40
0.524295971
 40
0.5561890781
 40
0.5881355248
 40
0.6201167214
 40
0.6521134867
 40
0.684106375
 40
0.7160760062
 40
0.7480033952
 40
0.7798702772
 40
0.8116594239
 40
0.8433549453
 40
0.8749425853
 40
0.9064099452
 40
0.937746883
 40
0.968945206
 40
1.0
 40
1.0
 40
1.0
 40
1.0
 10
9.5001051861
 20
7.8720599019
 30
0.0
 10
9.4970824524
 20
7.8680697911
 30
0.0
 10
9.4911800284
 20
7.8599744098
 30
0.0
 10
9.4827728596
 20
7.8475100759
 30
0.0
 10
9.474817741
 20
7.8347335356
 30
0.0
 10
9.464820874
 20
7.8172924415
 30
0.0
 10
9.4534988542
 20
7.7947766493
 30
0.0
 10
9.4438170204
 20
7.7714649912
 30
0.0
 10
9.4370720605
 20
7.7523901863
 30
0.0
 10
9.4325140522
 20
7.7378694046
 30
0.0
 10
9.4284675765
 20
7.7231656467
 30
0.0
 10
9.4237556145
 20
7.7033202561
 30
0.0
 10
9.4191695782
 20
7.6781345026
 30
0.0
 10
9.4157813212
 20
7.6474991203
 30
0.0
 10
9.4145165318
 20
7.6165574641
 30
0.0
 10
9.4153811151
 20
7.5854560128
 30
0.0
 10
9.41837066
 20
7.5543406772
 30
0.0
 10
9.4234708734
 20
7.5233577209
 30
0.0
 10
9.4306575476
 20
7.4926526485
 30
0.0
 10
9.4398967095
 20
7.4623696466
 30
0.0
 10
9.4511447787
 20
7.4326508838
 30
0.0
 10
9.464348769
 20
7.4036358573
 30
0.0
 10
9.4794465426
 20
7.3754607427
 30
0.0
 10
9.4963671058
 20
7.3482577652
 30
0.0
 10
9.5150309408
 20
7.3221545851
 30
0.0
 10
9.5353503771
 20
7.2972737053
 30
0.0
 10
9.5572300002
 20
7.2737319025
 30
0.0
 10
9.5805670958
 20
7.2516396844
 30
0.0
 10
9.6052521273
 20
7.2311007753
 30
0.0
 10
9.6311692464
 20
7.2122116346
 30
0.0
 10
9.6581968248
 20
7.1950609987
 30
0.0
 10
9.6862080289
 20
7.1797294737
 30
0.0
 10
9.7150713935
 20
7.1662891544
 30
0.0
 10
9.7446514882
 20
7.1548033058
 30
0.0
 10
9.7748093437
 20
7.1453260144
 30
0.0
 10
9.8054038386
 20
7.1379020382
 30
0.0
 10
9.8362894568
 20
7.1325664894
 30
0.0
 10
9.857030463
 20
7.1304133502
 30
0.0
 10
9.8673982854
 20
7.1296943392
 30
0.0
  0
SPLINE
  5
3FD
100
AcDbEntity
  8
0
100
AcDbSpline
 62
7
  6
CONTINUOUS
 70
0
 71
3
 72
69
 73
65
 74
0
 42
0.0000001
 43
0.0000001
 44
0.0000000001
 40
0.0
 40
0.0
 40
0.0
 40
0.0
 40
0.015675012
 40
0.0314027453
 40
0.0471814459
 40
0.0630099733
 40
0.0788860921
 40
0.0948073737
 40
0.1107709036
 40
0.1267734011
 40
0.1428112336
 40
0.158880453
 40
0.1749768338
 40
0.1910959103
 40
0.2072330175
 40
0.2233833321
 40
0.2395419157
 40
0.2557037581
 40
0.2718638212
 40
0.2880170822
 40
0.3202749255
 40
0.3524475142
 40
0.3684949934
 40
0.3845082669
 40
0.4004836059
 40
0.4164176212
 40
0.4323072968
 40
0.4481500206
 40
0.463943612
 40
0.4796863451
 40
0.4953769695
 40
0.5110147261
 40
0.5265993598
 40
0.5421311273
 40
0.5576108002
 40
0.573039662
 40
0.5884195006
 40
0.6037525952
 40
0.6190416975
 40
0.6342900088
 40
0.6495011507
 40
0.6646791308
 40
0.6798283034
 40
0.6949533256
 40
0.7100591096
 40
0.7251507719
 40
0.7402335797
 40
0.7553128949
 40
0.770394117
 40
0.785482625
 40
0.80058372
 40
0.8157025687
 40
0.8308441484
 40
0.8460131964
 40
0.8612141603
 40
0.8764511541
 40
0.8917279164
 40
0.9070477759
 40
0.9224136213
 40
0.9378278581
 40
0.953292479
 40
0.9688087309
 40
0.9843779839
 40
1.0
 40
1.0
 40
1.0
 40
1.0
 10
11.3188788048
 20
8.287112547
 30
0.0
 10
11.3104097976
 20
8.2876998746
 30
0.0
 10
11.2934692408
 20
8.2892919712
 30
0.0
 10
11.2681651346
 20
8.2929154101
 30
0.0
 10
11.2429828617
 20
8.2977697958
 30
0.0
 10
11.2179840255
 20
8.3038431013
 30
0.0
 10
11.193228452
 20
8.311120831
 30
0.0
 10
11.1687758532
 20
8.3195853345
 30
0.0
 10
11.1446850608
 20
8.3292162343
 30
0.0
 10
11.12101407
 20
8.3399902939
 30
0.0
 10
11.097819849
 20
8.3518815365
 30
0.0
 10
11.0751582202
 20
8.3648613049
 30
0.0
 10
11.0530837231
 20
8.3788983293
 30
0.0
 10
11.0316494864
 20
8.3939588023
 30
0.0
 10
11.0109070989
 20
8.4100064642
 30
0.0
 10
10.9909064948
 20
8.4270026682
 30
0.0
 10
10.9716957799
 20
8.4449065257
 30
0.0
 10
10.9533212899
 20
8.4636747848
 30
0.0
 10
10.935826879
 20
8.4832628198
 30
0.0
 10
10.9137445044
 20
8.5103928078
 30
0.0
 10
10.8885468206
 20
8.546106823
 30
0.0
 10
10.866769726
 20
8.58393858
 30
0.0
 10
10.8515480912
 20
8.6152311211
 30
0.0
 10
10.8412649989
 20
8.6391389108
 30
0.0
 10
10.8321324272
 20
8.6634432905
 30
0.0
 10
10.8241720685
 20
8.688086318
 30
0.0
 10
10.8174032216
 20
8.7130085242
 30
0.0
 10
10.8118421945
 20
8.7381499497
 30
0.0
 10
10.8075024285
 20
8.7634500546
 30
0.0
 10
10.8043944226
 20
8.7888479256
 30
0.0
 10
10.8025257198
 20
8.8142824038
 30
0.0
 10
10.8019008845
 20
8.8396922347
 30
0.0
 10
10.8025214917
 20
8.8650162134
 30
0.0
 10
10.8043860984
 20
8.8901933332
 30
0.0
 10
10.8074902692
 20
8.9151629338
 30
0.0
 10
10.8118265852
 20
8.9398648454
 30
0.0
 10
10.8173846604
 20
8.9642395327
 30
0.0
 10
10.8241511645
 20
8.9882282386
 30
0.0
 10
10.8321098563
 20
9.0117731233
 30
0.0
 10
10.8412416029
 20
9.0348174116
 30
0.0
 10
10.8515244306
 20
9.0573055316
 30
0.0
 10
10.8629335891
 20
9.0791832443
 30
0.0
 10
10.875441607
 20
9.1003977764
 30
0.0
 10
10.8890183572
 20
9.1208979481
 30
0.0
 10
10.9036311299
 20
9.140634297
 30
0.0
 10
10.919244706
 20
9.1595592019
 30
0.0
 10
10.9358214302
 20
9.1776270122
 30
0.0
 10
10.9533213225
 20
9.1947941452
 30
0.0
 10
10.9717021721
 20
9.2110191941
 30
0.0
 10
10.9909196412
 20
9.2262630275
 30
0.0
 10
11.0109273717
 20
9.2404888858
 30
0.0
 10
11.0316770998
 20
9.2536624665
 30
0.0
 10
11.0531187615
 20
9.2657520288
 30
0.0
 10
11.0752006265
 20
9.2767284564
 30
0.0
 10
11.0978694275
 20
9.2865653227
 30
0.0
 10
11.1210704887
 20
9.2952389537
 30
0.0
 10
11.1447478579
 20
9.3027284846
 30
0.0
 10
11.1688444456
 20
9.3090159077
 30
0.0
 10
11.1933021452
 20
9.3140861138
 30
0.0
 10
11.2180620327
 20
9.3179269833
 30
0.0
 10
11.2430643063
 20
9.3205292558
 30
0.0
 10
11.2682490899
 20
9.3218868537
 30
0.0
 10
11.2935547169
 20
9.321996416
 30
0.0
 10
11.3104384306
 20
9.3212385843
 30
0.0
 10
11.3188788048
 20
9.3206532423
 30
0.0
  0
SPLINE
  5
3FE
100
AcDbEntity
  8
0
100
AcDbSpline
 62
7
  6
CONTINUOUS
 70
0
 71
3
 72
39
 73
35
 74
0
 42
0.0000001
 43
0.0000001
 44
0.0000000001
 40
0.0
 40
0.0
 40
0.0
 40
0.0
 40
0.0303997532
 40
0.0609107974
 40
0.0915342381
 40
0.1222699129
 40
0.1531164062
 40
0.1840710801
 40
0.215130116
 40
0.2462885677
 40
0.2775404248
 40
0.3088786862
 40
0.340295441
 40
0.3717819583
 40
0.4033287841
 40
0.4349258436
 40
0.4665625474
 40
0.4982279014
 40
0.5299106197
 40
0.5615992392
 40
0.5932822366
 40
0.6249481457
 40
0.6565856747
 40
0.6881838213
 40
0.7197319847
 40
0.751220077
 40
0.7826386278
 40
0.8139788865
 40
0.8452329285
 40
0.8763936954
 40
0.9074552751
 40
0.9384123281
 40
0.9692618694
 40
1.0
 40
1.0
 40
1.0
 40
1.0
 10
9.63661482
 20
7.8808353797
 30
0.0
 10
9.6356108222
 20
7.8729576751
 30
0.0
 10
9.6340253584
 20
7.8571158176
 30
0.0
 10
9.6329207046
 20
7.8332187704
 30
0.0
 10
9.6330878915
 20
7.8092084394
 30
0.0
 10
9.6345265
 20
7.7851531904
 30
0.0
 10
9.6372323773
 20
7.7611203504
 30
0.0
 10
9.6411978533
 20
7.7371774821
 30
0.0
 10
9.6464117181
 20
7.7133918017
 30
0.0
 10
9.6528592673
 20
7.689830098
 30
0.0
 10
9.6605223408
 20
7.6665585182
 30
0.0
 10
9.669379374
 20
7.6436423919
 30
0.0
 10
9.6794054613
 20
7.6211460487
 30
0.0
 10
9.6905724138
 20
7.599132634
 30
0.0
 10
9.7028488405
 20
7.5776639318
 30
0.0
 10
9.7162002473
 20
7.5568001967
 30
0.0
 10
9.730589131
 20
7.5365999859
 30
0.0
 10
9.7459750845
 20
7.5171199964
 30
0.0
 10
9.762314909
 20
7.4984149071
 30
0.0
 10
9.7795627356
 20
7.4805372283
 30
0.0
 10
9.797670147
 20
7.463537149
 30
0.0
 10
9.8165863095
 20
7.4474623909
 30
0.0
 10
9.8362581267
 20
7.4323580858
 30
0.0
 10
9.8566303848
 20
7.4182666482
 30
0.0
 10
9.8776459066
 20
7.4052276572
 30
0.0
 10
9.8992457108
 20
7.3932777466
 30
0.0
 10
9.9213691752
 20
7.3824505037
 30
0.0
 10
9.9439542065
 20
7.3727763667
 30
0.0
 10
9.9669373976
 20
7.3642825478
 30
0.0
 10
9.9902542631
 20
7.356992905
 30
0.0
 10
10.013839227
 20
7.3509280525
 30
0.0
 10
10.0376264379
 20
7.3461049031
 30
0.0
 10
10.0615480649
 20
7.34253736
 30
0.0
 10
10.0775719794
 20
7.3409997135
 30
0.0
 10
10.0855825603
 20
7.3404441778
 30
0.0
  0
SPLINE
  5
3FF
100
AcDbEntity
  8
0
100
AcDbSpline
 62
7
  6
CONTINUOUS
 70
0
 71
3
 72
37
 73
33
 74
0
 42
0.0000001
 43
0.0000001
 44
0.0000000001
 40
0.0
 40
0.0
 40
0.0
 40
0.0
 40
0.0304220462
 40
0.0609548562
 40
0.0915992071
 40
0.122354642
 40
0.153219489
 40
0.1841908921
 40
0.2152648531
 40
0.2464362846
 40
0.2776990731
 40
0.3090461533
 40
0.34046959
 40
0.3719606658
 40
0.4035099736
 40
0.435107516
 40
0.4983858614
 40
0.5617271226
 40
0.5934026513
 40
0.6250600461
 40
0.6566882215
 40
0.6882763854
 40
0.7198141487
 40
0.7512916321
 40
0.7826995652
 40
0.8140293892
 40
0.8452733481
 40
0.8764245422
 40
0.9074772076
 40
0.9384260436
 40
0.9692683633
 40
1.0
 40
1.0
 40
1.0
 40
1.0
 10
9.672439208
 20
7.8769814114
 30
0.0
 10
9.6716085393
 20
7.8696487277
 30
0.0
 10
9.6703369384
 20
7.8549091775
 30
0.0
 10
9.669602807
 20
7.8326919363
 30
0.0
 10
9.6700400608
 20
7.8103854426
 30
0.0
 10
9.671647522
 20
7.7880521808
 30
0.0
 10
9.674420647
 20
7.7657536472
 30
0.0
 10
9.6783517176
 20
7.7435515159
 30
0.0
 10
9.6834298145
 20
7.7215071103
 30
0.0
 10
9.6896408641
 20
7.6996813359
 30
0.0
 10
9.6969676573
 20
7.6781344779
 30
0.0
 10
9.7053898887
 20
7.6569260549
 30
0.0
 10
9.7148842784
 20
7.6361146015
 30
0.0
 10
9.7254244569
 20
7.6157577273
 30
0.0
 10
9.7369816943
 20
7.5959111379
 30
0.0
 10
9.7537092833
 20
7.5701950677
 30
0.0
 10
9.7769941875
 20
7.5396033854
 30
0.0
 10
9.8031782579
 20
7.5114278202
 30
0.0
 10
9.8257013396
 20
7.4905103192
 30
0.0
 10
9.8433363812
 20
7.4756757355
 30
0.0
 10
9.8616620912
 20
7.4617391267
 30
0.0
 10
9.8806282938
 20
7.4487384963
 30
0.0
 10
9.9001824943
 20
7.4367098989
 30
0.0
 10
9.9202707264
 20
7.4256865466
 30
0.0
 10
9.9408375096
 20
7.4156989291
 30
0.0
 10
9.9618260541
 20
7.4067746741
 30
0.0
 10
9.9831783882
 20
7.398938495
 30
0.0
 10
10.0048355662
 20
7.392212038
 30
0.0
 10
10.0267376466
 20
7.3866140268
 30
0.0
 10
10.0488244948
 20
7.3821597844
 30
0.0
 10
10.0710341044
 20
7.3788619964
 30
0.0
 10
10.0859103049
 20
7.3774376938
 30
0.0
 10
10.0933471253
 20
7.3769219486
 30
0.0
  0
SPLINE
  5
400
100
AcDbEntity
  8
0
100
AcDbSpline
 62
7
  6
CONTINUOUS
 70
0
 71
3
 72
24
 73
20
 74
0
 42
0.0000001
 43
0.0000001
 44
0.0000000001
 40
0.0
 40
0.0
 40
0.0
 40
0.0
 40
0.0615910481
 40
0.1235177572
 40
0.1857515996
 40
0.2482554355
 40
0.3109846417
 40
0.3738884245
 40
0.4369112586
 40
0.499994407
 40
0.5630775141
 40
0.6261002283
 40
0.6890038174
 40
0.7517327558
 40
0.8142362598
 40
0.8764697218
 40
0.938396066
 40
0.9692414621
 40
1.0
 40
1.0
 40
1.0
 40
1.0
 10
9.7528647679
 20
7.8594290985
 30
0.0
 10
9.7542433727
 20
7.8472113572
 30
0.0
 10
9.7580530285
 20
7.8228147829
 30
0.0
 10
9.7668345208
 20
7.7867463562
 30
0.0
 10
9.7786348301
 20
7.7513554281
 30
0.0
 10
9.7933656752
 20
7.7169076422
 30
0.0
 10
9.8109175233
 20
7.6836570852
 30
0.0
 10
9.8311599889
 20
7.6518501454
 30
0.0
 10
9.8539430037
 20
7.6217222661
 30
0.0
 10
9.8790976063
 20
7.5934964417
 30
0.0
 10
9.9064375145
 20
7.5673817102
 30
0.0
 10
9.9357602862
 20
7.5435715463
 30
0.0
 10
9.9668488215
 20
7.5222423334
 30
0.0
 10
9.9994729264
 20
7.5035523865
 30
0.0
 10
10.03339156
 20
7.4876403426
 30
0.0
 10
10.0683517839
 20
7.4746248041
 30
0.0
 10
10.0981842401
 20
7.4662606822
 30
0.0
 10
10.1223062801
 20
7.4611105164
 30
0.0
 10
10.1344351476
 20
7.4590514884
 30
0.0
 10
10.1405092564
 20
7.4581526486
 30
0.0
  0
SPLINE
  5
401
100
AcDbEntity
  8
0
100
AcDbSpline
 62
7
  6
CONTINUOUS
 70
0
 71
3
 72
26
 73
22
 74
0
 42
0.0000001
 43
0.0000001
 44
0.0000000001
 40
0.0
 40
0.0
 40
0.0
 40
0.0
 40
0.0796548918
 40
0.1581613283
 40
0.2352412304
 40
0.3106143348
 40
0.3839943499
 40
0.4551018477
 40
0.5236709921
 40
0.5894590511
 40
0.6522546488
 40
0.7118856882
 40
0.7682259973
 40
0.8212006773
 40
0.8707906422
 40
0.894328405
 40
0.9170404787
 40
0.938941986
 40
0.9600524521
 40
0.9803956236
 40
1.0
 40
1.0
 40
1.0
 40
1.0
 10
11.117799844
 20
7.5448345994
 30
0.0
 10
11.1194043412
 20
7.5389712784
 30
0.0
 10
11.1226964202
 20
7.5273580121
 30
0.0
 10
11.1278699436
 20
7.5101664527
 30
0.0
 10
11.1331780166
 20
7.4933584923
 30
0.0
 10
11.1385451403
 20
7.4769807215
 30
0.0
 10
11.1438923728
 20
7.4610767391
 30
0.0
 10
11.1491384691
 20
7.4456868058
 30
0.0
 10
11.154201712
 20
7.430846669
 30
0.0
 10
11.1590015991
 20
7.4165869444
 30
0.0
 10
11.1634605898
 20
7.4029325747
 30
0.0
 10
11.1675056499
 20
7.3899026682
 30
0.0
 10
11.1710696032
 20
7.3775104875
 30
0.0
 10
11.1740918147
 20
7.3657642477
 30
0.0
 10
11.1761490796
 20
7.3563599704
 30
0.0
 10
11.1774601534
 20
7.349163702
 30
0.0
 10
11.1782602481
 20
7.3440239585
 30
0.0
 10
11.1788899039
 20
7.3390471313
 30
0.0
 10
11.1793451661
 20
7.3342327317
 30
0.0
 10
11.179622155
 20
7.3295803421
 30
0.0
 10
11.1796871961
 20
7.3265314532
 30
0.0
 10
11.179687312
 20
7.3250353378
 30
0.0
  0
SPLINE
  5
402
100
AcDbEntity
  8
0
100
AcDbSpline
 62
7
  6
CONTINUOUS
 70
0
 71
3
 72
23
 73
19
 74
0
 42
0.0000001
 43
0.0000001
 44
0.0000000001
 40
0.0
 40
0.0
 40
0.0
 40
0.0
 40
0.0616482071
 40
0.1233194423
 40
0.1850364754
 40
0.2468215648
 40
0.3086962113
 40
0.3706809251
 40
0.4327950039
 40
0.4950563299
 40
0.5574811805
 40
0.6200840695
 40
0.682877611
 40
0.7458723236
 40
0.8090769236
 40
0.8724969197
 40
0.9361382346
 40
1.0
 40
1.0
 40
1.0
 40
1.0
 10
11.4605838715
 20
6.8703525464
 30
0.0
 10
11.4545239567
 20
6.8644991225
 30
0.0
 10
11.4420843713
 20
6.8531137225
 30
0.0
 10
11.4225303257
 20
6.8370598757
 30
0.0
 10
11.402127161
 20
6.8220671674
 30
0.0
 10
11.3809269829
 20
6.8081740339
 30
0.0
 10
11.3589830447
 20
6.7954152649
 30
0.0
 10
11.3363507029
 20
6.7838230123
 30
0.0
 10
11.3130869791
 20
6.7734264207
 30
0.0
 10
11.2892504949
 20
6.7642516334
 30
0.0
 10
11.2649013026
 20
6.7563217058
 30
0.0
 10
11.2401007351
 20
6.749656556
 30
0.0
 10
11.2149112686
 20
6.744272913
 30
0.0
 10
11.1893963007
 20
6.7401842211
 30
0.0
 10
11.1636202062
 20
6.737400776
 30
0.0
 10
11.1376474748
 20
6.7359293736
 30
0.0
 10
11.1115445343
 20
6.7357738104
 30
0.0
 10
11.0941275884
 20
6.7365462042
 30
0.0
 10
11.085420713
 20
6.7371500281
 30
0.0
  0
SPLINE
  5
403
100
AcDbEntity
  8
0
100
AcDbSpline
 62
7
  6
CONTINUOUS
 70
0
 71
3
 72
15
 73
11
 74
0
 42
0.0000001
 43
0.0000001
 44
0.0000000001
 40
0.0
 40
0.0
 40
0.0
 40
0.0
 40
0.1233300035
 40
0.2470319918
 40
0.3711707243
 40
0.4958019575
 40
0.6209713123
 40
0.7467140007
 40
0.8730522424
 40
1.0
 40
1.0
 40
1.0
 40
1.0
 10
11.5381277642
 20
6.9682629531
 30
0.0
 10
11.5278709301
 20
6.9626218016
 30
0.0
 10
11.5069015328
 20
6.9520761429
 30
0.0
 10
11.4743265232
 20
6.9385825351
 30
0.0
 10
11.4407380136
 20
6.9274532794
 30
0.0
 10
11.406299804
 20
6.9187428016
 30
0.0
 10
11.3711770812
 20
6.9124922739
 30
0.0
 10
11.3355383537
 20
6.9087315912
 30
0.0
 10
11.299556956
 20
6.907478154
 30
0.0
 10
11.2755083526
 20
6.9083162868
 30
0.0
 10
11.263488069
 20
6.9091498963
 30
0.0
  0
SPLINE
  5
404
100
AcDbEntity
  8
0
100
AcDbSpline
 62
7
  6
CONTINUOUS
 70
0
 71
3
 72
19
 73
15
 74
0
 42
0.0000001
 43
0.0000001
 44
0.0000000001
 40
0.0
 40
0.0
 40
0.0
 40
0.0
 40
0.0616005123
 40
0.123275487
 40
0.1850372408
 40
0.2468975041
 40
0.3088673655
 40
0.3709571717
 40
0.4331764723
 40
0.4955339892
 40
0.620668356
 40
0.7464372759
 40
0.8728743725
 40
1.0
 40
1.0
 40
1.0
 40
1.0
 10
11.5606331788
 20
7.0108106147
 30
0.0
 10
11.5553565596
 20
7.0073589637
 30
0.0
 10
11.5446512508
 20
7.000671332
 30
0.0
 10
11.5281793859
 20
6.9913119829
 30
0.0
 10
11.5113088834
 20
6.9826329185
 30
0.0
 10
11.4940660394
 20
6.9746475671
 30
0.0
 10
11.4764771373
 20
6.9673681437
 30
0.0
 10
11.4585692677
 20
6.9608058593
 30
0.0
 10
11.4403695206
 20
6.9549705968
 30
0.0
 10
11.4157264241
 20
6.9481645542
 30
0.0
 10
11.3843187136
 20
6.9415206117
 30
0.0
 10
11.3459705599
 20
6.9365855581
 30
0.0
 10
11.3071495726
 20
6.9347057655
 30
0.0
 10
11.2811761887
 20
6.935495542
 30
0.0
 10
11.2681950864
 20
6.9363957845
 30
0.0
  0
SPLINE
  5
405
100
AcDbEntity
  8
0
100
AcDbSpline
 62
7
  6
CONTINUOUS
 70
0
 71
3
 72
15
 73
11
 74
0
 42
0.0000001
 43
0.0000001
 44
0.0000000001
 40
0.0
 40
0.0
 40
0.0
 40
0.0
 40
0.1233237137
 40
0.2470184172
 40
0.3711505349
 40
0.4957773122
 40
0.6209456154
 40
0.7466916675
 40
0.8730383423
 40
1.0
 40
1.0
 40
1.0
 40
1.0
 10
11.568652643
 20
7.0285524417
 30
0.0
 10
11.558785064
 20
7.0230574251
 30
0.0
 10
11.5386025998
 20
7.0127825861
 30
0.0
 10
11.5072274315
 20
6.9996296808
 30
0.0
 10
11.474857123
 20
6.9887758125
 30
0.0
 10
11.4416523788
 20
6.9802750106
 30
0.0
 10
11.4077753365
 20
6.9741681817
 30
0.0
 10
11.3733914529
 20
6.9704850599
 30
0.0
 10
11.3386709696
 20
6.9692429945
 30
0.0
 10
11.3154635599
 20
6.9700446791
 30
0.0
 10
11.3038638068
 20
6.9708491247
 30
0.0
  0
SPLINE
  5
406
100
AcDbEntity
  8
0
100
AcDbSpline
 62
7
  6
CONTINUOUS
 70
0
 71
3
 72
21
 73
17
 74
0
 42
0.0000001
 43
0.0000001
 44
0.0000000001
 40
0.0
 40
0.0
 40
0.0
 40
0.0
 40
0.0615939524
 40
0.1232558874
 40
0.1849998474
 40
0.2468392788
 40
0.3087869141
 40
0.3708546805
 40
0.4330536378
 40
0.4953938864
 40
0.5578845106
 40
0.6205334818
 40
0.6833476514
 40
0.7463329639
 40
0.8728046027
 40
1.0
 40
1.0
 40
1.0
 40
1.0
 10
11.5932131474
 20
7.1046328917
 30
0.0
 10
11.5883010005
 20
7.1011729045
 30
0.0
 10
11.5783175931
 20
7.0944644095
 30
0.0
 10
11.5629067837
 20
7.08506341
 30
0.0
 10
11.5470780025
 20
7.0763342193
 30
0.0
 10
11.5308584417
 20
7.0682919024
 30
0.0
 10
11.5142754669
 20
7.0609500711
 30
0.0
 10
11.4973572518
 20
7.0543210948
 30
0.0
 10
11.4801324569
 20
7.0484161895
 30
0.0
 10
11.4626302607
 20
7.0432454165
 30
0.0
 10
11.4448803267
 20
7.0388174402
 30
0.0
 10
11.4269128215
 20
7.0351397443
 30
0.0
 10
11.4087578235
 20
7.0322185997
 30
0.0
 10
11.3843124526
 20
7.0293352898
 30
0.0
 10
11.3534320715
 20
7.0276512413
 30
0.0
 10
11.3286650763
 20
7.0283551431
 30
0.0
 10
11.3162871107
 20
7.0292135579
 30
0.0
  0
SPLINE
  5
407
100
AcDbEntity
  8
0
100
AcDbSpline
 62
7
  6
CONTINUOUS
 70
0
 71
3
 72
39
 73
35
 74
0
 42
0.0000001
 43
0.0000001
 44
0.0000000001
 40
0.0
 40
0.0
 40
0.0
 40
0.0
 40
0.0299393047
 40
0.0599022801
 40
0.0899120371
 40
0.1199905837
 40
0.1501583157
 40
0.1804335568
 40
0.2108321569
 40
0.2413671588
 40
0.2720485416
 40
0.3028830442
 40
0.3338740651
 40
0.3650216374
 40
0.3963224781
 40
0.4277701073
 40
0.4593550264
 40
0.4910649494
 40
0.522885082
 40
0.5547984439
 40
0.586786223
 40
0.6188281554
 40
0.6509029262
 40
0.6829885862
 40
0.7150629769
 40
0.7471041563
 40
0.7790908245
 40
0.8110027389
 40
0.842821116
 40
0.8745290096
 40
0.9061116585
 40
0.9375568878
 40
0.9688549526
 40
1.0
 40
1.0
 40
1.0
 40
1.0
 10
10.7102575544
 20
7.647147464
 30
0.0
 10
10.7014299206
 20
7.6386206306
 30
0.0
 10
10.6844288381
 20
7.6208601107
 30
0.0
 10
10.6610799371
 20
7.5922941156
 30
0.0
 10
10.639997384
 20
7.5619447063
 30
0.0
 10
10.62129596
 20
7.5299765456
 30
0.0
 10
10.6050749148
 20
7.496560307
 30
0.0
 10
10.5914208729
 20
7.4618750624
 30
0.0
 10
10.5804064777
 20
7.4261064073
 30
0.0
 10
10.5720901917
 20
7.3894457146
 30
0.0
 10
10.5665159882
 20
7.3520890071
 30
0.0
 10
10.5637131853
 20
7.3142359167
 30
0.0
 10
10.5636963163
 20
7.2760886202
 30
0.0
 10
10.5664650239
 20
7.2378507701
 30
0.0
 10
10.5720040742
 20
7.1997264048
 30
0.0
 10
10.5802835179
 20
7.1619188749
 30
0.0
 10
10.5912588532
 20
7.1246297779
 30
0.0
 10
10.6048712579
 20
7.0880579002
 30
0.0
 10
10.6210478511
 20
7.0523981453
 30
0.0
 10
10.6397021657
 20
7.0178405333
 30
0.0
 10
10.6607345962
 20
6.9845692025
 30
0.0
 10
10.6840329333
 20
6.9527614514
 30
0.0
 10
10.7094728913
 20
6.9225867558
 30
0.0
 10
10.7369188245
 20
6.894205909
 30
0.0
 10
10.7662244479
 20
6.8677701831
 30
0.0
 10
10.7972336115
 20
6.8434205431
 30
0.0
 10
10.8297810792
 20
6.8212868529
 30
0.0
 10
10.8636934242
 20
6.801487195
 30
0.0
 10
10.898789943
 20
6.7841272848
 30
0.0
 10
10.9348836816
 20
6.7692999115
 30
0.0
 10
10.9717821104
 20
6.7570844033
 30
0.0
 10
11.0092891764
 20
6.7475462173
 30
0.0
 10
11.0472023302
 20
6.7407366026
 30
0.0
 10
11.072683719
 20
6.7380333416
 30
0.0
 10
11.085420713
 20
6.7371500281
 30
0.0
  0
SPLINE
  5
408
100
AcDbEntity
  8
0
100
AcDbSpline
 62
7
  6
CONTINUOUS
 70
0
 71
3
 72
45
 73
41
 74
0
 42
0.0000001
 43
0.0000001
 44
0.0000000001
 40
0.0
 40
0.0
 40
0.0
 40
0.0
 40
0.0149735785
 40
0.0299663366
 40
0.0449801909
 40
0.0600169617
 40
0.0901615913
 40
0.1204169945
 40
0.1355917011
 40
0.150797785
 40
0.1660361962
 40
0.1813077369
 40
0.2119484963
 40
0.2427277944
 40
0.273646719
 40
0.3047039792
 40
0.3358959587
 40
0.367216806
 40
0.398658558
 40
0.4302112931
 40
0.4618633118
 40
0.4936013392
 40
0.5254107476
 40
0.5572757945
 40
0.5891798734
 40
0.621105774
 40
0.6530359498
 40
0.6849527881
 40
0.7168388816
 40
0.7486772978
 40
0.780451843
 40
0.8121473185
 40
0.8437497632
 40
0.8595140617
 40
0.8752505569
 40
0.9066311404
 40
0.9378865327
 40
0.9534668161
 40
0.9690135885
 40
1.0
 40
1.0
 40
1.0
 40
1.0
 10
10.8107360878
 20
7.7211505865
 30
0.0
 10
10.8079146253
 20
7.7164141825
 30
0.0
 10
10.802432196
 20
7.7068364319
 30
0.0
 10
10.7947057405
 20
7.6921845839
 30
0.0
 10
10.787479337
 20
7.6772534919
 30
0.0
 10
10.7785147142
 20
7.6569802839
 30
0.0
 10
10.7685965801
 20
7.6310117818
 30
0.0
 10
10.7604556025
 20
7.6043798621
 30
0.0
 10
10.7550179089
 20
7.5827230477
 30
0.0
 10
10.751477554
 20
7.5663006218
 30
0.0
 10
10.7484834934
 20
7.5497336561
 30
0.0
 10
10.7452206268
 20
7.5274529028
 30
0.0
 10
10.742526178
 20
7.4993221822
 30
0.0
 10
10.7415195794
 20
7.4653152045
 30
0.0
 10
10.7427394614
 20
7.4311613108
 30
0.0
 10
10.7461805421
 20
7.3970071335
 30
0.0
 10
10.7518278679
 20
7.3629980069
 30
0.0
 10
10.7596571598
 20
7.3292789465
 30
0.0
 10
10.7696348488
 20
7.2959936086
 30
0.0
 10
10.7817182376
 20
7.2632837985
 30
0.0
 10
10.7958556819
 20
7.2312888413
 30
0.0
 10
10.8119868167
 20
7.2001450046
 30
0.0
 10
10.8300428128
 20
7.1699849212
 30
0.0
 10
10.84994667
 20
7.1409370316
 30
0.0
 10
10.8716135431
 20
7.1131250414
 30
0.0
 10
10.8949511012
 20
7.0866673998
 30
0.0
 10
10.9198599199
 20
7.0616767995
 30
0.0
 10
10.9462338948
 20
7.0382597023
 30
0.0
 10
10.9739607156
 20
7.0165158811
 30
0.0
 10
11.0029222413
 20
6.9965380265
 30
0.0
 10
11.032995356
 20
6.9784112294
 30
0.0
 10
11.0640511761
 20
6.9622130998
 30
0.0
 10
11.0906646453
 20
6.9503686027
 30
0.0
 10
11.1123133664
 20
6.9419248515
 30
0.0
 10
11.1341389023
 20
6.9341903748
 30
0.0
 10
11.1617804165
 20
6.9258371249
 30
0.0
 10
11.189839657
 20
6.9192638526
 30
0.0
 10
11.2124316571
 20
6.9151023216
 30
0.0
 10
11.2350466869
 20
6.9116822275
 30
0.0
 10
11.2521065825
 20
6.9099392051
 30
0.0
 10
11.263488069
 20
6.9091498963
 30
0.0
  0
SPLINE
  5
409
100
AcDbEntity
  8
0
100
AcDbSpline
 62
7
  6
CONTINUOUS
 70
0
 71
3
 72
42
 73
38
 74
0
 42
0.0000001
 43
0.0000001
 44
0.0000000001
 40
0.0
 40
0.0
 40
0.0
 40
0.0
 40
0.0299318279
 40
0.0599336148
 40
0.0749684732
 40
0.0900270166
 40
0.1051110802
 40
0.1202223807
 40
0.150528196
 40
0.180960108
 40
0.2115266215
 40
0.242233691
 40
0.2576432982
 40
0.2730890677
 40
0.3040845798
 40
0.3352226994
 40
0.3664989184
 40
0.397906286
 40
0.4294355605
 40
0.461075396
 40
0.4928125582
 40
0.5246321665
 40
0.5565179575
 40
0.5884525649
 40
0.6204178136
 40
0.6523950224
 40
0.6843653129
 40
0.7163099206
 40
0.7482105047
 40
0.7800494531
 40
0.8118101798
 40
0.843477407
 40
0.8750374419
 40
0.9064783856
 40
0.9377905098
 40
0.9689659496
 40
1.0
 40
1.0
 40
1.0
 40
1.0
 10
10.8540756289
 20
7.7422369107
 30
0.0
 10
10.8478040848
 20
7.7333369007
 30
0.0
 10
10.8358853794
 20
7.7150565361
 30
0.0
 10
10.8226580353
 20
7.691181828
 30
0.0
 10
10.8131008001
 20
7.6715177402
 30
0.0
 10
10.8064465824
 20
7.6564880111
 30
0.0
 10
10.8003194889
 20
7.6412058277
 30
0.0
 10
10.7928558634
 20
7.6204987357
 30
0.0
 10
10.7848789141
 20
7.5940610924
 30
0.0
 10
10.7775244086
 20
7.5616466621
 30
0.0
 10
10.7724100343
 20
7.5286567397
 30
0.0
 10
10.7700370293
 20
7.5008406796
 30
0.0
 10
10.7692729004
 20
7.4784566635
 30
0.0
 10
10.7692669202
 20
7.4559546375
 30
0.0
 10
10.7706885165
 20
7.4277478181
 30
0.0
 10
10.7746629177
 20
7.3939785689
 30
0.0
 10
10.7808893884
 20
7.3603983788
 30
0.0
 10
10.7893393035
 20
7.3271613413
 30
0.0
 10
10.7999739125
 20
7.2944187017
 30
0.0
 10
10.8127445425
 20
7.2623197601
 30
0.0
 10
10.8275928173
 20
7.2310107724
 30
0.0
 10
10.8444509162
 20
7.2006344018
 30
0.0
 10
10.8632418916
 20
7.171329047
 30
0.0
 10
10.8838800201
 20
7.1432282277
 30
0.0
 10
10.9062711906
 20
7.1164599802
 30
0.0
 10
10.9303133305
 20
7.0911462803
 30
0.0
 10
10.9558968667
 20
7.0674024929
 30
0.0
 10
10.9829052205
 20
7.0453368505
 30
0.0
 10
11.0112153352
 20
7.0250499653
 30
0.0
 10
11.0406982261
 20
7.006634368
 30
0.0
 10
11.0712195674
 20
6.9901740876
 30
0.0
 10
11.1026402858
 20
6.9757442717
 30
0.0
 10
11.1348172459
 20
6.9634108621
 30
0.0
 10
11.1676036828
 20
6.9532302423
 30
0.0
 10
11.2008506433
 20
6.9452490876
 30
0.0
 10
11.2344046079
 20
6.9395040416
 30
0.0
 10
11.2569334811
 20
6.9371767795
 30
0.0
 10
11.2681950864
 20
6.9363957845
 30
0.0
  0
SPLINE
  5
40A
100
AcDbEntity
  8
0
100
AcDbSpline
 62
7
  6
CONTINUOUS
 70
0
 71
3
 72
44
 73
40
 74
0
 42
0.0000001
 43
0.0000001
 44
0.0000000001
 40
0.0
 40
0.0
 40
0.0
 40
0.0
 40
0.0149724263
 40
0.0299637806
 40
0.044976004
 40
0.0600109418
 40
0.0901513665
 40
0.1204020455
 40
0.1355742672
 40
0.1507778123
 40
0.181278328
 40
0.2119139443
 40
0.2426883047
 40
0.2736026434
 40
0.3046557967
 40
0.3358442542
 40
0.3671622488
 40
0.3986018792
 40
0.4301532637
 40
0.4618047206
 40
0.4935429726
 40
0.5253533695
 40
0.5572201289
 40
0.5891265884
 40
0.6210554689
 40
0.6529891436
 40
0.6849099115
 40
0.7168002718
 40
0.7327305786
 40
0.7486469527
 40
0.7804261481
 40
0.8121263224
 40
0.8437334247
 40
0.8752348901
 40
0.9066198122
 40
0.9378792844
 40
0.9534614928
 40
0.9690101517
 40
1.0
 40
1.0
 40
1.0
 40
1.0
 10
10.872062626
 20
7.7495946462
 30
0.0
 10
10.8693338366
 20
7.745068795
 30
0.0
 10
10.8640299707
 20
7.735915531
 30
0.0
 10
10.8565508544
 20
7.721909035
 30
0.0
 10
10.84955106
 20
7.70763197
 30
0.0
 10
10.840861241
 20
7.6882421149
 30
0.0
 10
10.8312338651
 20
7.6633965379
 30
0.0
 10
10.8233120712
 20
7.6379055291
 30
0.0
 10
10.8180066503
 20
7.6171705042
 30
0.0
 10
10.8133853127
 20
7.5961821059
 30
0.0
 10
10.808923212
 20
7.5695860979
 30
0.0
 10
10.8056971731
 20
7.5372816823
 30
0.0
 10
10.8046065143
 20
7.504688353
 30
0.0
 10
10.8056558834
 20
7.471946728
 30
0.0
 10
10.8088404783
 20
7.4391968571
 30
0.0
 10
10.8141464396
 20
7.4065790933
 30
0.0
 10
10.8215508209
 20
7.374233101
 30
0.0
 10
10.8310217184
 20
7.342297371
 30
0.0
 10
10.8425184047
 20
7.3109086051
 30
0.0
 10
10.8559915073
 20
7.2802011454
 30
0.0
 10
10.8713832211
 20
7.2503064033
 30
0.0
 10
10.8886275575
 20
7.221352303
 30
0.0
 10
10.9076506206
 20
7.1934627431
 30
0.0
 10
10.9283709431
 20
7.1667570578
 30
0.0
 10
10.9506997566
 20
7.1413495633
 30
0.0
 10
10.9745416518
 20
7.1173488761
 30
0.0
 10
10.999793928
 20
7.0948581842
 30
0.0
 10
11.0219330406
 20
7.0774465987
 30
0.0
 10
11.0402402748
 20
7.0643654827
 30
0.0
 10
11.0589079948
 20
7.0518746198
 30
0.0
 10
11.0829099669
 20
7.0373708572
 30
0.0
 10
11.1126719297
 20
7.021811184
 30
0.0
 10
11.143254179
 20
7.0081700683
 30
0.0
 10
11.1745254061
 20
6.9965064668
 30
0.0
 10
11.2063511417
 20
6.9868704679
 30
0.0
 10
11.2332524488
 20
6.9805575513
 30
0.0
 10
11.2549124323
 20
6.9765616942
 30
0.0
 10
11.276594787
 20
6.9732783649
 30
0.0
 10
11.2929514657
 20
6.9716058981
 30
0.0
 10
11.3038638068
 20
6.9708491247
 30
0.0
  0
SPLINE
  5
40B
100
AcDbEntity
  8
0
100
AcDbSpline
 62
7
  6
CONTINUOUS
 70
0
 71
3
 72
43
 73
39
 74
0
 42
0.0000001
 43
0.0000001
 44
0.0000000001
 40
0.0
 40
0.0
 40
0.0
 40
0.0
 40
0.0149579341
 40
0.0299291408
 40
0.0449160112
 40
0.0599208587
 40
0.0899883142
 40
0.1201529331
 40
0.1352787115
 40
0.150434025
 40
0.1656203315
 40
0.1808389298
 40
0.2113727036
 40
0.2420472704
 40
0.2728670561
 40
0.3038337161
 40
0.3349461427
 40
0.3662005248
 40
0.3975904539
 40
0.4291070737
 40
0.4607392681
 40
0.4924738817
 40
0.524295971
 40
0.5561890781
 40
0.5881355248
 40
0.6201167214
 40
0.6521134867
 40
0.684106375
 40
0.7160760062
 40
0.7480033952
 40
0.7798702772
 40
0.8116594239
 40
0.8433549453
 40
0.8749425853
 40
0.9064099452
 40
0.937746883
 40
0.968945206
 40
1.0
 40
1.0
 40
1.0
 40
1.0
 10
10.9489940114
 20
7.7715791206
 30
0.0
 10
10.9459712776
 20
7.7675890097
 30
0.0
 10
10.9400688537
 20
7.7594936285
 30
0.0
 10
10.9316616849
 20
7.7470292946
 30
0.0
 10
10.9237065663
 20
7.7342527542
 30
0.0
 10
10.9137096992
 20
7.7168116602
 30
0.0
 10
10.9023876795
 20
7.694295868
 30
0.0
 10
10.8927058457
 20
7.6709842098
 30
0.0
 10
10.8859608857
 20
7.651909405
 30
0.0
 10
10.8814028774
 20
7.6373886232
 30
0.0
 10
10.8773564018
 20
7.6226848653
 30
0.0
 10
10.8726444398
 20
7.6028394748
 30
0.0
 10
10.8680584035
 20
7.5776537213
 30
0.0
 10
10.8646701465
 20
7.547018339
 30
0.0
 10
10.8634053571
 20
7.5160766828
 30
0.0
 10
10.8642699404
 20
7.4849752315
 30
0.0
 10
10.8672594853
 20
7.4538598959
 30
0.0
 10
10.8723596987
 20
7.4228769395
 30
0.0
 10
10.8795463729
 20
7.3921718672
 30
0.0
 10
10.8887855348
 20
7.3618888652
 30
0.0
 10
10.900033604
 20
7.3321701025
 30
0.0
 10
10.9132375943
 20
7.3031550759
 30
0.0
 10
10.9283353679
 20
7.2749799614
 30
0.0
 10
10.9452559311
 20
7.2477769839
 30
0.0
 10
10.9639197661
 20
7.2216738038
 30
0.0
 10
10.9842392024
 20
7.196792924
 30
0.0
 10
11.0061188255
 20
7.1732511212
 30
0.0
 10
11.029455921
 20
7.1511589031
 30
0.0
 10
11.0541409525
 20
7.130619994
 30
0.0
 10
11.0800580717
 20
7.1117308533
 30
0.0
 10
11.1070856501
 20
7.0945802173
 30
0.0
 10
11.1350968542
 20
7.0792486924
 30
0.0
 10
11.1639602188
 20
7.0658083731
 30
0.0
 10
11.1935403135
 20
7.0543225245
 30
0.0
 10
11.223698169
 20
7.0448452331
 30
0.0
 10
11.2542926638
 20
7.0374212569
 30
0.0
 10
11.2851782821
 20
7.0320857081
 30
0.0
 10
11.3059192882
 20
7.0299325689
 30
0.0
 10
11.3162871107
 20
7.0292135579
 30
0.0
  0
SPLINE
  5
40C
100
AcDbEntity
  8
0
100
AcDbSpline
 62
7
  6
CONTINUOUS
 70
0
 71
3
 72
37
 73
33
 74
0
 42
0.0000001
 43
0.0000001
 44
0.0000000001
 40
0.0
 40
0.0
 40
0.0
 40
0.0
 40
0.0304220462
 40
0.0609548562
 40
0.0915992071
 40
0.122354642
 40
0.153219489
 40
0.1841908921
 40
0.2152648531
 40
0.2464362846
 40
0.2776990731
 40
0.3090461533
 40
0.34046959
 40
0.3719606658
 40
0.4035099736
 40
0.435107516
 40
0.4983858614
 40
0.5617271226
 40
0.5934026513
 40
0.6250600461
 40
0.6566882215
 40
0.6882763854
 40
0.7198141487
 40
0.7512916321
 40
0.7826995652
 40
0.8140293892
 40
0.8452733481
 40
0.8764245422
 40
0.9074772076
 40
0.9384260436
 40
0.9692683633
 40
1.0
 40
1.0
 40
1.0
 40
1.0
 10
11.1213280333
 20
7.7765006301
 30
0.0
 10
11.1204973646
 20
7.7691679464
 30
0.0
 10
11.1192257637
 20
7.7544283962
 30
0.0
 10
11.1184916323
 20
7.732211155
 30
0.0
 10
11.1189288861
 20
7.7099046612
 30
0.0
 10
11.1205363472
 20
7.6875713994
 30
0.0
 10
11.1233094723
 20
7.6652728659
 30
0.0
 10
11.1272405429
 20
7.6430707346
 30
0.0
 10
11.1323186398
 20
7.621026329
 30
0.0
 10
11.1385296894
 20
7.5992005546
 30
0.0
 10
11.1458564826
 20
7.5776536966
 30
0.0
 10
11.154278714
 20
7.5564452736
 30
0.0
 10
11.1637731037
 20
7.5356338202
 30
0.0
 10
11.1743132821
 20
7.515276946
 30
0.0
 10
11.1858705195
 20
7.4954303566
 30
0.0
 10
11.2025981086
 20
7.4697142864
 30
0.0
 10
11.2258830128
 20
7.4391226041
 30
0.0
 10
11.2520670832
 20
7.4109470389
 30
0.0
 10
11.2745901649
 20
7.3900295379
 30
0.0
 10
11.2922252065
 20
7.3751949542
 30
0.0
 10
11.3105509165
 20
7.3612583454
 30
0.0
 10
11.3295171191
 20
7.348257715
 30
0.0
 10
11.3490713196
 20
7.3362291176
 30
0.0
 10
11.3691595517
 20
7.3252057653
 30
0.0
 10
11.3897263349
 20
7.3152181478
 30
0.0
 10
11.4107148794
 20
7.3062938928
 30
0.0
 10
11.4320672135
 20
7.2984577137
 30
0.0
 10
11.4537243915
 20
7.2917312567
 30
0.0
 10
11.4756264719
 20
7.2861332455
 30
0.0
 10
11.49771332
 20
7.2816790031
 30
0.0
 10
11.5199229296
 20
7.2783812151
 30
0.0
 10
11.5347991301
 20
7.2769569125
 30
0.0
 10
11.5422359506
 20
7.2764411673
 30
0.0
  0
SPLINE
  5
40D
100
AcDbEntity
  8
0
100
AcDbSpline
 62
7
  6
CONTINUOUS
 70
0
 71
3
 72
24
 73
20
 74
0
 42
0.0000001
 43
0.0000001
 44
0.0000000001
 40
0.0
 40
0.0
 40
0.0
 40
0.0
 40
0.0615910481
 40
0.1235177572
 40
0.1857515996
 40
0.2482554355
 40
0.3109846417
 40
0.3738884245
 40
0.4369112586
 40
0.499994407
 40
0.5630775141
 40
0.6261002283
 40
0.6890038174
 40
0.7517327558
 40
0.8142362598
 40
0.8764697218
 40
0.938396066
 40
0.9692414621
 40
1.0
 40
1.0
 40
1.0
 40
1.0
 10
11.2017535932
 20
7.7589483171
 30
0.0
 10
11.203132198
 20
7.7467305759
 30
0.0
 10
11.2069418537
 20
7.7223340016
 30
0.0
 10
11.2157233461
 20
7.6862655749
 30
0.0
 10
11.2275236553
 20
7.6508746468
 30
0.0
 10
11.2422545005
 20
7.6164268609
 30
0.0
 10
11.2598063486
 20
7.5831763039
 30
0.0
 10
11.2800488142
 20
7.5513693641
 30
0.0
 10
11.302831829
 20
7.5212414848
 30
0.0
 10
11.3279864316
 20
7.4930156604
 30
0.0
 10
11.3553263398
 20
7.4669009289
 30
0.0
 10
11.3846491115
 20
7.4430907649
 30
0.0
 10
11.4157376468
 20
7.421761552
 30
0.0
 10
11.4483617516
 20
7.4030716052
 30
0.0
 10
11.4822803853
 20
7.3871595613
 30
0.0
 10
11.5172406092
 20
7.3741440228
 30
0.0
 10
11.5470730654
 20
7.3657799009
 30
0.0
 10
11.5711951054
 20
7.3606297351
 30
0.0
 10
11.5833239729
 20
7.3585707071
 30
0.0
 10
11.5893980817
 20
7.3576718673
 30
0.0
  0
SPLINE
  5
40E
100
AcDbEntity
  8
0
100
AcDbSpline
 62
7
  6
CONTINUOUS
 70
0
 71
3
 72
15
 73
11
 74
0
 42
0.0000001
 43
0.0000001
 44
0.0000000001
 40
0.0
 40
0.0
 40
0.0
 40
0.0
 40
0.1212928672
 40
0.2440185905
 40
0.3679965301
 40
0.4930402455
 40
0.6189586367
 40
0.745555996
 40
0.8726360107
 40
1.0
 40
1.0
 40
1.0
 40
1.0
 10
11.1051373661
 20
7.778409332
 30
0.0
 10
11.1046752355
 20
7.7689488023
 30
0.0
 10
11.1040064085
 20
7.7499022322
 30
0.0
 10
11.103780785
 20
7.7211627682
 30
0.0
 10
11.1043315171
 20
7.6921346521
 30
0.0
 10
11.1056462019
 20
7.6628818297
 30
0.0
 10
11.1076954418
 20
7.633466555
 30
0.0
 10
11.1104336634
 20
7.6039480974
 30
0.0
 10
11.1138005415
 20
7.5743816346
 30
0.0
 10
11.1164137818
 20
7.5546834516
 30
0.0
 10
11.117799844
 20
7.5448345994
 30
0.0
  0
SPLINE
  5
40F
100
AcDbEntity
  8
0
100
AcDbSpline
 62
7
  6
CONTINUOUS
 70
0
 71
3
 72
23
 73
19
 74
0
 42
0.0000001
 43
0.0000001
 44
0.0000000001
 40
0.0
 40
0.0
 40
0.0
 40
0.0
 40
0.062521815
 40
0.1252264729
 40
0.1880781937
 40
0.2510364761
 40
0.314059588
 40
0.3771043319
 40
0.4401271297
 40
0.5030848237
 40
0.5659355155
 40
0.6286393837
 40
0.6911594733
 40
0.7534624491
 40
0.8155192538
 40
0.8773059789
 40
0.9388033853
 40
1.0
 40
1.0
 40
1.0
 40
1.0
 10
11.117799844
 20
7.5448345994
 30
0.0
 10
11.1221097624
 20
7.5343646211
 30
0.0
 10
11.1314765149
 20
7.5136879335
 30
0.0
 10
11.1476535218
 20
7.4836857327
 30
0.0
 10
11.1658969041
 20
7.4547979415
 30
0.0
 10
11.1861085662
 20
7.4271805917
 30
0.0
 10
11.2081807254
 20
7.4009804893
 30
0.0
 10
11.2319955803
 20
7.3763375405
 30
0.0
 10
11.2574260748
 20
7.3533831775
 30
0.0
 10
11.2843365479
 20
7.3322398981
 30
0.0
 10
11.3125834725
 20
7.3130205695
 30
0.0
 10
11.3420162081
 20
7.2958278457
 30
0.0
 10
11.372477777
 20
7.2807536236
 30
0.0
 10
11.4038057513
 20
7.2678785473
 30
0.0
 10
11.4358328554
 20
7.2572715249
 30
0.0
 10
11.4683887646
 20
7.2489894864
 30
0.0
 10
11.5012974989
 20
7.2430769627
 30
0.0
 10
11.5234155662
 20
7.2407301202
 30
0.0
 10
11.5344713856
 20
7.2399633965
 30
0.0
  0
SPLINE
  5
410
100
AcDbEntity
  8
0
100
AcDbSpline
 62
7
  6
CONTINUOUS
 70
0
 71
3
 72
69
 73
65
 74
0
 42
0.0000001
 43
0.0000001
 44
0.0000000001
 40
0.0
 40
0.0
 40
0.0
 40
0.0
 40
0.015675012
 40
0.0314027453
 40
0.0471814459
 40
0.0630099733
 40
0.0788860921
 40
0.0948073737
 40
0.1107709036
 40
0.1267734011
 40
0.1428112336
 40
0.158880453
 40
0.1749768338
 40
0.1910959103
 40
0.2072330175
 40
0.2233833321
 40
0.2395419157
 40
0.2557037581
 40
0.2718638212
 40
0.2880170822
 40
0.3202749255
 40
0.3524475142
 40
0.3684949934
 40
0.3845082669
 40
0.4004836059
 40
0.4164176212
 40
0.4323072968
 40
0.4481500206
 40
0.463943612
 40
0.4796863451
 40
0.4953769695
 40
0.5110147261
 40
0.5265993598
 40
0.5421311273
 40
0.5576108002
 40
0.573039662
 40
0.5884195006
 40
0.6037525952
 40
0.6190416975
 40
0.6342900088
 40
0.6495011507
 40
0.6646791308
 40
0.6798283034
 40
0.6949533256
 40
0.7100591096
 40
0.7251507719
 40
0.7402335797
 40
0.7553128949
 40
0.770394117
 40
0.785482625
 40
0.80058372
 40
0.8157025687
 40
0.8308441484
 40
0.8460131964
 40
0.8612141603
 40
0.8764511541
 40
0.8917279164
 40
0.9070477759
 40
0.9224136213
 40
0.9378278581
 40
0.953292479
 40
0.9688087309
 40
0.9843779839
 40
1.0
 40
1.0
 40
1.0
 40
1.0
 10
9.3870270377
 20
9.4546276174
 30
0.0
 10
9.3954960449
 20
9.4540402898
 30
0.0
 10
9.4124366017
 20
9.4524481932
 30
0.0
 10
9.4377407078
 20
9.4488247543
 30
0.0
 10
9.4629229808
 20
9.4439703686
 30
0.0
 10
9.487921817
 20
9.4378970631
 30
0.0
 10
9.5126773905
 20
9.4306193333
 30
0.0
 10
9.5371299893
 20
9.4221548299
 30
0.0
 10
9.5612207817
 20
9.41252393
 30
0.0
 10
9.5848917725
 20
9.4017498704
 30
0.0
 10
9.6080859935
 20
9.3898586278
 30
0.0
 10
9.6307476223
 20
9.3768788595
 30
0.0
 10
9.6528221194
 20
9.3628418351
 30
0.0
 10
9.6742563561
 20
9.3477813621
 30
0.0
 10
9.6949987436
 20
9.3317337002
 30
0.0
 10
9.7149993476
 20
9.3147374962
 30
0.0
 10
9.7342100626
 20
9.2968336386
 30
0.0
 10
9.7525845525
 20
9.2780653795
 30
0.0
 10
9.7700789634
 20
9.2584773446
 30
0.0
 10
9.7921613381
 20
9.2313473566
 30
0.0
 10
9.8173590219
 20
9.1956333413
 30
0.0
 10
9.8391361164
 20
9.1578015844
 30
0.0
 10
9.8543577512
 20
9.1265090433
 30
0.0
 10
9.8646408436
 20
9.1026012535
 30
0.0
 10
9.8737734152
 20
9.0782968738
 30
0.0
 10
9.881733774
 20
9.0536538464
 30
0.0
 10
9.8885026209
 20
9.0287316401
 30
0.0
 10
9.8940636479
 20
9.0035902147
 30
0.0
 10
9.898403414
 20
8.9782901098
 30
0.0
 10
9.9015114199
 20
8.9528922388
 30
0.0
 10
9.9033801227
 20
8.9274577606
 30
0.0
 10
9.9040049579
 20
8.9020479297
 30
0.0
 10
9.9033843508
 20
8.876723951
 30
0.0
 10
9.9015197441
 20
8.8515468311
 30
0.0
 10
9.8984155733
 20
8.8265772305
 30
0.0
 10
9.8940792573
 20
8.801875319
 30
0.0
 10
9.888521182
 20
8.7775006316
 30
0.0
 10
9.881754678
 20
8.7535119258
 30
0.0
 10
9.8737959862
 20
8.7299670411
 30
0.0
 10
9.8646642395
 20
8.7069227527
 30
0.0
 10
9.8543814118
 20
8.6844346328
 30
0.0
 10
9.8429722534
 20
8.6625569201
 30
0.0
 10
9.8304642355
 20
8.641342388
 30
0.0
 10
9.8168874853
 20
8.6208422163
 30
0.0
 10
9.8022747125
 20
8.6011058674
 30
0.0
 10
9.7866611364
 20
8.5821809625
 30
0.0
 10
9.7700844122
 20
8.5641131521
 30
0.0
 10
9.75258452
 20
8.5469460191
 30
0.0
 10
9.7342036703
 20
8.5307209703
 30
0.0
 10
9.7149862013
 20
8.5154771369
 30
0.0
 10
9.6949784708
 20
8.5012512786
 30
0.0
 10
9.6742287427
 20
8.4880776978
 30
0.0
 10
9.652787081
 20
8.4759881356
 30
0.0
 10
9.6307052159
 20
8.465011708
 30
0.0
 10
9.608036415
 20
8.4551748416
 30
0.0
 10
9.5848353538
 20
8.4465012107
 30
0.0
 10
9.5611579845
 20
8.4390116797
 30
0.0
 10
9.5370613969
 20
8.4327242566
 30
0.0
 10
9.5126036972
 20
8.4276540505
 30
0.0
 10
9.4878438098
 20
8.4238131811
 30
0.0
 10
9.4628415362
 20
8.4212109085
 30
0.0
 10
9.4376567525
 20
8.4198533107
 30
0.0
 10
9.4123511256
 20
8.4197437484
 30
0.0
 10
9.3954674119
 20
8.4205015801
 30
0.0
 10
9.3870270377
 20
8.421086922
 30
0.0
  0
SPLINE
  5
411
100
AcDbEntity
  8
0
100
AcDbSpline
 62
7
  6
CONTINUOUS
 70
0
 71
3
 72
41
 73
37
 74
0
 42
0.0000001
 43
0.0000001
 44
0.0000000001
 40
0.0
 40
0.0
 40
0.0
 40
0.0
 40
0.0310404887
 40
0.0466166116
 40
0.0622274214
 40
0.0935472329
 40
0.124996362
 40
0.1565649421
 40
0.188240925
 40
0.2200104517
 40
0.2518580609
 40
0.2837669753
 40
0.3157193879
 40
0.3476967655
 40
0.3796801592
 40
0.4116505197
 40
0.4435890149
 40
0.4754773435
 40
0.5072980434
 40
0.5231799249
 40
0.539038893
 40
0.5706767836
 40
0.6022026034
 40
0.6336050704
 40
0.664875053
 40
0.6960057571
 40
0.7269928777
 40
0.7578347101
 40
0.7885322182
 40
0.8190890537
 40
0.8495115249
 40
0.8798085125
 40
0.9099913302
 40
0.9400735329
 40
0.9700706713
 40
1.0
 40
1.0
 40
1.0
 40
1.0
 10
9.6256572041
 20
8.8061341177
 30
0.0
 10
9.6174441107
 20
8.8067036976
 30
0.0
 10
9.6051335078
 20
8.8079773438
 30
0.0
 10
9.5888202937
 20
8.8104968577
 30
0.0
 10
9.5725266016
 20
8.8135719859
 30
0.0
 10
9.5522999849
 20
8.8184432673
 30
0.0
 10
9.5283954046
 20
8.8258928398
 30
0.0
 10
9.5049388219
 20
8.834918879
 30
0.0
 10
9.4820387406
 20
8.8454796377
 30
0.0
 10
9.4598002663
 20
8.8575264499
 30
0.0
 10
9.4383256782
 20
8.8710038153
 30
0.0
 10
9.4177136792
 20
8.8858496849
 30
0.0
 10
9.3980590246
 20
8.9019957398
 30
0.0
 10
9.3794520717
 20
8.9193677
 30
0.0
 10
9.361978365
 20
8.9378856817
 30
0.0
 10
9.3457182786
 20
8.9574644928
 30
0.0
 10
9.3307465242
 20
8.9780142772
 30
0.0
 10
9.3171322802
 20
8.9994399734
 30
0.0
 10
9.3069629087
 20
9.0179566737
 30
0.0
 10
9.2995669083
 20
9.0331088102
 30
0.0
 10
9.2926816073
 20
9.0484465804
 30
0.0
 10
9.2850262902
 20
9.0679746247
 30
0.0
 10
9.2774014967
 20
9.0918874321
 30
0.0
 10
9.2713796283
 20
9.1161535395
 30
0.0
 10
9.2669888142
 20
9.140660747
 30
0.0
 10
9.2642493716
 20
9.1652964639
 30
0.0
 10
9.2631741251
 20
9.1899472764
 30
0.0
 10
9.2637682297
 20
9.2144997157
 30
0.0
 10
9.2660291691
 20
9.2388407084
 30
0.0
 10
9.2699467523
 20
9.2628581155
 30
0.0
 10
9.2755031443
 20
9.2864412308
 30
0.0
 10
9.2826729678
 20
9.309481336
 30
0.0
 10
9.291423296
 20
9.3318720491
 30
0.0
 10
9.3017142162
 20
9.3535103975
 30
0.0
 10
9.3134974367
 20
9.3742951618
 30
0.0
 10
9.3223221936
 20
9.3875341618
 30
0.0
 10
9.3269615733
 20
9.3939754136
 30
0.0
  0
SPLINE
  5
412
100
AcDbEntity
  8
0
100
AcDbSpline
 62
7
  6
CONTINUOUS
 70
0
 71
3
 72
15
 73
11
 74
0
 42
0.0000001
 43
0.0000001
 44
0.0000000001
 40
0.0
 40
0.0
 40
0.0
 40
0.0
 40
0.1081481156
 40
0.2181275745
 40
0.3316716241
 40
0.4503409609
 40
0.5754873735
 40
0.7082426213
 40
0.8495167778
 40
1.0
 40
1.0
 40
1.0
 40
1.0
 10
13.4354448692
 20
7.2146228485
 30
0.0
 10
13.4360169009
 20
7.2145831728
 30
0.0
 10
13.4371775929
 20
7.2145818131
 30
0.0
 10
13.4389253784
 20
7.2148153461
 30
0.0
 10
13.4406831675
 20
7.2152829937
 30
0.0
 10
13.4424480863
 20
7.2159830215
 30
0.0
 10
13.4442183539
 20
7.2169135926
 30
0.0
 10
13.4459924144
 20
7.2180729017
 30
0.0
 10
13.4477685471
 20
7.2194590696
 30
0.0
 10
13.4489155594
 20
7.2204991458
 30
0.0
 10
13.4494894301
 20
7.2210534623
 30
0.0
  0
SPLINE
  5
413
100
AcDbEntity
  8
0
100
AcDbSpline
 62
7
  6
CONTINUOUS
 70
0
 71
3
 72
15
 73
11
 74
0
 42
0.0000001
 43
0.0000001
 44
0.0000000001
 40
0.0
 40
0.0
 40
0.0
 40
0.0
 40
0.1081481156
 40
0.2181275745
 40
0.3316716241
 40
0.4503409609
 40
0.5754873735
 40
0.7082426213
 40
0.8495167778
 40
1.0
 40
1.0
 40
1.0
 40
1.0
 10
12.4001695432
 20
6.2146236146
 30
0.0
 10
12.4007415749
 20
6.2145839388
 30
0.0
 10
12.4019022669
 20
6.2145825791
 30
0.0
 10
12.4036500524
 20
6.2148161121
 30
0.0
 10
12.4054078415
 20
6.2152837597
 30
0.0
 10
12.4071727603
 20
6.2159837875
 30
0.0
 10
12.4089430279
 20
6.2169143587
 30
0.0
 10
12.4107170884
 20
6.2180736677
 30
0.0
 10
12.4124932211
 20
6.2194598356
 30
0.0
 10
12.4136402334
 20
6.2204999118
 30
0.0
 10
12.414214104
 20
6.2210542283
 30
0.0
  0
SPLINE
  5
414
100
AcDbEntity
  8
0
100
AcDbSpline
 62
7
  6
CONTINUOUS
 70
0
 71
3
 72
25
 73
21
 74
0
 42
0.0000001
 43
0.0000001
 44
0.0000000001
 40
0.0
 40
0.0
 40
0.0
 40
0.0
 40
0.0618715085
 40
0.1239819326
 40
0.1863056791
 40
0.2488133587
 40
0.3114722549
 40
0.3742469596
 40
0.4371000107
 40
0.4999925636
 40
0.5628850783
 40
0.6257380154
 40
0.6885125321
 40
0.7198628123
 40
0.7511796021
 40
0.8136869547
 40
0.8760103162
 40
0.9070979862
 40
0.9381289465
 40
1.0
 40
1.0
 40
1.0
 40
1.0
 10
10.1043402338
 20
7.5569720102
 30
0.0
 10
10.0967419764
 20
7.5591160904
 30
0.0
 10
10.0816567782
 20
7.5639296822
 30
0.0
 10
10.0595281131
 20
7.5726636198
 30
0.0
 10
10.0379548818
 20
7.5828846232
 30
0.0
 10
10.0170433472
 20
7.5945424778
 30
0.0
 10
9.9968947914
 20
7.6075804994
 30
0.0
 10
9.9776072589
 20
7.6219351821
 30
0.0
 10
9.9592744758
 20
7.6375366915
 30
0.0
 10
9.9419856002
 20
7.654309093
 30
0.0
 10
9.9258245996
 20
7.6721709681
 30
0.0
 10
9.9108704166
 20
7.691034916
 30
0.0
 10
9.899468546
 20
7.7075228539
 30
0.0
 10
9.8910206648
 20
7.7211216221
 30
0.0
 10
9.8830402977
 20
7.7349606183
 30
0.0
 10
9.873942433
 20
7.7527043355
 30
0.0
 10
9.8660484464
 20
7.7709837311
 30
0.0
 10
9.8604877548
 20
7.7858602846
 30
0.0
 10
9.8554452757
 20
7.8008588205
 30
0.0
 10
9.8522333527
 20
7.8122821964
 30
0.0
 10
9.8503549282
 20
7.8199503905
 30
0.0
  0
SPLINE
  5
415
100
AcDbEntity
  8
0
100
AcDbSpline
 62
7
  6
CONTINUOUS
 70
0
 71
3
 72
60
 73
56
 74
0
 42
0.0000001
 43
0.0000001
 44
0.0000000001
 40
0.0
 40
0.0
 40
0.0
 40
0.0
 40
0.0081437215
 40
0.01697685
 40
0.0265209466
 40
0.03678965
 40
0.0477883286
 40
0.0595158866
 40
0.0719660299
 40
0.0851283246
 40
0.0989885617
 40
0.1135293238
 40
0.1287305536
 40
0.1445695476
 40
0.1610215373
 40
0.1780596973
 40
0.2137771176
 40
0.2514753725
 40
0.290884692
 40
0.3317173433
 40
0.3736711531
 40
0.4164328736
 40
0.4596814124
 40
0.5030909931
 40
0.546334291
 40
0.5890855752
 40
0.6310238557
 40
0.6718360457
 40
0.7112201823
 40
0.7302867147
 40
0.7488898131
 40
0.7669963561
 40
0.7845746229
 40
0.8015944409
 40
0.8180271642
 40
0.8338461164
 40
0.8490264908
 40
0.8635457491
 40
0.8773838801
 40
0.890523522
 40
0.9029506859
 40
0.9146549165
 40
0.9256301632
 40
0.9358756224
 40
0.9453966901
 40
0.9542068483
 40
0.9623293949
 40
0.969800425
 40
0.9766722973
 40
0.9830175573
 40
0.9889330625
 40
0.9917694421
 40
0.994546604
 40
0.9972834941
 40
1.0
 40
1.0
 40
1.0
 40
1.0
 10
13.4494894301
 20
7.2210534623
 30
0.0
 10
13.4503083301
 20
7.221844459
 30
0.0
 10
13.4519418994
 20
7.2235704756
 30
0.0
 10
13.4542892741
 20
7.2264438552
 30
0.0
 10
13.4566265376
 20
7.2296987657
 30
0.0
 10
13.4589491602
 20
7.2333286619
 30
0.0
 10
13.4612529286
 20
7.2373267568
 30
0.0
 10
13.463533249
 20
7.241685341
 30
0.0
 10
13.4657856809
 20
7.2463958657
 30
0.0
 10
13.4680056922
 20
7.251449069
 30
0.0
 10
13.4701888294
 20
7.2568349444
 30
0.0
 10
13.4723307211
 20
7.2625427744
 30
0.0
 10
13.4744269991
 20
7.2685611853
 30
0.0
 10
13.4764734702
 20
7.2748781365
 30
0.0
 10
13.4784660003
 20
7.2814809953
 30
0.0
 10
13.48108664
 20
7.2907954523
 30
0.0
 10
13.4841860222
 20
7.3030583941
 30
0.0
 10
13.4875744026
 20
7.3184659951
 30
0.0
 10
13.4906602632
 20
7.3346654773
 30
0.0
 10
13.4934185331
 20
7.3515268507
 30
0.0
 10
13.4958267883
 20
7.3689149182
 30
0.0
 10
13.4978655063
 20
7.3866900931
 30
0.0
 10
13.4995181901
 20
7.4047096452
 30
0.0
 10
13.5007715033
 20
7.422828843
 30
0.0
 10
13.5016153748
 20
7.4409021452
 30
0.0
 10
13.5020430881
 20
7.4587843723
 30
0.0
 10
13.5020513505
 20
7.4763319459
 30
0.0
 10
13.5016402427
 20
7.4934038768
 30
0.0
 10
13.5009440058
 20
7.507265833
 30
0.0
 10
13.5001727152
 20
7.5180110839
 30
0.0
 10
13.4994987568
 20
7.5257800529
 30
0.0
 10
13.4987244777
 20
7.5333305492
 30
0.0
 10
13.4978514349
 20
7.5406474217
 30
0.0
 10
13.496881436
 20
7.5477159763
 30
0.0
 10
13.4958164103
 20
7.5545220321
 30
0.0
 10
13.4946585718
 20
7.5610519445
 30
0.0
 10
13.4934102473
 20
7.5672926366
 30
0.0
 10
13.4920739767
 20
7.5732316288
 30
0.0
 10
13.4906525061
 20
7.5788570724
 30
0.0
 10
13.4891486639
 20
7.5841577677
 30
0.0
 10
13.4875655448
 20
7.5891232179
 30
0.0
 10
13.4859062903
 20
7.593743635
 30
0.0
 10
13.4841741936
 20
7.598009986
 30
0.0
 10
13.4823726693
 20
7.6019140396
 30
0.0
 10
13.4805050452
 20
7.6054483389
 30
0.0
 10
13.4785747385
 20
7.6086063032
 30
0.0
 10
13.4765848451
 20
7.6113821055
 30
0.0
 10
13.4745382374
 20
7.6137705812
 30
0.0
 10
13.4724371276
 20
7.6157670445
 30
0.0
 10
13.4702839138
 20
7.6173663175
 30
0.0
 10
13.4684209367
 20
7.6183774153
 30
0.0
 10
13.4669196307
 20
7.6189684413
 30
0.0
 10
13.4657998215
 20
7.6193037312
 30
0.0
 10
13.4646715161
 20
7.6195366686
 30
0.0
 10
13.4639128641
 20
7.6196237063
 30
0.0
 10
13.4635339909
 20
7.6196499847
 30
0.0
  0
SPLINE
  5
416
100
AcDbEntity
  8
0
100
AcDbSpline
 62
7
  6
CONTINUOUS
 70
0
 71
3
 72
41
 73
37
 74
0
 42
0.0000001
 43
0.0000001
 44
0.0000000001
 40
0.0
 40
0.0
 40
0.0
 40
0.0
 40
0.0310404887
 40
0.0466166116
 40
0.0622274214
 40
0.0935472329
 40
0.124996362
 40
0.1565649421
 40
0.188240925
 40
0.2200104517
 40
0.2518580609
 40
0.2837669753
 40
0.3157193879
 40
0.3476967655
 40
0.3796801592
 40
0.4116505197
 40
0.4435890149
 40
0.4754773435
 40
0.5072980434
 40
0.5231799249
 40
0.539038893
 40
0.5706767836
 40
0.6022026034
 40
0.6336050704
 40
0.664875053
 40
0.6960057571
 40
0.7269928777
 40
0.7578347101
 40
0.7885322182
 40
0.8190890537
 40
0.8495115249
 40
0.8798085125
 40
0.9099913302
 40
0.9400735329
 40
0.9700706713
 40
1.0
 40
1.0
 40
1.0
 40
1.0
 10
11.5575089711
 20
8.6721597426
 30
0.0
 10
11.5492958778
 20
8.6727293225
 30
0.0
 10
11.5369852749
 20
8.6740029687
 30
0.0
 10
11.5206720608
 20
8.6765224826
 30
0.0
 10
11.5043783686
 20
8.6795976108
 30
0.0
 10
11.484151752
 20
8.6844688922
 30
0.0
 10
11.4602471717
 20
8.6919184647
 30
0.0
 10
11.4367905889
 20
8.7009445039
 30
0.0
 10
11.4138905076
 20
8.7115052626
 30
0.0
 10
11.3916520334
 20
8.7235520748
 30
0.0
 10
11.3701774452
 20
8.7370294402
 30
0.0
 10
11.3495654462
 20
8.7518753098
 30
0.0
 10
11.3299107917
 20
8.7680213647
 30
0.0
 10
11.3113038388
 20
8.785393325
 30
0.0
 10
11.293830132
 20
8.8039113066
 30
0.0
 10
11.2775700457
 20
8.8234901178
 30
0.0
 10
11.2625982913
 20
8.8440399021
 30
0.0
 10
11.2489840472
 20
8.8654655984
 30
0.0
 10
11.2388146758
 20
8.8839822987
 30
0.0
 10
11.2314186753
 20
8.8991344351
 30
0.0
 10
11.2245333744
 20
8.9144722053
 30
0.0
 10
11.2168780572
 20
8.9340002496
 30
0.0
 10
11.2092532637
 20
8.9579130571
 30
0.0
 10
11.2032313953
 20
8.9821791644
 30
0.0
 10
11.1988405812
 20
9.0066863719
 30
0.0
 10
11.1961011387
 20
9.0313220889
 30
0.0
 10
11.1950258921
 20
9.0559729013
 30
0.0
 10
11.1956199968
 20
9.0805253406
 30
0.0
 10
11.1978809362
 20
9.1048663334
 30
0.0
 10
11.2017985193
 20
9.1288837404
 30
0.0
 10
11.2073549113
 20
9.1524668557
 30
0.0
 10
11.2145247349
 20
9.1755069609
 30
0.0
 10
11.223275063
 20
9.197897674
 30
0.0
 10
11.2335659832
 20
9.2195360224
 30
0.0
 10
11.2453492037
 20
9.2403207867
 30
0.0
 10
11.2541739607
 20
9.2535597867
 30
0.0
 10
11.2588133404
 20
9.2600010385
 30
0.0
  0
SPLINE
  5
417
100
AcDbEntity
  8
0
100
AcDbSpline
 62
4
  6
CONTINUOUS
 70
0
 71
3
 72
345
 73
341
 74
0
 42
0.0000001
 43
0.0000001
 44
0.0000000001
 40
0.0
 40
0.0
 40
0.0
 40
0.0
 40
0.015625
 40
0.0234375
 40
0.03125
 40
0.0390625
 40
0.04296875
 40
0.046875
 40
0.05078125
 40
0.0546875
 40
0.056640625
 40
0.05859375
 40
0.0595703125
 40
0.060546875
 40
0.0615234375
 40
0.0620117188
 40
0.0622558594
 40
0.0625
 40
0.0627441406
 40
0.0629882812
 40
0.0634765625
 40
0.064453125
 40
0.0654296875
 40
0.06640625
 40
0.068359375
 40
0.0703125
 40
0.07421875
 40
0.078125
 40
0.08203125
 40
0.0859375
 40
0.09375
 40
0.1015625
 40
0.10546875
 40
0.109375
 40
0.11328125
 40
0.1171875
 40
0.119140625
 40
0.12109375
 40
0.1220703125
 40
0.123046875
 40
0.1240234375
 40
0.1245117188
 40
0.1247558594
 40
0.125
 40
0.1252441406
 40
0.1254882812
 40
0.1259765625
 40
0.126953125
 40
0.1279296875
 40
0.12890625
 40
0.130859375
 40
0.1328125
 40
0.13671875
 40
0.140625
 40
0.14453125
 40
0.1484375
 40
0.15625
 40
0.1640625
 40
0.16796875
 40
0.171875
 40
0.17578125
 40
0.1796875
 40
0.181640625
 40
0.18359375
 40
0.1845703125
 40
0.185546875
 40
0.1865234375
 40
0.1870117188
 40
0.1875
 40
0.1879882812
 40
0.1884765625
 40
0.189453125
 40
0.1904296875
 40
0.19140625
 40
0.193359375
 40
0.1953125
 40
0.19921875
 40
0.203125
 40
0.20703125
 40
0.2109375
 40
0.21875
 40
0.2265625
 40
0.234375
 40
0.23828125
 40
0.2421875
 40
0.244140625
 40
0.24609375
 40
0.248046875
 40
0.2490234375
 40
0.2495117188
 40
0.25
 40
0.2504882812
 40
0.2509765625
 40
0.251953125
 40
0.25390625
 40
0.255859375
 40
0.2578125
 40
0.26171875
 40
0.265625
 40
0.2734375
 40
0.28125
 40
0.2890625
 40
0.296875
 40
0.30078125
 40
0.3046875
 40
0.306640625
 40
0.30859375
 40
0.310546875
 40
0.3115234375
 40
0.3125
 40
0.3134765625
 40
0.314453125
 40
0.31640625
 40
0.318359375
 40
0.3203125
 40
0.32421875
 40
0.328125
 40
0.3359375
 40
0.34375
 40
0.3515625
 40
0.359375
 40
0.36328125
 40
0.3671875
 40
0.37109375
 40
0.373046875
 40
0.3740234375
 40
0.375
 40
0.3759765625
 40
0.376953125
 40
0.37890625
 40
0.3828125
 40
0.38671875
 40
0.390625
 40
0.3984375
 40
0.40625
 40
0.4140625
 40
0.421875
 40
0.42578125
 40
0.4296875
 40
0.43359375
 40
0.435546875
 40
0.4365234375
 40
0.4375
 40
0.4384765625
 40
0.439453125
 40
0.44140625
 40
0.4453125
 40
0.44921875
 40
0.453125
 40
0.4609375
 40
0.46875
 40
0.4765625
 40
0.484375
 40
0.48828125
 40
0.4921875
 40
0.494140625
 40
0.49609375
 40
0.498046875
 40
0.4990234375
 40
0.4995117188
 40
0.5
 40
0.5004882812
 40
0.5009765625
 40
0.501953125
 40
0.50390625
 40
0.505859375
 40
0.5078125
 40
0.51171875
 40
0.515625
 40
0.5234375
 40
0.53125
 40
0.5390625
 40
0.546875
 40
0.55078125
 40
0.5546875
 40
0.556640625
 40
0.55859375
 40
0.560546875
 40
0.5615234375
 40
0.5620117188
 40
0.5625
 40
0.5629882812
 40
0.5634765625
 40
0.564453125
 40
0.56640625
 40
0.568359375
 40
0.5703125
 40
0.57421875
 40
0.578125
 40
0.5859375
 40
0.59375
 40
0.6015625
 40
0.609375
 40
0.61328125
 40
0.6171875
 40
0.619140625
 40
0.62109375
 40
0.623046875
 40
0.6240234375
 40
0.6245117188
 40
0.625
 40
0.6254882812
 40
0.6259765625
 40
0.626953125
 40
0.62890625
 40
0.630859375
 40
0.6328125
 40
0.63671875
 40
0.640625
 40
0.6484375
 40
0.65625
 40
0.6640625
 40
0.66796875
 40
0.671875
 40
0.67578125
 40
0.6796875
 40
0.681640625
 40
0.68359375
 40
0.685546875
 40
0.6865234375
 40
0.6870117188
 40
0.6875
 40
0.6879882812
 40
0.6884765625
 40
0.689453125
 40
0.69140625
 40
0.693359375
 40
0.6953125
 40
0.69921875
 40
0.703125
 40
0.70703125
 40
0.7109375
 40
0.71875
 40
0.7265625
 40
0.73046875
 40
0.734375
 40
0.73828125
 40
0.7421875
 40
0.744140625
 40
0.74609375
 40
0.7470703125
 40
0.748046875
 40
0.7490234375
 40
0.7495117188
 40
0.7497558594
 40
0.75
 40
0.7502441406
 40
0.7504882812
 40
0.7509765625
 40
0.751953125
 40
0.7529296875
 40
0.75390625
 40
0.755859375
 40
0.7578125
 40
0.76171875
 40
0.765625
 40
0.76953125
 40
0.7734375
 40
0.78125
 40
0.7890625
 40
0.79296875
 40
0.796875
 40
0.80078125
 40
0.8046875
 40
0.806640625
 40
0.80859375
 40
0.8095703125
 40
0.810546875
 40
0.8115234375
 40
0.8120117188
 40
0.8122558594
 40
0.8125
 40
0.8127441406
 40
0.8129882812
 40
0.8134765625
 40
0.814453125
 40
0.8154296875
 40
0.81640625
 40
0.818359375
 40
0.8203125
 40
0.82421875
 40
0.828125
 40
0.83203125
 40
0.8359375
 40
0.84375
 40
0.8515625
 40
0.85546875
 40
0.859375
 40
0.86328125
 40
0.8671875
 40
0.869140625
 40
0.87109375
 40
0.8720703125
 40
0.873046875
 40
0.8740234375
 40
0.8745117188
 40
0.8747558594
 40
0.875
 40
0.8752441406
 40
0.8754882812
 40
0.8759765625
 40
0.876953125
 40
0.8779296875
 40
0.87890625
 40
0.880859375
 40
0.8828125
 40
0.88671875
 40
0.890625
 40
0.89453125
 40
0.8984375
 40
0.90625
 40
0.9140625
 40
0.91796875
 40
0.921875
 40
0.92578125
 40
0.9296875
 40
0.931640625
 40
0.93359375
 40
0.9345703125
 40
0.935546875
 40
0.9365234375
 40
0.9370117188
 40
0.9372558594
 40
0.9375
 40
0.9377441406
 40
0.9379882812
 40
0.9384765625
 40
0.939453125
 40
0.9404296875
 40
0.94140625
 40
0.943359375
 40
0.9453125
 40
0.94921875
 40
0.953125
 40
0.95703125
 40
0.9609375
 40
0.96875
 40
0.9765625
 40
0.984375
 40
1.0
 40
1.0
 40
1.0
 40
1.0
 10
12.8178679562
 20
8.5702379899
 30
0.0
 10
12.817028422
 20
8.5691198504
 30
0.0
 10
12.8157691208
 20
8.5674426413
 30
0.0
 10
12.8140900525
 20
8.5652063624
 30
0.0
 10
12.8128307512
 20
8.5635291532
 30
0.0
 10
12.8117813335
 20
8.5621314791
 30
0.0
 10
12.8109417994
 20
8.5610133393
 30
0.0
 10
12.8103121487
 20
8.5601747357
 30
0.0
 10
12.8096824983
 20
8.5593361276
 30
0.0
 10
12.8091577888
 20
8.5586373013
 30
0.0
 10
12.808738023
 20
8.5580782094
 30
0.0
 10
12.8084756654
 20
8.5577288473
 30
0.0
 10
12.8082657883
 20
8.5574491966
 30
0.0
 10
12.8081083559
 20
8.5572398993
 30
0.0
 10
12.8079772406
 20
8.5570640829
 30
0.0
 10
12.807885306
 20
8.5569437627
 30
0.0
 10
12.8078330122
 20
8.5568707125
 30
0.0
 10
12.8077931151
 20
8.5568280262
 30
0.0
 10
12.8077558048
 20
8.5567390822
 30
0.0
 10
12.8077051555
 20
8.5566366254
 30
0.0
 10
12.8076169395
 20
8.5564498083
 30
0.0
 10
12.8074906969
 20
8.556186857
 30
0.0
 10
12.8073392998
 20
8.5558696332
 30
0.0
 10
12.8071374042
 20
8.5554472558
 30
0.0
 10
12.8068850459
 20
8.5549190827
 30
0.0
 10
12.8064812664
 20
8.5540741183
 30
0.0
 10
12.8059765441
 20
8.5530178742
 30
0.0
 10
12.8053708765
 20
8.5517503978
 30
0.0
 10
12.8047652091
 20
8.550482917
 30
0.0
 10
12.8039576526
 20
8.5487929441
 30
0.0
 10
12.8029482069
 20
8.5466804774
 30
0.0
 10
12.8019387611
 20
8.5445680111
 30
0.0
 10
12.8011312046
 20
8.5428780377
 30
0.0
 10
12.8005255371
 20
8.5416105586
 30
0.0
 10
12.79991987
 20
8.5403430756
 30
0.0
 10
12.799415146
 20
8.539286852
 30
0.0
 10
12.7990113701
 20
8.5384418458
 30
0.0
 10
12.7987590025
 20
8.5379137792
 30
0.0
 10
12.7985571261
 20
8.5374911831
 30
0.0
 10
12.7984056704
 20
8.5371746272
 30
0.0
 10
12.7982796112
 20
8.5369095864
 30
0.0
 10
12.7981910678
 20
8.5367264994
 30
0.0
 10
12.798140943
 20
8.536618066
 30
0.0
 10
12.7981020216
 20
8.5365474802
 30
0.0
 10
12.7980681753
 20
8.5364358437
 30
0.0
 10
12.7980212767
 20
8.536301314
 30
0.0
 10
12.7979400289
 20
8.5360592156
 30
0.0
 10
12.7978235294
 20
8.5357168486
 30
0.0
 10
12.7976839146
 20
8.5353045153
 30
0.0
 10
12.7974976971
 20
8.534755259
 30
0.0
 10
12.7972649472
 20
8.53406851
 30
0.0
 10
12.7968925351
 20
8.5329698115
 30
0.0
 10
12.7964270241
 20
8.5315964041
 30
0.0
 10
12.7958684092
 20
8.5299483299
 30
0.0
 10
12.7953097948
 20
8.5283002518
 30
0.0
 10
12.7945649753
 20
8.5261028157
 30
0.0
 10
12.7936339511
 20
8.5233560202
 30
0.0
 10
12.7927029269
 20
8.5206092244
 30
0.0
 10
12.7919581074
 20
8.5184117888
 30
0.0
 10
12.7913994932
 20
8.5167637093
 30
0.0
 10
12.7908408773
 20
8.5151156402
 30
0.0
 10
12.7903753695
 20
8.5137422171
 30
0.0
 10
12.790002951
 20
8.5126435507
 30
0.0
 10
12.7897702173
 20
8.5119567199
 30
0.0
 10
12.7895839665
 20
8.5114076316
 30
0.0
 10
12.7894444533
 20
8.510994785
 30
0.0
 10
12.7893276359
 20
8.510654024
 30
0.0
 10
12.7892354298
 20
8.5103740636
 30
0.0
 10
12.7891628658
 20
8.5101841814
 30
0.0
 10
12.7891033155
 20
8.5099176225
 30
0.0
 10
12.7890193693
 20
8.5095889947
 30
0.0
 10
12.7889159962
 20
8.5091690206
 30
0.0
 10
12.7887912809
 20
8.5086689849
 30
0.0
 10
12.788625227
 20
8.5080008969
 30
0.0
 10
12.7884175798
 20
8.5071662574
 30
0.0
 10
12.7880853889
 20
8.5058305711
 30
0.0
 10
12.787670135
 20
8.5041610535
 30
0.0
 10
12.7871718368
 20
8.5021575937
 30
0.0
 10
12.7866735369
 20
8.5001541443
 30
0.0
 10
12.7860091376
 20
8.4974828746
 30
0.0
 10
12.7851786379
 20
8.4941437897
 30
0.0
 10
12.7841820404
 20
8.4901368829
 30
0.0
 10
12.7833515362
 20
8.4867978075
 30
0.0
 10
12.7826871468
 20
8.484126517
 30
0.0
 10
12.7822718718
 20
8.482457029
 30
0.0
 10
12.7819397243
 20
8.4811212817
 30
0.0
 10
12.7816904149
 20
8.4801199007
 30
0.0
 10
12.7814832895
 20
8.4792840503
 30
0.0
 10
12.7813370606
 20
8.4787016363
 30
0.0
 10
12.781255439
 20
8.4783646417
 30
0.0
 10
12.7811887643
 20
8.4781236895
 30
0.0
 10
12.7811429547
 20
8.4778376554
 30
0.0
 10
12.7810745972
 20
8.4774720017
 30
0.0
 10
12.7809583626
 20
8.476824781
 30
0.0
 10
12.7807905403
 20
8.4759040105
 30
0.0
 10
12.7805899124
 20
8.4747974464
 30
0.0
 10
12.7803221435
 20
8.4733226002
 30
0.0
 10
12.7799875231
 20
8.4714788464
 30
0.0
 10
12.7794520798
 20
8.4685289499
 30
0.0
 10
12.7787827927
 20
8.4648415421
 30
0.0
 10
12.7779796423
 20
8.4604166664
 30
0.0
 10
12.777176488
 20
8.4559917956
 30
0.0
 10
12.7765072109
 20
8.4523043757
 30
0.0
 10
12.7759717476
 20
8.4493545034
 30
0.0
 10
12.7756371779
 20
8.4475106878
 30
0.0
 10
12.7753693049
 20
8.4460359684
 30
0.0
 10
12.7751689951
 20
8.444929017
 30
0.0
 10
12.7750001775
 20
8.4440094582
 30
0.0
 10
12.7748693686
 20
8.4432673055
 30
0.0
 10
12.774759662
 20
8.4427284675
 30
0.0
 10
12.7746942327
 20
8.442121776
 30
0.0
 10
12.774591527
 20
8.4413365561
 30
0.0
 10
12.7744684513
 20
8.4403468992
 30
0.0
 10
12.7743184892
 20
8.4391627916
 30
0.0
 10
12.7741193331
 20
8.4375827658
 30
0.0
 10
12.7738701163
 20
8.4356081498
 30
0.0
 10
12.7734715211
 20
8.4324485317
 30
0.0
 10
12.7729732265
 20
8.428499088
 30
0.0
 10
12.7723752885
 20
8.4237597253
 30
0.0
 10
12.7717773692
 20
8.4190203573
 30
0.0
 10
12.7712790278
 20
8.4150709268
 30
0.0
 10
12.770880526
 20
8.4119112822
 30
0.0
 10
12.770581181
 20
8.4095418239
 30
0.0
 10
12.7703332174
 20
8.4075663996
 30
0.0
 10
12.7701567178
 20
8.4061853213
 30
0.0
 10
12.7700604282
 20
8.4053934501
 30
0.0
 10
12.7699753449
 20
8.4048071065
 30
0.0
 10
12.7699394423
 20
8.4041918653
 30
0.0
 10
12.7698744174
 20
8.4033816236
 30
0.0
 10
12.7697686166
 20
8.4019590042
 30
0.0
 10
12.7696132939
 20
8.3999291461
 30
0.0
 10
12.7694286953
 20
8.3974922655
 30
0.0
 10
12.7691819388
 20
8.3942434584
 30
0.0
 10
12.7688737092
 20
8.3901823233
 30
0.0
 10
12.7685037345
 20
8.3853090163
 30
0.0
 10
12.7681338107
 20
8.3804356912
 30
0.0
 10
12.7678254539
 20
8.3763746013
 30
0.0
 10
12.7675789517
 20
8.3731257039
 30
0.0
 10
12.7673935775
 20
8.3706890985
 30
0.0
 10
12.7672406813
 20
8.3686583793
 30
0.0
 10
12.7671305487
 20
8.3672372972
 30
0.0
 10
12.7670724645
 20
8.3664245924
 30
0.0
 10
12.7670152423
 20
8.3658169169
 30
0.0
 10
12.767010232
 20
8.365202158
 30
0.0
 10
12.7669853396
 20
8.3643849502
 30
0.0
 10
12.7669502631
 20
8.3629536853
 30
0.0
 10
12.7668957177
 20
8.3609096231
 30
0.0
 10
12.7668321621
 20
8.3584564908
 30
0.0
 10
12.7667467579
 20
8.3551857377
 30
0.0
 10
12.7666402304
 20
8.3510972657
 30
0.0
 10
12.7665122991
 20
8.3461911115
 30
0.0
 10
12.7663843966
 20
8.3412849572
 30
0.0
 10
12.7662777972
 20
8.3371964856
 30
0.0
 10
12.7661925369
 20
8.3339257316
 30
0.0
 10
12.766139208
 20
8.331881457
 30
0.0
 10
12.7660966391
 20
8.3302461596
 30
0.0
 10
12.7660644542
 20
8.3290193519
 30
0.0
 10
12.7660384552
 20
8.3279980766
 30
0.0
 10
12.7660186432
 20
8.3272810949
 30
0.0
 10
12.7660098401
 20
8.3268746528
 30
0.0
 10
12.7659961445
 20
8.3265606328
 30
0.0
 10
12.766009563
 20
8.3262817361
 30
0.0
 10
12.7660179965
 20
8.3258976224
 30
0.0
 10
12.7660371618
 20
8.3252311316
 30
0.0
 10
12.766062237
 20
8.3242760177
 30
0.0
 10
12.7660933133
 20
8.3231311583
 30
0.0
 10
12.7661344039
 20
8.321604233
 30
0.0
 10
12.7661858851
 20
8.3196957291
 30
0.0
 10
12.7662681891
 20
8.3166420375
 30
0.0
 10
12.766371092
 20
8.3128249525
 30
0.0
 10
12.7664945649
 20
8.3082444369
 30
0.0
 10
12.766618043
 20
8.3036639288
 30
0.0
 10
12.7667209331
 20
8.2998468247
 30
0.0
 10
12.7668032626
 20
8.2967931713
 30
0.0
 10
12.7668546789
 20
8.2948845703
 30
0.0
 10
12.7668959029
 20
8.2933578444
 30
0.0
 10
12.7669265719
 20
8.2922123757
 30
0.0
 10
12.7669529213
 20
8.2912591684
 30
0.0
 10
12.7669698118
 20
8.2905892739
 30
0.0
 10
12.7669818901
 20
8.2902106139
 30
0.0
 10
12.7669841133
 20
8.2899149652
 30
0.0
 10
12.767012465
 20
8.2896638628
 30
0.0
 10
12.7670411534
 20
8.2893135213
 30
0.0
 10
12.7670956044
 20
8.2887076633
 30
0.0
 10
12.7671711715
 20
8.2878383669
 30
0.0
 10
12.7672628022
 20
8.2867968313
 30
0.0
 10
12.7673846446
 20
8.2854075513
 30
0.0
 10
12.7675370613
 20
8.2836711451
 30
0.0
 10
12.7677808645
 20
8.2808927868
 30
0.0
 10
12.7680856404
 20
8.2774198765
 30
0.0
 10
12.7684513615
 20
8.2732523665
 30
0.0
 10
12.7688170874
 20
8.2690848667
 30
0.0
 10
12.7691218511
 20
8.2656119308
 30
0.0
 10
12.7693656786
 20
8.2628336235
 30
0.0
 10
12.7695180334
 20
8.2610970877
 30
0.0
 10
12.7696400029
 20
8.2597080737
 30
0.0
 10
12.7697312454
 20
8.2586657256
 30
0.0
 10
12.7698080272
 20
8.2577989712
 30
0.0
 10
12.7698603098
 20
8.2571885754
 30
0.0
 10
12.7698924725
 20
8.2568455046
 30
0.0
 10
12.7699101522
 20
8.2565720688
 30
0.0
 10
12.7699524578
 20
8.2563603006
 30
0.0
 10
12.7700002755
 20
8.2560564326
 30
0.0
 10
12.7700879586
 20
8.2555346856
 30
0.0
 10
12.7702111278
 20
8.2547840932
 30
0.0
 10
12.7703598265
 20
8.253885625
 30
0.0
 10
12.7705577786
 20
8.252686884
 30
0.0
 10
12.7708053258
 20
8.2511887261
 30
0.0
 10
12.7712013415
 20
8.2487915235
 30
0.0
 10
12.7716963817
 20
8.2457950716
 30
0.0
 10
12.7722904212
 20
8.2421993077
 30
0.0
 10
12.7727854556
 20
8.2392028413
 30
0.0
 10
12.7731814838
 20
8.2368056705
 30
0.0
 10
12.773478502
 20
8.2350077832
 30
0.0
 10
12.773775532
 20
8.2332099317
 30
0.0
 10
12.7740230198
 20
8.2317116105
 30
0.0
 10
12.7742210935
 20
8.2305132035
 30
0.0
 10
12.7743694209
 20
8.2296137155
 30
0.0
 10
12.7744937517
 20
8.2288663137
 30
0.0
 10
12.7745793612
 20
8.2283388709
 30
0.0
 10
12.7746305013
 20
8.2280441291
 30
0.0
 10
12.7746626017
 20
8.2278043281
 30
0.0
 10
12.7747186106
 20
8.2276361785
 30
0.0
 10
12.7747849495
 20
8.2273869862
 30
0.0
 10
12.7749049282
 20
8.2269625444
 30
0.0
 10
12.775074295
 20
8.226350111
 30
0.0
 10
12.7752784046
 20
8.2256177967
 30
0.0
 10
12.775550247
 20
8.2246404674
 30
0.0
 10
12.7758901543
 20
8.2234191182
 30
0.0
 10
12.7762979983
 20
8.2219533652
 30
0.0
 10
12.7767058543
 20
8.2204876481
 30
0.0
 10
12.7772496581
 20
8.218533346
 30
0.0
 10
12.7779294142
 20
8.2160904728
 30
0.0
 10
12.7786091699
 20
8.2136475978
 30
0.0
 10
12.7791529746
 20
8.2116932985
 30
0.0
 10
12.7795608278
 20
8.2102275729
 30
0.0
 10
12.779968682
 20
8.2087618518
 30
0.0
 10
12.7803085578
 20
8.2075404034
 30
0.0
 10
12.7805804643
 20
8.2065632763
 30
0.0
 10
12.7807503926
 20
8.2059524999
 30
0.0
 10
12.7808863656
 20
8.2054640436
 30
0.0
 10
12.7809882621
 20
8.20509725
 30
0.0
 10
12.7810734408
 20
8.2047930246
 30
0.0
 10
12.781132546
 20
8.2045772489
 30
0.0
 10
12.7811671321
 20
8.2044583483
 30
0.0
 10
12.7811907852
 20
8.2043567787
 30
0.0
 10
12.7812231782
 20
8.204302586
 30
0.0
 10
12.7812633204
 20
8.2042138035
 30
0.0
 10
12.7813349896
 20
8.2040661337
 30
0.0
 10
12.7814366316
 20
8.2038511514
 30
0.0
 10
12.7815589198
 20
8.2035948956
 30
0.0
 10
12.7817218597
 20
8.2032526195
 30
0.0
 10
12.7819255726
 20
8.2028249803
 30
0.0
 10
12.7822514921
 20
8.2021406425
 30
0.0
 10
12.7826588986
 20
8.2012852598
 30
0.0
 10
12.7831477834
 20
8.2002587836
 30
0.0
 10
12.783636669
 20
8.199232312
 30
0.0
 10
12.7842885162
 20
8.1978636815
 30
0.0
 10
12.7851033253
 20
8.196152894
 30
0.0
 10
12.7859181343
 20
8.1944421062
 30
0.0
 10
12.7865699816
 20
8.1930734763
 30
0.0
 10
12.7870588669
 20
8.1920470028
 30
0.0
 10
12.7875477528
 20
8.1910205338
 30
0.0
 10
12.7879551556
 20
8.1901651286
 30
0.0
 10
12.7882810828
 20
8.1894808367
 30
0.0
 10
12.788484776
 20
8.1890530807
 30
0.0
 10
12.7886477564
 20
8.1887110445
 30
0.0
 10
12.7887699211
 20
8.1884540557
 30
0.0
 10
12.7888719495
 20
8.1882413669
 30
0.0
 10
12.7889429288
 20
8.1880896027
 30
0.0
 10
12.7889841764
 20
8.1880073805
 30
0.0
 10
12.7890131739
 20
8.1879330366
 30
0.0
 10
12.7890495801
 20
8.1879071515
 30
0.0
 10
12.7890955375
 20
8.1878557349
 30
0.0
 10
12.7891771669
 20
8.1877736314
 30
0.0
 10
12.789293151
 20
8.1876522234
 30
0.0
 10
12.7894326012
 20
8.187508296
 30
0.0
 10
12.7896184408
 20
8.1873157773
 30
0.0
 10
12.7898507725
 20
8.1870753398
 30
0.0
 10
12.7902224851
 20
8.1866905219
 30
0.0
 10
12.7906871322
 20
8.1862095399
 30
0.0
 10
12.791244706
 20
8.1856323442
 30
0.0
 10
12.7918022805
 20
8.1850551532
 30
0.0
 10
12.7925457129
 20
8.1842855635
 30
0.0
 10
12.7934750035
 20
8.183323577
 30
0.0
 10
12.794404294
 20
8.18236159
 30
0.0
 10
12.7951477265
 20
8.181592001
 30
0.0
 10
12.7957053008
 20
8.181014808
 30
0.0
 10
12.7962628755
 20
8.1804376198
 30
0.0
 10
12.7967275196
 20
8.1799566145
 30
0.0
 10
12.7970992383
 20
8.1795718442
 30
0.0
 10
12.7973315547
 20
8.1793312855
 30
0.0
 10
12.7975174256
 20
8.1791390154
 30
0.0
 10
12.79765678
 20
8.1789943286
 30
0.0
 10
12.7977730638
 20
8.1788752967
 30
0.0
 10
12.7978541581
 20
8.1787889513
 30
0.0
 10
12.797900973
 20
8.1787443314
 30
0.0
 10
12.7979347452
 20
8.178697569
 30
0.0
 10
12.7979736355
 20
8.1787016365
 30
0.0
 10
12.7980237039
 20
8.1786893298
 30
0.0
 10
12.7981121554
 20
8.1786760539
 30
0.0
 10
12.7982380799
 20
8.1786527694
 30
0.0
 10
12.7983893754
 20
8.1786266766
 30
0.0
 10
12.7985910378
 20
8.1785912405
 30
0.0
 10
12.7988431379
 20
8.1785471666
 30
0.0
 10
12.7992464858
 20
8.1784765246
 30
0.0
 10
12.7997506748
 20
8.1783882646
 30
0.0
 10
12.8003556999
 20
8.1782823344
 30
0.0
 10
12.8009607254
 20
8.178176409
 30
0.0
 10
12.8017674259
 20
8.1780351735
 30
0.0
 10
12.8027758017
 20
8.1778586297
 30
0.0
 10
12.8037841774
 20
8.1776820856
 30
0.0
 10
12.804590878
 20
8.1775408508
 30
0.0
 10
12.8051959033
 20
8.1774349233
 30
0.0
 10
12.805800929
 20
8.1773290009
 30
0.0
 10
12.806305116
 20
8.1772407166
 30
0.0
 10
12.8067084681
 20
8.1771701241
 30
0.0
 10
12.8069605573
 20
8.1771259242
 30
0.0
 10
12.8071622421
 20
8.1770907467
 30
0.0
 10
12.807313469
 20
8.177063864
 30
0.0
 10
12.8074396082
 20
8.1770430509
 30
0.0
 10
12.8075276764
 20
8.1770253631
 30
0.0
 10
12.807578359
 20
8.1770201253
 30
0.0
 10
12.8076153629
 20
8.1770024793
 30
0.0
 10
12.8076562198
 20
8.1770372693
 30
0.0
 10
12.8077093516
 20
8.1770653658
 30
0.0
 10
12.8078029585
 20
8.1771230563
 30
0.0
 10
12.8079363553
 20
8.1772010161
 30
0.0
 10
12.8080965716
 20
8.1772964749
 30
0.0
 10
12.8083101444
 20
8.1774230871
 30
0.0
 10
12.8085771271
 20
8.1775815805
 30
0.0
 10
12.8090042901
 20
8.1778350425
 30
0.0
 10
12.809538247
 20
8.1781519137
 30
0.0
 10
12.8101789939
 20
8.1785321403
 30
0.0
 10
12.8108197412
 20
8.178912372
 30
0.0
 10
12.8116740708
 20
8.1794193459
 30
0.0
 10
12.8127419829
 20
8.1800530638
 30
0.0
 10
12.8140234774
 20
8.180813525
 30
0.0
 10
12.8157321366
 20
8.1818274734
 30
0.0
 10
12.8170136311
 20
8.1825879346
 30
0.0
 10
12.8178679607
 20
8.1830949088
 30
0.0
  0
SPLINE
  5
418
100
AcDbEntity
  8
0
100
AcDbSpline
 62
4
  6
CONTINUOUS
 70
0
 71
3
 72
345
 73
341
 74
0
 42
0.0000001
 43
0.0000001
 44
0.0000000001
 40
0.0
 40
0.0
 40
0.0
 40
0.0
 40
0.015625
 40
0.0234375
 40
0.03125
 40
0.0390625
 40
0.04296875
 40
0.046875
 40
0.05078125
 40
0.0546875
 40
0.056640625
 40
0.05859375
 40
0.0595703125
 40
0.060546875
 40
0.0615234375
 40
0.0620117188
 40
0.0622558594
 40
0.0625
 40
0.0627441406
 40
0.0629882812
 40
0.0634765625
 40
0.064453125
 40
0.0654296875
 40
0.06640625
 40
0.068359375
 40
0.0703125
 40
0.07421875
 40
0.078125
 40
0.08203125
 40
0.0859375
 40
0.09375
 40
0.1015625
 40
0.10546875
 40
0.109375
 40
0.11328125
 40
0.1171875
 40
0.119140625
 40
0.12109375
 40
0.1220703125
 40
0.123046875
 40
0.1240234375
 40
0.1245117188
 40
0.1247558594
 40
0.125
 40
0.1252441406
 40
0.1254882812
 40
0.1259765625
 40
0.126953125
 40
0.1279296875
 40
0.12890625
 40
0.130859375
 40
0.1328125
 40
0.13671875
 40
0.140625
 40
0.14453125
 40
0.1484375
 40
0.15625
 40
0.1640625
 40
0.16796875
 40
0.171875
 40
0.17578125
 40
0.1796875
 40
0.181640625
 40
0.18359375
 40
0.1845703125
 40
0.185546875
 40
0.1865234375
 40
0.1870117188
 40
0.1875
 40
0.1879882812
 40
0.1884765625
 40
0.189453125
 40
0.1904296875
 40
0.19140625
 40
0.193359375
 40
0.1953125
 40
0.19921875
 40
0.203125
 40
0.20703125
 40
0.2109375
 40
0.21875
 40
0.2265625
 40
0.234375
 40
0.23828125
 40
0.2421875
 40
0.244140625
 40
0.24609375
 40
0.248046875
 40
0.2490234375
 40
0.2495117188
 40
0.25
 40
0.2504882812
 40
0.2509765625
 40
0.251953125
 40
0.25390625
 40
0.255859375
 40
0.2578125
 40
0.26171875
 40
0.265625
 40
0.2734375
 40
0.28125
 40
0.2890625
 40
0.296875
 40
0.30078125
 40
0.3046875
 40
0.306640625
 40
0.30859375
 40
0.310546875
 40
0.3115234375
 40
0.3125
 40
0.3134765625
 40
0.314453125
 40
0.31640625
 40
0.318359375
 40
0.3203125
 40
0.32421875
 40
0.328125
 40
0.3359375
 40
0.34375
 40
0.3515625
 40
0.359375
 40
0.36328125
 40
0.3671875
 40
0.37109375
 40
0.373046875
 40
0.3740234375
 40
0.375
 40
0.3759765625
 40
0.376953125
 40
0.37890625
 40
0.3828125
 40
0.38671875
 40
0.390625
 40
0.3984375
 40
0.40625
 40
0.4140625
 40
0.421875
 40
0.42578125
 40
0.4296875
 40
0.43359375
 40
0.435546875
 40
0.4365234375
 40
0.4375
 40
0.4384765625
 40
0.439453125
 40
0.44140625
 40
0.4453125
 40
0.44921875
 40
0.453125
 40
0.4609375
 40
0.46875
 40
0.4765625
 40
0.484375
 40
0.48828125
 40
0.4921875
 40
0.494140625
 40
0.49609375
 40
0.498046875
 40
0.4990234375
 40
0.4995117188
 40
0.5
 40
0.5004882812
 40
0.5009765625
 40
0.501953125
 40
0.50390625
 40
0.505859375
 40
0.5078125
 40
0.51171875
 40
0.515625
 40
0.5234375
 40
0.53125
 40
0.5390625
 40
0.546875
 40
0.55078125
 40
0.5546875
 40
0.556640625
 40
0.55859375
 40
0.560546875
 40
0.5615234375
 40
0.5620117188
 40
0.5625
 40
0.5629882812
 40
0.5634765625
 40
0.564453125
 40
0.56640625
 40
0.568359375
 40
0.5703125
 40
0.57421875
 40
0.578125
 40
0.5859375
 40
0.59375
 40
0.6015625
 40
0.609375
 40
0.61328125
 40
0.6171875
 40
0.619140625
 40
0.62109375
 40
0.623046875
 40
0.6240234375
 40
0.6245117188
 40
0.625
 40
0.6254882812
 40
0.6259765625
 40
0.626953125
 40
0.62890625
 40
0.630859375
 40
0.6328125
 40
0.63671875
 40
0.640625
 40
0.6484375
 40
0.65625
 40
0.6640625
 40
0.66796875
 40
0.671875
 40
0.67578125
 40
0.6796875
 40
0.681640625
 40
0.68359375
 40
0.685546875
 40
0.6865234375
 40
0.6870117188
 40
0.6875
 40
0.6879882812
 40
0.6884765625
 40
0.689453125
 40
0.69140625
 40
0.693359375
 40
0.6953125
 40
0.69921875
 40
0.703125
 40
0.70703125
 40
0.7109375
 40
0.71875
 40
0.7265625
 40
0.73046875
 40
0.734375
 40
0.73828125
 40
0.7421875
 40
0.744140625
 40
0.74609375
 40
0.7470703125
 40
0.748046875
 40
0.7490234375
 40
0.7495117188
 40
0.7497558594
 40
0.75
 40
0.7502441406
 40
0.7504882812
 40
0.7509765625
 40
0.751953125
 40
0.7529296875
 40
0.75390625
 40
0.755859375
 40
0.7578125
 40
0.76171875
 40
0.765625
 40
0.76953125
 40
0.7734375
 40
0.78125
 40
0.7890625
 40
0.79296875
 40
0.796875
 40
0.80078125
 40
0.8046875
 40
0.806640625
 40
0.80859375
 40
0.8095703125
 40
0.810546875
 40
0.8115234375
 40
0.8120117188
 40
0.8122558594
 40
0.8125
 40
0.8127441406
 40
0.8129882812
 40
0.8134765625
 40
0.814453125
 40
0.8154296875
 40
0.81640625
 40
0.818359375
 40
0.8203125
 40
0.82421875
 40
0.828125
 40
0.83203125
 40
0.8359375
 40
0.84375
 40
0.8515625
 40
0.85546875
 40
0.859375
 40
0.86328125
 40
0.8671875
 40
0.869140625
 40
0.87109375
 40
0.8720703125
 40
0.873046875
 40
0.8740234375
 40
0.8745117188
 40
0.8747558594
 40
0.875
 40
0.8752441406
 40
0.8754882812
 40
0.8759765625
 40
0.876953125
 40
0.8779296875
 40
0.87890625
 40
0.880859375
 40
0.8828125
 40
0.88671875
 40
0.890625
 40
0.89453125
 40
0.8984375
 40
0.90625
 40
0.9140625
 40
0.91796875
 40
0.921875
 40
0.92578125
 40
0.9296875
 40
0.931640625
 40
0.93359375
 40
0.9345703125
 40
0.935546875
 40
0.9365234375
 40
0.9370117188
 40
0.9372558594
 40
0.9375
 40
0.9377441406
 40
0.9379882812
 40
0.9384765625
 40
0.939453125
 40
0.9404296875
 40
0.94140625
 40
0.943359375
 40
0.9453125
 40
0.94921875
 40
0.953125
 40
0.95703125
 40
0.9609375
 40
0.96875
 40
0.9765625
 40
0.984375
 40
1.0
 40
1.0
 40
1.0
 40
1.0
 10
12.8178679562
 20
8.1830949044
 30
0.0
 10
12.8187074904
 20
8.1842130439
 30
0.0
 10
12.8199667916
 20
8.185890253
 30
0.0
 10
12.8216458599
 20
8.1881265319
 30
0.0
 10
12.8229051612
 20
8.1898037411
 30
0.0
 10
12.8239545789
 20
8.1912014153
 30
0.0
 10
12.824794113
 20
8.192319555
 30
0.0
 10
12.8254237637
 20
8.1931581587
 30
0.0
 10
12.8260534141
 20
8.1939967667
 30
0.0
 10
12.8265781236
 20
8.194695593
 30
0.0
 10
12.8269978894
 20
8.1952546849
 30
0.0
 10
12.827260247
 20
8.195604047
 30
0.0
 10
12.8274701241
 20
8.1958836977
 30
0.0
 10
12.8276275565
 20
8.196092995
 30
0.0
 10
12.8277586718
 20
8.1962688114
 30
0.0
 10
12.8278506064
 20
8.1963891316
 30
0.0
 10
12.8279029002
 20
8.1964621818
 30
0.0
 10
12.8279427973
 20
8.1965048681
 30
0.0
 10
12.8279801076
 20
8.1965938121
 30
0.0
 10
12.8280307569
 20
8.1966962689
 30
0.0
 10
12.8281189729
 20
8.196883086
 30
0.0
 10
12.8282452155
 20
8.1971460373
 30
0.0
 10
12.8283966126
 20
8.1974632611
 30
0.0
 10
12.8285985082
 20
8.1978856386
 30
0.0
 10
12.8288508665
 20
8.1984138116
 30
0.0
 10
12.829254646
 20
8.199258776
 30
0.0
 10
12.8297593683
 20
8.2003150201
 30
0.0
 10
12.8303650359
 20
8.2015824965
 30
0.0
 10
12.8309707033
 20
8.2028499773
 30
0.0
 10
12.8317782598
 20
8.2045399502
 30
0.0
 10
12.8327877055
 20
8.2066524169
 30
0.0
 10
12.8337971513
 20
8.2087648832
 30
0.0
 10
12.8346047078
 20
8.2104548566
 30
0.0
 10
12.8352103753
 20
8.2117223357
 30
0.0
 10
12.8358160424
 20
8.2129898187
 30
0.0
 10
12.8363207664
 20
8.2140460423
 30
0.0
 10
12.8367245423
 20
8.2148910486
 30
0.0
 10
12.8369769099
 20
8.2154191151
 30
0.0
 10
12.8371787863
 20
8.2158417112
 30
0.0
 10
12.837330242
 20
8.2161582671
 30
0.0
 10
12.8374563012
 20
8.2164233079
 30
0.0
 10
12.8375448446
 20
8.2166063949
 30
0.0
 10
12.8375949694
 20
8.2167148283
 30
0.0
 10
12.8376338908
 20
8.2167854141
 30
0.0
 10
12.8376677371
 20
8.2168970506
 30
0.0
 10
12.8377146357
 20
8.2170315803
 30
0.0
 10
12.8377958835
 20
8.2172736787
 30
0.0
 10
12.837912383
 20
8.2176160457
 30
0.0
 10
12.8380519978
 20
8.218028379
 30
0.0
 10
12.8382382153
 20
8.2185776354
 30
0.0
 10
12.8384709652
 20
8.2192643843
 30
0.0
 10
12.8388433773
 20
8.2203630828
 30
0.0
 10
12.8393088883
 20
8.2217364902
 30
0.0
 10
12.8398675032
 20
8.2233845644
 30
0.0
 10
12.8404261176
 20
8.2250326425
 30
0.0
 10
12.8411709371
 20
8.2272300786
 30
0.0
 10
12.8421019613
 20
8.2299768741
 30
0.0
 10
12.8430329855
 20
8.2327236699
 30
0.0
 10
12.843777805
 20
8.2349211055
 30
0.0
 10
12.8443364192
 20
8.236569185
 30
0.0
 10
12.8448950351
 20
8.2382172541
 30
0.0
 10
12.8453605429
 20
8.2395906772
 30
0.0
 10
12.8457329614
 20
8.2406893436
 30
0.0
 10
12.8459656951
 20
8.2413761744
 30
0.0
 10
12.8461519459
 20
8.2419252627
 30
0.0
 10
12.8462914591
 20
8.2423381093
 30
0.0
 10
12.8464082765
 20
8.2426788703
 30
0.0
 10
12.8465004826
 20
8.2429588307
 30
0.0
 10
12.8465730466
 20
8.2431487129
 30
0.0
 10
12.8466325969
 20
8.2434152719
 30
0.0
 10
12.8467165431
 20
8.2437438996
 30
0.0
 10
12.8468199162
 20
8.2441638738
 30
0.0
 10
12.8469446315
 20
8.2446639094
 30
0.0
 10
12.8471106854
 20
8.2453319974
 30
0.0
 10
12.8473183326
 20
8.246166637
 30
0.0
 10
12.8476505235
 20
8.2475023232
 30
0.0
 10
12.8480657774
 20
8.2491718408
 30
0.0
 10
12.8485640756
 20
8.2511753006
 30
0.0
 10
12.8490623755
 20
8.2531787501
 30
0.0
 10
12.8497267748
 20
8.2558500197
 30
0.0
 10
12.8505572745
 20
8.2591891046
 30
0.0
 10
12.851553872
 20
8.2631960114
 30
0.0
 10
12.8523843761
 20
8.2665350868
 30
0.0
 10
12.8530487656
 20
8.2692063773
 30
0.0
 10
12.8534640406
 20
8.2708758653
 30
0.0
 10
12.8537961881
 20
8.2722116126
 30
0.0
 10
12.8540454975
 20
8.2732129936
 30
0.0
 10
12.8542526229
 20
8.274048844
 30
0.0
 10
12.8543988517
 20
8.274631258
 30
0.0
 10
12.8544804734
 20
8.2749682526
 30
0.0
 10
12.8545471481
 20
8.2752092048
 30
0.0
 10
12.8545929577
 20
8.2754952389
 30
0.0
 10
12.8546613152
 20
8.2758608926
 30
0.0
 10
12.8547775498
 20
8.2765081133
 30
0.0
 10
12.8549453721
 20
8.2774288838
 30
0.0
 10
12.855146
 20
8.2785354479
 30
0.0
 10
12.8554137689
 20
8.2800102941
 30
0.0
 10
12.8557483893
 20
8.2818540479
 30
0.0
 10
12.8562838326
 20
8.2848039444
 30
0.0
 10
12.8569531197
 20
8.2884913522
 30
0.0
 10
12.8577562701
 20
8.2929162279
 30
0.0
 10
12.8585594244
 20
8.2973410988
 30
0.0
 10
12.8592287015
 20
8.3010285187
 30
0.0
 10
12.8597641648
 20
8.3039783909
 30
0.0
 10
12.8600987345
 20
8.3058222065
 30
0.0
 10
12.8603666075
 20
8.3072969259
 30
0.0
 10
12.8605669173
 20
8.3084038773
 30
0.0
 10
12.8607357349
 20
8.3093234361
 30
0.0
 10
12.8608665438
 20
8.3100655889
 30
0.0
 10
12.8609762504
 20
8.3106044268
 30
0.0
 10
12.8610416797
 20
8.3112111183
 30
0.0
 10
12.8611443854
 20
8.3119963382
 30
0.0
 10
12.8612674611
 20
8.3129859951
 30
0.0
 10
12.8614174232
 20
8.3141701027
 30
0.0
 10
12.8616165793
 20
8.3157501285
 30
0.0
 10
12.861865796
 20
8.3177247445
 30
0.0
 10
12.8622643913
 20
8.3208843626
 30
0.0
 10
12.8627626859
 20
8.3248338063
 30
0.0
 10
12.8633606239
 20
8.329573169
 30
0.0
 10
12.8639585432
 20
8.334312537
 30
0.0
 10
12.8644568846
 20
8.3382619675
 30
0.0
 10
12.8648553864
 20
8.3414216122
 30
0.0
 10
12.8651547313
 20
8.3437910704
 30
0.0
 10
12.8654026949
 20
8.3457664947
 30
0.0
 10
12.8655791946
 20
8.347147573
 30
0.0
 10
12.8656754842
 20
8.3479394443
 30
0.0
 10
12.8657605675
 20
8.3485257878
 30
0.0
 10
12.8657964701
 20
8.349141029
 30
0.0
 10
12.865861495
 20
8.3499512707
 30
0.0
 10
12.8659672958
 20
8.3513738901
 30
0.0
 10
12.8661226185
 20
8.3534037482
 30
0.0
 10
12.8663072171
 20
8.3558406288
 30
0.0
 10
12.8665539736
 20
8.3590894359
 30
0.0
 10
12.8668622032
 20
8.363150571
 30
0.0
 10
12.8672321779
 20
8.368023878
 30
0.0
 10
12.8676021017
 20
8.3728972031
 30
0.0
 10
12.8679104585
 20
8.3769582931
 30
0.0
 10
12.8681569607
 20
8.3802071904
 30
0.0
 10
12.8683423349
 20
8.3826437958
 30
0.0
 10
12.868495231
 20
8.384674515
 30
0.0
 10
12.8686053637
 20
8.3860955972
 30
0.0
 10
12.8686634479
 20
8.3869083019
 30
0.0
 10
12.8687206701
 20
8.3875159774
 30
0.0
 10
12.8687256804
 20
8.3881307364
 30
0.0
 10
12.8687505728
 20
8.3889479442
 30
0.0
 10
12.8687856492
 20
8.390379209
 30
0.0
 10
12.8688401947
 20
8.3924232713
 30
0.0
 10
12.8689037503
 20
8.3948764035
 30
0.0
 10
12.8689891545
 20
8.3981471566
 30
0.0
 10
12.869095682
 20
8.4022356287
 30
0.0
 10
12.8692236133
 20
8.4071417828
 30
0.0
 10
12.8693515158
 20
8.4120479371
 30
0.0
 10
12.8694581152
 20
8.4161364087
 30
0.0
 10
12.8695433755
 20
8.4194071627
 30
0.0
 10
12.8695967044
 20
8.4214514373
 30
0.0
 10
12.8696392732
 20
8.4230867347
 30
0.0
 10
12.8696714582
 20
8.4243135425
 30
0.0
 10
12.8696974572
 20
8.4253348177
 30
0.0
 10
12.8697172692
 20
8.4260517994
 30
0.0
 10
12.8697260723
 20
8.4264582415
 30
0.0
 10
12.8697397679
 20
8.4267722616
 30
0.0
 10
12.8697263494
 20
8.4270511582
 30
0.0
 10
12.8697179159
 20
8.4274352719
 30
0.0
 10
12.8696987506
 20
8.4281017627
 30
0.0
 10
12.8696736754
 20
8.4290568766
 30
0.0
 10
12.8696425991
 20
8.430201736
 30
0.0
 10
12.8696015085
 20
8.4317286613
 30
0.0
 10
12.8695500273
 20
8.4336371652
 30
0.0
 10
12.8694677232
 20
8.4366908568
 30
0.0
 10
12.8693648204
 20
8.4405079418
 30
0.0
 10
12.8692413475
 20
8.4450884575
 30
0.0
 10
12.8691178694
 20
8.4496689655
 30
0.0
 10
12.8690149793
 20
8.4534860696
 30
0.0
 10
12.8689326497
 20
8.456539723
 30
0.0
 10
12.8688812335
 20
8.458448324
 30
0.0
 10
12.8688400095
 20
8.4599750499
 30
0.0
 10
12.8688093405
 20
8.4611205187
 30
0.0
 10
12.8687829911
 20
8.4620737259
 30
0.0
 10
12.8687661005
 20
8.4627436204
 30
0.0
 10
12.8687540223
 20
8.4631222804
 30
0.0
 10
12.8687517991
 20
8.4634179291
 30
0.0
 10
12.8687234474
 20
8.4636690315
 30
0.0
 10
12.868694759
 20
8.464019373
 30
0.0
 10
12.868640308
 20
8.464625231
 30
0.0
 10
12.8685647409
 20
8.4654945274
 30
0.0
 10
12.8684731102
 20
8.466536063
 30
0.0
 10
12.8683512678
 20
8.467925343
 30
0.0
 10
12.8681988511
 20
8.4696617492
 30
0.0
 10
12.8679550479
 20
8.4724401075
 30
0.0
 10
12.867650272
 20
8.4759130179
 30
0.0
 10
12.8672845509
 20
8.4800805278
 30
0.0
 10
12.866918825
 20
8.4842480276
 30
0.0
 10
12.8666140613
 20
8.4877209635
 30
0.0
 10
12.8663702338
 20
8.4904992708
 30
0.0
 10
12.866217879
 20
8.4922358066
 30
0.0
 10
12.8660959095
 20
8.4936248206
 30
0.0
 10
12.866004667
 20
8.4946671687
 30
0.0
 10
12.8659278852
 20
8.4955339231
 30
0.0
 10
12.8658756026
 20
8.496144319
 30
0.0
 10
12.8658434399
 20
8.4964873897
 30
0.0
 10
12.8658257602
 20
8.4967608255
 30
0.0
 10
12.8657834546
 20
8.4969725937
 30
0.0
 10
12.8657356369
 20
8.4972764618
 30
0.0
 10
12.8656479538
 20
8.4977982087
 30
0.0
 10
12.8655247846
 20
8.4985488012
 30
0.0
 10
12.8653760859
 20
8.4994472693
 30
0.0
 10
12.8651781338
 20
8.5006460103
 30
0.0
 10
12.8649305866
 20
8.5021441682
 30
0.0
 10
12.8645345709
 20
8.5045413708
 30
0.0
 10
12.8640395307
 20
8.5075378228
 30
0.0
 10
12.8634454912
 20
8.5111335867
 30
0.0
 10
12.8629504568
 20
8.5141300531
 30
0.0
 10
12.8625544286
 20
8.5165272238
 30
0.0
 10
12.8622574104
 20
8.5183251111
 30
0.0
 10
12.8619603804
 20
8.5201229626
 30
0.0
 10
12.8617128926
 20
8.5216212838
 30
0.0
 10
12.8615148189
 20
8.5228196909
 30
0.0
 10
12.8613664915
 20
8.5237191788
 30
0.0
 10
12.8612421607
 20
8.5244665806
 30
0.0
 10
12.8611565512
 20
8.5249940234
 30
0.0
 10
12.8611054111
 20
8.5252887653
 30
0.0
 10
12.8610733107
 20
8.5255285662
 30
0.0
 10
12.8610173018
 20
8.5256967158
 30
0.0
 10
12.8609509629
 20
8.5259459081
 30
0.0
 10
12.8608309842
 20
8.5263703499
 30
0.0
 10
12.8606616174
 20
8.5269827833
 30
0.0
 10
12.8604575078
 20
8.5277150976
 30
0.0
 10
12.8601856654
 20
8.5286924269
 30
0.0
 10
12.8598457581
 20
8.5299137761
 30
0.0
 10
12.8594379141
 20
8.5313795291
 30
0.0
 10
12.8590300581
 20
8.5328452463
 30
0.0
 10
12.8584862543
 20
8.5347995483
 30
0.0
 10
12.8578064982
 20
8.5372424216
 30
0.0
 10
12.8571267425
 20
8.5396852966
 30
0.0
 10
12.8565829378
 20
8.5416395958
 30
0.0
 10
12.8561750846
 20
8.5431053214
 30
0.0
 10
12.8557672304
 20
8.5445710426
 30
0.0
 10
12.8554273546
 20
8.5457924909
 30
0.0
 10
12.8551554481
 20
8.546769618
 30
0.0
 10
12.8549855198
 20
8.5473803944
 30
0.0
 10
12.8548495468
 20
8.5478688507
 30
0.0
 10
12.8547476503
 20
8.5482356443
 30
0.0
 10
12.8546624716
 20
8.5485398698
 30
0.0
 10
12.8546033664
 20
8.5487556454
 30
0.0
 10
12.8545687803
 20
8.548874546
 30
0.0
 10
12.8545451272
 20
8.5489761156
 30
0.0
 10
12.8545127342
 20
8.5490303083
 30
0.0
 10
12.854472592
 20
8.5491190908
 30
0.0
 10
12.8544009228
 20
8.5492667606
 30
0.0
 10
12.8542992808
 20
8.5494817429
 30
0.0
 10
12.8541769926
 20
8.5497379987
 30
0.0
 10
12.8540140527
 20
8.5500802749
 30
0.0
 10
12.8538103398
 20
8.550507914
 30
0.0
 10
12.8534844203
 20
8.5511922518
 30
0.0
 10
12.8530770138
 20
8.5520476345
 30
0.0
 10
12.852588129
 20
8.5530741107
 30
0.0
 10
12.8520992434
 20
8.5541005823
 30
0.0
 10
12.8514473962
 20
8.5554692128
 30
0.0
 10
12.8506325871
 20
8.5571800003
 30
0.0
 10
12.8498177781
 20
8.5588907882
 30
0.0
 10
12.8491659308
 20
8.560259418
 30
0.0
 10
12.8486770455
 20
8.5612858916
 30
0.0
 10
12.8481881595
 20
8.5623123605
 30
0.0
 10
12.8477807568
 20
8.5631677657
 30
0.0
 10
12.8474548296
 20
8.5638520576
 30
0.0
 10
12.8472511364
 20
8.5642798136
 30
0.0
 10
12.847088156
 20
8.5646218498
 30
0.0
 10
12.8469659913
 20
8.5648788386
 30
0.0
 10
12.8468639629
 20
8.5650915274
 30
0.0
 10
12.8467929836
 20
8.5652432916
 30
0.0
 10
12.846751736
 20
8.5653255138
 30
0.0
 10
12.8467227385
 20
8.5653998577
 30
0.0
 10
12.8466863323
 20
8.5654257429
 30
0.0
 10
12.8466403749
 20
8.5654771594
 30
0.0
 10
12.8465587454
 20
8.5655592629
 30
0.0
 10
12.8464427614
 20
8.565680671
 30
0.0
 10
12.8463033112
 20
8.5658245983
 30
0.0
 10
12.8461174716
 20
8.566017117
 30
0.0
 10
12.8458851399
 20
8.5662575545
 30
0.0
 10
12.8455134273
 20
8.5666423724
 30
0.0
 10
12.8450487802
 20
8.5671233544
 30
0.0
 10
12.8444912064
 20
8.5677005501
 30
0.0
 10
12.8439336319
 20
8.5682777411
 30
0.0
 10
12.8431901995
 20
8.5690473308
 30
0.0
 10
12.8422609089
 20
8.5700093173
 30
0.0
 10
12.8413316184
 20
8.5709713043
 30
0.0
 10
12.8405881859
 20
8.5717408933
 30
0.0
 10
12.8400306116
 20
8.5723180863
 30
0.0
 10
12.8394730369
 20
8.5728952745
 30
0.0
 10
12.8390083928
 20
8.5733762798
 30
0.0
 10
12.8386366741
 20
8.5737610502
 30
0.0
 10
12.8384043577
 20
8.5740016088
 30
0.0
 10
12.8382184868
 20
8.5741938789
 30
0.0
 10
12.8380791324
 20
8.5743385657
 30
0.0
 10
12.8379628486
 20
8.5744575976
 30
0.0
 10
12.8378817543
 20
8.574543943
 30
0.0
 10
12.8378349394
 20
8.5745885629
 30
0.0
 10
12.8378011672
 20
8.5746353253
 30
0.0
 10
12.8377622769
 20
8.5746312578
 30
0.0
 10
12.8377122085
 20
8.5746435645
 30
0.0
 10
12.837623757
 20
8.5746568404
 30
0.0
 10
12.8374978325
 20
8.5746801249
 30
0.0
 10
12.837346537
 20
8.5747062177
 30
0.0
 10
12.8371448746
 20
8.5747416538
 30
0.0
 10
12.8368927745
 20
8.5747857278
 30
0.0
 10
12.8364894266
 20
8.5748563697
 30
0.0
 10
12.8359852376
 20
8.5749446297
 30
0.0
 10
12.8353802125
 20
8.57505056
 30
0.0
 10
12.834775187
 20
8.5751564853
 30
0.0
 10
12.8339684865
 20
8.5752977208
 30
0.0
 10
12.8329601107
 20
8.5754742646
 30
0.0
 10
12.831951735
 20
8.5756508087
 30
0.0
 10
12.8311450344
 20
8.5757920436
 30
0.0
 10
12.8305400091
 20
8.575897971
 30
0.0
 10
12.8299349834
 20
8.5760038934
 30
0.0
 10
12.8294307964
 20
8.5760921777
 30
0.0
 10
12.8290274443
 20
8.5761627702
 30
0.0
 10
12.8287753551
 20
8.5762069701
 30
0.0
 10
12.8285736703
 20
8.5762421476
 30
0.0
 10
12.8284224434
 20
8.5762690303
 30
0.0
 10
12.8282963042
 20
8.5762898434
 30
0.0
 10
12.8282082359
 20
8.5763075312
 30
0.0
 10
12.8281575534
 20
8.576312769
 30
0.0
 10
12.8281205495
 20
8.576330415
 30
0.0
 10
12.8280796926
 20
8.576295625
 30
0.0
 10
12.8280265608
 20
8.5762675285
 30
0.0
 10
12.8279329539
 20
8.576209838
 30
0.0
 10
12.8277995571
 20
8.5761318782
 30
0.0
 10
12.8276393408
 20
8.5760364194
 30
0.0
 10
12.827425768
 20
8.5759098072
 30
0.0
 10
12.8271587853
 20
8.5757513138
 30
0.0
 10
12.8267316223
 20
8.5754978518
 30
0.0
 10
12.8261976654
 20
8.5751809806
 30
0.0
 10
12.8255569185
 20
8.574800754
 30
0.0
 10
12.8249161712
 20
8.5744205223
 30
0.0
 10
12.8240618415
 20
8.5739135484
 30
0.0
 10
12.8229939295
 20
8.5732798305
 30
0.0
 10
12.821712435
 20
8.5725193693
 30
0.0
 10
12.8200037758
 20
8.571505421
 30
0.0
 10
12.8187222813
 20
8.5707449597
 30
0.0
 10
12.8178679517
 20
8.5702379855
 30
0.0
  0
ENDSEC
  0
SECTION
  2
OBJECTS
  0
DICTIONARY
  5
C
100
AcDbDictionary
280
0
281
1
  3
ACAD_GROUP
350
D
  3
ACAD_MLINESTYLE
350
17
  3
ACAD_LAYOUT
350
1A
  3
ACAD_PLOTSETTINGS
350
19
  3
ACAD_PLOTSTYLENAME
350
E
  3
ACAD_IMAGE_DICT
350
       41A
  3
ACAD_IMAGE_VARS
350
       41B
  3
ACAD_TABLESTYLE
350
       41C
  0
IMAGEDEF_REACTOR
  5
419
100
AcDbRasterImageDefReactor
 90
2
330
28F
  0
DICTIONARY
  5
D
102
{ACAD_REACTORS
330
C
102
}
100
AcDbDictionary
280
0
281
1
  0
ACDBDICTIONARYWDFLT
  5
E
102
{ACAD_REACTORS
330
C
102
}
100
AcDbDictionary
281
1
  3
Normal
350
F
100
AcDbDictionaryWithDefault
340
F
  0
DICTIONARY
  5
41A
330
C
100
AcDbDictionary
281
1
  3
5BD_assy_2_img_1
350
       41F
  0
RASTERVARIABLES
  5
41B
330
C
100
AcDbRasterVariables
 90
0
 70
0
 71
1
 72
5
  0
DICTIONARY
  5
17
102
{ACAD_REACTORS
330
C
102
}
100
AcDbDictionary
280
0
281
1
  3
Standard
350
18
  0
DICTIONARY
  5
41C
330
C
100
AcDbDictionary
281
1
  3
Standard
350
       420
  3
Standard1
350
       421
  0
DICTIONARY
  5
19
102
{ACAD_REACTORS
330
C
102
}
100
AcDbDictionary
281
1
  0
DICTIONARY
  5
1A
102
{ACAD_REACTORS
330
C
102
}
100
AcDbDictionary
281
1
  3
Model
350
41D
  3
Layout1
350
41E
  0
ACDBPLACEHOLDER
  5
F
102
{ACAD_REACTORS
330
E
102
}
  0
MLINESTYLE
  5
18
102
{ACAD_REACTORS
330
17
102
}
100
AcDbMlineStyle
  2
STANDARD
 70
0
  3

 62
256
 51
90.0
 52
90.0
 71
2
 49
0.5
 62
256
  6
BYLAYER
 49
-0.5
 62
256
  6
BYLAYER
  0
LAYOUT
  5
41D
102
{ACAD_REACTORS
330
1A
102
}
100
AcDbPlotSettings
  1

  2
none_device
  4
ANSI_C_(22.00_x_17.00_Inches)
  6

 40
0.0
 41
0.0
 42
0.0
 43
0.0
 44
558.8
 45
431.8
 46
0.0
 47
0.0
 48
0.0
 49
0.0
140
0.0
141
0.0
142
1.0
143
1.0
 70
1024
 72
0
 73
0
 74
0
  7

 75
0
147
1.0
148
0.0
149
0.0
100
AcDbLayout
  1
Model
 70
0
 71
0
 10
0.0
 20
0.0
 11
22.0
 21
17.0
 12
0.0
 22
0.0
 32
0.0
 14
0.0
 24
0.0
 34
0.0
 15
0.0
 25
0.0
 35
0.0
146
0.0
 13
0.0
 23
0.0
 33
0.0
 16
1.0
 26
0.0
 36
0.0
 17
0.0
 27
1.0
 37
0.0
 76
0
330
20C
345
0
346
0
  0
LAYOUT
  5
41E
102
{ACAD_REACTORS
330
1A
102
}
100
AcDbPlotSettings
  1

  2
none_device
  4
ANSI_C_(22.00_x_17.00_Inches)
  6

 40
0.0
 41
0.0
 42
0.0
 43
0.0
 44
558.8
 45
431.8
 46
0.0
 47
0.0
 48
0.0
 49
0.0
140
0.0
141
0.0
142
1.0
143
1.0
 70
0
 72
0
 73
0
 74
0
  7

 75
0
147
1.0
148
0.0
149
0.0
100
AcDbLayout
  1
Layout1
 70
0
 71
1
 10
0.0
 20
0.0
 11
22.0
 21
17.0
 12
0.0
 22
0.0
 32
0.0
 14
0.0
 24
0.0
 34
0.0
 15
0.0
 25
0.0
 35
0.0
146
0.0
 13
0.0
 23
0.0
 33
0.0
 16
1.0
 26
0.0
 36
0.0
 17
0.0
 27
1.0
 37
0.0
 76
0
330
20D
345
0
346
0
  0
IMAGEDEF
  5
41F
102
{ACAD_REACTORS
330
41A
330
419
102
}
100
AcDbRasterImageDef
 90
0
  1
5BD_assy_2_img_1.png
 10
369.0
 20
92.0
 11
0.0066666667
 21
0.0066666667
280
1
281
0
  0
TABLESTYLE
  5
420
102
{ACAD_REACTORS
330
41C
330
292
330
293
102
}
330
41C
100
AcDbTableStyle
  3
Standard
 70
0
 71
0
 40
0.06
 41
0.06
280
1
281
1
  7
Standard
140
0.18
170
1
 62
0
 63
7
283
0
  7
Standard
140
0.18
170
1
 62
0
 63
7
283
0
  7
Standard
140
0.18
170
1
 62
0
 63
7
283
0
  0
TABLESTYLE
  5
421
102
{ACAD_REACTORS
330
41C
330
291
102
}
330
41C
100
AcDbTableStyle
  3
Standard1
 70
1
 71
0
 40
0.06
 41
0.06
280
1
281
1
  7
Standard
140
0.18
170
1
 62
0
 63
7
283
0
  7
Standard
140
0.18
170
1
 62
0
 63
7
283
0
  7
Standard
140
0.18
170
1
 62
0
 63
7
283
0
  0
ENDSEC
  0
EOF
