999
DXF file: 4BC_assy_2.dxf
999
Pro/ENGINEER 2014200 by Parametric Technology Corporation
  0
SECTION
  2
HEADER
  9
$ACADVER
  1
AC1021
  9
$DWGCODEPAGE
  3
ANSI_1252
  9
$EXTMAX
 10
22.0
 20
17.0
 30
0.0
  9
$EXTMIN
 10
0.0
 20
0.0
 30
0.0
  9
$LIMMIN
 10
0.0
 20
0.0
  9
$LIMMAX
 10
22.0
 20
17.0
  9
$VIEWCTR
 10
11.0
 20
8.5
  9
$VIEWSIZE
 40
17.0
  9
$CLAYER
  8
0
  9
$LTSCALE
 40
1.21
  9
$CELTYPE
  6
BYLAYER
  9
$DIMSCALE
 40
1.0
  9
$DIMASZ
 40
0.1875
  9
$DIMEXO
 40
0.0625
  9
$DIMDLI
 40
0.836
  9
$DIMEXE
 40
0.125
  9
$DIMCEN
 40
0.198
  9
$DIMLFAC
 40
1.0
  9
$DIMBLK
  1
_FILLED
  9
$DIMTXT
 40
0.1
  9
$DIMTOL
 70
0
  9
$DIMLIM
 70
0
  9
$DIMTFAC
 40
1.0
  9
$DIMGAP
 40
0.09
  9
$DIMDSEP
 70
46
  9
$AUNITS
 70
0
  9
$PDMODE
 70
3
  9
$PDSIZE
 40
0.3125
  9
$HANDSEED
  5
412
  9
$TILEMODE
 70
1
  9
$MEASUREMENT
 70
0
  9
$INSUNITS
 70
1
  0
ENDSEC
  0
SECTION
  2
CLASSES
  0
CLASS
  1
ACDBDICTIONARYWDFLT
  2
AcDbDictionaryWithDefault
  3
AutoCAD 2000
 90
0
 91
1
280
0
281
0
  0
CLASS
  1
ACDBPLACEHOLDER
  2
AcDbPlaceHolder
  3
AutoCAD 2000
 90
0
 91
1
280
0
281
0
  0
CLASS
  1
LAYOUT
  2
AcDbLayout
  3
AutoCAD 2000
 90
0
 91
0
280
0
281
0
  0
CLASS
  1
RASTERVARIABLES
  2
AcDbRasterVariables
  3
ISM
 90
0
 91
1
280
0
281
0
  0
CLASS
  1
IMAGEDEF
  2
AcDbRasterImageDef
  3
ISM
 90
0
 91
1
280
0
281
0
  0
CLASS
  1
IMAGEDEF_REACTOR
  2
AcDbRasterImageDefReactor
  3
ISM
 90
0
 91
1
280
0
281
0
  0
CLASS
  1
IMAGE
  2
AcDbRasterImage
  3
ISM
 90
127
 91
1
280
0
281
1
  0
CLASS
  1
TABLESTYLE
  2
AcDbTableStyle
  3
ObjectDBX Classes
 90
2047
 91
1
280
0
281
0
  0
CLASS
  1
ACAD_TABLE
  2
AcDbTable
  3
ObjectDBX Classes
 90
1025
 91
3
280
0
281
1
  0
ENDSEC
  0
SECTION
  2
TABLES
  0
TABLE
  2
VPORT
  5
8
100
AcDbSymbolTable
 70
2
  0
VPORT
  5
1F4
100
AcDbSymbolTableRecord
100
AcDbViewportTableRecord
  2
*ACTIVE
 70
0
 10
0.0
 20
0.0
 11
1.0
 21
1.0
 12
11.0
 22
8.5
 13
0.0
 23
0.0
 14
1.0
 24
1.0
 15
0.0
 25
0.0
 16
0.0
 26
0.0
 36
1.0
 17
0.0
 27
0.0
 37
0.0
 40
17.0
 41
1.2941176471
 42
50.0
 43
0.0
 44
0.0
 50
0.0
 51
0.0
 71
0
 72
100
 73
1
 74
1
 75
0
 76
0
 77
0
 78
0
  0
ENDTAB
  0
TABLE
  2
LTYPE
  5
5
100
AcDbSymbolTable
 70
6
  0
LTYPE
  5
14
100
AcDbSymbolTableRecord
100
AcDbLinetypeTableRecord
  2
BYBLOCK
 70
0
  3

 72
65
 73
0
 40
0.0
  0
LTYPE
  5
15
100
AcDbSymbolTableRecord
100
AcDbLinetypeTableRecord
  2
BYLAYER
 70
0
  3

 72
65
 73
0
 40
0.0
  0
LTYPE
  5
16
100
AcDbSymbolTableRecord
100
AcDbLinetypeTableRecord
  2
CONTINUOUS
 70
64
  3
Solid line
 72
65
 73
0
 40
0.0
  0
LTYPE
  5
1F5
100
AcDbSymbolTableRecord
100
AcDbLinetypeTableRecord
  2
CENTER
 70
64
  3
____ _ ____ _ ____ _ ____ _ ____ _ ____ _ ____
 72
65
 73
4
 40
0.6
 49
0.375
 74
0
 49
-0.075
 74
0
 49
0.075
 74
0
 49
-0.075
 74
0
  0
LTYPE
  5
1F6
100
AcDbSymbolTableRecord
100
AcDbLinetypeTableRecord
  2
HIDDEN
 70
64
  3
- - - - - - - - - - - - - - - - - - - -
 72
65
 73
2
 40
0.2
 49
0.1
 74
0
 49
-0.1
 74
0
  0
LTYPE
  5
1F7
100
AcDbSymbolTableRecord
100
AcDbLinetypeTableRecord
  2
PHANTOM
 70
64
  3
_____ _ _ _____ _ _ _____ _ _ _____
 72
65
 73
6
 40
0.8
 49
0.45
 74
0
 49
-0.05
 74
0
 49
0.1
 74
0
 49
-0.05
 74
0
 49
0.1
 74
0
 49
-0.05
 74
0
  0
LTYPE
  5
1F8
100
AcDbSymbolTableRecord
100
AcDbLinetypeTableRecord
  2
DOT
 70
64
  3
. . . . . . . . . . . . . . . . . . . .
 72
65
 73
2
 40
0.2
 49
0.1
 74
0
 49
-0.1
 74
0
  0
LTYPE
  5
1F9
100
AcDbSymbolTableRecord
100
AcDbLinetypeTableRecord
  2
DASHED
 70
64
  3
- - - - - - - - - - - - - - - - - - - -
 72
65
 73
2
 40
0.2
 49
0.1
 74
0
 49
-0.1
 74
0
  0
ENDTAB
  0
TABLE
  2
LAYER
  5
2
100
AcDbSymbolTable
 70
36
  0
LAYER
  5
10
100
AcDbSymbolTableRecord
100
AcDbLayerTableRecord
  2
0
 70
0
 62
7
  6
CONTINUOUS
370
-3
390
F
  0
LAYER
  5
1FA
100
AcDbSymbolTableRecord
100
AcDbLayerTableRecord
  2
DEFAULT_1
 70
0
 62
7
  6
CENTER
370
-3
390
F
  0
LAYER
  5
1FB
100
AcDbSymbolTableRecord
100
AcDbLayerTableRecord
  2
DEFAULT_2
 70
0
 62
8
  6
HIDDEN
370
-3
390
F
  0
LAYER
  5
1FC
100
AcDbSymbolTableRecord
100
AcDbLayerTableRecord
  2
DEFAULT_3
 70
0
 62
7
  6
PHANTOM
370
-3
390
F
  0
LAYER
  5
1FD
100
AcDbSymbolTableRecord
100
AcDbLayerTableRecord
  2
01___PRT_ALL_DTM_PLN
 70
0
 62
7
  6
CONTINUOUS
370
-3
390
F
  0
LAYER
  5
1FE
100
AcDbSymbolTableRecord
100
AcDbLayerTableRecord
  2
01___PRT_DEF_DTM_PLN
 70
0
 62
7
  6
CONTINUOUS
370
-3
390
F
  0
LAYER
  5
1FF
100
AcDbSymbolTableRecord
100
AcDbLayerTableRecord
  2
02___PRT_ALL_AXES
 70
0
 62
7
  6
CONTINUOUS
370
-3
390
F
  0
LAYER
  5
200
100
AcDbSymbolTableRecord
100
AcDbLayerTableRecord
  2
03___PRT_ALL_CURVES
 70
0
 62
7
  6
CONTINUOUS
370
-3
390
F
  0
LAYER
  5
201
100
AcDbSymbolTableRecord
100
AcDbLayerTableRecord
  2
04___PRT_ALL_DTM_PNT
 70
0
 62
7
  6
CONTINUOUS
370
-3
390
F
  0
LAYER
  5
202
100
AcDbSymbolTableRecord
100
AcDbLayerTableRecord
  2
05___PRT_ALL_DTM_CSYS
 70
0
 62
7
  6
CONTINUOUS
370
-3
390
F
  0
LAYER
  5
203
100
AcDbSymbolTableRecord
100
AcDbLayerTableRecord
  2
05___PRT_DEF_DTM_CSYS
 70
0
 62
7
  6
CONTINUOUS
370
-3
390
F
  0
LAYER
  5
204
100
AcDbSymbolTableRecord
100
AcDbLayerTableRecord
  2
06___PRT_ALL_SURFS
 70
0
 62
7
  6
CONTINUOUS
370
-3
390
F
  0
LAYER
  5
205
100
AcDbSymbolTableRecord
100
AcDbLayerTableRecord
  2
DATUM_PLANES
 70
0
 62
7
  6
CONTINUOUS
370
-3
390
F
  0
LAYER
  5
206
100
AcDbSymbolTableRecord
100
AcDbLayerTableRecord
  2
PORT_AREAS
 70
0
 62
7
  6
CONTINUOUS
370
-3
390
F
  0
LAYER
  5
207
100
AcDbSymbolTableRecord
100
AcDbLayerTableRecord
  2
SUNNBOMCOSMETIC
 70
0
 62
7
  6
CONTINUOUS
370
-3
390
F
  0
LAYER
  5
208
100
AcDbSymbolTableRecord
100
AcDbLayerTableRecord
  2
SUNNBOMSTAMPING
 70
0
 62
7
  6
CONTINUOUS
370
-3
390
F
  0
LAYER
  5
209
100
AcDbSymbolTableRecord
100
AcDbLayerTableRecord
  2
THREADS
 70
0
 62
7
  6
CONTINUOUS
370
-3
390
F
  0
ENDTAB
  0
TABLE
  2
STYLE
  5
3
100
AcDbSymbolTable
 70
1
  0
STYLE
  5
11
100
AcDbSymbolTableRecord
100
AcDbTextStyleTableRecord
  2
STANDARD
 70
0
 40
0.0
 41
0.8
 50
0.0
 71
0
 42
0.2
  3
txt
  4

  0
STYLE
  5
20A
100
AcDbSymbolTableRecord
100
AcDbTextStyleTableRecord
  2
TEXTSTYLE_1
 70
0
 40
0.0
 41
0.8
 50
0.0
 71
0
 42
0.2
  3
gdt
  4

  0
ENDTAB
  0
TABLE
  2
VIEW
  5
6
100
AcDbSymbolTable
 70
0
  0
ENDTAB
  0
TABLE
  2
UCS
  5
7
100
AcDbSymbolTable
 70
0
  0
ENDTAB
  0
TABLE
  2
APPID
  5
9
100
AcDbSymbolTable
 70
1
  0
APPID
  5
20B
100
AcDbSymbolTableRecord
100
AcDbRegAppTableRecord
  2
ACAD
 70
0
  0
ENDTAB
  0
TABLE
  2
BLOCK_RECORD
  5
1
100
AcDbSymbolTable
 70
0
  0
BLOCK_RECORD
  5
20C
100
AcDbSymbolTableRecord
100
AcDbBlockTableRecord
  2
*Model_Space
  0
BLOCK_RECORD
  5
20D
100
AcDbSymbolTableRecord
100
AcDbBlockTableRecord
  2
*Paper_Space
  0
BLOCK_RECORD
  5
20E
100
AcDbSymbolTableRecord
100
AcDbBlockTableRecord
  2
SUN_FIRST_THIRD_ANGLE_BL0
  0
BLOCK_RECORD
  5
20F
100
AcDbSymbolTableRecord
100
AcDbBlockTableRecord
  2
*T1
  0
BLOCK_RECORD
  5
210
100
AcDbSymbolTableRecord
100
AcDbBlockTableRecord
  2
*T2
  0
BLOCK_RECORD
  5
211
100
AcDbSymbolTableRecord
100
AcDbBlockTableRecord
  2
*T3
  0
ENDTAB
  0
TABLE
  2
DIMSTYLE
  5
A
100
AcDbSymbolTable
 70
1
100
AcDbDimStyleTable
 71
0
  0
DIMSTYLE
105
212
100
AcDbSymbolTableRecord
100
AcDbDimStyleTableRecord
  2
STANDARD
 70
0
  3

  4

 40
1.0
 41
0.1875
 42
0.0625
 43
0.38
 44
0.125
 45
0.0
 46
0.0
 47
0.001
 48
0.001
140
0.1
141
0.09
142
0.0
143
25.4
144
1.0
145
0.0
146
1.0
147
0.09
 71
0.0
 72
0.0
 73
1
 74
1
 75
0
 76
0
 77
0
 78
4
170
0
171
2
172
0
173
0
174
0
175
0
176
0
177
0
178
0
270
2
271
3
272
3
273
2
274
2
275
0
280
0
281
0
282
0
283
1
284
4
285
0
286
0
287
3
288
0
340
11
278
46
  0
ENDTAB
  0
ENDSEC
  0
SECTION
  2
BLOCKS
  0
BLOCK
  5
20
100
AcDbEntity
  8
0
100
AcDbBlockBegin
  2
*Model_Space
 70
0
 10
0.0
 20
0.0
 30
0.0
  3
*Model_Space
  1

  0
ENDBLK
  5
21
100
AcDbEntity
  8
0
100
AcDbBlockEnd
  0
BLOCK
  5
1C
100
AcDbEntity
  8
0
100
AcDbBlockBegin
  2
*Paper_Space
 70
0
 10
0.0
 20
0.0
 30
0.0
  3
*Paper_Space
  1

  0
ENDBLK
  5
1D
100
AcDbEntity
  8
0
100
AcDbBlockEnd
  0
BLOCK
  5
213
100
AcDbEntity
  8
0
100
AcDbBlockBegin
 62
2
  6
CONTINUOUS
  2
SUN_FIRST_THIRD_ANGLE_BL0
 70
64
 10
20.4816717061
 20
1.2289683772
  3
SUN_FIRST_THIRD_ANGLE_BL0
  1

  0
TEXT
  5
214
100
AcDbEntity
  8
0
100
AcDbText
 62
2
  6
CONTINUOUS
 10
19.4750896608
 20
1.4136269581
  7
STANDARD
 40
0.08
  1
FIRST ANGLE
 41
0.8
 72
0
100
AcDbText
  0
TEXT
  5
215
100
AcDbEntity
  8
0
100
AcDbText
 62
2
  6
CONTINUOUS
 10
20.7842537513
 20
1.4047600029
  7
STANDARD
 40
0.08
  1
THIRD ANGLE
 41
0.8
 72
0
100
AcDbText
  0
LINE
  5
216
100
AcDbEntity
  8
0
100
AcDbLine
 62
7
  6
CONTINUOUS
 10
19.4767170086
 20
1.1727031207
 11
19.6334271527
 21
1.1717972817
  0
LINE
  5
217
100
AcDbEntity
  8
0
100
AcDbLine
 62
7
  6
CONTINUOUS
 10
19.6596964832
 20
1.1717972817
 11
19.6950230232
 21
1.171593082
  0
LINE
  5
218
100
AcDbEntity
  8
0
100
AcDbLine
 62
7
  6
CONTINUOUS
 10
19.7194818561
 20
1.1708914427
 11
19.8852396156
 21
1.1699333054
  0
LINE
  5
219
100
AcDbEntity
  8
0
100
AcDbLine
 62
7
  6
CONTINUOUS
 10
19.4758111696
 20
1.2723454088
 11
19.88525039
 21
1.3511534004
  0
LINE
  5
21A
100
AcDbEntity
  8
0
100
AcDbLine
 62
7
  6
CONTINUOUS
 10
19.88525039
 20
1.3511534004
 11
19.8831348489
 21
0.9851647912
  0
LINE
  5
21B
100
AcDbEntity
  8
0
100
AcDbLine
 62
7
  6
CONTINUOUS
 10
19.8831348489
 20
0.9851647912
 11
19.4767170086
 21
1.0658141206
  0
LINE
  5
21C
100
AcDbEntity
  8
0
100
AcDbLine
 62
7
  6
CONTINUOUS
 10
19.4767170086
 20
1.0658141206
 11
19.4779056764
 21
1.2714536432
  0
CIRCLE
  5
21D
100
AcDbEntity
  8
0
100
AcDbCircle
 62
7
  6
CONTINUOUS
 10
20.2068232291
 20
1.1717972817
 40
0.175742101
  0
CIRCLE
  5
21E
100
AcDbEntity
  8
0
100
AcDbCircle
 62
7
  6
CONTINUOUS
 10
20.2068232291
 20
1.1717972817
 40
0.1005522074
  0
LINE
  5
21F
100
AcDbEntity
  8
0
100
AcDbLine
 62
7
  6
CONTINUOUS
 10
20.2077290681
 20
1.3756110529
 11
20.2071171714
 21
1.2379342989
  0
LINE
  5
220
100
AcDbEntity
  8
0
100
AcDbLine
 62
7
  6
CONTINUOUS
 10
20.2077290681
 20
1.2016899681
 11
20.2074674401
 21
1.1428236749
  0
LINE
  5
221
100
AcDbEntity
  8
0
100
AcDbLine
 62
7
  6
CONTINUOUS
 10
20.208634907
 20
1.101141841
 11
20.2080230104
 21
0.963465087
  0
LINE
  5
222
100
AcDbEntity
  8
0
100
AcDbLine
 62
7
  6
CONTINUOUS
 10
20.0066328138
 20
1.1745147986
 11
20.1443095678
 21
1.1739029019
  0
LINE
  5
223
100
AcDbEntity
  8
0
100
AcDbLine
 62
7
  6
CONTINUOUS
 10
20.1832714155
 20
1.1727031207
 11
20.238153505
 21
1.172335442
  0
LINE
  5
224
100
AcDbEntity
  8
0
100
AcDbLine
 62
7
  6
CONTINUOUS
 10
20.2756669918
 20
1.1717972817
 11
20.407916871
 21
1.1712095044
  0
CIRCLE
  5
225
100
AcDbEntity
  8
0
100
AcDbCircle
 62
7
  6
CONTINUOUS
 10
20.7509457401
 20
1.1693297793
 40
0.1722024983
  0
CIRCLE
  5
226
100
AcDbEntity
  8
0
100
AcDbCircle
 62
7
  6
CONTINUOUS
 10
20.7509457401
 20
1.1693297793
 40
0.0985164967
  0
LINE
  5
227
100
AcDbEntity
  8
0
100
AcDbLine
 62
7
  6
CONTINUOUS
 10
20.7169767782
 20
1.170462078
 11
20.7825395137
 21
1.1682766535
  0
LINE
  5
228
100
AcDbEntity
  8
0
100
AcDbLine
 62
7
  6
CONTINUOUS
 10
20.8177513651
 20
1.1693297793
 11
20.947965719
 21
1.1693297793
  0
LINE
  5
229
100
AcDbEntity
  8
0
100
AcDbLine
 62
7
  6
CONTINUOUS
 10
20.6875370113
 20
1.170462078
 11
20.5573226574
 21
1.170462078
  0
LINE
  5
22A
100
AcDbEntity
  8
0
100
AcDbLine
 62
7
  6
CONTINUOUS
 10
20.7486811426
 20
1.1987695462
 11
20.7486811426
 21
1.1432869085
  0
LINE
  5
22B
100
AcDbEntity
  8
0
100
AcDbLine
 62
7
  6
CONTINUOUS
 10
20.7498134414
 20
1.1059210505
 11
20.7498134414
 21
0.9757066966
  0
LINE
  5
22C
100
AcDbEntity
  8
0
100
AcDbLine
 62
7
  6
CONTINUOUS
 10
20.7486811426
 20
1.2338708068
 11
20.7486811426
 21
1.3640851607
  0
LINE
  5
22D
100
AcDbEntity
  8
0
100
AcDbLine
 62
7
  6
CONTINUOUS
 10
21.0702539817
 20
1.2701043662
 11
21.4790138229
 21
1.3448360823
  0
LINE
  5
22E
100
AcDbEntity
  8
0
100
AcDbLine
 62
7
  6
CONTINUOUS
 10
21.4790138229
 20
1.3448360823
 11
21.4790138229
 21
0.9779712941
  0
LINE
  5
22F
100
AcDbEntity
  8
0
100
AcDbLine
 62
7
  6
CONTINUOUS
 10
21.4790138229
 20
0.9779712941
 11
21.069121683
 21
1.0617614
  0
LINE
  5
230
100
AcDbEntity
  8
0
100
AcDbLine
 62
7
  6
CONTINUOUS
 10
21.0702539817
 20
1.2701043662
 11
21.069121683
 21
1.0617614
  0
LINE
  5
231
100
AcDbEntity
  8
0
100
AcDbLine
 62
7
  6
CONTINUOUS
 10
21.4790138229
 20
1.1693297793
 11
21.3159628059
 21
1.1693297793
  0
LINE
  5
232
100
AcDbEntity
  8
0
100
AcDbLine
 62
7
  6
CONTINUOUS
 10
21.2876553377
 20
1.1693297793
 11
21.2502894796
 21
1.1693297793
  0
LINE
  5
233
100
AcDbEntity
  8
0
100
AcDbLine
 62
7
  6
CONTINUOUS
 10
21.2208497126
 20
1.1659328831
 11
21.0713862804
 21
1.1659328831
  0
LINE
  5
234
100
AcDbEntity
  8
0
100
AcDbLine
 62
7
  6
CONTINUOUS
 10
20.4796138713
 20
1.5284908897
 11
20.4766766948
 21
0.9294458646
  0
ENDBLK
  5
235
100
AcDbEntity
  8
0
  6
BYBLOCK
 62
0
100
AcDbBlockEnd
  0
BLOCK
  5
236
100
AcDbEntity
  8
0
100
AcDbBlockBegin
  2
*T1
 70
1
 10
0.0
 20
0.0
  3
*T1
  1

  0
LINE
  5
237
100
AcDbEntity
  8
0
100
AcDbLine
 62
2
  6
CONTINUOUS
 10
9.275
 20
0.0
 11
-0.0
 21
0.0
  0
LINE
  5
238
100
AcDbEntity
  8
0
100
AcDbLine
 62
2
  6
CONTINUOUS
 10
9.275
 20
0.0
 11
9.275
 21
1.25
  0
LINE
  5
239
100
AcDbEntity
  8
0
100
AcDbLine
 62
2
  6
CONTINUOUS
 10
9.275
 20
0.625
 11
-0.0
 21
0.625
  0
LINE
  5
23A
100
AcDbEntity
  8
0
100
AcDbLine
 62
2
  6
CONTINUOUS
 10
9.275
 20
1.25
 11
-0.0
 21
1.25
  0
LINE
  5
23B
100
AcDbEntity
  8
0
100
AcDbLine
 62
2
  6
CONTINUOUS
 10
6.8
 20
0.0
 11
6.8
 21
1.25
  0
LINE
  5
23C
100
AcDbEntity
  8
0
100
AcDbLine
 62
2
  6
CONTINUOUS
 10
6.4
 20
0.0
 11
6.4
 21
0.625
  0
LINE
  5
23D
100
AcDbEntity
  8
0
100
AcDbLine
 62
2
  6
CONTINUOUS
 10
5.9
 20
0.0
 11
5.9
 21
0.625
  0
LINE
  5
23E
100
AcDbEntity
  8
0
100
AcDbLine
 62
2
  6
CONTINUOUS
 10
5.2
 20
0.0
 11
5.2
 21
0.625
  0
LINE
  5
23F
100
AcDbEntity
  8
0
100
AcDbLine
 62
2
  6
CONTINUOUS
 10
4.1
 20
0.0
 11
4.1
 21
1.25
  0
LINE
  5
240
100
AcDbEntity
  8
0
100
AcDbLine
 62
2
  6
CONTINUOUS
 10
-0.0
 20
0.0
 11
-0.0
 21
1.25
  0
MTEXT
  5
241
100
AcDbEntity
  8
0
100
AcDbMText
 62
2
  6
CONTINUOUS
  7
STANDARD
 71
2
 72
1
 10
6.6
 20
0.325
 30
0.0
 11
1.0
 21
0.0
 31
0.0
 44
0.9
  1
2
 40
0.125
 41
0.2
  0
MTEXT
  5
242
100
AcDbEntity
  8
0
100
AcDbMText
 62
2
  6
CONTINUOUS
  7
STANDARD
 71
2
 72
1
 10
6.15
 20
0.325
 30
0.0
 11
1.0
 21
0.0
 31
0.0
 44
0.9
  1
C
 40
0.125
 41
0.2
  0
MTEXT
  5
243
100
AcDbEntity
  8
0
100
AcDbMText
 62
2
  6
CONTINUOUS
  7
STANDARD
 71
2
 72
1
 10
5.55
 20
0.325
 30
0.0
 11
1.0
 21
0.0
 31
0.0
 44
0.9
  1
1.000
 40
0.125
 41
1.0
  0
MTEXT
  5
244
100
AcDbEntity
  8
0
100
AcDbMText
 62
2
  6
CONTINUOUS
  7
STANDARD
 71
2
 72
1
 10
4.65
 20
0.325
 30
0.0
 11
1.0
 21
0.0
 31
0.0
 44
0.9
  1
Feb-03-21
 40
0.125
 41
1.8
  0
MTEXT
  5
245
100
AcDbEntity
  8
0
100
AcDbMText
 62
2
  6
CONTINUOUS
  7
STANDARD
 71
2
 72
1
 10
2.05
 20
0.4625
 30
0.0
 11
1.0
 21
0.0
 31
0.0
 44
0.9
  1
T-2A Line mount\PCushion lock with make up checks
 40
0.125
 41
6.4
  0
MTEXT
  5
246
100
AcDbEntity
  8
0
100
AcDbMText
 62
2
  6
CONTINUOUS
  7
STANDARD
 71
1
 72
1
 10
6.45
 20
0.5625
 30
0.0
 11
1.0
 21
0.0
 31
0.0
 44
0.9
  1
SHEET
 40
0.06
 41
0.48
  0
MTEXT
  5
247
100
AcDbEntity
  8
0
100
AcDbMText
 62
2
  6
CONTINUOUS
  7
STANDARD
 71
1
 72
1
 10
5.95
 20
0.5625
 30
0.0
 11
1.0
 21
0.0
 31
0.0
 44
0.9
  1
DWG SIZE
 40
0.06
 41
0.768
  0
MTEXT
  5
248
100
AcDbEntity
  8
0
100
AcDbMText
 62
2
  6
CONTINUOUS
  7
STANDARD
 71
1
 72
1
 10
5.25
 20
0.5625
 30
0.0
 11
1.0
 21
0.0
 31
0.0
 44
0.9
  1
SCALE
 40
0.06
 41
0.48
  0
MTEXT
  5
249
100
AcDbEntity
  8
0
100
AcDbMText
 62
2
  6
CONTINUOUS
  7
STANDARD
 71
1
 72
1
 10
4.15
 20
0.5625
 30
0.0
 11
1.0
 21
0.0
 31
0.0
 44
0.9
  1
DATE
 40
0.06
 41
0.384
  0
MTEXT
  5
24A
100
AcDbEntity
  8
0
100
AcDbMText
 62
2
  6
CONTINUOUS
  7
STANDARD
 71
1
 72
1
 10
0.05
 20
0.5625
 30
0.0
 11
1.0
 21
0.0
 31
0.0
 44
0.9
  1
DESCRIPTION
 40
0.06
 41
1.056
  0
MTEXT
  5
24B
100
AcDbEntity
  8
0
100
AcDbMText
 62
2
  6
CONTINUOUS
  7
STANDARD
 71
2
 72
1
 10
5.45
 20
1.0375
 30
0.0
 11
1.0
 21
0.0
 31
0.0
 44
0.9
  1
ALL DIMENSIONS IN INCH\PVIEWS ARE THIRD ANGLE
 40
0.12
 41
4.224
  0
MTEXT
  5
24C
100
AcDbEntity
  8
0
100
AcDbMText
 62
2
  6
CONTINUOUS
  7
STANDARD
 71
2
 72
1
 10
2.05
 20
0.95
 30
0.0
 11
1.0
 21
0.0
 31
0.0
 44
0.9
  1
4BC
 40
0.125
 41
0.6
  0
MTEXT
  5
24D
100
AcDbEntity
  8
0
100
AcDbMText
 62
2
  6
CONTINUOUS
  7
STANDARD
 71
1
 72
1
 10
0.05
 20
1.1875
 30
0.0
 11
1.0
 21
0.0
 31
0.0
 44
0.9
  1
MODEL
 40
0.06
 41
0.48
  0
ENDBLK
  5
24E
100
AcDbEntity
  8
0
  6
BYBLOCK
 62
0
100
AcDbBlockEnd
  0
BLOCK
  5
24F
100
AcDbEntity
  8
0
100
AcDbBlockBegin
  2
*T2
 70
1
 10
0.0
 20
0.0
  3
*T2
  1

  0
LINE
  5
250
100
AcDbEntity
  8
0
100
AcDbLine
 62
2
  6
CONTINUOUS
 10
0.0
 20
0.0
 11
9.055
 21
0.0
  0
LINE
  5
251
100
AcDbEntity
  8
0
100
AcDbLine
 62
2
  6
CONTINUOUS
 10
0.0
 20
0.0
 11
0.0
 21
-2.594
  0
LINE
  5
252
100
AcDbEntity
  8
0
100
AcDbLine
 62
2
  6
CONTINUOUS
 10
0.0
 20
-0.344
 11
9.055
 21
-0.344
  0
LINE
  5
253
100
AcDbEntity
  8
0
100
AcDbLine
 62
2
  6
CONTINUOUS
 10
0.0
 20
-0.594
 11
9.055
 21
-0.594
  0
LINE
  5
254
100
AcDbEntity
  8
0
100
AcDbLine
 62
2
  6
CONTINUOUS
 10
0.0
 20
-0.844
 11
9.055
 21
-0.844
  0
LINE
  5
255
100
AcDbEntity
  8
0
100
AcDbLine
 62
2
  6
CONTINUOUS
 10
0.0
 20
-1.094
 11
9.055
 21
-1.094
  0
LINE
  5
256
100
AcDbEntity
  8
0
100
AcDbLine
 62
2
  6
CONTINUOUS
 10
0.0
 20
-1.344
 11
9.055
 21
-1.344
  0
LINE
  5
257
100
AcDbEntity
  8
0
100
AcDbLine
 62
2
  6
CONTINUOUS
 10
0.0
 20
-1.594
 11
9.055
 21
-1.594
  0
LINE
  5
258
100
AcDbEntity
  8
0
100
AcDbLine
 62
2
  6
CONTINUOUS
 10
0.0
 20
-1.844
 11
9.055
 21
-1.844
  0
LINE
  5
259
100
AcDbEntity
  8
0
100
AcDbLine
 62
2
  6
CONTINUOUS
 10
0.0
 20
-2.094
 11
9.055
 21
-2.094
  0
LINE
  5
25A
100
AcDbEntity
  8
0
100
AcDbLine
 62
2
  6
CONTINUOUS
 10
0.0
 20
-2.344
 11
9.055
 21
-2.344
  0
LINE
  5
25B
100
AcDbEntity
  8
0
100
AcDbLine
 62
2
  6
CONTINUOUS
 10
0.0
 20
-2.594
 11
9.055
 21
-2.594
  0
LINE
  5
25C
100
AcDbEntity
  8
0
100
AcDbLine
 62
2
  6
CONTINUOUS
 10
3.055
 20
0.0
 11
3.055
 21
-2.594
  0
LINE
  5
25D
100
AcDbEntity
  8
0
100
AcDbLine
 62
2
  6
CONTINUOUS
 10
9.055
 20
0.0
 11
9.055
 21
-2.594
  0
MTEXT
  5
25E
100
AcDbEntity
  8
0
100
AcDbMText
 62
2
  6
CONTINUOUS
  7
STANDARD
 71
2
 72
1
 10
1.5275
 20
-0.0995
 30
0.0
 11
1.0
 21
0.0
 31
0.0
 44
0.9
  1
Technical Data
 40
0.145
 41
3.248
  0
MTEXT
  5
25F
100
AcDbEntity
  8
0
100
AcDbMText
 62
2
  6
CONTINUOUS
  7
STANDARD
 71
2
 72
1
 10
4.555
 20
-0.0995
 30
0.0
 11
1.0
 21
0.0
 31
0.0
 44
0.9
  1
U.S. Units
 40
0.145
 41
2.32
  0
MTEXT
  5
260
100
AcDbEntity
  8
0
100
AcDbMText
 62
2
  6
CONTINUOUS
  7
STANDARD
 71
2
 72
1
 10
7.555
 20
-0.0995
 30
0.0
 11
1.0
 21
0.0
 31
0.0
 44
0.9
  1
Metric Units
 40
0.145
 41
2.784
  0
MTEXT
  5
261
100
AcDbEntity
  8
0
100
AcDbMText
 62
2
  6
CONTINUOUS
  7
STANDARD
 71
2
 72
1
 10
1.5275
 20
-0.4065
 30
0.0
 11
1.0
 21
0.0
 31
0.0
 44
0.9
  1
Cavity
 40
0.125
 41
1.2
  0
MTEXT
  5
262
100
AcDbEntity
  8
0
100
AcDbMText
 62
2
  6
CONTINUOUS
  7
STANDARD
 71
2
 72
1
 10
6.055
 20
-0.4065
 30
0.0
 11
1.0
 21
0.0
 31
0.0
 44
0.9
  1
T-2A
 40
0.125
 41
0.8
  0
MTEXT
  5
263
100
AcDbEntity
  8
0
100
AcDbMText
 62
2
  6
CONTINUOUS
  7
STANDARD
 71
2
 72
1
 10
1.5275
 20
-0.6565
 30
0.0
 11
1.0
 21
0.0
 31
0.0
 44
0.9
  1
Body Features
 40
0.125
 41
2.6
  0
MTEXT
  5
264
100
AcDbEntity
  8
0
100
AcDbMText
 62
2
  6
CONTINUOUS
  7
STANDARD
 71
2
 72
1
 10
6.055
 20
-0.6565
 30
0.0
 11
1.0
 21
0.0
 31
0.0
 44
0.9
  1
Cushion lock with make up checks
 40
0.125
 41
6.4
  0
MTEXT
  5
265
100
AcDbEntity
  8
0
100
AcDbMText
 62
2
  6
CONTINUOUS
  7
STANDARD
 71
2
 72
1
 10
1.5275
 20
-0.9065
 30
0.0
 11
1.0
 21
0.0
 31
0.0
 44
0.9
  1
Body Type
 40
0.125
 41
1.8
  0
MTEXT
  5
266
100
AcDbEntity
  8
0
100
AcDbMText
 62
2
  6
CONTINUOUS
  7
STANDARD
 71
2
 72
1
 10
6.055
 20
-0.9065
 30
0.0
 11
1.0
 21
0.0
 31
0.0
 44
0.9
  1
Line mount
 40
0.125
 41
2.0
  0
MTEXT
  5
267
100
AcDbEntity
  8
0
100
AcDbMText
 62
2
  6
CONTINUOUS
  7
STANDARD
 71
2
 72
1
 10
1.5275
 20
-1.1565
 30
0.0
 11
1.0
 21
0.0
 31
0.0
 44
0.9
  1
Interface
 40
0.125
 41
1.8
  0
MTEXT
  5
268
100
AcDbEntity
  8
0
100
AcDbMText
 62
2
  6
CONTINUOUS
  7
STANDARD
 71
2
 72
1
 10
6.055
 20
-1.1565
 30
0.0
 11
1.0
 21
0.0
 31
0.0
 44
0.9
  1
None
 40
0.125
 41
0.8
  0
MTEXT
  5
269
100
AcDbEntity
  8
0
100
AcDbMText
 62
2
  6
CONTINUOUS
  7
STANDARD
 71
2
 72
1
 10
1.5275
 20
-1.4065
 30
0.0
 11
1.0
 21
0.0
 31
0.0
 44
0.9
  1
Open Cavity Quantity
 40
0.125
 41
4.0
  0
MTEXT
  5
26A
100
AcDbEntity
  8
0
100
AcDbMText
 62
2
  6
CONTINUOUS
  7
STANDARD
 71
2
 72
1
 10
6.055
 20
-1.4065
 30
0.0
 11
1.0
 21
0.0
 31
0.0
 44
0.9
  1
2
 40
0.125
 41
0.2
  0
MTEXT
  5
26B
100
AcDbEntity
  8
0
100
AcDbMText
 62
2
  6
CONTINUOUS
  7
STANDARD
 71
2
 72
1
 10
1.5275
 20
-1.6565
 30
0.0
 11
1.0
 21
0.0
 31
0.0
 44
0.9
  1
Weight
 40
0.125
 41
1.2
  0
MTEXT
  5
26C
100
AcDbEntity
  8
0
100
AcDbMText
 62
2
  6
CONTINUOUS
  7
STANDARD
 71
2
 72
1
 10
4.555
 20
-1.6565
 30
0.0
 11
1.0
 21
0.0
 31
0.0
 44
0.9
  1
7.376 lb.
 40
0.125
 41
1.8
  0
MTEXT
  5
26D
100
AcDbEntity
  8
0
100
AcDbMText
 62
2
  6
CONTINUOUS
  7
STANDARD
 71
2
 72
1
 10
7.555
 20
-1.6565
 30
0.0
 11
1.0
 21
0.0
 31
0.0
 44
0.9
  1
3,345 kg.
 40
0.125
 41
1.8
  0
MTEXT
  5
26E
100
AcDbEntity
  8
0
100
AcDbMText
 62
2
  6
CONTINUOUS
  7
STANDARD
 71
2
 72
1
 10
1.5275
 20
-1.9065
 30
0.0
 11
1.0
 21
0.0
 31
0.0
 44
0.9
  1
Mounting Hole Diameter
 40
0.125
 41
4.4
  0
MTEXT
  5
26F
100
AcDbEntity
  8
0
100
AcDbMText
 62
2
  6
CONTINUOUS
  7
STANDARD
 71
2
 72
1
 10
4.555
 20
-1.9065
 30
0.0
 11
1.0
 21
0.0
 31
0.0
 44
0.9
  1
.41 in.
 40
0.125
 41
1.4
  0
MTEXT
  5
270
100
AcDbEntity
  8
0
100
AcDbMText
 62
2
  6
CONTINUOUS
  7
STANDARD
 71
2
 72
1
 10
7.555
 20
-1.9065
 30
0.0
 11
1.0
 21
0.0
 31
0.0
 44
0.9
  1
10,4 mm
 40
0.125
 41
1.4
  0
MTEXT
  5
271
100
AcDbEntity
  8
0
100
AcDbMText
 62
2
  6
CONTINUOUS
  7
STANDARD
 71
2
 72
1
 10
1.5275
 20
-2.1565
 30
0.0
 11
1.0
 21
0.0
 31
0.0
 44
0.9
  1
Mounting Hole Depth
 40
0.125
 41
3.8
  0
MTEXT
  5
272
100
AcDbEntity
  8
0
100
AcDbMText
 62
2
  6
CONTINUOUS
  7
STANDARD
 71
2
 72
1
 10
6.055
 20
-2.1565
 30
0.0
 11
1.0
 21
0.0
 31
0.0
 44
0.9
  1
Through
 40
0.125
 41
1.4
  0
MTEXT
  5
273
100
AcDbEntity
  8
0
100
AcDbMText
 62
2
  6
CONTINUOUS
  7
STANDARD
 71
2
 72
1
 10
1.5275
 20
-2.4065
 30
0.0
 11
1.0
 21
0.0
 31
0.0
 44
0.9
  1
Mounting Hole Quantity
 40
0.125
 41
4.4
  0
MTEXT
  5
274
100
AcDbEntity
  8
0
100
AcDbMText
 62
2
  6
CONTINUOUS
  7
STANDARD
 71
2
 72
1
 10
6.055
 20
-2.4065
 30
0.0
 11
1.0
 21
0.0
 31
0.0
 44
0.9
  1
2
 40
0.125
 41
0.2
  0
ENDBLK
  5
275
100
AcDbEntity
  8
0
  6
BYBLOCK
 62
0
100
AcDbBlockEnd
  0
BLOCK
  5
276
100
AcDbEntity
  8
0
100
AcDbBlockBegin
  2
*T3
 70
1
 10
0.0
 20
0.0
  3
*T3
  1

  0
LINE
  5
277
100
AcDbEntity
  8
0
100
AcDbLine
 62
2
  6
CONTINUOUS
 10
0.0
 20
0.0
 11
4.6
 21
0.0
  0
LINE
  5
278
100
AcDbEntity
  8
0
100
AcDbLine
 62
2
  6
CONTINUOUS
 10
0.0
 20
0.0
 11
0.0
 21
-1.18775
  0
LINE
  5
279
100
AcDbEntity
  8
0
100
AcDbLine
 62
2
  6
CONTINUOUS
 10
0.0
 20
-0.34375
 11
4.6
 21
-0.34375
  0
LINE
  5
27A
100
AcDbEntity
  8
0
100
AcDbLine
 62
2
  6
CONTINUOUS
 10
0.0
 20
-0.68775
 11
4.6
 21
-0.68775
  0
LINE
  5
27B
100
AcDbEntity
  8
0
100
AcDbLine
 62
2
  6
CONTINUOUS
 10
0.0
 20
-0.93775
 11
4.6
 21
-0.93775
  0
LINE
  5
27C
100
AcDbEntity
  8
0
100
AcDbLine
 62
2
  6
CONTINUOUS
 10
0.0
 20
-1.18775
 11
4.6
 21
-1.18775
  0
LINE
  5
27D
100
AcDbEntity
  8
0
100
AcDbLine
 62
2
  6
CONTINUOUS
 10
1.3
 20
-0.34375
 11
1.3
 21
-1.18775
  0
LINE
  5
27E
100
AcDbEntity
  8
0
100
AcDbLine
 62
2
  6
CONTINUOUS
 10
3.3
 20
-0.34375
 11
3.3
 21
-1.18775
  0
LINE
  5
27F
100
AcDbEntity
  8
0
100
AcDbLine
 62
2
  6
CONTINUOUS
 10
4.6
 20
0.0
 11
4.6
 21
-1.18775
  0
MTEXT
  5
280
100
AcDbEntity
  8
0
100
AcDbMText
 62
2
  6
CONTINUOUS
  7
STANDARD
 71
2
 72
1
 10
2.3
 20
-0.099375
 30
0.0
 11
1.0
 21
0.0
 31
0.0
 44
0.9
  1
Port Headings
 40
0.145
 41
3.016
  0
MTEXT
  5
281
100
AcDbEntity
  8
0
100
AcDbMText
 62
2
  6
CONTINUOUS
  7
STANDARD
 71
2
 72
1
 10
0.65
 20
-0.44325
 30
0.0
 11
1.0
 21
0.0
 31
0.0
 44
0.9
  1
Product
 40
0.145
 41
1.624
  0
MTEXT
  5
282
100
AcDbEntity
  8
0
100
AcDbMText
 62
2
  6
CONTINUOUS
  7
STANDARD
 71
2
 72
1
 10
2.3
 20
-0.44325
 30
0.0
 11
1.0
 21
0.0
 31
0.0
 44
0.9
  1
Port
 40
0.145
 41
0.928
  0
MTEXT
  5
283
100
AcDbEntity
  8
0
100
AcDbMText
 62
2
  6
CONTINUOUS
  7
STANDARD
 71
2
 72
1
 10
3.95
 20
-0.44325
 30
0.0
 11
1.0
 21
0.0
 31
0.0
 44
0.9
  1
Size
 40
0.145
 41
0.928
  0
MTEXT
  5
284
100
AcDbEntity
  8
0
100
AcDbMText
 62
2
  6
CONTINUOUS
  7
STANDARD
 71
2
 72
1
 10
0.65
 20
-0.75025
 30
0.0
 11
1.0
 21
0.0
 31
0.0
 44
0.9
  1
4BC
 40
0.125
 41
0.6
  0
MTEXT
  5
285
100
AcDbEntity
  8
0
100
AcDbMText
 62
2
  6
CONTINUOUS
  7
STANDARD
 71
2
 72
1
 10
2.3
 20
-0.75025
 30
0.0
 11
1.0
 21
0.0
 31
0.0
 44
0.9
  1
Ports C1, C2, V1, V2
 40
0.125
 41
4.0
  0
MTEXT
  5
286
100
AcDbEntity
  8
0
100
AcDbMText
 62
2
  6
CONTINUOUS
  7
STANDARD
 71
2
 72
1
 10
3.95
 20
-0.75025
 30
0.0
 11
1.0
 21
0.0
 31
0.0
 44
0.9
  1
1/2" NPTF
 40
0.125
 41
1.8
  0
MTEXT
  5
287
100
AcDbEntity
  8
0
100
AcDbMText
 62
2
  6
CONTINUOUS
  7
STANDARD
 71
2
 72
1
 10
0.65
 20
-1.00025
 30
0.0
 11
1.0
 21
0.0
 31
0.0
 44
0.9
  1
4BC
 40
0.125
 41
0.6
  0
MTEXT
  5
288
100
AcDbEntity
  8
0
100
AcDbMText
 62
2
  6
CONTINUOUS
  7
STANDARD
 71
2
 72
1
 10
2.3
 20
-1.00025
 30
0.0
 11
1.0
 21
0.0
 31
0.0
 44
0.9
  1
Port T
 40
0.125
 41
1.2
  0
MTEXT
  5
289
100
AcDbEntity
  8
0
100
AcDbMText
 62
2
  6
CONTINUOUS
  7
STANDARD
 71
2
 72
1
 10
3.95
 20
-1.00025
 30
0.0
 11
1.0
 21
0.0
 31
0.0
 44
0.9
  1
3/4" NPTF
 40
0.125
 41
1.8
  0
ENDBLK
  5
28A
100
AcDbEntity
  8
0
  6
BYBLOCK
 62
0
100
AcDbBlockEnd
  0
ENDSEC
  0
SECTION
  2
ENTITIES
  0
IMAGE
  5
28B
100
AcDbEntity
  8
0
100
AcDbRasterImage
 62
7
  6
CONTINUOUS
 10
19.2297077316
 20
0.3094318264
 30
0.0
 11
0.0066666667
 21
0.0
 31
0.0
 12
0.0
 22
0.0066666667
 32
0.0
 13
369.0
 23
92.0
340
       40F
 70
9
280
0
281
50
282
50
283
0
360
       409
 71
1
 91
2
 14
-0.5
 24
-0.5
 14
368.5
 24
91.5
  0
INSERT
  5
28C
100
AcDbEntity
  8
0
100
AcDbBlockReference
 62
2
  6
CONTINUOUS
  2
SUN_FIRST_THIRD_ANGLE_BL0
 10
20.4816717061
 20
1.2289683772
  0
ACAD_TABLE
  5
28D
100
AcDbEntity
  8
0
 62
2
  6
CONTINUOUS
100
AcDbBlockReference
  2
*T1
 10
12.42375
 20
0.30125
 30
0.0
100
AcDbTable
342
       411
343
20F
 11
1.0
 21
0.0
 31
0.0
 90
6
 91
4
 92
6
 93
20
 94
0
 95
0
 96
0
 70
1
 41
0.0
141
0.525
141
0.1
141
0.525
141
0.1
142
4.1
142
1.1
142
0.7
142
0.5
142
0.4
142
2.475
171
1
172
0
173
0
174
0
175
1
176
1
 91
33
178
0
145
0.0
301
CELL_VALUE
 90
4
  1
T-2A Line mount\PCushion lock with make up checks
304
ACVALUE_END
170
2
140
0.125
171
1
172
0
173
0
174
0
175
1
176
1
 91
33
178
0
145
0.0
301
CELL_VALUE
 90
4
  1
Feb-03-21
304
ACVALUE_END
170
5
140
0.125
171
1
172
0
173
0
174
0
175
1
176
1
 91
33
178
0
145
0.0
301
CELL_VALUE
 90
4
  1
1.000
304
ACVALUE_END
170
5
140
0.125
171
1
172
0
173
0
174
0
175
1
176
1
 91
33
178
0
145
0.0
301
CELL_VALUE
 90
4
  1
C
304
ACVALUE_END
170
5
140
0.125
171
1
172
0
173
0
174
0
175
1
176
1
 91
33
178
0
145
0.0
301
CELL_VALUE
 90
4
  1
2
304
ACVALUE_END
170
5
140
0.125
171
1
172
0
173
0
174
0
175
1
176
1
 91
33
178
0
145
0.0
301
CELL_VALUE
 90
4
  1
 
304
ACVALUE_END
170
1
140
0.125
171
1
172
0
173
0
174
0
175
1
176
1
 91
33
178
0
145
0.0
301
CELL_VALUE
 90
4
  1
DESCRIPTION
304
ACVALUE_END
170
1
140
0.06
171
1
172
0
173
0
174
0
175
1
176
1
 91
33
178
0
145
0.0
301
CELL_VALUE
 90
4
  1
DATE
304
ACVALUE_END
170
1
140
0.06
171
1
172
0
173
0
174
0
175
1
176
1
 91
33
178
0
145
0.0
301
CELL_VALUE
 90
4
  1
SCALE
304
ACVALUE_END
170
1
140
0.06
171
1
172
0
173
0
174
0
175
1
176
1
 91
33
178
0
145
0.0
301
CELL_VALUE
 90
4
  1
DWG SIZE
304
ACVALUE_END
170
1
140
0.06
171
1
172
0
173
0
174
0
175
1
176
1
 91
33
178
0
145
0.0
301
CELL_VALUE
 90
4
  1
SHEET
304
ACVALUE_END
170
1
140
0.06
171
1
172
0
173
0
174
0
175
1
176
1
 91
33
178
0
145
0.0
301
CELL_VALUE
 90
4
  1
 
304
ACVALUE_END
170
1
140
0.125
171
1
172
0
173
0
174
0
175
1
176
1
 91
33
178
0
145
0.0
301
CELL_VALUE
 90
4
  1
4BC
304
ACVALUE_END
170
5
140
0.125
171
1
172
0
173
0
174
0
175
4
176
1
 91
33
178
0
145
0.0
301
CELL_VALUE
 90
4
  1
ALL DIMENSIONS IN INCH\PVIEWS ARE THIRD ANGLE
304
ACVALUE_END
170
5
140
0.12
171
1
172
0
173
1
174
0
175
1
176
1
 91
1
178
0
145
0.0
170
1
171
1
172
0
173
1
174
0
175
1
176
1
 91
1
178
0
145
0.0
170
1
171
1
172
0
173
1
174
0
175
1
176
1
 91
1
178
0
145
0.0
170
5
171
1
172
0
173
0
174
0
175
1
176
1
 91
33
178
0
145
0.0
301
CELL_VALUE
 90
4
  1
 
304
ACVALUE_END
170
1
140
0.125
171
1
172
0
173
0
174
0
175
1
176
1
 91
33
178
0
145
0.0
301
CELL_VALUE
 90
4
  1
MODEL
304
ACVALUE_END
170
1
140
0.06
171
1
172
0
173
0
174
0
175
1
176
1
 91
33
178
0
145
0.0
301
CELL_VALUE
 90
4
  1
 
304
ACVALUE_END
170
1
140
0.125
171
1
172
0
173
0
174
0
175
1
176
1
 91
33
178
0
145
0.0
301
CELL_VALUE
 90
4
  1
 
304
ACVALUE_END
170
1
140
0.125
171
1
172
0
173
0
174
0
175
1
176
1
 91
33
178
0
145
0.0
301
CELL_VALUE
 90
4
  1
 
304
ACVALUE_END
170
1
140
0.125
171
1
172
0
173
0
174
0
175
1
176
1
 91
33
178
0
145
0.0
301
CELL_VALUE
 90
4
  1
 
304
ACVALUE_END
170
1
140
0.125
171
1
172
0
173
0
174
0
175
1
176
1
 91
33
178
0
145
0.0
301
CELL_VALUE
 90
4
  1
 
304
ACVALUE_END
170
1
140
0.125
  0
ACAD_TABLE
  5
28E
100
AcDbEntity
  8
0
 62
2
  6
CONTINUOUS
100
AcDbBlockReference
  2
*T2
 10
12.4237499994
 20
16.47875
 30
0.0
100
AcDbTable
342
       410
343
210
 11
1.0
 21
0.0
 31
0.0
 90
22
 91
10
 92
3
 93
16
 94
0
 95
0
 96
0
 41
0.028
141
0.344
141
0.25
141
0.25
141
0.25
141
0.25
141
0.25
141
0.25
141
0.25
141
0.25
141
0.25
142
3.055
142
3.0
142
3.0
171
1
172
0
173
0
174
0
175
1
176
1
 91
33
178
0
145
0.0
301
CELL_VALUE
 90
4
  1
Technical Data
304
ACVALUE_END
170
5
140
0.145
171
1
172
0
173
0
174
0
175
1
176
1
 91
33
178
0
145
0.0
301
CELL_VALUE
 90
4
  1
U.S. Units
304
ACVALUE_END
170
5
140
0.145
171
1
172
0
173
0
174
0
175
1
176
1
 91
33
178
0
145
0.0
301
CELL_VALUE
 90
4
  1
Metric Units
304
ACVALUE_END
170
5
140
0.145
171
1
172
0
173
0
174
0
175
1
176
1
 91
33
178
0
145
0.0
301
CELL_VALUE
 90
4
  1
Cavity
304
ACVALUE_END
170
5
140
0.125
171
1
172
0
173
0
174
0
175
2
176
1
 91
33
178
0
145
0.0
301
CELL_VALUE
 90
4
  1
T-2A
304
ACVALUE_END
170
5
140
0.125
171
1
172
0
173
1
174
0
175
1
176
1
 91
1
178
0
145
0.0
170
1
171
1
172
0
173
0
174
0
175
1
176
1
 91
33
178
0
145
0.0
301
CELL_VALUE
 90
4
  1
Body Features
304
ACVALUE_END
170
5
140
0.125
171
1
172
0
173
0
174
0
175
2
176
1
 91
33
178
0
145
0.0
301
CELL_VALUE
 90
4
  1
Cushion lock with make up checks
304
ACVALUE_END
170
5
140
0.125
171
1
172
0
173
1
174
0
175
1
176
1
 91
1
178
0
145
0.0
170
1
171
1
172
0
173
0
174
0
175
1
176
1
 91
33
178
0
145
0.0
301
CELL_VALUE
 90
4
  1
Body Type
304
ACVALUE_END
170
5
140
0.125
171
1
172
0
173
0
174
0
175
2
176
1
 91
33
178
0
145
0.0
301
CELL_VALUE
 90
4
  1
Line mount
304
ACVALUE_END
170
5
140
0.125
171
1
172
0
173
1
174
0
175
1
176
1
 91
1
178
0
145
0.0
170
1
171
1
172
0
173
0
174
0
175
1
176
1
 91
33
178
0
145
0.0
301
CELL_VALUE
 90
4
  1
Interface
304
ACVALUE_END
170
5
140
0.125
171
1
172
0
173
0
174
0
175
2
176
1
 91
33
178
0
145
0.0
301
CELL_VALUE
 90
4
  1
None
304
ACVALUE_END
170
5
140
0.125
171
1
172
0
173
1
174
0
175
1
176
1
 91
1
178
0
145
0.0
170
1
171
1
172
0
173
0
174
0
175
1
176
1
 91
33
178
0
145
0.0
301
CELL_VALUE
 90
4
  1
Open Cavity Quantity
304
ACVALUE_END
170
5
140
0.125
171
1
172
0
173
0
174
0
175
2
176
1
 91
33
178
0
145
0.0
301
CELL_VALUE
 90
4
  1
2
304
ACVALUE_END
170
5
140
0.125
171
1
172
0
173
1
174
0
175
1
176
1
 91
1
178
0
145
0.0
170
1
171
1
172
0
173
0
174
0
175
1
176
1
 91
33
178
0
145
0.0
301
CELL_VALUE
 90
4
  1
Weight
304
ACVALUE_END
170
5
140
0.125
171
1
172
0
173
0
174
0
175
1
176
1
 91
33
178
0
145
0.0
301
CELL_VALUE
 90
4
  1
7.376 lb.
304
ACVALUE_END
170
5
140
0.125
171
1
172
0
173
0
174
0
175
1
176
1
 91
33
178
0
145
0.0
301
CELL_VALUE
 90
4
  1
3,345 kg.
304
ACVALUE_END
170
5
140
0.125
171
1
172
0
173
0
174
0
175
1
176
1
 91
33
178
0
145
0.0
301
CELL_VALUE
 90
4
  1
Mounting Hole Diameter
304
ACVALUE_END
170
5
140
0.125
171
1
172
0
173
0
174
0
175
1
176
1
 91
33
178
0
145
0.0
301
CELL_VALUE
 90
4
  1
.41 in.
304
ACVALUE_END
170
5
140
0.125
171
1
172
0
173
0
174
0
175
1
176
1
 91
33
178
0
145
0.0
301
CELL_VALUE
 90
4
  1
10,4 mm
304
ACVALUE_END
170
5
140
0.125
171
1
172
0
173
0
174
0
175
1
176
1
 91
33
178
0
145
0.0
301
CELL_VALUE
 90
4
  1
Mounting Hole Depth
304
ACVALUE_END
170
5
140
0.125
171
1
172
0
173
0
174
0
175
2
176
1
 91
33
178
0
145
0.0
301
CELL_VALUE
 90
4
  1
Through
304
ACVALUE_END
170
5
140
0.125
171
1
172
0
173
1
174
0
175
1
176
1
 91
1
178
0
145
0.0
170
1
171
1
172
0
173
0
174
0
175
1
176
1
 91
33
178
0
145
0.0
301
CELL_VALUE
 90
4
  1
Mounting Hole Quantity
304
ACVALUE_END
170
5
140
0.125
171
1
172
0
173
0
174
0
175
2
176
1
 91
33
178
0
145
0.0
301
CELL_VALUE
 90
4
  1
2
304
ACVALUE_END
170
5
140
0.125
171
1
172
0
173
1
174
0
175
1
176
1
 91
1
178
0
145
0.0
170
1
  0
ACAD_TABLE
  5
28F
100
AcDbEntity
  8
0
 62
2
  6
CONTINUOUS
100
AcDbBlockReference
  2
*T3
 10
0.52125
 20
1.709
 30
0.0
100
AcDbTable
342
       410
343
211
 11
1.0
 21
0.0
 31
0.0
 90
22
 91
4
 92
3
 93
16
 94
0
 95
0
 96
0
 41
0.05
141
0.34375
141
0.344
141
0.25
141
0.25
142
1.3
142
2.0
142
1.3
171
1
172
0
173
0
174
0
175
3
176
1
 91
33
178
0
145
0.0
301
CELL_VALUE
 90
4
  1
Port Headings
304
ACVALUE_END
170
5
140
0.145
171
1
172
0
173
1
174
0
175
1
176
1
 91
1
178
0
145
0.0
170
1
171
1
172
0
173
1
174
0
175
1
176
1
 91
1
178
0
145
0.0
170
1
171
1
172
0
173
0
174
0
175
1
176
1
 91
33
178
0
145
0.0
301
CELL_VALUE
 90
4
  1
Product
304
ACVALUE_END
170
5
140
0.145
171
1
172
0
173
0
174
0
175
1
176
1
 91
33
178
0
145
0.0
301
CELL_VALUE
 90
4
  1
Port
304
ACVALUE_END
170
5
140
0.145
171
1
172
0
173
0
174
0
175
1
176
1
 91
33
178
0
145
0.0
301
CELL_VALUE
 90
4
  1
Size
304
ACVALUE_END
170
5
140
0.145
171
1
172
0
173
0
174
0
175
1
176
1
 91
33
178
0
145
0.0
301
CELL_VALUE
 90
4
  1
4BC
304
ACVALUE_END
170
5
140
0.125
171
1
172
0
173
0
174
0
175
1
176
1
 91
33
178
0
145
0.0
301
CELL_VALUE
 90
4
  1
Ports C1, C2, V1, V2
304
ACVALUE_END
170
5
140
0.125
171
1
172
0
173
0
174
0
175
1
176
1
 91
33
178
0
145
0.0
301
CELL_VALUE
 90
4
  1
1/2" NPTF
304
ACVALUE_END
170
5
140
0.125
171
1
172
0
173
0
174
0
175
1
176
1
 91
33
178
0
145
0.0
301
CELL_VALUE
 90
4
  1
4BC
304
ACVALUE_END
170
5
140
0.125
171
1
172
0
173
0
174
0
175
1
176
1
 91
33
178
0
145
0.0
301
CELL_VALUE
 90
4
  1
Port T
304
ACVALUE_END
170
5
140
0.125
171
1
172
0
173
0
174
0
175
1
176
1
 91
33
178
0
145
0.0
301
CELL_VALUE
 90
4
  1
3/4" NPTF
304
ACVALUE_END
170
5
140
0.125
  0
MTEXT
  5
290
100
AcDbEntity
  8
0
100
AcDbMText
 62
2
  6
CONTINUOUS
  7
STANDARD
 71
1
 72
1
 10
0.52125
 20
5.75995
 30
0.0
 11
1.0
 21
0.0
 31
0.0
 44
0.6
  3
Notes\P \P1. Important: Carefully consider\P   the maximum system pressure. The\P   pressure rating of the manifold is\P   dependent on the manifold material,\P   with the port type/size a secondary\P   consideration. Manifolds\P   constructed of alu
  1
minum are not\P   rated for pressures higher than\P   3000 psi (210 bar), regardless of\P   the port type/size specified.
 40
0.1
 41
3.04
  0
LINE
  5
291
100
AcDbEntity
  8
0
100
AcDbLine
 62
7
  6
CONTINUOUS
 10
0.30125
 20
0.30125
 11
0.30125
 21
16.69875
  0
LINE
  5
292
100
AcDbEntity
  8
0
100
AcDbLine
 62
7
  6
CONTINUOUS
 10
0.30125
 20
0.30125
 11
21.69875
 21
0.30125
  0
LINE
  5
293
100
AcDbEntity
  8
0
100
AcDbLine
 62
7
  6
CONTINUOUS
 10
0.30125
 20
16.69875
 11
21.69875
 21
16.69875
  0
LINE
  5
294
100
AcDbEntity
  8
0
100
AcDbLine
 62
7
  6
CONTINUOUS
 10
21.69875
 20
0.30125
 11
21.69875
 21
16.69875
  0
LINE
  5
295
100
AcDbEntity
  8
0
100
AcDbLine
 62
7
  6
CONTINUOUS
 10
8.4211011542
 20
9.8200858855
 11
9.151828159
 21
10.5259140131
  0
LINE
  5
296
100
AcDbEntity
  8
0
100
AcDbLine
 62
7
  6
CONTINUOUS
 10
9.5247854792
 20
10.8861631422
 11
9.7151953117
 21
11.0700849279
  0
LINE
  5
297
100
AcDbEntity
  8
0
100
AcDbLine
 62
7
  6
CONTINUOUS
 10
9.2600283336
 20
10.8146680764
 11
9.2792462648
 21
10.8241613665
  0
LINE
  5
298
100
AcDbEntity
  8
0
100
AcDbLine
 62
7
  6
CONTINUOUS
 10
8.4211011542
 20
9.8200858855
 11
8.4211011542
 21
6.1978638222
  0
LINE
  5
299
100
AcDbEntity
  8
0
100
AcDbLine
 62
7
  6
CONTINUOUS
 10
12.2848046883
 20
5.9299150721
 11
8.4211011542
 21
6.1978638222
  0
LINE
  5
29A
100
AcDbEntity
  8
0
100
AcDbLine
 62
4
  6
CONTINUOUS
 10
9.6623159088
 20
6.5947483364
 11
9.6768047967
 21
6.5840842723
  0
LINE
  5
29B
100
AcDbEntity
  8
0
100
AcDbLine
 62
4
  6
CONTINUOUS
 10
9.6768047967
 20
6.5840842723
 11
9.6840492407
 21
6.5739226051
  0
LINE
  5
29C
100
AcDbEntity
  8
0
100
AcDbLine
 62
4
  6
CONTINUOUS
 10
9.626093689
 20
6.4813492524
 11
9.6840492407
 21
6.4773300212
  0
LINE
  5
29D
100
AcDbEntity
  8
0
100
AcDbLine
 62
4
  6
CONTINUOUS
 10
11.0749825143
 20
6.3808684711
 11
11.132938066
 21
6.3768492399
  0
LINE
  5
29E
100
AcDbEntity
  8
0
100
AcDbLine
 62
4
  6
CONTINUOUS
 10
9.7492492364
 20
6.5114454218
 11
9.7927159002
 21
6.5084309984
  0
LINE
  5
29F
100
AcDbEntity
  8
0
100
AcDbLine
 62
4
  6
CONTINUOUS
 10
11.1981380617
 20
6.4109646405
 11
11.2416047255
 21
6.4079502171
  0
LINE
  5
2A0
100
AcDbEntity
  8
0
100
AcDbLine
 62
4
  6
CONTINUOUS
 10
9.5174270295
 20
6.5468408626
 11
9.5608936933
 21
6.5438264392
  0
LINE
  5
2A1
100
AcDbEntity
  8
0
100
AcDbLine
 62
4
  6
CONTINUOUS
 10
10.9663158548
 20
6.4463600812
 11
11.0097825186
 21
6.4433456579
  0
LINE
  5
2A2
100
AcDbEntity
  8
0
100
AcDbLine
 62
4
  6
CONTINUOUS
 10
9.3870270382
 20
6.6138396844
 11
9.4594714778
 21
6.6088156454
  0
LINE
  5
2A3
100
AcDbEntity
  8
0
100
AcDbLine
 62
4
  6
CONTINUOUS
 10
9.6478270209
 20
6.5957531442
 11
9.6623159088
 21
6.5947483364
  0
LINE
  5
2A4
100
AcDbEntity
  8
0
100
AcDbLine
 62
4
  6
CONTINUOUS
 10
10.8359158634
 20
6.5133589031
 11
10.9083603031
 21
6.5083348641
  0
LINE
  5
2A5
100
AcDbEntity
  8
0
100
AcDbLine
 62
4
  6
CONTINUOUS
 10
11.0967158462
 20
6.4952723628
 11
11.1112047341
 21
6.494267555
  0
LINE
  5
2A6
100
AcDbEntity
  8
0
100
AcDbLine
 62
7
  6
CONTINUOUS
 10
9.151828159
 20
10.2935849232
 11
9.151828159
 21
10.6779883645
  0
LINE
  5
2A7
100
AcDbEntity
  8
0
100
AcDbLine
 62
7
  6
CONTINUOUS
 10
9.1662762071
 20
10.2796292042
 11
9.1662762071
 21
10.6640326455
  0
LINE
  5
2A8
100
AcDbEntity
  8
0
100
AcDbLine
 62
7
  6
CONTINUOUS
 10
9.2328553752
 20
10.1119111603
 11
9.2328553752
 21
10.2416784329
  0
LINE
  5
2A9
100
AcDbEntity
  8
0
100
AcDbLine
 62
7
  6
CONTINUOUS
 10
11.1918801007
 20
10.6806937013
 11
11.2110980319
 21
10.6901869914
  0
LINE
  5
2AA
100
AcDbEntity
  8
0
100
AcDbLine
 62
7
  6
CONTINUOUS
 10
10.2474061885
 20
10.2108752329
 11
10.2816824168
 21
10.2278070334
  0
LINE
  5
2AB
100
AcDbEntity
  8
0
100
AcDbLine
 62
4
  6
CONTINUOUS
 10
9.7709825683
 20
6.5872122779
 11
9.8072047881
 21
6.468789155
  0
LINE
  5
2AC
100
AcDbEntity
  8
0
100
AcDbLine
 62
7
  6
CONTINUOUS
 10
9.3968553752
 20
9.0415948665
 11
9.3968553752
 21
9.1908442115
  0
LINE
  5
2AD
100
AcDbEntity
  8
0
100
AcDbLine
 62
4
  6
CONTINUOUS
 10
9.423249258
 20
6.6113276649
 11
9.423249258
 21
6.4954165615
  0
LINE
  5
2AE
100
AcDbEntity
  8
0
100
AcDbLine
 62
4
  6
CONTINUOUS
 10
11.1112047341
 20
6.494267555
 11
11.125693622
 21
6.4836034909
  0
LINE
  5
2AF
100
AcDbEntity
  8
0
100
AcDbLine
 62
7
  6
CONTINUOUS
 10
9.5799629252
 20
10.1725593386
 11
9.5799629252
 21
10.5569627799
  0
LINE
  5
2B0
100
AcDbEntity
  8
0
100
AcDbLine
 62
7
  6
CONTINUOUS
 10
9.6338837338
 20
10.1688199178
 11
9.6338837338
 21
10.5532233591
  0
LINE
  5
2B1
100
AcDbEntity
  8
0
100
AcDbLine
 62
4
  6
CONTINUOUS
 10
9.6840492407
 20
6.5739226051
 11
9.6840492407
 21
6.5546040925
  0
LINE
  5
2B2
100
AcDbEntity
  8
0
100
AcDbLine
 62
4
  6
CONTINUOUS
 10
9.8096196082
 20
8.3231993141
 11
9.8096196082
 21
8.3038808015
  0
LINE
  5
2B3
100
AcDbEntity
  8
0
100
AcDbLine
 62
4
  6
CONTINUOUS
 10
9.6647307289
 20
8.2366548081
 11
9.7009529487
 21
8.3500538921
  0
LINE
  5
2B4
100
AcDbEntity
  8
0
100
AcDbLine
 62
4
  6
CONTINUOUS
 10
9.628508509
 20
8.355077931
 11
9.6647307289
 21
8.2366548081
  0
LINE
  5
2B5
100
AcDbEntity
  8
0
100
AcDbLine
 62
4
  6
CONTINUOUS
 10
9.7589085004
 20
8.2591013333
 11
9.7516640564
 21
8.2306259614
  0
LINE
  5
2B6
100
AcDbEntity
  8
0
100
AcDbLine
 62
4
  6
CONTINUOUS
 10
9.8023751642
 20
8.3333609812
 11
9.8096196082
 21
8.3231993141
  0
LINE
  5
2B7
100
AcDbEntity
  8
0
100
AcDbLine
 62
4
  6
CONTINUOUS
 10
11.125693622
 20
6.4836034909
 11
11.132938066
 21
6.4734418238
  0
LINE
  5
2B8
100
AcDbEntity
  8
0
100
AcDbLine
 62
7
  6
CONTINUOUS
 10
10.1989901414
 20
10.2080102496
 11
10.1989901414
 21
10.5924136909
  0
LINE
  5
2B9
100
AcDbEntity
  8
0
100
AcDbLine
 62
7
  6
CONTINUOUS
 10
10.2384629019
 20
10.2182265478
 11
10.2384629019
 21
10.6026299892
  0
LINE
  5
2BA
100
AcDbEntity
  8
0
100
AcDbLine
 62
4
  6
CONTINUOUS
 10
9.633338133
 20
6.5098246244
 11
9.626093689
 21
6.4813492524
  0
LINE
  5
2BB
100
AcDbEntity
  8
0
100
AcDbLine
 62
4
  6
CONTINUOUS
 10
9.7516640564
 20
8.3272185453
 11
9.7589085004
 21
8.3363754046
  0
LINE
  5
2BC
100
AcDbEntity
  8
0
100
AcDbLine
 62
4
  6
CONTINUOUS
 10
9.7733973883
 20
8.2774150416
 11
9.7589085004
 21
8.2591013333
  0
LINE
  5
2BD
100
AcDbEntity
  8
0
100
AcDbLine
 62
4
  6
CONTINUOUS
 10
9.8096196082
 20
8.3038808015
 11
9.8023751642
 21
8.2947239421
  0
LINE
  5
2BE
100
AcDbEntity
  8
0
100
AcDbLine
 62
7
  6
CONTINUOUS
 10
12.1792579555
 20
10.0769008578
 11
12.2135341838
 21
10.0938326583
  0
LINE
  5
2BF
100
AcDbEntity
  8
0
100
AcDbLine
 62
4
  6
CONTINUOUS
 10
9.7878862763
 20
8.3440250453
 11
9.8023751642
 21
8.3333609812
  0
LINE
  5
2C0
100
AcDbEntity
  8
0
100
AcDbLine
 62
7
  6
CONTINUOUS
 10
10.3088553752
 20
10.1119111312
 11
10.3088553752
 21
10.2466785082
  0
LINE
  5
2C1
100
AcDbEntity
  8
0
100
AcDbLine
 62
7
  6
CONTINUOUS
 10
10.3898825915
 20
10.3644867453
 11
10.3898825915
 21
10.7488901866
  0
LINE
  5
2C2
100
AcDbEntity
  8
0
100
AcDbLine
 62
4
  6
CONTINUOUS
 10
9.7347603485
 20
6.473813194
 11
9.7709825683
 21
6.5872122779
  0
LINE
  5
2C3
100
AcDbEntity
  8
0
100
AcDbLine
 62
4
  6
CONTINUOUS
 10
9.7589085004
 20
8.3363754046
 11
9.7733973883
 21
8.3450298531
  0
LINE
  5
2C4
100
AcDbEntity
  8
0
100
AcDbLine
 62
4
  6
CONTINUOUS
 10
9.8023751642
 20
8.2947239421
 11
9.7733973883
 21
8.2774150416
  0
LINE
  5
2C5
100
AcDbEntity
  8
0
100
AcDbLine
 62
4
  6
CONTINUOUS
 10
9.7516640564
 20
8.2306259614
 11
9.8096196082
 21
8.2266067302
  0
LINE
  5
2C6
100
AcDbEntity
  8
0
100
AcDbLine
 62
4
  6
CONTINUOUS
 10
9.7733973883
 20
8.3450298531
 11
9.7878862763
 21
8.3440250453
  0
LINE
  5
2C7
100
AcDbEntity
  8
0
100
AcDbLine
 62
4
  6
CONTINUOUS
 10
11.2198713936
 20
6.4867314966
 11
11.2560936134
 21
6.3683083737
  0
LINE
  5
2C8
100
AcDbEntity
  8
0
100
AcDbLine
 62
4
  6
CONTINUOUS
 10
10.8721380833
 20
6.5108468836
 11
10.8721380833
 21
6.3949357802
  0
LINE
  5
2C9
100
AcDbEntity
  8
0
100
AcDbLine
 62
4
  6
CONTINUOUS
 10
10.9566565989
 20
8.2629705482
 11
10.9928788187
 21
8.1445474252
  0
LINE
  5
2CA
100
AcDbEntity
  8
0
100
AcDbLine
 62
7
  6
CONTINUOUS
 10
11.083679926
 20
10.1596105481
 11
11.083679926
 21
10.5440139895
  0
LINE
  5
2CB
100
AcDbEntity
  8
0
100
AcDbLine
 62
7
  6
CONTINUOUS
 10
11.0981279742
 20
10.1456548291
 11
11.0981279742
 21
10.5300582704
  0
LINE
  5
2CC
100
AcDbEntity
  8
0
100
AcDbLine
 62
4
  6
CONTINUOUS
 10
11.1087899221
 20
8.2524200664
 11
11.1087899221
 21
8.1365089629
  0
LINE
  5
2CD
100
AcDbEntity
  8
0
100
AcDbLine
 62
4
  6
CONTINUOUS
 10
11.132938066
 20
6.4734418238
 11
11.132938066
 21
6.4541233112
  0
LINE
  5
2CE
100
AcDbEntity
  8
0
100
AcDbLine
 62
7
  6
CONTINUOUS
 10
11.1647071422
 20
9.9779367852
 11
11.1647071422
 21
10.1077040578
  0
LINE
  5
2CF
100
AcDbEntity
  8
0
100
AcDbLine
 62
4
  6
CONTINUOUS
 10
10.9928788187
 20
8.1445474252
 11
11.0291010385
 21
8.2579465092
  0
LINE
  5
2D0
100
AcDbEntity
  8
0
100
AcDbLine
 62
4
  6
CONTINUOUS
 10
9.626093689
 20
6.5779418363
 11
9.633338133
 21
6.5870986956
  0
LINE
  5
2D1
100
AcDbEntity
  8
0
100
AcDbLine
 62
4
  6
CONTINUOUS
 10
9.6478270209
 20
6.5281383327
 11
9.633338133
 21
6.5098246244
  0
LINE
  5
2D2
100
AcDbEntity
  8
0
100
AcDbLine
 62
4
  6
CONTINUOUS
 10
9.6840492407
 20
6.5546040925
 11
9.6768047967
 21
6.5454472332
  0
LINE
  5
2D3
100
AcDbEntity
  8
0
100
AcDbLine
 62
7
  6
CONTINUOUS
 10
13.5788988458
 20
10.8021361778
 11
12.2848046883
 21
9.5521371353
  0
LINE
  5
2D4
100
AcDbEntity
  8
0
100
AcDbLine
 62
7
  6
CONTINUOUS
 10
11.3287071422
 20
8.9076204914
 11
11.3287071422
 21
9.0568698364
  0
LINE
  5
2D5
100
AcDbEntity
  8
0
100
AcDbLine
 62
7
  6
CONTINUOUS
 10
11.5118146922
 20
10.0385849635
 11
11.5118146922
 21
10.4229884048
  0
LINE
  5
2D6
100
AcDbEntity
  8
0
100
AcDbLine
 62
4
  6
CONTINUOUS
 10
13.0749416024
 20
8.7264027554
 11
13.0660678183
 21
8.7233509137
  0
LINE
  5
2D7
100
AcDbEntity
  8
0
100
AcDbLine
 62
4
  6
CONTINUOUS
 10
12.9318517651
 20
8.3293204457
 11
12.9340702111
 21
8.3287035087
  0
LINE
  5
2D8
100
AcDbEntity
  8
0
100
AcDbLine
 62
7
  6
CONTINUOUS
 10
11.5657355009
 20
10.0348455427
 11
11.5657355009
 21
10.419248984
  0
LINE
  5
2D9
100
AcDbEntity
  8
0
100
AcDbLine
 62
4
  6
CONTINUOUS
 10
11.0822269582
 20
6.4093438431
 11
11.0749825143
 21
6.3808684711
  0
LINE
  5
2DA
100
AcDbEntity
  8
0
100
AcDbLine
 62
4
  6
CONTINUOUS
 10
12.8028121009
 20
7.8834383508
 11
12.8146438189
 21
7.8727886076
  0
LINE
  5
2DB
100
AcDbEntity
  8
0
100
AcDbLine
 62
4
  6
CONTINUOUS
 10
11.1836491737
 20
6.3733324127
 11
11.2198713936
 21
6.4867314966
  0
LINE
  5
2DC
100
AcDbEntity
  8
0
100
AcDbLine
 62
4
  6
CONTINUOUS
 10
9.633338133
 20
6.5870986956
 11
9.6478270209
 21
6.5957531442
  0
LINE
  5
2DD
100
AcDbEntity
  8
0
100
AcDbLine
 62
4
  6
CONTINUOUS
 10
9.6768047967
 20
6.5454472332
 11
9.6478270209
 21
6.5281383327
  0
LINE
  5
2DE
100
AcDbEntity
  8
0
100
AcDbLine
 62
7
  6
CONTINUOUS
 10
9.2943045619
 20
10.2108752329
 11
9.2485721902
 21
10.2334661489
  0
LINE
  5
2DF
100
AcDbEntity
  8
0
100
AcDbLine
 62
7
  6
CONTINUOUS
 10
12.1308419085
 20
10.0740358745
 11
12.1308419085
 21
10.4584393158
  0
LINE
  5
2E0
100
AcDbEntity
  8
0
100
AcDbLine
 62
7
  6
CONTINUOUS
 10
12.1703146689
 20
10.0842521728
 11
12.1703146689
 21
10.4686556141
  0
LINE
  5
2E1
100
AcDbEntity
  8
0
100
AcDbLine
 62
7
  6
CONTINUOUS
 10
12.2407071422
 20
9.9779367561
 11
12.2407071422
 21
10.1127041331
  0
LINE
  5
2E2
100
AcDbEntity
  8
0
100
AcDbLine
 62
4
  6
CONTINUOUS
 10
12.7909803809
 20
8.5293913294
 11
12.7998541692
 21
8.5379627512
  0
LINE
  5
2E3
100
AcDbEntity
  8
0
100
AcDbLine
 62
4
  6
CONTINUOUS
 10
13.0320516263
 20
8.7622482851
 11
13.0327911058
 21
8.7629625675
  0
LINE
  5
2E4
100
AcDbEntity
  8
0
100
AcDbLine
 62
7
  6
CONTINUOUS
 10
12.2848046883
 20
9.5521371353
 11
8.4211011542
 21
9.8200858855
  0
LINE
  5
2E5
100
AcDbEntity
  8
0
100
AcDbLine
 62
4
  6
CONTINUOUS
 10
13.0490597202
 20
8.1433736075
 11
13.0608914373
 21
8.1327238617
  0
LINE
  5
2E6
100
AcDbEntity
  8
0
100
AcDbLine
 62
7
  6
CONTINUOUS
 10
12.2848046883
 20
9.5521371353
 11
12.2848046883
 21
5.9299150721
  0
LINE
  5
2E7
100
AcDbEntity
  8
0
100
AcDbLine
 62
7
  6
CONTINUOUS
 10
12.3217343585
 20
10.2305123702
 11
12.3217343585
 21
10.6149158115
  0
LINE
  5
2E8
100
AcDbEntity
  8
0
100
AcDbLine
 62
4
  6
CONTINUOUS
 10
11.0749825143
 20
6.477461055
 11
11.0822269582
 21
6.4866179143
  0
LINE
  5
2E9
100
AcDbEntity
  8
0
100
AcDbLine
 62
4
  6
CONTINUOUS
 10
11.0967158462
 20
6.4276575514
 11
11.0822269582
 21
6.4093438431
  0
LINE
  5
2EA
100
AcDbEntity
  8
0
100
AcDbLine
 62
4
  6
CONTINUOUS
 10
11.132938066
 20
6.4541233112
 11
11.125693622
 21
6.4449664519
  0
LINE
  5
2EB
100
AcDbEntity
  8
0
100
AcDbLine
 62
4
  6
CONTINUOUS
 10
12.978808907
 20
8.6777023083
 11
12.9677166695
 21
8.666988029
  0
LINE
  5
2EC
100
AcDbEntity
  8
0
100
AcDbLine
 62
4
  6
CONTINUOUS
 10
12.8841551559
 20
8.5862738001
 11
12.8952473934
 21
8.5969880794
  0
LINE
  5
2ED
100
AcDbEntity
  8
0
100
AcDbLine
 62
4
  6
CONTINUOUS
 10
12.930003065
 20
8.6305594822
 11
12.938876849
 21
8.6391308999
  0
LINE
  5
2EE
100
AcDbEntity
  8
0
100
AcDbLine
 62
4
  6
CONTINUOUS
 10
12.9477506479
 20
8.6477023319
 11
12.956624432
 21
8.6562737496
  0
LINE
  5
2EF
100
AcDbEntity
  8
0
100
AcDbLine
 62
4
  6
CONTINUOUS
 10
13.0461017819
 20
8.742702238
 11
13.0549755956
 21
8.7512736843
  0
LINE
  5
2F0
100
AcDbEntity
  8
0
100
AcDbLine
 62
4
  6
CONTINUOUS
 10
13.0660678183
 20
8.7619879493
 11
13.0749416024
 21
8.770559367
  0
LINE
  5
2F1
100
AcDbEntity
  8
0
100
AcDbLine
 62
4
  6
CONTINUOUS
 10
12.9721535615
 20
8.6298769142
 11
12.9810273456
 21
8.6384483319
  0
LINE
  5
2F2
100
AcDbEntity
  8
0
100
AcDbLine
 62
4
  6
CONTINUOUS
 10
13.0549755956
 20
8.668480037
 11
13.0461017819
 21
8.6599085907
  0
LINE
  5
2F3
100
AcDbEntity
  8
0
100
AcDbLine
 62
4
  6
CONTINUOUS
 10
13.0187409502
 20
8.6334800551
 11
13.0143040581
 21
8.6291943462
  0
LINE
  5
2F4
100
AcDbEntity
  8
0
100
AcDbLine
 62
4
  6
CONTINUOUS
 10
12.9810273456
 20
8.5970515083
 11
12.9721535615
 21
8.5884800905
  0
LINE
  5
2F5
100
AcDbEntity
  8
0
100
AcDbLine
 62
4
  6
CONTINUOUS
 10
12.938876849
 20
8.5563372526
 11
12.930003065
 21
8.5477658349
  0
LINE
  5
2F6
100
AcDbEntity
  8
0
100
AcDbLine
 62
4
  6
CONTINUOUS
 10
12.7887619337
 20
8.4113373704
 11
12.7976357222
 21
8.4199087924
  0
LINE
  5
2F7
100
AcDbEntity
  8
0
100
AcDbLine
 62
4
  6
CONTINUOUS
 10
12.8153832978
 20
8.437051635
 11
12.8220386414
 21
8.4434802037
  0
LINE
  5
2F8
100
AcDbEntity
  8
0
100
AcDbLine
 62
4
  6
CONTINUOUS
 10
12.9921195831
 20
8.6077657876
 11
13.0032118206
 21
8.6184800669
  0
LINE
  5
2F9
100
AcDbEntity
  8
0
100
AcDbLine
 62
4
  6
CONTINUOUS
 10
13.0660678183
 20
8.679194302
 11
13.0749416024
 21
8.6877657197
  0
LINE
  5
2FA
100
AcDbEntity
  8
0
100
AcDbLine
 62
4
  6
CONTINUOUS
 10
12.9063396309
 20
8.4973108296
 11
12.9107765229
 21
8.5015965384
  0
LINE
  5
2FB
100
AcDbEntity
  8
0
100
AcDbLine
 62
4
  6
CONTINUOUS
 10
12.9251964234
 20
8.3228918788
 11
12.9318517651
 21
8.3293204457
  0
LINE
  5
2FC
100
AcDbEntity
  8
0
100
AcDbLine
 62
4
  6
CONTINUOUS
 10
12.9540362364
 20
8.3507490007
 11
12.9629100242
 21
8.359320422
  0
LINE
  5
2FD
100
AcDbEntity
  8
0
100
AcDbLine
 62
4
  6
CONTINUOUS
 10
12.930003065
 20
8.5477658349
 11
12.9255661729
 21
8.5517594909
  0
LINE
  5
2FE
100
AcDbEntity
  8
0
100
AcDbLine
 62
4
  6
CONTINUOUS
 10
12.9721535615
 20
8.5884800905
 11
12.9677166695
 21
8.5924737466
  0
LINE
  5
2FF
100
AcDbEntity
  8
0
100
AcDbLine
 62
4
  6
CONTINUOUS
 10
12.9251964234
 20
8.2649363271
 11
12.9362886609
 21
8.2756506064
  0
LINE
  5
300
100
AcDbEntity
  8
0
100
AcDbLine
 62
4
  6
CONTINUOUS
 10
12.9163226356
 20
8.2232474479
 11
12.900793506
 21
8.2082474598
  0
LINE
  5
301
100
AcDbEntity
  8
0
100
AcDbLine
 62
4
  6
CONTINUOUS
 10
12.9629100242
 20
8.2434093186
 11
12.9540362364
 21
8.2348378973
  0
LINE
  5
302
100
AcDbEntity
  8
0
100
AcDbLine
 62
4
  6
CONTINUOUS
 10
12.9362886609
 20
8.2176950547
 11
12.9251964234
 21
8.2069807754
  0
LINE
  5
303
100
AcDbEntity
  8
0
100
AcDbLine
 62
4
  6
CONTINUOUS
 10
12.8205596784
 20
7.9668161109
 11
12.8316519122
 21
7.9775303867
  0
LINE
  5
304
100
AcDbEntity
  8
0
100
AcDbLine
 62
4
  6
CONTINUOUS
 10
12.8752813697
 20
8.019673209
 11
12.8930289452
 21
8.0368160516
  0
LINE
  5
305
100
AcDbEntity
  8
0
100
AcDbLine
 62
4
  6
CONTINUOUS
 10
12.9019027367
 20
8.0453874764
 11
12.9152134202
 21
8.0582446102
  0
LINE
  5
306
100
AcDbEntity
  8
0
100
AcDbLine
 62
4
  6
CONTINUOUS
 10
12.9529270248
 20
8.094673157
 11
12.9618008089
 21
8.1032445747
  0
LINE
  5
307
100
AcDbEntity
  8
0
100
AcDbLine
 62
4
  6
CONTINUOUS
 10
12.9788088975
 20
8.1196731277
 11
12.985464243
 21
8.1261016982
  0
LINE
  5
308
100
AcDbEntity
  8
0
100
AcDbLine
 62
4
  6
CONTINUOUS
 10
12.9987749191
 20
8.1389588248
 11
13.0098671566
 21
8.1496731041
  0
LINE
  5
309
100
AcDbEntity
  8
0
100
AcDbLine
 62
4
  6
CONTINUOUS
 10
13.02687526
 20
8.1661016714
 11
13.0401859361
 21
8.178958798
  0
LINE
  5
30A
100
AcDbEntity
  8
0
100
AcDbLine
 62
4
  6
CONTINUOUS
 10
13.0357490441
 20
8.1249969049
 11
13.02687526
 21
8.1164254872
  0
LINE
  5
30B
100
AcDbEntity
  8
0
100
AcDbLine
 62
4
  6
CONTINUOUS
 10
12.9107765282
 20
8.0042827171
 11
12.9019027367
 21
7.9957112922
  0
LINE
  5
30C
100
AcDbEntity
  8
0
100
AcDbLine
 62
4
  6
CONTINUOUS
 10
12.8516179356
 20
7.9140224416
 11
12.8634496526
 21
7.9254510034
  0
LINE
  5
30D
100
AcDbEntity
  8
0
100
AcDbLine
 62
7
  6
CONTINUOUS
 10
11.226156329
 20
10.0769008578
 11
11.1804239573
 21
10.0994917738
  0
LINE
  5
30E
100
AcDbEntity
  8
0
100
AcDbLine
 62
4
  6
CONTINUOUS
 10
12.9340702111
 20
8.3287035087
 11
12.9385071069
 21
8.3191902845
  0
LINE
  5
30F
100
AcDbEntity
  8
0
100
AcDbLine
 62
4
  6
CONTINUOUS
 10
12.8020726161
 20
8.4573119627
 11
12.7865434866
 21
8.4919881622
  0
LINE
  5
310
100
AcDbEntity
  8
0
100
AcDbLine
 62
4
  6
CONTINUOUS
 10
12.8316519122
 20
7.9775303867
 11
12.836088806
 21
7.9652573692
  0
LINE
  5
311
100
AcDbEntity
  8
0
100
AcDbLine
 62
4
  6
CONTINUOUS
 10
12.7865434866
 20
8.4174738798
 11
12.7887619337
 21
8.4113373704
  0
LINE
  5
312
100
AcDbEntity
  8
0
100
AcDbLine
 62
4
  6
CONTINUOUS
 10
12.9529270248
 20
7.9787620535
 11
12.9484901328
 21
7.9910350745
  0
LINE
  5
313
100
AcDbEntity
  8
0
100
AcDbLine
 62
4
  6
CONTINUOUS
 10
12.8109464039
 20
8.4493246542
 11
12.8153832978
 21
8.437051635
  0
LINE
  5
314
100
AcDbEntity
  8
0
100
AcDbLine
 62
4
  6
CONTINUOUS
 10
12.9788088975
 20
8.0037620243
 11
12.9743720055
 21
8.0160350452
  0
LINE
  5
315
100
AcDbEntity
  8
0
100
AcDbLine
 62
4
  6
CONTINUOUS
 10
12.7998541692
 20
8.5379627512
 11
12.8020726161
 21
8.531826239
  0
LINE
  5
316
100
AcDbEntity
  8
0
100
AcDbLine
 62
4
  6
CONTINUOUS
 10
12.9063396309
 20
8.6077023587
 11
12.9129949763
 21
8.5313372819
  0
LINE
  5
317
100
AcDbEntity
  8
0
100
AcDbLine
 62
4
  6
CONTINUOUS
 10
12.8575337941
 20
8.0025303663
 11
12.8664075856
 21
7.8951906878
  0
LINE
  5
318
100
AcDbEntity
  8
0
100
AcDbLine
 62
4
  6
CONTINUOUS
 10
12.7865434866
 20
8.4919881622
 11
12.7865434866
 21
8.5085468902
  0
LINE
  5
319
100
AcDbEntity
  8
0
100
AcDbLine
 62
4
  6
CONTINUOUS
 10
12.8020726161
 20
8.4407532328
 11
12.8020726161
 21
8.4573119627
  0
LINE
  5
31A
100
AcDbEntity
  8
0
100
AcDbLine
 62
4
  6
CONTINUOUS
 10
12.8109464039
 20
8.5486770278
 11
12.8109464039
 21
8.4493246542
  0
LINE
  5
31B
100
AcDbEntity
  8
0
100
AcDbLine
 62
4
  6
CONTINUOUS
 10
12.8205596784
 20
7.8509050075
 11
12.8205596784
 21
7.9668161109
  0
LINE
  5
31C
100
AcDbEntity
  8
0
100
AcDbLine
 62
4
  6
CONTINUOUS
 10
12.8264755334
 20
8.4643246423
 11
12.8264755334
 21
8.563677016
  0
LINE
  5
31D
100
AcDbEntity
  8
0
100
AcDbLine
 62
4
  6
CONTINUOUS
 10
12.8353493212
 20
8.4563373338
 11
12.8353493212
 21
8.5722484373
  0
LINE
  5
31E
100
AcDbEntity
  8
0
100
AcDbLine
 62
4
  6
CONTINUOUS
 10
12.836088806
 20
7.9652573692
 11
12.836088806
 21
7.8824637237
  0
LINE
  5
31F
100
AcDbEntity
  8
0
100
AcDbLine
 62
4
  6
CONTINUOUS
 10
12.8508784508
 20
8.471337322
 11
12.8508784508
 21
8.5872484254
  0
LINE
  5
320
100
AcDbEntity
  8
0
100
AcDbLine
 62
4
  6
CONTINUOUS
 10
12.8841551612
 20
7.9123335304
 11
12.8841551612
 21
8.0282446338
  0
LINE
  5
321
100
AcDbEntity
  8
0
100
AcDbLine
 62
4
  6
CONTINUOUS
 10
12.8841551559
 20
8.5034801528
 11
12.8841551559
 21
8.6193912562
  0
LINE
  5
322
100
AcDbEntity
  8
0
100
AcDbLine
 62
4
  6
CONTINUOUS
 10
12.8974658394
 20
8.5908515663
 11
12.8974658394
 21
8.5163372865
  0
LINE
  5
323
100
AcDbEntity
  8
0
100
AcDbLine
 62
4
  6
CONTINUOUS
 10
12.9019027367
 20
7.929476373
 11
12.9019027367
 21
8.0453874764
  0
LINE
  5
324
100
AcDbEntity
  8
0
100
AcDbLine
 62
4
  6
CONTINUOUS
 10
12.9111462594
 20
8.1934093583
 11
12.9111462594
 21
8.25136491
  0
LINE
  5
325
100
AcDbEntity
  8
0
100
AcDbLine
 62
4
  6
CONTINUOUS
 10
12.9251964234
 20
8.2069807754
 11
12.9251964234
 21
8.3228918788
  0
LINE
  5
326
100
AcDbEntity
  8
0
100
AcDbLine
 62
4
  6
CONTINUOUS
 10
12.9255661729
 20
8.5517594909
 11
12.9255661729
 21
8.6179944058
  0
LINE
  5
327
100
AcDbEntity
  8
0
100
AcDbLine
 62
4
  6
CONTINUOUS
 10
12.9385071069
 20
8.3191902845
 11
12.9385071069
 21
8.2943521889
  0
LINE
  5
328
100
AcDbEntity
  8
0
100
AcDbLine
 62
4
  6
CONTINUOUS
 10
12.938876849
 20
8.672248356
 11
12.938876849
 21
8.5563372526
  0
LINE
  5
329
100
AcDbEntity
  8
0
100
AcDbLine
 62
4
  6
CONTINUOUS
 10
12.9407255529
 20
8.2633775872
 11
12.9407255529
 21
8.2385394934
  0
LINE
  5
32A
100
AcDbEntity
  8
0
100
AcDbLine
 62
4
  6
CONTINUOUS
 10
12.9477506479
 20
8.5649086846
 11
12.9477506479
 21
8.6477023319
  0
LINE
  5
32B
100
AcDbEntity
  8
0
100
AcDbLine
 62
4
  6
CONTINUOUS
 10
12.9484901328
 20
7.9910350745
 11
12.9484901328
 21
8.07382872
  0
LINE
  5
32C
100
AcDbEntity
  8
0
100
AcDbLine
 62
4
  6
CONTINUOUS
 10
12.9495993407
 20
8.2471109147
 11
12.9495993407
 21
8.3299045602
  0
LINE
  5
32D
100
AcDbEntity
  8
0
100
AcDbLine
 62
4
  6
CONTINUOUS
 10
12.9581033911
 20
8.649422947
 11
12.9581033911
 21
8.6328642189
  0
LINE
  5
32E
100
AcDbEntity
  8
0
100
AcDbLine
 62
4
  6
CONTINUOUS
 10
12.9677166695
 20
8.5924737466
 11
12.9677166695
 21
8.6173118413
  0
LINE
  5
32F
100
AcDbEntity
  8
0
100
AcDbLine
 62
4
  6
CONTINUOUS
 10
12.9743720055
 20
8.0160350452
 11
12.9743720055
 21
8.0988286908
  0
LINE
  5
330
100
AcDbEntity
  8
0
100
AcDbLine
 62
4
  6
CONTINUOUS
 10
12.900793506
 20
8.2082474598
 11
12.9074488473
 21
8.3057490358
  0
LINE
  5
331
100
AcDbEntity
  8
0
100
AcDbLine
 62
4
  6
CONTINUOUS
 10
12.8486600063
 20
7.8780478416
 11
12.8575337941
 21
8.0025303663
  0
LINE
  5
332
100
AcDbEntity
  8
0
100
AcDbLine
 62
4
  6
CONTINUOUS
 10
12.9107765229
 20
8.5015965384
 11
12.919650307
 21
8.6205594853
  0
LINE
  5
333
100
AcDbEntity
  8
0
100
AcDbLine
 62
4
  6
CONTINUOUS
 10
12.7865434866
 20
8.5085468902
 11
12.7909803809
 21
8.5293913294
  0
LINE
  5
334
100
AcDbEntity
  8
0
100
AcDbLine
 62
4
  6
CONTINUOUS
 10
12.7976357222
 20
8.4199087924
 11
12.8020726161
 21
8.4407532328
  0
LINE
  5
335
100
AcDbEntity
  8
0
100
AcDbLine
 62
4
  6
CONTINUOUS
 10
12.8220386414
 20
8.4434802037
 11
12.8264755334
 21
8.4643246423
  0
LINE
  5
336
100
AcDbEntity
  8
0
100
AcDbLine
 62
4
  6
CONTINUOUS
 10
12.836088806
 20
7.8824637237
 11
12.8316519122
 21
7.8616192832
  0
LINE
  5
337
100
AcDbEntity
  8
0
100
AcDbLine
 62
4
  6
CONTINUOUS
 10
12.9385071069
 20
8.2943521889
 11
12.9340702111
 21
8.2735077484
  0
LINE
  5
338
100
AcDbEntity
  8
0
100
AcDbLine
 62
4
  6
CONTINUOUS
 10
12.9495993407
 20
8.3299045602
 11
12.9540362364
 21
8.3507490007
  0
LINE
  5
339
100
AcDbEntity
  8
0
100
AcDbLine
 62
4
  6
CONTINUOUS
 10
13.0438833433
 20
8.7322800232
 11
13.0461017819
 21
8.742702238
  0
LINE
  5
33A
100
AcDbEntity
  8
0
100
AcDbLine
 62
4
  6
CONTINUOUS
 10
12.9407255529
 20
8.2385394934
 11
12.9362886609
 21
8.2176950547
  0
LINE
  5
33B
100
AcDbEntity
  8
0
100
AcDbLine
 62
4
  6
CONTINUOUS
 10
13.0638493797
 20
8.7515657345
 11
13.0660678183
 21
8.7619879493
  0
LINE
  5
33C
100
AcDbEntity
  8
0
100
AcDbLine
 62
4
  6
CONTINUOUS
 10
12.9255661729
 20
8.6179944058
 11
12.930003065
 21
8.6305594822
  0
LINE
  5
33D
100
AcDbEntity
  8
0
100
AcDbLine
 62
4
  6
CONTINUOUS
 10
12.9677166695
 20
8.6173118413
 11
12.9721535615
 21
8.6298769142
  0
LINE
  5
33E
100
AcDbEntity
  8
0
100
AcDbLine
 62
4
  6
CONTINUOUS
 10
12.8146438189
 20
7.916945221
 11
12.8028121009
 21
7.8834383508
  0
LINE
  5
33F
100
AcDbEntity
  8
0
100
AcDbLine
 62
4
  6
CONTINUOUS
 10
13.0098671566
 20
8.0337620006
 11
12.9987749191
 21
8.0230477213
  0
LINE
  5
340
100
AcDbEntity
  8
0
100
AcDbLine
 62
4
  6
CONTINUOUS
 10
12.985464243
 20
8.0101905947
 11
12.9788088975
 21
8.0037620243
  0
LINE
  5
341
100
AcDbEntity
  8
0
100
AcDbLine
 62
4
  6
CONTINUOUS
 10
12.9618008089
 20
7.9873334713
 11
12.9529270248
 21
7.9787620535
  0
LINE
  5
342
100
AcDbEntity
  8
0
100
AcDbLine
 62
4
  6
CONTINUOUS
 10
12.8316519122
 20
7.8616192832
 11
12.8205596784
 21
7.8509050075
  0
LINE
  5
343
100
AcDbEntity
  8
0
100
AcDbLine
 62
4
  6
CONTINUOUS
 10
12.9019027367
 20
7.929476373
 11
12.9152134202
 21
7.9423335067
  0
LINE
  5
344
100
AcDbEntity
  8
0
100
AcDbLine
 62
4
  6
CONTINUOUS
 10
13.02687526
 20
8.050190568
 11
13.0401859361
 21
8.0630476946
  0
LINE
  5
345
100
AcDbEntity
  8
0
100
AcDbLine
 62
4
  6
CONTINUOUS
 10
11.0822269582
 20
6.4866179143
 11
11.0967158462
 21
6.4952723628
  0
LINE
  5
346
100
AcDbEntity
  8
0
100
AcDbLine
 62
4
  6
CONTINUOUS
 10
11.125693622
 20
6.4449664519
 11
11.0967158462
 21
6.4276575514
  0
LINE
  5
347
100
AcDbEntity
  8
0
100
AcDbLine
 62
7
  6
CONTINUOUS
 10
10.2931385602
 20
10.8090089609
 11
10.2624644856
 21
10.8241613665
  0
LINE
  5
348
100
AcDbEntity
  8
0
100
AcDbLine
 62
4
  6
CONTINUOUS
 10
13.0660678183
 20
8.7233509137
 11
13.0638493797
 21
8.7267276424
  0
LINE
  5
349
100
AcDbEntity
  8
0
100
AcDbLine
 62
4
  6
CONTINUOUS
 10
13.077160041
 20
8.7230260266
 11
13.0749416024
 21
8.7264027554
  0
LINE
  5
34A
100
AcDbEntity
  8
0
100
AcDbLine
 62
4
  6
CONTINUOUS
 10
12.985464243
 20
8.1261016982
 11
12.989901135
 21
8.113828679
  0
LINE
  5
34B
100
AcDbEntity
  8
0
100
AcDbLine
 62
4
  6
CONTINUOUS
 10
12.9362886609
 20
8.2756506064
 11
12.9407255529
 21
8.2633775872
  0
LINE
  5
34C
100
AcDbEntity
  8
0
100
AcDbLine
 62
4
  6
CONTINUOUS
 10
12.9540362364
 20
8.2348378973
 11
12.9495993407
 21
8.2471109147
  0
LINE
  5
34D
100
AcDbEntity
  8
0
100
AcDbLine
 62
4
  6
CONTINUOUS
 10
13.0098671566
 20
8.1496731041
 11
13.0143040486
 21
8.1374000849
  0
LINE
  5
34E
100
AcDbEntity
  8
0
100
AcDbLine
 62
4
  6
CONTINUOUS
 10
12.8952473934
 20
8.5969880794
 11
12.8974658394
 21
8.5908515663
  0
LINE
  5
34F
100
AcDbEntity
  8
0
100
AcDbLine
 62
4
  6
CONTINUOUS
 10
12.9899011297
 20
8.6139022909
 11
12.9921195831
 21
8.6077657876
  0
LINE
  5
350
100
AcDbEntity
  8
0
100
AcDbLine
 62
4
  6
CONTINUOUS
 10
13.0143040581
 20
8.6291943462
 11
13.0120856047
 21
8.6353308495
  0
LINE
  5
351
100
AcDbEntity
  8
0
100
AcDbLine
 62
4
  6
CONTINUOUS
 10
12.956624432
 20
8.6562737496
 11
12.9581033911
 21
8.649422947
  0
LINE
  5
352
100
AcDbEntity
  8
0
100
AcDbLine
 62
4
  6
CONTINUOUS
 10
12.8353493212
 20
8.5722484373
 11
12.8508784508
 21
8.471337322
  0
LINE
  5
353
100
AcDbEntity
  8
0
100
AcDbLine
 62
4
  6
CONTINUOUS
 10
12.9810273456
 20
8.5970515083
 11
12.9810273456
 21
8.6632864275
  0
LINE
  5
354
100
AcDbEntity
  8
0
100
AcDbLine
 62
4
  6
CONTINUOUS
 10
12.9899011297
 20
8.6884165733
 11
12.9899011297
 21
8.6139022909
  0
LINE
  5
355
100
AcDbEntity
  8
0
100
AcDbLine
 62
4
  6
CONTINUOUS
 10
12.989901135
 20
8.113828679
 11
12.989901135
 21
8.0310350334
  0
LINE
  5
356
100
AcDbEntity
  8
0
100
AcDbLine
 62
4
  6
CONTINUOUS
 10
12.9987749191
 20
8.0230477213
 11
12.9987749191
 21
8.1389588248
  0
LINE
  5
357
100
AcDbEntity
  8
0
100
AcDbLine
 62
4
  6
CONTINUOUS
 10
13.0032118206
 20
8.6184800669
 11
13.0032118206
 21
8.7012737142
  0
LINE
  5
358
100
AcDbEntity
  8
0
100
AcDbLine
 62
4
  6
CONTINUOUS
 10
13.0120856047
 20
8.6353308495
 11
13.0120856047
 21
8.742962588
  0
LINE
  5
359
100
AcDbEntity
  8
0
100
AcDbLine
 62
4
  6
CONTINUOUS
 10
13.0143040486
 20
8.1374000849
 11
13.0143040486
 21
8.0546064393
  0
LINE
  5
35A
100
AcDbEntity
  8
0
100
AcDbLine
 62
4
  6
CONTINUOUS
 10
13.02687526
 20
8.050190568
 11
13.02687526
 21
8.1661016714
  0
LINE
  5
35B
100
AcDbEntity
  8
0
100
AcDbLine
 62
4
  6
CONTINUOUS
 10
13.0320516263
 20
8.6463371817
 11
13.0320516263
 21
8.7291308289
  0
LINE
  5
35C
100
AcDbEntity
  8
0
100
AcDbLine
 62
4
  6
CONTINUOUS
 10
13.0320516263
 20
8.7539689176
 11
13.0320516263
 21
8.7622482851
  0
LINE
  5
35D
100
AcDbEntity
  8
0
100
AcDbLine
 62
4
  6
CONTINUOUS
 10
13.0438833433
 20
8.6660451083
 11
13.0438833433
 21
8.7322800232
  0
LINE
  5
35E
100
AcDbEntity
  8
0
100
AcDbLine
 62
4
  6
CONTINUOUS
 10
13.0638493797
 20
8.7267276424
 11
13.0638493797
 21
8.7515657345
  0
LINE
  5
35F
100
AcDbEntity
  8
0
100
AcDbLine
 62
4
  6
CONTINUOUS
 10
13.077160041
 20
8.6981879319
 11
13.077160041
 21
8.7230260266
  0
LINE
  5
360
100
AcDbEntity
  8
0
100
AcDbLine
 62
4
  6
CONTINUOUS
 10
13.0327911058
 20
8.7629625675
 11
13.0320516263
 21
8.7539689176
  0
LINE
  5
361
100
AcDbEntity
  8
0
100
AcDbLine
 62
4
  6
CONTINUOUS
 10
13.0749416024
 20
8.6877657197
 11
13.077160041
 21
8.6981879319
  0
LINE
  5
362
100
AcDbEntity
  8
0
100
AcDbLine
 62
4
  6
CONTINUOUS
 10
12.9484901328
 20
8.07382872
 11
12.9529270248
 21
8.094673157
  0
LINE
  5
363
100
AcDbEntity
  8
0
100
AcDbLine
 62
4
  6
CONTINUOUS
 10
12.9743720055
 20
8.0988286908
 11
12.9788088975
 21
8.1196731277
  0
LINE
  5
364
100
AcDbEntity
  8
0
100
AcDbLine
 62
4
  6
CONTINUOUS
 10
12.989901135
 20
8.0310350334
 11
12.985464243
 21
8.0101905947
  0
LINE
  5
365
100
AcDbEntity
  8
0
100
AcDbLine
 62
4
  6
CONTINUOUS
 10
13.0143040486
 20
8.0546064393
 11
13.0098671566
 21
8.0337620006
  0
LINE
  5
366
100
AcDbEntity
  8
0
100
AcDbLine
 62
4
  6
CONTINUOUS
 10
13.0608914373
 20
8.1327238617
 11
13.0490597202
 21
8.0992169941
  0
LINE
  5
367
100
AcDbEntity
  8
0
100
AcDbLine
 62
4
  6
CONTINUOUS
 10
13.0461017819
 20
8.6599085907
 11
13.0438833433
 21
8.6660451083
  0
LINE
  5
368
100
AcDbEntity
  8
0
100
AcDbLine
 62
4
  6
CONTINUOUS
 10
13.0638493797
 20
8.6853308196
 11
13.0660678183
 21
8.679194302
  0
LINE
  5
369
100
AcDbEntity
  8
0
100
AcDbLine
 62
4
  6
CONTINUOUS
 10
13.0749416024
 20
8.770559367
 11
13.077160041
 21
8.7644228468
  0
LINE
  5
36A
100
AcDbEntity
  8
0
100
AcDbLine
 62
4
  6
CONTINUOUS
 10
12.9810273456
 20
8.6632864275
 11
12.978808907
 21
8.6777023083
  0
LINE
  5
36B
100
AcDbEntity
  8
0
100
AcDbLine
 62
7
  6
CONTINUOUS
 10
13.5788988458
 20
10.8021361778
 11
13.5788988458
 21
7.1799141145
  0
LINE
  5
36C
100
AcDbEntity
  8
0
100
AcDbLine
 62
7
  6
CONTINUOUS
 10
9.7151953117
 20
11.0700849279
 11
13.5788988458
 21
10.8021361778
  0
LINE
  5
36D
100
AcDbEntity
  8
0
100
AcDbLine
 62
7
  6
CONTINUOUS
 10
12.2249903272
 20
10.6750345859
 11
12.1943162526
 21
10.6901869914
  0
LINE
  5
36E
100
AcDbEntity
  8
0
100
AcDbLine
 62
7
  6
CONTINUOUS
 10
13.5788988458
 20
7.1799141145
 11
12.2848046883
 21
5.9299150721
  0
ARC
  5
36F
100
AcDbEntity
  8
0
100
AcDbCircle
 62
7
  6
CONTINUOUS
 10
11.6944404749
 20
12.2839918427
 40
2.252825792
100
AcDbArc
 50
266.0337727607
 51
266.7248824997
  0
ARC
  5
370
100
AcDbEntity
  8
0
100
AcDbCircle
 62
7
  6
CONTINUOUS
 10
9.7625887079
 20
12.4179662177
 40
2.252825792
100
AcDbArc
 50
266.0337727607
 51
266.7248824997
  0
ARC
  5
371
100
AcDbEntity
  8
0
100
AcDbCircle
 62
7
  6
CONTINUOUS
 10
11.6944404749
 20
12.668395284
 40
2.252825792
100
AcDbArc
 50
266.0337727607
 51
266.7248824997
  0
ARC
  5
372
100
AcDbEntity
  8
0
100
AcDbCircle
 62
7
  6
CONTINUOUS
 10
9.7625887079
 20
12.8023696589
 40
2.2528257918
100
AcDbArc
 50
266.0337727607
 51
266.7248824998
  0
ARC
  5
373
100
AcDbEntity
  8
0
100
AcDbCircle
 62
7
  6
CONTINUOUS
 10
9.7583731341
 20
12.3572300109
 40
2.1919434639
100
AcDbArc
 50
265.3313245689
 51
266.0338890315
  0
ARC
  5
374
100
AcDbEntity
  8
0
100
AcDbCircle
 62
7
  6
CONTINUOUS
 10
11.6902249011
 20
12.2232556357
 40
2.1919434638
100
AcDbArc
 50
265.3313245689
 51
266.0338890315
  0
ARC
  5
375
100
AcDbEntity
  8
0
100
AcDbCircle
 62
7
  6
CONTINUOUS
 10
9.7573926761
 20
12.7286465089
 40
2.1789198093
100
AcDbArc
 50
265.329224888
 51
266.0359887124
  0
ARC
  5
376
100
AcDbEntity
  8
0
100
AcDbCircle
 62
7
  6
CONTINUOUS
 10
11.6892444431
 20
12.5946721337
 40
2.1789198092
100
AcDbArc
 50
265.329224888
 51
266.0359887124
  0
ARC
  5
377
100
AcDbEntity
  8
0
100
AcDbCircle
 62
7
  6
CONTINUOUS
 10
9.764885525
 20
10.7523718174
 40
1.6050412899
100
AcDbArc
 50
266.0338428664
 51
266.7147698614
  0
ARC
  5
378
100
AcDbEntity
  8
0
100
AcDbCircle
 62
7
  6
CONTINUOUS
 10
11.6967372921
 20
10.6183974423
 40
1.6050412899
100
AcDbArc
 50
266.0338428664
 51
266.7147698614
  0
ARC
  5
379
100
AcDbEntity
  8
0
100
AcDbCircle
 62
7
  6
CONTINUOUS
 10
9.76547414
 20
10.6899051354
 40
1.5539058789
100
AcDbArc
 50
266.0344191382
 51
266.9033799612
  0
ARC
  5
37A
100
AcDbEntity
  8
0
100
AcDbCircle
 62
7
  6
CONTINUOUS
 10
11.6973259071
 20
10.5559307603
 40
1.5539058789
100
AcDbArc
 50
266.0344191382
 51
266.9033799612
  0
ARC
  5
37B
100
AcDbEntity
  8
0
100
AcDbCircle
 62
7
  6
CONTINUOUS
 10
9.9797907036
 20
11.1362958624
 40
0.9538147475
100
AcDbArc
 50
283.286087793
 51
285.7355389587
  0
ARC
  5
37C
100
AcDbEntity
  8
0
100
AcDbCircle
 62
7
  6
CONTINUOUS
 10
9.9797907036
 20
11.5206993038
 40
0.9538147475
100
AcDbArc
 50
283.286087793
 51
285.7355389587
  0
ARC
  5
37D
100
AcDbEntity
  8
0
100
AcDbCircle
 62
7
  6
CONTINUOUS
 10
11.9116424706
 20
11.0023214873
 40
0.9538147475
100
AcDbArc
 50
283.286087793
 51
285.7355389587
  0
ARC
  5
37E
100
AcDbEntity
  8
0
100
AcDbCircle
 62
7
  6
CONTINUOUS
 10
11.9116424706
 20
11.3867249287
 40
0.9538147475
100
AcDbArc
 50
283.286087793
 51
285.7355389587
  0
ARC
  5
37F
100
AcDbEntity
  8
0
100
AcDbCircle
 62
7
  6
CONTINUOUS
 10
10.1167960697
 20
7.7876367251
 40
0.4482805567
100
AcDbArc
 50
266.0072981247
 51
275.243166178
  0
ARC
  5
380
100
AcDbEntity
  8
0
100
AcDbCircle
 62
7
  6
CONTINUOUS
 10
11.5656848701
 20
7.6871545641
 40
0.4482791787
100
AcDbArc
 50
266.0072890233
 51
275.2435185303
  0
ARC
  5
381
100
AcDbEntity
  8
0
100
AcDbCircle
 62
7
  6
CONTINUOUS
 10
10.1225726725
 20
7.7960726932
 40
0.420168394
100
AcDbArc
 50
266.0114712862
 51
274.449896375
  0
ARC
  5
382
100
AcDbEntity
  8
0
100
AcDbCircle
 62
7
  6
CONTINUOUS
 10
11.5714614978
 20
7.6955919119
 40
0.420168394
100
AcDbArc
 50
266.0114712862
 51
274.449896375
  0
ARC
  5
383
100
AcDbEntity
  8
0
100
AcDbCircle
 62
7
  6
CONTINUOUS
 10
11.0076730183
 20
7.0802196457
 40
0.2722755189
100
AcDbArc
 50
64.577975493
 51
65.9837395354
  0
SPLINE
  5
384
100
AcDbEntity
  8
0
100
AcDbSpline
 62
7
  6
CONTINUOUS
 70
0
 71
3
 72
29
 73
25
 74
0
 42
0.0000001
 43
0.0000001
 44
0.0000000001
 40
0.0
 40
0.0
 40
0.0
 40
0.0
 40
0.070984318
 40
0.1429825523
 40
0.2155057028
 40
0.2880809331
 40
0.3602234383
 40
0.4314560192
 40
0.5013085085
 40
0.5693229079
 40
0.6350576048
 40
0.6980916372
 40
0.728471958
 40
0.7580314442
 40
0.7867250902
 40
0.8145108681
 40
0.8413490867
 40
0.8672023195
 40
0.8920371672
 40
0.9158224349
 40
0.9385315725
 40
0.9601419631
 40
0.9806353258
 40
1.0
 40
1.0
 40
1.0
 40
1.0
 10
9.9144998267
 20
10.8962456972
 30
0.0
 10
9.8992816982
 20
10.897301078
 30
0.0
 10
9.8686020701
 20
10.8990672465
 30
0.0
 10
9.8223143672
 20
10.9006920513
 30
0.0
 10
9.7756601016
 20
10.9013045484
 30
0.0
 10
9.7289726368
 20
10.9009009216
 30
0.0
 10
9.6825823312
 20
10.8994836763
 30
0.0
 10
9.6368193296
 20
10.8970631705
 30
0.0
 10
9.5920085645
 20
10.8936568619
 30
0.0
 10
9.5484681072
 20
10.8892894497
 30
0.0
 10
9.5065072654
 20
10.8839923976
 30
0.0
 10
9.4727009045
 20
10.8787737916
 30
0.0
 10
9.4466816657
 20
10.8741420626
 30
0.0
 10
9.4279838843
 20
10.8705041338
 30
0.0
 10
9.4098958007
 20
10.8666656786
 30
0.0
 10
9.3924494866
 20
10.8626336717
 30
0.0
 10
9.3756758749
 20
10.8584154767
 30
0.0
 10
9.3596047425
 20
10.8540182246
 30
0.0
 10
9.344264472
 20
10.8494503332
 30
0.0
 10
9.3296822293
 20
10.8447194699
 30
0.0
 10
9.3158837265
 20
10.8398343384
 30
0.0
 10
9.3028931029
 20
10.8348037078
 30
0.0
 10
9.2907335243
 20
10.8296361791
 30
0.0
 10
9.2829739645
 20
10.8260027912
 30
0.0
 10
9.2792428682
 20
10.8241596741
 30
0.0
  0
SPLINE
  5
385
100
AcDbEntity
  8
0
100
AcDbSpline
 62
7
  6
CONTINUOUS
 70
0
 71
3
 72
9
 73
5
 74
0
 42
0.0000001
 43
0.0000001
 44
0.0000000001
 40
0.0
 40
0.0
 40
0.0
 40
0.0
 40
0.5197971894
 40
1.0
 40
1.0
 40
1.0
 40
1.0
 10
9.1662762071
 20
10.2796292042
 30
0.0
 10
9.1635818711
 20
10.2818377756
 30
0.0
 10
9.1585484015
 20
10.2862749984
 30
0.0
 10
9.1539195819
 20
10.2911385881
 30
0.0
 10
9.151828159
 20
10.2935849232
 30
0.0
  0
SPLINE
  5
386
100
AcDbEntity
  8
0
100
AcDbSpline
 62
7
  6
CONTINUOUS
 70
0
 71
3
 72
9
 73
5
 74
0
 42
0.0000001
 43
0.0000001
 44
0.0000000001
 40
0.0
 40
0.0
 40
0.0
 40
0.0
 40
0.4802028106
 40
1.0
 40
1.0
 40
1.0
 40
1.0
 10
10.3898825915
 20
10.7488901866
 30
0.0
 10
10.3877911686
 20
10.7513365217
 30
0.0
 10
10.3831623489
 20
10.7562001115
 30
0.0
 10
10.3781288793
 20
10.7606373342
 30
0.0
 10
10.3754345433
 20
10.7628459056
 30
0.0
  0
SPLINE
  5
387
100
AcDbEntity
  8
0
100
AcDbSpline
 62
7
  6
CONTINUOUS
 70
0
 71
3
 72
9
 73
5
 74
0
 42
0.0000001
 43
0.0000001
 44
0.0000000001
 40
0.0
 40
0.0
 40
0.0
 40
0.0
 40
0.5043782952
 40
1.0
 40
1.0
 40
1.0
 40
1.0
 10
9.1662762071
 20
10.2796292042
 30
0.0
 10
9.1797799329
 20
10.271220371
 30
0.0
 10
9.206892721
 20
10.2550857529
 30
0.0
 10
9.2347654642
 20
10.2402885899
 30
0.0
 10
9.2487795752
 20
10.2333637609
 30
0.0
  0
SPLINE
  5
388
100
AcDbEntity
  8
0
100
AcDbSpline
 62
7
  6
CONTINUOUS
 70
0
 71
3
 72
9
 73
5
 74
0
 42
0.0000001
 43
0.0000001
 44
0.0000000001
 40
0.0
 40
0.0
 40
0.0
 40
0.0
 40
0.5043782952
 40
1.0
 40
1.0
 40
1.0
 40
1.0
 10
10.3754345433
 20
10.7628459056
 30
0.0
 10
10.3619308175
 20
10.7712547389
 30
0.0
 10
10.3348180295
 20
10.7873893569
 30
0.0
 10
10.3069452862
 20
10.8021865199
 30
0.0
 10
10.2929311752
 20
10.8091113489
 30
0.0
  0
SPLINE
  5
389
100
AcDbEntity
  8
0
100
AcDbSpline
 62
7
  6
CONTINUOUS
 70
0
 71
3
 72
23
 73
19
 74
0
 42
0.0000001
 43
0.0000001
 44
0.0000000001
 40
0.0
 40
0.0
 40
0.0
 40
0.0
 40
0.0436202716
 40
0.0892267831
 40
0.1370684894
 40
0.1873535484
 40
0.2402536978
 40
0.2958870825
 40
0.3543309839
 40
0.4156093066
 40
0.4797101
 40
0.5465786547
 40
0.6161344819
 40
0.6882693018
 40
0.7628605839
 40
0.8397743489
 40
0.9188692317
 40
1.0
 40
1.0
 40
1.0
 40
1.0
 10
10.2814741934
 20
10.2277042113
 30
0.0
 10
10.2837841266
 20
10.2288447787
 30
0.0
 10
10.2884212457
 20
10.2313598732
 30
0.0
 10
10.2952485279
 20
10.2357209227
 30
0.0
 10
10.3020849097
 20
10.2407632075
 30
0.0
 10
10.3089264523
 20
10.2464941388
 30
0.0
 10
10.3157675434
 20
10.2529177895
 30
0.0
 10
10.3226050768
 20
10.2600293627
 30
0.0
 10
10.3294333289
 20
10.2678201763
 30
0.0
 10
10.336249566
 20
10.2762735813
 30
0.0
 10
10.3430487275
 20
10.2853694907
 30
0.0
 10
10.3498285707
 20
10.2950818769
 30
0.0
 10
10.3565852307
 20
10.3053824302
 30
0.0
 10
10.3633171108
 20
10.3162393902
 30
0.0
 10
10.3700218209
 20
10.3276202504
 30
0.0
 10
10.3766984632
 20
10.3394913401
 30
0.0
 10
10.3833459488
 20
10.3518191871
 30
0.0
 10
10.3877050622
 20
10.3602186096
 30
0.0
 10
10.3898825915
 20
10.3644867453
 30
0.0
  0
SPLINE
  5
38A
100
AcDbEntity
  8
0
100
AcDbSpline
 62
7
  6
CONTINUOUS
 70
0
 71
3
 72
23
 73
19
 74
0
 42
0.0000001
 43
0.0000001
 44
0.0000000001
 40
0.0
 40
0.0
 40
0.0
 40
0.0
 40
0.0430692708
 40
0.0891859059
 40
0.1383039462
 40
0.1903539308
 40
0.2452509344
 40
0.3028923159
 40
0.36316428
 40
0.4259386958
 40
0.4910792536
 40
0.558438617
 40
0.6278623889
 40
0.6991843849
 40
0.7722354743
 40
0.8468474017
 40
0.9228412057
 40
1.0
 40
1.0
 40
1.0
 40
1.0
 10
10.2624684039
 20
10.8241594163
 30
0.0
 10
10.2578706704
 20
10.8264306531
 30
0.0
 10
10.2482280259
 20
10.8308895345
 30
0.0
 10
10.2329942535
 20
10.8371538994
 30
0.0
 10
10.2165315184
 20
10.8432076334
 30
0.0
 10
10.1988835167
 20
10.849035082
 30
0.0
 10
10.1800963946
 20
10.8546200049
 30
0.0
 10
10.1602198545
 20
10.8599480893
 30
0.0
 10
10.139306466
 20
10.8650043309
 30
0.0
 10
10.1174117487
 20
10.8697758131
 30
0.0
 10
10.0945937848
 20
10.8742490599
 30
0.0
 10
10.0709131615
 20
10.8784126632
 30
0.0
 10
10.0464330845
 20
10.8822547648
 30
0.0
 10
10.0212190105
 20
10.8857657158
 30
0.0
 10
9.995337408
 20
10.8889355723
 30
0.0
 10
9.9688560149
 20
10.8917563126
 30
0.0
 10
9.9418479378
 20
10.8942195957
 30
0.0
 10
9.9236648736
 20
10.8956100991
 30
0.0
 10
9.9144998267
 20
10.8962456972
 30
0.0
  0
SPLINE
  5
38B
100
AcDbEntity
  8
0
100
AcDbSpline
 62
7
  6
CONTINUOUS
 70
0
 71
3
 72
23
 73
19
 74
0
 42
0.0000001
 43
0.0000001
 44
0.0000000001
 40
0.0
 40
0.0
 40
0.0
 40
0.0
 40
0.0436202716
 40
0.0892267831
 40
0.1370684894
 40
0.1873535484
 40
0.2402536978
 40
0.2958870825
 40
0.3543309839
 40
0.4156093066
 40
0.4797101
 40
0.5465786547
 40
0.6161344819
 40
0.6882693018
 40
0.7628605839
 40
0.8397743489
 40
0.9188692317
 40
1.0
 40
1.0
 40
1.0
 40
1.0
 10
9.260236557
 20
10.8147708985
 30
0.0
 10
9.2579266238
 20
10.8136303311
 30
0.0
 10
9.2532895048
 20
10.8111152367
 30
0.0
 10
9.2464622225
 20
10.8067541871
 30
0.0
 10
9.2396258407
 20
10.8017119023
 30
0.0
 10
9.2327842981
 20
10.795980971
 30
0.0
 10
9.225943207
 20
10.7895573203
 30
0.0
 10
9.2191056736
 20
10.7824457472
 30
0.0
 10
9.2122774215
 20
10.7746549335
 30
0.0
 10
9.2054611844
 20
10.7662015285
 30
0.0
 10
9.1986620229
 20
10.7571056191
 30
0.0
 10
9.1918821797
 20
10.7473932329
 30
0.0
 10
9.1851255197
 20
10.7370926796
 30
0.0
 10
9.1783936396
 20
10.7262357196
 30
0.0
 10
9.1716889296
 20
10.7148548594
 30
0.0
 10
9.1650122872
 20
10.7029837697
 30
0.0
 10
9.1583648016
 20
10.6906559227
 30
0.0
 10
9.1540056882
 20
10.6822565002
 30
0.0
 10
9.151828159
 20
10.6779883645
 30
0.0
  0
SPLINE
  5
38C
100
AcDbEntity
  8
0
100
AcDbSpline
 62
7
  6
CONTINUOUS
 70
0
 71
3
 72
28
 73
24
 74
0
 42
0.0000001
 43
0.0000001
 44
0.0000000001
 40
0.0
 40
0.0
 40
0.0
 40
0.0
 40
0.0168911477
 40
0.0347560928
 40
0.0536207074
 40
0.073502463
 40
0.0944132651
 40
0.1163598006
 40
0.1393426696
 40
0.1633589116
 40
0.1884028204
 40
0.2144644664
 40
0.2695844835
 40
0.3285946677
 40
0.3913311646
 40
0.4576025972
 40
0.5271932429
 40
0.5998661009
 40
0.6753666324
 40
0.7534188352
 40
0.8337419147
 40
0.9160498998
 40
1.0
 40
1.0
 40
1.0
 40
1.0
 10
9.3524898276
 20
9.2169510664
 30
0.0
 10
9.3538363405
 20
9.2157632054
 30
0.0
 10
9.3566810454
 20
9.2134020403
 30
0.0
 10
9.3612531546
 20
9.2099945655
 30
0.0
 10
9.3662431481
 20
9.2066270707
 30
0.0
 10
9.3716457033
 20
9.2033027379
 30
0.0
 10
9.3774556298
 20
9.2000248643
 30
0.0
 10
9.3836672354
 20
9.1967969102
 30
0.0
 10
9.3902741353
 20
9.1936218436
 30
0.0
 10
9.3972696797
 20
9.1905028811
 30
0.0
 10
9.4046469517
 20
9.1874433564
 30
0.0
 10
9.4151801469
 20
9.18337099
 30
0.0
 10
9.4292598599
 20
9.1784720222
 30
0.0
 10
9.4472459578
 20
9.1729819414
 30
0.0
 10
9.4665525232
 20
9.1677981947
 30
0.0
 10
9.4871010752
 20
9.1629423079
 30
0.0
 10
9.5088083832
 20
9.1584345512
 30
0.0
 10
9.5315861579
 20
9.15429326
 30
0.0
 10
9.5553413138
 20
9.1505360931
 30
0.0
 10
9.5799769919
 20
9.1471780408
 30
0.0
 10
9.6053939872
 20
9.1442331855
 30
0.0
 10
9.6314864622
 20
9.1417141713
 30
0.0
 10
9.6491075942
 20
9.1403370662
 30
0.0
 10
9.6580103647
 20
9.1397196569
 30
0.0
  0
SPLINE
  5
38D
100
AcDbEntity
  8
0
100
AcDbSpline
 62
7
  6
CONTINUOUS
 70
0
 71
3
 72
29
 73
25
 74
0
 42
0.0000001
 43
0.0000001
 44
0.0000000001
 40
0.0
 40
0.0
 40
0.0
 40
0.0
 40
0.0709839827
 40
0.1429818596
 40
0.2155046776
 40
0.2880795928
 40
0.3602217728
 40
0.4314540888
 40
0.5013064077
 40
0.5693206708
 40
0.6350552793
 40
0.698089349
 40
0.7284697338
 40
0.7580293054
 40
0.7867230494
 40
0.8145089399
 40
0.8413472991
 40
0.8672007086
 40
0.8920357659
 40
0.9158212707
 40
0.9385306691
 40
0.9601413418
 40
0.9806350048
 40
1.0
 40
1.0
 40
1.0
 40
1.0
 10
9.6316108439
 20
10.1409988907
 30
0.0
 10
9.6463626583
 20
10.1399758489
 30
0.0
 10
9.676102197
 20
10.1382637956
 30
0.0
 10
9.7209715495
 20
10.13668876
 30
0.0
 10
9.7661962385
 20
10.1360950032
 30
0.0
 10
9.8114531171
 20
10.1364862211
 30
0.0
 10
9.8564219558
 20
10.1378599886
 30
0.0
 10
9.9007827418
 20
10.1402062631
 30
0.0
 10
9.9442205071
 20
10.1435081262
 30
0.0
 10
9.9864269239
 20
10.1477416314
 30
0.0
 10
10.0271021677
 20
10.1528762853
 30
0.0
 10
10.0598728072
 20
10.1579349023
 30
0.0
 10
10.0850949382
 20
10.1624246406
 30
0.0
 10
10.1032199327
 20
10.1659510478
 30
0.0
 10
10.1207539213
 20
10.1696718347
 30
0.0
 10
10.1376658163
 20
10.1735802418
 30
0.0
 10
10.1539256375
 20
10.177669132
 30
0.0
 10
10.1695045248
 20
10.181931593
 30
0.0
 10
10.1843749651
 20
10.1863594661
 30
0.0
 10
10.1985106226
 20
10.1909453185
 30
0.0
 10
10.2118865713
 20
10.1956807133
 30
0.0
 10
10.2244794107
 20
10.2005571486
 30
0.0
 10
10.2362666849
 20
10.2055662881
 30
0.0
 10
10.2437886779
 20
10.209088308
 30
0.0
 10
10.2474055501
 20
10.2108749315
 30
0.0
  0
SPLINE
  5
38E
100
AcDbEntity
  8
0
100
AcDbSpline
 62
7
  6
CONTINUOUS
 70
0
 71
3
 72
23
 73
19
 74
0
 42
0.0000001
 43
0.0000001
 44
0.0000000001
 40
0.0
 40
0.0
 40
0.0
 40
0.0
 40
0.0771582859
 40
0.1531516138
 40
0.2277631003
 40
0.3008138096
 40
0.3721355099
 40
0.4415590541
 40
0.5089182344
 40
0.5740586726
 40
0.6368330664
 40
0.6971051206
 40
0.7547467082
 40
0.809644014
 40
0.8616943682
 40
0.9108128577
 40
0.9569300549
 40
1.0
 40
1.0
 40
1.0
 40
1.0
 10
9.6316108439
 20
10.1409988907
 30
0.0
 10
9.6227267059
 20
10.1416150077
 30
0.0
 10
9.6051009503
 20
10.1429628899
 30
0.0
 10
9.5789206621
 20
10.1453506624
 30
0.0
 10
9.5532509023
 20
10.1480849289
 30
0.0
 10
9.528162531
 20
10.1511576055
 30
0.0
 10
9.5037212065
 20
10.154560917
 30
0.0
 10
9.4799913617
 20
10.1582852229
 30
0.0
 10
9.4570364494
 20
10.1623211706
 30
0.0
 10
9.4349177349
 20
10.1666572667
 30
0.0
 10
9.4136939403
 20
10.1712824528
 30
0.0
 10
9.3934213615
 20
10.1761836684
 30
0.0
 10
9.3741538166
 20
10.1813483946
 30
0.0
 10
9.355942268
 20
10.1867620841
 30
0.0
 10
9.3388348978
 20
10.1924108623
 30
0.0
 10
9.3228764355
 20
10.19827899
 30
0.0
 10
9.3081092308
 20
10.2043512927
 30
0.0
 10
9.2987618809
 20
10.208673463
 30
0.0
 10
9.2943049335
 20
10.2108750634
 30
0.0
  0
SPLINE
  5
38F
100
AcDbEntity
  8
0
100
AcDbSpline
 62
7
  6
CONTINUOUS
 70
0
 71
3
 72
21
 73
17
 74
0
 42
0.0000001
 43
0.0000001
 44
0.0000000001
 40
0.0
 40
0.0
 40
0.0
 40
0.0
 40
0.1331620508
 40
0.198721389
 40
0.2635863969
 40
0.3277657689
 40
0.3912790145
 40
0.4541586317
 40
0.5164459921
 40
0.5781920281
 40
0.6394524084
 40
0.7002861096
 40
0.7607522371
 40
0.8209070106
 40
0.8808048208
 40
1.0
 40
1.0
 40
1.0
 40
1.0
 10
9.2487795752
 20
10.2333637609
 30
0.0
 10
9.2623745606
 20
10.2266460355
 30
0.0
 10
9.2829550906
 20
10.2171901473
 30
0.0
 10
9.3108211522
 20
10.2060214081
 30
0.0
 10
9.3316706391
 20
10.1984963041
 30
0.0
 10
9.3525587659
 20
10.1918073775
 30
0.0
 10
9.3734683303
 20
10.1859768884
 30
0.0
 10
9.3943790361
 20
10.1810124732
 30
0.0
 10
9.4152720908
 20
10.1769166892
 30
0.0
 10
9.4361281713
 20
10.1736768228
 30
0.0
 10
9.4569303914
 20
10.1712744863
 30
0.0
 10
9.4776636104
 20
10.1696802936
 30
0.0
 10
9.4983153544
 20
10.1688594281
 30
0.0
 10
9.5188765037
 20
10.1687716626
 30
0.0
 10
9.5461133468
 20
10.1695724162
 30
0.0
 10
9.5664635918
 20
10.1711410008
 30
0.0
 10
9.5799629252
 20
10.1725593386
 30
0.0
  0
SPLINE
  5
390
100
AcDbEntity
  8
0
100
AcDbSpline
 62
7
  6
CONTINUOUS
 70
0
 71
3
 72
9
 73
5
 74
0
 42
0.0000001
 43
0.0000001
 44
0.0000000001
 40
0.0
 40
0.0
 40
0.0
 40
0.0
 40
0.4802028106
 40
1.0
 40
1.0
 40
1.0
 40
1.0
 10
9.151828159
 20
10.6779883645
 30
0.0
 10
9.1539195819
 20
10.6755420294
 30
0.0
 10
9.1585484015
 20
10.6706784397
 30
0.0
 10
9.1635818711
 20
10.6662412169
 30
0.0
 10
9.1662762071
 20
10.6640326455
 30
0.0
  0
SPLINE
  5
391
100
AcDbEntity
  8
0
100
AcDbSpline
 62
7
  6
CONTINUOUS
 70
0
 71
3
 72
23
 73
19
 74
0
 42
0.0000001
 43
0.0000001
 44
0.0000000001
 40
0.0
 40
0.0
 40
0.0
 40
0.0
 40
0.0584073816
 40
0.1170342823
 40
0.175946792
 40
0.235225456
 40
0.2949566682
 40
0.3552310086
 40
0.416138202
 40
0.4777588108
 40
0.540158822
 40
0.6033849084
 40
0.6674605222
 40
0.7323867869
 40
0.7981446078
 40
0.8646981496
 40
0.9320021535
 40
1.0
 40
1.0
 40
1.0
 40
1.0
 10
9.1662762071
 20
10.6640326455
 30
0.0
 10
9.1747232399
 20
10.664920152
 30
0.0
 10
9.1916816925
 20
10.6664049687
 30
0.0
 10
9.2172427462
 20
10.6676701066
 30
0.0
 10
9.2429622936
 20
10.6678877313
 30
0.0
 10
9.2688280821
 20
10.666970055
 30
0.0
 10
9.2948217832
 20
10.6648370314
 30
0.0
 10
9.3209178462
 20
10.6614216414
 30
0.0
 10
9.347084267
 20
10.6566732723
 30
0.0
 10
9.373284481
 20
10.6505648801
 30
0.0
 10
9.3994799754
 20
10.643095286
 30
0.0
 10
9.4256324618
 20
10.634287229
 30
0.0
 10
9.4517070785
 20
10.6241876061
 30
0.0
 10
9.4776746163
 20
10.6128634859
 30
0.0
 10
9.5035117119
 20
10.6003946115
 30
0.0
 10
9.5292021632
 20
10.58686956
 30
0.0
 10
9.5547357243
 20
10.572381096
 30
0.0
 10
9.5715691328
 20
10.5621896337
 30
0.0
 10
9.5799629252
 20
10.5569627799
 30
0.0
  0
SPLINE
  5
392
100
AcDbEntity
  8
0
100
AcDbSpline
 62
7
  6
CONTINUOUS
 70
0
 71
3
 72
9
 73
5
 74
0
 42
0.0000001
 43
0.0000001
 44
0.0000000001
 40
0.0
 40
0.0
 40
0.0
 40
0.0
 40
0.5151645244
 40
1.0
 40
1.0
 40
1.0
 40
1.0
 10
9.2792428682
 20
10.8241596741
 30
0.0
 10
9.2759057215
 20
10.8225111634
 30
0.0
 10
9.2694869764
 20
10.8191895829
 30
0.0
 10
9.2632173068
 20
10.8155928499
 30
0.0
 10
9.2602238626
 20
10.8137734574
 30
0.0
  0
SPLINE
  5
393
100
AcDbEntity
  8
0
100
AcDbSpline
 62
7
  6
CONTINUOUS
 70
0
 71
3
 72
55
 73
51
 74
0
 42
0.0000001
 43
0.0000001
 44
0.0000000001
 40
0.0
 40
0.0
 40
0.0
 40
0.0
 40
0.0126039668
 40
0.0246626451
 40
0.0361845815
 40
0.0471813629
 40
0.0576675083
 40
0.0676611077
 40
0.0771851246
 40
0.0862675479
 40
0.0949416347
 40
0.1032466857
 40
0.1112290233
 40
0.118941678
 40
0.1264439865
 40
0.1338010228
 40
0.1410823646
 40
0.1483598643
 40
0.1557054861
 40
0.1631891608
 40
0.1708765213
 40
0.1788275498
 40
0.1870959619
 40
0.195728829
 40
0.2047661593
 40
0.2142418107
 40
0.2241843014
 40
0.2346171506
 40
0.2455588974
 40
0.2570244016
 40
0.2690255426
 40
0.281571226
 40
0.294667253
 40
0.3083174627
 40
0.337285222
 40
0.3684733057
 40
0.4018562187
 40
0.4373894698
 40
0.4750146658
 40
0.514659581
 40
0.5562421653
 40
0.5996694007
 40
0.6448409651
 40
0.6916481552
 40
0.7399765684
 40
0.7897029257
 40
0.8407002665
 40
0.8928422091
 40
0.9459958947
 40
1.0
 40
1.0
 40
1.0
 40
1.0
 10
9.2602238626
 20
10.8137734574
 30
0.0
 10
9.2583269037
 20
10.8126205003
 30
0.0
 10
9.2546509345
 20
10.8103045924
 30
0.0
 10
9.2493829599
 20
10.8067155321
 30
0.0
 10
9.2444870343
 20
10.8030909337
 30
0.0
 10
9.2399664826
 20
10.7994333937
 30
0.0
 10
9.2358244518
 20
10.7957453052
 30
0.0
 10
9.232064115
 20
10.792028834
 30
0.0
 10
9.2286880832
 20
10.7882864135
 30
0.0
 10
9.2256986855
 20
10.7845204309
 30
0.0
 10
9.2230983211
 20
10.7807331289
 30
0.0
 10
9.2208896232
 20
10.7769266126
 30
0.0
 10
9.2190746058
 20
10.7731034177
 30
0.0
 10
9.2176551712
 20
10.7692661927
 30
0.0
 10
9.2166333413
 20
10.7654178009
 30
0.0
 10
9.2160112051
 20
10.7615614921
 30
0.0
 10
9.2157895492
 20
10.7577010691
 30
0.0
 10
9.2159686067
 20
10.7538404384
 30
0.0
 10
9.2165481768
 20
10.7499835072
 30
0.0
 10
9.2175275988
 20
10.7461341102
 30
0.0
 10
9.2189048564
 20
10.7422955579
 30
0.0
 10
9.2206779087
 20
10.7384707467
 30
0.0
 10
9.2228448303
 20
10.7346623291
 30
0.0
 10
9.2254036777
 20
10.7308728834
 30
0.0
 10
9.2283518283
 20
10.727104528
 30
0.0
 10
9.2316868649
 20
10.7233594938
 30
0.0
 10
9.2354064519
 20
10.719640138
 30
0.0
 10
9.2395080505
 20
10.7159489322
 30
0.0
 10
9.2439885102
 20
10.7122880285
 30
0.0
 10
9.2488446676
 20
10.7086598186
 30
0.0
 10
9.2540732868
 20
10.7050668242
 30
0.0
 10
9.2596707972
 20
10.701511612
 30
0.0
 10
9.265633108
 20
10.6979963703
 30
0.0
 10
9.2742350131
 20
10.6932721393
 30
0.0
 10
9.2858922785
 20
10.6875055725
 30
0.0
 10
9.3009962167
 20
10.6809142322
 30
0.0
 10
9.3174391807
 20
10.6745399577
 30
0.0
 10
9.3351746729
 20
10.6684003677
 30
0.0
 10
9.3541531146
 20
10.6625135953
 30
0.0
 10
9.3743207926
 20
10.6568960165
 30
0.0
 10
9.3956206072
 20
10.6515644035
 30
0.0
 10
9.4179919703
 20
10.6465335511
 30
0.0
 10
9.4413712672
 20
10.6418185444
 30
0.0
 10
9.4656919598
 20
10.6374324137
 30
0.0
 10
9.4908845483
 20
10.6333884498
 30
0.0
 10
9.5168767807
 20
10.6296976778
 30
0.0
 10
9.5435950118
 20
10.6263712009
 30
0.0
 10
9.5709642399
 20
10.6234181276
 30
0.0
 10
9.5989037702
 20
10.6208477638
 30
0.0
 10
9.617722314
 20
10.6194039471
 30
0.0
 10
9.6272109237
 20
10.6187459098
 30
0.0
  0
SPLINE
  5
394
100
AcDbEntity
  8
0
100
AcDbSpline
 62
7
  6
CONTINUOUS
 70
0
 71
3
 72
56
 73
52
 74
0
 42
0.0000001
 43
0.0000001
 44
0.0000000001
 40
0.0
 40
0.0
 40
0.0
 40
0.0
 40
0.0460140365
 40
0.0926138763
 40
0.1395821546
 40
0.1867221822
 40
0.2338288136
 40
0.280695969
 40
0.3271205498
 40
0.3729016883
 40
0.4178419215
 40
0.4617486806
 40
0.5044357275
 40
0.5457237503
 40
0.5854421779
 40
0.623430808
 40
0.6595404895
 40
0.6936358272
 40
0.7098908177
 40
0.7255987191
 40
0.7407472814
 40
0.7553261698
 40
0.7693260262
 40
0.7827391099
 40
0.795560201
 40
0.8077857039
 40
0.8194143239
 40
0.8304482927
 40
0.8408926824
 40
0.8507562508
 40
0.8600531092
 40
0.8688025169
 40
0.8770301158
 40
0.8847700999
 40
0.8920656216
 40
0.8989701892
 40
0.9055493464
 40
0.9118801083
 40
0.9180498998
 40
0.9241540552
 40
0.93029114
 40
0.9365581198
 40
0.9430454648
 40
0.9498338051
 40
0.9533640988
 40
0.9569946791
 40
0.964581397
 40
0.9726423977
 40
0.9812148065
 40
0.9903269582
 40
1.0
 40
1.0
 40
1.0
 40
1.0
 10
9.6272109237
 20
10.6187459098
 30
0.0
 10
9.6395088111
 20
10.6178930484
 30
0.0
 10
9.6642780165
 20
10.6164114346
 30
0.0
 10
9.7016426233
 20
10.6148603865
 30
0.0
 10
9.739330687
 20
10.61397169
 30
0.0
 10
9.777164284
 20
10.6137493272
 30
0.0
 10
9.8149688416
 20
10.6141940928
 30
0.0
 10
9.8525679898
 20
10.615304125
 30
0.0
 10
9.8897863992
 20
10.6170742558
 30
0.0
 10
9.9264508455
 20
10.6194959019
 30
0.0
 10
9.9623905662
 20
10.6225578235
 30
0.0
 10
9.9974382285
 20
10.6262456722
 30
0.0
 10
10.0314307362
 20
10.6305418005
 30
0.0
 10
10.0642099502
 20
10.6354261503
 30
0.0
 10
10.0956234846
 20
10.6408756853
 30
0.0
 10
10.1255256297
 20
10.6468643796
 30
0.0
 10
10.1537773846
 20
10.6533642775
 30
0.0
 10
10.1761797657
 20
10.6592712354
 30
0.0
 10
10.1931636013
 20
10.6642490515
 30
0.0
 10
10.2052059117
 20
10.668031214
 30
0.0
 10
10.2167422376
 20
10.6719174346
 30
0.0
 10
10.2277593483
 20
10.6759029145
 30
0.0
 10
10.2382444634
 20
10.6799830995
 30
0.0
 10
10.248185383
 20
10.684153485
 30
0.0
 10
10.2575708166
 20
10.6884088935
 30
0.0
 10
10.2663899793
 20
10.6927444869
 30
0.0
 10
10.2746326348
 20
10.6971556034
 30
0.0
 10
10.2822896178
 20
10.7016368722
 30
0.0
 10
10.28935229
 20
10.7061833206
 30
0.0
 10
10.2958124599
 20
10.7107903491
 30
0.0
 10
10.3016631656
 20
10.7154526813
 30
0.0
 10
10.3068979095
 20
10.7201655628
 30
0.0
 10
10.3115102978
 20
10.7249248483
 30
0.0
 10
10.3154951381
 20
10.7297258025
 30
0.0
 10
10.3188472722
 20
10.7345642257
 30
0.0
 10
10.3215607678
 20
10.7394362759
 30
0.0
 10
10.3236306358
 20
10.7443369167
 30
0.0
 10
10.3250516517
 20
10.7492604315
 30
0.0
 10
10.3258181579
 20
10.7541996388
 30
0.0
 10
10.3259276126
 20
10.7591453236
 30
0.0
 10
10.3253797966
 20
10.764087755
 30
0.0
 10
10.3241761574
 20
10.7690174448
 30
0.0
 10
10.3223218096
 20
10.773926228
 30
0.0
 10
10.3202657026
 20
10.7779419749
 30
0.0
 10
10.3183174621
 20
10.7811323806
 30
0.0
 10
10.3160982769
 20
10.7844028925
 30
0.0
 10
10.3129070495
 20
10.7884726257
 30
0.0
 10
10.3085032452
 20
10.7932460999
 30
0.0
 10
10.3034750033
 20
10.7979749982
 30
0.0
 10
10.2978288224
 20
10.802654549
 30
0.0
 10
10.293779683
 20
10.8056477339
 30
0.0
 10
10.2916594593
 20
10.8071378127
 30
0.0
  0
SPLINE
  5
395
100
AcDbEntity
  8
0
100
AcDbSpline
 62
7
  6
CONTINUOUS
 70
0
 71
3
 72
11
 73
7
 74
0
 42
0.0000001
 43
0.0000001
 44
0.0000000001
 40
0.0
 40
0.0
 40
0.0
 40
0.0
 40
0.2310152257
 40
0.4746103058
 40
0.7309143418
 40
1.0
 40
1.0
 40
1.0
 40
1.0
 10
10.2916594593
 20
10.8071378127
 30
0.0
 10
10.2895285932
 20
10.808635371
 30
0.0
 10
10.2850761554
 20
10.8116067674
 30
0.0
 10
10.2780337756
 20
10.8158895147
 30
0.0
 10
10.2704593564
 20
10.8201110595
 30
0.0
 10
10.265188315
 20
10.822815806
 30
0.0
 10
10.2624684039
 20
10.8241594163
 30
0.0
  0
SPLINE
  5
396
100
AcDbEntity
  8
0
100
AcDbSpline
 62
7
  6
CONTINUOUS
 70
0
 71
3
 72
23
 73
19
 74
0
 42
0.0000001
 43
0.0000001
 44
0.0000000001
 40
0.0
 40
0.0
 40
0.0
 40
0.0
 40
0.0389912911
 40
0.0815584749
 40
0.127700885
 40
0.1773780274
 40
0.2305124584
 40
0.2870011676
 40
0.3467156031
 40
0.4095084863
 40
0.4752138615
 40
0.5436514437
 40
0.6146276979
 40
0.6879342366
 40
0.7633520963
 40
0.8406622943
 40
0.9196371517
 40
1.0
 40
1.0
 40
1.0
 40
1.0
 10
9.3517953629
 20
9.2203333805
 30
0.0
 10
9.3552139119
 20
9.2181444762
 30
0.0
 10
9.3625452632
 20
9.2138452931
 30
0.0
 10
9.3744163968
 20
9.2078455672
 30
0.0
 10
9.3876045251
 20
9.2020311921
 30
0.0
 10
9.402066755
 20
9.1964224966
 30
0.0
 10
9.4177563472
 20
9.1910371746
 30
0.0
 10
9.4346219605
 20
9.1858939105
 30
0.0
 10
9.4526080096
 20
9.1810095457
 30
0.0
 10
9.4716549924
 20
9.1764008661
 30
0.0
 10
9.4916997319
 20
9.1720832383
 30
0.0
 10
9.5126757013
 20
9.1680712617
 30
0.0
 10
9.5345130494
 20
9.1643786283
 30
0.0
 10
9.5571386749
 20
9.1610175587
 30
0.0
 10
9.5804775495
 20
9.1579995495
 30
0.0
 10
9.6044531198
 20
9.1553344758
 30
0.0
 10
9.628983206
 20
9.1530320209
 30
0.0
 10
9.6455229404
 20
9.1517532936
 30
0.0
 10
9.6538692634
 20
9.1511744741
 30
0.0
  0
SPLINE
  5
397
100
AcDbEntity
  8
0
100
AcDbSpline
 62
7
  6
CONTINUOUS
 70
0
 71
3
 72
21
 73
17
 74
0
 42
0.0000001
 43
0.0000001
 44
0.0000000001
 40
0.0
 40
0.0
 40
0.0
 40
0.0
 40
0.1269266306
 40
0.1902356571
 40
0.2534226618
 40
0.3164750211
 40
0.379381614
 40
0.442133702
 40
0.5047247465
 40
0.5671521045
 40
0.6294167402
 40
0.6915228504
 40
0.7534784743
 40
0.8152934295
 40
0.8769787052
 40
1.0
 40
1.0
 40
1.0
 40
1.0
 10
9.6338837338
 20
10.5532233591
 30
0.0
 10
9.6568913168
 20
10.5609477742
 30
0.0
 10
9.6916517223
 20
10.5717355726
 30
0.0
 10
9.738495643
 20
10.58415513
 30
0.0
 10
9.7737998296
 20
10.5923808237
 30
0.0
 10
9.8092779649
 20
10.5994385419
 30
0.0
 10
9.844897574
 20
10.6052527877
 30
0.0
 10
9.8806175097
 20
10.6097617424
 30
0.0
 10
9.9163900317
 20
10.6129250325
 30
0.0
 10
9.9521636492
 20
10.6147270353
 30
0.0
 10
9.9878868565
 20
10.6151759346
 30
0.0
 10
10.0235115733
 20
10.6143052023
 30
0.0
 10
10.0589960119
 20
10.6121707988
 30
0.0
 10
10.0943073163
 20
10.6088435888
 30
0.0
 10
10.1410785257
 20
10.6029334468
 30
0.0
 10
10.1759109631
 20
10.5969610444
 30
0.0
 10
10.1989901414
 20
10.5924136909
 30
0.0
  0
SPLINE
  5
398
100
AcDbEntity
  8
0
100
AcDbSpline
 62
7
  6
CONTINUOUS
 70
0
 71
3
 72
21
 73
17
 74
0
 42
0.0000001
 43
0.0000001
 44
0.0000000001
 40
0.0
 40
0.0
 40
0.0
 40
0.0
 40
0.1230212948
 40
0.1847065705
 40
0.2465215258
 40
0.3084771496
 40
0.3705832599
 40
0.4328478955
 40
0.4952752535
 40
0.5578662981
 40
0.6206183861
 40
0.683524979
 40
0.7465773382
 40
0.8097643429
 40
0.8730733694
 40
1.0
 40
1.0
 40
1.0
 40
1.0
 10
9.6338837338
 20
10.1688199178
 30
0.0
 10
9.6569629122
 20
10.1642725643
 30
0.0
 10
9.6917953496
 20
10.1583001619
 30
0.0
 10
9.738566559
 20
10.1523900199
 30
0.0
 10
9.7738778634
 20
10.1490628099
 30
0.0
 10
9.809362302
 20
10.1469284064
 30
0.0
 10
9.8449870189
 20
10.1460576741
 30
0.0
 10
9.8807102261
 20
10.1465065734
 30
0.0
 10
9.9164838436
 20
10.1483085762
 30
0.0
 10
9.9522563656
 20
10.1514718663
 30
0.0
 10
9.9879763013
 20
10.155980821
 30
0.0
 10
10.0235959104
 20
10.1617950668
 30
0.0
 10
10.0590740457
 20
10.168852785
 30
0.0
 10
10.0943782323
 20
10.1770784787
 30
0.0
 10
10.141222153
 20
10.1894980361
 30
0.0
 10
10.1759825585
 20
10.2002858345
 30
0.0
 10
10.1989901414
 20
10.2080102496
 30
0.0
  0
SPLINE
  5
399
100
AcDbEntity
  8
0
100
AcDbSpline
 62
7
  6
CONTINUOUS
 70
0
 71
3
 72
24
 73
20
 74
0
 42
0.0000001
 43
0.0000001
 44
0.0000000001
 40
0.0
 40
0.0
 40
0.0
 40
0.0
 40
0.0904093868
 40
0.1775325331
 40
0.2610553835
 40
0.3406844661
 40
0.41616279
 40
0.4872998029
 40
0.521207684
 40
0.5540039824
 40
0.6162843266
 40
0.6743126111
 40
0.7283969377
 40
0.7789824074
 40
0.826623815
 40
0.8719379797
 40
0.9155549124
 40
0.9580698186
 40
1.0
 40
1.0
 40
1.0
 40
1.0
 10
10.2384629019
 20
10.6026299892
 30
0.0
 10
10.2414984303
 20
10.6085798733
 30
0.0
 10
10.2475724022
 20
10.6202061969
 30
0.0
 10
10.2568978863
 20
10.6370909683
 30
0.0
 10
10.2662781515
 20
10.6530285685
 30
0.0
 10
10.2757101648
 20
10.6679278561
 30
0.0
 10
10.2851890283
 20
10.6817009084
 30
0.0
 10
10.29324487
 20
10.6923379146
 30
0.0
 10
10.2997217649
 20
10.7001983326
 30
0.0
 10
10.3059943201
 20
10.7073736445
 30
0.0
 10
10.3138335094
 20
10.7155409573
 30
0.0
 10
10.3234200191
 20
10.7241686687
 30
0.0
 10
10.3330087217
 20
10.7314435772
 30
0.0
 10
10.3425875313
 20
10.7373834441
 30
0.0
 10
10.3521430909
 20
10.7420285286
 30
0.0
 10
10.3616616791
 20
10.7454370178
 30
0.0
 10
10.3711301529
 20
10.7476832361
 30
0.0
 10
10.3805362437
 20
10.7488535194
 30
0.0
 10
10.3867860038
 20
10.7489776036
 30
0.0
 10
10.3898825915
 20
10.7488901866
 30
0.0
  0
SPLINE
  5
39A
100
AcDbEntity
  8
0
100
AcDbSpline
 62
7
  6
CONTINUOUS
 70
0
 71
3
 72
15
 73
11
 74
0
 42
0.0000001
 43
0.0000001
 44
0.0000000001
 40
0.0
 40
0.0
 40
0.0
 40
0.0
 40
0.1193884442
 40
0.2394118209
 40
0.3604965246
 40
0.4831212753
 40
0.6078106285
 40
0.735130254
 40
0.8656619472
 40
1.0
 40
1.0
 40
1.0
 40
1.0
 10
10.2384629019
 20
10.2182265478
 30
0.0
 10
10.2402326576
 20
10.2181765875
 30
0.0
 10
10.2437851845
 20
10.2181737559
 30
0.0
 10
10.2491254768
 20
10.2184769875
 30
0.0
 10
10.2544861704
 20
10.2191045311
 30
0.0
 10
10.2598663386
 20
10.2200731047
 30
0.0
 10
10.2652651584
 20
10.22139912
 30
0.0
 10
10.2706813281
 20
10.2230990426
 30
0.0
 10
10.2761132878
 20
10.225187346
 30
0.0
 10
10.2796879244
 20
10.2268222117
 30
0.0
 10
10.2814741934
 20
10.2277042113
 30
0.0
  0
SPLINE
  5
39B
100
AcDbEntity
  8
0
100
AcDbSpline
 62
7
  6
CONTINUOUS
 70
0
 71
3
 72
29
 73
25
 74
0
 42
0.0000001
 43
0.0000001
 44
0.0000000001
 40
0.0
 40
0.0
 40
0.0
 40
0.0
 40
0.070984318
 40
0.1429825523
 40
0.2155057028
 40
0.2880809331
 40
0.3602234383
 40
0.4314560192
 40
0.5013085085
 40
0.5693229079
 40
0.6350576048
 40
0.6980916372
 40
0.728471958
 40
0.7580314442
 40
0.7867250902
 40
0.8145108681
 40
0.8413490867
 40
0.8672023195
 40
0.8920371672
 40
0.9158224349
 40
0.9385315725
 40
0.9601419631
 40
0.9806353258
 40
1.0
 40
1.0
 40
1.0
 40
1.0
 10
11.8463515937
 20
10.7622713221
 30
0.0
 10
11.8311334653
 20
10.7633267029
 30
0.0
 10
11.8004538372
 20
10.7650928714
 30
0.0
 10
11.7541661343
 20
10.7667176762
 30
0.0
 10
11.7075118687
 20
10.7673301733
 30
0.0
 10
11.6608244038
 20
10.7669265465
 30
0.0
 10
11.6144340983
 20
10.7655093012
 30
0.0
 10
11.5686710966
 20
10.7630887954
 30
0.0
 10
11.5238603315
 20
10.7596824868
 30
0.0
 10
11.4803198742
 20
10.7553150746
 30
0.0
 10
11.4383590324
 20
10.7500180225
 30
0.0
 10
11.4045526715
 20
10.7447994165
 30
0.0
 10
11.3785334328
 20
10.7401676875
 30
0.0
 10
11.3598356514
 20
10.7365297587
 30
0.0
 10
11.3417475677
 20
10.7326913035
 30
0.0
 10
11.3243012536
 20
10.7286592966
 30
0.0
 10
11.307527642
 20
10.7244411016
 30
0.0
 10
11.2914565095
 20
10.7200438496
 30
0.0
 10
11.276116239
 20
10.7154759581
 30
0.0
 10
11.2615339963
 20
10.7107450948
 30
0.0
 10
11.2477354936
 20
10.7058599633
 30
0.0
 10
11.2347448699
 20
10.7008293327
 30
0.0
 10
11.2225852913
 20
10.695661804
 30
0.0
 10
11.2148257315
 20
10.6920284161
 30
0.0
 10
11.2110946352
 20
10.690185299
 30
0.0
  0
SPLINE
  5
39C
100
AcDbEntity
  8
0
100
AcDbSpline
 62
7
  6
CONTINUOUS
 70
0
 71
3
 72
9
 73
5
 74
0
 42
0.0000001
 43
0.0000001
 44
0.0000000001
 40
0.0
 40
0.0
 40
0.0
 40
0.0
 40
0.5197971894
 40
1.0
 40
1.0
 40
1.0
 40
1.0
 10
11.0981279742
 20
10.1456548291
 30
0.0
 10
11.0954336382
 20
10.1478634005
 30
0.0
 10
11.0904001686
 20
10.1523006233
 30
0.0
 10
11.0857713489
 20
10.157164213
 30
0.0
 10
11.083679926
 20
10.1596105481
 30
0.0
  0
SPLINE
  5
39D
100
AcDbEntity
  8
0
100
AcDbSpline
 62
7
  6
CONTINUOUS
 70
0
 71
3
 72
9
 73
5
 74
0
 42
0.0000001
 43
0.0000001
 44
0.0000000001
 40
0.0
 40
0.0
 40
0.0
 40
0.0
 40
0.4802028106
 40
1.0
 40
1.0
 40
1.0
 40
1.0
 10
12.3217343585
 20
10.6149158115
 30
0.0
 10
12.3196429356
 20
10.6173621466
 30
0.0
 10
12.3150141159
 20
10.6222257364
 30
0.0
 10
12.3099806463
 20
10.6266629591
 30
0.0
 10
12.3072863103
 20
10.6288715305
 30
0.0
  0
SPLINE
  5
39E
100
AcDbEntity
  8
0
100
AcDbSpline
 62
7
  6
CONTINUOUS
 70
0
 71
3
 72
9
 73
5
 74
0
 42
0.0000001
 43
0.0000001
 44
0.0000000001
 40
0.0
 40
0.0
 40
0.0
 40
0.0
 40
0.5043782952
 40
1.0
 40
1.0
 40
1.0
 40
1.0
 10
11.0981279742
 20
10.1456548291
 30
0.0
 10
11.1116316999
 20
10.1372459959
 30
0.0
 10
11.138744488
 20
10.1211113779
 30
0.0
 10
11.1666172313
 20
10.1063142148
 30
0.0
 10
11.1806313423
 20
10.0993893858
 30
0.0
  0
SPLINE
  5
39F
100
AcDbEntity
  8
0
100
AcDbSpline
 62
7
  6
CONTINUOUS
 70
0
 71
3
 72
9
 73
5
 74
0
 42
0.0000001
 43
0.0000001
 44
0.0000000001
 40
0.0
 40
0.0
 40
0.0
 40
0.0
 40
0.5043782952
 40
1.0
 40
1.0
 40
1.0
 40
1.0
 10
12.3072863103
 20
10.6288715305
 30
0.0
 10
12.2937825846
 20
10.6372803638
 30
0.0
 10
12.2666697965
 20
10.6534149818
 30
0.0
 10
12.2387970532
 20
10.6682121449
 30
0.0
 10
12.2247829422
 20
10.6751369738
 30
0.0
  0
SPLINE
  5
3A0
100
AcDbEntity
  8
0
100
AcDbSpline
 62
7
  6
CONTINUOUS
 70
0
 71
3
 72
23
 73
19
 74
0
 42
0.0000001
 43
0.0000001
 44
0.0000000001
 40
0.0
 40
0.0
 40
0.0
 40
0.0
 40
0.0436202716
 40
0.0892267831
 40
0.1370684894
 40
0.1873535484
 40
0.2402536978
 40
0.2958870825
 40
0.3543309839
 40
0.4156093066
 40
0.4797101
 40
0.5465786547
 40
0.6161344819
 40
0.6882693018
 40
0.7628605839
 40
0.8397743489
 40
0.9188692317
 40
1.0
 40
1.0
 40
1.0
 40
1.0
 10
12.2133259604
 20
10.0937298362
 30
0.0
 10
12.2156358937
 20
10.0948704036
 30
0.0
 10
12.2202730127
 20
10.0973854981
 30
0.0
 10
12.227100295
 20
10.1017465476
 30
0.0
 10
12.2339366767
 20
10.1067888324
 30
0.0
 10
12.2407782193
 20
10.1125197637
 30
0.0
 10
12.2476193104
 20
10.1189434144
 30
0.0
 10
12.2544568439
 20
10.1260549876
 30
0.0
 10
12.261285096
 20
10.1338458012
 30
0.0
 10
12.268101333
 20
10.1422992063
 30
0.0
 10
12.2749004946
 20
10.1513951156
 30
0.0
 10
12.2816803378
 20
10.1611075019
 30
0.0
 10
12.2884369977
 20
10.1714080551
 30
0.0
 10
12.2951688778
 20
10.1822650151
 30
0.0
 10
12.3018735879
 20
10.1936458753
 30
0.0
 10
12.3085502302
 20
10.205516965
 30
0.0
 10
12.3151977158
 20
10.217844812
 30
0.0
 10
12.3195568292
 20
10.2262442345
 30
0.0
 10
12.3217343585
 20
10.2305123702
 30
0.0
  0
SPLINE
  5
3A1
100
AcDbEntity
  8
0
100
AcDbSpline
 62
7
  6
CONTINUOUS
 70
0
 71
3
 72
23
 73
19
 74
0
 42
0.0000001
 43
0.0000001
 44
0.0000000001
 40
0.0
 40
0.0
 40
0.0
 40
0.0
 40
0.0430692708
 40
0.0891859059
 40
0.1383039462
 40
0.1903539308
 40
0.2452509344
 40
0.3028923159
 40
0.36316428
 40
0.4259386958
 40
0.4910792536
 40
0.558438617
 40
0.6278623889
 40
0.6991843849
 40
0.7722354743
 40
0.8468474017
 40
0.9228412057
 40
1.0
 40
1.0
 40
1.0
 40
1.0
 10
12.1943201709
 20
10.6901850413
 30
0.0
 10
12.1897224374
 20
10.692456278
 30
0.0
 10
12.1800797929
 20
10.6969151594
 30
0.0
 10
12.1648460205
 20
10.7031795243
 30
0.0
 10
12.1483832854
 20
10.7092332583
 30
0.0
 10
12.1307352837
 20
10.7150607069
 30
0.0
 10
12.1119481617
 20
10.7206456298
 30
0.0
 10
12.0920716216
 20
10.7259737142
 30
0.0
 10
12.071158233
 20
10.7310299558
 30
0.0
 10
12.0492635157
 20
10.735801438
 30
0.0
 10
12.0264455518
 20
10.7402746849
 30
0.0
 10
12.0027649285
 20
10.7444382881
 30
0.0
 10
11.9782848516
 20
10.7482803897
 30
0.0
 10
11.9530707776
 20
10.7517913407
 30
0.0
 10
11.927189175
 20
10.7549611972
 30
0.0
 10
11.9007077819
 20
10.7577819375
 30
0.0
 10
11.8736997049
 20
10.7602452206
 30
0.0
 10
11.8555166407
 20
10.761635724
 30
0.0
 10
11.8463515937
 20
10.7622713221
 30
0.0
  0
SPLINE
  5
3A2
100
AcDbEntity
  8
0
100
AcDbSpline
 62
7
  6
CONTINUOUS
 70
0
 71
3
 72
23
 73
19
 74
0
 42
0.0000001
 43
0.0000001
 44
0.0000000001
 40
0.0
 40
0.0
 40
0.0
 40
0.0
 40
0.0436202716
 40
0.0892267831
 40
0.1370684894
 40
0.1873535484
 40
0.2402536978
 40
0.2958870825
 40
0.3543309839
 40
0.4156093066
 40
0.4797101
 40
0.5465786547
 40
0.6161344819
 40
0.6882693018
 40
0.7628605839
 40
0.8397743489
 40
0.9188692317
 40
1.0
 40
1.0
 40
1.0
 40
1.0
 10
11.1920883241
 20
10.6807965234
 30
0.0
 10
11.1897783908
 20
10.679655956
 30
0.0
 10
11.1851412718
 20
10.6771408616
 30
0.0
 10
11.1783139895
 20
10.672779812
 30
0.0
 10
11.1714776078
 20
10.6677375273
 30
0.0
 10
11.1646360652
 20
10.6620065959
 30
0.0
 10
11.1577949741
 20
10.6555829452
 30
0.0
 10
11.1509574406
 20
10.6484713721
 30
0.0
 10
11.1441291885
 20
10.6406805584
 30
0.0
 10
11.1373129515
 20
10.6322271534
 30
0.0
 10
11.1305137899
 20
10.6231312441
 30
0.0
 10
11.1237339467
 20
10.6134188578
 30
0.0
 10
11.1169772868
 20
10.6031183045
 30
0.0
 10
11.1102454067
 20
10.5922613445
 30
0.0
 10
11.1035406966
 20
10.5808804844
 30
0.0
 10
11.0968640543
 20
10.5690093946
 30
0.0
 10
11.0902165687
 20
10.5566815476
 30
0.0
 10
11.0858574553
 20
10.5482821251
 30
0.0
 10
11.083679926
 20
10.5440139895
 30
0.0
  0
SPLINE
  5
3A3
100
AcDbEntity
  8
0
100
AcDbSpline
 62
7
  6
CONTINUOUS
 70
0
 71
3
 72
28
 73
24
 74
0
 42
0.0000001
 43
0.0000001
 44
0.0000000001
 40
0.0
 40
0.0
 40
0.0
 40
0.0
 40
0.0168911477
 40
0.0347560928
 40
0.0536207074
 40
0.073502463
 40
0.0944132651
 40
0.1163598006
 40
0.1393426696
 40
0.1633589116
 40
0.1884028204
 40
0.2144644664
 40
0.2695844835
 40
0.3285946677
 40
0.3913311646
 40
0.4576025972
 40
0.5271932429
 40
0.5998661009
 40
0.6753666324
 40
0.7534188352
 40
0.8337419147
 40
0.9160498998
 40
1.0
 40
1.0
 40
1.0
 40
1.0
 10
11.2843415947
 20
9.0829766913
 30
0.0
 10
11.2856881076
 20
9.0817888303
 30
0.0
 10
11.2885328124
 20
9.0794276652
 30
0.0
 10
11.2931049217
 20
9.0760201904
 30
0.0
 10
11.2980949151
 20
9.0726526956
 30
0.0
 10
11.3034974703
 20
9.0693283628
 30
0.0
 10
11.3093073968
 20
9.0660504892
 30
0.0
 10
11.3155190024
 20
9.0628225351
 30
0.0
 10
11.3221259024
 20
9.0596474685
 30
0.0
 10
11.3291214468
 20
9.056528506
 30
0.0
 10
11.3364987188
 20
9.0534689813
 30
0.0
 10
11.347031914
 20
9.0493966149
 30
0.0
 10
11.361111627
 20
9.0444976471
 30
0.0
 10
11.3790977249
 20
9.0390075663
 30
0.0
 10
11.3984042903
 20
9.0338238196
 30
0.0
 10
11.4189528422
 20
9.0289679328
 30
0.0
 10
11.4406601502
 20
9.0244601761
 30
0.0
 10
11.463437925
 20
9.0203188849
 30
0.0
 10
11.4871930809
 20
9.016561718
 30
0.0
 10
11.5118287589
 20
9.0132036657
 30
0.0
 10
11.5372457543
 20
9.0102588104
 30
0.0
 10
11.5633382292
 20
9.0077397963
 30
0.0
 10
11.5809593612
 20
9.0063626911
 30
0.0
 10
11.5898621317
 20
9.0057452819
 30
0.0
  0
SPLINE
  5
3A4
100
AcDbEntity
  8
0
100
AcDbSpline
 62
7
  6
CONTINUOUS
 70
0
 71
3
 72
29
 73
25
 74
0
 42
0.0000001
 43
0.0000001
 44
0.0000000001
 40
0.0
 40
0.0
 40
0.0
 40
0.0
 40
0.0709839827
 40
0.1429818596
 40
0.2155046776
 40
0.2880795928
 40
0.3602217728
 40
0.4314540888
 40
0.5013064077
 40
0.5693206708
 40
0.6350552793
 40
0.698089349
 40
0.7284697338
 40
0.7580293054
 40
0.7867230494
 40
0.8145089399
 40
0.8413472991
 40
0.8672007086
 40
0.8920357659
 40
0.9158212707
 40
0.9385306691
 40
0.9601413418
 40
0.9806350048
 40
1.0
 40
1.0
 40
1.0
 40
1.0
 10
11.5634626109
 20
10.0070245156
 30
0.0
 10
11.5782144253
 20
10.0060014738
 30
0.0
 10
11.6079539641
 20
10.0042894205
 30
0.0
 10
11.6528233166
 20
10.0027143849
 30
0.0
 10
11.6980480056
 20
10.0021206281
 30
0.0
 10
11.7433048841
 20
10.002511846
 30
0.0
 10
11.7882737228
 20
10.0038856135
 30
0.0
 10
11.8326345088
 20
10.006231888
 30
0.0
 10
11.8760722741
 20
10.0095337511
 30
0.0
 10
11.9182786909
 20
10.0137672563
 30
0.0
 10
11.9589539347
 20
10.0189019102
 30
0.0
 10
11.9917245742
 20
10.0239605272
 30
0.0
 10
12.0169467052
 20
10.0284502655
 30
0.0
 10
12.0350716997
 20
10.0319766728
 30
0.0
 10
12.0526056884
 20
10.0356974596
 30
0.0
 10
12.0695175833
 20
10.0396058667
 30
0.0
 10
12.0857774045
 20
10.0436947569
 30
0.0
 10
12.1013562918
 20
10.047957218
 30
0.0
 10
12.1162267321
 20
10.052385091
 30
0.0
 10
12.1303623897
 20
10.0569709434
 30
0.0
 10
12.1437383383
 20
10.0617063382
 30
0.0
 10
12.1563311778
 20
10.0665827735
 30
0.0
 10
12.1681184519
 20
10.0715919131
 30
0.0
 10
12.175640445
 20
10.0751139329
 30
0.0
 10
12.1792573172
 20
10.0769005564
 30
0.0
  0
SPLINE
  5
3A5
100
AcDbEntity
  8
0
100
AcDbSpline
 62
7
  6
CONTINUOUS
 70
0
 71
3
 72
23
 73
19
 74
0
 42
0.0000001
 43
0.0000001
 44
0.0000000001
 40
0.0
 40
0.0
 40
0.0
 40
0.0
 40
0.0771582859
 40
0.1531516138
 40
0.2277631003
 40
0.3008138096
 40
0.3721355099
 40
0.4415590541
 40
0.5089182344
 40
0.5740586726
 40
0.6368330664
 40
0.6971051206
 40
0.7547467082
 40
0.809644014
 40
0.8616943682
 40
0.9108128577
 40
0.9569300549
 40
1.0
 40
1.0
 40
1.0
 40
1.0
 10
11.5634626109
 20
10.0070245156
 30
0.0
 10
11.554578473
 20
10.0076406326
 30
0.0
 10
11.5369527173
 20
10.0089885148
 30
0.0
 10
11.5107724292
 20
10.0113762873
 30
0.0
 10
11.4851026693
 20
10.0141105538
 30
0.0
 10
11.460014298
 20
10.0171832304
 30
0.0
 10
11.4355729735
 20
10.0205865419
 30
0.0
 10
11.4118431287
 20
10.0243108479
 30
0.0
 10
11.3888882164
 20
10.0283467955
 30
0.0
 10
11.366769502
 20
10.0326828917
 30
0.0
 10
11.3455457073
 20
10.0373080777
 30
0.0
 10
11.3252731286
 20
10.0422092933
 30
0.0
 10
11.3060055837
 20
10.0473740195
 30
0.0
 10
11.2877940351
 20
10.052787709
 30
0.0
 10
11.2706866648
 20
10.0584364872
 30
0.0
 10
11.2547282026
 20
10.064304615
 30
0.0
 10
11.2399609979
 20
10.0703769177
 30
0.0
 10
11.230613648
 20
10.0746990879
 30
0.0
 10
11.2261567005
 20
10.0769006883
 30
0.0
  0
SPLINE
  5
3A6
100
AcDbEntity
  8
0
100
AcDbSpline
 62
7
  6
CONTINUOUS
 70
0
 71
3
 72
21
 73
17
 74
0
 42
0.0000001
 43
0.0000001
 44
0.0000000001
 40
0.0
 40
0.0
 40
0.0
 40
0.0
 40
0.1331620508
 40
0.198721389
 40
0.2635863969
 40
0.3277657689
 40
0.3912790145
 40
0.4541586317
 40
0.5164459921
 40
0.5781920281
 40
0.6394524084
 40
0.7002861096
 40
0.7607522371
 40
0.8209070106
 40
0.8808048208
 40
1.0
 40
1.0
 40
1.0
 40
1.0
 10
11.1806313423
 20
10.0993893858
 30
0.0
 10
11.1942263276
 20
10.0926716604
 30
0.0
 10
11.2148068577
 20
10.0832157722
 30
0.0
 10
11.2426729192
 20
10.072047033
 30
0.0
 10
11.2635224062
 20
10.064521929
 30
0.0
 10
11.2844105329
 20
10.0578330024
 30
0.0
 10
11.3053200973
 20
10.0520025133
 30
0.0
 10
11.3262308032
 20
10.0470380981
 30
0.0
 10
11.3471238578
 20
10.0429423141
 30
0.0
 10
11.3679799384
 20
10.0397024477
 30
0.0
 10
11.3887821584
 20
10.0373001112
 30
0.0
 10
11.4095153775
 20
10.0357059185
 30
0.0
 10
11.4301671215
 20
10.034885053
 30
0.0
 10
11.4507282707
 20
10.0347972875
 30
0.0
 10
11.4779651139
 20
10.0355980412
 30
0.0
 10
11.4983153589
 20
10.0371666257
 30
0.0
 10
11.5118146922
 20
10.0385849635
 30
0.0
  0
SPLINE
  5
3A7
100
AcDbEntity
  8
0
100
AcDbSpline
 62
7
  6
CONTINUOUS
 70
0
 71
3
 72
9
 73
5
 74
0
 42
0.0000001
 43
0.0000001
 44
0.0000000001
 40
0.0
 40
0.0
 40
0.0
 40
0.0
 40
0.4802028106
 40
1.0
 40
1.0
 40
1.0
 40
1.0
 10
11.083679926
 20
10.5440139895
 30
0.0
 10
11.0857713489
 20
10.5415676544
 30
0.0
 10
11.0904001686
 20
10.5367040646
 30
0.0
 10
11.0954336382
 20
10.5322668419
 30
0.0
 10
11.0981279742
 20
10.5300582704
 30
0.0
  0
SPLINE
  5
3A8
100
AcDbEntity
  8
0
100
AcDbSpline
 62
7
  6
CONTINUOUS
 70
0
 71
3
 72
23
 73
19
 74
0
 42
0.0000001
 43
0.0000001
 44
0.0000000001
 40
0.0
 40
0.0
 40
0.0
 40
0.0
 40
0.0584073816
 40
0.1170342823
 40
0.175946792
 40
0.235225456
 40
0.2949566682
 40
0.3552310086
 40
0.416138202
 40
0.4777588108
 40
0.540158822
 40
0.6033849084
 40
0.6674605222
 40
0.7323867869
 40
0.7981446078
 40
0.8646981496
 40
0.9320021535
 40
1.0
 40
1.0
 40
1.0
 40
1.0
 10
11.0981279742
 20
10.5300582704
 30
0.0
 10
11.106575007
 20
10.5309457769
 30
0.0
 10
11.1235334595
 20
10.5324305936
 30
0.0
 10
11.1490945132
 20
10.5336957315
 30
0.0
 10
11.1748140607
 20
10.5339133562
 30
0.0
 10
11.2006798491
 20
10.5329956799
 30
0.0
 10
11.2266735503
 20
10.5308626564
 30
0.0
 10
11.2527696132
 20
10.5274472663
 30
0.0
 10
11.278936034
 20
10.5226988972
 30
0.0
 10
11.3051362481
 20
10.516590505
 30
0.0
 10
11.3313317425
 20
10.5091209109
 30
0.0
 10
11.3574842288
 20
10.5003128539
 30
0.0
 10
11.3835588456
 20
10.490213231
 30
0.0
 10
11.4095263834
 20
10.4788891109
 30
0.0
 10
11.435363479
 20
10.4664202364
 30
0.0
 10
11.4610539303
 20
10.4528951849
 30
0.0
 10
11.4865874914
 20
10.4384067209
 30
0.0
 10
11.5034208998
 20
10.4282152586
 30
0.0
 10
11.5118146922
 20
10.4229884048
 30
0.0
  0
SPLINE
  5
3A9
100
AcDbEntity
  8
0
100
AcDbSpline
 62
7
  6
CONTINUOUS
 70
0
 71
3
 72
9
 73
5
 74
0
 42
0.0000001
 43
0.0000001
 44
0.0000000001
 40
0.0
 40
0.0
 40
0.0
 40
0.0
 40
0.5151645244
 40
1.0
 40
1.0
 40
1.0
 40
1.0
 10
11.2110946352
 20
10.690185299
 30
0.0
 10
11.2077574886
 20
10.6885367883
 30
0.0
 10
11.2013387435
 20
10.6852152078
 30
0.0
 10
11.1950690738
 20
10.6816184748
 30
0.0
 10
11.1920756296
 20
10.6797990823
 30
0.0
  0
SPLINE
  5
3AA
100
AcDbEntity
  8
0
100
AcDbSpline
 62
7
  6
CONTINUOUS
 70
0
 71
3
 72
55
 73
51
 74
0
 42
0.0000001
 43
0.0000001
 44
0.0000000001
 40
0.0
 40
0.0
 40
0.0
 40
0.0
 40
0.0126039668
 40
0.0246626451
 40
0.0361845815
 40
0.0471813629
 40
0.0576675083
 40
0.0676611077
 40
0.0771851246
 40
0.0862675479
 40
0.0949416347
 40
0.1032466857
 40
0.1112290233
 40
0.118941678
 40
0.1264439865
 40
0.1338010228
 40
0.1410823646
 40
0.1483598643
 40
0.1557054861
 40
0.1631891608
 40
0.1708765213
 40
0.1788275498
 40
0.1870959619
 40
0.195728829
 40
0.2047661593
 40
0.2142418107
 40
0.2241843014
 40
0.2346171506
 40
0.2455588974
 40
0.2570244016
 40
0.2690255426
 40
0.281571226
 40
0.294667253
 40
0.3083174627
 40
0.337285222
 40
0.3684733057
 40
0.4018562187
 40
0.4373894698
 40
0.4750146658
 40
0.514659581
 40
0.5562421653
 40
0.5996694007
 40
0.6448409651
 40
0.6916481552
 40
0.7399765684
 40
0.7897029257
 40
0.8407002665
 40
0.8928422091
 40
0.9459958947
 40
1.0
 40
1.0
 40
1.0
 40
1.0
 10
11.1920756296
 20
10.6797990823
 30
0.0
 10
11.1901786707
 20
10.6786461252
 30
0.0
 10
11.1865027015
 20
10.6763302173
 30
0.0
 10
11.181234727
 20
10.6727411571
 30
0.0
 10
11.1763388014
 20
10.6691165586
 30
0.0
 10
11.1718182497
 20
10.6654590186
 30
0.0
 10
11.1676762188
 20
10.6617709301
 30
0.0
 10
11.163915882
 20
10.6580544589
 30
0.0
 10
11.1605398503
 20
10.6543120384
 30
0.0
 10
11.1575504526
 20
10.6505460558
 30
0.0
 10
11.1549500882
 20
10.6467587539
 30
0.0
 10
11.1527413902
 20
10.6429522375
 30
0.0
 10
11.1509263729
 20
10.6391290426
 30
0.0
 10
11.1495069382
 20
10.6352918176
 30
0.0
 10
11.1484851083
 20
10.6314434258
 30
0.0
 10
11.1478629721
 20
10.627587117
 30
0.0
 10
11.1476413162
 20
10.623726694
 30
0.0
 10
11.1478203737
 20
10.6198660633
 30
0.0
 10
11.1483999439
 20
10.6160091321
 30
0.0
 10
11.1493793658
 20
10.6121597351
 30
0.0
 10
11.1507566235
 20
10.6083211829
 30
0.0
 10
11.1525296758
 20
10.6044963716
 30
0.0
 10
11.1546965973
 20
10.600687954
 30
0.0
 10
11.1572554448
 20
10.5968985083
 30
0.0
 10
11.1602035953
 20
10.5931301529
 30
0.0
 10
11.1635386319
 20
10.5893851187
 30
0.0
 10
11.167258219
 20
10.5856657629
 30
0.0
 10
11.1713598176
 20
10.5819745572
 30
0.0
 10
11.1758402772
 20
10.5783136534
 30
0.0
 10
11.1806964347
 20
10.5746854435
 30
0.0
 10
11.1859250539
 20
10.5710924491
 30
0.0
 10
11.1915225643
 20
10.5675372369
 30
0.0
 10
11.1974848751
 20
10.5640219952
 30
0.0
 10
11.2060867801
 20
10.5592977642
 30
0.0
 10
11.2177440456
 20
10.5535311974
 30
0.0
 10
11.2328479837
 20
10.5469398571
 30
0.0
 10
11.2492909477
 20
10.5405655826
 30
0.0
 10
11.2670264399
 20
10.5344259926
 30
0.0
 10
11.2860048817
 20
10.5285392203
 30
0.0
 10
11.3061725597
 20
10.5229216414
 30
0.0
 10
11.3274723743
 20
10.5175900285
 30
0.0
 10
11.3498437374
 20
10.512559176
 30
0.0
 10
11.3732230343
 20
10.5078441693
 30
0.0
 10
11.3975437269
 20
10.5034580386
 30
0.0
 10
11.4227363154
 20
10.4994140747
 30
0.0
 10
11.4487285477
 20
10.4957233027
 30
0.0
 10
11.4754467789
 20
10.4923968258
 30
0.0
 10
11.502816007
 20
10.4894437525
 30
0.0
 10
11.5307555373
 20
10.4868733888
 30
0.0
 10
11.5495740811
 20
10.485429572
 30
0.0
 10
11.5590626908
 20
10.4847715347
 30
0.0
  0
SPLINE
  5
3AB
100
AcDbEntity
  8
0
100
AcDbSpline
 62
7
  6
CONTINUOUS
 70
0
 71
3
 72
56
 73
52
 74
0
 42
0.0000001
 43
0.0000001
 44
0.0000000001
 40
0.0
 40
0.0
 40
0.0
 40
0.0
 40
0.0460140365
 40
0.0926138763
 40
0.1395821546
 40
0.1867221822
 40
0.2338288136
 40
0.280695969
 40
0.3271205498
 40
0.3729016883
 40
0.4178419215
 40
0.4617486806
 40
0.5044357275
 40
0.5457237503
 40
0.5854421779
 40
0.623430808
 40
0.6595404895
 40
0.6936358272
 40
0.7098908177
 40
0.7255987191
 40
0.7407472814
 40
0.7553261698
 40
0.7693260262
 40
0.7827391099
 40
0.795560201
 40
0.8077857039
 40
0.8194143239
 40
0.8304482927
 40
0.8408926824
 40
0.8507562508
 40
0.8600531092
 40
0.8688025169
 40
0.8770301158
 40
0.8847700999
 40
0.8920656216
 40
0.8989701892
 40
0.9055493464
 40
0.9118801083
 40
0.9180498998
 40
0.9241540552
 40
0.93029114
 40
0.9365581198
 40
0.9430454648
 40
0.9498338051
 40
0.9533640988
 40
0.9569946791
 40
0.964581397
 40
0.9726423977
 40
0.9812148065
 40
0.9903269582
 40
1.0
 40
1.0
 40
1.0
 40
1.0
 10
11.5590626908
 20
10.4847715347
 30
0.0
 10
11.5713605781
 20
10.4839186733
 30
0.0
 10
11.5961297835
 20
10.4824370596
 30
0.0
 10
11.6334943903
 20
10.4808860114
 30
0.0
 10
11.6711824541
 20
10.4799973149
 30
0.0
 10
11.709016051
 20
10.4797749521
 30
0.0
 10
11.7468206086
 20
10.4802197177
 30
0.0
 10
11.7844197569
 20
10.48132975
 30
0.0
 10
11.8216381663
 20
10.4830998808
 30
0.0
 10
11.8583026125
 20
10.4855215268
 30
0.0
 10
11.8942423332
 20
10.4885834485
 30
0.0
 10
11.9292899956
 20
10.4922712971
 30
0.0
 10
11.9632825032
 20
10.4965674255
 30
0.0
 10
11.9960617172
 20
10.5014517752
 30
0.0
 10
12.0274752517
 20
10.5069013102
 30
0.0
 10
12.0573773968
 20
10.5128900045
 30
0.0
 10
12.0856291516
 20
10.5193899024
 30
0.0
 10
12.1080315328
 20
10.5252968603
 30
0.0
 10
12.1250153683
 20
10.5302746764
 30
0.0
 10
12.1370576787
 20
10.5340568389
 30
0.0
 10
12.1485940047
 20
10.5379430595
 30
0.0
 10
12.1596111153
 20
10.5419285394
 30
0.0
 10
12.1700962305
 20
10.5460087244
 30
0.0
 10
12.1800371501
 20
10.55017911
 30
0.0
 10
12.1894225837
 20
10.5544345184
 30
0.0
 10
12.1982417463
 20
10.5587701118
 30
0.0
 10
12.2064844018
 20
10.5631812283
 30
0.0
 10
12.2141413848
 20
10.5676624971
 30
0.0
 10
12.2212040571
 20
10.5722089456
 30
0.0
 10
12.2276642269
 20
10.576815974
 30
0.0
 10
12.2335149327
 20
10.5814783062
 30
0.0
 10
12.2387496765
 20
10.5861911877
 30
0.0
 10
12.2433620648
 20
10.5909504733
 30
0.0
 10
12.2473469052
 20
10.5957514274
 30
0.0
 10
12.2506990392
 20
10.6005898506
 30
0.0
 10
12.2534125349
 20
10.6054619008
 30
0.0
 10
12.2554824028
 20
10.6103625417
 30
0.0
 10
12.2569034188
 20
10.6152860565
 30
0.0
 10
12.2576699249
 20
10.6202252638
 30
0.0
 10
12.2577793797
 20
10.6251709486
 30
0.0
 10
12.2572315637
 20
10.6301133799
 30
0.0
 10
12.2560279244
 20
10.6350430697
 30
0.0
 10
12.2541735767
 20
10.6399518529
 30
0.0
 10
12.2521174697
 20
10.6439675998
 30
0.0
 10
12.2501692291
 20
10.6471580055
 30
0.0
 10
12.247950044
 20
10.6504285174
 30
0.0
 10
12.2447588165
 20
10.6544982506
 30
0.0
 10
12.2403550123
 20
10.6592717248
 30
0.0
 10
12.2353267704
 20
10.6640006232
 30
0.0
 10
12.2296805895
 20
10.6686801739
 30
0.0
 10
12.22563145
 20
10.6716733588
 30
0.0
 10
12.2235112264
 20
10.6731634376
 30
0.0
  0
SPLINE
  5
3AC
100
AcDbEntity
  8
0
100
AcDbSpline
 62
7
  6
CONTINUOUS
 70
0
 71
3
 72
11
 73
7
 74
0
 42
0.0000001
 43
0.0000001
 44
0.0000000001
 40
0.0
 40
0.0
 40
0.0
 40
0.0
 40
0.2310152257
 40
0.4746103058
 40
0.7309143418
 40
1.0
 40
1.0
 40
1.0
 40
1.0
 10
12.2235112264
 20
10.6731634376
 30
0.0
 10
12.2213803602
 20
10.6746609959
 30
0.0
 10
12.2169279224
 20
10.6776323923
 30
0.0
 10
12.2098855426
 20
10.6819151396
 30
0.0
 10
12.2023111234
 20
10.6861366844
 30
0.0
 10
12.197040082
 20
10.688841431
 30
0.0
 10
12.1943201709
 20
10.6901850413
 30
0.0
  0
SPLINE
  5
3AD
100
AcDbEntity
  8
0
100
AcDbSpline
 62
7
  6
CONTINUOUS
 70
0
 71
3
 72
23
 73
19
 74
0
 42
0.0000001
 43
0.0000001
 44
0.0000000001
 40
0.0
 40
0.0
 40
0.0
 40
0.0
 40
0.0389912911
 40
0.0815584749
 40
0.127700885
 40
0.1773780274
 40
0.2305124584
 40
0.2870011676
 40
0.3467156031
 40
0.4095084863
 40
0.4752138615
 40
0.5436514437
 40
0.6146276979
 40
0.6879342366
 40
0.7633520963
 40
0.8406622943
 40
0.9196371517
 40
1.0
 40
1.0
 40
1.0
 40
1.0
 10
11.2836471299
 20
9.0863590054
 30
0.0
 10
11.287065679
 20
9.0841701012
 30
0.0
 10
11.2943970302
 20
9.079870918
 30
0.0
 10
11.3062681638
 20
9.0738711921
 30
0.0
 10
11.3194562921
 20
9.068056817
 30
0.0
 10
11.3339185221
 20
9.0624481215
 30
0.0
 10
11.3496081142
 20
9.0570627995
 30
0.0
 10
11.3664737276
 20
9.0519195354
 30
0.0
 10
11.3844597766
 20
9.0470351707
 30
0.0
 10
11.4035067594
 20
9.042426491
 30
0.0
 10
11.4235514989
 20
9.0381088633
 30
0.0
 10
11.4445274683
 20
9.0340968866
 30
0.0
 10
11.4663648164
 20
9.0304042532
 30
0.0
 10
11.488990442
 20
9.0270431837
 30
0.0
 10
11.5123293165
 20
9.0240251744
 30
0.0
 10
11.5363048869
 20
9.0213601007
 30
0.0
 10
11.5608349731
 20
9.0190576458
 30
0.0
 10
11.5773747074
 20
9.0177789185
 30
0.0
 10
11.5857210304
 20
9.0172000991
 30
0.0
  0
SPLINE
  5
3AE
100
AcDbEntity
  8
0
100
AcDbSpline
 62
7
  6
CONTINUOUS
 70
0
 71
3
 72
21
 73
17
 74
0
 42
0.0000001
 43
0.0000001
 44
0.0000000001
 40
0.0
 40
0.0
 40
0.0
 40
0.0
 40
0.1269266306
 40
0.1902356571
 40
0.2534226618
 40
0.3164750211
 40
0.379381614
 40
0.442133702
 40
0.5047247465
 40
0.5671521045
 40
0.6294167402
 40
0.6915228504
 40
0.7534784743
 40
0.8152934295
 40
0.8769787052
 40
1.0
 40
1.0
 40
1.0
 40
1.0
 10
11.5657355009
 20
10.419248984
 30
0.0
 10
11.5887430839
 20
10.4269733992
 30
0.0
 10
11.6235034894
 20
10.4377611975
 30
0.0
 10
11.6703474101
 20
10.4501807549
 30
0.0
 10
11.7056515966
 20
10.4584064487
 30
0.0
 10
11.7411297319
 20
10.4654641668
 30
0.0
 10
11.7767493411
 20
10.4712784127
 30
0.0
 10
11.8124692768
 20
10.4757873673
 30
0.0
 10
11.8482417988
 20
10.4789506574
 30
0.0
 10
11.8840154162
 20
10.4807526602
 30
0.0
 10
11.9197386235
 20
10.4812015595
 30
0.0
 10
11.9553633403
 20
10.4803308272
 30
0.0
 10
11.9908477789
 20
10.4781964237
 30
0.0
 10
12.0261590834
 20
10.4748692137
 30
0.0
 10
12.0729302927
 20
10.4689590717
 30
0.0
 10
12.1077627302
 20
10.4629866694
 30
0.0
 10
12.1308419085
 20
10.4584393158
 30
0.0
  0
SPLINE
  5
3AF
100
AcDbEntity
  8
0
100
AcDbSpline
 62
7
  6
CONTINUOUS
 70
0
 71
3
 72
21
 73
17
 74
0
 42
0.0000001
 43
0.0000001
 44
0.0000000001
 40
0.0
 40
0.0
 40
0.0
 40
0.0
 40
0.1230212948
 40
0.1847065705
 40
0.2465215258
 40
0.3084771496
 40
0.3705832599
 40
0.4328478955
 40
0.4952752535
 40
0.5578662981
 40
0.6206183861
 40
0.683524979
 40
0.7465773382
 40
0.8097643429
 40
0.8730733694
 40
1.0
 40
1.0
 40
1.0
 40
1.0
 10
11.5657355009
 20
10.0348455427
 30
0.0
 10
11.5888146792
 20
10.0302981892
 30
0.0
 10
11.6236471166
 20
10.0243257868
 30
0.0
 10
11.670418326
 20
10.0184156448
 30
0.0
 10
11.7057296305
 20
10.0150884349
 30
0.0
 10
11.7412140691
 20
10.0129540313
 30
0.0
 10
11.7768387859
 20
10.012083299
 30
0.0
 10
11.8125619932
 20
10.0125321983
 30
0.0
 10
11.8483356107
 20
10.0143342012
 30
0.0
 10
11.8841081326
 20
10.0174974912
 30
0.0
 10
11.9198280683
 20
10.0220064459
 30
0.0
 10
11.9554476775
 20
10.0278206917
 30
0.0
 10
11.9909258128
 20
10.0348784099
 30
0.0
 10
12.0262299993
 20
10.0431041036
 30
0.0
 10
12.07307392
 20
10.0555236611
 30
0.0
 10
12.1078343255
 20
10.0663114594
 30
0.0
 10
12.1308419085
 20
10.0740358745
 30
0.0
  0
SPLINE
  5
3B0
100
AcDbEntity
  8
0
100
AcDbSpline
 62
7
  6
CONTINUOUS
 70
0
 71
3
 72
24
 73
20
 74
0
 42
0.0000001
 43
0.0000001
 44
0.0000000001
 40
0.0
 40
0.0
 40
0.0
 40
0.0
 40
0.0904093868
 40
0.1775325331
 40
0.2610553835
 40
0.3406844661
 40
0.41616279
 40
0.4872998029
 40
0.521207684
 40
0.5540039824
 40
0.6162843266
 40
0.6743126111
 40
0.7283969377
 40
0.7789824074
 40
0.826623815
 40
0.8719379797
 40
0.9155549124
 40
0.9580698186
 40
1.0
 40
1.0
 40
1.0
 40
1.0
 10
12.1703146689
 20
10.4686556141
 30
0.0
 10
12.1733501973
 20
10.4746054982
 30
0.0
 10
12.1794241692
 20
10.4862318218
 30
0.0
 10
12.1887496534
 20
10.5031165932
 30
0.0
 10
12.1981299186
 20
10.5190541934
 30
0.0
 10
12.2075619319
 20
10.5339534811
 30
0.0
 10
12.2170407954
 20
10.5477265333
 30
0.0
 10
12.2250966371
 20
10.5583635395
 30
0.0
 10
12.231573532
 20
10.5662239575
 30
0.0
 10
12.2378460871
 20
10.5733992694
 30
0.0
 10
12.2456852764
 20
10.5815665823
 30
0.0
 10
12.2552717861
 20
10.5901942936
 30
0.0
 10
12.2648604887
 20
10.5974692021
 30
0.0
 10
12.2744392984
 20
10.6034090691
 30
0.0
 10
12.2839948579
 20
10.6080541536
 30
0.0
 10
12.2935134461
 20
10.6114626427
 30
0.0
 10
12.30298192
 20
10.613708861
 30
0.0
 10
12.3123880108
 20
10.6148791443
 30
0.0
 10
12.3186377709
 20
10.6150032285
 30
0.0
 10
12.3217343585
 20
10.6149158115
 30
0.0
  0
SPLINE
  5
3B1
100
AcDbEntity
  8
0
100
AcDbSpline
 62
7
  6
CONTINUOUS
 70
0
 71
3
 72
15
 73
11
 74
0
 42
0.0000001
 43
0.0000001
 44
0.0000000001
 40
0.0
 40
0.0
 40
0.0
 40
0.0
 40
0.1193884442
 40
0.2394118209
 40
0.3604965246
 40
0.4831212753
 40
0.6078106285
 40
0.735130254
 40
0.8656619472
 40
1.0
 40
1.0
 40
1.0
 40
1.0
 10
12.1703146689
 20
10.0842521728
 30
0.0
 10
12.1720844246
 20
10.0842022124
 30
0.0
 10
12.1756369515
 20
10.0841993809
 30
0.0
 10
12.1809772439
 20
10.0845026125
 30
0.0
 10
12.1863379375
 20
10.085130156
 30
0.0
 10
12.1917181057
 20
10.0860987296
 30
0.0
 10
12.1971169255
 20
10.0874247449
 30
0.0
 10
12.2025330951
 20
10.0891246675
 30
0.0
 10
12.2079650548
 20
10.091212971
 30
0.0
 10
12.2115396914
 20
10.0928478366
 30
0.0
 10
12.2133259604
 20
10.0937298362
 30
0.0
  0
SPLINE
  5
3B2
100
AcDbEntity
  8
0
100
AcDbSpline
 62
7
  6
CONTINUOUS
 70
0
 71
3
 72
58
 73
54
 74
0
 42
0.0000001
 43
0.0000001
 44
0.0000000001
 40
0.0
 40
0.0
 40
0.0
 40
0.0
 40
0.0074590286
 40
0.015452749
 40
0.0240004651
 40
0.0331158712
 40
0.0428067258
 40
0.0530762723
 40
0.0639240862
 40
0.0753464795
 40
0.0873370598
 40
0.099887109
 40
0.1129857854
 40
0.1266204268
 40
0.1407767563
 40
0.1554389664
 40
0.1705899132
 40
0.1862112493
 40
0.2022834572
 40
0.2187859896
 40
0.2356973692
 40
0.2529952036
 40
0.2886560054
 40
0.3255751056
 40
0.3635484299
 40
0.4023637669
 40
0.4418025691
 40
0.4816416446
 40
0.5216548461
 40
0.5616147539
 40
0.6012943362
 40
0.6404686274
 40
0.6789163894
 40
0.7164218292
 40
0.7527763378
 40
0.7704595603
 40
0.7877810149
 40
0.804717452
 40
0.8212464309
 40
0.8373464158
 40
0.852996792
 40
0.8681779792
 40
0.8828715554
 40
0.8970602902
 40
0.9107282928
 40
0.9238611882
 40
0.936446199
 40
0.9484723674
 40
0.9599308352
 40
0.9708150479
 40
0.9811211415
 40
0.9908484501
 40
1.0
 40
1.0
 40
1.0
 40
1.0
 10
10.2924553523
 20
10.0876753426
 30
0.0
 10
10.2905719133
 20
10.0858560802
 30
0.0
 10
10.2865173597
 20
10.0822432435
 30
0.0
 10
10.2798587403
 20
10.077072023
 30
0.0
 10
10.2724280883
 20
10.0719730714
 30
0.0
 10
10.2642368328
 20
10.0669538788
 30
0.0
 10
10.2552966549
 20
10.0620213556
 30
0.0
 10
10.2456207369
 20
10.0571827672
 30
0.0
 10
10.2352233897
 20
10.0524453064
 30
0.0
 10
10.2241201207
 20
10.0478160625
 30
0.0
 10
10.2123275649
 20
10.0433020369
 30
0.0
 10
10.1998634498
 20
10.0389101211
 30
0.0
 10
10.1867465886
 20
10.0346469858
 30
0.0
 10
10.1729968158
 20
10.0305191387
 30
0.0
 10
10.1586349485
 20
10.0265329204
 30
0.0
 10
10.1436827735
 20
10.0226944094
 30
0.0
 10
10.1281629905
 20
10.0190094751
 30
0.0
 10
10.1120991707
 20
10.0154837858
 30
0.0
 10
10.0955157346
 20
10.0121227189
 30
0.0
 10
10.0784379098
 20
10.0089314211
 30
0.0
 10
10.0608916467
 20
10.005914766
 30
0.0
 10
10.0366616942
 20
10.0020929209
 30
0.0
 10
10.0053983201
 20
9.9978007697
 30
0.0
 10
9.9668267085
 20
9.9934628398
 30
0.0
 10
9.9270626752
 20
9.9899137605
 30
0.0
 10
9.8863482383
 20
9.9871753745
 30
0.0
 10
9.8449309993
 20
9.9852646224
 30
0.0
 10
9.8030629768
 20
9.9841932968
 30
0.0
 10
9.7609989476
 20
9.9839679874
 30
0.0
 10
9.7189949038
 20
9.9845901006
 30
0.0
 10
9.677306459
 20
9.9860558004
 30
0.0
 10
9.6361873035
 20
9.988356028
 30
0.0
 10
9.5958875446
 20
9.9914765882
 30
0.0
 10
9.5566524911
 20
9.9953982648
 30
0.0
 10
9.5247551445
 20
9.9993490689
 30
0.0
 10
9.4999564524
 20
10.0029044622
 30
0.0
 10
9.4819415087
 20
10.005730378
 30
0.0
 10
9.464366593
 20
10.0087358273
 30
0.0
 10
9.447258426
 20
10.011916251
 30
0.0
 10
9.4306430365
 20
10.0152667495
 30
0.0
 10
9.4145456942
 20
10.0187822091
 30
0.0
 10
9.398990872
 20
10.0224572586
 30
0.0
 10
9.3840021948
 20
10.0262862461
 30
0.0
 10
9.3696024209
 20
10.0302633227
 30
0.0
 10
9.3558133941
 20
10.0343824174
 30
0.0
 10
9.3426559929
 20
10.0386372022
 30
0.0
 10
9.3301501171
 20
10.043021189
 30
0.0
 10
9.3183146467
 20
10.0475277104
 30
0.0
 10
9.3071673677
 20
10.0521498882
 30
0.0
 10
9.2967250171
 20
10.0568807194
 30
0.0
 10
9.2870030805
 20
10.06171318
 30
0.0
 10
9.2780162716
 20
10.0666398476
 30
0.0
 10
9.272351952
 20
10.0700869931
 30
0.0
 10
9.2696525765
 20
10.0718292165
 30
0.0
  0
SPLINE
  5
3B3
100
AcDbEntity
  8
0
100
AcDbSpline
 62
7
  6
CONTINUOUS
 70
0
 71
3
 72
23
 73
19
 74
0
 42
0.0000001
 43
0.0000001
 44
0.0000000001
 40
0.0
 40
0.0
 40
0.0
 40
0.0
 40
0.0827329981
 40
0.1622048005
 40
0.238469996
 40
0.3115982686
 40
0.3816767438
 40
0.4488108568
 40
0.513128782
 40
0.5747821818
 40
0.6339500933
 40
0.6908411152
 40
0.7456947835
 40
0.7987838098
 40
0.850412431
 40
0.9009151235
 40
0.9506515887
 40
1.0
 40
1.0
 40
1.0
 40
1.0
 10
9.2696525765
 20
10.0718292165
 30
0.0
 10
9.2680868774
 20
10.0728397457
 30
0.0
 10
9.2650474127
 20
10.0748683918
 30
0.0
 10
9.2606827652
 20
10.0780008855
 30
0.0
 10
9.2566073367
 20
10.0811596713
 30
0.0
 10
9.2528234705
 20
10.0843430374
 30
0.0
 10
9.2493332241
 20
10.0875492554
 30
0.0
 10
9.2461386335
 20
10.0907767388
 30
0.0
 10
9.2432414651
 20
10.094023766
 30
0.0
 10
9.2406434716
 20
10.0972887573
 30
0.0
 10
9.2383462608
 20
10.1005700824
 30
0.0
 10
9.2363513039
 20
10.1038660781
 30
0.0
 10
9.2346601471
 20
10.1071751257
 30
0.0
 10
9.2332740537
 20
10.1104954076
 30
0.0
 10
9.2321944027
 20
10.1138250469
 30
0.0
 10
9.2314222853
 20
10.1171620428
 30
0.0
 10
9.2309585859
 20
10.1205037482
 30
0.0
 10
9.2308553921
 20
10.1227368951
 30
0.0
 10
9.2308553923
 20
10.1238484239
 30
0.0
  0
SPLINE
  5
3B4
100
AcDbEntity
  8
0
100
AcDbSpline
 62
7
  6
CONTINUOUS
 70
0
 71
3
 72
58
 73
54
 74
0
 42
0.0000001
 43
0.0000001
 44
0.0000000001
 40
0.0
 40
0.0
 40
0.0
 40
0.0
 40
0.0074590286
 40
0.015452749
 40
0.0240004651
 40
0.0331158712
 40
0.0428067258
 40
0.0530762723
 40
0.0639240862
 40
0.0753464795
 40
0.0873370598
 40
0.099887109
 40
0.1129857854
 40
0.1266204268
 40
0.1407767563
 40
0.1554389664
 40
0.1705899132
 40
0.1862112493
 40
0.2022834572
 40
0.2187859896
 40
0.2356973692
 40
0.2529952036
 40
0.2886560054
 40
0.3255751056
 40
0.3635484299
 40
0.4023637669
 40
0.4418025691
 40
0.4816416446
 40
0.5216548461
 40
0.5616147539
 40
0.6012943362
 40
0.6404686274
 40
0.6789163894
 40
0.7164218292
 40
0.7527763378
 40
0.7704595603
 40
0.7877810149
 40
0.804717452
 40
0.8212464309
 40
0.8373464158
 40
0.852996792
 40
0.8681779792
 40
0.8828715554
 40
0.8970602902
 40
0.9107282928
 40
0.9238611882
 40
0.936446199
 40
0.9484723674
 40
0.9599308352
 40
0.9708150479
 40
0.9811211415
 40
0.9908484501
 40
1.0
 40
1.0
 40
1.0
 40
1.0
 10
12.2243071194
 20
9.9537009676
 30
0.0
 10
12.2224236803
 20
9.9518817051
 30
0.0
 10
12.2183691267
 20
9.9482688684
 30
0.0
 10
12.2117105074
 20
9.9430976479
 30
0.0
 10
12.2042798554
 20
9.9379986963
 30
0.0
 10
12.1960885998
 20
9.9329795037
 30
0.0
 10
12.1871484219
 20
9.9280469806
 30
0.0
 10
12.1774725039
 20
9.9232083921
 30
0.0
 10
12.1670751568
 20
9.9184709314
 30
0.0
 10
12.1559718878
 20
9.9138416874
 30
0.0
 10
12.1441793319
 20
9.9093276618
 30
0.0
 10
12.1317152168
 20
9.904935746
 30
0.0
 10
12.1185983556
 20
9.9006726107
 30
0.0
 10
12.1048485829
 20
9.8965447636
 30
0.0
 10
12.0904867155
 20
9.8925585453
 30
0.0
 10
12.0755345405
 20
9.8887200343
 30
0.0
 10
12.0600147575
 20
9.8850351
 30
0.0
 10
12.0439509378
 20
9.8815094107
 30
0.0
 10
12.0273675017
 20
9.8781483438
 30
0.0
 10
12.0102896768
 20
9.874957046
 30
0.0
 10
11.9927434137
 20
9.871940391
 30
0.0
 10
11.9685134612
 20
9.8681185459
 30
0.0
 10
11.9372500871
 20
9.8638263946
 30
0.0
 10
11.8986784755
 20
9.8594884647
 30
0.0
 10
11.8589144423
 20
9.8559393854
 30
0.0
 10
11.8182000053
 20
9.8532009994
 30
0.0
 10
11.7767827664
 20
9.8512902473
 30
0.0
 10
11.7349147438
 20
9.8502189217
 30
0.0
 10
11.6928507146
 20
9.8499936123
 30
0.0
 10
11.6508466708
 20
9.8506157256
 30
0.0
 10
11.609158226
 20
9.8520814253
 30
0.0
 10
11.5680390706
 20
9.8543816529
 30
0.0
 10
11.5277393116
 20
9.8575022131
 30
0.0
 10
11.4885042582
 20
9.8614238897
 30
0.0
 10
11.4566069116
 20
9.8653746938
 30
0.0
 10
11.4318082195
 20
9.8689300871
 30
0.0
 10
11.4137932758
 20
9.8717560029
 30
0.0
 10
11.3962183601
 20
9.8747614522
 30
0.0
 10
11.3791101931
 20
9.877941876
 30
0.0
 10
11.3624948035
 20
9.8812923744
 30
0.0
 10
11.3463974613
 20
9.884807834
 30
0.0
 10
11.330842639
 20
9.8884828835
 30
0.0
 10
11.3158539619
 20
9.892311871
 30
0.0
 10
11.3014541879
 20
9.8962889476
 30
0.0
 10
11.2876651611
 20
9.9004080423
 30
0.0
 10
11.2745077599
 20
9.9046628271
 30
0.0
 10
11.2620018842
 20
9.9090468139
 30
0.0
 10
11.2501664138
 20
9.9135533353
 30
0.0
 10
11.2390191347
 20
9.9181755131
 30
0.0
 10
11.2285767841
 20
9.9229063444
 30
0.0
 10
11.2188548476
 20
9.9277388049
 30
0.0
 10
11.2098680386
 20
9.9326654725
 30
0.0
 10
11.2042037191
 20
9.936112618
 30
0.0
 10
11.2015043436
 20
9.9378548414
 30
0.0
  0
SPLINE
  5
3B5
100
AcDbEntity
  8
0
100
AcDbSpline
 62
7
  6
CONTINUOUS
 70
0
 71
3
 72
23
 73
19
 74
0
 42
0.0000001
 43
0.0000001
 44
0.0000000001
 40
0.0
 40
0.0
 40
0.0
 40
0.0
 40
0.0827329981
 40
0.1622048005
 40
0.238469996
 40
0.3115982686
 40
0.3816767438
 40
0.4488108568
 40
0.513128782
 40
0.5747821818
 40
0.6339500933
 40
0.6908411152
 40
0.7456947835
 40
0.7987838098
 40
0.850412431
 40
0.9009151235
 40
0.9506515887
 40
1.0
 40
1.0
 40
1.0
 40
1.0
 10
11.2015043436
 20
9.9378548414
 30
0.0
 10
11.1999386444
 20
9.9388653706
 30
0.0
 10
11.1968991798
 20
9.9408940167
 30
0.0
 10
11.1925345322
 20
9.9440265104
 30
0.0
 10
11.1884591037
 20
9.9471852962
 30
0.0
 10
11.1846752376
 20
9.9503686623
 30
0.0
 10
11.1811849911
 20
9.9535748803
 30
0.0
 10
11.1779904005
 20
9.9568023637
 30
0.0
 10
11.1750932321
 20
9.9600493909
 30
0.0
 10
11.1724952387
 20
9.9633143822
 30
0.0
 10
11.1701980279
 20
9.9665957073
 30
0.0
 10
11.1682030709
 20
9.969891703
 30
0.0
 10
11.1665119142
 20
9.9732007506
 30
0.0
 10
11.1651258207
 20
9.9765210325
 30
0.0
 10
11.1640461698
 20
9.9798506718
 30
0.0
 10
11.1632740523
 20
9.9831876677
 30
0.0
 10
11.1628103529
 20
9.9865293731
 30
0.0
 10
11.1627071592
 20
9.98876252
 30
0.0
 10
11.1627071593
 20
9.9898740488
 30
0.0
  0
SPLINE
  5
3B6
100
AcDbEntity
  8
0
100
AcDbSpline
 62
7
  6
CONTINUOUS
 70
0
 71
3
 72
60
 73
56
 74
0
 42
0.0000001
 43
0.0000001
 44
0.0000000001
 40
0.0
 40
0.0
 40
0.0
 40
0.0
 40
0.0081437215
 40
0.01697685
 40
0.0265209466
 40
0.03678965
 40
0.0477883286
 40
0.0595158866
 40
0.0719660299
 40
0.0851283246
 40
0.0989885617
 40
0.1135293238
 40
0.1287305536
 40
0.1445695476
 40
0.1610215373
 40
0.1780596973
 40
0.2137771176
 40
0.2514753725
 40
0.290884692
 40
0.3317173433
 40
0.3736711531
 40
0.4164328736
 40
0.4596814124
 40
0.5030909931
 40
0.546334291
 40
0.5890855752
 40
0.6310238557
 40
0.6718360457
 40
0.7112201823
 40
0.7302867147
 40
0.7488898131
 40
0.7669963561
 40
0.7845746229
 40
0.8015944409
 40
0.8180271642
 40
0.8338461164
 40
0.8490264908
 40
0.8635457491
 40
0.8773838801
 40
0.890523522
 40
0.9029506859
 40
0.9146549165
 40
0.9256301632
 40
0.9358756224
 40
0.9453966901
 40
0.9542068483
 40
0.9623293949
 40
0.969800425
 40
0.9766722973
 40
0.9830175573
 40
0.9889330625
 40
0.9917694421
 40
0.994546604
 40
0.9972834941
 40
1.0
 40
1.0
 40
1.0
 40
1.0
 10
13.4494894301
 20
7.613219371
 30
0.0
 10
13.44867053
 20
7.6124283742
 30
0.0
 10
13.4470369607
 20
7.6107023576
 30
0.0
 10
13.444689586
 20
7.607828978
 30
0.0
 10
13.4423523225
 20
7.6045740676
 30
0.0
 10
13.4400296999
 20
7.6009441713
 30
0.0
 10
13.4377259315
 20
7.5969460764
 30
0.0
 10
13.4354456111
 20
7.5925874923
 30
0.0
 10
13.4331931792
 20
7.5878769675
 30
0.0
 10
13.4309731679
 20
7.5828237642
 30
0.0
 10
13.4287900307
 20
7.5774378889
 30
0.0
 10
13.426648139
 20
7.5717300589
 30
0.0
 10
13.424551861
 20
7.5657116479
 30
0.0
 10
13.4225053899
 20
7.5593946967
 30
0.0
 10
13.4205128598
 20
7.5527918379
 30
0.0
 10
13.4178922201
 20
7.5434773809
 30
0.0
 10
13.4147928379
 20
7.5312144391
 30
0.0
 10
13.4114044575
 20
7.5158068381
 30
0.0
 10
13.4083185969
 20
7.499607356
 30
0.0
 10
13.405560327
 20
7.4827459825
 30
0.0
 10
13.4031520719
 20
7.465357915
 30
0.0
 10
13.4011133538
 20
7.4475827402
 30
0.0
 10
13.39946067
 20
7.4295631881
 30
0.0
 10
13.3982073568
 20
7.4114439903
 30
0.0
 10
13.3973634853
 20
7.3933706881
 30
0.0
 10
13.3969357721
 20
7.3754884609
 30
0.0
 10
13.3969275096
 20
7.3579408873
 30
0.0
 10
13.3973386175
 20
7.3408689564
 30
0.0
 10
13.3980348543
 20
7.3270070003
 30
0.0
 10
13.3988061449
 20
7.3162617493
 30
0.0
 10
13.3994801033
 20
7.3084927803
 30
0.0
 10
13.4002543824
 20
7.300942284
 30
0.0
 10
13.4011274252
 20
7.2936254116
 30
0.0
 10
13.4020974241
 20
7.2865568569
 30
0.0
 10
13.4031624498
 20
7.2797508011
 30
0.0
 10
13.4043202883
 20
7.2732208887
 30
0.0
 10
13.4055686128
 20
7.2669801966
 30
0.0
 10
13.4069048834
 20
7.2610412044
 30
0.0
 10
13.4083263541
 20
7.2554157608
 30
0.0
 10
13.4098301962
 20
7.2501150655
 30
0.0
 10
13.4114133153
 20
7.2451496154
 30
0.0
 10
13.4130725698
 20
7.2405291983
 30
0.0
 10
13.4148046665
 20
7.2362628473
 30
0.0
 10
13.4166061908
 20
7.2323587936
 30
0.0
 10
13.418473815
 20
7.2288244943
 30
0.0
 10
13.4204041216
 20
7.22566653
 30
0.0
 10
13.422394015
 20
7.2228907278
 30
0.0
 10
13.4244406227
 20
7.2205022521
 30
0.0
 10
13.4265417325
 20
7.2185057887
 30
0.0
 10
13.4286949463
 20
7.2169065158
 30
0.0
 10
13.4305579234
 20
7.215895418
 30
0.0
 10
13.4320592295
 20
7.215304392
 30
0.0
 10
13.4331790386
 20
7.2149691021
 30
0.0
 10
13.434307344
 20
7.2147361647
 30
0.0
 10
13.435065996
 20
7.2146491269
 30
0.0
 10
13.4354448692
 20
7.2146228485
 30
0.0
  0
SPLINE
  5
3B7
100
AcDbEntity
  8
0
100
AcDbSpline
 62
7
  6
CONTINUOUS
 70
0
 71
3
 72
60
 73
56
 74
0
 42
0.0000001
 43
0.0000001
 44
0.0000000001
 40
0.0
 40
0.0
 40
0.0
 40
0.0
 40
0.0081437215
 40
0.01697685
 40
0.0265209466
 40
0.03678965
 40
0.0477883286
 40
0.0595158866
 40
0.0719660299
 40
0.0851283246
 40
0.0989885617
 40
0.1135293238
 40
0.1287305536
 40
0.1445695476
 40
0.1610215373
 40
0.1780596973
 40
0.2137771176
 40
0.2514753725
 40
0.290884692
 40
0.3317173433
 40
0.3736711531
 40
0.4164328736
 40
0.4596814124
 40
0.5030909931
 40
0.546334291
 40
0.5890855752
 40
0.6310238557
 40
0.6718360457
 40
0.7112201823
 40
0.7302867147
 40
0.7488898131
 40
0.7669963561
 40
0.7845746229
 40
0.8015944409
 40
0.8180271642
 40
0.8338461164
 40
0.8490264908
 40
0.8635457491
 40
0.8773838801
 40
0.890523522
 40
0.9029506859
 40
0.9146549165
 40
0.9256301632
 40
0.9358756224
 40
0.9453966901
 40
0.9542068483
 40
0.9623293949
 40
0.969800425
 40
0.9766722973
 40
0.9830175573
 40
0.9889330625
 40
0.9917694421
 40
0.994546604
 40
0.9972834941
 40
1.0
 40
1.0
 40
1.0
 40
1.0
 10
12.414214104
 20
6.613220137
 30
0.0
 10
12.413395204
 20
6.6124291402
 30
0.0
 10
12.4117616347
 20
6.6107031237
 30
0.0
 10
12.40941426
 20
6.6078297441
 30
0.0
 10
12.4070769965
 20
6.6045748336
 30
0.0
 10
12.4047543739
 20
6.6009449374
 30
0.0
 10
12.4024506054
 20
6.5969468424
 30
0.0
 10
12.4001702851
 20
6.5925882583
 30
0.0
 10
12.3979178532
 20
6.5878777335
 30
0.0
 10
12.3956978418
 20
6.5828245302
 30
0.0
 10
12.3935147047
 20
6.5774386549
 30
0.0
 10
12.391372813
 20
6.5717308249
 30
0.0
 10
12.389276535
 20
6.5657124139
 30
0.0
 10
12.3872300639
 20
6.5593954628
 30
0.0
 10
12.3852375338
 20
6.5527926039
 30
0.0
 10
12.3826168941
 20
6.543478147
 30
0.0
 10
12.3795175119
 20
6.5312152051
 30
0.0
 10
12.3761291315
 20
6.5158076042
 30
0.0
 10
12.3730432709
 20
6.499608122
 30
0.0
 10
12.370285001
 20
6.4827467486
 30
0.0
 10
12.3678767458
 20
6.4653586811
 30
0.0
 10
12.3658380278
 20
6.4475835062
 30
0.0
 10
12.364185344
 20
6.4295639541
 30
0.0
 10
12.3629320308
 20
6.4114447563
 30
0.0
 10
12.3620881593
 20
6.3933714541
 30
0.0
 10
12.361660446
 20
6.375489227
 30
0.0
 10
12.3616521836
 20
6.3579416533
 30
0.0
 10
12.3620632914
 20
6.3408697225
 30
0.0
 10
12.3627595283
 20
6.3270077663
 30
0.0
 10
12.3635308189
 20
6.3162625153
 30
0.0
 10
12.3642047773
 20
6.3084935463
 30
0.0
 10
12.3649790564
 20
6.3009430501
 30
0.0
 10
12.3658520992
 20
6.2936261776
 30
0.0
 10
12.3668220981
 20
6.286557623
 30
0.0
 10
12.3678871238
 20
6.2797515671
 30
0.0
 10
12.3690449623
 20
6.2732216547
 30
0.0
 10
12.3702932868
 20
6.2669809627
 30
0.0
 10
12.3716295574
 20
6.2610419704
 30
0.0
 10
12.373051028
 20
6.2554165269
 30
0.0
 10
12.3745548702
 20
6.2501158315
 30
0.0
 10
12.3761379893
 20
6.2451503814
 30
0.0
 10
12.3777972438
 20
6.2405299643
 30
0.0
 10
12.3795293404
 20
6.2362636133
 30
0.0
 10
12.3813308648
 20
6.2323595596
 30
0.0
 10
12.3831984889
 20
6.2288252603
 30
0.0
 10
12.3851287955
 20
6.2256672961
 30
0.0
 10
12.387118689
 20
6.2228914938
 30
0.0
 10
12.3891652967
 20
6.2205030181
 30
0.0
 10
12.3912664065
 20
6.2185065548
 30
0.0
 10
12.3934196203
 20
6.2169072818
 30
0.0
 10
12.3952825974
 20
6.215896184
 30
0.0
 10
12.3967839034
 20
6.215305158
 30
0.0
 10
12.3979037126
 20
6.2149698681
 30
0.0
 10
12.399032018
 20
6.2147369307
 30
0.0
 10
12.39979067
 20
6.2146498929
 30
0.0
 10
12.4001695432
 20
6.2146236146
 30
0.0
  0
SPLINE
  5
3B8
100
AcDbEntity
  8
0
100
AcDbSpline
 62
7
  6
CONTINUOUS
 70
0
 71
3
 72
11
 73
7
 74
0
 42
0.0000001
 43
0.0000001
 44
0.0000000001
 40
0.0
 40
0.0
 40
0.0
 40
0.0
 40
0.2476406848
 40
0.4970001171
 40
0.7478707908
 40
1.0
 40
1.0
 40
1.0
 40
1.0
 10
9.6495987526
 20
8.8519591374
 30
0.0
 10
9.6569614258
 20
8.8514485343
 30
0.0
 10
9.6717840936
 20
8.8510020753
 30
0.0
 10
9.6940690127
 20
8.8520377141
 30
0.0
 10
9.7163467113
 20
8.8547482229
 30
0.0
 10
9.731072147
 20
8.8576345014
 30
0.0
 10
9.7383909383
 20
8.8593366765
 30
0.0
  0
SPLINE
  5
3B9
100
AcDbEntity
  8
0
100
AcDbSpline
 62
7
  6
CONTINUOUS
 70
0
 71
3
 72
11
 73
7
 74
0
 42
0.0000001
 43
0.0000001
 44
0.0000000001
 40
0.0
 40
0.0
 40
0.0
 40
0.0
 40
0.2476406848
 40
0.4970001171
 40
0.7478707908
 40
1.0
 40
1.0
 40
1.0
 40
1.0
 10
11.5814505197
 20
8.7179847623
 30
0.0
 10
11.5888131928
 20
8.7174741592
 30
0.0
 10
11.6036358607
 20
8.7170277002
 30
0.0
 10
11.6259207798
 20
8.718063339
 30
0.0
 10
11.6481984783
 20
8.7207738478
 30
0.0
 10
11.662923914
 20
8.7236601263
 30
0.0
 10
11.6702427054
 20
8.7253623014
 30
0.0
  0
SPLINE
  5
3BA
100
AcDbEntity
  8
0
100
AcDbSpline
 62
7
  6
CONTINUOUS
 70
0
 71
3
 72
41
 73
37
 74
0
 42
0.0000001
 43
0.0000001
 44
0.0000000001
 40
0.0
 40
0.0
 40
0.0
 40
0.0
 40
0.0311447181
 40
0.062442515
 40
0.0938874625
 40
0.1254698002
 40
0.1571773985
 40
0.1730760322
 40
0.1890002546
 40
0.2209118669
 40
0.2528982321
 40
0.2689155106
 40
0.284943791
 40
0.3170178783
 40
0.3491032352
 40
0.3811777027
 40
0.4132193318
 40
0.4452068082
 40
0.4771198677
 40
0.5089396984
 40
0.5406493204
 40
0.5722339407
 40
0.603681273
 40
0.6349818179
 40
0.6661290955
 40
0.6971198236
 40
0.727954035
 40
0.7586351272
 40
0.7891698391
 40
0.8195681507
 40
0.8498431051
 40
0.8800105515
 40
0.910088813
 40
0.940098286
 40
0.9700609781
 40
1.0
 40
1.0
 40
1.0
 40
1.0
 10
9.407344316
 20
9.2970052027
 30
0.0
 10
9.4156351463
 20
9.2964302317
 30
0.0
 10
9.432221648
 20
9.2946706078
 30
0.0
 10
9.4569002754
 20
9.2902380727
 30
0.0
 10
9.481314717
 20
9.2840293569
 30
0.0
 10
9.5053324339
 20
9.2760781588
 30
0.0
 10
9.5248955542
 20
9.2680414759
 30
0.0
 10
9.5402222673
 20
9.2607900995
 30
0.0
 10
9.5553368958
 20
9.2529868274
 30
0.0
 10
9.5737468311
 20
9.2422384173
 30
0.0
 10
9.5913951222
 20
9.2302366331
 30
0.0
 10
9.605014743
 20
9.2199141924
 30
0.0
 10
9.6182917649
 20
9.2091176064
 30
0.0
 10
9.6341935257
 20
9.1947732325
 30
0.0
 10
9.6520584316
 20
9.1762996996
 30
0.0
 10
9.6686180498
 20
9.156658122
 30
0.0
 10
9.6837835053
 20
9.1359536465
 30
0.0
 10
9.6974740704
 20
9.1142964722
 30
0.0
 10
9.7096166468
 20
9.0918020292
 30
0.0
 10
9.7201464055
 20
9.0685901678
 30
0.0
 10
9.7290070637
 20
9.0447845823
 30
0.0
 10
9.7361512033
 20
9.0205121456
 30
0.0
 10
9.7415405204
 20
8.9959022467
 30
0.0
 10
9.7451460351
 20
8.971086109
 30
0.0
 10
9.746948252
 20
8.9461961004
 30
0.0
 10
9.7469372719
 20
8.9213650363
 30
0.0
 10
9.7451128609
 20
8.8967254779
 30
0.0
 10
9.7414844631
 20
8.8724090292
 30
0.0
 10
9.7360711637
 20
8.8485456376
 30
0.0
 10
9.7289016008
 20
8.8252628961
 30
0.0
 10
9.7200138408
 20
8.8026853681
 30
0.0
 10
9.7094551473
 20
8.7809338696
 30
0.0
 10
9.6972819038
 20
8.7601249662
 30
0.0
 10
9.6835587197
 20
8.7403697522
 30
0.0
 10
9.6683603275
 20
8.7217753951
 30
0.0
 10
9.6572938823
 20
8.7102146118
 30
0.0
 10
9.6515477501
 20
8.7046642712
 30
0.0
  0
SPLINE
  5
3BB
100
AcDbEntity
  8
0
100
AcDbSpline
 62
7
  6
CONTINUOUS
 70
0
 71
3
 72
23
 73
19
 74
0
 42
0.0000001
 43
0.0000001
 44
0.0000000001
 40
0.0
 40
0.0
 40
0.0
 40
0.0
 40
0.0638609742
 40
0.1275034352
 40
0.1909230191
 40
0.2541276449
 40
0.3171224247
 40
0.3799159145
 40
0.4425188174
 40
0.5049436698
 40
0.5672049969
 40
0.6293190749
 40
0.6913037881
 40
0.7531784374
 40
0.8149635266
 40
0.876680556
 40
0.9383517894
 40
1.0
 40
1.0
 40
1.0
 40
1.0
 10
9.407344316
 20
9.2970052027
 30
0.0
 10
9.4016768553
 20
9.2973982425
 30
0.0
 10
9.3903396816
 20
9.2979009856
 30
0.0
 10
9.3733486059
 20
9.2977997715
 30
0.0
 10
9.3564422152
 20
9.2968419733
 30
0.0
 10
9.3396639133
 20
9.2950301828
 30
0.0
 10
9.3230555573
 20
9.2923687321
 30
0.0
 10
9.3066590836
 20
9.2888643552
 30
0.0
 10
9.2905157515
 20
9.2845258511
 30
0.0
 10
9.2746662227
 20
9.2793640756
 30
0.0
 10
9.2591504409
 20
9.2733919579
 30
0.0
 10
9.2440074842
 20
9.2666245386
 30
0.0
 10
9.2292755036
 20
9.2590788467
 30
0.0
 10
9.214991619
 20
9.2507738433
 30
0.0
 10
9.2011918849
 20
9.241730425
 30
0.0
 10
9.1879109407
 20
9.2319712781
 30
0.0
 10
9.1751826979
 20
9.2215214236
 30
0.0
 10
9.1670854353
 20
9.2141103862
 30
0.0
 10
9.1631408819
 20
9.2103002382
 30
0.0
  0
SPLINE
  5
3BC
100
AcDbEntity
  8
0
100
AcDbSpline
 62
7
  6
CONTINUOUS
 70
0
 71
3
 72
41
 73
37
 74
0
 42
0.0000001
 43
0.0000001
 44
0.0000000001
 40
0.0
 40
0.0
 40
0.0
 40
0.0
 40
0.0311447181
 40
0.062442515
 40
0.0938874625
 40
0.1254698002
 40
0.1571773985
 40
0.1730760322
 40
0.1890002546
 40
0.2209118669
 40
0.2528982321
 40
0.2689155106
 40
0.284943791
 40
0.3170178783
 40
0.3491032352
 40
0.3811777027
 40
0.4132193318
 40
0.4452068082
 40
0.4771198677
 40
0.5089396984
 40
0.5406493204
 40
0.5722339407
 40
0.603681273
 40
0.6349818179
 40
0.6661290955
 40
0.6971198236
 40
0.727954035
 40
0.7586351272
 40
0.7891698391
 40
0.8195681507
 40
0.8498431051
 40
0.8800105515
 40
0.910088813
 40
0.940098286
 40
0.9700609781
 40
1.0
 40
1.0
 40
1.0
 40
1.0
 10
11.339196083
 20
9.1630308277
 30
0.0
 10
11.3474869134
 20
9.1624558566
 30
0.0
 10
11.364073415
 20
9.1606962327
 30
0.0
 10
11.3887520425
 20
9.1562636976
 30
0.0
 10
11.4131664841
 20
9.1500549818
 30
0.0
 10
11.437184201
 20
9.1421037837
 30
0.0
 10
11.4567473213
 20
9.1340671008
 30
0.0
 10
11.4720740344
 20
9.1268157245
 30
0.0
 10
11.4871886628
 20
9.1190124523
 30
0.0
 10
11.5055985981
 20
9.1082640422
 30
0.0
 10
11.5232468892
 20
9.096262258
 30
0.0
 10
11.53686651
 20
9.0859398173
 30
0.0
 10
11.5501435319
 20
9.0751432313
 30
0.0
 10
11.5660452927
 20
9.0607988574
 30
0.0
 10
11.5839101987
 20
9.0423253245
 30
0.0
 10
11.6004698168
 20
9.0226837469
 30
0.0
 10
11.6156352724
 20
9.0019792714
 30
0.0
 10
11.6293258375
 20
8.9803220971
 30
0.0
 10
11.6414684139
 20
8.9578276541
 30
0.0
 10
11.6519981725
 20
8.9346157927
 30
0.0
 10
11.6608588308
 20
8.9108102072
 30
0.0
 10
11.6680029704
 20
8.8865377705
 30
0.0
 10
11.6733922875
 20
8.8619278716
 30
0.0
 10
11.6769978022
 20
8.8371117339
 30
0.0
 10
11.678800019
 20
8.8122217254
 30
0.0
 10
11.678789039
 20
8.7873906612
 30
0.0
 10
11.6769646279
 20
8.7627511028
 30
0.0
 10
11.6733362302
 20
8.7384346541
 30
0.0
 10
11.6679229308
 20
8.7145712625
 30
0.0
 10
11.6607533678
 20
8.6912885211
 30
0.0
 10
11.6518656078
 20
8.668710993
 30
0.0
 10
11.6413069144
 20
8.6469594945
 30
0.0
 10
11.6291336709
 20
8.6261505911
 30
0.0
 10
11.6154104868
 20
8.6063953771
 30
0.0
 10
11.6002120945
 20
8.58780102
 30
0.0
 10
11.5891456494
 20
8.5762402367
 30
0.0
 10
11.5833995171
 20
8.5706898961
 30
0.0
  0
SPLINE
  5
3BD
100
AcDbEntity
  8
0
100
AcDbSpline
 62
7
  6
CONTINUOUS
 70
0
 71
3
 72
23
 73
19
 74
0
 42
0.0000001
 43
0.0000001
 44
0.0000000001
 40
0.0
 40
0.0
 40
0.0
 40
0.0
 40
0.0638609742
 40
0.1275034352
 40
0.1909230191
 40
0.2541276449
 40
0.3171224247
 40
0.3799159145
 40
0.4425188174
 40
0.5049436698
 40
0.5672049969
 40
0.6293190749
 40
0.6913037881
 40
0.7531784374
 40
0.8149635266
 40
0.876680556
 40
0.9383517894
 40
1.0
 40
1.0
 40
1.0
 40
1.0
 10
11.339196083
 20
9.1630308277
 30
0.0
 10
11.3335286224
 20
9.1634238674
 30
0.0
 10
11.3221914486
 20
9.1639266105
 30
0.0
 10
11.3052003729
 20
9.1638253965
 30
0.0
 10
11.2882939822
 20
9.1628675982
 30
0.0
 10
11.2715156804
 20
9.1610558077
 30
0.0
 10
11.2549073244
 20
9.158394357
 30
0.0
 10
11.2385108507
 20
9.1548899801
 30
0.0
 10
11.2223675185
 20
9.150551476
 30
0.0
 10
11.2065179897
 20
9.1453897005
 30
0.0
 10
11.1910022079
 20
9.1394175828
 30
0.0
 10
11.1758592512
 20
9.1326501635
 30
0.0
 10
11.1611272706
 20
9.1251044716
 30
0.0
 10
11.1468433861
 20
9.1167994682
 30
0.0
 10
11.133043652
 20
9.1077560499
 30
0.0
 10
11.1197627077
 20
9.097996903
 30
0.0
 10
11.107034465
 20
9.0875470486
 30
0.0
 10
11.0989372024
 20
9.0801360112
 30
0.0
 10
11.094992649
 20
9.0763258631
 30
0.0
  0
SPLINE
  5
3BE
100
AcDbEntity
  8
0
100
AcDbSpline
 62
7
  6
CONTINUOUS
 70
0
 71
3
 72
39
 73
35
 74
0
 42
0.0000001
 43
0.0000001
 44
0.0000000001
 40
0.0
 40
0.0
 40
0.0
 40
0.0
 40
0.0311450474
 40
0.0624431122
 40
0.0938883415
 40
0.1254709904
 40
0.157178884
 40
0.1889972611
 40
0.2209091755
 40
0.2528958437
 40
0.2849370231
 40
0.3170114138
 40
0.3490970738
 40
0.3811718446
 40
0.413213777
 40
0.4452015561
 40
0.477114918
 40
0.5089350506
 40
0.5406449736
 40
0.5722298927
 40
0.6036775219
 40
0.6349783626
 40
0.6661259349
 40
0.6971169558
 40
0.7279514584
 40
0.7586328412
 40
0.7891678431
 40
0.8195664432
 40
0.8498416843
 40
0.8800094163
 40
0.9100879629
 40
0.9400977199
 40
0.9700606953
 40
1.0
 40
1.0
 40
1.0
 40
1.0
 10
9.6365318877
 20
7.8808307636
 30
0.0
 10
9.6492688816
 20
7.8799474501
 30
0.0
 10
9.6747502705
 20
7.8772441891
 30
0.0
 10
9.7126634242
 20
7.8704345744
 30
0.0
 10
9.7501704903
 20
7.8608963884
 30
0.0
 10
9.787068919
 20
7.8486808802
 30
0.0
 10
9.8231626576
 20
7.8338535069
 30
0.0
 10
9.8582591764
 20
7.8164935967
 30
0.0
 10
9.8921715214
 20
7.7966939388
 30
0.0
 10
9.9247189892
 20
7.7745602486
 30
0.0
 10
9.9557281528
 20
7.7502106086
 30
0.0
 10
9.9850337761
 20
7.7237748827
 30
0.0
 10
10.0124797093
 20
7.6953940359
 30
0.0
 10
10.0379196673
 20
7.6652193403
 30
0.0
 10
10.0612180045
 20
7.6334115892
 30
0.0
 10
10.0822504349
 20
7.6001402584
 30
0.0
 10
10.1009047495
 20
7.5655826464
 30
0.0
 10
10.1170813427
 20
7.5299228914
 30
0.0
 10
10.1306937474
 20
7.4933510137
 30
0.0
 10
10.1416690828
 20
7.4560619167
 30
0.0
 10
10.1499485264
 20
7.4182543868
 30
0.0
 10
10.1554875767
 20
7.3801300215
 30
0.0
 10
10.1582562844
 20
7.3418921715
 30
0.0
 10
10.1582394153
 20
7.3037448749
 30
0.0
 10
10.1554366125
 20
7.2658917846
 30
0.0
 10
10.1498624089
 20
7.2285350771
 30
0.0
 10
10.1415461229
 20
7.1918743844
 30
0.0
 10
10.1305317277
 20
7.1561057293
 30
0.0
 10
10.1168776858
 20
7.1214204847
 30
0.0
 10
10.1006566407
 20
7.0880042461
 30
0.0
 10
10.0819552166
 20
7.0560360854
 30
0.0
 10
10.0608726636
 20
7.025686676
 30
0.0
 10
10.0375237626
 20
6.997120681
 30
0.0
 10
10.0205226801
 20
6.9793601611
 30
0.0
 10
10.0116950462
 20
6.9708333277
 30
0.0
  0
SPLINE
  5
3BF
100
AcDbEntity
  8
0
100
AcDbSpline
 62
7
  6
CONTINUOUS
 70
0
 71
3
 72
23
 73
19
 74
0
 42
0.0000001
 43
0.0000001
 44
0.0000000001
 40
0.0
 40
0.0
 40
0.0
 40
0.0
 40
0.0638617654
 40
0.1275030803
 40
0.1909230764
 40
0.2541276764
 40
0.317122389
 40
0.3799159305
 40
0.4425188195
 40
0.5049436701
 40
0.5672049961
 40
0.6293190749
 40
0.6913037887
 40
0.7531784352
 40
0.8149635246
 40
0.8766805577
 40
0.9383517929
 40
1.0
 40
1.0
 40
1.0
 40
1.0
 10
9.6365318877
 20
7.8808307636
 30
0.0
 10
9.6278250122
 20
7.8814345875
 30
0.0
 10
9.6104080663
 20
7.8822069812
 30
0.0
 10
9.5843051258
 20
7.8820514181
 30
0.0
 10
9.5583323944
 20
7.8805800156
 30
0.0
 10
9.5325562999
 20
7.8777965706
 30
0.0
 10
9.507041332
 20
7.8737078786
 30
0.0
 10
9.4818518655
 20
7.8683242357
 30
0.0
 10
9.457051298
 20
7.8616590859
 30
0.0
 10
9.4327021057
 20
7.8537291583
 30
0.0
 10
9.4088656216
 20
7.844554371
 30
0.0
 10
9.3856018978
 20
7.8341577794
 30
0.0
 10
9.3629695559
 20
7.8225655268
 30
0.0
 10
9.3410256178
 20
7.8098067578
 30
0.0
 10
9.3198254396
 20
7.7959136243
 30
0.0
 10
9.299422275
 20
7.780920916
 30
0.0
 10
9.2798682294
 20
7.7648670691
 30
0.0
 10
9.2674286439
 20
7.7534816692
 30
0.0
 10
9.2613687292
 20
7.7476282453
 30
0.0
  0
SPLINE
  5
3C0
100
AcDbEntity
  8
0
100
AcDbSpline
 62
7
  6
CONTINUOUS
 70
0
 71
3
 72
39
 73
35
 74
0
 42
0.0000001
 43
0.0000001
 44
0.0000000001
 40
0.0
 40
0.0
 40
0.0
 40
0.0
 40
0.0311450474
 40
0.0624431122
 40
0.0938883415
 40
0.1254709904
 40
0.157178884
 40
0.1889972611
 40
0.2209091755
 40
0.2528958437
 40
0.2849370231
 40
0.3170114138
 40
0.3490970738
 40
0.3811718446
 40
0.413213777
 40
0.4452015561
 40
0.477114918
 40
0.5089350506
 40
0.5406449736
 40
0.5722298927
 40
0.6036775219
 40
0.6349783626
 40
0.6661259349
 40
0.6971169558
 40
0.7279514584
 40
0.7586328412
 40
0.7891678431
 40
0.8195664432
 40
0.8498416843
 40
0.8800094163
 40
0.9100879629
 40
0.9400977199
 40
0.9700606953
 40
1.0
 40
1.0
 40
1.0
 40
1.0
 10
11.085420713
 20
7.7803499823
 30
0.0
 10
11.0981577069
 20
7.7794666688
 30
0.0
 10
11.1236390958
 20
7.7767634078
 30
0.0
 10
11.1615522495
 20
7.7699537931
 30
0.0
 10
11.1990593156
 20
7.760415607
 30
0.0
 10
11.2359577443
 20
7.7482000988
 30
0.0
 10
11.2720514829
 20
7.7333727256
 30
0.0
 10
11.3071480017
 20
7.7160128154
 30
0.0
 10
11.3410603467
 20
7.6962131575
 30
0.0
 10
11.3736078145
 20
7.6740794673
 30
0.0
 10
11.404616978
 20
7.6497298273
 30
0.0
 10
11.4339226014
 20
7.6232941014
 30
0.0
 10
11.4613685346
 20
7.5949132546
 30
0.0
 10
11.4868084926
 20
7.5647385589
 30
0.0
 10
11.5101068298
 20
7.5329308079
 30
0.0
 10
11.5311392602
 20
7.4996594771
 30
0.0
 10
11.5497935748
 20
7.4651018651
 30
0.0
 10
11.565970168
 20
7.4294421101
 30
0.0
 10
11.5795825727
 20
7.3928702324
 30
0.0
 10
11.590557908
 20
7.3555811354
 30
0.0
 10
11.5988373517
 20
7.3177736055
 30
0.0
 10
11.604376402
 20
7.2796492402
 30
0.0
 10
11.6071451097
 20
7.2414113901
 30
0.0
 10
11.6071282406
 20
7.2032640936
 30
0.0
 10
11.6043254378
 20
7.1654110033
 30
0.0
 10
11.5987512342
 20
7.1280542958
 30
0.0
 10
11.5904349482
 20
7.0913936031
 30
0.0
 10
11.579420553
 20
7.055624948
 30
0.0
 10
11.5657665111
 20
7.0209397034
 30
0.0
 10
11.5495454659
 20
6.9875234648
 30
0.0
 10
11.5308440419
 20
6.9555553041
 30
0.0
 10
11.5097614889
 20
6.9252058947
 30
0.0
 10
11.4864125879
 20
6.8966398997
 30
0.0
 10
11.4694115054
 20
6.8788793798
 30
0.0
 10
11.4605838715
 20
6.8703525464
 30
0.0
  0
SPLINE
  5
3C1
100
AcDbEntity
  8
0
100
AcDbSpline
 62
7
  6
CONTINUOUS
 70
0
 71
3
 72
23
 73
19
 74
0
 42
0.0000001
 43
0.0000001
 44
0.0000000001
 40
0.0
 40
0.0
 40
0.0
 40
0.0
 40
0.0638617654
 40
0.1275030803
 40
0.1909230764
 40
0.2541276764
 40
0.317122389
 40
0.3799159305
 40
0.4425188195
 40
0.5049436701
 40
0.5672049961
 40
0.6293190749
 40
0.6913037887
 40
0.7531784352
 40
0.8149635246
 40
0.8766805577
 40
0.9383517929
 40
1.0
 40
1.0
 40
1.0
 40
1.0
 10
11.085420713
 20
7.7803499823
 30
0.0
 10
11.0767138375
 20
7.7809538062
 30
0.0
 10
11.0592968916
 20
7.7817261999
 30
0.0
 10
11.0331939511
 20
7.7815706368
 30
0.0
 10
11.0072212197
 20
7.7800992343
 30
0.0
 10
10.9814451252
 20
7.7773157892
 30
0.0
 10
10.9559301573
 20
7.7732270973
 30
0.0
 10
10.9307406908
 20
7.7678434543
 30
0.0
 10
10.9059401233
 20
7.7611783046
 30
0.0
 10
10.881590931
 20
7.7532483769
 30
0.0
 10
10.8577544468
 20
7.7440735897
 30
0.0
 10
10.8344907231
 20
7.7336769981
 30
0.0
 10
10.8118583812
 20
7.7220847455
 30
0.0
 10
10.7899144431
 20
7.7093259765
 30
0.0
 10
10.7687142649
 20
7.6954328429
 30
0.0
 10
10.7483111003
 20
7.6804401346
 30
0.0
 10
10.7287570547
 20
7.6643862878
 30
0.0
 10
10.7163174692
 20
7.6530008879
 30
0.0
 10
10.7102575544
 20
7.647147464
 30
0.0
  0
SPLINE
  5
3C2
100
AcDbEntity
  8
0
100
AcDbSpline
 62
7
  6
CONTINUOUS
 70
0
 71
3
 72
18
 73
14
 74
0
 42
0.0000001
 43
0.0000001
 44
0.0000000001
 40
0.0
 40
0.0
 40
0.0
 40
0.0
 40
0.0548626421
 40
0.1099292106
 40
0.1654012798
 40
0.2214755109
 40
0.3361334555
 40
0.4553634493
 40
0.5171048472
 40
0.5804364723
 40
0.7123312612
 40
0.8519581829
 40
1.0
 40
1.0
 40
1.0
 40
1.0
 10
10.3108553581
 20
10.1238484239
 30
0.0
 10
10.3108553581
 20
10.1230857935
 30
0.0
 10
10.310806963
 20
10.1215572576
 30
0.0
 10
10.3105893397
 20
10.1192669518
 30
0.0
 10
10.3102266595
 20
10.1169779217
 30
0.0
 10
10.3095451889
 20
10.1139065471
 30
0.0
 10
10.3083174699
 20
10.1100570629
 30
0.0
 10
10.3066360149
 20
10.1062984522
 30
0.0
 10
10.3050180576
 20
10.1033113845
 30
0.0
 10
10.3031654233
 20
10.100255858
 30
0.0
 10
10.3004753611
 20
10.0964490872
 30
0.0
 10
10.2967249191
 20
10.0919755498
 30
0.0
 10
10.2939354978
 20
10.0891050535
 30
0.0
 10
10.2924553523
 20
10.0876753426
 30
0.0
  0
SPLINE
  5
3C3
100
AcDbEntity
  8
0
100
AcDbSpline
 62
7
  6
CONTINUOUS
 70
0
 71
3
 72
18
 73
14
 74
0
 42
0.0000001
 43
0.0000001
 44
0.0000000001
 40
0.0
 40
0.0
 40
0.0
 40
0.0
 40
0.0548626421
 40
0.1099292106
 40
0.1654012798
 40
0.2214755109
 40
0.3361334555
 40
0.4553634493
 40
0.5171048472
 40
0.5804364723
 40
0.7123312612
 40
0.8519581829
 40
1.0
 40
1.0
 40
1.0
 40
1.0
 10
12.2427071252
 20
9.9898740488
 30
0.0
 10
12.2427071251
 20
9.9891114185
 30
0.0
 10
12.2426587301
 20
9.9875828825
 30
0.0
 10
12.2424411068
 20
9.9852925767
 30
0.0
 10
12.2420784266
 20
9.9830035466
 30
0.0
 10
12.2413969559
 20
9.979932172
 30
0.0
 10
12.240169237
 20
9.9760826878
 30
0.0
 10
12.2384877819
 20
9.9723240771
 30
0.0
 10
12.2368698246
 20
9.9693370094
 30
0.0
 10
12.2350171903
 20
9.9662814829
 30
0.0
 10
12.2323271281
 20
9.9624747121
 30
0.0
 10
12.2285766861
 20
9.9580011748
 30
0.0
 10
12.2257872649
 20
9.9551306784
 30
0.0
 10
12.2243071194
 20
9.9537009676
 30
0.0
  0
SPLINE
  5
3C4
100
AcDbEntity
  8
0
100
AcDbSpline
 62
7
  6
CONTINUOUS
 70
0
 71
3
 72
11
 73
7
 74
0
 42
0.0000001
 43
0.0000001
 44
0.0000000001
 40
0.0
 40
0.0
 40
0.0
 40
0.0
 40
0.2411337833
 40
0.4890798079
 40
0.7425507596
 40
1.0
 40
1.0
 40
1.0
 40
1.0
 10
9.3530288627
 20
9.296230823
 30
0.0
 10
9.3524529228
 20
9.2900117644
 30
0.0
 10
9.3515713931
 20
9.2773699171
 30
0.0
 10
9.351046485
 20
9.2581388736
 30
0.0
 10
9.3513028515
 20
9.2384799749
 30
0.0
 10
9.3519888827
 20
9.2252604937
 30
0.0
 10
9.3524595708
 20
9.2186088654
 30
0.0
  0
SPLINE
  5
3C5
100
AcDbEntity
  8
0
100
AcDbSpline
 62
7
  6
CONTINUOUS
 70
0
 71
3
 72
35
 73
31
 74
0
 42
0.0000001
 43
0.0000001
 44
0.0000000001
 40
0.0
 40
0.0
 40
0.0
 40
0.0
 40
0.0327317762
 40
0.0655831341
 40
0.0984420481
 40
0.1312191268
 40
0.1638479625
 40
0.1962830029
 40
0.2604661717
 40
0.3237044097
 40
0.3549904472
 40
0.3860703954
 40
0.4476767801
 40
0.5087068545
 40
0.5390732543
 40
0.569369766
 40
0.599622607
 40
0.6298581403
 40
0.660103091
 40
0.6903841364
 40
0.7207272554
 40
0.7511575787
 40
0.7816988497
 40
0.8123727489
 40
0.8431982138
 40
0.874190781
 40
0.9053623439
 40
0.9367197696
 40
0.9682668612
 40
1.0
 40
1.0
 40
1.0
 40
1.0
 10
9.3524595708
 20
9.2186088654
 30
0.0
 10
9.3528567168
 20
9.2129965135
 30
0.0
 10
9.3538310186
 20
9.2017631609
 30
0.0
 10
9.3558186727
 20
9.1849561348
 30
0.0
 10
9.3583281831
 20
9.1682110107
 30
0.0
 10
9.3613506027
 20
9.1515897748
 30
0.0
 10
9.3648780907
 20
9.1351426036
 30
0.0
 10
9.3702274412
 20
9.1135762871
 30
0.0
 10
9.3781338054
 20
9.0872378754
 30
0.0
 10
9.387746196
 20
9.0616808991
 30
0.0
 10
9.3964357862
 20
9.0419113295
 30
0.0
 10
9.4057339941
 20
9.0227320835
 30
0.0
 10
9.4186247206
 20
8.9996337199
 30
0.0
 10
9.433309091
 20
8.9777728899
 30
0.0
 10
9.4461017706
 20
8.9612146665
 30
0.0
 10
9.4562143363
 20
8.9492921313
 30
0.0
 10
9.4668628212
 20
8.9378762708
 30
0.0
 10
9.4780487384
 20
8.9269985526
 30
0.0
 10
9.489770952
 20
8.916693097
 30
0.0
 10
9.5020254103
 20
8.9069961213
 30
0.0
 10
9.5148043277
 20
8.8979456126
 30
0.0
 10
9.5280955776
 20
8.8895807961
 30
0.0
 10
9.5418821229
 20
8.8819414787
 30
0.0
 10
9.5561414674
 20
8.8750672354
 30
0.0
 10
9.5708451877
 20
8.8689963629
 30
0.0
 10
9.585958783
 20
8.8637646853
 30
0.0
 10
9.6014415981
 20
8.8594045862
 30
0.0
 10
9.6172476468
 20
8.8559434331
 30
0.0
 10
9.6333247374
 20
8.8534032159
 30
0.0
 10
9.6441570962
 20
8.8523365176
 30
0.0
 10
9.6495987526
 20
8.8519591374
 30
0.0
  0
SPLINE
  5
3C6
100
AcDbEntity
  8
0
100
AcDbSpline
 62
7
  6
CONTINUOUS
 70
0
 71
3
 72
11
 73
7
 74
0
 42
0.0000001
 43
0.0000001
 44
0.0000000001
 40
0.0
 40
0.0
 40
0.0
 40
0.0
 40
0.2411337833
 40
0.4890798079
 40
0.7425507596
 40
1.0
 40
1.0
 40
1.0
 40
1.0
 10
11.2848806297
 20
9.1622564479
 30
0.0
 10
11.2843046898
 20
9.1560373893
 30
0.0
 10
11.2834231601
 20
9.1433955421
 30
0.0
 10
11.282898252
 20
9.1241644985
 30
0.0
 10
11.2831546185
 20
9.1045055999
 30
0.0
 10
11.2838406497
 20
9.0912861187
 30
0.0
 10
11.2843113379
 20
9.0846344903
 30
0.0
  0
SPLINE
  5
3C7
100
AcDbEntity
  8
0
100
AcDbSpline
 62
7
  6
CONTINUOUS
 70
0
 71
3
 72
35
 73
31
 74
0
 42
0.0000001
 43
0.0000001
 44
0.0000000001
 40
0.0
 40
0.0
 40
0.0
 40
0.0
 40
0.0327317762
 40
0.0655831341
 40
0.0984420481
 40
0.1312191268
 40
0.1638479625
 40
0.1962830029
 40
0.2604661717
 40
0.3237044097
 40
0.3549904472
 40
0.3860703954
 40
0.4476767801
 40
0.5087068545
 40
0.5390732543
 40
0.569369766
 40
0.599622607
 40
0.6298581403
 40
0.660103091
 40
0.6903841364
 40
0.7207272554
 40
0.7511575787
 40
0.7816988497
 40
0.8123727489
 40
0.8431982138
 40
0.874190781
 40
0.9053623439
 40
0.9367197696
 40
0.9682668612
 40
1.0
 40
1.0
 40
1.0
 40
1.0
 10
11.2843113379
 20
9.0846344903
 30
0.0
 10
11.2847084838
 20
9.0790221384
 30
0.0
 10
11.2856827857
 20
9.0677887858
 30
0.0
 10
11.2876704397
 20
9.0509817597
 30
0.0
 10
11.2901799502
 20
9.0342366356
 30
0.0
 10
11.2932023698
 20
9.0176153997
 30
0.0
 10
11.2967298577
 20
9.0011682285
 30
0.0
 10
11.3020792083
 20
8.979601912
 30
0.0
 10
11.3099855724
 20
8.9532635003
 30
0.0
 10
11.3195979631
 20
8.927706524
 30
0.0
 10
11.3282875532
 20
8.9079369544
 30
0.0
 10
11.3375857611
 20
8.8887577084
 30
0.0
 10
11.3504764876
 20
8.8656593448
 30
0.0
 10
11.365160858
 20
8.8437985149
 30
0.0
 10
11.3779535376
 20
8.8272402914
 30
0.0
 10
11.3880661034
 20
8.8153177562
 30
0.0
 10
11.3987145883
 20
8.8039018957
 30
0.0
 10
11.4099005055
 20
8.7930241775
 30
0.0
 10
11.4216227191
 20
8.7827187219
 30
0.0
 10
11.4338771773
 20
8.7730217462
 30
0.0
 10
11.4466560947
 20
8.7639712375
 30
0.0
 10
11.4599473446
 20
8.755606421
 30
0.0
 10
11.4737338899
 20
8.7479671036
 30
0.0
 10
11.4879932344
 20
8.7410928604
 30
0.0
 10
11.5026969548
 20
8.7350219878
 30
0.0
 10
11.5178105501
 20
8.7297903102
 30
0.0
 10
11.5332933651
 20
8.7254302111
 30
0.0
 10
11.5490994139
 20
8.721969058
 30
0.0
 10
11.5651765045
 20
8.7194288408
 30
0.0
 10
11.5760088632
 20
8.7183621425
 30
0.0
 10
11.5814505197
 20
8.7179847623
 30
0.0
  0
SPLINE
  5
3C8
100
AcDbEntity
  8
0
100
AcDbSpline
 62
7
  6
CONTINUOUS
 70
0
 71
3
 72
10
 73
6
 74
0
 42
0.0000001
 43
0.0000001
 44
0.0000000001
 40
0.0
 40
0.0
 40
0.0
 40
0.0
 40
0.2452629948
 40
0.4932227266
 40
1.0
 40
1.0
 40
1.0
 40
1.0
 10
9.5455968774
 20
7.8792156027
 30
0.0
 10
9.5441676193
 20
7.8752988124
 30
0.0
 10
9.5414424728
 20
7.8673667566
 30
0.0
 10
9.5365112353
 20
7.851095267
 30
0.0
 10
9.5334495612
 20
7.8386219267
 30
0.0
 10
9.5316643143
 20
7.8301938294
 30
0.0
  0
SPLINE
  5
3C9
100
AcDbEntity
  8
0
100
AcDbSpline
 62
7
  6
CONTINUOUS
 70
0
 71
3
 72
15
 73
11
 74
0
 42
0.0000001
 43
0.0000001
 44
0.0000000001
 40
0.0
 40
0.0
 40
0.0
 40
0.0
 40
0.1081481156
 40
0.2181275745
 40
0.3316716241
 40
0.4503409609
 40
0.5754873735
 40
0.7082426213
 40
0.8495167778
 40
1.0
 40
1.0
 40
1.0
 40
1.0
 10
13.4635339909
 20
7.6196499847
 30
0.0
 10
13.4629619592
 20
7.6196896604
 30
0.0
 10
13.4618012672
 20
7.6196910201
 30
0.0
 10
13.4600534817
 20
7.6194574872
 30
0.0
 10
13.4582956926
 20
7.6189898396
 30
0.0
 10
13.4565307738
 20
7.6182898118
 30
0.0
 10
13.4547605062
 20
7.6173592406
 30
0.0
 10
13.4529864457
 20
7.6161999316
 30
0.0
 10
13.451210313
 20
7.6148137637
 30
0.0
 10
13.4500633007
 20
7.6137736875
 30
0.0
 10
13.4494894301
 20
7.613219371
 30
0.0
  0
SPLINE
  5
3CA
100
AcDbEntity
  8
0
100
AcDbSpline
 62
7
  6
CONTINUOUS
 70
0
 71
3
 72
15
 73
11
 74
0
 42
0.0000001
 43
0.0000001
 44
0.0000000001
 40
0.0
 40
0.0
 40
0.0
 40
0.0
 40
0.1081481156
 40
0.2181275745
 40
0.3316716241
 40
0.4503409609
 40
0.5754873735
 40
0.7082426213
 40
0.8495167778
 40
1.0
 40
1.0
 40
1.0
 40
1.0
 10
12.4282586649
 20
6.6196507507
 30
0.0
 10
12.4276866332
 20
6.6196904265
 30
0.0
 10
12.4265259412
 20
6.6196917861
 30
0.0
 10
12.4247781557
 20
6.6194582532
 30
0.0
 10
12.4230203666
 20
6.6189906056
 30
0.0
 10
12.4212554478
 20
6.6182905778
 30
0.0
 10
12.4194851802
 20
6.6173600066
 30
0.0
 10
12.4177111197
 20
6.6162006976
 30
0.0
 10
12.415934987
 20
6.6148145297
 30
0.0
 10
12.4147879747
 20
6.6137744535
 30
0.0
 10
12.414214104
 20
6.613220137
 30
0.0
  0
SPLINE
  5
3CB
100
AcDbEntity
  8
0
100
AcDbSpline
 62
7
  6
CONTINUOUS
 70
0
 71
3
 72
52
 73
48
 74
0
 42
0.0000001
 43
0.0000001
 44
0.0000000001
 40
0.0
 40
0.0
 40
0.0
 40
0.0
 40
0.0110991862
 40
0.0217063173
 40
0.0318563146
 40
0.0415899069
 40
0.0509533972
 40
0.059998852
 40
0.0687831885
 40
0.0773679461
 40
0.0858174638
 40
0.0941981569
 40
0.1025759985
 40
0.1110156994
 40
0.1195781758
 40
0.1283203071
 40
0.1372930223
 40
0.1465419222
 40
0.1561060811
 40
0.1660193108
 40
0.1763093728
 40
0.1869995385
 40
0.19810793
 40
0.2096490894
 40
0.2216333338
 40
0.2340681475
 40
0.2469575653
 40
0.2603033115
 40
0.2883506694
 40
0.3181844033
 40
0.3497413378
 40
0.3829335568
 40
0.4176537426
 40
0.4537808215
 40
0.4911856106
 40
0.5297365041
 40
0.5693047234
 40
0.6097686639
 40
0.651016948
 40
0.692950424
 40
0.7354831821
 40
0.7785425716
 40
0.822068429
 40
0.8660120248
 40
0.9103345858
 40
0.9550054209
 40
1.0
 40
1.0
 40
1.0
 40
1.0
 10
11.1641872906
 20
7.3385734484
 30
0.0
 10
11.1641876193
 20
7.3368165328
 30
0.0
 10
11.1641067548
 20
7.3333797811
 30
0.0
 10
11.1637149774
 20
7.3283497705
 30
0.0
 10
11.1630516775
 20
7.3235658708
 30
0.0
 10
11.1621134136
 20
7.3190286002
 30
0.0
 10
11.1608978727
 20
7.3147385409
 30
0.0
 10
11.1594032435
 20
7.3106968751
 30
0.0
 10
11.1576288865
 20
7.3069051369
 30
0.0
 10
11.1555748179
 20
7.3033655594
 30
0.0
 10
11.153242279
 20
7.3000806897
 30
0.0
 10
11.1506333477
 20
7.2970536658
 30
0.0
 10
11.1477512053
 20
7.2942877613
 30
0.0
 10
11.1445998631
 20
7.2917866218
 30
0.0
 10
11.1411841236
 20
7.2895539645
 30
0.0
 10
11.1375094921
 20
7.2875938027
 30
0.0
 10
11.1335820221
 20
7.2859103718
 30
0.0
 10
11.1294084496
 20
7.2845082436
 30
0.0
 10
11.124996041
 20
7.2833923843
 30
0.0
 10
11.1203528537
 20
7.282568086
 30
0.0
 10
11.1154875951
 20
7.2820410605
 30
0.0
 10
11.1104098919
 20
7.2818172382
 30
0.0
 10
11.1051301477
 20
7.2819028396
 30
0.0
 10
11.0996597701
 20
7.2823041396
 30
0.0
 10
11.0940110193
 20
7.2830274772
 30
0.0
 10
11.0881972291
 20
7.2840790492
 30
0.0
 10
11.0822324791
 20
7.2854648501
 30
0.0
 10
11.0739618376
 20
7.2878045176
 30
0.0
 10
11.0633370742
 20
7.2916255014
 30
0.0
 10
11.0504591316
 20
7.2975447653
 30
0.0
 10
11.037395612
 20
7.304891792
 30
0.0
 10
11.0243047917
 20
7.3136685494
 30
0.0
 10
11.0113475563
 20
7.3238583648
 30
0.0
 10
10.9986839251
 20
7.3354245382
 30
0.0
 10
10.9864676767
 20
7.3483112868
 30
0.0
 10
10.9748421229
 20
7.3624458446
 30
0.0
 10
10.9639367202
 20
7.3777416657
 30
0.0
 10
10.9538649962
 20
7.3941021303
 30
0.0
 10
10.9447237487
 20
7.4114242984
 30
0.0
 10
10.936593334
 20
7.4296023085
 30
0.0
 10
10.9295387589
 20
7.4485301894
 30
0.0
 10
10.9236112643
 20
7.4681039264
 30
0.0
 10
10.9188501113
 20
7.4882228536
 30
0.0
 10
10.9152843018
 20
7.5087902868
 30
0.0
 10
10.9129341029
 20
7.5297141337
 30
0.0
 10
10.9118121887
 20
7.5509052769
 30
0.0
 10
10.9118868841
 20
7.5651077405
 30
0.0
 10
10.9121277873
 20
7.5722259604
 30
0.0
  0
SPLINE
  5
3CC
100
AcDbEntity
  8
0
100
AcDbSpline
 62
7
  6
CONTINUOUS
 70
0
 71
3
 72
15
 73
11
 74
0
 42
0.0000001
 43
0.0000001
 44
0.0000000001
 40
0.0
 40
0.0
 40
0.0
 40
0.0
 40
0.1022413293
 40
0.2104645832
 40
0.3250164868
 40
0.4461651772
 40
0.5741139538
 40
0.7090094483
 40
0.8509517461
 40
1.0
 40
1.0
 40
1.0
 40
1.0
 10
11.1547726346
 20
7.3024595709
 30
0.0
 10
11.1537938397
 20
7.3036608856
 30
0.0
 10
11.1516810648
 20
7.3060551554
 30
0.0
 10
11.148174861
 20
7.3095196935
 30
0.0
 10
11.1442485448
 20
7.312952671
 30
0.0
 10
11.1399062474
 20
7.3163508598
 30
0.0
 10
11.135152065
 20
7.3197112529
 30
0.0
 10
11.1299906132
 20
7.3230307677
 30
0.0
 10
11.1244269434
 20
7.3263061938
 30
0.0
 10
11.1205480418
 20
7.328407022
 30
0.0
 10
11.1185448745
 20
7.3294512227
 30
0.0
  0
SPLINE
  5
3CD
100
AcDbEntity
  8
0
100
AcDbSpline
 62
7
  6
CONTINUOUS
 70
0
 71
3
 72
15
 73
11
 74
0
 42
0.0000001
 43
0.0000001
 44
0.0000000001
 40
0.0
 40
0.0
 40
0.0
 40
0.0
 40
0.1228377691
 40
0.246607351
 40
0.3712170167
 40
0.4965420762
 40
0.6224009144
 40
0.7485302284
 40
0.8745594749
 40
1.0
 40
1.0
 40
1.0
 40
1.0
 10
10.9121277873
 20
7.5722259604
 30
0.0
 10
10.9124265982
 20
7.5810552429
 30
0.0
 10
10.9136553616
 20
7.5987655321
 30
0.0
 10
10.9173470471
 20
7.6252266273
 30
0.0
 10
10.9228640169
 20
7.6515516246
 30
0.0
 10
10.930155922
 20
7.6775959792
 30
0.0
 10
10.9391488867
 20
7.7032177232
 30
0.0
 10
10.9497408678
 20
7.7282746249
 30
0.0
 10
10.961795936
 20
7.7526252048
 30
0.0
 10
10.9707304953
 20
7.7683618107
 30
0.0
 10
10.9753922375
 20
7.7760855443
 30
0.0
  0
SPLINE
  5
3CE
100
AcDbEntity
  8
0
100
AcDbSpline
 62
7
  6
CONTINUOUS
 70
0
 71
3
 72
13
 73
9
 74
0
 42
0.0000001
 43
0.0000001
 44
0.0000000001
 40
0.0
 40
0.0
 40
0.0
 40
0.0
 40
0.2448635341
 40
0.3688184512
 40
0.4936622977
 40
0.6193000481
 40
0.7456351535
 40
1.0
 40
1.0
 40
1.0
 40
1.0
 10
11.0918256952
 20
7.7797500772
 30
0.0
 10
11.0911214344
 20
7.7659377405
 30
0.0
 10
11.0904688027
 20
7.7451095885
 30
0.0
 10
11.0904034553
 20
7.717225702
 30
0.0
 10
11.0907579771
 20
7.6960785441
 30
0.0
 10
11.0915120561
 20
7.6748074602
 30
0.0
 10
11.0930420942
 20
7.6462485243
 30
0.0
 10
11.0947520802
 20
7.6248089422
 30
0.0
 10
11.0961143679
 20
7.6105067463
 30
0.0
  0
SPLINE
  5
3CF
100
AcDbEntity
  8
0
100
AcDbSpline
 62
7
  6
CONTINUOUS
 70
0
 71
3
 72
15
 73
11
 74
0
 42
0.0000001
 43
0.0000001
 44
0.0000000001
 40
0.0
 40
0.0
 40
0.0
 40
0.0
 40
0.1232822653
 40
0.2469238437
 40
0.3710051123
 40
0.4955958288
 40
0.6207535625
 40
0.7465228097
 40
0.8729323529
 40
1.0
 40
1.0
 40
1.0
 40
1.0
 10
10.1014103895
 20
7.0907881209
 30
0.0
 10
10.0909122164
 20
7.0843565717
 30
0.0
 10
10.069361336
 20
7.0723086523
 30
0.0
 10
10.0356569014
 20
7.0568335142
 30
0.0
 10
10.0007144563
 20
7.0440135322
 30
0.0
 10
9.9647325551
 20
7.0339218083
 30
0.0
 10
9.9279123685
 20
7.0266139726
 30
0.0
 10
9.8904597556
 20
7.022130663
 30
0.0
 10
9.8525869783
 20
7.0204960901
 30
0.0
 10
9.8272585064
 20
7.0213097913
 30
0.0
 10
9.8145992438
 20
7.0221877141
 30
0.0
  0
SPLINE
  5
3D0
100
AcDbEntity
  8
0
100
AcDbSpline
 62
7
  6
CONTINUOUS
 70
0
 71
3
 72
23
 73
19
 74
0
 42
0.0000001
 43
0.0000001
 44
0.0000000001
 40
0.0
 40
0.0
 40
0.0
 40
0.0
 40
0.0620991743
 40
0.1244728329
 40
0.1870841955
 40
0.2498890487
 40
0.3128387837
 40
0.3758811888
 40
0.4389617599
 40
0.502025055
 40
0.5650160571
 40
0.6278815299
 40
0.690571335
 40
0.753039706
 40
0.8152464486
 40
0.8771580236
 40
0.9387480601
 40
1.0
 40
1.0
 40
1.0
 40
1.0
 10
11.0961143679
 20
7.6105067463
 30
0.0
 10
11.0992113251
 20
7.5982131778
 30
0.0
 10
11.1064078871
 20
7.5738091741
 30
0.0
 10
11.1200835481
 20
7.5381077954
 30
0.0
 10
11.1365751833
 20
7.5034547716
 30
0.0
 10
11.1557699385
 20
7.4700881855
 30
0.0
 10
11.1775373916
 20
7.4382335006
 30
0.0
 10
11.2017297192
 20
7.4081070294
 30
0.0
 10
11.2281826761
 20
7.3799130331
 30
0.0
 10
11.2567167446
 20
7.3538427751
 30
0.0
 10
11.2871384364
 20
7.3300732621
 30
0.0
 10
11.3192413709
 20
7.3087658213
 30
0.0
 10
11.3528078488
 20
7.2900652697
 30
0.0
 10
11.3876103078
 20
7.2740988395
 30
0.0
 10
11.4234124129
 20
7.2609751963
 30
0.0
 10
11.4599721355
 20
7.2507839694
 30
0.0
 10
11.4970380945
 20
7.2435949691
 30
0.0
 10
11.521996656
 20
7.2408285219
 30
0.0
 10
11.5344713856
 20
7.2399633965
 30
0.0
  0
SPLINE
  5
3D1
100
AcDbEntity
  8
0
100
AcDbSpline
 62
7
  6
CONTINUOUS
 70
0
 71
3
 72
60
 73
56
 74
0
 42
0.0000001
 43
0.0000001
 44
0.0000000001
 40
0.0
 40
0.0
 40
0.0
 40
0.0
 40
0.0081437215
 40
0.01697685
 40
0.0265209466
 40
0.03678965
 40
0.0477883286
 40
0.0595158866
 40
0.0719660299
 40
0.0851283246
 40
0.0989885617
 40
0.1135293238
 40
0.1287305536
 40
0.1445695476
 40
0.1610215373
 40
0.1780596973
 40
0.2137771176
 40
0.2514753725
 40
0.290884692
 40
0.3317173433
 40
0.3736711531
 40
0.4164328736
 40
0.4596814124
 40
0.5030909931
 40
0.546334291
 40
0.5890855752
 40
0.6310238557
 40
0.6718360457
 40
0.7112201823
 40
0.7302867147
 40
0.7488898131
 40
0.7669963561
 40
0.7845746229
 40
0.8015944409
 40
0.8180271642
 40
0.8338461164
 40
0.8490264908
 40
0.8635457491
 40
0.8773838801
 40
0.890523522
 40
0.9029506859
 40
0.9146549165
 40
0.9256301632
 40
0.9358756224
 40
0.9453966901
 40
0.9542068483
 40
0.9623293949
 40
0.969800425
 40
0.9766722973
 40
0.9830175573
 40
0.9889330625
 40
0.9917694421
 40
0.994546604
 40
0.9972834941
 40
1.0
 40
1.0
 40
1.0
 40
1.0
 10
13.4494894301
 20
7.2210534623
 30
0.0
 10
13.4503083301
 20
7.221844459
 30
0.0
 10
13.4519418994
 20
7.2235704756
 30
0.0
 10
13.4542892741
 20
7.2264438552
 30
0.0
 10
13.4566265376
 20
7.2296987657
 30
0.0
 10
13.4589491602
 20
7.2333286619
 30
0.0
 10
13.4612529286
 20
7.2373267568
 30
0.0
 10
13.463533249
 20
7.241685341
 30
0.0
 10
13.4657856809
 20
7.2463958657
 30
0.0
 10
13.4680056922
 20
7.251449069
 30
0.0
 10
13.4701888294
 20
7.2568349444
 30
0.0
 10
13.4723307211
 20
7.2625427744
 30
0.0
 10
13.4744269991
 20
7.2685611853
 30
0.0
 10
13.4764734702
 20
7.2748781365
 30
0.0
 10
13.4784660003
 20
7.2814809953
 30
0.0
 10
13.48108664
 20
7.2907954523
 30
0.0
 10
13.4841860222
 20
7.3030583941
 30
0.0
 10
13.4875744026
 20
7.3184659951
 30
0.0
 10
13.4906602632
 20
7.3346654773
 30
0.0
 10
13.4934185331
 20
7.3515268507
 30
0.0
 10
13.4958267883
 20
7.3689149182
 30
0.0
 10
13.4978655063
 20
7.3866900931
 30
0.0
 10
13.4995181901
 20
7.4047096452
 30
0.0
 10
13.5007715033
 20
7.422828843
 30
0.0
 10
13.5016153748
 20
7.4409021452
 30
0.0
 10
13.5020430881
 20
7.4587843723
 30
0.0
 10
13.5020513505
 20
7.4763319459
 30
0.0
 10
13.5016402427
 20
7.4934038768
 30
0.0
 10
13.5009440058
 20
7.507265833
 30
0.0
 10
13.5001727152
 20
7.5180110839
 30
0.0
 10
13.4994987568
 20
7.5257800529
 30
0.0
 10
13.4987244777
 20
7.5333305492
 30
0.0
 10
13.4978514349
 20
7.5406474217
 30
0.0
 10
13.496881436
 20
7.5477159763
 30
0.0
 10
13.4958164103
 20
7.5545220321
 30
0.0
 10
13.4946585718
 20
7.5610519445
 30
0.0
 10
13.4934102473
 20
7.5672926366
 30
0.0
 10
13.4920739767
 20
7.5732316288
 30
0.0
 10
13.4906525061
 20
7.5788570724
 30
0.0
 10
13.4891486639
 20
7.5841577677
 30
0.0
 10
13.4875655448
 20
7.5891232179
 30
0.0
 10
13.4859062903
 20
7.593743635
 30
0.0
 10
13.4841741936
 20
7.598009986
 30
0.0
 10
13.4823726693
 20
7.6019140396
 30
0.0
 10
13.4805050452
 20
7.6054483389
 30
0.0
 10
13.4785747385
 20
7.6086063032
 30
0.0
 10
13.4765848451
 20
7.6113821055
 30
0.0
 10
13.4745382374
 20
7.6137705812
 30
0.0
 10
13.4724371276
 20
7.6157670445
 30
0.0
 10
13.4702839138
 20
7.6173663175
 30
0.0
 10
13.4684209367
 20
7.6183774153
 30
0.0
 10
13.4669196307
 20
7.6189684413
 30
0.0
 10
13.4657998215
 20
7.6193037312
 30
0.0
 10
13.4646715161
 20
7.6195366686
 30
0.0
 10
13.4639128641
 20
7.6196237063
 30
0.0
 10
13.4635339909
 20
7.6196499847
 30
0.0
  0
SPLINE
  5
3D2
100
AcDbEntity
  8
0
100
AcDbSpline
 62
7
  6
CONTINUOUS
 70
0
 71
3
 72
69
 73
65
 74
0
 42
0.0000001
 43
0.0000001
 44
0.0000000001
 40
0.0
 40
0.0
 40
0.0
 40
0.0
 40
0.0156749348
 40
0.0314027839
 40
0.0471814364
 40
0.0630099721
 40
0.0788860943
 40
0.0948073732
 40
0.1107709045
 40
0.1267734005
 40
0.1428112328
 40
0.1588804529
 40
0.1749768346
 40
0.1910959109
 40
0.2072330173
 40
0.2233833314
 40
0.2395419155
 40
0.2557037586
 40
0.2718638216
 40
0.2880170822
 40
0.3202749255
 40
0.3524475142
 40
0.3684949934
 40
0.3845082673
 40
0.4004836065
 40
0.4164176212
 40
0.4323072962
 40
0.4481500201
 40
0.4639436125
 40
0.4796863462
 40
0.49537697
 40
0.5110147255
 40
0.5265993589
 40
0.5421311273
 40
0.5576108011
 40
0.5730396628
 40
0.5884195007
 40
0.6037525947
 40
0.6190416973
 40
0.634290009
 40
0.649501151
 40
0.6646791309
 40
0.6798283035
 40
0.6949533259
 40
0.71005911
 40
0.725150772
 40
0.7402335794
 40
0.7553128946
 40
0.7703941172
 40
0.7854826259
 40
0.8005837208
 40
0.8157025686
 40
0.8308441477
 40
0.8460131958
 40
0.8612141607
 40
0.8764511552
 40
0.8917279166
 40
0.907047777
 40
0.9224136185
 40
0.9378278587
 40
0.9532924887
 40
0.9688086929
 40
0.9843780614
 40
1.0
 40
1.0
 40
1.0
 40
1.0
 10
9.3870270377
 20
8.5225091398
 30
0.0
 10
9.3802202057
 20
8.5229811952
 30
0.0
 10
9.366604416
 20
8.5242608392
 30
0.0
 10
9.3462665373
 20
8.5271731139
 30
0.0
 10
9.3260265498
 20
8.5310747903
 30
0.0
 10
9.3059340394
 20
8.5359561197
 30
0.0
 10
9.2860370313
 20
8.5418055081
 30
0.0
 10
9.2663835462
 20
8.5486087725
 30
0.0
 10
9.2470208569
 20
8.5563495005
 30
0.0
 10
9.227995572
 20
8.5650090186
 30
0.0
 10
9.2093534812
 20
8.5745664516
 30
0.0
 10
9.1911394573
 20
8.5849987826
 30
0.0
 10
9.1733973457
 20
8.5962808903
 30
0.0
 10
9.1561698369
 20
8.6083855813
 30
0.0
 10
9.1394983867
 20
8.6212837022
 30
0.0
 10
9.1234231245
 20
8.6349441895
 30
0.0
 10
9.1079827285
 20
8.6493341977
 30
0.0
 10
9.093214453
 20
8.6644189735
 30
0.0
 10
9.0791535319
 20
8.6801626342
 30
0.0
 10
9.0614050851
 20
8.7019680474
 30
0.0
 10
9.0411527261
 20
8.7306727592
 30
0.0
 10
9.0236496525
 20
8.761079599
 30
0.0
 10
9.0114154372
 20
8.786230611
 30
0.0
 10
9.0031505155
 20
8.8054462153
 30
0.0
 10
8.9958103215
 20
8.8249805781
 30
0.0
 10
8.9894122889
 20
8.844787127
 30
0.0
 10
8.9839719071
 20
8.8648180583
 30
0.0
 10
8.9795022869
 20
8.8850251831
 30
0.0
 10
8.9760142368
 20
8.9053598453
 30
0.0
 10
8.9735162158
 20
8.9257730885
 30
0.0
 10
8.9720142867
 20
8.946215754
 30
0.0
 10
8.9715120927
 20
8.9666386077
 30
0.0
 10
8.9720108885
 20
8.9869924594
 30
0.0
 10
8.9735095253
 20
9.0072282774
 30
0.0
 10
8.9760044638
 20
9.0272973036
 30
0.0
 10
8.979489741
 20
9.047151174
 30
0.0
 10
8.9839569889
 20
9.0667420412
 30
0.0
 10
8.9893954878
 20
9.0860226823
 30
0.0
 10
8.9957921802
 20
9.1049466127
 30
0.0
 10
9.0031317111
 20
9.1234681923
 30
0.0
 10
9.0113964204
 20
9.1415427531
 30
0.0
 10
9.0205664011
 20
9.1591267074
 30
0.0
 10
9.030619572
 20
9.1761776408
 30
0.0
 10
9.0415317216
 20
9.1926544177
 30
0.0
 10
9.0532765732
 20
9.208517273
 30
0.0
 10
9.0658258069
 20
9.22372794
 30
0.0
 10
9.0791491525
 20
9.2382497334
 30
0.0
 10
9.0932144791
 20
9.2520476234
 30
0.0
 10
9.1079878663
 20
9.2650883246
 30
0.0
 10
9.1234336909
 20
9.2773403683
 30
0.0
 10
9.1395146805
 20
9.2887742209
 30
0.0
 10
9.1561920305
 20
9.2993623329
 30
0.0
 10
9.1734255073
 20
9.3090791904
 30
0.0
 10
9.1911735415
 20
9.3179013806
 30
0.0
 10
9.2093933297
 20
9.32580764
 30
0.0
 10
9.2280409176
 20
9.3327789541
 30
0.0
 10
9.2470713287
 20
9.3387985703
 30
0.0
 10
9.266438676
 20
9.3438520185
 30
0.0
 10
9.2860962624
 20
9.347927157
 30
0.0
 10
9.3059967374
 20
9.3510142082
 30
0.0
 10
9.3260920086
 20
9.3531057371
 30
0.0
 10
9.346334017
 20
9.354196907
 30
0.0
 10
9.3666731149
 20
9.3542849445
 30
0.0
 10
9.3802432193
 20
9.353675859
 30
0.0
 10
9.3870270377
 20
9.3532053996
 30
0.0
  0
SPLINE
  5
3D3
100
AcDbEntity
  8
0
100
AcDbSpline
 62
7
  6
CONTINUOUS
 70
0
 71
3
 72
69
 73
65
 74
0
 42
0.0000001
 43
0.0000001
 44
0.0000000001
 40
0.0
 40
0.0
 40
0.0
 40
0.0
 40
0.0156749348
 40
0.0314027839
 40
0.0471814364
 40
0.0630099721
 40
0.0788860943
 40
0.0948073732
 40
0.1107709045
 40
0.1267734005
 40
0.1428112328
 40
0.1588804529
 40
0.1749768346
 40
0.1910959109
 40
0.2072330173
 40
0.2233833314
 40
0.2395419155
 40
0.2557037586
 40
0.2718638216
 40
0.2880170822
 40
0.3202749255
 40
0.3524475142
 40
0.3684949934
 40
0.3845082673
 40
0.4004836065
 40
0.4164176212
 40
0.4323072962
 40
0.4481500201
 40
0.4639436125
 40
0.4796863462
 40
0.49537697
 40
0.5110147255
 40
0.5265993589
 40
0.5421311273
 40
0.5576108011
 40
0.5730396628
 40
0.5884195007
 40
0.6037525947
 40
0.6190416973
 40
0.634290009
 40
0.649501151
 40
0.6646791309
 40
0.6798283035
 40
0.6949533259
 40
0.71005911
 40
0.725150772
 40
0.7402335794
 40
0.7553128946
 40
0.7703941172
 40
0.7854826259
 40
0.8005837208
 40
0.8157025686
 40
0.8308441477
 40
0.8460131958
 40
0.8612141607
 40
0.8764511552
 40
0.8917279166
 40
0.907047777
 40
0.9224136185
 40
0.9378278587
 40
0.9532924887
 40
0.9688086929
 40
0.9843780614
 40
1.0
 40
1.0
 40
1.0
 40
1.0
 10
11.3188788048
 20
9.2192310246
 30
0.0
 10
11.3256856368
 20
9.2187589691
 30
0.0
 10
11.3393014265
 20
9.2174793251
 30
0.0
 10
11.3596393052
 20
9.2145670504
 30
0.0
 10
11.3798792927
 20
9.2106653741
 30
0.0
 10
11.3999718031
 20
9.2057840447
 30
0.0
 10
11.4198688111
 20
9.1999346562
 30
0.0
 10
11.4395222962
 20
9.1931313919
 30
0.0
 10
11.4588849856
 20
9.1853906639
 30
0.0
 10
11.4779102705
 20
9.1767311458
 30
0.0
 10
11.4965523613
 20
9.1671737128
 30
0.0
 10
11.5147663852
 20
9.1567413818
 30
0.0
 10
11.5325084968
 20
9.1454592741
 30
0.0
 10
11.5497360056
 20
9.1333545831
 30
0.0
 10
11.5664074558
 20
9.1204564621
 30
0.0
 10
11.582482718
 20
9.1067959748
 30
0.0
 10
11.597923114
 20
9.0924059667
 30
0.0
 10
11.6126913895
 20
9.0773211909
 30
0.0
 10
11.6267523106
 20
9.0615775302
 30
0.0
 10
11.6445007574
 20
9.039772117
 30
0.0
 10
11.6647531164
 20
9.0110674051
 30
0.0
 10
11.6822561899
 20
8.9806605654
 30
0.0
 10
11.6944904052
 20
8.9555095534
 30
0.0
 10
11.7027553269
 20
8.9362939491
 30
0.0
 10
11.710095521
 20
8.9167595863
 30
0.0
 10
11.7164935536
 20
8.8969530373
 30
0.0
 10
11.7219339354
 20
8.8769221061
 30
0.0
 10
11.7264035556
 20
8.8567149812
 30
0.0
 10
11.7298916056
 20
8.836380319
 30
0.0
 10
11.7323896266
 20
8.8159670759
 30
0.0
 10
11.7338915558
 20
8.7955244103
 30
0.0
 10
11.7343937497
 20
8.7751015566
 30
0.0
 10
11.733894954
 20
8.754747705
 30
0.0
 10
11.7323963172
 20
8.7345118869
 30
0.0
 10
11.7299013787
 20
8.7144428608
 30
0.0
 10
11.7264161015
 20
8.6945889903
 30
0.0
 10
11.7219488535
 20
8.6749981232
 30
0.0
 10
11.7165103547
 20
8.6557174821
 30
0.0
 10
11.7101136622
 20
8.6367935517
 30
0.0
 10
11.7027741314
 20
8.618271972
 30
0.0
 10
11.6945094221
 20
8.6001974112
 30
0.0
 10
11.6853394414
 20
8.582613457
 30
0.0
 10
11.6752862705
 20
8.5655625235
 30
0.0
 10
11.6643741209
 20
8.5490857467
 30
0.0
 10
11.6526292693
 20
8.5332228913
 30
0.0
 10
11.6400800355
 20
8.5180122244
 30
0.0
 10
11.6267566899
 20
8.503490431
 30
0.0
 10
11.6126913634
 20
8.489692541
 30
0.0
 10
11.5979179762
 20
8.4766518398
 30
0.0
 10
11.5824721516
 20
8.4643997961
 30
0.0
 10
11.566391162
 20
8.4529659434
 30
0.0
 10
11.5497138119
 20
8.4423778315
 30
0.0
 10
11.5324803352
 20
8.4326609739
 30
0.0
 10
11.514732301
 20
8.4238387838
 30
0.0
 10
11.4965125128
 20
8.4159325244
 30
0.0
 10
11.4778649249
 20
8.4089612103
 30
0.0
 10
11.4588345138
 20
8.4029415941
 30
0.0
 10
11.4394671665
 20
8.3978881459
 30
0.0
 10
11.4198095801
 20
8.3938130073
 30
0.0
 10
11.3999091051
 20
8.3907259561
 30
0.0
 10
11.3798138339
 20
8.3886344273
 30
0.0
 10
11.3595718255
 20
8.3875432574
 30
0.0
 10
11.3392327276
 20
8.3874552198
 30
0.0
 10
11.3256626232
 20
8.3880643053
 30
0.0
 10
11.3188788048
 20
8.3885347647
 30
0.0
  0
SPLINE
  5
3D4
100
AcDbEntity
  8
0
100
AcDbSpline
 62
7
  6
CONTINUOUS
 70
0
 71
3
 72
11
 73
7
 74
0
 42
0.0000001
 43
0.0000001
 44
0.0000000001
 40
0.0
 40
0.0
 40
0.0
 40
0.0
 40
0.2461493188
 40
0.493857647
 40
0.7446524264
 40
1.0
 40
1.0
 40
1.0
 40
1.0
 10
11.1627071593
 20
9.9898740488
 30
0.0
 10
11.1627071594
 20
9.9908708591
 30
0.0
 10
11.1627900315
 20
9.99287176
 30
0.0
 10
11.1631625631
 20
9.9958674642
 30
0.0
 10
11.1637829989
 20
9.9988597558
 30
0.0
 10
11.1643554837
 20
10.0008303176
 30
0.0
 10
11.1646806247
 20
10.0018119299
 30
0.0
  0
SPLINE
  5
3D5
100
AcDbEntity
  8
0
100
AcDbSpline
 62
7
  6
CONTINUOUS
 70
0
 71
3
 72
60
 73
56
 74
0
 42
0.0000001
 43
0.0000001
 44
0.0000000001
 40
0.0
 40
0.0
 40
0.0
 40
0.0
 40
0.0081437215
 40
0.01697685
 40
0.0265209466
 40
0.03678965
 40
0.0477883286
 40
0.0595158866
 40
0.0719660299
 40
0.0851283246
 40
0.0989885617
 40
0.1135293238
 40
0.1287305536
 40
0.1445695476
 40
0.1610215373
 40
0.1780596973
 40
0.2137771176
 40
0.2514753725
 40
0.290884692
 40
0.3317173433
 40
0.3736711531
 40
0.4164328736
 40
0.4596814124
 40
0.5030909931
 40
0.546334291
 40
0.5890855752
 40
0.6310238557
 40
0.6718360457
 40
0.7112201823
 40
0.7302867147
 40
0.7488898131
 40
0.7669963561
 40
0.7845746229
 40
0.8015944409
 40
0.8180271642
 40
0.8338461164
 40
0.8490264908
 40
0.8635457491
 40
0.8773838801
 40
0.890523522
 40
0.9029506859
 40
0.9146549165
 40
0.9256301632
 40
0.9358756224
 40
0.9453966901
 40
0.9542068483
 40
0.9623293949
 40
0.969800425
 40
0.9766722973
 40
0.9830175573
 40
0.9889330625
 40
0.9917694421
 40
0.994546604
 40
0.9972834941
 40
1.0
 40
1.0
 40
1.0
 40
1.0
 10
12.414214104
 20
6.2210542283
 30
0.0
 10
12.4150330041
 20
6.2218452251
 30
0.0
 10
12.4166665734
 20
6.2235712416
 30
0.0
 10
12.4190139481
 20
6.2264446212
 30
0.0
 10
12.4213512116
 20
6.2296995317
 30
0.0
 10
12.4236738342
 20
6.2333294279
 30
0.0
 10
12.4259776026
 20
6.2373275228
 30
0.0
 10
12.428257923
 20
6.241686107
 30
0.0
 10
12.4305103549
 20
6.2463966317
 30
0.0
 10
12.4327303662
 20
6.2514498351
 30
0.0
 10
12.4349135034
 20
6.2568357104
 30
0.0
 10
12.4370553951
 20
6.2625435404
 30
0.0
 10
12.4391516731
 20
6.2685619514
 30
0.0
 10
12.4411981442
 20
6.2748789025
 30
0.0
 10
12.4431906743
 20
6.2814817614
 30
0.0
 10
12.445811314
 20
6.2907962183
 30
0.0
 10
12.4489106962
 20
6.3030591602
 30
0.0
 10
12.4522990766
 20
6.3184667611
 30
0.0
 10
12.4553849372
 20
6.3346662433
 30
0.0
 10
12.4581432071
 20
6.3515276167
 30
0.0
 10
12.4605514622
 20
6.3689156842
 30
0.0
 10
12.4625901803
 20
6.3866908591
 30
0.0
 10
12.4642428641
 20
6.4047104112
 30
0.0
 10
12.4654961773
 20
6.422829609
 30
0.0
 10
12.4663400488
 20
6.4409029112
 30
0.0
 10
12.466767762
 20
6.4587851383
 30
0.0
 10
12.4667760245
 20
6.476332712
 30
0.0
 10
12.4663649166
 20
6.4934046428
 30
0.0
 10
12.4656686798
 20
6.507266599
 30
0.0
 10
12.4648973892
 20
6.51801185
 30
0.0
 10
12.4642234308
 20
6.525780819
 30
0.0
 10
12.4634491517
 20
6.5333313152
 30
0.0
 10
12.4625761089
 20
6.5406481877
 30
0.0
 10
12.46160611
 20
6.5477167423
 30
0.0
 10
12.4605410843
 20
6.5545227981
 30
0.0
 10
12.4593832458
 20
6.5610527106
 30
0.0
 10
12.4581349213
 20
6.5672934026
 30
0.0
 10
12.4567986507
 20
6.5732323948
 30
0.0
 10
12.45537718
 20
6.5788578384
 30
0.0
 10
12.4538733379
 20
6.5841585337
 30
0.0
 10
12.4522902188
 20
6.5891239839
 30
0.0
 10
12.4506309643
 20
6.593744401
 30
0.0
 10
12.4488988676
 20
6.598010752
 30
0.0
 10
12.4470973433
 20
6.6019148057
 30
0.0
 10
12.4452297191
 20
6.605449105
 30
0.0
 10
12.4432994125
 20
6.6086070692
 30
0.0
 10
12.4413095191
 20
6.6113828715
 30
0.0
 10
12.4392629114
 20
6.6137713472
 30
0.0
 10
12.4371618016
 20
6.6157678105
 30
0.0
 10
12.4350085878
 20
6.6173670835
 30
0.0
 10
12.4331456107
 20
6.6183781813
 30
0.0
 10
12.4316443046
 20
6.6189692073
 30
0.0
 10
12.4305244955
 20
6.6193044972
 30
0.0
 10
12.4293961901
 20
6.6195374346
 30
0.0
 10
12.4286375381
 20
6.6196244724
 30
0.0
 10
12.4282586649
 20
6.6196507507
 30
0.0
  0
SPLINE
  5
3D6
100
AcDbEntity
  8
0
100
AcDbSpline
 62
7
  6
CONTINUOUS
 70
0
 71
3
 72
25
 73
21
 74
0
 42
0.0000001
 43
0.0000001
 44
0.0000000001
 40
0.0
 40
0.0
 40
0.0
 40
0.0
 40
0.0618715085
 40
0.1239819326
 40
0.1863056791
 40
0.2488133587
 40
0.3114722549
 40
0.3742469596
 40
0.4371000107
 40
0.4999925636
 40
0.5628850783
 40
0.6257380154
 40
0.6885125321
 40
0.7198628123
 40
0.7511796021
 40
0.8136869547
 40
0.8760103162
 40
0.9070979862
 40
0.9381289465
 40
1.0
 40
1.0
 40
1.0
 40
1.0
 10
10.1043402338
 20
7.5569720102
 30
0.0
 10
10.0967419764
 20
7.5591160904
 30
0.0
 10
10.0816567782
 20
7.5639296822
 30
0.0
 10
10.0595281131
 20
7.5726636198
 30
0.0
 10
10.0379548818
 20
7.5828846232
 30
0.0
 10
10.0170433472
 20
7.5945424778
 30
0.0
 10
9.9968947914
 20
7.6075804994
 30
0.0
 10
9.9776072589
 20
7.6219351821
 30
0.0
 10
9.9592744758
 20
7.6375366915
 30
0.0
 10
9.9419856002
 20
7.654309093
 30
0.0
 10
9.9258245996
 20
7.6721709681
 30
0.0
 10
9.9108704166
 20
7.691034916
 30
0.0
 10
9.899468546
 20
7.7075228539
 30
0.0
 10
9.8910206648
 20
7.7211216221
 30
0.0
 10
9.8830402977
 20
7.7349606183
 30
0.0
 10
9.873942433
 20
7.7527043355
 30
0.0
 10
9.8660484464
 20
7.7709837311
 30
0.0
 10
9.8604877548
 20
7.7858602846
 30
0.0
 10
9.8554452757
 20
7.8008588205
 30
0.0
 10
9.8522333527
 20
7.8122821964
 30
0.0
 10
9.8503549282
 20
7.8199503905
 30
0.0
  0
SPLINE
  5
3D7
100
AcDbEntity
  8
0
100
AcDbSpline
 62
7
  6
CONTINUOUS
 70
0
 71
3
 72
23
 73
19
 74
0
 42
0.0000001
 43
0.0000001
 44
0.0000000001
 40
0.0
 40
0.0
 40
0.0
 40
0.0
 40
0.1048748189
 40
0.2044410478
 40
0.2981689963
 40
0.3855843067
 40
0.4663254851
 40
0.5402038159
 40
0.6072525052
 40
0.6677513029
 40
0.7222165871
 40
0.7713569686
 40
0.8160035791
 40
0.8570286693
 40
0.8952680035
 40
0.93146074
 40
0.9662150893
 40
1.0
 40
1.0
 40
1.0
 40
1.0
 10
9.5991393176
 20
7.8819118615
 30
0.0
 10
9.5973882951
 20
7.8792459372
 30
0.0
 10
9.5939374218
 20
7.8740734188
 30
0.0
 10
9.588755722
 20
7.8666305829
 30
0.0
 10
9.5836962752
 20
7.8597525826
 30
0.0
 10
9.5787628904
 20
7.8534973649
 30
0.0
 10
9.5739607201
 20
7.8479148895
 30
0.0
 10
9.5692959778
 20
7.8430423485
 30
0.0
 10
9.5647754852
 20
7.8389002419
 30
0.0
 10
9.5604062622
 20
7.8354902976
 30
0.0
 10
9.5561952294
 20
7.8327957971
 30
0.0
 10
9.5521491501
 20
7.830784039
 30
0.0
 10
9.5482747515
 20
7.8294099366
 30
0.0
 10
9.5445785575
 20
7.8286198751
 30
0.0
 10
9.5410662884
 20
7.828355387
 30
0.0
 10
9.537741664
 20
7.8285568571
 30
0.0
 10
9.5346068039
 20
7.8291665362
 30
0.0
 10
9.5326203647
 20
7.8298173723
 30
0.0
 10
9.5316643143
 20
7.8301938294
 30
0.0
  0
SPLINE
  5
3D8
100
AcDbEntity
  8
0
100
AcDbSpline
 62
7
  6
CONTINUOUS
 70
0
 71
3
 72
43
 73
39
 74
0
 42
0.0000001
 43
0.0000001
 44
0.0000000001
 40
0.0
 40
0.0
 40
0.0
 40
0.0
 40
0.0149644519
 40
0.029945728
 40
0.0449459508
 40
0.0599671551
 40
0.0900754905
 40
0.1202894876
 40
0.1354422366
 40
0.1506257404
 40
0.1658411623
 40
0.1810895096
 40
0.2116838487
 40
0.2424182149
 40
0.2732950533
 40
0.3043142597
 40
0.3354732171
 40
0.3667668749
 40
0.3981878673
 40
0.4297266664
 40
0.4613717669
 40
0.4931098977
 40
0.5249262566
 40
0.5568047641
 40
0.588728332
 40
0.6206791447
 40
0.6526389479
 40
0.6845893426
 40
0.7165120809
 40
0.7483893602
 40
0.7802041119
 40
0.811940283
 40
0.843583102
 40
0.8751193426
 40
0.9065375159
 40
0.9378282353
 40
0.968983917
 40
1.0
 40
1.0
 40
1.0
 40
1.0
 10
9.3844823754
 20
7.8333169235
 30
0.0
 10
9.38145336
 20
7.8287417133
 30
0.0
 10
9.3755541956
 20
7.8194775144
 30
0.0
 10
9.3671991394
 20
7.8052682785
 30
0.0
 10
9.3593419
 20
7.7907537182
 30
0.0
 10
9.3495346564
 20
7.7710029503
 30
0.0
 10
9.3385619979
 20
7.7456228254
 30
0.0
 10
9.329373834
 20
7.7194928887
 30
0.0
 10
9.3231063418
 20
7.6981900263
 30
0.0
 10
9.3189475904
 20
7.6820100478
 30
0.0
 10
9.3153405822
 20
7.6656623206
 30
0.0
 10
9.3112679092
 20
7.6436439715
 30
0.0
 10
9.3075785426
 20
7.6157850095
 30
0.0
 10
9.3054136812
 20
7.5820203553
 30
0.0
 10
9.3055147204
 20
7.5480302713
 30
0.0
 10
9.3078811467
 20
7.513967018
 30
0.0
 10
9.312502112
 20
7.479981823
 30
0.0
 10
9.3193568355
 20
7.4462258732
 30
0.0
 10
9.3284146106
 20
7.4128492025
 30
0.0
 10
9.3396349701
 20
7.3800001523
 30
0.0
 10
9.3529678574
 20
7.3478246847
 30
0.0
 10
9.3683538609
 20
7.316465752
 30
0.0
 10
9.3857244775
 20
7.2860626659
 30
0.0
 10
9.4050024168
 20
7.2567504859
 30
0.0
 10
9.4261019435
 20
7.2286594259
 30
0.0
 10
9.448929256
 20
7.201914281
 30
0.0
 10
9.4733829003
 20
7.1766338786
 30
0.0
 10
9.4993542175
 20
7.1529305549
 30
0.0
 10
9.5267278225
 20
7.1309096608
 30
0.0
 10
9.5553821092
 20
7.1106690926
 30
0.0
 10
9.5851897861
 20
7.0922988597
 30
0.0
 10
9.6160184441
 20
7.0758806926
 30
0.0
 10
9.6477311208
 20
7.0614876734
 30
0.0
 10
9.680186961
 20
7.0491839328
 30
0.0
 10
9.7132416277
 20
7.0390243114
 30
0.0
 10
9.7467487043
 20
7.03105422
 30
0.0
 10
9.7805573358
 20
7.0253093382
 30
0.0
 10
9.8032537997
 20
7.0229745233
 30
0.0
 10
9.8145992438
 20
7.0221877141
 30
0.0
  0
SPLINE
  5
3D9
100
AcDbEntity
  8
0
100
AcDbSpline
 62
7
  6
CONTINUOUS
 70
0
 71
3
 72
69
 73
65
 74
0
 42
0.0000001
 43
0.0000001
 44
0.0000000001
 40
0.0
 40
0.0
 40
0.0
 40
0.0
 40
0.0156749348
 40
0.0314027839
 40
0.0471814364
 40
0.0630099721
 40
0.0788860943
 40
0.0948073732
 40
0.1107709045
 40
0.1267734005
 40
0.1428112328
 40
0.1588804529
 40
0.1749768346
 40
0.1910959109
 40
0.2072330173
 40
0.2233833314
 40
0.2395419155
 40
0.2557037586
 40
0.2718638216
 40
0.2880170822
 40
0.3202749255
 40
0.3524475142
 40
0.3684949934
 40
0.3845082673
 40
0.4004836065
 40
0.4164176212
 40
0.4323072962
 40
0.4481500201
 40
0.4639436125
 40
0.4796863462
 40
0.49537697
 40
0.5110147255
 40
0.5265993589
 40
0.5421311273
 40
0.5576108011
 40
0.5730396628
 40
0.5884195007
 40
0.6037525947
 40
0.6190416973
 40
0.634290009
 40
0.649501151
 40
0.6646791309
 40
0.6798283035
 40
0.6949533259
 40
0.71005911
 40
0.725150772
 40
0.7402335794
 40
0.7553128946
 40
0.7703941172
 40
0.7854826259
 40
0.8005837208
 40
0.8157025686
 40
0.8308441477
 40
0.8460131958
 40
0.8612141607
 40
0.8764511552
 40
0.8917279166
 40
0.907047777
 40
0.9224136185
 40
0.9378278587
 40
0.9532924887
 40
0.9688086929
 40
0.9843780614
 40
1.0
 40
1.0
 40
1.0
 40
1.0
 10
11.3188788048
 20
8.3885347647
 30
0.0
 10
11.3120719727
 20
8.3890068201
 30
0.0
 10
11.298456183
 20
8.3902864642
 30
0.0
 10
11.2781183044
 20
8.3931987388
 30
0.0
 10
11.2578783168
 20
8.3971004152
 30
0.0
 10
11.2377858064
 20
8.4019817446
 30
0.0
 10
11.2178887984
 20
8.407831133
 30
0.0
 10
11.1982353133
 20
8.4146343974
 30
0.0
 10
11.1788726239
 20
8.4223751254
 30
0.0
 10
11.1598473391
 20
8.4310346435
 30
0.0
 10
11.1412052482
 20
8.4405920765
 30
0.0
 10
11.1229912243
 20
8.4510244075
 30
0.0
 10
11.1052491127
 20
8.4623065152
 30
0.0
 10
11.088021604
 20
8.4744112062
 30
0.0
 10
11.0713501537
 20
8.4873093271
 30
0.0
 10
11.0552748916
 20
8.5009698144
 30
0.0
 10
11.0398344955
 20
8.5153598226
 30
0.0
 10
11.02506622
 20
8.5304445984
 30
0.0
 10
11.0110052989
 20
8.5461882591
 30
0.0
 10
10.9932568521
 20
8.5679936723
 30
0.0
 10
10.9730044931
 20
8.5966983841
 30
0.0
 10
10.9555014196
 20
8.6271052239
 30
0.0
 10
10.9432672043
 20
8.6522562359
 30
0.0
 10
10.9350022826
 20
8.6714718402
 30
0.0
 10
10.9276620885
 20
8.691006203
 30
0.0
 10
10.921264056
 20
8.710812752
 30
0.0
 10
10.9158236741
 20
8.7308436832
 30
0.0
 10
10.9113540539
 20
8.751050808
 30
0.0
 10
10.9078660039
 20
8.7713854702
 30
0.0
 10
10.9053679829
 20
8.7917987134
 30
0.0
 10
10.9038660538
 20
8.812241379
 30
0.0
 10
10.9033638598
 20
8.8326642326
 30
0.0
 10
10.9038626555
 20
8.8530180843
 30
0.0
 10
10.9053612924
 20
8.8732539024
 30
0.0
 10
10.9078562308
 20
8.8933229285
 30
0.0
 10
10.911341508
 20
8.9131767989
 30
0.0
 10
10.915808756
 20
8.9327676661
 30
0.0
 10
10.9212472548
 20
8.9520483072
 30
0.0
 10
10.9276439473
 20
8.9709722376
 30
0.0
 10
10.9349834781
 20
8.9894938172
 30
0.0
 10
10.9432481875
 20
9.007568378
 30
0.0
 10
10.9524181681
 20
9.0251523323
 30
0.0
 10
10.962471339
 20
9.0422032658
 30
0.0
 10
10.9733834886
 20
9.0586800426
 30
0.0
 10
10.9851283402
 20
9.0745428979
 30
0.0
 10
10.997677574
 20
9.0897535649
 30
0.0
 10
11.0110009196
 20
9.1042753583
 30
0.0
 10
11.0250662461
 20
9.1180732483
 30
0.0
 10
11.0398396333
 20
9.1311139495
 30
0.0
 10
11.0552854579
 20
9.1433659932
 30
0.0
 10
11.0713664476
 20
9.1547998459
 30
0.0
 10
11.0880437976
 20
9.1653879578
 30
0.0
 10
11.1052772744
 20
9.1751048153
 30
0.0
 10
11.1230253086
 20
9.1839270055
 30
0.0
 10
11.1412450968
 20
9.1918332649
 30
0.0
 10
11.1598926846
 20
9.198804579
 30
0.0
 10
11.1789230957
 20
9.2048241952
 30
0.0
 10
11.198290443
 20
9.2098776434
 30
0.0
 10
11.2179480295
 20
9.2139527819
 30
0.0
 10
11.2378485044
 20
9.2170398332
 30
0.0
 10
11.2579437757
 20
9.219131362
 30
0.0
 10
11.278185784
 20
9.2202225319
 30
0.0
 10
11.2985248819
 20
9.2203105694
 30
0.0
 10
11.3120949863
 20
9.219701484
 30
0.0
 10
11.3188788048
 20
9.2192310246
 30
0.0
  0
SPLINE
  5
3DA
100
AcDbEntity
  8
0
100
AcDbSpline
 62
7
  6
CONTINUOUS
 70
0
 71
3
 72
71
 73
67
 74
0
 42
0.0000001
 43
0.0000001
 44
0.0000000001
 40
0.0
 40
0.0
 40
0.0
 40
0.0
 40
0.0156747439
 40
0.0314022082
 40
0.0471806388
 40
0.0630088954
 40
0.0788847426
 40
0.0948057519
 40
0.1107690087
 40
0.1267712324
 40
0.1428087906
 40
0.1588777352
 40
0.1749738406
 40
0.1910926413
 40
0.2072294725
 40
0.2233795109
 40
0.239537818
 40
0.255699384
 40
0.2718591706
 40
0.2880121553
 40
0.3041533743
 40
0.3202779661
 40
0.3363812146
 40
0.3524585914
 40
0.3685057961
 40
0.3845187957
 40
0.4004938614
 40
0.4164276041
 40
0.4323170079
 40
0.4481594607
 40
0.4639527819
 40
0.4796952457
 40
0.4953856017
 40
0.5110230908
 40
0.5266074579
 40
0.5421389597
 40
0.5576183678
 40
0.5730469656
 40
0.5884265412
 40
0.6037593735
 40
0.6190482143
 40
0.6342962647
 40
0.6495071464
 40
0.6646848669
 40
0.6798337803
 40
0.6949585438
 40
0.7100640694
 40
0.7251554736
 40
0.7402380233
 40
0.7553170806
 40
0.7703980447
 40
0.7854862946
 40
0.8005871313
 40
0.8157057213
 40
0.830847042
 40
0.8460158305
 40
0.8612165344
 40
0.8764532676
 40
0.8917297685
 40
0.907049366
 40
0.9224149485
 40
0.9378289216
 40
0.953293278
 40
0.9688092644
 40
0.9843782511
 40
1.0
 40
1.0
 40
1.0
 40
1.0
 10
9.6285085086
 20
7.903024459
 30
0.0
 10
9.6375473926
 20
7.9023976102
 30
0.0
 10
9.6556278742
 20
7.900698382
 30
0.0
 10
9.6826346856
 20
7.896831123
 30
0.0
 10
9.7095114659
 20
7.8916500872
 30
0.0
 10
9.7361924658
 20
7.8851681109
 30
0.0
 10
9.7626138341
 20
7.877400665
 30
0.0
 10
9.7887118406
 20
7.8683665877
 30
0.0
 10
9.8144236948
 20
7.8580876277
 30
0.0
 10
9.8396874992
 20
7.846588585
 30
0.0
 10
9.8644424521
 20
7.8338971844
 30
0.0
 10
9.8886289748
 20
7.8200440115
 30
0.0
 10
9.9121888577
 20
7.8050624403
 30
0.0
 10
9.9350653979
 20
7.7889885523
 30
0.0
 10
9.9572035328
 20
7.7718610501
 30
0.0
 10
9.978549976
 20
7.7537211699
 30
0.0
 10
9.9990533561
 20
7.7346125937
 30
0.0
 10
10.0186643261
 20
7.714581326
 30
0.0
 10
10.0373356825
 20
7.6936755855
 30
0.0
 10
10.055022477
 20
7.6719456906
 30
0.0
 10
10.0716821246
 20
7.6494439394
 30
0.0
 10
10.0872745025
 20
7.6262244836
 30
0.0
 10
10.1017620666
 20
7.6023432123
 30
0.0
 10
10.1151099291
 20
7.5778576061
 30
0.0
 10
10.1272859371
 20
7.5528265971
 30
0.0
 10
10.1382607498
 20
7.5273104296
 30
0.0
 10
10.1480079096
 20
7.5013705171
 30
0.0
 10
10.1565039023
 20
7.4750692944
 30
0.0
 10
10.1637282271
 20
7.4484700737
 30
0.0
 10
10.1696634527
 20
7.4216368916
 30
0.0
 10
10.1742952406
 20
7.39463435
 30
0.0
 10
10.1776123831
 20
7.3675274644
 30
0.0
 10
10.1796068304
 20
7.3403815081
 30
0.0
 10
10.1802737106
 20
7.3132618577
 30
0.0
 10
10.179611343
 20
7.2862338364
 30
0.0
 10
10.1776212675
 20
7.2593625561
 30
0.0
 10
10.174308218
 20
7.2327127589
 30
0.0
 10
10.1696801127
 20
7.2063486635
 30
0.0
 10
10.1637480363
 20
7.1803338111
 30
0.0
 10
10.1565262163
 20
7.1547309128
 30
0.0
 10
10.1480319866
 20
7.1296017002
 30
0.0
 10
10.1382857676
 20
7.1050067689
 30
0.0
 10
10.1273110117
 20
7.0810054304
 30
0.0
 10
10.1151341345
 20
7.0576555733
 30
0.0
 10
10.1017844561
 20
7.035013522
 30
0.0
 10
10.0872941306
 20
7.0131339002
 30
0.0
 10
10.071698069
 20
6.9920694986
 30
0.0
 10
10.0550338603
 20
6.9718711427
 30
0.0
 10
10.0373416935
 20
6.9525875552
 30
0.0
 10
10.018664239
 20
6.9342652512
 30
0.0
 10
9.9990465477
 20
6.9169484239
 30
0.0
 10
9.9785359412
 20
6.9006788377
 30
0.0
 10
9.9571818968
 20
6.8854957259
 30
0.0
 10
9.9350359261
 20
6.871435699
 30
0.0
 10
9.9121514617
 20
6.8585326339
 30
0.0
 10
9.8885837149
 20
6.846817606
 30
0.0
 10
9.8643895374
 20
6.83631882
 30
0.0
 10
9.8396272841
 20
6.8270615431
 30
0.0
 10
9.8143566721
 20
6.819068044
 30
0.0
 10
9.7886386326
 20
6.8123575421
 30
0.0
 10
9.7625351821
 20
6.8069461635
 30
0.0
 10
9.7361092096
 20
6.8028468432
 30
0.0
 10
9.7094245409
 20
6.8000694645
 30
0.0
 10
9.682545081
 20
6.7986205143
 30
0.0
 10
9.6555366464
 20
6.7985035796
 30
0.0
 10
9.6375168329
 20
6.7993124056
 30
0.0
 10
9.6285085086
 20
6.799937135
 30
0.0
  0
SPLINE
  5
3DB
100
AcDbEntity
  8
0
100
AcDbSpline
 62
7
  6
CONTINUOUS
 70
0
 71
3
 72
23
 73
19
 74
0
 42
0.0000001
 43
0.0000001
 44
0.0000000001
 40
0.0
 40
0.0
 40
0.0
 40
0.0
 40
0.0616482106
 40
0.123319444
 40
0.1850364734
 40
0.2468215626
 40
0.3086962119
 40
0.3706809251
 40
0.4327950031
 40
0.4950563302
 40
0.5574811826
 40
0.6200840855
 40
0.6828775753
 40
0.7458723551
 40
0.8090769809
 40
0.8724965648
 40
0.9361390258
 40
1.0
 40
1.0
 40
1.0
 40
1.0
 10
9.6515477501
 20
8.7046642712
 30
0.0
 10
9.6476031967
 20
8.7008541231
 30
0.0
 10
9.6395059341
 20
8.6934430857
 30
0.0
 10
9.6267776913
 20
8.6829932313
 30
0.0
 10
9.613496747
 20
8.6732340844
 30
0.0
 10
9.5996970129
 20
8.6641906661
 30
0.0
 10
9.5854131284
 20
8.6558856626
 30
0.0
 10
9.5706811478
 20
8.6483399708
 30
0.0
 10
9.5555381911
 20
8.6415725514
 30
0.0
 10
9.5400224093
 20
8.6356004338
 30
0.0
 10
9.5241728805
 20
8.6304386583
 30
0.0
 10
9.5080295483
 20
8.6261001542
 30
0.0
 10
9.4916330746
 20
8.6225957773
 30
0.0
 10
9.4750247187
 20
8.6199343266
 30
0.0
 10
9.4582464168
 20
8.6181225361
 30
0.0
 10
9.4413400261
 20
8.6171647378
 30
0.0
 10
9.4243489504
 20
8.6170635238
 30
0.0
 10
9.4130117767
 20
8.6175662669
 30
0.0
 10
9.407344316
 20
8.6179593066
 30
0.0
  0
SPLINE
  5
3DC
100
AcDbEntity
  8
0
100
AcDbSpline
 62
7
  6
CONTINUOUS
 70
0
 71
3
 72
41
 73
37
 74
0
 42
0.0000001
 43
0.0000001
 44
0.0000000001
 40
0.0
 40
0.0
 40
0.0
 40
0.0
 40
0.0299390219
 40
0.059901714
 40
0.089911187
 40
0.1199894485
 40
0.1501568949
 40
0.1804318493
 40
0.2108301609
 40
0.2413648728
 40
0.272045965
 40
0.3028801764
 40
0.3338709045
 40
0.3650181821
 40
0.396318727
 40
0.4277660593
 40
0.4593506796
 40
0.4910603016
 40
0.5228801323
 40
0.5547931918
 40
0.5867806682
 40
0.6188222973
 40
0.6508967648
 40
0.6829821217
 40
0.715056209
 40
0.7310844894
 40
0.7471017679
 40
0.7790881331
 40
0.8109997454
 40
0.8269239678
 40
0.8428226015
 40
0.8745301998
 40
0.9061125375
 40
0.937557485
 40
0.9688552819
 40
1.0
 40
1.0
 40
1.0
 40
1.0
 10
9.1631408819
 20
9.2103002382
 30
0.0
 10
9.1573947496
 20
9.2047498976
 30
0.0
 10
9.1463283045
 20
9.1931891143
 30
0.0
 10
9.1311299122
 20
9.1745947572
 30
0.0
 10
9.1174067281
 20
9.1548395432
 30
0.0
 10
9.1052334846
 20
9.1340306398
 30
0.0
 10
9.0946747912
 20
9.1122791413
 30
0.0
 10
9.0857870312
 20
9.0897016132
 30
0.0
 10
9.0786174682
 20
9.0664188718
 30
0.0
 10
9.0732041689
 20
9.0425554802
 30
0.0
 10
9.0695757711
 20
9.0182390315
 30
0.0
 10
9.0677513601
 20
8.9935994731
 30
0.0
 10
9.06774038
 20
8.9687684089
 30
0.0
 10
9.0695425968
 20
8.9438784004
 30
0.0
 10
9.0731481115
 20
8.9190622627
 30
0.0
 10
9.0785374287
 20
8.8944523638
 30
0.0
 10
9.0856815682
 20
8.8701799271
 30
0.0
 10
9.0945422265
 20
8.8463743416
 30
0.0
 10
9.1050719852
 20
8.8231624802
 30
0.0
 10
9.1172145615
 20
8.8006680372
 30
0.0
 10
9.1309051267
 20
8.7790108628
 30
0.0
 10
9.1460705822
 20
8.7583063874
 30
0.0
 10
9.1626302003
 20
8.7386648098
 30
0.0
 10
9.1804951063
 20
8.7201912769
 30
0.0
 10
9.1963968671
 20
8.705846903
 30
0.0
 10
9.209673889
 20
8.695050317
 30
0.0
 10
9.2232935098
 20
8.6847278763
 30
0.0
 10
9.2409418009
 20
8.6727260921
 30
0.0
 10
9.2593517362
 20
8.661977682
 30
0.0
 10
9.2744663647
 20
8.6541744098
 30
0.0
 10
9.2897930777
 20
8.6469230335
 30
0.0
 10
9.309356198
 20
8.6388863505
 30
0.0
 10
9.333373915
 20
8.6309351524
 30
0.0
 10
9.3577883566
 20
8.6247264367
 30
0.0
 10
9.382466984
 20
8.6202939016
 30
0.0
 10
9.3990534857
 20
8.6185342777
 30
0.0
 10
9.407344316
 20
8.6179593066
 30
0.0
  0
SPLINE
  5
3DD
100
AcDbEntity
  8
0
100
AcDbSpline
 62
7
  6
CONTINUOUS
 70
0
 71
3
 72
71
 73
67
 74
0
 42
0.0000001
 43
0.0000001
 44
0.0000000001
 40
0.0
 40
0.0
 40
0.0
 40
0.0
 40
0.0156747439
 40
0.0314022082
 40
0.0471806388
 40
0.0630088954
 40
0.0788847426
 40
0.0948057519
 40
0.1107690087
 40
0.1267712324
 40
0.1428087906
 40
0.1588777352
 40
0.1749738406
 40
0.1910926413
 40
0.2072294725
 40
0.2233795109
 40
0.239537818
 40
0.255699384
 40
0.2718591706
 40
0.2880121553
 40
0.3041533743
 40
0.3202779661
 40
0.3363812146
 40
0.3524585914
 40
0.3685057961
 40
0.3845187957
 40
0.4004938614
 40
0.4164276041
 40
0.4323170079
 40
0.4481594607
 40
0.4639527819
 40
0.4796952457
 40
0.4953856017
 40
0.5110230908
 40
0.5266074579
 40
0.5421389597
 40
0.5576183678
 40
0.5730469656
 40
0.5884265412
 40
0.6037593735
 40
0.6190482143
 40
0.6342962647
 40
0.6495071464
 40
0.6646848669
 40
0.6798337803
 40
0.6949585438
 40
0.7100640694
 40
0.7251554736
 40
0.7402380233
 40
0.7553170806
 40
0.7703980447
 40
0.7854862946
 40
0.8005871313
 40
0.8157057213
 40
0.830847042
 40
0.8460158305
 40
0.8612165344
 40
0.8764532676
 40
0.8917297685
 40
0.907049366
 40
0.9224149485
 40
0.9378289216
 40
0.953293278
 40
0.9688092644
 40
0.9843782511
 40
1.0
 40
1.0
 40
1.0
 40
1.0
 10
9.6285085086
 20
6.799937135
 30
0.0
 10
9.6194696246
 20
6.8005639837
 30
0.0
 10
9.601389143
 20
6.8022632119
 30
0.0
 10
9.5743823315
 20
6.8061304709
 30
0.0
 10
9.5475055513
 20
6.8113115067
 30
0.0
 10
9.5208245514
 20
6.8177934831
 30
0.0
 10
9.4944031831
 20
6.8255609289
 30
0.0
 10
9.4683051766
 20
6.8345950062
 30
0.0
 10
9.4425933224
 20
6.8448739662
 30
0.0
 10
9.417329518
 20
6.8563730089
 30
0.0
 10
9.3925745651
 20
6.8690644095
 30
0.0
 10
9.3683880424
 20
6.8829175824
 30
0.0
 10
9.3448281594
 20
6.8978991536
 30
0.0
 10
9.3219516193
 20
6.9139730417
 30
0.0
 10
9.2998134844
 20
6.9311005438
 30
0.0
 10
9.2784670412
 20
6.9492404241
 30
0.0
 10
9.2579636611
 20
6.9683490002
 30
0.0
 10
9.2383526911
 20
6.988380268
 30
0.0
 10
9.2196813347
 20
7.0092860084
 30
0.0
 10
9.2019945402
 20
7.0310159033
 30
0.0
 10
9.1853348926
 20
7.0535176546
 30
0.0
 10
9.1697425147
 20
7.0767371103
 30
0.0
 10
9.1552549506
 20
7.1006183816
 30
0.0
 10
9.1419070881
 20
7.1251039879
 30
0.0
 10
9.1297310801
 20
7.1501349969
 30
0.0
 10
9.1187562674
 20
7.1756511643
 30
0.0
 10
9.1090091076
 20
7.2015910769
 30
0.0
 10
9.1005131149
 20
7.2278922995
 30
0.0
 10
9.0932887901
 20
7.2544915202
 30
0.0
 10
9.0873535644
 20
7.2813247024
 30
0.0
 10
9.0827217766
 20
7.3083272439
 30
0.0
 10
9.0794046341
 20
7.3354341296
 30
0.0
 10
9.0774101868
 20
7.3625800858
 30
0.0
 10
9.0767433066
 20
7.3896997362
 30
0.0
 10
9.0774056742
 20
7.4167277575
 30
0.0
 10
9.0793957497
 20
7.4435990379
 30
0.0
 10
9.0827087992
 20
7.470248835
 30
0.0
 10
9.0873369045
 20
7.4966129304
 30
0.0
 10
9.0932689809
 20
7.5226277829
 30
0.0
 10
9.1004908009
 20
7.5482306812
 30
0.0
 10
9.1089850306
 20
7.5733598937
 30
0.0
 10
9.1187312495
 20
7.597954825
 30
0.0
 10
9.1297060055
 20
7.6219561635
 30
0.0
 10
9.1418828827
 20
7.6453060206
 30
0.0
 10
9.1552325611
 20
7.6679480719
 30
0.0
 10
9.1697228866
 20
7.6898276938
 30
0.0
 10
9.1853189482
 20
7.7108920953
 30
0.0
 10
9.2019831569
 20
7.7310904512
 30
0.0
 10
9.2196753237
 20
7.7503740388
 30
0.0
 10
9.2383527782
 20
7.7686963428
 30
0.0
 10
9.2579704695
 20
7.78601317
 30
0.0
 10
9.278481076
 20
7.8022827562
 30
0.0
 10
9.2998351204
 20
7.817465868
 30
0.0
 10
9.3219810911
 20
7.8315258949
 30
0.0
 10
9.3448655555
 20
7.84442896
 30
0.0
 10
9.3684333023
 20
7.856143988
 30
0.0
 10
9.3926274798
 20
7.866642774
 30
0.0
 10
9.4173897331
 20
7.8759000508
 30
0.0
 10
9.4426603451
 20
7.88389355
 30
0.0
 10
9.4683783846
 20
7.8906040518
 30
0.0
 10
9.4944818351
 20
7.8960154304
 30
0.0
 10
9.5209078076
 20
7.9001147508
 30
0.0
 10
9.5475924763
 20
7.9028921295
 30
0.0
 10
9.5744719362
 20
7.9043410796
 30
0.0
 10
9.6014803708
 20
7.9044580144
 30
0.0
 10
9.6195001843
 20
7.9036491884
 30
0.0
 10
9.6285085086
 20
7.903024459
 30
0.0
  0
SPLINE
  5
3DE
100
AcDbEntity
  8
0
100
AcDbSpline
 62
7
  6
CONTINUOUS
 70
0
 71
3
 72
71
 73
67
 74
0
 42
0.0000001
 43
0.0000001
 44
0.0000000001
 40
0.0
 40
0.0
 40
0.0
 40
0.0
 40
0.0156747439
 40
0.0314022082
 40
0.0471806388
 40
0.0630088954
 40
0.0788847426
 40
0.0948057519
 40
0.1107690087
 40
0.1267712324
 40
0.1428087906
 40
0.1588777352
 40
0.1749738406
 40
0.1910926413
 40
0.2072294725
 40
0.2233795109
 40
0.239537818
 40
0.255699384
 40
0.2718591706
 40
0.2880121553
 40
0.3041533743
 40
0.3202779661
 40
0.3363812146
 40
0.3524585914
 40
0.3685057961
 40
0.3845187957
 40
0.4004938614
 40
0.4164276041
 40
0.4323170079
 40
0.4481594607
 40
0.4639527819
 40
0.4796952457
 40
0.4953856017
 40
0.5110230908
 40
0.5266074579
 40
0.5421389597
 40
0.5576183678
 40
0.5730469656
 40
0.5884265412
 40
0.6037593735
 40
0.6190482143
 40
0.6342962647
 40
0.6495071464
 40
0.6646848669
 40
0.6798337803
 40
0.6949585438
 40
0.7100640694
 40
0.7251554736
 40
0.7402380233
 40
0.7553170806
 40
0.7703980447
 40
0.7854862946
 40
0.8005871313
 40
0.8157057213
 40
0.830847042
 40
0.8460158305
 40
0.8612165344
 40
0.8764532676
 40
0.8917297685
 40
0.907049366
 40
0.9224149485
 40
0.9378289216
 40
0.953293278
 40
0.9688092644
 40
0.9843782511
 40
1.0
 40
1.0
 40
1.0
 40
1.0
 10
11.0773973339
 20
7.8025436776
 30
0.0
 10
11.0864362179
 20
7.8019168289
 30
0.0
 10
11.1045166994
 20
7.8002176007
 30
0.0
 10
11.1315235109
 20
7.7963503417
 30
0.0
 10
11.1584002911
 20
7.7911693059
 30
0.0
 10
11.1850812911
 20
7.7846873295
 30
0.0
 10
11.2115026594
 20
7.7769198837
 30
0.0
 10
11.2376006659
 20
7.7678858064
 30
0.0
 10
11.2633125201
 20
7.7576068464
 30
0.0
 10
11.2885763245
 20
7.7461078037
 30
0.0
 10
11.3133312773
 20
7.7334164031
 30
0.0
 10
11.3375178001
 20
7.7195632302
 30
0.0
 10
11.361077683
 20
7.704581659
 30
0.0
 10
11.3839542231
 20
7.688507771
 30
0.0
 10
11.4060923581
 20
7.6713802688
 30
0.0
 10
11.4274388012
 20
7.6532403886
 30
0.0
 10
11.4479421814
 20
7.6341318124
 30
0.0
 10
11.4675531514
 20
7.6141005446
 30
0.0
 10
11.4862245078
 20
7.5931948042
 30
0.0
 10
11.5039113023
 20
7.5714649093
 30
0.0
 10
11.5205709499
 20
7.548963158
 30
0.0
 10
11.5361633278
 20
7.5257437023
 30
0.0
 10
11.5506508918
 20
7.501862431
 30
0.0
 10
11.5639987544
 20
7.4773768248
 30
0.0
 10
11.5761747624
 20
7.4523458158
 30
0.0
 10
11.5871495751
 20
7.4268296483
 30
0.0
 10
11.5968967349
 20
7.4008897358
 30
0.0
 10
11.6053927276
 20
7.3745885131
 30
0.0
 10
11.6126170524
 20
7.3479892924
 30
0.0
 10
11.618552278
 20
7.3211561102
 30
0.0
 10
11.6231840659
 20
7.2941535687
 30
0.0
 10
11.6265012084
 20
7.2670466831
 30
0.0
 10
11.6284956557
 20
7.2399007268
 30
0.0
 10
11.6291625359
 20
7.2127810764
 30
0.0
 10
11.6285001683
 20
7.1857530551
 30
0.0
 10
11.6265100928
 20
7.1588817748
 30
0.0
 10
11.6231970433
 20
7.1322319776
 30
0.0
 10
11.618568938
 20
7.1058678822
 30
0.0
 10
11.6126368616
 20
7.0798530298
 30
0.0
 10
11.6054150416
 20
7.0542501315
 30
0.0
 10
11.5969208119
 20
7.0291209189
 30
0.0
 10
11.5871745929
 20
7.0045259876
 30
0.0
 10
11.576199837
 20
6.9805246491
 30
0.0
 10
11.5640229598
 20
6.957174792
 30
0.0
 10
11.5506732814
 20
6.9345327407
 30
0.0
 10
11.5361829559
 20
6.9126531189
 30
0.0
 10
11.5205868943
 20
6.8915887173
 30
0.0
 10
11.5039226855
 20
6.8713903614
 30
0.0
 10
11.4862305188
 20
6.8521067738
 30
0.0
 10
11.4675530642
 20
6.8337844698
 30
0.0
 10
11.447935373
 20
6.8164676426
 30
0.0
 10
11.4274247665
 20
6.8001980564
 30
0.0
 10
11.4060707221
 20
6.7850149446
 30
0.0
 10
11.3839247513
 20
6.7709549177
 30
0.0
 10
11.361040287
 20
6.7580518526
 30
0.0
 10
11.3374725401
 20
6.7463368247
 30
0.0
 10
11.3132783627
 20
6.7358380387
 30
0.0
 10
11.2885161094
 20
6.7265807618
 30
0.0
 10
11.2632454974
 20
6.7185872627
 30
0.0
 10
11.2375274579
 20
6.7118767608
 30
0.0
 10
11.2114240074
 20
6.7064653822
 30
0.0
 10
11.1849980349
 20
6.7023660618
 30
0.0
 10
11.1583133662
 20
6.6995886832
 30
0.0
 10
11.1314339063
 20
6.698139733
 30
0.0
 10
11.1044254716
 20
6.6980227982
 30
0.0
 10
11.0864056582
 20
6.6988316242
 30
0.0
 10
11.0773973339
 20
6.6994563537
 30
0.0
  0
SPLINE
  5
3DF
100
AcDbEntity
  8
0
100
AcDbSpline
 62
7
  6
CONTINUOUS
 70
0
 71
3
 72
23
 73
19
 74
0
 42
0.0000001
 43
0.0000001
 44
0.0000000001
 40
0.0
 40
0.0
 40
0.0
 40
0.0
 40
0.0616482106
 40
0.123319444
 40
0.1850364734
 40
0.2468215626
 40
0.3086962119
 40
0.3706809251
 40
0.4327950031
 40
0.4950563302
 40
0.5574811826
 40
0.6200840855
 40
0.6828775753
 40
0.7458723551
 40
0.8090769809
 40
0.8724965648
 40
0.9361390258
 40
1.0
 40
1.0
 40
1.0
 40
1.0
 10
11.5833995171
 20
8.5706898961
 30
0.0
 10
11.5794549637
 20
8.5668797481
 30
0.0
 10
11.5713577011
 20
8.5594687107
 30
0.0
 10
11.5586294583
 20
8.5490188562
 30
0.0
 10
11.5453485141
 20
8.5392597093
 30
0.0
 10
11.53154878
 20
8.530216291
 30
0.0
 10
11.5172648954
 20
8.5219112876
 30
0.0
 10
11.5025329148
 20
8.5143655957
 30
0.0
 10
11.4873899581
 20
8.5075981764
 30
0.0
 10
11.4718741764
 20
8.5016260587
 30
0.0
 10
11.4560246475
 20
8.4964642832
 30
0.0
 10
11.4398813154
 20
8.4921257791
 30
0.0
 10
11.4234848417
 20
8.4886214022
 30
0.0
 10
11.4068764857
 20
8.4859599515
 30
0.0
 10
11.3900981838
 20
8.484148161
 30
0.0
 10
11.3731917931
 20
8.4831903627
 30
0.0
 10
11.3562007175
 20
8.4830891487
 30
0.0
 10
11.3448635437
 20
8.4835918918
 30
0.0
 10
11.339196083
 20
8.4839849315
 30
0.0
  0
SPLINE
  5
3E0
100
AcDbEntity
  8
0
100
AcDbSpline
 62
7
  6
CONTINUOUS
 70
0
 71
3
 72
41
 73
37
 74
0
 42
0.0000001
 43
0.0000001
 44
0.0000000001
 40
0.0
 40
0.0
 40
0.0
 40
0.0
 40
0.0299390219
 40
0.059901714
 40
0.089911187
 40
0.1199894485
 40
0.1501568949
 40
0.1804318493
 40
0.2108301609
 40
0.2413648728
 40
0.272045965
 40
0.3028801764
 40
0.3338709045
 40
0.3650181821
 40
0.396318727
 40
0.4277660593
 40
0.4593506796
 40
0.4910603016
 40
0.5228801323
 40
0.5547931918
 40
0.5867806682
 40
0.6188222973
 40
0.6508967648
 40
0.6829821217
 40
0.715056209
 40
0.7310844894
 40
0.7471017679
 40
0.7790881331
 40
0.8109997454
 40
0.8269239678
 40
0.8428226015
 40
0.8745301998
 40
0.9061125375
 40
0.937557485
 40
0.9688552819
 40
1.0
 40
1.0
 40
1.0
 40
1.0
 10
11.094992649
 20
9.0763258631
 30
0.0
 10
11.0892465167
 20
9.0707755225
 30
0.0
 10
11.0781800716
 20
9.0592147392
 30
0.0
 10
11.0629816793
 20
9.0406203821
 30
0.0
 10
11.0492584952
 20
9.0208651681
 30
0.0
 10
11.0370852517
 20
9.0000562647
 30
0.0
 10
11.0265265583
 20
8.9783047662
 30
0.0
 10
11.0176387982
 20
8.9557272382
 30
0.0
 10
11.0104692353
 20
8.9324444967
 30
0.0
 10
11.0050559359
 20
8.9085811051
 30
0.0
 10
11.0014275382
 20
8.8842646564
 30
0.0
 10
10.9996031271
 20
8.859625098
 30
0.0
 10
10.999592147
 20
8.8347940339
 30
0.0
 10
11.0013943639
 20
8.8099040253
 30
0.0
 10
11.0049998786
 20
8.7850878876
 30
0.0
 10
11.0103891957
 20
8.7604779887
 30
0.0
 10
11.0175333353
 20
8.736205552
 30
0.0
 10
11.0263939935
 20
8.7123999665
 30
0.0
 10
11.0369237522
 20
8.6891881051
 30
0.0
 10
11.0490663286
 20
8.6666936621
 30
0.0
 10
11.0627568937
 20
8.6450364878
 30
0.0
 10
11.0779223493
 20
8.6243320123
 30
0.0
 10
11.0944819674
 20
8.6046904347
 30
0.0
 10
11.1123468733
 20
8.5862169018
 30
0.0
 10
11.1282486341
 20
8.5718725279
 30
0.0
 10
11.141525656
 20
8.5610759419
 30
0.0
 10
11.1551452768
 20
8.5507535012
 30
0.0
 10
11.1727935679
 20
8.538751717
 30
0.0
 10
11.1912035032
 20
8.5280033069
 30
0.0
 10
11.2063181317
 20
8.5202000348
 30
0.0
 10
11.2216448448
 20
8.5129486584
 30
0.0
 10
11.2412079651
 20
8.5049119755
 30
0.0
 10
11.265225682
 20
8.4969607774
 30
0.0
 10
11.2896401236
 20
8.4907520616
 30
0.0
 10
11.3143187511
 20
8.4863195265
 30
0.0
 10
11.3309052527
 20
8.4845599026
 30
0.0
 10
11.339196083
 20
8.4839849315
 30
0.0
  0
SPLINE
  5
3E1
100
AcDbEntity
  8
0
100
AcDbSpline
 62
7
  6
CONTINUOUS
 70
0
 71
3
 72
23
 73
19
 74
0
 42
0.0000001
 43
0.0000001
 44
0.0000000001
 40
0.0
 40
0.0
 40
0.0
 40
0.0
 40
0.0616482071
 40
0.1233194423
 40
0.1850364754
 40
0.2468215648
 40
0.3086962113
 40
0.3706809251
 40
0.4327950039
 40
0.4950563299
 40
0.5574811805
 40
0.6200840695
 40
0.682877611
 40
0.7458723236
 40
0.8090769236
 40
0.8724969197
 40
0.9361382346
 40
1.0
 40
1.0
 40
1.0
 40
1.0
 10
10.0116950462
 20
6.9708333277
 30
0.0
 10
10.0056351314
 20
6.9649799038
 30
0.0
 10
9.993195546
 20
6.9535945039
 30
0.0
 10
9.9736415004
 20
6.937540657
 30
0.0
 10
9.9532383357
 20
6.9225479487
 30
0.0
 10
9.9320381576
 20
6.9086548152
 30
0.0
 10
9.9100942194
 20
6.8958960462
 30
0.0
 10
9.8874618776
 20
6.8843037936
 30
0.0
 10
9.8641981538
 20
6.873907202
 30
0.0
 10
9.8403616696
 20
6.8647324147
 30
0.0
 10
9.8160124773
 20
6.8568024871
 30
0.0
 10
9.7912119099
 20
6.8501373373
 30
0.0
 10
9.7660224433
 20
6.8447536944
 30
0.0
 10
9.7405074755
 20
6.8406650024
 30
0.0
 10
9.714731381
 20
6.8378815573
 30
0.0
 10
9.6887586495
 20
6.8364101549
 30
0.0
 10
9.662655709
 20
6.8362545918
 30
0.0
 10
9.6452387631
 20
6.8370269855
 30
0.0
 10
9.6365318877
 20
6.8376308094
 30
0.0
  0
SPLINE
  5
3E2
100
AcDbEntity
  8
0
100
AcDbSpline
 62
7
  6
CONTINUOUS
 70
0
 71
3
 72
15
 73
11
 74
0
 42
0.0000001
 43
0.0000001
 44
0.0000000001
 40
0.0
 40
0.0
 40
0.0
 40
0.0
 40
0.1233300035
 40
0.2470319918
 40
0.3711707243
 40
0.4958019575
 40
0.6209713123
 40
0.7467140007
 40
0.8730522424
 40
1.0
 40
1.0
 40
1.0
 40
1.0
 10
10.0892389389
 20
7.0687437345
 30
0.0
 10
10.0789821048
 20
7.0631025829
 30
0.0
 10
10.0580127075
 20
7.0525569242
 30
0.0
 10
10.0254376979
 20
7.0390633164
 30
0.0
 10
9.9918491883
 20
7.0279340607
 30
0.0
 10
9.9574109787
 20
7.0192235829
 30
0.0
 10
9.922288256
 20
7.0129730553
 30
0.0
 10
9.8866495284
 20
7.0092123725
 30
0.0
 10
9.8506681308
 20
7.0079589354
 30
0.0
 10
9.8266195273
 20
7.0087970681
 30
0.0
 10
9.8145992438
 20
7.0096306776
 30
0.0
  0
SPLINE
  5
3E3
100
AcDbEntity
  8
0
100
AcDbSpline
 62
7
  6
CONTINUOUS
 70
0
 71
3
 72
19
 73
15
 74
0
 42
0.0000001
 43
0.0000001
 44
0.0000000001
 40
0.0
 40
0.0
 40
0.0
 40
0.0
 40
0.0616005123
 40
0.123275487
 40
0.1850372408
 40
0.2468975041
 40
0.3088673655
 40
0.3709571717
 40
0.4331764723
 40
0.4955339892
 40
0.620668356
 40
0.7464372759
 40
0.8728743725
 40
1.0
 40
1.0
 40
1.0
 40
1.0
 10
10.1117443535
 20
7.111291396
 30
0.0
 10
10.1064677343
 20
7.107839745
 30
0.0
 10
10.0957624255
 20
7.1011521133
 30
0.0
 10
10.0792905606
 20
7.0917927642
 30
0.0
 10
10.0624200582
 20
7.0831136998
 30
0.0
 10
10.0451772141
 20
7.0751283484
 30
0.0
 10
10.027588312
 20
7.067848925
 30
0.0
 10
10.0096804424
 20
7.0612866406
 30
0.0
 10
9.9914806953
 20
7.0554513781
 30
0.0
 10
9.9668375988
 20
7.0486453355
 30
0.0
 10
9.9354298883
 20
7.042001393
 30
0.0
 10
9.8970817346
 20
7.0370663394
 30
0.0
 10
9.8582607473
 20
7.0351865468
 30
0.0
 10
9.8322873634
 20
7.0359763233
 30
0.0
 10
9.8193062611
 20
7.0368765658
 30
0.0
  0
SPLINE
  5
3E4
100
AcDbEntity
  8
0
100
AcDbSpline
 62
7
  6
CONTINUOUS
 70
0
 71
3
 72
15
 73
11
 74
0
 42
0.0000001
 43
0.0000001
 44
0.0000000001
 40
0.0
 40
0.0
 40
0.0
 40
0.0
 40
0.1233237137
 40
0.2470184172
 40
0.3711505349
 40
0.4957773122
 40
0.6209456154
 40
0.7466916675
 40
0.8730383423
 40
1.0
 40
1.0
 40
1.0
 40
1.0
 10
10.1197638177
 20
7.129033223
 30
0.0
 10
10.1098962387
 20
7.1235382064
 30
0.0
 10
10.0897137746
 20
7.1132633675
 30
0.0
 10
10.0583386062
 20
7.1001104621
 30
0.0
 10
10.0259682978
 20
7.0892565938
 30
0.0
 10
9.9927635535
 20
7.0807557919
 30
0.0
 10
9.9588865112
 20
7.074648963
 30
0.0
 10
9.9245026276
 20
7.0709658412
 30
0.0
 10
9.8897821443
 20
7.0697237758
 30
0.0
 10
9.8665747346
 20
7.0705254604
 30
0.0
 10
9.8549749815
 20
7.071329906
 30
0.0
  0
SPLINE
  5
3E5
100
AcDbEntity
  8
0
100
AcDbSpline
 62
7
  6
CONTINUOUS
 70
0
 71
3
 72
21
 73
17
 74
0
 42
0.0000001
 43
0.0000001
 44
0.0000000001
 40
0.0
 40
0.0
 40
0.0
 40
0.0
 40
0.0615939524
 40
0.1232558874
 40
0.1849998474
 40
0.2468392788
 40
0.3087869141
 40
0.3708546805
 40
0.4330536378
 40
0.4953938864
 40
0.5578845106
 40
0.6205334818
 40
0.6833476514
 40
0.7463329639
 40
0.8728046027
 40
1.0
 40
1.0
 40
1.0
 40
1.0
 10
10.1443243221
 20
7.205113673
 30
0.0
 10
10.1394121752
 20
7.2016536858
 30
0.0
 10
10.1294287678
 20
7.1949451908
 30
0.0
 10
10.1140179584
 20
7.1855441913
 30
0.0
 10
10.0981891772
 20
7.1768150006
 30
0.0
 10
10.0819696164
 20
7.1687726837
 30
0.0
 10
10.0653866416
 20
7.1614308524
 30
0.0
 10
10.0484684265
 20
7.1548018761
 30
0.0
 10
10.0312436316
 20
7.1488969708
 30
0.0
 10
10.0137414354
 20
7.1437261978
 30
0.0
 10
9.9959915014
 20
7.1392982215
 30
0.0
 10
9.9780239963
 20
7.1356205256
 30
0.0
 10
9.9598689982
 20
7.132699381
 30
0.0
 10
9.9354236273
 20
7.1298160711
 30
0.0
 10
9.9045432462
 20
7.1281320226
 30
0.0
 10
9.879776251
 20
7.1288359244
 30
0.0
 10
9.8673982854
 20
7.1296943392
 30
0.0
  0
SPLINE
  5
3E6
100
AcDbEntity
  8
0
100
AcDbSpline
 62
7
  6
CONTINUOUS
 70
0
 71
3
 72
39
 73
35
 74
0
 42
0.0000001
 43
0.0000001
 44
0.0000000001
 40
0.0
 40
0.0
 40
0.0
 40
0.0
 40
0.0299393047
 40
0.0599022801
 40
0.0899120371
 40
0.1199905837
 40
0.1501583157
 40
0.1804335568
 40
0.2108321569
 40
0.2413671588
 40
0.2720485416
 40
0.3028830442
 40
0.3338740651
 40
0.3650216374
 40
0.3963224781
 40
0.4277701073
 40
0.4593550264
 40
0.4910649494
 40
0.522885082
 40
0.5547984439
 40
0.586786223
 40
0.6188281554
 40
0.6509029262
 40
0.6829885862
 40
0.7150629769
 40
0.7471041563
 40
0.7790908245
 40
0.8110027389
 40
0.842821116
 40
0.8745290096
 40
0.9061116585
 40
0.9375568878
 40
0.9688549526
 40
1.0
 40
1.0
 40
1.0
 40
1.0
 10
9.2613687292
 20
7.7476282453
 30
0.0
 10
9.2525410953
 20
7.7391014119
 30
0.0
 10
9.2355400128
 20
7.721340892
 30
0.0
 10
9.2121911118
 20
7.6927748969
 30
0.0
 10
9.1911085588
 20
7.6624254876
 30
0.0
 10
9.1724071347
 20
7.6304573269
 30
0.0
 10
9.1561860895
 20
7.5970410883
 30
0.0
 10
9.1425320477
 20
7.5623558437
 30
0.0
 10
9.1315176524
 20
7.5265871886
 30
0.0
 10
9.1232013664
 20
7.4899264959
 30
0.0
 10
9.1176271629
 20
7.4525697884
 30
0.0
 10
9.11482436
 20
7.4147166981
 30
0.0
 10
9.114807491
 20
7.3765694015
 30
0.0
 10
9.1175761987
 20
7.3383315515
 30
0.0
 10
9.1231152489
 20
7.3002071862
 30
0.0
 10
9.1313946926
 20
7.2623996563
 30
0.0
 10
9.1423700279
 20
7.2251105593
 30
0.0
 10
9.1559824327
 20
7.1885386815
 30
0.0
 10
9.1721590259
 20
7.1528789266
 30
0.0
 10
9.1908133404
 20
7.1183213146
 30
0.0
 10
9.2118457709
 20
7.0850499838
 30
0.0
 10
9.235144108
 20
7.0532422327
 30
0.0
 10
9.260584066
 20
7.0230675371
 30
0.0
 10
9.2880299992
 20
6.9946866903
 30
0.0
 10
9.3173356226
 20
6.9682509644
 30
0.0
 10
9.3483447862
 20
6.9439013244
 30
0.0
 10
9.3808922539
 20
6.9217676342
 30
0.0
 10
9.4148045989
 20
6.9019679763
 30
0.0
 10
9.4499011177
 20
6.8846080661
 30
0.0
 10
9.4859948563
 20
6.8697806928
 30
0.0
 10
9.5228932851
 20
6.8575651846
 30
0.0
 10
9.5604003511
 20
6.8480269986
 30
0.0
 10
9.5983135049
 20
6.8412173839
 30
0.0
 10
9.6237948937
 20
6.8385141229
 30
0.0
 10
9.6365318877
 20
6.8376308094
 30
0.0
  0
SPLINE
  5
3E7
100
AcDbEntity
  8
0
100
AcDbSpline
 62
7
  6
CONTINUOUS
 70
0
 71
3
 72
45
 73
41
 74
0
 42
0.0000001
 43
0.0000001
 44
0.0000000001
 40
0.0
 40
0.0
 40
0.0
 40
0.0
 40
0.0149735785
 40
0.0299663366
 40
0.0449801909
 40
0.0600169617
 40
0.0901615913
 40
0.1204169945
 40
0.1355917011
 40
0.150797785
 40
0.1660361962
 40
0.1813077369
 40
0.2119484963
 40
0.2427277944
 40
0.273646719
 40
0.3047039792
 40
0.3358959587
 40
0.367216806
 40
0.398658558
 40
0.4302112931
 40
0.4618633118
 40
0.4936013392
 40
0.5254107476
 40
0.5572757945
 40
0.5891798734
 40
0.621105774
 40
0.6530359498
 40
0.6849527881
 40
0.7168388816
 40
0.7486772978
 40
0.780451843
 40
0.8121473185
 40
0.8437497632
 40
0.8595140617
 40
0.8752505569
 40
0.9066311404
 40
0.9378865327
 40
0.9534668161
 40
0.9690135885
 40
1.0
 40
1.0
 40
1.0
 40
1.0
 10
9.3618472625
 20
7.8216313678
 30
0.0
 10
9.3590258
 20
7.8168949639
 30
0.0
 10
9.3535433708
 20
7.8073172132
 30
0.0
 10
9.3458169152
 20
7.7926653652
 30
0.0
 10
9.3385905117
 20
7.7777342732
 30
0.0
 10
9.3296258889
 20
7.7574610652
 30
0.0
 10
9.3197077548
 20
7.7314925631
 30
0.0
 10
9.3115667773
 20
7.7048606434
 30
0.0
 10
9.3061290837
 20
7.683203829
 30
0.0
 10
9.3025887287
 20
7.6667814031
 30
0.0
 10
9.2995946681
 20
7.6502144374
 30
0.0
 10
9.2963318015
 20
7.6279336841
 30
0.0
 10
9.2936373527
 20
7.5998029635
 30
0.0
 10
9.2926307541
 20
7.5657959858
 30
0.0
 10
9.2938506361
 20
7.5316420921
 30
0.0
 10
9.2972917168
 20
7.4974879148
 30
0.0
 10
9.3029390427
 20
7.4634787882
 30
0.0
 10
9.3107683345
 20
7.4297597278
 30
0.0
 10
9.3207460235
 20
7.3964743899
 30
0.0
 10
9.3328294123
 20
7.3637645798
 30
0.0
 10
9.3469668566
 20
7.3317696226
 30
0.0
 10
9.3630979914
 20
7.3006257859
 30
0.0
 10
9.3811539876
 20
7.2704657026
 30
0.0
 10
9.4010578447
 20
7.2414178129
 30
0.0
 10
9.4227247178
 20
7.2136058227
 30
0.0
 10
9.4460622759
 20
7.1871481811
 30
0.0
 10
9.4709710946
 20
7.1621575808
 30
0.0
 10
9.4973450696
 20
7.1387404836
 30
0.0
 10
9.5250718903
 20
7.1169966624
 30
0.0
 10
9.554033416
 20
7.0970188078
 30
0.0
 10
9.5841065307
 20
7.0788920107
 30
0.0
 10
9.6151623508
 20
7.0626938811
 30
0.0
 10
9.64177582
 20
7.050849384
 30
0.0
 10
9.6634245411
 20
7.0424056328
 30
0.0
 10
9.685250077
 20
7.0346711561
 30
0.0
 10
9.7128915912
 20
7.0263179062
 30
0.0
 10
9.7409508317
 20
7.019744634
 30
0.0
 10
9.7635428318
 20
7.0155831029
 30
0.0
 10
9.7861578616
 20
7.0121630088
 30
0.0
 10
9.8032177572
 20
7.0104199864
 30
0.0
 10
9.8145992438
 20
7.0096306776
 30
0.0
  0
SPLINE
  5
3E8
100
AcDbEntity
  8
0
100
AcDbSpline
 62
7
  6
CONTINUOUS
 70
0
 71
3
 72
42
 73
38
 74
0
 42
0.0000001
 43
0.0000001
 44
0.0000000001
 40
0.0
 40
0.0
 40
0.0
 40
0.0
 40
0.0299318279
 40
0.0599336148
 40
0.0749684732
 40
0.0900270166
 40
0.1051110802
 40
0.1202223807
 40
0.150528196
 40
0.180960108
 40
0.2115266215
 40
0.242233691
 40
0.2576432982
 40
0.2730890677
 40
0.3040845798
 40
0.3352226994
 40
0.3664989184
 40
0.397906286
 40
0.4294355605
 40
0.461075396
 40
0.4928125582
 40
0.5246321665
 40
0.5565179575
 40
0.5884525649
 40
0.6204178136
 40
0.6523950224
 40
0.6843653129
 40
0.7163099206
 40
0.7482105047
 40
0.7800494531
 40
0.8118101798
 40
0.843477407
 40
0.8750374419
 40
0.9064783856
 40
0.9377905098
 40
0.9689659496
 40
1.0
 40
1.0
 40
1.0
 40
1.0
 10
9.4051868036
 20
7.842717692
 30
0.0
 10
9.3989152595
 20
7.833817682
 30
0.0
 10
9.3869965542
 20
7.8155373174
 30
0.0
 10
9.3737692101
 20
7.7916626093
 30
0.0
 10
9.3642119748
 20
7.7719985215
 30
0.0
 10
9.3575577572
 20
7.7569687925
 30
0.0
 10
9.3514306636
 20
7.741686609
 30
0.0
 10
9.3439670381
 20
7.720979517
 30
0.0
 10
9.3359900888
 20
7.6945418737
 30
0.0
 10
9.3286355833
 20
7.6621274434
 30
0.0
 10
9.323521209
 20
7.629137521
 30
0.0
 10
9.321148204
 20
7.6013214609
 30
0.0
 10
9.3203840751
 20
7.5789374448
 30
0.0
 10
9.320378095
 20
7.5564354188
 30
0.0
 10
9.3217996912
 20
7.5282285994
 30
0.0
 10
9.3257740924
 20
7.4944593502
 30
0.0
 10
9.3320005631
 20
7.4608791601
 30
0.0
 10
9.3404504782
 20
7.4276421226
 30
0.0
 10
9.3510850872
 20
7.394899483
 30
0.0
 10
9.3638557172
 20
7.3628005414
 30
0.0
 10
9.378703992
 20
7.3314915537
 30
0.0
 10
9.3955620909
 20
7.3011151831
 30
0.0
 10
9.4143530663
 20
7.2718098283
 30
0.0
 10
9.4349911948
 20
7.243709009
 30
0.0
 10
9.4573823654
 20
7.2169407615
 30
0.0
 10
9.4814245052
 20
7.1916270616
 30
0.0
 10
9.5070080414
 20
7.1678832742
 30
0.0
 10
9.5340163952
 20
7.1458176318
 30
0.0
 10
9.56232651
 20
7.1255307466
 30
0.0
 10
9.5918094008
 20
7.1071151493
 30
0.0
 10
9.6223307421
 20
7.090654869
 30
0.0
 10
9.6537514605
 20
7.076225053
 30
0.0
 10
9.6859284206
 20
7.0638916434
 30
0.0
 10
9.7187148575
 20
7.0537110236
 30
0.0
 10
9.751961818
 20
7.0457298689
 30
0.0
 10
9.7855157826
 20
7.0399848229
 30
0.0
 10
9.8080446558
 20
7.0376575608
 30
0.0
 10
9.8193062611
 20
7.0368765658
 30
0.0
  0
SPLINE
  5
3E9
100
AcDbEntity
  8
0
100
AcDbSpline
 62
7
  6
CONTINUOUS
 70
0
 71
3
 72
44
 73
40
 74
0
 42
0.0000001
 43
0.0000001
 44
0.0000000001
 40
0.0
 40
0.0
 40
0.0
 40
0.0
 40
0.0149724263
 40
0.0299637806
 40
0.044976004
 40
0.0600109418
 40
0.0901513665
 40
0.1204020455
 40
0.1355742672
 40
0.1507778123
 40
0.181278328
 40
0.2119139443
 40
0.2426883047
 40
0.2736026434
 40
0.3046557967
 40
0.3358442542
 40
0.3671622488
 40
0.3986018792
 40
0.4301532637
 40
0.4618047206
 40
0.4935429726
 40
0.5253533695
 40
0.5572201289
 40
0.5891265884
 40
0.6210554689
 40
0.6529891436
 40
0.6849099115
 40
0.7168002718
 40
0.7327305786
 40
0.7486469527
 40
0.7804261481
 40
0.8121263224
 40
0.8437334247
 40
0.8752348901
 40
0.9066198122
 40
0.9378792844
 40
0.9534614928
 40
0.9690101517
 40
1.0
 40
1.0
 40
1.0
 40
1.0
 10
9.4231738007
 20
7.8500754275
 30
0.0
 10
9.4204450113
 20
7.8455495763
 30
0.0
 10
9.4151411454
 20
7.8363963123
 30
0.0
 10
9.4076620291
 20
7.8223898163
 30
0.0
 10
9.4006622347
 20
7.8081127513
 30
0.0
 10
9.3919724157
 20
7.7887228962
 30
0.0
 10
9.3823450398
 20
7.7638773192
 30
0.0
 10
9.3744232459
 20
7.7383863105
 30
0.0
 10
9.3691178251
 20
7.7176512855
 30
0.0
 10
9.3644964874
 20
7.6966628873
 30
0.0
 10
9.3600343867
 20
7.6700668792
 30
0.0
 10
9.3568083478
 20
7.6377624636
 30
0.0
 10
9.355717689
 20
7.6051691343
 30
0.0
 10
9.3567670582
 20
7.5724275093
 30
0.0
 10
9.359951653
 20
7.5396776384
 30
0.0
 10
9.3652576143
 20
7.5070598746
 30
0.0
 10
9.3726619956
 20
7.4747138823
 30
0.0
 10
9.3821328932
 20
7.4427781523
 30
0.0
 10
9.3936295794
 20
7.4113893865
 30
0.0
 10
9.407102682
 20
7.3806819267
 30
0.0
 10
9.4224943958
 20
7.3507871846
 30
0.0
 10
9.4397387322
 20
7.3218330843
 30
0.0
 10
9.4587617954
 20
7.2939435244
 30
0.0
 10
9.4794821178
 20
7.2672378391
 30
0.0
 10
9.5018109313
 20
7.2418303446
 30
0.0
 10
9.5256528265
 20
7.2178296574
 30
0.0
 10
9.5509051027
 20
7.1953389655
 30
0.0
 10
9.5730442153
 20
7.17792738
 30
0.0
 10
9.5913514495
 20
7.1648462641
 30
0.0
 10
9.6100191695
 20
7.1523554012
 30
0.0
 10
9.6340211416
 20
7.1378516385
 30
0.0
 10
9.6637831044
 20
7.1222919653
 30
0.0
 10
9.6943653537
 20
7.1086508496
 30
0.0
 10
9.7256365808
 20
7.0969872481
 30
0.0
 10
9.7574623164
 20
7.0873512492
 30
0.0
 10
9.7843636236
 20
7.0810383326
 30
0.0
 10
9.806023607
 20
7.0770424755
 30
0.0
 10
9.8277059618
 20
7.0737591462
 30
0.0
 10
9.8440626404
 20
7.0720866795
 30
0.0
 10
9.8549749815
 20
7.071329906
 30
0.0
  0
SPLINE
  5
3EA
100
AcDbEntity
  8
0
100
AcDbSpline
 62
7
  6
CONTINUOUS
 70
0
 71
3
 72
43
 73
39
 74
0
 42
0.0000001
 43
0.0000001
 44
0.0000000001
 40
0.0
 40
0.0
 40
0.0
 40
0.0
 40
0.0149579341
 40
0.0299291408
 40
0.0449160112
 40
0.0599208587
 40
0.0899883142
 40
0.1201529331
 40
0.1352787115
 40
0.150434025
 40
0.1656203315
 40
0.1808389298
 40
0.2113727036
 40
0.2420472704
 40
0.2728670561
 40
0.3038337161
 40
0.3349461427
 40
0.3662005248
 40
0.3975904539
 40
0.4291070737
 40
0.4607392681
 40
0.4924738817
 40
0.524295971
 40
0.5561890781
 40
0.5881355248
 40
0.6201167214
 40
0.6521134867
 40
0.684106375
 40
0.7160760062
 40
0.7480033952
 40
0.7798702772
 40
0.8116594239
 40
0.8433549453
 40
0.8749425853
 40
0.9064099452
 40
0.937746883
 40
0.968945206
 40
1.0
 40
1.0
 40
1.0
 40
1.0
 10
9.5001051861
 20
7.8720599019
 30
0.0
 10
9.4970824524
 20
7.8680697911
 30
0.0
 10
9.4911800284
 20
7.8599744098
 30
0.0
 10
9.4827728596
 20
7.8475100759
 30
0.0
 10
9.474817741
 20
7.8347335356
 30
0.0
 10
9.464820874
 20
7.8172924415
 30
0.0
 10
9.4534988542
 20
7.7947766493
 30
0.0
 10
9.4438170204
 20
7.7714649912
 30
0.0
 10
9.4370720605
 20
7.7523901863
 30
0.0
 10
9.4325140522
 20
7.7378694046
 30
0.0
 10
9.4284675765
 20
7.7231656467
 30
0.0
 10
9.4237556145
 20
7.7033202561
 30
0.0
 10
9.4191695782
 20
7.6781345026
 30
0.0
 10
9.4157813212
 20
7.6474991203
 30
0.0
 10
9.4145165318
 20
7.6165574641
 30
0.0
 10
9.4153811151
 20
7.5854560128
 30
0.0
 10
9.41837066
 20
7.5543406772
 30
0.0
 10
9.4234708734
 20
7.5233577209
 30
0.0
 10
9.4306575476
 20
7.4926526485
 30
0.0
 10
9.4398967095
 20
7.4623696466
 30
0.0
 10
9.4511447787
 20
7.4326508838
 30
0.0
 10
9.464348769
 20
7.4036358573
 30
0.0
 10
9.4794465426
 20
7.3754607427
 30
0.0
 10
9.4963671058
 20
7.3482577652
 30
0.0
 10
9.5150309408
 20
7.3221545851
 30
0.0
 10
9.5353503771
 20
7.2972737053
 30
0.0
 10
9.5572300002
 20
7.2737319025
 30
0.0
 10
9.5805670958
 20
7.2516396844
 30
0.0
 10
9.6052521273
 20
7.2311007753
 30
0.0
 10
9.6311692464
 20
7.2122116346
 30
0.0
 10
9.6581968248
 20
7.1950609987
 30
0.0
 10
9.6862080289
 20
7.1797294737
 30
0.0
 10
9.7150713935
 20
7.1662891544
 30
0.0
 10
9.7446514882
 20
7.1548033058
 30
0.0
 10
9.7748093437
 20
7.1453260144
 30
0.0
 10
9.8054038386
 20
7.1379020382
 30
0.0
 10
9.8362894568
 20
7.1325664894
 30
0.0
 10
9.857030463
 20
7.1304133502
 30
0.0
 10
9.8673982854
 20
7.1296943392
 30
0.0
  0
SPLINE
  5
3EB
100
AcDbEntity
  8
0
100
AcDbSpline
 62
7
  6
CONTINUOUS
 70
0
 71
3
 72
39
 73
35
 74
0
 42
0.0000001
 43
0.0000001
 44
0.0000000001
 40
0.0
 40
0.0
 40
0.0
 40
0.0
 40
0.0303997532
 40
0.0609107974
 40
0.0915342381
 40
0.1222699129
 40
0.1531164062
 40
0.1840710801
 40
0.215130116
 40
0.2462885677
 40
0.2775404248
 40
0.3088786862
 40
0.340295441
 40
0.3717819583
 40
0.4033287841
 40
0.4349258436
 40
0.4665625474
 40
0.4982279014
 40
0.5299106197
 40
0.5615992392
 40
0.5932822366
 40
0.6249481457
 40
0.6565856747
 40
0.6881838213
 40
0.7197319847
 40
0.751220077
 40
0.7826386278
 40
0.8139788865
 40
0.8452329285
 40
0.8763936954
 40
0.9074552751
 40
0.9384123281
 40
0.9692618694
 40
1.0
 40
1.0
 40
1.0
 40
1.0
 10
9.63661482
 20
7.8808353797
 30
0.0
 10
9.6356108222
 20
7.8729576751
 30
0.0
 10
9.6340253584
 20
7.8571158176
 30
0.0
 10
9.6329207046
 20
7.8332187704
 30
0.0
 10
9.6330878915
 20
7.8092084394
 30
0.0
 10
9.6345265
 20
7.7851531904
 30
0.0
 10
9.6372323773
 20
7.7611203504
 30
0.0
 10
9.6411978533
 20
7.7371774821
 30
0.0
 10
9.6464117181
 20
7.7133918017
 30
0.0
 10
9.6528592673
 20
7.689830098
 30
0.0
 10
9.6605223408
 20
7.6665585182
 30
0.0
 10
9.669379374
 20
7.6436423919
 30
0.0
 10
9.6794054613
 20
7.6211460487
 30
0.0
 10
9.6905724138
 20
7.599132634
 30
0.0
 10
9.7028488405
 20
7.5776639318
 30
0.0
 10
9.7162002473
 20
7.5568001967
 30
0.0
 10
9.730589131
 20
7.5365999859
 30
0.0
 10
9.7459750845
 20
7.5171199964
 30
0.0
 10
9.762314909
 20
7.4984149071
 30
0.0
 10
9.7795627356
 20
7.4805372283
 30
0.0
 10
9.797670147
 20
7.463537149
 30
0.0
 10
9.8165863095
 20
7.4474623909
 30
0.0
 10
9.8362581267
 20
7.4323580858
 30
0.0
 10
9.8566303848
 20
7.4182666482
 30
0.0
 10
9.8776459066
 20
7.4052276572
 30
0.0
 10
9.8992457108
 20
7.3932777466
 30
0.0
 10
9.9213691752
 20
7.3824505037
 30
0.0
 10
9.9439542065
 20
7.3727763667
 30
0.0
 10
9.9669373976
 20
7.3642825478
 30
0.0
 10
9.9902542631
 20
7.356992905
 30
0.0
 10
10.013839227
 20
7.3509280525
 30
0.0
 10
10.0376264379
 20
7.3461049031
 30
0.0
 10
10.0615480649
 20
7.34253736
 30
0.0
 10
10.0775719794
 20
7.3409997135
 30
0.0
 10
10.0855825603
 20
7.3404441778
 30
0.0
  0
SPLINE
  5
3EC
100
AcDbEntity
  8
0
100
AcDbSpline
 62
7
  6
CONTINUOUS
 70
0
 71
3
 72
37
 73
33
 74
0
 42
0.0000001
 43
0.0000001
 44
0.0000000001
 40
0.0
 40
0.0
 40
0.0
 40
0.0
 40
0.0304220462
 40
0.0609548562
 40
0.0915992071
 40
0.122354642
 40
0.153219489
 40
0.1841908921
 40
0.2152648531
 40
0.2464362846
 40
0.2776990731
 40
0.3090461533
 40
0.34046959
 40
0.3719606658
 40
0.4035099736
 40
0.435107516
 40
0.4983858614
 40
0.5617271226
 40
0.5934026513
 40
0.6250600461
 40
0.6566882215
 40
0.6882763854
 40
0.7198141487
 40
0.7512916321
 40
0.7826995652
 40
0.8140293892
 40
0.8452733481
 40
0.8764245422
 40
0.9074772076
 40
0.9384260436
 40
0.9692683633
 40
1.0
 40
1.0
 40
1.0
 40
1.0
 10
9.672439208
 20
7.8769814114
 30
0.0
 10
9.6716085393
 20
7.8696487277
 30
0.0
 10
9.6703369384
 20
7.8549091775
 30
0.0
 10
9.669602807
 20
7.8326919363
 30
0.0
 10
9.6700400608
 20
7.8103854426
 30
0.0
 10
9.671647522
 20
7.7880521808
 30
0.0
 10
9.674420647
 20
7.7657536472
 30
0.0
 10
9.6783517176
 20
7.7435515159
 30
0.0
 10
9.6834298145
 20
7.7215071103
 30
0.0
 10
9.6896408641
 20
7.6996813359
 30
0.0
 10
9.6969676573
 20
7.6781344779
 30
0.0
 10
9.7053898887
 20
7.6569260549
 30
0.0
 10
9.7148842784
 20
7.6361146015
 30
0.0
 10
9.7254244569
 20
7.6157577273
 30
0.0
 10
9.7369816943
 20
7.5959111379
 30
0.0
 10
9.7537092833
 20
7.5701950677
 30
0.0
 10
9.7769941875
 20
7.5396033854
 30
0.0
 10
9.8031782579
 20
7.5114278202
 30
0.0
 10
9.8257013396
 20
7.4905103192
 30
0.0
 10
9.8433363812
 20
7.4756757355
 30
0.0
 10
9.8616620912
 20
7.4617391267
 30
0.0
 10
9.8806282938
 20
7.4487384963
 30
0.0
 10
9.9001824943
 20
7.4367098989
 30
0.0
 10
9.9202707264
 20
7.4256865466
 30
0.0
 10
9.9408375096
 20
7.4156989291
 30
0.0
 10
9.9618260541
 20
7.4067746741
 30
0.0
 10
9.9831783882
 20
7.398938495
 30
0.0
 10
10.0048355662
 20
7.392212038
 30
0.0
 10
10.0267376466
 20
7.3866140268
 30
0.0
 10
10.0488244948
 20
7.3821597844
 30
0.0
 10
10.0710341044
 20
7.3788619964
 30
0.0
 10
10.0859103049
 20
7.3774376938
 30
0.0
 10
10.0933471253
 20
7.3769219486
 30
0.0
  0
SPLINE
  5
3ED
100
AcDbEntity
  8
0
100
AcDbSpline
 62
7
  6
CONTINUOUS
 70
0
 71
3
 72
24
 73
20
 74
0
 42
0.0000001
 43
0.0000001
 44
0.0000000001
 40
0.0
 40
0.0
 40
0.0
 40
0.0
 40
0.0615910481
 40
0.1235177572
 40
0.1857515996
 40
0.2482554355
 40
0.3109846417
 40
0.3738884245
 40
0.4369112586
 40
0.499994407
 40
0.5630775141
 40
0.6261002283
 40
0.6890038174
 40
0.7517327558
 40
0.8142362598
 40
0.8764697218
 40
0.938396066
 40
0.9692414621
 40
1.0
 40
1.0
 40
1.0
 40
1.0
 10
9.7528647679
 20
7.8594290985
 30
0.0
 10
9.7542433727
 20
7.8472113572
 30
0.0
 10
9.7580530285
 20
7.8228147829
 30
0.0
 10
9.7668345208
 20
7.7867463562
 30
0.0
 10
9.7786348301
 20
7.7513554281
 30
0.0
 10
9.7933656752
 20
7.7169076422
 30
0.0
 10
9.8109175233
 20
7.6836570852
 30
0.0
 10
9.8311599889
 20
7.6518501454
 30
0.0
 10
9.8539430037
 20
7.6217222661
 30
0.0
 10
9.8790976063
 20
7.5934964417
 30
0.0
 10
9.9064375145
 20
7.5673817102
 30
0.0
 10
9.9357602862
 20
7.5435715463
 30
0.0
 10
9.9668488215
 20
7.5222423334
 30
0.0
 10
9.9994729264
 20
7.5035523865
 30
0.0
 10
10.03339156
 20
7.4876403426
 30
0.0
 10
10.0683517839
 20
7.4746248041
 30
0.0
 10
10.0981842401
 20
7.4662606822
 30
0.0
 10
10.1223062801
 20
7.4611105164
 30
0.0
 10
10.1344351476
 20
7.4590514884
 30
0.0
 10
10.1405092564
 20
7.4581526486
 30
0.0
  0
SPLINE
  5
3EE
100
AcDbEntity
  8
0
100
AcDbSpline
 62
7
  6
CONTINUOUS
 70
0
 71
3
 72
23
 73
19
 74
0
 42
0.0000001
 43
0.0000001
 44
0.0000000001
 40
0.0
 40
0.0
 40
0.0
 40
0.0
 40
0.0616482071
 40
0.1233194423
 40
0.1850364754
 40
0.2468215648
 40
0.3086962113
 40
0.3706809251
 40
0.4327950039
 40
0.4950563299
 40
0.5574811805
 40
0.6200840695
 40
0.682877611
 40
0.7458723236
 40
0.8090769236
 40
0.8724969197
 40
0.9361382346
 40
1.0
 40
1.0
 40
1.0
 40
1.0
 10
11.4605838715
 20
6.8703525464
 30
0.0
 10
11.4545239567
 20
6.8644991225
 30
0.0
 10
11.4420843713
 20
6.8531137225
 30
0.0
 10
11.4225303257
 20
6.8370598757
 30
0.0
 10
11.402127161
 20
6.8220671674
 30
0.0
 10
11.3809269829
 20
6.8081740339
 30
0.0
 10
11.3589830447
 20
6.7954152649
 30
0.0
 10
11.3363507029
 20
6.7838230123
 30
0.0
 10
11.3130869791
 20
6.7734264207
 30
0.0
 10
11.2892504949
 20
6.7642516334
 30
0.0
 10
11.2649013026
 20
6.7563217058
 30
0.0
 10
11.2401007351
 20
6.749656556
 30
0.0
 10
11.2149112686
 20
6.744272913
 30
0.0
 10
11.1893963007
 20
6.7401842211
 30
0.0
 10
11.1636202062
 20
6.737400776
 30
0.0
 10
11.1376474748
 20
6.7359293736
 30
0.0
 10
11.1115445343
 20
6.7357738104
 30
0.0
 10
11.0941275884
 20
6.7365462042
 30
0.0
 10
11.085420713
 20
6.7371500281
 30
0.0
  0
SPLINE
  5
3EF
100
AcDbEntity
  8
0
100
AcDbSpline
 62
7
  6
CONTINUOUS
 70
0
 71
3
 72
15
 73
11
 74
0
 42
0.0000001
 43
0.0000001
 44
0.0000000001
 40
0.0
 40
0.0
 40
0.0
 40
0.0
 40
0.1233300035
 40
0.2470319918
 40
0.3711707243
 40
0.4958019575
 40
0.6209713123
 40
0.7467140007
 40
0.8730522424
 40
1.0
 40
1.0
 40
1.0
 40
1.0
 10
11.5381277642
 20
6.9682629531
 30
0.0
 10
11.5278709301
 20
6.9626218016
 30
0.0
 10
11.5069015328
 20
6.9520761429
 30
0.0
 10
11.4743265232
 20
6.9385825351
 30
0.0
 10
11.4407380136
 20
6.9274532794
 30
0.0
 10
11.406299804
 20
6.9187428016
 30
0.0
 10
11.3711770812
 20
6.9124922739
 30
0.0
 10
11.3355383537
 20
6.9087315912
 30
0.0
 10
11.299556956
 20
6.907478154
 30
0.0
 10
11.2755083526
 20
6.9083162868
 30
0.0
 10
11.263488069
 20
6.9091498963
 30
0.0
  0
SPLINE
  5
3F0
100
AcDbEntity
  8
0
100
AcDbSpline
 62
7
  6
CONTINUOUS
 70
0
 71
3
 72
19
 73
15
 74
0
 42
0.0000001
 43
0.0000001
 44
0.0000000001
 40
0.0
 40
0.0
 40
0.0
 40
0.0
 40
0.0616005123
 40
0.123275487
 40
0.1850372408
 40
0.2468975041
 40
0.3088673655
 40
0.3709571717
 40
0.4331764723
 40
0.4955339892
 40
0.620668356
 40
0.7464372759
 40
0.8728743725
 40
1.0
 40
1.0
 40
1.0
 40
1.0
 10
11.5606331788
 20
7.0108106147
 30
0.0
 10
11.5553565596
 20
7.0073589637
 30
0.0
 10
11.5446512508
 20
7.000671332
 30
0.0
 10
11.5281793859
 20
6.9913119829
 30
0.0
 10
11.5113088834
 20
6.9826329185
 30
0.0
 10
11.4940660394
 20
6.9746475671
 30
0.0
 10
11.4764771373
 20
6.9673681437
 30
0.0
 10
11.4585692677
 20
6.9608058593
 30
0.0
 10
11.4403695206
 20
6.9549705968
 30
0.0
 10
11.4157264241
 20
6.9481645542
 30
0.0
 10
11.3843187136
 20
6.9415206117
 30
0.0
 10
11.3459705599
 20
6.9365855581
 30
0.0
 10
11.3071495726
 20
6.9347057655
 30
0.0
 10
11.2811761887
 20
6.935495542
 30
0.0
 10
11.2681950864
 20
6.9363957845
 30
0.0
  0
SPLINE
  5
3F1
100
AcDbEntity
  8
0
100
AcDbSpline
 62
7
  6
CONTINUOUS
 70
0
 71
3
 72
15
 73
11
 74
0
 42
0.0000001
 43
0.0000001
 44
0.0000000001
 40
0.0
 40
0.0
 40
0.0
 40
0.0
 40
0.1233237137
 40
0.2470184172
 40
0.3711505349
 40
0.4957773122
 40
0.6209456154
 40
0.7466916675
 40
0.8730383423
 40
1.0
 40
1.0
 40
1.0
 40
1.0
 10
11.568652643
 20
7.0285524417
 30
0.0
 10
11.558785064
 20
7.0230574251
 30
0.0
 10
11.5386025998
 20
7.0127825861
 30
0.0
 10
11.5072274315
 20
6.9996296808
 30
0.0
 10
11.474857123
 20
6.9887758125
 30
0.0
 10
11.4416523788
 20
6.9802750106
 30
0.0
 10
11.4077753365
 20
6.9741681817
 30
0.0
 10
11.3733914529
 20
6.9704850599
 30
0.0
 10
11.3386709696
 20
6.9692429945
 30
0.0
 10
11.3154635599
 20
6.9700446791
 30
0.0
 10
11.3038638068
 20
6.9708491247
 30
0.0
  0
SPLINE
  5
3F2
100
AcDbEntity
  8
0
100
AcDbSpline
 62
7
  6
CONTINUOUS
 70
0
 71
3
 72
21
 73
17
 74
0
 42
0.0000001
 43
0.0000001
 44
0.0000000001
 40
0.0
 40
0.0
 40
0.0
 40
0.0
 40
0.0615939524
 40
0.1232558874
 40
0.1849998474
 40
0.2468392788
 40
0.3087869141
 40
0.3708546805
 40
0.4330536378
 40
0.4953938864
 40
0.5578845106
 40
0.6205334818
 40
0.6833476514
 40
0.7463329639
 40
0.8728046027
 40
1.0
 40
1.0
 40
1.0
 40
1.0
 10
11.5932131474
 20
7.1046328917
 30
0.0
 10
11.5883010005
 20
7.1011729045
 30
0.0
 10
11.5783175931
 20
7.0944644095
 30
0.0
 10
11.5629067837
 20
7.08506341
 30
0.0
 10
11.5470780025
 20
7.0763342193
 30
0.0
 10
11.5308584417
 20
7.0682919024
 30
0.0
 10
11.5142754669
 20
7.0609500711
 30
0.0
 10
11.4973572518
 20
7.0543210948
 30
0.0
 10
11.4801324569
 20
7.0484161895
 30
0.0
 10
11.4626302607
 20
7.0432454165
 30
0.0
 10
11.4448803267
 20
7.0388174402
 30
0.0
 10
11.4269128215
 20
7.0351397443
 30
0.0
 10
11.4087578235
 20
7.0322185997
 30
0.0
 10
11.3843124526
 20
7.0293352898
 30
0.0
 10
11.3534320715
 20
7.0276512413
 30
0.0
 10
11.3286650763
 20
7.0283551431
 30
0.0
 10
11.3162871107
 20
7.0292135579
 30
0.0
  0
SPLINE
  5
3F3
100
AcDbEntity
  8
0
100
AcDbSpline
 62
7
  6
CONTINUOUS
 70
0
 71
3
 72
39
 73
35
 74
0
 42
0.0000001
 43
0.0000001
 44
0.0000000001
 40
0.0
 40
0.0
 40
0.0
 40
0.0
 40
0.0299393047
 40
0.0599022801
 40
0.0899120371
 40
0.1199905837
 40
0.1501583157
 40
0.1804335568
 40
0.2108321569
 40
0.2413671588
 40
0.2720485416
 40
0.3028830442
 40
0.3338740651
 40
0.3650216374
 40
0.3963224781
 40
0.4277701073
 40
0.4593550264
 40
0.4910649494
 40
0.522885082
 40
0.5547984439
 40
0.586786223
 40
0.6188281554
 40
0.6509029262
 40
0.6829885862
 40
0.7150629769
 40
0.7471041563
 40
0.7790908245
 40
0.8110027389
 40
0.842821116
 40
0.8745290096
 40
0.9061116585
 40
0.9375568878
 40
0.9688549526
 40
1.0
 40
1.0
 40
1.0
 40
1.0
 10
10.7102575544
 20
7.647147464
 30
0.0
 10
10.7014299206
 20
7.6386206306
 30
0.0
 10
10.6844288381
 20
7.6208601107
 30
0.0
 10
10.6610799371
 20
7.5922941156
 30
0.0
 10
10.639997384
 20
7.5619447063
 30
0.0
 10
10.62129596
 20
7.5299765456
 30
0.0
 10
10.6050749148
 20
7.496560307
 30
0.0
 10
10.5914208729
 20
7.4618750624
 30
0.0
 10
10.5804064777
 20
7.4261064073
 30
0.0
 10
10.5720901917
 20
7.3894457146
 30
0.0
 10
10.5665159882
 20
7.3520890071
 30
0.0
 10
10.5637131853
 20
7.3142359167
 30
0.0
 10
10.5636963163
 20
7.2760886202
 30
0.0
 10
10.5664650239
 20
7.2378507701
 30
0.0
 10
10.5720040742
 20
7.1997264048
 30
0.0
 10
10.5802835179
 20
7.1619188749
 30
0.0
 10
10.5912588532
 20
7.1246297779
 30
0.0
 10
10.6048712579
 20
7.0880579002
 30
0.0
 10
10.6210478511
 20
7.0523981453
 30
0.0
 10
10.6397021657
 20
7.0178405333
 30
0.0
 10
10.6607345962
 20
6.9845692025
 30
0.0
 10
10.6840329333
 20
6.9527614514
 30
0.0
 10
10.7094728913
 20
6.9225867558
 30
0.0
 10
10.7369188245
 20
6.894205909
 30
0.0
 10
10.7662244479
 20
6.8677701831
 30
0.0
 10
10.7972336115
 20
6.8434205431
 30
0.0
 10
10.8297810792
 20
6.8212868529
 30
0.0
 10
10.8636934242
 20
6.801487195
 30
0.0
 10
10.898789943
 20
6.7841272848
 30
0.0
 10
10.9348836816
 20
6.7692999115
 30
0.0
 10
10.9717821104
 20
6.7570844033
 30
0.0
 10
11.0092891764
 20
6.7475462173
 30
0.0
 10
11.0472023302
 20
6.7407366026
 30
0.0
 10
11.072683719
 20
6.7380333416
 30
0.0
 10
11.085420713
 20
6.7371500281
 30
0.0
  0
SPLINE
  5
3F4
100
AcDbEntity
  8
0
100
AcDbSpline
 62
7
  6
CONTINUOUS
 70
0
 71
3
 72
45
 73
41
 74
0
 42
0.0000001
 43
0.0000001
 44
0.0000000001
 40
0.0
 40
0.0
 40
0.0
 40
0.0
 40
0.0149735785
 40
0.0299663366
 40
0.0449801909
 40
0.0600169617
 40
0.0901615913
 40
0.1204169945
 40
0.1355917011
 40
0.150797785
 40
0.1660361962
 40
0.1813077369
 40
0.2119484963
 40
0.2427277944
 40
0.273646719
 40
0.3047039792
 40
0.3358959587
 40
0.367216806
 40
0.398658558
 40
0.4302112931
 40
0.4618633118
 40
0.4936013392
 40
0.5254107476
 40
0.5572757945
 40
0.5891798734
 40
0.621105774
 40
0.6530359498
 40
0.6849527881
 40
0.7168388816
 40
0.7486772978
 40
0.780451843
 40
0.8121473185
 40
0.8437497632
 40
0.8595140617
 40
0.8752505569
 40
0.9066311404
 40
0.9378865327
 40
0.9534668161
 40
0.9690135885
 40
1.0
 40
1.0
 40
1.0
 40
1.0
 10
10.8107360878
 20
7.7211505865
 30
0.0
 10
10.8079146253
 20
7.7164141825
 30
0.0
 10
10.802432196
 20
7.7068364319
 30
0.0
 10
10.7947057405
 20
7.6921845839
 30
0.0
 10
10.787479337
 20
7.6772534919
 30
0.0
 10
10.7785147142
 20
7.6569802839
 30
0.0
 10
10.7685965801
 20
7.6310117818
 30
0.0
 10
10.7604556025
 20
7.6043798621
 30
0.0
 10
10.7550179089
 20
7.5827230477
 30
0.0
 10
10.751477554
 20
7.5663006218
 30
0.0
 10
10.7484834934
 20
7.5497336561
 30
0.0
 10
10.7452206268
 20
7.5274529028
 30
0.0
 10
10.742526178
 20
7.4993221822
 30
0.0
 10
10.7415195794
 20
7.4653152045
 30
0.0
 10
10.7427394614
 20
7.4311613108
 30
0.0
 10
10.7461805421
 20
7.3970071335
 30
0.0
 10
10.7518278679
 20
7.3629980069
 30
0.0
 10
10.7596571598
 20
7.3292789465
 30
0.0
 10
10.7696348488
 20
7.2959936086
 30
0.0
 10
10.7817182376
 20
7.2632837985
 30
0.0
 10
10.7958556819
 20
7.2312888413
 30
0.0
 10
10.8119868167
 20
7.2001450046
 30
0.0
 10
10.8300428128
 20
7.1699849212
 30
0.0
 10
10.84994667
 20
7.1409370316
 30
0.0
 10
10.8716135431
 20
7.1131250414
 30
0.0
 10
10.8949511012
 20
7.0866673998
 30
0.0
 10
10.9198599199
 20
7.0616767995
 30
0.0
 10
10.9462338948
 20
7.0382597023
 30
0.0
 10
10.9739607156
 20
7.0165158811
 30
0.0
 10
11.0029222413
 20
6.9965380265
 30
0.0
 10
11.032995356
 20
6.9784112294
 30
0.0
 10
11.0640511761
 20
6.9622130998
 30
0.0
 10
11.0906646453
 20
6.9503686027
 30
0.0
 10
11.1123133664
 20
6.9419248515
 30
0.0
 10
11.1341389023
 20
6.9341903748
 30
0.0
 10
11.1617804165
 20
6.9258371249
 30
0.0
 10
11.189839657
 20
6.9192638526
 30
0.0
 10
11.2124316571
 20
6.9151023216
 30
0.0
 10
11.2350466869
 20
6.9116822275
 30
0.0
 10
11.2521065825
 20
6.9099392051
 30
0.0
 10
11.263488069
 20
6.9091498963
 30
0.0
  0
SPLINE
  5
3F5
100
AcDbEntity
  8
0
100
AcDbSpline
 62
7
  6
CONTINUOUS
 70
0
 71
3
 72
42
 73
38
 74
0
 42
0.0000001
 43
0.0000001
 44
0.0000000001
 40
0.0
 40
0.0
 40
0.0
 40
0.0
 40
0.0299318279
 40
0.0599336148
 40
0.0749684732
 40
0.0900270166
 40
0.1051110802
 40
0.1202223807
 40
0.150528196
 40
0.180960108
 40
0.2115266215
 40
0.242233691
 40
0.2576432982
 40
0.2730890677
 40
0.3040845798
 40
0.3352226994
 40
0.3664989184
 40
0.397906286
 40
0.4294355605
 40
0.461075396
 40
0.4928125582
 40
0.5246321665
 40
0.5565179575
 40
0.5884525649
 40
0.6204178136
 40
0.6523950224
 40
0.6843653129
 40
0.7163099206
 40
0.7482105047
 40
0.7800494531
 40
0.8118101798
 40
0.843477407
 40
0.8750374419
 40
0.9064783856
 40
0.9377905098
 40
0.9689659496
 40
1.0
 40
1.0
 40
1.0
 40
1.0
 10
10.8540756289
 20
7.7422369107
 30
0.0
 10
10.8478040848
 20
7.7333369007
 30
0.0
 10
10.8358853794
 20
7.7150565361
 30
0.0
 10
10.8226580353
 20
7.691181828
 30
0.0
 10
10.8131008001
 20
7.6715177402
 30
0.0
 10
10.8064465824
 20
7.6564880111
 30
0.0
 10
10.8003194889
 20
7.6412058277
 30
0.0
 10
10.7928558634
 20
7.6204987357
 30
0.0
 10
10.7848789141
 20
7.5940610924
 30
0.0
 10
10.7775244086
 20
7.5616466621
 30
0.0
 10
10.7724100343
 20
7.5286567397
 30
0.0
 10
10.7700370293
 20
7.5008406796
 30
0.0
 10
10.7692729004
 20
7.4784566635
 30
0.0
 10
10.7692669202
 20
7.4559546375
 30
0.0
 10
10.7706885165
 20
7.4277478181
 30
0.0
 10
10.7746629177
 20
7.3939785689
 30
0.0
 10
10.7808893884
 20
7.3603983788
 30
0.0
 10
10.7893393035
 20
7.3271613413
 30
0.0
 10
10.7999739125
 20
7.2944187017
 30
0.0
 10
10.8127445425
 20
7.2623197601
 30
0.0
 10
10.8275928173
 20
7.2310107724
 30
0.0
 10
10.8444509162
 20
7.2006344018
 30
0.0
 10
10.8632418916
 20
7.171329047
 30
0.0
 10
10.8838800201
 20
7.1432282277
 30
0.0
 10
10.9062711906
 20
7.1164599802
 30
0.0
 10
10.9303133305
 20
7.0911462803
 30
0.0
 10
10.9558968667
 20
7.0674024929
 30
0.0
 10
10.9829052205
 20
7.0453368505
 30
0.0
 10
11.0112153352
 20
7.0250499653
 30
0.0
 10
11.0406982261
 20
7.006634368
 30
0.0
 10
11.0712195674
 20
6.9901740876
 30
0.0
 10
11.1026402858
 20
6.9757442717
 30
0.0
 10
11.1348172459
 20
6.9634108621
 30
0.0
 10
11.1676036828
 20
6.9532302423
 30
0.0
 10
11.2008506433
 20
6.9452490876
 30
0.0
 10
11.2344046079
 20
6.9395040416
 30
0.0
 10
11.2569334811
 20
6.9371767795
 30
0.0
 10
11.2681950864
 20
6.9363957845
 30
0.0
  0
SPLINE
  5
3F6
100
AcDbEntity
  8
0
100
AcDbSpline
 62
7
  6
CONTINUOUS
 70
0
 71
3
 72
44
 73
40
 74
0
 42
0.0000001
 43
0.0000001
 44
0.0000000001
 40
0.0
 40
0.0
 40
0.0
 40
0.0
 40
0.0149724263
 40
0.0299637806
 40
0.044976004
 40
0.0600109418
 40
0.0901513665
 40
0.1204020455
 40
0.1355742672
 40
0.1507778123
 40
0.181278328
 40
0.2119139443
 40
0.2426883047
 40
0.2736026434
 40
0.3046557967
 40
0.3358442542
 40
0.3671622488
 40
0.3986018792
 40
0.4301532637
 40
0.4618047206
 40
0.4935429726
 40
0.5253533695
 40
0.5572201289
 40
0.5891265884
 40
0.6210554689
 40
0.6529891436
 40
0.6849099115
 40
0.7168002718
 40
0.7327305786
 40
0.7486469527
 40
0.7804261481
 40
0.8121263224
 40
0.8437334247
 40
0.8752348901
 40
0.9066198122
 40
0.9378792844
 40
0.9534614928
 40
0.9690101517
 40
1.0
 40
1.0
 40
1.0
 40
1.0
 10
10.872062626
 20
7.7495946462
 30
0.0
 10
10.8693338366
 20
7.745068795
 30
0.0
 10
10.8640299707
 20
7.735915531
 30
0.0
 10
10.8565508544
 20
7.721909035
 30
0.0
 10
10.84955106
 20
7.70763197
 30
0.0
 10
10.840861241
 20
7.6882421149
 30
0.0
 10
10.8312338651
 20
7.6633965379
 30
0.0
 10
10.8233120712
 20
7.6379055291
 30
0.0
 10
10.8180066503
 20
7.6171705042
 30
0.0
 10
10.8133853127
 20
7.5961821059
 30
0.0
 10
10.808923212
 20
7.5695860979
 30
0.0
 10
10.8056971731
 20
7.5372816823
 30
0.0
 10
10.8046065143
 20
7.504688353
 30
0.0
 10
10.8056558834
 20
7.471946728
 30
0.0
 10
10.8088404783
 20
7.4391968571
 30
0.0
 10
10.8141464396
 20
7.4065790933
 30
0.0
 10
10.8215508209
 20
7.374233101
 30
0.0
 10
10.8310217184
 20
7.342297371
 30
0.0
 10
10.8425184047
 20
7.3109086051
 30
0.0
 10
10.8559915073
 20
7.2802011454
 30
0.0
 10
10.8713832211
 20
7.2503064033
 30
0.0
 10
10.8886275575
 20
7.221352303
 30
0.0
 10
10.9076506206
 20
7.1934627431
 30
0.0
 10
10.9283709431
 20
7.1667570578
 30
0.0
 10
10.9506997566
 20
7.1413495633
 30
0.0
 10
10.9745416518
 20
7.1173488761
 30
0.0
 10
10.999793928
 20
7.0948581842
 30
0.0
 10
11.0219330406
 20
7.0774465987
 30
0.0
 10
11.0402402748
 20
7.0643654827
 30
0.0
 10
11.0589079948
 20
7.0518746198
 30
0.0
 10
11.0829099669
 20
7.0373708572
 30
0.0
 10
11.1126719297
 20
7.021811184
 30
0.0
 10
11.143254179
 20
7.0081700683
 30
0.0
 10
11.1745254061
 20
6.9965064668
 30
0.0
 10
11.2063511417
 20
6.9868704679
 30
0.0
 10
11.2332524488
 20
6.9805575513
 30
0.0
 10
11.2549124323
 20
6.9765616942
 30
0.0
 10
11.276594787
 20
6.9732783649
 30
0.0
 10
11.2929514657
 20
6.9716058981
 30
0.0
 10
11.3038638068
 20
6.9708491247
 30
0.0
  0
SPLINE
  5
3F7
100
AcDbEntity
  8
0
100
AcDbSpline
 62
7
  6
CONTINUOUS
 70
0
 71
3
 72
11
 73
7
 74
0
 42
0.0000001
 43
0.0000001
 44
0.0000000001
 40
0.0
 40
0.0
 40
0.0
 40
0.0
 40
0.2553471795
 40
0.5061420951
 40
0.7538506305
 40
1.0
 40
1.0
 40
1.0
 40
1.0
 10
12.240733669
 20
10.0018119011
 30
0.0
 10
12.2410588065
 20
10.000830292
 30
0.0
 10
12.2416312871
 20
9.9988597356
 30
0.0
 10
12.242251722
 20
9.9958674519
 30
0.0
 10
12.2426242541
 20
9.9928717538
 30
0.0
 10
12.2427071253
 20
9.9908708568
 30
0.0
 10
12.2427071252
 20
9.9898740488
 30
0.0
  0
SPLINE
  5
3F8
100
AcDbEntity
  8
0
100
AcDbSpline
 62
7
  6
CONTINUOUS
 70
0
 71
3
 72
43
 73
39
 74
0
 42
0.0000001
 43
0.0000001
 44
0.0000000001
 40
0.0
 40
0.0
 40
0.0
 40
0.0
 40
0.0149579341
 40
0.0299291408
 40
0.0449160112
 40
0.0599208587
 40
0.0899883142
 40
0.1201529331
 40
0.1352787115
 40
0.150434025
 40
0.1656203315
 40
0.1808389298
 40
0.2113727036
 40
0.2420472704
 40
0.2728670561
 40
0.3038337161
 40
0.3349461427
 40
0.3662005248
 40
0.3975904539
 40
0.4291070737
 40
0.4607392681
 40
0.4924738817
 40
0.524295971
 40
0.5561890781
 40
0.5881355248
 40
0.6201167214
 40
0.6521134867
 40
0.684106375
 40
0.7160760062
 40
0.7480033952
 40
0.7798702772
 40
0.8116594239
 40
0.8433549453
 40
0.8749425853
 40
0.9064099452
 40
0.937746883
 40
0.968945206
 40
1.0
 40
1.0
 40
1.0
 40
1.0
 10
10.9489940114
 20
7.7715791206
 30
0.0
 10
10.9459712776
 20
7.7675890097
 30
0.0
 10
10.9400688537
 20
7.7594936285
 30
0.0
 10
10.9316616849
 20
7.7470292946
 30
0.0
 10
10.9237065663
 20
7.7342527542
 30
0.0
 10
10.9137096992
 20
7.7168116602
 30
0.0
 10
10.9023876795
 20
7.694295868
 30
0.0
 10
10.8927058457
 20
7.6709842098
 30
0.0
 10
10.8859608857
 20
7.651909405
 30
0.0
 10
10.8814028774
 20
7.6373886232
 30
0.0
 10
10.8773564018
 20
7.6226848653
 30
0.0
 10
10.8726444398
 20
7.6028394748
 30
0.0
 10
10.8680584035
 20
7.5776537213
 30
0.0
 10
10.8646701465
 20
7.547018339
 30
0.0
 10
10.8634053571
 20
7.5160766828
 30
0.0
 10
10.8642699404
 20
7.4849752315
 30
0.0
 10
10.8672594853
 20
7.4538598959
 30
0.0
 10
10.8723596987
 20
7.4228769395
 30
0.0
 10
10.8795463729
 20
7.3921718672
 30
0.0
 10
10.8887855348
 20
7.3618888652
 30
0.0
 10
10.900033604
 20
7.3321701025
 30
0.0
 10
10.9132375943
 20
7.3031550759
 30
0.0
 10
10.9283353679
 20
7.2749799614
 30
0.0
 10
10.9452559311
 20
7.2477769839
 30
0.0
 10
10.9639197661
 20
7.2216738038
 30
0.0
 10
10.9842392024
 20
7.196792924
 30
0.0
 10
11.0061188255
 20
7.1732511212
 30
0.0
 10
11.029455921
 20
7.1511589031
 30
0.0
 10
11.0541409525
 20
7.130619994
 30
0.0
 10
11.0800580717
 20
7.1117308533
 30
0.0
 10
11.1070856501
 20
7.0945802173
 30
0.0
 10
11.1350968542
 20
7.0792486924
 30
0.0
 10
11.1639602188
 20
7.0658083731
 30
0.0
 10
11.1935403135
 20
7.0543225245
 30
0.0
 10
11.223698169
 20
7.0448452331
 30
0.0
 10
11.2542926638
 20
7.0374212569
 30
0.0
 10
11.2851782821
 20
7.0320857081
 30
0.0
 10
11.3059192882
 20
7.0299325689
 30
0.0
 10
11.3162871107
 20
7.0292135579
 30
0.0
  0
SPLINE
  5
3F9
100
AcDbEntity
  8
0
100
AcDbSpline
 62
7
  6
CONTINUOUS
 70
0
 71
3
 72
37
 73
33
 74
0
 42
0.0000001
 43
0.0000001
 44
0.0000000001
 40
0.0
 40
0.0
 40
0.0
 40
0.0
 40
0.0304220462
 40
0.0609548562
 40
0.0915992071
 40
0.122354642
 40
0.153219489
 40
0.1841908921
 40
0.2152648531
 40
0.2464362846
 40
0.2776990731
 40
0.3090461533
 40
0.34046959
 40
0.3719606658
 40
0.4035099736
 40
0.435107516
 40
0.4983858614
 40
0.5617271226
 40
0.5934026513
 40
0.6250600461
 40
0.6566882215
 40
0.6882763854
 40
0.7198141487
 40
0.7512916321
 40
0.7826995652
 40
0.8140293892
 40
0.8452733481
 40
0.8764245422
 40
0.9074772076
 40
0.9384260436
 40
0.9692683633
 40
1.0
 40
1.0
 40
1.0
 40
1.0
 10
11.1213280333
 20
7.7765006301
 30
0.0
 10
11.1204973646
 20
7.7691679464
 30
0.0
 10
11.1192257637
 20
7.7544283962
 30
0.0
 10
11.1184916323
 20
7.732211155
 30
0.0
 10
11.1189288861
 20
7.7099046612
 30
0.0
 10
11.1205363472
 20
7.6875713994
 30
0.0
 10
11.1233094723
 20
7.6652728659
 30
0.0
 10
11.1272405429
 20
7.6430707346
 30
0.0
 10
11.1323186398
 20
7.621026329
 30
0.0
 10
11.1385296894
 20
7.5992005546
 30
0.0
 10
11.1458564826
 20
7.5776536966
 30
0.0
 10
11.154278714
 20
7.5564452736
 30
0.0
 10
11.1637731037
 20
7.5356338202
 30
0.0
 10
11.1743132821
 20
7.515276946
 30
0.0
 10
11.1858705195
 20
7.4954303566
 30
0.0
 10
11.2025981086
 20
7.4697142864
 30
0.0
 10
11.2258830128
 20
7.4391226041
 30
0.0
 10
11.2520670832
 20
7.4109470389
 30
0.0
 10
11.2745901649
 20
7.3900295379
 30
0.0
 10
11.2922252065
 20
7.3751949542
 30
0.0
 10
11.3105509165
 20
7.3612583454
 30
0.0
 10
11.3295171191
 20
7.348257715
 30
0.0
 10
11.3490713196
 20
7.3362291176
 30
0.0
 10
11.3691595517
 20
7.3252057653
 30
0.0
 10
11.3897263349
 20
7.3152181478
 30
0.0
 10
11.4107148794
 20
7.3062938928
 30
0.0
 10
11.4320672135
 20
7.2984577137
 30
0.0
 10
11.4537243915
 20
7.2917312567
 30
0.0
 10
11.4756264719
 20
7.2861332455
 30
0.0
 10
11.49771332
 20
7.2816790031
 30
0.0
 10
11.5199229296
 20
7.2783812151
 30
0.0
 10
11.5347991301
 20
7.2769569125
 30
0.0
 10
11.5422359506
 20
7.2764411673
 30
0.0
  0
SPLINE
  5
3FA
100
AcDbEntity
  8
0
100
AcDbSpline
 62
7
  6
CONTINUOUS
 70
0
 71
3
 72
24
 73
20
 74
0
 42
0.0000001
 43
0.0000001
 44
0.0000000001
 40
0.0
 40
0.0
 40
0.0
 40
0.0
 40
0.0615910481
 40
0.1235177572
 40
0.1857515996
 40
0.2482554355
 40
0.3109846417
 40
0.3738884245
 40
0.4369112586
 40
0.499994407
 40
0.5630775141
 40
0.6261002283
 40
0.6890038174
 40
0.7517327558
 40
0.8142362598
 40
0.8764697218
 40
0.938396066
 40
0.9692414621
 40
1.0
 40
1.0
 40
1.0
 40
1.0
 10
11.2017535932
 20
7.7589483171
 30
0.0
 10
11.203132198
 20
7.7467305759
 30
0.0
 10
11.2069418537
 20
7.7223340016
 30
0.0
 10
11.2157233461
 20
7.6862655749
 30
0.0
 10
11.2275236553
 20
7.6508746468
 30
0.0
 10
11.2422545005
 20
7.6164268609
 30
0.0
 10
11.2598063486
 20
7.5831763039
 30
0.0
 10
11.2800488142
 20
7.5513693641
 30
0.0
 10
11.302831829
 20
7.5212414848
 30
0.0
 10
11.3279864316
 20
7.4930156604
 30
0.0
 10
11.3553263398
 20
7.4669009289
 30
0.0
 10
11.3846491115
 20
7.4430907649
 30
0.0
 10
11.4157376468
 20
7.421761552
 30
0.0
 10
11.4483617516
 20
7.4030716052
 30
0.0
 10
11.4822803853
 20
7.3871595613
 30
0.0
 10
11.5172406092
 20
7.3741440228
 30
0.0
 10
11.5470730654
 20
7.3657799009
 30
0.0
 10
11.5711951054
 20
7.3606297351
 30
0.0
 10
11.5833239729
 20
7.3585707071
 30
0.0
 10
11.5893980817
 20
7.3576718673
 30
0.0
  0
SPLINE
  5
3FB
100
AcDbEntity
  8
0
100
AcDbSpline
 62
7
  6
CONTINUOUS
 70
0
 71
3
 72
15
 73
11
 74
0
 42
0.0000001
 43
0.0000001
 44
0.0000000001
 40
0.0
 40
0.0
 40
0.0
 40
0.0
 40
0.1232822653
 40
0.2469238437
 40
0.3710051123
 40
0.4955958288
 40
0.6207535625
 40
0.7465228097
 40
0.8729323529
 40
1.0
 40
1.0
 40
1.0
 40
1.0
 10
11.5502992147
 20
6.9903073396
 30
0.0
 10
11.5398010416
 20
6.9838757904
 30
0.0
 10
11.5182501613
 20
6.971827871
 30
0.0
 10
11.4845457267
 20
6.9563527329
 30
0.0
 10
11.4496032816
 20
6.9435327509
 30
0.0
 10
11.4136213804
 20
6.933441027
 30
0.0
 10
11.3768011938
 20
6.9261331913
 30
0.0
 10
11.3393485809
 20
6.9216498817
 30
0.0
 10
11.3014758036
 20
6.9200153088
 30
0.0
 10
11.2761473317
 20
6.92082901
 30
0.0
 10
11.263488069
 20
6.9217069328
 30
0.0
  0
SPLINE
  5
3FC
100
AcDbEntity
  8
0
100
AcDbSpline
 62
7
  6
CONTINUOUS
 70
0
 71
3
 72
71
 73
67
 74
0
 42
0.0000001
 43
0.0000001
 44
0.0000000001
 40
0.0
 40
0.0
 40
0.0
 40
0.0
 40
0.0156747439
 40
0.0314022082
 40
0.0471806388
 40
0.0630088954
 40
0.0788847426
 40
0.0948057519
 40
0.1107690087
 40
0.1267712324
 40
0.1428087906
 40
0.1588777352
 40
0.1749738406
 40
0.1910926413
 40
0.2072294725
 40
0.2233795109
 40
0.239537818
 40
0.255699384
 40
0.2718591706
 40
0.2880121553
 40
0.3041533743
 40
0.3202779661
 40
0.3363812146
 40
0.3524585914
 40
0.3685057961
 40
0.3845187957
 40
0.4004938614
 40
0.4164276041
 40
0.4323170079
 40
0.4481594607
 40
0.4639527819
 40
0.4796952457
 40
0.4953856017
 40
0.5110230908
 40
0.5266074579
 40
0.5421389597
 40
0.5576183678
 40
0.5730469656
 40
0.5884265412
 40
0.6037593735
 40
0.6190482143
 40
0.6342962647
 40
0.6495071464
 40
0.6646848669
 40
0.6798337803
 40
0.6949585438
 40
0.7100640694
 40
0.7251554736
 40
0.7402380233
 40
0.7553170806
 40
0.7703980447
 40
0.7854862946
 40
0.8005871313
 40
0.8157057213
 40
0.830847042
 40
0.8460158305
 40
0.8612165344
 40
0.8764532676
 40
0.8917297685
 40
0.907049366
 40
0.9224149485
 40
0.9378289216
 40
0.953293278
 40
0.9688092644
 40
0.9843782511
 40
1.0
 40
1.0
 40
1.0
 40
1.0
 10
11.0773973339
 20
6.6994563537
 30
0.0
 10
11.0683584499
 20
6.7000832024
 30
0.0
 10
11.0502779683
 20
6.7017824306
 30
0.0
 10
11.0232711568
 20
6.7056496896
 30
0.0
 10
10.9963943766
 20
6.7108307254
 30
0.0
 10
10.9697133766
 20
6.7173127018
 30
0.0
 10
10.9432920084
 20
6.7250801476
 30
0.0
 10
10.9171940019
 20
6.7341142249
 30
0.0
 10
10.8914821476
 20
6.7443931849
 30
0.0
 10
10.8662183433
 20
6.7558922276
 30
0.0
 10
10.8414633904
 20
6.7685836282
 30
0.0
 10
10.8172768677
 20
6.7824368011
 30
0.0
 10
10.7937169847
 20
6.7974183723
 30
0.0
 10
10.7708404446
 20
6.8134922603
 30
0.0
 10
10.7487023097
 20
6.8306197625
 30
0.0
 10
10.7273558665
 20
6.8487596427
 30
0.0
 10
10.7068524864
 20
6.8678682189
 30
0.0
 10
10.6872415164
 20
6.8878994867
 30
0.0
 10
10.66857016
 20
6.9088052271
 30
0.0
 10
10.6508833655
 20
6.930535122
 30
0.0
 10
10.6342237178
 20
6.9530368733
 30
0.0
 10
10.61863134
 20
6.976256329
 30
0.0
 10
10.6041437759
 20
7.0001376003
 30
0.0
 10
10.5907959134
 20
7.0246232065
 30
0.0
 10
10.5786199054
 20
7.0496542155
 30
0.0
 10
10.5676450927
 20
7.075170383
 30
0.0
 10
10.5578979329
 20
7.1011102955
 30
0.0
 10
10.5494019401
 20
7.1274115182
 30
0.0
 10
10.5421776154
 20
7.1540107389
 30
0.0
 10
10.5362423897
 20
7.1808439211
 30
0.0
 10
10.5316106019
 20
7.2078464626
 30
0.0
 10
10.5282934594
 20
7.2349533482
 30
0.0
 10
10.5262990121
 20
7.2620993045
 30
0.0
 10
10.5256321319
 20
7.2892189549
 30
0.0
 10
10.5262944994
 20
7.3162469762
 30
0.0
 10
10.528284575
 20
7.3431182566
 30
0.0
 10
10.5315976245
 20
7.3697680537
 30
0.0
 10
10.5362257298
 20
7.3961321491
 30
0.0
 10
10.5421578062
 20
7.4221470015
 30
0.0
 10
10.5493796262
 20
7.4477498998
 30
0.0
 10
10.5578738558
 20
7.4728791124
 30
0.0
 10
10.5676200748
 20
7.4974740437
 30
0.0
 10
10.5785948308
 20
7.5214753822
 30
0.0
 10
10.590771708
 20
7.5448252393
 30
0.0
 10
10.6041213864
 20
7.5674672906
 30
0.0
 10
10.6186117119
 20
7.5893469124
 30
0.0
 10
10.6342077735
 20
7.610411314
 30
0.0
 10
10.6508719822
 20
7.6306096699
 30
0.0
 10
10.668564149
 20
7.6498932575
 30
0.0
 10
10.6872416035
 20
7.6682155615
 30
0.0
 10
10.7068592947
 20
7.6855323887
 30
0.0
 10
10.7273699013
 20
7.7018019749
 30
0.0
 10
10.7487239456
 20
7.7169850867
 30
0.0
 10
10.7708699164
 20
7.7310451136
 30
0.0
 10
10.7937543808
 20
7.7439481787
 30
0.0
 10
10.8173221276
 20
7.7556632066
 30
0.0
 10
10.8415163051
 20
7.7661619926
 30
0.0
 10
10.8662785584
 20
7.7754192695
 30
0.0
 10
10.8915491704
 20
7.7834127686
 30
0.0
 10
10.9172672099
 20
7.7901232705
 30
0.0
 10
10.9433706604
 20
7.7955346491
 30
0.0
 10
10.9697966329
 20
7.7996339695
 30
0.0
 10
10.9964813016
 20
7.8024113481
 30
0.0
 10
11.0233607615
 20
7.8038602983
 30
0.0
 10
11.0503691961
 20
7.8039772331
 30
0.0
 10
11.0683890096
 20
7.8031684071
 30
0.0
 10
11.0773973339
 20
7.8025436776
 30
0.0
  0
SPLINE
  5
3FD
100
AcDbEntity
  8
0
100
AcDbSpline
 62
7
  6
CONTINUOUS
 70
0
 71
3
 72
69
 73
65
 74
0
 42
0.0000001
 43
0.0000001
 44
0.0000000001
 40
0.0
 40
0.0
 40
0.0
 40
0.0
 40
0.0156749348
 40
0.0314027839
 40
0.0471814364
 40
0.0630099721
 40
0.0788860943
 40
0.0948073732
 40
0.1107709045
 40
0.1267734005
 40
0.1428112328
 40
0.1588804529
 40
0.1749768346
 40
0.1910959109
 40
0.2072330173
 40
0.2233833314
 40
0.2395419155
 40
0.2557037586
 40
0.2718638216
 40
0.2880170822
 40
0.3202749255
 40
0.3524475142
 40
0.3684949934
 40
0.3845082673
 40
0.4004836065
 40
0.4164176212
 40
0.4323072962
 40
0.4481500201
 40
0.4639436125
 40
0.4796863462
 40
0.49537697
 40
0.5110147255
 40
0.5265993589
 40
0.5421311273
 40
0.5576108011
 40
0.5730396628
 40
0.5884195007
 40
0.6037525947
 40
0.6190416973
 40
0.634290009
 40
0.649501151
 40
0.6646791309
 40
0.6798283035
 40
0.6949533259
 40
0.71005911
 40
0.725150772
 40
0.7402335794
 40
0.7553128946
 40
0.7703941172
 40
0.7854826259
 40
0.8005837208
 40
0.8157025686
 40
0.8308441477
 40
0.8460131958
 40
0.8612141607
 40
0.8764511552
 40
0.8917279166
 40
0.907047777
 40
0.9224136185
 40
0.9378278587
 40
0.9532924887
 40
0.9688086929
 40
0.9843780614
 40
1.0
 40
1.0
 40
1.0
 40
1.0
 10
9.3870270377
 20
9.3532053996
 30
0.0
 10
9.3938338697
 20
9.3527333442
 30
0.0
 10
9.4074496595
 20
9.3514537002
 30
0.0
 10
9.4277875381
 20
9.3485414255
 30
0.0
 10
9.4480275256
 20
9.3446397491
 30
0.0
 10
9.4681200361
 20
9.3397584198
 30
0.0
 10
9.4880170441
 20
9.3339090313
 30
0.0
 10
9.5076705292
 20
9.327105767
 30
0.0
 10
9.5270332186
 20
9.319365039
 30
0.0
 10
9.5460585034
 20
9.3107055209
 30
0.0
 10
9.5647005943
 20
9.3011480879
 30
0.0
 10
9.5829146182
 20
9.2907157569
 30
0.0
 10
9.6006567297
 20
9.2794336491
 30
0.0
 10
9.6178842385
 20
9.2673289582
 30
0.0
 10
9.6345556888
 20
9.2544308372
 30
0.0
 10
9.6506309509
 20
9.2407703499
 30
0.0
 10
9.666071347
 20
9.2263803418
 30
0.0
 10
9.6808396225
 20
9.211295566
 30
0.0
 10
9.6949005435
 20
9.1955519053
 30
0.0
 10
9.7126489904
 20
9.1737464921
 30
0.0
 10
9.7329013494
 20
9.1450417802
 30
0.0
 10
9.7504044229
 20
9.1146349405
 30
0.0
 10
9.7626386382
 20
9.0894839285
 30
0.0
 10
9.7709035599
 20
9.0702683242
 30
0.0
 10
9.778243754
 20
9.0507339614
 30
0.0
 10
9.7846417865
 20
9.0309274124
 30
0.0
 10
9.7900821683
 20
9.0108964811
 30
0.0
 10
9.7945517886
 20
8.9906893563
 30
0.0
 10
9.7980398386
 20
8.9703546941
 30
0.0
 10
9.8005378596
 20
8.949941451
 30
0.0
 10
9.8020397887
 20
8.9294987854
 30
0.0
 10
9.8025419827
 20
8.9090759317
 30
0.0
 10
9.802043187
 20
8.88872208
 30
0.0
 10
9.8005445501
 20
8.868486262
 30
0.0
 10
9.7980496116
 20
8.8484172359
 30
0.0
 10
9.7945643344
 20
8.8285633654
 30
0.0
 10
9.7900970865
 20
8.8089724983
 30
0.0
 10
9.7846585876
 20
8.7896918571
 30
0.0
 10
9.7782618952
 20
8.7707679268
 30
0.0
 10
9.7709223643
 20
8.7522463471
 30
0.0
 10
9.762657655
 20
8.7341717863
 30
0.0
 10
9.7534876744
 20
8.7165878321
 30
0.0
 10
9.7434345035
 20
8.6995368986
 30
0.0
 10
9.7325223538
 20
8.6830601218
 30
0.0
 10
9.7207775023
 20
8.6671972664
 30
0.0
 10
9.7082282685
 20
8.6519865994
 30
0.0
 10
9.6949049229
 20
8.6374648061
 30
0.0
 10
9.6808395963
 20
8.6236669161
 30
0.0
 10
9.6660662091
 20
8.6106262148
 30
0.0
 10
9.6506203845
 20
8.5983741711
 30
0.0
 10
9.6345393949
 20
8.5869403185
 30
0.0
 10
9.6178620449
 20
8.5763522065
 30
0.0
 10
9.6006285681
 20
8.566635349
 30
0.0
 10
9.5828805339
 20
8.5578131588
 30
0.0
 10
9.5646607457
 20
8.5499068994
 30
0.0
 10
9.5460131578
 20
8.5429355854
 30
0.0
 10
9.5269827467
 20
8.5369159692
 30
0.0
 10
9.5076153995
 20
8.531862521
 30
0.0
 10
9.487957813
 20
8.5277873824
 30
0.0
 10
9.4680573381
 20
8.5247003312
 30
0.0
 10
9.4479620668
 20
8.5226088024
 30
0.0
 10
9.4277200585
 20
8.5215176324
 30
0.0
 10
9.4073809605
 20
8.5214295949
 30
0.0
 10
9.3938108562
 20
8.5220386804
 30
0.0
 10
9.3870270377
 20
8.5225091398
 30
0.0
  0
SPLINE
  5
3FE
100
AcDbEntity
  8
0
100
AcDbSpline
 62
7
  6
CONTINUOUS
 70
0
 71
3
 72
11
 73
7
 74
0
 42
0.0000001
 43
0.0000001
 44
0.0000000001
 40
0.0
 40
0.0
 40
0.0
 40
0.0
 40
0.2553471795
 40
0.5061420951
 40
0.7538506305
 40
1.0
 40
1.0
 40
1.0
 40
1.0
 10
10.3088819019
 20
10.1357862762
 30
0.0
 10
10.3092070395
 20
10.1348046671
 30
0.0
 10
10.3097795201
 20
10.1328341107
 30
0.0
 10
10.310399955
 20
10.129841827
 30
0.0
 10
10.310772487
 20
10.1268461289
 30
0.0
 10
10.3108553583
 20
10.1248452319
 30
0.0
 10
10.3108553581
 20
10.1238484239
 30
0.0
  0
SPLINE
  5
3FF
100
AcDbEntity
  8
0
100
AcDbSpline
 62
7
  6
CONTINUOUS
 70
0
 71
3
 72
15
 73
11
 74
0
 42
0.0000001
 43
0.0000001
 44
0.0000000001
 40
0.0
 40
0.0
 40
0.0
 40
0.0
 40
0.1081481156
 40
0.2181275745
 40
0.3316716241
 40
0.4503409609
 40
0.5754873735
 40
0.7082426213
 40
0.8495167778
 40
1.0
 40
1.0
 40
1.0
 40
1.0
 10
13.4354448692
 20
7.2146228485
 30
0.0
 10
13.4360169009
 20
7.2145831728
 30
0.0
 10
13.4371775929
 20
7.2145818131
 30
0.0
 10
13.4389253784
 20
7.2148153461
 30
0.0
 10
13.4406831675
 20
7.2152829937
 30
0.0
 10
13.4424480863
 20
7.2159830215
 30
0.0
 10
13.4442183539
 20
7.2169135926
 30
0.0
 10
13.4459924144
 20
7.2180729017
 30
0.0
 10
13.4477685471
 20
7.2194590696
 30
0.0
 10
13.4489155594
 20
7.2204991458
 30
0.0
 10
13.4494894301
 20
7.2210534623
 30
0.0
  0
SPLINE
  5
400
100
AcDbEntity
  8
0
100
AcDbSpline
 62
7
  6
CONTINUOUS
 70
0
 71
3
 72
25
 73
21
 74
0
 42
0.0000001
 43
0.0000001
 44
0.0000000001
 40
0.0
 40
0.0
 40
0.0
 40
0.0
 40
0.0618715085
 40
0.1239819326
 40
0.1863056791
 40
0.2488133587
 40
0.3114722549
 40
0.3742469596
 40
0.4371000107
 40
0.4999925636
 40
0.5628850783
 40
0.6257380154
 40
0.6885125321
 40
0.7198628123
 40
0.7511796021
 40
0.8136869547
 40
0.8760103162
 40
0.9070979862
 40
0.9381289465
 40
1.0
 40
1.0
 40
1.0
 40
1.0
 10
11.5532290591
 20
7.4564912289
 30
0.0
 10
11.5456308017
 20
7.4586353091
 30
0.0
 10
11.5305456035
 20
7.4634489009
 30
0.0
 10
11.5084169383
 20
7.4721828385
 30
0.0
 10
11.486843707
 20
7.4824038419
 30
0.0
 10
11.4659321725
 20
7.4940616965
 30
0.0
 10
11.4457836167
 20
7.5070997181
 30
0.0
 10
11.4264960842
 20
7.5214544007
 30
0.0
 10
11.4081633011
 20
7.5370559102
 30
0.0
 10
11.3908744255
 20
7.5538283117
 30
0.0
 10
11.3747134248
 20
7.5716901868
 30
0.0
 10
11.3597592419
 20
7.5905541347
 30
0.0
 10
11.3483573712
 20
7.6070420726
 30
0.0
 10
11.3399094901
 20
7.6206408408
 30
0.0
 10
11.3319291229
 20
7.634479837
 30
0.0
 10
11.3228312583
 20
7.6522235542
 30
0.0
 10
11.3149372717
 20
7.6705029498
 30
0.0
 10
11.3093765801
 20
7.6853795032
 30
0.0
 10
11.304334101
 20
7.7003780392
 30
0.0
 10
11.301122178
 20
7.7118014151
 30
0.0
 10
11.2992437535
 20
7.7194696092
 30
0.0
  0
SPLINE
  5
401
100
AcDbEntity
  8
0
100
AcDbSpline
 62
7
  6
CONTINUOUS
 70
0
 71
3
 72
15
 73
11
 74
0
 42
0.0000001
 43
0.0000001
 44
0.0000000001
 40
0.0
 40
0.0
 40
0.0
 40
0.0
 40
0.1081481156
 40
0.2181275745
 40
0.3316716241
 40
0.4503409609
 40
0.5754873735
 40
0.7082426213
 40
0.8495167778
 40
1.0
 40
1.0
 40
1.0
 40
1.0
 10
12.4001695432
 20
6.2146236146
 30
0.0
 10
12.4007415749
 20
6.2145839388
 30
0.0
 10
12.4019022669
 20
6.2145825791
 30
0.0
 10
12.4036500524
 20
6.2148161121
 30
0.0
 10
12.4054078415
 20
6.2152837597
 30
0.0
 10
12.4071727603
 20
6.2159837875
 30
0.0
 10
12.4089430279
 20
6.2169143587
 30
0.0
 10
12.4107170884
 20
6.2180736677
 30
0.0
 10
12.4124932211
 20
6.2194598356
 30
0.0
 10
12.4136402334
 20
6.2204999118
 30
0.0
 10
12.414214104
 20
6.2210542283
 30
0.0
  0
SPLINE
  5
402
100
AcDbEntity
  8
0
100
AcDbSpline
 62
7
  6
CONTINUOUS
 70
0
 71
3
 72
43
 73
39
 74
0
 42
0.0000001
 43
0.0000001
 44
0.0000000001
 40
0.0
 40
0.0
 40
0.0
 40
0.0
 40
0.0149644519
 40
0.029945728
 40
0.0449459508
 40
0.0599671551
 40
0.0900754905
 40
0.1202894876
 40
0.1354422366
 40
0.1506257404
 40
0.1658411623
 40
0.1810895096
 40
0.2116838487
 40
0.2424182149
 40
0.2732950533
 40
0.3043142597
 40
0.3354732171
 40
0.3667668749
 40
0.3981878673
 40
0.4297266664
 40
0.4613717669
 40
0.4931098977
 40
0.5249262566
 40
0.5568047641
 40
0.588728332
 40
0.6206791447
 40
0.6526389479
 40
0.6845893426
 40
0.7165120809
 40
0.7483893602
 40
0.7802041119
 40
0.811940283
 40
0.843583102
 40
0.8751193426
 40
0.9065375159
 40
0.9378282353
 40
0.968983917
 40
1.0
 40
1.0
 40
1.0
 40
1.0
 10
10.8333712007
 20
7.7328361422
 30
0.0
 10
10.8303421853
 20
7.728260932
 30
0.0
 10
10.8244430209
 20
7.7189967331
 30
0.0
 10
10.8160879647
 20
7.7047874972
 30
0.0
 10
10.8082307253
 20
7.6902729369
 30
0.0
 10
10.7984234817
 20
7.670522169
 30
0.0
 10
10.7874508232
 20
7.6451420441
 30
0.0
 10
10.7782626592
 20
7.6190121074
 30
0.0
 10
10.7719951671
 20
7.597709245
 30
0.0
 10
10.7678364157
 20
7.5815292665
 30
0.0
 10
10.7642294075
 20
7.5651815392
 30
0.0
 10
10.7601567345
 20
7.5431631902
 30
0.0
 10
10.7564673679
 20
7.5153042282
 30
0.0
 10
10.7543025065
 20
7.481539574
 30
0.0
 10
10.7544035457
 20
7.44754949
 30
0.0
 10
10.756769972
 20
7.4134862367
 30
0.0
 10
10.7613909373
 20
7.3795010417
 30
0.0
 10
10.7682456608
 20
7.3457450919
 30
0.0
 10
10.7773034359
 20
7.3123684212
 30
0.0
 10
10.7885237954
 20
7.279519371
 30
0.0
 10
10.8018566827
 20
7.2473439034
 30
0.0
 10
10.8172426862
 20
7.2159849707
 30
0.0
 10
10.8346133028
 20
7.1855818846
 30
0.0
 10
10.8538912421
 20
7.1562697046
 30
0.0
 10
10.8749907687
 20
7.1281786446
 30
0.0
 10
10.8978180812
 20
7.1014334997
 30
0.0
 10
10.9222717256
 20
7.0761530973
 30
0.0
 10
10.9482430428
 20
7.0524497736
 30
0.0
 10
10.9756166478
 20
7.0304288795
 30
0.0
 10
11.0042709344
 20
7.0101883113
 30
0.0
 10
11.0340786114
 20
6.9918180784
 30
0.0
 10
11.0649072694
 20
6.9753999113
 30
0.0
 10
11.0966199461
 20
6.9610068921
 30
0.0
 10
11.1290757863
 20
6.9487031515
 30
0.0
 10
11.162130453
 20
6.9385435301
 30
0.0
 10
11.1956375296
 20
6.9305734387
 30
0.0
 10
11.2294461611
 20
6.9248285569
 30
0.0
 10
11.252142625
 20
6.922493742
 30
0.0
 10
11.263488069
 20
6.9217069328
 30
0.0
  0
SPLINE
  5
403
100
AcDbEntity
  8
0
100
AcDbSpline
 62
7
  6
CONTINUOUS
 70
0
 71
3
 72
20
 73
16
 74
0
 42
0.0000001
 43
0.0000001
 44
0.0000000001
 40
0.0
 40
0.0
 40
0.0
 40
0.0
 40
0.0468502816
 40
0.095929896
 40
0.1472280938
 40
0.2007265525
 40
0.2563998191
 40
0.31421673
 40
0.3741401695
 40
0.4361285799
 40
0.5001353313
 40
0.5661101821
 40
0.7037389515
 40
0.8485437798
 40
1.0
 40
1.0
 40
1.0
 40
1.0
 10
11.1185448745
 20
7.3294512227
 30
0.0
 10
11.1163511012
 20
7.3305947816
 30
0.0
 10
11.111818265
 20
7.332858492
 30
0.0
 10
11.1047583088
 20
7.3361165064
 30
0.0
 10
11.0972867479
 20
7.3393126388
 30
0.0
 10
11.0894117257
 20
7.3424433314
 30
0.0
 10
11.0811417186
 20
7.3455052474
 30
0.0
 10
11.0724856679
 20
7.3484949842
 30
0.0
 10
11.0634529561
 20
7.3514093513
 30
0.0
 10
11.0540533742
 20
7.3542450834
 30
0.0
 10
11.0442971202
 20
7.3569991867
 30
0.0
 10
11.0306342397
 20
7.360609246
 30
0.0
 10
11.0127360551
 20
7.3648809056
 30
0.0
 10
10.9903060973
 20
7.3695666955
 30
0.0
 10
10.97491332
 20
7.3723702876
 30
0.0
 10
10.9670289737
 20
7.3737118802
 30
0.0
  0
SPLINE
  5
404
100
AcDbEntity
  8
0
100
AcDbSpline
 62
7
  6
CONTINUOUS
 70
0
 71
3
 72
18
 73
14
 74
0
 42
0.0000001
 43
0.0000001
 44
0.0000000001
 40
0.0
 40
0.0
 40
0.0
 40
0.0
 40
0.049226839
 40
0.1003670554
 40
0.1534014101
 40
0.2083069236
 40
0.2650559695
 40
0.3236178576
 40
0.4460354112
 40
0.5752537134
 40
0.7109195956
 40
0.8526426924
 40
1.0
 40
1.0
 40
1.0
 40
1.0
 10
11.1184880353
 20
7.32892427
 30
0.0
 10
11.1161860147
 20
7.3299509154
 30
0.0
 10
11.1114651495
 20
7.3319832364
 30
0.0
 10
11.1041788717
 20
7.3349184777
 30
0.0
 10
11.096558169
 20
7.3377964658
 30
0.0
 10
11.0886098022
 20
7.3406145255
 30
0.0
 10
11.0803407627
 20
7.3433702807
 30
0.0
 10
11.068725262
 20
7.3470120466
 30
0.0
 10
11.0534504817
 20
7.3513766297
 30
0.0
 10
11.0342258914
 20
7.3562539771
 30
0.0
 10
11.0139125511
 20
7.3608281096
 30
0.0
 10
10.9925823931
 20
7.3650826345
 30
0.0
 10
10.9780032084
 20
7.3676484572
 30
0.0
 10
10.9705590948
 20
7.368879253
 30
0.0
  0
SPLINE
  5
405
100
AcDbEntity
  8
0
100
AcDbSpline
 62
7
  6
CONTINUOUS
 70
0
 71
3
 72
11
 73
7
 74
0
 42
0.0000001
 43
0.0000001
 44
0.0000000001
 40
0.0
 40
0.0
 40
0.0
 40
0.0
 40
0.2461493188
 40
0.493857647
 40
0.7446524264
 40
1.0
 40
1.0
 40
1.0
 40
1.0
 10
9.2308553923
 20
10.1238484239
 30
0.0
 10
9.2308553924
 20
10.1248452342
 30
0.0
 10
9.2309382645
 20
10.1268461351
 30
0.0
 10
9.2313107961
 20
10.1298418393
 30
0.0
 10
9.2319312319
 20
10.1328341309
 30
0.0
 10
9.2325037166
 20
10.1348046927
 30
0.0
 10
9.2328288576
 20
10.135786305
 30
0.0
  0
SPLINE
  5
406
100
AcDbEntity
  8
0
100
AcDbSpline
 62
7
  6
CONTINUOUS
 70
0
 71
3
 72
30
 73
26
 74
0
 42
0.0000001
 43
0.0000001
 44
0.0000000001
 40
0.0
 40
0.0
 40
0.0
 40
0.0
 40
0.076555751
 40
0.1527468367
 40
0.2282831688
 40
0.3028464358
 40
0.3760906077
 40
0.4476488035
 40
0.5171421806
 40
0.5841928068
 40
0.6484390989
 40
0.6794062117
 40
0.7095527681
 40
0.7388452314
 40
0.7672547596
 40
0.7947563687
 40
0.8213304646
 40
0.8469621911
 40
0.8716425862
 40
0.8953681921
 40
0.9181418167
 40
0.9399724924
 40
0.9608760285
 40
0.9808751498
 40
1.0
 40
1.0
 40
1.0
 40
1.0
 10
11.0961143679
 20
7.6105067463
 30
0.0
 10
11.0973778884
 20
7.6034514561
 30
0.0
 10
11.1000945742
 20
7.5894088482
 30
0.0
 10
11.1046913861
 20
7.5685339556
 30
0.0
 10
11.1097267938
 20
7.5479527833
 30
0.0
 10
11.1151099194
 20
7.5277457147
 30
0.0
 10
11.1207379733
 20
7.5079929145
 30
0.0
 10
11.1264973576
 20
7.4887734094
 30
0.0
 10
11.1322658174
 20
7.4701631684
 30
0.0
 10
11.1379151182
 20
7.452233094
 30
0.0
 10
11.142469075
 20
7.437739668
 30
0.0
 10
11.145926464
 20
7.4265235746
 30
0.0
 10
11.1483762352
 20
7.4184215003
 30
0.0
 10
11.150699306
 20
7.4105314651
 30
0.0
 10
11.1528809768
 20
7.4028582507
 30
0.0
 10
11.1549070634
 20
7.3954058647
 30
0.0
 10
11.1567643282
 20
7.3881777623
 30
0.0
 10
11.1584401558
 20
7.3811766751
 30
0.0
 10
11.159922974
 20
7.3744048291
 30
0.0
 10
11.1612019811
 20
7.3678638633
 30
0.0
 10
11.1622673859
 20
7.3615549866
 30
0.0
 10
11.1631102871
 20
7.3554790029
 30
0.0
 10
11.1637227014
 20
7.3496363367
 30
0.0
 10
11.1640975816
 20
7.3440273841
 30
0.0
 10
11.1641869555
 20
7.340364014
 30
0.0
 10
11.1641872906
 20
7.3385734484
 30
0.0
  0
SPLINE
  5
407
100
AcDbEntity
  8
0
100
AcDbSpline
 62
4
  6
CONTINUOUS
 70
0
 71
3
 72
279
 73
275
 74
0
 42
0.0000001
 43
0.0000001
 44
0.0000000001
 40
0.0
 40
0.0
 40
0.0
 40
0.0
 40
0.015625
 40
0.0234375
 40
0.03125
 40
0.0390625
 40
0.046875
 40
0.05078125
 40
0.0546875
 40
0.056640625
 40
0.05859375
 40
0.060546875
 40
0.0615234375
 40
0.0620117188
 40
0.0625
 40
0.0629882812
 40
0.0634765625
 40
0.064453125
 40
0.06640625
 40
0.068359375
 40
0.0703125
 40
0.07421875
 40
0.078125
 40
0.0859375
 40
0.09375
 40
0.1015625
 40
0.109375
 40
0.11328125
 40
0.1171875
 40
0.119140625
 40
0.12109375
 40
0.123046875
 40
0.1240234375
 40
0.1245117188
 40
0.125
 40
0.1254882812
 40
0.1259765625
 40
0.126953125
 40
0.12890625
 40
0.130859375
 40
0.1328125
 40
0.13671875
 40
0.140625
 40
0.1484375
 40
0.15625
 40
0.1640625
 40
0.171875
 40
0.17578125
 40
0.1796875
 40
0.181640625
 40
0.18359375
 40
0.185546875
 40
0.1865234375
 40
0.1870117188
 40
0.1875
 40
0.1879882812
 40
0.1884765625
 40
0.189453125
 40
0.19140625
 40
0.193359375
 40
0.1953125
 40
0.19921875
 40
0.203125
 40
0.2109375
 40
0.21875
 40
0.2265625
 40
0.234375
 40
0.23828125
 40
0.2421875
 40
0.24609375
 40
0.248046875
 40
0.2490234375
 40
0.25
 40
0.2509765625
 40
0.251953125
 40
0.25390625
 40
0.2578125
 40
0.26171875
 40
0.265625
 40
0.2734375
 40
0.28125
 40
0.2890625
 40
0.296875
 40
0.30078125
 40
0.3046875
 40
0.30859375
 40
0.310546875
 40
0.3115234375
 40
0.3125
 40
0.3134765625
 40
0.314453125
 40
0.31640625
 40
0.3203125
 40
0.32421875
 40
0.328125
 40
0.3359375
 40
0.34375
 40
0.3515625
 40
0.359375
 40
0.3671875
 40
0.37109375
 40
0.373046875
 40
0.375
 40
0.376953125
 40
0.37890625
 40
0.3828125
 40
0.390625
 40
0.3984375
 40
0.40625
 40
0.4140625
 40
0.421875
 40
0.4296875
 40
0.43359375
 40
0.435546875
 40
0.4375
 40
0.439453125
 40
0.44140625
 40
0.4453125
 40
0.453125
 40
0.4609375
 40
0.46875
 40
0.4765625
 40
0.484375
 40
0.48828125
 40
0.4921875
 40
0.49609375
 40
0.498046875
 40
0.4990234375
 40
0.5
 40
0.5009765625
 40
0.501953125
 40
0.50390625
 40
0.5078125
 40
0.51171875
 40
0.515625
 40
0.5234375
 40
0.53125
 40
0.5390625
 40
0.546875
 40
0.55078125
 40
0.5546875
 40
0.55859375
 40
0.560546875
 40
0.5615234375
 40
0.5625
 40
0.5634765625
 40
0.564453125
 40
0.56640625
 40
0.5703125
 40
0.57421875
 40
0.578125
 40
0.5859375
 40
0.59375
 40
0.6015625
 40
0.609375
 40
0.61328125
 40
0.6171875
 40
0.619140625
 40
0.62109375
 40
0.623046875
 40
0.6240234375
 40
0.625
 40
0.6259765625
 40
0.626953125
 40
0.62890625
 40
0.630859375
 40
0.6328125
 40
0.63671875
 40
0.640625
 40
0.6484375
 40
0.65625
 40
0.6640625
 40
0.671875
 40
0.67578125
 40
0.6796875
 40
0.681640625
 40
0.68359375
 40
0.685546875
 40
0.6865234375
 40
0.6870117188
 40
0.6875
 40
0.6879882812
 40
0.6884765625
 40
0.689453125
 40
0.69140625
 40
0.693359375
 40
0.6953125
 40
0.69921875
 40
0.703125
 40
0.7109375
 40
0.71875
 40
0.7265625
 40
0.734375
 40
0.73828125
 40
0.7421875
 40
0.744140625
 40
0.74609375
 40
0.748046875
 40
0.7490234375
 40
0.7495117188
 40
0.75
 40
0.7504882812
 40
0.7509765625
 40
0.751953125
 40
0.75390625
 40
0.755859375
 40
0.7578125
 40
0.76171875
 40
0.765625
 40
0.7734375
 40
0.78125
 40
0.7890625
 40
0.796875
 40
0.80078125
 40
0.8046875
 40
0.806640625
 40
0.80859375
 40
0.810546875
 40
0.8115234375
 40
0.8120117188
 40
0.8125
 40
0.8129882812
 40
0.8134765625
 40
0.814453125
 40
0.81640625
 40
0.818359375
 40
0.8203125
 40
0.82421875
 40
0.828125
 40
0.8359375
 40
0.84375
 40
0.8515625
 40
0.859375
 40
0.86328125
 40
0.8671875
 40
0.869140625
 40
0.87109375
 40
0.873046875
 40
0.8740234375
 40
0.8745117188
 40
0.875
 40
0.8754882812
 40
0.8759765625
 40
0.876953125
 40
0.87890625
 40
0.880859375
 40
0.8828125
 40
0.88671875
 40
0.890625
 40
0.8984375
 40
0.90625
 40
0.9140625
 40
0.921875
 40
0.92578125
 40
0.9296875
 40
0.931640625
 40
0.93359375
 40
0.935546875
 40
0.9365234375
 40
0.9370117188
 40
0.9375
 40
0.9379882812
 40
0.9384765625
 40
0.939453125
 40
0.94140625
 40
0.943359375
 40
0.9453125
 40
0.94921875
 40
0.953125
 40
0.9609375
 40
0.96875
 40
0.9765625
 40
0.984375
 40
1.0
 40
1.0
 40
1.0
 40
1.0
 10
12.8178679562
 20
8.6909787253
 30
0.0
 10
12.817028422
 20
8.6898605859
 30
0.0
 10
12.8157691208
 20
8.688183377
 30
0.0
 10
12.8140900525
 20
8.6859470975
 30
0.0
 10
12.8128307511
 20
8.6842698902
 30
0.0
 10
12.8115714503
 20
8.682592674
 30
0.0
 10
12.8105220314
 20
8.6811950215
 30
0.0
 10
12.8096824997
 20
8.6800768377
 30
0.0
 10
12.8091577845
 20
8.6793781134
 30
0.0
 10
12.8087380304
 20
8.678818812
 30
0.0
 10
12.8084231655
 20
8.6784002174
 30
0.0
 10
12.8081609349
 20
8.6780485847
 30
0.0
 10
12.8079770658
 20
8.6778079443
 30
0.0
 10
12.8078724782
 20
8.6776618438
 30
0.0
 10
12.807792684
 20
8.6775764713
 30
0.0
 10
12.8077180634
 20
8.6773985833
 30
0.0
 10
12.8076167647
 20
8.6771936696
 30
0.0
 10
12.8074403327
 20
8.6768200354
 30
0.0
 10
12.8071878475
 20
8.6762941329
 30
0.0
 10
12.8068850533
 20
8.6756596853
 30
0.0
 10
12.8064812621
 20
8.6748149304
 30
0.0
 10
12.8059765456
 20
8.6737585843
 30
0.0
 10
12.8051689865
 20
8.6720686555
 30
0.0
 10
12.8041595421
 20
8.6699561668
 30
0.0
 10
12.8029482066
 20
8.6674212157
 30
0.0
 10
12.8017368726
 20
8.6648862479
 30
0.0
 10
12.8007274245
 20
8.6627738011
 30
0.0
 10
12.7999198728
 20
8.6610837886
 30
0.0
 10
12.7994151376
 20
8.6600276555
 30
0.0
 10
12.7990113847
 20
8.6591824633
 30
0.0
 10
12.7987084734
 20
8.6585493514
 30
0.0
 10
12.7984563548
 20
8.6580192699
 30
0.0
 10
12.7982792682
 20
8.6576530959
 30
0.0
 10
12.7981790184
 20
8.6574362291
 30
0.0
 10
12.7981011758
 20
8.6572950574
 30
0.0
 10
12.7980334832
 20
8.6570717845
 30
0.0
 10
12.797939686
 20
8.656802725
 30
0.0
 10
12.7977771904
 20
8.6563185282
 30
0.0
 10
12.7975441914
 20
8.6556337942
 30
0.0
 10
12.7972649618
 20
8.6548091276
 30
0.0
 10
12.7968925266
 20
8.6537106149
 30
0.0
 10
12.7964270269
 20
8.6523371171
 30
0.0
 10
12.7956822026
 20
8.6501397201
 30
0.0
 10
12.7947511809
 20
8.6473929049
 30
0.0
 10
12.7936339507
 20
8.6440967582
 30
0.0
 10
12.7925167228
 20
8.6408005961
 30
0.0
 10
12.7915856955
 20
8.6380538191
 30
0.0
 10
12.7908408823
 20
8.6358563459
 30
0.0
 10
12.7903753543
 20
8.6344830417
 30
0.0
 10
12.7900029772
 20
8.6333841316
 30
0.0
 10
12.7897235704
 20
8.6325606793
 30
0.0
 10
12.7894911258
 20
8.6318721458
 30
0.0
 10
12.7893276406
 20
8.6313947318
 30
0.0
 10
12.7892354289
 20
8.6311148045
 30
0.0
 10
12.7891628663
 20
8.6309249141
 30
0.0
 10
12.7891033146
 20
8.6306583634
 30
0.0
 10
12.789019374
 20
8.6303297025
 30
0.0
 10
12.7888745925
 20
8.6297420873
 30
0.0
 10
12.7886666563
 20
8.6289091504
 30
0.0
 10
12.7884176061
 20
8.6279068382
 30
0.0
 10
12.7880853738
 20
8.6265713957
 30
0.0
 10
12.7876701401
 20
8.6249017591
 30
0.0
 10
12.7870057343
 20
8.6222305274
 30
0.0
 10
12.7861752391
 20
8.618891421
 30
0.0
 10
12.7851786346
 20
8.6148845331
 30
0.0
 10
12.7841820522
 20
8.6108775927
 30
0.0
 10
12.7833515016
 20
8.6075386177
 30
0.0
 10
12.7826872068
 20
8.604867123
 30
0.0
 10
12.782188588
 20
8.6028643611
 30
0.0
 10
12.7817743371
 20
8.6011926602
 30
0.0
 10
12.7814818795
 20
8.6000278322
 30
0.0
 10
12.7813186362
 20
8.5993538429
 30
0.0
 10
12.7811852868
 20
8.5988719386
 30
0.0
 10
12.7810936676
 20
8.5982998704
 30
0.0
 10
12.7809569526
 20
8.5975685629
 30
0.0
 10
12.7807244834
 20
8.5962741216
 30
0.0
 10
12.7803888388
 20
8.5944325807
 30
0.0
 10
12.7799875831
 20
8.5922194523
 30
0.0
 10
12.779452045
 20
8.5892697603
 30
0.0
 10
12.7787828057
 20
8.5855822502
 30
0.0
 10
12.7779796345
 20
8.5811574159
 30
0.0
 10
12.7771765064
 20
8.5767325023
 30
0.0
 10
12.7765071592
 20
8.5730451903
 30
0.0
 10
12.7759718369
 20
8.570095102
 30
0.0
 10
12.7755699232
 20
8.5678831824
 30
0.0
 10
12.7752363368
 20
8.56603786
 30
0.0
 10
12.7750001935
 20
8.5647501691
 30
0.0
 10
12.7748693654
 20
8.5640080458
 30
0.0
 10
12.7747596636
 20
8.5634692005
 30
0.0
 10
12.7746942295
 20
8.5628625163
 30
0.0
 10
12.7745915429
 20
8.5620772671
 30
0.0
 10
12.7744190358
 20
8.5606920558
 30
0.0
 10
12.7741688356
 20
8.5587189467
 30
0.0
 10
12.7738702059
 20
8.5563487483
 30
0.0
 10
12.7734714683
 20
8.5531893469
 30
0.0
 10
12.7729732546
 20
8.5492397903
 30
0.0
 10
12.7723752449
 20
8.5445004907
 30
0.0
 10
12.7717775152
 20
8.5397610057
 30
0.0
 10
12.7711788191
 20
8.5350220941
 30
0.0
 10
12.7706828934
 20
8.5310712443
 30
0.0
 10
12.770329894
 20
8.5283090878
 30
0.0
 10
12.7701373147
 20
8.5267253453
 30
0.0
 10
12.7699671481
 20
8.5255526582
 30
0.0
 10
12.769895343
 20
8.5243221759
 30
0.0
 10
12.7697652931
 20
8.5227016925
 30
0.0
 10
12.7695536921
 20
8.5198564535
 30
0.0
 10
12.7692430417
 20
8.5157967386
 30
0.0
 10
12.7688738649
 20
8.5109229723
 30
0.0
 10
12.7685036546
 20
8.5060497801
 30
0.0
 10
12.7681339747
 20
8.5011763997
 30
0.0
 10
12.7677632064
 20
8.4963031981
 30
0.0
 10
12.767457419
 20
8.4922417574
 30
0.0
 10
12.767237153
 20
8.4893995934
 30
0.0
 10
12.7671209847
 20
8.4877741839
 30
0.0
 10
12.7670065403
 20
8.4865588329
 30
0.0
 10
12.7669965198
 20
8.485329315
 30
0.0
 10
12.7669467349
 20
8.4836948994
 30
0.0
 10
12.7668765822
 20
8.4808323697
 30
0.0
 10
12.7667674897
 20
8.4767442449
 30
0.0
 10
12.7666403851
 20
8.4718379817
 30
0.0
 10
12.7665122538
 20
8.4669318473
 30
0.0
 10
12.7663844232
 20
8.4620257109
 30
0.0
 10
12.7662777508
 20
8.457937163
 30
0.0
 10
12.7661926151
 20
8.4546665679
 30
0.0
 10
12.7661282448
 20
8.4522129525
 30
0.0
 10
12.7660762469
 20
8.4501704019
 30
0.0
 10
12.7660366229
 20
8.4487364385
 30
0.0
 10
12.7660190167
 20
8.4479235545
 30
0.0
 10
12.7659916255
 20
8.4472955143
 30
0.0
 10
12.7660184624
 20
8.4467377209
 30
0.0
 10
12.7660353295
 20
8.4459694936
 30
0.0
 10
12.7660736601
 20
8.4446365121
 30
0.0
 10
12.7661238104
 20
8.4427262842
 30
0.0
 10
12.766185963
 20
8.4404365655
 30
0.0
 10
12.7662681441
 20
8.4373827145
 30
0.0
 10
12.7663711083
 20
8.4335657096
 30
0.0
 10
12.7664945569
 20
8.4289851602
 30
0.0
 10
12.7666180589
 20
8.4244046908
 30
0.0
 10
12.7667208896
 20
8.4205874861
 30
0.0
 10
12.7668033377
 20
8.4175340348
 30
0.0
 10
12.7668646757
 20
8.4152430971
 30
0.0
 10
12.7669173745
 20
8.4133366826
 30
0.0
 10
12.7669511556
 20
8.4119968936
 30
0.0
 10
12.7669753121
 20
8.4112395736
 30
0.0
 10
12.7669797586
 20
8.4106482763
 30
0.0
 10
12.767036462
 20
8.4101460714
 30
0.0
 10
12.7670938387
 20
8.4094453885
 30
0.0
 10
12.7672027407
 20
8.4082336724
 30
0.0
 10
12.7673538749
 20
8.4064950797
 30
0.0
 10
12.7675371364
 20
8.4044120085
 30
0.0
 10
12.7677808212
 20
8.4016334485
 30
0.0
 10
12.7680856547
 20
8.398160636
 30
0.0
 10
12.768451359
 20
8.393993099
 30
0.0
 10
12.7688170829
 20
8.3898255899
 30
0.0
 10
12.7691218675
 20
8.3863527074
 30
0.0
 10
12.7693656501
 20
8.3835742874
 30
0.0
 10
12.7695181196
 20
8.381838039
 30
0.0
 10
12.7696398535
 20
8.3804484349
 30
0.0
 10
12.7697318159
 20
8.3794078896
 30
0.0
 10
12.7698063453
 20
8.3785354949
 30
0.0
 10
12.769870692
 20
8.3778494068
 30
0.0
 10
12.769906046
 20
8.3773025219
 30
0.0
 10
12.7699906626
 20
8.3768789987
 30
0.0
 10
12.7700862767
 20
8.3762712093
 30
0.0
 10
12.7702116983
 20
8.3755262571
 30
0.0
 10
12.7703596771
 20
8.3746259862
 30
0.0
 10
12.7705578648
 20
8.3734278353
 30
0.0
 10
12.7708052972
 20
8.3719293899
 30
0.0
 10
12.771201358
 20
8.3695323002
 30
0.0
 10
12.7716963762
 20
8.3665357933
 30
0.0
 10
12.7722904222
 20
8.3629400454
 30
0.0
 10
12.7728844638
 20
8.3593442877
 30
0.0
 10
12.7733794929
 20
8.3563478054
 30
0.0
 10
12.7737755318
 20
8.3539506666
 30
0.0
 10
12.7740230199
 20
8.352452346
 30
0.0
 10
12.7742210935
 20
8.3512539389
 30
0.0
 10
12.7743694209
 20
8.3503544509
 30
0.0
 10
12.7744937517
 20
8.3496070491
 30
0.0
 10
12.7745793612
 20
8.3490796063
 30
0.0
 10
12.7746305013
 20
8.3487848645
 30
0.0
 10
12.7746626017
 20
8.3485450635
 30
0.0
 10
12.7747186106
 20
8.3483769139
 30
0.0
 10
12.7747849495
 20
8.3481277217
 30
0.0
 10
12.7749049282
 20
8.3477032798
 30
0.0
 10
12.775074295
 20
8.3470908464
 30
0.0
 10
12.7752784046
 20
8.3463585321
 30
0.0
 10
12.775550247
 20
8.3453812029
 30
0.0
 10
12.7758901541
 20
8.3441598531
 30
0.0
 10
12.7764339472
 20
8.3422055191
 30
0.0
 10
12.7771137087
 20
8.3397626619
 30
0.0
 10
12.7779294135
 20
8.3368312052
 30
0.0
 10
12.7787451222
 20
8.3338997644
 30
0.0
 10
12.7794248737
 20
8.3314568673
 30
0.0
 10
12.7799686868
 20
8.3295026132
 30
0.0
 10
12.7803085433
 20
8.3282810603
 30
0.0
 10
12.7805804894
 20
8.3273041478
 30
0.0
 10
12.7807842824
 20
8.3265705606
 30
0.0
 10
12.7809546397
 20
8.3259621097
 30
0.0
 10
12.7810728501
 20
8.3255305585
 30
0.0
 10
12.7811420223
 20
8.3252927573
 30
0.0
 10
12.7811893285
 20
8.3250896179
 30
0.0
 10
12.7812541147
 20
8.3249812326
 30
0.0
 10
12.781334399
 20
8.3248036676
 30
0.0
 10
12.7814777374
 20
8.3245083279
 30
0.0
 10
12.7816810213
 20
8.3240783633
 30
0.0
 10
12.7819255977
 20
8.3235658518
 30
0.0
 10
12.7822514776
 20
8.3228812995
 30
0.0
 10
12.7826589034
 20
8.3220260213
 30
0.0
 10
12.7833107423
 20
8.3206573456
 30
0.0
 10
12.7841255555
 20
8.3189465807
 30
0.0
 10
12.7851033247
 20
8.3168936263
 30
0.0
 10
12.7860810971
 20
8.3148406904
 30
0.0
 10
12.7868959026
 20
8.3131298794
 30
0.0
 10
12.7875477569
 20
8.3117612958
 30
0.0
 10
12.7879551434
 20
8.3109057838
 30
0.0
 10
12.7882811041
 20
8.3102217113
 30
0.0
 10
12.7885254335
 20
8.3097077337
 30
0.0
 10
12.7887294903
 20
8.3092823562
 30
0.0
 10
12.7888714489
 20
8.3089788277
 30
0.0
 10
12.7889539441
 20
8.3088143833
 30
0.0
 10
12.7890119391
 20
8.3086656956
 30
0.0
 10
12.7890847515
 20
8.3086139253
 30
0.0
 10
12.7891766663
 20
8.3085110922
 30
0.0
 10
12.7893399252
 20
8.3083468852
 30
0.0
 10
12.7895718932
 20
8.3081040691
 30
0.0
 10
12.7898507937
 20
8.3078162144
 30
0.0
 10
12.7902224729
 20
8.307431177
 30
0.0
 10
12.7906871362
 20
8.3069503019
 30
0.0
 10
12.7914305616
 20
8.306180666
 30
0.0
 10
12.7923598557
 20
8.3052187026
 30
0.0
 10
12.7934750031
 20
8.3040643091
 30
0.0
 10
12.7945901528
 20
8.3029099348
 30
0.0
 10
12.7955194409
 20
8.3019479237
 30
0.0
 10
12.7962628783
 20
8.3011783831
 30
0.0
 10
12.7967275111
 20
8.3006972657
 30
0.0
 10
12.797099253
 20
8.3003127256
 30
0.0
 10
12.7973779618
 20
8.3000233519
 30
0.0
 10
12.7976105295
 20
8.2997852882
 30
0.0
 10
12.797772718
 20
8.2996125973
 30
0.0
 10
12.7978663477
 20
8.2995233576
 30
0.0
 10
12.7979338922
 20
8.2994298328
 30
0.0
 10
12.7980116727
 20
8.2994379678
 30
0.0
 10
12.7981118096
 20
8.2994133544
 30
0.0
 10
12.7982887127
 20
8.2993868025
 30
0.0
 10
12.7985405616
 20
8.2993402335
 30
0.0
 10
12.7988431526
 20
8.299288048
 30
0.0
 10
12.7992464773
 20
8.2992171759
 30
0.0
 10
12.7997506776
 20
8.2991290279
 30
0.0
 10
12.8005573733
 20
8.2989877439
 30
0.0
 10
12.8015657514
 20
8.2988112244
 30
0.0
 10
12.8027758014
 20
8.2985993618
 30
0.0
 10
12.803985853
 20
8.298387519
 30
0.0
 10
12.8049942269
 20
8.2982109499
 30
0.0
 10
12.8058009311
 20
8.2980697651
 30
0.0
 10
12.8063051096
 20
8.2979813652
 30
0.0
 10
12.8067084792
 20
8.2979110102
 30
0.0
 10
12.8070109329
 20
8.2978572448
 30
0.0
 10
12.8072632113
 20
8.2978156187
 30
0.0
 10
12.8074393478
 20
8.297780243
 30
0.0
 10
12.8075407129
 20
8.2977697675
 30
0.0
 10
12.8076147208
 20
8.2977344754
 30
0.0
 10
12.8076964345
 20
8.2978040555
 30
0.0
 10
12.8078026982
 20
8.2978602484
 30
0.0
 10
12.807989912
 20
8.2979756295
 30
0.0
 10
12.8082567056
 20
8.2981315491
 30
0.0
 10
12.8085771382
 20
8.2983224666
 30
0.0
 10
12.8090042837
 20
8.2985756911
 30
0.0
 10
12.8095382491
 20
8.2988926779
 30
0.0
 10
12.810392575
 20
8.2993996018
 30
0.0
 10
12.8114604889
 20
8.3000333441
 30
0.0
 10
12.8127419828
 20
8.3007937975
 30
0.0
 10
12.8140234774
 20
8.3015542609
 30
0.0
 10
12.8157321366
 20
8.3025682085
 30
0.0
 10
12.8170136311
 20
8.3033286701
 30
0.0
 10
12.8178679607
 20
8.3038356442
 30
0.0
  0
SPLINE
  5
408
100
AcDbEntity
  8
0
100
AcDbSpline
 62
4
  6
CONTINUOUS
 70
0
 71
3
 72
279
 73
275
 74
0
 42
0.0000001
 43
0.0000001
 44
0.0000000001
 40
0.0
 40
0.0
 40
0.0
 40
0.0
 40
0.015625
 40
0.0234375
 40
0.03125
 40
0.0390625
 40
0.046875
 40
0.05078125
 40
0.0546875
 40
0.056640625
 40
0.05859375
 40
0.060546875
 40
0.0615234375
 40
0.0620117188
 40
0.0625
 40
0.0629882812
 40
0.0634765625
 40
0.064453125
 40
0.06640625
 40
0.068359375
 40
0.0703125
 40
0.07421875
 40
0.078125
 40
0.0859375
 40
0.09375
 40
0.1015625
 40
0.109375
 40
0.11328125
 40
0.1171875
 40
0.119140625
 40
0.12109375
 40
0.123046875
 40
0.1240234375
 40
0.1245117188
 40
0.125
 40
0.1254882812
 40
0.1259765625
 40
0.126953125
 40
0.12890625
 40
0.130859375
 40
0.1328125
 40
0.13671875
 40
0.140625
 40
0.1484375
 40
0.15625
 40
0.1640625
 40
0.171875
 40
0.17578125
 40
0.1796875
 40
0.181640625
 40
0.18359375
 40
0.185546875
 40
0.1865234375
 40
0.1870117188
 40
0.1875
 40
0.1879882812
 40
0.1884765625
 40
0.189453125
 40
0.19140625
 40
0.193359375
 40
0.1953125
 40
0.19921875
 40
0.203125
 40
0.2109375
 40
0.21875
 40
0.2265625
 40
0.234375
 40
0.23828125
 40
0.2421875
 40
0.24609375
 40
0.248046875
 40
0.2490234375
 40
0.25
 40
0.2509765625
 40
0.251953125
 40
0.25390625
 40
0.2578125
 40
0.26171875
 40
0.265625
 40
0.2734375
 40
0.28125
 40
0.2890625
 40
0.296875
 40
0.30078125
 40
0.3046875
 40
0.30859375
 40
0.310546875
 40
0.3115234375
 40
0.3125
 40
0.3134765625
 40
0.314453125
 40
0.31640625
 40
0.3203125
 40
0.32421875
 40
0.328125
 40
0.3359375
 40
0.34375
 40
0.3515625
 40
0.359375
 40
0.3671875
 40
0.37109375
 40
0.373046875
 40
0.375
 40
0.376953125
 40
0.37890625
 40
0.3828125
 40
0.390625
 40
0.3984375
 40
0.40625
 40
0.4140625
 40
0.421875
 40
0.4296875
 40
0.43359375
 40
0.435546875
 40
0.4375
 40
0.439453125
 40
0.44140625
 40
0.4453125
 40
0.453125
 40
0.4609375
 40
0.46875
 40
0.4765625
 40
0.484375
 40
0.48828125
 40
0.4921875
 40
0.49609375
 40
0.498046875
 40
0.4990234375
 40
0.5
 40
0.5009765625
 40
0.501953125
 40
0.50390625
 40
0.5078125
 40
0.51171875
 40
0.515625
 40
0.5234375
 40
0.53125
 40
0.5390625
 40
0.546875
 40
0.55078125
 40
0.5546875
 40
0.55859375
 40
0.560546875
 40
0.5615234375
 40
0.5625
 40
0.5634765625
 40
0.564453125
 40
0.56640625
 40
0.5703125
 40
0.57421875
 40
0.578125
 40
0.5859375
 40
0.59375
 40
0.6015625
 40
0.609375
 40
0.61328125
 40
0.6171875
 40
0.619140625
 40
0.62109375
 40
0.623046875
 40
0.6240234375
 40
0.625
 40
0.6259765625
 40
0.626953125
 40
0.62890625
 40
0.630859375
 40
0.6328125
 40
0.63671875
 40
0.640625
 40
0.6484375
 40
0.65625
 40
0.6640625
 40
0.671875
 40
0.67578125
 40
0.6796875
 40
0.681640625
 40
0.68359375
 40
0.685546875
 40
0.6865234375
 40
0.6870117188
 40
0.6875
 40
0.6879882812
 40
0.6884765625
 40
0.689453125
 40
0.69140625
 40
0.693359375
 40
0.6953125
 40
0.69921875
 40
0.703125
 40
0.7109375
 40
0.71875
 40
0.7265625
 40
0.734375
 40
0.73828125
 40
0.7421875
 40
0.744140625
 40
0.74609375
 40
0.748046875
 40
0.7490234375
 40
0.7495117188
 40
0.75
 40
0.7504882812
 40
0.7509765625
 40
0.751953125
 40
0.75390625
 40
0.755859375
 40
0.7578125
 40
0.76171875
 40
0.765625
 40
0.7734375
 40
0.78125
 40
0.7890625
 40
0.796875
 40
0.80078125
 40
0.8046875
 40
0.806640625
 40
0.80859375
 40
0.810546875
 40
0.8115234375
 40
0.8120117188
 40
0.8125
 40
0.8129882812
 40
0.8134765625
 40
0.814453125
 40
0.81640625
 40
0.818359375
 40
0.8203125
 40
0.82421875
 40
0.828125
 40
0.8359375
 40
0.84375
 40
0.8515625
 40
0.859375
 40
0.86328125
 40
0.8671875
 40
0.869140625
 40
0.87109375
 40
0.873046875
 40
0.8740234375
 40
0.8745117188
 40
0.875
 40
0.8754882812
 40
0.8759765625
 40
0.876953125
 40
0.87890625
 40
0.880859375
 40
0.8828125
 40
0.88671875
 40
0.890625
 40
0.8984375
 40
0.90625
 40
0.9140625
 40
0.921875
 40
0.92578125
 40
0.9296875
 40
0.931640625
 40
0.93359375
 40
0.935546875
 40
0.9365234375
 40
0.9370117188
 40
0.9375
 40
0.9379882812
 40
0.9384765625
 40
0.939453125
 40
0.94140625
 40
0.943359375
 40
0.9453125
 40
0.94921875
 40
0.953125
 40
0.9609375
 40
0.96875
 40
0.9765625
 40
0.984375
 40
1.0
 40
1.0
 40
1.0
 40
1.0
 10
12.8178679562
 20
8.3038356399
 30
0.0
 10
12.8187074904
 20
8.3049537793
 30
0.0
 10
12.8199667916
 20
8.3066309882
 30
0.0
 10
12.8216458599
 20
8.3088672677
 30
0.0
 10
12.8229051613
 20
8.310544475
 30
0.0
 10
12.8241644621
 20
8.3122216912
 30
0.0
 10
12.825213881
 20
8.3136193437
 30
0.0
 10
12.8260534127
 20
8.3147375275
 30
0.0
 10
12.8265781279
 20
8.3154362518
 30
0.0
 10
12.826997882
 20
8.3159955532
 30
0.0
 10
12.8273127469
 20
8.3164141478
 30
0.0
 10
12.8275749775
 20
8.3167657805
 30
0.0
 10
12.8277588466
 20
8.3170064209
 30
0.0
 10
12.8278634342
 20
8.3171525214
 30
0.0
 10
12.8279432284
 20
8.3172378939
 30
0.0
 10
12.828017849
 20
8.3174157819
 30
0.0
 10
12.8281191477
 20
8.3176206956
 30
0.0
 10
12.8282955797
 20
8.3179943298
 30
0.0
 10
12.8285480649
 20
8.3185202323
 30
0.0
 10
12.8288508591
 20
8.3191546799
 30
0.0
 10
12.8292546503
 20
8.3199994348
 30
0.0
 10
12.8297593668
 20
8.3210557809
 30
0.0
 10
12.8305669259
 20
8.3227457097
 30
0.0
 10
12.8315763703
 20
8.3248581984
 30
0.0
 10
12.8327877058
 20
8.3273931495
 30
0.0
 10
12.8339990398
 20
8.3299281173
 30
0.0
 10
12.8350084879
 20
8.332040564
 30
0.0
 10
12.8358160396
 20
8.3337305766
 30
0.0
 10
12.8363207748
 20
8.3347867097
 30
0.0
 10
12.8367245277
 20
8.3356319019
 30
0.0
 10
12.837027439
 20
8.3362650138
 30
0.0
 10
12.8372795575
 20
8.3367950953
 30
0.0
 10
12.8374566442
 20
8.3371612693
 30
0.0
 10
12.837556894
 20
8.3373781361
 30
0.0
 10
12.8376347366
 20
8.3375193078
 30
0.0
 10
12.8377024292
 20
8.3377425807
 30
0.0
 10
12.8377962264
 20
8.3380116401
 30
0.0
 10
12.837958722
 20
8.338495837
 30
0.0
 10
12.838191721
 20
8.339180571
 30
0.0
 10
12.8384709506
 20
8.3400052376
 30
0.0
 10
12.8388433857
 20
8.3411037503
 30
0.0
 10
12.8393088855
 20
8.3424772481
 30
0.0
 10
12.8400537098
 20
8.3446746451
 30
0.0
 10
12.8409847315
 20
8.3474214603
 30
0.0
 10
12.8421019617
 20
8.350717607
 30
0.0
 10
12.8432191896
 20
8.3540137691
 30
0.0
 10
12.8441502169
 20
8.3567605461
 30
0.0
 10
12.8448950301
 20
8.3589580193
 30
0.0
 10
12.845360558
 20
8.3603313235
 30
0.0
 10
12.8457329352
 20
8.3614302336
 30
0.0
 10
12.846012342
 20
8.3622536859
 30
0.0
 10
12.8462447866
 20
8.3629422194
 30
0.0
 10
12.8464082718
 20
8.3634196334
 30
0.0
 10
12.8465004835
 20
8.3636995606
 30
0.0
 10
12.8465730461
 20
8.3638894511
 30
0.0
 10
12.8466325978
 20
8.3641560018
 30
0.0
 10
12.8467165384
 20
8.3644846627
 30
0.0
 10
12.8468613199
 20
8.3650722779
 30
0.0
 10
12.8470692561
 20
8.3659052148
 30
0.0
 10
12.8473183063
 20
8.366907527
 30
0.0
 10
12.8476505386
 20
8.3682429695
 30
0.0
 10
12.8480657723
 20
8.3699126061
 30
0.0
 10
12.8487301781
 20
8.3725838378
 30
0.0
 10
12.8495606733
 20
8.3759229442
 30
0.0
 10
12.8505572778
 20
8.3799298321
 30
0.0
 10
12.8515538602
 20
8.3839367725
 30
0.0
 10
12.8523844108
 20
8.3872757475
 30
0.0
 10
12.8530487056
 20
8.3899472422
 30
0.0
 10
12.8535473244
 20
8.3919500041
 30
0.0
 10
12.8539615753
 20
8.393621705
 30
0.0
 10
12.8542540329
 20
8.394786533
 30
0.0
 10
12.8544172762
 20
8.3954605223
 30
0.0
 10
12.8545506256
 20
8.3959424266
 30
0.0
 10
12.8546422448
 20
8.3965144948
 30
0.0
 10
12.8547789598
 20
8.3972458023
 30
0.0
 10
12.855011429
 20
8.3985402436
 30
0.0
 10
12.8553470736
 20
8.4003817845
 30
0.0
 10
12.8557483293
 20
8.4025949129
 30
0.0
 10
12.8562838674
 20
8.4055446049
 30
0.0
 10
12.8569531067
 20
8.409232115
 30
0.0
 10
12.8577562779
 20
8.4136569493
 30
0.0
 10
12.858559406
 20
8.4180818629
 30
0.0
 10
12.8592287532
 20
8.4217691749
 30
0.0
 10
12.8597640755
 20
8.4247192632
 30
0.0
 10
12.8601659892
 20
8.4269311828
 30
0.0
 10
12.8604995756
 20
8.4287765052
 30
0.0
 10
12.8607357189
 20
8.4300641961
 30
0.0
 10
12.860866547
 20
8.4308063194
 30
0.0
 10
12.8609762488
 20
8.4313451647
 30
0.0
 10
12.8610416829
 20
8.4319518489
 30
0.0
 10
12.8611443695
 20
8.4327370981
 30
0.0
 10
12.8613168766
 20
8.4341223094
 30
0.0
 10
12.8615670768
 20
8.4360954185
 30
0.0
 10
12.8618657065
 20
8.4384656169
 30
0.0
 10
12.8622644441
 20
8.4416250183
 30
0.0
 10
12.8627626578
 20
8.4455745749
 30
0.0
 10
12.8633606675
 20
8.4503138745
 30
0.0
 10
12.8639583972
 20
8.4550533595
 30
0.0
 10
12.8645570933
 20
8.4597922711
 30
0.0
 10
12.865053019
 20
8.4637431209
 30
0.0
 10
12.8654060184
 20
8.4665052774
 30
0.0
 10
12.8655985977
 20
8.4680890199
 30
0.0
 10
12.8657687643
 20
8.469261707
 30
0.0
 10
12.8658405694
 20
8.4704921893
 30
0.0
 10
12.8659706193
 20
8.4721126727
 30
0.0
 10
12.8661822203
 20
8.4749579116
 30
0.0
 10
12.8664928707
 20
8.4790176266
 30
0.0
 10
12.8668620475
 20
8.4838913929
 30
0.0
 10
12.8672322578
 20
8.4887645851
 30
0.0
 10
12.8676019377
 20
8.4936379655
 30
0.0
 10
12.867972706
 20
8.4985111671
 30
0.0
 10
12.8682784934
 20
8.5025726077
 30
0.0
 10
12.8684987594
 20
8.5054147718
 30
0.0
 10
12.8686149277
 20
8.5070401813
 30
0.0
 10
12.8687293721
 20
8.5082555323
 30
0.0
 10
12.8687393926
 20
8.5094850502
 30
0.0
 10
12.8687891775
 20
8.5111194658
 30
0.0
 10
12.8688593302
 20
8.5139819955
 30
0.0
 10
12.8689684227
 20
8.5180701202
 30
0.0
 10
12.8690955273
 20
8.5229763835
 30
0.0
 10
12.8692236586
 20
8.5278825179
 30
0.0
 10
12.8693514892
 20
8.5327886543
 30
0.0
 10
12.8694581616
 20
8.5368772022
 30
0.0
 10
12.8695432973
 20
8.5401477973
 30
0.0
 10
12.8696076676
 20
8.5426014127
 30
0.0
 10
12.8696596655
 20
8.5446439633
 30
0.0
 10
12.8696992895
 20
8.5460779267
 30
0.0
 10
12.8697168957
 20
8.5468908107
 30
0.0
 10
12.8697442869
 20
8.5475188509
 30
0.0
 10
12.86971745
 20
8.5480766443
 30
0.0
 10
12.8697005829
 20
8.5488448716
 30
0.0
 10
12.8696622523
 20
8.5501778531
 30
0.0
 10
12.869612102
 20
8.552088081
 30
0.0
 10
12.8695499494
 20
8.5543777997
 30
0.0
 10
12.8694677683
 20
8.5574316507
 30
0.0
 10
12.8693648041
 20
8.5612486556
 30
0.0
 10
12.8692413555
 20
8.5658292049
 30
0.0
 10
12.8691178535
 20
8.5704096744
 30
0.0
 10
12.8690150228
 20
8.5742268791
 30
0.0
 10
12.8689325747
 20
8.5772803304
 30
0.0
 10
12.8688712367
 20
8.5795712681
 30
0.0
 10
12.8688185379
 20
8.5814776826
 30
0.0
 10
12.8687847568
 20
8.5828174716
 30
0.0
 10
12.8687606003
 20
8.5835747916
 30
0.0
 10
12.8687561538
 20
8.5841660889
 30
0.0
 10
12.8686994504
 20
8.5846682938
 30
0.0
 10
12.8686420737
 20
8.5853689767
 30
0.0
 10
12.8685331717
 20
8.5865806928
 30
0.0
 10
12.8683820375
 20
8.5883192855
 30
0.0
 10
12.868198776
 20
8.5904023567
 30
0.0
 10
12.8679550912
 20
8.5931809167
 30
0.0
 10
12.8676502577
 20
8.5966537292
 30
0.0
 10
12.8672845534
 20
8.6008212662
 30
0.0
 10
12.8669188295
 20
8.6049887753
 30
0.0
 10
12.8666140449
 20
8.6084616578
 30
0.0
 10
12.8663702623
 20
8.6112400778
 30
0.0
 10
12.8662177928
 20
8.6129763262
 30
0.0
 10
12.8660960589
 20
8.6143659303
 30
0.0
 10
12.8660040965
 20
8.6154064756
 30
0.0
 10
12.8659295671
 20
8.6162788703
 30
0.0
 10
12.8658652204
 20
8.6169649583
 30
0.0
 10
12.8658298663
 20
8.6175118433
 30
0.0
 10
12.8657452498
 20
8.6179353665
 30
0.0
 10
12.8656496357
 20
8.6185431559
 30
0.0
 10
12.8655242141
 20
8.6192881081
 30
0.0
 10
12.8653762353
 20
8.620188379
 30
0.0
 10
12.8651780476
 20
8.6213865299
 30
0.0
 10
12.8649306152
 20
8.6228849753
 30
0.0
 10
12.8645345544
 20
8.625282065
 30
0.0
 10
12.8640395362
 20
8.6282785719
 30
0.0
 10
12.8634454902
 20
8.6318743198
 30
0.0
 10
12.8628514486
 20
8.6354700775
 30
0.0
 10
12.8623564195
 20
8.6384665598
 30
0.0
 10
12.8619603806
 20
8.6408636986
 30
0.0
 10
12.8617128925
 20
8.6423620192
 30
0.0
 10
12.8615148189
 20
8.6435604263
 30
0.0
 10
12.8613664915
 20
8.6444599143
 30
0.0
 10
12.8612421607
 20
8.6452073161
 30
0.0
 10
12.8611565512
 20
8.6457347589
 30
0.0
 10
12.8611054111
 20
8.6460295007
 30
0.0
 10
12.8610733107
 20
8.6462693017
 30
0.0
 10
12.8610173018
 20
8.6464374513
 30
0.0
 10
12.8609509629
 20
8.6466866435
 30
0.0
 10
12.8608309842
 20
8.6471110854
 30
0.0
 10
12.8606616174
 20
8.6477235188
 30
0.0
 10
12.8604575078
 20
8.6484558331
 30
0.0
 10
12.8601856654
 20
8.6494331622
 30
0.0
 10
12.8598457583
 20
8.6506545121
 30
0.0
 10
12.8593019652
 20
8.6526088461
 30
0.0
 10
12.8586222037
 20
8.6550517033
 30
0.0
 10
12.8578064989
 20
8.65798316
 30
0.0
 10
12.8569907902
 20
8.6609146008
 30
0.0
 10
12.8563110387
 20
8.6633574979
 30
0.0
 10
12.8557672256
 20
8.665311752
 30
0.0
 10
12.8554273691
 20
8.6665333049
 30
0.0
 10
12.855155423
 20
8.6675102174
 30
0.0
 10
12.85495163
 20
8.6682438046
 30
0.0
 10
12.8547812727
 20
8.6688522555
 30
0.0
 10
12.8546630622
 20
8.6692838067
 30
0.0
 10
12.8545938901
 20
8.6695216079
 30
0.0
 10
12.8545465839
 20
8.6697247472
 30
0.0
 10
12.8544817977
 20
8.6698331326
 30
0.0
 10
12.8544015134
 20
8.6700106976
 30
0.0
 10
12.854258175
 20
8.6703060372
 30
0.0
 10
12.8540548911
 20
8.6707360019
 30
0.0
 10
12.8538103147
 20
8.6712485134
 30
0.0
 10
12.8534844348
 20
8.6719330657
 30
0.0
 10
12.853077009
 20
8.6727883439
 30
0.0
 10
12.8524251701
 20
8.6741570196
 30
0.0
 10
12.8516103569
 20
8.6758677845
 30
0.0
 10
12.8506325877
 20
8.6779207389
 30
0.0
 10
12.8496548153
 20
8.6799736748
 30
0.0
 10
12.8488400098
 20
8.6816844857
 30
0.0
 10
12.8481881555
 20
8.6830530694
 30
0.0
 10
12.847780769
 20
8.6839085814
 30
0.0
 10
12.8474548083
 20
8.6845926539
 30
0.0
 10
12.8472104789
 20
8.6851066315
 30
0.0
 10
12.8470064221
 20
8.685532009
 30
0.0
 10
12.8468644635
 20
8.6858355374
 30
0.0
 10
12.8467819683
 20
8.6859999819
 30
0.0
 10
12.8467239733
 20
8.6861486695
 30
0.0
 10
12.8466511609
 20
8.6862004399
 30
0.0
 10
12.8465592461
 20
8.686303273
 30
0.0
 10
12.8463959872
 20
8.68646748
 30
0.0
 10
12.8461640192
 20
8.6867102961
 30
0.0
 10
12.8458851187
 20
8.6869981508
 30
0.0
 10
12.8455134395
 20
8.6873831882
 30
0.0
 10
12.8450487762
 20
8.6878640633
 30
0.0
 10
12.8443053508
 20
8.6886336992
 30
0.0
 10
12.8433760567
 20
8.6895956626
 30
0.0
 10
12.8422609093
 20
8.690750056
 30
0.0
 10
12.8411457596
 20
8.6919044304
 30
0.0
 10
12.8402164715
 20
8.6928664415
 30
0.0
 10
12.8394730341
 20
8.6936359821
 30
0.0
 10
12.8390084013
 20
8.6941170995
 30
0.0
 10
12.8386366594
 20
8.6945016396
 30
0.0
 10
12.8383579506
 20
8.6947910132
 30
0.0
 10
12.8381253829
 20
8.695029077
 30
0.0
 10
12.8379631944
 20
8.6952017679
 30
0.0
 10
12.8378695647
 20
8.6952910076
 30
0.0
 10
12.8378020202
 20
8.6953845324
 30
0.0
 10
12.8377242397
 20
8.6953763974
 30
0.0
 10
12.8376241028
 20
8.6954010108
 30
0.0
 10
12.8374471997
 20
8.6954275627
 30
0.0
 10
12.8371953508
 20
8.6954741317
 30
0.0
 10
12.8368927598
 20
8.6955263172
 30
0.0
 10
12.8364894351
 20
8.6955971893
 30
0.0
 10
12.8359852348
 20
8.6956853373
 30
0.0
 10
12.8351785391
 20
8.6958266213
 30
0.0
 10
12.834170161
 20
8.6960031408
 30
0.0
 10
12.832960111
 20
8.6962150034
 30
0.0
 10
12.8317500594
 20
8.6964268462
 30
0.0
 10
12.8307416855
 20
8.6966034153
 30
0.0
 10
12.8299349813
 20
8.6967446001
 30
0.0
 10
12.8294308028
 20
8.696833
 30
0.0
 10
12.8290274332
 20
8.696903355
 30
0.0
 10
12.8287249795
 20
8.6969571204
 30
0.0
 10
12.8284727011
 20
8.6969987465
 30
0.0
 10
12.8282965646
 20
8.6970341222
 30
0.0
 10
12.8281951995
 20
8.6970445977
 30
0.0
 10
12.8281211916
 20
8.6970798898
 30
0.0
 10
12.8280394779
 20
8.6970103097
 30
0.0
 10
12.8279332142
 20
8.6969541168
 30
0.0
 10
12.8277460004
 20
8.6968387357
 30
0.0
 10
12.8274792068
 20
8.6966828161
 30
0.0
 10
12.8271587742
 20
8.6964918986
 30
0.0
 10
12.8267316287
 20
8.6962386741
 30
0.0
 10
12.8261976633
 20
8.6959216873
 30
0.0
 10
12.8253433373
 20
8.6954147634
 30
0.0
 10
12.8242754235
 20
8.694781021
 30
0.0
 10
12.8229939296
 20
8.6940205677
 30
0.0
 10
12.821712435
 20
8.6932601043
 30
0.0
 10
12.8200037758
 20
8.6922461567
 30
0.0
 10
12.8187222813
 20
8.6914856951
 30
0.0
 10
12.8178679517
 20
8.6909787209
 30
0.0
  0
ENDSEC
  0
SECTION
  2
OBJECTS
  0
DICTIONARY
  5
C
100
AcDbDictionary
280
0
281
1
  3
ACAD_GROUP
350
D
  3
ACAD_MLINESTYLE
350
17
  3
ACAD_LAYOUT
350
1A
  3
ACAD_PLOTSETTINGS
350
19
  3
ACAD_PLOTSTYLENAME
350
E
  3
ACAD_IMAGE_DICT
350
       40A
  3
ACAD_IMAGE_VARS
350
       40B
  3
ACAD_TABLESTYLE
350
       40C
  0
IMAGEDEF_REACTOR
  5
409
100
AcDbRasterImageDefReactor
 90
2
330
28B
  0
DICTIONARY
  5
D
102
{ACAD_REACTORS
330
C
102
}
100
AcDbDictionary
280
0
281
1
  0
ACDBDICTIONARYWDFLT
  5
E
102
{ACAD_REACTORS
330
C
102
}
100
AcDbDictionary
281
1
  3
Normal
350
F
100
AcDbDictionaryWithDefault
340
F
  0
DICTIONARY
  5
40A
330
C
100
AcDbDictionary
281
1
  3
4BC_assy_2_img_1
350
       40F
  0
RASTERVARIABLES
  5
40B
330
C
100
AcDbRasterVariables
 90
0
 70
0
 71
1
 72
5
  0
DICTIONARY
  5
17
102
{ACAD_REACTORS
330
C
102
}
100
AcDbDictionary
280
0
281
1
  3
Standard
350
18
  0
DICTIONARY
  5
40C
330
C
100
AcDbDictionary
281
1
  3
Standard
350
       410
  3
Standard1
350
       411
  0
DICTIONARY
  5
19
102
{ACAD_REACTORS
330
C
102
}
100
AcDbDictionary
281
1
  0
DICTIONARY
  5
1A
102
{ACAD_REACTORS
330
C
102
}
100
AcDbDictionary
281
1
  3
Model
350
40D
  3
Layout1
350
40E
  0
ACDBPLACEHOLDER
  5
F
102
{ACAD_REACTORS
330
E
102
}
  0
MLINESTYLE
  5
18
102
{ACAD_REACTORS
330
17
102
}
100
AcDbMlineStyle
  2
STANDARD
 70
0
  3

 62
256
 51
90.0
 52
90.0
 71
2
 49
0.5
 62
256
  6
BYLAYER
 49
-0.5
 62
256
  6
BYLAYER
  0
LAYOUT
  5
40D
102
{ACAD_REACTORS
330
1A
102
}
100
AcDbPlotSettings
  1

  2
none_device
  4
ANSI_C_(22.00_x_17.00_Inches)
  6

 40
0.0
 41
0.0
 42
0.0
 43
0.0
 44
558.8
 45
431.8
 46
0.0
 47
0.0
 48
0.0
 49
0.0
140
0.0
141
0.0
142
1.0
143
1.0
 70
1024
 72
0
 73
0
 74
0
  7

 75
0
147
1.0
148
0.0
149
0.0
100
AcDbLayout
  1
Model
 70
0
 71
0
 10
0.0
 20
0.0
 11
22.0
 21
17.0
 12
0.0
 22
0.0
 32
0.0
 14
0.0
 24
0.0
 34
0.0
 15
0.0
 25
0.0
 35
0.0
146
0.0
 13
0.0
 23
0.0
 33
0.0
 16
1.0
 26
0.0
 36
0.0
 17
0.0
 27
1.0
 37
0.0
 76
0
330
20C
345
0
346
0
  0
LAYOUT
  5
40E
102
{ACAD_REACTORS
330
1A
102
}
100
AcDbPlotSettings
  1

  2
none_device
  4
ANSI_C_(22.00_x_17.00_Inches)
  6

 40
0.0
 41
0.0
 42
0.0
 43
0.0
 44
558.8
 45
431.8
 46
0.0
 47
0.0
 48
0.0
 49
0.0
140
0.0
141
0.0
142
1.0
143
1.0
 70
0
 72
0
 73
0
 74
0
  7

 75
0
147
1.0
148
0.0
149
0.0
100
AcDbLayout
  1
Layout1
 70
0
 71
1
 10
0.0
 20
0.0
 11
22.0
 21
17.0
 12
0.0
 22
0.0
 32
0.0
 14
0.0
 24
0.0
 34
0.0
 15
0.0
 25
0.0
 35
0.0
146
0.0
 13
0.0
 23
0.0
 33
0.0
 16
1.0
 26
0.0
 36
0.0
 17
0.0
 27
1.0
 37
0.0
 76
0
330
20D
345
0
346
0
  0
IMAGEDEF
  5
40F
102
{ACAD_REACTORS
330
40A
330
409
102
}
100
AcDbRasterImageDef
 90
0
  1
4BC_assy_2_img_1.png
 10
369.0
 20
92.0
 11
0.0066666667
 21
0.0066666667
280
1
281
0
  0
TABLESTYLE
  5
410
102
{ACAD_REACTORS
330
40C
330
28E
330
28F
102
}
330
40C
100
AcDbTableStyle
  3
Standard
 70
0
 71
0
 40
0.06
 41
0.06
280
1
281
1
  7
Standard
140
0.18
170
1
 62
0
 63
7
283
0
  7
Standard
140
0.18
170
1
 62
0
 63
7
283
0
  7
Standard
140
0.18
170
1
 62
0
 63
7
283
0
  0
TABLESTYLE
  5
411
102
{ACAD_REACTORS
330
40C
330
28D
102
}
330
40C
100
AcDbTableStyle
  3
Standard1
 70
1
 71
0
 40
0.06
 41
0.06
280
1
281
1
  7
Standard
140
0.18
170
1
 62
0
 63
7
283
0
  7
Standard
140
0.18
170
1
 62
0
 63
7
283
0
  7
Standard
140
0.18
170
1
 62
0
 63
7
283
0
  0
ENDSEC
  0
EOF
