999
DXF file: 3BW_assy_2.dxf
999
Pro/ENGINEER 2014200 by Parametric Technology Corporation
  0
SECTION
  2
HEADER
  9
$ACADVER
  1
AC1021
  9
$DWGCODEPAGE
  3
ANSI_1252
  9
$EXTMAX
 10
22.0
 20
17.0
 30
0.0
  9
$EXTMIN
 10
0.0
 20
0.0
 30
0.0
  9
$LIMMIN
 10
0.0
 20
0.0
  9
$LIMMAX
 10
22.0
 20
17.0
  9
$VIEWCTR
 10
11.0
 20
8.5
  9
$VIEWSIZE
 40
17.0
  9
$CLAYER
  8
0
  9
$LTSCALE
 40
1.21
  9
$CELTYPE
  6
BYLAYER
  9
$DIMSCALE
 40
1.0
  9
$DIMASZ
 40
0.1875
  9
$DIMEXO
 40
0.0625
  9
$DIMDLI
 40
0.836
  9
$DIMEXE
 40
0.125
  9
$DIMCEN
 40
0.198
  9
$DIMLFAC
 40
1.0
  9
$DIMBLK
  1
_FILLED
  9
$DIMTXT
 40
0.1
  9
$DIMTOL
 70
0
  9
$DIMLIM
 70
0
  9
$DIMTFAC
 40
1.0
  9
$DIMGAP
 40
0.09
  9
$DIMDSEP
 70
46
  9
$AUNITS
 70
0
  9
$PDMODE
 70
3
  9
$PDSIZE
 40
0.3125
  9
$HANDSEED
  5
3CA
  9
$TILEMODE
 70
1
  9
$MEASUREMENT
 70
0
  9
$INSUNITS
 70
1
  0
ENDSEC
  0
SECTION
  2
CLASSES
  0
CLASS
  1
ACDBDICTIONARYWDFLT
  2
AcDbDictionaryWithDefault
  3
AutoCAD 2000
 90
0
 91
1
280
0
281
0
  0
CLASS
  1
ACDBPLACEHOLDER
  2
AcDbPlaceHolder
  3
AutoCAD 2000
 90
0
 91
1
280
0
281
0
  0
CLASS
  1
LAYOUT
  2
AcDbLayout
  3
AutoCAD 2000
 90
0
 91
0
280
0
281
0
  0
CLASS
  1
RASTERVARIABLES
  2
AcDbRasterVariables
  3
ISM
 90
0
 91
1
280
0
281
0
  0
CLASS
  1
IMAGEDEF
  2
AcDbRasterImageDef
  3
ISM
 90
0
 91
1
280
0
281
0
  0
CLASS
  1
IMAGEDEF_REACTOR
  2
AcDbRasterImageDefReactor
  3
ISM
 90
0
 91
1
280
0
281
0
  0
CLASS
  1
IMAGE
  2
AcDbRasterImage
  3
ISM
 90
127
 91
1
280
0
281
1
  0
CLASS
  1
TABLESTYLE
  2
AcDbTableStyle
  3
ObjectDBX Classes
 90
2047
 91
1
280
0
281
0
  0
CLASS
  1
ACAD_TABLE
  2
AcDbTable
  3
ObjectDBX Classes
 90
1025
 91
3
280
0
281
1
  0
ENDSEC
  0
SECTION
  2
TABLES
  0
TABLE
  2
VPORT
  5
8
100
AcDbSymbolTable
 70
2
  0
VPORT
  5
1F4
100
AcDbSymbolTableRecord
100
AcDbViewportTableRecord
  2
*ACTIVE
 70
0
 10
0.0
 20
0.0
 11
1.0
 21
1.0
 12
11.0
 22
8.5
 13
0.0
 23
0.0
 14
1.0
 24
1.0
 15
0.0
 25
0.0
 16
0.0
 26
0.0
 36
1.0
 17
0.0
 27
0.0
 37
0.0
 40
17.0
 41
1.2941176471
 42
50.0
 43
0.0
 44
0.0
 50
0.0
 51
0.0
 71
0
 72
100
 73
1
 74
1
 75
0
 76
0
 77
0
 78
0
  0
ENDTAB
  0
TABLE
  2
LTYPE
  5
5
100
AcDbSymbolTable
 70
6
  0
LTYPE
  5
14
100
AcDbSymbolTableRecord
100
AcDbLinetypeTableRecord
  2
BYBLOCK
 70
0
  3

 72
65
 73
0
 40
0.0
  0
LTYPE
  5
15
100
AcDbSymbolTableRecord
100
AcDbLinetypeTableRecord
  2
BYLAYER
 70
0
  3

 72
65
 73
0
 40
0.0
  0
LTYPE
  5
16
100
AcDbSymbolTableRecord
100
AcDbLinetypeTableRecord
  2
CONTINUOUS
 70
64
  3
Solid line
 72
65
 73
0
 40
0.0
  0
LTYPE
  5
1F5
100
AcDbSymbolTableRecord
100
AcDbLinetypeTableRecord
  2
CENTER
 70
64
  3
____ _ ____ _ ____ _ ____ _ ____ _ ____ _ ____
 72
65
 73
4
 40
0.6
 49
0.375
 74
0
 49
-0.075
 74
0
 49
0.075
 74
0
 49
-0.075
 74
0
  0
LTYPE
  5
1F6
100
AcDbSymbolTableRecord
100
AcDbLinetypeTableRecord
  2
HIDDEN
 70
64
  3
- - - - - - - - - - - - - - - - - - - -
 72
65
 73
2
 40
0.2
 49
0.1
 74
0
 49
-0.1
 74
0
  0
LTYPE
  5
1F7
100
AcDbSymbolTableRecord
100
AcDbLinetypeTableRecord
  2
PHANTOM
 70
64
  3
_____ _ _ _____ _ _ _____ _ _ _____
 72
65
 73
6
 40
0.8
 49
0.45
 74
0
 49
-0.05
 74
0
 49
0.1
 74
0
 49
-0.05
 74
0
 49
0.1
 74
0
 49
-0.05
 74
0
  0
LTYPE
  5
1F8
100
AcDbSymbolTableRecord
100
AcDbLinetypeTableRecord
  2
DOT
 70
64
  3
. . . . . . . . . . . . . . . . . . . .
 72
65
 73
2
 40
0.2
 49
0.1
 74
0
 49
-0.1
 74
0
  0
LTYPE
  5
1F9
100
AcDbSymbolTableRecord
100
AcDbLinetypeTableRecord
  2
DASHED
 70
64
  3
- - - - - - - - - - - - - - - - - - - -
 72
65
 73
2
 40
0.2
 49
0.1
 74
0
 49
-0.1
 74
0
  0
ENDTAB
  0
TABLE
  2
LAYER
  5
2
100
AcDbSymbolTable
 70
36
  0
LAYER
  5
10
100
AcDbSymbolTableRecord
100
AcDbLayerTableRecord
  2
0
 70
0
 62
7
  6
CONTINUOUS
370
-3
390
F
  0
LAYER
  5
1FA
100
AcDbSymbolTableRecord
100
AcDbLayerTableRecord
  2
DEFAULT_1
 70
0
 62
7
  6
CENTER
370
-3
390
F
  0
LAYER
  5
1FB
100
AcDbSymbolTableRecord
100
AcDbLayerTableRecord
  2
DEFAULT_2
 70
0
 62
8
  6
HIDDEN
370
-3
390
F
  0
LAYER
  5
1FC
100
AcDbSymbolTableRecord
100
AcDbLayerTableRecord
  2
DEFAULT_3
 70
0
 62
7
  6
PHANTOM
370
-3
390
F
  0
LAYER
  5
1FD
100
AcDbSymbolTableRecord
100
AcDbLayerTableRecord
  2
01___PRT_ALL_DTM_PLN
 70
0
 62
7
  6
CONTINUOUS
370
-3
390
F
  0
LAYER
  5
1FE
100
AcDbSymbolTableRecord
100
AcDbLayerTableRecord
  2
01___PRT_DEF_DTM_PLN
 70
0
 62
7
  6
CONTINUOUS
370
-3
390
F
  0
LAYER
  5
1FF
100
AcDbSymbolTableRecord
100
AcDbLayerTableRecord
  2
02___PRT_ALL_AXES
 70
0
 62
7
  6
CONTINUOUS
370
-3
390
F
  0
LAYER
  5
200
100
AcDbSymbolTableRecord
100
AcDbLayerTableRecord
  2
03___PRT_ALL_CURVES
 70
0
 62
7
  6
CONTINUOUS
370
-3
390
F
  0
LAYER
  5
201
100
AcDbSymbolTableRecord
100
AcDbLayerTableRecord
  2
04___PRT_ALL_DTM_PNT
 70
0
 62
7
  6
CONTINUOUS
370
-3
390
F
  0
LAYER
  5
202
100
AcDbSymbolTableRecord
100
AcDbLayerTableRecord
  2
05___PRT_ALL_DTM_CSYS
 70
0
 62
7
  6
CONTINUOUS
370
-3
390
F
  0
LAYER
  5
203
100
AcDbSymbolTableRecord
100
AcDbLayerTableRecord
  2
05___PRT_DEF_DTM_CSYS
 70
0
 62
7
  6
CONTINUOUS
370
-3
390
F
  0
LAYER
  5
204
100
AcDbSymbolTableRecord
100
AcDbLayerTableRecord
  2
06___PRT_ALL_SURFS
 70
0
 62
7
  6
CONTINUOUS
370
-3
390
F
  0
LAYER
  5
205
100
AcDbSymbolTableRecord
100
AcDbLayerTableRecord
  2
DATUM_PLANES
 70
0
 62
7
  6
CONTINUOUS
370
-3
390
F
  0
LAYER
  5
206
100
AcDbSymbolTableRecord
100
AcDbLayerTableRecord
  2
PORT_AREAS
 70
0
 62
7
  6
CONTINUOUS
370
-3
390
F
  0
LAYER
  5
207
100
AcDbSymbolTableRecord
100
AcDbLayerTableRecord
  2
SUNNBOMCOSMETIC
 70
0
 62
7
  6
CONTINUOUS
370
-3
390
F
  0
LAYER
  5
208
100
AcDbSymbolTableRecord
100
AcDbLayerTableRecord
  2
SUNNBOMSTAMPING
 70
0
 62
7
  6
CONTINUOUS
370
-3
390
F
  0
LAYER
  5
209
100
AcDbSymbolTableRecord
100
AcDbLayerTableRecord
  2
THREADS
 70
0
 62
7
  6
CONTINUOUS
370
-3
390
F
  0
ENDTAB
  0
TABLE
  2
STYLE
  5
3
100
AcDbSymbolTable
 70
1
  0
STYLE
  5
11
100
AcDbSymbolTableRecord
100
AcDbTextStyleTableRecord
  2
STANDARD
 70
0
 40
0.0
 41
0.8
 50
0.0
 71
0
 42
0.2
  3
txt
  4

  0
STYLE
  5
20A
100
AcDbSymbolTableRecord
100
AcDbTextStyleTableRecord
  2
TEXTSTYLE_1
 70
0
 40
0.0
 41
0.8
 50
0.0
 71
0
 42
0.2
  3
gdt
  4

  0
ENDTAB
  0
TABLE
  2
VIEW
  5
6
100
AcDbSymbolTable
 70
0
  0
ENDTAB
  0
TABLE
  2
UCS
  5
7
100
AcDbSymbolTable
 70
0
  0
ENDTAB
  0
TABLE
  2
APPID
  5
9
100
AcDbSymbolTable
 70
1
  0
APPID
  5
20B
100
AcDbSymbolTableRecord
100
AcDbRegAppTableRecord
  2
ACAD
 70
0
  0
ENDTAB
  0
TABLE
  2
BLOCK_RECORD
  5
1
100
AcDbSymbolTable
 70
0
  0
BLOCK_RECORD
  5
20C
100
AcDbSymbolTableRecord
100
AcDbBlockTableRecord
  2
*Model_Space
  0
BLOCK_RECORD
  5
20D
100
AcDbSymbolTableRecord
100
AcDbBlockTableRecord
  2
*Paper_Space
  0
BLOCK_RECORD
  5
20E
100
AcDbSymbolTableRecord
100
AcDbBlockTableRecord
  2
SUN_FIRST_THIRD_ANGLE_BL0
  0
BLOCK_RECORD
  5
20F
100
AcDbSymbolTableRecord
100
AcDbBlockTableRecord
  2
*T1
  0
BLOCK_RECORD
  5
210
100
AcDbSymbolTableRecord
100
AcDbBlockTableRecord
  2
*T2
  0
BLOCK_RECORD
  5
211
100
AcDbSymbolTableRecord
100
AcDbBlockTableRecord
  2
*T3
  0
ENDTAB
  0
TABLE
  2
DIMSTYLE
  5
A
100
AcDbSymbolTable
 70
1
100
AcDbDimStyleTable
 71
0
  0
DIMSTYLE
105
212
100
AcDbSymbolTableRecord
100
AcDbDimStyleTableRecord
  2
STANDARD
 70
0
  3

  4

 40
1.0
 41
0.1875
 42
0.0625
 43
0.38
 44
0.125
 45
0.0
 46
0.0
 47
0.001
 48
0.001
140
0.1
141
0.09
142
0.0
143
25.4
144
1.0
145
0.0
146
1.0
147
0.09
 71
0.0
 72
0.0
 73
1
 74
1
 75
0
 76
0
 77
0
 78
4
170
0
171
2
172
0
173
0
174
0
175
0
176
0
177
0
178
0
270
2
271
3
272
3
273
2
274
2
275
0
280
0
281
0
282
0
283
1
284
4
285
0
286
0
287
3
288
0
340
11
278
46
  0
ENDTAB
  0
ENDSEC
  0
SECTION
  2
BLOCKS
  0
BLOCK
  5
20
100
AcDbEntity
  8
0
100
AcDbBlockBegin
  2
*Model_Space
 70
0
 10
0.0
 20
0.0
 30
0.0
  3
*Model_Space
  1

  0
ENDBLK
  5
21
100
AcDbEntity
  8
0
100
AcDbBlockEnd
  0
BLOCK
  5
1C
100
AcDbEntity
  8
0
100
AcDbBlockBegin
  2
*Paper_Space
 70
0
 10
0.0
 20
0.0
 30
0.0
  3
*Paper_Space
  1

  0
ENDBLK
  5
1D
100
AcDbEntity
  8
0
100
AcDbBlockEnd
  0
BLOCK
  5
213
100
AcDbEntity
  8
0
100
AcDbBlockBegin
 62
2
  6
CONTINUOUS
  2
SUN_FIRST_THIRD_ANGLE_BL0
 70
64
 10
20.4816717061
 20
1.2289683772
  3
SUN_FIRST_THIRD_ANGLE_BL0
  1

  0
TEXT
  5
214
100
AcDbEntity
  8
0
100
AcDbText
 62
2
  6
CONTINUOUS
 10
19.4750896608
 20
1.4136269581
  7
STANDARD
 40
0.08
  1
FIRST ANGLE
 41
0.8
 72
0
100
AcDbText
  0
TEXT
  5
215
100
AcDbEntity
  8
0
100
AcDbText
 62
2
  6
CONTINUOUS
 10
20.7842537513
 20
1.4047600029
  7
STANDARD
 40
0.08
  1
THIRD ANGLE
 41
0.8
 72
0
100
AcDbText
  0
LINE
  5
216
100
AcDbEntity
  8
0
100
AcDbLine
 62
7
  6
CONTINUOUS
 10
19.4767170086
 20
1.1727031207
 11
19.6334271527
 21
1.1717972817
  0
LINE
  5
217
100
AcDbEntity
  8
0
100
AcDbLine
 62
7
  6
CONTINUOUS
 10
19.6596964832
 20
1.1717972817
 11
19.6950230232
 21
1.171593082
  0
LINE
  5
218
100
AcDbEntity
  8
0
100
AcDbLine
 62
7
  6
CONTINUOUS
 10
19.7194818561
 20
1.1708914427
 11
19.8852396156
 21
1.1699333054
  0
LINE
  5
219
100
AcDbEntity
  8
0
100
AcDbLine
 62
7
  6
CONTINUOUS
 10
19.4758111696
 20
1.2723454088
 11
19.88525039
 21
1.3511534004
  0
LINE
  5
21A
100
AcDbEntity
  8
0
100
AcDbLine
 62
7
  6
CONTINUOUS
 10
19.88525039
 20
1.3511534004
 11
19.8831348489
 21
0.9851647912
  0
LINE
  5
21B
100
AcDbEntity
  8
0
100
AcDbLine
 62
7
  6
CONTINUOUS
 10
19.8831348489
 20
0.9851647912
 11
19.4767170086
 21
1.0658141206
  0
LINE
  5
21C
100
AcDbEntity
  8
0
100
AcDbLine
 62
7
  6
CONTINUOUS
 10
19.4767170086
 20
1.0658141206
 11
19.4779056764
 21
1.2714536432
  0
CIRCLE
  5
21D
100
AcDbEntity
  8
0
100
AcDbCircle
 62
7
  6
CONTINUOUS
 10
20.2068232291
 20
1.1717972817
 40
0.175742101
  0
CIRCLE
  5
21E
100
AcDbEntity
  8
0
100
AcDbCircle
 62
7
  6
CONTINUOUS
 10
20.2068232291
 20
1.1717972817
 40
0.1005522074
  0
LINE
  5
21F
100
AcDbEntity
  8
0
100
AcDbLine
 62
7
  6
CONTINUOUS
 10
20.2077290681
 20
1.3756110529
 11
20.2071171714
 21
1.2379342989
  0
LINE
  5
220
100
AcDbEntity
  8
0
100
AcDbLine
 62
7
  6
CONTINUOUS
 10
20.2077290681
 20
1.2016899681
 11
20.2074674401
 21
1.1428236749
  0
LINE
  5
221
100
AcDbEntity
  8
0
100
AcDbLine
 62
7
  6
CONTINUOUS
 10
20.208634907
 20
1.101141841
 11
20.2080230104
 21
0.963465087
  0
LINE
  5
222
100
AcDbEntity
  8
0
100
AcDbLine
 62
7
  6
CONTINUOUS
 10
20.0066328138
 20
1.1745147986
 11
20.1443095678
 21
1.1739029019
  0
LINE
  5
223
100
AcDbEntity
  8
0
100
AcDbLine
 62
7
  6
CONTINUOUS
 10
20.1832714155
 20
1.1727031207
 11
20.238153505
 21
1.172335442
  0
LINE
  5
224
100
AcDbEntity
  8
0
100
AcDbLine
 62
7
  6
CONTINUOUS
 10
20.2756669918
 20
1.1717972817
 11
20.407916871
 21
1.1712095044
  0
CIRCLE
  5
225
100
AcDbEntity
  8
0
100
AcDbCircle
 62
7
  6
CONTINUOUS
 10
20.7509457401
 20
1.1693297793
 40
0.1722024983
  0
CIRCLE
  5
226
100
AcDbEntity
  8
0
100
AcDbCircle
 62
7
  6
CONTINUOUS
 10
20.7509457401
 20
1.1693297793
 40
0.0985164967
  0
LINE
  5
227
100
AcDbEntity
  8
0
100
AcDbLine
 62
7
  6
CONTINUOUS
 10
20.7169767782
 20
1.170462078
 11
20.7825395137
 21
1.1682766535
  0
LINE
  5
228
100
AcDbEntity
  8
0
100
AcDbLine
 62
7
  6
CONTINUOUS
 10
20.8177513651
 20
1.1693297793
 11
20.947965719
 21
1.1693297793
  0
LINE
  5
229
100
AcDbEntity
  8
0
100
AcDbLine
 62
7
  6
CONTINUOUS
 10
20.6875370113
 20
1.170462078
 11
20.5573226574
 21
1.170462078
  0
LINE
  5
22A
100
AcDbEntity
  8
0
100
AcDbLine
 62
7
  6
CONTINUOUS
 10
20.7486811426
 20
1.1987695462
 11
20.7486811426
 21
1.1432869085
  0
LINE
  5
22B
100
AcDbEntity
  8
0
100
AcDbLine
 62
7
  6
CONTINUOUS
 10
20.7498134414
 20
1.1059210505
 11
20.7498134414
 21
0.9757066966
  0
LINE
  5
22C
100
AcDbEntity
  8
0
100
AcDbLine
 62
7
  6
CONTINUOUS
 10
20.7486811426
 20
1.2338708068
 11
20.7486811426
 21
1.3640851607
  0
LINE
  5
22D
100
AcDbEntity
  8
0
100
AcDbLine
 62
7
  6
CONTINUOUS
 10
21.0702539817
 20
1.2701043662
 11
21.4790138229
 21
1.3448360823
  0
LINE
  5
22E
100
AcDbEntity
  8
0
100
AcDbLine
 62
7
  6
CONTINUOUS
 10
21.4790138229
 20
1.3448360823
 11
21.4790138229
 21
0.9779712941
  0
LINE
  5
22F
100
AcDbEntity
  8
0
100
AcDbLine
 62
7
  6
CONTINUOUS
 10
21.4790138229
 20
0.9779712941
 11
21.069121683
 21
1.0617614
  0
LINE
  5
230
100
AcDbEntity
  8
0
100
AcDbLine
 62
7
  6
CONTINUOUS
 10
21.0702539817
 20
1.2701043662
 11
21.069121683
 21
1.0617614
  0
LINE
  5
231
100
AcDbEntity
  8
0
100
AcDbLine
 62
7
  6
CONTINUOUS
 10
21.4790138229
 20
1.1693297793
 11
21.3159628059
 21
1.1693297793
  0
LINE
  5
232
100
AcDbEntity
  8
0
100
AcDbLine
 62
7
  6
CONTINUOUS
 10
21.2876553377
 20
1.1693297793
 11
21.2502894796
 21
1.1693297793
  0
LINE
  5
233
100
AcDbEntity
  8
0
100
AcDbLine
 62
7
  6
CONTINUOUS
 10
21.2208497126
 20
1.1659328831
 11
21.0713862804
 21
1.1659328831
  0
LINE
  5
234
100
AcDbEntity
  8
0
100
AcDbLine
 62
7
  6
CONTINUOUS
 10
20.4796138713
 20
1.5284908897
 11
20.4766766948
 21
0.9294458646
  0
ENDBLK
  5
235
100
AcDbEntity
  8
0
  6
BYBLOCK
 62
0
100
AcDbBlockEnd
  0
BLOCK
  5
236
100
AcDbEntity
  8
0
100
AcDbBlockBegin
  2
*T1
 70
1
 10
0.0
 20
0.0
  3
*T1
  1

  0
LINE
  5
237
100
AcDbEntity
  8
0
100
AcDbLine
 62
2
  6
CONTINUOUS
 10
9.275
 20
0.0
 11
-0.0
 21
0.0
  0
LINE
  5
238
100
AcDbEntity
  8
0
100
AcDbLine
 62
2
  6
CONTINUOUS
 10
9.275
 20
0.0
 11
9.275
 21
1.25
  0
LINE
  5
239
100
AcDbEntity
  8
0
100
AcDbLine
 62
2
  6
CONTINUOUS
 10
9.275
 20
0.625
 11
-0.0
 21
0.625
  0
LINE
  5
23A
100
AcDbEntity
  8
0
100
AcDbLine
 62
2
  6
CONTINUOUS
 10
9.275
 20
1.25
 11
-0.0
 21
1.25
  0
LINE
  5
23B
100
AcDbEntity
  8
0
100
AcDbLine
 62
2
  6
CONTINUOUS
 10
6.8
 20
0.0
 11
6.8
 21
1.25
  0
LINE
  5
23C
100
AcDbEntity
  8
0
100
AcDbLine
 62
2
  6
CONTINUOUS
 10
6.4
 20
0.0
 11
6.4
 21
0.625
  0
LINE
  5
23D
100
AcDbEntity
  8
0
100
AcDbLine
 62
2
  6
CONTINUOUS
 10
5.9
 20
0.0
 11
5.9
 21
0.625
  0
LINE
  5
23E
100
AcDbEntity
  8
0
100
AcDbLine
 62
2
  6
CONTINUOUS
 10
5.2
 20
0.0
 11
5.2
 21
0.625
  0
LINE
  5
23F
100
AcDbEntity
  8
0
100
AcDbLine
 62
2
  6
CONTINUOUS
 10
4.1
 20
0.0
 11
4.1
 21
1.25
  0
LINE
  5
240
100
AcDbEntity
  8
0
100
AcDbLine
 62
2
  6
CONTINUOUS
 10
-0.0
 20
0.0
 11
-0.0
 21
1.25
  0
MTEXT
  5
241
100
AcDbEntity
  8
0
100
AcDbMText
 62
2
  6
CONTINUOUS
  7
STANDARD
 71
2
 72
1
 10
6.6
 20
0.325
 30
0.0
 11
1.0
 21
0.0
 31
0.0
 44
0.9
  1
2
 40
0.125
 41
0.2
  0
MTEXT
  5
242
100
AcDbEntity
  8
0
100
AcDbMText
 62
2
  6
CONTINUOUS
  7
STANDARD
 71
2
 72
1
 10
6.15
 20
0.325
 30
0.0
 11
1.0
 21
0.0
 31
0.0
 44
0.9
  1
C
 40
0.125
 41
0.2
  0
MTEXT
  5
243
100
AcDbEntity
  8
0
100
AcDbMText
 62
2
  6
CONTINUOUS
  7
STANDARD
 71
2
 72
1
 10
5.55
 20
0.325
 30
0.0
 11
1.0
 21
0.0
 31
0.0
 44
0.9
  1
1.000
 40
0.125
 41
1.0
  0
MTEXT
  5
244
100
AcDbEntity
  8
0
100
AcDbMText
 62
2
  6
CONTINUOUS
  7
STANDARD
 71
2
 72
1
 10
4.65
 20
0.325
 30
0.0
 11
1.0
 21
0.0
 31
0.0
 44
0.9
  1
Jan-22-20
 40
0.125
 41
1.8
  0
MTEXT
  5
245
100
AcDbEntity
  8
0
100
AcDbMText
 62
2
  6
CONTINUOUS
  7
STANDARD
 71
2
 72
1
 10
2.05
 20
0.4625
 30
0.0
 11
1.0
 21
0.0
 31
0.0
 44
0.9
  1
T-2A Line mount\PCushion lock with shuttle
 40
0.125
 41
5.0
  0
MTEXT
  5
246
100
AcDbEntity
  8
0
100
AcDbMText
 62
2
  6
CONTINUOUS
  7
STANDARD
 71
1
 72
1
 10
6.45
 20
0.5625
 30
0.0
 11
1.0
 21
0.0
 31
0.0
 44
0.9
  1
SHEET
 40
0.06
 41
0.48
  0
MTEXT
  5
247
100
AcDbEntity
  8
0
100
AcDbMText
 62
2
  6
CONTINUOUS
  7
STANDARD
 71
1
 72
1
 10
5.95
 20
0.5625
 30
0.0
 11
1.0
 21
0.0
 31
0.0
 44
0.9
  1
DWG SIZE
 40
0.06
 41
0.768
  0
MTEXT
  5
248
100
AcDbEntity
  8
0
100
AcDbMText
 62
2
  6
CONTINUOUS
  7
STANDARD
 71
1
 72
1
 10
5.25
 20
0.5625
 30
0.0
 11
1.0
 21
0.0
 31
0.0
 44
0.9
  1
SCALE
 40
0.06
 41
0.48
  0
MTEXT
  5
249
100
AcDbEntity
  8
0
100
AcDbMText
 62
2
  6
CONTINUOUS
  7
STANDARD
 71
1
 72
1
 10
4.15
 20
0.5625
 30
0.0
 11
1.0
 21
0.0
 31
0.0
 44
0.9
  1
DATE
 40
0.06
 41
0.384
  0
MTEXT
  5
24A
100
AcDbEntity
  8
0
100
AcDbMText
 62
2
  6
CONTINUOUS
  7
STANDARD
 71
1
 72
1
 10
0.05
 20
0.5625
 30
0.0
 11
1.0
 21
0.0
 31
0.0
 44
0.9
  1
DESCRIPTION
 40
0.06
 41
1.056
  0
MTEXT
  5
24B
100
AcDbEntity
  8
0
100
AcDbMText
 62
2
  6
CONTINUOUS
  7
STANDARD
 71
2
 72
1
 10
5.45
 20
1.0375
 30
0.0
 11
1.0
 21
0.0
 31
0.0
 44
0.9
  1
ALL DIMENSIONS IN INCH\PVIEWS ARE THIRD ANGLE
 40
0.12
 41
4.224
  0
MTEXT
  5
24C
100
AcDbEntity
  8
0
100
AcDbMText
 62
2
  6
CONTINUOUS
  7
STANDARD
 71
2
 72
1
 10
2.05
 20
0.95
 30
0.0
 11
1.0
 21
0.0
 31
0.0
 44
0.9
  1
3BW
 40
0.125
 41
0.6
  0
MTEXT
  5
24D
100
AcDbEntity
  8
0
100
AcDbMText
 62
2
  6
CONTINUOUS
  7
STANDARD
 71
1
 72
1
 10
0.05
 20
1.1875
 30
0.0
 11
1.0
 21
0.0
 31
0.0
 44
0.9
  1
MODEL
 40
0.06
 41
0.48
  0
ENDBLK
  5
24E
100
AcDbEntity
  8
0
  6
BYBLOCK
 62
0
100
AcDbBlockEnd
  0
BLOCK
  5
24F
100
AcDbEntity
  8
0
100
AcDbBlockBegin
  2
*T2
 70
1
 10
0.0
 20
0.0
  3
*T2
  1

  0
LINE
  5
250
100
AcDbEntity
  8
0
100
AcDbLine
 62
2
  6
CONTINUOUS
 10
0.0
 20
0.0
 11
9.055
 21
0.0
  0
LINE
  5
251
100
AcDbEntity
  8
0
100
AcDbLine
 62
2
  6
CONTINUOUS
 10
0.0
 20
0.0
 11
0.0
 21
-2.594
  0
LINE
  5
252
100
AcDbEntity
  8
0
100
AcDbLine
 62
2
  6
CONTINUOUS
 10
0.0
 20
-0.344
 11
9.055
 21
-0.344
  0
LINE
  5
253
100
AcDbEntity
  8
0
100
AcDbLine
 62
2
  6
CONTINUOUS
 10
0.0
 20
-0.594
 11
9.055
 21
-0.594
  0
LINE
  5
254
100
AcDbEntity
  8
0
100
AcDbLine
 62
2
  6
CONTINUOUS
 10
0.0
 20
-0.844
 11
9.055
 21
-0.844
  0
LINE
  5
255
100
AcDbEntity
  8
0
100
AcDbLine
 62
2
  6
CONTINUOUS
 10
0.0
 20
-1.094
 11
9.055
 21
-1.094
  0
LINE
  5
256
100
AcDbEntity
  8
0
100
AcDbLine
 62
2
  6
CONTINUOUS
 10
0.0
 20
-1.344
 11
9.055
 21
-1.344
  0
LINE
  5
257
100
AcDbEntity
  8
0
100
AcDbLine
 62
2
  6
CONTINUOUS
 10
0.0
 20
-1.594
 11
9.055
 21
-1.594
  0
LINE
  5
258
100
AcDbEntity
  8
0
100
AcDbLine
 62
2
  6
CONTINUOUS
 10
0.0
 20
-1.844
 11
9.055
 21
-1.844
  0
LINE
  5
259
100
AcDbEntity
  8
0
100
AcDbLine
 62
2
  6
CONTINUOUS
 10
0.0
 20
-2.094
 11
9.055
 21
-2.094
  0
LINE
  5
25A
100
AcDbEntity
  8
0
100
AcDbLine
 62
2
  6
CONTINUOUS
 10
0.0
 20
-2.344
 11
9.055
 21
-2.344
  0
LINE
  5
25B
100
AcDbEntity
  8
0
100
AcDbLine
 62
2
  6
CONTINUOUS
 10
0.0
 20
-2.594
 11
9.055
 21
-2.594
  0
LINE
  5
25C
100
AcDbEntity
  8
0
100
AcDbLine
 62
2
  6
CONTINUOUS
 10
3.055
 20
0.0
 11
3.055
 21
-2.594
  0
LINE
  5
25D
100
AcDbEntity
  8
0
100
AcDbLine
 62
2
  6
CONTINUOUS
 10
9.055
 20
0.0
 11
9.055
 21
-2.594
  0
MTEXT
  5
25E
100
AcDbEntity
  8
0
100
AcDbMText
 62
2
  6
CONTINUOUS
  7
STANDARD
 71
2
 72
1
 10
1.5275
 20
-0.0995
 30
0.0
 11
1.0
 21
0.0
 31
0.0
 44
0.9
  1
Technical Data
 40
0.145
 41
3.248
  0
MTEXT
  5
25F
100
AcDbEntity
  8
0
100
AcDbMText
 62
2
  6
CONTINUOUS
  7
STANDARD
 71
2
 72
1
 10
4.555
 20
-0.0995
 30
0.0
 11
1.0
 21
0.0
 31
0.0
 44
0.9
  1
U.S. Units
 40
0.145
 41
2.32
  0
MTEXT
  5
260
100
AcDbEntity
  8
0
100
AcDbMText
 62
2
  6
CONTINUOUS
  7
STANDARD
 71
2
 72
1
 10
7.555
 20
-0.0995
 30
0.0
 11
1.0
 21
0.0
 31
0.0
 44
0.9
  1
Metric Units
 40
0.145
 41
2.784
  0
MTEXT
  5
261
100
AcDbEntity
  8
0
100
AcDbMText
 62
2
  6
CONTINUOUS
  7
STANDARD
 71
2
 72
1
 10
1.5275
 20
-0.4065
 30
0.0
 11
1.0
 21
0.0
 31
0.0
 44
0.9
  1
Cavity
 40
0.125
 41
1.2
  0
MTEXT
  5
262
100
AcDbEntity
  8
0
100
AcDbMText
 62
2
  6
CONTINUOUS
  7
STANDARD
 71
2
 72
1
 10
6.055
 20
-0.4065
 30
0.0
 11
1.0
 21
0.0
 31
0.0
 44
0.9
  1
T-2A
 40
0.125
 41
0.8
  0
MTEXT
  5
263
100
AcDbEntity
  8
0
100
AcDbMText
 62
2
  6
CONTINUOUS
  7
STANDARD
 71
2
 72
1
 10
1.5275
 20
-0.6565
 30
0.0
 11
1.0
 21
0.0
 31
0.0
 44
0.9
  1
Body Features
 40
0.125
 41
2.6
  0
MTEXT
  5
264
100
AcDbEntity
  8
0
100
AcDbMText
 62
2
  6
CONTINUOUS
  7
STANDARD
 71
2
 72
1
 10
6.055
 20
-0.6565
 30
0.0
 11
1.0
 21
0.0
 31
0.0
 44
0.9
  1
Cushion lock with shuttle
 40
0.125
 41
5.0
  0
MTEXT
  5
265
100
AcDbEntity
  8
0
100
AcDbMText
 62
2
  6
CONTINUOUS
  7
STANDARD
 71
2
 72
1
 10
1.5275
 20
-0.9065
 30
0.0
 11
1.0
 21
0.0
 31
0.0
 44
0.9
  1
Body Type
 40
0.125
 41
1.8
  0
MTEXT
  5
266
100
AcDbEntity
  8
0
100
AcDbMText
 62
2
  6
CONTINUOUS
  7
STANDARD
 71
2
 72
1
 10
6.055
 20
-0.9065
 30
0.0
 11
1.0
 21
0.0
 31
0.0
 44
0.9
  1
Line mount
 40
0.125
 41
2.0
  0
MTEXT
  5
267
100
AcDbEntity
  8
0
100
AcDbMText
 62
2
  6
CONTINUOUS
  7
STANDARD
 71
2
 72
1
 10
1.5275
 20
-1.1565
 30
0.0
 11
1.0
 21
0.0
 31
0.0
 44
0.9
  1
Interface
 40
0.125
 41
1.8
  0
MTEXT
  5
268
100
AcDbEntity
  8
0
100
AcDbMText
 62
2
  6
CONTINUOUS
  7
STANDARD
 71
2
 72
1
 10
6.055
 20
-1.1565
 30
0.0
 11
1.0
 21
0.0
 31
0.0
 44
0.9
  1
None
 40
0.125
 41
0.8
  0
MTEXT
  5
269
100
AcDbEntity
  8
0
100
AcDbMText
 62
2
  6
CONTINUOUS
  7
STANDARD
 71
2
 72
1
 10
1.5275
 20
-1.4065
 30
0.0
 11
1.0
 21
0.0
 31
0.0
 44
0.9
  1
Open Cavity Quantity
 40
0.125
 41
4.0
  0
MTEXT
  5
26A
100
AcDbEntity
  8
0
100
AcDbMText
 62
2
  6
CONTINUOUS
  7
STANDARD
 71
2
 72
1
 10
6.055
 20
-1.4065
 30
0.0
 11
1.0
 21
0.0
 31
0.0
 44
0.9
  1
2
 40
0.125
 41
0.2
  0
MTEXT
  5
26B
100
AcDbEntity
  8
0
100
AcDbMText
 62
2
  6
CONTINUOUS
  7
STANDARD
 71
2
 72
1
 10
1.5275
 20
-1.6565
 30
0.0
 11
1.0
 21
0.0
 31
0.0
 44
0.9
  1
Weight
 40
0.125
 41
1.2
  0
MTEXT
  5
26C
100
AcDbEntity
  8
0
100
AcDbMText
 62
2
  6
CONTINUOUS
  7
STANDARD
 71
2
 72
1
 10
4.555
 20
-1.6565
 30
0.0
 11
1.0
 21
0.0
 31
0.0
 44
0.9
  1
6.553 lb.
 40
0.125
 41
1.8
  0
MTEXT
  5
26D
100
AcDbEntity
  8
0
100
AcDbMText
 62
2
  6
CONTINUOUS
  7
STANDARD
 71
2
 72
1
 10
7.555
 20
-1.6565
 30
0.0
 11
1.0
 21
0.0
 31
0.0
 44
0.9
  1
2,973 kg.
 40
0.125
 41
1.8
  0
MTEXT
  5
26E
100
AcDbEntity
  8
0
100
AcDbMText
 62
2
  6
CONTINUOUS
  7
STANDARD
 71
2
 72
1
 10
1.5275
 20
-1.9065
 30
0.0
 11
1.0
 21
0.0
 31
0.0
 44
0.9
  1
Mounting Hole Diameter
 40
0.125
 41
4.4
  0
MTEXT
  5
26F
100
AcDbEntity
  8
0
100
AcDbMText
 62
2
  6
CONTINUOUS
  7
STANDARD
 71
2
 72
1
 10
4.555
 20
-1.9065
 30
0.0
 11
1.0
 21
0.0
 31
0.0
 44
0.9
  1
.42 in.
 40
0.125
 41
1.4
  0
MTEXT
  5
270
100
AcDbEntity
  8
0
100
AcDbMText
 62
2
  6
CONTINUOUS
  7
STANDARD
 71
2
 72
1
 10
7.555
 20
-1.9065
 30
0.0
 11
1.0
 21
0.0
 31
0.0
 44
0.9
  1
10,7 mm
 40
0.125
 41
1.4
  0
MTEXT
  5
271
100
AcDbEntity
  8
0
100
AcDbMText
 62
2
  6
CONTINUOUS
  7
STANDARD
 71
2
 72
1
 10
1.5275
 20
-2.1565
 30
0.0
 11
1.0
 21
0.0
 31
0.0
 44
0.9
  1
Mounting Hole Depth
 40
0.125
 41
3.8
  0
MTEXT
  5
272
100
AcDbEntity
  8
0
100
AcDbMText
 62
2
  6
CONTINUOUS
  7
STANDARD
 71
2
 72
1
 10
6.055
 20
-2.1565
 30
0.0
 11
1.0
 21
0.0
 31
0.0
 44
0.9
  1
Through
 40
0.125
 41
1.4
  0
MTEXT
  5
273
100
AcDbEntity
  8
0
100
AcDbMText
 62
2
  6
CONTINUOUS
  7
STANDARD
 71
2
 72
1
 10
1.5275
 20
-2.4065
 30
0.0
 11
1.0
 21
0.0
 31
0.0
 44
0.9
  1
Mounting Hole Quantity
 40
0.125
 41
4.4
  0
MTEXT
  5
274
100
AcDbEntity
  8
0
100
AcDbMText
 62
2
  6
CONTINUOUS
  7
STANDARD
 71
2
 72
1
 10
6.055
 20
-2.4065
 30
0.0
 11
1.0
 21
0.0
 31
0.0
 44
0.9
  1
2
 40
0.125
 41
0.2
  0
ENDBLK
  5
275
100
AcDbEntity
  8
0
  6
BYBLOCK
 62
0
100
AcDbBlockEnd
  0
BLOCK
  5
276
100
AcDbEntity
  8
0
100
AcDbBlockBegin
  2
*T3
 70
1
 10
0.0
 20
0.0
  3
*T3
  1

  0
LINE
  5
277
100
AcDbEntity
  8
0
100
AcDbLine
 62
2
  6
CONTINUOUS
 10
0.0
 20
0.0
 11
4.6
 21
0.0
  0
LINE
  5
278
100
AcDbEntity
  8
0
100
AcDbLine
 62
2
  6
CONTINUOUS
 10
0.0
 20
0.0
 11
0.0
 21
-1.43775
  0
LINE
  5
279
100
AcDbEntity
  8
0
100
AcDbLine
 62
2
  6
CONTINUOUS
 10
0.0
 20
-0.34375
 11
4.6
 21
-0.34375
  0
LINE
  5
27A
100
AcDbEntity
  8
0
100
AcDbLine
 62
2
  6
CONTINUOUS
 10
0.0
 20
-0.68775
 11
4.6
 21
-0.68775
  0
LINE
  5
27B
100
AcDbEntity
  8
0
100
AcDbLine
 62
2
  6
CONTINUOUS
 10
0.0
 20
-0.93775
 11
4.6
 21
-0.93775
  0
LINE
  5
27C
100
AcDbEntity
  8
0
100
AcDbLine
 62
2
  6
CONTINUOUS
 10
0.0
 20
-1.18775
 11
4.6
 21
-1.18775
  0
LINE
  5
27D
100
AcDbEntity
  8
0
100
AcDbLine
 62
2
  6
CONTINUOUS
 10
0.0
 20
-1.43775
 11
4.6
 21
-1.43775
  0
LINE
  5
27E
100
AcDbEntity
  8
0
100
AcDbLine
 62
2
  6
CONTINUOUS
 10
1.3
 20
-0.34375
 11
1.3
 21
-1.43775
  0
LINE
  5
27F
100
AcDbEntity
  8
0
100
AcDbLine
 62
2
  6
CONTINUOUS
 10
3.3
 20
-0.34375
 11
3.3
 21
-1.43775
  0
LINE
  5
280
100
AcDbEntity
  8
0
100
AcDbLine
 62
2
  6
CONTINUOUS
 10
4.6
 20
0.0
 11
4.6
 21
-1.43775
  0
MTEXT
  5
281
100
AcDbEntity
  8
0
100
AcDbMText
 62
2
  6
CONTINUOUS
  7
STANDARD
 71
2
 72
1
 10
2.3
 20
-0.099375
 30
0.0
 11
1.0
 21
0.0
 31
0.0
 44
0.9
  1
Port Headings
 40
0.145
 41
3.016
  0
MTEXT
  5
282
100
AcDbEntity
  8
0
100
AcDbMText
 62
2
  6
CONTINUOUS
  7
STANDARD
 71
2
 72
1
 10
0.65
 20
-0.44325
 30
0.0
 11
1.0
 21
0.0
 31
0.0
 44
0.9
  1
Product
 40
0.145
 41
1.624
  0
MTEXT
  5
283
100
AcDbEntity
  8
0
100
AcDbMText
 62
2
  6
CONTINUOUS
  7
STANDARD
 71
2
 72
1
 10
2.3
 20
-0.44325
 30
0.0
 11
1.0
 21
0.0
 31
0.0
 44
0.9
  1
Port
 40
0.145
 41
0.928
  0
MTEXT
  5
284
100
AcDbEntity
  8
0
100
AcDbMText
 62
2
  6
CONTINUOUS
  7
STANDARD
 71
2
 72
1
 10
3.95
 20
-0.44325
 30
0.0
 11
1.0
 21
0.0
 31
0.0
 44
0.9
  1
Size
 40
0.145
 41
0.928
  0
MTEXT
  5
285
100
AcDbEntity
  8
0
100
AcDbMText
 62
2
  6
CONTINUOUS
  7
STANDARD
 71
2
 72
1
 10
0.65
 20
-0.75025
 30
0.0
 11
1.0
 21
0.0
 31
0.0
 44
0.9
  1
3BW
 40
0.125
 41
0.6
  0
MTEXT
  5
286
100
AcDbEntity
  8
0
100
AcDbMText
 62
2
  6
CONTINUOUS
  7
STANDARD
 71
2
 72
1
 10
2.3
 20
-0.75025
 30
0.0
 11
1.0
 21
0.0
 31
0.0
 44
0.9
  1
Ports C1, C2, V1, V2
 40
0.125
 41
4.0
  0
MTEXT
  5
287
100
AcDbEntity
  8
0
100
AcDbMText
 62
2
  6
CONTINUOUS
  7
STANDARD
 71
2
 72
1
 10
3.95
 20
-0.75025
 30
0.0
 11
1.0
 21
0.0
 31
0.0
 44
0.9
  1
3/4" BSPP
 40
0.125
 41
1.8
  0
MTEXT
  5
288
100
AcDbEntity
  8
0
100
AcDbMText
 62
2
  6
CONTINUOUS
  7
STANDARD
 71
2
 72
1
 10
0.65
 20
-1.00025
 30
0.0
 11
1.0
 21
0.0
 31
0.0
 44
0.9
  1
3BW
 40
0.125
 41
0.6
  0
MTEXT
  5
289
100
AcDbEntity
  8
0
100
AcDbMText
 62
2
  6
CONTINUOUS
  7
STANDARD
 71
2
 72
1
 10
2.3
 20
-1.00025
 30
0.0
 11
1.0
 21
0.0
 31
0.0
 44
0.9
  1
Port S
 40
0.125
 41
1.2
  0
MTEXT
  5
28A
100
AcDbEntity
  8
0
100
AcDbMText
 62
2
  6
CONTINUOUS
  7
STANDARD
 71
2
 72
1
 10
3.95
 20
-1.00025
 30
0.0
 11
1.0
 21
0.0
 31
0.0
 44
0.9
  1
1/4" BSPP
 40
0.125
 41
1.8
  0
MTEXT
  5
28B
100
AcDbEntity
  8
0
100
AcDbMText
 62
2
  6
CONTINUOUS
  7
STANDARD
 71
2
 72
1
 10
0.65
 20
-1.25025
 30
0.0
 11
1.0
 21
0.0
 31
0.0
 44
0.9
  1
3BW
 40
0.125
 41
0.6
  0
MTEXT
  5
28C
100
AcDbEntity
  8
0
100
AcDbMText
 62
2
  6
CONTINUOUS
  7
STANDARD
 71
2
 72
1
 10
2.3
 20
-1.25025
 30
0.0
 11
1.0
 21
0.0
 31
0.0
 44
0.9
  1
Port T
 40
0.125
 41
1.2
  0
MTEXT
  5
28D
100
AcDbEntity
  8
0
100
AcDbMText
 62
2
  6
CONTINUOUS
  7
STANDARD
 71
2
 72
1
 10
3.95
 20
-1.25025
 30
0.0
 11
1.0
 21
0.0
 31
0.0
 44
0.9
  1
3/4" BSPP
 40
0.125
 41
1.8
  0
ENDBLK
  5
28E
100
AcDbEntity
  8
0
  6
BYBLOCK
 62
0
100
AcDbBlockEnd
  0
ENDSEC
  0
SECTION
  2
ENTITIES
  0
IMAGE
  5
28F
100
AcDbEntity
  8
0
100
AcDbRasterImage
 62
7
  6
CONTINUOUS
 10
19.2297077316
 20
0.3094318264
 30
0.0
 11
0.0066666667
 21
0.0
 31
0.0
 12
0.0
 22
0.0066666667
 32
0.0
 13
369.0
 23
92.0
340
       3C7
 70
9
280
0
281
50
282
50
283
0
360
       3C1
 71
1
 91
2
 14
-0.5
 24
-0.5
 14
368.5
 24
91.5
  0
INSERT
  5
290
100
AcDbEntity
  8
0
100
AcDbBlockReference
 62
2
  6
CONTINUOUS
  2
SUN_FIRST_THIRD_ANGLE_BL0
 10
20.4816717061
 20
1.2289683772
  0
ACAD_TABLE
  5
291
100
AcDbEntity
  8
0
 62
2
  6
CONTINUOUS
100
AcDbBlockReference
  2
*T1
 10
12.42375
 20
0.30125
 30
0.0
100
AcDbTable
342
       3C9
343
20F
 11
1.0
 21
0.0
 31
0.0
 90
6
 91
4
 92
6
 93
20
 94
0
 95
0
 96
0
 70
1
 41
0.0
141
0.525
141
0.1
141
0.525
141
0.1
142
4.1
142
1.1
142
0.7
142
0.5
142
0.4
142
2.475
171
1
172
0
173
0
174
0
175
1
176
1
 91
33
178
0
145
0.0
301
CELL_VALUE
 90
4
  1
T-2A Line mount\PCushion lock with shuttle
304
ACVALUE_END
170
2
140
0.125
171
1
172
0
173
0
174
0
175
1
176
1
 91
33
178
0
145
0.0
301
CELL_VALUE
 90
4
  1
Jan-22-20
304
ACVALUE_END
170
5
140
0.125
171
1
172
0
173
0
174
0
175
1
176
1
 91
33
178
0
145
0.0
301
CELL_VALUE
 90
4
  1
1.000
304
ACVALUE_END
170
5
140
0.125
171
1
172
0
173
0
174
0
175
1
176
1
 91
33
178
0
145
0.0
301
CELL_VALUE
 90
4
  1
C
304
ACVALUE_END
170
5
140
0.125
171
1
172
0
173
0
174
0
175
1
176
1
 91
33
178
0
145
0.0
301
CELL_VALUE
 90
4
  1
2
304
ACVALUE_END
170
5
140
0.125
171
1
172
0
173
0
174
0
175
1
176
1
 91
33
178
0
145
0.0
301
CELL_VALUE
 90
4
  1
 
304
ACVALUE_END
170
1
140
0.125
171
1
172
0
173
0
174
0
175
1
176
1
 91
33
178
0
145
0.0
301
CELL_VALUE
 90
4
  1
DESCRIPTION
304
ACVALUE_END
170
1
140
0.06
171
1
172
0
173
0
174
0
175
1
176
1
 91
33
178
0
145
0.0
301
CELL_VALUE
 90
4
  1
DATE
304
ACVALUE_END
170
1
140
0.06
171
1
172
0
173
0
174
0
175
1
176
1
 91
33
178
0
145
0.0
301
CELL_VALUE
 90
4
  1
SCALE
304
ACVALUE_END
170
1
140
0.06
171
1
172
0
173
0
174
0
175
1
176
1
 91
33
178
0
145
0.0
301
CELL_VALUE
 90
4
  1
DWG SIZE
304
ACVALUE_END
170
1
140
0.06
171
1
172
0
173
0
174
0
175
1
176
1
 91
33
178
0
145
0.0
301
CELL_VALUE
 90
4
  1
SHEET
304
ACVALUE_END
170
1
140
0.06
171
1
172
0
173
0
174
0
175
1
176
1
 91
33
178
0
145
0.0
301
CELL_VALUE
 90
4
  1
 
304
ACVALUE_END
170
1
140
0.125
171
1
172
0
173
0
174
0
175
1
176
1
 91
33
178
0
145
0.0
301
CELL_VALUE
 90
4
  1
3BW
304
ACVALUE_END
170
5
140
0.125
171
1
172
0
173
0
174
0
175
4
176
1
 91
33
178
0
145
0.0
301
CELL_VALUE
 90
4
  1
ALL DIMENSIONS IN INCH\PVIEWS ARE THIRD ANGLE
304
ACVALUE_END
170
5
140
0.12
171
1
172
0
173
1
174
0
175
1
176
1
 91
1
178
0
145
0.0
170
1
171
1
172
0
173
1
174
0
175
1
176
1
 91
1
178
0
145
0.0
170
1
171
1
172
0
173
1
174
0
175
1
176
1
 91
1
178
0
145
0.0
170
5
171
1
172
0
173
0
174
0
175
1
176
1
 91
33
178
0
145
0.0
301
CELL_VALUE
 90
4
  1
 
304
ACVALUE_END
170
1
140
0.125
171
1
172
0
173
0
174
0
175
1
176
1
 91
33
178
0
145
0.0
301
CELL_VALUE
 90
4
  1
MODEL
304
ACVALUE_END
170
1
140
0.06
171
1
172
0
173
0
174
0
175
1
176
1
 91
33
178
0
145
0.0
301
CELL_VALUE
 90
4
  1
 
304
ACVALUE_END
170
1
140
0.125
171
1
172
0
173
0
174
0
175
1
176
1
 91
33
178
0
145
0.0
301
CELL_VALUE
 90
4
  1
 
304
ACVALUE_END
170
1
140
0.125
171
1
172
0
173
0
174
0
175
1
176
1
 91
33
178
0
145
0.0
301
CELL_VALUE
 90
4
  1
 
304
ACVALUE_END
170
1
140
0.125
171
1
172
0
173
0
174
0
175
1
176
1
 91
33
178
0
145
0.0
301
CELL_VALUE
 90
4
  1
 
304
ACVALUE_END
170
1
140
0.125
171
1
172
0
173
0
174
0
175
1
176
1
 91
33
178
0
145
0.0
301
CELL_VALUE
 90
4
  1
 
304
ACVALUE_END
170
1
140
0.125
  0
ACAD_TABLE
  5
292
100
AcDbEntity
  8
0
 62
2
  6
CONTINUOUS
100
AcDbBlockReference
  2
*T2
 10
12.4237499994
 20
16.47875
 30
0.0
100
AcDbTable
342
       3C8
343
210
 11
1.0
 21
0.0
 31
0.0
 90
22
 91
10
 92
3
 93
16
 94
0
 95
0
 96
0
 41
0.028
141
0.344
141
0.25
141
0.25
141
0.25
141
0.25
141
0.25
141
0.25
141
0.25
141
0.25
141
0.25
142
3.055
142
3.0
142
3.0
171
1
172
0
173
0
174
0
175
1
176
1
 91
33
178
0
145
0.0
301
CELL_VALUE
 90
4
  1
Technical Data
304
ACVALUE_END
170
5
140
0.145
171
1
172
0
173
0
174
0
175
1
176
1
 91
33
178
0
145
0.0
301
CELL_VALUE
 90
4
  1
U.S. Units
304
ACVALUE_END
170
5
140
0.145
171
1
172
0
173
0
174
0
175
1
176
1
 91
33
178
0
145
0.0
301
CELL_VALUE
 90
4
  1
Metric Units
304
ACVALUE_END
170
5
140
0.145
171
1
172
0
173
0
174
0
175
1
176
1
 91
33
178
0
145
0.0
301
CELL_VALUE
 90
4
  1
Cavity
304
ACVALUE_END
170
5
140
0.125
171
1
172
0
173
0
174
0
175
2
176
1
 91
33
178
0
145
0.0
301
CELL_VALUE
 90
4
  1
T-2A
304
ACVALUE_END
170
5
140
0.125
171
1
172
0
173
1
174
0
175
1
176
1
 91
1
178
0
145
0.0
170
1
171
1
172
0
173
0
174
0
175
1
176
1
 91
33
178
0
145
0.0
301
CELL_VALUE
 90
4
  1
Body Features
304
ACVALUE_END
170
5
140
0.125
171
1
172
0
173
0
174
0
175
2
176
1
 91
33
178
0
145
0.0
301
CELL_VALUE
 90
4
  1
Cushion lock with shuttle
304
ACVALUE_END
170
5
140
0.125
171
1
172
0
173
1
174
0
175
1
176
1
 91
1
178
0
145
0.0
170
1
171
1
172
0
173
0
174
0
175
1
176
1
 91
33
178
0
145
0.0
301
CELL_VALUE
 90
4
  1
Body Type
304
ACVALUE_END
170
5
140
0.125
171
1
172
0
173
0
174
0
175
2
176
1
 91
33
178
0
145
0.0
301
CELL_VALUE
 90
4
  1
Line mount
304
ACVALUE_END
170
5
140
0.125
171
1
172
0
173
1
174
0
175
1
176
1
 91
1
178
0
145
0.0
170
1
171
1
172
0
173
0
174
0
175
1
176
1
 91
33
178
0
145
0.0
301
CELL_VALUE
 90
4
  1
Interface
304
ACVALUE_END
170
5
140
0.125
171
1
172
0
173
0
174
0
175
2
176
1
 91
33
178
0
145
0.0
301
CELL_VALUE
 90
4
  1
None
304
ACVALUE_END
170
5
140
0.125
171
1
172
0
173
1
174
0
175
1
176
1
 91
1
178
0
145
0.0
170
1
171
1
172
0
173
0
174
0
175
1
176
1
 91
33
178
0
145
0.0
301
CELL_VALUE
 90
4
  1
Open Cavity Quantity
304
ACVALUE_END
170
5
140
0.125
171
1
172
0
173
0
174
0
175
2
176
1
 91
33
178
0
145
0.0
301
CELL_VALUE
 90
4
  1
2
304
ACVALUE_END
170
5
140
0.125
171
1
172
0
173
1
174
0
175
1
176
1
 91
1
178
0
145
0.0
170
1
171
1
172
0
173
0
174
0
175
1
176
1
 91
33
178
0
145
0.0
301
CELL_VALUE
 90
4
  1
Weight
304
ACVALUE_END
170
5
140
0.125
171
1
172
0
173
0
174
0
175
1
176
1
 91
33
178
0
145
0.0
301
CELL_VALUE
 90
4
  1
6.553 lb.
304
ACVALUE_END
170
5
140
0.125
171
1
172
0
173
0
174
0
175
1
176
1
 91
33
178
0
145
0.0
301
CELL_VALUE
 90
4
  1
2,973 kg.
304
ACVALUE_END
170
5
140
0.125
171
1
172
0
173
0
174
0
175
1
176
1
 91
33
178
0
145
0.0
301
CELL_VALUE
 90
4
  1
Mounting Hole Diameter
304
ACVALUE_END
170
5
140
0.125
171
1
172
0
173
0
174
0
175
1
176
1
 91
33
178
0
145
0.0
301
CELL_VALUE
 90
4
  1
.42 in.
304
ACVALUE_END
170
5
140
0.125
171
1
172
0
173
0
174
0
175
1
176
1
 91
33
178
0
145
0.0
301
CELL_VALUE
 90
4
  1
10,7 mm
304
ACVALUE_END
170
5
140
0.125
171
1
172
0
173
0
174
0
175
1
176
1
 91
33
178
0
145
0.0
301
CELL_VALUE
 90
4
  1
Mounting Hole Depth
304
ACVALUE_END
170
5
140
0.125
171
1
172
0
173
0
174
0
175
2
176
1
 91
33
178
0
145
0.0
301
CELL_VALUE
 90
4
  1
Through
304
ACVALUE_END
170
5
140
0.125
171
1
172
0
173
1
174
0
175
1
176
1
 91
1
178
0
145
0.0
170
1
171
1
172
0
173
0
174
0
175
1
176
1
 91
33
178
0
145
0.0
301
CELL_VALUE
 90
4
  1
Mounting Hole Quantity
304
ACVALUE_END
170
5
140
0.125
171
1
172
0
173
0
174
0
175
2
176
1
 91
33
178
0
145
0.0
301
CELL_VALUE
 90
4
  1
2
304
ACVALUE_END
170
5
140
0.125
171
1
172
0
173
1
174
0
175
1
176
1
 91
1
178
0
145
0.0
170
1
  0
ACAD_TABLE
  5
293
100
AcDbEntity
  8
0
 62
2
  6
CONTINUOUS
100
AcDbBlockReference
  2
*T3
 10
0.52125
 20
1.959
 30
0.0
100
AcDbTable
342
       3C8
343
211
 11
1.0
 21
0.0
 31
0.0
 90
22
 91
5
 92
3
 93
16
 94
0
 95
0
 96
0
 41
0.05
141
0.34375
141
0.344
141
0.25
141
0.25
141
0.25
142
1.3
142
2.0
142
1.3
171
1
172
0
173
0
174
0
175
3
176
1
 91
33
178
0
145
0.0
301
CELL_VALUE
 90
4
  1
Port Headings
304
ACVALUE_END
170
5
140
0.145
171
1
172
0
173
1
174
0
175
1
176
1
 91
1
178
0
145
0.0
170
1
171
1
172
0
173
1
174
0
175
1
176
1
 91
1
178
0
145
0.0
170
1
171
1
172
0
173
0
174
0
175
1
176
1
 91
33
178
0
145
0.0
301
CELL_VALUE
 90
4
  1
Product
304
ACVALUE_END
170
5
140
0.145
171
1
172
0
173
0
174
0
175
1
176
1
 91
33
178
0
145
0.0
301
CELL_VALUE
 90
4
  1
Port
304
ACVALUE_END
170
5
140
0.145
171
1
172
0
173
0
174
0
175
1
176
1
 91
33
178
0
145
0.0
301
CELL_VALUE
 90
4
  1
Size
304
ACVALUE_END
170
5
140
0.145
171
1
172
0
173
0
174
0
175
1
176
1
 91
33
178
0
145
0.0
301
CELL_VALUE
 90
4
  1
3BW
304
ACVALUE_END
170
5
140
0.125
171
1
172
0
173
0
174
0
175
1
176
1
 91
33
178
0
145
0.0
301
CELL_VALUE
 90
4
  1
Ports C1, C2, V1, V2
304
ACVALUE_END
170
5
140
0.125
171
1
172
0
173
0
174
0
175
1
176
1
 91
33
178
0
145
0.0
301
CELL_VALUE
 90
4
  1
3/4" BSPP
304
ACVALUE_END
170
5
140
0.125
171
1
172
0
173
0
174
0
175
1
176
1
 91
33
178
0
145
0.0
301
CELL_VALUE
 90
4
  1
3BW
304
ACVALUE_END
170
5
140
0.125
171
1
172
0
173
0
174
0
175
1
176
1
 91
33
178
0
145
0.0
301
CELL_VALUE
 90
4
  1
Port S
304
ACVALUE_END
170
5
140
0.125
171
1
172
0
173
0
174
0
175
1
176
1
 91
33
178
0
145
0.0
301
CELL_VALUE
 90
4
  1
1/4" BSPP
304
ACVALUE_END
170
5
140
0.125
171
1
172
0
173
0
174
0
175
1
176
1
 91
33
178
0
145
0.0
301
CELL_VALUE
 90
4
  1
3BW
304
ACVALUE_END
170
5
140
0.125
171
1
172
0
173
0
174
0
175
1
176
1
 91
33
178
0
145
0.0
301
CELL_VALUE
 90
4
  1
Port T
304
ACVALUE_END
170
5
140
0.125
171
1
172
0
173
0
174
0
175
1
176
1
 91
33
178
0
145
0.0
301
CELL_VALUE
 90
4
  1
3/4" BSPP
304
ACVALUE_END
170
5
140
0.125
  0
MTEXT
  5
294
100
AcDbEntity
  8
0
100
AcDbMText
 62
2
  6
CONTINUOUS
  7
STANDARD
 71
1
 72
1
 10
0.52125
 20
5.75995
 30
0.0
 11
1.0
 21
0.0
 31
0.0
 44
0.6
  3
Notes\P \P1. Important: Carefully consider\P   the maximum system pressure. The\P   pressure rating of the manifold is\P   dependent on the manifold material,\P   with the port type/size a secondary\P   consideration. Manifolds\P   constructed of alu
  1
minum are not\P   rated for pressures higher than\P   3000 psi (210 bar), regardless of\P   the port type/size specified.
 40
0.1
 41
3.04
  0
LINE
  5
295
100
AcDbEntity
  8
0
100
AcDbLine
 62
7
  6
CONTINUOUS
 10
0.30125
 20
0.30125
 11
0.30125
 21
16.69875
  0
LINE
  5
296
100
AcDbEntity
  8
0
100
AcDbLine
 62
7
  6
CONTINUOUS
 10
0.30125
 20
0.30125
 11
21.69875
 21
0.30125
  0
LINE
  5
297
100
AcDbEntity
  8
0
100
AcDbLine
 62
7
  6
CONTINUOUS
 10
0.30125
 20
16.69875
 11
21.69875
 21
16.69875
  0
LINE
  5
298
100
AcDbEntity
  8
0
100
AcDbLine
 62
7
  6
CONTINUOUS
 10
21.69875
 20
0.30125
 11
21.69875
 21
16.69875
  0
LINE
  5
299
100
AcDbEntity
  8
0
100
AcDbLine
 62
7
  6
CONTINUOUS
 10
8.4211011542
 20
9.8200858855
 11
9.7151953117
 21
11.0700849279
  0
LINE
  5
29A
100
AcDbEntity
  8
0
100
AcDbLine
 62
7
  6
CONTINUOUS
 10
8.4211011542
 20
6.1978638222
 11
8.4211011542
 21
9.8200858855
  0
LINE
  5
29B
100
AcDbEntity
  8
0
100
AcDbLine
 62
7
  6
CONTINUOUS
 10
12.2848046883
 20
5.9299150721
 11
8.4211011542
 21
6.1978638222
  0
LINE
  5
29C
100
AcDbEntity
  8
0
100
AcDbLine
 62
4
  6
CONTINUOUS
 10
9.626093689
 20
6.4040750251
 11
9.6840492407
 21
6.400055794
  0
LINE
  5
29D
100
AcDbEntity
  8
0
100
AcDbLine
 62
4
  6
CONTINUOUS
 10
11.0749825143
 20
6.3035942438
 11
11.132938066
 21
6.2995750126
  0
LINE
  5
29E
100
AcDbEntity
  8
0
100
AcDbLine
 62
4
  6
CONTINUOUS
 10
9.6623159088
 20
6.5174741091
 11
9.6768047967
 21
6.506810045
  0
LINE
  5
29F
100
AcDbEntity
  8
0
100
AcDbLine
 62
4
  6
CONTINUOUS
 10
9.6768047967
 20
6.506810045
 11
9.6840492407
 21
6.4966483779
  0
LINE
  5
2A0
100
AcDbEntity
  8
0
100
AcDbLine
 62
4
  6
CONTINUOUS
 10
9.7492492364
 20
6.4341711945
 11
9.7927159002
 21
6.4311567712
  0
LINE
  5
2A1
100
AcDbEntity
  8
0
100
AcDbLine
 62
4
  6
CONTINUOUS
 10
11.1981380617
 20
6.3336904132
 11
11.2416047255
 21
6.3306759898
  0
LINE
  5
2A2
100
AcDbEntity
  8
0
100
AcDbLine
 62
4
  6
CONTINUOUS
 10
9.5174270295
 20
6.4695666353
 11
9.5608936933
 21
6.4665522119
  0
LINE
  5
2A3
100
AcDbEntity
  8
0
100
AcDbLine
 62
4
  6
CONTINUOUS
 10
10.9663158548
 20
6.369085854
 11
11.0097825186
 21
6.3660714306
  0
LINE
  5
2A4
100
AcDbEntity
  8
0
100
AcDbLine
 62
4
  6
CONTINUOUS
 10
9.3870270382
 20
6.5365654571
 11
9.4594714778
 21
6.5315414181
  0
LINE
  5
2A5
100
AcDbEntity
  8
0
100
AcDbLine
 62
4
  6
CONTINUOUS
 10
9.6478270209
 20
6.5184789169
 11
9.6623159088
 21
6.5174741091
  0
LINE
  5
2A6
100
AcDbEntity
  8
0
100
AcDbLine
 62
4
  6
CONTINUOUS
 10
10.8359158634
 20
6.4360846758
 11
10.9083603031
 21
6.4310606368
  0
LINE
  5
2A7
100
AcDbEntity
  8
0
100
AcDbLine
 62
4
  6
CONTINUOUS
 10
11.0967158462
 20
6.4179981356
 11
11.1112047341
 21
6.4169933278
  0
LINE
  5
2A8
100
AcDbEntity
  8
0
100
AcDbLine
 62
4
  6
CONTINUOUS
 10
9.7709825683
 20
6.5099380506
 11
9.8072047881
 21
6.3915149277
  0
LINE
  5
2A9
100
AcDbEntity
  8
0
100
AcDbLine
 62
4
  6
CONTINUOUS
 10
9.423249258
 20
6.5340534376
 11
9.423249258
 21
6.4181423342
  0
LINE
  5
2AA
100
AcDbEntity
  8
0
100
AcDbLine
 62
4
  6
CONTINUOUS
 10
11.1112047341
 20
6.4169933278
 11
11.125693622
 21
6.4063292637
  0
LINE
  5
2AB
100
AcDbEntity
  8
0
100
AcDbLine
 62
4
  6
CONTINUOUS
 10
9.6840492407
 20
6.4966483779
 11
9.6840492407
 21
6.4773298652
  0
LINE
  5
2AC
100
AcDbEntity
  8
0
100
AcDbLine
 62
4
  6
CONTINUOUS
 10
9.6792195894
 20
8.206672131
 11
9.7154418092
 21
8.0882490081
  0
LINE
  5
2AD
100
AcDbEntity
  8
0
100
AcDbLine
 62
4
  6
CONTINUOUS
 10
9.8603306885
 20
8.1747935141
 11
9.8603306885
 21
8.1554750015
  0
LINE
  5
2AE
100
AcDbEntity
  8
0
100
AcDbLine
 62
4
  6
CONTINUOUS
 10
9.8096195807
 20
8.1106955333
 11
9.8023751368
 21
8.0822201614
  0
LINE
  5
2AF
100
AcDbEntity
  8
0
100
AcDbLine
 62
4
  6
CONTINUOUS
 10
9.7154418092
 20
8.0882490081
 11
9.751664029
 21
8.2016480921
  0
LINE
  5
2B0
100
AcDbEntity
  8
0
100
AcDbLine
 62
4
  6
CONTINUOUS
 10
9.8530862445
 20
8.1849551812
 11
9.8603306885
 21
8.1747935141
  0
LINE
  5
2B1
100
AcDbEntity
  8
0
100
AcDbLine
 62
4
  6
CONTINUOUS
 10
11.125693622
 20
6.4063292637
 11
11.132938066
 21
6.3961675965
  0
LINE
  5
2B2
100
AcDbEntity
  8
0
100
AcDbLine
 62
4
  6
CONTINUOUS
 10
9.633338133
 20
6.4325503971
 11
9.626093689
 21
6.4040750251
  0
LINE
  5
2B3
100
AcDbEntity
  8
0
100
AcDbLine
 62
4
  6
CONTINUOUS
 10
9.8023751368
 20
8.1788127453
 11
9.8096195807
 21
8.1879696046
  0
LINE
  5
2B4
100
AcDbEntity
  8
0
100
AcDbLine
 62
4
  6
CONTINUOUS
 10
9.8385973566
 20
8.1956192453
 11
9.8530862445
 21
8.1849551812
  0
LINE
  5
2B5
100
AcDbEntity
  8
0
100
AcDbLine
 62
4
  6
CONTINUOUS
 10
9.7347603485
 20
6.3965389667
 11
9.7709825683
 21
6.5099380506
  0
LINE
  5
2B6
100
AcDbEntity
  8
0
100
AcDbLine
 62
4
  6
CONTINUOUS
 10
9.8241084686
 20
8.1290092416
 11
9.8096195807
 21
8.1106955333
  0
LINE
  5
2B7
100
AcDbEntity
  8
0
100
AcDbLine
 62
4
  6
CONTINUOUS
 10
9.8603306885
 20
8.1554750015
 11
9.8530862445
 21
8.1463181421
  0
LINE
  5
2B8
100
AcDbEntity
  8
0
100
AcDbLine
 62
4
  6
CONTINUOUS
 10
9.8023751368
 20
8.0822201614
 11
9.8603306885
 21
8.0782009302
  0
LINE
  5
2B9
100
AcDbEntity
  8
0
100
AcDbLine
 62
4
  6
CONTINUOUS
 10
9.8096195807
 20
8.1879696046
 11
9.8241084686
 21
8.1966240531
  0
LINE
  5
2BA
100
AcDbEntity
  8
0
100
AcDbLine
 62
4
  6
CONTINUOUS
 10
9.8530862445
 20
8.1463181421
 11
9.8241084686
 21
8.1290092416
  0
LINE
  5
2BB
100
AcDbEntity
  8
0
100
AcDbLine
 62
4
  6
CONTINUOUS
 10
9.8241084686
 20
8.1966240531
 11
9.8385973566
 21
8.1956192453
  0
LINE
  5
2BC
100
AcDbEntity
  8
0
100
AcDbLine
 62
4
  6
CONTINUOUS
 10
11.2198713936
 20
6.4094572693
 11
11.2560936134
 21
6.2910341464
  0
LINE
  5
2BD
100
AcDbEntity
  8
0
100
AcDbLine
 62
4
  6
CONTINUOUS
 10
10.8721380833
 20
6.4335726563
 11
10.8721380833
 21
6.3176615529
  0
LINE
  5
2BE
100
AcDbEntity
  8
0
100
AcDbLine
 62
4
  6
CONTINUOUS
 10
10.905945443
 20
8.1215984041
 11
10.9421676628
 21
8.0031752812
  0
LINE
  5
2BF
100
AcDbEntity
  8
0
100
AcDbLine
 62
4
  6
CONTINUOUS
 10
11.0580787663
 20
8.1110479223
 11
11.0580787663
 21
7.9951368189
  0
LINE
  5
2C0
100
AcDbEntity
  8
0
100
AcDbLine
 62
4
  6
CONTINUOUS
 10
11.132938066
 20
6.3961675965
 11
11.132938066
 21
6.3768490839
  0
LINE
  5
2C1
100
AcDbEntity
  8
0
100
AcDbLine
 62
4
  6
CONTINUOUS
 10
10.9421676628
 20
8.0031752812
 11
10.9783898827
 21
8.1165743652
  0
LINE
  5
2C2
100
AcDbEntity
  8
0
100
AcDbLine
 62
4
  6
CONTINUOUS
 10
9.626093689
 20
6.500667609
 11
9.633338133
 21
6.5098244683
  0
LINE
  5
2C3
100
AcDbEntity
  8
0
100
AcDbLine
 62
4
  6
CONTINUOUS
 10
9.6478270209
 20
6.4508641054
 11
9.633338133
 21
6.4325503971
  0
LINE
  5
2C4
100
AcDbEntity
  8
0
100
AcDbLine
 62
4
  6
CONTINUOUS
 10
9.6840492407
 20
6.4773298652
 11
9.6768047967
 21
6.4681730059
  0
LINE
  5
2C5
100
AcDbEntity
  8
0
100
AcDbLine
 62
7
  6
CONTINUOUS
 10
12.2848046883
 20
9.5521371353
 11
13.5788988458
 21
10.8021361778
  0
LINE
  5
2C6
100
AcDbEntity
  8
0
100
AcDbLine
 62
4
  6
CONTINUOUS
 10
13.074941587
 20
8.7022546164
 11
13.0660678029
 21
8.6992027747
  0
LINE
  5
2C7
100
AcDbEntity
  8
0
100
AcDbLine
 62
4
  6
CONTINUOUS
 10
12.9240871959
 20
8.2976723233
 11
12.9263056438
 21
8.297055388
  0
LINE
  5
2C8
100
AcDbEntity
  8
0
100
AcDbLine
 62
4
  6
CONTINUOUS
 10
11.0822269582
 20
6.3320696158
 11
11.0749825143
 21
6.3035942438
  0
LINE
  5
2C9
100
AcDbEntity
  8
0
100
AcDbLine
 62
4
  6
CONTINUOUS
 10
12.8028121009
 20
7.8592902267
 11
12.8146438189
 21
7.8486404835
  0
LINE
  5
2CA
100
AcDbEntity
  8
0
100
AcDbLine
 62
4
  6
CONTINUOUS
 10
11.1836491737
 20
6.2960581854
 11
11.2198713936
 21
6.4094572693
  0
LINE
  5
2CB
100
AcDbEntity
  8
0
100
AcDbLine
 62
4
  6
CONTINUOUS
 10
12.7909803655
 20
8.5052431904
 11
12.7998541537
 21
8.5138146122
  0
LINE
  5
2CC
100
AcDbEntity
  8
0
100
AcDbLine
 62
4
  6
CONTINUOUS
 10
13.0320516109
 20
8.7381001461
 11
13.0327910904
 21
8.7388144285
  0
LINE
  5
2CD
100
AcDbEntity
  8
0
100
AcDbLine
 62
4
  6
CONTINUOUS
 10
9.633338133
 20
6.5098244683
 11
9.6478270209
 21
6.5184789169
  0
LINE
  5
2CE
100
AcDbEntity
  8
0
100
AcDbLine
 62
4
  6
CONTINUOUS
 10
9.6768047967
 20
6.4681730059
 11
9.6478270209
 21
6.4508641054
  0
LINE
  5
2CF
100
AcDbEntity
  8
0
100
AcDbLine
 62
7
  6
CONTINUOUS
 10
8.4211011542
 20
9.8200858855
 11
12.2848046883
 21
9.5521371353
  0
LINE
  5
2D0
100
AcDbEntity
  8
0
100
AcDbLine
 62
4
  6
CONTINUOUS
 10
13.0490597202
 20
8.1192254835
 11
13.0608914373
 21
8.1085757377
  0
LINE
  5
2D1
100
AcDbEntity
  8
0
100
AcDbLine
 62
7
  6
CONTINUOUS
 10
12.2848046883
 20
9.5521371353
 11
12.2848046883
 21
5.9299150721
  0
LINE
  5
2D2
100
AcDbEntity
  8
0
100
AcDbLine
 62
4
  6
CONTINUOUS
 10
11.0749825143
 20
6.4001868277
 11
11.0822269582
 21
6.409343687
  0
LINE
  5
2D3
100
AcDbEntity
  8
0
100
AcDbLine
 62
4
  6
CONTINUOUS
 10
11.0967158462
 20
6.3503833241
 11
11.0822269582
 21
6.3320696158
  0
LINE
  5
2D4
100
AcDbEntity
  8
0
100
AcDbLine
 62
4
  6
CONTINUOUS
 10
11.132938066
 20
6.3768490839
 11
11.125693622
 21
6.3676922246
  0
LINE
  5
2D5
100
AcDbEntity
  8
0
100
AcDbLine
 62
4
  6
CONTINUOUS
 10
12.9788088916
 20
8.6535541693
 11
12.9677166541
 21
8.64283989
  0
LINE
  5
2D6
100
AcDbEntity
  8
0
100
AcDbLine
 62
4
  6
CONTINUOUS
 10
12.8841551404
 20
8.5621256611
 11
12.8952473779
 21
8.5728399404
  0
LINE
  5
2D7
100
AcDbEntity
  8
0
100
AcDbLine
 62
4
  6
CONTINUOUS
 10
12.9300030495
 20
8.6064113432
 11
12.9388768336
 21
8.6149827609
  0
LINE
  5
2D8
100
AcDbEntity
  8
0
100
AcDbLine
 62
4
  6
CONTINUOUS
 10
12.9477506325
 20
8.623554193
 11
12.9566244166
 21
8.6321256107
  0
LINE
  5
2D9
100
AcDbEntity
  8
0
100
AcDbLine
 62
4
  6
CONTINUOUS
 10
13.0461017665
 20
8.718554099
 11
13.0549755802
 21
8.7271255453
  0
LINE
  5
2DA
100
AcDbEntity
  8
0
100
AcDbLine
 62
4
  6
CONTINUOUS
 10
13.0660678029
 20
8.7378398103
 11
13.074941587
 21
8.7464112281
  0
LINE
  5
2DB
100
AcDbEntity
  8
0
100
AcDbLine
 62
4
  6
CONTINUOUS
 10
12.9721535461
 20
8.6057287752
 11
12.9810273302
 21
8.6143001929
  0
LINE
  5
2DC
100
AcDbEntity
  8
0
100
AcDbLine
 62
4
  6
CONTINUOUS
 10
13.0549755802
 20
8.644331898
 11
13.0461017665
 21
8.6357604517
  0
LINE
  5
2DD
100
AcDbEntity
  8
0
100
AcDbLine
 62
4
  6
CONTINUOUS
 10
13.0187409347
 20
8.6093319161
 11
13.0143040427
 21
8.6050462072
  0
LINE
  5
2DE
100
AcDbEntity
  8
0
100
AcDbLine
 62
4
  6
CONTINUOUS
 10
12.9810273302
 20
8.5729033693
 11
12.9721535461
 21
8.5643319516
  0
LINE
  5
2DF
100
AcDbEntity
  8
0
100
AcDbLine
 62
4
  6
CONTINUOUS
 10
12.9388768336
 20
8.5321891136
 11
12.9300030495
 21
8.5236176959
  0
LINE
  5
2E0
100
AcDbEntity
  8
0
100
AcDbLine
 62
4
  6
CONTINUOUS
 10
12.7887619183
 20
8.3871892315
 11
12.7976357068
 21
8.3957606534
  0
LINE
  5
2E1
100
AcDbEntity
  8
0
100
AcDbLine
 62
4
  6
CONTINUOUS
 10
12.8153832823
 20
8.412903496
 11
12.822038626
 21
8.4193320647
  0
LINE
  5
2E2
100
AcDbEntity
  8
0
100
AcDbLine
 62
4
  6
CONTINUOUS
 10
12.9921195677
 20
8.5836176486
 11
13.0032118052
 21
8.5943319279
  0
LINE
  5
2E3
100
AcDbEntity
  8
0
100
AcDbLine
 62
4
  6
CONTINUOUS
 10
13.0660678029
 20
8.6550461631
 11
13.074941587
 21
8.6636175808
  0
LINE
  5
2E4
100
AcDbEntity
  8
0
100
AcDbLine
 62
4
  6
CONTINUOUS
 10
12.9063396154
 20
8.4731626906
 11
12.9107765075
 21
8.4774483995
  0
LINE
  5
2E5
100
AcDbEntity
  8
0
100
AcDbLine
 62
4
  6
CONTINUOUS
 10
12.9041211734
 20
8.2783866253
 11
12.8952473847
 21
8.2698152031
  0
LINE
  5
2E6
100
AcDbEntity
  8
0
100
AcDbLine
 62
4
  6
CONTINUOUS
 10
12.917431856
 20
8.2912437582
 11
12.9240871959
 21
8.2976723233
  0
LINE
  5
2E7
100
AcDbEntity
  8
0
100
AcDbLine
 62
4
  6
CONTINUOUS
 10
12.9300030495
 20
8.5236176959
 11
12.9255661575
 21
8.527611352
  0
LINE
  5
2E8
100
AcDbEntity
  8
0
100
AcDbLine
 62
4
  6
CONTINUOUS
 10
12.9721535461
 20
8.5643319516
 11
12.9677166541
 21
8.5683256076
  0
LINE
  5
2E9
100
AcDbEntity
  8
0
100
AcDbLine
 62
4
  6
CONTINUOUS
 10
12.9041211734
 20
8.2287104411
 11
12.899684279
 21
8.22442473
  0
LINE
  5
2EA
100
AcDbEntity
  8
0
100
AcDbLine
 62
4
  6
CONTINUOUS
 10
12.917431856
 20
8.2332882065
 11
12.9285240898
 21
8.2440024822
  0
LINE
  5
2EB
100
AcDbEntity
  8
0
100
AcDbLine
 62
4
  6
CONTINUOUS
 10
12.9285240898
 20
8.1860469305
 11
12.917431856
 21
8.1753326547
  0
LINE
  5
2EC
100
AcDbEntity
  8
0
100
AcDbLine
 62
4
  6
CONTINUOUS
 10
12.8952473847
 20
8.1539040997
 11
12.9063396203
 21
8.1646183772
  0
LINE
  5
2ED
100
AcDbEntity
  8
0
100
AcDbLine
 62
4
  6
CONTINUOUS
 10
12.8205596784
 20
7.9426679869
 11
12.8316519122
 21
7.9533822626
  0
LINE
  5
2EE
100
AcDbEntity
  8
0
100
AcDbLine
 62
4
  6
CONTINUOUS
 10
12.8752813697
 20
7.9955250849
 11
12.8930289452
 21
8.0126679275
  0
LINE
  5
2EF
100
AcDbEntity
  8
0
100
AcDbLine
 62
4
  6
CONTINUOUS
 10
12.9019027367
 20
8.0212393524
 11
12.9152134202
 21
8.0340964861
  0
LINE
  5
2F0
100
AcDbEntity
  8
0
100
AcDbLine
 62
4
  6
CONTINUOUS
 10
12.9529270248
 20
8.0705250329
 11
12.9618008089
 21
8.0790964506
  0
LINE
  5
2F1
100
AcDbEntity
  8
0
100
AcDbLine
 62
4
  6
CONTINUOUS
 10
12.9788088975
 20
8.0955250037
 11
12.985464243
 21
8.1019535741
  0
LINE
  5
2F2
100
AcDbEntity
  8
0
100
AcDbLine
 62
4
  6
CONTINUOUS
 10
12.9987749191
 20
8.1148107007
 11
13.0098671566
 21
8.12552498
  0
LINE
  5
2F3
100
AcDbEntity
  8
0
100
AcDbLine
 62
4
  6
CONTINUOUS
 10
13.02687526
 20
8.1419535474
 11
13.0401859361
 21
8.1548106739
  0
LINE
  5
2F4
100
AcDbEntity
  8
0
100
AcDbLine
 62
4
  6
CONTINUOUS
 10
13.0357490441
 20
8.1008487809
 11
13.02687526
 21
8.0922773631
  0
LINE
  5
2F5
100
AcDbEntity
  8
0
100
AcDbLine
 62
4
  6
CONTINUOUS
 10
12.9107765282
 20
7.980134593
 11
12.9019027367
 21
7.9715631682
  0
LINE
  5
2F6
100
AcDbEntity
  8
0
100
AcDbLine
 62
4
  6
CONTINUOUS
 10
12.8516179356
 20
7.8898743176
 11
12.8634496526
 21
7.9013028793
  0
LINE
  5
2F7
100
AcDbEntity
  8
0
100
AcDbLine
 62
4
  6
CONTINUOUS
 10
12.9263056438
 20
8.297055388
 11
12.9307425395
 21
8.2875421638
  0
LINE
  5
2F8
100
AcDbEntity
  8
0
100
AcDbLine
 62
4
  6
CONTINUOUS
 10
12.8020726007
 20
8.4331638237
 11
12.7865434711
 21
8.4678400232
  0
LINE
  5
2F9
100
AcDbEntity
  8
0
100
AcDbLine
 62
4
  6
CONTINUOUS
 10
12.8316519122
 20
7.9533822626
 11
12.836088806
 21
7.9411092452
  0
LINE
  5
2FA
100
AcDbEntity
  8
0
100
AcDbLine
 62
4
  6
CONTINUOUS
 10
12.7865434711
 20
8.3933257408
 11
12.7887619183
 21
8.3871892315
  0
LINE
  5
2FB
100
AcDbEntity
  8
0
100
AcDbLine
 62
4
  6
CONTINUOUS
 10
12.9529270248
 20
7.9546139295
 11
12.9484901328
 21
7.9668869504
  0
LINE
  5
2FC
100
AcDbEntity
  8
0
100
AcDbLine
 62
4
  6
CONTINUOUS
 10
12.8109463885
 20
8.4251765152
 11
12.8153832823
 21
8.412903496
  0
LINE
  5
2FD
100
AcDbEntity
  8
0
100
AcDbLine
 62
4
  6
CONTINUOUS
 10
12.9788088975
 20
7.9796139002
 11
12.9743720055
 21
7.9918869212
  0
LINE
  5
2FE
100
AcDbEntity
  8
0
100
AcDbLine
 62
4
  6
CONTINUOUS
 10
12.7998541537
 20
8.5138146122
 11
12.8020726007
 21
8.5076781
  0
LINE
  5
2FF
100
AcDbEntity
  8
0
100
AcDbLine
 62
4
  6
CONTINUOUS
 10
12.9085580673
 20
8.2164374202
 11
12.9041211734
 21
8.2287104411
  0
LINE
  5
300
100
AcDbEntity
  8
0
100
AcDbLine
 62
4
  6
CONTINUOUS
 10
12.9285240898
 20
8.2440024822
 11
12.9329609855
 21
8.2317294666
  0
LINE
  5
301
100
AcDbEntity
  8
0
100
AcDbLine
 62
4
  6
CONTINUOUS
 10
12.9063396154
 20
8.5835542197
 11
12.9129949609
 21
8.5071891429
  0
LINE
  5
302
100
AcDbEntity
  8
0
100
AcDbLine
 62
4
  6
CONTINUOUS
 10
12.9551454568
 20
8.2945548452
 11
12.9618007949
 21
8.2181897613
  0
LINE
  5
303
100
AcDbEntity
  8
0
100
AcDbLine
 62
4
  6
CONTINUOUS
 10
12.8575337941
 20
7.9783822423
 11
12.8664075856
 21
7.8710425637
  0
LINE
  5
304
100
AcDbEntity
  8
0
100
AcDbLine
 62
4
  6
CONTINUOUS
 10
12.9418347733
 20
8.3148151677
 11
12.9484901151
 21
8.2053326311
  0
LINE
  5
305
100
AcDbEntity
  8
0
100
AcDbLine
 62
4
  6
CONTINUOUS
 10
12.7865434711
 20
8.4678400232
 11
12.7865434711
 21
8.4843987513
  0
LINE
  5
306
100
AcDbEntity
  8
0
100
AcDbLine
 62
4
  6
CONTINUOUS
 10
12.8020726007
 20
8.4166050939
 11
12.8020726007
 21
8.4331638237
  0
LINE
  5
307
100
AcDbEntity
  8
0
100
AcDbLine
 62
4
  6
CONTINUOUS
 10
12.8109463885
 20
8.5245288888
 11
12.8109463885
 21
8.4251765152
  0
LINE
  5
308
100
AcDbEntity
  8
0
100
AcDbLine
 62
4
  6
CONTINUOUS
 10
12.8205596784
 20
7.8267568834
 11
12.8205596784
 21
7.9426679869
  0
LINE
  5
309
100
AcDbEntity
  8
0
100
AcDbLine
 62
4
  6
CONTINUOUS
 10
12.826475518
 20
8.4401765034
 11
12.826475518
 21
8.539528877
  0
LINE
  5
30A
100
AcDbEntity
  8
0
100
AcDbLine
 62
4
  6
CONTINUOUS
 10
12.8353493058
 20
8.4321891949
 11
12.8353493058
 21
8.5481002983
  0
LINE
  5
30B
100
AcDbEntity
  8
0
100
AcDbLine
 62
4
  6
CONTINUOUS
 10
12.836088806
 20
7.9411092452
 11
12.836088806
 21
7.8583155996
  0
LINE
  5
30C
100
AcDbEntity
  8
0
100
AcDbLine
 62
4
  6
CONTINUOUS
 10
12.8508784353
 20
8.447189183
 11
12.8508784353
 21
8.5631002865
  0
LINE
  5
30D
100
AcDbEntity
  8
0
100
AcDbLine
 62
4
  6
CONTINUOUS
 10
12.8841551612
 20
7.8881854063
 11
12.8841551612
 21
8.0040965098
  0
LINE
  5
30E
100
AcDbEntity
  8
0
100
AcDbLine
 62
4
  6
CONTINUOUS
 10
12.8841551404
 20
8.4793320138
 11
12.8841551404
 21
8.5952431173
  0
LINE
  5
30F
100
AcDbEntity
  8
0
100
AcDbLine
 62
4
  6
CONTINUOUS
 10
12.897465824
 20
8.5667034274
 11
12.897465824
 21
8.4921891476
  0
LINE
  5
310
100
AcDbEntity
  8
0
100
AcDbLine
 62
4
  6
CONTINUOUS
 10
12.9019027367
 20
7.9053282489
 11
12.9019027367
 21
8.0212393524
  0
LINE
  5
311
100
AcDbEntity
  8
0
100
AcDbLine
 62
4
  6
CONTINUOUS
 10
12.907818585
 20
8.2405612272
 11
12.907818585
 21
8.2653993228
  0
LINE
  5
312
100
AcDbEntity
  8
0
100
AcDbLine
 62
4
  6
CONTINUOUS
 10
12.9085580673
 20
8.1750405974
 11
12.9085580673
 21
8.2164374202
  0
LINE
  5
313
100
AcDbEntity
  8
0
100
AcDbLine
 62
4
  6
CONTINUOUS
 10
12.917431856
 20
8.1753326547
 11
12.917431856
 21
8.2912437582
  0
LINE
  5
314
100
AcDbEntity
  8
0
100
AcDbLine
 62
4
  6
CONTINUOUS
 10
12.9255661575
 20
8.527611352
 11
12.9255661575
 21
8.5938462668
  0
LINE
  5
315
100
AcDbEntity
  8
0
100
AcDbLine
 62
4
  6
CONTINUOUS
 10
12.9307425395
 20
8.2875421638
 11
12.9307425395
 21
8.2627040683
  0
LINE
  5
316
100
AcDbEntity
  8
0
100
AcDbLine
 62
4
  6
CONTINUOUS
 10
12.9329609855
 20
8.2317294666
 11
12.9329609855
 21
8.2068913727
  0
LINE
  5
317
100
AcDbEntity
  8
0
100
AcDbLine
 62
4
  6
CONTINUOUS
 10
12.9388768336
 20
8.6481002171
 11
12.9388768336
 21
8.5321891136
  0
LINE
  5
318
100
AcDbEntity
  8
0
100
AcDbLine
 62
4
  6
CONTINUOUS
 10
12.9477506325
 20
8.5407605457
 11
12.9477506325
 21
8.623554193
  0
LINE
  5
319
100
AcDbEntity
  8
0
100
AcDbLine
 62
4
  6
CONTINUOUS
 10
12.9484901328
 20
7.9668869504
 11
12.9484901328
 21
8.049680596
  0
LINE
  5
31A
100
AcDbEntity
  8
0
100
AcDbLine
 62
4
  6
CONTINUOUS
 10
12.9581033756
 20
8.625274808
 11
12.9581033756
 21
8.60871608
  0
LINE
  5
31B
100
AcDbEntity
  8
0
100
AcDbLine
 62
4
  6
CONTINUOUS
 10
12.9677166541
 20
8.5683256076
 11
12.9677166541
 21
8.5931637023
  0
LINE
  5
31C
100
AcDbEntity
  8
0
100
AcDbLine
 62
4
  6
CONTINUOUS
 10
12.9743720055
 20
7.9918869212
 11
12.9743720055
 21
8.0746805667
  0
LINE
  5
31D
100
AcDbEntity
  8
0
100
AcDbLine
 62
4
  6
CONTINUOUS
 10
12.9618007949
 20
8.2181897613
 11
12.9684561404
 21
8.3405294351
  0
LINE
  5
31E
100
AcDbEntity
  8
0
100
AcDbLine
 62
4
  6
CONTINUOUS
 10
12.8486600063
 20
7.8538997176
 11
12.8575337941
 21
7.9783822423
  0
LINE
  5
31F
100
AcDbEntity
  8
0
100
AcDbLine
 62
4
  6
CONTINUOUS
 10
12.9107765075
 20
8.4774483995
 11
12.9196502916
 21
8.5964113463
  0
LINE
  5
320
100
AcDbEntity
  8
0
100
AcDbLine
 62
4
  6
CONTINUOUS
 10
12.9484901151
 20
8.2053326311
 11
12.9551454568
 21
8.2945548452
  0
LINE
  5
321
100
AcDbEntity
  8
0
100
AcDbLine
 62
4
  6
CONTINUOUS
 10
12.7865434711
 20
8.4843987513
 11
12.7909803655
 21
8.5052431904
  0
LINE
  5
322
100
AcDbEntity
  8
0
100
AcDbLine
 62
4
  6
CONTINUOUS
 10
12.7976357068
 20
8.3957606534
 11
12.8020726007
 21
8.4166050939
  0
LINE
  5
323
100
AcDbEntity
  8
0
100
AcDbLine
 62
4
  6
CONTINUOUS
 10
12.822038626
 20
8.4193320647
 11
12.826475518
 21
8.4401765034
  0
LINE
  5
324
100
AcDbEntity
  8
0
100
AcDbLine
 62
4
  6
CONTINUOUS
 10
12.836088806
 20
7.8583155996
 11
12.8316519122
 21
7.8374711592
  0
LINE
  5
325
100
AcDbEntity
  8
0
100
AcDbLine
 62
4
  6
CONTINUOUS
 10
12.9063396203
 20
8.1646183772
 11
12.9085580673
 21
8.1750405974
  0
LINE
  5
326
100
AcDbEntity
  8
0
100
AcDbLine
 62
4
  6
CONTINUOUS
 10
12.9307425395
 20
8.2627040683
 11
12.9263056438
 21
8.2418596278
  0
LINE
  5
327
100
AcDbEntity
  8
0
100
AcDbLine
 62
4
  6
CONTINUOUS
 10
12.9329609855
 20
8.2068913727
 11
12.9285240898
 21
8.1860469305
  0
LINE
  5
328
100
AcDbEntity
  8
0
100
AcDbLine
 62
4
  6
CONTINUOUS
 10
13.0438833279
 20
8.7081318842
 11
13.0461017665
 21
8.718554099
  0
LINE
  5
329
100
AcDbEntity
  8
0
100
AcDbLine
 62
4
  6
CONTINUOUS
 10
13.0638493643
 20
8.7274175956
 11
13.0660678029
 21
8.7378398103
  0
LINE
  5
32A
100
AcDbEntity
  8
0
100
AcDbLine
 62
4
  6
CONTINUOUS
 10
12.9041211734
 20
8.2287104411
 11
12.907818585
 21
8.2405612272
  0
LINE
  5
32B
100
AcDbEntity
  8
0
100
AcDbLine
 62
4
  6
CONTINUOUS
 10
12.9255661575
 20
8.5938462668
 11
12.9300030495
 21
8.6064113432
  0
LINE
  5
32C
100
AcDbEntity
  8
0
100
AcDbLine
 62
4
  6
CONTINUOUS
 10
12.9677166541
 20
8.5931637023
 11
12.9721535461
 21
8.6057287752
  0
LINE
  5
32D
100
AcDbEntity
  8
0
100
AcDbLine
 62
4
  6
CONTINUOUS
 10
12.8146438189
 20
7.8927970969
 11
12.8028121009
 21
7.8592902267
  0
LINE
  5
32E
100
AcDbEntity
  8
0
100
AcDbLine
 62
4
  6
CONTINUOUS
 10
13.0098671566
 20
8.0096138766
 11
12.9987749191
 21
7.9988995973
  0
LINE
  5
32F
100
AcDbEntity
  8
0
100
AcDbLine
 62
4
  6
CONTINUOUS
 10
12.985464243
 20
7.9860424707
 11
12.9788088975
 21
7.9796139002
  0
LINE
  5
330
100
AcDbEntity
  8
0
100
AcDbLine
 62
4
  6
CONTINUOUS
 10
12.9618008089
 20
7.9631853472
 11
12.9529270248
 21
7.9546139295
  0
LINE
  5
331
100
AcDbEntity
  8
0
100
AcDbLine
 62
4
  6
CONTINUOUS
 10
12.8316519122
 20
7.8374711592
 11
12.8205596784
 21
7.8267568834
  0
LINE
  5
332
100
AcDbEntity
  8
0
100
AcDbLine
 62
4
  6
CONTINUOUS
 10
12.9019027367
 20
7.9053282489
 11
12.9152134202
 21
7.9181853827
  0
LINE
  5
333
100
AcDbEntity
  8
0
100
AcDbLine
 62
4
  6
CONTINUOUS
 10
13.02687526
 20
8.0260424439
 11
13.0401859361
 21
8.0388995705
  0
LINE
  5
334
100
AcDbEntity
  8
0
100
AcDbLine
 62
4
  6
CONTINUOUS
 10
11.0822269582
 20
6.409343687
 11
11.0967158462
 21
6.4179981356
  0
LINE
  5
335
100
AcDbEntity
  8
0
100
AcDbLine
 62
4
  6
CONTINUOUS
 10
11.125693622
 20
6.3676922246
 11
11.0967158462
 21
6.3503833241
  0
LINE
  5
336
100
AcDbEntity
  8
0
100
AcDbLine
 62
4
  6
CONTINUOUS
 10
13.0660678029
 20
8.6992027747
 11
13.0638493643
 21
8.7025795035
  0
LINE
  5
337
100
AcDbEntity
  8
0
100
AcDbLine
 62
4
  6
CONTINUOUS
 10
13.0771600256
 20
8.6988778877
 11
13.074941587
 21
8.7022546164
  0
LINE
  5
338
100
AcDbEntity
  8
0
100
AcDbLine
 62
4
  6
CONTINUOUS
 10
12.985464243
 20
8.1019535741
 11
12.989901135
 21
8.0896805549
  0
LINE
  5
339
100
AcDbEntity
  8
0
100
AcDbLine
 62
4
  6
CONTINUOUS
 10
13.0098671566
 20
8.12552498
 11
13.0143040486
 21
8.1132519608
  0
LINE
  5
33A
100
AcDbEntity
  8
0
100
AcDbLine
 62
4
  6
CONTINUOUS
 10
12.8952473779
 20
8.5728399404
 11
12.897465824
 21
8.5667034274
  0
LINE
  5
33B
100
AcDbEntity
  8
0
100
AcDbLine
 62
4
  6
CONTINUOUS
 10
12.9899011143
 20
8.5897541519
 11
12.9921195677
 21
8.5836176486
  0
LINE
  5
33C
100
AcDbEntity
  8
0
100
AcDbLine
 62
4
  6
CONTINUOUS
 10
13.0143040427
 20
8.6050462072
 11
13.0120855893
 21
8.6111827106
  0
LINE
  5
33D
100
AcDbEntity
  8
0
100
AcDbLine
 62
4
  6
CONTINUOUS
 10
13.0461017665
 20
8.6357604517
 11
13.0438833279
 21
8.6418969693
  0
LINE
  5
33E
100
AcDbEntity
  8
0
100
AcDbLine
 62
4
  6
CONTINUOUS
 10
12.907818585
 20
8.2653993228
 11
12.9041211734
 21
8.2783866253
  0
LINE
  5
33F
100
AcDbEntity
  8
0
100
AcDbLine
 62
4
  6
CONTINUOUS
 10
12.9566244166
 20
8.6321256107
 11
12.9581033756
 21
8.625274808
  0
LINE
  5
340
100
AcDbEntity
  8
0
100
AcDbLine
 62
4
  6
CONTINUOUS
 10
12.8353493058
 20
8.5481002983
 11
12.8508784353
 21
8.447189183
  0
LINE
  5
341
100
AcDbEntity
  8
0
100
AcDbLine
 62
4
  6
CONTINUOUS
 10
12.9810273302
 20
8.5729033693
 11
12.9810273302
 21
8.6391382885
  0
LINE
  5
342
100
AcDbEntity
  8
0
100
AcDbLine
 62
4
  6
CONTINUOUS
 10
12.9899011143
 20
8.6642684343
 11
12.9899011143
 21
8.5897541519
  0
LINE
  5
343
100
AcDbEntity
  8
0
100
AcDbLine
 62
4
  6
CONTINUOUS
 10
12.989901135
 20
8.0896805549
 11
12.989901135
 21
8.0068869094
  0
LINE
  5
344
100
AcDbEntity
  8
0
100
AcDbLine
 62
4
  6
CONTINUOUS
 10
12.9987749191
 20
7.9988995973
 11
12.9987749191
 21
8.1148107007
  0
LINE
  5
345
100
AcDbEntity
  8
0
100
AcDbLine
 62
4
  6
CONTINUOUS
 10
13.0032118052
 20
8.5943319279
 11
13.0032118052
 21
8.6771255752
  0
LINE
  5
346
100
AcDbEntity
  8
0
100
AcDbLine
 62
4
  6
CONTINUOUS
 10
13.0120855893
 20
8.6111827106
 11
13.0120855893
 21
8.7188144491
  0
LINE
  5
347
100
AcDbEntity
  8
0
100
AcDbLine
 62
4
  6
CONTINUOUS
 10
13.0143040486
 20
8.1132519608
 11
13.0143040486
 21
8.0304583153
  0
LINE
  5
348
100
AcDbEntity
  8
0
100
AcDbLine
 62
4
  6
CONTINUOUS
 10
13.02687526
 20
8.0260424439
 11
13.02687526
 21
8.1419535474
  0
LINE
  5
349
100
AcDbEntity
  8
0
100
AcDbLine
 62
4
  6
CONTINUOUS
 10
13.0320516109
 20
8.6221890427
 11
13.0320516109
 21
8.70498269
  0
LINE
  5
34A
100
AcDbEntity
  8
0
100
AcDbLine
 62
4
  6
CONTINUOUS
 10
13.0320516109
 20
8.7298207786
 11
13.0320516109
 21
8.7381001461
  0
LINE
  5
34B
100
AcDbEntity
  8
0
100
AcDbLine
 62
4
  6
CONTINUOUS
 10
13.0438833279
 20
8.6418969693
 11
13.0438833279
 21
8.7081318842
  0
LINE
  5
34C
100
AcDbEntity
  8
0
100
AcDbLine
 62
4
  6
CONTINUOUS
 10
13.0638493643
 20
8.7025795035
 11
13.0638493643
 21
8.7274175956
  0
LINE
  5
34D
100
AcDbEntity
  8
0
100
AcDbLine
 62
4
  6
CONTINUOUS
 10
13.0771600256
 20
8.674039793
 11
13.0771600256
 21
8.6988778877
  0
LINE
  5
34E
100
AcDbEntity
  8
0
100
AcDbLine
 62
4
  6
CONTINUOUS
 10
13.0327910904
 20
8.7388144285
 11
13.0320516109
 21
8.7298207786
  0
LINE
  5
34F
100
AcDbEntity
  8
0
100
AcDbLine
 62
4
  6
CONTINUOUS
 10
13.074941587
 20
8.6636175808
 11
13.0771600256
 21
8.674039793
  0
LINE
  5
350
100
AcDbEntity
  8
0
100
AcDbLine
 62
4
  6
CONTINUOUS
 10
12.9484901328
 20
8.049680596
 11
12.9529270248
 21
8.0705250329
  0
LINE
  5
351
100
AcDbEntity
  8
0
100
AcDbLine
 62
4
  6
CONTINUOUS
 10
12.9743720055
 20
8.0746805667
 11
12.9788088975
 21
8.0955250037
  0
LINE
  5
352
100
AcDbEntity
  8
0
100
AcDbLine
 62
4
  6
CONTINUOUS
 10
12.989901135
 20
8.0068869094
 11
12.985464243
 21
7.9860424707
  0
LINE
  5
353
100
AcDbEntity
  8
0
100
AcDbLine
 62
4
  6
CONTINUOUS
 10
13.0143040486
 20
8.0304583153
 11
13.0098671566
 21
8.0096138766
  0
LINE
  5
354
100
AcDbEntity
  8
0
100
AcDbLine
 62
4
  6
CONTINUOUS
 10
13.0608914373
 20
8.1085757377
 11
13.0490597202
 21
8.0750688701
  0
LINE
  5
355
100
AcDbEntity
  8
0
100
AcDbLine
 62
4
  6
CONTINUOUS
 10
13.0638493643
 20
8.6611826807
 11
13.0660678029
 21
8.6550461631
  0
LINE
  5
356
100
AcDbEntity
  8
0
100
AcDbLine
 62
4
  6
CONTINUOUS
 10
13.074941587
 20
8.7464112281
 11
13.0771600256
 21
8.7402747078
  0
LINE
  5
357
100
AcDbEntity
  8
0
100
AcDbLine
 62
4
  6
CONTINUOUS
 10
12.9810273302
 20
8.6391382885
 11
12.9788088916
 21
8.6535541693
  0
LINE
  5
358
100
AcDbEntity
  8
0
100
AcDbLine
 62
7
  6
CONTINUOUS
 10
13.5788988458
 20
10.8021361778
 11
13.5788988458
 21
7.1799141145
  0
LINE
  5
359
100
AcDbEntity
  8
0
100
AcDbLine
 62
7
  6
CONTINUOUS
 10
9.7151953117
 20
11.0700849279
 11
13.5788988458
 21
10.8021361778
  0
LINE
  5
35A
100
AcDbEntity
  8
0
100
AcDbLine
 62
7
  6
CONTINUOUS
 10
12.2848046883
 20
5.9299150721
 11
13.5788988458
 21
7.1799141145
  0
ARC
  5
35B
100
AcDbEntity
  8
0
100
AcDbCircle
 62
7
  6
CONTINUOUS
 10
11.2647107789
 20
8.8765377432
 40
0.6051096036
100
AcDbArc
 50
134.4925547133
 51
135.0973035324
  0
ARC
  5
35C
100
AcDbEntity
  8
0
100
AcDbCircle
 62
7
  6
CONTINUOUS
 10
9.3328590119
 20
9.0105121183
 40
0.6051096035
100
AcDbArc
 50
134.4925547133
 51
135.0973035324
  0
ARC
  5
35D
100
AcDbEntity
  8
0
100
AcDbCircle
 62
7
  6
CONTINUOUS
 10
9.4578832867
 20
8.8810733812
 40
0.6049307718
100
AcDbArc
 50
312.9427870275
 51
313.3735383065
  0
ARC
  5
35E
100
AcDbEntity
  8
0
100
AcDbCircle
 62
7
  6
CONTINUOUS
 10
11.3897350539
 20
8.747099006
 40
0.6049307716
100
AcDbArc
 50
312.9427870274
 51
313.3735383065
  0
ARC
  5
35F
100
AcDbEntity
  8
0
100
AcDbCircle
 62
7
  6
CONTINUOUS
 10
10.1167960448
 20
7.7876353455
 40
0.4482791787
100
AcDbArc
 50
266.0072890233
 51
275.2435185303
  0
ARC
  5
360
100
AcDbEntity
  8
0
100
AcDbCircle
 62
7
  6
CONTINUOUS
 10
11.5656848701
 20
7.6871545641
 40
0.4482791787
100
AcDbArc
 50
266.0072890233
 51
275.2435185303
  0
ARC
  5
361
100
AcDbEntity
  8
0
100
AcDbCircle
 62
7
  6
CONTINUOUS
 10
10.1225726725
 20
7.7960726932
 40
0.420168394
100
AcDbArc
 50
266.0114712862
 51
274.449896375
  0
ARC
  5
362
100
AcDbEntity
  8
0
100
AcDbCircle
 62
7
  6
CONTINUOUS
 10
11.5714614978
 20
7.6955919119
 40
0.420168394
100
AcDbArc
 50
266.0114712862
 51
274.449896375
  0
SPLINE
  5
363
100
AcDbEntity
  8
0
100
AcDbSpline
 62
7
  6
CONTINUOUS
 70
0
 71
3
 72
46
 73
42
 74
0
 42
0.0000001
 43
0.0000001
 44
0.0000000001
 40
0.0
 40
0.0
 40
0.0
 40
0.0
 40
0.031143804
 40
0.0624406641
 40
0.0938846266
 40
0.1254660369
 40
0.1571726773
 40
0.188989797
 40
0.2209004514
 40
0.2528858567
 40
0.2849257707
 40
0.3169988946
 40
0.3490832879
 40
0.3811567922
 40
0.4131974593
 40
0.4451839758
 40
0.4770960786
 40
0.5089149549
 40
0.5406236259
 40
0.5722072995
 40
0.6036536882
 40
0.6349532936
 40
0.6660996371
 40
0.6970894354
 40
0.727922722
 40
0.7586028953
 40
0.7891366922
 40
0.8043544294
 40
0.8195395762
 40
0.8346938584
 40
0.8498191748
 40
0.8649175902
 40
0.8799913269
 40
0.8950427481
 40
0.9100743467
 40
0.9250887336
 40
0.940088619
 40
0.9550767983
 40
0.9700561375
 40
0.9850295542
 40
1.0
 40
1.0
 40
1.0
 40
1.0
 10
9.3870270377
 20
9.6091757588
 30
0.0
 10
9.4034200074
 20
9.6080389025
 30
0.0
 10
9.4362154943
 20
9.6045596972
 30
0.0
 10
9.4850111097
 20
9.5957955019
 30
0.0
 10
9.5332840845
 20
9.5835195109
 30
0.0
 10
9.5807736932
 20
9.5677976807
 30
0.0
 10
9.6272276585
 20
9.548714315
 30
0.0
 10
9.6723981832
 20
9.5263715222
 30
0.0
 10
9.7160446055
 20
9.5008886277
 30
0.0
 10
9.7579343761
 20
9.4724017461
 30
0.0
 10
9.7978443235
 20
9.4410628962
 30
0.0
 10
9.8355617434
 20
9.4070391624
 30
0.0
 10
9.8708856681
 20
9.3705119807
 30
0.0
 10
9.903627844
 20
9.3316760607
 30
0.0
 10
9.9336136474
 20
9.2907383156
 30
0.0
 10
9.9606831741
 20
9.2479169098
 30
0.0
 10
9.9846920071
 20
9.2034400245
 30
0.0
 10
10.0055118762
 20
9.1575446151
 30
0.0
 10
10.0230315254
 20
9.1104752667
 30
0.0
 10
10.0371572411
 20
9.0624828524
 30
0.0
 10
10.0478132218
 20
9.0138231822
 30
0.0
 10
10.0549421879
 20
8.9647557353
 30
0.0
 10
10.0585056385
 20
8.9155422038
 30
0.0
 10
10.0584839823
 20
8.8664453165
 30
0.0
 10
10.0548766067
 20
8.8177267046
 30
0.0
 10
10.0477028111
 20
8.7696483455
 30
0.0
 10
10.0387718754
 20
8.7302794444
 30
0.0
 10
10.0298886824
 20
8.6993724619
 30
0.0
 10
10.0223744194
 20
8.6765335317
 30
0.0
 10
10.0140116898
 20
8.6540437907
 30
0.0
 10
10.0048115016
 20
8.6319328822
 30
0.0
 10
9.9947861669
 20
8.6102304635
 30
0.0
 10
9.9839491154
 20
8.5889654758
 30
0.0
 10
9.9723147435
 20
8.5681663799
 30
0.0
 10
9.9598986052
 20
8.5478609611
 30
0.0
 10
9.9467173305
 20
8.5280763256
 30
0.0
 10
9.932788448
 20
8.508838953
 30
0.0
 10
9.9181306131
 20
8.4901745634
 30
0.0
 10
9.9027633564
 20
8.4721079752
 30
0.0
 10
9.8867074838
 20
8.4546637234
 30
0.0
 10
9.8755575987
 20
8.4434634349
 30
0.0
 10
9.8698763342
 20
8.4379757494
 30
0.0
  0
SPLINE
  5
364
100
AcDbEntity
  8
0
100
AcDbSpline
 62
7
  6
CONTINUOUS
 70
0
 71
3
 72
46
 73
42
 74
0
 42
0.0000001
 43
0.0000001
 44
0.0000000001
 40
0.0
 40
0.0
 40
0.0
 40
0.0
 40
0.031143804
 40
0.0624406641
 40
0.0938846266
 40
0.1254660369
 40
0.1571726773
 40
0.188989797
 40
0.2209004514
 40
0.2528858567
 40
0.2849257707
 40
0.3169988946
 40
0.3490832879
 40
0.3811567922
 40
0.4131974593
 40
0.4451839758
 40
0.4770960786
 40
0.5089149549
 40
0.5406236259
 40
0.5722072995
 40
0.6036536882
 40
0.6349532936
 40
0.6660996371
 40
0.6970894354
 40
0.727922722
 40
0.7586028953
 40
0.7891366922
 40
0.8043544294
 40
0.8195395762
 40
0.8346938584
 40
0.8498191748
 40
0.8649175902
 40
0.8799913269
 40
0.8950427481
 40
0.9100743467
 40
0.9250887336
 40
0.940088619
 40
0.9550767983
 40
0.9700561375
 40
0.9850295542
 40
1.0
 40
1.0
 40
1.0
 40
1.0
 10
11.3188788048
 20
9.4752013837
 30
0.0
 10
11.3352717744
 20
9.4740645274
 30
0.0
 10
11.3680672613
 20
9.4705853221
 30
0.0
 10
11.4168628767
 20
9.4618211268
 30
0.0
 10
11.4651358516
 20
9.4495451358
 30
0.0
 10
11.5126254602
 20
9.4338233056
 30
0.0
 10
11.5590794255
 20
9.4147399399
 30
0.0
 10
11.6042499503
 20
9.3923971472
 30
0.0
 10
11.6478963726
 20
9.3669142526
 30
0.0
 10
11.6897861432
 20
9.338427371
 30
0.0
 10
11.7296960906
 20
9.3070885211
 30
0.0
 10
11.7674135104
 20
9.2730647873
 30
0.0
 10
11.8027374352
 20
9.2365376056
 30
0.0
 10
11.8354796111
 20
9.1977016856
 30
0.0
 10
11.8654654144
 20
9.1567639405
 30
0.0
 10
11.8925349412
 20
9.1139425347
 30
0.0
 10
11.9165437741
 20
9.0694656494
 30
0.0
 10
11.9373636432
 20
9.02357024
 30
0.0
 10
11.9548832924
 20
8.9765008916
 30
0.0
 10
11.9690090081
 20
8.9285084774
 30
0.0
 10
11.9796649888
 20
8.8798488071
 30
0.0
 10
11.986793955
 20
8.8307813602
 30
0.0
 10
11.9903574056
 20
8.7815678287
 30
0.0
 10
11.9903357493
 20
8.7324709415
 30
0.0
 10
11.9867283737
 20
8.6837523296
 30
0.0
 10
11.9795545782
 20
8.6356739704
 30
0.0
 10
11.9706236425
 20
8.5963050693
 30
0.0
 10
11.9617404494
 20
8.5653980868
 30
0.0
 10
11.9542261864
 20
8.5425591566
 30
0.0
 10
11.9458634569
 20
8.5200694156
 30
0.0
 10
11.9366632687
 20
8.4979585072
 30
0.0
 10
11.9266379339
 20
8.4762560884
 30
0.0
 10
11.9158008825
 20
8.4549911007
 30
0.0
 10
11.9041665106
 20
8.4341920049
 30
0.0
 10
11.8917503722
 20
8.4138865861
 30
0.0
 10
11.8785690975
 20
8.3941019505
 30
0.0
 10
11.864640215
 20
8.3748645779
 30
0.0
 10
11.8499823801
 20
8.3562001884
 30
0.0
 10
11.8346151234
 20
8.3381336001
 30
0.0
 10
11.8185592509
 20
8.3206893483
 30
0.0
 10
11.8074093657
 20
8.3094890599
 30
0.0
 10
11.8017281013
 20
8.3040013743
 30
0.0
  0
SPLINE
  5
365
100
AcDbEntity
  8
0
100
AcDbSpline
 62
7
  6
CONTINUOUS
 70
0
 71
3
 72
61
 73
57
 74
0
 42
0.0000001
 43
0.0000001
 44
0.0000000001
 40
0.0
 40
0.0
 40
0.0
 40
0.0
 40
0.0081437451
 40
0.0169768238
 40
0.0265208827
 40
0.0367895907
 40
0.0477882519
 40
0.0595157749
 40
0.0719659111
 40
0.0851281662
 40
0.0989883865
 40
0.1135291266
 40
0.1287303122
 40
0.1445692972
 40
0.1610212357
 40
0.1780593736
 40
0.1956550177
 40
0.2137779419
 40
0.2514761317
 40
0.2908853948
 40
0.3317179717
 40
0.3736716991
 40
0.4164333432
 40
0.459681813
 40
0.5030913239
 40
0.5463345566
 40
0.5890857858
 40
0.63102401
 40
0.6718361344
 40
0.7112202156
 40
0.7302867538
 40
0.7488898237
 40
0.7669963397
 40
0.7845746224
 40
0.8015943886
 40
0.8180271298
 40
0.8338460684
 40
0.8490264182
 40
0.8635457074
 40
0.8773837958
 40
0.8905234617
 40
0.9029506297
 40
0.9146548405
 40
0.9256301247
 40
0.9358755584
 40
0.94539665
 40
0.9542068245
 40
0.9623293601
 40
0.9698004202
 40
0.9766722849
 40
0.9830175572
 40
0.9889330701
 40
0.9917694488
 40
0.9945466069
 40
0.9972834973
 40
1.0
 40
1.0
 40
1.0
 40
1.0
 10
13.4494894301
 20
7.620946778
 30
0.0
 10
13.4486382547
 20
7.6201246058
 30
0.0
 10
13.4469403059
 20
7.6183305728
 30
0.0
 10
13.4445004327
 20
7.615343956
 30
0.0
 10
13.4420710624
 20
7.6119607815
 30
0.0
 10
13.4396569082
 20
7.608187838
 30
0.0
 10
13.4372623535
 20
7.6040321836
 30
0.0
 10
13.4348921648
 20
7.5995018382
 30
0.0
 10
13.4325509769
 20
7.5946056793
 30
0.0
 10
13.4302434692
 20
7.5893533423
 30
0.0
 10
13.4279743032
 20
7.5837552187
 30
0.0
 10
13.4257480056
 20
7.5778224541
 30
0.0
 10
13.4235691084
 20
7.5715668719
 30
0.0
 10
13.4214419963
 20
7.5650009797
 30
0.0
 10
13.4193709534
 20
7.5581379227
 30
0.0
 10
13.4173602075
 20
7.5509914523
 30
0.0
 10
13.4154137548
 20
7.5435758991
 30
0.0
 10
13.4128761946
 20
7.5332130603
 30
0.0
 10
13.4099036163
 20
7.5196953154
 30
0.0
 10
13.4066961144
 20
7.5028575686
 30
0.0
 10
13.4038291529
 20
7.4853316843
 30
0.0
 10
13.4013259828
 20
7.467258399
 30
0.0
 10
13.3992069169
 20
7.4487827364
 30
0.0
 10
13.3974891051
 20
7.4300530666
 30
0.0
 10
13.3961864031
 20
7.4112198216
 30
0.0
 10
13.3953092693
 20
7.3924342797
 30
0.0
 10
13.3948646899
 20
7.3738473409
 30
0.0
 10
13.3948560975
 20
7.3556082442
 30
0.0
 10
13.3952834055
 20
7.3378635352
 30
0.0
 10
13.3960070871
 20
7.3234552975
 30
0.0
 10
13.3968087524
 20
7.3122865867
 30
0.0
 10
13.3975092744
 20
7.3042114505
 30
0.0
 10
13.39831407
 20
7.2963633958
 30
0.0
 10
13.3992214974
 20
7.2887581723
 30
0.0
 10
13.4002297425
 20
7.2814110516
 30
0.0
 10
13.4013367194
 20
7.2743367733
 30
0.0
 10
13.4025401877
 20
7.2675495201
 30
0.0
 10
13.4038377144
 20
7.2610628853
 30
0.0
 10
13.4052266214
 20
7.2548898372
 30
0.0
 10
13.4067041308
 20
7.249042698
 30
0.0
 10
13.4082672196
 20
7.2435330996
 30
0.0
 10
13.4099127232
 20
7.2383719576
 30
0.0
 10
13.4116373792
 20
7.233569451
 30
0.0
 10
13.413437709
 20
7.2291349527
 30
0.0
 10
13.4153102488
 20
7.2250770427
 30
0.0
 10
13.4172514593
 20
7.2214034466
 30
0.0
 10
13.4192578285
 20
7.2181210144
 30
0.0
 10
13.421326156
 20
7.2152358218
 30
0.0
 10
13.4234533935
 20
7.2127531907
 30
0.0
 10
13.42563732
 20
7.2106780519
 30
0.0
 10
13.4278753784
 20
7.2090157323
 30
0.0
 10
13.4298117707
 20
7.2079647724
 30
0.0
 10
13.4313722399
 20
7.2073504438
 30
0.0
 10
13.4325361817
 20
7.2070019461
 30
0.0
 10
13.4337089486
 20
7.2067598123
 30
0.0
 10
13.434497498
 20
7.2066693358
 30
0.0
 10
13.434891302
 20
7.2066420205
 30
0.0
  0
SPLINE
  5
366
100
AcDbEntity
  8
0
100
AcDbSpline
 62
7
  6
CONTINUOUS
 70
0
 71
3
 72
61
 73
57
 74
0
 42
0.0000001
 43
0.0000001
 44
0.0000000001
 40
0.0
 40
0.0
 40
0.0
 40
0.0
 40
0.0081437451
 40
0.0169768238
 40
0.0265208827
 40
0.0367895907
 40
0.0477882519
 40
0.0595157749
 40
0.0719659111
 40
0.0851281662
 40
0.0989883865
 40
0.1135291266
 40
0.1287303122
 40
0.1445692972
 40
0.1610212357
 40
0.1780593736
 40
0.1956550177
 40
0.2137779419
 40
0.2514761317
 40
0.2908853948
 40
0.3317179717
 40
0.3736716991
 40
0.4164333432
 40
0.459681813
 40
0.5030913239
 40
0.5463345566
 40
0.5890857858
 40
0.63102401
 40
0.6718361344
 40
0.7112202156
 40
0.7302867538
 40
0.7488898237
 40
0.7669963397
 40
0.7845746224
 40
0.8015943886
 40
0.8180271298
 40
0.8338460684
 40
0.8490264182
 40
0.8635457074
 40
0.8773837958
 40
0.8905234617
 40
0.9029506297
 40
0.9146548405
 40
0.9256301247
 40
0.9358755584
 40
0.94539665
 40
0.9542068245
 40
0.9623293601
 40
0.9698004202
 40
0.9766722849
 40
0.9830175572
 40
0.9889330701
 40
0.9917694488
 40
0.9945466069
 40
0.9972834973
 40
1.0
 40
1.0
 40
1.0
 40
1.0
 10
12.414214104
 20
6.6209475441
 30
0.0
 10
12.4133629287
 20
6.6201253718
 30
0.0
 10
12.4116649799
 20
6.6183313388
 30
0.0
 10
12.4092251067
 20
6.615344722
 30
0.0
 10
12.4067957364
 20
6.6119615475
 30
0.0
 10
12.4043815822
 20
6.608188604
 30
0.0
 10
12.4019870275
 20
6.6040329496
 30
0.0
 10
12.3996168388
 20
6.5995026042
 30
0.0
 10
12.3972756509
 20
6.5946064453
 30
0.0
 10
12.3949681432
 20
6.5893541083
 30
0.0
 10
12.3926989772
 20
6.5837559847
 30
0.0
 10
12.3904726796
 20
6.5778232201
 30
0.0
 10
12.3882937823
 20
6.5715676379
 30
0.0
 10
12.3861666703
 20
6.5650017457
 30
0.0
 10
12.3840956274
 20
6.5581386888
 30
0.0
 10
12.3820848814
 20
6.5509922183
 30
0.0
 10
12.3801384288
 20
6.5435766651
 30
0.0
 10
12.3776008686
 20
6.5332138264
 30
0.0
 10
12.3746282902
 20
6.5196960814
 30
0.0
 10
12.3714207883
 20
6.5028583346
 30
0.0
 10
12.3685538269
 20
6.4853324504
 30
0.0
 10
12.3660506568
 20
6.467259165
 30
0.0
 10
12.3639315909
 20
6.4487835024
 30
0.0
 10
12.3622137791
 20
6.4300538326
 30
0.0
 10
12.3609110771
 20
6.4112205876
 30
0.0
 10
12.3600339433
 20
6.3924350457
 30
0.0
 10
12.3595893639
 20
6.373848107
 30
0.0
 10
12.3595807715
 20
6.3556090102
 30
0.0
 10
12.3600080795
 20
6.3378643012
 30
0.0
 10
12.3607317611
 20
6.3234560635
 30
0.0
 10
12.3615334263
 20
6.3122873527
 30
0.0
 10
12.3622339484
 20
6.3042122165
 30
0.0
 10
12.363038744
 20
6.2963641618
 30
0.0
 10
12.3639461714
 20
6.2887589384
 30
0.0
 10
12.3649544165
 20
6.2814118176
 30
0.0
 10
12.3660613934
 20
6.2743375394
 30
0.0
 10
12.3672648616
 20
6.2675502861
 30
0.0
 10
12.3685623884
 20
6.2610636513
 30
0.0
 10
12.3699512954
 20
6.2548906032
 30
0.0
 10
12.3714288048
 20
6.2490434641
 30
0.0
 10
12.3729918936
 20
6.2435338656
 30
0.0
 10
12.3746373972
 20
6.2383727237
 30
0.0
 10
12.3763620532
 20
6.2335702171
 30
0.0
 10
12.378162383
 20
6.2291357188
 30
0.0
 10
12.3800349227
 20
6.2250778087
 30
0.0
 10
12.3819761333
 20
6.2214042126
 30
0.0
 10
12.3839825024
 20
6.2181217804
 30
0.0
 10
12.38605083
 20
6.2152365878
 30
0.0
 10
12.3881780675
 20
6.2127539567
 30
0.0
 10
12.390361994
 20
6.2106788179
 30
0.0
 10
12.3926000524
 20
6.2090164983
 30
0.0
 10
12.3945364447
 20
6.2079655384
 30
0.0
 10
12.3960969139
 20
6.2073512098
 30
0.0
 10
12.3972608557
 20
6.2070027121
 30
0.0
 10
12.3984336226
 20
6.2067605783
 30
0.0
 10
12.399222172
 20
6.2066701019
 30
0.0
 10
12.399615976
 20
6.2066427865
 30
0.0
  0
SPLINE
  5
367
100
AcDbEntity
  8
0
100
AcDbSpline
 62
7
  6
CONTINUOUS
 70
0
 71
3
 72
39
 73
35
 74
0
 42
0.0000001
 43
0.0000001
 44
0.0000000001
 40
0.0
 40
0.0
 40
0.0
 40
0.0
 40
0.0311450462
 40
0.0624431052
 40
0.093888346
 40
0.1254709894
 40
0.1571788841
 40
0.1889972607
 40
0.2209091756
 40
0.252895844
 40
0.2849370232
 40
0.3170114137
 40
0.349097074
 40
0.3811718446
 40
0.4132137767
 40
0.4452015559
 40
0.4771149183
 40
0.5089350511
 40
0.5406449736
 40
0.5722298924
 40
0.6036775218
 40
0.6349783627
 40
0.666125935
 40
0.697116956
 40
0.7279514587
 40
0.7586328412
 40
0.7891678426
 40
0.819566443
 40
0.8498416848
 40
0.8800094168
 40
0.9100879629
 40
0.9400977196
 40
0.9700606951
 40
1.0
 40
1.0
 40
1.0
 40
1.0
 10
9.4069560879
 20
9.4207516793
 30
0.0
 10
9.4182778599
 20
9.4199665117
 30
0.0
 10
9.440927981
 20
9.4175636158
 30
0.0
 10
9.4746285629
 20
9.4115106206
 30
0.0
 10
9.5079681769
 20
9.4030322314
 30
0.0
 10
9.5407667789
 20
9.3921739911
 30
0.0
 10
9.5728501075
 20
9.3789941228
 30
0.0
 10
9.6040470177
 20
9.3635630987
 30
0.0
 10
9.6341913183
 20
9.3459633919
 30
0.0
 10
9.6631223903
 20
9.3262889854
 30
0.0
 10
9.690686092
 20
9.3046448632
 30
0.0
 10
9.7167355519
 20
9.2811464593
 30
0.0
 10
9.7411319428
 20
9.2559190447
 30
0.0
 10
9.7637452224
 20
9.2290970789
 30
0.0
 10
9.7844548406
 20
9.2008235126
 30
0.0
 10
9.8031503462
 20
9.1712490044
 30
0.0
 10
9.8197319738
 20
9.1405311346
 30
0.0
 10
9.8341111714
 20
9.1088335757
 30
0.0
 10
9.8462110662
 20
9.0763252326
 30
0.0
 10
9.8559669178
 20
9.0431793689
 30
0.0
 10
9.8633264313
 20
9.0095726775
 30
0.0
 10
9.868250036
 20
8.9756843532
 30
0.0
 10
9.8707111074
 20
8.9416951529
 30
0.0
 10
9.8706961128
 20
8.907786445
 30
0.0
 10
9.8682047342
 20
8.8741392536
 30
0.0
 10
9.8632498819
 20
8.8409332922
 30
0.0
 10
9.8558576195
 20
8.808346012
 30
0.0
 10
9.8460670505
 20
8.776551651
 30
0.0
 10
9.8339301442
 20
8.7457203142
 30
0.0
 10
9.8195114316
 20
8.7160169931
 30
0.0
 10
9.8028879284
 20
8.6876008594
 30
0.0
 10
9.7841478701
 20
8.6606236159
 30
0.0
 10
9.7633933124
 20
8.6352316034
 30
0.0
 10
9.7482812397
 20
8.619444474
 30
0.0
 10
9.7404344615
 20
8.6118650588
 30
0.0
  0
SPLINE
  5
368
100
AcDbEntity
  8
0
100
AcDbSpline
 62
7
  6
CONTINUOUS
 70
0
 71
3
 72
23
 73
19
 74
0
 42
0.0000001
 43
0.0000001
 44
0.0000000001
 40
0.0
 40
0.0
 40
0.0
 40
0.0
 40
0.0638615549
 40
0.1275031865
 40
0.1909230463
 40
0.2541276772
 40
0.3171223954
 40
0.3799159295
 40
0.4425188203
 40
0.5049436672
 40
0.5672049938
 40
0.6293190755
 40
0.6913037924
 40
0.7531784389
 40
0.8149635253
 40
0.8766805554
 40
0.9383517902
 40
1.0
 40
1.0
 40
1.0
 40
1.0
 10
9.4069560879
 20
9.4207516793
 30
0.0
 10
9.3992166686
 20
9.4212884098
 30
0.0
 10
9.3837349259
 20
9.4219749721
 30
0.0
 10
9.3605323157
 20
9.4218367109
 30
0.0
 10
9.3374454184
 20
9.4205287831
 30
0.0
 10
9.3145333455
 20
9.4180546238
 30
0.0
 10
9.2918533695
 20
9.4144202353
 30
0.0
 10
9.2694627349
 20
9.4096347635
 30
0.0
 10
9.2474177903
 20
9.4037101755
 30
0.0
 10
9.2257740638
 20
9.3966613523
 30
0.0
 10
9.2045860741
 20
9.3885059964
 30
0.0
 10
9.1839072023
 20
9.3792645936
 30
0.0
 10
9.1637895635
 20
9.36896037
 30
0.0
 10
9.1442838504
 20
9.357619225
 30
0.0
 10
9.1254392571
 20
9.3452697607
 30
0.0
 10
9.1073031073
 20
9.3319429152
 30
0.0
 10
9.089921726
 20
9.3176728393
 30
0.0
 10
9.0788643004
 20
9.3075525005
 30
0.0
 10
9.0734777144
 20
9.3023494515
 30
0.0
  0
SPLINE
  5
369
100
AcDbEntity
  8
0
100
AcDbSpline
 62
7
  6
CONTINUOUS
 70
0
 71
3
 72
39
 73
35
 74
0
 42
0.0000001
 43
0.0000001
 44
0.0000000001
 40
0.0
 40
0.0
 40
0.0
 40
0.0
 40
0.0311450462
 40
0.0624431052
 40
0.093888346
 40
0.1254709894
 40
0.1571788841
 40
0.1889972607
 40
0.2209091756
 40
0.252895844
 40
0.2849370232
 40
0.3170114137
 40
0.349097074
 40
0.3811718446
 40
0.4132137767
 40
0.4452015559
 40
0.4771149183
 40
0.5089350511
 40
0.5406449736
 40
0.5722298924
 40
0.6036775218
 40
0.6349783627
 40
0.666125935
 40
0.697116956
 40
0.7279514587
 40
0.7586328412
 40
0.7891678426
 40
0.819566443
 40
0.8498416848
 40
0.8800094168
 40
0.9100879629
 40
0.9400977196
 40
0.9700606951
 40
1.0
 40
1.0
 40
1.0
 40
1.0
 10
11.338807855
 20
9.2867773042
 30
0.0
 10
11.3501296269
 20
9.2859921366
 30
0.0
 10
11.3727797481
 20
9.2835892407
 30
0.0
 10
11.40648033
 20
9.2775362455
 30
0.0
 10
11.439819944
 20
9.2690578563
 30
0.0
 10
11.472618546
 20
9.258199616
 30
0.0
 10
11.5047018746
 20
9.2450197477
 30
0.0
 10
11.5358987847
 20
9.2295887236
 30
0.0
 10
11.5660430854
 20
9.2119890168
 30
0.0
 10
11.5949741574
 20
9.1923146103
 30
0.0
 10
11.6225378591
 20
9.1706704881
 30
0.0
 10
11.6485873189
 20
9.1471720842
 30
0.0
 10
11.6729837098
 20
9.1219446696
 30
0.0
 10
11.6955969895
 20
9.0951227039
 30
0.0
 10
11.7163066077
 20
9.0668491375
 30
0.0
 10
11.7350021132
 20
9.0372746293
 30
0.0
 10
11.7515837409
 20
9.0065567595
 30
0.0
 10
11.7659629384
 20
8.9748592006
 30
0.0
 10
11.7780628333
 20
8.9423508575
 30
0.0
 10
11.7878186849
 20
8.9092049938
 30
0.0
 10
11.7951781984
 20
8.8755983024
 30
0.0
 10
11.8001018031
 20
8.8417099781
 30
0.0
 10
11.8025628744
 20
8.8077207778
 30
0.0
 10
11.8025478799
 20
8.7738120699
 30
0.0
 10
11.8000565012
 20
8.7401648785
 30
0.0
 10
11.7951016489
 20
8.7069589171
 30
0.0
 10
11.7877093866
 20
8.674371637
 30
0.0
 10
11.7779188176
 20
8.6425772759
 30
0.0
 10
11.7657819112
 20
8.6117459392
 30
0.0
 10
11.7513631987
 20
8.582042618
 30
0.0
 10
11.7347396955
 20
8.5536264843
 30
0.0
 10
11.7159996372
 20
8.5266492408
 30
0.0
 10
11.6952450795
 20
8.5012572283
 30
0.0
 10
11.6801330067
 20
8.4854700989
 30
0.0
 10
11.6722862285
 20
8.4778906837
 30
0.0
  0
SPLINE
  5
36A
100
AcDbEntity
  8
0
100
AcDbSpline
 62
7
  6
CONTINUOUS
 70
0
 71
3
 72
23
 73
19
 74
0
 42
0.0000001
 43
0.0000001
 44
0.0000000001
 40
0.0
 40
0.0
 40
0.0
 40
0.0
 40
0.0638615549
 40
0.1275031865
 40
0.1909230463
 40
0.2541276772
 40
0.3171223954
 40
0.3799159295
 40
0.4425188203
 40
0.5049436672
 40
0.5672049938
 40
0.6293190755
 40
0.6913037924
 40
0.7531784389
 40
0.8149635253
 40
0.8766805554
 40
0.9383517902
 40
1.0
 40
1.0
 40
1.0
 40
1.0
 10
11.338807855
 20
9.2867773042
 30
0.0
 10
11.3310684357
 20
9.2873140347
 30
0.0
 10
11.3155866929
 20
9.288000597
 30
0.0
 10
11.2923840827
 20
9.2878623358
 30
0.0
 10
11.2692971854
 20
9.2865544081
 30
0.0
 10
11.2463851125
 20
9.2840802487
 30
0.0
 10
11.2237051365
 20
9.2804458602
 30
0.0
 10
11.201314502
 20
9.2756603884
 30
0.0
 10
11.1792695573
 20
9.2697358004
 30
0.0
 10
11.1576258309
 20
9.2626869772
 30
0.0
 10
11.1364378411
 20
9.2545316213
 30
0.0
 10
11.1157589693
 20
9.2452902185
 30
0.0
 10
11.0956413306
 20
9.2349859949
 30
0.0
 10
11.0761356174
 20
9.2236448499
 30
0.0
 10
11.0572910241
 20
9.2112953856
 30
0.0
 10
11.0391548744
 20
9.1979685401
 30
0.0
 10
11.0217734931
 20
9.1836984642
 30
0.0
 10
11.0107160675
 20
9.1735781255
 30
0.0
 10
11.0053294815
 20
9.1683750764
 30
0.0
  0
SPLINE
  5
36B
100
AcDbEntity
  8
0
100
AcDbSpline
 62
7
  6
CONTINUOUS
 70
0
 71
3
 72
31
 73
27
 74
0
 42
0.0000001
 43
0.0000001
 44
0.0000000001
 40
0.0
 40
0.0
 40
0.0
 40
0.0
 40
0.0735830216
 40
0.1462409438
 40
0.2178823243
 40
0.2884649472
 40
0.3579639646
 40
0.4263535269
 40
0.493593005
 40
0.5596155862
 40
0.6243126574
 40
0.6875140263
 40
0.7489561128
 40
0.7788965042
 40
0.8082253582
 40
0.8368481771
 40
0.8646461335
 40
0.8914591366
 40
0.9170740458
 40
0.9412038244
 40
0.9525949307
 40
0.9634554209
 40
0.9737154667
 40
0.9832899254
 40
0.9920862194
 40
1.0
 40
1.0
 40
1.0
 40
1.0
 10
11.2114404694
 20
9.1044188479
 30
0.0
 10
11.2115764061
 20
9.108716895
 30
0.0
 10
11.2120496718
 20
9.1172536133
 30
0.0
 10
11.2132973196
 20
9.1299286644
 30
0.0
 10
11.2150113564
 20
9.1423718158
 30
0.0
 10
11.2171355575
 20
9.1545636551
 30
0.0
 10
11.2196228801
 20
9.1664922374
 30
0.0
 10
11.2224330893
 20
9.1781477526
 30
0.0
 10
11.2255310247
 20
9.1895194792
 30
0.0
 10
11.2288850993
 20
9.2005928729
 30
0.0
 10
11.2324655472
 20
9.2113466306
 30
0.0
 10
11.2362425607
 20
9.2217484825
 30
0.0
 10
11.2395551585
 20
9.2301544776
 30
0.0
 10
11.2422815626
 20
9.2366609294
 30
0.0
 10
11.2443364934
 20
9.2413685971
 30
0.0
 10
11.2464129738
 20
9.2459295923
 30
0.0
 10
11.248503126
 20
9.2503220897
 30
0.0
 10
11.2505971654
 20
9.2545172293
 30
0.0
 10
11.2526821975
 20
9.2584761473
 30
0.0
 10
11.254429864
 20
9.2615930105
 30
0.0
 10
11.2558169885
 20
9.2639218851
 30
0.0
 10
11.2568224921
 20
9.2655341818
 30
0.0
 10
11.257808688
 20
9.2670328304
 30
0.0
 10
11.2587706739
 20
9.2684022449
 30
0.0
 10
11.2597019471
 20
9.2696243312
 30
0.0
 10
11.2603337203
 20
9.2703699993
 30
0.0
 10
11.2606461382
 20
9.2707110044
 30
0.0
  0
SPLINE
  5
36C
100
AcDbEntity
  8
0
100
AcDbSpline
 62
7
  6
CONTINUOUS
 70
0
 71
3
 72
39
 73
35
 74
0
 42
0.0000001
 43
0.0000001
 44
0.0000000001
 40
0.0
 40
0.0
 40
0.0
 40
0.0
 40
0.0311450474
 40
0.0624431122
 40
0.0938883415
 40
0.1254709904
 40
0.157178884
 40
0.1889972611
 40
0.2209091755
 40
0.2528958437
 40
0.2849370231
 40
0.3170114138
 40
0.3490970738
 40
0.3811718446
 40
0.413213777
 40
0.4452015561
 40
0.477114918
 40
0.5089350506
 40
0.5406449736
 40
0.5722298927
 40
0.6036775219
 40
0.6349783626
 40
0.6661259349
 40
0.6971169558
 40
0.7279514584
 40
0.7586328412
 40
0.7891678431
 40
0.8195664432
 40
0.8498416843
 40
0.8800094163
 40
0.9100879629
 40
0.9400977199
 40
0.9700606953
 40
1.0
 40
1.0
 40
1.0
 40
1.0
 10
9.6365318877
 20
7.8808307636
 30
0.0
 10
9.6492688816
 20
7.8799474501
 30
0.0
 10
9.6747502705
 20
7.8772441891
 30
0.0
 10
9.7126634242
 20
7.8704345744
 30
0.0
 10
9.7501704903
 20
7.8608963884
 30
0.0
 10
9.787068919
 20
7.8486808802
 30
0.0
 10
9.8231626576
 20
7.8338535069
 30
0.0
 10
9.8582591764
 20
7.8164935967
 30
0.0
 10
9.8921715214
 20
7.7966939388
 30
0.0
 10
9.9247189892
 20
7.7745602486
 30
0.0
 10
9.9557281528
 20
7.7502106086
 30
0.0
 10
9.9850337761
 20
7.7237748827
 30
0.0
 10
10.0124797093
 20
7.6953940359
 30
0.0
 10
10.0379196673
 20
7.6652193403
 30
0.0
 10
10.0612180045
 20
7.6334115892
 30
0.0
 10
10.0822504349
 20
7.6001402584
 30
0.0
 10
10.1009047495
 20
7.5655826464
 30
0.0
 10
10.1170813427
 20
7.5299228914
 30
0.0
 10
10.1306937474
 20
7.4933510137
 30
0.0
 10
10.1416690828
 20
7.4560619167
 30
0.0
 10
10.1499485264
 20
7.4182543868
 30
0.0
 10
10.1554875767
 20
7.3801300215
 30
0.0
 10
10.1582562844
 20
7.3418921715
 30
0.0
 10
10.1582394153
 20
7.3037448749
 30
0.0
 10
10.1554366125
 20
7.2658917846
 30
0.0
 10
10.1498624089
 20
7.2285350771
 30
0.0
 10
10.1415461229
 20
7.1918743844
 30
0.0
 10
10.1305317277
 20
7.1561057293
 30
0.0
 10
10.1168776858
 20
7.1214204847
 30
0.0
 10
10.1006566407
 20
7.0880042461
 30
0.0
 10
10.0819552166
 20
7.0560360854
 30
0.0
 10
10.0608726636
 20
7.025686676
 30
0.0
 10
10.0375237626
 20
6.997120681
 30
0.0
 10
10.0205226801
 20
6.9793601611
 30
0.0
 10
10.0116950462
 20
6.9708333277
 30
0.0
  0
SPLINE
  5
36D
100
AcDbEntity
  8
0
100
AcDbSpline
 62
7
  6
CONTINUOUS
 70
0
 71
3
 72
23
 73
19
 74
0
 42
0.0000001
 43
0.0000001
 44
0.0000000001
 40
0.0
 40
0.0
 40
0.0
 40
0.0
 40
0.0638617654
 40
0.1275030803
 40
0.1909230764
 40
0.2541276764
 40
0.317122389
 40
0.3799159305
 40
0.4425188195
 40
0.5049436701
 40
0.5672049961
 40
0.6293190749
 40
0.6913037887
 40
0.7531784352
 40
0.8149635246
 40
0.8766805577
 40
0.9383517929
 40
1.0
 40
1.0
 40
1.0
 40
1.0
 10
9.6365318877
 20
7.8808307636
 30
0.0
 10
9.6278250122
 20
7.8814345875
 30
0.0
 10
9.6104080663
 20
7.8822069812
 30
0.0
 10
9.5843051258
 20
7.8820514181
 30
0.0
 10
9.5583323944
 20
7.8805800156
 30
0.0
 10
9.5325562999
 20
7.8777965706
 30
0.0
 10
9.507041332
 20
7.8737078786
 30
0.0
 10
9.4818518655
 20
7.8683242357
 30
0.0
 10
9.457051298
 20
7.8616590859
 30
0.0
 10
9.4327021057
 20
7.8537291583
 30
0.0
 10
9.4088656216
 20
7.844554371
 30
0.0
 10
9.3856018978
 20
7.8341577794
 30
0.0
 10
9.3629695559
 20
7.8225655268
 30
0.0
 10
9.3410256178
 20
7.8098067578
 30
0.0
 10
9.3198254396
 20
7.7959136243
 30
0.0
 10
9.299422275
 20
7.780920916
 30
0.0
 10
9.2798682294
 20
7.7648670691
 30
0.0
 10
9.2674286439
 20
7.7534816692
 30
0.0
 10
9.2613687292
 20
7.7476282453
 30
0.0
  0
SPLINE
  5
36E
100
AcDbEntity
  8
0
100
AcDbSpline
 62
7
  6
CONTINUOUS
 70
0
 71
3
 72
39
 73
35
 74
0
 42
0.0000001
 43
0.0000001
 44
0.0000000001
 40
0.0
 40
0.0
 40
0.0
 40
0.0
 40
0.0311450474
 40
0.0624431122
 40
0.0938883415
 40
0.1254709904
 40
0.157178884
 40
0.1889972611
 40
0.2209091755
 40
0.2528958437
 40
0.2849370231
 40
0.3170114138
 40
0.3490970738
 40
0.3811718446
 40
0.413213777
 40
0.4452015561
 40
0.477114918
 40
0.5089350506
 40
0.5406449736
 40
0.5722298927
 40
0.6036775219
 40
0.6349783626
 40
0.6661259349
 40
0.6971169558
 40
0.7279514584
 40
0.7586328412
 40
0.7891678431
 40
0.8195664432
 40
0.8498416843
 40
0.8800094163
 40
0.9100879629
 40
0.9400977199
 40
0.9700606953
 40
1.0
 40
1.0
 40
1.0
 40
1.0
 10
11.085420713
 20
7.7803499823
 30
0.0
 10
11.0981577069
 20
7.7794666688
 30
0.0
 10
11.1236390958
 20
7.7767634078
 30
0.0
 10
11.1615522495
 20
7.7699537931
 30
0.0
 10
11.1990593156
 20
7.760415607
 30
0.0
 10
11.2359577443
 20
7.7482000988
 30
0.0
 10
11.2720514829
 20
7.7333727256
 30
0.0
 10
11.3071480017
 20
7.7160128154
 30
0.0
 10
11.3410603467
 20
7.6962131575
 30
0.0
 10
11.3736078145
 20
7.6740794673
 30
0.0
 10
11.404616978
 20
7.6497298273
 30
0.0
 10
11.4339226014
 20
7.6232941014
 30
0.0
 10
11.4613685346
 20
7.5949132546
 30
0.0
 10
11.4868084926
 20
7.5647385589
 30
0.0
 10
11.5101068298
 20
7.5329308079
 30
0.0
 10
11.5311392602
 20
7.4996594771
 30
0.0
 10
11.5497935748
 20
7.4651018651
 30
0.0
 10
11.565970168
 20
7.4294421101
 30
0.0
 10
11.5795825727
 20
7.3928702324
 30
0.0
 10
11.590557908
 20
7.3555811354
 30
0.0
 10
11.5988373517
 20
7.3177736055
 30
0.0
 10
11.604376402
 20
7.2796492402
 30
0.0
 10
11.6071451097
 20
7.2414113901
 30
0.0
 10
11.6071282406
 20
7.2032640936
 30
0.0
 10
11.6043254378
 20
7.1654110033
 30
0.0
 10
11.5987512342
 20
7.1280542958
 30
0.0
 10
11.5904349482
 20
7.0913936031
 30
0.0
 10
11.579420553
 20
7.055624948
 30
0.0
 10
11.5657665111
 20
7.0209397034
 30
0.0
 10
11.5495454659
 20
6.9875234648
 30
0.0
 10
11.5308440419
 20
6.9555553041
 30
0.0
 10
11.5097614889
 20
6.9252058947
 30
0.0
 10
11.4864125879
 20
6.8966398997
 30
0.0
 10
11.4694115054
 20
6.8788793798
 30
0.0
 10
11.4605838715
 20
6.8703525464
 30
0.0
  0
SPLINE
  5
36F
100
AcDbEntity
  8
0
100
AcDbSpline
 62
7
  6
CONTINUOUS
 70
0
 71
3
 72
23
 73
19
 74
0
 42
0.0000001
 43
0.0000001
 44
0.0000000001
 40
0.0
 40
0.0
 40
0.0
 40
0.0
 40
0.0638617654
 40
0.1275030803
 40
0.1909230764
 40
0.2541276764
 40
0.317122389
 40
0.3799159305
 40
0.4425188195
 40
0.5049436701
 40
0.5672049961
 40
0.6293190749
 40
0.6913037887
 40
0.7531784352
 40
0.8149635246
 40
0.8766805577
 40
0.9383517929
 40
1.0
 40
1.0
 40
1.0
 40
1.0
 10
11.085420713
 20
7.7803499823
 30
0.0
 10
11.0767138375
 20
7.7809538062
 30
0.0
 10
11.0592968916
 20
7.7817261999
 30
0.0
 10
11.0331939511
 20
7.7815706368
 30
0.0
 10
11.0072212197
 20
7.7800992343
 30
0.0
 10
10.9814451252
 20
7.7773157892
 30
0.0
 10
10.9559301573
 20
7.7732270973
 30
0.0
 10
10.9307406908
 20
7.7678434543
 30
0.0
 10
10.9059401233
 20
7.7611783046
 30
0.0
 10
10.881590931
 20
7.7532483769
 30
0.0
 10
10.8577544468
 20
7.7440735897
 30
0.0
 10
10.8344907231
 20
7.7336769981
 30
0.0
 10
10.8118583812
 20
7.7220847455
 30
0.0
 10
10.7899144431
 20
7.7093259765
 30
0.0
 10
10.7687142649
 20
7.6954328429
 30
0.0
 10
10.7483111003
 20
7.6804401346
 30
0.0
 10
10.7287570547
 20
7.6643862878
 30
0.0
 10
10.7163174692
 20
7.6530008879
 30
0.0
 10
10.7102575544
 20
7.647147464
 30
0.0
  0
SPLINE
  5
370
100
AcDbEntity
  8
0
100
AcDbSpline
 62
7
  6
CONTINUOUS
 70
0
 71
3
 72
25
 73
21
 74
0
 42
0.0000001
 43
0.0000001
 44
0.0000000001
 40
0.0
 40
0.0
 40
0.0
 40
0.0
 40
0.0616475256
 40
0.0924812752
 40
0.1233236417
 40
0.1850399904
 40
0.2468243943
 40
0.277751631
 40
0.3087038637
 40
0.3706878925
 40
0.4328012858
 40
0.495061923
 40
0.5574860832
 40
0.6200882745
 40
0.682881117
 40
0.745875147
 40
0.8090789725
 40
0.8724984981
 40
0.9361386362
 40
1.0
 40
1.0
 40
1.0
 40
1.0
 10
8.9041777412
 20
9.4377387901
 30
0.0
 10
8.9119770781
 20
9.4452723786
 30
0.0
 10
8.9239846038
 20
9.4562622797
 30
0.0
 10
8.9405651951
 20
9.4702523058
 30
0.0
 10
8.9575254125
 20
9.4837998822
 30
0.0
 10
8.9794136664
 20
9.4998839849
 30
0.0
 10
9.0021447781
 20
9.5147803356
 30
0.0
 10
9.020803417
 20
9.5259656065
 30
0.0
 10
9.0397843577
 20
9.5366663688
 30
0.0
 10
9.0640707628
 20
9.5491059055
 30
0.0
 10
9.094011747
 20
9.5624865487
 30
0.0
 10
9.1246903041
 20
9.5742949035
 30
0.0
 10
9.1560286274
 20
9.5845010105
 30
0.0
 10
9.1879479129
 20
9.5930793278
 30
0.0
 10
9.2203677192
 20
9.6000083065
 30
0.0
 10
9.2532064509
 20
9.6052706199
 30
0.0
 10
9.2863813024
 20
9.6088530579
 30
0.0
 10
9.3198091528
 20
9.6107467713
 30
0.0
 10
9.3534046514
 20
9.610947027
 30
0.0
 10
9.3758209007
 20
9.609952907
 30
0.0
 10
9.3870270377
 20
9.6091757588
 30
0.0
  0
SPLINE
  5
371
100
AcDbEntity
  8
0
100
AcDbSpline
 62
7
  6
CONTINUOUS
 70
0
 71
3
 72
25
 73
21
 74
0
 42
0.0000001
 43
0.0000001
 44
0.0000000001
 40
0.0
 40
0.0
 40
0.0
 40
0.0
 40
0.0616475256
 40
0.0924812752
 40
0.1233236417
 40
0.1850399904
 40
0.2468243943
 40
0.277751631
 40
0.3087038637
 40
0.3706878925
 40
0.4328012858
 40
0.495061923
 40
0.5574860832
 40
0.6200882745
 40
0.682881117
 40
0.745875147
 40
0.8090789725
 40
0.8724984981
 40
0.9361386362
 40
1.0
 40
1.0
 40
1.0
 40
1.0
 10
10.8360295082
 20
9.303764415
 30
0.0
 10
10.8438288451
 20
9.3112980035
 30
0.0
 10
10.8558363708
 20
9.3222879046
 30
0.0
 10
10.8724169621
 20
9.3362779307
 30
0.0
 10
10.8893771795
 20
9.3498255071
 30
0.0
 10
10.9112654334
 20
9.3659096098
 30
0.0
 10
10.9339965451
 20
9.3808059605
 30
0.0
 10
10.9526551841
 20
9.3919912314
 30
0.0
 10
10.9716361247
 20
9.4026919937
 30
0.0
 10
10.9959225299
 20
9.4151315304
 30
0.0
 10
11.025863514
 20
9.4285121736
 30
0.0
 10
11.0565420711
 20
9.4403205284
 30
0.0
 10
11.0878803944
 20
9.4505266354
 30
0.0
 10
11.1197996799
 20
9.4591049528
 30
0.0
 10
11.1522194862
 20
9.4660339314
 30
0.0
 10
11.185058218
 20
9.4712962448
 30
0.0
 10
11.2182330694
 20
9.4748786829
 30
0.0
 10
11.2516609198
 20
9.4767723962
 30
0.0
 10
11.2852564185
 20
9.4769726519
 30
0.0
 10
11.3076726677
 20
9.4759785319
 30
0.0
 10
11.3188788048
 20
9.4752013837
 30
0.0
  0
SPLINE
  5
372
100
AcDbEntity
  8
0
100
AcDbSpline
 62
7
  6
CONTINUOUS
 70
0
 71
3
 72
34
 73
30
 74
0
 42
0.0000001
 43
0.0000001
 44
0.0000000001
 40
0.0
 40
0.0
 40
0.0
 40
0.0
 40
0.0156452927
 40
0.0303992027
 40
0.0444916316
 40
0.058242377
 40
0.072055142
 40
0.0863901018
 40
0.1017197987
 40
0.1184813979
 40
0.137044933
 40
0.1576985376
 40
0.1806430316
 40
0.2059906025
 40
0.2337678491
 40
0.2639211387
 40
0.2963259568
 40
0.3308005142
 40
0.3671226071
 40
0.405048375
 40
0.4443297337
 40
0.4847271453
 40
0.5260200107
 40
0.5680134036
 40
0.6534380232
 40
0.7399521612
 40
0.8268346096
 40
0.9136194286
 40
1.0
 40
1.0
 40
1.0
 40
1.0
 10
11.2442636455
 20
9.0218261146
 30
0.0
 10
11.2439032638
 20
9.0214332552
 30
0.0
 10
11.2431603234
 20
9.0207070891
 30
0.0
 10
11.2419399191
 20
9.0197989064
 30
0.0
 10
11.2406478583
 20
9.0191224885
 30
0.0
 10
11.2392852745
 20
9.018696119
 30
0.0
 10
11.2378570394
 20
9.0185387685
 30
0.0
 10
11.236371964
 20
9.018667059
 30
0.0
 10
11.2348400805
 20
9.0190937277
 30
0.0
 10
11.2332706948
 20
9.01982876
 30
0.0
 10
11.2316727532
 20
9.0208806852
 30
0.0
 10
11.2300563011
 20
9.0222564974
 30
0.0
 10
11.2284334229
 20
9.0239602346
 30
0.0
 10
11.2268182274
 20
9.0259913134
 30
0.0
 10
11.2252263782
 20
9.0283434152
 30
0.0
 10
11.2236742572
 20
9.0310039724
 30
0.0
 10
11.2221780157
 20
9.0339543506
 30
0.0
 10
11.220752623
 20
9.0371706897
 30
0.0
 10
11.2194110178
 20
9.0406252794
 30
0.0
 10
11.218163568
 20
9.0442882655
 30
0.0
 10
11.2170179069
 20
9.0481293499
 30
0.0
 10
11.2159790176
 20
9.0521192233
 30
0.0
 10
11.2150493086
 20
9.056230662
 30
0.0
 10
11.213949615
 20
9.061874079
 30
0.0
 10
11.2128554902
 20
9.0690850016
 30
0.0
 10
11.2119565178
 20
9.0778613833
 30
0.0
 10
11.2114344583
 20
9.0867142677
 30
0.0
 10
11.2112569377
 20
9.0955756094
 30
0.0
 10
11.2113474222
 20
9.1014768823
 30
0.0
 10
11.2114404694
 20
9.1044188479
 30
0.0
  0
SPLINE
  5
373
100
AcDbEntity
  8
0
100
AcDbSpline
 62
7
  6
CONTINUOUS
 70
0
 71
3
 72
16
 73
12
 74
0
 42
0.0000001
 43
0.0000001
 44
0.0000000001
 40
0.0
 40
0.0
 40
0.0
 40
0.0
 40
0.1081438537
 40
0.2181187553
 40
0.3316584918
 40
0.4503233556
 40
0.5120293364
 40
0.575504255
 40
0.7082533085
 40
0.8495215773
 40
1.0
 40
1.0
 40
1.0
 40
1.0
 10
13.4640875581
 20
7.6276308128
 30
0.0
 10
13.4634929802
 20
7.6276720544
 30
0.0
 10
13.4622865455
 20
7.6276734659
 30
0.0
 10
13.4604698518
 20
7.6274307515
 30
0.0
 10
13.4586428437
 20
7.6269446886
 30
0.0
 10
13.4571338052
 20
7.6263461597
 30
0.0
 10
13.455927012
 20
7.6257537689
 30
0.0
 10
13.4546835714
 20
7.6250637672
 30
0.0
 10
13.4531242192
 20
7.6240447812
 30
0.0
 10
13.4512781683
 20
7.622604035
 30
0.0
 10
13.450085924
 20
7.621522947
 30
0.0
 10
13.4494894301
 20
7.620946778
 30
0.0
  0
SPLINE
  5
374
100
AcDbEntity
  8
0
100
AcDbSpline
 62
7
  6
CONTINUOUS
 70
0
 71
3
 72
16
 73
12
 74
0
 42
0.0000001
 43
0.0000001
 44
0.0000000001
 40
0.0
 40
0.0
 40
0.0
 40
0.0
 40
0.1081438537
 40
0.2181187553
 40
0.3316584918
 40
0.4503233556
 40
0.5120293364
 40
0.575504255
 40
0.7082533085
 40
0.8495215773
 40
1.0
 40
1.0
 40
1.0
 40
1.0
 10
12.4288122321
 20
6.6276315788
 30
0.0
 10
12.4282176541
 20
6.6276728204
 30
0.0
 10
12.4270112194
 20
6.6276742319
 30
0.0
 10
12.4251945257
 20
6.6274315175
 30
0.0
 10
12.4233675177
 20
6.6269454546
 30
0.0
 10
12.4218584792
 20
6.6263469258
 30
0.0
 10
12.420651686
 20
6.6257545349
 30
0.0
 10
12.4194082454
 20
6.6250645332
 30
0.0
 10
12.4178488932
 20
6.6240455472
 30
0.0
 10
12.4160028423
 20
6.622604801
 30
0.0
 10
12.414810598
 20
6.621523713
 30
0.0
 10
12.414214104
 20
6.6209475441
 30
0.0
  0
SPLINE
  5
375
100
AcDbEntity
  8
0
100
AcDbSpline
 62
7
  6
CONTINUOUS
 70
0
 71
3
 72
51
 73
47
 74
0
 42
0.0000001
 43
0.0000001
 44
0.0000000001
 40
0.0
 40
0.0
 40
0.0
 40
0.0
 40
0.0117112069
 40
0.0229062651
 40
0.0336140962
 40
0.0438691867
 40
0.0537115598
 40
0.0631871815
 40
0.0723473221
 40
0.0812487474
 40
0.0899522067
 40
0.0985221513
 40
0.1070243379
 40
0.1155251648
 40
0.1240888858
 40
0.1327771442
 40
0.141646547
 40
0.1507489373
 40
0.1601297283
 40
0.1698289284
 40
0.1798800976
 40
0.1903118239
 40
0.2011469728
 40
0.212404302
 40
0.2240977684
 40
0.2362380866
 40
0.2488319906
 40
0.2618836867
 40
0.2893551463
 40
0.3186406758
 40
0.3496879448
 40
0.3824179483
 40
0.4167308199
 40
0.452511668
 40
0.4896362861
 40
0.5279765809
 40
0.5674056216
 40
0.6490119879
 40
0.6910152198
 40
0.7336807492
 40
0.7769307759
 40
0.8206993783
 40
0.8649316434
 40
0.9095825274
 40
0.9546153336
 40
1.0
 40
1.0
 40
1.0
 40
1.0
 10
11.1486872792
 20
7.3533673599
 30
0.0
 10
11.1486876457
 20
7.3516759247
 30
0.0
 10
11.1486168603
 20
7.3483669495
 30
0.0
 10
11.1482730884
 20
7.3435221745
 30
0.0
 10
11.147690471
 20
7.3389117061
 30
0.0
 10
11.1468652847
 20
7.3345366829
 30
0.0
 10
11.1457952353
 20
7.3303981279
 30
0.0
 10
11.1444781049
 20
7.3264975398
 30
0.0
 10
11.1429130081
 20
7.3228365346
 30
0.0
 10
11.1410993509
 20
7.3194173655
 30
0.0
 10
11.1390378298
 20
7.3162424272
 30
0.0
 10
11.1367297159
 20
7.3133147431
 30
0.0
 10
11.1341774796
 20
7.3106373571
 30
0.0
 10
11.1313843224
 20
7.3082137329
 30
0.0
 10
11.1283543802
 20
7.3060472312
 30
0.0
 10
11.1250924678
 20
7.3041414552
 30
0.0
 10
11.1216040263
 20
7.3024999663
 30
0.0
 10
11.1178951052
 20
7.301126552
 30
0.0
 10
11.1139722495
 20
7.300025131
 30
0.0
 10
11.109842663
 20
7.2991998644
 30
0.0
 10
11.1055140954
 20
7.2986551305
 30
0.0
 10
11.1009950638
 20
7.2983954923
 30
0.0
 10
11.0962947289
 20
7.2984256591
 30
0.0
 10
11.0914231041
 20
7.2987504042
 30
0.0
 10
11.0863909007
 20
7.2993744665
 30
0.0
 10
11.0812097548
 20
7.300302501
 30
0.0
 10
11.075891877
 20
7.3015388905
 30
0.0
 10
11.0685109176
 20
7.3036400189
 30
0.0
 10
11.0590208083
 20
7.3070893241
 30
0.0
 10
11.0475086215
 20
7.3124420726
 30
0.0
 10
11.0358097836
 20
7.3190888638
 30
0.0
 10
11.0240592321
 20
7.3270269265
 30
0.0
 10
11.0123939087
 20
7.3362386221
 30
0.0
 10
11.0009501909
 20
7.3466903888
 30
0.0
 10
10.9898597798
 20
7.3583331849
 30
0.0
 10
10.9792455313
 20
7.37110543
 30
0.0
 10
10.9657261884
 20
7.3897514996
 30
0.0
 10
10.9537935524
 20
7.4101390634
 30
0.0
 10
10.9436096662
 20
7.4318991861
 30
0.0
 10
10.9368024055
 20
7.449087533
 30
0.0
 10
10.9309510424
 20
7.4668913754
 30
0.0
 10
10.9260925374
 20
7.4852256753
 30
0.0
 10
10.9222558936
 20
7.504006889
 30
0.0
 10
10.9194621485
 20
7.523155797
 30
0.0
 10
10.9177257943
 20
7.5425956744
 30
0.0
 10
10.9172805534
 20
7.5556546376
 30
0.0
 10
10.9172342209
 20
7.5622093256
 30
0.0
  0
SPLINE
  5
376
100
AcDbEntity
  8
0
100
AcDbSpline
 62
7
  6
CONTINUOUS
 70
0
 71
3
 72
15
 73
11
 74
0
 42
0.0000001
 43
0.0000001
 44
0.0000000001
 40
0.0
 40
0.0
 40
0.0
 40
0.0
 40
0.0988619094
 40
0.2044459224
 40
0.3172644512
 40
0.4377027609
 40
0.5660387599
 40
0.7024645364
 40
0.8470985542
 40
1.0
 40
1.0
 40
1.0
 40
1.0
 10
11.1412491633
 20
7.3199381537
 30
0.0
 10
11.1402493902
 20
7.3212980342
 30
0.0
 10
11.1380423841
 20
7.3240094365
 30
0.0
 10
11.1342796706
 20
7.3279128554
 30
0.0
 10
11.1299670404
 20
7.3317755734
 30
0.0
 10
11.1251105561
 20
7.3355927352
 30
0.0
 10
11.1197164475
 20
7.339360155
 30
0.0
 10
11.1137916435
 20
7.3430731039
 30
0.0
 10
11.1073439764
 20
7.3467269092
 30
0.0
 10
11.1028278539
 20
7.3490555444
 30
0.0
 10
11.1004873917
 20
7.3502116932
 30
0.0
  0
SPLINE
  5
377
100
AcDbEntity
  8
0
100
AcDbSpline
 62
7
  6
CONTINUOUS
 70
0
 71
3
 72
15
 73
11
 74
0
 42
0.0000001
 43
0.0000001
 44
0.0000000001
 40
0.0
 40
0.0
 40
0.0
 40
0.0
 40
0.1225059497
 40
0.2461146867
 40
0.3707046719
 40
0.4961218811
 40
0.6221474276
 40
0.7484628845
 40
0.8746168402
 40
1.0
 40
1.0
 40
1.0
 40
1.0
 10
10.9172342209
 20
7.5622093256
 30
0.0
 10
10.9171691173
 20
7.5714195584
 30
0.0
 10
10.9177412183
 20
7.5899350466
 30
0.0
 10
10.9206635841
 20
7.6176762025
 30
0.0
 10
10.9256258696
 20
7.645349062
 30
0.0
 10
10.932575675
 20
7.6727767017
 30
0.0
 10
10.9414312234
 20
7.6997848274
 30
0.0
 10
10.9520746679
 20
7.7261978302
 30
0.0
 10
10.964344604
 20
7.7518389526
 30
0.0
 10
10.9735180174
 20
7.7683906967
 30
0.0
 10
10.9783166696
 20
7.7765047072
 30
0.0
  0
LINE
  5
378
100
AcDbEntity
  8
0
100
AcDbLine
 62
7
  6
CONTINUOUS
 10
9.8700030965
 20
8.4382432771
 11
9.869804304
 21
8.4380583542
  0
SPLINE
  5
379
100
AcDbEntity
  8
0
100
AcDbSpline
 62
7
  6
CONTINUOUS
 70
0
 71
3
 72
24
 73
20
 74
0
 42
0.0000001
 43
0.0000001
 44
0.0000000001
 40
0.0
 40
0.0
 40
0.0
 40
0.0
 40
0.061634095
 40
0.092463663
 40
0.1233034385
 40
0.185019038
 40
0.2468072966
 40
0.3086885309
 40
0.3706820741
 40
0.4328060772
 40
0.4950773265
 40
0.5575110776
 40
0.620120907
 40
0.6829186082
 40
0.7459139975
 40
0.8091151637
 40
0.8725273807
 40
0.9361557286
 40
1.0
 40
1.0
 40
1.0
 40
1.0
 10
9.869804304
 20
8.4380583542
 30
0.0
 10
9.8620379632
 20
8.4308371133
 30
0.0
 10
9.8500988212
 20
8.4203074906
 30
0.0
 10
9.8336452547
 20
8.4069111984
 30
0.0
 10
9.8168342445
 20
8.3939425721
 30
0.0
 10
9.7951743659
 20
8.3785542749
 30
0.0
 10
9.7682275522
 20
8.3614595089
 30
0.0
 10
9.7403829294
 20
8.3457714385
 30
0.0
 10
9.7117080135
 20
8.3315281403
 30
0.0
 10
9.682271788
 20
8.3187637883
 30
0.0
 10
9.652145205
 20
8.307509096
 30
0.0
 10
9.6214008342
 20
8.297791105
 30
0.0
 10
9.5901127342
 20
8.289633139
 30
0.0
 10
9.5583562714
 20
8.2830547748
 30
0.0
 10
9.5262078752
 20
8.2780717354
 30
0.0
 10
9.4937450852
 20
8.2746960069
 30
0.0
 10
9.461045621
 20
8.2729355135
 30
0.0
 10
9.4281893916
 20
8.2727945357
 30
0.0
 10
9.4062680322
 20
8.2737787799
 30
0.0
 10
9.3953092405
 20
8.2745387747
 30
0.0
  0
SPLINE
  5
37A
100
AcDbEntity
  8
0
100
AcDbSpline
 62
7
  6
CONTINUOUS
 70
0
 71
3
 72
23
 73
19
 74
0
 42
0.0000001
 43
0.0000001
 44
0.0000000001
 40
0.0
 40
0.0
 40
0.0
 40
0.0
 40
0.0616482098
 40
0.1233194446
 40
0.1850364747
 40
0.2468215611
 40
0.3086962076
 40
0.3706809245
 40
0.4327950062
 40
0.4950563328
 40
0.5574811797
 40
0.6200840705
 40
0.6828776046
 40
0.7458723228
 40
0.8090769537
 40
0.8724968135
 40
0.9361384451
 40
1.0
 40
1.0
 40
1.0
 40
1.0
 10
9.7404344615
 20
8.6118650588
 30
0.0
 10
9.7350478755
 20
8.6066620098
 30
0.0
 10
9.7239904499
 20
8.596541671
 30
0.0
 10
9.7066090686
 20
8.5822715951
 30
0.0
 10
9.6884729188
 20
8.5689447496
 30
0.0
 10
9.6696283255
 20
8.5565952853
 30
0.0
 10
9.6501226124
 20
8.5452541403
 30
0.0
 10
9.6300049736
 20
8.5349499167
 30
0.0
 10
9.6093261018
 20
8.5257085139
 30
0.0
 10
9.588138112
 20
8.517553158
 30
0.0
 10
9.5664943856
 20
8.5105043349
 30
0.0
 10
9.5444494409
 20
8.5045797469
 30
0.0
 10
9.5220588064
 20
8.499794275
 30
0.0
 10
9.4993788304
 20
8.4961598866
 30
0.0
 10
9.4764667575
 20
8.4936857272
 30
0.0
 10
9.4533798602
 20
8.4923777995
 30
0.0
 10
9.43017725
 20
8.4922395382
 30
0.0
 10
9.4146955072
 20
8.4929261005
 30
0.0
 10
9.4069560879
 20
8.4934628311
 30
0.0
  0
SPLINE
  5
37B
100
AcDbEntity
  8
0
100
AcDbSpline
 62
7
  6
CONTINUOUS
 70
0
 71
3
 72
17
 73
13
 74
0
 42
0.0000001
 43
0.0000001
 44
0.0000000001
 40
0.0
 40
0.0
 40
0.0
 40
0.0
 40
0.1234521356
 40
0.1853232245
 40
0.2472932661
 40
0.3715351468
 40
0.4962284644
 40
0.5587610065
 40
0.6214167891
 40
0.7470923502
 40
0.8732847533
 40
1.0
 40
1.0
 40
1.0
 40
1.0
 10
9.8257648524
 20
8.7292851743
 30
0.0
 10
9.8175627918
 20
8.7256105803
 30
0.0
 10
9.8050713846
 20
8.7204810435
 30
0.0
 10
9.7881127734
 20
8.7144308896
 30
0.0
 10
9.7709182487
 20
8.7088951942
 30
0.0
 10
9.7490573724
 20
8.70296876
 30
0.0
 10
9.7268321421
 20
8.6983962964
 30
0.0
 10
9.7088613241
 20
8.6955528203
 30
0.0
 10
9.6907411521
 20
8.6932505952
 30
0.0
 10
9.6679022115
 20
8.6914041858
 30
0.0
 10
9.6403308296
 20
8.6908448826
 30
0.0
 10
9.6219200873
 20
8.6915744466
 30
0.0
 10
9.612717059
 20
8.6922126788
 30
0.0
  0
SPLINE
  5
37C
100
AcDbEntity
  8
0
100
AcDbSpline
 62
7
  6
CONTINUOUS
 70
0
 71
3
 72
46
 73
42
 74
0
 42
0.0000001
 43
0.0000001
 44
0.0000000001
 40
0.0
 40
0.0
 40
0.0
 40
0.0
 40
0.0149666658
 40
0.0299376833
 40
0.0449159442
 40
0.0599042988
 40
0.07490554
 40
0.0899223838
 40
0.1049574562
 40
0.1200132802
 40
0.1350922562
 40
0.1501966537
 40
0.1653285992
 40
0.1804900592
 40
0.1956828369
 40
0.2109085608
 40
0.2414591144
 40
0.2721563506
 40
0.3030063208
 40
0.3340118031
 40
0.3651722932
 40
0.396484061
 40
0.4279402731
 40
0.4595311767
 40
0.4912443317
 40
0.5230648845
 40
0.5549758864
 40
0.58695864
 40
0.6189930699
 40
0.6510581135
 40
0.6831321264
 40
0.7151932939
 40
0.7472200453
 40
0.7791914648
 40
0.8110876931
 40
0.842890318
 40
0.8745827388
 40
0.9061505088
 40
0.9375816817
 40
0.9688667744
 40
1.0
 40
1.0
 40
1.0
 40
1.0
 10
8.9042558756
 20
9.4376619561
 30
0.0
 10
8.8987219847
 20
9.4321092371
 30
0.0
 10
8.8878673366
 20
9.4207857597
 30
0.0
 10
8.8722551304
 20
9.4031781897
 30
0.0
 10
8.8573307749
 20
9.3849687742
 30
0.0
 10
8.8431141451
 20
9.3661818875
 30
0.0
 10
8.8296239102
 20
9.3468421233
 30
0.0
 10
8.8168778617
 20
9.3269749509
 30
0.0
 10
8.8048926769
 20
9.3066065627
 30
0.0
 10
8.7936841983
 20
9.2857637207
 30
0.0
 10
8.7832671483
 20
9.264473867
 30
0.0
 10
8.773655158
 20
9.2427650568
 30
0.0
 10
8.764860954
 20
9.2206657859
 30
0.0
 10
8.7568960562
 20
9.1982052737
 30
0.0
 10
8.749770826
 20
9.175412662
 30
0.0
 10
8.7413941914
 20
9.1445892913
 30
0.0
 10
8.7330713945
 20
9.1053656747
 30
0.0
 10
8.7265812472
 20
9.0575209401
 30
0.0
 10
8.7236081629
 20
9.0090901496
 30
0.0
 10
8.7241677198
 20
8.9603297758
 30
0.0
 10
8.7282563279
 20
8.9114957026
 30
0.0
 10
8.7358520149
 20
8.86284469
 30
0.0
 10
8.7469143237
 20
8.8146322644
 30
0.0
 10
8.7613847302
 20
8.7671116191
 30
0.0
 10
8.7791868989
 20
8.7205322575
 30
0.0
 10
8.8002269632
 20
8.6751386598
 30
0.0
 10
8.8243941757
 20
8.6311690592
 30
0.0
 10
8.8515614962
 20
8.5888542354
 30
0.0
 10
8.8815861295
 20
8.5484162452
 30
0.0
 10
8.9143103297
 20
8.5100672882
 30
0.0
 10
8.9495622916
 20
8.474008668
 30
0.0
 10
8.9871569804
 20
8.4404297094
 30
0.0
 10
9.0268970377
 20
8.4095066961
 30
0.0
 10
9.068573913
 20
8.3814020653
 30
0.0
 10
9.1119689345
 20
8.3562635725
 30
0.0
 10
9.1568543313
 20
8.3342233833
 30
0.0
 10
9.2029945921
 20
8.3153974698
 30
0.0
 10
9.250147318
 20
8.2998850684
 30
0.0
 10
9.2980657752
 20
8.2877680683
 30
0.0
 10
9.3464950734
 20
8.2791105805
 30
0.0
 10
9.3790409622
 20
8.2756669837
 30
0.0
 10
9.3953092405
 20
8.2745387747
 30
0.0
  0
SPLINE
  5
37D
100
AcDbEntity
  8
0
100
AcDbSpline
 62
7
  6
CONTINUOUS
 70
0
 71
3
 72
39
 73
35
 74
0
 42
0.0000001
 43
0.0000001
 44
0.0000000001
 40
0.0
 40
0.0
 40
0.0
 40
0.0
 40
0.0299393049
 40
0.0599022804
 40
0.0899120371
 40
0.1199905832
 40
0.1501583152
 40
0.180433557
 40
0.2108321574
 40
0.2413671588
 40
0.2720485413
 40
0.302883044
 40
0.333874065
 40
0.3650216373
 40
0.3963224782
 40
0.4277701076
 40
0.4593550264
 40
0.4910649489
 40
0.5228850817
 40
0.5547984441
 40
0.5867862233
 40
0.6188281554
 40
0.650902926
 40
0.6829885863
 40
0.7150629768
 40
0.747104156
 40
0.7790908244
 40
0.8110027393
 40
0.8428211159
 40
0.8745290106
 40
0.906111654
 40
0.9375568948
 40
0.9688549538
 40
1.0
 40
1.0
 40
1.0
 40
1.0
 10
9.0734777144
 20
9.3023494515
 30
0.0
 10
9.0656309362
 20
9.2947700363
 30
0.0
 10
9.0505188634
 20
9.278982907
 30
0.0
 10
9.0297643058
 20
9.2535908944
 30
0.0
 10
9.0110242474
 20
9.226613651
 30
0.0
 10
8.9944007443
 20
9.1981975172
 30
0.0
 10
8.9799820317
 20
9.1684941961
 30
0.0
 10
8.9678451253
 20
9.1376628593
 30
0.0
 10
8.9580545563
 20
9.1058684983
 30
0.0
 10
8.950662294
 20
9.0732812182
 30
0.0
 10
8.9457074417
 20
9.0400752568
 30
0.0
 10
8.9432160631
 20
9.0064280653
 30
0.0
 10
8.9432010685
 20
8.9725193574
 30
0.0
 10
8.9456621399
 20
8.9385301571
 30
0.0
 10
8.9505857446
 20
8.9046418329
 30
0.0
 10
8.957945258
 20
8.8710351414
 30
0.0
 10
8.9677011096
 20
8.8378892777
 30
0.0
 10
8.9798010045
 20
8.8053809346
 30
0.0
 10
8.994180202
 20
8.7736833757
 30
0.0
 10
9.0107618297
 20
8.7429655059
 30
0.0
 10
9.0294573352
 20
8.7133909978
 30
0.0
 10
9.0501669534
 20
8.6851174314
 30
0.0
 10
9.0727802331
 20
8.6582954657
 30
0.0
 10
9.097176624
 20
8.633068051
 30
0.0
 10
9.1232260839
 20
8.6095696471
 30
0.0
 10
9.1507897855
 20
8.5879255249
 30
0.0
 10
9.1797208575
 20
8.5682511184
 30
0.0
 10
9.2098651582
 20
8.5506514116
 30
0.0
 10
9.2410620684
 20
8.5352203875
 30
0.0
 10
9.2731453969
 20
8.5220405193
 30
0.0
 10
9.3059439989
 20
8.511182279
 30
0.0
 10
9.3392836129
 20
8.5027038897
 30
0.0
 10
9.3729841949
 20
8.4966508945
 30
0.0
 10
9.395634316
 20
8.4942479986
 30
0.0
 10
9.4069560879
 20
8.4934628311
 30
0.0
  0
SPLINE
  5
37E
100
AcDbEntity
  8
0
100
AcDbSpline
 62
7
  6
CONTINUOUS
 70
0
 71
3
 72
42
 73
38
 74
0
 42
0.0000001
 43
0.0000001
 44
0.0000000001
 40
0.0
 40
0.0
 40
0.0
 40
0.0
 40
0.0300142132
 40
0.0450587864
 40
0.0601289396
 40
0.0903472274
 40
0.1206825451
 40
0.1358984703
 40
0.1511462745
 40
0.1817359325
 40
0.2124587438
 40
0.2433158588
 40
0.2743063022
 40
0.3054270157
 40
0.3366729309
 40
0.3680370708
 40
0.3995106772
 40
0.4310833597
 40
0.4627432648
 40
0.4944772622
 40
0.5262711449
 40
0.5581098408
 40
0.589977634
 40
0.6218583913
 40
0.6537357944
 40
0.6855935728
 40
0.7174157368
 40
0.7491868077
 40
0.7808920424
 40
0.8125176512
 40
0.8440510036
 40
0.8754808291
 40
0.9067973758
 40
0.9379926351
 40
0.9535443897
 40
0.9690640272
 40
1.0
 40
1.0
 40
1.0
 40
1.0
 10
9.193814083
 20
9.3836200676
 30
0.0
 10
9.1896404959
 20
9.3751111668
 30
0.0
 10
9.1837976611
 20
9.3621233482
 30
0.0
 10
9.1768735909
 20
9.3444418898
 30
0.0
 10
9.170513194
 20
9.3264807666
 30
0.0
 10
9.1636545425
 20
9.3035889886
 30
0.0
 10
9.1582899938
 20
9.2802547576
 30
0.0
 10
9.1548980947
 20
9.2613557914
 30
0.0
 10
9.1521039693
 20
9.2422781007
 30
0.0
 10
9.1497527997
 20
9.2181999296
 30
0.0
 10
9.1487677788
 20
9.189093997
 30
0.0
 10
9.1496192787
 20
9.1598569059
 30
0.0
 10
9.1523038769
 20
9.1306051127
 30
0.0
 10
9.1568107382
 20
9.1014541475
 30
0.0
 10
9.1631218778
 20
9.0725193696
 30
0.0
 10
9.1712121782
 20
9.0439151898
 30
0.0
 10
9.1810495078
 20
9.0157547101
 30
0.0
 10
9.192594845
 20
8.9881492576
 30
0.0
 10
9.2058024356
 20
8.9612079546
 30
0.0
 10
9.2206199733
 20
8.9350372903
 30
0.0
 10
9.2369888066
 20
8.9097407039
 30
0.0
 10
9.2548441703
 20
8.8854181796
 30
0.0
 10
9.2741154398
 20
8.8621658546
 30
0.0
 10
9.2947264092
 20
8.8400756423
 30
0.0
 10
9.3165955903
 20
8.8192348717
 30
0.0
 10
9.3396365327
 20
8.7997259448
 30
0.0
 10
9.3637581627
 20
8.7816260131
 30
0.0
 10
9.3888651417
 20
8.7650066742
 30
0.0
 10
9.4148582343
 20
8.749933691
 30
0.0
 10
9.4416347183
 20
8.7364667306
 30
0.0
 10
9.4690887083
 20
8.7246591383
 30
0.0
 10
9.4971118611
 20
8.7145576873
 30
0.0
 10
9.5255927214
 20
8.7062025538
 30
0.0
 10
9.54964127
 20
8.7007168581
 30
0.0
 10
9.5689946913
 20
8.6972341562
 30
0.0
 10
9.5883648741
 20
8.6943632484
 30
0.0
 10
9.602972055
 20
8.6928884971
 30
0.0
 10
9.612717059
 20
8.6922126788
 30
0.0
  0
SPLINE
  5
37F
100
AcDbEntity
  8
0
100
AcDbSpline
 62
7
  6
CONTINUOUS
 70
0
 71
3
 72
15
 73
11
 74
0
 42
0.0000001
 43
0.0000001
 44
0.0000000001
 40
0.0
 40
0.0
 40
0.0
 40
0.0
 40
0.1232994807
 40
0.2469644819
 40
0.3710688006
 40
0.4956762755
 40
0.6208393743
 40
0.7465987143
 40
0.8729801787
 40
1.0
 40
1.0
 40
1.0
 40
1.0
 10
9.8508775954
 20
8.7925760423
 30
0.0
 10
9.8423207431
 20
8.7875556935
 30
0.0
 10
9.8247852633
 20
8.7781591438
 30
0.0
 10
9.7974382249
 20
8.7661081952
 30
0.0
 10
9.7691511364
 20
8.7561423307
 30
0.0
 10
9.7400752588
 20
8.7483149977
 30
0.0
 10
9.7103635376
 20
8.7426667579
 30
0.0
 10
9.6801722761
 20
8.739227216
 30
0.0
 10
9.649662479
 20
8.7380138323
 30
0.0
 10
9.6292635206
 20
8.7386917949
 30
0.0
 10
9.6190677967
 20
8.7393988708
 30
0.0
  0
SPLINE
  5
380
100
AcDbEntity
  8
0
100
AcDbSpline
 62
7
  6
CONTINUOUS
 70
0
 71
3
 72
71
 73
67
 74
0
 42
0.0000001
 43
0.0000001
 44
0.0000000001
 40
0.0
 40
0.0
 40
0.0
 40
0.0
 40
0.0156216999
 40
0.0311907601
 40
0.0467067152
 40
0.0621710784
 40
0.077585053
 40
0.0929506336
 40
0.1082702315
 40
0.1235467316
 40
0.138783465
 40
0.1539841696
 40
0.1691529587
 40
0.1842942792
 40
0.1994128685
 40
0.2145137046
 40
0.2296019546
 40
0.2446829194
 40
0.2597619773
 40
0.2748445271
 40
0.2899359306
 40
0.3050414555
 40
0.3201662189
 40
0.3353151329
 40
0.3504928541
 40
0.3657037359
 40
0.3809517858
 40
0.396240626
 40
0.4115734582
 40
0.4269530343
 40
0.4423816324
 40
0.4578610404
 40
0.473392542
 40
0.4889769091
 40
0.5046143984
 40
0.5203047543
 40
0.5360472179
 40
0.5518405389
 40
0.567682992
 40
0.5835723963
 40
0.5995061391
 40
0.6154812041
 40
0.6314942032
 40
0.6475414081
 40
0.6636187857
 40
0.6797220347
 40
0.695846626
 40
0.7119878442
 40
0.7281408286
 40
0.7443006159
 40
0.7604621826
 40
0.7766204897
 40
0.7927705272
 40
0.8089073579
 40
0.8250261591
 40
0.8411222652
 40
0.85719121
 40
0.8732287678
 40
0.8892309905
 40
0.9051942484
 40
0.9211152564
 40
0.9369911048
 40
0.9528193679
 40
0.9685977669
 40
0.9843253049
 40
1.0
 40
1.0
 40
1.0
 40
1.0
 10
11.3271610076
 20
9.3189939775
 30
0.0
 10
11.3188784234
 20
9.3195683767
 30
0.0
 10
11.3023102799
 20
9.3203120335
 30
0.0
 10
11.2774776589
 20
9.320204536
 30
0.0
 10
11.2527635935
 20
9.3188722999
 30
0.0
 10
11.2282286634
 20
9.3163186817
 30
0.0
 10
11.2039315731
 20
9.3125496085
 30
0.0
 10
11.1799310294
 20
9.3075741597
 30
0.0
 10
11.1562848491
 20
9.3014042494
 30
0.0
 10
11.1330500471
 20
9.2940547121
 30
0.0
 10
11.1102826466
 20
9.2855432163
 30
0.0
 10
11.0880375555
 20
9.2758902283
 30
0.0
 10
11.0663684355
 20
9.2651189657
 30
0.0
 10
11.045327563
 20
9.2532553582
 30
0.0
 10
11.024965688
 20
9.2403280029
 30
0.0
 10
11.0053319293
 20
9.2263680566
 30
0.0
 10
10.9864736536
 20
9.2114091694
 30
0.0
 10
10.9684363618
 20
9.1954874016
 30
0.0
 10
10.9512635787
 20
9.1786411395
 30
0.0
 10
10.9349967137
 20
9.1609110327
 30
0.0
 10
10.919674988
 20
9.1423398592
 30
0.0
 10
10.905335342
 20
9.1229724223
 30
0.0
 10
10.8920123452
 20
9.1028554432
 30
0.0
 10
10.8797381201
 20
9.0820374444
 30
0.0
 10
10.8685422284
 20
9.0605686541
 30
0.0
 10
10.8584516136
 20
9.038500868
 30
0.0
 10
10.8494905571
 20
9.0158873135
 30
0.0
 10
10.8416806155
 20
8.9927825246
 30
0.0
 10
10.8350405768
 20
8.9692422089
 30
0.0
 10
10.8295863961
 20
8.9453231215
 30
0.0
 10
10.8253311389
 20
8.9210829266
 30
0.0
 10
10.8222849924
 20
8.8965800473
 30
0.0
 10
10.8204552355
 20
8.8718735283
 30
0.0
 10
10.8198462248
 20
8.8470228952
 30
0.0
 10
10.8204593847
 20
8.8220880144
 30
0.0
 10
10.8222931611
 20
8.7971289474
 30
0.0
 10
10.8253430708
 20
8.7722058032
 30
0.0
 10
10.8296017139
 20
8.7473785961
 30
0.0
 10
10.8350587904
 20
8.722707104
 30
0.0
 10
10.8417011319
 20
8.6982507293
 30
0.0
 10
10.8495126942
 20
8.674068347
 30
0.0
 10
10.8584746158
 20
8.6502181637
 30
0.0
 10
10.868565283
 20
8.6267575849
 30
0.0
 10
10.8797603758
 20
8.6037430781
 30
0.0
 10
10.8920329312
 20
8.5812300417
 30
0.0
 10
10.9053533887
 20
8.5592726649
 30
0.0
 10
10.9196896476
 20
8.5379237847
 30
0.0
 10
10.9350071799
 20
8.5172347791
 30
0.0
 10
10.9512691056
 20
8.4972554422
 30
0.0
 10
10.9684362816
 20
8.4780338676
 30
0.0
 10
10.9864673936
 20
8.4596163345
 30
0.0
 10
11.0053190252
 20
8.4420471657
 30
0.0
 10
11.0249457953
 20
8.4253686486
 30
0.0
 10
11.0453004658
 20
8.4096209361
 30
0.0
 10
11.0663340517
 20
8.3948419503
 30
0.0
 10
11.0879959413
 20
8.3810672984
 30
0.0
 10
11.1102339947
 20
8.3683301532
 30
0.0
 10
11.1329946833
 20
8.3566611872
 30
0.0
 10
11.1562232263
 20
8.3460885142
 30
0.0
 10
11.1798637192
 20
8.3366376228
 30
0.0
 10
11.2038592565
 20
8.3283313221
 30
0.0
 10
11.2281521139
 20
8.3211896282
 30
0.0
 10
11.2526836723
 20
8.3152298575
 30
0.0
 10
11.2773952716
 20
8.3104661909
 30
0.0
 10
11.3022264026
 20
8.3069104969
 30
0.0
 10
11.3188503255
 20
8.3053481476
 30
0.0
 10
11.3271610076
 20
8.3047717999
 30
0.0
  0
SPLINE
  5
381
100
AcDbEntity
  8
0
100
AcDbSpline
 62
7
  6
CONTINUOUS
 70
0
 71
3
 72
43
 73
39
 74
0
 42
0.0000001
 43
0.0000001
 44
0.0000000001
 40
0.0
 40
0.0
 40
0.0
 40
0.0
 40
0.0310039551
 40
0.0465602644
 40
0.0621504321
 40
0.0934266989
 40
0.1248294941
 40
0.1563496513
 40
0.1879759554
 40
0.2196954911
 40
0.2514938247
 40
0.2674195968
 40
0.2833590938
 40
0.3152669256
 40
0.3472037138
 40
0.3791515594
 40
0.4110923888
 40
0.4430082389
 40
0.4748815419
 40
0.5066954048
 40
0.5384338821
 40
0.5700822368
 40
0.6016271882
 40
0.6330571412
 40
0.6643623941
 40
0.6955353216
 40
0.7265705286
 40
0.7574649707
 40
0.7882180388
 40
0.8188316027
 40
0.8493100122
 40
0.8645027712
 40
0.8796644875
 40
0.9098952869
 40
0.9400181781
 40
0.9550455426
 40
0.9700510904
 40
1.0
 40
1.0
 40
1.0
 40
1.0
 10
11.5509195637
 20
8.6054244957
 30
0.0
 10
11.5415826161
 20
8.6060720152
 30
0.0
 10
11.5275873605
 20
8.6075077086
 30
0.0
 10
11.5090370685
 20
8.610332235
 30
0.0
 10
11.490506745
 20
8.6137725061
 30
0.0
 10
11.4674954791
 20
8.6192117658
 30
0.0
 10
11.4402795255
 20
8.6275186797
 30
0.0
 10
11.4135475558
 20
8.6375763795
 30
0.0
 10
11.3874168546
 20
8.6493407959
 30
0.0
 10
11.3620018893
 20
8.6627600473
 30
0.0
 10
11.3415200357
 20
8.6752679343
 30
0.0
 10
11.3256001507
 20
8.68603884
 30
0.0
 10
11.3099951839
 20
8.6973176937
 30
0.0
 10
11.2911384959
 20
8.7123282324
 30
0.0
 10
11.2696560676
 20
8.7317129328
 30
0.0
 10
11.2494026587
 20
8.7523930621
 30
0.0
 10
11.2304672885
 20
8.7742779094
 30
0.0
 10
11.2129325118
 20
8.7972720211
 30
0.0
 10
11.1968749794
 20
8.8212749735
 30
0.0
 10
11.1823648593
 20
8.8461819784
 30
0.0
 10
11.1694655989
 20
8.8718842923
 30
0.0
 10
11.1582336313
 20
8.8982696979
 30
0.0
 10
11.1487181336
 20
8.9252229863
 30
0.0
 10
11.140960811
 20
8.9526264546
 30
0.0
 10
11.1349957132
 20
8.9803604163
 30
0.0
 10
11.1308490816
 20
9.0083037107
 30
0.0
 10
11.128539237
 20
9.0363342523
 30
0.0
 10
11.1280764711
 20
9.0643294651
 30
0.0
 10
11.1294630805
 20
9.0921671598
 30
0.0
 10
11.1326930306
 20
9.1197247804
 30
0.0
 10
11.136914395
 20
9.1423827132
 30
0.0
 10
11.1411969684
 20
9.1602435859
 30
0.0
 10
11.1460675005
 20
9.1778756583
 30
0.0
 10
11.1532652504
 20
9.199526056
 30
0.0
 10
11.1619275055
 20
9.220589639
 30
0.0
 10
11.1697039546
 20
9.2370037343
 30
0.0
 10
11.178024183
 20
9.2530889928
 30
0.0
 10
11.1848905975
 20
9.264811424
 30
0.0
 10
11.1897321185
 20
9.2724466831
 30
0.0
  0
SPLINE
  5
382
100
AcDbEntity
  8
0
100
AcDbSpline
 62
7
  6
CONTINUOUS
 70
0
 71
3
 72
25
 73
21
 74
0
 42
0.0000001
 43
0.0000001
 44
0.0000000001
 40
0.0
 40
0.0
 40
0.0
 40
0.0
 40
0.0616475256
 40
0.0924812752
 40
0.1233236417
 40
0.1850399904
 40
0.2468243943
 40
0.277751631
 40
0.3087038637
 40
0.3706878925
 40
0.4328012858
 40
0.495061923
 40
0.5574860832
 40
0.6200882745
 40
0.682881117
 40
0.745875147
 40
0.8090789725
 40
0.8724984981
 40
0.9361386362
 40
1.0
 40
1.0
 40
1.0
 40
1.0
 10
11.8017281013
 20
8.3040013743
 30
0.0
 10
11.7939287644
 20
8.2964677858
 30
0.0
 10
11.7819212387
 20
8.2854778846
 30
0.0
 10
11.7653406474
 20
8.2714878585
 30
0.0
 10
11.74838043
 20
8.2579402821
 30
0.0
 10
11.7264921761
 20
8.2418561795
 30
0.0
 10
11.7037610644
 20
8.2269598288
 30
0.0
 10
11.6851024254
 20
8.2157745578
 30
0.0
 10
11.6661214848
 20
8.2050737955
 30
0.0
 10
11.6418350797
 20
8.1926342589
 30
0.0
 10
11.6118940955
 20
8.1792536157
 30
0.0
 10
11.5812155384
 20
8.1674452609
 30
0.0
 10
11.5498772151
 20
8.1572391539
 30
0.0
 10
11.5179579296
 20
8.1486608365
 30
0.0
 10
11.4855381233
 20
8.1417318578
 30
0.0
 10
11.4526993915
 20
8.1364695445
 30
0.0
 10
11.4195245401
 20
8.1328871064
 30
0.0
 10
11.3860966897
 20
8.1309933931
 30
0.0
 10
11.352501191
 20
8.1307931374
 30
0.0
 10
11.3300849418
 20
8.1317872573
 30
0.0
 10
11.3188788048
 20
8.1325644056
 30
0.0
  0
LINE
  5
383
100
AcDbEntity
  8
0
100
AcDbLine
 62
7
  6
CONTINUOUS
 10
11.8018548635
 20
8.304268902
 11
11.8016560711
 21
8.3040839791
  0
SPLINE
  5
384
100
AcDbEntity
  8
0
100
AcDbSpline
 62
7
  6
CONTINUOUS
 70
0
 71
3
 72
24
 73
20
 74
0
 42
0.0000001
 43
0.0000001
 44
0.0000000001
 40
0.0
 40
0.0
 40
0.0
 40
0.0
 40
0.061634095
 40
0.092463663
 40
0.1233034385
 40
0.185019038
 40
0.2468072966
 40
0.3086885309
 40
0.3706820741
 40
0.4328060772
 40
0.4950773265
 40
0.5575110776
 40
0.620120907
 40
0.6829186082
 40
0.7459139975
 40
0.8091151637
 40
0.8725273807
 40
0.9361557286
 40
1.0
 40
1.0
 40
1.0
 40
1.0
 10
11.8016560711
 20
8.3040839791
 30
0.0
 10
11.7938897302
 20
8.2968627382
 30
0.0
 10
11.7819505882
 20
8.2863331156
 30
0.0
 10
11.7654970218
 20
8.2729368234
 30
0.0
 10
11.7486860116
 20
8.259968197
 30
0.0
 10
11.727026133
 20
8.2445798998
 30
0.0
 10
11.7000793192
 20
8.2274851338
 30
0.0
 10
11.6722346965
 20
8.2117970635
 30
0.0
 10
11.6435597806
 20
8.1975537652
 30
0.0
 10
11.614123555
 20
8.1847894132
 30
0.0
 10
11.583996972
 20
8.1735347209
 30
0.0
 10
11.5532526013
 20
8.1638167299
 30
0.0
 10
11.5219645013
 20
8.155658764
 30
0.0
 10
11.4902080385
 20
8.1490803997
 30
0.0
 10
11.4580596423
 20
8.1440973603
 30
0.0
 10
11.4255968522
 20
8.1407216318
 30
0.0
 10
11.392897388
 20
8.1389611384
 30
0.0
 10
11.3600411587
 20
8.1388201606
 30
0.0
 10
11.3381197993
 20
8.1398044049
 30
0.0
 10
11.3271610076
 20
8.1405643997
 30
0.0
  0
SPLINE
  5
385
100
AcDbEntity
  8
0
100
AcDbSpline
 62
7
  6
CONTINUOUS
 70
0
 71
3
 72
23
 73
19
 74
0
 42
0.0000001
 43
0.0000001
 44
0.0000000001
 40
0.0
 40
0.0
 40
0.0
 40
0.0
 40
0.0616482098
 40
0.1233194446
 40
0.1850364747
 40
0.2468215611
 40
0.3086962076
 40
0.3706809245
 40
0.4327950062
 40
0.4950563328
 40
0.5574811797
 40
0.6200840705
 40
0.6828776046
 40
0.7458723228
 40
0.8090769537
 40
0.8724968135
 40
0.9361384451
 40
1.0
 40
1.0
 40
1.0
 40
1.0
 10
11.6722862285
 20
8.4778906837
 30
0.0
 10
11.6668996425
 20
8.4726876347
 30
0.0
 10
11.6558422169
 20
8.4625672959
 30
0.0
 10
11.6384608356
 20
8.44829722
 30
0.0
 10
11.6203246859
 20
8.4349703746
 30
0.0
 10
11.6014800925
 20
8.4226209103
 30
0.0
 10
11.5819743794
 20
8.4112797652
 30
0.0
 10
11.5618567406
 20
8.4009755416
 30
0.0
 10
11.5411778688
 20
8.3917341389
 30
0.0
 10
11.5199898791
 20
8.3835787829
 30
0.0
 10
11.4983461526
 20
8.3765299598
 30
0.0
 10
11.476301208
 20
8.3706053718
 30
0.0
 10
11.4539105734
 20
8.3658199
 30
0.0
 10
11.4312305975
 20
8.3621855115
 30
0.0
 10
11.4083185246
 20
8.3597113521
 30
0.0
 10
11.3852316273
 20
8.3584034244
 30
0.0
 10
11.362029017
 20
8.3582651632
 30
0.0
 10
11.3465472743
 20
8.3589517254
 30
0.0
 10
11.338807855
 20
8.359488456
 30
0.0
  0
SPLINE
  5
386
100
AcDbEntity
  8
0
100
AcDbSpline
 62
7
  6
CONTINUOUS
 70
0
 71
3
 72
17
 73
13
 74
0
 42
0.0000001
 43
0.0000001
 44
0.0000000001
 40
0.0
 40
0.0
 40
0.0
 40
0.0
 40
0.1234521356
 40
0.1853232245
 40
0.2472932661
 40
0.3715351468
 40
0.4962284644
 40
0.5587610065
 40
0.6214167891
 40
0.7470923502
 40
0.8732847533
 40
1.0
 40
1.0
 40
1.0
 40
1.0
 10
11.7576166194
 20
8.5953107992
 30
0.0
 10
11.7494145589
 20
8.5916362052
 30
0.0
 10
11.7369231517
 20
8.5865066684
 30
0.0
 10
11.7199645404
 20
8.5804565145
 30
0.0
 10
11.7027700157
 20
8.5749208191
 30
0.0
 10
11.6809091395
 20
8.5689943849
 30
0.0
 10
11.6586839091
 20
8.5644219214
 30
0.0
 10
11.6407130912
 20
8.5615784453
 30
0.0
 10
11.6225929191
 20
8.5592762201
 30
0.0
 10
11.5997539786
 20
8.5574298107
 30
0.0
 10
11.5721825966
 20
8.5568705075
 30
0.0
 10
11.5537718544
 20
8.5576000716
 30
0.0
 10
11.544568826
 20
8.5582383037
 30
0.0
  0
SPLINE
  5
387
100
AcDbEntity
  8
0
100
AcDbSpline
 62
7
  6
CONTINUOUS
 70
0
 71
3
 72
46
 73
42
 74
0
 42
0.0000001
 43
0.0000001
 44
0.0000000001
 40
0.0
 40
0.0
 40
0.0
 40
0.0
 40
0.0149666658
 40
0.0299376833
 40
0.0449159442
 40
0.0599042988
 40
0.07490554
 40
0.0899223838
 40
0.1049574562
 40
0.1200132802
 40
0.1350922562
 40
0.1501966537
 40
0.1653285992
 40
0.1804900592
 40
0.1956828369
 40
0.2109085608
 40
0.2414591144
 40
0.2721563506
 40
0.3030063208
 40
0.3340118031
 40
0.3651722932
 40
0.396484061
 40
0.4279402731
 40
0.4595311767
 40
0.4912443317
 40
0.5230648845
 40
0.5549758864
 40
0.58695864
 40
0.6189930699
 40
0.6510581135
 40
0.6831321264
 40
0.7151932939
 40
0.7472200453
 40
0.7791914648
 40
0.8110876931
 40
0.842890318
 40
0.8745827388
 40
0.9061505088
 40
0.9375816817
 40
0.9688667744
 40
1.0
 40
1.0
 40
1.0
 40
1.0
 10
10.8361076427
 20
9.303687581
 30
0.0
 10
10.8305737518
 20
9.2981348621
 30
0.0
 10
10.8197191037
 20
9.2868113846
 30
0.0
 10
10.8041068974
 20
9.2692038146
 30
0.0
 10
10.7891825419
 20
9.2509943991
 30
0.0
 10
10.7749659122
 20
9.2322075124
 30
0.0
 10
10.7614756772
 20
9.2128677482
 30
0.0
 10
10.7487296287
 20
9.1930005758
 30
0.0
 10
10.7367444439
 20
9.1726321876
 30
0.0
 10
10.7255359653
 20
9.1517893457
 30
0.0
 10
10.7151189153
 20
9.1304994919
 30
0.0
 10
10.7055069251
 20
9.1087906817
 30
0.0
 10
10.696712721
 20
9.0866914108
 30
0.0
 10
10.6887478233
 20
9.0642308986
 30
0.0
 10
10.681622593
 20
9.041438287
 30
0.0
 10
10.6732459584
 20
9.0106149162
 30
0.0
 10
10.6649231615
 20
8.9713912996
 30
0.0
 10
10.6584330142
 20
8.923546565
 30
0.0
 10
10.65545993
 20
8.8751157745
 30
0.0
 10
10.6560194869
 20
8.8263554007
 30
0.0
 10
10.660108095
 20
8.7775213276
 30
0.0
 10
10.667703782
 20
8.7288703149
 30
0.0
 10
10.6787660908
 20
8.6806578893
 30
0.0
 10
10.6932364973
 20
8.633137244
 30
0.0
 10
10.7110386659
 20
8.5865578824
 30
0.0
 10
10.7320787302
 20
8.5411642847
 30
0.0
 10
10.7562459427
 20
8.4971946841
 30
0.0
 10
10.7834132633
 20
8.4548798603
 30
0.0
 10
10.8134378965
 20
8.4144418701
 30
0.0
 10
10.8461620967
 20
8.3760929131
 30
0.0
 10
10.8814140586
 20
8.3400342929
 30
0.0
 10
10.9190087474
 20
8.3064553343
 30
0.0
 10
10.9587488047
 20
8.275532321
 30
0.0
 10
11.00042568
 20
8.2474276902
 30
0.0
 10
11.0438207016
 20
8.2222891974
 30
0.0
 10
11.0887060983
 20
8.2002490082
 30
0.0
 10
11.1348463591
 20
8.1814230947
 30
0.0
 10
11.1819990851
 20
8.1659106934
 30
0.0
 10
11.2299175422
 20
8.1537936932
 30
0.0
 10
11.2783468404
 20
8.1451362054
 30
0.0
 10
11.3108927292
 20
8.1416926086
 30
0.0
 10
11.3271610076
 20
8.1405643997
 30
0.0
  0
SPLINE
  5
388
100
AcDbEntity
  8
0
100
AcDbSpline
 62
7
  6
CONTINUOUS
 70
0
 71
3
 72
39
 73
35
 74
0
 42
0.0000001
 43
0.0000001
 44
0.0000000001
 40
0.0
 40
0.0
 40
0.0
 40
0.0
 40
0.0299393049
 40
0.0599022804
 40
0.0899120371
 40
0.1199905832
 40
0.1501583152
 40
0.180433557
 40
0.2108321574
 40
0.2413671588
 40
0.2720485413
 40
0.302883044
 40
0.333874065
 40
0.3650216373
 40
0.3963224782
 40
0.4277701076
 40
0.4593550264
 40
0.4910649489
 40
0.5228850817
 40
0.5547984441
 40
0.5867862233
 40
0.6188281554
 40
0.650902926
 40
0.6829885863
 40
0.7150629768
 40
0.747104156
 40
0.7790908244
 40
0.8110027393
 40
0.8428211159
 40
0.8745290106
 40
0.906111654
 40
0.9375568948
 40
0.9688549538
 40
1.0
 40
1.0
 40
1.0
 40
1.0
 10
11.0053294815
 20
9.1683750764
 30
0.0
 10
10.9974827032
 20
9.1607956612
 30
0.0
 10
10.9823706305
 20
9.1450085319
 30
0.0
 10
10.9616160728
 20
9.1196165193
 30
0.0
 10
10.9428760145
 20
9.0926392759
 30
0.0
 10
10.9262525113
 20
9.0642231421
 30
0.0
 10
10.9118337988
 20
9.034519821
 30
0.0
 10
10.8996968924
 20
9.0036884842
 30
0.0
 10
10.8899063234
 20
8.9718941232
 30
0.0
 10
10.882514061
 20
8.9393068431
 30
0.0
 10
10.8775592087
 20
8.9061008817
 30
0.0
 10
10.8750678301
 20
8.8724536902
 30
0.0
 10
10.8750528356
 20
8.8385449824
 30
0.0
 10
10.8775139069
 20
8.8045557821
 30
0.0
 10
10.8824375116
 20
8.7706674578
 30
0.0
 10
10.8897970251
 20
8.7370607663
 30
0.0
 10
10.8995528767
 20
8.7039149026
 30
0.0
 10
10.9116527716
 20
8.6714065596
 30
0.0
 10
10.9260319691
 20
8.6397090006
 30
0.0
 10
10.9426135967
 20
8.6089911309
 30
0.0
 10
10.9613091023
 20
8.5794166227
 30
0.0
 10
10.9820187205
 20
8.5511430563
 30
0.0
 10
11.0046320001
 20
8.5243210906
 30
0.0
 10
11.029028391
 20
8.499093676
 30
0.0
 10
11.0550778509
 20
8.475595272
 30
0.0
 10
11.0826415526
 20
8.4539511499
 30
0.0
 10
11.1115726246
 20
8.4342767433
 30
0.0
 10
11.1417169253
 20
8.4166770366
 30
0.0
 10
11.1729138354
 20
8.4012460124
 30
0.0
 10
11.204997164
 20
8.3880661442
 30
0.0
 10
11.237795766
 20
8.3772079039
 30
0.0
 10
11.27113538
 20
8.3687295147
 30
0.0
 10
11.3048359619
 20
8.3626765194
 30
0.0
 10
11.327486083
 20
8.3602736235
 30
0.0
 10
11.338807855
 20
8.359488456
 30
0.0
  0
SPLINE
  5
389
100
AcDbEntity
  8
0
100
AcDbSpline
 62
7
  6
CONTINUOUS
 70
0
 71
3
 72
42
 73
38
 74
0
 42
0.0000001
 43
0.0000001
 44
0.0000000001
 40
0.0
 40
0.0
 40
0.0
 40
0.0
 40
0.0300142132
 40
0.0450587864
 40
0.0601289396
 40
0.0903472274
 40
0.1206825451
 40
0.1358984703
 40
0.1511462745
 40
0.1817359325
 40
0.2124587438
 40
0.2433158588
 40
0.2743063022
 40
0.3054270157
 40
0.3366729309
 40
0.3680370708
 40
0.3995106772
 40
0.4310833597
 40
0.4627432648
 40
0.4944772622
 40
0.5262711449
 40
0.5581098408
 40
0.589977634
 40
0.6218583913
 40
0.6537357944
 40
0.6855935728
 40
0.7174157368
 40
0.7491868077
 40
0.7808920424
 40
0.8125176512
 40
0.8440510036
 40
0.8754808291
 40
0.9067973758
 40
0.9379926351
 40
0.9535443897
 40
0.9690640272
 40
1.0
 40
1.0
 40
1.0
 40
1.0
 10
11.1256658501
 20
9.2496456925
 30
0.0
 10
11.1214922629
 20
9.2411367917
 30
0.0
 10
11.1156494281
 20
9.2281489731
 30
0.0
 10
11.108725358
 20
9.2104675147
 30
0.0
 10
11.102364961
 20
9.1925063916
 30
0.0
 10
11.0955063096
 20
9.1696146135
 30
0.0
 10
11.0901417609
 20
9.1462803825
 30
0.0
 10
11.0867498618
 20
9.1273814164
 30
0.0
 10
11.0839557364
 20
9.1083037256
 30
0.0
 10
11.0816045668
 20
9.0842255545
 30
0.0
 10
11.0806195458
 20
9.0551196219
 30
0.0
 10
11.0814710457
 20
9.0258825308
 30
0.0
 10
11.084155644
 20
8.9966307376
 30
0.0
 10
11.0886625053
 20
8.9674797724
 30
0.0
 10
11.0949736448
 20
8.9385449945
 30
0.0
 10
11.1030639453
 20
8.9099408147
 30
0.0
 10
11.1129012748
 20
8.881780335
 30
0.0
 10
11.1244466121
 20
8.8541748825
 30
0.0
 10
11.1376542026
 20
8.8272335795
 30
0.0
 10
11.1524717403
 20
8.8010629152
 30
0.0
 10
11.1688405737
 20
8.7757663288
 30
0.0
 10
11.1866959374
 20
8.7514438046
 30
0.0
 10
11.2059672069
 20
8.7281914796
 30
0.0
 10
11.2265781763
 20
8.7061012672
 30
0.0
 10
11.2484473573
 20
8.6852604966
 30
0.0
 10
11.2714882998
 20
8.6657515697
 30
0.0
 10
11.2956099297
 20
8.647651638
 30
0.0
 10
11.3207169087
 20
8.6310322991
 30
0.0
 10
11.3467100013
 20
8.6159593159
 30
0.0
 10
11.3734864853
 20
8.6024923556
 30
0.0
 10
11.4009404753
 20
8.5906847632
 30
0.0
 10
11.4289636281
 20
8.5805833122
 30
0.0
 10
11.4574444885
 20
8.5722281787
 30
0.0
 10
11.4814930371
 20
8.566742483
 30
0.0
 10
11.5008464584
 20
8.5632597811
 30
0.0
 10
11.5202166412
 20
8.5603888733
 30
0.0
 10
11.534823822
 20
8.5589141221
 30
0.0
 10
11.544568826
 20
8.5582383037
 30
0.0
  0
SPLINE
  5
38A
100
AcDbEntity
  8
0
100
AcDbSpline
 62
7
  6
CONTINUOUS
 70
0
 71
3
 72
15
 73
11
 74
0
 42
0.0000001
 43
0.0000001
 44
0.0000000001
 40
0.0
 40
0.0
 40
0.0
 40
0.0
 40
0.1232994807
 40
0.2469644819
 40
0.3710688006
 40
0.4956762755
 40
0.6208393743
 40
0.7465987143
 40
0.8729801787
 40
1.0
 40
1.0
 40
1.0
 40
1.0
 10
11.7827293624
 20
8.6586016672
 30
0.0
 10
11.7741725102
 20
8.6535813184
 30
0.0
 10
11.7566370304
 20
8.6441847687
 30
0.0
 10
11.7292899919
 20
8.6321338201
 30
0.0
 10
11.7010029035
 20
8.6221679556
 30
0.0
 10
11.6719270258
 20
8.6143406226
 30
0.0
 10
11.6422153046
 20
8.6086923828
 30
0.0
 10
11.6120240432
 20
8.6052528409
 30
0.0
 10
11.581514246
 20
8.6040394572
 30
0.0
 10
11.5611152876
 20
8.6047174199
 30
0.0
 10
11.5509195637
 20
8.6054244957
 30
0.0
  0
SPLINE
  5
38B
100
AcDbEntity
  8
0
100
AcDbSpline
 62
7
  6
CONTINUOUS
 70
0
 71
3
 72
46
 73
42
 74
0
 42
0.0000001
 43
0.0000001
 44
0.0000000001
 40
0.0
 40
0.0
 40
0.0
 40
0.0
 40
0.031143804
 40
0.0624406641
 40
0.0938846266
 40
0.1254660369
 40
0.1571726773
 40
0.188989797
 40
0.2209004514
 40
0.2528858567
 40
0.2849257707
 40
0.3169988946
 40
0.3490832879
 40
0.3811567922
 40
0.4131974593
 40
0.4451839758
 40
0.4770960786
 40
0.5089149549
 40
0.5406236259
 40
0.5722072995
 40
0.6036536882
 40
0.6349532936
 40
0.6660996371
 40
0.6970894354
 40
0.727922722
 40
0.7586028953
 40
0.7891366922
 40
0.8043544294
 40
0.8195395762
 40
0.8346938584
 40
0.8498191748
 40
0.8649175902
 40
0.8799913269
 40
0.8950427481
 40
0.9100743467
 40
0.9250887336
 40
0.940088619
 40
0.9550767983
 40
0.9700561375
 40
0.9850295542
 40
1.0
 40
1.0
 40
1.0
 40
1.0
 10
9.3870270377
 20
8.2665387807
 30
0.0
 10
9.370634068
 20
8.267675637
 30
0.0
 10
9.3378385812
 20
8.2711548422
 30
0.0
 10
9.2890429658
 20
8.2799190376
 30
0.0
 10
9.2407699909
 20
8.2921950285
 30
0.0
 10
9.1932803822
 20
8.3079168588
 30
0.0
 10
9.146826417
 20
8.3270002244
 30
0.0
 10
9.1016558922
 20
8.3493430172
 30
0.0
 10
9.0580094699
 20
8.3748259117
 30
0.0
 10
9.0161196993
 20
8.4033127934
 30
0.0
 10
8.9762097519
 20
8.4346516433
 30
0.0
 10
8.938492332
 20
8.468675377
 30
0.0
 10
8.9031684073
 20
8.5052025587
 30
0.0
 10
8.8704262314
 20
8.5440384787
 30
0.0
 10
8.840440428
 20
8.5849762239
 30
0.0
 10
8.8133709013
 20
8.6277976296
 30
0.0
 10
8.7893620683
 20
8.672274515
 30
0.0
 10
8.7685421993
 20
8.7181699243
 30
0.0
 10
8.7510225501
 20
8.7652392727
 30
0.0
 10
8.7368968343
 20
8.813231687
 30
0.0
 10
8.7262408536
 20
8.8618913573
 30
0.0
 10
8.7191118875
 20
8.9109588042
 30
0.0
 10
8.7155484369
 20
8.9601723356
 30
0.0
 10
8.7155700932
 20
9.0092692229
 30
0.0
 10
8.7191774688
 20
9.0579878348
 30
0.0
 10
8.7263512643
 20
9.1060661939
 30
0.0
 10
8.7352822
 20
9.1454350951
 30
0.0
 10
8.744165393
 20
9.1763420775
 30
0.0
 10
8.7516796561
 20
9.1991810077
 30
0.0
 10
8.7600423856
 20
9.2216707487
 30
0.0
 10
8.7692425738
 20
9.2437816572
 30
0.0
 10
8.7792679086
 20
9.265484076
 30
0.0
 10
8.79010496
 20
9.2867490637
 30
0.0
 10
8.8017393319
 20
9.3075481595
 30
0.0
 10
8.8141554702
 20
9.3278535783
 30
0.0
 10
8.827336745
 20
9.3476382138
 30
0.0
 10
8.8412656274
 20
9.3668755864
 30
0.0
 10
8.8559234624
 20
9.385539976
 30
0.0
 10
8.8712907191
 20
9.4036065642
 30
0.0
 10
8.8873465916
 20
9.4210508161
 30
0.0
 10
8.8984964768
 20
9.4322511045
 30
0.0
 10
8.9041777412
 20
9.4377387901
 30
0.0
  0
SPLINE
  5
38C
100
AcDbEntity
  8
0
100
AcDbSpline
 62
7
  6
CONTINUOUS
 70
0
 71
3
 72
61
 73
57
 74
0
 42
0.0000001
 43
0.0000001
 44
0.0000000001
 40
0.0
 40
0.0
 40
0.0
 40
0.0
 40
0.0081437451
 40
0.0169768238
 40
0.0265208827
 40
0.0367895907
 40
0.0477882519
 40
0.0595157749
 40
0.0719659111
 40
0.0851281662
 40
0.0989883865
 40
0.1135291266
 40
0.1287303122
 40
0.1445692972
 40
0.1610212357
 40
0.1780593736
 40
0.1956550177
 40
0.2137779419
 40
0.2514761317
 40
0.2908853948
 40
0.3317179717
 40
0.3736716991
 40
0.4164333432
 40
0.459681813
 40
0.5030913239
 40
0.5463345566
 40
0.5890857858
 40
0.63102401
 40
0.6718361344
 40
0.7112202156
 40
0.7302867538
 40
0.7488898237
 40
0.7669963397
 40
0.7845746224
 40
0.8015943886
 40
0.8180271298
 40
0.8338460684
 40
0.8490264182
 40
0.8635457074
 40
0.8773837958
 40
0.8905234617
 40
0.9029506297
 40
0.9146548405
 40
0.9256301247
 40
0.9358755584
 40
0.94539665
 40
0.9542068245
 40
0.9623293601
 40
0.9698004202
 40
0.9766722849
 40
0.9830175572
 40
0.9889330701
 40
0.9917694488
 40
0.9945466069
 40
0.9972834973
 40
1.0
 40
1.0
 40
1.0
 40
1.0
 10
13.4494894301
 20
7.2133260552
 30
0.0
 10
13.4503406054
 20
7.2141482275
 30
0.0
 10
13.4520385542
 20
7.2159422605
 30
0.0
 10
13.4544784274
 20
7.2189288773
 30
0.0
 10
13.4569077977
 20
7.2223120517
 30
0.0
 10
13.4593219519
 20
7.2260849952
 30
0.0
 10
13.4617165066
 20
7.2302406497
 30
0.0
 10
13.4640866953
 20
7.2347709951
 30
0.0
 10
13.4664278832
 20
7.239667154
 30
0.0
 10
13.4687353909
 20
7.244919491
 30
0.0
 10
13.4710045569
 20
7.2505176146
 30
0.0
 10
13.4732308545
 20
7.2564503792
 30
0.0
 10
13.4754097517
 20
7.2627059613
 30
0.0
 10
13.4775368638
 20
7.2692718535
 30
0.0
 10
13.4796079067
 20
7.2761349105
 30
0.0
 10
13.4816186526
 20
7.2832813809
 30
0.0
 10
13.4835651053
 20
7.2906969341
 30
0.0
 10
13.4861026655
 20
7.3010597729
 30
0.0
 10
13.4890752439
 20
7.3145775179
 30
0.0
 10
13.4922827457
 20
7.3314152646
 30
0.0
 10
13.4951497072
 20
7.3489411489
 30
0.0
 10
13.4976528773
 20
7.3670144343
 30
0.0
 10
13.4997719432
 20
7.3854900968
 30
0.0
 10
13.501489755
 20
7.4042197667
 30
0.0
 10
13.502792457
 20
7.4230530117
 30
0.0
 10
13.5036695908
 20
7.4418385535
 30
0.0
 10
13.5041141702
 20
7.4604254923
 30
0.0
 10
13.5041227626
 20
7.478664589
 30
0.0
 10
13.5036954546
 20
7.496409298
 30
0.0
 10
13.502971773
 20
7.5108175357
 30
0.0
 10
13.5021701078
 20
7.5219862466
 30
0.0
 10
13.5014695857
 20
7.5300613827
 30
0.0
 10
13.5006647901
 20
7.5379094374
 30
0.0
 10
13.4997573627
 20
7.5455146609
 30
0.0
 10
13.4987491176
 20
7.5528617816
 30
0.0
 10
13.4976421407
 20
7.5599360599
 30
0.0
 10
13.4964386725
 20
7.5667233131
 30
0.0
 10
13.4951411457
 20
7.573209948
 30
0.0
 10
13.4937522387
 20
7.5793829961
 30
0.0
 10
13.4922747293
 20
7.5852301352
 30
0.0
 10
13.4907116405
 20
7.5907397337
 30
0.0
 10
13.4890661369
 20
7.5959008756
 30
0.0
 10
13.4873414809
 20
7.6007033822
 30
0.0
 10
13.4855411511
 20
7.6051378805
 30
0.0
 10
13.4836686113
 20
7.6091957906
 30
0.0
 10
13.4817274008
 20
7.6128693867
 30
0.0
 10
13.4797210316
 20
7.6161518189
 30
0.0
 10
13.4776527041
 20
7.6190370114
 30
0.0
 10
13.4755254666
 20
7.6215196426
 30
0.0
 10
13.4733415401
 20
7.6235947814
 30
0.0
 10
13.4711034817
 20
7.625257101
 30
0.0
 10
13.4691670894
 20
7.6263080609
 30
0.0
 10
13.4676066202
 20
7.6269223895
 30
0.0
 10
13.4664426784
 20
7.6272708872
 30
0.0
 10
13.4652699115
 20
7.627513021
 30
0.0
 10
13.4644813621
 20
7.6276034974
 30
0.0
 10
13.4640875581
 20
7.6276308128
 30
0.0
  0
SPLINE
  5
38D
100
AcDbEntity
  8
0
100
AcDbSpline
 62
7
  6
CONTINUOUS
 70
0
 71
3
 72
23
 73
19
 74
0
 42
0.0000001
 43
0.0000001
 44
0.0000000001
 40
0.0
 40
0.0
 40
0.0
 40
0.0
 40
0.0616482071
 40
0.1233194423
 40
0.1850364754
 40
0.2468215648
 40
0.3086962113
 40
0.3706809251
 40
0.4327950039
 40
0.4950563299
 40
0.5574811805
 40
0.6200840695
 40
0.682877611
 40
0.7458723236
 40
0.8090769236
 40
0.8724969197
 40
0.9361382346
 40
1.0
 40
1.0
 40
1.0
 40
1.0
 10
10.0116950462
 20
6.9708333277
 30
0.0
 10
10.0056351314
 20
6.9649799038
 30
0.0
 10
9.993195546
 20
6.9535945039
 30
0.0
 10
9.9736415004
 20
6.937540657
 30
0.0
 10
9.9532383357
 20
6.9225479487
 30
0.0
 10
9.9320381576
 20
6.9086548152
 30
0.0
 10
9.9100942194
 20
6.8958960462
 30
0.0
 10
9.8874618776
 20
6.8843037936
 30
0.0
 10
9.8641981538
 20
6.873907202
 30
0.0
 10
9.8403616696
 20
6.8647324147
 30
0.0
 10
9.8160124773
 20
6.8568024871
 30
0.0
 10
9.7912119099
 20
6.8501373373
 30
0.0
 10
9.7660224433
 20
6.8447536944
 30
0.0
 10
9.7405074755
 20
6.8406650024
 30
0.0
 10
9.714731381
 20
6.8378815573
 30
0.0
 10
9.6887586495
 20
6.8364101549
 30
0.0
 10
9.662655709
 20
6.8362545918
 30
0.0
 10
9.6452387631
 20
6.8370269855
 30
0.0
 10
9.6365318877
 20
6.8376308094
 30
0.0
  0
SPLINE
  5
38E
100
AcDbEntity
  8
0
100
AcDbSpline
 62
7
  6
CONTINUOUS
 70
0
 71
3
 72
15
 73
11
 74
0
 42
0.0000001
 43
0.0000001
 44
0.0000000001
 40
0.0
 40
0.0
 40
0.0
 40
0.0
 40
0.1233300035
 40
0.2470319918
 40
0.3711707243
 40
0.4958019575
 40
0.6209713123
 40
0.7467140007
 40
0.8730522424
 40
1.0
 40
1.0
 40
1.0
 40
1.0
 10
10.0892389389
 20
7.0687437345
 30
0.0
 10
10.0789821048
 20
7.0631025829
 30
0.0
 10
10.0580127075
 20
7.0525569242
 30
0.0
 10
10.0254376979
 20
7.0390633164
 30
0.0
 10
9.9918491883
 20
7.0279340607
 30
0.0
 10
9.9574109787
 20
7.0192235829
 30
0.0
 10
9.922288256
 20
7.0129730553
 30
0.0
 10
9.8866495284
 20
7.0092123725
 30
0.0
 10
9.8506681308
 20
7.0079589354
 30
0.0
 10
9.8266195273
 20
7.0087970681
 30
0.0
 10
9.8145992438
 20
7.0096306776
 30
0.0
  0
SPLINE
  5
38F
100
AcDbEntity
  8
0
100
AcDbSpline
 62
7
  6
CONTINUOUS
 70
0
 71
3
 72
19
 73
15
 74
0
 42
0.0000001
 43
0.0000001
 44
0.0000000001
 40
0.0
 40
0.0
 40
0.0
 40
0.0
 40
0.0616005123
 40
0.123275487
 40
0.1850372408
 40
0.2468975041
 40
0.3088673655
 40
0.3709571717
 40
0.4331764723
 40
0.4955339892
 40
0.620668356
 40
0.7464372759
 40
0.8728743725
 40
1.0
 40
1.0
 40
1.0
 40
1.0
 10
10.1117443535
 20
7.111291396
 30
0.0
 10
10.1064677343
 20
7.107839745
 30
0.0
 10
10.0957624255
 20
7.1011521133
 30
0.0
 10
10.0792905606
 20
7.0917927642
 30
0.0
 10
10.0624200582
 20
7.0831136998
 30
0.0
 10
10.0451772141
 20
7.0751283484
 30
0.0
 10
10.027588312
 20
7.067848925
 30
0.0
 10
10.0096804424
 20
7.0612866406
 30
0.0
 10
9.9914806953
 20
7.0554513781
 30
0.0
 10
9.9668375988
 20
7.0486453355
 30
0.0
 10
9.9354298883
 20
7.042001393
 30
0.0
 10
9.8970817346
 20
7.0370663394
 30
0.0
 10
9.8582607473
 20
7.0351865468
 30
0.0
 10
9.8322873634
 20
7.0359763233
 30
0.0
 10
9.8193062611
 20
7.0368765658
 30
0.0
  0
SPLINE
  5
390
100
AcDbEntity
  8
0
100
AcDbSpline
 62
7
  6
CONTINUOUS
 70
0
 71
3
 72
15
 73
11
 74
0
 42
0.0000001
 43
0.0000001
 44
0.0000000001
 40
0.0
 40
0.0
 40
0.0
 40
0.0
 40
0.1233237137
 40
0.2470184172
 40
0.3711505349
 40
0.4957773122
 40
0.6209456154
 40
0.7466916675
 40
0.8730383423
 40
1.0
 40
1.0
 40
1.0
 40
1.0
 10
10.1197638177
 20
7.129033223
 30
0.0
 10
10.1098962387
 20
7.1235382064
 30
0.0
 10
10.0897137746
 20
7.1132633675
 30
0.0
 10
10.0583386062
 20
7.1001104621
 30
0.0
 10
10.0259682978
 20
7.0892565938
 30
0.0
 10
9.9927635535
 20
7.0807557919
 30
0.0
 10
9.9588865112
 20
7.074648963
 30
0.0
 10
9.9245026276
 20
7.0709658412
 30
0.0
 10
9.8897821443
 20
7.0697237758
 30
0.0
 10
9.8665747346
 20
7.0705254604
 30
0.0
 10
9.8549749815
 20
7.071329906
 30
0.0
  0
SPLINE
  5
391
100
AcDbEntity
  8
0
100
AcDbSpline
 62
7
  6
CONTINUOUS
 70
0
 71
3
 72
21
 73
17
 74
0
 42
0.0000001
 43
0.0000001
 44
0.0000000001
 40
0.0
 40
0.0
 40
0.0
 40
0.0
 40
0.0615939524
 40
0.1232558874
 40
0.1849998474
 40
0.2468392788
 40
0.3087869141
 40
0.3708546805
 40
0.4330536378
 40
0.4953938864
 40
0.5578845106
 40
0.6205334818
 40
0.6833476514
 40
0.7463329639
 40
0.8728046027
 40
1.0
 40
1.0
 40
1.0
 40
1.0
 10
10.1443243221
 20
7.205113673
 30
0.0
 10
10.1394121752
 20
7.2016536858
 30
0.0
 10
10.1294287678
 20
7.1949451908
 30
0.0
 10
10.1140179584
 20
7.1855441913
 30
0.0
 10
10.0981891772
 20
7.1768150006
 30
0.0
 10
10.0819696164
 20
7.1687726837
 30
0.0
 10
10.0653866416
 20
7.1614308524
 30
0.0
 10
10.0484684265
 20
7.1548018761
 30
0.0
 10
10.0312436316
 20
7.1488969708
 30
0.0
 10
10.0137414354
 20
7.1437261978
 30
0.0
 10
9.9959915014
 20
7.1392982215
 30
0.0
 10
9.9780239963
 20
7.1356205256
 30
0.0
 10
9.9598689982
 20
7.132699381
 30
0.0
 10
9.9354236273
 20
7.1298160711
 30
0.0
 10
9.9045432462
 20
7.1281320226
 30
0.0
 10
9.879776251
 20
7.1288359244
 30
0.0
 10
9.8673982854
 20
7.1296943392
 30
0.0
  0
SPLINE
  5
392
100
AcDbEntity
  8
0
100
AcDbSpline
 62
7
  6
CONTINUOUS
 70
0
 71
3
 72
39
 73
35
 74
0
 42
0.0000001
 43
0.0000001
 44
0.0000000001
 40
0.0
 40
0.0
 40
0.0
 40
0.0
 40
0.0299393047
 40
0.0599022801
 40
0.0899120371
 40
0.1199905837
 40
0.1501583157
 40
0.1804335568
 40
0.2108321569
 40
0.2413671588
 40
0.2720485416
 40
0.3028830442
 40
0.3338740651
 40
0.3650216374
 40
0.3963224781
 40
0.4277701073
 40
0.4593550264
 40
0.4910649494
 40
0.522885082
 40
0.5547984439
 40
0.586786223
 40
0.6188281554
 40
0.6509029262
 40
0.6829885862
 40
0.7150629769
 40
0.7471041563
 40
0.7790908245
 40
0.8110027389
 40
0.842821116
 40
0.8745290096
 40
0.9061116585
 40
0.9375568878
 40
0.9688549526
 40
1.0
 40
1.0
 40
1.0
 40
1.0
 10
9.2613687292
 20
7.7476282453
 30
0.0
 10
9.2525410953
 20
7.7391014119
 30
0.0
 10
9.2355400128
 20
7.721340892
 30
0.0
 10
9.2121911118
 20
7.6927748969
 30
0.0
 10
9.1911085588
 20
7.6624254876
 30
0.0
 10
9.1724071347
 20
7.6304573269
 30
0.0
 10
9.1561860895
 20
7.5970410883
 30
0.0
 10
9.1425320477
 20
7.5623558437
 30
0.0
 10
9.1315176524
 20
7.5265871886
 30
0.0
 10
9.1232013664
 20
7.4899264959
 30
0.0
 10
9.1176271629
 20
7.4525697884
 30
0.0
 10
9.11482436
 20
7.4147166981
 30
0.0
 10
9.114807491
 20
7.3765694015
 30
0.0
 10
9.1175761987
 20
7.3383315515
 30
0.0
 10
9.1231152489
 20
7.3002071862
 30
0.0
 10
9.1313946926
 20
7.2623996563
 30
0.0
 10
9.1423700279
 20
7.2251105593
 30
0.0
 10
9.1559824327
 20
7.1885386815
 30
0.0
 10
9.1721590259
 20
7.1528789266
 30
0.0
 10
9.1908133404
 20
7.1183213146
 30
0.0
 10
9.2118457709
 20
7.0850499838
 30
0.0
 10
9.235144108
 20
7.0532422327
 30
0.0
 10
9.260584066
 20
7.0230675371
 30
0.0
 10
9.2880299992
 20
6.9946866903
 30
0.0
 10
9.3173356226
 20
6.9682509644
 30
0.0
 10
9.3483447862
 20
6.9439013244
 30
0.0
 10
9.3808922539
 20
6.9217676342
 30
0.0
 10
9.4148045989
 20
6.9019679763
 30
0.0
 10
9.4499011177
 20
6.8846080661
 30
0.0
 10
9.4859948563
 20
6.8697806928
 30
0.0
 10
9.5228932851
 20
6.8575651846
 30
0.0
 10
9.5604003511
 20
6.8480269986
 30
0.0
 10
9.5983135049
 20
6.8412173839
 30
0.0
 10
9.6237948937
 20
6.8385141229
 30
0.0
 10
9.6365318877
 20
6.8376308094
 30
0.0
  0
SPLINE
  5
393
100
AcDbEntity
  8
0
100
AcDbSpline
 62
7
  6
CONTINUOUS
 70
0
 71
3
 72
45
 73
41
 74
0
 42
0.0000001
 43
0.0000001
 44
0.0000000001
 40
0.0
 40
0.0
 40
0.0
 40
0.0
 40
0.0149735785
 40
0.0299663366
 40
0.0449801909
 40
0.0600169617
 40
0.0901615913
 40
0.1204169945
 40
0.1355917011
 40
0.150797785
 40
0.1660361962
 40
0.1813077369
 40
0.2119484963
 40
0.2427277944
 40
0.273646719
 40
0.3047039792
 40
0.3358959587
 40
0.367216806
 40
0.398658558
 40
0.4302112931
 40
0.4618633118
 40
0.4936013392
 40
0.5254107476
 40
0.5572757945
 40
0.5891798734
 40
0.621105774
 40
0.6530359498
 40
0.6849527881
 40
0.7168388816
 40
0.7486772978
 40
0.780451843
 40
0.8121473185
 40
0.8437497632
 40
0.8595140617
 40
0.8752505569
 40
0.9066311404
 40
0.9378865327
 40
0.9534668161
 40
0.9690135885
 40
1.0
 40
1.0
 40
1.0
 40
1.0
 10
9.3618472625
 20
7.8216313678
 30
0.0
 10
9.3590258
 20
7.8168949639
 30
0.0
 10
9.3535433708
 20
7.8073172132
 30
0.0
 10
9.3458169152
 20
7.7926653652
 30
0.0
 10
9.3385905117
 20
7.7777342732
 30
0.0
 10
9.3296258889
 20
7.7574610652
 30
0.0
 10
9.3197077548
 20
7.7314925631
 30
0.0
 10
9.3115667773
 20
7.7048606434
 30
0.0
 10
9.3061290837
 20
7.683203829
 30
0.0
 10
9.3025887287
 20
7.6667814031
 30
0.0
 10
9.2995946681
 20
7.6502144374
 30
0.0
 10
9.2963318015
 20
7.6279336841
 30
0.0
 10
9.2936373527
 20
7.5998029635
 30
0.0
 10
9.2926307541
 20
7.5657959858
 30
0.0
 10
9.2938506361
 20
7.5316420921
 30
0.0
 10
9.2972917168
 20
7.4974879148
 30
0.0
 10
9.3029390427
 20
7.4634787882
 30
0.0
 10
9.3107683345
 20
7.4297597278
 30
0.0
 10
9.3207460235
 20
7.3964743899
 30
0.0
 10
9.3328294123
 20
7.3637645798
 30
0.0
 10
9.3469668566
 20
7.3317696226
 30
0.0
 10
9.3630979914
 20
7.3006257859
 30
0.0
 10
9.3811539876
 20
7.2704657026
 30
0.0
 10
9.4010578447
 20
7.2414178129
 30
0.0
 10
9.4227247178
 20
7.2136058227
 30
0.0
 10
9.4460622759
 20
7.1871481811
 30
0.0
 10
9.4709710946
 20
7.1621575808
 30
0.0
 10
9.4973450696
 20
7.1387404836
 30
0.0
 10
9.5250718903
 20
7.1169966624
 30
0.0
 10
9.554033416
 20
7.0970188078
 30
0.0
 10
9.5841065307
 20
7.0788920107
 30
0.0
 10
9.6151623508
 20
7.0626938811
 30
0.0
 10
9.64177582
 20
7.050849384
 30
0.0
 10
9.6634245411
 20
7.0424056328
 30
0.0
 10
9.685250077
 20
7.0346711561
 30
0.0
 10
9.7128915912
 20
7.0263179062
 30
0.0
 10
9.7409508317
 20
7.019744634
 30
0.0
 10
9.7635428318
 20
7.0155831029
 30
0.0
 10
9.7861578616
 20
7.0121630088
 30
0.0
 10
9.8032177572
 20
7.0104199864
 30
0.0
 10
9.8145992438
 20
7.0096306776
 30
0.0
  0
SPLINE
  5
394
100
AcDbEntity
  8
0
100
AcDbSpline
 62
7
  6
CONTINUOUS
 70
0
 71
3
 72
42
 73
38
 74
0
 42
0.0000001
 43
0.0000001
 44
0.0000000001
 40
0.0
 40
0.0
 40
0.0
 40
0.0
 40
0.0299318279
 40
0.0599336148
 40
0.0749684732
 40
0.0900270166
 40
0.1051110802
 40
0.1202223807
 40
0.150528196
 40
0.180960108
 40
0.2115266215
 40
0.242233691
 40
0.2576432982
 40
0.2730890677
 40
0.3040845798
 40
0.3352226994
 40
0.3664989184
 40
0.397906286
 40
0.4294355605
 40
0.461075396
 40
0.4928125582
 40
0.5246321665
 40
0.5565179575
 40
0.5884525649
 40
0.6204178136
 40
0.6523950224
 40
0.6843653129
 40
0.7163099206
 40
0.7482105047
 40
0.7800494531
 40
0.8118101798
 40
0.843477407
 40
0.8750374419
 40
0.9064783856
 40
0.9377905098
 40
0.9689659496
 40
1.0
 40
1.0
 40
1.0
 40
1.0
 10
9.4051868036
 20
7.842717692
 30
0.0
 10
9.3989152595
 20
7.833817682
 30
0.0
 10
9.3869965542
 20
7.8155373174
 30
0.0
 10
9.3737692101
 20
7.7916626093
 30
0.0
 10
9.3642119748
 20
7.7719985215
 30
0.0
 10
9.3575577572
 20
7.7569687925
 30
0.0
 10
9.3514306636
 20
7.741686609
 30
0.0
 10
9.3439670381
 20
7.720979517
 30
0.0
 10
9.3359900888
 20
7.6945418737
 30
0.0
 10
9.3286355833
 20
7.6621274434
 30
0.0
 10
9.323521209
 20
7.629137521
 30
0.0
 10
9.321148204
 20
7.6013214609
 30
0.0
 10
9.3203840751
 20
7.5789374448
 30
0.0
 10
9.320378095
 20
7.5564354188
 30
0.0
 10
9.3217996912
 20
7.5282285994
 30
0.0
 10
9.3257740924
 20
7.4944593502
 30
0.0
 10
9.3320005631
 20
7.4608791601
 30
0.0
 10
9.3404504782
 20
7.4276421226
 30
0.0
 10
9.3510850872
 20
7.394899483
 30
0.0
 10
9.3638557172
 20
7.3628005414
 30
0.0
 10
9.378703992
 20
7.3314915537
 30
0.0
 10
9.3955620909
 20
7.3011151831
 30
0.0
 10
9.4143530663
 20
7.2718098283
 30
0.0
 10
9.4349911948
 20
7.243709009
 30
0.0
 10
9.4573823654
 20
7.2169407615
 30
0.0
 10
9.4814245052
 20
7.1916270616
 30
0.0
 10
9.5070080414
 20
7.1678832742
 30
0.0
 10
9.5340163952
 20
7.1458176318
 30
0.0
 10
9.56232651
 20
7.1255307466
 30
0.0
 10
9.5918094008
 20
7.1071151493
 30
0.0
 10
9.6223307421
 20
7.090654869
 30
0.0
 10
9.6537514605
 20
7.076225053
 30
0.0
 10
9.6859284206
 20
7.0638916434
 30
0.0
 10
9.7187148575
 20
7.0537110236
 30
0.0
 10
9.751961818
 20
7.0457298689
 30
0.0
 10
9.7855157826
 20
7.0399848229
 30
0.0
 10
9.8080446558
 20
7.0376575608
 30
0.0
 10
9.8193062611
 20
7.0368765658
 30
0.0
  0
SPLINE
  5
395
100
AcDbEntity
  8
0
100
AcDbSpline
 62
7
  6
CONTINUOUS
 70
0
 71
3
 72
44
 73
40
 74
0
 42
0.0000001
 43
0.0000001
 44
0.0000000001
 40
0.0
 40
0.0
 40
0.0
 40
0.0
 40
0.0149724263
 40
0.0299637806
 40
0.044976004
 40
0.0600109418
 40
0.0901513665
 40
0.1204020455
 40
0.1355742672
 40
0.1507778123
 40
0.181278328
 40
0.2119139443
 40
0.2426883047
 40
0.2736026434
 40
0.3046557967
 40
0.3358442542
 40
0.3671622488
 40
0.3986018792
 40
0.4301532637
 40
0.4618047206
 40
0.4935429726
 40
0.5253533695
 40
0.5572201289
 40
0.5891265884
 40
0.6210554689
 40
0.6529891436
 40
0.6849099115
 40
0.7168002718
 40
0.7327305786
 40
0.7486469527
 40
0.7804261481
 40
0.8121263224
 40
0.8437334247
 40
0.8752348901
 40
0.9066198122
 40
0.9378792844
 40
0.9534614928
 40
0.9690101517
 40
1.0
 40
1.0
 40
1.0
 40
1.0
 10
9.4231738007
 20
7.8500754275
 30
0.0
 10
9.4204450113
 20
7.8455495763
 30
0.0
 10
9.4151411454
 20
7.8363963123
 30
0.0
 10
9.4076620291
 20
7.8223898163
 30
0.0
 10
9.4006622347
 20
7.8081127513
 30
0.0
 10
9.3919724157
 20
7.7887228962
 30
0.0
 10
9.3823450398
 20
7.7638773192
 30
0.0
 10
9.3744232459
 20
7.7383863105
 30
0.0
 10
9.3691178251
 20
7.7176512855
 30
0.0
 10
9.3644964874
 20
7.6966628873
 30
0.0
 10
9.3600343867
 20
7.6700668792
 30
0.0
 10
9.3568083478
 20
7.6377624636
 30
0.0
 10
9.355717689
 20
7.6051691343
 30
0.0
 10
9.3567670582
 20
7.5724275093
 30
0.0
 10
9.359951653
 20
7.5396776384
 30
0.0
 10
9.3652576143
 20
7.5070598746
 30
0.0
 10
9.3726619956
 20
7.4747138823
 30
0.0
 10
9.3821328932
 20
7.4427781523
 30
0.0
 10
9.3936295794
 20
7.4113893865
 30
0.0
 10
9.407102682
 20
7.3806819267
 30
0.0
 10
9.4224943958
 20
7.3507871846
 30
0.0
 10
9.4397387322
 20
7.3218330843
 30
0.0
 10
9.4587617954
 20
7.2939435244
 30
0.0
 10
9.4794821178
 20
7.2672378391
 30
0.0
 10
9.5018109313
 20
7.2418303446
 30
0.0
 10
9.5256528265
 20
7.2178296574
 30
0.0
 10
9.5509051027
 20
7.1953389655
 30
0.0
 10
9.5730442153
 20
7.17792738
 30
0.0
 10
9.5913514495
 20
7.1648462641
 30
0.0
 10
9.6100191695
 20
7.1523554012
 30
0.0
 10
9.6340211416
 20
7.1378516385
 30
0.0
 10
9.6637831044
 20
7.1222919653
 30
0.0
 10
9.6943653537
 20
7.1086508496
 30
0.0
 10
9.7256365808
 20
7.0969872481
 30
0.0
 10
9.7574623164
 20
7.0873512492
 30
0.0
 10
9.7843636236
 20
7.0810383326
 30
0.0
 10
9.806023607
 20
7.0770424755
 30
0.0
 10
9.8277059618
 20
7.0737591462
 30
0.0
 10
9.8440626404
 20
7.0720866795
 30
0.0
 10
9.8549749815
 20
7.071329906
 30
0.0
  0
SPLINE
  5
396
100
AcDbEntity
  8
0
100
AcDbSpline
 62
7
  6
CONTINUOUS
 70
0
 71
3
 72
43
 73
39
 74
0
 42
0.0000001
 43
0.0000001
 44
0.0000000001
 40
0.0
 40
0.0
 40
0.0
 40
0.0
 40
0.0149579341
 40
0.0299291408
 40
0.0449160112
 40
0.0599208587
 40
0.0899883142
 40
0.1201529331
 40
0.1352787115
 40
0.150434025
 40
0.1656203315
 40
0.1808389298
 40
0.2113727036
 40
0.2420472704
 40
0.2728670561
 40
0.3038337161
 40
0.3349461427
 40
0.3662005248
 40
0.3975904539
 40
0.4291070737
 40
0.4607392681
 40
0.4924738817
 40
0.524295971
 40
0.5561890781
 40
0.5881355248
 40
0.6201167214
 40
0.6521134867
 40
0.684106375
 40
0.7160760062
 40
0.7480033952
 40
0.7798702772
 40
0.8116594239
 40
0.8433549453
 40
0.8749425853
 40
0.9064099452
 40
0.937746883
 40
0.968945206
 40
1.0
 40
1.0
 40
1.0
 40
1.0
 10
9.5001051861
 20
7.8720599019
 30
0.0
 10
9.4970824524
 20
7.8680697911
 30
0.0
 10
9.4911800284
 20
7.8599744098
 30
0.0
 10
9.4827728596
 20
7.8475100759
 30
0.0
 10
9.474817741
 20
7.8347335356
 30
0.0
 10
9.464820874
 20
7.8172924415
 30
0.0
 10
9.4534988542
 20
7.7947766493
 30
0.0
 10
9.4438170204
 20
7.7714649912
 30
0.0
 10
9.4370720605
 20
7.7523901863
 30
0.0
 10
9.4325140522
 20
7.7378694046
 30
0.0
 10
9.4284675765
 20
7.7231656467
 30
0.0
 10
9.4237556145
 20
7.7033202561
 30
0.0
 10
9.4191695782
 20
7.6781345026
 30
0.0
 10
9.4157813212
 20
7.6474991203
 30
0.0
 10
9.4145165318
 20
7.6165574641
 30
0.0
 10
9.4153811151
 20
7.5854560128
 30
0.0
 10
9.41837066
 20
7.5543406772
 30
0.0
 10
9.4234708734
 20
7.5233577209
 30
0.0
 10
9.4306575476
 20
7.4926526485
 30
0.0
 10
9.4398967095
 20
7.4623696466
 30
0.0
 10
9.4511447787
 20
7.4326508838
 30
0.0
 10
9.464348769
 20
7.4036358573
 30
0.0
 10
9.4794465426
 20
7.3754607427
 30
0.0
 10
9.4963671058
 20
7.3482577652
 30
0.0
 10
9.5150309408
 20
7.3221545851
 30
0.0
 10
9.5353503771
 20
7.2972737053
 30
0.0
 10
9.5572300002
 20
7.2737319025
 30
0.0
 10
9.5805670958
 20
7.2516396844
 30
0.0
 10
9.6052521273
 20
7.2311007753
 30
0.0
 10
9.6311692464
 20
7.2122116346
 30
0.0
 10
9.6581968248
 20
7.1950609987
 30
0.0
 10
9.6862080289
 20
7.1797294737
 30
0.0
 10
9.7150713935
 20
7.1662891544
 30
0.0
 10
9.7446514882
 20
7.1548033058
 30
0.0
 10
9.7748093437
 20
7.1453260144
 30
0.0
 10
9.8054038386
 20
7.1379020382
 30
0.0
 10
9.8362894568
 20
7.1325664894
 30
0.0
 10
9.857030463
 20
7.1304133502
 30
0.0
 10
9.8673982854
 20
7.1296943392
 30
0.0
  0
SPLINE
  5
397
100
AcDbEntity
  8
0
100
AcDbSpline
 62
7
  6
CONTINUOUS
 70
0
 71
3
 72
39
 73
35
 74
0
 42
0.0000001
 43
0.0000001
 44
0.0000000001
 40
0.0
 40
0.0
 40
0.0
 40
0.0
 40
0.0303997532
 40
0.0609107974
 40
0.0915342381
 40
0.1222699129
 40
0.1531164062
 40
0.1840710801
 40
0.215130116
 40
0.2462885677
 40
0.2775404248
 40
0.3088786862
 40
0.340295441
 40
0.3717819583
 40
0.4033287841
 40
0.4349258436
 40
0.4665625474
 40
0.4982279014
 40
0.5299106197
 40
0.5615992392
 40
0.5932822366
 40
0.6249481457
 40
0.6565856747
 40
0.6881838213
 40
0.7197319847
 40
0.751220077
 40
0.7826386278
 40
0.8139788865
 40
0.8452329285
 40
0.8763936954
 40
0.9074552751
 40
0.9384123281
 40
0.9692618694
 40
1.0
 40
1.0
 40
1.0
 40
1.0
 10
9.63661482
 20
7.8808353797
 30
0.0
 10
9.6356108222
 20
7.8729576751
 30
0.0
 10
9.6340253584
 20
7.8571158176
 30
0.0
 10
9.6329207046
 20
7.8332187704
 30
0.0
 10
9.6330878915
 20
7.8092084394
 30
0.0
 10
9.6345265
 20
7.7851531904
 30
0.0
 10
9.6372323773
 20
7.7611203504
 30
0.0
 10
9.6411978533
 20
7.7371774821
 30
0.0
 10
9.6464117181
 20
7.7133918017
 30
0.0
 10
9.6528592673
 20
7.689830098
 30
0.0
 10
9.6605223408
 20
7.6665585182
 30
0.0
 10
9.669379374
 20
7.6436423919
 30
0.0
 10
9.6794054613
 20
7.6211460487
 30
0.0
 10
9.6905724138
 20
7.599132634
 30
0.0
 10
9.7028488405
 20
7.5776639318
 30
0.0
 10
9.7162002473
 20
7.5568001967
 30
0.0
 10
9.730589131
 20
7.5365999859
 30
0.0
 10
9.7459750845
 20
7.5171199964
 30
0.0
 10
9.762314909
 20
7.4984149071
 30
0.0
 10
9.7795627356
 20
7.4805372283
 30
0.0
 10
9.797670147
 20
7.463537149
 30
0.0
 10
9.8165863095
 20
7.4474623909
 30
0.0
 10
9.8362581267
 20
7.4323580858
 30
0.0
 10
9.8566303848
 20
7.4182666482
 30
0.0
 10
9.8776459066
 20
7.4052276572
 30
0.0
 10
9.8992457108
 20
7.3932777466
 30
0.0
 10
9.9213691752
 20
7.3824505037
 30
0.0
 10
9.9439542065
 20
7.3727763667
 30
0.0
 10
9.9669373976
 20
7.3642825478
 30
0.0
 10
9.9902542631
 20
7.356992905
 30
0.0
 10
10.013839227
 20
7.3509280525
 30
0.0
 10
10.0376264379
 20
7.3461049031
 30
0.0
 10
10.0615480649
 20
7.34253736
 30
0.0
 10
10.0775719794
 20
7.3409997135
 30
0.0
 10
10.0855825603
 20
7.3404441778
 30
0.0
  0
SPLINE
  5
398
100
AcDbEntity
  8
0
100
AcDbSpline
 62
7
  6
CONTINUOUS
 70
0
 71
3
 72
37
 73
33
 74
0
 42
0.0000001
 43
0.0000001
 44
0.0000000001
 40
0.0
 40
0.0
 40
0.0
 40
0.0
 40
0.0304220462
 40
0.0609548562
 40
0.0915992071
 40
0.122354642
 40
0.153219489
 40
0.1841908921
 40
0.2152648531
 40
0.2464362846
 40
0.2776990731
 40
0.3090461533
 40
0.34046959
 40
0.3719606658
 40
0.4035099736
 40
0.435107516
 40
0.4983858614
 40
0.5617271226
 40
0.5934026513
 40
0.6250600461
 40
0.6566882215
 40
0.6882763854
 40
0.7198141487
 40
0.7512916321
 40
0.7826995652
 40
0.8140293892
 40
0.8452733481
 40
0.8764245422
 40
0.9074772076
 40
0.9384260436
 40
0.9692683633
 40
1.0
 40
1.0
 40
1.0
 40
1.0
 10
9.672439208
 20
7.8769814114
 30
0.0
 10
9.6716085393
 20
7.8696487277
 30
0.0
 10
9.6703369384
 20
7.8549091775
 30
0.0
 10
9.669602807
 20
7.8326919363
 30
0.0
 10
9.6700400608
 20
7.8103854426
 30
0.0
 10
9.671647522
 20
7.7880521808
 30
0.0
 10
9.674420647
 20
7.7657536472
 30
0.0
 10
9.6783517176
 20
7.7435515159
 30
0.0
 10
9.6834298145
 20
7.7215071103
 30
0.0
 10
9.6896408641
 20
7.6996813359
 30
0.0
 10
9.6969676573
 20
7.6781344779
 30
0.0
 10
9.7053898887
 20
7.6569260549
 30
0.0
 10
9.7148842784
 20
7.6361146015
 30
0.0
 10
9.7254244569
 20
7.6157577273
 30
0.0
 10
9.7369816943
 20
7.5959111379
 30
0.0
 10
9.7537092833
 20
7.5701950677
 30
0.0
 10
9.7769941875
 20
7.5396033854
 30
0.0
 10
9.8031782579
 20
7.5114278202
 30
0.0
 10
9.8257013396
 20
7.4905103192
 30
0.0
 10
9.8433363812
 20
7.4756757355
 30
0.0
 10
9.8616620912
 20
7.4617391267
 30
0.0
 10
9.8806282938
 20
7.4487384963
 30
0.0
 10
9.9001824943
 20
7.4367098989
 30
0.0
 10
9.9202707264
 20
7.4256865466
 30
0.0
 10
9.9408375096
 20
7.4156989291
 30
0.0
 10
9.9618260541
 20
7.4067746741
 30
0.0
 10
9.9831783882
 20
7.398938495
 30
0.0
 10
10.0048355662
 20
7.392212038
 30
0.0
 10
10.0267376466
 20
7.3866140268
 30
0.0
 10
10.0488244948
 20
7.3821597844
 30
0.0
 10
10.0710341044
 20
7.3788619964
 30
0.0
 10
10.0859103049
 20
7.3774376938
 30
0.0
 10
10.0933471253
 20
7.3769219486
 30
0.0
  0
SPLINE
  5
399
100
AcDbEntity
  8
0
100
AcDbSpline
 62
7
  6
CONTINUOUS
 70
0
 71
3
 72
24
 73
20
 74
0
 42
0.0000001
 43
0.0000001
 44
0.0000000001
 40
0.0
 40
0.0
 40
0.0
 40
0.0
 40
0.0615910481
 40
0.1235177572
 40
0.1857515996
 40
0.2482554355
 40
0.3109846417
 40
0.3738884245
 40
0.4369112586
 40
0.499994407
 40
0.5630775141
 40
0.6261002283
 40
0.6890038174
 40
0.7517327558
 40
0.8142362598
 40
0.8764697218
 40
0.938396066
 40
0.9692414621
 40
1.0
 40
1.0
 40
1.0
 40
1.0
 10
9.7528647679
 20
7.8594290985
 30
0.0
 10
9.7542433727
 20
7.8472113572
 30
0.0
 10
9.7580530285
 20
7.8228147829
 30
0.0
 10
9.7668345208
 20
7.7867463562
 30
0.0
 10
9.7786348301
 20
7.7513554281
 30
0.0
 10
9.7933656752
 20
7.7169076422
 30
0.0
 10
9.8109175233
 20
7.6836570852
 30
0.0
 10
9.8311599889
 20
7.6518501454
 30
0.0
 10
9.8539430037
 20
7.6217222661
 30
0.0
 10
9.8790976063
 20
7.5934964417
 30
0.0
 10
9.9064375145
 20
7.5673817102
 30
0.0
 10
9.9357602862
 20
7.5435715463
 30
0.0
 10
9.9668488215
 20
7.5222423334
 30
0.0
 10
9.9994729264
 20
7.5035523865
 30
0.0
 10
10.03339156
 20
7.4876403426
 30
0.0
 10
10.0683517839
 20
7.4746248041
 30
0.0
 10
10.0981842401
 20
7.4662606822
 30
0.0
 10
10.1223062801
 20
7.4611105164
 30
0.0
 10
10.1344351476
 20
7.4590514884
 30
0.0
 10
10.1405092564
 20
7.4581526486
 30
0.0
  0
SPLINE
  5
39A
100
AcDbEntity
  8
0
100
AcDbSpline
 62
7
  6
CONTINUOUS
 70
0
 71
3
 72
23
 73
19
 74
0
 42
0.0000001
 43
0.0000001
 44
0.0000000001
 40
0.0
 40
0.0
 40
0.0
 40
0.0
 40
0.0616482071
 40
0.1233194423
 40
0.1850364754
 40
0.2468215648
 40
0.3086962113
 40
0.3706809251
 40
0.4327950039
 40
0.4950563299
 40
0.5574811805
 40
0.6200840695
 40
0.682877611
 40
0.7458723236
 40
0.8090769236
 40
0.8724969197
 40
0.9361382346
 40
1.0
 40
1.0
 40
1.0
 40
1.0
 10
11.4605838715
 20
6.8703525464
 30
0.0
 10
11.4545239567
 20
6.8644991225
 30
0.0
 10
11.4420843713
 20
6.8531137225
 30
0.0
 10
11.4225303257
 20
6.8370598757
 30
0.0
 10
11.402127161
 20
6.8220671674
 30
0.0
 10
11.3809269829
 20
6.8081740339
 30
0.0
 10
11.3589830447
 20
6.7954152649
 30
0.0
 10
11.3363507029
 20
6.7838230123
 30
0.0
 10
11.3130869791
 20
6.7734264207
 30
0.0
 10
11.2892504949
 20
6.7642516334
 30
0.0
 10
11.2649013026
 20
6.7563217058
 30
0.0
 10
11.2401007351
 20
6.749656556
 30
0.0
 10
11.2149112686
 20
6.744272913
 30
0.0
 10
11.1893963007
 20
6.7401842211
 30
0.0
 10
11.1636202062
 20
6.737400776
 30
0.0
 10
11.1376474748
 20
6.7359293736
 30
0.0
 10
11.1115445343
 20
6.7357738104
 30
0.0
 10
11.0941275884
 20
6.7365462042
 30
0.0
 10
11.085420713
 20
6.7371500281
 30
0.0
  0
SPLINE
  5
39B
100
AcDbEntity
  8
0
100
AcDbSpline
 62
7
  6
CONTINUOUS
 70
0
 71
3
 72
15
 73
11
 74
0
 42
0.0000001
 43
0.0000001
 44
0.0000000001
 40
0.0
 40
0.0
 40
0.0
 40
0.0
 40
0.1233300035
 40
0.2470319918
 40
0.3711707243
 40
0.4958019575
 40
0.6209713123
 40
0.7467140007
 40
0.8730522424
 40
1.0
 40
1.0
 40
1.0
 40
1.0
 10
11.5381277642
 20
6.9682629531
 30
0.0
 10
11.5278709301
 20
6.9626218016
 30
0.0
 10
11.5069015328
 20
6.9520761429
 30
0.0
 10
11.4743265232
 20
6.9385825351
 30
0.0
 10
11.4407380136
 20
6.9274532794
 30
0.0
 10
11.406299804
 20
6.9187428016
 30
0.0
 10
11.3711770812
 20
6.9124922739
 30
0.0
 10
11.3355383537
 20
6.9087315912
 30
0.0
 10
11.299556956
 20
6.907478154
 30
0.0
 10
11.2755083526
 20
6.9083162868
 30
0.0
 10
11.263488069
 20
6.9091498963
 30
0.0
  0
SPLINE
  5
39C
100
AcDbEntity
  8
0
100
AcDbSpline
 62
7
  6
CONTINUOUS
 70
0
 71
3
 72
19
 73
15
 74
0
 42
0.0000001
 43
0.0000001
 44
0.0000000001
 40
0.0
 40
0.0
 40
0.0
 40
0.0
 40
0.0616005123
 40
0.123275487
 40
0.1850372408
 40
0.2468975041
 40
0.3088673655
 40
0.3709571717
 40
0.4331764723
 40
0.4955339892
 40
0.620668356
 40
0.7464372759
 40
0.8728743725
 40
1.0
 40
1.0
 40
1.0
 40
1.0
 10
11.5606331788
 20
7.0108106147
 30
0.0
 10
11.5553565596
 20
7.0073589637
 30
0.0
 10
11.5446512508
 20
7.000671332
 30
0.0
 10
11.5281793859
 20
6.9913119829
 30
0.0
 10
11.5113088834
 20
6.9826329185
 30
0.0
 10
11.4940660394
 20
6.9746475671
 30
0.0
 10
11.4764771373
 20
6.9673681437
 30
0.0
 10
11.4585692677
 20
6.9608058593
 30
0.0
 10
11.4403695206
 20
6.9549705968
 30
0.0
 10
11.4157264241
 20
6.9481645542
 30
0.0
 10
11.3843187136
 20
6.9415206117
 30
0.0
 10
11.3459705599
 20
6.9365855581
 30
0.0
 10
11.3071495726
 20
6.9347057655
 30
0.0
 10
11.2811761887
 20
6.935495542
 30
0.0
 10
11.2681950864
 20
6.9363957845
 30
0.0
  0
SPLINE
  5
39D
100
AcDbEntity
  8
0
100
AcDbSpline
 62
7
  6
CONTINUOUS
 70
0
 71
3
 72
15
 73
11
 74
0
 42
0.0000001
 43
0.0000001
 44
0.0000000001
 40
0.0
 40
0.0
 40
0.0
 40
0.0
 40
0.1233237137
 40
0.2470184172
 40
0.3711505349
 40
0.4957773122
 40
0.6209456154
 40
0.7466916675
 40
0.8730383423
 40
1.0
 40
1.0
 40
1.0
 40
1.0
 10
11.568652643
 20
7.0285524417
 30
0.0
 10
11.558785064
 20
7.0230574251
 30
0.0
 10
11.5386025998
 20
7.0127825861
 30
0.0
 10
11.5072274315
 20
6.9996296808
 30
0.0
 10
11.474857123
 20
6.9887758125
 30
0.0
 10
11.4416523788
 20
6.9802750106
 30
0.0
 10
11.4077753365
 20
6.9741681817
 30
0.0
 10
11.3733914529
 20
6.9704850599
 30
0.0
 10
11.3386709696
 20
6.9692429945
 30
0.0
 10
11.3154635599
 20
6.9700446791
 30
0.0
 10
11.3038638068
 20
6.9708491247
 30
0.0
  0
SPLINE
  5
39E
100
AcDbEntity
  8
0
100
AcDbSpline
 62
7
  6
CONTINUOUS
 70
0
 71
3
 72
21
 73
17
 74
0
 42
0.0000001
 43
0.0000001
 44
0.0000000001
 40
0.0
 40
0.0
 40
0.0
 40
0.0
 40
0.0615939524
 40
0.1232558874
 40
0.1849998474
 40
0.2468392788
 40
0.3087869141
 40
0.3708546805
 40
0.4330536378
 40
0.4953938864
 40
0.5578845106
 40
0.6205334818
 40
0.6833476514
 40
0.7463329639
 40
0.8728046027
 40
1.0
 40
1.0
 40
1.0
 40
1.0
 10
11.5932131474
 20
7.1046328917
 30
0.0
 10
11.5883010005
 20
7.1011729045
 30
0.0
 10
11.5783175931
 20
7.0944644095
 30
0.0
 10
11.5629067837
 20
7.08506341
 30
0.0
 10
11.5470780025
 20
7.0763342193
 30
0.0
 10
11.5308584417
 20
7.0682919024
 30
0.0
 10
11.5142754669
 20
7.0609500711
 30
0.0
 10
11.4973572518
 20
7.0543210948
 30
0.0
 10
11.4801324569
 20
7.0484161895
 30
0.0
 10
11.4626302607
 20
7.0432454165
 30
0.0
 10
11.4448803267
 20
7.0388174402
 30
0.0
 10
11.4269128215
 20
7.0351397443
 30
0.0
 10
11.4087578235
 20
7.0322185997
 30
0.0
 10
11.3843124526
 20
7.0293352898
 30
0.0
 10
11.3534320715
 20
7.0276512413
 30
0.0
 10
11.3286650763
 20
7.0283551431
 30
0.0
 10
11.3162871107
 20
7.0292135579
 30
0.0
  0
SPLINE
  5
39F
100
AcDbEntity
  8
0
100
AcDbSpline
 62
7
  6
CONTINUOUS
 70
0
 71
3
 72
39
 73
35
 74
0
 42
0.0000001
 43
0.0000001
 44
0.0000000001
 40
0.0
 40
0.0
 40
0.0
 40
0.0
 40
0.0299393047
 40
0.0599022801
 40
0.0899120371
 40
0.1199905837
 40
0.1501583157
 40
0.1804335568
 40
0.2108321569
 40
0.2413671588
 40
0.2720485416
 40
0.3028830442
 40
0.3338740651
 40
0.3650216374
 40
0.3963224781
 40
0.4277701073
 40
0.4593550264
 40
0.4910649494
 40
0.522885082
 40
0.5547984439
 40
0.586786223
 40
0.6188281554
 40
0.6509029262
 40
0.6829885862
 40
0.7150629769
 40
0.7471041563
 40
0.7790908245
 40
0.8110027389
 40
0.842821116
 40
0.8745290096
 40
0.9061116585
 40
0.9375568878
 40
0.9688549526
 40
1.0
 40
1.0
 40
1.0
 40
1.0
 10
10.7102575544
 20
7.647147464
 30
0.0
 10
10.7014299206
 20
7.6386206306
 30
0.0
 10
10.6844288381
 20
7.6208601107
 30
0.0
 10
10.6610799371
 20
7.5922941156
 30
0.0
 10
10.639997384
 20
7.5619447063
 30
0.0
 10
10.62129596
 20
7.5299765456
 30
0.0
 10
10.6050749148
 20
7.496560307
 30
0.0
 10
10.5914208729
 20
7.4618750624
 30
0.0
 10
10.5804064777
 20
7.4261064073
 30
0.0
 10
10.5720901917
 20
7.3894457146
 30
0.0
 10
10.5665159882
 20
7.3520890071
 30
0.0
 10
10.5637131853
 20
7.3142359167
 30
0.0
 10
10.5636963163
 20
7.2760886202
 30
0.0
 10
10.5664650239
 20
7.2378507701
 30
0.0
 10
10.5720040742
 20
7.1997264048
 30
0.0
 10
10.5802835179
 20
7.1619188749
 30
0.0
 10
10.5912588532
 20
7.1246297779
 30
0.0
 10
10.6048712579
 20
7.0880579002
 30
0.0
 10
10.6210478511
 20
7.0523981453
 30
0.0
 10
10.6397021657
 20
7.0178405333
 30
0.0
 10
10.6607345962
 20
6.9845692025
 30
0.0
 10
10.6840329333
 20
6.9527614514
 30
0.0
 10
10.7094728913
 20
6.9225867558
 30
0.0
 10
10.7369188245
 20
6.894205909
 30
0.0
 10
10.7662244479
 20
6.8677701831
 30
0.0
 10
10.7972336115
 20
6.8434205431
 30
0.0
 10
10.8297810792
 20
6.8212868529
 30
0.0
 10
10.8636934242
 20
6.801487195
 30
0.0
 10
10.898789943
 20
6.7841272848
 30
0.0
 10
10.9348836816
 20
6.7692999115
 30
0.0
 10
10.9717821104
 20
6.7570844033
 30
0.0
 10
11.0092891764
 20
6.7475462173
 30
0.0
 10
11.0472023302
 20
6.7407366026
 30
0.0
 10
11.072683719
 20
6.7380333416
 30
0.0
 10
11.085420713
 20
6.7371500281
 30
0.0
  0
SPLINE
  5
3A0
100
AcDbEntity
  8
0
100
AcDbSpline
 62
7
  6
CONTINUOUS
 70
0
 71
3
 72
45
 73
41
 74
0
 42
0.0000001
 43
0.0000001
 44
0.0000000001
 40
0.0
 40
0.0
 40
0.0
 40
0.0
 40
0.0149735785
 40
0.0299663366
 40
0.0449801909
 40
0.0600169617
 40
0.0901615913
 40
0.1204169945
 40
0.1355917011
 40
0.150797785
 40
0.1660361962
 40
0.1813077369
 40
0.2119484963
 40
0.2427277944
 40
0.273646719
 40
0.3047039792
 40
0.3358959587
 40
0.367216806
 40
0.398658558
 40
0.4302112931
 40
0.4618633118
 40
0.4936013392
 40
0.5254107476
 40
0.5572757945
 40
0.5891798734
 40
0.621105774
 40
0.6530359498
 40
0.6849527881
 40
0.7168388816
 40
0.7486772978
 40
0.780451843
 40
0.8121473185
 40
0.8437497632
 40
0.8595140617
 40
0.8752505569
 40
0.9066311404
 40
0.9378865327
 40
0.9534668161
 40
0.9690135885
 40
1.0
 40
1.0
 40
1.0
 40
1.0
 10
10.8107360878
 20
7.7211505865
 30
0.0
 10
10.8079146253
 20
7.7164141825
 30
0.0
 10
10.802432196
 20
7.7068364319
 30
0.0
 10
10.7947057405
 20
7.6921845839
 30
0.0
 10
10.787479337
 20
7.6772534919
 30
0.0
 10
10.7785147142
 20
7.6569802839
 30
0.0
 10
10.7685965801
 20
7.6310117818
 30
0.0
 10
10.7604556025
 20
7.6043798621
 30
0.0
 10
10.7550179089
 20
7.5827230477
 30
0.0
 10
10.751477554
 20
7.5663006218
 30
0.0
 10
10.7484834934
 20
7.5497336561
 30
0.0
 10
10.7452206268
 20
7.5274529028
 30
0.0
 10
10.742526178
 20
7.4993221822
 30
0.0
 10
10.7415195794
 20
7.4653152045
 30
0.0
 10
10.7427394614
 20
7.4311613108
 30
0.0
 10
10.7461805421
 20
7.3970071335
 30
0.0
 10
10.7518278679
 20
7.3629980069
 30
0.0
 10
10.7596571598
 20
7.3292789465
 30
0.0
 10
10.7696348488
 20
7.2959936086
 30
0.0
 10
10.7817182376
 20
7.2632837985
 30
0.0
 10
10.7958556819
 20
7.2312888413
 30
0.0
 10
10.8119868167
 20
7.2001450046
 30
0.0
 10
10.8300428128
 20
7.1699849212
 30
0.0
 10
10.84994667
 20
7.1409370316
 30
0.0
 10
10.8716135431
 20
7.1131250414
 30
0.0
 10
10.8949511012
 20
7.0866673998
 30
0.0
 10
10.9198599199
 20
7.0616767995
 30
0.0
 10
10.9462338948
 20
7.0382597023
 30
0.0
 10
10.9739607156
 20
7.0165158811
 30
0.0
 10
11.0029222413
 20
6.9965380265
 30
0.0
 10
11.032995356
 20
6.9784112294
 30
0.0
 10
11.0640511761
 20
6.9622130998
 30
0.0
 10
11.0906646453
 20
6.9503686027
 30
0.0
 10
11.1123133664
 20
6.9419248515
 30
0.0
 10
11.1341389023
 20
6.9341903748
 30
0.0
 10
11.1617804165
 20
6.9258371249
 30
0.0
 10
11.189839657
 20
6.9192638526
 30
0.0
 10
11.2124316571
 20
6.9151023216
 30
0.0
 10
11.2350466869
 20
6.9116822275
 30
0.0
 10
11.2521065825
 20
6.9099392051
 30
0.0
 10
11.263488069
 20
6.9091498963
 30
0.0
  0
SPLINE
  5
3A1
100
AcDbEntity
  8
0
100
AcDbSpline
 62
7
  6
CONTINUOUS
 70
0
 71
3
 72
42
 73
38
 74
0
 42
0.0000001
 43
0.0000001
 44
0.0000000001
 40
0.0
 40
0.0
 40
0.0
 40
0.0
 40
0.0299318279
 40
0.0599336148
 40
0.0749684732
 40
0.0900270166
 40
0.1051110802
 40
0.1202223807
 40
0.150528196
 40
0.180960108
 40
0.2115266215
 40
0.242233691
 40
0.2576432982
 40
0.2730890677
 40
0.3040845798
 40
0.3352226994
 40
0.3664989184
 40
0.397906286
 40
0.4294355605
 40
0.461075396
 40
0.4928125582
 40
0.5246321665
 40
0.5565179575
 40
0.5884525649
 40
0.6204178136
 40
0.6523950224
 40
0.6843653129
 40
0.7163099206
 40
0.7482105047
 40
0.7800494531
 40
0.8118101798
 40
0.843477407
 40
0.8750374419
 40
0.9064783856
 40
0.9377905098
 40
0.9689659496
 40
1.0
 40
1.0
 40
1.0
 40
1.0
 10
10.8540756289
 20
7.7422369107
 30
0.0
 10
10.8478040848
 20
7.7333369007
 30
0.0
 10
10.8358853794
 20
7.7150565361
 30
0.0
 10
10.8226580353
 20
7.691181828
 30
0.0
 10
10.8131008001
 20
7.6715177402
 30
0.0
 10
10.8064465824
 20
7.6564880111
 30
0.0
 10
10.8003194889
 20
7.6412058277
 30
0.0
 10
10.7928558634
 20
7.6204987357
 30
0.0
 10
10.7848789141
 20
7.5940610924
 30
0.0
 10
10.7775244086
 20
7.5616466621
 30
0.0
 10
10.7724100343
 20
7.5286567397
 30
0.0
 10
10.7700370293
 20
7.5008406796
 30
0.0
 10
10.7692729004
 20
7.4784566635
 30
0.0
 10
10.7692669202
 20
7.4559546375
 30
0.0
 10
10.7706885165
 20
7.4277478181
 30
0.0
 10
10.7746629177
 20
7.3939785689
 30
0.0
 10
10.7808893884
 20
7.3603983788
 30
0.0
 10
10.7893393035
 20
7.3271613413
 30
0.0
 10
10.7999739125
 20
7.2944187017
 30
0.0
 10
10.8127445425
 20
7.2623197601
 30
0.0
 10
10.8275928173
 20
7.2310107724
 30
0.0
 10
10.8444509162
 20
7.2006344018
 30
0.0
 10
10.8632418916
 20
7.171329047
 30
0.0
 10
10.8838800201
 20
7.1432282277
 30
0.0
 10
10.9062711906
 20
7.1164599802
 30
0.0
 10
10.9303133305
 20
7.0911462803
 30
0.0
 10
10.9558968667
 20
7.0674024929
 30
0.0
 10
10.9829052205
 20
7.0453368505
 30
0.0
 10
11.0112153352
 20
7.0250499653
 30
0.0
 10
11.0406982261
 20
7.006634368
 30
0.0
 10
11.0712195674
 20
6.9901740876
 30
0.0
 10
11.1026402858
 20
6.9757442717
 30
0.0
 10
11.1348172459
 20
6.9634108621
 30
0.0
 10
11.1676036828
 20
6.9532302423
 30
0.0
 10
11.2008506433
 20
6.9452490876
 30
0.0
 10
11.2344046079
 20
6.9395040416
 30
0.0
 10
11.2569334811
 20
6.9371767795
 30
0.0
 10
11.2681950864
 20
6.9363957845
 30
0.0
  0
SPLINE
  5
3A2
100
AcDbEntity
  8
0
100
AcDbSpline
 62
7
  6
CONTINUOUS
 70
0
 71
3
 72
44
 73
40
 74
0
 42
0.0000001
 43
0.0000001
 44
0.0000000001
 40
0.0
 40
0.0
 40
0.0
 40
0.0
 40
0.0149724263
 40
0.0299637806
 40
0.044976004
 40
0.0600109418
 40
0.0901513665
 40
0.1204020455
 40
0.1355742672
 40
0.1507778123
 40
0.181278328
 40
0.2119139443
 40
0.2426883047
 40
0.2736026434
 40
0.3046557967
 40
0.3358442542
 40
0.3671622488
 40
0.3986018792
 40
0.4301532637
 40
0.4618047206
 40
0.4935429726
 40
0.5253533695
 40
0.5572201289
 40
0.5891265884
 40
0.6210554689
 40
0.6529891436
 40
0.6849099115
 40
0.7168002718
 40
0.7327305786
 40
0.7486469527
 40
0.7804261481
 40
0.8121263224
 40
0.8437334247
 40
0.8752348901
 40
0.9066198122
 40
0.9378792844
 40
0.9534614928
 40
0.9690101517
 40
1.0
 40
1.0
 40
1.0
 40
1.0
 10
10.872062626
 20
7.7495946462
 30
0.0
 10
10.8693338366
 20
7.745068795
 30
0.0
 10
10.8640299707
 20
7.735915531
 30
0.0
 10
10.8565508544
 20
7.721909035
 30
0.0
 10
10.84955106
 20
7.70763197
 30
0.0
 10
10.840861241
 20
7.6882421149
 30
0.0
 10
10.8312338651
 20
7.6633965379
 30
0.0
 10
10.8233120712
 20
7.6379055291
 30
0.0
 10
10.8180066503
 20
7.6171705042
 30
0.0
 10
10.8133853127
 20
7.5961821059
 30
0.0
 10
10.808923212
 20
7.5695860979
 30
0.0
 10
10.8056971731
 20
7.5372816823
 30
0.0
 10
10.8046065143
 20
7.504688353
 30
0.0
 10
10.8056558834
 20
7.471946728
 30
0.0
 10
10.8088404783
 20
7.4391968571
 30
0.0
 10
10.8141464396
 20
7.4065790933
 30
0.0
 10
10.8215508209
 20
7.374233101
 30
0.0
 10
10.8310217184
 20
7.342297371
 30
0.0
 10
10.8425184047
 20
7.3109086051
 30
0.0
 10
10.8559915073
 20
7.2802011454
 30
0.0
 10
10.8713832211
 20
7.2503064033
 30
0.0
 10
10.8886275575
 20
7.221352303
 30
0.0
 10
10.9076506206
 20
7.1934627431
 30
0.0
 10
10.9283709431
 20
7.1667570578
 30
0.0
 10
10.9506997566
 20
7.1413495633
 30
0.0
 10
10.9745416518
 20
7.1173488761
 30
0.0
 10
10.999793928
 20
7.0948581842
 30
0.0
 10
11.0219330406
 20
7.0774465987
 30
0.0
 10
11.0402402748
 20
7.0643654827
 30
0.0
 10
11.0589079948
 20
7.0518746198
 30
0.0
 10
11.0829099669
 20
7.0373708572
 30
0.0
 10
11.1126719297
 20
7.021811184
 30
0.0
 10
11.143254179
 20
7.0081700683
 30
0.0
 10
11.1745254061
 20
6.9965064668
 30
0.0
 10
11.2063511417
 20
6.9868704679
 30
0.0
 10
11.2332524488
 20
6.9805575513
 30
0.0
 10
11.2549124323
 20
6.9765616942
 30
0.0
 10
11.276594787
 20
6.9732783649
 30
0.0
 10
11.2929514657
 20
6.9716058981
 30
0.0
 10
11.3038638068
 20
6.9708491247
 30
0.0
  0
SPLINE
  5
3A3
100
AcDbEntity
  8
0
100
AcDbSpline
 62
7
  6
CONTINUOUS
 70
0
 71
3
 72
43
 73
39
 74
0
 42
0.0000001
 43
0.0000001
 44
0.0000000001
 40
0.0
 40
0.0
 40
0.0
 40
0.0
 40
0.0149579341
 40
0.0299291408
 40
0.0449160112
 40
0.0599208587
 40
0.0899883142
 40
0.1201529331
 40
0.1352787115
 40
0.150434025
 40
0.1656203315
 40
0.1808389298
 40
0.2113727036
 40
0.2420472704
 40
0.2728670561
 40
0.3038337161
 40
0.3349461427
 40
0.3662005248
 40
0.3975904539
 40
0.4291070737
 40
0.4607392681
 40
0.4924738817
 40
0.524295971
 40
0.5561890781
 40
0.5881355248
 40
0.6201167214
 40
0.6521134867
 40
0.684106375
 40
0.7160760062
 40
0.7480033952
 40
0.7798702772
 40
0.8116594239
 40
0.8433549453
 40
0.8749425853
 40
0.9064099452
 40
0.937746883
 40
0.968945206
 40
1.0
 40
1.0
 40
1.0
 40
1.0
 10
10.9489940114
 20
7.7715791206
 30
0.0
 10
10.9459712776
 20
7.7675890097
 30
0.0
 10
10.9400688537
 20
7.7594936285
 30
0.0
 10
10.9316616849
 20
7.7470292946
 30
0.0
 10
10.9237065663
 20
7.7342527542
 30
0.0
 10
10.9137096992
 20
7.7168116602
 30
0.0
 10
10.9023876795
 20
7.694295868
 30
0.0
 10
10.8927058457
 20
7.6709842098
 30
0.0
 10
10.8859608857
 20
7.651909405
 30
0.0
 10
10.8814028774
 20
7.6373886232
 30
0.0
 10
10.8773564018
 20
7.6226848653
 30
0.0
 10
10.8726444398
 20
7.6028394748
 30
0.0
 10
10.8680584035
 20
7.5776537213
 30
0.0
 10
10.8646701465
 20
7.547018339
 30
0.0
 10
10.8634053571
 20
7.5160766828
 30
0.0
 10
10.8642699404
 20
7.4849752315
 30
0.0
 10
10.8672594853
 20
7.4538598959
 30
0.0
 10
10.8723596987
 20
7.4228769395
 30
0.0
 10
10.8795463729
 20
7.3921718672
 30
0.0
 10
10.8887855348
 20
7.3618888652
 30
0.0
 10
10.900033604
 20
7.3321701025
 30
0.0
 10
10.9132375943
 20
7.3031550759
 30
0.0
 10
10.9283353679
 20
7.2749799614
 30
0.0
 10
10.9452559311
 20
7.2477769839
 30
0.0
 10
10.9639197661
 20
7.2216738038
 30
0.0
 10
10.9842392024
 20
7.196792924
 30
0.0
 10
11.0061188255
 20
7.1732511212
 30
0.0
 10
11.029455921
 20
7.1511589031
 30
0.0
 10
11.0541409525
 20
7.130619994
 30
0.0
 10
11.0800580717
 20
7.1117308533
 30
0.0
 10
11.1070856501
 20
7.0945802173
 30
0.0
 10
11.1350968542
 20
7.0792486924
 30
0.0
 10
11.1639602188
 20
7.0658083731
 30
0.0
 10
11.1935403135
 20
7.0543225245
 30
0.0
 10
11.223698169
 20
7.0448452331
 30
0.0
 10
11.2542926638
 20
7.0374212569
 30
0.0
 10
11.2851782821
 20
7.0320857081
 30
0.0
 10
11.3059192882
 20
7.0299325689
 30
0.0
 10
11.3162871107
 20
7.0292135579
 30
0.0
  0
SPLINE
  5
3A4
100
AcDbEntity
  8
0
100
AcDbSpline
 62
7
  6
CONTINUOUS
 70
0
 71
3
 72
39
 73
35
 74
0
 42
0.0000001
 43
0.0000001
 44
0.0000000001
 40
0.0
 40
0.0
 40
0.0
 40
0.0
 40
0.0303997532
 40
0.0609107974
 40
0.0915342381
 40
0.1222699129
 40
0.1531164062
 40
0.1840710801
 40
0.215130116
 40
0.2462885677
 40
0.2775404248
 40
0.3088786862
 40
0.340295441
 40
0.3717819583
 40
0.4033287841
 40
0.4349258436
 40
0.4665625474
 40
0.4982279014
 40
0.5299106197
 40
0.5615992392
 40
0.5932822366
 40
0.6249481457
 40
0.6565856747
 40
0.6881838213
 40
0.7197319847
 40
0.751220077
 40
0.7826386278
 40
0.8139788865
 40
0.8452329285
 40
0.8763936954
 40
0.9074552751
 40
0.9384123281
 40
0.9692618694
 40
1.0
 40
1.0
 40
1.0
 40
1.0
 10
11.0855036452
 20
7.7803545984
 30
0.0
 10
11.0844996475
 20
7.7724768938
 30
0.0
 10
11.0829141837
 20
7.7566350363
 30
0.0
 10
11.0818095299
 20
7.7327379891
 30
0.0
 10
11.0819767168
 20
7.7087276581
 30
0.0
 10
11.0834153253
 20
7.6846724091
 30
0.0
 10
11.0861212026
 20
7.660639569
 30
0.0
 10
11.0900866786
 20
7.6366967008
 30
0.0
 10
11.0953005434
 20
7.6129110204
 30
0.0
 10
11.1017480926
 20
7.5893493167
 30
0.0
 10
11.1094111661
 20
7.5660777369
 30
0.0
 10
11.1182681993
 20
7.5431616106
 30
0.0
 10
11.1282942866
 20
7.5206652674
 30
0.0
 10
11.1394612391
 20
7.4986518527
 30
0.0
 10
11.1517376658
 20
7.4771831505
 30
0.0
 10
11.1650890726
 20
7.4563194154
 30
0.0
 10
11.1794779562
 20
7.4361192046
 30
0.0
 10
11.1948639098
 20
7.4166392151
 30
0.0
 10
11.2112037343
 20
7.3979341258
 30
0.0
 10
11.2284515609
 20
7.380056447
 30
0.0
 10
11.2465589723
 20
7.3630563677
 30
0.0
 10
11.2654751348
 20
7.3469816096
 30
0.0
 10
11.285146952
 20
7.3318773045
 30
0.0
 10
11.30551921
 20
7.3177858669
 30
0.0
 10
11.3265347319
 20
7.3047468759
 30
0.0
 10
11.3481345361
 20
7.2927969653
 30
0.0
 10
11.3702580004
 20
7.2819697224
 30
0.0
 10
11.3928430318
 20
7.2722955853
 30
0.0
 10
11.4158262229
 20
7.2638017665
 30
0.0
 10
11.4391430884
 20
7.2565121237
 30
0.0
 10
11.4627280523
 20
7.2504472712
 30
0.0
 10
11.4865152632
 20
7.2456241218
 30
0.0
 10
11.5104368902
 20
7.2420565787
 30
0.0
 10
11.5264608047
 20
7.2405189322
 30
0.0
 10
11.5344713856
 20
7.2399633965
 30
0.0
  0
SPLINE
  5
3A5
100
AcDbEntity
  8
0
100
AcDbSpline
 62
7
  6
CONTINUOUS
 70
0
 71
3
 72
37
 73
33
 74
0
 42
0.0000001
 43
0.0000001
 44
0.0000000001
 40
0.0
 40
0.0
 40
0.0
 40
0.0
 40
0.0304220462
 40
0.0609548562
 40
0.0915992071
 40
0.122354642
 40
0.153219489
 40
0.1841908921
 40
0.2152648531
 40
0.2464362846
 40
0.2776990731
 40
0.3090461533
 40
0.34046959
 40
0.3719606658
 40
0.4035099736
 40
0.435107516
 40
0.4983858614
 40
0.5617271226
 40
0.5934026513
 40
0.6250600461
 40
0.6566882215
 40
0.6882763854
 40
0.7198141487
 40
0.7512916321
 40
0.7826995652
 40
0.8140293892
 40
0.8452733481
 40
0.8764245422
 40
0.9074772076
 40
0.9384260436
 40
0.9692683633
 40
1.0
 40
1.0
 40
1.0
 40
1.0
 10
11.1213280333
 20
7.7765006301
 30
0.0
 10
11.1204973646
 20
7.7691679464
 30
0.0
 10
11.1192257637
 20
7.7544283962
 30
0.0
 10
11.1184916323
 20
7.732211155
 30
0.0
 10
11.1189288861
 20
7.7099046612
 30
0.0
 10
11.1205363472
 20
7.6875713994
 30
0.0
 10
11.1233094723
 20
7.6652728659
 30
0.0
 10
11.1272405429
 20
7.6430707346
 30
0.0
 10
11.1323186398
 20
7.621026329
 30
0.0
 10
11.1385296894
 20
7.5992005546
 30
0.0
 10
11.1458564826
 20
7.5776536966
 30
0.0
 10
11.154278714
 20
7.5564452736
 30
0.0
 10
11.1637731037
 20
7.5356338202
 30
0.0
 10
11.1743132821
 20
7.515276946
 30
0.0
 10
11.1858705195
 20
7.4954303566
 30
0.0
 10
11.2025981086
 20
7.4697142864
 30
0.0
 10
11.2258830128
 20
7.4391226041
 30
0.0
 10
11.2520670832
 20
7.4109470389
 30
0.0
 10
11.2745901649
 20
7.3900295379
 30
0.0
 10
11.2922252065
 20
7.3751949542
 30
0.0
 10
11.3105509165
 20
7.3612583454
 30
0.0
 10
11.3295171191
 20
7.348257715
 30
0.0
 10
11.3490713196
 20
7.3362291176
 30
0.0
 10
11.3691595517
 20
7.3252057653
 30
0.0
 10
11.3897263349
 20
7.3152181478
 30
0.0
 10
11.4107148794
 20
7.3062938928
 30
0.0
 10
11.4320672135
 20
7.2984577137
 30
0.0
 10
11.4537243915
 20
7.2917312567
 30
0.0
 10
11.4756264719
 20
7.2861332455
 30
0.0
 10
11.49771332
 20
7.2816790031
 30
0.0
 10
11.5199229296
 20
7.2783812151
 30
0.0
 10
11.5347991301
 20
7.2769569125
 30
0.0
 10
11.5422359506
 20
7.2764411673
 30
0.0
  0
SPLINE
  5
3A6
100
AcDbEntity
  8
0
100
AcDbSpline
 62
7
  6
CONTINUOUS
 70
0
 71
3
 72
24
 73
20
 74
0
 42
0.0000001
 43
0.0000001
 44
0.0000000001
 40
0.0
 40
0.0
 40
0.0
 40
0.0
 40
0.0615910481
 40
0.1235177572
 40
0.1857515996
 40
0.2482554355
 40
0.3109846417
 40
0.3738884245
 40
0.4369112586
 40
0.499994407
 40
0.5630775141
 40
0.6261002283
 40
0.6890038174
 40
0.7517327558
 40
0.8142362598
 40
0.8764697218
 40
0.938396066
 40
0.9692414621
 40
1.0
 40
1.0
 40
1.0
 40
1.0
 10
11.2017535932
 20
7.7589483171
 30
0.0
 10
11.203132198
 20
7.7467305759
 30
0.0
 10
11.2069418537
 20
7.7223340016
 30
0.0
 10
11.2157233461
 20
7.6862655749
 30
0.0
 10
11.2275236553
 20
7.6508746468
 30
0.0
 10
11.2422545005
 20
7.6164268609
 30
0.0
 10
11.2598063486
 20
7.5831763039
 30
0.0
 10
11.2800488142
 20
7.5513693641
 30
0.0
 10
11.302831829
 20
7.5212414848
 30
0.0
 10
11.3279864316
 20
7.4930156604
 30
0.0
 10
11.3553263398
 20
7.4669009289
 30
0.0
 10
11.3846491115
 20
7.4430907649
 30
0.0
 10
11.4157376468
 20
7.421761552
 30
0.0
 10
11.4483617516
 20
7.4030716052
 30
0.0
 10
11.4822803853
 20
7.3871595613
 30
0.0
 10
11.5172406092
 20
7.3741440228
 30
0.0
 10
11.5470730654
 20
7.3657799009
 30
0.0
 10
11.5711951054
 20
7.3606297351
 30
0.0
 10
11.5833239729
 20
7.3585707071
 30
0.0
 10
11.5893980817
 20
7.3576718673
 30
0.0
  0
SPLINE
  5
3A7
100
AcDbEntity
  8
0
100
AcDbSpline
 62
7
  6
CONTINUOUS
 70
0
 71
3
 72
29
 73
25
 74
0
 42
0.0000001
 43
0.0000001
 44
0.0000000001
 40
0.0
 40
0.0
 40
0.0
 40
0.0
 40
0.0802308145
 40
0.1595886729
 40
0.2377916509
 40
0.314560902
 40
0.3895946644
 40
0.462576803
 40
0.5331740031
 40
0.6010355201
 40
0.6657937571
 40
0.72706479
 40
0.7562699609
 40
0.7844528926
 40
0.8115632709
 40
0.8375490801
 40
0.8623609542
 40
0.8859493986
 40
0.908270401
 40
0.9292838555
 40
0.9489617396
 40
0.9672907793
 40
0.9842850519
 40
1.0
 40
1.0
 40
1.0
 40
1.0
 10
11.2580623555
 20
9.1494521344
 30
0.0
 10
11.2579527486
 20
9.1459865842
 30
0.0
 10
11.2577541142
 20
9.139092571
 30
0.0
 10
11.2575002259
 20
9.1288192058
 30
0.0
 10
11.2572729936
 20
9.1186948621
 30
0.0
 10
11.2570510893
 20
9.1087573195
 30
0.0
 10
11.2568107792
 20
9.0990458772
 30
0.0
 10
11.2565260379
 20
9.0896024313
 30
0.0
 10
11.2561688525
 20
9.0804715396
 30
0.0
 10
11.2557095216
 20
9.0717008927
 30
0.0
 10
11.2551168144
 20
9.0633420561
 30
0.0
 10
11.2544753657
 20
9.0566630257
 30
0.0
 10
11.2538548597
 20
9.051572425
 30
0.0
 10
11.253342331
 20
9.0479565835
 30
0.0
 10
11.252771134
 20
9.044490404
 30
0.0
 10
11.2521370279
 20
9.0411833026
 30
0.0
 10
11.2514359547
 20
9.0380453953
 30
0.0
 10
11.2506638459
 20
9.0350874379
 30
0.0
 10
11.2498168516
 20
9.0323210466
 30
0.0
 10
11.2488911455
 20
9.0297586405
 30
0.0
 10
11.2478832075
 20
9.0274136844
 30
0.0
 10
11.2467893545
 20
9.0253005016
 30
0.0
 10
11.2456065171
 20
9.0234351458
 30
0.0
 10
11.2447227393
 20
9.0223265821
 30
0.0
 10
11.2442636455
 20
9.0218261146
 30
0.0
  0
SPLINE
  5
3A8
100
AcDbEntity
  8
0
100
AcDbSpline
 62
7
  6
CONTINUOUS
 70
0
 71
3
 72
50
 73
46
 74
0
 42
0.0000001
 43
0.0000001
 44
0.0000000001
 40
0.0
 40
0.0
 40
0.0
 40
0.0
 40
0.007410397
 40
0.0139692643
 40
0.0169193982
 40
0.0196483519
 40
0.0221605883
 40
0.0244671152
 40
0.0265884709
 40
0.0285569373
 40
0.030418794
 40
0.03223484
 40
0.0340751109
 40
0.0360104107
 40
0.0381043457
 40
0.0404068831
 40
0.0429551505
 40
0.0457756245
 40
0.0488837407
 40
0.0522878113
 40
0.0559917221
 40
0.0599940661
 40
0.0688704958
 40
0.0788558735
 40
0.0898637087
 40
0.1017997253
 40
0.1145679683
 40
0.1280777429
 40
0.1422450167
 40
0.1722576198
 40
0.2041003358
 40
0.2373875067
 40
0.2718270126
 40
0.3071920859
 40
0.3433145304
 40
0.3800567845
 40
0.4173147205
 40
0.4549995919
 40
0.5313805072
 40
0.6087483406
 40
0.6867592932
 40
0.7651304801
 40
0.843612225
 40
0.9219813043
 40
1.0
 40
1.0
 40
1.0
 40
1.0
 10
11.2606461382
 20
9.2707110044
 30
0.0
 10
11.2608598959
 20
9.2709443215
 30
0.0
 10
11.2612747481
 20
9.2713735034
 30
0.0
 10
11.2618157801
 20
9.2718540869
 30
0.0
 10
11.2622345535
 20
9.2721671902
 30
0.0
 10
11.2625282764
 20
9.2723576903
 30
0.0
 10
11.262812361
 20
9.2725108154
 30
0.0
 10
11.2630864961
 20
9.2726249607
 30
0.0
 10
11.2633503691
 20
9.2726985966
 30
0.0
 10
11.2636036857
 20
9.2727300265
 30
0.0
 10
11.2638458807
 20
9.2727171445
 30
0.0
 10
11.2640756791
 20
9.2726581291
 30
0.0
 10
11.2642915373
 20
9.272552374
 30
0.0
 10
11.2644922582
 20
9.2723999389
 30
0.0
 10
11.26467732
 20
9.272201316
 30
0.0
 10
11.2648471478
 20
9.2719572274
 30
0.0
 10
11.2650020572
 20
9.2716679212
 30
0.0
 10
11.265142133
 20
9.2713336831
 30
0.0
 10
11.2652677974
 20
9.2709551732
 30
0.0
 10
11.2653793086
 20
9.2705331899
 30
0.0
 10
11.2654768132
 20
9.2700687174
 30
0.0
 10
11.265592611
 20
9.2693699787
 30
0.0
 10
11.2656996755
 20
9.2683988547
 30
0.0
 10
11.2657759265
 20
9.2671253379
 30
0.0
 10
11.2658080473
 20
9.2657193387
 30
0.0
 10
11.2658003519
 20
9.2641942695
 30
0.0
 10
11.2657573969
 20
9.2625629591
 30
0.0
 10
11.2656834849
 20
9.2608374233
 30
0.0
 10
11.265546438
 20
9.2583777759
 30
0.0
 10
11.2653168499
 20
9.2551394985
 30
0.0
 10
11.2649815825
 20
9.2510906283
 30
0.0
 10
11.2646011274
 20
9.2468559411
 30
0.0
 10
11.2641911491
 20
9.2424729412
 30
0.0
 10
11.2637642221
 20
9.2379699346
 30
0.0
 10
11.2633293925
 20
9.233368906
 30
0.0
 10
11.2628944045
 20
9.2286867085
 30
0.0
 10
11.262464588
 20
9.2239370359
 30
0.0
 10
11.2619021162
 20
9.2174998663
 30
0.0
 10
11.2612339287
 20
9.2093527098
 30
0.0
 10
11.2605060234
 20
9.1994830049
 30
0.0
 10
11.2598575091
 20
9.1895225908
 30
0.0
 10
11.2592915204
 20
9.1795095119
 30
0.0
 10
11.2588064139
 20
9.1694768926
 30
0.0
 10
11.2583968127
 20
9.159455995
 30
0.0
 10
11.2581676695
 20
9.152781953
 30
0.0
 10
11.2580623555
 20
9.1494521344
 30
0.0
  0
SPLINE
  5
3A9
100
AcDbEntity
  8
0
100
AcDbSpline
 62
7
  6
CONTINUOUS
 70
0
 71
3
 72
71
 73
67
 74
0
 42
0.0000001
 43
0.0000001
 44
0.0000000001
 40
0.0
 40
0.0
 40
0.0
 40
0.0
 40
0.0156747439
 40
0.0314022082
 40
0.0471806388
 40
0.0630088954
 40
0.0788847426
 40
0.0948057519
 40
0.1107690087
 40
0.1267712324
 40
0.1428087906
 40
0.1588777352
 40
0.1749738406
 40
0.1910926413
 40
0.2072294725
 40
0.2233795109
 40
0.239537818
 40
0.255699384
 40
0.2718591706
 40
0.2880121553
 40
0.3041533743
 40
0.3202779661
 40
0.3363812146
 40
0.3524585914
 40
0.3685057961
 40
0.3845187957
 40
0.4004938614
 40
0.4164276041
 40
0.4323170079
 40
0.4481594607
 40
0.4639527819
 40
0.4796952457
 40
0.4953856017
 40
0.5110230908
 40
0.5266074579
 40
0.5421389597
 40
0.5576183678
 40
0.5730469656
 40
0.5884265412
 40
0.6037593735
 40
0.6190482143
 40
0.6342962647
 40
0.6495071464
 40
0.6646848669
 40
0.6798337803
 40
0.6949585438
 40
0.7100640694
 40
0.7251554736
 40
0.7402380233
 40
0.7553170806
 40
0.7703980447
 40
0.7854862946
 40
0.8005871313
 40
0.8157057213
 40
0.830847042
 40
0.8460158305
 40
0.8612165344
 40
0.8764532676
 40
0.8917297685
 40
0.907049366
 40
0.9224149485
 40
0.9378289216
 40
0.953293278
 40
0.9688092644
 40
0.9843782511
 40
1.0
 40
1.0
 40
1.0
 40
1.0
 10
11.0773973339
 20
7.8025436776
 30
0.0
 10
11.0864362179
 20
7.8019168289
 30
0.0
 10
11.1045166994
 20
7.8002176007
 30
0.0
 10
11.1315235109
 20
7.7963503417
 30
0.0
 10
11.1584002911
 20
7.7911693059
 30
0.0
 10
11.1850812911
 20
7.7846873295
 30
0.0
 10
11.2115026594
 20
7.7769198837
 30
0.0
 10
11.2376006659
 20
7.7678858064
 30
0.0
 10
11.2633125201
 20
7.7576068464
 30
0.0
 10
11.2885763245
 20
7.7461078037
 30
0.0
 10
11.3133312773
 20
7.7334164031
 30
0.0
 10
11.3375178001
 20
7.7195632302
 30
0.0
 10
11.361077683
 20
7.704581659
 30
0.0
 10
11.3839542231
 20
7.688507771
 30
0.0
 10
11.4060923581
 20
7.6713802688
 30
0.0
 10
11.4274388012
 20
7.6532403886
 30
0.0
 10
11.4479421814
 20
7.6341318124
 30
0.0
 10
11.4675531514
 20
7.6141005446
 30
0.0
 10
11.4862245078
 20
7.5931948042
 30
0.0
 10
11.5039113023
 20
7.5714649093
 30
0.0
 10
11.5205709499
 20
7.548963158
 30
0.0
 10
11.5361633278
 20
7.5257437023
 30
0.0
 10
11.5506508918
 20
7.501862431
 30
0.0
 10
11.5639987544
 20
7.4773768248
 30
0.0
 10
11.5761747624
 20
7.4523458158
 30
0.0
 10
11.5871495751
 20
7.4268296483
 30
0.0
 10
11.5968967349
 20
7.4008897358
 30
0.0
 10
11.6053927276
 20
7.3745885131
 30
0.0
 10
11.6126170524
 20
7.3479892924
 30
0.0
 10
11.618552278
 20
7.3211561102
 30
0.0
 10
11.6231840659
 20
7.2941535687
 30
0.0
 10
11.6265012084
 20
7.2670466831
 30
0.0
 10
11.6284956557
 20
7.2399007268
 30
0.0
 10
11.6291625359
 20
7.2127810764
 30
0.0
 10
11.6285001683
 20
7.1857530551
 30
0.0
 10
11.6265100928
 20
7.1588817748
 30
0.0
 10
11.6231970433
 20
7.1322319776
 30
0.0
 10
11.618568938
 20
7.1058678822
 30
0.0
 10
11.6126368616
 20
7.0798530298
 30
0.0
 10
11.6054150416
 20
7.0542501315
 30
0.0
 10
11.5969208119
 20
7.0291209189
 30
0.0
 10
11.5871745929
 20
7.0045259876
 30
0.0
 10
11.576199837
 20
6.9805246491
 30
0.0
 10
11.5640229598
 20
6.957174792
 30
0.0
 10
11.5506732814
 20
6.9345327407
 30
0.0
 10
11.5361829559
 20
6.9126531189
 30
0.0
 10
11.5205868943
 20
6.8915887173
 30
0.0
 10
11.5039226855
 20
6.8713903614
 30
0.0
 10
11.4862305188
 20
6.8521067738
 30
0.0
 10
11.4675530642
 20
6.8337844698
 30
0.0
 10
11.447935373
 20
6.8164676426
 30
0.0
 10
11.4274247665
 20
6.8001980564
 30
0.0
 10
11.4060707221
 20
6.7850149446
 30
0.0
 10
11.3839247513
 20
6.7709549177
 30
0.0
 10
11.361040287
 20
6.7580518526
 30
0.0
 10
11.3374725401
 20
6.7463368247
 30
0.0
 10
11.3132783627
 20
6.7358380387
 30
0.0
 10
11.2885161094
 20
6.7265807618
 30
0.0
 10
11.2632454974
 20
6.7185872627
 30
0.0
 10
11.2375274579
 20
6.7118767608
 30
0.0
 10
11.2114240074
 20
6.7064653822
 30
0.0
 10
11.1849980349
 20
6.7023660618
 30
0.0
 10
11.1583133662
 20
6.6995886832
 30
0.0
 10
11.1314339063
 20
6.698139733
 30
0.0
 10
11.1044254716
 20
6.6980227982
 30
0.0
 10
11.0864056582
 20
6.6988316242
 30
0.0
 10
11.0773973339
 20
6.6994563537
 30
0.0
  0
SPLINE
  5
3AA
100
AcDbEntity
  8
0
100
AcDbSpline
 62
7
  6
CONTINUOUS
 70
0
 71
3
 72
25
 73
21
 74
0
 42
0.0000001
 43
0.0000001
 44
0.0000000001
 40
0.0
 40
0.0
 40
0.0
 40
0.0
 40
0.0618715085
 40
0.1239819326
 40
0.1863056791
 40
0.2488133587
 40
0.3114722549
 40
0.3742469596
 40
0.4371000107
 40
0.4999925636
 40
0.5628850783
 40
0.6257380154
 40
0.6885125321
 40
0.7198628123
 40
0.7511796021
 40
0.8136869547
 40
0.8760103162
 40
0.9070979862
 40
0.9381289465
 40
1.0
 40
1.0
 40
1.0
 40
1.0
 10
11.5532290591
 20
7.4564912289
 30
0.0
 10
11.5456308017
 20
7.4586353091
 30
0.0
 10
11.5305456035
 20
7.4634489009
 30
0.0
 10
11.5084169383
 20
7.4721828385
 30
0.0
 10
11.486843707
 20
7.4824038419
 30
0.0
 10
11.4659321725
 20
7.4940616965
 30
0.0
 10
11.4457836167
 20
7.5070997181
 30
0.0
 10
11.4264960842
 20
7.5214544007
 30
0.0
 10
11.4081633011
 20
7.5370559102
 30
0.0
 10
11.3908744255
 20
7.5538283117
 30
0.0
 10
11.3747134248
 20
7.5716901868
 30
0.0
 10
11.3597592419
 20
7.5905541347
 30
0.0
 10
11.3483573712
 20
7.6070420726
 30
0.0
 10
11.3399094901
 20
7.6206408408
 30
0.0
 10
11.3319291229
 20
7.634479837
 30
0.0
 10
11.3228312583
 20
7.6522235542
 30
0.0
 10
11.3149372717
 20
7.6705029498
 30
0.0
 10
11.3093765801
 20
7.6853795032
 30
0.0
 10
11.304334101
 20
7.7003780392
 30
0.0
 10
11.301122178
 20
7.7118014151
 30
0.0
 10
11.2992437535
 20
7.7194696092
 30
0.0
  0
SPLINE
  5
3AB
100
AcDbEntity
  8
0
100
AcDbSpline
 62
7
  6
CONTINUOUS
 70
0
 71
3
 72
61
 73
57
 74
0
 42
0.0000001
 43
0.0000001
 44
0.0000000001
 40
0.0
 40
0.0
 40
0.0
 40
0.0
 40
0.0081437451
 40
0.0169768238
 40
0.0265208827
 40
0.0367895907
 40
0.0477882519
 40
0.0595157749
 40
0.0719659111
 40
0.0851281662
 40
0.0989883865
 40
0.1135291266
 40
0.1287303122
 40
0.1445692972
 40
0.1610212357
 40
0.1780593736
 40
0.1956550177
 40
0.2137779419
 40
0.2514761317
 40
0.2908853948
 40
0.3317179717
 40
0.3736716991
 40
0.4164333432
 40
0.459681813
 40
0.5030913239
 40
0.5463345566
 40
0.5890857858
 40
0.63102401
 40
0.6718361344
 40
0.7112202156
 40
0.7302867538
 40
0.7488898237
 40
0.7669963397
 40
0.7845746224
 40
0.8015943886
 40
0.8180271298
 40
0.8338460684
 40
0.8490264182
 40
0.8635457074
 40
0.8773837958
 40
0.8905234617
 40
0.9029506297
 40
0.9146548405
 40
0.9256301247
 40
0.9358755584
 40
0.94539665
 40
0.9542068245
 40
0.9623293601
 40
0.9698004202
 40
0.9766722849
 40
0.9830175572
 40
0.9889330701
 40
0.9917694488
 40
0.9945466069
 40
0.9972834973
 40
1.0
 40
1.0
 40
1.0
 40
1.0
 10
12.414214104
 20
6.2133268212
 30
0.0
 10
12.4150652794
 20
6.2141489935
 30
0.0
 10
12.4167632282
 20
6.2159430265
 30
0.0
 10
12.4192031014
 20
6.2189296433
 30
0.0
 10
12.4216324717
 20
6.2223128178
 30
0.0
 10
12.4240466259
 20
6.2260857613
 30
0.0
 10
12.4264411806
 20
6.2302414157
 30
0.0
 10
12.4288113693
 20
6.2347717611
 30
0.0
 10
12.4311525571
 20
6.23966792
 30
0.0
 10
12.4334600649
 20
6.244920257
 30
0.0
 10
12.4357292309
 20
6.2505183806
 30
0.0
 10
12.4379555285
 20
6.2564511452
 30
0.0
 10
12.4401344257
 20
6.2627067273
 30
0.0
 10
12.4422615378
 20
6.2692726196
 30
0.0
 10
12.4443325807
 20
6.2761356765
 30
0.0
 10
12.4463433266
 20
6.283282147
 30
0.0
 10
12.4482897793
 20
6.2906977002
 30
0.0
 10
12.4508273395
 20
6.3010605389
 30
0.0
 10
12.4537999178
 20
6.3145782839
 30
0.0
 10
12.4570074197
 20
6.3314160307
 30
0.0
 10
12.4598743812
 20
6.3489419149
 30
0.0
 10
12.4623775513
 20
6.3670152003
 30
0.0
 10
12.4644966172
 20
6.3854908629
 30
0.0
 10
12.466214429
 20
6.4042205327
 30
0.0
 10
12.467517131
 20
6.4230537777
 30
0.0
 10
12.4683942648
 20
6.4418393196
 30
0.0
 10
12.4688388442
 20
6.4604262583
 30
0.0
 10
12.4688474366
 20
6.478665355
 30
0.0
 10
12.4684201286
 20
6.4964100641
 30
0.0
 10
12.467696447
 20
6.5108183017
 30
0.0
 10
12.4668947817
 20
6.5219870126
 30
0.0
 10
12.4661942597
 20
6.5300621488
 30
0.0
 10
12.4653894641
 20
6.5379102035
 30
0.0
 10
12.4644820367
 20
6.5455154269
 30
0.0
 10
12.4634737916
 20
6.5528625477
 30
0.0
 10
12.4623668147
 20
6.5599368259
 30
0.0
 10
12.4611633464
 20
6.5667240791
 30
0.0
 10
12.4598658197
 20
6.573210714
 30
0.0
 10
12.4584769127
 20
6.5793837621
 30
0.0
 10
12.4569994033
 20
6.5852309012
 30
0.0
 10
12.4554363144
 20
6.5907404997
 30
0.0
 10
12.4537908109
 20
6.5959016416
 30
0.0
 10
12.4520661549
 20
6.6007041482
 30
0.0
 10
12.4502658251
 20
6.6051386465
 30
0.0
 10
12.4483932853
 20
6.6091965566
 30
0.0
 10
12.4464520748
 20
6.6128701527
 30
0.0
 10
12.4444457056
 20
6.6161525849
 30
0.0
 10
12.4423773781
 20
6.6190377775
 30
0.0
 10
12.4402501405
 20
6.6215204086
 30
0.0
 10
12.4380662141
 20
6.6235955474
 30
0.0
 10
12.4358281557
 20
6.625257867
 30
0.0
 10
12.4338917634
 20
6.6263088269
 30
0.0
 10
12.4323312941
 20
6.6269231555
 30
0.0
 10
12.4311673524
 20
6.6272716532
 30
0.0
 10
12.4299945855
 20
6.627513787
 30
0.0
 10
12.4292060361
 20
6.6276042634
 30
0.0
 10
12.4288122321
 20
6.6276315788
 30
0.0
  0
SPLINE
  5
3AC
100
AcDbEntity
  8
0
100
AcDbSpline
 62
7
  6
CONTINUOUS
 70
0
 71
3
 72
43
 73
39
 74
0
 42
0.0000001
 43
0.0000001
 44
0.0000000001
 40
0.0
 40
0.0
 40
0.0
 40
0.0
 40
0.0149644519
 40
0.029945728
 40
0.0449459508
 40
0.0599671551
 40
0.0900754905
 40
0.1202894876
 40
0.1354422366
 40
0.1506257404
 40
0.1658411623
 40
0.1810895096
 40
0.2116838487
 40
0.2424182149
 40
0.2732950533
 40
0.3043142597
 40
0.3354732171
 40
0.3667668749
 40
0.3981878673
 40
0.4297266664
 40
0.4613717669
 40
0.4931098977
 40
0.5249262566
 40
0.5568047641
 40
0.588728332
 40
0.6206791447
 40
0.6526389479
 40
0.6845893426
 40
0.7165120809
 40
0.7483893602
 40
0.7802041119
 40
0.811940283
 40
0.843583102
 40
0.8751193426
 40
0.9065375159
 40
0.9378282353
 40
0.968983917
 40
1.0
 40
1.0
 40
1.0
 40
1.0
 10
10.8333712007
 20
7.7328361422
 30
0.0
 10
10.8303421853
 20
7.728260932
 30
0.0
 10
10.8244430209
 20
7.7189967331
 30
0.0
 10
10.8160879647
 20
7.7047874972
 30
0.0
 10
10.8082307253
 20
7.6902729369
 30
0.0
 10
10.7984234817
 20
7.670522169
 30
0.0
 10
10.7874508232
 20
7.6451420441
 30
0.0
 10
10.7782626592
 20
7.6190121074
 30
0.0
 10
10.7719951671
 20
7.597709245
 30
0.0
 10
10.7678364157
 20
7.5815292665
 30
0.0
 10
10.7642294075
 20
7.5651815392
 30
0.0
 10
10.7601567345
 20
7.5431631902
 30
0.0
 10
10.7564673679
 20
7.5153042282
 30
0.0
 10
10.7543025065
 20
7.481539574
 30
0.0
 10
10.7544035457
 20
7.44754949
 30
0.0
 10
10.756769972
 20
7.4134862367
 30
0.0
 10
10.7613909373
 20
7.3795010417
 30
0.0
 10
10.7682456608
 20
7.3457450919
 30
0.0
 10
10.7773034359
 20
7.3123684212
 30
0.0
 10
10.7885237954
 20
7.279519371
 30
0.0
 10
10.8018566827
 20
7.2473439034
 30
0.0
 10
10.8172426862
 20
7.2159849707
 30
0.0
 10
10.8346133028
 20
7.1855818846
 30
0.0
 10
10.8538912421
 20
7.1562697046
 30
0.0
 10
10.8749907687
 20
7.1281786446
 30
0.0
 10
10.8978180812
 20
7.1014334997
 30
0.0
 10
10.9222717256
 20
7.0761530973
 30
0.0
 10
10.9482430428
 20
7.0524497736
 30
0.0
 10
10.9756166478
 20
7.0304288795
 30
0.0
 10
11.0042709344
 20
7.0101883113
 30
0.0
 10
11.0340786114
 20
6.9918180784
 30
0.0
 10
11.0649072694
 20
6.9753999113
 30
0.0
 10
11.0966199461
 20
6.9610068921
 30
0.0
 10
11.1290757863
 20
6.9487031515
 30
0.0
 10
11.162130453
 20
6.9385435301
 30
0.0
 10
11.1956375296
 20
6.9305734387
 30
0.0
 10
11.2294461611
 20
6.9248285569
 30
0.0
 10
11.252142625
 20
6.922493742
 30
0.0
 10
11.263488069
 20
6.9217069328
 30
0.0
  0
SPLINE
  5
3AD
100
AcDbEntity
  8
0
100
AcDbSpline
 62
7
  6
CONTINUOUS
 70
0
 71
3
 72
71
 73
67
 74
0
 42
0.0000001
 43
0.0000001
 44
0.0000000001
 40
0.0
 40
0.0
 40
0.0
 40
0.0
 40
0.0156747439
 40
0.0314022082
 40
0.0471806388
 40
0.0630088954
 40
0.0788847426
 40
0.0948057519
 40
0.1107690087
 40
0.1267712324
 40
0.1428087906
 40
0.1588777352
 40
0.1749738406
 40
0.1910926413
 40
0.2072294725
 40
0.2233795109
 40
0.239537818
 40
0.255699384
 40
0.2718591706
 40
0.2880121553
 40
0.3041533743
 40
0.3202779661
 40
0.3363812146
 40
0.3524585914
 40
0.3685057961
 40
0.3845187957
 40
0.4004938614
 40
0.4164276041
 40
0.4323170079
 40
0.4481594607
 40
0.4639527819
 40
0.4796952457
 40
0.4953856017
 40
0.5110230908
 40
0.5266074579
 40
0.5421389597
 40
0.5576183678
 40
0.5730469656
 40
0.5884265412
 40
0.6037593735
 40
0.6190482143
 40
0.6342962647
 40
0.6495071464
 40
0.6646848669
 40
0.6798337803
 40
0.6949585438
 40
0.7100640694
 40
0.7251554736
 40
0.7402380233
 40
0.7553170806
 40
0.7703980447
 40
0.7854862946
 40
0.8005871313
 40
0.8157057213
 40
0.830847042
 40
0.8460158305
 40
0.8612165344
 40
0.8764532676
 40
0.8917297685
 40
0.907049366
 40
0.9224149485
 40
0.9378289216
 40
0.953293278
 40
0.9688092644
 40
0.9843782511
 40
1.0
 40
1.0
 40
1.0
 40
1.0
 10
11.0773973339
 20
6.6994563537
 30
0.0
 10
11.0683584499
 20
6.7000832024
 30
0.0
 10
11.0502779683
 20
6.7017824306
 30
0.0
 10
11.0232711568
 20
6.7056496896
 30
0.0
 10
10.9963943766
 20
6.7108307254
 30
0.0
 10
10.9697133766
 20
6.7173127018
 30
0.0
 10
10.9432920084
 20
6.7250801476
 30
0.0
 10
10.9171940019
 20
6.7341142249
 30
0.0
 10
10.8914821476
 20
6.7443931849
 30
0.0
 10
10.8662183433
 20
6.7558922276
 30
0.0
 10
10.8414633904
 20
6.7685836282
 30
0.0
 10
10.8172768677
 20
6.7824368011
 30
0.0
 10
10.7937169847
 20
6.7974183723
 30
0.0
 10
10.7708404446
 20
6.8134922603
 30
0.0
 10
10.7487023097
 20
6.8306197625
 30
0.0
 10
10.7273558665
 20
6.8487596427
 30
0.0
 10
10.7068524864
 20
6.8678682189
 30
0.0
 10
10.6872415164
 20
6.8878994867
 30
0.0
 10
10.66857016
 20
6.9088052271
 30
0.0
 10
10.6508833655
 20
6.930535122
 30
0.0
 10
10.6342237178
 20
6.9530368733
 30
0.0
 10
10.61863134
 20
6.976256329
 30
0.0
 10
10.6041437759
 20
7.0001376003
 30
0.0
 10
10.5907959134
 20
7.0246232065
 30
0.0
 10
10.5786199054
 20
7.0496542155
 30
0.0
 10
10.5676450927
 20
7.075170383
 30
0.0
 10
10.5578979329
 20
7.1011102955
 30
0.0
 10
10.5494019401
 20
7.1274115182
 30
0.0
 10
10.5421776154
 20
7.1540107389
 30
0.0
 10
10.5362423897
 20
7.1808439211
 30
0.0
 10
10.5316106019
 20
7.2078464626
 30
0.0
 10
10.5282934594
 20
7.2349533482
 30
0.0
 10
10.5262990121
 20
7.2620993045
 30
0.0
 10
10.5256321319
 20
7.2892189549
 30
0.0
 10
10.5262944994
 20
7.3162469762
 30
0.0
 10
10.528284575
 20
7.3431182566
 30
0.0
 10
10.5315976245
 20
7.3697680537
 30
0.0
 10
10.5362257298
 20
7.3961321491
 30
0.0
 10
10.5421578062
 20
7.4221470015
 30
0.0
 10
10.5493796262
 20
7.4477498998
 30
0.0
 10
10.5578738558
 20
7.4728791124
 30
0.0
 10
10.5676200748
 20
7.4974740437
 30
0.0
 10
10.5785948308
 20
7.5214753822
 30
0.0
 10
10.590771708
 20
7.5448252393
 30
0.0
 10
10.6041213864
 20
7.5674672906
 30
0.0
 10
10.6186117119
 20
7.5893469124
 30
0.0
 10
10.6342077735
 20
7.610411314
 30
0.0
 10
10.6508719822
 20
7.6306096699
 30
0.0
 10
10.668564149
 20
7.6498932575
 30
0.0
 10
10.6872416035
 20
7.6682155615
 30
0.0
 10
10.7068592947
 20
7.6855323887
 30
0.0
 10
10.7273699013
 20
7.7018019749
 30
0.0
 10
10.7487239456
 20
7.7169850867
 30
0.0
 10
10.7708699164
 20
7.7310451136
 30
0.0
 10
10.7937543808
 20
7.7439481787
 30
0.0
 10
10.8173221276
 20
7.7556632066
 30
0.0
 10
10.8415163051
 20
7.7661619926
 30
0.0
 10
10.8662785584
 20
7.7754192695
 30
0.0
 10
10.8915491704
 20
7.7834127686
 30
0.0
 10
10.9172672099
 20
7.7901232705
 30
0.0
 10
10.9433706604
 20
7.7955346491
 30
0.0
 10
10.9697966329
 20
7.7996339695
 30
0.0
 10
10.9964813016
 20
7.8024113481
 30
0.0
 10
11.0233607615
 20
7.8038602983
 30
0.0
 10
11.0503691961
 20
7.8039772331
 30
0.0
 10
11.0683890096
 20
7.8031684071
 30
0.0
 10
11.0773973339
 20
7.8025436776
 30
0.0
  0
SPLINE
  5
3AE
100
AcDbEntity
  8
0
100
AcDbSpline
 62
7
  6
CONTINUOUS
 70
0
 71
3
 72
71
 73
67
 74
0
 42
0.0000001
 43
0.0000001
 44
0.0000000001
 40
0.0
 40
0.0
 40
0.0
 40
0.0
 40
0.0156746951
 40
0.0314022331
 40
0.0471806321
 40
0.0630088952
 40
0.0788847436
 40
0.0948057516
 40
0.1107690095
 40
0.1267712322
 40
0.14280879
 40
0.1588777348
 40
0.1749738409
 40
0.1910926421
 40
0.2072294728
 40
0.2233795103
 40
0.2395378174
 40
0.2556993841
 40
0.2718591714
 40
0.2880121558
 40
0.304153374
 40
0.3202779653
 40
0.3363812143
 40
0.3524585919
 40
0.3685057968
 40
0.3845187959
 40
0.4004938609
 40
0.4164276037
 40
0.432317008
 40
0.4481594611
 40
0.4639527821
 40
0.4796952457
 40
0.4953856016
 40
0.5110230909
 40
0.526607458
 40
0.5421389596
 40
0.5576183676
 40
0.5730469657
 40
0.5884265418
 40
0.603759374
 40
0.6190482142
 40
0.6342962641
 40
0.6495071459
 40
0.6646848671
 40
0.6798337811
 40
0.6949585445
 40
0.7100640694
 40
0.7251554729
 40
0.7402380227
 40
0.7553170806
 40
0.7703980454
 40
0.7854862954
 40
0.8005871315
 40
0.8157057208
 40
0.8308470413
 40
0.8460158304
 40
0.861216535
 40
0.8764532684
 40
0.8917297685
 40
0.9070493664
 40
0.922414947
 40
0.9378289216
 40
0.9532932848
 40
0.9688092399
 40
0.9843783001
 40
1.0
 40
1.0
 40
1.0
 40
1.0
 10
9.3953092405
 20
9.4529683526
 30
0.0
 10
9.4036199226
 20
9.4523920049
 30
0.0
 10
9.4202438455
 20
9.4508296556
 30
0.0
 10
9.4450749765
 20
9.4472739616
 30
0.0
 10
9.4697865758
 20
9.442510295
 30
0.0
 10
9.4943181342
 20
9.4365505243
 30
0.0
 10
9.5186109916
 20
9.4294088304
 30
0.0
 10
9.5426065288
 20
9.4211025296
 30
0.0
 10
9.5662470218
 20
9.4116516382
 30
0.0
 10
9.5894755648
 20
9.4010789653
 30
0.0
 10
9.6122362534
 20
9.3894099993
 30
0.0
 10
9.6344743068
 20
9.3766728541
 30
0.0
 10
9.6561361964
 20
9.3628982022
 30
0.0
 10
9.6771697823
 20
9.3481192164
 30
0.0
 10
9.6975244528
 20
9.3323715039
 30
0.0
 10
9.7171512229
 20
9.3156929868
 30
0.0
 10
9.7360028545
 20
9.298123818
 30
0.0
 10
9.7540339665
 20
9.2797062849
 30
0.0
 10
9.7712011425
 20
9.2604847103
 30
0.0
 10
9.7874630682
 20
9.2405053734
 30
0.0
 10
9.8027806005
 20
9.2198163678
 30
0.0
 10
9.8171168594
 20
9.1984674875
 30
0.0
 10
9.8304373169
 20
9.1765101107
 30
0.0
 10
9.8427098723
 20
9.1539970744
 30
0.0
 10
9.8539049651
 20
9.1309825676
 30
0.0
 10
9.8639956323
 20
9.1075219888
 30
0.0
 10
9.8729575538
 20
9.0836718055
 30
0.0
 10
9.8807691162
 20
9.0594894232
 30
0.0
 10
9.8874114577
 20
9.0350330485
 30
0.0
 10
9.8928685342
 20
9.0103615564
 30
0.0
 10
9.8971271773
 20
8.9855343493
 30
0.0
 10
9.900177087
 20
8.9606112051
 30
0.0
 10
9.9020108634
 20
8.9356521381
 30
0.0
 10
9.9026240233
 20
8.9107172573
 30
0.0
 10
9.9020150126
 20
8.8858666241
 30
0.0
 10
9.9001852556
 20
8.8611601051
 30
0.0
 10
9.8971391092
 20
8.8366572259
 30
0.0
 10
9.892883852
 20
8.812417031
 30
0.0
 10
9.8874296713
 20
8.7884979435
 30
0.0
 10
9.8807896326
 20
8.7649576279
 30
0.0
 10
9.872979691
 20
8.741852839
 30
0.0
 10
9.8640186345
 20
8.7192392845
 30
0.0
 10
9.8539280197
 20
8.6971714984
 30
0.0
 10
9.842732128
 20
8.6757027081
 30
0.0
 10
9.8304579029
 20
8.6548847093
 30
0.0
 10
9.8171349061
 20
8.6347677301
 30
0.0
 10
9.8027952601
 20
8.6154002933
 30
0.0
 10
9.7874735344
 20
8.5968291198
 30
0.0
 10
9.7712066693
 20
8.579099013
 30
0.0
 10
9.7540338863
 20
8.5622527509
 30
0.0
 10
9.7359965945
 20
8.5463309831
 30
0.0
 10
9.7171383188
 20
8.5313720958
 30
0.0
 10
9.6975045601
 20
8.5174121496
 30
0.0
 10
9.6771426851
 20
8.5044847943
 30
0.0
 10
9.6561018126
 20
8.4926211868
 30
0.0
 10
9.6344326926
 20
8.4818499242
 30
0.0
 10
9.6121876015
 20
8.4721969362
 30
0.0
 10
9.589420201
 20
8.4636854404
 30
0.0
 10
9.566185399
 20
8.4563359031
 30
0.0
 10
9.5425392187
 20
8.4501659927
 30
0.0
 10
9.518538675
 20
8.445190544
 30
0.0
 10
9.4942415847
 20
8.4414214708
 30
0.0
 10
9.4697066546
 20
8.4388678526
 30
0.0
 10
9.4449925892
 20
8.4375356165
 30
0.0
 10
9.4201599682
 20
8.437428119
 30
0.0
 10
9.4035918247
 20
8.4381717758
 30
0.0
 10
9.3953092405
 20
8.4387461749
 30
0.0
  0
SPLINE
  5
3AF
100
AcDbEntity
  8
0
100
AcDbSpline
 62
7
  6
CONTINUOUS
 70
0
 71
3
 72
71
 73
67
 74
0
 42
0.0000001
 43
0.0000001
 44
0.0000000001
 40
0.0
 40
0.0
 40
0.0
 40
0.0
 40
0.0156746951
 40
0.0314022331
 40
0.0471806321
 40
0.0630088952
 40
0.0788847436
 40
0.0948057516
 40
0.1107690095
 40
0.1267712322
 40
0.14280879
 40
0.1588777348
 40
0.1749738409
 40
0.1910926421
 40
0.2072294728
 40
0.2233795103
 40
0.2395378174
 40
0.2556993841
 40
0.2718591714
 40
0.2880121558
 40
0.304153374
 40
0.3202779653
 40
0.3363812143
 40
0.3524585919
 40
0.3685057968
 40
0.3845187959
 40
0.4004938609
 40
0.4164276037
 40
0.432317008
 40
0.4481594611
 40
0.4639527821
 40
0.4796952457
 40
0.4953856016
 40
0.5110230909
 40
0.526607458
 40
0.5421389596
 40
0.5576183676
 40
0.5730469657
 40
0.5884265418
 40
0.603759374
 40
0.6190482142
 40
0.6342962641
 40
0.6495071459
 40
0.6646848671
 40
0.6798337811
 40
0.6949585445
 40
0.7100640694
 40
0.7251554729
 40
0.7402380227
 40
0.7553170806
 40
0.7703980454
 40
0.7854862954
 40
0.8005871315
 40
0.8157057208
 40
0.8308470413
 40
0.8460158304
 40
0.861216535
 40
0.8764532684
 40
0.8917297685
 40
0.9070493664
 40
0.922414947
 40
0.9378289216
 40
0.9532932848
 40
0.9688092399
 40
0.9843783001
 40
1.0
 40
1.0
 40
1.0
 40
1.0
 10
11.3271610076
 20
9.3189939775
 30
0.0
 10
11.3354716897
 20
9.3184176298
 30
0.0
 10
11.3520956125
 20
9.3168552805
 30
0.0
 10
11.3769267436
 20
9.3132995865
 30
0.0
 10
11.4016383428
 20
9.3085359199
 30
0.0
 10
11.4261699013
 20
9.3025761492
 30
0.0
 10
11.4504627586
 20
9.2954344553
 30
0.0
 10
11.4744582959
 20
9.2871281546
 30
0.0
 10
11.4980987888
 20
9.2776772632
 30
0.0
 10
11.5213273318
 20
9.2671045902
 30
0.0
 10
11.5440880204
 20
9.2554356242
 30
0.0
 10
11.5663260739
 20
9.242698479
 30
0.0
 10
11.5879879634
 20
9.2289238271
 30
0.0
 10
11.6090215494
 20
9.2141448413
 30
0.0
 10
11.6293762199
 20
9.1983971288
 30
0.0
 10
11.64900299
 20
9.1817186117
 30
0.0
 10
11.6678546215
 20
9.1641494429
 30
0.0
 10
11.6858857335
 20
9.1457319098
 30
0.0
 10
11.7030529096
 20
9.1265103352
 30
0.0
 10
11.7193148353
 20
9.1065309983
 30
0.0
 10
11.7346323675
 20
9.0858419927
 30
0.0
 10
11.7489686264
 20
9.0644931125
 30
0.0
 10
11.7622890839
 20
9.0425357357
 30
0.0
 10
11.7745616394
 20
9.0200226993
 30
0.0
 10
11.7857567322
 20
8.9970081925
 30
0.0
 10
11.7958473993
 20
8.9735476137
 30
0.0
 10
11.8048093209
 20
8.9496974304
 30
0.0
 10
11.8126208833
 20
8.9255150481
 30
0.0
 10
11.8192632248
 20
8.9010586734
 30
0.0
 10
11.8247203012
 20
8.8763871813
 30
0.0
 10
11.8289789444
 20
8.8515599742
 30
0.0
 10
11.8320288541
 20
8.82663683
 30
0.0
 10
11.8338626304
 20
8.801677763
 30
0.0
 10
11.8344757903
 20
8.7767428823
 30
0.0
 10
11.8338667796
 20
8.7518922491
 30
0.0
 10
11.8320370227
 20
8.7271857301
 30
0.0
 10
11.8289908762
 20
8.7026828508
 30
0.0
 10
11.824735619
 20
8.6784426559
 30
0.0
 10
11.8192814383
 20
8.6545235685
 30
0.0
 10
11.8126413996
 20
8.6309832528
 30
0.0
 10
11.804831458
 20
8.6078784639
 30
0.0
 10
11.7958704016
 20
8.5852649094
 30
0.0
 10
11.7857797867
 20
8.5631971233
 30
0.0
 10
11.774583895
 20
8.541728333
 30
0.0
 10
11.76230967
 20
8.5209103342
 30
0.0
 10
11.7489866731
 20
8.5007933551
 30
0.0
 10
11.7346470272
 20
8.4814259182
 30
0.0
 10
11.7193253014
 20
8.4628547447
 30
0.0
 10
11.7030584364
 20
8.4451246379
 30
0.0
 10
11.6858856534
 20
8.4282783758
 30
0.0
 10
11.6678483615
 20
8.412356608
 30
0.0
 10
11.6489900859
 20
8.3973977208
 30
0.0
 10
11.6293563272
 20
8.3834377745
 30
0.0
 10
11.6089944521
 20
8.3705104192
 30
0.0
 10
11.5879535796
 20
8.3586468117
 30
0.0
 10
11.5662844596
 20
8.3478755491
 30
0.0
 10
11.5440393685
 20
8.3382225611
 30
0.0
 10
11.521271968
 20
8.3297110653
 30
0.0
 10
11.498037166
 20
8.322361528
 30
0.0
 10
11.4743909857
 20
8.3161916177
 30
0.0
 10
11.450390442
 20
8.3112161689
 30
0.0
 10
11.4260933518
 20
8.3074470957
 30
0.0
 10
11.4015584217
 20
8.3048934775
 30
0.0
 10
11.3768443563
 20
8.3035612414
 30
0.0
 10
11.3520117352
 20
8.3034537439
 30
0.0
 10
11.3354435918
 20
8.3041974007
 30
0.0
 10
11.3271610076
 20
8.3047717999
 30
0.0
  0
SPLINE
  5
3B0
100
AcDbEntity
  8
0
100
AcDbSpline
 62
7
  6
CONTINUOUS
 70
0
 71
3
 72
15
 73
11
 74
0
 42
0.0000001
 43
0.0000001
 44
0.0000000001
 40
0.0
 40
0.0
 40
0.0
 40
0.0
 40
0.1232822653
 40
0.2469238437
 40
0.3710051123
 40
0.4955958288
 40
0.6207535625
 40
0.7465228097
 40
0.8729323529
 40
1.0
 40
1.0
 40
1.0
 40
1.0
 10
10.1014103895
 20
7.0907881209
 30
0.0
 10
10.0909122164
 20
7.0843565717
 30
0.0
 10
10.069361336
 20
7.0723086523
 30
0.0
 10
10.0356569014
 20
7.0568335142
 30
0.0
 10
10.0007144563
 20
7.0440135322
 30
0.0
 10
9.9647325551
 20
7.0339218083
 30
0.0
 10
9.9279123685
 20
7.0266139726
 30
0.0
 10
9.8904597556
 20
7.022130663
 30
0.0
 10
9.8525869783
 20
7.0204960901
 30
0.0
 10
9.8272585064
 20
7.0213097913
 30
0.0
 10
9.8145992438
 20
7.0221877141
 30
0.0
  0
SPLINE
  5
3B1
100
AcDbEntity
  8
0
100
AcDbSpline
 62
7
  6
CONTINUOUS
 70
0
 71
3
 72
46
 73
42
 74
0
 42
0.0000001
 43
0.0000001
 44
0.0000000001
 40
0.0
 40
0.0
 40
0.0
 40
0.0
 40
0.031143804
 40
0.0624406641
 40
0.0938846266
 40
0.1254660369
 40
0.1571726773
 40
0.188989797
 40
0.2209004514
 40
0.2528858567
 40
0.2849257707
 40
0.3169988946
 40
0.3490832879
 40
0.3811567922
 40
0.4131974593
 40
0.4451839758
 40
0.4770960786
 40
0.5089149549
 40
0.5406236259
 40
0.5722072995
 40
0.6036536882
 40
0.6349532936
 40
0.6660996371
 40
0.6970894354
 40
0.727922722
 40
0.7586028953
 40
0.7891366922
 40
0.8043544294
 40
0.8195395762
 40
0.8346938584
 40
0.8498191748
 40
0.8649175902
 40
0.8799913269
 40
0.8950427481
 40
0.9100743467
 40
0.9250887336
 40
0.940088619
 40
0.9550767983
 40
0.9700561375
 40
0.9850295542
 40
1.0
 40
1.0
 40
1.0
 40
1.0
 10
11.3188788048
 20
8.1325644056
 30
0.0
 10
11.3024858351
 20
8.1337012619
 30
0.0
 10
11.2696903482
 20
8.1371804672
 30
0.0
 10
11.2208947328
 20
8.1459446625
 30
0.0
 10
11.172621758
 20
8.1582206534
 30
0.0
 10
11.1251321493
 20
8.1739424837
 30
0.0
 10
11.078678184
 20
8.1930258493
 30
0.0
 10
11.0335076593
 20
8.2153686421
 30
0.0
 10
10.989861237
 20
8.2408515367
 30
0.0
 10
10.9479714663
 20
8.2693384183
 30
0.0
 10
10.9080615189
 20
8.3006772682
 30
0.0
 10
10.8703440991
 20
8.334701002
 30
0.0
 10
10.8350201744
 20
8.3712281836
 30
0.0
 10
10.8022779984
 20
8.4100641037
 30
0.0
 10
10.7722921951
 20
8.4510018488
 30
0.0
 10
10.7452226683
 20
8.4938232545
 30
0.0
 10
10.7212138354
 20
8.5383001399
 30
0.0
 10
10.7003939663
 20
8.5841955492
 30
0.0
 10
10.6828743171
 20
8.6312648977
 30
0.0
 10
10.6687486014
 20
8.6792573119
 30
0.0
 10
10.6580926207
 20
8.7279169822
 30
0.0
 10
10.6509636545
 20
8.7769844291
 30
0.0
 10
10.6474002039
 20
8.8261979606
 30
0.0
 10
10.6474218602
 20
8.8752948478
 30
0.0
 10
10.6510292358
 20
8.9240134597
 30
0.0
 10
10.6582030313
 20
8.9720918188
 30
0.0
 10
10.6671339671
 20
9.01146072
 30
0.0
 10
10.6760171601
 20
9.0423677024
 30
0.0
 10
10.6835314231
 20
9.0652066327
 30
0.0
 10
10.6918941526
 20
9.0876963736
 30
0.0
 10
10.7010943409
 20
9.1098072821
 30
0.0
 10
10.7111196756
 20
9.1315097009
 30
0.0
 10
10.721956727
 20
9.1527746886
 30
0.0
 10
10.7335910989
 20
9.1735737844
 30
0.0
 10
10.7460072373
 20
9.1938792032
 30
0.0
 10
10.759188512
 20
9.2136638387
 30
0.0
 10
10.7731173945
 20
9.2329012113
 30
0.0
 10
10.7877752294
 20
9.2515656009
 30
0.0
 10
10.8031424861
 20
9.2696321891
 30
0.0
 10
10.8191983587
 20
9.287076441
 30
0.0
 10
10.8303482438
 20
9.2982767294
 30
0.0
 10
10.8360295082
 20
9.303764415
 30
0.0
  0
SPLINE
  5
3B2
100
AcDbEntity
  8
0
100
AcDbSpline
 62
7
  6
CONTINUOUS
 70
0
 71
3
 72
16
 73
12
 74
0
 42
0.0000001
 43
0.0000001
 44
0.0000000001
 40
0.0
 40
0.0
 40
0.0
 40
0.0
 40
0.1081438537
 40
0.2181187553
 40
0.3316584918
 40
0.4503233556
 40
0.5120293364
 40
0.575504255
 40
0.7082533085
 40
0.8495215773
 40
1.0
 40
1.0
 40
1.0
 40
1.0
 10
13.434891302
 20
7.2066420205
 30
0.0
 10
13.43548588
 20
7.2066007789
 30
0.0
 10
13.4366923146
 20
7.2065993674
 30
0.0
 10
13.4385090083
 20
7.2068420818
 30
0.0
 10
13.4403360164
 20
7.2073281447
 30
0.0
 10
13.4418450549
 20
7.2079266735
 30
0.0
 10
13.4430518481
 20
7.2085190644
 30
0.0
 10
13.4442952887
 20
7.209209066
 30
0.0
 10
13.4458546409
 20
7.2102280521
 30
0.0
 10
13.4477006918
 20
7.2116687983
 30
0.0
 10
13.4488929361
 20
7.2127498862
 30
0.0
 10
13.4494894301
 20
7.2133260552
 30
0.0
  0
SPLINE
  5
3B3
100
AcDbEntity
  8
0
100
AcDbSpline
 62
7
  6
CONTINUOUS
 70
0
 71
3
 72
16
 73
12
 74
0
 42
0.0000001
 43
0.0000001
 44
0.0000000001
 40
0.0
 40
0.0
 40
0.0
 40
0.0
 40
0.1081438537
 40
0.2181187553
 40
0.3316584918
 40
0.4503233556
 40
0.5120293364
 40
0.575504255
 40
0.7082533085
 40
0.8495215773
 40
1.0
 40
1.0
 40
1.0
 40
1.0
 10
12.399615976
 20
6.2066427865
 30
0.0
 10
12.4002105539
 20
6.2066015449
 30
0.0
 10
12.4014169886
 20
6.2066001334
 30
0.0
 10
12.4032336823
 20
6.2068428478
 30
0.0
 10
12.4050606904
 20
6.2073289107
 30
0.0
 10
12.4065697289
 20
6.2079274395
 30
0.0
 10
12.4077765221
 20
6.2085198304
 30
0.0
 10
12.4090199627
 20
6.2092098321
 30
0.0
 10
12.4105793149
 20
6.2102288181
 30
0.0
 10
12.4124253658
 20
6.2116695643
 30
0.0
 10
12.4136176101
 20
6.2127506523
 30
0.0
 10
12.414214104
 20
6.2133268212
 30
0.0
  0
SPLINE
  5
3B4
100
AcDbEntity
  8
0
100
AcDbSpline
 62
7
  6
CONTINUOUS
 70
0
 71
3
 72
32
 73
28
 74
0
 42
0.0000001
 43
0.0000001
 44
0.0000000001
 40
0.0
 40
0.0
 40
0.0
 40
0.0
 40
0.0662965078
 40
0.1343432123
 40
0.2037630172
 40
0.2741846199
 40
0.3452173247
 40
0.4164259314
 40
0.487307313
 40
0.5224462963
 40
0.5572757853
 40
0.591708348
 40
0.6256516236
 40
0.6590092748
 40
0.691682411
 40
0.7235712543
 40
0.7545771913
 40
0.7846052585
 40
0.8135665285
 40
0.8413804955
 40
0.867977459
 40
0.8933009513
 40
0.9173097338
 40
0.9399794576
 40
0.9613043535
 40
0.981298988
 40
1.0
 40
1.0
 40
1.0
 40
1.0
 10
11.0829602304
 20
7.7804850423
 30
0.0
 10
11.0819605325
 20
7.7709267995
 30
0.0
 10
11.0804589004
 20
7.7514995671
 30
0.0
 10
11.0797154627
 20
7.7219590924
 30
0.0
 10
11.0804711888
 20
7.6918206207
 30
0.0
 10
11.082703299
 20
7.6613227091
 30
0.0
 10
11.0863406041
 20
7.6307004419
 30
0.0
 10
11.091261298
 20
7.6001923328
 30
0.0
 10
11.0962989474
 20
7.5749942086
 30
0.0
 10
11.1007849522
 20
7.5550748512
 30
0.0
 10
11.1043241984
 20
7.5403599481
 30
0.0
 10
11.1080094298
 20
7.5258598798
 30
0.0
 10
11.111798687
 20
7.5116074077
 30
0.0
 10
11.1156467763
 20
7.4976351833
 30
0.0
 10
11.1195058923
 20
7.4839752961
 30
0.0
 10
11.123326153
 20
7.4706588529
 30
0.0
 10
11.1270562516
 20
7.4577154688
 30
0.0
 10
11.1306442891
 20
7.4451727955
 30
0.0
 10
11.1340387216
 20
7.4330561175
 30
0.0
 10
11.1371891998
 20
7.4213880183
 30
0.0
 10
11.1400473764
 20
7.4101881151
 30
0.0
 10
11.1425677428
 20
7.3994729522
 30
0.0
 10
11.1447082998
 20
7.3892560088
 30
0.0
 10
11.1464309721
 20
7.3795479523
 30
0.0
 10
11.1477018916
 20
7.3703566478
 30
0.0
 10
11.1484915298
 20
7.3616884984
 30
0.0
 10
11.1486866918
 20
7.3560782693
 30
0.0
 10
11.1486872792
 20
7.3533673599
 30
0.0
  0
SPLINE
  5
3B5
100
AcDbEntity
  8
0
100
AcDbSpline
 62
7
  6
CONTINUOUS
 70
0
 71
3
 72
25
 73
21
 74
0
 42
0.0000001
 43
0.0000001
 44
0.0000000001
 40
0.0
 40
0.0
 40
0.0
 40
0.0
 40
0.0618715085
 40
0.1239819326
 40
0.1863056791
 40
0.2488133587
 40
0.3114722549
 40
0.3742469596
 40
0.4371000107
 40
0.4999925636
 40
0.5628850783
 40
0.6257380154
 40
0.6885125321
 40
0.7198628123
 40
0.7511796021
 40
0.8136869547
 40
0.8760103162
 40
0.9070979862
 40
0.9381289465
 40
1.0
 40
1.0
 40
1.0
 40
1.0
 10
10.1043402338
 20
7.5569720102
 30
0.0
 10
10.0967419764
 20
7.5591160904
 30
0.0
 10
10.0816567782
 20
7.5639296822
 30
0.0
 10
10.0595281131
 20
7.5726636198
 30
0.0
 10
10.0379548818
 20
7.5828846232
 30
0.0
 10
10.0170433472
 20
7.5945424778
 30
0.0
 10
9.9968947914
 20
7.6075804994
 30
0.0
 10
9.9776072589
 20
7.6219351821
 30
0.0
 10
9.9592744758
 20
7.6375366915
 30
0.0
 10
9.9419856002
 20
7.654309093
 30
0.0
 10
9.9258245996
 20
7.6721709681
 30
0.0
 10
9.9108704166
 20
7.691034916
 30
0.0
 10
9.899468546
 20
7.7075228539
 30
0.0
 10
9.8910206648
 20
7.7211216221
 30
0.0
 10
9.8830402977
 20
7.7349606183
 30
0.0
 10
9.873942433
 20
7.7527043355
 30
0.0
 10
9.8660484464
 20
7.7709837311
 30
0.0
 10
9.8604877548
 20
7.7858602846
 30
0.0
 10
9.8554452757
 20
7.8008588205
 30
0.0
 10
9.8522333527
 20
7.8122821964
 30
0.0
 10
9.8503549282
 20
7.8199503905
 30
0.0
  0
SPLINE
  5
3B6
100
AcDbEntity
  8
0
100
AcDbSpline
 62
7
  6
CONTINUOUS
 70
0
 71
3
 72
71
 73
67
 74
0
 42
0.0000001
 43
0.0000001
 44
0.0000000001
 40
0.0
 40
0.0
 40
0.0
 40
0.0
 40
0.0156747439
 40
0.0314022082
 40
0.0471806388
 40
0.0630088954
 40
0.0788847426
 40
0.0948057519
 40
0.1107690087
 40
0.1267712324
 40
0.1428087906
 40
0.1588777352
 40
0.1749738406
 40
0.1910926413
 40
0.2072294725
 40
0.2233795109
 40
0.239537818
 40
0.255699384
 40
0.2718591706
 40
0.2880121553
 40
0.3041533743
 40
0.3202779661
 40
0.3363812146
 40
0.3524585914
 40
0.3685057961
 40
0.3845187957
 40
0.4004938614
 40
0.4164276041
 40
0.4323170079
 40
0.4481594607
 40
0.4639527819
 40
0.4796952457
 40
0.4953856017
 40
0.5110230908
 40
0.5266074579
 40
0.5421389597
 40
0.5576183678
 40
0.5730469656
 40
0.5884265412
 40
0.6037593735
 40
0.6190482143
 40
0.6342962647
 40
0.6495071464
 40
0.6646848669
 40
0.6798337803
 40
0.6949585438
 40
0.7100640694
 40
0.7251554736
 40
0.7402380233
 40
0.7553170806
 40
0.7703980447
 40
0.7854862946
 40
0.8005871313
 40
0.8157057213
 40
0.830847042
 40
0.8460158305
 40
0.8612165344
 40
0.8764532676
 40
0.8917297685
 40
0.907049366
 40
0.9224149485
 40
0.9378289216
 40
0.953293278
 40
0.9688092644
 40
0.9843782511
 40
1.0
 40
1.0
 40
1.0
 40
1.0
 10
9.6285085086
 20
6.799937135
 30
0.0
 10
9.6194696246
 20
6.8005639837
 30
0.0
 10
9.601389143
 20
6.8022632119
 30
0.0
 10
9.5743823315
 20
6.8061304709
 30
0.0
 10
9.5475055513
 20
6.8113115067
 30
0.0
 10
9.5208245514
 20
6.8177934831
 30
0.0
 10
9.4944031831
 20
6.8255609289
 30
0.0
 10
9.4683051766
 20
6.8345950062
 30
0.0
 10
9.4425933224
 20
6.8448739662
 30
0.0
 10
9.417329518
 20
6.8563730089
 30
0.0
 10
9.3925745651
 20
6.8690644095
 30
0.0
 10
9.3683880424
 20
6.8829175824
 30
0.0
 10
9.3448281594
 20
6.8978991536
 30
0.0
 10
9.3219516193
 20
6.9139730417
 30
0.0
 10
9.2998134844
 20
6.9311005438
 30
0.0
 10
9.2784670412
 20
6.9492404241
 30
0.0
 10
9.2579636611
 20
6.9683490002
 30
0.0
 10
9.2383526911
 20
6.988380268
 30
0.0
 10
9.2196813347
 20
7.0092860084
 30
0.0
 10
9.2019945402
 20
7.0310159033
 30
0.0
 10
9.1853348926
 20
7.0535176546
 30
0.0
 10
9.1697425147
 20
7.0767371103
 30
0.0
 10
9.1552549506
 20
7.1006183816
 30
0.0
 10
9.1419070881
 20
7.1251039879
 30
0.0
 10
9.1297310801
 20
7.1501349969
 30
0.0
 10
9.1187562674
 20
7.1756511643
 30
0.0
 10
9.1090091076
 20
7.2015910769
 30
0.0
 10
9.1005131149
 20
7.2278922995
 30
0.0
 10
9.0932887901
 20
7.2544915202
 30
0.0
 10
9.0873535644
 20
7.2813247024
 30
0.0
 10
9.0827217766
 20
7.3083272439
 30
0.0
 10
9.0794046341
 20
7.3354341296
 30
0.0
 10
9.0774101868
 20
7.3625800858
 30
0.0
 10
9.0767433066
 20
7.3896997362
 30
0.0
 10
9.0774056742
 20
7.4167277575
 30
0.0
 10
9.0793957497
 20
7.4435990379
 30
0.0
 10
9.0827087992
 20
7.470248835
 30
0.0
 10
9.0873369045
 20
7.4966129304
 30
0.0
 10
9.0932689809
 20
7.5226277829
 30
0.0
 10
9.1004908009
 20
7.5482306812
 30
0.0
 10
9.1089850306
 20
7.5733598937
 30
0.0
 10
9.1187312495
 20
7.597954825
 30
0.0
 10
9.1297060055
 20
7.6219561635
 30
0.0
 10
9.1418828827
 20
7.6453060206
 30
0.0
 10
9.1552325611
 20
7.6679480719
 30
0.0
 10
9.1697228866
 20
7.6898276938
 30
0.0
 10
9.1853189482
 20
7.7108920953
 30
0.0
 10
9.2019831569
 20
7.7310904512
 30
0.0
 10
9.2196753237
 20
7.7503740388
 30
0.0
 10
9.2383527782
 20
7.7686963428
 30
0.0
 10
9.2579704695
 20
7.78601317
 30
0.0
 10
9.278481076
 20
7.8022827562
 30
0.0
 10
9.2998351204
 20
7.817465868
 30
0.0
 10
9.3219810911
 20
7.8315258949
 30
0.0
 10
9.3448655555
 20
7.84442896
 30
0.0
 10
9.3684333023
 20
7.856143988
 30
0.0
 10
9.3926274798
 20
7.866642774
 30
0.0
 10
9.4173897331
 20
7.8759000508
 30
0.0
 10
9.4426603451
 20
7.88389355
 30
0.0
 10
9.4683783846
 20
7.8906040518
 30
0.0
 10
9.4944818351
 20
7.8960154304
 30
0.0
 10
9.5209078076
 20
7.9001147508
 30
0.0
 10
9.5475924763
 20
7.9028921295
 30
0.0
 10
9.5744719362
 20
7.9043410796
 30
0.0
 10
9.6014803708
 20
7.9044580144
 30
0.0
 10
9.6195001843
 20
7.9036491884
 30
0.0
 10
9.6285085086
 20
7.903024459
 30
0.0
  0
SPLINE
  5
3B7
100
AcDbEntity
  8
0
100
AcDbSpline
 62
7
  6
CONTINUOUS
 70
0
 71
3
 72
43
 73
39
 74
0
 42
0.0000001
 43
0.0000001
 44
0.0000000001
 40
0.0
 40
0.0
 40
0.0
 40
0.0
 40
0.0149644519
 40
0.029945728
 40
0.0449459508
 40
0.0599671551
 40
0.0900754905
 40
0.1202894876
 40
0.1354422366
 40
0.1506257404
 40
0.1658411623
 40
0.1810895096
 40
0.2116838487
 40
0.2424182149
 40
0.2732950533
 40
0.3043142597
 40
0.3354732171
 40
0.3667668749
 40
0.3981878673
 40
0.4297266664
 40
0.4613717669
 40
0.4931098977
 40
0.5249262566
 40
0.5568047641
 40
0.588728332
 40
0.6206791447
 40
0.6526389479
 40
0.6845893426
 40
0.7165120809
 40
0.7483893602
 40
0.7802041119
 40
0.811940283
 40
0.843583102
 40
0.8751193426
 40
0.9065375159
 40
0.9378282353
 40
0.968983917
 40
1.0
 40
1.0
 40
1.0
 40
1.0
 10
9.3844823754
 20
7.8333169235
 30
0.0
 10
9.38145336
 20
7.8287417133
 30
0.0
 10
9.3755541956
 20
7.8194775144
 30
0.0
 10
9.3671991394
 20
7.8052682785
 30
0.0
 10
9.3593419
 20
7.7907537182
 30
0.0
 10
9.3495346564
 20
7.7710029503
 30
0.0
 10
9.3385619979
 20
7.7456228254
 30
0.0
 10
9.329373834
 20
7.7194928887
 30
0.0
 10
9.3231063418
 20
7.6981900263
 30
0.0
 10
9.3189475904
 20
7.6820100478
 30
0.0
 10
9.3153405822
 20
7.6656623206
 30
0.0
 10
9.3112679092
 20
7.6436439715
 30
0.0
 10
9.3075785426
 20
7.6157850095
 30
0.0
 10
9.3054136812
 20
7.5820203553
 30
0.0
 10
9.3055147204
 20
7.5480302713
 30
0.0
 10
9.3078811467
 20
7.513967018
 30
0.0
 10
9.312502112
 20
7.479981823
 30
0.0
 10
9.3193568355
 20
7.4462258732
 30
0.0
 10
9.3284146106
 20
7.4128492025
 30
0.0
 10
9.3396349701
 20
7.3800001523
 30
0.0
 10
9.3529678574
 20
7.3478246847
 30
0.0
 10
9.3683538609
 20
7.316465752
 30
0.0
 10
9.3857244775
 20
7.2860626659
 30
0.0
 10
9.4050024168
 20
7.2567504859
 30
0.0
 10
9.4261019435
 20
7.2286594259
 30
0.0
 10
9.448929256
 20
7.201914281
 30
0.0
 10
9.4733829003
 20
7.1766338786
 30
0.0
 10
9.4993542175
 20
7.1529305549
 30
0.0
 10
9.5267278225
 20
7.1309096608
 30
0.0
 10
9.5553821092
 20
7.1106690926
 30
0.0
 10
9.5851897861
 20
7.0922988597
 30
0.0
 10
9.6160184441
 20
7.0758806926
 30
0.0
 10
9.6477311208
 20
7.0614876734
 30
0.0
 10
9.680186961
 20
7.0491839328
 30
0.0
 10
9.7132416277
 20
7.0390243114
 30
0.0
 10
9.7467487043
 20
7.03105422
 30
0.0
 10
9.7805573358
 20
7.0253093382
 30
0.0
 10
9.8032537997
 20
7.0229745233
 30
0.0
 10
9.8145992438
 20
7.0221877141
 30
0.0
  0
SPLINE
  5
3B8
100
AcDbEntity
  8
0
100
AcDbSpline
 62
7
  6
CONTINUOUS
 70
0
 71
3
 72
19
 73
15
 74
0
 42
0.0000001
 43
0.0000001
 44
0.0000000001
 40
0.0
 40
0.0
 40
0.0
 40
0.0
 40
0.0482001393
 40
0.0984334445
 40
0.1506875562
 40
0.2049443198
 40
0.2611807399
 40
0.3193692532
 40
0.3794781863
 40
0.4414722196
 40
0.5709530358
 40
0.7074687461
 40
0.8506277438
 40
1.0
 40
1.0
 40
1.0
 40
1.0
 10
11.1004873917
 20
7.3502116932
 30
0.0
 10
11.0984731419
 20
7.3512066985
 30
0.0
 10
11.094329268
 20
7.353177586
 30
0.0
 10
11.0879075155
 20
7.3560238663
 30
0.0
 10
11.0811566695
 20
7.3588187839
 30
0.0
 10
11.0740829111
 20
7.3615597944
 30
0.0
 10
11.0666926144
 20
7.3642443962
 30
0.0
 10
11.0589924871
 20
7.3668701374
 30
0.0
 10
11.0509895027
 20
7.3694346546
 30
0.0
 10
11.0397614671
 20
7.3728183016
 30
0.0
 10
11.0250162778
 20
7.3768647764
 30
0.0
 10
11.0064837166
 20
7.3813732386
 30
0.0
 10
10.986932385
 20
7.3855854235
 30
0.0
 10
10.9735364237
 20
7.3881342903
 30
0.0
 10
10.9666830591
 20
7.3893606992
 30
0.0
  0
SPLINE
  5
3B9
100
AcDbEntity
  8
0
100
AcDbSpline
 62
7
  6
CONTINUOUS
 70
0
 71
3
 72
15
 73
11
 74
0
 42
0.0000001
 43
0.0000001
 44
0.0000000001
 40
0.0
 40
0.0
 40
0.0
 40
0.0
 40
0.1050064679
 40
0.2161899674
 40
0.3333546058
 40
0.4562724795
 40
0.5846875932
 40
0.7183191227
 40
0.8568641378
 40
1.0
 40
1.0
 40
1.0
 40
1.0
 10
11.1225324816
 20
7.3374431568
 30
0.0
 10
11.1176580727
 20
7.3392826157
 30
0.0
 10
11.1075499984
 20
7.3428794526
 30
0.0
 10
11.0917924078
 20
7.3479128197
 30
0.0
 10
11.0750400783
 20
7.3527276189
 30
0.0
 10
11.0573386132
 20
7.3573105143
 30
0.0
 10
11.0387359161
 20
7.3616489222
 30
0.0
 10
11.0192825152
 20
7.3657308976
 30
0.0
 10
10.999031387
 20
7.3695451922
 30
0.0
 10
10.9852488606
 20
7.3718666775
 30
0.0
 10
10.9782354969
 20
7.3729835998
 30
0.0
  0
SPLINE
  5
3BA
100
AcDbEntity
  8
0
100
AcDbSpline
 62
7
  6
CONTINUOUS
 70
0
 71
3
 72
71
 73
67
 74
0
 42
0.0000001
 43
0.0000001
 44
0.0000000001
 40
0.0
 40
0.0
 40
0.0
 40
0.0
 40
0.0156216999
 40
0.0311907601
 40
0.0467067152
 40
0.0621710784
 40
0.077585053
 40
0.0929506336
 40
0.1082702315
 40
0.1235467316
 40
0.138783465
 40
0.1539841696
 40
0.1691529587
 40
0.1842942792
 40
0.1994128685
 40
0.2145137046
 40
0.2296019546
 40
0.2446829194
 40
0.2597619773
 40
0.2748445271
 40
0.2899359306
 40
0.3050414555
 40
0.3201662189
 40
0.3353151329
 40
0.3504928541
 40
0.3657037359
 40
0.3809517858
 40
0.396240626
 40
0.4115734582
 40
0.4269530343
 40
0.4423816324
 40
0.4578610404
 40
0.473392542
 40
0.4889769091
 40
0.5046143984
 40
0.5203047543
 40
0.5360472179
 40
0.5518405389
 40
0.567682992
 40
0.5835723963
 40
0.5995061391
 40
0.6154812041
 40
0.6314942032
 40
0.6475414081
 40
0.6636187857
 40
0.6797220347
 40
0.695846626
 40
0.7119878442
 40
0.7281408286
 40
0.7443006159
 40
0.7604621826
 40
0.7766204897
 40
0.7927705272
 40
0.8089073579
 40
0.8250261591
 40
0.8411222652
 40
0.85719121
 40
0.8732287678
 40
0.8892309905
 40
0.9051942484
 40
0.9211152564
 40
0.9369911048
 40
0.9528193679
 40
0.9685977669
 40
0.9843253049
 40
1.0
 40
1.0
 40
1.0
 40
1.0
 10
9.3953092405
 20
9.4529683526
 30
0.0
 10
9.3870266563
 20
9.4535427518
 30
0.0
 10
9.3704585129
 20
9.4542864086
 30
0.0
 10
9.3456258918
 20
9.4541789111
 30
0.0
 10
9.3209118264
 20
9.4528466749
 30
0.0
 10
9.2963768963
 20
9.4502930568
 30
0.0
 10
9.2720798061
 20
9.4465239836
 30
0.0
 10
9.2480792623
 20
9.4415485348
 30
0.0
 10
9.2244330821
 20
9.4353786245
 30
0.0
 10
9.2011982801
 20
9.4280290872
 30
0.0
 10
9.1784308796
 20
9.4195175913
 30
0.0
 10
9.1561857885
 20
9.4098646034
 30
0.0
 10
9.1345166685
 20
9.3990933408
 30
0.0
 10
9.113475796
 20
9.3872297333
 30
0.0
 10
9.0931139209
 20
9.374302378
 30
0.0
 10
9.0734801622
 20
9.3603424317
 30
0.0
 10
9.0546218866
 20
9.3453835444
 30
0.0
 10
9.0365845947
 20
9.3294617767
 30
0.0
 10
9.0194118117
 20
9.3126155146
 30
0.0
 10
9.0031449467
 20
9.2948854077
 30
0.0
 10
8.9878232209
 20
9.2763142343
 30
0.0
 10
8.9734835749
 20
9.2569467974
 30
0.0
 10
8.9601605781
 20
9.2368298182
 30
0.0
 10
8.9478863531
 20
9.2160118195
 30
0.0
 10
8.9366904613
 20
9.1945430291
 30
0.0
 10
8.9265998465
 20
9.1724752431
 30
0.0
 10
8.91763879
 20
9.1498616886
 30
0.0
 10
8.9098288484
 20
9.1267568997
 30
0.0
 10
8.9031888098
 20
9.103216584
 30
0.0
 10
8.897734629
 20
9.0792974966
 30
0.0
 10
8.8934793718
 20
9.0550573017
 30
0.0
 10
8.8904332254
 20
9.0305544224
 30
0.0
 10
8.8886034685
 20
9.0058479034
 30
0.0
 10
8.8879944577
 20
8.9809972702
 30
0.0
 10
8.8886076176
 20
8.9560623895
 30
0.0
 10
8.890441394
 20
8.9311033225
 30
0.0
 10
8.8934913037
 20
8.9061801782
 30
0.0
 10
8.8977499468
 20
8.8813529712
 30
0.0
 10
8.9032070233
 20
8.8566814791
 30
0.0
 10
8.9098493648
 20
8.8322251044
 30
0.0
 10
8.9176609272
 20
8.8080427221
 30
0.0
 10
8.9266228487
 20
8.7841925387
 30
0.0
 10
8.9367135159
 20
8.76073196
 30
0.0
 10
8.9479086087
 20
8.7377174532
 30
0.0
 10
8.9601811642
 20
8.7152044168
 30
0.0
 10
8.9735016217
 20
8.69324704
 30
0.0
 10
8.9878378805
 20
8.6718981598
 30
0.0
 10
9.0031554128
 20
8.6512091542
 30
0.0
 10
9.0194173385
 20
8.6312298173
 30
0.0
 10
9.0365845146
 20
8.6120082427
 30
0.0
 10
9.0546156266
 20
8.5935907096
 30
0.0
 10
9.0734672581
 20
8.5760215408
 30
0.0
 10
9.0930940282
 20
8.5593430236
 30
0.0
 10
9.1134486987
 20
8.5435953112
 30
0.0
 10
9.1344822847
 20
8.5288163254
 30
0.0
 10
9.1561441742
 20
8.5150416735
 30
0.0
 10
9.1783822277
 20
8.5023045283
 30
0.0
 10
9.2011429163
 20
8.4906355623
 30
0.0
 10
9.2243714593
 20
8.4800628893
 30
0.0
 10
9.2480119522
 20
8.4706119979
 30
0.0
 10
9.2720074895
 20
8.4623056972
 30
0.0
 10
9.2963003468
 20
8.4551640033
 30
0.0
 10
9.3208319052
 20
8.4492042326
 30
0.0
 10
9.3455435045
 20
8.444440566
 30
0.0
 10
9.3703746356
 20
8.440884872
 30
0.0
 10
9.3869985584
 20
8.4393225227
 30
0.0
 10
9.3953092405
 20
8.4387461749
 30
0.0
  0
SPLINE
  5
3BB
100
AcDbEntity
  8
0
100
AcDbSpline
 62
7
  6
CONTINUOUS
 70
0
 71
3
 72
71
 73
67
 74
0
 42
0.0000001
 43
0.0000001
 44
0.0000000001
 40
0.0
 40
0.0
 40
0.0
 40
0.0
 40
0.0156747439
 40
0.0314022082
 40
0.0471806388
 40
0.0630088954
 40
0.0788847426
 40
0.0948057519
 40
0.1107690087
 40
0.1267712324
 40
0.1428087906
 40
0.1588777352
 40
0.1749738406
 40
0.1910926413
 40
0.2072294725
 40
0.2233795109
 40
0.239537818
 40
0.255699384
 40
0.2718591706
 40
0.2880121553
 40
0.3041533743
 40
0.3202779661
 40
0.3363812146
 40
0.3524585914
 40
0.3685057961
 40
0.3845187957
 40
0.4004938614
 40
0.4164276041
 40
0.4323170079
 40
0.4481594607
 40
0.4639527819
 40
0.4796952457
 40
0.4953856017
 40
0.5110230908
 40
0.5266074579
 40
0.5421389597
 40
0.5576183678
 40
0.5730469656
 40
0.5884265412
 40
0.6037593735
 40
0.6190482143
 40
0.6342962647
 40
0.6495071464
 40
0.6646848669
 40
0.6798337803
 40
0.6949585438
 40
0.7100640694
 40
0.7251554736
 40
0.7402380233
 40
0.7553170806
 40
0.7703980447
 40
0.7854862946
 40
0.8005871313
 40
0.8157057213
 40
0.830847042
 40
0.8460158305
 40
0.8612165344
 40
0.8764532676
 40
0.8917297685
 40
0.907049366
 40
0.9224149485
 40
0.9378289216
 40
0.953293278
 40
0.9688092644
 40
0.9843782511
 40
1.0
 40
1.0
 40
1.0
 40
1.0
 10
9.6285085086
 20
7.903024459
 30
0.0
 10
9.6375473926
 20
7.9023976102
 30
0.0
 10
9.6556278742
 20
7.900698382
 30
0.0
 10
9.6826346856
 20
7.896831123
 30
0.0
 10
9.7095114659
 20
7.8916500872
 30
0.0
 10
9.7361924658
 20
7.8851681109
 30
0.0
 10
9.7626138341
 20
7.877400665
 30
0.0
 10
9.7887118406
 20
7.8683665877
 30
0.0
 10
9.8144236948
 20
7.8580876277
 30
0.0
 10
9.8396874992
 20
7.846588585
 30
0.0
 10
9.8644424521
 20
7.8338971844
 30
0.0
 10
9.8886289748
 20
7.8200440115
 30
0.0
 10
9.9121888577
 20
7.8050624403
 30
0.0
 10
9.9350653979
 20
7.7889885523
 30
0.0
 10
9.9572035328
 20
7.7718610501
 30
0.0
 10
9.978549976
 20
7.7537211699
 30
0.0
 10
9.9990533561
 20
7.7346125937
 30
0.0
 10
10.0186643261
 20
7.714581326
 30
0.0
 10
10.0373356825
 20
7.6936755855
 30
0.0
 10
10.055022477
 20
7.6719456906
 30
0.0
 10
10.0716821246
 20
7.6494439394
 30
0.0
 10
10.0872745025
 20
7.6262244836
 30
0.0
 10
10.1017620666
 20
7.6023432123
 30
0.0
 10
10.1151099291
 20
7.5778576061
 30
0.0
 10
10.1272859371
 20
7.5528265971
 30
0.0
 10
10.1382607498
 20
7.5273104296
 30
0.0
 10
10.1480079096
 20
7.5013705171
 30
0.0
 10
10.1565039023
 20
7.4750692944
 30
0.0
 10
10.1637282271
 20
7.4484700737
 30
0.0
 10
10.1696634527
 20
7.4216368916
 30
0.0
 10
10.1742952406
 20
7.39463435
 30
0.0
 10
10.1776123831
 20
7.3675274644
 30
0.0
 10
10.1796068304
 20
7.3403815081
 30
0.0
 10
10.1802737106
 20
7.3132618577
 30
0.0
 10
10.179611343
 20
7.2862338364
 30
0.0
 10
10.1776212675
 20
7.2593625561
 30
0.0
 10
10.174308218
 20
7.2327127589
 30
0.0
 10
10.1696801127
 20
7.2063486635
 30
0.0
 10
10.1637480363
 20
7.1803338111
 30
0.0
 10
10.1565262163
 20
7.1547309128
 30
0.0
 10
10.1480319866
 20
7.1296017002
 30
0.0
 10
10.1382857676
 20
7.1050067689
 30
0.0
 10
10.1273110117
 20
7.0810054304
 30
0.0
 10
10.1151341345
 20
7.0576555733
 30
0.0
 10
10.1017844561
 20
7.035013522
 30
0.0
 10
10.0872941306
 20
7.0131339002
 30
0.0
 10
10.071698069
 20
6.9920694986
 30
0.0
 10
10.0550338603
 20
6.9718711427
 30
0.0
 10
10.0373416935
 20
6.9525875552
 30
0.0
 10
10.018664239
 20
6.9342652512
 30
0.0
 10
9.9990465477
 20
6.9169484239
 30
0.0
 10
9.9785359412
 20
6.9006788377
 30
0.0
 10
9.9571818968
 20
6.8854957259
 30
0.0
 10
9.9350359261
 20
6.871435699
 30
0.0
 10
9.9121514617
 20
6.8585326339
 30
0.0
 10
9.8885837149
 20
6.846817606
 30
0.0
 10
9.8643895374
 20
6.83631882
 30
0.0
 10
9.8396272841
 20
6.8270615431
 30
0.0
 10
9.8143566721
 20
6.819068044
 30
0.0
 10
9.7886386326
 20
6.8123575421
 30
0.0
 10
9.7625351821
 20
6.8069461635
 30
0.0
 10
9.7361092096
 20
6.8028468432
 30
0.0
 10
9.7094245409
 20
6.8000694645
 30
0.0
 10
9.682545081
 20
6.7986205143
 30
0.0
 10
9.6555366464
 20
6.7985035796
 30
0.0
 10
9.6375168329
 20
6.7993124056
 30
0.0
 10
9.6285085086
 20
6.799937135
 30
0.0
  0
SPLINE
  5
3BC
100
AcDbEntity
  8
0
100
AcDbSpline
 62
7
  6
CONTINUOUS
 70
0
 71
3
 72
43
 73
39
 74
0
 42
0.0000001
 43
0.0000001
 44
0.0000000001
 40
0.0
 40
0.0
 40
0.0
 40
0.0
 40
0.0310039551
 40
0.0465602644
 40
0.0621504321
 40
0.0934266989
 40
0.1248294941
 40
0.1563496513
 40
0.1879759554
 40
0.2196954911
 40
0.2514938247
 40
0.2674195968
 40
0.2833590938
 40
0.3152669256
 40
0.3472037138
 40
0.3791515594
 40
0.4110923888
 40
0.4430082389
 40
0.4748815419
 40
0.5066954048
 40
0.5384338821
 40
0.5700822368
 40
0.6016271882
 40
0.6330571412
 40
0.6643623941
 40
0.6955353216
 40
0.7265705286
 40
0.7574649707
 40
0.7882180388
 40
0.8188316027
 40
0.8493100122
 40
0.8645027712
 40
0.8796644875
 40
0.9098952869
 40
0.9400181781
 40
0.9550455426
 40
0.9700510904
 40
1.0
 40
1.0
 40
1.0
 40
1.0
 10
9.6190677967
 20
8.7393988708
 30
0.0
 10
9.609730849
 20
8.7400463903
 30
0.0
 10
9.5957355934
 20
8.7414820837
 30
0.0
 10
9.5771853015
 20
8.7443066101
 30
0.0
 10
9.558654978
 20
8.7477468812
 30
0.0
 10
9.535643712
 20
8.7531861408
 30
0.0
 10
9.5084277584
 20
8.7614930547
 30
0.0
 10
9.4816957887
 20
8.7715507546
 30
0.0
 10
9.4555650876
 20
8.7833151709
 30
0.0
 10
9.4301501222
 20
8.7967344223
 30
0.0
 10
9.4096682687
 20
8.8092423094
 30
0.0
 10
9.3937483837
 20
8.820013215
 30
0.0
 10
9.3781434168
 20
8.8312920688
 30
0.0
 10
9.3592867289
 20
8.8463026074
 30
0.0
 10
9.3378043005
 20
8.8656873079
 30
0.0
 10
9.3175508917
 20
8.8863674371
 30
0.0
 10
9.2986155215
 20
8.9082522844
 30
0.0
 10
9.2810807447
 20
8.9312463962
 30
0.0
 10
9.2650232124
 20
8.9552493485
 30
0.0
 10
9.2505130923
 20
8.9801563535
 30
0.0
 10
9.2376138319
 20
9.0058586674
 30
0.0
 10
9.2263818642
 20
9.032244073
 30
0.0
 10
9.2168663666
 20
9.0591973614
 30
0.0
 10
9.209109044
 20
9.0866008297
 30
0.0
 10
9.2031439462
 20
9.1143347913
 30
0.0
 10
9.1989973146
 20
9.1422780857
 30
0.0
 10
9.19668747
 20
9.1703086274
 30
0.0
 10
9.1962247041
 20
9.1983038402
 30
0.0
 10
9.1976113135
 20
9.2261415349
 30
0.0
 10
9.2008412636
 20
9.2536991555
 30
0.0
 10
9.2050626279
 20
9.2763570883
 30
0.0
 10
9.2093452013
 20
9.294217961
 30
0.0
 10
9.2142157334
 20
9.3118500334
 30
0.0
 10
9.2214134834
 20
9.3335004311
 30
0.0
 10
9.2300757384
 20
9.3545640141
 30
0.0
 10
9.2378521875
 20
9.3709781094
 30
0.0
 10
9.2461724159
 20
9.3870633679
 30
0.0
 10
9.2530388304
 20
9.3987857991
 30
0.0
 10
9.2578803515
 20
9.4064210582
 30
0.0
  0
SPLINE
  5
3BD
100
AcDbEntity
  8
0
100
AcDbSpline
 62
7
  6
CONTINUOUS
 70
0
 71
3
 72
25
 73
21
 74
0
 42
0.0000001
 43
0.0000001
 44
0.0000000001
 40
0.0
 40
0.0
 40
0.0
 40
0.0
 40
0.0616475256
 40
0.0924812752
 40
0.1233236417
 40
0.1850399904
 40
0.2468243943
 40
0.277751631
 40
0.3087038637
 40
0.3706878925
 40
0.4328012858
 40
0.495061923
 40
0.5574860832
 40
0.6200882745
 40
0.682881117
 40
0.745875147
 40
0.8090789725
 40
0.8724984981
 40
0.9361386362
 40
1.0
 40
1.0
 40
1.0
 40
1.0
 10
9.8698763342
 20
8.4379757494
 30
0.0
 10
9.8620769974
 20
8.4304421609
 30
0.0
 10
9.8500694717
 20
8.4194522597
 30
0.0
 10
9.8334888804
 20
8.4054622336
 30
0.0
 10
9.8165286629
 20
8.3919146572
 30
0.0
 10
9.7946404091
 20
8.3758305546
 30
0.0
 10
9.7719092974
 20
8.3609342039
 30
0.0
 10
9.7532506584
 20
8.3497489329
 30
0.0
 10
9.7342697178
 20
8.3390481706
 30
0.0
 10
9.7099833126
 20
8.326608634
 30
0.0
 10
9.6800423285
 20
8.3132279908
 30
0.0
 10
9.6493637714
 20
8.3014196359
 30
0.0
 10
9.618025448
 20
8.2912135289
 30
0.0
 10
9.5861061625
 20
8.2826352116
 30
0.0
 10
9.5536863563
 20
8.2757062329
 30
0.0
 10
9.5208476245
 20
8.2704439196
 30
0.0
 10
9.4876727731
 20
8.2668614815
 30
0.0
 10
9.4542449227
 20
8.2649677682
 30
0.0
 10
9.420649424
 20
8.2647675125
 30
0.0
 10
9.3982331747
 20
8.2657616324
 30
0.0
 10
9.3870270377
 20
8.2665387807
 30
0.0
  0
SPLINE
  5
3BE
100
AcDbEntity
  8
0
100
AcDbSpline
 62
7
  6
CONTINUOUS
 70
0
 71
3
 72
15
 73
11
 74
0
 42
0.0000001
 43
0.0000001
 44
0.0000000001
 40
0.0
 40
0.0
 40
0.0
 40
0.0
 40
0.1232822653
 40
0.2469238437
 40
0.3710051123
 40
0.4955958288
 40
0.6207535625
 40
0.7465228097
 40
0.8729323529
 40
1.0
 40
1.0
 40
1.0
 40
1.0
 10
11.5502992147
 20
6.9903073396
 30
0.0
 10
11.5398010416
 20
6.9838757904
 30
0.0
 10
11.5182501613
 20
6.971827871
 30
0.0
 10
11.4845457267
 20
6.9563527329
 30
0.0
 10
11.4496032816
 20
6.9435327509
 30
0.0
 10
11.4136213804
 20
6.933441027
 30
0.0
 10
11.3768011938
 20
6.9261331913
 30
0.0
 10
11.3393485809
 20
6.9216498817
 30
0.0
 10
11.3014758036
 20
6.9200153088
 30
0.0
 10
11.2761473317
 20
6.92082901
 30
0.0
 10
11.263488069
 20
6.9217069328
 30
0.0
  0
SPLINE
  5
3BF
100
AcDbEntity
  8
0
100
AcDbSpline
 62
4
  6
CONTINUOUS
 70
0
 71
3
 72
345
 73
341
 74
0
 42
0.0000001
 43
0.0000001
 44
0.0000000001
 40
0.0
 40
0.0
 40
0.0
 40
0.0
 40
0.015625
 40
0.0234375
 40
0.03125
 40
0.0390625
 40
0.04296875
 40
0.046875
 40
0.05078125
 40
0.0546875
 40
0.056640625
 40
0.05859375
 40
0.0595703125
 40
0.060546875
 40
0.0615234375
 40
0.0620117188
 40
0.0622558594
 40
0.0625
 40
0.0627441406
 40
0.0629882812
 40
0.0634765625
 40
0.064453125
 40
0.0654296875
 40
0.06640625
 40
0.068359375
 40
0.0703125
 40
0.07421875
 40
0.078125
 40
0.08203125
 40
0.0859375
 40
0.09375
 40
0.1015625
 40
0.10546875
 40
0.109375
 40
0.11328125
 40
0.1171875
 40
0.119140625
 40
0.12109375
 40
0.1220703125
 40
0.123046875
 40
0.1240234375
 40
0.1245117188
 40
0.1247558594
 40
0.125
 40
0.1252441406
 40
0.1254882812
 40
0.1259765625
 40
0.126953125
 40
0.1279296875
 40
0.12890625
 40
0.130859375
 40
0.1328125
 40
0.13671875
 40
0.140625
 40
0.14453125
 40
0.1484375
 40
0.15625
 40
0.1640625
 40
0.16796875
 40
0.171875
 40
0.17578125
 40
0.1796875
 40
0.181640625
 40
0.18359375
 40
0.1845703125
 40
0.185546875
 40
0.1865234375
 40
0.1870117188
 40
0.1875
 40
0.1879882812
 40
0.1884765625
 40
0.189453125
 40
0.1904296875
 40
0.19140625
 40
0.193359375
 40
0.1953125
 40
0.19921875
 40
0.203125
 40
0.20703125
 40
0.2109375
 40
0.21875
 40
0.2265625
 40
0.234375
 40
0.23828125
 40
0.2421875
 40
0.244140625
 40
0.24609375
 40
0.248046875
 40
0.2490234375
 40
0.2495117188
 40
0.25
 40
0.2504882812
 40
0.2509765625
 40
0.251953125
 40
0.25390625
 40
0.255859375
 40
0.2578125
 40
0.26171875
 40
0.265625
 40
0.2734375
 40
0.28125
 40
0.2890625
 40
0.296875
 40
0.30078125
 40
0.3046875
 40
0.306640625
 40
0.30859375
 40
0.310546875
 40
0.3115234375
 40
0.3125
 40
0.3134765625
 40
0.314453125
 40
0.31640625
 40
0.318359375
 40
0.3203125
 40
0.32421875
 40
0.328125
 40
0.3359375
 40
0.34375
 40
0.3515625
 40
0.359375
 40
0.36328125
 40
0.3671875
 40
0.37109375
 40
0.373046875
 40
0.3740234375
 40
0.375
 40
0.3759765625
 40
0.376953125
 40
0.37890625
 40
0.3828125
 40
0.38671875
 40
0.390625
 40
0.3984375
 40
0.40625
 40
0.4140625
 40
0.421875
 40
0.42578125
 40
0.4296875
 40
0.43359375
 40
0.435546875
 40
0.4365234375
 40
0.4375
 40
0.4384765625
 40
0.439453125
 40
0.44140625
 40
0.4453125
 40
0.44921875
 40
0.453125
 40
0.4609375
 40
0.46875
 40
0.4765625
 40
0.484375
 40
0.48828125
 40
0.4921875
 40
0.494140625
 40
0.49609375
 40
0.498046875
 40
0.4990234375
 40
0.4995117188
 40
0.5
 40
0.5004882812
 40
0.5009765625
 40
0.501953125
 40
0.50390625
 40
0.505859375
 40
0.5078125
 40
0.51171875
 40
0.515625
 40
0.5234375
 40
0.53125
 40
0.5390625
 40
0.546875
 40
0.55078125
 40
0.5546875
 40
0.556640625
 40
0.55859375
 40
0.560546875
 40
0.5615234375
 40
0.5620117188
 40
0.5625
 40
0.5629882812
 40
0.5634765625
 40
0.564453125
 40
0.56640625
 40
0.568359375
 40
0.5703125
 40
0.57421875
 40
0.578125
 40
0.5859375
 40
0.59375
 40
0.6015625
 40
0.609375
 40
0.61328125
 40
0.6171875
 40
0.619140625
 40
0.62109375
 40
0.623046875
 40
0.6240234375
 40
0.6245117188
 40
0.625
 40
0.6254882812
 40
0.6259765625
 40
0.626953125
 40
0.62890625
 40
0.630859375
 40
0.6328125
 40
0.63671875
 40
0.640625
 40
0.6484375
 40
0.65625
 40
0.6640625
 40
0.66796875
 40
0.671875
 40
0.67578125
 40
0.6796875
 40
0.681640625
 40
0.68359375
 40
0.685546875
 40
0.6865234375
 40
0.6870117188
 40
0.6875
 40
0.6879882812
 40
0.6884765625
 40
0.689453125
 40
0.69140625
 40
0.693359375
 40
0.6953125
 40
0.69921875
 40
0.703125
 40
0.70703125
 40
0.7109375
 40
0.71875
 40
0.7265625
 40
0.73046875
 40
0.734375
 40
0.73828125
 40
0.7421875
 40
0.744140625
 40
0.74609375
 40
0.7470703125
 40
0.748046875
 40
0.7490234375
 40
0.7495117188
 40
0.7497558594
 40
0.75
 40
0.7502441406
 40
0.7504882812
 40
0.7509765625
 40
0.751953125
 40
0.7529296875
 40
0.75390625
 40
0.755859375
 40
0.7578125
 40
0.76171875
 40
0.765625
 40
0.76953125
 40
0.7734375
 40
0.78125
 40
0.7890625
 40
0.79296875
 40
0.796875
 40
0.80078125
 40
0.8046875
 40
0.806640625
 40
0.80859375
 40
0.8095703125
 40
0.810546875
 40
0.8115234375
 40
0.8120117188
 40
0.8122558594
 40
0.8125
 40
0.8127441406
 40
0.8129882812
 40
0.8134765625
 40
0.814453125
 40
0.8154296875
 40
0.81640625
 40
0.818359375
 40
0.8203125
 40
0.82421875
 40
0.828125
 40
0.83203125
 40
0.8359375
 40
0.84375
 40
0.8515625
 40
0.85546875
 40
0.859375
 40
0.86328125
 40
0.8671875
 40
0.869140625
 40
0.87109375
 40
0.8720703125
 40
0.873046875
 40
0.8740234375
 40
0.8745117188
 40
0.8747558594
 40
0.875
 40
0.8752441406
 40
0.8754882812
 40
0.8759765625
 40
0.876953125
 40
0.8779296875
 40
0.87890625
 40
0.880859375
 40
0.8828125
 40
0.88671875
 40
0.890625
 40
0.89453125
 40
0.8984375
 40
0.90625
 40
0.9140625
 40
0.91796875
 40
0.921875
 40
0.92578125
 40
0.9296875
 40
0.931640625
 40
0.93359375
 40
0.9345703125
 40
0.935546875
 40
0.9365234375
 40
0.9370117188
 40
0.9372558594
 40
0.9375
 40
0.9377441406
 40
0.9379882812
 40
0.9384765625
 40
0.939453125
 40
0.9404296875
 40
0.94140625
 40
0.943359375
 40
0.9453125
 40
0.94921875
 40
0.953125
 40
0.95703125
 40
0.9609375
 40
0.96875
 40
0.9765625
 40
0.984375
 40
1.0
 40
1.0
 40
1.0
 40
1.0
 10
12.8178679562
 20
8.6668306013
 30
0.0
 10
12.817028422
 20
8.6657124618
 30
0.0
 10
12.8157691208
 20
8.6640352527
 30
0.0
 10
12.8140900525
 20
8.6617989738
 30
0.0
 10
12.8128307512
 20
8.6601217646
 30
0.0
 10
12.8117813335
 20
8.6587240904
 30
0.0
 10
12.8109417994
 20
8.6576059507
 30
0.0
 10
12.8103121487
 20
8.656767347
 30
0.0
 10
12.8096824983
 20
8.655928739
 30
0.0
 10
12.8091577888
 20
8.6552299127
 30
0.0
 10
12.808738023
 20
8.6546708208
 30
0.0
 10
12.8084756654
 20
8.6543214586
 30
0.0
 10
12.8082657883
 20
8.654041808
 30
0.0
 10
12.8081083559
 20
8.6538325107
 30
0.0
 10
12.8079772406
 20
8.6536566943
 30
0.0
 10
12.807885306
 20
8.6535363741
 30
0.0
 10
12.8078330122
 20
8.6534633239
 30
0.0
 10
12.8077931151
 20
8.6534206376
 30
0.0
 10
12.8077558048
 20
8.6533316936
 30
0.0
 10
12.8077051555
 20
8.6532292368
 30
0.0
 10
12.8076169395
 20
8.6530424197
 30
0.0
 10
12.8074906969
 20
8.6527794684
 30
0.0
 10
12.8073392998
 20
8.6524622446
 30
0.0
 10
12.8071374042
 20
8.6520398671
 30
0.0
 10
12.8068850459
 20
8.6515116941
 30
0.0
 10
12.8064812664
 20
8.6506667297
 30
0.0
 10
12.8059765441
 20
8.6496104856
 30
0.0
 10
12.8053708765
 20
8.6483430092
 30
0.0
 10
12.8047652091
 20
8.6470755284
 30
0.0
 10
12.8039576526
 20
8.6453855555
 30
0.0
 10
12.8029482069
 20
8.6432730888
 30
0.0
 10
12.8019387611
 20
8.6411606225
 30
0.0
 10
12.8011312046
 20
8.6394706491
 30
0.0
 10
12.8005255371
 20
8.63820317
 30
0.0
 10
12.79991987
 20
8.636935687
 30
0.0
 10
12.799415146
 20
8.6358794634
 30
0.0
 10
12.7990113701
 20
8.6350344571
 30
0.0
 10
12.7987590025
 20
8.6345063906
 30
0.0
 10
12.7985571261
 20
8.6340837945
 30
0.0
 10
12.7984056704
 20
8.6337672386
 30
0.0
 10
12.7982796112
 20
8.6335021978
 30
0.0
 10
12.7981910678
 20
8.6333191108
 30
0.0
 10
12.798140943
 20
8.6332106774
 30
0.0
 10
12.7981020216
 20
8.6331400916
 30
0.0
 10
12.7980681753
 20
8.6330284551
 30
0.0
 10
12.7980212767
 20
8.6328939254
 30
0.0
 10
12.7979400289
 20
8.632651827
 30
0.0
 10
12.7978235294
 20
8.63230946
 30
0.0
 10
12.7976839146
 20
8.6318971266
 30
0.0
 10
12.7974976971
 20
8.6313478703
 30
0.0
 10
12.7972649472
 20
8.6306611214
 30
0.0
 10
12.7968925351
 20
8.6295624229
 30
0.0
 10
12.7964270241
 20
8.6281890155
 30
0.0
 10
12.7958684092
 20
8.6265409413
 30
0.0
 10
12.7953097948
 20
8.6248928632
 30
0.0
 10
12.7945649753
 20
8.6226954271
 30
0.0
 10
12.7936339511
 20
8.6199486316
 30
0.0
 10
12.7927029269
 20
8.6172018358
 30
0.0
 10
12.7919581074
 20
8.6150044002
 30
0.0
 10
12.7913994932
 20
8.6133563207
 30
0.0
 10
12.7908408773
 20
8.6117082516
 30
0.0
 10
12.7903753695
 20
8.6103348284
 30
0.0
 10
12.790002951
 20
8.6092361621
 30
0.0
 10
12.7897702173
 20
8.6085493313
 30
0.0
 10
12.7895839665
 20
8.608000243
 30
0.0
 10
12.7894444533
 20
8.6075873964
 30
0.0
 10
12.7893276359
 20
8.6072466354
 30
0.0
 10
12.7892354298
 20
8.606966675
 30
0.0
 10
12.7891628658
 20
8.6067767928
 30
0.0
 10
12.7891033155
 20
8.6065102338
 30
0.0
 10
12.7890193693
 20
8.6061816061
 30
0.0
 10
12.7889159962
 20
8.6057616319
 30
0.0
 10
12.7887912809
 20
8.6052615963
 30
0.0
 10
12.788625227
 20
8.6045935083
 30
0.0
 10
12.7884175798
 20
8.6037588687
 30
0.0
 10
12.7880853889
 20
8.6024231825
 30
0.0
 10
12.787670135
 20
8.6007536649
 30
0.0
 10
12.7871718368
 20
8.5987502051
 30
0.0
 10
12.7866735369
 20
8.5967467556
 30
0.0
 10
12.7860091376
 20
8.594075486
 30
0.0
 10
12.7851786379
 20
8.5907364011
 30
0.0
 10
12.7841820404
 20
8.5867294943
 30
0.0
 10
12.7833515362
 20
8.5833904189
 30
0.0
 10
12.7826871468
 20
8.5807191284
 30
0.0
 10
12.7822718718
 20
8.5790496404
 30
0.0
 10
12.7819397243
 20
8.5777138931
 30
0.0
 10
12.7816904149
 20
8.5767125121
 30
0.0
 10
12.7814832895
 20
8.5758766617
 30
0.0
 10
12.7813370606
 20
8.5752942477
 30
0.0
 10
12.781255439
 20
8.5749572531
 30
0.0
 10
12.7811887643
 20
8.5747163009
 30
0.0
 10
12.7811429547
 20
8.5744302668
 30
0.0
 10
12.7810745972
 20
8.574064613
 30
0.0
 10
12.7809583626
 20
8.5734173924
 30
0.0
 10
12.7807905403
 20
8.5724966219
 30
0.0
 10
12.7805899124
 20
8.5713900578
 30
0.0
 10
12.7803221435
 20
8.5699152116
 30
0.0
 10
12.7799875231
 20
8.5680714578
 30
0.0
 10
12.7794520798
 20
8.5651215613
 30
0.0
 10
12.7787827927
 20
8.5614341535
 30
0.0
 10
12.7779796423
 20
8.5570092778
 30
0.0
 10
12.777176488
 20
8.5525844069
 30
0.0
 10
12.7765072109
 20
8.548896987
 30
0.0
 10
12.7759717476
 20
8.5459471148
 30
0.0
 10
12.7756371779
 20
8.5441032992
 30
0.0
 10
12.7753693049
 20
8.5426285798
 30
0.0
 10
12.7751689951
 20
8.5415216284
 30
0.0
 10
12.7750001775
 20
8.5406020696
 30
0.0
 10
12.7748693686
 20
8.5398599168
 30
0.0
 10
12.774759662
 20
8.5393210789
 30
0.0
 10
12.7746942327
 20
8.5387143874
 30
0.0
 10
12.774591527
 20
8.5379291675
 30
0.0
 10
12.7744684513
 20
8.5369395106
 30
0.0
 10
12.7743184892
 20
8.535755403
 30
0.0
 10
12.7741193331
 20
8.5341753772
 30
0.0
 10
12.7738701163
 20
8.5322007612
 30
0.0
 10
12.7734715211
 20
8.5290411431
 30
0.0
 10
12.7729732265
 20
8.5250916994
 30
0.0
 10
12.7723752885
 20
8.5203523367
 30
0.0
 10
12.7717773692
 20
8.5156129686
 30
0.0
 10
12.7712790278
 20
8.5116635382
 30
0.0
 10
12.770880526
 20
8.5085038935
 30
0.0
 10
12.770581181
 20
8.5061344353
 30
0.0
 10
12.7703332174
 20
8.504159011
 30
0.0
 10
12.7701567178
 20
8.5027779327
 30
0.0
 10
12.7700604282
 20
8.5019860614
 30
0.0
 10
12.7699753449
 20
8.5013997179
 30
0.0
 10
12.7699394423
 20
8.5007844767
 30
0.0
 10
12.7698744174
 20
8.499974235
 30
0.0
 10
12.7697686166
 20
8.4985516156
 30
0.0
 10
12.7696132939
 20
8.4965217575
 30
0.0
 10
12.7694286953
 20
8.4940848769
 30
0.0
 10
12.7691819388
 20
8.4908360698
 30
0.0
 10
12.7688737092
 20
8.4867749347
 30
0.0
 10
12.7685037345
 20
8.4819016277
 30
0.0
 10
12.7681338107
 20
8.4770283026
 30
0.0
 10
12.7678254539
 20
8.4729672126
 30
0.0
 10
12.7675789517
 20
8.4697183153
 30
0.0
 10
12.7673935775
 20
8.4672817099
 30
0.0
 10
12.7672406813
 20
8.4652509907
 30
0.0
 10
12.7671305487
 20
8.4638299085
 30
0.0
 10
12.7670724645
 20
8.4630172038
 30
0.0
 10
12.7670152423
 20
8.4624095283
 30
0.0
 10
12.767010232
 20
8.4617947693
 30
0.0
 10
12.7669853396
 20
8.4609775615
 30
0.0
 10
12.7669502631
 20
8.4595462967
 30
0.0
 10
12.7668957177
 20
8.4575022344
 30
0.0
 10
12.7668321621
 20
8.4550491022
 30
0.0
 10
12.7667467579
 20
8.4517783491
 30
0.0
 10
12.7666402304
 20
8.447689877
 30
0.0
 10
12.7665122991
 20
8.4427837229
 30
0.0
 10
12.7663843966
 20
8.4378775686
 30
0.0
 10
12.7662777972
 20
8.433789097
 30
0.0
 10
12.7661925369
 20
8.430518343
 30
0.0
 10
12.766139208
 20
8.4284740684
 30
0.0
 10
12.7660966391
 20
8.426838771
 30
0.0
 10
12.7660644542
 20
8.4256119632
 30
0.0
 10
12.7660384552
 20
8.424590688
 30
0.0
 10
12.7660186432
 20
8.4238737063
 30
0.0
 10
12.7660098401
 20
8.4234672642
 30
0.0
 10
12.7659961445
 20
8.4231532441
 30
0.0
 10
12.766009563
 20
8.4228743475
 30
0.0
 10
12.7660179965
 20
8.4224902338
 30
0.0
 10
12.7660371618
 20
8.421823743
 30
0.0
 10
12.766062237
 20
8.4208686291
 30
0.0
 10
12.7660933133
 20
8.4197237697
 30
0.0
 10
12.7661344039
 20
8.4181968444
 30
0.0
 10
12.7661858851
 20
8.4162883405
 30
0.0
 10
12.7662681891
 20
8.4132346489
 30
0.0
 10
12.766371092
 20
8.4094175639
 30
0.0
 10
12.7664945649
 20
8.4048370482
 30
0.0
 10
12.766618043
 20
8.4002565402
 30
0.0
 10
12.7667209331
 20
8.3964394361
 30
0.0
 10
12.7668032626
 20
8.3933857827
 30
0.0
 10
12.7668546789
 20
8.3914771817
 30
0.0
 10
12.7668959029
 20
8.3899504558
 30
0.0
 10
12.7669265719
 20
8.388804987
 30
0.0
 10
12.7669529213
 20
8.3878517798
 30
0.0
 10
12.7669698118
 20
8.3871818853
 30
0.0
 10
12.7669818901
 20
8.3868032253
 30
0.0
 10
12.7669841133
 20
8.3865075766
 30
0.0
 10
12.767012465
 20
8.3862564742
 30
0.0
 10
12.7670411534
 20
8.3859061327
 30
0.0
 10
12.7670956044
 20
8.3853002747
 30
0.0
 10
12.7671711715
 20
8.3844309783
 30
0.0
 10
12.7672628022
 20
8.3833894427
 30
0.0
 10
12.7673846446
 20
8.3820001627
 30
0.0
 10
12.7675370613
 20
8.3802637565
 30
0.0
 10
12.7677808645
 20
8.3774853982
 30
0.0
 10
12.7680856404
 20
8.3740124878
 30
0.0
 10
12.7684513615
 20
8.3698449779
 30
0.0
 10
12.7688170874
 20
8.3656774781
 30
0.0
 10
12.7691218511
 20
8.3622045422
 30
0.0
 10
12.7693656786
 20
8.3594262349
 30
0.0
 10
12.7695180334
 20
8.3576896991
 30
0.0
 10
12.7696400029
 20
8.3563006851
 30
0.0
 10
12.7697312454
 20
8.355258337
 30
0.0
 10
12.7698080272
 20
8.3543915826
 30
0.0
 10
12.7698603098
 20
8.3537811867
 30
0.0
 10
12.7698924725
 20
8.353438116
 30
0.0
 10
12.7699101522
 20
8.3531646802
 30
0.0
 10
12.7699524578
 20
8.3529529119
 30
0.0
 10
12.7700002755
 20
8.3526490439
 30
0.0
 10
12.7700879586
 20
8.352127297
 30
0.0
 10
12.7702111278
 20
8.3513767045
 30
0.0
 10
12.7703598265
 20
8.3504782364
 30
0.0
 10
12.7705577786
 20
8.3492794954
 30
0.0
 10
12.7708053258
 20
8.3477813375
 30
0.0
 10
12.7712013415
 20
8.3453841349
 30
0.0
 10
12.7716963817
 20
8.3423876829
 30
0.0
 10
12.7722904212
 20
8.338791919
 30
0.0
 10
12.7727854556
 20
8.3357954526
 30
0.0
 10
12.7731814838
 20
8.3333982819
 30
0.0
 10
12.773478502
 20
8.3316003946
 30
0.0
 10
12.773775532
 20
8.3298025431
 30
0.0
 10
12.7740230198
 20
8.3283042219
 30
0.0
 10
12.7742210935
 20
8.3271058148
 30
0.0
 10
12.7743694209
 20
8.3262063268
 30
0.0
 10
12.7744937517
 20
8.3254589251
 30
0.0
 10
12.7745793612
 20
8.3249314823
 30
0.0
 10
12.7746305013
 20
8.3246367404
 30
0.0
 10
12.7746626017
 20
8.3243969395
 30
0.0
 10
12.7747186106
 20
8.3242287899
 30
0.0
 10
12.7747849495
 20
8.3239795976
 30
0.0
 10
12.7749049282
 20
8.3235551558
 30
0.0
 10
12.775074295
 20
8.3229427224
 30
0.0
 10
12.7752784046
 20
8.3222104081
 30
0.0
 10
12.775550247
 20
8.3212330788
 30
0.0
 10
12.7758901543
 20
8.3200117296
 30
0.0
 10
12.7762979983
 20
8.3185459766
 30
0.0
 10
12.7767058543
 20
8.3170802594
 30
0.0
 10
12.7772496581
 20
8.3151259574
 30
0.0
 10
12.7779294142
 20
8.3126830841
 30
0.0
 10
12.7786091699
 20
8.3102402091
 30
0.0
 10
12.7791529746
 20
8.3082859099
 30
0.0
 10
12.7795608278
 20
8.3068201842
 30
0.0
 10
12.779968682
 20
8.3053544631
 30
0.0
 10
12.7803085578
 20
8.3041330148
 30
0.0
 10
12.7805804643
 20
8.3031558877
 30
0.0
 10
12.7807503926
 20
8.3025451112
 30
0.0
 10
12.7808863656
 20
8.302056655
 30
0.0
 10
12.7809882621
 20
8.3016898614
 30
0.0
 10
12.7810734408
 20
8.3013856359
 30
0.0
 10
12.781132546
 20
8.3011698603
 30
0.0
 10
12.7811671321
 20
8.3010509597
 30
0.0
 10
12.7811907852
 20
8.3009493901
 30
0.0
 10
12.7812231782
 20
8.3008951974
 30
0.0
 10
12.7812633204
 20
8.3008064149
 30
0.0
 10
12.7813349896
 20
8.3006587451
 30
0.0
 10
12.7814366316
 20
8.3004437627
 30
0.0
 10
12.7815589198
 20
8.300187507
 30
0.0
 10
12.7817218597
 20
8.2998452308
 30
0.0
 10
12.7819255726
 20
8.2994175917
 30
0.0
 10
12.7822514921
 20
8.2987332539
 30
0.0
 10
12.7826588986
 20
8.2978778712
 30
0.0
 10
12.7831477834
 20
8.296851395
 30
0.0
 10
12.783636669
 20
8.2958249234
 30
0.0
 10
12.7842885162
 20
8.2944562929
 30
0.0
 10
12.7851033253
 20
8.2927455054
 30
0.0
 10
12.7859181343
 20
8.2910347175
 30
0.0
 10
12.7865699816
 20
8.2896660877
 30
0.0
 10
12.7870588669
 20
8.2886396141
 30
0.0
 10
12.7875477528
 20
8.2876131452
 30
0.0
 10
12.7879551556
 20
8.28675774
 30
0.0
 10
12.7882810828
 20
8.2860734481
 30
0.0
 10
12.788484776
 20
8.2856456921
 30
0.0
 10
12.7886477564
 20
8.2853036559
 30
0.0
 10
12.7887699211
 20
8.2850466671
 30
0.0
 10
12.7888719495
 20
8.2848339783
 30
0.0
 10
12.7889429288
 20
8.2846822141
 30
0.0
 10
12.7889841764
 20
8.2845999919
 30
0.0
 10
12.7890131739
 20
8.284525648
 30
0.0
 10
12.7890495801
 20
8.2844997628
 30
0.0
 10
12.7890955375
 20
8.2844483463
 30
0.0
 10
12.7891771669
 20
8.2843662428
 30
0.0
 10
12.789293151
 20
8.2842448347
 30
0.0
 10
12.7894326012
 20
8.2841009074
 30
0.0
 10
12.7896184408
 20
8.2839083887
 30
0.0
 10
12.7898507725
 20
8.2836679512
 30
0.0
 10
12.7902224851
 20
8.2832831332
 30
0.0
 10
12.7906871322
 20
8.2828021513
 30
0.0
 10
12.791244706
 20
8.2822249556
 30
0.0
 10
12.7918022805
 20
8.2816477645
 30
0.0
 10
12.7925457129
 20
8.2808781749
 30
0.0
 10
12.7934750035
 20
8.2799161883
 30
0.0
 10
12.794404294
 20
8.2789542014
 30
0.0
 10
12.7951477265
 20
8.2781846124
 30
0.0
 10
12.7957053008
 20
8.2776074194
 30
0.0
 10
12.7962628755
 20
8.2770302312
 30
0.0
 10
12.7967275196
 20
8.2765492259
 30
0.0
 10
12.7970992383
 20
8.2761644555
 30
0.0
 10
12.7973315547
 20
8.2759238969
 30
0.0
 10
12.7975174256
 20
8.2757316268
 30
0.0
 10
12.79765678
 20
8.27558694
 30
0.0
 10
12.7977730638
 20
8.2754679081
 30
0.0
 10
12.7978541581
 20
8.2753815627
 30
0.0
 10
12.797900973
 20
8.2753369428
 30
0.0
 10
12.7979347452
 20
8.2752901804
 30
0.0
 10
12.7979736355
 20
8.2752942479
 30
0.0
 10
12.7980237039
 20
8.2752819412
 30
0.0
 10
12.7981121554
 20
8.2752686653
 30
0.0
 10
12.7982380799
 20
8.2752453808
 30
0.0
 10
12.7983893754
 20
8.275219288
 30
0.0
 10
12.7985910378
 20
8.2751838519
 30
0.0
 10
12.7988431379
 20
8.2751397779
 30
0.0
 10
12.7992464858
 20
8.275069136
 30
0.0
 10
12.7997506748
 20
8.274980876
 30
0.0
 10
12.8003556999
 20
8.2748749457
 30
0.0
 10
12.8009607254
 20
8.2747690204
 30
0.0
 10
12.8017674259
 20
8.2746277849
 30
0.0
 10
12.8027758017
 20
8.2744512411
 30
0.0
 10
12.8037841774
 20
8.274274697
 30
0.0
 10
12.804590878
 20
8.2741334621
 30
0.0
 10
12.8051959033
 20
8.2740275347
 30
0.0
 10
12.805800929
 20
8.2739216123
 30
0.0
 10
12.806305116
 20
8.273833328
 30
0.0
 10
12.8067084681
 20
8.2737627355
 30
0.0
 10
12.8069605573
 20
8.2737185356
 30
0.0
 10
12.8071622421
 20
8.2736833581
 30
0.0
 10
12.807313469
 20
8.2736564754
 30
0.0
 10
12.8074396082
 20
8.2736356623
 30
0.0
 10
12.8075276764
 20
8.2736179745
 30
0.0
 10
12.807578359
 20
8.2736127367
 30
0.0
 10
12.8076153629
 20
8.2735950907
 30
0.0
 10
12.8076562198
 20
8.2736298807
 30
0.0
 10
12.8077093516
 20
8.2736579772
 30
0.0
 10
12.8078029585
 20
8.2737156677
 30
0.0
 10
12.8079363553
 20
8.2737936275
 30
0.0
 10
12.8080965716
 20
8.2738890863
 30
0.0
 10
12.8083101444
 20
8.2740156985
 30
0.0
 10
12.8085771271
 20
8.2741741919
 30
0.0
 10
12.8090042901
 20
8.2744276539
 30
0.0
 10
12.809538247
 20
8.2747445251
 30
0.0
 10
12.8101789939
 20
8.2751247517
 30
0.0
 10
12.8108197412
 20
8.2755049834
 30
0.0
 10
12.8116740708
 20
8.2760119573
 30
0.0
 10
12.8127419829
 20
8.2766456752
 30
0.0
 10
12.8140234774
 20
8.2774061364
 30
0.0
 10
12.8157321366
 20
8.2784200847
 30
0.0
 10
12.8170136311
 20
8.279180546
 30
0.0
 10
12.8178679607
 20
8.2796875202
 30
0.0
  0
SPLINE
  5
3C0
100
AcDbEntity
  8
0
100
AcDbSpline
 62
4
  6
CONTINUOUS
 70
0
 71
3
 72
345
 73
341
 74
0
 42
0.0000001
 43
0.0000001
 44
0.0000000001
 40
0.0
 40
0.0
 40
0.0
 40
0.0
 40
0.015625
 40
0.0234375
 40
0.03125
 40
0.0390625
 40
0.04296875
 40
0.046875
 40
0.05078125
 40
0.0546875
 40
0.056640625
 40
0.05859375
 40
0.0595703125
 40
0.060546875
 40
0.0615234375
 40
0.0620117188
 40
0.0622558594
 40
0.0625
 40
0.0627441406
 40
0.0629882812
 40
0.0634765625
 40
0.064453125
 40
0.0654296875
 40
0.06640625
 40
0.068359375
 40
0.0703125
 40
0.07421875
 40
0.078125
 40
0.08203125
 40
0.0859375
 40
0.09375
 40
0.1015625
 40
0.10546875
 40
0.109375
 40
0.11328125
 40
0.1171875
 40
0.119140625
 40
0.12109375
 40
0.1220703125
 40
0.123046875
 40
0.1240234375
 40
0.1245117188
 40
0.1247558594
 40
0.125
 40
0.1252441406
 40
0.1254882812
 40
0.1259765625
 40
0.126953125
 40
0.1279296875
 40
0.12890625
 40
0.130859375
 40
0.1328125
 40
0.13671875
 40
0.140625
 40
0.14453125
 40
0.1484375
 40
0.15625
 40
0.1640625
 40
0.16796875
 40
0.171875
 40
0.17578125
 40
0.1796875
 40
0.181640625
 40
0.18359375
 40
0.1845703125
 40
0.185546875
 40
0.1865234375
 40
0.1870117188
 40
0.1875
 40
0.1879882812
 40
0.1884765625
 40
0.189453125
 40
0.1904296875
 40
0.19140625
 40
0.193359375
 40
0.1953125
 40
0.19921875
 40
0.203125
 40
0.20703125
 40
0.2109375
 40
0.21875
 40
0.2265625
 40
0.234375
 40
0.23828125
 40
0.2421875
 40
0.244140625
 40
0.24609375
 40
0.248046875
 40
0.2490234375
 40
0.2495117188
 40
0.25
 40
0.2504882812
 40
0.2509765625
 40
0.251953125
 40
0.25390625
 40
0.255859375
 40
0.2578125
 40
0.26171875
 40
0.265625
 40
0.2734375
 40
0.28125
 40
0.2890625
 40
0.296875
 40
0.30078125
 40
0.3046875
 40
0.306640625
 40
0.30859375
 40
0.310546875
 40
0.3115234375
 40
0.3125
 40
0.3134765625
 40
0.314453125
 40
0.31640625
 40
0.318359375
 40
0.3203125
 40
0.32421875
 40
0.328125
 40
0.3359375
 40
0.34375
 40
0.3515625
 40
0.359375
 40
0.36328125
 40
0.3671875
 40
0.37109375
 40
0.373046875
 40
0.3740234375
 40
0.375
 40
0.3759765625
 40
0.376953125
 40
0.37890625
 40
0.3828125
 40
0.38671875
 40
0.390625
 40
0.3984375
 40
0.40625
 40
0.4140625
 40
0.421875
 40
0.42578125
 40
0.4296875
 40
0.43359375
 40
0.435546875
 40
0.4365234375
 40
0.4375
 40
0.4384765625
 40
0.439453125
 40
0.44140625
 40
0.4453125
 40
0.44921875
 40
0.453125
 40
0.4609375
 40
0.46875
 40
0.4765625
 40
0.484375
 40
0.48828125
 40
0.4921875
 40
0.494140625
 40
0.49609375
 40
0.498046875
 40
0.4990234375
 40
0.4995117188
 40
0.5
 40
0.5004882812
 40
0.5009765625
 40
0.501953125
 40
0.50390625
 40
0.505859375
 40
0.5078125
 40
0.51171875
 40
0.515625
 40
0.5234375
 40
0.53125
 40
0.5390625
 40
0.546875
 40
0.55078125
 40
0.5546875
 40
0.556640625
 40
0.55859375
 40
0.560546875
 40
0.5615234375
 40
0.5620117188
 40
0.5625
 40
0.5629882812
 40
0.5634765625
 40
0.564453125
 40
0.56640625
 40
0.568359375
 40
0.5703125
 40
0.57421875
 40
0.578125
 40
0.5859375
 40
0.59375
 40
0.6015625
 40
0.609375
 40
0.61328125
 40
0.6171875
 40
0.619140625
 40
0.62109375
 40
0.623046875
 40
0.6240234375
 40
0.6245117188
 40
0.625
 40
0.6254882812
 40
0.6259765625
 40
0.626953125
 40
0.62890625
 40
0.630859375
 40
0.6328125
 40
0.63671875
 40
0.640625
 40
0.6484375
 40
0.65625
 40
0.6640625
 40
0.66796875
 40
0.671875
 40
0.67578125
 40
0.6796875
 40
0.681640625
 40
0.68359375
 40
0.685546875
 40
0.6865234375
 40
0.6870117188
 40
0.6875
 40
0.6879882812
 40
0.6884765625
 40
0.689453125
 40
0.69140625
 40
0.693359375
 40
0.6953125
 40
0.69921875
 40
0.703125
 40
0.70703125
 40
0.7109375
 40
0.71875
 40
0.7265625
 40
0.73046875
 40
0.734375
 40
0.73828125
 40
0.7421875
 40
0.744140625
 40
0.74609375
 40
0.7470703125
 40
0.748046875
 40
0.7490234375
 40
0.7495117188
 40
0.7497558594
 40
0.75
 40
0.7502441406
 40
0.7504882812
 40
0.7509765625
 40
0.751953125
 40
0.7529296875
 40
0.75390625
 40
0.755859375
 40
0.7578125
 40
0.76171875
 40
0.765625
 40
0.76953125
 40
0.7734375
 40
0.78125
 40
0.7890625
 40
0.79296875
 40
0.796875
 40
0.80078125
 40
0.8046875
 40
0.806640625
 40
0.80859375
 40
0.8095703125
 40
0.810546875
 40
0.8115234375
 40
0.8120117188
 40
0.8122558594
 40
0.8125
 40
0.8127441406
 40
0.8129882812
 40
0.8134765625
 40
0.814453125
 40
0.8154296875
 40
0.81640625
 40
0.818359375
 40
0.8203125
 40
0.82421875
 40
0.828125
 40
0.83203125
 40
0.8359375
 40
0.84375
 40
0.8515625
 40
0.85546875
 40
0.859375
 40
0.86328125
 40
0.8671875
 40
0.869140625
 40
0.87109375
 40
0.8720703125
 40
0.873046875
 40
0.8740234375
 40
0.8745117188
 40
0.8747558594
 40
0.875
 40
0.8752441406
 40
0.8754882812
 40
0.8759765625
 40
0.876953125
 40
0.8779296875
 40
0.87890625
 40
0.880859375
 40
0.8828125
 40
0.88671875
 40
0.890625
 40
0.89453125
 40
0.8984375
 40
0.90625
 40
0.9140625
 40
0.91796875
 40
0.921875
 40
0.92578125
 40
0.9296875
 40
0.931640625
 40
0.93359375
 40
0.9345703125
 40
0.935546875
 40
0.9365234375
 40
0.9370117188
 40
0.9372558594
 40
0.9375
 40
0.9377441406
 40
0.9379882812
 40
0.9384765625
 40
0.939453125
 40
0.9404296875
 40
0.94140625
 40
0.943359375
 40
0.9453125
 40
0.94921875
 40
0.953125
 40
0.95703125
 40
0.9609375
 40
0.96875
 40
0.9765625
 40
0.984375
 40
1.0
 40
1.0
 40
1.0
 40
1.0
 10
12.8178679562
 20
8.2796875158
 30
0.0
 10
12.8187074904
 20
8.2808056552
 30
0.0
 10
12.8199667916
 20
8.2824828644
 30
0.0
 10
12.8216458599
 20
8.2847191433
 30
0.0
 10
12.8229051612
 20
8.2863963525
 30
0.0
 10
12.8239545789
 20
8.2877940266
 30
0.0
 10
12.824794113
 20
8.2889121664
 30
0.0
 10
12.8254237637
 20
8.28975077
 30
0.0
 10
12.8260534141
 20
8.2905893781
 30
0.0
 10
12.8265781236
 20
8.2912882044
 30
0.0
 10
12.8269978894
 20
8.2918472963
 30
0.0
 10
12.827260247
 20
8.2921966584
 30
0.0
 10
12.8274701241
 20
8.2924763091
 30
0.0
 10
12.8276275565
 20
8.2926856064
 30
0.0
 10
12.8277586718
 20
8.2928614228
 30
0.0
 10
12.8278506064
 20
8.292981743
 30
0.0
 10
12.8279029002
 20
8.2930547932
 30
0.0
 10
12.8279427973
 20
8.2930974795
 30
0.0
 10
12.8279801076
 20
8.2931864235
 30
0.0
 10
12.8280307569
 20
8.2932888803
 30
0.0
 10
12.8281189729
 20
8.2934756974
 30
0.0
 10
12.8282452155
 20
8.2937386487
 30
0.0
 10
12.8283966126
 20
8.2940558725
 30
0.0
 10
12.8285985082
 20
8.2944782499
 30
0.0
 10
12.8288508665
 20
8.295006423
 30
0.0
 10
12.829254646
 20
8.2958513874
 30
0.0
 10
12.8297593683
 20
8.2969076315
 30
0.0
 10
12.8303650359
 20
8.2981751079
 30
0.0
 10
12.8309707033
 20
8.2994425887
 30
0.0
 10
12.8317782598
 20
8.3011325616
 30
0.0
 10
12.8327877055
 20
8.3032450283
 30
0.0
 10
12.8337971513
 20
8.3053574946
 30
0.0
 10
12.8346047078
 20
8.307047468
 30
0.0
 10
12.8352103753
 20
8.3083149471
 30
0.0
 10
12.8358160424
 20
8.3095824301
 30
0.0
 10
12.8363207664
 20
8.3106386537
 30
0.0
 10
12.8367245423
 20
8.3114836599
 30
0.0
 10
12.8369769099
 20
8.3120117265
 30
0.0
 10
12.8371787863
 20
8.3124343226
 30
0.0
 10
12.837330242
 20
8.3127508785
 30
0.0
 10
12.8374563012
 20
8.3130159193
 30
0.0
 10
12.8375448446
 20
8.3131990063
 30
0.0
 10
12.8375949694
 20
8.3133074397
 30
0.0
 10
12.8376338908
 20
8.3133780255
 30
0.0
 10
12.8376677371
 20
8.313489662
 30
0.0
 10
12.8377146357
 20
8.3136241917
 30
0.0
 10
12.8377958835
 20
8.3138662901
 30
0.0
 10
12.837912383
 20
8.3142086571
 30
0.0
 10
12.8380519978
 20
8.3146209904
 30
0.0
 10
12.8382382153
 20
8.3151702467
 30
0.0
 10
12.8384709652
 20
8.3158569957
 30
0.0
 10
12.8388433773
 20
8.3169556942
 30
0.0
 10
12.8393088883
 20
8.3183291016
 30
0.0
 10
12.8398675032
 20
8.3199771758
 30
0.0
 10
12.8404261176
 20
8.3216252539
 30
0.0
 10
12.8411709371
 20
8.32382269
 30
0.0
 10
12.8421019613
 20
8.3265694855
 30
0.0
 10
12.8430329855
 20
8.3293162812
 30
0.0
 10
12.843777805
 20
8.3315137169
 30
0.0
 10
12.8443364192
 20
8.3331617964
 30
0.0
 10
12.8448950351
 20
8.3348098655
 30
0.0
 10
12.8453605429
 20
8.3361832886
 30
0.0
 10
12.8457329614
 20
8.337281955
 30
0.0
 10
12.8459656951
 20
8.3379687858
 30
0.0
 10
12.8461519459
 20
8.3385178741
 30
0.0
 10
12.8462914591
 20
8.3389307207
 30
0.0
 10
12.8464082765
 20
8.3392714817
 30
0.0
 10
12.8465004826
 20
8.3395514421
 30
0.0
 10
12.8465730466
 20
8.3397413243
 30
0.0
 10
12.8466325969
 20
8.3400078832
 30
0.0
 10
12.8467165431
 20
8.340336511
 30
0.0
 10
12.8468199162
 20
8.3407564851
 30
0.0
 10
12.8469446315
 20
8.3412565208
 30
0.0
 10
12.8471106854
 20
8.3419246088
 30
0.0
 10
12.8473183326
 20
8.3427592483
 30
0.0
 10
12.8476505235
 20
8.3440949346
 30
0.0
 10
12.8480657774
 20
8.3457644522
 30
0.0
 10
12.8485640756
 20
8.347767912
 30
0.0
 10
12.8490623755
 20
8.3497713614
 30
0.0
 10
12.8497267748
 20
8.3524426311
 30
0.0
 10
12.8505572745
 20
8.355781716
 30
0.0
 10
12.851553872
 20
8.3597886228
 30
0.0
 10
12.8523843761
 20
8.3631276982
 30
0.0
 10
12.8530487656
 20
8.3657989886
 30
0.0
 10
12.8534640406
 20
8.3674684767
 30
0.0
 10
12.8537961881
 20
8.368804224
 30
0.0
 10
12.8540454975
 20
8.3698056049
 30
0.0
 10
12.8542526229
 20
8.3706414554
 30
0.0
 10
12.8543988517
 20
8.3712238694
 30
0.0
 10
12.8544804734
 20
8.371560864
 30
0.0
 10
12.8545471481
 20
8.3718018162
 30
0.0
 10
12.8545929577
 20
8.3720878503
 30
0.0
 10
12.8546613152
 20
8.372453504
 30
0.0
 10
12.8547775498
 20
8.3731007247
 30
0.0
 10
12.8549453721
 20
8.3740214952
 30
0.0
 10
12.855146
 20
8.3751280593
 30
0.0
 10
12.8554137689
 20
8.3766029055
 30
0.0
 10
12.8557483893
 20
8.3784466593
 30
0.0
 10
12.8562838326
 20
8.3813965558
 30
0.0
 10
12.8569531197
 20
8.3850839636
 30
0.0
 10
12.8577562701
 20
8.3895088393
 30
0.0
 10
12.8585594244
 20
8.3939337101
 30
0.0
 10
12.8592287015
 20
8.39762113
 30
0.0
 10
12.8597641648
 20
8.4005710023
 30
0.0
 10
12.8600987345
 20
8.4024148179
 30
0.0
 10
12.8603666075
 20
8.4038895373
 30
0.0
 10
12.8605669173
 20
8.4049964887
 30
0.0
 10
12.8607357349
 20
8.4059160475
 30
0.0
 10
12.8608665438
 20
8.4066582002
 30
0.0
 10
12.8609762504
 20
8.4071970382
 30
0.0
 10
12.8610416797
 20
8.4078037297
 30
0.0
 10
12.8611443854
 20
8.4085889496
 30
0.0
 10
12.8612674611
 20
8.4095786065
 30
0.0
 10
12.8614174232
 20
8.4107627141
 30
0.0
 10
12.8616165793
 20
8.4123427399
 30
0.0
 10
12.861865796
 20
8.4143173559
 30
0.0
 10
12.8622643913
 20
8.417476974
 30
0.0
 10
12.8627626859
 20
8.4214264177
 30
0.0
 10
12.8633606239
 20
8.4261657804
 30
0.0
 10
12.8639585432
 20
8.4309051484
 30
0.0
 10
12.8644568846
 20
8.4348545789
 30
0.0
 10
12.8648553864
 20
8.4380142235
 30
0.0
 10
12.8651547313
 20
8.4403836818
 30
0.0
 10
12.8654026949
 20
8.4423591061
 30
0.0
 10
12.8655791946
 20
8.4437401844
 30
0.0
 10
12.8656754842
 20
8.4445320556
 30
0.0
 10
12.8657605675
 20
8.4451183992
 30
0.0
 10
12.8657964701
 20
8.4457336404
 30
0.0
 10
12.865861495
 20
8.4465438821
 30
0.0
 10
12.8659672958
 20
8.4479665015
 30
0.0
 10
12.8661226185
 20
8.4499963596
 30
0.0
 10
12.8663072171
 20
8.4524332402
 30
0.0
 10
12.8665539736
 20
8.4556820473
 30
0.0
 10
12.8668622032
 20
8.4597431823
 30
0.0
 10
12.8672321779
 20
8.4646164894
 30
0.0
 10
12.8676021017
 20
8.4694898145
 30
0.0
 10
12.8679104585
 20
8.4735509044
 30
0.0
 10
12.8681569607
 20
8.4767998018
 30
0.0
 10
12.8683423349
 20
8.4792364072
 30
0.0
 10
12.868495231
 20
8.4812671264
 30
0.0
 10
12.8686053637
 20
8.4826882085
 30
0.0
 10
12.8686634479
 20
8.4835009133
 30
0.0
 10
12.8687206701
 20
8.4841085888
 30
0.0
 10
12.8687256804
 20
8.4847233477
 30
0.0
 10
12.8687505728
 20
8.4855405555
 30
0.0
 10
12.8687856492
 20
8.4869718204
 30
0.0
 10
12.8688401947
 20
8.4890158826
 30
0.0
 10
12.8689037503
 20
8.4914690149
 30
0.0
 10
12.8689891545
 20
8.494739768
 30
0.0
 10
12.869095682
 20
8.49882824
 30
0.0
 10
12.8692236133
 20
8.5037343942
 30
0.0
 10
12.8693515158
 20
8.5086405485
 30
0.0
 10
12.8694581152
 20
8.5127290201
 30
0.0
 10
12.8695433755
 20
8.5159997741
 30
0.0
 10
12.8695967044
 20
8.5180440486
 30
0.0
 10
12.8696392732
 20
8.5196793461
 30
0.0
 10
12.8696714582
 20
8.5209061538
 30
0.0
 10
12.8696974572
 20
8.5219274291
 30
0.0
 10
12.8697172692
 20
8.5226444108
 30
0.0
 10
12.8697260723
 20
8.5230508528
 30
0.0
 10
12.8697397679
 20
8.5233648729
 30
0.0
 10
12.8697263494
 20
8.5236437696
 30
0.0
 10
12.8697179159
 20
8.5240278833
 30
0.0
 10
12.8696987506
 20
8.5246943741
 30
0.0
 10
12.8696736754
 20
8.525649488
 30
0.0
 10
12.8696425991
 20
8.5267943474
 30
0.0
 10
12.8696015085
 20
8.5283212727
 30
0.0
 10
12.8695500273
 20
8.5302297766
 30
0.0
 10
12.8694677232
 20
8.5332834682
 30
0.0
 10
12.8693648204
 20
8.5371005531
 30
0.0
 10
12.8692413475
 20
8.5416810688
 30
0.0
 10
12.8691178694
 20
8.5462615769
 30
0.0
 10
12.8690149793
 20
8.550078681
 30
0.0
 10
12.8689326497
 20
8.5531323344
 30
0.0
 10
12.8688812335
 20
8.5550409354
 30
0.0
 10
12.8688400095
 20
8.5565676613
 30
0.0
 10
12.8688093405
 20
8.55771313
 30
0.0
 10
12.8687829911
 20
8.5586663373
 30
0.0
 10
12.8687661005
 20
8.5593362318
 30
0.0
 10
12.8687540223
 20
8.5597148918
 30
0.0
 10
12.8687517991
 20
8.5600105405
 30
0.0
 10
12.8687234474
 20
8.5602616429
 30
0.0
 10
12.868694759
 20
8.5606119844
 30
0.0
 10
12.868640308
 20
8.5612178424
 30
0.0
 10
12.8685647409
 20
8.5620871388
 30
0.0
 10
12.8684731102
 20
8.5631286744
 30
0.0
 10
12.8683512678
 20
8.5645179544
 30
0.0
 10
12.8681988511
 20
8.5662543606
 30
0.0
 10
12.8679550479
 20
8.5690327189
 30
0.0
 10
12.867650272
 20
8.5725056292
 30
0.0
 10
12.8672845509
 20
8.5766731392
 30
0.0
 10
12.866918825
 20
8.580840639
 30
0.0
 10
12.8666140613
 20
8.5843135748
 30
0.0
 10
12.8663702338
 20
8.5870918822
 30
0.0
 10
12.866217879
 20
8.588828418
 30
0.0
 10
12.8660959095
 20
8.590217432
 30
0.0
 10
12.866004667
 20
8.5912597801
 30
0.0
 10
12.8659278852
 20
8.5921265345
 30
0.0
 10
12.8658756026
 20
8.5927369303
 30
0.0
 10
12.8658434399
 20
8.5930800011
 30
0.0
 10
12.8658257602
 20
8.5933534369
 30
0.0
 10
12.8657834546
 20
8.5935652051
 30
0.0
 10
12.8657356369
 20
8.5938690731
 30
0.0
 10
12.8656479538
 20
8.5943908201
 30
0.0
 10
12.8655247846
 20
8.5951414125
 30
0.0
 10
12.8653760859
 20
8.5960398807
 30
0.0
 10
12.8651781338
 20
8.5972386217
 30
0.0
 10
12.8649305866
 20
8.5987367796
 30
0.0
 10
12.8645345709
 20
8.6011339822
 30
0.0
 10
12.8640395307
 20
8.6041304341
 30
0.0
 10
12.8634454912
 20
8.607726198
 30
0.0
 10
12.8629504568
 20
8.6107226644
 30
0.0
 10
12.8625544286
 20
8.6131198352
 30
0.0
 10
12.8622574104
 20
8.6149177225
 30
0.0
 10
12.8619603804
 20
8.616715574
 30
0.0
 10
12.8617128926
 20
8.6182138952
 30
0.0
 10
12.8615148189
 20
8.6194123022
 30
0.0
 10
12.8613664915
 20
8.6203117902
 30
0.0
 10
12.8612421607
 20
8.621059192
 30
0.0
 10
12.8611565512
 20
8.6215866348
 30
0.0
 10
12.8611054111
 20
8.6218813766
 30
0.0
 10
12.8610733107
 20
8.6221211776
 30
0.0
 10
12.8610173018
 20
8.6222893272
 30
0.0
 10
12.8609509629
 20
8.6225385195
 30
0.0
 10
12.8608309842
 20
8.6229629613
 30
0.0
 10
12.8606616174
 20
8.6235753947
 30
0.0
 10
12.8604575078
 20
8.624307709
 30
0.0
 10
12.8601856654
 20
8.6252850383
 30
0.0
 10
12.8598457581
 20
8.6265063875
 30
0.0
 10
12.8594379141
 20
8.6279721405
 30
0.0
 10
12.8590300581
 20
8.6294378576
 30
0.0
 10
12.8584862543
 20
8.6313921597
 30
0.0
 10
12.8578064982
 20
8.6338350329
 30
0.0
 10
12.8571267425
 20
8.6362779079
 30
0.0
 10
12.8565829378
 20
8.6382322072
 30
0.0
 10
12.8561750846
 20
8.6396979328
 30
0.0
 10
12.8557672304
 20
8.6411636539
 30
0.0
 10
12.8554273546
 20
8.6423851023
 30
0.0
 10
12.8551554481
 20
8.6433622294
 30
0.0
 10
12.8549855198
 20
8.6439730058
 30
0.0
 10
12.8548495468
 20
8.6444614621
 30
0.0
 10
12.8547476503
 20
8.6448282557
 30
0.0
 10
12.8546624716
 20
8.6451324811
 30
0.0
 10
12.8546033664
 20
8.6453482568
 30
0.0
 10
12.8545687803
 20
8.6454671574
 30
0.0
 10
12.8545451272
 20
8.645568727
 30
0.0
 10
12.8545127342
 20
8.6456229197
 30
0.0
 10
12.854472592
 20
8.6457117022
 30
0.0
 10
12.8544009228
 20
8.645859372
 30
0.0
 10
12.8542992808
 20
8.6460743543
 30
0.0
 10
12.8541769926
 20
8.6463306101
 30
0.0
 10
12.8540140527
 20
8.6466728862
 30
0.0
 10
12.8538103398
 20
8.6471005254
 30
0.0
 10
12.8534844203
 20
8.6477848632
 30
0.0
 10
12.8530770138
 20
8.6486402459
 30
0.0
 10
12.852588129
 20
8.6496667221
 30
0.0
 10
12.8520992434
 20
8.6506931937
 30
0.0
 10
12.8514473962
 20
8.6520618242
 30
0.0
 10
12.8506325871
 20
8.6537726117
 30
0.0
 10
12.8498177781
 20
8.6554833995
 30
0.0
 10
12.8491659308
 20
8.6568520294
 30
0.0
 10
12.8486770455
 20
8.6578785029
 30
0.0
 10
12.8481881595
 20
8.6589049719
 30
0.0
 10
12.8477807568
 20
8.6597603771
 30
0.0
 10
12.8474548296
 20
8.660444669
 30
0.0
 10
12.8472511364
 20
8.660872425
 30
0.0
 10
12.847088156
 20
8.6612144612
 30
0.0
 10
12.8469659913
 20
8.66147145
 30
0.0
 10
12.8468639629
 20
8.6616841388
 30
0.0
 10
12.8467929836
 20
8.661835903
 30
0.0
 10
12.846751736
 20
8.6619181252
 30
0.0
 10
12.8467227385
 20
8.661992469
 30
0.0
 10
12.8466863323
 20
8.6620183542
 30
0.0
 10
12.8466403749
 20
8.6620697708
 30
0.0
 10
12.8465587454
 20
8.6621518743
 30
0.0
 10
12.8464427614
 20
8.6622732823
 30
0.0
 10
12.8463033112
 20
8.6624172097
 30
0.0
 10
12.8461174716
 20
8.6626097284
 30
0.0
 10
12.8458851399
 20
8.6628501659
 30
0.0
 10
12.8455134273
 20
8.6632349838
 30
0.0
 10
12.8450487802
 20
8.6637159658
 30
0.0
 10
12.8444912064
 20
8.6642931615
 30
0.0
 10
12.8439336319
 20
8.6648703525
 30
0.0
 10
12.8431901995
 20
8.6656399422
 30
0.0
 10
12.8422609089
 20
8.6666019287
 30
0.0
 10
12.8413316184
 20
8.6675639156
 30
0.0
 10
12.8405881859
 20
8.6683335047
 30
0.0
 10
12.8400306116
 20
8.6689106977
 30
0.0
 10
12.8394730369
 20
8.6694878859
 30
0.0
 10
12.8390083928
 20
8.6699688912
 30
0.0
 10
12.8386366741
 20
8.6703536615
 30
0.0
 10
12.8384043577
 20
8.6705942202
 30
0.0
 10
12.8382184868
 20
8.6707864903
 30
0.0
 10
12.8380791324
 20
8.6709311771
 30
0.0
 10
12.8379628486
 20
8.671050209
 30
0.0
 10
12.8378817543
 20
8.6711365544
 30
0.0
 10
12.8378349394
 20
8.6711811743
 30
0.0
 10
12.8378011672
 20
8.6712279367
 30
0.0
 10
12.8377622769
 20
8.6712238692
 30
0.0
 10
12.8377122085
 20
8.6712361759
 30
0.0
 10
12.837623757
 20
8.6712494518
 30
0.0
 10
12.8374978325
 20
8.6712727363
 30
0.0
 10
12.837346537
 20
8.6712988291
 30
0.0
 10
12.8371448746
 20
8.6713342651
 30
0.0
 10
12.8368927745
 20
8.6713783391
 30
0.0
 10
12.8364894266
 20
8.6714489811
 30
0.0
 10
12.8359852376
 20
8.6715372411
 30
0.0
 10
12.8353802125
 20
8.6716431713
 30
0.0
 10
12.834775187
 20
8.6717490967
 30
0.0
 10
12.8339684865
 20
8.6718903322
 30
0.0
 10
12.8329601107
 20
8.6720668759
 30
0.0
 10
12.831951735
 20
8.6722434201
 30
0.0
 10
12.8311450344
 20
8.6723846549
 30
0.0
 10
12.8305400091
 20
8.6724905824
 30
0.0
 10
12.8299349834
 20
8.6725965048
 30
0.0
 10
12.8294307964
 20
8.6726847891
 30
0.0
 10
12.8290274443
 20
8.6727553816
 30
0.0
 10
12.8287753551
 20
8.6727995815
 30
0.0
 10
12.8285736703
 20
8.672834759
 30
0.0
 10
12.8284224434
 20
8.6728616417
 30
0.0
 10
12.8282963042
 20
8.6728824548
 30
0.0
 10
12.8282082359
 20
8.6729001426
 30
0.0
 10
12.8281575534
 20
8.6729053804
 30
0.0
 10
12.8281205495
 20
8.6729230264
 30
0.0
 10
12.8280796926
 20
8.6728882364
 30
0.0
 10
12.8280265608
 20
8.6728601399
 30
0.0
 10
12.8279329539
 20
8.6728024494
 30
0.0
 10
12.8277995571
 20
8.6727244896
 30
0.0
 10
12.8276393408
 20
8.6726290308
 30
0.0
 10
12.827425768
 20
8.6725024186
 30
0.0
 10
12.8271587853
 20
8.6723439252
 30
0.0
 10
12.8267316223
 20
8.6720904632
 30
0.0
 10
12.8261976654
 20
8.671773592
 30
0.0
 10
12.8255569185
 20
8.6713933653
 30
0.0
 10
12.8249161712
 20
8.6710131337
 30
0.0
 10
12.8240618415
 20
8.6705061598
 30
0.0
 10
12.8229939295
 20
8.6698724419
 30
0.0
 10
12.821712435
 20
8.6691119807
 30
0.0
 10
12.8200037758
 20
8.6680980323
 30
0.0
 10
12.8187222813
 20
8.6673375711
 30
0.0
 10
12.8178679517
 20
8.6668305969
 30
0.0
  0
ENDSEC
  0
SECTION
  2
OBJECTS
  0
DICTIONARY
  5
C
100
AcDbDictionary
280
0
281
1
  3
ACAD_GROUP
350
D
  3
ACAD_MLINESTYLE
350
17
  3
ACAD_LAYOUT
350
1A
  3
ACAD_PLOTSETTINGS
350
19
  3
ACAD_PLOTSTYLENAME
350
E
  3
ACAD_IMAGE_DICT
350
       3C2
  3
ACAD_IMAGE_VARS
350
       3C3
  3
ACAD_TABLESTYLE
350
       3C4
  0
IMAGEDEF_REACTOR
  5
3C1
100
AcDbRasterImageDefReactor
 90
2
330
28F
  0
DICTIONARY
  5
D
102
{ACAD_REACTORS
330
C
102
}
100
AcDbDictionary
280
0
281
1
  0
ACDBDICTIONARYWDFLT
  5
E
102
{ACAD_REACTORS
330
C
102
}
100
AcDbDictionary
281
1
  3
Normal
350
F
100
AcDbDictionaryWithDefault
340
F
  0
DICTIONARY
  5
3C2
330
C
100
AcDbDictionary
281
1
  3
3BW_assy_2_img_1
350
       3C7
  0
RASTERVARIABLES
  5
3C3
330
C
100
AcDbRasterVariables
 90
0
 70
0
 71
1
 72
5
  0
DICTIONARY
  5
17
102
{ACAD_REACTORS
330
C
102
}
100
AcDbDictionary
280
0
281
1
  3
Standard
350
18
  0
DICTIONARY
  5
3C4
330
C
100
AcDbDictionary
281
1
  3
Standard
350
       3C8
  3
Standard1
350
       3C9
  0
DICTIONARY
  5
19
102
{ACAD_REACTORS
330
C
102
}
100
AcDbDictionary
281
1
  0
DICTIONARY
  5
1A
102
{ACAD_REACTORS
330
C
102
}
100
AcDbDictionary
281
1
  3
Model
350
3C5
  3
Layout1
350
3C6
  0
ACDBPLACEHOLDER
  5
F
102
{ACAD_REACTORS
330
E
102
}
  0
MLINESTYLE
  5
18
102
{ACAD_REACTORS
330
17
102
}
100
AcDbMlineStyle
  2
STANDARD
 70
0
  3

 62
256
 51
90.0
 52
90.0
 71
2
 49
0.5
 62
256
  6
BYLAYER
 49
-0.5
 62
256
  6
BYLAYER
  0
LAYOUT
  5
3C5
102
{ACAD_REACTORS
330
1A
102
}
100
AcDbPlotSettings
  1

  2
none_device
  4
ANSI_C_(22.00_x_17.00_Inches)
  6

 40
0.0
 41
0.0
 42
0.0
 43
0.0
 44
558.8
 45
431.8
 46
0.0
 47
0.0
 48
0.0
 49
0.0
140
0.0
141
0.0
142
1.0
143
1.0
 70
1024
 72
0
 73
0
 74
0
  7

 75
0
147
1.0
148
0.0
149
0.0
100
AcDbLayout
  1
Model
 70
0
 71
0
 10
0.0
 20
0.0
 11
22.0
 21
17.0
 12
0.0
 22
0.0
 32
0.0
 14
0.0
 24
0.0
 34
0.0
 15
0.0
 25
0.0
 35
0.0
146
0.0
 13
0.0
 23
0.0
 33
0.0
 16
1.0
 26
0.0
 36
0.0
 17
0.0
 27
1.0
 37
0.0
 76
0
330
20C
345
0
346
0
  0
LAYOUT
  5
3C6
102
{ACAD_REACTORS
330
1A
102
}
100
AcDbPlotSettings
  1

  2
none_device
  4
ANSI_C_(22.00_x_17.00_Inches)
  6

 40
0.0
 41
0.0
 42
0.0
 43
0.0
 44
558.8
 45
431.8
 46
0.0
 47
0.0
 48
0.0
 49
0.0
140
0.0
141
0.0
142
1.0
143
1.0
 70
0
 72
0
 73
0
 74
0
  7

 75
0
147
1.0
148
0.0
149
0.0
100
AcDbLayout
  1
Layout1
 70
0
 71
1
 10
0.0
 20
0.0
 11
22.0
 21
17.0
 12
0.0
 22
0.0
 32
0.0
 14
0.0
 24
0.0
 34
0.0
 15
0.0
 25
0.0
 35
0.0
146
0.0
 13
0.0
 23
0.0
 33
0.0
 16
1.0
 26
0.0
 36
0.0
 17
0.0
 27
1.0
 37
0.0
 76
0
330
20D
345
0
346
0
  0
IMAGEDEF
  5
3C7
102
{ACAD_REACTORS
330
3C2
330
3C1
102
}
100
AcDbRasterImageDef
 90
0
  1
3BW_assy_2_img_1.png
 10
369.0
 20
92.0
 11
0.0066666667
 21
0.0066666667
280
1
281
0
  0
TABLESTYLE
  5
3C8
102
{ACAD_REACTORS
330
3C4
330
292
330
293
102
}
330
3C4
100
AcDbTableStyle
  3
Standard
 70
0
 71
0
 40
0.06
 41
0.06
280
1
281
1
  7
Standard
140
0.18
170
1
 62
0
 63
7
283
0
  7
Standard
140
0.18
170
1
 62
0
 63
7
283
0
  7
Standard
140
0.18
170
1
 62
0
 63
7
283
0
  0
TABLESTYLE
  5
3C9
102
{ACAD_REACTORS
330
3C4
330
291
102
}
330
3C4
100
AcDbTableStyle
  3
Standard1
 70
1
 71
0
 40
0.06
 41
0.06
280
1
281
1
  7
Standard
140
0.18
170
1
 62
0
 63
7
283
0
  7
Standard
140
0.18
170
1
 62
0
 63
7
283
0
  7
Standard
140
0.18
170
1
 62
0
 63
7
283
0
  0
ENDSEC
  0
EOF
