999
DXF file: 3BV_assy_2.dxf
999
Pro/ENGINEER 2014200 by Parametric Technology Corporation
  0
SECTION
  2
HEADER
  9
$ACADVER
  1
AC1021
  9
$DWGCODEPAGE
  3
ANSI_1252
  9
$EXTMAX
 10
22.0
 20
17.0
 30
0.0
  9
$EXTMIN
 10
0.0
 20
0.0
 30
0.0
  9
$LIMMIN
 10
0.0
 20
0.0
  9
$LIMMAX
 10
22.0
 20
17.0
  9
$VIEWCTR
 10
11.0
 20
8.5
  9
$VIEWSIZE
 40
17.0
  9
$CLAYER
  8
0
  9
$LTSCALE
 40
1.21
  9
$CELTYPE
  6
BYLAYER
  9
$DIMSCALE
 40
1.0
  9
$DIMASZ
 40
0.1875
  9
$DIMEXO
 40
0.0625
  9
$DIMDLI
 40
0.836
  9
$DIMEXE
 40
0.125
  9
$DIMCEN
 40
0.198
  9
$DIMLFAC
 40
1.0
  9
$DIMBLK
  1
_FILLED
  9
$DIMTXT
 40
0.1
  9
$DIMTOL
 70
0
  9
$DIMLIM
 70
0
  9
$DIMTFAC
 40
1.0
  9
$DIMGAP
 40
0.09
  9
$DIMDSEP
 70
46
  9
$AUNITS
 70
0
  9
$PDMODE
 70
3
  9
$PDSIZE
 40
0.3125
  9
$HANDSEED
  5
3C3
  9
$TILEMODE
 70
1
  9
$MEASUREMENT
 70
0
  9
$INSUNITS
 70
1
  0
ENDSEC
  0
SECTION
  2
CLASSES
  0
CLASS
  1
ACDBDICTIONARYWDFLT
  2
AcDbDictionaryWithDefault
  3
AutoCAD 2000
 90
0
 91
1
280
0
281
0
  0
CLASS
  1
ACDBPLACEHOLDER
  2
AcDbPlaceHolder
  3
AutoCAD 2000
 90
0
 91
1
280
0
281
0
  0
CLASS
  1
LAYOUT
  2
AcDbLayout
  3
AutoCAD 2000
 90
0
 91
0
280
0
281
0
  0
CLASS
  1
RASTERVARIABLES
  2
AcDbRasterVariables
  3
ISM
 90
0
 91
1
280
0
281
0
  0
CLASS
  1
IMAGEDEF
  2
AcDbRasterImageDef
  3
ISM
 90
0
 91
1
280
0
281
0
  0
CLASS
  1
IMAGEDEF_REACTOR
  2
AcDbRasterImageDefReactor
  3
ISM
 90
0
 91
1
280
0
281
0
  0
CLASS
  1
IMAGE
  2
AcDbRasterImage
  3
ISM
 90
127
 91
1
280
0
281
1
  0
CLASS
  1
TABLESTYLE
  2
AcDbTableStyle
  3
ObjectDBX Classes
 90
2047
 91
1
280
0
281
0
  0
CLASS
  1
ACAD_TABLE
  2
AcDbTable
  3
ObjectDBX Classes
 90
1025
 91
3
280
0
281
1
  0
ENDSEC
  0
SECTION
  2
TABLES
  0
TABLE
  2
VPORT
  5
8
100
AcDbSymbolTable
 70
2
  0
VPORT
  5
1F4
100
AcDbSymbolTableRecord
100
AcDbViewportTableRecord
  2
*ACTIVE
 70
0
 10
0.0
 20
0.0
 11
1.0
 21
1.0
 12
11.0
 22
8.5
 13
0.0
 23
0.0
 14
1.0
 24
1.0
 15
0.0
 25
0.0
 16
0.0
 26
0.0
 36
1.0
 17
0.0
 27
0.0
 37
0.0
 40
17.0
 41
1.2941176471
 42
50.0
 43
0.0
 44
0.0
 50
0.0
 51
0.0
 71
0
 72
100
 73
1
 74
1
 75
0
 76
0
 77
0
 78
0
  0
ENDTAB
  0
TABLE
  2
LTYPE
  5
5
100
AcDbSymbolTable
 70
6
  0
LTYPE
  5
14
100
AcDbSymbolTableRecord
100
AcDbLinetypeTableRecord
  2
BYBLOCK
 70
0
  3

 72
65
 73
0
 40
0.0
  0
LTYPE
  5
15
100
AcDbSymbolTableRecord
100
AcDbLinetypeTableRecord
  2
BYLAYER
 70
0
  3

 72
65
 73
0
 40
0.0
  0
LTYPE
  5
16
100
AcDbSymbolTableRecord
100
AcDbLinetypeTableRecord
  2
CONTINUOUS
 70
64
  3
Solid line
 72
65
 73
0
 40
0.0
  0
LTYPE
  5
1F5
100
AcDbSymbolTableRecord
100
AcDbLinetypeTableRecord
  2
CENTER
 70
64
  3
____ _ ____ _ ____ _ ____ _ ____ _ ____ _ ____
 72
65
 73
4
 40
0.6
 49
0.375
 74
0
 49
-0.075
 74
0
 49
0.075
 74
0
 49
-0.075
 74
0
  0
LTYPE
  5
1F6
100
AcDbSymbolTableRecord
100
AcDbLinetypeTableRecord
  2
HIDDEN
 70
64
  3
- - - - - - - - - - - - - - - - - - - -
 72
65
 73
2
 40
0.2
 49
0.1
 74
0
 49
-0.1
 74
0
  0
LTYPE
  5
1F7
100
AcDbSymbolTableRecord
100
AcDbLinetypeTableRecord
  2
PHANTOM
 70
64
  3
_____ _ _ _____ _ _ _____ _ _ _____
 72
65
 73
6
 40
0.8
 49
0.45
 74
0
 49
-0.05
 74
0
 49
0.1
 74
0
 49
-0.05
 74
0
 49
0.1
 74
0
 49
-0.05
 74
0
  0
LTYPE
  5
1F8
100
AcDbSymbolTableRecord
100
AcDbLinetypeTableRecord
  2
DOT
 70
64
  3
. . . . . . . . . . . . . . . . . . . .
 72
65
 73
2
 40
0.2
 49
0.1
 74
0
 49
-0.1
 74
0
  0
LTYPE
  5
1F9
100
AcDbSymbolTableRecord
100
AcDbLinetypeTableRecord
  2
DASHED
 70
64
  3
- - - - - - - - - - - - - - - - - - - -
 72
65
 73
2
 40
0.2
 49
0.1
 74
0
 49
-0.1
 74
0
  0
ENDTAB
  0
TABLE
  2
LAYER
  5
2
100
AcDbSymbolTable
 70
36
  0
LAYER
  5
10
100
AcDbSymbolTableRecord
100
AcDbLayerTableRecord
  2
0
 70
0
 62
7
  6
CONTINUOUS
370
-3
390
F
  0
LAYER
  5
1FA
100
AcDbSymbolTableRecord
100
AcDbLayerTableRecord
  2
DEFAULT_1
 70
0
 62
7
  6
CENTER
370
-3
390
F
  0
LAYER
  5
1FB
100
AcDbSymbolTableRecord
100
AcDbLayerTableRecord
  2
DEFAULT_2
 70
0
 62
8
  6
HIDDEN
370
-3
390
F
  0
LAYER
  5
1FC
100
AcDbSymbolTableRecord
100
AcDbLayerTableRecord
  2
DEFAULT_3
 70
0
 62
7
  6
PHANTOM
370
-3
390
F
  0
LAYER
  5
1FD
100
AcDbSymbolTableRecord
100
AcDbLayerTableRecord
  2
01___PRT_ALL_DTM_PLN
 70
0
 62
7
  6
CONTINUOUS
370
-3
390
F
  0
LAYER
  5
1FE
100
AcDbSymbolTableRecord
100
AcDbLayerTableRecord
  2
01___PRT_DEF_DTM_PLN
 70
0
 62
7
  6
CONTINUOUS
370
-3
390
F
  0
LAYER
  5
1FF
100
AcDbSymbolTableRecord
100
AcDbLayerTableRecord
  2
02___PRT_ALL_AXES
 70
0
 62
7
  6
CONTINUOUS
370
-3
390
F
  0
LAYER
  5
200
100
AcDbSymbolTableRecord
100
AcDbLayerTableRecord
  2
03___PRT_ALL_CURVES
 70
0
 62
7
  6
CONTINUOUS
370
-3
390
F
  0
LAYER
  5
201
100
AcDbSymbolTableRecord
100
AcDbLayerTableRecord
  2
04___PRT_ALL_DTM_PNT
 70
0
 62
7
  6
CONTINUOUS
370
-3
390
F
  0
LAYER
  5
202
100
AcDbSymbolTableRecord
100
AcDbLayerTableRecord
  2
05___PRT_ALL_DTM_CSYS
 70
0
 62
7
  6
CONTINUOUS
370
-3
390
F
  0
LAYER
  5
203
100
AcDbSymbolTableRecord
100
AcDbLayerTableRecord
  2
05___PRT_DEF_DTM_CSYS
 70
0
 62
7
  6
CONTINUOUS
370
-3
390
F
  0
LAYER
  5
204
100
AcDbSymbolTableRecord
100
AcDbLayerTableRecord
  2
06___PRT_ALL_SURFS
 70
0
 62
7
  6
CONTINUOUS
370
-3
390
F
  0
LAYER
  5
205
100
AcDbSymbolTableRecord
100
AcDbLayerTableRecord
  2
DATUM_PLANES
 70
0
 62
7
  6
CONTINUOUS
370
-3
390
F
  0
LAYER
  5
206
100
AcDbSymbolTableRecord
100
AcDbLayerTableRecord
  2
PORT_AREAS
 70
0
 62
7
  6
CONTINUOUS
370
-3
390
F
  0
LAYER
  5
207
100
AcDbSymbolTableRecord
100
AcDbLayerTableRecord
  2
SUNNBOMCOSMETIC
 70
0
 62
7
  6
CONTINUOUS
370
-3
390
F
  0
LAYER
  5
208
100
AcDbSymbolTableRecord
100
AcDbLayerTableRecord
  2
SUNNBOMSTAMPING
 70
0
 62
7
  6
CONTINUOUS
370
-3
390
F
  0
LAYER
  5
209
100
AcDbSymbolTableRecord
100
AcDbLayerTableRecord
  2
THREADS
 70
0
 62
7
  6
CONTINUOUS
370
-3
390
F
  0
ENDTAB
  0
TABLE
  2
STYLE
  5
3
100
AcDbSymbolTable
 70
1
  0
STYLE
  5
11
100
AcDbSymbolTableRecord
100
AcDbTextStyleTableRecord
  2
STANDARD
 70
0
 40
0.0
 41
0.8
 50
0.0
 71
0
 42
0.2
  3
txt
  4

  0
STYLE
  5
20A
100
AcDbSymbolTableRecord
100
AcDbTextStyleTableRecord
  2
TEXTSTYLE_1
 70
0
 40
0.0
 41
0.8
 50
0.0
 71
0
 42
0.2
  3
gdt
  4

  0
ENDTAB
  0
TABLE
  2
VIEW
  5
6
100
AcDbSymbolTable
 70
0
  0
ENDTAB
  0
TABLE
  2
UCS
  5
7
100
AcDbSymbolTable
 70
0
  0
ENDTAB
  0
TABLE
  2
APPID
  5
9
100
AcDbSymbolTable
 70
1
  0
APPID
  5
20B
100
AcDbSymbolTableRecord
100
AcDbRegAppTableRecord
  2
ACAD
 70
0
  0
ENDTAB
  0
TABLE
  2
BLOCK_RECORD
  5
1
100
AcDbSymbolTable
 70
0
  0
BLOCK_RECORD
  5
20C
100
AcDbSymbolTableRecord
100
AcDbBlockTableRecord
  2
*Model_Space
  0
BLOCK_RECORD
  5
20D
100
AcDbSymbolTableRecord
100
AcDbBlockTableRecord
  2
*Paper_Space
  0
BLOCK_RECORD
  5
20E
100
AcDbSymbolTableRecord
100
AcDbBlockTableRecord
  2
SUN_FIRST_THIRD_ANGLE_BL0
  0
BLOCK_RECORD
  5
20F
100
AcDbSymbolTableRecord
100
AcDbBlockTableRecord
  2
*T1
  0
BLOCK_RECORD
  5
210
100
AcDbSymbolTableRecord
100
AcDbBlockTableRecord
  2
*T2
  0
BLOCK_RECORD
  5
211
100
AcDbSymbolTableRecord
100
AcDbBlockTableRecord
  2
*T3
  0
ENDTAB
  0
TABLE
  2
DIMSTYLE
  5
A
100
AcDbSymbolTable
 70
1
100
AcDbDimStyleTable
 71
0
  0
DIMSTYLE
105
212
100
AcDbSymbolTableRecord
100
AcDbDimStyleTableRecord
  2
STANDARD
 70
0
  3

  4

 40
1.0
 41
0.1875
 42
0.0625
 43
0.38
 44
0.125
 45
0.0
 46
0.0
 47
0.001
 48
0.001
140
0.1
141
0.09
142
0.0
143
25.4
144
1.0
145
0.0
146
1.0
147
0.09
 71
0.0
 72
0.0
 73
1
 74
1
 75
0
 76
0
 77
0
 78
4
170
0
171
2
172
0
173
0
174
0
175
0
176
0
177
0
178
0
270
2
271
3
272
3
273
2
274
2
275
0
280
0
281
0
282
0
283
1
284
4
285
0
286
0
287
3
288
0
340
11
278
46
  0
ENDTAB
  0
ENDSEC
  0
SECTION
  2
BLOCKS
  0
BLOCK
  5
20
100
AcDbEntity
  8
0
100
AcDbBlockBegin
  2
*Model_Space
 70
0
 10
0.0
 20
0.0
 30
0.0
  3
*Model_Space
  1

  0
ENDBLK
  5
21
100
AcDbEntity
  8
0
100
AcDbBlockEnd
  0
BLOCK
  5
1C
100
AcDbEntity
  8
0
100
AcDbBlockBegin
  2
*Paper_Space
 70
0
 10
0.0
 20
0.0
 30
0.0
  3
*Paper_Space
  1

  0
ENDBLK
  5
1D
100
AcDbEntity
  8
0
100
AcDbBlockEnd
  0
BLOCK
  5
213
100
AcDbEntity
  8
0
100
AcDbBlockBegin
 62
2
  6
CONTINUOUS
  2
SUN_FIRST_THIRD_ANGLE_BL0
 70
64
 10
20.4816717061
 20
1.2289683772
  3
SUN_FIRST_THIRD_ANGLE_BL0
  1

  0
TEXT
  5
214
100
AcDbEntity
  8
0
100
AcDbText
 62
2
  6
CONTINUOUS
 10
19.4750896608
 20
1.4136269581
  7
STANDARD
 40
0.08
  1
FIRST ANGLE
 41
0.8
 72
0
100
AcDbText
  0
TEXT
  5
215
100
AcDbEntity
  8
0
100
AcDbText
 62
2
  6
CONTINUOUS
 10
20.7842537513
 20
1.4047600029
  7
STANDARD
 40
0.08
  1
THIRD ANGLE
 41
0.8
 72
0
100
AcDbText
  0
LINE
  5
216
100
AcDbEntity
  8
0
100
AcDbLine
 62
7
  6
CONTINUOUS
 10
19.4767170086
 20
1.1727031207
 11
19.6334271527
 21
1.1717972817
  0
LINE
  5
217
100
AcDbEntity
  8
0
100
AcDbLine
 62
7
  6
CONTINUOUS
 10
19.6596964832
 20
1.1717972817
 11
19.6950230232
 21
1.171593082
  0
LINE
  5
218
100
AcDbEntity
  8
0
100
AcDbLine
 62
7
  6
CONTINUOUS
 10
19.7194818561
 20
1.1708914427
 11
19.8852396156
 21
1.1699333054
  0
LINE
  5
219
100
AcDbEntity
  8
0
100
AcDbLine
 62
7
  6
CONTINUOUS
 10
19.4758111696
 20
1.2723454088
 11
19.88525039
 21
1.3511534004
  0
LINE
  5
21A
100
AcDbEntity
  8
0
100
AcDbLine
 62
7
  6
CONTINUOUS
 10
19.88525039
 20
1.3511534004
 11
19.8831348489
 21
0.9851647912
  0
LINE
  5
21B
100
AcDbEntity
  8
0
100
AcDbLine
 62
7
  6
CONTINUOUS
 10
19.8831348489
 20
0.9851647912
 11
19.4767170086
 21
1.0658141206
  0
LINE
  5
21C
100
AcDbEntity
  8
0
100
AcDbLine
 62
7
  6
CONTINUOUS
 10
19.4767170086
 20
1.0658141206
 11
19.4779056764
 21
1.2714536432
  0
CIRCLE
  5
21D
100
AcDbEntity
  8
0
100
AcDbCircle
 62
7
  6
CONTINUOUS
 10
20.2068232291
 20
1.1717972817
 40
0.175742101
  0
CIRCLE
  5
21E
100
AcDbEntity
  8
0
100
AcDbCircle
 62
7
  6
CONTINUOUS
 10
20.2068232291
 20
1.1717972817
 40
0.1005522074
  0
LINE
  5
21F
100
AcDbEntity
  8
0
100
AcDbLine
 62
7
  6
CONTINUOUS
 10
20.2077290681
 20
1.3756110529
 11
20.2071171714
 21
1.2379342989
  0
LINE
  5
220
100
AcDbEntity
  8
0
100
AcDbLine
 62
7
  6
CONTINUOUS
 10
20.2077290681
 20
1.2016899681
 11
20.2074674401
 21
1.1428236749
  0
LINE
  5
221
100
AcDbEntity
  8
0
100
AcDbLine
 62
7
  6
CONTINUOUS
 10
20.208634907
 20
1.101141841
 11
20.2080230104
 21
0.963465087
  0
LINE
  5
222
100
AcDbEntity
  8
0
100
AcDbLine
 62
7
  6
CONTINUOUS
 10
20.0066328138
 20
1.1745147986
 11
20.1443095678
 21
1.1739029019
  0
LINE
  5
223
100
AcDbEntity
  8
0
100
AcDbLine
 62
7
  6
CONTINUOUS
 10
20.1832714155
 20
1.1727031207
 11
20.238153505
 21
1.172335442
  0
LINE
  5
224
100
AcDbEntity
  8
0
100
AcDbLine
 62
7
  6
CONTINUOUS
 10
20.2756669918
 20
1.1717972817
 11
20.407916871
 21
1.1712095044
  0
CIRCLE
  5
225
100
AcDbEntity
  8
0
100
AcDbCircle
 62
7
  6
CONTINUOUS
 10
20.7509457401
 20
1.1693297793
 40
0.1722024983
  0
CIRCLE
  5
226
100
AcDbEntity
  8
0
100
AcDbCircle
 62
7
  6
CONTINUOUS
 10
20.7509457401
 20
1.1693297793
 40
0.0985164967
  0
LINE
  5
227
100
AcDbEntity
  8
0
100
AcDbLine
 62
7
  6
CONTINUOUS
 10
20.7169767782
 20
1.170462078
 11
20.7825395137
 21
1.1682766535
  0
LINE
  5
228
100
AcDbEntity
  8
0
100
AcDbLine
 62
7
  6
CONTINUOUS
 10
20.8177513651
 20
1.1693297793
 11
20.947965719
 21
1.1693297793
  0
LINE
  5
229
100
AcDbEntity
  8
0
100
AcDbLine
 62
7
  6
CONTINUOUS
 10
20.6875370113
 20
1.170462078
 11
20.5573226574
 21
1.170462078
  0
LINE
  5
22A
100
AcDbEntity
  8
0
100
AcDbLine
 62
7
  6
CONTINUOUS
 10
20.7486811426
 20
1.1987695462
 11
20.7486811426
 21
1.1432869085
  0
LINE
  5
22B
100
AcDbEntity
  8
0
100
AcDbLine
 62
7
  6
CONTINUOUS
 10
20.7498134414
 20
1.1059210505
 11
20.7498134414
 21
0.9757066966
  0
LINE
  5
22C
100
AcDbEntity
  8
0
100
AcDbLine
 62
7
  6
CONTINUOUS
 10
20.7486811426
 20
1.2338708068
 11
20.7486811426
 21
1.3640851607
  0
LINE
  5
22D
100
AcDbEntity
  8
0
100
AcDbLine
 62
7
  6
CONTINUOUS
 10
21.0702539817
 20
1.2701043662
 11
21.4790138229
 21
1.3448360823
  0
LINE
  5
22E
100
AcDbEntity
  8
0
100
AcDbLine
 62
7
  6
CONTINUOUS
 10
21.4790138229
 20
1.3448360823
 11
21.4790138229
 21
0.9779712941
  0
LINE
  5
22F
100
AcDbEntity
  8
0
100
AcDbLine
 62
7
  6
CONTINUOUS
 10
21.4790138229
 20
0.9779712941
 11
21.069121683
 21
1.0617614
  0
LINE
  5
230
100
AcDbEntity
  8
0
100
AcDbLine
 62
7
  6
CONTINUOUS
 10
21.0702539817
 20
1.2701043662
 11
21.069121683
 21
1.0617614
  0
LINE
  5
231
100
AcDbEntity
  8
0
100
AcDbLine
 62
7
  6
CONTINUOUS
 10
21.4790138229
 20
1.1693297793
 11
21.3159628059
 21
1.1693297793
  0
LINE
  5
232
100
AcDbEntity
  8
0
100
AcDbLine
 62
7
  6
CONTINUOUS
 10
21.2876553377
 20
1.1693297793
 11
21.2502894796
 21
1.1693297793
  0
LINE
  5
233
100
AcDbEntity
  8
0
100
AcDbLine
 62
7
  6
CONTINUOUS
 10
21.2208497126
 20
1.1659328831
 11
21.0713862804
 21
1.1659328831
  0
LINE
  5
234
100
AcDbEntity
  8
0
100
AcDbLine
 62
7
  6
CONTINUOUS
 10
20.4796138713
 20
1.5284908897
 11
20.4766766948
 21
0.9294458646
  0
ENDBLK
  5
235
100
AcDbEntity
  8
0
  6
BYBLOCK
 62
0
100
AcDbBlockEnd
  0
BLOCK
  5
236
100
AcDbEntity
  8
0
100
AcDbBlockBegin
  2
*T1
 70
1
 10
0.0
 20
0.0
  3
*T1
  1

  0
LINE
  5
237
100
AcDbEntity
  8
0
100
AcDbLine
 62
2
  6
CONTINUOUS
 10
9.275
 20
0.0
 11
-0.0
 21
0.0
  0
LINE
  5
238
100
AcDbEntity
  8
0
100
AcDbLine
 62
2
  6
CONTINUOUS
 10
9.275
 20
0.0
 11
9.275
 21
1.25
  0
LINE
  5
239
100
AcDbEntity
  8
0
100
AcDbLine
 62
2
  6
CONTINUOUS
 10
9.275
 20
0.625
 11
-0.0
 21
0.625
  0
LINE
  5
23A
100
AcDbEntity
  8
0
100
AcDbLine
 62
2
  6
CONTINUOUS
 10
9.275
 20
1.25
 11
-0.0
 21
1.25
  0
LINE
  5
23B
100
AcDbEntity
  8
0
100
AcDbLine
 62
2
  6
CONTINUOUS
 10
6.8
 20
0.0
 11
6.8
 21
1.25
  0
LINE
  5
23C
100
AcDbEntity
  8
0
100
AcDbLine
 62
2
  6
CONTINUOUS
 10
6.4
 20
0.0
 11
6.4
 21
0.625
  0
LINE
  5
23D
100
AcDbEntity
  8
0
100
AcDbLine
 62
2
  6
CONTINUOUS
 10
5.9
 20
0.0
 11
5.9
 21
0.625
  0
LINE
  5
23E
100
AcDbEntity
  8
0
100
AcDbLine
 62
2
  6
CONTINUOUS
 10
5.2
 20
0.0
 11
5.2
 21
0.625
  0
LINE
  5
23F
100
AcDbEntity
  8
0
100
AcDbLine
 62
2
  6
CONTINUOUS
 10
4.1
 20
0.0
 11
4.1
 21
1.25
  0
LINE
  5
240
100
AcDbEntity
  8
0
100
AcDbLine
 62
2
  6
CONTINUOUS
 10
-0.0
 20
0.0
 11
-0.0
 21
1.25
  0
MTEXT
  5
241
100
AcDbEntity
  8
0
100
AcDbMText
 62
2
  6
CONTINUOUS
  7
STANDARD
 71
2
 72
1
 10
6.6
 20
0.325
 30
0.0
 11
1.0
 21
0.0
 31
0.0
 44
0.9
  1
2
 40
0.125
 41
0.2
  0
MTEXT
  5
242
100
AcDbEntity
  8
0
100
AcDbMText
 62
2
  6
CONTINUOUS
  7
STANDARD
 71
2
 72
1
 10
6.15
 20
0.325
 30
0.0
 11
1.0
 21
0.0
 31
0.0
 44
0.9
  1
C
 40
0.125
 41
0.2
  0
MTEXT
  5
243
100
AcDbEntity
  8
0
100
AcDbMText
 62
2
  6
CONTINUOUS
  7
STANDARD
 71
2
 72
1
 10
5.55
 20
0.325
 30
0.0
 11
1.0
 21
0.0
 31
0.0
 44
0.9
  1
1.000
 40
0.125
 41
1.0
  0
MTEXT
  5
244
100
AcDbEntity
  8
0
100
AcDbMText
 62
2
  6
CONTINUOUS
  7
STANDARD
 71
2
 72
1
 10
4.65
 20
0.325
 30
0.0
 11
1.0
 21
0.0
 31
0.0
 44
0.9
  1
Oct-17-22
 40
0.125
 41
1.8
  0
MTEXT
  5
245
100
AcDbEntity
  8
0
100
AcDbMText
 62
2
  6
CONTINUOUS
  7
STANDARD
 71
2
 72
1
 10
2.05
 20
0.4625
 30
0.0
 11
1.0
 21
0.0
 31
0.0
 44
0.9
  1
T-2A Line mount\PCushion lock with shuttle
 40
0.125
 41
5.0
  0
MTEXT
  5
246
100
AcDbEntity
  8
0
100
AcDbMText
 62
2
  6
CONTINUOUS
  7
STANDARD
 71
1
 72
1
 10
6.45
 20
0.5625
 30
0.0
 11
1.0
 21
0.0
 31
0.0
 44
0.9
  1
SHEET
 40
0.06
 41
0.48
  0
MTEXT
  5
247
100
AcDbEntity
  8
0
100
AcDbMText
 62
2
  6
CONTINUOUS
  7
STANDARD
 71
1
 72
1
 10
5.95
 20
0.5625
 30
0.0
 11
1.0
 21
0.0
 31
0.0
 44
0.9
  1
DWG SIZE
 40
0.06
 41
0.768
  0
MTEXT
  5
248
100
AcDbEntity
  8
0
100
AcDbMText
 62
2
  6
CONTINUOUS
  7
STANDARD
 71
1
 72
1
 10
5.25
 20
0.5625
 30
0.0
 11
1.0
 21
0.0
 31
0.0
 44
0.9
  1
SCALE
 40
0.06
 41
0.48
  0
MTEXT
  5
249
100
AcDbEntity
  8
0
100
AcDbMText
 62
2
  6
CONTINUOUS
  7
STANDARD
 71
1
 72
1
 10
4.15
 20
0.5625
 30
0.0
 11
1.0
 21
0.0
 31
0.0
 44
0.9
  1
DATE
 40
0.06
 41
0.384
  0
MTEXT
  5
24A
100
AcDbEntity
  8
0
100
AcDbMText
 62
2
  6
CONTINUOUS
  7
STANDARD
 71
1
 72
1
 10
0.05
 20
0.5625
 30
0.0
 11
1.0
 21
0.0
 31
0.0
 44
0.9
  1
DESCRIPTION
 40
0.06
 41
1.056
  0
MTEXT
  5
24B
100
AcDbEntity
  8
0
100
AcDbMText
 62
2
  6
CONTINUOUS
  7
STANDARD
 71
2
 72
1
 10
5.45
 20
1.0375
 30
0.0
 11
1.0
 21
0.0
 31
0.0
 44
0.9
  1
ALL DIMENSIONS IN INCH\PVIEWS ARE THIRD ANGLE
 40
0.12
 41
4.224
  0
MTEXT
  5
24C
100
AcDbEntity
  8
0
100
AcDbMText
 62
2
  6
CONTINUOUS
  7
STANDARD
 71
2
 72
1
 10
2.05
 20
0.95
 30
0.0
 11
1.0
 21
0.0
 31
0.0
 44
0.9
  1
3BV
 40
0.125
 41
0.6
  0
MTEXT
  5
24D
100
AcDbEntity
  8
0
100
AcDbMText
 62
2
  6
CONTINUOUS
  7
STANDARD
 71
1
 72
1
 10
0.05
 20
1.1875
 30
0.0
 11
1.0
 21
0.0
 31
0.0
 44
0.9
  1
MODEL
 40
0.06
 41
0.48
  0
ENDBLK
  5
24E
100
AcDbEntity
  8
0
  6
BYBLOCK
 62
0
100
AcDbBlockEnd
  0
BLOCK
  5
24F
100
AcDbEntity
  8
0
100
AcDbBlockBegin
  2
*T2
 70
1
 10
0.0
 20
0.0
  3
*T2
  1

  0
LINE
  5
250
100
AcDbEntity
  8
0
100
AcDbLine
 62
2
  6
CONTINUOUS
 10
0.0
 20
0.0
 11
9.055
 21
0.0
  0
LINE
  5
251
100
AcDbEntity
  8
0
100
AcDbLine
 62
2
  6
CONTINUOUS
 10
0.0
 20
0.0
 11
0.0
 21
-2.844
  0
LINE
  5
252
100
AcDbEntity
  8
0
100
AcDbLine
 62
2
  6
CONTINUOUS
 10
0.0
 20
-0.344
 11
9.055
 21
-0.344
  0
LINE
  5
253
100
AcDbEntity
  8
0
100
AcDbLine
 62
2
  6
CONTINUOUS
 10
0.0
 20
-0.594
 11
9.055
 21
-0.594
  0
LINE
  5
254
100
AcDbEntity
  8
0
100
AcDbLine
 62
2
  6
CONTINUOUS
 10
0.0
 20
-0.844
 11
9.055
 21
-0.844
  0
LINE
  5
255
100
AcDbEntity
  8
0
100
AcDbLine
 62
2
  6
CONTINUOUS
 10
0.0
 20
-1.094
 11
9.055
 21
-1.094
  0
LINE
  5
256
100
AcDbEntity
  8
0
100
AcDbLine
 62
2
  6
CONTINUOUS
 10
0.0
 20
-1.344
 11
9.055
 21
-1.344
  0
LINE
  5
257
100
AcDbEntity
  8
0
100
AcDbLine
 62
2
  6
CONTINUOUS
 10
0.0
 20
-1.594
 11
9.055
 21
-1.594
  0
LINE
  5
258
100
AcDbEntity
  8
0
100
AcDbLine
 62
2
  6
CONTINUOUS
 10
0.0
 20
-1.844
 11
9.055
 21
-1.844
  0
LINE
  5
259
100
AcDbEntity
  8
0
100
AcDbLine
 62
2
  6
CONTINUOUS
 10
0.0
 20
-2.094
 11
9.055
 21
-2.094
  0
LINE
  5
25A
100
AcDbEntity
  8
0
100
AcDbLine
 62
2
  6
CONTINUOUS
 10
0.0
 20
-2.344
 11
9.055
 21
-2.344
  0
LINE
  5
25B
100
AcDbEntity
  8
0
100
AcDbLine
 62
2
  6
CONTINUOUS
 10
0.0
 20
-2.594
 11
9.055
 21
-2.594
  0
LINE
  5
25C
100
AcDbEntity
  8
0
100
AcDbLine
 62
2
  6
CONTINUOUS
 10
0.0
 20
-2.844
 11
9.055
 21
-2.844
  0
LINE
  5
25D
100
AcDbEntity
  8
0
100
AcDbLine
 62
2
  6
CONTINUOUS
 10
3.055
 20
0.0
 11
3.055
 21
-2.844
  0
LINE
  5
25E
100
AcDbEntity
  8
0
100
AcDbLine
 62
2
  6
CONTINUOUS
 10
9.055
 20
0.0
 11
9.055
 21
-2.844
  0
MTEXT
  5
25F
100
AcDbEntity
  8
0
100
AcDbMText
 62
2
  6
CONTINUOUS
  7
STANDARD
 71
2
 72
1
 10
1.5275
 20
-0.0995
 30
0.0
 11
1.0
 21
0.0
 31
0.0
 44
0.9
  1
Technical Data
 40
0.145
 41
3.248
  0
MTEXT
  5
260
100
AcDbEntity
  8
0
100
AcDbMText
 62
2
  6
CONTINUOUS
  7
STANDARD
 71
2
 72
1
 10
4.555
 20
-0.0995
 30
0.0
 11
1.0
 21
0.0
 31
0.0
 44
0.9
  1
U.S. Units
 40
0.145
 41
2.32
  0
MTEXT
  5
261
100
AcDbEntity
  8
0
100
AcDbMText
 62
2
  6
CONTINUOUS
  7
STANDARD
 71
2
 72
1
 10
7.555
 20
-0.0995
 30
0.0
 11
1.0
 21
0.0
 31
0.0
 44
0.9
  1
Metric Units
 40
0.145
 41
2.784
  0
MTEXT
  5
262
100
AcDbEntity
  8
0
100
AcDbMText
 62
2
  6
CONTINUOUS
  7
STANDARD
 71
2
 72
1
 10
1.5275
 20
-0.4065
 30
0.0
 11
1.0
 21
0.0
 31
0.0
 44
0.9
  1
Cavity
 40
0.125
 41
1.2
  0
MTEXT
  5
263
100
AcDbEntity
  8
0
100
AcDbMText
 62
2
  6
CONTINUOUS
  7
STANDARD
 71
2
 72
1
 10
6.055
 20
-0.4065
 30
0.0
 11
1.0
 21
0.0
 31
0.0
 44
0.9
  1
T-2A
 40
0.125
 41
0.8
  0
MTEXT
  5
264
100
AcDbEntity
  8
0
100
AcDbMText
 62
2
  6
CONTINUOUS
  7
STANDARD
 71
2
 72
1
 10
1.5275
 20
-0.6565
 30
0.0
 11
1.0
 21
0.0
 31
0.0
 44
0.9
  1
Body Features
 40
0.125
 41
2.6
  0
MTEXT
  5
265
100
AcDbEntity
  8
0
100
AcDbMText
 62
2
  6
CONTINUOUS
  7
STANDARD
 71
2
 72
1
 10
6.055
 20
-0.6565
 30
0.0
 11
1.0
 21
0.0
 31
0.0
 44
0.9
  1
Cushion lock with shuttle
 40
0.125
 41
5.0
  0
MTEXT
  5
266
100
AcDbEntity
  8
0
100
AcDbMText
 62
2
  6
CONTINUOUS
  7
STANDARD
 71
2
 72
1
 10
1.5275
 20
-0.9065
 30
0.0
 11
1.0
 21
0.0
 31
0.0
 44
0.9
  1
Body Type
 40
0.125
 41
1.8
  0
MTEXT
  5
267
100
AcDbEntity
  8
0
100
AcDbMText
 62
2
  6
CONTINUOUS
  7
STANDARD
 71
2
 72
1
 10
6.055
 20
-0.9065
 30
0.0
 11
1.0
 21
0.0
 31
0.0
 44
0.9
  1
Line mount
 40
0.125
 41
2.0
  0
MTEXT
  5
268
100
AcDbEntity
  8
0
100
AcDbMText
 62
2
  6
CONTINUOUS
  7
STANDARD
 71
2
 72
1
 10
1.5275
 20
-1.1565
 30
0.0
 11
1.0
 21
0.0
 31
0.0
 44
0.9
  1
Interface
 40
0.125
 41
1.8
  0
MTEXT
  5
269
100
AcDbEntity
  8
0
100
AcDbMText
 62
2
  6
CONTINUOUS
  7
STANDARD
 71
2
 72
1
 10
6.055
 20
-1.1565
 30
0.0
 11
1.0
 21
0.0
 31
0.0
 44
0.9
  1
None
 40
0.125
 41
0.8
  0
MTEXT
  5
26A
100
AcDbEntity
  8
0
100
AcDbMText
 62
2
  6
CONTINUOUS
  7
STANDARD
 71
2
 72
1
 10
1.5275
 20
-1.4065
 30
0.0
 11
1.0
 21
0.0
 31
0.0
 44
0.9
  1
Open Cavity Quantity
 40
0.125
 41
4.0
  0
MTEXT
  5
26B
100
AcDbEntity
  8
0
100
AcDbMText
 62
2
  6
CONTINUOUS
  7
STANDARD
 71
2
 72
1
 10
6.055
 20
-1.4065
 30
0.0
 11
1.0
 21
0.0
 31
0.0
 44
0.9
  1
2
 40
0.125
 41
0.2
  0
MTEXT
  5
26C
100
AcDbEntity
  8
0
100
AcDbMText
 62
2
  6
CONTINUOUS
  7
STANDARD
 71
2
 72
1
 10
1.5275
 20
-1.6565
 30
0.0
 11
1.0
 21
0.0
 31
0.0
 44
0.9
  1
Weight
 40
0.125
 41
1.2
  0
MTEXT
  5
26D
100
AcDbEntity
  8
0
100
AcDbMText
 62
2
  6
CONTINUOUS
  7
STANDARD
 71
2
 72
1
 10
4.555
 20
-1.6565
 30
0.0
 11
1.0
 21
0.0
 31
0.0
 44
0.9
  1
6.800 lb.
 40
0.125
 41
1.8
  0
MTEXT
  5
26E
100
AcDbEntity
  8
0
100
AcDbMText
 62
2
  6
CONTINUOUS
  7
STANDARD
 71
2
 72
1
 10
7.555
 20
-1.6565
 30
0.0
 11
1.0
 21
0.0
 31
0.0
 44
0.9
  1
3,084 kg.
 40
0.125
 41
1.8
  0
MTEXT
  5
26F
100
AcDbEntity
  8
0
100
AcDbMText
 62
2
  6
CONTINUOUS
  7
STANDARD
 71
2
 72
1
 10
1.5275
 20
-1.9065
 30
0.0
 11
1.0
 21
0.0
 31
0.0
 44
0.9
  1
Mounting Hole Diameter
 40
0.125
 41
4.4
  0
MTEXT
  5
270
100
AcDbEntity
  8
0
100
AcDbMText
 62
2
  6
CONTINUOUS
  7
STANDARD
 71
2
 72
1
 10
4.555
 20
-1.9065
 30
0.0
 11
1.0
 21
0.0
 31
0.0
 44
0.9
  1
.42 in.
 40
0.125
 41
1.4
  0
MTEXT
  5
271
100
AcDbEntity
  8
0
100
AcDbMText
 62
2
  6
CONTINUOUS
  7
STANDARD
 71
2
 72
1
 10
7.555
 20
-1.9065
 30
0.0
 11
1.0
 21
0.0
 31
0.0
 44
0.9
  1
10,7 mm
 40
0.125
 41
1.4
  0
MTEXT
  5
272
100
AcDbEntity
  8
0
100
AcDbMText
 62
2
  6
CONTINUOUS
  7
STANDARD
 71
2
 72
1
 10
1.5275
 20
-2.1565
 30
0.0
 11
1.0
 21
0.0
 31
0.0
 44
0.9
  1
Mounting Hole Depth
 40
0.125
 41
3.8
  0
MTEXT
  5
273
100
AcDbEntity
  8
0
100
AcDbMText
 62
2
  6
CONTINUOUS
  7
STANDARD
 71
2
 72
1
 10
6.055
 20
-2.1565
 30
0.0
 11
1.0
 21
0.0
 31
0.0
 44
0.9
  1
Through
 40
0.125
 41
1.4
  0
MTEXT
  5
274
100
AcDbEntity
  8
0
100
AcDbMText
 62
2
  6
CONTINUOUS
  7
STANDARD
 71
2
 72
1
 10
1.5275
 20
-2.4065
 30
0.0
 11
1.0
 21
0.0
 31
0.0
 44
0.9
  1
Mounting Hole Quantity
 40
0.125
 41
4.4
  0
MTEXT
  5
275
100
AcDbEntity
  8
0
100
AcDbMText
 62
2
  6
CONTINUOUS
  7
STANDARD
 71
2
 72
1
 10
6.055
 20
-2.4065
 30
0.0
 11
1.0
 21
0.0
 31
0.0
 44
0.9
  1
2
 40
0.125
 41
0.2
  0
MTEXT
  5
276
100
AcDbEntity
  8
0
100
AcDbMText
 62
2
  6
CONTINUOUS
  7
STANDARD
 71
2
 72
1
 10
1.5275
 20
-2.6565
 30
0.0
 11
1.0
 21
0.0
 31
0.0
 44
0.9
  1
Includes integral cartridge(s)
 40
0.125
 41
6.0
  0
MTEXT
  5
277
100
AcDbEntity
  8
0
100
AcDbMText
 62
2
  6
CONTINUOUS
  7
STANDARD
 71
2
 72
1
 10
6.055
 20
-2.6565
 30
0.0
 11
1.0
 21
0.0
 31
0.0
 44
0.9
  1
Yes (see Included Components)
 40
0.125
 41
5.8
  0
ENDBLK
  5
278
100
AcDbEntity
  8
0
  6
BYBLOCK
 62
0
100
AcDbBlockEnd
  0
BLOCK
  5
279
100
AcDbEntity
  8
0
100
AcDbBlockBegin
  2
*T3
 70
1
 10
0.0
 20
0.0
  3
*T3
  1

  0
LINE
  5
27A
100
AcDbEntity
  8
0
100
AcDbLine
 62
2
  6
CONTINUOUS
 10
0.0
 20
0.0
 11
4.6
 21
0.0
  0
LINE
  5
27B
100
AcDbEntity
  8
0
100
AcDbLine
 62
2
  6
CONTINUOUS
 10
0.0
 20
0.0
 11
0.0
 21
-1.43775
  0
LINE
  5
27C
100
AcDbEntity
  8
0
100
AcDbLine
 62
2
  6
CONTINUOUS
 10
0.0
 20
-0.34375
 11
4.6
 21
-0.34375
  0
LINE
  5
27D
100
AcDbEntity
  8
0
100
AcDbLine
 62
2
  6
CONTINUOUS
 10
0.0
 20
-0.68775
 11
4.6
 21
-0.68775
  0
LINE
  5
27E
100
AcDbEntity
  8
0
100
AcDbLine
 62
2
  6
CONTINUOUS
 10
0.0
 20
-0.93775
 11
4.6
 21
-0.93775
  0
LINE
  5
27F
100
AcDbEntity
  8
0
100
AcDbLine
 62
2
  6
CONTINUOUS
 10
0.0
 20
-1.18775
 11
4.6
 21
-1.18775
  0
LINE
  5
280
100
AcDbEntity
  8
0
100
AcDbLine
 62
2
  6
CONTINUOUS
 10
0.0
 20
-1.43775
 11
4.6
 21
-1.43775
  0
LINE
  5
281
100
AcDbEntity
  8
0
100
AcDbLine
 62
2
  6
CONTINUOUS
 10
1.3
 20
-0.34375
 11
1.3
 21
-1.43775
  0
LINE
  5
282
100
AcDbEntity
  8
0
100
AcDbLine
 62
2
  6
CONTINUOUS
 10
3.3
 20
-0.34375
 11
3.3
 21
-1.43775
  0
LINE
  5
283
100
AcDbEntity
  8
0
100
AcDbLine
 62
2
  6
CONTINUOUS
 10
4.6
 20
0.0
 11
4.6
 21
-1.43775
  0
MTEXT
  5
284
100
AcDbEntity
  8
0
100
AcDbMText
 62
2
  6
CONTINUOUS
  7
STANDARD
 71
2
 72
1
 10
2.3
 20
-0.099375
 30
0.0
 11
1.0
 21
0.0
 31
0.0
 44
0.9
  1
Port Headings
 40
0.145
 41
3.016
  0
MTEXT
  5
285
100
AcDbEntity
  8
0
100
AcDbMText
 62
2
  6
CONTINUOUS
  7
STANDARD
 71
2
 72
1
 10
0.65
 20
-0.44325
 30
0.0
 11
1.0
 21
0.0
 31
0.0
 44
0.9
  1
Product
 40
0.145
 41
1.624
  0
MTEXT
  5
286
100
AcDbEntity
  8
0
100
AcDbMText
 62
2
  6
CONTINUOUS
  7
STANDARD
 71
2
 72
1
 10
2.3
 20
-0.44325
 30
0.0
 11
1.0
 21
0.0
 31
0.0
 44
0.9
  1
Port
 40
0.145
 41
0.928
  0
MTEXT
  5
287
100
AcDbEntity
  8
0
100
AcDbMText
 62
2
  6
CONTINUOUS
  7
STANDARD
 71
2
 72
1
 10
3.95
 20
-0.44325
 30
0.0
 11
1.0
 21
0.0
 31
0.0
 44
0.9
  1
Size
 40
0.145
 41
0.928
  0
MTEXT
  5
288
100
AcDbEntity
  8
0
100
AcDbMText
 62
2
  6
CONTINUOUS
  7
STANDARD
 71
2
 72
1
 10
0.65
 20
-0.75025
 30
0.0
 11
1.0
 21
0.0
 31
0.0
 44
0.9
  1
3BV
 40
0.125
 41
0.6
  0
MTEXT
  5
289
100
AcDbEntity
  8
0
100
AcDbMText
 62
2
  6
CONTINUOUS
  7
STANDARD
 71
2
 72
1
 10
2.3
 20
-0.75025
 30
0.0
 11
1.0
 21
0.0
 31
0.0
 44
0.9
  1
Ports C1, C2, V1, V2
 40
0.125
 41
4.0
  0
MTEXT
  5
28A
100
AcDbEntity
  8
0
100
AcDbMText
 62
2
  6
CONTINUOUS
  7
STANDARD
 71
2
 72
1
 10
3.95
 20
-0.75025
 30
0.0
 11
1.0
 21
0.0
 31
0.0
 44
0.9
  1
1/2" BSPP
 40
0.125
 41
1.8
  0
MTEXT
  5
28B
100
AcDbEntity
  8
0
100
AcDbMText
 62
2
  6
CONTINUOUS
  7
STANDARD
 71
2
 72
1
 10
0.65
 20
-1.00025
 30
0.0
 11
1.0
 21
0.0
 31
0.0
 44
0.9
  1
3BV
 40
0.125
 41
0.6
  0
MTEXT
  5
28C
100
AcDbEntity
  8
0
100
AcDbMText
 62
2
  6
CONTINUOUS
  7
STANDARD
 71
2
 72
1
 10
2.3
 20
-1.00025
 30
0.0
 11
1.0
 21
0.0
 31
0.0
 44
0.9
  1
Port S
 40
0.125
 41
1.2
  0
MTEXT
  5
28D
100
AcDbEntity
  8
0
100
AcDbMText
 62
2
  6
CONTINUOUS
  7
STANDARD
 71
2
 72
1
 10
3.95
 20
-1.00025
 30
0.0
 11
1.0
 21
0.0
 31
0.0
 44
0.9
  1
1/4" BSPP
 40
0.125
 41
1.8
  0
MTEXT
  5
28E
100
AcDbEntity
  8
0
100
AcDbMText
 62
2
  6
CONTINUOUS
  7
STANDARD
 71
2
 72
1
 10
0.65
 20
-1.25025
 30
0.0
 11
1.0
 21
0.0
 31
0.0
 44
0.9
  1
3BV
 40
0.125
 41
0.6
  0
MTEXT
  5
28F
100
AcDbEntity
  8
0
100
AcDbMText
 62
2
  6
CONTINUOUS
  7
STANDARD
 71
2
 72
1
 10
2.3
 20
-1.25025
 30
0.0
 11
1.0
 21
0.0
 31
0.0
 44
0.9
  1
Port T
 40
0.125
 41
1.2
  0
MTEXT
  5
290
100
AcDbEntity
  8
0
100
AcDbMText
 62
2
  6
CONTINUOUS
  7
STANDARD
 71
2
 72
1
 10
3.95
 20
-1.25025
 30
0.0
 11
1.0
 21
0.0
 31
0.0
 44
0.9
  1
3/4" BSPP
 40
0.125
 41
1.8
  0
ENDBLK
  5
291
100
AcDbEntity
  8
0
  6
BYBLOCK
 62
0
100
AcDbBlockEnd
  0
ENDSEC
  0
SECTION
  2
ENTITIES
  0
IMAGE
  5
292
100
AcDbEntity
  8
0
100
AcDbRasterImage
 62
7
  6
CONTINUOUS
 10
19.2297077316
 20
0.3094318264
 30
0.0
 11
0.0066666667
 21
0.0
 31
0.0
 12
0.0
 22
0.0066666667
 32
0.0
 13
369.0
 23
92.0
340
       3C0
 70
9
280
0
281
50
282
50
283
0
360
       3BA
 71
1
 91
2
 14
-0.5
 24
-0.5
 14
368.5
 24
91.5
  0
INSERT
  5
293
100
AcDbEntity
  8
0
100
AcDbBlockReference
 62
2
  6
CONTINUOUS
  2
SUN_FIRST_THIRD_ANGLE_BL0
 10
20.4816717061
 20
1.2289683772
  0
ACAD_TABLE
  5
294
100
AcDbEntity
  8
0
 62
2
  6
CONTINUOUS
100
AcDbBlockReference
  2
*T1
 10
12.42375
 20
0.30125
 30
0.0
100
AcDbTable
342
       3C2
343
20F
 11
1.0
 21
0.0
 31
0.0
 90
6
 91
4
 92
6
 93
20
 94
0
 95
0
 96
0
 70
1
 41
0.0
141
0.525
141
0.1
141
0.525
141
0.1
142
4.1
142
1.1
142
0.7
142
0.5
142
0.4
142
2.475
171
1
172
0
173
0
174
0
175
1
176
1
 91
33
178
0
145
0.0
301
CELL_VALUE
 90
4
  1
T-2A Line mount\PCushion lock with shuttle
304
ACVALUE_END
170
2
140
0.125
171
1
172
0
173
0
174
0
175
1
176
1
 91
33
178
0
145
0.0
301
CELL_VALUE
 90
4
  1
Oct-17-22
304
ACVALUE_END
170
5
140
0.125
171
1
172
0
173
0
174
0
175
1
176
1
 91
33
178
0
145
0.0
301
CELL_VALUE
 90
4
  1
1.000
304
ACVALUE_END
170
5
140
0.125
171
1
172
0
173
0
174
0
175
1
176
1
 91
33
178
0
145
0.0
301
CELL_VALUE
 90
4
  1
C
304
ACVALUE_END
170
5
140
0.125
171
1
172
0
173
0
174
0
175
1
176
1
 91
33
178
0
145
0.0
301
CELL_VALUE
 90
4
  1
2
304
ACVALUE_END
170
5
140
0.125
171
1
172
0
173
0
174
0
175
1
176
1
 91
33
178
0
145
0.0
301
CELL_VALUE
 90
4
  1
 
304
ACVALUE_END
170
1
140
0.125
171
1
172
0
173
0
174
0
175
1
176
1
 91
33
178
0
145
0.0
301
CELL_VALUE
 90
4
  1
DESCRIPTION
304
ACVALUE_END
170
1
140
0.06
171
1
172
0
173
0
174
0
175
1
176
1
 91
33
178
0
145
0.0
301
CELL_VALUE
 90
4
  1
DATE
304
ACVALUE_END
170
1
140
0.06
171
1
172
0
173
0
174
0
175
1
176
1
 91
33
178
0
145
0.0
301
CELL_VALUE
 90
4
  1
SCALE
304
ACVALUE_END
170
1
140
0.06
171
1
172
0
173
0
174
0
175
1
176
1
 91
33
178
0
145
0.0
301
CELL_VALUE
 90
4
  1
DWG SIZE
304
ACVALUE_END
170
1
140
0.06
171
1
172
0
173
0
174
0
175
1
176
1
 91
33
178
0
145
0.0
301
CELL_VALUE
 90
4
  1
SHEET
304
ACVALUE_END
170
1
140
0.06
171
1
172
0
173
0
174
0
175
1
176
1
 91
33
178
0
145
0.0
301
CELL_VALUE
 90
4
  1
 
304
ACVALUE_END
170
1
140
0.125
171
1
172
0
173
0
174
0
175
1
176
1
 91
33
178
0
145
0.0
301
CELL_VALUE
 90
4
  1
3BV
304
ACVALUE_END
170
5
140
0.125
171
1
172
0
173
0
174
0
175
4
176
1
 91
33
178
0
145
0.0
301
CELL_VALUE
 90
4
  1
ALL DIMENSIONS IN INCH\PVIEWS ARE THIRD ANGLE
304
ACVALUE_END
170
5
140
0.12
171
1
172
0
173
1
174
0
175
1
176
1
 91
1
178
0
145
0.0
170
1
171
1
172
0
173
1
174
0
175
1
176
1
 91
1
178
0
145
0.0
170
1
171
1
172
0
173
1
174
0
175
1
176
1
 91
1
178
0
145
0.0
170
5
171
1
172
0
173
0
174
0
175
1
176
1
 91
33
178
0
145
0.0
301
CELL_VALUE
 90
4
  1
 
304
ACVALUE_END
170
1
140
0.125
171
1
172
0
173
0
174
0
175
1
176
1
 91
33
178
0
145
0.0
301
CELL_VALUE
 90
4
  1
MODEL
304
ACVALUE_END
170
1
140
0.06
171
1
172
0
173
0
174
0
175
1
176
1
 91
33
178
0
145
0.0
301
CELL_VALUE
 90
4
  1
 
304
ACVALUE_END
170
1
140
0.125
171
1
172
0
173
0
174
0
175
1
176
1
 91
33
178
0
145
0.0
301
CELL_VALUE
 90
4
  1
 
304
ACVALUE_END
170
1
140
0.125
171
1
172
0
173
0
174
0
175
1
176
1
 91
33
178
0
145
0.0
301
CELL_VALUE
 90
4
  1
 
304
ACVALUE_END
170
1
140
0.125
171
1
172
0
173
0
174
0
175
1
176
1
 91
33
178
0
145
0.0
301
CELL_VALUE
 90
4
  1
 
304
ACVALUE_END
170
1
140
0.125
171
1
172
0
173
0
174
0
175
1
176
1
 91
33
178
0
145
0.0
301
CELL_VALUE
 90
4
  1
 
304
ACVALUE_END
170
1
140
0.125
  0
ACAD_TABLE
  5
295
100
AcDbEntity
  8
0
 62
2
  6
CONTINUOUS
100
AcDbBlockReference
  2
*T2
 10
12.4237499994
 20
16.47875
 30
0.0
100
AcDbTable
342
       3C1
343
210
 11
1.0
 21
0.0
 31
0.0
 90
22
 91
11
 92
3
 93
16
 94
0
 95
0
 96
0
 41
0.028
141
0.344
141
0.25
141
0.25
141
0.25
141
0.25
141
0.25
141
0.25
141
0.25
141
0.25
141
0.25
141
0.25
142
3.055
142
3.0
142
3.0
171
1
172
0
173
0
174
0
175
1
176
1
 91
33
178
0
145
0.0
301
CELL_VALUE
 90
4
  1
Technical Data
304
ACVALUE_END
170
5
140
0.145
171
1
172
0
173
0
174
0
175
1
176
1
 91
33
178
0
145
0.0
301
CELL_VALUE
 90
4
  1
U.S. Units
304
ACVALUE_END
170
5
140
0.145
171
1
172
0
173
0
174
0
175
1
176
1
 91
33
178
0
145
0.0
301
CELL_VALUE
 90
4
  1
Metric Units
304
ACVALUE_END
170
5
140
0.145
171
1
172
0
173
0
174
0
175
1
176
1
 91
33
178
0
145
0.0
301
CELL_VALUE
 90
4
  1
Cavity
304
ACVALUE_END
170
5
140
0.125
171
1
172
0
173
0
174
0
175
2
176
1
 91
33
178
0
145
0.0
301
CELL_VALUE
 90
4
  1
T-2A
304
ACVALUE_END
170
5
140
0.125
171
1
172
0
173
1
174
0
175
1
176
1
 91
1
178
0
145
0.0
170
1
171
1
172
0
173
0
174
0
175
1
176
1
 91
33
178
0
145
0.0
301
CELL_VALUE
 90
4
  1
Body Features
304
ACVALUE_END
170
5
140
0.125
171
1
172
0
173
0
174
0
175
2
176
1
 91
33
178
0
145
0.0
301
CELL_VALUE
 90
4
  1
Cushion lock with shuttle
304
ACVALUE_END
170
5
140
0.125
171
1
172
0
173
1
174
0
175
1
176
1
 91
1
178
0
145
0.0
170
1
171
1
172
0
173
0
174
0
175
1
176
1
 91
33
178
0
145
0.0
301
CELL_VALUE
 90
4
  1
Body Type
304
ACVALUE_END
170
5
140
0.125
171
1
172
0
173
0
174
0
175
2
176
1
 91
33
178
0
145
0.0
301
CELL_VALUE
 90
4
  1
Line mount
304
ACVALUE_END
170
5
140
0.125
171
1
172
0
173
1
174
0
175
1
176
1
 91
1
178
0
145
0.0
170
1
171
1
172
0
173
0
174
0
175
1
176
1
 91
33
178
0
145
0.0
301
CELL_VALUE
 90
4
  1
Interface
304
ACVALUE_END
170
5
140
0.125
171
1
172
0
173
0
174
0
175
2
176
1
 91
33
178
0
145
0.0
301
CELL_VALUE
 90
4
  1
None
304
ACVALUE_END
170
5
140
0.125
171
1
172
0
173
1
174
0
175
1
176
1
 91
1
178
0
145
0.0
170
1
171
1
172
0
173
0
174
0
175
1
176
1
 91
33
178
0
145
0.0
301
CELL_VALUE
 90
4
  1
Open Cavity Quantity
304
ACVALUE_END
170
5
140
0.125
171
1
172
0
173
0
174
0
175
2
176
1
 91
33
178
0
145
0.0
301
CELL_VALUE
 90
4
  1
2
304
ACVALUE_END
170
5
140
0.125
171
1
172
0
173
1
174
0
175
1
176
1
 91
1
178
0
145
0.0
170
1
171
1
172
0
173
0
174
0
175
1
176
1
 91
33
178
0
145
0.0
301
CELL_VALUE
 90
4
  1
Weight
304
ACVALUE_END
170
5
140
0.125
171
1
172
0
173
0
174
0
175
1
176
1
 91
33
178
0
145
0.0
301
CELL_VALUE
 90
4
  1
6.800 lb.
304
ACVALUE_END
170
5
140
0.125
171
1
172
0
173
0
174
0
175
1
176
1
 91
33
178
0
145
0.0
301
CELL_VALUE
 90
4
  1
3,084 kg.
304
ACVALUE_END
170
5
140
0.125
171
1
172
0
173
0
174
0
175
1
176
1
 91
33
178
0
145
0.0
301
CELL_VALUE
 90
4
  1
Mounting Hole Diameter
304
ACVALUE_END
170
5
140
0.125
171
1
172
0
173
0
174
0
175
1
176
1
 91
33
178
0
145
0.0
301
CELL_VALUE
 90
4
  1
.42 in.
304
ACVALUE_END
170
5
140
0.125
171
1
172
0
173
0
174
0
175
1
176
1
 91
33
178
0
145
0.0
301
CELL_VALUE
 90
4
  1
10,7 mm
304
ACVALUE_END
170
5
140
0.125
171
1
172
0
173
0
174
0
175
1
176
1
 91
33
178
0
145
0.0
301
CELL_VALUE
 90
4
  1
Mounting Hole Depth
304
ACVALUE_END
170
5
140
0.125
171
1
172
0
173
0
174
0
175
2
176
1
 91
33
178
0
145
0.0
301
CELL_VALUE
 90
4
  1
Through
304
ACVALUE_END
170
5
140
0.125
171
1
172
0
173
1
174
0
175
1
176
1
 91
1
178
0
145
0.0
170
1
171
1
172
0
173
0
174
0
175
1
176
1
 91
33
178
0
145
0.0
301
CELL_VALUE
 90
4
  1
Mounting Hole Quantity
304
ACVALUE_END
170
5
140
0.125
171
1
172
0
173
0
174
0
175
2
176
1
 91
33
178
0
145
0.0
301
CELL_VALUE
 90
4
  1
2
304
ACVALUE_END
170
5
140
0.125
171
1
172
0
173
1
174
0
175
1
176
1
 91
1
178
0
145
0.0
170
1
171
1
172
0
173
0
174
0
175
1
176
1
 91
33
178
0
145
0.0
301
CELL_VALUE
 90
4
  1
Includes integral cartridge(s)
304
ACVALUE_END
170
5
140
0.125
171
1
172
0
173
0
174
0
175
2
176
1
 91
33
178
0
145
0.0
301
CELL_VALUE
 90
4
  1
Yes (see Included Components)
304
ACVALUE_END
170
5
140
0.125
171
1
172
0
173
1
174
0
175
1
176
1
 91
1
178
0
145
0.0
170
1
  0
ACAD_TABLE
  5
296
100
AcDbEntity
  8
0
 62
2
  6
CONTINUOUS
100
AcDbBlockReference
  2
*T3
 10
0.52125
 20
1.959
 30
0.0
100
AcDbTable
342
       3C1
343
211
 11
1.0
 21
0.0
 31
0.0
 90
22
 91
5
 92
3
 93
16
 94
0
 95
0
 96
0
 41
0.05
141
0.34375
141
0.344
141
0.25
141
0.25
141
0.25
142
1.3
142
2.0
142
1.3
171
1
172
0
173
0
174
0
175
3
176
1
 91
33
178
0
145
0.0
301
CELL_VALUE
 90
4
  1
Port Headings
304
ACVALUE_END
170
5
140
0.145
171
1
172
0
173
1
174
0
175
1
176
1
 91
1
178
0
145
0.0
170
1
171
1
172
0
173
1
174
0
175
1
176
1
 91
1
178
0
145
0.0
170
1
171
1
172
0
173
0
174
0
175
1
176
1
 91
33
178
0
145
0.0
301
CELL_VALUE
 90
4
  1
Product
304
ACVALUE_END
170
5
140
0.145
171
1
172
0
173
0
174
0
175
1
176
1
 91
33
178
0
145
0.0
301
CELL_VALUE
 90
4
  1
Port
304
ACVALUE_END
170
5
140
0.145
171
1
172
0
173
0
174
0
175
1
176
1
 91
33
178
0
145
0.0
301
CELL_VALUE
 90
4
  1
Size
304
ACVALUE_END
170
5
140
0.145
171
1
172
0
173
0
174
0
175
1
176
1
 91
33
178
0
145
0.0
301
CELL_VALUE
 90
4
  1
3BV
304
ACVALUE_END
170
5
140
0.125
171
1
172
0
173
0
174
0
175
1
176
1
 91
33
178
0
145
0.0
301
CELL_VALUE
 90
4
  1
Ports C1, C2, V1, V2
304
ACVALUE_END
170
5
140
0.125
171
1
172
0
173
0
174
0
175
1
176
1
 91
33
178
0
145
0.0
301
CELL_VALUE
 90
4
  1
1/2" BSPP
304
ACVALUE_END
170
5
140
0.125
171
1
172
0
173
0
174
0
175
1
176
1
 91
33
178
0
145
0.0
301
CELL_VALUE
 90
4
  1
3BV
304
ACVALUE_END
170
5
140
0.125
171
1
172
0
173
0
174
0
175
1
176
1
 91
33
178
0
145
0.0
301
CELL_VALUE
 90
4
  1
Port S
304
ACVALUE_END
170
5
140
0.125
171
1
172
0
173
0
174
0
175
1
176
1
 91
33
178
0
145
0.0
301
CELL_VALUE
 90
4
  1
1/4" BSPP
304
ACVALUE_END
170
5
140
0.125
171
1
172
0
173
0
174
0
175
1
176
1
 91
33
178
0
145
0.0
301
CELL_VALUE
 90
4
  1
3BV
304
ACVALUE_END
170
5
140
0.125
171
1
172
0
173
0
174
0
175
1
176
1
 91
33
178
0
145
0.0
301
CELL_VALUE
 90
4
  1
Port T
304
ACVALUE_END
170
5
140
0.125
171
1
172
0
173
0
174
0
175
1
176
1
 91
33
178
0
145
0.0
301
CELL_VALUE
 90
4
  1
3/4" BSPP
304
ACVALUE_END
170
5
140
0.125
  0
MTEXT
  5
297
100
AcDbEntity
  8
0
100
AcDbMText
 62
2
  6
CONTINUOUS
  7
STANDARD
 71
1
 72
1
 10
0.52125
 20
5.75995
 30
0.0
 11
1.0
 21
0.0
 31
0.0
 44
0.6
  3
Notes\P \P1. Important: Carefully consider\P   the maximum system pressure. The\P   pressure rating of the manifold is\P   dependent on the manifold material,\P   with the port type/size a secondary\P   consideration. Manifolds\P   constructed of alu
  1
minum are not\P   rated for pressures higher than\P   3000 psi (210 bar), regardless of\P   the port type/size specified.
 40
0.1
 41
3.04
  0
LINE
  5
298
100
AcDbEntity
  8
0
100
AcDbLine
 62
7
  6
CONTINUOUS
 10
0.30125
 20
0.30125
 11
0.30125
 21
16.69875
  0
LINE
  5
299
100
AcDbEntity
  8
0
100
AcDbLine
 62
7
  6
CONTINUOUS
 10
0.30125
 20
0.30125
 11
21.69875
 21
0.30125
  0
LINE
  5
29A
100
AcDbEntity
  8
0
100
AcDbLine
 62
7
  6
CONTINUOUS
 10
0.30125
 20
16.69875
 11
21.69875
 21
16.69875
  0
LINE
  5
29B
100
AcDbEntity
  8
0
100
AcDbLine
 62
7
  6
CONTINUOUS
 10
21.69875
 20
0.30125
 11
21.69875
 21
16.69875
  0
LINE
  5
29C
100
AcDbEntity
  8
0
100
AcDbLine
 62
7
  6
CONTINUOUS
 10
8.4211011542
 20
9.8200858855
 11
9.7151953117
 21
11.0700849279
  0
LINE
  5
29D
100
AcDbEntity
  8
0
100
AcDbLine
 62
7
  6
CONTINUOUS
 10
8.4211011542
 20
6.1978638222
 11
8.4211011542
 21
9.8200858855
  0
LINE
  5
29E
100
AcDbEntity
  8
0
100
AcDbLine
 62
7
  6
CONTINUOUS
 10
12.2848046883
 20
5.9299150721
 11
8.4211011542
 21
6.1978638222
  0
LINE
  5
29F
100
AcDbEntity
  8
0
100
AcDbLine
 62
4
  6
CONTINUOUS
 10
9.626093689
 20
6.4040750251
 11
9.6840492407
 21
6.400055794
  0
LINE
  5
2A0
100
AcDbEntity
  8
0
100
AcDbLine
 62
4
  6
CONTINUOUS
 10
11.0749825143
 20
6.3035942438
 11
11.132938066
 21
6.2995750126
  0
LINE
  5
2A1
100
AcDbEntity
  8
0
100
AcDbLine
 62
4
  6
CONTINUOUS
 10
9.6623159088
 20
6.5174741091
 11
9.6768047967
 21
6.506810045
  0
LINE
  5
2A2
100
AcDbEntity
  8
0
100
AcDbLine
 62
4
  6
CONTINUOUS
 10
9.6768047967
 20
6.506810045
 11
9.6840492407
 21
6.4966483779
  0
LINE
  5
2A3
100
AcDbEntity
  8
0
100
AcDbLine
 62
4
  6
CONTINUOUS
 10
9.7492492364
 20
6.4341711945
 11
9.7927159002
 21
6.4311567712
  0
LINE
  5
2A4
100
AcDbEntity
  8
0
100
AcDbLine
 62
4
  6
CONTINUOUS
 10
11.1981380617
 20
6.3336904132
 11
11.2416047255
 21
6.3306759898
  0
LINE
  5
2A5
100
AcDbEntity
  8
0
100
AcDbLine
 62
4
  6
CONTINUOUS
 10
9.5174270295
 20
6.4695666353
 11
9.5608936933
 21
6.4665522119
  0
LINE
  5
2A6
100
AcDbEntity
  8
0
100
AcDbLine
 62
4
  6
CONTINUOUS
 10
10.9663158548
 20
6.369085854
 11
11.0097825186
 21
6.3660714306
  0
LINE
  5
2A7
100
AcDbEntity
  8
0
100
AcDbLine
 62
4
  6
CONTINUOUS
 10
9.3870270382
 20
6.5365654571
 11
9.4594714778
 21
6.5315414181
  0
LINE
  5
2A8
100
AcDbEntity
  8
0
100
AcDbLine
 62
4
  6
CONTINUOUS
 10
9.6478270209
 20
6.5184789169
 11
9.6623159088
 21
6.5174741091
  0
LINE
  5
2A9
100
AcDbEntity
  8
0
100
AcDbLine
 62
4
  6
CONTINUOUS
 10
10.8359158634
 20
6.4360846758
 11
10.9083603031
 21
6.4310606368
  0
LINE
  5
2AA
100
AcDbEntity
  8
0
100
AcDbLine
 62
4
  6
CONTINUOUS
 10
11.0967158462
 20
6.4179981356
 11
11.1112047341
 21
6.4169933278
  0
LINE
  5
2AB
100
AcDbEntity
  8
0
100
AcDbLine
 62
4
  6
CONTINUOUS
 10
9.7709825683
 20
6.5099380506
 11
9.8072047881
 21
6.3915149277
  0
LINE
  5
2AC
100
AcDbEntity
  8
0
100
AcDbLine
 62
4
  6
CONTINUOUS
 10
9.423249258
 20
6.5340534376
 11
9.423249258
 21
6.4181423342
  0
LINE
  5
2AD
100
AcDbEntity
  8
0
100
AcDbLine
 62
4
  6
CONTINUOUS
 10
11.1112047341
 20
6.4169933278
 11
11.125693622
 21
6.4063292637
  0
LINE
  5
2AE
100
AcDbEntity
  8
0
100
AcDbLine
 62
4
  6
CONTINUOUS
 10
9.6840492407
 20
6.4966483779
 11
9.6840492407
 21
6.4773298652
  0
LINE
  5
2AF
100
AcDbEntity
  8
0
100
AcDbLine
 62
4
  6
CONTINUOUS
 10
9.6792195894
 20
8.206672131
 11
9.7154418092
 21
8.0882490081
  0
LINE
  5
2B0
100
AcDbEntity
  8
0
100
AcDbLine
 62
4
  6
CONTINUOUS
 10
9.8603306885
 20
8.1747935141
 11
9.8603306885
 21
8.1554750015
  0
LINE
  5
2B1
100
AcDbEntity
  8
0
100
AcDbLine
 62
4
  6
CONTINUOUS
 10
9.8096195807
 20
8.1106955333
 11
9.8023751368
 21
8.0822201614
  0
LINE
  5
2B2
100
AcDbEntity
  8
0
100
AcDbLine
 62
4
  6
CONTINUOUS
 10
9.7154418092
 20
8.0882490081
 11
9.751664029
 21
8.2016480921
  0
LINE
  5
2B3
100
AcDbEntity
  8
0
100
AcDbLine
 62
4
  6
CONTINUOUS
 10
9.8530862445
 20
8.1849551812
 11
9.8603306885
 21
8.1747935141
  0
LINE
  5
2B4
100
AcDbEntity
  8
0
100
AcDbLine
 62
4
  6
CONTINUOUS
 10
11.125693622
 20
6.4063292637
 11
11.132938066
 21
6.3961675965
  0
LINE
  5
2B5
100
AcDbEntity
  8
0
100
AcDbLine
 62
4
  6
CONTINUOUS
 10
9.633338133
 20
6.4325503971
 11
9.626093689
 21
6.4040750251
  0
LINE
  5
2B6
100
AcDbEntity
  8
0
100
AcDbLine
 62
4
  6
CONTINUOUS
 10
9.8023751368
 20
8.1788127453
 11
9.8096195807
 21
8.1879696046
  0
LINE
  5
2B7
100
AcDbEntity
  8
0
100
AcDbLine
 62
4
  6
CONTINUOUS
 10
9.8385973566
 20
8.1956192453
 11
9.8530862445
 21
8.1849551812
  0
LINE
  5
2B8
100
AcDbEntity
  8
0
100
AcDbLine
 62
4
  6
CONTINUOUS
 10
9.7347603485
 20
6.3965389667
 11
9.7709825683
 21
6.5099380506
  0
LINE
  5
2B9
100
AcDbEntity
  8
0
100
AcDbLine
 62
4
  6
CONTINUOUS
 10
9.8241084686
 20
8.1290092416
 11
9.8096195807
 21
8.1106955333
  0
LINE
  5
2BA
100
AcDbEntity
  8
0
100
AcDbLine
 62
4
  6
CONTINUOUS
 10
9.8603306885
 20
8.1554750015
 11
9.8530862445
 21
8.1463181421
  0
LINE
  5
2BB
100
AcDbEntity
  8
0
100
AcDbLine
 62
4
  6
CONTINUOUS
 10
9.8023751368
 20
8.0822201614
 11
9.8603306885
 21
8.0782009302
  0
LINE
  5
2BC
100
AcDbEntity
  8
0
100
AcDbLine
 62
4
  6
CONTINUOUS
 10
9.8096195807
 20
8.1879696046
 11
9.8241084686
 21
8.1966240531
  0
LINE
  5
2BD
100
AcDbEntity
  8
0
100
AcDbLine
 62
4
  6
CONTINUOUS
 10
9.8530862445
 20
8.1463181421
 11
9.8241084686
 21
8.1290092416
  0
LINE
  5
2BE
100
AcDbEntity
  8
0
100
AcDbLine
 62
4
  6
CONTINUOUS
 10
9.8241084686
 20
8.1966240531
 11
9.8385973566
 21
8.1956192453
  0
LINE
  5
2BF
100
AcDbEntity
  8
0
100
AcDbLine
 62
4
  6
CONTINUOUS
 10
11.2198713936
 20
6.4094572693
 11
11.2560936134
 21
6.2910341464
  0
LINE
  5
2C0
100
AcDbEntity
  8
0
100
AcDbLine
 62
4
  6
CONTINUOUS
 10
10.8721380833
 20
6.4335726563
 11
10.8721380833
 21
6.3176615529
  0
LINE
  5
2C1
100
AcDbEntity
  8
0
100
AcDbLine
 62
4
  6
CONTINUOUS
 10
10.905945443
 20
8.1215984041
 11
10.9421676628
 21
8.0031752812
  0
LINE
  5
2C2
100
AcDbEntity
  8
0
100
AcDbLine
 62
4
  6
CONTINUOUS
 10
11.0580787663
 20
8.1110479223
 11
11.0580787663
 21
7.9951368189
  0
LINE
  5
2C3
100
AcDbEntity
  8
0
100
AcDbLine
 62
4
  6
CONTINUOUS
 10
11.132938066
 20
6.3961675965
 11
11.132938066
 21
6.3768490839
  0
LINE
  5
2C4
100
AcDbEntity
  8
0
100
AcDbLine
 62
4
  6
CONTINUOUS
 10
10.9421676628
 20
8.0031752812
 11
10.9783898827
 21
8.1165743652
  0
LINE
  5
2C5
100
AcDbEntity
  8
0
100
AcDbLine
 62
4
  6
CONTINUOUS
 10
9.626093689
 20
6.500667609
 11
9.633338133
 21
6.5098244683
  0
LINE
  5
2C6
100
AcDbEntity
  8
0
100
AcDbLine
 62
4
  6
CONTINUOUS
 10
9.6478270209
 20
6.4508641054
 11
9.633338133
 21
6.4325503971
  0
LINE
  5
2C7
100
AcDbEntity
  8
0
100
AcDbLine
 62
4
  6
CONTINUOUS
 10
9.6840492407
 20
6.4773298652
 11
9.6768047967
 21
6.4681730059
  0
LINE
  5
2C8
100
AcDbEntity
  8
0
100
AcDbLine
 62
7
  6
CONTINUOUS
 10
12.2848046883
 20
9.5521371353
 11
13.5788988458
 21
10.8021361778
  0
LINE
  5
2C9
100
AcDbEntity
  8
0
100
AcDbLine
 62
4
  6
CONTINUOUS
 10
13.074941587
 20
8.7022546164
 11
13.0660678029
 21
8.6992027747
  0
LINE
  5
2CA
100
AcDbEntity
  8
0
100
AcDbLine
 62
4
  6
CONTINUOUS
 10
12.9285240683
 20
8.3019580131
 11
12.9307425162
 21
8.3013410779
  0
LINE
  5
2CB
100
AcDbEntity
  8
0
100
AcDbLine
 62
4
  6
CONTINUOUS
 10
11.0822269582
 20
6.3320696158
 11
11.0749825143
 21
6.3035942438
  0
LINE
  5
2CC
100
AcDbEntity
  8
0
100
AcDbLine
 62
4
  6
CONTINUOUS
 10
12.8028121009
 20
7.8592902267
 11
12.8146438189
 21
7.8486404835
  0
LINE
  5
2CD
100
AcDbEntity
  8
0
100
AcDbLine
 62
4
  6
CONTINUOUS
 10
11.1836491737
 20
6.2960581854
 11
11.2198713936
 21
6.4094572693
  0
LINE
  5
2CE
100
AcDbEntity
  8
0
100
AcDbLine
 62
4
  6
CONTINUOUS
 10
12.7909803655
 20
8.5052431904
 11
12.7998541537
 21
8.5138146122
  0
LINE
  5
2CF
100
AcDbEntity
  8
0
100
AcDbLine
 62
4
  6
CONTINUOUS
 10
13.0320516109
 20
8.7381001461
 11
13.0327910904
 21
8.7388144285
  0
LINE
  5
2D0
100
AcDbEntity
  8
0
100
AcDbLine
 62
4
  6
CONTINUOUS
 10
9.633338133
 20
6.5098244683
 11
9.6478270209
 21
6.5184789169
  0
LINE
  5
2D1
100
AcDbEntity
  8
0
100
AcDbLine
 62
4
  6
CONTINUOUS
 10
9.6768047967
 20
6.4681730059
 11
9.6478270209
 21
6.4508641054
  0
LINE
  5
2D2
100
AcDbEntity
  8
0
100
AcDbLine
 62
7
  6
CONTINUOUS
 10
8.4211011542
 20
9.8200858855
 11
12.2848046883
 21
9.5521371353
  0
LINE
  5
2D3
100
AcDbEntity
  8
0
100
AcDbLine
 62
4
  6
CONTINUOUS
 10
13.0490597202
 20
8.1192254835
 11
13.0608914373
 21
8.1085757377
  0
LINE
  5
2D4
100
AcDbEntity
  8
0
100
AcDbLine
 62
7
  6
CONTINUOUS
 10
12.2848046883
 20
9.5521371353
 11
12.2848046883
 21
5.9299150721
  0
LINE
  5
2D5
100
AcDbEntity
  8
0
100
AcDbLine
 62
4
  6
CONTINUOUS
 10
11.0749825143
 20
6.4001868277
 11
11.0822269582
 21
6.409343687
  0
LINE
  5
2D6
100
AcDbEntity
  8
0
100
AcDbLine
 62
4
  6
CONTINUOUS
 10
11.0967158462
 20
6.3503833241
 11
11.0822269582
 21
6.3320696158
  0
LINE
  5
2D7
100
AcDbEntity
  8
0
100
AcDbLine
 62
4
  6
CONTINUOUS
 10
11.132938066
 20
6.3768490839
 11
11.125693622
 21
6.3676922246
  0
LINE
  5
2D8
100
AcDbEntity
  8
0
100
AcDbLine
 62
4
  6
CONTINUOUS
 10
12.9788088916
 20
8.6535541693
 11
12.9677166541
 21
8.64283989
  0
LINE
  5
2D9
100
AcDbEntity
  8
0
100
AcDbLine
 62
4
  6
CONTINUOUS
 10
12.8841551404
 20
8.5621256611
 11
12.8952473779
 21
8.5728399404
  0
LINE
  5
2DA
100
AcDbEntity
  8
0
100
AcDbLine
 62
4
  6
CONTINUOUS
 10
12.9300030495
 20
8.6064113432
 11
12.9388768336
 21
8.6149827609
  0
LINE
  5
2DB
100
AcDbEntity
  8
0
100
AcDbLine
 62
4
  6
CONTINUOUS
 10
12.9477506325
 20
8.623554193
 11
12.9566244166
 21
8.6321256107
  0
LINE
  5
2DC
100
AcDbEntity
  8
0
100
AcDbLine
 62
4
  6
CONTINUOUS
 10
13.0461017665
 20
8.718554099
 11
13.0549755802
 21
8.7271255453
  0
LINE
  5
2DD
100
AcDbEntity
  8
0
100
AcDbLine
 62
4
  6
CONTINUOUS
 10
13.0660678029
 20
8.7378398103
 11
13.074941587
 21
8.7464112281
  0
LINE
  5
2DE
100
AcDbEntity
  8
0
100
AcDbLine
 62
4
  6
CONTINUOUS
 10
12.9721535461
 20
8.6057287752
 11
12.9810273302
 21
8.6143001929
  0
LINE
  5
2DF
100
AcDbEntity
  8
0
100
AcDbLine
 62
4
  6
CONTINUOUS
 10
13.0549755802
 20
8.644331898
 11
13.0461017665
 21
8.6357604517
  0
LINE
  5
2E0
100
AcDbEntity
  8
0
100
AcDbLine
 62
4
  6
CONTINUOUS
 10
13.0187409347
 20
8.6093319161
 11
13.0143040427
 21
8.6050462072
  0
LINE
  5
2E1
100
AcDbEntity
  8
0
100
AcDbLine
 62
4
  6
CONTINUOUS
 10
12.9810273302
 20
8.5729033693
 11
12.9721535461
 21
8.5643319516
  0
LINE
  5
2E2
100
AcDbEntity
  8
0
100
AcDbLine
 62
4
  6
CONTINUOUS
 10
12.9388768336
 20
8.5321891136
 11
12.9300030495
 21
8.5236176959
  0
LINE
  5
2E3
100
AcDbEntity
  8
0
100
AcDbLine
 62
4
  6
CONTINUOUS
 10
12.7887619183
 20
8.3871892315
 11
12.7976357068
 21
8.3957606534
  0
LINE
  5
2E4
100
AcDbEntity
  8
0
100
AcDbLine
 62
4
  6
CONTINUOUS
 10
12.8153832823
 20
8.412903496
 11
12.822038626
 21
8.4193320647
  0
LINE
  5
2E5
100
AcDbEntity
  8
0
100
AcDbLine
 62
4
  6
CONTINUOUS
 10
12.9921195677
 20
8.5836176486
 11
13.0032118052
 21
8.5943319279
  0
LINE
  5
2E6
100
AcDbEntity
  8
0
100
AcDbLine
 62
4
  6
CONTINUOUS
 10
13.0660678029
 20
8.6550461631
 11
13.074941587
 21
8.6636175808
  0
LINE
  5
2E7
100
AcDbEntity
  8
0
100
AcDbLine
 62
4
  6
CONTINUOUS
 10
12.9063396154
 20
8.4731626906
 11
12.9107765075
 21
8.4774483995
  0
LINE
  5
2E8
100
AcDbEntity
  8
0
100
AcDbLine
 62
4
  6
CONTINUOUS
 10
12.9085580458
 20
8.2826723152
 11
12.8996842571
 21
8.274100893
  0
LINE
  5
2E9
100
AcDbEntity
  8
0
100
AcDbLine
 62
4
  6
CONTINUOUS
 10
12.9218687284
 20
8.2955294481
 11
12.9285240683
 21
8.3019580131
  0
LINE
  5
2EA
100
AcDbEntity
  8
0
100
AcDbLine
 62
4
  6
CONTINUOUS
 10
12.9300030495
 20
8.5236176959
 11
12.9255661575
 21
8.527611352
  0
LINE
  5
2EB
100
AcDbEntity
  8
0
100
AcDbLine
 62
4
  6
CONTINUOUS
 10
12.9721535461
 20
8.5643319516
 11
12.9677166541
 21
8.5683256076
  0
LINE
  5
2EC
100
AcDbEntity
  8
0
100
AcDbLine
 62
4
  6
CONTINUOUS
 10
12.9085580458
 20
8.232996131
 11
12.9041211514
 21
8.2287104199
  0
LINE
  5
2ED
100
AcDbEntity
  8
0
100
AcDbLine
 62
4
  6
CONTINUOUS
 10
12.9218687284
 20
8.2375738963
 11
12.9329609622
 21
8.2482881721
  0
LINE
  5
2EE
100
AcDbEntity
  8
0
100
AcDbLine
 62
4
  6
CONTINUOUS
 10
12.9329609622
 20
8.1903326204
 11
12.9218687284
 21
8.1796183446
  0
LINE
  5
2EF
100
AcDbEntity
  8
0
100
AcDbLine
 62
4
  6
CONTINUOUS
 10
12.8996842571
 20
8.1581897896
 11
12.9107764927
 21
8.1689040671
  0
LINE
  5
2F0
100
AcDbEntity
  8
0
100
AcDbLine
 62
4
  6
CONTINUOUS
 10
12.8205596784
 20
7.9426679869
 11
12.8316519122
 21
7.9533822626
  0
LINE
  5
2F1
100
AcDbEntity
  8
0
100
AcDbLine
 62
4
  6
CONTINUOUS
 10
12.8752813697
 20
7.9955250849
 11
12.8930289452
 21
8.0126679275
  0
LINE
  5
2F2
100
AcDbEntity
  8
0
100
AcDbLine
 62
4
  6
CONTINUOUS
 10
12.9019027367
 20
8.0212393524
 11
12.9152134202
 21
8.0340964861
  0
LINE
  5
2F3
100
AcDbEntity
  8
0
100
AcDbLine
 62
4
  6
CONTINUOUS
 10
12.9529270248
 20
8.0705250329
 11
12.9618008089
 21
8.0790964506
  0
LINE
  5
2F4
100
AcDbEntity
  8
0
100
AcDbLine
 62
4
  6
CONTINUOUS
 10
12.9788088975
 20
8.0955250037
 11
12.985464243
 21
8.1019535741
  0
LINE
  5
2F5
100
AcDbEntity
  8
0
100
AcDbLine
 62
4
  6
CONTINUOUS
 10
12.9987749191
 20
8.1148107007
 11
13.0098671566
 21
8.12552498
  0
LINE
  5
2F6
100
AcDbEntity
  8
0
100
AcDbLine
 62
4
  6
CONTINUOUS
 10
13.02687526
 20
8.1419535474
 11
13.0401859361
 21
8.1548106739
  0
LINE
  5
2F7
100
AcDbEntity
  8
0
100
AcDbLine
 62
4
  6
CONTINUOUS
 10
13.0357490441
 20
8.1008487809
 11
13.02687526
 21
8.0922773631
  0
LINE
  5
2F8
100
AcDbEntity
  8
0
100
AcDbLine
 62
4
  6
CONTINUOUS
 10
12.9107765282
 20
7.980134593
 11
12.9019027367
 21
7.9715631682
  0
LINE
  5
2F9
100
AcDbEntity
  8
0
100
AcDbLine
 62
4
  6
CONTINUOUS
 10
12.8516179356
 20
7.8898743176
 11
12.8634496526
 21
7.9013028793
  0
LINE
  5
2FA
100
AcDbEntity
  8
0
100
AcDbLine
 62
4
  6
CONTINUOUS
 10
12.9307425162
 20
8.3013410779
 11
12.9351794119
 21
8.2918278537
  0
LINE
  5
2FB
100
AcDbEntity
  8
0
100
AcDbLine
 62
4
  6
CONTINUOUS
 10
12.8020726007
 20
8.4331638237
 11
12.7865434711
 21
8.4678400232
  0
LINE
  5
2FC
100
AcDbEntity
  8
0
100
AcDbLine
 62
4
  6
CONTINUOUS
 10
12.8316519122
 20
7.9533822626
 11
12.836088806
 21
7.9411092452
  0
LINE
  5
2FD
100
AcDbEntity
  8
0
100
AcDbLine
 62
4
  6
CONTINUOUS
 10
12.7865434711
 20
8.3933257408
 11
12.7887619183
 21
8.3871892315
  0
LINE
  5
2FE
100
AcDbEntity
  8
0
100
AcDbLine
 62
4
  6
CONTINUOUS
 10
12.9529270248
 20
7.9546139295
 11
12.9484901328
 21
7.9668869504
  0
LINE
  5
2FF
100
AcDbEntity
  8
0
100
AcDbLine
 62
4
  6
CONTINUOUS
 10
12.8109463885
 20
8.4251765152
 11
12.8153832823
 21
8.412903496
  0
LINE
  5
300
100
AcDbEntity
  8
0
100
AcDbLine
 62
4
  6
CONTINUOUS
 10
12.9788088975
 20
7.9796139002
 11
12.9743720055
 21
7.9918869212
  0
LINE
  5
301
100
AcDbEntity
  8
0
100
AcDbLine
 62
4
  6
CONTINUOUS
 10
12.7998541537
 20
8.5138146122
 11
12.8020726007
 21
8.5076781
  0
LINE
  5
302
100
AcDbEntity
  8
0
100
AcDbLine
 62
4
  6
CONTINUOUS
 10
12.9129949397
 20
8.2207231101
 11
12.9085580458
 21
8.232996131
  0
LINE
  5
303
100
AcDbEntity
  8
0
100
AcDbLine
 62
4
  6
CONTINUOUS
 10
12.9063396154
 20
8.5835542197
 11
12.9129949609
 21
8.5071891429
  0
LINE
  5
304
100
AcDbEntity
  8
0
100
AcDbLine
 62
4
  6
CONTINUOUS
 10
12.8575337941
 20
7.9783822423
 11
12.8664075856
 21
7.8710425637
  0
LINE
  5
305
100
AcDbEntity
  8
0
100
AcDbLine
 62
4
  6
CONTINUOUS
 10
12.9462716457
 20
8.3191008575
 11
12.9551454335
 21
8.2117611754
  0
LINE
  5
306
100
AcDbEntity
  8
0
100
AcDbLine
 62
4
  6
CONTINUOUS
 10
12.7865434711
 20
8.4678400232
 11
12.7865434711
 21
8.4843987513
  0
LINE
  5
307
100
AcDbEntity
  8
0
100
AcDbLine
 62
4
  6
CONTINUOUS
 10
12.8020726007
 20
8.4166050939
 11
12.8020726007
 21
8.4331638237
  0
LINE
  5
308
100
AcDbEntity
  8
0
100
AcDbLine
 62
4
  6
CONTINUOUS
 10
12.8109463885
 20
8.5245288888
 11
12.8109463885
 21
8.4251765152
  0
LINE
  5
309
100
AcDbEntity
  8
0
100
AcDbLine
 62
4
  6
CONTINUOUS
 10
12.8205596784
 20
7.8267568834
 11
12.8205596784
 21
7.9426679869
  0
LINE
  5
30A
100
AcDbEntity
  8
0
100
AcDbLine
 62
4
  6
CONTINUOUS
 10
12.826475518
 20
8.4401765034
 11
12.826475518
 21
8.539528877
  0
LINE
  5
30B
100
AcDbEntity
  8
0
100
AcDbLine
 62
4
  6
CONTINUOUS
 10
12.8353493058
 20
8.4321891949
 11
12.8353493058
 21
8.5481002983
  0
LINE
  5
30C
100
AcDbEntity
  8
0
100
AcDbLine
 62
4
  6
CONTINUOUS
 10
12.836088806
 20
7.9411092452
 11
12.836088806
 21
7.8583155996
  0
LINE
  5
30D
100
AcDbEntity
  8
0
100
AcDbLine
 62
4
  6
CONTINUOUS
 10
12.8508784353
 20
8.447189183
 11
12.8508784353
 21
8.5631002865
  0
LINE
  5
30E
100
AcDbEntity
  8
0
100
AcDbLine
 62
4
  6
CONTINUOUS
 10
12.8841551612
 20
7.8881854063
 11
12.8841551612
 21
8.0040965098
  0
LINE
  5
30F
100
AcDbEntity
  8
0
100
AcDbLine
 62
4
  6
CONTINUOUS
 10
12.8841551404
 20
8.4793320138
 11
12.8841551404
 21
8.5952431173
  0
LINE
  5
310
100
AcDbEntity
  8
0
100
AcDbLine
 62
4
  6
CONTINUOUS
 10
12.897465824
 20
8.5667034274
 11
12.897465824
 21
8.4921891476
  0
LINE
  5
311
100
AcDbEntity
  8
0
100
AcDbLine
 62
4
  6
CONTINUOUS
 10
12.9019027367
 20
7.9053282489
 11
12.9019027367
 21
8.0212393524
  0
LINE
  5
312
100
AcDbEntity
  8
0
100
AcDbLine
 62
4
  6
CONTINUOUS
 10
12.9122554574
 20
8.2448469171
 11
12.9122554574
 21
8.2696850127
  0
LINE
  5
313
100
AcDbEntity
  8
0
100
AcDbLine
 62
4
  6
CONTINUOUS
 10
12.9129949397
 20
8.1793262873
 11
12.9129949397
 21
8.2207231101
  0
LINE
  5
314
100
AcDbEntity
  8
0
100
AcDbLine
 62
4
  6
CONTINUOUS
 10
12.9218687284
 20
8.1796183446
 11
12.9218687284
 21
8.2955294481
  0
LINE
  5
315
100
AcDbEntity
  8
0
100
AcDbLine
 62
4
  6
CONTINUOUS
 10
12.9255661575
 20
8.527611352
 11
12.9255661575
 21
8.5938462668
  0
LINE
  5
316
100
AcDbEntity
  8
0
100
AcDbLine
 62
4
  6
CONTINUOUS
 10
12.9351794119
 20
8.2918278537
 11
12.9351794119
 21
8.2669897582
  0
LINE
  5
317
100
AcDbEntity
  8
0
100
AcDbLine
 62
4
  6
CONTINUOUS
 10
12.9373978579
 20
8.2360151564
 11
12.9373978579
 21
8.2111770626
  0
LINE
  5
318
100
AcDbEntity
  8
0
100
AcDbLine
 62
4
  6
CONTINUOUS
 10
12.9388768336
 20
8.6481002171
 11
12.9388768336
 21
8.5321891136
  0
LINE
  5
319
100
AcDbEntity
  8
0
100
AcDbLine
 62
4
  6
CONTINUOUS
 10
12.9477506325
 20
8.5407605457
 11
12.9477506325
 21
8.623554193
  0
LINE
  5
31A
100
AcDbEntity
  8
0
100
AcDbLine
 62
4
  6
CONTINUOUS
 10
12.9484901328
 20
7.9668869504
 11
12.9484901328
 21
8.049680596
  0
LINE
  5
31B
100
AcDbEntity
  8
0
100
AcDbLine
 62
4
  6
CONTINUOUS
 10
12.9581033756
 20
8.625274808
 11
12.9581033756
 21
8.60871608
  0
LINE
  5
31C
100
AcDbEntity
  8
0
100
AcDbLine
 62
4
  6
CONTINUOUS
 10
12.9677166541
 20
8.5683256076
 11
12.9677166541
 21
8.5931637023
  0
LINE
  5
31D
100
AcDbEntity
  8
0
100
AcDbLine
 62
4
  6
CONTINUOUS
 10
12.9743720055
 20
7.9918869212
 11
12.9743720055
 21
8.0746805667
  0
LINE
  5
31E
100
AcDbEntity
  8
0
100
AcDbLine
 62
4
  6
CONTINUOUS
 10
12.8486600063
 20
7.8538997176
 11
12.8575337941
 21
7.9783822423
  0
LINE
  5
31F
100
AcDbEntity
  8
0
100
AcDbLine
 62
4
  6
CONTINUOUS
 10
12.9551454335
 20
8.2117611754
 11
12.9640192213
 21
8.3362437001
  0
LINE
  5
320
100
AcDbEntity
  8
0
100
AcDbLine
 62
4
  6
CONTINUOUS
 10
12.9107765075
 20
8.4774483995
 11
12.9196502916
 21
8.5964113463
  0
LINE
  5
321
100
AcDbEntity
  8
0
100
AcDbLine
 62
4
  6
CONTINUOUS
 10
12.7865434711
 20
8.4843987513
 11
12.7909803655
 21
8.5052431904
  0
LINE
  5
322
100
AcDbEntity
  8
0
100
AcDbLine
 62
4
  6
CONTINUOUS
 10
12.7976357068
 20
8.3957606534
 11
12.8020726007
 21
8.4166050939
  0
LINE
  5
323
100
AcDbEntity
  8
0
100
AcDbLine
 62
4
  6
CONTINUOUS
 10
12.822038626
 20
8.4193320647
 11
12.826475518
 21
8.4401765034
  0
LINE
  5
324
100
AcDbEntity
  8
0
100
AcDbLine
 62
4
  6
CONTINUOUS
 10
12.836088806
 20
7.8583155996
 11
12.8316519122
 21
7.8374711592
  0
LINE
  5
325
100
AcDbEntity
  8
0
100
AcDbLine
 62
4
  6
CONTINUOUS
 10
12.9107764927
 20
8.1689040671
 11
12.9129949397
 21
8.1793262873
  0
LINE
  5
326
100
AcDbEntity
  8
0
100
AcDbLine
 62
4
  6
CONTINUOUS
 10
12.9351794119
 20
8.2669897582
 11
12.9307425162
 21
8.2461453177
  0
LINE
  5
327
100
AcDbEntity
  8
0
100
AcDbLine
 62
4
  6
CONTINUOUS
 10
12.9373978579
 20
8.2111770626
 11
12.9329609622
 21
8.1903326204
  0
LINE
  5
328
100
AcDbEntity
  8
0
100
AcDbLine
 62
4
  6
CONTINUOUS
 10
13.0438833279
 20
8.7081318842
 11
13.0461017665
 21
8.718554099
  0
LINE
  5
329
100
AcDbEntity
  8
0
100
AcDbLine
 62
4
  6
CONTINUOUS
 10
13.0638493643
 20
8.7274175956
 11
13.0660678029
 21
8.7378398103
  0
LINE
  5
32A
100
AcDbEntity
  8
0
100
AcDbLine
 62
4
  6
CONTINUOUS
 10
12.9085580458
 20
8.232996131
 11
12.9122554574
 21
8.2448469171
  0
LINE
  5
32B
100
AcDbEntity
  8
0
100
AcDbLine
 62
4
  6
CONTINUOUS
 10
12.9255661575
 20
8.5938462668
 11
12.9300030495
 21
8.6064113432
  0
LINE
  5
32C
100
AcDbEntity
  8
0
100
AcDbLine
 62
4
  6
CONTINUOUS
 10
12.9677166541
 20
8.5931637023
 11
12.9721535461
 21
8.6057287752
  0
LINE
  5
32D
100
AcDbEntity
  8
0
100
AcDbLine
 62
4
  6
CONTINUOUS
 10
12.8146438189
 20
7.8927970969
 11
12.8028121009
 21
7.8592902267
  0
LINE
  5
32E
100
AcDbEntity
  8
0
100
AcDbLine
 62
4
  6
CONTINUOUS
 10
13.0098671566
 20
8.0096138766
 11
12.9987749191
 21
7.9988995973
  0
LINE
  5
32F
100
AcDbEntity
  8
0
100
AcDbLine
 62
4
  6
CONTINUOUS
 10
12.985464243
 20
7.9860424707
 11
12.9788088975
 21
7.9796139002
  0
LINE
  5
330
100
AcDbEntity
  8
0
100
AcDbLine
 62
4
  6
CONTINUOUS
 10
12.9618008089
 20
7.9631853472
 11
12.9529270248
 21
7.9546139295
  0
LINE
  5
331
100
AcDbEntity
  8
0
100
AcDbLine
 62
4
  6
CONTINUOUS
 10
12.8316519122
 20
7.8374711592
 11
12.8205596784
 21
7.8267568834
  0
LINE
  5
332
100
AcDbEntity
  8
0
100
AcDbLine
 62
4
  6
CONTINUOUS
 10
12.9019027367
 20
7.9053282489
 11
12.9152134202
 21
7.9181853827
  0
LINE
  5
333
100
AcDbEntity
  8
0
100
AcDbLine
 62
4
  6
CONTINUOUS
 10
13.02687526
 20
8.0260424439
 11
13.0401859361
 21
8.0388995705
  0
LINE
  5
334
100
AcDbEntity
  8
0
100
AcDbLine
 62
4
  6
CONTINUOUS
 10
11.0822269582
 20
6.409343687
 11
11.0967158462
 21
6.4179981356
  0
LINE
  5
335
100
AcDbEntity
  8
0
100
AcDbLine
 62
4
  6
CONTINUOUS
 10
11.125693622
 20
6.3676922246
 11
11.0967158462
 21
6.3503833241
  0
LINE
  5
336
100
AcDbEntity
  8
0
100
AcDbLine
 62
4
  6
CONTINUOUS
 10
13.0660678029
 20
8.6992027747
 11
13.0638493643
 21
8.7025795035
  0
LINE
  5
337
100
AcDbEntity
  8
0
100
AcDbLine
 62
4
  6
CONTINUOUS
 10
13.0771600256
 20
8.6988778877
 11
13.074941587
 21
8.7022546164
  0
LINE
  5
338
100
AcDbEntity
  8
0
100
AcDbLine
 62
4
  6
CONTINUOUS
 10
12.985464243
 20
8.1019535741
 11
12.989901135
 21
8.0896805549
  0
LINE
  5
339
100
AcDbEntity
  8
0
100
AcDbLine
 62
4
  6
CONTINUOUS
 10
12.9329609622
 20
8.2482881721
 11
12.9373978579
 21
8.2360151564
  0
LINE
  5
33A
100
AcDbEntity
  8
0
100
AcDbLine
 62
4
  6
CONTINUOUS
 10
13.0098671566
 20
8.12552498
 11
13.0143040486
 21
8.1132519608
  0
LINE
  5
33B
100
AcDbEntity
  8
0
100
AcDbLine
 62
4
  6
CONTINUOUS
 10
12.8952473779
 20
8.5728399404
 11
12.897465824
 21
8.5667034274
  0
LINE
  5
33C
100
AcDbEntity
  8
0
100
AcDbLine
 62
4
  6
CONTINUOUS
 10
12.9899011143
 20
8.5897541519
 11
12.9921195677
 21
8.5836176486
  0
LINE
  5
33D
100
AcDbEntity
  8
0
100
AcDbLine
 62
4
  6
CONTINUOUS
 10
13.0143040427
 20
8.6050462072
 11
13.0120855893
 21
8.6111827106
  0
LINE
  5
33E
100
AcDbEntity
  8
0
100
AcDbLine
 62
4
  6
CONTINUOUS
 10
13.0461017665
 20
8.6357604517
 11
13.0438833279
 21
8.6418969693
  0
LINE
  5
33F
100
AcDbEntity
  8
0
100
AcDbLine
 62
4
  6
CONTINUOUS
 10
12.9122554574
 20
8.2696850127
 11
12.9085580458
 21
8.2826723152
  0
LINE
  5
340
100
AcDbEntity
  8
0
100
AcDbLine
 62
4
  6
CONTINUOUS
 10
12.9566244166
 20
8.6321256107
 11
12.9581033756
 21
8.625274808
  0
LINE
  5
341
100
AcDbEntity
  8
0
100
AcDbLine
 62
4
  6
CONTINUOUS
 10
12.8353493058
 20
8.5481002983
 11
12.8508784353
 21
8.447189183
  0
LINE
  5
342
100
AcDbEntity
  8
0
100
AcDbLine
 62
4
  6
CONTINUOUS
 10
12.9810273302
 20
8.5729033693
 11
12.9810273302
 21
8.6391382885
  0
LINE
  5
343
100
AcDbEntity
  8
0
100
AcDbLine
 62
4
  6
CONTINUOUS
 10
12.9899011143
 20
8.6642684343
 11
12.9899011143
 21
8.5897541519
  0
LINE
  5
344
100
AcDbEntity
  8
0
100
AcDbLine
 62
4
  6
CONTINUOUS
 10
12.989901135
 20
8.0896805549
 11
12.989901135
 21
8.0068869094
  0
LINE
  5
345
100
AcDbEntity
  8
0
100
AcDbLine
 62
4
  6
CONTINUOUS
 10
12.9987749191
 20
7.9988995973
 11
12.9987749191
 21
8.1148107007
  0
LINE
  5
346
100
AcDbEntity
  8
0
100
AcDbLine
 62
4
  6
CONTINUOUS
 10
13.0032118052
 20
8.5943319279
 11
13.0032118052
 21
8.6771255752
  0
LINE
  5
347
100
AcDbEntity
  8
0
100
AcDbLine
 62
4
  6
CONTINUOUS
 10
13.0120855893
 20
8.6111827106
 11
13.0120855893
 21
8.7188144491
  0
LINE
  5
348
100
AcDbEntity
  8
0
100
AcDbLine
 62
4
  6
CONTINUOUS
 10
13.0143040486
 20
8.1132519608
 11
13.0143040486
 21
8.0304583153
  0
LINE
  5
349
100
AcDbEntity
  8
0
100
AcDbLine
 62
4
  6
CONTINUOUS
 10
13.02687526
 20
8.0260424439
 11
13.02687526
 21
8.1419535474
  0
LINE
  5
34A
100
AcDbEntity
  8
0
100
AcDbLine
 62
4
  6
CONTINUOUS
 10
13.0320516109
 20
8.6221890427
 11
13.0320516109
 21
8.70498269
  0
LINE
  5
34B
100
AcDbEntity
  8
0
100
AcDbLine
 62
4
  6
CONTINUOUS
 10
13.0320516109
 20
8.7298207786
 11
13.0320516109
 21
8.7381001461
  0
LINE
  5
34C
100
AcDbEntity
  8
0
100
AcDbLine
 62
4
  6
CONTINUOUS
 10
13.0438833279
 20
8.6418969693
 11
13.0438833279
 21
8.7081318842
  0
LINE
  5
34D
100
AcDbEntity
  8
0
100
AcDbLine
 62
4
  6
CONTINUOUS
 10
13.0638493643
 20
8.7025795035
 11
13.0638493643
 21
8.7274175956
  0
LINE
  5
34E
100
AcDbEntity
  8
0
100
AcDbLine
 62
4
  6
CONTINUOUS
 10
13.0771600256
 20
8.674039793
 11
13.0771600256
 21
8.6988778877
  0
LINE
  5
34F
100
AcDbEntity
  8
0
100
AcDbLine
 62
4
  6
CONTINUOUS
 10
13.0327910904
 20
8.7388144285
 11
13.0320516109
 21
8.7298207786
  0
LINE
  5
350
100
AcDbEntity
  8
0
100
AcDbLine
 62
4
  6
CONTINUOUS
 10
13.074941587
 20
8.6636175808
 11
13.0771600256
 21
8.674039793
  0
LINE
  5
351
100
AcDbEntity
  8
0
100
AcDbLine
 62
4
  6
CONTINUOUS
 10
12.9484901328
 20
8.049680596
 11
12.9529270248
 21
8.0705250329
  0
LINE
  5
352
100
AcDbEntity
  8
0
100
AcDbLine
 62
4
  6
CONTINUOUS
 10
12.9743720055
 20
8.0746805667
 11
12.9788088975
 21
8.0955250037
  0
LINE
  5
353
100
AcDbEntity
  8
0
100
AcDbLine
 62
4
  6
CONTINUOUS
 10
12.989901135
 20
8.0068869094
 11
12.985464243
 21
7.9860424707
  0
LINE
  5
354
100
AcDbEntity
  8
0
100
AcDbLine
 62
4
  6
CONTINUOUS
 10
13.0143040486
 20
8.0304583153
 11
13.0098671566
 21
8.0096138766
  0
LINE
  5
355
100
AcDbEntity
  8
0
100
AcDbLine
 62
4
  6
CONTINUOUS
 10
13.0608914373
 20
8.1085757377
 11
13.0490597202
 21
8.0750688701
  0
LINE
  5
356
100
AcDbEntity
  8
0
100
AcDbLine
 62
4
  6
CONTINUOUS
 10
13.0638493643
 20
8.6611826807
 11
13.0660678029
 21
8.6550461631
  0
LINE
  5
357
100
AcDbEntity
  8
0
100
AcDbLine
 62
4
  6
CONTINUOUS
 10
13.074941587
 20
8.7464112281
 11
13.0771600256
 21
8.7402747078
  0
LINE
  5
358
100
AcDbEntity
  8
0
100
AcDbLine
 62
4
  6
CONTINUOUS
 10
12.9810273302
 20
8.6391382885
 11
12.9788088916
 21
8.6535541693
  0
LINE
  5
359
100
AcDbEntity
  8
0
100
AcDbLine
 62
7
  6
CONTINUOUS
 10
13.5788988458
 20
10.8021361778
 11
13.5788988458
 21
7.1799141145
  0
LINE
  5
35A
100
AcDbEntity
  8
0
100
AcDbLine
 62
7
  6
CONTINUOUS
 10
9.7151953117
 20
11.0700849279
 11
13.5788988458
 21
10.8021361778
  0
LINE
  5
35B
100
AcDbEntity
  8
0
100
AcDbLine
 62
7
  6
CONTINUOUS
 10
12.2848046883
 20
5.9299150721
 11
13.5788988458
 21
7.1799141145
  0
ARC
  5
35C
100
AcDbEntity
  8
0
100
AcDbCircle
 62
7
  6
CONTINUOUS
 10
10.1167960448
 20
7.7876353455
 40
0.4482791787
100
AcDbArc
 50
266.0072890233
 51
275.2435185303
  0
ARC
  5
35D
100
AcDbEntity
  8
0
100
AcDbCircle
 62
7
  6
CONTINUOUS
 10
11.5656848701
 20
7.6871545641
 40
0.4482791787
100
AcDbArc
 50
266.0072890233
 51
275.2435185303
  0
ARC
  5
35E
100
AcDbEntity
  8
0
100
AcDbCircle
 62
7
  6
CONTINUOUS
 10
10.1225726725
 20
7.7960726932
 40
0.420168394
100
AcDbArc
 50
266.0114712862
 51
274.449896375
  0
ARC
  5
35F
100
AcDbEntity
  8
0
100
AcDbCircle
 62
7
  6
CONTINUOUS
 10
11.5714614978
 20
7.6955919119
 40
0.420168394
100
AcDbArc
 50
266.0114712862
 51
274.449896375
  0
SPLINE
  5
360
100
AcDbEntity
  8
0
100
AcDbSpline
 62
7
  6
CONTINUOUS
 70
0
 71
3
 72
39
 73
35
 74
0
 42
0.0000001
 43
0.0000001
 44
0.0000000001
 40
0.0
 40
0.0
 40
0.0
 40
0.0
 40
0.0311450433
 40
0.0624431226
 40
0.0938883401
 40
0.125470995
 40
0.1571788892
 40
0.1889972671
 40
0.2209091824
 40
0.252895852
 40
0.2849370326
 40
0.3170114241
 40
0.3490970849
 40
0.3811718562
 40
0.413213789
 40
0.4452015689
 40
0.4771149309
 40
0.5089350628
 40
0.5406449853
 40
0.5722299045
 40
0.6036775328
 40
0.6349783723
 40
0.6661259434
 40
0.697116963
 40
0.7279514643
 40
0.7586328462
 40
0.7891678467
 40
0.819566445
 40
0.8498416852
 40
0.8800094169
 40
0.9100879627
 40
0.9400977191
 40
0.9700606947
 40
1.0
 40
1.0
 40
1.0
 40
1.0
 10
9.3870270377
 20
9.5125831704
 30
0.0
 10
9.4010613244
 20
9.5116098893
 30
0.0
 10
9.4291380602
 20
9.5086312897
 30
0.0
 10
9.4709127633
 20
9.5011281051
 30
0.0
 10
9.5122400213
 20
9.4906184295
 30
0.0
 10
9.5528966397
 20
9.4771587265
 30
0.0
 10
9.5926666098
 20
9.4608211273
 30
0.0
 10
9.6313378008
 20
9.441693075
 30
0.0
 10
9.6687042078
 20
9.4198767774
 30
0.0
 10
9.7045666936
 20
9.3954886787
 30
0.0
 10
9.7387342001
 20
9.3686589442
 30
0.0
 10
9.7710246842
 20
9.3395306839
 30
0.0
 10
9.8012660515
 20
9.308259172
 30
0.0
 10
9.8292970929
 20
9.2750110735
 30
0.0
 10
9.8549683954
 20
9.2399636037
 30
0.0
 10
9.8781430418
 20
9.2033035114
 30
0.0
 10
9.898697323
 20
9.1652261076
 30
0.0
 10
9.9165214964
 20
9.1259342974
 30
0.0
 10
9.9315203236
 20
9.0856374715
 30
0.0
 10
9.9436135186
 20
9.0445503861
 30
0.0
 10
9.9527362055
 20
9.002892057
 30
0.0
 10
9.9588393787
 20
8.9608846257
 30
0.0
 10
9.9618900497
 20
8.9187521546
 30
0.0
 10
9.9618714229
 20
8.8767194626
 30
0.0
 10
9.9587831054
 20
8.8350109457
 30
0.0
 10
9.9526411206
 20
8.7938493716
 30
0.0
 10
9.9434777598
 20
8.7534547065
 30
0.0
 10
9.9313414505
 20
8.7140429485
 30
0.0
 10
9.9162966739
 20
8.6758249424
 30
0.0
 10
9.8984234498
 20
8.6390051897
 30
0.0
 10
9.877817188
 20
8.6037810217
 30
0.0
 10
9.8545872471
 20
8.5703405048
 30
0.0
 10
9.8288601772
 20
8.5388650134
 30
0.0
 10
9.8101274653
 20
8.5192955658
 30
0.0
 10
9.8004007113
 20
8.5099002565
 30
0.0
  0
SPLINE
  5
361
100
AcDbEntity
  8
0
100
AcDbSpline
 62
7
  6
CONTINUOUS
 70
0
 71
3
 72
39
 73
35
 74
0
 42
0.0000001
 43
0.0000001
 44
0.0000000001
 40
0.0
 40
0.0
 40
0.0
 40
0.0
 40
0.0311450433
 40
0.0624431226
 40
0.0938883401
 40
0.125470995
 40
0.1571788892
 40
0.1889972671
 40
0.2209091824
 40
0.252895852
 40
0.2849370326
 40
0.3170114241
 40
0.3490970849
 40
0.3811718562
 40
0.413213789
 40
0.4452015689
 40
0.4771149309
 40
0.5089350628
 40
0.5406449853
 40
0.5722299045
 40
0.6036775328
 40
0.6349783723
 40
0.6661259434
 40
0.697116963
 40
0.7279514643
 40
0.7586328462
 40
0.7891678467
 40
0.819566445
 40
0.8498416852
 40
0.8800094169
 40
0.9100879627
 40
0.9400977191
 40
0.9700606947
 40
1.0
 40
1.0
 40
1.0
 40
1.0
 10
11.3188788048
 20
9.3786087953
 30
0.0
 10
11.3329130914
 20
9.3776355142
 30
0.0
 10
11.3609898272
 20
9.3746569146
 30
0.0
 10
11.4027645304
 20
9.36715373
 30
0.0
 10
11.4440917883
 20
9.3566440544
 30
0.0
 10
11.4847484067
 20
9.3431843514
 30
0.0
 10
11.5245183769
 20
9.3268467522
 30
0.0
 10
11.5631895678
 20
9.3077186999
 30
0.0
 10
11.6005559749
 20
9.2859024024
 30
0.0
 10
11.6364184606
 20
9.2615143036
 30
0.0
 10
11.6705859672
 20
9.2346845692
 30
0.0
 10
11.7028764513
 20
9.2055563088
 30
0.0
 10
11.7331178186
 20
9.1742847969
 30
0.0
 10
11.7611488599
 20
9.1410366984
 30
0.0
 10
11.7868201624
 20
9.1059892287
 30
0.0
 10
11.8099948088
 20
9.0693291363
 30
0.0
 10
11.83054909
 20
9.0312517325
 30
0.0
 10
11.8483732635
 20
8.9919599223
 30
0.0
 10
11.8633720906
 20
8.9516630964
 30
0.0
 10
11.8754652856
 20
8.9105760111
 30
0.0
 10
11.8845879725
 20
8.8689176819
 30
0.0
 10
11.8906911458
 20
8.8269102506
 30
0.0
 10
11.8937418168
 20
8.7847777795
 30
0.0
 10
11.8937231899
 20
8.7427450875
 30
0.0
 10
11.8906348725
 20
8.7010365706
 30
0.0
 10
11.8844928877
 20
8.6598749965
 30
0.0
 10
11.8753295268
 20
8.6194803315
 30
0.0
 10
11.8631932176
 20
8.5800685735
 30
0.0
 10
11.848148441
 20
8.5418505673
 30
0.0
 10
11.8302752169
 20
8.5050308147
 30
0.0
 10
11.809668955
 20
8.4698066466
 30
0.0
 10
11.7864390141
 20
8.4363661297
 30
0.0
 10
11.7607119442
 20
8.4048906383
 30
0.0
 10
11.7419792323
 20
8.3853211907
 30
0.0
 10
11.7322524784
 20
8.3759258814
 30
0.0
  0
SPLINE
  5
362
100
AcDbEntity
  8
0
100
AcDbSpline
 62
7
  6
CONTINUOUS
 70
0
 71
3
 72
61
 73
57
 74
0
 42
0.0000001
 43
0.0000001
 44
0.0000000001
 40
0.0
 40
0.0
 40
0.0
 40
0.0
 40
0.0081437451
 40
0.0169768238
 40
0.0265208827
 40
0.0367895907
 40
0.0477882519
 40
0.0595157749
 40
0.0719659111
 40
0.0851281662
 40
0.0989883865
 40
0.1135291266
 40
0.1287303122
 40
0.1445692972
 40
0.1610212357
 40
0.1780593736
 40
0.1956550177
 40
0.2137779419
 40
0.2514761317
 40
0.2908853948
 40
0.3317179717
 40
0.3736716991
 40
0.4164333432
 40
0.459681813
 40
0.5030913239
 40
0.5463345566
 40
0.5890857858
 40
0.63102401
 40
0.6718361344
 40
0.7112202156
 40
0.7302867538
 40
0.7488898237
 40
0.7669963397
 40
0.7845746224
 40
0.8015943886
 40
0.8180271298
 40
0.8338460684
 40
0.8490264182
 40
0.8635457074
 40
0.8773837958
 40
0.8905234617
 40
0.9029506297
 40
0.9146548405
 40
0.9256301247
 40
0.9358755584
 40
0.94539665
 40
0.9542068245
 40
0.9623293601
 40
0.9698004202
 40
0.9766722849
 40
0.9830175572
 40
0.9889330701
 40
0.9917694488
 40
0.9945466069
 40
0.9972834973
 40
1.0
 40
1.0
 40
1.0
 40
1.0
 10
13.4494894301
 20
7.620946778
 30
0.0
 10
13.4486382547
 20
7.6201246058
 30
0.0
 10
13.4469403059
 20
7.6183305728
 30
0.0
 10
13.4445004327
 20
7.615343956
 30
0.0
 10
13.4420710624
 20
7.6119607815
 30
0.0
 10
13.4396569082
 20
7.608187838
 30
0.0
 10
13.4372623535
 20
7.6040321836
 30
0.0
 10
13.4348921648
 20
7.5995018382
 30
0.0
 10
13.4325509769
 20
7.5946056793
 30
0.0
 10
13.4302434692
 20
7.5893533423
 30
0.0
 10
13.4279743032
 20
7.5837552187
 30
0.0
 10
13.4257480056
 20
7.5778224541
 30
0.0
 10
13.4235691084
 20
7.5715668719
 30
0.0
 10
13.4214419963
 20
7.5650009797
 30
0.0
 10
13.4193709534
 20
7.5581379227
 30
0.0
 10
13.4173602075
 20
7.5509914523
 30
0.0
 10
13.4154137548
 20
7.5435758991
 30
0.0
 10
13.4128761946
 20
7.5332130603
 30
0.0
 10
13.4099036163
 20
7.5196953154
 30
0.0
 10
13.4066961144
 20
7.5028575686
 30
0.0
 10
13.4038291529
 20
7.4853316843
 30
0.0
 10
13.4013259828
 20
7.467258399
 30
0.0
 10
13.3992069169
 20
7.4487827364
 30
0.0
 10
13.3974891051
 20
7.4300530666
 30
0.0
 10
13.3961864031
 20
7.4112198216
 30
0.0
 10
13.3953092693
 20
7.3924342797
 30
0.0
 10
13.3948646899
 20
7.3738473409
 30
0.0
 10
13.3948560975
 20
7.3556082442
 30
0.0
 10
13.3952834055
 20
7.3378635352
 30
0.0
 10
13.3960070871
 20
7.3234552975
 30
0.0
 10
13.3968087524
 20
7.3122865867
 30
0.0
 10
13.3975092744
 20
7.3042114505
 30
0.0
 10
13.39831407
 20
7.2963633958
 30
0.0
 10
13.3992214974
 20
7.2887581723
 30
0.0
 10
13.4002297425
 20
7.2814110516
 30
0.0
 10
13.4013367194
 20
7.2743367733
 30
0.0
 10
13.4025401877
 20
7.2675495201
 30
0.0
 10
13.4038377144
 20
7.2610628853
 30
0.0
 10
13.4052266214
 20
7.2548898372
 30
0.0
 10
13.4067041308
 20
7.249042698
 30
0.0
 10
13.4082672196
 20
7.2435330996
 30
0.0
 10
13.4099127232
 20
7.2383719576
 30
0.0
 10
13.4116373792
 20
7.233569451
 30
0.0
 10
13.413437709
 20
7.2291349527
 30
0.0
 10
13.4153102488
 20
7.2250770427
 30
0.0
 10
13.4172514593
 20
7.2214034466
 30
0.0
 10
13.4192578285
 20
7.2181210144
 30
0.0
 10
13.421326156
 20
7.2152358218
 30
0.0
 10
13.4234533935
 20
7.2127531907
 30
0.0
 10
13.42563732
 20
7.2106780519
 30
0.0
 10
13.4278753784
 20
7.2090157323
 30
0.0
 10
13.4298117707
 20
7.2079647724
 30
0.0
 10
13.4313722399
 20
7.2073504438
 30
0.0
 10
13.4325361817
 20
7.2070019461
 30
0.0
 10
13.4337089486
 20
7.2067598123
 30
0.0
 10
13.434497498
 20
7.2066693358
 30
0.0
 10
13.434891302
 20
7.2066420205
 30
0.0
  0
SPLINE
  5
363
100
AcDbEntity
  8
0
100
AcDbSpline
 62
7
  6
CONTINUOUS
 70
0
 71
3
 72
61
 73
57
 74
0
 42
0.0000001
 43
0.0000001
 44
0.0000000001
 40
0.0
 40
0.0
 40
0.0
 40
0.0
 40
0.0081437451
 40
0.0169768238
 40
0.0265208827
 40
0.0367895907
 40
0.0477882519
 40
0.0595157749
 40
0.0719659111
 40
0.0851281662
 40
0.0989883865
 40
0.1135291266
 40
0.1287303122
 40
0.1445692972
 40
0.1610212357
 40
0.1780593736
 40
0.1956550177
 40
0.2137779419
 40
0.2514761317
 40
0.2908853948
 40
0.3317179717
 40
0.3736716991
 40
0.4164333432
 40
0.459681813
 40
0.5030913239
 40
0.5463345566
 40
0.5890857858
 40
0.63102401
 40
0.6718361344
 40
0.7112202156
 40
0.7302867538
 40
0.7488898237
 40
0.7669963397
 40
0.7845746224
 40
0.8015943886
 40
0.8180271298
 40
0.8338460684
 40
0.8490264182
 40
0.8635457074
 40
0.8773837958
 40
0.8905234617
 40
0.9029506297
 40
0.9146548405
 40
0.9256301247
 40
0.9358755584
 40
0.94539665
 40
0.9542068245
 40
0.9623293601
 40
0.9698004202
 40
0.9766722849
 40
0.9830175572
 40
0.9889330701
 40
0.9917694488
 40
0.9945466069
 40
0.9972834973
 40
1.0
 40
1.0
 40
1.0
 40
1.0
 10
12.414214104
 20
6.6209475441
 30
0.0
 10
12.4133629287
 20
6.6201253718
 30
0.0
 10
12.4116649799
 20
6.6183313388
 30
0.0
 10
12.4092251067
 20
6.615344722
 30
0.0
 10
12.4067957364
 20
6.6119615475
 30
0.0
 10
12.4043815822
 20
6.608188604
 30
0.0
 10
12.4019870275
 20
6.6040329496
 30
0.0
 10
12.3996168388
 20
6.5995026042
 30
0.0
 10
12.3972756509
 20
6.5946064453
 30
0.0
 10
12.3949681432
 20
6.5893541083
 30
0.0
 10
12.3926989772
 20
6.5837559847
 30
0.0
 10
12.3904726796
 20
6.5778232201
 30
0.0
 10
12.3882937823
 20
6.5715676379
 30
0.0
 10
12.3861666703
 20
6.5650017457
 30
0.0
 10
12.3840956274
 20
6.5581386888
 30
0.0
 10
12.3820848814
 20
6.5509922183
 30
0.0
 10
12.3801384288
 20
6.5435766651
 30
0.0
 10
12.3776008686
 20
6.5332138264
 30
0.0
 10
12.3746282902
 20
6.5196960814
 30
0.0
 10
12.3714207883
 20
6.5028583346
 30
0.0
 10
12.3685538269
 20
6.4853324504
 30
0.0
 10
12.3660506568
 20
6.467259165
 30
0.0
 10
12.3639315909
 20
6.4487835024
 30
0.0
 10
12.3622137791
 20
6.4300538326
 30
0.0
 10
12.3609110771
 20
6.4112205876
 30
0.0
 10
12.3600339433
 20
6.3924350457
 30
0.0
 10
12.3595893639
 20
6.373848107
 30
0.0
 10
12.3595807715
 20
6.3556090102
 30
0.0
 10
12.3600080795
 20
6.3378643012
 30
0.0
 10
12.3607317611
 20
6.3234560635
 30
0.0
 10
12.3615334263
 20
6.3122873527
 30
0.0
 10
12.3622339484
 20
6.3042122165
 30
0.0
 10
12.363038744
 20
6.2963641618
 30
0.0
 10
12.3639461714
 20
6.2887589384
 30
0.0
 10
12.3649544165
 20
6.2814118176
 30
0.0
 10
12.3660613934
 20
6.2743375394
 30
0.0
 10
12.3672648616
 20
6.2675502861
 30
0.0
 10
12.3685623884
 20
6.2610636513
 30
0.0
 10
12.3699512954
 20
6.2548906032
 30
0.0
 10
12.3714288048
 20
6.2490434641
 30
0.0
 10
12.3729918936
 20
6.2435338656
 30
0.0
 10
12.3746373972
 20
6.2383727237
 30
0.0
 10
12.3763620532
 20
6.2335702171
 30
0.0
 10
12.378162383
 20
6.2291357188
 30
0.0
 10
12.3800349227
 20
6.2250778087
 30
0.0
 10
12.3819761333
 20
6.2214042126
 30
0.0
 10
12.3839825024
 20
6.2181217804
 30
0.0
 10
12.38605083
 20
6.2152365878
 30
0.0
 10
12.3881780675
 20
6.2127539567
 30
0.0
 10
12.390361994
 20
6.2106788179
 30
0.0
 10
12.3926000524
 20
6.2090164983
 30
0.0
 10
12.3945364447
 20
6.2079655384
 30
0.0
 10
12.3960969139
 20
6.2073512098
 30
0.0
 10
12.3972608557
 20
6.2070027121
 30
0.0
 10
12.3984336226
 20
6.2067605783
 30
0.0
 10
12.399222172
 20
6.2066701019
 30
0.0
 10
12.399615976
 20
6.2066427865
 30
0.0
  0
SPLINE
  5
364
100
AcDbEntity
  8
0
100
AcDbSpline
 62
7
  6
CONTINUOUS
 70
0
 71
3
 72
39
 73
35
 74
0
 42
0.0000001
 43
0.0000001
 44
0.0000000001
 40
0.0
 40
0.0
 40
0.0
 40
0.0
 40
0.0311450264
 40
0.062443103
 40
0.0938883509
 40
0.1254709879
 40
0.1571788856
 40
0.1889972606
 40
0.2209091751
 40
0.2528958436
 40
0.2849370235
 40
0.3170114144
 40
0.3490970746
 40
0.381171845
 40
0.4132137769
 40
0.445201556
 40
0.4771149182
 40
0.508935051
 40
0.5406449742
 40
0.5722298939
 40
0.6036775233
 40
0.6349783634
 40
0.6661259345
 40
0.6971169551
 40
0.7279514584
 40
0.7586328417
 40
0.7891678438
 40
0.8195664441
 40
0.8498416857
 40
0.8800094177
 40
0.9100879638
 40
0.9400977202
 40
0.9700606954
 40
1.0
 40
1.0
 40
1.0
 40
1.0
 10
9.4015208925
 20
9.3140794655
 30
0.0
 10
9.4103660211
 20
9.3134660538
 30
0.0
 10
9.4280614275
 20
9.3115887922
 30
0.0
 10
9.4543900091
 20
9.3068598933
 30
0.0
 10
9.4804365871
 20
9.3002361482
 30
0.0
 10
9.506060492
 20
9.2917531361
 30
0.0
 10
9.5311255885
 20
9.2814563592
 30
0.0
 10
9.5554981767
 20
9.2694008765
 30
0.0
 10
9.579048419
 20
9.2556511197
 30
0.0
 10
9.6016508245
 20
9.2402804975
 30
0.0
 10
9.623184965
 20
9.2233710244
 30
0.0
 10
9.6435360961
 20
9.2050128856
 30
0.0
 10
9.6625957692
 20
9.1853039614
 30
0.0
 10
9.6802623968
 20
9.1643493038
 30
0.0
 10
9.69644179
 20
9.1422605833
 30
0.0
 10
9.711047655
 20
9.1191554999
 30
0.0
 10
9.7240020497
 20
9.0951571633
 30
0.0
 10
9.7352357963
 20
9.0703934449
 30
0.0
 10
9.7446888491
 20
9.0449963055
 30
0.0
 10
9.7523106137
 20
9.0191011005
 30
0.0
 10
9.7580602296
 20
8.9928458719
 30
0.0
 10
9.7619067843
 20
8.9663706175
 30
0.0
 10
9.7638294833
 20
8.9398165548
 30
0.0
 10
9.76381777
 20
8.9133253777
 30
0.0
 10
9.761871394
 20
8.8870385083
 30
0.0
 10
9.7580004267
 20
8.8610963488
 30
0.0
 10
9.7522252249
 20
8.8356375349
 30
0.0
 10
9.7445763357
 20
8.8107981924
 30
0.0
 10
9.7350943682
 20
8.7867112147
 30
0.0
 10
9.7238297512
 20
8.7635054946
 30
0.0
 10
9.7108426415
 20
8.7413053888
 30
0.0
 10
9.696201968
 20
8.7202294202
 30
0.0
 10
9.6799874712
 20
8.7003919085
 30
0.0
 10
9.6681811497
 20
8.6880582294
 30
0.0
 10
9.6620508644
 20
8.682136801
 30
0.0
  0
SPLINE
  5
365
100
AcDbEntity
  8
0
100
AcDbSpline
 62
7
  6
CONTINUOUS
 70
0
 71
3
 72
23
 73
19
 74
0
 42
0.0000001
 43
0.0000001
 44
0.0000000001
 40
0.0
 40
0.0
 40
0.0
 40
0.0
 40
0.0638611429
 40
0.1275033697
 40
0.1909230193
 40
0.2541276602
 40
0.3171224166
 40
0.3799159195
 40
0.4425188183
 40
0.5049436681
 40
0.5672049987
 40
0.6293190785
 40
0.6913037901
 40
0.7531784362
 40
0.8149635271
 40
0.8766805602
 40
0.9383517934
 40
1.0
 40
1.0
 40
1.0
 40
1.0
 10
9.4015208925
 20
9.3140794655
 30
0.0
 10
9.3954745102
 20
9.3144987835
 30
0.0
 10
9.383379381
 20
9.3150351447
 30
0.0
 10
9.3652523443
 20
9.3149271537
 30
0.0
 10
9.347215669
 20
9.3139053222
 30
0.0
 10
9.329315626
 20
9.3119724015
 30
0.0
 10
9.3115968947
 20
9.3091330229
 30
0.0
 10
9.2941042143
 20
9.3053943554
 30
0.0
 10
9.2768816002
 20
9.3007657848
 30
0.0
 10
9.2599724313
 20
9.2952589103
 30
0.0
 10
9.2434193137
 20
9.2888875374
 30
0.0
 10
9.2272639563
 20
9.2816676674
 30
0.0
 10
9.211547056
 20
9.273617486
 30
0.0
 10
9.1963082069
 20
9.264757236
 30
0.0
 10
9.1815858577
 20
9.2551092316
 30
0.0
 10
9.1674169987
 20
9.2446976208
 30
0.0
 10
9.1538378105
 20
9.2335491064
 30
0.0
 10
9.1451991837
 20
9.2256426064
 30
0.0
 10
9.1409909206
 20
9.2215777174
 30
0.0
  0
SPLINE
  5
366
100
AcDbEntity
  8
0
100
AcDbSpline
 62
7
  6
CONTINUOUS
 70
0
 71
3
 72
39
 73
35
 74
0
 42
0.0000001
 43
0.0000001
 44
0.0000000001
 40
0.0
 40
0.0
 40
0.0
 40
0.0
 40
0.0311450264
 40
0.062443103
 40
0.0938883509
 40
0.1254709879
 40
0.1571788856
 40
0.1889972606
 40
0.2209091751
 40
0.2528958436
 40
0.2849370235
 40
0.3170114144
 40
0.3490970746
 40
0.381171845
 40
0.4132137769
 40
0.445201556
 40
0.4771149182
 40
0.508935051
 40
0.5406449742
 40
0.5722298939
 40
0.6036775233
 40
0.6349783634
 40
0.6661259345
 40
0.6971169551
 40
0.7279514584
 40
0.7586328417
 40
0.7891678438
 40
0.8195664441
 40
0.8498416857
 40
0.8800094177
 40
0.9100879638
 40
0.9400977202
 40
0.9700606954
 40
1.0
 40
1.0
 40
1.0
 40
1.0
 10
11.3333726595
 20
9.1801050904
 30
0.0
 10
11.3422177882
 20
9.1794916787
 30
0.0
 10
11.3599131946
 20
9.1776144171
 30
0.0
 10
11.3862417762
 20
9.1728855183
 30
0.0
 10
11.4122883542
 20
9.1662617731
 30
0.0
 10
11.4379122591
 20
9.157778761
 30
0.0
 10
11.4629773555
 20
9.1474819841
 30
0.0
 10
11.4873499438
 20
9.1354265014
 30
0.0
 10
11.510900186
 20
9.1216767446
 30
0.0
 10
11.5335025916
 20
9.1063061224
 30
0.0
 10
11.5550367321
 20
9.0893966493
 30
0.0
 10
11.5753878632
 20
9.0710385105
 30
0.0
 10
11.5944475362
 20
9.0513295863
 30
0.0
 10
11.6121141639
 20
9.0303749288
 30
0.0
 10
11.628293557
 20
9.0082862083
 30
0.0
 10
11.642899422
 20
8.9851811248
 30
0.0
 10
11.6558538167
 20
8.9611827882
 30
0.0
 10
11.6670875634
 20
8.9364190699
 30
0.0
 10
11.6765406161
 20
8.9110219304
 30
0.0
 10
11.6841623808
 20
8.8851267255
 30
0.0
 10
11.6899119966
 20
8.8588714968
 30
0.0
 10
11.6937585514
 20
8.8323962424
 30
0.0
 10
11.6956812504
 20
8.8058421797
 30
0.0
 10
11.695669537
 20
8.7793510026
 30
0.0
 10
11.6937231611
 20
8.7530641332
 30
0.0
 10
11.6898521937
 20
8.7271219737
 30
0.0
 10
11.6840769919
 20
8.7016631598
 30
0.0
 10
11.6764281027
 20
8.6768238173
 30
0.0
 10
11.6669461352
 20
8.6527368396
 30
0.0
 10
11.6556815182
 20
8.6295311195
 30
0.0
 10
11.6426944086
 20
8.6073310137
 30
0.0
 10
11.6280537351
 20
8.5862550451
 30
0.0
 10
11.6118392382
 20
8.5664175334
 30
0.0
 10
11.6000329167
 20
8.5540838543
 30
0.0
 10
11.5939026314
 20
8.5481624259
 30
0.0
  0
SPLINE
  5
367
100
AcDbEntity
  8
0
100
AcDbSpline
 62
7
  6
CONTINUOUS
 70
0
 71
3
 72
23
 73
19
 74
0
 42
0.0000001
 43
0.0000001
 44
0.0000000001
 40
0.0
 40
0.0
 40
0.0
 40
0.0
 40
0.0638611429
 40
0.1275033697
 40
0.1909230193
 40
0.2541276602
 40
0.3171224166
 40
0.3799159195
 40
0.4425188183
 40
0.5049436681
 40
0.5672049987
 40
0.6293190785
 40
0.6913037901
 40
0.7531784362
 40
0.8149635271
 40
0.8766805602
 40
0.9383517934
 40
1.0
 40
1.0
 40
1.0
 40
1.0
 10
11.3333726595
 20
9.1801050904
 30
0.0
 10
11.3273262772
 20
9.1805244085
 30
0.0
 10
11.315231148
 20
9.1810607696
 30
0.0
 10
11.2971041113
 20
9.1809527786
 30
0.0
 10
11.279067436
 20
9.1799309472
 30
0.0
 10
11.261167393
 20
9.1779980265
 30
0.0
 10
11.2434486617
 20
9.1751586479
 30
0.0
 10
11.2259559813
 20
9.1714199803
 30
0.0
 10
11.2087333672
 20
9.1667914097
 30
0.0
 10
11.1918241983
 20
9.1612845352
 30
0.0
 10
11.1752710808
 20
9.1549131623
 30
0.0
 10
11.1591157233
 20
9.1476932923
 30
0.0
 10
11.1433988231
 20
9.1396431109
 30
0.0
 10
11.1281599739
 20
9.1307828609
 30
0.0
 10
11.1134376247
 20
9.1211348565
 30
0.0
 10
11.0992687657
 20
9.1107232457
 30
0.0
 10
11.0856895775
 20
9.0995747314
 30
0.0
 10
11.0770509508
 20
9.0916682313
 30
0.0
 10
11.0728426876
 20
9.0876033423
 30
0.0
  0
SPLINE
  5
368
100
AcDbEntity
  8
0
100
AcDbSpline
 62
7
  6
CONTINUOUS
 70
0
 71
3
 72
39
 73
35
 74
0
 42
0.0000001
 43
0.0000001
 44
0.0000000001
 40
0.0
 40
0.0
 40
0.0
 40
0.0
 40
0.0311450474
 40
0.0624431122
 40
0.0938883415
 40
0.1254709904
 40
0.157178884
 40
0.1889972611
 40
0.2209091755
 40
0.2528958437
 40
0.2849370231
 40
0.3170114138
 40
0.3490970738
 40
0.3811718446
 40
0.413213777
 40
0.4452015561
 40
0.477114918
 40
0.5089350506
 40
0.5406449736
 40
0.5722298927
 40
0.6036775219
 40
0.6349783626
 40
0.6661259349
 40
0.6971169558
 40
0.7279514584
 40
0.7586328412
 40
0.7891678431
 40
0.8195664432
 40
0.8498416843
 40
0.8800094163
 40
0.9100879629
 40
0.9400977199
 40
0.9700606953
 40
1.0
 40
1.0
 40
1.0
 40
1.0
 10
9.6365318877
 20
7.8808307636
 30
0.0
 10
9.6492688816
 20
7.8799474501
 30
0.0
 10
9.6747502705
 20
7.8772441891
 30
0.0
 10
9.7126634242
 20
7.8704345744
 30
0.0
 10
9.7501704903
 20
7.8608963884
 30
0.0
 10
9.787068919
 20
7.8486808802
 30
0.0
 10
9.8231626576
 20
7.8338535069
 30
0.0
 10
9.8582591764
 20
7.8164935967
 30
0.0
 10
9.8921715214
 20
7.7966939388
 30
0.0
 10
9.9247189892
 20
7.7745602486
 30
0.0
 10
9.9557281528
 20
7.7502106086
 30
0.0
 10
9.9850337761
 20
7.7237748827
 30
0.0
 10
10.0124797093
 20
7.6953940359
 30
0.0
 10
10.0379196673
 20
7.6652193403
 30
0.0
 10
10.0612180045
 20
7.6334115892
 30
0.0
 10
10.0822504349
 20
7.6001402584
 30
0.0
 10
10.1009047495
 20
7.5655826464
 30
0.0
 10
10.1170813427
 20
7.5299228914
 30
0.0
 10
10.1306937474
 20
7.4933510137
 30
0.0
 10
10.1416690828
 20
7.4560619167
 30
0.0
 10
10.1499485264
 20
7.4182543868
 30
0.0
 10
10.1554875767
 20
7.3801300215
 30
0.0
 10
10.1582562844
 20
7.3418921715
 30
0.0
 10
10.1582394153
 20
7.3037448749
 30
0.0
 10
10.1554366125
 20
7.2658917846
 30
0.0
 10
10.1498624089
 20
7.2285350771
 30
0.0
 10
10.1415461229
 20
7.1918743844
 30
0.0
 10
10.1305317277
 20
7.1561057293
 30
0.0
 10
10.1168776858
 20
7.1214204847
 30
0.0
 10
10.1006566407
 20
7.0880042461
 30
0.0
 10
10.0819552166
 20
7.0560360854
 30
0.0
 10
10.0608726636
 20
7.025686676
 30
0.0
 10
10.0375237626
 20
6.997120681
 30
0.0
 10
10.0205226801
 20
6.9793601611
 30
0.0
 10
10.0116950462
 20
6.9708333277
 30
0.0
  0
SPLINE
  5
369
100
AcDbEntity
  8
0
100
AcDbSpline
 62
7
  6
CONTINUOUS
 70
0
 71
3
 72
23
 73
19
 74
0
 42
0.0000001
 43
0.0000001
 44
0.0000000001
 40
0.0
 40
0.0
 40
0.0
 40
0.0
 40
0.0638617654
 40
0.1275030803
 40
0.1909230764
 40
0.2541276764
 40
0.317122389
 40
0.3799159305
 40
0.4425188195
 40
0.5049436701
 40
0.5672049961
 40
0.6293190749
 40
0.6913037887
 40
0.7531784352
 40
0.8149635246
 40
0.8766805577
 40
0.9383517929
 40
1.0
 40
1.0
 40
1.0
 40
1.0
 10
9.6365318877
 20
7.8808307636
 30
0.0
 10
9.6278250122
 20
7.8814345875
 30
0.0
 10
9.6104080663
 20
7.8822069812
 30
0.0
 10
9.5843051258
 20
7.8820514181
 30
0.0
 10
9.5583323944
 20
7.8805800156
 30
0.0
 10
9.5325562999
 20
7.8777965706
 30
0.0
 10
9.507041332
 20
7.8737078786
 30
0.0
 10
9.4818518655
 20
7.8683242357
 30
0.0
 10
9.457051298
 20
7.8616590859
 30
0.0
 10
9.4327021057
 20
7.8537291583
 30
0.0
 10
9.4088656216
 20
7.844554371
 30
0.0
 10
9.3856018978
 20
7.8341577794
 30
0.0
 10
9.3629695559
 20
7.8225655268
 30
0.0
 10
9.3410256178
 20
7.8098067578
 30
0.0
 10
9.3198254396
 20
7.7959136243
 30
0.0
 10
9.299422275
 20
7.780920916
 30
0.0
 10
9.2798682294
 20
7.7648670691
 30
0.0
 10
9.2674286439
 20
7.7534816692
 30
0.0
 10
9.2613687292
 20
7.7476282453
 30
0.0
  0
SPLINE
  5
36A
100
AcDbEntity
  8
0
100
AcDbSpline
 62
7
  6
CONTINUOUS
 70
0
 71
3
 72
39
 73
35
 74
0
 42
0.0000001
 43
0.0000001
 44
0.0000000001
 40
0.0
 40
0.0
 40
0.0
 40
0.0
 40
0.0311450474
 40
0.0624431122
 40
0.0938883415
 40
0.1254709904
 40
0.157178884
 40
0.1889972611
 40
0.2209091755
 40
0.2528958437
 40
0.2849370231
 40
0.3170114138
 40
0.3490970738
 40
0.3811718446
 40
0.413213777
 40
0.4452015561
 40
0.477114918
 40
0.5089350506
 40
0.5406449736
 40
0.5722298927
 40
0.6036775219
 40
0.6349783626
 40
0.6661259349
 40
0.6971169558
 40
0.7279514584
 40
0.7586328412
 40
0.7891678431
 40
0.8195664432
 40
0.8498416843
 40
0.8800094163
 40
0.9100879629
 40
0.9400977199
 40
0.9700606953
 40
1.0
 40
1.0
 40
1.0
 40
1.0
 10
11.085420713
 20
7.7803499823
 30
0.0
 10
11.0981577069
 20
7.7794666688
 30
0.0
 10
11.1236390958
 20
7.7767634078
 30
0.0
 10
11.1615522495
 20
7.7699537931
 30
0.0
 10
11.1990593156
 20
7.760415607
 30
0.0
 10
11.2359577443
 20
7.7482000988
 30
0.0
 10
11.2720514829
 20
7.7333727256
 30
0.0
 10
11.3071480017
 20
7.7160128154
 30
0.0
 10
11.3410603467
 20
7.6962131575
 30
0.0
 10
11.3736078145
 20
7.6740794673
 30
0.0
 10
11.404616978
 20
7.6497298273
 30
0.0
 10
11.4339226014
 20
7.6232941014
 30
0.0
 10
11.4613685346
 20
7.5949132546
 30
0.0
 10
11.4868084926
 20
7.5647385589
 30
0.0
 10
11.5101068298
 20
7.5329308079
 30
0.0
 10
11.5311392602
 20
7.4996594771
 30
0.0
 10
11.5497935748
 20
7.4651018651
 30
0.0
 10
11.565970168
 20
7.4294421101
 30
0.0
 10
11.5795825727
 20
7.3928702324
 30
0.0
 10
11.590557908
 20
7.3555811354
 30
0.0
 10
11.5988373517
 20
7.3177736055
 30
0.0
 10
11.604376402
 20
7.2796492402
 30
0.0
 10
11.6071451097
 20
7.2414113901
 30
0.0
 10
11.6071282406
 20
7.2032640936
 30
0.0
 10
11.6043254378
 20
7.1654110033
 30
0.0
 10
11.5987512342
 20
7.1280542958
 30
0.0
 10
11.5904349482
 20
7.0913936031
 30
0.0
 10
11.579420553
 20
7.055624948
 30
0.0
 10
11.5657665111
 20
7.0209397034
 30
0.0
 10
11.5495454659
 20
6.9875234648
 30
0.0
 10
11.5308440419
 20
6.9555553041
 30
0.0
 10
11.5097614889
 20
6.9252058947
 30
0.0
 10
11.4864125879
 20
6.8966398997
 30
0.0
 10
11.4694115054
 20
6.8788793798
 30
0.0
 10
11.4605838715
 20
6.8703525464
 30
0.0
  0
SPLINE
  5
36B
100
AcDbEntity
  8
0
100
AcDbSpline
 62
7
  6
CONTINUOUS
 70
0
 71
3
 72
23
 73
19
 74
0
 42
0.0000001
 43
0.0000001
 44
0.0000000001
 40
0.0
 40
0.0
 40
0.0
 40
0.0
 40
0.0638617654
 40
0.1275030803
 40
0.1909230764
 40
0.2541276764
 40
0.317122389
 40
0.3799159305
 40
0.4425188195
 40
0.5049436701
 40
0.5672049961
 40
0.6293190749
 40
0.6913037887
 40
0.7531784352
 40
0.8149635246
 40
0.8766805577
 40
0.9383517929
 40
1.0
 40
1.0
 40
1.0
 40
1.0
 10
11.085420713
 20
7.7803499823
 30
0.0
 10
11.0767138375
 20
7.7809538062
 30
0.0
 10
11.0592968916
 20
7.7817261999
 30
0.0
 10
11.0331939511
 20
7.7815706368
 30
0.0
 10
11.0072212197
 20
7.7800992343
 30
0.0
 10
10.9814451252
 20
7.7773157892
 30
0.0
 10
10.9559301573
 20
7.7732270973
 30
0.0
 10
10.9307406908
 20
7.7678434543
 30
0.0
 10
10.9059401233
 20
7.7611783046
 30
0.0
 10
10.881590931
 20
7.7532483769
 30
0.0
 10
10.8577544468
 20
7.7440735897
 30
0.0
 10
10.8344907231
 20
7.7336769981
 30
0.0
 10
10.8118583812
 20
7.7220847455
 30
0.0
 10
10.7899144431
 20
7.7093259765
 30
0.0
 10
10.7687142649
 20
7.6954328429
 30
0.0
 10
10.7483111003
 20
7.6804401346
 30
0.0
 10
10.7287570547
 20
7.6643862878
 30
0.0
 10
10.7163174692
 20
7.6530008879
 30
0.0
 10
10.7102575544
 20
7.647147464
 30
0.0
  0
SPLINE
  5
36C
100
AcDbEntity
  8
0
100
AcDbSpline
 62
7
  6
CONTINUOUS
 70
0
 71
3
 72
23
 73
19
 74
0
 42
0.0000001
 43
0.0000001
 44
0.0000000001
 40
0.0
 40
0.0
 40
0.0
 40
0.0
 40
0.0616482081
 40
0.123319443
 40
0.1850364742
 40
0.246821561
 40
0.3086962063
 40
0.3706809208
 40
0.4327950024
 40
0.4950563313
 40
0.5574811853
 40
0.6200840725
 40
0.6828776138
 40
0.7458723313
 40
0.8090768938
 40
0.8724970133
 40
0.9361380664
 40
1.0
 40
1.0
 40
1.0
 40
1.0
 10
8.9736533641
 20
9.3658142829
 30
0.0
 10
8.9803304834
 20
9.3722638756
 30
0.0
 10
8.994037076
 20
9.3848088397
 30
0.0
 10
9.0155827296
 20
9.4024977331
 30
0.0
 10
9.0380639837
 20
9.4190174086
 30
0.0
 10
9.061423412
 20
9.4343255351
 30
0.0
 10
9.0856023475
 20
9.4483837692
 30
0.0
 10
9.1105397999
 20
9.4611566782
 30
0.0
 10
9.1361729423
 20
9.4726121439
 30
0.0
 10
9.1624371827
 20
9.4827213576
 30
0.0
 10
9.1892663505
 20
9.4914589152
 30
0.0
 10
9.2165928604
 20
9.4988028883
 30
0.0
 10
9.2443478752
 20
9.5047348466
 30
0.0
 10
9.2724615376
 20
9.5092399626
 30
0.0
 10
9.3008629396
 20
9.5123069076
 30
0.0
 10
9.3294809674
 20
9.5139281471
 30
0.0
 10
9.3582424954
 20
9.514099568
 30
0.0
 10
9.3774333421
 20
9.5132484955
 30
0.0
 10
9.3870270377
 20
9.5125831704
 30
0.0
  0
SPLINE
  5
36D
100
AcDbEntity
  8
0
100
AcDbSpline
 62
7
  6
CONTINUOUS
 70
0
 71
3
 72
23
 73
19
 74
0
 42
0.0000001
 43
0.0000001
 44
0.0000000001
 40
0.0
 40
0.0
 40
0.0
 40
0.0
 40
0.0616482081
 40
0.123319443
 40
0.1850364742
 40
0.246821561
 40
0.3086962063
 40
0.3706809208
 40
0.4327950024
 40
0.4950563313
 40
0.5574811853
 40
0.6200840725
 40
0.6828776138
 40
0.7458723313
 40
0.8090768938
 40
0.8724970133
 40
0.9361380664
 40
1.0
 40
1.0
 40
1.0
 40
1.0
 10
10.9055051311
 20
9.2318399078
 30
0.0
 10
10.9121822504
 20
9.2382895005
 30
0.0
 10
10.925888843
 20
9.2508344646
 30
0.0
 10
10.9474344967
 20
9.268523358
 30
0.0
 10
10.9699157508
 20
9.2850430335
 30
0.0
 10
10.9932751791
 20
9.30035116
 30
0.0
 10
11.0174541145
 20
9.3144093941
 30
0.0
 10
11.0423915669
 20
9.3271823031
 30
0.0
 10
11.0680247093
 20
9.3386377688
 30
0.0
 10
11.0942889497
 20
9.3487469825
 30
0.0
 10
11.1211181176
 20
9.3574845401
 30
0.0
 10
11.1484446275
 20
9.3648285132
 30
0.0
 10
11.1761996423
 20
9.3707604715
 30
0.0
 10
11.2043133047
 20
9.3752655875
 30
0.0
 10
11.2327147066
 20
9.3783325325
 30
0.0
 10
11.2613327344
 20
9.379953772
 30
0.0
 10
11.2900942625
 20
9.3801251929
 30
0.0
 10
11.3092851092
 20
9.3792741204
 30
0.0
 10
11.3188788048
 20
9.3786087953
 30
0.0
  0
SPLINE
  5
36E
100
AcDbEntity
  8
0
100
AcDbSpline
 62
7
  6
CONTINUOUS
 70
0
 71
3
 72
37
 73
33
 74
0
 42
0.0000001
 43
0.0000001
 44
0.0000000001
 40
0.0
 40
0.0
 40
0.0
 40
0.0
 40
0.0165256456
 40
0.0318247974
 40
0.0460414964
 40
0.0594230478
 40
0.0659221513
 40
0.0723654332
 40
0.0788196231
 40
0.085357844
 40
0.0920556252
 40
0.0989879324
 40
0.1138280735
 40
0.1304157242
 40
0.1491559388
 40
0.1703298893
 40
0.194097919
 40
0.2205114971
 40
0.2495260497
 40
0.2810156063
 40
0.3147916611
 40
0.3506259259
 40
0.3882696311
 40
0.4274709994
 40
0.4679910659
 40
0.5096082987
 40
0.5521269622
 40
0.6392071226
 40
0.7281668857
 40
0.8182603242
 40
0.9089825948
 40
1.0
 40
1.0
 40
1.0
 40
1.0
 10
11.3271667809
 20
9.1123604073
 30
0.0
 10
11.3268608932
 20
9.1120269162
 30
0.0
 10
11.3262426006
 20
9.1114102762
 30
0.0
 10
11.325251546
 20
9.1106255661
 30
0.0
 10
11.3242332223
 20
9.1100308721
 30
0.0
 10
11.3233521566
 20
9.1097036732
 30
0.0
 10
11.3226448193
 20
9.1095587804
 30
0.0
 10
11.3221150085
 20
9.1095081598
 30
0.0
 10
11.3215817452
 20
9.1095165672
 30
0.0
 10
11.3210458759
 20
9.1095857942
 30
0.0
 10
11.320508355
 20
9.1097174929
 30
0.0
 10
11.3197743543
 20
9.1099842025
 30
0.0
 10
11.3188497131
 20
9.1104978809
 30
0.0
 10
11.3177817254
 20
9.1113710304
 30
0.0
 10
11.3167372415
 20
9.1125187492
 30
0.0
 10
11.3157254118
 20
9.1139432254
 30
0.0
 10
11.3147559528
 20
9.1156427787
 30
0.0
 10
11.3138396016
 20
9.11761061
 30
0.0
 10
11.312986967
 20
9.1198345129
 30
0.0
 10
11.3122077771
 20
9.1222972301
 30
0.0
 10
11.3115101199
 20
9.1249774705
 30
0.0
 10
11.3109001834
 20
9.1278513489
 30
0.0
 10
11.3103821696
 20
9.1308938768
 30
0.0
 10
11.3099581815
 20
9.1340803024
 30
0.0
 10
11.3096285243
 20
9.1373871347
 30
0.0
 10
11.3093922478
 20
9.1407929523
 30
0.0
 10
11.309197289
 20
9.1454778859
 30
0.0
 10
11.3091793441
 20
9.1514653016
 30
0.0
 10
11.3094807031
 20
9.15874874
 30
0.0
 10
11.3100767396
 20
9.166113817
 30
0.0
 10
11.3109401044
 20
9.1735086873
 30
0.0
 10
11.3116767633
 20
9.178431479
 30
0.0
 10
11.312082265
 20
9.1808906476
 30
0.0
  0
SPLINE
  5
36F
100
AcDbEntity
  8
0
100
AcDbSpline
 62
7
  6
CONTINUOUS
 70
0
 71
3
 72
16
 73
12
 74
0
 42
0.0000001
 43
0.0000001
 44
0.0000000001
 40
0.0
 40
0.0
 40
0.0
 40
0.0
 40
0.1081438537
 40
0.2181187553
 40
0.3316584918
 40
0.4503233556
 40
0.5120293364
 40
0.575504255
 40
0.7082533085
 40
0.8495215773
 40
1.0
 40
1.0
 40
1.0
 40
1.0
 10
13.4640875581
 20
7.6276308128
 30
0.0
 10
13.4634929802
 20
7.6276720544
 30
0.0
 10
13.4622865455
 20
7.6276734659
 30
0.0
 10
13.4604698518
 20
7.6274307515
 30
0.0
 10
13.4586428437
 20
7.6269446886
 30
0.0
 10
13.4571338052
 20
7.6263461597
 30
0.0
 10
13.455927012
 20
7.6257537689
 30
0.0
 10
13.4546835714
 20
7.6250637672
 30
0.0
 10
13.4531242192
 20
7.6240447812
 30
0.0
 10
13.4512781683
 20
7.622604035
 30
0.0
 10
13.450085924
 20
7.621522947
 30
0.0
 10
13.4494894301
 20
7.620946778
 30
0.0
  0
SPLINE
  5
370
100
AcDbEntity
  8
0
100
AcDbSpline
 62
7
  6
CONTINUOUS
 70
0
 71
3
 72
16
 73
12
 74
0
 42
0.0000001
 43
0.0000001
 44
0.0000000001
 40
0.0
 40
0.0
 40
0.0
 40
0.0
 40
0.1081438537
 40
0.2181187553
 40
0.3316584918
 40
0.4503233556
 40
0.5120293364
 40
0.575504255
 40
0.7082533085
 40
0.8495215773
 40
1.0
 40
1.0
 40
1.0
 40
1.0
 10
12.4288122321
 20
6.6276315788
 30
0.0
 10
12.4282176541
 20
6.6276728204
 30
0.0
 10
12.4270112194
 20
6.6276742319
 30
0.0
 10
12.4251945257
 20
6.6274315175
 30
0.0
 10
12.4233675177
 20
6.6269454546
 30
0.0
 10
12.4218584792
 20
6.6263469258
 30
0.0
 10
12.420651686
 20
6.6257545349
 30
0.0
 10
12.4194082454
 20
6.6250645332
 30
0.0
 10
12.4178488932
 20
6.6240455472
 30
0.0
 10
12.4160028423
 20
6.622604801
 30
0.0
 10
12.414810598
 20
6.621523713
 30
0.0
 10
12.414214104
 20
6.6209475441
 30
0.0
  0
SPLINE
  5
371
100
AcDbEntity
  8
0
100
AcDbSpline
 62
7
  6
CONTINUOUS
 70
0
 71
3
 72
51
 73
47
 74
0
 42
0.0000001
 43
0.0000001
 44
0.0000000001
 40
0.0
 40
0.0
 40
0.0
 40
0.0
 40
0.0117112069
 40
0.0229062651
 40
0.0336140962
 40
0.0438691867
 40
0.0537115598
 40
0.0631871815
 40
0.0723473221
 40
0.0812487474
 40
0.0899522067
 40
0.0985221513
 40
0.1070243379
 40
0.1155251648
 40
0.1240888858
 40
0.1327771442
 40
0.141646547
 40
0.1507489373
 40
0.1601297283
 40
0.1698289284
 40
0.1798800976
 40
0.1903118239
 40
0.2011469728
 40
0.212404302
 40
0.2240977684
 40
0.2362380866
 40
0.2488319906
 40
0.2618836867
 40
0.2893551463
 40
0.3186406758
 40
0.3496879448
 40
0.3824179483
 40
0.4167308199
 40
0.452511668
 40
0.4896362861
 40
0.5279765809
 40
0.5674056216
 40
0.6490119879
 40
0.6910152198
 40
0.7336807492
 40
0.7769307759
 40
0.8206993783
 40
0.8649316434
 40
0.9095825274
 40
0.9546153336
 40
1.0
 40
1.0
 40
1.0
 40
1.0
 10
11.1486872792
 20
7.3533673599
 30
0.0
 10
11.1486876457
 20
7.3516759247
 30
0.0
 10
11.1486168603
 20
7.3483669495
 30
0.0
 10
11.1482730884
 20
7.3435221745
 30
0.0
 10
11.147690471
 20
7.3389117061
 30
0.0
 10
11.1468652847
 20
7.3345366829
 30
0.0
 10
11.1457952353
 20
7.3303981279
 30
0.0
 10
11.1444781049
 20
7.3264975398
 30
0.0
 10
11.1429130081
 20
7.3228365346
 30
0.0
 10
11.1410993509
 20
7.3194173655
 30
0.0
 10
11.1390378298
 20
7.3162424272
 30
0.0
 10
11.1367297159
 20
7.3133147431
 30
0.0
 10
11.1341774796
 20
7.3106373571
 30
0.0
 10
11.1313843224
 20
7.3082137329
 30
0.0
 10
11.1283543802
 20
7.3060472312
 30
0.0
 10
11.1250924678
 20
7.3041414552
 30
0.0
 10
11.1216040263
 20
7.3024999663
 30
0.0
 10
11.1178951052
 20
7.301126552
 30
0.0
 10
11.1139722495
 20
7.300025131
 30
0.0
 10
11.109842663
 20
7.2991998644
 30
0.0
 10
11.1055140954
 20
7.2986551305
 30
0.0
 10
11.1009950638
 20
7.2983954923
 30
0.0
 10
11.0962947289
 20
7.2984256591
 30
0.0
 10
11.0914231041
 20
7.2987504042
 30
0.0
 10
11.0863909007
 20
7.2993744665
 30
0.0
 10
11.0812097548
 20
7.300302501
 30
0.0
 10
11.075891877
 20
7.3015388905
 30
0.0
 10
11.0685109176
 20
7.3036400189
 30
0.0
 10
11.0590208083
 20
7.3070893241
 30
0.0
 10
11.0475086215
 20
7.3124420726
 30
0.0
 10
11.0358097836
 20
7.3190888638
 30
0.0
 10
11.0240592321
 20
7.3270269265
 30
0.0
 10
11.0123939087
 20
7.3362386221
 30
0.0
 10
11.0009501909
 20
7.3466903888
 30
0.0
 10
10.9898597798
 20
7.3583331849
 30
0.0
 10
10.9792455313
 20
7.37110543
 30
0.0
 10
10.9657261884
 20
7.3897514996
 30
0.0
 10
10.9537935524
 20
7.4101390634
 30
0.0
 10
10.9436096662
 20
7.4318991861
 30
0.0
 10
10.9368024055
 20
7.449087533
 30
0.0
 10
10.9309510424
 20
7.4668913754
 30
0.0
 10
10.9260925374
 20
7.4852256753
 30
0.0
 10
10.9222558936
 20
7.504006889
 30
0.0
 10
10.9194621485
 20
7.523155797
 30
0.0
 10
10.9177257943
 20
7.5425956744
 30
0.0
 10
10.9172805534
 20
7.5556546376
 30
0.0
 10
10.9172342209
 20
7.5622093256
 30
0.0
  0
SPLINE
  5
372
100
AcDbEntity
  8
0
100
AcDbSpline
 62
7
  6
CONTINUOUS
 70
0
 71
3
 72
15
 73
11
 74
0
 42
0.0000001
 43
0.0000001
 44
0.0000000001
 40
0.0
 40
0.0
 40
0.0
 40
0.0
 40
0.1048323436
 40
0.2151475568
 40
0.3311344539
 40
0.4529369495
 40
0.5806635576
 40
0.7143883634
 40
0.8541598252
 40
1.0
 40
1.0
 40
1.0
 40
1.0
 10
11.1350740627
 20
7.3115850302
 30
0.0
 10
11.1340381129
 20
7.3126148984
 30
0.0
 10
11.1318484704
 20
7.314665274
 30
0.0
 10
11.1283179024
 20
7.3176387547
 30
0.0
 10
11.1244621853
 20
7.3205845851
 30
0.0
 10
11.1202845604
 20
7.3235004829
 30
0.0
 10
11.1157882318
 20
7.3263841687
 30
0.0
 10
11.1109768029
 20
7.3292334952
 30
0.0
 10
11.1058540978
 20
7.3320461066
 30
0.0
 10
11.102309387
 20
7.3338568441
 30
0.0
 10
11.1004873917
 20
7.334756879
 30
0.0
  0
SPLINE
  5
373
100
AcDbEntity
  8
0
100
AcDbSpline
 62
7
  6
CONTINUOUS
 70
0
 71
3
 72
15
 73
11
 74
0
 42
0.0000001
 43
0.0000001
 44
0.0000000001
 40
0.0
 40
0.0
 40
0.0
 40
0.0
 40
0.1225059497
 40
0.2461146867
 40
0.3707046719
 40
0.4961218811
 40
0.6221474276
 40
0.7484628845
 40
0.8746168402
 40
1.0
 40
1.0
 40
1.0
 40
1.0
 10
10.9172342209
 20
7.5622093256
 30
0.0
 10
10.9171691173
 20
7.5714195584
 30
0.0
 10
10.9177412183
 20
7.5899350466
 30
0.0
 10
10.9206635841
 20
7.6176762025
 30
0.0
 10
10.9256258696
 20
7.645349062
 30
0.0
 10
10.932575675
 20
7.6727767017
 30
0.0
 10
10.9414312234
 20
7.6997848274
 30
0.0
 10
10.9520746679
 20
7.7261978302
 30
0.0
 10
10.964344604
 20
7.7518389526
 30
0.0
 10
10.9735180174
 20
7.7683906967
 30
0.0
 10
10.9783166696
 20
7.7765047072
 30
0.0
  0
SPLINE
  5
374
100
AcDbEntity
  8
0
100
AcDbSpline
 62
7
  6
CONTINUOUS
 70
0
 71
3
 72
23
 73
19
 74
0
 42
0.0000001
 43
0.0000001
 44
0.0000000001
 40
0.0
 40
0.0
 40
0.0
 40
0.0
 40
0.0616482081
 40
0.123319443
 40
0.1850364742
 40
0.246821561
 40
0.3086962063
 40
0.3706809208
 40
0.4327950024
 40
0.4950563313
 40
0.5574811853
 40
0.6200840725
 40
0.6828776138
 40
0.7458723313
 40
0.8090768938
 40
0.8724970133
 40
0.9361380664
 40
1.0
 40
1.0
 40
1.0
 40
1.0
 10
9.8004007113
 20
8.5099002565
 30
0.0
 10
9.7937235921
 20
8.5034506639
 30
0.0
 10
9.7800169995
 20
8.4909056998
 30
0.0
 10
9.7584713458
 20
8.4732168064
 30
0.0
 10
9.7359900917
 20
8.4566971309
 30
0.0
 10
9.7126306634
 20
8.4413890044
 30
0.0
 10
9.688451728
 20
8.4273307703
 30
0.0
 10
9.6635142756
 20
8.4145578612
 30
0.0
 10
9.6378811332
 20
8.4031023955
 30
0.0
 10
9.6116168927
 20
8.3929931819
 30
0.0
 10
9.5847877249
 20
8.3842556243
 30
0.0
 10
9.557461215
 20
8.3769116511
 30
0.0
 10
9.5297062002
 20
8.3709796928
 30
0.0
 10
9.5015925378
 20
8.3664745768
 30
0.0
 10
9.4731911358
 20
8.3634076319
 30
0.0
 10
9.444573108
 20
8.3617863923
 30
0.0
 10
9.41581158
 20
8.3616149714
 30
0.0
 10
9.3966207333
 20
8.362466044
 30
0.0
 10
9.3870270377
 20
8.363131369
 30
0.0
  0
SPLINE
  5
375
100
AcDbEntity
  8
0
100
AcDbSpline
 62
7
  6
CONTINUOUS
 70
0
 71
3
 72
23
 73
19
 74
0
 42
0.0000001
 43
0.0000001
 44
0.0000000001
 40
0.0
 40
0.0
 40
0.0
 40
0.0
 40
0.0616399241
 40
0.1233069565
 40
0.1850232044
 40
0.2468102395
 40
0.3086888673
 40
0.3706789065
 40
0.4327989807
 40
0.495066328
 40
0.5574966244
 40
0.6201038332
 40
0.6829000829
 40
0.7458954761
 40
0.8090983767
 40
0.8725140835
 40
0.9361482108
 40
1.0
 40
1.0
 40
1.0
 40
1.0
 10
9.8003802708
 20
8.5099249982
 30
0.0
 10
9.7937187271
 20
8.5036320353
 30
0.0
 10
9.780055763
 20
8.4913946032
 30
0.0
 10
9.7586116609
 20
8.4741473132
 30
0.0
 10
9.7362657966
 20
8.4580467734
 30
0.0
 10
9.7130737751
 20
8.4431331963
 30
0.0
 10
9.6890923549
 20
8.4294429646
 30
0.0
 10
9.6643804755
 20
8.4170096928
 30
0.0
 10
9.6389987968
 20
8.405863837
 30
0.0
 10
9.6130096329
 20
8.3960327052
 30
0.0
 10
9.5864767766
 20
8.387540368
 30
0.0
 10
9.5594653443
 20
8.3804076078
 30
0.0
 10
9.532041634
 20
8.3746518635
 30
0.0
 10
9.5042728934
 20
8.3702871427
 30
0.0
 10
9.4762273807
 20
8.367324153
 30
0.0
 10
9.4479734704
 20
8.3657699491
 30
0.0
 10
9.4195815594
 20
8.3656284297
 30
0.0
 10
9.4006381552
 20
8.3664746183
 30
0.0
 10
9.3911681392
 20
8.3671313662
 30
0.0
  0
SPLINE
  5
376
100
AcDbEntity
  8
0
100
AcDbSpline
 62
7
  6
CONTINUOUS
 70
0
 71
3
 72
23
 73
19
 74
0
 42
0.0000001
 43
0.0000001
 44
0.0000000001
 40
0.0
 40
0.0
 40
0.0
 40
0.0
 40
0.0616482066
 40
0.1233194398
 40
0.1850364729
 40
0.2468215638
 40
0.3086962099
 40
0.3706809215
 40
0.4327950013
 40
0.4950563319
 40
0.5574811817
 40
0.6200840805
 40
0.6828775834
 40
0.7458723398
 40
0.8090769807
 40
0.8724966303
 40
0.9361388571
 40
1.0
 40
1.0
 40
1.0
 40
1.0
 10
9.6620508644
 20
8.682136801
 30
0.0
 10
9.6578426012
 20
8.678071912
 30
0.0
 10
9.6492039745
 20
8.6701654119
 30
0.0
 10
9.6356247863
 20
8.6590168975
 30
0.0
 10
9.6214559273
 20
8.6486052868
 30
0.0
 10
9.6067335781
 20
8.6389572823
 30
0.0
 10
9.5914947289
 20
8.6300970324
 30
0.0
 10
9.5757778287
 20
8.622046851
 30
0.0
 10
9.5596224712
 20
8.614826981
 30
0.0
 10
9.5430693537
 20
8.6084556081
 30
0.0
 10
9.5261601848
 20
8.6029487336
 30
0.0
 10
9.5089375707
 20
8.598320163
 30
0.0
 10
9.4914448903
 20
8.5945814954
 30
0.0
 10
9.473726159
 20
8.5917421168
 30
0.0
 10
9.455826116
 20
8.5898091961
 30
0.0
 10
9.4377894407
 20
8.5887873647
 30
0.0
 10
9.419662404
 20
8.5886793737
 30
0.0
 10
9.4075672748
 20
8.5892157348
 30
0.0
 10
9.4015208925
 20
8.5896350529
 30
0.0
  0
SPLINE
  5
377
100
AcDbEntity
  8
0
100
AcDbSpline
 62
7
  6
CONTINUOUS
 70
0
 71
3
 72
15
 73
11
 74
0
 42
0.0000001
 43
0.0000001
 44
0.0000000001
 40
0.0
 40
0.0
 40
0.0
 40
0.0
 40
0.1236001451
 40
0.2475572627
 40
0.3718983617
 40
0.4966462234
 40
0.6218195667
 40
0.7474296688
 40
0.8734917139
 40
1.0
 40
1.0
 40
1.0
 40
1.0
 10
9.7381828641
 20
8.7949177531
 30
0.0
 10
9.7324749968
 20
8.7928174027
 30
0.0
 10
9.7209264638
 20
8.78891942
 30
0.0
 10
9.7032898452
 20
8.7840051361
 30
0.0
 10
9.685360278
 20
8.7800277565
 30
0.0
 10
9.6671860286
 20
8.776998036
 30
0.0
 10
9.6488153301
 20
8.774923959
 30
0.0
 10
9.6302966415
 20
8.773810817
 30
0.0
 10
9.6116800266
 20
8.7736617307
 30
0.0
 10
9.5992570546
 20
8.7742042305
 30
0.0
 10
9.5930468278
 20
8.7746349112
 30
0.0
  0
SPLINE
  5
378
100
AcDbEntity
  8
0
100
AcDbSpline
 62
7
  6
CONTINUOUS
 70
0
 71
3
 72
39
 73
35
 74
0
 42
0.0000001
 43
0.0000001
 44
0.0000000001
 40
0.0
 40
0.0
 40
0.0
 40
0.0
 40
0.0299351231
 40
0.0598974266
 40
0.0899096518
 40
0.1199933761
 40
0.1501685208
 40
0.1804529051
 40
0.2108618629
 40
0.2414079284
 40
0.2721005934
 40
0.3029461397
 40
0.3339475523
 40
0.3651045064
 40
0.3964134219
 40
0.4278675826
 40
0.4594573185
 40
0.4911702393
 40
0.5229915114
 40
0.5549041732
 40
0.5868894865
 40
0.6189273112
 40
0.6509964993
 40
0.6830753023
 40
0.7151417888
 40
0.7471742624
 40
0.7791516767
 40
0.8110540437
 40
0.8428628256
 40
0.8745613047
 40
0.9061349259
 40
0.9375716763
 40
0.9688619624
 40
1.0
 40
1.0
 40
1.0
 40
1.0
 10
8.9731276679
 20
9.3652493154
 30
0.0
 10
8.963567682
 20
9.3557793096
 30
0.0
 10
8.9451699676
 20
9.3360760892
 30
0.0
 10
8.9199452073
 20
9.3044484869
 30
0.0
 10
8.897211942
 20
9.27090167
 30
0.0
 10
8.8770927293
 20
9.2356157914
 30
0.0
 10
8.8596932956
 20
9.1987773128
 30
0.0
 10
8.845105571
 20
9.1605816778
 30
0.0
 10
8.833406321
 20
9.1212312142
 30
0.0
 10
8.8246570327
 20
9.0809343138
 30
0.0
 10
8.8189035451
 20
9.039904255
 30
0.0
 10
8.8161757501
 20
8.9983580984
 30
0.0
 10
8.816487559
 20
8.9565155092
 30
0.0
 10
8.8198368553
 20
8.9145976106
 30
0.0
 10
8.8262055259
 20
8.8728258345
 30
0.0
 10
8.8355594741
 20
8.8314207475
 30
0.0
 10
8.8478489158
 20
8.7906009068
 30
0.0
 10
8.8630086506
 20
8.7505817295
 30
0.0
 10
8.8809584083
 20
8.7115743802
 30
0.0
 10
8.9016031847
 20
8.6737846278
 30
0.0
 10
8.9248338389
 20
8.6374118081
 30
0.0
 10
8.9505276631
 20
8.6026477921
 30
0.0
 10
8.978549021
 20
8.5696759925
 30
0.0
 10
9.0087499835
 20
8.538670341
 30
0.0
 10
9.040971183
 20
8.509794438
 30
0.0
 10
9.0750426415
 20
8.4832007039
 30
0.0
 10
9.1107846497
 20
8.4590295873
 30
0.0
 10
9.1480086567
 20
8.4374087454
 30
0.0
 10
9.1865182906
 20
8.4184524529
 30
0.0
 10
9.2261104648
 20
8.4022610059
 30
0.0
 10
9.2665761078
 20
8.3889201863
 30
0.0
 10
9.3077023635
 20
8.3785007556
 30
0.0
 10
9.3492693579
 20
8.3710581378
 30
0.0
 10
9.3772045589
 20
8.3680997437
 30
0.0
 10
9.3911681392
 20
8.3671313662
 30
0.0
  0
SPLINE
  5
379
100
AcDbEntity
  8
0
100
AcDbSpline
 62
7
  6
CONTINUOUS
 70
0
 71
3
 72
39
 73
35
 74
0
 42
0.0000001
 43
0.0000001
 44
0.0000000001
 40
0.0
 40
0.0
 40
0.0
 40
0.0
 40
0.0299393046
 40
0.0599022798
 40
0.0899120362
 40
0.1199905823
 40
0.1501583143
 40
0.1804335559
 40
0.2108321562
 40
0.2413671583
 40
0.2720485416
 40
0.3028830449
 40
0.3338740655
 40
0.3650216366
 40
0.3963224767
 40
0.4277701061
 40
0.4593550258
 40
0.491064949
 40
0.5228850818
 40
0.554798444
 40
0.5867862231
 40
0.618828155
 40
0.6509029254
 40
0.6829885856
 40
0.7150629765
 40
0.7471041564
 40
0.7790908249
 40
0.8110027394
 40
0.8428211144
 40
0.8745290121
 40
0.9061116491
 40
0.937556897
 40
0.9688549736
 40
1.0
 40
1.0
 40
1.0
 40
1.0
 10
9.1409909206
 20
9.2215777174
 30
0.0
 10
9.1348606353
 20
9.2156562889
 30
0.0
 10
9.1230543138
 20
9.2033226098
 30
0.0
 10
9.1068398169
 20
9.1834850982
 30
0.0
 10
9.0921991434
 20
9.1624091296
 30
0.0
 10
9.0792120338
 20
9.1402090238
 30
0.0
 10
9.0679474168
 20
9.1170033037
 30
0.0
 10
9.0584654493
 20
9.092916326
 30
0.0
 10
9.0508165601
 20
9.0680769834
 30
0.0
 10
9.0450413583
 20
9.0426181696
 30
0.0
 10
9.0411703909
 20
9.0166760101
 30
0.0
 10
9.039224015
 20
8.9903891407
 30
0.0
 10
9.0392123016
 20
8.9638979636
 30
0.0
 10
9.0411350006
 20
8.9373439009
 30
0.0
 10
9.0449815554
 20
8.9108686464
 30
0.0
 10
9.0507311712
 20
8.8846134178
 30
0.0
 10
9.0583529358
 20
8.8587182129
 30
0.0
 10
9.0678059886
 20
8.8333210734
 30
0.0
 10
9.0790397353
 20
8.8085573551
 30
0.0
 10
9.09199413
 20
8.7845590185
 30
0.0
 10
9.1065999949
 20
8.761453935
 30
0.0
 10
9.1227793881
 20
8.7393652145
 30
0.0
 10
9.1404460158
 20
8.718410557
 30
0.0
 10
9.1595056888
 20
8.6987016328
 30
0.0
 10
9.1798568199
 20
8.6803434939
 30
0.0
 10
9.2013909604
 20
8.6634340209
 30
0.0
 10
9.223993366
 20
8.6480633987
 30
0.0
 10
9.2475436082
 20
8.6343136419
 30
0.0
 10
9.2719161965
 20
8.6222581592
 30
0.0
 10
9.2969812929
 20
8.6119613823
 30
0.0
 10
9.3226051978
 20
8.6034783702
 30
0.0
 10
9.3486517758
 20
8.596854625
 30
0.0
 10
9.3749803574
 20
8.5921257262
 30
0.0
 10
9.3926757638
 20
8.5902484646
 30
0.0
 10
9.4015208925
 20
8.5896350529
 30
0.0
  0
SPLINE
  5
37A
100
AcDbEntity
  8
0
100
AcDbSpline
 62
7
  6
CONTINUOUS
 70
0
 71
3
 72
41
 73
37
 74
0
 42
0.0000001
 43
0.0000001
 44
0.0000000001
 40
0.0
 40
0.0
 40
0.0
 40
0.0
 40
0.0300733955
 40
0.0451504284
 40
0.0602546488
 40
0.0905450123
 40
0.1209552903
 40
0.1362089179
 40
0.1514943077
 40
0.1821580673
 40
0.2129515596
 40
0.2438742099
 40
0.2749235501
 40
0.3060952772
 40
0.337383337
 40
0.3687800289
 40
0.4002761313
 40
0.4318610439
 40
0.4635229458
 40
0.4952489655
 40
0.5270253622
 40
0.5588377161
 40
0.590671124
 40
0.6225104007
 40
0.6543402829
 40
0.6861456327
 40
0.7179116414
 40
0.7496240289
 40
0.7812692398
 40
0.8128346275
 40
0.8443086462
 40
0.8756809766
 40
0.9069428084
 40
0.9380866192
 40
0.96910718
 40
1.0
 40
1.0
 40
1.0
 40
1.0
 10
9.2563210533
 20
9.2937032231
 30
0.0
 10
9.2536079899
 20
9.2870478935
 30
0.0
 10
9.249853061
 20
9.2769218127
 30
0.0
 10
9.2454935746
 20
9.263195864
 30
0.0
 10
9.241555704
 20
9.2492886231
 30
0.0
 10
9.237446934
 20
9.2316315475
 30
0.0
 10
9.2344437058
 20
9.2137171865
 30
0.0
 10
9.2327050564
 20
9.199253338
 30
0.0
 10
9.2314082701
 20
9.1846823986
 30
0.0
 10
9.2306269351
 20
9.166346233
 30
0.0
 10
9.2310334264
 20
9.1442593491
 30
0.0
 10
9.2327812063
 20
9.1221452906
 30
0.0
 10
9.2358637283
 20
9.1000864916
 30
0.0
 10
9.2402694527
 20
9.0781644883
 30
0.0
 10
9.2459819665
 20
9.0564604763
 30
0.0
 10
9.2529800263
 20
9.0350547812
 30
0.0
 10
9.2612376433
 20
9.0140266268
 30
0.0
 10
9.2707241795
 20
8.9934538278
 30
0.0
 10
9.2814044615
 20
8.9734125094
 30
0.0
 10
9.2932389107
 20
8.9539768262
 30
0.0
 10
9.3061836896
 20
8.9352186912
 30
0.0
 10
9.3201908634
 20
8.9172075118
 30
0.0
 10
9.3352085757
 20
8.9000099342
 30
0.0
 10
9.3511812389
 20
8.8836895979
 30
0.0
 10
9.3680497402
 20
8.868306903
 30
0.0
 10
9.3857516587
 20
8.8539187881
 30
0.0
 10
9.4042214949
 20
8.8405785211
 30
0.0
 10
9.4233909107
 20
8.8283355024
 30
0.0
 10
9.4431889806
 20
8.8172350856
 30
0.0
 10
9.4635424531
 20
8.8073184027
 30
0.0
 10
9.4843760102
 20
8.7986222326
 30
0.0
 10
9.5056125848
 20
8.7911788143
 30
0.0
 10
9.5271734835
 20
8.7850158436
 30
0.0
 10
9.5489792435
 20
8.7801561253
 30
0.0
 10
9.5709480005
 20
8.7766179517
 30
0.0
 10
9.5856816076
 20
8.7751456909
 30
0.0
 10
9.5930468278
 20
8.7746349112
 30
0.0
  0
SPLINE
  5
37B
100
AcDbEntity
  8
0
100
AcDbSpline
 62
7
  6
CONTINUOUS
 70
0
 71
3
 72
15
 73
11
 74
0
 42
0.0000001
 43
0.0000001
 44
0.0000000001
 40
0.0
 40
0.0
 40
0.0
 40
0.0
 40
0.1234785755
 40
0.2473292703
 40
0.3715911847
 40
0.4962972957
 40
0.6214748608
 40
0.7471426789
 40
0.8733170514
 40
1.0
 40
1.0
 40
1.0
 40
1.0
 10
9.7491392979
 20
8.8263609109
 30
0.0
 10
9.7432416747
 20
8.8238030507
 30
0.0
 10
9.7312677588
 20
8.8190419425
 30
0.0
 10
9.7128774993
 20
8.8130017574
 30
0.0
 10
9.6940921887
 20
8.8080722289
 30
0.0
 10
9.6749765011
 20
8.804270348
 30
0.0
 10
9.6555952239
 20
8.8016088921
 30
0.0
 10
9.6360138955
 20
8.8000967247
 30
0.0
 10
9.6162999537
 20
8.799738978
 30
0.0
 10
9.6031378543
 20
8.8002698138
 30
0.0
 10
9.5965584122
 20
8.8007260996
 30
0.0
  0
SPLINE
  5
37C
100
AcDbEntity
  8
0
100
AcDbSpline
 62
7
  6
CONTINUOUS
 70
0
 71
3
 72
69
 73
65
 74
0
 42
0.0000001
 43
0.0000001
 44
0.0000000001
 40
0.0
 40
0.0
 40
0.0
 40
0.0
 40
0.0156218718
 40
0.0311913358
 40
0.0467075081
 40
0.0621721377
 40
0.0775863849
 40
0.0929522211
 40
0.1082720829
 40
0.1235488451
 40
0.1387858399
 40
0.153986804
 40
0.1691558513
 40
0.1842974309
 40
0.1994162798
 40
0.2145173748
 40
0.2296058824
 40
0.2446871044
 40
0.2597664203
 40
0.2748492287
 40
0.2899408906
 40
0.3050466736
 40
0.3201716955
 40
0.335320869
 40
0.3504988497
 40
0.3657099913
 40
0.3809583021
 40
0.3962474046
 40
0.4115804995
 40
0.4269603376
 40
0.4423891988
 40
0.4578688723
 40
0.473400641
 40
0.4889852745
 40
0.5046230298
 40
0.5203136537
 40
0.5360563878
 40
0.5518499798
 40
0.5676927033
 40
0.5835823784
 40
0.599516394
 40
0.6154917331
 40
0.631505006
 40
0.6475524851
 40
0.6797250749
 40
0.7119829169
 40
0.7281361784
 40
0.7442962422
 40
0.7604580846
 40
0.7766166677
 40
0.7927669824
 40
0.8089040898
 40
0.8250231659
 40
0.8411195463
 40
0.8571887667
 40
0.8732265999
 40
0.8892290958
 40
0.9051926279
 40
0.9211139017
 40
0.9369900319
 40
0.952818567
 40
0.968597187
 40
0.9843251317
 40
1.0
 40
1.0
 40
1.0
 40
1.0
 10
11.3230199063
 20
9.2087421334
 30
0.0
 10
11.3164727606
 20
9.2091961795
 30
0.0
 10
11.3033760197
 20
9.2097840068
 30
0.0
 10
11.2837464266
 20
9.2096990583
 30
0.0
 10
11.2642105086
 20
9.2086459448
 30
0.0
 10
11.2448162449
 20
9.2066273864
 30
0.0
 10
11.2256099737
 20
9.2036480104
 30
0.0
 10
11.2066381178
 20
9.1997150197
 30
0.0
 10
11.1879463741
 20
9.194837867
 30
0.0
 10
11.1695798087
 20
9.1890282517
 30
0.0
 10
11.1515827209
 20
9.1823001139
 30
0.0
 10
11.1339985174
 20
9.1746696318
 30
0.0
 10
11.1168695979
 20
9.1661552005
 30
0.0
 10
11.1002372777
 20
9.1567773224
 30
0.0
 10
11.0841416903
 20
9.1465585694
 30
0.0
 10
11.0686216821
 20
9.1355235483
 30
0.0
 10
11.0537146747
 20
9.1236988918
 30
0.0
 10
11.0394566245
 20
9.1111131157
 30
0.0
 10
11.0258819315
 20
9.0977965639
 30
0.0
 10
11.0130233653
 20
9.0837813326
 30
0.0
 10
11.0009119141
 20
9.0691012554
 30
0.0
 10
10.9895767668
 20
9.0537917572
 30
0.0
 10
10.9790452483
 20
9.0378897687
 30
0.0
 10
10.9693427682
 20
9.0214336347
 30
0.0
 10
10.9604926876
 20
9.0044630647
 30
0.0
 10
10.9525162928
 20
8.9870190077
 30
0.0
 10
10.9454327794
 20
8.9691435357
 30
0.0
 10
10.9392592124
 20
8.9508797473
 30
0.0
 10
10.9340104399
 20
8.9322716829
 30
0.0
 10
10.9296990343
 20
8.9133642162
 30
0.0
 10
10.9263353359
 20
8.8942029233
 30
0.0
 10
10.9239274193
 20
8.874833981
 30
0.0
 10
10.922481065
 20
8.8553040631
 30
0.0
 10
10.9219996723
 20
8.8356602295
 30
0.0
 10
10.9224843447
 20
8.8159498011
 30
0.0
 10
10.9239338765
 20
8.7962202512
 30
0.0
 10
10.926344768
 20
8.7765190992
 30
0.0
 10
10.9297111423
 20
8.7568937862
 30
0.0
 10
10.9340248376
 20
8.7373915598
 30
0.0
 10
10.9392754278
 20
8.7180593786
 30
0.0
 10
10.9454502879
 20
8.6989437599
 30
0.0
 10
10.9525344407
 20
8.6800908333
 30
0.0
 10
10.9605110415
 20
8.6615455378
 30
0.0
 10
10.9723184563
 20
8.6372718736
 30
0.0
 10
10.9892110003
 20
8.6079257617
 30
0.0
 10
11.0087568605
 20
8.5802223649
 30
0.0
 10
11.025886158
 20
8.5591775904
 30
0.0
 10
11.0394565993
 20
8.5439831418
 30
0.0
 10
11.0537097162
 20
8.5294245938
 30
0.0
 10
11.0686114845
 20
8.5155365543
 30
0.0
 10
11.0841259645
 20
8.5023525746
 30
0.0
 10
11.1002158579
 20
8.4899043935
 30
0.0
 10
11.1168424189
 20
8.4782219765
 30
0.0
 10
11.133965623
 20
8.467333438
 30
0.0
 10
11.1515442621
 20
8.4572650053
 30
0.0
 10
11.169536044
 20
8.4480409627
 30
0.0
 10
11.1878976629
 20
8.4396835337
 30
0.0
 10
11.206584912
 20
8.4322128431
 30
0.0
 10
11.2255528091
 20
8.4256468942
 30
0.0
 10
11.2447557331
 20
8.420001542
 30
0.0
 10
11.2641473338
 20
8.4152905027
 30
0.0
 10
11.2836812998
 20
8.4115249203
 30
0.0
 10
11.3033097186
 20
8.4087142543
 30
0.0
 10
11.3164505497
 20
8.4074792365
 30
0.0
 10
11.3230199063
 20
8.4070236501
 30
0.0
  0
SPLINE
  5
37D
100
AcDbEntity
  8
0
100
AcDbSpline
 62
7
  6
CONTINUOUS
 70
0
 71
3
 72
41
 73
37
 74
0
 42
0.0000001
 43
0.0000001
 44
0.0000000001
 40
0.0
 40
0.0
 40
0.0
 40
0.0
 40
0.0309287651
 40
0.0619887639
 40
0.0931754507
 40
0.1244829626
 40
0.1559032662
 40
0.1874268106
 40
0.219042474
 40
0.2507378149
 40
0.282499237
 40
0.3143121988
 40
0.3461614244
 40
0.3780311232
 40
0.4099052148
 40
0.4417675567
 40
0.4736021725
 40
0.5053934788
 40
0.5371265078
 40
0.5687871237
 40
0.6003622311
 40
0.6318399721
 40
0.6632099092
 40
0.6944631935
 40
0.7255927123
 40
0.7565932168
 40
0.787461424
 40
0.8181960924
 40
0.8487980675
 40
0.8640520703
 40
0.8792741833
 40
0.909621692
 40
0.9398515341
 40
0.9549270739
 40
0.9699767226
 40
1.0
 40
1.0
 40
1.0
 40
1.0
 10
11.5284101792
 20
8.6667517246
 30
0.0
 10
11.5213128063
 20
8.667243929
 30
0.0
 10
11.5071148786
 20
8.6686748706
 30
0.0
 10
11.4859507708
 20
8.67213821
 30
0.0
 10
11.4649526528
 20
8.6769097321
 30
0.0
 10
11.4442037988
 20
8.6829705114
 30
0.0
 10
11.4237850387
 20
8.6902968055
 30
0.0
 10
11.4037763148
 20
8.6988598307
 30
0.0
 10
11.3842558412
 20
8.7086260297
 30
0.0
 10
11.3652999473
 20
8.7195571326
 30
0.0
 10
11.346982744
 20
8.7316103369
 30
0.0
 10
11.3293758456
 20
8.7447384623
 30
0.0
 10
11.3125480906
 20
8.7588901389
 30
0.0
 10
11.2965652748
 20
8.7740100056
 30
0.0
 10
11.2814898964
 20
8.7900389255
 30
0.0
 10
11.2673809132
 20
8.8069142159
 30
0.0
 10
11.2542935136
 20
8.8245698913
 30
0.0
 10
11.2422789026
 20
8.8429369194
 30
0.0
 10
11.231384102
 20
8.8619434893
 30
0.0
 10
11.2216517681
 20
8.8815152892
 30
0.0
 10
11.2131200249
 20
8.9015757953
 30
0.0
 10
11.2058223153
 20
8.9220465669
 30
0.0
 10
11.1997872701
 20
8.9428475524
 30
0.0
 10
11.1950385947
 20
8.9638973938
 30
0.0
 10
11.1915949772
 20
8.9851137595
 30
0.0
 10
11.1894700043
 20
9.0064135992
 30
0.0
 10
11.1886721394
 20
9.0277137019
 30
0.0
 10
11.1892045568
 20
9.0489301448
 30
0.0
 10
11.1907571206
 20
9.0664923301
 30
0.0
 10
11.1926614913
 20
9.0804142964
 30
0.0
 10
11.1949996816
 20
9.0942106585
 30
0.0
 10
11.198738558
 20
9.1112540145
 30
0.0
 10
11.2035621343
 20
9.1279877845
 30
0.0
 10
11.2080558757
 20
9.1411260251
 30
0.0
 10
11.2129595855
 20
9.1540654427
 30
0.0
 10
11.2171098638
 20
9.1635772228
 30
0.0
 10
11.220079464
 20
9.1698122979
 30
0.0
  0
SPLINE
  5
37E
100
AcDbEntity
  8
0
100
AcDbSpline
 62
7
  6
CONTINUOUS
 70
0
 71
3
 72
23
 73
19
 74
0
 42
0.0000001
 43
0.0000001
 44
0.0000000001
 40
0.0
 40
0.0
 40
0.0
 40
0.0
 40
0.0616482081
 40
0.123319443
 40
0.1850364742
 40
0.246821561
 40
0.3086962063
 40
0.3706809208
 40
0.4327950024
 40
0.4950563313
 40
0.5574811853
 40
0.6200840725
 40
0.6828776138
 40
0.7458723313
 40
0.8090768938
 40
0.8724970133
 40
0.9361380664
 40
1.0
 40
1.0
 40
1.0
 40
1.0
 10
11.7322524784
 20
8.3759258814
 30
0.0
 10
11.7255753591
 20
8.3694762888
 30
0.0
 10
11.7118687665
 20
8.3569313247
 30
0.0
 10
11.6903231129
 20
8.3392424313
 30
0.0
 10
11.6678418588
 20
8.3227227558
 30
0.0
 10
11.6444824304
 20
8.3074146293
 30
0.0
 10
11.620303495
 20
8.2933563952
 30
0.0
 10
11.5953660426
 20
8.2805834862
 30
0.0
 10
11.5697329002
 20
8.2691280204
 30
0.0
 10
11.5434686598
 20
8.2590188068
 30
0.0
 10
11.516639492
 20
8.2502812492
 30
0.0
 10
11.489312982
 20
8.2429372761
 30
0.0
 10
11.4615579673
 20
8.2370053177
 30
0.0
 10
11.4334443048
 20
8.2325002017
 30
0.0
 10
11.4050429029
 20
8.2294332568
 30
0.0
 10
11.3764248751
 20
8.2278120172
 30
0.0
 10
11.347663347
 20
8.2276405963
 30
0.0
 10
11.3284725003
 20
8.2284916689
 30
0.0
 10
11.3188788048
 20
8.2291569939
 30
0.0
  0
SPLINE
  5
37F
100
AcDbEntity
  8
0
100
AcDbSpline
 62
7
  6
CONTINUOUS
 70
0
 71
3
 72
23
 73
19
 74
0
 42
0.0000001
 43
0.0000001
 44
0.0000000001
 40
0.0
 40
0.0
 40
0.0
 40
0.0
 40
0.0616399241
 40
0.1233069565
 40
0.1850232044
 40
0.2468102395
 40
0.3086888673
 40
0.3706789065
 40
0.4327989807
 40
0.495066328
 40
0.5574966244
 40
0.6201038332
 40
0.6829000829
 40
0.7458954761
 40
0.8090983767
 40
0.8725140835
 40
0.9361482108
 40
1.0
 40
1.0
 40
1.0
 40
1.0
 10
11.7322320378
 20
8.3759506231
 30
0.0
 10
11.7255704942
 20
8.3696576602
 30
0.0
 10
11.71190753
 20
8.3574202281
 30
0.0
 10
11.6904634279
 20
8.3401729381
 30
0.0
 10
11.6681175637
 20
8.3240723983
 30
0.0
 10
11.6449255421
 20
8.3091588212
 30
0.0
 10
11.6209441219
 20
8.2954685895
 30
0.0
 10
11.5962322425
 20
8.2830353177
 30
0.0
 10
11.5708505638
 20
8.271889462
 30
0.0
 10
11.5448613999
 20
8.2620583302
 30
0.0
 10
11.5183285437
 20
8.2535659929
 30
0.0
 10
11.4913171113
 20
8.2464332327
 30
0.0
 10
11.4638934011
 20
8.2406774884
 30
0.0
 10
11.4361246604
 20
8.2363127676
 30
0.0
 10
11.4080791478
 20
8.2333497779
 30
0.0
 10
11.3798252374
 20
8.2317955741
 30
0.0
 10
11.3514333265
 20
8.2316540547
 30
0.0
 10
11.3324899222
 20
8.2325002432
 30
0.0
 10
11.3230199063
 20
8.2331569911
 30
0.0
  0
SPLINE
  5
380
100
AcDbEntity
  8
0
100
AcDbSpline
 62
7
  6
CONTINUOUS
 70
0
 71
3
 72
23
 73
19
 74
0
 42
0.0000001
 43
0.0000001
 44
0.0000000001
 40
0.0
 40
0.0
 40
0.0
 40
0.0
 40
0.0616482066
 40
0.1233194398
 40
0.1850364729
 40
0.2468215638
 40
0.3086962099
 40
0.3706809215
 40
0.4327950013
 40
0.4950563319
 40
0.5574811817
 40
0.6200840805
 40
0.6828775834
 40
0.7458723398
 40
0.8090769807
 40
0.8724966303
 40
0.9361388571
 40
1.0
 40
1.0
 40
1.0
 40
1.0
 10
11.5939026314
 20
8.5481624259
 30
0.0
 10
11.5896943683
 20
8.5440975369
 30
0.0
 10
11.5810557415
 20
8.5361910369
 30
0.0
 10
11.5674765533
 20
8.5250425225
 30
0.0
 10
11.5533076943
 20
8.5146309117
 30
0.0
 10
11.5385853451
 20
8.5049829073
 30
0.0
 10
11.523346496
 20
8.4961226573
 30
0.0
 10
11.5076295957
 20
8.4880724759
 30
0.0
 10
11.4914742383
 20
8.4808526059
 30
0.0
 10
11.4749211207
 20
8.474481233
 30
0.0
 10
11.4580119518
 20
8.4689743585
 30
0.0
 10
11.4407893377
 20
8.4643457879
 30
0.0
 10
11.4232966573
 20
8.4606071204
 30
0.0
 10
11.405577926
 20
8.4577677418
 30
0.0
 10
11.387677883
 20
8.4558348211
 30
0.0
 10
11.3696412077
 20
8.4548129896
 30
0.0
 10
11.351514171
 20
8.4547049986
 30
0.0
 10
11.3394190418
 20
8.4552413597
 30
0.0
 10
11.3333726595
 20
8.4556606778
 30
0.0
  0
SPLINE
  5
381
100
AcDbEntity
  8
0
100
AcDbSpline
 62
7
  6
CONTINUOUS
 70
0
 71
3
 72
15
 73
11
 74
0
 42
0.0000001
 43
0.0000001
 44
0.0000000001
 40
0.0
 40
0.0
 40
0.0
 40
0.0
 40
0.1236001451
 40
0.2475572627
 40
0.3718983617
 40
0.4966462234
 40
0.6218195667
 40
0.7474296688
 40
0.8734917139
 40
1.0
 40
1.0
 40
1.0
 40
1.0
 10
11.6700346311
 20
8.660943378
 30
0.0
 10
11.6643267639
 20
8.6588430277
 30
0.0
 10
11.6527782308
 20
8.6549450449
 30
0.0
 10
11.6351416122
 20
8.6500307611
 30
0.0
 10
11.617212045
 20
8.6460533814
 30
0.0
 10
11.5990377956
 20
8.6430236609
 30
0.0
 10
11.5806670972
 20
8.6409495839
 30
0.0
 10
11.5621484086
 20
8.639836442
 30
0.0
 10
11.5435317936
 20
8.6396873556
 30
0.0
 10
11.5311088217
 20
8.6402298554
 30
0.0
 10
11.5248985948
 20
8.6406605361
 30
0.0
  0
SPLINE
  5
382
100
AcDbEntity
  8
0
100
AcDbSpline
 62
7
  6
CONTINUOUS
 70
0
 71
3
 72
39
 73
35
 74
0
 42
0.0000001
 43
0.0000001
 44
0.0000000001
 40
0.0
 40
0.0
 40
0.0
 40
0.0
 40
0.0299351231
 40
0.0598974266
 40
0.0899096518
 40
0.1199933761
 40
0.1501685208
 40
0.1804529051
 40
0.2108618629
 40
0.2414079284
 40
0.2721005934
 40
0.3029461397
 40
0.3339475523
 40
0.3651045064
 40
0.3964134219
 40
0.4278675826
 40
0.4594573185
 40
0.4911702393
 40
0.5229915114
 40
0.5549041732
 40
0.5868894865
 40
0.6189273112
 40
0.6509964993
 40
0.6830753023
 40
0.7151417888
 40
0.7471742624
 40
0.7791516767
 40
0.8110540437
 40
0.8428628256
 40
0.8745613047
 40
0.9061349259
 40
0.9375716763
 40
0.9688619624
 40
1.0
 40
1.0
 40
1.0
 40
1.0
 10
10.904979435
 20
9.2312749403
 30
0.0
 10
10.8954194491
 20
9.2218049346
 30
0.0
 10
10.8770217346
 20
9.2021017141
 30
0.0
 10
10.8517969744
 20
9.1704741118
 30
0.0
 10
10.829063709
 20
9.1369272949
 30
0.0
 10
10.8089444964
 20
9.1016414164
 30
0.0
 10
10.7915450626
 20
9.0648029378
 30
0.0
 10
10.776957338
 20
9.0266073028
 30
0.0
 10
10.7652580881
 20
8.9872568391
 30
0.0
 10
10.7565087998
 20
8.9469599387
 30
0.0
 10
10.7507553121
 20
8.9059298799
 30
0.0
 10
10.7480275171
 20
8.8643837233
 30
0.0
 10
10.748339326
 20
8.8225411341
 30
0.0
 10
10.7516886223
 20
8.7806232355
 30
0.0
 10
10.758057293
 20
8.7388514594
 30
0.0
 10
10.7674112411
 20
8.6974463724
 30
0.0
 10
10.7797006828
 20
8.6566265317
 30
0.0
 10
10.7948604177
 20
8.6166073544
 30
0.0
 10
10.8128101753
 20
8.5776000052
 30
0.0
 10
10.8334549517
 20
8.5398102528
 30
0.0
 10
10.8566856059
 20
8.5034374331
 30
0.0
 10
10.8823794301
 20
8.468673417
 30
0.0
 10
10.9104007881
 20
8.4357016174
 30
0.0
 10
10.9406017505
 20
8.4046959659
 30
0.0
 10
10.97282295
 20
8.3758200629
 30
0.0
 10
11.0068944085
 20
8.3492263288
 30
0.0
 10
11.0426364167
 20
8.3250552122
 30
0.0
 10
11.0798604238
 20
8.3034343703
 30
0.0
 10
11.1183700577
 20
8.2844780778
 30
0.0
 10
11.1579622319
 20
8.2682866309
 30
0.0
 10
11.1984278748
 20
8.2549458112
 30
0.0
 10
11.2395541306
 20
8.2445263805
 30
0.0
 10
11.281121125
 20
8.2370837627
 30
0.0
 10
11.3090563259
 20
8.2341253687
 30
0.0
 10
11.3230199063
 20
8.2331569911
 30
0.0
  0
SPLINE
  5
383
100
AcDbEntity
  8
0
100
AcDbSpline
 62
7
  6
CONTINUOUS
 70
0
 71
3
 72
39
 73
35
 74
0
 42
0.0000001
 43
0.0000001
 44
0.0000000001
 40
0.0
 40
0.0
 40
0.0
 40
0.0
 40
0.0299393046
 40
0.0599022798
 40
0.0899120362
 40
0.1199905823
 40
0.1501583143
 40
0.1804335559
 40
0.2108321562
 40
0.2413671583
 40
0.2720485416
 40
0.3028830449
 40
0.3338740655
 40
0.3650216366
 40
0.3963224767
 40
0.4277701061
 40
0.4593550258
 40
0.491064949
 40
0.5228850818
 40
0.554798444
 40
0.5867862231
 40
0.618828155
 40
0.6509029254
 40
0.6829885856
 40
0.7150629765
 40
0.7471041564
 40
0.7790908249
 40
0.8110027394
 40
0.8428211144
 40
0.8745290121
 40
0.9061116491
 40
0.937556897
 40
0.9688549736
 40
1.0
 40
1.0
 40
1.0
 40
1.0
 10
11.0728426876
 20
9.0876033423
 30
0.0
 10
11.0667124023
 20
9.0816819139
 30
0.0
 10
11.0549060808
 20
9.0693482348
 30
0.0
 10
11.038691584
 20
9.0495107231
 30
0.0
 10
11.0240509105
 20
9.0284347545
 30
0.0
 10
11.0110638008
 20
9.0062346487
 30
0.0
 10
10.9997991838
 20
8.9830289286
 30
0.0
 10
10.9903172163
 20
8.9589419509
 30
0.0
 10
10.9826683271
 20
8.9341026084
 30
0.0
 10
10.9768931253
 20
8.9086437945
 30
0.0
 10
10.973022158
 20
8.882701635
 30
0.0
 10
10.971075782
 20
8.8564147656
 30
0.0
 10
10.9710640687
 20
8.8299235885
 30
0.0
 10
10.9729867677
 20
8.8033695258
 30
0.0
 10
10.9768333224
 20
8.7768942714
 30
0.0
 10
10.9825829383
 20
8.7506390427
 30
0.0
 10
10.9902047029
 20
8.7247438378
 30
0.0
 10
10.9996577557
 20
8.6993466983
 30
0.0
 10
11.0108915023
 20
8.67458298
 30
0.0
 10
11.023845897
 20
8.6505846434
 30
0.0
 10
11.038451762
 20
8.62747956
 30
0.0
 10
11.0546311552
 20
8.6053908394
 30
0.0
 10
11.0722977828
 20
8.5844361819
 30
0.0
 10
11.0913574559
 20
8.5647272577
 30
0.0
 10
11.111708587
 20
8.5463691189
 30
0.0
 10
11.1332427274
 20
8.5294596458
 30
0.0
 10
11.155845133
 20
8.5140890236
 30
0.0
 10
11.1793953753
 20
8.5003392668
 30
0.0
 10
11.2037679635
 20
8.4882837841
 30
0.0
 10
11.22883306
 20
8.4779870072
 30
0.0
 10
11.2544569649
 20
8.4695039951
 30
0.0
 10
11.2805035429
 20
8.4628802499
 30
0.0
 10
11.3068321245
 20
8.4581513511
 30
0.0
 10
11.3245275309
 20
8.4562740895
 30
0.0
 10
11.3333726595
 20
8.4556606778
 30
0.0
  0
SPLINE
  5
384
100
AcDbEntity
  8
0
100
AcDbSpline
 62
7
  6
CONTINUOUS
 70
0
 71
3
 72
41
 73
37
 74
0
 42
0.0000001
 43
0.0000001
 44
0.0000000001
 40
0.0
 40
0.0
 40
0.0
 40
0.0
 40
0.0300733955
 40
0.0451504284
 40
0.0602546488
 40
0.0905450123
 40
0.1209552903
 40
0.1362089179
 40
0.1514943077
 40
0.1821580673
 40
0.2129515596
 40
0.2438742099
 40
0.2749235501
 40
0.3060952772
 40
0.337383337
 40
0.3687800289
 40
0.4002761313
 40
0.4318610439
 40
0.4635229458
 40
0.4952489655
 40
0.5270253622
 40
0.5588377161
 40
0.590671124
 40
0.6225104007
 40
0.6543402829
 40
0.6861456327
 40
0.7179116414
 40
0.7496240289
 40
0.7812692398
 40
0.8128346275
 40
0.8443086462
 40
0.8756809766
 40
0.9069428084
 40
0.9380866192
 40
0.96910718
 40
1.0
 40
1.0
 40
1.0
 40
1.0
 10
11.1881728203
 20
9.159728848
 30
0.0
 10
11.1854597569
 20
9.1530735185
 30
0.0
 10
11.1817048281
 20
9.1429474377
 30
0.0
 10
11.1773453417
 20
9.1292214889
 30
0.0
 10
11.1734074711
 20
9.115314248
 30
0.0
 10
11.1692987011
 20
9.0976571724
 30
0.0
 10
11.1662954729
 20
9.0797428114
 30
0.0
 10
11.1645568235
 20
9.0652789629
 30
0.0
 10
11.1632600372
 20
9.0507080235
 30
0.0
 10
11.1624787022
 20
9.032371858
 30
0.0
 10
11.1628851934
 20
9.010284974
 30
0.0
 10
11.1646329734
 20
8.9881709155
 30
0.0
 10
11.1677154954
 20
8.9661121165
 30
0.0
 10
11.1721212197
 20
8.9441901133
 30
0.0
 10
11.1778337336
 20
8.9224861012
 30
0.0
 10
11.1848317933
 20
8.9010804061
 30
0.0
 10
11.1930894103
 20
8.8800522517
 30
0.0
 10
11.2025759465
 20
8.8594794527
 30
0.0
 10
11.2132562285
 20
8.8394381343
 30
0.0
 10
11.2250906778
 20
8.8200024511
 30
0.0
 10
11.2380354567
 20
8.8012443161
 30
0.0
 10
11.2520426305
 20
8.7832331368
 30
0.0
 10
11.2670603427
 20
8.7660355592
 30
0.0
 10
11.2830330059
 20
8.7497152228
 30
0.0
 10
11.2999015072
 20
8.7343325279
 30
0.0
 10
11.3176034258
 20
8.719944413
 30
0.0
 10
11.336073262
 20
8.706604146
 30
0.0
 10
11.3552426778
 20
8.6943611273
 30
0.0
 10
11.3750407476
 20
8.6832607105
 30
0.0
 10
11.3953942201
 20
8.6733440276
 30
0.0
 10
11.4162277773
 20
8.6646478575
 30
0.0
 10
11.4374643518
 20
8.6572044393
 30
0.0
 10
11.4590252505
 20
8.6510414685
 30
0.0
 10
11.4808310105
 20
8.6461817502
 30
0.0
 10
11.5027997675
 20
8.6426435767
 30
0.0
 10
11.5175333747
 20
8.6411713158
 30
0.0
 10
11.5248985948
 20
8.6406605361
 30
0.0
  0
SPLINE
  5
385
100
AcDbEntity
  8
0
100
AcDbSpline
 62
7
  6
CONTINUOUS
 70
0
 71
3
 72
15
 73
11
 74
0
 42
0.0000001
 43
0.0000001
 44
0.0000000001
 40
0.0
 40
0.0
 40
0.0
 40
0.0
 40
0.1234785755
 40
0.2473292703
 40
0.3715911847
 40
0.4962972957
 40
0.6214748608
 40
0.7471426789
 40
0.8733170514
 40
1.0
 40
1.0
 40
1.0
 40
1.0
 10
11.680991065
 20
8.6923865358
 30
0.0
 10
11.6750934417
 20
8.6898286756
 30
0.0
 10
11.6631195258
 20
8.6850675674
 30
0.0
 10
11.6447292664
 20
8.6790273823
 30
0.0
 10
11.6259439557
 20
8.6740978538
 30
0.0
 10
11.6068282682
 20
8.6702959729
 30
0.0
 10
11.587446991
 20
8.667634517
 30
0.0
 10
11.5678656625
 20
8.6661223496
 30
0.0
 10
11.5481517208
 20
8.665764603
 30
0.0
 10
11.5349896213
 20
8.6662954387
 30
0.0
 10
11.5284101792
 20
8.6667517246
 30
0.0
  0
SPLINE
  5
386
100
AcDbEntity
  8
0
100
AcDbSpline
 62
7
  6
CONTINUOUS
 70
0
 71
3
 72
23
 73
19
 74
0
 42
0.0000001
 43
0.0000001
 44
0.0000000001
 40
0.0
 40
0.0
 40
0.0
 40
0.0
 40
0.0616482071
 40
0.1233194423
 40
0.1850364754
 40
0.2468215648
 40
0.3086962113
 40
0.3706809251
 40
0.4327950039
 40
0.4950563299
 40
0.5574811805
 40
0.6200840695
 40
0.682877611
 40
0.7458723236
 40
0.8090769236
 40
0.8724969197
 40
0.9361382346
 40
1.0
 40
1.0
 40
1.0
 40
1.0
 10
10.0116950462
 20
6.9708333277
 30
0.0
 10
10.0056351314
 20
6.9649799038
 30
0.0
 10
9.993195546
 20
6.9535945039
 30
0.0
 10
9.9736415004
 20
6.937540657
 30
0.0
 10
9.9532383357
 20
6.9225479487
 30
0.0
 10
9.9320381576
 20
6.9086548152
 30
0.0
 10
9.9100942194
 20
6.8958960462
 30
0.0
 10
9.8874618776
 20
6.8843037936
 30
0.0
 10
9.8641981538
 20
6.873907202
 30
0.0
 10
9.8403616696
 20
6.8647324147
 30
0.0
 10
9.8160124773
 20
6.8568024871
 30
0.0
 10
9.7912119099
 20
6.8501373373
 30
0.0
 10
9.7660224433
 20
6.8447536944
 30
0.0
 10
9.7405074755
 20
6.8406650024
 30
0.0
 10
9.714731381
 20
6.8378815573
 30
0.0
 10
9.6887586495
 20
6.8364101549
 30
0.0
 10
9.662655709
 20
6.8362545918
 30
0.0
 10
9.6452387631
 20
6.8370269855
 30
0.0
 10
9.6365318877
 20
6.8376308094
 30
0.0
  0
SPLINE
  5
387
100
AcDbEntity
  8
0
100
AcDbSpline
 62
7
  6
CONTINUOUS
 70
0
 71
3
 72
15
 73
11
 74
0
 42
0.0000001
 43
0.0000001
 44
0.0000000001
 40
0.0
 40
0.0
 40
0.0
 40
0.0
 40
0.1233300035
 40
0.2470319918
 40
0.3711707243
 40
0.4958019575
 40
0.6209713123
 40
0.7467140007
 40
0.8730522424
 40
1.0
 40
1.0
 40
1.0
 40
1.0
 10
10.0892389389
 20
7.0687437345
 30
0.0
 10
10.0789821048
 20
7.0631025829
 30
0.0
 10
10.0580127075
 20
7.0525569242
 30
0.0
 10
10.0254376979
 20
7.0390633164
 30
0.0
 10
9.9918491883
 20
7.0279340607
 30
0.0
 10
9.9574109787
 20
7.0192235829
 30
0.0
 10
9.922288256
 20
7.0129730553
 30
0.0
 10
9.8866495284
 20
7.0092123725
 30
0.0
 10
9.8506681308
 20
7.0079589354
 30
0.0
 10
9.8266195273
 20
7.0087970681
 30
0.0
 10
9.8145992438
 20
7.0096306776
 30
0.0
  0
SPLINE
  5
388
100
AcDbEntity
  8
0
100
AcDbSpline
 62
7
  6
CONTINUOUS
 70
0
 71
3
 72
19
 73
15
 74
0
 42
0.0000001
 43
0.0000001
 44
0.0000000001
 40
0.0
 40
0.0
 40
0.0
 40
0.0
 40
0.0616005123
 40
0.123275487
 40
0.1850372408
 40
0.2468975041
 40
0.3088673655
 40
0.3709571717
 40
0.4331764723
 40
0.4955339892
 40
0.620668356
 40
0.7464372759
 40
0.8728743725
 40
1.0
 40
1.0
 40
1.0
 40
1.0
 10
10.1117443535
 20
7.111291396
 30
0.0
 10
10.1064677343
 20
7.107839745
 30
0.0
 10
10.0957624255
 20
7.1011521133
 30
0.0
 10
10.0792905606
 20
7.0917927642
 30
0.0
 10
10.0624200582
 20
7.0831136998
 30
0.0
 10
10.0451772141
 20
7.0751283484
 30
0.0
 10
10.027588312
 20
7.067848925
 30
0.0
 10
10.0096804424
 20
7.0612866406
 30
0.0
 10
9.9914806953
 20
7.0554513781
 30
0.0
 10
9.9668375988
 20
7.0486453355
 30
0.0
 10
9.9354298883
 20
7.042001393
 30
0.0
 10
9.8970817346
 20
7.0370663394
 30
0.0
 10
9.8582607473
 20
7.0351865468
 30
0.0
 10
9.8322873634
 20
7.0359763233
 30
0.0
 10
9.8193062611
 20
7.0368765658
 30
0.0
  0
SPLINE
  5
389
100
AcDbEntity
  8
0
100
AcDbSpline
 62
7
  6
CONTINUOUS
 70
0
 71
3
 72
15
 73
11
 74
0
 42
0.0000001
 43
0.0000001
 44
0.0000000001
 40
0.0
 40
0.0
 40
0.0
 40
0.0
 40
0.1233237137
 40
0.2470184172
 40
0.3711505349
 40
0.4957773122
 40
0.6209456154
 40
0.7466916675
 40
0.8730383423
 40
1.0
 40
1.0
 40
1.0
 40
1.0
 10
10.1197638177
 20
7.129033223
 30
0.0
 10
10.1098962387
 20
7.1235382064
 30
0.0
 10
10.0897137746
 20
7.1132633675
 30
0.0
 10
10.0583386062
 20
7.1001104621
 30
0.0
 10
10.0259682978
 20
7.0892565938
 30
0.0
 10
9.9927635535
 20
7.0807557919
 30
0.0
 10
9.9588865112
 20
7.074648963
 30
0.0
 10
9.9245026276
 20
7.0709658412
 30
0.0
 10
9.8897821443
 20
7.0697237758
 30
0.0
 10
9.8665747346
 20
7.0705254604
 30
0.0
 10
9.8549749815
 20
7.071329906
 30
0.0
  0
SPLINE
  5
38A
100
AcDbEntity
  8
0
100
AcDbSpline
 62
7
  6
CONTINUOUS
 70
0
 71
3
 72
21
 73
17
 74
0
 42
0.0000001
 43
0.0000001
 44
0.0000000001
 40
0.0
 40
0.0
 40
0.0
 40
0.0
 40
0.0615939524
 40
0.1232558874
 40
0.1849998474
 40
0.2468392788
 40
0.3087869141
 40
0.3708546805
 40
0.4330536378
 40
0.4953938864
 40
0.5578845106
 40
0.6205334818
 40
0.6833476514
 40
0.7463329639
 40
0.8728046027
 40
1.0
 40
1.0
 40
1.0
 40
1.0
 10
10.1443243221
 20
7.205113673
 30
0.0
 10
10.1394121752
 20
7.2016536858
 30
0.0
 10
10.1294287678
 20
7.1949451908
 30
0.0
 10
10.1140179584
 20
7.1855441913
 30
0.0
 10
10.0981891772
 20
7.1768150006
 30
0.0
 10
10.0819696164
 20
7.1687726837
 30
0.0
 10
10.0653866416
 20
7.1614308524
 30
0.0
 10
10.0484684265
 20
7.1548018761
 30
0.0
 10
10.0312436316
 20
7.1488969708
 30
0.0
 10
10.0137414354
 20
7.1437261978
 30
0.0
 10
9.9959915014
 20
7.1392982215
 30
0.0
 10
9.9780239963
 20
7.1356205256
 30
0.0
 10
9.9598689982
 20
7.132699381
 30
0.0
 10
9.9354236273
 20
7.1298160711
 30
0.0
 10
9.9045432462
 20
7.1281320226
 30
0.0
 10
9.879776251
 20
7.1288359244
 30
0.0
 10
9.8673982854
 20
7.1296943392
 30
0.0
  0
SPLINE
  5
38B
100
AcDbEntity
  8
0
100
AcDbSpline
 62
7
  6
CONTINUOUS
 70
0
 71
3
 72
71
 73
67
 74
0
 42
0.0000001
 43
0.0000001
 44
0.0000000001
 40
0.0
 40
0.0
 40
0.0
 40
0.0
 40
0.0156747439
 40
0.0314022082
 40
0.0471806388
 40
0.0630088954
 40
0.0788847426
 40
0.0948057519
 40
0.1107690087
 40
0.1267712324
 40
0.1428087906
 40
0.1588777352
 40
0.1749738406
 40
0.1910926413
 40
0.2072294725
 40
0.2233795109
 40
0.239537818
 40
0.255699384
 40
0.2718591706
 40
0.2880121553
 40
0.3041533743
 40
0.3202779661
 40
0.3363812146
 40
0.3524585914
 40
0.3685057961
 40
0.3845187957
 40
0.4004938614
 40
0.4164276041
 40
0.4323170079
 40
0.4481594607
 40
0.4639527819
 40
0.4796952457
 40
0.4953856017
 40
0.5110230908
 40
0.5266074579
 40
0.5421389597
 40
0.5576183678
 40
0.5730469656
 40
0.5884265412
 40
0.6037593735
 40
0.6190482143
 40
0.6342962647
 40
0.6495071464
 40
0.6646848669
 40
0.6798337803
 40
0.6949585438
 40
0.7100640694
 40
0.7251554736
 40
0.7402380233
 40
0.7553170806
 40
0.7703980447
 40
0.7854862946
 40
0.8005871313
 40
0.8157057213
 40
0.830847042
 40
0.8460158305
 40
0.8612165344
 40
0.8764532676
 40
0.8917297685
 40
0.907049366
 40
0.9224149485
 40
0.9378289216
 40
0.953293278
 40
0.9688092644
 40
0.9843782511
 40
1.0
 40
1.0
 40
1.0
 40
1.0
 10
9.6285085086
 20
6.799937135
 30
0.0
 10
9.6194696246
 20
6.8005639837
 30
0.0
 10
9.601389143
 20
6.8022632119
 30
0.0
 10
9.5743823315
 20
6.8061304709
 30
0.0
 10
9.5475055513
 20
6.8113115067
 30
0.0
 10
9.5208245514
 20
6.8177934831
 30
0.0
 10
9.4944031831
 20
6.8255609289
 30
0.0
 10
9.4683051766
 20
6.8345950062
 30
0.0
 10
9.4425933224
 20
6.8448739662
 30
0.0
 10
9.417329518
 20
6.8563730089
 30
0.0
 10
9.3925745651
 20
6.8690644095
 30
0.0
 10
9.3683880424
 20
6.8829175824
 30
0.0
 10
9.3448281594
 20
6.8978991536
 30
0.0
 10
9.3219516193
 20
6.9139730417
 30
0.0
 10
9.2998134844
 20
6.9311005438
 30
0.0
 10
9.2784670412
 20
6.9492404241
 30
0.0
 10
9.2579636611
 20
6.9683490002
 30
0.0
 10
9.2383526911
 20
6.988380268
 30
0.0
 10
9.2196813347
 20
7.0092860084
 30
0.0
 10
9.2019945402
 20
7.0310159033
 30
0.0
 10
9.1853348926
 20
7.0535176546
 30
0.0
 10
9.1697425147
 20
7.0767371103
 30
0.0
 10
9.1552549506
 20
7.1006183816
 30
0.0
 10
9.1419070881
 20
7.1251039879
 30
0.0
 10
9.1297310801
 20
7.1501349969
 30
0.0
 10
9.1187562674
 20
7.1756511643
 30
0.0
 10
9.1090091076
 20
7.2015910769
 30
0.0
 10
9.1005131149
 20
7.2278922995
 30
0.0
 10
9.0932887901
 20
7.2544915202
 30
0.0
 10
9.0873535644
 20
7.2813247024
 30
0.0
 10
9.0827217766
 20
7.3083272439
 30
0.0
 10
9.0794046341
 20
7.3354341296
 30
0.0
 10
9.0774101868
 20
7.3625800858
 30
0.0
 10
9.0767433066
 20
7.3896997362
 30
0.0
 10
9.0774056742
 20
7.4167277575
 30
0.0
 10
9.0793957497
 20
7.4435990379
 30
0.0
 10
9.0827087992
 20
7.470248835
 30
0.0
 10
9.0873369045
 20
7.4966129304
 30
0.0
 10
9.0932689809
 20
7.5226277829
 30
0.0
 10
9.1004908009
 20
7.5482306812
 30
0.0
 10
9.1089850306
 20
7.5733598937
 30
0.0
 10
9.1187312495
 20
7.597954825
 30
0.0
 10
9.1297060055
 20
7.6219561635
 30
0.0
 10
9.1418828827
 20
7.6453060206
 30
0.0
 10
9.1552325611
 20
7.6679480719
 30
0.0
 10
9.1697228866
 20
7.6898276938
 30
0.0
 10
9.1853189482
 20
7.7108920953
 30
0.0
 10
9.2019831569
 20
7.7310904512
 30
0.0
 10
9.2196753237
 20
7.7503740388
 30
0.0
 10
9.2383527782
 20
7.7686963428
 30
0.0
 10
9.2579704695
 20
7.78601317
 30
0.0
 10
9.278481076
 20
7.8022827562
 30
0.0
 10
9.2998351204
 20
7.817465868
 30
0.0
 10
9.3219810911
 20
7.8315258949
 30
0.0
 10
9.3448655555
 20
7.84442896
 30
0.0
 10
9.3684333023
 20
7.856143988
 30
0.0
 10
9.3926274798
 20
7.866642774
 30
0.0
 10
9.4173897331
 20
7.8759000508
 30
0.0
 10
9.4426603451
 20
7.88389355
 30
0.0
 10
9.4683783846
 20
7.8906040518
 30
0.0
 10
9.4944818351
 20
7.8960154304
 30
0.0
 10
9.5209078076
 20
7.9001147508
 30
0.0
 10
9.5475924763
 20
7.9028921295
 30
0.0
 10
9.5744719362
 20
7.9043410796
 30
0.0
 10
9.6014803708
 20
7.9044580144
 30
0.0
 10
9.6195001843
 20
7.9036491884
 30
0.0
 10
9.6285085086
 20
7.903024459
 30
0.0
  0
SPLINE
  5
38C
100
AcDbEntity
  8
0
100
AcDbSpline
 62
7
  6
CONTINUOUS
 70
0
 71
3
 72
39
 73
35
 74
0
 42
0.0000001
 43
0.0000001
 44
0.0000000001
 40
0.0
 40
0.0
 40
0.0
 40
0.0
 40
0.0311450433
 40
0.0624431226
 40
0.0938883401
 40
0.125470995
 40
0.1571788892
 40
0.1889972671
 40
0.2209091824
 40
0.252895852
 40
0.2849370326
 40
0.3170114241
 40
0.3490970849
 40
0.3811718562
 40
0.413213789
 40
0.4452015689
 40
0.4771149309
 40
0.5089350628
 40
0.5406449853
 40
0.5722299045
 40
0.6036775328
 40
0.6349783723
 40
0.6661259434
 40
0.697116963
 40
0.7279514643
 40
0.7586328462
 40
0.7891678467
 40
0.819566445
 40
0.8498416852
 40
0.8800094169
 40
0.9100879627
 40
0.9400977191
 40
0.9700606947
 40
1.0
 40
1.0
 40
1.0
 40
1.0
 10
9.3870270377
 20
8.363131369
 30
0.0
 10
9.3729927511
 20
8.3641046501
 30
0.0
 10
9.3449160152
 20
8.3670832497
 30
0.0
 10
9.3031413121
 20
8.3745864343
 30
0.0
 10
9.2618140542
 20
8.3850961099
 30
0.0
 10
9.2211574357
 20
8.398555813
 30
0.0
 10
9.1813874656
 20
8.4148934122
 30
0.0
 10
9.1427162747
 20
8.4340214645
 30
0.0
 10
9.1053498676
 20
8.455837762
 30
0.0
 10
9.0694873818
 20
8.4802258608
 30
0.0
 10
9.0353198753
 20
8.5070555952
 30
0.0
 10
9.0030293912
 20
8.5361838555
 30
0.0
 10
8.9727880239
 20
8.5674553675
 30
0.0
 10
8.9447569825
 20
8.600703466
 30
0.0
 10
8.91908568
 20
8.6357509357
 30
0.0
 10
8.8959110337
 20
8.6724110281
 30
0.0
 10
8.8753567525
 20
8.7104884319
 30
0.0
 10
8.857532579
 20
8.749780242
 30
0.0
 10
8.8425337518
 20
8.790077068
 30
0.0
 10
8.8304405568
 20
8.8311641533
 30
0.0
 10
8.82131787
 20
8.8728224824
 30
0.0
 10
8.8152146967
 20
8.9148299137
 30
0.0
 10
8.8121640257
 20
8.9569623849
 30
0.0
 10
8.8121826526
 20
8.9989950768
 30
0.0
 10
8.81527097
 20
9.0407035938
 30
0.0
 10
8.8214129548
 20
9.0818651679
 30
0.0
 10
8.8305763156
 20
9.1222598329
 30
0.0
 10
8.8427126249
 20
9.1616715909
 30
0.0
 10
8.8577574015
 20
9.199889597
 30
0.0
 10
8.8756306256
 20
9.2367093497
 30
0.0
 10
8.8962368875
 20
9.2719335178
 30
0.0
 10
8.9194668284
 20
9.3053740346
 30
0.0
 10
8.9451938983
 20
9.3368495261
 30
0.0
 10
8.9639266102
 20
9.3564189737
 30
0.0
 10
8.9736533641
 20
9.3658142829
 30
0.0
  0
SPLINE
  5
38D
100
AcDbEntity
  8
0
100
AcDbSpline
 62
7
  6
CONTINUOUS
 70
0
 71
3
 72
39
 73
35
 74
0
 42
0.0000001
 43
0.0000001
 44
0.0000000001
 40
0.0
 40
0.0
 40
0.0
 40
0.0
 40
0.0299393047
 40
0.0599022801
 40
0.0899120371
 40
0.1199905837
 40
0.1501583157
 40
0.1804335568
 40
0.2108321569
 40
0.2413671588
 40
0.2720485416
 40
0.3028830442
 40
0.3338740651
 40
0.3650216374
 40
0.3963224781
 40
0.4277701073
 40
0.4593550264
 40
0.4910649494
 40
0.522885082
 40
0.5547984439
 40
0.586786223
 40
0.6188281554
 40
0.6509029262
 40
0.6829885862
 40
0.7150629769
 40
0.7471041563
 40
0.7790908245
 40
0.8110027389
 40
0.842821116
 40
0.8745290096
 40
0.9061116585
 40
0.9375568878
 40
0.9688549526
 40
1.0
 40
1.0
 40
1.0
 40
1.0
 10
9.2613687292
 20
7.7476282453
 30
0.0
 10
9.2525410953
 20
7.7391014119
 30
0.0
 10
9.2355400128
 20
7.721340892
 30
0.0
 10
9.2121911118
 20
7.6927748969
 30
0.0
 10
9.1911085588
 20
7.6624254876
 30
0.0
 10
9.1724071347
 20
7.6304573269
 30
0.0
 10
9.1561860895
 20
7.5970410883
 30
0.0
 10
9.1425320477
 20
7.5623558437
 30
0.0
 10
9.1315176524
 20
7.5265871886
 30
0.0
 10
9.1232013664
 20
7.4899264959
 30
0.0
 10
9.1176271629
 20
7.4525697884
 30
0.0
 10
9.11482436
 20
7.4147166981
 30
0.0
 10
9.114807491
 20
7.3765694015
 30
0.0
 10
9.1175761987
 20
7.3383315515
 30
0.0
 10
9.1231152489
 20
7.3002071862
 30
0.0
 10
9.1313946926
 20
7.2623996563
 30
0.0
 10
9.1423700279
 20
7.2251105593
 30
0.0
 10
9.1559824327
 20
7.1885386815
 30
0.0
 10
9.1721590259
 20
7.1528789266
 30
0.0
 10
9.1908133404
 20
7.1183213146
 30
0.0
 10
9.2118457709
 20
7.0850499838
 30
0.0
 10
9.235144108
 20
7.0532422327
 30
0.0
 10
9.260584066
 20
7.0230675371
 30
0.0
 10
9.2880299992
 20
6.9946866903
 30
0.0
 10
9.3173356226
 20
6.9682509644
 30
0.0
 10
9.3483447862
 20
6.9439013244
 30
0.0
 10
9.3808922539
 20
6.9217676342
 30
0.0
 10
9.4148045989
 20
6.9019679763
 30
0.0
 10
9.4499011177
 20
6.8846080661
 30
0.0
 10
9.4859948563
 20
6.8697806928
 30
0.0
 10
9.5228932851
 20
6.8575651846
 30
0.0
 10
9.5604003511
 20
6.8480269986
 30
0.0
 10
9.5983135049
 20
6.8412173839
 30
0.0
 10
9.6237948937
 20
6.8385141229
 30
0.0
 10
9.6365318877
 20
6.8376308094
 30
0.0
  0
SPLINE
  5
38E
100
AcDbEntity
  8
0
100
AcDbSpline
 62
7
  6
CONTINUOUS
 70
0
 71
3
 72
45
 73
41
 74
0
 42
0.0000001
 43
0.0000001
 44
0.0000000001
 40
0.0
 40
0.0
 40
0.0
 40
0.0
 40
0.0149735785
 40
0.0299663366
 40
0.0449801909
 40
0.0600169617
 40
0.0901615913
 40
0.1204169945
 40
0.1355917011
 40
0.150797785
 40
0.1660361962
 40
0.1813077369
 40
0.2119484963
 40
0.2427277944
 40
0.273646719
 40
0.3047039792
 40
0.3358959587
 40
0.367216806
 40
0.398658558
 40
0.4302112931
 40
0.4618633118
 40
0.4936013392
 40
0.5254107476
 40
0.5572757945
 40
0.5891798734
 40
0.621105774
 40
0.6530359498
 40
0.6849527881
 40
0.7168388816
 40
0.7486772978
 40
0.780451843
 40
0.8121473185
 40
0.8437497632
 40
0.8595140617
 40
0.8752505569
 40
0.9066311404
 40
0.9378865327
 40
0.9534668161
 40
0.9690135885
 40
1.0
 40
1.0
 40
1.0
 40
1.0
 10
9.3618472625
 20
7.8216313678
 30
0.0
 10
9.3590258
 20
7.8168949639
 30
0.0
 10
9.3535433708
 20
7.8073172132
 30
0.0
 10
9.3458169152
 20
7.7926653652
 30
0.0
 10
9.3385905117
 20
7.7777342732
 30
0.0
 10
9.3296258889
 20
7.7574610652
 30
0.0
 10
9.3197077548
 20
7.7314925631
 30
0.0
 10
9.3115667773
 20
7.7048606434
 30
0.0
 10
9.3061290837
 20
7.683203829
 30
0.0
 10
9.3025887287
 20
7.6667814031
 30
0.0
 10
9.2995946681
 20
7.6502144374
 30
0.0
 10
9.2963318015
 20
7.6279336841
 30
0.0
 10
9.2936373527
 20
7.5998029635
 30
0.0
 10
9.2926307541
 20
7.5657959858
 30
0.0
 10
9.2938506361
 20
7.5316420921
 30
0.0
 10
9.2972917168
 20
7.4974879148
 30
0.0
 10
9.3029390427
 20
7.4634787882
 30
0.0
 10
9.3107683345
 20
7.4297597278
 30
0.0
 10
9.3207460235
 20
7.3964743899
 30
0.0
 10
9.3328294123
 20
7.3637645798
 30
0.0
 10
9.3469668566
 20
7.3317696226
 30
0.0
 10
9.3630979914
 20
7.3006257859
 30
0.0
 10
9.3811539876
 20
7.2704657026
 30
0.0
 10
9.4010578447
 20
7.2414178129
 30
0.0
 10
9.4227247178
 20
7.2136058227
 30
0.0
 10
9.4460622759
 20
7.1871481811
 30
0.0
 10
9.4709710946
 20
7.1621575808
 30
0.0
 10
9.4973450696
 20
7.1387404836
 30
0.0
 10
9.5250718903
 20
7.1169966624
 30
0.0
 10
9.554033416
 20
7.0970188078
 30
0.0
 10
9.5841065307
 20
7.0788920107
 30
0.0
 10
9.6151623508
 20
7.0626938811
 30
0.0
 10
9.64177582
 20
7.050849384
 30
0.0
 10
9.6634245411
 20
7.0424056328
 30
0.0
 10
9.685250077
 20
7.0346711561
 30
0.0
 10
9.7128915912
 20
7.0263179062
 30
0.0
 10
9.7409508317
 20
7.019744634
 30
0.0
 10
9.7635428318
 20
7.0155831029
 30
0.0
 10
9.7861578616
 20
7.0121630088
 30
0.0
 10
9.8032177572
 20
7.0104199864
 30
0.0
 10
9.8145992438
 20
7.0096306776
 30
0.0
  0
SPLINE
  5
38F
100
AcDbEntity
  8
0
100
AcDbSpline
 62
7
  6
CONTINUOUS
 70
0
 71
3
 72
42
 73
38
 74
0
 42
0.0000001
 43
0.0000001
 44
0.0000000001
 40
0.0
 40
0.0
 40
0.0
 40
0.0
 40
0.0299318279
 40
0.0599336148
 40
0.0749684732
 40
0.0900270166
 40
0.1051110802
 40
0.1202223807
 40
0.150528196
 40
0.180960108
 40
0.2115266215
 40
0.242233691
 40
0.2576432982
 40
0.2730890677
 40
0.3040845798
 40
0.3352226994
 40
0.3664989184
 40
0.397906286
 40
0.4294355605
 40
0.461075396
 40
0.4928125582
 40
0.5246321665
 40
0.5565179575
 40
0.5884525649
 40
0.6204178136
 40
0.6523950224
 40
0.6843653129
 40
0.7163099206
 40
0.7482105047
 40
0.7800494531
 40
0.8118101798
 40
0.843477407
 40
0.8750374419
 40
0.9064783856
 40
0.9377905098
 40
0.9689659496
 40
1.0
 40
1.0
 40
1.0
 40
1.0
 10
9.4051868036
 20
7.842717692
 30
0.0
 10
9.3989152595
 20
7.833817682
 30
0.0
 10
9.3869965542
 20
7.8155373174
 30
0.0
 10
9.3737692101
 20
7.7916626093
 30
0.0
 10
9.3642119748
 20
7.7719985215
 30
0.0
 10
9.3575577572
 20
7.7569687925
 30
0.0
 10
9.3514306636
 20
7.741686609
 30
0.0
 10
9.3439670381
 20
7.720979517
 30
0.0
 10
9.3359900888
 20
7.6945418737
 30
0.0
 10
9.3286355833
 20
7.6621274434
 30
0.0
 10
9.323521209
 20
7.629137521
 30
0.0
 10
9.321148204
 20
7.6013214609
 30
0.0
 10
9.3203840751
 20
7.5789374448
 30
0.0
 10
9.320378095
 20
7.5564354188
 30
0.0
 10
9.3217996912
 20
7.5282285994
 30
0.0
 10
9.3257740924
 20
7.4944593502
 30
0.0
 10
9.3320005631
 20
7.4608791601
 30
0.0
 10
9.3404504782
 20
7.4276421226
 30
0.0
 10
9.3510850872
 20
7.394899483
 30
0.0
 10
9.3638557172
 20
7.3628005414
 30
0.0
 10
9.378703992
 20
7.3314915537
 30
0.0
 10
9.3955620909
 20
7.3011151831
 30
0.0
 10
9.4143530663
 20
7.2718098283
 30
0.0
 10
9.4349911948
 20
7.243709009
 30
0.0
 10
9.4573823654
 20
7.2169407615
 30
0.0
 10
9.4814245052
 20
7.1916270616
 30
0.0
 10
9.5070080414
 20
7.1678832742
 30
0.0
 10
9.5340163952
 20
7.1458176318
 30
0.0
 10
9.56232651
 20
7.1255307466
 30
0.0
 10
9.5918094008
 20
7.1071151493
 30
0.0
 10
9.6223307421
 20
7.090654869
 30
0.0
 10
9.6537514605
 20
7.076225053
 30
0.0
 10
9.6859284206
 20
7.0638916434
 30
0.0
 10
9.7187148575
 20
7.0537110236
 30
0.0
 10
9.751961818
 20
7.0457298689
 30
0.0
 10
9.7855157826
 20
7.0399848229
 30
0.0
 10
9.8080446558
 20
7.0376575608
 30
0.0
 10
9.8193062611
 20
7.0368765658
 30
0.0
  0
SPLINE
  5
390
100
AcDbEntity
  8
0
100
AcDbSpline
 62
7
  6
CONTINUOUS
 70
0
 71
3
 72
44
 73
40
 74
0
 42
0.0000001
 43
0.0000001
 44
0.0000000001
 40
0.0
 40
0.0
 40
0.0
 40
0.0
 40
0.0149724263
 40
0.0299637806
 40
0.044976004
 40
0.0600109418
 40
0.0901513665
 40
0.1204020455
 40
0.1355742672
 40
0.1507778123
 40
0.181278328
 40
0.2119139443
 40
0.2426883047
 40
0.2736026434
 40
0.3046557967
 40
0.3358442542
 40
0.3671622488
 40
0.3986018792
 40
0.4301532637
 40
0.4618047206
 40
0.4935429726
 40
0.5253533695
 40
0.5572201289
 40
0.5891265884
 40
0.6210554689
 40
0.6529891436
 40
0.6849099115
 40
0.7168002718
 40
0.7327305786
 40
0.7486469527
 40
0.7804261481
 40
0.8121263224
 40
0.8437334247
 40
0.8752348901
 40
0.9066198122
 40
0.9378792844
 40
0.9534614928
 40
0.9690101517
 40
1.0
 40
1.0
 40
1.0
 40
1.0
 10
9.4231738007
 20
7.8500754275
 30
0.0
 10
9.4204450113
 20
7.8455495763
 30
0.0
 10
9.4151411454
 20
7.8363963123
 30
0.0
 10
9.4076620291
 20
7.8223898163
 30
0.0
 10
9.4006622347
 20
7.8081127513
 30
0.0
 10
9.3919724157
 20
7.7887228962
 30
0.0
 10
9.3823450398
 20
7.7638773192
 30
0.0
 10
9.3744232459
 20
7.7383863105
 30
0.0
 10
9.3691178251
 20
7.7176512855
 30
0.0
 10
9.3644964874
 20
7.6966628873
 30
0.0
 10
9.3600343867
 20
7.6700668792
 30
0.0
 10
9.3568083478
 20
7.6377624636
 30
0.0
 10
9.355717689
 20
7.6051691343
 30
0.0
 10
9.3567670582
 20
7.5724275093
 30
0.0
 10
9.359951653
 20
7.5396776384
 30
0.0
 10
9.3652576143
 20
7.5070598746
 30
0.0
 10
9.3726619956
 20
7.4747138823
 30
0.0
 10
9.3821328932
 20
7.4427781523
 30
0.0
 10
9.3936295794
 20
7.4113893865
 30
0.0
 10
9.407102682
 20
7.3806819267
 30
0.0
 10
9.4224943958
 20
7.3507871846
 30
0.0
 10
9.4397387322
 20
7.3218330843
 30
0.0
 10
9.4587617954
 20
7.2939435244
 30
0.0
 10
9.4794821178
 20
7.2672378391
 30
0.0
 10
9.5018109313
 20
7.2418303446
 30
0.0
 10
9.5256528265
 20
7.2178296574
 30
0.0
 10
9.5509051027
 20
7.1953389655
 30
0.0
 10
9.5730442153
 20
7.17792738
 30
0.0
 10
9.5913514495
 20
7.1648462641
 30
0.0
 10
9.6100191695
 20
7.1523554012
 30
0.0
 10
9.6340211416
 20
7.1378516385
 30
0.0
 10
9.6637831044
 20
7.1222919653
 30
0.0
 10
9.6943653537
 20
7.1086508496
 30
0.0
 10
9.7256365808
 20
7.0969872481
 30
0.0
 10
9.7574623164
 20
7.0873512492
 30
0.0
 10
9.7843636236
 20
7.0810383326
 30
0.0
 10
9.806023607
 20
7.0770424755
 30
0.0
 10
9.8277059618
 20
7.0737591462
 30
0.0
 10
9.8440626404
 20
7.0720866795
 30
0.0
 10
9.8549749815
 20
7.071329906
 30
0.0
  0
SPLINE
  5
391
100
AcDbEntity
  8
0
100
AcDbSpline
 62
7
  6
CONTINUOUS
 70
0
 71
3
 72
43
 73
39
 74
0
 42
0.0000001
 43
0.0000001
 44
0.0000000001
 40
0.0
 40
0.0
 40
0.0
 40
0.0
 40
0.0149579341
 40
0.0299291408
 40
0.0449160112
 40
0.0599208587
 40
0.0899883142
 40
0.1201529331
 40
0.1352787115
 40
0.150434025
 40
0.1656203315
 40
0.1808389298
 40
0.2113727036
 40
0.2420472704
 40
0.2728670561
 40
0.3038337161
 40
0.3349461427
 40
0.3662005248
 40
0.3975904539
 40
0.4291070737
 40
0.4607392681
 40
0.4924738817
 40
0.524295971
 40
0.5561890781
 40
0.5881355248
 40
0.6201167214
 40
0.6521134867
 40
0.684106375
 40
0.7160760062
 40
0.7480033952
 40
0.7798702772
 40
0.8116594239
 40
0.8433549453
 40
0.8749425853
 40
0.9064099452
 40
0.937746883
 40
0.968945206
 40
1.0
 40
1.0
 40
1.0
 40
1.0
 10
9.5001051861
 20
7.8720599019
 30
0.0
 10
9.4970824524
 20
7.8680697911
 30
0.0
 10
9.4911800284
 20
7.8599744098
 30
0.0
 10
9.4827728596
 20
7.8475100759
 30
0.0
 10
9.474817741
 20
7.8347335356
 30
0.0
 10
9.464820874
 20
7.8172924415
 30
0.0
 10
9.4534988542
 20
7.7947766493
 30
0.0
 10
9.4438170204
 20
7.7714649912
 30
0.0
 10
9.4370720605
 20
7.7523901863
 30
0.0
 10
9.4325140522
 20
7.7378694046
 30
0.0
 10
9.4284675765
 20
7.7231656467
 30
0.0
 10
9.4237556145
 20
7.7033202561
 30
0.0
 10
9.4191695782
 20
7.6781345026
 30
0.0
 10
9.4157813212
 20
7.6474991203
 30
0.0
 10
9.4145165318
 20
7.6165574641
 30
0.0
 10
9.4153811151
 20
7.5854560128
 30
0.0
 10
9.41837066
 20
7.5543406772
 30
0.0
 10
9.4234708734
 20
7.5233577209
 30
0.0
 10
9.4306575476
 20
7.4926526485
 30
0.0
 10
9.4398967095
 20
7.4623696466
 30
0.0
 10
9.4511447787
 20
7.4326508838
 30
0.0
 10
9.464348769
 20
7.4036358573
 30
0.0
 10
9.4794465426
 20
7.3754607427
 30
0.0
 10
9.4963671058
 20
7.3482577652
 30
0.0
 10
9.5150309408
 20
7.3221545851
 30
0.0
 10
9.5353503771
 20
7.2972737053
 30
0.0
 10
9.5572300002
 20
7.2737319025
 30
0.0
 10
9.5805670958
 20
7.2516396844
 30
0.0
 10
9.6052521273
 20
7.2311007753
 30
0.0
 10
9.6311692464
 20
7.2122116346
 30
0.0
 10
9.6581968248
 20
7.1950609987
 30
0.0
 10
9.6862080289
 20
7.1797294737
 30
0.0
 10
9.7150713935
 20
7.1662891544
 30
0.0
 10
9.7446514882
 20
7.1548033058
 30
0.0
 10
9.7748093437
 20
7.1453260144
 30
0.0
 10
9.8054038386
 20
7.1379020382
 30
0.0
 10
9.8362894568
 20
7.1325664894
 30
0.0
 10
9.857030463
 20
7.1304133502
 30
0.0
 10
9.8673982854
 20
7.1296943392
 30
0.0
  0
SPLINE
  5
392
100
AcDbEntity
  8
0
100
AcDbSpline
 62
7
  6
CONTINUOUS
 70
0
 71
3
 72
39
 73
35
 74
0
 42
0.0000001
 43
0.0000001
 44
0.0000000001
 40
0.0
 40
0.0
 40
0.0
 40
0.0
 40
0.0303997532
 40
0.0609107974
 40
0.0915342381
 40
0.1222699129
 40
0.1531164062
 40
0.1840710801
 40
0.215130116
 40
0.2462885677
 40
0.2775404248
 40
0.3088786862
 40
0.340295441
 40
0.3717819583
 40
0.4033287841
 40
0.4349258436
 40
0.4665625474
 40
0.4982279014
 40
0.5299106197
 40
0.5615992392
 40
0.5932822366
 40
0.6249481457
 40
0.6565856747
 40
0.6881838213
 40
0.7197319847
 40
0.751220077
 40
0.7826386278
 40
0.8139788865
 40
0.8452329285
 40
0.8763936954
 40
0.9074552751
 40
0.9384123281
 40
0.9692618694
 40
1.0
 40
1.0
 40
1.0
 40
1.0
 10
9.63661482
 20
7.8808353797
 30
0.0
 10
9.6356108222
 20
7.8729576751
 30
0.0
 10
9.6340253584
 20
7.8571158176
 30
0.0
 10
9.6329207046
 20
7.8332187704
 30
0.0
 10
9.6330878915
 20
7.8092084394
 30
0.0
 10
9.6345265
 20
7.7851531904
 30
0.0
 10
9.6372323773
 20
7.7611203504
 30
0.0
 10
9.6411978533
 20
7.7371774821
 30
0.0
 10
9.6464117181
 20
7.7133918017
 30
0.0
 10
9.6528592673
 20
7.689830098
 30
0.0
 10
9.6605223408
 20
7.6665585182
 30
0.0
 10
9.669379374
 20
7.6436423919
 30
0.0
 10
9.6794054613
 20
7.6211460487
 30
0.0
 10
9.6905724138
 20
7.599132634
 30
0.0
 10
9.7028488405
 20
7.5776639318
 30
0.0
 10
9.7162002473
 20
7.5568001967
 30
0.0
 10
9.730589131
 20
7.5365999859
 30
0.0
 10
9.7459750845
 20
7.5171199964
 30
0.0
 10
9.762314909
 20
7.4984149071
 30
0.0
 10
9.7795627356
 20
7.4805372283
 30
0.0
 10
9.797670147
 20
7.463537149
 30
0.0
 10
9.8165863095
 20
7.4474623909
 30
0.0
 10
9.8362581267
 20
7.4323580858
 30
0.0
 10
9.8566303848
 20
7.4182666482
 30
0.0
 10
9.8776459066
 20
7.4052276572
 30
0.0
 10
9.8992457108
 20
7.3932777466
 30
0.0
 10
9.9213691752
 20
7.3824505037
 30
0.0
 10
9.9439542065
 20
7.3727763667
 30
0.0
 10
9.9669373976
 20
7.3642825478
 30
0.0
 10
9.9902542631
 20
7.356992905
 30
0.0
 10
10.013839227
 20
7.3509280525
 30
0.0
 10
10.0376264379
 20
7.3461049031
 30
0.0
 10
10.0615480649
 20
7.34253736
 30
0.0
 10
10.0775719794
 20
7.3409997135
 30
0.0
 10
10.0855825603
 20
7.3404441778
 30
0.0
  0
SPLINE
  5
393
100
AcDbEntity
  8
0
100
AcDbSpline
 62
7
  6
CONTINUOUS
 70
0
 71
3
 72
37
 73
33
 74
0
 42
0.0000001
 43
0.0000001
 44
0.0000000001
 40
0.0
 40
0.0
 40
0.0
 40
0.0
 40
0.0304220462
 40
0.0609548562
 40
0.0915992071
 40
0.122354642
 40
0.153219489
 40
0.1841908921
 40
0.2152648531
 40
0.2464362846
 40
0.2776990731
 40
0.3090461533
 40
0.34046959
 40
0.3719606658
 40
0.4035099736
 40
0.435107516
 40
0.4983858614
 40
0.5617271226
 40
0.5934026513
 40
0.6250600461
 40
0.6566882215
 40
0.6882763854
 40
0.7198141487
 40
0.7512916321
 40
0.7826995652
 40
0.8140293892
 40
0.8452733481
 40
0.8764245422
 40
0.9074772076
 40
0.9384260436
 40
0.9692683633
 40
1.0
 40
1.0
 40
1.0
 40
1.0
 10
9.672439208
 20
7.8769814114
 30
0.0
 10
9.6716085393
 20
7.8696487277
 30
0.0
 10
9.6703369384
 20
7.8549091775
 30
0.0
 10
9.669602807
 20
7.8326919363
 30
0.0
 10
9.6700400608
 20
7.8103854426
 30
0.0
 10
9.671647522
 20
7.7880521808
 30
0.0
 10
9.674420647
 20
7.7657536472
 30
0.0
 10
9.6783517176
 20
7.7435515159
 30
0.0
 10
9.6834298145
 20
7.7215071103
 30
0.0
 10
9.6896408641
 20
7.6996813359
 30
0.0
 10
9.6969676573
 20
7.6781344779
 30
0.0
 10
9.7053898887
 20
7.6569260549
 30
0.0
 10
9.7148842784
 20
7.6361146015
 30
0.0
 10
9.7254244569
 20
7.6157577273
 30
0.0
 10
9.7369816943
 20
7.5959111379
 30
0.0
 10
9.7537092833
 20
7.5701950677
 30
0.0
 10
9.7769941875
 20
7.5396033854
 30
0.0
 10
9.8031782579
 20
7.5114278202
 30
0.0
 10
9.8257013396
 20
7.4905103192
 30
0.0
 10
9.8433363812
 20
7.4756757355
 30
0.0
 10
9.8616620912
 20
7.4617391267
 30
0.0
 10
9.8806282938
 20
7.4487384963
 30
0.0
 10
9.9001824943
 20
7.4367098989
 30
0.0
 10
9.9202707264
 20
7.4256865466
 30
0.0
 10
9.9408375096
 20
7.4156989291
 30
0.0
 10
9.9618260541
 20
7.4067746741
 30
0.0
 10
9.9831783882
 20
7.398938495
 30
0.0
 10
10.0048355662
 20
7.392212038
 30
0.0
 10
10.0267376466
 20
7.3866140268
 30
0.0
 10
10.0488244948
 20
7.3821597844
 30
0.0
 10
10.0710341044
 20
7.3788619964
 30
0.0
 10
10.0859103049
 20
7.3774376938
 30
0.0
 10
10.0933471253
 20
7.3769219486
 30
0.0
  0
SPLINE
  5
394
100
AcDbEntity
  8
0
100
AcDbSpline
 62
7
  6
CONTINUOUS
 70
0
 71
3
 72
24
 73
20
 74
0
 42
0.0000001
 43
0.0000001
 44
0.0000000001
 40
0.0
 40
0.0
 40
0.0
 40
0.0
 40
0.0615910481
 40
0.1235177572
 40
0.1857515996
 40
0.2482554355
 40
0.3109846417
 40
0.3738884245
 40
0.4369112586
 40
0.499994407
 40
0.5630775141
 40
0.6261002283
 40
0.6890038174
 40
0.7517327558
 40
0.8142362598
 40
0.8764697218
 40
0.938396066
 40
0.9692414621
 40
1.0
 40
1.0
 40
1.0
 40
1.0
 10
9.7528647679
 20
7.8594290985
 30
0.0
 10
9.7542433727
 20
7.8472113572
 30
0.0
 10
9.7580530285
 20
7.8228147829
 30
0.0
 10
9.7668345208
 20
7.7867463562
 30
0.0
 10
9.7786348301
 20
7.7513554281
 30
0.0
 10
9.7933656752
 20
7.7169076422
 30
0.0
 10
9.8109175233
 20
7.6836570852
 30
0.0
 10
9.8311599889
 20
7.6518501454
 30
0.0
 10
9.8539430037
 20
7.6217222661
 30
0.0
 10
9.8790976063
 20
7.5934964417
 30
0.0
 10
9.9064375145
 20
7.5673817102
 30
0.0
 10
9.9357602862
 20
7.5435715463
 30
0.0
 10
9.9668488215
 20
7.5222423334
 30
0.0
 10
9.9994729264
 20
7.5035523865
 30
0.0
 10
10.03339156
 20
7.4876403426
 30
0.0
 10
10.0683517839
 20
7.4746248041
 30
0.0
 10
10.0981842401
 20
7.4662606822
 30
0.0
 10
10.1223062801
 20
7.4611105164
 30
0.0
 10
10.1344351476
 20
7.4590514884
 30
0.0
 10
10.1405092564
 20
7.4581526486
 30
0.0
  0
SPLINE
  5
395
100
AcDbEntity
  8
0
100
AcDbSpline
 62
7
  6
CONTINUOUS
 70
0
 71
3
 72
23
 73
19
 74
0
 42
0.0000001
 43
0.0000001
 44
0.0000000001
 40
0.0
 40
0.0
 40
0.0
 40
0.0
 40
0.0616482071
 40
0.1233194423
 40
0.1850364754
 40
0.2468215648
 40
0.3086962113
 40
0.3706809251
 40
0.4327950039
 40
0.4950563299
 40
0.5574811805
 40
0.6200840695
 40
0.682877611
 40
0.7458723236
 40
0.8090769236
 40
0.8724969197
 40
0.9361382346
 40
1.0
 40
1.0
 40
1.0
 40
1.0
 10
11.4605838715
 20
6.8703525464
 30
0.0
 10
11.4545239567
 20
6.8644991225
 30
0.0
 10
11.4420843713
 20
6.8531137225
 30
0.0
 10
11.4225303257
 20
6.8370598757
 30
0.0
 10
11.402127161
 20
6.8220671674
 30
0.0
 10
11.3809269829
 20
6.8081740339
 30
0.0
 10
11.3589830447
 20
6.7954152649
 30
0.0
 10
11.3363507029
 20
6.7838230123
 30
0.0
 10
11.3130869791
 20
6.7734264207
 30
0.0
 10
11.2892504949
 20
6.7642516334
 30
0.0
 10
11.2649013026
 20
6.7563217058
 30
0.0
 10
11.2401007351
 20
6.749656556
 30
0.0
 10
11.2149112686
 20
6.744272913
 30
0.0
 10
11.1893963007
 20
6.7401842211
 30
0.0
 10
11.1636202062
 20
6.737400776
 30
0.0
 10
11.1376474748
 20
6.7359293736
 30
0.0
 10
11.1115445343
 20
6.7357738104
 30
0.0
 10
11.0941275884
 20
6.7365462042
 30
0.0
 10
11.085420713
 20
6.7371500281
 30
0.0
  0
SPLINE
  5
396
100
AcDbEntity
  8
0
100
AcDbSpline
 62
7
  6
CONTINUOUS
 70
0
 71
3
 72
15
 73
11
 74
0
 42
0.0000001
 43
0.0000001
 44
0.0000000001
 40
0.0
 40
0.0
 40
0.0
 40
0.0
 40
0.1233300035
 40
0.2470319918
 40
0.3711707243
 40
0.4958019575
 40
0.6209713123
 40
0.7467140007
 40
0.8730522424
 40
1.0
 40
1.0
 40
1.0
 40
1.0
 10
11.5381277642
 20
6.9682629531
 30
0.0
 10
11.5278709301
 20
6.9626218016
 30
0.0
 10
11.5069015328
 20
6.9520761429
 30
0.0
 10
11.4743265232
 20
6.9385825351
 30
0.0
 10
11.4407380136
 20
6.9274532794
 30
0.0
 10
11.406299804
 20
6.9187428016
 30
0.0
 10
11.3711770812
 20
6.9124922739
 30
0.0
 10
11.3355383537
 20
6.9087315912
 30
0.0
 10
11.299556956
 20
6.907478154
 30
0.0
 10
11.2755083526
 20
6.9083162868
 30
0.0
 10
11.263488069
 20
6.9091498963
 30
0.0
  0
SPLINE
  5
397
100
AcDbEntity
  8
0
100
AcDbSpline
 62
7
  6
CONTINUOUS
 70
0
 71
3
 72
19
 73
15
 74
0
 42
0.0000001
 43
0.0000001
 44
0.0000000001
 40
0.0
 40
0.0
 40
0.0
 40
0.0
 40
0.0616005123
 40
0.123275487
 40
0.1850372408
 40
0.2468975041
 40
0.3088673655
 40
0.3709571717
 40
0.4331764723
 40
0.4955339892
 40
0.620668356
 40
0.7464372759
 40
0.8728743725
 40
1.0
 40
1.0
 40
1.0
 40
1.0
 10
11.5606331788
 20
7.0108106147
 30
0.0
 10
11.5553565596
 20
7.0073589637
 30
0.0
 10
11.5446512508
 20
7.000671332
 30
0.0
 10
11.5281793859
 20
6.9913119829
 30
0.0
 10
11.5113088834
 20
6.9826329185
 30
0.0
 10
11.4940660394
 20
6.9746475671
 30
0.0
 10
11.4764771373
 20
6.9673681437
 30
0.0
 10
11.4585692677
 20
6.9608058593
 30
0.0
 10
11.4403695206
 20
6.9549705968
 30
0.0
 10
11.4157264241
 20
6.9481645542
 30
0.0
 10
11.3843187136
 20
6.9415206117
 30
0.0
 10
11.3459705599
 20
6.9365855581
 30
0.0
 10
11.3071495726
 20
6.9347057655
 30
0.0
 10
11.2811761887
 20
6.935495542
 30
0.0
 10
11.2681950864
 20
6.9363957845
 30
0.0
  0
SPLINE
  5
398
100
AcDbEntity
  8
0
100
AcDbSpline
 62
7
  6
CONTINUOUS
 70
0
 71
3
 72
15
 73
11
 74
0
 42
0.0000001
 43
0.0000001
 44
0.0000000001
 40
0.0
 40
0.0
 40
0.0
 40
0.0
 40
0.1233237137
 40
0.2470184172
 40
0.3711505349
 40
0.4957773122
 40
0.6209456154
 40
0.7466916675
 40
0.8730383423
 40
1.0
 40
1.0
 40
1.0
 40
1.0
 10
11.568652643
 20
7.0285524417
 30
0.0
 10
11.558785064
 20
7.0230574251
 30
0.0
 10
11.5386025998
 20
7.0127825861
 30
0.0
 10
11.5072274315
 20
6.9996296808
 30
0.0
 10
11.474857123
 20
6.9887758125
 30
0.0
 10
11.4416523788
 20
6.9802750106
 30
0.0
 10
11.4077753365
 20
6.9741681817
 30
0.0
 10
11.3733914529
 20
6.9704850599
 30
0.0
 10
11.3386709696
 20
6.9692429945
 30
0.0
 10
11.3154635599
 20
6.9700446791
 30
0.0
 10
11.3038638068
 20
6.9708491247
 30
0.0
  0
SPLINE
  5
399
100
AcDbEntity
  8
0
100
AcDbSpline
 62
7
  6
CONTINUOUS
 70
0
 71
3
 72
21
 73
17
 74
0
 42
0.0000001
 43
0.0000001
 44
0.0000000001
 40
0.0
 40
0.0
 40
0.0
 40
0.0
 40
0.0615939524
 40
0.1232558874
 40
0.1849998474
 40
0.2468392788
 40
0.3087869141
 40
0.3708546805
 40
0.4330536378
 40
0.4953938864
 40
0.5578845106
 40
0.6205334818
 40
0.6833476514
 40
0.7463329639
 40
0.8728046027
 40
1.0
 40
1.0
 40
1.0
 40
1.0
 10
11.5932131474
 20
7.1046328917
 30
0.0
 10
11.5883010005
 20
7.1011729045
 30
0.0
 10
11.5783175931
 20
7.0944644095
 30
0.0
 10
11.5629067837
 20
7.08506341
 30
0.0
 10
11.5470780025
 20
7.0763342193
 30
0.0
 10
11.5308584417
 20
7.0682919024
 30
0.0
 10
11.5142754669
 20
7.0609500711
 30
0.0
 10
11.4973572518
 20
7.0543210948
 30
0.0
 10
11.4801324569
 20
7.0484161895
 30
0.0
 10
11.4626302607
 20
7.0432454165
 30
0.0
 10
11.4448803267
 20
7.0388174402
 30
0.0
 10
11.4269128215
 20
7.0351397443
 30
0.0
 10
11.4087578235
 20
7.0322185997
 30
0.0
 10
11.3843124526
 20
7.0293352898
 30
0.0
 10
11.3534320715
 20
7.0276512413
 30
0.0
 10
11.3286650763
 20
7.0283551431
 30
0.0
 10
11.3162871107
 20
7.0292135579
 30
0.0
  0
SPLINE
  5
39A
100
AcDbEntity
  8
0
100
AcDbSpline
 62
7
  6
CONTINUOUS
 70
0
 71
3
 72
39
 73
35
 74
0
 42
0.0000001
 43
0.0000001
 44
0.0000000001
 40
0.0
 40
0.0
 40
0.0
 40
0.0
 40
0.0299393047
 40
0.0599022801
 40
0.0899120371
 40
0.1199905837
 40
0.1501583157
 40
0.1804335568
 40
0.2108321569
 40
0.2413671588
 40
0.2720485416
 40
0.3028830442
 40
0.3338740651
 40
0.3650216374
 40
0.3963224781
 40
0.4277701073
 40
0.4593550264
 40
0.4910649494
 40
0.522885082
 40
0.5547984439
 40
0.586786223
 40
0.6188281554
 40
0.6509029262
 40
0.6829885862
 40
0.7150629769
 40
0.7471041563
 40
0.7790908245
 40
0.8110027389
 40
0.842821116
 40
0.8745290096
 40
0.9061116585
 40
0.9375568878
 40
0.9688549526
 40
1.0
 40
1.0
 40
1.0
 40
1.0
 10
10.7102575544
 20
7.647147464
 30
0.0
 10
10.7014299206
 20
7.6386206306
 30
0.0
 10
10.6844288381
 20
7.6208601107
 30
0.0
 10
10.6610799371
 20
7.5922941156
 30
0.0
 10
10.639997384
 20
7.5619447063
 30
0.0
 10
10.62129596
 20
7.5299765456
 30
0.0
 10
10.6050749148
 20
7.496560307
 30
0.0
 10
10.5914208729
 20
7.4618750624
 30
0.0
 10
10.5804064777
 20
7.4261064073
 30
0.0
 10
10.5720901917
 20
7.3894457146
 30
0.0
 10
10.5665159882
 20
7.3520890071
 30
0.0
 10
10.5637131853
 20
7.3142359167
 30
0.0
 10
10.5636963163
 20
7.2760886202
 30
0.0
 10
10.5664650239
 20
7.2378507701
 30
0.0
 10
10.5720040742
 20
7.1997264048
 30
0.0
 10
10.5802835179
 20
7.1619188749
 30
0.0
 10
10.5912588532
 20
7.1246297779
 30
0.0
 10
10.6048712579
 20
7.0880579002
 30
0.0
 10
10.6210478511
 20
7.0523981453
 30
0.0
 10
10.6397021657
 20
7.0178405333
 30
0.0
 10
10.6607345962
 20
6.9845692025
 30
0.0
 10
10.6840329333
 20
6.9527614514
 30
0.0
 10
10.7094728913
 20
6.9225867558
 30
0.0
 10
10.7369188245
 20
6.894205909
 30
0.0
 10
10.7662244479
 20
6.8677701831
 30
0.0
 10
10.7972336115
 20
6.8434205431
 30
0.0
 10
10.8297810792
 20
6.8212868529
 30
0.0
 10
10.8636934242
 20
6.801487195
 30
0.0
 10
10.898789943
 20
6.7841272848
 30
0.0
 10
10.9348836816
 20
6.7692999115
 30
0.0
 10
10.9717821104
 20
6.7570844033
 30
0.0
 10
11.0092891764
 20
6.7475462173
 30
0.0
 10
11.0472023302
 20
6.7407366026
 30
0.0
 10
11.072683719
 20
6.7380333416
 30
0.0
 10
11.085420713
 20
6.7371500281
 30
0.0
  0
SPLINE
  5
39B
100
AcDbEntity
  8
0
100
AcDbSpline
 62
7
  6
CONTINUOUS
 70
0
 71
3
 72
45
 73
41
 74
0
 42
0.0000001
 43
0.0000001
 44
0.0000000001
 40
0.0
 40
0.0
 40
0.0
 40
0.0
 40
0.0149735785
 40
0.0299663366
 40
0.0449801909
 40
0.0600169617
 40
0.0901615913
 40
0.1204169945
 40
0.1355917011
 40
0.150797785
 40
0.1660361962
 40
0.1813077369
 40
0.2119484963
 40
0.2427277944
 40
0.273646719
 40
0.3047039792
 40
0.3358959587
 40
0.367216806
 40
0.398658558
 40
0.4302112931
 40
0.4618633118
 40
0.4936013392
 40
0.5254107476
 40
0.5572757945
 40
0.5891798734
 40
0.621105774
 40
0.6530359498
 40
0.6849527881
 40
0.7168388816
 40
0.7486772978
 40
0.780451843
 40
0.8121473185
 40
0.8437497632
 40
0.8595140617
 40
0.8752505569
 40
0.9066311404
 40
0.9378865327
 40
0.9534668161
 40
0.9690135885
 40
1.0
 40
1.0
 40
1.0
 40
1.0
 10
10.8107360878
 20
7.7211505865
 30
0.0
 10
10.8079146253
 20
7.7164141825
 30
0.0
 10
10.802432196
 20
7.7068364319
 30
0.0
 10
10.7947057405
 20
7.6921845839
 30
0.0
 10
10.787479337
 20
7.6772534919
 30
0.0
 10
10.7785147142
 20
7.6569802839
 30
0.0
 10
10.7685965801
 20
7.6310117818
 30
0.0
 10
10.7604556025
 20
7.6043798621
 30
0.0
 10
10.7550179089
 20
7.5827230477
 30
0.0
 10
10.751477554
 20
7.5663006218
 30
0.0
 10
10.7484834934
 20
7.5497336561
 30
0.0
 10
10.7452206268
 20
7.5274529028
 30
0.0
 10
10.742526178
 20
7.4993221822
 30
0.0
 10
10.7415195794
 20
7.4653152045
 30
0.0
 10
10.7427394614
 20
7.4311613108
 30
0.0
 10
10.7461805421
 20
7.3970071335
 30
0.0
 10
10.7518278679
 20
7.3629980069
 30
0.0
 10
10.7596571598
 20
7.3292789465
 30
0.0
 10
10.7696348488
 20
7.2959936086
 30
0.0
 10
10.7817182376
 20
7.2632837985
 30
0.0
 10
10.7958556819
 20
7.2312888413
 30
0.0
 10
10.8119868167
 20
7.2001450046
 30
0.0
 10
10.8300428128
 20
7.1699849212
 30
0.0
 10
10.84994667
 20
7.1409370316
 30
0.0
 10
10.8716135431
 20
7.1131250414
 30
0.0
 10
10.8949511012
 20
7.0866673998
 30
0.0
 10
10.9198599199
 20
7.0616767995
 30
0.0
 10
10.9462338948
 20
7.0382597023
 30
0.0
 10
10.9739607156
 20
7.0165158811
 30
0.0
 10
11.0029222413
 20
6.9965380265
 30
0.0
 10
11.032995356
 20
6.9784112294
 30
0.0
 10
11.0640511761
 20
6.9622130998
 30
0.0
 10
11.0906646453
 20
6.9503686027
 30
0.0
 10
11.1123133664
 20
6.9419248515
 30
0.0
 10
11.1341389023
 20
6.9341903748
 30
0.0
 10
11.1617804165
 20
6.9258371249
 30
0.0
 10
11.189839657
 20
6.9192638526
 30
0.0
 10
11.2124316571
 20
6.9151023216
 30
0.0
 10
11.2350466869
 20
6.9116822275
 30
0.0
 10
11.2521065825
 20
6.9099392051
 30
0.0
 10
11.263488069
 20
6.9091498963
 30
0.0
  0
SPLINE
  5
39C
100
AcDbEntity
  8
0
100
AcDbSpline
 62
7
  6
CONTINUOUS
 70
0
 71
3
 72
42
 73
38
 74
0
 42
0.0000001
 43
0.0000001
 44
0.0000000001
 40
0.0
 40
0.0
 40
0.0
 40
0.0
 40
0.0299318279
 40
0.0599336148
 40
0.0749684732
 40
0.0900270166
 40
0.1051110802
 40
0.1202223807
 40
0.150528196
 40
0.180960108
 40
0.2115266215
 40
0.242233691
 40
0.2576432982
 40
0.2730890677
 40
0.3040845798
 40
0.3352226994
 40
0.3664989184
 40
0.397906286
 40
0.4294355605
 40
0.461075396
 40
0.4928125582
 40
0.5246321665
 40
0.5565179575
 40
0.5884525649
 40
0.6204178136
 40
0.6523950224
 40
0.6843653129
 40
0.7163099206
 40
0.7482105047
 40
0.7800494531
 40
0.8118101798
 40
0.843477407
 40
0.8750374419
 40
0.9064783856
 40
0.9377905098
 40
0.9689659496
 40
1.0
 40
1.0
 40
1.0
 40
1.0
 10
10.8540756289
 20
7.7422369107
 30
0.0
 10
10.8478040848
 20
7.7333369007
 30
0.0
 10
10.8358853794
 20
7.7150565361
 30
0.0
 10
10.8226580353
 20
7.691181828
 30
0.0
 10
10.8131008001
 20
7.6715177402
 30
0.0
 10
10.8064465824
 20
7.6564880111
 30
0.0
 10
10.8003194889
 20
7.6412058277
 30
0.0
 10
10.7928558634
 20
7.6204987357
 30
0.0
 10
10.7848789141
 20
7.5940610924
 30
0.0
 10
10.7775244086
 20
7.5616466621
 30
0.0
 10
10.7724100343
 20
7.5286567397
 30
0.0
 10
10.7700370293
 20
7.5008406796
 30
0.0
 10
10.7692729004
 20
7.4784566635
 30
0.0
 10
10.7692669202
 20
7.4559546375
 30
0.0
 10
10.7706885165
 20
7.4277478181
 30
0.0
 10
10.7746629177
 20
7.3939785689
 30
0.0
 10
10.7808893884
 20
7.3603983788
 30
0.0
 10
10.7893393035
 20
7.3271613413
 30
0.0
 10
10.7999739125
 20
7.2944187017
 30
0.0
 10
10.8127445425
 20
7.2623197601
 30
0.0
 10
10.8275928173
 20
7.2310107724
 30
0.0
 10
10.8444509162
 20
7.2006344018
 30
0.0
 10
10.8632418916
 20
7.171329047
 30
0.0
 10
10.8838800201
 20
7.1432282277
 30
0.0
 10
10.9062711906
 20
7.1164599802
 30
0.0
 10
10.9303133305
 20
7.0911462803
 30
0.0
 10
10.9558968667
 20
7.0674024929
 30
0.0
 10
10.9829052205
 20
7.0453368505
 30
0.0
 10
11.0112153352
 20
7.0250499653
 30
0.0
 10
11.0406982261
 20
7.006634368
 30
0.0
 10
11.0712195674
 20
6.9901740876
 30
0.0
 10
11.1026402858
 20
6.9757442717
 30
0.0
 10
11.1348172459
 20
6.9634108621
 30
0.0
 10
11.1676036828
 20
6.9532302423
 30
0.0
 10
11.2008506433
 20
6.9452490876
 30
0.0
 10
11.2344046079
 20
6.9395040416
 30
0.0
 10
11.2569334811
 20
6.9371767795
 30
0.0
 10
11.2681950864
 20
6.9363957845
 30
0.0
  0
SPLINE
  5
39D
100
AcDbEntity
  8
0
100
AcDbSpline
 62
7
  6
CONTINUOUS
 70
0
 71
3
 72
44
 73
40
 74
0
 42
0.0000001
 43
0.0000001
 44
0.0000000001
 40
0.0
 40
0.0
 40
0.0
 40
0.0
 40
0.0149724263
 40
0.0299637806
 40
0.044976004
 40
0.0600109418
 40
0.0901513665
 40
0.1204020455
 40
0.1355742672
 40
0.1507778123
 40
0.181278328
 40
0.2119139443
 40
0.2426883047
 40
0.2736026434
 40
0.3046557967
 40
0.3358442542
 40
0.3671622488
 40
0.3986018792
 40
0.4301532637
 40
0.4618047206
 40
0.4935429726
 40
0.5253533695
 40
0.5572201289
 40
0.5891265884
 40
0.6210554689
 40
0.6529891436
 40
0.6849099115
 40
0.7168002718
 40
0.7327305786
 40
0.7486469527
 40
0.7804261481
 40
0.8121263224
 40
0.8437334247
 40
0.8752348901
 40
0.9066198122
 40
0.9378792844
 40
0.9534614928
 40
0.9690101517
 40
1.0
 40
1.0
 40
1.0
 40
1.0
 10
10.872062626
 20
7.7495946462
 30
0.0
 10
10.8693338366
 20
7.745068795
 30
0.0
 10
10.8640299707
 20
7.735915531
 30
0.0
 10
10.8565508544
 20
7.721909035
 30
0.0
 10
10.84955106
 20
7.70763197
 30
0.0
 10
10.840861241
 20
7.6882421149
 30
0.0
 10
10.8312338651
 20
7.6633965379
 30
0.0
 10
10.8233120712
 20
7.6379055291
 30
0.0
 10
10.8180066503
 20
7.6171705042
 30
0.0
 10
10.8133853127
 20
7.5961821059
 30
0.0
 10
10.808923212
 20
7.5695860979
 30
0.0
 10
10.8056971731
 20
7.5372816823
 30
0.0
 10
10.8046065143
 20
7.504688353
 30
0.0
 10
10.8056558834
 20
7.471946728
 30
0.0
 10
10.8088404783
 20
7.4391968571
 30
0.0
 10
10.8141464396
 20
7.4065790933
 30
0.0
 10
10.8215508209
 20
7.374233101
 30
0.0
 10
10.8310217184
 20
7.342297371
 30
0.0
 10
10.8425184047
 20
7.3109086051
 30
0.0
 10
10.8559915073
 20
7.2802011454
 30
0.0
 10
10.8713832211
 20
7.2503064033
 30
0.0
 10
10.8886275575
 20
7.221352303
 30
0.0
 10
10.9076506206
 20
7.1934627431
 30
0.0
 10
10.9283709431
 20
7.1667570578
 30
0.0
 10
10.9506997566
 20
7.1413495633
 30
0.0
 10
10.9745416518
 20
7.1173488761
 30
0.0
 10
10.999793928
 20
7.0948581842
 30
0.0
 10
11.0219330406
 20
7.0774465987
 30
0.0
 10
11.0402402748
 20
7.0643654827
 30
0.0
 10
11.0589079948
 20
7.0518746198
 30
0.0
 10
11.0829099669
 20
7.0373708572
 30
0.0
 10
11.1126719297
 20
7.021811184
 30
0.0
 10
11.143254179
 20
7.0081700683
 30
0.0
 10
11.1745254061
 20
6.9965064668
 30
0.0
 10
11.2063511417
 20
6.9868704679
 30
0.0
 10
11.2332524488
 20
6.9805575513
 30
0.0
 10
11.2549124323
 20
6.9765616942
 30
0.0
 10
11.276594787
 20
6.9732783649
 30
0.0
 10
11.2929514657
 20
6.9716058981
 30
0.0
 10
11.3038638068
 20
6.9708491247
 30
0.0
  0
SPLINE
  5
39E
100
AcDbEntity
  8
0
100
AcDbSpline
 62
7
  6
CONTINUOUS
 70
0
 71
3
 72
43
 73
39
 74
0
 42
0.0000001
 43
0.0000001
 44
0.0000000001
 40
0.0
 40
0.0
 40
0.0
 40
0.0
 40
0.0149579341
 40
0.0299291408
 40
0.0449160112
 40
0.0599208587
 40
0.0899883142
 40
0.1201529331
 40
0.1352787115
 40
0.150434025
 40
0.1656203315
 40
0.1808389298
 40
0.2113727036
 40
0.2420472704
 40
0.2728670561
 40
0.3038337161
 40
0.3349461427
 40
0.3662005248
 40
0.3975904539
 40
0.4291070737
 40
0.4607392681
 40
0.4924738817
 40
0.524295971
 40
0.5561890781
 40
0.5881355248
 40
0.6201167214
 40
0.6521134867
 40
0.684106375
 40
0.7160760062
 40
0.7480033952
 40
0.7798702772
 40
0.8116594239
 40
0.8433549453
 40
0.8749425853
 40
0.9064099452
 40
0.937746883
 40
0.968945206
 40
1.0
 40
1.0
 40
1.0
 40
1.0
 10
10.9489940114
 20
7.7715791206
 30
0.0
 10
10.9459712776
 20
7.7675890097
 30
0.0
 10
10.9400688537
 20
7.7594936285
 30
0.0
 10
10.9316616849
 20
7.7470292946
 30
0.0
 10
10.9237065663
 20
7.7342527542
 30
0.0
 10
10.9137096992
 20
7.7168116602
 30
0.0
 10
10.9023876795
 20
7.694295868
 30
0.0
 10
10.8927058457
 20
7.6709842098
 30
0.0
 10
10.8859608857
 20
7.651909405
 30
0.0
 10
10.8814028774
 20
7.6373886232
 30
0.0
 10
10.8773564018
 20
7.6226848653
 30
0.0
 10
10.8726444398
 20
7.6028394748
 30
0.0
 10
10.8680584035
 20
7.5776537213
 30
0.0
 10
10.8646701465
 20
7.547018339
 30
0.0
 10
10.8634053571
 20
7.5160766828
 30
0.0
 10
10.8642699404
 20
7.4849752315
 30
0.0
 10
10.8672594853
 20
7.4538598959
 30
0.0
 10
10.8723596987
 20
7.4228769395
 30
0.0
 10
10.8795463729
 20
7.3921718672
 30
0.0
 10
10.8887855348
 20
7.3618888652
 30
0.0
 10
10.900033604
 20
7.3321701025
 30
0.0
 10
10.9132375943
 20
7.3031550759
 30
0.0
 10
10.9283353679
 20
7.2749799614
 30
0.0
 10
10.9452559311
 20
7.2477769839
 30
0.0
 10
10.9639197661
 20
7.2216738038
 30
0.0
 10
10.9842392024
 20
7.196792924
 30
0.0
 10
11.0061188255
 20
7.1732511212
 30
0.0
 10
11.029455921
 20
7.1511589031
 30
0.0
 10
11.0541409525
 20
7.130619994
 30
0.0
 10
11.0800580717
 20
7.1117308533
 30
0.0
 10
11.1070856501
 20
7.0945802173
 30
0.0
 10
11.1350968542
 20
7.0792486924
 30
0.0
 10
11.1639602188
 20
7.0658083731
 30
0.0
 10
11.1935403135
 20
7.0543225245
 30
0.0
 10
11.223698169
 20
7.0448452331
 30
0.0
 10
11.2542926638
 20
7.0374212569
 30
0.0
 10
11.2851782821
 20
7.0320857081
 30
0.0
 10
11.3059192882
 20
7.0299325689
 30
0.0
 10
11.3162871107
 20
7.0292135579
 30
0.0
  0
SPLINE
  5
39F
100
AcDbEntity
  8
0
100
AcDbSpline
 62
7
  6
CONTINUOUS
 70
0
 71
3
 72
39
 73
35
 74
0
 42
0.0000001
 43
0.0000001
 44
0.0000000001
 40
0.0
 40
0.0
 40
0.0
 40
0.0
 40
0.0303997532
 40
0.0609107974
 40
0.0915342381
 40
0.1222699129
 40
0.1531164062
 40
0.1840710801
 40
0.215130116
 40
0.2462885677
 40
0.2775404248
 40
0.3088786862
 40
0.340295441
 40
0.3717819583
 40
0.4033287841
 40
0.4349258436
 40
0.4665625474
 40
0.4982279014
 40
0.5299106197
 40
0.5615992392
 40
0.5932822366
 40
0.6249481457
 40
0.6565856747
 40
0.6881838213
 40
0.7197319847
 40
0.751220077
 40
0.7826386278
 40
0.8139788865
 40
0.8452329285
 40
0.8763936954
 40
0.9074552751
 40
0.9384123281
 40
0.9692618694
 40
1.0
 40
1.0
 40
1.0
 40
1.0
 10
11.0855036452
 20
7.7803545984
 30
0.0
 10
11.0844996475
 20
7.7724768938
 30
0.0
 10
11.0829141837
 20
7.7566350363
 30
0.0
 10
11.0818095299
 20
7.7327379891
 30
0.0
 10
11.0819767168
 20
7.7087276581
 30
0.0
 10
11.0834153253
 20
7.6846724091
 30
0.0
 10
11.0861212026
 20
7.660639569
 30
0.0
 10
11.0900866786
 20
7.6366967008
 30
0.0
 10
11.0953005434
 20
7.6129110204
 30
0.0
 10
11.1017480926
 20
7.5893493167
 30
0.0
 10
11.1094111661
 20
7.5660777369
 30
0.0
 10
11.1182681993
 20
7.5431616106
 30
0.0
 10
11.1282942866
 20
7.5206652674
 30
0.0
 10
11.1394612391
 20
7.4986518527
 30
0.0
 10
11.1517376658
 20
7.4771831505
 30
0.0
 10
11.1650890726
 20
7.4563194154
 30
0.0
 10
11.1794779562
 20
7.4361192046
 30
0.0
 10
11.1948639098
 20
7.4166392151
 30
0.0
 10
11.2112037343
 20
7.3979341258
 30
0.0
 10
11.2284515609
 20
7.380056447
 30
0.0
 10
11.2465589723
 20
7.3630563677
 30
0.0
 10
11.2654751348
 20
7.3469816096
 30
0.0
 10
11.285146952
 20
7.3318773045
 30
0.0
 10
11.30551921
 20
7.3177858669
 30
0.0
 10
11.3265347319
 20
7.3047468759
 30
0.0
 10
11.3481345361
 20
7.2927969653
 30
0.0
 10
11.3702580004
 20
7.2819697224
 30
0.0
 10
11.3928430318
 20
7.2722955853
 30
0.0
 10
11.4158262229
 20
7.2638017665
 30
0.0
 10
11.4391430884
 20
7.2565121237
 30
0.0
 10
11.4627280523
 20
7.2504472712
 30
0.0
 10
11.4865152632
 20
7.2456241218
 30
0.0
 10
11.5104368902
 20
7.2420565787
 30
0.0
 10
11.5264608047
 20
7.2405189322
 30
0.0
 10
11.5344713856
 20
7.2399633965
 30
0.0
  0
SPLINE
  5
3A0
100
AcDbEntity
  8
0
100
AcDbSpline
 62
7
  6
CONTINUOUS
 70
0
 71
3
 72
37
 73
33
 74
0
 42
0.0000001
 43
0.0000001
 44
0.0000000001
 40
0.0
 40
0.0
 40
0.0
 40
0.0
 40
0.0304220462
 40
0.0609548562
 40
0.0915992071
 40
0.122354642
 40
0.153219489
 40
0.1841908921
 40
0.2152648531
 40
0.2464362846
 40
0.2776990731
 40
0.3090461533
 40
0.34046959
 40
0.3719606658
 40
0.4035099736
 40
0.435107516
 40
0.4983858614
 40
0.5617271226
 40
0.5934026513
 40
0.6250600461
 40
0.6566882215
 40
0.6882763854
 40
0.7198141487
 40
0.7512916321
 40
0.7826995652
 40
0.8140293892
 40
0.8452733481
 40
0.8764245422
 40
0.9074772076
 40
0.9384260436
 40
0.9692683633
 40
1.0
 40
1.0
 40
1.0
 40
1.0
 10
11.1213280333
 20
7.7765006301
 30
0.0
 10
11.1204973646
 20
7.7691679464
 30
0.0
 10
11.1192257637
 20
7.7544283962
 30
0.0
 10
11.1184916323
 20
7.732211155
 30
0.0
 10
11.1189288861
 20
7.7099046612
 30
0.0
 10
11.1205363472
 20
7.6875713994
 30
0.0
 10
11.1233094723
 20
7.6652728659
 30
0.0
 10
11.1272405429
 20
7.6430707346
 30
0.0
 10
11.1323186398
 20
7.621026329
 30
0.0
 10
11.1385296894
 20
7.5992005546
 30
0.0
 10
11.1458564826
 20
7.5776536966
 30
0.0
 10
11.154278714
 20
7.5564452736
 30
0.0
 10
11.1637731037
 20
7.5356338202
 30
0.0
 10
11.1743132821
 20
7.515276946
 30
0.0
 10
11.1858705195
 20
7.4954303566
 30
0.0
 10
11.2025981086
 20
7.4697142864
 30
0.0
 10
11.2258830128
 20
7.4391226041
 30
0.0
 10
11.2520670832
 20
7.4109470389
 30
0.0
 10
11.2745901649
 20
7.3900295379
 30
0.0
 10
11.2922252065
 20
7.3751949542
 30
0.0
 10
11.3105509165
 20
7.3612583454
 30
0.0
 10
11.3295171191
 20
7.348257715
 30
0.0
 10
11.3490713196
 20
7.3362291176
 30
0.0
 10
11.3691595517
 20
7.3252057653
 30
0.0
 10
11.3897263349
 20
7.3152181478
 30
0.0
 10
11.4107148794
 20
7.3062938928
 30
0.0
 10
11.4320672135
 20
7.2984577137
 30
0.0
 10
11.4537243915
 20
7.2917312567
 30
0.0
 10
11.4756264719
 20
7.2861332455
 30
0.0
 10
11.49771332
 20
7.2816790031
 30
0.0
 10
11.5199229296
 20
7.2783812151
 30
0.0
 10
11.5347991301
 20
7.2769569125
 30
0.0
 10
11.5422359506
 20
7.2764411673
 30
0.0
  0
SPLINE
  5
3A1
100
AcDbEntity
  8
0
100
AcDbSpline
 62
7
  6
CONTINUOUS
 70
0
 71
3
 72
24
 73
20
 74
0
 42
0.0000001
 43
0.0000001
 44
0.0000000001
 40
0.0
 40
0.0
 40
0.0
 40
0.0
 40
0.0615910481
 40
0.1235177572
 40
0.1857515996
 40
0.2482554355
 40
0.3109846417
 40
0.3738884245
 40
0.4369112586
 40
0.499994407
 40
0.5630775141
 40
0.6261002283
 40
0.6890038174
 40
0.7517327558
 40
0.8142362598
 40
0.8764697218
 40
0.938396066
 40
0.9692414621
 40
1.0
 40
1.0
 40
1.0
 40
1.0
 10
11.2017535932
 20
7.7589483171
 30
0.0
 10
11.203132198
 20
7.7467305759
 30
0.0
 10
11.2069418537
 20
7.7223340016
 30
0.0
 10
11.2157233461
 20
7.6862655749
 30
0.0
 10
11.2275236553
 20
7.6508746468
 30
0.0
 10
11.2422545005
 20
7.6164268609
 30
0.0
 10
11.2598063486
 20
7.5831763039
 30
0.0
 10
11.2800488142
 20
7.5513693641
 30
0.0
 10
11.302831829
 20
7.5212414848
 30
0.0
 10
11.3279864316
 20
7.4930156604
 30
0.0
 10
11.3553263398
 20
7.4669009289
 30
0.0
 10
11.3846491115
 20
7.4430907649
 30
0.0
 10
11.4157376468
 20
7.421761552
 30
0.0
 10
11.4483617516
 20
7.4030716052
 30
0.0
 10
11.4822803853
 20
7.3871595613
 30
0.0
 10
11.5172406092
 20
7.3741440228
 30
0.0
 10
11.5470730654
 20
7.3657799009
 30
0.0
 10
11.5711951054
 20
7.3606297351
 30
0.0
 10
11.5833239729
 20
7.3585707071
 30
0.0
 10
11.5893980817
 20
7.3576718673
 30
0.0
  0
SPLINE
  5
3A2
100
AcDbEntity
  8
0
100
AcDbSpline
 62
7
  6
CONTINUOUS
 70
0
 71
3
 72
25
 73
21
 74
0
 42
0.0000001
 43
0.0000001
 44
0.0000000001
 40
0.0
 40
0.0
 40
0.0
 40
0.0
 40
0.1588194221
 40
0.3111433428
 40
0.3844688385
 40
0.4556637152
 40
0.5245328555
 40
0.5908642272
 40
0.6544304515
 40
0.7149880091
 40
0.7722731042
 40
0.8260108701
 40
0.8514603109
 40
0.875916
 40
0.8993402614
 40
0.9217003989
 40
0.9429670574
 40
0.9631133508
 40
0.9821255039
 40
1.0
 40
1.0
 40
1.0
 40
1.0
 10
11.3468984094
 20
9.1786627135
 30
0.0
 10
11.3461668796
 20
9.1750475956
 30
0.0
 10
11.3447372083
 20
9.1679645284
 30
0.0
 10
11.3429271493
 20
9.1592209521
 30
0.0
 10
11.3414644074
 20
9.1524840041
 30
0.0
 10
11.3403701118
 20
9.1476505335
 30
0.0
 10
11.3392577192
 20
9.1429879758
 30
0.0
 10
11.3381199189
 20
9.1385140605
 30
0.0
 10
11.3369495047
 20
9.1342483063
 30
0.0
 10
11.3357393194
 20
9.1302123363
 30
0.0
 10
11.3344822434
 20
9.1264303735
 30
0.0
 10
11.3333709749
 20
9.123461015
 30
0.0
 10
11.3324456048
 20
9.121238759
 30
0.0
 10
11.3317482033
 20
9.1196848535
 30
0.0
 10
11.3310341222
 20
9.1182178789
 30
0.0
 10
11.3303027627
 20
9.1168427012
 30
0.0
 10
11.3295536844
 20
9.1155644898
 30
0.0
 10
11.3287863751
 20
9.1143887707
 30
0.0
 10
11.3280006718
 20
9.1133215263
 30
0.0
 10
11.3274473768
 20
9.1126663243
 30
0.0
 10
11.3271667809
 20
9.1123604073
 30
0.0
  0
SPLINE
  5
3A3
100
AcDbEntity
  8
0
100
AcDbSpline
 62
7
  6
CONTINUOUS
 70
0
 71
3
 72
61
 73
57
 74
0
 42
0.0000001
 43
0.0000001
 44
0.0000000001
 40
0.0
 40
0.0
 40
0.0
 40
0.0
 40
0.0081437451
 40
0.0169768238
 40
0.0265208827
 40
0.0367895907
 40
0.0477882519
 40
0.0595157749
 40
0.0719659111
 40
0.0851281662
 40
0.0989883865
 40
0.1135291266
 40
0.1287303122
 40
0.1445692972
 40
0.1610212357
 40
0.1780593736
 40
0.1956550177
 40
0.2137779419
 40
0.2514761317
 40
0.2908853948
 40
0.3317179717
 40
0.3736716991
 40
0.4164333432
 40
0.459681813
 40
0.5030913239
 40
0.5463345566
 40
0.5890857858
 40
0.63102401
 40
0.6718361344
 40
0.7112202156
 40
0.7302867538
 40
0.7488898237
 40
0.7669963397
 40
0.7845746224
 40
0.8015943886
 40
0.8180271298
 40
0.8338460684
 40
0.8490264182
 40
0.8635457074
 40
0.8773837958
 40
0.8905234617
 40
0.9029506297
 40
0.9146548405
 40
0.9256301247
 40
0.9358755584
 40
0.94539665
 40
0.9542068245
 40
0.9623293601
 40
0.9698004202
 40
0.9766722849
 40
0.9830175572
 40
0.9889330701
 40
0.9917694488
 40
0.9945466069
 40
0.9972834973
 40
1.0
 40
1.0
 40
1.0
 40
1.0
 10
13.4494894301
 20
7.2133260552
 30
0.0
 10
13.4503406054
 20
7.2141482275
 30
0.0
 10
13.4520385542
 20
7.2159422605
 30
0.0
 10
13.4544784274
 20
7.2189288773
 30
0.0
 10
13.4569077977
 20
7.2223120517
 30
0.0
 10
13.4593219519
 20
7.2260849952
 30
0.0
 10
13.4617165066
 20
7.2302406497
 30
0.0
 10
13.4640866953
 20
7.2347709951
 30
0.0
 10
13.4664278832
 20
7.239667154
 30
0.0
 10
13.4687353909
 20
7.244919491
 30
0.0
 10
13.4710045569
 20
7.2505176146
 30
0.0
 10
13.4732308545
 20
7.2564503792
 30
0.0
 10
13.4754097517
 20
7.2627059613
 30
0.0
 10
13.4775368638
 20
7.2692718535
 30
0.0
 10
13.4796079067
 20
7.2761349105
 30
0.0
 10
13.4816186526
 20
7.2832813809
 30
0.0
 10
13.4835651053
 20
7.2906969341
 30
0.0
 10
13.4861026655
 20
7.3010597729
 30
0.0
 10
13.4890752439
 20
7.3145775179
 30
0.0
 10
13.4922827457
 20
7.3314152646
 30
0.0
 10
13.4951497072
 20
7.3489411489
 30
0.0
 10
13.4976528773
 20
7.3670144343
 30
0.0
 10
13.4997719432
 20
7.3854900968
 30
0.0
 10
13.501489755
 20
7.4042197667
 30
0.0
 10
13.502792457
 20
7.4230530117
 30
0.0
 10
13.5036695908
 20
7.4418385535
 30
0.0
 10
13.5041141702
 20
7.4604254923
 30
0.0
 10
13.5041227626
 20
7.478664589
 30
0.0
 10
13.5036954546
 20
7.496409298
 30
0.0
 10
13.502971773
 20
7.5108175357
 30
0.0
 10
13.5021701078
 20
7.5219862466
 30
0.0
 10
13.5014695857
 20
7.5300613827
 30
0.0
 10
13.5006647901
 20
7.5379094374
 30
0.0
 10
13.4997573627
 20
7.5455146609
 30
0.0
 10
13.4987491176
 20
7.5528617816
 30
0.0
 10
13.4976421407
 20
7.5599360599
 30
0.0
 10
13.4964386725
 20
7.5667233131
 30
0.0
 10
13.4951411457
 20
7.573209948
 30
0.0
 10
13.4937522387
 20
7.5793829961
 30
0.0
 10
13.4922747293
 20
7.5852301352
 30
0.0
 10
13.4907116405
 20
7.5907397337
 30
0.0
 10
13.4890661369
 20
7.5959008756
 30
0.0
 10
13.4873414809
 20
7.6007033822
 30
0.0
 10
13.4855411511
 20
7.6051378805
 30
0.0
 10
13.4836686113
 20
7.6091957906
 30
0.0
 10
13.4817274008
 20
7.6128693867
 30
0.0
 10
13.4797210316
 20
7.6161518189
 30
0.0
 10
13.4776527041
 20
7.6190370114
 30
0.0
 10
13.4755254666
 20
7.6215196426
 30
0.0
 10
13.4733415401
 20
7.6235947814
 30
0.0
 10
13.4711034817
 20
7.625257101
 30
0.0
 10
13.4691670894
 20
7.6263080609
 30
0.0
 10
13.4676066202
 20
7.6269223895
 30
0.0
 10
13.4664426784
 20
7.6272708872
 30
0.0
 10
13.4652699115
 20
7.627513021
 30
0.0
 10
13.4644813621
 20
7.6276034974
 30
0.0
 10
13.4640875581
 20
7.6276308128
 30
0.0
  0
SPLINE
  5
3A4
100
AcDbEntity
  8
0
100
AcDbSpline
 62
7
  6
CONTINUOUS
 70
0
 71
3
 72
15
 73
11
 74
0
 42
0.0000001
 43
0.0000001
 44
0.0000000001
 40
0.0
 40
0.0
 40
0.0
 40
0.0
 40
0.1232822653
 40
0.2469238437
 40
0.3710051123
 40
0.4955958288
 40
0.6207535625
 40
0.7465228097
 40
0.8729323529
 40
1.0
 40
1.0
 40
1.0
 40
1.0
 10
11.5502992147
 20
6.9903073396
 30
0.0
 10
11.5398010416
 20
6.9838757904
 30
0.0
 10
11.5182501613
 20
6.971827871
 30
0.0
 10
11.4845457267
 20
6.9563527329
 30
0.0
 10
11.4496032816
 20
6.9435327509
 30
0.0
 10
11.4136213804
 20
6.933441027
 30
0.0
 10
11.3768011938
 20
6.9261331913
 30
0.0
 10
11.3393485809
 20
6.9216498817
 30
0.0
 10
11.3014758036
 20
6.9200153088
 30
0.0
 10
11.2761473317
 20
6.92082901
 30
0.0
 10
11.263488069
 20
6.9217069328
 30
0.0
  0
SPLINE
  5
3A5
100
AcDbEntity
  8
0
100
AcDbSpline
 62
7
  6
CONTINUOUS
 70
0
 71
3
 72
71
 73
67
 74
0
 42
0.0000001
 43
0.0000001
 44
0.0000000001
 40
0.0
 40
0.0
 40
0.0
 40
0.0
 40
0.0156747439
 40
0.0314022082
 40
0.0471806388
 40
0.0630088954
 40
0.0788847426
 40
0.0948057519
 40
0.1107690087
 40
0.1267712324
 40
0.1428087906
 40
0.1588777352
 40
0.1749738406
 40
0.1910926413
 40
0.2072294725
 40
0.2233795109
 40
0.239537818
 40
0.255699384
 40
0.2718591706
 40
0.2880121553
 40
0.3041533743
 40
0.3202779661
 40
0.3363812146
 40
0.3524585914
 40
0.3685057961
 40
0.3845187957
 40
0.4004938614
 40
0.4164276041
 40
0.4323170079
 40
0.4481594607
 40
0.4639527819
 40
0.4796952457
 40
0.4953856017
 40
0.5110230908
 40
0.5266074579
 40
0.5421389597
 40
0.5576183678
 40
0.5730469656
 40
0.5884265412
 40
0.6037593735
 40
0.6190482143
 40
0.6342962647
 40
0.6495071464
 40
0.6646848669
 40
0.6798337803
 40
0.6949585438
 40
0.7100640694
 40
0.7251554736
 40
0.7402380233
 40
0.7553170806
 40
0.7703980447
 40
0.7854862946
 40
0.8005871313
 40
0.8157057213
 40
0.830847042
 40
0.8460158305
 40
0.8612165344
 40
0.8764532676
 40
0.8917297685
 40
0.907049366
 40
0.9224149485
 40
0.9378289216
 40
0.953293278
 40
0.9688092644
 40
0.9843782511
 40
1.0
 40
1.0
 40
1.0
 40
1.0
 10
11.0773973339
 20
7.8025436776
 30
0.0
 10
11.0864362179
 20
7.8019168289
 30
0.0
 10
11.1045166994
 20
7.8002176007
 30
0.0
 10
11.1315235109
 20
7.7963503417
 30
0.0
 10
11.1584002911
 20
7.7911693059
 30
0.0
 10
11.1850812911
 20
7.7846873295
 30
0.0
 10
11.2115026594
 20
7.7769198837
 30
0.0
 10
11.2376006659
 20
7.7678858064
 30
0.0
 10
11.2633125201
 20
7.7576068464
 30
0.0
 10
11.2885763245
 20
7.7461078037
 30
0.0
 10
11.3133312773
 20
7.7334164031
 30
0.0
 10
11.3375178001
 20
7.7195632302
 30
0.0
 10
11.361077683
 20
7.704581659
 30
0.0
 10
11.3839542231
 20
7.688507771
 30
0.0
 10
11.4060923581
 20
7.6713802688
 30
0.0
 10
11.4274388012
 20
7.6532403886
 30
0.0
 10
11.4479421814
 20
7.6341318124
 30
0.0
 10
11.4675531514
 20
7.6141005446
 30
0.0
 10
11.4862245078
 20
7.5931948042
 30
0.0
 10
11.5039113023
 20
7.5714649093
 30
0.0
 10
11.5205709499
 20
7.548963158
 30
0.0
 10
11.5361633278
 20
7.5257437023
 30
0.0
 10
11.5506508918
 20
7.501862431
 30
0.0
 10
11.5639987544
 20
7.4773768248
 30
0.0
 10
11.5761747624
 20
7.4523458158
 30
0.0
 10
11.5871495751
 20
7.4268296483
 30
0.0
 10
11.5968967349
 20
7.4008897358
 30
0.0
 10
11.6053927276
 20
7.3745885131
 30
0.0
 10
11.6126170524
 20
7.3479892924
 30
0.0
 10
11.618552278
 20
7.3211561102
 30
0.0
 10
11.6231840659
 20
7.2941535687
 30
0.0
 10
11.6265012084
 20
7.2670466831
 30
0.0
 10
11.6284956557
 20
7.2399007268
 30
0.0
 10
11.6291625359
 20
7.2127810764
 30
0.0
 10
11.6285001683
 20
7.1857530551
 30
0.0
 10
11.6265100928
 20
7.1588817748
 30
0.0
 10
11.6231970433
 20
7.1322319776
 30
0.0
 10
11.618568938
 20
7.1058678822
 30
0.0
 10
11.6126368616
 20
7.0798530298
 30
0.0
 10
11.6054150416
 20
7.0542501315
 30
0.0
 10
11.5969208119
 20
7.0291209189
 30
0.0
 10
11.5871745929
 20
7.0045259876
 30
0.0
 10
11.576199837
 20
6.9805246491
 30
0.0
 10
11.5640229598
 20
6.957174792
 30
0.0
 10
11.5506732814
 20
6.9345327407
 30
0.0
 10
11.5361829559
 20
6.9126531189
 30
0.0
 10
11.5205868943
 20
6.8915887173
 30
0.0
 10
11.5039226855
 20
6.8713903614
 30
0.0
 10
11.4862305188
 20
6.8521067738
 30
0.0
 10
11.4675530642
 20
6.8337844698
 30
0.0
 10
11.447935373
 20
6.8164676426
 30
0.0
 10
11.4274247665
 20
6.8001980564
 30
0.0
 10
11.4060707221
 20
6.7850149446
 30
0.0
 10
11.3839247513
 20
6.7709549177
 30
0.0
 10
11.361040287
 20
6.7580518526
 30
0.0
 10
11.3374725401
 20
6.7463368247
 30
0.0
 10
11.3132783627
 20
6.7358380387
 30
0.0
 10
11.2885161094
 20
6.7265807618
 30
0.0
 10
11.2632454974
 20
6.7185872627
 30
0.0
 10
11.2375274579
 20
6.7118767608
 30
0.0
 10
11.2114240074
 20
6.7064653822
 30
0.0
 10
11.1849980349
 20
6.7023660618
 30
0.0
 10
11.1583133662
 20
6.6995886832
 30
0.0
 10
11.1314339063
 20
6.698139733
 30
0.0
 10
11.1044254716
 20
6.6980227982
 30
0.0
 10
11.0864056582
 20
6.6988316242
 30
0.0
 10
11.0773973339
 20
6.6994563537
 30
0.0
  0
SPLINE
  5
3A6
100
AcDbEntity
  8
0
100
AcDbSpline
 62
7
  6
CONTINUOUS
 70
0
 71
3
 72
61
 73
57
 74
0
 42
0.0000001
 43
0.0000001
 44
0.0000000001
 40
0.0
 40
0.0
 40
0.0
 40
0.0
 40
0.0081437451
 40
0.0169768238
 40
0.0265208827
 40
0.0367895907
 40
0.0477882519
 40
0.0595157749
 40
0.0719659111
 40
0.0851281662
 40
0.0989883865
 40
0.1135291266
 40
0.1287303122
 40
0.1445692972
 40
0.1610212357
 40
0.1780593736
 40
0.1956550177
 40
0.2137779419
 40
0.2514761317
 40
0.2908853948
 40
0.3317179717
 40
0.3736716991
 40
0.4164333432
 40
0.459681813
 40
0.5030913239
 40
0.5463345566
 40
0.5890857858
 40
0.63102401
 40
0.6718361344
 40
0.7112202156
 40
0.7302867538
 40
0.7488898237
 40
0.7669963397
 40
0.7845746224
 40
0.8015943886
 40
0.8180271298
 40
0.8338460684
 40
0.8490264182
 40
0.8635457074
 40
0.8773837958
 40
0.8905234617
 40
0.9029506297
 40
0.9146548405
 40
0.9256301247
 40
0.9358755584
 40
0.94539665
 40
0.9542068245
 40
0.9623293601
 40
0.9698004202
 40
0.9766722849
 40
0.9830175572
 40
0.9889330701
 40
0.9917694488
 40
0.9945466069
 40
0.9972834973
 40
1.0
 40
1.0
 40
1.0
 40
1.0
 10
12.414214104
 20
6.2133268212
 30
0.0
 10
12.4150652794
 20
6.2141489935
 30
0.0
 10
12.4167632282
 20
6.2159430265
 30
0.0
 10
12.4192031014
 20
6.2189296433
 30
0.0
 10
12.4216324717
 20
6.2223128178
 30
0.0
 10
12.4240466259
 20
6.2260857613
 30
0.0
 10
12.4264411806
 20
6.2302414157
 30
0.0
 10
12.4288113693
 20
6.2347717611
 30
0.0
 10
12.4311525571
 20
6.23966792
 30
0.0
 10
12.4334600649
 20
6.244920257
 30
0.0
 10
12.4357292309
 20
6.2505183806
 30
0.0
 10
12.4379555285
 20
6.2564511452
 30
0.0
 10
12.4401344257
 20
6.2627067273
 30
0.0
 10
12.4422615378
 20
6.2692726196
 30
0.0
 10
12.4443325807
 20
6.2761356765
 30
0.0
 10
12.4463433266
 20
6.283282147
 30
0.0
 10
12.4482897793
 20
6.2906977002
 30
0.0
 10
12.4508273395
 20
6.3010605389
 30
0.0
 10
12.4537999178
 20
6.3145782839
 30
0.0
 10
12.4570074197
 20
6.3314160307
 30
0.0
 10
12.4598743812
 20
6.3489419149
 30
0.0
 10
12.4623775513
 20
6.3670152003
 30
0.0
 10
12.4644966172
 20
6.3854908629
 30
0.0
 10
12.466214429
 20
6.4042205327
 30
0.0
 10
12.467517131
 20
6.4230537777
 30
0.0
 10
12.4683942648
 20
6.4418393196
 30
0.0
 10
12.4688388442
 20
6.4604262583
 30
0.0
 10
12.4688474366
 20
6.478665355
 30
0.0
 10
12.4684201286
 20
6.4964100641
 30
0.0
 10
12.467696447
 20
6.5108183017
 30
0.0
 10
12.4668947817
 20
6.5219870126
 30
0.0
 10
12.4661942597
 20
6.5300621488
 30
0.0
 10
12.4653894641
 20
6.5379102035
 30
0.0
 10
12.4644820367
 20
6.5455154269
 30
0.0
 10
12.4634737916
 20
6.5528625477
 30
0.0
 10
12.4623668147
 20
6.5599368259
 30
0.0
 10
12.4611633464
 20
6.5667240791
 30
0.0
 10
12.4598658197
 20
6.573210714
 30
0.0
 10
12.4584769127
 20
6.5793837621
 30
0.0
 10
12.4569994033
 20
6.5852309012
 30
0.0
 10
12.4554363144
 20
6.5907404997
 30
0.0
 10
12.4537908109
 20
6.5959016416
 30
0.0
 10
12.4520661549
 20
6.6007041482
 30
0.0
 10
12.4502658251
 20
6.6051386465
 30
0.0
 10
12.4483932853
 20
6.6091965566
 30
0.0
 10
12.4464520748
 20
6.6128701527
 30
0.0
 10
12.4444457056
 20
6.6161525849
 30
0.0
 10
12.4423773781
 20
6.6190377775
 30
0.0
 10
12.4402501405
 20
6.6215204086
 30
0.0
 10
12.4380662141
 20
6.6235955474
 30
0.0
 10
12.4358281557
 20
6.625257867
 30
0.0
 10
12.4338917634
 20
6.6263088269
 30
0.0
 10
12.4323312941
 20
6.6269231555
 30
0.0
 10
12.4311673524
 20
6.6272716532
 30
0.0
 10
12.4299945855
 20
6.627513787
 30
0.0
 10
12.4292060361
 20
6.6276042634
 30
0.0
 10
12.4288122321
 20
6.6276315788
 30
0.0
  0
SPLINE
  5
3A7
100
AcDbEntity
  8
0
100
AcDbSpline
 62
7
  6
CONTINUOUS
 70
0
 71
3
 72
43
 73
39
 74
0
 42
0.0000001
 43
0.0000001
 44
0.0000000001
 40
0.0
 40
0.0
 40
0.0
 40
0.0
 40
0.0149644519
 40
0.029945728
 40
0.0449459508
 40
0.0599671551
 40
0.0900754905
 40
0.1202894876
 40
0.1354422366
 40
0.1506257404
 40
0.1658411623
 40
0.1810895096
 40
0.2116838487
 40
0.2424182149
 40
0.2732950533
 40
0.3043142597
 40
0.3354732171
 40
0.3667668749
 40
0.3981878673
 40
0.4297266664
 40
0.4613717669
 40
0.4931098977
 40
0.5249262566
 40
0.5568047641
 40
0.588728332
 40
0.6206791447
 40
0.6526389479
 40
0.6845893426
 40
0.7165120809
 40
0.7483893602
 40
0.7802041119
 40
0.811940283
 40
0.843583102
 40
0.8751193426
 40
0.9065375159
 40
0.9378282353
 40
0.968983917
 40
1.0
 40
1.0
 40
1.0
 40
1.0
 10
10.8333712007
 20
7.7328361422
 30
0.0
 10
10.8303421853
 20
7.728260932
 30
0.0
 10
10.8244430209
 20
7.7189967331
 30
0.0
 10
10.8160879647
 20
7.7047874972
 30
0.0
 10
10.8082307253
 20
7.6902729369
 30
0.0
 10
10.7984234817
 20
7.670522169
 30
0.0
 10
10.7874508232
 20
7.6451420441
 30
0.0
 10
10.7782626592
 20
7.6190121074
 30
0.0
 10
10.7719951671
 20
7.597709245
 30
0.0
 10
10.7678364157
 20
7.5815292665
 30
0.0
 10
10.7642294075
 20
7.5651815392
 30
0.0
 10
10.7601567345
 20
7.5431631902
 30
0.0
 10
10.7564673679
 20
7.5153042282
 30
0.0
 10
10.7543025065
 20
7.481539574
 30
0.0
 10
10.7544035457
 20
7.44754949
 30
0.0
 10
10.756769972
 20
7.4134862367
 30
0.0
 10
10.7613909373
 20
7.3795010417
 30
0.0
 10
10.7682456608
 20
7.3457450919
 30
0.0
 10
10.7773034359
 20
7.3123684212
 30
0.0
 10
10.7885237954
 20
7.279519371
 30
0.0
 10
10.8018566827
 20
7.2473439034
 30
0.0
 10
10.8172426862
 20
7.2159849707
 30
0.0
 10
10.8346133028
 20
7.1855818846
 30
0.0
 10
10.8538912421
 20
7.1562697046
 30
0.0
 10
10.8749907687
 20
7.1281786446
 30
0.0
 10
10.8978180812
 20
7.1014334997
 30
0.0
 10
10.9222717256
 20
7.0761530973
 30
0.0
 10
10.9482430428
 20
7.0524497736
 30
0.0
 10
10.9756166478
 20
7.0304288795
 30
0.0
 10
11.0042709344
 20
7.0101883113
 30
0.0
 10
11.0340786114
 20
6.9918180784
 30
0.0
 10
11.0649072694
 20
6.9753999113
 30
0.0
 10
11.0966199461
 20
6.9610068921
 30
0.0
 10
11.1290757863
 20
6.9487031515
 30
0.0
 10
11.162130453
 20
6.9385435301
 30
0.0
 10
11.1956375296
 20
6.9305734387
 30
0.0
 10
11.2294461611
 20
6.9248285569
 30
0.0
 10
11.252142625
 20
6.922493742
 30
0.0
 10
11.263488069
 20
6.9217069328
 30
0.0
  0
SPLINE
  5
3A8
100
AcDbEntity
  8
0
100
AcDbSpline
 62
7
  6
CONTINUOUS
 70
0
 71
3
 72
69
 73
65
 74
0
 42
0.0000001
 43
0.0000001
 44
0.0000000001
 40
0.0
 40
0.0
 40
0.0
 40
0.0
 40
0.0156748683
 40
0.031402813
 40
0.047181433
 40
0.0630099681
 40
0.0788860983
 40
0.0948073721
 40
0.1107709042
 40
0.1267734001
 40
0.1428112333
 40
0.1588804537
 40
0.1749768341
 40
0.1910959102
 40
0.2072330176
 40
0.2233833323
 40
0.2395419154
 40
0.2557037578
 40
0.2718638216
 40
0.2880170831
 40
0.3202749251
 40
0.3524475149
 40
0.368494994
 40
0.3845082669
 40
0.400483606
 40
0.4164176216
 40
0.4323072967
 40
0.4481500202
 40
0.4639436122
 40
0.4796863463
 40
0.4953769702
 40
0.5110147255
 40
0.526599359
 40
0.5421311277
 40
0.5576108012
 40
0.5730396624
 40
0.5884195005
 40
0.6037525954
 40
0.6190416979
 40
0.6342900087
 40
0.6495011503
 40
0.664679131
 40
0.6798283045
 40
0.6949533264
 40
0.7100591094
 40
0.7251507713
 40
0.7402335797
 40
0.7553128956
 40
0.7703941176
 40
0.7854826252
 40
0.8005837202
 40
0.8157025691
 40
0.8308441487
 40
0.846013196
 40
0.8612141601
 40
0.8764511549
 40
0.8917279171
 40
0.9070477789
 40
0.9224136151
 40
0.9378278623
 40
0.9532924919
 40
0.9688086642
 40
0.9843781282
 40
1.0
 40
1.0
 40
1.0
 40
1.0
 10
11.3230199063
 20
9.2087421334
 30
0.0
 10
11.3295892628
 20
9.208286547
 30
0.0
 10
11.3427300939
 20
9.2070515292
 30
0.0
 10
11.3623585127
 20
9.2042408632
 30
0.0
 10
11.3818924788
 20
9.2004752808
 30
0.0
 10
11.4012840794
 20
9.1957642415
 30
0.0
 10
11.4204870035
 20
9.1901188893
 30
0.0
 10
11.4394549005
 20
9.1835529405
 30
0.0
 10
11.4581421497
 20
9.1760822498
 30
0.0
 10
11.4765037685
 20
9.1677248208
 30
0.0
 10
11.4944955504
 20
9.1585007782
 30
0.0
 10
11.5120741895
 20
9.1484323455
 30
0.0
 10
11.5291973936
 20
9.137543807
 30
0.0
 10
11.5458239546
 20
9.12586139
 30
0.0
 10
11.5619138481
 20
9.1134132089
 30
0.0
 10
11.577428328
 20
9.1002292292
 30
0.0
 10
11.5923300963
 20
9.0863411898
 30
0.0
 10
11.6065832132
 20
9.0717826417
 30
0.0
 10
11.6201536545
 20
9.0565881931
 30
0.0
 10
11.6372829521
 20
9.0355434187
 30
0.0
 10
11.6568288123
 20
9.0078400218
 30
0.0
 10
11.6737213562
 20
8.9784939099
 30
0.0
 10
11.6855287711
 20
8.9542202457
 30
0.0
 10
11.6935053718
 20
8.9356749502
 30
0.0
 10
11.7005895246
 20
8.9168220237
 30
0.0
 10
11.7067643847
 20
8.8977064049
 30
0.0
 10
11.7120149749
 20
8.8783742237
 30
0.0
 10
11.7163286702
 20
8.8588719973
 30
0.0
 10
11.7196950446
 20
8.8392466844
 30
0.0
 10
11.722105936
 20
8.8195455324
 30
0.0
 10
11.7235554678
 20
8.7998159825
 30
0.0
 10
11.7240401402
 20
8.780105554
 30
0.0
 10
11.7235587475
 20
8.7604617204
 30
0.0
 10
11.7221123932
 20
8.7409318025
 30
0.0
 10
11.7197044766
 20
8.7215628602
 30
0.0
 10
11.7163407783
 20
8.7024015673
 30
0.0
 10
11.7120293727
 20
8.6834941006
 30
0.0
 10
11.7067806001
 20
8.6648860362
 30
0.0
 10
11.7006070331
 20
8.6466222478
 30
0.0
 10
11.6935235198
 20
8.6287467758
 30
0.0
 10
11.6855471249
 20
8.6113027188
 30
0.0
 10
11.6766970443
 20
8.5943321488
 30
0.0
 10
11.6669945642
 20
8.5778760148
 30
0.0
 10
11.6564630457
 20
8.5619740264
 30
0.0
 10
11.6451278985
 20
8.5466645281
 30
0.0
 10
11.6330164472
 20
8.5319844509
 30
0.0
 10
11.620157881
 20
8.5179692196
 30
0.0
 10
11.606583188
 20
8.5046526678
 30
0.0
 10
11.5923251378
 20
8.4920668917
 30
0.0
 10
11.5774181304
 20
8.4802422352
 30
0.0
 10
11.5618981222
 20
8.4692072141
 30
0.0
 10
11.5458025348
 20
8.4589884611
 30
0.0
 10
11.5291702146
 20
8.449610583
 30
0.0
 10
11.5120412951
 20
8.4410961517
 30
0.0
 10
11.4944570916
 20
8.4334656696
 30
0.0
 10
11.4764600038
 20
8.4267375319
 30
0.0
 10
11.4580934385
 20
8.4209279165
 30
0.0
 10
11.4394016948
 20
8.4160507638
 30
0.0
 10
11.4204298388
 20
8.4121177731
 30
0.0
 10
11.4012235676
 20
8.4091383971
 30
0.0
 10
11.3818293039
 20
8.4071198388
 30
0.0
 10
11.362293386
 20
8.4060667253
 30
0.0
 10
11.3426637928
 20
8.4059817767
 30
0.0
 10
11.3295670519
 20
8.406569604
 30
0.0
 10
11.3230199063
 20
8.4070236501
 30
0.0
  0
SPLINE
  5
3A9
100
AcDbEntity
  8
0
100
AcDbSpline
 62
7
  6
CONTINUOUS
 70
0
 71
3
 72
71
 73
67
 74
0
 42
0.0000001
 43
0.0000001
 44
0.0000000001
 40
0.0
 40
0.0
 40
0.0
 40
0.0
 40
0.0156747439
 40
0.0314022082
 40
0.0471806388
 40
0.0630088954
 40
0.0788847426
 40
0.0948057519
 40
0.1107690087
 40
0.1267712324
 40
0.1428087906
 40
0.1588777352
 40
0.1749738406
 40
0.1910926413
 40
0.2072294725
 40
0.2233795109
 40
0.239537818
 40
0.255699384
 40
0.2718591706
 40
0.2880121553
 40
0.3041533743
 40
0.3202779661
 40
0.3363812146
 40
0.3524585914
 40
0.3685057961
 40
0.3845187957
 40
0.4004938614
 40
0.4164276041
 40
0.4323170079
 40
0.4481594607
 40
0.4639527819
 40
0.4796952457
 40
0.4953856017
 40
0.5110230908
 40
0.5266074579
 40
0.5421389597
 40
0.5576183678
 40
0.5730469656
 40
0.5884265412
 40
0.6037593735
 40
0.6190482143
 40
0.6342962647
 40
0.6495071464
 40
0.6646848669
 40
0.6798337803
 40
0.6949585438
 40
0.7100640694
 40
0.7251554736
 40
0.7402380233
 40
0.7553170806
 40
0.7703980447
 40
0.7854862946
 40
0.8005871313
 40
0.8157057213
 40
0.830847042
 40
0.8460158305
 40
0.8612165344
 40
0.8764532676
 40
0.8917297685
 40
0.907049366
 40
0.9224149485
 40
0.9378289216
 40
0.953293278
 40
0.9688092644
 40
0.9843782511
 40
1.0
 40
1.0
 40
1.0
 40
1.0
 10
11.0773973339
 20
6.6994563537
 30
0.0
 10
11.0683584499
 20
6.7000832024
 30
0.0
 10
11.0502779683
 20
6.7017824306
 30
0.0
 10
11.0232711568
 20
6.7056496896
 30
0.0
 10
10.9963943766
 20
6.7108307254
 30
0.0
 10
10.9697133766
 20
6.7173127018
 30
0.0
 10
10.9432920084
 20
6.7250801476
 30
0.0
 10
10.9171940019
 20
6.7341142249
 30
0.0
 10
10.8914821476
 20
6.7443931849
 30
0.0
 10
10.8662183433
 20
6.7558922276
 30
0.0
 10
10.8414633904
 20
6.7685836282
 30
0.0
 10
10.8172768677
 20
6.7824368011
 30
0.0
 10
10.7937169847
 20
6.7974183723
 30
0.0
 10
10.7708404446
 20
6.8134922603
 30
0.0
 10
10.7487023097
 20
6.8306197625
 30
0.0
 10
10.7273558665
 20
6.8487596427
 30
0.0
 10
10.7068524864
 20
6.8678682189
 30
0.0
 10
10.6872415164
 20
6.8878994867
 30
0.0
 10
10.66857016
 20
6.9088052271
 30
0.0
 10
10.6508833655
 20
6.930535122
 30
0.0
 10
10.6342237178
 20
6.9530368733
 30
0.0
 10
10.61863134
 20
6.976256329
 30
0.0
 10
10.6041437759
 20
7.0001376003
 30
0.0
 10
10.5907959134
 20
7.0246232065
 30
0.0
 10
10.5786199054
 20
7.0496542155
 30
0.0
 10
10.5676450927
 20
7.075170383
 30
0.0
 10
10.5578979329
 20
7.1011102955
 30
0.0
 10
10.5494019401
 20
7.1274115182
 30
0.0
 10
10.5421776154
 20
7.1540107389
 30
0.0
 10
10.5362423897
 20
7.1808439211
 30
0.0
 10
10.5316106019
 20
7.2078464626
 30
0.0
 10
10.5282934594
 20
7.2349533482
 30
0.0
 10
10.5262990121
 20
7.2620993045
 30
0.0
 10
10.5256321319
 20
7.2892189549
 30
0.0
 10
10.5262944994
 20
7.3162469762
 30
0.0
 10
10.528284575
 20
7.3431182566
 30
0.0
 10
10.5315976245
 20
7.3697680537
 30
0.0
 10
10.5362257298
 20
7.3961321491
 30
0.0
 10
10.5421578062
 20
7.4221470015
 30
0.0
 10
10.5493796262
 20
7.4477498998
 30
0.0
 10
10.5578738558
 20
7.4728791124
 30
0.0
 10
10.5676200748
 20
7.4974740437
 30
0.0
 10
10.5785948308
 20
7.5214753822
 30
0.0
 10
10.590771708
 20
7.5448252393
 30
0.0
 10
10.6041213864
 20
7.5674672906
 30
0.0
 10
10.6186117119
 20
7.5893469124
 30
0.0
 10
10.6342077735
 20
7.610411314
 30
0.0
 10
10.6508719822
 20
7.6306096699
 30
0.0
 10
10.668564149
 20
7.6498932575
 30
0.0
 10
10.6872416035
 20
7.6682155615
 30
0.0
 10
10.7068592947
 20
7.6855323887
 30
0.0
 10
10.7273699013
 20
7.7018019749
 30
0.0
 10
10.7487239456
 20
7.7169850867
 30
0.0
 10
10.7708699164
 20
7.7310451136
 30
0.0
 10
10.7937543808
 20
7.7439481787
 30
0.0
 10
10.8173221276
 20
7.7556632066
 30
0.0
 10
10.8415163051
 20
7.7661619926
 30
0.0
 10
10.8662785584
 20
7.7754192695
 30
0.0
 10
10.8915491704
 20
7.7834127686
 30
0.0
 10
10.9172672099
 20
7.7901232705
 30
0.0
 10
10.9433706604
 20
7.7955346491
 30
0.0
 10
10.9697966329
 20
7.7996339695
 30
0.0
 10
10.9964813016
 20
7.8024113481
 30
0.0
 10
11.0233607615
 20
7.8038602983
 30
0.0
 10
11.0503691961
 20
7.8039772331
 30
0.0
 10
11.0683890096
 20
7.8031684071
 30
0.0
 10
11.0773973339
 20
7.8025436776
 30
0.0
  0
SPLINE
  5
3AA
100
AcDbEntity
  8
0
100
AcDbSpline
 62
7
  6
CONTINUOUS
 70
0
 71
3
 72
69
 73
65
 74
0
 42
0.0000001
 43
0.0000001
 44
0.0000000001
 40
0.0
 40
0.0
 40
0.0
 40
0.0
 40
0.0156748683
 40
0.031402813
 40
0.047181433
 40
0.0630099681
 40
0.0788860983
 40
0.0948073721
 40
0.1107709042
 40
0.1267734001
 40
0.1428112333
 40
0.1588804537
 40
0.1749768341
 40
0.1910959102
 40
0.2072330176
 40
0.2233833323
 40
0.2395419154
 40
0.2557037578
 40
0.2718638216
 40
0.2880170831
 40
0.3202749251
 40
0.3524475149
 40
0.368494994
 40
0.3845082669
 40
0.400483606
 40
0.4164176216
 40
0.4323072967
 40
0.4481500202
 40
0.4639436122
 40
0.4796863463
 40
0.4953769702
 40
0.5110147255
 40
0.526599359
 40
0.5421311277
 40
0.5576108012
 40
0.5730396624
 40
0.5884195005
 40
0.6037525954
 40
0.6190416979
 40
0.6342900087
 40
0.6495011503
 40
0.664679131
 40
0.6798283045
 40
0.6949533264
 40
0.7100591094
 40
0.7251507713
 40
0.7402335797
 40
0.7553128956
 40
0.7703941176
 40
0.7854826252
 40
0.8005837202
 40
0.8157025691
 40
0.8308441487
 40
0.846013196
 40
0.8612141601
 40
0.8764511549
 40
0.8917279171
 40
0.9070477789
 40
0.9224136151
 40
0.9378278623
 40
0.9532924919
 40
0.9688086642
 40
0.9843781282
 40
1.0
 40
1.0
 40
1.0
 40
1.0
 10
9.3911681392
 20
9.3427165085
 30
0.0
 10
9.3977374957
 20
9.3422609221
 30
0.0
 10
9.4108783269
 20
9.3410259043
 30
0.0
 10
9.4305067457
 20
9.3382152383
 30
0.0
 10
9.4500407117
 20
9.3344496559
 30
0.0
 10
9.4694323124
 20
9.3297386166
 30
0.0
 10
9.4886352364
 20
9.3240932644
 30
0.0
 10
9.5076031334
 20
9.3175273155
 30
0.0
 10
9.5262903826
 20
9.3100566249
 30
0.0
 10
9.5446520015
 20
9.3016991959
 30
0.0
 10
9.5626437834
 20
9.2924751533
 30
0.0
 10
9.5802224224
 20
9.2824067206
 30
0.0
 10
9.5973456266
 20
9.2715181821
 30
0.0
 10
9.6139721876
 20
9.2598357651
 30
0.0
 10
9.630062081
 20
9.247387584
 30
0.0
 10
9.6455765609
 20
9.2342036043
 30
0.0
 10
9.6604783293
 20
9.2203155648
 30
0.0
 10
9.6747314462
 20
9.2057570168
 30
0.0
 10
9.6883018875
 20
9.1905625682
 30
0.0
 10
9.705431185
 20
9.1695177937
 30
0.0
 10
9.7249770452
 20
9.1418143969
 30
0.0
 10
9.7418695892
 20
9.112468285
 30
0.0
 10
9.753677004
 20
9.0881946208
 30
0.0
 10
9.7616536048
 20
9.0696493253
 30
0.0
 10
9.7687377576
 20
9.0507963987
 30
0.0
 10
9.7749126177
 20
9.03168078
 30
0.0
 10
9.7801632079
 20
9.0123485988
 30
0.0
 10
9.7844769031
 20
8.9928463724
 30
0.0
 10
9.7878432775
 20
8.9732210595
 30
0.0
 10
9.7902541689
 20
8.9535199074
 30
0.0
 10
9.7917037008
 20
8.9337903575
 30
0.0
 10
9.7921883731
 20
8.9140799291
 30
0.0
 10
9.7917069804
 20
8.8944360955
 30
0.0
 10
9.7902606262
 20
8.8749061776
 30
0.0
 10
9.7878527096
 20
8.8555372353
 30
0.0
 10
9.7844890112
 20
8.8363759424
 30
0.0
 10
9.7801776056
 20
8.8174684757
 30
0.0
 10
9.7749288331
 20
8.7988604113
 30
0.0
 10
9.768755266
 20
8.7805966229
 30
0.0
 10
9.7616717527
 20
8.7627211509
 30
0.0
 10
9.7536953578
 20
8.7452770939
 30
0.0
 10
9.7448452773
 20
8.7283065239
 30
0.0
 10
9.7351427971
 20
8.7118503899
 30
0.0
 10
9.7246112787
 20
8.6959484014
 30
0.0
 10
9.7132761314
 20
8.6806389032
 30
0.0
 10
9.7011646801
 20
8.665958826
 30
0.0
 10
9.6883061139
 20
8.6519435947
 30
0.0
 10
9.6747314209
 20
8.6386270429
 30
0.0
 10
9.6604733708
 20
8.6260412668
 30
0.0
 10
9.6455663634
 20
8.6142166103
 30
0.0
 10
9.6300463552
 20
8.6031815892
 30
0.0
 10
9.6139507677
 20
8.5929628362
 30
0.0
 10
9.5973184476
 20
8.5835849581
 30
0.0
 10
9.5801895281
 20
8.5750705268
 30
0.0
 10
9.5626053246
 20
8.5674400447
 30
0.0
 10
9.5446082368
 20
8.5607119069
 30
0.0
 10
9.5262416714
 20
8.5549022916
 30
0.0
 10
9.5075499277
 20
8.5500251389
 30
0.0
 10
9.4885780718
 20
8.5460921482
 30
0.0
 10
9.4693718006
 20
8.5431127722
 30
0.0
 10
9.4499775369
 20
8.5410942139
 30
0.0
 10
9.4304416189
 20
8.5400411004
 30
0.0
 10
9.4108120258
 20
8.5399561518
 30
0.0
 10
9.3977152848
 20
8.5405439791
 30
0.0
 10
9.3911681392
 20
8.5409980252
 30
0.0
  0
SPLINE
  5
3AB
100
AcDbEntity
  8
0
100
AcDbSpline
 62
7
  6
CONTINUOUS
 70
0
 71
3
 72
15
 73
11
 74
0
 42
0.0000001
 43
0.0000001
 44
0.0000000001
 40
0.0
 40
0.0
 40
0.0
 40
0.0
 40
0.1232822653
 40
0.2469238437
 40
0.3710051123
 40
0.4955958288
 40
0.6207535625
 40
0.7465228097
 40
0.8729323529
 40
1.0
 40
1.0
 40
1.0
 40
1.0
 10
10.1014103895
 20
7.0907881209
 30
0.0
 10
10.0909122164
 20
7.0843565717
 30
0.0
 10
10.069361336
 20
7.0723086523
 30
0.0
 10
10.0356569014
 20
7.0568335142
 30
0.0
 10
10.0007144563
 20
7.0440135322
 30
0.0
 10
9.9647325551
 20
7.0339218083
 30
0.0
 10
9.9279123685
 20
7.0266139726
 30
0.0
 10
9.8904597556
 20
7.022130663
 30
0.0
 10
9.8525869783
 20
7.0204960901
 30
0.0
 10
9.8272585064
 20
7.0213097913
 30
0.0
 10
9.8145992438
 20
7.0221877141
 30
0.0
  0
SPLINE
  5
3AC
100
AcDbEntity
  8
0
100
AcDbSpline
 62
7
  6
CONTINUOUS
 70
0
 71
3
 72
39
 73
35
 74
0
 42
0.0000001
 43
0.0000001
 44
0.0000000001
 40
0.0
 40
0.0
 40
0.0
 40
0.0
 40
0.0311450433
 40
0.0624431226
 40
0.0938883401
 40
0.125470995
 40
0.1571788892
 40
0.1889972671
 40
0.2209091824
 40
0.252895852
 40
0.2849370326
 40
0.3170114241
 40
0.3490970849
 40
0.3811718562
 40
0.413213789
 40
0.4452015689
 40
0.4771149309
 40
0.5089350628
 40
0.5406449853
 40
0.5722299045
 40
0.6036775328
 40
0.6349783723
 40
0.6661259434
 40
0.697116963
 40
0.7279514643
 40
0.7586328462
 40
0.7891678467
 40
0.819566445
 40
0.8498416852
 40
0.8800094169
 40
0.9100879627
 40
0.9400977191
 40
0.9700606947
 40
1.0
 40
1.0
 40
1.0
 40
1.0
 10
11.3188788048
 20
8.2291569939
 30
0.0
 10
11.3048445181
 20
8.230130275
 30
0.0
 10
11.2767677823
 20
8.2331088747
 30
0.0
 10
11.2349930792
 20
8.2406120592
 30
0.0
 10
11.1936658212
 20
8.2511217348
 30
0.0
 10
11.1530092028
 20
8.2645814379
 30
0.0
 10
11.1132392326
 20
8.2809190371
 30
0.0
 10
11.0745680417
 20
8.3000470894
 30
0.0
 10
11.0372016346
 20
8.3218633869
 30
0.0
 10
11.0013391489
 20
8.3462514857
 30
0.0
 10
10.9671716424
 20
8.3730812201
 30
0.0
 10
10.9348811582
 20
8.4022094805
 30
0.0
 10
10.9046397909
 20
8.4334809924
 30
0.0
 10
10.8766087496
 20
8.4667290909
 30
0.0
 10
10.8509374471
 20
8.5017765606
 30
0.0
 10
10.8277628007
 20
8.538436653
 30
0.0
 10
10.8072085195
 20
8.5765140568
 30
0.0
 10
10.789384346
 20
8.6158058669
 30
0.0
 10
10.7743855189
 20
8.6561026929
 30
0.0
 10
10.7622923239
 20
8.6971897782
 30
0.0
 10
10.753169637
 20
8.7388481073
 30
0.0
 10
10.7470664638
 20
8.7808555386
 30
0.0
 10
10.7440157928
 20
8.8229880098
 30
0.0
 10
10.7440344196
 20
8.8650207018
 30
0.0
 10
10.747122737
 20
8.9067292187
 30
0.0
 10
10.7532647218
 20
8.9478907928
 30
0.0
 10
10.7624280827
 20
8.9882854578
 30
0.0
 10
10.7745643919
 20
9.0276972158
 30
0.0
 10
10.7896091686
 20
9.0659152219
 30
0.0
 10
10.8074823927
 20
9.1027349746
 30
0.0
 10
10.8280886545
 20
9.1379591427
 30
0.0
 10
10.8513185954
 20
9.1713996595
 30
0.0
 10
10.8770456653
 20
9.202875151
 30
0.0
 10
10.8957783772
 20
9.2224445986
 30
0.0
 10
10.9055051311
 20
9.2318399078
 30
0.0
  0
SPLINE
  5
3AD
100
AcDbEntity
  8
0
100
AcDbSpline
 62
7
  6
CONTINUOUS
 70
0
 71
3
 72
25
 73
21
 74
0
 42
0.0000001
 43
0.0000001
 44
0.0000000001
 40
0.0
 40
0.0
 40
0.0
 40
0.0
 40
0.0618715085
 40
0.1239819326
 40
0.1863056791
 40
0.2488133587
 40
0.3114722549
 40
0.3742469596
 40
0.4371000107
 40
0.4999925636
 40
0.5628850783
 40
0.6257380154
 40
0.6885125321
 40
0.7198628123
 40
0.7511796021
 40
0.8136869547
 40
0.8760103162
 40
0.9070979862
 40
0.9381289465
 40
1.0
 40
1.0
 40
1.0
 40
1.0
 10
11.5532290591
 20
7.4564912289
 30
0.0
 10
11.5456308017
 20
7.4586353091
 30
0.0
 10
11.5305456035
 20
7.4634489009
 30
0.0
 10
11.5084169383
 20
7.4721828385
 30
0.0
 10
11.486843707
 20
7.4824038419
 30
0.0
 10
11.4659321725
 20
7.4940616965
 30
0.0
 10
11.4457836167
 20
7.5070997181
 30
0.0
 10
11.4264960842
 20
7.5214544007
 30
0.0
 10
11.4081633011
 20
7.5370559102
 30
0.0
 10
11.3908744255
 20
7.5538283117
 30
0.0
 10
11.3747134248
 20
7.5716901868
 30
0.0
 10
11.3597592419
 20
7.5905541347
 30
0.0
 10
11.3483573712
 20
7.6070420726
 30
0.0
 10
11.3399094901
 20
7.6206408408
 30
0.0
 10
11.3319291229
 20
7.634479837
 30
0.0
 10
11.3228312583
 20
7.6522235542
 30
0.0
 10
11.3149372717
 20
7.6705029498
 30
0.0
 10
11.3093765801
 20
7.6853795032
 30
0.0
 10
11.304334101
 20
7.7003780392
 30
0.0
 10
11.301122178
 20
7.7118014151
 30
0.0
 10
11.2992437535
 20
7.7194696092
 30
0.0
  0
SPLINE
  5
3AE
100
AcDbEntity
  8
0
100
AcDbSpline
 62
7
  6
CONTINUOUS
 70
0
 71
3
 72
16
 73
12
 74
0
 42
0.0000001
 43
0.0000001
 44
0.0000000001
 40
0.0
 40
0.0
 40
0.0
 40
0.0
 40
0.1081438537
 40
0.2181187553
 40
0.3316584918
 40
0.4503233556
 40
0.5120293364
 40
0.575504255
 40
0.7082533085
 40
0.8495215773
 40
1.0
 40
1.0
 40
1.0
 40
1.0
 10
13.434891302
 20
7.2066420205
 30
0.0
 10
13.43548588
 20
7.2066007789
 30
0.0
 10
13.4366923146
 20
7.2065993674
 30
0.0
 10
13.4385090083
 20
7.2068420818
 30
0.0
 10
13.4403360164
 20
7.2073281447
 30
0.0
 10
13.4418450549
 20
7.2079266735
 30
0.0
 10
13.4430518481
 20
7.2085190644
 30
0.0
 10
13.4442952887
 20
7.209209066
 30
0.0
 10
13.4458546409
 20
7.2102280521
 30
0.0
 10
13.4477006918
 20
7.2116687983
 30
0.0
 10
13.4488929361
 20
7.2127498862
 30
0.0
 10
13.4494894301
 20
7.2133260552
 30
0.0
  0
SPLINE
  5
3AF
100
AcDbEntity
  8
0
100
AcDbSpline
 62
7
  6
CONTINUOUS
 70
0
 71
3
 72
16
 73
12
 74
0
 42
0.0000001
 43
0.0000001
 44
0.0000000001
 40
0.0
 40
0.0
 40
0.0
 40
0.0
 40
0.1081438537
 40
0.2181187553
 40
0.3316584918
 40
0.4503233556
 40
0.5120293364
 40
0.575504255
 40
0.7082533085
 40
0.8495215773
 40
1.0
 40
1.0
 40
1.0
 40
1.0
 10
12.399615976
 20
6.2066427865
 30
0.0
 10
12.4002105539
 20
6.2066015449
 30
0.0
 10
12.4014169886
 20
6.2066001334
 30
0.0
 10
12.4032336823
 20
6.2068428478
 30
0.0
 10
12.4050606904
 20
6.2073289107
 30
0.0
 10
12.4065697289
 20
6.2079274395
 30
0.0
 10
12.4077765221
 20
6.2085198304
 30
0.0
 10
12.4090199627
 20
6.2092098321
 30
0.0
 10
12.4105793149
 20
6.2102288181
 30
0.0
 10
12.4124253658
 20
6.2116695643
 30
0.0
 10
12.4136176101
 20
6.2127506523
 30
0.0
 10
12.414214104
 20
6.2133268212
 30
0.0
  0
SPLINE
  5
3B0
100
AcDbEntity
  8
0
100
AcDbSpline
 62
7
  6
CONTINUOUS
 70
0
 71
3
 72
25
 73
21
 74
0
 42
0.0000001
 43
0.0000001
 44
0.0000000001
 40
0.0
 40
0.0
 40
0.0
 40
0.0
 40
0.0618715085
 40
0.1239819326
 40
0.1863056791
 40
0.2488133587
 40
0.3114722549
 40
0.3742469596
 40
0.4371000107
 40
0.4999925636
 40
0.5628850783
 40
0.6257380154
 40
0.6885125321
 40
0.7198628123
 40
0.7511796021
 40
0.8136869547
 40
0.8760103162
 40
0.9070979862
 40
0.9381289465
 40
1.0
 40
1.0
 40
1.0
 40
1.0
 10
10.1043402338
 20
7.5569720102
 30
0.0
 10
10.0967419764
 20
7.5591160904
 30
0.0
 10
10.0816567782
 20
7.5639296822
 30
0.0
 10
10.0595281131
 20
7.5726636198
 30
0.0
 10
10.0379548818
 20
7.5828846232
 30
0.0
 10
10.0170433472
 20
7.5945424778
 30
0.0
 10
9.9968947914
 20
7.6075804994
 30
0.0
 10
9.9776072589
 20
7.6219351821
 30
0.0
 10
9.9592744758
 20
7.6375366915
 30
0.0
 10
9.9419856002
 20
7.654309093
 30
0.0
 10
9.9258245996
 20
7.6721709681
 30
0.0
 10
9.9108704166
 20
7.691034916
 30
0.0
 10
9.899468546
 20
7.7075228539
 30
0.0
 10
9.8910206648
 20
7.7211216221
 30
0.0
 10
9.8830402977
 20
7.7349606183
 30
0.0
 10
9.873942433
 20
7.7527043355
 30
0.0
 10
9.8660484464
 20
7.7709837311
 30
0.0
 10
9.8604877548
 20
7.7858602846
 30
0.0
 10
9.8554452757
 20
7.8008588205
 30
0.0
 10
9.8522333527
 20
7.8122821964
 30
0.0
 10
9.8503549282
 20
7.8199503905
 30
0.0
  0
SPLINE
  5
3B1
100
AcDbEntity
  8
0
100
AcDbSpline
 62
7
  6
CONTINUOUS
 70
0
 71
3
 72
17
 73
13
 74
0
 42
0.0000001
 43
0.0000001
 44
0.0000000001
 40
0.0
 40
0.0
 40
0.0
 40
0.0
 40
0.0489466125
 40
0.0998046698
 40
0.1525639241
 40
0.2072096699
 40
0.3220758418
 40
0.4442150528
 40
0.5733827439
 40
0.709291429
 40
0.851616348
 40
1.0
 40
1.0
 40
1.0
 40
1.0
 10
11.1004873917
 20
7.334756879
 30
0.0
 10
11.0986292964
 20
7.3356747467
 30
0.0
 10
11.0948147063
 20
7.337494399
 30
0.0
 10
11.0889165086
 20
7.3401299435
 30
0.0
 10
11.0827365303
 20
7.342722002
 30
0.0
 10
11.0739810457
 20
7.3461748679
 30
0.0
 10
11.0623574415
 20
7.350353818
 30
0.0
 10
11.0475898632
 20
7.3550843276
 30
0.0
 10
11.0318252241
 20
7.359595667
 30
0.0
 10
11.0151123099
 20
7.3638736884
 30
0.0
 10
10.9975028051
 20
7.3679049268
 30
0.0
 10
10.9854421591
 20
7.3703702889
 30
0.0
 10
10.9792737577
 20
7.3715631405
 30
0.0
  0
SPLINE
  5
3B2
100
AcDbEntity
  8
0
100
AcDbSpline
 62
7
  6
CONTINUOUS
 70
0
 71
3
 72
15
 73
11
 74
0
 42
0.0000001
 43
0.0000001
 44
0.0000000001
 40
0.0
 40
0.0
 40
0.0
 40
0.0
 40
0.1063067529
 40
0.2183332692
 40
0.3359189132
 40
0.4588777954
 40
0.5870018289
 40
0.7200632323
 40
0.8578165027
 40
1.0
 40
1.0
 40
1.0
 40
1.0
 10
11.1225324816
 20
7.3219883426
 30
0.0
 10
11.1181096033
 20
7.3236574072
 30
0.0
 10
11.1089662932
 20
7.3269289269
 30
0.0
 10
11.0947548711
 20
7.3315367867
 30
0.0
 10
11.0797131181
 20
7.3359655543
 30
0.0
 10
11.0638749685
 20
7.3402051007
 30
0.0
 10
11.0472759305
 20
7.3442458096
 30
0.0
 10
11.0299533308
 20
7.3480784818
 30
0.0
 10
11.0119462259
 20
7.3516943841
 30
0.0
 10
10.9996978008
 20
7.3539212256
 30
0.0
 10
10.9934676629
 20
7.3549992753
 30
0.0
  0
SPLINE
  5
3B3
100
AcDbEntity
  8
0
100
AcDbSpline
 62
7
  6
CONTINUOUS
 70
0
 71
3
 72
43
 73
39
 74
0
 42
0.0000001
 43
0.0000001
 44
0.0000000001
 40
0.0
 40
0.0
 40
0.0
 40
0.0
 40
0.0149644519
 40
0.029945728
 40
0.0449459508
 40
0.0599671551
 40
0.0900754905
 40
0.1202894876
 40
0.1354422366
 40
0.1506257404
 40
0.1658411623
 40
0.1810895096
 40
0.2116838487
 40
0.2424182149
 40
0.2732950533
 40
0.3043142597
 40
0.3354732171
 40
0.3667668749
 40
0.3981878673
 40
0.4297266664
 40
0.4613717669
 40
0.4931098977
 40
0.5249262566
 40
0.5568047641
 40
0.588728332
 40
0.6206791447
 40
0.6526389479
 40
0.6845893426
 40
0.7165120809
 40
0.7483893602
 40
0.7802041119
 40
0.811940283
 40
0.843583102
 40
0.8751193426
 40
0.9065375159
 40
0.9378282353
 40
0.968983917
 40
1.0
 40
1.0
 40
1.0
 40
1.0
 10
9.3844823754
 20
7.8333169235
 30
0.0
 10
9.38145336
 20
7.8287417133
 30
0.0
 10
9.3755541956
 20
7.8194775144
 30
0.0
 10
9.3671991394
 20
7.8052682785
 30
0.0
 10
9.3593419
 20
7.7907537182
 30
0.0
 10
9.3495346564
 20
7.7710029503
 30
0.0
 10
9.3385619979
 20
7.7456228254
 30
0.0
 10
9.329373834
 20
7.7194928887
 30
0.0
 10
9.3231063418
 20
7.6981900263
 30
0.0
 10
9.3189475904
 20
7.6820100478
 30
0.0
 10
9.3153405822
 20
7.6656623206
 30
0.0
 10
9.3112679092
 20
7.6436439715
 30
0.0
 10
9.3075785426
 20
7.6157850095
 30
0.0
 10
9.3054136812
 20
7.5820203553
 30
0.0
 10
9.3055147204
 20
7.5480302713
 30
0.0
 10
9.3078811467
 20
7.513967018
 30
0.0
 10
9.312502112
 20
7.479981823
 30
0.0
 10
9.3193568355
 20
7.4462258732
 30
0.0
 10
9.3284146106
 20
7.4128492025
 30
0.0
 10
9.3396349701
 20
7.3800001523
 30
0.0
 10
9.3529678574
 20
7.3478246847
 30
0.0
 10
9.3683538609
 20
7.316465752
 30
0.0
 10
9.3857244775
 20
7.2860626659
 30
0.0
 10
9.4050024168
 20
7.2567504859
 30
0.0
 10
9.4261019435
 20
7.2286594259
 30
0.0
 10
9.448929256
 20
7.201914281
 30
0.0
 10
9.4733829003
 20
7.1766338786
 30
0.0
 10
9.4993542175
 20
7.1529305549
 30
0.0
 10
9.5267278225
 20
7.1309096608
 30
0.0
 10
9.5553821092
 20
7.1106690926
 30
0.0
 10
9.5851897861
 20
7.0922988597
 30
0.0
 10
9.6160184441
 20
7.0758806926
 30
0.0
 10
9.6477311208
 20
7.0614876734
 30
0.0
 10
9.680186961
 20
7.0491839328
 30
0.0
 10
9.7132416277
 20
7.0390243114
 30
0.0
 10
9.7467487043
 20
7.03105422
 30
0.0
 10
9.7805573358
 20
7.0253093382
 30
0.0
 10
9.8032537997
 20
7.0229745233
 30
0.0
 10
9.8145992438
 20
7.0221877141
 30
0.0
  0
SPLINE
  5
3B4
100
AcDbEntity
  8
0
100
AcDbSpline
 62
7
  6
CONTINUOUS
 70
0
 71
3
 72
32
 73
28
 74
0
 42
0.0000001
 43
0.0000001
 44
0.0000000001
 40
0.0
 40
0.0
 40
0.0
 40
0.0
 40
0.0662965078
 40
0.1343432123
 40
0.2037630172
 40
0.2741846199
 40
0.3452173247
 40
0.4164259314
 40
0.487307313
 40
0.5224462963
 40
0.5572757853
 40
0.591708348
 40
0.6256516236
 40
0.6590092748
 40
0.691682411
 40
0.7235712543
 40
0.7545771913
 40
0.7846052585
 40
0.8135665285
 40
0.8413804955
 40
0.867977459
 40
0.8933009513
 40
0.9173097338
 40
0.9399794576
 40
0.9613043535
 40
0.981298988
 40
1.0
 40
1.0
 40
1.0
 40
1.0
 10
11.0829602304
 20
7.7804850423
 30
0.0
 10
11.0819605325
 20
7.7709267995
 30
0.0
 10
11.0804589004
 20
7.7514995671
 30
0.0
 10
11.0797154627
 20
7.7219590924
 30
0.0
 10
11.0804711888
 20
7.6918206207
 30
0.0
 10
11.082703299
 20
7.6613227091
 30
0.0
 10
11.0863406041
 20
7.6307004419
 30
0.0
 10
11.091261298
 20
7.6001923328
 30
0.0
 10
11.0962989474
 20
7.5749942086
 30
0.0
 10
11.1007849522
 20
7.5550748512
 30
0.0
 10
11.1043241984
 20
7.5403599481
 30
0.0
 10
11.1080094298
 20
7.5258598798
 30
0.0
 10
11.111798687
 20
7.5116074077
 30
0.0
 10
11.1156467763
 20
7.4976351833
 30
0.0
 10
11.1195058923
 20
7.4839752961
 30
0.0
 10
11.123326153
 20
7.4706588529
 30
0.0
 10
11.1270562516
 20
7.4577154688
 30
0.0
 10
11.1306442891
 20
7.4451727955
 30
0.0
 10
11.1340387216
 20
7.4330561175
 30
0.0
 10
11.1371891998
 20
7.4213880183
 30
0.0
 10
11.1400473764
 20
7.4101881151
 30
0.0
 10
11.1425677428
 20
7.3994729522
 30
0.0
 10
11.1447082998
 20
7.3892560088
 30
0.0
 10
11.1464309721
 20
7.3795479523
 30
0.0
 10
11.1477018916
 20
7.3703566478
 30
0.0
 10
11.1484915298
 20
7.3616884984
 30
0.0
 10
11.1486866918
 20
7.3560782693
 30
0.0
 10
11.1486872792
 20
7.3533673599
 30
0.0
  0
SPLINE
  5
3B5
100
AcDbEntity
  8
0
100
AcDbSpline
 62
7
  6
CONTINUOUS
 70
0
 71
3
 72
69
 73
65
 74
0
 42
0.0000001
 43
0.0000001
 44
0.0000000001
 40
0.0
 40
0.0
 40
0.0
 40
0.0
 40
0.0156218718
 40
0.0311913358
 40
0.0467075081
 40
0.0621721377
 40
0.0775863849
 40
0.0929522211
 40
0.1082720829
 40
0.1235488451
 40
0.1387858399
 40
0.153986804
 40
0.1691558513
 40
0.1842974309
 40
0.1994162798
 40
0.2145173748
 40
0.2296058824
 40
0.2446871044
 40
0.2597664203
 40
0.2748492287
 40
0.2899408906
 40
0.3050466736
 40
0.3201716955
 40
0.335320869
 40
0.3504988497
 40
0.3657099913
 40
0.3809583021
 40
0.3962474046
 40
0.4115804995
 40
0.4269603376
 40
0.4423891988
 40
0.4578688723
 40
0.473400641
 40
0.4889852745
 40
0.5046230298
 40
0.5203136537
 40
0.5360563878
 40
0.5518499798
 40
0.5676927033
 40
0.5835823784
 40
0.599516394
 40
0.6154917331
 40
0.631505006
 40
0.6475524851
 40
0.6797250749
 40
0.7119829169
 40
0.7281361784
 40
0.7442962422
 40
0.7604580846
 40
0.7766166677
 40
0.7927669824
 40
0.8089040898
 40
0.8250231659
 40
0.8411195463
 40
0.8571887667
 40
0.8732265999
 40
0.8892290958
 40
0.9051926279
 40
0.9211139017
 40
0.9369900319
 40
0.952818567
 40
0.968597187
 40
0.9843251317
 40
1.0
 40
1.0
 40
1.0
 40
1.0
 10
9.3911681392
 20
9.3427165085
 30
0.0
 10
9.3846209936
 20
9.3431705546
 30
0.0
 10
9.3715242526
 20
9.3437583819
 30
0.0
 10
9.3518946595
 20
9.3436734333
 30
0.0
 10
9.3323587416
 20
9.3426203198
 30
0.0
 10
9.3129644778
 20
9.3406017615
 30
0.0
 10
9.2937582067
 20
9.3376223855
 30
0.0
 10
9.2747863507
 20
9.3336893948
 30
0.0
 10
9.256094607
 20
9.3288122421
 30
0.0
 10
9.2377280417
 20
9.3230026267
 30
0.0
 10
9.2197309539
 20
9.316274489
 30
0.0
 10
9.2021467503
 20
9.3086440069
 30
0.0
 10
9.1850178309
 20
9.3001295756
 30
0.0
 10
9.1683855107
 20
9.2907516975
 30
0.0
 10
9.1522899233
 20
9.2805329445
 30
0.0
 10
9.136769915
 20
9.2694979234
 30
0.0
 10
9.1218629077
 20
9.2576732669
 30
0.0
 10
9.1076048575
 20
9.2450874908
 30
0.0
 10
9.0940301645
 20
9.231770939
 30
0.0
 10
9.0811715983
 20
9.2177557077
 30
0.0
 10
9.069060147
 20
9.2030756305
 30
0.0
 10
9.0577249997
 20
9.1877661323
 30
0.0
 10
9.0471934813
 20
9.1718641438
 30
0.0
 10
9.0374910012
 20
9.1554080098
 30
0.0
 10
9.0286409206
 20
9.1384374398
 30
0.0
 10
9.0206645257
 20
9.1209933828
 30
0.0
 10
9.0135810124
 20
9.1031179108
 30
0.0
 10
9.0074074454
 20
9.0848541224
 30
0.0
 10
9.0021586728
 20
9.066246058
 30
0.0
 10
8.9978472672
 20
9.0473385913
 30
0.0
 10
8.9944835688
 20
9.0281772984
 30
0.0
 10
8.9920756522
 20
9.0088083561
 30
0.0
 10
8.990629298
 20
8.9892784382
 30
0.0
 10
8.9901479053
 20
8.9696346046
 30
0.0
 10
8.9906325777
 20
8.9499241762
 30
0.0
 10
8.9920821095
 20
8.9301946263
 30
0.0
 10
8.9944930009
 20
8.9104934742
 30
0.0
 10
8.9978593753
 20
8.8908681613
 30
0.0
 10
9.0021730705
 20
8.8713659349
 30
0.0
 10
9.0074236607
 20
8.8520337537
 30
0.0
 10
9.0135985209
 20
8.832918135
 30
0.0
 10
9.0206826737
 20
8.8140652084
 30
0.0
 10
9.0286592744
 20
8.7955199129
 30
0.0
 10
9.0404666892
 20
8.7712462487
 30
0.0
 10
9.0573592332
 20
8.7419001368
 30
0.0
 10
9.0769050934
 20
8.7141967399
 30
0.0
 10
9.0940343909
 20
8.6931519655
 30
0.0
 10
9.1076048323
 20
8.6779575169
 30
0.0
 10
9.1218579492
 20
8.6633989689
 30
0.0
 10
9.1367597175
 20
8.6495109294
 30
0.0
 10
9.1522741974
 20
8.6363269497
 30
0.0
 10
9.1683640909
 20
8.6238787686
 30
0.0
 10
9.1849906519
 20
8.6121963516
 30
0.0
 10
9.202113856
 20
8.6013078131
 30
0.0
 10
9.219692495
 20
8.5912393804
 30
0.0
 10
9.237684277
 20
8.5820153378
 30
0.0
 10
9.2560458958
 20
8.5736579088
 30
0.0
 10
9.274733145
 20
8.5661872181
 30
0.0
 10
9.293701042
 20
8.5596212693
 30
0.0
 10
9.312903966
 20
8.5539759171
 30
0.0
 10
9.3322955667
 20
8.5492648778
 30
0.0
 10
9.3518295328
 20
8.5454992954
 30
0.0
 10
9.3714579515
 20
8.5426886294
 30
0.0
 10
9.3845987827
 20
8.5414536116
 30
0.0
 10
9.3911681392
 20
8.5409980252
 30
0.0
  0
SPLINE
  5
3B6
100
AcDbEntity
  8
0
100
AcDbSpline
 62
7
  6
CONTINUOUS
 70
0
 71
3
 72
71
 73
67
 74
0
 42
0.0000001
 43
0.0000001
 44
0.0000000001
 40
0.0
 40
0.0
 40
0.0
 40
0.0
 40
0.0156747439
 40
0.0314022082
 40
0.0471806388
 40
0.0630088954
 40
0.0788847426
 40
0.0948057519
 40
0.1107690087
 40
0.1267712324
 40
0.1428087906
 40
0.1588777352
 40
0.1749738406
 40
0.1910926413
 40
0.2072294725
 40
0.2233795109
 40
0.239537818
 40
0.255699384
 40
0.2718591706
 40
0.2880121553
 40
0.3041533743
 40
0.3202779661
 40
0.3363812146
 40
0.3524585914
 40
0.3685057961
 40
0.3845187957
 40
0.4004938614
 40
0.4164276041
 40
0.4323170079
 40
0.4481594607
 40
0.4639527819
 40
0.4796952457
 40
0.4953856017
 40
0.5110230908
 40
0.5266074579
 40
0.5421389597
 40
0.5576183678
 40
0.5730469656
 40
0.5884265412
 40
0.6037593735
 40
0.6190482143
 40
0.6342962647
 40
0.6495071464
 40
0.6646848669
 40
0.6798337803
 40
0.6949585438
 40
0.7100640694
 40
0.7251554736
 40
0.7402380233
 40
0.7553170806
 40
0.7703980447
 40
0.7854862946
 40
0.8005871313
 40
0.8157057213
 40
0.830847042
 40
0.8460158305
 40
0.8612165344
 40
0.8764532676
 40
0.8917297685
 40
0.907049366
 40
0.9224149485
 40
0.9378289216
 40
0.953293278
 40
0.9688092644
 40
0.9843782511
 40
1.0
 40
1.0
 40
1.0
 40
1.0
 10
9.6285085086
 20
7.903024459
 30
0.0
 10
9.6375473926
 20
7.9023976102
 30
0.0
 10
9.6556278742
 20
7.900698382
 30
0.0
 10
9.6826346856
 20
7.896831123
 30
0.0
 10
9.7095114659
 20
7.8916500872
 30
0.0
 10
9.7361924658
 20
7.8851681109
 30
0.0
 10
9.7626138341
 20
7.877400665
 30
0.0
 10
9.7887118406
 20
7.8683665877
 30
0.0
 10
9.8144236948
 20
7.8580876277
 30
0.0
 10
9.8396874992
 20
7.846588585
 30
0.0
 10
9.8644424521
 20
7.8338971844
 30
0.0
 10
9.8886289748
 20
7.8200440115
 30
0.0
 10
9.9121888577
 20
7.8050624403
 30
0.0
 10
9.9350653979
 20
7.7889885523
 30
0.0
 10
9.9572035328
 20
7.7718610501
 30
0.0
 10
9.978549976
 20
7.7537211699
 30
0.0
 10
9.9990533561
 20
7.7346125937
 30
0.0
 10
10.0186643261
 20
7.714581326
 30
0.0
 10
10.0373356825
 20
7.6936755855
 30
0.0
 10
10.055022477
 20
7.6719456906
 30
0.0
 10
10.0716821246
 20
7.6494439394
 30
0.0
 10
10.0872745025
 20
7.6262244836
 30
0.0
 10
10.1017620666
 20
7.6023432123
 30
0.0
 10
10.1151099291
 20
7.5778576061
 30
0.0
 10
10.1272859371
 20
7.5528265971
 30
0.0
 10
10.1382607498
 20
7.5273104296
 30
0.0
 10
10.1480079096
 20
7.5013705171
 30
0.0
 10
10.1565039023
 20
7.4750692944
 30
0.0
 10
10.1637282271
 20
7.4484700737
 30
0.0
 10
10.1696634527
 20
7.4216368916
 30
0.0
 10
10.1742952406
 20
7.39463435
 30
0.0
 10
10.1776123831
 20
7.3675274644
 30
0.0
 10
10.1796068304
 20
7.3403815081
 30
0.0
 10
10.1802737106
 20
7.3132618577
 30
0.0
 10
10.179611343
 20
7.2862338364
 30
0.0
 10
10.1776212675
 20
7.2593625561
 30
0.0
 10
10.174308218
 20
7.2327127589
 30
0.0
 10
10.1696801127
 20
7.2063486635
 30
0.0
 10
10.1637480363
 20
7.1803338111
 30
0.0
 10
10.1565262163
 20
7.1547309128
 30
0.0
 10
10.1480319866
 20
7.1296017002
 30
0.0
 10
10.1382857676
 20
7.1050067689
 30
0.0
 10
10.1273110117
 20
7.0810054304
 30
0.0
 10
10.1151341345
 20
7.0576555733
 30
0.0
 10
10.1017844561
 20
7.035013522
 30
0.0
 10
10.0872941306
 20
7.0131339002
 30
0.0
 10
10.071698069
 20
6.9920694986
 30
0.0
 10
10.0550338603
 20
6.9718711427
 30
0.0
 10
10.0373416935
 20
6.9525875552
 30
0.0
 10
10.018664239
 20
6.9342652512
 30
0.0
 10
9.9990465477
 20
6.9169484239
 30
0.0
 10
9.9785359412
 20
6.9006788377
 30
0.0
 10
9.9571818968
 20
6.8854957259
 30
0.0
 10
9.9350359261
 20
6.871435699
 30
0.0
 10
9.9121514617
 20
6.8585326339
 30
0.0
 10
9.8885837149
 20
6.846817606
 30
0.0
 10
9.8643895374
 20
6.83631882
 30
0.0
 10
9.8396272841
 20
6.8270615431
 30
0.0
 10
9.8143566721
 20
6.819068044
 30
0.0
 10
9.7886386326
 20
6.8123575421
 30
0.0
 10
9.7625351821
 20
6.8069461635
 30
0.0
 10
9.7361092096
 20
6.8028468432
 30
0.0
 10
9.7094245409
 20
6.8000694645
 30
0.0
 10
9.682545081
 20
6.7986205143
 30
0.0
 10
9.6555366464
 20
6.7985035796
 30
0.0
 10
9.6375168329
 20
6.7993124056
 30
0.0
 10
9.6285085086
 20
6.799937135
 30
0.0
  0
SPLINE
  5
3B7
100
AcDbEntity
  8
0
100
AcDbSpline
 62
7
  6
CONTINUOUS
 70
0
 71
3
 72
41
 73
37
 74
0
 42
0.0000001
 43
0.0000001
 44
0.0000000001
 40
0.0
 40
0.0
 40
0.0
 40
0.0
 40
0.0309287651
 40
0.0619887639
 40
0.0931754507
 40
0.1244829626
 40
0.1559032662
 40
0.1874268106
 40
0.219042474
 40
0.2507378149
 40
0.282499237
 40
0.3143121988
 40
0.3461614244
 40
0.3780311232
 40
0.4099052148
 40
0.4417675567
 40
0.4736021725
 40
0.5053934788
 40
0.5371265078
 40
0.5687871237
 40
0.6003622311
 40
0.6318399721
 40
0.6632099092
 40
0.6944631935
 40
0.7255927123
 40
0.7565932168
 40
0.787461424
 40
0.8181960924
 40
0.8487980675
 40
0.8640520703
 40
0.8792741833
 40
0.909621692
 40
0.9398515341
 40
0.9549270739
 40
0.9699767226
 40
1.0
 40
1.0
 40
1.0
 40
1.0
 10
9.5965584122
 20
8.8007260996
 30
0.0
 10
9.5894610392
 20
8.8012183041
 30
0.0
 10
9.5752631115
 20
8.8026492457
 30
0.0
 10
9.5540990037
 20
8.8061125851
 30
0.0
 10
9.5331008858
 20
8.8108841072
 30
0.0
 10
9.5123520318
 20
8.8169448865
 30
0.0
 10
9.4919332717
 20
8.8242711806
 30
0.0
 10
9.4719245477
 20
8.8328342057
 30
0.0
 10
9.4524040741
 20
8.8426004047
 30
0.0
 10
9.4334481803
 20
8.8535315077
 30
0.0
 10
9.415130977
 20
8.865584712
 30
0.0
 10
9.3975240786
 20
8.8787128374
 30
0.0
 10
9.3806963236
 20
8.892864514
 30
0.0
 10
9.3647135078
 20
8.9079843807
 30
0.0
 10
9.3496381294
 20
8.9240133006
 30
0.0
 10
9.3355291461
 20
8.940888591
 30
0.0
 10
9.3224417466
 20
8.9585442664
 30
0.0
 10
9.3104271355
 20
8.9769112945
 30
0.0
 10
9.299532335
 20
8.9959178643
 30
0.0
 10
9.2898000011
 20
9.0154896643
 30
0.0
 10
9.2812682579
 20
9.0355501704
 30
0.0
 10
9.2739705483
 20
9.056020942
 30
0.0
 10
9.2679355031
 20
9.0768219275
 30
0.0
 10
9.2631868276
 20
9.0978717689
 30
0.0
 10
9.2597432102
 20
9.1190881346
 30
0.0
 10
9.2576182372
 20
9.1403879743
 30
0.0
 10
9.2568203724
 20
9.161688077
 30
0.0
 10
9.2573527898
 20
9.1829045199
 30
0.0
 10
9.2589053536
 20
9.2004667052
 30
0.0
 10
9.2608097242
 20
9.2143886715
 30
0.0
 10
9.2631479146
 20
9.2281850336
 30
0.0
 10
9.266886791
 20
9.2452283895
 30
0.0
 10
9.2717103672
 20
9.2619621596
 30
0.0
 10
9.2762041087
 20
9.2751004002
 30
0.0
 10
9.2811078184
 20
9.2880398177
 30
0.0
 10
9.2852580967
 20
9.2975515979
 30
0.0
 10
9.2882276969
 20
9.303786673
 30
0.0
  0
SPLINE
  5
3B8
100
AcDbEntity
  8
0
100
AcDbSpline
 62
4
  6
CONTINUOUS
 70
0
 71
3
 72
345
 73
341
 74
0
 42
0.0000001
 43
0.0000001
 44
0.0000000001
 40
0.0
 40
0.0
 40
0.0
 40
0.0
 40
0.015625
 40
0.0234375
 40
0.03125
 40
0.0390625
 40
0.04296875
 40
0.046875
 40
0.05078125
 40
0.0546875
 40
0.056640625
 40
0.05859375
 40
0.0595703125
 40
0.060546875
 40
0.0615234375
 40
0.0620117188
 40
0.0622558594
 40
0.0625
 40
0.0627441406
 40
0.0629882812
 40
0.0634765625
 40
0.064453125
 40
0.0654296875
 40
0.06640625
 40
0.068359375
 40
0.0703125
 40
0.07421875
 40
0.078125
 40
0.08203125
 40
0.0859375
 40
0.09375
 40
0.1015625
 40
0.10546875
 40
0.109375
 40
0.11328125
 40
0.1171875
 40
0.119140625
 40
0.12109375
 40
0.1220703125
 40
0.123046875
 40
0.1240234375
 40
0.1245117188
 40
0.1247558594
 40
0.125
 40
0.1252441406
 40
0.1254882812
 40
0.1259765625
 40
0.126953125
 40
0.1279296875
 40
0.12890625
 40
0.130859375
 40
0.1328125
 40
0.13671875
 40
0.140625
 40
0.14453125
 40
0.1484375
 40
0.15625
 40
0.1640625
 40
0.16796875
 40
0.171875
 40
0.17578125
 40
0.1796875
 40
0.181640625
 40
0.18359375
 40
0.1845703125
 40
0.185546875
 40
0.1865234375
 40
0.1870117188
 40
0.1875
 40
0.1879882812
 40
0.1884765625
 40
0.189453125
 40
0.1904296875
 40
0.19140625
 40
0.193359375
 40
0.1953125
 40
0.19921875
 40
0.203125
 40
0.20703125
 40
0.2109375
 40
0.21875
 40
0.2265625
 40
0.234375
 40
0.23828125
 40
0.2421875
 40
0.244140625
 40
0.24609375
 40
0.248046875
 40
0.2490234375
 40
0.2495117188
 40
0.25
 40
0.2504882812
 40
0.2509765625
 40
0.251953125
 40
0.25390625
 40
0.255859375
 40
0.2578125
 40
0.26171875
 40
0.265625
 40
0.2734375
 40
0.28125
 40
0.2890625
 40
0.296875
 40
0.30078125
 40
0.3046875
 40
0.306640625
 40
0.30859375
 40
0.310546875
 40
0.3115234375
 40
0.3125
 40
0.3134765625
 40
0.314453125
 40
0.31640625
 40
0.318359375
 40
0.3203125
 40
0.32421875
 40
0.328125
 40
0.3359375
 40
0.34375
 40
0.3515625
 40
0.359375
 40
0.36328125
 40
0.3671875
 40
0.37109375
 40
0.373046875
 40
0.3740234375
 40
0.375
 40
0.3759765625
 40
0.376953125
 40
0.37890625
 40
0.3828125
 40
0.38671875
 40
0.390625
 40
0.3984375
 40
0.40625
 40
0.4140625
 40
0.421875
 40
0.42578125
 40
0.4296875
 40
0.43359375
 40
0.435546875
 40
0.4365234375
 40
0.4375
 40
0.4384765625
 40
0.439453125
 40
0.44140625
 40
0.4453125
 40
0.44921875
 40
0.453125
 40
0.4609375
 40
0.46875
 40
0.4765625
 40
0.484375
 40
0.48828125
 40
0.4921875
 40
0.494140625
 40
0.49609375
 40
0.498046875
 40
0.4990234375
 40
0.4995117188
 40
0.5
 40
0.5004882812
 40
0.5009765625
 40
0.501953125
 40
0.50390625
 40
0.505859375
 40
0.5078125
 40
0.51171875
 40
0.515625
 40
0.5234375
 40
0.53125
 40
0.5390625
 40
0.546875
 40
0.55078125
 40
0.5546875
 40
0.556640625
 40
0.55859375
 40
0.560546875
 40
0.5615234375
 40
0.5620117188
 40
0.5625
 40
0.5629882812
 40
0.5634765625
 40
0.564453125
 40
0.56640625
 40
0.568359375
 40
0.5703125
 40
0.57421875
 40
0.578125
 40
0.5859375
 40
0.59375
 40
0.6015625
 40
0.609375
 40
0.61328125
 40
0.6171875
 40
0.619140625
 40
0.62109375
 40
0.623046875
 40
0.6240234375
 40
0.6245117188
 40
0.625
 40
0.6254882812
 40
0.6259765625
 40
0.626953125
 40
0.62890625
 40
0.630859375
 40
0.6328125
 40
0.63671875
 40
0.640625
 40
0.6484375
 40
0.65625
 40
0.6640625
 40
0.66796875
 40
0.671875
 40
0.67578125
 40
0.6796875
 40
0.681640625
 40
0.68359375
 40
0.685546875
 40
0.6865234375
 40
0.6870117188
 40
0.6875
 40
0.6879882812
 40
0.6884765625
 40
0.689453125
 40
0.69140625
 40
0.693359375
 40
0.6953125
 40
0.69921875
 40
0.703125
 40
0.70703125
 40
0.7109375
 40
0.71875
 40
0.7265625
 40
0.73046875
 40
0.734375
 40
0.73828125
 40
0.7421875
 40
0.744140625
 40
0.74609375
 40
0.7470703125
 40
0.748046875
 40
0.7490234375
 40
0.7495117188
 40
0.7497558594
 40
0.75
 40
0.7502441406
 40
0.7504882812
 40
0.7509765625
 40
0.751953125
 40
0.7529296875
 40
0.75390625
 40
0.755859375
 40
0.7578125
 40
0.76171875
 40
0.765625
 40
0.76953125
 40
0.7734375
 40
0.78125
 40
0.7890625
 40
0.79296875
 40
0.796875
 40
0.80078125
 40
0.8046875
 40
0.806640625
 40
0.80859375
 40
0.8095703125
 40
0.810546875
 40
0.8115234375
 40
0.8120117188
 40
0.8122558594
 40
0.8125
 40
0.8127441406
 40
0.8129882812
 40
0.8134765625
 40
0.814453125
 40
0.8154296875
 40
0.81640625
 40
0.818359375
 40
0.8203125
 40
0.82421875
 40
0.828125
 40
0.83203125
 40
0.8359375
 40
0.84375
 40
0.8515625
 40
0.85546875
 40
0.859375
 40
0.86328125
 40
0.8671875
 40
0.869140625
 40
0.87109375
 40
0.8720703125
 40
0.873046875
 40
0.8740234375
 40
0.8745117188
 40
0.8747558594
 40
0.875
 40
0.8752441406
 40
0.8754882812
 40
0.8759765625
 40
0.876953125
 40
0.8779296875
 40
0.87890625
 40
0.880859375
 40
0.8828125
 40
0.88671875
 40
0.890625
 40
0.89453125
 40
0.8984375
 40
0.90625
 40
0.9140625
 40
0.91796875
 40
0.921875
 40
0.92578125
 40
0.9296875
 40
0.931640625
 40
0.93359375
 40
0.9345703125
 40
0.935546875
 40
0.9365234375
 40
0.9370117188
 40
0.9372558594
 40
0.9375
 40
0.9377441406
 40
0.9379882812
 40
0.9384765625
 40
0.939453125
 40
0.9404296875
 40
0.94140625
 40
0.943359375
 40
0.9453125
 40
0.94921875
 40
0.953125
 40
0.95703125
 40
0.9609375
 40
0.96875
 40
0.9765625
 40
0.984375
 40
1.0
 40
1.0
 40
1.0
 40
1.0
 10
12.8178679562
 20
8.6668306013
 30
0.0
 10
12.817028422
 20
8.6657124618
 30
0.0
 10
12.8157691208
 20
8.6640352527
 30
0.0
 10
12.8140900525
 20
8.6617989738
 30
0.0
 10
12.8128307512
 20
8.6601217646
 30
0.0
 10
12.8117813335
 20
8.6587240904
 30
0.0
 10
12.8109417994
 20
8.6576059507
 30
0.0
 10
12.8103121487
 20
8.656767347
 30
0.0
 10
12.8096824983
 20
8.655928739
 30
0.0
 10
12.8091577888
 20
8.6552299127
 30
0.0
 10
12.808738023
 20
8.6546708208
 30
0.0
 10
12.8084756654
 20
8.6543214586
 30
0.0
 10
12.8082657883
 20
8.654041808
 30
0.0
 10
12.8081083559
 20
8.6538325107
 30
0.0
 10
12.8079772406
 20
8.6536566943
 30
0.0
 10
12.807885306
 20
8.6535363741
 30
0.0
 10
12.8078330122
 20
8.6534633239
 30
0.0
 10
12.8077931151
 20
8.6534206376
 30
0.0
 10
12.8077558048
 20
8.6533316936
 30
0.0
 10
12.8077051555
 20
8.6532292368
 30
0.0
 10
12.8076169395
 20
8.6530424197
 30
0.0
 10
12.8074906969
 20
8.6527794684
 30
0.0
 10
12.8073392998
 20
8.6524622446
 30
0.0
 10
12.8071374042
 20
8.6520398671
 30
0.0
 10
12.8068850459
 20
8.6515116941
 30
0.0
 10
12.8064812664
 20
8.6506667297
 30
0.0
 10
12.8059765441
 20
8.6496104856
 30
0.0
 10
12.8053708765
 20
8.6483430092
 30
0.0
 10
12.8047652091
 20
8.6470755284
 30
0.0
 10
12.8039576526
 20
8.6453855555
 30
0.0
 10
12.8029482069
 20
8.6432730888
 30
0.0
 10
12.8019387611
 20
8.6411606225
 30
0.0
 10
12.8011312046
 20
8.6394706491
 30
0.0
 10
12.8005255371
 20
8.63820317
 30
0.0
 10
12.79991987
 20
8.636935687
 30
0.0
 10
12.799415146
 20
8.6358794634
 30
0.0
 10
12.7990113701
 20
8.6350344571
 30
0.0
 10
12.7987590025
 20
8.6345063906
 30
0.0
 10
12.7985571261
 20
8.6340837945
 30
0.0
 10
12.7984056704
 20
8.6337672386
 30
0.0
 10
12.7982796112
 20
8.6335021978
 30
0.0
 10
12.7981910678
 20
8.6333191108
 30
0.0
 10
12.798140943
 20
8.6332106774
 30
0.0
 10
12.7981020216
 20
8.6331400916
 30
0.0
 10
12.7980681753
 20
8.6330284551
 30
0.0
 10
12.7980212767
 20
8.6328939254
 30
0.0
 10
12.7979400289
 20
8.632651827
 30
0.0
 10
12.7978235294
 20
8.63230946
 30
0.0
 10
12.7976839146
 20
8.6318971266
 30
0.0
 10
12.7974976971
 20
8.6313478703
 30
0.0
 10
12.7972649472
 20
8.6306611214
 30
0.0
 10
12.7968925351
 20
8.6295624229
 30
0.0
 10
12.7964270241
 20
8.6281890155
 30
0.0
 10
12.7958684092
 20
8.6265409413
 30
0.0
 10
12.7953097948
 20
8.6248928632
 30
0.0
 10
12.7945649753
 20
8.6226954271
 30
0.0
 10
12.7936339511
 20
8.6199486316
 30
0.0
 10
12.7927029269
 20
8.6172018358
 30
0.0
 10
12.7919581074
 20
8.6150044002
 30
0.0
 10
12.7913994932
 20
8.6133563207
 30
0.0
 10
12.7908408773
 20
8.6117082516
 30
0.0
 10
12.7903753695
 20
8.6103348284
 30
0.0
 10
12.790002951
 20
8.6092361621
 30
0.0
 10
12.7897702173
 20
8.6085493313
 30
0.0
 10
12.7895839665
 20
8.608000243
 30
0.0
 10
12.7894444533
 20
8.6075873964
 30
0.0
 10
12.7893276359
 20
8.6072466354
 30
0.0
 10
12.7892354298
 20
8.606966675
 30
0.0
 10
12.7891628658
 20
8.6067767928
 30
0.0
 10
12.7891033155
 20
8.6065102338
 30
0.0
 10
12.7890193693
 20
8.6061816061
 30
0.0
 10
12.7889159962
 20
8.6057616319
 30
0.0
 10
12.7887912809
 20
8.6052615963
 30
0.0
 10
12.788625227
 20
8.6045935083
 30
0.0
 10
12.7884175798
 20
8.6037588687
 30
0.0
 10
12.7880853889
 20
8.6024231825
 30
0.0
 10
12.787670135
 20
8.6007536649
 30
0.0
 10
12.7871718368
 20
8.5987502051
 30
0.0
 10
12.7866735369
 20
8.5967467556
 30
0.0
 10
12.7860091376
 20
8.594075486
 30
0.0
 10
12.7851786379
 20
8.5907364011
 30
0.0
 10
12.7841820404
 20
8.5867294943
 30
0.0
 10
12.7833515362
 20
8.5833904189
 30
0.0
 10
12.7826871468
 20
8.5807191284
 30
0.0
 10
12.7822718718
 20
8.5790496404
 30
0.0
 10
12.7819397243
 20
8.5777138931
 30
0.0
 10
12.7816904149
 20
8.5767125121
 30
0.0
 10
12.7814832895
 20
8.5758766617
 30
0.0
 10
12.7813370606
 20
8.5752942477
 30
0.0
 10
12.781255439
 20
8.5749572531
 30
0.0
 10
12.7811887643
 20
8.5747163009
 30
0.0
 10
12.7811429547
 20
8.5744302668
 30
0.0
 10
12.7810745972
 20
8.574064613
 30
0.0
 10
12.7809583626
 20
8.5734173924
 30
0.0
 10
12.7807905403
 20
8.5724966219
 30
0.0
 10
12.7805899124
 20
8.5713900578
 30
0.0
 10
12.7803221435
 20
8.5699152116
 30
0.0
 10
12.7799875231
 20
8.5680714578
 30
0.0
 10
12.7794520798
 20
8.5651215613
 30
0.0
 10
12.7787827927
 20
8.5614341535
 30
0.0
 10
12.7779796423
 20
8.5570092778
 30
0.0
 10
12.777176488
 20
8.5525844069
 30
0.0
 10
12.7765072109
 20
8.548896987
 30
0.0
 10
12.7759717476
 20
8.5459471148
 30
0.0
 10
12.7756371779
 20
8.5441032992
 30
0.0
 10
12.7753693049
 20
8.5426285798
 30
0.0
 10
12.7751689951
 20
8.5415216284
 30
0.0
 10
12.7750001775
 20
8.5406020696
 30
0.0
 10
12.7748693686
 20
8.5398599168
 30
0.0
 10
12.774759662
 20
8.5393210789
 30
0.0
 10
12.7746942327
 20
8.5387143874
 30
0.0
 10
12.774591527
 20
8.5379291675
 30
0.0
 10
12.7744684513
 20
8.5369395106
 30
0.0
 10
12.7743184892
 20
8.535755403
 30
0.0
 10
12.7741193331
 20
8.5341753772
 30
0.0
 10
12.7738701163
 20
8.5322007612
 30
0.0
 10
12.7734715211
 20
8.5290411431
 30
0.0
 10
12.7729732265
 20
8.5250916994
 30
0.0
 10
12.7723752885
 20
8.5203523367
 30
0.0
 10
12.7717773692
 20
8.5156129686
 30
0.0
 10
12.7712790278
 20
8.5116635382
 30
0.0
 10
12.770880526
 20
8.5085038935
 30
0.0
 10
12.770581181
 20
8.5061344353
 30
0.0
 10
12.7703332174
 20
8.504159011
 30
0.0
 10
12.7701567178
 20
8.5027779327
 30
0.0
 10
12.7700604282
 20
8.5019860614
 30
0.0
 10
12.7699753449
 20
8.5013997179
 30
0.0
 10
12.7699394423
 20
8.5007844767
 30
0.0
 10
12.7698744174
 20
8.499974235
 30
0.0
 10
12.7697686166
 20
8.4985516156
 30
0.0
 10
12.7696132939
 20
8.4965217575
 30
0.0
 10
12.7694286953
 20
8.4940848769
 30
0.0
 10
12.7691819388
 20
8.4908360698
 30
0.0
 10
12.7688737092
 20
8.4867749347
 30
0.0
 10
12.7685037345
 20
8.4819016277
 30
0.0
 10
12.7681338107
 20
8.4770283026
 30
0.0
 10
12.7678254539
 20
8.4729672126
 30
0.0
 10
12.7675789517
 20
8.4697183153
 30
0.0
 10
12.7673935775
 20
8.4672817099
 30
0.0
 10
12.7672406813
 20
8.4652509907
 30
0.0
 10
12.7671305487
 20
8.4638299085
 30
0.0
 10
12.7670724645
 20
8.4630172038
 30
0.0
 10
12.7670152423
 20
8.4624095283
 30
0.0
 10
12.767010232
 20
8.4617947693
 30
0.0
 10
12.7669853396
 20
8.4609775615
 30
0.0
 10
12.7669502631
 20
8.4595462967
 30
0.0
 10
12.7668957177
 20
8.4575022344
 30
0.0
 10
12.7668321621
 20
8.4550491022
 30
0.0
 10
12.7667467579
 20
8.4517783491
 30
0.0
 10
12.7666402304
 20
8.447689877
 30
0.0
 10
12.7665122991
 20
8.4427837229
 30
0.0
 10
12.7663843966
 20
8.4378775686
 30
0.0
 10
12.7662777972
 20
8.433789097
 30
0.0
 10
12.7661925369
 20
8.430518343
 30
0.0
 10
12.766139208
 20
8.4284740684
 30
0.0
 10
12.7660966391
 20
8.426838771
 30
0.0
 10
12.7660644542
 20
8.4256119632
 30
0.0
 10
12.7660384552
 20
8.424590688
 30
0.0
 10
12.7660186432
 20
8.4238737063
 30
0.0
 10
12.7660098401
 20
8.4234672642
 30
0.0
 10
12.7659961445
 20
8.4231532441
 30
0.0
 10
12.766009563
 20
8.4228743475
 30
0.0
 10
12.7660179965
 20
8.4224902338
 30
0.0
 10
12.7660371618
 20
8.421823743
 30
0.0
 10
12.766062237
 20
8.4208686291
 30
0.0
 10
12.7660933133
 20
8.4197237697
 30
0.0
 10
12.7661344039
 20
8.4181968444
 30
0.0
 10
12.7661858851
 20
8.4162883405
 30
0.0
 10
12.7662681891
 20
8.4132346489
 30
0.0
 10
12.766371092
 20
8.4094175639
 30
0.0
 10
12.7664945649
 20
8.4048370482
 30
0.0
 10
12.766618043
 20
8.4002565402
 30
0.0
 10
12.7667209331
 20
8.3964394361
 30
0.0
 10
12.7668032626
 20
8.3933857827
 30
0.0
 10
12.7668546789
 20
8.3914771817
 30
0.0
 10
12.7668959029
 20
8.3899504558
 30
0.0
 10
12.7669265719
 20
8.388804987
 30
0.0
 10
12.7669529213
 20
8.3878517798
 30
0.0
 10
12.7669698118
 20
8.3871818853
 30
0.0
 10
12.7669818901
 20
8.3868032253
 30
0.0
 10
12.7669841133
 20
8.3865075766
 30
0.0
 10
12.767012465
 20
8.3862564742
 30
0.0
 10
12.7670411534
 20
8.3859061327
 30
0.0
 10
12.7670956044
 20
8.3853002747
 30
0.0
 10
12.7671711715
 20
8.3844309783
 30
0.0
 10
12.7672628022
 20
8.3833894427
 30
0.0
 10
12.7673846446
 20
8.3820001627
 30
0.0
 10
12.7675370613
 20
8.3802637565
 30
0.0
 10
12.7677808645
 20
8.3774853982
 30
0.0
 10
12.7680856404
 20
8.3740124878
 30
0.0
 10
12.7684513615
 20
8.3698449779
 30
0.0
 10
12.7688170874
 20
8.3656774781
 30
0.0
 10
12.7691218511
 20
8.3622045422
 30
0.0
 10
12.7693656786
 20
8.3594262349
 30
0.0
 10
12.7695180334
 20
8.3576896991
 30
0.0
 10
12.7696400029
 20
8.3563006851
 30
0.0
 10
12.7697312454
 20
8.355258337
 30
0.0
 10
12.7698080272
 20
8.3543915826
 30
0.0
 10
12.7698603098
 20
8.3537811867
 30
0.0
 10
12.7698924725
 20
8.353438116
 30
0.0
 10
12.7699101522
 20
8.3531646802
 30
0.0
 10
12.7699524578
 20
8.3529529119
 30
0.0
 10
12.7700002755
 20
8.3526490439
 30
0.0
 10
12.7700879586
 20
8.352127297
 30
0.0
 10
12.7702111278
 20
8.3513767045
 30
0.0
 10
12.7703598265
 20
8.3504782364
 30
0.0
 10
12.7705577786
 20
8.3492794954
 30
0.0
 10
12.7708053258
 20
8.3477813375
 30
0.0
 10
12.7712013415
 20
8.3453841349
 30
0.0
 10
12.7716963817
 20
8.3423876829
 30
0.0
 10
12.7722904212
 20
8.338791919
 30
0.0
 10
12.7727854556
 20
8.3357954526
 30
0.0
 10
12.7731814838
 20
8.3333982819
 30
0.0
 10
12.773478502
 20
8.3316003946
 30
0.0
 10
12.773775532
 20
8.3298025431
 30
0.0
 10
12.7740230198
 20
8.3283042219
 30
0.0
 10
12.7742210935
 20
8.3271058148
 30
0.0
 10
12.7743694209
 20
8.3262063268
 30
0.0
 10
12.7744937517
 20
8.3254589251
 30
0.0
 10
12.7745793612
 20
8.3249314823
 30
0.0
 10
12.7746305013
 20
8.3246367404
 30
0.0
 10
12.7746626017
 20
8.3243969395
 30
0.0
 10
12.7747186106
 20
8.3242287899
 30
0.0
 10
12.7747849495
 20
8.3239795976
 30
0.0
 10
12.7749049282
 20
8.3235551558
 30
0.0
 10
12.775074295
 20
8.3229427224
 30
0.0
 10
12.7752784046
 20
8.3222104081
 30
0.0
 10
12.775550247
 20
8.3212330788
 30
0.0
 10
12.7758901543
 20
8.3200117296
 30
0.0
 10
12.7762979983
 20
8.3185459766
 30
0.0
 10
12.7767058543
 20
8.3170802594
 30
0.0
 10
12.7772496581
 20
8.3151259574
 30
0.0
 10
12.7779294142
 20
8.3126830841
 30
0.0
 10
12.7786091699
 20
8.3102402091
 30
0.0
 10
12.7791529746
 20
8.3082859099
 30
0.0
 10
12.7795608278
 20
8.3068201842
 30
0.0
 10
12.779968682
 20
8.3053544631
 30
0.0
 10
12.7803085578
 20
8.3041330148
 30
0.0
 10
12.7805804643
 20
8.3031558877
 30
0.0
 10
12.7807503926
 20
8.3025451112
 30
0.0
 10
12.7808863656
 20
8.302056655
 30
0.0
 10
12.7809882621
 20
8.3016898614
 30
0.0
 10
12.7810734408
 20
8.3013856359
 30
0.0
 10
12.781132546
 20
8.3011698603
 30
0.0
 10
12.7811671321
 20
8.3010509597
 30
0.0
 10
12.7811907852
 20
8.3009493901
 30
0.0
 10
12.7812231782
 20
8.3008951974
 30
0.0
 10
12.7812633204
 20
8.3008064149
 30
0.0
 10
12.7813349896
 20
8.3006587451
 30
0.0
 10
12.7814366316
 20
8.3004437627
 30
0.0
 10
12.7815589198
 20
8.300187507
 30
0.0
 10
12.7817218597
 20
8.2998452308
 30
0.0
 10
12.7819255726
 20
8.2994175917
 30
0.0
 10
12.7822514921
 20
8.2987332539
 30
0.0
 10
12.7826588986
 20
8.2978778712
 30
0.0
 10
12.7831477834
 20
8.296851395
 30
0.0
 10
12.783636669
 20
8.2958249234
 30
0.0
 10
12.7842885162
 20
8.2944562929
 30
0.0
 10
12.7851033253
 20
8.2927455054
 30
0.0
 10
12.7859181343
 20
8.2910347175
 30
0.0
 10
12.7865699816
 20
8.2896660877
 30
0.0
 10
12.7870588669
 20
8.2886396141
 30
0.0
 10
12.7875477528
 20
8.2876131452
 30
0.0
 10
12.7879551556
 20
8.28675774
 30
0.0
 10
12.7882810828
 20
8.2860734481
 30
0.0
 10
12.788484776
 20
8.2856456921
 30
0.0
 10
12.7886477564
 20
8.2853036559
 30
0.0
 10
12.7887699211
 20
8.2850466671
 30
0.0
 10
12.7888719495
 20
8.2848339783
 30
0.0
 10
12.7889429288
 20
8.2846822141
 30
0.0
 10
12.7889841764
 20
8.2845999919
 30
0.0
 10
12.7890131739
 20
8.284525648
 30
0.0
 10
12.7890495801
 20
8.2844997628
 30
0.0
 10
12.7890955375
 20
8.2844483463
 30
0.0
 10
12.7891771669
 20
8.2843662428
 30
0.0
 10
12.789293151
 20
8.2842448347
 30
0.0
 10
12.7894326012
 20
8.2841009074
 30
0.0
 10
12.7896184408
 20
8.2839083887
 30
0.0
 10
12.7898507725
 20
8.2836679512
 30
0.0
 10
12.7902224851
 20
8.2832831332
 30
0.0
 10
12.7906871322
 20
8.2828021513
 30
0.0
 10
12.791244706
 20
8.2822249556
 30
0.0
 10
12.7918022805
 20
8.2816477645
 30
0.0
 10
12.7925457129
 20
8.2808781749
 30
0.0
 10
12.7934750035
 20
8.2799161883
 30
0.0
 10
12.794404294
 20
8.2789542014
 30
0.0
 10
12.7951477265
 20
8.2781846124
 30
0.0
 10
12.7957053008
 20
8.2776074194
 30
0.0
 10
12.7962628755
 20
8.2770302312
 30
0.0
 10
12.7967275196
 20
8.2765492259
 30
0.0
 10
12.7970992383
 20
8.2761644555
 30
0.0
 10
12.7973315547
 20
8.2759238969
 30
0.0
 10
12.7975174256
 20
8.2757316268
 30
0.0
 10
12.79765678
 20
8.27558694
 30
0.0
 10
12.7977730638
 20
8.2754679081
 30
0.0
 10
12.7978541581
 20
8.2753815627
 30
0.0
 10
12.797900973
 20
8.2753369428
 30
0.0
 10
12.7979347452
 20
8.2752901804
 30
0.0
 10
12.7979736355
 20
8.2752942479
 30
0.0
 10
12.7980237039
 20
8.2752819412
 30
0.0
 10
12.7981121554
 20
8.2752686653
 30
0.0
 10
12.7982380799
 20
8.2752453808
 30
0.0
 10
12.7983893754
 20
8.275219288
 30
0.0
 10
12.7985910378
 20
8.2751838519
 30
0.0
 10
12.7988431379
 20
8.2751397779
 30
0.0
 10
12.7992464858
 20
8.275069136
 30
0.0
 10
12.7997506748
 20
8.274980876
 30
0.0
 10
12.8003556999
 20
8.2748749457
 30
0.0
 10
12.8009607254
 20
8.2747690204
 30
0.0
 10
12.8017674259
 20
8.2746277849
 30
0.0
 10
12.8027758017
 20
8.2744512411
 30
0.0
 10
12.8037841774
 20
8.274274697
 30
0.0
 10
12.804590878
 20
8.2741334621
 30
0.0
 10
12.8051959033
 20
8.2740275347
 30
0.0
 10
12.805800929
 20
8.2739216123
 30
0.0
 10
12.806305116
 20
8.273833328
 30
0.0
 10
12.8067084681
 20
8.2737627355
 30
0.0
 10
12.8069605573
 20
8.2737185356
 30
0.0
 10
12.8071622421
 20
8.2736833581
 30
0.0
 10
12.807313469
 20
8.2736564754
 30
0.0
 10
12.8074396082
 20
8.2736356623
 30
0.0
 10
12.8075276764
 20
8.2736179745
 30
0.0
 10
12.807578359
 20
8.2736127367
 30
0.0
 10
12.8076153629
 20
8.2735950907
 30
0.0
 10
12.8076562198
 20
8.2736298807
 30
0.0
 10
12.8077093516
 20
8.2736579772
 30
0.0
 10
12.8078029585
 20
8.2737156677
 30
0.0
 10
12.8079363553
 20
8.2737936275
 30
0.0
 10
12.8080965716
 20
8.2738890863
 30
0.0
 10
12.8083101444
 20
8.2740156985
 30
0.0
 10
12.8085771271
 20
8.2741741919
 30
0.0
 10
12.8090042901
 20
8.2744276539
 30
0.0
 10
12.809538247
 20
8.2747445251
 30
0.0
 10
12.8101789939
 20
8.2751247517
 30
0.0
 10
12.8108197412
 20
8.2755049834
 30
0.0
 10
12.8116740708
 20
8.2760119573
 30
0.0
 10
12.8127419829
 20
8.2766456752
 30
0.0
 10
12.8140234774
 20
8.2774061364
 30
0.0
 10
12.8157321366
 20
8.2784200847
 30
0.0
 10
12.8170136311
 20
8.279180546
 30
0.0
 10
12.8178679607
 20
8.2796875202
 30
0.0
  0
SPLINE
  5
3B9
100
AcDbEntity
  8
0
100
AcDbSpline
 62
4
  6
CONTINUOUS
 70
0
 71
3
 72
345
 73
341
 74
0
 42
0.0000001
 43
0.0000001
 44
0.0000000001
 40
0.0
 40
0.0
 40
0.0
 40
0.0
 40
0.015625
 40
0.0234375
 40
0.03125
 40
0.0390625
 40
0.04296875
 40
0.046875
 40
0.05078125
 40
0.0546875
 40
0.056640625
 40
0.05859375
 40
0.0595703125
 40
0.060546875
 40
0.0615234375
 40
0.0620117188
 40
0.0622558594
 40
0.0625
 40
0.0627441406
 40
0.0629882812
 40
0.0634765625
 40
0.064453125
 40
0.0654296875
 40
0.06640625
 40
0.068359375
 40
0.0703125
 40
0.07421875
 40
0.078125
 40
0.08203125
 40
0.0859375
 40
0.09375
 40
0.1015625
 40
0.10546875
 40
0.109375
 40
0.11328125
 40
0.1171875
 40
0.119140625
 40
0.12109375
 40
0.1220703125
 40
0.123046875
 40
0.1240234375
 40
0.1245117188
 40
0.1247558594
 40
0.125
 40
0.1252441406
 40
0.1254882812
 40
0.1259765625
 40
0.126953125
 40
0.1279296875
 40
0.12890625
 40
0.130859375
 40
0.1328125
 40
0.13671875
 40
0.140625
 40
0.14453125
 40
0.1484375
 40
0.15625
 40
0.1640625
 40
0.16796875
 40
0.171875
 40
0.17578125
 40
0.1796875
 40
0.181640625
 40
0.18359375
 40
0.1845703125
 40
0.185546875
 40
0.1865234375
 40
0.1870117188
 40
0.1875
 40
0.1879882812
 40
0.1884765625
 40
0.189453125
 40
0.1904296875
 40
0.19140625
 40
0.193359375
 40
0.1953125
 40
0.19921875
 40
0.203125
 40
0.20703125
 40
0.2109375
 40
0.21875
 40
0.2265625
 40
0.234375
 40
0.23828125
 40
0.2421875
 40
0.244140625
 40
0.24609375
 40
0.248046875
 40
0.2490234375
 40
0.2495117188
 40
0.25
 40
0.2504882812
 40
0.2509765625
 40
0.251953125
 40
0.25390625
 40
0.255859375
 40
0.2578125
 40
0.26171875
 40
0.265625
 40
0.2734375
 40
0.28125
 40
0.2890625
 40
0.296875
 40
0.30078125
 40
0.3046875
 40
0.306640625
 40
0.30859375
 40
0.310546875
 40
0.3115234375
 40
0.3125
 40
0.3134765625
 40
0.314453125
 40
0.31640625
 40
0.318359375
 40
0.3203125
 40
0.32421875
 40
0.328125
 40
0.3359375
 40
0.34375
 40
0.3515625
 40
0.359375
 40
0.36328125
 40
0.3671875
 40
0.37109375
 40
0.373046875
 40
0.3740234375
 40
0.375
 40
0.3759765625
 40
0.376953125
 40
0.37890625
 40
0.3828125
 40
0.38671875
 40
0.390625
 40
0.3984375
 40
0.40625
 40
0.4140625
 40
0.421875
 40
0.42578125
 40
0.4296875
 40
0.43359375
 40
0.435546875
 40
0.4365234375
 40
0.4375
 40
0.4384765625
 40
0.439453125
 40
0.44140625
 40
0.4453125
 40
0.44921875
 40
0.453125
 40
0.4609375
 40
0.46875
 40
0.4765625
 40
0.484375
 40
0.48828125
 40
0.4921875
 40
0.494140625
 40
0.49609375
 40
0.498046875
 40
0.4990234375
 40
0.4995117188
 40
0.5
 40
0.5004882812
 40
0.5009765625
 40
0.501953125
 40
0.50390625
 40
0.505859375
 40
0.5078125
 40
0.51171875
 40
0.515625
 40
0.5234375
 40
0.53125
 40
0.5390625
 40
0.546875
 40
0.55078125
 40
0.5546875
 40
0.556640625
 40
0.55859375
 40
0.560546875
 40
0.5615234375
 40
0.5620117188
 40
0.5625
 40
0.5629882812
 40
0.5634765625
 40
0.564453125
 40
0.56640625
 40
0.568359375
 40
0.5703125
 40
0.57421875
 40
0.578125
 40
0.5859375
 40
0.59375
 40
0.6015625
 40
0.609375
 40
0.61328125
 40
0.6171875
 40
0.619140625
 40
0.62109375
 40
0.623046875
 40
0.6240234375
 40
0.6245117188
 40
0.625
 40
0.6254882812
 40
0.6259765625
 40
0.626953125
 40
0.62890625
 40
0.630859375
 40
0.6328125
 40
0.63671875
 40
0.640625
 40
0.6484375
 40
0.65625
 40
0.6640625
 40
0.66796875
 40
0.671875
 40
0.67578125
 40
0.6796875
 40
0.681640625
 40
0.68359375
 40
0.685546875
 40
0.6865234375
 40
0.6870117188
 40
0.6875
 40
0.6879882812
 40
0.6884765625
 40
0.689453125
 40
0.69140625
 40
0.693359375
 40
0.6953125
 40
0.69921875
 40
0.703125
 40
0.70703125
 40
0.7109375
 40
0.71875
 40
0.7265625
 40
0.73046875
 40
0.734375
 40
0.73828125
 40
0.7421875
 40
0.744140625
 40
0.74609375
 40
0.7470703125
 40
0.748046875
 40
0.7490234375
 40
0.7495117188
 40
0.7497558594
 40
0.75
 40
0.7502441406
 40
0.7504882812
 40
0.7509765625
 40
0.751953125
 40
0.7529296875
 40
0.75390625
 40
0.755859375
 40
0.7578125
 40
0.76171875
 40
0.765625
 40
0.76953125
 40
0.7734375
 40
0.78125
 40
0.7890625
 40
0.79296875
 40
0.796875
 40
0.80078125
 40
0.8046875
 40
0.806640625
 40
0.80859375
 40
0.8095703125
 40
0.810546875
 40
0.8115234375
 40
0.8120117188
 40
0.8122558594
 40
0.8125
 40
0.8127441406
 40
0.8129882812
 40
0.8134765625
 40
0.814453125
 40
0.8154296875
 40
0.81640625
 40
0.818359375
 40
0.8203125
 40
0.82421875
 40
0.828125
 40
0.83203125
 40
0.8359375
 40
0.84375
 40
0.8515625
 40
0.85546875
 40
0.859375
 40
0.86328125
 40
0.8671875
 40
0.869140625
 40
0.87109375
 40
0.8720703125
 40
0.873046875
 40
0.8740234375
 40
0.8745117188
 40
0.8747558594
 40
0.875
 40
0.8752441406
 40
0.8754882812
 40
0.8759765625
 40
0.876953125
 40
0.8779296875
 40
0.87890625
 40
0.880859375
 40
0.8828125
 40
0.88671875
 40
0.890625
 40
0.89453125
 40
0.8984375
 40
0.90625
 40
0.9140625
 40
0.91796875
 40
0.921875
 40
0.92578125
 40
0.9296875
 40
0.931640625
 40
0.93359375
 40
0.9345703125
 40
0.935546875
 40
0.9365234375
 40
0.9370117188
 40
0.9372558594
 40
0.9375
 40
0.9377441406
 40
0.9379882812
 40
0.9384765625
 40
0.939453125
 40
0.9404296875
 40
0.94140625
 40
0.943359375
 40
0.9453125
 40
0.94921875
 40
0.953125
 40
0.95703125
 40
0.9609375
 40
0.96875
 40
0.9765625
 40
0.984375
 40
1.0
 40
1.0
 40
1.0
 40
1.0
 10
12.8178679562
 20
8.2796875158
 30
0.0
 10
12.8187074904
 20
8.2808056552
 30
0.0
 10
12.8199667916
 20
8.2824828644
 30
0.0
 10
12.8216458599
 20
8.2847191433
 30
0.0
 10
12.8229051612
 20
8.2863963525
 30
0.0
 10
12.8239545789
 20
8.2877940266
 30
0.0
 10
12.824794113
 20
8.2889121664
 30
0.0
 10
12.8254237637
 20
8.28975077
 30
0.0
 10
12.8260534141
 20
8.2905893781
 30
0.0
 10
12.8265781236
 20
8.2912882044
 30
0.0
 10
12.8269978894
 20
8.2918472963
 30
0.0
 10
12.827260247
 20
8.2921966584
 30
0.0
 10
12.8274701241
 20
8.2924763091
 30
0.0
 10
12.8276275565
 20
8.2926856064
 30
0.0
 10
12.8277586718
 20
8.2928614228
 30
0.0
 10
12.8278506064
 20
8.292981743
 30
0.0
 10
12.8279029002
 20
8.2930547932
 30
0.0
 10
12.8279427973
 20
8.2930974795
 30
0.0
 10
12.8279801076
 20
8.2931864235
 30
0.0
 10
12.8280307569
 20
8.2932888803
 30
0.0
 10
12.8281189729
 20
8.2934756974
 30
0.0
 10
12.8282452155
 20
8.2937386487
 30
0.0
 10
12.8283966126
 20
8.2940558725
 30
0.0
 10
12.8285985082
 20
8.2944782499
 30
0.0
 10
12.8288508665
 20
8.295006423
 30
0.0
 10
12.829254646
 20
8.2958513874
 30
0.0
 10
12.8297593683
 20
8.2969076315
 30
0.0
 10
12.8303650359
 20
8.2981751079
 30
0.0
 10
12.8309707033
 20
8.2994425887
 30
0.0
 10
12.8317782598
 20
8.3011325616
 30
0.0
 10
12.8327877055
 20
8.3032450283
 30
0.0
 10
12.8337971513
 20
8.3053574946
 30
0.0
 10
12.8346047078
 20
8.307047468
 30
0.0
 10
12.8352103753
 20
8.3083149471
 30
0.0
 10
12.8358160424
 20
8.3095824301
 30
0.0
 10
12.8363207664
 20
8.3106386537
 30
0.0
 10
12.8367245423
 20
8.3114836599
 30
0.0
 10
12.8369769099
 20
8.3120117265
 30
0.0
 10
12.8371787863
 20
8.3124343226
 30
0.0
 10
12.837330242
 20
8.3127508785
 30
0.0
 10
12.8374563012
 20
8.3130159193
 30
0.0
 10
12.8375448446
 20
8.3131990063
 30
0.0
 10
12.8375949694
 20
8.3133074397
 30
0.0
 10
12.8376338908
 20
8.3133780255
 30
0.0
 10
12.8376677371
 20
8.313489662
 30
0.0
 10
12.8377146357
 20
8.3136241917
 30
0.0
 10
12.8377958835
 20
8.3138662901
 30
0.0
 10
12.837912383
 20
8.3142086571
 30
0.0
 10
12.8380519978
 20
8.3146209904
 30
0.0
 10
12.8382382153
 20
8.3151702467
 30
0.0
 10
12.8384709652
 20
8.3158569957
 30
0.0
 10
12.8388433773
 20
8.3169556942
 30
0.0
 10
12.8393088883
 20
8.3183291016
 30
0.0
 10
12.8398675032
 20
8.3199771758
 30
0.0
 10
12.8404261176
 20
8.3216252539
 30
0.0
 10
12.8411709371
 20
8.32382269
 30
0.0
 10
12.8421019613
 20
8.3265694855
 30
0.0
 10
12.8430329855
 20
8.3293162812
 30
0.0
 10
12.843777805
 20
8.3315137169
 30
0.0
 10
12.8443364192
 20
8.3331617964
 30
0.0
 10
12.8448950351
 20
8.3348098655
 30
0.0
 10
12.8453605429
 20
8.3361832886
 30
0.0
 10
12.8457329614
 20
8.337281955
 30
0.0
 10
12.8459656951
 20
8.3379687858
 30
0.0
 10
12.8461519459
 20
8.3385178741
 30
0.0
 10
12.8462914591
 20
8.3389307207
 30
0.0
 10
12.8464082765
 20
8.3392714817
 30
0.0
 10
12.8465004826
 20
8.3395514421
 30
0.0
 10
12.8465730466
 20
8.3397413243
 30
0.0
 10
12.8466325969
 20
8.3400078832
 30
0.0
 10
12.8467165431
 20
8.340336511
 30
0.0
 10
12.8468199162
 20
8.3407564851
 30
0.0
 10
12.8469446315
 20
8.3412565208
 30
0.0
 10
12.8471106854
 20
8.3419246088
 30
0.0
 10
12.8473183326
 20
8.3427592483
 30
0.0
 10
12.8476505235
 20
8.3440949346
 30
0.0
 10
12.8480657774
 20
8.3457644522
 30
0.0
 10
12.8485640756
 20
8.347767912
 30
0.0
 10
12.8490623755
 20
8.3497713614
 30
0.0
 10
12.8497267748
 20
8.3524426311
 30
0.0
 10
12.8505572745
 20
8.355781716
 30
0.0
 10
12.851553872
 20
8.3597886228
 30
0.0
 10
12.8523843761
 20
8.3631276982
 30
0.0
 10
12.8530487656
 20
8.3657989886
 30
0.0
 10
12.8534640406
 20
8.3674684767
 30
0.0
 10
12.8537961881
 20
8.368804224
 30
0.0
 10
12.8540454975
 20
8.3698056049
 30
0.0
 10
12.8542526229
 20
8.3706414554
 30
0.0
 10
12.8543988517
 20
8.3712238694
 30
0.0
 10
12.8544804734
 20
8.371560864
 30
0.0
 10
12.8545471481
 20
8.3718018162
 30
0.0
 10
12.8545929577
 20
8.3720878503
 30
0.0
 10
12.8546613152
 20
8.372453504
 30
0.0
 10
12.8547775498
 20
8.3731007247
 30
0.0
 10
12.8549453721
 20
8.3740214952
 30
0.0
 10
12.855146
 20
8.3751280593
 30
0.0
 10
12.8554137689
 20
8.3766029055
 30
0.0
 10
12.8557483893
 20
8.3784466593
 30
0.0
 10
12.8562838326
 20
8.3813965558
 30
0.0
 10
12.8569531197
 20
8.3850839636
 30
0.0
 10
12.8577562701
 20
8.3895088393
 30
0.0
 10
12.8585594244
 20
8.3939337101
 30
0.0
 10
12.8592287015
 20
8.39762113
 30
0.0
 10
12.8597641648
 20
8.4005710023
 30
0.0
 10
12.8600987345
 20
8.4024148179
 30
0.0
 10
12.8603666075
 20
8.4038895373
 30
0.0
 10
12.8605669173
 20
8.4049964887
 30
0.0
 10
12.8607357349
 20
8.4059160475
 30
0.0
 10
12.8608665438
 20
8.4066582002
 30
0.0
 10
12.8609762504
 20
8.4071970382
 30
0.0
 10
12.8610416797
 20
8.4078037297
 30
0.0
 10
12.8611443854
 20
8.4085889496
 30
0.0
 10
12.8612674611
 20
8.4095786065
 30
0.0
 10
12.8614174232
 20
8.4107627141
 30
0.0
 10
12.8616165793
 20
8.4123427399
 30
0.0
 10
12.861865796
 20
8.4143173559
 30
0.0
 10
12.8622643913
 20
8.417476974
 30
0.0
 10
12.8627626859
 20
8.4214264177
 30
0.0
 10
12.8633606239
 20
8.4261657804
 30
0.0
 10
12.8639585432
 20
8.4309051484
 30
0.0
 10
12.8644568846
 20
8.4348545789
 30
0.0
 10
12.8648553864
 20
8.4380142235
 30
0.0
 10
12.8651547313
 20
8.4403836818
 30
0.0
 10
12.8654026949
 20
8.4423591061
 30
0.0
 10
12.8655791946
 20
8.4437401844
 30
0.0
 10
12.8656754842
 20
8.4445320556
 30
0.0
 10
12.8657605675
 20
8.4451183992
 30
0.0
 10
12.8657964701
 20
8.4457336404
 30
0.0
 10
12.865861495
 20
8.4465438821
 30
0.0
 10
12.8659672958
 20
8.4479665015
 30
0.0
 10
12.8661226185
 20
8.4499963596
 30
0.0
 10
12.8663072171
 20
8.4524332402
 30
0.0
 10
12.8665539736
 20
8.4556820473
 30
0.0
 10
12.8668622032
 20
8.4597431823
 30
0.0
 10
12.8672321779
 20
8.4646164894
 30
0.0
 10
12.8676021017
 20
8.4694898145
 30
0.0
 10
12.8679104585
 20
8.4735509044
 30
0.0
 10
12.8681569607
 20
8.4767998018
 30
0.0
 10
12.8683423349
 20
8.4792364072
 30
0.0
 10
12.868495231
 20
8.4812671264
 30
0.0
 10
12.8686053637
 20
8.4826882085
 30
0.0
 10
12.8686634479
 20
8.4835009133
 30
0.0
 10
12.8687206701
 20
8.4841085888
 30
0.0
 10
12.8687256804
 20
8.4847233477
 30
0.0
 10
12.8687505728
 20
8.4855405555
 30
0.0
 10
12.8687856492
 20
8.4869718204
 30
0.0
 10
12.8688401947
 20
8.4890158826
 30
0.0
 10
12.8689037503
 20
8.4914690149
 30
0.0
 10
12.8689891545
 20
8.494739768
 30
0.0
 10
12.869095682
 20
8.49882824
 30
0.0
 10
12.8692236133
 20
8.5037343942
 30
0.0
 10
12.8693515158
 20
8.5086405485
 30
0.0
 10
12.8694581152
 20
8.5127290201
 30
0.0
 10
12.8695433755
 20
8.5159997741
 30
0.0
 10
12.8695967044
 20
8.5180440486
 30
0.0
 10
12.8696392732
 20
8.5196793461
 30
0.0
 10
12.8696714582
 20
8.5209061538
 30
0.0
 10
12.8696974572
 20
8.5219274291
 30
0.0
 10
12.8697172692
 20
8.5226444108
 30
0.0
 10
12.8697260723
 20
8.5230508528
 30
0.0
 10
12.8697397679
 20
8.5233648729
 30
0.0
 10
12.8697263494
 20
8.5236437696
 30
0.0
 10
12.8697179159
 20
8.5240278833
 30
0.0
 10
12.8696987506
 20
8.5246943741
 30
0.0
 10
12.8696736754
 20
8.525649488
 30
0.0
 10
12.8696425991
 20
8.5267943474
 30
0.0
 10
12.8696015085
 20
8.5283212727
 30
0.0
 10
12.8695500273
 20
8.5302297766
 30
0.0
 10
12.8694677232
 20
8.5332834682
 30
0.0
 10
12.8693648204
 20
8.5371005531
 30
0.0
 10
12.8692413475
 20
8.5416810688
 30
0.0
 10
12.8691178694
 20
8.5462615769
 30
0.0
 10
12.8690149793
 20
8.550078681
 30
0.0
 10
12.8689326497
 20
8.5531323344
 30
0.0
 10
12.8688812335
 20
8.5550409354
 30
0.0
 10
12.8688400095
 20
8.5565676613
 30
0.0
 10
12.8688093405
 20
8.55771313
 30
0.0
 10
12.8687829911
 20
8.5586663373
 30
0.0
 10
12.8687661005
 20
8.5593362318
 30
0.0
 10
12.8687540223
 20
8.5597148918
 30
0.0
 10
12.8687517991
 20
8.5600105405
 30
0.0
 10
12.8687234474
 20
8.5602616429
 30
0.0
 10
12.868694759
 20
8.5606119844
 30
0.0
 10
12.868640308
 20
8.5612178424
 30
0.0
 10
12.8685647409
 20
8.5620871388
 30
0.0
 10
12.8684731102
 20
8.5631286744
 30
0.0
 10
12.8683512678
 20
8.5645179544
 30
0.0
 10
12.8681988511
 20
8.5662543606
 30
0.0
 10
12.8679550479
 20
8.5690327189
 30
0.0
 10
12.867650272
 20
8.5725056292
 30
0.0
 10
12.8672845509
 20
8.5766731392
 30
0.0
 10
12.866918825
 20
8.580840639
 30
0.0
 10
12.8666140613
 20
8.5843135748
 30
0.0
 10
12.8663702338
 20
8.5870918822
 30
0.0
 10
12.866217879
 20
8.588828418
 30
0.0
 10
12.8660959095
 20
8.590217432
 30
0.0
 10
12.866004667
 20
8.5912597801
 30
0.0
 10
12.8659278852
 20
8.5921265345
 30
0.0
 10
12.8658756026
 20
8.5927369303
 30
0.0
 10
12.8658434399
 20
8.5930800011
 30
0.0
 10
12.8658257602
 20
8.5933534369
 30
0.0
 10
12.8657834546
 20
8.5935652051
 30
0.0
 10
12.8657356369
 20
8.5938690731
 30
0.0
 10
12.8656479538
 20
8.5943908201
 30
0.0
 10
12.8655247846
 20
8.5951414125
 30
0.0
 10
12.8653760859
 20
8.5960398807
 30
0.0
 10
12.8651781338
 20
8.5972386217
 30
0.0
 10
12.8649305866
 20
8.5987367796
 30
0.0
 10
12.8645345709
 20
8.6011339822
 30
0.0
 10
12.8640395307
 20
8.6041304341
 30
0.0
 10
12.8634454912
 20
8.607726198
 30
0.0
 10
12.8629504568
 20
8.6107226644
 30
0.0
 10
12.8625544286
 20
8.6131198352
 30
0.0
 10
12.8622574104
 20
8.6149177225
 30
0.0
 10
12.8619603804
 20
8.616715574
 30
0.0
 10
12.8617128926
 20
8.6182138952
 30
0.0
 10
12.8615148189
 20
8.6194123022
 30
0.0
 10
12.8613664915
 20
8.6203117902
 30
0.0
 10
12.8612421607
 20
8.621059192
 30
0.0
 10
12.8611565512
 20
8.6215866348
 30
0.0
 10
12.8611054111
 20
8.6218813766
 30
0.0
 10
12.8610733107
 20
8.6221211776
 30
0.0
 10
12.8610173018
 20
8.6222893272
 30
0.0
 10
12.8609509629
 20
8.6225385195
 30
0.0
 10
12.8608309842
 20
8.6229629613
 30
0.0
 10
12.8606616174
 20
8.6235753947
 30
0.0
 10
12.8604575078
 20
8.624307709
 30
0.0
 10
12.8601856654
 20
8.6252850383
 30
0.0
 10
12.8598457581
 20
8.6265063875
 30
0.0
 10
12.8594379141
 20
8.6279721405
 30
0.0
 10
12.8590300581
 20
8.6294378576
 30
0.0
 10
12.8584862543
 20
8.6313921597
 30
0.0
 10
12.8578064982
 20
8.6338350329
 30
0.0
 10
12.8571267425
 20
8.6362779079
 30
0.0
 10
12.8565829378
 20
8.6382322072
 30
0.0
 10
12.8561750846
 20
8.6396979328
 30
0.0
 10
12.8557672304
 20
8.6411636539
 30
0.0
 10
12.8554273546
 20
8.6423851023
 30
0.0
 10
12.8551554481
 20
8.6433622294
 30
0.0
 10
12.8549855198
 20
8.6439730058
 30
0.0
 10
12.8548495468
 20
8.6444614621
 30
0.0
 10
12.8547476503
 20
8.6448282557
 30
0.0
 10
12.8546624716
 20
8.6451324811
 30
0.0
 10
12.8546033664
 20
8.6453482568
 30
0.0
 10
12.8545687803
 20
8.6454671574
 30
0.0
 10
12.8545451272
 20
8.645568727
 30
0.0
 10
12.8545127342
 20
8.6456229197
 30
0.0
 10
12.854472592
 20
8.6457117022
 30
0.0
 10
12.8544009228
 20
8.645859372
 30
0.0
 10
12.8542992808
 20
8.6460743543
 30
0.0
 10
12.8541769926
 20
8.6463306101
 30
0.0
 10
12.8540140527
 20
8.6466728862
 30
0.0
 10
12.8538103398
 20
8.6471005254
 30
0.0
 10
12.8534844203
 20
8.6477848632
 30
0.0
 10
12.8530770138
 20
8.6486402459
 30
0.0
 10
12.852588129
 20
8.6496667221
 30
0.0
 10
12.8520992434
 20
8.6506931937
 30
0.0
 10
12.8514473962
 20
8.6520618242
 30
0.0
 10
12.8506325871
 20
8.6537726117
 30
0.0
 10
12.8498177781
 20
8.6554833995
 30
0.0
 10
12.8491659308
 20
8.6568520294
 30
0.0
 10
12.8486770455
 20
8.6578785029
 30
0.0
 10
12.8481881595
 20
8.6589049719
 30
0.0
 10
12.8477807568
 20
8.6597603771
 30
0.0
 10
12.8474548296
 20
8.660444669
 30
0.0
 10
12.8472511364
 20
8.660872425
 30
0.0
 10
12.847088156
 20
8.6612144612
 30
0.0
 10
12.8469659913
 20
8.66147145
 30
0.0
 10
12.8468639629
 20
8.6616841388
 30
0.0
 10
12.8467929836
 20
8.661835903
 30
0.0
 10
12.846751736
 20
8.6619181252
 30
0.0
 10
12.8467227385
 20
8.661992469
 30
0.0
 10
12.8466863323
 20
8.6620183542
 30
0.0
 10
12.8466403749
 20
8.6620697708
 30
0.0
 10
12.8465587454
 20
8.6621518743
 30
0.0
 10
12.8464427614
 20
8.6622732823
 30
0.0
 10
12.8463033112
 20
8.6624172097
 30
0.0
 10
12.8461174716
 20
8.6626097284
 30
0.0
 10
12.8458851399
 20
8.6628501659
 30
0.0
 10
12.8455134273
 20
8.6632349838
 30
0.0
 10
12.8450487802
 20
8.6637159658
 30
0.0
 10
12.8444912064
 20
8.6642931615
 30
0.0
 10
12.8439336319
 20
8.6648703525
 30
0.0
 10
12.8431901995
 20
8.6656399422
 30
0.0
 10
12.8422609089
 20
8.6666019287
 30
0.0
 10
12.8413316184
 20
8.6675639156
 30
0.0
 10
12.8405881859
 20
8.6683335047
 30
0.0
 10
12.8400306116
 20
8.6689106977
 30
0.0
 10
12.8394730369
 20
8.6694878859
 30
0.0
 10
12.8390083928
 20
8.6699688912
 30
0.0
 10
12.8386366741
 20
8.6703536615
 30
0.0
 10
12.8384043577
 20
8.6705942202
 30
0.0
 10
12.8382184868
 20
8.6707864903
 30
0.0
 10
12.8380791324
 20
8.6709311771
 30
0.0
 10
12.8379628486
 20
8.671050209
 30
0.0
 10
12.8378817543
 20
8.6711365544
 30
0.0
 10
12.8378349394
 20
8.6711811743
 30
0.0
 10
12.8378011672
 20
8.6712279367
 30
0.0
 10
12.8377622769
 20
8.6712238692
 30
0.0
 10
12.8377122085
 20
8.6712361759
 30
0.0
 10
12.837623757
 20
8.6712494518
 30
0.0
 10
12.8374978325
 20
8.6712727363
 30
0.0
 10
12.837346537
 20
8.6712988291
 30
0.0
 10
12.8371448746
 20
8.6713342651
 30
0.0
 10
12.8368927745
 20
8.6713783391
 30
0.0
 10
12.8364894266
 20
8.6714489811
 30
0.0
 10
12.8359852376
 20
8.6715372411
 30
0.0
 10
12.8353802125
 20
8.6716431713
 30
0.0
 10
12.834775187
 20
8.6717490967
 30
0.0
 10
12.8339684865
 20
8.6718903322
 30
0.0
 10
12.8329601107
 20
8.6720668759
 30
0.0
 10
12.831951735
 20
8.6722434201
 30
0.0
 10
12.8311450344
 20
8.6723846549
 30
0.0
 10
12.8305400091
 20
8.6724905824
 30
0.0
 10
12.8299349834
 20
8.6725965048
 30
0.0
 10
12.8294307964
 20
8.6726847891
 30
0.0
 10
12.8290274443
 20
8.6727553816
 30
0.0
 10
12.8287753551
 20
8.6727995815
 30
0.0
 10
12.8285736703
 20
8.672834759
 30
0.0
 10
12.8284224434
 20
8.6728616417
 30
0.0
 10
12.8282963042
 20
8.6728824548
 30
0.0
 10
12.8282082359
 20
8.6729001426
 30
0.0
 10
12.8281575534
 20
8.6729053804
 30
0.0
 10
12.8281205495
 20
8.6729230264
 30
0.0
 10
12.8280796926
 20
8.6728882364
 30
0.0
 10
12.8280265608
 20
8.6728601399
 30
0.0
 10
12.8279329539
 20
8.6728024494
 30
0.0
 10
12.8277995571
 20
8.6727244896
 30
0.0
 10
12.8276393408
 20
8.6726290308
 30
0.0
 10
12.827425768
 20
8.6725024186
 30
0.0
 10
12.8271587853
 20
8.6723439252
 30
0.0
 10
12.8267316223
 20
8.6720904632
 30
0.0
 10
12.8261976654
 20
8.671773592
 30
0.0
 10
12.8255569185
 20
8.6713933653
 30
0.0
 10
12.8249161712
 20
8.6710131337
 30
0.0
 10
12.8240618415
 20
8.6705061598
 30
0.0
 10
12.8229939295
 20
8.6698724419
 30
0.0
 10
12.821712435
 20
8.6691119807
 30
0.0
 10
12.8200037758
 20
8.6680980323
 30
0.0
 10
12.8187222813
 20
8.6673375711
 30
0.0
 10
12.8178679517
 20
8.6668305969
 30
0.0
  0
ENDSEC
  0
SECTION
  2
OBJECTS
  0
DICTIONARY
  5
C
100
AcDbDictionary
280
0
281
1
  3
ACAD_GROUP
350
D
  3
ACAD_MLINESTYLE
350
17
  3
ACAD_LAYOUT
350
1A
  3
ACAD_PLOTSETTINGS
350
19
  3
ACAD_PLOTSTYLENAME
350
E
  3
ACAD_IMAGE_DICT
350
       3BB
  3
ACAD_IMAGE_VARS
350
       3BC
  3
ACAD_TABLESTYLE
350
       3BD
  0
IMAGEDEF_REACTOR
  5
3BA
100
AcDbRasterImageDefReactor
 90
2
330
292
  0
DICTIONARY
  5
D
102
{ACAD_REACTORS
330
C
102
}
100
AcDbDictionary
280
0
281
1
  0
ACDBDICTIONARYWDFLT
  5
E
102
{ACAD_REACTORS
330
C
102
}
100
AcDbDictionary
281
1
  3
Normal
350
F
100
AcDbDictionaryWithDefault
340
F
  0
DICTIONARY
  5
3BB
330
C
100
AcDbDictionary
281
1
  3
3BV_assy_2_img_1
350
       3C0
  0
RASTERVARIABLES
  5
3BC
330
C
100
AcDbRasterVariables
 90
0
 70
0
 71
1
 72
5
  0
DICTIONARY
  5
17
102
{ACAD_REACTORS
330
C
102
}
100
AcDbDictionary
280
0
281
1
  3
Standard
350
18
  0
DICTIONARY
  5
3BD
330
C
100
AcDbDictionary
281
1
  3
Standard
350
       3C1
  3
Standard1
350
       3C2
  0
DICTIONARY
  5
19
102
{ACAD_REACTORS
330
C
102
}
100
AcDbDictionary
281
1
  0
DICTIONARY
  5
1A
102
{ACAD_REACTORS
330
C
102
}
100
AcDbDictionary
281
1
  3
Model
350
3BE
  3
Layout1
350
3BF
  0
ACDBPLACEHOLDER
  5
F
102
{ACAD_REACTORS
330
E
102
}
  0
MLINESTYLE
  5
18
102
{ACAD_REACTORS
330
17
102
}
100
AcDbMlineStyle
  2
STANDARD
 70
0
  3

 62
256
 51
90.0
 52
90.0
 71
2
 49
0.5
 62
256
  6
BYLAYER
 49
-0.5
 62
256
  6
BYLAYER
  0
LAYOUT
  5
3BE
102
{ACAD_REACTORS
330
1A
102
}
100
AcDbPlotSettings
  1

  2
none_device
  4
ANSI_C_(22.00_x_17.00_Inches)
  6

 40
0.0
 41
0.0
 42
0.0
 43
0.0
 44
558.8
 45
431.8
 46
0.0
 47
0.0
 48
0.0
 49
0.0
140
0.0
141
0.0
142
1.0
143
1.0
 70
1024
 72
0
 73
0
 74
0
  7

 75
0
147
1.0
148
0.0
149
0.0
100
AcDbLayout
  1
Model
 70
0
 71
0
 10
0.0
 20
0.0
 11
22.0
 21
17.0
 12
0.0
 22
0.0
 32
0.0
 14
0.0
 24
0.0
 34
0.0
 15
0.0
 25
0.0
 35
0.0
146
0.0
 13
0.0
 23
0.0
 33
0.0
 16
1.0
 26
0.0
 36
0.0
 17
0.0
 27
1.0
 37
0.0
 76
0
330
20C
345
0
346
0
  0
LAYOUT
  5
3BF
102
{ACAD_REACTORS
330
1A
102
}
100
AcDbPlotSettings
  1

  2
none_device
  4
ANSI_C_(22.00_x_17.00_Inches)
  6

 40
0.0
 41
0.0
 42
0.0
 43
0.0
 44
558.8
 45
431.8
 46
0.0
 47
0.0
 48
0.0
 49
0.0
140
0.0
141
0.0
142
1.0
143
1.0
 70
0
 72
0
 73
0
 74
0
  7

 75
0
147
1.0
148
0.0
149
0.0
100
AcDbLayout
  1
Layout1
 70
0
 71
1
 10
0.0
 20
0.0
 11
22.0
 21
17.0
 12
0.0
 22
0.0
 32
0.0
 14
0.0
 24
0.0
 34
0.0
 15
0.0
 25
0.0
 35
0.0
146
0.0
 13
0.0
 23
0.0
 33
0.0
 16
1.0
 26
0.0
 36
0.0
 17
0.0
 27
1.0
 37
0.0
 76
0
330
20D
345
0
346
0
  0
IMAGEDEF
  5
3C0
102
{ACAD_REACTORS
330
3BB
330
3BA
102
}
100
AcDbRasterImageDef
 90
0
  1
3BV_assy_2_img_1.png
 10
369.0
 20
92.0
 11
0.0066666667
 21
0.0066666667
280
1
281
0
  0
TABLESTYLE
  5
3C1
102
{ACAD_REACTORS
330
3BD
330
295
330
296
102
}
330
3BD
100
AcDbTableStyle
  3
Standard
 70
0
 71
0
 40
0.06
 41
0.06
280
1
281
1
  7
Standard
140
0.18
170
1
 62
0
 63
7
283
0
  7
Standard
140
0.18
170
1
 62
0
 63
7
283
0
  7
Standard
140
0.18
170
1
 62
0
 63
7
283
0
  0
TABLESTYLE
  5
3C2
102
{ACAD_REACTORS
330
3BD
330
294
102
}
330
3BD
100
AcDbTableStyle
  3
Standard1
 70
1
 71
0
 40
0.06
 41
0.06
280
1
281
1
  7
Standard
140
0.18
170
1
 62
0
 63
7
283
0
  7
Standard
140
0.18
170
1
 62
0
 63
7
283
0
  7
Standard
140
0.18
170
1
 62
0
 63
7
283
0
  0
ENDSEC
  0
EOF
