999
DXF file: 3BL_assy_2.dxf
999
Pro/ENGINEER 2014200 by Parametric Technology Corporation
  0
SECTION
  2
HEADER
  9
$ACADVER
  1
AC1021
  9
$DWGCODEPAGE
  3
ANSI_1252
  9
$EXTMAX
 10
22.0
 20
17.0
 30
0.0
  9
$EXTMIN
 10
0.0
 20
0.0
 30
0.0
  9
$LIMMIN
 10
0.0
 20
0.0
  9
$LIMMAX
 10
22.0
 20
17.0
  9
$VIEWCTR
 10
11.0
 20
8.5
  9
$VIEWSIZE
 40
17.0
  9
$CLAYER
  8
0
  9
$LTSCALE
 40
1.21
  9
$CELTYPE
  6
BYLAYER
  9
$DIMSCALE
 40
1.0
  9
$DIMASZ
 40
0.1875
  9
$DIMEXO
 40
0.0625
  9
$DIMDLI
 40
0.836
  9
$DIMEXE
 40
0.125
  9
$DIMCEN
 40
0.198
  9
$DIMLFAC
 40
1.0
  9
$DIMBLK
  1
_FILLED
  9
$DIMTXT
 40
0.1
  9
$DIMTOL
 70
0
  9
$DIMLIM
 70
0
  9
$DIMTFAC
 40
1.0
  9
$DIMGAP
 40
0.09
  9
$DIMDSEP
 70
46
  9
$AUNITS
 70
0
  9
$PDMODE
 70
3
  9
$PDSIZE
 40
0.3125
  9
$HANDSEED
  5
3D1
  9
$TILEMODE
 70
1
  9
$MEASUREMENT
 70
0
  9
$INSUNITS
 70
1
  0
ENDSEC
  0
SECTION
  2
CLASSES
  0
CLASS
  1
ACDBDICTIONARYWDFLT
  2
AcDbDictionaryWithDefault
  3
AutoCAD 2000
 90
0
 91
1
280
0
281
0
  0
CLASS
  1
ACDBPLACEHOLDER
  2
AcDbPlaceHolder
  3
AutoCAD 2000
 90
0
 91
1
280
0
281
0
  0
CLASS
  1
LAYOUT
  2
AcDbLayout
  3
AutoCAD 2000
 90
0
 91
0
280
0
281
0
  0
CLASS
  1
RASTERVARIABLES
  2
AcDbRasterVariables
  3
ISM
 90
0
 91
1
280
0
281
0
  0
CLASS
  1
IMAGEDEF
  2
AcDbRasterImageDef
  3
ISM
 90
0
 91
1
280
0
281
0
  0
CLASS
  1
IMAGEDEF_REACTOR
  2
AcDbRasterImageDefReactor
  3
ISM
 90
0
 91
1
280
0
281
0
  0
CLASS
  1
IMAGE
  2
AcDbRasterImage
  3
ISM
 90
127
 91
1
280
0
281
1
  0
CLASS
  1
TABLESTYLE
  2
AcDbTableStyle
  3
ObjectDBX Classes
 90
2047
 91
1
280
0
281
0
  0
CLASS
  1
ACAD_TABLE
  2
AcDbTable
  3
ObjectDBX Classes
 90
1025
 91
3
280
0
281
1
  0
ENDSEC
  0
SECTION
  2
TABLES
  0
TABLE
  2
VPORT
  5
8
100
AcDbSymbolTable
 70
2
  0
VPORT
  5
1F4
100
AcDbSymbolTableRecord
100
AcDbViewportTableRecord
  2
*ACTIVE
 70
0
 10
0.0
 20
0.0
 11
1.0
 21
1.0
 12
11.0
 22
8.5
 13
0.0
 23
0.0
 14
1.0
 24
1.0
 15
0.0
 25
0.0
 16
0.0
 26
0.0
 36
1.0
 17
0.0
 27
0.0
 37
0.0
 40
17.0
 41
1.2941176471
 42
50.0
 43
0.0
 44
0.0
 50
0.0
 51
0.0
 71
0
 72
100
 73
1
 74
1
 75
0
 76
0
 77
0
 78
0
  0
ENDTAB
  0
TABLE
  2
LTYPE
  5
5
100
AcDbSymbolTable
 70
6
  0
LTYPE
  5
14
100
AcDbSymbolTableRecord
100
AcDbLinetypeTableRecord
  2
BYBLOCK
 70
0
  3

 72
65
 73
0
 40
0.0
  0
LTYPE
  5
15
100
AcDbSymbolTableRecord
100
AcDbLinetypeTableRecord
  2
BYLAYER
 70
0
  3

 72
65
 73
0
 40
0.0
  0
LTYPE
  5
16
100
AcDbSymbolTableRecord
100
AcDbLinetypeTableRecord
  2
CONTINUOUS
 70
64
  3
Solid line
 72
65
 73
0
 40
0.0
  0
LTYPE
  5
1F5
100
AcDbSymbolTableRecord
100
AcDbLinetypeTableRecord
  2
CENTER
 70
64
  3
____ _ ____ _ ____ _ ____ _ ____ _ ____ _ ____
 72
65
 73
4
 40
0.6
 49
0.375
 74
0
 49
-0.075
 74
0
 49
0.075
 74
0
 49
-0.075
 74
0
  0
LTYPE
  5
1F6
100
AcDbSymbolTableRecord
100
AcDbLinetypeTableRecord
  2
HIDDEN
 70
64
  3
- - - - - - - - - - - - - - - - - - - -
 72
65
 73
2
 40
0.2
 49
0.1
 74
0
 49
-0.1
 74
0
  0
LTYPE
  5
1F7
100
AcDbSymbolTableRecord
100
AcDbLinetypeTableRecord
  2
PHANTOM
 70
64
  3
_____ _ _ _____ _ _ _____ _ _ _____
 72
65
 73
6
 40
0.8
 49
0.45
 74
0
 49
-0.05
 74
0
 49
0.1
 74
0
 49
-0.05
 74
0
 49
0.1
 74
0
 49
-0.05
 74
0
  0
LTYPE
  5
1F8
100
AcDbSymbolTableRecord
100
AcDbLinetypeTableRecord
  2
DOT
 70
64
  3
. . . . . . . . . . . . . . . . . . . .
 72
65
 73
2
 40
0.2
 49
0.1
 74
0
 49
-0.1
 74
0
  0
LTYPE
  5
1F9
100
AcDbSymbolTableRecord
100
AcDbLinetypeTableRecord
  2
DASHED
 70
64
  3
- - - - - - - - - - - - - - - - - - - -
 72
65
 73
2
 40
0.2
 49
0.1
 74
0
 49
-0.1
 74
0
  0
ENDTAB
  0
TABLE
  2
LAYER
  5
2
100
AcDbSymbolTable
 70
36
  0
LAYER
  5
10
100
AcDbSymbolTableRecord
100
AcDbLayerTableRecord
  2
0
 70
0
 62
7
  6
CONTINUOUS
370
-3
390
F
  0
LAYER
  5
1FA
100
AcDbSymbolTableRecord
100
AcDbLayerTableRecord
  2
DEFAULT_1
 70
0
 62
7
  6
CENTER
370
-3
390
F
  0
LAYER
  5
1FB
100
AcDbSymbolTableRecord
100
AcDbLayerTableRecord
  2
DEFAULT_2
 70
0
 62
8
  6
HIDDEN
370
-3
390
F
  0
LAYER
  5
1FC
100
AcDbSymbolTableRecord
100
AcDbLayerTableRecord
  2
DEFAULT_3
 70
0
 62
7
  6
PHANTOM
370
-3
390
F
  0
LAYER
  5
1FD
100
AcDbSymbolTableRecord
100
AcDbLayerTableRecord
  2
01___PRT_ALL_DTM_PLN
 70
0
 62
7
  6
CONTINUOUS
370
-3
390
F
  0
LAYER
  5
1FE
100
AcDbSymbolTableRecord
100
AcDbLayerTableRecord
  2
01___PRT_DEF_DTM_PLN
 70
0
 62
7
  6
CONTINUOUS
370
-3
390
F
  0
LAYER
  5
1FF
100
AcDbSymbolTableRecord
100
AcDbLayerTableRecord
  2
02___PRT_ALL_AXES
 70
0
 62
7
  6
CONTINUOUS
370
-3
390
F
  0
LAYER
  5
200
100
AcDbSymbolTableRecord
100
AcDbLayerTableRecord
  2
03___PRT_ALL_CURVES
 70
0
 62
7
  6
CONTINUOUS
370
-3
390
F
  0
LAYER
  5
201
100
AcDbSymbolTableRecord
100
AcDbLayerTableRecord
  2
04___PRT_ALL_DTM_PNT
 70
0
 62
7
  6
CONTINUOUS
370
-3
390
F
  0
LAYER
  5
202
100
AcDbSymbolTableRecord
100
AcDbLayerTableRecord
  2
05___PRT_ALL_DTM_CSYS
 70
0
 62
7
  6
CONTINUOUS
370
-3
390
F
  0
LAYER
  5
203
100
AcDbSymbolTableRecord
100
AcDbLayerTableRecord
  2
05___PRT_DEF_DTM_CSYS
 70
0
 62
7
  6
CONTINUOUS
370
-3
390
F
  0
LAYER
  5
204
100
AcDbSymbolTableRecord
100
AcDbLayerTableRecord
  2
06___PRT_ALL_SURFS
 70
0
 62
7
  6
CONTINUOUS
370
-3
390
F
  0
LAYER
  5
205
100
AcDbSymbolTableRecord
100
AcDbLayerTableRecord
  2
DATUM_PLANES
 70
0
 62
7
  6
CONTINUOUS
370
-3
390
F
  0
LAYER
  5
206
100
AcDbSymbolTableRecord
100
AcDbLayerTableRecord
  2
PORT_AREAS
 70
0
 62
7
  6
CONTINUOUS
370
-3
390
F
  0
LAYER
  5
207
100
AcDbSymbolTableRecord
100
AcDbLayerTableRecord
  2
SUNNBOMCOSMETIC
 70
0
 62
7
  6
CONTINUOUS
370
-3
390
F
  0
LAYER
  5
208
100
AcDbSymbolTableRecord
100
AcDbLayerTableRecord
  2
SUNNBOMSTAMPING
 70
0
 62
7
  6
CONTINUOUS
370
-3
390
F
  0
LAYER
  5
209
100
AcDbSymbolTableRecord
100
AcDbLayerTableRecord
  2
THREADS
 70
0
 62
7
  6
CONTINUOUS
370
-3
390
F
  0
ENDTAB
  0
TABLE
  2
STYLE
  5
3
100
AcDbSymbolTable
 70
1
  0
STYLE
  5
11
100
AcDbSymbolTableRecord
100
AcDbTextStyleTableRecord
  2
STANDARD
 70
0
 40
0.0
 41
0.8
 50
0.0
 71
0
 42
0.2
  3
txt
  4

  0
STYLE
  5
20A
100
AcDbSymbolTableRecord
100
AcDbTextStyleTableRecord
  2
TEXTSTYLE_1
 70
0
 40
0.0
 41
0.8
 50
0.0
 71
0
 42
0.2
  3
gdt
  4

  0
ENDTAB
  0
TABLE
  2
VIEW
  5
6
100
AcDbSymbolTable
 70
0
  0
ENDTAB
  0
TABLE
  2
UCS
  5
7
100
AcDbSymbolTable
 70
0
  0
ENDTAB
  0
TABLE
  2
APPID
  5
9
100
AcDbSymbolTable
 70
1
  0
APPID
  5
20B
100
AcDbSymbolTableRecord
100
AcDbRegAppTableRecord
  2
ACAD
 70
0
  0
ENDTAB
  0
TABLE
  2
BLOCK_RECORD
  5
1
100
AcDbSymbolTable
 70
0
  0
BLOCK_RECORD
  5
20C
100
AcDbSymbolTableRecord
100
AcDbBlockTableRecord
  2
*Model_Space
  0
BLOCK_RECORD
  5
20D
100
AcDbSymbolTableRecord
100
AcDbBlockTableRecord
  2
*Paper_Space
  0
BLOCK_RECORD
  5
20E
100
AcDbSymbolTableRecord
100
AcDbBlockTableRecord
  2
SUN_FIRST_THIRD_ANGLE_BL0
  0
BLOCK_RECORD
  5
20F
100
AcDbSymbolTableRecord
100
AcDbBlockTableRecord
  2
*T1
  0
BLOCK_RECORD
  5
210
100
AcDbSymbolTableRecord
100
AcDbBlockTableRecord
  2
*T2
  0
BLOCK_RECORD
  5
211
100
AcDbSymbolTableRecord
100
AcDbBlockTableRecord
  2
*T3
  0
ENDTAB
  0
TABLE
  2
DIMSTYLE
  5
A
100
AcDbSymbolTable
 70
1
100
AcDbDimStyleTable
 71
0
  0
DIMSTYLE
105
212
100
AcDbSymbolTableRecord
100
AcDbDimStyleTableRecord
  2
STANDARD
 70
0
  3

  4

 40
1.0
 41
0.1875
 42
0.0625
 43
0.38
 44
0.125
 45
0.0
 46
0.0
 47
0.001
 48
0.001
140
0.1
141
0.09
142
0.0
143
25.4
144
1.0
145
0.0
146
1.0
147
0.09
 71
0.0
 72
0.0
 73
1
 74
1
 75
0
 76
0
 77
0
 78
4
170
0
171
2
172
0
173
0
174
0
175
0
176
0
177
0
178
0
270
2
271
3
272
3
273
2
274
2
275
0
280
0
281
0
282
0
283
1
284
4
285
0
286
0
287
3
288
0
340
11
278
46
  0
ENDTAB
  0
ENDSEC
  0
SECTION
  2
BLOCKS
  0
BLOCK
  5
20
100
AcDbEntity
  8
0
100
AcDbBlockBegin
  2
*Model_Space
 70
0
 10
0.0
 20
0.0
 30
0.0
  3
*Model_Space
  1

  0
ENDBLK
  5
21
100
AcDbEntity
  8
0
100
AcDbBlockEnd
  0
BLOCK
  5
1C
100
AcDbEntity
  8
0
100
AcDbBlockBegin
  2
*Paper_Space
 70
0
 10
0.0
 20
0.0
 30
0.0
  3
*Paper_Space
  1

  0
ENDBLK
  5
1D
100
AcDbEntity
  8
0
100
AcDbBlockEnd
  0
BLOCK
  5
213
100
AcDbEntity
  8
0
100
AcDbBlockBegin
 62
2
  6
CONTINUOUS
  2
SUN_FIRST_THIRD_ANGLE_BL0
 70
64
 10
20.4816717061
 20
1.2289683772
  3
SUN_FIRST_THIRD_ANGLE_BL0
  1

  0
TEXT
  5
214
100
AcDbEntity
  8
0
100
AcDbText
 62
2
  6
CONTINUOUS
 10
19.4750896608
 20
1.4136269581
  7
STANDARD
 40
0.08
  1
FIRST ANGLE
 41
0.8
 72
0
100
AcDbText
  0
TEXT
  5
215
100
AcDbEntity
  8
0
100
AcDbText
 62
2
  6
CONTINUOUS
 10
20.7842537513
 20
1.4047600029
  7
STANDARD
 40
0.08
  1
THIRD ANGLE
 41
0.8
 72
0
100
AcDbText
  0
LINE
  5
216
100
AcDbEntity
  8
0
100
AcDbLine
 62
7
  6
CONTINUOUS
 10
19.4767170086
 20
1.1727031207
 11
19.6334271527
 21
1.1717972817
  0
LINE
  5
217
100
AcDbEntity
  8
0
100
AcDbLine
 62
7
  6
CONTINUOUS
 10
19.6596964832
 20
1.1717972817
 11
19.6950230232
 21
1.171593082
  0
LINE
  5
218
100
AcDbEntity
  8
0
100
AcDbLine
 62
7
  6
CONTINUOUS
 10
19.7194818561
 20
1.1708914427
 11
19.8852396156
 21
1.1699333054
  0
LINE
  5
219
100
AcDbEntity
  8
0
100
AcDbLine
 62
7
  6
CONTINUOUS
 10
19.4758111696
 20
1.2723454088
 11
19.88525039
 21
1.3511534004
  0
LINE
  5
21A
100
AcDbEntity
  8
0
100
AcDbLine
 62
7
  6
CONTINUOUS
 10
19.88525039
 20
1.3511534004
 11
19.8831348489
 21
0.9851647912
  0
LINE
  5
21B
100
AcDbEntity
  8
0
100
AcDbLine
 62
7
  6
CONTINUOUS
 10
19.8831348489
 20
0.9851647912
 11
19.4767170086
 21
1.0658141206
  0
LINE
  5
21C
100
AcDbEntity
  8
0
100
AcDbLine
 62
7
  6
CONTINUOUS
 10
19.4767170086
 20
1.0658141206
 11
19.4779056764
 21
1.2714536432
  0
CIRCLE
  5
21D
100
AcDbEntity
  8
0
100
AcDbCircle
 62
7
  6
CONTINUOUS
 10
20.2068232291
 20
1.1717972817
 40
0.175742101
  0
CIRCLE
  5
21E
100
AcDbEntity
  8
0
100
AcDbCircle
 62
7
  6
CONTINUOUS
 10
20.2068232291
 20
1.1717972817
 40
0.1005522074
  0
LINE
  5
21F
100
AcDbEntity
  8
0
100
AcDbLine
 62
7
  6
CONTINUOUS
 10
20.2077290681
 20
1.3756110529
 11
20.2071171714
 21
1.2379342989
  0
LINE
  5
220
100
AcDbEntity
  8
0
100
AcDbLine
 62
7
  6
CONTINUOUS
 10
20.2077290681
 20
1.2016899681
 11
20.2074674401
 21
1.1428236749
  0
LINE
  5
221
100
AcDbEntity
  8
0
100
AcDbLine
 62
7
  6
CONTINUOUS
 10
20.208634907
 20
1.101141841
 11
20.2080230104
 21
0.963465087
  0
LINE
  5
222
100
AcDbEntity
  8
0
100
AcDbLine
 62
7
  6
CONTINUOUS
 10
20.0066328138
 20
1.1745147986
 11
20.1443095678
 21
1.1739029019
  0
LINE
  5
223
100
AcDbEntity
  8
0
100
AcDbLine
 62
7
  6
CONTINUOUS
 10
20.1832714155
 20
1.1727031207
 11
20.238153505
 21
1.172335442
  0
LINE
  5
224
100
AcDbEntity
  8
0
100
AcDbLine
 62
7
  6
CONTINUOUS
 10
20.2756669918
 20
1.1717972817
 11
20.407916871
 21
1.1712095044
  0
CIRCLE
  5
225
100
AcDbEntity
  8
0
100
AcDbCircle
 62
7
  6
CONTINUOUS
 10
20.7509457401
 20
1.1693297793
 40
0.1722024983
  0
CIRCLE
  5
226
100
AcDbEntity
  8
0
100
AcDbCircle
 62
7
  6
CONTINUOUS
 10
20.7509457401
 20
1.1693297793
 40
0.0985164967
  0
LINE
  5
227
100
AcDbEntity
  8
0
100
AcDbLine
 62
7
  6
CONTINUOUS
 10
20.7169767782
 20
1.170462078
 11
20.7825395137
 21
1.1682766535
  0
LINE
  5
228
100
AcDbEntity
  8
0
100
AcDbLine
 62
7
  6
CONTINUOUS
 10
20.8177513651
 20
1.1693297793
 11
20.947965719
 21
1.1693297793
  0
LINE
  5
229
100
AcDbEntity
  8
0
100
AcDbLine
 62
7
  6
CONTINUOUS
 10
20.6875370113
 20
1.170462078
 11
20.5573226574
 21
1.170462078
  0
LINE
  5
22A
100
AcDbEntity
  8
0
100
AcDbLine
 62
7
  6
CONTINUOUS
 10
20.7486811426
 20
1.1987695462
 11
20.7486811426
 21
1.1432869085
  0
LINE
  5
22B
100
AcDbEntity
  8
0
100
AcDbLine
 62
7
  6
CONTINUOUS
 10
20.7498134414
 20
1.1059210505
 11
20.7498134414
 21
0.9757066966
  0
LINE
  5
22C
100
AcDbEntity
  8
0
100
AcDbLine
 62
7
  6
CONTINUOUS
 10
20.7486811426
 20
1.2338708068
 11
20.7486811426
 21
1.3640851607
  0
LINE
  5
22D
100
AcDbEntity
  8
0
100
AcDbLine
 62
7
  6
CONTINUOUS
 10
21.0702539817
 20
1.2701043662
 11
21.4790138229
 21
1.3448360823
  0
LINE
  5
22E
100
AcDbEntity
  8
0
100
AcDbLine
 62
7
  6
CONTINUOUS
 10
21.4790138229
 20
1.3448360823
 11
21.4790138229
 21
0.9779712941
  0
LINE
  5
22F
100
AcDbEntity
  8
0
100
AcDbLine
 62
7
  6
CONTINUOUS
 10
21.4790138229
 20
0.9779712941
 11
21.069121683
 21
1.0617614
  0
LINE
  5
230
100
AcDbEntity
  8
0
100
AcDbLine
 62
7
  6
CONTINUOUS
 10
21.0702539817
 20
1.2701043662
 11
21.069121683
 21
1.0617614
  0
LINE
  5
231
100
AcDbEntity
  8
0
100
AcDbLine
 62
7
  6
CONTINUOUS
 10
21.4790138229
 20
1.1693297793
 11
21.3159628059
 21
1.1693297793
  0
LINE
  5
232
100
AcDbEntity
  8
0
100
AcDbLine
 62
7
  6
CONTINUOUS
 10
21.2876553377
 20
1.1693297793
 11
21.2502894796
 21
1.1693297793
  0
LINE
  5
233
100
AcDbEntity
  8
0
100
AcDbLine
 62
7
  6
CONTINUOUS
 10
21.2208497126
 20
1.1659328831
 11
21.0713862804
 21
1.1659328831
  0
LINE
  5
234
100
AcDbEntity
  8
0
100
AcDbLine
 62
7
  6
CONTINUOUS
 10
20.4796138713
 20
1.5284908897
 11
20.4766766948
 21
0.9294458646
  0
ENDBLK
  5
235
100
AcDbEntity
  8
0
  6
BYBLOCK
 62
0
100
AcDbBlockEnd
  0
BLOCK
  5
236
100
AcDbEntity
  8
0
100
AcDbBlockBegin
  2
*T1
 70
1
 10
0.0
 20
0.0
  3
*T1
  1

  0
LINE
  5
237
100
AcDbEntity
  8
0
100
AcDbLine
 62
2
  6
CONTINUOUS
 10
9.275
 20
0.0
 11
-0.0
 21
0.0
  0
LINE
  5
238
100
AcDbEntity
  8
0
100
AcDbLine
 62
2
  6
CONTINUOUS
 10
9.275
 20
0.0
 11
9.275
 21
1.25
  0
LINE
  5
239
100
AcDbEntity
  8
0
100
AcDbLine
 62
2
  6
CONTINUOUS
 10
9.275
 20
0.625
 11
-0.0
 21
0.625
  0
LINE
  5
23A
100
AcDbEntity
  8
0
100
AcDbLine
 62
2
  6
CONTINUOUS
 10
9.275
 20
1.25
 11
-0.0
 21
1.25
  0
LINE
  5
23B
100
AcDbEntity
  8
0
100
AcDbLine
 62
2
  6
CONTINUOUS
 10
6.8
 20
0.0
 11
6.8
 21
1.25
  0
LINE
  5
23C
100
AcDbEntity
  8
0
100
AcDbLine
 62
2
  6
CONTINUOUS
 10
6.4
 20
0.0
 11
6.4
 21
0.625
  0
LINE
  5
23D
100
AcDbEntity
  8
0
100
AcDbLine
 62
2
  6
CONTINUOUS
 10
5.9
 20
0.0
 11
5.9
 21
0.625
  0
LINE
  5
23E
100
AcDbEntity
  8
0
100
AcDbLine
 62
2
  6
CONTINUOUS
 10
5.2
 20
0.0
 11
5.2
 21
0.625
  0
LINE
  5
23F
100
AcDbEntity
  8
0
100
AcDbLine
 62
2
  6
CONTINUOUS
 10
4.1
 20
0.0
 11
4.1
 21
1.25
  0
LINE
  5
240
100
AcDbEntity
  8
0
100
AcDbLine
 62
2
  6
CONTINUOUS
 10
-0.0
 20
0.0
 11
-0.0
 21
1.25
  0
MTEXT
  5
241
100
AcDbEntity
  8
0
100
AcDbMText
 62
2
  6
CONTINUOUS
  7
STANDARD
 71
2
 72
1
 10
6.6
 20
0.325
 30
0.0
 11
1.0
 21
0.0
 31
0.0
 44
0.9
  1
2
 40
0.125
 41
0.2
  0
MTEXT
  5
242
100
AcDbEntity
  8
0
100
AcDbMText
 62
2
  6
CONTINUOUS
  7
STANDARD
 71
2
 72
1
 10
6.15
 20
0.325
 30
0.0
 11
1.0
 21
0.0
 31
0.0
 44
0.9
  1
C
 40
0.125
 41
0.2
  0
MTEXT
  5
243
100
AcDbEntity
  8
0
100
AcDbMText
 62
2
  6
CONTINUOUS
  7
STANDARD
 71
2
 72
1
 10
5.55
 20
0.325
 30
0.0
 11
1.0
 21
0.0
 31
0.0
 44
0.9
  1
1.000
 40
0.125
 41
1.0
  0
MTEXT
  5
244
100
AcDbEntity
  8
0
100
AcDbMText
 62
2
  6
CONTINUOUS
  7
STANDARD
 71
2
 72
1
 10
4.65
 20
0.325
 30
0.0
 11
1.0
 21
0.0
 31
0.0
 44
0.9
  1
Oct-17-19
 40
0.125
 41
1.8
  0
MTEXT
  5
245
100
AcDbEntity
  8
0
100
AcDbMText
 62
2
  6
CONTINUOUS
  7
STANDARD
 71
2
 72
1
 10
2.05
 20
0.4625
 30
0.0
 11
1.0
 21
0.0
 31
0.0
 44
0.9
  1
T-2A Line mount\PCushion lock with shuttle
 40
0.125
 41
5.0
  0
MTEXT
  5
246
100
AcDbEntity
  8
0
100
AcDbMText
 62
2
  6
CONTINUOUS
  7
STANDARD
 71
1
 72
1
 10
6.45
 20
0.5625
 30
0.0
 11
1.0
 21
0.0
 31
0.0
 44
0.9
  1
SHEET
 40
0.06
 41
0.48
  0
MTEXT
  5
247
100
AcDbEntity
  8
0
100
AcDbMText
 62
2
  6
CONTINUOUS
  7
STANDARD
 71
1
 72
1
 10
5.95
 20
0.5625
 30
0.0
 11
1.0
 21
0.0
 31
0.0
 44
0.9
  1
DWG SIZE
 40
0.06
 41
0.768
  0
MTEXT
  5
248
100
AcDbEntity
  8
0
100
AcDbMText
 62
2
  6
CONTINUOUS
  7
STANDARD
 71
1
 72
1
 10
5.25
 20
0.5625
 30
0.0
 11
1.0
 21
0.0
 31
0.0
 44
0.9
  1
SCALE
 40
0.06
 41
0.48
  0
MTEXT
  5
249
100
AcDbEntity
  8
0
100
AcDbMText
 62
2
  6
CONTINUOUS
  7
STANDARD
 71
1
 72
1
 10
4.15
 20
0.5625
 30
0.0
 11
1.0
 21
0.0
 31
0.0
 44
0.9
  1
DATE
 40
0.06
 41
0.384
  0
MTEXT
  5
24A
100
AcDbEntity
  8
0
100
AcDbMText
 62
2
  6
CONTINUOUS
  7
STANDARD
 71
1
 72
1
 10
0.05
 20
0.5625
 30
0.0
 11
1.0
 21
0.0
 31
0.0
 44
0.9
  1
DESCRIPTION
 40
0.06
 41
1.056
  0
MTEXT
  5
24B
100
AcDbEntity
  8
0
100
AcDbMText
 62
2
  6
CONTINUOUS
  7
STANDARD
 71
2
 72
1
 10
5.45
 20
1.0375
 30
0.0
 11
1.0
 21
0.0
 31
0.0
 44
0.9
  1
ALL DIMENSIONS IN INCH\PVIEWS ARE THIRD ANGLE
 40
0.12
 41
4.224
  0
MTEXT
  5
24C
100
AcDbEntity
  8
0
100
AcDbMText
 62
2
  6
CONTINUOUS
  7
STANDARD
 71
2
 72
1
 10
2.05
 20
0.95
 30
0.0
 11
1.0
 21
0.0
 31
0.0
 44
0.9
  1
3BL
 40
0.125
 41
0.6
  0
MTEXT
  5
24D
100
AcDbEntity
  8
0
100
AcDbMText
 62
2
  6
CONTINUOUS
  7
STANDARD
 71
1
 72
1
 10
0.05
 20
1.1875
 30
0.0
 11
1.0
 21
0.0
 31
0.0
 44
0.9
  1
MODEL
 40
0.06
 41
0.48
  0
ENDBLK
  5
24E
100
AcDbEntity
  8
0
  6
BYBLOCK
 62
0
100
AcDbBlockEnd
  0
BLOCK
  5
24F
100
AcDbEntity
  8
0
100
AcDbBlockBegin
  2
*T2
 70
1
 10
0.0
 20
0.0
  3
*T2
  1

  0
LINE
  5
250
100
AcDbEntity
  8
0
100
AcDbLine
 62
2
  6
CONTINUOUS
 10
0.0
 20
0.0
 11
9.055
 21
0.0
  0
LINE
  5
251
100
AcDbEntity
  8
0
100
AcDbLine
 62
2
  6
CONTINUOUS
 10
0.0
 20
0.0
 11
0.0
 21
-2.594
  0
LINE
  5
252
100
AcDbEntity
  8
0
100
AcDbLine
 62
2
  6
CONTINUOUS
 10
0.0
 20
-0.344
 11
9.055
 21
-0.344
  0
LINE
  5
253
100
AcDbEntity
  8
0
100
AcDbLine
 62
2
  6
CONTINUOUS
 10
0.0
 20
-0.594
 11
9.055
 21
-0.594
  0
LINE
  5
254
100
AcDbEntity
  8
0
100
AcDbLine
 62
2
  6
CONTINUOUS
 10
0.0
 20
-0.844
 11
9.055
 21
-0.844
  0
LINE
  5
255
100
AcDbEntity
  8
0
100
AcDbLine
 62
2
  6
CONTINUOUS
 10
0.0
 20
-1.094
 11
9.055
 21
-1.094
  0
LINE
  5
256
100
AcDbEntity
  8
0
100
AcDbLine
 62
2
  6
CONTINUOUS
 10
0.0
 20
-1.344
 11
9.055
 21
-1.344
  0
LINE
  5
257
100
AcDbEntity
  8
0
100
AcDbLine
 62
2
  6
CONTINUOUS
 10
0.0
 20
-1.594
 11
9.055
 21
-1.594
  0
LINE
  5
258
100
AcDbEntity
  8
0
100
AcDbLine
 62
2
  6
CONTINUOUS
 10
0.0
 20
-1.844
 11
9.055
 21
-1.844
  0
LINE
  5
259
100
AcDbEntity
  8
0
100
AcDbLine
 62
2
  6
CONTINUOUS
 10
0.0
 20
-2.094
 11
9.055
 21
-2.094
  0
LINE
  5
25A
100
AcDbEntity
  8
0
100
AcDbLine
 62
2
  6
CONTINUOUS
 10
0.0
 20
-2.344
 11
9.055
 21
-2.344
  0
LINE
  5
25B
100
AcDbEntity
  8
0
100
AcDbLine
 62
2
  6
CONTINUOUS
 10
0.0
 20
-2.594
 11
9.055
 21
-2.594
  0
LINE
  5
25C
100
AcDbEntity
  8
0
100
AcDbLine
 62
2
  6
CONTINUOUS
 10
3.055
 20
0.0
 11
3.055
 21
-2.594
  0
LINE
  5
25D
100
AcDbEntity
  8
0
100
AcDbLine
 62
2
  6
CONTINUOUS
 10
9.055
 20
0.0
 11
9.055
 21
-2.594
  0
MTEXT
  5
25E
100
AcDbEntity
  8
0
100
AcDbMText
 62
2
  6
CONTINUOUS
  7
STANDARD
 71
2
 72
1
 10
1.5275
 20
-0.0995
 30
0.0
 11
1.0
 21
0.0
 31
0.0
 44
0.9
  1
Technical Data
 40
0.145
 41
3.248
  0
MTEXT
  5
25F
100
AcDbEntity
  8
0
100
AcDbMText
 62
2
  6
CONTINUOUS
  7
STANDARD
 71
2
 72
1
 10
4.555
 20
-0.0995
 30
0.0
 11
1.0
 21
0.0
 31
0.0
 44
0.9
  1
U.S. Units
 40
0.145
 41
2.32
  0
MTEXT
  5
260
100
AcDbEntity
  8
0
100
AcDbMText
 62
2
  6
CONTINUOUS
  7
STANDARD
 71
2
 72
1
 10
7.555
 20
-0.0995
 30
0.0
 11
1.0
 21
0.0
 31
0.0
 44
0.9
  1
Metric Units
 40
0.145
 41
2.784
  0
MTEXT
  5
261
100
AcDbEntity
  8
0
100
AcDbMText
 62
2
  6
CONTINUOUS
  7
STANDARD
 71
2
 72
1
 10
1.5275
 20
-0.4065
 30
0.0
 11
1.0
 21
0.0
 31
0.0
 44
0.9
  1
Cavity
 40
0.125
 41
1.2
  0
MTEXT
  5
262
100
AcDbEntity
  8
0
100
AcDbMText
 62
2
  6
CONTINUOUS
  7
STANDARD
 71
2
 72
1
 10
6.055
 20
-0.4065
 30
0.0
 11
1.0
 21
0.0
 31
0.0
 44
0.9
  1
T-2A
 40
0.125
 41
0.8
  0
MTEXT
  5
263
100
AcDbEntity
  8
0
100
AcDbMText
 62
2
  6
CONTINUOUS
  7
STANDARD
 71
2
 72
1
 10
1.5275
 20
-0.6565
 30
0.0
 11
1.0
 21
0.0
 31
0.0
 44
0.9
  1
Body Features
 40
0.125
 41
2.6
  0
MTEXT
  5
264
100
AcDbEntity
  8
0
100
AcDbMText
 62
2
  6
CONTINUOUS
  7
STANDARD
 71
2
 72
1
 10
6.055
 20
-0.6565
 30
0.0
 11
1.0
 21
0.0
 31
0.0
 44
0.9
  1
Cushion lock with shuttle
 40
0.125
 41
5.0
  0
MTEXT
  5
265
100
AcDbEntity
  8
0
100
AcDbMText
 62
2
  6
CONTINUOUS
  7
STANDARD
 71
2
 72
1
 10
1.5275
 20
-0.9065
 30
0.0
 11
1.0
 21
0.0
 31
0.0
 44
0.9
  1
Body Type
 40
0.125
 41
1.8
  0
MTEXT
  5
266
100
AcDbEntity
  8
0
100
AcDbMText
 62
2
  6
CONTINUOUS
  7
STANDARD
 71
2
 72
1
 10
6.055
 20
-0.9065
 30
0.0
 11
1.0
 21
0.0
 31
0.0
 44
0.9
  1
Line mount
 40
0.125
 41
2.0
  0
MTEXT
  5
267
100
AcDbEntity
  8
0
100
AcDbMText
 62
2
  6
CONTINUOUS
  7
STANDARD
 71
2
 72
1
 10
1.5275
 20
-1.1565
 30
0.0
 11
1.0
 21
0.0
 31
0.0
 44
0.9
  1
Interface
 40
0.125
 41
1.8
  0
MTEXT
  5
268
100
AcDbEntity
  8
0
100
AcDbMText
 62
2
  6
CONTINUOUS
  7
STANDARD
 71
2
 72
1
 10
6.055
 20
-1.1565
 30
0.0
 11
1.0
 21
0.0
 31
0.0
 44
0.9
  1
None
 40
0.125
 41
0.8
  0
MTEXT
  5
269
100
AcDbEntity
  8
0
100
AcDbMText
 62
2
  6
CONTINUOUS
  7
STANDARD
 71
2
 72
1
 10
1.5275
 20
-1.4065
 30
0.0
 11
1.0
 21
0.0
 31
0.0
 44
0.9
  1
Open Cavity Quantity
 40
0.125
 41
4.0
  0
MTEXT
  5
26A
100
AcDbEntity
  8
0
100
AcDbMText
 62
2
  6
CONTINUOUS
  7
STANDARD
 71
2
 72
1
 10
6.055
 20
-1.4065
 30
0.0
 11
1.0
 21
0.0
 31
0.0
 44
0.9
  1
2
 40
0.125
 41
0.2
  0
MTEXT
  5
26B
100
AcDbEntity
  8
0
100
AcDbMText
 62
2
  6
CONTINUOUS
  7
STANDARD
 71
2
 72
1
 10
1.5275
 20
-1.6565
 30
0.0
 11
1.0
 21
0.0
 31
0.0
 44
0.9
  1
Weight
 40
0.125
 41
1.2
  0
MTEXT
  5
26C
100
AcDbEntity
  8
0
100
AcDbMText
 62
2
  6
CONTINUOUS
  7
STANDARD
 71
2
 72
1
 10
4.555
 20
-1.6565
 30
0.0
 11
1.0
 21
0.0
 31
0.0
 44
0.9
  1
6.528 lb.
 40
0.125
 41
1.8
  0
MTEXT
  5
26D
100
AcDbEntity
  8
0
100
AcDbMText
 62
2
  6
CONTINUOUS
  7
STANDARD
 71
2
 72
1
 10
7.555
 20
-1.6565
 30
0.0
 11
1.0
 21
0.0
 31
0.0
 44
0.9
  1
2,961 kg.
 40
0.125
 41
1.8
  0
MTEXT
  5
26E
100
AcDbEntity
  8
0
100
AcDbMText
 62
2
  6
CONTINUOUS
  7
STANDARD
 71
2
 72
1
 10
1.5275
 20
-1.9065
 30
0.0
 11
1.0
 21
0.0
 31
0.0
 44
0.9
  1
Mounting Hole Diameter
 40
0.125
 41
4.4
  0
MTEXT
  5
26F
100
AcDbEntity
  8
0
100
AcDbMText
 62
2
  6
CONTINUOUS
  7
STANDARD
 71
2
 72
1
 10
4.555
 20
-1.9065
 30
0.0
 11
1.0
 21
0.0
 31
0.0
 44
0.9
  1
.41 in.
 40
0.125
 41
1.4
  0
MTEXT
  5
270
100
AcDbEntity
  8
0
100
AcDbMText
 62
2
  6
CONTINUOUS
  7
STANDARD
 71
2
 72
1
 10
7.555
 20
-1.9065
 30
0.0
 11
1.0
 21
0.0
 31
0.0
 44
0.9
  1
10,4 mm
 40
0.125
 41
1.4
  0
MTEXT
  5
271
100
AcDbEntity
  8
0
100
AcDbMText
 62
2
  6
CONTINUOUS
  7
STANDARD
 71
2
 72
1
 10
1.5275
 20
-2.1565
 30
0.0
 11
1.0
 21
0.0
 31
0.0
 44
0.9
  1
Mounting Hole Depth
 40
0.125
 41
3.8
  0
MTEXT
  5
272
100
AcDbEntity
  8
0
100
AcDbMText
 62
2
  6
CONTINUOUS
  7
STANDARD
 71
2
 72
1
 10
6.055
 20
-2.1565
 30
0.0
 11
1.0
 21
0.0
 31
0.0
 44
0.9
  1
Through
 40
0.125
 41
1.4
  0
MTEXT
  5
273
100
AcDbEntity
  8
0
100
AcDbMText
 62
2
  6
CONTINUOUS
  7
STANDARD
 71
2
 72
1
 10
1.5275
 20
-2.4065
 30
0.0
 11
1.0
 21
0.0
 31
0.0
 44
0.9
  1
Mounting Hole Quantity
 40
0.125
 41
4.4
  0
MTEXT
  5
274
100
AcDbEntity
  8
0
100
AcDbMText
 62
2
  6
CONTINUOUS
  7
STANDARD
 71
2
 72
1
 10
6.055
 20
-2.4065
 30
0.0
 11
1.0
 21
0.0
 31
0.0
 44
0.9
  1
2
 40
0.125
 41
0.2
  0
ENDBLK
  5
275
100
AcDbEntity
  8
0
  6
BYBLOCK
 62
0
100
AcDbBlockEnd
  0
BLOCK
  5
276
100
AcDbEntity
  8
0
100
AcDbBlockBegin
  2
*T3
 70
1
 10
0.0
 20
0.0
  3
*T3
  1

  0
LINE
  5
277
100
AcDbEntity
  8
0
100
AcDbLine
 62
2
  6
CONTINUOUS
 10
0.0
 20
0.0
 11
4.6
 21
0.0
  0
LINE
  5
278
100
AcDbEntity
  8
0
100
AcDbLine
 62
2
  6
CONTINUOUS
 10
0.0
 20
0.0
 11
0.0
 21
-1.43775
  0
LINE
  5
279
100
AcDbEntity
  8
0
100
AcDbLine
 62
2
  6
CONTINUOUS
 10
0.0
 20
-0.34375
 11
4.6
 21
-0.34375
  0
LINE
  5
27A
100
AcDbEntity
  8
0
100
AcDbLine
 62
2
  6
CONTINUOUS
 10
0.0
 20
-0.68775
 11
4.6
 21
-0.68775
  0
LINE
  5
27B
100
AcDbEntity
  8
0
100
AcDbLine
 62
2
  6
CONTINUOUS
 10
0.0
 20
-0.93775
 11
4.6
 21
-0.93775
  0
LINE
  5
27C
100
AcDbEntity
  8
0
100
AcDbLine
 62
2
  6
CONTINUOUS
 10
0.0
 20
-1.18775
 11
4.6
 21
-1.18775
  0
LINE
  5
27D
100
AcDbEntity
  8
0
100
AcDbLine
 62
2
  6
CONTINUOUS
 10
0.0
 20
-1.43775
 11
4.6
 21
-1.43775
  0
LINE
  5
27E
100
AcDbEntity
  8
0
100
AcDbLine
 62
2
  6
CONTINUOUS
 10
1.3
 20
-0.34375
 11
1.3
 21
-1.43775
  0
LINE
  5
27F
100
AcDbEntity
  8
0
100
AcDbLine
 62
2
  6
CONTINUOUS
 10
3.3
 20
-0.34375
 11
3.3
 21
-1.43775
  0
LINE
  5
280
100
AcDbEntity
  8
0
100
AcDbLine
 62
2
  6
CONTINUOUS
 10
4.6
 20
0.0
 11
4.6
 21
-1.43775
  0
MTEXT
  5
281
100
AcDbEntity
  8
0
100
AcDbMText
 62
2
  6
CONTINUOUS
  7
STANDARD
 71
2
 72
1
 10
2.3
 20
-0.099375
 30
0.0
 11
1.0
 21
0.0
 31
0.0
 44
0.9
  1
Port Headings
 40
0.145
 41
3.016
  0
MTEXT
  5
282
100
AcDbEntity
  8
0
100
AcDbMText
 62
2
  6
CONTINUOUS
  7
STANDARD
 71
2
 72
1
 10
0.65
 20
-0.44325
 30
0.0
 11
1.0
 21
0.0
 31
0.0
 44
0.9
  1
Product
 40
0.145
 41
1.624
  0
MTEXT
  5
283
100
AcDbEntity
  8
0
100
AcDbMText
 62
2
  6
CONTINUOUS
  7
STANDARD
 71
2
 72
1
 10
2.3
 20
-0.44325
 30
0.0
 11
1.0
 21
0.0
 31
0.0
 44
0.9
  1
Port
 40
0.145
 41
0.928
  0
MTEXT
  5
284
100
AcDbEntity
  8
0
100
AcDbMText
 62
2
  6
CONTINUOUS
  7
STANDARD
 71
2
 72
1
 10
3.95
 20
-0.44325
 30
0.0
 11
1.0
 21
0.0
 31
0.0
 44
0.9
  1
Size
 40
0.145
 41
0.928
  0
MTEXT
  5
285
100
AcDbEntity
  8
0
100
AcDbMText
 62
2
  6
CONTINUOUS
  7
STANDARD
 71
2
 72
1
 10
0.65
 20
-0.75025
 30
0.0
 11
1.0
 21
0.0
 31
0.0
 44
0.9
  1
3BL
 40
0.125
 41
0.6
  0
MTEXT
  5
286
100
AcDbEntity
  8
0
100
AcDbMText
 62
2
  6
CONTINUOUS
  7
STANDARD
 71
2
 72
1
 10
2.3
 20
-0.75025
 30
0.0
 11
1.0
 21
0.0
 31
0.0
 44
0.9
  1
Ports C1, C2, V1, V2
 40
0.125
 41
4.0
  0
MTEXT
  5
287
100
AcDbEntity
  8
0
100
AcDbMText
 62
2
  6
CONTINUOUS
  7
STANDARD
 71
2
 72
1
 10
3.95
 20
-0.75025
 30
0.0
 11
1.0
 21
0.0
 31
0.0
 44
0.9
  1
SAE 12
 40
0.125
 41
1.2
  0
MTEXT
  5
288
100
AcDbEntity
  8
0
100
AcDbMText
 62
2
  6
CONTINUOUS
  7
STANDARD
 71
2
 72
1
 10
0.65
 20
-1.00025
 30
0.0
 11
1.0
 21
0.0
 31
0.0
 44
0.9
  1
3BL
 40
0.125
 41
0.6
  0
MTEXT
  5
289
100
AcDbEntity
  8
0
100
AcDbMText
 62
2
  6
CONTINUOUS
  7
STANDARD
 71
2
 72
1
 10
2.3
 20
-1.00025
 30
0.0
 11
1.0
 21
0.0
 31
0.0
 44
0.9
  1
Port S
 40
0.125
 41
1.2
  0
MTEXT
  5
28A
100
AcDbEntity
  8
0
100
AcDbMText
 62
2
  6
CONTINUOUS
  7
STANDARD
 71
2
 72
1
 10
3.95
 20
-1.00025
 30
0.0
 11
1.0
 21
0.0
 31
0.0
 44
0.9
  1
SAE 4
 40
0.125
 41
1.0
  0
MTEXT
  5
28B
100
AcDbEntity
  8
0
100
AcDbMText
 62
2
  6
CONTINUOUS
  7
STANDARD
 71
2
 72
1
 10
0.65
 20
-1.25025
 30
0.0
 11
1.0
 21
0.0
 31
0.0
 44
0.9
  1
3BL
 40
0.125
 41
0.6
  0
MTEXT
  5
28C
100
AcDbEntity
  8
0
100
AcDbMText
 62
2
  6
CONTINUOUS
  7
STANDARD
 71
2
 72
1
 10
2.3
 20
-1.25025
 30
0.0
 11
1.0
 21
0.0
 31
0.0
 44
0.9
  1
Port T
 40
0.125
 41
1.2
  0
MTEXT
  5
28D
100
AcDbEntity
  8
0
100
AcDbMText
 62
2
  6
CONTINUOUS
  7
STANDARD
 71
2
 72
1
 10
3.95
 20
-1.25025
 30
0.0
 11
1.0
 21
0.0
 31
0.0
 44
0.9
  1
SAE 12
 40
0.125
 41
1.2
  0
ENDBLK
  5
28E
100
AcDbEntity
  8
0
  6
BYBLOCK
 62
0
100
AcDbBlockEnd
  0
ENDSEC
  0
SECTION
  2
ENTITIES
  0
IMAGE
  5
28F
100
AcDbEntity
  8
0
100
AcDbRasterImage
 62
7
  6
CONTINUOUS
 10
19.2297077316
 20
0.3094318264
 30
0.0
 11
0.0066666667
 21
0.0
 31
0.0
 12
0.0
 22
0.0066666667
 32
0.0
 13
369.0
 23
92.0
340
       3CE
 70
9
280
0
281
50
282
50
283
0
360
       3C8
 71
1
 91
2
 14
-0.5
 24
-0.5
 14
368.5
 24
91.5
  0
INSERT
  5
290
100
AcDbEntity
  8
0
100
AcDbBlockReference
 62
2
  6
CONTINUOUS
  2
SUN_FIRST_THIRD_ANGLE_BL0
 10
20.4816717061
 20
1.2289683772
  0
ACAD_TABLE
  5
291
100
AcDbEntity
  8
0
 62
2
  6
CONTINUOUS
100
AcDbBlockReference
  2
*T1
 10
12.42375
 20
0.30125
 30
0.0
100
AcDbTable
342
       3D0
343
20F
 11
1.0
 21
0.0
 31
0.0
 90
6
 91
4
 92
6
 93
20
 94
0
 95
0
 96
0
 70
1
 41
0.0
141
0.525
141
0.1
141
0.525
141
0.1
142
4.1
142
1.1
142
0.7
142
0.5
142
0.4
142
2.475
171
1
172
0
173
0
174
0
175
1
176
1
 91
33
178
0
145
0.0
301
CELL_VALUE
 90
4
  1
T-2A Line mount\PCushion lock with shuttle
304
ACVALUE_END
170
2
140
0.125
171
1
172
0
173
0
174
0
175
1
176
1
 91
33
178
0
145
0.0
301
CELL_VALUE
 90
4
  1
Oct-17-19
304
ACVALUE_END
170
5
140
0.125
171
1
172
0
173
0
174
0
175
1
176
1
 91
33
178
0
145
0.0
301
CELL_VALUE
 90
4
  1
1.000
304
ACVALUE_END
170
5
140
0.125
171
1
172
0
173
0
174
0
175
1
176
1
 91
33
178
0
145
0.0
301
CELL_VALUE
 90
4
  1
C
304
ACVALUE_END
170
5
140
0.125
171
1
172
0
173
0
174
0
175
1
176
1
 91
33
178
0
145
0.0
301
CELL_VALUE
 90
4
  1
2
304
ACVALUE_END
170
5
140
0.125
171
1
172
0
173
0
174
0
175
1
176
1
 91
33
178
0
145
0.0
301
CELL_VALUE
 90
4
  1
 
304
ACVALUE_END
170
1
140
0.125
171
1
172
0
173
0
174
0
175
1
176
1
 91
33
178
0
145
0.0
301
CELL_VALUE
 90
4
  1
DESCRIPTION
304
ACVALUE_END
170
1
140
0.06
171
1
172
0
173
0
174
0
175
1
176
1
 91
33
178
0
145
0.0
301
CELL_VALUE
 90
4
  1
DATE
304
ACVALUE_END
170
1
140
0.06
171
1
172
0
173
0
174
0
175
1
176
1
 91
33
178
0
145
0.0
301
CELL_VALUE
 90
4
  1
SCALE
304
ACVALUE_END
170
1
140
0.06
171
1
172
0
173
0
174
0
175
1
176
1
 91
33
178
0
145
0.0
301
CELL_VALUE
 90
4
  1
DWG SIZE
304
ACVALUE_END
170
1
140
0.06
171
1
172
0
173
0
174
0
175
1
176
1
 91
33
178
0
145
0.0
301
CELL_VALUE
 90
4
  1
SHEET
304
ACVALUE_END
170
1
140
0.06
171
1
172
0
173
0
174
0
175
1
176
1
 91
33
178
0
145
0.0
301
CELL_VALUE
 90
4
  1
 
304
ACVALUE_END
170
1
140
0.125
171
1
172
0
173
0
174
0
175
1
176
1
 91
33
178
0
145
0.0
301
CELL_VALUE
 90
4
  1
3BL
304
ACVALUE_END
170
5
140
0.125
171
1
172
0
173
0
174
0
175
4
176
1
 91
33
178
0
145
0.0
301
CELL_VALUE
 90
4
  1
ALL DIMENSIONS IN INCH\PVIEWS ARE THIRD ANGLE
304
ACVALUE_END
170
5
140
0.12
171
1
172
0
173
1
174
0
175
1
176
1
 91
1
178
0
145
0.0
170
1
171
1
172
0
173
1
174
0
175
1
176
1
 91
1
178
0
145
0.0
170
1
171
1
172
0
173
1
174
0
175
1
176
1
 91
1
178
0
145
0.0
170
5
171
1
172
0
173
0
174
0
175
1
176
1
 91
33
178
0
145
0.0
301
CELL_VALUE
 90
4
  1
 
304
ACVALUE_END
170
1
140
0.125
171
1
172
0
173
0
174
0
175
1
176
1
 91
33
178
0
145
0.0
301
CELL_VALUE
 90
4
  1
MODEL
304
ACVALUE_END
170
1
140
0.06
171
1
172
0
173
0
174
0
175
1
176
1
 91
33
178
0
145
0.0
301
CELL_VALUE
 90
4
  1
 
304
ACVALUE_END
170
1
140
0.125
171
1
172
0
173
0
174
0
175
1
176
1
 91
33
178
0
145
0.0
301
CELL_VALUE
 90
4
  1
 
304
ACVALUE_END
170
1
140
0.125
171
1
172
0
173
0
174
0
175
1
176
1
 91
33
178
0
145
0.0
301
CELL_VALUE
 90
4
  1
 
304
ACVALUE_END
170
1
140
0.125
171
1
172
0
173
0
174
0
175
1
176
1
 91
33
178
0
145
0.0
301
CELL_VALUE
 90
4
  1
 
304
ACVALUE_END
170
1
140
0.125
171
1
172
0
173
0
174
0
175
1
176
1
 91
33
178
0
145
0.0
301
CELL_VALUE
 90
4
  1
 
304
ACVALUE_END
170
1
140
0.125
  0
ACAD_TABLE
  5
292
100
AcDbEntity
  8
0
 62
2
  6
CONTINUOUS
100
AcDbBlockReference
  2
*T2
 10
12.4237499994
 20
16.47875
 30
0.0
100
AcDbTable
342
       3CF
343
210
 11
1.0
 21
0.0
 31
0.0
 90
22
 91
10
 92
3
 93
16
 94
0
 95
0
 96
0
 41
0.028
141
0.344
141
0.25
141
0.25
141
0.25
141
0.25
141
0.25
141
0.25
141
0.25
141
0.25
141
0.25
142
3.055
142
3.0
142
3.0
171
1
172
0
173
0
174
0
175
1
176
1
 91
33
178
0
145
0.0
301
CELL_VALUE
 90
4
  1
Technical Data
304
ACVALUE_END
170
5
140
0.145
171
1
172
0
173
0
174
0
175
1
176
1
 91
33
178
0
145
0.0
301
CELL_VALUE
 90
4
  1
U.S. Units
304
ACVALUE_END
170
5
140
0.145
171
1
172
0
173
0
174
0
175
1
176
1
 91
33
178
0
145
0.0
301
CELL_VALUE
 90
4
  1
Metric Units
304
ACVALUE_END
170
5
140
0.145
171
1
172
0
173
0
174
0
175
1
176
1
 91
33
178
0
145
0.0
301
CELL_VALUE
 90
4
  1
Cavity
304
ACVALUE_END
170
5
140
0.125
171
1
172
0
173
0
174
0
175
2
176
1
 91
33
178
0
145
0.0
301
CELL_VALUE
 90
4
  1
T-2A
304
ACVALUE_END
170
5
140
0.125
171
1
172
0
173
1
174
0
175
1
176
1
 91
1
178
0
145
0.0
170
1
171
1
172
0
173
0
174
0
175
1
176
1
 91
33
178
0
145
0.0
301
CELL_VALUE
 90
4
  1
Body Features
304
ACVALUE_END
170
5
140
0.125
171
1
172
0
173
0
174
0
175
2
176
1
 91
33
178
0
145
0.0
301
CELL_VALUE
 90
4
  1
Cushion lock with shuttle
304
ACVALUE_END
170
5
140
0.125
171
1
172
0
173
1
174
0
175
1
176
1
 91
1
178
0
145
0.0
170
1
171
1
172
0
173
0
174
0
175
1
176
1
 91
33
178
0
145
0.0
301
CELL_VALUE
 90
4
  1
Body Type
304
ACVALUE_END
170
5
140
0.125
171
1
172
0
173
0
174
0
175
2
176
1
 91
33
178
0
145
0.0
301
CELL_VALUE
 90
4
  1
Line mount
304
ACVALUE_END
170
5
140
0.125
171
1
172
0
173
1
174
0
175
1
176
1
 91
1
178
0
145
0.0
170
1
171
1
172
0
173
0
174
0
175
1
176
1
 91
33
178
0
145
0.0
301
CELL_VALUE
 90
4
  1
Interface
304
ACVALUE_END
170
5
140
0.125
171
1
172
0
173
0
174
0
175
2
176
1
 91
33
178
0
145
0.0
301
CELL_VALUE
 90
4
  1
None
304
ACVALUE_END
170
5
140
0.125
171
1
172
0
173
1
174
0
175
1
176
1
 91
1
178
0
145
0.0
170
1
171
1
172
0
173
0
174
0
175
1
176
1
 91
33
178
0
145
0.0
301
CELL_VALUE
 90
4
  1
Open Cavity Quantity
304
ACVALUE_END
170
5
140
0.125
171
1
172
0
173
0
174
0
175
2
176
1
 91
33
178
0
145
0.0
301
CELL_VALUE
 90
4
  1
2
304
ACVALUE_END
170
5
140
0.125
171
1
172
0
173
1
174
0
175
1
176
1
 91
1
178
0
145
0.0
170
1
171
1
172
0
173
0
174
0
175
1
176
1
 91
33
178
0
145
0.0
301
CELL_VALUE
 90
4
  1
Weight
304
ACVALUE_END
170
5
140
0.125
171
1
172
0
173
0
174
0
175
1
176
1
 91
33
178
0
145
0.0
301
CELL_VALUE
 90
4
  1
6.528 lb.
304
ACVALUE_END
170
5
140
0.125
171
1
172
0
173
0
174
0
175
1
176
1
 91
33
178
0
145
0.0
301
CELL_VALUE
 90
4
  1
2,961 kg.
304
ACVALUE_END
170
5
140
0.125
171
1
172
0
173
0
174
0
175
1
176
1
 91
33
178
0
145
0.0
301
CELL_VALUE
 90
4
  1
Mounting Hole Diameter
304
ACVALUE_END
170
5
140
0.125
171
1
172
0
173
0
174
0
175
1
176
1
 91
33
178
0
145
0.0
301
CELL_VALUE
 90
4
  1
.41 in.
304
ACVALUE_END
170
5
140
0.125
171
1
172
0
173
0
174
0
175
1
176
1
 91
33
178
0
145
0.0
301
CELL_VALUE
 90
4
  1
10,4 mm
304
ACVALUE_END
170
5
140
0.125
171
1
172
0
173
0
174
0
175
1
176
1
 91
33
178
0
145
0.0
301
CELL_VALUE
 90
4
  1
Mounting Hole Depth
304
ACVALUE_END
170
5
140
0.125
171
1
172
0
173
0
174
0
175
2
176
1
 91
33
178
0
145
0.0
301
CELL_VALUE
 90
4
  1
Through
304
ACVALUE_END
170
5
140
0.125
171
1
172
0
173
1
174
0
175
1
176
1
 91
1
178
0
145
0.0
170
1
171
1
172
0
173
0
174
0
175
1
176
1
 91
33
178
0
145
0.0
301
CELL_VALUE
 90
4
  1
Mounting Hole Quantity
304
ACVALUE_END
170
5
140
0.125
171
1
172
0
173
0
174
0
175
2
176
1
 91
33
178
0
145
0.0
301
CELL_VALUE
 90
4
  1
2
304
ACVALUE_END
170
5
140
0.125
171
1
172
0
173
1
174
0
175
1
176
1
 91
1
178
0
145
0.0
170
1
  0
ACAD_TABLE
  5
293
100
AcDbEntity
  8
0
 62
2
  6
CONTINUOUS
100
AcDbBlockReference
  2
*T3
 10
0.52125
 20
1.959
 30
0.0
100
AcDbTable
342
       3CF
343
211
 11
1.0
 21
0.0
 31
0.0
 90
22
 91
5
 92
3
 93
16
 94
0
 95
0
 96
0
 41
0.05
141
0.34375
141
0.344
141
0.25
141
0.25
141
0.25
142
1.3
142
2.0
142
1.3
171
1
172
0
173
0
174
0
175
3
176
1
 91
33
178
0
145
0.0
301
CELL_VALUE
 90
4
  1
Port Headings
304
ACVALUE_END
170
5
140
0.145
171
1
172
0
173
1
174
0
175
1
176
1
 91
1
178
0
145
0.0
170
1
171
1
172
0
173
1
174
0
175
1
176
1
 91
1
178
0
145
0.0
170
1
171
1
172
0
173
0
174
0
175
1
176
1
 91
33
178
0
145
0.0
301
CELL_VALUE
 90
4
  1
Product
304
ACVALUE_END
170
5
140
0.145
171
1
172
0
173
0
174
0
175
1
176
1
 91
33
178
0
145
0.0
301
CELL_VALUE
 90
4
  1
Port
304
ACVALUE_END
170
5
140
0.145
171
1
172
0
173
0
174
0
175
1
176
1
 91
33
178
0
145
0.0
301
CELL_VALUE
 90
4
  1
Size
304
ACVALUE_END
170
5
140
0.145
171
1
172
0
173
0
174
0
175
1
176
1
 91
33
178
0
145
0.0
301
CELL_VALUE
 90
4
  1
3BL
304
ACVALUE_END
170
5
140
0.125
171
1
172
0
173
0
174
0
175
1
176
1
 91
33
178
0
145
0.0
301
CELL_VALUE
 90
4
  1
Ports C1, C2, V1, V2
304
ACVALUE_END
170
5
140
0.125
171
1
172
0
173
0
174
0
175
1
176
1
 91
33
178
0
145
0.0
301
CELL_VALUE
 90
4
  1
SAE 12
304
ACVALUE_END
170
5
140
0.125
171
1
172
0
173
0
174
0
175
1
176
1
 91
33
178
0
145
0.0
301
CELL_VALUE
 90
4
  1
3BL
304
ACVALUE_END
170
5
140
0.125
171
1
172
0
173
0
174
0
175
1
176
1
 91
33
178
0
145
0.0
301
CELL_VALUE
 90
4
  1
Port S
304
ACVALUE_END
170
5
140
0.125
171
1
172
0
173
0
174
0
175
1
176
1
 91
33
178
0
145
0.0
301
CELL_VALUE
 90
4
  1
SAE 4
304
ACVALUE_END
170
5
140
0.125
171
1
172
0
173
0
174
0
175
1
176
1
 91
33
178
0
145
0.0
301
CELL_VALUE
 90
4
  1
3BL
304
ACVALUE_END
170
5
140
0.125
171
1
172
0
173
0
174
0
175
1
176
1
 91
33
178
0
145
0.0
301
CELL_VALUE
 90
4
  1
Port T
304
ACVALUE_END
170
5
140
0.125
171
1
172
0
173
0
174
0
175
1
176
1
 91
33
178
0
145
0.0
301
CELL_VALUE
 90
4
  1
SAE 12
304
ACVALUE_END
170
5
140
0.125
  0
MTEXT
  5
294
100
AcDbEntity
  8
0
100
AcDbMText
 62
2
  6
CONTINUOUS
  7
STANDARD
 71
1
 72
1
 10
0.52125
 20
5.75995
 30
0.0
 11
1.0
 21
0.0
 31
0.0
 44
0.6
  3
Notes\P \P1. Important: Carefully consider\P   the maximum system pressure. The\P   pressure rating of the manifold is\P   dependent on the manifold material,\P   with the port type/size a secondary\P   consideration. Manifolds\P   constructed of alu
  1
minum are not\P   rated for pressures higher than\P   3000 psi (210 bar), regardless of\P   the port type/size specified.
 40
0.1
 41
3.04
  0
LINE
  5
295
100
AcDbEntity
  8
0
100
AcDbLine
 62
7
  6
CONTINUOUS
 10
0.30125
 20
0.30125
 11
0.30125
 21
16.69875
  0
LINE
  5
296
100
AcDbEntity
  8
0
100
AcDbLine
 62
7
  6
CONTINUOUS
 10
0.30125
 20
0.30125
 11
21.69875
 21
0.30125
  0
LINE
  5
297
100
AcDbEntity
  8
0
100
AcDbLine
 62
7
  6
CONTINUOUS
 10
0.30125
 20
16.69875
 11
21.69875
 21
16.69875
  0
LINE
  5
298
100
AcDbEntity
  8
0
100
AcDbLine
 62
7
  6
CONTINUOUS
 10
21.69875
 20
0.30125
 11
21.69875
 21
16.69875
  0
LINE
  5
299
100
AcDbEntity
  8
0
100
AcDbLine
 62
7
  6
CONTINUOUS
 10
8.4211011542
 20
9.8200858855
 11
9.7151953117
 21
11.0700849279
  0
LINE
  5
29A
100
AcDbEntity
  8
0
100
AcDbLine
 62
7
  6
CONTINUOUS
 10
8.4211011542
 20
6.1978638222
 11
8.4211011542
 21
9.8200858855
  0
LINE
  5
29B
100
AcDbEntity
  8
0
100
AcDbLine
 62
7
  6
CONTINUOUS
 10
12.2848046883
 20
5.9299150721
 11
8.4211011542
 21
6.1978638222
  0
LINE
  5
29C
100
AcDbEntity
  8
0
100
AcDbLine
 62
4
  6
CONTINUOUS
 10
9.626093689
 20
6.4040750251
 11
9.6840492407
 21
6.400055794
  0
LINE
  5
29D
100
AcDbEntity
  8
0
100
AcDbLine
 62
4
  6
CONTINUOUS
 10
11.0749825143
 20
6.3035942438
 11
11.132938066
 21
6.2995750126
  0
LINE
  5
29E
100
AcDbEntity
  8
0
100
AcDbLine
 62
4
  6
CONTINUOUS
 10
9.6623159088
 20
6.5174741091
 11
9.6768047967
 21
6.506810045
  0
LINE
  5
29F
100
AcDbEntity
  8
0
100
AcDbLine
 62
4
  6
CONTINUOUS
 10
9.6768047967
 20
6.506810045
 11
9.6840492407
 21
6.4966483779
  0
LINE
  5
2A0
100
AcDbEntity
  8
0
100
AcDbLine
 62
4
  6
CONTINUOUS
 10
9.7492492364
 20
6.4341711945
 11
9.7927159002
 21
6.4311567712
  0
LINE
  5
2A1
100
AcDbEntity
  8
0
100
AcDbLine
 62
4
  6
CONTINUOUS
 10
11.1981380617
 20
6.3336904132
 11
11.2416047255
 21
6.3306759898
  0
LINE
  5
2A2
100
AcDbEntity
  8
0
100
AcDbLine
 62
4
  6
CONTINUOUS
 10
9.5174270295
 20
6.4695666353
 11
9.5608936933
 21
6.4665522119
  0
LINE
  5
2A3
100
AcDbEntity
  8
0
100
AcDbLine
 62
4
  6
CONTINUOUS
 10
10.9663158548
 20
6.369085854
 11
11.0097825186
 21
6.3660714306
  0
LINE
  5
2A4
100
AcDbEntity
  8
0
100
AcDbLine
 62
4
  6
CONTINUOUS
 10
9.3870270382
 20
6.5365654571
 11
9.4594714778
 21
6.5315414181
  0
LINE
  5
2A5
100
AcDbEntity
  8
0
100
AcDbLine
 62
4
  6
CONTINUOUS
 10
9.6478270209
 20
6.5184789169
 11
9.6623159088
 21
6.5174741091
  0
LINE
  5
2A6
100
AcDbEntity
  8
0
100
AcDbLine
 62
4
  6
CONTINUOUS
 10
10.8359158634
 20
6.4360846758
 11
10.9083603031
 21
6.4310606368
  0
LINE
  5
2A7
100
AcDbEntity
  8
0
100
AcDbLine
 62
4
  6
CONTINUOUS
 10
11.0967158462
 20
6.4179981356
 11
11.1112047341
 21
6.4169933278
  0
LINE
  5
2A8
100
AcDbEntity
  8
0
100
AcDbLine
 62
4
  6
CONTINUOUS
 10
9.7709825683
 20
6.5099380506
 11
9.8072047881
 21
6.3915149277
  0
LINE
  5
2A9
100
AcDbEntity
  8
0
100
AcDbLine
 62
4
  6
CONTINUOUS
 10
9.423249258
 20
6.5340534376
 11
9.423249258
 21
6.4181423342
  0
LINE
  5
2AA
100
AcDbEntity
  8
0
100
AcDbLine
 62
4
  6
CONTINUOUS
 10
11.1112047341
 20
6.4169933278
 11
11.125693622
 21
6.4063292637
  0
LINE
  5
2AB
100
AcDbEntity
  8
0
100
AcDbLine
 62
4
  6
CONTINUOUS
 10
9.6840492407
 20
6.4966483779
 11
9.6840492407
 21
6.4773298652
  0
LINE
  5
2AC
100
AcDbEntity
  8
0
100
AcDbLine
 62
4
  6
CONTINUOUS
 10
9.6792195894
 20
8.206672131
 11
9.7154418092
 21
8.0882490081
  0
LINE
  5
2AD
100
AcDbEntity
  8
0
100
AcDbLine
 62
4
  6
CONTINUOUS
 10
9.8603306885
 20
8.1747935141
 11
9.8603306885
 21
8.1554750015
  0
LINE
  5
2AE
100
AcDbEntity
  8
0
100
AcDbLine
 62
4
  6
CONTINUOUS
 10
9.8096195807
 20
8.1106955333
 11
9.8023751368
 21
8.0822201614
  0
LINE
  5
2AF
100
AcDbEntity
  8
0
100
AcDbLine
 62
4
  6
CONTINUOUS
 10
9.7154418092
 20
8.0882490081
 11
9.751664029
 21
8.2016480921
  0
LINE
  5
2B0
100
AcDbEntity
  8
0
100
AcDbLine
 62
4
  6
CONTINUOUS
 10
9.8530862445
 20
8.1849551812
 11
9.8603306885
 21
8.1747935141
  0
LINE
  5
2B1
100
AcDbEntity
  8
0
100
AcDbLine
 62
4
  6
CONTINUOUS
 10
11.125693622
 20
6.4063292637
 11
11.132938066
 21
6.3961675965
  0
LINE
  5
2B2
100
AcDbEntity
  8
0
100
AcDbLine
 62
4
  6
CONTINUOUS
 10
9.633338133
 20
6.4325503971
 11
9.626093689
 21
6.4040750251
  0
LINE
  5
2B3
100
AcDbEntity
  8
0
100
AcDbLine
 62
4
  6
CONTINUOUS
 10
9.8023751368
 20
8.1788127453
 11
9.8096195807
 21
8.1879696046
  0
LINE
  5
2B4
100
AcDbEntity
  8
0
100
AcDbLine
 62
4
  6
CONTINUOUS
 10
9.8385973566
 20
8.1956192453
 11
9.8530862445
 21
8.1849551812
  0
LINE
  5
2B5
100
AcDbEntity
  8
0
100
AcDbLine
 62
4
  6
CONTINUOUS
 10
9.7347603485
 20
6.3965389667
 11
9.7709825683
 21
6.5099380506
  0
LINE
  5
2B6
100
AcDbEntity
  8
0
100
AcDbLine
 62
4
  6
CONTINUOUS
 10
9.8241084686
 20
8.1290092416
 11
9.8096195807
 21
8.1106955333
  0
LINE
  5
2B7
100
AcDbEntity
  8
0
100
AcDbLine
 62
4
  6
CONTINUOUS
 10
9.8603306885
 20
8.1554750015
 11
9.8530862445
 21
8.1463181421
  0
LINE
  5
2B8
100
AcDbEntity
  8
0
100
AcDbLine
 62
4
  6
CONTINUOUS
 10
9.8023751368
 20
8.0822201614
 11
9.8603306885
 21
8.0782009302
  0
LINE
  5
2B9
100
AcDbEntity
  8
0
100
AcDbLine
 62
4
  6
CONTINUOUS
 10
9.8096195807
 20
8.1879696046
 11
9.8241084686
 21
8.1966240531
  0
LINE
  5
2BA
100
AcDbEntity
  8
0
100
AcDbLine
 62
4
  6
CONTINUOUS
 10
9.8530862445
 20
8.1463181421
 11
9.8241084686
 21
8.1290092416
  0
LINE
  5
2BB
100
AcDbEntity
  8
0
100
AcDbLine
 62
4
  6
CONTINUOUS
 10
9.8241084686
 20
8.1966240531
 11
9.8385973566
 21
8.1956192453
  0
LINE
  5
2BC
100
AcDbEntity
  8
0
100
AcDbLine
 62
4
  6
CONTINUOUS
 10
11.2198713936
 20
6.4094572693
 11
11.2560936134
 21
6.2910341464
  0
LINE
  5
2BD
100
AcDbEntity
  8
0
100
AcDbLine
 62
4
  6
CONTINUOUS
 10
10.8721380833
 20
6.4335726563
 11
10.8721380833
 21
6.3176615529
  0
LINE
  5
2BE
100
AcDbEntity
  8
0
100
AcDbLine
 62
4
  6
CONTINUOUS
 10
10.905945443
 20
8.1215984041
 11
10.9421676628
 21
8.0031752812
  0
LINE
  5
2BF
100
AcDbEntity
  8
0
100
AcDbLine
 62
4
  6
CONTINUOUS
 10
11.0580787663
 20
8.1110479223
 11
11.0580787663
 21
7.9951368189
  0
LINE
  5
2C0
100
AcDbEntity
  8
0
100
AcDbLine
 62
4
  6
CONTINUOUS
 10
11.132938066
 20
6.3961675965
 11
11.132938066
 21
6.3768490839
  0
LINE
  5
2C1
100
AcDbEntity
  8
0
100
AcDbLine
 62
7
  6
CONTINUOUS
 10
11.1486873685
 20
7.3533454012
 11
11.1482116988
 21
7.3433432496
  0
LINE
  5
2C2
100
AcDbEntity
  8
0
100
AcDbLine
 62
4
  6
CONTINUOUS
 10
10.9421676628
 20
8.0031752812
 11
10.9783898827
 21
8.1165743652
  0
LINE
  5
2C3
100
AcDbEntity
  8
0
100
AcDbLine
 62
4
  6
CONTINUOUS
 10
9.626093689
 20
6.500667609
 11
9.633338133
 21
6.5098244683
  0
LINE
  5
2C4
100
AcDbEntity
  8
0
100
AcDbLine
 62
4
  6
CONTINUOUS
 10
9.6478270209
 20
6.4508641054
 11
9.633338133
 21
6.4325503971
  0
LINE
  5
2C5
100
AcDbEntity
  8
0
100
AcDbLine
 62
4
  6
CONTINUOUS
 10
9.6840492407
 20
6.4773298652
 11
9.6768047967
 21
6.4681730059
  0
LINE
  5
2C6
100
AcDbEntity
  8
0
100
AcDbLine
 62
7
  6
CONTINUOUS
 10
12.2848046883
 20
9.5521371353
 11
13.5788988458
 21
10.8021361778
  0
LINE
  5
2C7
100
AcDbEntity
  8
0
100
AcDbLine
 62
4
  6
CONTINUOUS
 10
13.074941587
 20
8.7022546164
 11
13.0660678029
 21
8.6992027747
  0
LINE
  5
2C8
100
AcDbEntity
  8
0
100
AcDbLine
 62
4
  6
CONTINUOUS
 10
12.9318517534
 20
8.3051723104
 11
12.9340702013
 21
8.3045553751
  0
LINE
  5
2C9
100
AcDbEntity
  8
0
100
AcDbLine
 62
4
  6
CONTINUOUS
 10
11.0822269582
 20
6.3320696158
 11
11.0749825143
 21
6.3035942438
  0
LINE
  5
2CA
100
AcDbEntity
  8
0
100
AcDbLine
 62
4
  6
CONTINUOUS
 10
12.8028121009
 20
7.8592902267
 11
12.8146438189
 21
7.8486404835
  0
LINE
  5
2CB
100
AcDbEntity
  8
0
100
AcDbLine
 62
4
  6
CONTINUOUS
 10
11.1836491737
 20
6.2960581854
 11
11.2198713936
 21
6.4094572693
  0
LINE
  5
2CC
100
AcDbEntity
  8
0
100
AcDbLine
 62
7
  6
CONTINUOUS
 10
11.3271610076
 20
9.3672902717
 11
11.3079076183
 21
9.3682915635
  0
LINE
  5
2CD
100
AcDbEntity
  8
0
100
AcDbLine
 62
7
  6
CONTINUOUS
 10
9.3953092405
 20
9.5012646468
 11
9.3760558513
 21
9.5022659386
  0
LINE
  5
2CE
100
AcDbEntity
  8
0
100
AcDbLine
 62
4
  6
CONTINUOUS
 10
12.7909803655
 20
8.5052431904
 11
12.7998541537
 21
8.5138146122
  0
LINE
  5
2CF
100
AcDbEntity
  8
0
100
AcDbLine
 62
4
  6
CONTINUOUS
 10
13.0320516109
 20
8.7381001461
 11
13.0327910904
 21
8.7388144285
  0
LINE
  5
2D0
100
AcDbEntity
  8
0
100
AcDbLine
 62
4
  6
CONTINUOUS
 10
9.633338133
 20
6.5098244683
 11
9.6478270209
 21
6.5184789169
  0
LINE
  5
2D1
100
AcDbEntity
  8
0
100
AcDbLine
 62
4
  6
CONTINUOUS
 10
9.6768047967
 20
6.4681730059
 11
9.6478270209
 21
6.4508641054
  0
LINE
  5
2D2
100
AcDbEntity
  8
0
100
AcDbLine
 62
7
  6
CONTINUOUS
 10
8.4211011542
 20
9.8200858855
 11
12.2848046883
 21
9.5521371353
  0
LINE
  5
2D3
100
AcDbEntity
  8
0
100
AcDbLine
 62
4
  6
CONTINUOUS
 10
13.0490597202
 20
8.1192254835
 11
13.0608914373
 21
8.1085757377
  0
LINE
  5
2D4
100
AcDbEntity
  8
0
100
AcDbLine
 62
7
  6
CONTINUOUS
 10
12.2848046883
 20
9.5521371353
 11
12.2848046883
 21
5.9299150721
  0
LINE
  5
2D5
100
AcDbEntity
  8
0
100
AcDbLine
 62
4
  6
CONTINUOUS
 10
11.0749825143
 20
6.4001868277
 11
11.0822269582
 21
6.409343687
  0
LINE
  5
2D6
100
AcDbEntity
  8
0
100
AcDbLine
 62
4
  6
CONTINUOUS
 10
11.0967158462
 20
6.3503833241
 11
11.0822269582
 21
6.3320696158
  0
LINE
  5
2D7
100
AcDbEntity
  8
0
100
AcDbLine
 62
4
  6
CONTINUOUS
 10
11.132938066
 20
6.3768490839
 11
11.125693622
 21
6.3676922246
  0
LINE
  5
2D8
100
AcDbEntity
  8
0
100
AcDbLine
 62
4
  6
CONTINUOUS
 10
12.9788088916
 20
8.6535541693
 11
12.9677166541
 21
8.64283989
  0
LINE
  5
2D9
100
AcDbEntity
  8
0
100
AcDbLine
 62
4
  6
CONTINUOUS
 10
12.8841551404
 20
8.5621256611
 11
12.8952473779
 21
8.5728399404
  0
LINE
  5
2DA
100
AcDbEntity
  8
0
100
AcDbLine
 62
4
  6
CONTINUOUS
 10
12.9300030495
 20
8.6064113432
 11
12.9388768336
 21
8.6149827609
  0
LINE
  5
2DB
100
AcDbEntity
  8
0
100
AcDbLine
 62
4
  6
CONTINUOUS
 10
12.9477506325
 20
8.623554193
 11
12.9566244166
 21
8.6321256107
  0
LINE
  5
2DC
100
AcDbEntity
  8
0
100
AcDbLine
 62
4
  6
CONTINUOUS
 10
13.0461017665
 20
8.718554099
 11
13.0549755802
 21
8.7271255453
  0
LINE
  5
2DD
100
AcDbEntity
  8
0
100
AcDbLine
 62
4
  6
CONTINUOUS
 10
13.0660678029
 20
8.7378398103
 11
13.074941587
 21
8.7464112281
  0
LINE
  5
2DE
100
AcDbEntity
  8
0
100
AcDbLine
 62
4
  6
CONTINUOUS
 10
12.9721535461
 20
8.6057287752
 11
12.9810273302
 21
8.6143001929
  0
LINE
  5
2DF
100
AcDbEntity
  8
0
100
AcDbLine
 62
4
  6
CONTINUOUS
 10
13.0549755802
 20
8.644331898
 11
13.0461017665
 21
8.6357604517
  0
LINE
  5
2E0
100
AcDbEntity
  8
0
100
AcDbLine
 62
4
  6
CONTINUOUS
 10
13.0187409347
 20
8.6093319161
 11
13.0143040427
 21
8.6050462072
  0
LINE
  5
2E1
100
AcDbEntity
  8
0
100
AcDbLine
 62
4
  6
CONTINUOUS
 10
12.9810273302
 20
8.5729033693
 11
12.9721535461
 21
8.5643319516
  0
LINE
  5
2E2
100
AcDbEntity
  8
0
100
AcDbLine
 62
4
  6
CONTINUOUS
 10
12.9388768336
 20
8.5321891136
 11
12.9300030495
 21
8.5236176959
  0
LINE
  5
2E3
100
AcDbEntity
  8
0
100
AcDbLine
 62
4
  6
CONTINUOUS
 10
12.7887619183
 20
8.3871892315
 11
12.7976357068
 21
8.3957606534
  0
LINE
  5
2E4
100
AcDbEntity
  8
0
100
AcDbLine
 62
4
  6
CONTINUOUS
 10
12.8153832823
 20
8.412903496
 11
12.822038626
 21
8.4193320647
  0
LINE
  5
2E5
100
AcDbEntity
  8
0
100
AcDbLine
 62
4
  6
CONTINUOUS
 10
12.9921195677
 20
8.5836176486
 11
13.0032118052
 21
8.5943319279
  0
LINE
  5
2E6
100
AcDbEntity
  8
0
100
AcDbLine
 62
4
  6
CONTINUOUS
 10
13.0660678029
 20
8.6550461631
 11
13.074941587
 21
8.6636175808
  0
LINE
  5
2E7
100
AcDbEntity
  8
0
100
AcDbLine
 62
4
  6
CONTINUOUS
 10
12.9063396154
 20
8.4731626906
 11
12.9107765075
 21
8.4774483995
  0
LINE
  5
2E8
100
AcDbEntity
  8
0
100
AcDbLine
 62
4
  6
CONTINUOUS
 10
12.9118857309
 20
8.2858866124
 11
12.9030119422
 21
8.2773151902
  0
LINE
  5
2E9
100
AcDbEntity
  8
0
100
AcDbLine
 62
4
  6
CONTINUOUS
 10
12.9251964135
 20
8.2987437453
 11
12.9318517534
 21
8.3051723104
  0
LINE
  5
2EA
100
AcDbEntity
  8
0
100
AcDbLine
 62
4
  6
CONTINUOUS
 10
12.9300030495
 20
8.5236176959
 11
12.9255661575
 21
8.527611352
  0
LINE
  5
2EB
100
AcDbEntity
  8
0
100
AcDbLine
 62
4
  6
CONTINUOUS
 10
12.9721535461
 20
8.5643319516
 11
12.9677166541
 21
8.5683256076
  0
LINE
  5
2EC
100
AcDbEntity
  8
0
100
AcDbLine
 62
4
  6
CONTINUOUS
 10
12.9118857309
 20
8.2362104282
 11
12.9074488366
 21
8.2319247171
  0
LINE
  5
2ED
100
AcDbEntity
  8
0
100
AcDbLine
 62
4
  6
CONTINUOUS
 10
12.9251964135
 20
8.2407881936
 11
12.9362886473
 21
8.2515024693
  0
LINE
  5
2EE
100
AcDbEntity
  8
0
100
AcDbLine
 62
4
  6
CONTINUOUS
 10
12.9362886473
 20
8.1935469176
 11
12.9251964135
 21
8.1828326418
  0
LINE
  5
2EF
100
AcDbEntity
  8
0
100
AcDbLine
 62
4
  6
CONTINUOUS
 10
12.9030119422
 20
8.1614040868
 11
12.9141041779
 21
8.1721183643
  0
LINE
  5
2F0
100
AcDbEntity
  8
0
100
AcDbLine
 62
4
  6
CONTINUOUS
 10
12.9495993309
 20
8.2064040513
 11
12.9606915647
 21
8.2171183271
  0
LINE
  5
2F1
100
AcDbEntity
  8
0
100
AcDbLine
 62
4
  6
CONTINUOUS
 10
12.8205596784
 20
7.9426679869
 11
12.8316519122
 21
7.9533822626
  0
LINE
  5
2F2
100
AcDbEntity
  8
0
100
AcDbLine
 62
4
  6
CONTINUOUS
 10
12.8752813697
 20
7.9955250849
 11
12.8930289452
 21
8.0126679275
  0
LINE
  5
2F3
100
AcDbEntity
  8
0
100
AcDbLine
 62
4
  6
CONTINUOUS
 10
12.9019027367
 20
8.0212393524
 11
12.9152134202
 21
8.0340964861
  0
LINE
  5
2F4
100
AcDbEntity
  8
0
100
AcDbLine
 62
4
  6
CONTINUOUS
 10
12.9529270248
 20
8.0705250329
 11
12.9618008089
 21
8.0790964506
  0
LINE
  5
2F5
100
AcDbEntity
  8
0
100
AcDbLine
 62
4
  6
CONTINUOUS
 10
12.9788088975
 20
8.0955250037
 11
12.985464243
 21
8.1019535741
  0
LINE
  5
2F6
100
AcDbEntity
  8
0
100
AcDbLine
 62
4
  6
CONTINUOUS
 10
12.9987749191
 20
8.1148107007
 11
13.0098671566
 21
8.12552498
  0
LINE
  5
2F7
100
AcDbEntity
  8
0
100
AcDbLine
 62
4
  6
CONTINUOUS
 10
13.02687526
 20
8.1419535474
 11
13.0401859361
 21
8.1548106739
  0
LINE
  5
2F8
100
AcDbEntity
  8
0
100
AcDbLine
 62
4
  6
CONTINUOUS
 10
13.0357490441
 20
8.1008487809
 11
13.02687526
 21
8.0922773631
  0
LINE
  5
2F9
100
AcDbEntity
  8
0
100
AcDbLine
 62
4
  6
CONTINUOUS
 10
12.9107765282
 20
7.980134593
 11
12.9019027367
 21
7.9715631682
  0
LINE
  5
2FA
100
AcDbEntity
  8
0
100
AcDbLine
 62
4
  6
CONTINUOUS
 10
12.8516179356
 20
7.8898743176
 11
12.8634496526
 21
7.9013028793
  0
LINE
  5
2FB
100
AcDbEntity
  8
0
100
AcDbLine
 62
4
  6
CONTINUOUS
 10
12.9340702013
 20
8.3045553751
 11
12.9385070971
 21
8.2950421509
  0
LINE
  5
2FC
100
AcDbEntity
  8
0
100
AcDbLine
 62
4
  6
CONTINUOUS
 10
12.8020726007
 20
8.4331638237
 11
12.7865434711
 21
8.4678400232
  0
LINE
  5
2FD
100
AcDbEntity
  8
0
100
AcDbLine
 62
4
  6
CONTINUOUS
 10
12.8316519122
 20
7.9533822626
 11
12.836088806
 21
7.9411092452
  0
LINE
  5
2FE
100
AcDbEntity
  8
0
100
AcDbLine
 62
4
  6
CONTINUOUS
 10
12.7865434711
 20
8.3933257408
 11
12.7887619183
 21
8.3871892315
  0
LINE
  5
2FF
100
AcDbEntity
  8
0
100
AcDbLine
 62
4
  6
CONTINUOUS
 10
12.9529270248
 20
7.9546139295
 11
12.9484901328
 21
7.9668869504
  0
LINE
  5
300
100
AcDbEntity
  8
0
100
AcDbLine
 62
4
  6
CONTINUOUS
 10
12.8109463885
 20
8.4251765152
 11
12.8153832823
 21
8.412903496
  0
LINE
  5
301
100
AcDbEntity
  8
0
100
AcDbLine
 62
4
  6
CONTINUOUS
 10
12.9788088975
 20
7.9796139002
 11
12.9743720055
 21
7.9918869212
  0
LINE
  5
302
100
AcDbEntity
  8
0
100
AcDbLine
 62
4
  6
CONTINUOUS
 10
12.7998541537
 20
8.5138146122
 11
12.8020726007
 21
8.5076781
  0
LINE
  5
303
100
AcDbEntity
  8
0
100
AcDbLine
 62
4
  6
CONTINUOUS
 10
12.9163226248
 20
8.2239374073
 11
12.9118857309
 21
8.2362104282
  0
LINE
  5
304
100
AcDbEntity
  8
0
100
AcDbLine
 62
4
  6
CONTINUOUS
 10
12.9063396154
 20
8.5835542197
 11
12.9129949609
 21
8.5071891429
  0
LINE
  5
305
100
AcDbEntity
  8
0
100
AcDbLine
 62
4
  6
CONTINUOUS
 10
12.8575337941
 20
7.9783822423
 11
12.8664075856
 21
7.8710425637
  0
LINE
  5
306
100
AcDbEntity
  8
0
100
AcDbLine
 62
4
  6
CONTINUOUS
 10
12.7865434711
 20
8.4678400232
 11
12.7865434711
 21
8.4843987513
  0
LINE
  5
307
100
AcDbEntity
  8
0
100
AcDbLine
 62
4
  6
CONTINUOUS
 10
12.8020726007
 20
8.4166050939
 11
12.8020726007
 21
8.4331638237
  0
LINE
  5
308
100
AcDbEntity
  8
0
100
AcDbLine
 62
4
  6
CONTINUOUS
 10
12.8109463885
 20
8.5245288888
 11
12.8109463885
 21
8.4251765152
  0
LINE
  5
309
100
AcDbEntity
  8
0
100
AcDbLine
 62
4
  6
CONTINUOUS
 10
12.8205596784
 20
7.8267568834
 11
12.8205596784
 21
7.9426679869
  0
LINE
  5
30A
100
AcDbEntity
  8
0
100
AcDbLine
 62
4
  6
CONTINUOUS
 10
12.826475518
 20
8.4401765034
 11
12.826475518
 21
8.539528877
  0
LINE
  5
30B
100
AcDbEntity
  8
0
100
AcDbLine
 62
4
  6
CONTINUOUS
 10
12.8353493058
 20
8.4321891949
 11
12.8353493058
 21
8.5481002983
  0
LINE
  5
30C
100
AcDbEntity
  8
0
100
AcDbLine
 62
4
  6
CONTINUOUS
 10
12.836088806
 20
7.9411092452
 11
12.836088806
 21
7.8583155996
  0
LINE
  5
30D
100
AcDbEntity
  8
0
100
AcDbLine
 62
4
  6
CONTINUOUS
 10
12.8508784353
 20
8.447189183
 11
12.8508784353
 21
8.5631002865
  0
LINE
  5
30E
100
AcDbEntity
  8
0
100
AcDbLine
 62
4
  6
CONTINUOUS
 10
12.8841551612
 20
7.8881854063
 11
12.8841551612
 21
8.0040965098
  0
LINE
  5
30F
100
AcDbEntity
  8
0
100
AcDbLine
 62
4
  6
CONTINUOUS
 10
12.8841551404
 20
8.4793320138
 11
12.8841551404
 21
8.5952431173
  0
LINE
  5
310
100
AcDbEntity
  8
0
100
AcDbLine
 62
4
  6
CONTINUOUS
 10
12.897465824
 20
8.5667034274
 11
12.897465824
 21
8.4921891476
  0
LINE
  5
311
100
AcDbEntity
  8
0
100
AcDbLine
 62
4
  6
CONTINUOUS
 10
12.9019027367
 20
7.9053282489
 11
12.9019027367
 21
8.0212393524
  0
LINE
  5
312
100
AcDbEntity
  8
0
100
AcDbLine
 62
4
  6
CONTINUOUS
 10
12.9155831425
 20
8.2480612143
 11
12.9155831425
 21
8.2728993099
  0
LINE
  5
313
100
AcDbEntity
  8
0
100
AcDbLine
 62
4
  6
CONTINUOUS
 10
12.9163226248
 20
8.1825405846
 11
12.9163226248
 21
8.2239374073
  0
LINE
  5
314
100
AcDbEntity
  8
0
100
AcDbLine
 62
4
  6
CONTINUOUS
 10
12.9251964135
 20
8.1828326418
 11
12.9251964135
 21
8.2987437453
  0
LINE
  5
315
100
AcDbEntity
  8
0
100
AcDbLine
 62
4
  6
CONTINUOUS
 10
12.9255661575
 20
8.527611352
 11
12.9255661575
 21
8.5938462668
  0
LINE
  5
316
100
AcDbEntity
  8
0
100
AcDbLine
 62
4
  6
CONTINUOUS
 10
12.9385070971
 20
8.2950421509
 11
12.9385070971
 21
8.2702040554
  0
LINE
  5
317
100
AcDbEntity
  8
0
100
AcDbLine
 62
4
  6
CONTINUOUS
 10
12.9388768336
 20
8.6481002171
 11
12.9388768336
 21
8.5321891136
  0
LINE
  5
318
100
AcDbEntity
  8
0
100
AcDbLine
 62
4
  6
CONTINUOUS
 10
12.9407255431
 20
8.2392294537
 11
12.9407255431
 21
8.2143913598
  0
LINE
  5
319
100
AcDbEntity
  8
0
100
AcDbLine
 62
4
  6
CONTINUOUS
 10
12.9477506325
 20
8.5407605457
 11
12.9477506325
 21
8.623554193
  0
LINE
  5
31A
100
AcDbEntity
  8
0
100
AcDbLine
 62
4
  6
CONTINUOUS
 10
12.9484901328
 20
7.9668869504
 11
12.9484901328
 21
8.049680596
  0
LINE
  5
31B
100
AcDbEntity
  8
0
100
AcDbLine
 62
4
  6
CONTINUOUS
 10
12.9495993309
 20
8.3223151548
 11
12.9495993309
 21
8.2064040513
  0
LINE
  5
31C
100
AcDbEntity
  8
0
100
AcDbLine
 62
4
  6
CONTINUOUS
 10
12.9581033756
 20
8.625274808
 11
12.9581033756
 21
8.60871608
  0
LINE
  5
31D
100
AcDbEntity
  8
0
100
AcDbLine
 62
4
  6
CONTINUOUS
 10
12.9677166541
 20
8.5683256076
 11
12.9677166541
 21
8.5931637023
  0
LINE
  5
31E
100
AcDbEntity
  8
0
100
AcDbLine
 62
4
  6
CONTINUOUS
 10
12.9743720055
 20
7.9918869212
 11
12.9743720055
 21
8.0746805667
  0
LINE
  5
31F
100
AcDbEntity
  8
0
100
AcDbLine
 62
4
  6
CONTINUOUS
 10
12.8486600063
 20
7.8538997176
 11
12.8575337941
 21
7.9783822423
  0
LINE
  5
320
100
AcDbEntity
  8
0
100
AcDbLine
 62
4
  6
CONTINUOUS
 10
12.9107765075
 20
8.4774483995
 11
12.9196502916
 21
8.5964113463
  0
LINE
  5
321
100
AcDbEntity
  8
0
100
AcDbLine
 62
4
  6
CONTINUOUS
 10
12.7865434711
 20
8.4843987513
 11
12.7909803655
 21
8.5052431904
  0
LINE
  5
322
100
AcDbEntity
  8
0
100
AcDbLine
 62
4
  6
CONTINUOUS
 10
12.7976357068
 20
8.3957606534
 11
12.8020726007
 21
8.4166050939
  0
LINE
  5
323
100
AcDbEntity
  8
0
100
AcDbLine
 62
4
  6
CONTINUOUS
 10
12.822038626
 20
8.4193320647
 11
12.826475518
 21
8.4401765034
  0
LINE
  5
324
100
AcDbEntity
  8
0
100
AcDbLine
 62
4
  6
CONTINUOUS
 10
12.836088806
 20
7.8583155996
 11
12.8316519122
 21
7.8374711592
  0
LINE
  5
325
100
AcDbEntity
  8
0
100
AcDbLine
 62
4
  6
CONTINUOUS
 10
12.9141041779
 20
8.1721183643
 11
12.9163226248
 21
8.1825405846
  0
LINE
  5
326
100
AcDbEntity
  8
0
100
AcDbLine
 62
4
  6
CONTINUOUS
 10
12.9385070971
 20
8.2702040554
 11
12.9340702013
 21
8.2493596149
  0
LINE
  5
327
100
AcDbEntity
  8
0
100
AcDbLine
 62
4
  6
CONTINUOUS
 10
13.0438833279
 20
8.7081318842
 11
13.0461017665
 21
8.718554099
  0
LINE
  5
328
100
AcDbEntity
  8
0
100
AcDbLine
 62
4
  6
CONTINUOUS
 10
12.9407255431
 20
8.2143913598
 11
12.9362886473
 21
8.1935469176
  0
LINE
  5
329
100
AcDbEntity
  8
0
100
AcDbLine
 62
4
  6
CONTINUOUS
 10
13.0638493643
 20
8.7274175956
 11
13.0660678029
 21
8.7378398103
  0
LINE
  5
32A
100
AcDbEntity
  8
0
100
AcDbLine
 62
4
  6
CONTINUOUS
 10
12.9118857309
 20
8.2362104282
 11
12.9155831425
 21
8.2480612143
  0
LINE
  5
32B
100
AcDbEntity
  8
0
100
AcDbLine
 62
4
  6
CONTINUOUS
 10
12.9255661575
 20
8.5938462668
 11
12.9300030495
 21
8.6064113432
  0
LINE
  5
32C
100
AcDbEntity
  8
0
100
AcDbLine
 62
4
  6
CONTINUOUS
 10
12.9677166541
 20
8.5931637023
 11
12.9721535461
 21
8.6057287752
  0
LINE
  5
32D
100
AcDbEntity
  8
0
100
AcDbLine
 62
4
  6
CONTINUOUS
 10
12.8146438189
 20
7.8927970969
 11
12.8028121009
 21
7.8592902267
  0
LINE
  5
32E
100
AcDbEntity
  8
0
100
AcDbLine
 62
4
  6
CONTINUOUS
 10
13.0098671566
 20
8.0096138766
 11
12.9987749191
 21
7.9988995973
  0
LINE
  5
32F
100
AcDbEntity
  8
0
100
AcDbLine
 62
4
  6
CONTINUOUS
 10
12.985464243
 20
7.9860424707
 11
12.9788088975
 21
7.9796139002
  0
LINE
  5
330
100
AcDbEntity
  8
0
100
AcDbLine
 62
4
  6
CONTINUOUS
 10
12.9618008089
 20
7.9631853472
 11
12.9529270248
 21
7.9546139295
  0
LINE
  5
331
100
AcDbEntity
  8
0
100
AcDbLine
 62
4
  6
CONTINUOUS
 10
12.8316519122
 20
7.8374711592
 11
12.8205596784
 21
7.8267568834
  0
LINE
  5
332
100
AcDbEntity
  8
0
100
AcDbLine
 62
4
  6
CONTINUOUS
 10
12.9019027367
 20
7.9053282489
 11
12.9152134202
 21
7.9181853827
  0
LINE
  5
333
100
AcDbEntity
  8
0
100
AcDbLine
 62
4
  6
CONTINUOUS
 10
13.02687526
 20
8.0260424439
 11
13.0401859361
 21
8.0388995705
  0
LINE
  5
334
100
AcDbEntity
  8
0
100
AcDbLine
 62
4
  6
CONTINUOUS
 10
11.0822269582
 20
6.409343687
 11
11.0967158462
 21
6.4179981356
  0
LINE
  5
335
100
AcDbEntity
  8
0
100
AcDbLine
 62
4
  6
CONTINUOUS
 10
11.125693622
 20
6.3676922246
 11
11.0967158462
 21
6.3503833241
  0
LINE
  5
336
100
AcDbEntity
  8
0
100
AcDbLine
 62
4
  6
CONTINUOUS
 10
13.0660678029
 20
8.6992027747
 11
13.0638493643
 21
8.7025795035
  0
LINE
  5
337
100
AcDbEntity
  8
0
100
AcDbLine
 62
4
  6
CONTINUOUS
 10
13.0771600256
 20
8.6988778877
 11
13.074941587
 21
8.7022546164
  0
LINE
  5
338
100
AcDbEntity
  8
0
100
AcDbLine
 62
4
  6
CONTINUOUS
 10
12.985464243
 20
8.1019535741
 11
12.989901135
 21
8.0896805549
  0
LINE
  5
339
100
AcDbEntity
  8
0
100
AcDbLine
 62
4
  6
CONTINUOUS
 10
12.9362886473
 20
8.2515024693
 11
12.9407255431
 21
8.2392294537
  0
LINE
  5
33A
100
AcDbEntity
  8
0
100
AcDbLine
 62
4
  6
CONTINUOUS
 10
13.0098671566
 20
8.12552498
 11
13.0143040486
 21
8.1132519608
  0
LINE
  5
33B
100
AcDbEntity
  8
0
100
AcDbLine
 62
4
  6
CONTINUOUS
 10
12.8952473779
 20
8.5728399404
 11
12.897465824
 21
8.5667034274
  0
LINE
  5
33C
100
AcDbEntity
  8
0
100
AcDbLine
 62
4
  6
CONTINUOUS
 10
12.9899011143
 20
8.5897541519
 11
12.9921195677
 21
8.5836176486
  0
LINE
  5
33D
100
AcDbEntity
  8
0
100
AcDbLine
 62
4
  6
CONTINUOUS
 10
13.0143040427
 20
8.6050462072
 11
13.0120855893
 21
8.6111827106
  0
LINE
  5
33E
100
AcDbEntity
  8
0
100
AcDbLine
 62
4
  6
CONTINUOUS
 10
13.0461017665
 20
8.6357604517
 11
13.0438833279
 21
8.6418969693
  0
LINE
  5
33F
100
AcDbEntity
  8
0
100
AcDbLine
 62
4
  6
CONTINUOUS
 10
12.9155831425
 20
8.2728993099
 11
12.9118857309
 21
8.2858866124
  0
LINE
  5
340
100
AcDbEntity
  8
0
100
AcDbLine
 62
4
  6
CONTINUOUS
 10
12.9566244166
 20
8.6321256107
 11
12.9581033756
 21
8.625274808
  0
LINE
  5
341
100
AcDbEntity
  8
0
100
AcDbLine
 62
4
  6
CONTINUOUS
 10
12.8353493058
 20
8.5481002983
 11
12.8508784353
 21
8.447189183
  0
LINE
  5
342
100
AcDbEntity
  8
0
100
AcDbLine
 62
4
  6
CONTINUOUS
 10
12.9810273302
 20
8.5729033693
 11
12.9810273302
 21
8.6391382885
  0
LINE
  5
343
100
AcDbEntity
  8
0
100
AcDbLine
 62
4
  6
CONTINUOUS
 10
12.9899011143
 20
8.6642684343
 11
12.9899011143
 21
8.5897541519
  0
LINE
  5
344
100
AcDbEntity
  8
0
100
AcDbLine
 62
4
  6
CONTINUOUS
 10
12.989901135
 20
8.0896805549
 11
12.989901135
 21
8.0068869094
  0
LINE
  5
345
100
AcDbEntity
  8
0
100
AcDbLine
 62
4
  6
CONTINUOUS
 10
12.9987749191
 20
7.9988995973
 11
12.9987749191
 21
8.1148107007
  0
LINE
  5
346
100
AcDbEntity
  8
0
100
AcDbLine
 62
4
  6
CONTINUOUS
 10
13.0032118052
 20
8.5943319279
 11
13.0032118052
 21
8.6771255752
  0
LINE
  5
347
100
AcDbEntity
  8
0
100
AcDbLine
 62
4
  6
CONTINUOUS
 10
13.0120855893
 20
8.6111827106
 11
13.0120855893
 21
8.7188144491
  0
LINE
  5
348
100
AcDbEntity
  8
0
100
AcDbLine
 62
4
  6
CONTINUOUS
 10
13.0143040486
 20
8.1132519608
 11
13.0143040486
 21
8.0304583153
  0
LINE
  5
349
100
AcDbEntity
  8
0
100
AcDbLine
 62
4
  6
CONTINUOUS
 10
13.02687526
 20
8.0260424439
 11
13.02687526
 21
8.1419535474
  0
LINE
  5
34A
100
AcDbEntity
  8
0
100
AcDbLine
 62
4
  6
CONTINUOUS
 10
13.0320516109
 20
8.6221890427
 11
13.0320516109
 21
8.70498269
  0
LINE
  5
34B
100
AcDbEntity
  8
0
100
AcDbLine
 62
4
  6
CONTINUOUS
 10
13.0320516109
 20
8.7298207786
 11
13.0320516109
 21
8.7381001461
  0
LINE
  5
34C
100
AcDbEntity
  8
0
100
AcDbLine
 62
4
  6
CONTINUOUS
 10
13.0438833279
 20
8.6418969693
 11
13.0438833279
 21
8.7081318842
  0
LINE
  5
34D
100
AcDbEntity
  8
0
100
AcDbLine
 62
4
  6
CONTINUOUS
 10
13.0638493643
 20
8.7025795035
 11
13.0638493643
 21
8.7274175956
  0
LINE
  5
34E
100
AcDbEntity
  8
0
100
AcDbLine
 62
4
  6
CONTINUOUS
 10
13.0771600256
 20
8.674039793
 11
13.0771600256
 21
8.6988778877
  0
LINE
  5
34F
100
AcDbEntity
  8
0
100
AcDbLine
 62
4
  6
CONTINUOUS
 10
13.0327910904
 20
8.7388144285
 11
13.0320516109
 21
8.7298207786
  0
LINE
  5
350
100
AcDbEntity
  8
0
100
AcDbLine
 62
4
  6
CONTINUOUS
 10
13.074941587
 20
8.6636175808
 11
13.0771600256
 21
8.674039793
  0
LINE
  5
351
100
AcDbEntity
  8
0
100
AcDbLine
 62
4
  6
CONTINUOUS
 10
12.9484901328
 20
8.049680596
 11
12.9529270248
 21
8.0705250329
  0
LINE
  5
352
100
AcDbEntity
  8
0
100
AcDbLine
 62
4
  6
CONTINUOUS
 10
12.9743720055
 20
8.0746805667
 11
12.9788088975
 21
8.0955250037
  0
LINE
  5
353
100
AcDbEntity
  8
0
100
AcDbLine
 62
4
  6
CONTINUOUS
 10
12.989901135
 20
8.0068869094
 11
12.985464243
 21
7.9860424707
  0
LINE
  5
354
100
AcDbEntity
  8
0
100
AcDbLine
 62
4
  6
CONTINUOUS
 10
13.0143040486
 20
8.0304583153
 11
13.0098671566
 21
8.0096138766
  0
LINE
  5
355
100
AcDbEntity
  8
0
100
AcDbLine
 62
4
  6
CONTINUOUS
 10
13.0608914373
 20
8.1085757377
 11
13.0490597202
 21
8.0750688701
  0
LINE
  5
356
100
AcDbEntity
  8
0
100
AcDbLine
 62
4
  6
CONTINUOUS
 10
13.0638493643
 20
8.6611826807
 11
13.0660678029
 21
8.6550461631
  0
LINE
  5
357
100
AcDbEntity
  8
0
100
AcDbLine
 62
4
  6
CONTINUOUS
 10
13.074941587
 20
8.7464112281
 11
13.0771600256
 21
8.7402747078
  0
LINE
  5
358
100
AcDbEntity
  8
0
100
AcDbLine
 62
4
  6
CONTINUOUS
 10
12.9810273302
 20
8.6391382885
 11
12.9788088916
 21
8.6535541693
  0
LINE
  5
359
100
AcDbEntity
  8
0
100
AcDbLine
 62
7
  6
CONTINUOUS
 10
13.5788988458
 20
10.8021361778
 11
13.5788988458
 21
7.1799141145
  0
LINE
  5
35A
100
AcDbEntity
  8
0
100
AcDbLine
 62
7
  6
CONTINUOUS
 10
9.7151953117
 20
11.0700849279
 11
13.5788988458
 21
10.8021361778
  0
LINE
  5
35B
100
AcDbEntity
  8
0
100
AcDbLine
 62
7
  6
CONTINUOUS
 10
12.2848046883
 20
5.9299150721
 11
13.5788988458
 21
7.1799141145
  0
ARC
  5
35C
100
AcDbEntity
  8
0
100
AcDbCircle
 62
7
  6
CONTINUOUS
 10
11.2610929364
 20
8.8802803659
 40
0.6394042131
100
AcDbArc
 50
134.6768433342
 51
135.0388895345
  0
ARC
  5
35D
100
AcDbEntity
  8
0
100
AcDbCircle
 62
7
  6
CONTINUOUS
 10
9.3292411692
 20
9.0142547412
 40
0.6394042128
100
AcDbArc
 50
134.6768433342
 51
135.0388895345
  0
ARC
  5
35E
100
AcDbEntity
  8
0
100
AcDbCircle
 62
7
  6
CONTINUOUS
 10
9.4363654244
 20
8.9441908158
 40
0.5143492645
100
AcDbArc
 50
355.898560528
 51
358.0004965825
  0
ARC
  5
35F
100
AcDbEntity
  8
0
100
AcDbCircle
 62
7
  6
CONTINUOUS
 10
11.3682171915
 20
8.8102164407
 40
0.5143492645
100
AcDbArc
 50
355.898560528
 51
358.0004965825
  0
ARC
  5
360
100
AcDbEntity
  8
0
100
AcDbCircle
 62
7
  6
CONTINUOUS
 10
10.1167960448
 20
7.7876353455
 40
0.4482791787
100
AcDbArc
 50
266.0072890233
 51
275.2435185303
  0
ARC
  5
361
100
AcDbEntity
  8
0
100
AcDbCircle
 62
7
  6
CONTINUOUS
 10
11.5656848701
 20
7.6871545641
 40
0.4482791787
100
AcDbArc
 50
266.0072890233
 51
275.2435185303
  0
ARC
  5
362
100
AcDbEntity
  8
0
100
AcDbCircle
 62
7
  6
CONTINUOUS
 10
10.1225726725
 20
7.7960726932
 40
0.420168394
100
AcDbArc
 50
266.0114712862
 51
274.449896375
  0
ARC
  5
363
100
AcDbEntity
  8
0
100
AcDbCircle
 62
7
  6
CONTINUOUS
 10
11.5714614978
 20
7.6955919119
 40
0.420168394
100
AcDbArc
 50
266.0114712862
 51
274.449896375
  0
ARC
  5
364
100
AcDbEntity
  8
0
100
AcDbCircle
 62
7
  6
CONTINUOUS
 10
11.1197588403
 20
7.3484744056
 40
0.0289306752
100
AcDbArc
 50
4.1858886975
 51
9.4900187503
  0
SPLINE
  5
365
100
AcDbEntity
  8
0
100
AcDbSpline
 62
7
  6
CONTINUOUS
 70
0
 71
3
 72
48
 73
44
 74
0
 42
0.0000001
 43
0.0000001
 44
0.0000000001
 40
0.0
 40
0.0
 40
0.0
 40
0.0
 40
0.0311434631
 40
0.0624399956
 40
0.0938836138
 40
0.1254646847
 40
0.1571709829
 40
0.1889877595
 40
0.22089807
 40
0.2528831302
 40
0.2849226987
 40
0.3169954772
 40
0.3490795248
 40
0.3811526835
 40
0.413193006
 40
0.4451791789
 40
0.4770909382
 40
0.5089094729
 40
0.5406178044
 40
0.5722011384
 40
0.6036471904
 40
0.6349464615
 40
0.6660924706
 40
0.6970819377
 40
0.7279148953
 40
0.7432762698
 40
0.7586000727
 40
0.7738872515
 40
0.789138954
 40
0.8043565275
 40
0.819541513
 40
0.8346956329
 40
0.8498207866
 40
0.8649190411
 40
0.8799926163
 40
0.8950438755
 40
0.9100753135
 40
0.9250895394
 40
0.9400892632
 40
0.9550772817
 40
0.9700564603
 40
0.9850297153
 40
1.0
 40
1.0
 40
1.0
 40
1.0
 10
9.3870270377
 20
9.6473298312
 30
0.0
 10
9.4043516792
 20
9.6461283632
 30
0.0
 10
9.4390110602
 20
9.6424514194
 30
0.0
 10
9.4905799176
 20
9.6331891352
 30
0.0
 10
9.5415964315
 20
9.6202154504
 30
0.0
 10
9.5917850533
 20
9.6036000944
 30
0.0
 10
9.6408791846
 20
9.5834321741
 30
0.0
 10
9.6886169225
 20
9.5598195567
 30
0.0
 10
9.7347439402
 20
9.532888381
 30
0.0
 10
9.7790144909
 20
9.5027825191
 30
0.0
 10
9.8211926726
 20
9.4696625631
 30
0.0
 10
9.861053727
 20
9.4337051445
 30
0.0
 10
9.8983852888
 20
9.3951020264
 30
0.0
 10
9.9329883269
 20
9.3540589117
 30
0.0
 10
9.9646783577
 20
9.3107945348
 30
0.0
 10
9.9932864133
 20
9.2655394648
 30
0.0
 10
10.0186597592
 20
9.2185347859
 30
0.0
 10
10.0406629335
 20
9.1700309813
 30
0.0
 10
10.0591783746
 20
9.1202865292
 30
0.0
 10
10.0741069098
 20
9.0695665256
 30
0.0
 10
10.0853685541
 20
9.0181413292
 30
0.0
 10
10.092902796
 20
8.9662852819
 30
0.0
 10
10.0966687326
 20
8.9142744596
 30
0.0
 10
10.0966460611
 20
8.8623882982
 30
0.0
 10
10.0934646089
 20
8.8194238205
 30
0.0
 10
10.0890290291
 20
8.7854014053
 30
0.0
 10
10.0847686921
 20
8.7601164083
 30
0.0
 10
10.0795765658
 20
8.7350689485
 30
0.0
 10
10.0734594767
 20
8.7102920528
 30
0.0
 10
10.0664256308
 20
8.6858189296
 30
0.0
 10
10.0584844318
 20
8.6616822304
 30
0.0
 10
10.0496463971
 20
8.637914236
 30
0.0
 10
10.0399233564
 20
8.6145466895
 30
0.0
 10
10.0293283181
 20
8.5916107973
 30
0.0
 10
10.0178753545
 20
8.5691372392
 30
0.0
 10
10.0055797825
 20
8.5471560367
 30
0.0
 10
9.9924580583
 20
8.5256965389
 30
0.0
 10
9.9785276447
 20
8.5047874631
 30
0.0
 10
9.9638071562
 20
8.4844567393
 30
0.0
 10
9.9483163248
 20
8.46473153
 30
0.0
 10
9.932075697
 20
8.4456381399
 30
0.0
 10
9.915107329
 20
8.4272024469
 30
0.0
 10
9.9033238009
 20
8.415365556
 30
0.0
 10
9.8973196536
 20
8.4095659791
 30
0.0
  0
SPLINE
  5
366
100
AcDbEntity
  8
0
100
AcDbSpline
 62
7
  6
CONTINUOUS
 70
0
 71
3
 72
48
 73
44
 74
0
 42
0.0000001
 43
0.0000001
 44
0.0000000001
 40
0.0
 40
0.0
 40
0.0
 40
0.0
 40
0.0311434631
 40
0.0624399956
 40
0.0938836138
 40
0.1254646847
 40
0.1571709829
 40
0.1889877595
 40
0.22089807
 40
0.2528831302
 40
0.2849226987
 40
0.3169954772
 40
0.3490795248
 40
0.3811526835
 40
0.413193006
 40
0.4451791789
 40
0.4770909382
 40
0.5089094729
 40
0.5406178044
 40
0.5722011384
 40
0.6036471904
 40
0.6349464615
 40
0.6660924706
 40
0.6970819377
 40
0.7279148953
 40
0.7432762698
 40
0.7586000727
 40
0.7738872515
 40
0.789138954
 40
0.8043565275
 40
0.819541513
 40
0.8346956329
 40
0.8498207866
 40
0.8649190411
 40
0.8799926163
 40
0.8950438755
 40
0.9100753135
 40
0.9250895394
 40
0.9400892632
 40
0.9550772817
 40
0.9700564603
 40
0.9850297153
 40
1.0
 40
1.0
 40
1.0
 40
1.0
 10
11.3188788048
 20
9.5133554561
 30
0.0
 10
11.3362034462
 20
9.5121539881
 30
0.0
 10
11.3708628272
 20
9.5084770443
 30
0.0
 10
11.4224316846
 20
9.4992147601
 30
0.0
 10
11.4734481985
 20
9.4862410753
 30
0.0
 10
11.5236368204
 20
9.4696257193
 30
0.0
 10
11.5727309516
 20
9.449457799
 30
0.0
 10
11.6204686896
 20
9.4258451816
 30
0.0
 10
11.6665957073
 20
9.3989140059
 30
0.0
 10
11.710866258
 20
9.3688081441
 30
0.0
 10
11.7530444397
 20
9.335688188
 30
0.0
 10
11.792905494
 20
9.2997307694
 30
0.0
 10
11.8302370559
 20
9.2611276513
 30
0.0
 10
11.864840094
 20
9.2200845366
 30
0.0
 10
11.8965301248
 20
9.1768201597
 30
0.0
 10
11.9251381804
 20
9.1315650897
 30
0.0
 10
11.9505115262
 20
9.0845604108
 30
0.0
 10
11.9725147006
 20
9.0360566063
 30
0.0
 10
11.9910301416
 20
8.9863121541
 30
0.0
 10
12.0059586768
 20
8.9355921506
 30
0.0
 10
12.0172203211
 20
8.8841669541
 30
0.0
 10
12.0247545631
 20
8.8323109068
 30
0.0
 10
12.0285204996
 20
8.7803000845
 30
0.0
 10
12.0284978281
 20
8.7284139231
 30
0.0
 10
12.025316376
 20
8.6854494454
 30
0.0
 10
12.0208807961
 20
8.6514270302
 30
0.0
 10
12.0166204592
 20
8.6261420332
 30
0.0
 10
12.0114283328
 20
8.6010945734
 30
0.0
 10
12.0053112437
 20
8.5763176777
 30
0.0
 10
11.9982773979
 20
8.5518445545
 30
0.0
 10
11.9903361989
 20
8.5277078553
 30
0.0
 10
11.9814981642
 20
8.5039398609
 30
0.0
 10
11.9717751234
 20
8.4805723144
 30
0.0
 10
11.9611800851
 20
8.4576364223
 30
0.0
 10
11.9497271216
 20
8.4351628641
 30
0.0
 10
11.9374315495
 20
8.4131816617
 30
0.0
 10
11.9243098253
 20
8.3917221639
 30
0.0
 10
11.9103794118
 20
8.370813088
 30
0.0
 10
11.8956589233
 20
8.3504823642
 30
0.0
 10
11.8801680918
 20
8.330757155
 30
0.0
 10
11.863927464
 20
8.3116637648
 30
0.0
 10
11.8469590961
 20
8.2932280718
 30
0.0
 10
11.835175568
 20
8.2813911809
 30
0.0
 10
11.8291714206
 20
8.275591604
 30
0.0
  0
SPLINE
  5
367
100
AcDbEntity
  8
0
100
AcDbSpline
 62
7
  6
CONTINUOUS
 70
0
 71
3
 72
60
 73
56
 74
0
 42
0.0000001
 43
0.0000001
 44
0.0000000001
 40
0.0
 40
0.0
 40
0.0
 40
0.0
 40
0.0081437215
 40
0.01697685
 40
0.0265209466
 40
0.03678965
 40
0.0477883286
 40
0.0595158866
 40
0.0719660299
 40
0.0851283246
 40
0.0989885617
 40
0.1135293238
 40
0.1287305536
 40
0.1445695476
 40
0.1610215373
 40
0.1780596973
 40
0.2137771176
 40
0.2514753725
 40
0.290884692
 40
0.3317173433
 40
0.3736711531
 40
0.4164328736
 40
0.4596814124
 40
0.5030909931
 40
0.546334291
 40
0.5890855752
 40
0.6310238557
 40
0.6718360457
 40
0.7112201823
 40
0.7302867147
 40
0.7488898131
 40
0.7669963561
 40
0.7845746229
 40
0.8015944409
 40
0.8180271642
 40
0.8338461164
 40
0.8490264908
 40
0.8635457491
 40
0.8773838801
 40
0.890523522
 40
0.9029506859
 40
0.9146549165
 40
0.9256301632
 40
0.9358756224
 40
0.9453966901
 40
0.9542068483
 40
0.9623293949
 40
0.969800425
 40
0.9766722973
 40
0.9830175573
 40
0.9889330625
 40
0.9917694421
 40
0.994546604
 40
0.9972834941
 40
1.0
 40
1.0
 40
1.0
 40
1.0
 10
13.4494894301
 20
7.613219371
 30
0.0
 10
13.44867053
 20
7.6124283742
 30
0.0
 10
13.4470369607
 20
7.6107023576
 30
0.0
 10
13.444689586
 20
7.607828978
 30
0.0
 10
13.4423523225
 20
7.6045740676
 30
0.0
 10
13.4400296999
 20
7.6009441713
 30
0.0
 10
13.4377259315
 20
7.5969460764
 30
0.0
 10
13.4354456111
 20
7.5925874923
 30
0.0
 10
13.4331931792
 20
7.5878769675
 30
0.0
 10
13.4309731679
 20
7.5828237642
 30
0.0
 10
13.4287900307
 20
7.5774378889
 30
0.0
 10
13.426648139
 20
7.5717300589
 30
0.0
 10
13.424551861
 20
7.5657116479
 30
0.0
 10
13.4225053899
 20
7.5593946967
 30
0.0
 10
13.4205128598
 20
7.5527918379
 30
0.0
 10
13.4178922201
 20
7.5434773809
 30
0.0
 10
13.4147928379
 20
7.5312144391
 30
0.0
 10
13.4114044575
 20
7.5158068381
 30
0.0
 10
13.4083185969
 20
7.499607356
 30
0.0
 10
13.405560327
 20
7.4827459825
 30
0.0
 10
13.4031520719
 20
7.465357915
 30
0.0
 10
13.4011133538
 20
7.4475827402
 30
0.0
 10
13.39946067
 20
7.4295631881
 30
0.0
 10
13.3982073568
 20
7.4114439903
 30
0.0
 10
13.3973634853
 20
7.3933706881
 30
0.0
 10
13.3969357721
 20
7.3754884609
 30
0.0
 10
13.3969275096
 20
7.3579408873
 30
0.0
 10
13.3973386175
 20
7.3408689564
 30
0.0
 10
13.3980348543
 20
7.3270070003
 30
0.0
 10
13.3988061449
 20
7.3162617493
 30
0.0
 10
13.3994801033
 20
7.3084927803
 30
0.0
 10
13.4002543824
 20
7.300942284
 30
0.0
 10
13.4011274252
 20
7.2936254116
 30
0.0
 10
13.4020974241
 20
7.2865568569
 30
0.0
 10
13.4031624498
 20
7.2797508011
 30
0.0
 10
13.4043202883
 20
7.2732208887
 30
0.0
 10
13.4055686128
 20
7.2669801966
 30
0.0
 10
13.4069048834
 20
7.2610412044
 30
0.0
 10
13.4083263541
 20
7.2554157608
 30
0.0
 10
13.4098301962
 20
7.2501150655
 30
0.0
 10
13.4114133153
 20
7.2451496154
 30
0.0
 10
13.4130725698
 20
7.2405291983
 30
0.0
 10
13.4148046665
 20
7.2362628473
 30
0.0
 10
13.4166061908
 20
7.2323587936
 30
0.0
 10
13.418473815
 20
7.2288244943
 30
0.0
 10
13.4204041216
 20
7.22566653
 30
0.0
 10
13.422394015
 20
7.2228907278
 30
0.0
 10
13.4244406227
 20
7.2205022521
 30
0.0
 10
13.4265417325
 20
7.2185057887
 30
0.0
 10
13.4286949463
 20
7.2169065158
 30
0.0
 10
13.4305579234
 20
7.215895418
 30
0.0
 10
13.4320592295
 20
7.215304392
 30
0.0
 10
13.4331790386
 20
7.2149691021
 30
0.0
 10
13.434307344
 20
7.2147361647
 30
0.0
 10
13.435065996
 20
7.2146491269
 30
0.0
 10
13.4354448692
 20
7.2146228485
 30
0.0
  0
SPLINE
  5
368
100
AcDbEntity
  8
0
100
AcDbSpline
 62
7
  6
CONTINUOUS
 70
0
 71
3
 72
60
 73
56
 74
0
 42
0.0000001
 43
0.0000001
 44
0.0000000001
 40
0.0
 40
0.0
 40
0.0
 40
0.0
 40
0.0081437215
 40
0.01697685
 40
0.0265209466
 40
0.03678965
 40
0.0477883286
 40
0.0595158866
 40
0.0719660299
 40
0.0851283246
 40
0.0989885617
 40
0.1135293238
 40
0.1287305536
 40
0.1445695476
 40
0.1610215373
 40
0.1780596973
 40
0.2137771176
 40
0.2514753725
 40
0.290884692
 40
0.3317173433
 40
0.3736711531
 40
0.4164328736
 40
0.4596814124
 40
0.5030909931
 40
0.546334291
 40
0.5890855752
 40
0.6310238557
 40
0.6718360457
 40
0.7112201823
 40
0.7302867147
 40
0.7488898131
 40
0.7669963561
 40
0.7845746229
 40
0.8015944409
 40
0.8180271642
 40
0.8338461164
 40
0.8490264908
 40
0.8635457491
 40
0.8773838801
 40
0.890523522
 40
0.9029506859
 40
0.9146549165
 40
0.9256301632
 40
0.9358756224
 40
0.9453966901
 40
0.9542068483
 40
0.9623293949
 40
0.969800425
 40
0.9766722973
 40
0.9830175573
 40
0.9889330625
 40
0.9917694421
 40
0.994546604
 40
0.9972834941
 40
1.0
 40
1.0
 40
1.0
 40
1.0
 10
12.414214104
 20
6.613220137
 30
0.0
 10
12.413395204
 20
6.6124291402
 30
0.0
 10
12.4117616347
 20
6.6107031237
 30
0.0
 10
12.40941426
 20
6.6078297441
 30
0.0
 10
12.4070769965
 20
6.6045748336
 30
0.0
 10
12.4047543739
 20
6.6009449374
 30
0.0
 10
12.4024506054
 20
6.5969468424
 30
0.0
 10
12.4001702851
 20
6.5925882583
 30
0.0
 10
12.3979178532
 20
6.5878777335
 30
0.0
 10
12.3956978418
 20
6.5828245302
 30
0.0
 10
12.3935147047
 20
6.5774386549
 30
0.0
 10
12.391372813
 20
6.5717308249
 30
0.0
 10
12.389276535
 20
6.5657124139
 30
0.0
 10
12.3872300639
 20
6.5593954628
 30
0.0
 10
12.3852375338
 20
6.5527926039
 30
0.0
 10
12.3826168941
 20
6.543478147
 30
0.0
 10
12.3795175119
 20
6.5312152051
 30
0.0
 10
12.3761291315
 20
6.5158076042
 30
0.0
 10
12.3730432709
 20
6.499608122
 30
0.0
 10
12.370285001
 20
6.4827467486
 30
0.0
 10
12.3678767458
 20
6.4653586811
 30
0.0
 10
12.3658380278
 20
6.4475835062
 30
0.0
 10
12.364185344
 20
6.4295639541
 30
0.0
 10
12.3629320308
 20
6.4114447563
 30
0.0
 10
12.3620881593
 20
6.3933714541
 30
0.0
 10
12.361660446
 20
6.375489227
 30
0.0
 10
12.3616521836
 20
6.3579416533
 30
0.0
 10
12.3620632914
 20
6.3408697225
 30
0.0
 10
12.3627595283
 20
6.3270077663
 30
0.0
 10
12.3635308189
 20
6.3162625153
 30
0.0
 10
12.3642047773
 20
6.3084935463
 30
0.0
 10
12.3649790564
 20
6.3009430501
 30
0.0
 10
12.3658520992
 20
6.2936261776
 30
0.0
 10
12.3668220981
 20
6.286557623
 30
0.0
 10
12.3678871238
 20
6.2797515671
 30
0.0
 10
12.3690449623
 20
6.2732216547
 30
0.0
 10
12.3702932868
 20
6.2669809627
 30
0.0
 10
12.3716295574
 20
6.2610419704
 30
0.0
 10
12.373051028
 20
6.2554165269
 30
0.0
 10
12.3745548702
 20
6.2501158315
 30
0.0
 10
12.3761379893
 20
6.2451503814
 30
0.0
 10
12.3777972438
 20
6.2405299643
 30
0.0
 10
12.3795293404
 20
6.2362636133
 30
0.0
 10
12.3813308648
 20
6.2323595596
 30
0.0
 10
12.3831984889
 20
6.2288252603
 30
0.0
 10
12.3851287955
 20
6.2256672961
 30
0.0
 10
12.387118689
 20
6.2228914938
 30
0.0
 10
12.3891652967
 20
6.2205030181
 30
0.0
 10
12.3912664065
 20
6.2185065548
 30
0.0
 10
12.3934196203
 20
6.2169072818
 30
0.0
 10
12.3952825974
 20
6.215896184
 30
0.0
 10
12.3967839034
 20
6.215305158
 30
0.0
 10
12.3979037126
 20
6.2149698681
 30
0.0
 10
12.399032018
 20
6.2147369307
 30
0.0
 10
12.39979067
 20
6.2146498929
 30
0.0
 10
12.4001695432
 20
6.2146236146
 30
0.0
  0
SPLINE
  5
369
100
AcDbEntity
  8
0
100
AcDbSpline
 62
7
  6
CONTINUOUS
 70
0
 71
3
 72
37
 73
33
 74
0
 42
0.0000001
 43
0.0000001
 44
0.0000000001
 40
0.0
 40
0.0
 40
0.0
 40
0.0
 40
0.0306742318
 40
0.0614517475
 40
0.0923289012
 40
0.1233035977
 40
0.1543714189
 40
0.1855276174
 40
0.2167664933
 40
0.2480816223
 40
0.2794658984
 40
0.3109115957
 40
0.3424104455
 40
0.3739537086
 40
0.405532255
 40
0.437136646
 40
0.5003675822
 40
0.5635846121
 40
0.5951717451
 40
0.6267263393
 40
0.6582391671
 40
0.6897013674
 40
0.7211045244
 40
0.7524407437
 40
0.7837027276
 40
0.8148838451
 40
0.8459781959
 40
0.8769806692
 40
0.9078869965
 40
0.9386937985
 40
0.9693986277
 40
1.0
 40
1.0
 40
1.0
 40
1.0
 10
9.3953092405
 20
9.5012646468
 30
0.0
 10
9.4044114261
 20
9.5006334081
 30
0.0
 10
9.422618563
 20
9.4989222715
 30
0.0
 10
9.4498145495
 20
9.4950279334
 30
0.0
 10
9.4768796066
 20
9.4898105981
 30
0.0
 10
9.5037474952
 20
9.4832832278
 30
0.0
 10
9.5303539417
 20
9.4754613781
 30
0.0
 10
9.556634758
 20
9.4663640199
 30
0.0
 10
9.5825267155
 20
9.4560130556
 30
0.0
 10
9.6079674873
 20
9.4444334701
 30
0.0
 10
9.6328958478
 20
9.4316531779
 30
0.0
 10
9.6572517915
 20
9.4177029852
 30
0.0
 10
9.6809767342
 20
9.4026164603
 30
0.0
 10
9.7040134377
 20
9.3864300635
 30
0.0
 10
9.7263069476
 20
9.3691822714
 30
0.0
 10
9.7549688029
 20
9.3448261374
 30
0.0
 10
9.7886682983
 20
9.3119456296
 30
0.0
 10
9.8192159462
 20
9.2761245618
 30
0.0
 10
9.8415870065
 20
9.2459082109
 30
0.0
 10
9.8572889041
 20
9.2225257895
 30
0.0
 10
9.8718778929
 20
9.1984773361
 30
0.0
 10
9.8853193007
 20
9.1738202045
 30
0.0
 10
9.8975806166
 20
9.1486138756
 30
0.0
 10
9.9086323127
 20
9.1229189735
 30
0.0
 10
9.9184477463
 20
9.0967973583
 30
0.0
 10
9.9270032617
 20
9.0703119053
 30
0.0
 10
9.9342782204
 20
9.0435263743
 30
0.0
 10
9.9402550571
 20
9.0165052282
 30
0.0
 10
9.9449193211
 20
8.9893135829
 30
0.0
 10
9.9482597092
 20
8.9620166743
 30
0.0
 10
9.9502681304
 20
8.9346811073
 30
0.0
 10
9.9507165979
 20
8.9164424824
 30
0.0
 10
9.9507166057
 20
8.9073401069
 30
0.0
  0
SPLINE
  5
36A
100
AcDbEntity
  8
0
100
AcDbSpline
 62
7
  6
CONTINUOUS
 70
0
 71
3
 72
39
 73
35
 74
0
 42
0.0000001
 43
0.0000001
 44
0.0000000001
 40
0.0
 40
0.0
 40
0.0
 40
0.0
 40
0.0311450462
 40
0.0624431052
 40
0.093888346
 40
0.1254709894
 40
0.1571788841
 40
0.1889972607
 40
0.2209091756
 40
0.252895844
 40
0.2849370232
 40
0.3170114137
 40
0.349097074
 40
0.3811718446
 40
0.4132137767
 40
0.4452015559
 40
0.4771149183
 40
0.5089350511
 40
0.5406449736
 40
0.5722298924
 40
0.6036775218
 40
0.6349783627
 40
0.666125935
 40
0.697116956
 40
0.7279514587
 40
0.7586328412
 40
0.7891678426
 40
0.819566443
 40
0.8498416848
 40
0.8800094168
 40
0.9100879629
 40
0.9400977196
 40
0.9700606951
 40
1.0
 40
1.0
 40
1.0
 40
1.0
 10
9.443455499
 20
9.4656666639
 30
0.0
 10
9.4550131412
 20
9.4648651387
 30
0.0
 10
9.4781351398
 20
9.4624121825
 30
0.0
 10
9.5125378172
 20
9.4562330832
 30
0.0
 10
9.5465720065
 20
9.4475780609
 30
0.0
 10
9.5800539127
 20
9.4364936072
 30
0.0
 10
9.612805644
 20
9.4230391584
 30
0.0
 10
9.6446524897
 20
9.4072866546
 30
0.0
 10
9.6754247967
 20
9.3893202873
 30
0.0
 10
9.7049585994
 20
9.3692359973
 30
0.0
 10
9.7330965448
 20
9.3471409559
 30
0.0
 10
9.7596887017
 20
9.3231530019
 30
0.0
 10
9.7845933508
 20
9.2974000161
 30
0.0
 10
9.8076777404
 20
9.2700192595
 30
0.0
 10
9.828818809
 20
9.2411566604
 30
0.0
 10
9.8479038043
 20
9.2109660167
 30
0.0
 10
9.8648308825
 20
9.1796081913
 30
0.0
 10
9.8795096466
 20
9.1472502666
 30
0.0
 10
9.8918616227
 20
9.1140646663
 30
0.0
 10
9.9018207212
 20
9.0802282638
 30
0.0
 10
9.9093335578
 20
9.045921433
 30
0.0
 10
9.9143597376
 20
9.0113271019
 30
0.0
 10
9.9168720813
 20
8.9766297933
 30
0.0
 10
9.9168567744
 20
8.942014654
 30
0.0
 10
9.914313492
 20
8.9076664794
 30
0.0
 10
9.9092554136
 20
8.8737687271
 30
0.0
 10
9.9017091458
 20
8.8405025453
 30
0.0
 10
9.8917146066
 20
8.8080458018
 30
0.0
 10
9.879324848
 20
8.7765721455
 30
0.0
 10
9.8646057457
 20
8.7462500052
 30
0.0
 10
9.8476359195
 20
8.7172418686
 30
0.0
 10
9.8285054433
 20
8.6897025993
 30
0.0
 10
9.807318499
 20
8.6637815865
 30
0.0
 10
9.7918915914
 20
8.6476655586
 30
0.0
 10
9.7838813386
 20
8.6399282389
 30
0.0
  0
SPLINE
  5
36B
100
AcDbEntity
  8
0
100
AcDbSpline
 62
7
  6
CONTINUOUS
 70
0
 71
3
 72
23
 73
19
 74
0
 42
0.0000001
 43
0.0000001
 44
0.0000000001
 40
0.0
 40
0.0
 40
0.0
 40
0.0
 40
0.0638615549
 40
0.1275031865
 40
0.1909230463
 40
0.2541276772
 40
0.3171223954
 40
0.3799159295
 40
0.4425188203
 40
0.5049436672
 40
0.5672049938
 40
0.6293190755
 40
0.6913037924
 40
0.7531784389
 40
0.8149635253
 40
0.8766805554
 40
0.9383517902
 40
1.0
 40
1.0
 40
1.0
 40
1.0
 10
9.443455499
 20
9.4656666639
 30
0.0
 10
9.4355548418
 20
9.4662145764
 30
0.0
 10
9.4197505627
 20
9.4669154421
 30
0.0
 10
9.3960645648
 20
9.4667743004
 30
0.0
 10
9.3724966905
 20
9.4654391242
 30
0.0
 10
9.3491072827
 20
9.4629134198
 30
0.0
 10
9.3259548072
 20
9.4592033149
 30
0.0
 10
9.3030977011
 20
9.4543181457
 30
0.0
 10
9.2805934868
 20
9.4482701288
 30
0.0
 10
9.2584988494
 20
9.4410744552
 30
0.0
 10
9.2368694432
 20
9.432749196
 30
0.0
 10
9.2157597615
 20
9.423315264
 30
0.0
 10
9.1952230053
 20
9.4127963691
 30
0.0
 10
9.1753109231
 20
9.4012189502
 30
0.0
 10
9.1560737341
 20
9.3886122054
 30
0.0
 10
9.1375597479
 20
9.3750077173
 30
0.0
 10
9.1198162545
 20
9.3604403482
 30
0.0
 10
9.1085284659
 20
9.350109169
 30
0.0
 10
9.1030296593
 20
9.3447977231
 30
0.0
  0
SPLINE
  5
36C
100
AcDbEntity
  8
0
100
AcDbSpline
 62
7
  6
CONTINUOUS
 70
0
 71
3
 72
37
 73
33
 74
0
 42
0.0000001
 43
0.0000001
 44
0.0000000001
 40
0.0
 40
0.0
 40
0.0
 40
0.0
 40
0.0306742318
 40
0.0614517475
 40
0.0923289012
 40
0.1233035977
 40
0.1543714189
 40
0.1855276174
 40
0.2167664933
 40
0.2480816223
 40
0.2794658984
 40
0.3109115957
 40
0.3424104455
 40
0.3739537086
 40
0.405532255
 40
0.437136646
 40
0.5003675822
 40
0.5635846121
 40
0.5951717451
 40
0.6267263393
 40
0.6582391671
 40
0.6897013674
 40
0.7211045244
 40
0.7524407437
 40
0.7837027276
 40
0.8148838451
 40
0.8459781959
 40
0.8769806692
 40
0.9078869965
 40
0.9386937985
 40
0.9693986277
 40
1.0
 40
1.0
 40
1.0
 40
1.0
 10
11.3271610076
 20
9.3672902717
 30
0.0
 10
11.3362631931
 20
9.366659033
 30
0.0
 10
11.3544703301
 20
9.3649478964
 30
0.0
 10
11.3816663165
 20
9.3610535583
 30
0.0
 10
11.4087313737
 20
9.355836223
 30
0.0
 10
11.4355992623
 20
9.3493088528
 30
0.0
 10
11.4622057087
 20
9.341487003
 30
0.0
 10
11.488486525
 20
9.3323896448
 30
0.0
 10
11.5143784826
 20
9.3220386805
 30
0.0
 10
11.5398192544
 20
9.310459095
 30
0.0
 10
11.5647476149
 20
9.2976788028
 30
0.0
 10
11.5891035585
 20
9.2837286101
 30
0.0
 10
11.6128285012
 20
9.2686420852
 30
0.0
 10
11.6358652047
 20
9.2524556885
 30
0.0
 10
11.6581587146
 20
9.2352078963
 30
0.0
 10
11.6868205699
 20
9.2108517623
 30
0.0
 10
11.7205200653
 20
9.1779712545
 30
0.0
 10
11.7510677132
 20
9.1421501867
 30
0.0
 10
11.7734387736
 20
9.1119338358
 30
0.0
 10
11.7891406711
 20
9.0885514144
 30
0.0
 10
11.8037296599
 20
9.064502961
 30
0.0
 10
11.8171710678
 20
9.0398458294
 30
0.0
 10
11.8294323836
 20
9.0146395005
 30
0.0
 10
11.8404840797
 20
8.9889445984
 30
0.0
 10
11.8502995134
 20
8.9628229832
 30
0.0
 10
11.8588550288
 20
8.9363375302
 30
0.0
 10
11.8661299874
 20
8.9095519992
 30
0.0
 10
11.8721068241
 20
8.8825308532
 30
0.0
 10
11.8767710882
 20
8.8553392078
 30
0.0
 10
11.8801114763
 20
8.8280422992
 30
0.0
 10
11.8821198974
 20
8.8007067323
 30
0.0
 10
11.8825683649
 20
8.7824681073
 30
0.0
 10
11.8825683727
 20
8.7733657318
 30
0.0
  0
SPLINE
  5
36D
100
AcDbEntity
  8
0
100
AcDbSpline
 62
7
  6
CONTINUOUS
 70
0
 71
3
 72
39
 73
35
 74
0
 42
0.0000001
 43
0.0000001
 44
0.0000000001
 40
0.0
 40
0.0
 40
0.0
 40
0.0
 40
0.0311450462
 40
0.0624431052
 40
0.093888346
 40
0.1254709894
 40
0.1571788841
 40
0.1889972607
 40
0.2209091756
 40
0.252895844
 40
0.2849370232
 40
0.3170114137
 40
0.349097074
 40
0.3811718446
 40
0.4132137767
 40
0.4452015559
 40
0.4771149183
 40
0.5089350511
 40
0.5406449736
 40
0.5722298924
 40
0.6036775218
 40
0.6349783627
 40
0.666125935
 40
0.697116956
 40
0.7279514587
 40
0.7586328412
 40
0.7891678426
 40
0.819566443
 40
0.8498416848
 40
0.8800094168
 40
0.9100879629
 40
0.9400977196
 40
0.9700606951
 40
1.0
 40
1.0
 40
1.0
 40
1.0
 10
11.375307266
 20
9.3316922889
 30
0.0
 10
11.3868649082
 20
9.3308907637
 30
0.0
 10
11.4099869069
 20
9.3284378074
 30
0.0
 10
11.4443895843
 20
9.3222587081
 30
0.0
 10
11.4784237735
 20
9.3136036858
 30
0.0
 10
11.5119056797
 20
9.3025192322
 30
0.0
 10
11.544657411
 20
9.2890647833
 30
0.0
 10
11.5765042568
 20
9.2733122795
 30
0.0
 10
11.6072765637
 20
9.2553459122
 30
0.0
 10
11.6368103664
 20
9.2352616222
 30
0.0
 10
11.6649483119
 20
9.2131665808
 30
0.0
 10
11.6915404688
 20
9.1891786268
 30
0.0
 10
11.7164451178
 20
9.163425641
 30
0.0
 10
11.7395295075
 20
9.1360448844
 30
0.0
 10
11.7606705761
 20
9.1071822854
 30
0.0
 10
11.7797555713
 20
9.0769916416
 30
0.0
 10
11.7966826495
 20
9.0456338162
 30
0.0
 10
11.8113614137
 20
9.0132758915
 30
0.0
 10
11.8237133897
 20
8.9800902913
 30
0.0
 10
11.8336724882
 20
8.9462538887
 30
0.0
 10
11.8411853249
 20
8.9119470579
 30
0.0
 10
11.8462115047
 20
8.8773527268
 30
0.0
 10
11.8487238484
 20
8.8426554182
 30
0.0
 10
11.8487085414
 20
8.8080402789
 30
0.0
 10
11.8461652591
 20
8.7736921043
 30
0.0
 10
11.8411071807
 20
8.7397943521
 30
0.0
 10
11.8335609129
 20
8.7065281702
 30
0.0
 10
11.8235663737
 20
8.6740714267
 30
0.0
 10
11.8111766151
 20
8.6425977704
 30
0.0
 10
11.7964575127
 20
8.6122756301
 30
0.0
 10
11.7794876865
 20
8.5832674936
 30
0.0
 10
11.7603572103
 20
8.5557282242
 30
0.0
 10
11.739170266
 20
8.5298072114
 30
0.0
 10
11.7237433584
 20
8.5136911835
 30
0.0
 10
11.7157331057
 20
8.5059538638
 30
0.0
  0
SPLINE
  5
36E
100
AcDbEntity
  8
0
100
AcDbSpline
 62
7
  6
CONTINUOUS
 70
0
 71
3
 72
23
 73
19
 74
0
 42
0.0000001
 43
0.0000001
 44
0.0000000001
 40
0.0
 40
0.0
 40
0.0
 40
0.0
 40
0.0638615549
 40
0.1275031865
 40
0.1909230463
 40
0.2541276772
 40
0.3171223954
 40
0.3799159295
 40
0.4425188203
 40
0.5049436672
 40
0.5672049938
 40
0.6293190755
 40
0.6913037924
 40
0.7531784389
 40
0.8149635253
 40
0.8766805554
 40
0.9383517902
 40
1.0
 40
1.0
 40
1.0
 40
1.0
 10
11.375307266
 20
9.3316922889
 30
0.0
 10
11.3674066088
 20
9.3322402013
 30
0.0
 10
11.3516023298
 20
9.332941067
 30
0.0
 10
11.3279163318
 20
9.3327999253
 30
0.0
 10
11.3043484575
 20
9.3314647491
 30
0.0
 10
11.2809590497
 20
9.3289390447
 30
0.0
 10
11.2578065743
 20
9.3252289398
 30
0.0
 10
11.2349494682
 20
9.3203437706
 30
0.0
 10
11.2124452538
 20
9.3142957537
 30
0.0
 10
11.1903506164
 20
9.3071000801
 30
0.0
 10
11.1687212102
 20
9.2987748209
 30
0.0
 10
11.1476115286
 20
9.2893408889
 30
0.0
 10
11.1270747723
 20
9.278821994
 30
0.0
 10
11.1071626902
 20
9.2672445751
 30
0.0
 10
11.0879255012
 20
9.2546378303
 30
0.0
 10
11.069411515
 20
9.2410333422
 30
0.0
 10
11.0516680216
 20
9.2264659731
 30
0.0
 10
11.0403802329
 20
9.2161347939
 30
0.0
 10
11.0348814264
 20
9.210823348
 30
0.0
  0
SPLINE
  5
36F
100
AcDbEntity
  8
0
100
AcDbSpline
 62
7
  6
CONTINUOUS
 70
0
 71
3
 72
31
 73
27
 74
0
 42
0.0000001
 43
0.0000001
 44
0.0000000001
 40
0.0
 40
0.0
 40
0.0
 40
0.0
 40
0.0735830216
 40
0.1462409438
 40
0.2178823243
 40
0.2884649472
 40
0.3579639646
 40
0.4263535269
 40
0.493593005
 40
0.5596155862
 40
0.6243126574
 40
0.6875140263
 40
0.7489561128
 40
0.7788965042
 40
0.8082253582
 40
0.8368481771
 40
0.8646461335
 40
0.8914591366
 40
0.9170740458
 40
0.9412038244
 40
0.9525949307
 40
0.9634554209
 40
0.9737154667
 40
0.9832899254
 40
0.9920862194
 40
1.0
 40
1.0
 40
1.0
 40
1.0
 10
11.2114404694
 20
9.1044188479
 30
0.0
 10
11.2115764061
 20
9.108716895
 30
0.0
 10
11.2120496718
 20
9.1172536133
 30
0.0
 10
11.2132973196
 20
9.1299286644
 30
0.0
 10
11.2150113564
 20
9.1423718158
 30
0.0
 10
11.2171355575
 20
9.1545636551
 30
0.0
 10
11.2196228801
 20
9.1664922374
 30
0.0
 10
11.2224330893
 20
9.1781477526
 30
0.0
 10
11.2255310247
 20
9.1895194792
 30
0.0
 10
11.2288850993
 20
9.2005928729
 30
0.0
 10
11.2324655472
 20
9.2113466306
 30
0.0
 10
11.2362425607
 20
9.2217484825
 30
0.0
 10
11.2395551585
 20
9.2301544776
 30
0.0
 10
11.2422815626
 20
9.2366609294
 30
0.0
 10
11.2443364934
 20
9.2413685971
 30
0.0
 10
11.2464129738
 20
9.2459295923
 30
0.0
 10
11.248503126
 20
9.2503220897
 30
0.0
 10
11.2505971654
 20
9.2545172293
 30
0.0
 10
11.2526821975
 20
9.2584761473
 30
0.0
 10
11.254429864
 20
9.2615930105
 30
0.0
 10
11.2558169885
 20
9.2639218851
 30
0.0
 10
11.2568224921
 20
9.2655341818
 30
0.0
 10
11.257808688
 20
9.2670328304
 30
0.0
 10
11.2587706739
 20
9.2684022449
 30
0.0
 10
11.2597019471
 20
9.2696243312
 30
0.0
 10
11.2603337203
 20
9.2703699993
 30
0.0
 10
11.2606461382
 20
9.2707110044
 30
0.0
  0
SPLINE
  5
370
100
AcDbEntity
  8
0
100
AcDbSpline
 62
7
  6
CONTINUOUS
 70
0
 71
3
 72
39
 73
35
 74
0
 42
0.0000001
 43
0.0000001
 44
0.0000000001
 40
0.0
 40
0.0
 40
0.0
 40
0.0
 40
0.0311450474
 40
0.0624431122
 40
0.0938883415
 40
0.1254709904
 40
0.157178884
 40
0.1889972611
 40
0.2209091755
 40
0.2528958437
 40
0.2849370231
 40
0.3170114138
 40
0.3490970738
 40
0.3811718446
 40
0.413213777
 40
0.4452015561
 40
0.477114918
 40
0.5089350506
 40
0.5406449736
 40
0.5722298927
 40
0.6036775219
 40
0.6349783626
 40
0.6661259349
 40
0.6971169558
 40
0.7279514584
 40
0.7586328412
 40
0.7891678431
 40
0.8195664432
 40
0.8498416843
 40
0.8800094163
 40
0.9100879629
 40
0.9400977199
 40
0.9700606953
 40
1.0
 40
1.0
 40
1.0
 40
1.0
 10
9.6365318877
 20
7.8808307636
 30
0.0
 10
9.6492688816
 20
7.8799474501
 30
0.0
 10
9.6747502705
 20
7.8772441891
 30
0.0
 10
9.7126634242
 20
7.8704345744
 30
0.0
 10
9.7501704903
 20
7.8608963884
 30
0.0
 10
9.787068919
 20
7.8486808802
 30
0.0
 10
9.8231626576
 20
7.8338535069
 30
0.0
 10
9.8582591764
 20
7.8164935967
 30
0.0
 10
9.8921715214
 20
7.7966939388
 30
0.0
 10
9.9247189892
 20
7.7745602486
 30
0.0
 10
9.9557281528
 20
7.7502106086
 30
0.0
 10
9.9850337761
 20
7.7237748827
 30
0.0
 10
10.0124797093
 20
7.6953940359
 30
0.0
 10
10.0379196673
 20
7.6652193403
 30
0.0
 10
10.0612180045
 20
7.6334115892
 30
0.0
 10
10.0822504349
 20
7.6001402584
 30
0.0
 10
10.1009047495
 20
7.5655826464
 30
0.0
 10
10.1170813427
 20
7.5299228914
 30
0.0
 10
10.1306937474
 20
7.4933510137
 30
0.0
 10
10.1416690828
 20
7.4560619167
 30
0.0
 10
10.1499485264
 20
7.4182543868
 30
0.0
 10
10.1554875767
 20
7.3801300215
 30
0.0
 10
10.1582562844
 20
7.3418921715
 30
0.0
 10
10.1582394153
 20
7.3037448749
 30
0.0
 10
10.1554366125
 20
7.2658917846
 30
0.0
 10
10.1498624089
 20
7.2285350771
 30
0.0
 10
10.1415461229
 20
7.1918743844
 30
0.0
 10
10.1305317277
 20
7.1561057293
 30
0.0
 10
10.1168776858
 20
7.1214204847
 30
0.0
 10
10.1006566407
 20
7.0880042461
 30
0.0
 10
10.0819552166
 20
7.0560360854
 30
0.0
 10
10.0608726636
 20
7.025686676
 30
0.0
 10
10.0375237626
 20
6.997120681
 30
0.0
 10
10.0205226801
 20
6.9793601611
 30
0.0
 10
10.0116950462
 20
6.9708333277
 30
0.0
  0
SPLINE
  5
371
100
AcDbEntity
  8
0
100
AcDbSpline
 62
7
  6
CONTINUOUS
 70
0
 71
3
 72
23
 73
19
 74
0
 42
0.0000001
 43
0.0000001
 44
0.0000000001
 40
0.0
 40
0.0
 40
0.0
 40
0.0
 40
0.0638617654
 40
0.1275030803
 40
0.1909230764
 40
0.2541276764
 40
0.317122389
 40
0.3799159305
 40
0.4425188195
 40
0.5049436701
 40
0.5672049961
 40
0.6293190749
 40
0.6913037887
 40
0.7531784352
 40
0.8149635246
 40
0.8766805577
 40
0.9383517929
 40
1.0
 40
1.0
 40
1.0
 40
1.0
 10
9.6365318877
 20
7.8808307636
 30
0.0
 10
9.6278250122
 20
7.8814345875
 30
0.0
 10
9.6104080663
 20
7.8822069812
 30
0.0
 10
9.5843051258
 20
7.8820514181
 30
0.0
 10
9.5583323944
 20
7.8805800156
 30
0.0
 10
9.5325562999
 20
7.8777965706
 30
0.0
 10
9.507041332
 20
7.8737078786
 30
0.0
 10
9.4818518655
 20
7.8683242357
 30
0.0
 10
9.457051298
 20
7.8616590859
 30
0.0
 10
9.4327021057
 20
7.8537291583
 30
0.0
 10
9.4088656216
 20
7.844554371
 30
0.0
 10
9.3856018978
 20
7.8341577794
 30
0.0
 10
9.3629695559
 20
7.8225655268
 30
0.0
 10
9.3410256178
 20
7.8098067578
 30
0.0
 10
9.3198254396
 20
7.7959136243
 30
0.0
 10
9.299422275
 20
7.780920916
 30
0.0
 10
9.2798682294
 20
7.7648670691
 30
0.0
 10
9.2674286439
 20
7.7534816692
 30
0.0
 10
9.2613687292
 20
7.7476282453
 30
0.0
  0
SPLINE
  5
372
100
AcDbEntity
  8
0
100
AcDbSpline
 62
7
  6
CONTINUOUS
 70
0
 71
3
 72
39
 73
35
 74
0
 42
0.0000001
 43
0.0000001
 44
0.0000000001
 40
0.0
 40
0.0
 40
0.0
 40
0.0
 40
0.0311450474
 40
0.0624431122
 40
0.0938883415
 40
0.1254709904
 40
0.157178884
 40
0.1889972611
 40
0.2209091755
 40
0.2528958437
 40
0.2849370231
 40
0.3170114138
 40
0.3490970738
 40
0.3811718446
 40
0.413213777
 40
0.4452015561
 40
0.477114918
 40
0.5089350506
 40
0.5406449736
 40
0.5722298927
 40
0.6036775219
 40
0.6349783626
 40
0.6661259349
 40
0.6971169558
 40
0.7279514584
 40
0.7586328412
 40
0.7891678431
 40
0.8195664432
 40
0.8498416843
 40
0.8800094163
 40
0.9100879629
 40
0.9400977199
 40
0.9700606953
 40
1.0
 40
1.0
 40
1.0
 40
1.0
 10
11.085420713
 20
7.7803499823
 30
0.0
 10
11.0981577069
 20
7.7794666688
 30
0.0
 10
11.1236390958
 20
7.7767634078
 30
0.0
 10
11.1615522495
 20
7.7699537931
 30
0.0
 10
11.1990593156
 20
7.760415607
 30
0.0
 10
11.2359577443
 20
7.7482000988
 30
0.0
 10
11.2720514829
 20
7.7333727256
 30
0.0
 10
11.3071480017
 20
7.7160128154
 30
0.0
 10
11.3410603467
 20
7.6962131575
 30
0.0
 10
11.3736078145
 20
7.6740794673
 30
0.0
 10
11.404616978
 20
7.6497298273
 30
0.0
 10
11.4339226014
 20
7.6232941014
 30
0.0
 10
11.4613685346
 20
7.5949132546
 30
0.0
 10
11.4868084926
 20
7.5647385589
 30
0.0
 10
11.5101068298
 20
7.5329308079
 30
0.0
 10
11.5311392602
 20
7.4996594771
 30
0.0
 10
11.5497935748
 20
7.4651018651
 30
0.0
 10
11.565970168
 20
7.4294421101
 30
0.0
 10
11.5795825727
 20
7.3928702324
 30
0.0
 10
11.590557908
 20
7.3555811354
 30
0.0
 10
11.5988373517
 20
7.3177736055
 30
0.0
 10
11.604376402
 20
7.2796492402
 30
0.0
 10
11.6071451097
 20
7.2414113901
 30
0.0
 10
11.6071282406
 20
7.2032640936
 30
0.0
 10
11.6043254378
 20
7.1654110033
 30
0.0
 10
11.5987512342
 20
7.1280542958
 30
0.0
 10
11.5904349482
 20
7.0913936031
 30
0.0
 10
11.579420553
 20
7.055624948
 30
0.0
 10
11.5657665111
 20
7.0209397034
 30
0.0
 10
11.5495454659
 20
6.9875234648
 30
0.0
 10
11.5308440419
 20
6.9555553041
 30
0.0
 10
11.5097614889
 20
6.9252058947
 30
0.0
 10
11.4864125879
 20
6.8966398997
 30
0.0
 10
11.4694115054
 20
6.8788793798
 30
0.0
 10
11.4605838715
 20
6.8703525464
 30
0.0
  0
SPLINE
  5
373
100
AcDbEntity
  8
0
100
AcDbSpline
 62
7
  6
CONTINUOUS
 70
0
 71
3
 72
23
 73
19
 74
0
 42
0.0000001
 43
0.0000001
 44
0.0000000001
 40
0.0
 40
0.0
 40
0.0
 40
0.0
 40
0.0638617654
 40
0.1275030803
 40
0.1909230764
 40
0.2541276764
 40
0.317122389
 40
0.3799159305
 40
0.4425188195
 40
0.5049436701
 40
0.5672049961
 40
0.6293190749
 40
0.6913037887
 40
0.7531784352
 40
0.8149635246
 40
0.8766805577
 40
0.9383517929
 40
1.0
 40
1.0
 40
1.0
 40
1.0
 10
11.085420713
 20
7.7803499823
 30
0.0
 10
11.0767138375
 20
7.7809538062
 30
0.0
 10
11.0592968916
 20
7.7817261999
 30
0.0
 10
11.0331939511
 20
7.7815706368
 30
0.0
 10
11.0072212197
 20
7.7800992343
 30
0.0
 10
10.9814451252
 20
7.7773157892
 30
0.0
 10
10.9559301573
 20
7.7732270973
 30
0.0
 10
10.9307406908
 20
7.7678434543
 30
0.0
 10
10.9059401233
 20
7.7611783046
 30
0.0
 10
10.881590931
 20
7.7532483769
 30
0.0
 10
10.8577544468
 20
7.7440735897
 30
0.0
 10
10.8344907231
 20
7.7336769981
 30
0.0
 10
10.8118583812
 20
7.7220847455
 30
0.0
 10
10.7899144431
 20
7.7093259765
 30
0.0
 10
10.7687142649
 20
7.6954328429
 30
0.0
 10
10.7483111003
 20
7.6804401346
 30
0.0
 10
10.7287570547
 20
7.6643862878
 30
0.0
 10
10.7163174692
 20
7.6530008879
 30
0.0
 10
10.7102575544
 20
7.647147464
 30
0.0
  0
SPLINE
  5
374
100
AcDbEntity
  8
0
100
AcDbSpline
 62
7
  6
CONTINUOUS
 70
0
 71
3
 72
40
 73
36
 74
0
 42
0.0000001
 43
0.0000001
 44
0.0000000001
 40
0.0
 40
0.0
 40
0.0
 40
0.0
 40
0.0171386173
 40
0.0262345845
 40
0.0356915466
 40
0.045515908
 40
0.0557107241
 40
0.0662768642
 40
0.0772130235
 40
0.1001752054
 40
0.1245567828
 40
0.1502887868
 40
0.1772848256
 40
0.2054463618
 40
0.2346678424
 40
0.2648415458
 40
0.2958619857
 40
0.3276295062
 40
0.360052791
 40
0.3930504124
 40
0.4265515895
 40
0.4948030841
 40
0.564472304
 40
0.5997730385
 40
0.6353434663
 40
0.6711642878
 40
0.7072170174
 40
0.743481708
 40
0.7799344061
 40
0.8165442194
 40
0.8532702708
 40
0.8900585366
 40
0.9268388949
 40
0.9635219974
 40
1.0
 40
1.0
 40
1.0
 40
1.0
 10
11.1017531419
 20
7.298467727
 30
0.0
 10
11.0984585284
 20
7.2983494371
 30
0.0
 10
11.0933974845
 20
7.2985182308
 30
0.0
 10
11.0865796688
 20
7.2993423607
 30
0.0
 10
11.0812026503
 20
7.3003003166
 30
0.0
 10
11.0756789625
 20
7.3015905665
 30
0.0
 10
11.0700226492
 20
7.3032177887
 30
0.0
 10
11.0642494246
 20
7.3051860428
 30
0.0
 10
11.0562886973
 20
7.3083207015
 30
0.0
 10
11.0461480128
 20
7.3131366496
 30
0.0
 10
11.0339882344
 20
7.3202186286
 30
0.0
 10
11.0217946295
 20
7.3286906078
 30
0.0
 10
11.0097215573
 20
7.3385293127
 30
0.0
 10
10.9979204692
 20
7.3496936703
 30
0.0
 10
10.9865366484
 20
7.362125088
 30
0.0
 10
10.9757048274
 20
7.3757499055
 30
0.0
 10
10.9655463261
 20
7.3904824299
 30
0.0
 10
10.9561672166
 20
7.4062285475
 30
0.0
 10
10.9476578121
 20
7.4228888902
 30
0.0
 10
10.9400927487
 20
7.4403630385
 30
0.0
 10
10.9312928325
 20
7.4647587671
 30
0.0
 10
10.9229894662
 20
7.4967590949
 30
0.0
 10
10.9184723329
 20
7.5298518971
 30
0.0
 10
10.917118677
 20
7.5568638683
 30
0.0
 10
10.9172507391
 20
7.5773977314
 30
0.0
 10
10.9185345772
 20
7.5980358421
 30
0.0
 10
10.9209634535
 20
7.6187050988
 30
0.0
 10
10.9245242781
 20
7.6393327008
 30
0.0
 10
10.92919657
 20
7.6598468843
 30
0.0
 10
10.934951322
 20
7.680175951
 30
0.0
 10
10.941749543
 20
7.7002479662
 30
0.0
 10
10.9495405706
 20
7.7199905675
 30
0.0
 10
10.9582605529
 20
7.7393312329
 30
0.0
 10
10.9678306804
 20
7.7581975971
 30
0.0
 10
10.9747429729
 20
7.7704618731
 30
0.0
 10
10.9783147965
 20
7.7765015458
 30
0.0
  0
SPLINE
  5
375
100
AcDbEntity
  8
0
100
AcDbSpline
 62
7
  6
CONTINUOUS
 70
0
 71
3
 72
13
 73
9
 74
0
 42
0.0000001
 43
0.0000001
 44
0.0000000001
 40
0.0
 40
0.0
 40
0.0
 40
0.0
 40
0.2608309782
 40
0.3886048335
 40
0.5145518723
 40
0.6386517925
 40
0.7609082536
 40
1.0
 40
1.0
 40
1.0
 40
1.0
 10
11.0824825216
 20
7.2437284524
 30
0.0
 10
11.0834309533
 20
7.2487064218
 30
0.0
 10
11.0850890267
 20
7.2560804384
 30
0.0
 10
11.0878167399
 20
7.2656998354
 30
0.0
 10
11.0900905949
 20
7.2726812606
 30
0.0
 10
11.0926102476
 20
7.2794640162
 30
0.0
 10
11.09627482
 20
7.2881562619
 30
0.0
 10
11.0994452988
 20
7.2944364314
 30
0.0
 10
11.1017531419
 20
7.298467727
 30
0.0
  0
SPLINE
  5
376
100
AcDbEntity
  8
0
100
AcDbSpline
 62
7
  6
CONTINUOUS
 70
0
 71
3
 72
14
 73
10
 74
0
 42
0.0000001
 43
0.0000001
 44
0.0000000001
 40
0.0
 40
0.0
 40
0.0
 40
0.0
 40
0.1173368807
 40
0.2364485214
 40
0.4809072793
 40
0.6067034147
 40
0.7350691304
 40
0.8661318028
 40
1.0
 40
1.0
 40
1.0
 40
1.0
 10
11.1482116988
 20
7.3433432496
 30
0.0
 10
11.1502195855
 20
7.3443881548
 30
0.0
 10
11.1543227804
 20
7.3463859842
 30
0.0
 10
11.1628579971
 20
7.3500282266
 30
0.0
 10
11.1717912061
 20
7.3531227748
 30
0.0
 10
11.1810482183
 20
7.3557401525
 30
0.0
 10
11.1882680845
 20
7.3575067795
 30
0.0
 10
11.1956931773
 20
7.3590708194
 30
0.0
 10
11.2007236909
 20
7.3599769549
 30
0.0
 10
11.2032710082
 20
7.360401178
 30
0.0
  0
SPLINE
  5
377
100
AcDbEntity
  8
0
100
AcDbSpline
 62
7
  6
CONTINUOUS
 70
0
 71
3
 72
34
 73
30
 74
0
 42
0.0000001
 43
0.0000001
 44
0.0000000001
 40
0.0
 40
0.0
 40
0.0
 40
0.0
 40
0.0958459282
 40
0.1881224083
 40
0.2765214423
 40
0.3607572882
 40
0.4405696403
 40
0.4787449984
 40
0.5157304387
 40
0.5515026068
 40
0.586040348
 40
0.6193255738
 40
0.6513428938
 40
0.6820806289
 40
0.7115305163
 40
0.7396889134
 40
0.7665566544
 40
0.7921405148
 40
0.8164533362
 40
0.8395158543
 40
0.8613572462
 40
0.8820174432
 40
0.9015482427
 40
0.920016112
 40
0.9375037971
 40
0.9541131995
 40
0.9699665388
 40
0.9852074879
 40
1.0
 40
1.0
 40
1.0
 40
1.0
 10
10.9394391337
 20
7.4428527526
 30
0.0
 10
10.9468950515
 20
7.4417262325
 30
0.0
 10
10.9615068337
 20
7.4393630563
 30
0.0
 10
10.9829003073
 20
7.4354032771
 30
0.0
 10
11.0032966408
 20
7.4311072122
 30
0.0
 10
11.0226164254
 20
7.4264917891
 30
0.0
 10
11.0379766252
 20
7.4223354377
 30
0.0
 10
11.0496614286
 20
7.4188525625
 30
0.0
 10
11.0579800187
 20
7.4162107874
 30
0.0
 10
11.0659759061
 20
7.4135032856
 30
0.0
 10
11.0736413416
 20
7.4107326042
 30
0.0
 10
11.0809689113
 20
7.4079015194
 30
0.0
 10
11.087951519
 20
7.4050127133
 30
0.0
 10
11.0945824449
 20
7.4020690663
 30
0.0
 10
11.1008552875
 20
7.3990733469
 30
0.0
 10
11.1067640538
 20
7.396028523
 30
0.0
 10
11.1123030662
 20
7.3929374185
 30
0.0
 10
11.1174670889
 20
7.3898030528
 30
0.0
 10
11.1222511874
 20
7.3866282591
 30
0.0
 10
11.1266508987
 20
7.3834160507
 30
0.0
 10
11.1306620214
 20
7.3801692007
 30
0.0
 10
11.1342808342
 20
7.3768906303
 30
0.0
 10
11.1375037813
 20
7.3735829657
 30
0.0
 10
11.1403277418
 20
7.370248963
 30
0.0
 10
11.1427495738
 20
7.3668910734
 30
0.0
 10
11.1447664283
 20
7.3635120108
 30
0.0
 10
11.146375233
 20
7.3601142225
 30
0.0
 10
11.147573132
 20
7.3567015693
 30
0.0
 10
11.1481018591
 20
7.3543922524
 30
0.0
 10
11.1482935801
 20
7.3532443734
 30
0.0
  0
SPLINE
  5
378
100
AcDbEntity
  8
0
100
AcDbSpline
 62
7
  6
CONTINUOUS
 70
0
 71
3
 72
25
 73
21
 74
0
 42
0.0000001
 43
0.0000001
 44
0.0000000001
 40
0.0
 40
0.0
 40
0.0
 40
0.0
 40
0.0616475282
 40
0.0924812782
 40
0.1233236452
 40
0.1850399949
 40
0.2468243989
 40
0.277751634
 40
0.3087038677
 40
0.3706878948
 40
0.4328012861
 40
0.4950619216
 40
0.5574860801
 40
0.6200882709
 40
0.6828811113
 40
0.7458751472
 40
0.8090789555
 40
0.8724985283
 40
0.936138578
 40
1.0
 40
1.0
 40
1.0
 40
1.0
 10
8.8767344218
 20
9.4661485603
 30
0.0
 10
8.8849770402
 20
9.4741103402
 30
0.0
 10
8.8976669921
 20
9.485724917
 30
0.0
 10
8.9151899819
 20
9.500510074
 30
0.0
 10
8.9331141071
 20
9.5148277165
 30
0.0
 10
8.9562464088
 20
9.531825998
 30
0.0
 10
8.9802694627
 20
9.5475690318
 30
0.0
 10
8.9999885728
 20
9.5593900748
 30
0.0
 10
9.0200483237
 20
9.5706990361
 30
0.0
 10
9.0457150666
 20
9.5838456308
 30
0.0
 10
9.0773577814
 20
9.5979868148
 30
0.0
 10
9.1097799909
 20
9.6104663489
 30
0.0
 10
9.142899469
 20
9.6212525654
 30
0.0
 10
9.1766329318
 20
9.6303184703
 30
0.0
 10
9.2108953667
 20
9.6376412913
 30
0.0
 10
9.2456005368
 20
9.6432027106
 30
0.0
 10
9.28066094
 20
9.6469887804
 30
0.0
 10
9.3159887062
 20
9.6489901251
 30
0.0
 10
9.351493663
 20
9.6492017757
 30
0.0
 10
9.3751839708
 20
9.6481511506
 30
0.0
 10
9.3870270377
 20
9.6473298312
 30
0.0
  0
SPLINE
  5
379
100
AcDbEntity
  8
0
100
AcDbSpline
 62
7
  6
CONTINUOUS
 70
0
 71
3
 72
25
 73
21
 74
0
 42
0.0000001
 43
0.0000001
 44
0.0000000001
 40
0.0
 40
0.0
 40
0.0
 40
0.0
 40
0.0616475282
 40
0.0924812782
 40
0.1233236452
 40
0.1850399949
 40
0.2468243989
 40
0.277751634
 40
0.3087038677
 40
0.3706878948
 40
0.4328012861
 40
0.4950619216
 40
0.5574860801
 40
0.6200882709
 40
0.6828811113
 40
0.7458751472
 40
0.8090789555
 40
0.8724985283
 40
0.936138578
 40
1.0
 40
1.0
 40
1.0
 40
1.0
 10
10.8085861889
 20
9.3321741853
 30
0.0
 10
10.8168288073
 20
9.3401359651
 30
0.0
 10
10.8295187592
 20
9.3517505419
 30
0.0
 10
10.847041749
 20
9.3665356989
 30
0.0
 10
10.8649658742
 20
9.3808533414
 30
0.0
 10
10.8880981759
 20
9.3978516229
 30
0.0
 10
10.9121212298
 20
9.4135946568
 30
0.0
 10
10.9318403399
 20
9.4254156997
 30
0.0
 10
10.9519000908
 20
9.436724661
 30
0.0
 10
10.9775668336
 20
9.4498712557
 30
0.0
 10
11.0092095484
 20
9.4640124397
 30
0.0
 10
11.0416317579
 20
9.4764919738
 30
0.0
 10
11.0747512361
 20
9.4872781903
 30
0.0
 10
11.1084846989
 20
9.4963440952
 30
0.0
 10
11.1427471338
 20
9.5036669162
 30
0.0
 10
11.1774523038
 20
9.5092283355
 30
0.0
 10
11.2125127071
 20
9.5130144053
 30
0.0
 10
11.2478404732
 20
9.51501575
 30
0.0
 10
11.28334543
 20
9.5152274006
 30
0.0
 10
11.3070357379
 20
9.5141767756
 30
0.0
 10
11.3188788048
 20
9.5133554561
 30
0.0
  0
SPLINE
  5
37A
100
AcDbEntity
  8
0
100
AcDbSpline
 62
7
  6
CONTINUOUS
 70
0
 71
3
 72
34
 73
30
 74
0
 42
0.0000001
 43
0.0000001
 44
0.0000000001
 40
0.0
 40
0.0
 40
0.0
 40
0.0
 40
0.0156452927
 40
0.0303992027
 40
0.0444916316
 40
0.058242377
 40
0.072055142
 40
0.0863901018
 40
0.1017197987
 40
0.1184813979
 40
0.137044933
 40
0.1576985376
 40
0.1806430316
 40
0.2059906025
 40
0.2337678491
 40
0.2639211387
 40
0.2963259568
 40
0.3308005142
 40
0.3671226071
 40
0.405048375
 40
0.4443297337
 40
0.4847271453
 40
0.5260200107
 40
0.5680134036
 40
0.6534380232
 40
0.7399521612
 40
0.8268346096
 40
0.9136194286
 40
1.0
 40
1.0
 40
1.0
 40
1.0
 10
11.2442636455
 20
9.0218261146
 30
0.0
 10
11.2439032638
 20
9.0214332552
 30
0.0
 10
11.2431603234
 20
9.0207070891
 30
0.0
 10
11.2419399191
 20
9.0197989064
 30
0.0
 10
11.2406478583
 20
9.0191224885
 30
0.0
 10
11.2392852745
 20
9.018696119
 30
0.0
 10
11.2378570394
 20
9.0185387685
 30
0.0
 10
11.236371964
 20
9.018667059
 30
0.0
 10
11.2348400805
 20
9.0190937277
 30
0.0
 10
11.2332706948
 20
9.01982876
 30
0.0
 10
11.2316727532
 20
9.0208806852
 30
0.0
 10
11.2300563011
 20
9.0222564974
 30
0.0
 10
11.2284334229
 20
9.0239602346
 30
0.0
 10
11.2268182274
 20
9.0259913134
 30
0.0
 10
11.2252263782
 20
9.0283434152
 30
0.0
 10
11.2236742572
 20
9.0310039724
 30
0.0
 10
11.2221780157
 20
9.0339543506
 30
0.0
 10
11.220752623
 20
9.0371706897
 30
0.0
 10
11.2194110178
 20
9.0406252794
 30
0.0
 10
11.218163568
 20
9.0442882655
 30
0.0
 10
11.2170179069
 20
9.0481293499
 30
0.0
 10
11.2159790176
 20
9.0521192233
 30
0.0
 10
11.2150493086
 20
9.056230662
 30
0.0
 10
11.213949615
 20
9.061874079
 30
0.0
 10
11.2128554902
 20
9.0690850016
 30
0.0
 10
11.2119565178
 20
9.0778613833
 30
0.0
 10
11.2114344583
 20
9.0867142677
 30
0.0
 10
11.2112569377
 20
9.0955756094
 30
0.0
 10
11.2113474222
 20
9.1014768823
 30
0.0
 10
11.2114404694
 20
9.1044188479
 30
0.0
  0
SPLINE
  5
37B
100
AcDbEntity
  8
0
100
AcDbSpline
 62
7
  6
CONTINUOUS
 70
0
 71
3
 72
31
 73
27
 74
0
 42
0.0000001
 43
0.0000001
 44
0.0000000001
 40
0.0
 40
0.0
 40
0.0
 40
0.0
 40
0.0292794906
 40
0.057472126
 40
0.0846946102
 40
0.1110744574
 40
0.1367495092
 40
0.1618655053
 40
0.186575022
 40
0.2110332444
 40
0.2353967327
 40
0.259818033
 40
0.2844451616
 40
0.3094162709
 40
0.3348605937
 40
0.3608940949
 40
0.4151050676
 40
0.4434849879
 40
0.4727993338
 40
0.5344334311
 40
0.6003900408
 40
0.6709017081
 40
0.7461010123
 40
0.8260391143
 40
0.9106977975
 40
1.0
 40
1.0
 40
1.0
 40
1.0
 10
11.216687303
 20
7.2970751159
 30
0.0
 10
11.2166875615
 20
7.2953971225
 30
0.0
 10
11.216601498
 20
7.2921025299
 30
0.0
 10
11.216190811
 20
7.2872632245
 30
0.0
 10
11.215498647
 20
7.2826235332
 30
0.0
 10
11.2145232975
 20
7.2781822891
 30
0.0
 10
11.2132634201
 20
7.2739386589
 30
0.0
 10
11.2117185072
 20
7.2698923
 30
0.0
 10
11.2098884849
 20
7.2660434822
 30
0.0
 10
11.2077740812
 20
7.2623928605
 30
0.0
 10
11.205376545
 20
7.2589416556
 30
0.0
 10
11.2026977705
 20
7.2556914013
 30
0.0
 10
11.1997401741
 20
7.252644076
 30
0.0
 10
11.1965066446
 20
7.249802042
 30
0.0
 10
11.1930003032
 20
7.2471679213
 30
0.0
 10
11.187899158
 20
7.2438939883
 30
0.0
 10
11.1823108387
 20
7.2411006957
 30
0.0
 10
11.1763281383
 20
7.2387831321
 30
0.0
 10
11.1698103411
 20
7.2367001775
 30
0.0
 10
11.1610203051
 20
7.2347138512
 30
0.0
 10
11.149730051
 20
7.2333630651
 30
0.0
 10
11.1375864078
 20
7.233062261
 30
0.0
 10
11.124664667
 20
7.2338738821
 30
0.0
 10
11.1110516887
 20
7.235863123
 30
0.0
 10
11.0968500649
 20
7.2390945847
 30
0.0
 10
11.0873143907
 20
7.242041563
 30
0.0
 10
11.0824825216
 20
7.2437284524
 30
0.0
  0
SPLINE
  5
37C
100
AcDbEntity
  8
0
100
AcDbSpline
 62
7
  6
CONTINUOUS
 70
0
 71
3
 72
15
 73
11
 74
0
 42
0.0000001
 43
0.0000001
 44
0.0000000001
 40
0.0
 40
0.0
 40
0.0
 40
0.0
 40
0.1081481156
 40
0.2181275745
 40
0.3316716241
 40
0.4503409609
 40
0.5754873735
 40
0.7082426213
 40
0.8495167778
 40
1.0
 40
1.0
 40
1.0
 40
1.0
 10
13.4635339909
 20
7.6196499847
 30
0.0
 10
13.4629619592
 20
7.6196896604
 30
0.0
 10
13.4618012672
 20
7.6196910201
 30
0.0
 10
13.4600534817
 20
7.6194574872
 30
0.0
 10
13.4582956926
 20
7.6189898396
 30
0.0
 10
13.4565307738
 20
7.6182898118
 30
0.0
 10
13.4547605062
 20
7.6173592406
 30
0.0
 10
13.4529864457
 20
7.6161999316
 30
0.0
 10
13.451210313
 20
7.6148137637
 30
0.0
 10
13.4500633007
 20
7.6137736875
 30
0.0
 10
13.4494894301
 20
7.613219371
 30
0.0
  0
SPLINE
  5
37D
100
AcDbEntity
  8
0
100
AcDbSpline
 62
7
  6
CONTINUOUS
 70
0
 71
3
 72
15
 73
11
 74
0
 42
0.0000001
 43
0.0000001
 44
0.0000000001
 40
0.0
 40
0.0
 40
0.0
 40
0.0
 40
0.1081481156
 40
0.2181275745
 40
0.3316716241
 40
0.4503409609
 40
0.5754873735
 40
0.7082426213
 40
0.8495167778
 40
1.0
 40
1.0
 40
1.0
 40
1.0
 10
12.4282586649
 20
6.6196507507
 30
0.0
 10
12.4276866332
 20
6.6196904265
 30
0.0
 10
12.4265259412
 20
6.6196917861
 30
0.0
 10
12.4247781557
 20
6.6194582532
 30
0.0
 10
12.4230203666
 20
6.6189906056
 30
0.0
 10
12.4212554478
 20
6.6182905778
 30
0.0
 10
12.4194851802
 20
6.6173600066
 30
0.0
 10
12.4177111197
 20
6.6162006976
 30
0.0
 10
12.415934987
 20
6.6148145297
 30
0.0
 10
12.4147879747
 20
6.6137744535
 30
0.0
 10
12.414214104
 20
6.613220137
 30
0.0
  0
SPLINE
  5
37E
100
AcDbEntity
  8
0
100
AcDbSpline
 62
7
  6
CONTINUOUS
 70
0
 71
3
 72
15
 73
11
 74
0
 42
0.0000001
 43
0.0000001
 44
0.0000000001
 40
0.0
 40
0.0
 40
0.0
 40
0.0
 40
0.148517355
 40
0.2900343556
 40
0.4245921149
 40
0.5523248861
 40
0.6734281414
 40
0.788167217
 40
0.8968846773
 40
1.0
 40
1.0
 40
1.0
 40
1.0
 10
11.2032710082
 20
7.360401178
 30
0.0
 10
11.2043121849
 20
7.3573560396
 30
0.0
 10
11.2062895653
 20
7.3513898949
 30
0.0
 10
11.2089771312
 20
7.3425896662
 30
0.0
 10
11.2112939989
 20
7.3341504268
 30
0.0
 10
11.2132218519
 20
7.3260675557
 30
0.0
 10
11.2147451351
 20
7.3183355194
 30
0.0
 10
11.2158502566
 20
7.3109483648
 30
0.0
 10
11.2165255513
 20
7.303900682
 30
0.0
 10
11.2166869587
 20
7.2993095175
 30
0.0
 10
11.216687303
 20
7.2970751159
 30
0.0
  0
SPLINE
  5
37F
100
AcDbEntity
  8
0
100
AcDbSpline
 62
7
  6
CONTINUOUS
 70
0
 71
3
 72
25
 73
21
 74
0
 42
0.0000001
 43
0.0000001
 44
0.0000000001
 40
0.0
 40
0.0
 40
0.0
 40
0.0
 40
0.0616475282
 40
0.0924812782
 40
0.1233236452
 40
0.1850399949
 40
0.2468243989
 40
0.277751634
 40
0.3087038677
 40
0.3706878948
 40
0.4328012861
 40
0.4950619216
 40
0.5574860801
 40
0.6200882709
 40
0.6828811113
 40
0.7458751472
 40
0.8090789555
 40
0.8724985283
 40
0.936138578
 40
1.0
 40
1.0
 40
1.0
 40
1.0
 10
9.8973196536
 20
8.4095659791
 30
0.0
 10
9.8890770352
 20
8.4016041993
 30
0.0
 10
9.8763870833
 20
8.3899896225
 30
0.0
 10
9.8588640935
 20
8.3752044654
 30
0.0
 10
9.8409399683
 20
8.3608868229
 30
0.0
 10
9.8178076666
 20
8.3438885414
 30
0.0
 10
9.7937846127
 20
8.3281455076
 30
0.0
 10
9.7740655026
 20
8.3163244647
 30
0.0
 10
9.7540057517
 20
8.3050155034
 30
0.0
 10
9.7283390088
 20
8.2918689086
 30
0.0
 10
9.6966962941
 20
8.2777277246
 30
0.0
 10
9.6642740846
 20
8.2652481905
 30
0.0
 10
9.6311546064
 20
8.2544619741
 30
0.0
 10
9.5974211436
 20
8.2453960691
 30
0.0
 10
9.5631587087
 20
8.2380732482
 30
0.0
 10
9.5284535387
 20
8.2325118289
 30
0.0
 10
9.4933931354
 20
8.228725759
 30
0.0
 10
9.4580653693
 20
8.2267244144
 30
0.0
 10
9.4225604125
 20
8.2265127638
 30
0.0
 10
9.3988701046
 20
8.2275633888
 30
0.0
 10
9.3870270377
 20
8.2283847083
 30
0.0
  0
SPLINE
  5
380
100
AcDbEntity
  8
0
100
AcDbSpline
 62
7
  6
CONTINUOUS
 70
0
 71
3
 72
23
 73
19
 74
0
 42
0.0000001
 43
0.0000001
 44
0.0000000001
 40
0.0
 40
0.0
 40
0.0
 40
0.0
 40
0.0616351116
 40
0.1232997966
 40
0.1850157533
 40
0.2468041324
 40
0.3086853135
 40
0.3706786918
 40
0.4328024785
 40
0.4950735167
 40
0.5575071162
 40
0.6201169022
 40
0.6829147126
 40
0.7459104065
 40
0.809112074
 40
0.8725251106
 40
0.9361543675
 40
1.0
 40
1.0
 40
1.0
 40
1.0
 10
9.8972489571
 20
8.4096417805
 30
0.0
 10
9.8890391295
 20
8.4019925438
 30
0.0
 10
9.8722091992
 20
8.387119941
 30
0.0
 10
9.84581924
 20
8.3661645629
 30
0.0
 10
9.8183415321
 20
8.3466075401
 30
0.0
 10
9.7898433641
 20
8.328496904
 30
0.0
 10
9.7603933372
 20
8.3118761373
 30
0.0
 10
9.7300626574
 20
8.2967853935
 30
0.0
 10
9.6989245701
 20
8.283261046
 30
0.0
 10
9.6670542861
 20
8.2713356939
 30
0.0
 10
9.6345287725
 20
8.2610380551
 30
0.0
 10
9.6014265648
 20
8.252392906
 30
0.0
 10
9.5678275913
 20
8.2454210446
 30
0.0
 10
9.533812915
 20
8.2401391812
 30
0.0
 10
9.4994647633
 20
8.2365600397
 30
0.0
 10
9.4648655995
 20
8.2346920679
 30
0.0
 10
9.4301001435
 20
8.2345397804
 30
0.0
 10
9.4069048844
 20
8.2355805417
 30
0.0
 10
9.3953092405
 20
8.2363847023
 30
0.0
  0
SPLINE
  5
381
100
AcDbEntity
  8
0
100
AcDbSpline
 62
7
  6
CONTINUOUS
 70
0
 71
3
 72
39
 73
35
 74
0
 42
0.0000001
 43
0.0000001
 44
0.0000000001
 40
0.0
 40
0.0
 40
0.0
 40
0.0
 40
0.0318713771
 40
0.063634642
 40
0.0952913714
 40
0.1268441881
 40
0.1582967481
 40
0.1896537131
 40
0.2209207125
 40
0.2521042937
 40
0.2832118623
 40
0.3142516124
 40
0.3452324483
 40
0.3761638944
 40
0.4070559974
 40
0.4379192219
 40
0.4687643392
 40
0.4996023139
 40
0.5304441874
 40
0.5613009601
 40
0.5921834735
 40
0.6231022942
 40
0.6540676022
 40
0.6850890845
 40
0.7161758361
 40
0.7473362703
 40
0.7785780321
 40
0.8099079312
 40
0.8413318723
 40
0.8728547783
 40
0.9044807294
 40
0.9362122293
 40
0.9680522226
 40
1.0
 40
1.0
 40
1.0
 40
1.0
 10
9.9507166057
 20
8.9073401069
 30
0.0
 10
9.9507166134
 20
8.8982686427
 30
0.0
 10
9.9502727197
 20
8.8801532677
 30
0.0
 10
9.9482687437
 20
8.8530942598
 30
0.0
 10
9.9449325164
 20
8.8262576094
 30
0.0
 10
9.9402719965
 20
8.7997088457
 30
0.0
 10
9.9342983635
 20
8.7735117262
 30
0.0
 10
9.9270259562
 20
8.747729459
 30
0.0
 10
9.9184722423
 20
8.7224241861
 30
0.0
 10
9.9086577786
 20
8.6976569315
 30
0.0
 10
9.8976061607
 20
8.6734874297
 30
0.0
 10
9.8853439796
 20
8.6499739829
 30
0.0
 10
9.8719007763
 20
8.6271733044
 30
0.0
 10
9.8573089383
 20
8.6051403953
 30
0.0
 10
9.8416036281
 20
8.58392841
 30
0.0
 10
9.8248226986
 20
8.5635885263
 30
0.0
 10
9.8070065994
 20
8.5441698251
 30
0.0
 10
9.7881982963
 20
8.5257191543
 30
0.0
 10
9.7684431667
 20
8.5082810081
 30
0.0
 10
9.7477888686
 20
8.4918974381
 30
0.0
 10
9.7262852284
 20
8.4766079478
 30
0.0
 10
9.7039841205
 20
8.4624493981
 30
0.0
 10
9.6809393388
 20
8.4494559228
 30
0.0
 10
9.657206481
 20
8.4376588192
 30
0.0
 10
9.632842803
 20
8.4270864807
 30
0.0
 10
9.6079070705
 20
8.4177643477
 30
0.0
 10
9.5824594193
 20
8.4097148417
 30
0.0
 10
9.5565612076
 20
8.402957315
 30
0.0
 10
9.5302748824
 20
8.3975080176
 30
0.0
 10
9.5036637721
 20
8.3933799772
 30
0.0
 10
9.4767921615
 20
8.3905831456
 30
0.0
 10
9.4497243756
 20
8.3891240346
 30
0.0
 10
9.4225267264
 20
8.3890062884
 30
0.0
 10
9.4043806622
 20
8.3898207755
 30
0.0
 10
9.3953092405
 20
8.3904498808
 30
0.0
  0
SPLINE
  5
382
100
AcDbEntity
  8
0
100
AcDbSpline
 62
7
  6
CONTINUOUS
 70
0
 71
3
 72
39
 73
35
 74
0
 42
0.0000001
 43
0.0000001
 44
0.0000000001
 40
0.0
 40
0.0
 40
0.0
 40
0.0
 40
0.0317460813
 40
0.0633912641
 40
0.0949383062
 40
0.1263908541
 40
0.1577534212
 40
0.189031355
 40
0.2202307925
 40
0.2513586073
 40
0.2824223493
 40
0.3134301806
 40
0.3443908007
 40
0.3753133644
 40
0.4062073938
 40
0.4370826868
 40
0.4679492244
 40
0.4988170741
 40
0.5296962912
 40
0.5605968192
 40
0.5915283931
 40
0.6225004467
 40
0.6535220237
 40
0.684601692
 40
0.7157474624
 40
0.7469667153
 40
0.7782661338
 40
0.8096516604
 40
0.8411284171
 40
0.8727006962
 40
0.9043720184
 40
0.9361444309
 40
0.9680208504
 40
1.0
 40
1.0
 40
1.0
 40
1.0
 10
9.9493974335
 20
8.9074032687
 30
0.0
 10
9.9488204099
 20
8.8993600483
 30
0.0
 10
9.9472884175
 20
8.8833237545
 30
0.0
 10
9.9438533711
 20
8.8594453396
 30
0.0
 10
9.939292213
 20
8.8358315056
 30
0.0
 10
9.9336149508
 20
8.8125348305
 30
0.0
 10
9.9268339971
 20
8.7896063053
 30
0.0
 10
9.9189642249
 20
8.7670963505
 30
0.0
 10
9.9100228788
 20
8.7450544139
 30
0.0
 10
9.9000295555
 20
8.7235289426
 30
0.0
 10
9.889006153
 20
8.7025672596
 30
0.0
 10
9.8769768809
 20
8.6822154342
 30
0.0
 10
9.8639681589
 20
8.6625181969
 30
0.0
 10
9.8500085534
 20
8.6435188481
 30
0.0
 10
9.8351287167
 20
8.6252591634
 30
0.0
 10
9.8193613264
 20
8.6077792993
 30
0.0
 10
9.8027410523
 20
8.5911176646
 30
0.0
 10
9.7853044287
 20
8.575310875
 30
0.0
 10
9.7670897809
 20
8.56039367
 30
0.0
 10
9.7481371364
 20
8.5463988435
 30
0.0
 10
9.7284881557
 20
8.5333571509
 30
0.0
 10
9.7081860498
 20
8.5212972148
 30
0.0
 10
9.68727545
 20
8.51024551
 30
0.0
 10
9.6658023184
 20
8.5002262962
 30
0.0
 10
9.6438138428
 20
8.4912615782
 30
0.0
 10
9.6213583529
 20
8.4833710142
 30
0.0
 10
9.5984852034
 20
8.4765718743
 30
0.0
 10
9.5752446517
 20
8.4708790519
 30
0.0
 10
9.5516877594
 20
8.4663050079
 30
0.0
 10
9.5278662329
 20
8.4628597507
 30
0.0
 10
9.5038325352
 20
8.4605508468
 30
0.0
 10
9.4796390344
 20
8.4593831497
 30
0.0
 10
9.4553398224
 20
8.459359383
 30
0.0
 10
9.4391298696
 20
8.460104896
 30
0.0
 10
9.4310262393
 20
8.4606668847
 30
0.0
  0
SPLINE
  5
383
100
AcDbEntity
  8
0
100
AcDbSpline
 62
7
  6
CONTINUOUS
 70
0
 71
3
 72
23
 73
19
 74
0
 42
0.0000001
 43
0.0000001
 44
0.0000000001
 40
0.0
 40
0.0
 40
0.0
 40
0.0
 40
0.0616482098
 40
0.1233194446
 40
0.1850364747
 40
0.2468215611
 40
0.3086962076
 40
0.3706809245
 40
0.4327950062
 40
0.4950563328
 40
0.5574811797
 40
0.6200840705
 40
0.6828776046
 40
0.7458723228
 40
0.8090769537
 40
0.8724968135
 40
0.9361384451
 40
1.0
 40
1.0
 40
1.0
 40
1.0
 10
9.7838813386
 20
8.6399282389
 30
0.0
 10
9.7783825321
 20
8.634616793
 30
0.0
 10
9.7670947434
 20
8.6242856139
 30
0.0
 10
9.74935125
 20
8.6097182447
 30
0.0
 10
9.7308372638
 20
8.5961137566
 30
0.0
 10
9.7116000748
 20
8.5835070118
 30
0.0
 10
9.6916879927
 20
8.5719295929
 30
0.0
 10
9.6711512364
 20
8.561410698
 30
0.0
 10
9.6500415548
 20
8.551976766
 30
0.0
 10
9.6284121486
 20
8.5436515069
 30
0.0
 10
9.6063175111
 20
8.5364558332
 30
0.0
 10
9.5838132968
 20
8.5304078163
 30
0.0
 10
9.5609561907
 20
8.5255226472
 30
0.0
 10
9.5378037153
 20
8.5218125423
 30
0.0
 10
9.5144143075
 20
8.5192868379
 30
0.0
 10
9.4908464332
 20
8.5179516617
 30
0.0
 10
9.4671604352
 20
8.51781052
 30
0.0
 10
9.4513561562
 20
8.5185113857
 30
0.0
 10
9.443455499
 20
8.5190592981
 30
0.0
  0
SPLINE
  5
384
100
AcDbEntity
  8
0
100
AcDbSpline
 62
7
  6
CONTINUOUS
 70
0
 71
3
 72
15
 73
11
 74
0
 42
0.0000001
 43
0.0000001
 44
0.0000000001
 40
0.0
 40
0.0
 40
0.0
 40
0.0
 40
0.1233874107
 40
0.247150913
 40
0.3713429508
 40
0.4960083963
 40
0.6211836974
 40
0.7468968072
 40
0.8731655447
 40
1.0
 40
1.0
 40
1.0
 40
1.0
 10
9.8630789313
 20
8.744357658
 30
0.0
 10
9.8542248172
 20
8.7399561888
 30
0.0
 10
9.8361823214
 20
8.7317432856
 30
0.0
 10
9.8083043679
 20
8.7212723154
 30
0.0
 10
9.7796851527
 20
8.7126732905
 30
0.0
 10
9.7504452099
 20
8.705982544
 30
0.0
 10
9.7207056623
 20
8.7012274007
 30
0.0
 10
9.6905897204
 20
8.6984275085
 30
0.0
 10
9.6602239431
 20
8.6975940763
 30
0.0
 10
9.6399387644
 20
8.6983502194
 30
0.0
 10
9.6297991019
 20
8.6990534074
 30
0.0
  0
SPLINE
  5
385
100
AcDbEntity
  8
0
100
AcDbSpline
 62
7
  6
CONTINUOUS
 70
0
 71
3
 72
46
 73
42
 74
0
 42
0.0000001
 43
0.0000001
 44
0.0000000001
 40
0.0
 40
0.0
 40
0.0
 40
0.0
 40
0.0149668528
 40
0.0299379831
 40
0.0449162878
 40
0.0599046199
 40
0.0749057753
 40
0.0899224762
 40
0.1049573525
 40
0.1200129301
 40
0.1350916174
 40
0.1501956875
 40
0.1653272702
 40
0.1804883409
 40
0.1956807057
 40
0.2109059969
 40
0.2414556497
 40
0.2721519703
 40
0.3030010478
 40
0.3340056953
 40
0.365165434
 40
0.3964765571
 40
0.4279322523
 40
0.4595227788
 40
0.4912357027
 40
0.5230561756
 40
0.5549672464
 40
0.5869502106
 40
0.618984983
 40
0.6510504877
 40
0.683125064
 40
0.7151868783
 40
0.7472143404
 40
0.7791865142
 40
0.8110835202
 40
0.8428869255
 40
0.8745801117
 40
0.9061486176
 40
0.9375804736
 40
0.9688662084
 40
1.0
 40
1.0
 40
1.0
 40
1.0
 10
8.8768073371
 20
9.4660748104
 30
0.0
 10
8.8709505813
 20
9.4602100982
 30
0.0
 10
8.8594623188
 20
9.4482498296
 30
0.0
 10
8.8429376904
 20
9.4296505267
 30
0.0
 10
8.8271400327
 20
9.4104140397
 30
0.0
 10
8.8120904987
 20
9.3905660642
 30
0.0
 10
8.7978087468
 20
9.3701326978
 30
0.0
 10
8.7843136689
 20
9.3491408354
 30
0.0
 10
8.7716230197
 20
9.3276181293
 30
0.0
 10
8.7597534399
 20
9.3055929677
 30
0.0
 10
8.7487206251
 20
9.283094317
 30
0.0
 10
8.7385390737
 20
9.2601518341
 30
0.0
 10
8.7292221157
 20
9.236795727
 30
0.0
 10
8.7207821086
 20
9.2130568411
 30
0.0
 10
8.7132300436
 20
9.1889660094
 30
0.0
 10
8.7043487136
 20
9.1563858698
 30
0.0
 10
8.6955187314
 20
9.1149244969
 30
0.0
 10
8.6886212102
 20
9.0643470431
 30
0.0
 10
8.6854434585
 20
9.0131471835
 30
0.0
 10
8.6860022053
 20
8.9615962886
 30
0.0
 10
8.6902937
 20
8.9099651103
 30
0.0
 10
8.6982948585
 20
8.8585253268
 30
0.0
 10
8.7099631512
 20
8.8075473568
 30
0.0
 10
8.7252367089
 20
8.7572991265
 30
0.0
 10
8.7440348292
 20
8.708044647
 30
0.0
 10
8.7662584401
 20
8.6600426979
 30
0.0
 10
8.7917904299
 20
8.6135454016
 30
0.0
 10
8.8204963947
 20
8.5687969545
 30
0.0
 10
8.8522254076
 20
8.5260324215
 30
0.0
 10
8.8868106431
 20
8.4854764123
 30
0.0
 10
8.924070313
 20
8.4473419356
 30
0.0
 10
8.963808705
 20
8.41182939
 30
0.0
 10
9.0058170784
 20
8.3791254153
 30
0.0
 10
9.0498747559
 20
8.3494018958
 30
0.0
 10
9.0957503791
 20
8.3228152056
 30
0.0
 10
9.1432029962
 20
8.2995053033
 30
0.0
 10
9.1919834011
 20
8.279594906
 30
0.0
 10
9.2418351078
 20
8.2631890359
 30
0.0
 10
9.2924970648
 20
8.2503743967
 30
0.0
 10
9.3436995574
 20
8.2412188481
 30
0.0
 10
9.3781093065
 20
8.2375775218
 30
0.0
 10
9.3953092405
 20
8.2363847023
 30
0.0
  0
SPLINE
  5
386
100
AcDbEntity
  8
0
100
AcDbSpline
 62
7
  6
CONTINUOUS
 70
0
 71
3
 72
71
 73
67
 74
0
 42
0.0000001
 43
0.0000001
 44
0.0000000001
 40
0.0
 40
0.0
 40
0.0
 40
0.0
 40
0.0155852066
 40
0.0311174567
 40
0.046598352
 40
0.0620289165
 40
0.0774109063
 40
0.0927465373
 40
0.1080384659
 40
0.1232897967
 40
0.1385040376
 40
0.1536850738
 40
0.1688371302
 40
0.1839647301
 40
0.1990726495
 40
0.2141658685
 40
0.22924952
 40
0.2443288366
 40
0.259409097
 40
0.2744955701
 40
0.2895934598
 40
0.3047078507
 40
0.3198436553
 40
0.3350055639
 40
0.3501979977
 40
0.3654250653
 40
0.3806905223
 40
0.3959977357
 40
0.4113496526
 40
0.4267487752
 40
0.4421971412
 40
0.4576963074
 40
0.4732473393
 40
0.4888508049
 40
0.5045067747
 40
0.520214827
 40
0.5359740564
 40
0.5517830871
 40
0.5676400887
 40
0.5835427968
 40
0.5994885377
 40
0.6154742565
 40
0.6314965461
 40
0.647551679
 40
0.6636356417
 40
0.6797441706
 40
0.6958727918
 40
0.7120168591
 40
0.7281715948
 40
0.7443321291
 40
0.7604935427
 40
0.7766509094
 40
0.7927993377
 40
0.8089340125
 40
0.8250502356
 40
0.8411434661
 40
0.8572093611
 40
0.8732438146
 40
0.8892429927
 40
0.9052033715
 40
0.9211217649
 40
0.9369953492
 40
0.9528217728
 40
0.9685988324
 40
0.9843255351
 40
1.0
 40
1.0
 40
1.0
 40
1.0
 10
9.3760558484
 20
9.5022660209
 30
0.0
 10
9.3670894197
 20
9.5025768417
 30
0.0
 10
9.3491688752
 20
9.5027636275
 30
0.0
 10
9.3223535708
 20
9.5017318016
 30
0.0
 10
9.2957093769
 20
9.499390259
 30
0.0
 10
9.2692995418
 20
9.4957442465
 30
0.0
 10
9.243186199
 20
9.4908023641
 30
0.0
 10
9.2174309497
 20
9.4845762057
 30
0.0
 10
9.1920945036
 20
9.4770803836
 30
0.0
 10
9.1672366161
 20
9.4683325168
 30
0.0
 10
9.1429159195
 20
9.4583531634
 30
0.0
 10
9.1191897899
 20
9.4471658008
 30
0.0
 10
9.096114193
 20
9.4347967885
 30
0.0
 10
9.0737435676
 20
9.4212752692
 30
0.0
 10
9.052130695
 20
9.4066331066
 30
0.0
 10
9.0313265741
 20
9.3909048116
 30
0.0
 10
9.0113803047
 20
9.3741274567
 30
0.0
 10
8.9923389432
 20
9.3563406199
 30
0.0
 10
8.9742474011
 20
9.33758627
 30
0.0
 10
8.9571483499
 20
9.3179086545
 30
0.0
 10
8.941082117
 20
9.2973541987
 30
0.0
 10
8.9260865944
 20
9.2759713939
 30
0.0
 10
8.9121971406
 20
9.253810689
 30
0.0
 10
8.8994464696
 20
9.2309243834
 30
0.0
 10
8.8878646096
 20
9.2073664767
 30
0.0
 10
8.8774788295
 20
9.1831925439
 30
0.0
 10
8.8683135757
 20
9.1584596043
 30
0.0
 10
8.8603904226
 20
9.133225986
 30
0.0
 10
8.8537279859
 20
9.1075511993
 30
0.0
 10
8.8483418962
 20
9.0814957858
 30
0.0
 10
8.8442447824
 20
9.0551211701
 30
0.0
 10
8.841446239
 20
9.0284895179
 30
0.0
 10
8.8399528085
 20
9.0016635905
 30
0.0
 10
8.8397679593
 20
8.9747066008
 30
0.0
 10
8.840892046
 20
8.9476820618
 30
0.0
 10
8.8433223527
 20
8.9206536344
 30
0.0
 10
8.8470530961
 20
8.89368498
 30
0.0
 10
8.8520754395
 20
8.8668396125
 30
0.0
 10
8.8583775203
 20
8.8401807535
 30
0.0
 10
8.8659444438
 20
8.8137711767
 30
0.0
 10
8.874758332
 20
8.7876730595
 30
0.0
 10
8.8847983872
 20
8.7619478433
 30
0.0
 10
8.8960409356
 20
8.73665609
 30
0.0
 10
8.9084594847
 20
8.7118573429
 30
0.0
 10
8.92202478
 20
8.6876099868
 30
0.0
 10
8.9367048442
 20
8.663971093
 30
0.0
 10
8.9524650902
 20
8.6409963025
 30
0.0
 10
8.9692683987
 20
8.6187396965
 30
0.0
 10
8.9870752036
 20
8.5972536702
 30
0.0
 10
9.0058435886
 20
8.5765888161
 30
0.0
 10
9.025529361
 20
8.5567937839
 30
0.0
 10
9.0460861635
 20
8.537915168
 30
0.0
 10
9.0674656004
 20
8.5199974156
 30
0.0
 10
9.0896173455
 20
8.5030827202
 30
0.0
 10
9.1124892599
 20
8.4872109246
 30
0.0
 10
9.1360275114
 20
8.472419427
 30
0.0
 10
9.1601766817
 20
8.4587430596
 30
0.0
 10
9.1848799209
 20
8.4462140406
 30
0.0
 10
9.2100790771
 20
8.4348618963
 30
0.0
 10
9.2357148332
 20
8.4247133945
 30
0.0
 10
9.2617268333
 20
8.4157924932
 30
0.0
 10
9.2880538713
 20
8.4081202083
 30
0.0
 10
9.314633818
 20
8.4017147366
 30
0.0
 10
9.3414044986
 20
8.3965909946
 30
0.0
 10
9.3683018125
 20
8.3927614521
 30
0.0
 10
9.3863076638
 20
8.3910741422
 30
0.0
 10
9.3953092405
 20
8.3904498808
 30
0.0
  0
SPLINE
  5
387
100
AcDbEntity
  8
0
100
AcDbSpline
 62
7
  6
CONTINUOUS
 70
0
 71
3
 72
71
 73
67
 74
0
 42
0.0000001
 43
0.0000001
 44
0.0000000001
 40
0.0
 40
0.0
 40
0.0
 40
0.0
 40
0.0155477386
 40
0.0310442847
 40
0.0464906817
 40
0.0618883938
 40
0.0772394683
 40
0.0925463422
 40
0.1078119019
 40
0.1230394356
 40
0.1382326085
 40
0.153395429
 40
0.1685322091
 40
0.1836475234
 40
0.198746164
 40
0.2138330931
 40
0.2289133931
 40
0.2439922139
 40
0.2590747202
 40
0.2741660386
 40
0.2892712057
 40
0.3043951176
 40
0.3195424799
 40
0.3347177608
 40
0.3499251471
 40
0.3651685036
 40
0.3804513386
 40
0.3957767711
 40
0.4111475039
 40
0.4265657998
 40
0.4420334638
 40
0.4575518314
 40
0.473121761
 40
0.4887436299
 40
0.5044173354
 40
0.5201422995
 40
0.5359174797
 40
0.551741384
 40
0.5676120874
 40
0.5835272525
 40
0.5994841526
 40
0.6154796988
 40
0.6315104706
 40
0.647572747
 40
0.6636625389
 40
0.6797756244
 40
0.6959075849
 40
0.7120538446
 40
0.7282097089
 40
0.7443704025
 40
0.7605311096
 40
0.7766870137
 40
0.7928333392
 40
0.8089653908
 40
0.8250785922
 40
0.8411685242
 40
0.8572309632
 40
0.873261919
 40
0.8892576678
 40
0.9052147901
 40
0.9211301929
 40
0.9370011393
 40
0.9528253483
 40
0.9686006702
 40
0.9843261874
 40
1.0
 40
1.0
 40
1.0
 40
1.0
 10
9.3953026062
 20
9.5012957582
 30
0.0
 10
9.3870196991
 20
9.5012994612
 30
0.0
 10
9.3704781424
 20
9.5009084916
 30
0.0
 10
9.3457658932
 20
9.499121237
 30
0.0
 10
9.3212491386
 20
9.4961382556
 30
0.0
 10
9.2969851879
 20
9.4919663271
 30
0.0
 10
9.2730298068
 20
9.4866150584
 30
0.0
 10
9.2494382841
 20
9.4800967013
 30
0.0
 10
9.2262650329
 20
9.4724262275
 30
0.0
 10
9.2035635114
 20
9.4636212916
 30
0.0
 10
9.1813860908
 20
9.4537021695
 30
0.0
 10
9.1597839427
 20
9.4426917034
 30
0.0
 10
9.1388069192
 20
9.4306152546
 30
0.0
 10
9.1185034425
 20
9.4175006393
 30
0.0
 10
9.0989203697
 20
9.4033780998
 30
0.0
 10
9.0801028873
 20
9.3882802192
 30
0.0
 10
9.0620944195
 20
9.3722418261
 30
0.0
 10
9.0449365251
 20
9.3552999211
 30
0.0
 10
9.0286688061
 20
9.3374935863
 30
0.0
 10
9.013328799
 20
9.3188639125
 30
0.0
 10
8.9989518717
 20
9.2994539089
 30
0.0
 10
8.985571173
 20
9.2793083754
 30
0.0
 10
8.9732175507
 20
9.2584738045
 30
0.0
 10
8.9619194844
 20
9.2369982721
 30
0.0
 10
8.951703016
 20
9.2149313309
 30
0.0
 10
8.9425916531
 20
9.1923239087
 30
0.0
 10
8.9346063572
 20
9.169228167
 30
0.0
 10
8.9277654941
 20
9.145697383
 30
0.0
 10
8.9220847934
 20
9.1217858275
 30
0.0
 10
8.9175773181
 20
9.0975486411
 30
0.0
 10
8.9142533909
 20
9.0730417149
 30
0.0
 10
8.9121206051
 20
9.0483215504
 30
0.0
 10
8.9111838181
 20
9.0234451293
 30
0.0
 10
8.9114451377
 20
8.9984697844
 30
0.0
 10
8.912903926
 20
8.9734530707
 30
0.0
 10
8.9155567652
 20
8.9484526327
 30
0.0
 10
8.9193974757
 20
8.9235260675
 30
0.0
 10
8.924417158
 20
8.8987307954
 30
0.0
 10
8.9306042063
 20
8.874123929
 30
0.0
 10
8.9379443416
 20
8.8497621469
 30
0.0
 10
8.9464206251
 20
8.8257015594
 30
0.0
 10
8.95601348
 20
8.8019975709
 30
0.0
 10
8.9667007766
 20
8.7787047643
 30
0.0
 10
8.9784578752
 20
8.7558767753
 30
0.0
 10
8.9912576848
 20
8.7335661733
 30
0.0
 10
9.0050707211
 20
8.7118243405
 30
0.0
 10
9.0198651411
 20
8.6907013321
 30
0.0
 10
9.0356068555
 20
8.6702457816
 30
0.0
 10
9.0522596041
 20
8.6505047906
 30
0.0
 10
9.0697850374
 20
8.6315238216
 30
0.0
 10
9.088142807
 20
8.6133465999
 30
0.0
 10
9.1072906276
 20
8.5960149812
 30
0.0
 10
9.1271843979
 20
8.5795688744
 30
0.0
 10
9.1477783087
 20
8.5640461596
 30
0.0
 10
9.1690249431
 20
8.5494825991
 30
0.0
 10
9.1908753885
 20
8.5359117631
 30
0.0
 10
9.2132793299
 20
8.5233649242
 30
0.0
 10
9.2361851708
 20
8.5118709873
 30
0.0
 10
9.2595401662
 20
8.5014564453
 30
0.0
 10
9.2832905387
 20
8.4921453187
 30
0.0
 10
9.3073815914
 20
8.4839591054
 30
0.0
 10
9.3317578791
 20
8.476916681
 30
0.0
 10
9.3563631245
 20
8.471034381
 30
0.0
 10
9.3811410421
 20
8.4663255919
 30
0.0
 10
9.4060335803
 20
8.4628015406
 30
0.0
 10
9.4226961741
 20
8.4612445767
 30
0.0
 10
9.4310262393
 20
8.4606668847
 30
0.0
  0
SPLINE
  5
388
100
AcDbEntity
  8
0
100
AcDbSpline
 62
7
  6
CONTINUOUS
 70
0
 71
3
 72
39
 73
35
 74
0
 42
0.0000001
 43
0.0000001
 44
0.0000000001
 40
0.0
 40
0.0
 40
0.0
 40
0.0
 40
0.0299393049
 40
0.0599022804
 40
0.0899120371
 40
0.1199905832
 40
0.1501583152
 40
0.180433557
 40
0.2108321574
 40
0.2413671588
 40
0.2720485413
 40
0.302883044
 40
0.333874065
 40
0.3650216373
 40
0.3963224782
 40
0.4277701076
 40
0.4593550264
 40
0.4910649489
 40
0.5228850817
 40
0.5547984441
 40
0.5867862233
 40
0.6188281554
 40
0.650902926
 40
0.6829885863
 40
0.7150629768
 40
0.747104156
 40
0.7790908244
 40
0.8110027393
 40
0.8428211159
 40
0.8745290106
 40
0.906111654
 40
0.9375568948
 40
0.9688549538
 40
1.0
 40
1.0
 40
1.0
 40
1.0
 10
9.1030296593
 20
9.3447977231
 30
0.0
 10
9.0950194066
 20
9.3370604034
 30
0.0
 10
9.079592499
 20
9.3209443756
 30
0.0
 10
9.0584055547
 20
9.2950233627
 30
0.0
 10
9.0392750785
 20
9.2674840934
 30
0.0
 10
9.0223052523
 20
9.2384759569
 30
0.0
 10
9.0075861499
 20
9.2081538165
 30
0.0
 10
8.9951963913
 20
9.1766801603
 30
0.0
 10
8.9852018521
 20
9.1442234167
 30
0.0
 10
8.9776555843
 20
9.1109572349
 30
0.0
 10
8.9725975059
 20
9.0770594827
 30
0.0
 10
8.9700542236
 20
9.0427113081
 30
0.0
 10
8.9700389166
 20
9.0080961688
 30
0.0
 10
8.9725512603
 20
8.9733988601
 30
0.0
 10
8.9775774401
 20
8.9388045291
 30
0.0
 10
8.9850902768
 20
8.9044976982
 30
0.0
 10
8.9950493753
 20
8.8706612957
 30
0.0
 10
9.0074013513
 20
8.8374756955
 30
0.0
 10
9.0220801154
 20
8.8051177707
 30
0.0
 10
9.0390071937
 20
8.7737599453
 30
0.0
 10
9.0580921889
 20
8.7435693016
 30
0.0
 10
9.0792332575
 20
8.7147067026
 30
0.0
 10
9.1023176471
 20
8.6873259459
 30
0.0
 10
9.1272222962
 20
8.6615729601
 30
0.0
 10
9.1538144531
 20
8.6375850061
 30
0.0
 10
9.1819523986
 20
8.6154899648
 30
0.0
 10
9.2114862013
 20
8.5954056748
 30
0.0
 10
9.2422585082
 20
8.5774393074
 30
0.0
 10
9.274105354
 20
8.5616868036
 30
0.0
 10
9.3068570853
 20
8.5482323548
 30
0.0
 10
9.3403389915
 20
8.5371479012
 30
0.0
 10
9.3743731807
 20
8.5284928788
 30
0.0
 10
9.4087758581
 20
8.5223137795
 30
0.0
 10
9.4318978568
 20
8.5198608233
 30
0.0
 10
9.443455499
 20
8.5190592981
 30
0.0
  0
SPLINE
  5
389
100
AcDbEntity
  8
0
100
AcDbSpline
 62
7
  6
CONTINUOUS
 70
0
 71
3
 72
43
 73
39
 74
0
 42
0.0000001
 43
0.0000001
 44
0.0000000001
 40
0.0
 40
0.0
 40
0.0
 40
0.0
 40
0.0299861483
 40
0.0450146178
 40
0.0600674656
 40
0.0902480662
 40
0.1205430191
 40
0.1357382813
 40
0.1509652638
 40
0.1815132746
 40
0.2121956715
 40
0.2430147077
 40
0.2739703787
 40
0.3050604516
 40
0.3362805302
 40
0.3676241515
 40
0.3990829124
 40
0.4306466212
 40
0.462303473
 40
0.4940402436
 40
0.5258425013
 40
0.557694831
 40
0.5895810698
 40
0.6214845503
 40
0.6533883493
 40
0.6852755388
 40
0.7171294372
 40
0.7330406162
 40
0.7489374602
 40
0.7806769565
 40
0.8123370556
 40
0.8439044825
 40
0.8753673813
 40
0.9067154767
 40
0.937940354
 40
0.9535061453
 40
0.9690391823
 40
1.0
 40
1.0
 40
1.0
 40
1.0
 10
9.2101106647
 20
9.4202729568
 30
0.0
 10
9.2054294957
 20
9.4116189336
 30
0.0
 10
9.1988413012
 20
9.3983829866
 30
0.0
 10
9.1909616714
 20
9.3803146033
 30
0.0
 10
9.1836704327
 20
9.3619313412
 30
0.0
 10
9.1756985178
 20
9.338445676
 30
0.0
 10
9.1692957281
 20
9.3144365256
 30
0.0
 10
9.1651205003
 20
9.2949533652
 30
0.0
 10
9.1615735423
 20
9.275261747
 30
0.0
 10
9.1583434947
 20
9.2503640018
 30
0.0
 10
9.156409225
 20
9.2202023839
 30
0.0
 10
9.1564196636
 20
9.1898446833
 30
0.0
 10
9.1583747091
 20
9.1594164053
 30
0.0
 10
9.1622660883
 20
9.1290422743
 30
0.0
 10
9.1680776452
 20
9.0988470362
 30
0.0
 10
9.1757853449
 20
9.0689545977
 30
0.0
 10
9.1853573947
 20
9.0394876185
 30
0.0
 10
9.1967543722
 20
9.0105669871
 30
0.0
 10
9.2099293904
 20
8.9823113371
 30
0.0
 10
9.2248282901
 20
8.9548365639
 30
0.0
 10
9.2413898636
 20
8.9282553537
 30
0.0
 10
9.2595461003
 20
8.9026767287
 30
0.0
 10
9.2792224826
 20
8.8782055916
 30
0.0
 10
9.300338222
 20
8.8549423456
 30
0.0
 10
9.3228068427
 20
8.8329823137
 30
0.0
 10
9.3465355839
 20
8.8124159905
 30
0.0
 10
9.3672884427
 20
8.7965017113
 30
0.0
 10
9.3844225017
 20
8.7845488539
 30
0.0
 10
9.4018770061
 20
8.7731374828
 30
0.0
 10
9.4242903011
 20
8.7598896894
 30
0.0
 10
9.452042557
 20
8.7456789012
 30
0.0
 10
9.4805257635
 20
8.7332196801
 30
0.0
 10
9.5096226994
 20
8.7225636394
 30
0.0
 10
9.539213436
 20
8.7137546466
 30
0.0
 10
9.5642111786
 20
8.7079768815
 30
0.0
 10
9.584333041
 20
8.7043139098
 30
0.0
 10
9.6044738489
 20
8.7012989332
 30
0.0
 10
9.6196646607
 20
8.6997562332
 30
0.0
 10
9.6297991019
 20
8.6990534074
 30
0.0
  0
SPLINE
  5
38A
100
AcDbEntity
  8
0
100
AcDbSpline
 62
7
  6
CONTINUOUS
 70
0
 71
3
 72
21
 73
17
 74
0
 42
0.0000001
 43
0.0000001
 44
0.0000000001
 40
0.0
 40
0.0
 40
0.0
 40
0.0
 40
0.0615945071
 40
0.1232531461
 40
0.1849908993
 40
0.2468221297
 40
0.3087604591
 40
0.3708186889
 40
0.4330087007
 40
0.4953413484
 40
0.5578264234
 40
0.6204725437
 40
0.6832870764
 40
0.7462764254
 40
0.8727673053
 40
1.0
 40
1.0
 40
1.0
 40
1.0
 10
9.8975460294
 20
8.8276604169
 30
0.0
 10
9.8929045981
 20
8.824266518
 30
0.0
 10
9.8834622421
 20
8.8176838504
 30
0.0
 10
9.8688609045
 20
8.8084527388
 30
0.0
 10
9.8538402281
 20
8.7998755872
 30
0.0
 10
9.8384273123
 20
8.7919680002
 30
0.0
 10
9.8226495368
 20
8.7847439483
 30
0.0
 10
9.8065350538
 20
8.7782162633
 30
0.0
 10
9.7901125384
 20
8.772396604
 30
0.0
 10
9.7734112574
 20
8.7672953127
 30
0.0
 10
9.7564609494
 20
8.7629213998
 30
0.0
 10
9.739291884
 20
8.7592826779
 30
0.0
 10
9.7219342836
 20
8.7563856072
 30
0.0
 10
9.6985516475
 20
8.7535147696
 30
0.0
 10
9.6689976833
 20
8.7518100919
 30
0.0
 10
9.6452888296
 20
8.752459627
 30
0.0
 10
9.6334399925
 20
8.7532813467
 30
0.0
  0
SPLINE
  5
38B
100
AcDbEntity
  8
0
100
AcDbSpline
 62
7
  6
CONTINUOUS
 70
0
 71
3
 72
45
 73
41
 74
0
 42
0.0000001
 43
0.0000001
 44
0.0000000001
 40
0.0
 40
0.0
 40
0.0
 40
0.0
 40
0.0310651564
 40
0.0466545572
 40
0.0622794133
 40
0.0936287926
 40
0.1251094095
 40
0.1567109044
 40
0.188420619
 40
0.2202240024
 40
0.2521048456
 40
0.2680709658
 40
0.28404977
 40
0.3160318039
 40
0.3480358133
 40
0.3800421012
 40
0.4120309315
 40
0.4439828694
 40
0.4758791174
 40
0.5077018445
 40
0.5394345034
 40
0.571062131
 40
0.6025716287
 40
0.6339520163
 40
0.6651946555
 40
0.6962934381
 40
0.7272449331
 40
0.7580484894
 40
0.7887062874
 40
0.819223338
 40
0.8344338331
 40
0.8496122852
 40
0.8647600833
 40
0.8798787649
 40
0.9100307108
 40
0.9400881996
 40
0.9550893269
 40
0.9700733995
 40
0.9850428017
 40
1.0
 40
1.0
 40
1.0
 40
1.0
 10
11.5652917595
 20
8.6193069716
 30
0.0
 10
11.5555367495
 20
8.6199834839
 30
0.0
 10
11.54091509
 20
8.6215052698
 30
0.0
 10
11.5215429001
 20
8.6245271063
 30
0.0
 10
11.5021956069
 20
8.6282206054
 30
0.0
 10
11.4781844216
 20
8.6340790926
 30
0.0
 10
11.4498224424
 20
8.6430466094
 30
0.0
 10
11.4220117005
 20
8.6539168525
 30
0.0
 10
11.3948853357
 20
8.6666378451
 30
0.0
 10
11.3685730086
 20
8.6811483896
 30
0.0
 10
11.3474367956
 20
8.6946691792
 30
0.0
 10
11.3310563783
 20
8.7063067892
 30
0.0
 10
11.315035684
 20
8.718487556
 30
0.0
 10
11.2957462729
 20
8.7346875664
 30
0.0
 10
11.2738941809
 20
8.7555851839
 30
0.0
 10
11.2534315767
 20
8.7778488944
 30
0.0
 10
11.2344566061
 20
8.8013721297
 30
0.0
 10
11.2170595528
 20
8.826042947
 30
0.0
 10
11.2013234228
 20
8.851743782
 30
0.0
 10
11.1873232806
 20
8.8783522103
 30
0.0
 10
11.1751259672
 20
8.9057414694
 30
0.0
 10
11.1647897548
 20
8.933781067
 30
0.0
 10
11.1563640752
 20
8.9623373938
 30
0.0
 10
11.1498892874
 20
8.9912743576
 30
0.0
 10
11.1453964793
 20
9.0204540153
 30
0.0
 10
11.142907323
 20
9.0497372517
 30
0.0
 10
11.1424339333
 20
9.0789843247
 30
0.0
 10
11.1439789157
 20
9.1080559353
 30
0.0
 10
11.1475349191
 20
9.1368123646
 30
0.0
 10
11.1521662378
 20
9.1604285378
 30
0.0
 10
11.156857033
 20
9.1790207932
 30
0.0
 10
11.1608591663
 20
9.1927877337
 30
0.0
 10
11.1653441331
 20
9.206374619
 30
0.0
 10
11.1719539435
 20
9.2242107295
 30
0.0
 10
11.1813956153
 20
9.2459851897
 30
0.0
 10
11.192381747
 20
9.2669813615
 30
0.0
 10
11.2020533749
 20
9.2832231021
 30
0.0
 10
11.2097368216
 20
9.2951098704
 30
0.0
 10
11.2178445595
 20
9.306694068
 30
0.0
 10
11.22352856
 20
9.3142092144
 30
0.0
 10
11.2264375277
 20
9.3179111293
 30
0.0
  0
SPLINE
  5
38C
100
AcDbEntity
  8
0
100
AcDbSpline
 62
7
  6
CONTINUOUS
 70
0
 71
3
 72
25
 73
21
 74
0
 42
0.0000001
 43
0.0000001
 44
0.0000000001
 40
0.0
 40
0.0
 40
0.0
 40
0.0
 40
0.0616475282
 40
0.0924812782
 40
0.1233236452
 40
0.1850399949
 40
0.2468243989
 40
0.277751634
 40
0.3087038677
 40
0.3706878948
 40
0.4328012861
 40
0.4950619216
 40
0.5574860801
 40
0.6200882709
 40
0.6828811113
 40
0.7458751472
 40
0.8090789555
 40
0.8724985283
 40
0.936138578
 40
1.0
 40
1.0
 40
1.0
 40
1.0
 10
11.8291714206
 20
8.275591604
 30
0.0
 10
11.8209288022
 20
8.2676298242
 30
0.0
 10
11.8082388504
 20
8.2560152474
 30
0.0
 10
11.7907158605
 20
8.2412300904
 30
0.0
 10
11.7727917353
 20
8.2269124479
 30
0.0
 10
11.7496594336
 20
8.2099141664
 30
0.0
 10
11.7256363798
 20
8.1941711325
 30
0.0
 10
11.7059172696
 20
8.1823500896
 30
0.0
 10
11.6858575187
 20
8.1710411283
 30
0.0
 10
11.6601907759
 20
8.1578945336
 30
0.0
 10
11.6285480611
 20
8.1437533496
 30
0.0
 10
11.5961258516
 20
8.1312738154
 30
0.0
 10
11.5630063734
 20
8.120487599
 30
0.0
 10
11.5292729107
 20
8.111421694
 30
0.0
 10
11.4950104758
 20
8.1040988731
 30
0.0
 10
11.4603053057
 20
8.0985374538
 30
0.0
 10
11.4252449025
 20
8.0947513839
 30
0.0
 10
11.3899171363
 20
8.0927500393
 30
0.0
 10
11.3544121795
 20
8.0925383887
 30
0.0
 10
11.3307218717
 20
8.0935890137
 30
0.0
 10
11.3188788048
 20
8.0944103332
 30
0.0
  0
SPLINE
  5
38D
100
AcDbEntity
  8
0
100
AcDbSpline
 62
7
  6
CONTINUOUS
 70
0
 71
3
 72
23
 73
19
 74
0
 42
0.0000001
 43
0.0000001
 44
0.0000000001
 40
0.0
 40
0.0
 40
0.0
 40
0.0
 40
0.0616351116
 40
0.1232997966
 40
0.1850157533
 40
0.2468041324
 40
0.3086853135
 40
0.3706786918
 40
0.4328024785
 40
0.4950735167
 40
0.5575071162
 40
0.6201169022
 40
0.6829147126
 40
0.7459104065
 40
0.809112074
 40
0.8725251106
 40
0.9361543675
 40
1.0
 40
1.0
 40
1.0
 40
1.0
 10
11.8291007241
 20
8.2756674054
 30
0.0
 10
11.8208908965
 20
8.2680181687
 30
0.0
 10
11.8040609662
 20
8.253145566
 30
0.0
 10
11.777671007
 20
8.2321901878
 30
0.0
 10
11.7501932991
 20
8.212633165
 30
0.0
 10
11.7216951312
 20
8.1945225289
 30
0.0
 10
11.6922451042
 20
8.1779017622
 30
0.0
 10
11.6619144245
 20
8.1628110184
 30
0.0
 10
11.6307763371
 20
8.149286671
 30
0.0
 10
11.5989060531
 20
8.1373613188
 30
0.0
 10
11.5663805395
 20
8.12706368
 30
0.0
 10
11.5332783318
 20
8.118418531
 30
0.0
 10
11.4996793583
 20
8.1114466695
 30
0.0
 10
11.4656646821
 20
8.1061648061
 30
0.0
 10
11.4313165303
 20
8.1025856646
 30
0.0
 10
11.3967173666
 20
8.1007176929
 30
0.0
 10
11.3619519105
 20
8.1005654053
 30
0.0
 10
11.3387566515
 20
8.1016061666
 30
0.0
 10
11.3271610076
 20
8.1024103273
 30
0.0
  0
SPLINE
  5
38E
100
AcDbEntity
  8
0
100
AcDbSpline
 62
7
  6
CONTINUOUS
 70
0
 71
3
 72
39
 73
35
 74
0
 42
0.0000001
 43
0.0000001
 44
0.0000000001
 40
0.0
 40
0.0
 40
0.0
 40
0.0
 40
0.0318713771
 40
0.063634642
 40
0.0952913714
 40
0.1268441881
 40
0.1582967481
 40
0.1896537131
 40
0.2209207125
 40
0.2521042937
 40
0.2832118623
 40
0.3142516124
 40
0.3452324483
 40
0.3761638944
 40
0.4070559974
 40
0.4379192219
 40
0.4687643392
 40
0.4996023139
 40
0.5304441874
 40
0.5613009601
 40
0.5921834735
 40
0.6231022942
 40
0.6540676022
 40
0.6850890845
 40
0.7161758361
 40
0.7473362703
 40
0.7785780321
 40
0.8099079312
 40
0.8413318723
 40
0.8728547783
 40
0.9044807294
 40
0.9362122293
 40
0.9680522226
 40
1.0
 40
1.0
 40
1.0
 40
1.0
 10
11.8825683727
 20
8.7733657318
 30
0.0
 10
11.8825683805
 20
8.7642942676
 30
0.0
 10
11.8821244867
 20
8.7461788926
 30
0.0
 10
11.8801205108
 20
8.7191198847
 30
0.0
 10
11.8767842834
 20
8.6922832343
 30
0.0
 10
11.8721237635
 20
8.6657344706
 30
0.0
 10
11.8661501305
 20
8.6395373511
 30
0.0
 10
11.8588777232
 20
8.6137550839
 30
0.0
 10
11.8503240093
 20
8.588449811
 30
0.0
 10
11.8405095457
 20
8.5636825564
 30
0.0
 10
11.8294579277
 20
8.5395130547
 30
0.0
 10
11.8171957467
 20
8.5159996078
 30
0.0
 10
11.8037525434
 20
8.4931989293
 30
0.0
 10
11.7891607054
 20
8.4711660203
 30
0.0
 10
11.7734553951
 20
8.4499540349
 30
0.0
 10
11.7566744656
 20
8.4296141513
 30
0.0
 10
11.7388583665
 20
8.4101954501
 30
0.0
 10
11.7200500633
 20
8.3917447793
 30
0.0
 10
11.7002949338
 20
8.3743066331
 30
0.0
 10
11.6796406356
 20
8.357923063
 30
0.0
 10
11.6581369954
 20
8.3426335728
 30
0.0
 10
11.6358358876
 20
8.328475023
 30
0.0
 10
11.6127911058
 20
8.3154815477
 30
0.0
 10
11.589058248
 20
8.3036844441
 30
0.0
 10
11.5646945701
 20
8.2931121056
 30
0.0
 10
11.5397588375
 20
8.2837899726
 30
0.0
 10
11.5143111863
 20
8.2757404666
 30
0.0
 10
11.4884129746
 20
8.2689829399
 30
0.0
 10
11.4621266494
 20
8.2635336425
 30
0.0
 10
11.4355155391
 20
8.2594056021
 30
0.0
 10
11.4086439285
 20
8.2566087705
 30
0.0
 10
11.3815761426
 20
8.2551496595
 30
0.0
 10
11.3543784935
 20
8.2550319133
 30
0.0
 10
11.3362324292
 20
8.2558464004
 30
0.0
 10
11.3271610076
 20
8.2564755057
 30
0.0
  0
SPLINE
  5
38F
100
AcDbEntity
  8
0
100
AcDbSpline
 62
7
  6
CONTINUOUS
 70
0
 71
3
 72
39
 73
35
 74
0
 42
0.0000001
 43
0.0000001
 44
0.0000000001
 40
0.0
 40
0.0
 40
0.0
 40
0.0
 40
0.0317460813
 40
0.0633912641
 40
0.0949383062
 40
0.1263908541
 40
0.1577534212
 40
0.189031355
 40
0.2202307925
 40
0.2513586073
 40
0.2824223493
 40
0.3134301806
 40
0.3443908007
 40
0.3753133644
 40
0.4062073938
 40
0.4370826868
 40
0.4679492244
 40
0.4988170741
 40
0.5296962912
 40
0.5605968192
 40
0.5915283931
 40
0.6225004467
 40
0.6535220237
 40
0.684601692
 40
0.7157474624
 40
0.7469667153
 40
0.7782661338
 40
0.8096516604
 40
0.8411284171
 40
0.8727006962
 40
0.9043720184
 40
0.9361444309
 40
0.9680208504
 40
1.0
 40
1.0
 40
1.0
 40
1.0
 10
11.8812492005
 20
8.7734288936
 30
0.0
 10
11.8806721769
 20
8.7653856732
 30
0.0
 10
11.8791401845
 20
8.7493493794
 30
0.0
 10
11.8757051382
 20
8.7254709645
 30
0.0
 10
11.8711439801
 20
8.7018571305
 30
0.0
 10
11.8654667179
 20
8.6785604554
 30
0.0
 10
11.8586857642
 20
8.6556319302
 30
0.0
 10
11.8508159919
 20
8.6331219754
 30
0.0
 10
11.8418746458
 20
8.6110800388
 30
0.0
 10
11.8318813225
 20
8.5895545675
 30
0.0
 10
11.8208579201
 20
8.5685928845
 30
0.0
 10
11.8088286479
 20
8.5482410591
 30
0.0
 10
11.7958199259
 20
8.5285438219
 30
0.0
 10
11.7818603205
 20
8.509544473
 30
0.0
 10
11.7669804838
 20
8.4912847883
 30
0.0
 10
11.7512130934
 20
8.4738049242
 30
0.0
 10
11.7345928193
 20
8.4571432895
 30
0.0
 10
11.7171561958
 20
8.4413364999
 30
0.0
 10
11.6989415479
 20
8.4264192949
 30
0.0
 10
11.6799889035
 20
8.4124244684
 30
0.0
 10
11.6603399227
 20
8.3993827758
 30
0.0
 10
11.6400378168
 20
8.3873228397
 30
0.0
 10
11.6191272171
 20
8.3762711349
 30
0.0
 10
11.5976540855
 20
8.3662519212
 30
0.0
 10
11.5756656098
 20
8.3572872031
 30
0.0
 10
11.5532101199
 20
8.3493966391
 30
0.0
 10
11.5303369705
 20
8.3425974992
 30
0.0
 10
11.5070964188
 20
8.3369046768
 30
0.0
 10
11.4835395264
 20
8.3323306328
 30
0.0
 10
11.459718
 20
8.3288853756
 30
0.0
 10
11.4356843023
 20
8.3265764717
 30
0.0
 10
11.4114908015
 20
8.3254087746
 30
0.0
 10
11.3871915895
 20
8.3253850079
 30
0.0
 10
11.3709816366
 20
8.3261305209
 30
0.0
 10
11.3628780063
 20
8.3266925096
 30
0.0
  0
SPLINE
  5
390
100
AcDbEntity
  8
0
100
AcDbSpline
 62
7
  6
CONTINUOUS
 70
0
 71
3
 72
23
 73
19
 74
0
 42
0.0000001
 43
0.0000001
 44
0.0000000001
 40
0.0
 40
0.0
 40
0.0
 40
0.0
 40
0.0616482098
 40
0.1233194446
 40
0.1850364747
 40
0.2468215611
 40
0.3086962076
 40
0.3706809245
 40
0.4327950062
 40
0.4950563328
 40
0.5574811797
 40
0.6200840705
 40
0.6828776046
 40
0.7458723228
 40
0.8090769537
 40
0.8724968135
 40
0.9361384451
 40
1.0
 40
1.0
 40
1.0
 40
1.0
 10
11.7157331057
 20
8.5059538638
 30
0.0
 10
11.7102342991
 20
8.500642418
 30
0.0
 10
11.6989465105
 20
8.4903112388
 30
0.0
 10
11.6812030171
 20
8.4757438696
 30
0.0
 10
11.6626890309
 20
8.4621393816
 30
0.0
 10
11.6434518419
 20
8.4495326367
 30
0.0
 10
11.6235397597
 20
8.4379552179
 30
0.0
 10
11.6030030034
 20
8.4274363229
 30
0.0
 10
11.5818933218
 20
8.4180023909
 30
0.0
 10
11.5602639156
 20
8.4096771318
 30
0.0
 10
11.5381692782
 20
8.4024814581
 30
0.0
 10
11.5156650639
 20
8.3964334412
 30
0.0
 10
11.4928079578
 20
8.3915482721
 30
0.0
 10
11.4696554823
 20
8.3878381672
 30
0.0
 10
11.4462660745
 20
8.3853124628
 30
0.0
 10
11.4226982002
 20
8.3839772866
 30
0.0
 10
11.3990122023
 20
8.3838361449
 30
0.0
 10
11.3832079232
 20
8.3845370106
 30
0.0
 10
11.375307266
 20
8.385084923
 30
0.0
  0
SPLINE
  5
391
100
AcDbEntity
  8
0
100
AcDbSpline
 62
7
  6
CONTINUOUS
 70
0
 71
3
 72
15
 73
11
 74
0
 42
0.0000001
 43
0.0000001
 44
0.0000000001
 40
0.0
 40
0.0
 40
0.0
 40
0.0
 40
0.1233874107
 40
0.247150913
 40
0.3713429508
 40
0.4960083963
 40
0.6211836974
 40
0.7468968072
 40
0.8731655447
 40
1.0
 40
1.0
 40
1.0
 40
1.0
 10
11.7949306983
 20
8.6103832829
 30
0.0
 10
11.7860765842
 20
8.6059818137
 30
0.0
 10
11.7680340885
 20
8.5977689105
 30
0.0
 10
11.7401561349
 20
8.5872979403
 30
0.0
 10
11.7115369197
 20
8.5786989155
 30
0.0
 10
11.682296977
 20
8.5720081689
 30
0.0
 10
11.6525574293
 20
8.5672530256
 30
0.0
 10
11.6224414875
 20
8.5644531334
 30
0.0
 10
11.5920757102
 20
8.5636197012
 30
0.0
 10
11.5717905315
 20
8.5643758443
 30
0.0
 10
11.5616508689
 20
8.5650790323
 30
0.0
  0
SPLINE
  5
392
100
AcDbEntity
  8
0
100
AcDbSpline
 62
7
  6
CONTINUOUS
 70
0
 71
3
 72
46
 73
42
 74
0
 42
0.0000001
 43
0.0000001
 44
0.0000000001
 40
0.0
 40
0.0
 40
0.0
 40
0.0
 40
0.0149668528
 40
0.0299379831
 40
0.0449162878
 40
0.0599046199
 40
0.0749057753
 40
0.0899224762
 40
0.1049573525
 40
0.1200129301
 40
0.1350916174
 40
0.1501956875
 40
0.1653272702
 40
0.1804883409
 40
0.1956807057
 40
0.2109059969
 40
0.2414556497
 40
0.2721519703
 40
0.3030010478
 40
0.3340056953
 40
0.365165434
 40
0.3964765571
 40
0.4279322523
 40
0.4595227788
 40
0.4912357027
 40
0.5230561756
 40
0.5549672464
 40
0.5869502106
 40
0.618984983
 40
0.6510504877
 40
0.683125064
 40
0.7151868783
 40
0.7472143404
 40
0.7791865142
 40
0.8110835202
 40
0.8428869255
 40
0.8745801117
 40
0.9061486176
 40
0.9375804736
 40
0.9688662084
 40
1.0
 40
1.0
 40
1.0
 40
1.0
 10
10.8086591041
 20
9.3321004353
 30
0.0
 10
10.8028023483
 20
9.3262357231
 30
0.0
 10
10.7913140859
 20
9.3142754546
 30
0.0
 10
10.7747894575
 20
9.2956761516
 30
0.0
 10
10.7589917997
 20
9.2764396646
 30
0.0
 10
10.7439422657
 20
9.2565916891
 30
0.0
 10
10.7296605138
 20
9.2361583227
 30
0.0
 10
10.716165436
 20
9.2151664603
 30
0.0
 10
10.7034747867
 20
9.1936437542
 30
0.0
 10
10.6916052069
 20
9.1716185926
 30
0.0
 10
10.6805723921
 20
9.149119942
 30
0.0
 10
10.6703908408
 20
9.126177459
 30
0.0
 10
10.6610738827
 20
9.102821352
 30
0.0
 10
10.6526338756
 20
9.079082466
 30
0.0
 10
10.6450818106
 20
9.0549916344
 30
0.0
 10
10.6362004806
 20
9.0224114947
 30
0.0
 10
10.6273704984
 20
8.9809501218
 30
0.0
 10
10.6204729772
 20
8.930372668
 30
0.0
 10
10.6172952256
 20
8.8791728084
 30
0.0
 10
10.6178539724
 20
8.8276219135
 30
0.0
 10
10.6221454671
 20
8.7759907352
 30
0.0
 10
10.6301466255
 20
8.7245509517
 30
0.0
 10
10.6418149183
 20
8.6735729817
 30
0.0
 10
10.6570884759
 20
8.6233247514
 30
0.0
 10
10.6758865962
 20
8.5740702719
 30
0.0
 10
10.6981102071
 20
8.5260683228
 30
0.0
 10
10.723642197
 20
8.4795710265
 30
0.0
 10
10.7523481618
 20
8.4348225794
 30
0.0
 10
10.7840771746
 20
8.3920580464
 30
0.0
 10
10.8186624101
 20
8.3515020372
 30
0.0
 10
10.85592208
 20
8.3133675605
 30
0.0
 10
10.8956604721
 20
8.2778550149
 30
0.0
 10
10.9376688455
 20
8.2451510402
 30
0.0
 10
10.981726523
 20
8.2154275207
 30
0.0
 10
11.0276021461
 20
8.1888408305
 30
0.0
 10
11.0750547633
 20
8.1655309282
 30
0.0
 10
11.1238351681
 20
8.1456205309
 30
0.0
 10
11.1736868748
 20
8.1292146608
 30
0.0
 10
11.2243488319
 20
8.1164000216
 30
0.0
 10
11.2755513245
 20
8.1072444731
 30
0.0
 10
11.3099610736
 20
8.1036031467
 30
0.0
 10
11.3271610076
 20
8.1024103273
 30
0.0
  0
SPLINE
  5
393
100
AcDbEntity
  8
0
100
AcDbSpline
 62
7
  6
CONTINUOUS
 70
0
 71
3
 72
71
 73
67
 74
0
 42
0.0000001
 43
0.0000001
 44
0.0000000001
 40
0.0
 40
0.0
 40
0.0
 40
0.0
 40
0.0155852066
 40
0.0311174567
 40
0.046598352
 40
0.0620289165
 40
0.0774109063
 40
0.0927465373
 40
0.1080384659
 40
0.1232897967
 40
0.1385040376
 40
0.1536850738
 40
0.1688371302
 40
0.1839647301
 40
0.1990726495
 40
0.2141658685
 40
0.22924952
 40
0.2443288366
 40
0.259409097
 40
0.2744955701
 40
0.2895934598
 40
0.3047078507
 40
0.3198436553
 40
0.3350055639
 40
0.3501979977
 40
0.3654250653
 40
0.3806905223
 40
0.3959977357
 40
0.4113496526
 40
0.4267487752
 40
0.4421971412
 40
0.4576963074
 40
0.4732473393
 40
0.4888508049
 40
0.5045067747
 40
0.520214827
 40
0.5359740564
 40
0.5517830871
 40
0.5676400887
 40
0.5835427968
 40
0.5994885377
 40
0.6154742565
 40
0.6314965461
 40
0.647551679
 40
0.6636356417
 40
0.6797441706
 40
0.6958727918
 40
0.7120168591
 40
0.7281715948
 40
0.7443321291
 40
0.7604935427
 40
0.7766509094
 40
0.7927993377
 40
0.8089340125
 40
0.8250502356
 40
0.8411434661
 40
0.8572093611
 40
0.8732438146
 40
0.8892429927
 40
0.9052033715
 40
0.9211217649
 40
0.9369953492
 40
0.9528217728
 40
0.9685988324
 40
0.9843255351
 40
1.0
 40
1.0
 40
1.0
 40
1.0
 10
11.3079076155
 20
9.3682916458
 30
0.0
 10
11.2989411867
 20
9.3686024666
 30
0.0
 10
11.2810206423
 20
9.3687892525
 30
0.0
 10
11.2542053379
 20
9.3677574266
 30
0.0
 10
11.2275611439
 20
9.3654158839
 30
0.0
 10
11.2011513089
 20
9.3617698715
 30
0.0
 10
11.1750379661
 20
9.356827989
 30
0.0
 10
11.1492827168
 20
9.3506018306
 30
0.0
 10
11.1239462707
 20
9.3431060085
 30
0.0
 10
11.0990883832
 20
9.3343581417
 30
0.0
 10
11.0747676866
 20
9.3243787883
 30
0.0
 10
11.0510415569
 20
9.3131914257
 30
0.0
 10
11.02796596
 20
9.3008224134
 30
0.0
 10
11.0055953346
 20
9.2873008941
 30
0.0
 10
10.9839824621
 20
9.2726587315
 30
0.0
 10
10.9631783412
 20
9.2569304365
 30
0.0
 10
10.9432320717
 20
9.2401530816
 30
0.0
 10
10.9241907102
 20
9.2223662448
 30
0.0
 10
10.9060991682
 20
9.2036118949
 30
0.0
 10
10.889000117
 20
9.1839342794
 30
0.0
 10
10.8729338841
 20
9.1633798237
 30
0.0
 10
10.8579383615
 20
9.1419970189
 30
0.0
 10
10.8440489076
 20
9.1198363139
 30
0.0
 10
10.8312982366
 20
9.0969500083
 30
0.0
 10
10.8197163766
 20
9.0733921016
 30
0.0
 10
10.8093305966
 20
9.0492181689
 30
0.0
 10
10.8001653427
 20
9.0244852293
 30
0.0
 10
10.7922421896
 20
8.9992516109
 30
0.0
 10
10.785579753
 20
8.9735768242
 30
0.0
 10
10.7801936632
 20
8.9475214107
 30
0.0
 10
10.7760965495
 20
8.9211467951
 30
0.0
 10
10.7732980061
 20
8.8945151428
 30
0.0
 10
10.7718045756
 20
8.8676892154
 30
0.0
 10
10.7716197263
 20
8.8407322257
 30
0.0
 10
10.7727438131
 20
8.8137076867
 30
0.0
 10
10.7751741198
 20
8.7866792593
 30
0.0
 10
10.7789048631
 20
8.7597106049
 30
0.0
 10
10.7839272065
 20
8.7328652374
 30
0.0
 10
10.7902292874
 20
8.7062063784
 30
0.0
 10
10.7977962109
 20
8.6797968016
 30
0.0
 10
10.806610099
 20
8.6536986844
 30
0.0
 10
10.8166501543
 20
8.6279734682
 30
0.0
 10
10.8278927027
 20
8.6026817149
 30
0.0
 10
10.8403112517
 20
8.5778829678
 30
0.0
 10
10.853876547
 20
8.5536356118
 30
0.0
 10
10.8685566112
 20
8.5299967179
 30
0.0
 10
10.8843168573
 20
8.5070219274
 30
0.0
 10
10.9011201657
 20
8.4847653214
 30
0.0
 10
10.9189269706
 20
8.4632792951
 30
0.0
 10
10.9376953557
 20
8.442614441
 30
0.0
 10
10.9573811281
 20
8.4228194088
 30
0.0
 10
10.9779379306
 20
8.4039407929
 30
0.0
 10
10.9993173675
 20
8.3860230405
 30
0.0
 10
11.0214691125
 20
8.3691083451
 30
0.0
 10
11.044341027
 20
8.3532365495
 30
0.0
 10
11.0678792784
 20
8.338445052
 30
0.0
 10
11.0920284487
 20
8.3247686845
 30
0.0
 10
11.1167316879
 20
8.3122396656
 30
0.0
 10
11.1419308442
 20
8.3008875212
 30
0.0
 10
11.1675666002
 20
8.2907390195
 30
0.0
 10
11.1935786003
 20
8.2818181181
 30
0.0
 10
11.2199056383
 20
8.2741458332
 30
0.0
 10
11.246485585
 20
8.2677403616
 30
0.0
 10
11.2732562656
 20
8.2626166196
 30
0.0
 10
11.3001535796
 20
8.2587870771
 30
0.0
 10
11.3181594309
 20
8.2570997671
 30
0.0
 10
11.3271610076
 20
8.2564755057
 30
0.0
  0
SPLINE
  5
394
100
AcDbEntity
  8
0
100
AcDbSpline
 62
7
  6
CONTINUOUS
 70
0
 71
3
 72
71
 73
67
 74
0
 42
0.0000001
 43
0.0000001
 44
0.0000000001
 40
0.0
 40
0.0
 40
0.0
 40
0.0
 40
0.0155477386
 40
0.0310442847
 40
0.0464906817
 40
0.0618883938
 40
0.0772394683
 40
0.0925463422
 40
0.1078119019
 40
0.1230394356
 40
0.1382326085
 40
0.153395429
 40
0.1685322091
 40
0.1836475234
 40
0.198746164
 40
0.2138330931
 40
0.2289133931
 40
0.2439922139
 40
0.2590747202
 40
0.2741660386
 40
0.2892712057
 40
0.3043951176
 40
0.3195424799
 40
0.3347177608
 40
0.3499251471
 40
0.3651685036
 40
0.3804513386
 40
0.3957767711
 40
0.4111475039
 40
0.4265657998
 40
0.4420334638
 40
0.4575518314
 40
0.473121761
 40
0.4887436299
 40
0.5044173354
 40
0.5201422995
 40
0.5359174797
 40
0.551741384
 40
0.5676120874
 40
0.5835272525
 40
0.5994841526
 40
0.6154796988
 40
0.6315104706
 40
0.647572747
 40
0.6636625389
 40
0.6797756244
 40
0.6959075849
 40
0.7120538446
 40
0.7282097089
 40
0.7443704025
 40
0.7605311096
 40
0.7766870137
 40
0.7928333392
 40
0.8089653908
 40
0.8250785922
 40
0.8411685242
 40
0.8572309632
 40
0.873261919
 40
0.8892576678
 40
0.9052147901
 40
0.9211301929
 40
0.9370011393
 40
0.9528253483
 40
0.9686006702
 40
0.9843261874
 40
1.0
 40
1.0
 40
1.0
 40
1.0
 10
11.3271543732
 20
9.3673213831
 30
0.0
 10
11.3188714661
 20
9.3673250861
 30
0.0
 10
11.3023299094
 20
9.3669341165
 30
0.0
 10
11.2776176603
 20
9.3651468619
 30
0.0
 10
11.2531009056
 20
9.3621638805
 30
0.0
 10
11.228836955
 20
9.357991952
 30
0.0
 10
11.2048815738
 20
9.3526406833
 30
0.0
 10
11.1812900511
 20
9.3461223262
 30
0.0
 10
11.1581168
 20
9.3384518524
 30
0.0
 10
11.1354152785
 20
9.3296469166
 30
0.0
 10
11.1132378578
 20
9.3197277944
 30
0.0
 10
11.0916357097
 20
9.3087173284
 30
0.0
 10
11.0706586862
 20
9.2966408795
 30
0.0
 10
11.0503552095
 20
9.2835262642
 30
0.0
 10
11.0307721368
 20
9.2694037247
 30
0.0
 10
11.0119546543
 20
9.2543058441
 30
0.0
 10
10.9939461866
 20
9.238267451
 30
0.0
 10
10.9767882921
 20
9.221325546
 30
0.0
 10
10.9605205732
 20
9.2035192112
 30
0.0
 10
10.945180566
 20
9.1848895374
 30
0.0
 10
10.9308036387
 20
9.1654795338
 30
0.0
 10
10.9174229401
 20
9.1453340003
 30
0.0
 10
10.9050693177
 20
9.1244994294
 30
0.0
 10
10.8937712514
 20
9.103023897
 30
0.0
 10
10.883554783
 20
9.0809569558
 30
0.0
 10
10.8744434201
 20
9.0583495336
 30
0.0
 10
10.8664581242
 20
9.0352537919
 30
0.0
 10
10.8596172612
 20
9.0117230079
 30
0.0
 10
10.8539365604
 20
8.9878114524
 30
0.0
 10
10.8494290852
 20
8.963574266
 30
0.0
 10
10.846105158
 20
8.9390673398
 30
0.0
 10
10.8439723721
 20
8.9143471753
 30
0.0
 10
10.8430355851
 20
8.8894707542
 30
0.0
 10
10.8432969047
 20
8.8644954093
 30
0.0
 10
10.844755693
 20
8.8394786956
 30
0.0
 10
10.8474085323
 20
8.8144782576
 30
0.0
 10
10.8512492428
 20
8.7895516925
 30
0.0
 10
10.856268925
 20
8.7647564203
 30
0.0
 10
10.8624559734
 20
8.7401495539
 30
0.0
 10
10.8697961087
 20
8.7157877718
 30
0.0
 10
10.8782723921
 20
8.6917271844
 30
0.0
 10
10.8878652471
 20
8.6680231959
 30
0.0
 10
10.8985525437
 20
8.6447303892
 30
0.0
 10
10.9103096423
 20
8.6219024002
 30
0.0
 10
10.9231094519
 20
8.5995917982
 30
0.0
 10
10.9369224881
 20
8.5778499655
 30
0.0
 10
10.9517169082
 20
8.5567269571
 30
0.0
 10
10.9674586225
 20
8.5362714065
 30
0.0
 10
10.9841113712
 20
8.5165304155
 30
0.0
 10
11.0016368045
 20
8.4975494466
 30
0.0
 10
11.019994574
 20
8.4793722248
 30
0.0
 10
11.0391423947
 20
8.4620406062
 30
0.0
 10
11.059036165
 20
8.4455944994
 30
0.0
 10
11.0796300757
 20
8.4300717846
 30
0.0
 10
11.1008767102
 20
8.4155082241
 30
0.0
 10
11.1227271556
 20
8.401937388
 30
0.0
 10
11.1451310969
 20
8.3893905491
 30
0.0
 10
11.1680369379
 20
8.3778966122
 30
0.0
 10
11.1913919333
 20
8.3674820702
 30
0.0
 10
11.2151423057
 20
8.3581709437
 30
0.0
 10
11.2392333584
 20
8.3499847303
 30
0.0
 10
11.2636096461
 20
8.342942306
 30
0.0
 10
11.2882148915
 20
8.3370600059
 30
0.0
 10
11.3129928091
 20
8.3323512168
 30
0.0
 10
11.3378853474
 20
8.3288271655
 30
0.0
 10
11.3545479412
 20
8.3272702016
 30
0.0
 10
11.3628780063
 20
8.3266925096
 30
0.0
  0
SPLINE
  5
395
100
AcDbEntity
  8
0
100
AcDbSpline
 62
7
  6
CONTINUOUS
 70
0
 71
3
 72
39
 73
35
 74
0
 42
0.0000001
 43
0.0000001
 44
0.0000000001
 40
0.0
 40
0.0
 40
0.0
 40
0.0
 40
0.0299393049
 40
0.0599022804
 40
0.0899120371
 40
0.1199905832
 40
0.1501583152
 40
0.180433557
 40
0.2108321574
 40
0.2413671588
 40
0.2720485413
 40
0.302883044
 40
0.333874065
 40
0.3650216373
 40
0.3963224782
 40
0.4277701076
 40
0.4593550264
 40
0.4910649489
 40
0.5228850817
 40
0.5547984441
 40
0.5867862233
 40
0.6188281554
 40
0.650902926
 40
0.6829885863
 40
0.7150629768
 40
0.747104156
 40
0.7790908244
 40
0.8110027393
 40
0.8428211159
 40
0.8745290106
 40
0.906111654
 40
0.9375568948
 40
0.9688549538
 40
1.0
 40
1.0
 40
1.0
 40
1.0
 10
11.0348814264
 20
9.210823348
 30
0.0
 10
11.0268711736
 20
9.2030860284
 30
0.0
 10
11.011444266
 20
9.1869700005
 30
0.0
 10
10.9902573217
 20
9.1610489877
 30
0.0
 10
10.9711268455
 20
9.1335097183
 30
0.0
 10
10.9541570193
 20
9.1045015818
 30
0.0
 10
10.939437917
 20
9.0741794415
 30
0.0
 10
10.9270481584
 20
9.0427057852
 30
0.0
 10
10.9170536192
 20
9.0102490416
 30
0.0
 10
10.9095073514
 20
8.9769828598
 30
0.0
 10
10.904449273
 20
8.9430851076
 30
0.0
 10
10.9019059906
 20
8.908736933
 30
0.0
 10
10.9018906837
 20
8.8741217937
 30
0.0
 10
10.9044030274
 20
8.839424485
 30
0.0
 10
10.9094292072
 20
8.804830154
 30
0.0
 10
10.9169420438
 20
8.7705233231
 30
0.0
 10
10.9269011423
 20
8.7366869206
 30
0.0
 10
10.9392531184
 20
8.7035013204
 30
0.0
 10
10.9539318825
 20
8.6711433957
 30
0.0
 10
10.9708589607
 20
8.6397855703
 30
0.0
 10
10.989943956
 20
8.6095949265
 30
0.0
 10
11.0110850246
 20
8.5807323275
 30
0.0
 10
11.0341694142
 20
8.5533515708
 30
0.0
 10
11.0590740632
 20
8.5275985851
 30
0.0
 10
11.0856662202
 20
8.5036106311
 30
0.0
 10
11.1138041656
 20
8.4815155897
 30
0.0
 10
11.1433379683
 20
8.4614312997
 30
0.0
 10
11.1741102753
 20
8.4434649323
 30
0.0
 10
11.205957121
 20
8.4277124285
 30
0.0
 10
11.2387088523
 20
8.4142579797
 30
0.0
 10
11.2721907585
 20
8.4031735261
 30
0.0
 10
11.3062249478
 20
8.3945185037
 30
0.0
 10
11.3406276252
 20
8.3883394044
 30
0.0
 10
11.3637496238
 20
8.3858864482
 30
0.0
 10
11.375307266
 20
8.385084923
 30
0.0
  0
SPLINE
  5
396
100
AcDbEntity
  8
0
100
AcDbSpline
 62
7
  6
CONTINUOUS
 70
0
 71
3
 72
43
 73
39
 74
0
 42
0.0000001
 43
0.0000001
 44
0.0000000001
 40
0.0
 40
0.0
 40
0.0
 40
0.0
 40
0.0299861483
 40
0.0450146178
 40
0.0600674656
 40
0.0902480662
 40
0.1205430191
 40
0.1357382813
 40
0.1509652638
 40
0.1815132746
 40
0.2121956715
 40
0.2430147077
 40
0.2739703787
 40
0.3050604516
 40
0.3362805302
 40
0.3676241515
 40
0.3990829124
 40
0.4306466212
 40
0.462303473
 40
0.4940402436
 40
0.5258425013
 40
0.557694831
 40
0.5895810698
 40
0.6214845503
 40
0.6533883493
 40
0.6852755388
 40
0.7171294372
 40
0.7330406162
 40
0.7489374602
 40
0.7806769565
 40
0.8123370556
 40
0.8439044825
 40
0.8753673813
 40
0.9067154767
 40
0.937940354
 40
0.9535061453
 40
0.9690391823
 40
1.0
 40
1.0
 40
1.0
 40
1.0
 10
11.1419624317
 20
9.2862985817
 30
0.0
 10
11.1372812627
 20
9.2776445585
 30
0.0
 10
11.1306930682
 20
9.2644086116
 30
0.0
 10
11.1228134385
 20
9.2463402282
 30
0.0
 10
11.1155221998
 20
9.2279569661
 30
0.0
 10
11.1075502848
 20
9.2044713009
 30
0.0
 10
11.1011474952
 20
9.1804621505
 30
0.0
 10
11.0969722673
 20
9.1609789901
 30
0.0
 10
11.0934253094
 20
9.1412873719
 30
0.0
 10
11.0901952617
 20
9.1163896267
 30
0.0
 10
11.0882609921
 20
9.0862280088
 30
0.0
 10
11.0882714307
 20
9.0558703082
 30
0.0
 10
11.0902264761
 20
9.0254420303
 30
0.0
 10
11.0941178554
 20
8.9950678992
 30
0.0
 10
11.0999294122
 20
8.9648726611
 30
0.0
 10
11.107637112
 20
8.9349802226
 30
0.0
 10
11.1172091618
 20
8.9055132434
 30
0.0
 10
11.1286061393
 20
8.876592612
 30
0.0
 10
11.1417811575
 20
8.848336962
 30
0.0
 10
11.1566800572
 20
8.8208621889
 30
0.0
 10
11.1732416307
 20
8.7942809786
 30
0.0
 10
11.1913978673
 20
8.7687023536
 30
0.0
 10
11.2110742497
 20
8.7442312166
 30
0.0
 10
11.2321899891
 20
8.7209679705
 30
0.0
 10
11.2546586098
 20
8.6990079386
 30
0.0
 10
11.278387351
 20
8.6784416154
 30
0.0
 10
11.2991402097
 20
8.6625273362
 30
0.0
 10
11.3162742688
 20
8.6505744788
 30
0.0
 10
11.3337287731
 20
8.6391631077
 30
0.0
 10
11.3561420681
 20
8.6259153143
 30
0.0
 10
11.3838943241
 20
8.6117045261
 30
0.0
 10
11.4123775305
 20
8.5992453051
 30
0.0
 10
11.4414744665
 20
8.5885892644
 30
0.0
 10
11.471065203
 20
8.5797802715
 30
0.0
 10
11.4960629457
 20
8.5740025064
 30
0.0
 10
11.516184808
 20
8.5703395347
 30
0.0
 10
11.5363256159
 20
8.5673245582
 30
0.0
 10
11.5515164277
 20
8.5657818582
 30
0.0
 10
11.5616508689
 20
8.5650790323
 30
0.0
  0
SPLINE
  5
397
100
AcDbEntity
  8
0
100
AcDbSpline
 62
7
  6
CONTINUOUS
 70
0
 71
3
 72
21
 73
17
 74
0
 42
0.0000001
 43
0.0000001
 44
0.0000000001
 40
0.0
 40
0.0
 40
0.0
 40
0.0
 40
0.0615945071
 40
0.1232531461
 40
0.1849908993
 40
0.2468221297
 40
0.3087604591
 40
0.3708186889
 40
0.4330087007
 40
0.4953413484
 40
0.5578264234
 40
0.6204725437
 40
0.6832870764
 40
0.7462764254
 40
0.8727673053
 40
1.0
 40
1.0
 40
1.0
 40
1.0
 10
11.8293977965
 20
8.6936860418
 30
0.0
 10
11.8247563651
 20
8.690292143
 30
0.0
 10
11.8153140092
 20
8.6837094753
 30
0.0
 10
11.8007126716
 20
8.6744783637
 30
0.0
 10
11.7856919952
 20
8.6659012121
 30
0.0
 10
11.7702790793
 20
8.6579936251
 30
0.0
 10
11.7545013039
 20
8.6507695732
 30
0.0
 10
11.7383868208
 20
8.6442418882
 30
0.0
 10
11.7219643054
 20
8.6384222289
 30
0.0
 10
11.7052630245
 20
8.6333209376
 30
0.0
 10
11.6883127165
 20
8.6289470248
 30
0.0
 10
11.6711436511
 20
8.6253083028
 30
0.0
 10
11.6537860506
 20
8.6224112321
 30
0.0
 10
11.6304034145
 20
8.6195403945
 30
0.0
 10
11.6008494504
 20
8.6178357168
 30
0.0
 10
11.5771405967
 20
8.618485252
 30
0.0
 10
11.5652917595
 20
8.6193069716
 30
0.0
  0
SPLINE
  5
398
100
AcDbEntity
  8
0
100
AcDbSpline
 62
7
  6
CONTINUOUS
 70
0
 71
3
 72
23
 73
19
 74
0
 42
0.0000001
 43
0.0000001
 44
0.0000000001
 40
0.0
 40
0.0
 40
0.0
 40
0.0
 40
0.0616482071
 40
0.1233194423
 40
0.1850364754
 40
0.2468215648
 40
0.3086962113
 40
0.3706809251
 40
0.4327950039
 40
0.4950563299
 40
0.5574811805
 40
0.6200840695
 40
0.682877611
 40
0.7458723236
 40
0.8090769236
 40
0.8724969197
 40
0.9361382346
 40
1.0
 40
1.0
 40
1.0
 40
1.0
 10
10.0116950462
 20
6.9708333277
 30
0.0
 10
10.0056351314
 20
6.9649799038
 30
0.0
 10
9.993195546
 20
6.9535945039
 30
0.0
 10
9.9736415004
 20
6.937540657
 30
0.0
 10
9.9532383357
 20
6.9225479487
 30
0.0
 10
9.9320381576
 20
6.9086548152
 30
0.0
 10
9.9100942194
 20
6.8958960462
 30
0.0
 10
9.8874618776
 20
6.8843037936
 30
0.0
 10
9.8641981538
 20
6.873907202
 30
0.0
 10
9.8403616696
 20
6.8647324147
 30
0.0
 10
9.8160124773
 20
6.8568024871
 30
0.0
 10
9.7912119099
 20
6.8501373373
 30
0.0
 10
9.7660224433
 20
6.8447536944
 30
0.0
 10
9.7405074755
 20
6.8406650024
 30
0.0
 10
9.714731381
 20
6.8378815573
 30
0.0
 10
9.6887586495
 20
6.8364101549
 30
0.0
 10
9.662655709
 20
6.8362545918
 30
0.0
 10
9.6452387631
 20
6.8370269855
 30
0.0
 10
9.6365318877
 20
6.8376308094
 30
0.0
  0
SPLINE
  5
399
100
AcDbEntity
  8
0
100
AcDbSpline
 62
7
  6
CONTINUOUS
 70
0
 71
3
 72
15
 73
11
 74
0
 42
0.0000001
 43
0.0000001
 44
0.0000000001
 40
0.0
 40
0.0
 40
0.0
 40
0.0
 40
0.1233300035
 40
0.2470319918
 40
0.3711707243
 40
0.4958019575
 40
0.6209713123
 40
0.7467140007
 40
0.8730522424
 40
1.0
 40
1.0
 40
1.0
 40
1.0
 10
10.0892389389
 20
7.0687437345
 30
0.0
 10
10.0789821048
 20
7.0631025829
 30
0.0
 10
10.0580127075
 20
7.0525569242
 30
0.0
 10
10.0254376979
 20
7.0390633164
 30
0.0
 10
9.9918491883
 20
7.0279340607
 30
0.0
 10
9.9574109787
 20
7.0192235829
 30
0.0
 10
9.922288256
 20
7.0129730553
 30
0.0
 10
9.8866495284
 20
7.0092123725
 30
0.0
 10
9.8506681308
 20
7.0079589354
 30
0.0
 10
9.8266195273
 20
7.0087970681
 30
0.0
 10
9.8145992438
 20
7.0096306776
 30
0.0
  0
SPLINE
  5
39A
100
AcDbEntity
  8
0
100
AcDbSpline
 62
7
  6
CONTINUOUS
 70
0
 71
3
 72
71
 73
67
 74
0
 42
0.0000001
 43
0.0000001
 44
0.0000000001
 40
0.0
 40
0.0
 40
0.0
 40
0.0
 40
0.0156747439
 40
0.0314022082
 40
0.0471806388
 40
0.0630088954
 40
0.0788847426
 40
0.0948057519
 40
0.1107690087
 40
0.1267712324
 40
0.1428087906
 40
0.1588777352
 40
0.1749738406
 40
0.1910926413
 40
0.2072294725
 40
0.2233795109
 40
0.239537818
 40
0.255699384
 40
0.2718591706
 40
0.2880121553
 40
0.3041533743
 40
0.3202779661
 40
0.3363812146
 40
0.3524585914
 40
0.3685057961
 40
0.3845187957
 40
0.4004938614
 40
0.4164276041
 40
0.4323170079
 40
0.4481594607
 40
0.4639527819
 40
0.4796952457
 40
0.4953856017
 40
0.5110230908
 40
0.5266074579
 40
0.5421389597
 40
0.5576183678
 40
0.5730469656
 40
0.5884265412
 40
0.6037593735
 40
0.6190482143
 40
0.6342962647
 40
0.6495071464
 40
0.6646848669
 40
0.6798337803
 40
0.6949585438
 40
0.7100640694
 40
0.7251554736
 40
0.7402380233
 40
0.7553170806
 40
0.7703980447
 40
0.7854862946
 40
0.8005871313
 40
0.8157057213
 40
0.830847042
 40
0.8460158305
 40
0.8612165344
 40
0.8764532676
 40
0.8917297685
 40
0.907049366
 40
0.9224149485
 40
0.9378289216
 40
0.953293278
 40
0.9688092644
 40
0.9843782511
 40
1.0
 40
1.0
 40
1.0
 40
1.0
 10
11.0773973339
 20
6.6994563537
 30
0.0
 10
11.0683584499
 20
6.7000832024
 30
0.0
 10
11.0502779683
 20
6.7017824306
 30
0.0
 10
11.0232711568
 20
6.7056496896
 30
0.0
 10
10.9963943766
 20
6.7108307254
 30
0.0
 10
10.9697133766
 20
6.7173127018
 30
0.0
 10
10.9432920084
 20
6.7250801476
 30
0.0
 10
10.9171940019
 20
6.7341142249
 30
0.0
 10
10.8914821476
 20
6.7443931849
 30
0.0
 10
10.8662183433
 20
6.7558922276
 30
0.0
 10
10.8414633904
 20
6.7685836282
 30
0.0
 10
10.8172768677
 20
6.7824368011
 30
0.0
 10
10.7937169847
 20
6.7974183723
 30
0.0
 10
10.7708404446
 20
6.8134922603
 30
0.0
 10
10.7487023097
 20
6.8306197625
 30
0.0
 10
10.7273558665
 20
6.8487596427
 30
0.0
 10
10.7068524864
 20
6.8678682189
 30
0.0
 10
10.6872415164
 20
6.8878994867
 30
0.0
 10
10.66857016
 20
6.9088052271
 30
0.0
 10
10.6508833655
 20
6.930535122
 30
0.0
 10
10.6342237178
 20
6.9530368733
 30
0.0
 10
10.61863134
 20
6.976256329
 30
0.0
 10
10.6041437759
 20
7.0001376003
 30
0.0
 10
10.5907959134
 20
7.0246232065
 30
0.0
 10
10.5786199054
 20
7.0496542155
 30
0.0
 10
10.5676450927
 20
7.075170383
 30
0.0
 10
10.5578979329
 20
7.1011102955
 30
0.0
 10
10.5494019401
 20
7.1274115182
 30
0.0
 10
10.5421776154
 20
7.1540107389
 30
0.0
 10
10.5362423897
 20
7.1808439211
 30
0.0
 10
10.5316106019
 20
7.2078464626
 30
0.0
 10
10.5282934594
 20
7.2349533482
 30
0.0
 10
10.5262990121
 20
7.2620993045
 30
0.0
 10
10.5256321319
 20
7.2892189549
 30
0.0
 10
10.5262944994
 20
7.3162469762
 30
0.0
 10
10.528284575
 20
7.3431182566
 30
0.0
 10
10.5315976245
 20
7.3697680537
 30
0.0
 10
10.5362257298
 20
7.3961321491
 30
0.0
 10
10.5421578062
 20
7.4221470015
 30
0.0
 10
10.5493796262
 20
7.4477498998
 30
0.0
 10
10.5578738558
 20
7.4728791124
 30
0.0
 10
10.5676200748
 20
7.4974740437
 30
0.0
 10
10.5785948308
 20
7.5214753822
 30
0.0
 10
10.590771708
 20
7.5448252393
 30
0.0
 10
10.6041213864
 20
7.5674672906
 30
0.0
 10
10.6186117119
 20
7.5893469124
 30
0.0
 10
10.6342077735
 20
7.610411314
 30
0.0
 10
10.6508719822
 20
7.6306096699
 30
0.0
 10
10.668564149
 20
7.6498932575
 30
0.0
 10
10.6872416035
 20
7.6682155615
 30
0.0
 10
10.7068592947
 20
7.6855323887
 30
0.0
 10
10.7273699013
 20
7.7018019749
 30
0.0
 10
10.7487239456
 20
7.7169850867
 30
0.0
 10
10.7708699164
 20
7.7310451136
 30
0.0
 10
10.7937543808
 20
7.7439481787
 30
0.0
 10
10.8173221276
 20
7.7556632066
 30
0.0
 10
10.8415163051
 20
7.7661619926
 30
0.0
 10
10.8662785584
 20
7.7754192695
 30
0.0
 10
10.8915491704
 20
7.7834127686
 30
0.0
 10
10.9172672099
 20
7.7901232705
 30
0.0
 10
10.9433706604
 20
7.7955346491
 30
0.0
 10
10.9697966329
 20
7.7996339695
 30
0.0
 10
10.9964813016
 20
7.8024113481
 30
0.0
 10
11.0233607615
 20
7.8038602983
 30
0.0
 10
11.0503691961
 20
7.8039772331
 30
0.0
 10
11.0683890096
 20
7.8031684071
 30
0.0
 10
11.0773973339
 20
7.8025436776
 30
0.0
  0
SPLINE
  5
39B
100
AcDbEntity
  8
0
100
AcDbSpline
 62
7
  6
CONTINUOUS
 70
0
 71
3
 72
19
 73
15
 74
0
 42
0.0000001
 43
0.0000001
 44
0.0000000001
 40
0.0
 40
0.0
 40
0.0
 40
0.0
 40
0.0616005123
 40
0.123275487
 40
0.1850372408
 40
0.2468975041
 40
0.3088673655
 40
0.3709571717
 40
0.4331764723
 40
0.4955339892
 40
0.620668356
 40
0.7464372759
 40
0.8728743725
 40
1.0
 40
1.0
 40
1.0
 40
1.0
 10
10.1117443535
 20
7.111291396
 30
0.0
 10
10.1064677343
 20
7.107839745
 30
0.0
 10
10.0957624255
 20
7.1011521133
 30
0.0
 10
10.0792905606
 20
7.0917927642
 30
0.0
 10
10.0624200582
 20
7.0831136998
 30
0.0
 10
10.0451772141
 20
7.0751283484
 30
0.0
 10
10.027588312
 20
7.067848925
 30
0.0
 10
10.0096804424
 20
7.0612866406
 30
0.0
 10
9.9914806953
 20
7.0554513781
 30
0.0
 10
9.9668375988
 20
7.0486453355
 30
0.0
 10
9.9354298883
 20
7.042001393
 30
0.0
 10
9.8970817346
 20
7.0370663394
 30
0.0
 10
9.8582607473
 20
7.0351865468
 30
0.0
 10
9.8322873634
 20
7.0359763233
 30
0.0
 10
9.8193062611
 20
7.0368765658
 30
0.0
  0
SPLINE
  5
39C
100
AcDbEntity
  8
0
100
AcDbSpline
 62
7
  6
CONTINUOUS
 70
0
 71
3
 72
15
 73
11
 74
0
 42
0.0000001
 43
0.0000001
 44
0.0000000001
 40
0.0
 40
0.0
 40
0.0
 40
0.0
 40
0.1233237137
 40
0.2470184172
 40
0.3711505349
 40
0.4957773122
 40
0.6209456154
 40
0.7466916675
 40
0.8730383423
 40
1.0
 40
1.0
 40
1.0
 40
1.0
 10
10.1197638177
 20
7.129033223
 30
0.0
 10
10.1098962387
 20
7.1235382064
 30
0.0
 10
10.0897137746
 20
7.1132633675
 30
0.0
 10
10.0583386062
 20
7.1001104621
 30
0.0
 10
10.0259682978
 20
7.0892565938
 30
0.0
 10
9.9927635535
 20
7.0807557919
 30
0.0
 10
9.9588865112
 20
7.074648963
 30
0.0
 10
9.9245026276
 20
7.0709658412
 30
0.0
 10
9.8897821443
 20
7.0697237758
 30
0.0
 10
9.8665747346
 20
7.0705254604
 30
0.0
 10
9.8549749815
 20
7.071329906
 30
0.0
  0
SPLINE
  5
39D
100
AcDbEntity
  8
0
100
AcDbSpline
 62
7
  6
CONTINUOUS
 70
0
 71
3
 72
60
 73
56
 74
0
 42
0.0000001
 43
0.0000001
 44
0.0000000001
 40
0.0
 40
0.0
 40
0.0
 40
0.0
 40
0.0081437215
 40
0.01697685
 40
0.0265209466
 40
0.03678965
 40
0.0477883286
 40
0.0595158866
 40
0.0719660299
 40
0.0851283246
 40
0.0989885617
 40
0.1135293238
 40
0.1287305536
 40
0.1445695476
 40
0.1610215373
 40
0.1780596973
 40
0.2137771176
 40
0.2514753725
 40
0.290884692
 40
0.3317173433
 40
0.3736711531
 40
0.4164328736
 40
0.4596814124
 40
0.5030909931
 40
0.546334291
 40
0.5890855752
 40
0.6310238557
 40
0.6718360457
 40
0.7112201823
 40
0.7302867147
 40
0.7488898131
 40
0.7669963561
 40
0.7845746229
 40
0.8015944409
 40
0.8180271642
 40
0.8338461164
 40
0.8490264908
 40
0.8635457491
 40
0.8773838801
 40
0.890523522
 40
0.9029506859
 40
0.9146549165
 40
0.9256301632
 40
0.9358756224
 40
0.9453966901
 40
0.9542068483
 40
0.9623293949
 40
0.969800425
 40
0.9766722973
 40
0.9830175573
 40
0.9889330625
 40
0.9917694421
 40
0.994546604
 40
0.9972834941
 40
1.0
 40
1.0
 40
1.0
 40
1.0
 10
13.4494894301
 20
7.2210534623
 30
0.0
 10
13.4503083301
 20
7.221844459
 30
0.0
 10
13.4519418994
 20
7.2235704756
 30
0.0
 10
13.4542892741
 20
7.2264438552
 30
0.0
 10
13.4566265376
 20
7.2296987657
 30
0.0
 10
13.4589491602
 20
7.2333286619
 30
0.0
 10
13.4612529286
 20
7.2373267568
 30
0.0
 10
13.463533249
 20
7.241685341
 30
0.0
 10
13.4657856809
 20
7.2463958657
 30
0.0
 10
13.4680056922
 20
7.251449069
 30
0.0
 10
13.4701888294
 20
7.2568349444
 30
0.0
 10
13.4723307211
 20
7.2625427744
 30
0.0
 10
13.4744269991
 20
7.2685611853
 30
0.0
 10
13.4764734702
 20
7.2748781365
 30
0.0
 10
13.4784660003
 20
7.2814809953
 30
0.0
 10
13.48108664
 20
7.2907954523
 30
0.0
 10
13.4841860222
 20
7.3030583941
 30
0.0
 10
13.4875744026
 20
7.3184659951
 30
0.0
 10
13.4906602632
 20
7.3346654773
 30
0.0
 10
13.4934185331
 20
7.3515268507
 30
0.0
 10
13.4958267883
 20
7.3689149182
 30
0.0
 10
13.4978655063
 20
7.3866900931
 30
0.0
 10
13.4995181901
 20
7.4047096452
 30
0.0
 10
13.5007715033
 20
7.422828843
 30
0.0
 10
13.5016153748
 20
7.4409021452
 30
0.0
 10
13.5020430881
 20
7.4587843723
 30
0.0
 10
13.5020513505
 20
7.4763319459
 30
0.0
 10
13.5016402427
 20
7.4934038768
 30
0.0
 10
13.5009440058
 20
7.507265833
 30
0.0
 10
13.5001727152
 20
7.5180110839
 30
0.0
 10
13.4994987568
 20
7.5257800529
 30
0.0
 10
13.4987244777
 20
7.5333305492
 30
0.0
 10
13.4978514349
 20
7.5406474217
 30
0.0
 10
13.496881436
 20
7.5477159763
 30
0.0
 10
13.4958164103
 20
7.5545220321
 30
0.0
 10
13.4946585718
 20
7.5610519445
 30
0.0
 10
13.4934102473
 20
7.5672926366
 30
0.0
 10
13.4920739767
 20
7.5732316288
 30
0.0
 10
13.4906525061
 20
7.5788570724
 30
0.0
 10
13.4891486639
 20
7.5841577677
 30
0.0
 10
13.4875655448
 20
7.5891232179
 30
0.0
 10
13.4859062903
 20
7.593743635
 30
0.0
 10
13.4841741936
 20
7.598009986
 30
0.0
 10
13.4823726693
 20
7.6019140396
 30
0.0
 10
13.4805050452
 20
7.6054483389
 30
0.0
 10
13.4785747385
 20
7.6086063032
 30
0.0
 10
13.4765848451
 20
7.6113821055
 30
0.0
 10
13.4745382374
 20
7.6137705812
 30
0.0
 10
13.4724371276
 20
7.6157670445
 30
0.0
 10
13.4702839138
 20
7.6173663175
 30
0.0
 10
13.4684209367
 20
7.6183774153
 30
0.0
 10
13.4669196307
 20
7.6189684413
 30
0.0
 10
13.4657998215
 20
7.6193037312
 30
0.0
 10
13.4646715161
 20
7.6195366686
 30
0.0
 10
13.4639128641
 20
7.6196237063
 30
0.0
 10
13.4635339909
 20
7.6196499847
 30
0.0
  0
SPLINE
  5
39E
100
AcDbEntity
  8
0
100
AcDbSpline
 62
7
  6
CONTINUOUS
 70
0
 71
3
 72
21
 73
17
 74
0
 42
0.0000001
 43
0.0000001
 44
0.0000000001
 40
0.0
 40
0.0
 40
0.0
 40
0.0
 40
0.0615939524
 40
0.1232558874
 40
0.1849998474
 40
0.2468392788
 40
0.3087869141
 40
0.3708546805
 40
0.4330536378
 40
0.4953938864
 40
0.5578845106
 40
0.6205334818
 40
0.6833476514
 40
0.7463329639
 40
0.8728046027
 40
1.0
 40
1.0
 40
1.0
 40
1.0
 10
10.1443243221
 20
7.205113673
 30
0.0
 10
10.1394121752
 20
7.2016536858
 30
0.0
 10
10.1294287678
 20
7.1949451908
 30
0.0
 10
10.1140179584
 20
7.1855441913
 30
0.0
 10
10.0981891772
 20
7.1768150006
 30
0.0
 10
10.0819696164
 20
7.1687726837
 30
0.0
 10
10.0653866416
 20
7.1614308524
 30
0.0
 10
10.0484684265
 20
7.1548018761
 30
0.0
 10
10.0312436316
 20
7.1488969708
 30
0.0
 10
10.0137414354
 20
7.1437261978
 30
0.0
 10
9.9959915014
 20
7.1392982215
 30
0.0
 10
9.9780239963
 20
7.1356205256
 30
0.0
 10
9.9598689982
 20
7.132699381
 30
0.0
 10
9.9354236273
 20
7.1298160711
 30
0.0
 10
9.9045432462
 20
7.1281320226
 30
0.0
 10
9.879776251
 20
7.1288359244
 30
0.0
 10
9.8673982854
 20
7.1296943392
 30
0.0
  0
SPLINE
  5
39F
100
AcDbEntity
  8
0
100
AcDbSpline
 62
7
  6
CONTINUOUS
 70
0
 71
3
 72
39
 73
35
 74
0
 42
0.0000001
 43
0.0000001
 44
0.0000000001
 40
0.0
 40
0.0
 40
0.0
 40
0.0
 40
0.0299393047
 40
0.0599022801
 40
0.0899120371
 40
0.1199905837
 40
0.1501583157
 40
0.1804335568
 40
0.2108321569
 40
0.2413671588
 40
0.2720485416
 40
0.3028830442
 40
0.3338740651
 40
0.3650216374
 40
0.3963224781
 40
0.4277701073
 40
0.4593550264
 40
0.4910649494
 40
0.522885082
 40
0.5547984439
 40
0.586786223
 40
0.6188281554
 40
0.6509029262
 40
0.6829885862
 40
0.7150629769
 40
0.7471041563
 40
0.7790908245
 40
0.8110027389
 40
0.842821116
 40
0.8745290096
 40
0.9061116585
 40
0.9375568878
 40
0.9688549526
 40
1.0
 40
1.0
 40
1.0
 40
1.0
 10
9.2613687292
 20
7.7476282453
 30
0.0
 10
9.2525410953
 20
7.7391014119
 30
0.0
 10
9.2355400128
 20
7.721340892
 30
0.0
 10
9.2121911118
 20
7.6927748969
 30
0.0
 10
9.1911085588
 20
7.6624254876
 30
0.0
 10
9.1724071347
 20
7.6304573269
 30
0.0
 10
9.1561860895
 20
7.5970410883
 30
0.0
 10
9.1425320477
 20
7.5623558437
 30
0.0
 10
9.1315176524
 20
7.5265871886
 30
0.0
 10
9.1232013664
 20
7.4899264959
 30
0.0
 10
9.1176271629
 20
7.4525697884
 30
0.0
 10
9.11482436
 20
7.4147166981
 30
0.0
 10
9.114807491
 20
7.3765694015
 30
0.0
 10
9.1175761987
 20
7.3383315515
 30
0.0
 10
9.1231152489
 20
7.3002071862
 30
0.0
 10
9.1313946926
 20
7.2623996563
 30
0.0
 10
9.1423700279
 20
7.2251105593
 30
0.0
 10
9.1559824327
 20
7.1885386815
 30
0.0
 10
9.1721590259
 20
7.1528789266
 30
0.0
 10
9.1908133404
 20
7.1183213146
 30
0.0
 10
9.2118457709
 20
7.0850499838
 30
0.0
 10
9.235144108
 20
7.0532422327
 30
0.0
 10
9.260584066
 20
7.0230675371
 30
0.0
 10
9.2880299992
 20
6.9946866903
 30
0.0
 10
9.3173356226
 20
6.9682509644
 30
0.0
 10
9.3483447862
 20
6.9439013244
 30
0.0
 10
9.3808922539
 20
6.9217676342
 30
0.0
 10
9.4148045989
 20
6.9019679763
 30
0.0
 10
9.4499011177
 20
6.8846080661
 30
0.0
 10
9.4859948563
 20
6.8697806928
 30
0.0
 10
9.5228932851
 20
6.8575651846
 30
0.0
 10
9.5604003511
 20
6.8480269986
 30
0.0
 10
9.5983135049
 20
6.8412173839
 30
0.0
 10
9.6237948937
 20
6.8385141229
 30
0.0
 10
9.6365318877
 20
6.8376308094
 30
0.0
  0
SPLINE
  5
3A0
100
AcDbEntity
  8
0
100
AcDbSpline
 62
7
  6
CONTINUOUS
 70
0
 71
3
 72
45
 73
41
 74
0
 42
0.0000001
 43
0.0000001
 44
0.0000000001
 40
0.0
 40
0.0
 40
0.0
 40
0.0
 40
0.0149735785
 40
0.0299663366
 40
0.0449801909
 40
0.0600169617
 40
0.0901615913
 40
0.1204169945
 40
0.1355917011
 40
0.150797785
 40
0.1660361962
 40
0.1813077369
 40
0.2119484963
 40
0.2427277944
 40
0.273646719
 40
0.3047039792
 40
0.3358959587
 40
0.367216806
 40
0.398658558
 40
0.4302112931
 40
0.4618633118
 40
0.4936013392
 40
0.5254107476
 40
0.5572757945
 40
0.5891798734
 40
0.621105774
 40
0.6530359498
 40
0.6849527881
 40
0.7168388816
 40
0.7486772978
 40
0.780451843
 40
0.8121473185
 40
0.8437497632
 40
0.8595140617
 40
0.8752505569
 40
0.9066311404
 40
0.9378865327
 40
0.9534668161
 40
0.9690135885
 40
1.0
 40
1.0
 40
1.0
 40
1.0
 10
9.3618472625
 20
7.8216313678
 30
0.0
 10
9.3590258
 20
7.8168949639
 30
0.0
 10
9.3535433708
 20
7.8073172132
 30
0.0
 10
9.3458169152
 20
7.7926653652
 30
0.0
 10
9.3385905117
 20
7.7777342732
 30
0.0
 10
9.3296258889
 20
7.7574610652
 30
0.0
 10
9.3197077548
 20
7.7314925631
 30
0.0
 10
9.3115667773
 20
7.7048606434
 30
0.0
 10
9.3061290837
 20
7.683203829
 30
0.0
 10
9.3025887287
 20
7.6667814031
 30
0.0
 10
9.2995946681
 20
7.6502144374
 30
0.0
 10
9.2963318015
 20
7.6279336841
 30
0.0
 10
9.2936373527
 20
7.5998029635
 30
0.0
 10
9.2926307541
 20
7.5657959858
 30
0.0
 10
9.2938506361
 20
7.5316420921
 30
0.0
 10
9.2972917168
 20
7.4974879148
 30
0.0
 10
9.3029390427
 20
7.4634787882
 30
0.0
 10
9.3107683345
 20
7.4297597278
 30
0.0
 10
9.3207460235
 20
7.3964743899
 30
0.0
 10
9.3328294123
 20
7.3637645798
 30
0.0
 10
9.3469668566
 20
7.3317696226
 30
0.0
 10
9.3630979914
 20
7.3006257859
 30
0.0
 10
9.3811539876
 20
7.2704657026
 30
0.0
 10
9.4010578447
 20
7.2414178129
 30
0.0
 10
9.4227247178
 20
7.2136058227
 30
0.0
 10
9.4460622759
 20
7.1871481811
 30
0.0
 10
9.4709710946
 20
7.1621575808
 30
0.0
 10
9.4973450696
 20
7.1387404836
 30
0.0
 10
9.5250718903
 20
7.1169966624
 30
0.0
 10
9.554033416
 20
7.0970188078
 30
0.0
 10
9.5841065307
 20
7.0788920107
 30
0.0
 10
9.6151623508
 20
7.0626938811
 30
0.0
 10
9.64177582
 20
7.050849384
 30
0.0
 10
9.6634245411
 20
7.0424056328
 30
0.0
 10
9.685250077
 20
7.0346711561
 30
0.0
 10
9.7128915912
 20
7.0263179062
 30
0.0
 10
9.7409508317
 20
7.019744634
 30
0.0
 10
9.7635428318
 20
7.0155831029
 30
0.0
 10
9.7861578616
 20
7.0121630088
 30
0.0
 10
9.8032177572
 20
7.0104199864
 30
0.0
 10
9.8145992438
 20
7.0096306776
 30
0.0
  0
SPLINE
  5
3A1
100
AcDbEntity
  8
0
100
AcDbSpline
 62
7
  6
CONTINUOUS
 70
0
 71
3
 72
42
 73
38
 74
0
 42
0.0000001
 43
0.0000001
 44
0.0000000001
 40
0.0
 40
0.0
 40
0.0
 40
0.0
 40
0.0299318279
 40
0.0599336148
 40
0.0749684732
 40
0.0900270166
 40
0.1051110802
 40
0.1202223807
 40
0.150528196
 40
0.180960108
 40
0.2115266215
 40
0.242233691
 40
0.2576432982
 40
0.2730890677
 40
0.3040845798
 40
0.3352226994
 40
0.3664989184
 40
0.397906286
 40
0.4294355605
 40
0.461075396
 40
0.4928125582
 40
0.5246321665
 40
0.5565179575
 40
0.5884525649
 40
0.6204178136
 40
0.6523950224
 40
0.6843653129
 40
0.7163099206
 40
0.7482105047
 40
0.7800494531
 40
0.8118101798
 40
0.843477407
 40
0.8750374419
 40
0.9064783856
 40
0.9377905098
 40
0.9689659496
 40
1.0
 40
1.0
 40
1.0
 40
1.0
 10
9.4051868036
 20
7.842717692
 30
0.0
 10
9.3989152595
 20
7.833817682
 30
0.0
 10
9.3869965542
 20
7.8155373174
 30
0.0
 10
9.3737692101
 20
7.7916626093
 30
0.0
 10
9.3642119748
 20
7.7719985215
 30
0.0
 10
9.3575577572
 20
7.7569687925
 30
0.0
 10
9.3514306636
 20
7.741686609
 30
0.0
 10
9.3439670381
 20
7.720979517
 30
0.0
 10
9.3359900888
 20
7.6945418737
 30
0.0
 10
9.3286355833
 20
7.6621274434
 30
0.0
 10
9.323521209
 20
7.629137521
 30
0.0
 10
9.321148204
 20
7.6013214609
 30
0.0
 10
9.3203840751
 20
7.5789374448
 30
0.0
 10
9.320378095
 20
7.5564354188
 30
0.0
 10
9.3217996912
 20
7.5282285994
 30
0.0
 10
9.3257740924
 20
7.4944593502
 30
0.0
 10
9.3320005631
 20
7.4608791601
 30
0.0
 10
9.3404504782
 20
7.4276421226
 30
0.0
 10
9.3510850872
 20
7.394899483
 30
0.0
 10
9.3638557172
 20
7.3628005414
 30
0.0
 10
9.378703992
 20
7.3314915537
 30
0.0
 10
9.3955620909
 20
7.3011151831
 30
0.0
 10
9.4143530663
 20
7.2718098283
 30
0.0
 10
9.4349911948
 20
7.243709009
 30
0.0
 10
9.4573823654
 20
7.2169407615
 30
0.0
 10
9.4814245052
 20
7.1916270616
 30
0.0
 10
9.5070080414
 20
7.1678832742
 30
0.0
 10
9.5340163952
 20
7.1458176318
 30
0.0
 10
9.56232651
 20
7.1255307466
 30
0.0
 10
9.5918094008
 20
7.1071151493
 30
0.0
 10
9.6223307421
 20
7.090654869
 30
0.0
 10
9.6537514605
 20
7.076225053
 30
0.0
 10
9.6859284206
 20
7.0638916434
 30
0.0
 10
9.7187148575
 20
7.0537110236
 30
0.0
 10
9.751961818
 20
7.0457298689
 30
0.0
 10
9.7855157826
 20
7.0399848229
 30
0.0
 10
9.8080446558
 20
7.0376575608
 30
0.0
 10
9.8193062611
 20
7.0368765658
 30
0.0
  0
SPLINE
  5
3A2
100
AcDbEntity
  8
0
100
AcDbSpline
 62
7
  6
CONTINUOUS
 70
0
 71
3
 72
44
 73
40
 74
0
 42
0.0000001
 43
0.0000001
 44
0.0000000001
 40
0.0
 40
0.0
 40
0.0
 40
0.0
 40
0.0149724263
 40
0.0299637806
 40
0.044976004
 40
0.0600109418
 40
0.0901513665
 40
0.1204020455
 40
0.1355742672
 40
0.1507778123
 40
0.181278328
 40
0.2119139443
 40
0.2426883047
 40
0.2736026434
 40
0.3046557967
 40
0.3358442542
 40
0.3671622488
 40
0.3986018792
 40
0.4301532637
 40
0.4618047206
 40
0.4935429726
 40
0.5253533695
 40
0.5572201289
 40
0.5891265884
 40
0.6210554689
 40
0.6529891436
 40
0.6849099115
 40
0.7168002718
 40
0.7327305786
 40
0.7486469527
 40
0.7804261481
 40
0.8121263224
 40
0.8437334247
 40
0.8752348901
 40
0.9066198122
 40
0.9378792844
 40
0.9534614928
 40
0.9690101517
 40
1.0
 40
1.0
 40
1.0
 40
1.0
 10
9.4231738007
 20
7.8500754275
 30
0.0
 10
9.4204450113
 20
7.8455495763
 30
0.0
 10
9.4151411454
 20
7.8363963123
 30
0.0
 10
9.4076620291
 20
7.8223898163
 30
0.0
 10
9.4006622347
 20
7.8081127513
 30
0.0
 10
9.3919724157
 20
7.7887228962
 30
0.0
 10
9.3823450398
 20
7.7638773192
 30
0.0
 10
9.3744232459
 20
7.7383863105
 30
0.0
 10
9.3691178251
 20
7.7176512855
 30
0.0
 10
9.3644964874
 20
7.6966628873
 30
0.0
 10
9.3600343867
 20
7.6700668792
 30
0.0
 10
9.3568083478
 20
7.6377624636
 30
0.0
 10
9.355717689
 20
7.6051691343
 30
0.0
 10
9.3567670582
 20
7.5724275093
 30
0.0
 10
9.359951653
 20
7.5396776384
 30
0.0
 10
9.3652576143
 20
7.5070598746
 30
0.0
 10
9.3726619956
 20
7.4747138823
 30
0.0
 10
9.3821328932
 20
7.4427781523
 30
0.0
 10
9.3936295794
 20
7.4113893865
 30
0.0
 10
9.407102682
 20
7.3806819267
 30
0.0
 10
9.4224943958
 20
7.3507871846
 30
0.0
 10
9.4397387322
 20
7.3218330843
 30
0.0
 10
9.4587617954
 20
7.2939435244
 30
0.0
 10
9.4794821178
 20
7.2672378391
 30
0.0
 10
9.5018109313
 20
7.2418303446
 30
0.0
 10
9.5256528265
 20
7.2178296574
 30
0.0
 10
9.5509051027
 20
7.1953389655
 30
0.0
 10
9.5730442153
 20
7.17792738
 30
0.0
 10
9.5913514495
 20
7.1648462641
 30
0.0
 10
9.6100191695
 20
7.1523554012
 30
0.0
 10
9.6340211416
 20
7.1378516385
 30
0.0
 10
9.6637831044
 20
7.1222919653
 30
0.0
 10
9.6943653537
 20
7.1086508496
 30
0.0
 10
9.7256365808
 20
7.0969872481
 30
0.0
 10
9.7574623164
 20
7.0873512492
 30
0.0
 10
9.7843636236
 20
7.0810383326
 30
0.0
 10
9.806023607
 20
7.0770424755
 30
0.0
 10
9.8277059618
 20
7.0737591462
 30
0.0
 10
9.8440626404
 20
7.0720866795
 30
0.0
 10
9.8549749815
 20
7.071329906
 30
0.0
  0
SPLINE
  5
3A3
100
AcDbEntity
  8
0
100
AcDbSpline
 62
7
  6
CONTINUOUS
 70
0
 71
3
 72
43
 73
39
 74
0
 42
0.0000001
 43
0.0000001
 44
0.0000000001
 40
0.0
 40
0.0
 40
0.0
 40
0.0
 40
0.0149579341
 40
0.0299291408
 40
0.0449160112
 40
0.0599208587
 40
0.0899883142
 40
0.1201529331
 40
0.1352787115
 40
0.150434025
 40
0.1656203315
 40
0.1808389298
 40
0.2113727036
 40
0.2420472704
 40
0.2728670561
 40
0.3038337161
 40
0.3349461427
 40
0.3662005248
 40
0.3975904539
 40
0.4291070737
 40
0.4607392681
 40
0.4924738817
 40
0.524295971
 40
0.5561890781
 40
0.5881355248
 40
0.6201167214
 40
0.6521134867
 40
0.684106375
 40
0.7160760062
 40
0.7480033952
 40
0.7798702772
 40
0.8116594239
 40
0.8433549453
 40
0.8749425853
 40
0.9064099452
 40
0.937746883
 40
0.968945206
 40
1.0
 40
1.0
 40
1.0
 40
1.0
 10
9.5001051861
 20
7.8720599019
 30
0.0
 10
9.4970824524
 20
7.8680697911
 30
0.0
 10
9.4911800284
 20
7.8599744098
 30
0.0
 10
9.4827728596
 20
7.8475100759
 30
0.0
 10
9.474817741
 20
7.8347335356
 30
0.0
 10
9.464820874
 20
7.8172924415
 30
0.0
 10
9.4534988542
 20
7.7947766493
 30
0.0
 10
9.4438170204
 20
7.7714649912
 30
0.0
 10
9.4370720605
 20
7.7523901863
 30
0.0
 10
9.4325140522
 20
7.7378694046
 30
0.0
 10
9.4284675765
 20
7.7231656467
 30
0.0
 10
9.4237556145
 20
7.7033202561
 30
0.0
 10
9.4191695782
 20
7.6781345026
 30
0.0
 10
9.4157813212
 20
7.6474991203
 30
0.0
 10
9.4145165318
 20
7.6165574641
 30
0.0
 10
9.4153811151
 20
7.5854560128
 30
0.0
 10
9.41837066
 20
7.5543406772
 30
0.0
 10
9.4234708734
 20
7.5233577209
 30
0.0
 10
9.4306575476
 20
7.4926526485
 30
0.0
 10
9.4398967095
 20
7.4623696466
 30
0.0
 10
9.4511447787
 20
7.4326508838
 30
0.0
 10
9.464348769
 20
7.4036358573
 30
0.0
 10
9.4794465426
 20
7.3754607427
 30
0.0
 10
9.4963671058
 20
7.3482577652
 30
0.0
 10
9.5150309408
 20
7.3221545851
 30
0.0
 10
9.5353503771
 20
7.2972737053
 30
0.0
 10
9.5572300002
 20
7.2737319025
 30
0.0
 10
9.5805670958
 20
7.2516396844
 30
0.0
 10
9.6052521273
 20
7.2311007753
 30
0.0
 10
9.6311692464
 20
7.2122116346
 30
0.0
 10
9.6581968248
 20
7.1950609987
 30
0.0
 10
9.6862080289
 20
7.1797294737
 30
0.0
 10
9.7150713935
 20
7.1662891544
 30
0.0
 10
9.7446514882
 20
7.1548033058
 30
0.0
 10
9.7748093437
 20
7.1453260144
 30
0.0
 10
9.8054038386
 20
7.1379020382
 30
0.0
 10
9.8362894568
 20
7.1325664894
 30
0.0
 10
9.857030463
 20
7.1304133502
 30
0.0
 10
9.8673982854
 20
7.1296943392
 30
0.0
  0
SPLINE
  5
3A4
100
AcDbEntity
  8
0
100
AcDbSpline
 62
7
  6
CONTINUOUS
 70
0
 71
3
 72
39
 73
35
 74
0
 42
0.0000001
 43
0.0000001
 44
0.0000000001
 40
0.0
 40
0.0
 40
0.0
 40
0.0
 40
0.0303997532
 40
0.0609107974
 40
0.0915342381
 40
0.1222699129
 40
0.1531164062
 40
0.1840710801
 40
0.215130116
 40
0.2462885677
 40
0.2775404248
 40
0.3088786862
 40
0.340295441
 40
0.3717819583
 40
0.4033287841
 40
0.4349258436
 40
0.4665625474
 40
0.4982279014
 40
0.5299106197
 40
0.5615992392
 40
0.5932822366
 40
0.6249481457
 40
0.6565856747
 40
0.6881838213
 40
0.7197319847
 40
0.751220077
 40
0.7826386278
 40
0.8139788865
 40
0.8452329285
 40
0.8763936954
 40
0.9074552751
 40
0.9384123281
 40
0.9692618694
 40
1.0
 40
1.0
 40
1.0
 40
1.0
 10
9.63661482
 20
7.8808353797
 30
0.0
 10
9.6356108222
 20
7.8729576751
 30
0.0
 10
9.6340253584
 20
7.8571158176
 30
0.0
 10
9.6329207046
 20
7.8332187704
 30
0.0
 10
9.6330878915
 20
7.8092084394
 30
0.0
 10
9.6345265
 20
7.7851531904
 30
0.0
 10
9.6372323773
 20
7.7611203504
 30
0.0
 10
9.6411978533
 20
7.7371774821
 30
0.0
 10
9.6464117181
 20
7.7133918017
 30
0.0
 10
9.6528592673
 20
7.689830098
 30
0.0
 10
9.6605223408
 20
7.6665585182
 30
0.0
 10
9.669379374
 20
7.6436423919
 30
0.0
 10
9.6794054613
 20
7.6211460487
 30
0.0
 10
9.6905724138
 20
7.599132634
 30
0.0
 10
9.7028488405
 20
7.5776639318
 30
0.0
 10
9.7162002473
 20
7.5568001967
 30
0.0
 10
9.730589131
 20
7.5365999859
 30
0.0
 10
9.7459750845
 20
7.5171199964
 30
0.0
 10
9.762314909
 20
7.4984149071
 30
0.0
 10
9.7795627356
 20
7.4805372283
 30
0.0
 10
9.797670147
 20
7.463537149
 30
0.0
 10
9.8165863095
 20
7.4474623909
 30
0.0
 10
9.8362581267
 20
7.4323580858
 30
0.0
 10
9.8566303848
 20
7.4182666482
 30
0.0
 10
9.8776459066
 20
7.4052276572
 30
0.0
 10
9.8992457108
 20
7.3932777466
 30
0.0
 10
9.9213691752
 20
7.3824505037
 30
0.0
 10
9.9439542065
 20
7.3727763667
 30
0.0
 10
9.9669373976
 20
7.3642825478
 30
0.0
 10
9.9902542631
 20
7.356992905
 30
0.0
 10
10.013839227
 20
7.3509280525
 30
0.0
 10
10.0376264379
 20
7.3461049031
 30
0.0
 10
10.0615480649
 20
7.34253736
 30
0.0
 10
10.0775719794
 20
7.3409997135
 30
0.0
 10
10.0855825603
 20
7.3404441778
 30
0.0
  0
SPLINE
  5
3A5
100
AcDbEntity
  8
0
100
AcDbSpline
 62
7
  6
CONTINUOUS
 70
0
 71
3
 72
37
 73
33
 74
0
 42
0.0000001
 43
0.0000001
 44
0.0000000001
 40
0.0
 40
0.0
 40
0.0
 40
0.0
 40
0.0304220462
 40
0.0609548562
 40
0.0915992071
 40
0.122354642
 40
0.153219489
 40
0.1841908921
 40
0.2152648531
 40
0.2464362846
 40
0.2776990731
 40
0.3090461533
 40
0.34046959
 40
0.3719606658
 40
0.4035099736
 40
0.435107516
 40
0.4983858614
 40
0.5617271226
 40
0.5934026513
 40
0.6250600461
 40
0.6566882215
 40
0.6882763854
 40
0.7198141487
 40
0.7512916321
 40
0.7826995652
 40
0.8140293892
 40
0.8452733481
 40
0.8764245422
 40
0.9074772076
 40
0.9384260436
 40
0.9692683633
 40
1.0
 40
1.0
 40
1.0
 40
1.0
 10
9.672439208
 20
7.8769814114
 30
0.0
 10
9.6716085393
 20
7.8696487277
 30
0.0
 10
9.6703369384
 20
7.8549091775
 30
0.0
 10
9.669602807
 20
7.8326919363
 30
0.0
 10
9.6700400608
 20
7.8103854426
 30
0.0
 10
9.671647522
 20
7.7880521808
 30
0.0
 10
9.674420647
 20
7.7657536472
 30
0.0
 10
9.6783517176
 20
7.7435515159
 30
0.0
 10
9.6834298145
 20
7.7215071103
 30
0.0
 10
9.6896408641
 20
7.6996813359
 30
0.0
 10
9.6969676573
 20
7.6781344779
 30
0.0
 10
9.7053898887
 20
7.6569260549
 30
0.0
 10
9.7148842784
 20
7.6361146015
 30
0.0
 10
9.7254244569
 20
7.6157577273
 30
0.0
 10
9.7369816943
 20
7.5959111379
 30
0.0
 10
9.7537092833
 20
7.5701950677
 30
0.0
 10
9.7769941875
 20
7.5396033854
 30
0.0
 10
9.8031782579
 20
7.5114278202
 30
0.0
 10
9.8257013396
 20
7.4905103192
 30
0.0
 10
9.8433363812
 20
7.4756757355
 30
0.0
 10
9.8616620912
 20
7.4617391267
 30
0.0
 10
9.8806282938
 20
7.4487384963
 30
0.0
 10
9.9001824943
 20
7.4367098989
 30
0.0
 10
9.9202707264
 20
7.4256865466
 30
0.0
 10
9.9408375096
 20
7.4156989291
 30
0.0
 10
9.9618260541
 20
7.4067746741
 30
0.0
 10
9.9831783882
 20
7.398938495
 30
0.0
 10
10.0048355662
 20
7.392212038
 30
0.0
 10
10.0267376466
 20
7.3866140268
 30
0.0
 10
10.0488244948
 20
7.3821597844
 30
0.0
 10
10.0710341044
 20
7.3788619964
 30
0.0
 10
10.0859103049
 20
7.3774376938
 30
0.0
 10
10.0933471253
 20
7.3769219486
 30
0.0
  0
SPLINE
  5
3A6
100
AcDbEntity
  8
0
100
AcDbSpline
 62
7
  6
CONTINUOUS
 70
0
 71
3
 72
24
 73
20
 74
0
 42
0.0000001
 43
0.0000001
 44
0.0000000001
 40
0.0
 40
0.0
 40
0.0
 40
0.0
 40
0.0615910481
 40
0.1235177572
 40
0.1857515996
 40
0.2482554355
 40
0.3109846417
 40
0.3738884245
 40
0.4369112586
 40
0.499994407
 40
0.5630775141
 40
0.6261002283
 40
0.6890038174
 40
0.7517327558
 40
0.8142362598
 40
0.8764697218
 40
0.938396066
 40
0.9692414621
 40
1.0
 40
1.0
 40
1.0
 40
1.0
 10
9.7528647679
 20
7.8594290985
 30
0.0
 10
9.7542433727
 20
7.8472113572
 30
0.0
 10
9.7580530285
 20
7.8228147829
 30
0.0
 10
9.7668345208
 20
7.7867463562
 30
0.0
 10
9.7786348301
 20
7.7513554281
 30
0.0
 10
9.7933656752
 20
7.7169076422
 30
0.0
 10
9.8109175233
 20
7.6836570852
 30
0.0
 10
9.8311599889
 20
7.6518501454
 30
0.0
 10
9.8539430037
 20
7.6217222661
 30
0.0
 10
9.8790976063
 20
7.5934964417
 30
0.0
 10
9.9064375145
 20
7.5673817102
 30
0.0
 10
9.9357602862
 20
7.5435715463
 30
0.0
 10
9.9668488215
 20
7.5222423334
 30
0.0
 10
9.9994729264
 20
7.5035523865
 30
0.0
 10
10.03339156
 20
7.4876403426
 30
0.0
 10
10.0683517839
 20
7.4746248041
 30
0.0
 10
10.0981842401
 20
7.4662606822
 30
0.0
 10
10.1223062801
 20
7.4611105164
 30
0.0
 10
10.1344351476
 20
7.4590514884
 30
0.0
 10
10.1405092564
 20
7.4581526486
 30
0.0
  0
SPLINE
  5
3A7
100
AcDbEntity
  8
0
100
AcDbSpline
 62
7
  6
CONTINUOUS
 70
0
 71
3
 72
23
 73
19
 74
0
 42
0.0000001
 43
0.0000001
 44
0.0000000001
 40
0.0
 40
0.0
 40
0.0
 40
0.0
 40
0.0616482071
 40
0.1233194423
 40
0.1850364754
 40
0.2468215648
 40
0.3086962113
 40
0.3706809251
 40
0.4327950039
 40
0.4950563299
 40
0.5574811805
 40
0.6200840695
 40
0.682877611
 40
0.7458723236
 40
0.8090769236
 40
0.8724969197
 40
0.9361382346
 40
1.0
 40
1.0
 40
1.0
 40
1.0
 10
11.4605838715
 20
6.8703525464
 30
0.0
 10
11.4545239567
 20
6.8644991225
 30
0.0
 10
11.4420843713
 20
6.8531137225
 30
0.0
 10
11.4225303257
 20
6.8370598757
 30
0.0
 10
11.402127161
 20
6.8220671674
 30
0.0
 10
11.3809269829
 20
6.8081740339
 30
0.0
 10
11.3589830447
 20
6.7954152649
 30
0.0
 10
11.3363507029
 20
6.7838230123
 30
0.0
 10
11.3130869791
 20
6.7734264207
 30
0.0
 10
11.2892504949
 20
6.7642516334
 30
0.0
 10
11.2649013026
 20
6.7563217058
 30
0.0
 10
11.2401007351
 20
6.749656556
 30
0.0
 10
11.2149112686
 20
6.744272913
 30
0.0
 10
11.1893963007
 20
6.7401842211
 30
0.0
 10
11.1636202062
 20
6.737400776
 30
0.0
 10
11.1376474748
 20
6.7359293736
 30
0.0
 10
11.1115445343
 20
6.7357738104
 30
0.0
 10
11.0941275884
 20
6.7365462042
 30
0.0
 10
11.085420713
 20
6.7371500281
 30
0.0
  0
SPLINE
  5
3A8
100
AcDbEntity
  8
0
100
AcDbSpline
 62
7
  6
CONTINUOUS
 70
0
 71
3
 72
15
 73
11
 74
0
 42
0.0000001
 43
0.0000001
 44
0.0000000001
 40
0.0
 40
0.0
 40
0.0
 40
0.0
 40
0.1233300035
 40
0.2470319918
 40
0.3711707243
 40
0.4958019575
 40
0.6209713123
 40
0.7467140007
 40
0.8730522424
 40
1.0
 40
1.0
 40
1.0
 40
1.0
 10
11.5381277642
 20
6.9682629531
 30
0.0
 10
11.5278709301
 20
6.9626218016
 30
0.0
 10
11.5069015328
 20
6.9520761429
 30
0.0
 10
11.4743265232
 20
6.9385825351
 30
0.0
 10
11.4407380136
 20
6.9274532794
 30
0.0
 10
11.406299804
 20
6.9187428016
 30
0.0
 10
11.3711770812
 20
6.9124922739
 30
0.0
 10
11.3355383537
 20
6.9087315912
 30
0.0
 10
11.299556956
 20
6.907478154
 30
0.0
 10
11.2755083526
 20
6.9083162868
 30
0.0
 10
11.263488069
 20
6.9091498963
 30
0.0
  0
SPLINE
  5
3A9
100
AcDbEntity
  8
0
100
AcDbSpline
 62
7
  6
CONTINUOUS
 70
0
 71
3
 72
19
 73
15
 74
0
 42
0.0000001
 43
0.0000001
 44
0.0000000001
 40
0.0
 40
0.0
 40
0.0
 40
0.0
 40
0.0616005123
 40
0.123275487
 40
0.1850372408
 40
0.2468975041
 40
0.3088673655
 40
0.3709571717
 40
0.4331764723
 40
0.4955339892
 40
0.620668356
 40
0.7464372759
 40
0.8728743725
 40
1.0
 40
1.0
 40
1.0
 40
1.0
 10
11.5606331788
 20
7.0108106147
 30
0.0
 10
11.5553565596
 20
7.0073589637
 30
0.0
 10
11.5446512508
 20
7.000671332
 30
0.0
 10
11.5281793859
 20
6.9913119829
 30
0.0
 10
11.5113088834
 20
6.9826329185
 30
0.0
 10
11.4940660394
 20
6.9746475671
 30
0.0
 10
11.4764771373
 20
6.9673681437
 30
0.0
 10
11.4585692677
 20
6.9608058593
 30
0.0
 10
11.4403695206
 20
6.9549705968
 30
0.0
 10
11.4157264241
 20
6.9481645542
 30
0.0
 10
11.3843187136
 20
6.9415206117
 30
0.0
 10
11.3459705599
 20
6.9365855581
 30
0.0
 10
11.3071495726
 20
6.9347057655
 30
0.0
 10
11.2811761887
 20
6.935495542
 30
0.0
 10
11.2681950864
 20
6.9363957845
 30
0.0
  0
SPLINE
  5
3AA
100
AcDbEntity
  8
0
100
AcDbSpline
 62
7
  6
CONTINUOUS
 70
0
 71
3
 72
15
 73
11
 74
0
 42
0.0000001
 43
0.0000001
 44
0.0000000001
 40
0.0
 40
0.0
 40
0.0
 40
0.0
 40
0.1233237137
 40
0.2470184172
 40
0.3711505349
 40
0.4957773122
 40
0.6209456154
 40
0.7466916675
 40
0.8730383423
 40
1.0
 40
1.0
 40
1.0
 40
1.0
 10
11.568652643
 20
7.0285524417
 30
0.0
 10
11.558785064
 20
7.0230574251
 30
0.0
 10
11.5386025998
 20
7.0127825861
 30
0.0
 10
11.5072274315
 20
6.9996296808
 30
0.0
 10
11.474857123
 20
6.9887758125
 30
0.0
 10
11.4416523788
 20
6.9802750106
 30
0.0
 10
11.4077753365
 20
6.9741681817
 30
0.0
 10
11.3733914529
 20
6.9704850599
 30
0.0
 10
11.3386709696
 20
6.9692429945
 30
0.0
 10
11.3154635599
 20
6.9700446791
 30
0.0
 10
11.3038638068
 20
6.9708491247
 30
0.0
  0
SPLINE
  5
3AB
100
AcDbEntity
  8
0
100
AcDbSpline
 62
7
  6
CONTINUOUS
 70
0
 71
3
 72
21
 73
17
 74
0
 42
0.0000001
 43
0.0000001
 44
0.0000000001
 40
0.0
 40
0.0
 40
0.0
 40
0.0
 40
0.0615939524
 40
0.1232558874
 40
0.1849998474
 40
0.2468392788
 40
0.3087869141
 40
0.3708546805
 40
0.4330536378
 40
0.4953938864
 40
0.5578845106
 40
0.6205334818
 40
0.6833476514
 40
0.7463329639
 40
0.8728046027
 40
1.0
 40
1.0
 40
1.0
 40
1.0
 10
11.5932131474
 20
7.1046328917
 30
0.0
 10
11.5883010005
 20
7.1011729045
 30
0.0
 10
11.5783175931
 20
7.0944644095
 30
0.0
 10
11.5629067837
 20
7.08506341
 30
0.0
 10
11.5470780025
 20
7.0763342193
 30
0.0
 10
11.5308584417
 20
7.0682919024
 30
0.0
 10
11.5142754669
 20
7.0609500711
 30
0.0
 10
11.4973572518
 20
7.0543210948
 30
0.0
 10
11.4801324569
 20
7.0484161895
 30
0.0
 10
11.4626302607
 20
7.0432454165
 30
0.0
 10
11.4448803267
 20
7.0388174402
 30
0.0
 10
11.4269128215
 20
7.0351397443
 30
0.0
 10
11.4087578235
 20
7.0322185997
 30
0.0
 10
11.3843124526
 20
7.0293352898
 30
0.0
 10
11.3534320715
 20
7.0276512413
 30
0.0
 10
11.3286650763
 20
7.0283551431
 30
0.0
 10
11.3162871107
 20
7.0292135579
 30
0.0
  0
SPLINE
  5
3AC
100
AcDbEntity
  8
0
100
AcDbSpline
 62
7
  6
CONTINUOUS
 70
0
 71
3
 72
39
 73
35
 74
0
 42
0.0000001
 43
0.0000001
 44
0.0000000001
 40
0.0
 40
0.0
 40
0.0
 40
0.0
 40
0.0299393047
 40
0.0599022801
 40
0.0899120371
 40
0.1199905837
 40
0.1501583157
 40
0.1804335568
 40
0.2108321569
 40
0.2413671588
 40
0.2720485416
 40
0.3028830442
 40
0.3338740651
 40
0.3650216374
 40
0.3963224781
 40
0.4277701073
 40
0.4593550264
 40
0.4910649494
 40
0.522885082
 40
0.5547984439
 40
0.586786223
 40
0.6188281554
 40
0.6509029262
 40
0.6829885862
 40
0.7150629769
 40
0.7471041563
 40
0.7790908245
 40
0.8110027389
 40
0.842821116
 40
0.8745290096
 40
0.9061116585
 40
0.9375568878
 40
0.9688549526
 40
1.0
 40
1.0
 40
1.0
 40
1.0
 10
10.7102575544
 20
7.647147464
 30
0.0
 10
10.7014299206
 20
7.6386206306
 30
0.0
 10
10.6844288381
 20
7.6208601107
 30
0.0
 10
10.6610799371
 20
7.5922941156
 30
0.0
 10
10.639997384
 20
7.5619447063
 30
0.0
 10
10.62129596
 20
7.5299765456
 30
0.0
 10
10.6050749148
 20
7.496560307
 30
0.0
 10
10.5914208729
 20
7.4618750624
 30
0.0
 10
10.5804064777
 20
7.4261064073
 30
0.0
 10
10.5720901917
 20
7.3894457146
 30
0.0
 10
10.5665159882
 20
7.3520890071
 30
0.0
 10
10.5637131853
 20
7.3142359167
 30
0.0
 10
10.5636963163
 20
7.2760886202
 30
0.0
 10
10.5664650239
 20
7.2378507701
 30
0.0
 10
10.5720040742
 20
7.1997264048
 30
0.0
 10
10.5802835179
 20
7.1619188749
 30
0.0
 10
10.5912588532
 20
7.1246297779
 30
0.0
 10
10.6048712579
 20
7.0880579002
 30
0.0
 10
10.6210478511
 20
7.0523981453
 30
0.0
 10
10.6397021657
 20
7.0178405333
 30
0.0
 10
10.6607345962
 20
6.9845692025
 30
0.0
 10
10.6840329333
 20
6.9527614514
 30
0.0
 10
10.7094728913
 20
6.9225867558
 30
0.0
 10
10.7369188245
 20
6.894205909
 30
0.0
 10
10.7662244479
 20
6.8677701831
 30
0.0
 10
10.7972336115
 20
6.8434205431
 30
0.0
 10
10.8297810792
 20
6.8212868529
 30
0.0
 10
10.8636934242
 20
6.801487195
 30
0.0
 10
10.898789943
 20
6.7841272848
 30
0.0
 10
10.9348836816
 20
6.7692999115
 30
0.0
 10
10.9717821104
 20
6.7570844033
 30
0.0
 10
11.0092891764
 20
6.7475462173
 30
0.0
 10
11.0472023302
 20
6.7407366026
 30
0.0
 10
11.072683719
 20
6.7380333416
 30
0.0
 10
11.085420713
 20
6.7371500281
 30
0.0
  0
SPLINE
  5
3AD
100
AcDbEntity
  8
0
100
AcDbSpline
 62
7
  6
CONTINUOUS
 70
0
 71
3
 72
45
 73
41
 74
0
 42
0.0000001
 43
0.0000001
 44
0.0000000001
 40
0.0
 40
0.0
 40
0.0
 40
0.0
 40
0.0149735785
 40
0.0299663366
 40
0.0449801909
 40
0.0600169617
 40
0.0901615913
 40
0.1204169945
 40
0.1355917011
 40
0.150797785
 40
0.1660361962
 40
0.1813077369
 40
0.2119484963
 40
0.2427277944
 40
0.273646719
 40
0.3047039792
 40
0.3358959587
 40
0.367216806
 40
0.398658558
 40
0.4302112931
 40
0.4618633118
 40
0.4936013392
 40
0.5254107476
 40
0.5572757945
 40
0.5891798734
 40
0.621105774
 40
0.6530359498
 40
0.6849527881
 40
0.7168388816
 40
0.7486772978
 40
0.780451843
 40
0.8121473185
 40
0.8437497632
 40
0.8595140617
 40
0.8752505569
 40
0.9066311404
 40
0.9378865327
 40
0.9534668161
 40
0.9690135885
 40
1.0
 40
1.0
 40
1.0
 40
1.0
 10
10.8107360878
 20
7.7211505865
 30
0.0
 10
10.8079146253
 20
7.7164141825
 30
0.0
 10
10.802432196
 20
7.7068364319
 30
0.0
 10
10.7947057405
 20
7.6921845839
 30
0.0
 10
10.787479337
 20
7.6772534919
 30
0.0
 10
10.7785147142
 20
7.6569802839
 30
0.0
 10
10.7685965801
 20
7.6310117818
 30
0.0
 10
10.7604556025
 20
7.6043798621
 30
0.0
 10
10.7550179089
 20
7.5827230477
 30
0.0
 10
10.751477554
 20
7.5663006218
 30
0.0
 10
10.7484834934
 20
7.5497336561
 30
0.0
 10
10.7452206268
 20
7.5274529028
 30
0.0
 10
10.742526178
 20
7.4993221822
 30
0.0
 10
10.7415195794
 20
7.4653152045
 30
0.0
 10
10.7427394614
 20
7.4311613108
 30
0.0
 10
10.7461805421
 20
7.3970071335
 30
0.0
 10
10.7518278679
 20
7.3629980069
 30
0.0
 10
10.7596571598
 20
7.3292789465
 30
0.0
 10
10.7696348488
 20
7.2959936086
 30
0.0
 10
10.7817182376
 20
7.2632837985
 30
0.0
 10
10.7958556819
 20
7.2312888413
 30
0.0
 10
10.8119868167
 20
7.2001450046
 30
0.0
 10
10.8300428128
 20
7.1699849212
 30
0.0
 10
10.84994667
 20
7.1409370316
 30
0.0
 10
10.8716135431
 20
7.1131250414
 30
0.0
 10
10.8949511012
 20
7.0866673998
 30
0.0
 10
10.9198599199
 20
7.0616767995
 30
0.0
 10
10.9462338948
 20
7.0382597023
 30
0.0
 10
10.9739607156
 20
7.0165158811
 30
0.0
 10
11.0029222413
 20
6.9965380265
 30
0.0
 10
11.032995356
 20
6.9784112294
 30
0.0
 10
11.0640511761
 20
6.9622130998
 30
0.0
 10
11.0906646453
 20
6.9503686027
 30
0.0
 10
11.1123133664
 20
6.9419248515
 30
0.0
 10
11.1341389023
 20
6.9341903748
 30
0.0
 10
11.1617804165
 20
6.9258371249
 30
0.0
 10
11.189839657
 20
6.9192638526
 30
0.0
 10
11.2124316571
 20
6.9151023216
 30
0.0
 10
11.2350466869
 20
6.9116822275
 30
0.0
 10
11.2521065825
 20
6.9099392051
 30
0.0
 10
11.263488069
 20
6.9091498963
 30
0.0
  0
SPLINE
  5
3AE
100
AcDbEntity
  8
0
100
AcDbSpline
 62
7
  6
CONTINUOUS
 70
0
 71
3
 72
71
 73
67
 74
0
 42
0.0000001
 43
0.0000001
 44
0.0000000001
 40
0.0
 40
0.0
 40
0.0
 40
0.0
 40
0.0156747439
 40
0.0314022082
 40
0.0471806388
 40
0.0630088954
 40
0.0788847426
 40
0.0948057519
 40
0.1107690087
 40
0.1267712324
 40
0.1428087906
 40
0.1588777352
 40
0.1749738406
 40
0.1910926413
 40
0.2072294725
 40
0.2233795109
 40
0.239537818
 40
0.255699384
 40
0.2718591706
 40
0.2880121553
 40
0.3041533743
 40
0.3202779661
 40
0.3363812146
 40
0.3524585914
 40
0.3685057961
 40
0.3845187957
 40
0.4004938614
 40
0.4164276041
 40
0.4323170079
 40
0.4481594607
 40
0.4639527819
 40
0.4796952457
 40
0.4953856017
 40
0.5110230908
 40
0.5266074579
 40
0.5421389597
 40
0.5576183678
 40
0.5730469656
 40
0.5884265412
 40
0.6037593735
 40
0.6190482143
 40
0.6342962647
 40
0.6495071464
 40
0.6646848669
 40
0.6798337803
 40
0.6949585438
 40
0.7100640694
 40
0.7251554736
 40
0.7402380233
 40
0.7553170806
 40
0.7703980447
 40
0.7854862946
 40
0.8005871313
 40
0.8157057213
 40
0.830847042
 40
0.8460158305
 40
0.8612165344
 40
0.8764532676
 40
0.8917297685
 40
0.907049366
 40
0.9224149485
 40
0.9378289216
 40
0.953293278
 40
0.9688092644
 40
0.9843782511
 40
1.0
 40
1.0
 40
1.0
 40
1.0
 10
11.0773973339
 20
7.8025436776
 30
0.0
 10
11.0864362179
 20
7.8019168289
 30
0.0
 10
11.1045166994
 20
7.8002176007
 30
0.0
 10
11.1315235109
 20
7.7963503417
 30
0.0
 10
11.1584002911
 20
7.7911693059
 30
0.0
 10
11.1850812911
 20
7.7846873295
 30
0.0
 10
11.2115026594
 20
7.7769198837
 30
0.0
 10
11.2376006659
 20
7.7678858064
 30
0.0
 10
11.2633125201
 20
7.7576068464
 30
0.0
 10
11.2885763245
 20
7.7461078037
 30
0.0
 10
11.3133312773
 20
7.7334164031
 30
0.0
 10
11.3375178001
 20
7.7195632302
 30
0.0
 10
11.361077683
 20
7.704581659
 30
0.0
 10
11.3839542231
 20
7.688507771
 30
0.0
 10
11.4060923581
 20
7.6713802688
 30
0.0
 10
11.4274388012
 20
7.6532403886
 30
0.0
 10
11.4479421814
 20
7.6341318124
 30
0.0
 10
11.4675531514
 20
7.6141005446
 30
0.0
 10
11.4862245078
 20
7.5931948042
 30
0.0
 10
11.5039113023
 20
7.5714649093
 30
0.0
 10
11.5205709499
 20
7.548963158
 30
0.0
 10
11.5361633278
 20
7.5257437023
 30
0.0
 10
11.5506508918
 20
7.501862431
 30
0.0
 10
11.5639987544
 20
7.4773768248
 30
0.0
 10
11.5761747624
 20
7.4523458158
 30
0.0
 10
11.5871495751
 20
7.4268296483
 30
0.0
 10
11.5968967349
 20
7.4008897358
 30
0.0
 10
11.6053927276
 20
7.3745885131
 30
0.0
 10
11.6126170524
 20
7.3479892924
 30
0.0
 10
11.618552278
 20
7.3211561102
 30
0.0
 10
11.6231840659
 20
7.2941535687
 30
0.0
 10
11.6265012084
 20
7.2670466831
 30
0.0
 10
11.6284956557
 20
7.2399007268
 30
0.0
 10
11.6291625359
 20
7.2127810764
 30
0.0
 10
11.6285001683
 20
7.1857530551
 30
0.0
 10
11.6265100928
 20
7.1588817748
 30
0.0
 10
11.6231970433
 20
7.1322319776
 30
0.0
 10
11.618568938
 20
7.1058678822
 30
0.0
 10
11.6126368616
 20
7.0798530298
 30
0.0
 10
11.6054150416
 20
7.0542501315
 30
0.0
 10
11.5969208119
 20
7.0291209189
 30
0.0
 10
11.5871745929
 20
7.0045259876
 30
0.0
 10
11.576199837
 20
6.9805246491
 30
0.0
 10
11.5640229598
 20
6.957174792
 30
0.0
 10
11.5506732814
 20
6.9345327407
 30
0.0
 10
11.5361829559
 20
6.9126531189
 30
0.0
 10
11.5205868943
 20
6.8915887173
 30
0.0
 10
11.5039226855
 20
6.8713903614
 30
0.0
 10
11.4862305188
 20
6.8521067738
 30
0.0
 10
11.4675530642
 20
6.8337844698
 30
0.0
 10
11.447935373
 20
6.8164676426
 30
0.0
 10
11.4274247665
 20
6.8001980564
 30
0.0
 10
11.4060707221
 20
6.7850149446
 30
0.0
 10
11.3839247513
 20
6.7709549177
 30
0.0
 10
11.361040287
 20
6.7580518526
 30
0.0
 10
11.3374725401
 20
6.7463368247
 30
0.0
 10
11.3132783627
 20
6.7358380387
 30
0.0
 10
11.2885161094
 20
6.7265807618
 30
0.0
 10
11.2632454974
 20
6.7185872627
 30
0.0
 10
11.2375274579
 20
6.7118767608
 30
0.0
 10
11.2114240074
 20
6.7064653822
 30
0.0
 10
11.1849980349
 20
6.7023660618
 30
0.0
 10
11.1583133662
 20
6.6995886832
 30
0.0
 10
11.1314339063
 20
6.698139733
 30
0.0
 10
11.1044254716
 20
6.6980227982
 30
0.0
 10
11.0864056582
 20
6.6988316242
 30
0.0
 10
11.0773973339
 20
6.6994563537
 30
0.0
  0
SPLINE
  5
3AF
100
AcDbEntity
  8
0
100
AcDbSpline
 62
7
  6
CONTINUOUS
 70
0
 71
3
 72
42
 73
38
 74
0
 42
0.0000001
 43
0.0000001
 44
0.0000000001
 40
0.0
 40
0.0
 40
0.0
 40
0.0
 40
0.0299318279
 40
0.0599336148
 40
0.0749684732
 40
0.0900270166
 40
0.1051110802
 40
0.1202223807
 40
0.150528196
 40
0.180960108
 40
0.2115266215
 40
0.242233691
 40
0.2576432982
 40
0.2730890677
 40
0.3040845798
 40
0.3352226994
 40
0.3664989184
 40
0.397906286
 40
0.4294355605
 40
0.461075396
 40
0.4928125582
 40
0.5246321665
 40
0.5565179575
 40
0.5884525649
 40
0.6204178136
 40
0.6523950224
 40
0.6843653129
 40
0.7163099206
 40
0.7482105047
 40
0.7800494531
 40
0.8118101798
 40
0.843477407
 40
0.8750374419
 40
0.9064783856
 40
0.9377905098
 40
0.9689659496
 40
1.0
 40
1.0
 40
1.0
 40
1.0
 10
10.8540756289
 20
7.7422369107
 30
0.0
 10
10.8478040848
 20
7.7333369007
 30
0.0
 10
10.8358853794
 20
7.7150565361
 30
0.0
 10
10.8226580353
 20
7.691181828
 30
0.0
 10
10.8131008001
 20
7.6715177402
 30
0.0
 10
10.8064465824
 20
7.6564880111
 30
0.0
 10
10.8003194889
 20
7.6412058277
 30
0.0
 10
10.7928558634
 20
7.6204987357
 30
0.0
 10
10.7848789141
 20
7.5940610924
 30
0.0
 10
10.7775244086
 20
7.5616466621
 30
0.0
 10
10.7724100343
 20
7.5286567397
 30
0.0
 10
10.7700370293
 20
7.5008406796
 30
0.0
 10
10.7692729004
 20
7.4784566635
 30
0.0
 10
10.7692669202
 20
7.4559546375
 30
0.0
 10
10.7706885165
 20
7.4277478181
 30
0.0
 10
10.7746629177
 20
7.3939785689
 30
0.0
 10
10.7808893884
 20
7.3603983788
 30
0.0
 10
10.7893393035
 20
7.3271613413
 30
0.0
 10
10.7999739125
 20
7.2944187017
 30
0.0
 10
10.8127445425
 20
7.2623197601
 30
0.0
 10
10.8275928173
 20
7.2310107724
 30
0.0
 10
10.8444509162
 20
7.2006344018
 30
0.0
 10
10.8632418916
 20
7.171329047
 30
0.0
 10
10.8838800201
 20
7.1432282277
 30
0.0
 10
10.9062711906
 20
7.1164599802
 30
0.0
 10
10.9303133305
 20
7.0911462803
 30
0.0
 10
10.9558968667
 20
7.0674024929
 30
0.0
 10
10.9829052205
 20
7.0453368505
 30
0.0
 10
11.0112153352
 20
7.0250499653
 30
0.0
 10
11.0406982261
 20
7.006634368
 30
0.0
 10
11.0712195674
 20
6.9901740876
 30
0.0
 10
11.1026402858
 20
6.9757442717
 30
0.0
 10
11.1348172459
 20
6.9634108621
 30
0.0
 10
11.1676036828
 20
6.9532302423
 30
0.0
 10
11.2008506433
 20
6.9452490876
 30
0.0
 10
11.2344046079
 20
6.9395040416
 30
0.0
 10
11.2569334811
 20
6.9371767795
 30
0.0
 10
11.2681950864
 20
6.9363957845
 30
0.0
  0
SPLINE
  5
3B0
100
AcDbEntity
  8
0
100
AcDbSpline
 62
7
  6
CONTINUOUS
 70
0
 71
3
 72
44
 73
40
 74
0
 42
0.0000001
 43
0.0000001
 44
0.0000000001
 40
0.0
 40
0.0
 40
0.0
 40
0.0
 40
0.0149724263
 40
0.0299637806
 40
0.044976004
 40
0.0600109418
 40
0.0901513665
 40
0.1204020455
 40
0.1355742672
 40
0.1507778123
 40
0.181278328
 40
0.2119139443
 40
0.2426883047
 40
0.2736026434
 40
0.3046557967
 40
0.3358442542
 40
0.3671622488
 40
0.3986018792
 40
0.4301532637
 40
0.4618047206
 40
0.4935429726
 40
0.5253533695
 40
0.5572201289
 40
0.5891265884
 40
0.6210554689
 40
0.6529891436
 40
0.6849099115
 40
0.7168002718
 40
0.7327305786
 40
0.7486469527
 40
0.7804261481
 40
0.8121263224
 40
0.8437334247
 40
0.8752348901
 40
0.9066198122
 40
0.9378792844
 40
0.9534614928
 40
0.9690101517
 40
1.0
 40
1.0
 40
1.0
 40
1.0
 10
10.872062626
 20
7.7495946462
 30
0.0
 10
10.8693338366
 20
7.745068795
 30
0.0
 10
10.8640299707
 20
7.735915531
 30
0.0
 10
10.8565508544
 20
7.721909035
 30
0.0
 10
10.84955106
 20
7.70763197
 30
0.0
 10
10.840861241
 20
7.6882421149
 30
0.0
 10
10.8312338651
 20
7.6633965379
 30
0.0
 10
10.8233120712
 20
7.6379055291
 30
0.0
 10
10.8180066503
 20
7.6171705042
 30
0.0
 10
10.8133853127
 20
7.5961821059
 30
0.0
 10
10.808923212
 20
7.5695860979
 30
0.0
 10
10.8056971731
 20
7.5372816823
 30
0.0
 10
10.8046065143
 20
7.504688353
 30
0.0
 10
10.8056558834
 20
7.471946728
 30
0.0
 10
10.8088404783
 20
7.4391968571
 30
0.0
 10
10.8141464396
 20
7.4065790933
 30
0.0
 10
10.8215508209
 20
7.374233101
 30
0.0
 10
10.8310217184
 20
7.342297371
 30
0.0
 10
10.8425184047
 20
7.3109086051
 30
0.0
 10
10.8559915073
 20
7.2802011454
 30
0.0
 10
10.8713832211
 20
7.2503064033
 30
0.0
 10
10.8886275575
 20
7.221352303
 30
0.0
 10
10.9076506206
 20
7.1934627431
 30
0.0
 10
10.9283709431
 20
7.1667570578
 30
0.0
 10
10.9506997566
 20
7.1413495633
 30
0.0
 10
10.9745416518
 20
7.1173488761
 30
0.0
 10
10.999793928
 20
7.0948581842
 30
0.0
 10
11.0219330406
 20
7.0774465987
 30
0.0
 10
11.0402402748
 20
7.0643654827
 30
0.0
 10
11.0589079948
 20
7.0518746198
 30
0.0
 10
11.0829099669
 20
7.0373708572
 30
0.0
 10
11.1126719297
 20
7.021811184
 30
0.0
 10
11.143254179
 20
7.0081700683
 30
0.0
 10
11.1745254061
 20
6.9965064668
 30
0.0
 10
11.2063511417
 20
6.9868704679
 30
0.0
 10
11.2332524488
 20
6.9805575513
 30
0.0
 10
11.2549124323
 20
6.9765616942
 30
0.0
 10
11.276594787
 20
6.9732783649
 30
0.0
 10
11.2929514657
 20
6.9716058981
 30
0.0
 10
11.3038638068
 20
6.9708491247
 30
0.0
  0
SPLINE
  5
3B1
100
AcDbEntity
  8
0
100
AcDbSpline
 62
7
  6
CONTINUOUS
 70
0
 71
3
 72
43
 73
39
 74
0
 42
0.0000001
 43
0.0000001
 44
0.0000000001
 40
0.0
 40
0.0
 40
0.0
 40
0.0
 40
0.0149579341
 40
0.0299291408
 40
0.0449160112
 40
0.0599208587
 40
0.0899883142
 40
0.1201529331
 40
0.1352787115
 40
0.150434025
 40
0.1656203315
 40
0.1808389298
 40
0.2113727036
 40
0.2420472704
 40
0.2728670561
 40
0.3038337161
 40
0.3349461427
 40
0.3662005248
 40
0.3975904539
 40
0.4291070737
 40
0.4607392681
 40
0.4924738817
 40
0.524295971
 40
0.5561890781
 40
0.5881355248
 40
0.6201167214
 40
0.6521134867
 40
0.684106375
 40
0.7160760062
 40
0.7480033952
 40
0.7798702772
 40
0.8116594239
 40
0.8433549453
 40
0.8749425853
 40
0.9064099452
 40
0.937746883
 40
0.968945206
 40
1.0
 40
1.0
 40
1.0
 40
1.0
 10
10.9489940114
 20
7.7715791206
 30
0.0
 10
10.9459712776
 20
7.7675890097
 30
0.0
 10
10.9400688537
 20
7.7594936285
 30
0.0
 10
10.9316616849
 20
7.7470292946
 30
0.0
 10
10.9237065663
 20
7.7342527542
 30
0.0
 10
10.9137096992
 20
7.7168116602
 30
0.0
 10
10.9023876795
 20
7.694295868
 30
0.0
 10
10.8927058457
 20
7.6709842098
 30
0.0
 10
10.8859608857
 20
7.651909405
 30
0.0
 10
10.8814028774
 20
7.6373886232
 30
0.0
 10
10.8773564018
 20
7.6226848653
 30
0.0
 10
10.8726444398
 20
7.6028394748
 30
0.0
 10
10.8680584035
 20
7.5776537213
 30
0.0
 10
10.8646701465
 20
7.547018339
 30
0.0
 10
10.8634053571
 20
7.5160766828
 30
0.0
 10
10.8642699404
 20
7.4849752315
 30
0.0
 10
10.8672594853
 20
7.4538598959
 30
0.0
 10
10.8723596987
 20
7.4228769395
 30
0.0
 10
10.8795463729
 20
7.3921718672
 30
0.0
 10
10.8887855348
 20
7.3618888652
 30
0.0
 10
10.900033604
 20
7.3321701025
 30
0.0
 10
10.9132375943
 20
7.3031550759
 30
0.0
 10
10.9283353679
 20
7.2749799614
 30
0.0
 10
10.9452559311
 20
7.2477769839
 30
0.0
 10
10.9639197661
 20
7.2216738038
 30
0.0
 10
10.9842392024
 20
7.196792924
 30
0.0
 10
11.0061188255
 20
7.1732511212
 30
0.0
 10
11.029455921
 20
7.1511589031
 30
0.0
 10
11.0541409525
 20
7.130619994
 30
0.0
 10
11.0800580717
 20
7.1117308533
 30
0.0
 10
11.1070856501
 20
7.0945802173
 30
0.0
 10
11.1350968542
 20
7.0792486924
 30
0.0
 10
11.1639602188
 20
7.0658083731
 30
0.0
 10
11.1935403135
 20
7.0543225245
 30
0.0
 10
11.223698169
 20
7.0448452331
 30
0.0
 10
11.2542926638
 20
7.0374212569
 30
0.0
 10
11.2851782821
 20
7.0320857081
 30
0.0
 10
11.3059192882
 20
7.0299325689
 30
0.0
 10
11.3162871107
 20
7.0292135579
 30
0.0
  0
SPLINE
  5
3B2
100
AcDbEntity
  8
0
100
AcDbSpline
 62
7
  6
CONTINUOUS
 70
0
 71
3
 72
39
 73
35
 74
0
 42
0.0000001
 43
0.0000001
 44
0.0000000001
 40
0.0
 40
0.0
 40
0.0
 40
0.0
 40
0.0303997532
 40
0.0609107974
 40
0.0915342381
 40
0.1222699129
 40
0.1531164062
 40
0.1840710801
 40
0.215130116
 40
0.2462885677
 40
0.2775404248
 40
0.3088786862
 40
0.340295441
 40
0.3717819583
 40
0.4033287841
 40
0.4349258436
 40
0.4665625474
 40
0.4982279014
 40
0.5299106197
 40
0.5615992392
 40
0.5932822366
 40
0.6249481457
 40
0.6565856747
 40
0.6881838213
 40
0.7197319847
 40
0.751220077
 40
0.7826386278
 40
0.8139788865
 40
0.8452329285
 40
0.8763936954
 40
0.9074552751
 40
0.9384123281
 40
0.9692618694
 40
1.0
 40
1.0
 40
1.0
 40
1.0
 10
11.0855036452
 20
7.7803545984
 30
0.0
 10
11.0844996475
 20
7.7724768938
 30
0.0
 10
11.0829141837
 20
7.7566350363
 30
0.0
 10
11.0818095299
 20
7.7327379891
 30
0.0
 10
11.0819767168
 20
7.7087276581
 30
0.0
 10
11.0834153253
 20
7.6846724091
 30
0.0
 10
11.0861212026
 20
7.660639569
 30
0.0
 10
11.0900866786
 20
7.6366967008
 30
0.0
 10
11.0953005434
 20
7.6129110204
 30
0.0
 10
11.1017480926
 20
7.5893493167
 30
0.0
 10
11.1094111661
 20
7.5660777369
 30
0.0
 10
11.1182681993
 20
7.5431616106
 30
0.0
 10
11.1282942866
 20
7.5206652674
 30
0.0
 10
11.1394612391
 20
7.4986518527
 30
0.0
 10
11.1517376658
 20
7.4771831505
 30
0.0
 10
11.1650890726
 20
7.4563194154
 30
0.0
 10
11.1794779562
 20
7.4361192046
 30
0.0
 10
11.1948639098
 20
7.4166392151
 30
0.0
 10
11.2112037343
 20
7.3979341258
 30
0.0
 10
11.2284515609
 20
7.380056447
 30
0.0
 10
11.2465589723
 20
7.3630563677
 30
0.0
 10
11.2654751348
 20
7.3469816096
 30
0.0
 10
11.285146952
 20
7.3318773045
 30
0.0
 10
11.30551921
 20
7.3177858669
 30
0.0
 10
11.3265347319
 20
7.3047468759
 30
0.0
 10
11.3481345361
 20
7.2927969653
 30
0.0
 10
11.3702580004
 20
7.2819697224
 30
0.0
 10
11.3928430318
 20
7.2722955853
 30
0.0
 10
11.4158262229
 20
7.2638017665
 30
0.0
 10
11.4391430884
 20
7.2565121237
 30
0.0
 10
11.4627280523
 20
7.2504472712
 30
0.0
 10
11.4865152632
 20
7.2456241218
 30
0.0
 10
11.5104368902
 20
7.2420565787
 30
0.0
 10
11.5264608047
 20
7.2405189322
 30
0.0
 10
11.5344713856
 20
7.2399633965
 30
0.0
  0
SPLINE
  5
3B3
100
AcDbEntity
  8
0
100
AcDbSpline
 62
7
  6
CONTINUOUS
 70
0
 71
3
 72
37
 73
33
 74
0
 42
0.0000001
 43
0.0000001
 44
0.0000000001
 40
0.0
 40
0.0
 40
0.0
 40
0.0
 40
0.0304220462
 40
0.0609548562
 40
0.0915992071
 40
0.122354642
 40
0.153219489
 40
0.1841908921
 40
0.2152648531
 40
0.2464362846
 40
0.2776990731
 40
0.3090461533
 40
0.34046959
 40
0.3719606658
 40
0.4035099736
 40
0.435107516
 40
0.4983858614
 40
0.5617271226
 40
0.5934026513
 40
0.6250600461
 40
0.6566882215
 40
0.6882763854
 40
0.7198141487
 40
0.7512916321
 40
0.7826995652
 40
0.8140293892
 40
0.8452733481
 40
0.8764245422
 40
0.9074772076
 40
0.9384260436
 40
0.9692683633
 40
1.0
 40
1.0
 40
1.0
 40
1.0
 10
11.1213280333
 20
7.7765006301
 30
0.0
 10
11.1204973646
 20
7.7691679464
 30
0.0
 10
11.1192257637
 20
7.7544283962
 30
0.0
 10
11.1184916323
 20
7.732211155
 30
0.0
 10
11.1189288861
 20
7.7099046612
 30
0.0
 10
11.1205363472
 20
7.6875713994
 30
0.0
 10
11.1233094723
 20
7.6652728659
 30
0.0
 10
11.1272405429
 20
7.6430707346
 30
0.0
 10
11.1323186398
 20
7.621026329
 30
0.0
 10
11.1385296894
 20
7.5992005546
 30
0.0
 10
11.1458564826
 20
7.5776536966
 30
0.0
 10
11.154278714
 20
7.5564452736
 30
0.0
 10
11.1637731037
 20
7.5356338202
 30
0.0
 10
11.1743132821
 20
7.515276946
 30
0.0
 10
11.1858705195
 20
7.4954303566
 30
0.0
 10
11.2025981086
 20
7.4697142864
 30
0.0
 10
11.2258830128
 20
7.4391226041
 30
0.0
 10
11.2520670832
 20
7.4109470389
 30
0.0
 10
11.2745901649
 20
7.3900295379
 30
0.0
 10
11.2922252065
 20
7.3751949542
 30
0.0
 10
11.3105509165
 20
7.3612583454
 30
0.0
 10
11.3295171191
 20
7.348257715
 30
0.0
 10
11.3490713196
 20
7.3362291176
 30
0.0
 10
11.3691595517
 20
7.3252057653
 30
0.0
 10
11.3897263349
 20
7.3152181478
 30
0.0
 10
11.4107148794
 20
7.3062938928
 30
0.0
 10
11.4320672135
 20
7.2984577137
 30
0.0
 10
11.4537243915
 20
7.2917312567
 30
0.0
 10
11.4756264719
 20
7.2861332455
 30
0.0
 10
11.49771332
 20
7.2816790031
 30
0.0
 10
11.5199229296
 20
7.2783812151
 30
0.0
 10
11.5347991301
 20
7.2769569125
 30
0.0
 10
11.5422359506
 20
7.2764411673
 30
0.0
  0
SPLINE
  5
3B4
100
AcDbEntity
  8
0
100
AcDbSpline
 62
7
  6
CONTINUOUS
 70
0
 71
3
 72
24
 73
20
 74
0
 42
0.0000001
 43
0.0000001
 44
0.0000000001
 40
0.0
 40
0.0
 40
0.0
 40
0.0
 40
0.0615910481
 40
0.1235177572
 40
0.1857515996
 40
0.2482554355
 40
0.3109846417
 40
0.3738884245
 40
0.4369112586
 40
0.499994407
 40
0.5630775141
 40
0.6261002283
 40
0.6890038174
 40
0.7517327558
 40
0.8142362598
 40
0.8764697218
 40
0.938396066
 40
0.9692414621
 40
1.0
 40
1.0
 40
1.0
 40
1.0
 10
11.2017535932
 20
7.7589483171
 30
0.0
 10
11.203132198
 20
7.7467305759
 30
0.0
 10
11.2069418537
 20
7.7223340016
 30
0.0
 10
11.2157233461
 20
7.6862655749
 30
0.0
 10
11.2275236553
 20
7.6508746468
 30
0.0
 10
11.2422545005
 20
7.6164268609
 30
0.0
 10
11.2598063486
 20
7.5831763039
 30
0.0
 10
11.2800488142
 20
7.5513693641
 30
0.0
 10
11.302831829
 20
7.5212414848
 30
0.0
 10
11.3279864316
 20
7.4930156604
 30
0.0
 10
11.3553263398
 20
7.4669009289
 30
0.0
 10
11.3846491115
 20
7.4430907649
 30
0.0
 10
11.4157376468
 20
7.421761552
 30
0.0
 10
11.4483617516
 20
7.4030716052
 30
0.0
 10
11.4822803853
 20
7.3871595613
 30
0.0
 10
11.5172406092
 20
7.3741440228
 30
0.0
 10
11.5470730654
 20
7.3657799009
 30
0.0
 10
11.5711951054
 20
7.3606297351
 30
0.0
 10
11.5833239729
 20
7.3585707071
 30
0.0
 10
11.5893980817
 20
7.3576718673
 30
0.0
  0
SPLINE
  5
3B5
100
AcDbEntity
  8
0
100
AcDbSpline
 62
7
  6
CONTINUOUS
 70
0
 71
3
 72
29
 73
25
 74
0
 42
0.0000001
 43
0.0000001
 44
0.0000000001
 40
0.0
 40
0.0
 40
0.0
 40
0.0
 40
0.0802308145
 40
0.1595886729
 40
0.2377916509
 40
0.314560902
 40
0.3895946644
 40
0.462576803
 40
0.5331740031
 40
0.6010355201
 40
0.6657937571
 40
0.72706479
 40
0.7562699609
 40
0.7844528926
 40
0.8115632709
 40
0.8375490801
 40
0.8623609542
 40
0.8859493986
 40
0.908270401
 40
0.9292838555
 40
0.9489617396
 40
0.9672907793
 40
0.9842850519
 40
1.0
 40
1.0
 40
1.0
 40
1.0
 10
11.2580623555
 20
9.1494521344
 30
0.0
 10
11.2579527486
 20
9.1459865842
 30
0.0
 10
11.2577541142
 20
9.139092571
 30
0.0
 10
11.2575002259
 20
9.1288192058
 30
0.0
 10
11.2572729936
 20
9.1186948621
 30
0.0
 10
11.2570510893
 20
9.1087573195
 30
0.0
 10
11.2568107792
 20
9.0990458772
 30
0.0
 10
11.2565260379
 20
9.0896024313
 30
0.0
 10
11.2561688525
 20
9.0804715396
 30
0.0
 10
11.2557095216
 20
9.0717008927
 30
0.0
 10
11.2551168144
 20
9.0633420561
 30
0.0
 10
11.2544753657
 20
9.0566630257
 30
0.0
 10
11.2538548597
 20
9.051572425
 30
0.0
 10
11.253342331
 20
9.0479565835
 30
0.0
 10
11.252771134
 20
9.044490404
 30
0.0
 10
11.2521370279
 20
9.0411833026
 30
0.0
 10
11.2514359547
 20
9.0380453953
 30
0.0
 10
11.2506638459
 20
9.0350874379
 30
0.0
 10
11.2498168516
 20
9.0323210466
 30
0.0
 10
11.2488911455
 20
9.0297586405
 30
0.0
 10
11.2478832075
 20
9.0274136844
 30
0.0
 10
11.2467893545
 20
9.0253005016
 30
0.0
 10
11.2456065171
 20
9.0234351458
 30
0.0
 10
11.2447227393
 20
9.0223265821
 30
0.0
 10
11.2442636455
 20
9.0218261146
 30
0.0
  0
SPLINE
  5
3B6
100
AcDbEntity
  8
0
100
AcDbSpline
 62
7
  6
CONTINUOUS
 70
0
 71
3
 72
50
 73
46
 74
0
 42
0.0000001
 43
0.0000001
 44
0.0000000001
 40
0.0
 40
0.0
 40
0.0
 40
0.0
 40
0.007410397
 40
0.0139692643
 40
0.0169193982
 40
0.0196483519
 40
0.0221605883
 40
0.0244671152
 40
0.0265884709
 40
0.0285569373
 40
0.030418794
 40
0.03223484
 40
0.0340751109
 40
0.0360104107
 40
0.0381043457
 40
0.0404068831
 40
0.0429551505
 40
0.0457756245
 40
0.0488837407
 40
0.0522878113
 40
0.0559917221
 40
0.0599940661
 40
0.0688704958
 40
0.0788558735
 40
0.0898637087
 40
0.1017997253
 40
0.1145679683
 40
0.1280777429
 40
0.1422450167
 40
0.1722576198
 40
0.2041003358
 40
0.2373875067
 40
0.2718270126
 40
0.3071920859
 40
0.3433145304
 40
0.3800567845
 40
0.4173147205
 40
0.4549995919
 40
0.5313805072
 40
0.6087483406
 40
0.6867592932
 40
0.7651304801
 40
0.843612225
 40
0.9219813043
 40
1.0
 40
1.0
 40
1.0
 40
1.0
 10
11.2606461382
 20
9.2707110044
 30
0.0
 10
11.2608598959
 20
9.2709443215
 30
0.0
 10
11.2612747481
 20
9.2713735034
 30
0.0
 10
11.2618157801
 20
9.2718540869
 30
0.0
 10
11.2622345535
 20
9.2721671902
 30
0.0
 10
11.2625282764
 20
9.2723576903
 30
0.0
 10
11.262812361
 20
9.2725108154
 30
0.0
 10
11.2630864961
 20
9.2726249607
 30
0.0
 10
11.2633503691
 20
9.2726985966
 30
0.0
 10
11.2636036857
 20
9.2727300265
 30
0.0
 10
11.2638458807
 20
9.2727171445
 30
0.0
 10
11.2640756791
 20
9.2726581291
 30
0.0
 10
11.2642915373
 20
9.272552374
 30
0.0
 10
11.2644922582
 20
9.2723999389
 30
0.0
 10
11.26467732
 20
9.272201316
 30
0.0
 10
11.2648471478
 20
9.2719572274
 30
0.0
 10
11.2650020572
 20
9.2716679212
 30
0.0
 10
11.265142133
 20
9.2713336831
 30
0.0
 10
11.2652677974
 20
9.2709551732
 30
0.0
 10
11.2653793086
 20
9.2705331899
 30
0.0
 10
11.2654768132
 20
9.2700687174
 30
0.0
 10
11.265592611
 20
9.2693699787
 30
0.0
 10
11.2656996755
 20
9.2683988547
 30
0.0
 10
11.2657759265
 20
9.2671253379
 30
0.0
 10
11.2658080473
 20
9.2657193387
 30
0.0
 10
11.2658003519
 20
9.2641942695
 30
0.0
 10
11.2657573969
 20
9.2625629591
 30
0.0
 10
11.2656834849
 20
9.2608374233
 30
0.0
 10
11.265546438
 20
9.2583777759
 30
0.0
 10
11.2653168499
 20
9.2551394985
 30
0.0
 10
11.2649815825
 20
9.2510906283
 30
0.0
 10
11.2646011274
 20
9.2468559411
 30
0.0
 10
11.2641911491
 20
9.2424729412
 30
0.0
 10
11.2637642221
 20
9.2379699346
 30
0.0
 10
11.2633293925
 20
9.233368906
 30
0.0
 10
11.2628944045
 20
9.2286867085
 30
0.0
 10
11.262464588
 20
9.2239370359
 30
0.0
 10
11.2619021162
 20
9.2174998663
 30
0.0
 10
11.2612339287
 20
9.2093527098
 30
0.0
 10
11.2605060234
 20
9.1994830049
 30
0.0
 10
11.2598575091
 20
9.1895225908
 30
0.0
 10
11.2592915204
 20
9.1795095119
 30
0.0
 10
11.2588064139
 20
9.1694768926
 30
0.0
 10
11.2583968127
 20
9.159455995
 30
0.0
 10
11.2581676695
 20
9.152781953
 30
0.0
 10
11.2580623555
 20
9.1494521344
 30
0.0
  0
SPLINE
  5
3B7
100
AcDbEntity
  8
0
100
AcDbSpline
 62
7
  6
CONTINUOUS
 70
0
 71
3
 72
25
 73
21
 74
0
 42
0.0000001
 43
0.0000001
 44
0.0000000001
 40
0.0
 40
0.0
 40
0.0
 40
0.0
 40
0.0618715085
 40
0.1239819326
 40
0.1863056791
 40
0.2488133587
 40
0.3114722549
 40
0.3742469596
 40
0.4371000107
 40
0.4999925636
 40
0.5628850783
 40
0.6257380154
 40
0.6885125321
 40
0.7198628123
 40
0.7511796021
 40
0.8136869547
 40
0.8760103162
 40
0.9070979862
 40
0.9381289465
 40
1.0
 40
1.0
 40
1.0
 40
1.0
 10
11.5532290591
 20
7.4564912289
 30
0.0
 10
11.5456308017
 20
7.4586353091
 30
0.0
 10
11.5305456035
 20
7.4634489009
 30
0.0
 10
11.5084169383
 20
7.4721828385
 30
0.0
 10
11.486843707
 20
7.4824038419
 30
0.0
 10
11.4659321725
 20
7.4940616965
 30
0.0
 10
11.4457836167
 20
7.5070997181
 30
0.0
 10
11.4264960842
 20
7.5214544007
 30
0.0
 10
11.4081633011
 20
7.5370559102
 30
0.0
 10
11.3908744255
 20
7.5538283117
 30
0.0
 10
11.3747134248
 20
7.5716901868
 30
0.0
 10
11.3597592419
 20
7.5905541347
 30
0.0
 10
11.3483573712
 20
7.6070420726
 30
0.0
 10
11.3399094901
 20
7.6206408408
 30
0.0
 10
11.3319291229
 20
7.634479837
 30
0.0
 10
11.3228312583
 20
7.6522235542
 30
0.0
 10
11.3149372717
 20
7.6705029498
 30
0.0
 10
11.3093765801
 20
7.6853795032
 30
0.0
 10
11.304334101
 20
7.7003780392
 30
0.0
 10
11.301122178
 20
7.7118014151
 30
0.0
 10
11.2992437535
 20
7.7194696092
 30
0.0
  0
SPLINE
  5
3B8
100
AcDbEntity
  8
0
100
AcDbSpline
 62
7
  6
CONTINUOUS
 70
0
 71
3
 72
43
 73
39
 74
0
 42
0.0000001
 43
0.0000001
 44
0.0000000001
 40
0.0
 40
0.0
 40
0.0
 40
0.0
 40
0.0149644519
 40
0.029945728
 40
0.0449459508
 40
0.0599671551
 40
0.0900754905
 40
0.1202894876
 40
0.1354422366
 40
0.1506257404
 40
0.1658411623
 40
0.1810895096
 40
0.2116838487
 40
0.2424182149
 40
0.2732950533
 40
0.3043142597
 40
0.3354732171
 40
0.3667668749
 40
0.3981878673
 40
0.4297266664
 40
0.4613717669
 40
0.4931098977
 40
0.5249262566
 40
0.5568047641
 40
0.588728332
 40
0.6206791447
 40
0.6526389479
 40
0.6845893426
 40
0.7165120809
 40
0.7483893602
 40
0.7802041119
 40
0.811940283
 40
0.843583102
 40
0.8751193426
 40
0.9065375159
 40
0.9378282353
 40
0.968983917
 40
1.0
 40
1.0
 40
1.0
 40
1.0
 10
10.8333712007
 20
7.7328361422
 30
0.0
 10
10.8303421853
 20
7.728260932
 30
0.0
 10
10.8244430209
 20
7.7189967331
 30
0.0
 10
10.8160879647
 20
7.7047874972
 30
0.0
 10
10.8082307253
 20
7.6902729369
 30
0.0
 10
10.7984234817
 20
7.670522169
 30
0.0
 10
10.7874508232
 20
7.6451420441
 30
0.0
 10
10.7782626592
 20
7.6190121074
 30
0.0
 10
10.7719951671
 20
7.597709245
 30
0.0
 10
10.7678364157
 20
7.5815292665
 30
0.0
 10
10.7642294075
 20
7.5651815392
 30
0.0
 10
10.7601567345
 20
7.5431631902
 30
0.0
 10
10.7564673679
 20
7.5153042282
 30
0.0
 10
10.7543025065
 20
7.481539574
 30
0.0
 10
10.7544035457
 20
7.44754949
 30
0.0
 10
10.756769972
 20
7.4134862367
 30
0.0
 10
10.7613909373
 20
7.3795010417
 30
0.0
 10
10.7682456608
 20
7.3457450919
 30
0.0
 10
10.7773034359
 20
7.3123684212
 30
0.0
 10
10.7885237954
 20
7.279519371
 30
0.0
 10
10.8018566827
 20
7.2473439034
 30
0.0
 10
10.8172426862
 20
7.2159849707
 30
0.0
 10
10.8346133028
 20
7.1855818846
 30
0.0
 10
10.8538912421
 20
7.1562697046
 30
0.0
 10
10.8749907687
 20
7.1281786446
 30
0.0
 10
10.8978180812
 20
7.1014334997
 30
0.0
 10
10.9222717256
 20
7.0761530973
 30
0.0
 10
10.9482430428
 20
7.0524497736
 30
0.0
 10
10.9756166478
 20
7.0304288795
 30
0.0
 10
11.0042709344
 20
7.0101883113
 30
0.0
 10
11.0340786114
 20
6.9918180784
 30
0.0
 10
11.0649072694
 20
6.9753999113
 30
0.0
 10
11.0966199461
 20
6.9610068921
 30
0.0
 10
11.1290757863
 20
6.9487031515
 30
0.0
 10
11.162130453
 20
6.9385435301
 30
0.0
 10
11.1956375296
 20
6.9305734387
 30
0.0
 10
11.2294461611
 20
6.9248285569
 30
0.0
 10
11.252142625
 20
6.922493742
 30
0.0
 10
11.263488069
 20
6.9217069328
 30
0.0
  0
SPLINE
  5
3B9
100
AcDbEntity
  8
0
100
AcDbSpline
 62
7
  6
CONTINUOUS
 70
0
 71
3
 72
60
 73
56
 74
0
 42
0.0000001
 43
0.0000001
 44
0.0000000001
 40
0.0
 40
0.0
 40
0.0
 40
0.0
 40
0.0081437215
 40
0.01697685
 40
0.0265209466
 40
0.03678965
 40
0.0477883286
 40
0.0595158866
 40
0.0719660299
 40
0.0851283246
 40
0.0989885617
 40
0.1135293238
 40
0.1287305536
 40
0.1445695476
 40
0.1610215373
 40
0.1780596973
 40
0.2137771176
 40
0.2514753725
 40
0.290884692
 40
0.3317173433
 40
0.3736711531
 40
0.4164328736
 40
0.4596814124
 40
0.5030909931
 40
0.546334291
 40
0.5890855752
 40
0.6310238557
 40
0.6718360457
 40
0.7112201823
 40
0.7302867147
 40
0.7488898131
 40
0.7669963561
 40
0.7845746229
 40
0.8015944409
 40
0.8180271642
 40
0.8338461164
 40
0.8490264908
 40
0.8635457491
 40
0.8773838801
 40
0.890523522
 40
0.9029506859
 40
0.9146549165
 40
0.9256301632
 40
0.9358756224
 40
0.9453966901
 40
0.9542068483
 40
0.9623293949
 40
0.969800425
 40
0.9766722973
 40
0.9830175573
 40
0.9889330625
 40
0.9917694421
 40
0.994546604
 40
0.9972834941
 40
1.0
 40
1.0
 40
1.0
 40
1.0
 10
12.414214104
 20
6.2210542283
 30
0.0
 10
12.4150330041
 20
6.2218452251
 30
0.0
 10
12.4166665734
 20
6.2235712416
 30
0.0
 10
12.4190139481
 20
6.2264446212
 30
0.0
 10
12.4213512116
 20
6.2296995317
 30
0.0
 10
12.4236738342
 20
6.2333294279
 30
0.0
 10
12.4259776026
 20
6.2373275228
 30
0.0
 10
12.428257923
 20
6.241686107
 30
0.0
 10
12.4305103549
 20
6.2463966317
 30
0.0
 10
12.4327303662
 20
6.2514498351
 30
0.0
 10
12.4349135034
 20
6.2568357104
 30
0.0
 10
12.4370553951
 20
6.2625435404
 30
0.0
 10
12.4391516731
 20
6.2685619514
 30
0.0
 10
12.4411981442
 20
6.2748789025
 30
0.0
 10
12.4431906743
 20
6.2814817614
 30
0.0
 10
12.445811314
 20
6.2907962183
 30
0.0
 10
12.4489106962
 20
6.3030591602
 30
0.0
 10
12.4522990766
 20
6.3184667611
 30
0.0
 10
12.4553849372
 20
6.3346662433
 30
0.0
 10
12.4581432071
 20
6.3515276167
 30
0.0
 10
12.4605514622
 20
6.3689156842
 30
0.0
 10
12.4625901803
 20
6.3866908591
 30
0.0
 10
12.4642428641
 20
6.4047104112
 30
0.0
 10
12.4654961773
 20
6.422829609
 30
0.0
 10
12.4663400488
 20
6.4409029112
 30
0.0
 10
12.466767762
 20
6.4587851383
 30
0.0
 10
12.4667760245
 20
6.476332712
 30
0.0
 10
12.4663649166
 20
6.4934046428
 30
0.0
 10
12.4656686798
 20
6.507266599
 30
0.0
 10
12.4648973892
 20
6.51801185
 30
0.0
 10
12.4642234308
 20
6.525780819
 30
0.0
 10
12.4634491517
 20
6.5333313152
 30
0.0
 10
12.4625761089
 20
6.5406481877
 30
0.0
 10
12.46160611
 20
6.5477167423
 30
0.0
 10
12.4605410843
 20
6.5545227981
 30
0.0
 10
12.4593832458
 20
6.5610527106
 30
0.0
 10
12.4581349213
 20
6.5672934026
 30
0.0
 10
12.4567986507
 20
6.5732323948
 30
0.0
 10
12.45537718
 20
6.5788578384
 30
0.0
 10
12.4538733379
 20
6.5841585337
 30
0.0
 10
12.4522902188
 20
6.5891239839
 30
0.0
 10
12.4506309643
 20
6.593744401
 30
0.0
 10
12.4488988676
 20
6.598010752
 30
0.0
 10
12.4470973433
 20
6.6019148057
 30
0.0
 10
12.4452297191
 20
6.605449105
 30
0.0
 10
12.4432994125
 20
6.6086070692
 30
0.0
 10
12.4413095191
 20
6.6113828715
 30
0.0
 10
12.4392629114
 20
6.6137713472
 30
0.0
 10
12.4371618016
 20
6.6157678105
 30
0.0
 10
12.4350085878
 20
6.6173670835
 30
0.0
 10
12.4331456107
 20
6.6183781813
 30
0.0
 10
12.4316443046
 20
6.6189692073
 30
0.0
 10
12.4305244955
 20
6.6193044972
 30
0.0
 10
12.4293961901
 20
6.6195374346
 30
0.0
 10
12.4286375381
 20
6.6196244724
 30
0.0
 10
12.4282586649
 20
6.6196507507
 30
0.0
  0
SPLINE
  5
3BA
100
AcDbEntity
  8
0
100
AcDbSpline
 62
7
  6
CONTINUOUS
 70
0
 71
3
 72
48
 73
44
 74
0
 42
0.0000001
 43
0.0000001
 44
0.0000000001
 40
0.0
 40
0.0
 40
0.0
 40
0.0
 40
0.0311434631
 40
0.0624399956
 40
0.0938836138
 40
0.1254646847
 40
0.1571709829
 40
0.1889877595
 40
0.22089807
 40
0.2528831302
 40
0.2849226987
 40
0.3169954772
 40
0.3490795248
 40
0.3811526835
 40
0.413193006
 40
0.4451791789
 40
0.4770909382
 40
0.5089094729
 40
0.5406178044
 40
0.5722011384
 40
0.6036471904
 40
0.6349464615
 40
0.6660924706
 40
0.6970819377
 40
0.7279148953
 40
0.7432762698
 40
0.7586000727
 40
0.7738872515
 40
0.789138954
 40
0.8043565275
 40
0.819541513
 40
0.8346956329
 40
0.8498207866
 40
0.8649190411
 40
0.8799926163
 40
0.8950438755
 40
0.9100753135
 40
0.9250895394
 40
0.9400892632
 40
0.9550772817
 40
0.9700564603
 40
0.9850297153
 40
1.0
 40
1.0
 40
1.0
 40
1.0
 10
11.3188788048
 20
8.0944103332
 30
0.0
 10
11.3015541633
 20
8.0956118012
 30
0.0
 10
11.2668947823
 20
8.099288745
 30
0.0
 10
11.2153259249
 20
8.1085510292
 30
0.0
 10
11.164309411
 20
8.121524714
 30
0.0
 10
11.1141207892
 20
8.13814007
 30
0.0
 10
11.0650266579
 20
8.1583079902
 30
0.0
 10
11.01728892
 20
8.1819206077
 30
0.0
 10
10.9711619023
 20
8.2088517834
 30
0.0
 10
10.9268913516
 20
8.2389576452
 30
0.0
 10
10.8847131698
 20
8.2720776013
 30
0.0
 10
10.8448521155
 20
8.3080350199
 30
0.0
 10
10.8075205536
 20
8.3466381379
 30
0.0
 10
10.7729175155
 20
8.3876812526
 30
0.0
 10
10.7412274847
 20
8.4309456295
 30
0.0
 10
10.7126194291
 20
8.4762006996
 30
0.0
 10
10.6872460833
 20
8.5232053784
 30
0.0
 10
10.6652429089
 20
8.571709183
 30
0.0
 10
10.6467274679
 20
8.6214536352
 30
0.0
 10
10.6317989327
 20
8.6721736387
 30
0.0
 10
10.6205372884
 20
8.7235988351
 30
0.0
 10
10.6130030464
 20
8.7754548824
 30
0.0
 10
10.6092371099
 20
8.8274657048
 30
0.0
 10
10.6092597814
 20
8.8793518662
 30
0.0
 10
10.6124412336
 20
8.9223163439
 30
0.0
 10
10.6168768134
 20
8.956338759
 30
0.0
 10
10.6211371504
 20
8.9816237561
 30
0.0
 10
10.6263292767
 20
9.0066712159
 30
0.0
 10
10.6324463658
 20
9.0314481115
 30
0.0
 10
10.6394802116
 20
9.0559212348
 30
0.0
 10
10.6474214106
 20
9.0800579339
 30
0.0
 10
10.6562594454
 20
9.1038259283
 30
0.0
 10
10.6659824861
 20
9.1271934749
 30
0.0
 10
10.6765775244
 20
9.150129367
 30
0.0
 10
10.6880304879
 20
9.1726029252
 30
0.0
 10
10.70032606
 20
9.1945841276
 30
0.0
 10
10.7134477842
 20
9.2160436254
 30
0.0
 10
10.7273781977
 20
9.2369527013
 30
0.0
 10
10.7420986863
 20
9.257283425
 30
0.0
 10
10.7575895177
 20
9.2770086343
 30
0.0
 10
10.7738301455
 20
9.2961020245
 30
0.0
 10
10.7907985135
 20
9.3145377174
 30
0.0
 10
10.8025820416
 20
9.3263746084
 30
0.0
 10
10.8085861889
 20
9.3321741853
 30
0.0
  0
SPLINE
  5
3BB
100
AcDbEntity
  8
0
100
AcDbSpline
 62
7
  6
CONTINUOUS
 70
0
 71
3
 72
71
 73
67
 74
0
 42
0.0000001
 43
0.0000001
 44
0.0000000001
 40
0.0
 40
0.0
 40
0.0
 40
0.0
 40
0.0156747439
 40
0.0314022082
 40
0.0471806388
 40
0.0630088954
 40
0.0788847426
 40
0.0948057519
 40
0.1107690087
 40
0.1267712324
 40
0.1428087906
 40
0.1588777352
 40
0.1749738406
 40
0.1910926413
 40
0.2072294725
 40
0.2233795109
 40
0.239537818
 40
0.255699384
 40
0.2718591706
 40
0.2880121553
 40
0.3041533743
 40
0.3202779661
 40
0.3363812146
 40
0.3524585914
 40
0.3685057961
 40
0.3845187957
 40
0.4004938614
 40
0.4164276041
 40
0.4323170079
 40
0.4481594607
 40
0.4639527819
 40
0.4796952457
 40
0.4953856017
 40
0.5110230908
 40
0.5266074579
 40
0.5421389597
 40
0.5576183678
 40
0.5730469656
 40
0.5884265412
 40
0.6037593735
 40
0.6190482143
 40
0.6342962647
 40
0.6495071464
 40
0.6646848669
 40
0.6798337803
 40
0.6949585438
 40
0.7100640694
 40
0.7251554736
 40
0.7402380233
 40
0.7553170806
 40
0.7703980447
 40
0.7854862946
 40
0.8005871313
 40
0.8157057213
 40
0.830847042
 40
0.8460158305
 40
0.8612165344
 40
0.8764532676
 40
0.8917297685
 40
0.907049366
 40
0.9224149485
 40
0.9378289216
 40
0.953293278
 40
0.9688092644
 40
0.9843782511
 40
1.0
 40
1.0
 40
1.0
 40
1.0
 10
9.6285085086
 20
7.903024459
 30
0.0
 10
9.6375473926
 20
7.9023976102
 30
0.0
 10
9.6556278742
 20
7.900698382
 30
0.0
 10
9.6826346856
 20
7.896831123
 30
0.0
 10
9.7095114659
 20
7.8916500872
 30
0.0
 10
9.7361924658
 20
7.8851681109
 30
0.0
 10
9.7626138341
 20
7.877400665
 30
0.0
 10
9.7887118406
 20
7.8683665877
 30
0.0
 10
9.8144236948
 20
7.8580876277
 30
0.0
 10
9.8396874992
 20
7.846588585
 30
0.0
 10
9.8644424521
 20
7.8338971844
 30
0.0
 10
9.8886289748
 20
7.8200440115
 30
0.0
 10
9.9121888577
 20
7.8050624403
 30
0.0
 10
9.9350653979
 20
7.7889885523
 30
0.0
 10
9.9572035328
 20
7.7718610501
 30
0.0
 10
9.978549976
 20
7.7537211699
 30
0.0
 10
9.9990533561
 20
7.7346125937
 30
0.0
 10
10.0186643261
 20
7.714581326
 30
0.0
 10
10.0373356825
 20
7.6936755855
 30
0.0
 10
10.055022477
 20
7.6719456906
 30
0.0
 10
10.0716821246
 20
7.6494439394
 30
0.0
 10
10.0872745025
 20
7.6262244836
 30
0.0
 10
10.1017620666
 20
7.6023432123
 30
0.0
 10
10.1151099291
 20
7.5778576061
 30
0.0
 10
10.1272859371
 20
7.5528265971
 30
0.0
 10
10.1382607498
 20
7.5273104296
 30
0.0
 10
10.1480079096
 20
7.5013705171
 30
0.0
 10
10.1565039023
 20
7.4750692944
 30
0.0
 10
10.1637282271
 20
7.4484700737
 30
0.0
 10
10.1696634527
 20
7.4216368916
 30
0.0
 10
10.1742952406
 20
7.39463435
 30
0.0
 10
10.1776123831
 20
7.3675274644
 30
0.0
 10
10.1796068304
 20
7.3403815081
 30
0.0
 10
10.1802737106
 20
7.3132618577
 30
0.0
 10
10.179611343
 20
7.2862338364
 30
0.0
 10
10.1776212675
 20
7.2593625561
 30
0.0
 10
10.174308218
 20
7.2327127589
 30
0.0
 10
10.1696801127
 20
7.2063486635
 30
0.0
 10
10.1637480363
 20
7.1803338111
 30
0.0
 10
10.1565262163
 20
7.1547309128
 30
0.0
 10
10.1480319866
 20
7.1296017002
 30
0.0
 10
10.1382857676
 20
7.1050067689
 30
0.0
 10
10.1273110117
 20
7.0810054304
 30
0.0
 10
10.1151341345
 20
7.0576555733
 30
0.0
 10
10.1017844561
 20
7.035013522
 30
0.0
 10
10.0872941306
 20
7.0131339002
 30
0.0
 10
10.071698069
 20
6.9920694986
 30
0.0
 10
10.0550338603
 20
6.9718711427
 30
0.0
 10
10.0373416935
 20
6.9525875552
 30
0.0
 10
10.018664239
 20
6.9342652512
 30
0.0
 10
9.9990465477
 20
6.9169484239
 30
0.0
 10
9.9785359412
 20
6.9006788377
 30
0.0
 10
9.9571818968
 20
6.8854957259
 30
0.0
 10
9.9350359261
 20
6.871435699
 30
0.0
 10
9.9121514617
 20
6.8585326339
 30
0.0
 10
9.8885837149
 20
6.846817606
 30
0.0
 10
9.8643895374
 20
6.83631882
 30
0.0
 10
9.8396272841
 20
6.8270615431
 30
0.0
 10
9.8143566721
 20
6.819068044
 30
0.0
 10
9.7886386326
 20
6.8123575421
 30
0.0
 10
9.7625351821
 20
6.8069461635
 30
0.0
 10
9.7361092096
 20
6.8028468432
 30
0.0
 10
9.7094245409
 20
6.8000694645
 30
0.0
 10
9.682545081
 20
6.7986205143
 30
0.0
 10
9.6555366464
 20
6.7985035796
 30
0.0
 10
9.6375168329
 20
6.7993124056
 30
0.0
 10
9.6285085086
 20
6.799937135
 30
0.0
  0
SPLINE
  5
3BC
100
AcDbEntity
  8
0
100
AcDbSpline
 62
7
  6
CONTINUOUS
 70
0
 71
3
 72
48
 73
44
 74
0
 42
0.0000001
 43
0.0000001
 44
0.0000000001
 40
0.0
 40
0.0
 40
0.0
 40
0.0
 40
0.0311434631
 40
0.0624399956
 40
0.0938836138
 40
0.1254646847
 40
0.1571709829
 40
0.1889877595
 40
0.22089807
 40
0.2528831302
 40
0.2849226987
 40
0.3169954772
 40
0.3490795248
 40
0.3811526835
 40
0.413193006
 40
0.4451791789
 40
0.4770909382
 40
0.5089094729
 40
0.5406178044
 40
0.5722011384
 40
0.6036471904
 40
0.6349464615
 40
0.6660924706
 40
0.6970819377
 40
0.7279148953
 40
0.7432762698
 40
0.7586000727
 40
0.7738872515
 40
0.789138954
 40
0.8043565275
 40
0.819541513
 40
0.8346956329
 40
0.8498207866
 40
0.8649190411
 40
0.8799926163
 40
0.8950438755
 40
0.9100753135
 40
0.9250895394
 40
0.9400892632
 40
0.9550772817
 40
0.9700564603
 40
0.9850297153
 40
1.0
 40
1.0
 40
1.0
 40
1.0
 10
9.3870270377
 20
8.2283847083
 30
0.0
 10
9.3697023962
 20
8.2295861762
 30
0.0
 10
9.3350430153
 20
8.2332631201
 30
0.0
 10
9.2834741579
 20
8.2425254043
 30
0.0
 10
9.2324576439
 20
8.2554990891
 30
0.0
 10
9.1822690221
 20
8.2721144451
 30
0.0
 10
9.1331748909
 20
8.2922823653
 30
0.0
 10
9.0854371529
 20
8.3158949828
 30
0.0
 10
9.0393101352
 20
8.3428261585
 30
0.0
 10
8.9950395845
 20
8.3729320203
 30
0.0
 10
8.9528614028
 20
8.4060519764
 30
0.0
 10
8.9130003485
 20
8.4420093949
 30
0.0
 10
8.8756687866
 20
8.480612513
 30
0.0
 10
8.8410657485
 20
8.5216556277
 30
0.0
 10
8.8093757177
 20
8.5649200046
 30
0.0
 10
8.7807676621
 20
8.6101750746
 30
0.0
 10
8.7553943162
 20
8.6571797535
 30
0.0
 10
8.7333911419
 20
8.7056835581
 30
0.0
 10
8.7148757009
 20
8.7554280102
 30
0.0
 10
8.6999471656
 20
8.8061480138
 30
0.0
 10
8.6886855214
 20
8.8575732102
 30
0.0
 10
8.6811512794
 20
8.9094292575
 30
0.0
 10
8.6773853428
 20
8.9614400799
 30
0.0
 10
8.6774080144
 20
9.0133262413
 30
0.0
 10
8.6805894665
 20
9.0562907189
 30
0.0
 10
8.6850250464
 20
9.0903131341
 30
0.0
 10
8.6892853833
 20
9.1155981312
 30
0.0
 10
8.6944775097
 20
9.1406455909
 30
0.0
 10
8.7005945987
 20
9.1654224866
 30
0.0
 10
8.7076284446
 20
9.1898956099
 30
0.0
 10
8.7155696436
 20
9.214032309
 30
0.0
 10
8.7244076783
 20
9.2378003034
 30
0.0
 10
8.7341307191
 20
9.26116785
 30
0.0
 10
8.7447257574
 20
9.2841037421
 30
0.0
 10
8.7561787209
 20
9.3065773003
 30
0.0
 10
8.7684742929
 20
9.3285585027
 30
0.0
 10
8.7815960172
 20
9.3500180005
 30
0.0
 10
8.7955264307
 20
9.3709270764
 30
0.0
 10
8.8102469192
 20
9.3912578001
 30
0.0
 10
8.8257377507
 20
9.4109830094
 30
0.0
 10
8.8419783785
 20
9.4300763996
 30
0.0
 10
8.8589467464
 20
9.4485120925
 30
0.0
 10
8.8707302745
 20
9.4603489835
 30
0.0
 10
8.8767344218
 20
9.4661485603
 30
0.0
  0
SPLINE
  5
3BD
100
AcDbEntity
  8
0
100
AcDbSpline
 62
7
  6
CONTINUOUS
 70
0
 71
3
 72
15
 73
11
 74
0
 42
0.0000001
 43
0.0000001
 44
0.0000000001
 40
0.0
 40
0.0
 40
0.0
 40
0.0
 40
0.1232822653
 40
0.2469238437
 40
0.3710051123
 40
0.4955958288
 40
0.6207535625
 40
0.7465228097
 40
0.8729323529
 40
1.0
 40
1.0
 40
1.0
 40
1.0
 10
10.1014103895
 20
7.0907881209
 30
0.0
 10
10.0909122164
 20
7.0843565717
 30
0.0
 10
10.069361336
 20
7.0723086523
 30
0.0
 10
10.0356569014
 20
7.0568335142
 30
0.0
 10
10.0007144563
 20
7.0440135322
 30
0.0
 10
9.9647325551
 20
7.0339218083
 30
0.0
 10
9.9279123685
 20
7.0266139726
 30
0.0
 10
9.8904597556
 20
7.022130663
 30
0.0
 10
9.8525869783
 20
7.0204960901
 30
0.0
 10
9.8272585064
 20
7.0213097913
 30
0.0
 10
9.8145992438
 20
7.0221877141
 30
0.0
  0
SPLINE
  5
3BE
100
AcDbEntity
  8
0
100
AcDbSpline
 62
7
  6
CONTINUOUS
 70
0
 71
3
 72
32
 73
28
 74
0
 42
0.0000001
 43
0.0000001
 44
0.0000000001
 40
0.0
 40
0.0
 40
0.0
 40
0.0
 40
0.0662978793
 40
0.13434639
 40
0.203768338
 40
0.27419231
 40
0.3452275394
 40
0.41643864
 40
0.4873223652
 40
0.5224624184
 40
0.5572928849
 40
0.591726254
 40
0.6256701688
 40
0.659028287
 40
0.6917016308
 40
0.7235904122
 40
0.7545960701
 40
0.7846235537
 40
0.8135838575
 40
0.8413965252
 40
0.8679919617
 40
0.893313664
 40
0.9173202951
 40
0.9399875636
 40
0.9613099225
 40
0.981301764
 40
1.0
 40
1.0
 40
1.0
 40
1.0
 10
11.0829619272
 20
7.7805011548
 30
0.0
 10
11.0819618277
 20
7.7709419074
 30
0.0
 10
11.0804594877
 20
7.7515125524
 30
0.0
 10
11.0797153847
 20
7.7219687276
 30
0.0
 10
11.0804708636
 20
7.6918266887
 30
0.0
 10
11.0827029712
 20
7.6613250638
 30
0.0
 10
11.0863407748
 20
7.6306990526
 30
0.0
 10
11.0912621745
 20
7.6001872326
 30
0.0
 10
11.0963006263
 20
7.5749860979
 30
0.0
 10
11.1007873496
 20
7.5550644156
 30
0.0
 10
11.1043272056
 20
7.5403478696
 30
0.0
 10
11.1080129979
 20
7.5258462292
 30
0.0
 10
11.1118027557
 20
7.5115922662
 30
0.0
 10
11.115651377
 20
7.4976186735
 30
0.0
 10
11.1195109698
 20
7.4839575364
 30
0.0
 10
11.1233316005
 20
7.4706399567
 30
0.0
 10
11.1270619702
 20
7.4576955619
 30
0.0
 10
11.130650191
 20
7.4451520278
 30
0.0
 10
11.1340446567
 20
7.4330346427
 30
0.0
 10
11.1371949951
 20
7.4213659779
 30
0.0
 10
11.1400528969
 20
7.4101656496
 30
0.0
 10
11.1425728554
 20
7.3994502132
 30
0.0
 10
11.1447127817
 20
7.3892331487
 30
0.0
 10
11.1464346075
 20
7.3795251137
 30
0.0
 10
11.147704483
 20
7.3703339814
 30
0.0
 10
11.1484930008
 20
7.3616661416
 30
0.0
 10
11.1486872407
 20
7.3560561904
 30
0.0
 10
11.1486873162
 20
7.3533454459
 30
0.0
  0
SPLINE
  5
3BF
100
AcDbEntity
  8
0
100
AcDbSpline
 62
7
  6
CONTINUOUS
 70
0
 71
3
 72
25
 73
21
 74
0
 42
0.0000001
 43
0.0000001
 44
0.0000000001
 40
0.0
 40
0.0
 40
0.0
 40
0.0
 40
0.0618715085
 40
0.1239819326
 40
0.1863056791
 40
0.2488133587
 40
0.3114722549
 40
0.3742469596
 40
0.4371000107
 40
0.4999925636
 40
0.5628850783
 40
0.6257380154
 40
0.6885125321
 40
0.7198628123
 40
0.7511796021
 40
0.8136869547
 40
0.8760103162
 40
0.9070979862
 40
0.9381289465
 40
1.0
 40
1.0
 40
1.0
 40
1.0
 10
10.1043402338
 20
7.5569720102
 30
0.0
 10
10.0967419764
 20
7.5591160904
 30
0.0
 10
10.0816567782
 20
7.5639296822
 30
0.0
 10
10.0595281131
 20
7.5726636198
 30
0.0
 10
10.0379548818
 20
7.5828846232
 30
0.0
 10
10.0170433472
 20
7.5945424778
 30
0.0
 10
9.9968947914
 20
7.6075804994
 30
0.0
 10
9.9776072589
 20
7.6219351821
 30
0.0
 10
9.9592744758
 20
7.6375366915
 30
0.0
 10
9.9419856002
 20
7.654309093
 30
0.0
 10
9.9258245996
 20
7.6721709681
 30
0.0
 10
9.9108704166
 20
7.691034916
 30
0.0
 10
9.899468546
 20
7.7075228539
 30
0.0
 10
9.8910206648
 20
7.7211216221
 30
0.0
 10
9.8830402977
 20
7.7349606183
 30
0.0
 10
9.873942433
 20
7.7527043355
 30
0.0
 10
9.8660484464
 20
7.7709837311
 30
0.0
 10
9.8604877548
 20
7.7858602846
 30
0.0
 10
9.8554452757
 20
7.8008588205
 30
0.0
 10
9.8522333527
 20
7.8122821964
 30
0.0
 10
9.8503549282
 20
7.8199503905
 30
0.0
  0
SPLINE
  5
3C0
100
AcDbEntity
  8
0
100
AcDbSpline
 62
7
  6
CONTINUOUS
 70
0
 71
3
 72
43
 73
39
 74
0
 42
0.0000001
 43
0.0000001
 44
0.0000000001
 40
0.0
 40
0.0
 40
0.0
 40
0.0
 40
0.0149644519
 40
0.029945728
 40
0.0449459508
 40
0.0599671551
 40
0.0900754905
 40
0.1202894876
 40
0.1354422366
 40
0.1506257404
 40
0.1658411623
 40
0.1810895096
 40
0.2116838487
 40
0.2424182149
 40
0.2732950533
 40
0.3043142597
 40
0.3354732171
 40
0.3667668749
 40
0.3981878673
 40
0.4297266664
 40
0.4613717669
 40
0.4931098977
 40
0.5249262566
 40
0.5568047641
 40
0.588728332
 40
0.6206791447
 40
0.6526389479
 40
0.6845893426
 40
0.7165120809
 40
0.7483893602
 40
0.7802041119
 40
0.811940283
 40
0.843583102
 40
0.8751193426
 40
0.9065375159
 40
0.9378282353
 40
0.968983917
 40
1.0
 40
1.0
 40
1.0
 40
1.0
 10
9.3844823754
 20
7.8333169235
 30
0.0
 10
9.38145336
 20
7.8287417133
 30
0.0
 10
9.3755541956
 20
7.8194775144
 30
0.0
 10
9.3671991394
 20
7.8052682785
 30
0.0
 10
9.3593419
 20
7.7907537182
 30
0.0
 10
9.3495346564
 20
7.7710029503
 30
0.0
 10
9.3385619979
 20
7.7456228254
 30
0.0
 10
9.329373834
 20
7.7194928887
 30
0.0
 10
9.3231063418
 20
7.6981900263
 30
0.0
 10
9.3189475904
 20
7.6820100478
 30
0.0
 10
9.3153405822
 20
7.6656623206
 30
0.0
 10
9.3112679092
 20
7.6436439715
 30
0.0
 10
9.3075785426
 20
7.6157850095
 30
0.0
 10
9.3054136812
 20
7.5820203553
 30
0.0
 10
9.3055147204
 20
7.5480302713
 30
0.0
 10
9.3078811467
 20
7.513967018
 30
0.0
 10
9.312502112
 20
7.479981823
 30
0.0
 10
9.3193568355
 20
7.4462258732
 30
0.0
 10
9.3284146106
 20
7.4128492025
 30
0.0
 10
9.3396349701
 20
7.3800001523
 30
0.0
 10
9.3529678574
 20
7.3478246847
 30
0.0
 10
9.3683538609
 20
7.316465752
 30
0.0
 10
9.3857244775
 20
7.2860626659
 30
0.0
 10
9.4050024168
 20
7.2567504859
 30
0.0
 10
9.4261019435
 20
7.2286594259
 30
0.0
 10
9.448929256
 20
7.201914281
 30
0.0
 10
9.4733829003
 20
7.1766338786
 30
0.0
 10
9.4993542175
 20
7.1529305549
 30
0.0
 10
9.5267278225
 20
7.1309096608
 30
0.0
 10
9.5553821092
 20
7.1106690926
 30
0.0
 10
9.5851897861
 20
7.0922988597
 30
0.0
 10
9.6160184441
 20
7.0758806926
 30
0.0
 10
9.6477311208
 20
7.0614876734
 30
0.0
 10
9.680186961
 20
7.0491839328
 30
0.0
 10
9.7132416277
 20
7.0390243114
 30
0.0
 10
9.7467487043
 20
7.03105422
 30
0.0
 10
9.7805573358
 20
7.0253093382
 30
0.0
 10
9.8032537997
 20
7.0229745233
 30
0.0
 10
9.8145992438
 20
7.0221877141
 30
0.0
  0
SPLINE
  5
3C1
100
AcDbEntity
  8
0
100
AcDbSpline
 62
7
  6
CONTINUOUS
 70
0
 71
3
 72
15
 73
11
 74
0
 42
0.0000001
 43
0.0000001
 44
0.0000000001
 40
0.0
 40
0.0
 40
0.0
 40
0.0
 40
0.1081481156
 40
0.2181275745
 40
0.3316716241
 40
0.4503409609
 40
0.5754873735
 40
0.7082426213
 40
0.8495167778
 40
1.0
 40
1.0
 40
1.0
 40
1.0
 10
13.4354448692
 20
7.2146228485
 30
0.0
 10
13.4360169009
 20
7.2145831728
 30
0.0
 10
13.4371775929
 20
7.2145818131
 30
0.0
 10
13.4389253784
 20
7.2148153461
 30
0.0
 10
13.4406831675
 20
7.2152829937
 30
0.0
 10
13.4424480863
 20
7.2159830215
 30
0.0
 10
13.4442183539
 20
7.2169135926
 30
0.0
 10
13.4459924144
 20
7.2180729017
 30
0.0
 10
13.4477685471
 20
7.2194590696
 30
0.0
 10
13.4489155594
 20
7.2204991458
 30
0.0
 10
13.4494894301
 20
7.2210534623
 30
0.0
  0
SPLINE
  5
3C2
100
AcDbEntity
  8
0
100
AcDbSpline
 62
7
  6
CONTINUOUS
 70
0
 71
3
 72
15
 73
11
 74
0
 42
0.0000001
 43
0.0000001
 44
0.0000000001
 40
0.0
 40
0.0
 40
0.0
 40
0.0
 40
0.1081481156
 40
0.2181275745
 40
0.3316716241
 40
0.4503409609
 40
0.5754873735
 40
0.7082426213
 40
0.8495167778
 40
1.0
 40
1.0
 40
1.0
 40
1.0
 10
12.4001695432
 20
6.2146236146
 30
0.0
 10
12.4007415749
 20
6.2145839388
 30
0.0
 10
12.4019022669
 20
6.2145825791
 30
0.0
 10
12.4036500524
 20
6.2148161121
 30
0.0
 10
12.4054078415
 20
6.2152837597
 30
0.0
 10
12.4071727603
 20
6.2159837875
 30
0.0
 10
12.4089430279
 20
6.2169143587
 30
0.0
 10
12.4107170884
 20
6.2180736677
 30
0.0
 10
12.4124932211
 20
6.2194598356
 30
0.0
 10
12.4136402334
 20
6.2204999118
 30
0.0
 10
12.414214104
 20
6.2210542283
 30
0.0
  0
SPLINE
  5
3C3
100
AcDbEntity
  8
0
100
AcDbSpline
 62
7
  6
CONTINUOUS
 70
0
 71
3
 72
71
 73
67
 74
0
 42
0.0000001
 43
0.0000001
 44
0.0000000001
 40
0.0
 40
0.0
 40
0.0
 40
0.0
 40
0.0156747439
 40
0.0314022082
 40
0.0471806388
 40
0.0630088954
 40
0.0788847426
 40
0.0948057519
 40
0.1107690087
 40
0.1267712324
 40
0.1428087906
 40
0.1588777352
 40
0.1749738406
 40
0.1910926413
 40
0.2072294725
 40
0.2233795109
 40
0.239537818
 40
0.255699384
 40
0.2718591706
 40
0.2880121553
 40
0.3041533743
 40
0.3202779661
 40
0.3363812146
 40
0.3524585914
 40
0.3685057961
 40
0.3845187957
 40
0.4004938614
 40
0.4164276041
 40
0.4323170079
 40
0.4481594607
 40
0.4639527819
 40
0.4796952457
 40
0.4953856017
 40
0.5110230908
 40
0.5266074579
 40
0.5421389597
 40
0.5576183678
 40
0.5730469656
 40
0.5884265412
 40
0.6037593735
 40
0.6190482143
 40
0.6342962647
 40
0.6495071464
 40
0.6646848669
 40
0.6798337803
 40
0.6949585438
 40
0.7100640694
 40
0.7251554736
 40
0.7402380233
 40
0.7553170806
 40
0.7703980447
 40
0.7854862946
 40
0.8005871313
 40
0.8157057213
 40
0.830847042
 40
0.8460158305
 40
0.8612165344
 40
0.8764532676
 40
0.8917297685
 40
0.907049366
 40
0.9224149485
 40
0.9378289216
 40
0.953293278
 40
0.9688092644
 40
0.9843782511
 40
1.0
 40
1.0
 40
1.0
 40
1.0
 10
9.6285085086
 20
6.799937135
 30
0.0
 10
9.6194696246
 20
6.8005639837
 30
0.0
 10
9.601389143
 20
6.8022632119
 30
0.0
 10
9.5743823315
 20
6.8061304709
 30
0.0
 10
9.5475055513
 20
6.8113115067
 30
0.0
 10
9.5208245514
 20
6.8177934831
 30
0.0
 10
9.4944031831
 20
6.8255609289
 30
0.0
 10
9.4683051766
 20
6.8345950062
 30
0.0
 10
9.4425933224
 20
6.8448739662
 30
0.0
 10
9.417329518
 20
6.8563730089
 30
0.0
 10
9.3925745651
 20
6.8690644095
 30
0.0
 10
9.3683880424
 20
6.8829175824
 30
0.0
 10
9.3448281594
 20
6.8978991536
 30
0.0
 10
9.3219516193
 20
6.9139730417
 30
0.0
 10
9.2998134844
 20
6.9311005438
 30
0.0
 10
9.2784670412
 20
6.9492404241
 30
0.0
 10
9.2579636611
 20
6.9683490002
 30
0.0
 10
9.2383526911
 20
6.988380268
 30
0.0
 10
9.2196813347
 20
7.0092860084
 30
0.0
 10
9.2019945402
 20
7.0310159033
 30
0.0
 10
9.1853348926
 20
7.0535176546
 30
0.0
 10
9.1697425147
 20
7.0767371103
 30
0.0
 10
9.1552549506
 20
7.1006183816
 30
0.0
 10
9.1419070881
 20
7.1251039879
 30
0.0
 10
9.1297310801
 20
7.1501349969
 30
0.0
 10
9.1187562674
 20
7.1756511643
 30
0.0
 10
9.1090091076
 20
7.2015910769
 30
0.0
 10
9.1005131149
 20
7.2278922995
 30
0.0
 10
9.0932887901
 20
7.2544915202
 30
0.0
 10
9.0873535644
 20
7.2813247024
 30
0.0
 10
9.0827217766
 20
7.3083272439
 30
0.0
 10
9.0794046341
 20
7.3354341296
 30
0.0
 10
9.0774101868
 20
7.3625800858
 30
0.0
 10
9.0767433066
 20
7.3896997362
 30
0.0
 10
9.0774056742
 20
7.4167277575
 30
0.0
 10
9.0793957497
 20
7.4435990379
 30
0.0
 10
9.0827087992
 20
7.470248835
 30
0.0
 10
9.0873369045
 20
7.4966129304
 30
0.0
 10
9.0932689809
 20
7.5226277829
 30
0.0
 10
9.1004908009
 20
7.5482306812
 30
0.0
 10
9.1089850306
 20
7.5733598937
 30
0.0
 10
9.1187312495
 20
7.597954825
 30
0.0
 10
9.1297060055
 20
7.6219561635
 30
0.0
 10
9.1418828827
 20
7.6453060206
 30
0.0
 10
9.1552325611
 20
7.6679480719
 30
0.0
 10
9.1697228866
 20
7.6898276938
 30
0.0
 10
9.1853189482
 20
7.7108920953
 30
0.0
 10
9.2019831569
 20
7.7310904512
 30
0.0
 10
9.2196753237
 20
7.7503740388
 30
0.0
 10
9.2383527782
 20
7.7686963428
 30
0.0
 10
9.2579704695
 20
7.78601317
 30
0.0
 10
9.278481076
 20
7.8022827562
 30
0.0
 10
9.2998351204
 20
7.817465868
 30
0.0
 10
9.3219810911
 20
7.8315258949
 30
0.0
 10
9.3448655555
 20
7.84442896
 30
0.0
 10
9.3684333023
 20
7.856143988
 30
0.0
 10
9.3926274798
 20
7.866642774
 30
0.0
 10
9.4173897331
 20
7.8759000508
 30
0.0
 10
9.4426603451
 20
7.88389355
 30
0.0
 10
9.4683783846
 20
7.8906040518
 30
0.0
 10
9.4944818351
 20
7.8960154304
 30
0.0
 10
9.5209078076
 20
7.9001147508
 30
0.0
 10
9.5475924763
 20
7.9028921295
 30
0.0
 10
9.5744719362
 20
7.9043410796
 30
0.0
 10
9.6014803708
 20
7.9044580144
 30
0.0
 10
9.6195001843
 20
7.9036491884
 30
0.0
 10
9.6285085086
 20
7.903024459
 30
0.0
  0
SPLINE
  5
3C4
100
AcDbEntity
  8
0
100
AcDbSpline
 62
7
  6
CONTINUOUS
 70
0
 71
3
 72
45
 73
41
 74
0
 42
0.0000001
 43
0.0000001
 44
0.0000000001
 40
0.0
 40
0.0
 40
0.0
 40
0.0
 40
0.0310651564
 40
0.0466545572
 40
0.0622794133
 40
0.0936287926
 40
0.1251094095
 40
0.1567109044
 40
0.188420619
 40
0.2202240024
 40
0.2521048456
 40
0.2680709658
 40
0.28404977
 40
0.3160318039
 40
0.3480358133
 40
0.3800421012
 40
0.4120309315
 40
0.4439828694
 40
0.4758791174
 40
0.5077018445
 40
0.5394345034
 40
0.571062131
 40
0.6025716287
 40
0.6339520163
 40
0.6651946555
 40
0.6962934381
 40
0.7272449331
 40
0.7580484894
 40
0.7887062874
 40
0.819223338
 40
0.8344338331
 40
0.8496122852
 40
0.8647600833
 40
0.8798787649
 40
0.9100307108
 40
0.9400881996
 40
0.9550893269
 40
0.9700733995
 40
0.9850428017
 40
1.0
 40
1.0
 40
1.0
 40
1.0
 10
9.6334399925
 20
8.7532813467
 30
0.0
 10
9.6236849825
 20
8.7539578589
 30
0.0
 10
9.609063323
 20
8.7554796449
 30
0.0
 10
9.589691133
 20
8.7585014814
 30
0.0
 10
9.5703438399
 20
8.7621949805
 30
0.0
 10
9.5463326545
 20
8.7680534677
 30
0.0
 10
9.5179706754
 20
8.7770209845
 30
0.0
 10
9.4901599335
 20
8.7878912275
 30
0.0
 10
9.4630335686
 20
8.8006122202
 30
0.0
 10
9.4367212415
 20
8.8151227647
 30
0.0
 10
9.4155850285
 20
8.8286435542
 30
0.0
 10
9.3992046112
 20
8.8402811642
 30
0.0
 10
9.383183917
 20
8.8524619311
 30
0.0
 10
9.3638945059
 20
8.8686619415
 30
0.0
 10
9.3420424139
 20
8.889559559
 30
0.0
 10
9.3215798097
 20
8.9118232695
 30
0.0
 10
9.302604839
 20
8.9353465048
 30
0.0
 10
9.2852077857
 20
8.9600173221
 30
0.0
 10
9.2694716558
 20
8.9857181571
 30
0.0
 10
9.2554715136
 20
9.0123265854
 30
0.0
 10
9.2432742001
 20
9.0397158445
 30
0.0
 10
9.2329379878
 20
9.0677554421
 30
0.0
 10
9.2245123081
 20
9.0963117688
 30
0.0
 10
9.2180375203
 20
9.1252487327
 30
0.0
 10
9.2135447123
 20
9.1544283903
 30
0.0
 10
9.2110555559
 20
9.1837116268
 30
0.0
 10
9.2105821662
 20
9.2129586998
 30
0.0
 10
9.2121271486
 20
9.2420303104
 30
0.0
 10
9.215683152
 20
9.2707867396
 30
0.0
 10
9.2203144708
 20
9.2944029129
 30
0.0
 10
9.2250052659
 20
9.3129951683
 30
0.0
 10
9.2290073993
 20
9.3267621088
 30
0.0
 10
9.2334923661
 20
9.3403489941
 30
0.0
 10
9.2401021765
 20
9.3581851046
 30
0.0
 10
9.2495438482
 20
9.3799595648
 30
0.0
 10
9.26052998
 20
9.4009557366
 30
0.0
 10
9.2702016079
 20
9.4171974772
 30
0.0
 10
9.2778850546
 20
9.4290842455
 30
0.0
 10
9.2859927925
 20
9.4406684431
 30
0.0
 10
9.291676793
 20
9.4481835895
 30
0.0
 10
9.2945857607
 20
9.4518855044
 30
0.0
  0
SPLINE
  5
3C5
100
AcDbEntity
  8
0
100
AcDbSpline
 62
7
  6
CONTINUOUS
 70
0
 71
3
 72
15
 73
11
 74
0
 42
0.0000001
 43
0.0000001
 44
0.0000000001
 40
0.0
 40
0.0
 40
0.0
 40
0.0
 40
0.1232822653
 40
0.2469238437
 40
0.3710051123
 40
0.4955958288
 40
0.6207535625
 40
0.7465228097
 40
0.8729323529
 40
1.0
 40
1.0
 40
1.0
 40
1.0
 10
11.5502992147
 20
6.9903073396
 30
0.0
 10
11.5398010416
 20
6.9838757904
 30
0.0
 10
11.5182501613
 20
6.971827871
 30
0.0
 10
11.4845457267
 20
6.9563527329
 30
0.0
 10
11.4496032816
 20
6.9435327509
 30
0.0
 10
11.4136213804
 20
6.933441027
 30
0.0
 10
11.3768011938
 20
6.9261331913
 30
0.0
 10
11.3393485809
 20
6.9216498817
 30
0.0
 10
11.3014758036
 20
6.9200153088
 30
0.0
 10
11.2761473317
 20
6.92082901
 30
0.0
 10
11.263488069
 20
6.9217069328
 30
0.0
  0
SPLINE
  5
3C6
100
AcDbEntity
  8
0
100
AcDbSpline
 62
4
  6
CONTINUOUS
 70
0
 71
3
 72
345
 73
341
 74
0
 42
0.0000001
 43
0.0000001
 44
0.0000000001
 40
0.0
 40
0.0
 40
0.0
 40
0.0
 40
0.015625
 40
0.0234375
 40
0.03125
 40
0.0390625
 40
0.04296875
 40
0.046875
 40
0.05078125
 40
0.0546875
 40
0.056640625
 40
0.05859375
 40
0.0595703125
 40
0.060546875
 40
0.0615234375
 40
0.0620117188
 40
0.0622558594
 40
0.0625
 40
0.0627441406
 40
0.0629882812
 40
0.0634765625
 40
0.064453125
 40
0.0654296875
 40
0.06640625
 40
0.068359375
 40
0.0703125
 40
0.07421875
 40
0.078125
 40
0.08203125
 40
0.0859375
 40
0.09375
 40
0.1015625
 40
0.10546875
 40
0.109375
 40
0.11328125
 40
0.1171875
 40
0.119140625
 40
0.12109375
 40
0.1220703125
 40
0.123046875
 40
0.1240234375
 40
0.1245117188
 40
0.1247558594
 40
0.125
 40
0.1252441406
 40
0.1254882812
 40
0.1259765625
 40
0.126953125
 40
0.1279296875
 40
0.12890625
 40
0.130859375
 40
0.1328125
 40
0.13671875
 40
0.140625
 40
0.14453125
 40
0.1484375
 40
0.15625
 40
0.1640625
 40
0.16796875
 40
0.171875
 40
0.17578125
 40
0.1796875
 40
0.181640625
 40
0.18359375
 40
0.1845703125
 40
0.185546875
 40
0.1865234375
 40
0.1870117188
 40
0.1875
 40
0.1879882812
 40
0.1884765625
 40
0.189453125
 40
0.1904296875
 40
0.19140625
 40
0.193359375
 40
0.1953125
 40
0.19921875
 40
0.203125
 40
0.20703125
 40
0.2109375
 40
0.21875
 40
0.2265625
 40
0.234375
 40
0.23828125
 40
0.2421875
 40
0.244140625
 40
0.24609375
 40
0.248046875
 40
0.2490234375
 40
0.2495117188
 40
0.25
 40
0.2504882812
 40
0.2509765625
 40
0.251953125
 40
0.25390625
 40
0.255859375
 40
0.2578125
 40
0.26171875
 40
0.265625
 40
0.2734375
 40
0.28125
 40
0.2890625
 40
0.296875
 40
0.30078125
 40
0.3046875
 40
0.306640625
 40
0.30859375
 40
0.310546875
 40
0.3115234375
 40
0.3125
 40
0.3134765625
 40
0.314453125
 40
0.31640625
 40
0.318359375
 40
0.3203125
 40
0.32421875
 40
0.328125
 40
0.3359375
 40
0.34375
 40
0.3515625
 40
0.359375
 40
0.36328125
 40
0.3671875
 40
0.37109375
 40
0.373046875
 40
0.3740234375
 40
0.375
 40
0.3759765625
 40
0.376953125
 40
0.37890625
 40
0.3828125
 40
0.38671875
 40
0.390625
 40
0.3984375
 40
0.40625
 40
0.4140625
 40
0.421875
 40
0.42578125
 40
0.4296875
 40
0.43359375
 40
0.435546875
 40
0.4365234375
 40
0.4375
 40
0.4384765625
 40
0.439453125
 40
0.44140625
 40
0.4453125
 40
0.44921875
 40
0.453125
 40
0.4609375
 40
0.46875
 40
0.4765625
 40
0.484375
 40
0.48828125
 40
0.4921875
 40
0.494140625
 40
0.49609375
 40
0.498046875
 40
0.4990234375
 40
0.4995117188
 40
0.5
 40
0.5004882812
 40
0.5009765625
 40
0.501953125
 40
0.50390625
 40
0.505859375
 40
0.5078125
 40
0.51171875
 40
0.515625
 40
0.5234375
 40
0.53125
 40
0.5390625
 40
0.546875
 40
0.55078125
 40
0.5546875
 40
0.556640625
 40
0.55859375
 40
0.560546875
 40
0.5615234375
 40
0.5620117188
 40
0.5625
 40
0.5629882812
 40
0.5634765625
 40
0.564453125
 40
0.56640625
 40
0.568359375
 40
0.5703125
 40
0.57421875
 40
0.578125
 40
0.5859375
 40
0.59375
 40
0.6015625
 40
0.609375
 40
0.61328125
 40
0.6171875
 40
0.619140625
 40
0.62109375
 40
0.623046875
 40
0.6240234375
 40
0.6245117188
 40
0.625
 40
0.6254882812
 40
0.6259765625
 40
0.626953125
 40
0.62890625
 40
0.630859375
 40
0.6328125
 40
0.63671875
 40
0.640625
 40
0.6484375
 40
0.65625
 40
0.6640625
 40
0.66796875
 40
0.671875
 40
0.67578125
 40
0.6796875
 40
0.681640625
 40
0.68359375
 40
0.685546875
 40
0.6865234375
 40
0.6870117188
 40
0.6875
 40
0.6879882812
 40
0.6884765625
 40
0.689453125
 40
0.69140625
 40
0.693359375
 40
0.6953125
 40
0.69921875
 40
0.703125
 40
0.70703125
 40
0.7109375
 40
0.71875
 40
0.7265625
 40
0.73046875
 40
0.734375
 40
0.73828125
 40
0.7421875
 40
0.744140625
 40
0.74609375
 40
0.7470703125
 40
0.748046875
 40
0.7490234375
 40
0.7495117188
 40
0.7497558594
 40
0.75
 40
0.7502441406
 40
0.7504882812
 40
0.7509765625
 40
0.751953125
 40
0.7529296875
 40
0.75390625
 40
0.755859375
 40
0.7578125
 40
0.76171875
 40
0.765625
 40
0.76953125
 40
0.7734375
 40
0.78125
 40
0.7890625
 40
0.79296875
 40
0.796875
 40
0.80078125
 40
0.8046875
 40
0.806640625
 40
0.80859375
 40
0.8095703125
 40
0.810546875
 40
0.8115234375
 40
0.8120117188
 40
0.8122558594
 40
0.8125
 40
0.8127441406
 40
0.8129882812
 40
0.8134765625
 40
0.814453125
 40
0.8154296875
 40
0.81640625
 40
0.818359375
 40
0.8203125
 40
0.82421875
 40
0.828125
 40
0.83203125
 40
0.8359375
 40
0.84375
 40
0.8515625
 40
0.85546875
 40
0.859375
 40
0.86328125
 40
0.8671875
 40
0.869140625
 40
0.87109375
 40
0.8720703125
 40
0.873046875
 40
0.8740234375
 40
0.8745117188
 40
0.8747558594
 40
0.875
 40
0.8752441406
 40
0.8754882812
 40
0.8759765625
 40
0.876953125
 40
0.8779296875
 40
0.87890625
 40
0.880859375
 40
0.8828125
 40
0.88671875
 40
0.890625
 40
0.89453125
 40
0.8984375
 40
0.90625
 40
0.9140625
 40
0.91796875
 40
0.921875
 40
0.92578125
 40
0.9296875
 40
0.931640625
 40
0.93359375
 40
0.9345703125
 40
0.935546875
 40
0.9365234375
 40
0.9370117188
 40
0.9372558594
 40
0.9375
 40
0.9377441406
 40
0.9379882812
 40
0.9384765625
 40
0.939453125
 40
0.9404296875
 40
0.94140625
 40
0.943359375
 40
0.9453125
 40
0.94921875
 40
0.953125
 40
0.95703125
 40
0.9609375
 40
0.96875
 40
0.9765625
 40
0.984375
 40
1.0
 40
1.0
 40
1.0
 40
1.0
 10
12.8178679562
 20
8.6668306013
 30
0.0
 10
12.817028422
 20
8.6657124618
 30
0.0
 10
12.8157691208
 20
8.6640352527
 30
0.0
 10
12.8140900525
 20
8.6617989738
 30
0.0
 10
12.8128307512
 20
8.6601217646
 30
0.0
 10
12.8117813335
 20
8.6587240904
 30
0.0
 10
12.8109417994
 20
8.6576059507
 30
0.0
 10
12.8103121487
 20
8.656767347
 30
0.0
 10
12.8096824983
 20
8.655928739
 30
0.0
 10
12.8091577888
 20
8.6552299127
 30
0.0
 10
12.808738023
 20
8.6546708208
 30
0.0
 10
12.8084756654
 20
8.6543214586
 30
0.0
 10
12.8082657883
 20
8.654041808
 30
0.0
 10
12.8081083559
 20
8.6538325107
 30
0.0
 10
12.8079772406
 20
8.6536566943
 30
0.0
 10
12.807885306
 20
8.6535363741
 30
0.0
 10
12.8078330122
 20
8.6534633239
 30
0.0
 10
12.8077931151
 20
8.6534206376
 30
0.0
 10
12.8077558048
 20
8.6533316936
 30
0.0
 10
12.8077051555
 20
8.6532292368
 30
0.0
 10
12.8076169395
 20
8.6530424197
 30
0.0
 10
12.8074906969
 20
8.6527794684
 30
0.0
 10
12.8073392998
 20
8.6524622446
 30
0.0
 10
12.8071374042
 20
8.6520398671
 30
0.0
 10
12.8068850459
 20
8.6515116941
 30
0.0
 10
12.8064812664
 20
8.6506667297
 30
0.0
 10
12.8059765441
 20
8.6496104856
 30
0.0
 10
12.8053708765
 20
8.6483430092
 30
0.0
 10
12.8047652091
 20
8.6470755284
 30
0.0
 10
12.8039576526
 20
8.6453855555
 30
0.0
 10
12.8029482069
 20
8.6432730888
 30
0.0
 10
12.8019387611
 20
8.6411606225
 30
0.0
 10
12.8011312046
 20
8.6394706491
 30
0.0
 10
12.8005255371
 20
8.63820317
 30
0.0
 10
12.79991987
 20
8.636935687
 30
0.0
 10
12.799415146
 20
8.6358794634
 30
0.0
 10
12.7990113701
 20
8.6350344571
 30
0.0
 10
12.7987590025
 20
8.6345063906
 30
0.0
 10
12.7985571261
 20
8.6340837945
 30
0.0
 10
12.7984056704
 20
8.6337672386
 30
0.0
 10
12.7982796112
 20
8.6335021978
 30
0.0
 10
12.7981910678
 20
8.6333191108
 30
0.0
 10
12.798140943
 20
8.6332106774
 30
0.0
 10
12.7981020216
 20
8.6331400916
 30
0.0
 10
12.7980681753
 20
8.6330284551
 30
0.0
 10
12.7980212767
 20
8.6328939254
 30
0.0
 10
12.7979400289
 20
8.632651827
 30
0.0
 10
12.7978235294
 20
8.63230946
 30
0.0
 10
12.7976839146
 20
8.6318971266
 30
0.0
 10
12.7974976971
 20
8.6313478703
 30
0.0
 10
12.7972649472
 20
8.6306611214
 30
0.0
 10
12.7968925351
 20
8.6295624229
 30
0.0
 10
12.7964270241
 20
8.6281890155
 30
0.0
 10
12.7958684092
 20
8.6265409413
 30
0.0
 10
12.7953097948
 20
8.6248928632
 30
0.0
 10
12.7945649753
 20
8.6226954271
 30
0.0
 10
12.7936339511
 20
8.6199486316
 30
0.0
 10
12.7927029269
 20
8.6172018358
 30
0.0
 10
12.7919581074
 20
8.6150044002
 30
0.0
 10
12.7913994932
 20
8.6133563207
 30
0.0
 10
12.7908408773
 20
8.6117082516
 30
0.0
 10
12.7903753695
 20
8.6103348284
 30
0.0
 10
12.790002951
 20
8.6092361621
 30
0.0
 10
12.7897702173
 20
8.6085493313
 30
0.0
 10
12.7895839665
 20
8.608000243
 30
0.0
 10
12.7894444533
 20
8.6075873964
 30
0.0
 10
12.7893276359
 20
8.6072466354
 30
0.0
 10
12.7892354298
 20
8.606966675
 30
0.0
 10
12.7891628658
 20
8.6067767928
 30
0.0
 10
12.7891033155
 20
8.6065102338
 30
0.0
 10
12.7890193693
 20
8.6061816061
 30
0.0
 10
12.7889159962
 20
8.6057616319
 30
0.0
 10
12.7887912809
 20
8.6052615963
 30
0.0
 10
12.788625227
 20
8.6045935083
 30
0.0
 10
12.7884175798
 20
8.6037588687
 30
0.0
 10
12.7880853889
 20
8.6024231825
 30
0.0
 10
12.787670135
 20
8.6007536649
 30
0.0
 10
12.7871718368
 20
8.5987502051
 30
0.0
 10
12.7866735369
 20
8.5967467556
 30
0.0
 10
12.7860091376
 20
8.594075486
 30
0.0
 10
12.7851786379
 20
8.5907364011
 30
0.0
 10
12.7841820404
 20
8.5867294943
 30
0.0
 10
12.7833515362
 20
8.5833904189
 30
0.0
 10
12.7826871468
 20
8.5807191284
 30
0.0
 10
12.7822718718
 20
8.5790496404
 30
0.0
 10
12.7819397243
 20
8.5777138931
 30
0.0
 10
12.7816904149
 20
8.5767125121
 30
0.0
 10
12.7814832895
 20
8.5758766617
 30
0.0
 10
12.7813370606
 20
8.5752942477
 30
0.0
 10
12.781255439
 20
8.5749572531
 30
0.0
 10
12.7811887643
 20
8.5747163009
 30
0.0
 10
12.7811429547
 20
8.5744302668
 30
0.0
 10
12.7810745972
 20
8.574064613
 30
0.0
 10
12.7809583626
 20
8.5734173924
 30
0.0
 10
12.7807905403
 20
8.5724966219
 30
0.0
 10
12.7805899124
 20
8.5713900578
 30
0.0
 10
12.7803221435
 20
8.5699152116
 30
0.0
 10
12.7799875231
 20
8.5680714578
 30
0.0
 10
12.7794520798
 20
8.5651215613
 30
0.0
 10
12.7787827927
 20
8.5614341535
 30
0.0
 10
12.7779796423
 20
8.5570092778
 30
0.0
 10
12.777176488
 20
8.5525844069
 30
0.0
 10
12.7765072109
 20
8.548896987
 30
0.0
 10
12.7759717476
 20
8.5459471148
 30
0.0
 10
12.7756371779
 20
8.5441032992
 30
0.0
 10
12.7753693049
 20
8.5426285798
 30
0.0
 10
12.7751689951
 20
8.5415216284
 30
0.0
 10
12.7750001775
 20
8.5406020696
 30
0.0
 10
12.7748693686
 20
8.5398599168
 30
0.0
 10
12.774759662
 20
8.5393210789
 30
0.0
 10
12.7746942327
 20
8.5387143874
 30
0.0
 10
12.774591527
 20
8.5379291675
 30
0.0
 10
12.7744684513
 20
8.5369395106
 30
0.0
 10
12.7743184892
 20
8.535755403
 30
0.0
 10
12.7741193331
 20
8.5341753772
 30
0.0
 10
12.7738701163
 20
8.5322007612
 30
0.0
 10
12.7734715211
 20
8.5290411431
 30
0.0
 10
12.7729732265
 20
8.5250916994
 30
0.0
 10
12.7723752885
 20
8.5203523367
 30
0.0
 10
12.7717773692
 20
8.5156129686
 30
0.0
 10
12.7712790278
 20
8.5116635382
 30
0.0
 10
12.770880526
 20
8.5085038935
 30
0.0
 10
12.770581181
 20
8.5061344353
 30
0.0
 10
12.7703332174
 20
8.504159011
 30
0.0
 10
12.7701567178
 20
8.5027779327
 30
0.0
 10
12.7700604282
 20
8.5019860614
 30
0.0
 10
12.7699753449
 20
8.5013997179
 30
0.0
 10
12.7699394423
 20
8.5007844767
 30
0.0
 10
12.7698744174
 20
8.499974235
 30
0.0
 10
12.7697686166
 20
8.4985516156
 30
0.0
 10
12.7696132939
 20
8.4965217575
 30
0.0
 10
12.7694286953
 20
8.4940848769
 30
0.0
 10
12.7691819388
 20
8.4908360698
 30
0.0
 10
12.7688737092
 20
8.4867749347
 30
0.0
 10
12.7685037345
 20
8.4819016277
 30
0.0
 10
12.7681338107
 20
8.4770283026
 30
0.0
 10
12.7678254539
 20
8.4729672126
 30
0.0
 10
12.7675789517
 20
8.4697183153
 30
0.0
 10
12.7673935775
 20
8.4672817099
 30
0.0
 10
12.7672406813
 20
8.4652509907
 30
0.0
 10
12.7671305487
 20
8.4638299085
 30
0.0
 10
12.7670724645
 20
8.4630172038
 30
0.0
 10
12.7670152423
 20
8.4624095283
 30
0.0
 10
12.767010232
 20
8.4617947693
 30
0.0
 10
12.7669853396
 20
8.4609775615
 30
0.0
 10
12.7669502631
 20
8.4595462967
 30
0.0
 10
12.7668957177
 20
8.4575022344
 30
0.0
 10
12.7668321621
 20
8.4550491022
 30
0.0
 10
12.7667467579
 20
8.4517783491
 30
0.0
 10
12.7666402304
 20
8.447689877
 30
0.0
 10
12.7665122991
 20
8.4427837229
 30
0.0
 10
12.7663843966
 20
8.4378775686
 30
0.0
 10
12.7662777972
 20
8.433789097
 30
0.0
 10
12.7661925369
 20
8.430518343
 30
0.0
 10
12.766139208
 20
8.4284740684
 30
0.0
 10
12.7660966391
 20
8.426838771
 30
0.0
 10
12.7660644542
 20
8.4256119632
 30
0.0
 10
12.7660384552
 20
8.424590688
 30
0.0
 10
12.7660186432
 20
8.4238737063
 30
0.0
 10
12.7660098401
 20
8.4234672642
 30
0.0
 10
12.7659961445
 20
8.4231532441
 30
0.0
 10
12.766009563
 20
8.4228743475
 30
0.0
 10
12.7660179965
 20
8.4224902338
 30
0.0
 10
12.7660371618
 20
8.421823743
 30
0.0
 10
12.766062237
 20
8.4208686291
 30
0.0
 10
12.7660933133
 20
8.4197237697
 30
0.0
 10
12.7661344039
 20
8.4181968444
 30
0.0
 10
12.7661858851
 20
8.4162883405
 30
0.0
 10
12.7662681891
 20
8.4132346489
 30
0.0
 10
12.766371092
 20
8.4094175639
 30
0.0
 10
12.7664945649
 20
8.4048370482
 30
0.0
 10
12.766618043
 20
8.4002565402
 30
0.0
 10
12.7667209331
 20
8.3964394361
 30
0.0
 10
12.7668032626
 20
8.3933857827
 30
0.0
 10
12.7668546789
 20
8.3914771817
 30
0.0
 10
12.7668959029
 20
8.3899504558
 30
0.0
 10
12.7669265719
 20
8.388804987
 30
0.0
 10
12.7669529213
 20
8.3878517798
 30
0.0
 10
12.7669698118
 20
8.3871818853
 30
0.0
 10
12.7669818901
 20
8.3868032253
 30
0.0
 10
12.7669841133
 20
8.3865075766
 30
0.0
 10
12.767012465
 20
8.3862564742
 30
0.0
 10
12.7670411534
 20
8.3859061327
 30
0.0
 10
12.7670956044
 20
8.3853002747
 30
0.0
 10
12.7671711715
 20
8.3844309783
 30
0.0
 10
12.7672628022
 20
8.3833894427
 30
0.0
 10
12.7673846446
 20
8.3820001627
 30
0.0
 10
12.7675370613
 20
8.3802637565
 30
0.0
 10
12.7677808645
 20
8.3774853982
 30
0.0
 10
12.7680856404
 20
8.3740124878
 30
0.0
 10
12.7684513615
 20
8.3698449779
 30
0.0
 10
12.7688170874
 20
8.3656774781
 30
0.0
 10
12.7691218511
 20
8.3622045422
 30
0.0
 10
12.7693656786
 20
8.3594262349
 30
0.0
 10
12.7695180334
 20
8.3576896991
 30
0.0
 10
12.7696400029
 20
8.3563006851
 30
0.0
 10
12.7697312454
 20
8.355258337
 30
0.0
 10
12.7698080272
 20
8.3543915826
 30
0.0
 10
12.7698603098
 20
8.3537811867
 30
0.0
 10
12.7698924725
 20
8.353438116
 30
0.0
 10
12.7699101522
 20
8.3531646802
 30
0.0
 10
12.7699524578
 20
8.3529529119
 30
0.0
 10
12.7700002755
 20
8.3526490439
 30
0.0
 10
12.7700879586
 20
8.352127297
 30
0.0
 10
12.7702111278
 20
8.3513767045
 30
0.0
 10
12.7703598265
 20
8.3504782364
 30
0.0
 10
12.7705577786
 20
8.3492794954
 30
0.0
 10
12.7708053258
 20
8.3477813375
 30
0.0
 10
12.7712013415
 20
8.3453841349
 30
0.0
 10
12.7716963817
 20
8.3423876829
 30
0.0
 10
12.7722904212
 20
8.338791919
 30
0.0
 10
12.7727854556
 20
8.3357954526
 30
0.0
 10
12.7731814838
 20
8.3333982819
 30
0.0
 10
12.773478502
 20
8.3316003946
 30
0.0
 10
12.773775532
 20
8.3298025431
 30
0.0
 10
12.7740230198
 20
8.3283042219
 30
0.0
 10
12.7742210935
 20
8.3271058148
 30
0.0
 10
12.7743694209
 20
8.3262063268
 30
0.0
 10
12.7744937517
 20
8.3254589251
 30
0.0
 10
12.7745793612
 20
8.3249314823
 30
0.0
 10
12.7746305013
 20
8.3246367404
 30
0.0
 10
12.7746626017
 20
8.3243969395
 30
0.0
 10
12.7747186106
 20
8.3242287899
 30
0.0
 10
12.7747849495
 20
8.3239795976
 30
0.0
 10
12.7749049282
 20
8.3235551558
 30
0.0
 10
12.775074295
 20
8.3229427224
 30
0.0
 10
12.7752784046
 20
8.3222104081
 30
0.0
 10
12.775550247
 20
8.3212330788
 30
0.0
 10
12.7758901543
 20
8.3200117296
 30
0.0
 10
12.7762979983
 20
8.3185459766
 30
0.0
 10
12.7767058543
 20
8.3170802594
 30
0.0
 10
12.7772496581
 20
8.3151259574
 30
0.0
 10
12.7779294142
 20
8.3126830841
 30
0.0
 10
12.7786091699
 20
8.3102402091
 30
0.0
 10
12.7791529746
 20
8.3082859099
 30
0.0
 10
12.7795608278
 20
8.3068201842
 30
0.0
 10
12.779968682
 20
8.3053544631
 30
0.0
 10
12.7803085578
 20
8.3041330148
 30
0.0
 10
12.7805804643
 20
8.3031558877
 30
0.0
 10
12.7807503926
 20
8.3025451112
 30
0.0
 10
12.7808863656
 20
8.302056655
 30
0.0
 10
12.7809882621
 20
8.3016898614
 30
0.0
 10
12.7810734408
 20
8.3013856359
 30
0.0
 10
12.781132546
 20
8.3011698603
 30
0.0
 10
12.7811671321
 20
8.3010509597
 30
0.0
 10
12.7811907852
 20
8.3009493901
 30
0.0
 10
12.7812231782
 20
8.3008951974
 30
0.0
 10
12.7812633204
 20
8.3008064149
 30
0.0
 10
12.7813349896
 20
8.3006587451
 30
0.0
 10
12.7814366316
 20
8.3004437627
 30
0.0
 10
12.7815589198
 20
8.300187507
 30
0.0
 10
12.7817218597
 20
8.2998452308
 30
0.0
 10
12.7819255726
 20
8.2994175917
 30
0.0
 10
12.7822514921
 20
8.2987332539
 30
0.0
 10
12.7826588986
 20
8.2978778712
 30
0.0
 10
12.7831477834
 20
8.296851395
 30
0.0
 10
12.783636669
 20
8.2958249234
 30
0.0
 10
12.7842885162
 20
8.2944562929
 30
0.0
 10
12.7851033253
 20
8.2927455054
 30
0.0
 10
12.7859181343
 20
8.2910347175
 30
0.0
 10
12.7865699816
 20
8.2896660877
 30
0.0
 10
12.7870588669
 20
8.2886396141
 30
0.0
 10
12.7875477528
 20
8.2876131452
 30
0.0
 10
12.7879551556
 20
8.28675774
 30
0.0
 10
12.7882810828
 20
8.2860734481
 30
0.0
 10
12.788484776
 20
8.2856456921
 30
0.0
 10
12.7886477564
 20
8.2853036559
 30
0.0
 10
12.7887699211
 20
8.2850466671
 30
0.0
 10
12.7888719495
 20
8.2848339783
 30
0.0
 10
12.7889429288
 20
8.2846822141
 30
0.0
 10
12.7889841764
 20
8.2845999919
 30
0.0
 10
12.7890131739
 20
8.284525648
 30
0.0
 10
12.7890495801
 20
8.2844997628
 30
0.0
 10
12.7890955375
 20
8.2844483463
 30
0.0
 10
12.7891771669
 20
8.2843662428
 30
0.0
 10
12.789293151
 20
8.2842448347
 30
0.0
 10
12.7894326012
 20
8.2841009074
 30
0.0
 10
12.7896184408
 20
8.2839083887
 30
0.0
 10
12.7898507725
 20
8.2836679512
 30
0.0
 10
12.7902224851
 20
8.2832831332
 30
0.0
 10
12.7906871322
 20
8.2828021513
 30
0.0
 10
12.791244706
 20
8.2822249556
 30
0.0
 10
12.7918022805
 20
8.2816477645
 30
0.0
 10
12.7925457129
 20
8.2808781749
 30
0.0
 10
12.7934750035
 20
8.2799161883
 30
0.0
 10
12.794404294
 20
8.2789542014
 30
0.0
 10
12.7951477265
 20
8.2781846124
 30
0.0
 10
12.7957053008
 20
8.2776074194
 30
0.0
 10
12.7962628755
 20
8.2770302312
 30
0.0
 10
12.7967275196
 20
8.2765492259
 30
0.0
 10
12.7970992383
 20
8.2761644555
 30
0.0
 10
12.7973315547
 20
8.2759238969
 30
0.0
 10
12.7975174256
 20
8.2757316268
 30
0.0
 10
12.79765678
 20
8.27558694
 30
0.0
 10
12.7977730638
 20
8.2754679081
 30
0.0
 10
12.7978541581
 20
8.2753815627
 30
0.0
 10
12.797900973
 20
8.2753369428
 30
0.0
 10
12.7979347452
 20
8.2752901804
 30
0.0
 10
12.7979736355
 20
8.2752942479
 30
0.0
 10
12.7980237039
 20
8.2752819412
 30
0.0
 10
12.7981121554
 20
8.2752686653
 30
0.0
 10
12.7982380799
 20
8.2752453808
 30
0.0
 10
12.7983893754
 20
8.275219288
 30
0.0
 10
12.7985910378
 20
8.2751838519
 30
0.0
 10
12.7988431379
 20
8.2751397779
 30
0.0
 10
12.7992464858
 20
8.275069136
 30
0.0
 10
12.7997506748
 20
8.274980876
 30
0.0
 10
12.8003556999
 20
8.2748749457
 30
0.0
 10
12.8009607254
 20
8.2747690204
 30
0.0
 10
12.8017674259
 20
8.2746277849
 30
0.0
 10
12.8027758017
 20
8.2744512411
 30
0.0
 10
12.8037841774
 20
8.274274697
 30
0.0
 10
12.804590878
 20
8.2741334621
 30
0.0
 10
12.8051959033
 20
8.2740275347
 30
0.0
 10
12.805800929
 20
8.2739216123
 30
0.0
 10
12.806305116
 20
8.273833328
 30
0.0
 10
12.8067084681
 20
8.2737627355
 30
0.0
 10
12.8069605573
 20
8.2737185356
 30
0.0
 10
12.8071622421
 20
8.2736833581
 30
0.0
 10
12.807313469
 20
8.2736564754
 30
0.0
 10
12.8074396082
 20
8.2736356623
 30
0.0
 10
12.8075276764
 20
8.2736179745
 30
0.0
 10
12.807578359
 20
8.2736127367
 30
0.0
 10
12.8076153629
 20
8.2735950907
 30
0.0
 10
12.8076562198
 20
8.2736298807
 30
0.0
 10
12.8077093516
 20
8.2736579772
 30
0.0
 10
12.8078029585
 20
8.2737156677
 30
0.0
 10
12.8079363553
 20
8.2737936275
 30
0.0
 10
12.8080965716
 20
8.2738890863
 30
0.0
 10
12.8083101444
 20
8.2740156985
 30
0.0
 10
12.8085771271
 20
8.2741741919
 30
0.0
 10
12.8090042901
 20
8.2744276539
 30
0.0
 10
12.809538247
 20
8.2747445251
 30
0.0
 10
12.8101789939
 20
8.2751247517
 30
0.0
 10
12.8108197412
 20
8.2755049834
 30
0.0
 10
12.8116740708
 20
8.2760119573
 30
0.0
 10
12.8127419829
 20
8.2766456752
 30
0.0
 10
12.8140234774
 20
8.2774061364
 30
0.0
 10
12.8157321366
 20
8.2784200847
 30
0.0
 10
12.8170136311
 20
8.279180546
 30
0.0
 10
12.8178679607
 20
8.2796875202
 30
0.0
  0
SPLINE
  5
3C7
100
AcDbEntity
  8
0
100
AcDbSpline
 62
4
  6
CONTINUOUS
 70
0
 71
3
 72
345
 73
341
 74
0
 42
0.0000001
 43
0.0000001
 44
0.0000000001
 40
0.0
 40
0.0
 40
0.0
 40
0.0
 40
0.015625
 40
0.0234375
 40
0.03125
 40
0.0390625
 40
0.04296875
 40
0.046875
 40
0.05078125
 40
0.0546875
 40
0.056640625
 40
0.05859375
 40
0.0595703125
 40
0.060546875
 40
0.0615234375
 40
0.0620117188
 40
0.0622558594
 40
0.0625
 40
0.0627441406
 40
0.0629882812
 40
0.0634765625
 40
0.064453125
 40
0.0654296875
 40
0.06640625
 40
0.068359375
 40
0.0703125
 40
0.07421875
 40
0.078125
 40
0.08203125
 40
0.0859375
 40
0.09375
 40
0.1015625
 40
0.10546875
 40
0.109375
 40
0.11328125
 40
0.1171875
 40
0.119140625
 40
0.12109375
 40
0.1220703125
 40
0.123046875
 40
0.1240234375
 40
0.1245117188
 40
0.1247558594
 40
0.125
 40
0.1252441406
 40
0.1254882812
 40
0.1259765625
 40
0.126953125
 40
0.1279296875
 40
0.12890625
 40
0.130859375
 40
0.1328125
 40
0.13671875
 40
0.140625
 40
0.14453125
 40
0.1484375
 40
0.15625
 40
0.1640625
 40
0.16796875
 40
0.171875
 40
0.17578125
 40
0.1796875
 40
0.181640625
 40
0.18359375
 40
0.1845703125
 40
0.185546875
 40
0.1865234375
 40
0.1870117188
 40
0.1875
 40
0.1879882812
 40
0.1884765625
 40
0.189453125
 40
0.1904296875
 40
0.19140625
 40
0.193359375
 40
0.1953125
 40
0.19921875
 40
0.203125
 40
0.20703125
 40
0.2109375
 40
0.21875
 40
0.2265625
 40
0.234375
 40
0.23828125
 40
0.2421875
 40
0.244140625
 40
0.24609375
 40
0.248046875
 40
0.2490234375
 40
0.2495117188
 40
0.25
 40
0.2504882812
 40
0.2509765625
 40
0.251953125
 40
0.25390625
 40
0.255859375
 40
0.2578125
 40
0.26171875
 40
0.265625
 40
0.2734375
 40
0.28125
 40
0.2890625
 40
0.296875
 40
0.30078125
 40
0.3046875
 40
0.306640625
 40
0.30859375
 40
0.310546875
 40
0.3115234375
 40
0.3125
 40
0.3134765625
 40
0.314453125
 40
0.31640625
 40
0.318359375
 40
0.3203125
 40
0.32421875
 40
0.328125
 40
0.3359375
 40
0.34375
 40
0.3515625
 40
0.359375
 40
0.36328125
 40
0.3671875
 40
0.37109375
 40
0.373046875
 40
0.3740234375
 40
0.375
 40
0.3759765625
 40
0.376953125
 40
0.37890625
 40
0.3828125
 40
0.38671875
 40
0.390625
 40
0.3984375
 40
0.40625
 40
0.4140625
 40
0.421875
 40
0.42578125
 40
0.4296875
 40
0.43359375
 40
0.435546875
 40
0.4365234375
 40
0.4375
 40
0.4384765625
 40
0.439453125
 40
0.44140625
 40
0.4453125
 40
0.44921875
 40
0.453125
 40
0.4609375
 40
0.46875
 40
0.4765625
 40
0.484375
 40
0.48828125
 40
0.4921875
 40
0.494140625
 40
0.49609375
 40
0.498046875
 40
0.4990234375
 40
0.4995117188
 40
0.5
 40
0.5004882812
 40
0.5009765625
 40
0.501953125
 40
0.50390625
 40
0.505859375
 40
0.5078125
 40
0.51171875
 40
0.515625
 40
0.5234375
 40
0.53125
 40
0.5390625
 40
0.546875
 40
0.55078125
 40
0.5546875
 40
0.556640625
 40
0.55859375
 40
0.560546875
 40
0.5615234375
 40
0.5620117188
 40
0.5625
 40
0.5629882812
 40
0.5634765625
 40
0.564453125
 40
0.56640625
 40
0.568359375
 40
0.5703125
 40
0.57421875
 40
0.578125
 40
0.5859375
 40
0.59375
 40
0.6015625
 40
0.609375
 40
0.61328125
 40
0.6171875
 40
0.619140625
 40
0.62109375
 40
0.623046875
 40
0.6240234375
 40
0.6245117188
 40
0.625
 40
0.6254882812
 40
0.6259765625
 40
0.626953125
 40
0.62890625
 40
0.630859375
 40
0.6328125
 40
0.63671875
 40
0.640625
 40
0.6484375
 40
0.65625
 40
0.6640625
 40
0.66796875
 40
0.671875
 40
0.67578125
 40
0.6796875
 40
0.681640625
 40
0.68359375
 40
0.685546875
 40
0.6865234375
 40
0.6870117188
 40
0.6875
 40
0.6879882812
 40
0.6884765625
 40
0.689453125
 40
0.69140625
 40
0.693359375
 40
0.6953125
 40
0.69921875
 40
0.703125
 40
0.70703125
 40
0.7109375
 40
0.71875
 40
0.7265625
 40
0.73046875
 40
0.734375
 40
0.73828125
 40
0.7421875
 40
0.744140625
 40
0.74609375
 40
0.7470703125
 40
0.748046875
 40
0.7490234375
 40
0.7495117188
 40
0.7497558594
 40
0.75
 40
0.7502441406
 40
0.7504882812
 40
0.7509765625
 40
0.751953125
 40
0.7529296875
 40
0.75390625
 40
0.755859375
 40
0.7578125
 40
0.76171875
 40
0.765625
 40
0.76953125
 40
0.7734375
 40
0.78125
 40
0.7890625
 40
0.79296875
 40
0.796875
 40
0.80078125
 40
0.8046875
 40
0.806640625
 40
0.80859375
 40
0.8095703125
 40
0.810546875
 40
0.8115234375
 40
0.8120117188
 40
0.8122558594
 40
0.8125
 40
0.8127441406
 40
0.8129882812
 40
0.8134765625
 40
0.814453125
 40
0.8154296875
 40
0.81640625
 40
0.818359375
 40
0.8203125
 40
0.82421875
 40
0.828125
 40
0.83203125
 40
0.8359375
 40
0.84375
 40
0.8515625
 40
0.85546875
 40
0.859375
 40
0.86328125
 40
0.8671875
 40
0.869140625
 40
0.87109375
 40
0.8720703125
 40
0.873046875
 40
0.8740234375
 40
0.8745117188
 40
0.8747558594
 40
0.875
 40
0.8752441406
 40
0.8754882812
 40
0.8759765625
 40
0.876953125
 40
0.8779296875
 40
0.87890625
 40
0.880859375
 40
0.8828125
 40
0.88671875
 40
0.890625
 40
0.89453125
 40
0.8984375
 40
0.90625
 40
0.9140625
 40
0.91796875
 40
0.921875
 40
0.92578125
 40
0.9296875
 40
0.931640625
 40
0.93359375
 40
0.9345703125
 40
0.935546875
 40
0.9365234375
 40
0.9370117188
 40
0.9372558594
 40
0.9375
 40
0.9377441406
 40
0.9379882812
 40
0.9384765625
 40
0.939453125
 40
0.9404296875
 40
0.94140625
 40
0.943359375
 40
0.9453125
 40
0.94921875
 40
0.953125
 40
0.95703125
 40
0.9609375
 40
0.96875
 40
0.9765625
 40
0.984375
 40
1.0
 40
1.0
 40
1.0
 40
1.0
 10
12.8178679562
 20
8.2796875158
 30
0.0
 10
12.8187074904
 20
8.2808056552
 30
0.0
 10
12.8199667916
 20
8.2824828644
 30
0.0
 10
12.8216458599
 20
8.2847191433
 30
0.0
 10
12.8229051612
 20
8.2863963525
 30
0.0
 10
12.8239545789
 20
8.2877940266
 30
0.0
 10
12.824794113
 20
8.2889121664
 30
0.0
 10
12.8254237637
 20
8.28975077
 30
0.0
 10
12.8260534141
 20
8.2905893781
 30
0.0
 10
12.8265781236
 20
8.2912882044
 30
0.0
 10
12.8269978894
 20
8.2918472963
 30
0.0
 10
12.827260247
 20
8.2921966584
 30
0.0
 10
12.8274701241
 20
8.2924763091
 30
0.0
 10
12.8276275565
 20
8.2926856064
 30
0.0
 10
12.8277586718
 20
8.2928614228
 30
0.0
 10
12.8278506064
 20
8.292981743
 30
0.0
 10
12.8279029002
 20
8.2930547932
 30
0.0
 10
12.8279427973
 20
8.2930974795
 30
0.0
 10
12.8279801076
 20
8.2931864235
 30
0.0
 10
12.8280307569
 20
8.2932888803
 30
0.0
 10
12.8281189729
 20
8.2934756974
 30
0.0
 10
12.8282452155
 20
8.2937386487
 30
0.0
 10
12.8283966126
 20
8.2940558725
 30
0.0
 10
12.8285985082
 20
8.2944782499
 30
0.0
 10
12.8288508665
 20
8.295006423
 30
0.0
 10
12.829254646
 20
8.2958513874
 30
0.0
 10
12.8297593683
 20
8.2969076315
 30
0.0
 10
12.8303650359
 20
8.2981751079
 30
0.0
 10
12.8309707033
 20
8.2994425887
 30
0.0
 10
12.8317782598
 20
8.3011325616
 30
0.0
 10
12.8327877055
 20
8.3032450283
 30
0.0
 10
12.8337971513
 20
8.3053574946
 30
0.0
 10
12.8346047078
 20
8.307047468
 30
0.0
 10
12.8352103753
 20
8.3083149471
 30
0.0
 10
12.8358160424
 20
8.3095824301
 30
0.0
 10
12.8363207664
 20
8.3106386537
 30
0.0
 10
12.8367245423
 20
8.3114836599
 30
0.0
 10
12.8369769099
 20
8.3120117265
 30
0.0
 10
12.8371787863
 20
8.3124343226
 30
0.0
 10
12.837330242
 20
8.3127508785
 30
0.0
 10
12.8374563012
 20
8.3130159193
 30
0.0
 10
12.8375448446
 20
8.3131990063
 30
0.0
 10
12.8375949694
 20
8.3133074397
 30
0.0
 10
12.8376338908
 20
8.3133780255
 30
0.0
 10
12.8376677371
 20
8.313489662
 30
0.0
 10
12.8377146357
 20
8.3136241917
 30
0.0
 10
12.8377958835
 20
8.3138662901
 30
0.0
 10
12.837912383
 20
8.3142086571
 30
0.0
 10
12.8380519978
 20
8.3146209904
 30
0.0
 10
12.8382382153
 20
8.3151702467
 30
0.0
 10
12.8384709652
 20
8.3158569957
 30
0.0
 10
12.8388433773
 20
8.3169556942
 30
0.0
 10
12.8393088883
 20
8.3183291016
 30
0.0
 10
12.8398675032
 20
8.3199771758
 30
0.0
 10
12.8404261176
 20
8.3216252539
 30
0.0
 10
12.8411709371
 20
8.32382269
 30
0.0
 10
12.8421019613
 20
8.3265694855
 30
0.0
 10
12.8430329855
 20
8.3293162812
 30
0.0
 10
12.843777805
 20
8.3315137169
 30
0.0
 10
12.8443364192
 20
8.3331617964
 30
0.0
 10
12.8448950351
 20
8.3348098655
 30
0.0
 10
12.8453605429
 20
8.3361832886
 30
0.0
 10
12.8457329614
 20
8.337281955
 30
0.0
 10
12.8459656951
 20
8.3379687858
 30
0.0
 10
12.8461519459
 20
8.3385178741
 30
0.0
 10
12.8462914591
 20
8.3389307207
 30
0.0
 10
12.8464082765
 20
8.3392714817
 30
0.0
 10
12.8465004826
 20
8.3395514421
 30
0.0
 10
12.8465730466
 20
8.3397413243
 30
0.0
 10
12.8466325969
 20
8.3400078832
 30
0.0
 10
12.8467165431
 20
8.340336511
 30
0.0
 10
12.8468199162
 20
8.3407564851
 30
0.0
 10
12.8469446315
 20
8.3412565208
 30
0.0
 10
12.8471106854
 20
8.3419246088
 30
0.0
 10
12.8473183326
 20
8.3427592483
 30
0.0
 10
12.8476505235
 20
8.3440949346
 30
0.0
 10
12.8480657774
 20
8.3457644522
 30
0.0
 10
12.8485640756
 20
8.347767912
 30
0.0
 10
12.8490623755
 20
8.3497713614
 30
0.0
 10
12.8497267748
 20
8.3524426311
 30
0.0
 10
12.8505572745
 20
8.355781716
 30
0.0
 10
12.851553872
 20
8.3597886228
 30
0.0
 10
12.8523843761
 20
8.3631276982
 30
0.0
 10
12.8530487656
 20
8.3657989886
 30
0.0
 10
12.8534640406
 20
8.3674684767
 30
0.0
 10
12.8537961881
 20
8.368804224
 30
0.0
 10
12.8540454975
 20
8.3698056049
 30
0.0
 10
12.8542526229
 20
8.3706414554
 30
0.0
 10
12.8543988517
 20
8.3712238694
 30
0.0
 10
12.8544804734
 20
8.371560864
 30
0.0
 10
12.8545471481
 20
8.3718018162
 30
0.0
 10
12.8545929577
 20
8.3720878503
 30
0.0
 10
12.8546613152
 20
8.372453504
 30
0.0
 10
12.8547775498
 20
8.3731007247
 30
0.0
 10
12.8549453721
 20
8.3740214952
 30
0.0
 10
12.855146
 20
8.3751280593
 30
0.0
 10
12.8554137689
 20
8.3766029055
 30
0.0
 10
12.8557483893
 20
8.3784466593
 30
0.0
 10
12.8562838326
 20
8.3813965558
 30
0.0
 10
12.8569531197
 20
8.3850839636
 30
0.0
 10
12.8577562701
 20
8.3895088393
 30
0.0
 10
12.8585594244
 20
8.3939337101
 30
0.0
 10
12.8592287015
 20
8.39762113
 30
0.0
 10
12.8597641648
 20
8.4005710023
 30
0.0
 10
12.8600987345
 20
8.4024148179
 30
0.0
 10
12.8603666075
 20
8.4038895373
 30
0.0
 10
12.8605669173
 20
8.4049964887
 30
0.0
 10
12.8607357349
 20
8.4059160475
 30
0.0
 10
12.8608665438
 20
8.4066582002
 30
0.0
 10
12.8609762504
 20
8.4071970382
 30
0.0
 10
12.8610416797
 20
8.4078037297
 30
0.0
 10
12.8611443854
 20
8.4085889496
 30
0.0
 10
12.8612674611
 20
8.4095786065
 30
0.0
 10
12.8614174232
 20
8.4107627141
 30
0.0
 10
12.8616165793
 20
8.4123427399
 30
0.0
 10
12.861865796
 20
8.4143173559
 30
0.0
 10
12.8622643913
 20
8.417476974
 30
0.0
 10
12.8627626859
 20
8.4214264177
 30
0.0
 10
12.8633606239
 20
8.4261657804
 30
0.0
 10
12.8639585432
 20
8.4309051484
 30
0.0
 10
12.8644568846
 20
8.4348545789
 30
0.0
 10
12.8648553864
 20
8.4380142235
 30
0.0
 10
12.8651547313
 20
8.4403836818
 30
0.0
 10
12.8654026949
 20
8.4423591061
 30
0.0
 10
12.8655791946
 20
8.4437401844
 30
0.0
 10
12.8656754842
 20
8.4445320556
 30
0.0
 10
12.8657605675
 20
8.4451183992
 30
0.0
 10
12.8657964701
 20
8.4457336404
 30
0.0
 10
12.865861495
 20
8.4465438821
 30
0.0
 10
12.8659672958
 20
8.4479665015
 30
0.0
 10
12.8661226185
 20
8.4499963596
 30
0.0
 10
12.8663072171
 20
8.4524332402
 30
0.0
 10
12.8665539736
 20
8.4556820473
 30
0.0
 10
12.8668622032
 20
8.4597431823
 30
0.0
 10
12.8672321779
 20
8.4646164894
 30
0.0
 10
12.8676021017
 20
8.4694898145
 30
0.0
 10
12.8679104585
 20
8.4735509044
 30
0.0
 10
12.8681569607
 20
8.4767998018
 30
0.0
 10
12.8683423349
 20
8.4792364072
 30
0.0
 10
12.868495231
 20
8.4812671264
 30
0.0
 10
12.8686053637
 20
8.4826882085
 30
0.0
 10
12.8686634479
 20
8.4835009133
 30
0.0
 10
12.8687206701
 20
8.4841085888
 30
0.0
 10
12.8687256804
 20
8.4847233477
 30
0.0
 10
12.8687505728
 20
8.4855405555
 30
0.0
 10
12.8687856492
 20
8.4869718204
 30
0.0
 10
12.8688401947
 20
8.4890158826
 30
0.0
 10
12.8689037503
 20
8.4914690149
 30
0.0
 10
12.8689891545
 20
8.494739768
 30
0.0
 10
12.869095682
 20
8.49882824
 30
0.0
 10
12.8692236133
 20
8.5037343942
 30
0.0
 10
12.8693515158
 20
8.5086405485
 30
0.0
 10
12.8694581152
 20
8.5127290201
 30
0.0
 10
12.8695433755
 20
8.5159997741
 30
0.0
 10
12.8695967044
 20
8.5180440486
 30
0.0
 10
12.8696392732
 20
8.5196793461
 30
0.0
 10
12.8696714582
 20
8.5209061538
 30
0.0
 10
12.8696974572
 20
8.5219274291
 30
0.0
 10
12.8697172692
 20
8.5226444108
 30
0.0
 10
12.8697260723
 20
8.5230508528
 30
0.0
 10
12.8697397679
 20
8.5233648729
 30
0.0
 10
12.8697263494
 20
8.5236437696
 30
0.0
 10
12.8697179159
 20
8.5240278833
 30
0.0
 10
12.8696987506
 20
8.5246943741
 30
0.0
 10
12.8696736754
 20
8.525649488
 30
0.0
 10
12.8696425991
 20
8.5267943474
 30
0.0
 10
12.8696015085
 20
8.5283212727
 30
0.0
 10
12.8695500273
 20
8.5302297766
 30
0.0
 10
12.8694677232
 20
8.5332834682
 30
0.0
 10
12.8693648204
 20
8.5371005531
 30
0.0
 10
12.8692413475
 20
8.5416810688
 30
0.0
 10
12.8691178694
 20
8.5462615769
 30
0.0
 10
12.8690149793
 20
8.550078681
 30
0.0
 10
12.8689326497
 20
8.5531323344
 30
0.0
 10
12.8688812335
 20
8.5550409354
 30
0.0
 10
12.8688400095
 20
8.5565676613
 30
0.0
 10
12.8688093405
 20
8.55771313
 30
0.0
 10
12.8687829911
 20
8.5586663373
 30
0.0
 10
12.8687661005
 20
8.5593362318
 30
0.0
 10
12.8687540223
 20
8.5597148918
 30
0.0
 10
12.8687517991
 20
8.5600105405
 30
0.0
 10
12.8687234474
 20
8.5602616429
 30
0.0
 10
12.868694759
 20
8.5606119844
 30
0.0
 10
12.868640308
 20
8.5612178424
 30
0.0
 10
12.8685647409
 20
8.5620871388
 30
0.0
 10
12.8684731102
 20
8.5631286744
 30
0.0
 10
12.8683512678
 20
8.5645179544
 30
0.0
 10
12.8681988511
 20
8.5662543606
 30
0.0
 10
12.8679550479
 20
8.5690327189
 30
0.0
 10
12.867650272
 20
8.5725056292
 30
0.0
 10
12.8672845509
 20
8.5766731392
 30
0.0
 10
12.866918825
 20
8.580840639
 30
0.0
 10
12.8666140613
 20
8.5843135748
 30
0.0
 10
12.8663702338
 20
8.5870918822
 30
0.0
 10
12.866217879
 20
8.588828418
 30
0.0
 10
12.8660959095
 20
8.590217432
 30
0.0
 10
12.866004667
 20
8.5912597801
 30
0.0
 10
12.8659278852
 20
8.5921265345
 30
0.0
 10
12.8658756026
 20
8.5927369303
 30
0.0
 10
12.8658434399
 20
8.5930800011
 30
0.0
 10
12.8658257602
 20
8.5933534369
 30
0.0
 10
12.8657834546
 20
8.5935652051
 30
0.0
 10
12.8657356369
 20
8.5938690731
 30
0.0
 10
12.8656479538
 20
8.5943908201
 30
0.0
 10
12.8655247846
 20
8.5951414125
 30
0.0
 10
12.8653760859
 20
8.5960398807
 30
0.0
 10
12.8651781338
 20
8.5972386217
 30
0.0
 10
12.8649305866
 20
8.5987367796
 30
0.0
 10
12.8645345709
 20
8.6011339822
 30
0.0
 10
12.8640395307
 20
8.6041304341
 30
0.0
 10
12.8634454912
 20
8.607726198
 30
0.0
 10
12.8629504568
 20
8.6107226644
 30
0.0
 10
12.8625544286
 20
8.6131198352
 30
0.0
 10
12.8622574104
 20
8.6149177225
 30
0.0
 10
12.8619603804
 20
8.616715574
 30
0.0
 10
12.8617128926
 20
8.6182138952
 30
0.0
 10
12.8615148189
 20
8.6194123022
 30
0.0
 10
12.8613664915
 20
8.6203117902
 30
0.0
 10
12.8612421607
 20
8.621059192
 30
0.0
 10
12.8611565512
 20
8.6215866348
 30
0.0
 10
12.8611054111
 20
8.6218813766
 30
0.0
 10
12.8610733107
 20
8.6221211776
 30
0.0
 10
12.8610173018
 20
8.6222893272
 30
0.0
 10
12.8609509629
 20
8.6225385195
 30
0.0
 10
12.8608309842
 20
8.6229629613
 30
0.0
 10
12.8606616174
 20
8.6235753947
 30
0.0
 10
12.8604575078
 20
8.624307709
 30
0.0
 10
12.8601856654
 20
8.6252850383
 30
0.0
 10
12.8598457581
 20
8.6265063875
 30
0.0
 10
12.8594379141
 20
8.6279721405
 30
0.0
 10
12.8590300581
 20
8.6294378576
 30
0.0
 10
12.8584862543
 20
8.6313921597
 30
0.0
 10
12.8578064982
 20
8.6338350329
 30
0.0
 10
12.8571267425
 20
8.6362779079
 30
0.0
 10
12.8565829378
 20
8.6382322072
 30
0.0
 10
12.8561750846
 20
8.6396979328
 30
0.0
 10
12.8557672304
 20
8.6411636539
 30
0.0
 10
12.8554273546
 20
8.6423851023
 30
0.0
 10
12.8551554481
 20
8.6433622294
 30
0.0
 10
12.8549855198
 20
8.6439730058
 30
0.0
 10
12.8548495468
 20
8.6444614621
 30
0.0
 10
12.8547476503
 20
8.6448282557
 30
0.0
 10
12.8546624716
 20
8.6451324811
 30
0.0
 10
12.8546033664
 20
8.6453482568
 30
0.0
 10
12.8545687803
 20
8.6454671574
 30
0.0
 10
12.8545451272
 20
8.645568727
 30
0.0
 10
12.8545127342
 20
8.6456229197
 30
0.0
 10
12.854472592
 20
8.6457117022
 30
0.0
 10
12.8544009228
 20
8.645859372
 30
0.0
 10
12.8542992808
 20
8.6460743543
 30
0.0
 10
12.8541769926
 20
8.6463306101
 30
0.0
 10
12.8540140527
 20
8.6466728862
 30
0.0
 10
12.8538103398
 20
8.6471005254
 30
0.0
 10
12.8534844203
 20
8.6477848632
 30
0.0
 10
12.8530770138
 20
8.6486402459
 30
0.0
 10
12.852588129
 20
8.6496667221
 30
0.0
 10
12.8520992434
 20
8.6506931937
 30
0.0
 10
12.8514473962
 20
8.6520618242
 30
0.0
 10
12.8506325871
 20
8.6537726117
 30
0.0
 10
12.8498177781
 20
8.6554833995
 30
0.0
 10
12.8491659308
 20
8.6568520294
 30
0.0
 10
12.8486770455
 20
8.6578785029
 30
0.0
 10
12.8481881595
 20
8.6589049719
 30
0.0
 10
12.8477807568
 20
8.6597603771
 30
0.0
 10
12.8474548296
 20
8.660444669
 30
0.0
 10
12.8472511364
 20
8.660872425
 30
0.0
 10
12.847088156
 20
8.6612144612
 30
0.0
 10
12.8469659913
 20
8.66147145
 30
0.0
 10
12.8468639629
 20
8.6616841388
 30
0.0
 10
12.8467929836
 20
8.661835903
 30
0.0
 10
12.846751736
 20
8.6619181252
 30
0.0
 10
12.8467227385
 20
8.661992469
 30
0.0
 10
12.8466863323
 20
8.6620183542
 30
0.0
 10
12.8466403749
 20
8.6620697708
 30
0.0
 10
12.8465587454
 20
8.6621518743
 30
0.0
 10
12.8464427614
 20
8.6622732823
 30
0.0
 10
12.8463033112
 20
8.6624172097
 30
0.0
 10
12.8461174716
 20
8.6626097284
 30
0.0
 10
12.8458851399
 20
8.6628501659
 30
0.0
 10
12.8455134273
 20
8.6632349838
 30
0.0
 10
12.8450487802
 20
8.6637159658
 30
0.0
 10
12.8444912064
 20
8.6642931615
 30
0.0
 10
12.8439336319
 20
8.6648703525
 30
0.0
 10
12.8431901995
 20
8.6656399422
 30
0.0
 10
12.8422609089
 20
8.6666019287
 30
0.0
 10
12.8413316184
 20
8.6675639156
 30
0.0
 10
12.8405881859
 20
8.6683335047
 30
0.0
 10
12.8400306116
 20
8.6689106977
 30
0.0
 10
12.8394730369
 20
8.6694878859
 30
0.0
 10
12.8390083928
 20
8.6699688912
 30
0.0
 10
12.8386366741
 20
8.6703536615
 30
0.0
 10
12.8384043577
 20
8.6705942202
 30
0.0
 10
12.8382184868
 20
8.6707864903
 30
0.0
 10
12.8380791324
 20
8.6709311771
 30
0.0
 10
12.8379628486
 20
8.671050209
 30
0.0
 10
12.8378817543
 20
8.6711365544
 30
0.0
 10
12.8378349394
 20
8.6711811743
 30
0.0
 10
12.8378011672
 20
8.6712279367
 30
0.0
 10
12.8377622769
 20
8.6712238692
 30
0.0
 10
12.8377122085
 20
8.6712361759
 30
0.0
 10
12.837623757
 20
8.6712494518
 30
0.0
 10
12.8374978325
 20
8.6712727363
 30
0.0
 10
12.837346537
 20
8.6712988291
 30
0.0
 10
12.8371448746
 20
8.6713342651
 30
0.0
 10
12.8368927745
 20
8.6713783391
 30
0.0
 10
12.8364894266
 20
8.6714489811
 30
0.0
 10
12.8359852376
 20
8.6715372411
 30
0.0
 10
12.8353802125
 20
8.6716431713
 30
0.0
 10
12.834775187
 20
8.6717490967
 30
0.0
 10
12.8339684865
 20
8.6718903322
 30
0.0
 10
12.8329601107
 20
8.6720668759
 30
0.0
 10
12.831951735
 20
8.6722434201
 30
0.0
 10
12.8311450344
 20
8.6723846549
 30
0.0
 10
12.8305400091
 20
8.6724905824
 30
0.0
 10
12.8299349834
 20
8.6725965048
 30
0.0
 10
12.8294307964
 20
8.6726847891
 30
0.0
 10
12.8290274443
 20
8.6727553816
 30
0.0
 10
12.8287753551
 20
8.6727995815
 30
0.0
 10
12.8285736703
 20
8.672834759
 30
0.0
 10
12.8284224434
 20
8.6728616417
 30
0.0
 10
12.8282963042
 20
8.6728824548
 30
0.0
 10
12.8282082359
 20
8.6729001426
 30
0.0
 10
12.8281575534
 20
8.6729053804
 30
0.0
 10
12.8281205495
 20
8.6729230264
 30
0.0
 10
12.8280796926
 20
8.6728882364
 30
0.0
 10
12.8280265608
 20
8.6728601399
 30
0.0
 10
12.8279329539
 20
8.6728024494
 30
0.0
 10
12.8277995571
 20
8.6727244896
 30
0.0
 10
12.8276393408
 20
8.6726290308
 30
0.0
 10
12.827425768
 20
8.6725024186
 30
0.0
 10
12.8271587853
 20
8.6723439252
 30
0.0
 10
12.8267316223
 20
8.6720904632
 30
0.0
 10
12.8261976654
 20
8.671773592
 30
0.0
 10
12.8255569185
 20
8.6713933653
 30
0.0
 10
12.8249161712
 20
8.6710131337
 30
0.0
 10
12.8240618415
 20
8.6705061598
 30
0.0
 10
12.8229939295
 20
8.6698724419
 30
0.0
 10
12.821712435
 20
8.6691119807
 30
0.0
 10
12.8200037758
 20
8.6680980323
 30
0.0
 10
12.8187222813
 20
8.6673375711
 30
0.0
 10
12.8178679517
 20
8.6668305969
 30
0.0
  0
ENDSEC
  0
SECTION
  2
OBJECTS
  0
DICTIONARY
  5
C
100
AcDbDictionary
280
0
281
1
  3
ACAD_GROUP
350
D
  3
ACAD_MLINESTYLE
350
17
  3
ACAD_LAYOUT
350
1A
  3
ACAD_PLOTSETTINGS
350
19
  3
ACAD_PLOTSTYLENAME
350
E
  3
ACAD_IMAGE_DICT
350
       3C9
  3
ACAD_IMAGE_VARS
350
       3CA
  3
ACAD_TABLESTYLE
350
       3CB
  0
IMAGEDEF_REACTOR
  5
3C8
100
AcDbRasterImageDefReactor
 90
2
330
28F
  0
DICTIONARY
  5
D
102
{ACAD_REACTORS
330
C
102
}
100
AcDbDictionary
280
0
281
1
  0
ACDBDICTIONARYWDFLT
  5
E
102
{ACAD_REACTORS
330
C
102
}
100
AcDbDictionary
281
1
  3
Normal
350
F
100
AcDbDictionaryWithDefault
340
F
  0
DICTIONARY
  5
3C9
330
C
100
AcDbDictionary
281
1
  3
3BL_assy_2_img_1
350
       3CE
  0
RASTERVARIABLES
  5
3CA
330
C
100
AcDbRasterVariables
 90
0
 70
0
 71
1
 72
5
  0
DICTIONARY
  5
17
102
{ACAD_REACTORS
330
C
102
}
100
AcDbDictionary
280
0
281
1
  3
Standard
350
18
  0
DICTIONARY
  5
3CB
330
C
100
AcDbDictionary
281
1
  3
Standard
350
       3CF
  3
Standard1
350
       3D0
  0
DICTIONARY
  5
19
102
{ACAD_REACTORS
330
C
102
}
100
AcDbDictionary
281
1
  0
DICTIONARY
  5
1A
102
{ACAD_REACTORS
330
C
102
}
100
AcDbDictionary
281
1
  3
Model
350
3CC
  3
Layout1
350
3CD
  0
ACDBPLACEHOLDER
  5
F
102
{ACAD_REACTORS
330
E
102
}
  0
MLINESTYLE
  5
18
102
{ACAD_REACTORS
330
17
102
}
100
AcDbMlineStyle
  2
STANDARD
 70
0
  3

 62
256
 51
90.0
 52
90.0
 71
2
 49
0.5
 62
256
  6
BYLAYER
 49
-0.5
 62
256
  6
BYLAYER
  0
LAYOUT
  5
3CC
102
{ACAD_REACTORS
330
1A
102
}
100
AcDbPlotSettings
  1

  2
none_device
  4
ANSI_C_(22.00_x_17.00_Inches)
  6

 40
0.0
 41
0.0
 42
0.0
 43
0.0
 44
558.8
 45
431.8
 46
0.0
 47
0.0
 48
0.0
 49
0.0
140
0.0
141
0.0
142
1.0
143
1.0
 70
1024
 72
0
 73
0
 74
0
  7

 75
0
147
1.0
148
0.0
149
0.0
100
AcDbLayout
  1
Model
 70
0
 71
0
 10
0.0
 20
0.0
 11
22.0
 21
17.0
 12
0.0
 22
0.0
 32
0.0
 14
0.0
 24
0.0
 34
0.0
 15
0.0
 25
0.0
 35
0.0
146
0.0
 13
0.0
 23
0.0
 33
0.0
 16
1.0
 26
0.0
 36
0.0
 17
0.0
 27
1.0
 37
0.0
 76
0
330
20C
345
0
346
0
  0
LAYOUT
  5
3CD
102
{ACAD_REACTORS
330
1A
102
}
100
AcDbPlotSettings
  1

  2
none_device
  4
ANSI_C_(22.00_x_17.00_Inches)
  6

 40
0.0
 41
0.0
 42
0.0
 43
0.0
 44
558.8
 45
431.8
 46
0.0
 47
0.0
 48
0.0
 49
0.0
140
0.0
141
0.0
142
1.0
143
1.0
 70
0
 72
0
 73
0
 74
0
  7

 75
0
147
1.0
148
0.0
149
0.0
100
AcDbLayout
  1
Layout1
 70
0
 71
1
 10
0.0
 20
0.0
 11
22.0
 21
17.0
 12
0.0
 22
0.0
 32
0.0
 14
0.0
 24
0.0
 34
0.0
 15
0.0
 25
0.0
 35
0.0
146
0.0
 13
0.0
 23
0.0
 33
0.0
 16
1.0
 26
0.0
 36
0.0
 17
0.0
 27
1.0
 37
0.0
 76
0
330
20D
345
0
346
0
  0
IMAGEDEF
  5
3CE
102
{ACAD_REACTORS
330
3C9
330
3C8
102
}
100
AcDbRasterImageDef
 90
0
  1
3BL_assy_2_img_1.png
 10
369.0
 20
92.0
 11
0.0066666667
 21
0.0066666667
280
1
281
0
  0
TABLESTYLE
  5
3CF
102
{ACAD_REACTORS
330
3CB
330
292
330
293
102
}
330
3CB
100
AcDbTableStyle
  3
Standard
 70
0
 71
0
 40
0.06
 41
0.06
280
1
281
1
  7
Standard
140
0.18
170
1
 62
0
 63
7
283
0
  7
Standard
140
0.18
170
1
 62
0
 63
7
283
0
  7
Standard
140
0.18
170
1
 62
0
 63
7
283
0
  0
TABLESTYLE
  5
3D0
102
{ACAD_REACTORS
330
3CB
330
291
102
}
330
3CB
100
AcDbTableStyle
  3
Standard1
 70
1
 71
0
 40
0.06
 41
0.06
280
1
281
1
  7
Standard
140
0.18
170
1
 62
0
 63
7
283
0
  7
Standard
140
0.18
170
1
 62
0
 63
7
283
0
  7
Standard
140
0.18
170
1
 62
0
 63
7
283
0
  0
ENDSEC
  0
EOF
