999
DXF file: SQFB-LAN.dxf
999
Pro/ENGINEER 2006240 by Parametric Technology Corporation
  0
SECTION
  2
HEADER
  9
$ACADVER
  1
AC1015
  9
$DWGCODEPAGE
  3
ANSI_1252
  9
$EXTMAX
 10
11.6929133858
 20
8.2677165354
 30
0.0
  9
$EXTMIN
 10
0.0
 20
0.0
 30
0.0
  9
$LIMMIN
 10
0.0
 20
0.0
  9
$LIMMAX
 10
11.6929133858
 20
8.2677165354
  9
$VIEWCTR
 10
5.8464566929
 20
4.1338582677
  9
$VIEWSIZE
 40
8.2677165354
  9
$CLAYER
  8
0
  9
$LTSCALE
 40
0.6431102362
  9
$CELTYPE
  6
BYLAYER
  9
$DIMSCALE
 40
1.0
  9
$DIMASZ
 40
0.1875
  9
$DIMEXO
 40
0.0730807087
  9
$DIMDLI
 40
0.4443307087
  9
$DIMEXE
 40
0.2104724409
  9
$DIMCEN
 40
0.1052362205
  9
$DIMLFAC
 40
1.0
  9
$DIMBLK
  1
_CLOSED
  9
$DIMTXT
 40
0.15625
  9
$DIMTOL
 70
0
  9
$DIMLIM
 70
0
  9
$DIMTFAC
 40
1.0
  9
$PDMODE
 70
3
  9
$PDSIZE
 40
0.3125
  9
$HANDSEED
  5
4F2
  9
$MEASUREMENT
 70
0
  9
$INSUNITS
 70
1
  0
ENDSEC
  0
SECTION
  2
CLASSES
  0
CLASS
  1
ACDBDICTIONARYWDFLT
  2
AcDbDictionaryWithDefault
  3
AutoCAD 2000
 90
0
280
0
281
0
  0
CLASS
  1
ACDBPLACEHOLDER
  2
AcDbPlaceHolder
  3
AutoCAD 2000
 90
0
280
0
281
0
  0
CLASS
  1
LAYOUT
  2
AcDbLayout
  3
AutoCAD 2000
 90
0
280
0
281
0
  0
ENDSEC
  0
SECTION
  2
TABLES
  0
TABLE
  2
VPORT
  5
8
100
AcDbSymbolTable
 70
2
  0
VPORT
  5
1F4
100
AcDbSymbolTableRecord
100
AcDbViewportTableRecord
  2
*ACTIVE
 70
0
 10
0.0
 20
0.0
 11
1.0
 21
1.0
 12
5.8464566929
 22
4.1338582677
 13
0.0
 23
0.0
 14
1.0
 24
1.0
 15
0.0
 25
0.0
 16
0.0
 26
0.0
 36
1.0
 17
0.0
 27
0.0
 37
0.0
 40
8.2677165354
 41
1.4142857143
 42
50.0
 43
0.0
 44
0.0
 50
0.0
 51
0.0
 71
0
 72
100
 73
1
 74
1
 75
0
 76
0
 77
0
 78
0
  0
ENDTAB
  0
TABLE
  2
LTYPE
  5
5
100
AcDbSymbolTable
 70
6
  0
LTYPE
  5
14
100
AcDbSymbolTableRecord
100
AcDbLinetypeTableRecord
  2
BYBLOCK
 70
0
  3

 72
65
 73
0
 40
0.0
  0
LTYPE
  5
15
100
AcDbSymbolTableRecord
100
AcDbLinetypeTableRecord
  2
BYLAYER
 70
0
  3

 72
65
 73
0
 40
0.0
  0
LTYPE
  5
16
100
AcDbSymbolTableRecord
100
AcDbLinetypeTableRecord
  2
CONTINUOUS
 70
64
  3
Solid line
 72
65
 73
0
 40
0.0
  0
LTYPE
  5
1F5
100
AcDbSymbolTableRecord
100
AcDbLinetypeTableRecord
  2
CENTER
 70
64
  3
____ _ ____ _ ____ _ ____ _ ____ _ ____ _ ____
 72
65
 73
4
 40
0.6
 49
0.375
 74
0
 49
-0.075
 74
0
 49
0.075
 74
0
 49
-0.075
 74
0
  0
LTYPE
  5
1F6
100
AcDbSymbolTableRecord
100
AcDbLinetypeTableRecord
  2
HIDDEN
 70
64
  3
- - - - - - - - - - - - - - - - - - - -
 72
65
 73
2
 40
0.2
 49
0.1
 74
0
 49
-0.1
 74
0
  0
LTYPE
  5
1F7
100
AcDbSymbolTableRecord
100
AcDbLinetypeTableRecord
  2
PHANTOM
 70
64
  3
_____ _ _ _____ _ _ _____ _ _ _____
 72
65
 73
6
 40
0.8
 49
0.45
 74
0
 49
-0.05
 74
0
 49
0.1
 74
0
 49
-0.05
 74
0
 49
0.1
 74
0
 49
-0.05
 74
0
  0
LTYPE
  5
1F8
100
AcDbSymbolTableRecord
100
AcDbLinetypeTableRecord
  2
DOT
 70
64
  3
. . . . . . . . . . . . . . . . . . . .
 72
65
 73
2
 40
0.2
 49
0.1
 74
0
 49
-0.1
 74
0
  0
LTYPE
  5
1F9
100
AcDbSymbolTableRecord
100
AcDbLinetypeTableRecord
  2
DASHED
 70
64
  3
- - - - - - - - - - - - - - - - - - - -
 72
65
 73
2
 40
0.2
 49
0.1
 74
0
 49
-0.1
 74
0
  0
ENDTAB
  0
TABLE
  2
LAYER
  5
2
100
AcDbSymbolTable
 70
36
  0
LAYER
  5
10
100
AcDbSymbolTableRecord
100
AcDbLayerTableRecord
  2
0
 70
0
 62
7
  6
CONTINUOUS
370
-3
390
F
  0
LAYER
  5
1FA
100
AcDbSymbolTableRecord
100
AcDbLayerTableRecord
  2
DEFAULT_1
 70
0
 62
7
  6
CENTER
370
-3
390
F
  0
LAYER
  5
1FB
100
AcDbSymbolTableRecord
100
AcDbLayerTableRecord
  2
DEFAULT_2
 70
0
 62
8
  6
HIDDEN
370
-3
390
F
  0
LAYER
  5
1FC
100
AcDbSymbolTableRecord
100
AcDbLayerTableRecord
  2
DEFAULT_3
 70
0
 62
7
  6
PHANTOM
370
-3
390
F
  0
LAYER
  5
1FD
100
AcDbSymbolTableRecord
100
AcDbLayerTableRecord
  2
_BLACK_HOLE
 70
0
 62
7
  6
CONTINUOUS
370
-3
390
F
  0
LAYER
  5
1FE
100
AcDbSymbolTableRecord
100
AcDbLayerTableRecord
  2
01_ALL_DTM_PLN
 70
0
 62
7
  6
CONTINUOUS
370
-3
390
F
  0
LAYER
  5
1FF
100
AcDbSymbolTableRecord
100
AcDbLayerTableRecord
  2
01__ASM_ALL_DTM_PLN
 70
0
 62
7
  6
CONTINUOUS
370
-3
390
F
  0
LAYER
  5
200
100
AcDbSymbolTableRecord
100
AcDbLayerTableRecord
  2
01__ASM_DEF_DTM_PLN
 70
0
 62
7
  6
CONTINUOUS
370
-3
390
F
  0
LAYER
  5
201
100
AcDbSymbolTableRecord
100
AcDbLayerTableRecord
  2
01___PRT_ALL_DTM_PLN
 70
0
 62
7
  6
CONTINUOUS
370
-3
390
F
  0
LAYER
  5
202
100
AcDbSymbolTableRecord
100
AcDbLayerTableRecord
  2
01___PRT_DEF_DTM_PLN
 70
0
 62
7
  6
CONTINUOUS
370
-3
390
F
  0
LAYER
  5
203
100
AcDbSymbolTableRecord
100
AcDbLayerTableRecord
  2
02_ALL_AXES
 70
0
 62
7
  6
CONTINUOUS
370
-3
390
F
  0
LAYER
  5
204
100
AcDbSymbolTableRecord
100
AcDbLayerTableRecord
  2
02__ASM_ALL_AXES
 70
0
 62
7
  6
CONTINUOUS
370
-3
390
F
  0
LAYER
  5
205
100
AcDbSymbolTableRecord
100
AcDbLayerTableRecord
  2
02___PRT_ALL_AXES
 70
0
 62
7
  6
CONTINUOUS
370
-3
390
F
  0
LAYER
  5
206
100
AcDbSymbolTableRecord
100
AcDbLayerTableRecord
  2
03_ALL_CURVES
 70
0
 62
7
  6
CONTINUOUS
370
-3
390
F
  0
LAYER
  5
207
100
AcDbSymbolTableRecord
100
AcDbLayerTableRecord
  2
03__ASM_ALL_CURVES
 70
0
 62
7
  6
CONTINUOUS
370
-3
390
F
  0
LAYER
  5
208
100
AcDbSymbolTableRecord
100
AcDbLayerTableRecord
  2
03___PRT_ALL_CURVES
 70
0
 62
7
  6
CONTINUOUS
370
-3
390
F
  0
LAYER
  5
209
100
AcDbSymbolTableRecord
100
AcDbLayerTableRecord
  2
04_ALL_DTM_PNT
 70
0
 62
7
  6
CONTINUOUS
370
-3
390
F
  0
LAYER
  5
20A
100
AcDbSymbolTableRecord
100
AcDbLayerTableRecord
  2
04__ASM_ALL_DTM_PNT
 70
0
 62
7
  6
CONTINUOUS
370
-3
390
F
  0
LAYER
  5
20B
100
AcDbSymbolTableRecord
100
AcDbLayerTableRecord
  2
04___PRT_ALL_DTM_PNT
 70
0
 62
7
  6
CONTINUOUS
370
-3
390
F
  0
LAYER
  5
20C
100
AcDbSymbolTableRecord
100
AcDbLayerTableRecord
  2
05_ALL_DTM_CSYS
 70
0
 62
7
  6
CONTINUOUS
370
-3
390
F
  0
LAYER
  5
20D
100
AcDbSymbolTableRecord
100
AcDbLayerTableRecord
  2
05__ASM_ALL_DTM_CSYS
 70
0
 62
7
  6
CONTINUOUS
370
-3
390
F
  0
LAYER
  5
20E
100
AcDbSymbolTableRecord
100
AcDbLayerTableRecord
  2
05__ASM_DEF_DTM_CSYS
 70
0
 62
7
  6
CONTINUOUS
370
-3
390
F
  0
LAYER
  5
20F
100
AcDbSymbolTableRecord
100
AcDbLayerTableRecord
  2
05___PRT_ALL_DTM_CSYS
 70
0
 62
7
  6
CONTINUOUS
370
-3
390
F
  0
LAYER
  5
210
100
AcDbSymbolTableRecord
100
AcDbLayerTableRecord
  2
05___PRT_DEF_DTM_CSYS
 70
0
 62
7
  6
CONTINUOUS
370
-3
390
F
  0
LAYER
  5
211
100
AcDbSymbolTableRecord
100
AcDbLayerTableRecord
  2
06_ALL_SURFS
 70
0
 62
7
  6
CONTINUOUS
370
-3
390
F
  0
LAYER
  5
212
100
AcDbSymbolTableRecord
100
AcDbLayerTableRecord
  2
06__ASM_ALL_SURFS
 70
0
 62
7
  6
CONTINUOUS
370
-3
390
F
  0
LAYER
  5
213
100
AcDbSymbolTableRecord
100
AcDbLayerTableRecord
  2
06___PRT_ALL_SURFS
 70
0
 62
7
  6
CONTINUOUS
370
-3
390
F
  0
LAYER
  5
214
100
AcDbSymbolTableRecord
100
AcDbLayerTableRecord
  2
07__ASM_ALL_SKELETONS
 70
0
 62
7
  6
CONTINUOUS
370
-3
390
F
  0
LAYER
  5
215
100
AcDbSymbolTableRecord
100
AcDbLayerTableRecord
  2
127-001_FEATURES
 70
0
 62
7
  6
CONTINUOUS
370
-3
390
F
  0
LAYER
  5
216
100
AcDbSymbolTableRecord
100
AcDbLayerTableRecord
  2
127-001_REF_GEOMETRY
 70
0
 62
7
  6
CONTINUOUS
370
-3
390
F
  0
LAYER
  5
217
100
AcDbSymbolTableRecord
100
AcDbLayerTableRecord
  2
127-004_FEATURES
 70
0
 62
7
  6
CONTINUOUS
370
-3
390
F
  0
LAYER
  5
218
100
AcDbSymbolTableRecord
100
AcDbLayerTableRecord
  2
127-004_REF_GEOMETRY
 70
0
 62
7
  6
CONTINUOUS
370
-3
390
F
  0
LAYER
  5
219
100
AcDbSymbolTableRecord
100
AcDbLayerTableRecord
  2
127-008_FEATURES
 70
0
 62
7
  6
CONTINUOUS
370
-3
390
F
  0
LAYER
  5
21A
100
AcDbSymbolTableRecord
100
AcDbLayerTableRecord
  2
127-008_REF_GEOMETRY
 70
0
 62
7
  6
CONTINUOUS
370
-3
390
F
  0
LAYER
  5
21B
100
AcDbSymbolTableRecord
100
AcDbLayerTableRecord
  2
127-410_FEATURES
 70
0
 62
7
  6
CONTINUOUS
370
-3
390
F
  0
LAYER
  5
21C
100
AcDbSymbolTableRecord
100
AcDbLayerTableRecord
  2
127-410_REF_GEOMETRY
 70
0
 62
7
  6
CONTINUOUS
370
-3
390
F
  0
LAYER
  5
21D
100
AcDbSymbolTableRecord
100
AcDbLayerTableRecord
  2
127-411_FEATURES
 70
0
 62
7
  6
CONTINUOUS
370
-3
390
F
  0
LAYER
  5
21E
100
AcDbSymbolTableRecord
100
AcDbLayerTableRecord
  2
127-411_REF_GEOMETRY
 70
0
 62
7
  6
CONTINUOUS
370
-3
390
F
  0
LAYER
  5
21F
100
AcDbSymbolTableRecord
100
AcDbLayerTableRecord
  2
127-412_FEATURES
 70
0
 62
7
  6
CONTINUOUS
370
-3
390
F
  0
LAYER
  5
220
100
AcDbSymbolTableRecord
100
AcDbLayerTableRecord
  2
127-412_REF_GEOMETRY
 70
0
 62
7
  6
CONTINUOUS
370
-3
390
F
  0
LAYER
  5
221
100
AcDbSymbolTableRecord
100
AcDbLayerTableRecord
  2
127-413_FEATURES
 70
0
 62
7
  6
CONTINUOUS
370
-3
390
F
  0
LAYER
  5
222
100
AcDbSymbolTableRecord
100
AcDbLayerTableRecord
  2
127-413_REF_GEOMETRY
 70
0
 62
7
  6
CONTINUOUS
370
-3
390
F
  0
LAYER
  5
223
100
AcDbSymbolTableRecord
100
AcDbLayerTableRecord
  2
127-414_FEATURES
 70
0
 62
7
  6
CONTINUOUS
370
-3
390
F
  0
LAYER
  5
224
100
AcDbSymbolTableRecord
100
AcDbLayerTableRecord
  2
127-414_REF_GEOMETRY
 70
0
 62
7
  6
CONTINUOUS
370
-3
390
F
  0
LAYER
  5
225
100
AcDbSymbolTableRecord
100
AcDbLayerTableRecord
  2
127-415_FEATURES
 70
0
 62
7
  6
CONTINUOUS
370
-3
390
F
  0
LAYER
  5
226
100
AcDbSymbolTableRecord
100
AcDbLayerTableRecord
  2
127-415_REF_GEOMETRY
 70
0
 62
7
  6
CONTINUOUS
370
-3
390
F
  0
LAYER
  5
227
100
AcDbSymbolTableRecord
100
AcDbLayerTableRecord
  2
127-416_FEATURES
 70
0
 62
7
  6
CONTINUOUS
370
-3
390
F
  0
LAYER
  5
228
100
AcDbSymbolTableRecord
100
AcDbLayerTableRecord
  2
127-416_REF_GEOMETRY
 70
0
 62
7
  6
CONTINUOUS
370
-3
390
F
  0
LAYER
  5
229
100
AcDbSymbolTableRecord
100
AcDbLayerTableRecord
  2
250-NPTF_PORT
 70
0
 62
7
  6
CONTINUOUS
370
-3
390
F
  0
LAYER
  5
22A
100
AcDbSymbolTableRecord
100
AcDbLayerTableRecord
  2
COPY_GEO_FET
 70
0
 62
7
  6
CONTINUOUS
370
-3
390
F
  0
LAYER
  5
22B
100
AcDbSymbolTableRecord
100
AcDbLayerTableRecord
  2
COSMETIC
 70
0
 62
7
  6
CONTINUOUS
370
-3
390
F
  0
LAYER
  5
22C
100
AcDbSymbolTableRecord
100
AcDbLayerTableRecord
  2
COSM_REF
 70
0
 62
7
  6
CONTINUOUS
370
-3
390
F
  0
LAYER
  5
22D
100
AcDbSymbolTableRecord
100
AcDbLayerTableRecord
  2
CURVES
 70
0
 62
7
  6
CONTINUOUS
370
-3
390
F
  0
LAYER
  5
22E
100
AcDbSymbolTableRecord
100
AcDbLayerTableRecord
  2
CUT_REF_SURF
 70
0
 62
7
  6
CONTINUOUS
370
-3
390
F
  0
LAYER
  5
22F
100
AcDbSymbolTableRecord
100
AcDbLayerTableRecord
  2
DATUM
 70
0
 62
7
  6
CONTINUOUS
370
-3
390
F
  0
LAYER
  5
230
100
AcDbSymbolTableRecord
100
AcDbLayerTableRecord
  2
DATUMCURVES
 70
0
 62
7
  6
CONTINUOUS
370
-3
390
F
  0
LAYER
  5
231
100
AcDbSymbolTableRecord
100
AcDbLayerTableRecord
  2
DATUM_ADDED_230
 70
0
 62
7
  6
CONTINUOUS
370
-3
390
F
  0
LAYER
  5
232
100
AcDbSymbolTableRecord
100
AcDbLayerTableRecord
  2
DATUM_PLANES
 70
0
 62
7
  6
CONTINUOUS
370
-3
390
F
  0
LAYER
  5
233
100
AcDbSymbolTableRecord
100
AcDbLayerTableRecord
  2
DIMENSIONS
 70
0
 62
7
  6
CONTINUOUS
370
-3
390
F
  0
LAYER
  5
234
100
AcDbSymbolTableRecord
100
AcDbLayerTableRecord
  2
DRAWINGNOTES
 70
0
 62
7
  6
CONTINUOUS
370
-3
390
F
  0
LAYER
  5
235
100
AcDbSymbolTableRecord
100
AcDbLayerTableRecord
  2
DTM
 70
0
 62
7
  6
CONTINUOUS
370
-3
390
F
  0
LAYER
  5
236
100
AcDbSymbolTableRecord
100
AcDbLayerTableRecord
  2
DTM230
 70
0
 62
7
  6
CONTINUOUS
370
-3
390
F
  0
LAYER
  5
237
100
AcDbSymbolTableRecord
100
AcDbLayerTableRecord
  2
DTM325
 70
0
 62
7
  6
CONTINUOUS
370
-3
390
F
  0
LAYER
  5
238
100
AcDbSymbolTableRecord
100
AcDbLayerTableRecord
  2
DTM_500001
 70
0
 62
7
  6
CONTINUOUS
370
-3
390
F
  0
LAYER
  5
239
100
AcDbSymbolTableRecord
100
AcDbLayerTableRecord
  2
DTM_500002
 70
0
 62
7
  6
CONTINUOUS
370
-3
390
F
  0
LAYER
  5
23A
100
AcDbSymbolTableRecord
100
AcDbLayerTableRecord
  2
DTM_515002
 70
0
 62
7
  6
CONTINUOUS
370
-3
390
F
  0
LAYER
  5
23B
100
AcDbSymbolTableRecord
100
AcDbLayerTableRecord
  2
DTM_525001
 70
0
 62
7
  6
CONTINUOUS
370
-3
390
F
  0
LAYER
  5
23C
100
AcDbSymbolTableRecord
100
AcDbLayerTableRecord
  2
DTM_800001
 70
0
 62
7
  6
CONTINUOUS
370
-3
390
F
  0
LAYER
  5
23D
100
AcDbSymbolTableRecord
100
AcDbLayerTableRecord
  2
DTM_BALLHOLDER
 70
0
 62
7
  6
CONTINUOUS
370
-3
390
F
  0
LAYER
  5
23E
100
AcDbSymbolTableRecord
100
AcDbLayerTableRecord
  2
DTM_ORIFICE_SEAT
 70
0
 62
7
  6
CONTINUOUS
370
-3
390
F
  0
LAYER
  5
23F
100
AcDbSymbolTableRecord
100
AcDbLayerTableRecord
  2
DTM_SPRING_RH
 70
0
 62
7
  6
CONTINUOUS
370
-3
390
F
  0
LAYER
  5
240
100
AcDbSymbolTableRecord
100
AcDbLayerTableRecord
  2
DTM_SP_RH_CONSTR
 70
0
 62
7
  6
CONTINUOUS
370
-3
390
F
  0
LAYER
  5
241
100
AcDbSymbolTableRecord
100
AcDbLayerTableRecord
  2
FACE1
 70
0
 62
7
  6
CONTINUOUS
370
-3
390
F
  0
LAYER
  5
242
100
AcDbSymbolTableRecord
100
AcDbLayerTableRecord
  2
FACE2
 70
0
 62
7
  6
CONTINUOUS
370
-3
390
F
  0
LAYER
  5
243
100
AcDbSymbolTableRecord
100
AcDbLayerTableRecord
  2
FACE3
 70
0
 62
7
  6
CONTINUOUS
370
-3
390
F
  0
LAYER
  5
244
100
AcDbSymbolTableRecord
100
AcDbLayerTableRecord
  2
FACE4
 70
0
 62
7
  6
CONTINUOUS
370
-3
390
F
  0
LAYER
  5
245
100
AcDbSymbolTableRecord
100
AcDbLayerTableRecord
  2
GEOMETRICTOLERANCES
 70
0
 62
7
  6
CONTINUOUS
370
-3
390
F
  0
LAYER
  5
246
100
AcDbSymbolTableRecord
100
AcDbLayerTableRecord
  2
HOLE_FEATURES
 70
0
 62
7
  6
CONTINUOUS
370
-3
390
F
  0
LAYER
  5
247
100
AcDbSymbolTableRecord
100
AcDbLayerTableRecord
  2
LAY0001
 70
0
 62
7
  6
CONTINUOUS
370
-3
390
F
  0
LAYER
  5
248
100
AcDbSymbolTableRecord
100
AcDbLayerTableRecord
  2
PARAMETERDIMENSIONS
 70
0
 62
7
  6
CONTINUOUS
370
-3
390
F
  0
LAYER
  5
249
100
AcDbSymbolTableRecord
100
AcDbLayerTableRecord
  2
PLANE
 70
0
 62
7
  6
CONTINUOUS
370
-3
390
F
  0
LAYER
  5
24A
100
AcDbSymbolTableRecord
100
AcDbLayerTableRecord
  2
PROTRUSIONS
 70
0
 62
7
  6
CONTINUOUS
370
-3
390
F
  0
LAYER
  5
24B
100
AcDbSymbolTableRecord
100
AcDbLayerTableRecord
  2
SUN_SAE-4_PORT
 70
0
 62
7
  6
CONTINUOUS
370
-3
390
F
  0
LAYER
  5
24C
100
AcDbSymbolTableRecord
100
AcDbLayerTableRecord
  2
TEXT
 70
0
 62
7
  6
CONTINUOUS
370
-3
390
F
  0
LAYER
  5
24D
100
AcDbSymbolTableRecord
100
AcDbLayerTableRecord
  2
THREAD
 70
0
 62
7
  6
CONTINUOUS
370
-3
390
F
  0
ENDTAB
  0
TABLE
  2
STYLE
  5
3
100
AcDbSymbolTable
 70
1
  0
STYLE
  5
11
100
AcDbSymbolTableRecord
100
AcDbTextStyleTableRecord
  2
STANDARD
 70
0
 40
0.0
 41
0.8
 50
0.0
 71
0
 42
0.2
  3
txt
  4

  0
ENDTAB
  0
TABLE
  2
VIEW
  5
6
100
AcDbSymbolTable
 70
0
  0
ENDTAB
  0
TABLE
  2
UCS
  5
7
100
AcDbSymbolTable
 70
0
  0
ENDTAB
  0
TABLE
  2
APPID
  5
9
100
AcDbSymbolTable
 70
1
  0
APPID
  5
24E
100
AcDbSymbolTableRecord
100
AcDbRegAppTableRecord
  2
ACAD
 70
0
  0
ENDTAB
  0
TABLE
  2
BLOCK_RECORD
  5
1
100
AcDbSymbolTable
 70
0
  0
BLOCK_RECORD
  5
1F
100
AcDbSymbolTableRecord
100
AcDbBlockTableRecord
  2
*MODEL_SPACE
  0
BLOCK_RECORD
  5
1B
100
AcDbSymbolTableRecord
100
AcDbBlockTableRecord
  2
*PAPER_SPACE
  0
ENDTAB
  0
TABLE
  2
DIMSTYLE
  5
A
100
AcDbSymbolTable
 70
1
100
AcDbDimStyleTable
 71
0
  0
DIMSTYLE
105
24F
100
AcDbSymbolTableRecord
100
AcDbDimStyleTableRecord
  2
STANDARD
 70
0
  3

  4

 40
1.0
 41
0.1875
 42
0.0625
 43
0.38
 44
0.18
 45
0.0
 46
0.0
 47
0.01
 48
0.01
140
0.15625
141
0.09
142
0.0
143
25.4
144
1.0
145
0.0
146
1.0
147
0.09
 71
0.0
 72
0.0
 73
1
 74
1
 75
0
 76
0
 77
0
 78
4
170
0
171
2
172
0
173
0
174
0
175
0
176
0
177
0
178
0
270
2
271
2
272
2
273
2
274
2
275
0
280
0
281
0
282
0
283
1
284
4
285
0
286
0
287
3
288
0
340
11
  0
ENDTAB
  0
ENDSEC
  0
SECTION
  2
BLOCKS
  0
BLOCK
  5
20
100
AcDbEntity
  8
0
100
AcDbBlockBegin
  2
*MODEL_SPACE
 70
0
 10
0.0
 20
0.0
 30
0.0
  3
*MODEL_SPACE
  1

  0
ENDBLK
  5
21
100
AcDbEntity
  8
0
100
AcDbBlockEnd
  0
BLOCK
  5
1C
100
AcDbEntity
  8
0
100
AcDbBlockBegin
  2
*PAPER_SPACE
 70
0
 10
0.0
 20
0.0
 30
0.0
  3
*PAPER_SPACE
  1

  0
ENDBLK
  5
1D
100
AcDbEntity
  8
0
100
AcDbBlockEnd
  0
ENDSEC
  0
SECTION
  2
ENTITIES
  0
LINE
  5
250
100
AcDbEntity
  8
0
100
AcDbLine
 62
7
  6
CONTINUOUS
 10
3.3510462306
 20
4.4086584326
 11
3.3510462306
 21
4.1026584326
  0
LINE
  5
251
100
AcDbEntity
  8
03__ASM_ALL_CURVES
100
AcDbLine
 62
40
  6
CONTINUOUS
 10
3.3510462306
 20
4.4086584326
 11
3.3510462306
 21
5.1629064326
  0
LINE
  5
252
100
AcDbEntity
  8
0
100
AcDbLine
 62
7
  6
CONTINUOUS
 10
3.3820462306
 20
4.4396584326
 11
3.3820462306
 21
4.0716584326
  0
LINE
  5
253
100
AcDbEntity
  8
03__ASM_ALL_CURVES
100
AcDbLine
 62
40
  6
CONTINUOUS
 10
3.4766862306
 20
5.1419664326
 11
3.4766862306
 21
5.1000864326
  0
LINE
  5
254
100
AcDbEntity
  8
0
100
AcDbLine
 62
7
  6
CONTINUOUS
 10
3.5810462306
 20
4.4396534173
 11
3.5810462306
 21
4.0716634479
  0
LINE
  5
255
100
AcDbEntity
  8
0
100
AcDbLine
 62
7
  6
CONTINUOUS
 10
3.5825462306
 20
4.0945154396
 11
3.5825462306
 21
4.3317820014
  0
LINE
  5
256
100
AcDbEntity
  8
0
100
AcDbLine
 62
7
  6
CONTINUOUS
 10
3.6175462306
 20
4.0945154396
 11
3.6175462306
 21
4.3317820014
  0
LINE
  5
257
100
AcDbEntity
  8
0
100
AcDbLine
 62
7
  6
CONTINUOUS
 10
3.6190462306
 20
4.4396534173
 11
3.6190462306
 21
4.0716634479
  0
LINE
  5
258
100
AcDbEntity
  8
0
100
AcDbLine
 62
7
  6
CONTINUOUS
 10
3.8510462306
 20
4.0080072475
 11
3.8510462306
 21
4.5033096177
  0
LINE
  5
259
100
AcDbEntity
  8
0
100
AcDbLine
 62
7
  6
CONTINUOUS
 10
3.9130462306
 20
3.9846584326
 11
3.9130462306
 21
4.5266584326
  0
LINE
  5
25A
100
AcDbEntity
  8
0
100
AcDbLine
 62
7
  6
CONTINUOUS
 10
3.9190462306
 20
3.9846584326
 11
3.9190462306
 21
4.5266584326
  0
LINE
  5
25B
100
AcDbEntity
  8
0
100
AcDbLine
 62
7
  6
CONTINUOUS
 10
3.9245462306
 20
3.9901584326
 11
3.9245462306
 21
4.5211584326
  0
LINE
  5
25C
100
AcDbEntity
  8
0
100
AcDbLine
 62
7
  6
CONTINUOUS
 10
3.9405462306
 20
3.9901584326
 11
3.9405462306
 21
4.5211584326
  0
LINE
  5
25D
100
AcDbEntity
  8
03__ASM_ALL_CURVES
100
AcDbLine
 62
40
  6
CONTINUOUS
 10
4.2139149806
 20
5.1890814326
 11
4.2073712306
 21
5.1629064326
  0
LINE
  5
25E
100
AcDbEntity
  8
03__ASM_ALL_CURVES
100
AcDbLine
 62
40
  6
CONTINUOUS
 10
4.2073712306
 20
5.2501564305
 11
4.2139149806
 21
5.2588814347
  0
LINE
  5
25F
100
AcDbEntity
  8
03__ASM_ALL_CURVES
100
AcDbLine
 62
40
  6
CONTINUOUS
 10
4.2270024806
 20
5.2065314316
 11
4.2139149806
 21
5.1890814326
  0
LINE
  5
260
100
AcDbEntity
  8
03__ASM_ALL_CURVES
100
AcDbLine
 62
40
  6
CONTINUOUS
 10
4.2597212306
 20
5.2327064347
 11
4.2531774806
 21
5.2239814305
  0
LINE
  5
261
100
AcDbEntity
  8
0
100
AcDbLine
 62
7
  6
CONTINUOUS
 10
3.3510462306
 20
4.4086584326
 11
3.3820462306
 21
4.4396584326
  0
LINE
  5
262
100
AcDbEntity
  8
0
100
AcDbLine
 62
7
  6
CONTINUOUS
 10
3.3510462306
 20
4.1026584326
 11
3.3820462306
 21
4.0716584326
  0
LINE
  5
263
100
AcDbEntity
  8
0
100
AcDbLine
 62
7
  6
CONTINUOUS
 10
4.1320462306
 20
3.9846584326
 11
4.1320462306
 21
4.5266584326
  0
LINE
  5
264
100
AcDbEntity
  8
0
100
AcDbLine
 62
7
  6
CONTINUOUS
 10
4.1630462306
 20
3.8206584326
 11
4.1630462306
 21
4.6906584326
  0
LINE
  5
265
100
AcDbEntity
  8
0
100
AcDbLine
 62
7
  6
CONTINUOUS
 10
4.2250462306
 20
3.7586584326
 11
4.2250462306
 21
4.7526584326
  0
LINE
  5
266
100
AcDbEntity
  8
03__ASM_ALL_CURVES
100
AcDbLine
 62
40
  6
CONTINUOUS
 10
4.4167712306
 20
5.2501564305
 11
4.4233149806
 21
5.2588814347
  0
LINE
  5
267
100
AcDbEntity
  8
03__ASM_ALL_CURVES
100
AcDbLine
 62
40
  6
CONTINUOUS
 10
4.4102274806
 20
5.1978064336
 11
4.4233149806
 21
5.2152564326
  0
LINE
  5
268
100
AcDbEntity
  8
03__ASM_ALL_CURVES
100
AcDbLine
 62
40
  6
CONTINUOUS
 10
4.4691212306
 20
5.2414314326
 11
4.4625774806
 21
5.2327064347
  0
LINE
  5
269
100
AcDbEntity
  8
03__ASM_ALL_CURVES
100
AcDbLine
 62
40
  6
CONTINUOUS
 10
4.4756649806
 20
5.1890814326
 11
4.4625774806
 21
5.1716314329
  0
LINE
  5
26A
100
AcDbEntity
  8
03__ASM_ALL_CURVES
100
AcDbLine
 62
40
  6
CONTINUOUS
 10
4.2139149806
 20
5.2588814347
 11
4.2270024806
 21
5.2676064326
  0
LINE
  5
26B
100
AcDbEntity
  8
03__ASM_ALL_CURVES
100
AcDbLine
 62
40
  6
CONTINUOUS
 10
4.2531774806
 20
5.2239814305
 11
4.2270024806
 21
5.2065314316
  0
LINE
  5
26C
100
AcDbEntity
  8
03__ASM_ALL_CURVES
100
AcDbLine
 62
40
  6
CONTINUOUS
 10
4.4233149806
 20
5.2588814347
 11
4.4364024806
 21
5.2676064326
  0
LINE
  5
26D
100
AcDbEntity
  8
03__ASM_ALL_CURVES
100
AcDbLine
 62
40
  6
CONTINUOUS
 10
4.2597212306
 20
5.2501564305
 11
4.2597212306
 21
5.2327064347
  0
LINE
  5
26E
100
AcDbEntity
  8
03__ASM_ALL_CURVES
100
AcDbLine
 62
40
  6
CONTINUOUS
 10
4.3317024806
 20
5.1629064326
 11
4.3317024806
 21
5.1716314329
  0
LINE
  5
26F
100
AcDbEntity
  8
03__ASM_ALL_CURVES
100
AcDbLine
 62
40
  6
CONTINUOUS
 10
4.4102274806
 20
5.1890814326
 11
4.4102274806
 21
5.1978064336
  0
LINE
  5
270
100
AcDbEntity
  8
03__ASM_ALL_CURVES
100
AcDbLine
 62
40
  6
CONTINUOUS
 10
4.4167712306
 20
5.2414314326
 11
4.4167712306
 21
5.2501564305
  0
LINE
  5
271
100
AcDbEntity
  8
03__ASM_ALL_CURVES
100
AcDbLine
 62
40
  6
CONTINUOUS
 10
4.6588899806
 20
5.2676064326
 11
4.6458024806
 21
5.2501564305
  0
LINE
  5
272
100
AcDbEntity
  8
0
100
AcDbLine
 62
7
  6
CONTINUOUS
 10
3.9560470162
 20
4.5366592182
 11
3.9405462306
 21
4.5211584326
  0
LINE
  5
273
100
AcDbEntity
  8
0
100
AcDbLine
 62
7
  6
CONTINUOUS
 10
4.2250462306
 20
4.7526584326
 11
4.1630462306
 21
4.6906584326
  0
LINE
  5
274
100
AcDbEntity
  8
03__ASM_ALL_CURVES
100
AcDbLine
 62
40
  6
CONTINUOUS
 10
4.4233149806
 20
5.2152564326
 11
4.4364024806
 21
5.2239814305
  0
LINE
  5
275
100
AcDbEntity
  8
03__ASM_ALL_CURVES
100
AcDbLine
 62
40
  6
CONTINUOUS
 10
4.4625774806
 20
5.2327064347
 11
4.4494899806
 21
5.2239814305
  0
LINE
  5
276
100
AcDbEntity
  8
03__ASM_ALL_CURVES
100
AcDbLine
 62
40
  6
CONTINUOUS
 10
4.4625774806
 20
5.1716314329
 11
4.4494899806
 21
5.1629064326
  0
LINE
  5
277
100
AcDbEntity
  8
0
100
AcDbLine
 62
7
  6
CONTINUOUS
 10
3.9560470162
 20
3.974657647
 11
3.9405462306
 21
3.9901584326
  0
LINE
  5
278
100
AcDbEntity
  8
0
100
AcDbLine
 62
7
  6
CONTINUOUS
 10
4.2250462306
 20
3.7586584326
 11
4.1630462306
 21
3.8206584326
  0
LINE
  5
279
100
AcDbEntity
  8
03__ASM_ALL_CURVES
100
AcDbLine
 62
40
  6
CONTINUOUS
 10
4.4691212306
 20
5.2501564305
 11
4.4691212306
 21
5.2414314326
  0
LINE
  5
27A
100
AcDbEntity
  8
03__ASM_ALL_CURVES
100
AcDbLine
 62
40
  6
CONTINUOUS
 10
4.4756649806
 20
5.1978064336
 11
4.4756649806
 21
5.1890814326
  0
LINE
  5
27B
100
AcDbEntity
  8
03__ASM_ALL_CURVES
100
AcDbLine
 62
40
  6
CONTINUOUS
 10
4.5476462306
 20
5.2676064326
 11
4.5476462306
 21
5.1629064326
  0
LINE
  5
27C
100
AcDbEntity
  8
03__ASM_ALL_CURVES
100
AcDbLine
 62
40
  6
CONTINUOUS
 10
4.6458024806
 20
5.2501564305
 11
4.6392587306
 21
5.2239814305
  0
LINE
  5
27D
100
AcDbEntity
  8
03__ASM_ALL_CURVES
100
AcDbLine
 62
40
  6
CONTINUOUS
 10
4.7635899806
 20
5.2065314316
 11
4.7701337306
 21
5.2327064347
  0
LINE
  5
27E
100
AcDbEntity
  8
03__ASM_ALL_CURVES
100
AcDbLine
 62
40
  6
CONTINUOUS
 10
4.7701337306
 20
5.2327064347
 11
4.7832212306
 21
5.2676064326
  0
LINE
  5
27F
100
AcDbEntity
  8
0
100
AcDbLine
 62
7
  6
CONTINUOUS
 10
4.1320462306
 20
3.9846584326
 11
4.1259514585
 21
3.9741019776
  0
LINE
  5
280
100
AcDbEntity
  8
0
100
AcDbLine
 62
7
  6
CONTINUOUS
 10
4.7083907331
 20
4.8891974147
 11
4.6630462306
 21
4.8106584326
  0
LINE
  5
281
100
AcDbEntity
  8
03__ASM_ALL_CURVES
100
AcDbLine
 62
40
  6
CONTINUOUS
 10
5.0515149806
 20
5.2588814347
 11
5.0646024806
 21
5.2676064326
  0
LINE
  5
282
100
AcDbEntity
  8
0
100
AcDbLine
 62
7
  6
CONTINUOUS
 10
4.1320462306
 20
4.5266584326
 11
4.1259514585
 21
4.5372148876
  0
LINE
  5
283
100
AcDbEntity
  8
0
100
AcDbLine
 62
7
  6
CONTINUOUS
 10
4.7086569019
 20
3.6216584326
 11
4.6630462306
 21
3.7006584326
  0
LINE
  5
284
100
AcDbEntity
  8
03__ASM_ALL_CURVES
100
AcDbLine
 62
40
  6
CONTINUOUS
 10
4.6392587306
 20
5.2239814305
 11
4.6392587306
 21
5.2065314316
  0
LINE
  5
285
100
AcDbEntity
  8
0
100
AcDbLine
 62
7
  6
CONTINUOUS
 10
4.6630462306
 20
3.7006584326
 11
4.6630462306
 21
4.8106584326
  0
LINE
  5
286
100
AcDbEntity
  8
0
100
AcDbLine
 62
7
  6
CONTINUOUS
 10
4.7086569019
 20
3.6216584326
 11
4.7086569019
 21
3.6222731231
  0
LINE
  5
287
100
AcDbEntity
  8
0
100
AcDbLine
 62
7
  6
CONTINUOUS
 10
4.7086569019
 20
3.9147937421
 11
4.7086569019
 21
3.9631378137
  0
LINE
  5
288
100
AcDbEntity
  8
0
100
AcDbLine
 62
7
  6
CONTINUOUS
 10
4.7086569019
 20
4.5481790515
 11
4.7086569019
 21
4.5965231231
  0
LINE
  5
289
100
AcDbEntity
  8
0
100
AcDbLine
 62
7
  6
CONTINUOUS
 10
4.7086569019
 20
4.8890437421
 11
4.7086569019
 21
4.8896584326
  0
LINE
  5
28A
100
AcDbEntity
  8
03__ASM_ALL_CURVES
100
AcDbLine
 62
40
  6
CONTINUOUS
 10
4.7570462306
 20
5.1629064326
 11
4.7635899806
 21
5.2065314316
  0
LINE
  5
28B
100
AcDbEntity
  8
03__ASM_ALL_CURVES
100
AcDbLine
 62
40
  6
CONTINUOUS
 10
5.0973212306
 20
5.2414314326
 11
5.0907774806
 21
5.2327064347
  0
LINE
  5
28C
100
AcDbEntity
  8
03__ASM_ALL_CURVES
100
AcDbLine
 62
40
  6
CONTINUOUS
 10
5.1038649806
 20
5.1890814326
 11
5.0907774806
 21
5.1716314329
  0
LINE
  5
28D
100
AcDbEntity
  8
0
100
AcDbLine
 62
7
  6
CONTINUOUS
 10
3.9245462306
 20
3.9901584326
 11
3.9190462306
 21
3.9846584326
  0
LINE
  5
28E
100
AcDbEntity
  8
03__ASM_ALL_CURVES
100
AcDbLine
 62
40
  6
CONTINUOUS
 10
5.0907774806
 20
5.2327064347
 11
5.0776899806
 21
5.2239814305
  0
LINE
  5
28F
100
AcDbEntity
  8
03__ASM_ALL_CURVES
100
AcDbLine
 62
40
  6
CONTINUOUS
 10
5.0907774806
 20
5.1716314329
 11
5.0776899806
 21
5.1629064326
  0
LINE
  5
290
100
AcDbEntity
  8
0
100
AcDbLine
 62
7
  6
CONTINUOUS
 10
3.9245462306
 20
4.5211584326
 11
3.9190462306
 21
4.5266584326
  0
LINE
  5
291
100
AcDbEntity
  8
03__ASM_ALL_CURVES
100
AcDbLine
 62
40
  6
CONTINUOUS
 10
4.8617462306
 20
5.2676064326
 11
4.8617462306
 21
5.1629064326
  0
LINE
  5
292
100
AcDbEntity
  8
03__ASM_ALL_CURVES
100
AcDbLine
 62
40
  6
CONTINUOUS
 10
5.1889337306
 20
5.2327064347
 11
5.2020212306
 21
5.2676064326
  0
LINE
  5
293
100
AcDbEntity
  8
03__ASM_ALL_CURVES
100
AcDbLine
 62
40
  6
CONTINUOUS
 10
5.2870899806
 20
5.1803564331
 11
5.2740024806
 21
5.1629064326
  0
LINE
  5
294
100
AcDbEntity
  8
03__ASM_ALL_CURVES
100
AcDbLine
 62
40
  6
CONTINUOUS
 10
7.2599688889
 20
3.3067284326
 11
7.2207063889
 21
3.3067284326
  0
LINE
  5
295
100
AcDbEntity
  8
03__ASM_ALL_CURVES
100
AcDbLine
 62
40
  6
CONTINUOUS
 10
7.1667204514
 20
3.3067284326
 11
7.1569048264
 21
3.3067284326
  0
LINE
  5
296
100
AcDbEntity
  8
03__ASM_ALL_CURVES
100
AcDbLine
 62
40
  6
CONTINUOUS
 10
7.0243938889
 20
3.3067284326
 11
6.9851313889
 21
3.3067284326
  0
LINE
  5
297
100
AcDbEntity
  8
03__ASM_ALL_CURVES
100
AcDbLine
 62
40
  6
CONTINUOUS
 10
6.9311454514
 20
3.3067284326
 11
6.9213298264
 21
3.3067284326
  0
LINE
  5
298
100
AcDbEntity
  8
03__ASM_ALL_CURVES
100
AcDbLine
 62
40
  6
CONTINUOUS
 10
6.8526204514
 20
3.3067284326
 11
6.8428048264
 21
3.3067284326
  0
LINE
  5
299
100
AcDbEntity
  8
03__ASM_ALL_CURVES
100
AcDbLine
 62
40
  6
CONTINUOUS
 10
6.7888188889
 20
3.3067284326
 11
6.7495563889
 21
3.3067284326
  0
LINE
  5
29A
100
AcDbEntity
  8
03__ASM_ALL_CURVES
100
AcDbLine
 62
40
  6
CONTINUOUS
 10
6.6955704514
 20
3.3067284326
 11
6.6857548264
 21
3.3067284326
  0
LINE
  5
29B
100
AcDbEntity
  8
03__ASM_ALL_CURVES
100
AcDbLine
 62
40
  6
CONTINUOUS
 10
5.7359962342
 20
3.3067284326
 11
5.7163649842
 21
3.3067284326
  0
LINE
  5
29C
100
AcDbEntity
  8
03__ASM_ALL_CURVES
100
AcDbLine
 62
40
  6
CONTINUOUS
 10
5.8783227967
 20
3.3329034334
 11
5.9077696717
 21
3.3329034334
  0
LINE
  5
29D
100
AcDbEntity
  8
03__ASM_ALL_CURVES
100
AcDbLine
 62
40
  6
CONTINUOUS
 10
5.8194290467
 20
3.3459909326
 11
5.7948899842
 21
3.3459909326
  0
LINE
  5
29E
100
AcDbEntity
  8
03__ASM_ALL_CURVES
100
AcDbLine
 62
40
  6
CONTINUOUS
 10
6.7495563889
 20
3.3459909326
 11
6.7740954514
 21
3.3459909326
  0
LINE
  5
29F
100
AcDbEntity
  8
03__ASM_ALL_CURVES
100
AcDbLine
 62
40
  6
CONTINUOUS
 10
6.9851313889
 20
3.3459909326
 11
7.0096704514
 21
3.3459909326
  0
LINE
  5
2A0
100
AcDbEntity
  8
03__ASM_ALL_CURVES
100
AcDbLine
 62
40
  6
CONTINUOUS
 10
7.2207063889
 20
3.3459909326
 11
7.2452454514
 21
3.3459909326
  0
LINE
  5
2A1
100
AcDbEntity
  8
03__ASM_ALL_CURVES
100
AcDbLine
 62
40
  6
CONTINUOUS
 10
6.6955704514
 20
3.3852534326
 11
6.6857548264
 21
3.3852534326
  0
LINE
  5
2A2
100
AcDbEntity
  8
03__ASM_ALL_CURVES
100
AcDbLine
 62
40
  6
CONTINUOUS
 10
5.7163649842
 20
3.3852534326
 11
5.7359962342
 21
3.3852534326
  0
LINE
  5
2A3
100
AcDbEntity
  8
03__ASM_ALL_CURVES
100
AcDbLine
 62
40
  6
CONTINUOUS
 10
5.7948899842
 20
3.3852534326
 11
5.8194290467
 21
3.3852534326
  0
LINE
  5
2A4
100
AcDbEntity
  8
03__ASM_ALL_CURVES
100
AcDbLine
 62
40
  6
CONTINUOUS
 10
6.7495563889
 20
3.3852534326
 11
6.7888188889
 21
3.3852534326
  0
LINE
  5
2A5
100
AcDbEntity
  8
03__ASM_ALL_CURVES
100
AcDbLine
 62
40
  6
CONTINUOUS
 10
6.8428048264
 20
3.3852534326
 11
6.8526204514
 21
3.3852534326
  0
LINE
  5
2A6
100
AcDbEntity
  8
03__ASM_ALL_CURVES
100
AcDbLine
 62
40
  6
CONTINUOUS
 10
6.9851313889
 20
3.3852534326
 11
7.0243938889
 21
3.3852534326
  0
LINE
  5
2A7
100
AcDbEntity
  8
03__ASM_ALL_CURVES
100
AcDbLine
 62
40
  6
CONTINUOUS
 10
7.1569048264
 20
3.3852534326
 11
7.1667204514
 21
3.3852534326
  0
LINE
  5
2A8
100
AcDbEntity
  8
03__ASM_ALL_CURVES
100
AcDbLine
 62
40
  6
CONTINUOUS
 10
7.2207063889
 20
3.3852534326
 11
7.2599688889
 21
3.3852534326
  0
LINE
  5
2A9
100
AcDbEntity
  8
03__ASM_ALL_CURVES
100
AcDbLine
 62
40
  6
CONTINUOUS
 10
6.889429043
 20
3.4271334326
 11
6.879613418
 21
3.4271334326
  0
LINE
  5
2AA
100
AcDbEntity
  8
03__ASM_ALL_CURVES
100
AcDbLine
 62
40
  6
CONTINUOUS
 10
6.0525501384
 20
3.4271334326
 11
6.0427345134
 21
3.4271334326
  0
LINE
  5
2AB
100
AcDbEntity
  8
03__ASM_ALL_CURVES
100
AcDbLine
 62
40
  6
CONTINUOUS
 10
5.8169751384
 20
3.4271334326
 11
5.8071595134
 21
3.4271334326
  0
LINE
  5
2AC
100
AcDbEntity
  8
03__ASM_ALL_CURVES
100
AcDbLine
 62
40
  6
CONTINUOUS
 10
7.1004649805
 20
3.4271334326
 11
7.1397274805
 21
3.4271334326
  0
LINE
  5
2AD
100
AcDbEntity
  8
03__ASM_ALL_CURVES
100
AcDbLine
 62
40
  6
CONTINUOUS
 10
4.6392587306
 20
5.2065314316
 11
4.6458024806
 21
5.1803564331
  0
LINE
  5
2AE
100
AcDbEntity
  8
03__ASM_ALL_CURVES
100
AcDbLine
 62
40
  6
CONTINUOUS
 10
4.9599024806
 20
5.1629064326
 11
4.9599024806
 21
5.1716314329
  0
LINE
  5
2AF
100
AcDbEntity
  8
03__ASM_ALL_CURVES
100
AcDbLine
 62
40
  6
CONTINUOUS
 10
5.0973212306
 20
5.2501564305
 11
5.0973212306
 21
5.2414314326
  0
LINE
  5
2B0
100
AcDbEntity
  8
03__ASM_ALL_CURVES
100
AcDbLine
 62
40
  6
CONTINUOUS
 10
5.1038649806
 20
5.1978064336
 11
5.1038649806
 21
5.1890814326
  0
LINE
  5
2B1
100
AcDbEntity
  8
03__ASM_ALL_CURVES
100
AcDbLine
 62
40
  6
CONTINUOUS
 10
5.1758462306
 20
5.1629064326
 11
5.1823899806
 21
5.2065314316
  0
LINE
  5
2B2
100
AcDbEntity
  8
03__ASM_ALL_CURVES
100
AcDbLine
 62
40
  6
CONTINUOUS
 10
5.1823899806
 20
5.2065314316
 11
5.1889337306
 21
5.2327064347
  0
LINE
  5
2B3
100
AcDbEntity
  8
03__ASM_ALL_CURVES
100
AcDbLine
 62
40
  6
CONTINUOUS
 10
5.2936337306
 20
5.2065314316
 11
5.2870899806
 21
5.1803564331
  0
LINE
  5
2B4
100
AcDbEntity
  8
03__ASM_ALL_CURVES
100
AcDbLine
 62
40
  6
CONTINUOUS
 10
6.967954043
 20
3.4663959326
 11
6.9434149805
 21
3.4663959326
  0
LINE
  5
2B5
100
AcDbEntity
  8
03__ASM_ALL_CURVES
100
AcDbLine
 62
40
  6
CONTINUOUS
 10
6.810904043
 20
3.4663959326
 11
6.7863649805
 21
3.4663959326
  0
LINE
  5
2B6
100
AcDbEntity
  8
03__ASM_ALL_CURVES
100
AcDbLine
 62
40
  6
CONTINUOUS
 10
5.8955001384
 20
3.4663959326
 11
5.8709610759
 21
3.4663959326
  0
LINE
  5
2B7
100
AcDbEntity
  8
03__ASM_ALL_CURVES
100
AcDbLine
 62
40
  6
CONTINUOUS
 10
5.7384501384
 20
3.4663959326
 11
5.7139110759
 21
3.4663959326
  0
LINE
  5
2B8
100
AcDbEntity
  8
03__ASM_ALL_CURVES
100
AcDbLine
 62
40
  6
CONTINUOUS
 10
6.0427345134
 20
3.472939681
 11
6.0525501384
 21
3.472939681
  0
LINE
  5
2B9
100
AcDbEntity
  8
03__ASM_ALL_CURVES
100
AcDbLine
 62
40
  6
CONTINUOUS
 10
5.7139110759
 20
3.5056584326
 11
5.7384501384
 21
3.5056584326
  0
LINE
  5
2BA
100
AcDbEntity
  8
03__ASM_ALL_CURVES
100
AcDbLine
 62
40
  6
CONTINUOUS
 10
5.8071595134
 20
3.5056584326
 11
5.8169751384
 21
3.5056584326
  0
LINE
  5
2BB
100
AcDbEntity
  8
03__ASM_ALL_CURVES
100
AcDbLine
 62
40
  6
CONTINUOUS
 10
5.8709610759
 20
3.5056584326
 11
5.8955001384
 21
3.5056584326
  0
LINE
  5
2BC
100
AcDbEntity
  8
03__ASM_ALL_CURVES
100
AcDbLine
 62
40
  6
CONTINUOUS
 10
5.9445782634
 20
3.5056584326
 11
5.9936563884
 21
3.5056584326
  0
LINE
  5
2BD
100
AcDbEntity
  8
03__ASM_ALL_CURVES
100
AcDbLine
 62
40
  6
CONTINUOUS
 10
6.0427345134
 20
3.5056584326
 11
6.0525501384
 21
3.5056584326
  0
LINE
  5
2BE
100
AcDbEntity
  8
03__ASM_ALL_CURVES
100
AcDbLine
 62
40
  6
CONTINUOUS
 10
6.7863649805
 20
3.5056584326
 11
6.810904043
 21
3.5056584326
  0
LINE
  5
2BF
100
AcDbEntity
  8
03__ASM_ALL_CURVES
100
AcDbLine
 62
40
  6
CONTINUOUS
 10
6.879613418
 20
3.5056584326
 11
6.889429043
 21
3.5056584326
  0
LINE
  5
2C0
100
AcDbEntity
  8
03__ASM_ALL_CURVES
100
AcDbLine
 62
40
  6
CONTINUOUS
 10
6.9434149805
 20
3.5056584326
 11
6.967954043
 21
3.5056584326
  0
LINE
  5
2C1
100
AcDbEntity
  8
03__ASM_ALL_CURVES
100
AcDbLine
 62
40
  6
CONTINUOUS
 10
7.017032168
 20
3.5056584326
 11
7.066110293
 21
3.5056584326
  0
LINE
  5
2C2
100
AcDbEntity
  8
03__ASM_ALL_CURVES
100
AcDbLine
 62
40
  6
CONTINUOUS
 10
7.115188418
 20
3.5056584326
 11
7.125004043
 21
3.5056584326
  0
LINE
  5
2C3
100
AcDbEntity
  8
03__ASM_ALL_CURVES
100
AcDbLine
 62
40
  6
CONTINUOUS
 10
5.7359962342
 20
3.3852534326
 11
5.7458118592
 21
3.3787096842
  0
LINE
  5
2C4
100
AcDbEntity
  8
03__ASM_ALL_CURVES
100
AcDbLine
 62
40
  6
CONTINUOUS
 10
5.8194290467
 20
3.3852534326
 11
5.8292446717
 21
3.3787096842
  0
LINE
  5
2C5
100
AcDbEntity
  8
03__ASM_ALL_CURVES
100
AcDbLine
 62
40
  6
CONTINUOUS
 10
5.8071595134
 20
3.4271334326
 11
5.7973438884
 21
3.4336771828
  0
LINE
  5
2C6
100
AcDbEntity
  8
03__ASM_ALL_CURVES
100
AcDbLine
 62
40
  6
CONTINUOUS
 10
5.7384501384
 20
3.5056584326
 11
5.7482657634
 21
3.4991146842
  0
LINE
  5
2C7
100
AcDbEntity
  8
03__ASM_ALL_CURVES
100
AcDbLine
 62
40
  6
CONTINUOUS
 10
5.2936337306
 20
5.2239814305
 11
5.2936337306
 21
5.2065314316
  0
LINE
  5
2C8
100
AcDbEntity
  8
0
100
AcDbLine
 62
7
  6
CONTINUOUS
 10
5.2956206048
 20
3.6216584326
 11
5.2956206048
 21
3.6222731231
  0
LINE
  5
2C9
100
AcDbEntity
  8
0
100
AcDbLine
 62
7
  6
CONTINUOUS
 10
5.2956206048
 20
3.9147937421
 11
5.2956206048
 21
3.9631378137
  0
LINE
  5
2CA
100
AcDbEntity
  8
0
100
AcDbLine
 62
7
  6
CONTINUOUS
 10
5.2956206048
 20
4.5481790515
 11
5.2956206048
 21
4.5965231231
  0
LINE
  5
2CB
100
AcDbEntity
  8
0
100
AcDbLine
 62
7
  6
CONTINUOUS
 10
5.2956206048
 20
4.8890437421
 11
5.2956206048
 21
4.8896584326
  0
LINE
  5
2CC
100
AcDbEntity
  8
0
100
AcDbLine
 62
7
  6
CONTINUOUS
 10
5.2956206048
 20
3.6216584326
 11
4.7086569019
 21
3.6216584326
  0
LINE
  5
2CD
100
AcDbEntity
  8
0
100
AcDbLine
 62
7
  6
CONTINUOUS
 10
5.2956206048
 20
3.6222731231
 11
4.7086569019
 21
3.6222731231
  0
LINE
  5
2CE
100
AcDbEntity
  8
0
100
AcDbLine
 62
7
  6
CONTINUOUS
 10
6.1630462306
 20
3.7176584326
 11
6.0980462306
 21
3.7176584326
  0
LINE
  5
2CF
100
AcDbEntity
  8
0
100
AcDbLine
 62
7
  6
CONTINUOUS
 10
5.7240462306
 20
3.7176584326
 11
5.6790462306
 21
3.7176584326
  0
LINE
  5
2D0
100
AcDbEntity
  8
0
100
AcDbLine
 62
7
  6
CONTINUOUS
 10
5.5380462306
 20
3.7176584326
 11
5.3510462306
 21
3.7176584326
  0
LINE
  5
2D1
100
AcDbEntity
  8
0
100
AcDbLine
 62
7
  6
CONTINUOUS
 10
5.5380462306
 20
3.7191584326
 11
5.5880462306
 21
3.7191584326
  0
LINE
  5
2D2
100
AcDbEntity
  8
THREAD
100
AcDbLine
 62
7
  6
CONTINUOUS
 10
6.2100462306
 20
3.7411584326
 11
6.1786346879
 21
3.7411584326
  0
LINE
  5
2D3
100
AcDbEntity
  8
0
100
AcDbLine
 62
7
  6
CONTINUOUS
 10
6.2800462306
 20
3.7436584326
 11
6.3300462306
 21
3.7436584326
  0
LINE
  5
2D4
100
AcDbEntity
  8
0
100
AcDbLine
 62
7
  6
CONTINUOUS
 10
4.6630462306
 20
3.7586584326
 11
4.2250462306
 21
3.7586584326
  0
LINE
  5
2D5
100
AcDbEntity
  8
THREAD
100
AcDbLine
 62
7
  6
CONTINUOUS
 10
6.6440462306
 20
3.7596584326
 11
6.3729855409
 21
3.7596584326
  0
LINE
  5
2D6
100
AcDbEntity
  8
0
100
AcDbLine
 62
7
  6
CONTINUOUS
 10
5.6790462306
 20
3.7731584326
 11
5.6580462306
 21
3.7731584326
  0
LINE
  5
2D7
100
AcDbEntity
  8
03__ASM_ALL_CURVES
100
AcDbLine
 62
40
  6
CONTINUOUS
 10
5.8169751384
 20
3.5056584326
 11
5.8267907634
 21
3.4991146842
  0
LINE
  5
2D8
100
AcDbEntity
  8
03__ASM_ALL_CURVES
100
AcDbLine
 62
40
  6
CONTINUOUS
 10
5.8955001384
 20
3.5056584326
 11
5.9053157634
 21
3.4991146842
  0
LINE
  5
2D9
100
AcDbEntity
  8
03__ASM_ALL_CURVES
100
AcDbLine
 62
40
  6
CONTINUOUS
 10
6.0427345134
 20
3.4271334326
 11
6.0329188884
 21
3.4336771828
  0
LINE
  5
2DA
100
AcDbEntity
  8
03__ASM_ALL_CURVES
100
AcDbLine
 62
40
  6
CONTINUOUS
 10
6.0525501384
 20
3.472939681
 11
6.0623657634
 21
3.4663959326
  0
LINE
  5
2DB
100
AcDbEntity
  8
03__ASM_ALL_CURVES
100
AcDbLine
 62
40
  6
CONTINUOUS
 10
6.0525501384
 20
3.5056584326
 11
6.0623657634
 21
3.4991146842
  0
LINE
  5
2DC
100
AcDbEntity
  8
03__ASM_ALL_CURVES
100
AcDbLine
 62
40
  6
CONTINUOUS
 10
4.2531774806
 20
5.2588814347
 11
4.2597212306
 21
5.2501564305
  0
LINE
  5
2DD
100
AcDbEntity
  8
03__ASM_ALL_CURVES
100
AcDbLine
 62
40
  6
CONTINUOUS
 10
4.3317024806
 20
5.1716314329
 11
4.3382462306
 21
5.1629064326
  0
LINE
  5
2DE
100
AcDbEntity
  8
03__ASM_ALL_CURVES
100
AcDbLine
 62
40
  6
CONTINUOUS
 10
5.7458118592
 20
3.3787096842
 11
5.7556274842
 21
3.3656221826
  0
LINE
  5
2DF
100
AcDbEntity
  8
03__ASM_ALL_CURVES
100
AcDbLine
 62
40
  6
CONTINUOUS
 10
4.4233149806
 20
5.1716314329
 11
4.4102274806
 21
5.1890814326
  0
LINE
  5
2E0
100
AcDbEntity
  8
03__ASM_ALL_CURVES
100
AcDbLine
 62
40
  6
CONTINUOUS
 10
4.4233149806
 20
5.2327064347
 11
4.4167712306
 21
5.2414314326
  0
LINE
  5
2E1
100
AcDbEntity
  8
03__ASM_ALL_CURVES
100
AcDbLine
 62
40
  6
CONTINUOUS
 10
5.8292446717
 20
3.3787096842
 11
5.8341524842
 21
3.372165931
  0
LINE
  5
2E2
100
AcDbEntity
  8
03__ASM_ALL_CURVES
100
AcDbLine
 62
40
  6
CONTINUOUS
 10
5.7973438884
 20
3.4336771828
 11
5.7875282634
 21
3.4467646826
  0
LINE
  5
2E3
100
AcDbEntity
  8
03__ASM_ALL_CURVES
100
AcDbLine
 62
40
  6
CONTINUOUS
 10
5.7482657634
 20
3.4991146842
 11
5.7531735759
 21
3.492570931
  0
LINE
  5
2E4
100
AcDbEntity
  8
03__ASM_ALL_CURVES
100
AcDbLine
 62
40
  6
CONTINUOUS
 10
4.4625774806
 20
5.2152564326
 11
4.4756649806
 21
5.1978064336
  0
LINE
  5
2E5
100
AcDbEntity
  8
0
100
AcDbLine
 62
7
  6
CONTINUOUS
 10
5.3510462306
 20
3.7176584326
 11
5.3510462306
 21
4.7936584326
  0
LINE
  5
2E6
100
AcDbEntity
  8
03__ASM_ALL_CURVES
100
AcDbLine
 62
40
  6
CONTINUOUS
 10
6.4418099809
 20
5.2588814347
 11
6.4548974809
 21
5.2676064326
  0
LINE
  5
2E7
100
AcDbEntity
  8
03__ASM_ALL_CURVES
100
AcDbLine
 62
40
  6
CONTINUOUS
 10
6.5465099809
 20
5.2588814347
 11
6.5595974809
 21
5.2676064326
  0
LINE
  5
2E8
100
AcDbEntity
  8
03__ASM_ALL_CURVES
100
AcDbLine
 62
40
  6
CONTINUOUS
 10
6.4810724809
 20
5.1716314329
 11
6.4679849809
 21
5.1629064326
  0
LINE
  5
2E9
100
AcDbEntity
  8
THREAD
100
AcDbLine
 62
7
  6
CONTINUOUS
 10
6.3435406771
 20
3.7976584326
 11
6.3300462306
 21
3.7976584326
  0
LINE
  5
2EA
100
AcDbEntity
  8
0
100
AcDbLine
 62
7
  6
CONTINUOUS
 10
6.0766102953
 20
3.7976584326
 11
5.8050462306
 21
3.7976584326
  0
LINE
  5
2EB
100
AcDbEntity
  8
0
100
AcDbLine
 62
7
  6
CONTINUOUS
 10
5.7650462306
 20
3.7976584326
 11
5.745482166
 21
3.7976584326
  0
LINE
  5
2EC
100
AcDbEntity
  8
THREAD
100
AcDbLine
 62
7
  6
CONTINUOUS
 10
6.7720462306
 20
3.8036584326
 11
6.6880462306
 21
3.8036584326
  0
LINE
  5
2ED
100
AcDbEntity
  8
0
100
AcDbLine
 62
7
  6
CONTINUOUS
 10
7.5230462306
 20
3.8191584326
 11
7.4800462306
 21
3.8191584326
  0
LINE
  5
2EE
100
AcDbEntity
  8
0
100
AcDbLine
 62
7
  6
CONTINUOUS
 10
7.2785462306
 20
3.8191584326
 11
7.2285462306
 21
3.8191584326
  0
LINE
  5
2EF
100
AcDbEntity
  8
0
100
AcDbLine
 62
7
  6
CONTINUOUS
 10
7.2820462306
 20
3.8196584326
 11
7.3320462306
 21
3.8196584326
  0
LINE
  5
2F0
100
AcDbEntity
  8
0
100
AcDbLine
 62
7
  6
CONTINUOUS
 10
7.4020462306
 20
3.8196584326
 11
7.4520462306
 21
3.8196584326
  0
LINE
  5
2F1
100
AcDbEntity
  8
0
100
AcDbLine
 62
7
  6
CONTINUOUS
 10
7.4520462306
 20
3.8736584326
 11
7.4800462306
 21
3.8736584326
  0
LINE
  5
2F2
100
AcDbEntity
  8
0
100
AcDbLine
 62
7
  6
CONTINUOUS
 10
6.7880462306
 20
3.8816584326
 11
7.0530462306
 21
3.8816584326
  0
LINE
  5
2F3
100
AcDbEntity
  8
0
100
AcDbLine
 62
7
  6
CONTINUOUS
 10
7.2090462306
 20
3.8816584326
 11
7.2250462306
 21
3.8816584326
  0
LINE
  5
2F4
100
AcDbEntity
  8
0
100
AcDbLine
 62
7
  6
CONTINUOUS
 10
5.2956206048
 20
3.9147937421
 11
4.7086569019
 21
3.9147937421
  0
LINE
  5
2F5
100
AcDbEntity
  8
03__ASM_ALL_CURVES
100
AcDbLine
 62
40
  6
CONTINUOUS
 10
4.4625774806
 20
5.2588814347
 11
4.4691212306
 21
5.2501564305
  0
LINE
  5
2F6
100
AcDbEntity
  8
03__ASM_ALL_CURVES
100
AcDbLine
 62
40
  6
CONTINUOUS
 10
5.8267907634
 20
3.4991146842
 11
5.8366063884
 21
3.4860271826
  0
LINE
  5
2F7
100
AcDbEntity
  8
03__ASM_ALL_CURVES
100
AcDbLine
 62
40
  6
CONTINUOUS
 10
5.9053157634
 20
3.4991146842
 11
5.9102235759
 21
3.492570931
  0
LINE
  5
2F8
100
AcDbEntity
  8
03__ASM_ALL_CURVES
100
AcDbLine
 62
40
  6
CONTINUOUS
 10
4.6458024806
 20
5.1803564331
 11
4.6588899806
 21
5.1629064326
  0
LINE
  5
2F9
100
AcDbEntity
  8
0
100
AcDbLine
 62
7
  6
CONTINUOUS
 10
5.5380462306
 20
3.7176584326
 11
5.5380462306
 21
4.7936584326
  0
LINE
  5
2FA
100
AcDbEntity
  8
0
100
AcDbLine
 62
7
  6
CONTINUOUS
 10
5.5880462306
 20
3.7191584326
 11
5.5880462306
 21
4.7921584326
  0
LINE
  5
2FB
100
AcDbEntity
  8
03__ASM_ALL_CURVES
100
AcDbLine
 62
40
  6
CONTINUOUS
 10
6.5857724809
 20
5.1716314329
 11
6.5726849809
 21
5.1629064326
  0
LINE
  5
2FC
100
AcDbEntity
  8
0
100
AcDbLine
 62
7
  6
CONTINUOUS
 10
5.2956206048
 20
3.9631378137
 11
4.7086569019
 21
3.9631378137
  0
LINE
  5
2FD
100
AcDbEntity
  8
0
100
AcDbLine
 62
7
  6
CONTINUOUS
 10
3.9560462307
 20
3.9746584326
 11
4.1262699523
 21
3.9746584326
  0
LINE
  5
2FE
100
AcDbEntity
  8
0
100
AcDbLine
 62
7
  6
CONTINUOUS
 10
4.1630462306
 20
3.9846584326
 11
4.1320462306
 21
3.9846584326
  0
LINE
  5
2FF
100
AcDbEntity
  8
0
100
AcDbLine
 62
7
  6
CONTINUOUS
 10
3.9190462306
 20
3.9846584326
 11
3.9130462306
 21
3.9846584326
  0
LINE
  5
300
100
AcDbEntity
  8
0
100
AcDbLine
 62
7
  6
CONTINUOUS
 10
3.9405462306
 20
3.9901584326
 11
3.9245462306
 21
3.9901584326
  0
LINE
  5
301
100
AcDbEntity
  8
0
100
AcDbLine
 62
7
  6
CONTINUOUS
 10
3.3820462306
 20
4.0716584326
 11
3.5810462306
 21
4.0716584326
  0
LINE
  5
302
100
AcDbEntity
  8
0
100
AcDbLine
 62
7
  6
CONTINUOUS
 10
3.6190462306
 20
4.0716584326
 11
3.8510462306
 21
4.0716584326
  0
LINE
  5
303
100
AcDbEntity
  8
DEFAULT_2
100
AcDbLine
 62
8
  6
HIDDEN
 10
3.5810462306
 20
4.0856584326
 11
3.584849203
 21
4.0856584326
  0
LINE
  5
304
100
AcDbEntity
  8
DEFAULT_2
100
AcDbLine
 62
8
  6
HIDDEN
 10
3.6152432582
 20
4.0856584326
 11
3.6190462306
 21
4.0856584326
  0
LINE
  5
305
100
AcDbEntity
  8
0
100
AcDbLine
 62
7
  6
CONTINUOUS
 10
3.5810462306
 20
4.1046584326
 11
3.5825462306
 21
4.1046584326
  0
LINE
  5
306
100
AcDbEntity
  8
0
100
AcDbLine
 62
7
  6
CONTINUOUS
 10
3.6175462306
 20
4.1046584326
 11
3.6190462306
 21
4.1046584326
  0
LINE
  5
307
100
AcDbEntity
  8
03__ASM_ALL_CURVES
100
AcDbLine
 62
40
  6
CONTINUOUS
 10
6.6857548264
 20
3.3067284326
 11
6.6759392014
 21
3.3132721828
  0
LINE
  5
308
100
AcDbEntity
  8
03__ASM_ALL_CURVES
100
AcDbLine
 62
40
  6
CONTINUOUS
 10
6.6759392014
 20
3.3590784342
 11
6.7053860764
 21
3.3394471818
  0
LINE
  5
309
100
AcDbEntity
  8
03__ASM_ALL_CURVES
100
AcDbLine
 62
40
  6
CONTINUOUS
 10
6.7053860764
 20
3.3787096842
 11
6.6955704514
 21
3.3852534326
  0
LINE
  5
30A
100
AcDbEntity
  8
03__ASM_ALL_CURVES
100
AcDbLine
 62
40
  6
CONTINUOUS
 10
6.8428048264
 20
3.3067284326
 11
6.8329892014
 21
3.3132721828
  0
LINE
  5
30B
100
AcDbEntity
  8
03__ASM_ALL_CURVES
100
AcDbLine
 62
40
  6
CONTINUOUS
 10
6.9213298264
 20
3.3067284326
 11
6.9115142014
 21
3.3132721828
  0
LINE
  5
30C
100
AcDbEntity
  8
03__ASM_ALL_CURVES
100
AcDbLine
 62
40
  6
CONTINUOUS
 10
6.8526204514
 20
3.3852534326
 11
6.8624360764
 21
3.3787096842
  0
LINE
  5
30D
100
AcDbEntity
  8
03__ASM_ALL_CURVES
100
AcDbLine
 62
40
  6
CONTINUOUS
 10
6.0329188884
 20
3.4336771828
 11
6.0280110759
 21
3.440220933
  0
LINE
  5
30E
100
AcDbEntity
  8
03__ASM_ALL_CURVES
100
AcDbLine
 62
40
  6
CONTINUOUS
 10
6.0623657634
 20
3.4663959326
 11
6.0721813884
 21
3.4533084334
  0
LINE
  5
30F
100
AcDbEntity
  8
03__ASM_ALL_CURVES
100
AcDbLine
 62
40
  6
CONTINUOUS
 10
6.0623657634
 20
3.4991146842
 11
6.0672735759
 21
3.492570931
  0
LINE
  5
310
100
AcDbEntity
  8
03__ASM_ALL_CURVES
100
AcDbLine
 62
40
  6
CONTINUOUS
 10
6.0304649842
 20
3.3852534326
 11
6.0697274842
 21
3.3067284326
  0
LINE
  5
311
100
AcDbEntity
  8
03__ASM_ALL_CURVES
100
AcDbLine
 62
40
  6
CONTINUOUS
 10
5.8194290467
 20
3.3459909326
 11
5.8341524842
 21
3.3067284326
  0
LINE
  5
312
100
AcDbEntity
  8
03__ASM_ALL_CURVES
100
AcDbLine
 62
40
  6
CONTINUOUS
 10
5.8955001384
 20
3.4663959326
 11
5.9102235759
 21
3.4271334326
  0
LINE
  5
313
100
AcDbEntity
  8
03__ASM_ALL_CURVES
100
AcDbLine
 62
40
  6
CONTINUOUS
 10
5.8930462342
 20
3.3852534326
 11
5.9175852967
 21
3.3067284326
  0
LINE
  5
314
100
AcDbEntity
  8
03__ASM_ALL_CURVES
100
AcDbLine
 62
40
  6
CONTINUOUS
 10
5.7556274842
 20
3.3656221826
 11
5.7605352967
 21
3.3459909326
  0
LINE
  5
315
100
AcDbEntity
  8
03__ASM_ALL_CURVES
100
AcDbLine
 62
40
  6
CONTINUOUS
 10
5.2870899806
 20
5.2501564305
 11
5.2936337306
 21
5.2239814305
  0
LINE
  5
316
100
AcDbEntity
  8
03__ASM_ALL_CURVES
100
AcDbLine
 62
40
  6
CONTINUOUS
 10
5.7875282634
 20
3.4467646826
 11
5.7826204509
 21
3.4663959326
  0
LINE
  5
317
100
AcDbEntity
  8
03__ASM_ALL_CURVES
100
AcDbLine
 62
40
  6
CONTINUOUS
 10
5.8366063884
 20
3.4860271826
 11
5.8415142009
 21
3.4663959326
  0
LINE
  5
318
100
AcDbEntity
  8
0
100
AcDbLine
 62
7
  6
CONTINUOUS
 10
5.6580462306
 20
4.7731584326
 11
5.6580462306
 21
3.7381584326
  0
LINE
  5
319
100
AcDbEntity
  8
0
100
AcDbLine
 62
7
  6
CONTINUOUS
 10
5.6790462306
 20
3.7176584326
 11
5.6790462306
 21
4.7936584326
  0
LINE
  5
31A
100
AcDbEntity
  8
03__ASM_ALL_CURVES
100
AcDbLine
 62
40
  6
CONTINUOUS
 10
5.7139110759
 20
3.4271334326
 11
5.7139110759
 21
3.5056584326
  0
LINE
  5
31B
100
AcDbEntity
  8
03__ASM_ALL_CURVES
100
AcDbLine
 62
40
  6
CONTINUOUS
 10
5.7163649842
 20
3.3067284326
 11
5.7163649842
 21
3.3852534326
  0
LINE
  5
31C
100
AcDbEntity
  8
0
100
AcDbLine
 62
7
  6
CONTINUOUS
 10
5.7240462306
 20
3.7176584326
 11
5.7240462306
 21
4.7936584326
  0
LINE
  5
31D
100
AcDbEntity
  8
0
100
AcDbLine
 62
7
  6
CONTINUOUS
 10
5.745482166
 20
3.7976584326
 11
5.745482166
 21
4.7136584326
  0
LINE
  5
31E
100
AcDbEntity
  8
03__ASM_ALL_CURVES
100
AcDbLine
 62
40
  6
CONTINUOUS
 10
5.7531735759
 20
3.492570931
 11
5.7531735759
 21
3.4794834342
  0
LINE
  5
31F
100
AcDbEntity
  8
03__ASM_ALL_CURVES
100
AcDbLine
 62
40
  6
CONTINUOUS
 10
5.7948899842
 20
3.3067284326
 11
5.7948899842
 21
3.3852534326
  0
LINE
  5
320
100
AcDbEntity
  8
0
100
AcDbLine
 62
7
  6
CONTINUOUS
 10
5.3510462306
 20
3.7176584326
 11
5.2958867736
 21
3.6221194505
  0
LINE
  5
321
100
AcDbEntity
  8
03__ASM_ALL_CURVES
100
AcDbLine
 62
40
  6
CONTINUOUS
 10
6.4287224809
 20
5.2414314326
 11
6.4418099809
 21
5.2588814347
  0
LINE
  5
322
100
AcDbEntity
  8
03__ASM_ALL_CURVES
100
AcDbLine
 62
40
  6
CONTINUOUS
 10
6.4941599809
 20
5.1890814326
 11
6.4810724809
 21
5.1716314329
  0
LINE
  5
323
100
AcDbEntity
  8
03__ASM_ALL_CURVES
100
AcDbLine
 62
40
  6
CONTINUOUS
 10
6.5334224809
 20
5.2414314326
 11
6.5465099809
 21
5.2588814347
  0
LINE
  5
324
100
AcDbEntity
  8
03__ASM_ALL_CURVES
100
AcDbLine
 62
40
  6
CONTINUOUS
 10
7.0700099809
 20
5.2588814347
 11
7.0830974809
 21
5.2676064326
  0
LINE
  5
325
100
AcDbEntity
  8
03__ASM_ALL_CURVES
100
AcDbLine
 62
40
  6
CONTINUOUS
 10
7.1092724809
 20
5.1716314329
 11
7.0961849809
 21
5.1629064326
  0
LINE
  5
326
100
AcDbEntity
  8
03__ASM_ALL_CURVES
100
AcDbLine
 62
40
  6
CONTINUOUS
 10
7.2924974809
 20
5.2676064326
 11
7.2794099809
 21
5.2588814347
  0
LINE
  5
327
100
AcDbEntity
  8
03__ASM_ALL_CURVES
100
AcDbLine
 62
40
  6
CONTINUOUS
 10
8.168252481
 20
4.1561934326
 11
8.128989981
 21
4.1561934326
  0
LINE
  5
328
100
AcDbEntity
  8
03__ASM_ALL_CURVES
100
AcDbLine
 62
40
  6
CONTINUOUS
 10
8.050464981
 20
4.1561934326
 11
8.089727481
 21
4.1561934326
  0
LINE
  5
329
100
AcDbEntity
  8
03__ASM_ALL_CURVES
100
AcDbLine
 62
40
  6
CONTINUOUS
 10
8.128989981
 20
4.1954559326
 11
8.1535290435
 21
4.1954559326
  0
LINE
  5
32A
100
AcDbEntity
  8
03__ASM_ALL_CURVES
100
AcDbLine
 62
40
  6
CONTINUOUS
 10
8.128989981
 20
4.2347184326
 11
8.168252481
 21
4.2347184326
  0
LINE
  5
32B
100
AcDbEntity
  8
03__ASM_ALL_CURVES
100
AcDbLine
 62
40
  6
CONTINUOUS
 10
8.2026071685
 20
4.2347184326
 11
8.2516852935
 21
4.2347184326
  0
LINE
  5
32C
100
AcDbEntity
  8
0
100
AcDbLine
 62
7
  6
CONTINUOUS
 10
4.1011748203
 20
4.2556584326
 11
3.9995170819
 21
4.2556584326
  0
LINE
  5
32D
100
AcDbEntity
  8
03__ASM_ALL_CURVES
100
AcDbLine
 62
40
  6
CONTINUOUS
 10
8.0161102933
 20
4.2765984326
 11
8.0062946683
 21
4.2765984326
  0
LINE
  5
32E
100
AcDbEntity
  8
03__ASM_ALL_CURVES
100
AcDbLine
 62
40
  6
CONTINUOUS
 10
6.879613418
 20
3.4271334326
 11
6.869797793
 21
3.4336771828
  0
LINE
  5
32F
100
AcDbEntity
  8
03__ASM_ALL_CURVES
100
AcDbLine
 62
40
  6
CONTINUOUS
 10
6.810904043
 20
3.5056584326
 11
6.820719668
 21
3.4991146842
  0
LINE
  5
330
100
AcDbEntity
  8
03__ASM_ALL_CURVES
100
AcDbLine
 62
40
  6
CONTINUOUS
 10
7.1569048264
 20
3.3067284326
 11
7.1470892014
 21
3.3132721828
  0
LINE
  5
331
100
AcDbEntity
  8
03__ASM_ALL_CURVES
100
AcDbLine
 62
40
  6
CONTINUOUS
 10
4.2400899806
 20
5.2676064326
 11
4.2531774806
 21
5.2588814347
  0
LINE
  5
332
100
AcDbEntity
  8
03__ASM_ALL_CURVES
100
AcDbLine
 62
40
  6
CONTINUOUS
 10
6.889429043
 20
3.5056584326
 11
6.899244668
 21
3.4991146842
  0
LINE
  5
333
100
AcDbEntity
  8
03__ASM_ALL_CURVES
100
AcDbLine
 62
40
  6
CONTINUOUS
 10
4.4364024806
 20
5.1629064326
 11
4.4233149806
 21
5.1716314329
  0
LINE
  5
334
100
AcDbEntity
  8
03__ASM_ALL_CURVES
100
AcDbLine
 62
40
  6
CONTINUOUS
 10
6.967954043
 20
3.5056584326
 11
6.977769668
 21
3.4991146842
  0
LINE
  5
335
100
AcDbEntity
  8
03__ASM_ALL_CURVES
100
AcDbLine
 62
40
  6
CONTINUOUS
 10
7.1667204514
 20
3.3852534326
 11
7.1765360764
 21
3.3787096842
  0
LINE
  5
336
100
AcDbEntity
  8
03__ASM_ALL_CURVES
100
AcDbLine
 62
40
  6
CONTINUOUS
 10
4.4364024806
 20
5.2239814305
 11
4.4233149806
 21
5.2327064347
  0
LINE
  5
337
100
AcDbEntity
  8
03__ASM_ALL_CURVES
100
AcDbLine
 62
40
  6
CONTINUOUS
 10
4.9599024806
 20
5.1716314329
 11
4.9664462306
 21
5.1629064326
  0
LINE
  5
338
100
AcDbEntity
  8
03__ASM_ALL_CURVES
100
AcDbLine
 62
40
  6
CONTINUOUS
 10
5.0515149806
 20
5.1716314329
 11
5.0449712306
 21
5.1803564331
  0
LINE
  5
339
100
AcDbEntity
  8
03__ASM_ALL_CURVES
100
AcDbLine
 62
40
  6
CONTINUOUS
 10
5.0907774806
 20
5.2152564326
 11
5.1038649806
 21
5.1978064336
  0
LINE
  5
33A
100
AcDbEntity
  8
03__ASM_ALL_CURVES
100
AcDbLine
 62
40
  6
CONTINUOUS
 10
5.0907774806
 20
5.2588814347
 11
5.0973212306
 21
5.2501564305
  0
LINE
  5
33B
100
AcDbEntity
  8
0
100
AcDbLine
 62
7
  6
CONTINUOUS
 10
5.3510462306
 20
4.7936584326
 11
5.2958867736
 21
4.8891974147
  0
LINE
  5
33C
100
AcDbEntity
  8
03__ASM_ALL_CURVES
100
AcDbLine
 62
40
  6
CONTINUOUS
 10
5.8341524842
 20
3.372165931
 11
5.8341524842
 21
3.3590784342
  0
LINE
  5
33D
100
AcDbEntity
  8
03__ASM_ALL_CURVES
100
AcDbLine
 62
40
  6
CONTINUOUS
 10
5.8709610759
 20
3.4271334326
 11
5.8709610759
 21
3.5056584326
  0
LINE
  5
33E
100
AcDbEntity
  8
03__ASM_ALL_CURVES
100
AcDbLine
 62
40
  6
CONTINUOUS
 10
5.9102235759
 20
3.492570931
 11
5.9102235759
 21
3.4794834342
  0
LINE
  5
33F
100
AcDbEntity
  8
03__ASM_ALL_CURVES
100
AcDbLine
 62
40
  6
CONTINUOUS
 10
5.9691173259
 20
3.5056584326
 11
5.9691173259
 21
3.4271334326
  0
LINE
  5
340
100
AcDbEntity
  8
03__ASM_ALL_CURVES
100
AcDbLine
 62
40
  6
CONTINUOUS
 10
5.9715712342
 20
3.3852534326
 11
5.9715712342
 21
3.3067284326
  0
LINE
  5
341
100
AcDbEntity
  8
03__ASM_ALL_CURVES
100
AcDbLine
 62
40
  6
CONTINUOUS
 10
5.7826204509
 20
3.4663959326
 11
5.7875282634
 21
3.4860271826
  0
LINE
  5
342
100
AcDbEntity
  8
03__ASM_ALL_CURVES
100
AcDbLine
 62
40
  6
CONTINUOUS
 10
5.7605352967
 20
3.3459909326
 11
5.7556274842
 21
3.3263596826
  0
LINE
  5
343
100
AcDbEntity
  8
0
100
AcDbLine
 62
7
  6
CONTINUOUS
 10
5.745482166
 20
3.7976584326
 11
5.7240462306
 21
3.7176584326
  0
LINE
  5
344
100
AcDbEntity
  8
0
100
AcDbLine
 62
7
  6
CONTINUOUS
 10
6.0980462306
 20
4.7936584326
 11
6.0766102953
 21
4.7136584326
  0
LINE
  5
345
100
AcDbEntity
  8
03__ASM_ALL_CURVES
100
AcDbLine
 62
40
  6
CONTINUOUS
 10
6.5923162309
 20
5.1803564331
 11
6.5857724809
 21
5.1716314329
  0
LINE
  5
346
100
AcDbEntity
  8
03__ASM_ALL_CURVES
100
AcDbLine
 62
40
  6
CONTINUOUS
 10
7.3186724809
 20
5.1716314329
 11
7.3055849809
 21
5.1629064326
  0
LINE
  5
347
100
AcDbEntity
  8
03__ASM_ALL_CURVES
100
AcDbLine
 62
40
  6
CONTINUOUS
 10
7.4888099809
 20
5.2588814347
 11
7.5018974809
 21
5.2676064326
  0
LINE
  5
348
100
AcDbEntity
  8
03__ASM_ALL_CURVES
100
AcDbLine
 62
40
  6
CONTINUOUS
 10
8.0946352933
 20
4.3158609326
 11
8.0700962308
 21
4.3158609326
  0
LINE
  5
349
100
AcDbEntity
  8
03__ASM_ALL_CURVES
100
AcDbLine
 62
40
  6
CONTINUOUS
 10
7.9375852933
 20
4.3158609326
 11
7.9130462308
 21
4.3158609326
  0
LINE
  5
34A
100
AcDbEntity
  8
03__ASM_ALL_CURVES
100
AcDbLine
 62
40
  6
CONTINUOUS
 10
7.9130462308
 20
4.3551234326
 11
7.9375852933
 21
4.3551234326
  0
LINE
  5
34B
100
AcDbEntity
  8
03__ASM_ALL_CURVES
100
AcDbLine
 62
40
  6
CONTINUOUS
 10
8.0062946683
 20
4.3551234326
 11
8.0161102933
 21
4.3551234326
  0
LINE
  5
34C
100
AcDbEntity
  8
03__ASM_ALL_CURVES
100
AcDbLine
 62
40
  6
CONTINUOUS
 10
8.0700962308
 20
4.3551234326
 11
8.0946352933
 21
4.3551234326
  0
LINE
  5
34D
100
AcDbEntity
  8
03__ASM_ALL_CURVES
100
AcDbLine
 62
40
  6
CONTINUOUS
 10
8.1437134183
 20
4.3551234326
 11
8.1927915433
 21
4.3551234326
  0
LINE
  5
34E
100
AcDbEntity
  8
0
100
AcDbLine
 62
7
  6
CONTINUOUS
 10
3.5810462306
 20
4.4066584326
 11
3.6190462306
 21
4.4066584326
  0
LINE
  5
34F
100
AcDbEntity
  8
DEFAULT_2
100
AcDbLine
 62
8
  6
HIDDEN
 10
3.5810462306
 20
4.4256584326
 11
3.6190462306
 21
4.4256584326
  0
LINE
  5
350
100
AcDbEntity
  8
0
100
AcDbLine
 62
7
  6
CONTINUOUS
 10
3.3820462306
 20
4.4396584326
 11
3.5810462306
 21
4.4396584326
  0
LINE
  5
351
100
AcDbEntity
  8
0
100
AcDbLine
 62
7
  6
CONTINUOUS
 10
3.6190462306
 20
4.4396584326
 11
3.8510462306
 21
4.4396584326
  0
LINE
  5
352
100
AcDbEntity
  8
03__ASM_ALL_CURVES
100
AcDbLine
 62
40
  6
CONTINUOUS
 10
4.4494899806
 20
5.2239814305
 11
4.4625774806
 21
5.2152564326
  0
LINE
  5
353
100
AcDbEntity
  8
03__ASM_ALL_CURVES
100
AcDbLine
 62
40
  6
CONTINUOUS
 10
4.4494899806
 20
5.2676064326
 11
4.4625774806
 21
5.2588814347
  0
LINE
  5
354
100
AcDbEntity
  8
03__ASM_ALL_CURVES
100
AcDbLine
 62
40
  6
CONTINUOUS
 10
7.125004043
 20
3.5056584326
 11
7.134819668
 21
3.4991146842
  0
LINE
  5
355
100
AcDbEntity
  8
03__ASM_ALL_CURVES
100
AcDbLine
 62
40
  6
CONTINUOUS
 10
6.6759392014
 20
3.3132721828
 11
6.6661235764
 21
3.3263596826
  0
LINE
  5
356
100
AcDbEntity
  8
03__ASM_ALL_CURVES
100
AcDbLine
 62
40
  6
CONTINUOUS
 10
6.6710313889
 20
3.3656221826
 11
6.6759392014
 21
3.3590784342
  0
LINE
  5
357
100
AcDbEntity
  8
03__ASM_ALL_CURVES
100
AcDbLine
 62
40
  6
CONTINUOUS
 10
6.7053860764
 20
3.3394471818
 11
6.7102938889
 21
3.3329034334
  0
LINE
  5
358
100
AcDbEntity
  8
03__ASM_ALL_CURVES
100
AcDbLine
 62
40
  6
CONTINUOUS
 10
5.2740024806
 20
5.2676064326
 11
5.2870899806
 21
5.2501564305
  0
LINE
  5
359
100
AcDbEntity
  8
03__ASM_ALL_CURVES
100
AcDbLine
 62
40
  6
CONTINUOUS
 10
6.7102938889
 20
3.372165931
 11
6.7053860764
 21
3.3787096842
  0
LINE
  5
35A
100
AcDbEntity
  8
0
100
AcDbLine
 62
7
  6
CONTINUOUS
 10
5.745482166
 20
4.7136584326
 11
5.7240462306
 21
4.7936584326
  0
LINE
  5
35B
100
AcDbEntity
  8
0
100
AcDbLine
 62
7
  6
CONTINUOUS
 10
6.0980462306
 20
3.7176584326
 11
6.0766102953
 21
3.7976584326
  0
LINE
  5
35C
100
AcDbEntity
  8
03__ASM_ALL_CURVES
100
AcDbLine
 62
40
  6
CONTINUOUS
 10
6.0304649842
 20
3.3067284326
 11
6.0304649842
 21
3.3852534326
  0
LINE
  5
35D
100
AcDbEntity
  8
03__ASM_ALL_CURVES
100
AcDbLine
 62
40
  6
CONTINUOUS
 10
6.0374062306
 20
5.1419664326
 11
6.0374062306
 21
5.1000864326
  0
LINE
  5
35E
100
AcDbEntity
  8
03__ASM_ALL_CURVES
100
AcDbLine
 62
40
  6
CONTINUOUS
 10
6.0672735759
 20
3.492570931
 11
6.0672735759
 21
3.4860271826
  0
LINE
  5
35F
100
AcDbEntity
  8
03__ASM_ALL_CURVES
100
AcDbLine
 62
40
  6
CONTINUOUS
 10
6.0697274842
 20
3.3067284326
 11
6.0697274842
 21
3.3852534326
  0
LINE
  5
360
100
AcDbEntity
  8
03__ASM_ALL_CURVES
100
AcDbLine
 62
40
  6
CONTINUOUS
 10
6.0721813884
 20
3.4533084334
 11
6.0721813884
 21
3.4467646826
  0
LINE
  5
361
100
AcDbEntity
  8
0
100
AcDbLine
 62
7
  6
CONTINUOUS
 10
6.0766102953
 20
3.7976584326
 11
6.0766102953
 21
4.7136584326
  0
LINE
  5
362
100
AcDbEntity
  8
0
100
AcDbLine
 62
7
  6
CONTINUOUS
 10
6.0980462306
 20
3.7176584326
 11
6.0980462306
 21
4.7936584326
  0
LINE
  5
363
100
AcDbEntity
  8
0
100
AcDbLine
 62
7
  6
CONTINUOUS
 10
6.1630462306
 20
3.7176584326
 11
6.1630462306
 21
4.7936584326
  0
LINE
  5
364
100
AcDbEntity
  8
03__ASM_ALL_CURVES
100
AcDbLine
 62
40
  6
CONTINUOUS
 10
6.1630462306
 20
4.8145984326
 11
6.1630462306
 21
5.1629064326
  0
LINE
  5
365
100
AcDbEntity
  8
03__ASM_ALL_CURVES
100
AcDbLine
 62
40
  6
CONTINUOUS
 10
5.8415142009
 20
3.4663959326
 11
5.8366063884
 21
3.4467646826
  0
LINE
  5
366
100
AcDbEntity
  8
03__ASM_ALL_CURVES
100
AcDbLine
 62
40
  6
CONTINUOUS
 10
5.8685071717
 20
3.3067284326
 11
5.8930462342
 21
3.3852534326
  0
LINE
  5
367
100
AcDbEntity
  8
THREAD
100
AcDbLine
 62
7
  6
CONTINUOUS
 10
6.3729855409
 20
4.7516584326
 11
6.3547990074
 21
4.7201584326
  0
LINE
  5
368
100
AcDbEntity
  8
03__ASM_ALL_CURVES
100
AcDbLine
 62
40
  6
CONTINUOUS
 10
7.5280724809
 20
5.1716314329
 11
7.5149849809
 21
5.1629064326
  0
LINE
  5
369
100
AcDbEntity
  8
03__ASM_ALL_CURVES
100
AcDbLine
 62
40
  6
CONTINUOUS
 10
7.6327724809
 20
5.1716314329
 11
7.6196849809
 21
5.1629064326
  0
LINE
  5
36A
100
AcDbEntity
  8
0
100
AcDbLine
 62
7
  6
CONTINUOUS
 10
3.9405462306
 20
4.5211584326
 11
3.9245462306
 21
4.5211584326
  0
LINE
  5
36B
100
AcDbEntity
  8
0
100
AcDbLine
 62
7
  6
CONTINUOUS
 10
4.1630462306
 20
4.5266584326
 11
4.1320462306
 21
4.5266584326
  0
LINE
  5
36C
100
AcDbEntity
  8
0
100
AcDbLine
 62
7
  6
CONTINUOUS
 10
3.9190462306
 20
4.5266584326
 11
3.9130462306
 21
4.5266584326
  0
LINE
  5
36D
100
AcDbEntity
  8
0
100
AcDbLine
 62
7
  6
CONTINUOUS
 10
3.9560462307
 20
4.5366584326
 11
4.1262699523
 21
4.5366584326
  0
LINE
  5
36E
100
AcDbEntity
  8
0
100
AcDbLine
 62
7
  6
CONTINUOUS
 10
5.2956206048
 20
4.5481790515
 11
4.7086569019
 21
4.5481790515
  0
LINE
  5
36F
100
AcDbEntity
  8
0
100
AcDbLine
 62
7
  6
CONTINUOUS
 10
5.2956206048
 20
4.5965231231
 11
4.7086569019
 21
4.5965231231
  0
LINE
  5
370
100
AcDbEntity
  8
0
100
AcDbLine
 62
7
  6
CONTINUOUS
 10
6.7880462306
 20
4.6296584326
 11
7.0530462306
 21
4.6296584326
  0
LINE
  5
371
100
AcDbEntity
  8
0
100
AcDbLine
 62
7
  6
CONTINUOUS
 10
7.2090462306
 20
4.6296584326
 11
7.2250462306
 21
4.6296584326
  0
LINE
  5
372
100
AcDbEntity
  8
0
100
AcDbLine
 62
7
  6
CONTINUOUS
 10
7.4520462306
 20
4.6376584326
 11
7.4800462306
 21
4.6376584326
  0
LINE
  5
373
100
AcDbEntity
  8
03__ASM_ALL_CURVES
100
AcDbLine
 62
40
  6
CONTINUOUS
 10
5.0646024806
 20
5.1629064326
 11
5.0515149806
 21
5.1716314329
  0
LINE
  5
374
100
AcDbEntity
  8
03__ASM_ALL_CURVES
100
AcDbLine
 62
40
  6
CONTINUOUS
 10
6.8329892014
 20
3.3132721828
 11
6.8231735764
 21
3.3263596826
  0
LINE
  5
375
100
AcDbEntity
  8
03__ASM_ALL_CURVES
100
AcDbLine
 62
40
  6
CONTINUOUS
 10
6.9115142014
 20
3.3132721828
 11
6.9066063889
 21
3.319815933
  0
LINE
  5
376
100
AcDbEntity
  8
03__ASM_ALL_CURVES
100
AcDbLine
 62
40
  6
CONTINUOUS
 10
6.8624360764
 20
3.3787096842
 11
6.8722517014
 21
3.3656221826
  0
LINE
  5
377
100
AcDbEntity
  8
03__ASM_ALL_CURVES
100
AcDbLine
 62
40
  6
CONTINUOUS
 10
6.869797793
 20
3.4336771828
 11
6.859982168
 21
3.4467646826
  0
LINE
  5
378
100
AcDbEntity
  8
03__ASM_ALL_CURVES
100
AcDbLine
 62
40
  6
CONTINUOUS
 10
6.820719668
 20
3.4991146842
 11
6.8256274805
 21
3.492570931
  0
LINE
  5
379
100
AcDbEntity
  8
THREAD
100
AcDbLine
 62
7
  6
CONTINUOUS
 10
6.3729855409
 20
3.7596584326
 11
6.3547990074
 21
3.7911584326
  0
LINE
  5
37A
100
AcDbEntity
  8
THREAD
100
AcDbLine
 62
7
  6
CONTINUOUS
 10
6.1786346879
 20
3.7411584326
 11
6.1786346879
 21
4.7701584326
  0
LINE
  5
37B
100
AcDbEntity
  8
THREAD
100
AcDbLine
 62
7
  6
CONTINUOUS
 10
6.2100462306
 20
3.7411584326
 11
6.2100462306
 21
4.7701584326
  0
LINE
  5
37C
100
AcDbEntity
  8
0
100
AcDbLine
 62
7
  6
CONTINUOUS
 10
6.2800462306
 20
3.7436584326
 11
6.2800462306
 21
4.7676584326
  0
LINE
  5
37D
100
AcDbEntity
  8
03__ASM_ALL_CURVES
100
AcDbLine
 62
40
  6
CONTINUOUS
 10
6.2886862306
 20
5.1419664326
 11
6.2886862306
 21
5.1000864326
  0
LINE
  5
37E
100
AcDbEntity
  8
0
100
AcDbLine
 62
7
  6
CONTINUOUS
 10
6.3300462306
 20
3.7436584326
 11
6.3300462306
 21
4.7676584326
  0
LINE
  5
37F
100
AcDbEntity
  8
03__ASM_ALL_CURVES
100
AcDbLine
 62
40
  6
CONTINUOUS
 10
6.3305662309
 20
5.2676064326
 11
6.3305662309
 21
5.1629064326
  0
LINE
  5
380
100
AcDbEntity
  8
THREAD
100
AcDbLine
 62
7
  6
CONTINUOUS
 10
6.3435406771
 20
3.7976584326
 11
6.3435406771
 21
4.7136584326
  0
LINE
  5
381
100
AcDbEntity
  8
03__ASM_ALL_CURVES
100
AcDbLine
 62
40
  6
CONTINUOUS
 10
6.4221787309
 20
5.2152564326
 11
6.4287224809
 21
5.2414314326
  0
LINE
  5
382
100
AcDbEntity
  8
03__ASM_ALL_CURVES
100
AcDbLine
 62
40
  6
CONTINUOUS
 10
6.5007037309
 20
5.2152564326
 11
6.4941599809
 21
5.1890814326
  0
LINE
  5
383
100
AcDbEntity
  8
03__ASM_ALL_CURVES
100
AcDbLine
 62
40
  6
CONTINUOUS
 10
6.5268787309
 20
5.2152564326
 11
6.5334224809
 21
5.2414314326
  0
LINE
  5
384
100
AcDbEntity
  8
03__ASM_ALL_CURVES
100
AcDbLine
 62
40
  6
CONTINUOUS
 10
6.6381224809
 20
5.1629064326
 11
6.6708412309
 21
5.2676064326
  0
LINE
  5
385
100
AcDbEntity
  8
03__ASM_ALL_CURVES
100
AcDbLine
 62
40
  6
CONTINUOUS
 10
7.0569224809
 20
5.2414314326
 11
7.0700099809
 21
5.2588814347
  0
LINE
  5
386
100
AcDbEntity
  8
03__ASM_ALL_CURVES
100
AcDbLine
 62
40
  6
CONTINUOUS
 10
5.7531735759
 20
3.4794834342
 11
5.7482657634
 21
3.472939681
  0
LINE
  5
387
100
AcDbEntity
  8
03__ASM_ALL_CURVES
100
AcDbLine
 62
40
  6
CONTINUOUS
 10
5.7875282634
 20
3.4860271826
 11
5.7973438884
 21
3.4991146842
  0
LINE
  5
388
100
AcDbEntity
  8
03__ASM_ALL_CURVES
100
AcDbLine
 62
40
  6
CONTINUOUS
 10
7.1158162309
 20
5.1803564331
 11
7.1092724809
 21
5.1716314329
  0
LINE
  5
389
100
AcDbEntity
  8
03__ASM_ALL_CURVES
100
AcDbLine
 62
40
  6
CONTINUOUS
 10
5.8366063884
 20
3.4467646826
 11
5.8267907634
 21
3.4336771828
  0
LINE
  5
38A
100
AcDbEntity
  8
03__ASM_ALL_CURVES
100
AcDbLine
 62
40
  6
CONTINUOUS
 10
5.7556274842
 20
3.3263596826
 11
5.7458118592
 21
3.3132721828
  0
LINE
  5
38B
100
AcDbEntity
  8
03__ASM_ALL_CURVES
100
AcDbLine
 62
40
  6
CONTINUOUS
 10
7.8356287309
 20
5.1716314329
 11
7.8225412309
 21
5.1629064326
  0
LINE
  5
38C
100
AcDbEntity
  8
03__ASM_ALL_CURVES
100
AcDbLine
 62
40
  6
CONTINUOUS
 10
8.0515724809
 20
5.2239814305
 11
8.0384849809
 21
5.2152564326
  0
LINE
  5
38D
100
AcDbEntity
  8
0
100
AcDbLine
 62
7
  6
CONTINUOUS
 10
7.2820462306
 20
4.6916584326
 11
7.3320462306
 21
4.6916584326
  0
LINE
  5
38E
100
AcDbEntity
  8
0
100
AcDbLine
 62
7
  6
CONTINUOUS
 10
7.4020462306
 20
4.6916584326
 11
7.4520462306
 21
4.6916584326
  0
LINE
  5
38F
100
AcDbEntity
  8
0
100
AcDbLine
 62
7
  6
CONTINUOUS
 10
7.5230462306
 20
4.6921584326
 11
7.4800462306
 21
4.6921584326
  0
LINE
  5
390
100
AcDbEntity
  8
0
100
AcDbLine
 62
7
  6
CONTINUOUS
 10
7.2785462306
 20
4.6921584326
 11
7.2285462306
 21
4.6921584326
  0
LINE
  5
391
100
AcDbEntity
  8
THREAD
100
AcDbLine
 62
7
  6
CONTINUOUS
 10
6.7720462306
 20
4.7076584326
 11
6.6880462306
 21
4.7076584326
  0
LINE
  5
392
100
AcDbEntity
  8
THREAD
100
AcDbLine
 62
7
  6
CONTINUOUS
 10
6.3435406771
 20
4.7136584326
 11
6.3300462306
 21
4.7136584326
  0
LINE
  5
393
100
AcDbEntity
  8
0
100
AcDbLine
 62
7
  6
CONTINUOUS
 10
6.0766102953
 20
4.7136584326
 11
5.8050462306
 21
4.7136584326
  0
LINE
  5
394
100
AcDbEntity
  8
0
100
AcDbLine
 62
7
  6
CONTINUOUS
 10
5.7650462306
 20
4.7136584326
 11
5.745482166
 21
4.7136584326
  0
LINE
  5
395
100
AcDbEntity
  8
0
100
AcDbLine
 62
7
  6
CONTINUOUS
 10
5.6790462306
 20
4.7381584326
 11
5.6580462306
 21
4.7381584326
  0
LINE
  5
396
100
AcDbEntity
  8
THREAD
100
AcDbLine
 62
7
  6
CONTINUOUS
 10
6.6440462306
 20
4.7516584326
 11
6.3729855409
 21
4.7516584326
  0
LINE
  5
397
100
AcDbEntity
  8
0
100
AcDbLine
 62
7
  6
CONTINUOUS
 10
4.6630462306
 20
4.7526584326
 11
4.2250462306
 21
4.7526584326
  0
LINE
  5
398
100
AcDbEntity
  8
0
100
AcDbLine
 62
7
  6
CONTINUOUS
 10
6.2800462306
 20
4.7676584326
 11
6.3300462306
 21
4.7676584326
  0
LINE
  5
399
100
AcDbEntity
  8
THREAD
100
AcDbLine
 62
7
  6
CONTINUOUS
 10
6.2100462306
 20
4.7701584326
 11
6.1786346879
 21
4.7701584326
  0
LINE
  5
39A
100
AcDbEntity
  8
0
100
AcDbLine
 62
7
  6
CONTINUOUS
 10
5.5380462306
 20
4.7921584326
 11
5.5880462306
 21
4.7921584326
  0
LINE
  5
39B
100
AcDbEntity
  8
0
100
AcDbLine
 62
7
  6
CONTINUOUS
 10
6.1630462306
 20
4.7936584326
 11
6.0980462306
 21
4.7936584326
  0
LINE
  5
39C
100
AcDbEntity
  8
0
100
AcDbLine
 62
7
  6
CONTINUOUS
 10
5.7240462306
 20
4.7936584326
 11
5.6790462306
 21
4.7936584326
  0
LINE
  5
39D
100
AcDbEntity
  8
0
100
AcDbLine
 62
7
  6
CONTINUOUS
 10
5.5380462306
 20
4.7936584326
 11
5.3510462306
 21
4.7936584326
  0
LINE
  5
39E
100
AcDbEntity
  8
03__ASM_ALL_CURVES
100
AcDbLine
 62
40
  6
CONTINUOUS
 10
3.4766862306
 20
5.1035764326
 11
3.3510462306
 21
5.1210264326
  0
LINE
  5
39F
100
AcDbEntity
  8
03__ASM_ALL_CURVES
100
AcDbLine
 62
40
  6
CONTINUOUS
 10
3.4766862306
 20
5.1000864326
 11
3.3510462306
 21
5.1210264326
  0
LINE
  5
3A0
100
AcDbEntity
  8
03__ASM_ALL_CURVES
100
AcDbLine
 62
40
  6
CONTINUOUS
 10
5.0776899806
 20
5.2239814305
 11
5.0907774806
 21
5.2152564326
  0
LINE
  5
3A1
100
AcDbEntity
  8
03__ASM_ALL_CURVES
100
AcDbLine
 62
40
  6
CONTINUOUS
 10
5.0776899806
 20
5.2676064326
 11
5.0907774806
 21
5.2588814347
  0
LINE
  5
3A2
100
AcDbEntity
  8
03__ASM_ALL_CURVES
100
AcDbLine
 62
40
  6
CONTINUOUS
 10
6.899244668
 20
3.4991146842
 11
6.909060293
 21
3.4860271826
  0
LINE
  5
3A3
100
AcDbEntity
  8
03__ASM_ALL_CURVES
100
AcDbLine
 62
40
  6
CONTINUOUS
 10
6.977769668
 20
3.4991146842
 11
6.9826774805
 21
3.492570931
  0
LINE
  5
3A4
100
AcDbEntity
  8
03__ASM_ALL_CURVES
100
AcDbLine
 62
40
  6
CONTINUOUS
 10
7.1470892014
 20
3.3132721828
 11
7.1372735764
 21
3.3263596826
  0
LINE
  5
3A5
100
AcDbEntity
  8
03__ASM_ALL_CURVES
100
AcDbLine
 62
40
  6
CONTINUOUS
 10
6.8526204514
 20
3.3329034334
 11
6.8673438889
 21
3.3067284326
  0
LINE
  5
3A6
100
AcDbEntity
  8
THREAD
100
AcDbLine
 62
7
  6
CONTINUOUS
 10
6.3547990074
 20
3.7911584326
 11
6.3547990074
 21
4.7201584326
  0
LINE
  5
3A7
100
AcDbEntity
  8
THREAD
100
AcDbLine
 62
7
  6
CONTINUOUS
 10
6.3729855409
 20
3.7596584326
 11
6.3729855409
 21
4.7516584326
  0
LINE
  5
3A8
100
AcDbEntity
  8
03__ASM_ALL_CURVES
100
AcDbLine
 62
40
  6
CONTINUOUS
 10
5.9102235759
 20
3.4794834342
 11
5.9053157634
 21
3.472939681
  0
LINE
  5
3A9
100
AcDbEntity
  8
03__ASM_ALL_CURVES
100
AcDbLine
 62
40
  6
CONTINUOUS
 10
5.8341524842
 20
3.3590784342
 11
5.8292446717
 21
3.352534681
  0
LINE
  5
3AA
100
AcDbEntity
  8
03__ASM_ALL_CURVES
100
AcDbLine
 62
40
  6
CONTINUOUS
 10
7.2794099809
 20
5.2588814347
 11
7.2728662309
 21
5.2501564305
  0
LINE
  5
3AB
100
AcDbEntity
  8
03__ASM_ALL_CURVES
100
AcDbLine
 62
40
  6
CONTINUOUS
 10
7.3252162309
 20
5.1803564331
 11
7.3186724809
 21
5.1716314329
  0
LINE
  5
3AC
100
AcDbEntity
  8
03__ASM_ALL_CURVES
100
AcDbLine
 62
40
  6
CONTINUOUS
 10
6.0672735759
 20
3.4860271826
 11
6.0623657634
 21
3.4794834342
  0
LINE
  5
3AD
100
AcDbEntity
  8
03__ASM_ALL_CURVES
100
AcDbLine
 62
40
  6
CONTINUOUS
 10
6.0721813884
 20
3.4467646826
 11
6.0623657634
 21
3.4336771828
  0
LINE
  5
3AE
100
AcDbEntity
  8
0
100
AcDbLine
 62
7
  6
CONTINUOUS
 10
7.2285462306
 20
4.6921584326
 11
7.2250462306
 21
4.6886584326
  0
LINE
  5
3AF
100
AcDbEntity
  8
03__ASM_ALL_CURVES
100
AcDbLine
 62
40
  6
CONTINUOUS
 10
5.7482657634
 20
3.472939681
 11
5.7384501384
 21
3.4663959326
  0
LINE
  5
3B0
100
AcDbEntity
  8
03__ASM_ALL_CURVES
100
AcDbLine
 62
40
  6
CONTINUOUS
 10
5.7973438884
 20
3.4991146842
 11
5.8071595134
 21
3.5056584326
  0
LINE
  5
3B1
100
AcDbEntity
  8
03__ASM_ALL_CURVES
100
AcDbLine
 62
40
  6
CONTINUOUS
 10
5.8267907634
 20
3.4336771828
 11
5.8169751384
 21
3.4271334326
  0
LINE
  5
3B2
100
AcDbEntity
  8
THREAD
100
AcDbLine
 62
7
  6
CONTINUOUS
 10
6.1786346879
 20
3.7411584326
 11
6.1630462306
 21
3.7321584326
  0
LINE
  5
3B3
100
AcDbEntity
  8
0
100
AcDbLine
 62
7
  6
CONTINUOUS
 10
5.2956206048
 20
4.8890437421
 11
4.7086569019
 21
4.8890437421
  0
LINE
  5
3B4
100
AcDbEntity
  8
0
100
AcDbLine
 62
7
  6
CONTINUOUS
 10
5.2956206048
 20
4.8896584326
 11
4.7086569019
 21
4.8896584326
  0
LINE
  5
3B5
100
AcDbEntity
  8
03__ASM_ALL_CURVES
100
AcDbLine
 62
40
  6
CONTINUOUS
 10
3.4766862306
 20
5.1140464326
 11
3.3510462306
 21
5.1210264326
  0
LINE
  5
3B6
100
AcDbEntity
  8
03__ASM_ALL_CURVES
100
AcDbLine
 62
40
  6
CONTINUOUS
 10
3.4766862306
 20
5.1105564326
 11
3.3510462306
 21
5.1210264326
  0
LINE
  5
3B7
100
AcDbEntity
  8
03__ASM_ALL_CURVES
100
AcDbLine
 62
40
  6
CONTINUOUS
 10
3.4766862306
 20
5.1070664326
 11
3.3510462306
 21
5.1210264326
  0
LINE
  5
3B8
100
AcDbEntity
  8
THREAD
100
AcDbLine
 62
7
  6
CONTINUOUS
 10
6.1786346879
 20
4.7701584326
 11
6.1630462306
 21
4.7791584326
  0
LINE
  5
3B9
100
AcDbEntity
  8
0
100
AcDbLine
 62
7
  6
CONTINUOUS
 10
7.2285462306
 20
3.8191584326
 11
7.2250462306
 21
3.8226584326
  0
LINE
  5
3BA
100
AcDbEntity
  8
03__ASM_ALL_CURVES
100
AcDbLine
 62
40
  6
CONTINUOUS
 10
7.1765360764
 20
3.3787096842
 11
7.1814438889
 21
3.372165931
  0
LINE
  5
3BB
100
AcDbEntity
  8
03__ASM_ALL_CURVES
100
AcDbLine
 62
40
  6
CONTINUOUS
 10
7.134819668
 20
3.4991146842
 11
7.1397274805
 21
3.492570931
  0
LINE
  5
3BC
100
AcDbEntity
  8
03__ASM_ALL_CURVES
100
AcDbLine
 62
40
  6
CONTINUOUS
 10
7.0636563889
 20
3.3852534326
 11
7.1029188889
 21
3.3067284326
  0
LINE
  5
3BD
100
AcDbEntity
  8
THREAD
100
AcDbLine
 62
7
  6
CONTINUOUS
 10
6.6440462306
 20
3.7596584326
 11
6.6440462306
 21
4.7516584326
  0
LINE
  5
3BE
100
AcDbEntity
  8
03__ASM_ALL_CURVES
100
AcDbLine
 62
40
  6
CONTINUOUS
 10
6.6710313889
 20
3.372165931
 11
6.6710313889
 21
3.3656221826
  0
LINE
  5
3BF
100
AcDbEntity
  8
THREAD
100
AcDbLine
 62
7
  6
CONTINUOUS
 10
6.6880462306
 20
3.8036584326
 11
6.6880462306
 21
4.7076584326
  0
LINE
  5
3C0
100
AcDbEntity
  8
03__ASM_ALL_CURVES
100
AcDbLine
 62
40
  6
CONTINUOUS
 10
7.4757224809
 20
5.2414314326
 11
7.4888099809
 21
5.2588814347
  0
LINE
  5
3C1
100
AcDbEntity
  8
03__ASM_ALL_CURVES
100
AcDbLine
 62
40
  6
CONTINUOUS
 10
7.5411599809
 20
5.1890814326
 11
7.5280724809
 21
5.1716314329
  0
LINE
  5
3C2
100
AcDbEntity
  8
03__ASM_ALL_CURVES
100
AcDbLine
 62
40
  6
CONTINUOUS
 10
5.9053157634
 20
3.472939681
 11
5.8955001384
 21
3.4663959326
  0
LINE
  5
3C3
100
AcDbEntity
  8
03__ASM_ALL_CURVES
100
AcDbLine
 62
40
  6
CONTINUOUS
 10
5.7458118592
 20
3.3132721828
 11
5.7359962342
 21
3.3067284326
  0
LINE
  5
3C4
100
AcDbEntity
  8
03__ASM_ALL_CURVES
100
AcDbLine
 62
40
  6
CONTINUOUS
 10
6.0329188884
 20
3.4991146842
 11
6.0427345134
 21
3.5056584326
  0
LINE
  5
3C5
100
AcDbEntity
  8
03__ASM_ALL_CURVES
100
AcDbLine
 62
40
  6
CONTINUOUS
 10
5.8292446717
 20
3.352534681
 11
5.8194290467
 21
3.3459909326
  0
LINE
  5
3C6
100
AcDbEntity
  8
03__ASM_ALL_CURVES
100
AcDbLine
 62
40
  6
CONTINUOUS
 10
6.0623657634
 20
3.4794834342
 11
6.0525501384
 21
3.472939681
  0
LINE
  5
3C7
100
AcDbEntity
  8
03__ASM_ALL_CURVES
100
AcDbLine
 62
40
  6
CONTINUOUS
 10
6.0623657634
 20
3.4336771828
 11
6.0525501384
 21
3.4271334326
  0
LINE
  5
3C8
100
AcDbEntity
  8
03__ASM_ALL_CURVES
100
AcDbLine
 62
40
  6
CONTINUOUS
 10
6.0374062306
 20
5.1000864326
 11
6.2886862306
 21
5.1419664326
  0
LINE
  5
3C9
100
AcDbEntity
  8
03__ASM_ALL_CURVES
100
AcDbLine
 62
40
  6
CONTINUOUS
 10
6.0374062306
 20
5.1035764326
 11
6.2886862306
 21
5.1384764326
  0
LINE
  5
3CA
100
AcDbEntity
  8
03__ASM_ALL_CURVES
100
AcDbLine
 62
40
  6
CONTINUOUS
 10
6.0374062306
 20
5.1070664326
 11
6.2886862306
 21
5.1349864326
  0
LINE
  5
3CB
100
AcDbEntity
  8
03__ASM_ALL_CURVES
100
AcDbLine
 62
40
  6
CONTINUOUS
 10
6.0374062306
 20
5.1105564326
 11
6.2886862306
 21
5.1314964326
  0
LINE
  5
3CC
100
AcDbEntity
  8
03__ASM_ALL_CURVES
100
AcDbLine
 62
40
  6
CONTINUOUS
 10
6.0374062306
 20
5.1140464326
 11
6.2886862306
 21
5.1280064326
  0
LINE
  5
3CD
100
AcDbEntity
  8
03__ASM_ALL_CURVES
100
AcDbLine
 62
40
  6
CONTINUOUS
 10
6.0374062306
 20
5.1175364326
 11
6.2886862306
 21
5.1245164326
  0
LINE
  5
3CE
100
AcDbEntity
  8
03__ASM_ALL_CURVES
100
AcDbLine
 62
40
  6
CONTINUOUS
 10
3.4766862306
 20
5.1245164326
 11
3.3510462306
 21
5.1210264326
  0
LINE
  5
3CF
100
AcDbEntity
  8
03__ASM_ALL_CURVES
100
AcDbLine
 62
40
  6
CONTINUOUS
 10
3.3510462306
 20
5.1210264326
 11
8.1732862306
 21
5.1210264326
  0
LINE
  5
3D0
100
AcDbEntity
  8
03__ASM_ALL_CURVES
100
AcDbLine
 62
40
  6
CONTINUOUS
 10
7.9534162309
 20
5.1629064326
 11
7.9010662309
 21
5.1629064326
  0
LINE
  5
3D1
100
AcDbEntity
  8
03__ASM_ALL_CURVES
100
AcDbLine
 62
40
  6
CONTINUOUS
 10
7.8225412309
 20
5.1629064326
 11
7.7963662309
 21
5.1629064326
  0
LINE
  5
3D2
100
AcDbEntity
  8
03__ASM_ALL_CURVES
100
AcDbLine
 62
40
  6
CONTINUOUS
 10
7.6196849809
 20
5.1629064326
 11
7.6065974809
 21
5.1629064326
  0
LINE
  5
3D3
100
AcDbEntity
  8
03__ASM_ALL_CURVES
100
AcDbLine
 62
40
  6
CONTINUOUS
 10
7.5149849809
 20
5.1629064326
 11
7.5018974809
 21
5.1629064326
  0
LINE
  5
3D4
100
AcDbEntity
  8
03__ASM_ALL_CURVES
100
AcDbLine
 62
40
  6
CONTINUOUS
 10
7.3055849809
 20
5.1629064326
 11
7.2924974809
 21
5.1629064326
  0
LINE
  5
3D5
100
AcDbEntity
  8
03__ASM_ALL_CURVES
100
AcDbLine
 62
40
  6
CONTINUOUS
 10
7.0961849809
 20
5.1629064326
 11
7.0830974809
 21
5.1629064326
  0
LINE
  5
3D6
100
AcDbEntity
  8
03__ASM_ALL_CURVES
100
AcDbLine
 62
40
  6
CONTINUOUS
 10
6.5726849809
 20
5.1629064326
 11
6.5595974809
 21
5.1629064326
  0
LINE
  5
3D7
100
AcDbEntity
  8
03__ASM_ALL_CURVES
100
AcDbLine
 62
40
  6
CONTINUOUS
 10
6.4679849809
 20
5.1629064326
 11
6.4548974809
 21
5.1629064326
  0
LINE
  5
3D8
100
AcDbEntity
  8
03__ASM_ALL_CURVES
100
AcDbLine
 62
40
  6
CONTINUOUS
 10
5.0776899806
 20
5.1629064326
 11
5.0646024806
 21
5.1629064326
  0
LINE
  5
3D9
100
AcDbEntity
  8
03__ASM_ALL_CURVES
100
AcDbLine
 62
40
  6
CONTINUOUS
 10
4.9664462306
 20
5.1629064326
 11
4.9599024806
 21
5.1629064326
  0
LINE
  5
3DA
100
AcDbEntity
  8
03__ASM_ALL_CURVES
100
AcDbLine
 62
40
  6
CONTINUOUS
 10
4.4494899806
 20
5.1629064326
 11
4.4364024806
 21
5.1629064326
  0
LINE
  5
3DB
100
AcDbEntity
  8
03__ASM_ALL_CURVES
100
AcDbLine
 62
40
  6
CONTINUOUS
 10
4.3382462306
 20
5.1629064326
 11
4.3317024806
 21
5.1629064326
  0
LINE
  5
3DC
100
AcDbEntity
  8
03__ASM_ALL_CURVES
100
AcDbLine
 62
40
  6
CONTINUOUS
 10
4.2073712306
 20
5.1629064326
 11
4.2597212306
 21
5.1629064326
  0
LINE
  5
3DD
100
AcDbEntity
  8
03__ASM_ALL_CURVES
100
AcDbLine
 62
40
  6
CONTINUOUS
 10
6.3305662309
 20
5.1629064326
 11
6.3829162309
 21
5.1629064326
  0
LINE
  5
3DE
100
AcDbEntity
  8
03__ASM_ALL_CURVES
100
AcDbLine
 62
40
  6
CONTINUOUS
 10
7.6916662309
 20
5.1629064326
 11
7.7440162309
 21
5.1629064326
  0
LINE
  5
3DF
100
AcDbEntity
  8
03__ASM_ALL_CURVES
100
AcDbLine
 62
40
  6
CONTINUOUS
 10
3.4766862306
 20
5.1175364326
 11
3.3510462306
 21
5.1210264326
  0
LINE
  5
3E0
100
AcDbEntity
  8
03__ASM_ALL_CURVES
100
AcDbLine
 62
40
  6
CONTINUOUS
 10
6.0374062306
 20
5.1245164326
 11
6.2886862306
 21
5.1175364326
  0
LINE
  5
3E1
100
AcDbEntity
  8
03__ASM_ALL_CURVES
100
AcDbLine
 62
40
  6
CONTINUOUS
 10
6.0374062306
 20
5.1280064326
 11
6.2886862306
 21
5.1140464326
  0
LINE
  5
3E2
100
AcDbEntity
  8
03__ASM_ALL_CURVES
100
AcDbLine
 62
40
  6
CONTINUOUS
 10
6.0374062306
 20
5.1314964326
 11
6.2886862306
 21
5.1105564326
  0
LINE
  5
3E3
100
AcDbEntity
  8
03__ASM_ALL_CURVES
100
AcDbLine
 62
40
  6
CONTINUOUS
 10
6.0374062306
 20
5.1349864326
 11
6.2886862306
 21
5.1070664326
  0
LINE
  5
3E4
100
AcDbEntity
  8
03__ASM_ALL_CURVES
100
AcDbLine
 62
40
  6
CONTINUOUS
 10
6.0374062306
 20
5.1384764326
 11
6.2886862306
 21
5.1035764326
  0
LINE
  5
3E5
100
AcDbEntity
  8
03__ASM_ALL_CURVES
100
AcDbLine
 62
40
  6
CONTINUOUS
 10
6.2886862306
 20
5.1000864326
 11
6.0374062306
 21
5.1419664326
  0
LINE
  5
3E6
100
AcDbEntity
  8
03__ASM_ALL_CURVES
100
AcDbLine
 62
40
  6
CONTINUOUS
 10
6.967954043
 20
3.4663959326
 11
6.9826774805
 21
3.4271334326
  0
LINE
  5
3E7
100
AcDbEntity
  8
03__ASM_ALL_CURVES
100
AcDbLine
 62
40
  6
CONTINUOUS
 10
6.8231735764
 20
3.3263596826
 11
6.8182657639
 21
3.3459909326
  0
LINE
  5
3E8
100
AcDbEntity
  8
03__ASM_ALL_CURVES
100
AcDbLine
 62
40
  6
CONTINUOUS
 10
6.8722517014
 20
3.3656221826
 11
6.8771595139
 21
3.3459909326
  0
LINE
  5
3E9
100
AcDbEntity
  8
03__ASM_ALL_CURVES
100
AcDbLine
 62
40
  6
CONTINUOUS
 10
6.859982168
 20
3.4467646826
 11
6.8550743555
 21
3.4663959326
  0
LINE
  5
3EA
100
AcDbEntity
  8
03__ASM_ALL_CURVES
100
AcDbLine
 62
40
  6
CONTINUOUS
 10
6.4287224809
 20
5.1890814326
 11
6.4221787309
 21
5.2152564326
  0
LINE
  5
3EB
100
AcDbEntity
  8
03__ASM_ALL_CURVES
100
AcDbLine
 62
40
  6
CONTINUOUS
 10
6.909060293
 20
3.4860271826
 11
6.9139681055
 21
3.4663959326
  0
LINE
  5
3EC
100
AcDbEntity
  8
03__ASM_ALL_CURVES
100
AcDbLine
 62
40
  6
CONTINUOUS
 10
6.7102938889
 20
3.3329034334
 11
6.7102938889
 21
3.319815933
  0
LINE
  5
3ED
100
AcDbEntity
  8
03__ASM_ALL_CURVES
100
AcDbLine
 62
40
  6
CONTINUOUS
 10
6.7495563889
 20
3.3067284326
 11
6.7495563889
 21
3.3852534326
  0
LINE
  5
3EE
100
AcDbEntity
  8
0
100
AcDbLine
 62
7
  6
CONTINUOUS
 10
6.7720462306
 20
3.8036584326
 11
6.7720462306
 21
4.7076584326
  0
LINE
  5
3EF
100
AcDbEntity
  8
03__ASM_ALL_CURVES
100
AcDbLine
 62
40
  6
CONTINUOUS
 10
6.7755412309
 20
5.2676064326
 11
6.7755412309
 21
5.1629064326
  0
LINE
  5
3F0
100
AcDbEntity
  8
03__ASM_ALL_CURVES
100
AcDbLine
 62
40
  6
CONTINUOUS
 10
6.7863649805
 20
3.4271334326
 11
6.7863649805
 21
3.5056584326
  0
LINE
  5
3F1
100
AcDbEntity
  8
0
100
AcDbLine
 62
7
  6
CONTINUOUS
 10
6.7880462306
 20
3.8196584326
 11
6.7880462306
 21
4.6916584326
  0
LINE
  5
3F2
100
AcDbEntity
  8
03__ASM_ALL_CURVES
100
AcDbLine
 62
40
  6
CONTINUOUS
 10
6.8256274805
 20
3.492570931
 11
6.8256274805
 21
3.4794834342
  0
LINE
  5
3F3
100
AcDbEntity
  8
03__ASM_ALL_CURVES
100
AcDbLine
 62
40
  6
CONTINUOUS
 10
6.8802412309
 20
5.2676064326
 11
6.8802412309
 21
5.1629064326
  0
LINE
  5
3F4
100
AcDbEntity
  8
03__ASM_ALL_CURVES
100
AcDbLine
 62
40
  6
CONTINUOUS
 10
7.0503787309
 20
5.2152564326
 11
7.0569224809
 21
5.2414314326
  0
LINE
  5
3F5
100
AcDbEntity
  8
03__ASM_ALL_CURVES
100
AcDbLine
 62
40
  6
CONTINUOUS
 10
7.6393162309
 20
5.1803564331
 11
7.6327724809
 21
5.1716314329
  0
LINE
  5
3F6
100
AcDbEntity
  8
THREAD
100
AcDbLine
 62
7
  6
CONTINUOUS
 10
6.6880462306
 20
3.8036584326
 11
6.6440462306
 21
3.7596584326
  0
LINE
  5
3F7
100
AcDbEntity
  8
0
100
AcDbLine
 62
7
  6
CONTINUOUS
 10
6.7880462306
 20
3.8196584326
 11
6.7720462306
 21
3.8036584326
  0
LINE
  5
3F8
100
AcDbEntity
  8
03__ASM_ALL_CURVES
100
AcDbLine
 62
40
  6
CONTINUOUS
 10
3.4766862306
 20
5.1314964326
 11
3.3510462306
 21
5.1210264326
  0
LINE
  5
3F9
100
AcDbEntity
  8
03__ASM_ALL_CURVES
100
AcDbLine
 62
40
  6
CONTINUOUS
 10
3.4766862306
 20
5.1280064326
 11
3.3510462306
 21
5.1210264326
  0
LINE
  5
3FA
100
AcDbEntity
  8
03__ASM_ALL_CURVES
100
AcDbLine
 62
40
  6
CONTINUOUS
 10
6.6512099809
 20
5.1978064336
 11
6.6904724809
 21
5.1978064336
  0
LINE
  5
3FB
100
AcDbEntity
  8
03__ASM_ALL_CURVES
100
AcDbLine
 62
40
  6
CONTINUOUS
 10
8.0384849809
 20
5.2152564326
 11
8.0057662309
 21
5.2152564326
  0
LINE
  5
3FC
100
AcDbEntity
  8
03__ASM_ALL_CURVES
100
AcDbLine
 62
40
  6
CONTINUOUS
 10
7.0896412309
 20
5.2152564326
 11
7.1158162309
 21
5.2152564326
  0
LINE
  5
3FD
100
AcDbEntity
  8
03__ASM_ALL_CURVES
100
AcDbLine
 62
40
  6
CONTINUOUS
 10
7.3775662309
 20
5.2152564326
 11
7.4299162309
 21
5.2152564326
  0
LINE
  5
3FE
100
AcDbEntity
  8
03__ASM_ALL_CURVES
100
AcDbLine
 62
40
  6
CONTINUOUS
 10
7.9010662309
 20
5.2152564326
 11
7.9337849809
 21
5.2152564326
  0
LINE
  5
3FF
100
AcDbEntity
  8
03__ASM_ALL_CURVES
100
AcDbLine
 62
40
  6
CONTINUOUS
 10
4.4364024806
 20
5.2239814305
 11
4.4494899806
 21
5.2239814305
  0
LINE
  5
400
100
AcDbEntity
  8
03__ASM_ALL_CURVES
100
AcDbLine
 62
40
  6
CONTINUOUS
 10
5.0646024806
 20
5.2239814305
 11
5.0776899806
 21
5.2239814305
  0
LINE
  5
401
100
AcDbEntity
  8
03__ASM_ALL_CURVES
100
AcDbLine
 62
40
  6
CONTINUOUS
 10
7.3055849809
 20
5.2676064326
 11
7.2924974809
 21
5.2676064326
  0
LINE
  5
402
100
AcDbEntity
  8
03__ASM_ALL_CURVES
100
AcDbLine
 62
40
  6
CONTINUOUS
 10
5.2020212306
 20
5.2676064326
 11
5.1496712306
 21
5.2676064326
  0
LINE
  5
403
100
AcDbEntity
  8
03__ASM_ALL_CURVES
100
AcDbLine
 62
40
  6
CONTINUOUS
 10
4.7832212306
 20
5.2676064326
 11
4.7308712306
 21
5.2676064326
  0
LINE
  5
404
100
AcDbEntity
  8
03__ASM_ALL_CURVES
100
AcDbLine
 62
40
  6
CONTINUOUS
 10
4.2270024806
 20
5.2676064326
 11
4.2400899806
 21
5.2676064326
  0
LINE
  5
405
100
AcDbEntity
  8
03__ASM_ALL_CURVES
100
AcDbLine
 62
40
  6
CONTINUOUS
 10
4.4364024806
 20
5.2676064326
 11
4.4494899806
 21
5.2676064326
  0
LINE
  5
406
100
AcDbEntity
  8
03__ASM_ALL_CURVES
100
AcDbLine
 62
40
  6
CONTINUOUS
 10
5.0646024806
 20
5.2676064326
 11
5.0776899806
 21
5.2676064326
  0
LINE
  5
407
100
AcDbEntity
  8
03__ASM_ALL_CURVES
100
AcDbLine
 62
40
  6
CONTINUOUS
 10
6.4548974809
 20
5.2676064326
 11
6.4679849809
 21
5.2676064326
  0
LINE
  5
408
100
AcDbEntity
  8
03__ASM_ALL_CURVES
100
AcDbLine
 62
40
  6
CONTINUOUS
 10
6.5595974809
 20
5.2676064326
 11
6.5726849809
 21
5.2676064326
  0
LINE
  5
409
100
AcDbEntity
  8
03__ASM_ALL_CURVES
100
AcDbLine
 62
40
  6
CONTINUOUS
 10
6.7428224809
 20
5.2676064326
 11
6.8082599809
 21
5.2676064326
  0
LINE
  5
40A
100
AcDbEntity
  8
03__ASM_ALL_CURVES
100
AcDbLine
 62
40
  6
CONTINUOUS
 10
7.0830974809
 20
5.2676064326
 11
7.0961849809
 21
5.2676064326
  0
LINE
  5
40B
100
AcDbEntity
  8
03__ASM_ALL_CURVES
100
AcDbLine
 62
40
  6
CONTINUOUS
 10
7.5018974809
 20
5.2676064326
 11
7.5149849809
 21
5.2676064326
  0
LINE
  5
40C
100
AcDbEntity
  8
03__ASM_ALL_CURVES
100
AcDbLine
 62
40
  6
CONTINUOUS
 10
7.7963662309
 20
5.2676064326
 11
7.8225412309
 21
5.2676064326
  0
LINE
  5
40D
100
AcDbEntity
  8
03__ASM_ALL_CURVES
100
AcDbLine
 62
40
  6
CONTINUOUS
 10
7.9010662309
 20
5.2676064326
 11
7.9534162309
 21
5.2676064326
  0
LINE
  5
40E
100
AcDbEntity
  8
03__ASM_ALL_CURVES
100
AcDbLine
 62
40
  6
CONTINUOUS
 10
8.0057662309
 20
5.2676064326
 11
8.0384849809
 21
5.2676064326
  0
LINE
  5
40F
100
AcDbEntity
  8
THREAD
100
AcDbLine
 62
7
  6
CONTINUOUS
 10
6.6880462306
 20
4.7076584326
 11
6.6440462306
 21
4.7516584326
  0
LINE
  5
410
100
AcDbEntity
  8
0
100
AcDbLine
 62
7
  6
CONTINUOUS
 10
6.7880462306
 20
4.6916584326
 11
6.7720462306
 21
4.7076584326
  0
LINE
  5
411
100
AcDbEntity
  8
03__ASM_ALL_CURVES
100
AcDbLine
 62
40
  6
CONTINUOUS
 10
6.4418099809
 20
5.1716314329
 11
6.4287224809
 21
5.1890814326
  0
LINE
  5
412
100
AcDbEntity
  8
03__ASM_ALL_CURVES
100
AcDbLine
 62
40
  6
CONTINUOUS
 10
6.4941599809
 20
5.2414314326
 11
6.5007037309
 21
5.2152564326
  0
LINE
  5
413
100
AcDbEntity
  8
03__ASM_ALL_CURVES
100
AcDbLine
 62
40
  6
CONTINUOUS
 10
6.5334224809
 20
5.1890814326
 11
6.5268787309
 21
5.2152564326
  0
LINE
  5
414
100
AcDbEntity
  8
03__ASM_ALL_CURVES
100
AcDbLine
 62
40
  6
CONTINUOUS
 10
7.1372735764
 20
3.3263596826
 11
7.1323657639
 21
3.3459909326
  0
LINE
  5
415
100
AcDbEntity
  8
03__ASM_ALL_CURVES
100
AcDbLine
 62
40
  6
CONTINUOUS
 10
6.9066063889
 20
3.319815933
 11
6.9066063889
 21
3.3852534326
  0
LINE
  5
416
100
AcDbEntity
  8
03__ASM_ALL_CURVES
100
AcDbLine
 62
40
  6
CONTINUOUS
 10
6.9434149805
 20
3.4271334326
 11
6.9434149805
 21
3.5056584326
  0
LINE
  5
417
100
AcDbEntity
  8
03__ASM_ALL_CURVES
100
AcDbLine
 62
40
  6
CONTINUOUS
 10
6.9458688889
 20
3.3852534326
 11
6.9458688889
 21
3.319815933
  0
LINE
  5
418
100
AcDbEntity
  8
03__ASM_ALL_CURVES
100
AcDbLine
 62
40
  6
CONTINUOUS
 10
6.9587662309
 20
5.1629064326
 11
6.9587662309
 21
5.2676064326
  0
LINE
  5
419
100
AcDbEntity
  8
03__ASM_ALL_CURVES
100
AcDbLine
 62
40
  6
CONTINUOUS
 10
6.9826774805
 20
3.492570931
 11
6.9826774805
 21
3.4794834342
  0
LINE
  5
41A
100
AcDbEntity
  8
03__ASM_ALL_CURVES
100
AcDbLine
 62
40
  6
CONTINUOUS
 10
6.9851313889
 20
3.3067284326
 11
6.9851313889
 21
3.3852534326
  0
LINE
  5
41B
100
AcDbEntity
  8
03__ASM_ALL_CURVES
100
AcDbLine
 62
40
  6
CONTINUOUS
 10
7.0111162309
 20
5.1629064326
 11
7.0111162309
 21
5.2676064326
  0
LINE
  5
41C
100
AcDbEntity
  8
03__ASM_ALL_CURVES
100
AcDbLine
 62
40
  6
CONTINUOUS
 10
7.0415712305
 20
3.5056584326
 11
7.0415712305
 21
3.4271334326
  0
LINE
  5
41D
100
AcDbEntity
  8
03__ASM_ALL_CURVES
100
AcDbLine
 62
40
  6
CONTINUOUS
 10
6.8182657639
 20
3.3459909326
 11
6.8231735764
 21
3.3656221826
  0
LINE
  5
41E
100
AcDbEntity
  8
03__ASM_ALL_CURVES
100
AcDbLine
 62
40
  6
CONTINUOUS
 10
6.8550743555
 20
3.4663959326
 11
6.859982168
 21
3.4860271826
  0
LINE
  5
41F
100
AcDbEntity
  8
03__ASM_ALL_CURVES
100
AcDbLine
 62
40
  6
CONTINUOUS
 10
7.8487162309
 20
5.1890814326
 11
7.8356287309
 21
5.1716314329
  0
LINE
  5
420
100
AcDbEntity
  8
03__ASM_ALL_CURVES
100
AcDbLine
 62
40
  6
CONTINUOUS
 10
8.0581162309
 20
5.2327064347
 11
8.0515724809
 21
5.2239814305
  0
LINE
  5
421
100
AcDbEntity
  8
03__ASM_ALL_CURVES
100
AcDbLine
 62
40
  6
CONTINUOUS
 10
6.6759392014
 20
3.3787096842
 11
6.6710313889
 21
3.372165931
  0
LINE
  5
422
100
AcDbEntity
  8
03__ASM_ALL_CURVES
100
AcDbLine
 62
40
  6
CONTINUOUS
 10
7.9474009183
 20
4.322404681
 11
7.9375852933
 21
4.3158609326
  0
LINE
  5
423
100
AcDbEntity
  8
03__ASM_ALL_CURVES
100
AcDbLine
 62
40
  6
CONTINUOUS
 10
7.9964790433
 20
4.3485796842
 11
8.0062946683
 21
4.3551234326
  0
LINE
  5
424
100
AcDbEntity
  8
03__ASM_ALL_CURVES
100
AcDbLine
 62
40
  6
CONTINUOUS
 10
8.0259259183
 20
4.2831421828
 11
8.0161102933
 21
4.2765984326
  0
LINE
  5
425
100
AcDbEntity
  8
03__ASM_ALL_CURVES
100
AcDbLine
 62
40
  6
CONTINUOUS
 10
6.6857548264
 20
3.3852534326
 11
6.6759392014
 21
3.3787096842
  0
LINE
  5
426
100
AcDbEntity
  8
03__ASM_ALL_CURVES
100
AcDbLine
 62
40
  6
CONTINUOUS
 10
6.820719668
 20
3.472939681
 11
6.810904043
 21
3.4663959326
  0
LINE
  5
427
100
AcDbEntity
  8
03__ASM_ALL_CURVES
100
AcDbLine
 62
40
  6
CONTINUOUS
 10
8.1044509183
 20
4.322404681
 11
8.0946352933
 21
4.3158609326
  0
LINE
  5
428
100
AcDbEntity
  8
03__ASM_ALL_CURVES
100
AcDbLine
 62
40
  6
CONTINUOUS
 10
6.869797793
 20
3.4991146842
 11
6.879613418
 21
3.5056584326
  0
LINE
  5
429
100
AcDbEntity
  8
03__ASM_ALL_CURVES
100
AcDbLine
 62
40
  6
CONTINUOUS
 10
3.3510462306
 20
5.1210264326
 11
3.4766862306
 21
5.1419664326
  0
LINE
  5
42A
100
AcDbEntity
  8
03__ASM_ALL_CURVES
100
AcDbLine
 62
40
  6
CONTINUOUS
 10
3.4766862306
 20
5.1384764326
 11
3.3510462306
 21
5.1210264326
  0
LINE
  5
42B
100
AcDbEntity
  8
03__ASM_ALL_CURVES
100
AcDbLine
 62
40
  6
CONTINUOUS
 10
3.4766862306
 20
5.1349864326
 11
3.3510462306
 21
5.1210264326
  0
LINE
  5
42C
100
AcDbEntity
  8
03__ASM_ALL_CURVES
100
AcDbLine
 62
40
  6
CONTINUOUS
 10
6.4548974809
 20
5.1629064326
 11
6.4418099809
 21
5.1716314329
  0
LINE
  5
42D
100
AcDbEntity
  8
03__ASM_ALL_CURVES
100
AcDbLine
 62
40
  6
CONTINUOUS
 10
6.5595974809
 20
5.1629064326
 11
6.5465099809
 21
5.1716314329
  0
LINE
  5
42E
100
AcDbEntity
  8
03__ASM_ALL_CURVES
100
AcDbLine
 62
40
  6
CONTINUOUS
 10
6.4679849809
 20
5.2676064326
 11
6.4810724809
 21
5.2588814347
  0
LINE
  5
42F
100
AcDbEntity
  8
03__ASM_ALL_CURVES
100
AcDbLine
 62
40
  6
CONTINUOUS
 10
8.0062946683
 20
4.2765984326
 11
7.9964790433
 21
4.2831421828
  0
LINE
  5
430
100
AcDbEntity
  8
03__ASM_ALL_CURVES
100
AcDbLine
 62
40
  6
CONTINUOUS
 10
7.9375852933
 20
4.3551234326
 11
7.9474009183
 21
4.3485796842
  0
LINE
  5
431
100
AcDbEntity
  8
03__ASM_ALL_CURVES
100
AcDbLine
 62
40
  6
CONTINUOUS
 10
6.5726849809
 20
5.2676064326
 11
6.5857724809
 21
5.2588814347
  0
LINE
  5
432
100
AcDbEntity
  8
03__ASM_ALL_CURVES
100
AcDbLine
 62
40
  6
CONTINUOUS
 10
6.4810724809
 20
5.2588814347
 11
6.4941599809
 21
5.2414314326
  0
LINE
  5
433
100
AcDbEntity
  8
03__ASM_ALL_CURVES
100
AcDbLine
 62
40
  6
CONTINUOUS
 10
6.5465099809
 20
5.1716314329
 11
6.5334224809
 21
5.1890814326
  0
LINE
  5
434
100
AcDbEntity
  8
03__ASM_ALL_CURVES
100
AcDbLine
 62
40
  6
CONTINUOUS
 10
6.5857724809
 20
5.2588814347
 11
6.5923162309
 21
5.2501564305
  0
LINE
  5
435
100
AcDbEntity
  8
03__ASM_ALL_CURVES
100
AcDbLine
 62
40
  6
CONTINUOUS
 10
6.6708412309
 20
5.2676064326
 11
6.7035599809
 21
5.1629064326
  0
LINE
  5
436
100
AcDbEntity
  8
0
100
AcDbLine
 62
7
  6
CONTINUOUS
 10
7.0590462306
 20
4.226782216
 11
7.0590462306
 21
4.2845283756
  0
LINE
  5
437
100
AcDbEntity
  8
03__ASM_ALL_CURVES
100
AcDbLine
 62
40
  6
CONTINUOUS
 10
7.0636563889
 20
3.3067284326
 11
7.0636563889
 21
3.3852534326
  0
LINE
  5
438
100
AcDbEntity
  8
0
100
AcDbLine
 62
7
  6
CONTINUOUS
 10
7.0690462306
 20
4.2086658707
 11
7.0690462306
 21
4.3026393595
  0
LINE
  5
439
100
AcDbEntity
  8
0
100
AcDbLine
 62
7
  6
CONTINUOUS
 10
7.0760462306
 20
4.2010170127
 11
7.0760462306
 21
4.3103002211
  0
LINE
  5
43A
100
AcDbEntity
  8
03__ASM_ALL_CURVES
100
AcDbLine
 62
40
  6
CONTINUOUS
 10
7.1029188889
 20
3.3067284326
 11
7.1029188889
 21
3.3852534326
  0
LINE
  5
43B
100
AcDbEntity
  8
03__ASM_ALL_CURVES
100
AcDbLine
 62
40
  6
CONTINUOUS
 10
7.1158162309
 20
5.2152564326
 11
7.1158162309
 21
5.1803564331
  0
LINE
  5
43C
100
AcDbEntity
  8
0
100
AcDbLine
 62
7
  6
CONTINUOUS
 10
7.1200462306
 20
4.0322848726
 11
7.1200462306
 21
4.0511177418
  0
LINE
  5
43D
100
AcDbEntity
  8
0
100
AcDbLine
 62
7
  6
CONTINUOUS
 10
7.1200462306
 20
4.1788891091
 11
7.1200462306
 21
4.3324281495
  0
LINE
  5
43E
100
AcDbEntity
  8
0
100
AcDbLine
 62
7
  6
CONTINUOUS
 10
7.1200462306
 20
4.4601991093
 11
7.1200462306
 21
4.4790308467
  0
LINE
  5
43F
100
AcDbEntity
  8
0
100
AcDbLine
 62
7
  6
CONTINUOUS
 10
7.1270462306
 20
4.4794062855
 11
7.1270462306
 21
4.4595294033
  0
LINE
  5
440
100
AcDbEntity
  8
0
100
AcDbLine
 62
7
  6
CONTINUOUS
 10
7.1270462306
 20
4.031910163
 11
7.1270462306
 21
4.0517874567
  0
LINE
  5
441
100
AcDbEntity
  8
0
100
AcDbLine
 62
7
  6
CONTINUOUS
 10
7.1270462306
 20
4.1781028168
 11
7.1270462306
 21
4.3332073701
  0
LINE
  5
442
100
AcDbEntity
  8
0
100
AcDbLine
 62
7
  6
CONTINUOUS
 10
7.1370462306
 20
4.4792996398
 11
7.1370462306
 21
4.4597207546
  0
LINE
  5
443
100
AcDbEntity
  8
0
100
AcDbLine
 62
7
  6
CONTINUOUS
 10
7.1370462306
 20
4.0320178436
 11
7.1370462306
 21
4.0515961163
  0
LINE
  5
444
100
AcDbEntity
  8
0
100
AcDbLine
 62
7
  6
CONTINUOUS
 10
7.1370462306
 20
4.1783317467
 11
7.1370462306
 21
4.3329897193
  0
LINE
  5
445
100
AcDbEntity
  8
03__ASM_ALL_CURVES
100
AcDbLine
 62
40
  6
CONTINUOUS
 10
7.1397274805
 20
3.492570931
 11
7.1397274805
 21
3.4794834342
  0
LINE
  5
446
100
AcDbEntity
  8
0
100
AcDbLine
 62
7
  6
CONTINUOUS
 10
7.1440462306
 20
4.0323932774
 11
7.1440462306
 21
4.0509264091
  0
LINE
  5
447
100
AcDbEntity
  8
0
100
AcDbLine
 62
7
  6
CONTINUOUS
 10
7.1440462306
 20
4.1791115518
 11
7.1440462306
 21
4.332202768
  0
LINE
  5
448
100
AcDbEntity
  8
0
100
AcDbLine
 62
7
  6
CONTINUOUS
 10
7.1440462306
 20
4.4603904684
 11
7.1440462306
 21
4.4789249274
  0
LINE
  5
449
100
AcDbEntity
  8
0
100
AcDbLine
 62
7
  6
CONTINUOUS
 10
7.1880462306
 20
4.2030155196
 11
7.1880462306
 21
4.3082971239
  0
LINE
  5
44A
100
AcDbEntity
  8
0
100
AcDbLine
 62
7
  6
CONTINUOUS
 10
7.1950462306
 20
4.2118450171
 11
7.1950462306
 21
4.2994797454
  0
LINE
  5
44B
100
AcDbEntity
  8
0
100
AcDbLine
 62
7
  6
CONTINUOUS
 10
7.2050462306
 20
4.2324993586
 11
7.2050462306
 21
4.2788198348
  0
LINE
  5
44C
100
AcDbEntity
  8
03__ASM_ALL_CURVES
100
AcDbLine
 62
40
  6
CONTINUOUS
 10
7.2207063889
 20
3.3067284326
 11
7.2207063889
 21
3.3852534326
  0
LINE
  5
44D
100
AcDbEntity
  8
0
100
AcDbLine
 62
7
  6
CONTINUOUS
 10
7.2250462306
 20
3.8226584326
 11
7.2250462306
 21
4.6886584326
  0
LINE
  5
44E
100
AcDbEntity
  8
0
100
AcDbLine
 62
7
  6
CONTINUOUS
 10
7.2285462306
 20
3.8191584326
 11
7.2285462306
 21
4.6921584326
  0
LINE
  5
44F
100
AcDbEntity
  8
03__ASM_ALL_CURVES
100
AcDbLine
 62
40
  6
CONTINUOUS
 10
6.8771595139
 20
3.3459909326
 11
6.8722517014
 21
3.3263596826
  0
LINE
  5
450
100
AcDbEntity
  8
03__ASM_ALL_CURVES
100
AcDbLine
 62
40
  6
CONTINUOUS
 10
6.9139681055
 20
3.4663959326
 11
6.909060293
 21
3.4467646826
  0
LINE
  5
451
100
AcDbEntity
  8
03__ASM_ALL_CURVES
100
AcDbLine
 62
40
  6
CONTINUOUS
 10
7.4691787309
 20
5.2152564326
 11
7.4757224809
 21
5.2414314326
  0
LINE
  5
452
100
AcDbEntity
  8
03__ASM_ALL_CURVES
100
AcDbLine
 62
40
  6
CONTINUOUS
 10
6.8256274805
 20
3.4794834342
 11
6.820719668
 21
3.472939681
  0
LINE
  5
453
100
AcDbEntity
  8
03__ASM_ALL_CURVES
100
AcDbLine
 62
40
  6
CONTINUOUS
 10
6.7102938889
 20
3.319815933
 11
6.7053860764
 21
3.3132721828
  0
LINE
  5
454
100
AcDbEntity
  8
03__ASM_ALL_CURVES
100
AcDbLine
 62
40
  6
CONTINUOUS
 10
6.859982168
 20
3.4860271826
 11
6.869797793
 21
3.4991146842
  0
LINE
  5
455
100
AcDbEntity
  8
03__ASM_ALL_CURVES
100
AcDbLine
 62
40
  6
CONTINUOUS
 10
6.8231735764
 20
3.3656221826
 11
6.8329892014
 21
3.3787096842
  0
LINE
  5
456
100
AcDbEntity
  8
03__ASM_ALL_CURVES
100
AcDbLine
 62
40
  6
CONTINUOUS
 10
6.909060293
 20
3.4467646826
 11
6.899244668
 21
3.4336771828
  0
LINE
  5
457
100
AcDbEntity
  8
03__ASM_ALL_CURVES
100
AcDbLine
 62
40
  6
CONTINUOUS
 10
6.9826774805
 20
3.4794834342
 11
6.977769668
 21
3.472939681
  0
LINE
  5
458
100
AcDbEntity
  8
0
100
AcDbLine
 62
7
  6
CONTINUOUS
 10
7.2820462306
 20
3.8226584326
 11
7.2785462306
 21
3.8191584326
  0
LINE
  5
459
100
AcDbEntity
  8
03__ASM_ALL_CURVES
100
AcDbLine
 62
40
  6
CONTINUOUS
 10
6.7053860764
 20
3.3132721828
 11
6.6955704514
 21
3.3067284326
  0
LINE
  5
45A
100
AcDbEntity
  8
03__ASM_ALL_CURVES
100
AcDbLine
 62
40
  6
CONTINUOUS
 10
6.899244668
 20
3.4336771828
 11
6.889429043
 21
3.4271334326
  0
LINE
  5
45B
100
AcDbEntity
  8
03__ASM_ALL_CURVES
100
AcDbLine
 62
40
  6
CONTINUOUS
 10
6.8329892014
 20
3.3787096842
 11
6.8428048264
 21
3.3852534326
  0
LINE
  5
45C
100
AcDbEntity
  8
03__ASM_ALL_CURVES
100
AcDbLine
 62
40
  6
CONTINUOUS
 10
6.977769668
 20
3.472939681
 11
6.967954043
 21
3.4663959326
  0
LINE
  5
45D
100
AcDbEntity
  8
03__ASM_ALL_CURVES
100
AcDbLine
 62
40
  6
CONTINUOUS
 10
7.105372793
 20
3.4991146842
 11
7.115188418
 21
3.5056584326
  0
LINE
  5
45E
100
AcDbEntity
  8
03__ASM_ALL_CURVES
100
AcDbLine
 62
40
  6
CONTINUOUS
 10
6.8624360764
 20
3.3132721828
 11
6.8526204514
 21
3.3067284326
  0
LINE
  5
45F
100
AcDbEntity
  8
03__ASM_ALL_CURVES
100
AcDbLine
 62
40
  6
CONTINUOUS
 10
7.134819668
 20
3.472939681
 11
7.115188418
 21
3.4598521818
  0
LINE
  5
460
100
AcDbEntity
  8
03__ASM_ALL_CURVES
100
AcDbLine
 62
40
  6
CONTINUOUS
 10
8.0161102933
 20
4.3551234326
 11
8.0259259183
 21
4.3485796842
  0
LINE
  5
461
100
AcDbEntity
  8
03__ASM_ALL_CURVES
100
AcDbLine
 62
40
  6
CONTINUOUS
 10
8.0946352933
 20
4.3551234326
 11
8.1044509183
 21
4.3485796842
  0
LINE
  5
462
100
AcDbEntity
  8
0
100
AcDbLine
 62
7
  6
CONTINUOUS
 10
7.2820462306
 20
4.6886584326
 11
7.2785462306
 21
4.6921584326
  0
LINE
  5
463
100
AcDbEntity
  8
03__ASM_ALL_CURVES
100
AcDbLine
 62
40
  6
CONTINUOUS
 10
7.2728662309
 20
5.2501564305
 11
7.2728662309
 21
5.2414314326
  0
LINE
  5
464
100
AcDbEntity
  8
0
100
AcDbLine
 62
7
  6
CONTINUOUS
 10
7.2785462306
 20
3.8191584326
 11
7.2785462306
 21
4.6921584326
  0
LINE
  5
465
100
AcDbEntity
  8
0
100
AcDbLine
 62
7
  6
CONTINUOUS
 10
7.2820462306
 20
3.8196590955
 11
7.2820462306
 21
4.6916577697
  0
LINE
  5
466
100
AcDbEntity
  8
03__ASM_ALL_CURVES
100
AcDbLine
 62
40
  6
CONTINUOUS
 10
7.3252162309
 20
5.1978064336
 11
7.3252162309
 21
5.1803564331
  0
LINE
  5
467
100
AcDbEntity
  8
0
100
AcDbLine
 62
7
  6
CONTINUOUS
 10
7.3320462306
 20
3.8196590955
 11
7.3320462306
 21
4.6916577697
  0
LINE
  5
468
100
AcDbEntity
  8
03__ASM_ALL_CURVES
100
AcDbLine
 62
40
  6
CONTINUOUS
 10
7.3775662309
 20
5.2676064326
 11
7.3775662309
 21
5.1629064326
  0
LINE
  5
469
100
AcDbEntity
  8
0
100
AcDbLine
 62
7
  6
CONTINUOUS
 10
7.4020462306
 20
3.8196590955
 11
7.4020462306
 21
4.6916577697
  0
LINE
  5
46A
100
AcDbEntity
  8
03__ASM_ALL_CURVES
100
AcDbLine
 62
40
  6
CONTINUOUS
 10
7.105372793
 20
3.4467646826
 11
7.1004649805
 21
3.4271334326
  0
LINE
  5
46B
100
AcDbEntity
  8
03__ASM_ALL_CURVES
100
AcDbLine
 62
40
  6
CONTINUOUS
 10
7.5477037309
 20
5.2152564326
 11
7.5411599809
 21
5.1890814326
  0
LINE
  5
46C
100
AcDbEntity
  8
03__ASM_ALL_CURVES
100
AcDbLine
 62
40
  6
CONTINUOUS
 10
7.1323657639
 20
3.3459909326
 11
7.1372735764
 21
3.3656221826
  0
LINE
  5
46D
100
AcDbEntity
  8
03__ASM_ALL_CURVES
100
AcDbLine
 62
40
  6
CONTINUOUS
 10
6.8722517014
 20
3.3263596826
 11
6.8624360764
 21
3.3132721828
  0
LINE
  5
46E
100
AcDbEntity
  8
03__ASM_ALL_CURVES
100
AcDbLine
 62
40
  6
CONTINUOUS
 10
6.9458688889
 20
3.319815933
 11
6.9409610764
 21
3.3132721828
  0
LINE
  5
46F
100
AcDbEntity
  8
03__ASM_ALL_CURVES
100
AcDbLine
 62
40
  6
CONTINUOUS
 10
7.1004649805
 20
3.492570931
 11
7.105372793
 21
3.4991146842
  0
LINE
  5
470
100
AcDbEntity
  8
03__ASM_ALL_CURVES
100
AcDbLine
 62
40
  6
CONTINUOUS
 10
7.115188418
 20
3.4598521818
 11
7.105372793
 21
3.4467646826
  0
LINE
  5
471
100
AcDbEntity
  8
03__ASM_ALL_CURVES
100
AcDbLine
 62
40
  6
CONTINUOUS
 10
7.1397274805
 20
3.4794834342
 11
7.134819668
 21
3.472939681
  0
LINE
  5
472
100
AcDbEntity
  8
0
100
AcDbLine
 62
7
  6
CONTINUOUS
 10
7.5390462306
 20
3.8351584326
 11
7.5230462306
 21
3.8191584326
  0
LINE
  5
473
100
AcDbEntity
  8
03__ASM_ALL_CURVES
100
AcDbLine
 62
40
  6
CONTINUOUS
 10
6.9409610764
 20
3.3132721828
 11
6.9311454514
 21
3.3067284326
  0
LINE
  5
474
100
AcDbEntity
  8
03__ASM_ALL_CURVES
100
AcDbLine
 62
40
  6
CONTINUOUS
 10
7.1470892014
 20
3.3787096842
 11
7.1569048264
 21
3.3852534326
  0
LINE
  5
475
100
AcDbEntity
  8
03__ASM_ALL_CURVES
100
AcDbLine
 62
40
  6
CONTINUOUS
 10
7.1765360764
 20
3.3132721828
 11
7.1667204514
 21
3.3067284326
  0
LINE
  5
476
100
AcDbEntity
  8
03__ASM_ALL_CURVES
100
AcDbLine
 62
40
  6
CONTINUOUS
 10
7.0830974809
 20
5.1629064326
 11
7.0700099809
 21
5.1716314329
  0
LINE
  5
477
100
AcDbEntity
  8
03__ASM_ALL_CURVES
100
AcDbLine
 62
40
  6
CONTINUOUS
 10
7.0961849809
 20
5.2676064326
 11
7.1092724809
 21
5.2588814347
  0
LINE
  5
478
100
AcDbEntity
  8
03__ASM_ALL_CURVES
100
AcDbLine
 62
40
  6
CONTINUOUS
 10
7.2924974809
 20
5.1629064326
 11
7.2794099809
 21
5.1716314329
  0
LINE
  5
479
100
AcDbEntity
  8
03__ASM_ALL_CURVES
100
AcDbLine
 62
40
  6
CONTINUOUS
 10
7.2794099809
 20
5.2327064347
 11
7.3186724809
 21
5.2065314316
  0
LINE
  5
47A
100
AcDbEntity
  8
0
100
AcDbLine
 62
7
  6
CONTINUOUS
 10
7.5390462306
 20
4.6761584326
 11
7.5230462306
 21
4.6921584326
  0
LINE
  5
47B
100
AcDbEntity
  8
03__ASM_ALL_CURVES
100
AcDbLine
 62
40
  6
CONTINUOUS
 10
7.0700099809
 20
5.1716314329
 11
7.0569224809
 21
5.1890814326
  0
LINE
  5
47C
100
AcDbEntity
  8
03__ASM_ALL_CURVES
100
AcDbLine
 62
40
  6
CONTINUOUS
 10
6.9587662309
 20
5.2676064326
 11
7.0111162309
 21
5.1629064326
  0
LINE
  5
47D
100
AcDbEntity
  8
03__ASM_ALL_CURVES
100
AcDbLine
 62
40
  6
CONTINUOUS
 10
7.0569224809
 20
5.1890814326
 11
7.0503787309
 21
5.2152564326
  0
LINE
  5
47E
100
AcDbEntity
  8
03__ASM_ALL_CURVES
100
AcDbLine
 62
40
  6
CONTINUOUS
 10
7.4299162309
 20
5.2676064326
 11
7.4299162309
 21
5.1629064326
  0
LINE
  5
47F
100
AcDbEntity
  8
0
100
AcDbLine
 62
7
  6
CONTINUOUS
 10
7.4520462306
 20
3.8196590955
 11
7.4520462306
 21
4.6916577697
  0
LINE
  5
480
100
AcDbEntity
  8
0
100
AcDbLine
 62
7
  6
CONTINUOUS
 10
7.4800462306
 20
3.8191635472
 11
7.4800462306
 21
4.692153318
  0
LINE
  5
481
100
AcDbEntity
  8
0
100
AcDbLine
 62
7
  6
CONTINUOUS
 10
7.5230462306
 20
3.8191584326
 11
7.5230462306
 21
4.6921584326
  0
LINE
  5
482
100
AcDbEntity
  8
0
100
AcDbLine
 62
7
  6
CONTINUOUS
 10
7.5390462306
 20
3.8351584326
 11
7.5390462306
 21
4.6761584326
  0
LINE
  5
483
100
AcDbEntity
  8
03__ASM_ALL_CURVES
100
AcDbLine
 62
40
  6
CONTINUOUS
 10
7.8552599809
 20
5.2152564326
 11
7.8487162309
 21
5.1890814326
  0
LINE
  5
484
100
AcDbEntity
  8
03__ASM_ALL_CURVES
100
AcDbLine
 62
40
  6
CONTINUOUS
 10
7.1372735764
 20
3.3656221826
 11
7.1470892014
 21
3.3787096842
  0
LINE
  5
485
100
AcDbEntity
  8
03__ASM_ALL_CURVES
100
AcDbLine
 62
40
  6
CONTINUOUS
 10
7.1814438889
 20
3.319815933
 11
7.1765360764
 21
3.3132721828
  0
LINE
  5
486
100
AcDbEntity
  8
03__ASM_ALL_CURVES
100
AcDbLine
 62
40
  6
CONTINUOUS
 10
7.9523087308
 20
4.3289484342
 11
7.9474009183
 21
4.322404681
  0
LINE
  5
487
100
AcDbEntity
  8
03__ASM_ALL_CURVES
100
AcDbLine
 62
40
  6
CONTINUOUS
 10
7.9866634183
 20
4.3354921826
 11
7.9964790433
 21
4.3485796842
  0
LINE
  5
488
100
AcDbEntity
  8
03__ASM_ALL_CURVES
100
AcDbLine
 62
40
  6
CONTINUOUS
 10
8.0357415433
 20
4.2962296826
 11
8.0259259183
 21
4.2831421828
  0
LINE
  5
489
100
AcDbEntity
  8
03__ASM_ALL_CURVES
100
AcDbLine
 62
40
  6
CONTINUOUS
 10
7.3186724809
 20
5.2588814347
 11
7.3055849809
 21
5.2676064326
  0
LINE
  5
48A
100
AcDbEntity
  8
03__ASM_ALL_CURVES
100
AcDbLine
 62
40
  6
CONTINUOUS
 10
7.5018974809
 20
5.1629064326
 11
7.4888099809
 21
5.1716314329
  0
LINE
  5
48B
100
AcDbEntity
  8
03__ASM_ALL_CURVES
100
AcDbLine
 62
40
  6
CONTINUOUS
 10
7.6065974809
 20
5.1629064326
 11
7.5935099809
 21
5.1716314329
  0
LINE
  5
48C
100
AcDbEntity
  8
03__ASM_ALL_CURVES
100
AcDbLine
 62
40
  6
CONTINUOUS
 10
7.5149849809
 20
5.2676064326
 11
7.5280724809
 21
5.2588814347
  0
LINE
  5
48D
100
AcDbEntity
  8
03__ASM_ALL_CURVES
100
AcDbLine
 62
40
  6
CONTINUOUS
 10
7.1092724809
 20
5.2588814347
 11
7.1158162309
 21
5.2501564305
  0
LINE
  5
48E
100
AcDbEntity
  8
03__ASM_ALL_CURVES
100
AcDbLine
 62
40
  6
CONTINUOUS
 10
7.2794099809
 20
5.1716314329
 11
7.2663224809
 21
5.1890814326
  0
LINE
  5
48F
100
AcDbEntity
  8
03__ASM_ALL_CURVES
100
AcDbLine
 62
40
  6
CONTINUOUS
 10
7.2728662309
 20
5.2414314326
 11
7.2794099809
 21
5.2327064347
  0
LINE
  5
490
100
AcDbEntity
  8
03__ASM_ALL_CURVES
100
AcDbLine
 62
40
  6
CONTINUOUS
 10
7.9964790433
 20
4.2831421828
 11
7.9866634183
 21
4.2962296826
  0
LINE
  5
491
100
AcDbEntity
  8
03__ASM_ALL_CURVES
100
AcDbLine
 62
40
  6
CONTINUOUS
 10
7.9474009183
 20
4.3485796842
 11
7.9523087308
 21
4.342035931
  0
LINE
  5
492
100
AcDbEntity
  8
03__ASM_ALL_CURVES
100
AcDbLine
 62
40
  6
CONTINUOUS
 10
7.3186724809
 20
5.2065314316
 11
7.3252162309
 21
5.1978064336
  0
LINE
  5
493
100
AcDbEntity
  8
03__ASM_ALL_CURVES
100
AcDbLine
 62
40
  6
CONTINUOUS
 10
7.5869662309
 20
5.1803564331
 11
7.5869662309
 21
5.2676064326
  0
LINE
  5
494
100
AcDbEntity
  8
03__ASM_ALL_CURVES
100
AcDbLine
 62
40
  6
CONTINUOUS
 10
7.6393162309
 20
5.2676064326
 11
7.6393162309
 21
5.1803564331
  0
LINE
  5
495
100
AcDbEntity
  8
03__ASM_ALL_CURVES
100
AcDbLine
 62
40
  6
CONTINUOUS
 10
7.6916662309
 20
5.2676064326
 11
7.6916662309
 21
5.1629064326
  0
LINE
  5
496
100
AcDbEntity
  8
03__ASM_ALL_CURVES
100
AcDbLine
 62
40
  6
CONTINUOUS
 10
8.1093587308
 20
4.3289484342
 11
8.1044509183
 21
4.322404681
  0
LINE
  5
497
100
AcDbEntity
  8
03__ASM_ALL_CURVES
100
AcDbLine
 62
40
  6
CONTINUOUS
 10
7.8225412309
 20
5.2676064326
 11
7.8356287309
 21
5.2588814347
  0
LINE
  5
498
100
AcDbEntity
  8
03__ASM_ALL_CURVES
100
AcDbLine
 62
40
  6
CONTINUOUS
 10
7.3252162309
 20
5.2501564305
 11
7.3186724809
 21
5.2588814347
  0
LINE
  5
499
100
AcDbEntity
  8
03__ASM_ALL_CURVES
100
AcDbLine
 62
40
  6
CONTINUOUS
 10
8.0259259183
 20
4.3485796842
 11
8.0357415433
 21
4.3354921826
  0
LINE
  5
49A
100
AcDbEntity
  8
03__ASM_ALL_CURVES
100
AcDbLine
 62
40
  6
CONTINUOUS
 10
8.1044509183
 20
4.3485796842
 11
8.1093587308
 21
4.342035931
  0
LINE
  5
49B
100
AcDbEntity
  8
03__ASM_ALL_CURVES
100
AcDbLine
 62
40
  6
CONTINUOUS
 10
7.4888099809
 20
5.1716314329
 11
7.4757224809
 21
5.1890814326
  0
LINE
  5
49C
100
AcDbEntity
  8
03__ASM_ALL_CURVES
100
AcDbLine
 62
40
  6
CONTINUOUS
 10
7.971939981
 20
4.2347184326
 11
8.011202481
 21
4.1561934326
  0
LINE
  5
49D
100
AcDbEntity
  8
03__ASM_ALL_CURVES
100
AcDbLine
 62
40
  6
CONTINUOUS
 10
7.4757224809
 20
5.1890814326
 11
7.4691787309
 21
5.2152564326
  0
LINE
  5
49E
100
AcDbEntity
  8
03__ASM_ALL_CURVES
100
AcDbLine
 62
40
  6
CONTINUOUS
 10
7.5411599809
 20
5.2414314326
 11
7.5477037309
 21
5.2152564326
  0
LINE
  5
49F
100
AcDbEntity
  8
03__ASM_ALL_CURVES
100
AcDbLine
 62
40
  6
CONTINUOUS
 10
7.7963662309
 20
5.1629064326
 11
7.7963662309
 21
5.2676064326
  0
LINE
  5
4A0
100
AcDbEntity
  8
03__ASM_ALL_CURVES
100
AcDbLine
 62
40
  6
CONTINUOUS
 10
7.9010662309
 20
5.1629064326
 11
7.9010662309
 21
5.2676064326
  0
LINE
  5
4A1
100
AcDbEntity
  8
03__ASM_ALL_CURVES
100
AcDbLine
 62
40
  6
CONTINUOUS
 10
7.913046231
 20
4.2347184326
 11
7.913046231
 21
4.1561934326
  0
LINE
  5
4A2
100
AcDbEntity
  8
03__ASM_ALL_CURVES
100
AcDbLine
 62
40
  6
CONTINUOUS
 10
7.9130462308
 20
4.2765984326
 11
7.9130462308
 21
4.3551234326
  0
LINE
  5
4A3
100
AcDbEntity
  8
03__ASM_ALL_CURVES
100
AcDbLine
 62
40
  6
CONTINUOUS
 10
7.9817556058
 20
4.3158609326
 11
7.9866634183
 21
4.3354921826
  0
LINE
  5
4A4
100
AcDbEntity
  8
03__ASM_ALL_CURVES
100
AcDbLine
 62
40
  6
CONTINUOUS
 10
8.0384849809
 20
5.2676064326
 11
8.0515724809
 21
5.2588814347
  0
LINE
  5
4A5
100
AcDbEntity
  8
03__ASM_ALL_CURVES
100
AcDbLine
 62
40
  6
CONTINUOUS
 10
7.5280724809
 20
5.2588814347
 11
7.5411599809
 21
5.2414314326
  0
LINE
  5
4A6
100
AcDbEntity
  8
03__ASM_ALL_CURVES
100
AcDbLine
 62
40
  6
CONTINUOUS
 10
7.5935099809
 20
5.1716314329
 11
7.5869662309
 21
5.1803564331
  0
LINE
  5
4A7
100
AcDbEntity
  8
03__ASM_ALL_CURVES
100
AcDbLine
 62
40
  6
CONTINUOUS
 10
7.9866634183
 20
4.2962296826
 11
7.9817556058
 21
4.3158609326
  0
LINE
  5
4A8
100
AcDbEntity
  8
03__ASM_ALL_CURVES
100
AcDbLine
 62
40
  6
CONTINUOUS
 10
7.9523087308
 20
4.342035931
 11
7.9523087308
 21
4.3289484342
  0
LINE
  5
4A9
100
AcDbEntity
  8
03__ASM_ALL_CURVES
100
AcDbLine
 62
40
  6
CONTINUOUS
 10
7.971939981
 20
4.1561934326
 11
7.971939981
 21
4.2347184326
  0
LINE
  5
4AA
100
AcDbEntity
  8
03__ASM_ALL_CURVES
100
AcDbLine
 62
40
  6
CONTINUOUS
 10
8.0057662309
 20
5.1629064326
 11
8.0057662309
 21
5.2676064326
  0
LINE
  5
4AB
100
AcDbEntity
  8
03__ASM_ALL_CURVES
100
AcDbLine
 62
40
  6
CONTINUOUS
 10
8.011202481
 20
4.1561934326
 11
8.011202481
 21
4.2347184326
  0
LINE
  5
4AC
100
AcDbEntity
  8
03__ASM_ALL_CURVES
100
AcDbLine
 62
40
  6
CONTINUOUS
 10
8.050464981
 20
4.2347184326
 11
8.050464981
 21
4.1561934326
  0
LINE
  5
4AD
100
AcDbEntity
  8
03__ASM_ALL_CURVES
100
AcDbLine
 62
40
  6
CONTINUOUS
 10
8.0581162309
 20
5.2501564305
 11
8.0581162309
 21
5.2327064347
  0
LINE
  5
4AE
100
AcDbEntity
  8
03__ASM_ALL_CURVES
100
AcDbLine
 62
40
  6
CONTINUOUS
 10
8.0700962308
 20
4.2765984326
 11
8.0700962308
 21
4.3551234326
  0
LINE
  5
4AF
100
AcDbEntity
  8
03__ASM_ALL_CURVES
100
AcDbLine
 62
40
  6
CONTINUOUS
 10
8.1093587308
 20
4.342035931
 11
8.1093587308
 21
4.3289484342
  0
LINE
  5
4B0
100
AcDbEntity
  8
03__ASM_ALL_CURVES
100
AcDbLine
 62
40
  6
CONTINUOUS
 10
8.0406493558
 20
4.3158609326
 11
8.0357415433
 21
4.2962296826
  0
LINE
  5
4B1
100
AcDbEntity
  8
03__ASM_ALL_CURVES
100
AcDbLine
 62
40
  6
CONTINUOUS
 10
7.8356287309
 20
5.2588814347
 11
7.8487162309
 21
5.2414314326
  0
LINE
  5
4B2
100
AcDbEntity
  8
03__ASM_ALL_CURVES
100
AcDbLine
 62
40
  6
CONTINUOUS
 10
8.0946352933
 20
4.3158609326
 11
8.1093587308
 21
4.2765984326
  0
LINE
  5
4B3
100
AcDbEntity
  8
03__ASM_ALL_CURVES
100
AcDbLine
 62
40
  6
CONTINUOUS
 10
8.0357415433
 20
4.3354921826
 11
8.0406493558
 21
4.3158609326
  0
LINE
  5
4B4
100
AcDbEntity
  8
03__ASM_ALL_CURVES
100
AcDbLine
 62
40
  6
CONTINUOUS
 10
7.8487162309
 20
5.2414314326
 11
7.8552599809
 21
5.2152564326
  0
LINE
  5
4B5
100
AcDbEntity
  8
03__ASM_ALL_CURVES
100
AcDbLine
 62
40
  6
CONTINUOUS
 10
8.128989981
 20
4.1561934326
 11
8.128989981
 21
4.2347184326
  0
LINE
  5
4B6
100
AcDbEntity
  8
03__ASM_ALL_CURVES
100
AcDbLine
 62
40
  6
CONTINUOUS
 10
8.1682524808
 20
4.3551234326
 11
8.1682524808
 21
4.2765984326
  0
LINE
  5
4B7
100
AcDbEntity
  8
03__ASM_ALL_CURVES
100
AcDbLine
 62
40
  6
CONTINUOUS
 10
8.227146231
 20
4.2347184326
 11
8.227146231
 21
4.1561934326
  0
LINE
  5
4B8
100
AcDbEntity
  8
03__ASM_ALL_CURVES
100
AcDbLine
 62
40
  6
CONTINUOUS
 10
8.2467774808
 20
4.3551234326
 11
8.2467774808
 21
4.2765984326
  0
LINE
  5
4B9
100
AcDbEntity
  8
03__ASM_ALL_CURVES
100
AcDbLine
 62
40
  6
CONTINUOUS
 10
8.0515724809
 20
5.2588814347
 11
8.0581162309
 21
5.2501564305
  0
LINE
  5
4BA
100
AcDbEntity
  8
03__ASM_ALL_CURVES
100
AcDbLine
 62
40
  6
CONTINUOUS
 10
8.0384849809
 20
5.2152564326
 11
8.0581162309
 21
5.1629064326
  0
ARC
  5
4BB
100
AcDbEntity
  8
0
100
AcDbCircle
 62
7
  6
CONTINUOUS
 10
3.9130462306
 20
4.4326584326
 40
0.094
100
AcDbArc
 50
90.0
 51
131.267427381
  0
ARC
  5
4BC
100
AcDbEntity
  8
0
100
AcDbCircle
 62
7
  6
CONTINUOUS
 10
3.9130462306
 20
4.0786584326
 40
0.094
100
AcDbArc
 50
228.732572619
 51
270.0
  0
CIRCLE
  5
4BD
100
AcDbEntity
  8
0
100
AcDbCircle
 62
7
  6
CONTINUOUS
 10
7.1310462306
 20
4.2556584326
 40
0.078
  0
ARC
  5
4BE
100
AcDbEntity
  8
0
100
AcDbCircle
 62
7
  6
CONTINUOUS
 10
3.6000462306
 20
4.0941584326
 40
0.0175
100
AcDbArc
 50
180.0
 51
360.0
  0
ARC
  5
4BF
100
AcDbEntity
  8
THREAD
100
AcDbCircle
 62
7
  6
CONTINUOUS
 10
6.3435406771
 20
3.7846584326
 40
0.013
100
AcDbArc
 50
29.9999999933
 51
90.0
  0
ARC
  5
4C0
100
AcDbEntity
  8
THREAD
100
AcDbCircle
 62
7
  6
CONTINUOUS
 10
6.3435406771
 20
4.7266584326
 40
0.013
100
AcDbArc
 50
270.0
 51
330.0000000082
  0
SPLINE
  5
4C1
100
AcDbEntity
  8
0
100
AcDbSpline
 62
7
  6
CONTINUOUS
 70
0
 71
3
 72
51
 73
47
 74
45
 42
0.0000001
 43
0.0000001
 44
0.0000000001
 12
0.0
 22
-0.2641587177
 32
-0.0259009887
 13
0.0
 23
-0.0268312025
 33
-0.2688140424
 40
0.0
 40
0.0
 40
0.0
 40
0.0
 40
0.0625
 40
0.09375
 40
0.109375
 40
0.125
 40
0.140625
 40
0.15625
 40
0.1875
 40
0.21875
 40
0.234375
 40
0.25
 40
0.265625
 40
0.28125
 40
0.3125
 40
0.34375
 40
0.359375
 40
0.375
 40
0.390625
 40
0.40625
 40
0.4375
 40
0.46875
 40
0.484375
 40
0.5
 40
0.515625
 40
0.53125
 40
0.5625
 40
0.59375
 40
0.609375
 40
0.625
 40
0.640625
 40
0.65625
 40
0.6875
 40
0.71875
 40
0.734375
 40
0.75
 40
0.765625
 40
0.78125
 40
0.8125
 40
0.84375
 40
0.859375
 40
0.875
 40
0.890625
 40
0.90625
 40
0.9375
 40
1.0
 40
1.0
 40
1.0
 40
1.0
 10
3.3680462306
 20
4.2556584326
 30
0.17
 10
3.3680462306
 20
4.250155126
 30
0.1694603961
 10
3.3680462306
 20
4.2419052412
 30
0.1686253672
 10
3.3680462306
 20
4.2322626125
 30
0.1677408473
 10
3.3680462306
 20
4.226777915
 30
0.1671072923
 10
3.3680462306
 20
4.2225933391
 30
0.1669908482
 10
3.3680462306
 20
4.2186802861
 30
0.1655035733
 10
3.3680462306
 20
4.2133672124
 30
0.1640014141
 10
3.3680462306
 20
4.2067645856
 30
0.1619442377
 10
3.3680462306
 20
4.2001266847
 30
0.160003878
 10
3.3680462306
 20
4.1948700495
 30
0.1583148122
 10
3.3680462306
 20
4.1907876812
 30
0.1573882571
 10
3.3680462306
 20
4.1872380375
 30
0.1551691136
 10
3.3680462306
 20
4.182318029
 30
0.1526637377
 10
3.3680462306
 20
4.1762398332
 30
0.1493623727
 10
3.3680462306
 20
4.1701083159
 30
0.1461727359
 10
3.3680462306
 20
4.165273622
 30
0.1434885947
 10
3.3680462306
 20
4.1614680344
 30
0.1418057472
 10
3.3680462306
 20
4.1583454556
 30
0.1388680821
 10
3.3680462306
 20
4.1539417365
 30
0.1353909677
 10
3.3680462306
 20
4.1485316716
 30
0.1308833259
 10
3.3680462306
 20
4.1430436213
 30
0.1264709638
 10
3.3680462306
 20
4.1387646788
 30
0.122841402
 10
3.3680462306
 20
4.1352677698
 30
0.1203610791
 10
3.3680462306
 20
4.1328659206
 30
0.1169631984
 10
3.3680462306
 20
4.1292791216
 30
0.1127544276
 10
3.3680462306
 20
4.1249404732
 30
0.107374333
 10
3.3680462306
 20
4.1205028402
 30
0.102068592
 10
3.3680462306
 20
4.1170744167
 30
0.0977408554
 10
3.3680462306
 20
4.1141974411
 30
0.094699872
 10
3.3680462306
 20
4.112482256
 30
0.0908811844
 10
3.3680462306
 20
4.1097875001
 30
0.0860621129
 10
3.3680462306
 20
4.1065733973
 30
0.0799386946
 10
3.3680462306
 20
4.1032517294
 30
0.0738729521
 10
3.3680462306
 20
4.1007290775
 30
0.0689615992
 10
3.3680462306
 20
4.0984975805
 30
0.0654197557
 10
3.3680462306
 20
4.0975567747
 30
0.0613406071
 10
3.3680462306
 20
4.0958493723
 30
0.0560900675
 10
3.3680462306
 20
4.0938858506
 30
0.0494577164
 10
3.3680462306
 20
4.0918056473
 30
0.0428666652
 10
3.3680462306
 20
4.0902849356
 30
0.0375500457
 10
3.3680462306
 20
4.0887840577
 30
0.0336691369
 10
3.3680462306
 20
4.0886528309
 30
0.0293838939
 10
3.3680462306
 20
4.0879999774
 30
0.0238113128
 10
3.3680462306
 20
4.087081492
 30
0.0139931663
 10
3.3680462306
 20
4.086217416
 30
0.0056002851
 10
3.3680462306
 20
4.0856584326
 30
-0.0000000074
 11
3.3680462306
 21
4.2556584326
 31
0.17
 11
3.3680462306
 21
4.2391485127
 31
0.1683811882
 11
3.3680462306
 21
4.2308935528
 31
0.1675717823
 11
3.3680462306
 21
4.2267660729
 31
0.1671670794
 11
3.3680462306
 21
4.2226385929
 31
0.1667623764
 11
3.3680462306
 21
4.2186683274
 31
0.1655636826
 11
3.3680462306
 21
4.2146980618
 31
0.1643649887
 11
3.3680462306
 21
4.2067575308
 31
0.1619676011
 11
3.3680462306
 21
4.1988169997
 31
0.1595702134
 11
3.3680462306
 21
4.1948467342
 31
0.1583715196
 11
3.3680462306
 21
4.1908764686
 31
0.1571728257
 11
3.3680462306
 21
4.1872146437
 31
0.1552257989
 11
3.3680462306
 21
4.1835528188
 31
0.153278772
 11
3.3680462306
 21
4.1762291689
 31
0.1493847183
 11
3.3680462306
 21
4.1689055191
 31
0.1454906646
 11
3.3680462306
 21
4.1652436941
 31
0.1435436378
 11
3.3680462306
 21
4.1615818692
 31
0.1415966109
 11
3.3680462306
 21
4.1583154205
 31
0.1389230537
 11
3.3680462306
 21
4.1550489719
 31
0.1362494964
 11
3.3680462306
 21
4.1485160745
 31
0.1309023819
 11
3.3680462306
 21
4.1419831772
 31
0.1255552673
 11
3.3680462306
 21
4.1387167285
 31
0.1228817101
 11
3.3680462306
 21
4.1354502798
 31
0.1202081528
 11
3.3680462306
 21
4.1328178789
 31
0.1170034155
 11
3.3680462306
 21
4.1301854781
 31
0.1137986783
 11
3.3680462306
 21
4.1249206763
 31
0.1073892037
 11
3.3680462306
 21
4.1196558746
 31
0.1009797292
 11
3.3680462306
 21
4.1170234737
 31
0.0977749919
 11
3.3680462306
 21
4.1143910728
 31
0.0945702546
 11
3.3680462306
 21
4.1124312757
 31
0.0909152484
 11
3.3680462306
 21
4.1104714785
 31
0.0872602422
 11
3.3680462306
 21
4.1065518843
 31
0.0799502297
 11
3.3680462306
 21
4.10263229
 31
0.0726402173
 11
3.3680462306
 21
4.1006724928
 31
0.0689852111
 11
3.3680462306
 21
4.0987126957
 31
0.0653302049
 11
3.3680462306
 21
4.0975001503
 31
0.0613641477
 11
3.3680462306
 21
4.096287605
 31
0.0573980906
 11
3.3680462306
 21
4.0938625143
 31
0.0494659764
 11
3.3680462306
 21
4.0914374236
 31
0.0415338621
 11
3.3680462306
 21
4.0902248783
 31
0.037567805
 11
3.3680462306
 21
4.0890123329
 31
0.0336017479
 11
3.3680462306
 21
4.0885930954
 31
0.0294015285
 11
3.3680462306
 21
4.0881738578
 31
0.025201309
 11
3.3680462306
 21
4.0873353828
 31
0.0168008702
 11
3.3680462306
 21
4.0856584326
 31
-0.0000000074
  0
SPLINE
  5
4C2
100
AcDbEntity
  8
0
100
AcDbSpline
 62
7
  6
CONTINUOUS
 70
0
 71
3
 72
51
 73
47
 74
45
 42
0.0000001
 43
0.0000001
 44
0.0000000001
 12
0.0
 22
-0.0259009887
 32
0.2641587177
 13
0.0
 23
-0.2688140424
 33
0.0268312025
 40
0.0
 40
0.0
 40
0.0
 40
0.0
 40
0.0625
 40
0.09375
 40
0.109375
 40
0.125
 40
0.140625
 40
0.15625
 40
0.1875
 40
0.21875
 40
0.234375
 40
0.25
 40
0.265625
 40
0.28125
 40
0.3125
 40
0.34375
 40
0.359375
 40
0.375
 40
0.390625
 40
0.40625
 40
0.4375
 40
0.46875
 40
0.484375
 40
0.5
 40
0.515625
 40
0.53125
 40
0.5625
 40
0.59375
 40
0.609375
 40
0.625
 40
0.640625
 40
0.65625
 40
0.6875
 40
0.71875
 40
0.734375
 40
0.75
 40
0.765625
 40
0.78125
 40
0.8125
 40
0.84375
 40
0.859375
 40
0.875
 40
0.890625
 40
0.90625
 40
0.9375
 40
1.0
 40
1.0
 40
1.0
 40
1.0
 10
3.3680462306
 20
4.4256584326
 30
0.0
 10
3.3680462306
 20
4.4251188287
 30
0.0055033066
 10
3.3680462306
 20
4.4242837998
 30
0.0137531914
 10
3.3680462306
 20
4.4233992799
 30
0.0233958201
 10
3.3680462306
 20
4.4227657249
 30
0.0288805176
 10
3.3680462306
 20
4.4226492808
 30
0.0330650935
 10
3.3680462306
 20
4.4211620059
 30
0.0369781465
 10
3.3680462306
 20
4.4196598467
 30
0.0422912202
 10
3.3680462306
 20
4.4176026703
 30
0.048893847
 10
3.3680462306
 20
4.4156623106
 30
0.0555317479
 10
3.3680462306
 20
4.4139732447
 30
0.0607883831
 10
3.3680462306
 20
4.4130466897
 30
0.0648707514
 10
3.3680462306
 20
4.4108275462
 30
0.0684203951
 10
3.3680462306
 20
4.4083221703
 30
0.0733404036
 10
3.3680462306
 20
4.4050208052
 30
0.0794185993
 10
3.3680462306
 20
4.4018311685
 30
0.0855501167
 10
3.3680462306
 20
4.3991470273
 30
0.0903848106
 10
3.3680462306
 20
4.3974641798
 30
0.0941903982
 10
3.3680462306
 20
4.3945265147
 30
0.0973129769
 10
3.3680462306
 20
4.3910494003
 30
0.1017166961
 10
3.3680462306
 20
4.3865417585
 30
0.107126761
 10
3.3680462306
 20
4.3821293964
 30
0.1126148113
 10
3.3680462306
 20
4.3784998346
 30
0.1168937538
 10
3.3680462306
 20
4.3760195117
 30
0.1203906628
 10
3.3680462306
 20
4.372621631
 30
0.122792512
 10
3.3680462306
 20
4.3684128602
 30
0.126379311
 10
3.3680462306
 20
4.3630327656
 30
0.1307179594
 10
3.3680462306
 20
4.3577270246
 30
0.1351555924
 10
3.3680462306
 20
4.353399288
 30
0.1385840159
 10
3.3680462306
 20
4.3503583046
 30
0.1414609915
 10
3.3680462306
 20
4.346539617
 30
0.1431761766
 10
3.3680462306
 20
4.3417205455
 30
0.1458709325
 10
3.3680462306
 20
4.3355971272
 30
0.1490850353
 10
3.3680462306
 20
4.3295313847
 30
0.1524067032
 10
3.3680462306
 20
4.3246200318
 30
0.1549293551
 10
3.3680462306
 20
4.3210781883
 30
0.1571608521
 10
3.3680462306
 20
4.3169990397
 30
0.1581016579
 10
3.3680462306
 20
4.3117485001
 30
0.1598090603
 10
3.3680462306
 20
4.305116149
 30
0.161772582
 10
3.3680462306
 20
4.2985250978
 30
0.1638527853
 10
3.3680462306
 20
4.2932084783
 30
0.165373497
 10
3.3680462306
 20
4.2893275695
 30
0.1668743749
 10
3.3680462306
 20
4.2850423265
 30
0.1670056017
 10
3.3680462306
 20
4.2794697454
 30
0.1676584552
 10
3.3680462306
 20
4.2696515989
 30
0.1685769406
 10
3.3680462306
 20
4.2612587177
 30
0.1694410166
 10
3.3680462306
 20
4.2556584252
 30
0.17
 11
3.3680462306
 21
4.4256584326
 31
0.0
 11
3.3680462306
 21
4.4240396208
 31
0.0165099199
 11
3.3680462306
 21
4.4232302149
 31
0.0247648798
 11
3.3680462306
 21
4.422825512
 31
0.0288923597
 11
3.3680462306
 21
4.422420809
 31
0.0330198397
 11
3.3680462306
 21
4.4212221152
 31
0.0369901052
 11
3.3680462306
 21
4.4200234213
 31
0.0409603708
 11
3.3680462306
 21
4.4176260337
 31
0.0489009018
 11
3.3680462306
 21
4.415228646
 31
0.0568414329
 11
3.3680462306
 21
4.4140299521
 31
0.0608116984
 11
3.3680462306
 21
4.4128312583
 31
0.064781964
 11
3.3680462306
 21
4.4108842315
 31
0.0684437889
 11
3.3680462306
 21
4.4089372046
 31
0.0721056138
 11
3.3680462306
 21
4.4050431509
 31
0.0794292637
 11
3.3680462306
 21
4.4011490972
 31
0.0867529135
 11
3.3680462306
 21
4.3992020704
 31
0.0904147384
 11
3.3680462306
 21
4.3972550435
 31
0.0940765634
 11
3.3680462306
 21
4.3945814863
 31
0.0973430121
 11
3.3680462306
 21
4.391907929
 31
0.1006094607
 11
3.3680462306
 21
4.3865608145
 31
0.1071423581
 11
3.3680462306
 21
4.3812136999
 31
0.1136752554
 11
3.3680462306
 21
4.3785401427
 31
0.1169417041
 11
3.3680462306
 21
4.3758665854
 31
0.1202081528
 11
3.3680462306
 21
4.3726618481
 31
0.1228405537
 11
3.3680462306
 21
4.3694571109
 31
0.1254729545
 11
3.3680462306
 21
4.3630476363
 31
0.1307377563
 11
3.3680462306
 21
4.3566381618
 31
0.136002558
 11
3.3680462306
 21
4.3534334245
 31
0.1386349589
 11
3.3680462306
 21
4.3502286872
 31
0.1412673598
 11
3.3680462306
 21
4.346573681
 31
0.1432271569
 11
3.3680462306
 21
4.3429186748
 31
0.1451869541
 11
3.3680462306
 21
4.3356086623
 31
0.1491065483
 11
3.3680462306
 21
4.3282986499
 31
0.1530261426
 11
3.3680462306
 21
4.3246436437
 31
0.1549859398
 11
3.3680462306
 21
4.3209886374
 31
0.1569457369
 11
3.3680462306
 21
4.3170225803
 31
0.1581582823
 11
3.3680462306
 21
4.3130565232
 31
0.1593708276
 11
3.3680462306
 21
4.305124409
 31
0.1617959183
 11
3.3680462306
 21
4.2971922947
 31
0.164221009
 11
3.3680462306
 21
4.2932262376
 31
0.1654335543
 11
3.3680462306
 21
4.2892601805
 31
0.1666460997
 11
3.3680462306
 21
4.285059961
 31
0.1670653372
 11
3.3680462306
 21
4.2808597416
 31
0.1674845748
 11
3.3680462306
 21
4.2724593028
 31
0.1683230498
 11
3.3680462306
 21
4.2556584252
 31
0.17
  0
SPLINE
  5
4C3
100
AcDbEntity
  8
0
100
AcDbSpline
 62
7
  6
CONTINUOUS
 70
0
 71
3
 72
20
 73
16
 74
14
 42
0.0000001
 43
0.0000001
 44
0.0000000001
 12
0.0
 22
0.0416605862
 32
0.0
 13
0.0
 23
-0.0416605862
 33
0.0
 40
0.0
 40
0.0
 40
0.0
 40
0.0
 40
0.0489307848
 40
0.1062135912
 40
0.175871992
 40
0.2580136346
 40
0.3503828832
 40
0.4493672053
 40
0.5506327947
 40
0.6496171168
 40
0.7419863654
 40
0.824128008
 40
0.8937864088
 40
0.9510692152
 40
1.0
 40
1.0
 40
1.0
 40
1.0
 10
3.6175462306
 20
4.3317820014
 30
0.0
 10
3.6175462306
 20
4.3324614965
 30
0.0
 10
3.6171246967
 20
4.3339475075
 30
0.0
 10
3.6154894289
 20
4.3358259348
 30
0.0
 10
3.6130375084
 20
4.3374249351
 30
0.0
 10
3.609878276
 20
4.3386996862
 30
0.0
 10
3.6061751824
 20
4.339591674
 30
0.0
 10
3.6021282734
 20
4.3400509117
 30
0.0
 10
3.5979641879
 20
4.3400509117
 30
0.0
 10
3.5939172789
 20
4.339591674
 30
0.0
 10
3.5902141853
 20
4.3386996862
 30
0.0
 10
3.5870549529
 20
4.3374249351
 30
0.0
 10
3.5846030324
 20
4.3358259348
 30
0.0
 10
3.5829677646
 20
4.3339475075
 30
0.0
 10
3.5825462306
 20
4.3324614965
 30
0.0
 10
3.5825462306
 20
4.3317820014
 30
0.0
 11
3.6175462306
 21
4.3317820014
 31
0.0
 11
3.6170377125
 21
4.3337560407
 31
0.0
 11
3.6155417111
 21
4.335615356
 31
0.0
 11
3.6131451687
 21
4.3372518906
 31
0.0
 11
3.6099873637
 21
4.3385705352
 31
0.0
 11
3.6062518162
 21
4.3394946549
 31
0.0
 11
3.6021556226
 21
4.3399705432
 31
0.0
 11
3.5979368387
 21
4.3399705432
 31
0.0
 11
3.5938406451
 21
4.3394946549
 31
0.0
 11
3.5901050976
 21
4.3385705352
 31
0.0
 11
3.5869472926
 21
4.3372518906
 31
0.0
 11
3.5845507502
 21
4.335615356
 31
0.0
 11
3.5830547488
 21
4.3337560407
 31
0.0
 11
3.5825462306
 21
4.3317820014
 31
0.0
  0
SPLINE
  5
4C4
100
AcDbEntity
  8
0
100
AcDbSpline
 62
7
  6
CONTINUOUS
 70
0
 71
3
 72
15
 73
11
 74
9
 42
0.0000001
 43
0.0000001
 44
0.0000000001
 12
0.0
 22
0.1099409465
 32
0.0
 13
0.0
 23
-0.1099409465
 33
0.0
 40
0.0
 40
0.0
 40
0.0
 40
0.0
 40
0.125
 40
0.25
 40
0.375
 40
0.5
 40
0.625
 40
0.75
 40
0.875
 40
1.0
 40
1.0
 40
1.0
 40
1.0
 10
7.4020462306
 20
4.6726584326
 30
0.0
 10
7.4020462306
 20
4.6772393054
 30
0.0
 10
7.4002238462
 20
4.6864010509
 30
0.0
 10
7.3924392782
 20
4.6980514802
 30
0.0
 10
7.380788849
 20
4.7058360481
 30
0.0
 10
7.3670462306
 20
4.7085696248
 30
0.0
 10
7.3533036123
 20
4.7058360481
 30
0.0
 10
7.3416531831
 20
4.6980514802
 30
0.0
 10
7.3338686151
 20
4.6864010509
 30
0.0
 10
7.3320462306
 20
4.6772393054
 30
0.0
 10
7.3320462306
 20
4.6726584326
 30
0.0
 11
7.4020462306
 21
4.6726584326
 31
0.0
 11
7.3993820143
 21
4.6860523527
 31
0.0
 11
7.391794968
 21
4.6974071699
 31
0.0
 11
7.3804401508
 21
4.7049942162
 31
0.0
 11
7.3670462306
 21
4.7076584326
 31
0.0
 11
7.3536523105
 21
4.7049942162
 31
0.0
 11
7.3422974933
 21
4.6974071699
 31
0.0
 11
7.334710447
 21
4.6860523527
 31
0.0
 11
7.3320462306
 21
4.6726584326
 31
0.0
  0
SPLINE
  5
4C5
100
AcDbEntity
  8
0
100
AcDbSpline
 62
7
  6
CONTINUOUS
 70
0
 71
3
 72
15
 73
11
 74
9
 42
0.0000001
 43
0.0000001
 44
0.0000000001
 12
0.0
 22
-0.1099409465
 32
0.0
 13
0.0
 23
0.1099409465
 33
0.0
 40
0.0
 40
0.0
 40
0.0
 40
0.0
 40
0.125
 40
0.25
 40
0.375
 40
0.5
 40
0.625
 40
0.75
 40
0.875
 40
1.0
 40
1.0
 40
1.0
 40
1.0
 10
7.4020462306
 20
3.8386584326
 30
0.0
 10
7.4020462306
 20
3.8340775598
 30
0.0
 10
7.4002238462
 20
3.8249158143
 30
0.0
 10
7.3924392782
 20
3.813265385
 30
0.0
 10
7.380788849
 20
3.8054808171
 30
0.0
 10
7.3670462306
 20
3.8027472403
 30
0.0
 10
7.3533036123
 20
3.8054808171
 30
0.0
 10
7.3416531831
 20
3.813265385
 30
0.0
 10
7.3338686151
 20
3.8249158143
 30
0.0
 10
7.3320462306
 20
3.8340775598
 30
0.0
 10
7.3320462306
 20
3.8386584326
 30
0.0
 11
7.4020462306
 21
3.8386584326
 31
0.0
 11
7.3993820143
 21
3.8252645125
 31
0.0
 11
7.391794968
 21
3.8139096953
 31
0.0
 11
7.3804401508
 21
3.806322649
 31
0.0
 11
7.3670462306
 21
3.8036584326
 31
0.0
 11
7.3536523105
 21
3.806322649
 31
0.0
 11
7.3422974933
 21
3.8139096953
 31
0.0
 11
7.334710447
 21
3.8252645125
 31
0.0
 11
7.3320462306
 21
3.8386584326
 31
0.0
  0
SPLINE
  5
4C6
100
AcDbEntity
  8
0
100
AcDbSpline
 62
7
  6
CONTINUOUS
 70
0
 71
3
 72
14
 73
10
 74
8
 42
0.0000001
 43
0.0000001
 44
0.0000000001
 12
0.0
 22
0.0916172274
 32
0.0
 13
-0.045846371
 23
-0.079336773
 33
0.0
 40
0.0
 40
0.0
 40
0.0
 40
0.0
 40
0.1500003733
 40
0.3000007465
 40
0.4500011198
 40
0.6000014931
 40
0.7500018663
 40
0.9000022396
 40
1.0
 40
1.0
 40
1.0
 40
1.0
 10
6.2800462306
 20
4.7486584326
 30
0.0
 10
6.2800462306
 20
4.7532393054
 30
0.0
 10
6.2782238462
 20
4.7624010509
 30
0.0
 10
6.2704392782
 20
4.7740514802
 30
0.0
 10
6.258788849
 20
4.7818360481
 30
0.0
 10
6.2450462306
 20
4.7845696248
 30
0.0
 10
6.2313036123
 20
4.7818360481
 30
0.0
 10
6.2209477397
 20
4.7749164752
 30
0.0
 10
6.2162650584
 20
4.7688020433
 30
0.0
 10
6.2147368802
 20
4.7661575434
 30
0.0
 11
6.2800462306
 21
4.7486584326
 31
0.0
 11
6.2773820143
 21
4.7620523527
 31
0.0
 11
6.269794968
 21
4.7734071699
 31
0.0
 11
6.2584401508
 21
4.7809942162
 31
0.0
 11
6.2450462306
 21
4.7836584326
 31
0.0
 11
6.2316523105
 21
4.7809942162
 31
0.0
 11
6.2202974933
 21
4.7734071699
 31
0.0
 11
6.2147368802
 21
4.7661575434
 31
0.0
  0
SPLINE
  5
4C7
100
AcDbEntity
  8
0
100
AcDbSpline
 62
7
  6
CONTINUOUS
 70
0
 71
3
 72
9
 73
5
 74
3
 42
0.0000001
 43
0.0000001
 44
0.0000000001
 12
-0.0091694111
 22
-0.0158675915
 32
0.0
 13
0.0
 23
-0.0183237191
 33
0.0
 40
0.0
 40
0.0
 40
0.0
 40
0.0
 40
0.2500093315
 40
1.0
 40
1.0
 40
1.0
 40
1.0
 10
6.2147368802
 20
4.7661575434
 30
0.0
 10
6.2139727341
 20
4.7648351948
 30
0.0
 10
6.2112611688
 20
4.7593472117
 30
0.0
 10
6.2100462306
 20
4.7532393054
 30
0.0
 10
6.2100462306
 20
4.7486584326
 30
0.0
 11
6.2147368802
 21
4.7661575434
 31
0.0
 11
6.212710447
 21
4.7620523527
 31
0.0
 11
6.2100462306
 21
4.7486584326
 31
0.0
  0
SPLINE
  5
4C8
100
AcDbEntity
  8
0
100
AcDbSpline
 62
7
  6
CONTINUOUS
 70
0
 71
3
 72
14
 73
10
 74
8
 42
0.0000001
 43
0.0000001
 44
0.0000000001
 12
0.0
 22
-0.0916172274
 32
0.0
 13
-0.045846371
 23
0.079336773
 33
0.0
 40
0.0
 40
0.0
 40
0.0
 40
0.0
 40
0.1500003733
 40
0.3000007465
 40
0.4500011198
 40
0.6000014931
 40
0.7500018663
 40
0.9000022396
 40
1.0
 40
1.0
 40
1.0
 40
1.0
 10
6.2800462306
 20
3.7626584326
 30
0.0
 10
6.2800462306
 20
3.7580775598
 30
0.0
 10
6.2782238462
 20
3.7489158143
 30
0.0
 10
6.2704392782
 20
3.737265385
 30
0.0
 10
6.258788849
 20
3.7294808171
 30
0.0
 10
6.2450462306
 20
3.7267472403
 30
0.0
 10
6.2313036123
 20
3.7294808171
 30
0.0
 10
6.2209477397
 20
3.73640039
 30
0.0
 10
6.2162650584
 20
3.7425148219
 30
0.0
 10
6.2147368802
 20
3.7451593218
 30
0.0
 11
6.2800462306
 21
3.7626584326
 31
0.0
 11
6.2773820143
 21
3.7492645125
 31
0.0
 11
6.269794968
 21
3.7379096953
 31
0.0
 11
6.2584401508
 21
3.730322649
 31
0.0
 11
6.2450462306
 21
3.7276584326
 31
0.0
 11
6.2316523105
 21
3.730322649
 31
0.0
 11
6.2202974933
 21
3.7379096953
 31
0.0
 11
6.2147368802
 21
3.7451593218
 31
0.0
  0
SPLINE
  5
4C9
100
AcDbEntity
  8
0
100
AcDbSpline
 62
7
  6
CONTINUOUS
 70
0
 71
3
 72
9
 73
5
 74
3
 42
0.0000001
 43
0.0000001
 44
0.0000000001
 12
-0.0091694111
 22
0.0158675915
 32
0.0
 13
0.0
 23
0.0183237191
 33
0.0
 40
0.0
 40
0.0
 40
0.0
 40
0.0
 40
0.2500093315
 40
1.0
 40
1.0
 40
1.0
 40
1.0
 10
6.2147368802
 20
3.7451593218
 30
0.0
 10
6.2139727341
 20
3.7464816704
 30
0.0
 10
6.2112611688
 20
3.7519696535
 30
0.0
 10
6.2100462306
 20
3.7580775598
 30
0.0
 10
6.2100462306
 20
3.7626584326
 30
0.0
 11
6.2147368802
 21
3.7451593218
 31
0.0
 11
6.212710447
 21
3.7492645125
 31
0.0
 11
6.2100462306
 21
3.7626584326
 31
0.0
  0
SPLINE
  5
4CA
100
AcDbEntity
  8
0
100
AcDbSpline
 62
7
  6
CONTINUOUS
 70
0
 71
3
 72
15
 73
11
 74
9
 42
0.0000001
 43
0.0000001
 44
0.0000000001
 12
0.0
 22
0.1099409465
 32
0.0
 13
-0.0
 23
-0.1099409465
 33
0.0
 40
0.0
 40
0.0
 40
0.0
 40
0.0
 40
0.125
 40
0.25
 40
0.375
 40
0.5
 40
0.625
 40
0.75
 40
0.875
 40
1.0
 40
1.0
 40
1.0
 40
1.0
 10
5.6580462306
 20
4.7731584326
 30
0.0
 10
5.6580462306
 20
4.7777393054
 30
0.0
 10
5.6562238462
 20
4.7869010509
 30
0.0
 10
5.6484392782
 20
4.7985514802
 30
0.0
 10
5.636788849
 20
4.8063360481
 30
0.0
 10
5.6230462306
 20
4.8090696248
 30
0.0
 10
5.6093036123
 20
4.8063360481
 30
0.0
 10
5.5976531831
 20
4.7985514802
 30
0.0
 10
5.5898686151
 20
4.7869010509
 30
0.0
 10
5.5880462306
 20
4.7777393054
 30
0.0
 10
5.5880462306
 20
4.7731584326
 30
0.0
 11
5.6580462306
 21
4.7731584326
 31
0.0
 11
5.6553820143
 21
4.7865523527
 31
0.0
 11
5.647794968
 21
4.7979071699
 31
0.0
 11
5.6364401508
 21
4.8054942162
 31
0.0
 11
5.6230462306
 21
4.8081584326
 31
0.0
 11
5.6096523105
 21
4.8054942162
 31
0.0
 11
5.5982974933
 21
4.7979071699
 31
0.0
 11
5.590710447
 21
4.7865523527
 31
0.0
 11
5.5880462306
 21
4.7731584326
 31
0.0
  0
SPLINE
  5
4CB
100
AcDbEntity
  8
0
100
AcDbSpline
 62
7
  6
CONTINUOUS
 70
0
 71
3
 72
15
 73
11
 74
9
 42
0.0000001
 43
0.0000001
 44
0.0000000001
 12
0.0
 22
-0.1099409465
 32
0.0
 13
-0.0
 23
0.1099409465
 33
0.0
 40
0.0
 40
0.0
 40
0.0
 40
0.0
 40
0.125
 40
0.25
 40
0.375
 40
0.5
 40
0.625
 40
0.75
 40
0.875
 40
1.0
 40
1.0
 40
1.0
 40
1.0
 10
5.6580462306
 20
3.7381584326
 30
0.0
 10
5.6580462306
 20
3.7335775598
 30
0.0
 10
5.6562238462
 20
3.7244158143
 30
0.0
 10
5.6484392782
 20
3.712765385
 30
0.0
 10
5.636788849
 20
3.7049808171
 30
0.0
 10
5.6230462306
 20
3.7022472403
 30
0.0
 10
5.6093036123
 20
3.7049808171
 30
0.0
 10
5.5976531831
 20
3.712765385
 30
0.0
 10
5.5898686151
 20
3.7244158143
 30
0.0
 10
5.5880462306
 20
3.7335775598
 30
0.0
 10
5.5880462306
 20
3.7381584326
 30
0.0
 11
5.6580462306
 21
3.7381584326
 31
0.0
 11
5.6553820143
 21
3.7247645125
 31
0.0
 11
5.647794968
 21
3.7134096953
 31
0.0
 11
5.6364401508
 21
3.705822649
 31
0.0
 11
5.6230462306
 21
3.7031584326
 31
0.0
 11
5.6096523105
 21
3.705822649
 31
0.0
 11
5.5982974933
 21
3.7134096953
 31
0.0
 11
5.590710447
 21
3.7247645125
 31
0.0
 11
5.5880462306
 21
3.7381584326
 31
0.0
  0
SPLINE
  5
4CC
100
AcDbEntity
  8
0
100
AcDbSpline
 62
7
  6
CONTINUOUS
 70
0
 71
3
 72
16
 73
12
 74
10
 42
0.0000001
 43
0.0000001
 44
0.0000000001
 12
0.0906480335
 22
0.2719441006
 32
0.0
 13
-0.0906480335
 23
0.2719441006
 33
0.0
 40
0.0
 40
0.0
 40
0.0
 40
0.0
 40
0.1184548733
 40
0.230565332
 40
0.3393089466
 40
0.4465959239
 40
0.5535015371
 40
0.6607803311
 40
0.769505023
 40
0.8815660643
 40
1.0
 40
1.0
 40
1.0
 40
1.0
 10
4.1011748203
 20
3.9746584326
 30
0.0
 10
4.104754054
 20
3.9853961339
 30
0.0
 10
4.1111851407
 20
4.0064821808
 30
0.0
 10
4.1187045704
 20
4.0380432356
 30
0.0
 10
4.1237927978
 20
4.0690120537
 30
0.0
 10
4.12637966
 20
4.0997951233
 30
0.0
 10
4.1263784717
 20
4.1305489243
 30
0.0
 10
4.1237896311
 20
4.1613292157
 30
0.0
 10
4.1187008963
 20
4.1922905175
 30
0.0
 10
4.1111826396
 20
4.2238430491
 30
0.0
 10
4.1047534214
 20
4.2449226292
 30
0.0
 10
4.1011748203
 20
4.2556584326
 30
0.0
 11
4.1011748203
 21
3.9746584326
 31
0.0
 11
4.1110132899
 21
4.0071574605
 31
0.0
 11
4.1184004603
 21
4.0384338509
 31
0.0
 11
4.1234050778
 21
4.0692013034
 31
0.0
 11
4.1259520431
 21
4.0998499246
 31
0.0
 11
4.1259508729
 21
4.1304948731
 31
0.0
 11
4.1234019328
 21
4.1611409762
 31
0.0
 11
4.1183964937
 21
4.1919027994
 31
0.0
 11
4.1110117223
 21
4.223165201
 31
0.0
 11
4.1011748203
 21
4.2556584326
 31
0.0
  0
SPLINE
  5
4CD
100
AcDbEntity
  8
0
100
AcDbSpline
 62
7
  6
CONTINUOUS
 70
0
 71
3
 72
17
 73
13
 74
11
 42
0.0000001
 43
0.0000001
 44
0.0000000001
 12
-0.1487434696
 22
0.2576312467
 32
0.0
 13
0.1487434696
 23
0.2576312467
 33
0.0
 40
0.0
 40
0.0
 40
0.0
 40
0.0
 40
0.1169386465
 40
0.2216811606
 40
0.3184580982
 40
0.4103908543
 40
0.5000417254
 40
0.5896883004
 40
0.6816074548
 40
0.7783545182
 40
0.8830694657
 40
1.0
 40
1.0
 40
1.0
 40
1.0
 10
3.9995170819
 20
3.9746584326
 30
0.0
 10
3.9937191286
 20
3.9847007824
 30
0.0
 10
3.983379301
 20
4.0041306298
 30
0.0
 10
3.9710056776
 20
4.0332327074
 30
0.0
 10
3.9623522309
 20
4.0610742701
 30
0.0
 10
3.9571951262
 20
4.0882575897
 30
0.0
 10
3.9554782459
 20
4.1151704746
 30
0.0
 10
3.9571981315
 20
4.1420817994
 30
0.0
 10
3.9623568832
 20
4.16925994
 30
0.0
 10
3.971009735
 20
4.197094246
 30
0.0
 10
3.9833813224
 20
4.2261900857
 30
0.0
 10
3.9937195308
 20
4.2456167795
 30
0.0
 10
3.9995170819
 20
4.2556584326
 30
0.0
 11
3.9995170819
 21
3.9746584326
 31
0.0
 11
3.9832908505
 21
4.0054300896
 31
0.0
 11
3.971206094
 21
4.0341507262
 31
0.0
 11
3.9627534207
 21
4.0616717948
 31
0.0
 11
3.9577205354
 21
4.08855351
 31
0.0
 11
3.956046231
 21
4.1151708661
 31
0.0
 11
3.9577234733
 21
4.1417867566
 31
0.0
 11
3.96275812
 21
4.1686640253
 31
0.0
 11
3.971209735
 21
4.1961761219
 31
0.0
 11
3.9832918862
 21
4.2248889576
 31
0.0
 11
3.9995170819
 21
4.2556584326
 31
0.0
  0
SPLINE
  5
4CE
100
AcDbEntity
  8
0
100
AcDbSpline
 62
7
  6
CONTINUOUS
 70
0
 71
3
 72
16
 73
12
 74
10
 42
0.0000001
 43
0.0000001
 44
0.0000000001
 12
0.0906480335
 22
0.2719441006
 32
0.0
 13
-0.0906480335
 23
0.2719441006
 33
0.0
 40
0.0
 40
0.0
 40
0.0
 40
0.0
 40
0.1184548733
 40
0.230565332
 40
0.3393089466
 40
0.4465959239
 40
0.5535015371
 40
0.6607803311
 40
0.769505023
 40
0.8815660643
 40
1.0
 40
1.0
 40
1.0
 40
1.0
 10
4.1011748203
 20
4.2556584326
 30
0.0
 10
4.104754054
 20
4.2663961339
 30
0.0
 10
4.1111851407
 20
4.2874821808
 30
0.0
 10
4.1187045704
 20
4.3190432356
 30
0.0
 10
4.1237927978
 20
4.3500120537
 30
0.0
 10
4.12637966
 20
4.3807951233
 30
0.0
 10
4.1263784717
 20
4.4115489243
 30
0.0
 10
4.1237896311
 20
4.4423292157
 30
0.0
 10
4.1187008963
 20
4.4732905175
 30
0.0
 10
4.1111826396
 20
4.5048430491
 30
0.0
 10
4.1047534214
 20
4.5259226292
 30
0.0
 10
4.1011748203
 20
4.5366584326
 30
0.0
 11
4.1011748203
 21
4.2556584326
 31
0.0
 11
4.1110132899
 21
4.2881574605
 31
0.0
 11
4.1184004603
 21
4.3194338509
 31
0.0
 11
4.1234050778
 21
4.3502013034
 31
0.0
 11
4.1259520431
 21
4.3808499246
 31
0.0
 11
4.1259508729
 21
4.4114948731
 31
0.0
 11
4.1234019328
 21
4.4421409762
 31
0.0
 11
4.1183964937
 21
4.4729027994
 31
0.0
 11
4.1110117223
 21
4.504165201
 31
0.0
 11
4.1011748203
 21
4.5366584326
 31
0.0
  0
SPLINE
  5
4CF
100
AcDbEntity
  8
0
100
AcDbSpline
 62
7
  6
CONTINUOUS
 70
0
 71
3
 72
17
 73
13
 74
11
 42
0.0000001
 43
0.0000001
 44
0.0000000001
 12
-0.1487434696
 22
0.2576312467
 32
0.0
 13
0.1487434696
 23
0.2576312467
 33
0.0
 40
0.0
 40
0.0
 40
0.0
 40
0.0
 40
0.1169386465
 40
0.2216811606
 40
0.3184580982
 40
0.4103908543
 40
0.5000417254
 40
0.5896883004
 40
0.6816074548
 40
0.7783545182
 40
0.8830694657
 40
1.0
 40
1.0
 40
1.0
 40
1.0
 10
3.9995170819
 20
4.2556584326
 30
0.0
 10
3.9937191286
 20
4.2657007824
 30
0.0
 10
3.983379301
 20
4.2851306298
 30
0.0
 10
3.9710056776
 20
4.3142327074
 30
0.0
 10
3.9623522309
 20
4.3420742701
 30
0.0
 10
3.9571951262
 20
4.3692575897
 30
0.0
 10
3.9554782459
 20
4.3961704746
 30
0.0
 10
3.9571981315
 20
4.4230817994
 30
0.0
 10
3.9623568832
 20
4.45025994
 30
0.0
 10
3.971009735
 20
4.478094246
 30
0.0
 10
3.9833813224
 20
4.5071900857
 30
0.0
 10
3.9937195308
 20
4.5266167795
 30
0.0
 10
3.9995170819
 20
4.5366584326
 30
0.0
 11
3.9995170819
 21
4.2556584326
 31
0.0
 11
3.9832908505
 21
4.2864300896
 31
0.0
 11
3.971206094
 21
4.3151507262
 31
0.0
 11
3.9627534207
 21
4.3426717948
 31
0.0
 11
3.9577205354
 21
4.36955351
 31
0.0
 11
3.956046231
 21
4.3961708661
 31
0.0
 11
3.9577234733
 21
4.4227867566
 31
0.0
 11
3.96275812
 21
4.4496640253
 31
0.0
 11
3.971209735
 21
4.4771761219
 31
0.0
 11
3.9832918862
 21
4.5058889576
 31
0.0
 11
3.9995170819
 21
4.5366584326
 31
0.0
  0
SPLINE
  5
4D0
100
AcDbEntity
  8
0
100
AcDbSpline
 62
7
  6
CONTINUOUS
 70
0
 71
3
 72
14
 73
10
 74
8
 42
0.0000001
 43
0.0000001
 44
0.0000000001
 12
-0.1085512822
 22
0.0
 32
0.0
 13
0.000065013
 23
-0.1089659778
 33
0.0
 40
0.0
 40
0.0
 40
0.0
 40
0.0
 40
0.1593745727
 40
0.317530417
 40
0.4721659756
 40
0.6199410716
 40
0.7576302636
 40
0.8837923678
 40
1.0
 40
1.0
 40
1.0
 40
1.0
 10
7.1310462306
 20
4.052170151
 30
0.0
 10
7.1252794592
 20
4.052170151
 30
0.0
 10
7.1137598027
 20
4.0510714592
 30
0.0
 10
7.0972733236
 20
4.0462222781
 30
0.0
 10
7.0823861864
 20
4.0384962732
 30
0.0
 10
7.0698922773
 20
4.0284440601
 30
0.0
 10
7.0604413419
 20
4.0167714808
 30
0.0
 10
7.0544953453
 20
4.004204259
 30
0.0
 10
7.0530437125
 20
3.9954213911
 30
0.0
 10
7.0530462308
 20
3.9912004984
 30
0.0
 11
7.1310462306
 21
4.052170151
 31
0.0
 11
7.1138245556
 21
4.050522492
 31
0.0
 11
7.0973577771
 21
4.0456659392
 31
0.0
 11
7.0824755581
 21
4.037901559
 31
0.0
 11
7.0700212451
 21
4.0277916915
 31
0.0
 11
7.0607022831
 21
4.0161062315
 31
0.0
 11
7.0549737097
 21
4.0036668559
 31
0.0
 11
7.0530462308
 21
3.9912004984
 31
0.0
  0
SPLINE
  5
4D1
100
AcDbEntity
  8
0
100
AcDbSpline
 62
7
  6
CONTINUOUS
 70
0
 71
3
 72
14
 73
10
 74
8
 42
0.0000001
 43
0.0000001
 44
0.0000000001
 12
0.1085512822
 22
0.0
 32
0.0
 13
-0.0000650135
 23
0.1089659777
 33
0.0
 40
0.0
 40
0.0
 40
0.0
 40
0.0
 40
0.1593743022
 40
0.3175304632
 40
0.4721664883
 40
0.6199415784
 40
0.7576306237
 40
0.8837925255
 40
1.0
 40
1.0
 40
1.0
 40
1.0
 10
7.1310462306
 20
4.4591467142
 30
0.0
 10
7.1368129923
 20
4.4591467142
 30
0.0
 10
7.1483326503
 20
4.4602454042
 30
0.0
 10
7.1648191484
 20
4.4650945884
 30
0.0
 10
7.1797063088
 20
4.4728206119
 30
0.0
 10
7.1922002198
 20
4.482872841
 30
0.0
 10
7.2016511386
 20
4.4945454169
 30
0.0
 10
7.2075971202
 20
4.507112625
 30
0.0
 10
7.2090487488
 20
4.5158954798
 30
0.0
 10
7.2090462305
 20
4.5201163668
 30
0.0
 11
7.1310462306
 21
4.4591467142
 31
0.0
 11
7.1482678768
 21
4.4607943676
 31
0.0
 11
7.1647346889
 21
4.4656509279
 31
0.0
 11
7.17961695
 21
4.4734153369
 31
0.0
 11
7.1920712552
 21
4.4835252129
 31
0.0
 11
7.201390199
 21
4.4952106672
 31
0.0
 11
7.2071187566
 21
4.5076500258
 31
0.0
 11
7.2090462305
 21
4.5201163668
 31
0.0
  0
SPLINE
  5
4D2
100
AcDbEntity
  8
0
100
AcDbSpline
 62
7
  6
CONTINUOUS
 70
0
 71
3
 72
14
 73
10
 74
8
 42
0.0000001
 43
0.0000001
 44
0.0000000001
 12
0.0000650084
 22
0.1089659761
 32
0.0
 13
-0.1085512814
 23
0.0
 33
0.0
 40
0.0
 40
0.0
 40
0.0
 40
0.0
 40
0.1162090629
 40
0.2423729353
 40
0.3800625037
 40
0.527837677
 40
0.6824730623
 40
0.8406272501
 40
1.0
 40
1.0
 40
1.0
 40
1.0
 10
7.2090462305
 20
3.9912004983
 30
0.0
 10
7.2090487487
 20
3.995421443
 30
0.0
 10
7.2075970786
 20
4.0042044273
 30
0.0
 10
7.2016509626
 20
4.0167717404
 30
0.0
 10
7.1921999123
 20
4.0284443296
 30
0.0
 10
7.1797059453
 20
4.038496486
 30
0.0
 10
7.1648188304
 20
4.0462223941
 30
0.0
 10
7.1483324656
 20
4.0510714839
 30
0.0
 10
7.1368129361
 20
4.052170151
 30
0.0
 10
7.1310462306
 20
4.052170151
 30
0.0
 11
7.2090462305
 21
3.9912004983
 31
0.0
 11
7.2071187056
 21
4.0036670058
 31
0.0
 11
7.2013899935
 21
4.0161065287
 31
0.0
 11
7.1920709405
 21
4.0277919684
 31
0.0
 11
7.1796165697
 21
4.0379017777
 31
0.0
 11
7.1647343321
 21
4.0456660813
 31
0.0
 11
7.1482677104
 21
4.0505225298
 31
0.0
 11
7.1310462306
 21
4.052170151
 31
0.0
  0
SPLINE
  5
4D3
100
AcDbEntity
  8
0
100
AcDbSpline
 62
7
  6
CONTINUOUS
 70
0
 71
3
 72
10
 73
6
 74
4
 42
0.0000001
 43
0.0000001
 44
0.0000000001
 12
0.0333570006
 22
-0.0127080653
 32
0.0
 13
0.0355962634
 23
-0.0024341207
 33
0.0
 40
0.0
 40
0.0
 40
0.0
 40
0.0
 40
0.348613923
 40
0.8256599728
 40
1.0
 40
1.0
 40
1.0
 40
1.0
 10
7.0851828061
 20
4.0391502118
 30
0.0
 10
7.0890590443
 20
4.0376734756
 30
0.0
 10
7.0984897432
 20
4.0348457161
 30
0.0
 10
7.1102437175
 20
4.0328918808
 30
0.0
 10
7.1179628218
 20
4.032210026
 30
0.0
 10
7.1200314397
 20
4.0320685712
 30
0.0
 11
7.0851828061
 21
4.0391502118
 31
0.0
 11
7.0970716523
 21
4.0355020998
 31
0.0
 11
7.1138353607
 21
4.0326173401
 31
0.0
 11
7.1200314397
 21
4.0320685712
 31
0.0
  0
SPLINE
  5
4D4
100
AcDbEntity
  8
0
100
AcDbSpline
 62
7
  6
CONTINUOUS
 70
0
 71
3
 72
8
 73
4
 74
2
 42
0.0000001
 43
0.0000001
 44
0.0000000001
 12
0.0110002216
 22
-0.0007522101
 32
0.0
 13
0.0110190405
 23
0.0
 33
0.0
 40
0.0
 40
0.0
 40
0.0
 40
0.0
 40
1.0
 40
1.0
 40
1.0
 40
1.0
 10
7.1200314397
 20
4.0320685712
 30
0.0
 10
7.1236981802
 20
4.0318178345
 30
0.0
 10
7.1273732172
 20
4.0316960433
 30
0.0
 10
7.1310462306
 20
4.0316960433
 30
0.0
 11
7.1200314397
 21
4.0320685712
 31
0.0
 11
7.1310462306
 21
4.0316960433
 31
0.0
  0
SPLINE
  5
4D5
100
AcDbEntity
  8
0
100
AcDbSpline
 62
7
  6
CONTINUOUS
 70
0
 71
3
 72
8
 73
4
 74
2
 42
0.0000001
 43
0.0000001
 44
0.0000000001
 12
-0.011019109
 22
0.0
 32
0.0
 13
-0.0110003101
 23
-0.0007522215
 33
0.0
 40
0.0
 40
0.0
 40
0.0
 40
0.0
 40
1.0
 40
1.0
 40
1.0
 40
1.0
 10
7.1310462306
 20
4.4796208219
 30
0.0
 10
7.1273731943
 20
4.4796208219
 30
0.0
 10
7.1236981311
 20
4.4794990362
 30
0.0
 10
7.1200313611
 20
4.4792482957
 30
0.0
 11
7.1310462306
 21
4.4796208219
 31
0.0
 11
7.1200313611
 21
4.4792482957
 31
0.0
  0
SPLINE
  5
4D6
100
AcDbEntity
  8
0
100
AcDbSpline
 62
7
  6
CONTINUOUS
 70
0
 71
3
 72
10
 73
6
 74
4
 42
0.0000001
 43
0.0000001
 44
0.0000000001
 12
-0.035595147
 22
-0.002434062
 32
0.0
 13
-0.0333560381
 23
-0.0127071301
 33
0.0
 40
0.0
 40
0.0
 40
0.0
 40
0.0
 40
0.1752522369
 40
0.6526985817
 40
1.0
 40
1.0
 40
1.0
 40
1.0
 10
7.1200313611
 20
4.4792482957
 30
0.0
 10
7.1179519847
 20
4.4791061041
 30
0.0
 10
7.1102176168
 20
4.4784220853
 30
0.0
 10
7.0984644585
 20
4.4764650187
 30
0.0
 10
7.0890453579
 20
4.4736381104
 30
0.0
 10
7.0851838248
 20
4.4721670423
 30
0.0
 11
7.1200313611
 21
4.4792482957
 31
0.0
 11
7.1138031149
 21
4.4786960028
 31
0.0
 11
7.0970267662
 21
4.4758038694
 31
0.0
 11
7.0851838248
 21
4.4721670423
 31
0.0
  0
SPLINE
  5
4D7
100
AcDbEntity
  8
0
100
AcDbSpline
 62
7
  6
CONTINUOUS
 70
0
 71
3
 72
8
 73
4
 74
2
 42
0.0000001
 43
0.0000001
 44
0.0000000001
 12
0.0130227794
 22
0.0
 32
0.0
 13
0.0129886587
 23
0.0010561175
 33
0.0
 40
0.0
 40
0.0
 40
0.0
 40
0.0
 40
1.0
 40
1.0
 40
1.0
 40
1.0
 10
7.1310462306
 20
4.0316960433
 30
0.0
 10
7.1353871571
 20
4.0316960433
 30
0.0
 10
7.1397309146
 20
4.0318661458
 30
0.0
 10
7.1440604675
 20
4.0322181849
 30
0.0
 11
7.1310462306
 21
4.0316960433
 31
0.0
 11
7.1440604675
 21
4.0322181849
 31
0.0
  0
SPLINE
  5
4D8
100
AcDbEntity
  8
0
100
AcDbSpline
 62
7
  6
CONTINUOUS
 70
0
 71
3
 72
10
 73
6
 74
4
 42
0.0000001
 43
0.0000001
 44
0.0000000001
 12
0.0335642695
 22
0.0027291356
 32
0.0
 13
0.0314817171
 23
0.0119931518
 33
0.0
 40
0.0
 40
0.0
 40
0.0
 40
0.0
 40
0.1261393235
 40
0.6319840758
 40
1.0
 40
1.0
 40
1.0
 40
1.0
 10
7.1440604675
 20
4.0322181849
 30
0.0
 10
7.1454717256
 20
4.0323329353
 30
0.0
 10
7.1525348587
 20
4.0330047095
 30
0.0
 10
7.1636276032
 20
4.0348517564
 30
0.0
 10
7.1730468338
 20
4.0376786465
 30
0.0
 10
7.1769087582
 20
4.0391498701
 30
0.0
 11
7.1440604675
 21
4.0322181849
 31
0.0
 11
7.1482891241
 21
4.0326208381
 31
0.0
 11
7.1650645962
 21
4.0355127288
 31
0.0
 11
7.1769087582
 21
4.0391498701
 31
0.0
  0
SPLINE
  5
4D9
100
AcDbEntity
  8
0
100
AcDbSpline
 62
7
  6
CONTINUOUS
 70
0
 71
3
 72
10
 73
6
 74
4
 42
0.0000001
 43
0.0000001
 44
0.0000000001
 12
-0.0314825084
 22
0.0119938881
 32
0.0
 13
-0.0335651457
 23
0.0027291559
 33
0.0
 40
0.0
 40
0.0
 40
0.0
 40
0.0
 40
0.3693382118
 40
0.8748134613
 40
1.0
 40
1.0
 40
1.0
 40
1.0
 10
7.1769095411
 20
4.4721666977
 30
0.0
 10
7.1730336433
 20
4.473643298
 30
0.0
 10
7.1636030378
 20
4.4764710784
 30
0.0
 10
7.1525095869
 20
4.4783151577
 30
0.0
 10
7.1454609934
 20
4.4789847983
 30
0.0
 10
7.1440603586
 20
4.4790986828
 30
0.0
 11
7.1769095411
 21
4.4721666977
 31
0.0
 11
7.1650217571
 21
4.4758145354
 31
0.0
 11
7.1482572251
 21
4.4786995115
 31
0.0
 11
7.1440603586
 21
4.4790986828
 31
0.0
  0
SPLINE
  5
4DA
100
AcDbEntity
  8
0
100
AcDbSpline
 62
7
  6
CONTINUOUS
 70
0
 71
3
 72
8
 73
4
 74
2
 42
0.0000001
 43
0.0000001
 44
0.0000000001
 12
-0.0129885367
 22
0.0010560878
 32
0.0
 13
-0.0130226843
 23
0.0
 33
0.0
 40
0.0
 40
0.0
 40
0.0
 40
0.0
 40
1.0
 40
1.0
 40
1.0
 40
1.0
 10
7.1440603586
 20
4.4790986828
 30
0.0
 10
7.1397308463
 20
4.4794507121
 30
0.0
 10
7.1353871254
 20
4.4796208219
 30
0.0
 10
7.1310462306
 20
4.4796208219
 30
0.0
 11
7.1440603586
 21
4.4790986828
 31
0.0
 11
7.1310462306
 21
4.4796208219
 31
0.0
  0
SPLINE
  5
4DB
100
AcDbEntity
  8
0
100
AcDbSpline
 62
7
  6
CONTINUOUS
 70
0
 71
3
 72
14
 73
10
 74
8
 42
0.0000001
 43
0.0000001
 44
0.0000000001
 12
-0.0000650089
 22
-0.1089659761
 32
0.0
 13
0.1085512815
 23
0.0
 33
0.0
 40
0.0
 40
0.0
 40
0.0
 40
0.0
 40
0.116208919
 40
0.2423726077
 40
0.3800620492
 40
0.5278371932
 40
0.6824730638
 40
0.8406275357
 40
1.0
 40
1.0
 40
1.0
 40
1.0
 10
7.0530462308
 20
4.5201163668
 30
0.0
 10
7.0530437126
 20
4.5158954274
 30
0.0
 10
7.0544953789
 20
4.507112455
 30
0.0
 10
7.0604414813
 20
4.4945451542
 30
0.0
 10
7.0698925162
 20
4.4828725686
 30
0.0
 10
7.082386486
 20
4.4728203965
 30
0.0
 10
7.0972736233
 20
4.4650944712
 30
0.0
 10
7.1137600063
 20
4.4602453792
 30
0.0
 10
7.1252795356
 20
4.4591467142
 30
0.0
 10
7.1310462306
 20
4.4591467142
 30
0.0
 11
7.0530462308
 21
4.5201163668
 31
0.0
 11
7.054973751
 21
4.5076498744
 31
0.0
 11
7.0607024489
 21
4.4952103669
 31
0.0
 11
7.0700214857
 21
4.483524932
 31
0.0
 11
7.0824758474
 21
4.4734151165
 31
0.0
 11
7.0973581293
 21
4.4656507839
 31
0.0
 11
7.1138247814
 21
4.4607943295
 31
0.0
 11
7.1310462306
 21
4.4591467142
 31
0.0
  0
SPLINE
  5
4DC
100
AcDbEntity
  8
0
100
AcDbSpline
 62
7
  6
CONTINUOUS
 70
0
 71
3
 72
21
 73
17
 74
15
 42
0.0000001
 43
0.0000001
 44
0.0000000001
 12
-0.1538241899
 22
-0.0320810268
 32
0.0
 13
-0.1538241877
 23
0.0320810268
 33
0.0
 40
0.0
 40
0.0
 40
0.0
 40
0.0
 40
0.0125501725
 40
0.0504939194
 40
0.110891093
 40
0.1887907398
 40
0.2837959474
 40
0.3903185291
 40
0.5000517662
 40
0.6096987979
 40
0.7161289301
 40
0.8112070339
 40
0.8891426844
 40
0.9494535549
 40
0.9874246635
 40
1.0
 40
1.0
 40
1.0
 40
1.0
 10
7.2090462306
 20
4.6296584326
 30
0.0
 10
7.2084027239
 20
4.6295242251
 30
0.0
 10
7.2058123782
 20
4.6289903845
 30
0.0
 10
7.2001125048
 20
4.6278725004
 30
0.0
 10
7.1910209915
 20
4.6262680665
 30
0.0
 10
7.1789314022
 20
4.6244746375
 30
0.0
 10
7.1643834927
 20
4.6228383248
 30
0.0
 10
7.1481143476
 20
4.6217013209
 30
0.0
 10
7.1310426058
 20
4.6212987519
 30
0.0
 10
7.1139757284
 20
4.6217016491
 30
0.0
 10
7.0977121077
 20
4.6228380632
 30
0.0
 10
7.0831633087
 20
4.6244742427
 30
0.0
 10
7.0710725581
 20
4.6262679239
 30
0.0
 10
7.0619822248
 20
4.6278721132
 30
0.0
 10
7.0562840705
 20
4.6289895724
 30
0.0
 10
7.0536910276
 20
4.629523956
 30
0.0
 10
7.0530462306
 20
4.6296584326
 30
0.0
 11
7.2090462306
 21
4.6296584326
 31
0.0
 11
7.207114759
 21
4.6292603879
 31
0.0
 11
7.2012639144
 21
4.6281131588
 31
0.0
 11
7.1919177076
 21
4.6264647657
 31
0.0
 11
7.1798092468
 21
4.6246703995
 31
0.0
 11
7.164973934
 21
4.6230044399
 31
0.0
 11
7.1482761599
 21
4.6218399046
 31
0.0
 11
7.1310380937
 21
4.6214343204
 31
0.0
 11
7.1138135802
 21
4.6218400327
 31
0.0
 11
7.0971302837
 21
4.6230033542
 31
0.0
 11
7.0822835612
 21
4.6246703537
 31
0.0
 11
7.0701695154
 21
4.6264656257
 31
0.0
 11
7.0608366578
 21
4.6281116298
 31
0.0
 11
7.054981577
 21
4.629259599
 31
0.0
 11
7.0530462306
 21
4.6296584326
 31
0.0
  0
SPLINE
  5
4DD
100
AcDbEntity
  8
0
100
AcDbSpline
 62
7
  6
CONTINUOUS
 70
0
 71
3
 72
21
 73
17
 74
15
 42
0.0000001
 43
0.0000001
 44
0.0000000001
 12
0.1538241899
 22
0.0320810268
 32
0.0
 13
0.1538241877
 23
-0.0320810268
 33
0.0
 40
0.0
 40
0.0
 40
0.0
 40
0.0
 40
0.0125501725
 40
0.0504939194
 40
0.110891093
 40
0.1887907398
 40
0.2837959474
 40
0.3903185291
 40
0.5000517662
 40
0.6096987979
 40
0.7161289301
 40
0.8112070339
 40
0.8891426844
 40
0.9494535549
 40
0.9874246635
 40
1.0
 40
1.0
 40
1.0
 40
1.0
 10
7.0530462306
 20
3.8816584326
 30
0.0
 10
7.0536897374
 20
3.8817926401
 30
0.0
 10
7.0562800831
 20
3.8823264807
 30
0.0
 10
7.0619799565
 20
3.8834443648
 30
0.0
 10
7.0710714698
 20
3.8850487987
 30
0.0
 10
7.0831610591
 20
3.8868422277
 30
0.0
 10
7.0977089686
 20
3.8884785404
 30
0.0
 10
7.1139781137
 20
3.8896155443
 30
0.0
 10
7.1310498555
 20
3.8900181133
 30
0.0
 10
7.1481167329
 20
3.8896152161
 30
0.0
 10
7.1643803536
 20
3.888478802
 30
0.0
 10
7.1789291526
 20
3.8868426225
 30
0.0
 10
7.1910199032
 20
3.8850489413
 30
0.0
 10
7.2001102365
 20
3.883444752
 30
0.0
 10
7.2058083908
 20
3.8823272928
 30
0.0
 10
7.2084014337
 20
3.8817929092
 30
0.0
 10
7.2090462306
 20
3.8816584326
 30
0.0
 11
7.0530462306
 21
3.8816584326
 31
0.0
 11
7.0549777023
 21
3.8820564773
 31
0.0
 11
7.0608285469
 21
3.8832037063
 31
0.0
 11
7.0701747537
 21
3.8848520994
 31
0.0
 11
7.0822832145
 21
3.8866464657
 31
0.0
 11
7.0971185273
 21
3.8883124253
 31
0.0
 11
7.1138163014
 21
3.8894769606
 31
0.0
 11
7.1310543675
 21
3.8898825448
 31
0.0
 11
7.1482788811
 21
3.8894768325
 31
0.0
 11
7.1649621776
 21
3.888313511
 31
0.0
 11
7.1798089001
 21
3.8866465115
 31
0.0
 11
7.1919229459
 21
3.8848512395
 31
0.0
 11
7.2012558035
 21
3.8832052354
 31
0.0
 11
7.2071108843
 21
3.8820572662
 31
0.0
 11
7.2090462306
 21
3.8816584326
 31
0.0
  0
SPLINE
  5
4DE
100
AcDbEntity
  8
0
100
AcDbSpline
 62
7
  6
CONTINUOUS
 70
0
 71
3
 72
14
 73
10
 74
8
 42
0.0000001
 43
0.0000001
 44
0.0000000001
 12
-0.0000610577
 22
0.1023358806
 32
0.0
 13
-0.1019464175
 23
-0.0
 33
0.0
 40
0.0
 40
0.0
 40
0.0
 40
0.0
 40
0.1182891105
 40
0.2386376427
 40
0.3681676989
 40
0.5107726454
 40
0.6661061052
 40
0.8307260225
 40
1.0
 40
1.0
 40
1.0
 40
1.0
 10
7.2090462305
 20
4.5201163668
 30
0.0
 10
7.209043823
 20
4.5241514402
 30
0.0
 10
7.2077511076
 20
4.5323099421
 30
0.0
 10
7.201717012
 20
4.5435215115
 30
0.0
 10
7.1920538187
 20
4.5529563489
 30
0.0
 10
7.179421473
 20
4.5603498359
 30
0.0
 10
7.1645346093
 20
4.5656207797
 30
0.0
 10
7.1481583217
 20
4.5687637158
 30
0.0
 10
7.1367985225
 20
4.5694553721
 30
0.0
 10
7.1310462306
 20
4.5694553721
 30
0.0
 11
7.2090462305
 21
4.5201163668
 31
0.0
 11
7.2071189025
 21
4.5320205083
 31
0.0
 11
7.2013903916
 21
4.5428701635
 31
0.0
 11
7.1920717247
 21
4.5522263261
 31
0.0
 11
7.1796179539
 21
4.5597269181
 31
0.0
 11
7.1647361985
 21
4.5651400897
 31
0.0
 11
7.1482696006
 21
4.568380532
 31
0.0
 11
7.1310462306
 21
4.5694553721
 31
0.0
  0
SPLINE
  5
4DF
100
AcDbEntity
  8
0
100
AcDbSpline
 62
7
  6
CONTINUOUS
 70
0
 71
3
 72
14
 73
10
 74
8
 42
0.0000001
 43
0.0000001
 44
0.0000000001
 12
0.0000610572
 22
-0.1023358807
 32
0.0
 13
0.1019464175
 23
-0.0
 33
0.0
 40
0.0
 40
0.0
 40
0.0
 40
0.0
 40
0.1182891693
 40
0.2386376954
 40
0.3681677414
 40
0.5107726707
 40
0.6661061101
 40
0.8307260151
 40
1.0
 40
1.0
 40
1.0
 40
1.0
 10
7.0530462308
 20
3.9912004984
 30
0.0
 10
7.0530486383
 20
3.9871654229
 30
0.0
 10
7.0543413547
 20
3.9790069192
 30
0.0
 10
7.0603754526
 20
3.9677953495
 30
0.0
 10
7.070038646
 20
3.9583605139
 30
0.0
 10
7.0826709906
 20
3.9509670284
 30
0.0
 10
7.0975578528
 20
3.9456960853
 30
0.0
 10
7.1139341395
 20
3.9425531494
 30
0.0
 10
7.1252939385
 20
3.9418614931
 30
0.0
 10
7.1310462306
 20
3.9418614931
 30
0.0
 11
7.0530462308
 21
3.9912004984
 31
0.0
 11
7.0549735607
 21
3.9792963512
 31
0.0
 11
7.0607020729
 21
3.9684466973
 31
0.0
 11
7.07002074
 21
3.9590905364
 31
0.0
 11
7.0824745097
 21
3.951589946
 31
0.0
 11
7.0973562632
 21
3.9461767753
 31
0.0
 11
7.1138228599
 21
3.9429363333
 31
0.0
 11
7.1310462306
 21
3.9418614931
 31
0.0
  0
SPLINE
  5
4E0
100
AcDbEntity
  8
0
100
AcDbSpline
 62
7
  6
CONTINUOUS
 70
0
 71
3
 72
14
 73
10
 74
8
 42
0.0000001
 43
0.0000001
 44
0.0000000001
 12
0.1019464182
 22
0.0
 32
0.0
 13
0.0000610529
 23
0.1023358806
 33
0.0
 40
0.0
 40
0.0
 40
0.0
 40
0.0
 40
0.1692755986
 40
0.3338957997
 40
0.4892280299
 40
0.6318332088
 40
0.7613636787
 40
0.8817114845
 40
1.0
 40
1.0
 40
1.0
 40
1.0
 10
7.1310462306
 20
3.9418614931
 30
0.0
 10
7.1367985776
 20
3.9418614931
 30
0.0
 10
7.148158442
 20
3.9425531598
 30
0.0
 10
7.1645347483
 20
3.9456961242
 30
0.0
 10
7.1794215803
 20
3.9509670818
 30
0.0
 10
7.192053901
 20
3.9583605735
 30
0.0
 10
7.2017170723
 20
3.9677954331
 30
0.0
 10
7.2077511217
 20
3.9790069893
 30
0.0
 10
7.2090438232
 20
3.9871654452
 30
0.0
 10
7.2090462305
 20
3.9912004983
 30
0.0
 11
7.1310462306
 21
3.9418614931
 31
0.0
 11
7.148269765
 21
3.9429363541
 31
0.0
 11
7.1647363865
 21
3.9461768269
 31
0.0
 11
7.1796180166
 21
3.9515899765
 31
0.0
 11
7.1920717986
 21
3.9590905961
 31
0.0
 11
7.201390473
 21
3.9684468109
 31
0.0
 11
7.207118922
 21
3.9792964151
 31
0.0
 11
7.2090462305
 21
3.9912004983
 31
0.0
  0
SPLINE
  5
4E1
100
AcDbEntity
  8
0
100
AcDbSpline
 62
7
  6
CONTINUOUS
 70
0
 71
3
 72
14
 73
10
 74
8
 42
0.0000001
 43
0.0000001
 44
0.0000000001
 12
-0.1019464182
 22
0.0
 32
0.0
 13
-0.0000610534
 23
-0.1023358805
 33
0.0
 40
0.0
 40
0.0
 40
0.0
 40
0.0
 40
0.1692755955
 40
0.3338958102
 40
0.489228059
 40
0.6318332551
 40
0.7613637346
 40
0.8817115438
 40
1.0
 40
1.0
 40
1.0
 40
1.0
 10
7.1310462306
 20
4.5694553721
 30
0.0
 10
7.1252938838
 20
4.5694553721
 30
0.0
 10
7.113934019
 20
4.5687637054
 30
0.0
 10
7.0975577118
 20
4.5656207408
 30
0.0
 10
7.0826708782
 20
4.5603497823
 30
0.0
 10
7.0700385566
 20
4.552956289
 30
0.0
 10
7.0603753855
 20
4.5435214277
 30
0.0
 10
7.0543413386
 20
4.5323098719
 30
0.0
 10
7.0530486381
 20
4.524151418
 30
0.0
 10
7.0530462308
 20
4.5201163668
 30
0.0
 11
7.1310462306
 21
4.5694553721
 31
0.0
 11
7.1138226966
 21
4.5683805112
 31
0.0
 11
7.0973560737
 21
4.565140038
 31
0.0
 11
7.082474442
 21
4.5597268874
 31
0.0
 11
7.0700206589
 21
4.5522262662
 31
0.0
 11
7.0607019849
 21
4.5428700497
 31
0.0
 11
7.0549735373
 21
4.5320204442
 31
0.0
 11
7.0530462308
 21
4.5201163668
 31
0.0
  0
SPLINE
  5
4E2
100
AcDbEntity
  8
127-411_FEATURES
100
AcDbSpline
 62
7
  6
CONTINUOUS
 70
0
 71
3
 72
8
 73
4
 74
2
 42
0.0000001
 43
0.0000001
 44
0.0000000001
 12
-0.0010108744
 22
-0.000044143
 32
0.0
 13
-0.0010109698
 23
-0.0000419196
 33
0.0
 40
0.0
 40
0.0
 40
0.0
 40
0.0
 40
1.0
 40
1.0
 40
1.0
 40
1.0
 10
5.8050462306
 20
4.7136584326
 30
0.0
 10
5.8047092725
 20
4.7136437183
 30
0.0
 10
5.8043722981
 20
4.7136293744
 30
0.0
 10
5.8040353081
 20
4.7136154012
 30
0.0
 11
5.8050462306
 21
4.7136584326
 31
0.0
 11
5.8040353081
 21
4.7136154012
 31
0.0
  0
SPLINE
  5
4E3
100
AcDbEntity
  8
127-411_FEATURES
100
AcDbSpline
 62
7
  6
CONTINUOUS
 70
0
 71
3
 72
11
 73
7
 74
5
 42
0.0000001
 43
0.0000001
 44
0.0000000001
 12
-0.0189781231
 22
-0.000786923
 32
0.0
 13
-0.0189944196
 23
0.0
 33
0.0
 40
0.0
 40
0.0
 40
0.0
 40
0.0
 40
0.152929014
 40
0.3847377879
 40
0.6778409913
 40
1.0
 40
1.0
 40
1.0
 40
1.0
 10
5.8040353081
 20
4.7136154012
 30
0.0
 10
5.8030678729
 20
4.7135752867
 30
0.0
 10
5.8006336845
 20
4.7134820528
 30
0.0
 10
5.7963438582
 20
4.7133519166
 30
0.0
 10
5.7909815401
 20
4.7132475946
 30
0.0
 10
5.7870859718
 20
4.713221543
 30
0.0
 10
5.7850462306
 20
4.713221543
 30
0.0
 11
5.8040353081
 21
4.7136154012
 31
0.0
 11
5.8011326385
 21
4.7135042282
 31
0.0
 11
5.7967315896
 21
4.7133707305
 31
0.0
 11
5.7911653173
 21
4.7132624571
 31
0.0
 11
5.7850462306
 21
4.713221543
 31
0.0
  0
SPLINE
  5
4E4
100
AcDbEntity
  8
127-411_FEATURES
100
AcDbSpline
 62
7
  6
CONTINUOUS
 70
0
 71
3
 72
11
 73
7
 74
5
 42
0.0000001
 43
0.0000001
 44
0.0000000001
 12
-0.0183148356
 22
0.0
 32
0.0
 13
-0.0183002323
 23
0.0007317247
 33
0.0
 40
0.0
 40
0.0
 40
0.0
 40
0.0
 40
0.3344572667
 40
0.6389706819
 40
0.8806198344
 40
1.0
 40
1.0
 40
1.0
 40
1.0
 10
5.7850462306
 20
4.713221543
 30
0.0
 10
5.7830043874
 20
4.713221543
 30
0.0
 10
5.7791034541
 20
4.7132476573
 30
0.0
 10
5.7737282117
 20
4.7133523624
 30
0.0
 10
5.7696669207
 20
4.7134758089
 30
0.0
 10
5.7674644027
 20
4.7135586305
 30
0.0
 10
5.7667361745
 20
4.7135877483
 30
0.0
 11
5.7850462306
 21
4.713221543
 31
0.0
 11
5.778920838
 21
4.7132625414
 31
0.0
 11
5.7733447823
 21
4.7133711415
 31
0.0
 11
5.7689210605
 21
4.7135055917
 31
0.0
 11
5.7667361745
 21
4.7135877483
 31
0.0
  0
SPLINE
  5
4E5
100
AcDbEntity
  8
127-411_FEATURES
100
AcDbSpline
 62
7
  6
CONTINUOUS
 70
0
 71
3
 72
8
 73
4
 74
2
 42
0.0000001
 43
0.0000001
 44
0.0000000001
 12
-0.00068176
 22
0.0000272598
 32
0.0
 13
-0.0006817184
 23
0.0000282713
 33
0.0
 40
0.0
 40
0.0
 40
0.0
 40
0.0
 40
1.0
 40
1.0
 40
1.0
 40
1.0
 10
5.7667361745
 20
4.7135877483
 30
0.0
 10
5.7665089211
 20
4.7135968349
 30
0.0
 10
5.7662816746
 20
4.7136060901
 30
0.0
 10
5.7660544351
 20
4.7136155139
 30
0.0
 11
5.7667361745
 21
4.7135877483
 31
0.0
 11
5.7660544351
 21
4.7136155139
 31
0.0
  0
SPLINE
  5
4E6
100
AcDbEntity
  8
127-411_FEATURES
100
AcDbSpline
 62
7
  6
CONTINUOUS
 70
0
 71
3
 72
8
 73
4
 74
2
 42
0.0000001
 43
0.0000001
 44
0.0000000001
 12
-0.0010082515
 22
0.0000418129
 32
0.0
 13
-0.0010081566
 23
0.0000440243
 33
0.0
 40
0.0
 40
0.0
 40
0.0
 40
0.0
 40
1.0
 40
1.0
 40
1.0
 40
1.0
 10
5.7660544351
 20
4.7136155139
 30
0.0
 10
5.7657183513
 20
4.7136294515
 30
0.0
 10
5.7653822829
 20
4.7136437578
 30
0.0
 10
5.7650462306
 20
4.7136584326
 30
0.0
 11
5.7660544351
 21
4.7136155139
 31
0.0
 11
5.7650462306
 21
4.7136584326
 31
0.0
  0
SPLINE
  5
4E7
100
AcDbEntity
  8
127-411_FEATURES
100
AcDbSpline
 62
7
  6
CONTINUOUS
 70
0
 71
3
 72
11
 73
7
 74
5
 42
0.0000001
 43
0.0000001
 44
0.0000000001
 12
0.0189944194
 22
0.0
 32
0.0
 13
0.0189781226
 23
-0.000786923
 33
0.0
 40
0.0
 40
0.0
 40
0.0
 40
0.0
 40
0.3220657886
 40
0.615440335
 40
0.8485834543
 40
1.0
 40
1.0
 40
1.0
 40
1.0
 10
5.7850462306
 20
3.7980953222
 30
0.0
 10
5.7870853815
 20
3.7980953222
 30
0.0
 10
5.7909820776
 20
3.7980692706
 30
0.0
 10
5.7963539702
 20
3.7979647528
 30
0.0
 10
5.8006443828
 20
3.7978344485
 30
0.0
 10
5.8030774409
 20
3.7977411817
 30
0.0
 10
5.8040353081
 20
3.797701464
 30
0.0
 11
5.7850462306
 21
3.7980953222
 31
0.0
 11
5.7911635467
 21
3.7980544318
 31
0.0
 11
5.7967349717
 21
3.7979460484
 31
0.0
 11
5.8011613493
 21
3.7978116274
 31
0.0
 11
5.8040353081
 21
3.797701464
 31
0.0
  0
SPLINE
  5
4E8
100
AcDbEntity
  8
127-411_FEATURES
100
AcDbSpline
 62
7
  6
CONTINUOUS
 70
0
 71
3
 72
8
 73
4
 74
2
 42
0.0000001
 43
0.0000001
 44
0.0000000001
 12
0.0010109698
 22
-0.0000419196
 32
0.0
 13
0.0010108744
 23
-0.000044143
 33
0.0
 40
0.0
 40
0.0
 40
0.0
 40
0.0
 40
1.0
 40
1.0
 40
1.0
 40
1.0
 10
5.8040353081
 20
3.797701464
 30
0.0
 10
5.8043722981
 20
3.7976874908
 30
0.0
 10
5.8047092725
 20
3.7976731469
 30
0.0
 10
5.8050462306
 20
3.7976584326
 30
0.0
 11
5.8040353081
 21
3.797701464
 31
0.0
 11
5.8050462306
 21
3.7976584326
 31
0.0
  0
SPLINE
  5
4E9
100
AcDbEntity
  8
127-411_FEATURES
100
AcDbSpline
 62
7
  6
CONTINUOUS
 70
0
 71
3
 72
8
 73
4
 74
2
 42
0.0000001
 43
0.0000001
 44
0.0000000001
 12
0.0010081566
 22
0.0000440243
 32
0.0
 13
0.0010082515
 23
0.0000418129
 33
0.0
 40
0.0
 40
0.0
 40
0.0
 40
0.0
 40
1.0
 40
1.0
 40
1.0
 40
1.0
 10
5.7650462306
 20
3.7976584326
 30
0.0
 10
5.7653822828
 20
3.7976731074
 30
0.0
 10
5.7657183513
 20
3.7976874137
 30
0.0
 10
5.7660544351
 20
3.7977013513
 30
0.0
 11
5.7650462306
 21
3.7976584326
 31
0.0
 11
5.7660544351
 21
3.7977013513
 31
0.0
  0
SPLINE
  5
4EA
100
AcDbEntity
  8
127-411_FEATURES
100
AcDbSpline
 62
7
  6
CONTINUOUS
 70
0
 71
3
 72
9
 73
5
 74
3
 42
0.0000001
 43
0.0000001
 44
0.0000000001
 12
0.0006817184
 22
0.0000282713
 32
0.0
 13
0.00068176
 23
0.0000272598
 33
0.0
 40
0.0
 40
0.0
 40
0.0
 40
0.0
 40
0.01691453
 40
1.0
 40
1.0
 40
1.0
 40
1.0
 10
5.7660544351
 20
3.7977013513
 30
0.0
 10
5.7660582788
 20
3.7977015107
 30
0.0
 10
5.7662855184
 20
3.7977109316
 30
0.0
 10
5.766512765
 20
3.797720184
 30
0.0
 10
5.7667361744
 20
3.7977291169
 30
0.0
 11
5.7660544351
 21
3.7977013513
 31
0.0
 11
5.7660659661
 21
3.7977018294
 31
0.0
 11
5.7667361744
 21
3.7977291169
 31
0.0
  0
SPLINE
  5
4EB
100
AcDbEntity
  8
127-411_FEATURES
100
AcDbSpline
 62
7
  6
CONTINUOUS
 70
0
 71
3
 72
11
 73
7
 74
5
 42
0.0000001
 43
0.0000001
 44
0.0000000001
 12
0.0183002335
 22
0.0007317247
 32
0.0
 13
0.0183148363
 23
0.0
 33
0.0
 40
0.0
 40
0.0
 40
0.0
 40
0.0
 40
0.1221548236
 40
0.3626964352
 40
0.6662862128
 40
1.0
 40
1.0
 40
1.0
 40
1.0
 10
5.7667361744
 20
3.7977291169
 30
0.0
 10
5.7674813284
 20
3.7977589115
 30
0.0
 10
5.7696940219
 20
3.7978419932
 30
0.0
 10
5.7737598602
 20
3.7979652171
 30
0.0
 10
5.7791181708
 20
3.7980693339
 30
0.0
 10
5.7830089262
 20
3.7980953222
 30
0.0
 10
5.7850462306
 20
3.7980953222
 30
0.0
 11
5.7667361744
 21
3.7977291169
 31
0.0
 11
5.7689718468
 21
3.7978130593
 31
0.0
 11
5.7733753055
 21
3.797946503
 31
0.0
 11
5.7789344536
 21
3.7980545058
 31
0.0
 11
5.7850462306
 21
3.7980953222
 31
0.0
  0
SPLINE
  5
4EC
100
AcDbEntity
  8
0
100
AcDbSpline
 62
7
  6
CONTINUOUS
 70
0
 71
3
 72
14
 73
10
 74
8
 42
0.0000001
 43
0.0000001
 44
0.0000000001
 12
-0.1442757118
 22
0.2708049707
 32
0.0
 13
0.1442757118
 23
0.2708049707
 33
0.0
 40
0.0
 40
0.0
 40
0.0
 40
0.0
 40
0.1539652166
 40
0.2964780264
 40
0.4328366592
 40
0.567267274
 40
0.7036195666
 40
0.846074992
 40
1.0
 40
1.0
 40
1.0
 40
1.0
 10
4.7086569019
 20
3.6222731231
 30
0.0
 10
4.7012524215
 20
3.6361713051
 30
0.0
 10
4.6882132924
 20
3.663625645
 30
0.0
 10
4.6742443406
 20
3.7057754281
 30
0.0
 10
4.667080256
 20
3.7476246314
 30
0.0
 10
4.6670830586
 20
3.7894735949
 30
0.0
 10
4.6742510321
 20
3.8313154324
 30
0.0
 10
4.6882192116
 20
3.8734540692
 30
0.0
 10
4.7012543552
 20
3.9008991896
 30
0.0
 10
4.7086569019
 20
3.9147937421
 30
0.0
 11
4.7086569019
 21
3.6222731231
 31
0.0
 11
4.6886456673
 21
3.6650682469
 31
0.0
 11
4.6751337365
 21
3.7066569644
 31
0.0
 11
4.6682375282
 21
3.7479250161
 31
0.0
 11
4.668240219
 21
3.7891737119
 31
0.0
 11
4.6751409661
 21
3.8304390326
 31
0.0
 11
4.6886502442
 21
3.8720100979
 31
0.0
 11
4.7086569019
 21
3.9147937421
 31
0.0
  0
SPLINE
  5
4ED
100
AcDbEntity
  8
0
100
AcDbSpline
 62
7
  6
CONTINUOUS
 70
0
 71
3
 72
14
 73
10
 74
8
 42
0.0000001
 43
0.0000001
 44
0.0000000001
 12
0.1442757118
 22
0.2708049707
 32
0.0
 13
-0.1442757118
 23
0.2708049707
 33
0.0
 40
0.0
 40
0.0
 40
0.0
 40
0.0
 40
0.1539652166
 40
0.2964780264
 40
0.4328366592
 40
0.567267274
 40
0.7036195666
 40
0.846074992
 40
1.0
 40
1.0
 40
1.0
 40
1.0
 10
5.2956206048
 20
3.6222731231
 30
0.0
 10
5.3030250852
 20
3.6361713051
 30
0.0
 10
5.3160642144
 20
3.663625645
 30
0.0
 10
5.3300331661
 20
3.7057754281
 30
0.0
 10
5.3371972507
 20
3.7476246314
 30
0.0
 10
5.3371944481
 20
3.7894735949
 30
0.0
 10
5.3300264746
 20
3.8313154324
 30
0.0
 10
5.3160582952
 20
3.8734540692
 30
0.0
 10
5.3030231515
 20
3.9008991896
 30
0.0
 10
5.2956206048
 20
3.9147937421
 30
0.0
 11
5.2956206048
 21
3.6222731231
 31
0.0
 11
5.3156318395
 21
3.6650682469
 31
0.0
 11
5.3291437702
 21
3.7066569644
 31
0.0
 11
5.3360399785
 21
3.7479250161
 31
0.0
 11
5.3360372877
 21
3.7891737119
 31
0.0
 11
5.3291365406
 21
3.8304390326
 31
0.0
 11
5.3156272626
 21
3.8720100979
 31
0.0
 11
5.2956206048
 21
3.9147937421
 31
0.0
  0
SPLINE
  5
4EE
100
AcDbEntity
  8
0
100
AcDbSpline
 62
7
  6
CONTINUOUS
 70
0
 71
3
 72
14
 73
10
 74
8
 42
0.0000001
 43
0.0000001
 44
0.0000000001
 12
-0.1524912644
 22
0.5724510643
 32
0.0
 13
0.1524912644
 23
0.5724510643
 33
0.0
 40
0.0
 40
0.0
 40
0.0
 40
0.0
 40
0.1483734886
 40
0.2906183378
 40
0.4304255817
 40
0.5696820058
 40
0.7094806994
 40
0.8516660081
 40
1.0
 40
1.0
 40
1.0
 40
1.0
 10
4.7086569019
 20
3.9631378137
 30
0.0
 10
4.701115015
 20
3.9914500008
 30
0.0
 10
4.6879118957
 20
4.0473453437
 30
0.0
 10
4.6741086065
 20
4.1312892
 30
0.0
 10
4.6670773283
 20
4.2142825065
 30
0.0
 10
4.6670800693
 20
4.2970964695
 30
0.0
 10
4.674115248
 20
4.3800759144
 30
0.0
 10
4.6879179887
 20
4.4639982269
 30
0.0
 10
4.7011170226
 20
4.519874401
 30
0.0
 10
4.7086569019
 20
4.5481790515
 30
0.0
 11
4.7086569019
 21
3.9631378137
 31
0.0
 11
4.6886456673
 21
4.0487280613
 31
0.0
 11
4.6751337365
 21
4.1319054961
 31
0.0
 11
4.6682375282
 21
4.2144415997
 31
0.0
 11
4.668240219
 21
4.2969389913
 31
0.0
 11
4.6751409661
 21
4.3794696325
 31
0.0
 11
4.6886502442
 21
4.4626117632
 31
0.0
 11
4.7086569019
 21
4.5481790515
 31
0.0
  0
SPLINE
  5
4EF
100
AcDbEntity
  8
0
100
AcDbSpline
 62
7
  6
CONTINUOUS
 70
0
 71
3
 72
14
 73
10
 74
8
 42
0.0000001
 43
0.0000001
 44
0.0000000001
 12
0.1524912644
 22
0.5724510643
 32
0.0
 13
-0.1524912644
 23
0.5724510643
 33
0.0
 40
0.0
 40
0.0
 40
0.0
 40
0.0
 40
0.1483734886
 40
0.2906183378
 40
0.4304255817
 40
0.5696820058
 40
0.7094806994
 40
0.8516660081
 40
1.0
 40
1.0
 40
1.0
 40
1.0
 10
5.2956206048
 20
3.9631378137
 30
0.0
 10
5.3031624918
 20
3.9914500008
 30
0.0
 10
5.316365611
 20
4.0473453437
 30
0.0
 10
5.3301689003
 20
4.1312892
 30
0.0
 10
5.3372001784
 20
4.2142825065
 30
0.0
 10
5.3371974374
 20
4.2970964695
 30
0.0
 10
5.3301622587
 20
4.3800759144
 30
0.0
 10
5.3163595181
 20
4.4639982269
 30
0.0
 10
5.3031604841
 20
4.519874401
 30
0.0
 10
5.2956206048
 20
4.5481790515
 30
0.0
 11
5.2956206048
 21
3.9631378137
 31
0.0
 11
5.3156318395
 21
4.0487280613
 31
0.0
 11
5.3291437702
 21
4.1319054961
 31
0.0
 11
5.3360399785
 21
4.2144415997
 31
0.0
 11
5.3360372877
 21
4.2969389913
 31
0.0
 11
5.3291365406
 21
4.3794696325
 31
0.0
 11
5.3156272626
 21
4.4626117632
 31
0.0
 11
5.2956206048
 21
4.5481790515
 31
0.0
  0
SPLINE
  5
4F0
100
AcDbEntity
  8
0
100
AcDbSpline
 62
7
  6
CONTINUOUS
 70
0
 71
3
 72
14
 73
10
 74
8
 42
0.0000001
 43
0.0000001
 44
0.0000000001
 12
-0.1442757118
 22
0.2708049707
 32
0.0
 13
0.1442757118
 23
0.2708049707
 33
0.0
 40
0.0
 40
0.0
 40
0.0
 40
0.0
 40
0.1539652166
 40
0.2964780264
 40
0.4328366592
 40
0.567267274
 40
0.7036195666
 40
0.846074992
 40
1.0
 40
1.0
 40
1.0
 40
1.0
 10
4.7086569019
 20
4.5965231231
 30
0.0
 10
4.7012524215
 20
4.6104213051
 30
0.0
 10
4.6882132924
 20
4.637875645
 30
0.0
 10
4.6742443406
 20
4.6800254281
 30
0.0
 10
4.667080256
 20
4.7218746314
 30
0.0
 10
4.6670830586
 20
4.7637235949
 30
0.0
 10
4.6742510321
 20
4.8055654324
 30
0.0
 10
4.6882192116
 20
4.8477040692
 30
0.0
 10
4.7012543552
 20
4.8751491896
 30
0.0
 10
4.7086569019
 20
4.8890437421
 30
0.0
 11
4.7086569019
 21
4.5965231231
 31
0.0
 11
4.6886456673
 21
4.6393182469
 31
0.0
 11
4.6751337365
 21
4.6809069644
 31
0.0
 11
4.6682375282
 21
4.7221750161
 31
0.0
 11
4.668240219
 21
4.7634237119
 31
0.0
 11
4.6751409661
 21
4.8046890326
 31
0.0
 11
4.6886502442
 21
4.8462600979
 31
0.0
 11
4.7086569019
 21
4.8890437421
 31
0.0
  0
SPLINE
  5
4F1
100
AcDbEntity
  8
0
100
AcDbSpline
 62
7
  6
CONTINUOUS
 70
0
 71
3
 72
14
 73
10
 74
8
 42
0.0000001
 43
0.0000001
 44
0.0000000001
 12
0.1442757118
 22
0.2708049707
 32
0.0
 13
-0.1442757118
 23
0.2708049707
 33
0.0
 40
0.0
 40
0.0
 40
0.0
 40
0.0
 40
0.1539652166
 40
0.2964780264
 40
0.4328366592
 40
0.567267274
 40
0.7036195666
 40
0.846074992
 40
1.0
 40
1.0
 40
1.0
 40
1.0
 10
5.2956206048
 20
4.5965231231
 30
0.0
 10
5.3030250852
 20
4.6104213051
 30
0.0
 10
5.3160642144
 20
4.637875645
 30
0.0
 10
5.3300331661
 20
4.6800254281
 30
0.0
 10
5.3371972507
 20
4.7218746314
 30
0.0
 10
5.3371944481
 20
4.7637235949
 30
0.0
 10
5.3300264746
 20
4.8055654324
 30
0.0
 10
5.3160582952
 20
4.8477040692
 30
0.0
 10
5.3030231515
 20
4.8751491896
 30
0.0
 10
5.2956206048
 20
4.8890437421
 30
0.0
 11
5.2956206048
 21
4.5965231231
 31
0.0
 11
5.3156318395
 21
4.6393182469
 31
0.0
 11
5.3291437702
 21
4.6809069644
 31
0.0
 11
5.3360399785
 21
4.7221750161
 31
0.0
 11
5.3360372877
 21
4.7634237119
 31
0.0
 11
5.3291365406
 21
4.8046890326
 31
0.0
 11
5.3156272626
 21
4.8462600979
 31
0.0
 11
5.2956206048
 21
4.8890437421
 31
0.0
  0
ENDSEC
  0
SECTION
  2
OBJECTS
  0
DICTIONARY
  5
C
100
AcDbDictionary
280
0
281
1
  3
ACAD_GROUP
350
D
  3
ACAD_MLINESTYLE
350
17
  3
ACAD_LAYOUT
350
1A
  3
ACAD_PLOTSETTINGS
350
19
  3
ACAD_PLOTSTYLENAME
350
E
  0
DICTIONARY
  5
D
102
{ACAD_REACTORS
330
C
102
}
100
AcDbDictionary
280
0
281
1
  0
ACDBDICTIONARYWDFLT
  5
E
102
{ACAD_REACTORS
330
C
102
}
100
AcDbDictionary
281
1
  3
Normal
350
F
100
AcDbDictionaryWithDefault
340
F
  0
DICTIONARY
  5
17
102
{ACAD_REACTORS
330
C
102
}
100
AcDbDictionary
280
0
281
1
  3
Standard
350
18
  0
DICTIONARY
  5
19
102
{ACAD_REACTORS
330
C
102
}
100
AcDbDictionary
281
1
  0
DICTIONARY
  5
1A
102
{ACAD_REACTORS
330
C
102
}
100
AcDbDictionary
281
1
  3
Layout1
350
1E
  3
Model
350
22
  0
ACDBPLACEHOLDER
  5
F
102
{ACAD_REACTORS
330
E
102
}
  0
MLINESTYLE
  5
18
102
{ACAD_REACTORS
330
17
102
}
100
AcDbMlineStyle
  2
STANDARD
 70
0
  3

 62
256
 51
90.0
 52
90.0
 71
2
 49
0.5
 62
256
  6
BYLAYER
 49
-0.5
 62
256
  6
BYLAYER
  0
LAYOUT
  5
1E
102
{ACAD_REACTORS
330
1A
102
}
100
AcDbPlotSettings
  1

  2

  4

  6

 40
0.0
 41
0.0
 42
0.0
 43
0.0
 44
0.0
 45
0.0
 46
0.0
 47
0.0
 48
0.0
 49
0.0
140
0.0
141
0.0
142
1.0
143
1.0
 70
0
 72
0
 73
0
 74
0
  7

 75
0
147
1.0
148
0.0
149
0.0
100
AcDbLayout
  1
Layout1
 70
0
 71
0
 10
0.0
 20
0.0
 11
0.0
 21
0.0
 12
0.0
 22
0.0
 32
0.0
 14
0.0
 24
0.0
 34
0.0
 15
0.0
 25
0.0
 35
0.0
146
0.0
 13
0.0
 23
0.0
 33
0.0
 16
0.0
 26
0.0
 36
0.0
 17
0.0
 27
0.0
 37
0.0
 76
0
330
1B
331
0
345
0
346
0
  0
LAYOUT
  5
22
102
{ACAD_REACTORS
330
1A
102
}
100
AcDbPlotSettings
  1

  2

  4

  6

 40
0.0
 41
0.0
 42
0.0
 43
0.0
 44
0.0
 45
0.0
 46
0.0
 47
0.0
 48
0.0
 49
0.0
140
0.0
141
0.0
142
1.0
143
1.0
 70
0
 72
0
 73
0
 74
0
  7

 75
0
147
1.0
148
0.0
149
0.0
100
AcDbLayout
  1
Model
 70
0
 71
0
 10
0.0
 20
0.0
 11
0.0
 21
0.0
 12
0.0
 22
0.0
 32
0.0
 14
0.0
 24
0.0
 34
0.0
 15
0.0
 25
0.0
 35
0.0
146
0.0
 13
0.0
 23
0.0
 33
0.0
 16
0.0
 26
0.0
 36
0.0
 17
0.0
 27
0.0
 37
0.0
 76
0
330
1F
331
0
345
0
346
0
  0
ENDSEC
  0
EOF
