999
DXF file: SQDB-LAN.dxf
999
Pro/ENGINEER 2006240 by Parametric Technology Corporation
  0
SECTION
  2
HEADER
  9
$ACADVER
  1
AC1015
  9
$DWGCODEPAGE
  3
ANSI_1252
  9
$EXTMAX
 10
11.6929133858
 20
8.2677165354
 30
0.0
  9
$EXTMIN
 10
0.0
 20
0.0
 30
0.0
  9
$LIMMIN
 10
0.0
 20
0.0
  9
$LIMMAX
 10
11.6929133858
 20
8.2677165354
  9
$VIEWCTR
 10
5.8464566929
 20
4.1338582677
  9
$VIEWSIZE
 40
8.2677165354
  9
$CLAYER
  8
0
  9
$LTSCALE
 40
0.6431102362
  9
$CELTYPE
  6
BYLAYER
  9
$DIMSCALE
 40
1.0
  9
$DIMASZ
 40
0.1875
  9
$DIMEXO
 40
0.0730807087
  9
$DIMDLI
 40
0.4443307087
  9
$DIMEXE
 40
0.2104724409
  9
$DIMCEN
 40
0.1052362205
  9
$DIMLFAC
 40
1.0
  9
$DIMBLK
  1
_CLOSED
  9
$DIMTXT
 40
0.15625
  9
$DIMTOL
 70
0
  9
$DIMLIM
 70
0
  9
$DIMTFAC
 40
1.0
  9
$PDMODE
 70
3
  9
$PDSIZE
 40
0.3125
  9
$HANDSEED
  5
503
  9
$MEASUREMENT
 70
0
  9
$INSUNITS
 70
1
  0
ENDSEC
  0
SECTION
  2
CLASSES
  0
CLASS
  1
ACDBDICTIONARYWDFLT
  2
AcDbDictionaryWithDefault
  3
AutoCAD 2000
 90
0
280
0
281
0
  0
CLASS
  1
ACDBPLACEHOLDER
  2
AcDbPlaceHolder
  3
AutoCAD 2000
 90
0
280
0
281
0
  0
CLASS
  1
LAYOUT
  2
AcDbLayout
  3
AutoCAD 2000
 90
0
280
0
281
0
  0
ENDSEC
  0
SECTION
  2
TABLES
  0
TABLE
  2
VPORT
  5
8
100
AcDbSymbolTable
 70
2
  0
VPORT
  5
1F4
100
AcDbSymbolTableRecord
100
AcDbViewportTableRecord
  2
*ACTIVE
 70
0
 10
0.0
 20
0.0
 11
1.0
 21
1.0
 12
5.8464566929
 22
4.1338582677
 13
0.0
 23
0.0
 14
1.0
 24
1.0
 15
0.0
 25
0.0
 16
0.0
 26
0.0
 36
1.0
 17
0.0
 27
0.0
 37
0.0
 40
8.2677165354
 41
1.4142857143
 42
50.0
 43
0.0
 44
0.0
 50
0.0
 51
0.0
 71
0
 72
100
 73
1
 74
1
 75
0
 76
0
 77
0
 78
0
  0
ENDTAB
  0
TABLE
  2
LTYPE
  5
5
100
AcDbSymbolTable
 70
6
  0
LTYPE
  5
14
100
AcDbSymbolTableRecord
100
AcDbLinetypeTableRecord
  2
BYBLOCK
 70
0
  3

 72
65
 73
0
 40
0.0
  0
LTYPE
  5
15
100
AcDbSymbolTableRecord
100
AcDbLinetypeTableRecord
  2
BYLAYER
 70
0
  3

 72
65
 73
0
 40
0.0
  0
LTYPE
  5
16
100
AcDbSymbolTableRecord
100
AcDbLinetypeTableRecord
  2
CONTINUOUS
 70
64
  3
Solid line
 72
65
 73
0
 40
0.0
  0
LTYPE
  5
1F5
100
AcDbSymbolTableRecord
100
AcDbLinetypeTableRecord
  2
CENTER
 70
64
  3
____ _ ____ _ ____ _ ____ _ ____ _ ____ _ ____
 72
65
 73
4
 40
0.6
 49
0.375
 74
0
 49
-0.075
 74
0
 49
0.075
 74
0
 49
-0.075
 74
0
  0
LTYPE
  5
1F6
100
AcDbSymbolTableRecord
100
AcDbLinetypeTableRecord
  2
HIDDEN
 70
64
  3
- - - - - - - - - - - - - - - - - - - -
 72
65
 73
2
 40
0.2
 49
0.1
 74
0
 49
-0.1
 74
0
  0
LTYPE
  5
1F7
100
AcDbSymbolTableRecord
100
AcDbLinetypeTableRecord
  2
PHANTOM
 70
64
  3
_____ _ _ _____ _ _ _____ _ _ _____
 72
65
 73
6
 40
0.8
 49
0.45
 74
0
 49
-0.05
 74
0
 49
0.1
 74
0
 49
-0.05
 74
0
 49
0.1
 74
0
 49
-0.05
 74
0
  0
LTYPE
  5
1F8
100
AcDbSymbolTableRecord
100
AcDbLinetypeTableRecord
  2
DOT
 70
64
  3
. . . . . . . . . . . . . . . . . . . .
 72
65
 73
2
 40
0.2
 49
0.1
 74
0
 49
-0.1
 74
0
  0
LTYPE
  5
1F9
100
AcDbSymbolTableRecord
100
AcDbLinetypeTableRecord
  2
DASHED
 70
64
  3
- - - - - - - - - - - - - - - - - - - -
 72
65
 73
2
 40
0.2
 49
0.1
 74
0
 49
-0.1
 74
0
  0
ENDTAB
  0
TABLE
  2
LAYER
  5
2
100
AcDbSymbolTable
 70
36
  0
LAYER
  5
10
100
AcDbSymbolTableRecord
100
AcDbLayerTableRecord
  2
0
 70
0
 62
7
  6
CONTINUOUS
370
-3
390
F
  0
LAYER
  5
1FA
100
AcDbSymbolTableRecord
100
AcDbLayerTableRecord
  2
DEFAULT_1
 70
0
 62
7
  6
CENTER
370
-3
390
F
  0
LAYER
  5
1FB
100
AcDbSymbolTableRecord
100
AcDbLayerTableRecord
  2
DEFAULT_2
 70
0
 62
8
  6
HIDDEN
370
-3
390
F
  0
LAYER
  5
1FC
100
AcDbSymbolTableRecord
100
AcDbLayerTableRecord
  2
DEFAULT_3
 70
0
 62
7
  6
PHANTOM
370
-3
390
F
  0
LAYER
  5
1FD
100
AcDbSymbolTableRecord
100
AcDbLayerTableRecord
  2
_BLACK_HOLE
 70
0
 62
7
  6
CONTINUOUS
370
-3
390
F
  0
LAYER
  5
1FE
100
AcDbSymbolTableRecord
100
AcDbLayerTableRecord
  2
01_ALL_DTM_PLN
 70
0
 62
7
  6
CONTINUOUS
370
-3
390
F
  0
LAYER
  5
1FF
100
AcDbSymbolTableRecord
100
AcDbLayerTableRecord
  2
01__ASM_ALL_DTM_PLN
 70
0
 62
7
  6
CONTINUOUS
370
-3
390
F
  0
LAYER
  5
200
100
AcDbSymbolTableRecord
100
AcDbLayerTableRecord
  2
01__ASM_DEF_DTM_PLN
 70
0
 62
7
  6
CONTINUOUS
370
-3
390
F
  0
LAYER
  5
201
100
AcDbSymbolTableRecord
100
AcDbLayerTableRecord
  2
01___PRT_ALL_DTM_PLN
 70
0
 62
7
  6
CONTINUOUS
370
-3
390
F
  0
LAYER
  5
202
100
AcDbSymbolTableRecord
100
AcDbLayerTableRecord
  2
01___PRT_DEF_DTM_PLN
 70
0
 62
7
  6
CONTINUOUS
370
-3
390
F
  0
LAYER
  5
203
100
AcDbSymbolTableRecord
100
AcDbLayerTableRecord
  2
02_ALL_AXES
 70
0
 62
7
  6
CONTINUOUS
370
-3
390
F
  0
LAYER
  5
204
100
AcDbSymbolTableRecord
100
AcDbLayerTableRecord
  2
02__ASM_ALL_AXES
 70
0
 62
7
  6
CONTINUOUS
370
-3
390
F
  0
LAYER
  5
205
100
AcDbSymbolTableRecord
100
AcDbLayerTableRecord
  2
02___PRT_ALL_AXES
 70
0
 62
7
  6
CONTINUOUS
370
-3
390
F
  0
LAYER
  5
206
100
AcDbSymbolTableRecord
100
AcDbLayerTableRecord
  2
03_ALL_CURVES
 70
0
 62
7
  6
CONTINUOUS
370
-3
390
F
  0
LAYER
  5
207
100
AcDbSymbolTableRecord
100
AcDbLayerTableRecord
  2
03__ASM_ALL_CURVES
 70
0
 62
7
  6
CONTINUOUS
370
-3
390
F
  0
LAYER
  5
208
100
AcDbSymbolTableRecord
100
AcDbLayerTableRecord
  2
03___PRT_ALL_CURVES
 70
0
 62
7
  6
CONTINUOUS
370
-3
390
F
  0
LAYER
  5
209
100
AcDbSymbolTableRecord
100
AcDbLayerTableRecord
  2
04_ALL_DTM_PNT
 70
0
 62
7
  6
CONTINUOUS
370
-3
390
F
  0
LAYER
  5
20A
100
AcDbSymbolTableRecord
100
AcDbLayerTableRecord
  2
04__ASM_ALL_DTM_PNT
 70
0
 62
7
  6
CONTINUOUS
370
-3
390
F
  0
LAYER
  5
20B
100
AcDbSymbolTableRecord
100
AcDbLayerTableRecord
  2
04___PRT_ALL_DTM_PNT
 70
0
 62
7
  6
CONTINUOUS
370
-3
390
F
  0
LAYER
  5
20C
100
AcDbSymbolTableRecord
100
AcDbLayerTableRecord
  2
05_ALL_DTM_CSYS
 70
0
 62
7
  6
CONTINUOUS
370
-3
390
F
  0
LAYER
  5
20D
100
AcDbSymbolTableRecord
100
AcDbLayerTableRecord
  2
05__ASM_ALL_DTM_CSYS
 70
0
 62
7
  6
CONTINUOUS
370
-3
390
F
  0
LAYER
  5
20E
100
AcDbSymbolTableRecord
100
AcDbLayerTableRecord
  2
05__ASM_DEF_DTM_CSYS
 70
0
 62
7
  6
CONTINUOUS
370
-3
390
F
  0
LAYER
  5
20F
100
AcDbSymbolTableRecord
100
AcDbLayerTableRecord
  2
05___PRT_ALL_DTM_CSYS
 70
0
 62
7
  6
CONTINUOUS
370
-3
390
F
  0
LAYER
  5
210
100
AcDbSymbolTableRecord
100
AcDbLayerTableRecord
  2
05___PRT_DEF_DTM_CSYS
 70
0
 62
7
  6
CONTINUOUS
370
-3
390
F
  0
LAYER
  5
211
100
AcDbSymbolTableRecord
100
AcDbLayerTableRecord
  2
06_ALL_SURFS
 70
0
 62
7
  6
CONTINUOUS
370
-3
390
F
  0
LAYER
  5
212
100
AcDbSymbolTableRecord
100
AcDbLayerTableRecord
  2
06__ASM_ALL_SURFS
 70
0
 62
7
  6
CONTINUOUS
370
-3
390
F
  0
LAYER
  5
213
100
AcDbSymbolTableRecord
100
AcDbLayerTableRecord
  2
06___PRT_ALL_SURFS
 70
0
 62
7
  6
CONTINUOUS
370
-3
390
F
  0
LAYER
  5
214
100
AcDbSymbolTableRecord
100
AcDbLayerTableRecord
  2
07__ASM_ALL_SKELETONS
 70
0
 62
7
  6
CONTINUOUS
370
-3
390
F
  0
LAYER
  5
215
100
AcDbSymbolTableRecord
100
AcDbLayerTableRecord
  2
126-001_HEX_FEATURES
 70
0
 62
7
  6
CONTINUOUS
370
-3
390
F
  0
LAYER
  5
216
100
AcDbSymbolTableRecord
100
AcDbLayerTableRecord
  2
126-001_REF_GEOMETRY
 70
0
 62
7
  6
CONTINUOUS
370
-3
390
F
  0
LAYER
  5
217
100
AcDbSymbolTableRecord
100
AcDbLayerTableRecord
  2
126-004_HEX_FEATURES
 70
0
 62
7
  6
CONTINUOUS
370
-3
390
F
  0
LAYER
  5
218
100
AcDbSymbolTableRecord
100
AcDbLayerTableRecord
  2
126-004_REF_GEOMETRY
 70
0
 62
7
  6
CONTINUOUS
370
-3
390
F
  0
LAYER
  5
219
100
AcDbSymbolTableRecord
100
AcDbLayerTableRecord
  2
126-400_HEX_FEATURES
 70
0
 62
7
  6
CONTINUOUS
370
-3
390
F
  0
LAYER
  5
21A
100
AcDbSymbolTableRecord
100
AcDbLayerTableRecord
  2
126-400_REF_GEOMETRY
 70
0
 62
7
  6
CONTINUOUS
370
-3
390
F
  0
LAYER
  5
21B
100
AcDbSymbolTableRecord
100
AcDbLayerTableRecord
  2
126-401_HEX_FEATURES
 70
0
 62
7
  6
CONTINUOUS
370
-3
390
F
  0
LAYER
  5
21C
100
AcDbSymbolTableRecord
100
AcDbLayerTableRecord
  2
126-401_REF_GEOMETRY
 70
0
 62
7
  6
CONTINUOUS
370
-3
390
F
  0
LAYER
  5
21D
100
AcDbSymbolTableRecord
100
AcDbLayerTableRecord
  2
126-402_HEX_FEATURES
 70
0
 62
7
  6
CONTINUOUS
370
-3
390
F
  0
LAYER
  5
21E
100
AcDbSymbolTableRecord
100
AcDbLayerTableRecord
  2
126-402_REF_GEOMETRY
 70
0
 62
7
  6
CONTINUOUS
370
-3
390
F
  0
LAYER
  5
21F
100
AcDbSymbolTableRecord
100
AcDbLayerTableRecord
  2
126-403_HEX_FEATURES
 70
0
 62
7
  6
CONTINUOUS
370
-3
390
F
  0
LAYER
  5
220
100
AcDbSymbolTableRecord
100
AcDbLayerTableRecord
  2
126-403_REF_GEOMETRY
 70
0
 62
7
  6
CONTINUOUS
370
-3
390
F
  0
LAYER
  5
221
100
AcDbSymbolTableRecord
100
AcDbLayerTableRecord
  2
126-404_HEX_FEATURES
 70
0
 62
7
  6
CONTINUOUS
370
-3
390
F
  0
LAYER
  5
222
100
AcDbSymbolTableRecord
100
AcDbLayerTableRecord
  2
126-404_REF_GEOMETRY
 70
0
 62
7
  6
CONTINUOUS
370
-3
390
F
  0
LAYER
  5
223
100
AcDbSymbolTableRecord
100
AcDbLayerTableRecord
  2
126-405_HEX_FEATURES
 70
0
 62
7
  6
CONTINUOUS
370
-3
390
F
  0
LAYER
  5
224
100
AcDbSymbolTableRecord
100
AcDbLayerTableRecord
  2
126-405_REF_GEOMETRY
 70
0
 62
7
  6
CONTINUOUS
370
-3
390
F
  0
LAYER
  5
225
100
AcDbSymbolTableRecord
100
AcDbLayerTableRecord
  2
126-406_HEX_FEATURES
 70
0
 62
7
  6
CONTINUOUS
370
-3
390
F
  0
LAYER
  5
226
100
AcDbSymbolTableRecord
100
AcDbLayerTableRecord
  2
126-406_REF_GEOMETRY
 70
0
 62
7
  6
CONTINUOUS
370
-3
390
F
  0
LAYER
  5
227
100
AcDbSymbolTableRecord
100
AcDbLayerTableRecord
  2
COPY_GEO_FET
 70
0
 62
7
  6
CONTINUOUS
370
-3
390
F
  0
LAYER
  5
228
100
AcDbSymbolTableRecord
100
AcDbLayerTableRecord
  2
COSMETIC
 70
0
 62
7
  6
CONTINUOUS
370
-3
390
F
  0
LAYER
  5
229
100
AcDbSymbolTableRecord
100
AcDbLayerTableRecord
  2
COSM_REF
 70
0
 62
7
  6
CONTINUOUS
370
-3
390
F
  0
LAYER
  5
22A
100
AcDbSymbolTableRecord
100
AcDbLayerTableRecord
  2
CURVES
 70
0
 62
7
  6
CONTINUOUS
370
-3
390
F
  0
LAYER
  5
22B
100
AcDbSymbolTableRecord
100
AcDbLayerTableRecord
  2
CUT_REF_SURF
 70
0
 62
7
  6
CONTINUOUS
370
-3
390
F
  0
LAYER
  5
22C
100
AcDbSymbolTableRecord
100
AcDbLayerTableRecord
  2
DATUM
 70
0
 62
7
  6
CONTINUOUS
370
-3
390
F
  0
LAYER
  5
22D
100
AcDbSymbolTableRecord
100
AcDbLayerTableRecord
  2
DATUMCURVES
 70
0
 62
7
  6
CONTINUOUS
370
-3
390
F
  0
LAYER
  5
22E
100
AcDbSymbolTableRecord
100
AcDbLayerTableRecord
  2
DATUM_ADDED_280-022
 70
0
 62
7
  6
CONTINUOUS
370
-3
390
F
  0
LAYER
  5
22F
100
AcDbSymbolTableRecord
100
AcDbLayerTableRecord
  2
DIMENSIONS
 70
0
 62
7
  6
CONTINUOUS
370
-3
390
F
  0
LAYER
  5
230
100
AcDbSymbolTableRecord
100
AcDbLayerTableRecord
  2
DRAWINGNOTES
 70
0
 62
7
  6
CONTINUOUS
370
-3
390
F
  0
LAYER
  5
231
100
AcDbSymbolTableRecord
100
AcDbLayerTableRecord
  2
DTM
 70
0
 62
7
  6
CONTINUOUS
370
-3
390
F
  0
LAYER
  5
232
100
AcDbSymbolTableRecord
100
AcDbLayerTableRecord
  2
DTM325
 70
0
 62
7
  6
CONTINUOUS
370
-3
390
F
  0
LAYER
  5
233
100
AcDbSymbolTableRecord
100
AcDbLayerTableRecord
  2
DTM_280-022
 70
0
 62
7
  6
CONTINUOUS
370
-3
390
F
  0
LAYER
  5
234
100
AcDbSymbolTableRecord
100
AcDbLayerTableRecord
  2
DTM_500001
 70
0
 62
7
  6
CONTINUOUS
370
-3
390
F
  0
LAYER
  5
235
100
AcDbSymbolTableRecord
100
AcDbLayerTableRecord
  2
DTM_500002
 70
0
 62
7
  6
CONTINUOUS
370
-3
390
F
  0
LAYER
  5
236
100
AcDbSymbolTableRecord
100
AcDbLayerTableRecord
  2
DTM_515002
 70
0
 62
7
  6
CONTINUOUS
370
-3
390
F
  0
LAYER
  5
237
100
AcDbSymbolTableRecord
100
AcDbLayerTableRecord
  2
DTM_700-003
 70
0
 62
7
  6
CONTINUOUS
370
-3
390
F
  0
LAYER
  5
238
100
AcDbSymbolTableRecord
100
AcDbLayerTableRecord
  2
DTM_800001
 70
0
 62
7
  6
CONTINUOUS
370
-3
390
F
  0
LAYER
  5
239
100
AcDbSymbolTableRecord
100
AcDbLayerTableRecord
  2
DTM_BALLHOLDER
 70
0
 62
7
  6
CONTINUOUS
370
-3
390
F
  0
LAYER
  5
23A
100
AcDbSymbolTableRecord
100
AcDbLayerTableRecord
  2
DTM_ORIFICE_SEAT
 70
0
 62
7
  6
CONTINUOUS
370
-3
390
F
  0
LAYER
  5
23B
100
AcDbSymbolTableRecord
100
AcDbLayerTableRecord
  2
DTM_SPRING_LH
 70
0
 62
7
  6
CONTINUOUS
370
-3
390
F
  0
LAYER
  5
23C
100
AcDbSymbolTableRecord
100
AcDbLayerTableRecord
  2
DTM_SPRING_RH
 70
0
 62
7
  6
CONTINUOUS
370
-3
390
F
  0
LAYER
  5
23D
100
AcDbSymbolTableRecord
100
AcDbLayerTableRecord
  2
DTM_SP_LH_CONSTR
 70
0
 62
7
  6
CONTINUOUS
370
-3
390
F
  0
LAYER
  5
23E
100
AcDbSymbolTableRecord
100
AcDbLayerTableRecord
  2
DTM_SP_RH_CONSTR
 70
0
 62
7
  6
CONTINUOUS
370
-3
390
F
  0
LAYER
  5
23F
100
AcDbSymbolTableRecord
100
AcDbLayerTableRecord
  2
FACE1
 70
0
 62
7
  6
CONTINUOUS
370
-3
390
F
  0
LAYER
  5
240
100
AcDbSymbolTableRecord
100
AcDbLayerTableRecord
  2
FACE2
 70
0
 62
7
  6
CONTINUOUS
370
-3
390
F
  0
LAYER
  5
241
100
AcDbSymbolTableRecord
100
AcDbLayerTableRecord
  2
FACE3
 70
0
 62
7
  6
CONTINUOUS
370
-3
390
F
  0
LAYER
  5
242
100
AcDbSymbolTableRecord
100
AcDbLayerTableRecord
  2
FACE4
 70
0
 62
7
  6
CONTINUOUS
370
-3
390
F
  0
LAYER
  5
243
100
AcDbSymbolTableRecord
100
AcDbLayerTableRecord
  2
GEOMETRICTOLERANCES
 70
0
 62
7
  6
CONTINUOUS
370
-3
390
F
  0
LAYER
  5
244
100
AcDbSymbolTableRecord
100
AcDbLayerTableRecord
  2
HOLE_FEATURES
 70
0
 62
7
  6
CONTINUOUS
370
-3
390
F
  0
LAYER
  5
245
100
AcDbSymbolTableRecord
100
AcDbLayerTableRecord
  2
LAY0001
 70
0
 62
7
  6
CONTINUOUS
370
-3
390
F
  0
LAYER
  5
246
100
AcDbSymbolTableRecord
100
AcDbLayerTableRecord
  2
NPTF_PORT_PER_S-164
 70
0
 62
7
  6
CONTINUOUS
370
-3
390
F
  0
LAYER
  5
247
100
AcDbSymbolTableRecord
100
AcDbLayerTableRecord
  2
PARAMETERDIMENSIONS
 70
0
 62
7
  6
CONTINUOUS
370
-3
390
F
  0
LAYER
  5
248
100
AcDbSymbolTableRecord
100
AcDbLayerTableRecord
  2
PLANE
 70
0
 62
7
  6
CONTINUOUS
370
-3
390
F
  0
LAYER
  5
249
100
AcDbSymbolTableRecord
100
AcDbLayerTableRecord
  2
PROTRUSIONS
 70
0
 62
7
  6
CONTINUOUS
370
-3
390
F
  0
LAYER
  5
24A
100
AcDbSymbolTableRecord
100
AcDbLayerTableRecord
  2
SPEC_SAE-4_PORT
 70
0
 62
7
  6
CONTINUOUS
370
-3
390
F
  0
LAYER
  5
24B
100
AcDbSymbolTableRecord
100
AcDbLayerTableRecord
  2
STD_SAE-4_PORT
 70
0
 62
7
  6
CONTINUOUS
370
-3
390
F
  0
LAYER
  5
24C
100
AcDbSymbolTableRecord
100
AcDbLayerTableRecord
  2
TEXT
 70
0
 62
7
  6
CONTINUOUS
370
-3
390
F
  0
LAYER
  5
24D
100
AcDbSymbolTableRecord
100
AcDbLayerTableRecord
  2
THREAD
 70
0
 62
7
  6
CONTINUOUS
370
-3
390
F
  0
LAYER
  5
24E
100
AcDbSymbolTableRecord
100
AcDbLayerTableRecord
  2
WIRE_GRV-SLOT_DRW_REF
 70
0
 62
7
  6
CONTINUOUS
370
-3
390
F
  0
LAYER
  5
24F
100
AcDbSymbolTableRecord
100
AcDbLayerTableRecord
  2
XSEC_DATUMS
 70
0
 62
7
  6
CONTINUOUS
370
-3
390
F
  0
ENDTAB
  0
TABLE
  2
STYLE
  5
3
100
AcDbSymbolTable
 70
1
  0
STYLE
  5
11
100
AcDbSymbolTableRecord
100
AcDbTextStyleTableRecord
  2
STANDARD
 70
0
 40
0.0
 41
0.8
 50
0.0
 71
0
 42
0.2
  3
txt
  4

  0
ENDTAB
  0
TABLE
  2
VIEW
  5
6
100
AcDbSymbolTable
 70
0
  0
ENDTAB
  0
TABLE
  2
UCS
  5
7
100
AcDbSymbolTable
 70
0
  0
ENDTAB
  0
TABLE
  2
APPID
  5
9
100
AcDbSymbolTable
 70
1
  0
APPID
  5
250
100
AcDbSymbolTableRecord
100
AcDbRegAppTableRecord
  2
ACAD
 70
0
  0
ENDTAB
  0
TABLE
  2
BLOCK_RECORD
  5
1
100
AcDbSymbolTable
 70
0
  0
BLOCK_RECORD
  5
1F
100
AcDbSymbolTableRecord
100
AcDbBlockTableRecord
  2
*MODEL_SPACE
  0
BLOCK_RECORD
  5
1B
100
AcDbSymbolTableRecord
100
AcDbBlockTableRecord
  2
*PAPER_SPACE
  0
ENDTAB
  0
TABLE
  2
DIMSTYLE
  5
A
100
AcDbSymbolTable
 70
1
100
AcDbDimStyleTable
 71
0
  0
DIMSTYLE
105
251
100
AcDbSymbolTableRecord
100
AcDbDimStyleTableRecord
  2
STANDARD
 70
0
  3

  4

 40
1.0
 41
0.1875
 42
0.0625
 43
0.38
 44
0.18
 45
0.0
 46
0.0
 47
0.01
 48
0.01
140
0.15625
141
0.09
142
0.0
143
25.4
144
1.0
145
0.0
146
1.0
147
0.09
 71
0.0
 72
0.0
 73
1
 74
1
 75
0
 76
0
 77
0
 78
4
170
0
171
2
172
0
173
0
174
0
175
0
176
0
177
0
178
0
270
2
271
2
272
2
273
2
274
2
275
0
280
0
281
0
282
0
283
1
284
4
285
0
286
0
287
3
288
0
340
11
  0
ENDTAB
  0
ENDSEC
  0
SECTION
  2
BLOCKS
  0
BLOCK
  5
20
100
AcDbEntity
  8
0
100
AcDbBlockBegin
  2
*MODEL_SPACE
 70
0
 10
0.0
 20
0.0
 30
0.0
  3
*MODEL_SPACE
  1

  0
ENDBLK
  5
21
100
AcDbEntity
  8
0
100
AcDbBlockEnd
  0
BLOCK
  5
1C
100
AcDbEntity
  8
0
100
AcDbBlockBegin
  2
*PAPER_SPACE
 70
0
 10
0.0
 20
0.0
 30
0.0
  3
*PAPER_SPACE
  1

  0
ENDBLK
  5
1D
100
AcDbEntity
  8
0
100
AcDbBlockEnd
  0
ENDSEC
  0
SECTION
  2
ENTITIES
  0
LINE
  5
252
100
AcDbEntity
  8
0
100
AcDbLine
 62
7
  6
CONTINUOUS
 10
3.5777815831
 20
4.270598808
 11
3.5777815831
 21
3.9646125572
  0
LINE
  5
253
100
AcDbEntity
  8
03__ASM_ALL_CURVES
100
AcDbLine
 62
40
  6
CONTINUOUS
 10
3.5777815831
 20
4.270598808
 11
3.5777815831
 21
5.1378716826
  0
LINE
  5
254
100
AcDbEntity
  8
0
100
AcDbLine
 62
7
  6
CONTINUOUS
 10
3.6087815831
 20
4.3016056826
 11
3.6087815831
 21
3.9336056826
  0
LINE
  5
255
100
AcDbEntity
  8
03__ASM_ALL_CURVES
100
AcDbLine
 62
40
  6
CONTINUOUS
 10
3.6939715831
 20
5.1185066826
 11
3.6939715831
 21
5.0797766826
  0
LINE
  5
256
100
AcDbEntity
  8
0
100
AcDbLine
 62
7
  6
CONTINUOUS
 10
3.8077815831
 20
4.3016006673
 11
3.8077815831
 21
3.9336106979
  0
LINE
  5
257
100
AcDbEntity
  8
0
100
AcDbLine
 62
7
  6
CONTINUOUS
 10
3.8092815831
 20
3.9564626896
 11
3.8092815831
 21
4.1937292514
  0
LINE
  5
258
100
AcDbEntity
  8
0
100
AcDbLine
 62
7
  6
CONTINUOUS
 10
3.8442815831
 20
3.9564626896
 11
3.8442815831
 21
4.1937292514
  0
LINE
  5
259
100
AcDbEntity
  8
0
100
AcDbLine
 62
7
  6
CONTINUOUS
 10
3.8457815831
 20
4.3016006673
 11
3.8457815831
 21
3.9336106979
  0
LINE
  5
25A
100
AcDbEntity
  8
0
100
AcDbLine
 62
7
  6
CONTINUOUS
 10
3.5777815831
 20
3.9646056826
 11
3.6087815831
 21
3.9336056826
  0
LINE
  5
25B
100
AcDbEntity
  8
0
100
AcDbLine
 62
7
  6
CONTINUOUS
 10
4.0777815831
 20
3.8699544975
 11
4.0777815831
 21
4.3652568677
  0
LINE
  5
25C
100
AcDbEntity
  8
0
100
AcDbLine
 62
7
  6
CONTINUOUS
 10
4.1397815831
 20
3.8466056826
 11
4.1397815831
 21
4.3886056826
  0
LINE
  5
25D
100
AcDbEntity
  8
0
100
AcDbLine
 62
7
  6
CONTINUOUS
 10
4.1457815831
 20
3.8466056826
 11
4.1457815831
 21
4.3886056826
  0
LINE
  5
25E
100
AcDbEntity
  8
0
100
AcDbLine
 62
7
  6
CONTINUOUS
 10
4.1512815831
 20
3.8521056826
 11
4.1512815831
 21
4.3831056826
  0
LINE
  5
25F
100
AcDbEntity
  8
0
100
AcDbLine
 62
7
  6
CONTINUOUS
 10
4.1672815831
 20
3.8521056826
 11
4.1672815831
 21
4.3831056826
  0
LINE
  5
260
100
AcDbEntity
  8
03__ASM_ALL_CURVES
100
AcDbLine
 62
40
  6
CONTINUOUS
 10
4.3250018956
 20
5.1620779326
 11
4.3189503331
 21
5.1378716826
  0
LINE
  5
261
100
AcDbEntity
  8
03__ASM_ALL_CURVES
100
AcDbLine
 62
40
  6
CONTINUOUS
 10
4.3189503331
 20
5.2185591807
 11
4.3250018956
 21
5.2266279345
  0
LINE
  5
262
100
AcDbEntity
  8
03__ASM_ALL_CURVES
100
AcDbLine
 62
40
  6
CONTINUOUS
 10
4.3371050206
 20
5.1782154316
 11
4.3250018956
 21
5.1620779326
  0
LINE
  5
263
100
AcDbEntity
  8
03__ASM_ALL_CURVES
100
AcDbLine
 62
40
  6
CONTINUOUS
 10
4.3673628331
 20
5.2024216845
 11
4.3613112706
 21
5.1943529307
  0
LINE
  5
264
100
AcDbEntity
  8
03__ASM_ALL_CURVES
100
AcDbLine
 62
40
  6
CONTINUOUS
 10
4.3250018956
 20
5.2266279345
 11
4.3371050206
 21
5.2346966826
  0
LINE
  5
265
100
AcDbEntity
  8
0
100
AcDbLine
 62
7
  6
CONTINUOUS
 10
4.3587815831
 20
3.8466056826
 11
4.3587815831
 21
4.3886056826
  0
LINE
  5
266
100
AcDbEntity
  8
03__ASM_ALL_CURVES
100
AcDbLine
 62
40
  6
CONTINUOUS
 10
4.3673628331
 20
5.2185591807
 11
4.3673628331
 21
5.2024216845
  0
LINE
  5
267
100
AcDbEntity
  8
03__ASM_ALL_CURVES
100
AcDbLine
 62
40
  6
CONTINUOUS
 10
4.6094253331
 20
5.2024216845
 11
4.6154768956
 21
5.2185591807
  0
LINE
  5
268
100
AcDbEntity
  8
03__ASM_ALL_CURVES
100
AcDbLine
 62
40
  6
CONTINUOUS
 10
4.5549612706
 20
5.2346966826
 11
4.5126003331
 21
5.1620779326
  0
LINE
  5
269
100
AcDbEntity
  8
03__ASM_ALL_CURVES
100
AcDbLine
 62
40
  6
CONTINUOUS
 10
4.6154768956
 20
5.2185591807
 11
4.6215284581
 21
5.2266279345
  0
LINE
  5
26A
100
AcDbEntity
  8
03__ASM_ALL_CURVES
100
AcDbLine
 62
40
  6
CONTINUOUS
 10
4.6517862706
 20
5.1540091831
 11
4.6457347081
 21
5.1459404328
  0
LINE
  5
26B
100
AcDbEntity
  8
0
100
AcDbLine
 62
7
  6
CONTINUOUS
 10
3.5777815831
 20
4.2706056826
 11
3.6087815831
 21
4.3016056826
  0
LINE
  5
26C
100
AcDbEntity
  8
03__ASM_ALL_CURVES
100
AcDbLine
 62
40
  6
CONTINUOUS
 10
4.3613112706
 20
5.1943529307
 11
4.3371050206
 21
5.1782154316
  0
LINE
  5
26D
100
AcDbEntity
  8
03__ASM_ALL_CURVES
100
AcDbLine
 62
40
  6
CONTINUOUS
 10
4.6215284581
 20
5.2266279345
 11
4.6336315831
 21
5.2346966826
  0
LINE
  5
26E
100
AcDbEntity
  8
0
100
AcDbLine
 62
7
  6
CONTINUOUS
 10
4.1827823686
 20
3.836604897
 11
4.1672815831
 21
3.8521056826
  0
LINE
  5
26F
100
AcDbEntity
  8
0
100
AcDbLine
 62
7
  6
CONTINUOUS
 10
4.3897815831
 20
3.7941056826
 11
4.3897815831
 21
4.4411056826
  0
LINE
  5
270
100
AcDbEntity
  8
03__ASM_ALL_CURVES
100
AcDbLine
 62
40
  6
CONTINUOUS
 10
4.4339300206
 20
5.1378716826
 11
4.4339300206
 21
5.1459404328
  0
LINE
  5
271
100
AcDbEntity
  8
0
100
AcDbLine
 62
7
  6
CONTINUOUS
 10
4.4397815831
 20
3.7441056826
 11
4.4397815831
 21
4.4911056826
  0
LINE
  5
272
100
AcDbEntity
  8
0
100
AcDbLine
 62
7
  6
CONTINUOUS
 10
4.4907815831
 20
3.7441056826
 11
4.4907815831
 21
4.4911056826
  0
LINE
  5
273
100
AcDbEntity
  8
0
100
AcDbLine
 62
7
  6
CONTINUOUS
 10
4.4957815831
 20
3.7491056826
 11
4.4957815831
 21
4.4861056826
  0
LINE
  5
274
100
AcDbEntity
  8
0
100
AcDbLine
 62
7
  6
CONTINUOUS
 10
4.5037815831
 20
3.7676056826
 11
4.5037815831
 21
4.4676056826
  0
LINE
  5
275
100
AcDbEntity
  8
0
100
AcDbLine
 62
7
  6
CONTINUOUS
 10
4.5257815831
 20
3.7676056826
 11
4.5257815831
 21
4.4676056826
  0
LINE
  5
276
100
AcDbEntity
  8
0
100
AcDbLine
 62
7
  6
CONTINUOUS
 10
4.5337815831
 20
3.7491056826
 11
4.5337815831
 21
4.4861056826
  0
LINE
  5
277
100
AcDbEntity
  8
03__ASM_ALL_CURVES
100
AcDbLine
 62
40
  6
CONTINUOUS
 10
4.7244050206
 20
5.2185591807
 11
4.7183534581
 21
5.1943529307
  0
LINE
  5
278
100
AcDbEntity
  8
03__ASM_ALL_CURVES
100
AcDbLine
 62
40
  6
CONTINUOUS
 10
4.6578378331
 20
5.2024216845
 11
4.6517862706
 21
5.1862841826
  0
LINE
  5
279
100
AcDbEntity
  8
03__ASM_ALL_CURVES
100
AcDbLine
 62
40
  6
CONTINUOUS
 10
4.6578378331
 20
5.1701466836
 11
4.6517862706
 21
5.1540091831
  0
LINE
  5
27A
100
AcDbEntity
  8
03__ASM_ALL_CURVES
100
AcDbLine
 62
40
  6
CONTINUOUS
 10
4.7365081456
 20
5.2346966826
 11
4.7244050206
 21
5.2185591807
  0
LINE
  5
27B
100
AcDbEntity
  8
03__ASM_ALL_CURVES
100
AcDbLine
 62
40
  6
CONTINUOUS
 10
4.8091268956
 20
5.2185591807
 11
4.8151784581
 21
5.2266279345
  0
LINE
  5
27C
100
AcDbEntity
  8
03__ASM_ALL_CURVES
100
AcDbLine
 62
40
  6
CONTINUOUS
 10
4.8454362706
 20
5.1540091831
 11
4.8393847081
 21
5.1459404328
  0
LINE
  5
27D
100
AcDbEntity
  8
03__ASM_ALL_CURVES
100
AcDbLine
 62
40
  6
CONTINUOUS
 10
4.6457347081
 20
5.1459404328
 11
4.6336315831
 21
5.1378716826
  0
LINE
  5
27E
100
AcDbEntity
  8
03__ASM_ALL_CURVES
100
AcDbLine
 62
40
  6
CONTINUOUS
 10
4.8151784581
 20
5.2266279345
 11
4.8272815831
 21
5.2346966826
  0
LINE
  5
27F
100
AcDbEntity
  8
03__ASM_ALL_CURVES
100
AcDbLine
 62
40
  6
CONTINUOUS
 10
4.9059518956
 20
5.2266279345
 11
4.9180550206
 21
5.2346966826
  0
LINE
  5
280
100
AcDbEntity
  8
03__ASM_ALL_CURVES
100
AcDbLine
 62
40
  6
CONTINUOUS
 10
4.6517862706
 20
5.1862841826
 11
4.6336315831
 21
5.1782154316
  0
LINE
  5
281
100
AcDbEntity
  8
0
100
AcDbLine
 62
7
  6
CONTINUOUS
 10
4.4397815831
 20
3.7441056826
 11
4.3897815831
 21
3.7941056826
  0
LINE
  5
282
100
AcDbEntity
  8
0
100
AcDbLine
 62
7
  6
CONTINUOUS
 10
4.5387815831
 20
3.7441056826
 11
4.5387815831
 21
4.4911056826
  0
LINE
  5
283
100
AcDbEntity
  8
03__ASM_ALL_CURVES
100
AcDbLine
 62
40
  6
CONTINUOUS
 10
4.5549612706
 20
5.1378716826
 11
4.5549612706
 21
5.2346966826
  0
LINE
  5
284
100
AcDbEntity
  8
03__ASM_ALL_CURVES
100
AcDbLine
 62
40
  6
CONTINUOUS
 10
4.6578378331
 20
5.2024216845
 11
4.6578378331
 21
5.1701466836
  0
LINE
  5
285
100
AcDbEntity
  8
03__ASM_ALL_CURVES
100
AcDbLine
 62
40
  6
CONTINUOUS
 10
4.8030753331
 20
5.2024216845
 11
4.8091268956
 21
5.2185591807
  0
LINE
  5
286
100
AcDbEntity
  8
03__ASM_ALL_CURVES
100
AcDbLine
 62
40
  6
CONTINUOUS
 10
4.8030753331
 20
5.1701466836
 11
4.8091268956
 21
5.1862841826
  0
LINE
  5
287
100
AcDbEntity
  8
03__ASM_ALL_CURVES
100
AcDbLine
 62
40
  6
CONTINUOUS
 10
4.8514878331
 20
5.1701466836
 11
4.8454362706
 21
5.1540091831
  0
LINE
  5
288
100
AcDbEntity
  8
03__ASM_ALL_CURVES
100
AcDbLine
 62
40
  6
CONTINUOUS
 10
4.9483128331
 20
5.2104904326
 11
4.9422612706
 21
5.2024216845
  0
LINE
  5
289
100
AcDbEntity
  8
03__ASM_ALL_CURVES
100
AcDbLine
 62
40
  6
CONTINUOUS
 10
4.9543643956
 20
5.1620779326
 11
4.9422612706
 21
5.1459404328
  0
LINE
  5
28A
100
AcDbEntity
  8
03__ASM_ALL_CURVES
100
AcDbLine
 62
40
  6
CONTINUOUS
 10
5.0935503331
 20
5.2185591807
 11
5.0996018956
 21
5.2266279345
  0
LINE
  5
28B
100
AcDbEntity
  8
0
100
AcDbLine
 62
7
  6
CONTINUOUS
 10
4.1827823686
 20
4.3986064682
 11
4.1672815831
 21
4.3831056826
  0
LINE
  5
28C
100
AcDbEntity
  8
0
100
AcDbLine
 62
7
  6
CONTINUOUS
 10
4.4397815831
 20
4.4911056826
 11
4.3897815831
 21
4.4411056826
  0
LINE
  5
28D
100
AcDbEntity
  8
03__ASM_ALL_CURVES
100
AcDbLine
 62
40
  6
CONTINUOUS
 10
4.8393847081
 20
5.1459404328
 11
4.8272815831
 21
5.1378716826
  0
LINE
  5
28E
100
AcDbEntity
  8
03__ASM_ALL_CURVES
100
AcDbLine
 62
40
  6
CONTINUOUS
 10
4.9422612706
 20
5.2024216845
 11
4.9301581456
 21
5.1943529307
  0
LINE
  5
28F
100
AcDbEntity
  8
03__ASM_ALL_CURVES
100
AcDbLine
 62
40
  6
CONTINUOUS
 10
4.9422612706
 20
5.1459404328
 11
4.9301581456
 21
5.1378716826
  0
LINE
  5
290
100
AcDbEntity
  8
03__ASM_ALL_CURVES
100
AcDbLine
 62
40
  6
CONTINUOUS
 10
5.0996018956
 20
5.2266279345
 11
5.1117050206
 21
5.2346966826
  0
LINE
  5
291
100
AcDbEntity
  8
03__ASM_ALL_CURVES
100
AcDbLine
 62
40
  6
CONTINUOUS
 10
5.1359112706
 20
5.1943529307
 11
5.1117050206
 21
5.1782154316
  0
LINE
  5
292
100
AcDbEntity
  8
03__ASM_ALL_CURVES
100
AcDbLine
 62
40
  6
CONTINUOUS
 10
4.8091268956
 20
5.1862841826
 11
4.8272815831
 21
5.1943529307
  0
LINE
  5
293
100
AcDbEntity
  8
0
100
AcDbLine
 62
7
  6
CONTINUOUS
 10
4.3587815831
 20
4.3886056826
 11
4.3526868109
 21
4.3991621376
  0
LINE
  5
294
100
AcDbEntity
  8
03__ASM_ALL_CURVES
100
AcDbLine
 62
40
  6
CONTINUOUS
 10
4.7183534581
 20
5.1943529307
 11
4.7183534581
 21
5.1782154316
  0
LINE
  5
295
100
AcDbEntity
  8
03__ASM_ALL_CURVES
100
AcDbLine
 62
40
  6
CONTINUOUS
 10
4.8030753331
 20
5.1701466836
 11
4.8030753331
 21
5.2024216845
  0
LINE
  5
296
100
AcDbEntity
  8
0
100
AcDbLine
 62
7
  6
CONTINUOUS
 10
4.3587815831
 20
3.8466056826
 11
4.3526868109
 21
3.8360492276
  0
LINE
  5
297
100
AcDbEntity
  8
03__ASM_ALL_CURVES
100
AcDbLine
 62
40
  6
CONTINUOUS
 10
5.2327362706
 20
5.2346966826
 11
5.1903753331
 21
5.1620779326
  0
LINE
  5
298
100
AcDbEntity
  8
03__ASM_ALL_CURVES
100
AcDbLine
 62
40
  6
CONTINUOUS
 10
5.1117050206
 20
5.1782154316
 11
5.0996018956
 21
5.1620779326
  0
LINE
  5
299
100
AcDbEntity
  8
03__ASM_ALL_CURVES
100
AcDbLine
 62
40
  6
CONTINUOUS
 10
5.1419628331
 20
5.2024216845
 11
5.1359112706
 21
5.1943529307
  0
LINE
  5
29A
100
AcDbEntity
  8
03__ASM_ALL_CURVES
100
AcDbLine
 62
40
  6
CONTINUOUS
 10
7.3013712226
 20
3.3396381826
 11
7.2650618476
 21
3.3396381826
  0
LINE
  5
29B
100
AcDbEntity
  8
03__ASM_ALL_CURVES
100
AcDbLine
 62
40
  6
CONTINUOUS
 10
7.2151364569
 20
3.3396381826
 11
7.2060591132
 21
3.3396381826
  0
LINE
  5
29C
100
AcDbEntity
  8
03__ASM_ALL_CURVES
100
AcDbLine
 62
40
  6
CONTINUOUS
 10
7.0835149726
 20
3.3396381826
 11
7.0472055976
 21
3.3396381826
  0
LINE
  5
29D
100
AcDbEntity
  8
03__ASM_ALL_CURVES
100
AcDbLine
 62
40
  6
CONTINUOUS
 10
6.9972802069
 20
3.3396381826
 11
6.9882028632
 21
3.3396381826
  0
LINE
  5
29E
100
AcDbEntity
  8
03__ASM_ALL_CURVES
100
AcDbLine
 62
40
  6
CONTINUOUS
 10
6.9246614569
 20
3.3396381826
 11
6.9155841132
 21
3.3396381826
  0
LINE
  5
29F
100
AcDbEntity
  8
03__ASM_ALL_CURVES
100
AcDbLine
 62
40
  6
CONTINUOUS
 10
6.8656587226
 20
3.3396381826
 11
6.8293493476
 21
3.3396381826
  0
LINE
  5
2A0
100
AcDbEntity
  8
03__ASM_ALL_CURVES
100
AcDbLine
 62
40
  6
CONTINUOUS
 10
6.7794239569
 20
3.3396381826
 11
6.7703466132
 21
3.3396381826
  0
LINE
  5
2A1
100
AcDbEntity
  8
03__ASM_ALL_CURVES
100
AcDbLine
 62
40
  6
CONTINUOUS
 10
5.6615440874
 20
3.3396381826
 11
5.6433893999
 21
3.3396381826
  0
LINE
  5
2A2
100
AcDbEntity
  8
0
100
AcDbLine
 62
7
  6
CONTINUOUS
 10
4.1512815831
 20
4.3831056826
 11
4.1457815831
 21
4.3886056826
  0
LINE
  5
2A3
100
AcDbEntity
  8
0
100
AcDbLine
 62
7
  6
CONTINUOUS
 10
4.9238452489
 20
3.6286056826
 11
4.8897815831
 21
3.6876056826
  0
LINE
  5
2A4
100
AcDbEntity
  8
0
100
AcDbLine
 62
7
  6
CONTINUOUS
 10
4.8897815831
 20
3.6876056826
 11
4.8897815831
 21
4.5476056826
  0
LINE
  5
2A5
100
AcDbEntity
  8
0
100
AcDbLine
 62
7
  6
CONTINUOUS
 10
4.9238452489
 20
3.6286056826
 11
4.9238452489
 21
3.6295032101
  0
LINE
  5
2A6
100
AcDbEntity
  8
0
100
AcDbLine
 62
7
  6
CONTINUOUS
 10
4.9238452489
 20
3.8479081551
 11
4.9238452489
 21
3.8992007376
  0
LINE
  5
2A7
100
AcDbEntity
  8
0
100
AcDbLine
 62
7
  6
CONTINUOUS
 10
4.9238452489
 20
4.3360106276
 11
4.9238452489
 21
4.3873032101
  0
LINE
  5
2A8
100
AcDbEntity
  8
0
100
AcDbLine
 62
7
  6
CONTINUOUS
 10
4.9238452489
 20
4.6057081551
 11
4.9238452489
 21
4.6066056826
  0
LINE
  5
2A9
100
AcDbEntity
  8
03__ASM_ALL_CURVES
100
AcDbLine
 62
40
  6
CONTINUOUS
 10
4.9483128331
 20
5.2185591807
 11
4.9483128331
 21
5.2104904326
  0
LINE
  5
2AA
100
AcDbEntity
  8
03__ASM_ALL_CURVES
100
AcDbLine
 62
40
  6
CONTINUOUS
 10
4.9543643956
 20
5.1701466836
 11
4.9543643956
 21
5.1620779326
  0
LINE
  5
2AB
100
AcDbEntity
  8
03__ASM_ALL_CURVES
100
AcDbLine
 62
40
  6
CONTINUOUS
 10
5.0148800206
 20
5.1378716826
 11
5.0148800206
 21
5.1459404328
  0
LINE
  5
2AC
100
AcDbEntity
  8
03__ASM_ALL_CURVES
100
AcDbLine
 62
40
  6
CONTINUOUS
 10
5.0996018956
 20
5.1620779326
 11
5.0935503331
 21
5.1378716826
  0
LINE
  5
2AD
100
AcDbEntity
  8
0
100
AcDbLine
 62
7
  6
CONTINUOUS
 10
4.9234566081
 20
4.605932537
 11
4.8897815831
 21
4.5476056826
  0
LINE
  5
2AE
100
AcDbEntity
  8
03__ASM_ALL_CURVES
100
AcDbLine
 62
40
  6
CONTINUOUS
 10
5.3174581456
 20
5.1540091831
 11
5.3053550206
 21
5.1378716826
  0
LINE
  5
2AF
100
AcDbEntity
  8
0
100
AcDbLine
 62
7
  6
CONTINUOUS
 10
4.1512815831
 20
3.8521056826
 11
4.1457815831
 21
3.8466056826
  0
LINE
  5
2B0
100
AcDbEntity
  8
03__ASM_ALL_CURVES
100
AcDbLine
 62
40
  6
CONTINUOUS
 10
5.7931655718
 20
3.3638444333
 11
5.8203976031
 21
3.3638444333
  0
LINE
  5
2B1
100
AcDbEntity
  8
03__ASM_ALL_CURVES
100
AcDbLine
 62
40
  6
CONTINUOUS
 10
5.7387015093
 20
3.3759475576
 11
5.7160081499
 21
3.3759475576
  0
LINE
  5
2B2
100
AcDbEntity
  8
03__ASM_ALL_CURVES
100
AcDbLine
 62
40
  6
CONTINUOUS
 10
6.8293493476
 20
3.3759475576
 11
6.8520427069
 21
3.3759475576
  0
LINE
  5
2B3
100
AcDbEntity
  8
03__ASM_ALL_CURVES
100
AcDbLine
 62
40
  6
CONTINUOUS
 10
7.0472055976
 20
3.3759475576
 11
7.0698989569
 21
3.3759475576
  0
LINE
  5
2B4
100
AcDbEntity
  8
03__ASM_ALL_CURVES
100
AcDbLine
 62
40
  6
CONTINUOUS
 10
7.2650618476
 20
3.3759475576
 11
7.2877552069
 21
3.3759475576
  0
LINE
  5
2B5
100
AcDbEntity
  8
03__ASM_ALL_CURVES
100
AcDbLine
 62
40
  6
CONTINUOUS
 10
6.7794239569
 20
3.4122569326
 11
6.7703466132
 21
3.4122569326
  0
LINE
  5
2B6
100
AcDbEntity
  8
03__ASM_ALL_CURVES
100
AcDbLine
 62
40
  6
CONTINUOUS
 10
5.6433893999
 20
3.4122569326
 11
5.6615440874
 21
3.4122569326
  0
LINE
  5
2B7
100
AcDbEntity
  8
03__ASM_ALL_CURVES
100
AcDbLine
 62
40
  6
CONTINUOUS
 10
5.7160081499
 20
3.4122569326
 11
5.7387015093
 21
3.4122569326
  0
LINE
  5
2B8
100
AcDbEntity
  8
03__ASM_ALL_CURVES
100
AcDbLine
 62
40
  6
CONTINUOUS
 10
6.8293493476
 20
3.4122569326
 11
6.8656587226
 21
3.4122569326
  0
LINE
  5
2B9
100
AcDbEntity
  8
03__ASM_ALL_CURVES
100
AcDbLine
 62
40
  6
CONTINUOUS
 10
6.9155841132
 20
3.4122569326
 11
6.9246614569
 21
3.4122569326
  0
LINE
  5
2BA
100
AcDbEntity
  8
03__ASM_ALL_CURVES
100
AcDbLine
 62
40
  6
CONTINUOUS
 10
7.0472055976
 20
3.4122569326
 11
7.0835149726
 21
3.4122569326
  0
LINE
  5
2BB
100
AcDbEntity
  8
03__ASM_ALL_CURVES
100
AcDbLine
 62
40
  6
CONTINUOUS
 10
7.2060591132
 20
3.4122569326
 11
7.2151364569
 21
3.4122569326
  0
LINE
  5
2BC
100
AcDbEntity
  8
03__ASM_ALL_CURVES
100
AcDbLine
 62
40
  6
CONTINUOUS
 10
7.2650618476
 20
3.4122569326
 11
7.3013712226
 21
3.4122569326
  0
LINE
  5
2BD
100
AcDbEntity
  8
03__ASM_ALL_CURVES
100
AcDbLine
 62
40
  6
CONTINUOUS
 10
6.9587015056
 20
3.4509869326
 11
6.9496241618
 21
3.4509869326
  0
LINE
  5
2BE
100
AcDbEntity
  8
03__ASM_ALL_CURVES
100
AcDbLine
 62
40
  6
CONTINUOUS
 10
5.9542884242
 20
3.4509869326
 11
5.9452110805
 21
3.4509869326
  0
LINE
  5
2BF
100
AcDbEntity
  8
03__ASM_ALL_CURVES
100
AcDbLine
 62
40
  6
CONTINUOUS
 10
5.7364321742
 20
3.4509869326
 11
5.7273548305
 21
3.4509869326
  0
LINE
  5
2C0
100
AcDbEntity
  8
03__ASM_ALL_CURVES
100
AcDbLine
 62
40
  6
CONTINUOUS
 10
7.1538643962
 20
3.4509869326
 11
7.1901737712
 21
3.4509869326
  0
LINE
  5
2C1
100
AcDbEntity
  8
03__ASM_ALL_CURVES
100
AcDbLine
 62
40
  6
CONTINUOUS
 10
7.0313202556
 20
3.4872963076
 11
7.0086268962
 21
3.4872963076
  0
LINE
  5
2C2
100
AcDbEntity
  8
03__ASM_ALL_CURVES
100
AcDbLine
 62
40
  6
CONTINUOUS
 10
6.8860827556
 20
3.4872963076
 11
6.8633893962
 21
3.4872963076
  0
LINE
  5
2C3
100
AcDbEntity
  8
03__ASM_ALL_CURVES
100
AcDbLine
 62
40
  6
CONTINUOUS
 10
5.8090509242
 20
3.4872963076
 11
5.7863575648
 21
3.4872963076
  0
LINE
  5
2C4
100
AcDbEntity
  8
03__ASM_ALL_CURVES
100
AcDbLine
 62
40
  6
CONTINUOUS
 10
5.6638134242
 20
3.4872963076
 11
5.6411200648
 21
3.4872963076
  0
LINE
  5
2C5
100
AcDbEntity
  8
03__ASM_ALL_CURVES
100
AcDbLine
 62
40
  6
CONTINUOUS
 10
5.9452110805
 20
3.4933478687
 11
5.9542884242
 21
3.4933478687
  0
LINE
  5
2C6
100
AcDbEntity
  8
03__ASM_ALL_CURVES
100
AcDbLine
 62
40
  6
CONTINUOUS
 10
5.6615440874
 20
3.4122569326
 11
5.6706214312
 21
3.4062053715
  0
LINE
  5
2C7
100
AcDbEntity
  8
03__ASM_ALL_CURVES
100
AcDbLine
 62
40
  6
CONTINUOUS
 10
4.6154768956
 20
5.1862841826
 11
4.6094253331
 21
5.2024216845
  0
LINE
  5
2C8
100
AcDbEntity
  8
03__ASM_ALL_CURVES
100
AcDbLine
 62
40
  6
CONTINUOUS
 10
4.7183534581
 20
5.1782154316
 11
4.7244050206
 21
5.1540091831
  0
LINE
  5
2C9
100
AcDbEntity
  8
03__ASM_ALL_CURVES
100
AcDbLine
 62
40
  6
CONTINUOUS
 10
5.1419628331
 20
5.2185591807
 11
5.1419628331
 21
5.2024216845
  0
LINE
  5
2CA
100
AcDbEntity
  8
03__ASM_ALL_CURVES
100
AcDbLine
 62
40
  6
CONTINUOUS
 10
5.3235097081
 20
5.1782154316
 11
5.3174581456
 21
5.1540091831
  0
LINE
  5
2CB
100
AcDbEntity
  8
03__ASM_ALL_CURVES
100
AcDbLine
 62
40
  6
CONTINUOUS
 10
5.6411200648
 20
3.5236056826
 11
5.6638134242
 21
3.5236056826
  0
LINE
  5
2CC
100
AcDbEntity
  8
03__ASM_ALL_CURVES
100
AcDbLine
 62
40
  6
CONTINUOUS
 10
5.7273548305
 20
3.5236056826
 11
5.7364321742
 21
3.5236056826
  0
LINE
  5
2CD
100
AcDbEntity
  8
03__ASM_ALL_CURVES
100
AcDbLine
 62
40
  6
CONTINUOUS
 10
5.7863575648
 20
3.5236056826
 11
5.8090509242
 21
3.5236056826
  0
LINE
  5
2CE
100
AcDbEntity
  8
03__ASM_ALL_CURVES
100
AcDbLine
 62
40
  6
CONTINUOUS
 10
5.854437643
 20
3.5236056826
 11
5.8998243617
 21
3.5236056826
  0
LINE
  5
2CF
100
AcDbEntity
  8
03__ASM_ALL_CURVES
100
AcDbLine
 62
40
  6
CONTINUOUS
 10
5.9452110805
 20
3.5236056826
 11
5.9542884242
 21
3.5236056826
  0
LINE
  5
2D0
100
AcDbEntity
  8
03__ASM_ALL_CURVES
100
AcDbLine
 62
40
  6
CONTINUOUS
 10
6.8633893962
 20
3.5236056826
 11
6.8860827556
 21
3.5236056826
  0
LINE
  5
2D1
100
AcDbEntity
  8
03__ASM_ALL_CURVES
100
AcDbLine
 62
40
  6
CONTINUOUS
 10
6.9496241618
 20
3.5236056826
 11
6.9587015056
 21
3.5236056826
  0
LINE
  5
2D2
100
AcDbEntity
  8
03__ASM_ALL_CURVES
100
AcDbLine
 62
40
  6
CONTINUOUS
 10
7.0086268962
 20
3.5236056826
 11
7.0313202556
 21
3.5236056826
  0
LINE
  5
2D3
100
AcDbEntity
  8
03__ASM_ALL_CURVES
100
AcDbLine
 62
40
  6
CONTINUOUS
 10
7.0767069743
 20
3.5236056826
 11
7.1220936931
 21
3.5236056826
  0
LINE
  5
2D4
100
AcDbEntity
  8
03__ASM_ALL_CURVES
100
AcDbLine
 62
40
  6
CONTINUOUS
 10
7.1674804118
 20
3.5236056826
 11
7.1765577556
 21
3.5236056826
  0
LINE
  5
2D5
100
AcDbEntity
  8
0
100
AcDbLine
 62
7
  6
CONTINUOUS
 10
5.2972815831
 20
3.6286056826
 11
4.9238452489
 21
3.6286056826
  0
LINE
  5
2D6
100
AcDbEntity
  8
0
100
AcDbLine
 62
7
  6
CONTINUOUS
 10
5.2972815831
 20
3.6295032101
 11
4.9238452489
 21
3.6295032101
  0
LINE
  5
2D7
100
AcDbEntity
  8
03__ASM_ALL_CURVES
100
AcDbLine
 62
40
  6
CONTINUOUS
 10
5.7387015093
 20
3.4122569326
 11
5.7477788531
 21
3.4062053715
  0
LINE
  5
2D8
100
AcDbEntity
  8
03__ASM_ALL_CURVES
100
AcDbLine
 62
40
  6
CONTINUOUS
 10
5.7273548305
 20
3.4509869326
 11
5.7182774867
 21
3.4570384953
  0
LINE
  5
2D9
100
AcDbEntity
  8
03__ASM_ALL_CURVES
100
AcDbLine
 62
40
  6
CONTINUOUS
 10
5.6638134242
 20
3.5236056826
 11
5.672890768
 21
3.5175541215
  0
LINE
  5
2DA
100
AcDbEntity
  8
03__ASM_ALL_CURVES
100
AcDbLine
 62
40
  6
CONTINUOUS
 10
5.7364321742
 20
3.5236056826
 11
5.745509518
 21
3.5175541215
  0
LINE
  5
2DB
100
AcDbEntity
  8
03__ASM_ALL_CURVES
100
AcDbLine
 62
40
  6
CONTINUOUS
 10
5.8090509242
 20
3.5236056826
 11
5.818128268
 21
3.5175541215
  0
LINE
  5
2DC
100
AcDbEntity
  8
03__ASM_ALL_CURVES
100
AcDbLine
 62
40
  6
CONTINUOUS
 10
5.6706214312
 20
3.4062053715
 11
5.6796987749
 21
3.3941022451
  0
LINE
  5
2DD
100
AcDbEntity
  8
03__ASM_ALL_CURVES
100
AcDbLine
 62
40
  6
CONTINUOUS
 10
4.6517862706
 20
5.2185591807
 11
4.6578378331
 21
5.2024216845
  0
LINE
  5
2DE
100
AcDbEntity
  8
03__ASM_ALL_CURVES
100
AcDbLine
 62
40
  6
CONTINUOUS
 10
4.8091268956
 20
5.1540091831
 11
4.8030753331
 21
5.1701466836
  0
LINE
  5
2DF
100
AcDbEntity
  8
03__ASM_ALL_CURVES
100
AcDbLine
 62
40
  6
CONTINUOUS
 10
5.2327362706
 20
5.1378716826
 11
5.2327362706
 21
5.2346966826
  0
LINE
  5
2E0
100
AcDbEntity
  8
0
100
AcDbLine
 62
7
  6
CONTINUOUS
 10
5.2972815831
 20
3.6286056826
 11
5.2972815831
 21
3.6295032101
  0
LINE
  5
2E1
100
AcDbEntity
  8
0
100
AcDbLine
 62
7
  6
CONTINUOUS
 10
5.2972815831
 20
3.8479081551
 11
5.2972815831
 21
3.8992007376
  0
LINE
  5
2E2
100
AcDbEntity
  8
0
100
AcDbLine
 62
7
  6
CONTINUOUS
 10
5.2972815831
 20
4.3360106276
 11
5.2972815831
 21
4.3873032101
  0
LINE
  5
2E3
100
AcDbEntity
  8
0
100
AcDbLine
 62
7
  6
CONTINUOUS
 10
5.2972815831
 20
4.6057081551
 11
5.2972815831
 21
4.6066056826
  0
LINE
  5
2E4
100
AcDbEntity
  8
03__ASM_ALL_CURVES
100
AcDbLine
 62
40
  6
CONTINUOUS
 10
5.3235097081
 20
5.1943529307
 11
5.3235097081
 21
5.1782154316
  0
LINE
  5
2E5
100
AcDbEntity
  8
03__ASM_ALL_CURVES
100
AcDbLine
 62
40
  6
CONTINUOUS
 10
6.3345781447
 20
5.2266279345
 11
6.3466812697
 21
5.2346966826
  0
LINE
  5
2E6
100
AcDbEntity
  8
0
100
AcDbLine
 62
7
  6
CONTINUOUS
 10
6.0767815831
 20
3.6891056826
 11
6.0217815831
 21
3.6891056826
  0
LINE
  5
2E7
100
AcDbEntity
  8
0
100
AcDbLine
 62
7
  6
CONTINUOUS
 10
5.6732815831
 20
3.6891056826
 11
5.6237815831
 21
3.6891056826
  0
LINE
  5
2E8
100
AcDbEntity
  8
0
100
AcDbLine
 62
7
  6
CONTINUOUS
 10
5.4827815831
 20
3.6891056826
 11
5.3577815831
 21
3.6891056826
  0
LINE
  5
2E9
100
AcDbEntity
  8
0
100
AcDbLine
 62
7
  6
CONTINUOUS
 10
5.4827815831
 20
3.6896056826
 11
5.5327815831
 21
3.6896056826
  0
LINE
  5
2EA
100
AcDbEntity
  8
THREAD
100
AcDbLine
 62
7
  6
CONTINUOUS
 10
6.1237815831
 20
3.7126056826
 11
6.0923700403
 21
3.7126056826
  0
LINE
  5
2EB
100
AcDbEntity
  8
0
100
AcDbLine
 62
7
  6
CONTINUOUS
 10
6.1937815831
 20
3.7131056826
 11
6.2437815831
 21
3.7131056826
  0
LINE
  5
2EC
100
AcDbEntity
  8
THREAD
100
AcDbLine
 62
7
  6
CONTINUOUS
 10
6.5322815831
 20
3.7301056826
 11
6.285143543
 21
3.7301056826
  0
LINE
  5
2ED
100
AcDbEntity
  8
0
100
AcDbLine
 62
7
  6
CONTINUOUS
 10
5.6107815831
 20
3.7436056826
 11
5.6027815831
 21
3.7436056826
  0
LINE
  5
2EE
100
AcDbEntity
  8
0
100
AcDbLine
 62
7
  6
CONTINUOUS
 10
4.8897815831
 20
3.7441056826
 11
4.5387815831
 21
3.7441056826
  0
LINE
  5
2EF
100
AcDbEntity
  8
0
100
AcDbLine
 62
7
  6
CONTINUOUS
 10
4.4907815831
 20
3.7441056826
 11
4.4397815831
 21
3.7441056826
  0
LINE
  5
2F0
100
AcDbEntity
  8
THREAD
100
AcDbLine
 62
7
  6
CONTINUOUS
 10
6.2562760296
 20
3.7671056826
 11
6.2437815831
 21
3.7671056826
  0
LINE
  5
2F1
100
AcDbEntity
  8
0
100
AcDbLine
 62
7
  6
CONTINUOUS
 10
4.5257815831
 20
3.7676056826
 11
4.5037815831
 21
3.7676056826
  0
LINE
  5
2F2
100
AcDbEntity
  8
THREAD
100
AcDbLine
 62
7
  6
CONTINUOUS
 10
6.7547815831
 20
3.7746056826
 11
6.5767815831
 21
3.7746056826
  0
LINE
  5
2F3
100
AcDbEntity
  8
0
100
AcDbLine
 62
7
  6
CONTINUOUS
 10
5.9988719271
 20
3.7746056826
 11
5.696191239
 21
3.7746056826
  0
LINE
  5
2F4
100
AcDbEntity
  8
0
100
AcDbLine
 62
7
  6
CONTINUOUS
 10
7.4357815831
 20
3.7751056826
 11
7.3887815831
 21
3.7751056826
  0
LINE
  5
2F5
100
AcDbEntity
  8
0
100
AcDbLine
 62
7
  6
CONTINUOUS
 10
7.2377815831
 20
3.7751056826
 11
7.1747815831
 21
3.7751056826
  0
LINE
  5
2F6
100
AcDbEntity
  8
0
100
AcDbLine
 62
7
  6
CONTINUOUS
 10
7.2427815831
 20
3.7756056826
 11
7.2927815831
 21
3.7756056826
  0
LINE
  5
2F7
100
AcDbEntity
  8
03__ASM_ALL_CURVES
100
AcDbLine
 62
40
  6
CONTINUOUS
 10
5.9452110805
 20
3.4509869326
 11
5.9361337367
 21
3.4570384953
  0
LINE
  5
2F8
100
AcDbEntity
  8
03__ASM_ALL_CURVES
100
AcDbLine
 62
40
  6
CONTINUOUS
 10
5.9542884242
 20
3.4933478687
 11
5.963365768
 21
3.4872963076
  0
LINE
  5
2F9
100
AcDbEntity
  8
03__ASM_ALL_CURVES
100
AcDbLine
 62
40
  6
CONTINUOUS
 10
5.9542884242
 20
3.5236056826
 11
5.963365768
 21
3.5175541215
  0
LINE
  5
2FA
100
AcDbEntity
  8
03__ASM_ALL_CURVES
100
AcDbLine
 62
40
  6
CONTINUOUS
 10
4.3613112706
 20
5.2266279345
 11
4.3673628331
 21
5.2185591807
  0
LINE
  5
2FB
100
AcDbEntity
  8
03__ASM_ALL_CURVES
100
AcDbLine
 62
40
  6
CONTINUOUS
 10
4.4339300206
 20
5.1459404328
 11
4.4399815831
 21
5.1378716826
  0
LINE
  5
2FC
100
AcDbEntity
  8
03__ASM_ALL_CURVES
100
AcDbLine
 62
40
  6
CONTINUOUS
 10
5.7477788531
 20
3.4062053715
 11
5.7523175249
 21
3.4001538062
  0
LINE
  5
2FD
100
AcDbEntity
  8
03__ASM_ALL_CURVES
100
AcDbLine
 62
40
  6
CONTINUOUS
 10
5.7182774867
 20
3.4570384953
 11
5.709200143
 21
3.4691416201
  0
LINE
  5
2FE
100
AcDbEntity
  8
03__ASM_ALL_CURVES
100
AcDbLine
 62
40
  6
CONTINUOUS
 10
5.672890768
 20
3.5175541215
 11
5.6774294398
 21
3.5115025562
  0
LINE
  5
2FF
100
AcDbEntity
  8
03__ASM_ALL_CURVES
100
AcDbLine
 62
40
  6
CONTINUOUS
 10
5.745509518
 20
3.5175541215
 11
5.7545868617
 21
3.5054509951
  0
LINE
  5
300
100
AcDbEntity
  8
03__ASM_ALL_CURVES
100
AcDbLine
 62
40
  6
CONTINUOUS
 10
4.8454362706
 20
5.1862841826
 11
4.8514878331
 21
5.1701466836
  0
LINE
  5
301
100
AcDbEntity
  8
0
100
AcDbLine
 62
7
  6
CONTINUOUS
 10
5.3577815831
 20
3.6891056826
 11
5.3577815831
 21
4.5461056826
  0
LINE
  5
302
100
AcDbEntity
  8
0
100
AcDbLine
 62
7
  6
CONTINUOUS
 10
5.4827815831
 20
3.6891056826
 11
5.4827815831
 21
4.5461056826
  0
LINE
  5
303
100
AcDbEntity
  8
03__ASM_ALL_CURVES
100
AcDbLine
 62
40
  6
CONTINUOUS
 10
6.4314031447
 20
5.2266279345
 11
6.4435062697
 21
5.2346966826
  0
LINE
  5
304
100
AcDbEntity
  8
03__ASM_ALL_CURVES
100
AcDbLine
 62
40
  6
CONTINUOUS
 10
6.3708875197
 20
5.1459404328
 11
6.3587843947
 21
5.1378716826
  0
LINE
  5
305
100
AcDbEntity
  8
03__ASM_ALL_CURVES
100
AcDbLine
 62
40
  6
CONTINUOUS
 10
6.4677125197
 20
5.1459404328
 11
6.4556093947
 21
5.1378716826
  0
LINE
  5
306
100
AcDbEntity
  8
0
100
AcDbLine
 62
7
  6
CONTINUOUS
 10
7.3627815831
 20
3.8296056826
 11
7.3837815831
 21
3.8296056826
  0
LINE
  5
307
100
AcDbEntity
  8
0
100
AcDbLine
 62
7
  6
CONTINUOUS
 10
4.1827815831
 20
3.8366056826
 11
4.3530053048
 21
3.8366056826
  0
LINE
  5
308
100
AcDbEntity
  8
0
100
AcDbLine
 62
7
  6
CONTINUOUS
 10
6.7647815831
 20
3.8376056826
 11
7.0452815831
 21
3.8376056826
  0
LINE
  5
309
100
AcDbEntity
  8
0
100
AcDbLine
 62
7
  6
CONTINUOUS
 10
7.1542815831
 20
3.8376056826
 11
7.1697815831
 21
3.8376056826
  0
LINE
  5
30A
100
AcDbEntity
  8
0
100
AcDbLine
 62
7
  6
CONTINUOUS
 10
4.3897815831
 20
3.8466056826
 11
4.3587815831
 21
3.8466056826
  0
LINE
  5
30B
100
AcDbEntity
  8
0
100
AcDbLine
 62
7
  6
CONTINUOUS
 10
4.1457815831
 20
3.8466056826
 11
4.1397815831
 21
3.8466056826
  0
LINE
  5
30C
100
AcDbEntity
  8
0
100
AcDbLine
 62
7
  6
CONTINUOUS
 10
5.2972815831
 20
3.8479081551
 11
4.9238452489
 21
3.8479081551
  0
LINE
  5
30D
100
AcDbEntity
  8
0
100
AcDbLine
 62
7
  6
CONTINUOUS
 10
4.1672815831
 20
3.8521056826
 11
4.1512815831
 21
3.8521056826
  0
LINE
  5
30E
100
AcDbEntity
  8
0
100
AcDbLine
 62
7
  6
CONTINUOUS
 10
5.2972815831
 20
3.8992007376
 11
4.9238452489
 21
3.8992007376
  0
LINE
  5
30F
100
AcDbEntity
  8
0
100
AcDbLine
 62
7
  6
CONTINUOUS
 10
3.6087815831
 20
3.9336056826
 11
3.8077815831
 21
3.9336056826
  0
LINE
  5
310
100
AcDbEntity
  8
0
100
AcDbLine
 62
7
  6
CONTINUOUS
 10
3.8457815831
 20
3.9336056826
 11
4.0777815831
 21
3.9336056826
  0
LINE
  5
311
100
AcDbEntity
  8
0
100
AcDbLine
 62
7
  6
CONTINUOUS
 10
3.8077815831
 20
3.9666056826
 11
3.8092815831
 21
3.9666056826
  0
LINE
  5
312
100
AcDbEntity
  8
0
100
AcDbLine
 62
7
  6
CONTINUOUS
 10
3.8442815831
 20
3.9666056826
 11
3.8457815831
 21
3.9666056826
  0
LINE
  5
313
100
AcDbEntity
  8
03__ASM_ALL_CURVES
100
AcDbLine
 62
40
  6
CONTINUOUS
 10
5.818128268
 20
3.5175541215
 11
5.8226669398
 21
3.5115025562
  0
LINE
  5
314
100
AcDbEntity
  8
03__ASM_ALL_CURVES
100
AcDbLine
 62
40
  6
CONTINUOUS
 10
4.6215284581
 20
5.1459404328
 11
4.6154768956
 21
5.1540091831
  0
LINE
  5
315
100
AcDbEntity
  8
03__ASM_ALL_CURVES
100
AcDbLine
 62
40
  6
CONTINUOUS
 10
5.9361337367
 20
3.4570384953
 11
5.9315950648
 21
3.463090058
  0
LINE
  5
316
100
AcDbEntity
  8
03__ASM_ALL_CURVES
100
AcDbLine
 62
40
  6
CONTINUOUS
 10
4.6457347081
 20
5.2266279345
 11
4.6517862706
 21
5.2185591807
  0
LINE
  5
317
100
AcDbEntity
  8
03__ASM_ALL_CURVES
100
AcDbLine
 62
40
  6
CONTINUOUS
 10
5.963365768
 20
3.4872963076
 11
5.9724431117
 21
3.4751931833
  0
LINE
  5
318
100
AcDbEntity
  8
03__ASM_ALL_CURVES
100
AcDbLine
 62
40
  6
CONTINUOUS
 10
4.7244050206
 20
5.1540091831
 11
4.7365081456
 21
5.1378716826
  0
LINE
  5
319
100
AcDbEntity
  8
03__ASM_ALL_CURVES
100
AcDbLine
 62
40
  6
CONTINUOUS
 10
5.963365768
 20
3.5175541215
 11
5.9679044398
 21
3.5115025562
  0
LINE
  5
31A
100
AcDbEntity
  8
03__ASM_ALL_CURVES
100
AcDbLine
 62
40
  6
CONTINUOUS
 10
5.7387015093
 20
3.3759475576
 11
5.7523175249
 21
3.3396381826
  0
LINE
  5
31B
100
AcDbEntity
  8
03__ASM_ALL_CURVES
100
AcDbLine
 62
40
  6
CONTINUOUS
 10
5.6796987749
 20
3.3941022451
 11
5.6842374468
 21
3.3759475576
  0
LINE
  5
31C
100
AcDbEntity
  8
0
100
AcDbLine
 62
7
  6
CONTINUOUS
 10
5.5327815831
 20
3.6896063333
 11
5.5327815831
 21
4.5456050319
  0
LINE
  5
31D
100
AcDbEntity
  8
0
100
AcDbLine
 62
7
  6
CONTINUOUS
 10
5.6027815831
 20
4.5266056826
 11
5.6027815831
 21
3.7086056826
  0
LINE
  5
31E
100
AcDbEntity
  8
0
100
AcDbLine
 62
7
  6
CONTINUOUS
 10
5.6107815831
 20
3.7436056826
 11
5.6107815831
 21
4.4916056826
  0
LINE
  5
31F
100
AcDbEntity
  8
0
100
AcDbLine
 62
7
  6
CONTINUOUS
 10
5.6237815831
 20
3.6891056826
 11
5.6237815831
 21
4.5461056826
  0
LINE
  5
320
100
AcDbEntity
  8
03__ASM_ALL_CURVES
100
AcDbLine
 62
40
  6
CONTINUOUS
 10
5.6411200648
 20
3.4509869326
 11
5.6411200648
 21
3.5236056826
  0
LINE
  5
321
100
AcDbEntity
  8
03__ASM_ALL_CURVES
100
AcDbLine
 62
40
  6
CONTINUOUS
 10
5.6433893999
 20
3.3396381826
 11
5.6433893999
 21
3.4122569326
  0
LINE
  5
322
100
AcDbEntity
  8
03__ASM_ALL_CURVES
100
AcDbLine
 62
40
  6
CONTINUOUS
 10
6.9155281447
 20
5.2266279345
 11
6.9276312697
 21
5.2346966826
  0
LINE
  5
323
100
AcDbEntity
  8
03__ASM_ALL_CURVES
100
AcDbLine
 62
40
  6
CONTINUOUS
 10
7.9477925192
 20
4.0256219326
 11
7.9114831442
 21
4.0256219326
  0
LINE
  5
324
100
AcDbEntity
  8
03__ASM_ALL_CURVES
100
AcDbLine
 62
40
  6
CONTINUOUS
 10
7.8388643942
 20
4.0256219326
 11
7.8751737692
 21
4.0256219326
  0
LINE
  5
325
100
AcDbEntity
  8
03__ASM_ALL_CURVES
100
AcDbLine
 62
40
  6
CONTINUOUS
 10
7.9114831442
 20
4.0619313076
 11
7.9341765036
 21
4.0619313076
  0
LINE
  5
326
100
AcDbEntity
  8
03__ASM_ALL_CURVES
100
AcDbLine
 62
40
  6
CONTINUOUS
 10
7.9114831442
 20
4.0982406826
 11
7.9477925192
 21
4.0982406826
  0
LINE
  5
327
100
AcDbEntity
  8
03__ASM_ALL_CURVES
100
AcDbLine
 62
40
  6
CONTINUOUS
 10
7.9795632223
 20
4.0982406826
 11
8.0249499411
 21
4.0982406826
  0
LINE
  5
328
100
AcDbEntity
  8
0
100
AcDbLine
 62
7
  6
CONTINUOUS
 10
4.3279101727
 20
4.1176056826
 11
4.2262524343
 21
4.1176056826
  0
LINE
  5
329
100
AcDbEntity
  8
03__ASM_ALL_CURVES
100
AcDbLine
 62
40
  6
CONTINUOUS
 10
7.8070936918
 20
4.1369706826
 11
7.798016348
 21
4.1369706826
  0
LINE
  5
32A
100
AcDbEntity
  8
03__ASM_ALL_CURVES
100
AcDbLine
 62
40
  6
CONTINUOUS
 10
6.7703466132
 20
3.3396381826
 11
6.7612692694
 21
3.3456897453
  0
LINE
  5
32B
100
AcDbEntity
  8
03__ASM_ALL_CURVES
100
AcDbLine
 62
40
  6
CONTINUOUS
 10
6.7612692694
 20
3.388050684
 11
6.7885013007
 21
3.3698959944
  0
LINE
  5
32C
100
AcDbEntity
  8
03__ASM_ALL_CURVES
100
AcDbLine
 62
40
  6
CONTINUOUS
 10
6.7885013007
 20
3.4062053715
 11
6.7794239569
 21
3.4122569326
  0
LINE
  5
32D
100
AcDbEntity
  8
03__ASM_ALL_CURVES
100
AcDbLine
 62
40
  6
CONTINUOUS
 10
6.9155841132
 20
3.3396381826
 11
6.9065067694
 21
3.3456897453
  0
LINE
  5
32E
100
AcDbEntity
  8
03__ASM_ALL_CURVES
100
AcDbLine
 62
40
  6
CONTINUOUS
 10
4.8151784581
 20
5.1459404328
 11
4.8091268956
 21
5.1540091831
  0
LINE
  5
32F
100
AcDbEntity
  8
03__ASM_ALL_CURVES
100
AcDbLine
 62
40
  6
CONTINUOUS
 10
4.8393847081
 20
5.2266279345
 11
4.8454362706
 21
5.2185591807
  0
LINE
  5
330
100
AcDbEntity
  8
03__ASM_ALL_CURVES
100
AcDbLine
 62
40
  6
CONTINUOUS
 10
4.9059518956
 20
5.1459404328
 11
4.8999003331
 21
5.1540091831
  0
LINE
  5
331
100
AcDbEntity
  8
03__ASM_ALL_CURVES
100
AcDbLine
 62
40
  6
CONTINUOUS
 10
4.9422612706
 20
5.1862841826
 11
4.9543643956
 21
5.1701466836
  0
LINE
  5
332
100
AcDbEntity
  8
03__ASM_ALL_CURVES
100
AcDbLine
 62
40
  6
CONTINUOUS
 10
5.9338643999
 20
3.4122569326
 11
5.9701737749
 21
3.3396381826
  0
LINE
  5
333
100
AcDbEntity
  8
03__ASM_ALL_CURVES
100
AcDbLine
 62
40
  6
CONTINUOUS
 10
5.8090509242
 20
3.4872963076
 11
5.8226669398
 21
3.4509869326
  0
LINE
  5
334
100
AcDbEntity
  8
03__ASM_ALL_CURVES
100
AcDbLine
 62
40
  6
CONTINUOUS
 10
5.8067815874
 20
3.4122569326
 11
5.8294749468
 21
3.3396381826
  0
LINE
  5
335
100
AcDbEntity
  8
03__ASM_ALL_CURVES
100
AcDbLine
 62
40
  6
CONTINUOUS
 10
5.709200143
 20
3.4691416201
 11
5.7046614711
 21
3.4872963076
  0
LINE
  5
336
100
AcDbEntity
  8
03__ASM_ALL_CURVES
100
AcDbLine
 62
40
  6
CONTINUOUS
 10
5.3174581456
 20
5.2185591807
 11
5.3235097081
 21
5.1943529307
  0
LINE
  5
337
100
AcDbEntity
  8
03__ASM_ALL_CURVES
100
AcDbLine
 62
40
  6
CONTINUOUS
 10
5.7545868617
 20
3.5054509951
 11
5.7591255336
 21
3.4872963076
  0
LINE
  5
338
100
AcDbEntity
  8
0
100
AcDbLine
 62
7
  6
CONTINUOUS
 10
5.6732815831
 20
3.6891056826
 11
5.6732815831
 21
4.5461056826
  0
LINE
  5
339
100
AcDbEntity
  8
03__ASM_ALL_CURVES
100
AcDbLine
 62
40
  6
CONTINUOUS
 10
5.6774294398
 20
3.5115025562
 11
5.6774294398
 21
3.499399434
  0
LINE
  5
33A
100
AcDbEntity
  8
0
100
AcDbLine
 62
7
  6
CONTINUOUS
 10
5.696191239
 20
3.7746056826
 11
5.696191239
 21
4.4606056826
  0
LINE
  5
33B
100
AcDbEntity
  8
03__ASM_ALL_CURVES
100
AcDbLine
 62
40
  6
CONTINUOUS
 10
5.7160081499
 20
3.3396381826
 11
5.7160081499
 21
3.4122569326
  0
LINE
  5
33C
100
AcDbEntity
  8
03__ASM_ALL_CURVES
100
AcDbLine
 62
40
  6
CONTINUOUS
 10
5.7523175249
 20
3.4001538062
 11
5.7523175249
 21
3.388050684
  0
LINE
  5
33D
100
AcDbEntity
  8
03__ASM_ALL_CURVES
100
AcDbLine
 62
40
  6
CONTINUOUS
 10
5.7863575648
 20
3.4509869326
 11
5.7863575648
 21
3.5236056826
  0
LINE
  5
33E
100
AcDbEntity
  8
03__ASM_ALL_CURVES
100
AcDbLine
 62
40
  6
CONTINUOUS
 10
5.8226669398
 20
3.5115025562
 11
5.8226669398
 21
3.499399434
  0
LINE
  5
33F
100
AcDbEntity
  8
03__ASM_ALL_CURVES
100
AcDbLine
 62
40
  6
CONTINUOUS
 10
6.3224750197
 20
5.2104904326
 11
6.3345781447
 21
5.2266279345
  0
LINE
  5
340
100
AcDbEntity
  8
03__ASM_ALL_CURVES
100
AcDbLine
 62
40
  6
CONTINUOUS
 10
6.3829906447
 20
5.1620779326
 11
6.3708875197
 21
5.1459404328
  0
LINE
  5
341
100
AcDbEntity
  8
03__ASM_ALL_CURVES
100
AcDbLine
 62
40
  6
CONTINUOUS
 10
6.4193000197
 20
5.2104904326
 11
6.4314031447
 21
5.2266279345
  0
LINE
  5
342
100
AcDbEntity
  8
03__ASM_ALL_CURVES
100
AcDbLine
 62
40
  6
CONTINUOUS
 10
6.4737640822
 20
5.1540091831
 11
6.4677125197
 21
5.1459404328
  0
LINE
  5
343
100
AcDbEntity
  8
03__ASM_ALL_CURVES
100
AcDbLine
 62
40
  6
CONTINUOUS
 10
6.9518375197
 20
5.1459404328
 11
6.9397343947
 21
5.1378716826
  0
LINE
  5
344
100
AcDbEntity
  8
03__ASM_ALL_CURVES
100
AcDbLine
 62
40
  6
CONTINUOUS
 10
7.1212812697
 20
5.2346966826
 11
7.1091781447
 21
5.2266279345
  0
LINE
  5
345
100
AcDbEntity
  8
03__ASM_ALL_CURVES
100
AcDbLine
 62
40
  6
CONTINUOUS
 10
7.8797124418
 20
4.1732800576
 11
7.8570190824
 21
4.1732800576
  0
LINE
  5
346
100
AcDbEntity
  8
03__ASM_ALL_CURVES
100
AcDbLine
 62
40
  6
CONTINUOUS
 10
7.7344749418
 20
4.1732800576
 11
7.7117815824
 21
4.1732800576
  0
LINE
  5
347
100
AcDbEntity
  8
03__ASM_ALL_CURVES
100
AcDbLine
 62
40
  6
CONTINUOUS
 10
7.7117815824
 20
4.2095894326
 11
7.7344749418
 21
4.2095894326
  0
LINE
  5
348
100
AcDbEntity
  8
03__ASM_ALL_CURVES
100
AcDbLine
 62
40
  6
CONTINUOUS
 10
7.798016348
 20
4.2095894326
 11
7.8070936918
 21
4.2095894326
  0
LINE
  5
349
100
AcDbEntity
  8
03__ASM_ALL_CURVES
100
AcDbLine
 62
40
  6
CONTINUOUS
 10
7.8570190824
 20
4.2095894326
 11
7.8797124418
 21
4.2095894326
  0
LINE
  5
34A
100
AcDbEntity
  8
03__ASM_ALL_CURVES
100
AcDbLine
 62
40
  6
CONTINUOUS
 10
7.9250991605
 20
4.2095894326
 11
7.9704858793
 21
4.2095894326
  0
LINE
  5
34B
100
AcDbEntity
  8
0
100
AcDbLine
 62
7
  6
CONTINUOUS
 10
3.8077815831
 20
4.2686056826
 11
3.8457815831
 21
4.2686056826
  0
LINE
  5
34C
100
AcDbEntity
  8
0
100
AcDbLine
 62
7
  6
CONTINUOUS
 10
3.6087815831
 20
4.3016056826
 11
3.8077815831
 21
4.3016056826
  0
LINE
  5
34D
100
AcDbEntity
  8
0
100
AcDbLine
 62
7
  6
CONTINUOUS
 10
3.8457815831
 20
4.3016056826
 11
4.0777815831
 21
4.3016056826
  0
LINE
  5
34E
100
AcDbEntity
  8
03__ASM_ALL_CURVES
100
AcDbLine
 62
40
  6
CONTINUOUS
 10
6.9882028632
 20
3.3396381826
 11
6.9791255194
 21
3.3456897453
  0
LINE
  5
34F
100
AcDbEntity
  8
03__ASM_ALL_CURVES
100
AcDbLine
 62
40
  6
CONTINUOUS
 10
6.9246614569
 20
3.4122569326
 11
6.9337388007
 21
3.4062053715
  0
LINE
  5
350
100
AcDbEntity
  8
03__ASM_ALL_CURVES
100
AcDbLine
 62
40
  6
CONTINUOUS
 10
6.9496241618
 20
3.4509869326
 11
6.9405468181
 21
3.4570384953
  0
LINE
  5
351
100
AcDbEntity
  8
03__ASM_ALL_CURVES
100
AcDbLine
 62
40
  6
CONTINUOUS
 10
6.8860827556
 20
3.5236056826
 11
6.8951600993
 21
3.5175541215
  0
LINE
  5
352
100
AcDbEntity
  8
03__ASM_ALL_CURVES
100
AcDbLine
 62
40
  6
CONTINUOUS
 10
4.3492081456
 20
5.2346966826
 11
4.3613112706
 21
5.2266279345
  0
LINE
  5
353
100
AcDbEntity
  8
03__ASM_ALL_CURVES
100
AcDbLine
 62
40
  6
CONTINUOUS
 10
7.2060591132
 20
3.3396381826
 11
7.1969817694
 21
3.3456897453
  0
LINE
  5
354
100
AcDbEntity
  8
03__ASM_ALL_CURVES
100
AcDbLine
 62
40
  6
CONTINUOUS
 10
6.9587015056
 20
3.5236056826
 11
6.9677788493
 21
3.5175541215
  0
LINE
  5
355
100
AcDbEntity
  8
0
100
AcDbLine
 62
7
  6
CONTINUOUS
 10
5.3577815831
 20
4.5461056826
 11
5.2977303468
 21
4.6061569188
  0
LINE
  5
356
100
AcDbEntity
  8
03__ASM_ALL_CURVES
100
AcDbLine
 62
40
  6
CONTINUOUS
 10
4.9422612706
 20
5.2266279345
 11
4.9483128331
 21
5.2185591807
  0
LINE
  5
357
100
AcDbEntity
  8
03__ASM_ALL_CURVES
100
AcDbLine
 62
40
  6
CONTINUOUS
 10
5.0148800206
 20
5.1459404328
 11
5.0209315831
 21
5.1378716826
  0
LINE
  5
358
100
AcDbEntity
  8
0
100
AcDbLine
 62
7
  6
CONTINUOUS
 10
5.696191239
 20
4.4606056826
 11
5.6732815831
 21
4.5461056826
  0
LINE
  5
359
100
AcDbEntity
  8
03__ASM_ALL_CURVES
100
AcDbLine
 62
40
  6
CONTINUOUS
 10
5.8771310023
 20
3.5236056826
 11
5.8771310023
 21
3.4509869326
  0
LINE
  5
35A
100
AcDbEntity
  8
03__ASM_ALL_CURVES
100
AcDbLine
 62
40
  6
CONTINUOUS
 10
5.8794003374
 20
3.4122569326
 11
5.8794003374
 21
3.3396381826
  0
LINE
  5
35B
100
AcDbEntity
  8
03__ASM_ALL_CURVES
100
AcDbLine
 62
40
  6
CONTINUOUS
 10
5.9338643999
 20
3.3396381826
 11
5.9338643999
 21
3.4122569326
  0
LINE
  5
35C
100
AcDbEntity
  8
03__ASM_ALL_CURVES
100
AcDbLine
 62
40
  6
CONTINUOUS
 10
5.9605915831
 20
5.1185066826
 11
5.9605915831
 21
5.0797766826
  0
LINE
  5
35D
100
AcDbEntity
  8
03__ASM_ALL_CURVES
100
AcDbLine
 62
40
  6
CONTINUOUS
 10
5.9679044398
 20
3.5115025562
 11
5.9679044398
 21
3.5054509951
  0
LINE
  5
35E
100
AcDbEntity
  8
03__ASM_ALL_CURVES
100
AcDbLine
 62
40
  6
CONTINUOUS
 10
5.9701737749
 20
3.3396381826
 11
5.9701737749
 21
3.4122569326
  0
LINE
  5
35F
100
AcDbEntity
  8
03__ASM_ALL_CURVES
100
AcDbLine
 62
40
  6
CONTINUOUS
 10
5.9724431117
 20
3.4751931833
 11
5.9724431117
 21
3.4691416201
  0
LINE
  5
360
100
AcDbEntity
  8
03__ASM_ALL_CURVES
100
AcDbLine
 62
40
  6
CONTINUOUS
 10
5.7046614711
 20
3.4872963076
 11
5.709200143
 21
3.5054509951
  0
LINE
  5
361
100
AcDbEntity
  8
03__ASM_ALL_CURVES
100
AcDbLine
 62
40
  6
CONTINUOUS
 10
5.6842374468
 20
3.3759475576
 11
5.6796987749
 21
3.3577928701
  0
LINE
  5
362
100
AcDbEntity
  8
03__ASM_ALL_CURVES
100
AcDbLine
 62
40
  6
CONTINUOUS
 10
5.7591255336
 20
3.4872963076
 11
5.7545868617
 21
3.4691416201
  0
LINE
  5
363
100
AcDbEntity
  8
0
100
AcDbLine
 62
7
  6
CONTINUOUS
 10
5.696191239
 20
3.7746056826
 11
5.6732815831
 21
3.6891056826
  0
LINE
  5
364
100
AcDbEntity
  8
0
100
AcDbLine
 62
7
  6
CONTINUOUS
 10
6.0217815831
 20
4.5461056826
 11
5.9988719271
 21
4.4606056826
  0
LINE
  5
365
100
AcDbEntity
  8
0
100
AcDbLine
 62
7
  6
CONTINUOUS
 10
5.3577815831
 20
3.6891056826
 11
5.2977303468
 21
3.6290544463
  0
LINE
  5
366
100
AcDbEntity
  8
03__ASM_ALL_CURVES
100
AcDbLine
 62
40
  6
CONTINUOUS
 10
7.1454875197
 20
5.1459404328
 11
7.1333843947
 21
5.1378716826
  0
LINE
  5
367
100
AcDbEntity
  8
03__ASM_ALL_CURVES
100
AcDbLine
 62
40
  6
CONTINUOUS
 10
7.3028281447
 20
5.2266279345
 11
7.3149312697
 21
5.2346966826
  0
LINE
  5
368
100
AcDbEntity
  8
03__ASM_ALL_CURVES
100
AcDbLine
 62
40
  6
CONTINUOUS
 10
7.3391375197
 20
5.1459404328
 11
7.3270343947
 21
5.1378716826
  0
LINE
  5
369
100
AcDbEntity
  8
0
100
AcDbLine
 62
7
  6
CONTINUOUS
 10
5.2972815831
 20
4.3360106276
 11
4.9238452489
 21
4.3360106276
  0
LINE
  5
36A
100
AcDbEntity
  8
0
100
AcDbLine
 62
7
  6
CONTINUOUS
 10
4.1672815831
 20
4.3831056826
 11
4.1512815831
 21
4.3831056826
  0
LINE
  5
36B
100
AcDbEntity
  8
0
100
AcDbLine
 62
7
  6
CONTINUOUS
 10
5.2972815831
 20
4.3873032101
 11
4.9238452489
 21
4.3873032101
  0
LINE
  5
36C
100
AcDbEntity
  8
0
100
AcDbLine
 62
7
  6
CONTINUOUS
 10
4.3897815831
 20
4.3886056826
 11
4.3587815831
 21
4.3886056826
  0
LINE
  5
36D
100
AcDbEntity
  8
0
100
AcDbLine
 62
7
  6
CONTINUOUS
 10
4.1457815831
 20
4.3886056826
 11
4.1397815831
 21
4.3886056826
  0
LINE
  5
36E
100
AcDbEntity
  8
0
100
AcDbLine
 62
7
  6
CONTINUOUS
 10
6.7647815831
 20
4.3976056826
 11
7.0452815831
 21
4.3976056826
  0
LINE
  5
36F
100
AcDbEntity
  8
0
100
AcDbLine
 62
7
  6
CONTINUOUS
 10
7.1542815831
 20
4.3976056826
 11
7.1697815831
 21
4.3976056826
  0
LINE
  5
370
100
AcDbEntity
  8
0
100
AcDbLine
 62
7
  6
CONTINUOUS
 10
4.1827815831
 20
4.3986056826
 11
4.3530053048
 21
4.3986056826
  0
LINE
  5
371
100
AcDbEntity
  8
0
100
AcDbLine
 62
7
  6
CONTINUOUS
 10
7.3627815831
 20
4.4056056826
 11
7.3837815831
 21
4.4056056826
  0
LINE
  5
372
100
AcDbEntity
  8
0
100
AcDbLine
 62
7
  6
CONTINUOUS
 10
7.2427815831
 20
4.4596056826
 11
7.2927815831
 21
4.4596056826
  0
LINE
  5
373
100
AcDbEntity
  8
0
100
AcDbLine
 62
7
  6
CONTINUOUS
 10
7.4357815831
 20
4.4601056826
 11
7.3887815831
 21
4.4601056826
  0
LINE
  5
374
100
AcDbEntity
  8
0
100
AcDbLine
 62
7
  6
CONTINUOUS
 10
7.2377815831
 20
4.4601056826
 11
7.1747815831
 21
4.4601056826
  0
LINE
  5
375
100
AcDbEntity
  8
THREAD
100
AcDbLine
 62
7
  6
CONTINUOUS
 10
6.7547815831
 20
4.4606056826
 11
6.5767815831
 21
4.4606056826
  0
LINE
  5
376
100
AcDbEntity
  8
0
100
AcDbLine
 62
7
  6
CONTINUOUS
 10
5.9988719271
 20
4.4606056826
 11
5.696191239
 21
4.4606056826
  0
LINE
  5
377
100
AcDbEntity
  8
0
100
AcDbLine
 62
7
  6
CONTINUOUS
 10
4.5257815831
 20
4.4676056826
 11
4.5037815831
 21
4.4676056826
  0
LINE
  5
378
100
AcDbEntity
  8
THREAD
100
AcDbLine
 62
7
  6
CONTINUOUS
 10
6.2562760296
 20
4.4681056826
 11
6.2437815831
 21
4.4681056826
  0
LINE
  5
379
100
AcDbEntity
  8
03__ASM_ALL_CURVES
100
AcDbLine
 62
40
  6
CONTINUOUS
 10
7.0313202556
 20
3.5236056826
 11
7.0403975993
 21
3.5175541215
  0
LINE
  5
37A
100
AcDbEntity
  8
03__ASM_ALL_CURVES
100
AcDbLine
 62
40
  6
CONTINUOUS
 10
7.2151364569
 20
3.4122569326
 11
7.2242138007
 21
3.4062053715
  0
LINE
  5
37B
100
AcDbEntity
  8
03__ASM_ALL_CURVES
100
AcDbLine
 62
40
  6
CONTINUOUS
 10
4.6336315831
 20
5.1378716826
 11
4.6215284581
 21
5.1459404328
  0
LINE
  5
37C
100
AcDbEntity
  8
03__ASM_ALL_CURVES
100
AcDbLine
 62
40
  6
CONTINUOUS
 10
7.1765577556
 20
3.5236056826
 11
7.1856350993
 21
3.5175541215
  0
LINE
  5
37D
100
AcDbEntity
  8
03__ASM_ALL_CURVES
100
AcDbLine
 62
40
  6
CONTINUOUS
 10
4.6336315831
 20
5.2346966826
 11
4.6457347081
 21
5.2266279345
  0
LINE
  5
37E
100
AcDbEntity
  8
03__ASM_ALL_CURVES
100
AcDbLine
 62
40
  6
CONTINUOUS
 10
4.8272815831
 20
5.1378716826
 11
4.8151784581
 21
5.1459404328
  0
LINE
  5
37F
100
AcDbEntity
  8
03__ASM_ALL_CURVES
100
AcDbLine
 62
40
  6
CONTINUOUS
 10
5.1359112706
 20
5.2266279345
 11
5.1419628331
 21
5.2185591807
  0
LINE
  5
380
100
AcDbEntity
  8
03__ASM_ALL_CURVES
100
AcDbLine
 62
40
  6
CONTINUOUS
 10
5.3053550206
 20
5.2346966826
 11
5.3174581456
 21
5.2185591807
  0
LINE
  5
381
100
AcDbEntity
  8
THREAD
100
AcDbLine
 62
7
  6
CONTINUOUS
 10
6.285143543
 20
3.7301056826
 11
6.2675343598
 21
3.7606056826
  0
LINE
  5
382
100
AcDbEntity
  8
0
100
AcDbLine
 62
7
  6
CONTINUOUS
 10
6.0217815831
 20
3.6891056826
 11
5.9988719271
 21
3.7746056826
  0
LINE
  5
383
100
AcDbEntity
  8
0
100
AcDbLine
 62
7
  6
CONTINUOUS
 10
5.9988719271
 20
3.7746056826
 11
5.9988719271
 21
4.4606056826
  0
LINE
  5
384
100
AcDbEntity
  8
0
100
AcDbLine
 62
7
  6
CONTINUOUS
 10
6.0217815831
 20
3.6891056826
 11
6.0217815831
 21
4.5461056826
  0
LINE
  5
385
100
AcDbEntity
  8
0
100
AcDbLine
 62
7
  6
CONTINUOUS
 10
6.0767815831
 20
3.6891056826
 11
6.0767815831
 21
4.5461056826
  0
LINE
  5
386
100
AcDbEntity
  8
03__ASM_ALL_CURVES
100
AcDbLine
 62
40
  6
CONTINUOUS
 10
6.0767815831
 20
4.5654706826
 11
6.0767815831
 21
5.1378716826
  0
LINE
  5
387
100
AcDbEntity
  8
THREAD
100
AcDbLine
 62
7
  6
CONTINUOUS
 10
6.0923700403
 20
3.7126056826
 11
6.0923700403
 21
4.5226056826
  0
LINE
  5
388
100
AcDbEntity
  8
0
100
AcDbLine
 62
7
  6
CONTINUOUS
 10
6.1237815831
 20
4.5266056826
 11
6.1237815831
 21
3.7086056826
  0
LINE
  5
389
100
AcDbEntity
  8
THREAD
100
AcDbLine
 62
7
  6
CONTINUOUS
 10
6.1237815831
 20
3.7126056826
 11
6.1237815831
 21
4.5226056826
  0
LINE
  5
38A
100
AcDbEntity
  8
03__ASM_ALL_CURVES
100
AcDbLine
 62
40
  6
CONTINUOUS
 10
6.3164234572
 20
5.1862841826
 11
6.3224750197
 21
5.2104904326
  0
LINE
  5
38B
100
AcDbEntity
  8
03__ASM_ALL_CURVES
100
AcDbLine
 62
40
  6
CONTINUOUS
 10
5.7840882281
 20
3.3396381826
 11
5.8067815874
 21
3.4122569326
  0
LINE
  5
38C
100
AcDbEntity
  8
THREAD
100
AcDbLine
 62
7
  6
CONTINUOUS
 10
6.285143543
 20
4.5051056826
 11
6.2675343598
 21
4.4746056826
  0
LINE
  5
38D
100
AcDbEntity
  8
03__ASM_ALL_CURVES
100
AcDbLine
 62
40
  6
CONTINUOUS
 10
6.9034250197
 20
5.2104904326
 11
6.9155281447
 21
5.2266279345
  0
LINE
  5
38E
100
AcDbEntity
  8
03__ASM_ALL_CURVES
100
AcDbLine
 62
40
  6
CONTINUOUS
 10
7.4359625197
 20
5.1459404328
 11
7.4238593947
 21
5.1378716826
  0
LINE
  5
38F
100
AcDbEntity
  8
03__ASM_ALL_CURVES
100
AcDbLine
 62
40
  6
CONTINUOUS
 10
7.6235609572
 20
5.1459404328
 11
7.6114578322
 21
5.1378716826
  0
LINE
  5
390
100
AcDbEntity
  8
0
100
AcDbLine
 62
7
  6
CONTINUOUS
 10
4.8897815831
 20
4.4911056826
 11
4.5387815831
 21
4.4911056826
  0
LINE
  5
391
100
AcDbEntity
  8
0
100
AcDbLine
 62
7
  6
CONTINUOUS
 10
4.4907815831
 20
4.4911056826
 11
4.4397815831
 21
4.4911056826
  0
LINE
  5
392
100
AcDbEntity
  8
0
100
AcDbLine
 62
7
  6
CONTINUOUS
 10
5.6107815831
 20
4.4916056826
 11
5.6027815831
 21
4.4916056826
  0
LINE
  5
393
100
AcDbEntity
  8
THREAD
100
AcDbLine
 62
7
  6
CONTINUOUS
 10
6.5322815831
 20
4.5051056826
 11
6.285143543
 21
4.5051056826
  0
LINE
  5
394
100
AcDbEntity
  8
0
100
AcDbLine
 62
7
  6
CONTINUOUS
 10
6.1937815831
 20
4.5221056826
 11
6.2437815831
 21
4.5221056826
  0
LINE
  5
395
100
AcDbEntity
  8
THREAD
100
AcDbLine
 62
7
  6
CONTINUOUS
 10
6.1237815831
 20
4.5226056826
 11
6.0923700403
 21
4.5226056826
  0
LINE
  5
396
100
AcDbEntity
  8
0
100
AcDbLine
 62
7
  6
CONTINUOUS
 10
5.4827815831
 20
4.5456056826
 11
5.5327815831
 21
4.5456056826
  0
LINE
  5
397
100
AcDbEntity
  8
0
100
AcDbLine
 62
7
  6
CONTINUOUS
 10
6.0767815831
 20
4.5461056826
 11
6.0217815831
 21
4.5461056826
  0
LINE
  5
398
100
AcDbEntity
  8
0
100
AcDbLine
 62
7
  6
CONTINUOUS
 10
5.6732815831
 20
4.5461056826
 11
5.6237815831
 21
4.5461056826
  0
LINE
  5
399
100
AcDbEntity
  8
0
100
AcDbLine
 62
7
  6
CONTINUOUS
 10
5.4827815831
 20
4.5461056826
 11
5.3577815831
 21
4.5461056826
  0
LINE
  5
39A
100
AcDbEntity
  8
0
100
AcDbLine
 62
7
  6
CONTINUOUS
 10
5.2972815831
 20
4.6057081551
 11
4.9238452489
 21
4.6057081551
  0
LINE
  5
39B
100
AcDbEntity
  8
0
100
AcDbLine
 62
7
  6
CONTINUOUS
 10
5.2972815831
 20
4.6066056826
 11
4.9238452489
 21
4.6066056826
  0
LINE
  5
39C
100
AcDbEntity
  8
03__ASM_ALL_CURVES
100
AcDbLine
 62
40
  6
CONTINUOUS
 10
4.6336315831
 20
5.1782154316
 11
4.6154768956
 21
5.1862841826
  0
LINE
  5
39D
100
AcDbEntity
  8
03__ASM_ALL_CURVES
100
AcDbLine
 62
40
  6
CONTINUOUS
 10
4.9180550206
 20
5.1378716826
 11
4.9059518956
 21
5.1459404328
  0
LINE
  5
39E
100
AcDbEntity
  8
03__ASM_ALL_CURVES
100
AcDbLine
 62
40
  6
CONTINUOUS
 10
4.8272815831
 20
5.2346966826
 11
4.8393847081
 21
5.2266279345
  0
LINE
  5
39F
100
AcDbEntity
  8
03__ASM_ALL_CURVES
100
AcDbLine
 62
40
  6
CONTINUOUS
 10
4.9301581456
 20
5.1943529307
 11
4.9422612706
 21
5.1862841826
  0
LINE
  5
3A0
100
AcDbEntity
  8
03__ASM_ALL_CURVES
100
AcDbLine
 62
40
  6
CONTINUOUS
 10
4.9301581456
 20
5.2346966826
 11
4.9422612706
 21
5.2266279345
  0
LINE
  5
3A1
100
AcDbEntity
  8
03__ASM_ALL_CURVES
100
AcDbLine
 62
40
  6
CONTINUOUS
 10
6.7612692694
 20
3.3456897453
 11
6.7521919257
 21
3.3577928701
  0
LINE
  5
3A2
100
AcDbEntity
  8
03__ASM_ALL_CURVES
100
AcDbLine
 62
40
  6
CONTINUOUS
 10
6.7567305976
 20
3.3941022451
 11
6.7612692694
 21
3.388050684
  0
LINE
  5
3A3
100
AcDbEntity
  8
03__ASM_ALL_CURVES
100
AcDbLine
 62
40
  6
CONTINUOUS
 10
6.7885013007
 20
3.3698959944
 11
6.7930399726
 21
3.3638444333
  0
LINE
  5
3A4
100
AcDbEntity
  8
03__ASM_ALL_CURVES
100
AcDbLine
 62
40
  6
CONTINUOUS
 10
6.7930399726
 20
3.4001538062
 11
6.7885013007
 21
3.4062053715
  0
LINE
  5
3A5
100
AcDbEntity
  8
03__ASM_ALL_CURVES
100
AcDbLine
 62
40
  6
CONTINUOUS
 10
6.9065067694
 20
3.3456897453
 11
6.8974294257
 21
3.3577928701
  0
LINE
  5
3A6
100
AcDbEntity
  8
03__ASM_ALL_CURVES
100
AcDbLine
 62
40
  6
CONTINUOUS
 10
6.1929715831
 20
5.1185066826
 11
6.1929715831
 21
5.0797766826
  0
LINE
  5
3A7
100
AcDbEntity
  8
0
100
AcDbLine
 62
7
  6
CONTINUOUS
 10
6.1937815831
 20
4.5266056826
 11
6.1937815831
 21
3.7086056826
  0
LINE
  5
3A8
100
AcDbEntity
  8
03__ASM_ALL_CURVES
100
AcDbLine
 62
40
  6
CONTINUOUS
 10
6.2317015822
 20
5.2346966826
 11
6.2317015822
 21
5.1378716826
  0
LINE
  5
3A9
100
AcDbEntity
  8
0
100
AcDbLine
 62
7
  6
CONTINUOUS
 10
6.2437815831
 20
3.7131062976
 11
6.2437815831
 21
4.5221050676
  0
LINE
  5
3AA
100
AcDbEntity
  8
0
100
AcDbLine
 62
7
  6
CONTINUOUS
 10
6.2562760296
 20
3.7671056826
 11
6.2562760296
 21
4.4681056826
  0
LINE
  5
3AB
100
AcDbEntity
  8
0
100
AcDbLine
 62
7
  6
CONTINUOUS
 10
6.2675343598
 20
3.7606056826
 11
6.2675343598
 21
4.4746056826
  0
LINE
  5
3AC
100
AcDbEntity
  8
THREAD
100
AcDbLine
 62
7
  6
CONTINUOUS
 10
6.285143543
 20
3.7301056826
 11
6.285143543
 21
4.5051056826
  0
LINE
  5
3AD
100
AcDbEntity
  8
03__ASM_ALL_CURVES
100
AcDbLine
 62
40
  6
CONTINUOUS
 10
6.3890422072
 20
5.1862841826
 11
6.3829906447
 21
5.1620779326
  0
LINE
  5
3AE
100
AcDbEntity
  8
03__ASM_ALL_CURVES
100
AcDbLine
 62
40
  6
CONTINUOUS
 10
6.4132484572
 20
5.1862841826
 11
6.4193000197
 21
5.2104904326
  0
LINE
  5
3AF
100
AcDbEntity
  8
03__ASM_ALL_CURVES
100
AcDbLine
 62
40
  6
CONTINUOUS
 10
6.5161250197
 20
5.1378716826
 11
6.5463828322
 21
5.2346966826
  0
LINE
  5
3B0
100
AcDbEntity
  8
03__ASM_ALL_CURVES
100
AcDbLine
 62
40
  6
CONTINUOUS
 10
5.6774294398
 20
3.499399434
 11
5.672890768
 21
3.4933478687
  0
LINE
  5
3B1
100
AcDbEntity
  8
03__ASM_ALL_CURVES
100
AcDbLine
 62
40
  6
CONTINUOUS
 10
5.709200143
 20
3.5054509951
 11
5.7182774867
 21
3.5175541215
  0
LINE
  5
3B2
100
AcDbEntity
  8
03__ASM_ALL_CURVES
100
AcDbLine
 62
40
  6
CONTINUOUS
 10
6.9578890822
 20
5.1540091831
 11
6.9518375197
 21
5.1459404328
  0
LINE
  5
3B3
100
AcDbEntity
  8
03__ASM_ALL_CURVES
100
AcDbLine
 62
40
  6
CONTINUOUS
 10
5.7545868617
 20
3.4691416201
 11
5.745509518
 21
3.4570384953
  0
LINE
  5
3B4
100
AcDbEntity
  8
03__ASM_ALL_CURVES
100
AcDbLine
 62
40
  6
CONTINUOUS
 10
5.6796987749
 20
3.3577928701
 11
5.6706214312
 21
3.3456897453
  0
LINE
  5
3B5
100
AcDbEntity
  8
03__ASM_ALL_CURVES
100
AcDbLine
 62
40
  6
CONTINUOUS
 10
7.1091781447
 20
5.2266279345
 11
7.1031265822
 21
5.2185591807
  0
LINE
  5
3B6
100
AcDbEntity
  8
03__ASM_ALL_CURVES
100
AcDbLine
 62
40
  6
CONTINUOUS
 10
5.8226669398
 20
3.499399434
 11
5.818128268
 21
3.4933478687
  0
LINE
  5
3B7
100
AcDbEntity
  8
03__ASM_ALL_CURVES
100
AcDbLine
 62
40
  6
CONTINUOUS
 10
5.7523175249
 20
3.388050684
 11
5.7477788531
 21
3.3819991187
  0
LINE
  5
3B8
100
AcDbEntity
  8
03__ASM_ALL_CURVES
100
AcDbLine
 62
40
  6
CONTINUOUS
 10
7.8232625197
 20
5.1943529307
 11
7.8111593947
 21
5.1862841826
  0
LINE
  5
3B9
100
AcDbEntity
  8
03__ASM_ALL_CURVES
100
AcDbLine
 62
40
  6
CONTINUOUS
 10
3.6939715831
 20
5.0830041826
 11
3.5777815831
 21
5.0991416826
  0
LINE
  5
3BA
100
AcDbEntity
  8
03__ASM_ALL_CURVES
100
AcDbLine
 62
40
  6
CONTINUOUS
 10
3.6939715831
 20
5.0797766826
 11
3.5777815831
 21
5.0991416826
  0
LINE
  5
3BB
100
AcDbEntity
  8
03__ASM_ALL_CURVES
100
AcDbLine
 62
40
  6
CONTINUOUS
 10
4.8272815831
 20
5.1943529307
 11
4.8454362706
 21
5.1862841826
  0
LINE
  5
3BC
100
AcDbEntity
  8
THREAD
100
AcDbLine
 62
7
  6
CONTINUOUS
 10
6.0923700403
 20
4.5226056826
 11
6.0767815831
 21
4.5316056826
  0
LINE
  5
3BD
100
AcDbEntity
  8
03__ASM_ALL_CURVES
100
AcDbLine
 62
40
  6
CONTINUOUS
 10
5.1238081456
 20
5.2346966826
 11
5.1359112706
 21
5.2266279345
  0
LINE
  5
3BE
100
AcDbEntity
  8
03__ASM_ALL_CURVES
100
AcDbLine
 62
40
  6
CONTINUOUS
 10
6.9791255194
 20
3.3456897453
 11
6.9745868476
 21
3.351741308
  0
LINE
  5
3BF
100
AcDbEntity
  8
03__ASM_ALL_CURVES
100
AcDbLine
 62
40
  6
CONTINUOUS
 10
6.9337388007
 20
3.4062053715
 11
6.9428161444
 21
3.3941022451
  0
LINE
  5
3C0
100
AcDbEntity
  8
03__ASM_ALL_CURVES
100
AcDbLine
 62
40
  6
CONTINUOUS
 10
6.9405468181
 20
3.4570384953
 11
6.9314694743
 21
3.4691416201
  0
LINE
  5
3C1
100
AcDbEntity
  8
03__ASM_ALL_CURVES
100
AcDbLine
 62
40
  6
CONTINUOUS
 10
6.8951600993
 20
3.5175541215
 11
6.8996987712
 21
3.5115025562
  0
LINE
  5
3C2
100
AcDbEntity
  8
03__ASM_ALL_CURVES
100
AcDbLine
 62
40
  6
CONTINUOUS
 10
6.9677788493
 20
3.5175541215
 11
6.9768561931
 21
3.5054509951
  0
LINE
  5
3C3
100
AcDbEntity
  8
03__ASM_ALL_CURVES
100
AcDbLine
 62
40
  6
CONTINUOUS
 10
7.1515390822
 20
5.1540091831
 11
7.1454875197
 21
5.1459404328
  0
LINE
  5
3C4
100
AcDbEntity
  8
03__ASM_ALL_CURVES
100
AcDbLine
 62
40
  6
CONTINUOUS
 10
5.9679044398
 20
3.5054509951
 11
5.963365768
 21
3.499399434
  0
LINE
  5
3C5
100
AcDbEntity
  8
03__ASM_ALL_CURVES
100
AcDbLine
 62
40
  6
CONTINUOUS
 10
5.9724431117
 20
3.4691416201
 11
5.963365768
 21
3.4570384953
  0
LINE
  5
3C6
100
AcDbEntity
  8
03__ASM_ALL_CURVES
100
AcDbLine
 62
40
  6
CONTINUOUS
 10
7.2907250197
 20
5.2104904326
 11
7.3028281447
 21
5.2266279345
  0
LINE
  5
3C7
100
AcDbEntity
  8
03__ASM_ALL_CURVES
100
AcDbLine
 62
40
  6
CONTINUOUS
 10
5.672890768
 20
3.4933478687
 11
5.6638134242
 21
3.4872963076
  0
LINE
  5
3C8
100
AcDbEntity
  8
03__ASM_ALL_CURVES
100
AcDbLine
 62
40
  6
CONTINUOUS
 10
5.7182774867
 20
3.5175541215
 11
5.7273548305
 21
3.5236056826
  0
LINE
  5
3C9
100
AcDbEntity
  8
03__ASM_ALL_CURVES
100
AcDbLine
 62
40
  6
CONTINUOUS
 10
5.745509518
 20
3.4570384953
 11
5.7364321742
 21
3.4509869326
  0
LINE
  5
3CA
100
AcDbEntity
  8
THREAD
100
AcDbLine
 62
7
  6
CONTINUOUS
 10
6.0923700403
 20
3.7126056826
 11
6.0767815831
 21
3.7036056826
  0
LINE
  5
3CB
100
AcDbEntity
  8
03__ASM_ALL_CURVES
100
AcDbLine
 62
40
  6
CONTINUOUS
 10
3.6939715831
 20
5.0894591826
 11
3.5777815831
 21
5.0991416826
  0
LINE
  5
3CC
100
AcDbEntity
  8
03__ASM_ALL_CURVES
100
AcDbLine
 62
40
  6
CONTINUOUS
 10
3.6939715831
 20
5.0862316826
 11
3.5777815831
 21
5.0991416826
  0
LINE
  5
3CD
100
AcDbEntity
  8
0
100
AcDbLine
 62
7
  6
CONTINUOUS
 10
7.1747815831
 20
3.7751056826
 11
7.1697815831
 21
3.7801056826
  0
LINE
  5
3CE
100
AcDbEntity
  8
03__ASM_ALL_CURVES
100
AcDbLine
 62
40
  6
CONTINUOUS
 10
7.0403975993
 20
3.5175541215
 11
7.0449362712
 21
3.5115025562
  0
LINE
  5
3CF
100
AcDbEntity
  8
03__ASM_ALL_CURVES
100
AcDbLine
 62
40
  6
CONTINUOUS
 10
7.1969817694
 20
3.3456897453
 11
7.1879044257
 21
3.3577928701
  0
LINE
  5
3D0
100
AcDbEntity
  8
03__ASM_ALL_CURVES
100
AcDbLine
 62
40
  6
CONTINUOUS
 10
7.2242138007
 20
3.4062053715
 11
7.2287524726
 21
3.4001538062
  0
LINE
  5
3D1
100
AcDbEntity
  8
03__ASM_ALL_CURVES
100
AcDbLine
 62
40
  6
CONTINUOUS
 10
7.1856350993
 20
3.5175541215
 11
7.1901737712
 21
3.5115025562
  0
LINE
  5
3D2
100
AcDbEntity
  8
03__ASM_ALL_CURVES
100
AcDbLine
 62
40
  6
CONTINUOUS
 10
6.9246614569
 20
3.3638444333
 11
6.9382774726
 21
3.3396381826
  0
LINE
  5
3D3
100
AcDbEntity
  8
THREAD
100
AcDbLine
 62
7
  6
CONTINUOUS
 10
6.5322815831
 20
3.7301056826
 11
6.5322815831
 21
4.5051056826
  0
LINE
  5
3D4
100
AcDbEntity
  8
THREAD
100
AcDbLine
 62
7
  6
CONTINUOUS
 10
6.5767815831
 20
3.7746056826
 11
6.5767815831
 21
4.4606056826
  0
LINE
  5
3D5
100
AcDbEntity
  8
03__ASM_ALL_CURVES
100
AcDbLine
 62
40
  6
CONTINUOUS
 10
7.3512406447
 20
5.1620779326
 11
7.3391375197
 21
5.1459404328
  0
LINE
  5
3D6
100
AcDbEntity
  8
03__ASM_ALL_CURVES
100
AcDbLine
 62
40
  6
CONTINUOUS
 10
7.4420140822
 20
5.1540091831
 11
7.4359625197
 21
5.1459404328
  0
LINE
  5
3D7
100
AcDbEntity
  8
03__ASM_ALL_CURVES
100
AcDbLine
 62
40
  6
CONTINUOUS
 10
5.818128268
 20
3.4933478687
 11
5.8090509242
 21
3.4872963076
  0
LINE
  5
3D8
100
AcDbEntity
  8
03__ASM_ALL_CURVES
100
AcDbLine
 62
40
  6
CONTINUOUS
 10
5.6706214312
 20
3.3456897453
 11
5.6615440874
 21
3.3396381826
  0
LINE
  5
3D9
100
AcDbEntity
  8
03__ASM_ALL_CURVES
100
AcDbLine
 62
40
  6
CONTINUOUS
 10
5.9361337367
 20
3.5175541215
 11
5.9452110805
 21
3.5236056826
  0
LINE
  5
3DA
100
AcDbEntity
  8
03__ASM_ALL_CURVES
100
AcDbLine
 62
40
  6
CONTINUOUS
 10
5.7477788531
 20
3.3819991187
 11
5.7387015093
 21
3.3759475576
  0
LINE
  5
3DB
100
AcDbEntity
  8
03__ASM_ALL_CURVES
100
AcDbLine
 62
40
  6
CONTINUOUS
 10
5.963365768
 20
3.499399434
 11
5.9542884242
 21
3.4933478687
  0
LINE
  5
3DC
100
AcDbEntity
  8
03__ASM_ALL_CURVES
100
AcDbLine
 62
40
  6
CONTINUOUS
 10
5.963365768
 20
3.4570384953
 11
5.9542884242
 21
3.4509869326
  0
LINE
  5
3DD
100
AcDbEntity
  8
03__ASM_ALL_CURVES
100
AcDbLine
 62
40
  6
CONTINUOUS
 10
5.9605915831
 20
5.0797766826
 11
6.1929715831
 21
5.1185066826
  0
LINE
  5
3DE
100
AcDbEntity
  8
03__ASM_ALL_CURVES
100
AcDbLine
 62
40
  6
CONTINUOUS
 10
5.9605915831
 20
5.0830041826
 11
6.1929715831
 21
5.1152791826
  0
LINE
  5
3DF
100
AcDbEntity
  8
03__ASM_ALL_CURVES
100
AcDbLine
 62
40
  6
CONTINUOUS
 10
5.9605915831
 20
5.0862316826
 11
6.1929715831
 21
5.1120516826
  0
LINE
  5
3E0
100
AcDbEntity
  8
03__ASM_ALL_CURVES
100
AcDbLine
 62
40
  6
CONTINUOUS
 10
5.9605915831
 20
5.0894591826
 11
6.1929715831
 21
5.1088241826
  0
LINE
  5
3E1
100
AcDbEntity
  8
03__ASM_ALL_CURVES
100
AcDbLine
 62
40
  6
CONTINUOUS
 10
5.9605915831
 20
5.0926866826
 11
6.1929715831
 21
5.1055966826
  0
LINE
  5
3E2
100
AcDbEntity
  8
03__ASM_ALL_CURVES
100
AcDbLine
 62
40
  6
CONTINUOUS
 10
5.9605915831
 20
5.0959141826
 11
6.1929715831
 21
5.1023691826
  0
LINE
  5
3E3
100
AcDbEntity
  8
03__ASM_ALL_CURVES
100
AcDbLine
 62
40
  6
CONTINUOUS
 10
3.5777815831
 20
5.0991416826
 11
7.9358215831
 21
5.0991416826
  0
LINE
  5
3E4
100
AcDbEntity
  8
03__ASM_ALL_CURVES
100
AcDbLine
 62
40
  6
CONTINUOUS
 10
3.6939715831
 20
5.0959141826
 11
3.5777815831
 21
5.0991416826
  0
LINE
  5
3E5
100
AcDbEntity
  8
03__ASM_ALL_CURVES
100
AcDbLine
 62
40
  6
CONTINUOUS
 10
5.9605915831
 20
5.1023691826
 11
6.1929715831
 21
5.0959141826
  0
LINE
  5
3E6
100
AcDbEntity
  8
03__ASM_ALL_CURVES
100
AcDbLine
 62
40
  6
CONTINUOUS
 10
3.6939715831
 20
5.0926866826
 11
3.5777815831
 21
5.0991416826
  0
LINE
  5
3E7
100
AcDbEntity
  8
03__ASM_ALL_CURVES
100
AcDbLine
 62
40
  6
CONTINUOUS
 10
5.9605915831
 20
5.1055966826
 11
6.1929715831
 21
5.0926866826
  0
LINE
  5
3E8
100
AcDbEntity
  8
THREAD
100
AcDbLine
 62
7
  6
CONTINUOUS
 10
6.5767815831
 20
4.4606056826
 11
6.5322815831
 21
4.5051056826
  0
LINE
  5
3E9
100
AcDbEntity
  8
0
100
AcDbLine
 62
7
  6
CONTINUOUS
 10
7.3887815831
 20
3.7751056826
 11
7.3837815831
 21
3.7801056826
  0
LINE
  5
3EA
100
AcDbEntity
  8
0
100
AcDbLine
 62
7
  6
CONTINUOUS
 10
6.7647815831
 20
4.4506056826
 11
6.7547815831
 21
4.4606056826
  0
LINE
  5
3EB
100
AcDbEntity
  8
03__ASM_ALL_CURVES
100
AcDbLine
 62
40
  6
CONTINUOUS
 10
7.1198243476
 20
3.4122569326
 11
7.1561337226
 21
3.3396381826
  0
LINE
  5
3EC
100
AcDbEntity
  8
03__ASM_ALL_CURVES
100
AcDbLine
 62
40
  6
CONTINUOUS
 10
6.3224750197
 20
5.1620779326
 11
6.3164234572
 21
5.1862841826
  0
LINE
  5
3ED
100
AcDbEntity
  8
03__ASM_ALL_CURVES
100
AcDbLine
 62
40
  6
CONTINUOUS
 10
6.3829906447
 20
5.2104904326
 11
6.3890422072
 21
5.1862841826
  0
LINE
  5
3EE
100
AcDbEntity
  8
03__ASM_ALL_CURVES
100
AcDbLine
 62
40
  6
CONTINUOUS
 10
6.4193000197
 20
5.1620779326
 11
6.4132484572
 21
5.1862841826
  0
LINE
  5
3EF
100
AcDbEntity
  8
03__ASM_ALL_CURVES
100
AcDbLine
 62
40
  6
CONTINUOUS
 10
6.6432078322
 20
5.2346966826
 11
6.6432078322
 21
5.1378716826
  0
LINE
  5
3F0
100
AcDbEntity
  8
03__ASM_ALL_CURVES
100
AcDbLine
 62
40
  6
CONTINUOUS
 10
6.7400328322
 20
5.2346966826
 11
6.7400328322
 21
5.1378716826
  0
LINE
  5
3F1
100
AcDbEntity
  8
0
100
AcDbLine
 62
7
  6
CONTINUOUS
 10
6.7547815831
 20
3.7746056826
 11
6.7547815831
 21
4.4606056826
  0
LINE
  5
3F2
100
AcDbEntity
  8
03__ASM_ALL_CURVES
100
AcDbLine
 62
40
  6
CONTINUOUS
 10
6.7567305976
 20
3.4001538062
 11
6.7567305976
 21
3.3941022451
  0
LINE
  5
3F3
100
AcDbEntity
  8
0
100
AcDbLine
 62
7
  6
CONTINUOUS
 10
6.7647815831
 20
3.7846056826
 11
6.7647815831
 21
4.4506056826
  0
LINE
  5
3F4
100
AcDbEntity
  8
03__ASM_ALL_CURVES
100
AcDbLine
 62
40
  6
CONTINUOUS
 10
6.8973734572
 20
5.1862841826
 11
6.9034250197
 21
5.2104904326
  0
LINE
  5
3F5
100
AcDbEntity
  8
03__ASM_ALL_CURVES
100
AcDbLine
 62
40
  6
CONTINUOUS
 10
7.6356640822
 20
5.1620779326
 11
7.6235609572
 21
5.1459404328
  0
LINE
  5
3F6
100
AcDbEntity
  8
0
100
AcDbLine
 62
7
  6
CONTINUOUS
 10
7.1747815831
 20
4.4601056826
 11
7.1697815831
 21
4.4551056826
  0
LINE
  5
3F7
100
AcDbEntity
  8
THREAD
100
AcDbLine
 62
7
  6
CONTINUOUS
 10
6.5767815831
 20
3.7746056826
 11
6.5322815831
 21
3.7301056826
  0
LINE
  5
3F8
100
AcDbEntity
  8
03__ASM_ALL_CURVES
100
AcDbLine
 62
40
  6
CONTINUOUS
 10
3.6939715831
 20
5.1055966826
 11
3.5777815831
 21
5.0991416826
  0
LINE
  5
3F9
100
AcDbEntity
  8
03__ASM_ALL_CURVES
100
AcDbLine
 62
40
  6
CONTINUOUS
 10
3.6939715831
 20
5.1023691826
 11
3.5777815831
 21
5.0991416826
  0
LINE
  5
3FA
100
AcDbEntity
  8
03__ASM_ALL_CURVES
100
AcDbLine
 62
40
  6
CONTINUOUS
 10
7.7324890822
 20
5.1378716826
 11
7.6840765822
 21
5.1378716826
  0
LINE
  5
3FB
100
AcDbEntity
  8
03__ASM_ALL_CURVES
100
AcDbLine
 62
40
  6
CONTINUOUS
 10
7.6114578322
 20
5.1378716826
 11
7.5872515822
 21
5.1378716826
  0
LINE
  5
3FC
100
AcDbEntity
  8
03__ASM_ALL_CURVES
100
AcDbLine
 62
40
  6
CONTINUOUS
 10
7.4238593947
 20
5.1378716826
 11
7.4117562697
 21
5.1378716826
  0
LINE
  5
3FD
100
AcDbEntity
  8
03__ASM_ALL_CURVES
100
AcDbLine
 62
40
  6
CONTINUOUS
 10
7.3270343947
 20
5.1378716826
 11
7.3149312697
 21
5.1378716826
  0
LINE
  5
3FE
100
AcDbEntity
  8
03__ASM_ALL_CURVES
100
AcDbLine
 62
40
  6
CONTINUOUS
 10
7.1333843947
 20
5.1378716826
 11
7.1212812697
 21
5.1378716826
  0
LINE
  5
3FF
100
AcDbEntity
  8
03__ASM_ALL_CURVES
100
AcDbLine
 62
40
  6
CONTINUOUS
 10
6.9397343947
 20
5.1378716826
 11
6.9276312697
 21
5.1378716826
  0
LINE
  5
400
100
AcDbEntity
  8
03__ASM_ALL_CURVES
100
AcDbLine
 62
40
  6
CONTINUOUS
 10
6.4556093947
 20
5.1378716826
 11
6.4435062697
 21
5.1378716826
  0
LINE
  5
401
100
AcDbEntity
  8
03__ASM_ALL_CURVES
100
AcDbLine
 62
40
  6
CONTINUOUS
 10
6.3587843947
 20
5.1378716826
 11
6.3466812697
 21
5.1378716826
  0
LINE
  5
402
100
AcDbEntity
  8
03__ASM_ALL_CURVES
100
AcDbLine
 62
40
  6
CONTINUOUS
 10
5.0209315831
 20
5.1378716826
 11
5.0148800206
 21
5.1378716826
  0
LINE
  5
403
100
AcDbEntity
  8
03__ASM_ALL_CURVES
100
AcDbLine
 62
40
  6
CONTINUOUS
 10
4.9301581456
 20
5.1378716826
 11
4.9180550206
 21
5.1378716826
  0
LINE
  5
404
100
AcDbEntity
  8
03__ASM_ALL_CURVES
100
AcDbLine
 62
40
  6
CONTINUOUS
 10
4.4399815831
 20
5.1378716826
 11
4.4339300206
 21
5.1378716826
  0
LINE
  5
405
100
AcDbEntity
  8
03__ASM_ALL_CURVES
100
AcDbLine
 62
40
  6
CONTINUOUS
 10
4.3189503331
 20
5.1378716826
 11
4.3673628331
 21
5.1378716826
  0
LINE
  5
406
100
AcDbEntity
  8
03__ASM_ALL_CURVES
100
AcDbLine
 62
40
  6
CONTINUOUS
 10
5.0935503331
 20
5.1378716826
 11
5.1419628331
 21
5.1378716826
  0
LINE
  5
407
100
AcDbEntity
  8
03__ASM_ALL_CURVES
100
AcDbLine
 62
40
  6
CONTINUOUS
 10
6.2317015822
 20
5.1378716826
 11
6.2801140822
 21
5.1378716826
  0
LINE
  5
408
100
AcDbEntity
  8
03__ASM_ALL_CURVES
100
AcDbLine
 62
40
  6
CONTINUOUS
 10
7.4904265822
 20
5.1378716826
 11
7.5388390822
 21
5.1378716826
  0
LINE
  5
409
100
AcDbEntity
  8
03__ASM_ALL_CURVES
100
AcDbLine
 62
40
  6
CONTINUOUS
 10
4.5126003331
 20
5.1620779326
 11
4.5670643956
 21
5.1620779326
  0
LINE
  5
40A
100
AcDbEntity
  8
03__ASM_ALL_CURVES
100
AcDbLine
 62
40
  6
CONTINUOUS
 10
5.1903753331
 20
5.1620779326
 11
5.2448393956
 21
5.1620779326
  0
LINE
  5
40B
100
AcDbEntity
  8
03__ASM_ALL_CURVES
100
AcDbLine
 62
40
  6
CONTINUOUS
 10
6.5282281447
 20
5.1701466836
 11
6.5645375197
 21
5.1701466836
  0
LINE
  5
40C
100
AcDbEntity
  8
03__ASM_ALL_CURVES
100
AcDbLine
 62
40
  6
CONTINUOUS
 10
7.8111593947
 20
5.1862841826
 11
7.7809015822
 21
5.1862841826
  0
LINE
  5
40D
100
AcDbEntity
  8
03__ASM_ALL_CURVES
100
AcDbLine
 62
40
  6
CONTINUOUS
 10
6.9336828322
 20
5.1862841826
 11
6.9578890822
 21
5.1862841826
  0
LINE
  5
40E
100
AcDbEntity
  8
03__ASM_ALL_CURVES
100
AcDbLine
 62
40
  6
CONTINUOUS
 10
7.1999515822
 20
5.1862841826
 11
7.2483640822
 21
5.1862841826
  0
LINE
  5
40F
100
AcDbEntity
  8
03__ASM_ALL_CURVES
100
AcDbLine
 62
40
  6
CONTINUOUS
 10
7.6840765822
 20
5.1862841826
 11
7.7143343947
 21
5.1862841826
  0
LINE
  5
410
100
AcDbEntity
  8
03__ASM_ALL_CURVES
100
AcDbLine
 62
40
  6
CONTINUOUS
 10
4.9180550206
 20
5.1943529307
 11
4.9301581456
 21
5.1943529307
  0
LINE
  5
411
100
AcDbEntity
  8
03__ASM_ALL_CURVES
100
AcDbLine
 62
40
  6
CONTINUOUS
 10
7.1333843947
 20
5.2346966826
 11
7.1212812697
 21
5.2346966826
  0
LINE
  5
412
100
AcDbEntity
  8
03__ASM_ALL_CURVES
100
AcDbLine
 62
40
  6
CONTINUOUS
 10
4.3371050206
 20
5.2346966826
 11
4.3492081456
 21
5.2346966826
  0
LINE
  5
413
100
AcDbEntity
  8
03__ASM_ALL_CURVES
100
AcDbLine
 62
40
  6
CONTINUOUS
 10
4.9180550206
 20
5.2346966826
 11
4.9301581456
 21
5.2346966826
  0
LINE
  5
414
100
AcDbEntity
  8
03__ASM_ALL_CURVES
100
AcDbLine
 62
40
  6
CONTINUOUS
 10
5.1117050206
 20
5.2346966826
 11
5.1238081456
 21
5.2346966826
  0
LINE
  5
415
100
AcDbEntity
  8
03__ASM_ALL_CURVES
100
AcDbLine
 62
40
  6
CONTINUOUS
 10
6.3466812697
 20
5.2346966826
 11
6.3587843947
 21
5.2346966826
  0
LINE
  5
416
100
AcDbEntity
  8
03__ASM_ALL_CURVES
100
AcDbLine
 62
40
  6
CONTINUOUS
 10
6.4435062697
 20
5.2346966826
 11
6.4556093947
 21
5.2346966826
  0
LINE
  5
417
100
AcDbEntity
  8
03__ASM_ALL_CURVES
100
AcDbLine
 62
40
  6
CONTINUOUS
 10
6.6129500197
 20
5.2346966826
 11
6.6734656447
 21
5.2346966826
  0
LINE
  5
418
100
AcDbEntity
  8
03__ASM_ALL_CURVES
100
AcDbLine
 62
40
  6
CONTINUOUS
 10
6.9276312697
 20
5.2346966826
 11
6.9397343947
 21
5.2346966826
  0
LINE
  5
419
100
AcDbEntity
  8
03__ASM_ALL_CURVES
100
AcDbLine
 62
40
  6
CONTINUOUS
 10
7.3149312697
 20
5.2346966826
 11
7.3270343947
 21
5.2346966826
  0
LINE
  5
41A
100
AcDbEntity
  8
03__ASM_ALL_CURVES
100
AcDbLine
 62
40
  6
CONTINUOUS
 10
7.5872515822
 20
5.2346966826
 11
7.6114578322
 21
5.2346966826
  0
LINE
  5
41B
100
AcDbEntity
  8
03__ASM_ALL_CURVES
100
AcDbLine
 62
40
  6
CONTINUOUS
 10
7.6840765822
 20
5.2346966826
 11
7.7324890822
 21
5.2346966826
  0
LINE
  5
41C
100
AcDbEntity
  8
03__ASM_ALL_CURVES
100
AcDbLine
 62
40
  6
CONTINUOUS
 10
7.7809015822
 20
5.2346966826
 11
7.8111593947
 21
5.2346966826
  0
LINE
  5
41D
100
AcDbEntity
  8
03__ASM_ALL_CURVES
100
AcDbLine
 62
40
  6
CONTINUOUS
 10
5.9605915831
 20
5.1088241826
 11
6.1929715831
 21
5.0894591826
  0
LINE
  5
41E
100
AcDbEntity
  8
03__ASM_ALL_CURVES
100
AcDbLine
 62
40
  6
CONTINUOUS
 10
5.9605915831
 20
5.1120516826
 11
6.1929715831
 21
5.0862316826
  0
LINE
  5
41F
100
AcDbEntity
  8
03__ASM_ALL_CURVES
100
AcDbLine
 62
40
  6
CONTINUOUS
 10
5.9605915831
 20
5.1152791826
 11
6.1929715831
 21
5.0830041826
  0
LINE
  5
420
100
AcDbEntity
  8
03__ASM_ALL_CURVES
100
AcDbLine
 62
40
  6
CONTINUOUS
 10
6.1929715831
 20
5.0797766826
 11
5.9605915831
 21
5.1185066826
  0
LINE
  5
421
100
AcDbEntity
  8
03__ASM_ALL_CURVES
100
AcDbLine
 62
40
  6
CONTINUOUS
 10
7.798016348
 20
4.1369706826
 11
7.7889390043
 21
4.1430222453
  0
LINE
  5
422
100
AcDbEntity
  8
03__ASM_ALL_CURVES
100
AcDbLine
 62
40
  6
CONTINUOUS
 10
6.3345781447
 20
5.1459404328
 11
6.3224750197
 21
5.1620779326
  0
LINE
  5
423
100
AcDbEntity
  8
03__ASM_ALL_CURVES
100
AcDbLine
 62
40
  6
CONTINUOUS
 10
7.0313202556
 20
3.4872963076
 11
7.0449362712
 21
3.4509869326
  0
LINE
  5
424
100
AcDbEntity
  8
03__ASM_ALL_CURVES
100
AcDbLine
 62
40
  6
CONTINUOUS
 10
6.8974294257
 20
3.3577928701
 11
6.8928907538
 21
3.3759475576
  0
LINE
  5
425
100
AcDbEntity
  8
03__ASM_ALL_CURVES
100
AcDbLine
 62
40
  6
CONTINUOUS
 10
6.9428161444
 20
3.3941022451
 11
6.9473548163
 21
3.3759475576
  0
LINE
  5
426
100
AcDbEntity
  8
03__ASM_ALL_CURVES
100
AcDbLine
 62
40
  6
CONTINUOUS
 10
6.9314694743
 20
3.4691416201
 11
6.9269308025
 21
3.4872963076
  0
LINE
  5
427
100
AcDbEntity
  8
03__ASM_ALL_CURVES
100
AcDbLine
 62
40
  6
CONTINUOUS
 10
6.9768561931
 20
3.5054509951
 11
6.981394865
 21
3.4872963076
  0
LINE
  5
428
100
AcDbEntity
  8
03__ASM_ALL_CURVES
100
AcDbLine
 62
40
  6
CONTINUOUS
 10
6.7930399726
 20
3.3638444333
 11
6.7930399726
 21
3.351741308
  0
LINE
  5
429
100
AcDbEntity
  8
03__ASM_ALL_CURVES
100
AcDbLine
 62
40
  6
CONTINUOUS
 10
6.8126515822
 20
5.1378716826
 11
6.8126515822
 21
5.2346966826
  0
LINE
  5
42A
100
AcDbEntity
  8
03__ASM_ALL_CURVES
100
AcDbLine
 62
40
  6
CONTINUOUS
 10
6.8293493476
 20
3.3396381826
 11
6.8293493476
 21
3.4122569326
  0
LINE
  5
42B
100
AcDbEntity
  8
03__ASM_ALL_CURVES
100
AcDbLine
 62
40
  6
CONTINUOUS
 10
6.8610640822
 20
5.1378716826
 11
6.8610640822
 21
5.2346966826
  0
LINE
  5
42C
100
AcDbEntity
  8
03__ASM_ALL_CURVES
100
AcDbLine
 62
40
  6
CONTINUOUS
 10
6.8633893962
 20
3.4509869326
 11
6.8633893962
 21
3.5236056826
  0
LINE
  5
42D
100
AcDbEntity
  8
03__ASM_ALL_CURVES
100
AcDbLine
 62
40
  6
CONTINUOUS
 10
6.8996987712
 20
3.5115025562
 11
6.8996987712
 21
3.499399434
  0
LINE
  5
42E
100
AcDbEntity
  8
03__ASM_ALL_CURVES
100
AcDbLine
 62
40
  6
CONTINUOUS
 10
7.8293140822
 20
5.2024216845
 11
7.8232625197
 21
5.1943529307
  0
LINE
  5
42F
100
AcDbEntity
  8
0
100
AcDbLine
 62
7
  6
CONTINUOUS
 10
7.3887815831
 20
4.4601056826
 11
7.3837815831
 21
4.4551056826
  0
LINE
  5
430
100
AcDbEntity
  8
0
100
AcDbLine
 62
7
  6
CONTINUOUS
 10
6.7647815831
 20
3.7846056826
 11
6.7547815831
 21
3.7746056826
  0
LINE
  5
431
100
AcDbEntity
  8
03__ASM_ALL_CURVES
100
AcDbLine
 62
40
  6
CONTINUOUS
 10
3.6939715831
 20
5.1152791826
 11
3.5777815831
 21
5.0991416826
  0
LINE
  5
432
100
AcDbEntity
  8
03__ASM_ALL_CURVES
100
AcDbLine
 62
40
  6
CONTINUOUS
 10
3.6939715831
 20
5.1120516826
 11
3.5777815831
 21
5.0991416826
  0
LINE
  5
433
100
AcDbEntity
  8
03__ASM_ALL_CURVES
100
AcDbLine
 62
40
  6
CONTINUOUS
 10
3.6939715831
 20
5.1088241826
 11
3.5777815831
 21
5.0991416826
  0
LINE
  5
434
100
AcDbEntity
  8
03__ASM_ALL_CURVES
100
AcDbLine
 62
40
  6
CONTINUOUS
 10
7.7344749418
 20
4.2095894326
 11
7.7435522855
 21
4.2035378715
  0
LINE
  5
435
100
AcDbEntity
  8
03__ASM_ALL_CURVES
100
AcDbLine
 62
40
  6
CONTINUOUS
 10
6.3466812697
 20
5.1378716826
 11
6.3345781447
 21
5.1459404328
  0
LINE
  5
436
100
AcDbEntity
  8
03__ASM_ALL_CURVES
100
AcDbLine
 62
40
  6
CONTINUOUS
 10
7.8070936918
 20
4.2095894326
 11
7.8161710355
 21
4.2035378715
  0
LINE
  5
437
100
AcDbEntity
  8
03__ASM_ALL_CURVES
100
AcDbLine
 62
40
  6
CONTINUOUS
 10
6.4435062697
 20
5.1378716826
 11
6.4314031447
 21
5.1459404328
  0
LINE
  5
438
100
AcDbEntity
  8
03__ASM_ALL_CURVES
100
AcDbLine
 62
40
  6
CONTINUOUS
 10
7.8797124418
 20
4.2095894326
 11
7.8887897855
 21
4.2035378715
  0
LINE
  5
439
100
AcDbEntity
  8
03__ASM_ALL_CURVES
100
AcDbLine
 62
40
  6
CONTINUOUS
 10
6.3587843947
 20
5.2346966826
 11
6.3708875197
 21
5.2266279345
  0
LINE
  5
43A
100
AcDbEntity
  8
0
100
AcDbLine
 62
7
  6
CONTINUOUS
 10
7.2427815831
 20
4.4551056826
 11
7.2377815831
 21
4.4601056826
  0
LINE
  5
43B
100
AcDbEntity
  8
03__ASM_ALL_CURVES
100
AcDbLine
 62
40
  6
CONTINUOUS
 10
6.3708875197
 20
5.2266279345
 11
6.3829906447
 21
5.2104904326
  0
LINE
  5
43C
100
AcDbEntity
  8
03__ASM_ALL_CURVES
100
AcDbLine
 62
40
  6
CONTINUOUS
 10
6.4314031447
 20
5.1459404328
 11
6.4193000197
 21
5.1620779326
  0
LINE
  5
43D
100
AcDbEntity
  8
03__ASM_ALL_CURVES
100
AcDbLine
 62
40
  6
CONTINUOUS
 10
6.4677125197
 20
5.2266279345
 11
6.4737640822
 21
5.2185591807
  0
LINE
  5
43E
100
AcDbEntity
  8
03__ASM_ALL_CURVES
100
AcDbLine
 62
40
  6
CONTINUOUS
 10
6.5463828322
 20
5.2346966826
 11
6.5766406447
 21
5.1378716826
  0
LINE
  5
43F
100
AcDbEntity
  8
03__ASM_ALL_CURVES
100
AcDbLine
 62
40
  6
CONTINUOUS
 10
7.1879044257
 20
3.3577928701
 11
7.1833657538
 21
3.3759475576
  0
LINE
  5
440
100
AcDbEntity
  8
03__ASM_ALL_CURVES
100
AcDbLine
 62
40
  6
CONTINUOUS
 10
6.9578890822
 20
5.1862841826
 11
6.9578890822
 21
5.1540091831
  0
LINE
  5
441
100
AcDbEntity
  8
03__ASM_ALL_CURVES
100
AcDbLine
 62
40
  6
CONTINUOUS
 10
6.9745868476
 20
3.351741308
 11
6.9745868476
 21
3.4122569326
  0
LINE
  5
442
100
AcDbEntity
  8
03__ASM_ALL_CURVES
100
AcDbLine
 62
40
  6
CONTINUOUS
 10
7.0086268962
 20
3.4509869326
 11
7.0086268962
 21
3.5236056826
  0
LINE
  5
443
100
AcDbEntity
  8
03__ASM_ALL_CURVES
100
AcDbLine
 62
40
  6
CONTINUOUS
 10
7.0108962226
 20
3.4122569326
 11
7.0108962226
 21
3.351741308
  0
LINE
  5
444
100
AcDbEntity
  8
03__ASM_ALL_CURVES
100
AcDbLine
 62
40
  6
CONTINUOUS
 10
7.0449362712
 20
3.5115025562
 11
7.0449362712
 21
3.499399434
  0
LINE
  5
445
100
AcDbEntity
  8
03__ASM_ALL_CURVES
100
AcDbLine
 62
40
  6
CONTINUOUS
 10
7.0472055976
 20
3.3396381826
 11
7.0472055976
 21
3.4122569326
  0
LINE
  5
446
100
AcDbEntity
  8
0
100
AcDbLine
 62
7
  6
CONTINUOUS
 10
7.0497815831
 20
4.0960416295
 11
7.0497815831
 21
4.1390915772
  0
LINE
  5
447
100
AcDbEntity
  8
0
100
AcDbLine
 62
7
  6
CONTINUOUS
 10
7.0567815831
 20
4.0843810881
 11
7.0567815831
 21
4.1508684087
  0
LINE
  5
448
100
AcDbEntity
  8
0
100
AcDbLine
 62
7
  6
CONTINUOUS
 10
7.0947815831
 20
3.9523077827
 11
7.0947815831
 21
3.9614670198
  0
LINE
  5
449
100
AcDbEntity
  8
0
100
AcDbLine
 62
7
  6
CONTINUOUS
 10
7.0947815831
 20
4.0634359734
 11
7.0947815831
 21
4.1718402327
  0
LINE
  5
44A
100
AcDbEntity
  8
0
100
AcDbLine
 62
7
  6
CONTINUOUS
 10
7.0947815831
 20
4.2737443362
 11
7.0947815831
 21
4.2829037948
  0
LINE
  5
44B
100
AcDbEntity
  8
03__ASM_ALL_CURVES
100
AcDbLine
 62
40
  6
CONTINUOUS
 10
7.0994003337
 20
3.5236056826
 11
7.0994003337
 21
3.4509869326
  0
LINE
  5
44C
100
AcDbEntity
  8
0
100
AcDbLine
 62
7
  6
CONTINUOUS
 10
7.1017815831
 20
4.2830508483
 11
7.1017815831
 21
4.2734606654
  0
LINE
  5
44D
100
AcDbEntity
  8
0
100
AcDbLine
 62
7
  6
CONTINUOUS
 10
7.1017815831
 20
3.9521604794
 11
7.1017815831
 21
3.9617507068
  0
LINE
  5
44E
100
AcDbEntity
  8
0
100
AcDbLine
 62
7
  6
CONTINUOUS
 10
7.1017815831
 20
4.0633951702
 11
7.1017815831
 21
4.1717899645
  0
LINE
  5
44F
100
AcDbEntity
  8
03__ASM_ALL_CURVES
100
AcDbLine
 62
40
  6
CONTINUOUS
 10
7.1031265822
 20
5.2185591807
 11
7.1031265822
 21
5.2104904326
  0
LINE
  5
450
100
AcDbEntity
  8
0
100
AcDbLine
 62
7
  6
CONTINUOUS
 10
7.1117815831
 20
4.2824242327
 11
7.1117815831
 21
4.2744062792
  0
LINE
  5
451
100
AcDbEntity
  8
0
100
AcDbLine
 62
7
  6
CONTINUOUS
 10
7.1117815831
 20
3.9527872692
 11
7.1117815831
 21
3.9608051282
  0
LINE
  5
452
100
AcDbEntity
  8
0
100
AcDbLine
 62
7
  6
CONTINUOUS
 10
7.1117815831
 20
4.0647454803
 11
7.1117815831
 21
4.1704561202
  0
LINE
  5
453
100
AcDbEntity
  8
03__ASM_ALL_CURVES
100
AcDbLine
 62
40
  6
CONTINUOUS
 10
7.2846734572
 20
5.1862841826
 11
7.2907250197
 21
5.2104904326
  0
LINE
  5
454
100
AcDbEntity
  8
03__ASM_ALL_CURVES
100
AcDbLine
 62
40
  6
CONTINUOUS
 10
6.8928907538
 20
3.3759475576
 11
6.8974294257
 21
3.3941022451
  0
LINE
  5
455
100
AcDbEntity
  8
03__ASM_ALL_CURVES
100
AcDbLine
 62
40
  6
CONTINUOUS
 10
6.9269308025
 20
3.4872963076
 11
6.9314694743
 21
3.5054509951
  0
LINE
  5
456
100
AcDbEntity
  8
03__ASM_ALL_CURVES
100
AcDbLine
 62
40
  6
CONTINUOUS
 10
7.3572922072
 20
5.1862841826
 11
7.3512406447
 21
5.1620779326
  0
LINE
  5
457
100
AcDbEntity
  8
03__ASM_ALL_CURVES
100
AcDbLine
 62
40
  6
CONTINUOUS
 10
6.7612692694
 20
3.4062053715
 11
6.7567305976
 21
3.4001538062
  0
LINE
  5
458
100
AcDbEntity
  8
03__ASM_ALL_CURVES
100
AcDbLine
 62
40
  6
CONTINUOUS
 10
7.7435522855
 20
4.1793316187
 11
7.7344749418
 21
4.1732800576
  0
LINE
  5
459
100
AcDbEntity
  8
03__ASM_ALL_CURVES
100
AcDbLine
 62
40
  6
CONTINUOUS
 10
7.7889390043
 20
4.2035378715
 11
7.798016348
 21
4.2095894326
  0
LINE
  5
45A
100
AcDbEntity
  8
03__ASM_ALL_CURVES
100
AcDbLine
 62
40
  6
CONTINUOUS
 10
7.8161710355
 20
4.1430222453
 11
7.8070936918
 21
4.1369706826
  0
LINE
  5
45B
100
AcDbEntity
  8
03__ASM_ALL_CURVES
100
AcDbLine
 62
40
  6
CONTINUOUS
 10
7.8887897855
 20
4.1793316187
 11
7.8797124418
 21
4.1732800576
  0
LINE
  5
45C
100
AcDbEntity
  8
03__ASM_ALL_CURVES
100
AcDbLine
 62
40
  6
CONTINUOUS
 10
6.7703466132
 20
3.4122569326
 11
6.7612692694
 21
3.4062053715
  0
LINE
  5
45D
100
AcDbEntity
  8
03__ASM_ALL_CURVES
100
AcDbLine
 62
40
  6
CONTINUOUS
 10
6.8951600993
 20
3.4933478687
 11
6.8860827556
 21
3.4872963076
  0
LINE
  5
45E
100
AcDbEntity
  8
03__ASM_ALL_CURVES
100
AcDbLine
 62
40
  6
CONTINUOUS
 10
6.9405468181
 20
3.5175541215
 11
6.9496241618
 21
3.5236056826
  0
LINE
  5
45F
100
AcDbEntity
  8
03__ASM_ALL_CURVES
100
AcDbLine
 62
40
  6
CONTINUOUS
 10
3.5777815831
 20
5.0991416826
 11
3.6939715831
 21
5.1185066826
  0
LINE
  5
460
100
AcDbEntity
  8
03__ASM_ALL_CURVES
100
AcDbLine
 62
40
  6
CONTINUOUS
 10
6.4556093947
 20
5.2346966826
 11
6.4677125197
 21
5.2266279345
  0
LINE
  5
461
100
AcDbEntity
  8
0
100
AcDbLine
 62
7
  6
CONTINUOUS
 10
7.4507815831
 20
4.4451056826
 11
7.4357815831
 21
4.4601056826
  0
LINE
  5
462
100
AcDbEntity
  8
03__ASM_ALL_CURVES
100
AcDbLine
 62
40
  6
CONTINUOUS
 10
6.9034250197
 20
5.1620779326
 11
6.8973734572
 21
5.1862841826
  0
LINE
  5
463
100
AcDbEntity
  8
0
100
AcDbLine
 62
7
  6
CONTINUOUS
 10
7.1187815831
 20
3.953864268
 11
7.1187815831
 21
3.9587713636
  0
LINE
  5
464
100
AcDbEntity
  8
0
100
AcDbLine
 62
7
  6
CONTINUOUS
 10
7.1187815831
 20
4.0667467358
 11
7.1187815831
 21
4.1685182589
  0
LINE
  5
465
100
AcDbEntity
  8
0
100
AcDbLine
 62
7
  6
CONTINUOUS
 10
7.1187815831
 20
4.2764400448
 11
7.1187815831
 21
4.281346807
  0
LINE
  5
466
100
AcDbEntity
  8
03__ASM_ALL_CURVES
100
AcDbLine
 62
40
  6
CONTINUOUS
 10
7.1198243476
 20
3.3396381826
 11
7.1198243476
 21
3.4122569326
  0
LINE
  5
467
100
AcDbEntity
  8
03__ASM_ALL_CURVES
100
AcDbLine
 62
40
  6
CONTINUOUS
 10
7.1515390822
 20
5.1701466836
 11
7.1515390822
 21
5.1540091831
  0
LINE
  5
468
100
AcDbEntity
  8
03__ASM_ALL_CURVES
100
AcDbLine
 62
40
  6
CONTINUOUS
 10
7.1561337226
 20
3.3396381826
 11
7.1561337226
 21
3.4122569326
  0
LINE
  5
469
100
AcDbEntity
  8
0
100
AcDbLine
 62
7
  6
CONTINUOUS
 10
7.1697815831
 20
3.7801056826
 11
7.1697815831
 21
4.4551056826
  0
LINE
  5
46A
100
AcDbEntity
  8
0
100
AcDbLine
 62
7
  6
CONTINUOUS
 10
7.1747815831
 20
3.7751056826
 11
7.1747815831
 21
4.4601056826
  0
LINE
  5
46B
100
AcDbEntity
  8
03__ASM_ALL_CURVES
100
AcDbLine
 62
40
  6
CONTINUOUS
 10
7.1901737712
 20
3.5115025562
 11
7.1901737712
 21
3.499399434
  0
LINE
  5
46C
100
AcDbEntity
  8
03__ASM_ALL_CURVES
100
AcDbLine
 62
40
  6
CONTINUOUS
 10
7.1999515822
 20
5.2346966826
 11
7.1999515822
 21
5.1378716826
  0
LINE
  5
46D
100
AcDbEntity
  8
0
100
AcDbLine
 62
7
  6
CONTINUOUS
 10
7.2377815831
 20
3.7751056826
 11
7.2377815831
 21
4.4601056826
  0
LINE
  5
46E
100
AcDbEntity
  8
0
100
AcDbLine
 62
7
  6
CONTINUOUS
 10
7.2427815831
 20
3.7756062026
 11
7.2427815831
 21
4.4596051626
  0
LINE
  5
46F
100
AcDbEntity
  8
03__ASM_ALL_CURVES
100
AcDbLine
 62
40
  6
CONTINUOUS
 10
7.2483640822
 20
5.2346966826
 11
7.2483640822
 21
5.1378716826
  0
LINE
  5
470
100
AcDbEntity
  8
03__ASM_ALL_CURVES
100
AcDbLine
 62
40
  6
CONTINUOUS
 10
7.2650618476
 20
3.3396381826
 11
7.2650618476
 21
3.4122569326
  0
LINE
  5
471
100
AcDbEntity
  8
03__ASM_ALL_CURVES
100
AcDbLine
 62
40
  6
CONTINUOUS
 10
6.9473548163
 20
3.3759475576
 11
6.9428161444
 21
3.3577928701
  0
LINE
  5
472
100
AcDbEntity
  8
03__ASM_ALL_CURVES
100
AcDbLine
 62
40
  6
CONTINUOUS
 10
6.981394865
 20
3.4872963076
 11
6.9768561931
 21
3.4691416201
  0
LINE
  5
473
100
AcDbEntity
  8
03__ASM_ALL_CURVES
100
AcDbLine
 62
40
  6
CONTINUOUS
 10
6.8996987712
 20
3.499399434
 11
6.8951600993
 21
3.4933478687
  0
LINE
  5
474
100
AcDbEntity
  8
03__ASM_ALL_CURVES
100
AcDbLine
 62
40
  6
CONTINUOUS
 10
6.7930399726
 20
3.351741308
 11
6.7885013007
 21
3.3456897453
  0
LINE
  5
475
100
AcDbEntity
  8
03__ASM_ALL_CURVES
100
AcDbLine
 62
40
  6
CONTINUOUS
 10
6.9314694743
 20
3.5054509951
 11
6.9405468181
 21
3.5175541215
  0
LINE
  5
476
100
AcDbEntity
  8
03__ASM_ALL_CURVES
100
AcDbLine
 62
40
  6
CONTINUOUS
 10
6.8974294257
 20
3.3941022451
 11
6.9065067694
 21
3.4062053715
  0
LINE
  5
477
100
AcDbEntity
  8
03__ASM_ALL_CURVES
100
AcDbLine
 62
40
  6
CONTINUOUS
 10
6.9768561931
 20
3.4691416201
 11
6.9677788493
 21
3.4570384953
  0
LINE
  5
478
100
AcDbEntity
  8
03__ASM_ALL_CURVES
100
AcDbLine
 62
40
  6
CONTINUOUS
 10
7.0449362712
 20
3.499399434
 11
7.0403975993
 21
3.4933478687
  0
LINE
  5
479
100
AcDbEntity
  8
03__ASM_ALL_CURVES
100
AcDbLine
 62
40
  6
CONTINUOUS
 10
6.9428161444
 20
3.3577928701
 11
6.9337388007
 21
3.3456897453
  0
LINE
  5
47A
100
AcDbEntity
  8
0
100
AcDbLine
 62
7
  6
CONTINUOUS
 10
7.2427815831
 20
3.7801056826
 11
7.2377815831
 21
3.7751056826
  0
LINE
  5
47B
100
AcDbEntity
  8
03__ASM_ALL_CURVES
100
AcDbLine
 62
40
  6
CONTINUOUS
 10
6.7885013007
 20
3.3456897453
 11
6.7794239569
 21
3.3396381826
  0
LINE
  5
47C
100
AcDbEntity
  8
03__ASM_ALL_CURVES
100
AcDbLine
 62
40
  6
CONTINUOUS
 10
6.9677788493
 20
3.4570384953
 11
6.9587015056
 21
3.4509869326
  0
LINE
  5
47D
100
AcDbEntity
  8
03__ASM_ALL_CURVES
100
AcDbLine
 62
40
  6
CONTINUOUS
 10
6.9065067694
 20
3.4062053715
 11
6.9155841132
 21
3.4122569326
  0
LINE
  5
47E
100
AcDbEntity
  8
03__ASM_ALL_CURVES
100
AcDbLine
 62
40
  6
CONTINUOUS
 10
7.0403975993
 20
3.4933478687
 11
7.0313202556
 21
3.4872963076
  0
LINE
  5
47F
100
AcDbEntity
  8
03__ASM_ALL_CURVES
100
AcDbLine
 62
40
  6
CONTINUOUS
 10
7.1584030681
 20
3.5175541215
 11
7.1674804118
 21
3.5236056826
  0
LINE
  5
480
100
AcDbEntity
  8
03__ASM_ALL_CURVES
100
AcDbLine
 62
40
  6
CONTINUOUS
 10
6.9337388007
 20
3.3456897453
 11
6.9246614569
 21
3.3396381826
  0
LINE
  5
481
100
AcDbEntity
  8
03__ASM_ALL_CURVES
100
AcDbLine
 62
40
  6
CONTINUOUS
 10
7.1856350993
 20
3.4933478687
 11
7.1674804118
 21
3.4812447444
  0
LINE
  5
482
100
AcDbEntity
  8
03__ASM_ALL_CURVES
100
AcDbLine
 62
40
  6
CONTINUOUS
 10
7.0063575507
 20
3.3456897453
 11
6.9972802069
 21
3.3396381826
  0
LINE
  5
483
100
AcDbEntity
  8
03__ASM_ALL_CURVES
100
AcDbLine
 62
40
  6
CONTINUOUS
 10
6.9276312697
 20
5.1378716826
 11
6.9155281447
 21
5.1459404328
  0
LINE
  5
484
100
AcDbEntity
  8
03__ASM_ALL_CURVES
100
AcDbLine
 62
40
  6
CONTINUOUS
 10
6.9397343947
 20
5.2346966826
 11
6.9518375197
 21
5.2266279345
  0
LINE
  5
485
100
AcDbEntity
  8
03__ASM_ALL_CURVES
100
AcDbLine
 62
40
  6
CONTINUOUS
 10
7.1212812697
 20
5.1378716826
 11
7.1091781447
 21
5.1459404328
  0
LINE
  5
486
100
AcDbEntity
  8
03__ASM_ALL_CURVES
100
AcDbLine
 62
40
  6
CONTINUOUS
 10
6.9155281447
 20
5.1459404328
 11
6.9034250197
 21
5.1620779326
  0
LINE
  5
487
100
AcDbEntity
  8
03__ASM_ALL_CURVES
100
AcDbLine
 62
40
  6
CONTINUOUS
 10
6.8126515822
 20
5.2346966826
 11
6.8610640822
 21
5.1378716826
  0
LINE
  5
488
100
AcDbEntity
  8
0
100
AcDbLine
 62
7
  6
CONTINUOUS
 10
7.2927815831
 20
3.7756062026
 11
7.2927815831
 21
4.4596051626
  0
LINE
  5
489
100
AcDbEntity
  8
0
100
AcDbLine
 62
7
  6
CONTINUOUS
 10
7.3627815831
 20
4.4406056826
 11
7.3627815831
 21
3.7946056826
  0
LINE
  5
48A
100
AcDbEntity
  8
0
100
AcDbLine
 62
7
  6
CONTINUOUS
 10
7.3837815831
 20
3.7801056826
 11
7.3837815831
 21
4.4551056826
  0
LINE
  5
48B
100
AcDbEntity
  8
0
100
AcDbLine
 62
7
  6
CONTINUOUS
 10
7.3887815831
 20
3.7751056826
 11
7.3887815831
 21
4.4601056826
  0
LINE
  5
48C
100
AcDbEntity
  8
03__ASM_ALL_CURVES
100
AcDbLine
 62
40
  6
CONTINUOUS
 10
7.3936015822
 20
5.1540091831
 11
7.3936015822
 21
5.2346966826
  0
LINE
  5
48D
100
AcDbEntity
  8
03__ASM_ALL_CURVES
100
AcDbLine
 62
40
  6
CONTINUOUS
 10
7.1584030681
 20
3.4691416201
 11
7.1538643962
 21
3.4509869326
  0
LINE
  5
48E
100
AcDbEntity
  8
03__ASM_ALL_CURVES
100
AcDbLine
 62
40
  6
CONTINUOUS
 10
7.1833657538
 20
3.3759475576
 11
7.1879044257
 21
3.3941022451
  0
LINE
  5
48F
100
AcDbEntity
  8
03__ASM_ALL_CURVES
100
AcDbLine
 62
40
  6
CONTINUOUS
 10
7.6417156447
 20
5.1862841826
 11
7.6356640822
 21
5.1620779326
  0
LINE
  5
490
100
AcDbEntity
  8
03__ASM_ALL_CURVES
100
AcDbLine
 62
40
  6
CONTINUOUS
 10
7.0108962226
 20
3.351741308
 11
7.0063575507
 21
3.3456897453
  0
LINE
  5
491
100
AcDbEntity
  8
03__ASM_ALL_CURVES
100
AcDbLine
 62
40
  6
CONTINUOUS
 10
7.1538643962
 20
3.5115025562
 11
7.1584030681
 21
3.5175541215
  0
LINE
  5
492
100
AcDbEntity
  8
03__ASM_ALL_CURVES
100
AcDbLine
 62
40
  6
CONTINUOUS
 10
7.1674804118
 20
3.4812447444
 11
7.1584030681
 21
3.4691416201
  0
LINE
  5
493
100
AcDbEntity
  8
03__ASM_ALL_CURVES
100
AcDbLine
 62
40
  6
CONTINUOUS
 10
7.1901737712
 20
3.499399434
 11
7.1856350993
 21
3.4933478687
  0
LINE
  5
494
100
AcDbEntity
  8
03__ASM_ALL_CURVES
100
AcDbLine
 62
40
  6
CONTINUOUS
 10
7.7480909574
 20
4.185383184
 11
7.7435522855
 21
4.1793316187
  0
LINE
  5
495
100
AcDbEntity
  8
0
100
AcDbLine
 62
7
  6
CONTINUOUS
 10
7.4507815831
 20
3.7901056826
 11
7.4357815831
 21
3.7751056826
  0
LINE
  5
496
100
AcDbEntity
  8
03__ASM_ALL_CURVES
100
AcDbLine
 62
40
  6
CONTINUOUS
 10
7.1969817694
 20
3.4062053715
 11
7.2060591132
 21
3.4122569326
  0
LINE
  5
497
100
AcDbEntity
  8
03__ASM_ALL_CURVES
100
AcDbLine
 62
40
  6
CONTINUOUS
 10
7.2242138007
 20
3.3456897453
 11
7.2151364569
 21
3.3396381826
  0
LINE
  5
498
100
AcDbEntity
  8
03__ASM_ALL_CURVES
100
AcDbLine
 62
40
  6
CONTINUOUS
 10
7.1091781447
 20
5.2024216845
 11
7.1454875197
 21
5.1782154316
  0
LINE
  5
499
100
AcDbEntity
  8
03__ASM_ALL_CURVES
100
AcDbLine
 62
40
  6
CONTINUOUS
 10
7.1454875197
 20
5.2266279345
 11
7.1333843947
 21
5.2346966826
  0
LINE
  5
49A
100
AcDbEntity
  8
03__ASM_ALL_CURVES
100
AcDbLine
 62
40
  6
CONTINUOUS
 10
7.3149312697
 20
5.1378716826
 11
7.3028281447
 21
5.1459404328
  0
LINE
  5
49B
100
AcDbEntity
  8
03__ASM_ALL_CURVES
100
AcDbLine
 62
40
  6
CONTINUOUS
 10
7.4117562697
 20
5.1378716826
 11
7.3996531447
 21
5.1459404328
  0
LINE
  5
49C
100
AcDbEntity
  8
03__ASM_ALL_CURVES
100
AcDbLine
 62
40
  6
CONTINUOUS
 10
6.9518375197
 20
5.2266279345
 11
6.9578890822
 21
5.2185591807
  0
LINE
  5
49D
100
AcDbEntity
  8
03__ASM_ALL_CURVES
100
AcDbLine
 62
40
  6
CONTINUOUS
 10
7.7889390043
 20
4.1430222453
 11
7.7798616605
 21
4.1551253701
  0
LINE
  5
49E
100
AcDbEntity
  8
03__ASM_ALL_CURVES
100
AcDbLine
 62
40
  6
CONTINUOUS
 10
7.7435522855
 20
4.2035378715
 11
7.7480909574
 21
4.1974863062
  0
LINE
  5
49F
100
AcDbEntity
  8
03__ASM_ALL_CURVES
100
AcDbLine
 62
40
  6
CONTINUOUS
 10
7.1091781447
 20
5.1459404328
 11
7.0970750197
 21
5.1620779326
  0
LINE
  5
4A0
100
AcDbEntity
  8
03__ASM_ALL_CURVES
100
AcDbLine
 62
40
  6
CONTINUOUS
 10
7.8161710355
 20
4.2035378715
 11
7.8252483793
 21
4.1914347451
  0
LINE
  5
4A1
100
AcDbEntity
  8
03__ASM_ALL_CURVES
100
AcDbLine
 62
40
  6
CONTINUOUS
 10
7.1031265822
 20
5.2104904326
 11
7.1091781447
 21
5.2024216845
  0
LINE
  5
4A2
100
AcDbEntity
  8
03__ASM_ALL_CURVES
100
AcDbLine
 62
40
  6
CONTINUOUS
 10
7.1454875197
 20
5.1782154316
 11
7.1515390822
 21
5.1701466836
  0
LINE
  5
4A3
100
AcDbEntity
  8
03__ASM_ALL_CURVES
100
AcDbLine
 62
40
  6
CONTINUOUS
 10
7.8887897855
 20
4.2035378715
 11
7.8933284574
 21
4.1974863062
  0
LINE
  5
4A4
100
AcDbEntity
  8
0
100
AcDbLine
 62
7
  6
CONTINUOUS
 10
7.4357815831
 20
3.7751056826
 11
7.4357815831
 21
4.4601056826
  0
LINE
  5
4A5
100
AcDbEntity
  8
03__ASM_ALL_CURVES
100
AcDbLine
 62
40
  6
CONTINUOUS
 10
7.4420140822
 20
5.2346966826
 11
7.4420140822
 21
5.1540091831
  0
LINE
  5
4A6
100
AcDbEntity
  8
0
100
AcDbLine
 62
7
  6
CONTINUOUS
 10
7.4507815831
 20
3.7901114068
 11
7.4507815831
 21
4.4450999584
  0
LINE
  5
4A7
100
AcDbEntity
  8
03__ASM_ALL_CURVES
100
AcDbLine
 62
40
  6
CONTINUOUS
 10
7.4904265822
 20
5.2346966826
 11
7.4904265822
 21
5.1378716826
  0
LINE
  5
4A8
100
AcDbEntity
  8
03__ASM_ALL_CURVES
100
AcDbLine
 62
40
  6
CONTINUOUS
 10
7.5872515822
 20
5.1378716826
 11
7.5872515822
 21
5.2346966826
  0
LINE
  5
4A9
100
AcDbEntity
  8
03__ASM_ALL_CURVES
100
AcDbLine
 62
40
  6
CONTINUOUS
 10
7.7798616605
 20
4.1914347451
 11
7.7889390043
 21
4.2035378715
  0
LINE
  5
4AA
100
AcDbEntity
  8
03__ASM_ALL_CURVES
100
AcDbLine
 62
40
  6
CONTINUOUS
 10
7.1879044257
 20
3.3941022451
 11
7.1969817694
 21
3.4062053715
  0
LINE
  5
4AB
100
AcDbEntity
  8
03__ASM_ALL_CURVES
100
AcDbLine
 62
40
  6
CONTINUOUS
 10
7.8252483793
 20
4.1551253701
 11
7.8161710355
 21
4.1430222453
  0
LINE
  5
4AC
100
AcDbEntity
  8
03__ASM_ALL_CURVES
100
AcDbLine
 62
40
  6
CONTINUOUS
 10
7.2287524726
 20
3.351741308
 11
7.2242138007
 21
3.3456897453
  0
LINE
  5
4AD
100
AcDbEntity
  8
03__ASM_ALL_CURVES
100
AcDbLine
 62
40
  6
CONTINUOUS
 10
7.8933284574
 20
4.185383184
 11
7.8887897855
 21
4.1793316187
  0
LINE
  5
4AE
100
AcDbEntity
  8
03__ASM_ALL_CURVES
100
AcDbLine
 62
40
  6
CONTINUOUS
 10
7.3270343947
 20
5.2346966826
 11
7.3391375197
 21
5.2266279345
  0
LINE
  5
4AF
100
AcDbEntity
  8
03__ASM_ALL_CURVES
100
AcDbLine
 62
40
  6
CONTINUOUS
 10
7.6114578322
 20
5.2346966826
 11
7.6235609572
 21
5.2266279345
  0
LINE
  5
4B0
100
AcDbEntity
  8
03__ASM_ALL_CURVES
100
AcDbLine
 62
40
  6
CONTINUOUS
 10
7.1515390822
 20
5.2185591807
 11
7.1454875197
 21
5.2266279345
  0
LINE
  5
4B1
100
AcDbEntity
  8
03__ASM_ALL_CURVES
100
AcDbLine
 62
40
  6
CONTINUOUS
 10
7.3028281447
 20
5.1459404328
 11
7.2907250197
 21
5.1620779326
  0
LINE
  5
4B2
100
AcDbEntity
  8
03__ASM_ALL_CURVES
100
AcDbLine
 62
40
  6
CONTINUOUS
 10
7.3391375197
 20
5.2266279345
 11
7.3512406447
 21
5.2104904326
  0
LINE
  5
4B3
100
AcDbEntity
  8
03__ASM_ALL_CURVES
100
AcDbLine
 62
40
  6
CONTINUOUS
 10
7.3996531447
 20
5.1459404328
 11
7.3936015822
 21
5.1540091831
  0
LINE
  5
4B4
100
AcDbEntity
  8
03__ASM_ALL_CURVES
100
AcDbLine
 62
40
  6
CONTINUOUS
 10
7.7662456442
 20
4.0982406826
 11
7.8025550192
 21
4.0256219326
  0
LINE
  5
4B5
100
AcDbEntity
  8
03__ASM_ALL_CURVES
100
AcDbLine
 62
40
  6
CONTINUOUS
 10
7.2907250197
 20
5.1620779326
 11
7.2846734572
 21
5.1862841826
  0
LINE
  5
4B6
100
AcDbEntity
  8
03__ASM_ALL_CURVES
100
AcDbLine
 62
40
  6
CONTINUOUS
 10
7.3512406447
 20
5.2104904326
 11
7.3572922072
 21
5.1862841826
  0
LINE
  5
4B7
100
AcDbEntity
  8
03__ASM_ALL_CURVES
100
AcDbLine
 62
40
  6
CONTINUOUS
 10
7.6840765822
 20
5.1378716826
 11
7.6840765822
 21
5.2346966826
  0
LINE
  5
4B8
100
AcDbEntity
  8
03__ASM_ALL_CURVES
100
AcDbLine
 62
40
  6
CONTINUOUS
 10
7.7117815817
 20
4.0982406826
 11
7.7117815817
 21
4.0256219326
  0
LINE
  5
4B9
100
AcDbEntity
  8
03__ASM_ALL_CURVES
100
AcDbLine
 62
40
  6
CONTINUOUS
 10
7.7117815824
 20
4.1369706826
 11
7.7117815824
 21
4.2095894326
  0
LINE
  5
4BA
100
AcDbEntity
  8
03__ASM_ALL_CURVES
100
AcDbLine
 62
40
  6
CONTINUOUS
 10
7.7480909574
 20
4.1974863062
 11
7.7480909574
 21
4.185383184
  0
LINE
  5
4BB
100
AcDbEntity
  8
03__ASM_ALL_CURVES
100
AcDbLine
 62
40
  6
CONTINUOUS
 10
7.7753229886
 20
4.1732800576
 11
7.7798616605
 21
4.1914347451
  0
LINE
  5
4BC
100
AcDbEntity
  8
03__ASM_ALL_CURVES
100
AcDbLine
 62
40
  6
CONTINUOUS
 10
7.8111593947
 20
5.2346966826
 11
7.8232625197
 21
5.2266279345
  0
LINE
  5
4BD
100
AcDbEntity
  8
03__ASM_ALL_CURVES
100
AcDbLine
 62
40
  6
CONTINUOUS
 10
7.8797124418
 20
4.1732800576
 11
7.8933284574
 21
4.1369706826
  0
LINE
  5
4BE
100
AcDbEntity
  8
03__ASM_ALL_CURVES
100
AcDbLine
 62
40
  6
CONTINUOUS
 10
7.7798616605
 20
4.1551253701
 11
7.7753229886
 21
4.1732800576
  0
LINE
  5
4BF
100
AcDbEntity
  8
03__ASM_ALL_CURVES
100
AcDbLine
 62
40
  6
CONTINUOUS
 10
7.8252483793
 20
4.1914347451
 11
7.8297870511
 21
4.1732800576
  0
LINE
  5
4C0
100
AcDbEntity
  8
03__ASM_ALL_CURVES
100
AcDbLine
 62
40
  6
CONTINUOUS
 10
7.7662456442
 20
4.0256219326
 11
7.7662456442
 21
4.0982406826
  0
LINE
  5
4C1
100
AcDbEntity
  8
03__ASM_ALL_CURVES
100
AcDbLine
 62
40
  6
CONTINUOUS
 10
7.7809015822
 20
5.1378716826
 11
7.7809015822
 21
5.2346966826
  0
LINE
  5
4C2
100
AcDbEntity
  8
03__ASM_ALL_CURVES
100
AcDbLine
 62
40
  6
CONTINUOUS
 10
7.8025550192
 20
4.0256219326
 11
7.8025550192
 21
4.0982406826
  0
LINE
  5
4C3
100
AcDbEntity
  8
03__ASM_ALL_CURVES
100
AcDbLine
 62
40
  6
CONTINUOUS
 10
7.8293140822
 20
5.2185591807
 11
7.8293140822
 21
5.2024216845
  0
LINE
  5
4C4
100
AcDbEntity
  8
03__ASM_ALL_CURVES
100
AcDbLine
 62
40
  6
CONTINUOUS
 10
7.8388643942
 20
4.0982406826
 11
7.8388643942
 21
4.0256219326
  0
LINE
  5
4C5
100
AcDbEntity
  8
03__ASM_ALL_CURVES
100
AcDbLine
 62
40
  6
CONTINUOUS
 10
7.8570190824
 20
4.1369706826
 11
7.8570190824
 21
4.2095894326
  0
LINE
  5
4C6
100
AcDbEntity
  8
03__ASM_ALL_CURVES
100
AcDbLine
 62
40
  6
CONTINUOUS
 10
7.8933284574
 20
4.1974863062
 11
7.8933284574
 21
4.185383184
  0
LINE
  5
4C7
100
AcDbEntity
  8
03__ASM_ALL_CURVES
100
AcDbLine
 62
40
  6
CONTINUOUS
 10
7.9114831442
 20
4.0256219326
 11
7.9114831442
 21
4.0982406826
  0
LINE
  5
4C8
100
AcDbEntity
  8
03__ASM_ALL_CURVES
100
AcDbLine
 62
40
  6
CONTINUOUS
 10
7.8297870511
 20
4.1732800576
 11
7.8252483793
 21
4.1551253701
  0
LINE
  5
4C9
100
AcDbEntity
  8
03__ASM_ALL_CURVES
100
AcDbLine
 62
40
  6
CONTINUOUS
 10
7.6235609572
 20
5.2266279345
 11
7.6356640822
 21
5.2104904326
  0
LINE
  5
4CA
100
AcDbEntity
  8
03__ASM_ALL_CURVES
100
AcDbLine
 62
40
  6
CONTINUOUS
 10
7.6356640822
 20
5.2104904326
 11
7.6417156447
 21
5.1862841826
  0
LINE
  5
4CB
100
AcDbEntity
  8
03__ASM_ALL_CURVES
100
AcDbLine
 62
40
  6
CONTINUOUS
 10
7.9477925199
 20
4.2095894326
 11
7.9477925199
 21
4.1369706826
  0
LINE
  5
4CC
100
AcDbEntity
  8
03__ASM_ALL_CURVES
100
AcDbLine
 62
40
  6
CONTINUOUS
 10
8.0022565817
 20
4.0982406826
 11
8.0022565817
 21
4.0256219326
  0
LINE
  5
4CD
100
AcDbEntity
  8
03__ASM_ALL_CURVES
100
AcDbLine
 62
40
  6
CONTINUOUS
 10
8.0204112699
 20
4.2095894326
 11
8.0204112699
 21
4.1369706826
  0
LINE
  5
4CE
100
AcDbEntity
  8
03__ASM_ALL_CURVES
100
AcDbLine
 62
40
  6
CONTINUOUS
 10
7.8232625197
 20
5.2266279345
 11
7.8293140822
 21
5.2185591807
  0
LINE
  5
4CF
100
AcDbEntity
  8
03__ASM_ALL_CURVES
100
AcDbLine
 62
40
  6
CONTINUOUS
 10
7.8111593947
 20
5.1862841826
 11
7.8293140822
 21
5.1378716826
  0
ARC
  5
4D0
100
AcDbEntity
  8
0
100
AcDbCircle
 62
7
  6
CONTINUOUS
 10
4.1397815831
 20
4.2946056826
 40
0.094
100
AcDbArc
 50
90.0
 51
131.267427381
  0
ARC
  5
4D1
100
AcDbEntity
  8
0
100
AcDbCircle
 62
7
  6
CONTINUOUS
 10
4.1397815831
 20
3.9406056826
 40
0.094
100
AcDbArc
 50
228.732572619
 51
270.0
  0
CIRCLE
  5
4D2
100
AcDbEntity
  8
0
100
AcDbCircle
 62
7
  6
CONTINUOUS
 10
7.0997815831
 20
4.1176056826
 40
0.0545
  0
ARC
  5
4D3
100
AcDbEntity
  8
0
100
AcDbCircle
 62
7
  6
CONTINUOUS
 10
3.8267815831
 20
3.9561056826
 40
0.0175
100
AcDbArc
 50
180.0
 51
360.0
  0
ARC
  5
4D4
100
AcDbEntity
  8
0
100
AcDbCircle
 62
7
  6
CONTINUOUS
 10
5.6107815831
 20
3.7306056826
 40
0.013
100
AcDbArc
 50
0.0000000041
 51
90.0
  0
ARC
  5
4D5
100
AcDbEntity
  8
0
100
AcDbCircle
 62
7
  6
CONTINUOUS
 10
5.6107815831
 20
4.5046056826
 40
0.013
100
AcDbArc
 50
270.0
 51
359.9999999985
  0
ARC
  5
4D6
100
AcDbEntity
  8
0
100
AcDbCircle
 62
7
  6
CONTINUOUS
 10
6.2562760296
 20
3.7541056826
 40
0.013
100
AcDbArc
 50
29.9999999852
 51
90.0
  0
ARC
  5
4D7
100
AcDbEntity
  8
0
100
AcDbCircle
 62
7
  6
CONTINUOUS
 10
6.2562760296
 20
4.4811056826
 40
0.013
100
AcDbArc
 50
270.0
 51
330.0000000002
  0
ARC
  5
4D8
100
AcDbEntity
  8
0
100
AcDbCircle
 62
7
  6
CONTINUOUS
 10
4.5257815831
 20
4.4756056826
 40
0.008
100
AcDbArc
 50
270.0
 51
360.0
  0
ARC
  5
4D9
100
AcDbEntity
  8
0
100
AcDbCircle
 62
7
  6
CONTINUOUS
 10
4.5037815831
 20
4.4756056826
 40
0.008
100
AcDbArc
 50
180.0
 51
270.0
  0
ARC
  5
4DA
100
AcDbEntity
  8
0
100
AcDbCircle
 62
7
  6
CONTINUOUS
 10
4.5257815831
 20
3.7596056826
 40
0.008
100
AcDbArc
 50
0.0
 51
90.0
  0
ARC
  5
4DB
100
AcDbEntity
  8
0
100
AcDbCircle
 62
7
  6
CONTINUOUS
 10
4.5037815831
 20
3.7596056826
 40
0.008
100
AcDbArc
 50
90.0
 51
180.0
  0
ARC
  5
4DC
100
AcDbEntity
  8
0
100
AcDbCircle
 62
7
  6
CONTINUOUS
 10
4.5387815831
 20
4.4861056826
 40
0.005
100
AcDbArc
 50
90.0
 51
180.0
  0
ARC
  5
4DD
100
AcDbEntity
  8
0
100
AcDbCircle
 62
7
  6
CONTINUOUS
 10
4.4907815831
 20
4.4861056826
 40
0.005
100
AcDbArc
 50
0.0
 51
90.0
  0
ARC
  5
4DE
100
AcDbEntity
  8
0
100
AcDbCircle
 62
7
  6
CONTINUOUS
 10
4.5387815831
 20
3.7491056826
 40
0.005
100
AcDbArc
 50
180.0
 51
270.0
  0
ARC
  5
4DF
100
AcDbEntity
  8
0
100
AcDbCircle
 62
7
  6
CONTINUOUS
 10
4.4907815831
 20
3.7491056826
 40
0.005
100
AcDbArc
 50
270.0
 51
360.0
  0
SPLINE
  5
4E0
100
AcDbEntity
  8
0
100
AcDbSpline
 62
7
  6
CONTINUOUS
 70
0
 71
3
 72
20
 73
16
 74
14
 42
0.0000001
 43
0.0000001
 44
0.0000000001
 12
0.0
 22
0.0416605862
 32
0.0
 13
0.0
 23
-0.0416605862
 33
0.0
 40
0.0
 40
0.0
 40
0.0
 40
0.0
 40
0.0489307848
 40
0.1062135912
 40
0.175871992
 40
0.2580136346
 40
0.3503828832
 40
0.4493672053
 40
0.5506327947
 40
0.6496171168
 40
0.7419863654
 40
0.824128008
 40
0.8937864088
 40
0.9510692152
 40
1.0
 40
1.0
 40
1.0
 40
1.0
 10
3.8442815831
 20
4.1937292514
 30
0.0
 10
3.8442815831
 20
4.1944087465
 30
0.0
 10
3.8438600491
 20
4.1958947575
 30
0.0
 10
3.8422247813
 20
4.1977731848
 30
0.0
 10
3.8397728608
 20
4.1993721851
 30
0.0
 10
3.8366136284
 20
4.2006469362
 30
0.0
 10
3.8329105348
 20
4.201538924
 30
0.0
 10
3.8288636258
 20
4.2019981617
 30
0.0
 10
3.8246995403
 20
4.2019981617
 30
0.0
 10
3.8206526313
 20
4.201538924
 30
0.0
 10
3.8169495377
 20
4.2006469362
 30
0.0
 10
3.8137903053
 20
4.1993721851
 30
0.0
 10
3.8113383848
 20
4.1977731848
 30
0.0
 10
3.809703117
 20
4.1958947575
 30
0.0
 10
3.8092815831
 20
4.1944087465
 30
0.0
 10
3.8092815831
 20
4.1937292514
 30
0.0
 11
3.8442815831
 21
4.1937292514
 31
0.0
 11
3.8437730649
 21
4.1957032907
 31
0.0
 11
3.8422770635
 21
4.197562606
 31
0.0
 11
3.8398805212
 21
4.1991991406
 31
0.0
 11
3.8367227161
 21
4.2005177852
 31
0.0
 11
3.8329871686
 21
4.2014419049
 31
0.0
 11
3.828890975
 21
4.2019177932
 31
0.0
 11
3.8246721912
 21
4.2019177932
 31
0.0
 11
3.8205759975
 21
4.2014419049
 31
0.0
 11
3.81684045
 21
4.2005177852
 31
0.0
 11
3.813682645
 21
4.1991991406
 31
0.0
 11
3.8112861026
 21
4.197562606
 31
0.0
 11
3.8097901013
 21
4.1957032907
 31
0.0
 11
3.8092815831
 21
4.1937292514
 31
0.0
  0
SPLINE
  5
4E1
100
AcDbEntity
  8
0
100
AcDbSpline
 62
7
  6
CONTINUOUS
 70
0
 71
3
 72
15
 73
11
 74
9
 42
0.0000001
 43
0.0000001
 44
0.0000000001
 12
0.0
 22
0.1099409465
 32
0.0
 13
-0.0
 23
-0.1099409465
 33
0.0
 40
0.0
 40
0.0
 40
0.0
 40
0.0
 40
0.125
 40
0.25
 40
0.375
 40
0.5
 40
0.625
 40
0.75
 40
0.875
 40
1.0
 40
1.0
 40
1.0
 40
1.0
 10
7.3627815831
 20
4.4406056826
 30
0.0
 10
7.3627815831
 20
4.4451865554
 30
0.0
 10
7.3609591986
 20
4.4543483009
 30
0.0
 10
7.3531746306
 20
4.4659987302
 30
0.0
 10
7.3415242014
 20
4.4737832981
 30
0.0
 10
7.3277815831
 20
4.4765168748
 30
0.0
 10
7.3140389647
 20
4.4737832981
 30
0.0
 10
7.3023885355
 20
4.4659987302
 30
0.0
 10
7.2946039676
 20
4.4543483009
 30
0.0
 10
7.2927815831
 20
4.4451865554
 30
0.0
 10
7.2927815831
 20
4.4406056826
 30
0.0
 11
7.3627815831
 21
4.4406056826
 31
0.0
 11
7.3601173667
 21
4.4539996027
 31
0.0
 11
7.3525303204
 21
4.4653544199
 31
0.0
 11
7.3411755032
 21
4.4729414662
 31
0.0
 11
7.3277815831
 21
4.4756056826
 31
0.0
 11
7.3143876629
 21
4.4729414662
 31
0.0
 11
7.3030328457
 21
4.4653544199
 31
0.0
 11
7.2954457994
 21
4.4539996027
 31
0.0
 11
7.2927815831
 21
4.4406056826
 31
0.0
  0
SPLINE
  5
4E2
100
AcDbEntity
  8
0
100
AcDbSpline
 62
7
  6
CONTINUOUS
 70
0
 71
3
 72
15
 73
11
 74
9
 42
0.0000001
 43
0.0000001
 44
0.0000000001
 12
0.0
 22
-0.1099409465
 32
0.0
 13
-0.0
 23
0.1099409465
 33
0.0
 40
0.0
 40
0.0
 40
0.0
 40
0.0
 40
0.125
 40
0.25
 40
0.375
 40
0.5
 40
0.625
 40
0.75
 40
0.875
 40
1.0
 40
1.0
 40
1.0
 40
1.0
 10
7.3627815831
 20
3.7946056826
 30
0.0
 10
7.3627815831
 20
3.7900248098
 30
0.0
 10
7.3609591986
 20
3.7808630643
 30
0.0
 10
7.3531746306
 20
3.769212635
 30
0.0
 10
7.3415242014
 20
3.7614280671
 30
0.0
 10
7.3277815831
 20
3.7586944903
 30
0.0
 10
7.3140389647
 20
3.7614280671
 30
0.0
 10
7.3023885355
 20
3.769212635
 30
0.0
 10
7.2946039676
 20
3.7808630643
 30
0.0
 10
7.2927815831
 20
3.7900248098
 30
0.0
 10
7.2927815831
 20
3.7946056826
 30
0.0
 11
7.3627815831
 21
3.7946056826
 31
0.0
 11
7.3601173667
 21
3.7812117625
 31
0.0
 11
7.3525303204
 21
3.7698569453
 31
0.0
 11
7.3411755032
 21
3.762269899
 31
0.0
 11
7.3277815831
 21
3.7596056826
 31
0.0
 11
7.3143876629
 21
3.762269899
 31
0.0
 11
7.3030328457
 21
3.7698569453
 31
0.0
 11
7.2954457994
 21
3.7812117625
 31
0.0
 11
7.2927815831
 21
3.7946056826
 31
0.0
  0
SPLINE
  5
4E3
100
AcDbEntity
  8
0
100
AcDbSpline
 62
7
  6
CONTINUOUS
 70
0
 71
3
 72
15
 73
11
 74
9
 42
0.0000001
 43
0.0000001
 44
0.0000000001
 12
0.0
 22
0.1099409465
 32
0.0
 13
0.0
 23
-0.1099409465
 33
0.0
 40
0.0
 40
0.0
 40
0.0
 40
0.0
 40
0.125
 40
0.25
 40
0.375
 40
0.5
 40
0.625
 40
0.75
 40
0.875
 40
1.0
 40
1.0
 40
1.0
 40
1.0
 10
5.6027815831
 20
4.5266056826
 30
0.0
 10
5.6027815831
 20
4.5311865554
 30
0.0
 10
5.6009591986
 20
4.5403483009
 30
0.0
 10
5.5931746306
 20
4.5519987302
 30
0.0
 10
5.5815242014
 20
4.5597832981
 30
0.0
 10
5.5677815831
 20
4.5625168748
 30
0.0
 10
5.5540389647
 20
4.5597832981
 30
0.0
 10
5.5423885355
 20
4.5519987302
 30
0.0
 10
5.5346039676
 20
4.5403483009
 30
0.0
 10
5.5327815831
 20
4.5311865554
 30
0.0
 10
5.5327815831
 20
4.5266056826
 30
0.0
 11
5.6027815831
 21
4.5266056826
 31
0.0
 11
5.6001173667
 21
4.5399996027
 31
0.0
 11
5.5925303204
 21
4.5513544199
 31
0.0
 11
5.5811755032
 21
4.5589414662
 31
0.0
 11
5.5677815831
 21
4.5616056826
 31
0.0
 11
5.5543876629
 21
4.5589414662
 31
0.0
 11
5.5430328457
 21
4.5513544199
 31
0.0
 11
5.5354457994
 21
4.5399996027
 31
0.0
 11
5.5327815831
 21
4.5266056826
 31
0.0
  0
SPLINE
  5
4E4
100
AcDbEntity
  8
0
100
AcDbSpline
 62
7
  6
CONTINUOUS
 70
0
 71
3
 72
15
 73
11
 74
9
 42
0.0000001
 43
0.0000001
 44
0.0000000001
 12
0.0
 22
-0.1099409465
 32
0.0
 13
0.0
 23
0.1099409465
 33
0.0
 40
0.0
 40
0.0
 40
0.0
 40
0.0
 40
0.125
 40
0.25
 40
0.375
 40
0.5
 40
0.625
 40
0.75
 40
0.875
 40
1.0
 40
1.0
 40
1.0
 40
1.0
 10
5.6027815831
 20
3.7086056826
 30
0.0
 10
5.6027815831
 20
3.7040248098
 30
0.0
 10
5.6009591986
 20
3.6948630643
 30
0.0
 10
5.5931746306
 20
3.683212635
 30
0.0
 10
5.5815242014
 20
3.6754280671
 30
0.0
 10
5.5677815831
 20
3.6726944903
 30
0.0
 10
5.5540389647
 20
3.6754280671
 30
0.0
 10
5.5423885355
 20
3.683212635
 30
0.0
 10
5.5346039676
 20
3.6948630643
 30
0.0
 10
5.5327815831
 20
3.7040248098
 30
0.0
 10
5.5327815831
 20
3.7086056826
 30
0.0
 11
5.6027815831
 21
3.7086056826
 31
0.0
 11
5.6001173667
 21
3.6952117625
 31
0.0
 11
5.5925303204
 21
3.6838569453
 31
0.0
 11
5.5811755032
 21
3.676269899
 31
0.0
 11
5.5677815831
 21
3.6736056826
 31
0.0
 11
5.5543876629
 21
3.676269899
 31
0.0
 11
5.5430328457
 21
3.6838569453
 31
0.0
 11
5.5354457994
 21
3.6952117625
 31
0.0
 11
5.5327815831
 21
3.7086056826
 31
0.0
  0
SPLINE
  5
4E5
100
AcDbEntity
  8
0
100
AcDbSpline
 62
7
  6
CONTINUOUS
 70
0
 71
3
 72
15
 73
11
 74
9
 42
0.0000001
 43
0.0000001
 44
0.0000000001
 12
0.0
 22
0.1099409465
 32
0.0
 13
0.0
 23
-0.1099409465
 33
0.0
 40
0.0
 40
0.0
 40
0.0
 40
0.0
 40
0.125
 40
0.25
 40
0.375
 40
0.5
 40
0.625
 40
0.75
 40
0.875
 40
1.0
 40
1.0
 40
1.0
 40
1.0
 10
6.1937815831
 20
4.5266056826
 30
0.0
 10
6.1937815831
 20
4.5311865554
 30
0.0
 10
6.1919591986
 20
4.5403483009
 30
0.0
 10
6.1841746306
 20
4.5519987302
 30
0.0
 10
6.1725242014
 20
4.5597832981
 30
0.0
 10
6.1587815831
 20
4.5625168748
 30
0.0
 10
6.1450389647
 20
4.5597832981
 30
0.0
 10
6.1333885355
 20
4.5519987302
 30
0.0
 10
6.1256039676
 20
4.5403483009
 30
0.0
 10
6.1237815831
 20
4.5311865554
 30
0.0
 10
6.1237815831
 20
4.5266056826
 30
0.0
 11
6.1937815831
 21
4.5266056826
 31
0.0
 11
6.1911173667
 21
4.5399996027
 31
0.0
 11
6.1835303204
 21
4.5513544199
 31
0.0
 11
6.1721755032
 21
4.5589414662
 31
0.0
 11
6.1587815831
 21
4.5616056826
 31
0.0
 11
6.1453876629
 21
4.5589414662
 31
0.0
 11
6.1340328457
 21
4.5513544199
 31
0.0
 11
6.1264457994
 21
4.5399996027
 31
0.0
 11
6.1237815831
 21
4.5266056826
 31
0.0
  0
SPLINE
  5
4E6
100
AcDbEntity
  8
0
100
AcDbSpline
 62
7
  6
CONTINUOUS
 70
0
 71
3
 72
15
 73
11
 74
9
 42
0.0000001
 43
0.0000001
 44
0.0000000001
 12
0.0
 22
-0.1099409465
 32
0.0
 13
0.0
 23
0.1099409465
 33
0.0
 40
0.0
 40
0.0
 40
0.0
 40
0.0
 40
0.125
 40
0.25
 40
0.375
 40
0.5
 40
0.625
 40
0.75
 40
0.875
 40
1.0
 40
1.0
 40
1.0
 40
1.0
 10
6.1937815831
 20
3.7086056826
 30
0.0
 10
6.1937815831
 20
3.7040248098
 30
0.0
 10
6.1919591986
 20
3.6948630643
 30
0.0
 10
6.1841746306
 20
3.683212635
 30
0.0
 10
6.1725242014
 20
3.6754280671
 30
0.0
 10
6.1587815831
 20
3.6726944903
 30
0.0
 10
6.1450389647
 20
3.6754280671
 30
0.0
 10
6.1333885355
 20
3.683212635
 30
0.0
 10
6.1256039676
 20
3.6948630643
 30
0.0
 10
6.1237815831
 20
3.7040248098
 30
0.0
 10
6.1237815831
 20
3.7086056826
 30
0.0
 11
6.1937815831
 21
3.7086056826
 31
0.0
 11
6.1911173667
 21
3.6952117625
 31
0.0
 11
6.1835303204
 21
3.6838569453
 31
0.0
 11
6.1721755032
 21
3.676269899
 31
0.0
 11
6.1587815831
 21
3.6736056826
 31
0.0
 11
6.1453876629
 21
3.676269899
 31
0.0
 11
6.1340328457
 21
3.6838569453
 31
0.0
 11
6.1264457994
 21
3.6952117625
 31
0.0
 11
6.1237815831
 21
3.7086056826
 31
0.0
  0
SPLINE
  5
4E7
100
AcDbEntity
  8
0
100
AcDbSpline
 62
7
  6
CONTINUOUS
 70
0
 71
3
 72
16
 73
12
 74
10
 42
0.0000001
 43
0.0000001
 44
0.0000000001
 12
0.0906480335
 22
0.2719441006
 32
0.0
 13
-0.0906480335
 23
0.2719441006
 33
0.0
 40
0.0
 40
0.0
 40
0.0
 40
0.0
 40
0.1184548733
 40
0.230565332
 40
0.3393089466
 40
0.4465959239
 40
0.5535015371
 40
0.6607803311
 40
0.769505023
 40
0.8815660643
 40
1.0
 40
1.0
 40
1.0
 40
1.0
 10
4.3279101727
 20
3.8366056826
 30
0.0
 10
4.3314894065
 20
3.8473433839
 30
0.0
 10
4.3379204931
 20
3.8684294308
 30
0.0
 10
4.3454399228
 20
3.8999904856
 30
0.0
 10
4.3505281502
 20
3.9309593037
 30
0.0
 10
4.3531150124
 20
3.9617423733
 30
0.0
 10
4.3531138241
 20
3.9924961743
 30
0.0
 10
4.3505249835
 20
4.0232764657
 30
0.0
 10
4.3454362488
 20
4.0542377675
 30
0.0
 10
4.337917992
 20
4.0857902991
 30
0.0
 10
4.3314887738
 20
4.1068698792
 30
0.0
 10
4.3279101727
 20
4.1176056826
 30
0.0
 11
4.3279101727
 21
3.8366056826
 31
0.0
 11
4.3377486423
 21
3.8691047105
 31
0.0
 11
4.3451358128
 21
3.9003811009
 31
0.0
 11
4.3501404302
 21
3.9311485534
 31
0.0
 11
4.3526873955
 21
3.9617971746
 31
0.0
 11
4.3526862253
 21
3.9924421231
 31
0.0
 11
4.3501372852
 21
4.0230882262
 31
0.0
 11
4.3451318462
 21
4.0538500494
 31
0.0
 11
4.3377470747
 21
4.085112451
 31
0.0
 11
4.3279101727
 21
4.1176056826
 31
0.0
  0
SPLINE
  5
4E8
100
AcDbEntity
  8
0
100
AcDbSpline
 62
7
  6
CONTINUOUS
 70
0
 71
3
 72
17
 73
13
 74
11
 42
0.0000001
 43
0.0000001
 44
0.0000000001
 12
-0.1487434696
 22
0.2576312467
 32
0.0
 13
0.1487434696
 23
0.2576312467
 33
0.0
 40
0.0
 40
0.0
 40
0.0
 40
0.0
 40
0.1169386465
 40
0.2216811606
 40
0.3184580982
 40
0.4103908543
 40
0.5000417254
 40
0.5896883004
 40
0.6816074548
 40
0.7783545182
 40
0.8830694657
 40
1.0
 40
1.0
 40
1.0
 40
1.0
 10
4.2262524343
 20
3.8366056826
 30
0.0
 10
4.220454481
 20
3.8466480324
 30
0.0
 10
4.2101146534
 20
3.8660778798
 30
0.0
 10
4.19774103
 20
3.8951799574
 30
0.0
 10
4.1890875833
 20
3.9230215201
 30
0.0
 10
4.1839304787
 20
3.9502048397
 30
0.0
 10
4.1822135983
 20
3.9771177246
 30
0.0
 10
4.183933484
 20
4.0040290494
 30
0.0
 10
4.1890922356
 20
4.03120719
 30
0.0
 10
4.1977450874
 20
4.059041496
 30
0.0
 10
4.2101166748
 20
4.0881373357
 30
0.0
 10
4.2204548832
 20
4.1075640295
 30
0.0
 10
4.2262524343
 20
4.1176056826
 30
0.0
 11
4.2262524343
 21
3.8366056826
 31
0.0
 11
4.2100262029
 21
3.8673773396
 31
0.0
 11
4.1979414464
 21
3.8960979762
 31
0.0
 11
4.1894887731
 21
3.9236190448
 31
0.0
 11
4.1844558878
 21
3.95050076
 31
0.0
 11
4.1827815834
 21
3.9771181161
 31
0.0
 11
4.1844588257
 21
4.0037340066
 31
0.0
 11
4.1894934724
 21
4.0306112753
 31
0.0
 11
4.1979450874
 21
4.0581233719
 31
0.0
 11
4.2100272386
 21
4.0868362076
 31
0.0
 11
4.2262524343
 21
4.1176056826
 31
0.0
  0
SPLINE
  5
4E9
100
AcDbEntity
  8
0
100
AcDbSpline
 62
7
  6
CONTINUOUS
 70
0
 71
3
 72
16
 73
12
 74
10
 42
0.0000001
 43
0.0000001
 44
0.0000000001
 12
0.0906480335
 22
0.2719441006
 32
0.0
 13
-0.0906480335
 23
0.2719441006
 33
0.0
 40
0.0
 40
0.0
 40
0.0
 40
0.0
 40
0.1184548733
 40
0.230565332
 40
0.3393089466
 40
0.4465959239
 40
0.5535015371
 40
0.6607803311
 40
0.769505023
 40
0.8815660643
 40
1.0
 40
1.0
 40
1.0
 40
1.0
 10
4.3279101727
 20
4.1176056826
 30
0.0
 10
4.3314894065
 20
4.1283433839
 30
0.0
 10
4.3379204931
 20
4.1494294308
 30
0.0
 10
4.3454399228
 20
4.1809904856
 30
0.0
 10
4.3505281502
 20
4.2119593037
 30
0.0
 10
4.3531150124
 20
4.2427423733
 30
0.0
 10
4.3531138241
 20
4.2734961743
 30
0.0
 10
4.3505249835
 20
4.3042764657
 30
0.0
 10
4.3454362488
 20
4.3352377675
 30
0.0
 10
4.337917992
 20
4.3667902991
 30
0.0
 10
4.3314887738
 20
4.3878698792
 30
0.0
 10
4.3279101727
 20
4.3986056826
 30
0.0
 11
4.3279101727
 21
4.1176056826
 31
0.0
 11
4.3377486423
 21
4.1501047105
 31
0.0
 11
4.3451358128
 21
4.1813811009
 31
0.0
 11
4.3501404302
 21
4.2121485534
 31
0.0
 11
4.3526873955
 21
4.2427971746
 31
0.0
 11
4.3526862253
 21
4.2734421231
 31
0.0
 11
4.3501372852
 21
4.3040882262
 31
0.0
 11
4.3451318462
 21
4.3348500494
 31
0.0
 11
4.3377470747
 21
4.366112451
 31
0.0
 11
4.3279101727
 21
4.3986056826
 31
0.0
  0
SPLINE
  5
4EA
100
AcDbEntity
  8
0
100
AcDbSpline
 62
7
  6
CONTINUOUS
 70
0
 71
3
 72
17
 73
13
 74
11
 42
0.0000001
 43
0.0000001
 44
0.0000000001
 12
-0.1487434696
 22
0.2576312467
 32
0.0
 13
0.1487434696
 23
0.2576312467
 33
0.0
 40
0.0
 40
0.0
 40
0.0
 40
0.0
 40
0.1169386465
 40
0.2216811606
 40
0.3184580982
 40
0.4103908543
 40
0.5000417254
 40
0.5896883004
 40
0.6816074548
 40
0.7783545182
 40
0.8830694657
 40
1.0
 40
1.0
 40
1.0
 40
1.0
 10
4.2262524343
 20
4.1176056826
 30
0.0
 10
4.220454481
 20
4.1276480324
 30
0.0
 10
4.2101146534
 20
4.1470778798
 30
0.0
 10
4.19774103
 20
4.1761799574
 30
0.0
 10
4.1890875833
 20
4.2040215201
 30
0.0
 10
4.1839304787
 20
4.2312048397
 30
0.0
 10
4.1822135983
 20
4.2581177246
 30
0.0
 10
4.183933484
 20
4.2850290494
 30
0.0
 10
4.1890922356
 20
4.31220719
 30
0.0
 10
4.1977450874
 20
4.340041496
 30
0.0
 10
4.2101166748
 20
4.3691373357
 30
0.0
 10
4.2204548832
 20
4.3885640295
 30
0.0
 10
4.2262524343
 20
4.3986056826
 30
0.0
 11
4.2262524343
 21
4.1176056826
 31
0.0
 11
4.2100262029
 21
4.1483773396
 31
0.0
 11
4.1979414464
 21
4.1770979762
 31
0.0
 11
4.1894887731
 21
4.2046190448
 31
0.0
 11
4.1844558878
 21
4.23150076
 31
0.0
 11
4.1827815834
 21
4.2581181161
 31
0.0
 11
4.1844588257
 21
4.2847340066
 31
0.0
 11
4.1894934724
 21
4.3116112753
 31
0.0
 11
4.1979450874
 21
4.3391233719
 31
0.0
 11
4.2100272386
 21
4.3678362076
 31
0.0
 11
4.2262524343
 21
4.3986056826
 31
0.0
  0
SPLINE
  5
4EB
100
AcDbEntity
  8
0
100
AcDbSpline
 62
7
  6
CONTINUOUS
 70
0
 71
3
 72
14
 73
10
 74
8
 42
0.0000001
 43
0.0000001
 44
0.0000000001
 12
-0.0756798031
 22
0.0
 32
0.0
 13
0.0000430686
 23
-0.0759682058
 33
0.0
 40
0.0
 40
0.0
 40
0.0
 40
0.0
 40
0.1597772872
 40
0.3181135913
 40
0.4725872007
 40
0.6200554513
 40
0.7574448074
 40
0.8834901399
 40
1.0
 40
1.0
 40
1.0
 40
1.0
 10
7.0997815831
 20
3.9619398225
 30
0.0
 10
7.0957509452
 20
3.9619398225
 30
0.0
 10
7.0877053566
 20
3.9611819436
 30
0.0
 10
7.0761913696
 20
3.9578357653
 30
0.0
 10
7.0657950817
 20
3.9525002491
 30
0.0
 10
7.0570662483
 20
3.9455457497
 30
0.0
 10
7.0504569348
 20
3.937446696
 30
0.0
 10
7.0462937974
 20
3.9286949123
 30
0.0
 10
7.0452799154
 20
3.9225662024
 30
0.0
 10
7.045281588
 20
3.9196158541
 30
0.0
 11
7.0997815831
 21
3.9619398225
 31
0.0
 11
7.0877433707
 21
3.9608014827
 31
0.0
 11
7.07623966
 21
3.9574468468
 31
0.0
 11
7.0658516924
 21
3.9520841351
 31
0.0
 11
7.0571548479
 21
3.9450899437
 31
0.0
 11
7.0506418769
 21
3.9369849278
 31
0.0
 11
7.0466332246
 21
3.9283290126
 31
0.0
 11
7.045281588
 21
3.9196158541
 31
0.0
  0
SPLINE
  5
4EC
100
AcDbEntity
  8
0
100
AcDbSpline
 62
7
  6
CONTINUOUS
 70
0
 71
3
 72
14
 73
10
 74
8
 42
0.0000001
 43
0.0000001
 44
0.0000000001
 12
0.0756798035
 22
0.0
 32
0.0
 13
-0.0000430735
 23
0.0759682059
 33
0.0
 40
0.0
 40
0.0
 40
0.0
 40
0.0
 40
0.1597786831
 40
0.3181170899
 40
0.4725918032
 40
0.6200583893
 40
0.7574472053
 40
0.8834914924
 40
1.0
 40
1.0
 40
1.0
 40
1.0
 10
7.0997815831
 20
4.2732715427
 30
0.0
 10
7.1038122562
 20
4.2732715427
 30
0.0
 10
7.1118579336
 20
4.2740294366
 30
0.0
 10
7.1233720248
 20
4.2773756817
 30
0.0
 10
7.133768322
 20
4.2827112695
 30
0.0
 10
7.1424970952
 20
4.289665797
 30
0.0
 10
7.1491063209
 20
4.2977648159
 30
0.0
 10
7.1532693908
 20
4.3065165482
 30
0.0
 10
7.1542832509
 20
4.3126451963
 30
0.0
 10
7.154281578
 20
4.3155955104
 30
0.0
 11
7.0997815831
 21
4.2732715427
 31
0.0
 11
7.1118198998
 21
4.2744099024
 31
0.0
 11
7.1233237533
 21
4.277764617
 31
0.0
 11
7.1337117674
 21
4.2831274208
 31
0.0
 11
7.1424084767
 21
4.2901215794
 31
0.0
 11
7.1489213861
 21
4.2982265924
 31
0.0
 11
7.1529299719
 21
4.3068824513
 31
0.0
 11
7.154281578
 21
4.3155955104
 31
0.0
  0
SPLINE
  5
4ED
100
AcDbEntity
  8
0
100
AcDbSpline
 62
7
  6
CONTINUOUS
 70
0
 71
3
 72
14
 73
10
 74
8
 42
0.0000001
 43
0.0000001
 44
0.0000000001
 12
0.0000430457
 22
0.0759682023
 32
0.0
 13
-0.0756798018
 23
-0.0
 33
0.0
 40
0.0
 40
0.0
 40
0.0
 40
0.0
 40
0.1165146604
 40
0.2425632927
 40
0.3799544018
 40
0.5274235082
 40
0.6818960828
 40
0.8402271767
 40
1.0
 40
1.0
 40
1.0
 40
1.0
 10
7.1542815783
 20
3.919615851
 30
0.0
 10
7.1542832501
 20
3.9225663208
 30
0.0
 10
7.1532692923
 20
3.9286952409
 30
0.0
 10
7.1491059256
 20
3.9374471942
 30
0.0
 10
7.1424963973
 20
3.9455462667
 30
0.0
 10
7.1337674334
 20
3.9525006651
 30
0.0
 10
7.1233712003
 20
3.9578359845
 30
0.0
 10
7.111857451
 20
3.961181988
 30
0.0
 10
7.1038121083
 20
3.9619398225
 30
0.0
 10
7.0997815831
 20
3.9619398225
 30
0.0
 11
7.1542815783
 21
3.919615851
 31
0.0
 11
7.1529298337
 21
3.928329363
 31
0.0
 11
7.1489209616
 21
3.9369854515
 31
0.0
 11
7.1424077865
 21
3.9450904733
 31
0.0
 11
7.1337107901
 21
3.9520845789
 31
0.0
 11
7.1233228227
 21
3.9574471196
 31
0.0
 11
7.111819462
 21
3.9608015464
 31
0.0
 11
7.0997815831
 21
3.9619398225
 31
0.0
  0
SPLINE
  5
4EE
100
AcDbEntity
  8
0
100
AcDbSpline
 62
7
  6
CONTINUOUS
 70
0
 71
3
 72
10
 73
6
 74
4
 42
0.0000001
 43
0.0000001
 44
0.0000000001
 12
0.0212176691
 22
-0.0062609699
 32
0.0
 13
0.0220940628
 23
-0.0010055922
 33
0.0
 40
0.0
 40
0.0
 40
0.0
 40
0.0
 40
0.270719642
 40
0.7415939113
 40
1.0
 40
1.0
 40
1.0
 40
1.0
 10
7.0729815805
 20
3.9556371684
 30
0.0
 10
7.0748962605
 20
3.9550721793
 30
0.0
 10
7.0802064732
 20
3.9537452821
 30
0.0
 10
7.0875072309
 20
3.952648371
 30
0.0
 10
7.092872489
 20
3.9522622662
 30
0.0
 10
7.0947755691
 20
3.9521756491
 30
0.0
 11
7.0729815805
 21
3.9556371684
 31
0.0
 11
7.0787871153
 21
3.9541718303
 31
0.0
 11
7.0890754849
 21
3.9525878424
 31
0.0
 11
7.0947755691
 21
3.9521756491
 31
0.0
  0
SPLINE
  5
4EF
100
AcDbEntity
  8
0
100
AcDbSpline
 62
7
  6
CONTINUOUS
 70
0
 71
3
 72
8
 73
4
 74
2
 42
0.0000001
 43
0.0000001
 44
0.0000000001
 12
0.0050035003
 22
-0.00022773
 32
0.0
 13
0.005006417
 23
0.0
 33
0.0
 40
0.0
 40
0.0
 40
0.0
 40
0.0
 40
1.0
 40
1.0
 40
1.0
 40
1.0
 10
7.0947755691
 20
3.9521756491
 30
0.0
 10
7.0964434026
 20
3.9520997391
 30
0.0
 10
7.0981127774
 20
3.9520623789
 30
0.0
 10
7.0997815831
 20
3.9520623789
 30
0.0
 11
7.0947755691
 21
3.9521756491
 31
0.0
 11
7.0997815831
 21
3.9520623789
 31
0.0
  0
SPLINE
  5
4F0
100
AcDbEntity
  8
0
100
AcDbSpline
 62
7
  6
CONTINUOUS
 70
0
 71
3
 72
9
 73
5
 74
3
 42
0.0000001
 43
0.0000001
 44
0.0000000001
 12
-0.0076790693
 22
0.0022659887
 32
0.0
 13
-0.0078654774
 23
0.0014863885
 33
0.0
 40
0.0
 40
0.0
 40
0.0
 40
0.0
 40
0.7486582873
 40
1.0
 40
1.0
 40
1.0
 40
1.0
 10
7.1265817788
 20
4.2795741385
 30
0.0
 10
7.1246654458
 20
4.2801396222
 30
0.0
 10
7.122073887
 20
4.2807871017
 30
0.0
 10
7.1194575711
 20
4.2813123084
 30
0.0
 10
7.1187985969
 20
4.2814368389
 30
0.0
 11
7.1265817788
 21
4.2795741385
 31
0.0
 11
7.1207711858
 21
4.2810405714
 31
0.0
 11
7.1187985969
 21
4.2814368389
 31
0.0
  0
SPLINE
  5
4F1
100
AcDbEntity
  8
0
100
AcDbSpline
 62
7
  6
CONTINUOUS
 70
0
 71
3
 72
9
 73
5
 74
3
 42
0.0000001
 43
0.0000001
 44
0.0000000001
 12
-0.0187890831
 22
0.0035506906
 32
0.0
 13
-0.0191126427
 23
0.0
 33
0.0
 40
0.0
 40
0.0
 40
0.0
 40
0.0
 40
0.4392986449
 40
1.0
 40
1.0
 40
1.0
 40
1.0
 10
7.1187985969
 20
4.2814368389
 30
0.0
 10
7.1160472574
 20
4.2819567767
 30
0.0
 10
7.1097292754
 20
4.2828436839
 30
0.0
 10
7.1033537446
 20
4.2831489863
 30
0.0
 10
7.0997815831
 20
4.2831489863
 30
0.0
 11
7.1187985969
 21
4.2814368389
 31
0.0
 11
7.1104851896
 21
4.2826237709
 31
0.0
 11
7.0997815831
 21
4.2831489863
 31
0.0
  0
SPLINE
  5
4F2
100
AcDbEntity
  8
0
100
AcDbSpline
 62
7
  6
CONTINUOUS
 70
0
 71
3
 72
14
 73
10
 74
8
 42
0.0000001
 43
0.0000001
 44
0.0000000001
 12
-0.0000430526
 22
-0.0759682034
 32
0.0
 13
0.0756798023
 23
0.0
 33
0.0
 40
0.0
 40
0.0
 40
0.0
 40
0.0
 40
0.1165130696
 40
0.2425606285
 40
0.3799513001
 40
0.5274190171
 40
0.6818925249
 40
0.8402257913
 40
1.0
 40
1.0
 40
1.0
 40
1.0
 10
7.0452815879
 20
4.3155955133
 30
0.0
 10
7.0452799158
 20
4.3126450838
 30
0.0
 10
7.0462938486
 20
4.3065162326
 30
0.0
 10
7.0504571413
 20
4.2977643319
 30
0.0
 10
7.0570665848
 20
4.2896652851
 30
0.0
 10
7.0657954927
 20
4.2827108548
 30
0.0
 10
7.076191739
 20
4.2773754622
 30
0.0
 10
7.0877055899
 20
4.2740293923
 30
0.0
 10
7.0957510229
 20
4.2732715427
 30
0.0
 10
7.0997815831
 20
4.2732715427
 30
0.0
 11
7.0452815879
 21
4.3155955133
 31
0.0
 11
7.0466332967
 21
4.3068821183
 31
0.0
 11
7.0506420968
 21
4.298226086
 31
0.0
 11
7.0571552122
 21
4.2901210586
 31
0.0
 11
7.0658520894
 21
4.2831269724
 31
0.0
 11
7.0762400921
 21
4.2777643459
 31
0.0
 11
7.0877436006
 21
4.2744098385
 31
0.0
 11
7.0997815831
 21
4.2732715427
 31
0.0
  0
SPLINE
  5
4F3
100
AcDbEntity
  8
0
100
AcDbSpline
 62
7
  6
CONTINUOUS
 70
0
 71
3
 72
8
 73
4
 74
2
 42
0.0000001
 43
0.0000001
 44
0.0000000001
 12
-0.0050064089
 22
0.0
 32
0.0
 13
-0.0050034893
 23
-0.0002277302
 33
0.0
 40
0.0
 40
0.0
 40
0.0
 40
0.0
 40
1.0
 40
1.0
 40
1.0
 40
1.0
 10
7.0997815831
 20
4.2831489863
 30
0.0
 10
7.0981127801
 20
4.2831489863
 30
0.0
 10
7.0964434086
 20
4.2831116256
 30
0.0
 10
7.0947755788
 20
4.2830357155
 30
0.0
 11
7.0997815831
 21
4.2831489863
 31
0.0
 11
7.0947755788
 21
4.2830357155
 31
0.0
  0
SPLINE
  5
4F4
100
AcDbEntity
  8
0
100
AcDbSpline
 62
7
  6
CONTINUOUS
 70
0
 71
3
 72
10
 73
6
 74
4
 42
0.0000001
 43
0.0000001
 44
0.0000000001
 12
-0.0220946348
 22
-0.0010056212
 32
0.0
 13
-0.0212181394
 23
-0.0062613205
 33
0.0
 40
0.0
 40
0.0
 40
0.0
 40
0.0
 40
0.257990997
 40
0.7284868107
 40
1.0
 40
1.0
 40
1.0
 40
1.0
 10
7.0947755788
 20
4.2830357155
 30
0.0
 10
7.0928755065
 20
4.2829492351
 30
0.0
 10
7.0875159401
 20
4.2825637644
 30
0.0
 10
7.0802148723
 20
4.2814677866
 30
0.0
 10
7.0749013877
 20
4.280140714
 30
0.0
 10
7.0729810528
 20
4.279574037
 30
0.0
 11
7.0947755788
 21
4.2830357155
 31
0.0
 11
7.0890844855
 21
4.2826244188
 31
0.0
 11
7.0788038904
 21
4.2810431075
 31
0.0
 11
7.0729810528
 21
4.279574037
 31
0.0
  0
SPLINE
  5
4F5
100
AcDbEntity
  8
0
100
AcDbSpline
 62
7
  6
CONTINUOUS
 70
0
 71
3
 72
9
 73
5
 74
3
 42
0.0000001
 43
0.0000001
 44
0.0000000001
 12
0.0191125954
 22
0.0
 32
0.0
 13
0.0187890372
 23
0.003550665
 33
0.0
 40
0.0
 40
0.0
 40
0.0
 40
0.0
 40
0.5604940901
 40
1.0
 40
1.0
 40
1.0
 40
1.0
 10
7.0997815831
 20
3.9520623789
 30
0.0
 10
7.1033524153
 20
3.9520623789
 30
0.0
 10
7.1097279264
 20
3.9523675694
 30
0.0
 10
7.1160459127
 20
3.9532543381
 30
0.0
 10
7.1187985437
 20
3.9537745175
 30
0.0
 11
7.0997815831
 21
3.9520623789
 31
0.0
 11
7.1104812163
 21
3.9525871987
 31
0.0
 11
7.1187985437
 21
3.9537745175
 31
0.0
  0
SPLINE
  5
4F6
100
AcDbEntity
  8
0
100
AcDbSpline
 62
7
  6
CONTINUOUS
 70
0
 71
3
 72
9
 73
5
 74
3
 42
0.0000001
 43
0.0000001
 44
0.0000000001
 12
0.0078656762
 22
0.001486419
 32
0.0
 13
0.0076792534
 23
0.0022660649
 33
0.0
 40
0.0
 40
0.0
 40
0.0
 40
0.0
 40
0.2504529101
 40
1.0
 40
1.0
 40
1.0
 40
1.0
 10
7.1187985437
 20
3.9537745175
 30
0.0
 10
7.1194552042
 20
3.9538986101
 30
0.0
 10
7.1220716061
 20
3.9544237224
 30
0.0
 10
7.124663263
 20
3.9550710948
 30
0.0
 10
7.126581917
 20
3.9556372689
 30
0.0
 11
7.1187985437
 21
3.9537745175
 31
0.0
 11
7.120764223
 21
3.9541693109
 31
0.0
 11
7.126581917
 21
3.9556372689
 31
0.0
  0
SPLINE
  5
4F7
100
AcDbEntity
  8
0
100
AcDbSpline
 62
7
  6
CONTINUOUS
 70
0
 71
3
 72
22
 73
18
 74
16
 42
0.0000001
 43
0.0000001
 44
0.0000000001
 12
-0.1076692396
 22
-0.0209570676
 32
0.0
 13
-0.1076692396
 23
0.0209570675
 33
0.0
 40
0.0
 40
0.0
 40
0.0
 40
0.0
 40
0.0110466848
 40
0.0436777342
 40
0.0963361408
 40
0.1662757182
 40
0.2508874884
 40
0.3458858561
 40
0.4480922402
 40
0.5520721278
 40
0.6542947893
 40
0.749325918
 40
0.8339073555
 40
0.903811829
 40
0.9563923393
 40
0.9889785466
 40
1.0
 40
1.0
 40
1.0
 40
1.0
 10
7.1542815831
 20
4.3976056826
 30
0.0
 10
7.1538851203
 20
4.3975285139
 30
0.0
 10
7.1523169344
 20
4.3972264811
 30
0.0
 10
7.1488529494
 20
4.3965873747
 30
0.0
 10
7.143255843
 20
4.3956440637
 30
0.0
 10
7.1357574057
 20
4.394554792
 30
0.0
 10
7.1266916564
 20
4.3935080832
 30
0.0
 10
7.1164181698
 20
4.392683452
 30
0.0
 10
7.1054121235
 20
4.3922305549
 30
0.0
 10
7.0941324161
 20
4.3922309256
 30
0.0
 10
7.0831246082
 20
4.3926846521
 30
0.0
 10
7.0728505017
 20
4.3935101326
 30
0.0
 10
7.0637860207
 20
4.3945573938
 30
0.0
 10
7.0562928386
 20
4.3956463765
 30
0.0
 10
7.0507014622
 20
4.3965889509
 30
0.0
 10
7.0472428089
 20
4.3972271349
 30
0.0
 10
7.0456771402
 20
4.3975286901
 30
0.0
 10
7.0452815831
 20
4.3976056826
 30
0.0
 11
7.1542815831
 21
4.3976056826
 31
0.0
 11
7.1530917397
 21
4.3973765224
 31
0.0
 11
7.1495718325
 21
4.3967271955
 31
0.0
 11
7.1438759981
 21
4.3957676272
 31
0.0
 11
7.1362839029
 21
4.3946655486
 31
0.0
 11
7.1270639592
 21
4.3936022008
 31
0.0
 11
7.1166769074
 21
4.3927696373
 31
0.0
 11
7.1054753437
 21
4.3923094665
 31
0.0
 11
7.0940697964
 21
4.3923098408
 31
0.0
 11
7.0828664803
 21
4.3927708525
 31
0.0
 11
7.0724759107
 21
4.3936045046
 31
0.0
 11
7.0632593532
 21
4.3946681724
 31
0.0
 11
7.0556711369
 21
4.3957701689
 31
0.0
 11
7.0499837666
 21
4.3967285454
 31
0.0
 11
7.0464687077
 21
4.3973770405
 31
0.0
 11
7.0452815831
 21
4.3976056826
 31
0.0
  0
SPLINE
  5
4F8
100
AcDbEntity
  8
0
100
AcDbSpline
 62
7
  6
CONTINUOUS
 70
0
 71
3
 72
22
 73
18
 74
16
 42
0.0000001
 43
0.0000001
 44
0.0000000001
 12
0.1076692396
 22
0.0209570676
 32
0.0
 13
0.1076692396
 23
-0.0209570675
 33
0.0
 40
0.0
 40
0.0
 40
0.0
 40
0.0
 40
0.0110466848
 40
0.0436777342
 40
0.0963361408
 40
0.1662757182
 40
0.2508874884
 40
0.3458858561
 40
0.4480922402
 40
0.5520721278
 40
0.6542947893
 40
0.749325918
 40
0.8339073555
 40
0.903811829
 40
0.9563923393
 40
0.9889785466
 40
1.0
 40
1.0
 40
1.0
 40
1.0
 10
7.0452815831
 20
3.8376056826
 30
0.0
 10
7.0456780458
 20
3.8376828513
 30
0.0
 10
7.0472462317
 20
3.8379848841
 30
0.0
 10
7.0507102167
 20
3.8386239905
 30
0.0
 10
7.0563073232
 20
3.8395673015
 30
0.0
 10
7.0638057605
 20
3.8406565731
 30
0.0
 10
7.0728715097
 20
3.841703282
 30
0.0
 10
7.0831449963
 20
3.8425279132
 30
0.0
 10
7.0941510426
 20
3.8429808103
 30
0.0
 10
7.10543075
 20
3.8429804396
 30
0.0
 10
7.1164385579
 20
3.8425267131
 30
0.0
 10
7.1267126645
 20
3.8417012325
 30
0.0
 10
7.1357771454
 20
3.8406539714
 30
0.0
 10
7.1432703275
 20
3.8395649887
 30
0.0
 10
7.148861704
 20
3.8386224143
 30
0.0
 10
7.1523203572
 20
3.8379842303
 30
0.0
 10
7.1538860259
 20
3.837682675
 30
0.0
 10
7.1542815831
 20
3.8376056826
 30
0.0
 11
7.0452815831
 21
3.8376056826
 31
0.0
 11
7.0464714264
 21
3.8378348428
 31
0.0
 11
7.0499913336
 21
3.8384841697
 31
0.0
 11
7.055687168
 21
3.839443738
 31
0.0
 11
7.0632792632
 21
3.8405458166
 31
0.0
 11
7.0724992069
 21
3.8416091644
 31
0.0
 11
7.0828862587
 21
3.8424417279
 31
0.0
 11
7.0940878224
 21
3.8429018987
 31
0.0
 11
7.1054933698
 21
3.8429015244
 31
0.0
 11
7.1166966859
 21
3.8424405127
 31
0.0
 11
7.1270872554
 21
3.8416068606
 31
0.0
 11
7.1363038129
 21
3.8405431928
 31
0.0
 11
7.1438920292
 21
3.8394411963
 31
0.0
 11
7.1495793995
 21
3.8384828198
 31
0.0
 11
7.1530944585
 21
3.8378343247
 31
0.0
 11
7.1542815831
 21
3.8376056826
 31
0.0
  0
SPLINE
  5
4F9
100
AcDbEntity
  8
0
100
AcDbSpline
 62
7
  6
CONTINUOUS
 70
0
 71
3
 72
14
 73
10
 74
8
 42
0.0000001
 43
0.0000001
 44
0.0000000001
 12
-0.0000406244
 22
0.071648678
 32
0.0
 13
-0.0713766741
 23
-0.0
 33
0.0
 40
0.0
 40
0.0
 40
0.0
 40
0.0
 40
0.1182071039
 40
0.2388029845
 40
0.3685698851
 40
0.5112464347
 40
0.6664703703
 40
0.8308969075
 40
1.0
 40
1.0
 40
1.0
 40
1.0
 10
7.154281578
 20
4.3155955104
 30
0.0
 10
7.1542799774
 20
4.318418638
 30
0.0
 10
7.1533730077
 20
4.3241337831
 30
0.0
 10
7.1491598718
 20
4.3319979397
 30
0.0
 10
7.1424159102
 20
4.3386422919
 30
0.0
 10
7.1335970459
 20
4.3438712218
 30
0.0
 10
7.1231978495
 20
4.3476137622
 30
0.0
 10
7.1117500418
 20
4.3498525798
 30
0.0
 10
7.1038049218
 20
4.3503461819
 30
0.0
 10
7.0997815831
 20
4.3503461819
 30
0.0
 11
7.154281578
 21
4.3155955104
 31
0.0
 11
7.1529354525
 21
4.3239247438
 31
0.0
 11
7.1489320031
 21
4.3315448132
 31
0.0
 11
7.1424234155
 21
4.3381348847
 31
0.0
 11
7.1337278419
 21
4.3434354813
 31
0.0
 11
7.1233347973
 21
4.3472743648
 31
0.0
 11
7.1118272449
 21
4.3495798111
 31
0.0
 11
7.0997815831
 21
4.3503461819
 31
0.0
  0
SPLINE
  5
4FA
100
AcDbEntity
  8
0
100
AcDbSpline
 62
7
  6
CONTINUOUS
 70
0
 71
3
 72
14
 73
10
 74
8
 42
0.0000001
 43
0.0000001
 44
0.0000000001
 12
-0.0713766727
 22
0.0
 32
0.0
 13
-0.0000406046
 23
-0.0716486754
 33
0.0
 40
0.0
 40
0.0
 40
0.0
 40
0.0
 40
0.169101671
 40
0.3335273421
 40
0.4887502821
 40
0.631426423
 40
0.7611932116
 40
0.8817892995
 40
1.0
 40
1.0
 40
1.0
 40
1.0
 10
7.0997815831
 20
4.3503461819
 30
0.0
 10
7.0957582782
 20
4.3503461819
 30
0.0
 10
7.0878132131
 20
4.3498525873
 30
0.0
 10
7.0763654795
 20
4.3476138025
 30
0.0
 10
7.0659663245
 20
4.3438713116
 30
0.0
 10
7.0571474662
 20
4.3386424466
 30
0.0
 10
7.0504034596
 20
4.3319981547
 30
0.0
 10
7.0461902037
 20
4.3241339619
 30
0.0
 10
7.0452831879
 20
4.3184187267
 30
0.0
 10
7.0452815879
 20
4.3155955133
 30
0.0
 11
7.0997815831
 21
4.3503461819
 31
0.0
 11
7.0877360223
 21
4.3495798241
 31
0.0
 11
7.0762285269
 21
4.3472744089
 31
0.0
 11
7.0658355372
 21
4.3434355827
 31
0.0
 11
7.0571399601
 21
4.3381350481
 31
0.0
 11
7.0506313263
 21
4.3315450339
 31
0.0
 11
7.0466277962
 21
4.3239249903
 31
0.0
 11
7.0452815879
 21
4.3155955133
 31
0.0
  0
SPLINE
  5
4FB
100
AcDbEntity
  8
0
100
AcDbSpline
 62
7
  6
CONTINUOUS
 70
0
 71
3
 72
14
 73
10
 74
8
 42
0.0000001
 43
0.0000001
 44
0.0000000001
 12
0.0000406197
 22
-0.071648678
 32
0.0
 13
0.0713766738
 23
-0.0
 33
0.0
 40
0.0
 40
0.0
 40
0.0
 40
0.0
 40
0.1182080425
 40
0.2388037891
 40
0.3685706033
 40
0.5112470139
 40
0.6664707902
 40
0.8308971346
 40
1.0
 40
1.0
 40
1.0
 40
1.0
 10
7.045281588
 20
3.9196158541
 30
0.0
 10
7.0452831886
 20
3.9167927041
 30
0.0
 10
7.0461901696
 20
3.9110775399
 30
0.0
 10
7.0504033316
 20
3.9032133784
 30
0.0
 10
7.0571472971
 20
3.8965690434
 30
0.0
 10
7.0659661581
 20
3.8913401268
 30
0.0
 10
7.0763653452
 20
3.8875975959
 30
0.0
 10
7.0878131398
 20
3.8853587841
 30
0.0
 10
7.0957582497
 20
3.8848651833
 30
0.0
 10
7.0997815831
 20
3.8848651833
 30
0.0
 11
7.045281588
 21
3.9196158541
 31
0.0
 11
7.0466277352
 21
3.911286557
 31
0.0
 11
7.0506311976
 21
3.9036665053
 31
0.0
 11
7.0571397914
 21
3.8970764487
 31
0.0
 11
7.0658353618
 21
3.891775866
 31
0.0
 11
7.0762283978
 21
3.8879369923
 31
0.0
 11
7.0877359373
 21
3.885631552
 31
0.0
 11
7.0997815831
 21
3.8848651833
 31
0.0
  0
SPLINE
  5
4FC
100
AcDbEntity
  8
0
100
AcDbSpline
 62
7
  6
CONTINUOUS
 70
0
 71
3
 72
14
 73
10
 74
8
 42
0.0000001
 43
0.0000001
 44
0.0000000001
 12
0.0713766724
 22
0.0
 32
0.0
 13
0.0000405982
 23
0.0716486745
 33
0.0
 40
0.0
 40
0.0
 40
0.0
 40
0.0
 40
0.1691014004
 40
0.3335268529
 40
0.4887496306
 40
0.6314256409
 40
0.761192309
 40
0.8817884798
 40
1.0
 40
1.0
 40
1.0
 40
1.0
 10
7.0997815831
 20
3.8848651833
 30
0.0
 10
7.1038048815
 20
3.8848651833
 30
0.0
 10
7.1117499349
 20
3.8853587764
 30
0.0
 10
7.1231976537
 20
3.8875975546
 30
0.0
 10
7.1335967992
 20
3.891340035
 30
0.0
 10
7.1424156541
 20
3.8965688854
 30
0.0
 10
7.1491596689
 20
3.903213162
 30
0.0
 10
7.1533729519
 20
3.9110773618
 30
0.0
 10
7.1542799786
 20
3.9167926181
 30
0.0
 10
7.1542815783
 20
3.919615851
 30
0.0
 11
7.0997815831
 21
3.8848651833
 31
0.0
 11
7.1118271246
 21
3.8856315386
 31
0.0
 11
7.1233346054
 21
3.8879369469
 31
0.0
 11
7.1337275866
 21
3.8917757624
 31
0.0
 11
7.1424231616
 21
3.8970762825
 31
0.0
 11
7.148931801
 21
3.903666279
 31
0.0
 11
7.1529353511
 21
3.9112863187
 31
0.0
 11
7.1542815783
 21
3.919615851
 31
0.0
  0
SPLINE
  5
4FD
100
AcDbEntity
  8
0
100
AcDbSpline
 62
7
  6
CONTINUOUS
 70
0
 71
3
 72
14
 73
10
 74
8
 42
0.0000001
 43
0.0000001
 44
0.0000000001
 12
-0.1046826132
 22
0.2029792199
 32
0.0
 13
0.1046826132
 23
0.2029792199
 33
0.0
 40
0.0
 40
0.0
 40
0.0
 40
0.0
 40
0.1530438599
 40
0.2956043717
 40
0.4324922324
 40
0.5675957362
 40
0.7044780411
 40
0.8469906498
 40
1.0
 40
1.0
 40
1.0
 40
1.0
 10
4.9238452489
 20
3.6295032101
 30
0.0
 10
4.9185049052
 20
3.6398581179
 30
0.0
 10
4.9090999118
 20
3.6603578462
 30
0.0
 10
4.8990582937
 20
3.6918133705
 30
0.0
 10
4.8939145836
 20
3.7230810393
 30
0.0
 10
4.8939162767
 20
3.7543500635
 30
0.0
 10
4.8990623572
 20
3.7856131685
 30
0.0
 10
4.9091035396
 20
3.8170616835
 30
0.0
 10
4.9185061094
 20
3.8375555822
 30
0.0
 10
4.9238452489
 20
3.8479081551
 30
0.0
 11
4.9238452489
 21
3.6295032101
 31
0.0
 11
4.9094476502
 21
3.661352851
 31
0.0
 11
4.899712778
 21
3.6924219022
 31
0.0
 11
4.8947475442
 21
3.723288016
 31
0.0
 11
4.894749175
 21
3.7541434241
 31
0.0
 11
4.8997171639
 21
3.7850078094
 31
0.0
 11
4.9094504863
 21
3.8160658815
 31
0.0
 11
4.9238452489
 21
3.8479081551
 31
0.0
  0
SPLINE
  5
4FE
100
AcDbEntity
  8
0
100
AcDbSpline
 62
7
  6
CONTINUOUS
 70
0
 71
3
 72
15
 73
11
 74
9
 42
0.0000001
 43
0.0000001
 44
0.0000000001
 12
0.1643031241
 22
0.1839340856
 32
0.0
 13
-0.1643031241
 23
0.1839340856
 33
0.0
 40
0.0
 40
0.0
 40
0.0
 40
0.0
 40
0.1498215377
 40
0.2783315905
 40
0.3927788038
 40
0.5000592815
 40
0.6073304266
 40
0.7217569014
 40
0.8502022558
 40
1.0
 40
1.0
 40
1.0
 40
1.0
 10
5.2972815831
 20
3.6295032101
 30
0.0
 10
5.3054869653
 20
3.6386889726
 30
0.0
 10
5.3199187448
 20
3.6565319312
 30
0.0
 10
5.3365164735
 20
3.6843903453
 30
0.0
 10
5.3465015805
 20
3.7116174193
 30
0.0
 10
5.3498626036
 20
3.738719775
 30
0.0
 10
5.3464948299
 20
3.7658194388
 30
0.0
 10
5.3365077126
 20
3.7930372154
 30
0.0
 10
5.3199129831
 20
3.8208866758
 30
0.0
 10
5.3054856622
 20
3.8387238514
 30
0.0
 10
5.2972815831
 20
3.8479081551
 30
0.0
 11
5.2972815831
 21
3.6295032101
 31
0.0
 11
5.3202500568
 21
3.6584481231
 31
0.0
 11
5.3361762417
 21
3.6858508381
 31
0.0
 11
5.3456252391
 21
3.7124486195
 31
0.0
 11
5.3487655481
 21
3.7387203834
 31
0.0
 11
5.3456189599
 21
3.7649890779
 31
0.0
 11
5.3361669277
 21
3.7915803527
 31
0.0
 11
5.3202467202
 21
3.8189680857
 31
0.0
 11
5.2972815831
 21
3.8479081551
 31
0.0
  0
SPLINE
  5
4FF
100
AcDbEntity
  8
0
100
AcDbSpline
 62
7
  6
CONTINUOUS
 70
0
 71
3
 72
14
 73
10
 74
8
 42
0.0000001
 43
0.0000001
 44
0.0000000001
 12
-0.1103507163
 22
0.4279393037
 32
0.0
 13
0.1103507163
 23
0.4279393037
 33
0.0
 40
0.0
 40
0.0
 40
0.0
 40
0.0
 40
0.1477720816
 40
0.2900907235
 40
0.430227046
 40
0.569863817
 40
0.7099928421
 40
0.8522618536
 40
1.0
 40
1.0
 40
1.0
 40
1.0
 10
4.9238452489
 20
3.8992007376
 30
0.0
 10
4.9184096639
 20
3.9202798982
 30
0.0
 10
4.9088943118
 20
3.9619739371
 30
0.0
 10
4.8989672284
 20
4.0246225761
 30
0.0
 10
4.8939126856
 20
4.086662011
 30
0.0
 10
4.8939143443
 20
4.148588472
 30
0.0
 10
4.8989712622
 20
4.2106192784
 30
0.0
 10
4.9088980376
 20
4.2732543538
 30
0.0
 10
4.9184109122
 20
4.3149363078
 30
0.0
 10
4.9238452489
 20
4.3360106276
 30
0.0
 11
4.9238452489
 21
3.8992007376
 31
0.0
 11
4.9094476502
 21
3.9629000194
 31
0.0
 11
4.899712778
 21
4.0250381218
 31
0.0
 11
4.8947475442
 21
4.0867703495
 31
0.0
 11
4.894749175
 21
4.1484811657
 31
0.0
 11
4.8997171639
 21
4.2102099363
 31
0.0
 11
4.9094504863
 21
4.2723260803
 31
0.0
 11
4.9238452489
 21
4.3360106276
 31
0.0
  0
SPLINE
  5
500
100
AcDbEntity
  8
0
100
AcDbSpline
 62
7
  6
CONTINUOUS
 70
0
 71
3
 72
15
 73
11
 74
9
 42
0.0000001
 43
0.0000001
 44
0.0000000001
 12
0.1843202379
 22
0.4126856942
 32
0.0
 13
-0.1843202379
 23
0.4126856942
 33
0.0
 40
0.0
 40
0.0
 40
0.0
 40
0.0
 40
0.1377942686
 40
0.2640673782
 40
0.3836049145
 40
0.5000649493
 40
0.6165122554
 40
0.736022619
 40
0.8622283762
 40
1.0
 40
1.0
 40
1.0
 40
1.0
 10
5.2972815831
 20
3.8992007376
 30
0.0
 10
5.3057476739
 20
3.9181559787
 30
0.0
 10
5.3205792166
 20
3.9551369176
 30
0.0
 10
5.3369163318
 20
4.0106731987
 30
0.0
 10
5.3466095013
 20
4.064503938
 30
0.0
 10
5.3498311578
 20
4.1176332409
 30
0.0
 10
5.3466029677
 20
4.1707579915
 30
0.0
 10
5.3369074461
 20
4.2245717741
 30
0.0
 10
5.3205729967
 20
4.2800902693
 30
0.0
 10
5.3057462826
 20
4.3170585015
 30
0.0
 10
5.2972815831
 20
4.3360106276
 30
0.0
 11
5.2972815831
 21
3.8992007376
 31
0.0
 11
5.3202500568
 21
3.9570905636
 31
0.0
 11
5.3361762417
 21
4.0118959937
 31
0.0
 11
5.3456252391
 21
4.0650915563
 31
0.0
 11
5.3487655481
 21
4.1176350843
 31
0.0
 11
5.3456189599
 21
4.1701724732
 31
0.0
 11
5.3361669277
 21
4.2233550229
 31
0.0
 11
5.3202467202
 21
4.2781304889
 31
0.0
 11
5.2972815831
 21
4.3360106276
 31
0.0
  0
SPLINE
  5
501
100
AcDbEntity
  8
0
100
AcDbSpline
 62
7
  6
CONTINUOUS
 70
0
 71
3
 72
14
 73
10
 74
8
 42
0.0000001
 43
0.0000001
 44
0.0000000001
 12
-0.1046826132
 22
0.2029792199
 32
0.0
 13
0.1046826132
 23
0.2029792199
 33
0.0
 40
0.0
 40
0.0
 40
0.0
 40
0.0
 40
0.1530438599
 40
0.2956043717
 40
0.4324922324
 40
0.5675957362
 40
0.7044780411
 40
0.8469906498
 40
1.0
 40
1.0
 40
1.0
 40
1.0
 10
4.9238452489
 20
4.3873032101
 30
0.0
 10
4.9185049052
 20
4.3976581179
 30
0.0
 10
4.9090999118
 20
4.4181578462
 30
0.0
 10
4.8990582937
 20
4.4496133705
 30
0.0
 10
4.8939145836
 20
4.4808810393
 30
0.0
 10
4.8939162767
 20
4.5121500635
 30
0.0
 10
4.8990623572
 20
4.5434131685
 30
0.0
 10
4.9091035396
 20
4.5748616835
 30
0.0
 10
4.9185061094
 20
4.5953555822
 30
0.0
 10
4.9238452489
 20
4.6057081551
 30
0.0
 11
4.9238452489
 21
4.3873032101
 31
0.0
 11
4.9094476502
 21
4.419152851
 31
0.0
 11
4.899712778
 21
4.4502219022
 31
0.0
 11
4.8947475442
 21
4.481088016
 31
0.0
 11
4.894749175
 21
4.5119434241
 31
0.0
 11
4.8997171639
 21
4.5428078094
 31
0.0
 11
4.9094504863
 21
4.5738658815
 31
0.0
 11
4.9238452489
 21
4.6057081551
 31
0.0
  0
SPLINE
  5
502
100
AcDbEntity
  8
0
100
AcDbSpline
 62
7
  6
CONTINUOUS
 70
0
 71
3
 72
15
 73
11
 74
9
 42
0.0000001
 43
0.0000001
 44
0.0000000001
 12
0.1643031241
 22
0.1839340856
 32
0.0
 13
-0.1643031241
 23
0.1839340856
 33
0.0
 40
0.0
 40
0.0
 40
0.0
 40
0.0
 40
0.1498215377
 40
0.2783315905
 40
0.3927788038
 40
0.5000592815
 40
0.6073304266
 40
0.7217569014
 40
0.8502022558
 40
1.0
 40
1.0
 40
1.0
 40
1.0
 10
5.2972815831
 20
4.3873032101
 30
0.0
 10
5.3054869653
 20
4.3964889726
 30
0.0
 10
5.3199187448
 20
4.4143319312
 30
0.0
 10
5.3365164735
 20
4.4421903453
 30
0.0
 10
5.3465015805
 20
4.4694174193
 30
0.0
 10
5.3498626036
 20
4.496519775
 30
0.0
 10
5.3464948299
 20
4.5236194388
 30
0.0
 10
5.3365077126
 20
4.5508372154
 30
0.0
 10
5.3199129831
 20
4.5786866758
 30
0.0
 10
5.3054856622
 20
4.5965238514
 30
0.0
 10
5.2972815831
 20
4.6057081551
 30
0.0
 11
5.2972815831
 21
4.3873032101
 31
0.0
 11
5.3202500568
 21
4.4162481231
 31
0.0
 11
5.3361762417
 21
4.4436508381
 31
0.0
 11
5.3456252391
 21
4.4702486195
 31
0.0
 11
5.3487655481
 21
4.4965203834
 31
0.0
 11
5.3456189599
 21
4.5227890779
 31
0.0
 11
5.3361669277
 21
4.5493803527
 31
0.0
 11
5.3202467202
 21
4.5767680857
 31
0.0
 11
5.2972815831
 21
4.6057081551
 31
0.0
  0
ENDSEC
  0
SECTION
  2
OBJECTS
  0
DICTIONARY
  5
C
100
AcDbDictionary
280
0
281
1
  3
ACAD_GROUP
350
D
  3
ACAD_MLINESTYLE
350
17
  3
ACAD_LAYOUT
350
1A
  3
ACAD_PLOTSETTINGS
350
19
  3
ACAD_PLOTSTYLENAME
350
E
  0
DICTIONARY
  5
D
102
{ACAD_REACTORS
330
C
102
}
100
AcDbDictionary
280
0
281
1
  0
ACDBDICTIONARYWDFLT
  5
E
102
{ACAD_REACTORS
330
C
102
}
100
AcDbDictionary
281
1
  3
Normal
350
F
100
AcDbDictionaryWithDefault
340
F
  0
DICTIONARY
  5
17
102
{ACAD_REACTORS
330
C
102
}
100
AcDbDictionary
280
0
281
1
  3
Standard
350
18
  0
DICTIONARY
  5
19
102
{ACAD_REACTORS
330
C
102
}
100
AcDbDictionary
281
1
  0
DICTIONARY
  5
1A
102
{ACAD_REACTORS
330
C
102
}
100
AcDbDictionary
281
1
  3
Layout1
350
1E
  3
Model
350
22
  0
ACDBPLACEHOLDER
  5
F
102
{ACAD_REACTORS
330
E
102
}
  0
MLINESTYLE
  5
18
102
{ACAD_REACTORS
330
17
102
}
100
AcDbMlineStyle
  2
STANDARD
 70
0
  3

 62
256
 51
90.0
 52
90.0
 71
2
 49
0.5
 62
256
  6
BYLAYER
 49
-0.5
 62
256
  6
BYLAYER
  0
LAYOUT
  5
1E
102
{ACAD_REACTORS
330
1A
102
}
100
AcDbPlotSettings
  1

  2

  4

  6

 40
0.0
 41
0.0
 42
0.0
 43
0.0
 44
0.0
 45
0.0
 46
0.0
 47
0.0
 48
0.0
 49
0.0
140
0.0
141
0.0
142
1.0
143
1.0
 70
0
 72
0
 73
0
 74
0
  7

 75
0
147
1.0
148
0.0
149
0.0
100
AcDbLayout
  1
Layout1
 70
0
 71
0
 10
0.0
 20
0.0
 11
0.0
 21
0.0
 12
0.0
 22
0.0
 32
0.0
 14
0.0
 24
0.0
 34
0.0
 15
0.0
 25
0.0
 35
0.0
146
0.0
 13
0.0
 23
0.0
 33
0.0
 16
0.0
 26
0.0
 36
0.0
 17
0.0
 27
0.0
 37
0.0
 76
0
330
1B
331
0
345
0
346
0
  0
LAYOUT
  5
22
102
{ACAD_REACTORS
330
1A
102
}
100
AcDbPlotSettings
  1

  2

  4

  6

 40
0.0
 41
0.0
 42
0.0
 43
0.0
 44
0.0
 45
0.0
 46
0.0
 47
0.0
 48
0.0
 49
0.0
140
0.0
141
0.0
142
1.0
143
1.0
 70
0
 72
0
 73
0
 74
0
  7

 75
0
147
1.0
148
0.0
149
0.0
100
AcDbLayout
  1
Model
 70
0
 71
0
 10
0.0
 20
0.0
 11
0.0
 21
0.0
 12
0.0
 22
0.0
 32
0.0
 14
0.0
 24
0.0
 34
0.0
 15
0.0
 25
0.0
 35
0.0
146
0.0
 13
0.0
 23
0.0
 33
0.0
 16
0.0
 26
0.0
 36
0.0
 17
0.0
 27
0.0
 37
0.0
 76
0
330
1F
331
0
345
0
346
0
  0
ENDSEC
  0
EOF
