999
DXF file: RVCA-LAN.dxf
999
Pro/ENGINEER 2006240 by Parametric Technology Corporation
  0
SECTION
  2
HEADER
  9
$ACADVER
  1
AC1015
  9
$DWGCODEPAGE
  3
ANSI_1252
  9
$EXTMAX
 10
11.6929133858
 20
8.2677165354
 30
0.0
  9
$EXTMIN
 10
0.0
 20
0.0
 30
0.0
  9
$LIMMIN
 10
0.0
 20
0.0
  9
$LIMMAX
 10
11.6929133858
 20
8.2677165354
  9
$VIEWCTR
 10
5.8464566929
 20
4.1338582677
  9
$VIEWSIZE
 40
8.2677165354
  9
$CLAYER
  8
0
  9
$LTSCALE
 40
0.6431102362
  9
$CELTYPE
  6
BYLAYER
  9
$DIMSCALE
 40
1.0
  9
$DIMASZ
 40
0.1875
  9
$DIMEXO
 40
0.0730807087
  9
$DIMDLI
 40
0.4443307087
  9
$DIMEXE
 40
0.2104724409
  9
$DIMCEN
 40
0.1052362205
  9
$DIMLFAC
 40
1.0
  9
$DIMBLK
  1
_CLOSED
  9
$DIMTXT
 40
0.15625
  9
$DIMTOL
 70
0
  9
$DIMLIM
 70
0
  9
$DIMTFAC
 40
1.0
  9
$PDMODE
 70
3
  9
$PDSIZE
 40
0.3125
  9
$HANDSEED
  5
4DE
  9
$MEASUREMENT
 70
0
  9
$INSUNITS
 70
1
  0
ENDSEC
  0
SECTION
  2
CLASSES
  0
CLASS
  1
ACDBDICTIONARYWDFLT
  2
AcDbDictionaryWithDefault
  3
AutoCAD 2000
 90
0
280
0
281
0
  0
CLASS
  1
ACDBPLACEHOLDER
  2
AcDbPlaceHolder
  3
AutoCAD 2000
 90
0
280
0
281
0
  0
CLASS
  1
LAYOUT
  2
AcDbLayout
  3
AutoCAD 2000
 90
0
280
0
281
0
  0
ENDSEC
  0
SECTION
  2
TABLES
  0
TABLE
  2
VPORT
  5
8
100
AcDbSymbolTable
 70
2
  0
VPORT
  5
1F4
100
AcDbSymbolTableRecord
100
AcDbViewportTableRecord
  2
*ACTIVE
 70
0
 10
0.0
 20
0.0
 11
1.0
 21
1.0
 12
5.8464566929
 22
4.1338582677
 13
0.0
 23
0.0
 14
1.0
 24
1.0
 15
0.0
 25
0.0
 16
0.0
 26
0.0
 36
1.0
 17
0.0
 27
0.0
 37
0.0
 40
8.2677165354
 41
1.4142857143
 42
50.0
 43
0.0
 44
0.0
 50
0.0
 51
0.0
 71
0
 72
100
 73
1
 74
1
 75
0
 76
0
 77
0
 78
0
  0
ENDTAB
  0
TABLE
  2
LTYPE
  5
5
100
AcDbSymbolTable
 70
6
  0
LTYPE
  5
14
100
AcDbSymbolTableRecord
100
AcDbLinetypeTableRecord
  2
BYBLOCK
 70
0
  3

 72
65
 73
0
 40
0.0
  0
LTYPE
  5
15
100
AcDbSymbolTableRecord
100
AcDbLinetypeTableRecord
  2
BYLAYER
 70
0
  3

 72
65
 73
0
 40
0.0
  0
LTYPE
  5
16
100
AcDbSymbolTableRecord
100
AcDbLinetypeTableRecord
  2
CONTINUOUS
 70
64
  3
Solid line
 72
65
 73
0
 40
0.0
  0
LTYPE
  5
1F5
100
AcDbSymbolTableRecord
100
AcDbLinetypeTableRecord
  2
CENTER
 70
64
  3
____ _ ____ _ ____ _ ____ _ ____ _ ____ _ ____
 72
65
 73
4
 40
0.6
 49
0.375
 74
0
 49
-0.075
 74
0
 49
0.075
 74
0
 49
-0.075
 74
0
  0
LTYPE
  5
1F6
100
AcDbSymbolTableRecord
100
AcDbLinetypeTableRecord
  2
HIDDEN
 70
64
  3
- - - - - - - - - - - - - - - - - - - -
 72
65
 73
2
 40
0.2
 49
0.1
 74
0
 49
-0.1
 74
0
  0
LTYPE
  5
1F7
100
AcDbSymbolTableRecord
100
AcDbLinetypeTableRecord
  2
PHANTOM
 70
64
  3
_____ _ _ _____ _ _ _____ _ _ _____
 72
65
 73
6
 40
0.8
 49
0.45
 74
0
 49
-0.05
 74
0
 49
0.1
 74
0
 49
-0.05
 74
0
 49
0.1
 74
0
 49
-0.05
 74
0
  0
LTYPE
  5
1F8
100
AcDbSymbolTableRecord
100
AcDbLinetypeTableRecord
  2
DOT
 70
64
  3
. . . . . . . . . . . . . . . . . . . .
 72
65
 73
2
 40
0.2
 49
0.1
 74
0
 49
-0.1
 74
0
  0
LTYPE
  5
1F9
100
AcDbSymbolTableRecord
100
AcDbLinetypeTableRecord
  2
DASHED
 70
64
  3
- - - - - - - - - - - - - - - - - - - -
 72
65
 73
2
 40
0.2
 49
0.1
 74
0
 49
-0.1
 74
0
  0
ENDTAB
  0
TABLE
  2
LAYER
  5
2
100
AcDbSymbolTable
 70
36
  0
LAYER
  5
10
100
AcDbSymbolTableRecord
100
AcDbLayerTableRecord
  2
0
 70
0
 62
7
  6
CONTINUOUS
370
-3
390
F
  0
LAYER
  5
1FA
100
AcDbSymbolTableRecord
100
AcDbLayerTableRecord
  2
DEFAULT_1
 70
0
 62
7
  6
CENTER
370
-3
390
F
  0
LAYER
  5
1FB
100
AcDbSymbolTableRecord
100
AcDbLayerTableRecord
  2
DEFAULT_2
 70
0
 62
8
  6
HIDDEN
370
-3
390
F
  0
LAYER
  5
1FC
100
AcDbSymbolTableRecord
100
AcDbLayerTableRecord
  2
DEFAULT_3
 70
0
 62
7
  6
PHANTOM
370
-3
390
F
  0
LAYER
  5
1FD
100
AcDbSymbolTableRecord
100
AcDbLayerTableRecord
  2
_BLACK_HOLE
 70
0
 62
7
  6
CONTINUOUS
370
-3
390
F
  0
LAYER
  5
1FE
100
AcDbSymbolTableRecord
100
AcDbLayerTableRecord
  2
01_ALL_DTM_PLN
 70
0
 62
7
  6
CONTINUOUS
370
-3
390
F
  0
LAYER
  5
1FF
100
AcDbSymbolTableRecord
100
AcDbLayerTableRecord
  2
01__ASM_ALL_DTM_PLN
 70
0
 62
7
  6
CONTINUOUS
370
-3
390
F
  0
LAYER
  5
200
100
AcDbSymbolTableRecord
100
AcDbLayerTableRecord
  2
01__ASM_DEF_DTM_PLN
 70
0
 62
7
  6
CONTINUOUS
370
-3
390
F
  0
LAYER
  5
201
100
AcDbSymbolTableRecord
100
AcDbLayerTableRecord
  2
01___PRT_ALL_DTM_PLN
 70
0
 62
7
  6
CONTINUOUS
370
-3
390
F
  0
LAYER
  5
202
100
AcDbSymbolTableRecord
100
AcDbLayerTableRecord
  2
01___PRT_DEF_DTM_PLN
 70
0
 62
7
  6
CONTINUOUS
370
-3
390
F
  0
LAYER
  5
203
100
AcDbSymbolTableRecord
100
AcDbLayerTableRecord
  2
02_ALL_AXES
 70
0
 62
7
  6
CONTINUOUS
370
-3
390
F
  0
LAYER
  5
204
100
AcDbSymbolTableRecord
100
AcDbLayerTableRecord
  2
02__ASM_ALL_AXES
 70
0
 62
7
  6
CONTINUOUS
370
-3
390
F
  0
LAYER
  5
205
100
AcDbSymbolTableRecord
100
AcDbLayerTableRecord
  2
02___PRT_ALL_AXES
 70
0
 62
7
  6
CONTINUOUS
370
-3
390
F
  0
LAYER
  5
206
100
AcDbSymbolTableRecord
100
AcDbLayerTableRecord
  2
03_ALL_CURVES
 70
0
 62
7
  6
CONTINUOUS
370
-3
390
F
  0
LAYER
  5
207
100
AcDbSymbolTableRecord
100
AcDbLayerTableRecord
  2
03__ASM_ALL_CURVES
 70
0
 62
7
  6
CONTINUOUS
370
-3
390
F
  0
LAYER
  5
208
100
AcDbSymbolTableRecord
100
AcDbLayerTableRecord
  2
03___PRT_ALL_CURVES
 70
0
 62
7
  6
CONTINUOUS
370
-3
390
F
  0
LAYER
  5
209
100
AcDbSymbolTableRecord
100
AcDbLayerTableRecord
  2
04_ALL_DTM_PNT
 70
0
 62
7
  6
CONTINUOUS
370
-3
390
F
  0
LAYER
  5
20A
100
AcDbSymbolTableRecord
100
AcDbLayerTableRecord
  2
04__ASM_ALL_DTM_PNT
 70
0
 62
7
  6
CONTINUOUS
370
-3
390
F
  0
LAYER
  5
20B
100
AcDbSymbolTableRecord
100
AcDbLayerTableRecord
  2
04___PRT_ALL_DTM_PNT
 70
0
 62
7
  6
CONTINUOUS
370
-3
390
F
  0
LAYER
  5
20C
100
AcDbSymbolTableRecord
100
AcDbLayerTableRecord
  2
05_ALL_DTM_CSYS
 70
0
 62
7
  6
CONTINUOUS
370
-3
390
F
  0
LAYER
  5
20D
100
AcDbSymbolTableRecord
100
AcDbLayerTableRecord
  2
05__ASM_ALL_DTM_CSYS
 70
0
 62
7
  6
CONTINUOUS
370
-3
390
F
  0
LAYER
  5
20E
100
AcDbSymbolTableRecord
100
AcDbLayerTableRecord
  2
05__ASM_DEF_DTM_CSYS
 70
0
 62
7
  6
CONTINUOUS
370
-3
390
F
  0
LAYER
  5
20F
100
AcDbSymbolTableRecord
100
AcDbLayerTableRecord
  2
05___PRT_ALL_DTM_CSYS
 70
0
 62
7
  6
CONTINUOUS
370
-3
390
F
  0
LAYER
  5
210
100
AcDbSymbolTableRecord
100
AcDbLayerTableRecord
  2
05___PRT_DEF_DTM_CSYS
 70
0
 62
7
  6
CONTINUOUS
370
-3
390
F
  0
LAYER
  5
211
100
AcDbSymbolTableRecord
100
AcDbLayerTableRecord
  2
06_ALL_SURFS
 70
0
 62
7
  6
CONTINUOUS
370
-3
390
F
  0
LAYER
  5
212
100
AcDbSymbolTableRecord
100
AcDbLayerTableRecord
  2
06__ASM_ALL_SURFS
 70
0
 62
7
  6
CONTINUOUS
370
-3
390
F
  0
LAYER
  5
213
100
AcDbSymbolTableRecord
100
AcDbLayerTableRecord
  2
06___PRT_ALL_SURFS
 70
0
 62
7
  6
CONTINUOUS
370
-3
390
F
  0
LAYER
  5
214
100
AcDbSymbolTableRecord
100
AcDbLayerTableRecord
  2
07__ASM_ALL_SKELETONS
 70
0
 62
7
  6
CONTINUOUS
370
-3
390
F
  0
LAYER
  5
215
100
AcDbSymbolTableRecord
100
AcDbLayerTableRecord
  2
126-001_HEX_FEATURES
 70
0
 62
7
  6
CONTINUOUS
370
-3
390
F
  0
LAYER
  5
216
100
AcDbSymbolTableRecord
100
AcDbLayerTableRecord
  2
126-001_REF_GEOMETRY
 70
0
 62
7
  6
CONTINUOUS
370
-3
390
F
  0
LAYER
  5
217
100
AcDbSymbolTableRecord
100
AcDbLayerTableRecord
  2
126-004_HEX_FEATURES
 70
0
 62
7
  6
CONTINUOUS
370
-3
390
F
  0
LAYER
  5
218
100
AcDbSymbolTableRecord
100
AcDbLayerTableRecord
  2
126-004_REF_GEOMETRY
 70
0
 62
7
  6
CONTINUOUS
370
-3
390
F
  0
LAYER
  5
219
100
AcDbSymbolTableRecord
100
AcDbLayerTableRecord
  2
126-400_HEX_FEATURES
 70
0
 62
7
  6
CONTINUOUS
370
-3
390
F
  0
LAYER
  5
21A
100
AcDbSymbolTableRecord
100
AcDbLayerTableRecord
  2
126-400_REF_GEOMETRY
 70
0
 62
7
  6
CONTINUOUS
370
-3
390
F
  0
LAYER
  5
21B
100
AcDbSymbolTableRecord
100
AcDbLayerTableRecord
  2
126-401_HEX_FEATURES
 70
0
 62
7
  6
CONTINUOUS
370
-3
390
F
  0
LAYER
  5
21C
100
AcDbSymbolTableRecord
100
AcDbLayerTableRecord
  2
126-401_REF_GEOMETRY
 70
0
 62
7
  6
CONTINUOUS
370
-3
390
F
  0
LAYER
  5
21D
100
AcDbSymbolTableRecord
100
AcDbLayerTableRecord
  2
126-402_HEX_FEATURES
 70
0
 62
7
  6
CONTINUOUS
370
-3
390
F
  0
LAYER
  5
21E
100
AcDbSymbolTableRecord
100
AcDbLayerTableRecord
  2
126-402_REF_GEOMETRY
 70
0
 62
7
  6
CONTINUOUS
370
-3
390
F
  0
LAYER
  5
21F
100
AcDbSymbolTableRecord
100
AcDbLayerTableRecord
  2
126-403_HEX_FEATURES
 70
0
 62
7
  6
CONTINUOUS
370
-3
390
F
  0
LAYER
  5
220
100
AcDbSymbolTableRecord
100
AcDbLayerTableRecord
  2
126-403_REF_GEOMETRY
 70
0
 62
7
  6
CONTINUOUS
370
-3
390
F
  0
LAYER
  5
221
100
AcDbSymbolTableRecord
100
AcDbLayerTableRecord
  2
126-404_HEX_FEATURES
 70
0
 62
7
  6
CONTINUOUS
370
-3
390
F
  0
LAYER
  5
222
100
AcDbSymbolTableRecord
100
AcDbLayerTableRecord
  2
126-404_REF_GEOMETRY
 70
0
 62
7
  6
CONTINUOUS
370
-3
390
F
  0
LAYER
  5
223
100
AcDbSymbolTableRecord
100
AcDbLayerTableRecord
  2
126-405_HEX_FEATURES
 70
0
 62
7
  6
CONTINUOUS
370
-3
390
F
  0
LAYER
  5
224
100
AcDbSymbolTableRecord
100
AcDbLayerTableRecord
  2
126-405_REF_GEOMETRY
 70
0
 62
7
  6
CONTINUOUS
370
-3
390
F
  0
LAYER
  5
225
100
AcDbSymbolTableRecord
100
AcDbLayerTableRecord
  2
126-406_HEX_FEATURES
 70
0
 62
7
  6
CONTINUOUS
370
-3
390
F
  0
LAYER
  5
226
100
AcDbSymbolTableRecord
100
AcDbLayerTableRecord
  2
126-406_REF_GEOMETRY
 70
0
 62
7
  6
CONTINUOUS
370
-3
390
F
  0
LAYER
  5
227
100
AcDbSymbolTableRecord
100
AcDbLayerTableRecord
  2
COPY_GEO_FET
 70
0
 62
7
  6
CONTINUOUS
370
-3
390
F
  0
LAYER
  5
228
100
AcDbSymbolTableRecord
100
AcDbLayerTableRecord
  2
COSMETIC
 70
0
 62
7
  6
CONTINUOUS
370
-3
390
F
  0
LAYER
  5
229
100
AcDbSymbolTableRecord
100
AcDbLayerTableRecord
  2
COSM_REF
 70
0
 62
7
  6
CONTINUOUS
370
-3
390
F
  0
LAYER
  5
22A
100
AcDbSymbolTableRecord
100
AcDbLayerTableRecord
  2
CURVES
 70
0
 62
7
  6
CONTINUOUS
370
-3
390
F
  0
LAYER
  5
22B
100
AcDbSymbolTableRecord
100
AcDbLayerTableRecord
  2
CUT_REF_SURF
 70
0
 62
7
  6
CONTINUOUS
370
-3
390
F
  0
LAYER
  5
22C
100
AcDbSymbolTableRecord
100
AcDbLayerTableRecord
  2
DATUM
 70
0
 62
7
  6
CONTINUOUS
370
-3
390
F
  0
LAYER
  5
22D
100
AcDbSymbolTableRecord
100
AcDbLayerTableRecord
  2
DATUMCURVES
 70
0
 62
7
  6
CONTINUOUS
370
-3
390
F
  0
LAYER
  5
22E
100
AcDbSymbolTableRecord
100
AcDbLayerTableRecord
  2
DIMENSIONS
 70
0
 62
7
  6
CONTINUOUS
370
-3
390
F
  0
LAYER
  5
22F
100
AcDbSymbolTableRecord
100
AcDbLayerTableRecord
  2
DRAWINGNOTES
 70
0
 62
7
  6
CONTINUOUS
370
-3
390
F
  0
LAYER
  5
230
100
AcDbSymbolTableRecord
100
AcDbLayerTableRecord
  2
DTM
 70
0
 62
7
  6
CONTINUOUS
370
-3
390
F
  0
LAYER
  5
231
100
AcDbSymbolTableRecord
100
AcDbLayerTableRecord
  2
DTM325
 70
0
 62
7
  6
CONTINUOUS
370
-3
390
F
  0
LAYER
  5
232
100
AcDbSymbolTableRecord
100
AcDbLayerTableRecord
  2
DTM_500001
 70
0
 62
7
  6
CONTINUOUS
370
-3
390
F
  0
LAYER
  5
233
100
AcDbSymbolTableRecord
100
AcDbLayerTableRecord
  2
DTM_500002
 70
0
 62
7
  6
CONTINUOUS
370
-3
390
F
  0
LAYER
  5
234
100
AcDbSymbolTableRecord
100
AcDbLayerTableRecord
  2
DTM_515002
 70
0
 62
7
  6
CONTINUOUS
370
-3
390
F
  0
LAYER
  5
235
100
AcDbSymbolTableRecord
100
AcDbLayerTableRecord
  2
DTM_800001
 70
0
 62
7
  6
CONTINUOUS
370
-3
390
F
  0
LAYER
  5
236
100
AcDbSymbolTableRecord
100
AcDbLayerTableRecord
  2
DTM_BALLHOLDER
 70
0
 62
7
  6
CONTINUOUS
370
-3
390
F
  0
LAYER
  5
237
100
AcDbSymbolTableRecord
100
AcDbLayerTableRecord
  2
DTM_ORIFICE_SEAT
 70
0
 62
7
  6
CONTINUOUS
370
-3
390
F
  0
LAYER
  5
238
100
AcDbSymbolTableRecord
100
AcDbLayerTableRecord
  2
DTM_SPRING_LH
 70
0
 62
7
  6
CONTINUOUS
370
-3
390
F
  0
LAYER
  5
239
100
AcDbSymbolTableRecord
100
AcDbLayerTableRecord
  2
DTM_SPRING_RH
 70
0
 62
7
  6
CONTINUOUS
370
-3
390
F
  0
LAYER
  5
23A
100
AcDbSymbolTableRecord
100
AcDbLayerTableRecord
  2
DTM_SP_LH_CONSTR
 70
0
 62
7
  6
CONTINUOUS
370
-3
390
F
  0
LAYER
  5
23B
100
AcDbSymbolTableRecord
100
AcDbLayerTableRecord
  2
DTM_SP_RH_CONSTR
 70
0
 62
7
  6
CONTINUOUS
370
-3
390
F
  0
LAYER
  5
23C
100
AcDbSymbolTableRecord
100
AcDbLayerTableRecord
  2
FACE1
 70
0
 62
7
  6
CONTINUOUS
370
-3
390
F
  0
LAYER
  5
23D
100
AcDbSymbolTableRecord
100
AcDbLayerTableRecord
  2
FACE2
 70
0
 62
7
  6
CONTINUOUS
370
-3
390
F
  0
LAYER
  5
23E
100
AcDbSymbolTableRecord
100
AcDbLayerTableRecord
  2
FACE3
 70
0
 62
7
  6
CONTINUOUS
370
-3
390
F
  0
LAYER
  5
23F
100
AcDbSymbolTableRecord
100
AcDbLayerTableRecord
  2
FACE4
 70
0
 62
7
  6
CONTINUOUS
370
-3
390
F
  0
LAYER
  5
240
100
AcDbSymbolTableRecord
100
AcDbLayerTableRecord
  2
GEOMETRICTOLERANCES
 70
0
 62
7
  6
CONTINUOUS
370
-3
390
F
  0
LAYER
  5
241
100
AcDbSymbolTableRecord
100
AcDbLayerTableRecord
  2
HOLE_FEATURES
 70
0
 62
7
  6
CONTINUOUS
370
-3
390
F
  0
LAYER
  5
242
100
AcDbSymbolTableRecord
100
AcDbLayerTableRecord
  2
LAY0001
 70
0
 62
7
  6
CONTINUOUS
370
-3
390
F
  0
LAYER
  5
243
100
AcDbSymbolTableRecord
100
AcDbLayerTableRecord
  2
NPTF_PORT_PER_S-164
 70
0
 62
7
  6
CONTINUOUS
370
-3
390
F
  0
LAYER
  5
244
100
AcDbSymbolTableRecord
100
AcDbLayerTableRecord
  2
PARAMETERDIMENSIONS
 70
0
 62
7
  6
CONTINUOUS
370
-3
390
F
  0
LAYER
  5
245
100
AcDbSymbolTableRecord
100
AcDbLayerTableRecord
  2
PLANE
 70
0
 62
7
  6
CONTINUOUS
370
-3
390
F
  0
LAYER
  5
246
100
AcDbSymbolTableRecord
100
AcDbLayerTableRecord
  2
PROTRUSIONS
 70
0
 62
7
  6
CONTINUOUS
370
-3
390
F
  0
LAYER
  5
247
100
AcDbSymbolTableRecord
100
AcDbLayerTableRecord
  2
SPEC_SAE-4_PORT
 70
0
 62
7
  6
CONTINUOUS
370
-3
390
F
  0
LAYER
  5
248
100
AcDbSymbolTableRecord
100
AcDbLayerTableRecord
  2
STD_SAE-4_PORT
 70
0
 62
7
  6
CONTINUOUS
370
-3
390
F
  0
LAYER
  5
249
100
AcDbSymbolTableRecord
100
AcDbLayerTableRecord
  2
TEXT
 70
0
 62
7
  6
CONTINUOUS
370
-3
390
F
  0
LAYER
  5
24A
100
AcDbSymbolTableRecord
100
AcDbLayerTableRecord
  2
THREAD
 70
0
 62
7
  6
CONTINUOUS
370
-3
390
F
  0
LAYER
  5
24B
100
AcDbSymbolTableRecord
100
AcDbLayerTableRecord
  2
WIRE_GRV-SLOT_DRW_REF
 70
0
 62
7
  6
CONTINUOUS
370
-3
390
F
  0
LAYER
  5
24C
100
AcDbSymbolTableRecord
100
AcDbLayerTableRecord
  2
XSEC_DATUMS
 70
0
 62
7
  6
CONTINUOUS
370
-3
390
F
  0
ENDTAB
  0
TABLE
  2
STYLE
  5
3
100
AcDbSymbolTable
 70
1
  0
STYLE
  5
11
100
AcDbSymbolTableRecord
100
AcDbTextStyleTableRecord
  2
STANDARD
 70
0
 40
0.0
 41
0.8
 50
0.0
 71
0
 42
0.2
  3
txt
  4

  0
ENDTAB
  0
TABLE
  2
VIEW
  5
6
100
AcDbSymbolTable
 70
0
  0
ENDTAB
  0
TABLE
  2
UCS
  5
7
100
AcDbSymbolTable
 70
0
  0
ENDTAB
  0
TABLE
  2
APPID
  5
9
100
AcDbSymbolTable
 70
1
  0
APPID
  5
24D
100
AcDbSymbolTableRecord
100
AcDbRegAppTableRecord
  2
ACAD
 70
0
  0
ENDTAB
  0
TABLE
  2
BLOCK_RECORD
  5
1
100
AcDbSymbolTable
 70
0
  0
BLOCK_RECORD
  5
1F
100
AcDbSymbolTableRecord
100
AcDbBlockTableRecord
  2
*MODEL_SPACE
  0
BLOCK_RECORD
  5
1B
100
AcDbSymbolTableRecord
100
AcDbBlockTableRecord
  2
*PAPER_SPACE
  0
ENDTAB
  0
TABLE
  2
DIMSTYLE
  5
A
100
AcDbSymbolTable
 70
1
100
AcDbDimStyleTable
 71
0
  0
DIMSTYLE
105
24E
100
AcDbSymbolTableRecord
100
AcDbDimStyleTableRecord
  2
STANDARD
 70
0
  3

  4

 40
1.0
 41
0.1875
 42
0.0625
 43
0.38
 44
0.18
 45
0.0
 46
0.0
 47
0.01
 48
0.01
140
0.15625
141
0.09
142
0.0
143
25.4
144
1.0
145
0.0
146
1.0
147
0.09
 71
0.0
 72
0.0
 73
1
 74
1
 75
0
 76
0
 77
0
 78
4
170
0
171
2
172
0
173
0
174
0
175
0
176
0
177
0
178
0
270
2
271
2
272
2
273
2
274
2
275
0
280
0
281
0
282
0
283
1
284
4
285
0
286
0
287
3
288
0
340
11
  0
ENDTAB
  0
ENDSEC
  0
SECTION
  2
BLOCKS
  0
BLOCK
  5
20
100
AcDbEntity
  8
0
100
AcDbBlockBegin
  2
*MODEL_SPACE
 70
0
 10
0.0
 20
0.0
 30
0.0
  3
*MODEL_SPACE
  1

  0
ENDBLK
  5
21
100
AcDbEntity
  8
0
100
AcDbBlockEnd
  0
BLOCK
  5
1C
100
AcDbEntity
  8
0
100
AcDbBlockBegin
  2
*PAPER_SPACE
 70
0
 10
0.0
 20
0.0
 30
0.0
  3
*PAPER_SPACE
  1

  0
ENDBLK
  5
1D
100
AcDbEntity
  8
0
100
AcDbBlockEnd
  0
ENDSEC
  0
SECTION
  2
ENTITIES
  0
LINE
  5
24F
100
AcDbEntity
  8
0
100
AcDbLine
 62
7
  6
CONTINUOUS
 10
3.5777411523
 20
4.2706119326
 11
3.5777411523
 21
3.9646119326
  0
LINE
  5
250
100
AcDbEntity
  8
03__ASM_ALL_CURVES
100
AcDbLine
 62
40
  6
CONTINUOUS
 10
3.5777411523
 20
4.2706119326
 11
3.5777411523
 21
5.1378879326
  0
LINE
  5
251
100
AcDbEntity
  8
0
100
AcDbLine
 62
7
  6
CONTINUOUS
 10
3.6087411523
 20
4.3016119326
 11
3.6087411523
 21
3.9336119326
  0
LINE
  5
252
100
AcDbEntity
  8
03__ASM_ALL_CURVES
100
AcDbLine
 62
40
  6
CONTINUOUS
 10
3.6939611523
 20
5.1185179326
 11
3.6939611523
 21
5.0797779326
  0
LINE
  5
253
100
AcDbEntity
  8
0
100
AcDbLine
 62
7
  6
CONTINUOUS
 10
3.8077411523
 20
4.3016119326
 11
3.8077411523
 21
3.9336119326
  0
LINE
  5
254
100
AcDbEntity
  8
0
100
AcDbLine
 62
7
  6
CONTINUOUS
 10
3.8092411523
 20
3.9564689396
 11
3.8092411523
 21
4.1937355014
  0
LINE
  5
255
100
AcDbEntity
  8
0
100
AcDbLine
 62
7
  6
CONTINUOUS
 10
3.8442411523
 20
3.9564689396
 11
3.8442411523
 21
4.1937355014
  0
LINE
  5
256
100
AcDbEntity
  8
0
100
AcDbLine
 62
7
  6
CONTINUOUS
 10
3.8457411523
 20
4.3016119326
 11
3.8457411523
 21
3.9336119326
  0
LINE
  5
257
100
AcDbEntity
  8
0
100
AcDbLine
 62
7
  6
CONTINUOUS
 10
3.5777411523
 20
3.9646119326
 11
3.6087411523
 21
3.9336119326
  0
LINE
  5
258
100
AcDbEntity
  8
0
100
AcDbLine
 62
7
  6
CONTINUOUS
 10
4.0777411523
 20
3.8699607475
 11
4.0777411523
 21
4.3652631177
  0
LINE
  5
259
100
AcDbEntity
  8
0
100
AcDbLine
 62
7
  6
CONTINUOUS
 10
4.1397411523
 20
3.8466119326
 11
4.1397411523
 21
4.3886119326
  0
LINE
  5
25A
100
AcDbEntity
  8
0
100
AcDbLine
 62
7
  6
CONTINUOUS
 10
4.1457411523
 20
3.8466119326
 11
4.1457411523
 21
4.3886119326
  0
LINE
  5
25B
100
AcDbEntity
  8
0
100
AcDbLine
 62
7
  6
CONTINUOUS
 10
4.1512411523
 20
3.8521119326
 11
4.1512411523
 21
4.3831119326
  0
LINE
  5
25C
100
AcDbEntity
  8
0
100
AcDbLine
 62
7
  6
CONTINUOUS
 10
4.1672411523
 20
3.8521119326
 11
4.1672411523
 21
4.3831119326
  0
LINE
  5
25D
100
AcDbEntity
  8
03__ASM_ALL_CURVES
100
AcDbLine
 62
40
  6
CONTINUOUS
 10
4.3248317773
 20
5.1621004326
 11
4.3187786523
 21
5.1378879326
  0
LINE
  5
25E
100
AcDbEntity
  8
03__ASM_ALL_CURVES
100
AcDbLine
 62
40
  6
CONTINUOUS
 10
4.3187786523
 20
5.218596264
 11
4.3248317773
 21
5.2266671012
  0
LINE
  5
25F
100
AcDbEntity
  8
03__ASM_ALL_CURVES
100
AcDbLine
 62
40
  6
CONTINUOUS
 10
4.3369380273
 20
5.1782420983
 11
4.3248317773
 21
5.1621004326
  0
LINE
  5
260
100
AcDbEntity
  8
03__ASM_ALL_CURVES
100
AcDbLine
 62
40
  6
CONTINUOUS
 10
4.3672036523
 20
5.2024546012
 11
4.3611505273
 21
5.194383764
  0
LINE
  5
261
100
AcDbEntity
  8
03__ASM_ALL_CURVES
100
AcDbLine
 62
40
  6
CONTINUOUS
 10
4.3248317773
 20
5.2266671012
 11
4.3369380273
 21
5.2347379326
  0
LINE
  5
262
100
AcDbEntity
  8
0
100
AcDbLine
 62
7
  6
CONTINUOUS
 10
4.3587411523
 20
3.8466119326
 11
4.3587411523
 21
4.3886119326
  0
LINE
  5
263
100
AcDbEntity
  8
03__ASM_ALL_CURVES
100
AcDbLine
 62
40
  6
CONTINUOUS
 10
4.3672036523
 20
5.218596264
 11
4.3672036523
 21
5.2024546012
  0
LINE
  5
264
100
AcDbEntity
  8
03__ASM_ALL_CURVES
100
AcDbLine
 62
40
  6
CONTINUOUS
 10
4.6093286523
 20
5.2024546012
 11
4.6153817773
 21
5.218596264
  0
LINE
  5
265
100
AcDbEntity
  8
03__ASM_ALL_CURVES
100
AcDbLine
 62
40
  6
CONTINUOUS
 10
4.5548505273
 20
5.2347379326
 11
4.5124786523
 21
5.1621004326
  0
LINE
  5
266
100
AcDbEntity
  8
03__ASM_ALL_CURVES
100
AcDbLine
 62
40
  6
CONTINUOUS
 10
4.6153817773
 20
5.218596264
 11
4.6214349023
 21
5.2266671012
  0
LINE
  5
267
100
AcDbEntity
  8
03__ASM_ALL_CURVES
100
AcDbLine
 62
40
  6
CONTINUOUS
 10
4.6517005273
 20
5.1540295997
 11
4.6456474023
 21
5.1459587662
  0
LINE
  5
268
100
AcDbEntity
  8
0
100
AcDbLine
 62
7
  6
CONTINUOUS
 10
3.5777411523
 20
4.2706119326
 11
3.6087411523
 21
4.3016119326
  0
LINE
  5
269
100
AcDbEntity
  8
03__ASM_ALL_CURVES
100
AcDbLine
 62
40
  6
CONTINUOUS
 10
4.3611505273
 20
5.194383764
 11
4.3369380273
 21
5.1782420983
  0
LINE
  5
26A
100
AcDbEntity
  8
03__ASM_ALL_CURVES
100
AcDbLine
 62
40
  6
CONTINUOUS
 10
4.6214349023
 20
5.2266671012
 11
4.6335411523
 21
5.2347379326
  0
LINE
  5
26B
100
AcDbEntity
  8
0
100
AcDbLine
 62
7
  6
CONTINUOUS
 10
4.1827419379
 20
3.836611147
 11
4.1672411523
 21
3.8521119326
  0
LINE
  5
26C
100
AcDbEntity
  8
0
100
AcDbLine
 62
7
  6
CONTINUOUS
 10
4.3897411523
 20
3.7941119326
 11
4.3897411523
 21
4.4411119326
  0
LINE
  5
26D
100
AcDbEntity
  8
03__ASM_ALL_CURVES
100
AcDbLine
 62
40
  6
CONTINUOUS
 10
4.4337880273
 20
5.1378879326
 11
4.4337880273
 21
5.1459587662
  0
LINE
  5
26E
100
AcDbEntity
  8
0
100
AcDbLine
 62
7
  6
CONTINUOUS
 10
4.4397411523
 20
3.7441119326
 11
4.4397411523
 21
4.4911119326
  0
LINE
  5
26F
100
AcDbEntity
  8
0
100
AcDbLine
 62
7
  6
CONTINUOUS
 10
4.4907411523
 20
3.7441119326
 11
4.4907411523
 21
4.4911119326
  0
LINE
  5
270
100
AcDbEntity
  8
0
100
AcDbLine
 62
7
  6
CONTINUOUS
 10
4.4957411523
 20
3.7491119326
 11
4.4957411523
 21
4.4861119326
  0
LINE
  5
271
100
AcDbEntity
  8
0
100
AcDbLine
 62
7
  6
CONTINUOUS
 10
4.5037411523
 20
3.7676119326
 11
4.5037411523
 21
4.4676119326
  0
LINE
  5
272
100
AcDbEntity
  8
0
100
AcDbLine
 62
7
  6
CONTINUOUS
 10
4.5257411523
 20
3.7676119326
 11
4.5257411523
 21
4.4676119326
  0
LINE
  5
273
100
AcDbEntity
  8
0
100
AcDbLine
 62
7
  6
CONTINUOUS
 10
4.5337411523
 20
3.7491119326
 11
4.5337411523
 21
4.4861119326
  0
LINE
  5
274
100
AcDbEntity
  8
03__ASM_ALL_CURVES
100
AcDbLine
 62
40
  6
CONTINUOUS
 10
4.7243380273
 20
5.218596264
 11
4.7182849023
 21
5.194383764
  0
LINE
  5
275
100
AcDbEntity
  8
03__ASM_ALL_CURVES
100
AcDbLine
 62
40
  6
CONTINUOUS
 10
4.6577536523
 20
5.2024546012
 11
4.6517005273
 21
5.1863129326
  0
LINE
  5
276
100
AcDbEntity
  8
03__ASM_ALL_CURVES
100
AcDbLine
 62
40
  6
CONTINUOUS
 10
4.6577536523
 20
5.1701712669
 11
4.6517005273
 21
5.1540295997
  0
LINE
  5
277
100
AcDbEntity
  8
03__ASM_ALL_CURVES
100
AcDbLine
 62
40
  6
CONTINUOUS
 10
4.7364442773
 20
5.2347379326
 11
4.7243380273
 21
5.218596264
  0
LINE
  5
278
100
AcDbEntity
  8
03__ASM_ALL_CURVES
100
AcDbLine
 62
40
  6
CONTINUOUS
 10
4.8090817773
 20
5.218596264
 11
4.8151349023
 21
5.2266671012
  0
LINE
  5
279
100
AcDbEntity
  8
03__ASM_ALL_CURVES
100
AcDbLine
 62
40
  6
CONTINUOUS
 10
4.8454005273
 20
5.1540295997
 11
4.8393474023
 21
5.1459587662
  0
LINE
  5
27A
100
AcDbEntity
  8
03__ASM_ALL_CURVES
100
AcDbLine
 62
40
  6
CONTINUOUS
 10
4.6456474023
 20
5.1459587662
 11
4.6335411523
 21
5.1378879326
  0
LINE
  5
27B
100
AcDbEntity
  8
03__ASM_ALL_CURVES
100
AcDbLine
 62
40
  6
CONTINUOUS
 10
4.8151349023
 20
5.2266671012
 11
4.8272411523
 21
5.2347379326
  0
LINE
  5
27C
100
AcDbEntity
  8
03__ASM_ALL_CURVES
100
AcDbLine
 62
40
  6
CONTINUOUS
 10
4.9059317773
 20
5.2266671012
 11
4.9180380273
 21
5.2347379326
  0
LINE
  5
27D
100
AcDbEntity
  8
03__ASM_ALL_CURVES
100
AcDbLine
 62
40
  6
CONTINUOUS
 10
4.6517005273
 20
5.1863129326
 11
4.6335411523
 21
5.1782420983
  0
LINE
  5
27E
100
AcDbEntity
  8
0
100
AcDbLine
 62
7
  6
CONTINUOUS
 10
4.4397411523
 20
3.7441119326
 11
4.3897411523
 21
3.7941119326
  0
LINE
  5
27F
100
AcDbEntity
  8
0
100
AcDbLine
 62
7
  6
CONTINUOUS
 10
4.5387411523
 20
3.7441119326
 11
4.5387411523
 21
4.4911119326
  0
LINE
  5
280
100
AcDbEntity
  8
03__ASM_ALL_CURVES
100
AcDbLine
 62
40
  6
CONTINUOUS
 10
4.5548505273
 20
5.1378879326
 11
4.5548505273
 21
5.2347379326
  0
LINE
  5
281
100
AcDbEntity
  8
03__ASM_ALL_CURVES
100
AcDbLine
 62
40
  6
CONTINUOUS
 10
4.6577536523
 20
5.2024546012
 11
4.6577536523
 21
5.1701712669
  0
LINE
  5
282
100
AcDbEntity
  8
03__ASM_ALL_CURVES
100
AcDbLine
 62
40
  6
CONTINUOUS
 10
4.8030286523
 20
5.2024546012
 11
4.8090817773
 21
5.218596264
  0
LINE
  5
283
100
AcDbEntity
  8
03__ASM_ALL_CURVES
100
AcDbLine
 62
40
  6
CONTINUOUS
 10
4.8030286523
 20
5.1701712669
 11
4.8090817773
 21
5.1863129326
  0
LINE
  5
284
100
AcDbEntity
  8
03__ASM_ALL_CURVES
100
AcDbLine
 62
40
  6
CONTINUOUS
 10
4.8514536523
 20
5.1701712669
 11
4.8454005273
 21
5.1540295997
  0
LINE
  5
285
100
AcDbEntity
  8
03__ASM_ALL_CURVES
100
AcDbLine
 62
40
  6
CONTINUOUS
 10
4.9483036523
 20
5.2105254326
 11
4.9422505273
 21
5.2024546012
  0
LINE
  5
286
100
AcDbEntity
  8
03__ASM_ALL_CURVES
100
AcDbLine
 62
40
  6
CONTINUOUS
 10
4.9543567773
 20
5.1621004326
 11
4.9422505273
 21
5.1459587662
  0
LINE
  5
287
100
AcDbEntity
  8
03__ASM_ALL_CURVES
100
AcDbLine
 62
40
  6
CONTINUOUS
 10
5.0935786523
 20
5.218596264
 11
5.0996317773
 21
5.2266671012
  0
LINE
  5
288
100
AcDbEntity
  8
0
100
AcDbLine
 62
7
  6
CONTINUOUS
 10
4.1827419379
 20
4.3986127182
 11
4.1672411523
 21
4.3831119326
  0
LINE
  5
289
100
AcDbEntity
  8
0
100
AcDbLine
 62
7
  6
CONTINUOUS
 10
4.4397411523
 20
4.4911119326
 11
4.3897411523
 21
4.4411119326
  0
LINE
  5
28A
100
AcDbEntity
  8
03__ASM_ALL_CURVES
100
AcDbLine
 62
40
  6
CONTINUOUS
 10
4.8393474023
 20
5.1459587662
 11
4.8272411523
 21
5.1378879326
  0
LINE
  5
28B
100
AcDbEntity
  8
03__ASM_ALL_CURVES
100
AcDbLine
 62
40
  6
CONTINUOUS
 10
4.9422505273
 20
5.2024546012
 11
4.9301442773
 21
5.194383764
  0
LINE
  5
28C
100
AcDbEntity
  8
03__ASM_ALL_CURVES
100
AcDbLine
 62
40
  6
CONTINUOUS
 10
4.9422505273
 20
5.1459587662
 11
4.9301442773
 21
5.1378879326
  0
LINE
  5
28D
100
AcDbEntity
  8
03__ASM_ALL_CURVES
100
AcDbLine
 62
40
  6
CONTINUOUS
 10
5.0996317773
 20
5.2266671012
 11
5.1117380273
 21
5.2347379326
  0
LINE
  5
28E
100
AcDbEntity
  8
03__ASM_ALL_CURVES
100
AcDbLine
 62
40
  6
CONTINUOUS
 10
5.1359505273
 20
5.194383764
 11
5.1117380273
 21
5.1782420983
  0
LINE
  5
28F
100
AcDbEntity
  8
03__ASM_ALL_CURVES
100
AcDbLine
 62
40
  6
CONTINUOUS
 10
4.8090817773
 20
5.1863129326
 11
4.8272411523
 21
5.194383764
  0
LINE
  5
290
100
AcDbEntity
  8
0
100
AcDbLine
 62
7
  6
CONTINUOUS
 10
4.3587411523
 20
4.3886119326
 11
4.3526463801
 21
4.3991683876
  0
LINE
  5
291
100
AcDbEntity
  8
03__ASM_ALL_CURVES
100
AcDbLine
 62
40
  6
CONTINUOUS
 10
4.7182849023
 20
5.194383764
 11
4.7182849023
 21
5.1782420983
  0
LINE
  5
292
100
AcDbEntity
  8
03__ASM_ALL_CURVES
100
AcDbLine
 62
40
  6
CONTINUOUS
 10
4.8030286523
 20
5.1701712669
 11
4.8030286523
 21
5.2024546012
  0
LINE
  5
293
100
AcDbEntity
  8
0
100
AcDbLine
 62
7
  6
CONTINUOUS
 10
4.3587411523
 20
3.8466119326
 11
4.3526463801
 21
3.8360554776
  0
LINE
  5
294
100
AcDbEntity
  8
03__ASM_ALL_CURVES
100
AcDbLine
 62
40
  6
CONTINUOUS
 10
5.2328005273
 20
5.2347379326
 11
5.1904286523
 21
5.1621004326
  0
LINE
  5
295
100
AcDbEntity
  8
03__ASM_ALL_CURVES
100
AcDbLine
 62
40
  6
CONTINUOUS
 10
5.1117380273
 20
5.1782420983
 11
5.0996317773
 21
5.1621004326
  0
LINE
  5
296
100
AcDbEntity
  8
03__ASM_ALL_CURVES
100
AcDbLine
 62
40
  6
CONTINUOUS
 10
5.1420036523
 20
5.2024546012
 11
5.1359505273
 21
5.194383764
  0
LINE
  5
297
100
AcDbEntity
  8
03__ASM_ALL_CURVES
100
AcDbLine
 62
40
  6
CONTINUOUS
 10
7.1561266835
 20
3.3395969326
 11
7.1198079335
 21
3.3395969326
  0
LINE
  5
298
100
AcDbEntity
  8
03__ASM_ALL_CURVES
100
AcDbLine
 62
40
  6
CONTINUOUS
 10
6.9245946522
 20
3.3395969326
 11
6.9155149647
 21
3.3395969326
  0
LINE
  5
299
100
AcDbEntity
  8
03__ASM_ALL_CURVES
100
AcDbLine
 62
40
  6
CONTINUOUS
 10
6.8519571522
 20
3.3395969326
 11
6.8428774647
 21
3.3395969326
  0
LINE
  5
29A
100
AcDbEntity
  8
03__ASM_ALL_CURVES
100
AcDbLine
 62
40
  6
CONTINUOUS
 10
5.7885817777
 20
3.3395969326
 11
5.7522630277
 21
3.3395969326
  0
LINE
  5
29B
100
AcDbEntity
  8
03__ASM_ALL_CURVES
100
AcDbLine
 62
40
  6
CONTINUOUS
 10
7.0471704335
 20
3.3395969326
 11
7.0834891835
 21
3.3395969326
  0
LINE
  5
29C
100
AcDbEntity
  8
0
100
AcDbLine
 62
7
  6
CONTINUOUS
 10
4.1512411523
 20
4.3831119326
 11
4.1457411523
 21
4.3886119326
  0
LINE
  5
29D
100
AcDbEntity
  8
0
100
AcDbLine
 62
7
  6
CONTINUOUS
 10
4.9238048182
 20
3.6286119326
 11
4.8897411523
 21
3.6876119326
  0
LINE
  5
29E
100
AcDbEntity
  8
0
100
AcDbLine
 62
7
  6
CONTINUOUS
 10
4.8897411523
 20
3.6876119326
 11
4.8897411523
 21
4.5476119326
  0
LINE
  5
29F
100
AcDbEntity
  8
0
100
AcDbLine
 62
7
  6
CONTINUOUS
 10
4.9238048182
 20
3.6286119326
 11
4.9238048182
 21
3.6295094601
  0
LINE
  5
2A0
100
AcDbEntity
  8
0
100
AcDbLine
 62
7
  6
CONTINUOUS
 10
4.9238048182
 20
3.8479144051
 11
4.9238048182
 21
3.8992069876
  0
LINE
  5
2A1
100
AcDbEntity
  8
0
100
AcDbLine
 62
7
  6
CONTINUOUS
 10
4.9238048182
 20
4.3360168776
 11
4.9238048182
 21
4.3873094601
  0
LINE
  5
2A2
100
AcDbEntity
  8
0
100
AcDbLine
 62
7
  6
CONTINUOUS
 10
4.9238048182
 20
4.6057144051
 11
4.9238048182
 21
4.6066119326
  0
LINE
  5
2A3
100
AcDbEntity
  8
03__ASM_ALL_CURVES
100
AcDbLine
 62
40
  6
CONTINUOUS
 10
4.9483036523
 20
5.218596264
 11
4.9483036523
 21
5.2105254326
  0
LINE
  5
2A4
100
AcDbEntity
  8
03__ASM_ALL_CURVES
100
AcDbLine
 62
40
  6
CONTINUOUS
 10
4.9543567773
 20
5.1701712669
 11
4.9543567773
 21
5.1621004326
  0
LINE
  5
2A5
100
AcDbEntity
  8
03__ASM_ALL_CURVES
100
AcDbLine
 62
40
  6
CONTINUOUS
 10
5.0148880273
 20
5.1378879326
 11
5.0148880273
 21
5.1459587662
  0
LINE
  5
2A6
100
AcDbEntity
  8
03__ASM_ALL_CURVES
100
AcDbLine
 62
40
  6
CONTINUOUS
 10
5.0996317773
 20
5.1621004326
 11
5.0935786523
 21
5.1378879326
  0
LINE
  5
2A7
100
AcDbEntity
  8
0
100
AcDbLine
 62
7
  6
CONTINUOUS
 10
4.9234161774
 20
4.605938787
 11
4.8897411523
 21
4.5476119326
  0
LINE
  5
2A8
100
AcDbEntity
  8
03__ASM_ALL_CURVES
100
AcDbLine
 62
40
  6
CONTINUOUS
 10
5.3175442773
 20
5.1540295997
 11
5.3054380273
 21
5.1378879326
  0
LINE
  5
2A9
100
AcDbEntity
  8
0
100
AcDbLine
 62
7
  6
CONTINUOUS
 10
4.1512411523
 20
3.8521119326
 11
4.1457411523
 21
3.8466119326
  0
LINE
  5
2AA
100
AcDbEntity
  8
03__ASM_ALL_CURVES
100
AcDbLine
 62
40
  6
CONTINUOUS
 10
5.7522630277
 20
3.3759156826
 11
5.7749622465
 21
3.3759156826
  0
LINE
  5
2AB
100
AcDbEntity
  8
03__ASM_ALL_CURVES
100
AcDbLine
 62
40
  6
CONTINUOUS
 10
7.1198079335
 20
3.3759156826
 11
7.1425071522
 21
3.3759156826
  0
LINE
  5
2AC
100
AcDbEntity
  8
03__ASM_ALL_CURVES
100
AcDbLine
 62
40
  6
CONTINUOUS
 10
5.7522630277
 20
3.4122344326
 11
5.7885817777
 21
3.4122344326
  0
LINE
  5
2AD
100
AcDbEntity
  8
03__ASM_ALL_CURVES
100
AcDbLine
 62
40
  6
CONTINUOUS
 10
5.892998184
 20
3.4122344326
 11
5.9383966215
 21
3.4122344326
  0
LINE
  5
2AE
100
AcDbEntity
  8
03__ASM_ALL_CURVES
100
AcDbLine
 62
40
  6
CONTINUOUS
 10
6.8428774647
 20
3.4122344326
 11
6.8519571522
 21
3.4122344326
  0
LINE
  5
2AF
100
AcDbEntity
  8
03__ASM_ALL_CURVES
100
AcDbLine
 62
40
  6
CONTINUOUS
 10
6.9699930897
 20
3.4122344326
 11
7.0153915272
 21
3.4122344326
  0
LINE
  5
2B0
100
AcDbEntity
  8
03__ASM_ALL_CURVES
100
AcDbLine
 62
40
  6
CONTINUOUS
 10
7.1198079335
 20
3.4122344326
 11
7.1561266835
 21
3.4122344326
  0
LINE
  5
2B1
100
AcDbEntity
  8
03__ASM_ALL_CURVES
100
AcDbLine
 62
40
  6
CONTINUOUS
 10
7.1879055897
 20
3.4122344326
 11
7.2333040272
 21
3.4122344326
  0
LINE
  5
2B2
100
AcDbEntity
  8
03__ASM_ALL_CURVES
100
AcDbLine
 62
40
  6
CONTINUOUS
 10
6.958643515
 20
3.4509744326
 11
6.9495638275
 21
3.4509744326
  0
LINE
  5
2B3
100
AcDbEntity
  8
03__ASM_ALL_CURVES
100
AcDbLine
 62
40
  6
CONTINUOUS
 10
5.9542860764
 20
3.4509744326
 11
5.9452063889
 21
3.4509744326
  0
LINE
  5
2B4
100
AcDbEntity
  8
03__ASM_ALL_CURVES
100
AcDbLine
 62
40
  6
CONTINUOUS
 10
5.7363735764
 20
3.4509744326
 11
5.7272938889
 21
3.4509744326
  0
LINE
  5
2B5
100
AcDbEntity
  8
03__ASM_ALL_CURVES
100
AcDbLine
 62
40
  6
CONTINUOUS
 10
7.1538567962
 20
3.4509744326
 11
7.1901755462
 21
3.4509744326
  0
LINE
  5
2B6
100
AcDbEntity
  8
03__ASM_ALL_CURVES
100
AcDbLine
 62
40
  6
CONTINUOUS
 10
7.031281015
 20
3.4872931826
 11
7.0085817962
 21
3.4872931826
  0
LINE
  5
2B7
100
AcDbEntity
  8
03__ASM_ALL_CURVES
100
AcDbLine
 62
40
  6
CONTINUOUS
 10
6.886006015
 20
3.4872931826
 11
6.8633067962
 21
3.4872931826
  0
LINE
  5
2B8
100
AcDbEntity
  8
03__ASM_ALL_CURVES
100
AcDbLine
 62
40
  6
CONTINUOUS
 10
5.8090110764
 20
3.4872931826
 11
5.7863118577
 21
3.4872931826
  0
LINE
  5
2B9
100
AcDbEntity
  8
03__ASM_ALL_CURVES
100
AcDbLine
 62
40
  6
CONTINUOUS
 10
5.6637360764
 20
3.4872931826
 11
5.6410368577
 21
3.4872931826
  0
LINE
  5
2BA
100
AcDbEntity
  8
03__ASM_ALL_CURVES
100
AcDbLine
 62
40
  6
CONTINUOUS
 10
5.9452063889
 20
3.4933463062
 11
5.9542860764
 21
3.4933463062
  0
LINE
  5
2BB
100
AcDbEntity
  8
03__ASM_ALL_CURVES
100
AcDbLine
 62
40
  6
CONTINUOUS
 10
4.6153817773
 20
5.1863129326
 11
4.6093286523
 21
5.2024546012
  0
LINE
  5
2BC
100
AcDbEntity
  8
03__ASM_ALL_CURVES
100
AcDbLine
 62
40
  6
CONTINUOUS
 10
4.7182849023
 20
5.1782420983
 11
4.7243380273
 21
5.1540295997
  0
LINE
  5
2BD
100
AcDbEntity
  8
03__ASM_ALL_CURVES
100
AcDbLine
 62
40
  6
CONTINUOUS
 10
5.1420036523
 20
5.218596264
 11
5.1420036523
 21
5.2024546012
  0
LINE
  5
2BE
100
AcDbEntity
  8
03__ASM_ALL_CURVES
100
AcDbLine
 62
40
  6
CONTINUOUS
 10
5.3235974023
 20
5.1782420983
 11
5.3175442773
 21
5.1540295997
  0
LINE
  5
2BF
100
AcDbEntity
  8
03__ASM_ALL_CURVES
100
AcDbLine
 62
40
  6
CONTINUOUS
 10
5.6410368577
 20
3.5236119326
 11
5.6637360764
 21
3.5236119326
  0
LINE
  5
2C0
100
AcDbEntity
  8
03__ASM_ALL_CURVES
100
AcDbLine
 62
40
  6
CONTINUOUS
 10
5.7272938889
 20
3.5236119326
 11
5.7363735764
 21
3.5236119326
  0
LINE
  5
2C1
100
AcDbEntity
  8
03__ASM_ALL_CURVES
100
AcDbLine
 62
40
  6
CONTINUOUS
 10
5.7863118577
 20
3.5236119326
 11
5.8090110764
 21
3.5236119326
  0
LINE
  5
2C2
100
AcDbEntity
  8
03__ASM_ALL_CURVES
100
AcDbLine
 62
40
  6
CONTINUOUS
 10
5.8544095139
 20
3.5236119326
 11
5.8998079514
 21
3.5236119326
  0
LINE
  5
2C3
100
AcDbEntity
  8
03__ASM_ALL_CURVES
100
AcDbLine
 62
40
  6
CONTINUOUS
 10
5.9452063889
 20
3.5236119326
 11
5.9542860764
 21
3.5236119326
  0
LINE
  5
2C4
100
AcDbEntity
  8
03__ASM_ALL_CURVES
100
AcDbLine
 62
40
  6
CONTINUOUS
 10
6.8633067962
 20
3.5236119326
 11
6.886006015
 21
3.5236119326
  0
LINE
  5
2C5
100
AcDbEntity
  8
03__ASM_ALL_CURVES
100
AcDbLine
 62
40
  6
CONTINUOUS
 10
6.9495638275
 20
3.5236119326
 11
6.958643515
 21
3.5236119326
  0
LINE
  5
2C6
100
AcDbEntity
  8
03__ASM_ALL_CURVES
100
AcDbLine
 62
40
  6
CONTINUOUS
 10
7.0085817962
 20
3.5236119326
 11
7.031281015
 21
3.5236119326
  0
LINE
  5
2C7
100
AcDbEntity
  8
03__ASM_ALL_CURVES
100
AcDbLine
 62
40
  6
CONTINUOUS
 10
7.0766794525
 20
3.5236119326
 11
7.12207789
 21
3.5236119326
  0
LINE
  5
2C8
100
AcDbEntity
  8
03__ASM_ALL_CURVES
100
AcDbLine
 62
40
  6
CONTINUOUS
 10
7.1674763275
 20
3.5236119326
 11
7.176556015
 21
3.5236119326
  0
LINE
  5
2C9
100
AcDbEntity
  8
0
100
AcDbLine
 62
7
  6
CONTINUOUS
 10
5.2972411523
 20
3.6286119326
 11
4.9238048182
 21
3.6286119326
  0
LINE
  5
2CA
100
AcDbEntity
  8
0
100
AcDbLine
 62
7
  6
CONTINUOUS
 10
5.2972411523
 20
3.6295094601
 11
4.9238048182
 21
3.6295094601
  0
LINE
  5
2CB
100
AcDbEntity
  8
03__ASM_ALL_CURVES
100
AcDbLine
 62
40
  6
CONTINUOUS
 10
5.7272938889
 20
3.4509744326
 11
5.7182142014
 21
3.4570275578
  0
LINE
  5
2CC
100
AcDbEntity
  8
03__ASM_ALL_CURVES
100
AcDbLine
 62
40
  6
CONTINUOUS
 10
5.6637360764
 20
3.5236119326
 11
5.6728157639
 21
3.517558809
  0
LINE
  5
2CD
100
AcDbEntity
  8
03__ASM_ALL_CURVES
100
AcDbLine
 62
40
  6
CONTINUOUS
 10
5.7363735764
 20
3.5236119326
 11
5.7454532639
 21
3.517558809
  0
LINE
  5
2CE
100
AcDbEntity
  8
03__ASM_ALL_CURVES
100
AcDbLine
 62
40
  6
CONTINUOUS
 10
5.8090110764
 20
3.5236119326
 11
5.8180907639
 21
3.517558809
  0
LINE
  5
2CF
100
AcDbEntity
  8
03__ASM_ALL_CURVES
100
AcDbLine
 62
40
  6
CONTINUOUS
 10
4.6517005273
 20
5.218596264
 11
4.6577536523
 21
5.2024546012
  0
LINE
  5
2D0
100
AcDbEntity
  8
03__ASM_ALL_CURVES
100
AcDbLine
 62
40
  6
CONTINUOUS
 10
4.8090817773
 20
5.1540295997
 11
4.8030286523
 21
5.1701712669
  0
LINE
  5
2D1
100
AcDbEntity
  8
03__ASM_ALL_CURVES
100
AcDbLine
 62
40
  6
CONTINUOUS
 10
5.2328005273
 20
5.1378879326
 11
5.2328005273
 21
5.2347379326
  0
LINE
  5
2D2
100
AcDbEntity
  8
0
100
AcDbLine
 62
7
  6
CONTINUOUS
 10
5.2972411523
 20
3.6286119326
 11
5.2972411523
 21
3.6295094601
  0
LINE
  5
2D3
100
AcDbEntity
  8
0
100
AcDbLine
 62
7
  6
CONTINUOUS
 10
5.2972411523
 20
3.8479144051
 11
5.2972411523
 21
3.8992069876
  0
LINE
  5
2D4
100
AcDbEntity
  8
0
100
AcDbLine
 62
7
  6
CONTINUOUS
 10
5.2972411523
 20
4.3360168776
 11
5.2972411523
 21
4.3873094601
  0
LINE
  5
2D5
100
AcDbEntity
  8
0
100
AcDbLine
 62
7
  6
CONTINUOUS
 10
5.2972411523
 20
4.6057144051
 11
5.2972411523
 21
4.6066119326
  0
LINE
  5
2D6
100
AcDbEntity
  8
03__ASM_ALL_CURVES
100
AcDbLine
 62
40
  6
CONTINUOUS
 10
5.3235974023
 20
5.194383764
 11
5.3235974023
 21
5.1782420983
  0
LINE
  5
2D7
100
AcDbEntity
  8
03__ASM_ALL_CURVES
100
AcDbLine
 62
40
  6
CONTINUOUS
 10
6.3346042772
 20
5.2266671012
 11
6.3467105272
 21
5.2347379326
  0
LINE
  5
2D8
100
AcDbEntity
  8
0
100
AcDbLine
 62
7
  6
CONTINUOUS
 10
6.0767411523
 20
3.6891119326
 11
6.0217411523
 21
3.6891119326
  0
LINE
  5
2D9
100
AcDbEntity
  8
0
100
AcDbLine
 62
7
  6
CONTINUOUS
 10
5.6732411523
 20
3.6891119326
 11
5.6237411523
 21
3.6891119326
  0
LINE
  5
2DA
100
AcDbEntity
  8
0
100
AcDbLine
 62
7
  6
CONTINUOUS
 10
5.4827411523
 20
3.6891119326
 11
5.3577411523
 21
3.6891119326
  0
LINE
  5
2DB
100
AcDbEntity
  8
0
100
AcDbLine
 62
7
  6
CONTINUOUS
 10
5.4827411523
 20
3.6896119326
 11
5.5327411523
 21
3.6896119326
  0
LINE
  5
2DC
100
AcDbEntity
  8
THREAD
100
AcDbLine
 62
7
  6
CONTINUOUS
 10
6.1237411523
 20
3.7126119326
 11
6.0923296096
 21
3.7126119326
  0
LINE
  5
2DD
100
AcDbEntity
  8
0
100
AcDbLine
 62
7
  6
CONTINUOUS
 10
6.1937411523
 20
3.7131119326
 11
6.2437411523
 21
3.7131119326
  0
LINE
  5
2DE
100
AcDbEntity
  8
THREAD
100
AcDbLine
 62
7
  6
CONTINUOUS
 10
6.5322411523
 20
3.7301119326
 11
6.2851031122
 21
3.7301119326
  0
LINE
  5
2DF
100
AcDbEntity
  8
0
100
AcDbLine
 62
7
  6
CONTINUOUS
 10
5.6107411523
 20
3.7436119326
 11
5.6027411523
 21
3.7436119326
  0
LINE
  5
2E0
100
AcDbEntity
  8
0
100
AcDbLine
 62
7
  6
CONTINUOUS
 10
4.8897411523
 20
3.7441119326
 11
4.5387411523
 21
3.7441119326
  0
LINE
  5
2E1
100
AcDbEntity
  8
0
100
AcDbLine
 62
7
  6
CONTINUOUS
 10
4.4907411523
 20
3.7441119326
 11
4.4397411523
 21
3.7441119326
  0
LINE
  5
2E2
100
AcDbEntity
  8
THREAD
100
AcDbLine
 62
7
  6
CONTINUOUS
 10
6.2562355988
 20
3.7671119326
 11
6.2437411523
 21
3.7671119326
  0
LINE
  5
2E3
100
AcDbEntity
  8
0
100
AcDbLine
 62
7
  6
CONTINUOUS
 10
4.5257411523
 20
3.7676119326
 11
4.5037411523
 21
3.7676119326
  0
LINE
  5
2E4
100
AcDbEntity
  8
THREAD
100
AcDbLine
 62
7
  6
CONTINUOUS
 10
6.7547411523
 20
3.7746119326
 11
6.5767411523
 21
3.7746119326
  0
LINE
  5
2E5
100
AcDbEntity
  8
0
100
AcDbLine
 62
7
  6
CONTINUOUS
 10
5.8477411523
 20
3.7746119326
 11
5.6961508082
 21
3.7746119326
  0
LINE
  5
2E6
100
AcDbEntity
  8
0
100
AcDbLine
 62
7
  6
CONTINUOUS
 10
7.4367411523
 20
3.7751119326
 11
7.3897411523
 21
3.7751119326
  0
LINE
  5
2E7
100
AcDbEntity
  8
0
100
AcDbLine
 62
7
  6
CONTINUOUS
 10
7.2387411523
 20
3.7751119326
 11
7.1757411523
 21
3.7751119326
  0
LINE
  5
2E8
100
AcDbEntity
  8
0
100
AcDbLine
 62
7
  6
CONTINUOUS
 10
7.2437411523
 20
3.7756119326
 11
7.2937411523
 21
3.7756119326
  0
LINE
  5
2E9
100
AcDbEntity
  8
0
100
AcDbLine
 62
7
  6
CONTINUOUS
 10
5.8477411523
 20
3.7746119326
 11
5.9826344983
 21
3.7384673695
  0
LINE
  5
2EA
100
AcDbEntity
  8
03__ASM_ALL_CURVES
100
AcDbLine
 62
40
  6
CONTINUOUS
 10
5.9452063889
 20
3.4509744326
 11
5.9361267014
 21
3.4570275578
  0
LINE
  5
2EB
100
AcDbEntity
  8
03__ASM_ALL_CURVES
100
AcDbLine
 62
40
  6
CONTINUOUS
 10
5.9542860764
 20
3.4933463062
 11
5.9633657639
 21
3.4872931826
  0
LINE
  5
2EC
100
AcDbEntity
  8
03__ASM_ALL_CURVES
100
AcDbLine
 62
40
  6
CONTINUOUS
 10
5.9542860764
 20
3.5236119326
 11
5.9633657639
 21
3.517558809
  0
LINE
  5
2ED
100
AcDbEntity
  8
03__ASM_ALL_CURVES
100
AcDbLine
 62
40
  6
CONTINUOUS
 10
4.3611505273
 20
5.2266671012
 11
4.3672036523
 21
5.218596264
  0
LINE
  5
2EE
100
AcDbEntity
  8
03__ASM_ALL_CURVES
100
AcDbLine
 62
40
  6
CONTINUOUS
 10
4.4337880273
 20
5.1459587662
 11
4.4398411523
 21
5.1378879326
  0
LINE
  5
2EF
100
AcDbEntity
  8
03__ASM_ALL_CURVES
100
AcDbLine
 62
40
  6
CONTINUOUS
 10
5.7182142014
 20
3.4570275578
 11
5.7091345139
 21
3.4691338076
  0
LINE
  5
2F0
100
AcDbEntity
  8
03__ASM_ALL_CURVES
100
AcDbLine
 62
40
  6
CONTINUOUS
 10
5.6728157639
 20
3.517558809
 11
5.6773556077
 21
3.5115056812
  0
LINE
  5
2F1
100
AcDbEntity
  8
03__ASM_ALL_CURVES
100
AcDbLine
 62
40
  6
CONTINUOUS
 10
5.7454532639
 20
3.517558809
 11
5.7545329514
 21
3.5054525576
  0
LINE
  5
2F2
100
AcDbEntity
  8
03__ASM_ALL_CURVES
100
AcDbLine
 62
40
  6
CONTINUOUS
 10
4.8454005273
 20
5.1863129326
 11
4.8514536523
 21
5.1701712669
  0
LINE
  5
2F3
100
AcDbEntity
  8
0
100
AcDbLine
 62
7
  6
CONTINUOUS
 10
5.3577411523
 20
3.6891119326
 11
5.3577411523
 21
4.5461119326
  0
LINE
  5
2F4
100
AcDbEntity
  8
0
100
AcDbLine
 62
7
  6
CONTINUOUS
 10
5.4827411523
 20
3.6891119326
 11
5.4827411523
 21
4.5461119326
  0
LINE
  5
2F5
100
AcDbEntity
  8
03__ASM_ALL_CURVES
100
AcDbLine
 62
40
  6
CONTINUOUS
 10
6.4314542772
 20
5.2266671012
 11
6.4435605272
 21
5.2347379326
  0
LINE
  5
2F6
100
AcDbEntity
  8
03__ASM_ALL_CURVES
100
AcDbLine
 62
40
  6
CONTINUOUS
 10
6.3709230272
 20
5.1459587662
 11
6.3588167772
 21
5.1378879326
  0
LINE
  5
2F7
100
AcDbEntity
  8
03__ASM_ALL_CURVES
100
AcDbLine
 62
40
  6
CONTINUOUS
 10
6.4677730272
 20
5.1459587662
 11
6.4556667772
 21
5.1378879326
  0
LINE
  5
2F8
100
AcDbEntity
  8
0
100
AcDbLine
 62
7
  6
CONTINUOUS
 10
7.3637411523
 20
3.8296119326
 11
7.3847411523
 21
3.8296119326
  0
LINE
  5
2F9
100
AcDbEntity
  8
0
100
AcDbLine
 62
7
  6
CONTINUOUS
 10
4.1827411523
 20
3.8366119326
 11
4.352964874
 21
3.8366119326
  0
LINE
  5
2FA
100
AcDbEntity
  8
0
100
AcDbLine
 62
7
  6
CONTINUOUS
 10
6.7647411523
 20
3.8376119326
 11
7.0462411523
 21
3.8376119326
  0
LINE
  5
2FB
100
AcDbEntity
  8
0
100
AcDbLine
 62
7
  6
CONTINUOUS
 10
7.1552411523
 20
3.8376119326
 11
7.1707411523
 21
3.8376119326
  0
LINE
  5
2FC
100
AcDbEntity
  8
0
100
AcDbLine
 62
7
  6
CONTINUOUS
 10
4.3897411523
 20
3.8466119326
 11
4.3587411523
 21
3.8466119326
  0
LINE
  5
2FD
100
AcDbEntity
  8
0
100
AcDbLine
 62
7
  6
CONTINUOUS
 10
4.1457411523
 20
3.8466119326
 11
4.1397411523
 21
3.8466119326
  0
LINE
  5
2FE
100
AcDbEntity
  8
0
100
AcDbLine
 62
7
  6
CONTINUOUS
 10
5.2972411523
 20
3.8479144051
 11
4.9238048182
 21
3.8479144051
  0
LINE
  5
2FF
100
AcDbEntity
  8
0
100
AcDbLine
 62
7
  6
CONTINUOUS
 10
4.1672411523
 20
3.8521119326
 11
4.1512411523
 21
3.8521119326
  0
LINE
  5
300
100
AcDbEntity
  8
0
100
AcDbLine
 62
7
  6
CONTINUOUS
 10
5.2972411523
 20
3.8992069876
 11
4.9238048182
 21
3.8992069876
  0
LINE
  5
301
100
AcDbEntity
  8
0
100
AcDbLine
 62
7
  6
CONTINUOUS
 10
3.6087411523
 20
3.9336119326
 11
3.8077411523
 21
3.9336119326
  0
LINE
  5
302
100
AcDbEntity
  8
0
100
AcDbLine
 62
7
  6
CONTINUOUS
 10
3.8457411523
 20
3.9336119326
 11
4.0777411523
 21
3.9336119326
  0
LINE
  5
303
100
AcDbEntity
  8
0
100
AcDbLine
 62
7
  6
CONTINUOUS
 10
3.8077411523
 20
3.9666119326
 11
3.8092411523
 21
3.9666119326
  0
LINE
  5
304
100
AcDbEntity
  8
0
100
AcDbLine
 62
7
  6
CONTINUOUS
 10
3.8442411523
 20
3.9666119326
 11
3.8457411523
 21
3.9666119326
  0
LINE
  5
305
100
AcDbEntity
  8
03__ASM_ALL_CURVES
100
AcDbLine
 62
40
  6
CONTINUOUS
 10
5.8180907639
 20
3.517558809
 11
5.8226306077
 21
3.5115056812
  0
LINE
  5
306
100
AcDbEntity
  8
03__ASM_ALL_CURVES
100
AcDbLine
 62
40
  6
CONTINUOUS
 10
4.6214349023
 20
5.1459587662
 11
4.6153817773
 21
5.1540295997
  0
LINE
  5
307
100
AcDbEntity
  8
03__ASM_ALL_CURVES
100
AcDbLine
 62
40
  6
CONTINUOUS
 10
5.9361267014
 20
3.4570275578
 11
5.9315868577
 21
3.463080683
  0
LINE
  5
308
100
AcDbEntity
  8
03__ASM_ALL_CURVES
100
AcDbLine
 62
40
  6
CONTINUOUS
 10
4.6456474023
 20
5.2266671012
 11
4.6517005273
 21
5.218596264
  0
LINE
  5
309
100
AcDbEntity
  8
03__ASM_ALL_CURVES
100
AcDbLine
 62
40
  6
CONTINUOUS
 10
5.9633657639
 20
3.4872931826
 11
5.9724454514
 21
3.4751869333
  0
LINE
  5
30A
100
AcDbEntity
  8
03__ASM_ALL_CURVES
100
AcDbLine
 62
40
  6
CONTINUOUS
 10
4.7243380273
 20
5.1540295997
 11
4.7364442773
 21
5.1378879326
  0
LINE
  5
30B
100
AcDbEntity
  8
03__ASM_ALL_CURVES
100
AcDbLine
 62
40
  6
CONTINUOUS
 10
5.9633657639
 20
3.517558809
 11
5.9679056077
 21
3.5115056812
  0
LINE
  5
30C
100
AcDbEntity
  8
03__ASM_ALL_CURVES
100
AcDbLine
 62
40
  6
CONTINUOUS
 10
5.8249005277
 20
3.4122344326
 11
5.8612192777
 21
3.3395969326
  0
LINE
  5
30D
100
AcDbEntity
  8
03__ASM_ALL_CURVES
100
AcDbLine
 62
40
  6
CONTINUOUS
 10
5.675085684
 20
3.4122344326
 11
5.6977849027
 21
3.3395969326
  0
LINE
  5
30E
100
AcDbEntity
  8
0
100
AcDbLine
 62
7
  6
CONTINUOUS
 10
5.5327411523
 20
3.6896125833
 11
5.5327411523
 21
4.5456112819
  0
LINE
  5
30F
100
AcDbEntity
  8
0
100
AcDbLine
 62
7
  6
CONTINUOUS
 10
5.6027411523
 20
4.5266119326
 11
5.6027411523
 21
3.7086119326
  0
LINE
  5
310
100
AcDbEntity
  8
0
100
AcDbLine
 62
7
  6
CONTINUOUS
 10
5.6107411523
 20
3.7436119326
 11
5.6107411523
 21
4.4916119326
  0
LINE
  5
311
100
AcDbEntity
  8
0
100
AcDbLine
 62
7
  6
CONTINUOUS
 10
5.6237411523
 20
3.6891119326
 11
5.6237411523
 21
4.5461119326
  0
LINE
  5
312
100
AcDbEntity
  8
03__ASM_ALL_CURVES
100
AcDbLine
 62
40
  6
CONTINUOUS
 10
5.6410368577
 20
3.4509744326
 11
5.6410368577
 21
3.5236119326
  0
LINE
  5
313
100
AcDbEntity
  8
03__ASM_ALL_CURVES
100
AcDbLine
 62
40
  6
CONTINUOUS
 10
6.9157042772
 20
5.2266671012
 11
6.9278105272
 21
5.2347379326
  0
LINE
  5
314
100
AcDbEntity
  8
126-401_HEX_FEATURES
100
AcDbLine
 62
7
  6
CONTINUOUS
 10
6.5767411523
 20
4.0941188361
 11
6.5763400278
 21
4.0941119326
  0
LINE
  5
315
100
AcDbEntity
  8
03__ASM_ALL_CURVES
100
AcDbLine
 62
40
  6
CONTINUOUS
 10
7.9478130281
 20
4.0256044326
 11
7.9114942781
 21
4.0256044326
  0
LINE
  5
316
100
AcDbEntity
  8
03__ASM_ALL_CURVES
100
AcDbLine
 62
40
  6
CONTINUOUS
 10
7.8388567781
 20
4.0256044326
 11
7.8751755281
 21
4.0256044326
  0
LINE
  5
317
100
AcDbEntity
  8
03__ASM_ALL_CURVES
100
AcDbLine
 62
40
  6
CONTINUOUS
 10
7.9114942781
 20
4.0619231826
 11
7.9341934968
 21
4.0619231826
  0
LINE
  5
318
100
AcDbEntity
  8
03__ASM_ALL_CURVES
100
AcDbLine
 62
40
  6
CONTINUOUS
 10
7.9114942781
 20
4.0982419326
 11
7.9478130281
 21
4.0982419326
  0
LINE
  5
319
100
AcDbEntity
  8
03__ASM_ALL_CURVES
100
AcDbLine
 62
40
  6
CONTINUOUS
 10
7.9795919343
 20
4.0982419326
 11
8.0249903718
 21
4.0982419326
  0
LINE
  5
31A
100
AcDbEntity
  8
0
100
AcDbLine
 62
7
  6
CONTINUOUS
 10
4.3278697419
 20
4.1176119326
 11
4.2262120036
 21
4.1176119326
  0
LINE
  5
31B
100
AcDbEntity
  8
03__ASM_ALL_CURVES
100
AcDbLine
 62
40
  6
CONTINUOUS
 10
7.8070778714
 20
4.1369819326
 11
7.7979981839
 21
4.1369819326
  0
LINE
  5
31C
100
AcDbEntity
  8
03__ASM_ALL_CURVES
100
AcDbLine
 62
40
  6
CONTINUOUS
 10
6.8428774647
 20
3.3395969326
 11
6.8337977772
 21
3.3456500578
  0
LINE
  5
31D
100
AcDbEntity
  8
03__ASM_ALL_CURVES
100
AcDbLine
 62
40
  6
CONTINUOUS
 10
6.9155149647
 20
3.3395969326
 11
6.9064352772
 21
3.3456500578
  0
LINE
  5
31E
100
AcDbEntity
  8
03__ASM_ALL_CURVES
100
AcDbLine
 62
40
  6
CONTINUOUS
 10
6.8519571522
 20
3.4122344326
 11
6.8610368397
 21
3.406181309
  0
LINE
  5
31F
100
AcDbEntity
  8
03__ASM_ALL_CURVES
100
AcDbLine
 62
40
  6
CONTINUOUS
 10
4.8151349023
 20
5.1459587662
 11
4.8090817773
 21
5.1540295997
  0
LINE
  5
320
100
AcDbEntity
  8
03__ASM_ALL_CURVES
100
AcDbLine
 62
40
  6
CONTINUOUS
 10
4.8393474023
 20
5.2266671012
 11
4.8454005273
 21
5.218596264
  0
LINE
  5
321
100
AcDbEntity
  8
03__ASM_ALL_CURVES
100
AcDbLine
 62
40
  6
CONTINUOUS
 10
4.9059317773
 20
5.1459587662
 11
4.8998786523
 21
5.1540295997
  0
LINE
  5
322
100
AcDbEntity
  8
03__ASM_ALL_CURVES
100
AcDbLine
 62
40
  6
CONTINUOUS
 10
4.9422505273
 20
5.1863129326
 11
4.9543567773
 21
5.1701712669
  0
LINE
  5
323
100
AcDbEntity
  8
03__ASM_ALL_CURVES
100
AcDbLine
 62
40
  6
CONTINUOUS
 10
5.8090110764
 20
3.4872931826
 11
5.8226306077
 21
3.4509744326
  0
LINE
  5
324
100
AcDbEntity
  8
03__ASM_ALL_CURVES
100
AcDbLine
 62
40
  6
CONTINUOUS
 10
5.7091345139
 20
3.4691338076
 11
5.7045946702
 21
3.4872931826
  0
LINE
  5
325
100
AcDbEntity
  8
03__ASM_ALL_CURVES
100
AcDbLine
 62
40
  6
CONTINUOUS
 10
5.3175442773
 20
5.218596264
 11
5.3235974023
 21
5.194383764
  0
LINE
  5
326
100
AcDbEntity
  8
03__ASM_ALL_CURVES
100
AcDbLine
 62
40
  6
CONTINUOUS
 10
5.7545329514
 20
3.5054525576
 11
5.7590727952
 21
3.4872931826
  0
LINE
  5
327
100
AcDbEntity
  8
0
100
AcDbLine
 62
7
  6
CONTINUOUS
 10
5.6732411523
 20
3.6891119326
 11
5.6732411523
 21
4.5461119326
  0
LINE
  5
328
100
AcDbEntity
  8
03__ASM_ALL_CURVES
100
AcDbLine
 62
40
  6
CONTINUOUS
 10
5.6773556077
 20
3.5115056812
 11
5.6773556077
 21
3.499399434
  0
LINE
  5
329
100
AcDbEntity
  8
0
100
AcDbLine
 62
7
  6
CONTINUOUS
 10
5.6961508082
 20
3.7746119326
 11
5.6961508082
 21
4.4606119326
  0
LINE
  5
32A
100
AcDbEntity
  8
03__ASM_ALL_CURVES
100
AcDbLine
 62
40
  6
CONTINUOUS
 10
5.7522630277
 20
3.3395969326
 11
5.7522630277
 21
3.4122344326
  0
LINE
  5
32B
100
AcDbEntity
  8
03__ASM_ALL_CURVES
100
AcDbLine
 62
40
  6
CONTINUOUS
 10
5.7863118577
 20
3.4509744326
 11
5.7863118577
 21
3.5236119326
  0
LINE
  5
32C
100
AcDbEntity
  8
03__ASM_ALL_CURVES
100
AcDbLine
 62
40
  6
CONTINUOUS
 10
5.8226306077
 20
3.5115056812
 11
5.8226306077
 21
3.499399434
  0
LINE
  5
32D
100
AcDbEntity
  8
03__ASM_ALL_CURVES
100
AcDbLine
 62
40
  6
CONTINUOUS
 10
6.3224980272
 20
5.2105254326
 11
6.3346042772
 21
5.2266671012
  0
LINE
  5
32E
100
AcDbEntity
  8
03__ASM_ALL_CURVES
100
AcDbLine
 62
40
  6
CONTINUOUS
 10
6.3830292772
 20
5.1621004326
 11
6.3709230272
 21
5.1459587662
  0
LINE
  5
32F
100
AcDbEntity
  8
03__ASM_ALL_CURVES
100
AcDbLine
 62
40
  6
CONTINUOUS
 10
6.4193480272
 20
5.2105254326
 11
6.4314542772
 21
5.2266671012
  0
LINE
  5
330
100
AcDbEntity
  8
03__ASM_ALL_CURVES
100
AcDbLine
 62
40
  6
CONTINUOUS
 10
6.4738261522
 20
5.1540295997
 11
6.4677730272
 21
5.1459587662
  0
LINE
  5
331
100
AcDbEntity
  8
03__ASM_ALL_CURVES
100
AcDbLine
 62
40
  6
CONTINUOUS
 10
6.9520230272
 20
5.1459587662
 11
6.9399167772
 21
5.1378879326
  0
LINE
  5
332
100
AcDbEntity
  8
03__ASM_ALL_CURVES
100
AcDbLine
 62
40
  6
CONTINUOUS
 10
7.1215105272
 20
5.2347379326
 11
7.1094042772
 21
5.2266671012
  0
LINE
  5
333
100
AcDbEntity
  8
03__ASM_ALL_CURVES
100
AcDbLine
 62
40
  6
CONTINUOUS
 10
7.8797153714
 20
4.1733006826
 11
7.8570161527
 21
4.1733006826
  0
LINE
  5
334
100
AcDbEntity
  8
03__ASM_ALL_CURVES
100
AcDbLine
 62
40
  6
CONTINUOUS
 10
7.7344403714
 20
4.1733006826
 11
7.7117411527
 21
4.1733006826
  0
LINE
  5
335
100
AcDbEntity
  8
03__ASM_ALL_CURVES
100
AcDbLine
 62
40
  6
CONTINUOUS
 10
7.7117411527
 20
4.2096194326
 11
7.7344403714
 21
4.2096194326
  0
LINE
  5
336
100
AcDbEntity
  8
03__ASM_ALL_CURVES
100
AcDbLine
 62
40
  6
CONTINUOUS
 10
7.7979981839
 20
4.2096194326
 11
7.8070778714
 21
4.2096194326
  0
LINE
  5
337
100
AcDbEntity
  8
03__ASM_ALL_CURVES
100
AcDbLine
 62
40
  6
CONTINUOUS
 10
7.8570161527
 20
4.2096194326
 11
7.8797153714
 21
4.2096194326
  0
LINE
  5
338
100
AcDbEntity
  8
03__ASM_ALL_CURVES
100
AcDbLine
 62
40
  6
CONTINUOUS
 10
7.9251138089
 20
4.2096194326
 11
7.9705122464
 21
4.2096194326
  0
LINE
  5
339
100
AcDbEntity
  8
0
100
AcDbLine
 62
7
  6
CONTINUOUS
 10
3.8077411523
 20
4.2686119326
 11
3.8457411523
 21
4.2686119326
  0
LINE
  5
33A
100
AcDbEntity
  8
0
100
AcDbLine
 62
7
  6
CONTINUOUS
 10
3.6087411523
 20
4.3016119326
 11
3.8077411523
 21
4.3016119326
  0
LINE
  5
33B
100
AcDbEntity
  8
0
100
AcDbLine
 62
7
  6
CONTINUOUS
 10
3.8457411523
 20
4.3016119326
 11
4.0777411523
 21
4.3016119326
  0
LINE
  5
33C
100
AcDbEntity
  8
126-401_HEX_FEATURES
100
AcDbLine
 62
7
  6
CONTINUOUS
 10
6.5763389894
 20
4.1411119326
 11
6.5767411523
 21
4.1411050291
  0
LINE
  5
33D
100
AcDbEntity
  8
03__ASM_ALL_CURVES
100
AcDbLine
 62
40
  6
CONTINUOUS
 10
6.9495638275
 20
3.4509744326
 11
6.94048414
 21
3.4570275578
  0
LINE
  5
33E
100
AcDbEntity
  8
03__ASM_ALL_CURVES
100
AcDbLine
 62
40
  6
CONTINUOUS
 10
6.886006015
 20
3.5236119326
 11
6.8950857025
 21
3.517558809
  0
LINE
  5
33F
100
AcDbEntity
  8
03__ASM_ALL_CURVES
100
AcDbLine
 62
40
  6
CONTINUOUS
 10
4.3490442773
 20
5.2347379326
 11
4.3611505273
 21
5.2266671012
  0
LINE
  5
340
100
AcDbEntity
  8
03__ASM_ALL_CURVES
100
AcDbLine
 62
40
  6
CONTINUOUS
 10
6.958643515
 20
3.5236119326
 11
6.9677232025
 21
3.517558809
  0
LINE
  5
341
100
AcDbEntity
  8
0
100
AcDbLine
 62
7
  6
CONTINUOUS
 10
5.3577411523
 20
4.5461119326
 11
5.297689916
 21
4.6061631688
  0
LINE
  5
342
100
AcDbEntity
  8
03__ASM_ALL_CURVES
100
AcDbLine
 62
40
  6
CONTINUOUS
 10
4.9422505273
 20
5.2266671012
 11
4.9483036523
 21
5.218596264
  0
LINE
  5
343
100
AcDbEntity
  8
03__ASM_ALL_CURVES
100
AcDbLine
 62
40
  6
CONTINUOUS
 10
5.0148880273
 20
5.1459587662
 11
5.0209411523
 21
5.1378879326
  0
LINE
  5
344
100
AcDbEntity
  8
0
100
AcDbLine
 62
7
  6
CONTINUOUS
 10
5.6961508082
 20
4.4606119326
 11
5.6732411523
 21
4.5461119326
  0
LINE
  5
345
100
AcDbEntity
  8
03__ASM_ALL_CURVES
100
AcDbLine
 62
40
  6
CONTINUOUS
 10
5.8249005277
 20
3.3395969326
 11
5.8249005277
 21
3.4122344326
  0
LINE
  5
346
100
AcDbEntity
  8
0
100
AcDbLine
 62
7
  6
CONTINUOUS
 10
5.8477411523
 20
3.7746119326
 11
5.8477411523
 21
4.4606119326
  0
LINE
  5
347
100
AcDbEntity
  8
03__ASM_ALL_CURVES
100
AcDbLine
 62
40
  6
CONTINUOUS
 10
5.8612192777
 20
3.3395969326
 11
5.8612192777
 21
3.4122344326
  0
LINE
  5
348
100
AcDbEntity
  8
03__ASM_ALL_CURVES
100
AcDbLine
 62
40
  6
CONTINUOUS
 10
5.8771087327
 20
3.5236119326
 11
5.8771087327
 21
3.4509744326
  0
LINE
  5
349
100
AcDbEntity
  8
03__ASM_ALL_CURVES
100
AcDbLine
 62
40
  6
CONTINUOUS
 10
5.9156974027
 20
3.4122344326
 11
5.9156974027
 21
3.3395969326
  0
LINE
  5
34A
100
AcDbEntity
  8
03__ASM_ALL_CURVES
100
AcDbLine
 62
40
  6
CONTINUOUS
 10
5.9605211523
 20
5.1185179326
 11
5.9605211523
 21
5.0797779326
  0
LINE
  5
34B
100
AcDbEntity
  8
03__ASM_ALL_CURVES
100
AcDbLine
 62
40
  6
CONTINUOUS
 10
5.9679056077
 20
3.5115056812
 11
5.9679056077
 21
3.5054525576
  0
LINE
  5
34C
100
AcDbEntity
  8
03__ASM_ALL_CURVES
100
AcDbLine
 62
40
  6
CONTINUOUS
 10
5.9724454514
 20
3.4751869333
 11
5.9724454514
 21
3.4691338076
  0
LINE
  5
34D
100
AcDbEntity
  8
0
100
AcDbLine
 62
7
  6
CONTINUOUS
 10
5.9826344983
 20
3.7384673695
 11
5.9826344983
 21
4.4967564957
  0
LINE
  5
34E
100
AcDbEntity
  8
03__ASM_ALL_CURVES
100
AcDbLine
 62
40
  6
CONTINUOUS
 10
5.7045946702
 20
3.4872931826
 11
5.7091345139
 21
3.5054525576
  0
LINE
  5
34F
100
AcDbEntity
  8
03__ASM_ALL_CURVES
100
AcDbLine
 62
40
  6
CONTINUOUS
 10
5.7590727952
 20
3.4872931826
 11
5.7545329514
 21
3.4691338076
  0
LINE
  5
350
100
AcDbEntity
  8
0
100
AcDbLine
 62
7
  6
CONTINUOUS
 10
5.6961508082
 20
3.7746119326
 11
5.6732411523
 21
3.6891119326
  0
LINE
  5
351
100
AcDbEntity
  8
0
100
AcDbLine
 62
7
  6
CONTINUOUS
 10
6.0217411523
 20
4.5461119326
 11
6.0179898374
 21
4.5321118348
  0
LINE
  5
352
100
AcDbEntity
  8
0
100
AcDbLine
 62
7
  6
CONTINUOUS
 10
5.3577411523
 20
3.6891119326
 11
5.297689916
 21
3.6290606963
  0
LINE
  5
353
100
AcDbEntity
  8
03__ASM_ALL_CURVES
100
AcDbLine
 62
40
  6
CONTINUOUS
 10
7.1457230272
 20
5.1459587662
 11
7.1336167772
 21
5.1378879326
  0
LINE
  5
354
100
AcDbEntity
  8
03__ASM_ALL_CURVES
100
AcDbLine
 62
40
  6
CONTINUOUS
 10
7.3031042772
 20
5.2266671012
 11
7.3152105272
 21
5.2347379326
  0
LINE
  5
355
100
AcDbEntity
  8
03__ASM_ALL_CURVES
100
AcDbLine
 62
40
  6
CONTINUOUS
 10
7.3394230272
 20
5.1459587662
 11
7.3273167772
 21
5.1378879326
  0
LINE
  5
356
100
AcDbEntity
  8
0
100
AcDbLine
 62
7
  6
CONTINUOUS
 10
5.8477411523
 20
4.4606119326
 11
5.9826344983
 21
4.4967564957
  0
LINE
  5
357
100
AcDbEntity
  8
0
100
AcDbLine
 62
7
  6
CONTINUOUS
 10
5.2972411523
 20
4.3360168776
 11
4.9238048182
 21
4.3360168776
  0
LINE
  5
358
100
AcDbEntity
  8
0
100
AcDbLine
 62
7
  6
CONTINUOUS
 10
4.1672411523
 20
4.3831119326
 11
4.1512411523
 21
4.3831119326
  0
LINE
  5
359
100
AcDbEntity
  8
0
100
AcDbLine
 62
7
  6
CONTINUOUS
 10
5.2972411523
 20
4.3873094601
 11
4.9238048182
 21
4.3873094601
  0
LINE
  5
35A
100
AcDbEntity
  8
0
100
AcDbLine
 62
7
  6
CONTINUOUS
 10
4.3897411523
 20
4.3886119326
 11
4.3587411523
 21
4.3886119326
  0
LINE
  5
35B
100
AcDbEntity
  8
0
100
AcDbLine
 62
7
  6
CONTINUOUS
 10
4.1457411523
 20
4.3886119326
 11
4.1397411523
 21
4.3886119326
  0
LINE
  5
35C
100
AcDbEntity
  8
0
100
AcDbLine
 62
7
  6
CONTINUOUS
 10
6.7647411523
 20
4.3976119326
 11
7.0462411523
 21
4.3976119326
  0
LINE
  5
35D
100
AcDbEntity
  8
0
100
AcDbLine
 62
7
  6
CONTINUOUS
 10
7.1552411523
 20
4.3976119326
 11
7.1707411523
 21
4.3976119326
  0
LINE
  5
35E
100
AcDbEntity
  8
0
100
AcDbLine
 62
7
  6
CONTINUOUS
 10
4.1827411523
 20
4.3986119326
 11
4.352964874
 21
4.3986119326
  0
LINE
  5
35F
100
AcDbEntity
  8
0
100
AcDbLine
 62
7
  6
CONTINUOUS
 10
7.3637411523
 20
4.4056119326
 11
7.3847411523
 21
4.4056119326
  0
LINE
  5
360
100
AcDbEntity
  8
0
100
AcDbLine
 62
7
  6
CONTINUOUS
 10
7.2437411523
 20
4.4596119326
 11
7.2937411523
 21
4.4596119326
  0
LINE
  5
361
100
AcDbEntity
  8
0
100
AcDbLine
 62
7
  6
CONTINUOUS
 10
7.4367411523
 20
4.4601119326
 11
7.3897411523
 21
4.4601119326
  0
LINE
  5
362
100
AcDbEntity
  8
0
100
AcDbLine
 62
7
  6
CONTINUOUS
 10
7.2387411523
 20
4.4601119326
 11
7.1757411523
 21
4.4601119326
  0
LINE
  5
363
100
AcDbEntity
  8
THREAD
100
AcDbLine
 62
7
  6
CONTINUOUS
 10
6.7547411523
 20
4.4606119326
 11
6.5767411523
 21
4.4606119326
  0
LINE
  5
364
100
AcDbEntity
  8
0
100
AcDbLine
 62
7
  6
CONTINUOUS
 10
5.8477411523
 20
4.4606119326
 11
5.6961508082
 21
4.4606119326
  0
LINE
  5
365
100
AcDbEntity
  8
0
100
AcDbLine
 62
7
  6
CONTINUOUS
 10
4.5257411523
 20
4.4676119326
 11
4.5037411523
 21
4.4676119326
  0
LINE
  5
366
100
AcDbEntity
  8
THREAD
100
AcDbLine
 62
7
  6
CONTINUOUS
 10
6.2562355988
 20
4.4681119326
 11
6.2437411523
 21
4.4681119326
  0
LINE
  5
367
100
AcDbEntity
  8
03__ASM_ALL_CURVES
100
AcDbLine
 62
40
  6
CONTINUOUS
 10
7.031281015
 20
3.5236119326
 11
7.0403607025
 21
3.517558809
  0
LINE
  5
368
100
AcDbEntity
  8
03__ASM_ALL_CURVES
100
AcDbLine
 62
40
  6
CONTINUOUS
 10
4.6335411523
 20
5.1378879326
 11
4.6214349023
 21
5.1459587662
  0
LINE
  5
369
100
AcDbEntity
  8
03__ASM_ALL_CURVES
100
AcDbLine
 62
40
  6
CONTINUOUS
 10
7.176556015
 20
3.5236119326
 11
7.1856357025
 21
3.517558809
  0
LINE
  5
36A
100
AcDbEntity
  8
03__ASM_ALL_CURVES
100
AcDbLine
 62
40
  6
CONTINUOUS
 10
4.6335411523
 20
5.2347379326
 11
4.6456474023
 21
5.2266671012
  0
LINE
  5
36B
100
AcDbEntity
  8
03__ASM_ALL_CURVES
100
AcDbLine
 62
40
  6
CONTINUOUS
 10
4.8272411523
 20
5.1378879326
 11
4.8151349023
 21
5.1459587662
  0
LINE
  5
36C
100
AcDbEntity
  8
03__ASM_ALL_CURVES
100
AcDbLine
 62
40
  6
CONTINUOUS
 10
5.1359505273
 20
5.2266671012
 11
5.1420036523
 21
5.218596264
  0
LINE
  5
36D
100
AcDbEntity
  8
03__ASM_ALL_CURVES
100
AcDbLine
 62
40
  6
CONTINUOUS
 10
5.3054380273
 20
5.2347379326
 11
5.3175442773
 21
5.218596264
  0
LINE
  5
36E
100
AcDbEntity
  8
THREAD
100
AcDbLine
 62
7
  6
CONTINUOUS
 10
6.2851031122
 20
3.7301119326
 11
6.267493929
 21
3.7606119326
  0
LINE
  5
36F
100
AcDbEntity
  8
0
100
AcDbLine
 62
7
  6
CONTINUOUS
 10
6.0217411523
 20
3.6891119326
 11
6.0179898374
 21
3.7031120304
  0
LINE
  5
370
100
AcDbEntity
  8
0
100
AcDbLine
 62
7
  6
CONTINUOUS
 10
6.0179898374
 20
3.7031120304
 11
6.0179898374
 21
4.5321118348
  0
LINE
  5
371
100
AcDbEntity
  8
0
100
AcDbLine
 62
7
  6
CONTINUOUS
 10
6.0217411523
 20
3.6891119326
 11
6.0217411523
 21
4.5461119326
  0
LINE
  5
372
100
AcDbEntity
  8
0
100
AcDbLine
 62
7
  6
CONTINUOUS
 10
6.0767411523
 20
3.6891119326
 11
6.0767411523
 21
4.5461119326
  0
LINE
  5
373
100
AcDbEntity
  8
03__ASM_ALL_CURVES
100
AcDbLine
 62
40
  6
CONTINUOUS
 10
6.0767411523
 20
4.5654819326
 11
6.0767411523
 21
5.1378879326
  0
LINE
  5
374
100
AcDbEntity
  8
THREAD
100
AcDbLine
 62
7
  6
CONTINUOUS
 10
6.0923296096
 20
3.7126119326
 11
6.0923296096
 21
4.5226119326
  0
LINE
  5
375
100
AcDbEntity
  8
0
100
AcDbLine
 62
7
  6
CONTINUOUS
 10
6.1237411523
 20
4.5266119326
 11
6.1237411523
 21
3.7086119326
  0
LINE
  5
376
100
AcDbEntity
  8
THREAD
100
AcDbLine
 62
7
  6
CONTINUOUS
 10
6.1237411523
 20
3.7126119326
 11
6.1237411523
 21
4.5226119326
  0
LINE
  5
377
100
AcDbEntity
  8
03__ASM_ALL_CURVES
100
AcDbLine
 62
40
  6
CONTINUOUS
 10
6.3164449022
 20
5.1863129326
 11
6.3224980272
 21
5.2105254326
  0
LINE
  5
378
100
AcDbEntity
  8
03__ASM_ALL_CURVES
100
AcDbLine
 62
40
  6
CONTINUOUS
 10
5.6977849027
 20
3.3395969326
 11
5.7204841215
 21
3.4122344326
  0
LINE
  5
379
100
AcDbEntity
  8
THREAD
100
AcDbLine
 62
7
  6
CONTINUOUS
 10
6.2851031122
 20
4.5051119326
 11
6.267493929
 21
4.4746119326
  0
LINE
  5
37A
100
AcDbEntity
  8
03__ASM_ALL_CURVES
100
AcDbLine
 62
40
  6
CONTINUOUS
 10
6.9035980272
 20
5.2105254326
 11
6.9157042772
 21
5.2266671012
  0
LINE
  5
37B
100
AcDbEntity
  8
03__ASM_ALL_CURVES
100
AcDbLine
 62
40
  6
CONTINUOUS
 10
7.4362730272
 20
5.1459587662
 11
7.4241667772
 21
5.1378879326
  0
LINE
  5
37C
100
AcDbEntity
  8
03__ASM_ALL_CURVES
100
AcDbLine
 62
40
  6
CONTINUOUS
 10
7.6239199022
 20
5.1459587662
 11
7.6118136522
 21
5.1378879326
  0
LINE
  5
37D
100
AcDbEntity
  8
0
100
AcDbLine
 62
7
  6
CONTINUOUS
 10
4.8897411523
 20
4.4911119326
 11
4.5387411523
 21
4.4911119326
  0
LINE
  5
37E
100
AcDbEntity
  8
0
100
AcDbLine
 62
7
  6
CONTINUOUS
 10
4.4907411523
 20
4.4911119326
 11
4.4397411523
 21
4.4911119326
  0
LINE
  5
37F
100
AcDbEntity
  8
0
100
AcDbLine
 62
7
  6
CONTINUOUS
 10
5.6107411523
 20
4.4916119326
 11
5.6027411523
 21
4.4916119326
  0
LINE
  5
380
100
AcDbEntity
  8
THREAD
100
AcDbLine
 62
7
  6
CONTINUOUS
 10
6.5322411523
 20
4.5051119326
 11
6.2851031122
 21
4.5051119326
  0
LINE
  5
381
100
AcDbEntity
  8
0
100
AcDbLine
 62
7
  6
CONTINUOUS
 10
6.1937411523
 20
4.5221119326
 11
6.2437411523
 21
4.5221119326
  0
LINE
  5
382
100
AcDbEntity
  8
THREAD
100
AcDbLine
 62
7
  6
CONTINUOUS
 10
6.1237411523
 20
4.5226119326
 11
6.0923296096
 21
4.5226119326
  0
LINE
  5
383
100
AcDbEntity
  8
0
100
AcDbLine
 62
7
  6
CONTINUOUS
 10
5.4827411523
 20
4.5456119326
 11
5.5327411523
 21
4.5456119326
  0
LINE
  5
384
100
AcDbEntity
  8
0
100
AcDbLine
 62
7
  6
CONTINUOUS
 10
6.0767411523
 20
4.5461119326
 11
6.0217411523
 21
4.5461119326
  0
LINE
  5
385
100
AcDbEntity
  8
0
100
AcDbLine
 62
7
  6
CONTINUOUS
 10
5.6732411523
 20
4.5461119326
 11
5.6237411523
 21
4.5461119326
  0
LINE
  5
386
100
AcDbEntity
  8
0
100
AcDbLine
 62
7
  6
CONTINUOUS
 10
5.4827411523
 20
4.5461119326
 11
5.3577411523
 21
4.5461119326
  0
LINE
  5
387
100
AcDbEntity
  8
0
100
AcDbLine
 62
7
  6
CONTINUOUS
 10
5.2972411523
 20
4.6057144051
 11
4.9238048182
 21
4.6057144051
  0
LINE
  5
388
100
AcDbEntity
  8
0
100
AcDbLine
 62
7
  6
CONTINUOUS
 10
5.2972411523
 20
4.6066119326
 11
4.9238048182
 21
4.6066119326
  0
LINE
  5
389
100
AcDbEntity
  8
03__ASM_ALL_CURVES
100
AcDbLine
 62
40
  6
CONTINUOUS
 10
4.6335411523
 20
5.1782420983
 11
4.6153817773
 21
5.1863129326
  0
LINE
  5
38A
100
AcDbEntity
  8
03__ASM_ALL_CURVES
100
AcDbLine
 62
40
  6
CONTINUOUS
 10
4.9180380273
 20
5.1378879326
 11
4.9059317773
 21
5.1459587662
  0
LINE
  5
38B
100
AcDbEntity
  8
03__ASM_ALL_CURVES
100
AcDbLine
 62
40
  6
CONTINUOUS
 10
4.8272411523
 20
5.2347379326
 11
4.8393474023
 21
5.2266671012
  0
LINE
  5
38C
100
AcDbEntity
  8
03__ASM_ALL_CURVES
100
AcDbLine
 62
40
  6
CONTINUOUS
 10
4.9301442773
 20
5.194383764
 11
4.9422505273
 21
5.1863129326
  0
LINE
  5
38D
100
AcDbEntity
  8
03__ASM_ALL_CURVES
100
AcDbLine
 62
40
  6
CONTINUOUS
 10
4.9301442773
 20
5.2347379326
 11
4.9422505273
 21
5.2266671012
  0
LINE
  5
38E
100
AcDbEntity
  8
03__ASM_ALL_CURVES
100
AcDbLine
 62
40
  6
CONTINUOUS
 10
6.8337977772
 20
3.3456500578
 11
6.8247180897
 21
3.3577563076
  0
LINE
  5
38F
100
AcDbEntity
  8
03__ASM_ALL_CURVES
100
AcDbLine
 62
40
  6
CONTINUOUS
 10
6.9064352772
 20
3.3456500578
 11
6.9018954335
 21
3.351703183
  0
LINE
  5
390
100
AcDbEntity
  8
03__ASM_ALL_CURVES
100
AcDbLine
 62
40
  6
CONTINUOUS
 10
6.8610368397
 20
3.406181309
 11
6.8701165272
 21
3.3940750576
  0
LINE
  5
391
100
AcDbEntity
  8
03__ASM_ALL_CURVES
100
AcDbLine
 62
40
  6
CONTINUOUS
 10
6.1929611523
 20
5.1185179326
 11
6.1929611523
 21
5.0797779326
  0
LINE
  5
392
100
AcDbEntity
  8
0
100
AcDbLine
 62
7
  6
CONTINUOUS
 10
6.1937411523
 20
4.5266119326
 11
6.1937411523
 21
3.7086119326
  0
LINE
  5
393
100
AcDbEntity
  8
03__ASM_ALL_CURVES
100
AcDbLine
 62
40
  6
CONTINUOUS
 10
6.2317011522
 20
5.2347379326
 11
6.2317011522
 21
5.1378879326
  0
LINE
  5
394
100
AcDbEntity
  8
0
100
AcDbLine
 62
7
  6
CONTINUOUS
 10
6.2437411523
 20
3.7131125476
 11
6.2437411523
 21
4.5221113176
  0
LINE
  5
395
100
AcDbEntity
  8
0
100
AcDbLine
 62
7
  6
CONTINUOUS
 10
6.2562355988
 20
3.7671119326
 11
6.2562355988
 21
4.4681119326
  0
LINE
  5
396
100
AcDbEntity
  8
0
100
AcDbLine
 62
7
  6
CONTINUOUS
 10
6.267493929
 20
3.7606119326
 11
6.267493929
 21
4.4746119326
  0
LINE
  5
397
100
AcDbEntity
  8
THREAD
100
AcDbLine
 62
7
  6
CONTINUOUS
 10
6.2851031122
 20
3.7301119326
 11
6.2851031122
 21
4.5051119326
  0
LINE
  5
398
100
AcDbEntity
  8
03__ASM_ALL_CURVES
100
AcDbLine
 62
40
  6
CONTINUOUS
 10
6.3890824022
 20
5.1863129326
 11
6.3830292772
 21
5.1621004326
  0
LINE
  5
399
100
AcDbEntity
  8
03__ASM_ALL_CURVES
100
AcDbLine
 62
40
  6
CONTINUOUS
 10
6.4132949022
 20
5.1863129326
 11
6.4193480272
 21
5.2105254326
  0
LINE
  5
39A
100
AcDbEntity
  8
03__ASM_ALL_CURVES
100
AcDbLine
 62
40
  6
CONTINUOUS
 10
6.5161980272
 20
5.1378879326
 11
6.5464636522
 21
5.2347379326
  0
LINE
  5
39B
100
AcDbEntity
  8
03__ASM_ALL_CURVES
100
AcDbLine
 62
40
  6
CONTINUOUS
 10
5.6773556077
 20
3.499399434
 11
5.6728157639
 21
3.4933463062
  0
LINE
  5
39C
100
AcDbEntity
  8
03__ASM_ALL_CURVES
100
AcDbLine
 62
40
  6
CONTINUOUS
 10
5.7091345139
 20
3.5054525576
 11
5.7182142014
 21
3.517558809
  0
LINE
  5
39D
100
AcDbEntity
  8
03__ASM_ALL_CURVES
100
AcDbLine
 62
40
  6
CONTINUOUS
 10
6.9580761522
 20
5.1540295997
 11
6.9520230272
 21
5.1459587662
  0
LINE
  5
39E
100
AcDbEntity
  8
03__ASM_ALL_CURVES
100
AcDbLine
 62
40
  6
CONTINUOUS
 10
5.7545329514
 20
3.4691338076
 11
5.7454532639
 21
3.4570275578
  0
LINE
  5
39F
100
AcDbEntity
  8
03__ASM_ALL_CURVES
100
AcDbLine
 62
40
  6
CONTINUOUS
 10
7.1094042772
 20
5.2266671012
 11
7.1033511522
 21
5.218596264
  0
LINE
  5
3A0
100
AcDbEntity
  8
03__ASM_ALL_CURVES
100
AcDbLine
 62
40
  6
CONTINUOUS
 10
5.8226306077
 20
3.499399434
 11
5.8180907639
 21
3.4933463062
  0
LINE
  5
3A1
100
AcDbEntity
  8
03__ASM_ALL_CURVES
100
AcDbLine
 62
40
  6
CONTINUOUS
 10
7.8236730272
 20
5.194383764
 11
7.8115667772
 21
5.1863129326
  0
LINE
  5
3A2
100
AcDbEntity
  8
03__ASM_ALL_CURVES
100
AcDbLine
 62
40
  6
CONTINUOUS
 10
3.6939611523
 20
5.0830062659
 11
3.5777411523
 21
5.0991479326
  0
LINE
  5
3A3
100
AcDbEntity
  8
03__ASM_ALL_CURVES
100
AcDbLine
 62
40
  6
CONTINUOUS
 10
3.6939611523
 20
5.0797779326
 11
3.5777411523
 21
5.0991479326
  0
LINE
  5
3A4
100
AcDbEntity
  8
03__ASM_ALL_CURVES
100
AcDbLine
 62
40
  6
CONTINUOUS
 10
4.8272411523
 20
5.194383764
 11
4.8454005273
 21
5.1863129326
  0
LINE
  5
3A5
100
AcDbEntity
  8
THREAD
100
AcDbLine
 62
7
  6
CONTINUOUS
 10
6.0923296096
 20
4.5226119326
 11
6.0767411523
 21
4.5316119326
  0
LINE
  5
3A6
100
AcDbEntity
  8
03__ASM_ALL_CURVES
100
AcDbLine
 62
40
  6
CONTINUOUS
 10
5.1238442773
 20
5.2347379326
 11
5.1359505273
 21
5.2266671012
  0
LINE
  5
3A7
100
AcDbEntity
  8
03__ASM_ALL_CURVES
100
AcDbLine
 62
40
  6
CONTINUOUS
 10
6.94048414
 20
3.4570275578
 11
6.9314044525
 21
3.4691338076
  0
LINE
  5
3A8
100
AcDbEntity
  8
03__ASM_ALL_CURVES
100
AcDbLine
 62
40
  6
CONTINUOUS
 10
6.8950857025
 20
3.517558809
 11
6.8996255462
 21
3.5115056812
  0
LINE
  5
3A9
100
AcDbEntity
  8
03__ASM_ALL_CURVES
100
AcDbLine
 62
40
  6
CONTINUOUS
 10
6.9677232025
 20
3.517558809
 11
6.97680289
 21
3.5054525576
  0
LINE
  5
3AA
100
AcDbEntity
  8
03__ASM_ALL_CURVES
100
AcDbLine
 62
40
  6
CONTINUOUS
 10
7.1517761522
 20
5.1540295997
 11
7.1457230272
 21
5.1459587662
  0
LINE
  5
3AB
100
AcDbEntity
  8
03__ASM_ALL_CURVES
100
AcDbLine
 62
40
  6
CONTINUOUS
 10
5.9679056077
 20
3.5054525576
 11
5.9633657639
 21
3.499399434
  0
LINE
  5
3AC
100
AcDbEntity
  8
03__ASM_ALL_CURVES
100
AcDbLine
 62
40
  6
CONTINUOUS
 10
5.9724454514
 20
3.4691338076
 11
5.9633657639
 21
3.4570275578
  0
LINE
  5
3AD
100
AcDbEntity
  8
03__ASM_ALL_CURVES
100
AcDbLine
 62
40
  6
CONTINUOUS
 10
7.2909980272
 20
5.2105254326
 11
7.3031042772
 21
5.2266671012
  0
LINE
  5
3AE
100
AcDbEntity
  8
03__ASM_ALL_CURVES
100
AcDbLine
 62
40
  6
CONTINUOUS
 10
5.6728157639
 20
3.4933463062
 11
5.6637360764
 21
3.4872931826
  0
LINE
  5
3AF
100
AcDbEntity
  8
03__ASM_ALL_CURVES
100
AcDbLine
 62
40
  6
CONTINUOUS
 10
5.7182142014
 20
3.517558809
 11
5.7272938889
 21
3.5236119326
  0
LINE
  5
3B0
100
AcDbEntity
  8
03__ASM_ALL_CURVES
100
AcDbLine
 62
40
  6
CONTINUOUS
 10
5.7454532639
 20
3.4570275578
 11
5.7363735764
 21
3.4509744326
  0
LINE
  5
3B1
100
AcDbEntity
  8
THREAD
100
AcDbLine
 62
7
  6
CONTINUOUS
 10
6.0923296096
 20
3.7126119326
 11
6.0767411523
 21
3.7036119326
  0
LINE
  5
3B2
100
AcDbEntity
  8
03__ASM_ALL_CURVES
100
AcDbLine
 62
40
  6
CONTINUOUS
 10
3.6939611523
 20
5.0894629326
 11
3.5777411523
 21
5.0991479326
  0
LINE
  5
3B3
100
AcDbEntity
  8
03__ASM_ALL_CURVES
100
AcDbLine
 62
40
  6
CONTINUOUS
 10
3.6939611523
 20
5.0862345993
 11
3.5777411523
 21
5.0991479326
  0
LINE
  5
3B4
100
AcDbEntity
  8
0
100
AcDbLine
 62
7
  6
CONTINUOUS
 10
7.1757411523
 20
3.7751119326
 11
7.1707411523
 21
3.7801119326
  0
LINE
  5
3B5
100
AcDbEntity
  8
03__ASM_ALL_CURVES
100
AcDbLine
 62
40
  6
CONTINUOUS
 10
7.0403607025
 20
3.517558809
 11
7.0449005462
 21
3.5115056812
  0
LINE
  5
3B6
100
AcDbEntity
  8
03__ASM_ALL_CURVES
100
AcDbLine
 62
40
  6
CONTINUOUS
 10
7.1856357025
 20
3.517558809
 11
7.1901755462
 21
3.5115056812
  0
LINE
  5
3B7
100
AcDbEntity
  8
THREAD
100
AcDbLine
 62
7
  6
CONTINUOUS
 10
6.5322411523
 20
3.7301119326
 11
6.5322411523
 21
4.5051119326
  0
LINE
  5
3B8
100
AcDbEntity
  8
126-401_HEX_FEATURES
100
AcDbLine
 62
7
  6
CONTINUOUS
 10
6.5767411523
 20
3.7746119326
 11
6.5767411523
 21
4.0941188361
  0
LINE
  5
3B9
100
AcDbEntity
  8
126-401_HEX_FEATURES
100
AcDbLine
 62
7
  6
CONTINUOUS
 10
6.5767411523
 20
4.1411050291
 11
6.5767411523
 21
4.4606119326
  0
LINE
  5
3BA
100
AcDbEntity
  8
03__ASM_ALL_CURVES
100
AcDbLine
 62
40
  6
CONTINUOUS
 10
7.3515292772
 20
5.1621004326
 11
7.3394230272
 21
5.1459587662
  0
LINE
  5
3BB
100
AcDbEntity
  8
03__ASM_ALL_CURVES
100
AcDbLine
 62
40
  6
CONTINUOUS
 10
7.4423261522
 20
5.1540295997
 11
7.4362730272
 21
5.1459587662
  0
LINE
  5
3BC
100
AcDbEntity
  8
03__ASM_ALL_CURVES
100
AcDbLine
 62
40
  6
CONTINUOUS
 10
5.8180907639
 20
3.4933463062
 11
5.8090110764
 21
3.4872931826
  0
LINE
  5
3BD
100
AcDbEntity
  8
03__ASM_ALL_CURVES
100
AcDbLine
 62
40
  6
CONTINUOUS
 10
5.9361267014
 20
3.517558809
 11
5.9452063889
 21
3.5236119326
  0
LINE
  5
3BE
100
AcDbEntity
  8
03__ASM_ALL_CURVES
100
AcDbLine
 62
40
  6
CONTINUOUS
 10
5.9633657639
 20
3.499399434
 11
5.9542860764
 21
3.4933463062
  0
LINE
  5
3BF
100
AcDbEntity
  8
03__ASM_ALL_CURVES
100
AcDbLine
 62
40
  6
CONTINUOUS
 10
5.9633657639
 20
3.4570275578
 11
5.9542860764
 21
3.4509744326
  0
LINE
  5
3C0
100
AcDbEntity
  8
03__ASM_ALL_CURVES
100
AcDbLine
 62
40
  6
CONTINUOUS
 10
5.9605211523
 20
5.0797779326
 11
6.1929611523
 21
5.1185179326
  0
LINE
  5
3C1
100
AcDbEntity
  8
03__ASM_ALL_CURVES
100
AcDbLine
 62
40
  6
CONTINUOUS
 10
5.9605211523
 20
5.0830062659
 11
6.1929611523
 21
5.1152895993
  0
LINE
  5
3C2
100
AcDbEntity
  8
03__ASM_ALL_CURVES
100
AcDbLine
 62
40
  6
CONTINUOUS
 10
5.9605211523
 20
5.0862345993
 11
6.1929611523
 21
5.1120612659
  0
LINE
  5
3C3
100
AcDbEntity
  8
03__ASM_ALL_CURVES
100
AcDbLine
 62
40
  6
CONTINUOUS
 10
5.9605211523
 20
5.0894629326
 11
6.1929611523
 21
5.1088329326
  0
LINE
  5
3C4
100
AcDbEntity
  8
03__ASM_ALL_CURVES
100
AcDbLine
 62
40
  6
CONTINUOUS
 10
5.9605211523
 20
5.0926912659
 11
6.1929611523
 21
5.1056045993
  0
LINE
  5
3C5
100
AcDbEntity
  8
03__ASM_ALL_CURVES
100
AcDbLine
 62
40
  6
CONTINUOUS
 10
5.9605211523
 20
5.0959195993
 11
6.1929611523
 21
5.1023762659
  0
LINE
  5
3C6
100
AcDbEntity
  8
03__ASM_ALL_CURVES
100
AcDbLine
 62
40
  6
CONTINUOUS
 10
3.5777411523
 20
5.0991479326
 11
7.9362611523
 21
5.0991479326
  0
LINE
  5
3C7
100
AcDbEntity
  8
03__ASM_ALL_CURVES
100
AcDbLine
 62
40
  6
CONTINUOUS
 10
3.6939611523
 20
5.0959195993
 11
3.5777411523
 21
5.0991479326
  0
LINE
  5
3C8
100
AcDbEntity
  8
03__ASM_ALL_CURVES
100
AcDbLine
 62
40
  6
CONTINUOUS
 10
5.9605211523
 20
5.1023762659
 11
6.1929611523
 21
5.0959195993
  0
LINE
  5
3C9
100
AcDbEntity
  8
03__ASM_ALL_CURVES
100
AcDbLine
 62
40
  6
CONTINUOUS
 10
3.6939611523
 20
5.0926912659
 11
3.5777411523
 21
5.0991479326
  0
LINE
  5
3CA
100
AcDbEntity
  8
03__ASM_ALL_CURVES
100
AcDbLine
 62
40
  6
CONTINUOUS
 10
5.9605211523
 20
5.1056045993
 11
6.1929611523
 21
5.0926912659
  0
LINE
  5
3CB
100
AcDbEntity
  8
THREAD
100
AcDbLine
 62
7
  6
CONTINUOUS
 10
6.5767411523
 20
4.4606119326
 11
6.5322411523
 21
4.5051119326
  0
LINE
  5
3CC
100
AcDbEntity
  8
0
100
AcDbLine
 62
7
  6
CONTINUOUS
 10
7.3897411523
 20
3.7751119326
 11
7.3847411523
 21
3.7801119326
  0
LINE
  5
3CD
100
AcDbEntity
  8
0
100
AcDbLine
 62
7
  6
CONTINUOUS
 10
6.7647411523
 20
4.4506119326
 11
6.7547411523
 21
4.4606119326
  0
LINE
  5
3CE
100
AcDbEntity
  8
03__ASM_ALL_CURVES
100
AcDbLine
 62
40
  6
CONTINUOUS
 10
6.3224980272
 20
5.1621004326
 11
6.3164449022
 21
5.1863129326
  0
LINE
  5
3CF
100
AcDbEntity
  8
03__ASM_ALL_CURVES
100
AcDbLine
 62
40
  6
CONTINUOUS
 10
6.8247180897
 20
3.3577563076
 11
6.820178246
 21
3.3759156826
  0
LINE
  5
3D0
100
AcDbEntity
  8
03__ASM_ALL_CURVES
100
AcDbLine
 62
40
  6
CONTINUOUS
 10
6.3830292772
 20
5.2105254326
 11
6.3890824022
 21
5.1863129326
  0
LINE
  5
3D1
100
AcDbEntity
  8
03__ASM_ALL_CURVES
100
AcDbLine
 62
40
  6
CONTINUOUS
 10
6.4193480272
 20
5.1621004326
 11
6.4132949022
 21
5.1863129326
  0
LINE
  5
3D2
100
AcDbEntity
  8
03__ASM_ALL_CURVES
100
AcDbLine
 62
40
  6
CONTINUOUS
 10
6.8701165272
 20
3.3940750576
 11
6.874656371
 21
3.3759156826
  0
LINE
  5
3D3
100
AcDbEntity
  8
03__ASM_ALL_CURVES
100
AcDbLine
 62
40
  6
CONTINUOUS
 10
6.6433136522
 20
5.2347379326
 11
6.6433136522
 21
5.1378879326
  0
LINE
  5
3D4
100
AcDbEntity
  8
03__ASM_ALL_CURVES
100
AcDbLine
 62
40
  6
CONTINUOUS
 10
6.7401636522
 20
5.2347379326
 11
6.7401636522
 21
5.1378879326
  0
LINE
  5
3D5
100
AcDbEntity
  8
0
100
AcDbLine
 62
7
  6
CONTINUOUS
 10
6.7547411523
 20
3.7746119326
 11
6.7547411523
 21
4.4606119326
  0
LINE
  5
3D6
100
AcDbEntity
  8
0
100
AcDbLine
 62
7
  6
CONTINUOUS
 10
6.7647411523
 20
3.7846119326
 11
6.7647411523
 21
4.4506119326
  0
LINE
  5
3D7
100
AcDbEntity
  8
03__ASM_ALL_CURVES
100
AcDbLine
 62
40
  6
CONTINUOUS
 10
6.8975449022
 20
5.1863129326
 11
6.9035980272
 21
5.2105254326
  0
LINE
  5
3D8
100
AcDbEntity
  8
03__ASM_ALL_CURVES
100
AcDbLine
 62
40
  6
CONTINUOUS
 10
7.6360261522
 20
5.1621004326
 11
7.6239199022
 21
5.1459587662
  0
LINE
  5
3D9
100
AcDbEntity
  8
0
100
AcDbLine
 62
7
  6
CONTINUOUS
 10
7.1757411523
 20
4.4601119326
 11
7.1707411523
 21
4.4551119326
  0
LINE
  5
3DA
100
AcDbEntity
  8
THREAD
100
AcDbLine
 62
7
  6
CONTINUOUS
 10
6.5767411523
 20
3.7746119326
 11
6.5322411523
 21
3.7301119326
  0
LINE
  5
3DB
100
AcDbEntity
  8
03__ASM_ALL_CURVES
100
AcDbLine
 62
40
  6
CONTINUOUS
 10
3.6939611523
 20
5.1056045993
 11
3.5777411523
 21
5.0991479326
  0
LINE
  5
3DC
100
AcDbEntity
  8
03__ASM_ALL_CURVES
100
AcDbLine
 62
40
  6
CONTINUOUS
 10
3.6939611523
 20
5.1023762659
 11
3.5777411523
 21
5.0991479326
  0
LINE
  5
3DD
100
AcDbEntity
  8
03__ASM_ALL_CURVES
100
AcDbLine
 62
40
  6
CONTINUOUS
 10
7.7328761522
 20
5.1378879326
 11
7.6844511522
 21
5.1378879326
  0
LINE
  5
3DE
100
AcDbEntity
  8
03__ASM_ALL_CURVES
100
AcDbLine
 62
40
  6
CONTINUOUS
 10
7.6118136522
 20
5.1378879326
 11
7.5876011522
 21
5.1378879326
  0
LINE
  5
3DF
100
AcDbEntity
  8
03__ASM_ALL_CURVES
100
AcDbLine
 62
40
  6
CONTINUOUS
 10
7.4241667772
 20
5.1378879326
 11
7.4120605272
 21
5.1378879326
  0
LINE
  5
3E0
100
AcDbEntity
  8
03__ASM_ALL_CURVES
100
AcDbLine
 62
40
  6
CONTINUOUS
 10
7.3273167772
 20
5.1378879326
 11
7.3152105272
 21
5.1378879326
  0
LINE
  5
3E1
100
AcDbEntity
  8
03__ASM_ALL_CURVES
100
AcDbLine
 62
40
  6
CONTINUOUS
 10
7.1336167772
 20
5.1378879326
 11
7.1215105272
 21
5.1378879326
  0
LINE
  5
3E2
100
AcDbEntity
  8
03__ASM_ALL_CURVES
100
AcDbLine
 62
40
  6
CONTINUOUS
 10
6.9399167772
 20
5.1378879326
 11
6.9278105272
 21
5.1378879326
  0
LINE
  5
3E3
100
AcDbEntity
  8
03__ASM_ALL_CURVES
100
AcDbLine
 62
40
  6
CONTINUOUS
 10
6.4556667772
 20
5.1378879326
 11
6.4435605272
 21
5.1378879326
  0
LINE
  5
3E4
100
AcDbEntity
  8
03__ASM_ALL_CURVES
100
AcDbLine
 62
40
  6
CONTINUOUS
 10
6.3588167772
 20
5.1378879326
 11
6.3467105272
 21
5.1378879326
  0
LINE
  5
3E5
100
AcDbEntity
  8
03__ASM_ALL_CURVES
100
AcDbLine
 62
40
  6
CONTINUOUS
 10
5.0209411523
 20
5.1378879326
 11
5.0148880273
 21
5.1378879326
  0
LINE
  5
3E6
100
AcDbEntity
  8
03__ASM_ALL_CURVES
100
AcDbLine
 62
40
  6
CONTINUOUS
 10
4.9301442773
 20
5.1378879326
 11
4.9180380273
 21
5.1378879326
  0
LINE
  5
3E7
100
AcDbEntity
  8
03__ASM_ALL_CURVES
100
AcDbLine
 62
40
  6
CONTINUOUS
 10
4.4398411523
 20
5.1378879326
 11
4.4337880273
 21
5.1378879326
  0
LINE
  5
3E8
100
AcDbEntity
  8
03__ASM_ALL_CURVES
100
AcDbLine
 62
40
  6
CONTINUOUS
 10
4.3187786523
 20
5.1378879326
 11
4.3672036523
 21
5.1378879326
  0
LINE
  5
3E9
100
AcDbEntity
  8
03__ASM_ALL_CURVES
100
AcDbLine
 62
40
  6
CONTINUOUS
 10
5.0935786523
 20
5.1378879326
 11
5.1420036523
 21
5.1378879326
  0
LINE
  5
3EA
100
AcDbEntity
  8
03__ASM_ALL_CURVES
100
AcDbLine
 62
40
  6
CONTINUOUS
 10
6.2317011522
 20
5.1378879326
 11
6.2801261522
 21
5.1378879326
  0
LINE
  5
3EB
100
AcDbEntity
  8
03__ASM_ALL_CURVES
100
AcDbLine
 62
40
  6
CONTINUOUS
 10
7.4907511522
 20
5.1378879326
 11
7.5391761522
 21
5.1378879326
  0
LINE
  5
3EC
100
AcDbEntity
  8
03__ASM_ALL_CURVES
100
AcDbLine
 62
40
  6
CONTINUOUS
 10
4.5124786523
 20
5.1621004326
 11
4.5669567773
 21
5.1621004326
  0
LINE
  5
3ED
100
AcDbEntity
  8
03__ASM_ALL_CURVES
100
AcDbLine
 62
40
  6
CONTINUOUS
 10
5.1904286523
 20
5.1621004326
 11
5.2449067773
 21
5.1621004326
  0
LINE
  5
3EE
100
AcDbEntity
  8
03__ASM_ALL_CURVES
100
AcDbLine
 62
40
  6
CONTINUOUS
 10
6.5283042772
 20
5.1701712669
 11
6.5646230272
 21
5.1701712669
  0
LINE
  5
3EF
100
AcDbEntity
  8
03__ASM_ALL_CURVES
100
AcDbLine
 62
40
  6
CONTINUOUS
 10
7.8115667772
 20
5.1863129326
 11
7.7813011522
 21
5.1863129326
  0
LINE
  5
3F0
100
AcDbEntity
  8
03__ASM_ALL_CURVES
100
AcDbLine
 62
40
  6
CONTINUOUS
 10
6.9338636522
 20
5.1863129326
 11
6.9580761522
 21
5.1863129326
  0
LINE
  5
3F1
100
AcDbEntity
  8
03__ASM_ALL_CURVES
100
AcDbLine
 62
40
  6
CONTINUOUS
 10
7.2002011522
 20
5.1863129326
 11
7.2486261522
 21
5.1863129326
  0
LINE
  5
3F2
100
AcDbEntity
  8
03__ASM_ALL_CURVES
100
AcDbLine
 62
40
  6
CONTINUOUS
 10
7.6844511522
 20
5.1863129326
 11
7.7147167772
 21
5.1863129326
  0
LINE
  5
3F3
100
AcDbEntity
  8
03__ASM_ALL_CURVES
100
AcDbLine
 62
40
  6
CONTINUOUS
 10
4.9180380273
 20
5.194383764
 11
4.9301442773
 21
5.194383764
  0
LINE
  5
3F4
100
AcDbEntity
  8
03__ASM_ALL_CURVES
100
AcDbLine
 62
40
  6
CONTINUOUS
 10
7.1336167772
 20
5.2347379326
 11
7.1215105272
 21
5.2347379326
  0
LINE
  5
3F5
100
AcDbEntity
  8
03__ASM_ALL_CURVES
100
AcDbLine
 62
40
  6
CONTINUOUS
 10
4.3369380273
 20
5.2347379326
 11
4.3490442773
 21
5.2347379326
  0
LINE
  5
3F6
100
AcDbEntity
  8
03__ASM_ALL_CURVES
100
AcDbLine
 62
40
  6
CONTINUOUS
 10
4.9180380273
 20
5.2347379326
 11
4.9301442773
 21
5.2347379326
  0
LINE
  5
3F7
100
AcDbEntity
  8
03__ASM_ALL_CURVES
100
AcDbLine
 62
40
  6
CONTINUOUS
 10
5.1117380273
 20
5.2347379326
 11
5.1238442773
 21
5.2347379326
  0
LINE
  5
3F8
100
AcDbEntity
  8
03__ASM_ALL_CURVES
100
AcDbLine
 62
40
  6
CONTINUOUS
 10
6.3467105272
 20
5.2347379326
 11
6.3588167772
 21
5.2347379326
  0
LINE
  5
3F9
100
AcDbEntity
  8
03__ASM_ALL_CURVES
100
AcDbLine
 62
40
  6
CONTINUOUS
 10
6.4435605272
 20
5.2347379326
 11
6.4556667772
 21
5.2347379326
  0
LINE
  5
3FA
100
AcDbEntity
  8
03__ASM_ALL_CURVES
100
AcDbLine
 62
40
  6
CONTINUOUS
 10
6.6130480272
 20
5.2347379326
 11
6.6735792772
 21
5.2347379326
  0
LINE
  5
3FB
100
AcDbEntity
  8
03__ASM_ALL_CURVES
100
AcDbLine
 62
40
  6
CONTINUOUS
 10
6.9278105272
 20
5.2347379326
 11
6.9399167772
 21
5.2347379326
  0
LINE
  5
3FC
100
AcDbEntity
  8
03__ASM_ALL_CURVES
100
AcDbLine
 62
40
  6
CONTINUOUS
 10
7.3152105272
 20
5.2347379326
 11
7.3273167772
 21
5.2347379326
  0
LINE
  5
3FD
100
AcDbEntity
  8
03__ASM_ALL_CURVES
100
AcDbLine
 62
40
  6
CONTINUOUS
 10
7.5876011522
 20
5.2347379326
 11
7.6118136522
 21
5.2347379326
  0
LINE
  5
3FE
100
AcDbEntity
  8
03__ASM_ALL_CURVES
100
AcDbLine
 62
40
  6
CONTINUOUS
 10
7.6844511522
 20
5.2347379326
 11
7.7328761522
 21
5.2347379326
  0
LINE
  5
3FF
100
AcDbEntity
  8
03__ASM_ALL_CURVES
100
AcDbLine
 62
40
  6
CONTINUOUS
 10
7.7813011522
 20
5.2347379326
 11
7.8115667772
 21
5.2347379326
  0
LINE
  5
400
100
AcDbEntity
  8
03__ASM_ALL_CURVES
100
AcDbLine
 62
40
  6
CONTINUOUS
 10
5.9605211523
 20
5.1088329326
 11
6.1929611523
 21
5.0894629326
  0
LINE
  5
401
100
AcDbEntity
  8
03__ASM_ALL_CURVES
100
AcDbLine
 62
40
  6
CONTINUOUS
 10
5.9605211523
 20
5.1120612659
 11
6.1929611523
 21
5.0862345993
  0
LINE
  5
402
100
AcDbEntity
  8
03__ASM_ALL_CURVES
100
AcDbLine
 62
40
  6
CONTINUOUS
 10
5.9605211523
 20
5.1152895993
 11
6.1929611523
 21
5.0830062659
  0
LINE
  5
403
100
AcDbEntity
  8
03__ASM_ALL_CURVES
100
AcDbLine
 62
40
  6
CONTINUOUS
 10
6.1929611523
 20
5.0797779326
 11
5.9605211523
 21
5.1185179326
  0
LINE
  5
404
100
AcDbEntity
  8
03__ASM_ALL_CURVES
100
AcDbLine
 62
40
  6
CONTINUOUS
 10
7.7979981839
 20
4.1369819326
 11
7.7889184964
 21
4.1430350578
  0
LINE
  5
405
100
AcDbEntity
  8
03__ASM_ALL_CURVES
100
AcDbLine
 62
40
  6
CONTINUOUS
 10
6.3346042772
 20
5.1459587662
 11
6.3224980272
 21
5.1621004326
  0
LINE
  5
406
100
AcDbEntity
  8
03__ASM_ALL_CURVES
100
AcDbLine
 62
40
  6
CONTINUOUS
 10
7.031281015
 20
3.4872931826
 11
7.0449005462
 21
3.4509744326
  0
LINE
  5
407
100
AcDbEntity
  8
03__ASM_ALL_CURVES
100
AcDbLine
 62
40
  6
CONTINUOUS
 10
6.9314044525
 20
3.4691338076
 11
6.9268646087
 21
3.4872931826
  0
LINE
  5
408
100
AcDbEntity
  8
03__ASM_ALL_CURVES
100
AcDbLine
 62
40
  6
CONTINUOUS
 10
6.97680289
 20
3.5054525576
 11
6.9813427337
 21
3.4872931826
  0
LINE
  5
409
100
AcDbEntity
  8
03__ASM_ALL_CURVES
100
AcDbLine
 62
40
  6
CONTINUOUS
 10
6.8128011522
 20
5.1378879326
 11
6.8128011522
 21
5.2347379326
  0
LINE
  5
40A
100
AcDbEntity
  8
03__ASM_ALL_CURVES
100
AcDbLine
 62
40
  6
CONTINUOUS
 10
6.8612261522
 20
5.1378879326
 11
6.8612261522
 21
5.2347379326
  0
LINE
  5
40B
100
AcDbEntity
  8
03__ASM_ALL_CURVES
100
AcDbLine
 62
40
  6
CONTINUOUS
 10
6.8633067962
 20
3.4509744326
 11
6.8633067962
 21
3.5236119326
  0
LINE
  5
40C
100
AcDbEntity
  8
03__ASM_ALL_CURVES
100
AcDbLine
 62
40
  6
CONTINUOUS
 10
6.8996255462
 20
3.5115056812
 11
6.8996255462
 21
3.499399434
  0
LINE
  5
40D
100
AcDbEntity
  8
03__ASM_ALL_CURVES
100
AcDbLine
 62
40
  6
CONTINUOUS
 10
6.9018954335
 20
3.351703183
 11
6.9018954335
 21
3.4122344326
  0
LINE
  5
40E
100
AcDbEntity
  8
03__ASM_ALL_CURVES
100
AcDbLine
 62
40
  6
CONTINUOUS
 10
6.9382141835
 20
3.4122344326
 11
6.9382141835
 21
3.351703183
  0
LINE
  5
40F
100
AcDbEntity
  8
03__ASM_ALL_CURVES
100
AcDbLine
 62
40
  6
CONTINUOUS
 10
7.8297261522
 20
5.2024546012
 11
7.8236730272
 21
5.194383764
  0
LINE
  5
410
100
AcDbEntity
  8
0
100
AcDbLine
 62
7
  6
CONTINUOUS
 10
7.3897411523
 20
4.4601119326
 11
7.3847411523
 21
4.4551119326
  0
LINE
  5
411
100
AcDbEntity
  8
0
100
AcDbLine
 62
7
  6
CONTINUOUS
 10
6.7647411523
 20
3.7846119326
 11
6.7547411523
 21
3.7746119326
  0
LINE
  5
412
100
AcDbEntity
  8
03__ASM_ALL_CURVES
100
AcDbLine
 62
40
  6
CONTINUOUS
 10
3.6939611523
 20
5.1152895993
 11
3.5777411523
 21
5.0991479326
  0
LINE
  5
413
100
AcDbEntity
  8
03__ASM_ALL_CURVES
100
AcDbLine
 62
40
  6
CONTINUOUS
 10
3.6939611523
 20
5.1120612659
 11
3.5777411523
 21
5.0991479326
  0
LINE
  5
414
100
AcDbEntity
  8
03__ASM_ALL_CURVES
100
AcDbLine
 62
40
  6
CONTINUOUS
 10
3.6939611523
 20
5.1088329326
 11
3.5777411523
 21
5.0991479326
  0
LINE
  5
415
100
AcDbEntity
  8
03__ASM_ALL_CURVES
100
AcDbLine
 62
40
  6
CONTINUOUS
 10
7.7344403714
 20
4.2096194326
 11
7.7435200589
 21
4.203566309
  0
LINE
  5
416
100
AcDbEntity
  8
03__ASM_ALL_CURVES
100
AcDbLine
 62
40
  6
CONTINUOUS
 10
6.3467105272
 20
5.1378879326
 11
6.3346042772
 21
5.1459587662
  0
LINE
  5
417
100
AcDbEntity
  8
03__ASM_ALL_CURVES
100
AcDbLine
 62
40
  6
CONTINUOUS
 10
7.8070778714
 20
4.2096194326
 11
7.8161575589
 21
4.203566309
  0
LINE
  5
418
100
AcDbEntity
  8
03__ASM_ALL_CURVES
100
AcDbLine
 62
40
  6
CONTINUOUS
 10
6.4435605272
 20
5.1378879326
 11
6.4314542772
 21
5.1459587662
  0
LINE
  5
419
100
AcDbEntity
  8
03__ASM_ALL_CURVES
100
AcDbLine
 62
40
  6
CONTINUOUS
 10
7.8797153714
 20
4.2096194326
 11
7.8887950589
 21
4.203566309
  0
LINE
  5
41A
100
AcDbEntity
  8
03__ASM_ALL_CURVES
100
AcDbLine
 62
40
  6
CONTINUOUS
 10
6.3588167772
 20
5.2347379326
 11
6.3709230272
 21
5.2266671012
  0
LINE
  5
41B
100
AcDbEntity
  8
0
100
AcDbLine
 62
7
  6
CONTINUOUS
 10
7.2437411523
 20
4.4551119326
 11
7.2387411523
 21
4.4601119326
  0
LINE
  5
41C
100
AcDbEntity
  8
03__ASM_ALL_CURVES
100
AcDbLine
 62
40
  6
CONTINUOUS
 10
6.3709230272
 20
5.2266671012
 11
6.3830292772
 21
5.2105254326
  0
LINE
  5
41D
100
AcDbEntity
  8
03__ASM_ALL_CURVES
100
AcDbLine
 62
40
  6
CONTINUOUS
 10
6.4314542772
 20
5.1459587662
 11
6.4193480272
 21
5.1621004326
  0
LINE
  5
41E
100
AcDbEntity
  8
03__ASM_ALL_CURVES
100
AcDbLine
 62
40
  6
CONTINUOUS
 10
6.4677730272
 20
5.2266671012
 11
6.4738261522
 21
5.218596264
  0
LINE
  5
41F
100
AcDbEntity
  8
03__ASM_ALL_CURVES
100
AcDbLine
 62
40
  6
CONTINUOUS
 10
6.5464636522
 20
5.2347379326
 11
6.5767292772
 21
5.1378879326
  0
LINE
  5
420
100
AcDbEntity
  8
03__ASM_ALL_CURVES
100
AcDbLine
 62
40
  6
CONTINUOUS
 10
6.9580761522
 20
5.1863129326
 11
6.9580761522
 21
5.1540295997
  0
LINE
  5
421
100
AcDbEntity
  8
03__ASM_ALL_CURVES
100
AcDbLine
 62
40
  6
CONTINUOUS
 10
6.9926923085
 20
3.4122344326
 11
6.9926923085
 21
3.3395969326
  0
LINE
  5
422
100
AcDbEntity
  8
03__ASM_ALL_CURVES
100
AcDbLine
 62
40
  6
CONTINUOUS
 10
7.0085817962
 20
3.4509744326
 11
7.0085817962
 21
3.5236119326
  0
LINE
  5
423
100
AcDbEntity
  8
03__ASM_ALL_CURVES
100
AcDbLine
 62
40
  6
CONTINUOUS
 10
7.0449005462
 20
3.5115056812
 11
7.0449005462
 21
3.499399434
  0
LINE
  5
424
100
AcDbEntity
  8
03__ASM_ALL_CURVES
100
AcDbLine
 62
40
  6
CONTINUOUS
 10
7.0471704335
 20
3.4122344326
 11
7.0471704335
 21
3.3395969326
  0
LINE
  5
425
100
AcDbEntity
  8
0
100
AcDbLine
 62
7
  6
CONTINUOUS
 10
7.0487411523
 20
4.1022501119
 11
7.0487411523
 21
4.1329696925
  0
LINE
  5
426
100
AcDbEntity
  8
0
100
AcDbLine
 62
7
  6
CONTINUOUS
 10
7.0557411523
 20
4.0871151935
 11
7.0557411523
 21
4.1480504798
  0
LINE
  5
427
100
AcDbEntity
  8
0
100
AcDbLine
 62
7
  6
CONTINUOUS
 10
7.0937411523
 20
3.9524121942
 11
7.0937411523
 21
3.9612841487
  0
LINE
  5
428
100
AcDbEntity
  8
0
100
AcDbLine
 62
7
  6
CONTINUOUS
 10
7.0937411523
 20
4.0636585691
 11
7.0937411523
 21
4.171507099
  0
LINE
  5
429
100
AcDbEntity
  8
0
100
AcDbLine
 62
7
  6
CONTINUOUS
 10
7.0937411523
 20
4.2739397035
 11
7.0937411523
 21
4.2828119682
  0
LINE
  5
42A
100
AcDbEntity
  8
03__ASM_ALL_CURVES
100
AcDbLine
 62
40
  6
CONTINUOUS
 10
7.0993786712
 20
3.5236119326
 11
7.0993786712
 21
3.4509744326
  0
LINE
  5
42B
100
AcDbEntity
  8
0
100
AcDbLine
 62
7
  6
CONTINUOUS
 10
7.1007411523
 20
4.2831552363
 11
7.1007411523
 21
4.2732777927
  0
LINE
  5
42C
100
AcDbEntity
  8
0
100
AcDbLine
 62
7
  6
CONTINUOUS
 10
7.1007411523
 20
3.9520686289
 11
7.1007411523
 21
3.9619460725
  0
LINE
  5
42D
100
AcDbEntity
  8
0
100
AcDbLine
 62
7
  6
CONTINUOUS
 10
7.1007411523
 20
4.0634130783
 11
7.1007411523
 21
4.1718105768
  0
LINE
  5
42E
100
AcDbEntity
  8
03__ASM_ALL_CURVES
100
AcDbLine
 62
40
  6
CONTINUOUS
 10
7.1033511522
 20
5.218596264
 11
7.1033511522
 21
5.2105254326
  0
LINE
  5
42F
100
AcDbEntity
  8
0
100
AcDbLine
 62
7
  6
CONTINUOUS
 10
7.1107411523
 20
4.2826645462
 11
7.1107411523
 21
4.2742234064
  0
LINE
  5
430
100
AcDbEntity
  8
0
100
AcDbLine
 62
7
  6
CONTINUOUS
 10
7.1107411523
 20
3.9525591315
 11
7.1107411523
 21
3.9610004939
  0
LINE
  5
431
100
AcDbEntity
  8
0
100
AcDbLine
 62
7
  6
CONTINUOUS
 10
7.1107411523
 20
4.064335627
 11
7.1107411523
 21
4.1709064067
  0
LINE
  5
432
100
AcDbEntity
  8
03__ASM_ALL_CURVES
100
AcDbLine
 62
40
  6
CONTINUOUS
 10
6.820178246
 20
3.3759156826
 11
6.8247180897
 21
3.3940750576
  0
LINE
  5
433
100
AcDbEntity
  8
03__ASM_ALL_CURVES
100
AcDbLine
 62
40
  6
CONTINUOUS
 10
7.2849449022
 20
5.1863129326
 11
7.2909980272
 21
5.2105254326
  0
LINE
  5
434
100
AcDbEntity
  8
03__ASM_ALL_CURVES
100
AcDbLine
 62
40
  6
CONTINUOUS
 10
6.874656371
 20
3.3759156826
 11
6.8701165272
 21
3.3577563076
  0
LINE
  5
435
100
AcDbEntity
  8
03__ASM_ALL_CURVES
100
AcDbLine
 62
40
  6
CONTINUOUS
 10
6.9268646087
 20
3.4872931826
 11
6.9314044525
 21
3.5054525576
  0
LINE
  5
436
100
AcDbEntity
  8
03__ASM_ALL_CURVES
100
AcDbLine
 62
40
  6
CONTINUOUS
 10
7.3575824022
 20
5.1863129326
 11
7.3515292772
 21
5.1621004326
  0
LINE
  5
437
100
AcDbEntity
  8
03__ASM_ALL_CURVES
100
AcDbLine
 62
40
  6
CONTINUOUS
 10
7.7435200589
 20
4.1793538062
 11
7.7344403714
 21
4.1733006826
  0
LINE
  5
438
100
AcDbEntity
  8
03__ASM_ALL_CURVES
100
AcDbLine
 62
40
  6
CONTINUOUS
 10
7.7889184964
 20
4.203566309
 11
7.7979981839
 21
4.2096194326
  0
LINE
  5
439
100
AcDbEntity
  8
03__ASM_ALL_CURVES
100
AcDbLine
 62
40
  6
CONTINUOUS
 10
7.8161575589
 20
4.1430350578
 11
7.8070778714
 21
4.1369819326
  0
LINE
  5
43A
100
AcDbEntity
  8
03__ASM_ALL_CURVES
100
AcDbLine
 62
40
  6
CONTINUOUS
 10
7.8887950589
 20
4.1793538062
 11
7.8797153714
 21
4.1733006826
  0
LINE
  5
43B
100
AcDbEntity
  8
03__ASM_ALL_CURVES
100
AcDbLine
 62
40
  6
CONTINUOUS
 10
6.8950857025
 20
3.4933463062
 11
6.886006015
 21
3.4872931826
  0
LINE
  5
43C
100
AcDbEntity
  8
03__ASM_ALL_CURVES
100
AcDbLine
 62
40
  6
CONTINUOUS
 10
6.94048414
 20
3.517558809
 11
6.9495638275
 21
3.5236119326
  0
LINE
  5
43D
100
AcDbEntity
  8
03__ASM_ALL_CURVES
100
AcDbLine
 62
40
  6
CONTINUOUS
 10
6.8337977772
 20
3.406181309
 11
6.8428774647
 21
3.4122344326
  0
LINE
  5
43E
100
AcDbEntity
  8
03__ASM_ALL_CURVES
100
AcDbLine
 62
40
  6
CONTINUOUS
 10
3.5777411523
 20
5.0991479326
 11
3.6939611523
 21
5.1185179326
  0
LINE
  5
43F
100
AcDbEntity
  8
03__ASM_ALL_CURVES
100
AcDbLine
 62
40
  6
CONTINUOUS
 10
6.4556667772
 20
5.2347379326
 11
6.4677730272
 21
5.2266671012
  0
LINE
  5
440
100
AcDbEntity
  8
0
100
AcDbLine
 62
7
  6
CONTINUOUS
 10
7.4517411523
 20
4.4451119326
 11
7.4367411523
 21
4.4601119326
  0
LINE
  5
441
100
AcDbEntity
  8
03__ASM_ALL_CURVES
100
AcDbLine
 62
40
  6
CONTINUOUS
 10
6.9035980272
 20
5.1621004326
 11
6.8975449022
 21
5.1863129326
  0
LINE
  5
442
100
AcDbEntity
  8
0
100
AcDbLine
 62
7
  6
CONTINUOUS
 10
7.1177411523
 20
3.953562804
 11
7.1177411523
 21
3.9593608217
  0
LINE
  5
443
100
AcDbEntity
  8
0
100
AcDbLine
 62
7
  6
CONTINUOUS
 10
7.1177411523
 20
4.065870285
 11
7.1177411523
 21
4.169352279
  0
LINE
  5
444
100
AcDbEntity
  8
0
100
AcDbLine
 62
7
  6
CONTINUOUS
 10
7.1177411523
 20
4.2758630616
 11
7.1177411523
 21
4.2816608929
  0
LINE
  5
445
100
AcDbEntity
  8
03__ASM_ALL_CURVES
100
AcDbLine
 62
40
  6
CONTINUOUS
 10
7.1198079335
 20
3.3395969326
 11
7.1198079335
 21
3.4122344326
  0
LINE
  5
446
100
AcDbEntity
  8
03__ASM_ALL_CURVES
100
AcDbLine
 62
40
  6
CONTINUOUS
 10
7.1517761522
 20
5.1701712669
 11
7.1517761522
 21
5.1540295997
  0
LINE
  5
447
100
AcDbEntity
  8
0
100
AcDbLine
 62
7
  6
CONTINUOUS
 10
7.1707411523
 20
3.7801119326
 11
7.1707411523
 21
4.4551119326
  0
LINE
  5
448
100
AcDbEntity
  8
0
100
AcDbLine
 62
7
  6
CONTINUOUS
 10
7.1757411523
 20
3.7751119326
 11
7.1757411523
 21
4.4601119326
  0
LINE
  5
449
100
AcDbEntity
  8
03__ASM_ALL_CURVES
100
AcDbLine
 62
40
  6
CONTINUOUS
 10
7.1901755462
 20
3.5115056812
 11
7.1901755462
 21
3.499399434
  0
LINE
  5
44A
100
AcDbEntity
  8
03__ASM_ALL_CURVES
100
AcDbLine
 62
40
  6
CONTINUOUS
 10
7.2002011522
 20
5.2347379326
 11
7.2002011522
 21
5.1378879326
  0
LINE
  5
44B
100
AcDbEntity
  8
03__ASM_ALL_CURVES
100
AcDbLine
 62
40
  6
CONTINUOUS
 10
7.2106048085
 20
3.4122344326
 11
7.2106048085
 21
3.3395969326
  0
LINE
  5
44C
100
AcDbEntity
  8
0
100
AcDbLine
 62
7
  6
CONTINUOUS
 10
7.2387411523
 20
3.7751119326
 11
7.2387411523
 21
4.4601119326
  0
LINE
  5
44D
100
AcDbEntity
  8
0
100
AcDbLine
 62
7
  6
CONTINUOUS
 10
7.2437411523
 20
3.7756124526
 11
7.2437411523
 21
4.4596114126
  0
LINE
  5
44E
100
AcDbEntity
  8
03__ASM_ALL_CURVES
100
AcDbLine
 62
40
  6
CONTINUOUS
 10
7.2486261522
 20
5.2347379326
 11
7.2486261522
 21
5.1378879326
  0
LINE
  5
44F
100
AcDbEntity
  8
03__ASM_ALL_CURVES
100
AcDbLine
 62
40
  6
CONTINUOUS
 10
6.9813427337
 20
3.4872931826
 11
6.97680289
 21
3.4691338076
  0
LINE
  5
450
100
AcDbEntity
  8
03__ASM_ALL_CURVES
100
AcDbLine
 62
40
  6
CONTINUOUS
 10
6.8996255462
 20
3.499399434
 11
6.8950857025
 21
3.4933463062
  0
LINE
  5
451
100
AcDbEntity
  8
03__ASM_ALL_CURVES
100
AcDbLine
 62
40
  6
CONTINUOUS
 10
6.8247180897
 20
3.3940750576
 11
6.8337977772
 21
3.406181309
  0
LINE
  5
452
100
AcDbEntity
  8
03__ASM_ALL_CURVES
100
AcDbLine
 62
40
  6
CONTINUOUS
 10
6.9314044525
 20
3.5054525576
 11
6.94048414
 21
3.517558809
  0
LINE
  5
453
100
AcDbEntity
  8
03__ASM_ALL_CURVES
100
AcDbLine
 62
40
  6
CONTINUOUS
 10
6.8701165272
 20
3.3577563076
 11
6.8610368397
 21
3.3456500578
  0
LINE
  5
454
100
AcDbEntity
  8
03__ASM_ALL_CURVES
100
AcDbLine
 62
40
  6
CONTINUOUS
 10
6.97680289
 20
3.4691338076
 11
6.9677232025
 21
3.4570275578
  0
LINE
  5
455
100
AcDbEntity
  8
03__ASM_ALL_CURVES
100
AcDbLine
 62
40
  6
CONTINUOUS
 10
7.0449005462
 20
3.499399434
 11
7.0403607025
 21
3.4933463062
  0
LINE
  5
456
100
AcDbEntity
  8
03__ASM_ALL_CURVES
100
AcDbLine
 62
40
  6
CONTINUOUS
 10
6.9382141835
 20
3.351703183
 11
6.9336743397
 21
3.3456500578
  0
LINE
  5
457
100
AcDbEntity
  8
0
100
AcDbLine
 62
7
  6
CONTINUOUS
 10
7.2437411523
 20
3.7801119326
 11
7.2387411523
 21
3.7751119326
  0
LINE
  5
458
100
AcDbEntity
  8
03__ASM_ALL_CURVES
100
AcDbLine
 62
40
  6
CONTINUOUS
 10
6.9677232025
 20
3.4570275578
 11
6.958643515
 21
3.4509744326
  0
LINE
  5
459
100
AcDbEntity
  8
03__ASM_ALL_CURVES
100
AcDbLine
 62
40
  6
CONTINUOUS
 10
7.0403607025
 20
3.4933463062
 11
7.031281015
 21
3.4872931826
  0
LINE
  5
45A
100
AcDbEntity
  8
03__ASM_ALL_CURVES
100
AcDbLine
 62
40
  6
CONTINUOUS
 10
6.8610368397
 20
3.3456500578
 11
6.8519571522
 21
3.3395969326
  0
LINE
  5
45B
100
AcDbEntity
  8
03__ASM_ALL_CURVES
100
AcDbLine
 62
40
  6
CONTINUOUS
 10
7.15839664
 20
3.517558809
 11
7.1674763275
 21
3.5236119326
  0
LINE
  5
45C
100
AcDbEntity
  8
03__ASM_ALL_CURVES
100
AcDbLine
 62
40
  6
CONTINUOUS
 10
6.9336743397
 20
3.3456500578
 11
6.9245946522
 21
3.3395969326
  0
LINE
  5
45D
100
AcDbEntity
  8
03__ASM_ALL_CURVES
100
AcDbLine
 62
40
  6
CONTINUOUS
 10
7.1856357025
 20
3.4933463062
 11
7.1674763275
 21
3.4812400569
  0
LINE
  5
45E
100
AcDbEntity
  8
03__ASM_ALL_CURVES
100
AcDbLine
 62
40
  6
CONTINUOUS
 10
6.9278105272
 20
5.1378879326
 11
6.9157042772
 21
5.1459587662
  0
LINE
  5
45F
100
AcDbEntity
  8
03__ASM_ALL_CURVES
100
AcDbLine
 62
40
  6
CONTINUOUS
 10
6.9399167772
 20
5.2347379326
 11
6.9520230272
 21
5.2266671012
  0
LINE
  5
460
100
AcDbEntity
  8
03__ASM_ALL_CURVES
100
AcDbLine
 62
40
  6
CONTINUOUS
 10
7.1215105272
 20
5.1378879326
 11
7.1094042772
 21
5.1459587662
  0
LINE
  5
461
100
AcDbEntity
  8
03__ASM_ALL_CURVES
100
AcDbLine
 62
40
  6
CONTINUOUS
 10
6.9157042772
 20
5.1459587662
 11
6.9035980272
 21
5.1621004326
  0
LINE
  5
462
100
AcDbEntity
  8
03__ASM_ALL_CURVES
100
AcDbLine
 62
40
  6
CONTINUOUS
 10
6.8128011522
 20
5.2347379326
 11
6.8612261522
 21
5.1378879326
  0
LINE
  5
463
100
AcDbEntity
  8
0
100
AcDbLine
 62
7
  6
CONTINUOUS
 10
7.2937411523
 20
3.7756124526
 11
7.2937411523
 21
4.4596114126
  0
LINE
  5
464
100
AcDbEntity
  8
0
100
AcDbLine
 62
7
  6
CONTINUOUS
 10
7.3637411523
 20
4.4406119326
 11
7.3637411523
 21
3.7946119326
  0
LINE
  5
465
100
AcDbEntity
  8
0
100
AcDbLine
 62
7
  6
CONTINUOUS
 10
7.3847411523
 20
3.7801119326
 11
7.3847411523
 21
4.4551119326
  0
LINE
  5
466
100
AcDbEntity
  8
0
100
AcDbLine
 62
7
  6
CONTINUOUS
 10
7.3897411523
 20
3.7751119326
 11
7.3897411523
 21
4.4601119326
  0
LINE
  5
467
100
AcDbEntity
  8
03__ASM_ALL_CURVES
100
AcDbLine
 62
40
  6
CONTINUOUS
 10
7.3939011522
 20
5.1540295997
 11
7.3939011522
 21
5.2347379326
  0
LINE
  5
468
100
AcDbEntity
  8
03__ASM_ALL_CURVES
100
AcDbLine
 62
40
  6
CONTINUOUS
 10
7.15839664
 20
3.4691338076
 11
7.1538567962
 21
3.4509744326
  0
LINE
  5
469
100
AcDbEntity
  8
03__ASM_ALL_CURVES
100
AcDbLine
 62
40
  6
CONTINUOUS
 10
7.6420792772
 20
5.1863129326
 11
7.6360261522
 21
5.1621004326
  0
LINE
  5
46A
100
AcDbEntity
  8
03__ASM_ALL_CURVES
100
AcDbLine
 62
40
  6
CONTINUOUS
 10
7.1538567962
 20
3.5115056812
 11
7.15839664
 21
3.517558809
  0
LINE
  5
46B
100
AcDbEntity
  8
03__ASM_ALL_CURVES
100
AcDbLine
 62
40
  6
CONTINUOUS
 10
7.1674763275
 20
3.4812400569
 11
7.15839664
 21
3.4691338076
  0
LINE
  5
46C
100
AcDbEntity
  8
03__ASM_ALL_CURVES
100
AcDbLine
 62
40
  6
CONTINUOUS
 10
7.1901755462
 20
3.499399434
 11
7.1856357025
 21
3.4933463062
  0
LINE
  5
46D
100
AcDbEntity
  8
03__ASM_ALL_CURVES
100
AcDbLine
 62
40
  6
CONTINUOUS
 10
7.7480599027
 20
4.185406934
 11
7.7435200589
 21
4.1793538062
  0
LINE
  5
46E
100
AcDbEntity
  8
0
100
AcDbLine
 62
7
  6
CONTINUOUS
 10
7.4517411523
 20
3.7901119326
 11
7.4367411523
 21
3.7751119326
  0
LINE
  5
46F
100
AcDbEntity
  8
03__ASM_ALL_CURVES
100
AcDbLine
 62
40
  6
CONTINUOUS
 10
7.1094042772
 20
5.2024546012
 11
7.1457230272
 21
5.1782420983
  0
LINE
  5
470
100
AcDbEntity
  8
03__ASM_ALL_CURVES
100
AcDbLine
 62
40
  6
CONTINUOUS
 10
7.1457230272
 20
5.2266671012
 11
7.1336167772
 21
5.2347379326
  0
LINE
  5
471
100
AcDbEntity
  8
03__ASM_ALL_CURVES
100
AcDbLine
 62
40
  6
CONTINUOUS
 10
7.3152105272
 20
5.1378879326
 11
7.3031042772
 21
5.1459587662
  0
LINE
  5
472
100
AcDbEntity
  8
03__ASM_ALL_CURVES
100
AcDbLine
 62
40
  6
CONTINUOUS
 10
7.4120605272
 20
5.1378879326
 11
7.3999542772
 21
5.1459587662
  0
LINE
  5
473
100
AcDbEntity
  8
03__ASM_ALL_CURVES
100
AcDbLine
 62
40
  6
CONTINUOUS
 10
6.9520230272
 20
5.2266671012
 11
6.9580761522
 21
5.218596264
  0
LINE
  5
474
100
AcDbEntity
  8
03__ASM_ALL_CURVES
100
AcDbLine
 62
40
  6
CONTINUOUS
 10
7.7889184964
 20
4.1430350578
 11
7.7798388089
 21
4.1551413076
  0
LINE
  5
475
100
AcDbEntity
  8
03__ASM_ALL_CURVES
100
AcDbLine
 62
40
  6
CONTINUOUS
 10
7.7435200589
 20
4.203566309
 11
7.7480599027
 21
4.1975131812
  0
LINE
  5
476
100
AcDbEntity
  8
03__ASM_ALL_CURVES
100
AcDbLine
 62
40
  6
CONTINUOUS
 10
7.8161575589
 20
4.203566309
 11
7.8252372464
 21
4.1914600576
  0
LINE
  5
477
100
AcDbEntity
  8
03__ASM_ALL_CURVES
100
AcDbLine
 62
40
  6
CONTINUOUS
 10
7.1094042772
 20
5.1459587662
 11
7.0972980272
 21
5.1621004326
  0
LINE
  5
478
100
AcDbEntity
  8
03__ASM_ALL_CURVES
100
AcDbLine
 62
40
  6
CONTINUOUS
 10
7.1033511522
 20
5.2105254326
 11
7.1094042772
 21
5.2024546012
  0
LINE
  5
479
100
AcDbEntity
  8
03__ASM_ALL_CURVES
100
AcDbLine
 62
40
  6
CONTINUOUS
 10
7.1457230272
 20
5.1782420983
 11
7.1517761522
 21
5.1701712669
  0
LINE
  5
47A
100
AcDbEntity
  8
03__ASM_ALL_CURVES
100
AcDbLine
 62
40
  6
CONTINUOUS
 10
7.8887950589
 20
4.203566309
 11
7.8933349027
 21
4.1975131812
  0
LINE
  5
47B
100
AcDbEntity
  8
0
100
AcDbLine
 62
7
  6
CONTINUOUS
 10
7.4367411523
 20
3.7751119326
 11
7.4367411523
 21
4.4601119326
  0
LINE
  5
47C
100
AcDbEntity
  8
03__ASM_ALL_CURVES
100
AcDbLine
 62
40
  6
CONTINUOUS
 10
7.4423261522
 20
5.2347379326
 11
7.4423261522
 21
5.1540295997
  0
LINE
  5
47D
100
AcDbEntity
  8
0
100
AcDbLine
 62
7
  6
CONTINUOUS
 10
7.4517411523
 20
3.7901176568
 11
7.4517411523
 21
4.4451062084
  0
LINE
  5
47E
100
AcDbEntity
  8
03__ASM_ALL_CURVES
100
AcDbLine
 62
40
  6
CONTINUOUS
 10
7.4907511522
 20
5.2347379326
 11
7.4907511522
 21
5.1378879326
  0
LINE
  5
47F
100
AcDbEntity
  8
03__ASM_ALL_CURVES
100
AcDbLine
 62
40
  6
CONTINUOUS
 10
7.5876011522
 20
5.1378879326
 11
7.5876011522
 21
5.2347379326
  0
LINE
  5
480
100
AcDbEntity
  8
03__ASM_ALL_CURVES
100
AcDbLine
 62
40
  6
CONTINUOUS
 10
7.7798388089
 20
4.1914600576
 11
7.7889184964
 21
4.203566309
  0
LINE
  5
481
100
AcDbEntity
  8
03__ASM_ALL_CURVES
100
AcDbLine
 62
40
  6
CONTINUOUS
 10
7.8252372464
 20
4.1551413076
 11
7.8161575589
 21
4.1430350578
  0
LINE
  5
482
100
AcDbEntity
  8
03__ASM_ALL_CURVES
100
AcDbLine
 62
40
  6
CONTINUOUS
 10
7.8933349027
 20
4.185406934
 11
7.8887950589
 21
4.1793538062
  0
LINE
  5
483
100
AcDbEntity
  8
03__ASM_ALL_CURVES
100
AcDbLine
 62
40
  6
CONTINUOUS
 10
7.3273167772
 20
5.2347379326
 11
7.3394230272
 21
5.2266671012
  0
LINE
  5
484
100
AcDbEntity
  8
03__ASM_ALL_CURVES
100
AcDbLine
 62
40
  6
CONTINUOUS
 10
7.6118136522
 20
5.2347379326
 11
7.6239199022
 21
5.2266671012
  0
LINE
  5
485
100
AcDbEntity
  8
03__ASM_ALL_CURVES
100
AcDbLine
 62
40
  6
CONTINUOUS
 10
7.1517761522
 20
5.218596264
 11
7.1457230272
 21
5.2266671012
  0
LINE
  5
486
100
AcDbEntity
  8
03__ASM_ALL_CURVES
100
AcDbLine
 62
40
  6
CONTINUOUS
 10
7.3031042772
 20
5.1459587662
 11
7.2909980272
 21
5.1621004326
  0
LINE
  5
487
100
AcDbEntity
  8
03__ASM_ALL_CURVES
100
AcDbLine
 62
40
  6
CONTINUOUS
 10
7.3394230272
 20
5.2266671012
 11
7.3515292772
 21
5.2105254326
  0
LINE
  5
488
100
AcDbEntity
  8
03__ASM_ALL_CURVES
100
AcDbLine
 62
40
  6
CONTINUOUS
 10
7.3999542772
 20
5.1459587662
 11
7.3939011522
 21
5.1540295997
  0
LINE
  5
489
100
AcDbEntity
  8
03__ASM_ALL_CURVES
100
AcDbLine
 62
40
  6
CONTINUOUS
 10
7.7662192781
 20
4.0982419326
 11
7.8025380281
 21
4.0256044326
  0
LINE
  5
48A
100
AcDbEntity
  8
03__ASM_ALL_CURVES
100
AcDbLine
 62
40
  6
CONTINUOUS
 10
7.2909980272
 20
5.1621004326
 11
7.2849449022
 21
5.1863129326
  0
LINE
  5
48B
100
AcDbEntity
  8
03__ASM_ALL_CURVES
100
AcDbLine
 62
40
  6
CONTINUOUS
 10
7.3515292772
 20
5.2105254326
 11
7.3575824022
 21
5.1863129326
  0
LINE
  5
48C
100
AcDbEntity
  8
03__ASM_ALL_CURVES
100
AcDbLine
 62
40
  6
CONTINUOUS
 10
7.6844511522
 20
5.1378879326
 11
7.6844511522
 21
5.2347379326
  0
LINE
  5
48D
100
AcDbEntity
  8
03__ASM_ALL_CURVES
100
AcDbLine
 62
40
  6
CONTINUOUS
 10
7.7117411531
 20
4.0982419326
 11
7.7117411531
 21
4.0256044326
  0
LINE
  5
48E
100
AcDbEntity
  8
03__ASM_ALL_CURVES
100
AcDbLine
 62
40
  6
CONTINUOUS
 10
7.7117411527
 20
4.1369819326
 11
7.7117411527
 21
4.2096194326
  0
LINE
  5
48F
100
AcDbEntity
  8
03__ASM_ALL_CURVES
100
AcDbLine
 62
40
  6
CONTINUOUS
 10
7.7480599027
 20
4.1975131812
 11
7.7480599027
 21
4.185406934
  0
LINE
  5
490
100
AcDbEntity
  8
03__ASM_ALL_CURVES
100
AcDbLine
 62
40
  6
CONTINUOUS
 10
7.7752989652
 20
4.1733006826
 11
7.7798388089
 21
4.1914600576
  0
LINE
  5
491
100
AcDbEntity
  8
03__ASM_ALL_CURVES
100
AcDbLine
 62
40
  6
CONTINUOUS
 10
7.8115667772
 20
5.2347379326
 11
7.8236730272
 21
5.2266671012
  0
LINE
  5
492
100
AcDbEntity
  8
03__ASM_ALL_CURVES
100
AcDbLine
 62
40
  6
CONTINUOUS
 10
7.8797153714
 20
4.1733006826
 11
7.8933349027
 21
4.1369819326
  0
LINE
  5
493
100
AcDbEntity
  8
03__ASM_ALL_CURVES
100
AcDbLine
 62
40
  6
CONTINUOUS
 10
7.7798388089
 20
4.1551413076
 11
7.7752989652
 21
4.1733006826
  0
LINE
  5
494
100
AcDbEntity
  8
03__ASM_ALL_CURVES
100
AcDbLine
 62
40
  6
CONTINUOUS
 10
7.8252372464
 20
4.1914600576
 11
7.8297770902
 21
4.1733006826
  0
LINE
  5
495
100
AcDbEntity
  8
03__ASM_ALL_CURVES
100
AcDbLine
 62
40
  6
CONTINUOUS
 10
7.7662192781
 20
4.0256044326
 11
7.7662192781
 21
4.0982419326
  0
LINE
  5
496
100
AcDbEntity
  8
03__ASM_ALL_CURVES
100
AcDbLine
 62
40
  6
CONTINUOUS
 10
7.7813011522
 20
5.1378879326
 11
7.7813011522
 21
5.2347379326
  0
LINE
  5
497
100
AcDbEntity
  8
03__ASM_ALL_CURVES
100
AcDbLine
 62
40
  6
CONTINUOUS
 10
7.8025380281
 20
4.0256044326
 11
7.8025380281
 21
4.0982419326
  0
LINE
  5
498
100
AcDbEntity
  8
03__ASM_ALL_CURVES
100
AcDbLine
 62
40
  6
CONTINUOUS
 10
7.8297261522
 20
5.218596264
 11
7.8297261522
 21
5.2024546012
  0
LINE
  5
499
100
AcDbEntity
  8
03__ASM_ALL_CURVES
100
AcDbLine
 62
40
  6
CONTINUOUS
 10
7.8388567781
 20
4.0982419326
 11
7.8388567781
 21
4.0256044326
  0
LINE
  5
49A
100
AcDbEntity
  8
03__ASM_ALL_CURVES
100
AcDbLine
 62
40
  6
CONTINUOUS
 10
7.8570161527
 20
4.1369819326
 11
7.8570161527
 21
4.2096194326
  0
LINE
  5
49B
100
AcDbEntity
  8
03__ASM_ALL_CURVES
100
AcDbLine
 62
40
  6
CONTINUOUS
 10
7.8933349027
 20
4.1975131812
 11
7.8933349027
 21
4.185406934
  0
LINE
  5
49C
100
AcDbEntity
  8
03__ASM_ALL_CURVES
100
AcDbLine
 62
40
  6
CONTINUOUS
 10
7.9114942781
 20
4.0256044326
 11
7.9114942781
 21
4.0982419326
  0
LINE
  5
49D
100
AcDbEntity
  8
03__ASM_ALL_CURVES
100
AcDbLine
 62
40
  6
CONTINUOUS
 10
7.8297770902
 20
4.1733006826
 11
7.8252372464
 21
4.1551413076
  0
LINE
  5
49E
100
AcDbEntity
  8
03__ASM_ALL_CURVES
100
AcDbLine
 62
40
  6
CONTINUOUS
 10
7.6239199022
 20
5.2266671012
 11
7.6360261522
 21
5.2105254326
  0
LINE
  5
49F
100
AcDbEntity
  8
03__ASM_ALL_CURVES
100
AcDbLine
 62
40
  6
CONTINUOUS
 10
7.6360261522
 20
5.2105254326
 11
7.6420792772
 21
5.1863129326
  0
LINE
  5
4A0
100
AcDbEntity
  8
03__ASM_ALL_CURVES
100
AcDbLine
 62
40
  6
CONTINUOUS
 10
7.9478130277
 20
4.2096194326
 11
7.9478130277
 21
4.1369819326
  0
LINE
  5
4A1
100
AcDbEntity
  8
03__ASM_ALL_CURVES
100
AcDbLine
 62
40
  6
CONTINUOUS
 10
8.0022911531
 20
4.0982419326
 11
8.0022911531
 21
4.0256044326
  0
LINE
  5
4A2
100
AcDbEntity
  8
03__ASM_ALL_CURVES
100
AcDbLine
 62
40
  6
CONTINUOUS
 10
8.0204505277
 20
4.2096194326
 11
8.0204505277
 21
4.1369819326
  0
LINE
  5
4A3
100
AcDbEntity
  8
03__ASM_ALL_CURVES
100
AcDbLine
 62
40
  6
CONTINUOUS
 10
7.8236730272
 20
5.2266671012
 11
7.8297261522
 21
5.218596264
  0
LINE
  5
4A4
100
AcDbEntity
  8
03__ASM_ALL_CURVES
100
AcDbLine
 62
40
  6
CONTINUOUS
 10
7.8115667772
 20
5.1863129326
 11
7.8297261522
 21
5.1378879326
  0
ARC
  5
4A5
100
AcDbEntity
  8
0
100
AcDbCircle
 62
7
  6
CONTINUOUS
 10
4.1397411523
 20
4.2946119326
 40
0.094
100
AcDbArc
 50
90.0
 51
131.267427381
  0
ARC
  5
4A6
100
AcDbEntity
  8
0
100
AcDbCircle
 62
7
  6
CONTINUOUS
 10
4.1397411523
 20
3.9406119326
 40
0.094
100
AcDbArc
 50
228.732572619
 51
270.0
  0
CIRCLE
  5
4A7
100
AcDbEntity
  8
0
100
AcDbCircle
 62
7
  6
CONTINUOUS
 10
7.1007411523
 20
4.1176119326
 40
0.0545
  0
ARC
  5
4A8
100
AcDbEntity
  8
0
100
AcDbCircle
 62
7
  6
CONTINUOUS
 10
5.9696935461
 20
4.545052787
 40
0.05
100
AcDbArc
 50
285.0
 51
345.0
  0
ARC
  5
4A9
100
AcDbEntity
  8
0
100
AcDbCircle
 62
7
  6
CONTINUOUS
 10
5.9696935461
 20
3.6901710781
 40
0.05
100
AcDbArc
 50
15.0
 51
75.0
  0
ARC
  5
4AA
100
AcDbEntity
  8
0
100
AcDbCircle
 62
7
  6
CONTINUOUS
 10
3.8267411523
 20
3.9561119326
 40
0.0175
100
AcDbArc
 50
180.0
 51
360.0
  0
ARC
  5
4AB
100
AcDbEntity
  8
0
100
AcDbCircle
 62
7
  6
CONTINUOUS
 10
5.6107411523
 20
3.7306119326
 40
0.013
100
AcDbArc
 50
0.0000000041
 51
90.0
  0
ARC
  5
4AC
100
AcDbEntity
  8
0
100
AcDbCircle
 62
7
  6
CONTINUOUS
 10
5.6107411523
 20
4.5046119326
 40
0.013
100
AcDbArc
 50
270.0
 51
359.9999999985
  0
ARC
  5
4AD
100
AcDbEntity
  8
0
100
AcDbCircle
 62
7
  6
CONTINUOUS
 10
6.2562355988
 20
3.7541119326
 40
0.013
100
AcDbArc
 50
29.9999999851
 51
90.0
  0
ARC
  5
4AE
100
AcDbEntity
  8
0
100
AcDbCircle
 62
7
  6
CONTINUOUS
 10
6.2562355988
 20
4.4811119326
 40
0.013
100
AcDbArc
 50
270.0
 51
330.0000000002
  0
ARC
  5
4AF
100
AcDbEntity
  8
0
100
AcDbCircle
 62
7
  6
CONTINUOUS
 10
4.5257411523
 20
4.4756119326
 40
0.008
100
AcDbArc
 50
270.0
 51
360.0
  0
ARC
  5
4B0
100
AcDbEntity
  8
0
100
AcDbCircle
 62
7
  6
CONTINUOUS
 10
4.5037411523
 20
4.4756119326
 40
0.008
100
AcDbArc
 50
180.0
 51
270.0
  0
ARC
  5
4B1
100
AcDbEntity
  8
0
100
AcDbCircle
 62
7
  6
CONTINUOUS
 10
4.5257411523
 20
3.7596119326
 40
0.008
100
AcDbArc
 50
0.0
 51
90.0
  0
ARC
  5
4B2
100
AcDbEntity
  8
0
100
AcDbCircle
 62
7
  6
CONTINUOUS
 10
4.5037411523
 20
3.7596119326
 40
0.008
100
AcDbArc
 50
90.0
 51
180.0
  0
ARC
  5
4B3
100
AcDbEntity
  8
0
100
AcDbCircle
 62
7
  6
CONTINUOUS
 10
4.5387411523
 20
4.4861119326
 40
0.005
100
AcDbArc
 50
90.0
 51
180.0
  0
ARC
  5
4B4
100
AcDbEntity
  8
0
100
AcDbCircle
 62
7
  6
CONTINUOUS
 10
4.4907411523
 20
4.4861119326
 40
0.005
100
AcDbArc
 50
0.0
 51
90.0
  0
ARC
  5
4B5
100
AcDbEntity
  8
0
100
AcDbCircle
 62
7
  6
CONTINUOUS
 10
4.5387411523
 20
3.7491119326
 40
0.005
100
AcDbArc
 50
180.0
 51
270.0
  0
ARC
  5
4B6
100
AcDbEntity
  8
0
100
AcDbCircle
 62
7
  6
CONTINUOUS
 10
4.4907411523
 20
3.7491119326
 40
0.005
100
AcDbArc
 50
270.0
 51
360.0
  0
SPLINE
  5
4B7
100
AcDbEntity
  8
0
100
AcDbSpline
 62
7
  6
CONTINUOUS
 70
0
 71
3
 72
20
 73
16
 74
14
 42
0.0000001
 43
0.0000001
 44
0.0000000001
 12
0.0
 22
0.0416605862
 32
0.0
 13
0.0
 23
-0.0416605862
 33
0.0
 40
0.0
 40
0.0
 40
0.0
 40
0.0
 40
0.0489307848
 40
0.1062135912
 40
0.175871992
 40
0.2580136346
 40
0.3503828832
 40
0.4493672053
 40
0.5506327947
 40
0.6496171168
 40
0.7419863654
 40
0.824128008
 40
0.8937864088
 40
0.9510692152
 40
1.0
 40
1.0
 40
1.0
 40
1.0
 10
3.8442411523
 20
4.1937355014
 30
0.0
 10
3.8442411523
 20
4.1944149965
 30
0.0
 10
3.8438196183
 20
4.1959010075
 30
0.0
 10
3.8421843506
 20
4.1977794348
 30
0.0
 10
3.8397324301
 20
4.1993784351
 30
0.0
 10
3.8365731977
 20
4.2006531862
 30
0.0
 10
3.832870104
 20
4.201545174
 30
0.0
 10
3.8288231951
 20
4.2020044117
 30
0.0
 10
3.8246591095
 20
4.2020044117
 30
0.0
 10
3.8206122006
 20
4.201545174
 30
0.0
 10
3.8169091069
 20
4.2006531862
 30
0.0
 10
3.8137498745
 20
4.1993784351
 30
0.0
 10
3.811297954
 20
4.1977794348
 30
0.0
 10
3.8096626862
 20
4.1959010075
 30
0.0
 10
3.8092411523
 20
4.1944149965
 30
0.0
 10
3.8092411523
 20
4.1937355014
 30
0.0
 11
3.8442411523
 21
4.1937355014
 31
0.0
 11
3.8437326341
 21
4.1957095407
 31
0.0
 11
3.8422366327
 21
4.197568856
 31
0.0
 11
3.8398400904
 21
4.1992053906
 31
0.0
 11
3.8366822854
 21
4.2005240352
 31
0.0
 11
3.8329467378
 21
4.2014481549
 31
0.0
 11
3.8288505442
 21
4.2019240432
 31
0.0
 11
3.8246317604
 21
4.2019240432
 31
0.0
 11
3.8205355668
 21
4.2014481549
 31
0.0
 11
3.8168000192
 21
4.2005240352
 31
0.0
 11
3.8136422142
 21
4.1992053906
 31
0.0
 11
3.8112456718
 21
4.197568856
 31
0.0
 11
3.8097496705
 21
4.1957095407
 31
0.0
 11
3.8092411523
 21
4.1937355014
 31
0.0
  0
SPLINE
  5
4B8
100
AcDbEntity
  8
0
100
AcDbSpline
 62
7
  6
CONTINUOUS
 70
0
 71
3
 72
15
 73
11
 74
9
 42
0.0000001
 43
0.0000001
 44
0.0000000001
 12
0.0
 22
0.1099409465
 32
0.0
 13
0.0
 23
-0.1099409465
 33
0.0
 40
0.0
 40
0.0
 40
0.0
 40
0.0
 40
0.125
 40
0.25
 40
0.375
 40
0.5
 40
0.625
 40
0.75
 40
0.875
 40
1.0
 40
1.0
 40
1.0
 40
1.0
 10
7.3637411523
 20
4.4406119326
 30
0.0
 10
7.3637411523
 20
4.4451928054
 30
0.0
 10
7.3619187678
 20
4.4543545509
 30
0.0
 10
7.3541341998
 20
4.4660049802
 30
0.0
 10
7.3424837706
 20
4.4737895481
 30
0.0
 10
7.3287411523
 20
4.4765231248
 30
0.0
 10
7.314998534
 20
4.4737895481
 30
0.0
 10
7.3033481047
 20
4.4660049802
 30
0.0
 10
7.2955635368
 20
4.4543545509
 30
0.0
 10
7.2937411523
 20
4.4451928054
 30
0.0
 10
7.2937411523
 20
4.4406119326
 30
0.0
 11
7.3637411523
 21
4.4406119326
 31
0.0
 11
7.3610769359
 21
4.4540058527
 31
0.0
 11
7.3534898896
 21
4.4653606699
 31
0.0
 11
7.3421350724
 21
4.4729477162
 31
0.0
 11
7.3287411523
 21
4.4756119326
 31
0.0
 11
7.3153472322
 21
4.4729477162
 31
0.0
 11
7.3039924149
 21
4.4653606699
 31
0.0
 11
7.2964053686
 21
4.4540058527
 31
0.0
 11
7.2937411523
 21
4.4406119326
 31
0.0
  0
SPLINE
  5
4B9
100
AcDbEntity
  8
0
100
AcDbSpline
 62
7
  6
CONTINUOUS
 70
0
 71
3
 72
15
 73
11
 74
9
 42
0.0000001
 43
0.0000001
 44
0.0000000001
 12
0.0
 22
-0.1099409465
 32
0.0
 13
0.0
 23
0.1099409465
 33
0.0
 40
0.0
 40
0.0
 40
0.0
 40
0.0
 40
0.125
 40
0.25
 40
0.375
 40
0.5
 40
0.625
 40
0.75
 40
0.875
 40
1.0
 40
1.0
 40
1.0
 40
1.0
 10
7.3637411523
 20
3.7946119326
 30
0.0
 10
7.3637411523
 20
3.7900310598
 30
0.0
 10
7.3619187678
 20
3.7808693143
 30
0.0
 10
7.3541341998
 20
3.769218885
 30
0.0
 10
7.3424837706
 20
3.7614343171
 30
0.0
 10
7.3287411523
 20
3.7587007403
 30
0.0
 10
7.314998534
 20
3.7614343171
 30
0.0
 10
7.3033481047
 20
3.769218885
 30
0.0
 10
7.2955635368
 20
3.7808693143
 30
0.0
 10
7.2937411523
 20
3.7900310598
 30
0.0
 10
7.2937411523
 20
3.7946119326
 30
0.0
 11
7.3637411523
 21
3.7946119326
 31
0.0
 11
7.3610769359
 21
3.7812180125
 31
0.0
 11
7.3534898896
 21
3.7698631953
 31
0.0
 11
7.3421350724
 21
3.762276149
 31
0.0
 11
7.3287411523
 21
3.7596119326
 31
0.0
 11
7.3153472322
 21
3.762276149
 31
0.0
 11
7.3039924149
 21
3.7698631953
 31
0.0
 11
7.2964053686
 21
3.7812180125
 31
0.0
 11
7.2937411523
 21
3.7946119326
 31
0.0
  0
SPLINE
  5
4BA
100
AcDbEntity
  8
0
100
AcDbSpline
 62
7
  6
CONTINUOUS
 70
0
 71
3
 72
15
 73
11
 74
9
 42
0.0000001
 43
0.0000001
 44
0.0000000001
 12
0.0
 22
0.1099409465
 32
0.0
 13
0.0
 23
-0.1099409465
 33
0.0
 40
0.0
 40
0.0
 40
0.0
 40
0.0
 40
0.125
 40
0.25
 40
0.375
 40
0.5
 40
0.625
 40
0.75
 40
0.875
 40
1.0
 40
1.0
 40
1.0
 40
1.0
 10
6.1937411523
 20
4.5266119326
 30
0.0
 10
6.1937411523
 20
4.5311928054
 30
0.0
 10
6.1919187678
 20
4.5403545509
 30
0.0
 10
6.1841341998
 20
4.5520049802
 30
0.0
 10
6.1724837706
 20
4.5597895481
 30
0.0
 10
6.1587411523
 20
4.5625231248
 30
0.0
 10
6.144998534
 20
4.5597895481
 30
0.0
 10
6.1333481047
 20
4.5520049802
 30
0.0
 10
6.1255635368
 20
4.5403545509
 30
0.0
 10
6.1237411523
 20
4.5311928054
 30
0.0
 10
6.1237411523
 20
4.5266119326
 30
0.0
 11
6.1937411523
 21
4.5266119326
 31
0.0
 11
6.1910769359
 21
4.5400058527
 31
0.0
 11
6.1834898896
 21
4.5513606699
 31
0.0
 11
6.1721350724
 21
4.5589477162
 31
0.0
 11
6.1587411523
 21
4.5616119326
 31
0.0
 11
6.1453472322
 21
4.5589477162
 31
0.0
 11
6.1339924149
 21
4.5513606699
 31
0.0
 11
6.1264053686
 21
4.5400058527
 31
0.0
 11
6.1237411523
 21
4.5266119326
 31
0.0
  0
SPLINE
  5
4BB
100
AcDbEntity
  8
0
100
AcDbSpline
 62
7
  6
CONTINUOUS
 70
0
 71
3
 72
15
 73
11
 74
9
 42
0.0000001
 43
0.0000001
 44
0.0000000001
 12
0.0
 22
-0.1099409465
 32
0.0
 13
0.0
 23
0.1099409465
 33
0.0
 40
0.0
 40
0.0
 40
0.0
 40
0.0
 40
0.125
 40
0.25
 40
0.375
 40
0.5
 40
0.625
 40
0.75
 40
0.875
 40
1.0
 40
1.0
 40
1.0
 40
1.0
 10
6.1937411523
 20
3.7086119326
 30
0.0
 10
6.1937411523
 20
3.7040310598
 30
0.0
 10
6.1919187678
 20
3.6948693143
 30
0.0
 10
6.1841341998
 20
3.683218885
 30
0.0
 10
6.1724837706
 20
3.6754343171
 30
0.0
 10
6.1587411523
 20
3.6727007403
 30
0.0
 10
6.144998534
 20
3.6754343171
 30
0.0
 10
6.1333481047
 20
3.683218885
 30
0.0
 10
6.1255635368
 20
3.6948693143
 30
0.0
 10
6.1237411523
 20
3.7040310598
 30
0.0
 10
6.1237411523
 20
3.7086119326
 30
0.0
 11
6.1937411523
 21
3.7086119326
 31
0.0
 11
6.1910769359
 21
3.6952180125
 31
0.0
 11
6.1834898896
 21
3.6838631953
 31
0.0
 11
6.1721350724
 21
3.676276149
 31
0.0
 11
6.1587411523
 21
3.6736119326
 31
0.0
 11
6.1453472322
 21
3.676276149
 31
0.0
 11
6.1339924149
 21
3.6838631953
 31
0.0
 11
6.1264053686
 21
3.6952180125
 31
0.0
 11
6.1237411523
 21
3.7086119326
 31
0.0
  0
SPLINE
  5
4BC
100
AcDbEntity
  8
0
100
AcDbSpline
 62
7
  6
CONTINUOUS
 70
0
 71
3
 72
15
 73
11
 74
9
 42
0.0000001
 43
0.0000001
 44
0.0000000001
 12
0.0
 22
0.1099409465
 32
0.0
 13
0.0
 23
-0.1099409465
 33
0.0
 40
0.0
 40
0.0
 40
0.0
 40
0.0
 40
0.125
 40
0.25
 40
0.375
 40
0.5
 40
0.625
 40
0.75
 40
0.875
 40
1.0
 40
1.0
 40
1.0
 40
1.0
 10
5.6027411523
 20
4.5266119326
 30
0.0
 10
5.6027411523
 20
4.5311928054
 30
0.0
 10
5.6009187678
 20
4.5403545509
 30
0.0
 10
5.5931341998
 20
4.5520049802
 30
0.0
 10
5.5814837706
 20
4.5597895481
 30
0.0
 10
5.5677411523
 20
4.5625231248
 30
0.0
 10
5.553998534
 20
4.5597895481
 30
0.0
 10
5.5423481047
 20
4.5520049802
 30
0.0
 10
5.5345635368
 20
4.5403545509
 30
0.0
 10
5.5327411523
 20
4.5311928054
 30
0.0
 10
5.5327411523
 20
4.5266119326
 30
0.0
 11
5.6027411523
 21
4.5266119326
 31
0.0
 11
5.6000769359
 21
4.5400058527
 31
0.0
 11
5.5924898896
 21
4.5513606699
 31
0.0
 11
5.5811350724
 21
4.5589477162
 31
0.0
 11
5.5677411523
 21
4.5616119326
 31
0.0
 11
5.5543472322
 21
4.5589477162
 31
0.0
 11
5.5429924149
 21
4.5513606699
 31
0.0
 11
5.5354053686
 21
4.5400058527
 31
0.0
 11
5.5327411523
 21
4.5266119326
 31
0.0
  0
SPLINE
  5
4BD
100
AcDbEntity
  8
0
100
AcDbSpline
 62
7
  6
CONTINUOUS
 70
0
 71
3
 72
15
 73
11
 74
9
 42
0.0000001
 43
0.0000001
 44
0.0000000001
 12
0.0
 22
-0.1099409465
 32
0.0
 13
0.0
 23
0.1099409465
 33
0.0
 40
0.0
 40
0.0
 40
0.0
 40
0.0
 40
0.125
 40
0.25
 40
0.375
 40
0.5
 40
0.625
 40
0.75
 40
0.875
 40
1.0
 40
1.0
 40
1.0
 40
1.0
 10
5.6027411523
 20
3.7086119326
 30
0.0
 10
5.6027411523
 20
3.7040310598
 30
0.0
 10
5.6009187678
 20
3.6948693143
 30
0.0
 10
5.5931341998
 20
3.683218885
 30
0.0
 10
5.5814837706
 20
3.6754343171
 30
0.0
 10
5.5677411523
 20
3.6727007403
 30
0.0
 10
5.553998534
 20
3.6754343171
 30
0.0
 10
5.5423481047
 20
3.683218885
 30
0.0
 10
5.5345635368
 20
3.6948693143
 30
0.0
 10
5.5327411523
 20
3.7040310598
 30
0.0
 10
5.5327411523
 20
3.7086119326
 30
0.0
 11
5.6027411523
 21
3.7086119326
 31
0.0
 11
5.6000769359
 21
3.6952180125
 31
0.0
 11
5.5924898896
 21
3.6838631953
 31
0.0
 11
5.5811350724
 21
3.676276149
 31
0.0
 11
5.5677411523
 21
3.6736119326
 31
0.0
 11
5.5543472322
 21
3.676276149
 31
0.0
 11
5.5429924149
 21
3.6838631953
 31
0.0
 11
5.5354053686
 21
3.6952180125
 31
0.0
 11
5.5327411523
 21
3.7086119326
 31
0.0
  0
SPLINE
  5
4BE
100
AcDbEntity
  8
0
100
AcDbSpline
 62
7
  6
CONTINUOUS
 70
0
 71
3
 72
16
 73
12
 74
10
 42
0.0000001
 43
0.0000001
 44
0.0000000001
 12
0.0906480335
 22
0.2719441006
 32
0.0
 13
-0.0906480335
 23
0.2719441006
 33
0.0
 40
0.0
 40
0.0
 40
0.0
 40
0.0
 40
0.1184548733
 40
0.230565332
 40
0.3393089466
 40
0.4465959239
 40
0.5535015371
 40
0.6607803311
 40
0.769505023
 40
0.8815660643
 40
1.0
 40
1.0
 40
1.0
 40
1.0
 10
4.3278697419
 20
3.8366119326
 30
0.0
 10
4.3314489757
 20
3.8473496339
 30
0.0
 10
4.3378800623
 20
3.8684356808
 30
0.0
 10
4.345399492
 20
3.8999967356
 30
0.0
 10
4.3504877195
 20
3.9309655537
 30
0.0
 10
4.3530745817
 20
3.9617486233
 30
0.0
 10
4.3530733934
 20
3.9925024243
 30
0.0
 10
4.3504845527
 20
4.0232827157
 30
0.0
 10
4.345395818
 20
4.0542440175
 30
0.0
 10
4.3378775612
 20
4.0857965491
 30
0.0
 10
4.331448343
 20
4.1068761292
 30
0.0
 10
4.3278697419
 20
4.1176119326
 30
0.0
 11
4.3278697419
 21
3.8366119326
 31
0.0
 11
4.3377082115
 21
3.8691109605
 31
0.0
 11
4.345095382
 21
3.9003873509
 31
0.0
 11
4.3500999994
 21
3.9311548034
 31
0.0
 11
4.3526469647
 21
3.9618034246
 31
0.0
 11
4.3526457945
 21
3.9924483731
 31
0.0
 11
4.3500968545
 21
4.0230944762
 31
0.0
 11
4.3450914154
 21
4.0538562994
 31
0.0
 11
4.3377066439
 21
4.085118701
 31
0.0
 11
4.3278697419
 21
4.1176119326
 31
0.0
  0
SPLINE
  5
4BF
100
AcDbEntity
  8
0
100
AcDbSpline
 62
7
  6
CONTINUOUS
 70
0
 71
3
 72
17
 73
13
 74
11
 42
0.0000001
 43
0.0000001
 44
0.0000000001
 12
-0.1487434696
 22
0.2576312467
 32
0.0
 13
0.1487434696
 23
0.2576312467
 33
0.0
 40
0.0
 40
0.0
 40
0.0
 40
0.0
 40
0.1169386465
 40
0.2216811606
 40
0.3184580982
 40
0.4103908543
 40
0.5000417254
 40
0.5896883004
 40
0.6816074548
 40
0.7783545182
 40
0.8830694657
 40
1.0
 40
1.0
 40
1.0
 40
1.0
 10
4.2262120036
 20
3.8366119326
 30
0.0
 10
4.2204140502
 20
3.8466542824
 30
0.0
 10
4.2100742226
 20
3.8660841298
 30
0.0
 10
4.1977005992
 20
3.8951862074
 30
0.0
 10
4.1890471525
 20
3.9230277701
 30
0.0
 10
4.1838900479
 20
3.9502110897
 30
0.0
 10
4.1821731676
 20
3.9771239746
 30
0.0
 10
4.1838930532
 20
4.0040352994
 30
0.0
 10
4.1890518048
 20
4.03121344
 30
0.0
 10
4.1977046567
 20
4.059047746
 30
0.0
 10
4.210076244
 20
4.0881435857
 30
0.0
 10
4.2204144524
 20
4.1075702795
 30
0.0
 10
4.2262120036
 20
4.1176119326
 30
0.0
 11
4.2262120036
 21
3.8366119326
 31
0.0
 11
4.2099857721
 21
3.8673835896
 31
0.0
 11
4.1979010156
 21
3.8961042262
 31
0.0
 11
4.1894483424
 21
3.9236252948
 31
0.0
 11
4.184415457
 21
3.95050701
 31
0.0
 11
4.1827411527
 21
3.9771243661
 31
0.0
 11
4.1844183949
 21
4.0037402566
 31
0.0
 11
4.1894530416
 21
4.0306175253
 31
0.0
 11
4.1979046566
 21
4.0581296219
 31
0.0
 11
4.2099868078
 21
4.0868424576
 31
0.0
 11
4.2262120036
 21
4.1176119326
 31
0.0
  0
SPLINE
  5
4C0
100
AcDbEntity
  8
0
100
AcDbSpline
 62
7
  6
CONTINUOUS
 70
0
 71
3
 72
16
 73
12
 74
10
 42
0.0000001
 43
0.0000001
 44
0.0000000001
 12
0.0906480335
 22
0.2719441006
 32
0.0
 13
-0.0906480335
 23
0.2719441006
 33
0.0
 40
0.0
 40
0.0
 40
0.0
 40
0.0
 40
0.1184548733
 40
0.230565332
 40
0.3393089466
 40
0.4465959239
 40
0.5535015371
 40
0.6607803311
 40
0.769505023
 40
0.8815660643
 40
1.0
 40
1.0
 40
1.0
 40
1.0
 10
4.3278697419
 20
4.1176119326
 30
0.0
 10
4.3314489757
 20
4.1283496339
 30
0.0
 10
4.3378800623
 20
4.1494356808
 30
0.0
 10
4.345399492
 20
4.1809967356
 30
0.0
 10
4.3504877195
 20
4.2119655537
 30
0.0
 10
4.3530745817
 20
4.2427486233
 30
0.0
 10
4.3530733934
 20
4.2735024243
 30
0.0
 10
4.3504845527
 20
4.3042827157
 30
0.0
 10
4.345395818
 20
4.3352440175
 30
0.0
 10
4.3378775612
 20
4.3667965491
 30
0.0
 10
4.331448343
 20
4.3878761292
 30
0.0
 10
4.3278697419
 20
4.3986119326
 30
0.0
 11
4.3278697419
 21
4.1176119326
 31
0.0
 11
4.3377082115
 21
4.1501109605
 31
0.0
 11
4.345095382
 21
4.1813873509
 31
0.0
 11
4.3500999994
 21
4.2121548034
 31
0.0
 11
4.3526469647
 21
4.2428034246
 31
0.0
 11
4.3526457945
 21
4.2734483731
 31
0.0
 11
4.3500968545
 21
4.3040944762
 31
0.0
 11
4.3450914154
 21
4.3348562994
 31
0.0
 11
4.3377066439
 21
4.366118701
 31
0.0
 11
4.3278697419
 21
4.3986119326
 31
0.0
  0
SPLINE
  5
4C1
100
AcDbEntity
  8
0
100
AcDbSpline
 62
7
  6
CONTINUOUS
 70
0
 71
3
 72
17
 73
13
 74
11
 42
0.0000001
 43
0.0000001
 44
0.0000000001
 12
-0.1487434696
 22
0.2576312467
 32
0.0
 13
0.1487434696
 23
0.2576312467
 33
0.0
 40
0.0
 40
0.0
 40
0.0
 40
0.0
 40
0.1169386465
 40
0.2216811606
 40
0.3184580982
 40
0.4103908543
 40
0.5000417254
 40
0.5896883004
 40
0.6816074548
 40
0.7783545182
 40
0.8830694657
 40
1.0
 40
1.0
 40
1.0
 40
1.0
 10
4.2262120036
 20
4.1176119326
 30
0.0
 10
4.2204140502
 20
4.1276542824
 30
0.0
 10
4.2100742226
 20
4.1470841298
 30
0.0
 10
4.1977005992
 20
4.1761862074
 30
0.0
 10
4.1890471525
 20
4.2040277701
 30
0.0
 10
4.1838900479
 20
4.2312110897
 30
0.0
 10
4.1821731676
 20
4.2581239746
 30
0.0
 10
4.1838930532
 20
4.2850352994
 30
0.0
 10
4.1890518048
 20
4.31221344
 30
0.0
 10
4.1977046567
 20
4.340047746
 30
0.0
 10
4.210076244
 20
4.3691435857
 30
0.0
 10
4.2204144524
 20
4.3885702795
 30
0.0
 10
4.2262120036
 20
4.3986119326
 30
0.0
 11
4.2262120036
 21
4.1176119326
 31
0.0
 11
4.2099857721
 21
4.1483835896
 31
0.0
 11
4.1979010156
 21
4.1771042262
 31
0.0
 11
4.1894483424
 21
4.2046252948
 31
0.0
 11
4.184415457
 21
4.23150701
 31
0.0
 11
4.1827411527
 21
4.2581243661
 31
0.0
 11
4.1844183949
 21
4.2847402566
 31
0.0
 11
4.1894530416
 21
4.3116175253
 31
0.0
 11
4.1979046566
 21
4.3391296219
 31
0.0
 11
4.2099868078
 21
4.3678424576
 31
0.0
 11
4.2262120036
 21
4.3986119326
 31
0.0
  0
SPLINE
  5
4C2
100
AcDbEntity
  8
0
100
AcDbSpline
 62
7
  6
CONTINUOUS
 70
0
 71
3
 72
14
 73
10
 74
8
 42
0.0000001
 43
0.0000001
 44
0.0000000001
 12
-0.0756798031
 22
0.0
 32
0.0
 13
0.0000430686
 23
-0.0759682058
 33
0.0
 40
0.0
 40
0.0
 40
0.0
 40
0.0
 40
0.1597772872
 40
0.3181135913
 40
0.4725872007
 40
0.6200554513
 40
0.7574448074
 40
0.8834901399
 40
1.0
 40
1.0
 40
1.0
 40
1.0
 10
7.1007411523
 20
3.9619460725
 30
0.0
 10
7.0967105144
 20
3.9619460725
 30
0.0
 10
7.0886649259
 20
3.9611881936
 30
0.0
 10
7.0771509389
 20
3.9578420153
 30
0.0
 10
7.0667546509
 20
3.9525064991
 30
0.0
 10
7.0580258176
 20
3.9455519997
 30
0.0
 10
7.0514165041
 20
3.937452946
 30
0.0
 10
7.0472533666
 20
3.9287011623
 30
0.0
 10
7.0462394846
 20
3.9225724524
 30
0.0
 10
7.0462411573
 20
3.9196221041
 30
0.0
 11
7.1007411523
 21
3.9619460725
 31
0.0
 11
7.0887029399
 21
3.9608077327
 31
0.0
 11
7.0771992292
 21
3.9574530968
 31
0.0
 11
7.0668112617
 21
3.9520903851
 31
0.0
 11
7.0581144171
 21
3.9450961937
 31
0.0
 11
7.0516014462
 21
3.9369911778
 31
0.0
 11
7.0475927938
 21
3.9283352626
 31
0.0
 11
7.0462411573
 21
3.9196221041
 31
0.0
  0
SPLINE
  5
4C3
100
AcDbEntity
  8
0
100
AcDbSpline
 62
7
  6
CONTINUOUS
 70
0
 71
3
 72
14
 73
10
 74
8
 42
0.0000001
 43
0.0000001
 44
0.0000000001
 12
0.0756798035
 22
0.0
 32
0.0
 13
-0.0000430735
 23
0.0759682059
 33
0.0
 40
0.0
 40
0.0
 40
0.0
 40
0.0
 40
0.1597786831
 40
0.3181170899
 40
0.4725918032
 40
0.6200583893
 40
0.7574472053
 40
0.8834914924
 40
1.0
 40
1.0
 40
1.0
 40
1.0
 10
7.1007411523
 20
4.2732777927
 30
0.0
 10
7.1047718254
 20
4.2732777927
 30
0.0
 10
7.1128175028
 20
4.2740356866
 30
0.0
 10
7.1243315941
 20
4.2773819317
 30
0.0
 10
7.1347278912
 20
4.2827175195
 30
0.0
 10
7.1434566644
 20
4.289672047
 30
0.0
 10
7.1500658901
 20
4.2977710659
 30
0.0
 10
7.15422896
 20
4.3065227982
 30
0.0
 10
7.1552428201
 20
4.3126514463
 30
0.0
 10
7.1552411473
 20
4.3156017604
 30
0.0
 11
7.1007411523
 21
4.2732777927
 31
0.0
 11
7.112779469
 21
4.2744161524
 31
0.0
 11
7.1242833226
 21
4.277770867
 31
0.0
 11
7.1346713366
 21
4.2831336708
 31
0.0
 11
7.143368046
 21
4.2901278294
 31
0.0
 11
7.1498809554
 21
4.2982328424
 31
0.0
 11
7.1538895411
 21
4.3068887013
 31
0.0
 11
7.1552411473
 21
4.3156017604
 31
0.0
  0
SPLINE
  5
4C4
100
AcDbEntity
  8
0
100
AcDbSpline
 62
7
  6
CONTINUOUS
 70
0
 71
3
 72
14
 73
10
 74
8
 42
0.0000001
 43
0.0000001
 44
0.0000000001
 12
0.0000430457
 22
0.0759682023
 32
0.0
 13
-0.0756798018
 23
-0.0
 33
0.0
 40
0.0
 40
0.0
 40
0.0
 40
0.0
 40
0.1165146604
 40
0.2425632927
 40
0.3799544018
 40
0.5274235082
 40
0.6818960828
 40
0.8402271767
 40
1.0
 40
1.0
 40
1.0
 40
1.0
 10
7.1552411475
 20
3.919622101
 30
0.0
 10
7.1552428193
 20
3.9225725708
 30
0.0
 10
7.1542288615
 20
3.9287014909
 30
0.0
 10
7.1500654949
 20
3.9374534442
 30
0.0
 10
7.1434559666
 20
3.9455525167
 30
0.0
 10
7.1347270027
 20
3.9525069151
 30
0.0
 10
7.1243307695
 20
3.9578422345
 30
0.0
 10
7.1128170202
 20
3.961188238
 30
0.0
 10
7.1047716775
 20
3.9619460725
 30
0.0
 10
7.1007411523
 20
3.9619460725
 30
0.0
 11
7.1552411475
 21
3.919622101
 31
0.0
 11
7.1538894029
 21
3.928335613
 31
0.0
 11
7.1498805308
 21
3.9369917015
 31
0.0
 11
7.1433673557
 21
3.9450967233
 31
0.0
 11
7.1346703593
 21
3.9520908289
 31
0.0
 11
7.1242823919
 21
3.9574533696
 31
0.0
 11
7.1127790312
 21
3.9608077964
 31
0.0
 11
7.1007411523
 21
3.9619460725
 31
0.0
  0
SPLINE
  5
4C5
100
AcDbEntity
  8
0
100
AcDbSpline
 62
7
  6
CONTINUOUS
 70
0
 71
3
 72
10
 73
6
 74
4
 42
0.0000001
 43
0.0000001
 44
0.0000000001
 12
0.0192945051
 22
-0.0056934772
 32
0.0
 13
0.0200725263
 23
-0.0012884745
 33
0.0
 40
0.0
 40
0.0
 40
0.0
 40
0.0
 40
0.2977034008
 40
0.8155116774
 40
1.0
 40
1.0
 40
1.0
 40
1.0
 10
7.0739411497
 20
3.9556434184
 30
0.0
 10
7.0758558297
 20
3.9550784293
 30
0.0
 10
7.0811660424
 20
3.9537515321
 30
0.0
 10
7.0878050613
 20
3.9527540448
 30
0.0
 10
7.0924990321
 20
3.9523708843
 30
0.0
 10
7.0937334143
 20
3.9522916481
 30
0.0
 11
7.0739411497
 21
3.9556434184
 31
0.0
 11
7.0797466845
 21
3.9541780803
 31
0.0
 11
7.0900350542
 21
3.9525940924
 31
0.0
 11
7.0937334143
 21
3.9522916481
 31
0.0
  0
SPLINE
  5
4C6
100
AcDbEntity
  8
0
100
AcDbSpline
 62
7
  6
CONTINUOUS
 70
0
 71
3
 72
8
 73
4
 74
2
 42
0.0000001
 43
0.0000001
 44
0.0000000001
 12
0.0069994971
 22
-0.0004493043
 32
0.0
 13
0.0070101845
 23
0.0
 33
0.0
 40
0.0
 40
0.0
 40
0.0
 40
0.0
 40
1.0
 40
1.0
 40
1.0
 40
1.0
 10
7.0937334143
 20
3.9522916481
 30
0.0
 10
7.09606658
 20
3.95214188
 30
0.0
 10
7.0984044241
 20
3.9520686289
 30
0.0
 10
7.1007411523
 20
3.9520686289
 30
0.0
 11
7.0937334143
 21
3.9522916481
 31
0.0
 11
7.1007411523
 21
3.9520686289
 31
0.0
  0
SPLINE
  5
4C7
100
AcDbEntity
  8
0
100
AcDbSpline
 62
7
  6
CONTINUOUS
 70
0
 71
3
 72
9
 73
5
 74
3
 42
0.0000001
 43
0.0000001
 44
0.0000000001
 12
-0.0096223478
 22
0.0028394237
 32
0.0
 13
-0.0098949223
 23
0.0016411473
 33
0.0
 40
0.0
 40
0.0
 40
0.0
 40
0.0
 40
0.597463215
 40
1.0
 40
1.0
 40
1.0
 40
1.0
 10
7.127541348
 20
4.2795803885
 30
0.0
 10
7.125625015
 20
4.2801458722
 30
0.0
 10
7.1223776319
 20
4.280957204
 30
0.0
 10
7.1190913761
 20
4.2815765474
 30
0.0
 10
7.117763686
 20
4.2817967548
 30
0.0
 11
7.127541348
 21
4.2795803885
 31
0.0
 11
7.121730755
 21
4.2810468214
 31
0.0
 11
7.117763686
 21
4.2817967548
 31
0.0
  0
SPLINE
  5
4C8
100
AcDbEntity
  8
0
100
AcDbSpline
 62
7
  6
CONTINUOUS
 70
0
 71
3
 72
9
 73
5
 74
3
 42
0.0000001
 43
0.0000001
 44
0.0000000001
 12
-0.0168650932
 22
0.0027972026
 32
0.0
 13
-0.0170879146
 23
0.0
 33
0.0
 40
0.0
 40
0.0
 40
0.0
 40
0.0
 40
0.3728617618
 40
1.0
 40
1.0
 40
1.0
 40
1.0
 10
7.117763686
 20
4.2817967548
 30
0.0
 10
7.1156675699
 20
4.2821444115
 30
0.0
 10
7.1100134427
 20
4.2828822766
 30
0.0
 10
7.1043133138
 20
4.2831552363
 30
0.0
 10
7.1007411523
 20
4.2831552363
 30
0.0
 11
7.117763686
 21
4.2817967548
 31
0.0
 11
7.1114447588
 21
4.2826300209
 31
0.0
 11
7.1007411523
 21
4.2831552363
 31
0.0
  0
SPLINE
  5
4C9
100
AcDbEntity
  8
0
100
AcDbSpline
 62
7
  6
CONTINUOUS
 70
0
 71
3
 72
14
 73
10
 74
8
 42
0.0000001
 43
0.0000001
 44
0.0000000001
 12
-0.0000430526
 22
-0.0759682034
 32
0.0
 13
0.0756798023
 23
0.0
 33
0.0
 40
0.0
 40
0.0
 40
0.0
 40
0.0
 40
0.1165130696
 40
0.2425606285
 40
0.3799513001
 40
0.5274190171
 40
0.6818925249
 40
0.8402257913
 40
1.0
 40
1.0
 40
1.0
 40
1.0
 10
7.0462411571
 20
4.3156017633
 30
0.0
 10
7.0462394851
 20
4.3126513338
 30
0.0
 10
7.0472534178
 20
4.3065224826
 30
0.0
 10
7.0514167105
 20
4.2977705819
 30
0.0
 10
7.058026154
 20
4.2896715351
 30
0.0
 10
7.066755062
 20
4.2827171048
 30
0.0
 10
7.0771513082
 20
4.2773817122
 30
0.0
 10
7.0886651591
 20
4.2740356423
 30
0.0
 10
7.0967105921
 20
4.2732777927
 30
0.0
 10
7.1007411523
 20
4.2732777927
 30
0.0
 11
7.0462411571
 21
4.3156017633
 31
0.0
 11
7.0475928659
 21
4.3068883683
 31
0.0
 11
7.051601666
 21
4.298232336
 31
0.0
 11
7.0581147815
 21
4.2901273086
 31
0.0
 11
7.0668116586
 21
4.2831332224
 31
0.0
 11
7.0771996613
 21
4.2777705959
 31
0.0
 11
7.0887031699
 21
4.2744160885
 31
0.0
 11
7.1007411523
 21
4.2732777927
 31
0.0
  0
SPLINE
  5
4CA
100
AcDbEntity
  8
0
100
AcDbSpline
 62
7
  6
CONTINUOUS
 70
0
 71
3
 72
8
 73
4
 74
2
 42
0.0000001
 43
0.0000001
 44
0.0000000001
 12
-0.0070101682
 22
0.0
 32
0.0
 13
-0.0069994757
 23
-0.0004493017
 33
0.0
 40
0.0
 40
0.0
 40
0.0
 40
0.0
 40
1.0
 40
1.0
 40
1.0
 40
1.0
 10
7.1007411523
 20
4.2831552363
 30
0.0
 10
7.0984044296
 20
4.2831552363
 30
0.0
 10
7.096066592
 20
4.2830819843
 30
0.0
 10
7.0937334334
 20
4.282932217
 30
0.0
 11
7.1007411523
 21
4.2831552363
 31
0.0
 11
7.0937334334
 21
4.282932217
 31
0.0
  0
SPLINE
  5
4CB
100
AcDbEntity
  8
0
100
AcDbSpline
 62
7
  6
CONTINUOUS
 70
0
 71
3
 72
10
 73
6
 74
4
 42
0.0000001
 43
0.0000001
 44
0.0000000001
 12
-0.0200731038
 22
-0.0012885078
 32
0.0
 13
-0.0192949915
 23
-0.0056938134
 33
0.0
 40
0.0
 40
0.0
 40
0.0
 40
0.0
 40
0.1840343391
 40
0.7014248641
 40
1.0
 40
1.0
 40
1.0
 40
1.0
 10
7.0937334334
 20
4.282932217
 30
0.0
 10
7.0925020533
 20
4.2828531738
 30
0.0
 10
7.0878137627
 20
4.2824706783
 30
0.0
 10
7.0811744415
 20
4.2814740366
 30
0.0
 10
7.0758609569
 20
4.280146964
 30
0.0
 10
7.073940622
 20
4.279580287
 30
0.0
 11
7.0937334334
 21
4.282932217
 31
0.0
 11
7.0900440547
 21
4.2826306688
 31
0.0
 11
7.0797634597
 21
4.2810493575
 31
0.0
 11
7.073940622
 21
4.279580287
 31
0.0
  0
SPLINE
  5
4CC
100
AcDbEntity
  8
0
100
AcDbSpline
 62
7
  6
CONTINUOUS
 70
0
 71
3
 72
9
 73
5
 74
3
 42
0.0000001
 43
0.0000001
 44
0.0000000001
 12
0.0170878932
 22
0.0
 32
0.0
 13
0.0168650656
 23
0.0027971972
 33
0.0
 40
0.0
 40
0.0
 40
0.0
 40
0.0
 40
0.6269056479
 40
1.0
 40
1.0
 40
1.0
 40
1.0
 10
7.1007411523
 20
3.9520686289
 30
0.0
 10
7.1043119845
 20
3.9520686289
 30
0.0
 10
7.1100121027
 20
3.9523414889
 30
0.0
 10
7.1156662384
 20
3.9530792342
 30
0.0
 10
7.1177636587
 20
3.953427107
 30
0.0
 11
7.1007411523
 21
3.9520686289
 31
0.0
 11
7.1114407855
 21
3.9525934487
 31
0.0
 11
7.1177636587
 21
3.953427107
 31
0.0
  0
SPLINE
  5
4CD
100
AcDbEntity
  8
0
100
AcDbSpline
 62
7
  6
CONTINUOUS
 70
0
 71
3
 72
9
 73
5
 74
3
 42
0.0000001
 43
0.0000001
 44
0.0000000001
 12
0.0098950922
 22
0.001641175
 32
0.0
 13
0.0096225046
 23
0.0028394974
 33
0.0
 40
0.0
 40
0.0
 40
0.0
 40
0.0
 40
0.4018228854
 40
1.0
 40
1.0
 40
1.0
 40
1.0
 10
7.1177636587
 20
3.953427107
 30
0.0
 10
7.1190890168
 20
3.9536469276
 30
0.0
 10
7.1223753512
 20
3.9542661535
 30
0.0
 10
7.1256228322
 20
3.9550773448
 30
0.0
 10
7.1275414862
 20
3.9556435189
 30
0.0
 11
7.1177636587
 21
3.953427107
 31
0.0
 11
7.1217237922
 21
3.9541755609
 31
0.0
 11
7.1275414862
 21
3.9556435189
 31
0.0
  0
SPLINE
  5
4CE
100
AcDbEntity
  8
0
100
AcDbSpline
 62
7
  6
CONTINUOUS
 70
0
 71
3
 72
22
 73
18
 74
16
 42
0.0000001
 43
0.0000001
 44
0.0000000001
 12
-0.1076692396
 22
-0.0209570676
 32
0.0
 13
-0.1076692396
 23
0.0209570675
 33
0.0
 40
0.0
 40
0.0
 40
0.0
 40
0.0
 40
0.0110466848
 40
0.0436777342
 40
0.0963361408
 40
0.1662757182
 40
0.2508874884
 40
0.3458858561
 40
0.4480922402
 40
0.5520721278
 40
0.6542947893
 40
0.749325918
 40
0.8339073555
 40
0.903811829
 40
0.9563923393
 40
0.9889785466
 40
1.0
 40
1.0
 40
1.0
 40
1.0
 10
7.1552411523
 20
4.3976119326
 30
0.0
 10
7.1548446896
 20
4.3975347639
 30
0.0
 10
7.1532765036
 20
4.3972327311
 30
0.0
 10
7.1498125187
 20
4.3965936247
 30
0.0
 10
7.1442154122
 20
4.3956503137
 30
0.0
 10
7.1367169749
 20
4.394561042
 30
0.0
 10
7.1276512256
 20
4.3935143332
 30
0.0
 10
7.117377739
 20
4.392689702
 30
0.0
 10
7.1063716927
 20
4.3922368049
 30
0.0
 10
7.0950919853
 20
4.3922371756
 30
0.0
 10
7.0840841774
 20
4.3926909021
 30
0.0
 10
7.0738100709
 20
4.3935163826
 30
0.0
 10
7.0647455899
 20
4.3945636438
 30
0.0
 10
7.0572524078
 20
4.3956526265
 30
0.0
 10
7.0516610314
 20
4.3965952009
 30
0.0
 10
7.0482023781
 20
4.3972333849
 30
0.0
 10
7.0466367095
 20
4.3975349401
 30
0.0
 10
7.0462411523
 20
4.3976119326
 30
0.0
 11
7.1552411523
 21
4.3976119326
 31
0.0
 11
7.154051309
 21
4.3973827724
 31
0.0
 11
7.1505314017
 21
4.3967334455
 31
0.0
 11
7.1448355674
 21
4.3957738772
 31
0.0
 11
7.1372434721
 21
4.3946717986
 31
0.0
 11
7.1280235284
 21
4.3936084508
 31
0.0
 11
7.1176364766
 21
4.3927758873
 31
0.0
 11
7.1064349129
 21
4.3923157165
 31
0.0
 11
7.0950293656
 21
4.3923160908
 31
0.0
 11
7.0838260495
 21
4.3927771025
 31
0.0
 11
7.0734354799
 21
4.3936107546
 31
0.0
 11
7.0642189224
 21
4.3946744224
 31
0.0
 11
7.0566307061
 21
4.3957764189
 31
0.0
 11
7.0509433359
 21
4.3967347954
 31
0.0
 11
7.0474282769
 21
4.3973832905
 31
0.0
 11
7.0462411523
 21
4.3976119326
 31
0.0
  0
SPLINE
  5
4CF
100
AcDbEntity
  8
0
100
AcDbSpline
 62
7
  6
CONTINUOUS
 70
0
 71
3
 72
22
 73
18
 74
16
 42
0.0000001
 43
0.0000001
 44
0.0000000001
 12
0.1076692396
 22
0.0209570676
 32
0.0
 13
0.1076692396
 23
-0.0209570675
 33
0.0
 40
0.0
 40
0.0
 40
0.0
 40
0.0
 40
0.0110466848
 40
0.0436777342
 40
0.0963361408
 40
0.1662757182
 40
0.2508874884
 40
0.3458858561
 40
0.4480922402
 40
0.5520721278
 40
0.6542947893
 40
0.749325918
 40
0.8339073555
 40
0.903811829
 40
0.9563923393
 40
0.9889785466
 40
1.0
 40
1.0
 40
1.0
 40
1.0
 10
7.0462411523
 20
3.8376119326
 30
0.0
 10
7.046637615
 20
3.8376891013
 30
0.0
 10
7.048205801
 20
3.8379911341
 30
0.0
 10
7.0516697859
 20
3.8386302405
 30
0.0
 10
7.0572668924
 20
3.8395735515
 30
0.0
 10
7.0647653297
 20
3.8406628231
 30
0.0
 10
7.073831079
 20
3.841709532
 30
0.0
 10
7.0841045656
 20
3.8425341632
 30
0.0
 10
7.0951106119
 20
3.8429870603
 30
0.0
 10
7.1063903192
 20
3.8429866896
 30
0.0
 10
7.1173981272
 20
3.8425329631
 30
0.0
 10
7.1276722337
 20
3.8417074825
 30
0.0
 10
7.1367367147
 20
3.8406602214
 30
0.0
 10
7.1442298968
 20
3.8395712387
 30
0.0
 10
7.1498212732
 20
3.8386286643
 30
0.0
 10
7.1532799264
 20
3.8379904803
 30
0.0
 10
7.1548455951
 20
3.837688925
 30
0.0
 10
7.1552411523
 20
3.8376119326
 30
0.0
 11
7.0462411523
 21
3.8376119326
 31
0.0
 11
7.0474309956
 21
3.8378410928
 31
0.0
 11
7.0509509028
 21
3.8384904197
 31
0.0
 11
7.0566467372
 21
3.839449988
 31
0.0
 11
7.0642388325
 21
3.8405520666
 31
0.0
 11
7.0734587761
 21
3.8416154144
 31
0.0
 11
7.0838458279
 21
3.8424479779
 31
0.0
 11
7.0950473916
 21
3.8429081487
 31
0.0
 11
7.106452939
 21
3.8429077744
 31
0.0
 11
7.1176562551
 21
3.8424467627
 31
0.0
 11
7.1280468247
 21
3.8416131106
 31
0.0
 11
7.1372633822
 21
3.8405494428
 31
0.0
 11
7.1448515984
 21
3.8394474463
 31
0.0
 11
7.1505389687
 21
3.8384890698
 31
0.0
 11
7.1540540277
 21
3.8378405747
 31
0.0
 11
7.1552411523
 21
3.8376119326
 31
0.0
  0
SPLINE
  5
4D0
100
AcDbEntity
  8
0
100
AcDbSpline
 62
7
  6
CONTINUOUS
 70
0
 71
3
 72
14
 73
10
 74
8
 42
0.0000001
 43
0.0000001
 44
0.0000000001
 12
-0.0713766727
 22
0.0
 32
0.0
 13
-0.0000406046
 23
-0.0716486754
 33
0.0
 40
0.0
 40
0.0
 40
0.0
 40
0.0
 40
0.169101671
 40
0.3335273421
 40
0.4887502821
 40
0.631426423
 40
0.7611932116
 40
0.8817892995
 40
1.0
 40
1.0
 40
1.0
 40
1.0
 10
7.1007411523
 20
4.3503524319
 30
0.0
 10
7.0967178474
 20
4.3503524319
 30
0.0
 10
7.0887727823
 20
4.3498588373
 30
0.0
 10
7.0773250487
 20
4.3476200525
 30
0.0
 10
7.0669258937
 20
4.3438775616
 30
0.0
 10
7.0581070355
 20
4.3386486966
 30
0.0
 10
7.0513630289
 20
4.3320044047
 30
0.0
 10
7.047149773
 20
4.3241402119
 30
0.0
 10
7.0462427571
 20
4.3184249767
 30
0.0
 10
7.0462411571
 20
4.3156017633
 30
0.0
 11
7.1007411523
 21
4.3503524319
 31
0.0
 11
7.0886955915
 21
4.3495860741
 31
0.0
 11
7.0771880962
 21
4.3472806589
 31
0.0
 11
7.0667951064
 21
4.3434418327
 31
0.0
 11
7.0580995293
 21
4.3381412981
 31
0.0
 11
7.0515908956
 21
4.3315512839
 31
0.0
 11
7.0475873654
 21
4.3239312403
 31
0.0
 11
7.0462411571
 21
4.3156017633
 31
0.0
  0
SPLINE
  5
4D1
100
AcDbEntity
  8
0
100
AcDbSpline
 62
7
  6
CONTINUOUS
 70
0
 71
3
 72
14
 73
10
 74
8
 42
0.0000001
 43
0.0000001
 44
0.0000000001
 12
0.0000406197
 22
-0.071648678
 32
0.0
 13
0.0713766738
 23
0.0
 33
0.0
 40
0.0
 40
0.0
 40
0.0
 40
0.0
 40
0.1182080425
 40
0.2388037891
 40
0.3685706033
 40
0.5112470139
 40
0.6664707902
 40
0.8308971346
 40
1.0
 40
1.0
 40
1.0
 40
1.0
 10
7.0462411573
 20
3.9196221041
 30
0.0
 10
7.0462427578
 20
3.9167989541
 30
0.0
 10
7.0471497388
 20
3.9110837899
 30
0.0
 10
7.0513629008
 20
3.9032196284
 30
0.0
 10
7.0581068664
 20
3.8965752934
 30
0.0
 10
7.0669257273
 20
3.8913463768
 30
0.0
 10
7.0773249145
 20
3.8876038459
 30
0.0
 10
7.088772709
 20
3.8853650341
 30
0.0
 10
7.0967178189
 20
3.8848714333
 30
0.0
 10
7.1007411523
 20
3.8848714333
 30
0.0
 11
7.0462411573
 21
3.9196221041
 31
0.0
 11
7.0475873044
 21
3.911292807
 31
0.0
 11
7.0515907668
 21
3.9036727553
 31
0.0
 11
7.0580993606
 21
3.8970826987
 31
0.0
 11
7.0667949311
 21
3.891782116
 31
0.0
 11
7.077187967
 21
3.8879432423
 31
0.0
 11
7.0886955066
 21
3.885637802
 31
0.0
 11
7.1007411523
 21
3.8848714333
 31
0.0
  0
SPLINE
  5
4D2
100
AcDbEntity
  8
0
100
AcDbSpline
 62
7
  6
CONTINUOUS
 70
0
 71
3
 72
14
 73
10
 74
8
 42
0.0000001
 43
0.0000001
 44
0.0000000001
 12
0.0713766724
 22
0.0
 32
0.0
 13
0.0000405982
 23
0.0716486745
 33
0.0
 40
0.0
 40
0.0
 40
0.0
 40
0.0
 40
0.1691014004
 40
0.3335268529
 40
0.4887496306
 40
0.6314256409
 40
0.761192309
 40
0.8817884798
 40
1.0
 40
1.0
 40
1.0
 40
1.0
 10
7.1007411523
 20
3.8848714333
 30
0.0
 10
7.1047644507
 20
3.8848714333
 30
0.0
 10
7.1127095041
 20
3.8853650264
 30
0.0
 10
7.1241572229
 20
3.8876038046
 30
0.0
 10
7.1345563684
 20
3.891346285
 30
0.0
 10
7.1433752233
 20
3.8965751354
 30
0.0
 10
7.1501192381
 20
3.903219412
 30
0.0
 10
7.1543325211
 20
3.9110836118
 30
0.0
 10
7.1552395478
 20
3.9167988681
 30
0.0
 10
7.1552411475
 20
3.919622101
 30
0.0
 11
7.1007411523
 21
3.8848714333
 31
0.0
 11
7.1127866938
 21
3.8856377886
 31
0.0
 11
7.1242941746
 21
3.8879431969
 31
0.0
 11
7.1346871559
 21
3.8917820124
 31
0.0
 11
7.1433827308
 21
3.8970825325
 31
0.0
 11
7.1498913703
 21
3.903672529
 31
0.0
 11
7.1538949204
 21
3.9112925687
 31
0.0
 11
7.1552411475
 21
3.919622101
 31
0.0
  0
SPLINE
  5
4D3
100
AcDbEntity
  8
0
100
AcDbSpline
 62
7
  6
CONTINUOUS
 70
0
 71
3
 72
14
 73
10
 74
8
 42
0.0000001
 43
0.0000001
 44
0.0000000001
 12
-0.0000406244
 22
0.071648678
 32
0.0
 13
-0.0713766741
 23
0.0
 33
0.0
 40
0.0
 40
0.0
 40
0.0
 40
0.0
 40
0.1182071039
 40
0.2388029845
 40
0.3685698851
 40
0.5112464347
 40
0.6664703703
 40
0.8308969075
 40
1.0
 40
1.0
 40
1.0
 40
1.0
 10
7.1552411473
 20
4.3156017604
 30
0.0
 10
7.1552395466
 20
4.318424888
 30
0.0
 10
7.1543325769
 20
4.3241400331
 30
0.0
 10
7.1501194411
 20
4.3320041897
 30
0.0
 10
7.1433754794
 20
4.3386485419
 30
0.0
 10
7.1345566152
 20
4.3438774718
 30
0.0
 10
7.1241574187
 20
4.3476200122
 30
0.0
 10
7.112709611
 20
4.3498588298
 30
0.0
 10
7.1047644911
 20
4.3503524319
 30
0.0
 10
7.1007411523
 20
4.3503524319
 30
0.0
 11
7.1552411473
 21
4.3156017604
 31
0.0
 11
7.1538950217
 21
4.3239309938
 31
0.0
 11
7.1498915723
 21
4.3315510632
 31
0.0
 11
7.1433829848
 21
4.3381411347
 31
0.0
 11
7.1346874111
 21
4.3434417313
 31
0.0
 11
7.1242943666
 21
4.3472806148
 31
0.0
 11
7.1127868142
 21
4.3495860611
 31
0.0
 11
7.1007411523
 21
4.3503524319
 31
0.0
  0
SPLINE
  5
4D4
100
AcDbEntity
  8
126-401_HEX_FEATURES
100
AcDbSpline
 62
7
  6
CONTINUOUS
 70
0
 71
3
 72
12
 73
8
 74
6
 42
0.0000001
 43
0.0000001
 44
0.0000000001
 12
0.0
 22
0.0313713702
 32
0.0
 13
0.0314318323
 23
0.0000581646
 33
0.0
 40
0.0
 40
0.0
 40
0.0
 40
0.0
 40
0.23609899
 40
0.4609202891
 40
0.6636076468
 40
0.8443570222
 40
1.0
 40
1.0
 40
1.0
 40
1.0
 10
6.5601241429
 20
4.1176119326
 30
0.0
 10
6.5601241429
 20
4.1200808489
 30
0.0
 10
6.5606327065
 20
4.1249180145
 30
0.0
 10
6.5628905333
 20
4.131548052
 30
0.0
 10
6.5665015338
 20
4.1368992924
 30
0.0
 10
6.571144376
 20
4.1403354764
 30
0.0
 10
6.5747082755
 20
4.1411085069
 30
0.0
 10
6.5763389902
 20
4.1411115245
 30
0.0
 11
6.5601241429
 21
4.1176119326
 31
0.0
 11
6.5609231845
 21
4.1249754549
 31
0.0
 11
6.5632654696
 21
4.1316281112
 31
0.0
 11
6.5669184734
 21
4.1368326385
 31
0.0
 11
6.571553091
 21
4.1400996328
 31
0.0
 11
6.5763389902
 21
4.1411115245
 31
0.0
  0
SPLINE
  5
4D5
100
AcDbEntity
  8
126-401_HEX_FEATURES
100
AcDbSpline
 62
7
  6
CONTINUOUS
 70
0
 71
3
 72
13
 73
9
 74
7
 42
0.0000001
 43
0.0000001
 44
0.0000000001
 12
-0.0314679844
 22
0.0000342252
 32
0.0
 13
0.0
 23
0.0314142071
 33
0.0
 40
0.0
 40
0.0
 40
0.0
 40
0.0
 40
0.1272876663
 40
0.2752754145
 40
0.4359026592
 40
0.6122727622
 40
0.8024994956
 40
1.0
 40
1.0
 40
1.0
 40
1.0
 10
6.576340028
 20
4.094112199
 30
0.0
 10
6.5750048659
 20
4.0941136511
 30
0.0
 10
6.5720942483
 20
4.0946224298
 30
0.0
 10
6.5680817262
 20
4.0969766918
 30
0.0
 10
6.5646528345
 20
4.1008114844
 30
0.0
 10
6.5620824079
 20
4.1057504061
 30
0.0
 10
6.5604837288
 20
4.111473812
 30
0.0
 10
6.5601241429
 20
4.1155438253
 30
0.0
 10
6.5601241429
 20
4.1176119326
 30
0.0
 11
6.576340028
 21
4.094112199
 31
0.0
 11
6.5723936606
 21
4.0947932717
 31
0.0
 11
6.5683495801
 21
4.0970862717
 31
0.0
 11
6.5649321682
 21
4.100798843
 31
0.0
 11
6.5623231766
 21
4.1056866443
 31
0.0
 11
6.5606822869
 21
4.1114327673
 31
0.0
 11
6.5601241429
 21
4.1176119326
 31
0.0
  0
SPLINE
  5
4D6
100
AcDbEntity
  8
126-401_HEX_FEATURES
100
AcDbSpline
 62
7
  6
CONTINUOUS
 70
0
 71
3
 72
15
 73
11
 74
9
 42
0.0000001
 43
0.0000001
 44
0.0000000001
 12
0.0446055842
 22
-0.0007637914
 32
0.0
 13
0.0
 23
-0.044612123
 33
0.0
 40
0.0
 40
0.0
 40
0.0
 40
0.0
 40
0.1288975329
 40
0.2586688218
 40
0.3867323858
 40
0.5118791311
 40
0.634410103
 40
0.7550011158
 40
0.8740290025
 40
1.0
 40
1.0
 40
1.0
 40
1.0
 10
6.5767411523
 20
4.1411050291
 30
0.0
 10
6.5786576689
 20
4.1410722122
 30
0.0
 10
6.5825036995
 20
4.1407720715
 30
0.0
 10
6.588153623
 20
4.1396241552
 30
0.0
 10
6.5935590879
 20
4.1377768745
 30
0.0
 10
6.5985587581
 20
4.135235956
 30
0.0
 10
6.6030007489
 20
4.1319853103
 30
0.0
 10
6.6066741561
 20
4.1279879136
 30
0.0
 10
6.6093030395
 20
4.1231562705
 30
0.0
 10
6.609975171
 20
4.1194852105
 30
0.0
 10
6.609975171
 20
4.1176119326
 30
0.0
 11
6.5767411523
 21
4.1411050291
 31
0.0
 11
6.5824740617
 21
4.1406569609
 31
0.0
 11
6.588146226
 21
4.1394979148
 31
0.0
 11
6.5935479219
 21
4.1376372179
 31
0.0
 11
6.5985148796
 21
4.1350877253
 31
0.0
 11
6.6029056735
 21
4.1318316396
 31
0.0
 11
6.6065108255
 21
4.1278384761
 31
0.0
 11
6.608995932
 21
4.1231457939
 31
0.0
 11
6.609975171
 21
4.1176119326
 31
0.0
  0
SPLINE
  5
4D7
100
AcDbEntity
  8
126-401_HEX_FEATURES
100
AcDbSpline
 62
7
  6
CONTINUOUS
 70
0
 71
3
 72
15
 73
11
 74
9
 42
0.0000001
 43
0.0000001
 44
0.0000000001
 12
0.0
 22
-0.0446037849
 32
0.0
 13
-0.0445972473
 23
-0.0007636487
 33
0.0
 40
0.0
 40
0.0
 40
0.0
 40
0.0
 40
0.1364594754
 40
0.2667511945
 40
0.3932986154
 40
0.5183371034
 40
0.640537338
 40
0.7605250163
 40
0.8802631631
 40
1.0
 40
1.0
 40
1.0
 40
1.0
 10
6.609975171
 20
4.1176119326
 30
0.0
 10
6.609975171
 20
4.1155830629
 30
0.0
 10
6.6091777689
 20
4.1115834205
 30
0.0
 10
6.6061457005
 20
4.1064926439
 30
0.0
 10
6.6020902524
 20
4.1024553268
 30
0.0
 10
6.597452672
 20
4.0993445909
 30
0.0
 10
6.5924885357
 20
4.0970286706
 30
0.0
 10
6.5873433295
 20
4.0954067147
 30
0.0
 10
6.582080883
 20
4.0944117204
 30
0.0
 10
6.5785211301
 20
4.0941493151
 30
0.0
 10
6.5767411523
 20
4.0941188361
 30
0.0
 11
6.609975171
 21
4.1176119326
 31
0.0
 11
6.6088298397
 21
4.1116340545
 31
0.0
 11
6.605924468
 21
4.1066009251
 31
0.0
 11
6.6019604615
 21
4.1025825965
 31
0.0
 11
6.5973472093
 21
4.099448438
 31
0.0
 11
6.5924155729
 21
4.0971272473
 31
0.0
 11
6.5873143436
 21
4.0955085
 31
0.0
 11
6.5820673894
 21
4.0945118335
 31
0.0
 11
6.5767411523
 21
4.0941188361
 31
0.0
  0
SPLINE
  5
4D8
100
AcDbEntity
  8
0
100
AcDbSpline
 62
7
  6
CONTINUOUS
 70
0
 71
3
 72
14
 73
10
 74
8
 42
0.0000001
 43
0.0000001
 44
0.0000000001
 12
-0.1046826132
 22
0.2029792199
 32
0.0
 13
0.1046826132
 23
0.2029792199
 33
0.0
 40
0.0
 40
0.0
 40
0.0
 40
0.0
 40
0.1530438599
 40
0.2956043717
 40
0.4324922324
 40
0.5675957362
 40
0.7044780411
 40
0.8469906498
 40
1.0
 40
1.0
 40
1.0
 40
1.0
 10
4.9238048182
 20
3.6295094601
 30
0.0
 10
4.9184644744
 20
3.6398643679
 30
0.0
 10
4.9090594811
 20
3.6603640962
 30
0.0
 10
4.8990178629
 20
3.6918196205
 30
0.0
 10
4.8938741528
 20
3.7230872893
 30
0.0
 10
4.8938758459
 20
3.7543563135
 30
0.0
 10
4.8990219264
 20
3.7856194185
 30
0.0
 10
4.9090631088
 20
3.8170679335
 30
0.0
 10
4.9184656786
 20
3.8375618322
 30
0.0
 10
4.9238048182
 20
3.8479144051
 30
0.0
 11
4.9238048182
 21
3.6295094601
 31
0.0
 11
4.9094072194
 21
3.661359101
 31
0.0
 11
4.8996723472
 21
3.6924281522
 31
0.0
 11
4.8947071135
 21
3.723294266
 31
0.0
 11
4.8947087442
 21
3.7541496741
 31
0.0
 11
4.8996767331
 21
3.7850140594
 31
0.0
 11
4.9094100555
 21
3.8160721315
 31
0.0
 11
4.9238048182
 21
3.8479144051
 31
0.0
  0
SPLINE
  5
4D9
100
AcDbEntity
  8
0
100
AcDbSpline
 62
7
  6
CONTINUOUS
 70
0
 71
3
 72
15
 73
11
 74
9
 42
0.0000001
 43
0.0000001
 44
0.0000000001
 12
0.1643031241
 22
0.1839340856
 32
0.0
 13
-0.1643031241
 23
0.1839340856
 33
0.0
 40
0.0
 40
0.0
 40
0.0
 40
0.0
 40
0.1498215377
 40
0.2783315905
 40
0.3927788038
 40
0.5000592815
 40
0.6073304266
 40
0.7217569014
 40
0.8502022558
 40
1.0
 40
1.0
 40
1.0
 40
1.0
 10
5.2972411523
 20
3.6295094601
 30
0.0
 10
5.3054465345
 20
3.6386952226
 30
0.0
 10
5.319878314
 20
3.6565381812
 30
0.0
 10
5.3364760428
 20
3.6843965953
 30
0.0
 10
5.3464611497
 20
3.7116236693
 30
0.0
 10
5.3498221728
 20
3.738726025
 30
0.0
 10
5.3464543991
 20
3.7658256888
 30
0.0
 10
5.3364672819
 20
3.7930434654
 30
0.0
 10
5.3198725523
 20
3.8208929258
 30
0.0
 10
5.3054452314
 20
3.8387301014
 30
0.0
 10
5.2972411523
 20
3.8479144051
 30
0.0
 11
5.2972411523
 21
3.6295094601
 31
0.0
 11
5.3202096261
 21
3.6584543731
 31
0.0
 11
5.3361358109
 21
3.6858570881
 31
0.0
 11
5.3455848083
 21
3.7124548695
 31
0.0
 11
5.3487251173
 21
3.7387266334
 31
0.0
 11
5.3455785291
 21
3.7649953279
 31
0.0
 11
5.3361264969
 21
3.7915866027
 31
0.0
 11
5.3202062894
 21
3.8189743357
 31
0.0
 11
5.2972411523
 21
3.8479144051
 31
0.0
  0
SPLINE
  5
4DA
100
AcDbEntity
  8
0
100
AcDbSpline
 62
7
  6
CONTINUOUS
 70
0
 71
3
 72
14
 73
10
 74
8
 42
0.0000001
 43
0.0000001
 44
0.0000000001
 12
-0.1103507163
 22
0.4279393037
 32
0.0
 13
0.1103507163
 23
0.4279393037
 33
0.0
 40
0.0
 40
0.0
 40
0.0
 40
0.0
 40
0.1477720816
 40
0.2900907235
 40
0.430227046
 40
0.569863817
 40
0.7099928421
 40
0.8522618536
 40
1.0
 40
1.0
 40
1.0
 40
1.0
 10
4.9238048182
 20
3.8992069876
 30
0.0
 10
4.9183692332
 20
3.9202861482
 30
0.0
 10
4.908853881
 20
3.9619801871
 30
0.0
 10
4.8989267977
 20
4.0246288261
 30
0.0
 10
4.8938722548
 20
4.086668261
 30
0.0
 10
4.8938739135
 20
4.148594722
 30
0.0
 10
4.8989308314
 20
4.2106255284
 30
0.0
 10
4.9088576069
 20
4.2732606038
 30
0.0
 10
4.9183704814
 20
4.3149425578
 30
0.0
 10
4.9238048182
 20
4.3360168776
 30
0.0
 11
4.9238048182
 21
3.8992069876
 31
0.0
 11
4.9094072194
 21
3.9629062694
 31
0.0
 11
4.8996723472
 21
4.0250443718
 31
0.0
 11
4.8947071135
 21
4.0867765995
 31
0.0
 11
4.8947087442
 21
4.1484874157
 31
0.0
 11
4.8996767331
 21
4.2102161863
 31
0.0
 11
4.9094100555
 21
4.2723323303
 31
0.0
 11
4.9238048182
 21
4.3360168776
 31
0.0
  0
SPLINE
  5
4DB
100
AcDbEntity
  8
0
100
AcDbSpline
 62
7
  6
CONTINUOUS
 70
0
 71
3
 72
15
 73
11
 74
9
 42
0.0000001
 43
0.0000001
 44
0.0000000001
 12
0.1843202379
 22
0.4126856942
 32
0.0
 13
-0.1843202379
 23
0.4126856942
 33
0.0
 40
0.0
 40
0.0
 40
0.0
 40
0.0
 40
0.1377942686
 40
0.2640673782
 40
0.3836049145
 40
0.5000649493
 40
0.6165122554
 40
0.736022619
 40
0.8622283762
 40
1.0
 40
1.0
 40
1.0
 40
1.0
 10
5.2972411523
 20
3.8992069876
 30
0.0
 10
5.3057072431
 20
3.9181622287
 30
0.0
 10
5.3205387858
 20
3.9551431676
 30
0.0
 10
5.3368759011
 20
4.0106794487
 30
0.0
 10
5.3465690706
 20
4.064510188
 30
0.0
 10
5.349790727
 20
4.1176394909
 30
0.0
 10
5.3465625369
 20
4.1707642415
 30
0.0
 10
5.3368670153
 20
4.2245780241
 30
0.0
 10
5.3205325659
 20
4.2800965193
 30
0.0
 10
5.3057058518
 20
4.3170647515
 30
0.0
 10
5.2972411523
 20
4.3360168776
 30
0.0
 11
5.2972411523
 21
3.8992069876
 31
0.0
 11
5.3202096261
 21
3.9570968136
 31
0.0
 11
5.3361358109
 21
4.0119022437
 31
0.0
 11
5.3455848083
 21
4.0650978063
 31
0.0
 11
5.3487251173
 21
4.1176413343
 31
0.0
 11
5.3455785291
 21
4.1701787232
 31
0.0
 11
5.3361264969
 21
4.2233612729
 31
0.0
 11
5.3202062894
 21
4.2781367389
 31
0.0
 11
5.2972411523
 21
4.3360168776
 31
0.0
  0
SPLINE
  5
4DC
100
AcDbEntity
  8
0
100
AcDbSpline
 62
7
  6
CONTINUOUS
 70
0
 71
3
 72
14
 73
10
 74
8
 42
0.0000001
 43
0.0000001
 44
0.0000000001
 12
-0.1046826132
 22
0.2029792199
 32
0.0
 13
0.1046826132
 23
0.2029792199
 33
0.0
 40
0.0
 40
0.0
 40
0.0
 40
0.0
 40
0.1530438599
 40
0.2956043717
 40
0.4324922324
 40
0.5675957362
 40
0.7044780411
 40
0.8469906498
 40
1.0
 40
1.0
 40
1.0
 40
1.0
 10
4.9238048182
 20
4.3873094601
 30
0.0
 10
4.9184644744
 20
4.3976643679
 30
0.0
 10
4.9090594811
 20
4.4181640962
 30
0.0
 10
4.8990178629
 20
4.4496196205
 30
0.0
 10
4.8938741528
 20
4.4808872893
 30
0.0
 10
4.8938758459
 20
4.5121563135
 30
0.0
 10
4.8990219264
 20
4.5434194185
 30
0.0
 10
4.9090631088
 20
4.5748679335
 30
0.0
 10
4.9184656786
 20
4.5953618322
 30
0.0
 10
4.9238048182
 20
4.6057144051
 30
0.0
 11
4.9238048182
 21
4.3873094601
 31
0.0
 11
4.9094072194
 21
4.419159101
 31
0.0
 11
4.8996723472
 21
4.4502281522
 31
0.0
 11
4.8947071135
 21
4.481094266
 31
0.0
 11
4.8947087442
 21
4.5119496741
 31
0.0
 11
4.8996767331
 21
4.5428140594
 31
0.0
 11
4.9094100555
 21
4.5738721315
 31
0.0
 11
4.9238048182
 21
4.6057144051
 31
0.0
  0
SPLINE
  5
4DD
100
AcDbEntity
  8
0
100
AcDbSpline
 62
7
  6
CONTINUOUS
 70
0
 71
3
 72
15
 73
11
 74
9
 42
0.0000001
 43
0.0000001
 44
0.0000000001
 12
0.1643031241
 22
0.1839340856
 32
0.0
 13
-0.1643031241
 23
0.1839340856
 33
0.0
 40
0.0
 40
0.0
 40
0.0
 40
0.0
 40
0.1498215377
 40
0.2783315905
 40
0.3927788038
 40
0.5000592815
 40
0.6073304266
 40
0.7217569014
 40
0.8502022558
 40
1.0
 40
1.0
 40
1.0
 40
1.0
 10
5.2972411523
 20
4.3873094601
 30
0.0
 10
5.3054465345
 20
4.3964952226
 30
0.0
 10
5.319878314
 20
4.4143381812
 30
0.0
 10
5.3364760428
 20
4.4421965953
 30
0.0
 10
5.3464611497
 20
4.4694236693
 30
0.0
 10
5.3498221728
 20
4.496526025
 30
0.0
 10
5.3464543991
 20
4.5236256888
 30
0.0
 10
5.3364672819
 20
4.5508434654
 30
0.0
 10
5.3198725523
 20
4.5786929258
 30
0.0
 10
5.3054452314
 20
4.5965301014
 30
0.0
 10
5.2972411523
 20
4.6057144051
 30
0.0
 11
5.2972411523
 21
4.3873094601
 31
0.0
 11
5.3202096261
 21
4.4162543731
 31
0.0
 11
5.3361358109
 21
4.4436570881
 31
0.0
 11
5.3455848083
 21
4.4702548695
 31
0.0
 11
5.3487251173
 21
4.4965266334
 31
0.0
 11
5.3455785291
 21
4.5227953279
 31
0.0
 11
5.3361264969
 21
4.5493866027
 31
0.0
 11
5.3202062894
 21
4.5767743357
 31
0.0
 11
5.2972411523
 21
4.6057144051
 31
0.0
  0
ENDSEC
  0
SECTION
  2
OBJECTS
  0
DICTIONARY
  5
C
100
AcDbDictionary
280
0
281
1
  3
ACAD_GROUP
350
D
  3
ACAD_MLINESTYLE
350
17
  3
ACAD_LAYOUT
350
1A
  3
ACAD_PLOTSETTINGS
350
19
  3
ACAD_PLOTSTYLENAME
350
E
  0
DICTIONARY
  5
D
102
{ACAD_REACTORS
330
C
102
}
100
AcDbDictionary
280
0
281
1
  0
ACDBDICTIONARYWDFLT
  5
E
102
{ACAD_REACTORS
330
C
102
}
100
AcDbDictionary
281
1
  3
Normal
350
F
100
AcDbDictionaryWithDefault
340
F
  0
DICTIONARY
  5
17
102
{ACAD_REACTORS
330
C
102
}
100
AcDbDictionary
280
0
281
1
  3
Standard
350
18
  0
DICTIONARY
  5
19
102
{ACAD_REACTORS
330
C
102
}
100
AcDbDictionary
281
1
  0
DICTIONARY
  5
1A
102
{ACAD_REACTORS
330
C
102
}
100
AcDbDictionary
281
1
  3
Layout1
350
1E
  3
Model
350
22
  0
ACDBPLACEHOLDER
  5
F
102
{ACAD_REACTORS
330
E
102
}
  0
MLINESTYLE
  5
18
102
{ACAD_REACTORS
330
17
102
}
100
AcDbMlineStyle
  2
STANDARD
 70
0
  3

 62
256
 51
90.0
 52
90.0
 71
2
 49
0.5
 62
256
  6
BYLAYER
 49
-0.5
 62
256
  6
BYLAYER
  0
LAYOUT
  5
1E
102
{ACAD_REACTORS
330
1A
102
}
100
AcDbPlotSettings
  1

  2

  4

  6

 40
0.0
 41
0.0
 42
0.0
 43
0.0
 44
0.0
 45
0.0
 46
0.0
 47
0.0
 48
0.0
 49
0.0
140
0.0
141
0.0
142
1.0
143
1.0
 70
0
 72
0
 73
0
 74
0
  7

 75
0
147
1.0
148
0.0
149
0.0
100
AcDbLayout
  1
Layout1
 70
0
 71
0
 10
0.0
 20
0.0
 11
0.0
 21
0.0
 12
0.0
 22
0.0
 32
0.0
 14
0.0
 24
0.0
 34
0.0
 15
0.0
 25
0.0
 35
0.0
146
0.0
 13
0.0
 23
0.0
 33
0.0
 16
0.0
 26
0.0
 36
0.0
 17
0.0
 27
0.0
 37
0.0
 76
0
330
1B
331
0
345
0
346
0
  0
LAYOUT
  5
22
102
{ACAD_REACTORS
330
1A
102
}
100
AcDbPlotSettings
  1

  2

  4

  6

 40
0.0
 41
0.0
 42
0.0
 43
0.0
 44
0.0
 45
0.0
 46
0.0
 47
0.0
 48
0.0
 49
0.0
140
0.0
141
0.0
142
1.0
143
1.0
 70
0
 72
0
 73
0
 74
0
  7

 75
0
147
1.0
148
0.0
149
0.0
100
AcDbLayout
  1
Model
 70
0
 71
0
 10
0.0
 20
0.0
 11
0.0
 21
0.0
 12
0.0
 22
0.0
 32
0.0
 14
0.0
 24
0.0
 34
0.0
 15
0.0
 25
0.0
 35
0.0
146
0.0
 13
0.0
 23
0.0
 33
0.0
 16
0.0
 26
0.0
 36
0.0
 17
0.0
 27
0.0
 37
0.0
 76
0
330
1F
331
0
345
0
346
0
  0
ENDSEC
  0
EOF
