999
DXF file: RSJC-LAN.dxf
999
Pro/ENGINEER 2006240 by Parametric Technology Corporation
  0
SECTION
  2
HEADER
  9
$ACADVER
  1
AC1015
  9
$DWGCODEPAGE
  3
ANSI_1252
  9
$EXTMAX
 10
11.6929133858
 20
8.2677165354
 30
0.0
  9
$EXTMIN
 10
0.0
 20
0.0
 30
0.0
  9
$LIMMIN
 10
0.0
 20
0.0
  9
$LIMMAX
 10
11.6929133858
 20
8.2677165354
  9
$VIEWCTR
 10
5.8464566929
 20
4.1338582677
  9
$VIEWSIZE
 40
8.2677165354
  9
$CLAYER
  8
0
  9
$LTSCALE
 40
0.6431102362
  9
$CELTYPE
  6
BYLAYER
  9
$DIMSCALE
 40
1.0
  9
$DIMASZ
 40
0.1875
  9
$DIMEXO
 40
0.0730807087
  9
$DIMDLI
 40
0.4443307087
  9
$DIMEXE
 40
0.2104724409
  9
$DIMCEN
 40
0.1052362205
  9
$DIMLFAC
 40
1.0
  9
$DIMBLK
  1
_CLOSED
  9
$DIMTXT
 40
0.15625
  9
$DIMTOL
 70
0
  9
$DIMLIM
 70
0
  9
$DIMTFAC
 40
1.0
  9
$PDMODE
 70
3
  9
$PDSIZE
 40
0.3125
  9
$HANDSEED
  5
529
  9
$MEASUREMENT
 70
0
  9
$INSUNITS
 70
1
  0
ENDSEC
  0
SECTION
  2
CLASSES
  0
CLASS
  1
ACDBDICTIONARYWDFLT
  2
AcDbDictionaryWithDefault
  3
AutoCAD 2000
 90
0
280
0
281
0
  0
CLASS
  1
ACDBPLACEHOLDER
  2
AcDbPlaceHolder
  3
AutoCAD 2000
 90
0
280
0
281
0
  0
CLASS
  1
LAYOUT
  2
AcDbLayout
  3
AutoCAD 2000
 90
0
280
0
281
0
  0
ENDSEC
  0
SECTION
  2
TABLES
  0
TABLE
  2
VPORT
  5
8
100
AcDbSymbolTable
 70
2
  0
VPORT
  5
1F4
100
AcDbSymbolTableRecord
100
AcDbViewportTableRecord
  2
*ACTIVE
 70
0
 10
0.0
 20
0.0
 11
1.0
 21
1.0
 12
5.8464566929
 22
4.1338582677
 13
0.0
 23
0.0
 14
1.0
 24
1.0
 15
0.0
 25
0.0
 16
0.0
 26
0.0
 36
1.0
 17
0.0
 27
0.0
 37
0.0
 40
8.2677165354
 41
1.4142857143
 42
50.0
 43
0.0
 44
0.0
 50
0.0
 51
0.0
 71
0
 72
100
 73
1
 74
1
 75
0
 76
0
 77
0
 78
0
  0
ENDTAB
  0
TABLE
  2
LTYPE
  5
5
100
AcDbSymbolTable
 70
6
  0
LTYPE
  5
14
100
AcDbSymbolTableRecord
100
AcDbLinetypeTableRecord
  2
BYBLOCK
 70
0
  3

 72
65
 73
0
 40
0.0
  0
LTYPE
  5
15
100
AcDbSymbolTableRecord
100
AcDbLinetypeTableRecord
  2
BYLAYER
 70
0
  3

 72
65
 73
0
 40
0.0
  0
LTYPE
  5
16
100
AcDbSymbolTableRecord
100
AcDbLinetypeTableRecord
  2
CONTINUOUS
 70
64
  3
Solid line
 72
65
 73
0
 40
0.0
  0
LTYPE
  5
1F5
100
AcDbSymbolTableRecord
100
AcDbLinetypeTableRecord
  2
CENTER
 70
64
  3
____ _ ____ _ ____ _ ____ _ ____ _ ____ _ ____
 72
65
 73
4
 40
0.6
 49
0.375
 74
0
 49
-0.075
 74
0
 49
0.075
 74
0
 49
-0.075
 74
0
  0
LTYPE
  5
1F6
100
AcDbSymbolTableRecord
100
AcDbLinetypeTableRecord
  2
HIDDEN
 70
64
  3
- - - - - - - - - - - - - - - - - - - -
 72
65
 73
2
 40
0.2
 49
0.1
 74
0
 49
-0.1
 74
0
  0
LTYPE
  5
1F7
100
AcDbSymbolTableRecord
100
AcDbLinetypeTableRecord
  2
PHANTOM
 70
64
  3
_____ _ _ _____ _ _ _____ _ _ _____
 72
65
 73
6
 40
0.8
 49
0.45
 74
0
 49
-0.05
 74
0
 49
0.1
 74
0
 49
-0.05
 74
0
 49
0.1
 74
0
 49
-0.05
 74
0
  0
LTYPE
  5
1F8
100
AcDbSymbolTableRecord
100
AcDbLinetypeTableRecord
  2
DOT
 70
64
  3
. . . . . . . . . . . . . . . . . . . .
 72
65
 73
2
 40
0.2
 49
0.1
 74
0
 49
-0.1
 74
0
  0
LTYPE
  5
1F9
100
AcDbSymbolTableRecord
100
AcDbLinetypeTableRecord
  2
DASHED
 70
64
  3
- - - - - - - - - - - - - - - - - - - -
 72
65
 73
2
 40
0.2
 49
0.1
 74
0
 49
-0.1
 74
0
  0
ENDTAB
  0
TABLE
  2
LAYER
  5
2
100
AcDbSymbolTable
 70
36
  0
LAYER
  5
10
100
AcDbSymbolTableRecord
100
AcDbLayerTableRecord
  2
0
 70
0
 62
7
  6
CONTINUOUS
370
-3
390
F
  0
LAYER
  5
1FA
100
AcDbSymbolTableRecord
100
AcDbLayerTableRecord
  2
DEFAULT_1
 70
0
 62
7
  6
CENTER
370
-3
390
F
  0
LAYER
  5
1FB
100
AcDbSymbolTableRecord
100
AcDbLayerTableRecord
  2
DEFAULT_2
 70
0
 62
8
  6
HIDDEN
370
-3
390
F
  0
LAYER
  5
1FC
100
AcDbSymbolTableRecord
100
AcDbLayerTableRecord
  2
DEFAULT_3
 70
0
 62
7
  6
PHANTOM
370
-3
390
F
  0
LAYER
  5
1FD
100
AcDbSymbolTableRecord
100
AcDbLayerTableRecord
  2
_BLACK_HOLE
 70
0
 62
7
  6
CONTINUOUS
370
-3
390
F
  0
LAYER
  5
1FE
100
AcDbSymbolTableRecord
100
AcDbLayerTableRecord
  2
01_ALL_DTM_PLN
 70
0
 62
7
  6
CONTINUOUS
370
-3
390
F
  0
LAYER
  5
1FF
100
AcDbSymbolTableRecord
100
AcDbLayerTableRecord
  2
01__ASM_ALL_DTM_PLN
 70
0
 62
7
  6
CONTINUOUS
370
-3
390
F
  0
LAYER
  5
200
100
AcDbSymbolTableRecord
100
AcDbLayerTableRecord
  2
01__ASM_DEF_DTM_PLN
 70
0
 62
7
  6
CONTINUOUS
370
-3
390
F
  0
LAYER
  5
201
100
AcDbSymbolTableRecord
100
AcDbLayerTableRecord
  2
01___PRT_ALL_DTM_PLN
 70
0
 62
7
  6
CONTINUOUS
370
-3
390
F
  0
LAYER
  5
202
100
AcDbSymbolTableRecord
100
AcDbLayerTableRecord
  2
01___PRT_DEF_DTM_PLN
 70
0
 62
7
  6
CONTINUOUS
370
-3
390
F
  0
LAYER
  5
203
100
AcDbSymbolTableRecord
100
AcDbLayerTableRecord
  2
02_ALL_AXES
 70
0
 62
7
  6
CONTINUOUS
370
-3
390
F
  0
LAYER
  5
204
100
AcDbSymbolTableRecord
100
AcDbLayerTableRecord
  2
02__ASM_ALL_AXES
 70
0
 62
7
  6
CONTINUOUS
370
-3
390
F
  0
LAYER
  5
205
100
AcDbSymbolTableRecord
100
AcDbLayerTableRecord
  2
02___PRT_ALL_AXES
 70
0
 62
7
  6
CONTINUOUS
370
-3
390
F
  0
LAYER
  5
206
100
AcDbSymbolTableRecord
100
AcDbLayerTableRecord
  2
03_ALL_CURVES
 70
0
 62
7
  6
CONTINUOUS
370
-3
390
F
  0
LAYER
  5
207
100
AcDbSymbolTableRecord
100
AcDbLayerTableRecord
  2
03__ASM_ALL_CURVES
 70
0
 62
7
  6
CONTINUOUS
370
-3
390
F
  0
LAYER
  5
208
100
AcDbSymbolTableRecord
100
AcDbLayerTableRecord
  2
03___PRT_ALL_CURVES
 70
0
 62
7
  6
CONTINUOUS
370
-3
390
F
  0
LAYER
  5
209
100
AcDbSymbolTableRecord
100
AcDbLayerTableRecord
  2
04_ALL_DTM_PNT
 70
0
 62
7
  6
CONTINUOUS
370
-3
390
F
  0
LAYER
  5
20A
100
AcDbSymbolTableRecord
100
AcDbLayerTableRecord
  2
04__ASM_ALL_DTM_PNT
 70
0
 62
7
  6
CONTINUOUS
370
-3
390
F
  0
LAYER
  5
20B
100
AcDbSymbolTableRecord
100
AcDbLayerTableRecord
  2
04___PRT_ALL_DTM_PNT
 70
0
 62
7
  6
CONTINUOUS
370
-3
390
F
  0
LAYER
  5
20C
100
AcDbSymbolTableRecord
100
AcDbLayerTableRecord
  2
05_ALL_DTM_CSYS
 70
0
 62
7
  6
CONTINUOUS
370
-3
390
F
  0
LAYER
  5
20D
100
AcDbSymbolTableRecord
100
AcDbLayerTableRecord
  2
05__ASM_ALL_DTM_CSYS
 70
0
 62
7
  6
CONTINUOUS
370
-3
390
F
  0
LAYER
  5
20E
100
AcDbSymbolTableRecord
100
AcDbLayerTableRecord
  2
05__ASM_DEF_DTM_CSYS
 70
0
 62
7
  6
CONTINUOUS
370
-3
390
F
  0
LAYER
  5
20F
100
AcDbSymbolTableRecord
100
AcDbLayerTableRecord
  2
05___PRT_ALL_DTM_CSYS
 70
0
 62
7
  6
CONTINUOUS
370
-3
390
F
  0
LAYER
  5
210
100
AcDbSymbolTableRecord
100
AcDbLayerTableRecord
  2
05___PRT_DEF_DTM_CSYS
 70
0
 62
7
  6
CONTINUOUS
370
-3
390
F
  0
LAYER
  5
211
100
AcDbSymbolTableRecord
100
AcDbLayerTableRecord
  2
06_ALL_SURFS
 70
0
 62
7
  6
CONTINUOUS
370
-3
390
F
  0
LAYER
  5
212
100
AcDbSymbolTableRecord
100
AcDbLayerTableRecord
  2
06__ASM_ALL_SURFS
 70
0
 62
7
  6
CONTINUOUS
370
-3
390
F
  0
LAYER
  5
213
100
AcDbSymbolTableRecord
100
AcDbLayerTableRecord
  2
06___PRT_ALL_SURFS
 70
0
 62
7
  6
CONTINUOUS
370
-3
390
F
  0
LAYER
  5
214
100
AcDbSymbolTableRecord
100
AcDbLayerTableRecord
  2
07__ASM_ALL_SKELETONS
 70
0
 62
7
  6
CONTINUOUS
370
-3
390
F
  0
LAYER
  5
215
100
AcDbSymbolTableRecord
100
AcDbLayerTableRecord
  2
129-001_FEATURES
 70
0
 62
7
  6
CONTINUOUS
370
-3
390
F
  0
LAYER
  5
216
100
AcDbSymbolTableRecord
100
AcDbLayerTableRecord
  2
129-001_REF_GEOMETRY
 70
0
 62
7
  6
CONTINUOUS
370
-3
390
F
  0
LAYER
  5
217
100
AcDbSymbolTableRecord
100
AcDbLayerTableRecord
  2
129-004_FEATURES
 70
0
 62
7
  6
CONTINUOUS
370
-3
390
F
  0
LAYER
  5
218
100
AcDbSymbolTableRecord
100
AcDbLayerTableRecord
  2
129-004_REF_GEOMETRY
 70
0
 62
7
  6
CONTINUOUS
370
-3
390
F
  0
LAYER
  5
219
100
AcDbSymbolTableRecord
100
AcDbLayerTableRecord
  2
129-400_FEATURES
 70
0
 62
7
  6
CONTINUOUS
370
-3
390
F
  0
LAYER
  5
21A
100
AcDbSymbolTableRecord
100
AcDbLayerTableRecord
  2
129-400_REF_GEOMETRY
 70
0
 62
7
  6
CONTINUOUS
370
-3
390
F
  0
LAYER
  5
21B
100
AcDbSymbolTableRecord
100
AcDbLayerTableRecord
  2
129-401_FEATURES
 70
0
 62
7
  6
CONTINUOUS
370
-3
390
F
  0
LAYER
  5
21C
100
AcDbSymbolTableRecord
100
AcDbLayerTableRecord
  2
129-401_REF_GEOMETRY
 70
0
 62
7
  6
CONTINUOUS
370
-3
390
F
  0
LAYER
  5
21D
100
AcDbSymbolTableRecord
100
AcDbLayerTableRecord
  2
129-402_FEATURES
 70
0
 62
7
  6
CONTINUOUS
370
-3
390
F
  0
LAYER
  5
21E
100
AcDbSymbolTableRecord
100
AcDbLayerTableRecord
  2
129-402_REF_GEOMETRY
 70
0
 62
7
  6
CONTINUOUS
370
-3
390
F
  0
LAYER
  5
21F
100
AcDbSymbolTableRecord
100
AcDbLayerTableRecord
  2
129-403_FEATURES
 70
0
 62
7
  6
CONTINUOUS
370
-3
390
F
  0
LAYER
  5
220
100
AcDbSymbolTableRecord
100
AcDbLayerTableRecord
  2
129-403_REF_GEOMETRY
 70
0
 62
7
  6
CONTINUOUS
370
-3
390
F
  0
LAYER
  5
221
100
AcDbSymbolTableRecord
100
AcDbLayerTableRecord
  2
129-405_FEATURES
 70
0
 62
7
  6
CONTINUOUS
370
-3
390
F
  0
LAYER
  5
222
100
AcDbSymbolTableRecord
100
AcDbLayerTableRecord
  2
129-405_REF_GEOMETRY
 70
0
 62
7
  6
CONTINUOUS
370
-3
390
F
  0
LAYER
  5
223
100
AcDbSymbolTableRecord
100
AcDbLayerTableRecord
  2
129-406_FEATURES
 70
0
 62
7
  6
CONTINUOUS
370
-3
390
F
  0
LAYER
  5
224
100
AcDbSymbolTableRecord
100
AcDbLayerTableRecord
  2
129-406_REF_GEOMETRY
 70
0
 62
7
  6
CONTINUOUS
370
-3
390
F
  0
LAYER
  5
225
100
AcDbSymbolTableRecord
100
AcDbLayerTableRecord
  2
129-407_FEATURES
 70
0
 62
7
  6
CONTINUOUS
370
-3
390
F
  0
LAYER
  5
226
100
AcDbSymbolTableRecord
100
AcDbLayerTableRecord
  2
129-407_REF_GEOMETRY
 70
0
 62
7
  6
CONTINUOUS
370
-3
390
F
  0
LAYER
  5
227
100
AcDbSymbolTableRecord
100
AcDbLayerTableRecord
  2
COPY_GEO_FET
 70
0
 62
7
  6
CONTINUOUS
370
-3
390
F
  0
LAYER
  5
228
100
AcDbSymbolTableRecord
100
AcDbLayerTableRecord
  2
COSMETIC
 70
0
 62
7
  6
CONTINUOUS
370
-3
390
F
  0
LAYER
  5
229
100
AcDbSymbolTableRecord
100
AcDbLayerTableRecord
  2
COSM_REF
 70
0
 62
7
  6
CONTINUOUS
370
-3
390
F
  0
LAYER
  5
22A
100
AcDbSymbolTableRecord
100
AcDbLayerTableRecord
  2
CURVES
 70
0
 62
7
  6
CONTINUOUS
370
-3
390
F
  0
LAYER
  5
22B
100
AcDbSymbolTableRecord
100
AcDbLayerTableRecord
  2
CUT_REF_SURF
 70
0
 62
7
  6
CONTINUOUS
370
-3
390
F
  0
LAYER
  5
22C
100
AcDbSymbolTableRecord
100
AcDbLayerTableRecord
  2
DATUM
 70
0
 62
7
  6
CONTINUOUS
370
-3
390
F
  0
LAYER
  5
22D
100
AcDbSymbolTableRecord
100
AcDbLayerTableRecord
  2
DATUMCURVES
 70
0
 62
7
  6
CONTINUOUS
370
-3
390
F
  0
LAYER
  5
22E
100
AcDbSymbolTableRecord
100
AcDbLayerTableRecord
  2
DATUM_ADDED_280-022
 70
0
 62
7
  6
CONTINUOUS
370
-3
390
F
  0
LAYER
  5
22F
100
AcDbSymbolTableRecord
100
AcDbLayerTableRecord
  2
DIMENSIONS
 70
0
 62
7
  6
CONTINUOUS
370
-3
390
F
  0
LAYER
  5
230
100
AcDbSymbolTableRecord
100
AcDbLayerTableRecord
  2
DRAWINGNOTES
 70
0
 62
7
  6
CONTINUOUS
370
-3
390
F
  0
LAYER
  5
231
100
AcDbSymbolTableRecord
100
AcDbLayerTableRecord
  2
DTM
 70
0
 62
7
  6
CONTINUOUS
370
-3
390
F
  0
LAYER
  5
232
100
AcDbSymbolTableRecord
100
AcDbLayerTableRecord
  2
DTM230
 70
0
 62
7
  6
CONTINUOUS
370
-3
390
F
  0
LAYER
  5
233
100
AcDbSymbolTableRecord
100
AcDbLayerTableRecord
  2
DTM_280-022
 70
0
 62
7
  6
CONTINUOUS
370
-3
390
F
  0
LAYER
  5
234
100
AcDbSymbolTableRecord
100
AcDbLayerTableRecord
  2
DTM_500001
 70
0
 62
7
  6
CONTINUOUS
370
-3
390
F
  0
LAYER
  5
235
100
AcDbSymbolTableRecord
100
AcDbLayerTableRecord
  2
DTM_500002
 70
0
 62
7
  6
CONTINUOUS
370
-3
390
F
  0
LAYER
  5
236
100
AcDbSymbolTableRecord
100
AcDbLayerTableRecord
  2
DTM_515002
 70
0
 62
7
  6
CONTINUOUS
370
-3
390
F
  0
LAYER
  5
237
100
AcDbSymbolTableRecord
100
AcDbLayerTableRecord
  2
DTM_530-102
 70
0
 62
7
  6
CONTINUOUS
370
-3
390
F
  0
LAYER
  5
238
100
AcDbSymbolTableRecord
100
AcDbLayerTableRecord
  2
DTM_700-003
 70
0
 62
7
  6
CONTINUOUS
370
-3
390
F
  0
LAYER
  5
239
100
AcDbSymbolTableRecord
100
AcDbLayerTableRecord
  2
DTM_800001
 70
0
 62
7
  6
CONTINUOUS
370
-3
390
F
  0
LAYER
  5
23A
100
AcDbSymbolTableRecord
100
AcDbLayerTableRecord
  2
DTM_BALLHOLDER
 70
0
 62
7
  6
CONTINUOUS
370
-3
390
F
  0
LAYER
  5
23B
100
AcDbSymbolTableRecord
100
AcDbLayerTableRecord
  2
DTM_SPRING_RH
 70
0
 62
7
  6
CONTINUOUS
370
-3
390
F
  0
LAYER
  5
23C
100
AcDbSymbolTableRecord
100
AcDbLayerTableRecord
  2
DTM_SP_RH_CONSTR
 70
0
 62
7
  6
CONTINUOUS
370
-3
390
F
  0
LAYER
  5
23D
100
AcDbSymbolTableRecord
100
AcDbLayerTableRecord
  2
FACE1
 70
0
 62
7
  6
CONTINUOUS
370
-3
390
F
  0
LAYER
  5
23E
100
AcDbSymbolTableRecord
100
AcDbLayerTableRecord
  2
FACE2
 70
0
 62
7
  6
CONTINUOUS
370
-3
390
F
  0
LAYER
  5
23F
100
AcDbSymbolTableRecord
100
AcDbLayerTableRecord
  2
FACE3
 70
0
 62
7
  6
CONTINUOUS
370
-3
390
F
  0
LAYER
  5
240
100
AcDbSymbolTableRecord
100
AcDbLayerTableRecord
  2
FACE4
 70
0
 62
7
  6
CONTINUOUS
370
-3
390
F
  0
LAYER
  5
241
100
AcDbSymbolTableRecord
100
AcDbLayerTableRecord
  2
GEOMETRICTOLERANCES
 70
0
 62
7
  6
CONTINUOUS
370
-3
390
F
  0
LAYER
  5
242
100
AcDbSymbolTableRecord
100
AcDbLayerTableRecord
  2
LAY0001
 70
0
 62
7
  6
CONTINUOUS
370
-3
390
F
  0
LAYER
  5
243
100
AcDbSymbolTableRecord
100
AcDbLayerTableRecord
  2
PARAMETERDIMENSIONS
 70
0
 62
7
  6
CONTINUOUS
370
-3
390
F
  0
LAYER
  5
244
100
AcDbSymbolTableRecord
100
AcDbLayerTableRecord
  2
PART
 70
0
 62
7
  6
CONTINUOUS
370
-3
390
F
  0
LAYER
  5
245
100
AcDbSymbolTableRecord
100
AcDbLayerTableRecord
  2
PLANE
 70
0
 62
7
  6
CONTINUOUS
370
-3
390
F
  0
LAYER
  5
246
100
AcDbSymbolTableRecord
100
AcDbLayerTableRecord
  2
PROTRUSIONS
 70
0
 62
7
  6
CONTINUOUS
370
-3
390
F
  0
LAYER
  5
247
100
AcDbSymbolTableRecord
100
AcDbLayerTableRecord
  2
S-164_NPTF_PORT
 70
0
 62
7
  6
CONTINUOUS
370
-3
390
F
  0
LAYER
  5
248
100
AcDbSymbolTableRecord
100
AcDbLayerTableRecord
  2
SUN_STD_SAE-4_PORT
 70
0
 62
7
  6
CONTINUOUS
370
-3
390
F
  0
LAYER
  5
249
100
AcDbSymbolTableRecord
100
AcDbLayerTableRecord
  2
TEXT
 70
0
 62
7
  6
CONTINUOUS
370
-3
390
F
  0
LAYER
  5
24A
100
AcDbSymbolTableRecord
100
AcDbLayerTableRecord
  2
THREAD
 70
0
 62
7
  6
CONTINUOUS
370
-3
390
F
  0
LAYER
  5
24B
100
AcDbSymbolTableRecord
100
AcDbLayerTableRecord
  2
XSEC_DATUMS
 70
0
 62
7
  6
CONTINUOUS
370
-3
390
F
  0
ENDTAB
  0
TABLE
  2
STYLE
  5
3
100
AcDbSymbolTable
 70
1
  0
STYLE
  5
11
100
AcDbSymbolTableRecord
100
AcDbTextStyleTableRecord
  2
STANDARD
 70
0
 40
0.0
 41
0.8
 50
0.0
 71
0
 42
0.2
  3
txt
  4

  0
ENDTAB
  0
TABLE
  2
VIEW
  5
6
100
AcDbSymbolTable
 70
0
  0
ENDTAB
  0
TABLE
  2
UCS
  5
7
100
AcDbSymbolTable
 70
0
  0
ENDTAB
  0
TABLE
  2
APPID
  5
9
100
AcDbSymbolTable
 70
1
  0
APPID
  5
24C
100
AcDbSymbolTableRecord
100
AcDbRegAppTableRecord
  2
ACAD
 70
0
  0
ENDTAB
  0
TABLE
  2
BLOCK_RECORD
  5
1
100
AcDbSymbolTable
 70
0
  0
BLOCK_RECORD
  5
1F
100
AcDbSymbolTableRecord
100
AcDbBlockTableRecord
  2
*MODEL_SPACE
  0
BLOCK_RECORD
  5
1B
100
AcDbSymbolTableRecord
100
AcDbBlockTableRecord
  2
*PAPER_SPACE
  0
ENDTAB
  0
TABLE
  2
DIMSTYLE
  5
A
100
AcDbSymbolTable
 70
1
100
AcDbDimStyleTable
 71
0
  0
DIMSTYLE
105
24D
100
AcDbSymbolTableRecord
100
AcDbDimStyleTableRecord
  2
STANDARD
 70
0
  3

  4

 40
1.0
 41
0.1875
 42
0.0625
 43
0.38
 44
0.18
 45
0.0
 46
0.0
 47
0.01
 48
0.01
140
0.15625
141
0.09
142
0.0
143
25.4
144
1.0
145
0.0
146
1.0
147
0.09
 71
0.0
 72
0.0
 73
1
 74
1
 75
0
 76
0
 77
0
 78
4
170
0
171
2
172
0
173
0
174
0
175
0
176
0
177
0
178
0
270
2
271
2
272
2
273
2
274
2
275
0
280
0
281
0
282
0
283
1
284
4
285
0
286
0
287
3
288
0
340
11
  0
ENDTAB
  0
ENDSEC
  0
SECTION
  2
BLOCKS
  0
BLOCK
  5
20
100
AcDbEntity
  8
0
100
AcDbBlockBegin
  2
*MODEL_SPACE
 70
0
 10
0.0
 20
0.0
 30
0.0
  3
*MODEL_SPACE
  1

  0
ENDBLK
  5
21
100
AcDbEntity
  8
0
100
AcDbBlockEnd
  0
BLOCK
  5
1C
100
AcDbEntity
  8
0
100
AcDbBlockBegin
  2
*PAPER_SPACE
 70
0
 10
0.0
 20
0.0
 30
0.0
  3
*PAPER_SPACE
  1

  0
ENDBLK
  5
1D
100
AcDbEntity
  8
0
100
AcDbBlockEnd
  0
ENDSEC
  0
SECTION
  2
ENTITIES
  0
LINE
  5
24E
100
AcDbEntity
  8
0
100
AcDbLine
 62
7
  6
CONTINUOUS
 10
2.1926198638
 20
4.6291646826
 11
2.1926198638
 21
4.3231646826
  0
LINE
  5
24F
100
AcDbEntity
  8
03__ASM_ALL_CURVES
100
AcDbLine
 62
40
  6
CONTINUOUS
 10
2.1926198638
 20
4.6291646826
 11
2.1926198638
 21
5.8430026826
  0
LINE
  5
250
100
AcDbEntity
  8
0
100
AcDbLine
 62
7
  6
CONTINUOUS
 10
2.2236198638
 20
4.6601646826
 11
2.2236198638
 21
4.2921646826
  0
LINE
  5
251
100
AcDbEntity
  8
03__ASM_ALL_CURVES
100
AcDbLine
 62
40
  6
CONTINUOUS
 10
2.3857298638
 20
5.8108176826
 11
2.3857298638
 21
5.7464476826
  0
LINE
  5
252
100
AcDbEntity
  8
0
100
AcDbLine
 62
7
  6
CONTINUOUS
 10
2.4226198638
 20
4.6601646826
 11
2.4226198638
 21
4.2921646826
  0
LINE
  5
253
100
AcDbEntity
  8
0
100
AcDbLine
 62
7
  6
CONTINUOUS
 10
2.4241198638
 20
4.3150216896
 11
2.4241198638
 21
4.5522882514
  0
LINE
  5
254
100
AcDbEntity
  8
0
100
AcDbLine
 62
7
  6
CONTINUOUS
 10
2.4591198638
 20
4.3150216896
 11
2.4591198638
 21
4.5522882514
  0
LINE
  5
255
100
AcDbEntity
  8
0
100
AcDbLine
 62
7
  6
CONTINUOUS
 10
2.4606198638
 20
4.6601646826
 11
2.4606198638
 21
4.2921646826
  0
LINE
  5
256
100
AcDbEntity
  8
0
100
AcDbLine
 62
7
  6
CONTINUOUS
 10
2.6936198638
 20
4.2285134975
 11
2.6936198638
 21
4.7238158677
  0
LINE
  5
257
100
AcDbEntity
  8
0
100
AcDbLine
 62
7
  6
CONTINUOUS
 10
2.7556198638
 20
4.2051646826
 11
2.7556198638
 21
4.7471646826
  0
LINE
  5
258
100
AcDbEntity
  8
0
100
AcDbLine
 62
7
  6
CONTINUOUS
 10
2.7616198638
 20
4.2051646826
 11
2.7616198638
 21
4.7471646826
  0
LINE
  5
259
100
AcDbEntity
  8
0
100
AcDbLine
 62
7
  6
CONTINUOUS
 10
2.7671198638
 20
4.2106646826
 11
2.7671198638
 21
4.7416646826
  0
LINE
  5
25A
100
AcDbEntity
  8
0
100
AcDbLine
 62
7
  6
CONTINUOUS
 10
2.7831198638
 20
4.2106646826
 11
2.7831198638
 21
4.7416646826
  0
LINE
  5
25B
100
AcDbEntity
  8
03__ASM_ALL_CURVES
100
AcDbLine
 62
40
  6
CONTINUOUS
 10
3.3967261138
 20
5.9636964326
 11
3.3866683013
 21
5.9502860191
  0
LINE
  5
25C
100
AcDbEntity
  8
0
100
AcDbLine
 62
7
  6
CONTINUOUS
 10
2.9746198638
 20
4.2051646826
 11
2.9746198638
 21
4.7471646826
  0
LINE
  5
25D
100
AcDbEntity
  8
0
100
AcDbLine
 62
7
  6
CONTINUOUS
 10
3.0056198638
 20
3.7571646826
 11
3.0056198638
 21
5.1951646826
  0
LINE
  5
25E
100
AcDbEntity
  8
0
100
AcDbLine
 62
7
  6
CONTINUOUS
 10
3.0676198638
 20
3.6951646826
 11
3.0676198638
 21
5.2571646826
  0
LINE
  5
25F
100
AcDbEntity
  8
03__ASM_ALL_CURVES
100
AcDbLine
 62
40
  6
CONTINUOUS
 10
3.4067839263
 20
5.8832339326
 11
3.3866683013
 21
5.8564130997
  0
LINE
  5
260
100
AcDbEntity
  8
03__ASM_ALL_CURVES
100
AcDbLine
 62
40
  6
CONTINUOUS
 10
3.6481714263
 20
5.9771068461
 11
3.6582292388
 21
5.9905172691
  0
LINE
  5
261
100
AcDbEntity
  8
0
100
AcDbLine
 62
7
  6
CONTINUOUS
 10
2.1926198638
 20
4.6291646826
 11
2.2236198638
 21
4.6601646826
  0
LINE
  5
262
100
AcDbEntity
  8
03__ASM_ALL_CURVES
100
AcDbLine
 62
40
  6
CONTINUOUS
 10
3.3263214263
 20
5.9905172691
 11
3.3464370513
 21
6.0039276826
  0
LINE
  5
263
100
AcDbEntity
  8
03__ASM_ALL_CURVES
100
AcDbLine
 62
40
  6
CONTINUOUS
 10
3.3866683013
 20
5.9502860191
 11
3.3665526763
 21
5.9368755961
  0
LINE
  5
264
100
AcDbEntity
  8
03__ASM_ALL_CURVES
100
AcDbLine
 62
40
  6
CONTINUOUS
 10
3.3866683013
 20
5.8564130997
 11
3.3665526763
 21
5.8430026826
  0
LINE
  5
265
100
AcDbEntity
  8
03__ASM_ALL_CURVES
100
AcDbLine
 62
40
  6
CONTINUOUS
 10
3.3967261138
 20
5.9771068461
 11
3.3967261138
 21
5.9636964326
  0
LINE
  5
266
100
AcDbEntity
  8
03__ASM_ALL_CURVES
100
AcDbLine
 62
40
  6
CONTINUOUS
 10
3.4067839263
 20
5.8966443509
 11
3.4067839263
 21
5.8832339326
  0
LINE
  5
267
100
AcDbEntity
  8
03__ASM_ALL_CURVES
100
AcDbLine
 62
40
  6
CONTINUOUS
 10
3.6381136138
 20
5.9502860191
 11
3.6481714263
 21
5.9771068461
  0
LINE
  5
268
100
AcDbEntity
  8
03__ASM_ALL_CURVES
100
AcDbLine
 62
40
  6
CONTINUOUS
 10
3.7185761138
 20
5.9502860191
 11
3.7085183013
 21
5.9234651826
  0
LINE
  5
269
100
AcDbEntity
  8
03__ASM_ALL_CURVES
100
AcDbLine
 62
40
  6
CONTINUOUS
 10
3.7185761138
 20
5.8966443509
 11
3.7085183013
 21
5.8698235167
  0
LINE
  5
26A
100
AcDbEntity
  8
0
100
AcDbLine
 62
7
  6
CONTINUOUS
 10
2.9746198638
 20
4.2051646826
 11
2.9685250917
 21
4.1946082276
  0
LINE
  5
26B
100
AcDbEntity
  8
03__ASM_ALL_CURVES
100
AcDbLine
 62
40
  6
CONTINUOUS
 10
3.7085183013
 20
5.8698235167
 11
3.6984604888
 21
5.8564130997
  0
LINE
  5
26C
100
AcDbEntity
  8
03__ASM_ALL_CURVES
100
AcDbLine
 62
40
  6
CONTINUOUS
 10
3.8795011138
 20
5.9636964326
 11
3.8694433013
 21
5.9502860191
  0
LINE
  5
26D
100
AcDbEntity
  8
03__ASM_ALL_CURVES
100
AcDbLine
 62
40
  6
CONTINUOUS
 10
3.8895589263
 20
5.8832339326
 11
3.8694433013
 21
5.8564130997
  0
LINE
  5
26E
100
AcDbEntity
  8
03__ASM_ALL_CURVES
100
AcDbLine
 62
40
  6
CONTINUOUS
 10
4.0102526763
 20
6.0039276826
 11
3.9901370513
 21
5.9771068461
  0
LINE
  5
26F
100
AcDbEntity
  8
0
100
AcDbLine
 62
7
  6
CONTINUOUS
 10
3.0676198638
 20
5.2571646826
 11
3.0056198638
 21
5.1951646826
  0
LINE
  5
270
100
AcDbEntity
  8
0
100
AcDbLine
 62
7
  6
CONTINUOUS
 10
2.7986206494
 20
4.7571654682
 11
2.7831198638
 21
4.7416646826
  0
LINE
  5
271
100
AcDbEntity
  8
03__ASM_ALL_CURVES
100
AcDbLine
 62
40
  6
CONTINUOUS
 10
3.6582292388
 20
5.9905172691
 11
3.6783448638
 21
6.0039276826
  0
LINE
  5
272
100
AcDbEntity
  8
03__ASM_ALL_CURVES
100
AcDbLine
 62
40
  6
CONTINUOUS
 10
3.8090964263
 20
5.9905172691
 11
3.8292120513
 21
6.0039276826
  0
LINE
  5
273
100
AcDbEntity
  8
03__ASM_ALL_CURVES
100
AcDbLine
 62
40
  6
CONTINUOUS
 10
3.6984604888
 20
5.8564130997
 11
3.6783448638
 21
5.8430026826
  0
LINE
  5
274
100
AcDbEntity
  8
03__ASM_ALL_CURVES
100
AcDbLine
 62
40
  6
CONTINUOUS
 10
3.8694433013
 20
5.9502860191
 11
3.8493276763
 21
5.9368755961
  0
LINE
  5
275
100
AcDbEntity
  8
03__ASM_ALL_CURVES
100
AcDbLine
 62
40
  6
CONTINUOUS
 10
3.8694433013
 20
5.8564130997
 11
3.8493276763
 21
5.8430026826
  0
LINE
  5
276
100
AcDbEntity
  8
0
100
AcDbLine
 62
7
  6
CONTINUOUS
 10
2.1926198638
 20
4.3231646826
 11
2.2236198638
 21
4.2921646826
  0
LINE
  5
277
100
AcDbEntity
  8
03__ASM_ALL_CURVES
100
AcDbLine
 62
40
  6
CONTINUOUS
 10
3.5073620513
 20
5.8430026826
 11
3.5073620513
 21
5.8564130997
  0
LINE
  5
278
100
AcDbEntity
  8
03__ASM_ALL_CURVES
100
AcDbLine
 62
40
  6
CONTINUOUS
 10
3.9901370513
 20
5.9771068461
 11
3.9800792388
 21
5.9368755961
  0
LINE
  5
279
100
AcDbEntity
  8
03__ASM_ALL_CURVES
100
AcDbLine
 62
40
  6
CONTINUOUS
 10
4.1208886138
 20
5.9502860191
 11
4.1309464263
 21
5.9771068461
  0
LINE
  5
27A
100
AcDbEntity
  8
0
100
AcDbLine
 62
7
  6
CONTINUOUS
 10
3.885592495
 20
5.3991646826
 11
3.8186198638
 21
5.2831646826
  0
LINE
  5
27B
100
AcDbEntity
  8
03__ASM_ALL_CURVES
100
AcDbLine
 62
40
  6
CONTINUOUS
 10
4.1309464263
 20
5.9771068461
 11
4.1410042388
 21
5.9905172691
  0
LINE
  5
27C
100
AcDbEntity
  8
03__ASM_ALL_CURVES
100
AcDbLine
 62
40
  6
CONTINUOUS
 10
4.1912933013
 20
5.8698235167
 11
4.1812354888
 21
5.8564130997
  0
LINE
  5
27D
100
AcDbEntity
  8
03__ASM_ALL_CURVES
100
AcDbLine
 62
40
  6
CONTINUOUS
 10
4.2918714263
 20
5.9771068461
 11
4.3019292388
 21
5.9905172691
  0
LINE
  5
27E
100
AcDbEntity
  8
03__ASM_ALL_CURVES
100
AcDbLine
 62
40
  6
CONTINUOUS
 10
4.3522183013
 20
5.8698235167
 11
4.3421604888
 21
5.8564130997
  0
LINE
  5
27F
100
AcDbEntity
  8
03__ASM_ALL_CURVES
100
AcDbLine
 62
40
  6
CONTINUOUS
 10
4.1410042388
 20
5.9905172691
 11
4.1611198638
 21
6.0039276826
  0
LINE
  5
280
100
AcDbEntity
  8
03__ASM_ALL_CURVES
100
AcDbLine
 62
40
  6
CONTINUOUS
 10
4.3019292388
 20
5.9905172691
 11
4.3220448638
 21
6.0039276826
  0
LINE
  5
281
100
AcDbEntity
  8
03__ASM_ALL_CURVES
100
AcDbLine
 62
40
  6
CONTINUOUS
 10
4.1812354888
 20
5.8564130997
 11
4.1611198638
 21
5.8430026826
  0
LINE
  5
282
100
AcDbEntity
  8
03__ASM_ALL_CURVES
100
AcDbLine
 62
40
  6
CONTINUOUS
 10
4.3421604888
 20
5.8564130997
 11
4.3220448638
 21
5.8430026826
  0
LINE
  5
283
100
AcDbEntity
  8
03__ASM_ALL_CURVES
100
AcDbLine
 62
40
  6
CONTINUOUS
 10
3.7085183013
 20
5.9234651826
 11
3.6783448638
 21
5.9100547643
  0
LINE
  5
284
100
AcDbEntity
  8
03__ASM_ALL_CURVES
100
AcDbLine
 62
40
  6
CONTINUOUS
 10
4.1912933013
 20
5.9234651826
 11
4.1611198638
 21
5.9100547643
  0
LINE
  5
285
100
AcDbEntity
  8
0
100
AcDbLine
 62
7
  6
CONTINUOUS
 10
3.0676198638
 20
3.6951646826
 11
3.0056198638
 21
3.7571646826
  0
LINE
  5
286
100
AcDbEntity
  8
0
100
AcDbLine
 62
7
  6
CONTINUOUS
 10
2.7986206494
 20
4.195163897
 11
2.7831198638
 21
4.2106646826
  0
LINE
  5
287
100
AcDbEntity
  8
0
100
AcDbLine
 62
7
  6
CONTINUOUS
 10
2.9746198638
 20
4.7471646826
 11
2.9685250917
 21
4.7577211376
  0
LINE
  5
288
100
AcDbEntity
  8
03__ASM_ALL_CURVES
100
AcDbLine
 62
40
  6
CONTINUOUS
 10
3.7185761138
 20
5.9502860191
 11
3.7185761138
 21
5.8966443509
  0
LINE
  5
289
100
AcDbEntity
  8
0
100
AcDbLine
 62
7
  6
CONTINUOUS
 10
3.8186198638
 20
3.6691646826
 11
3.8186198638
 21
5.2831646826
  0
LINE
  5
28A
100
AcDbEntity
  8
03__ASM_ALL_CURVES
100
AcDbLine
 62
40
  6
CONTINUOUS
 10
3.8795011138
 20
5.9771068461
 11
3.8795011138
 21
5.9636964326
  0
LINE
  5
28B
100
AcDbEntity
  8
0
100
AcDbLine
 62
7
  6
CONTINUOUS
 10
3.885592495
 20
3.5531646826
 11
3.885592495
 21
3.553560024
  0
LINE
  5
28C
100
AcDbEntity
  8
0
100
AcDbLine
 62
7
  6
CONTINUOUS
 10
3.885592495
 20
3.9914693411
 11
3.885592495
 21
4.0382553655
  0
LINE
  5
28D
100
AcDbEntity
  8
0
100
AcDbLine
 62
7
  6
CONTINUOUS
 10
3.885592495
 20
4.9140739997
 11
3.885592495
 21
4.960860024
  0
LINE
  5
28E
100
AcDbEntity
  8
0
100
AcDbLine
 62
7
  6
CONTINUOUS
 10
3.885592495
 20
5.3987693411
 11
3.885592495
 21
5.3991646826
  0
LINE
  5
28F
100
AcDbEntity
  8
03__ASM_ALL_CURVES
100
AcDbLine
 62
40
  6
CONTINUOUS
 10
3.8895589263
 20
5.8966443509
 11
3.8895589263
 21
5.8832339326
  0
LINE
  5
290
100
AcDbEntity
  8
03__ASM_ALL_CURVES
100
AcDbLine
 62
40
  6
CONTINUOUS
 10
4.2013511138
 20
5.9502860191
 11
4.1912933013
 21
5.9234651826
  0
LINE
  5
291
100
AcDbEntity
  8
03__ASM_ALL_CURVES
100
AcDbLine
 62
40
  6
CONTINUOUS
 10
4.2013511138
 20
5.8966443509
 11
4.1912933013
 21
5.8698235167
  0
LINE
  5
292
100
AcDbEntity
  8
03__ASM_ALL_CURVES
100
AcDbLine
 62
40
  6
CONTINUOUS
 10
4.2818136138
 20
5.9502860191
 11
4.2918714263
 21
5.9771068461
  0
LINE
  5
293
100
AcDbEntity
  8
03__ASM_ALL_CURVES
100
AcDbLine
 62
40
  6
CONTINUOUS
 10
4.3622761138
 20
5.9502860191
 11
4.3522183013
 21
5.9234651826
  0
LINE
  5
294
100
AcDbEntity
  8
03__ASM_ALL_CURVES
100
AcDbLine
 62
40
  6
CONTINUOUS
 10
4.3622761138
 20
5.8966443509
 11
4.3522183013
 21
5.8698235167
  0
LINE
  5
295
100
AcDbEntity
  8
03__ASM_ALL_CURVES
100
AcDbLine
 62
40
  6
CONTINUOUS
 10
4.6036636138
 20
5.9771068461
 11
4.6137214263
 21
5.9905172691
  0
LINE
  5
296
100
AcDbEntity
  8
03__ASM_ALL_CURVES
100
AcDbLine
 62
40
  6
CONTINUOUS
 10
4.5936058013
 20
5.8966443509
 11
4.6137214263
 21
5.9234651826
  0
LINE
  5
297
100
AcDbEntity
  8
03__ASM_ALL_CURVES
100
AcDbLine
 62
40
  6
CONTINUOUS
 10
4.6841261138
 20
5.9636964326
 11
4.6740683013
 21
5.9502860191
  0
LINE
  5
298
100
AcDbEntity
  8
03__ASM_ALL_CURVES
100
AcDbLine
 62
40
  6
CONTINUOUS
 10
4.6941839263
 20
5.8832339326
 11
4.6740683013
 21
5.8564130997
  0
LINE
  5
299
100
AcDbEntity
  8
03__ASM_ALL_CURVES
100
AcDbLine
 62
40
  6
CONTINUOUS
 10
4.7645886138
 20
5.9771068461
 11
4.7746464263
 21
5.9905172691
  0
LINE
  5
29A
100
AcDbEntity
  8
0
100
AcDbLine
 62
7
  6
CONTINUOUS
 10
2.7671198638
 20
4.2106646826
 11
2.7616198638
 21
4.2051646826
  0
LINE
  5
29B
100
AcDbEntity
  8
03__ASM_ALL_CURVES
100
AcDbLine
 62
40
  6
CONTINUOUS
 10
4.6137214263
 20
5.9905172691
 11
4.6338370513
 21
6.0039276826
  0
LINE
  5
29C
100
AcDbEntity
  8
03__ASM_ALL_CURVES
100
AcDbLine
 62
40
  6
CONTINUOUS
 10
4.6137214263
 20
5.9234651826
 11
4.6338370513
 21
5.9368755961
  0
LINE
  5
29D
100
AcDbEntity
  8
03__ASM_ALL_CURVES
100
AcDbLine
 62
40
  6
CONTINUOUS
 10
4.6740683013
 20
5.9502860191
 11
4.6539526763
 21
5.9368755961
  0
LINE
  5
29E
100
AcDbEntity
  8
03__ASM_ALL_CURVES
100
AcDbLine
 62
40
  6
CONTINUOUS
 10
4.7746464263
 20
5.9905172691
 11
4.7947620513
 21
6.0039276826
  0
LINE
  5
29F
100
AcDbEntity
  8
03__ASM_ALL_CURVES
100
AcDbLine
 62
40
  6
CONTINUOUS
 10
4.6740683013
 20
5.8564130997
 11
4.6539526763
 21
5.8430026826
  0
LINE
  5
2A0
100
AcDbEntity
  8
03__ASM_ALL_CURVES
100
AcDbLine
 62
40
  6
CONTINUOUS
 10
4.8349933013
 20
5.9368755961
 11
4.7947620513
 21
5.9100547643
  0
LINE
  5
2A1
100
AcDbEntity
  8
03__ASM_ALL_CURVES
100
AcDbLine
 62
40
  6
CONTINUOUS
 10
4.3522183013
 20
5.9234651826
 11
4.3220448638
 21
5.9100547643
  0
LINE
  5
2A2
100
AcDbEntity
  8
0
100
AcDbLine
 62
7
  6
CONTINUOUS
 10
3.885592495
 20
3.5531646826
 11
3.8186198638
 21
3.6691646826
  0
LINE
  5
2A3
100
AcDbEntity
  8
03__ASM_ALL_CURVES
100
AcDbLine
 62
40
  6
CONTINUOUS
 10
3.9800792388
 20
5.9368755961
 11
3.9800792388
 21
5.9100547643
  0
LINE
  5
2A4
100
AcDbEntity
  8
03__ASM_ALL_CURVES
100
AcDbLine
 62
40
  6
CONTINUOUS
 10
4.2013511138
 20
5.9502860191
 11
4.2013511138
 21
5.8966443509
  0
LINE
  5
2A5
100
AcDbEntity
  8
03__ASM_ALL_CURVES
100
AcDbLine
 62
40
  6
CONTINUOUS
 10
4.7947620513
 20
5.9100547643
 11
4.7746464263
 21
5.8832339326
  0
LINE
  5
2A6
100
AcDbEntity
  8
03__ASM_ALL_CURVES
100
AcDbLine
 62
40
  6
CONTINUOUS
 10
4.8450511138
 20
5.9502860191
 11
4.8349933013
 21
5.9368755961
  0
LINE
  5
2A7
100
AcDbEntity
  8
03__ASM_ALL_CURVES
100
AcDbLine
 62
40
  6
CONTINUOUS
 10
4.9758026763
 20
5.8698235167
 11
4.9556870513
 21
5.8430026826
  0
LINE
  5
2A8
100
AcDbEntity
  8
03__ASM_ALL_CURVES
100
AcDbLine
 62
40
  6
CONTINUOUS
 10
8.2109930733
 20
2.5704071826
 11
8.1506461983
 21
2.5704071826
  0
LINE
  5
2A9
100
AcDbEntity
  8
03__ASM_ALL_CURVES
100
AcDbLine
 62
40
  6
CONTINUOUS
 10
8.0676692451
 20
2.5704071826
 11
8.0525825264
 21
2.5704071826
  0
LINE
  5
2AA
100
AcDbEntity
  8
03__ASM_ALL_CURVES
100
AcDbLine
 62
40
  6
CONTINUOUS
 10
7.8489118233
 20
2.5704071826
 11
7.7885649483
 21
2.5704071826
  0
LINE
  5
2AB
100
AcDbEntity
  8
03__ASM_ALL_CURVES
100
AcDbLine
 62
40
  6
CONTINUOUS
 10
7.7055879951
 20
2.5704071826
 11
7.6905012764
 21
2.5704071826
  0
LINE
  5
2AC
100
AcDbEntity
  8
03__ASM_ALL_CURVES
100
AcDbLine
 62
40
  6
CONTINUOUS
 10
7.5848942451
 20
2.5704071826
 11
7.5698075264
 21
2.5704071826
  0
LINE
  5
2AD
100
AcDbEntity
  8
03__ASM_ALL_CURVES
100
AcDbLine
 62
40
  6
CONTINUOUS
 10
7.4868305733
 20
2.5704071826
 11
7.4264836983
 21
2.5704071826
  0
LINE
  5
2AE
100
AcDbEntity
  8
03__ASM_ALL_CURVES
100
AcDbLine
 62
40
  6
CONTINUOUS
 10
7.3435067451
 20
2.5704071826
 11
7.3284200264
 21
2.5704071826
  0
LINE
  5
2AF
100
AcDbEntity
  8
03__ASM_ALL_CURVES
100
AcDbLine
 62
40
  6
CONTINUOUS
 10
5.3382323491
 20
2.5704071826
 11
5.3080589116
 21
2.5704071826
  0
LINE
  5
2B0
100
AcDbEntity
  8
03__ASM_ALL_CURVES
100
AcDbLine
 62
40
  6
CONTINUOUS
 10
5.5569897709
 20
2.6106384338
 11
5.6022499272
 21
2.6106384338
  0
LINE
  5
2B1
100
AcDbEntity
  8
03__ASM_ALL_CURVES
100
AcDbLine
 62
40
  6
CONTINUOUS
 10
5.4664694584
 20
2.6307540576
 11
5.4287526616
 21
2.6307540576
  0
LINE
  5
2B2
100
AcDbEntity
  8
03__ASM_ALL_CURVES
100
AcDbLine
 62
40
  6
CONTINUOUS
 10
7.4264836983
 20
2.6307540576
 11
7.4642004951
 21
2.6307540576
  0
LINE
  5
2B3
100
AcDbEntity
  8
03__ASM_ALL_CURVES
100
AcDbLine
 62
40
  6
CONTINUOUS
 10
7.7885649483
 20
2.6307540576
 11
7.8262817451
 21
2.6307540576
  0
LINE
  5
2B4
100
AcDbEntity
  8
03__ASM_ALL_CURVES
100
AcDbLine
 62
40
  6
CONTINUOUS
 10
8.1506461983
 20
2.6307540576
 11
8.1883629951
 21
2.6307540576
  0
LINE
  5
2B5
100
AcDbEntity
  8
03__ASM_ALL_CURVES
100
AcDbLine
 62
40
  6
CONTINUOUS
 10
7.3435067451
 20
2.6911009326
 11
7.3284200264
 21
2.6911009326
  0
LINE
  5
2B6
100
AcDbEntity
  8
03__ASM_ALL_CURVES
100
AcDbLine
 62
40
  6
CONTINUOUS
 10
5.3080589116
 20
2.6911009326
 11
5.3382323491
 21
2.6911009326
  0
LINE
  5
2B7
100
AcDbEntity
  8
03__ASM_ALL_CURVES
100
AcDbLine
 62
40
  6
CONTINUOUS
 10
5.4287526616
 20
2.6911009326
 11
5.4664694584
 21
2.6911009326
  0
LINE
  5
2B8
100
AcDbEntity
  8
03__ASM_ALL_CURVES
100
AcDbLine
 62
40
  6
CONTINUOUS
 10
7.4264836983
 20
2.6911009326
 11
7.4868305733
 21
2.6911009326
  0
LINE
  5
2B9
100
AcDbEntity
  8
03__ASM_ALL_CURVES
100
AcDbLine
 62
40
  6
CONTINUOUS
 10
7.5698075264
 20
2.6911009326
 11
7.5848942451
 21
2.6911009326
  0
LINE
  5
2BA
100
AcDbEntity
  8
03__ASM_ALL_CURVES
100
AcDbLine
 62
40
  6
CONTINUOUS
 10
7.7885649483
 20
2.6911009326
 11
7.8489118233
 21
2.6911009326
  0
LINE
  5
2BB
100
AcDbEntity
  8
03__ASM_ALL_CURVES
100
AcDbLine
 62
40
  6
CONTINUOUS
 10
8.0525825264
 20
2.6911009326
 11
8.0676692451
 21
2.6911009326
  0
LINE
  5
2BC
100
AcDbEntity
  8
03__ASM_ALL_CURVES
100
AcDbLine
 62
40
  6
CONTINUOUS
 10
8.1506461983
 20
2.6911009326
 11
8.2109930733
 21
2.6911009326
  0
LINE
  5
2BD
100
AcDbEntity
  8
03__ASM_ALL_CURVES
100
AcDbLine
 62
40
  6
CONTINUOUS
 10
5.3382323491
 20
2.6911009326
 11
5.3533190678
 21
2.6810431225
  0
LINE
  5
2BE
100
AcDbEntity
  8
0
100
AcDbLine
 62
7
  6
CONTINUOUS
 10
2.7671198638
 20
4.7416646826
 11
2.7616198638
 21
4.7471646826
  0
LINE
  5
2BF
100
AcDbEntity
  8
03__ASM_ALL_CURVES
100
AcDbLine
 62
40
  6
CONTINUOUS
 10
4.3622761138
 20
5.9502860191
 11
4.3622761138
 21
5.8966443509
  0
LINE
  5
2C0
100
AcDbEntity
  8
03__ASM_ALL_CURVES
100
AcDbLine
 62
40
  6
CONTINUOUS
 10
4.4729120513
 20
5.8430026826
 11
4.4729120513
 21
5.8564130997
  0
LINE
  5
2C1
100
AcDbEntity
  8
03__ASM_ALL_CURVES
100
AcDbLine
 62
40
  6
CONTINUOUS
 10
4.7746464263
 20
5.8832339326
 11
4.7645886138
 21
5.8430026826
  0
LINE
  5
2C2
100
AcDbEntity
  8
0
100
AcDbLine
 62
7
  6
CONTINUOUS
 10
4.8176198638
 20
5.5056646826
 11
4.7561320601
 21
5.3991646826
  0
LINE
  5
2C3
100
AcDbEntity
  8
03__ASM_ALL_CURVES
100
AcDbLine
 62
40
  6
CONTINUOUS
 10
7.6414694435
 20
2.7554709326
 11
7.6263827248
 21
2.7554709326
  0
LINE
  5
2C4
100
AcDbEntity
  8
03__ASM_ALL_CURVES
100
AcDbLine
 62
40
  6
CONTINUOUS
 10
5.824779029
 20
2.7554709326
 11
5.8096923102
 21
2.7554709326
  0
LINE
  5
2C5
100
AcDbEntity
  8
03__ASM_ALL_CURVES
100
AcDbLine
 62
40
  6
CONTINUOUS
 10
5.462697779
 20
2.7554709326
 11
5.4476110602
 21
2.7554709326
  0
LINE
  5
2C6
100
AcDbEntity
  8
03__ASM_ALL_CURVES
100
AcDbLine
 62
40
  6
CONTINUOUS
 10
7.9658338967
 20
2.7554709326
 11
8.0261807717
 21
2.7554709326
  0
LINE
  5
2C7
100
AcDbEntity
  8
03__ASM_ALL_CURVES
100
AcDbLine
 62
40
  6
CONTINUOUS
 10
7.7621631935
 20
2.8158178076
 11
7.7244463967
 21
2.8158178076
  0
LINE
  5
2C8
100
AcDbEntity
  8
03__ASM_ALL_CURVES
100
AcDbLine
 62
40
  6
CONTINUOUS
 10
7.5207756935
 20
2.8158178076
 11
7.4830588967
 21
2.8158178076
  0
LINE
  5
2C9
100
AcDbEntity
  8
03__ASM_ALL_CURVES
100
AcDbLine
 62
40
  6
CONTINUOUS
 10
5.583391529
 20
2.8158178076
 11
5.5456747321
 21
2.8158178076
  0
LINE
  5
2CA
100
AcDbEntity
  8
03__ASM_ALL_CURVES
100
AcDbLine
 62
40
  6
CONTINUOUS
 10
5.342004029
 20
2.8158178076
 11
5.3042872321
 21
2.8158178076
  0
LINE
  5
2CB
100
AcDbEntity
  8
03__ASM_ALL_CURVES
100
AcDbLine
 62
40
  6
CONTINUOUS
 10
5.8096923102
 20
2.8258756177
 11
5.824779029
 21
2.8258756177
  0
LINE
  5
2CC
100
AcDbEntity
  8
03__ASM_ALL_CURVES
100
AcDbLine
 62
40
  6
CONTINUOUS
 10
5.3042872321
 20
2.8761646826
 11
5.342004029
 21
2.8761646826
  0
LINE
  5
2CD
100
AcDbEntity
  8
03__ASM_ALL_CURVES
100
AcDbLine
 62
40
  6
CONTINUOUS
 10
5.4476110602
 20
2.8761646826
 11
5.462697779
 21
2.8761646826
  0
LINE
  5
2CE
100
AcDbEntity
  8
03__ASM_ALL_CURVES
100
AcDbLine
 62
40
  6
CONTINUOUS
 10
5.5456747321
 20
2.8761646826
 11
5.583391529
 21
2.8761646826
  0
LINE
  5
2CF
100
AcDbEntity
  8
03__ASM_ALL_CURVES
100
AcDbLine
 62
40
  6
CONTINUOUS
 10
5.6588251227
 20
2.8761646826
 11
5.7342587165
 21
2.8761646826
  0
LINE
  5
2D0
100
AcDbEntity
  8
03__ASM_ALL_CURVES
100
AcDbLine
 62
40
  6
CONTINUOUS
 10
5.8096923102
 20
2.8761646826
 11
5.824779029
 21
2.8761646826
  0
LINE
  5
2D1
100
AcDbEntity
  8
03__ASM_ALL_CURVES
100
AcDbLine
 62
40
  6
CONTINUOUS
 10
7.4830588967
 20
2.8761646826
 11
7.5207756935
 21
2.8761646826
  0
LINE
  5
2D2
100
AcDbEntity
  8
03__ASM_ALL_CURVES
100
AcDbLine
 62
40
  6
CONTINUOUS
 10
7.6263827248
 20
2.8761646826
 11
7.6414694435
 21
2.8761646826
  0
LINE
  5
2D3
100
AcDbEntity
  8
03__ASM_ALL_CURVES
100
AcDbLine
 62
40
  6
CONTINUOUS
 10
7.7244463967
 20
2.8761646826
 11
7.7621631935
 21
2.8761646826
  0
LINE
  5
2D4
100
AcDbEntity
  8
03__ASM_ALL_CURVES
100
AcDbLine
 62
40
  6
CONTINUOUS
 10
7.8375967873
 20
2.8761646826
 11
7.913030381
 21
2.8761646826
  0
LINE
  5
2D5
100
AcDbEntity
  8
03__ASM_ALL_CURVES
100
AcDbLine
 62
40
  6
CONTINUOUS
 10
7.9884639748
 20
2.8761646826
 11
8.0035506935
 21
2.8761646826
  0
LINE
  5
2D6
100
AcDbEntity
  8
03__ASM_ALL_CURVES
100
AcDbLine
 62
40
  6
CONTINUOUS
 10
5.4664694584
 20
2.6911009326
 11
5.4815561772
 21
2.6810431225
  0
LINE
  5
2D7
100
AcDbEntity
  8
03__ASM_ALL_CURVES
100
AcDbLine
 62
40
  6
CONTINUOUS
 10
5.4476110602
 20
2.7554709326
 11
5.4325243415
 21
2.7655287454
  0
LINE
  5
2D8
100
AcDbEntity
  8
03__ASM_ALL_CURVES
100
AcDbLine
 62
40
  6
CONTINUOUS
 10
5.342004029
 20
2.8761646826
 11
5.3570907477
 21
2.8661068725
  0
LINE
  5
2D9
100
AcDbEntity
  8
03__ASM_ALL_CURVES
100
AcDbLine
 62
40
  6
CONTINUOUS
 10
5.462697779
 20
2.8761646826
 11
5.4777844977
 21
2.8661068725
  0
LINE
  5
2DA
100
AcDbEntity
  8
03__ASM_ALL_CURVES
100
AcDbLine
 62
40
  6
CONTINUOUS
 10
5.3533190678
 20
2.6810431225
 11
5.3684057866
 21
2.6609274951
  0
LINE
  5
2DB
100
AcDbEntity
  8
03__ASM_ALL_CURVES
100
AcDbLine
 62
40
  6
CONTINUOUS
 10
3.6481714263
 20
5.9234651826
 11
3.6381136138
 21
5.9502860191
  0
LINE
  5
2DC
100
AcDbEntity
  8
03__ASM_ALL_CURVES
100
AcDbLine
 62
40
  6
CONTINUOUS
 10
3.7085183013
 20
5.9771068461
 11
3.7185761138
 21
5.9502860191
  0
LINE
  5
2DD
100
AcDbEntity
  8
03__ASM_ALL_CURVES
100
AcDbLine
 62
40
  6
CONTINUOUS
 10
3.9800792388
 20
5.9100547643
 11
3.9901370513
 21
5.8698235167
  0
LINE
  5
2DE
100
AcDbEntity
  8
03__ASM_ALL_CURVES
100
AcDbLine
 62
40
  6
CONTINUOUS
 10
4.5936058013
 20
5.8832339326
 11
4.5936058013
 21
5.8966443509
  0
LINE
  5
2DF
100
AcDbEntity
  8
03__ASM_ALL_CURVES
100
AcDbLine
 62
40
  6
CONTINUOUS
 10
4.6036636138
 20
5.9636964326
 11
4.6036636138
 21
5.9771068461
  0
LINE
  5
2E0
100
AcDbEntity
  8
03__ASM_ALL_CURVES
100
AcDbLine
 62
40
  6
CONTINUOUS
 10
4.6841261138
 20
5.9771068461
 11
4.6841261138
 21
5.9636964326
  0
LINE
  5
2E1
100
AcDbEntity
  8
03__ASM_ALL_CURVES
100
AcDbLine
 62
40
  6
CONTINUOUS
 10
4.6941839263
 20
5.8966443509
 11
4.6941839263
 21
5.8832339326
  0
LINE
  5
2E2
100
AcDbEntity
  8
0
100
AcDbLine
 62
7
  6
CONTINUOUS
 10
4.7561320601
 20
3.5531646826
 11
4.7561320601
 21
5.3991646826
  0
LINE
  5
2E3
100
AcDbEntity
  8
03__ASM_ALL_CURVES
100
AcDbLine
 62
40
  6
CONTINUOUS
 10
4.9858604888
 20
5.9100547643
 11
4.9758026763
 21
5.8698235167
  0
LINE
  5
2E4
100
AcDbEntity
  8
03__ASM_ALL_CURVES
100
AcDbLine
 62
40
  6
CONTINUOUS
 10
5.583391529
 20
2.8761646826
 11
5.5984782477
 21
2.8661068725
  0
LINE
  5
2E5
100
AcDbEntity
  8
03__ASM_ALL_CURVES
100
AcDbLine
 62
40
  6
CONTINUOUS
 10
5.8096923102
 20
2.7554709326
 11
5.7946055915
 21
2.7655287454
  0
LINE
  5
2E6
100
AcDbEntity
  8
03__ASM_ALL_CURVES
100
AcDbLine
 62
40
  6
CONTINUOUS
 10
5.824779029
 20
2.8258756177
 11
5.8398657477
 21
2.8158178076
  0
LINE
  5
2E7
100
AcDbEntity
  8
03__ASM_ALL_CURVES
100
AcDbLine
 62
40
  6
CONTINUOUS
 10
5.824779029
 20
2.8761646826
 11
5.8398657477
 21
2.8661068725
  0
LINE
  5
2E8
100
AcDbEntity
  8
03__ASM_ALL_CURVES
100
AcDbLine
 62
40
  6
CONTINUOUS
 10
5.4815561772
 20
2.6810431225
 11
5.4890995366
 21
2.6709853052
  0
LINE
  5
2E9
100
AcDbEntity
  8
03__ASM_ALL_CURVES
100
AcDbLine
 62
40
  6
CONTINUOUS
 10
5.4325243415
 20
2.7655287454
 11
5.4174376227
 21
2.7856443701
  0
LINE
  5
2EA
100
AcDbEntity
  8
03__ASM_ALL_CURVES
100
AcDbLine
 62
40
  6
CONTINUOUS
 10
5.3570907477
 20
2.8661068725
 11
5.3646341071
 21
2.8560490552
  0
LINE
  5
2EB
100
AcDbEntity
  8
03__ASM_ALL_CURVES
100
AcDbLine
 62
40
  6
CONTINUOUS
 10
5.4777844977
 20
2.8661068725
 11
5.4928712165
 21
2.8459912451
  0
LINE
  5
2EC
100
AcDbEntity
  8
03__ASM_ALL_CURVES
100
AcDbLine
 62
40
  6
CONTINUOUS
 10
3.3263214263
 20
5.8564130997
 11
3.3162636138
 21
5.8698235167
  0
LINE
  5
2ED
100
AcDbEntity
  8
0
100
AcDbLine
 62
7
  6
CONTINUOUS
 10
4.8176198638
 20
3.4466646826
 11
4.7561320601
 21
3.5531646826
  0
LINE
  5
2EE
100
AcDbEntity
  8
0
100
AcDbLine
 62
7
  6
CONTINUOUS
 10
4.8176198638
 20
3.4466646826
 11
4.8176198638
 21
5.5056646826
  0
LINE
  5
2EF
100
AcDbEntity
  8
03__ASM_ALL_CURVES
100
AcDbLine
 62
40
  6
CONTINUOUS
 10
4.8450511138
 20
5.9771068461
 11
4.8450511138
 21
5.9502860191
  0
LINE
  5
2F0
100
AcDbEntity
  8
03__ASM_ALL_CURVES
100
AcDbLine
 62
40
  6
CONTINUOUS
 10
4.9858604888
 20
5.9368755961
 11
4.9858604888
 21
5.9100547643
  0
LINE
  5
2F1
100
AcDbEntity
  8
03__ASM_ALL_CURVES
100
AcDbLine
 62
40
  6
CONTINUOUS
 10
6.5580826761
 20
5.9905172691
 11
6.5781983011
 21
6.0039276826
  0
LINE
  5
2F2
100
AcDbEntity
  8
03__ASM_ALL_CURVES
100
AcDbLine
 62
40
  6
CONTINUOUS
 10
6.7190076761
 20
5.9905172691
 11
6.7391233011
 21
6.0039276826
  0
LINE
  5
2F3
100
AcDbEntity
  8
03__ASM_ALL_CURVES
100
AcDbLine
 62
40
  6
CONTINUOUS
 10
6.6184295511
 20
5.8564130997
 11
6.5983139261
 21
5.8430026826
  0
LINE
  5
2F4
100
AcDbEntity
  8
0
100
AcDbLine
 62
7
  6
CONTINUOUS
 10
5.3186198638
 20
3.4466646826
 11
5.2416198638
 21
3.4466646826
  0
LINE
  5
2F5
100
AcDbEntity
  8
0
100
AcDbLine
 62
7
  6
CONTINUOUS
 10
4.8176198638
 20
3.4466646826
 11
5.1176198638
 21
3.4466646826
  0
LINE
  5
2F6
100
AcDbEntity
  8
0
100
AcDbLine
 62
7
  6
CONTINUOUS
 10
6.1296198638
 20
3.4486646826
 11
6.0076198638
 21
3.4486646826
  0
LINE
  5
2F7
100
AcDbEntity
  8
0
100
AcDbLine
 62
7
  6
CONTINUOUS
 10
6.2796198638
 20
3.5221646826
 11
6.3296198638
 21
3.5221646826
  0
LINE
  5
2F8
100
AcDbEntity
  8
THREAD
100
AcDbLine
 62
7
  6
CONTINUOUS
 10
6.1766198638
 20
3.5226646826
 11
6.1296198638
 21
3.5226646826
  0
LINE
  5
2F9
100
AcDbEntity
  8
03__ASM_ALL_CURVES
100
AcDbLine
 62
40
  6
CONTINUOUS
 10
5.5984782477
 20
2.8661068725
 11
5.6060216071
 21
2.8560490552
  0
LINE
  5
2FA
100
AcDbEntity
  8
03__ASM_ALL_CURVES
100
AcDbLine
 62
40
  6
CONTINUOUS
 10
3.3866683013
 20
5.9234651826
 11
3.4067839263
 21
5.8966443509
  0
LINE
  5
2FB
100
AcDbEntity
  8
03__ASM_ALL_CURVES
100
AcDbLine
 62
40
  6
CONTINUOUS
 10
5.7946055915
 20
2.7655287454
 11
5.7870622321
 21
2.7755865582
  0
LINE
  5
2FC
100
AcDbEntity
  8
03__ASM_ALL_CURVES
100
AcDbLine
 62
40
  6
CONTINUOUS
 10
3.3866683013
 20
5.9905172691
 11
3.3967261138
 21
5.9771068461
  0
LINE
  5
2FD
100
AcDbEntity
  8
03__ASM_ALL_CURVES
100
AcDbLine
 62
40
  6
CONTINUOUS
 10
3.5073620513
 20
5.8564130997
 11
3.5174198638
 21
5.8430026826
  0
LINE
  5
2FE
100
AcDbEntity
  8
03__ASM_ALL_CURVES
100
AcDbLine
 62
40
  6
CONTINUOUS
 10
5.8398657477
 20
2.8158178076
 11
5.8549524665
 21
2.7957021838
  0
LINE
  5
2FF
100
AcDbEntity
  8
03__ASM_ALL_CURVES
100
AcDbLine
 62
40
  6
CONTINUOUS
 10
5.8398657477
 20
2.8661068725
 11
5.8474091071
 21
2.8560490552
  0
LINE
  5
300
100
AcDbEntity
  8
03__ASM_ALL_CURVES
100
AcDbLine
 62
40
  6
CONTINUOUS
 10
3.6582292388
 20
5.8564130997
 11
3.6481714263
 21
5.8698235167
  0
LINE
  5
301
100
AcDbEntity
  8
03__ASM_ALL_CURVES
100
AcDbLine
 62
40
  6
CONTINUOUS
 10
4.1309464263
 20
5.9234651826
 11
4.1208886138
 21
5.9502860191
  0
LINE
  5
302
100
AcDbEntity
  8
03__ASM_ALL_CURVES
100
AcDbLine
 62
40
  6
CONTINUOUS
 10
4.1912933013
 20
5.9771068461
 11
4.2013511138
 21
5.9502860191
  0
LINE
  5
303
100
AcDbEntity
  8
03__ASM_ALL_CURVES
100
AcDbLine
 62
40
  6
CONTINUOUS
 10
5.4664694584
 20
2.6307540576
 11
5.4890995366
 21
2.5704071826
  0
LINE
  5
304
100
AcDbEntity
  8
03__ASM_ALL_CURVES
100
AcDbLine
 62
40
  6
CONTINUOUS
 10
4.2918714263
 20
5.9234651826
 11
4.2818136138
 21
5.9502860191
  0
LINE
  5
305
100
AcDbEntity
  8
03__ASM_ALL_CURVES
100
AcDbLine
 62
40
  6
CONTINUOUS
 10
5.3684057866
 20
2.6609274951
 11
5.3759491459
 21
2.6307540576
  0
LINE
  5
306
100
AcDbEntity
  8
0
100
AcDbLine
 62
7
  6
CONTINUOUS
 10
5.0676198638
 20
3.4466646826
 11
5.0676198638
 21
5.5056646826
  0
LINE
  5
307
100
AcDbEntity
  8
0
100
AcDbLine
 62
7
  6
CONTINUOUS
 10
5.1176198638
 20
3.4466646826
 11
5.1176198638
 21
5.5056646826
  0
LINE
  5
308
100
AcDbEntity
  8
0
100
AcDbLine
 62
7
  6
CONTINUOUS
 10
5.2206198638
 20
5.4691646826
 11
5.2206198638
 21
3.4831646826
  0
LINE
  5
309
100
AcDbEntity
  8
0
100
AcDbLine
 62
7
  6
CONTINUOUS
 10
5.2416198638
 20
3.4466646826
 11
5.2416198638
 21
5.5056646826
  0
LINE
  5
30A
100
AcDbEntity
  8
03__ASM_ALL_CURVES
100
AcDbLine
 62
40
  6
CONTINUOUS
 10
6.7793545511
 20
5.8564130997
 11
6.7592389261
 21
5.8430026826
  0
LINE
  5
30B
100
AcDbEntity
  8
THREAD
100
AcDbLine
 62
7
  6
CONTINUOUS
 10
6.8501198638
 20
3.5346646826
 11
6.3806420778
 21
3.5346646826
  0
LINE
  5
30C
100
AcDbEntity
  8
0
100
AcDbLine
 62
7
  6
CONTINUOUS
 10
5.2416198638
 20
3.5346646826
 11
5.2206198638
 21
3.5346646826
  0
LINE
  5
30D
100
AcDbEntity
  8
0
100
AcDbLine
 62
7
  6
CONTINUOUS
 10
4.7561320601
 20
3.5531646826
 11
3.885592495
 21
3.5531646826
  0
LINE
  5
30E
100
AcDbEntity
  8
0
100
AcDbLine
 62
7
  6
CONTINUOUS
 10
4.7561320601
 20
3.553560024
 11
3.885592495
 21
3.553560024
  0
LINE
  5
30F
100
AcDbEntity
  8
0
100
AcDbLine
 62
7
  6
CONTINUOUS
 10
5.9374718061
 20
3.5701646826
 11
5.389922622
 21
3.5701646826
  0
LINE
  5
310
100
AcDbEntity
  8
THREAD
100
AcDbLine
 62
7
  6
CONTINUOUS
 10
7.0546198638
 20
3.6321646826
 11
6.9476198638
 21
3.6321646826
  0
LINE
  5
311
100
AcDbEntity
  8
0
100
AcDbLine
 62
7
  6
CONTINUOUS
 10
8.2856198638
 20
3.6646646826
 11
8.3356198638
 21
3.6646646826
  0
LINE
  5
312
100
AcDbEntity
  8
0
100
AcDbLine
 62
7
  6
CONTINUOUS
 10
8.4386198638
 20
3.6646646826
 11
8.4886198638
 21
3.6646646826
  0
LINE
  5
313
100
AcDbEntity
  8
0
100
AcDbLine
 62
7
  6
CONTINUOUS
 10
8.1916198638
 20
3.6651646826
 11
8.2856198638
 21
3.6651646826
  0
LINE
  5
314
100
AcDbEntity
  8
0
100
AcDbLine
 62
7
  6
CONTINUOUS
 10
8.5286198638
 20
3.6651646826
 11
8.5986198638
 21
3.6651646826
  0
LINE
  5
315
100
AcDbEntity
  8
0
100
AcDbLine
 62
7
  6
CONTINUOUS
 10
3.8186198638
 20
3.6951646826
 11
3.0676198638
 21
3.6951646826
  0
LINE
  5
316
100
AcDbEntity
  8
0
100
AcDbLine
 62
7
  6
CONTINUOUS
 10
8.5286198638
 20
3.7526646826
 11
8.4886198638
 21
3.7526646826
  0
LINE
  5
317
100
AcDbEntity
  8
0
100
AcDbLine
 62
7
  6
CONTINUOUS
 10
8.1916198638
 20
3.7581646826
 11
8.1596198638
 21
3.7581646826
  0
LINE
  5
318
100
AcDbEntity
  8
0
100
AcDbLine
 62
7
  6
CONTINUOUS
 10
7.8476198638
 20
3.7581646826
 11
7.0676198638
 21
3.7581646826
  0
LINE
  5
319
100
AcDbEntity
  8
03__ASM_ALL_CURVES
100
AcDbLine
 62
40
  6
CONTINUOUS
 10
7.3284200264
 20
2.5704071826
 11
7.3133333076
 21
2.5804649954
  0
LINE
  5
31A
100
AcDbEntity
  8
03__ASM_ALL_CURVES
100
AcDbLine
 62
40
  6
CONTINUOUS
 10
7.3133333076
 20
2.650869685
 11
7.3585934639
 21
2.6206962439
  0
LINE
  5
31B
100
AcDbEntity
  8
03__ASM_ALL_CURVES
100
AcDbLine
 62
40
  6
CONTINUOUS
 10
3.6984604888
 20
5.9905172691
 11
3.7085183013
 21
5.9771068461
  0
LINE
  5
31C
100
AcDbEntity
  8
03__ASM_ALL_CURVES
100
AcDbLine
 62
40
  6
CONTINUOUS
 10
3.8090964263
 20
5.8564130997
 11
3.7990386138
 21
5.8698235167
  0
LINE
  5
31D
100
AcDbEntity
  8
03__ASM_ALL_CURVES
100
AcDbLine
 62
40
  6
CONTINUOUS
 10
3.8694433013
 20
5.9234651826
 11
3.8895589263
 21
5.8966443509
  0
LINE
  5
31E
100
AcDbEntity
  8
03__ASM_ALL_CURVES
100
AcDbLine
 62
40
  6
CONTINUOUS
 10
3.8694433013
 20
5.9905172691
 11
3.8795011138
 21
5.9771068461
  0
LINE
  5
31F
100
AcDbEntity
  8
03__ASM_ALL_CURVES
100
AcDbLine
 62
40
  6
CONTINUOUS
 10
3.9901370513
 20
5.8698235167
 11
4.0102526763
 21
5.8430026826
  0
LINE
  5
320
100
AcDbEntity
  8
03__ASM_ALL_CURVES
100
AcDbLine
 62
40
  6
CONTINUOUS
 10
5.7908339116
 20
2.6911009326
 11
5.8511807866
 21
2.5704071826
  0
LINE
  5
321
100
AcDbEntity
  8
03__ASM_ALL_CURVES
100
AcDbLine
 62
40
  6
CONTINUOUS
 10
4.3522183013
 20
5.9771068461
 11
4.3622761138
 21
5.9502860191
  0
LINE
  5
322
100
AcDbEntity
  8
03__ASM_ALL_CURVES
100
AcDbLine
 62
40
  6
CONTINUOUS
 10
5.583391529
 20
2.8158178076
 11
5.6060216071
 21
2.7554709326
  0
LINE
  5
323
100
AcDbEntity
  8
03__ASM_ALL_CURVES
100
AcDbLine
 62
40
  6
CONTINUOUS
 10
5.5796198491
 20
2.6911009326
 11
5.6173366459
 21
2.5704071826
  0
LINE
  5
324
100
AcDbEntity
  8
03__ASM_ALL_CURVES
100
AcDbLine
 62
40
  6
CONTINUOUS
 10
5.4174376227
 20
2.7856443701
 11
5.4098942633
 21
2.8158178076
  0
LINE
  5
325
100
AcDbEntity
  8
03__ASM_ALL_CURVES
100
AcDbLine
 62
40
  6
CONTINUOUS
 10
5.4928712165
 20
2.8459912451
 11
5.5004145758
 21
2.8158178076
  0
LINE
  5
326
100
AcDbEntity
  8
03__ASM_ALL_CURVES
100
AcDbLine
 62
40
  6
CONTINUOUS
 10
5.3042872321
 20
2.7554709326
 11
5.3042872321
 21
2.8761646826
  0
LINE
  5
327
100
AcDbEntity
  8
03__ASM_ALL_CURVES
100
AcDbLine
 62
40
  6
CONTINUOUS
 10
5.3080589116
 20
2.5704071826
 11
5.3080589116
 21
2.6911009326
  0
LINE
  5
328
100
AcDbEntity
  8
0
100
AcDbLine
 62
7
  6
CONTINUOUS
 10
5.3186198638
 20
3.4466646826
 11
5.3186198638
 21
5.5056646826
  0
LINE
  5
329
100
AcDbEntity
  8
03__ASM_ALL_CURVES
100
AcDbLine
 62
40
  6
CONTINUOUS
 10
5.3646341071
 20
2.8560490552
 11
5.3646341071
 21
2.835933435
  0
LINE
  5
32A
100
AcDbEntity
  8
0
100
AcDbLine
 62
7
  6
CONTINUOUS
 10
5.389922622
 20
3.5701646826
 11
5.389922622
 21
5.3821646826
  0
LINE
  5
32B
100
AcDbEntity
  8
03__ASM_ALL_CURVES
100
AcDbLine
 62
40
  6
CONTINUOUS
 10
5.4287526616
 20
2.5704071826
 11
5.4287526616
 21
2.6911009326
  0
LINE
  5
32C
100
AcDbEntity
  8
03__ASM_ALL_CURVES
100
AcDbLine
 62
40
  6
CONTINUOUS
 10
5.4890995366
 20
2.6709853052
 11
5.4890995366
 21
2.650869685
  0
LINE
  5
32D
100
AcDbEntity
  8
03__ASM_ALL_CURVES
100
AcDbLine
 62
40
  6
CONTINUOUS
 10
5.5456747321
 20
2.7554709326
 11
5.5456747321
 21
2.8761646826
  0
LINE
  5
32E
100
AcDbEntity
  8
0
100
AcDbLine
 62
7
  6
CONTINUOUS
 10
6.0076198638
 20
5.5036646826
 11
5.9374718061
 21
5.3821646826
  0
LINE
  5
32F
100
AcDbEntity
  8
03__ASM_ALL_CURVES
100
AcDbLine
 62
40
  6
CONTINUOUS
 10
6.5379670511
 20
5.9636964326
 11
6.5580826761
 21
5.9905172691
  0
LINE
  5
330
100
AcDbEntity
  8
03__ASM_ALL_CURVES
100
AcDbLine
 62
40
  6
CONTINUOUS
 10
6.6385451761
 20
5.8832339326
 11
6.6184295511
 21
5.8564130997
  0
LINE
  5
331
100
AcDbEntity
  8
03__ASM_ALL_CURVES
100
AcDbLine
 62
40
  6
CONTINUOUS
 10
6.6988920511
 20
5.9636964326
 11
6.7190076761
 21
5.9905172691
  0
LINE
  5
332
100
AcDbEntity
  8
03__ASM_ALL_CURVES
100
AcDbLine
 62
40
  6
CONTINUOUS
 10
7.5236326761
 20
5.9905172691
 11
7.5437483011
 21
6.0039276826
  0
LINE
  5
333
100
AcDbEntity
  8
03__ASM_ALL_CURVES
100
AcDbLine
 62
40
  6
CONTINUOUS
 10
7.5839795511
 20
5.8564130997
 11
7.5638639261
 21
5.8430026826
  0
LINE
  5
334
100
AcDbEntity
  8
03__ASM_ALL_CURVES
100
AcDbLine
 62
40
  6
CONTINUOUS
 10
7.8655983011
 20
6.0039276826
 11
7.8454826761
 21
5.9905172691
  0
LINE
  5
335
100
AcDbEntity
  8
0
100
AcDbLine
 62
7
  6
CONTINUOUS
 10
4.7561320601
 20
3.9914693411
 11
3.885592495
 21
3.9914693411
  0
LINE
  5
336
100
AcDbEntity
  8
0
100
AcDbLine
 62
7
  6
CONTINUOUS
 10
4.7561320601
 20
4.0382553655
 11
3.885592495
 21
4.0382553655
  0
LINE
  5
337
100
AcDbEntity
  8
03__ASM_ALL_CURVES
100
AcDbLine
 62
40
  6
CONTINUOUS
 10
7.3585934639
 20
2.6810431225
 11
7.3435067451
 21
2.6911009326
  0
LINE
  5
338
100
AcDbEntity
  8
03__ASM_ALL_CURVES
100
AcDbLine
 62
40
  6
CONTINUOUS
 10
7.5698075264
 20
2.5704071826
 11
7.5547208076
 21
2.5804649954
  0
LINE
  5
339
100
AcDbEntity
  8
03__ASM_ALL_CURVES
100
AcDbLine
 62
40
  6
CONTINUOUS
 10
7.6905012764
 20
2.5704071826
 11
7.6754145576
 21
2.5804649954
  0
LINE
  5
33A
100
AcDbEntity
  8
03__ASM_ALL_CURVES
100
AcDbLine
 62
40
  6
CONTINUOUS
 10
7.5848942451
 20
2.6911009326
 11
7.5999809639
 21
2.6810431225
  0
LINE
  5
33B
100
AcDbEntity
  8
03__ASM_ALL_CURVES
100
AcDbLine
 62
40
  6
CONTINUOUS
 10
7.6263827248
 20
2.7554709326
 11
7.611296006
 21
2.7655287454
  0
LINE
  5
33C
100
AcDbEntity
  8
03__ASM_ALL_CURVES
100
AcDbLine
 62
40
  6
CONTINUOUS
 10
4.1410042388
 20
5.8564130997
 11
4.1309464263
 21
5.8698235167
  0
LINE
  5
33D
100
AcDbEntity
  8
03__ASM_ALL_CURVES
100
AcDbLine
 62
40
  6
CONTINUOUS
 10
4.1812354888
 20
5.9905172691
 11
4.1912933013
 21
5.9771068461
  0
LINE
  5
33E
100
AcDbEntity
  8
03__ASM_ALL_CURVES
100
AcDbLine
 62
40
  6
CONTINUOUS
 10
4.3019292388
 20
5.8564130997
 11
4.2918714263
 21
5.8698235167
  0
LINE
  5
33F
100
AcDbEntity
  8
0
100
AcDbLine
 62
7
  6
CONTINUOUS
 10
6.0076198638
 20
3.4486646826
 11
5.9374718061
 21
3.5701646826
  0
LINE
  5
340
100
AcDbEntity
  8
03__ASM_ALL_CURVES
100
AcDbLine
 62
40
  6
CONTINUOUS
 10
4.9758026763
 20
5.9771068461
 11
4.9858604888
 21
5.9368755961
  0
LINE
  5
341
100
AcDbEntity
  8
03__ASM_ALL_CURVES
100
AcDbLine
 62
40
  6
CONTINUOUS
 10
5.6060216071
 20
2.8560490552
 11
5.6060216071
 21
2.835933435
  0
LINE
  5
342
100
AcDbEntity
  8
03__ASM_ALL_CURVES
100
AcDbLine
 62
40
  6
CONTINUOUS
 10
5.6965419196
 20
2.8761646826
 11
5.6965419196
 21
2.7554709326
  0
LINE
  5
343
100
AcDbEntity
  8
03__ASM_ALL_CURVES
100
AcDbLine
 62
40
  6
CONTINUOUS
 10
5.7003135991
 20
2.6911009326
 11
5.7003135991
 21
2.5704071826
  0
LINE
  5
344
100
AcDbEntity
  8
03__ASM_ALL_CURVES
100
AcDbLine
 62
40
  6
CONTINUOUS
 10
5.7908339116
 20
2.5704071826
 11
5.7908339116
 21
2.6911009326
  0
LINE
  5
345
100
AcDbEntity
  8
03__ASM_ALL_CURVES
100
AcDbLine
 62
40
  6
CONTINUOUS
 10
5.4098942633
 20
2.8158178076
 11
5.4174376227
 21
2.8459912451
  0
LINE
  5
346
100
AcDbEntity
  8
03__ASM_ALL_CURVES
100
AcDbLine
 62
40
  6
CONTINUOUS
 10
5.3759491459
 20
2.6307540576
 11
5.3684057866
 21
2.6005806201
  0
LINE
  5
347
100
AcDbEntity
  8
THREAD
100
AcDbLine
 62
7
  6
CONTINUOUS
 10
6.3806420778
 20
5.4176646826
 11
6.3506198638
 21
5.3656646826
  0
LINE
  5
348
100
AcDbEntity
  8
0
100
AcDbLine
 62
7
  6
CONTINUOUS
 10
5.389922622
 20
3.5701646826
 11
5.3186198638
 21
3.4466646826
  0
LINE
  5
349
100
AcDbEntity
  8
03__ASM_ALL_CURVES
100
AcDbLine
 62
40
  6
CONTINUOUS
 10
6.7894123636
 20
5.8698235167
 11
6.7793545511
 21
5.8564130997
  0
LINE
  5
34A
100
AcDbEntity
  8
03__ASM_ALL_CURVES
100
AcDbLine
 62
40
  6
CONTINUOUS
 10
7.9058295511
 20
5.8564130997
 11
7.8857139261
 21
5.8430026826
  0
LINE
  5
34B
100
AcDbEntity
  8
03__ASM_ALL_CURVES
100
AcDbLine
 62
40
  6
CONTINUOUS
 10
8.1673326761
 20
5.9905172691
 11
8.1874483011
 21
6.0039276826
  0
LINE
  5
34C
100
AcDbEntity
  8
0
100
AcDbLine
 62
7
  6
CONTINUOUS
 10
2.7986198638
 20
4.1951646826
 11
2.9688435855
 21
4.1951646826
  0
LINE
  5
34D
100
AcDbEntity
  8
0
100
AcDbLine
 62
7
  6
CONTINUOUS
 10
3.0056198638
 20
4.2051646826
 11
2.9746198638
 21
4.2051646826
  0
LINE
  5
34E
100
AcDbEntity
  8
0
100
AcDbLine
 62
7
  6
CONTINUOUS
 10
2.7616198638
 20
4.2051646826
 11
2.7556198638
 21
4.2051646826
  0
LINE
  5
34F
100
AcDbEntity
  8
0
100
AcDbLine
 62
7
  6
CONTINUOUS
 10
2.7831198638
 20
4.2106646826
 11
2.7671198638
 21
4.2106646826
  0
LINE
  5
350
100
AcDbEntity
  8
0
100
AcDbLine
 62
7
  6
CONTINUOUS
 10
2.2236198638
 20
4.2921646826
 11
2.4226198638
 21
4.2921646826
  0
LINE
  5
351
100
AcDbEntity
  8
0
100
AcDbLine
 62
7
  6
CONTINUOUS
 10
2.4606198638
 20
4.2921646826
 11
2.6936198638
 21
4.2921646826
  0
LINE
  5
352
100
AcDbEntity
  8
03__ASM_ALL_CURVES
100
AcDbLine
 62
40
  6
CONTINUOUS
 10
7.5207756935
 20
2.8761646826
 11
7.5358624123
 21
2.8661068725
  0
LINE
  5
353
100
AcDbEntity
  8
03__ASM_ALL_CURVES
100
AcDbLine
 62
40
  6
CONTINUOUS
 10
8.0525825264
 20
2.5704071826
 11
8.0374958076
 21
2.5804649954
  0
LINE
  5
354
100
AcDbEntity
  8
03__ASM_ALL_CURVES
100
AcDbLine
 62
40
  6
CONTINUOUS
 10
7.6414694435
 20
2.8761646826
 11
7.6565561623
 21
2.8661068725
  0
LINE
  5
355
100
AcDbEntity
  8
03__ASM_ALL_CURVES
100
AcDbLine
 62
40
  6
CONTINUOUS
 10
7.7621631935
 20
2.8761646826
 11
7.7772499123
 21
2.8661068725
  0
LINE
  5
356
100
AcDbEntity
  8
03__ASM_ALL_CURVES
100
AcDbLine
 62
40
  6
CONTINUOUS
 10
8.0676692451
 20
2.6911009326
 11
8.0827559639
 21
2.6810431225
  0
LINE
  5
357
100
AcDbEntity
  8
03__ASM_ALL_CURVES
100
AcDbLine
 62
40
  6
CONTINUOUS
 10
3.3464370513
 20
5.8430026826
 11
3.3263214263
 21
5.8564130997
  0
LINE
  5
358
100
AcDbEntity
  8
03__ASM_ALL_CURVES
100
AcDbLine
 62
40
  6
CONTINUOUS
 10
3.3665526763
 20
5.9368755961
 11
3.3866683013
 21
5.9234651826
  0
LINE
  5
359
100
AcDbEntity
  8
03__ASM_ALL_CURVES
100
AcDbLine
 62
40
  6
CONTINUOUS
 10
4.3421604888
 20
5.9905172691
 11
4.3522183013
 21
5.9771068461
  0
LINE
  5
35A
100
AcDbEntity
  8
03__ASM_ALL_CURVES
100
AcDbLine
 62
40
  6
CONTINUOUS
 10
4.4729120513
 20
5.8564130997
 11
4.4829698638
 21
5.8430026826
  0
LINE
  5
35B
100
AcDbEntity
  8
03__ASM_ALL_CURVES
100
AcDbLine
 62
40
  6
CONTINUOUS
 10
4.6137214263
 20
5.8564130997
 11
4.5936058013
 21
5.8832339326
  0
LINE
  5
35C
100
AcDbEntity
  8
03__ASM_ALL_CURVES
100
AcDbLine
 62
40
  6
CONTINUOUS
 10
5.8474091071
 20
2.8560490552
 11
5.8474091071
 21
2.8459912451
  0
LINE
  5
35D
100
AcDbEntity
  8
03__ASM_ALL_CURVES
100
AcDbLine
 62
40
  6
CONTINUOUS
 10
5.8511807866
 20
2.5704071826
 11
5.8511807866
 21
2.6911009326
  0
LINE
  5
35E
100
AcDbEntity
  8
03__ASM_ALL_CURVES
100
AcDbLine
 62
40
  6
CONTINUOUS
 10
5.8549524665
 20
2.7957021838
 11
5.8549524665
 21
2.7856443701
  0
LINE
  5
35F
100
AcDbEntity
  8
03__ASM_ALL_CURVES
100
AcDbLine
 62
40
  6
CONTINUOUS
 10
5.9365098638
 20
5.8108176826
 11
5.9365098638
 21
5.7464476826
  0
LINE
  5
360
100
AcDbEntity
  8
0
100
AcDbLine
 62
7
  6
CONTINUOUS
 10
5.9374718061
 20
3.5701646826
 11
5.9374718061
 21
5.3821646826
  0
LINE
  5
361
100
AcDbEntity
  8
0
100
AcDbLine
 62
7
  6
CONTINUOUS
 10
6.0076198638
 20
3.4486646826
 11
6.0076198638
 21
5.5036646826
  0
LINE
  5
362
100
AcDbEntity
  8
03__ASM_ALL_CURVES
100
AcDbLine
 62
40
  6
CONTINUOUS
 10
5.5004145758
 20
2.8158178076
 11
5.4928712165
 21
2.7856443701
  0
LINE
  5
363
100
AcDbEntity
  8
03__ASM_ALL_CURVES
100
AcDbLine
 62
40
  6
CONTINUOUS
 10
5.5419030522
 20
2.5704071826
 11
5.5796198491
 21
2.6911009326
  0
LINE
  5
364
100
AcDbEntity
  8
03__ASM_ALL_CURVES
100
AcDbLine
 62
40
  6
CONTINUOUS
 10
8.2276795511
 20
5.8564130997
 11
8.2075639261
 21
5.8430026826
  0
LINE
  5
365
100
AcDbEntity
  8
03__ASM_ALL_CURVES
100
AcDbLine
 62
40
  6
CONTINUOUS
 10
8.3886045511
 20
5.8564130997
 11
8.3684889261
 21
5.8430026826
  0
LINE
  5
366
100
AcDbEntity
  8
03__ASM_ALL_CURVES
100
AcDbLine
 62
40
  6
CONTINUOUS
 10
9.281874551
 20
4.3232859326
 11
9.221527676
 21
4.3232859326
  0
LINE
  5
367
100
AcDbEntity
  8
03__ASM_ALL_CURVES
100
AcDbLine
 62
40
  6
CONTINUOUS
 10
9.100833926
 20
4.3232859326
 11
9.161180801
 21
4.3232859326
  0
LINE
  5
368
100
AcDbEntity
  8
0
100
AcDbLine
 62
7
  6
CONTINUOUS
 10
2.4226198638
 20
4.3251646826
 11
2.4241198638
 21
4.3251646826
  0
LINE
  5
369
100
AcDbEntity
  8
0
100
AcDbLine
 62
7
  6
CONTINUOUS
 10
2.4591198638
 20
4.3251646826
 11
2.4606198638
 21
4.3251646826
  0
LINE
  5
36A
100
AcDbEntity
  8
03__ASM_ALL_CURVES
100
AcDbLine
 62
40
  6
CONTINUOUS
 10
9.221527676
 20
4.3836328076
 11
9.2592444728
 21
4.3836328076
  0
LINE
  5
36B
100
AcDbEntity
  8
03__ASM_ALL_CURVES
100
AcDbLine
 62
40
  6
CONTINUOUS
 10
9.221527676
 20
4.4439796826
 11
9.281874551
 21
4.4439796826
  0
LINE
  5
36C
100
AcDbEntity
  8
03__ASM_ALL_CURVES
100
AcDbLine
 62
40
  6
CONTINUOUS
 10
9.3346780666
 20
4.4439796826
 11
9.4101116603
 21
4.4439796826
  0
LINE
  5
36D
100
AcDbEntity
  8
0
100
AcDbLine
 62
7
  6
CONTINUOUS
 10
2.9437484534
 20
4.4761646826
 11
2.8420907151
 21
4.4761646826
  0
LINE
  5
36E
100
AcDbEntity
  8
03__ASM_ALL_CURVES
100
AcDbLine
 62
40
  6
CONTINUOUS
 10
9.0480304105
 20
4.5083496826
 11
9.0329436918
 21
4.5083496826
  0
LINE
  5
36F
100
AcDbEntity
  8
03__ASM_ALL_CURVES
100
AcDbLine
 62
40
  6
CONTINUOUS
 10
9.1687241605
 20
4.5686965576
 11
9.1310073636
 21
4.5686965576
  0
LINE
  5
370
100
AcDbEntity
  8
03__ASM_ALL_CURVES
100
AcDbLine
 62
40
  6
CONTINUOUS
 10
8.9273366605
 20
4.5686965576
 11
8.8896198636
 21
4.5686965576
  0
LINE
  5
371
100
AcDbEntity
  8
03__ASM_ALL_CURVES
100
AcDbLine
 62
40
  6
CONTINUOUS
 10
8.0035506935
 20
2.8761646826
 11
8.0186374123
 21
2.8661068725
  0
LINE
  5
372
100
AcDbEntity
  8
03__ASM_ALL_CURVES
100
AcDbLine
 62
40
  6
CONTINUOUS
 10
3.3665526763
 20
6.0039276826
 11
3.3866683013
 21
5.9905172691
  0
LINE
  5
373
100
AcDbEntity
  8
03__ASM_ALL_CURVES
100
AcDbLine
 62
40
  6
CONTINUOUS
 10
3.6783448638
 20
5.8430026826
 11
3.6582292388
 21
5.8564130997
  0
LINE
  5
374
100
AcDbEntity
  8
03__ASM_ALL_CURVES
100
AcDbLine
 62
40
  6
CONTINUOUS
 10
3.8292120513
 20
5.8430026826
 11
3.8090964263
 21
5.8564130997
  0
LINE
  5
375
100
AcDbEntity
  8
03__ASM_ALL_CURVES
100
AcDbLine
 62
40
  6
CONTINUOUS
 10
3.6783448638
 20
6.0039276826
 11
3.6984604888
 21
5.9905172691
  0
LINE
  5
376
100
AcDbEntity
  8
03__ASM_ALL_CURVES
100
AcDbLine
 62
40
  6
CONTINUOUS
 10
3.8493276763
 20
5.9368755961
 11
3.8694433013
 21
5.9234651826
  0
LINE
  5
377
100
AcDbEntity
  8
03__ASM_ALL_CURVES
100
AcDbLine
 62
40
  6
CONTINUOUS
 10
4.6137214263
 20
5.9502860191
 11
4.6036636138
 21
5.9636964326
  0
LINE
  5
378
100
AcDbEntity
  8
03__ASM_ALL_CURVES
100
AcDbLine
 62
40
  6
CONTINUOUS
 10
4.6740683013
 20
5.9234651826
 11
4.6941839263
 21
5.8966443509
  0
LINE
  5
379
100
AcDbEntity
  8
03__ASM_ALL_CURVES
100
AcDbLine
 62
40
  6
CONTINUOUS
 10
4.6740683013
 20
5.9905172691
 11
4.6841261138
 21
5.9771068461
  0
LINE
  5
37A
100
AcDbEntity
  8
03__ASM_ALL_CURVES
100
AcDbLine
 62
40
  6
CONTINUOUS
 10
7.3133333076
 20
2.5804649954
 11
7.2982465889
 21
2.6005806201
  0
LINE
  5
37B
100
AcDbEntity
  8
03__ASM_ALL_CURVES
100
AcDbLine
 62
40
  6
CONTINUOUS
 10
7.3057899483
 20
2.6609274951
 11
7.3133333076
 21
2.650869685
  0
LINE
  5
37C
100
AcDbEntity
  8
03__ASM_ALL_CURVES
100
AcDbLine
 62
40
  6
CONTINUOUS
 10
7.3585934639
 20
2.6206962439
 11
7.3661368233
 21
2.6106384338
  0
LINE
  5
37D
100
AcDbEntity
  8
03__ASM_ALL_CURVES
100
AcDbLine
 62
40
  6
CONTINUOUS
 10
4.8349933013
 20
5.9905172691
 11
4.8450511138
 21
5.9771068461
  0
LINE
  5
37E
100
AcDbEntity
  8
03__ASM_ALL_CURVES
100
AcDbLine
 62
40
  6
CONTINUOUS
 10
7.3661368233
 20
2.6709853052
 11
7.3585934639
 21
2.6810431225
  0
LINE
  5
37F
100
AcDbEntity
  8
THREAD
100
AcDbLine
 62
7
  6
CONTINUOUS
 10
6.3806420778
 20
3.5346646826
 11
6.3506198638
 21
3.5866646826
  0
LINE
  5
380
100
AcDbEntity
  8
0
100
AcDbLine
 62
7
  6
CONTINUOUS
 10
5.389922622
 20
5.3821646826
 11
5.3186198638
 21
5.5056646826
  0
LINE
  5
381
100
AcDbEntity
  8
0
100
AcDbLine
 62
7
  6
CONTINUOUS
 10
6.1296198638
 20
3.4486646826
 11
6.1296198638
 21
5.5036646826
  0
LINE
  5
382
100
AcDbEntity
  8
03__ASM_ALL_CURVES
100
AcDbLine
 62
40
  6
CONTINUOUS
 10
6.1296198638
 20
5.5378496826
 11
6.1296198638
 21
5.8430026826
  0
LINE
  5
383
100
AcDbEntity
  8
THREAD
100
AcDbLine
 62
7
  6
CONTINUOUS
 10
6.1766198638
 20
3.5226646826
 11
6.1766198638
 21
5.4296646826
  0
LINE
  5
384
100
AcDbEntity
  8
0
100
AcDbLine
 62
7
  6
CONTINUOUS
 10
6.2796198638
 20
3.5221646826
 11
6.2796198638
 21
5.4301646826
  0
LINE
  5
385
100
AcDbEntity
  8
03__ASM_ALL_CURVES
100
AcDbLine
 62
40
  6
CONTINUOUS
 10
6.3227298638
 20
5.8108176826
 11
6.3227298638
 21
5.7464476826
  0
LINE
  5
386
100
AcDbEntity
  8
0
100
AcDbLine
 62
7
  6
CONTINUOUS
 10
6.3296198638
 20
3.5221646826
 11
6.3296198638
 21
5.4301646826
  0
LINE
  5
387
100
AcDbEntity
  8
0
100
AcDbLine
 62
7
  6
CONTINUOUS
 10
6.3506198638
 20
3.5866646826
 11
6.3506198638
 21
5.3656646826
  0
LINE
  5
388
100
AcDbEntity
  8
03__ASM_ALL_CURVES
100
AcDbLine
 62
40
  6
CONTINUOUS
 10
6.5279092386
 20
5.9234651826
 11
6.5379670511
 21
5.9636964326
  0
LINE
  5
389
100
AcDbEntity
  8
03__ASM_ALL_CURVES
100
AcDbLine
 62
40
  6
CONTINUOUS
 10
6.6486029886
 20
5.9234651826
 11
6.6385451761
 21
5.8832339326
  0
LINE
  5
38A
100
AcDbEntity
  8
03__ASM_ALL_CURVES
100
AcDbLine
 62
40
  6
CONTINUOUS
 10
6.6888342386
 20
5.9234651826
 11
6.6988920511
 21
5.9636964326
  0
LINE
  5
38B
100
AcDbEntity
  8
03__ASM_ALL_CURVES
100
AcDbLine
 62
40
  6
CONTINUOUS
 10
6.8598170511
 20
5.8430026826
 11
6.9101061136
 21
6.0039276826
  0
LINE
  5
38C
100
AcDbEntity
  8
03__ASM_ALL_CURVES
100
AcDbLine
 62
40
  6
CONTINUOUS
 10
7.5035170511
 20
5.9636964326
 11
7.5236326761
 21
5.9905172691
  0
LINE
  5
38D
100
AcDbEntity
  8
03__ASM_ALL_CURVES
100
AcDbLine
 62
40
  6
CONTINUOUS
 10
7.5940373636
 20
5.8698235167
 11
7.5839795511
 21
5.8564130997
  0
LINE
  5
38E
100
AcDbEntity
  8
03__ASM_ALL_CURVES
100
AcDbLine
 62
40
  6
CONTINUOUS
 10
5.3646341071
 20
2.835933435
 11
5.3570907477
 21
2.8258756177
  0
LINE
  5
38F
100
AcDbEntity
  8
03__ASM_ALL_CURVES
100
AcDbLine
 62
40
  6
CONTINUOUS
 10
5.4174376227
 20
2.8459912451
 11
5.4325243415
 21
2.8661068725
  0
LINE
  5
390
100
AcDbEntity
  8
03__ASM_ALL_CURVES
100
AcDbLine
 62
40
  6
CONTINUOUS
 10
8.7003967386
 20
5.8564130997
 11
8.6802811136
 21
5.8430026826
  0
LINE
  5
391
100
AcDbEntity
  8
03__ASM_ALL_CURVES
100
AcDbLine
 62
40
  6
CONTINUOUS
 10
9.0323045511
 20
5.9368755961
 11
9.0121889261
 21
5.9234651826
  0
LINE
  5
392
100
AcDbEntity
  8
0
100
AcDbLine
 62
7
  6
CONTINUOUS
 10
2.4226198638
 20
4.6271646826
 11
2.4606198638
 21
4.6271646826
  0
LINE
  5
393
100
AcDbEntity
  8
03__ASM_ALL_CURVES
100
AcDbLine
 62
40
  6
CONTINUOUS
 10
8.8896198636
 20
4.6290434326
 11
8.9273366605
 21
4.6290434326
  0
LINE
  5
394
100
AcDbEntity
  8
03__ASM_ALL_CURVES
100
AcDbLine
 62
40
  6
CONTINUOUS
 10
9.0329436918
 20
4.6290434326
 11
9.0480304105
 21
4.6290434326
  0
LINE
  5
395
100
AcDbEntity
  8
03__ASM_ALL_CURVES
100
AcDbLine
 62
40
  6
CONTINUOUS
 10
9.1310073636
 20
4.6290434326
 11
9.1687241605
 21
4.6290434326
  0
LINE
  5
396
100
AcDbEntity
  8
03__ASM_ALL_CURVES
100
AcDbLine
 62
40
  6
CONTINUOUS
 10
9.2441577543
 20
4.6290434326
 11
9.319591348
 21
4.6290434326
  0
LINE
  5
397
100
AcDbEntity
  8
0
100
AcDbLine
 62
7
  6
CONTINUOUS
 10
2.2236198638
 20
4.6601646826
 11
2.4226198638
 21
4.6601646826
  0
LINE
  5
398
100
AcDbEntity
  8
0
100
AcDbLine
 62
7
  6
CONTINUOUS
 10
2.4606198638
 20
4.6601646826
 11
2.6936198638
 21
4.6601646826
  0
LINE
  5
399
100
AcDbEntity
  8
0
100
AcDbLine
 62
7
  6
CONTINUOUS
 10
2.7831198638
 20
4.7416646826
 11
2.7671198638
 21
4.7416646826
  0
LINE
  5
39A
100
AcDbEntity
  8
0
100
AcDbLine
 62
7
  6
CONTINUOUS
 10
3.0056198638
 20
4.7471646826
 11
2.9746198638
 21
4.7471646826
  0
LINE
  5
39B
100
AcDbEntity
  8
0
100
AcDbLine
 62
7
  6
CONTINUOUS
 10
2.7616198638
 20
4.7471646826
 11
2.7556198638
 21
4.7471646826
  0
LINE
  5
39C
100
AcDbEntity
  8
0
100
AcDbLine
 62
7
  6
CONTINUOUS
 10
2.7986198638
 20
4.7571646826
 11
2.9688435855
 21
4.7571646826
  0
LINE
  5
39D
100
AcDbEntity
  8
03__ASM_ALL_CURVES
100
AcDbLine
 62
40
  6
CONTINUOUS
 10
3.8493276763
 20
6.0039276826
 11
3.8694433013
 21
5.9905172691
  0
LINE
  5
39E
100
AcDbEntity
  8
03__ASM_ALL_CURVES
100
AcDbLine
 62
40
  6
CONTINUOUS
 10
4.1611198638
 20
5.8430026826
 11
4.1410042388
 21
5.8564130997
  0
LINE
  5
39F
100
AcDbEntity
  8
03__ASM_ALL_CURVES
100
AcDbLine
 62
40
  6
CONTINUOUS
 10
4.3220448638
 20
5.8430026826
 11
4.3019292388
 21
5.8564130997
  0
LINE
  5
3A0
100
AcDbEntity
  8
03__ASM_ALL_CURVES
100
AcDbLine
 62
40
  6
CONTINUOUS
 10
4.1611198638
 20
6.0039276826
 11
4.1812354888
 21
5.9905172691
  0
LINE
  5
3A1
100
AcDbEntity
  8
03__ASM_ALL_CURVES
100
AcDbLine
 62
40
  6
CONTINUOUS
 10
4.9556870513
 20
6.0039276826
 11
4.9758026763
 21
5.9771068461
  0
LINE
  5
3A2
100
AcDbEntity
  8
03__ASM_ALL_CURVES
100
AcDbLine
 62
40
  6
CONTINUOUS
 10
7.5547208076
 20
2.5804649954
 11
7.5396340889
 21
2.6005806201
  0
LINE
  5
3A3
100
AcDbEntity
  8
03__ASM_ALL_CURVES
100
AcDbLine
 62
40
  6
CONTINUOUS
 10
7.6754145576
 20
2.5804649954
 11
7.6678711983
 21
2.5905228082
  0
LINE
  5
3A4
100
AcDbEntity
  8
03__ASM_ALL_CURVES
100
AcDbLine
 62
40
  6
CONTINUOUS
 10
7.5999809639
 20
2.6810431225
 11
7.6150676826
 21
2.6609274951
  0
LINE
  5
3A5
100
AcDbEntity
  8
03__ASM_ALL_CURVES
100
AcDbLine
 62
40
  6
CONTINUOUS
 10
7.611296006
 20
2.7655287454
 11
7.5962092873
 21
2.7856443701
  0
LINE
  5
3A6
100
AcDbEntity
  8
03__ASM_ALL_CURVES
100
AcDbLine
 62
40
  6
CONTINUOUS
 10
7.5358624123
 20
2.8661068725
 11
7.5434057717
 21
2.8560490552
  0
LINE
  5
3A7
100
AcDbEntity
  8
THREAD
100
AcDbLine
 62
7
  6
CONTINUOUS
 10
6.3806420778
 20
3.5346646826
 11
6.3806420778
 21
5.4176646826
  0
LINE
  5
3A8
100
AcDbEntity
  8
03__ASM_ALL_CURVES
100
AcDbLine
 62
40
  6
CONTINUOUS
 10
6.3870998636
 20
6.0039276826
 11
6.3870998636
 21
5.8430026826
  0
LINE
  5
3A9
100
AcDbEntity
  8
03__ASM_ALL_CURVES
100
AcDbLine
 62
40
  6
CONTINUOUS
 10
7.8454826761
 20
5.9905172691
 11
7.8354248636
 21
5.9771068461
  0
LINE
  5
3AA
100
AcDbEntity
  8
03__ASM_ALL_CURVES
100
AcDbLine
 62
40
  6
CONTINUOUS
 10
5.4928712165
 20
2.7856443701
 11
5.4777844977
 21
2.7655287454
  0
LINE
  5
3AB
100
AcDbEntity
  8
03__ASM_ALL_CURVES
100
AcDbLine
 62
40
  6
CONTINUOUS
 10
5.3684057866
 20
2.6005806201
 11
5.3533190678
 21
2.5804649954
  0
LINE
  5
3AC
100
AcDbEntity
  8
03__ASM_ALL_CURVES
100
AcDbLine
 62
40
  6
CONTINUOUS
 10
5.6060216071
 20
2.835933435
 11
5.5984782477
 21
2.8258756177
  0
LINE
  5
3AD
100
AcDbEntity
  8
03__ASM_ALL_CURVES
100
AcDbLine
 62
40
  6
CONTINUOUS
 10
5.4890995366
 20
2.650869685
 11
5.4815561772
 21
2.6408118677
  0
LINE
  5
3AE
100
AcDbEntity
  8
03__ASM_ALL_CURVES
100
AcDbLine
 62
40
  6
CONTINUOUS
 10
7.9158873636
 20
5.8698235167
 11
7.9058295511
 21
5.8564130997
  0
LINE
  5
3AF
100
AcDbEntity
  8
0
100
AcDbLine
 62
7
  6
CONTINUOUS
 10
4.7561320601
 20
4.9140739997
 11
3.885592495
 21
4.9140739997
  0
LINE
  5
3B0
100
AcDbEntity
  8
0
100
AcDbLine
 62
7
  6
CONTINUOUS
 10
4.7561320601
 20
4.960860024
 11
3.885592495
 21
4.960860024
  0
LINE
  5
3B1
100
AcDbEntity
  8
03__ASM_ALL_CURVES
100
AcDbLine
 62
40
  6
CONTINUOUS
 10
3.6783448638
 20
5.9100547643
 11
3.6481714263
 21
5.9234651826
  0
LINE
  5
3B2
100
AcDbEntity
  8
03__ASM_ALL_CURVES
100
AcDbLine
 62
40
  6
CONTINUOUS
 10
4.1611198638
 20
5.9100547643
 11
4.1309464263
 21
5.9234651826
  0
LINE
  5
3B3
100
AcDbEntity
  8
03__ASM_ALL_CURVES
100
AcDbLine
 62
40
  6
CONTINUOUS
 10
4.3220448638
 20
6.0039276826
 11
4.3421604888
 21
5.9905172691
  0
LINE
  5
3B4
100
AcDbEntity
  8
03__ASM_ALL_CURVES
100
AcDbLine
 62
40
  6
CONTINUOUS
 10
4.6338370513
 20
5.8430026826
 11
4.6137214263
 21
5.8564130997
  0
LINE
  5
3B5
100
AcDbEntity
  8
03__ASM_ALL_CURVES
100
AcDbLine
 62
40
  6
CONTINUOUS
 10
4.6338370513
 20
5.9368755961
 11
4.6137214263
 21
5.9502860191
  0
LINE
  5
3B6
100
AcDbEntity
  8
03__ASM_ALL_CURVES
100
AcDbLine
 62
40
  6
CONTINUOUS
 10
4.6539526763
 20
5.9368755961
 11
4.6740683013
 21
5.9234651826
  0
LINE
  5
3B7
100
AcDbEntity
  8
03__ASM_ALL_CURVES
100
AcDbLine
 62
40
  6
CONTINUOUS
 10
4.6539526763
 20
6.0039276826
 11
4.6740683013
 21
5.9905172691
  0
LINE
  5
3B8
100
AcDbEntity
  8
03__ASM_ALL_CURVES
100
AcDbLine
 62
40
  6
CONTINUOUS
 10
7.6565561623
 20
2.8661068725
 11
7.671642881
 21
2.8459912451
  0
LINE
  5
3B9
100
AcDbEntity
  8
03__ASM_ALL_CURVES
100
AcDbLine
 62
40
  6
CONTINUOUS
 10
7.7772499123
 20
2.8661068725
 11
7.7847932717
 21
2.8560490552
  0
LINE
  5
3BA
100
AcDbEntity
  8
03__ASM_ALL_CURVES
100
AcDbLine
 62
40
  6
CONTINUOUS
 10
8.0374958076
 20
2.5804649954
 11
8.0224090889
 21
2.6005806201
  0
LINE
  5
3BB
100
AcDbEntity
  8
03__ASM_ALL_CURVES
100
AcDbLine
 62
40
  6
CONTINUOUS
 10
7.5848942451
 20
2.6106384338
 11
7.6075243233
 21
2.5704071826
  0
LINE
  5
3BC
100
AcDbEntity
  8
THREAD
100
AcDbLine
 62
7
  6
CONTINUOUS
 10
6.8501198638
 20
3.5346646826
 11
6.8501198638
 21
5.4176646826
  0
LINE
  5
3BD
100
AcDbEntity
  8
03__ASM_ALL_CURVES
100
AcDbLine
 62
40
  6
CONTINUOUS
 10
8.1472170511
 20
5.9636964326
 11
8.1673326761
 21
5.9905172691
  0
LINE
  5
3BE
100
AcDbEntity
  8
03__ASM_ALL_CURVES
100
AcDbLine
 62
40
  6
CONTINUOUS
 10
5.8474091071
 20
2.8459912451
 11
5.8398657477
 21
2.835933435
  0
LINE
  5
3BF
100
AcDbEntity
  8
03__ASM_ALL_CURVES
100
AcDbLine
 62
40
  6
CONTINUOUS
 10
5.8549524665
 20
2.7856443701
 11
5.8398657477
 21
2.7655287454
  0
LINE
  5
3C0
100
AcDbEntity
  8
03__ASM_ALL_CURVES
100
AcDbLine
 62
40
  6
CONTINUOUS
 10
8.2477951761
 20
5.8832339326
 11
8.2276795511
 21
5.8564130997
  0
LINE
  5
3C1
100
AcDbEntity
  8
03__ASM_ALL_CURVES
100
AcDbLine
 62
40
  6
CONTINUOUS
 10
5.3570907477
 20
2.8258756177
 11
5.342004029
 21
2.8158178076
  0
LINE
  5
3C2
100
AcDbEntity
  8
03__ASM_ALL_CURVES
100
AcDbLine
 62
40
  6
CONTINUOUS
 10
5.4325243415
 20
2.8661068725
 11
5.4476110602
 21
2.8761646826
  0
LINE
  5
3C3
100
AcDbEntity
  8
03__ASM_ALL_CURVES
100
AcDbLine
 62
40
  6
CONTINUOUS
 10
5.4777844977
 20
2.7655287454
 11
5.462697779
 21
2.7554709326
  0
LINE
  5
3C4
100
AcDbEntity
  8
0
100
AcDbLine
 62
7
  6
CONTINUOUS
 10
8.1916198638
 20
5.1941646826
 11
8.1596198638
 21
5.1941646826
  0
LINE
  5
3C5
100
AcDbEntity
  8
0
100
AcDbLine
 62
7
  6
CONTINUOUS
 10
7.8476198638
 20
5.1941646826
 11
7.0676198638
 21
5.1941646826
  0
LINE
  5
3C6
100
AcDbEntity
  8
0
100
AcDbLine
 62
7
  6
CONTINUOUS
 10
8.5286198638
 20
5.1996646826
 11
8.4886198638
 21
5.1996646826
  0
LINE
  5
3C7
100
AcDbEntity
  8
0
100
AcDbLine
 62
7
  6
CONTINUOUS
 10
3.8186198638
 20
5.2571646826
 11
3.0676198638
 21
5.2571646826
  0
LINE
  5
3C8
100
AcDbEntity
  8
0
100
AcDbLine
 62
7
  6
CONTINUOUS
 10
8.1916198638
 20
5.2871646826
 11
8.2856198638
 21
5.2871646826
  0
LINE
  5
3C9
100
AcDbEntity
  8
0
100
AcDbLine
 62
7
  6
CONTINUOUS
 10
8.5286198638
 20
5.2871646826
 11
8.5986198638
 21
5.2871646826
  0
LINE
  5
3CA
100
AcDbEntity
  8
0
100
AcDbLine
 62
7
  6
CONTINUOUS
 10
8.2856198638
 20
5.2876646826
 11
8.3356198638
 21
5.2876646826
  0
LINE
  5
3CB
100
AcDbEntity
  8
0
100
AcDbLine
 62
7
  6
CONTINUOUS
 10
8.4386198638
 20
5.2876646826
 11
8.4886198638
 21
5.2876646826
  0
LINE
  5
3CC
100
AcDbEntity
  8
THREAD
100
AcDbLine
 62
7
  6
CONTINUOUS
 10
7.0546198638
 20
5.3201646826
 11
6.9476198638
 21
5.3201646826
  0
LINE
  5
3CD
100
AcDbEntity
  8
0
100
AcDbLine
 62
7
  6
CONTINUOUS
 10
5.9374718061
 20
5.3821646826
 11
5.6456198638
 21
5.3821646826
  0
LINE
  5
3CE
100
AcDbEntity
  8
0
100
AcDbLine
 62
7
  6
CONTINUOUS
 10
5.5836198638
 20
5.3821646826
 11
5.389922622
 21
5.3821646826
  0
LINE
  5
3CF
100
AcDbEntity
  8
03__ASM_ALL_CURVES
100
AcDbLine
 62
40
  6
CONTINUOUS
 10
2.3857298638
 20
5.7571760159
 11
2.1926198638
 21
5.7786326826
  0
LINE
  5
3D0
100
AcDbEntity
  8
03__ASM_ALL_CURVES
100
AcDbLine
 62
40
  6
CONTINUOUS
 10
2.3857298638
 20
5.7518118493
 11
2.1926198638
 21
5.7786326826
  0
LINE
  5
3D1
100
AcDbEntity
  8
03__ASM_ALL_CURVES
100
AcDbLine
 62
40
  6
CONTINUOUS
 10
2.3857298638
 20
5.7464476826
 11
2.1926198638
 21
5.7786326826
  0
LINE
  5
3D2
100
AcDbEntity
  8
03__ASM_ALL_CURVES
100
AcDbLine
 62
40
  6
CONTINUOUS
 10
4.3220448638
 20
5.9100547643
 11
4.2918714263
 21
5.9234651826
  0
LINE
  5
3D3
100
AcDbEntity
  8
03__ASM_ALL_CURVES
100
AcDbLine
 62
40
  6
CONTINUOUS
 10
4.8148776763
 20
6.0039276826
 11
4.8349933013
 21
5.9905172691
  0
LINE
  5
3D4
100
AcDbEntity
  8
03__ASM_ALL_CURVES
100
AcDbLine
 62
40
  6
CONTINUOUS
 10
8.0827559639
 20
2.6810431225
 11
8.0902993233
 21
2.6709853052
  0
LINE
  5
3D5
100
AcDbEntity
  8
03__ASM_ALL_CURVES
100
AcDbLine
 62
40
  6
CONTINUOUS
 10
8.0186374123
 20
2.8661068725
 11
8.0261807717
 21
2.8560490552
  0
LINE
  5
3D6
100
AcDbEntity
  8
THREAD
100
AcDbLine
 62
7
  6
CONTINUOUS
 10
6.9476198638
 20
3.6321646826
 11
6.9476198638
 21
5.3201646826
  0
LINE
  5
3D7
100
AcDbEntity
  8
0
100
AcDbLine
 62
7
  6
CONTINUOUS
 10
7.0546198638
 20
3.6321646826
 11
7.0546198638
 21
5.3201646826
  0
LINE
  5
3D8
100
AcDbEntity
  8
0
100
AcDbLine
 62
7
  6
CONTINUOUS
 10
7.0676198638
 20
3.6451646826
 11
7.0676198638
 21
5.3071646826
  0
LINE
  5
3D9
100
AcDbEntity
  8
03__ASM_ALL_CURVES
100
AcDbLine
 62
40
  6
CONTINUOUS
 10
7.0710311136
 20
6.0039276826
 11
7.0710311136
 21
5.8430026826
  0
LINE
  5
3DA
100
AcDbEntity
  8
03__ASM_ALL_CURVES
100
AcDbLine
 62
40
  6
CONTINUOUS
 10
7.4934592386
 20
5.9234651826
 11
7.5035170511
 21
5.9636964326
  0
LINE
  5
3DB
100
AcDbEntity
  8
03__ASM_ALL_CURVES
100
AcDbLine
 62
40
  6
CONTINUOUS
 10
8.3986623636
 20
5.8698235167
 11
8.3886045511
 21
5.8564130997
  0
LINE
  5
3DC
100
AcDbEntity
  8
THREAD
100
AcDbLine
 62
7
  6
CONTINUOUS
 10
6.9476198638
 20
3.6321646826
 11
6.8501198638
 21
3.5346646826
  0
LINE
  5
3DD
100
AcDbEntity
  8
0
100
AcDbLine
 62
7
  6
CONTINUOUS
 10
7.0676198638
 20
3.6451646826
 11
7.0546198638
 21
3.6321646826
  0
LINE
  5
3DE
100
AcDbEntity
  8
03__ASM_ALL_CURVES
100
AcDbLine
 62
40
  6
CONTINUOUS
 10
5.5984782477
 20
2.8258756177
 11
5.583391529
 21
2.8158178076
  0
LINE
  5
3DF
100
AcDbEntity
  8
03__ASM_ALL_CURVES
100
AcDbLine
 62
40
  6
CONTINUOUS
 10
5.3533190678
 20
2.5804649954
 11
5.3382323491
 21
2.5704071826
  0
LINE
  5
3E0
100
AcDbEntity
  8
03__ASM_ALL_CURVES
100
AcDbLine
 62
40
  6
CONTINUOUS
 10
5.7946055915
 20
2.8661068725
 11
5.8096923102
 21
2.8761646826
  0
LINE
  5
3E1
100
AcDbEntity
  8
03__ASM_ALL_CURVES
100
AcDbLine
 62
40
  6
CONTINUOUS
 10
5.4815561772
 20
2.6408118677
 11
5.4664694584
 21
2.6307540576
  0
LINE
  5
3E2
100
AcDbEntity
  8
03__ASM_ALL_CURVES
100
AcDbLine
 62
40
  6
CONTINUOUS
 10
5.8398657477
 20
2.835933435
 11
5.824779029
 21
2.8258756177
  0
LINE
  5
3E3
100
AcDbEntity
  8
03__ASM_ALL_CURVES
100
AcDbLine
 62
40
  6
CONTINUOUS
 10
5.8398657477
 20
2.7655287454
 11
5.824779029
 21
2.7554709326
  0
LINE
  5
3E4
100
AcDbEntity
  8
0
100
AcDbLine
 62
7
  6
CONTINUOUS
 10
4.7561320601
 20
5.3987693411
 11
3.885592495
 21
5.3987693411
  0
LINE
  5
3E5
100
AcDbEntity
  8
0
100
AcDbLine
 62
7
  6
CONTINUOUS
 10
4.7561320601
 20
5.3991646826
 11
3.885592495
 21
5.3991646826
  0
LINE
  5
3E6
100
AcDbEntity
  8
THREAD
100
AcDbLine
 62
7
  6
CONTINUOUS
 10
6.8501198638
 20
5.4176646826
 11
6.3806420778
 21
5.4176646826
  0
LINE
  5
3E7
100
AcDbEntity
  8
0
100
AcDbLine
 62
7
  6
CONTINUOUS
 10
5.2416198638
 20
5.4176646826
 11
5.2206198638
 21
5.4176646826
  0
LINE
  5
3E8
100
AcDbEntity
  8
THREAD
100
AcDbLine
 62
7
  6
CONTINUOUS
 10
6.1766198638
 20
5.4296646826
 11
6.1296198638
 21
5.4296646826
  0
LINE
  5
3E9
100
AcDbEntity
  8
0
100
AcDbLine
 62
7
  6
CONTINUOUS
 10
6.2796198638
 20
5.4301646826
 11
6.3296198638
 21
5.4301646826
  0
LINE
  5
3EA
100
AcDbEntity
  8
0
100
AcDbLine
 62
7
  6
CONTINUOUS
 10
6.1296198638
 20
5.5036646826
 11
6.0076198638
 21
5.5036646826
  0
LINE
  5
3EB
100
AcDbEntity
  8
0
100
AcDbLine
 62
7
  6
CONTINUOUS
 10
5.3186198638
 20
5.5056646826
 11
5.2416198638
 21
5.5056646826
  0
LINE
  5
3EC
100
AcDbEntity
  8
0
100
AcDbLine
 62
7
  6
CONTINUOUS
 10
4.8176198638
 20
5.5056646826
 11
5.1176198638
 21
5.5056646826
  0
LINE
  5
3ED
100
AcDbEntity
  8
03__ASM_ALL_CURVES
100
AcDbLine
 62
40
  6
CONTINUOUS
 10
2.3857298638
 20
5.7679043493
 11
2.1926198638
 21
5.7786326826
  0
LINE
  5
3EE
100
AcDbEntity
  8
03__ASM_ALL_CURVES
100
AcDbLine
 62
40
  6
CONTINUOUS
 10
2.3857298638
 20
5.7625401826
 11
2.1926198638
 21
5.7786326826
  0
LINE
  5
3EF
100
AcDbEntity
  8
03__ASM_ALL_CURVES
100
AcDbLine
 62
40
  6
CONTINUOUS
 10
7.9092586983
 20
2.6911009326
 11
7.9696055733
 21
2.5704071826
  0
LINE
  5
3F0
100
AcDbEntity
  8
03__ASM_ALL_CURVES
100
AcDbLine
 62
40
  6
CONTINUOUS
 10
7.7621631935
 20
2.8158178076
 11
7.7847932717
 21
2.7554709326
  0
LINE
  5
3F1
100
AcDbEntity
  8
03__ASM_ALL_CURVES
100
AcDbLine
 62
40
  6
CONTINUOUS
 10
6.5379670511
 20
5.8832339326
 11
6.5279092386
 21
5.9234651826
  0
LINE
  5
3F2
100
AcDbEntity
  8
03__ASM_ALL_CURVES
100
AcDbLine
 62
40
  6
CONTINUOUS
 10
6.6385451761
 20
5.9636964326
 11
6.6486029886
 21
5.9234651826
  0
LINE
  5
3F3
100
AcDbEntity
  8
03__ASM_ALL_CURVES
100
AcDbLine
 62
40
  6
CONTINUOUS
 10
6.6988920511
 20
5.8832339326
 11
6.6888342386
 21
5.9234651826
  0
LINE
  5
3F4
100
AcDbEntity
  8
03__ASM_ALL_CURVES
100
AcDbLine
 62
40
  6
CONTINUOUS
 10
7.5396340889
 20
2.6005806201
 11
7.5320907295
 21
2.6307540576
  0
LINE
  5
3F5
100
AcDbEntity
  8
03__ASM_ALL_CURVES
100
AcDbLine
 62
40
  6
CONTINUOUS
 10
7.6150676826
 20
2.6609274951
 11
7.622611042
 21
2.6307540576
  0
LINE
  5
3F6
100
AcDbEntity
  8
03__ASM_ALL_CURVES
100
AcDbLine
 62
40
  6
CONTINUOUS
 10
7.2319561136
 20
6.0039276826
 11
7.2319561136
 21
5.8430026826
  0
LINE
  5
3F7
100
AcDbEntity
  8
03__ASM_ALL_CURVES
100
AcDbLine
 62
40
  6
CONTINUOUS
 10
7.3057899483
 20
2.6709853052
 11
7.3057899483
 21
2.6609274951
  0
LINE
  5
3F8
100
AcDbEntity
  8
03__ASM_ALL_CURVES
100
AcDbLine
 62
40
  6
CONTINUOUS
 10
7.3526498636
 20
5.8430026826
 11
7.3526498636
 21
6.0039276826
  0
LINE
  5
3F9
100
AcDbEntity
  8
03__ASM_ALL_CURVES
100
AcDbLine
 62
40
  6
CONTINUOUS
 10
7.3661368233
 20
2.6106384338
 11
7.3661368233
 21
2.5905228082
  0
LINE
  5
3FA
100
AcDbEntity
  8
03__ASM_ALL_CURVES
100
AcDbLine
 62
40
  6
CONTINUOUS
 10
7.4264836983
 20
2.5704071826
 11
7.4264836983
 21
2.6911009326
  0
LINE
  5
3FB
100
AcDbEntity
  8
03__ASM_ALL_CURVES
100
AcDbLine
 62
40
  6
CONTINUOUS
 10
7.4331123636
 20
5.8430026826
 11
7.4331123636
 21
6.0039276826
  0
LINE
  5
3FC
100
AcDbEntity
  8
03__ASM_ALL_CURVES
100
AcDbLine
 62
40
  6
CONTINUOUS
 10
8.7205123636
 20
5.8832339326
 11
8.7003967386
 21
5.8564130997
  0
LINE
  5
3FD
100
AcDbEntity
  8
03__ASM_ALL_CURVES
100
AcDbLine
 62
40
  6
CONTINUOUS
 10
9.0423623636
 20
5.9502860191
 11
9.0323045511
 21
5.9368755961
  0
LINE
  5
3FE
100
AcDbEntity
  8
03__ASM_ALL_CURVES
100
AcDbLine
 62
40
  6
CONTINUOUS
 10
8.9424233793
 20
4.5787543677
 11
8.9273366605
 21
4.5686965576
  0
LINE
  5
3FF
100
AcDbEntity
  8
03__ASM_ALL_CURVES
100
AcDbLine
 62
40
  6
CONTINUOUS
 10
9.017856973
 20
4.6189856225
 11
9.0329436918
 21
4.6290434326
  0
LINE
  5
400
100
AcDbEntity
  8
03__ASM_ALL_CURVES
100
AcDbLine
 62
40
  6
CONTINUOUS
 10
9.0631171293
 20
4.5184074954
 11
9.0480304105
 21
4.5083496826
  0
LINE
  5
401
100
AcDbEntity
  8
03__ASM_ALL_CURVES
100
AcDbLine
 62
40
  6
CONTINUOUS
 10
9.1838108793
 20
4.5787543677
 11
9.1687241605
 21
4.5686965576
  0
LINE
  5
402
100
AcDbEntity
  8
03__ASM_ALL_CURVES
100
AcDbLine
 62
40
  6
CONTINUOUS
 10
5.9365098638
 20
5.7464476826
 11
6.3227298638
 21
5.8108176826
  0
LINE
  5
403
100
AcDbEntity
  8
03__ASM_ALL_CURVES
100
AcDbLine
 62
40
  6
CONTINUOUS
 10
5.9365098638
 20
5.7518118493
 11
6.3227298638
 21
5.8054535159
  0
LINE
  5
404
100
AcDbEntity
  8
03__ASM_ALL_CURVES
100
AcDbLine
 62
40
  6
CONTINUOUS
 10
5.9365098638
 20
5.7571760159
 11
6.3227298638
 21
5.8000893493
  0
LINE
  5
405
100
AcDbEntity
  8
03__ASM_ALL_CURVES
100
AcDbLine
 62
40
  6
CONTINUOUS
 10
5.9365098638
 20
5.7625401826
 11
6.3227298638
 21
5.7947251826
  0
LINE
  5
406
100
AcDbEntity
  8
03__ASM_ALL_CURVES
100
AcDbLine
 62
40
  6
CONTINUOUS
 10
5.9365098638
 20
5.7679043493
 11
6.3227298638
 21
5.7893610159
  0
LINE
  5
407
100
AcDbEntity
  8
03__ASM_ALL_CURVES
100
AcDbLine
 62
40
  6
CONTINUOUS
 10
5.9365098638
 20
5.7732685159
 11
6.3227298638
 21
5.7839968493
  0
LINE
  5
408
100
AcDbEntity
  8
03__ASM_ALL_CURVES
100
AcDbLine
 62
40
  6
CONTINUOUS
 10
2.3857298638
 20
5.7839968493
 11
2.1926198638
 21
5.7786326826
  0
LINE
  5
409
100
AcDbEntity
  8
03__ASM_ALL_CURVES
100
AcDbLine
 62
40
  6
CONTINUOUS
 10
2.1926198638
 20
5.7786326826
 11
9.2193798638
 21
5.7786326826
  0
LINE
  5
40A
100
AcDbEntity
  8
03__ASM_ALL_CURVES
100
AcDbLine
 62
40
  6
CONTINUOUS
 10
8.8814373636
 20
5.8430026826
 11
8.8009748636
 21
5.8430026826
  0
LINE
  5
40B
100
AcDbEntity
  8
03__ASM_ALL_CURVES
100
AcDbLine
 62
40
  6
CONTINUOUS
 10
8.6802811136
 20
5.8430026826
 11
8.6400498636
 21
5.8430026826
  0
LINE
  5
40C
100
AcDbEntity
  8
03__ASM_ALL_CURVES
100
AcDbLine
 62
40
  6
CONTINUOUS
 10
8.3684889261
 20
5.8430026826
 11
8.3483733011
 21
5.8430026826
  0
LINE
  5
40D
100
AcDbEntity
  8
03__ASM_ALL_CURVES
100
AcDbLine
 62
40
  6
CONTINUOUS
 10
8.2075639261
 20
5.8430026826
 11
8.1874483011
 21
5.8430026826
  0
LINE
  5
40E
100
AcDbEntity
  8
03__ASM_ALL_CURVES
100
AcDbLine
 62
40
  6
CONTINUOUS
 10
7.8857139261
 20
5.8430026826
 11
7.8655983011
 21
5.8430026826
  0
LINE
  5
40F
100
AcDbEntity
  8
03__ASM_ALL_CURVES
100
AcDbLine
 62
40
  6
CONTINUOUS
 10
7.5638639261
 20
5.8430026826
 11
7.5437483011
 21
5.8430026826
  0
LINE
  5
410
100
AcDbEntity
  8
03__ASM_ALL_CURVES
100
AcDbLine
 62
40
  6
CONTINUOUS
 10
6.7592389261
 20
5.8430026826
 11
6.7391233011
 21
5.8430026826
  0
LINE
  5
411
100
AcDbEntity
  8
03__ASM_ALL_CURVES
100
AcDbLine
 62
40
  6
CONTINUOUS
 10
6.5983139261
 20
5.8430026826
 11
6.5781983011
 21
5.8430026826
  0
LINE
  5
412
100
AcDbEntity
  8
03__ASM_ALL_CURVES
100
AcDbLine
 62
40
  6
CONTINUOUS
 10
4.6539526763
 20
5.8430026826
 11
4.6338370513
 21
5.8430026826
  0
LINE
  5
413
100
AcDbEntity
  8
03__ASM_ALL_CURVES
100
AcDbLine
 62
40
  6
CONTINUOUS
 10
4.4829698638
 20
5.8430026826
 11
4.4729120513
 21
5.8430026826
  0
LINE
  5
414
100
AcDbEntity
  8
03__ASM_ALL_CURVES
100
AcDbLine
 62
40
  6
CONTINUOUS
 10
3.8493276763
 20
5.8430026826
 11
3.8292120513
 21
5.8430026826
  0
LINE
  5
415
100
AcDbEntity
  8
03__ASM_ALL_CURVES
100
AcDbLine
 62
40
  6
CONTINUOUS
 10
3.5174198638
 20
5.8430026826
 11
3.5073620513
 21
5.8430026826
  0
LINE
  5
416
100
AcDbEntity
  8
03__ASM_ALL_CURVES
100
AcDbLine
 62
40
  6
CONTINUOUS
 10
3.3665526763
 20
5.8430026826
 11
3.3464370513
 21
5.8430026826
  0
LINE
  5
417
100
AcDbEntity
  8
03__ASM_ALL_CURVES
100
AcDbLine
 62
40
  6
CONTINUOUS
 10
4.7645886138
 20
5.8430026826
 11
4.8450511138
 21
5.8430026826
  0
LINE
  5
418
100
AcDbEntity
  8
03__ASM_ALL_CURVES
100
AcDbLine
 62
40
  6
CONTINUOUS
 10
6.3870998636
 20
5.8430026826
 11
6.4675623636
 21
5.8430026826
  0
LINE
  5
419
100
AcDbEntity
  8
03__ASM_ALL_CURVES
100
AcDbLine
 62
40
  6
CONTINUOUS
 10
8.4791248636
 20
5.8430026826
 11
8.5595873636
 21
5.8430026826
  0
LINE
  5
41A
100
AcDbEntity
  8
03__ASM_ALL_CURVES
100
AcDbLine
 62
40
  6
CONTINUOUS
 10
6.8799326761
 20
5.8966443509
 11
6.9402795511
 21
5.8966443509
  0
LINE
  5
41B
100
AcDbEntity
  8
03__ASM_ALL_CURVES
100
AcDbLine
 62
40
  6
CONTINUOUS
 10
2.3857298638
 20
5.7732685159
 11
2.1926198638
 21
5.7786326826
  0
LINE
  5
41C
100
AcDbEntity
  8
03__ASM_ALL_CURVES
100
AcDbLine
 62
40
  6
CONTINUOUS
 10
5.9365098638
 20
5.7839968493
 11
6.3227298638
 21
5.7732685159
  0
LINE
  5
41D
100
AcDbEntity
  8
03__ASM_ALL_CURVES
100
AcDbLine
 62
40
  6
CONTINUOUS
 10
5.9365098638
 20
5.7893610159
 11
6.3227298638
 21
5.7679043493
  0
LINE
  5
41E
100
AcDbEntity
  8
03__ASM_ALL_CURVES
100
AcDbLine
 62
40
  6
CONTINUOUS
 10
5.9365098638
 20
5.7947251826
 11
6.3227298638
 21
5.7625401826
  0
LINE
  5
41F
100
AcDbEntity
  8
03__ASM_ALL_CURVES
100
AcDbLine
 62
40
  6
CONTINUOUS
 10
5.9365098638
 20
5.8000893493
 11
6.3227298638
 21
5.7571760159
  0
LINE
  5
420
100
AcDbEntity
  8
03__ASM_ALL_CURVES
100
AcDbLine
 62
40
  6
CONTINUOUS
 10
5.9365098638
 20
5.8054535159
 11
6.3227298638
 21
5.7518118493
  0
LINE
  5
421
100
AcDbEntity
  8
03__ASM_ALL_CURVES
100
AcDbLine
 62
40
  6
CONTINUOUS
 10
6.3227298638
 20
5.7464476826
 11
5.9365098638
 21
5.8108176826
  0
LINE
  5
422
100
AcDbEntity
  8
THREAD
100
AcDbLine
 62
7
  6
CONTINUOUS
 10
6.9476198638
 20
5.3201646826
 11
6.8501198638
 21
5.4176646826
  0
LINE
  5
423
100
AcDbEntity
  8
0
100
AcDbLine
 62
7
  6
CONTINUOUS
 10
7.0676198638
 20
5.3071646826
 11
7.0546198638
 21
5.3201646826
  0
LINE
  5
424
100
AcDbEntity
  8
03__ASM_ALL_CURVES
100
AcDbLine
 62
40
  6
CONTINUOUS
 10
6.5580826761
 20
5.8564130997
 11
6.5379670511
 21
5.8832339326
  0
LINE
  5
425
100
AcDbEntity
  8
03__ASM_ALL_CURVES
100
AcDbLine
 62
40
  6
CONTINUOUS
 10
6.9101061136
 20
6.0039276826
 11
6.9603951761
 21
5.8430026826
  0
LINE
  5
426
100
AcDbEntity
  8
03__ASM_ALL_CURVES
100
AcDbLine
 62
40
  6
CONTINUOUS
 10
7.5962092873
 20
2.7856443701
 11
7.5886659279
 21
2.8158178076
  0
LINE
  5
427
100
AcDbEntity
  8
03__ASM_ALL_CURVES
100
AcDbLine
 62
40
  6
CONTINUOUS
 10
7.671642881
 20
2.8459912451
 11
7.6791862404
 21
2.8158178076
  0
LINE
  5
428
100
AcDbEntity
  8
03__ASM_ALL_CURVES
100
AcDbLine
 62
40
  6
CONTINUOUS
 10
7.4830588967
 20
2.7554709326
 11
7.4830588967
 21
2.8761646826
  0
LINE
  5
429
100
AcDbEntity
  8
03__ASM_ALL_CURVES
100
AcDbLine
 62
40
  6
CONTINUOUS
 10
7.5434057717
 20
2.8560490552
 11
7.5434057717
 21
2.835933435
  0
LINE
  5
42A
100
AcDbEntity
  8
03__ASM_ALL_CURVES
100
AcDbLine
 62
40
  6
CONTINUOUS
 10
7.5940373636
 20
5.9234651826
 11
7.5940373636
 21
5.8698235167
  0
LINE
  5
42B
100
AcDbEntity
  8
03__ASM_ALL_CURVES
100
AcDbLine
 62
40
  6
CONTINUOUS
 10
7.6678711983
 20
2.5905228082
 11
7.6678711983
 21
2.6911009326
  0
LINE
  5
42C
100
AcDbEntity
  8
03__ASM_ALL_CURVES
100
AcDbLine
 62
40
  6
CONTINUOUS
 10
8.1371592386
 20
5.9234651826
 11
8.1472170511
 21
5.9636964326
  0
LINE
  5
42D
100
AcDbEntity
  8
03__ASM_ALL_CURVES
100
AcDbLine
 62
40
  6
CONTINUOUS
 10
2.3857298638
 20
5.8000893493
 11
2.1926198638
 21
5.7786326826
  0
LINE
  5
42E
100
AcDbEntity
  8
03__ASM_ALL_CURVES
100
AcDbLine
 62
40
  6
CONTINUOUS
 10
2.3857298638
 20
5.7947251826
 11
2.1926198638
 21
5.7786326826
  0
LINE
  5
42F
100
AcDbEntity
  8
03__ASM_ALL_CURVES
100
AcDbLine
 62
40
  6
CONTINUOUS
 10
2.3857298638
 20
5.7893610159
 11
2.1926198638
 21
5.7786326826
  0
LINE
  5
430
100
AcDbEntity
  8
03__ASM_ALL_CURVES
100
AcDbLine
 62
40
  6
CONTINUOUS
 10
9.0121889261
 20
5.9234651826
 11
8.9618998636
 21
5.9234651826
  0
LINE
  5
431
100
AcDbEntity
  8
03__ASM_ALL_CURVES
100
AcDbLine
 62
40
  6
CONTINUOUS
 10
7.5538061136
 20
5.9234651826
 11
7.5940373636
 21
5.9234651826
  0
LINE
  5
432
100
AcDbEntity
  8
03__ASM_ALL_CURVES
100
AcDbLine
 62
40
  6
CONTINUOUS
 10
7.9963498636
 20
5.9234651826
 11
8.0768123636
 21
5.9234651826
  0
LINE
  5
433
100
AcDbEntity
  8
03__ASM_ALL_CURVES
100
AcDbLine
 62
40
  6
CONTINUOUS
 10
8.8009748636
 20
5.9234651826
 11
8.8512639261
 21
5.9234651826
  0
LINE
  5
434
100
AcDbEntity
  8
03__ASM_ALL_CURVES
100
AcDbLine
 62
40
  6
CONTINUOUS
 10
3.3464370513
 20
5.9368755961
 11
3.3665526763
 21
5.9368755961
  0
LINE
  5
435
100
AcDbEntity
  8
03__ASM_ALL_CURVES
100
AcDbLine
 62
40
  6
CONTINUOUS
 10
3.8292120513
 20
5.9368755961
 11
3.8493276763
 21
5.9368755961
  0
LINE
  5
436
100
AcDbEntity
  8
03__ASM_ALL_CURVES
100
AcDbLine
 62
40
  6
CONTINUOUS
 10
4.6338370513
 20
5.9368755961
 11
4.6539526763
 21
5.9368755961
  0
LINE
  5
437
100
AcDbEntity
  8
03__ASM_ALL_CURVES
100
AcDbLine
 62
40
  6
CONTINUOUS
 10
7.8857139261
 20
6.0039276826
 11
7.8655983011
 21
6.0039276826
  0
LINE
  5
438
100
AcDbEntity
  8
03__ASM_ALL_CURVES
100
AcDbLine
 62
40
  6
CONTINUOUS
 10
3.3464370513
 20
6.0039276826
 11
3.3665526763
 21
6.0039276826
  0
LINE
  5
439
100
AcDbEntity
  8
03__ASM_ALL_CURVES
100
AcDbLine
 62
40
  6
CONTINUOUS
 10
3.8292120513
 20
6.0039276826
 11
3.8493276763
 21
6.0039276826
  0
LINE
  5
43A
100
AcDbEntity
  8
03__ASM_ALL_CURVES
100
AcDbLine
 62
40
  6
CONTINUOUS
 10
4.6338370513
 20
6.0039276826
 11
4.6539526763
 21
6.0039276826
  0
LINE
  5
43B
100
AcDbEntity
  8
03__ASM_ALL_CURVES
100
AcDbLine
 62
40
  6
CONTINUOUS
 10
4.7947620513
 20
6.0039276826
 11
4.8148776763
 21
6.0039276826
  0
LINE
  5
43C
100
AcDbEntity
  8
03__ASM_ALL_CURVES
100
AcDbLine
 62
40
  6
CONTINUOUS
 10
6.5781983011
 20
6.0039276826
 11
6.5983139261
 21
6.0039276826
  0
LINE
  5
43D
100
AcDbEntity
  8
03__ASM_ALL_CURVES
100
AcDbLine
 62
40
  6
CONTINUOUS
 10
6.7391233011
 20
6.0039276826
 11
6.7592389261
 21
6.0039276826
  0
LINE
  5
43E
100
AcDbEntity
  8
03__ASM_ALL_CURVES
100
AcDbLine
 62
40
  6
CONTINUOUS
 10
7.0207420511
 20
6.0039276826
 11
7.1213201761
 21
6.0039276826
  0
LINE
  5
43F
100
AcDbEntity
  8
03__ASM_ALL_CURVES
100
AcDbLine
 62
40
  6
CONTINUOUS
 10
7.5437483011
 20
6.0039276826
 11
7.5638639261
 21
6.0039276826
  0
LINE
  5
440
100
AcDbEntity
  8
03__ASM_ALL_CURVES
100
AcDbLine
 62
40
  6
CONTINUOUS
 10
8.1874483011
 20
6.0039276826
 11
8.2075639261
 21
6.0039276826
  0
LINE
  5
441
100
AcDbEntity
  8
03__ASM_ALL_CURVES
100
AcDbLine
 62
40
  6
CONTINUOUS
 10
8.6400498636
 20
6.0039276826
 11
8.6802811136
 21
6.0039276826
  0
LINE
  5
442
100
AcDbEntity
  8
03__ASM_ALL_CURVES
100
AcDbLine
 62
40
  6
CONTINUOUS
 10
8.8009748636
 20
6.0039276826
 11
8.8814373636
 21
6.0039276826
  0
LINE
  5
443
100
AcDbEntity
  8
03__ASM_ALL_CURVES
100
AcDbLine
 62
40
  6
CONTINUOUS
 10
8.9618998636
 20
6.0039276826
 11
9.0121889261
 21
6.0039276826
  0
LINE
  5
444
100
AcDbEntity
  8
03__ASM_ALL_CURVES
100
AcDbLine
 62
40
  6
CONTINUOUS
 10
6.5781983011
 20
5.8430026826
 11
6.5580826761
 21
5.8564130997
  0
LINE
  5
445
100
AcDbEntity
  8
03__ASM_ALL_CURVES
100
AcDbLine
 62
40
  6
CONTINUOUS
 10
6.7391233011
 20
5.8430026826
 11
6.7190076761
 21
5.8564130997
  0
LINE
  5
446
100
AcDbEntity
  8
03__ASM_ALL_CURVES
100
AcDbLine
 62
40
  6
CONTINUOUS
 10
6.5983139261
 20
6.0039276826
 11
6.6184295511
 21
5.9905172691
  0
LINE
  5
447
100
AcDbEntity
  8
03__ASM_ALL_CURVES
100
AcDbLine
 62
40
  6
CONTINUOUS
 10
6.7190076761
 20
5.8564130997
 11
6.6988920511
 21
5.8832339326
  0
LINE
  5
448
100
AcDbEntity
  8
03__ASM_ALL_CURVES
100
AcDbLine
 62
40
  6
CONTINUOUS
 10
6.6184295511
 20
5.9905172691
 11
6.6385451761
 21
5.9636964326
  0
LINE
  5
449
100
AcDbEntity
  8
03__ASM_ALL_CURVES
100
AcDbLine
 62
40
  6
CONTINUOUS
 10
6.7793545511
 20
5.9905172691
 11
6.7894123636
 21
5.9771068461
  0
LINE
  5
44A
100
AcDbEntity
  8
03__ASM_ALL_CURVES
100
AcDbLine
 62
40
  6
CONTINUOUS
 10
8.0224090889
 20
2.6005806201
 11
8.0148657295
 21
2.6307540576
  0
LINE
  5
44B
100
AcDbEntity
  8
03__ASM_ALL_CURVES
100
AcDbLine
 62
40
  6
CONTINUOUS
 10
7.7244463967
 20
2.7554709326
 11
7.7244463967
 21
2.8761646826
  0
LINE
  5
44C
100
AcDbEntity
  8
03__ASM_ALL_CURVES
100
AcDbLine
 62
40
  6
CONTINUOUS
 10
7.7282180733
 20
2.6911009326
 11
7.7282180733
 21
2.5905228082
  0
LINE
  5
44D
100
AcDbEntity
  8
03__ASM_ALL_CURVES
100
AcDbLine
 62
40
  6
CONTINUOUS
 10
7.7847932717
 20
2.8560490552
 11
7.7847932717
 21
2.835933435
  0
LINE
  5
44E
100
AcDbEntity
  8
03__ASM_ALL_CURVES
100
AcDbLine
 62
40
  6
CONTINUOUS
 10
7.7885649483
 20
2.5704071826
 11
7.7885649483
 21
2.6911009326
  0
LINE
  5
44F
100
AcDbEntity
  8
03__ASM_ALL_CURVES
100
AcDbLine
 62
40
  6
CONTINUOUS
 10
7.8354248636
 20
5.9771068461
 11
7.8354248636
 21
5.9636964326
  0
LINE
  5
450
100
AcDbEntity
  8
0
100
AcDbLine
 62
7
  6
CONTINUOUS
 10
7.8696198638
 20
4.3974588843
 11
7.8696198638
 21
4.5547812012
  0
LINE
  5
451
100
AcDbEntity
  8
03__ASM_ALL_CURVES
100
AcDbLine
 62
40
  6
CONTINUOUS
 10
7.8753135842
 20
2.8761646826
 11
7.8753135842
 21
2.7554709326
  0
LINE
  5
452
100
AcDbEntity
  8
0
100
AcDbLine
 62
7
  6
CONTINUOUS
 10
7.8766198638
 20
4.3862497496
 11
7.8766198638
 21
4.5661652917
  0
LINE
  5
453
100
AcDbEntity
  8
0
100
AcDbLine
 62
7
  6
CONTINUOUS
 10
7.8866198638
 20
4.373948005
 11
7.8866198638
 21
4.5783064861
  0
LINE
  5
454
100
AcDbEntity
  8
0
100
AcDbLine
 62
7
  6
CONTINUOUS
 10
7.8936198638
 20
4.3657073966
 11
7.8936198638
 21
4.5867614701
  0
LINE
  5
455
100
AcDbEntity
  8
03__ASM_ALL_CURVES
100
AcDbLine
 62
40
  6
CONTINUOUS
 10
7.9092586983
 20
2.5704071826
 11
7.9092586983
 21
2.6911009326
  0
LINE
  5
456
100
AcDbEntity
  8
03__ASM_ALL_CURVES
100
AcDbLine
 62
40
  6
CONTINUOUS
 10
7.9158873636
 20
5.8966443509
 11
7.9158873636
 21
5.8698235167
  0
LINE
  5
457
100
AcDbEntity
  8
0
100
AcDbLine
 62
7
  6
CONTINUOUS
 10
7.9316198638
 20
4.0388608177
 11
7.9316198638
 21
4.0753637868
  0
LINE
  5
458
100
AcDbEntity
  8
0
100
AcDbLine
 62
7
  6
CONTINUOUS
 10
7.9316198638
 20
4.3385890624
 11
7.9316198638
 21
4.6137080096
  0
LINE
  5
459
100
AcDbEntity
  8
0
100
AcDbLine
 62
7
  6
CONTINUOUS
 10
7.9316198638
 20
4.8769656869
 11
7.9316198638
 21
4.9134695419
  0
LINE
  5
45A
100
AcDbEntity
  8
0
100
AcDbLine
 62
7
  6
CONTINUOUS
 10
7.9386198638
 20
4.9153561812
 11
7.9386198638
 21
4.8738245053
  0
LINE
  5
45B
100
AcDbEntity
  8
0
100
AcDbLine
 62
7
  6
CONTINUOUS
 10
7.9386198638
 20
4.0369696119
 11
7.9386198638
 21
4.0785047306
  0
LINE
  5
45C
100
AcDbEntity
  8
0
100
AcDbLine
 62
7
  6
CONTINUOUS
 10
7.9386198638
 20
4.3347755619
 11
7.9386198638
 21
4.6174304127
  0
LINE
  5
45D
100
AcDbEntity
  8
0
100
AcDbLine
 62
7
  6
CONTINUOUS
 10
7.9486198638
 20
4.9174871604
 11
7.9486198638
 21
4.8708561357
  0
LINE
  5
45E
100
AcDbEntity
  8
0
100
AcDbLine
 62
7
  6
CONTINUOUS
 10
7.9486198638
 20
4.0348468841
 11
7.9486198638
 21
4.0814731795
  0
LINE
  5
45F
100
AcDbEntity
  8
0
100
AcDbLine
 62
7
  6
CONTINUOUS
 10
7.9486198638
 20
4.3307029491
 11
7.9486198638
 21
4.6217390161
  0
LINE
  5
460
100
AcDbEntity
  8
0
100
AcDbLine
 62
7
  6
CONTINUOUS
 10
7.9556198638
 20
4.0338114084
 11
7.9556198638
 21
4.0835510937
  0
LINE
  5
461
100
AcDbEntity
  8
0
100
AcDbLine
 62
7
  6
CONTINUOUS
 10
7.9556198638
 20
4.3285186892
 11
7.9556198638
 21
4.6238410416
  0
LINE
  5
462
100
AcDbEntity
  8
0
100
AcDbLine
 62
7
  6
CONTINUOUS
 10
7.9556198638
 20
4.868778277
 11
7.9556198638
 21
4.9185204331
  0
LINE
  5
463
100
AcDbEntity
  8
03__ASM_ALL_CURVES
100
AcDbLine
 62
40
  6
CONTINUOUS
 10
8.2578529886
 20
5.9234651826
 11
8.2477951761
 21
5.8832339326
  0
LINE
  5
464
100
AcDbEntity
  8
03__ASM_ALL_CURVES
100
AcDbLine
 62
40
  6
CONTINUOUS
 10
7.5320907295
 20
2.6307540576
 11
7.5396340889
 21
2.6609274951
  0
LINE
  5
465
100
AcDbEntity
  8
03__ASM_ALL_CURVES
100
AcDbLine
 62
40
  6
CONTINUOUS
 10
7.5886659279
 20
2.8158178076
 11
7.5962092873
 21
2.8459912451
  0
LINE
  5
466
100
AcDbEntity
  8
03__ASM_ALL_CURVES
100
AcDbLine
 62
40
  6
CONTINUOUS
 10
2.1926198638
 20
5.7786326826
 11
2.3857298638
 21
5.8108176826
  0
LINE
  5
467
100
AcDbEntity
  8
03__ASM_ALL_CURVES
100
AcDbLine
 62
40
  6
CONTINUOUS
 10
2.3857298638
 20
5.8054535159
 11
2.1926198638
 21
5.7786326826
  0
LINE
  5
468
100
AcDbEntity
  8
03__ASM_ALL_CURVES
100
AcDbLine
 62
40
  6
CONTINUOUS
 10
6.7592389261
 20
6.0039276826
 11
6.7793545511
 21
5.9905172691
  0
LINE
  5
469
100
AcDbEntity
  8
03__ASM_ALL_CURVES
100
AcDbLine
 62
40
  6
CONTINUOUS
 10
9.0329436918
 20
4.5083496826
 11
9.017856973
 21
4.5184074954
  0
LINE
  5
46A
100
AcDbEntity
  8
03__ASM_ALL_CURVES
100
AcDbLine
 62
40
  6
CONTINUOUS
 10
8.9273366605
 20
4.6290434326
 11
8.9424233793
 21
4.6189856225
  0
LINE
  5
46B
100
AcDbEntity
  8
03__ASM_ALL_CURVES
100
AcDbLine
 62
40
  6
CONTINUOUS
 10
9.0480304105
 20
4.6290434326
 11
9.0631171293
 21
4.6189856225
  0
LINE
  5
46C
100
AcDbEntity
  8
03__ASM_ALL_CURVES
100
AcDbLine
 62
40
  6
CONTINUOUS
 10
9.1687241605
 20
4.6290434326
 11
9.1838108793
 21
4.6189856225
  0
LINE
  5
46D
100
AcDbEntity
  8
03__ASM_ALL_CURVES
100
AcDbLine
 62
40
  6
CONTINUOUS
 10
7.3526498636
 20
6.0039276826
 11
7.4331123636
 21
5.8430026826
  0
LINE
  5
46E
100
AcDbEntity
  8
03__ASM_ALL_CURVES
100
AcDbLine
 62
40
  6
CONTINUOUS
 10
7.5035170511
 20
5.8832339326
 11
7.4934592386
 21
5.9234651826
  0
LINE
  5
46F
100
AcDbEntity
  8
03__ASM_ALL_CURVES
100
AcDbLine
 62
40
  6
CONTINUOUS
 10
7.9696055733
 20
2.5704071826
 11
7.9696055733
 21
2.6911009326
  0
LINE
  5
470
100
AcDbEntity
  8
0
100
AcDbLine
 62
7
  6
CONTINUOUS
 10
7.9936198638
 20
4.0302547337
 11
7.9936198638
 21
4.0899358104
  0
LINE
  5
471
100
AcDbEntity
  8
0
100
AcDbLine
 62
7
  6
CONTINUOUS
 10
7.9936198638
 20
4.3211251071
 11
7.9936198638
 21
4.6311495714
  0
LINE
  5
472
100
AcDbEntity
  8
0
100
AcDbLine
 62
7
  6
CONTINUOUS
 10
7.9936198638
 20
4.8623935231
 11
7.9936198638
 21
4.9220755599
  0
LINE
  5
473
100
AcDbEntity
  8
03__ASM_ALL_CURVES
100
AcDbLine
 62
40
  6
CONTINUOUS
 10
7.9963498636
 20
6.0039276826
 11
7.9963498636
 21
5.8430026826
  0
LINE
  5
474
100
AcDbEntity
  8
0
100
AcDbLine
 62
7
  6
CONTINUOUS
 10
8.0006198638
 20
4.9224045481
 11
8.0006198638
 21
4.8617193642
  0
LINE
  5
475
100
AcDbEntity
  8
0
100
AcDbLine
 62
7
  6
CONTINUOUS
 10
8.0006198638
 20
4.0299250957
 11
8.0006198638
 21
4.0906099915
  0
LINE
  5
476
100
AcDbEntity
  8
0
100
AcDbLine
 62
7
  6
CONTINUOUS
 10
8.0006198638
 20
4.3203890906
 11
8.0006198638
 21
4.6318111576
  0
LINE
  5
477
100
AcDbEntity
  8
0
100
AcDbLine
 62
7
  6
CONTINUOUS
 10
8.0106198638
 20
4.9222159263
 11
8.0106198638
 21
4.8621046172
  0
LINE
  5
478
100
AcDbEntity
  8
0
100
AcDbLine
 62
7
  6
CONTINUOUS
 10
8.0106198638
 20
4.0301128329
 11
8.0106198638
 21
4.0902247645
  0
LINE
  5
479
100
AcDbEntity
  8
0
100
AcDbLine
 62
7
  6
CONTINUOUS
 10
8.0106198638
 20
4.3209049944
 11
8.0106198638
 21
4.6315103837
  0
LINE
  5
47A
100
AcDbEntity
  8
0
100
AcDbLine
 62
7
  6
CONTINUOUS
 10
8.0176198638
 20
4.0304418435
 11
8.0176198638
 21
4.0895506028
  0
LINE
  5
47B
100
AcDbEntity
  8
0
100
AcDbLine
 62
7
  6
CONTINUOUS
 10
8.0176198638
 20
4.3215595572
 11
8.0176198638
 21
4.6307826117
  0
LINE
  5
47C
100
AcDbEntity
  8
0
100
AcDbLine
 62
7
  6
CONTINUOUS
 10
8.0176198638
 20
4.8627787955
 11
8.0176198638
 21
4.9218863095
  0
LINE
  5
47D
100
AcDbEntity
  8
03__ASM_ALL_CURVES
100
AcDbLine
 62
40
  6
CONTINUOUS
 10
8.0261807717
 20
2.8560490552
 11
8.0261807717
 21
2.835933435
  0
LINE
  5
47E
100
AcDbEntity
  8
0
100
AcDbLine
 62
7
  6
CONTINUOUS
 10
8.0556198638
 20
4.0343995077
 11
8.0556198638
 21
4.0823637342
  0
LINE
  5
47F
100
AcDbEntity
  8
0
100
AcDbLine
 62
7
  6
CONTINUOUS
 10
8.0556198638
 20
4.3296834688
 11
8.0556198638
 21
4.6225715387
  0
LINE
  5
480
100
AcDbEntity
  8
0
100
AcDbLine
 62
7
  6
CONTINUOUS
 10
8.0556198638
 20
4.8699656447
 11
8.0556198638
 21
4.9179263828
  0
LINE
  5
481
100
AcDbEntity
  8
0
100
AcDbLine
 62
7
  6
CONTINUOUS
 10
8.0626198638
 20
4.9168909808
 11
8.0626198638
 21
4.8720435507
  0
LINE
  5
482
100
AcDbEntity
  8
0
100
AcDbLine
 62
7
  6
CONTINUOUS
 10
8.0626198638
 20
4.035432858
 11
8.0626198638
 21
4.0802858674
  0
LINE
  5
483
100
AcDbEntity
  8
0
100
AcDbLine
 62
7
  6
CONTINUOUS
 10
8.0626198638
 20
4.3317789352
 11
8.0626198638
 21
4.6203972628
  0
LINE
  5
484
100
AcDbEntity
  8
0
100
AcDbLine
 62
7
  6
CONTINUOUS
 10
8.0726198638
 20
4.9142790372
 11
8.0726198638
 21
4.8753908526
  0
LINE
  5
485
100
AcDbEntity
  8
0
100
AcDbLine
 62
7
  6
CONTINUOUS
 10
8.0726198638
 20
4.0380512376
 11
8.0726198638
 21
4.0769384158
  0
LINE
  5
486
100
AcDbEntity
  8
0
100
AcDbLine
 62
7
  6
CONTINUOUS
 10
8.0726198638
 20
4.3370308044
 11
8.0726198638
 21
4.615364733
  0
LINE
  5
487
100
AcDbEntity
  8
03__ASM_ALL_CURVES
100
AcDbLine
 62
40
  6
CONTINUOUS
 10
8.0768123636
 20
6.0039276826
 11
8.0768123636
 21
5.8430026826
  0
LINE
  5
488
100
AcDbEntity
  8
0
100
AcDbLine
 62
7
  6
CONTINUOUS
 10
8.0796198638
 20
4.0399380443
 11
8.0796198638
 21
4.0732640663
  0
LINE
  5
489
100
AcDbEntity
  8
0
100
AcDbLine
 62
7
  6
CONTINUOUS
 10
8.0796198638
 20
4.3407466061
 11
8.0796198638
 21
4.6115626241
  0
LINE
  5
48A
100
AcDbEntity
  8
0
100
AcDbLine
 62
7
  6
CONTINUOUS
 10
8.0796198638
 20
4.8790652515
 11
8.0796198638
 21
4.9123879907
  0
LINE
  5
48B
100
AcDbEntity
  8
0
100
AcDbLine
 62
7
  6
CONTINUOUS
 10
8.1176198638
 20
4.3703888513
 11
8.1176198638
 21
4.5820563612
  0
LINE
  5
48C
100
AcDbEntity
  8
0
100
AcDbLine
 62
7
  6
CONTINUOUS
 10
8.1246198638
 20
4.3788796187
 11
8.1246198638
 21
4.5734585617
  0
LINE
  5
48D
100
AcDbEntity
  8
0
100
AcDbLine
 62
7
  6
CONTINUOUS
 10
8.1346198638
 20
4.391967892
 11
8.1346198638
 21
4.5605052321
  0
LINE
  5
48E
100
AcDbEntity
  8
0
100
AcDbLine
 62
7
  6
CONTINUOUS
 10
8.1416198638
 20
4.4050031359
 11
8.1416198638
 21
4.547332257
  0
LINE
  5
48F
100
AcDbEntity
  8
03__ASM_ALL_CURVES
100
AcDbLine
 62
40
  6
CONTINUOUS
 10
8.1506461983
 20
2.5704071826
 11
8.1506461983
 21
2.6911009326
  0
LINE
  5
490
100
AcDbEntity
  8
0
100
AcDbLine
 62
7
  6
CONTINUOUS
 10
8.1916198638
 20
5.28715518
 11
8.1916198638
 21
3.6651741852
  0
LINE
  5
491
100
AcDbEntity
  8
03__ASM_ALL_CURVES
100
AcDbLine
 62
40
  6
CONTINUOUS
 10
7.622611042
 20
2.6307540576
 11
7.6150676826
 21
2.6005806201
  0
LINE
  5
492
100
AcDbEntity
  8
03__ASM_ALL_CURVES
100
AcDbLine
 62
40
  6
CONTINUOUS
 10
7.6791862404
 20
2.8158178076
 11
7.671642881
 21
2.7856443701
  0
LINE
  5
493
100
AcDbEntity
  8
03__ASM_ALL_CURVES
100
AcDbLine
 62
40
  6
CONTINUOUS
 10
7.3133333076
 20
2.6810431225
 11
7.3057899483
 21
2.6709853052
  0
LINE
  5
494
100
AcDbEntity
  8
03__ASM_ALL_CURVES
100
AcDbLine
 62
40
  6
CONTINUOUS
 10
7.5434057717
 20
2.835933435
 11
7.5358624123
 21
2.8258756177
  0
LINE
  5
495
100
AcDbEntity
  8
03__ASM_ALL_CURVES
100
AcDbLine
 62
40
  6
CONTINUOUS
 10
7.3661368233
 20
2.5905228082
 11
7.3585934639
 21
2.5804649954
  0
LINE
  5
496
100
AcDbEntity
  8
03__ASM_ALL_CURVES
100
AcDbLine
 62
40
  6
CONTINUOUS
 10
7.5962092873
 20
2.8459912451
 11
7.611296006
 21
2.8661068725
  0
LINE
  5
497
100
AcDbEntity
  8
03__ASM_ALL_CURVES
100
AcDbLine
 62
40
  6
CONTINUOUS
 10
8.9499667386
 20
4.588812185
 11
8.9424233793
 21
4.5787543677
  0
LINE
  5
498
100
AcDbEntity
  8
03__ASM_ALL_CURVES
100
AcDbLine
 62
40
  6
CONTINUOUS
 10
7.5396340889
 20
2.6609274951
 11
7.5547208076
 21
2.6810431225
  0
LINE
  5
499
100
AcDbEntity
  8
03__ASM_ALL_CURVES
100
AcDbLine
 62
40
  6
CONTINUOUS
 10
9.0027702543
 20
4.5988699951
 11
9.017856973
 21
4.6189856225
  0
LINE
  5
49A
100
AcDbEntity
  8
03__ASM_ALL_CURVES
100
AcDbLine
 62
40
  6
CONTINUOUS
 10
7.671642881
 20
2.7856443701
 11
7.6565561623
 21
2.7655287454
  0
LINE
  5
49B
100
AcDbEntity
  8
0
100
AcDbLine
 62
7
  6
CONTINUOUS
 10
8.5986198638
 20
3.6651646826
 11
8.6296198638
 21
3.6961646826
  0
LINE
  5
49C
100
AcDbEntity
  8
03__ASM_ALL_CURVES
100
AcDbLine
 62
40
  6
CONTINUOUS
 10
7.3284200264
 20
2.6911009326
 11
7.3133333076
 21
2.6810431225
  0
LINE
  5
49D
100
AcDbEntity
  8
03__ASM_ALL_CURVES
100
AcDbLine
 62
40
  6
CONTINUOUS
 10
7.5358624123
 20
2.8258756177
 11
7.5207756935
 21
2.8158178076
  0
LINE
  5
49E
100
AcDbEntity
  8
03__ASM_ALL_CURVES
100
AcDbLine
 62
40
  6
CONTINUOUS
 10
7.611296006
 20
2.8661068725
 11
7.6263827248
 21
2.8761646826
  0
LINE
  5
49F
100
AcDbEntity
  8
03__ASM_ALL_CURVES
100
AcDbLine
 62
40
  6
CONTINUOUS
 10
7.3585934639
 20
2.5804649954
 11
7.3435067451
 21
2.5704071826
  0
LINE
  5
4A0
100
AcDbEntity
  8
03__ASM_ALL_CURVES
100
AcDbLine
 62
40
  6
CONTINUOUS
 10
7.6565561623
 20
2.7655287454
 11
7.6414694435
 21
2.7554709326
  0
LINE
  5
4A1
100
AcDbEntity
  8
03__ASM_ALL_CURVES
100
AcDbLine
 62
40
  6
CONTINUOUS
 10
7.5547208076
 20
2.6810431225
 11
7.5698075264
 21
2.6911009326
  0
LINE
  5
4A2
100
AcDbEntity
  8
03__ASM_ALL_CURVES
100
AcDbLine
 62
40
  6
CONTINUOUS
 10
7.7772499123
 20
2.8258756177
 11
7.7621631935
 21
2.8158178076
  0
LINE
  5
4A3
100
AcDbEntity
  8
03__ASM_ALL_CURVES
100
AcDbLine
 62
40
  6
CONTINUOUS
 10
7.973377256
 20
2.8661068725
 11
7.9884639748
 21
2.8761646826
  0
LINE
  5
4A4
100
AcDbEntity
  8
03__ASM_ALL_CURVES
100
AcDbLine
 62
40
  6
CONTINUOUS
 10
7.5999809639
 20
2.5804649954
 11
7.5848942451
 21
2.5704071826
  0
LINE
  5
4A5
100
AcDbEntity
  8
03__ASM_ALL_CURVES
100
AcDbLine
 62
40
  6
CONTINUOUS
 10
7.5437483011
 20
5.8430026826
 11
7.5236326761
 21
5.8564130997
  0
LINE
  5
4A6
100
AcDbEntity
  8
03__ASM_ALL_CURVES
100
AcDbLine
 62
40
  6
CONTINUOUS
 10
7.5638639261
 20
6.0039276826
 11
7.5839795511
 21
5.9905172691
  0
LINE
  5
4A7
100
AcDbEntity
  8
03__ASM_ALL_CURVES
100
AcDbLine
 62
40
  6
CONTINUOUS
 10
7.5236326761
 20
5.8564130997
 11
7.5035170511
 21
5.8832339326
  0
LINE
  5
4A8
100
AcDbEntity
  8
0
100
AcDbLine
 62
7
  6
CONTINUOUS
 10
8.2856198638
 20
3.6646646826
 11
8.2856198638
 21
5.2876646826
  0
LINE
  5
4A9
100
AcDbEntity
  8
03__ASM_ALL_CURVES
100
AcDbLine
 62
40
  6
CONTINUOUS
 10
8.3181998636
 20
5.8698235167
 11
8.3181998636
 21
6.0039276826
  0
LINE
  5
4AA
100
AcDbEntity
  8
0
100
AcDbLine
 62
7
  6
CONTINUOUS
 10
8.3356198638
 20
3.6646646826
 11
8.3356198638
 21
5.2876646826
  0
LINE
  5
4AB
100
AcDbEntity
  8
03__ASM_ALL_CURVES
100
AcDbLine
 62
40
  6
CONTINUOUS
 10
8.3986623636
 20
6.0039276826
 11
8.3986623636
 21
5.8698235167
  0
LINE
  5
4AC
100
AcDbEntity
  8
0
100
AcDbLine
 62
7
  6
CONTINUOUS
 10
8.4386198638
 20
3.6646646826
 11
8.4386198638
 21
5.2876646826
  0
LINE
  5
4AD
100
AcDbEntity
  8
03__ASM_ALL_CURVES
100
AcDbLine
 62
40
  6
CONTINUOUS
 10
8.4791248636
 20
6.0039276826
 11
8.4791248636
 21
5.8430026826
  0
LINE
  5
4AE
100
AcDbEntity
  8
0
100
AcDbLine
 62
7
  6
CONTINUOUS
 10
8.4886198638
 20
3.6646646826
 11
8.4886198638
 21
5.2876646826
  0
LINE
  5
4AF
100
AcDbEntity
  8
03__ASM_ALL_CURVES
100
AcDbLine
 62
40
  6
CONTINUOUS
 10
8.7305701761
 20
5.9234651826
 11
8.7205123636
 21
5.8832339326
  0
LINE
  5
4B0
100
AcDbEntity
  8
03__ASM_ALL_CURVES
100
AcDbLine
 62
40
  6
CONTINUOUS
 10
7.973377256
 20
2.7856443701
 11
7.9658338967
 21
2.7554709326
  0
LINE
  5
4B1
100
AcDbEntity
  8
03__ASM_ALL_CURVES
100
AcDbLine
 62
40
  6
CONTINUOUS
 10
8.0148657295
 20
2.6307540576
 11
8.0224090889
 21
2.6609274951
  0
LINE
  5
4B2
100
AcDbEntity
  8
03__ASM_ALL_CURVES
100
AcDbLine
 62
40
  6
CONTINUOUS
 10
7.7847932717
 20
2.835933435
 11
7.7772499123
 21
2.8258756177
  0
LINE
  5
4B3
100
AcDbEntity
  8
03__ASM_ALL_CURVES
100
AcDbLine
 62
40
  6
CONTINUOUS
 10
7.6150676826
 20
2.6005806201
 11
7.5999809639
 21
2.5804649954
  0
LINE
  5
4B4
100
AcDbEntity
  8
03__ASM_ALL_CURVES
100
AcDbLine
 62
40
  6
CONTINUOUS
 10
9.078203848
 20
4.5385231201
 11
9.0631171293
 21
4.5184074954
  0
LINE
  5
4B5
100
AcDbEntity
  8
03__ASM_ALL_CURVES
100
AcDbLine
 62
40
  6
CONTINUOUS
 10
9.1913542386
 20
4.588812185
 11
9.1838108793
 21
4.5787543677
  0
LINE
  5
4B6
100
AcDbEntity
  8
03__ASM_ALL_CURVES
100
AcDbLine
 62
40
  6
CONTINUOUS
 10
7.7282180733
 20
2.5905228082
 11
7.7206747139
 21
2.5804649954
  0
LINE
  5
4B7
100
AcDbEntity
  8
03__ASM_ALL_CURVES
100
AcDbLine
 62
40
  6
CONTINUOUS
 10
7.9658338967
 20
2.8560490552
 11
7.973377256
 21
2.8661068725
  0
LINE
  5
4B8
100
AcDbEntity
  8
03__ASM_ALL_CURVES
100
AcDbLine
 62
40
  6
CONTINUOUS
 10
7.9884639748
 20
2.8057599939
 11
7.973377256
 21
2.7856443701
  0
LINE
  5
4B9
100
AcDbEntity
  8
03__ASM_ALL_CURVES
100
AcDbLine
 62
40
  6
CONTINUOUS
 10
8.0261807717
 20
2.835933435
 11
8.0186374123
 21
2.8258756177
  0
LINE
  5
4BA
100
AcDbEntity
  8
03__ASM_ALL_CURVES
100
AcDbLine
 62
40
  6
CONTINUOUS
 10
8.0186374123
 20
2.8258756177
 11
7.9884639748
 21
2.8057599939
  0
LINE
  5
4BB
100
AcDbEntity
  8
03__ASM_ALL_CURVES
100
AcDbLine
 62
40
  6
CONTINUOUS
 10
7.7206747139
 20
2.5804649954
 11
7.7055879951
 21
2.5704071826
  0
LINE
  5
4BC
100
AcDbEntity
  8
03__ASM_ALL_CURVES
100
AcDbLine
 62
40
  6
CONTINUOUS
 10
8.0374958076
 20
2.6810431225
 11
8.0525825264
 21
2.6911009326
  0
LINE
  5
4BD
100
AcDbEntity
  8
03__ASM_ALL_CURVES
100
AcDbLine
 62
40
  6
CONTINUOUS
 10
8.0827559639
 20
2.5804649954
 11
8.0676692451
 21
2.5704071826
  0
LINE
  5
4BE
100
AcDbEntity
  8
03__ASM_ALL_CURVES
100
AcDbLine
 62
40
  6
CONTINUOUS
 10
7.8655983011
 20
5.8430026826
 11
7.8454826761
 21
5.8564130997
  0
LINE
  5
4BF
100
AcDbEntity
  8
03__ASM_ALL_CURVES
100
AcDbLine
 62
40
  6
CONTINUOUS
 10
7.8454826761
 20
5.9502860191
 11
7.9058295511
 21
5.9100547643
  0
LINE
  5
4C0
100
AcDbEntity
  8
03__ASM_ALL_CURVES
100
AcDbLine
 62
40
  6
CONTINUOUS
 10
7.9058295511
 20
5.9905172691
 11
7.8857139261
 21
6.0039276826
  0
LINE
  5
4C1
100
AcDbEntity
  8
03__ASM_ALL_CURVES
100
AcDbLine
 62
40
  6
CONTINUOUS
 10
8.1874483011
 20
5.8430026826
 11
8.1673326761
 21
5.8564130997
  0
LINE
  5
4C2
100
AcDbEntity
  8
0
100
AcDbLine
 62
7
  6
CONTINUOUS
 10
8.5986198638
 20
5.2871646826
 11
8.6296198638
 21
5.2561646826
  0
LINE
  5
4C3
100
AcDbEntity
  8
03__ASM_ALL_CURVES
100
AcDbLine
 62
40
  6
CONTINUOUS
 10
7.5839795511
 20
5.9905172691
 11
7.5940373636
 21
5.9771068461
  0
LINE
  5
4C4
100
AcDbEntity
  8
03__ASM_ALL_CURVES
100
AcDbLine
 62
40
  6
CONTINUOUS
 10
7.8454826761
 20
5.8564130997
 11
7.8253670511
 21
5.8832339326
  0
LINE
  5
4C5
100
AcDbEntity
  8
03__ASM_ALL_CURVES
100
AcDbLine
 62
40
  6
CONTINUOUS
 10
7.8354248636
 20
5.9636964326
 11
7.8454826761
 21
5.9502860191
  0
LINE
  5
4C6
100
AcDbEntity
  8
03__ASM_ALL_CURVES
100
AcDbLine
 62
40
  6
CONTINUOUS
 10
7.9058295511
 20
5.9100547643
 11
7.9158873636
 21
5.8966443509
  0
LINE
  5
4C7
100
AcDbEntity
  8
03__ASM_ALL_CURVES
100
AcDbLine
 62
40
  6
CONTINUOUS
 10
8.1472170511
 20
5.8832339326
 11
8.1371592386
 21
5.9234651826
  0
LINE
  5
4C8
100
AcDbEntity
  8
0
100
AcDbLine
 62
7
  6
CONTINUOUS
 10
8.5286198638
 20
5.28715518
 11
8.5286198638
 21
3.6651741852
  0
LINE
  5
4C9
100
AcDbEntity
  8
0
100
AcDbLine
 62
7
  6
CONTINUOUS
 10
8.5986198638
 20
3.6651646826
 11
8.5986198638
 21
5.2871646826
  0
LINE
  5
4CA
100
AcDbEntity
  8
0
100
AcDbLine
 62
7
  6
CONTINUOUS
 10
8.6296198638
 20
3.6961646826
 11
8.6296198638
 21
5.2561646826
  0
LINE
  5
4CB
100
AcDbEntity
  8
03__ASM_ALL_CURVES
100
AcDbLine
 62
40
  6
CONTINUOUS
 10
8.6400498636
 20
5.8430026826
 11
8.6400498636
 21
6.0039276826
  0
LINE
  5
4CC
100
AcDbEntity
  8
03__ASM_ALL_CURVES
100
AcDbLine
 62
40
  6
CONTINUOUS
 10
8.0224090889
 20
2.6609274951
 11
8.0374958076
 21
2.6810431225
  0
LINE
  5
4CD
100
AcDbEntity
  8
03__ASM_ALL_CURVES
100
AcDbLine
 62
40
  6
CONTINUOUS
 10
8.0902993233
 20
2.5905228082
 11
8.0827559639
 21
2.5804649954
  0
LINE
  5
4CE
100
AcDbEntity
  8
03__ASM_ALL_CURVES
100
AcDbLine
 62
40
  6
CONTINUOUS
 10
8.3483733011
 20
5.8430026826
 11
8.3282576761
 21
5.8564130997
  0
LINE
  5
4CF
100
AcDbEntity
  8
03__ASM_ALL_CURVES
100
AcDbLine
 62
40
  6
CONTINUOUS
 10
8.2075639261
 20
6.0039276826
 11
8.2276795511
 21
5.9905172691
  0
LINE
  5
4D0
100
AcDbEntity
  8
03__ASM_ALL_CURVES
100
AcDbLine
 62
40
  6
CONTINUOUS
 10
7.9158873636
 20
5.9771068461
 11
7.9058295511
 21
5.9905172691
  0
LINE
  5
4D1
100
AcDbEntity
  8
03__ASM_ALL_CURVES
100
AcDbLine
 62
40
  6
CONTINUOUS
 10
9.017856973
 20
4.5184074954
 11
9.0027702543
 21
4.5385231201
  0
LINE
  5
4D2
100
AcDbEntity
  8
03__ASM_ALL_CURVES
100
AcDbLine
 62
40
  6
CONTINUOUS
 10
8.9424233793
 20
4.6189856225
 11
8.9499667386
 21
4.6089278052
  0
LINE
  5
4D3
100
AcDbEntity
  8
03__ASM_ALL_CURVES
100
AcDbLine
 62
40
  6
CONTINUOUS
 10
9.0631171293
 20
4.6189856225
 11
9.078203848
 21
4.5988699951
  0
LINE
  5
4D4
100
AcDbEntity
  8
03__ASM_ALL_CURVES
100
AcDbLine
 62
40
  6
CONTINUOUS
 10
8.1673326761
 20
5.8564130997
 11
8.1472170511
 21
5.8832339326
  0
LINE
  5
4D5
100
AcDbEntity
  8
03__ASM_ALL_CURVES
100
AcDbLine
 62
40
  6
CONTINUOUS
 10
9.1838108793
 20
4.6189856225
 11
9.1913542386
 21
4.6089278052
  0
LINE
  5
4D6
100
AcDbEntity
  8
03__ASM_ALL_CURVES
100
AcDbLine
 62
40
  6
CONTINUOUS
 10
8.2276795511
 20
5.9905172691
 11
8.2477951761
 21
5.9636964326
  0
LINE
  5
4D7
100
AcDbEntity
  8
03__ASM_ALL_CURVES
100
AcDbLine
 62
40
  6
CONTINUOUS
 10
8.3282576761
 20
5.8564130997
 11
8.3181998636
 21
5.8698235167
  0
LINE
  5
4D8
100
AcDbEntity
  8
03__ASM_ALL_CURVES
100
AcDbLine
 62
40
  6
CONTINUOUS
 10
8.980140176
 20
4.4439796826
 11
9.040487051
 21
4.3232859326
  0
LINE
  5
4D9
100
AcDbEntity
  8
03__ASM_ALL_CURVES
100
AcDbLine
 62
40
  6
CONTINUOUS
 10
8.2477951761
 20
5.9636964326
 11
8.2578529886
 21
5.9234651826
  0
LINE
  5
4DA
100
AcDbEntity
  8
03__ASM_ALL_CURVES
100
AcDbLine
 62
40
  6
CONTINUOUS
 10
8.8009748636
 20
5.8430026826
 11
8.8009748636
 21
6.0039276826
  0
LINE
  5
4DB
100
AcDbEntity
  8
03__ASM_ALL_CURVES
100
AcDbLine
 62
40
  6
CONTINUOUS
 10
8.8896198635
 20
4.4439796826
 11
8.8896198635
 21
4.3232859326
  0
LINE
  5
4DC
100
AcDbEntity
  8
03__ASM_ALL_CURVES
100
AcDbLine
 62
40
  6
CONTINUOUS
 10
8.8896198636
 20
4.5083496826
 11
8.8896198636
 21
4.6290434326
  0
LINE
  5
4DD
100
AcDbEntity
  8
03__ASM_ALL_CURVES
100
AcDbLine
 62
40
  6
CONTINUOUS
 10
8.9499667386
 20
4.6089278052
 11
8.9499667386
 21
4.588812185
  0
LINE
  5
4DE
100
AcDbEntity
  8
03__ASM_ALL_CURVES
100
AcDbLine
 62
40
  6
CONTINUOUS
 10
8.9618998636
 20
5.8430026826
 11
8.9618998636
 21
6.0039276826
  0
LINE
  5
4DF
100
AcDbEntity
  8
03__ASM_ALL_CURVES
100
AcDbLine
 62
40
  6
CONTINUOUS
 10
8.980140176
 20
4.3232859326
 11
8.980140176
 21
4.4439796826
  0
LINE
  5
4E0
100
AcDbEntity
  8
03__ASM_ALL_CURVES
100
AcDbLine
 62
40
  6
CONTINUOUS
 10
8.9952268949
 20
4.5686965576
 11
9.0027702543
 21
4.5988699951
  0
LINE
  5
4E1
100
AcDbEntity
  8
03__ASM_ALL_CURVES
100
AcDbLine
 62
40
  6
CONTINUOUS
 10
9.0857472074
 20
4.5686965576
 11
9.078203848
 21
4.5385231201
  0
LINE
  5
4E2
100
AcDbEntity
  8
03__ASM_ALL_CURVES
100
AcDbLine
 62
40
  6
CONTINUOUS
 10
8.6802811136
 20
6.0039276826
 11
8.7003967386
 21
5.9905172691
  0
LINE
  5
4E3
100
AcDbEntity
  8
03__ASM_ALL_CURVES
100
AcDbLine
 62
40
  6
CONTINUOUS
 10
9.0121889261
 20
6.0039276826
 11
9.0323045511
 21
5.9905172691
  0
LINE
  5
4E4
100
AcDbEntity
  8
03__ASM_ALL_CURVES
100
AcDbLine
 62
40
  6
CONTINUOUS
 10
9.0027702543
 20
4.5385231201
 11
8.9952268949
 21
4.5686965576
  0
LINE
  5
4E5
100
AcDbEntity
  8
03__ASM_ALL_CURVES
100
AcDbLine
 62
40
  6
CONTINUOUS
 10
9.040487051
 20
4.3232859326
 11
9.040487051
 21
4.4439796826
  0
LINE
  5
4E6
100
AcDbEntity
  8
03__ASM_ALL_CURVES
100
AcDbLine
 62
40
  6
CONTINUOUS
 10
9.0423623636
 20
5.9771068461
 11
9.0423623636
 21
5.9502860191
  0
LINE
  5
4E7
100
AcDbEntity
  8
03__ASM_ALL_CURVES
100
AcDbLine
 62
40
  6
CONTINUOUS
 10
9.100833926
 20
4.4439796826
 11
9.100833926
 21
4.3232859326
  0
LINE
  5
4E8
100
AcDbEntity
  8
03__ASM_ALL_CURVES
100
AcDbLine
 62
40
  6
CONTINUOUS
 10
9.1310073636
 20
4.5083496826
 11
9.1310073636
 21
4.6290434326
  0
LINE
  5
4E9
100
AcDbEntity
  8
03__ASM_ALL_CURVES
100
AcDbLine
 62
40
  6
CONTINUOUS
 10
9.1913542386
 20
4.6089278052
 11
9.1913542386
 21
4.588812185
  0
LINE
  5
4EA
100
AcDbEntity
  8
03__ASM_ALL_CURVES
100
AcDbLine
 62
40
  6
CONTINUOUS
 10
9.221527676
 20
4.3232859326
 11
9.221527676
 21
4.4439796826
  0
LINE
  5
4EB
100
AcDbEntity
  8
03__ASM_ALL_CURVES
100
AcDbLine
 62
40
  6
CONTINUOUS
 10
9.2818745511
 20
4.6290434326
 11
9.2818745511
 21
4.5083496826
  0
LINE
  5
4EC
100
AcDbEntity
  8
03__ASM_ALL_CURVES
100
AcDbLine
 62
40
  6
CONTINUOUS
 10
8.7003967386
 20
5.9905172691
 11
8.7205123636
 21
5.9636964326
  0
LINE
  5
4ED
100
AcDbEntity
  8
03__ASM_ALL_CURVES
100
AcDbLine
 62
40
  6
CONTINUOUS
 10
9.1687241605
 20
4.5686965576
 11
9.1913542386
 21
4.5083496826
  0
LINE
  5
4EE
100
AcDbEntity
  8
03__ASM_ALL_CURVES
100
AcDbLine
 62
40
  6
CONTINUOUS
 10
8.7205123636
 20
5.9636964326
 11
8.7305701761
 21
5.9234651826
  0
LINE
  5
4EF
100
AcDbEntity
  8
03__ASM_ALL_CURVES
100
AcDbLine
 62
40
  6
CONTINUOUS
 10
9.078203848
 20
4.5988699951
 11
9.0857472074
 21
4.5686965576
  0
LINE
  5
4F0
100
AcDbEntity
  8
03__ASM_ALL_CURVES
100
AcDbLine
 62
40
  6
CONTINUOUS
 10
9.3723948635
 20
4.4439796826
 11
9.3723948635
 21
4.3232859326
  0
LINE
  5
4F1
100
AcDbEntity
  8
03__ASM_ALL_CURVES
100
AcDbLine
 62
40
  6
CONTINUOUS
 10
9.4025683011
 20
4.6290434326
 11
9.4025683011
 21
4.5083496826
  0
LINE
  5
4F2
100
AcDbEntity
  8
03__ASM_ALL_CURVES
100
AcDbLine
 62
40
  6
CONTINUOUS
 10
9.0323045511
 20
5.9905172691
 11
9.0423623636
 21
5.9771068461
  0
LINE
  5
4F3
100
AcDbEntity
  8
03__ASM_ALL_CURVES
100
AcDbLine
 62
40
  6
CONTINUOUS
 10
9.0121889261
 20
5.9234651826
 11
9.0423623636
 21
5.8430026826
  0
CIRCLE
  5
4F4
100
AcDbEntity
  8
0
100
AcDbCircle
 62
7
  6
CONTINUOUS
 10
8.0036198638
 20
4.4761646826
 40
0.156
  0
ARC
  5
4F5
100
AcDbEntity
  8
0
100
AcDbCircle
 62
7
  6
CONTINUOUS
 10
2.7556198638
 20
4.6531646826
 40
0.094
100
AcDbArc
 50
90.0
 51
131.267427381
  0
ARC
  5
4F6
100
AcDbEntity
  8
0
100
AcDbCircle
 62
7
  6
CONTINUOUS
 10
2.7556198638
 20
4.2991646826
 40
0.094
100
AcDbArc
 50
228.732572619
 51
270.0
  0
ARC
  5
4F7
100
AcDbEntity
  8
0
100
AcDbCircle
 62
7
  6
CONTINUOUS
 10
6.3229838345
 20
3.5821646826
 40
0.028
100
AcDbArc
 50
9.2483576598
 51
76.1357474108
  0
ARC
  5
4F8
100
AcDbEntity
  8
0
100
AcDbCircle
 62
7
  6
CONTINUOUS
 10
6.3229838345
 20
5.3701646826
 40
0.028
100
AcDbArc
 50
283.8642525892
 51
350.7516423402
  0
ARC
  5
4F9
100
AcDbEntity
  8
0
100
AcDbCircle
 62
7
  6
CONTINUOUS
 10
2.4416198638
 20
4.3146646826
 40
0.0175
100
AcDbArc
 50
180.0
 51
360.0
  0
SPLINE
  5
4FA
100
AcDbEntity
  8
0
100
AcDbSpline
 62
7
  6
CONTINUOUS
 70
0
 71
3
 72
20
 73
16
 74
14
 42
0.0000001
 43
0.0000001
 44
0.0000000001
 12
0.0
 22
0.0416605862
 32
0.0
 13
0.0
 23
-0.0416605862
 33
0.0
 40
0.0
 40
0.0
 40
0.0
 40
0.0
 40
0.0489307848
 40
0.1062135912
 40
0.175871992
 40
0.2580136346
 40
0.3503828832
 40
0.4493672053
 40
0.5506327947
 40
0.6496171168
 40
0.7419863654
 40
0.824128008
 40
0.8937864088
 40
0.9510692152
 40
1.0
 40
1.0
 40
1.0
 40
1.0
 10
2.4591198638
 20
4.5522882514
 30
0.0
 10
2.4591198638
 20
4.5529677465
 30
0.0
 10
2.4586983299
 20
4.5544537575
 30
0.0
 10
2.4570630621
 20
4.5563321848
 30
0.0
 10
2.4546111416
 20
4.5579311851
 30
0.0
 10
2.4514519092
 20
4.5592059362
 30
0.0
 10
2.4477488155
 20
4.560097924
 30
0.0
 10
2.4437019066
 20
4.5605571617
 30
0.0
 10
2.439537821
 20
4.5605571617
 30
0.0
 10
2.4354909121
 20
4.560097924
 30
0.0
 10
2.4317878184
 20
4.5592059362
 30
0.0
 10
2.428628586
 20
4.5579311851
 30
0.0
 10
2.4261766655
 20
4.5563321848
 30
0.0
 10
2.4245413977
 20
4.5544537575
 30
0.0
 10
2.4241198638
 20
4.5529677465
 30
0.0
 10
2.4241198638
 20
4.5522882514
 30
0.0
 11
2.4591198638
 21
4.5522882514
 31
0.0
 11
2.4586113456
 21
4.5542622907
 31
0.0
 11
2.4571153442
 21
4.556121606
 31
0.0
 11
2.4547188019
 21
4.5577581406
 31
0.0
 11
2.4515609969
 21
4.5590767852
 31
0.0
 11
2.4478254493
 21
4.5600009049
 31
0.0
 11
2.4437292557
 21
4.5604767932
 31
0.0
 11
2.4395104719
 21
4.5604767932
 31
0.0
 11
2.4354142783
 21
4.5600009049
 31
0.0
 11
2.4316787307
 21
4.5590767852
 31
0.0
 11
2.4285209257
 21
4.5577581406
 31
0.0
 11
2.4261243833
 21
4.556121606
 31
0.0
 11
2.424628382
 21
4.5542622907
 31
0.0
 11
2.4241198638
 21
4.5522882514
 31
0.0
  0
SPLINE
  5
4FB
100
AcDbEntity
  8
0
100
AcDbSpline
 62
7
  6
CONTINUOUS
 70
0
 71
3
 72
16
 73
12
 74
10
 42
0.0000001
 43
0.0000001
 44
0.0000000001
 12
0.0906480335
 22
0.2719441006
 32
0.0
 13
-0.0906480335
 23
0.2719441006
 33
0.0
 40
0.0
 40
0.0
 40
0.0
 40
0.0
 40
0.1184548733
 40
0.230565332
 40
0.3393089466
 40
0.4465959239
 40
0.5535015371
 40
0.6607803311
 40
0.769505023
 40
0.8815660643
 40
1.0
 40
1.0
 40
1.0
 40
1.0
 10
2.9437484534
 20
4.1951646826
 30
0.0
 10
2.9473276872
 20
4.2059023839
 30
0.0
 10
2.9537587738
 20
4.2269884308
 30
0.0
 10
2.9612782035
 20
4.2585494856
 30
0.0
 10
2.966366431
 20
4.2895183037
 30
0.0
 10
2.9689532932
 20
4.3203013733
 30
0.0
 10
2.9689521049
 20
4.3510551743
 30
0.0
 10
2.9663632643
 20
4.3818354657
 30
0.0
 10
2.9612745295
 20
4.4127967675
 30
0.0
 10
2.9537562727
 20
4.4443492991
 30
0.0
 10
2.9473270545
 20
4.4654288792
 30
0.0
 10
2.9437484534
 20
4.4761646826
 30
0.0
 11
2.9437484534
 21
4.1951646826
 31
0.0
 11
2.953586923
 21
4.2276637105
 31
0.0
 11
2.9609740935
 21
4.2589401009
 31
0.0
 11
2.9659787109
 21
4.2897075534
 31
0.0
 11
2.9685256762
 21
4.3203561746
 31
0.0
 11
2.968524506
 21
4.3510011231
 31
0.0
 11
2.965975566
 21
4.3816472262
 31
0.0
 11
2.9609701269
 21
4.4124090494
 31
0.0
 11
2.9535853555
 21
4.443671451
 31
0.0
 11
2.9437484534
 21
4.4761646826
 31
0.0
  0
SPLINE
  5
4FC
100
AcDbEntity
  8
0
100
AcDbSpline
 62
7
  6
CONTINUOUS
 70
0
 71
3
 72
17
 73
13
 74
11
 42
0.0000001
 43
0.0000001
 44
0.0000000001
 12
-0.1487434696
 22
0.2576312467
 32
0.0
 13
0.1487434696
 23
0.2576312467
 33
0.0
 40
0.0
 40
0.0
 40
0.0
 40
0.0
 40
0.1169386465
 40
0.2216811606
 40
0.3184580982
 40
0.4103908543
 40
0.5000417254
 40
0.5896883004
 40
0.6816074548
 40
0.7783545182
 40
0.8830694657
 40
1.0
 40
1.0
 40
1.0
 40
1.0
 10
2.8420907151
 20
4.1951646826
 30
0.0
 10
2.8362927617
 20
4.2052070324
 30
0.0
 10
2.8259529341
 20
4.2246368798
 30
0.0
 10
2.8135793107
 20
4.2537389574
 30
0.0
 10
2.804925864
 20
4.2815805201
 30
0.0
 10
2.7997687594
 20
4.3087638397
 30
0.0
 10
2.7980518791
 20
4.3356767246
 30
0.0
 10
2.7997717647
 20
4.3625880494
 30
0.0
 10
2.8049305163
 20
4.38976619
 30
0.0
 10
2.8135833682
 20
4.417600496
 30
0.0
 10
2.8259549555
 20
4.4466963357
 30
0.0
 10
2.836293164
 20
4.4661230295
 30
0.0
 10
2.8420907151
 20
4.4761646826
 30
0.0
 11
2.8420907151
 21
4.1951646826
 31
0.0
 11
2.8258644836
 21
4.2259363396
 31
0.0
 11
2.8137797271
 21
4.2546569762
 31
0.0
 11
2.8053270539
 21
4.2821780448
 31
0.0
 11
2.8002941685
 21
4.30905976
 31
0.0
 11
2.7986198642
 21
4.3356771161
 31
0.0
 11
2.8002971065
 21
4.3622930066
 31
0.0
 11
2.8053317531
 21
4.3891702753
 31
0.0
 11
2.8137833681
 21
4.4166823719
 31
0.0
 11
2.8258655194
 21
4.4453952076
 31
0.0
 11
2.8420907151
 21
4.4761646826
 31
0.0
  0
SPLINE
  5
4FD
100
AcDbEntity
  8
0
100
AcDbSpline
 62
7
  6
CONTINUOUS
 70
0
 71
3
 72
16
 73
12
 74
10
 42
0.0000001
 43
0.0000001
 44
0.0000000001
 12
0.0906480335
 22
0.2719441006
 32
0.0
 13
-0.0906480335
 23
0.2719441006
 33
0.0
 40
0.0
 40
0.0
 40
0.0
 40
0.0
 40
0.1184548733
 40
0.230565332
 40
0.3393089466
 40
0.4465959239
 40
0.5535015371
 40
0.6607803311
 40
0.769505023
 40
0.8815660643
 40
1.0
 40
1.0
 40
1.0
 40
1.0
 10
2.9437484534
 20
4.4761646826
 30
0.0
 10
2.9473276872
 20
4.4869023839
 30
0.0
 10
2.9537587738
 20
4.5079884308
 30
0.0
 10
2.9612782035
 20
4.5395494856
 30
0.0
 10
2.966366431
 20
4.5705183037
 30
0.0
 10
2.9689532932
 20
4.6013013733
 30
0.0
 10
2.9689521049
 20
4.6320551743
 30
0.0
 10
2.9663632643
 20
4.6628354657
 30
0.0
 10
2.9612745295
 20
4.6937967675
 30
0.0
 10
2.9537562727
 20
4.7253492991
 30
0.0
 10
2.9473270545
 20
4.7464288792
 30
0.0
 10
2.9437484534
 20
4.7571646826
 30
0.0
 11
2.9437484534
 21
4.4761646826
 31
0.0
 11
2.953586923
 21
4.5086637105
 31
0.0
 11
2.9609740935
 21
4.5399401009
 31
0.0
 11
2.9659787109
 21
4.5707075534
 31
0.0
 11
2.9685256762
 21
4.6013561746
 31
0.0
 11
2.968524506
 21
4.6320011231
 31
0.0
 11
2.965975566
 21
4.6626472262
 31
0.0
 11
2.9609701269
 21
4.6934090494
 31
0.0
 11
2.9535853555
 21
4.724671451
 31
0.0
 11
2.9437484534
 21
4.7571646826
 31
0.0
  0
SPLINE
  5
4FE
100
AcDbEntity
  8
0
100
AcDbSpline
 62
7
  6
CONTINUOUS
 70
0
 71
3
 72
17
 73
13
 74
11
 42
0.0000001
 43
0.0000001
 44
0.0000000001
 12
-0.1487434696
 22
0.2576312467
 32
0.0
 13
0.1487434696
 23
0.2576312467
 33
0.0
 40
0.0
 40
0.0
 40
0.0
 40
0.0
 40
0.1169386465
 40
0.2216811606
 40
0.3184580982
 40
0.4103908543
 40
0.5000417254
 40
0.5896883004
 40
0.6816074548
 40
0.7783545182
 40
0.8830694657
 40
1.0
 40
1.0
 40
1.0
 40
1.0
 10
2.8420907151
 20
4.4761646826
 30
0.0
 10
2.8362927617
 20
4.4862070324
 30
0.0
 10
2.8259529341
 20
4.5056368798
 30
0.0
 10
2.8135793107
 20
4.5347389574
 30
0.0
 10
2.804925864
 20
4.5625805201
 30
0.0
 10
2.7997687594
 20
4.5897638397
 30
0.0
 10
2.7980518791
 20
4.6166767246
 30
0.0
 10
2.7997717647
 20
4.6435880494
 30
0.0
 10
2.8049305163
 20
4.67076619
 30
0.0
 10
2.8135833682
 20
4.698600496
 30
0.0
 10
2.8259549555
 20
4.7276963357
 30
0.0
 10
2.836293164
 20
4.7471230295
 30
0.0
 10
2.8420907151
 20
4.7571646826
 30
0.0
 11
2.8420907151
 21
4.4761646826
 31
0.0
 11
2.8258644836
 21
4.5069363396
 31
0.0
 11
2.8137797271
 21
4.5356569762
 31
0.0
 11
2.8053270539
 21
4.5631780448
 31
0.0
 11
2.8002941685
 21
4.59005976
 31
0.0
 11
2.7986198642
 21
4.6166771161
 31
0.0
 11
2.8002971065
 21
4.6432930066
 31
0.0
 11
2.8053317531
 21
4.6701702753
 31
0.0
 11
2.8137833681
 21
4.6976823719
 31
0.0
 11
2.8258655194
 21
4.7263952076
 31
0.0
 11
2.8420907151
 21
4.7571646826
 31
0.0
  0
SPLINE
  5
4FF
100
AcDbEntity
  8
0
100
AcDbSpline
 62
7
  6
CONTINUOUS
 70
0
 71
3
 72
15
 73
11
 74
9
 42
0.0000001
 43
0.0000001
 44
0.0000000001
 12
0.0
 22
0.1617702498
 32
0.0
 13
0.0
 23
-0.1617702498
 33
0.0
 40
0.0
 40
0.0
 40
0.0
 40
0.0
 40
0.125
 40
0.25
 40
0.375
 40
0.5
 40
0.625
 40
0.75
 40
0.875
 40
1.0
 40
1.0
 40
1.0
 40
1.0
 10
8.4386198638
 20
5.2511646826
 30
0.0
 10
8.4386198638
 20
5.2579051097
 30
0.0
 10
8.4359383552
 20
5.2713859638
 30
0.0
 10
8.4244839195
 20
5.2885287383
 30
0.0
 10
8.407341145
 20
5.299983174
 30
0.0
 10
8.3871198638
 20
5.3040054369
 30
0.0
 10
8.3668985826
 20
5.299983174
 30
0.0
 10
8.3497558081
 20
5.2885287383
 30
0.0
 10
8.3383013724
 20
5.2713859638
 30
0.0
 10
8.3356198638
 20
5.2579051097
 30
0.0
 10
8.3356198638
 20
5.2511646826
 30
0.0
 11
8.4386198638
 21
5.2511646826
 31
0.0
 11
8.4346996597
 21
5.2708728794
 31
0.0
 11
8.423535863
 21
5.2875806818
 31
0.0
 11
8.4068280606
 21
5.2987444785
 31
0.0
 11
8.3871198638
 21
5.3026646826
 31
0.0
 11
8.367411667
 21
5.2987444785
 31
0.0
 11
8.3507038646
 21
5.2875806818
 31
0.0
 11
8.3395400679
 21
5.2708728794
 31
0.0
 11
8.3356198638
 21
5.2511646826
 31
0.0
  0
SPLINE
  5
500
100
AcDbEntity
  8
0
100
AcDbSpline
 62
7
  6
CONTINUOUS
 70
0
 71
3
 72
15
 73
11
 74
9
 42
0.0000001
 43
0.0000001
 44
0.0000000001
 12
0.0
 22
-0.1617702498
 32
0.0
 13
0.0
 23
0.1617702498
 33
0.0
 40
0.0
 40
0.0
 40
0.0
 40
0.0
 40
0.125
 40
0.25
 40
0.375
 40
0.5
 40
0.625
 40
0.75
 40
0.875
 40
1.0
 40
1.0
 40
1.0
 40
1.0
 10
8.4386198638
 20
3.7011646826
 30
0.0
 10
8.4386198638
 20
3.6944242555
 30
0.0
 10
8.4359383552
 20
3.6809434014
 30
0.0
 10
8.4244839195
 20
3.6638006269
 30
0.0
 10
8.407341145
 20
3.6523461912
 30
0.0
 10
8.3871198638
 20
3.6483239283
 30
0.0
 10
8.3668985826
 20
3.6523461912
 30
0.0
 10
8.3497558081
 20
3.6638006269
 30
0.0
 10
8.3383013724
 20
3.6809434014
 30
0.0
 10
8.3356198638
 20
3.6944242555
 30
0.0
 10
8.3356198638
 20
3.7011646826
 30
0.0
 11
8.4386198638
 21
3.7011646826
 31
0.0
 11
8.4346996597
 21
3.6814564858
 31
0.0
 11
8.423535863
 21
3.6647486834
 31
0.0
 11
8.4068280606
 21
3.6535848867
 31
0.0
 11
8.3871198638
 21
3.6496646826
 31
0.0
 11
8.367411667
 21
3.6535848867
 31
0.0
 11
8.3507038646
 21
3.6647486834
 31
0.0
 11
8.3395400679
 21
3.6814564858
 31
0.0
 11
8.3356198638
 21
3.7011646826
 31
0.0
  0
SPLINE
  5
501
100
AcDbEntity
  8
0
100
AcDbSpline
 62
7
  6
CONTINUOUS
 70
0
 71
3
 72
14
 73
10
 74
8
 42
0.0000001
 43
0.0000001
 44
0.0000000001
 12
0.0
 22
0.1323573704
 32
0.0
 13
-0.0715842835
 23
-0.1113582083
 33
0.0
 40
0.0
 40
0.0
 40
0.0
 40
0.0
 40
0.152777901
 40
0.305555802
 40
0.458333703
 40
0.6111116041
 40
0.7638895051
 40
0.9166674061
 40
1.0
 40
1.0
 40
1.0
 40
1.0
 10
6.2796198638
 20
5.3936646826
 30
0.0
 10
6.2796198638
 20
5.4004051097
 30
0.0
 10
6.2769383552
 20
5.4138859638
 30
0.0
 10
6.2654839195
 20
5.4310287383
 30
0.0
 10
6.248341145
 20
5.442483174
 30
0.0
 10
6.2281198638
 20
5.4465054369
 30
0.0
 10
6.2078985826
 20
5.442483174
 30
0.0
 10
6.1933532283
 20
5.432764279
 30
0.0
 10
6.1867864831
 20
5.4245991785
 30
0.0
 10
6.1847980484
 20
5.4215059224
 30
0.0
 11
6.2796198638
 21
5.3936646826
 31
0.0
 11
6.2756996597
 21
5.4133728794
 31
0.0
 11
6.264535863
 21
5.4300806818
 31
0.0
 11
6.2478280606
 21
5.4412444785
 31
0.0
 11
6.2281198638
 21
5.4451646826
 31
0.0
 11
6.208411667
 21
5.4412444785
 31
0.0
 11
6.1917038646
 21
5.4300806818
 31
0.0
 11
6.1847980484
 21
5.4215059224
 31
0.0
  0
SPLINE
  5
502
100
AcDbEntity
  8
0
100
AcDbSpline
 62
7
  6
CONTINUOUS
 70
0
 71
3
 72
9
 73
5
 74
3
 42
0.0000001
 43
0.0000001
 44
0.0000000001
 12
-0.0159076891
 22
-0.0247463783
 32
0.0
 13
0.0
 23
-0.0294128795
 33
0.0
 40
0.0
 40
0.0
 40
0.0
 40
0.0
 40
0.3125024955
 40
1.0
 40
1.0
 40
1.0
 40
1.0
 10
6.1847980484
 20
5.4215059224
 30
0.0
 10
6.1831409842
 20
5.418928154
 30
0.0
 10
6.178570059
 20
5.4102094028
 30
0.0
 10
6.1766198638
 20
5.4004051097
 30
0.0
 10
6.1766198638
 20
5.3936646826
 30
0.0
 11
6.1847980484
 21
5.4215059224
 31
0.0
 11
6.1805400679
 21
5.4133728794
 31
0.0
 11
6.1766198638
 21
5.3936646826
 31
0.0
  0
SPLINE
  5
503
100
AcDbEntity
  8
0
100
AcDbSpline
 62
7
  6
CONTINUOUS
 70
0
 71
3
 72
14
 73
10
 74
8
 42
0.0000001
 43
0.0000001
 44
0.0000000001
 12
0.0
 22
-0.1323573704
 32
0.0
 13
-0.0715842835
 23
0.1113582083
 33
0.0
 40
0.0
 40
0.0
 40
0.0
 40
0.0
 40
0.152777901
 40
0.305555802
 40
0.458333703
 40
0.6111116041
 40
0.7638895051
 40
0.9166674061
 40
1.0
 40
1.0
 40
1.0
 40
1.0
 10
6.2796198638
 20
3.5586646826
 30
0.0
 10
6.2796198638
 20
3.5519242555
 30
0.0
 10
6.2769383552
 20
3.5384434014
 30
0.0
 10
6.2654839195
 20
3.5213006269
 30
0.0
 10
6.248341145
 20
3.5098461912
 30
0.0
 10
6.2281198638
 20
3.5058239283
 30
0.0
 10
6.2078985826
 20
3.5098461912
 30
0.0
 10
6.1933532283
 20
3.5195650862
 30
0.0
 10
6.1867864831
 20
3.5277301867
 30
0.0
 10
6.1847980484
 20
3.5308234428
 30
0.0
 11
6.2796198638
 21
3.5586646826
 31
0.0
 11
6.2756996597
 21
3.5389564858
 31
0.0
 11
6.264535863
 21
3.5222486834
 31
0.0
 11
6.2478280606
 21
3.5110848867
 31
0.0
 11
6.2281198638
 21
3.5071646826
 31
0.0
 11
6.208411667
 21
3.5110848867
 31
0.0
 11
6.1917038646
 21
3.5222486834
 31
0.0
 11
6.1847980484
 21
3.5308234428
 31
0.0
  0
SPLINE
  5
504
100
AcDbEntity
  8
0
100
AcDbSpline
 62
7
  6
CONTINUOUS
 70
0
 71
3
 72
9
 73
5
 74
3
 42
0.0000001
 43
0.0000001
 44
0.0000000001
 12
-0.0159076891
 22
0.0247463783
 32
0.0
 13
-0.0
 23
0.0294128795
 33
0.0
 40
0.0
 40
0.0
 40
0.0
 40
0.0
 40
0.3125024955
 40
1.0
 40
1.0
 40
1.0
 40
1.0
 10
6.1847980484
 20
3.5308234428
 30
0.0
 10
6.1831409842
 20
3.5334012112
 30
0.0
 10
6.178570059
 20
3.5421199624
 30
0.0
 10
6.1766198638
 20
3.5519242555
 30
0.0
 10
6.1766198638
 20
3.5586646826
 30
0.0
 11
6.1847980484
 21
3.5308234428
 31
0.0
 11
6.1805400679
 21
3.5389564858
 31
0.0
 11
6.1766198638
 21
3.5586646826
 31
0.0
  0
SPLINE
  5
505
100
AcDbEntity
  8
0
100
AcDbSpline
 62
7
  6
CONTINUOUS
 70
0
 71
3
 72
15
 73
11
 74
9
 42
0.0000001
 43
0.0000001
 44
0.0000000001
 12
0.0
 22
0.1617702498
 32
0.0
 13
-0.0
 23
-0.1617702498
 33
0.0
 40
0.0
 40
0.0
 40
0.0
 40
0.0
 40
0.125
 40
0.25
 40
0.375
 40
0.5
 40
0.625
 40
0.75
 40
0.875
 40
1.0
 40
1.0
 40
1.0
 40
1.0
 10
5.2206198638
 20
5.4691646826
 30
0.0
 10
5.2206198638
 20
5.4759051097
 30
0.0
 10
5.2179383552
 20
5.4893859638
 30
0.0
 10
5.2064839195
 20
5.5065287383
 30
0.0
 10
5.189341145
 20
5.517983174
 30
0.0
 10
5.1691198638
 20
5.5220054369
 30
0.0
 10
5.1488985826
 20
5.517983174
 30
0.0
 10
5.1317558081
 20
5.5065287383
 30
0.0
 10
5.1203013724
 20
5.4893859638
 30
0.0
 10
5.1176198638
 20
5.4759051097
 30
0.0
 10
5.1176198638
 20
5.4691646826
 30
0.0
 11
5.2206198638
 21
5.4691646826
 31
0.0
 11
5.2166996597
 21
5.4888728794
 31
0.0
 11
5.205535863
 21
5.5055806818
 31
0.0
 11
5.1888280606
 21
5.5167444785
 31
0.0
 11
5.1691198638
 21
5.5206646826
 31
0.0
 11
5.149411667
 21
5.5167444785
 31
0.0
 11
5.1327038646
 21
5.5055806818
 31
0.0
 11
5.1215400679
 21
5.4888728794
 31
0.0
 11
5.1176198638
 21
5.4691646826
 31
0.0
  0
SPLINE
  5
506
100
AcDbEntity
  8
0
100
AcDbSpline
 62
7
  6
CONTINUOUS
 70
0
 71
3
 72
15
 73
11
 74
9
 42
0.0000001
 43
0.0000001
 44
0.0000000001
 12
0.0
 22
-0.1617702498
 32
0.0
 13
-0.0
 23
0.1617702498
 33
0.0
 40
0.0
 40
0.0
 40
0.0
 40
0.0
 40
0.125
 40
0.25
 40
0.375
 40
0.5
 40
0.625
 40
0.75
 40
0.875
 40
1.0
 40
1.0
 40
1.0
 40
1.0
 10
5.2206198638
 20
3.4831646826
 30
0.0
 10
5.2206198638
 20
3.4764242555
 30
0.0
 10
5.2179383552
 20
3.4629434014
 30
0.0
 10
5.2064839195
 20
3.4458006269
 30
0.0
 10
5.189341145
 20
3.4343461912
 30
0.0
 10
5.1691198638
 20
3.4303239283
 30
0.0
 10
5.1488985826
 20
3.4343461912
 30
0.0
 10
5.1317558081
 20
3.4458006269
 30
0.0
 10
5.1203013724
 20
3.4629434014
 30
0.0
 10
5.1176198638
 20
3.4764242555
 30
0.0
 10
5.1176198638
 20
3.4831646826
 30
0.0
 11
5.2206198638
 21
3.4831646826
 31
0.0
 11
5.2166996597
 21
3.4634564858
 31
0.0
 11
5.205535863
 21
3.4467486834
 31
0.0
 11
5.1888280606
 21
3.4355848867
 31
0.0
 11
5.1691198638
 21
3.4316646826
 31
0.0
 11
5.149411667
 21
3.4355848867
 31
0.0
 11
5.1327038646
 21
3.4467486834
 31
0.0
 11
5.1215400679
 21
3.4634564858
 31
0.0
 11
5.1176198638
 21
3.4831646826
 31
0.0
  0
SPLINE
  5
507
100
AcDbEntity
  8
0
100
AcDbSpline
 62
7
  6
CONTINUOUS
 70
0
 71
3
 72
14
 73
10
 74
8
 42
0.0000001
 43
0.0000001
 44
0.0000000001
 12
-0.2174036543
 22
0.0
 32
0.0
 13
0.0001343852
 23
-0.2182356145
 33
0.0
 40
0.0
 40
0.0
 40
0.0
 40
0.0
 40
0.1590179448
 40
0.3170065311
 40
0.4717494795
 40
0.6198007302
 40
0.7577300698
 40
0.8839532554
 40
1.0
 40
1.0
 40
1.0
 40
1.0
 10
8.0036198638
 20
4.0908989263
 30
0.0
 10
7.9920961697
 20
4.0908989263
 30
0.0
 10
7.9690622649
 20
4.0886863949
 30
0.0
 10
7.9360889435
 20
4.0789206191
 30
0.0
 10
7.9062995523
 20
4.0633602225
 30
0.0
 10
7.8812989175
 20
4.0431288291
 30
0.0
 10
7.8623997086
 20
4.0196759894
 30
0.0
 10
7.8505195855
 20
3.9944851727
 30
0.0
 10
7.847614665
 20
3.9769038518
 30
0.0
 10
7.8476198633
 20
3.9684620076
 30
0.0
 11
8.0036198638
 21
4.0908989263
 31
0.0
 11
7.9692080139
 21
4.0875846665
 31
0.0
 11
7.9362808157
 21
4.0778103962
 31
0.0
 11
7.9064935138
 21
4.0621745577
 31
0.0
 11
7.8815584252
 21
4.0418217497
 31
0.0
 11
7.8629146469
 21
4.0183357909
 31
0.0
 11
7.8514679691
 21
3.9933958028
 31
0.0
 11
7.8476198633
 21
3.9684620076
 31
0.0
  0
SPLINE
  5
508
100
AcDbEntity
  8
0
100
AcDbSpline
 62
7
  6
CONTINUOUS
 70
0
 71
3
 72
14
 73
10
 74
8
 42
0.0000001
 43
0.0000001
 44
0.0000000001
 12
0.2174036537
 22
0.0
 32
0.0
 13
-0.0001343796
 23
0.2182356142
 33
0.0
 40
0.0
 40
0.0
 40
0.0
 40
0.0
 40
0.1590172964
 40
0.3170054324
 40
0.4717480068
 40
0.6197990899
 40
0.7577287074
 40
0.8839525193
 40
1.0
 40
1.0
 40
1.0
 40
1.0
 10
8.0036198638
 20
4.8614304389
 30
0.0
 10
8.0151435109
 20
4.8614304389
 30
0.0
 10
8.0381773352
 20
4.8636429534
 30
0.0
 10
8.0711505629
 20
4.8734086633
 30
0.0
 10
8.100939914
 20
4.8889689774
 30
0.0
 10
8.1259405763
 20
4.9092003041
 30
0.0
 10
8.1448398762
 20
4.9326531394
 30
0.0
 10
8.1567201069
 20
4.9578440394
 30
0.0
 10
8.1596250625
 20
4.9754254604
 30
0.0
 10
8.1596198643
 20
4.9838673582
 30
0.0
 11
8.0036198638
 21
4.8614304389
 31
0.0
 11
8.0380315746
 21
4.8647446716
 31
0.0
 11
8.0709586893
 21
4.8745188787
 31
0.0
 11
8.100745945
 21
4.8901546301
 31
0.0
 11
8.1256810498
 21
4.9105073604
 31
0.0
 11
8.1443249237
 21
4.9339933204
 31
0.0
 11
8.1557717113
 21
4.9589334078
 31
0.0
 11
8.1596198643
 21
4.9838673582
 31
0.0
  0
SPLINE
  5
509
100
AcDbEntity
  8
0
100
AcDbSpline
 62
7
  6
CONTINUOUS
 70
0
 71
3
 72
8
 73
4
 74
2
 42
0.0000001
 43
0.0000001
 44
0.0000000001
 12
-0.0100094076
 22
0.0
 32
0.0
 13
-0.0100080693
 23
-0.000305252
 33
0.0
 40
0.0
 40
0.0
 40
0.0
 40
0.0
 40
1.0
 40
1.0
 40
1.0
 40
1.0
 10
8.0036198638
 20
4.922545543
 30
0.0
 10
8.0002833946
 20
4.922545543
 30
0.0
 10
7.9969461891
 20
4.9224952654
 30
0.0
 10
7.993610166
 20
4.9223935147
 30
0.0
 11
8.0036198638
 21
4.922545543
 31
0.0
 11
7.993610166
 21
4.9223935147
 31
0.0
  0
SPLINE
  5
50A
100
AcDbEntity
  8
0
100
AcDbSpline
 62
7
  6
CONTINUOUS
 70
0
 71
3
 72
9
 73
5
 74
3
 42
0.0000001
 43
0.0000001
 44
0.0000000001
 12
-0.0382116523
 22
-0.001165478
 32
0.0
 13
-0.0377644916
 23
-0.0059636275
 33
0.0
 40
0.0
 40
0.0
 40
0.0
 40
0.0
 40
0.5348408144
 40
1.0
 40
1.0
 40
1.0
 40
1.0
 10
7.993610166
 20
4.9223935147
 30
0.0
 10
7.9867977823
 20
4.922185733
 30
0.0
 10
7.9740697837
 20
4.9213959158
 30
0.0
 10
7.9614161393
 20
4.9198201492
 30
0.0
 10
7.9555606393
 20
4.9188954705
 30
0.0
 11
7.993610166
 21
4.9223935147
 31
0.0
 11
7.9732041454
 21
4.9211160555
 31
0.0
 11
7.9555606393
 21
4.9188954705
 31
0.0
  0
SPLINE
  5
50B
100
AcDbEntity
  8
0
100
AcDbSpline
 62
7
  6
CONTINUOUS
 70
0
 71
3
 72
9
 73
5
 74
3
 42
0.0000001
 43
0.0000001
 44
0.0000000001
 12
-0.0242724255
 22
-0.0038330108
 32
0.0
 13
-0.0237741433
 23
-0.0062408613
 33
0.0
 40
0.0
 40
0.0
 40
0.0
 40
0.0
 40
0.4784460895
 40
1.0
 40
1.0
 40
1.0
 40
1.0
 10
7.9555606393
 20
4.9188954705
 30
0.0
 10
7.9516896236
 20
4.9182841742
 30
0.0
 10
7.943626638
 20
4.9168313972
 30
0.0
 10
7.9356399432
 20
4.9149853189
 30
0.0
 10
7.9315067774
 20
4.913900337
 30
0.0
 11
7.9555606393
 21
4.9188954705
 31
0.0
 11
7.9439916795
 21
4.9168039924
 31
0.0
 11
7.9315067774
 21
4.913900337
 31
0.0
  0
SPLINE
  5
50C
100
AcDbEntity
  8
0
100
AcDbSpline
 62
7
  6
CONTINUOUS
 70
0
 71
3
 72
9
 73
5
 74
3
 42
0.0000001
 43
0.0000001
 44
0.0000000001
 12
-0.0382324606
 22
-0.01003626
 32
0.0
 13
-0.034915541
 23
-0.0185971002
 33
0.0
 40
0.0
 40
0.0
 40
0.0
 40
0.0
 40
0.3781311801
 40
1.0
 40
1.0
 40
1.0
 40
1.0
 10
7.9315067774
 20
4.913900337
 30
0.0
 10
7.9266878156
 20
4.9126353294
 30
0.0
 10
7.9140598744
 20
4.9088507712
 30
0.0
 10
7.9018675572
 20
4.9037367491
 30
0.0
 10
7.8946299284
 20
4.8998817635
 30
0.0
 11
7.9315067774
 21
4.913900337
 31
0.0
 11
7.9172000659
 21
4.9095831195
 31
0.0
 11
7.8946299284
 21
4.8998817635
 31
0.0
  0
SPLINE
  5
50D
100
AcDbEntity
  8
0
100
AcDbSpline
 62
7
  6
CONTINUOUS
 70
0
 71
3
 72
8
 73
4
 74
2
 42
0.0000001
 43
0.0000001
 44
0.0000000001
 12
0.0140163465
 22
0.0
 32
0.0
 13
0.0140092045
 23
0.0006013802
 33
0.0
 40
0.0
 40
0.0
 40
0.0
 40
0.0
 40
1.0
 40
1.0
 40
1.0
 40
1.0
 10
8.0036198638
 20
4.0297838222
 30
0.0
 10
8.0082919793
 20
4.0297838222
 30
0.0
 10
8.0129655388
 20
4.0298824109
 30
0.0
 10
8.0176352736
 20
4.0300828709
 30
0.0
 11
8.0036198638
 21
4.0297838222
 31
0.0
 11
8.0176352736
 21
4.0300828709
 31
0.0
  0
SPLINE
  5
50E
100
AcDbEntity
  8
0
100
AcDbSpline
 62
7
  6
CONTINUOUS
 70
0
 71
3
 72
9
 73
5
 74
3
 42
0.0000001
 43
0.0000001
 44
0.0000000001
 12
0.038236643
 22
0.0016414037
 32
0.0
 13
0.0377090763
 23
0.0065404079
 33
0.0
 40
0.0
 40
0.0
 40
0.0
 40
0.0
 40
0.4296034812
 40
1.0
 40
1.0
 40
1.0
 40
1.0
 10
8.0176352736
 20
4.0300828709
 30
0.0
 10
8.0231108052
 20
4.0303179218
 30
0.0
 10
8.0358441128
 20
4.0311910828
 30
0.0
 10
8.0485029075
 20
4.0328518196
 30
0.0
 10
8.0556726161
 20
4.0340953616
 30
0.0
 11
8.0176352736
 21
4.0300828709
 31
0.0
 11
8.0340375997
 21
4.0312135021
 31
0.0
 11
8.0556726161
 21
4.0340953616
 31
0.0
  0
SPLINE
  5
50F
100
AcDbEntity
  8
0
100
AcDbSpline
 62
7
  6
CONTINUOUS
 70
0
 71
3
 72
9
 73
5
 74
3
 42
0.0000001
 43
0.0000001
 44
0.0000000001
 12
0.0243127692
 22
0.0042169007
 32
0.0
 13
0.0237452873
 23
0.0067330278
 33
0.0
 40
0.0
 40
0.0
 40
0.0
 40
0.0
 40
0.3125717239
 40
1.0
 40
1.0
 40
1.0
 40
1.0
 10
8.0556726161
 20
4.0340953616
 30
0.0
 10
8.0582057775
 20
4.0345347229
 30
0.0
 10
8.0662897365
 20
4.0360586745
 30
0.0
 10
8.0742967594
 20
4.0379792249
 30
0.0
 10
8.07973782
 20
4.0395220495
 30
0.0
 11
8.0556726161
 21
4.0340953616
 31
0.0
 11
8.0632518947
 21
4.0355261594
 31
0.0
 11
8.07973782
 21
4.0395220495
 31
0.0
  0
SPLINE
  5
510
100
AcDbEntity
  8
0
100
AcDbSpline
 62
7
  6
CONTINUOUS
 70
0
 71
3
 72
9
 73
5
 74
3
 42
0.0000001
 43
0.0000001
 44
0.0000000001
 12
0.0340334243
 22
0.0096502514
 32
0.0
 13
0.0312482674
 23
0.0166437422
 33
0.0
 40
0.0
 40
0.0
 40
0.0
 40
0.0
 40
0.3053125877
 40
1.0
 40
1.0
 40
1.0
 40
1.0
 10
8.07973782
 20
4.0395220495
 30
0.0
 10
8.083201431
 20
4.0405041639
 30
0.0
 10
8.0944620336
 20
4.0440163345
 30
0.0
 10
8.1053736636
 20
4.0485934228
 30
0.0
 10
8.1126095896
 20
4.0524474889
 30
0.0
 11
8.07973782
 21
4.0395220495
 31
0.0
 11
8.0900449087
 21
4.0427480508
 31
0.0
 11
8.1126095896
 21
4.0524474889
 31
0.0
  0
SPLINE
  5
511
100
AcDbEntity
  8
0
100
AcDbSpline
 62
7
  6
CONTINUOUS
 70
0
 71
3
 72
9
 73
5
 74
3
 42
0.0000001
 43
0.0000001
 44
0.0000000001
 12
0.0349103587
 22
-0.018592906
 32
0.0
 13
0.038226931
 23
-0.0100346738
 33
0.0
 40
0.0
 40
0.0
 40
0.0
 40
0.0
 40
0.6180729559
 40
1.0
 40
1.0
 40
1.0
 40
1.0
 10
7.8946348798
 20
4.052444935
 30
0.0
 10
7.9018272627
 20
4.0486143443
 30
0.0
 10
7.9140149464
 20
4.0434948934
 30
0.0
 10
7.9266398994
 20
4.0397065878
 30
0.0
 10
7.9315065324
 20
4.0384290833
 30
0.0
 11
7.8946348798
 21
4.052444935
 31
0.0
 11
7.9170600612
 21
4.0427944724
 31
0.0
 11
7.9315065324
 21
4.0384290833
 31
0.0
  0
SPLINE
  5
512
100
AcDbEntity
  8
0
100
AcDbSpline
 62
7
  6
CONTINUOUS
 70
0
 71
3
 72
9
 73
5
 74
3
 42
0.0000001
 43
0.0000001
 44
0.0000000001
 12
0.0237741022
 22
-0.0062407668
 32
0.0
 13
0.0242722941
 23
-0.0038329905
 33
0.0
 40
0.0
 40
0.0
 40
0.0
 40
0.0
 40
0.5170776409
 40
1.0
 40
1.0
 40
1.0
 40
1.0
 10
7.9315065324
 20
4.0384290833
 30
0.0
 10
7.9356042179
 20
4.0373534297
 30
0.0
 10
7.9435903733
 20
4.03550537
 30
0.0
 10
7.951653044
 20
4.0340509505
 30
0.0
 10
7.9555602551
 20
4.0334339383
 30
0.0
 11
7.9315065324
 21
4.0384290833
 31
0.0
 11
7.9438836005
 21
4.0355474963
 31
0.0
 11
7.9555602551
 21
4.0334339383
 31
0.0
  0
SPLINE
  5
513
100
AcDbEntity
  8
0
100
AcDbSpline
 62
7
  6
CONTINUOUS
 70
0
 71
3
 72
9
 73
5
 74
3
 42
0.0000001
 43
0.0000001
 44
0.0000000001
 12
0.0377648469
 22
-0.0059636843
 32
0.0
 13
0.038211963
 23
-0.0011654657
 33
0.0
 40
0.0
 40
0.0
 40
0.0
 40
0.0
 40
0.4636322059
 40
1.0
 40
1.0
 40
1.0
 40
1.0
 10
7.9555602551
 20
4.0334339383
 30
0.0
 10
7.9613965882
 20
4.0325122862
 30
0.0
 10
7.9740501632
 20
4.0309351855
 30
0.0
 10
7.986778249
 20
4.0301442197
 30
0.0
 10
7.9936101377
 20
4.029935847
 30
0.0
 11
7.9555602551
 21
4.0334339383
 31
0.0
 11
7.9731458144
 21
4.0312188803
 31
0.0
 11
7.9936101377
 21
4.029935847
 31
0.0
  0
SPLINE
  5
514
100
AcDbEntity
  8
0
100
AcDbSpline
 62
7
  6
CONTINUOUS
 70
0
 71
3
 72
8
 73
4
 74
2
 42
0.0000001
 43
0.0000001
 44
0.0000000001
 12
0.0100081018
 22
-0.0003052473
 32
0.0
 13
0.0100094312
 23
0.0
 33
0.0
 40
0.0
 40
0.0
 40
0.0
 40
0.0
 40
1.0
 40
1.0
 40
1.0
 40
1.0
 10
7.9936101377
 20
4.029935847
 30
0.0
 10
7.9969461717
 20
4.0298340979
 30
0.0
 10
8.0002833867
 20
4.0297838222
 30
0.0
 10
8.0036198638
 20
4.0297838222
 30
0.0
 11
7.9936101377
 21
4.029935847
 31
0.0
 11
8.0036198638
 21
4.0297838222
 31
0.0
  0
SPLINE
  5
515
100
AcDbEntity
  8
0
100
AcDbSpline
 62
7
  6
CONTINUOUS
 70
0
 71
3
 72
14
 73
10
 74
8
 42
0.0000001
 43
0.0000001
 44
0.0000000001
 12
0.0001343648
 22
0.2182356155
 32
0.0
 13
-0.2174036516
 23
-0.0
 33
0.0
 40
0.0
 40
0.0
 40
0.0
 40
0.0
 40
0.1160497555
 40
0.2422756274
 40
0.3802057516
 40
0.5282561394
 40
0.6829990757
 40
0.8409865697
 40
1.0
 40
1.0
 40
1.0
 40
1.0
 10
8.1596198644
 20
3.9684620055
 30
0.0
 10
8.1596250621
 20
3.9769040687
 30
0.0
 10
8.1567199967
 20
3.9944858079
 30
0.0
 10
8.1448394368
 20
4.0196769493
 30
0.0
 10
8.1259398778
 20
4.0431297488
 30
0.0
 10
8.100939084
 20
4.0633609258
 30
0.0
 10
8.0711497101
 20
4.0789210435
 30
0.0
 10
8.0381767235
 20
4.0886864978
 30
0.0
 10
8.0151432306
 20
4.0908989263
 30
0.0
 10
8.0036198638
 20
4.0908989263
 30
0.0
 11
8.1596198644
 21
3.9684620055
 31
0.0
 11
8.1557715654
 21
3.993396435
 31
0.0
 11
8.1443244239
 21
4.0183368524
 31
0.0
 11
8.1256803042
 21
4.0418227576
 31
0.0
 11
8.100745188
 21
4.0621752344
 31
0.0
 11
8.0709577764
 21
4.0778108572
 31
0.0
 11
8.0380307454
 21
4.0875848549
 31
0.0
 11
8.0036198638
 21
4.0908989263
 31
0.0
  0
SPLINE
  5
516
100
AcDbEntity
  8
0
100
AcDbSpline
 62
7
  6
CONTINUOUS
 70
0
 71
3
 72
14
 73
10
 74
8
 42
0.0000001
 43
0.0000001
 44
0.0000000001
 12
-0.0001343585
 22
-0.218235615
 32
0.0
 13
0.2174036509
 23
0.0
 33
0.0
 40
0.0
 40
0.0
 40
0.0
 40
0.0
 40
0.1160505193
 40
0.2422770715
 40
0.3802074643
 40
0.5282576162
 40
0.6830001552
 40
0.8409872163
 40
1.0
 40
1.0
 40
1.0
 40
1.0
 10
7.8476198631
 20
4.9838673604
 30
0.0
 10
7.8476146657
 20
4.9754252416
 30
0.0
 10
7.8505197677
 20
4.9578433961
 30
0.0
 10
7.8624004406
 20
4.932652168
 30
0.0
 10
7.8813000923
 20
4.9091993767
 30
0.0
 10
7.9063009087
 20
4.8889682723
 30
0.0
 10
7.9360902375
 20
4.8734082393
 30
0.0
 10
7.96906313
 20
4.8636428507
 30
0.0
 10
7.9920965439
 20
4.8614304389
 30
0.0
 10
8.0036198638
 20
4.8614304389
 30
0.0
 11
7.8476198631
 21
4.9838673604
 31
0.0
 11
7.8514682112
 21
4.9589327698
 31
0.0
 11
7.8629154702
 21
4.9339922437
 31
0.0
 11
7.8815596871
 21
4.9105063412
 31
0.0
 11
7.9064948092
 21
4.8901539529
 31
0.0
 11
7.9362821699
 21
4.8745184192
 31
0.0
 11
7.9692091209
 21
4.8647444833
 31
0.0
 11
8.0036198638
 21
4.8614304389
 31
0.0
  0
SPLINE
  5
517
100
AcDbEntity
  8
0
100
AcDbSpline
 62
7
  6
CONTINUOUS
 70
0
 71
3
 72
9
 73
5
 74
3
 42
0.0000001
 43
0.0000001
 44
0.0000000001
 12
-0.031242911
 22
0.0166397116
 32
0.0
 13
-0.0340276378
 23
0.0096486584
 33
0.0
 40
0.0
 40
0.0
 40
0.0
 40
0.0
 40
0.6907806259
 40
1.0
 40
1.0
 40
1.0
 40
1.0
 10
8.1126050439
 20
4.8998843245
 30
0.0
 10
8.1054110447
 20
4.903715788
 30
0.0
 10
8.0945036264
 20
4.9082972282
 30
0.0
 10
8.0832460361
 20
4.9118125734
 30
0.0
 10
8.0797387011
 20
4.9128070908
 30
0.0
 11
8.1126050439
 21
4.8998843245
 31
0.0
 11
8.0901746839
 21
4.9095366113
 31
0.0
 11
8.0797387011
 21
4.9128070908
 31
0.0
  0
SPLINE
  5
518
100
AcDbEntity
  8
0
100
AcDbSpline
 62
7
  6
CONTINUOUS
 70
0
 71
3
 72
9
 73
5
 74
3
 42
0.0000001
 43
0.0000001
 44
0.0000000001
 12
-0.0237456052
 22
0.0067331513
 32
0.0
 13
-0.0243130409
 23
0.0042170094
 33
0.0
 40
0.0
 40
0.0
 40
0.0
 40
0.0
 40
0.6832955603
 40
1.0
 40
1.0
 40
1.0
 40
1.0
 10
8.0797387011
 20
4.9128070908
 30
0.0
 10
8.0743302789
 20
4.9143406682
 30
0.0
 10
8.066323658
 20
4.9162631686
 30
0.0
 10
8.0582398877
 20
4.9177887381
 30
0.0
 10
8.055673205
 20
4.91823392
 30
0.0
 11
8.0797387011
 21
4.9128070908
 31
0.0
 11
8.0633524814
 21
4.916782616
 31
0.0
 11
8.055673205
 21
4.91823392
 31
0.0
  0
SPLINE
  5
519
100
AcDbEntity
  8
0
100
AcDbSpline
 62
7
  6
CONTINUOUS
 70
0
 71
3
 72
9
 73
5
 74
3
 42
0.0000001
 43
0.0000001
 44
0.0000000001
 12
-0.0377095629
 22
0.006540588
 32
0.0
 13
-0.0382371492
 23
0.0016414121
 33
0.0
 40
0.0
 40
0.0
 40
0.0
 40
0.0
 40
0.5689761376
 40
1.0
 40
1.0
 40
1.0
 40
1.0
 10
8.055673205
 20
4.91823392
 30
0.0
 10
8.0485212579
 20
4.9194743995
 30
0.0
 10
8.0358624758
 20
4.9211364132
 30
0.0
 10
8.0231290336
 20
4.9220106692
 30
0.0
 10
8.0176353257
 20
4.9222464985
 30
0.0
 11
8.055673205
 21
4.91823392
 31
0.0
 11
8.034091998
 21
4.9211106679
 31
0.0
 11
8.0176353257
 21
4.9222464985
 31
0.0
  0
SPLINE
  5
51A
100
AcDbEntity
  8
0
100
AcDbSpline
 62
7
  6
CONTINUOUS
 70
0
 71
3
 72
8
 73
4
 74
2
 42
0.0000001
 43
0.0000001
 44
0.0000000001
 12
-0.0140092638
 22
0.0006013779
 32
0.0
 13
-0.0140163904
 23
0.0
 33
0.0
 40
0.0
 40
0.0
 40
0.0
 40
0.0
 40
1.0
 40
1.0
 40
1.0
 40
1.0
 10
8.0176353257
 20
4.9222464985
 30
0.0
 10
8.0129655711
 20
4.9224469577
 30
0.0
 10
8.0082919939
 20
4.922545543
 30
0.0
 10
8.0036198638
 20
4.922545543
 30
0.0
 11
8.0176353257
 21
4.9222464985
 31
0.0
 11
8.0036198638
 21
4.922545543
 31
0.0
  0
SPLINE
  5
51B
100
AcDbEntity
  8
0
100
AcDbSpline
 62
7
  6
CONTINUOUS
 70
0
 71
3
 72
23
 73
19
 74
17
 42
0.0000001
 43
0.0000001
 44
0.0000000001
 12
-0.3072991389
 22
-0.0667669891
 32
0.0
 13
-0.3072991396
 23
0.066766989
 33
0.0
 40
0.0
 40
0.0
 40
0.0
 40
0.0
 40
0.0097620183
 40
0.0386465404
 40
0.085276302
 40
0.1476626404
 40
0.2233457633
 40
0.3094785887
 40
0.4029019053
 40
0.5000626715
 40
0.5972408149
 40
0.6906947406
 40
0.7768450601
 40
0.8525086331
 40
0.9148449757
 40
0.961415208
 40
0.9902565467
 40
1.0
 40
1.0
 40
1.0
 40
1.0
 10
8.1596198638
 20
5.1941646826
 30
0.0
 10
8.1586199105
 20
5.1939474224
 30
0.0
 10
8.1546595871
 20
5.1930948419
 30
0.0
 10
8.1459067099
 20
5.1912796779
 30
0.0
 10
8.1317094395
 20
5.1885569157
 30
0.0
 10
8.1126170335
 20
5.1853319924
 30
0.0
 10
8.089336587
 20
5.1820865263
 30
0.0
 10
8.0627194205
 20
5.1793137154
 30
0.0
 10
8.0337648489
 20
5.1774479234
 30
0.0
 10
8.0035983281
 20
5.1767904099
 30
0.0
 10
7.9734286346
 20
5.177449808
 30
0.0
 10
7.9444673372
 20
5.1793180742
 30
0.0
 10
7.9178474108
 20
5.1820933041
 30
0.0
 10
7.8945726206
 20
5.1853398001
 30
0.0
 10
7.8754937546
 20
5.1885636165
 30
0.0
 10
7.8613123079
 20
5.1912838827
 30
0.0
 10
7.852571908
 20
5.1930966031
 30
0.0
 10
7.8486179154
 20
5.1939478356
 30
0.0
 10
7.8476198638
 20
5.1941646826
 30
0.0
 11
8.1596198638
 21
5.1941646826
 31
0.0
 11
8.1566187661
 21
5.1935186148
 31
0.0
 11
8.1477246638
 21
5.1916744263
 31
0.0
 11
8.133323301
 21
5.1889135736
 31
0.0
 11
8.1139783743
 21
5.1856482982
 31
0.0
 11
8.0904058489
 21
5.1823656506
 31
0.0
 11
8.063465116
 21
5.1795631857
 31
0.0
 11
8.0341469754
 21
5.1776772659
 31
0.0
 11
8.0036001559
 21
5.1770127406
 31
0.0
 11
7.973047913
 21
5.1776792186
 31
0.0
 11
7.9437202987
 21
5.1795678088
 31
0.0
 11
7.9167743157
 21
5.1823729728
 31
0.0
 11
7.893208131
 21
5.1856565788
 31
0.0
 11
7.8738789039
 21
5.1889204028
 31
0.0
 11
7.8594960279
 21
5.1916782604
 31
0.0
 11
7.8506152518
 21
5.1935198326
 31
0.0
 11
7.8476198638
 21
5.1941646826
 31
0.0
  0
SPLINE
  5
51C
100
AcDbEntity
  8
0
100
AcDbSpline
 62
7
  6
CONTINUOUS
 70
0
 71
3
 72
23
 73
19
 74
17
 42
0.0000001
 43
0.0000001
 44
0.0000000001
 12
0.3072991389
 22
0.0667669891
 32
0.0
 13
0.3072991396
 23
-0.066766989
 33
0.0
 40
0.0
 40
0.0
 40
0.0
 40
0.0
 40
0.0097620183
 40
0.0386465404
 40
0.085276302
 40
0.1476626404
 40
0.2233457633
 40
0.3094785887
 40
0.4029019053
 40
0.5000626715
 40
0.5972408149
 40
0.6906947406
 40
0.7768450601
 40
0.8525086331
 40
0.9148449757
 40
0.961415208
 40
0.9902565467
 40
1.0
 40
1.0
 40
1.0
 40
1.0
 10
7.8476198638
 20
3.7581646826
 30
0.0
 10
7.8486198171
 20
3.7583819428
 30
0.0
 10
7.8525801405
 20
3.7592345233
 30
0.0
 10
7.8613330176
 20
3.7610496873
 30
0.0
 10
7.8755302881
 20
3.7637724494
 30
0.0
 10
7.8946226941
 20
3.7669973728
 30
0.0
 10
7.9179031406
 20
3.7702428389
 30
0.0
 10
7.9445203071
 20
3.7730156498
 30
0.0
 10
7.9734748787
 20
3.7748814418
 30
0.0
 10
8.0036413995
 20
3.7755389553
 30
0.0
 10
8.033811093
 20
3.7748795572
 30
0.0
 10
8.0627723904
 20
3.773011291
 30
0.0
 10
8.0893923168
 20
3.7702360611
 30
0.0
 10
8.112667107
 20
3.7669895651
 30
0.0
 10
8.131745973
 20
3.7637657487
 30
0.0
 10
8.1459274197
 20
3.7610454825
 30
0.0
 10
8.1546678196
 20
3.7592327621
 30
0.0
 10
8.1586218122
 20
3.7583815296
 30
0.0
 10
8.1596198638
 20
3.7581646826
 30
0.0
 11
7.8476198638
 21
3.7581646826
 31
0.0
 11
7.8506209615
 21
3.7588107503
 31
0.0
 11
7.8595150638
 21
3.7606549389
 31
0.0
 11
7.8739164266
 21
3.7634157916
 31
0.0
 11
7.8932613533
 21
3.766681067
 31
0.0
 11
7.9168338787
 21
3.7699637146
 31
0.0
 11
7.9437746116
 21
3.7727661795
 31
0.0
 11
7.9730927522
 21
3.7746520993
 31
0.0
 11
8.0036395717
 21
3.7753166246
 31
0.0
 11
8.0341918146
 21
3.7746501466
 31
0.0
 11
8.0635194289
 21
3.7727615564
 31
0.0
 11
8.0904654119
 21
3.7699563923
 31
0.0
 11
8.1140315966
 21
3.7666727864
 31
0.0
 11
8.1333608237
 21
3.7634089624
 31
0.0
 11
8.1477436997
 21
3.7606511047
 31
0.0
 11
8.1566244758
 21
3.7588095325
 31
0.0
 11
8.1596198638
 21
3.7581646826
 31
0.0
  0
SPLINE
  5
51D
100
AcDbEntity
  8
0
100
AcDbSpline
 62
7
  6
CONTINUOUS
 70
0
 71
3
 72
14
 73
10
 74
8
 42
0.0000001
 43
0.0000001
 44
0.0000000001
 12
0.0001258735
 22
-0.2044130052
 32
0.0
 13
0.2036337397
 23
0.0
 33
0.0
 40
0.0
 40
0.0
 40
0.0
 40
0.0
 40
0.1182318507
 40
0.2384022818
 40
0.367823235
 40
0.5104882804
 40
0.6659643714
 40
0.8306777233
 40
1.0
 40
1.0
 40
1.0
 40
1.0
 10
7.8476198633
 20
3.9684620076
 30
0.0
 10
7.8476248241
 20
3.960405965
 30
0.0
 10
7.8501995166
 20
3.9441242598
 30
0.0
 10
7.8622627073
 20
3.9217572429
 30
0.0
 10
7.8816053518
 20
3.9029706253
 30
0.0
 10
7.9068961696
 20
3.8882883653
 30
0.0
 10
7.9366846541
 20
3.8778522848
 30
0.0
 10
7.9694269134
 20
3.8716455309
 30
0.0
 10
7.992126621
 20
3.8702816105
 30
0.0
 10
8.0036198638
 20
3.8702816105
 30
0.0
 11
7.8476198633
 21
3.9684620076
 31
0.0
 11
7.851468343
 21
3.9446955953
 31
0.0
 11
7.862914859
 21
3.9230670241
 31
0.0
 11
7.8815580255
 21
3.9044393412
 31
0.0
 11
7.9064938482
 21
3.8895333169
 31
0.0
 11
7.9362811173
 21
3.8788055276
 31
0.0
 11
7.9692054058
 21
3.8724021658
 31
0.0
 11
8.0036198638
 21
3.8702816105
 31
0.0
  0
SPLINE
  5
51E
100
AcDbEntity
  8
0
100
AcDbSpline
 62
7
  6
CONTINUOUS
 70
0
 71
3
 72
14
 73
10
 74
8
 42
0.0000001
 43
0.0000001
 44
0.0000000001
 12
-0.2036337383
 22
0.0
 32
0.0
 13
-0.0001258485
 23
-0.2044130074
 33
0.0
 40
0.0
 40
0.0
 40
0.0
 40
0.0
 40
0.1693213301
 40
0.3340342611
 40
0.4895101802
 40
0.6321751537
 40
0.7615960739
 40
0.8817667424
 40
1.0
 40
1.0
 40
1.0
 40
1.0
 10
8.0036198638
 20
5.0820477547
 30
0.0
 10
7.9921266853
 20
5.0820477547
 30
0.0
 10
7.9694270712
 20
5.0806838474
 30
0.0
 10
7.93668491
 20
5.0744771439
 30
0.0
 10
7.9068964536
 20
5.0640411247
 30
0.0
 10
7.8816056196
 20
5.0493589346
 30
0.0
 10
7.8622629058
 20
5.0305723802
 30
0.0
 10
7.8501995686
 20
5.0082053153
 30
0.0
 10
7.8476248229
 20
4.991923499
 30
0.0
 10
7.8476198631
 20
4.9838673604
 30
0.0
 11
8.0036198638
 21
5.0820477547
 31
0.0
 11
7.9692055977
 21
5.0799272234
 31
0.0
 11
7.9362813872
 21
5.0735239107
 31
0.0
 11
7.906494134
 21
5.0627961813
 31
0.0
 11
7.8815582878
 21
5.0478902252
 31
0.0
 11
7.8629150615
 21
5.0292626119
 31
0.0
 11
7.8514684354
 21
5.0076340446
 31
0.0
 11
7.8476198631
 21
4.9838673604
 31
0.0
  0
SPLINE
  5
51F
100
AcDbEntity
  8
0
100
AcDbSpline
 62
7
  6
CONTINUOUS
 70
0
 71
3
 72
14
 73
10
 74
8
 42
0.0000001
 43
0.0000001
 44
0.0000000001
 12
-0.0001258682
 22
0.2044130054
 32
0.0
 13
-0.2036337396
 23
-0.0
 33
0.0
 40
0.0
 40
0.0
 40
0.0
 40
0.0
 40
0.1182321023
 40
0.2384025305
 40
0.3678234447
 40
0.5104884554
 40
0.6659645022
 40
0.8306777891
 40
1.0
 40
1.0
 40
1.0
 40
1.0
 10
8.1596198643
 20
4.9838673582
 30
0.0
 10
8.1596149038
 20
4.991923418
 30
0.0
 10
8.1570402022
 20
5.0082051398
 30
0.0
 10
8.1449769895
 20
5.030572161
 30
0.0
 10
8.1256343402
 20
5.0493587652
 30
0.0
 10
8.1003435254
 20
5.0640410138
 30
0.0
 10
8.0705550488
 20
5.0744770863
 30
0.0
 10
8.0378128008
 20
5.0806838354
 30
0.0
 10
8.0151131021
 20
5.0820477547
 30
0.0
 10
8.0036198638
 20
5.0820477547
 30
0.0
 11
8.1596198643
 21
4.9838673582
 31
0.0
 11
8.155771368
 21
5.007633819
 31
0.0
 11
8.144324838
 21
5.029262382
 31
0.0
 11
8.125681668
 21
5.0478900502
 31
0.0
 11
8.1007458469
 21
5.0627960634
 31
0.0
 11
8.0709585845
 21
5.0735238446
 31
0.0
 11
8.0380343084
 21
5.079927201
 31
0.0
 11
8.0036198638
 21
5.0820477547
 31
0.0
  0
SPLINE
  5
520
100
AcDbEntity
  8
0
100
AcDbSpline
 62
7
  6
CONTINUOUS
 70
0
 71
3
 72
14
 73
10
 74
8
 42
0.0000001
 43
0.0000001
 44
0.0000000001
 12
0.2036337385
 22
0.0
 32
0.0
 13
0.0001258544
 23
0.2044130075
 33
0.0
 40
0.0
 40
0.0
 40
0.0
 40
0.0
 40
0.1693214155
 40
0.334034424
 40
0.4895103977
 40
0.6321754131
 40
0.7615963788
 40
0.8817670517
 40
1.0
 40
1.0
 40
1.0
 40
1.0
 10
8.0036198638
 20
3.8702816105
 30
0.0
 10
8.0151130481
 20
3.8702816105
 30
0.0
 10
8.0378126734
 20
3.8716455192
 30
0.0
 10
8.0705548486
 20
3.8778522287
 30
0.0
 10
8.1003433144
 20
3.8882882578
 30
0.0
 10
8.125634152
 20
3.9029704619
 30
0.0
 10
8.1449768597
 20
3.9217570327
 30
0.0
 10
8.1570401699
 20
3.9441240922
 30
0.0
 10
8.1596149044
 20
3.9604058879
 30
0.0
 10
8.1596198644
 20
3.9684620055
 30
0.0
 11
8.0036198638
 21
3.8702816105
 31
0.0
 11
8.0380341472
 21
3.872402144
 31
0.0
 11
8.0709583726
 21
3.8788054633
 31
0.0
 11
8.100745634
 21
3.8895332027
 31
0.0
 11
8.125681482
 21
3.9044391723
 31
0.0
 11
8.1443247037
 21
3.9230668035
 31
0.0
 11
8.1557713125
 21
3.944695381
 31
0.0
 11
8.1596198644
 21
3.9684620055
 31
0.0
  0
SPLINE
  5
521
100
AcDbEntity
  8
129-400_FEATURES
100
AcDbSpline
 62
7
  6
CONTINUOUS
 70
0
 71
3
 72
11
 73
7
 74
5
 42
0.0000001
 43
0.0000001
 44
0.0000000001
 12
-0.0283917862
 22
0.0
 32
0.0
 13
-0.0283778761
 23
0.0008892334
 33
0.0
 40
0.0
 40
0.0
 40
0.0
 40
0.0
 40
0.3344363445
 40
0.6389144002
 40
0.8805070752
 40
1.0
 40
1.0
 40
1.0
 40
1.0
 10
5.6146198638
 20
5.3816341741
 30
0.0
 10
5.6114547821
 20
5.3816341741
 30
0.0
 10
5.605408092
 20
5.3816658807
 30
0.0
 10
5.5970758856
 20
5.3817930211
 30
0.0
 10
5.590778762
 20
5.3819429778
 30
0.0
 10
5.5873629463
 20
5.3820436277
 30
0.0
 10
5.5862326278
 20
5.3820790468
 30
0.0
 11
5.6146198638
 21
5.3816341741
 31
0.0
 11
5.6051247491
 21
5.3816839575
 31
0.0
 11
5.5964810793
 21
5.3818158381
 31
0.0
 11
5.5896237755
 21
5.3819791252
 31
0.0
 11
5.5862326278
 21
5.3820790468
 31
0.0
  0
SPLINE
  5
522
100
AcDbEntity
  8
129-400_FEATURES
100
AcDbSpline
 62
7
  6
CONTINUOUS
 70
0
 71
3
 72
8
 73
4
 74
2
 42
0.0000001
 43
0.0000001
 44
0.0000000001
 12
-0.0010516697
 22
0.0000329545
 32
0.0
 13
-0.0010516305
 23
0.0000341729
 33
0.0
 40
0.0
 40
0.0
 40
0.0
 40
0.0
 40
1.0
 40
1.0
 40
1.0
 40
1.0
 10
5.5862326278
 20
5.3820790468
 30
0.0
 10
5.5858820712
 20
5.3820900316
 30
0.0
 10
5.585531521
 20
5.3821012195
 30
0.0
 10
5.5851809775
 20
5.3821126105
 30
0.0
 11
5.5862326278
 21
5.3820790468
 31
0.0
 11
5.5851809775
 21
5.3821126105
 31
0.0
  0
SPLINE
  5
523
100
AcDbEntity
  8
129-400_FEATURES
100
AcDbSpline
 62
7
  6
CONTINUOUS
 70
0
 71
3
 72
8
 73
4
 74
2
 42
0.0000001
 43
0.0000001
 44
0.0000000001
 12
-0.0015611585
 22
0.00005073
 32
0.0
 13
-0.0015610682
 23
0.0000534141
 33
0.0
 40
0.0
 40
0.0
 40
0.0
 40
0.0
 40
1.0
 40
1.0
 40
1.0
 40
1.0
 10
5.5851809775
 20
5.3821126105
 30
0.0
 10
5.5846605914
 20
5.3821295205
 30
0.0
 10
5.5841402199
 20
5.3821468779
 30
0.0
 10
5.5836198638
 20
5.3821646826
 30
0.0
 11
5.5851809775
 21
5.3821126105
 31
0.0
 11
5.5836198638
 21
5.3821646826
 31
0.0
  0
SPLINE
  5
524
100
AcDbEntity
  8
129-400_FEATURES
100
AcDbSpline
 62
7
  6
CONTINUOUS
 70
0
 71
3
 72
8
 73
4
 74
2
 42
0.0000001
 43
0.0000001
 44
0.0000000001
 12
-0.0015651818
 22
-0.0000535548
 32
0.0
 13
-0.0015652725
 23
-0.0000508566
 33
0.0
 40
0.0
 40
0.0
 40
0.0
 40
0.0
 40
1.0
 40
1.0
 40
1.0
 40
1.0
 10
5.6456198638
 20
5.3821646826
 30
0.0
 10
5.6450981365
 20
5.382146831
 30
0.0
 10
5.6445763938
 20
5.382129429
 30
0.0
 10
5.6440546363
 20
5.3821124768
 30
0.0
 11
5.6456198638
 21
5.3821646826
 31
0.0
 11
5.6440546363
 21
5.3821124768
 31
0.0
  0
SPLINE
  5
525
100
AcDbEntity
  8
129-400_FEATURES
100
AcDbSpline
 62
7
  6
CONTINUOUS
 70
0
 71
3
 72
11
 73
7
 74
5
 42
0.0000001
 43
0.0000001
 44
0.0000000001
 12
-0.02942434
 22
-0.0009560137
 32
0.0
 13
-0.0294398559
 23
-0.0
 33
0.0
 40
0.0
 40
0.0
 40
0.0
 40
0.0
 40
0.1528389481
 40
0.3846527189
 40
0.6777833882
 40
1.0
 40
1.0
 40
1.0
 40
1.0
 10
5.6440546363
 20
5.3821124768
 30
0.0
 10
5.6425555745
 20
5.3820637714
 30
0.0
 10
5.6387825509
 20
5.3819505379
 30
0.0
 10
5.6321330826
 20
5.3817924953
 30
0.0
 10
5.6238204953
 20
5.3816658076
 30
0.0
 10
5.6177818673
 20
5.3816341741
 30
0.0
 10
5.6146198638
 20
5.3816341741
 30
0.0
 11
5.6440546363
 21
5.3821124768
 31
0.0
 11
5.6395571045
 21
5.3819775032
 31
0.0
 11
5.6327344671
 21
5.3818153541
 31
0.0
 11
5.6241057443
 21
5.3816838607
 31
0.0
 11
5.6146198638
 21
5.3816341741
 31
0.0
  0
SPLINE
  5
526
100
AcDbEntity
  8
0
100
AcDbSpline
 62
7
  6
CONTINUOUS
 70
0
 71
3
 72
15
 73
11
 74
9
 42
0.0000001
 43
0.0000001
 44
0.0000000001
 12
-0.2213747391
 22
0.4040882383
 32
0.0
 13
0.2213747391
 23
0.4040882383
 33
0.0
 40
0.0
 40
0.0
 40
0.0
 40
0.0
 40
0.1363385306
 40
0.2625242499
 40
0.3826814249
 40
0.5000474403
 40
0.6174094987
 40
0.7375563123
 40
0.8636900968
 40
1.0
 40
1.0
 40
1.0
 40
1.0
 10
3.885592495
 20
3.553560024
 30
0.0
 10
3.8755318595
 20
3.5719242896
 30
0.0
 10
3.857584656
 20
3.6081080653
 30
0.0
 10
3.8371632082
 20
3.6633587831
 30
0.0
 10
3.8246390288
 20
3.7179818257
 30
0.0
 10
3.8203928435
 20
3.7725360732
 30
0.0
 10
3.8246455481
 20
3.8270881708
 30
0.0
 10
3.8371728174
 20
3.8816999545
 30
0.0
 10
3.8575919842
 20
3.9369364306
 30
0.0
 10
3.8755339719
 20
3.9731089316
 30
0.0
 10
3.885592495
 20
3.9914693411
 30
0.0
 11
3.885592495
 21
3.553560024
 31
0.0
 11
3.8579526459
 21
3.6099710378
 31
0.0
 11
3.8380650423
 21
3.6646044249
 31
0.0
 11
3.8259087257
 21
3.7186162024
 31
0.0
 11
3.8217981972
 21
3.7725365893
 31
0.0
 11
3.8259150311
 21
3.8264546667
 31
0.0
 11
3.838075612
 21
3.8804605908
 31
0.0
 11
3.8579578524
 21
3.9350704648
 31
0.0
 11
3.885592495
 21
3.9914693411
 31
0.0
  0
SPLINE
  5
527
100
AcDbEntity
  8
0
100
AcDbSpline
 62
7
  6
CONTINUOUS
 70
0
 71
3
 72
15
 73
11
 74
9
 42
0.0000001
 43
0.0000001
 44
0.0000000001
 12
-0.2344928018
 22
0.8560668082
 32
0.0
 13
0.2344928018
 23
0.8560668082
 33
0.0
 40
0.0
 40
0.0
 40
0.0
 40
0.0
 40
0.130867655
 40
0.2559934432
 40
0.3784643323
 40
0.5000493322
 40
0.6216294027
 40
0.7440877225
 40
0.8691603039
 40
1.0
 40
1.0
 40
1.0
 40
1.0
 10
3.885592495
 20
4.0382553655
 30
0.0
 10
3.8753633207
 20
4.0755991841
 30
0.0
 10
3.8571906875
 20
4.1491742848
 30
0.0
 10
3.8369402889
 20
4.2593790684
 30
0.0
 10
3.824582666
 20
4.3680019272
 30
0.0
 10
3.8204093951
 20
4.4762070821
 30
0.0
 10
3.824589088
 20
4.5844082475
 30
0.0
 10
3.836949903
 20
4.6930096392
 30
0.0
 10
3.8571982453
 20
4.8031864997
 30
0.0
 10
3.8753655061
 20
4.8767381594
 30
0.0
 10
3.885592495
 20
4.9140739997
 30
0.0
 11
3.885592495
 21
4.0382553655
 31
0.0
 11
3.8579526459
 21
4.151077393
 31
0.0
 11
3.8380650423
 21
4.2603441672
 31
0.0
 11
3.8259087257
 21
4.3683677222
 31
0.0
 11
3.8217981972
 21
4.4762084961
 31
0.0
 11
3.8259150311
 21
4.5840446509
 31
0.0
 11
3.838075612
 21
4.6920564989
 31
0.0
 11
3.8579578524
 21
4.801276247
 31
0.0
 11
3.885592495
 21
4.9140739997
 31
0.0
  0
SPLINE
  5
528
100
AcDbEntity
  8
0
100
AcDbSpline
 62
7
  6
CONTINUOUS
 70
0
 71
3
 72
15
 73
11
 74
9
 42
0.0000001
 43
0.0000001
 44
0.0000000001
 12
-0.2213747391
 22
0.4040882383
 32
0.0
 13
0.2213747391
 23
0.4040882383
 33
0.0
 40
0.0
 40
0.0
 40
0.0
 40
0.0
 40
0.1363385306
 40
0.2625242499
 40
0.3826814249
 40
0.5000474403
 40
0.6174094987
 40
0.7375563123
 40
0.8636900968
 40
1.0
 40
1.0
 40
1.0
 40
1.0
 10
3.885592495
 20
4.960860024
 30
0.0
 10
3.8755318595
 20
4.9792242896
 30
0.0
 10
3.857584656
 20
5.0154080653
 30
0.0
 10
3.8371632082
 20
5.0706587831
 30
0.0
 10
3.8246390288
 20
5.1252818257
 30
0.0
 10
3.8203928435
 20
5.1798360732
 30
0.0
 10
3.8246455481
 20
5.2343881708
 30
0.0
 10
3.8371728174
 20
5.2889999545
 30
0.0
 10
3.8575919842
 20
5.3442364306
 30
0.0
 10
3.8755339719
 20
5.3804089316
 30
0.0
 10
3.885592495
 20
5.3987693411
 30
0.0
 11
3.885592495
 21
4.960860024
 31
0.0
 11
3.8579526459
 21
5.0172710378
 31
0.0
 11
3.8380650423
 21
5.0719044249
 31
0.0
 11
3.8259087257
 21
5.1259162024
 31
0.0
 11
3.8217981972
 21
5.1798365893
 31
0.0
 11
3.8259150311
 21
5.2337546667
 31
0.0
 11
3.838075612
 21
5.2877605908
 31
0.0
 11
3.8579578524
 21
5.3423704648
 31
0.0
 11
3.885592495
 21
5.3987693411
 31
0.0
  0
ENDSEC
  0
SECTION
  2
OBJECTS
  0
DICTIONARY
  5
C
100
AcDbDictionary
280
0
281
1
  3
ACAD_GROUP
350
D
  3
ACAD_MLINESTYLE
350
17
  3
ACAD_LAYOUT
350
1A
  3
ACAD_PLOTSETTINGS
350
19
  3
ACAD_PLOTSTYLENAME
350
E
  0
DICTIONARY
  5
D
102
{ACAD_REACTORS
330
C
102
}
100
AcDbDictionary
280
0
281
1
  0
ACDBDICTIONARYWDFLT
  5
E
102
{ACAD_REACTORS
330
C
102
}
100
AcDbDictionary
281
1
  3
Normal
350
F
100
AcDbDictionaryWithDefault
340
F
  0
DICTIONARY
  5
17
102
{ACAD_REACTORS
330
C
102
}
100
AcDbDictionary
280
0
281
1
  3
Standard
350
18
  0
DICTIONARY
  5
19
102
{ACAD_REACTORS
330
C
102
}
100
AcDbDictionary
281
1
  0
DICTIONARY
  5
1A
102
{ACAD_REACTORS
330
C
102
}
100
AcDbDictionary
281
1
  3
Layout1
350
1E
  3
Model
350
22
  0
ACDBPLACEHOLDER
  5
F
102
{ACAD_REACTORS
330
E
102
}
  0
MLINESTYLE
  5
18
102
{ACAD_REACTORS
330
17
102
}
100
AcDbMlineStyle
  2
STANDARD
 70
0
  3

 62
256
 51
90.0
 52
90.0
 71
2
 49
0.5
 62
256
  6
BYLAYER
 49
-0.5
 62
256
  6
BYLAYER
  0
LAYOUT
  5
1E
102
{ACAD_REACTORS
330
1A
102
}
100
AcDbPlotSettings
  1

  2

  4

  6

 40
0.0
 41
0.0
 42
0.0
 43
0.0
 44
0.0
 45
0.0
 46
0.0
 47
0.0
 48
0.0
 49
0.0
140
0.0
141
0.0
142
1.0
143
1.0
 70
0
 72
0
 73
0
 74
0
  7

 75
0
147
1.0
148
0.0
149
0.0
100
AcDbLayout
  1
Layout1
 70
0
 71
0
 10
0.0
 20
0.0
 11
0.0
 21
0.0
 12
0.0
 22
0.0
 32
0.0
 14
0.0
 24
0.0
 34
0.0
 15
0.0
 25
0.0
 35
0.0
146
0.0
 13
0.0
 23
0.0
 33
0.0
 16
0.0
 26
0.0
 36
0.0
 17
0.0
 27
0.0
 37
0.0
 76
0
330
1B
331
0
345
0
346
0
  0
LAYOUT
  5
22
102
{ACAD_REACTORS
330
1A
102
}
100
AcDbPlotSettings
  1

  2

  4

  6

 40
0.0
 41
0.0
 42
0.0
 43
0.0
 44
0.0
 45
0.0
 46
0.0
 47
0.0
 48
0.0
 49
0.0
140
0.0
141
0.0
142
1.0
143
1.0
 70
0
 72
0
 73
0
 74
0
  7

 75
0
147
1.0
148
0.0
149
0.0
100
AcDbLayout
  1
Model
 70
0
 71
0
 10
0.0
 20
0.0
 11
0.0
 21
0.0
 12
0.0
 22
0.0
 32
0.0
 14
0.0
 24
0.0
 34
0.0
 15
0.0
 25
0.0
 35
0.0
146
0.0
 13
0.0
 23
0.0
 33
0.0
 16
0.0
 26
0.0
 36
0.0
 17
0.0
 27
0.0
 37
0.0
 76
0
330
1F
331
0
345
0
346
0
  0
ENDSEC
  0
EOF
