999
DXF file: RSHC-LAN.dxf
999
Pro/ENGINEER 2006240 by Parametric Technology Corporation
  0
SECTION
  2
HEADER
  9
$ACADVER
  1
AC1015
  9
$DWGCODEPAGE
  3
ANSI_1252
  9
$EXTMAX
 10
11.6929133858
 20
8.2677165354
 30
0.0
  9
$EXTMIN
 10
0.0
 20
0.0
 30
0.0
  9
$LIMMIN
 10
0.0
 20
0.0
  9
$LIMMAX
 10
11.6929133858
 20
8.2677165354
  9
$VIEWCTR
 10
5.8464566929
 20
4.1338582677
  9
$VIEWSIZE
 40
8.2677165354
  9
$CLAYER
  8
0
  9
$LTSCALE
 40
0.6431102362
  9
$CELTYPE
  6
BYLAYER
  9
$DIMSCALE
 40
1.0
  9
$DIMASZ
 40
0.1875
  9
$DIMEXO
 40
0.0730807087
  9
$DIMDLI
 40
0.4443307087
  9
$DIMEXE
 40
0.2104724409
  9
$DIMCEN
 40
0.1052362205
  9
$DIMLFAC
 40
1.0
  9
$DIMBLK
  1
_CLOSED
  9
$DIMTXT
 40
0.15625
  9
$DIMTOL
 70
0
  9
$DIMLIM
 70
0
  9
$DIMTFAC
 40
1.0
  9
$PDMODE
 70
3
  9
$PDSIZE
 40
0.3125
  9
$HANDSEED
  5
522
  9
$MEASUREMENT
 70
0
  9
$INSUNITS
 70
1
  0
ENDSEC
  0
SECTION
  2
CLASSES
  0
CLASS
  1
ACDBDICTIONARYWDFLT
  2
AcDbDictionaryWithDefault
  3
AutoCAD 2000
 90
0
280
0
281
0
  0
CLASS
  1
ACDBPLACEHOLDER
  2
AcDbPlaceHolder
  3
AutoCAD 2000
 90
0
280
0
281
0
  0
CLASS
  1
LAYOUT
  2
AcDbLayout
  3
AutoCAD 2000
 90
0
280
0
281
0
  0
ENDSEC
  0
SECTION
  2
TABLES
  0
TABLE
  2
VPORT
  5
8
100
AcDbSymbolTable
 70
2
  0
VPORT
  5
1F4
100
AcDbSymbolTableRecord
100
AcDbViewportTableRecord
  2
*ACTIVE
 70
0
 10
0.0
 20
0.0
 11
1.0
 21
1.0
 12
5.8464566929
 22
4.1338582677
 13
0.0
 23
0.0
 14
1.0
 24
1.0
 15
0.0
 25
0.0
 16
0.0
 26
0.0
 36
1.0
 17
0.0
 27
0.0
 37
0.0
 40
8.2677165354
 41
1.4142857143
 42
50.0
 43
0.0
 44
0.0
 50
0.0
 51
0.0
 71
0
 72
100
 73
1
 74
1
 75
0
 76
0
 77
0
 78
0
  0
ENDTAB
  0
TABLE
  2
LTYPE
  5
5
100
AcDbSymbolTable
 70
6
  0
LTYPE
  5
14
100
AcDbSymbolTableRecord
100
AcDbLinetypeTableRecord
  2
BYBLOCK
 70
0
  3

 72
65
 73
0
 40
0.0
  0
LTYPE
  5
15
100
AcDbSymbolTableRecord
100
AcDbLinetypeTableRecord
  2
BYLAYER
 70
0
  3

 72
65
 73
0
 40
0.0
  0
LTYPE
  5
16
100
AcDbSymbolTableRecord
100
AcDbLinetypeTableRecord
  2
CONTINUOUS
 70
64
  3
Solid line
 72
65
 73
0
 40
0.0
  0
LTYPE
  5
1F5
100
AcDbSymbolTableRecord
100
AcDbLinetypeTableRecord
  2
CENTER
 70
64
  3
____ _ ____ _ ____ _ ____ _ ____ _ ____ _ ____
 72
65
 73
4
 40
0.6
 49
0.375
 74
0
 49
-0.075
 74
0
 49
0.075
 74
0
 49
-0.075
 74
0
  0
LTYPE
  5
1F6
100
AcDbSymbolTableRecord
100
AcDbLinetypeTableRecord
  2
HIDDEN
 70
64
  3
- - - - - - - - - - - - - - - - - - - -
 72
65
 73
2
 40
0.2
 49
0.1
 74
0
 49
-0.1
 74
0
  0
LTYPE
  5
1F7
100
AcDbSymbolTableRecord
100
AcDbLinetypeTableRecord
  2
PHANTOM
 70
64
  3
_____ _ _ _____ _ _ _____ _ _ _____
 72
65
 73
6
 40
0.8
 49
0.45
 74
0
 49
-0.05
 74
0
 49
0.1
 74
0
 49
-0.05
 74
0
 49
0.1
 74
0
 49
-0.05
 74
0
  0
LTYPE
  5
1F8
100
AcDbSymbolTableRecord
100
AcDbLinetypeTableRecord
  2
DOT
 70
64
  3
. . . . . . . . . . . . . . . . . . . .
 72
65
 73
2
 40
0.2
 49
0.1
 74
0
 49
-0.1
 74
0
  0
LTYPE
  5
1F9
100
AcDbSymbolTableRecord
100
AcDbLinetypeTableRecord
  2
DASHED
 70
64
  3
- - - - - - - - - - - - - - - - - - - -
 72
65
 73
2
 40
0.2
 49
0.1
 74
0
 49
-0.1
 74
0
  0
ENDTAB
  0
TABLE
  2
LAYER
  5
2
100
AcDbSymbolTable
 70
36
  0
LAYER
  5
10
100
AcDbSymbolTableRecord
100
AcDbLayerTableRecord
  2
0
 70
0
 62
7
  6
CONTINUOUS
370
-3
390
F
  0
LAYER
  5
1FA
100
AcDbSymbolTableRecord
100
AcDbLayerTableRecord
  2
DEFAULT_1
 70
0
 62
7
  6
CENTER
370
-3
390
F
  0
LAYER
  5
1FB
100
AcDbSymbolTableRecord
100
AcDbLayerTableRecord
  2
DEFAULT_2
 70
0
 62
8
  6
HIDDEN
370
-3
390
F
  0
LAYER
  5
1FC
100
AcDbSymbolTableRecord
100
AcDbLayerTableRecord
  2
DEFAULT_3
 70
0
 62
7
  6
PHANTOM
370
-3
390
F
  0
LAYER
  5
1FD
100
AcDbSymbolTableRecord
100
AcDbLayerTableRecord
  2
_BLACK_HOLE
 70
0
 62
7
  6
CONTINUOUS
370
-3
390
F
  0
LAYER
  5
1FE
100
AcDbSymbolTableRecord
100
AcDbLayerTableRecord
  2
01_ALL_DTM_PLN
 70
0
 62
7
  6
CONTINUOUS
370
-3
390
F
  0
LAYER
  5
1FF
100
AcDbSymbolTableRecord
100
AcDbLayerTableRecord
  2
01__ASM_ALL_DTM_PLN
 70
0
 62
7
  6
CONTINUOUS
370
-3
390
F
  0
LAYER
  5
200
100
AcDbSymbolTableRecord
100
AcDbLayerTableRecord
  2
01__ASM_DEF_DTM_PLN
 70
0
 62
7
  6
CONTINUOUS
370
-3
390
F
  0
LAYER
  5
201
100
AcDbSymbolTableRecord
100
AcDbLayerTableRecord
  2
01___PRT_ALL_DTM_PLN
 70
0
 62
7
  6
CONTINUOUS
370
-3
390
F
  0
LAYER
  5
202
100
AcDbSymbolTableRecord
100
AcDbLayerTableRecord
  2
01___PRT_DEF_DTM_PLN
 70
0
 62
7
  6
CONTINUOUS
370
-3
390
F
  0
LAYER
  5
203
100
AcDbSymbolTableRecord
100
AcDbLayerTableRecord
  2
02_ALL_AXES
 70
0
 62
7
  6
CONTINUOUS
370
-3
390
F
  0
LAYER
  5
204
100
AcDbSymbolTableRecord
100
AcDbLayerTableRecord
  2
02__ASM_ALL_AXES
 70
0
 62
7
  6
CONTINUOUS
370
-3
390
F
  0
LAYER
  5
205
100
AcDbSymbolTableRecord
100
AcDbLayerTableRecord
  2
02___PRT_ALL_AXES
 70
0
 62
7
  6
CONTINUOUS
370
-3
390
F
  0
LAYER
  5
206
100
AcDbSymbolTableRecord
100
AcDbLayerTableRecord
  2
03_ALL_CURVES
 70
0
 62
7
  6
CONTINUOUS
370
-3
390
F
  0
LAYER
  5
207
100
AcDbSymbolTableRecord
100
AcDbLayerTableRecord
  2
03__ASM_ALL_CURVES
 70
0
 62
7
  6
CONTINUOUS
370
-3
390
F
  0
LAYER
  5
208
100
AcDbSymbolTableRecord
100
AcDbLayerTableRecord
  2
03___PRT_ALL_CURVES
 70
0
 62
7
  6
CONTINUOUS
370
-3
390
F
  0
LAYER
  5
209
100
AcDbSymbolTableRecord
100
AcDbLayerTableRecord
  2
04_ALL_DTM_PNT
 70
0
 62
7
  6
CONTINUOUS
370
-3
390
F
  0
LAYER
  5
20A
100
AcDbSymbolTableRecord
100
AcDbLayerTableRecord
  2
04__ASM_ALL_DTM_PNT
 70
0
 62
7
  6
CONTINUOUS
370
-3
390
F
  0
LAYER
  5
20B
100
AcDbSymbolTableRecord
100
AcDbLayerTableRecord
  2
04___PRT_ALL_DTM_PNT
 70
0
 62
7
  6
CONTINUOUS
370
-3
390
F
  0
LAYER
  5
20C
100
AcDbSymbolTableRecord
100
AcDbLayerTableRecord
  2
05_ALL_DTM_CSYS
 70
0
 62
7
  6
CONTINUOUS
370
-3
390
F
  0
LAYER
  5
20D
100
AcDbSymbolTableRecord
100
AcDbLayerTableRecord
  2
05__ASM_ALL_DTM_CSYS
 70
0
 62
7
  6
CONTINUOUS
370
-3
390
F
  0
LAYER
  5
20E
100
AcDbSymbolTableRecord
100
AcDbLayerTableRecord
  2
05__ASM_DEF_DTM_CSYS
 70
0
 62
7
  6
CONTINUOUS
370
-3
390
F
  0
LAYER
  5
20F
100
AcDbSymbolTableRecord
100
AcDbLayerTableRecord
  2
05___PRT_ALL_DTM_CSYS
 70
0
 62
7
  6
CONTINUOUS
370
-3
390
F
  0
LAYER
  5
210
100
AcDbSymbolTableRecord
100
AcDbLayerTableRecord
  2
05___PRT_DEF_DTM_CSYS
 70
0
 62
7
  6
CONTINUOUS
370
-3
390
F
  0
LAYER
  5
211
100
AcDbSymbolTableRecord
100
AcDbLayerTableRecord
  2
06_ALL_SURFS
 70
0
 62
7
  6
CONTINUOUS
370
-3
390
F
  0
LAYER
  5
212
100
AcDbSymbolTableRecord
100
AcDbLayerTableRecord
  2
06__ASM_ALL_SURFS
 70
0
 62
7
  6
CONTINUOUS
370
-3
390
F
  0
LAYER
  5
213
100
AcDbSymbolTableRecord
100
AcDbLayerTableRecord
  2
06___PRT_ALL_SURFS
 70
0
 62
7
  6
CONTINUOUS
370
-3
390
F
  0
LAYER
  5
214
100
AcDbSymbolTableRecord
100
AcDbLayerTableRecord
  2
07__ASM_ALL_SKELETONS
 70
0
 62
7
  6
CONTINUOUS
370
-3
390
F
  0
LAYER
  5
215
100
AcDbSymbolTableRecord
100
AcDbLayerTableRecord
  2
128-001_FEATURES
 70
0
 62
7
  6
CONTINUOUS
370
-3
390
F
  0
LAYER
  5
216
100
AcDbSymbolTableRecord
100
AcDbLayerTableRecord
  2
128-001_REF_GEOMETRY
 70
0
 62
7
  6
CONTINUOUS
370
-3
390
F
  0
LAYER
  5
217
100
AcDbSymbolTableRecord
100
AcDbLayerTableRecord
  2
128-004_FEATURES
 70
0
 62
7
  6
CONTINUOUS
370
-3
390
F
  0
LAYER
  5
218
100
AcDbSymbolTableRecord
100
AcDbLayerTableRecord
  2
128-004_REF_GEOMETRY
 70
0
 62
7
  6
CONTINUOUS
370
-3
390
F
  0
LAYER
  5
219
100
AcDbSymbolTableRecord
100
AcDbLayerTableRecord
  2
128-017_FEATURES
 70
0
 62
7
  6
CONTINUOUS
370
-3
390
F
  0
LAYER
  5
21A
100
AcDbSymbolTableRecord
100
AcDbLayerTableRecord
  2
128-017_REF_GEOMETRY
 70
0
 62
7
  6
CONTINUOUS
370
-3
390
F
  0
LAYER
  5
21B
100
AcDbSymbolTableRecord
100
AcDbLayerTableRecord
  2
128-400_FEATURES
 70
0
 62
7
  6
CONTINUOUS
370
-3
390
F
  0
LAYER
  5
21C
100
AcDbSymbolTableRecord
100
AcDbLayerTableRecord
  2
128-400_REF_GEOMETRY
 70
0
 62
7
  6
CONTINUOUS
370
-3
390
F
  0
LAYER
  5
21D
100
AcDbSymbolTableRecord
100
AcDbLayerTableRecord
  2
128-401_FEATURES
 70
0
 62
7
  6
CONTINUOUS
370
-3
390
F
  0
LAYER
  5
21E
100
AcDbSymbolTableRecord
100
AcDbLayerTableRecord
  2
128-401_REF_GEOMETRY
 70
0
 62
7
  6
CONTINUOUS
370
-3
390
F
  0
LAYER
  5
21F
100
AcDbSymbolTableRecord
100
AcDbLayerTableRecord
  2
128-402_FEATURES
 70
0
 62
7
  6
CONTINUOUS
370
-3
390
F
  0
LAYER
  5
220
100
AcDbSymbolTableRecord
100
AcDbLayerTableRecord
  2
128-402_REF_GEOMETRY
 70
0
 62
7
  6
CONTINUOUS
370
-3
390
F
  0
LAYER
  5
221
100
AcDbSymbolTableRecord
100
AcDbLayerTableRecord
  2
128-403_FEATURES
 70
0
 62
7
  6
CONTINUOUS
370
-3
390
F
  0
LAYER
  5
222
100
AcDbSymbolTableRecord
100
AcDbLayerTableRecord
  2
128-403_REF_GEOMETRY
 70
0
 62
7
  6
CONTINUOUS
370
-3
390
F
  0
LAYER
  5
223
100
AcDbSymbolTableRecord
100
AcDbLayerTableRecord
  2
128-404_FEATURES
 70
0
 62
7
  6
CONTINUOUS
370
-3
390
F
  0
LAYER
  5
224
100
AcDbSymbolTableRecord
100
AcDbLayerTableRecord
  2
128-404_REF_GEOMETRY
 70
0
 62
7
  6
CONTINUOUS
370
-3
390
F
  0
LAYER
  5
225
100
AcDbSymbolTableRecord
100
AcDbLayerTableRecord
  2
128-405_FEATURES
 70
0
 62
7
  6
CONTINUOUS
370
-3
390
F
  0
LAYER
  5
226
100
AcDbSymbolTableRecord
100
AcDbLayerTableRecord
  2
128-405_REF_GEOMETRY
 70
0
 62
7
  6
CONTINUOUS
370
-3
390
F
  0
LAYER
  5
227
100
AcDbSymbolTableRecord
100
AcDbLayerTableRecord
  2
128-406_FEATURES
 70
0
 62
7
  6
CONTINUOUS
370
-3
390
F
  0
LAYER
  5
228
100
AcDbSymbolTableRecord
100
AcDbLayerTableRecord
  2
128-406_REF_GEOMETRY
 70
0
 62
7
  6
CONTINUOUS
370
-3
390
F
  0
LAYER
  5
229
100
AcDbSymbolTableRecord
100
AcDbLayerTableRecord
  2
128-407_FEATURES
 70
0
 62
7
  6
CONTINUOUS
370
-3
390
F
  0
LAYER
  5
22A
100
AcDbSymbolTableRecord
100
AcDbLayerTableRecord
  2
128-407_REF_GEOMETRY
 70
0
 62
7
  6
CONTINUOUS
370
-3
390
F
  0
LAYER
  5
22B
100
AcDbSymbolTableRecord
100
AcDbLayerTableRecord
  2
128-408_FEATURES
 70
0
 62
7
  6
CONTINUOUS
370
-3
390
F
  0
LAYER
  5
22C
100
AcDbSymbolTableRecord
100
AcDbLayerTableRecord
  2
128-408_REF_GEOMETRY
 70
0
 62
7
  6
CONTINUOUS
370
-3
390
F
  0
LAYER
  5
22D
100
AcDbSymbolTableRecord
100
AcDbLayerTableRecord
  2
COPY_GEO_FET
 70
0
 62
7
  6
CONTINUOUS
370
-3
390
F
  0
LAYER
  5
22E
100
AcDbSymbolTableRecord
100
AcDbLayerTableRecord
  2
COSMETIC
 70
0
 62
7
  6
CONTINUOUS
370
-3
390
F
  0
LAYER
  5
22F
100
AcDbSymbolTableRecord
100
AcDbLayerTableRecord
  2
COSM_REF
 70
0
 62
7
  6
CONTINUOUS
370
-3
390
F
  0
LAYER
  5
230
100
AcDbSymbolTableRecord
100
AcDbLayerTableRecord
  2
CURVES
 70
0
 62
7
  6
CONTINUOUS
370
-3
390
F
  0
LAYER
  5
231
100
AcDbSymbolTableRecord
100
AcDbLayerTableRecord
  2
CUT_REF_SURF
 70
0
 62
7
  6
CONTINUOUS
370
-3
390
F
  0
LAYER
  5
232
100
AcDbSymbolTableRecord
100
AcDbLayerTableRecord
  2
DATUM
 70
0
 62
7
  6
CONTINUOUS
370
-3
390
F
  0
LAYER
  5
233
100
AcDbSymbolTableRecord
100
AcDbLayerTableRecord
  2
DATUMCURVES
 70
0
 62
7
  6
CONTINUOUS
370
-3
390
F
  0
LAYER
  5
234
100
AcDbSymbolTableRecord
100
AcDbLayerTableRecord
  2
DIMENSIONS
 70
0
 62
7
  6
CONTINUOUS
370
-3
390
F
  0
LAYER
  5
235
100
AcDbSymbolTableRecord
100
AcDbLayerTableRecord
  2
DRAWINGNOTES
 70
0
 62
7
  6
CONTINUOUS
370
-3
390
F
  0
LAYER
  5
236
100
AcDbSymbolTableRecord
100
AcDbLayerTableRecord
  2
DTM
 70
0
 62
7
  6
CONTINUOUS
370
-3
390
F
  0
LAYER
  5
237
100
AcDbSymbolTableRecord
100
AcDbLayerTableRecord
  2
DTM230
 70
0
 62
7
  6
CONTINUOUS
370
-3
390
F
  0
LAYER
  5
238
100
AcDbSymbolTableRecord
100
AcDbLayerTableRecord
  2
DTM_500001
 70
0
 62
7
  6
CONTINUOUS
370
-3
390
F
  0
LAYER
  5
239
100
AcDbSymbolTableRecord
100
AcDbLayerTableRecord
  2
DTM_500002
 70
0
 62
7
  6
CONTINUOUS
370
-3
390
F
  0
LAYER
  5
23A
100
AcDbSymbolTableRecord
100
AcDbLayerTableRecord
  2
DTM_515002
 70
0
 62
7
  6
CONTINUOUS
370
-3
390
F
  0
LAYER
  5
23B
100
AcDbSymbolTableRecord
100
AcDbLayerTableRecord
  2
DTM_525001
 70
0
 62
7
  6
CONTINUOUS
370
-3
390
F
  0
LAYER
  5
23C
100
AcDbSymbolTableRecord
100
AcDbLayerTableRecord
  2
DTM_530-102
 70
0
 62
7
  6
CONTINUOUS
370
-3
390
F
  0
LAYER
  5
23D
100
AcDbSymbolTableRecord
100
AcDbLayerTableRecord
  2
DTM_800001
 70
0
 62
7
  6
CONTINUOUS
370
-3
390
F
  0
LAYER
  5
23E
100
AcDbSymbolTableRecord
100
AcDbLayerTableRecord
  2
DTM_BALLHOLDER
 70
0
 62
7
  6
CONTINUOUS
370
-3
390
F
  0
LAYER
  5
23F
100
AcDbSymbolTableRecord
100
AcDbLayerTableRecord
  2
DTM_SPRING_RH
 70
0
 62
7
  6
CONTINUOUS
370
-3
390
F
  0
LAYER
  5
240
100
AcDbSymbolTableRecord
100
AcDbLayerTableRecord
  2
DTM_SP_RH_CONSTR
 70
0
 62
7
  6
CONTINUOUS
370
-3
390
F
  0
LAYER
  5
241
100
AcDbSymbolTableRecord
100
AcDbLayerTableRecord
  2
FACE1
 70
0
 62
7
  6
CONTINUOUS
370
-3
390
F
  0
LAYER
  5
242
100
AcDbSymbolTableRecord
100
AcDbLayerTableRecord
  2
FACE2
 70
0
 62
7
  6
CONTINUOUS
370
-3
390
F
  0
LAYER
  5
243
100
AcDbSymbolTableRecord
100
AcDbLayerTableRecord
  2
FACE3
 70
0
 62
7
  6
CONTINUOUS
370
-3
390
F
  0
LAYER
  5
244
100
AcDbSymbolTableRecord
100
AcDbLayerTableRecord
  2
FACE4
 70
0
 62
7
  6
CONTINUOUS
370
-3
390
F
  0
LAYER
  5
245
100
AcDbSymbolTableRecord
100
AcDbLayerTableRecord
  2
GEOMETRICTOLERANCES
 70
0
 62
7
  6
CONTINUOUS
370
-3
390
F
  0
LAYER
  5
246
100
AcDbSymbolTableRecord
100
AcDbLayerTableRecord
  2
LAY0001
 70
0
 62
7
  6
CONTINUOUS
370
-3
390
F
  0
LAYER
  5
247
100
AcDbSymbolTableRecord
100
AcDbLayerTableRecord
  2
PARAMETERDIMENSIONS
 70
0
 62
7
  6
CONTINUOUS
370
-3
390
F
  0
LAYER
  5
248
100
AcDbSymbolTableRecord
100
AcDbLayerTableRecord
  2
PART
 70
0
 62
7
  6
CONTINUOUS
370
-3
390
F
  0
LAYER
  5
249
100
AcDbSymbolTableRecord
100
AcDbLayerTableRecord
  2
PLANE
 70
0
 62
7
  6
CONTINUOUS
370
-3
390
F
  0
LAYER
  5
24A
100
AcDbSymbolTableRecord
100
AcDbLayerTableRecord
  2
PROTRUSIONS
 70
0
 62
7
  6
CONTINUOUS
370
-3
390
F
  0
LAYER
  5
24B
100
AcDbSymbolTableRecord
100
AcDbLayerTableRecord
  2
S-164_NPTF_PORT
 70
0
 62
7
  6
CONTINUOUS
370
-3
390
F
  0
LAYER
  5
24C
100
AcDbSymbolTableRecord
100
AcDbLayerTableRecord
  2
SUN_STD_SAE-4_PORT
 70
0
 62
7
  6
CONTINUOUS
370
-3
390
F
  0
LAYER
  5
24D
100
AcDbSymbolTableRecord
100
AcDbLayerTableRecord
  2
TEXT
 70
0
 62
7
  6
CONTINUOUS
370
-3
390
F
  0
LAYER
  5
24E
100
AcDbSymbolTableRecord
100
AcDbLayerTableRecord
  2
THREAD
 70
0
 62
7
  6
CONTINUOUS
370
-3
390
F
  0
ENDTAB
  0
TABLE
  2
STYLE
  5
3
100
AcDbSymbolTable
 70
1
  0
STYLE
  5
11
100
AcDbSymbolTableRecord
100
AcDbTextStyleTableRecord
  2
STANDARD
 70
0
 40
0.0
 41
0.8
 50
0.0
 71
0
 42
0.2
  3
txt
  4

  0
ENDTAB
  0
TABLE
  2
VIEW
  5
6
100
AcDbSymbolTable
 70
0
  0
ENDTAB
  0
TABLE
  2
UCS
  5
7
100
AcDbSymbolTable
 70
0
  0
ENDTAB
  0
TABLE
  2
APPID
  5
9
100
AcDbSymbolTable
 70
1
  0
APPID
  5
24F
100
AcDbSymbolTableRecord
100
AcDbRegAppTableRecord
  2
ACAD
 70
0
  0
ENDTAB
  0
TABLE
  2
BLOCK_RECORD
  5
1
100
AcDbSymbolTable
 70
0
  0
BLOCK_RECORD
  5
1F
100
AcDbSymbolTableRecord
100
AcDbBlockTableRecord
  2
*MODEL_SPACE
  0
BLOCK_RECORD
  5
1B
100
AcDbSymbolTableRecord
100
AcDbBlockTableRecord
  2
*PAPER_SPACE
  0
ENDTAB
  0
TABLE
  2
DIMSTYLE
  5
A
100
AcDbSymbolTable
 70
1
100
AcDbDimStyleTable
 71
0
  0
DIMSTYLE
105
250
100
AcDbSymbolTableRecord
100
AcDbDimStyleTableRecord
  2
STANDARD
 70
0
  3

  4

 40
1.0
 41
0.1875
 42
0.0625
 43
0.38
 44
0.18
 45
0.0
 46
0.0
 47
0.01
 48
0.01
140
0.15625
141
0.09
142
0.0
143
25.4
144
1.0
145
0.0
146
1.0
147
0.09
 71
0.0
 72
0.0
 73
1
 74
1
 75
0
 76
0
 77
0
 78
4
170
0
171
2
172
0
173
0
174
0
175
0
176
0
177
0
178
0
270
2
271
2
272
2
273
2
274
2
275
0
280
0
281
0
282
0
283
1
284
4
285
0
286
0
287
3
288
0
340
11
  0
ENDTAB
  0
ENDSEC
  0
SECTION
  2
BLOCKS
  0
BLOCK
  5
20
100
AcDbEntity
  8
0
100
AcDbBlockBegin
  2
*MODEL_SPACE
 70
0
 10
0.0
 20
0.0
 30
0.0
  3
*MODEL_SPACE
  1

  0
ENDBLK
  5
21
100
AcDbEntity
  8
0
100
AcDbBlockEnd
  0
BLOCK
  5
1C
100
AcDbEntity
  8
0
100
AcDbBlockBegin
  2
*PAPER_SPACE
 70
0
 10
0.0
 20
0.0
 30
0.0
  3
*PAPER_SPACE
  1

  0
ENDBLK
  5
1D
100
AcDbEntity
  8
0
100
AcDbBlockEnd
  0
ENDSEC
  0
SECTION
  2
ENTITIES
  0
LINE
  5
251
100
AcDbEntity
  8
0
100
AcDbLine
 62
7
  6
CONTINUOUS
 10
2.8249169344
 20
4.5242629326
 11
2.8249169344
 21
4.2182629326
  0
LINE
  5
252
100
AcDbEntity
  8
03__ASM_ALL_CURVES
100
AcDbLine
 62
40
  6
CONTINUOUS
 10
2.8249169344
 20
4.5242629326
 11
2.8249169344
 21
5.4376869326
  0
LINE
  5
253
100
AcDbEntity
  8
0
100
AcDbLine
 62
7
  6
CONTINUOUS
 10
2.8559169344
 20
4.5552629326
 11
2.8559169344
 21
4.1872629326
  0
LINE
  5
254
100
AcDbEntity
  8
03__ASM_ALL_CURVES
100
AcDbLine
 62
40
  6
CONTINUOUS
 10
2.9777369344
 20
5.4122169326
 11
2.9777369344
 21
5.3612769326
  0
LINE
  5
255
100
AcDbEntity
  8
0
100
AcDbLine
 62
7
  6
CONTINUOUS
 10
3.0549169344
 20
4.5552629326
 11
3.0549169344
 21
4.1872629326
  0
LINE
  5
256
100
AcDbEntity
  8
0
100
AcDbLine
 62
7
  6
CONTINUOUS
 10
3.0564169344
 20
4.2101199396
 11
3.0564169344
 21
4.4473865014
  0
LINE
  5
257
100
AcDbEntity
  8
0
100
AcDbLine
 62
7
  6
CONTINUOUS
 10
3.0914169344
 20
4.2101199396
 11
3.0914169344
 21
4.4473865014
  0
LINE
  5
258
100
AcDbEntity
  8
0
100
AcDbLine
 62
7
  6
CONTINUOUS
 10
3.0929169344
 20
4.5552629326
 11
3.0929169344
 21
4.1872629326
  0
LINE
  5
259
100
AcDbEntity
  8
0
100
AcDbLine
 62
7
  6
CONTINUOUS
 10
3.3249169344
 20
4.1236117475
 11
3.3249169344
 21
4.6189141177
  0
LINE
  5
25A
100
AcDbEntity
  8
0
100
AcDbLine
 62
7
  6
CONTINUOUS
 10
3.3869169344
 20
4.1002629326
 11
3.3869169344
 21
4.6422629326
  0
LINE
  5
25B
100
AcDbEntity
  8
0
100
AcDbLine
 62
7
  6
CONTINUOUS
 10
3.3929169344
 20
4.1002629326
 11
3.3929169344
 21
4.6422629326
  0
LINE
  5
25C
100
AcDbEntity
  8
0
100
AcDbLine
 62
7
  6
CONTINUOUS
 10
3.3984169344
 20
4.1057629326
 11
3.3984169344
 21
4.6367629326
  0
LINE
  5
25D
100
AcDbEntity
  8
0
100
AcDbLine
 62
7
  6
CONTINUOUS
 10
3.4144169344
 20
4.1057629326
 11
3.4144169344
 21
4.6367629326
  0
LINE
  5
25E
100
AcDbEntity
  8
0
100
AcDbLine
 62
7
  6
CONTINUOUS
 10
3.6059169344
 20
4.1002629326
 11
3.6059169344
 21
4.6422629326
  0
LINE
  5
25F
100
AcDbEntity
  8
0
100
AcDbLine
 62
7
  6
CONTINUOUS
 10
3.6369169344
 20
3.8392629326
 11
3.6369169344
 21
4.9032629326
  0
LINE
  5
260
100
AcDbEntity
  8
03__ASM_ALL_CURVES
100
AcDbLine
 62
40
  6
CONTINUOUS
 10
3.8605044344
 20
5.5331994326
 11
3.8525450594
 21
5.5225869351
  0
LINE
  5
261
100
AcDbEntity
  8
03__ASM_ALL_CURVES
100
AcDbLine
 62
40
  6
CONTINUOUS
 10
3.8684638094
 20
5.4695244326
 11
3.8525450594
 21
5.4482994329
  0
LINE
  5
262
100
AcDbEntity
  8
03__ASM_ALL_CURVES
100
AcDbLine
 62
40
  6
CONTINUOUS
 10
4.0515294344
 20
5.5438119301
 11
4.0594888094
 21
5.5544244351
  0
LINE
  5
263
100
AcDbEntity
  8
0
100
AcDbLine
 62
7
  6
CONTINUOUS
 10
2.8249169344
 20
4.5242629326
 11
2.8559169344
 21
4.5552629326
  0
LINE
  5
264
100
AcDbEntity
  8
03__ASM_ALL_CURVES
100
AcDbLine
 62
40
  6
CONTINUOUS
 10
3.8047888094
 20
5.5544244351
 11
3.8207075594
 21
5.5650369326
  0
LINE
  5
265
100
AcDbEntity
  8
0
100
AcDbLine
 62
7
  6
CONTINUOUS
 10
2.8249169344
 20
4.2182629326
 11
2.8559169344
 21
4.1872629326
  0
LINE
  5
266
100
AcDbEntity
  8
0
100
AcDbLine
 62
7
  6
CONTINUOUS
 10
3.6989169344
 20
3.7772629326
 11
3.6989169344
 21
4.9652629326
  0
LINE
  5
267
100
AcDbEntity
  8
03__ASM_ALL_CURVES
100
AcDbLine
 62
40
  6
CONTINUOUS
 10
3.8605044344
 20
5.5438119301
 11
3.8605044344
 21
5.5331994326
  0
LINE
  5
268
100
AcDbEntity
  8
03__ASM_ALL_CURVES
100
AcDbLine
 62
40
  6
CONTINUOUS
 10
3.8684638094
 20
5.4801369339
 11
3.8684638094
 21
5.4695244326
  0
LINE
  5
269
100
AcDbEntity
  8
03__ASM_ALL_CURVES
100
AcDbLine
 62
40
  6
CONTINUOUS
 10
4.0594888094
 20
5.4695244326
 11
4.0515294344
 21
5.4376869326
  0
LINE
  5
26A
100
AcDbEntity
  8
03__ASM_ALL_CURVES
100
AcDbLine
 62
40
  6
CONTINUOUS
 10
4.0754075594
 20
5.4907494313
 11
4.0594888094
 21
5.4695244326
  0
LINE
  5
26B
100
AcDbEntity
  8
03__ASM_ALL_CURVES
100
AcDbLine
 62
40
  6
CONTINUOUS
 10
4.1152044344
 20
5.5225869351
 11
4.1072450594
 21
5.5119744301
  0
LINE
  5
26C
100
AcDbEntity
  8
03__ASM_ALL_CURVES
100
AcDbLine
 62
40
  6
CONTINUOUS
 10
4.1788794344
 20
5.5438119301
 11
4.1868388094
 21
5.5544244351
  0
LINE
  5
26D
100
AcDbEntity
  8
03__ASM_ALL_CURVES
100
AcDbLine
 62
40
  6
CONTINUOUS
 10
4.1709200594
 20
5.4801369339
 11
4.1868388094
 21
5.5013619326
  0
LINE
  5
26E
100
AcDbEntity
  8
03__ASM_ALL_CURVES
100
AcDbLine
 62
40
  6
CONTINUOUS
 10
4.2425544344
 20
5.5331994326
 11
4.2345950594
 21
5.5225869351
  0
LINE
  5
26F
100
AcDbEntity
  8
03__ASM_ALL_CURVES
100
AcDbLine
 62
40
  6
CONTINUOUS
 10
4.2505138094
 20
5.4695244326
 11
4.2345950594
 21
5.4482994329
  0
LINE
  5
270
100
AcDbEntity
  8
03__ASM_ALL_CURVES
100
AcDbLine
 62
40
  6
CONTINUOUS
 10
4.3460263094
 20
5.5650369326
 11
4.3301075594
 21
5.5438119301
  0
LINE
  5
271
100
AcDbEntity
  8
0
100
AcDbLine
 62
7
  6
CONTINUOUS
 10
3.6989169344
 20
4.9652629326
 11
3.6369169344
 21
4.9032629326
  0
LINE
  5
272
100
AcDbEntity
  8
0
100
AcDbLine
 62
7
  6
CONTINUOUS
 10
3.42991772
 20
4.6522637182
 11
3.4144169344
 21
4.6367629326
  0
LINE
  5
273
100
AcDbEntity
  8
03__ASM_ALL_CURVES
100
AcDbLine
 62
40
  6
CONTINUOUS
 10
3.8525450594
 20
5.5225869351
 11
3.8366263094
 21
5.5119744301
  0
LINE
  5
274
100
AcDbEntity
  8
03__ASM_ALL_CURVES
100
AcDbLine
 62
40
  6
CONTINUOUS
 10
3.8525450594
 20
5.4482994329
 11
3.8366263094
 21
5.4376869326
  0
LINE
  5
275
100
AcDbEntity
  8
03__ASM_ALL_CURVES
100
AcDbLine
 62
40
  6
CONTINUOUS
 10
4.0594888094
 20
5.5544244351
 11
4.0754075594
 21
5.5650369326
  0
LINE
  5
276
100
AcDbEntity
  8
03__ASM_ALL_CURVES
100
AcDbLine
 62
40
  6
CONTINUOUS
 10
4.1072450594
 20
5.5119744301
 11
4.0754075594
 21
5.4907494313
  0
LINE
  5
277
100
AcDbEntity
  8
03__ASM_ALL_CURVES
100
AcDbLine
 62
40
  6
CONTINUOUS
 10
4.1868388094
 20
5.5544244351
 11
4.2027575594
 21
5.5650369326
  0
LINE
  5
278
100
AcDbEntity
  8
03__ASM_ALL_CURVES
100
AcDbLine
 62
40
  6
CONTINUOUS
 10
3.9480575594
 20
5.4376869326
 11
3.9480575594
 21
5.4482994329
  0
LINE
  5
279
100
AcDbEntity
  8
03__ASM_ALL_CURVES
100
AcDbLine
 62
40
  6
CONTINUOUS
 10
4.3301075594
 20
5.5438119301
 11
4.3221481844
 21
5.5119744301
  0
LINE
  5
27A
100
AcDbEntity
  8
0
100
AcDbLine
 62
7
  6
CONTINUOUS
 10
3.6059169344
 20
4.1002629326
 11
3.5998221623
 21
4.0897064776
  0
LINE
  5
27B
100
AcDbEntity
  8
03__ASM_ALL_CURVES
100
AcDbLine
 62
40
  6
CONTINUOUS
 10
4.4335794344
 20
5.5438119301
 11
4.4415388094
 21
5.5544244351
  0
LINE
  5
27C
100
AcDbEntity
  8
03__ASM_ALL_CURVES
100
AcDbLine
 62
40
  6
CONTINUOUS
 10
4.4256200594
 20
5.4801369339
 11
4.4415388094
 21
5.5013619326
  0
LINE
  5
27D
100
AcDbEntity
  8
03__ASM_ALL_CURVES
100
AcDbLine
 62
40
  6
CONTINUOUS
 10
4.4972544344
 20
5.5331994326
 11
4.4892950594
 21
5.5225869351
  0
LINE
  5
27E
100
AcDbEntity
  8
03__ASM_ALL_CURVES
100
AcDbLine
 62
40
  6
CONTINUOUS
 10
4.5052138094
 20
5.4695244326
 11
4.4892950594
 21
5.4482994329
  0
LINE
  5
27F
100
AcDbEntity
  8
03__ASM_ALL_CURVES
100
AcDbLine
 62
40
  6
CONTINUOUS
 10
4.1868388094
 20
5.5013619326
 11
4.2027575594
 21
5.5119744301
  0
LINE
  5
280
100
AcDbEntity
  8
03__ASM_ALL_CURVES
100
AcDbLine
 62
40
  6
CONTINUOUS
 10
4.2345950594
 20
5.5225869351
 11
4.2186763094
 21
5.5119744301
  0
LINE
  5
281
100
AcDbEntity
  8
03__ASM_ALL_CURVES
100
AcDbLine
 62
40
  6
CONTINUOUS
 10
4.2345950594
 20
5.4482994329
 11
4.2186763094
 21
5.4376869326
  0
LINE
  5
282
100
AcDbEntity
  8
03__ASM_ALL_CURVES
100
AcDbLine
 62
40
  6
CONTINUOUS
 10
4.4415388094
 20
5.5544244351
 11
4.4574575594
 21
5.5650369326
  0
LINE
  5
283
100
AcDbEntity
  8
03__ASM_ALL_CURVES
100
AcDbLine
 62
40
  6
CONTINUOUS
 10
4.4415388094
 20
5.5013619326
 11
4.4574575594
 21
5.5119744301
  0
LINE
  5
284
100
AcDbEntity
  8
03__ASM_ALL_CURVES
100
AcDbLine
 62
40
  6
CONTINUOUS
 10
4.4892950594
 20
5.5225869351
 11
4.4733763094
 21
5.5119744301
  0
LINE
  5
285
100
AcDbEntity
  8
03__ASM_ALL_CURVES
100
AcDbLine
 62
40
  6
CONTINUOUS
 10
4.5688888094
 20
5.5544244351
 11
4.5848075594
 21
5.5650369326
  0
LINE
  5
286
100
AcDbEntity
  8
0
100
AcDbLine
 62
7
  6
CONTINUOUS
 10
3.6989169344
 20
3.7772629326
 11
3.6369169344
 21
3.8392629326
  0
LINE
  5
287
100
AcDbEntity
  8
0
100
AcDbLine
 62
7
  6
CONTINUOUS
 10
3.42991772
 20
4.090262147
 11
3.4144169344
 21
4.1057629326
  0
LINE
  5
288
100
AcDbEntity
  8
0
100
AcDbLine
 62
7
  6
CONTINUOUS
 10
3.6059169344
 20
4.6422629326
 11
3.5998221623
 21
4.6528193876
  0
LINE
  5
289
100
AcDbEntity
  8
03__ASM_ALL_CURVES
100
AcDbLine
 62
40
  6
CONTINUOUS
 10
4.1152044344
 20
5.5438119301
 11
4.1152044344
 21
5.5225869351
  0
LINE
  5
28A
100
AcDbEntity
  8
03__ASM_ALL_CURVES
100
AcDbLine
 62
40
  6
CONTINUOUS
 10
4.1709200594
 20
5.4695244326
 11
4.1709200594
 21
5.4801369339
  0
LINE
  5
28B
100
AcDbEntity
  8
03__ASM_ALL_CURVES
100
AcDbLine
 62
40
  6
CONTINUOUS
 10
4.1788794344
 20
5.5331994326
 11
4.1788794344
 21
5.5438119301
  0
LINE
  5
28C
100
AcDbEntity
  8
03__ASM_ALL_CURVES
100
AcDbLine
 62
40
  6
CONTINUOUS
 10
4.2425544344
 20
5.5438119301
 11
4.2425544344
 21
5.5331994326
  0
LINE
  5
28D
100
AcDbEntity
  8
03__ASM_ALL_CURVES
100
AcDbLine
 62
40
  6
CONTINUOUS
 10
4.2505138094
 20
5.4801369339
 11
4.2505138094
 21
5.4695244326
  0
LINE
  5
28E
100
AcDbEntity
  8
0
100
AcDbLine
 62
7
  6
CONTINUOUS
 10
4.2939169344
 20
3.7512629326
 11
4.2939169344
 21
4.9912629326
  0
LINE
  5
28F
100
AcDbEntity
  8
0
100
AcDbLine
 62
7
  6
CONTINUOUS
 10
4.3453011084
 20
5.0802629326
 11
4.2939169344
 21
4.9912629326
  0
LINE
  5
290
100
AcDbEntity
  8
03__ASM_ALL_CURVES
100
AcDbLine
 62
40
  6
CONTINUOUS
 10
4.6246044344
 20
5.5331994326
 11
4.6166450594
 21
5.5225869351
  0
LINE
  5
291
100
AcDbEntity
  8
03__ASM_ALL_CURVES
100
AcDbLine
 62
40
  6
CONTINUOUS
 10
4.6325638094
 20
5.4695244326
 11
4.6166450594
 21
5.4482994329
  0
LINE
  5
292
100
AcDbEntity
  8
03__ASM_ALL_CURVES
100
AcDbLine
 62
40
  6
CONTINUOUS
 10
4.8793044344
 20
5.5331994326
 11
4.8713450594
 21
5.5225869351
  0
LINE
  5
293
100
AcDbEntity
  8
0
100
AcDbLine
 62
7
  6
CONTINUOUS
 10
3.3984169344
 20
4.1057629326
 11
3.3929169344
 21
4.1002629326
  0
LINE
  5
294
100
AcDbEntity
  8
03__ASM_ALL_CURVES
100
AcDbLine
 62
40
  6
CONTINUOUS
 10
4.4892950594
 20
5.4482994329
 11
4.4733763094
 21
5.4376869326
  0
LINE
  5
295
100
AcDbEntity
  8
03__ASM_ALL_CURVES
100
AcDbLine
 62
40
  6
CONTINUOUS
 10
4.6166450594
 20
5.5225869351
 11
4.6007263094
 21
5.5119744301
  0
LINE
  5
296
100
AcDbEntity
  8
03__ASM_ALL_CURVES
100
AcDbLine
 62
40
  6
CONTINUOUS
 10
4.6166450594
 20
5.4482994329
 11
4.6007263094
 21
5.4376869326
  0
LINE
  5
297
100
AcDbEntity
  8
03__ASM_ALL_CURVES
100
AcDbLine
 62
40
  6
CONTINUOUS
 10
4.8235888094
 20
5.5544244351
 11
4.8395075594
 21
5.5650369326
  0
LINE
  5
298
100
AcDbEntity
  8
03__ASM_ALL_CURVES
100
AcDbLine
 62
40
  6
CONTINUOUS
 10
4.8713450594
 20
5.5225869351
 11
4.8554263094
 21
5.5119744301
  0
LINE
  5
299
100
AcDbEntity
  8
0
100
AcDbLine
 62
7
  6
CONTINUOUS
 10
4.3453011084
 20
3.6622629326
 11
4.2939169344
 21
3.7512629326
  0
LINE
  5
29A
100
AcDbEntity
  8
03__ASM_ALL_CURVES
100
AcDbLine
 62
40
  6
CONTINUOUS
 10
4.3221481844
 20
5.5119744301
 11
4.3221481844
 21
5.4907494313
  0
LINE
  5
29B
100
AcDbEntity
  8
0
100
AcDbLine
 62
7
  6
CONTINUOUS
 10
4.3453011084
 20
3.6622629326
 11
4.3453011084
 21
3.6626239337
  0
LINE
  5
29C
100
AcDbEntity
  8
0
100
AcDbLine
 62
7
  6
CONTINUOUS
 10
4.3453011084
 20
3.9973519315
 11
4.3453011084
 21
4.0365349348
  0
LINE
  5
29D
100
AcDbEntity
  8
0
100
AcDbLine
 62
7
  6
CONTINUOUS
 10
4.3453011084
 20
4.7059909304
 11
4.3453011084
 21
4.7451739337
  0
LINE
  5
29E
100
AcDbEntity
  8
0
100
AcDbLine
 62
7
  6
CONTINUOUS
 10
4.3453011084
 20
5.0799019315
 11
4.3453011084
 21
5.0802629326
  0
LINE
  5
29F
100
AcDbEntity
  8
03__ASM_ALL_CURVES
100
AcDbLine
 62
40
  6
CONTINUOUS
 10
4.4256200594
 20
5.4695244326
 11
4.4256200594
 21
5.4801369339
  0
LINE
  5
2A0
100
AcDbEntity
  8
03__ASM_ALL_CURVES
100
AcDbLine
 62
40
  6
CONTINUOUS
 10
4.4335794344
 20
5.5331994326
 11
4.4335794344
 21
5.5438119301
  0
LINE
  5
2A1
100
AcDbEntity
  8
03__ASM_ALL_CURVES
100
AcDbLine
 62
40
  6
CONTINUOUS
 10
4.4972544344
 20
5.5438119301
 11
4.4972544344
 21
5.5331994326
  0
LINE
  5
2A2
100
AcDbEntity
  8
03__ASM_ALL_CURVES
100
AcDbLine
 62
40
  6
CONTINUOUS
 10
4.5052138094
 20
5.4801369339
 11
4.5052138094
 21
5.4695244326
  0
LINE
  5
2A3
100
AcDbEntity
  8
03__ASM_ALL_CURVES
100
AcDbLine
 62
40
  6
CONTINUOUS
 10
4.8872638094
 20
5.4695244326
 11
4.8713450594
 21
5.4482994329
  0
LINE
  5
2A4
100
AcDbEntity
  8
03__ASM_ALL_CURVES
100
AcDbLine
 62
40
  6
CONTINUOUS
 10
4.8713450594
 20
5.4482994329
 11
4.8554263094
 21
5.4376869326
  0
LINE
  5
2A5
100
AcDbEntity
  8
03__ASM_ALL_CURVES
100
AcDbLine
 62
40
  6
CONTINUOUS
 10
7.5170735733
 20
3.0092979326
 11
7.4693173233
 21
3.0092979326
  0
LINE
  5
2A6
100
AcDbEntity
  8
03__ASM_ALL_CURVES
100
AcDbLine
 62
40
  6
CONTINUOUS
 10
7.4036524796
 20
3.0092979326
 11
7.3917134171
 21
3.0092979326
  0
LINE
  5
2A7
100
AcDbEntity
  8
03__ASM_ALL_CURVES
100
AcDbLine
 62
40
  6
CONTINUOUS
 10
7.2305360733
 20
3.0092979326
 11
7.1827798233
 21
3.0092979326
  0
LINE
  5
2A8
100
AcDbEntity
  8
03__ASM_ALL_CURVES
100
AcDbLine
 62
40
  6
CONTINUOUS
 10
7.1171149796
 20
3.0092979326
 11
7.1051759171
 21
3.0092979326
  0
LINE
  5
2A9
100
AcDbEntity
  8
03__ASM_ALL_CURVES
100
AcDbLine
 62
40
  6
CONTINUOUS
 10
7.0216024796
 20
3.0092979326
 11
7.0096634171
 21
3.0092979326
  0
LINE
  5
2AA
100
AcDbEntity
  8
03__ASM_ALL_CURVES
100
AcDbLine
 62
40
  6
CONTINUOUS
 10
6.9439985733
 20
3.0092979326
 11
6.8962423233
 21
3.0092979326
  0
LINE
  5
2AB
100
AcDbEntity
  8
03__ASM_ALL_CURVES
100
AcDbLine
 62
40
  6
CONTINUOUS
 10
6.8305774796
 20
3.0092979326
 11
6.8186384171
 21
3.0092979326
  0
LINE
  5
2AC
100
AcDbEntity
  8
03__ASM_ALL_CURVES
100
AcDbLine
 62
40
  6
CONTINUOUS
 10
5.6448919353
 20
3.0092979326
 11
5.6210138103
 21
3.0092979326
  0
LINE
  5
2AD
100
AcDbEntity
  8
0
100
AcDbLine
 62
7
  6
CONTINUOUS
 10
3.3984169344
 20
4.6367629326
 11
3.3929169344
 21
4.6422629326
  0
LINE
  5
2AE
100
AcDbEntity
  8
03__ASM_ALL_CURVES
100
AcDbLine
 62
40
  6
CONTINUOUS
 10
4.6246044344
 20
5.5438119301
 11
4.6246044344
 21
5.5331994326
  0
LINE
  5
2AF
100
AcDbEntity
  8
03__ASM_ALL_CURVES
100
AcDbLine
 62
40
  6
CONTINUOUS
 10
4.6325638094
 20
5.4801369339
 11
4.6325638094
 21
5.4695244326
  0
LINE
  5
2B0
100
AcDbEntity
  8
03__ASM_ALL_CURVES
100
AcDbLine
 62
40
  6
CONTINUOUS
 10
4.7121575594
 20
5.4376869326
 11
4.7121575594
 21
5.4482994329
  0
LINE
  5
2B1
100
AcDbEntity
  8
0
100
AcDbLine
 62
7
  6
CONTINUOUS
 10
5.0799169344
 20
5.1507629326
 11
5.0392137404
 21
5.0802629326
  0
LINE
  5
2B2
100
AcDbEntity
  8
03__ASM_ALL_CURVES
100
AcDbLine
 62
40
  6
CONTINUOUS
 10
5.1101263094
 20
5.4589119332
 11
5.0942075594
 21
5.4376869326
  0
LINE
  5
2B3
100
AcDbEntity
  8
03__ASM_ALL_CURVES
100
AcDbLine
 62
40
  6
CONTINUOUS
 10
5.8180083415
 20
3.0411354335
 11
5.853825529
 21
3.0411354335
  0
LINE
  5
2B4
100
AcDbEntity
  8
03__ASM_ALL_CURVES
100
AcDbLine
 62
40
  6
CONTINUOUS
 10
5.7463739665
 20
3.0570541826
 11
5.7165263103
 21
3.0570541826
  0
LINE
  5
2B5
100
AcDbEntity
  8
03__ASM_ALL_CURVES
100
AcDbLine
 62
40
  6
CONTINUOUS
 10
6.8962423233
 20
3.0570541826
 11
6.9260899796
 21
3.0570541826
  0
LINE
  5
2B6
100
AcDbEntity
  8
03__ASM_ALL_CURVES
100
AcDbLine
 62
40
  6
CONTINUOUS
 10
7.1827798233
 20
3.0570541826
 11
7.2126274796
 21
3.0570541826
  0
LINE
  5
2B7
100
AcDbEntity
  8
03__ASM_ALL_CURVES
100
AcDbLine
 62
40
  6
CONTINUOUS
 10
7.4693173233
 20
3.0570541826
 11
7.4991649796
 21
3.0570541826
  0
LINE
  5
2B8
100
AcDbEntity
  8
03__ASM_ALL_CURVES
100
AcDbLine
 62
40
  6
CONTINUOUS
 10
6.8305774796
 20
3.1048104326
 11
6.8186384171
 21
3.1048104326
  0
LINE
  5
2B9
100
AcDbEntity
  8
03__ASM_ALL_CURVES
100
AcDbLine
 62
40
  6
CONTINUOUS
 10
5.6210138103
 20
3.1048104326
 11
5.6448919353
 21
3.1048104326
  0
LINE
  5
2BA
100
AcDbEntity
  8
03__ASM_ALL_CURVES
100
AcDbLine
 62
40
  6
CONTINUOUS
 10
5.7165263103
 20
3.1048104326
 11
5.7463739665
 21
3.1048104326
  0
LINE
  5
2BB
100
AcDbEntity
  8
03__ASM_ALL_CURVES
100
AcDbLine
 62
40
  6
CONTINUOUS
 10
6.8962423233
 20
3.1048104326
 11
6.9439985733
 21
3.1048104326
  0
LINE
  5
2BC
100
AcDbEntity
  8
03__ASM_ALL_CURVES
100
AcDbLine
 62
40
  6
CONTINUOUS
 10
7.0096634171
 20
3.1048104326
 11
7.0216024796
 21
3.1048104326
  0
LINE
  5
2BD
100
AcDbEntity
  8
03__ASM_ALL_CURVES
100
AcDbLine
 62
40
  6
CONTINUOUS
 10
7.1827798233
 20
3.1048104326
 11
7.2305360733
 21
3.1048104326
  0
LINE
  5
2BE
100
AcDbEntity
  8
03__ASM_ALL_CURVES
100
AcDbLine
 62
40
  6
CONTINUOUS
 10
7.3917134171
 20
3.1048104326
 11
7.4036524796
 21
3.1048104326
  0
LINE
  5
2BF
100
AcDbEntity
  8
03__ASM_ALL_CURVES
100
AcDbLine
 62
40
  6
CONTINUOUS
 10
7.4693173233
 20
3.1048104326
 11
7.5170735733
 21
3.1048104326
  0
LINE
  5
2C0
100
AcDbEntity
  8
03__ASM_ALL_CURVES
100
AcDbLine
 62
40
  6
CONTINUOUS
 10
7.066373974
 20
3.1557504326
 11
7.0544349115
 21
3.1557504326
  0
LINE
  5
2C1
100
AcDbEntity
  8
03__ASM_ALL_CURVES
100
AcDbLine
 62
40
  6
CONTINUOUS
 10
6.0299267043
 20
3.1557504326
 11
6.0179876418
 21
3.1557504326
  0
LINE
  5
2C2
100
AcDbEntity
  8
03__ASM_ALL_CURVES
100
AcDbLine
 62
40
  6
CONTINUOUS
 10
5.7433892043
 20
3.1557504326
 11
5.7314501418
 21
3.1557504326
  0
LINE
  5
2C3
100
AcDbEntity
  8
03__ASM_ALL_CURVES
100
AcDbLine
 62
40
  6
CONTINUOUS
 10
7.3230638177
 20
3.1557504326
 11
7.3708200677
 21
3.1557504326
  0
LINE
  5
2C4
100
AcDbEntity
  8
03__ASM_ALL_CURVES
100
AcDbLine
 62
40
  6
CONTINUOUS
 10
7.161886474
 20
3.2035066826
 11
7.1320388177
 21
3.2035066826
  0
LINE
  5
2C5
100
AcDbEntity
  8
03__ASM_ALL_CURVES
100
AcDbLine
 62
40
  6
CONTINUOUS
 10
6.970861474
 20
3.2035066826
 11
6.9410138177
 21
3.2035066826
  0
LINE
  5
2C6
100
AcDbEntity
  8
03__ASM_ALL_CURVES
100
AcDbLine
 62
40
  6
CONTINUOUS
 10
5.8389017043
 20
3.2035066826
 11
5.8090540481
 21
3.2035066826
  0
LINE
  5
2C7
100
AcDbEntity
  8
03__ASM_ALL_CURVES
100
AcDbLine
 62
40
  6
CONTINUOUS
 10
5.6478767043
 20
3.2035066826
 11
5.6180290481
 21
3.2035066826
  0
LINE
  5
2C8
100
AcDbEntity
  8
03__ASM_ALL_CURVES
100
AcDbLine
 62
40
  6
CONTINUOUS
 10
6.0179876418
 20
3.2114660557
 11
6.0299267043
 21
3.2114660557
  0
LINE
  5
2C9
100
AcDbEntity
  8
03__ASM_ALL_CURVES
100
AcDbLine
 62
40
  6
CONTINUOUS
 10
5.6448919353
 20
3.1048104326
 11
5.6568309978
 21
3.0968510595
  0
LINE
  5
2CA
100
AcDbEntity
  8
03__ASM_ALL_CURVES
100
AcDbLine
 62
40
  6
CONTINUOUS
 10
4.3221481844
 20
5.4907494313
 11
4.3301075594
 21
5.4589119332
  0
LINE
  5
2CB
100
AcDbEntity
  8
03__ASM_ALL_CURVES
100
AcDbLine
 62
40
  6
CONTINUOUS
 10
4.8793044344
 20
5.5438119301
 11
4.8793044344
 21
5.5331994326
  0
LINE
  5
2CC
100
AcDbEntity
  8
03__ASM_ALL_CURVES
100
AcDbLine
 62
40
  6
CONTINUOUS
 10
4.8872638094
 20
5.4801369339
 11
4.8872638094
 21
5.4695244326
  0
LINE
  5
2CD
100
AcDbEntity
  8
03__ASM_ALL_CURVES
100
AcDbLine
 62
40
  6
CONTINUOUS
 10
5.1180856844
 20
5.4907494313
 11
5.1101263094
 21
5.4589119332
  0
LINE
  5
2CE
100
AcDbEntity
  8
03__ASM_ALL_CURVES
100
AcDbLine
 62
40
  6
CONTINUOUS
 10
5.6180290481
 20
3.2512629326
 11
5.6478767043
 21
3.2512629326
  0
LINE
  5
2CF
100
AcDbEntity
  8
03__ASM_ALL_CURVES
100
AcDbLine
 62
40
  6
CONTINUOUS
 10
5.7314501418
 20
3.2512629326
 11
5.7433892043
 21
3.2512629326
  0
LINE
  5
2D0
100
AcDbEntity
  8
03__ASM_ALL_CURVES
100
AcDbLine
 62
40
  6
CONTINUOUS
 10
5.8090540481
 20
3.2512629326
 11
5.8389017043
 21
3.2512629326
  0
LINE
  5
2D1
100
AcDbEntity
  8
03__ASM_ALL_CURVES
100
AcDbLine
 62
40
  6
CONTINUOUS
 10
5.8985970168
 20
3.2512629326
 11
5.9582923293
 21
3.2512629326
  0
LINE
  5
2D2
100
AcDbEntity
  8
03__ASM_ALL_CURVES
100
AcDbLine
 62
40
  6
CONTINUOUS
 10
6.0179876418
 20
3.2512629326
 11
6.0299267043
 21
3.2512629326
  0
LINE
  5
2D3
100
AcDbEntity
  8
03__ASM_ALL_CURVES
100
AcDbLine
 62
40
  6
CONTINUOUS
 10
6.9410138177
 20
3.2512629326
 11
6.970861474
 21
3.2512629326
  0
LINE
  5
2D4
100
AcDbEntity
  8
03__ASM_ALL_CURVES
100
AcDbLine
 62
40
  6
CONTINUOUS
 10
7.0544349115
 20
3.2512629326
 11
7.066373974
 21
3.2512629326
  0
LINE
  5
2D5
100
AcDbEntity
  8
03__ASM_ALL_CURVES
100
AcDbLine
 62
40
  6
CONTINUOUS
 10
7.1320388177
 20
3.2512629326
 11
7.161886474
 21
3.2512629326
  0
LINE
  5
2D6
100
AcDbEntity
  8
03__ASM_ALL_CURVES
100
AcDbLine
 62
40
  6
CONTINUOUS
 10
7.2215817865
 20
3.2512629326
 11
7.281277099
 21
3.2512629326
  0
LINE
  5
2D7
100
AcDbEntity
  8
03__ASM_ALL_CURVES
100
AcDbLine
 62
40
  6
CONTINUOUS
 10
7.3409724115
 20
3.2512629326
 11
7.352911474
 21
3.2512629326
  0
LINE
  5
2D8
100
AcDbEntity
  8
03__ASM_ALL_CURVES
100
AcDbLine
 62
40
  6
CONTINUOUS
 10
5.7463739665
 20
3.1048104326
 11
5.758313029
 21
3.0968510595
  0
LINE
  5
2D9
100
AcDbEntity
  8
03__ASM_ALL_CURVES
100
AcDbLine
 62
40
  6
CONTINUOUS
 10
5.7314501418
 20
3.1557504326
 11
5.7195110793
 21
3.1637098078
  0
LINE
  5
2DA
100
AcDbEntity
  8
03__ASM_ALL_CURVES
100
AcDbLine
 62
40
  6
CONTINUOUS
 10
5.6478767043
 20
3.2512629326
 11
5.6598157668
 21
3.2433035595
  0
LINE
  5
2DB
100
AcDbEntity
  8
03__ASM_ALL_CURVES
100
AcDbLine
 62
40
  6
CONTINUOUS
 10
5.7433892043
 20
3.2512629326
 11
5.7553282668
 21
3.2433035595
  0
LINE
  5
2DC
100
AcDbEntity
  8
03__ASM_ALL_CURVES
100
AcDbLine
 62
40
  6
CONTINUOUS
 10
5.8389017043
 20
3.2512629326
 11
5.8508407668
 21
3.2433035595
  0
LINE
  5
2DD
100
AcDbEntity
  8
03__ASM_ALL_CURVES
100
AcDbLine
 62
40
  6
CONTINUOUS
 10
3.8047888094
 20
5.4482994329
 11
3.7968294344
 21
5.4589119332
  0
LINE
  5
2DE
100
AcDbEntity
  8
0
100
AcDbLine
 62
7
  6
CONTINUOUS
 10
5.0799169344
 20
3.5917629326
 11
5.0392137404
 21
3.6622629326
  0
LINE
  5
2DF
100
AcDbEntity
  8
03__ASM_ALL_CURVES
100
AcDbLine
 62
40
  6
CONTINUOUS
 10
4.9748169344
 20
5.5650369326
 11
4.9748169344
 21
5.4376869326
  0
LINE
  5
2E0
100
AcDbEntity
  8
0
100
AcDbLine
 62
7
  6
CONTINUOUS
 10
5.0392137404
 20
3.6622629326
 11
5.0392137404
 21
5.0802629326
  0
LINE
  5
2E1
100
AcDbEntity
  8
0
100
AcDbLine
 62
7
  6
CONTINUOUS
 10
5.0799169344
 20
3.5917629326
 11
5.0799169344
 21
5.1507629326
  0
LINE
  5
2E2
100
AcDbEntity
  8
03__ASM_ALL_CURVES
100
AcDbLine
 62
40
  6
CONTINUOUS
 10
5.1180856844
 20
5.5119744301
 11
5.1180856844
 21
5.4907494313
  0
LINE
  5
2E3
100
AcDbEntity
  8
03__ASM_ALL_CURVES
100
AcDbLine
 62
40
  6
CONTINUOUS
 10
6.4449863088
 20
5.5544244351
 11
6.4609050588
 21
5.5650369326
  0
LINE
  5
2E4
100
AcDbEntity
  8
03__ASM_ALL_CURVES
100
AcDbLine
 62
40
  6
CONTINUOUS
 10
6.5723363088
 20
5.5544244351
 11
6.5882550588
 21
5.5650369326
  0
LINE
  5
2E5
100
AcDbEntity
  8
0
100
AcDbLine
 62
7
  6
CONTINUOUS
 10
5.5299169344
 20
3.5917629326
 11
5.4679169344
 21
3.5917629326
  0
LINE
  5
2E6
100
AcDbEntity
  8
0
100
AcDbLine
 62
7
  6
CONTINUOUS
 10
5.0799169344
 20
3.5917629326
 11
5.3439169344
 21
3.5917629326
  0
LINE
  5
2E7
100
AcDbEntity
  8
0
100
AcDbLine
 62
7
  6
CONTINUOUS
 10
6.1059169344
 20
3.5932629326
 11
6.0199169344
 21
3.5932629326
  0
LINE
  5
2E8
100
AcDbEntity
  8
0
100
AcDbLine
 62
7
  6
CONTINUOUS
 10
6.2559169344
 20
3.6532629326
 11
6.3059169344
 21
3.6532629326
  0
LINE
  5
2E9
100
AcDbEntity
  8
THREAD
100
AcDbLine
 62
7
  6
CONTINUOUS
 10
6.1529169344
 20
3.6537629326
 11
6.1059169344
 21
3.6537629326
  0
LINE
  5
2EA
100
AcDbEntity
  8
0
100
AcDbLine
 62
7
  6
CONTINUOUS
 10
5.0392137404
 20
3.6622629326
 11
4.3453011084
 21
3.6622629326
  0
LINE
  5
2EB
100
AcDbEntity
  8
0
100
AcDbLine
 62
7
  6
CONTINUOUS
 10
5.0392137404
 20
3.6626239337
 11
4.3453011084
 21
3.6626239337
  0
LINE
  5
2EC
100
AcDbEntity
  8
03__ASM_ALL_CURVES
100
AcDbLine
 62
40
  6
CONTINUOUS
 10
6.0179876418
 20
3.1557504326
 11
6.0060485793
 21
3.1637098078
  0
LINE
  5
2ED
100
AcDbEntity
  8
03__ASM_ALL_CURVES
100
AcDbLine
 62
40
  6
CONTINUOUS
 10
6.0299267043
 20
3.2114660557
 11
6.0418657668
 21
3.2035066826
  0
LINE
  5
2EE
100
AcDbEntity
  8
03__ASM_ALL_CURVES
100
AcDbLine
 62
40
  6
CONTINUOUS
 10
6.0299267043
 20
3.2512629326
 11
6.0418657668
 21
3.2433035595
  0
LINE
  5
2EF
100
AcDbEntity
  8
03__ASM_ALL_CURVES
100
AcDbLine
 62
40
  6
CONTINUOUS
 10
3.8525450594
 20
5.5013619326
 11
3.8684638094
 21
5.4801369339
  0
LINE
  5
2F0
100
AcDbEntity
  8
03__ASM_ALL_CURVES
100
AcDbLine
 62
40
  6
CONTINUOUS
 10
5.6568309978
 20
3.0968510595
 11
5.6687700603
 21
3.0809323076
  0
LINE
  5
2F1
100
AcDbEntity
  8
03__ASM_ALL_CURVES
100
AcDbLine
 62
40
  6
CONTINUOUS
 10
3.8525450594
 20
5.5544244351
 11
3.8605044344
 21
5.5438119301
  0
LINE
  5
2F2
100
AcDbEntity
  8
03__ASM_ALL_CURVES
100
AcDbLine
 62
40
  6
CONTINUOUS
 10
3.9480575594
 20
5.4482994329
 11
3.9560169344
 21
5.4376869326
  0
LINE
  5
2F3
100
AcDbEntity
  8
03__ASM_ALL_CURVES
100
AcDbLine
 62
40
  6
CONTINUOUS
 10
5.758313029
 20
3.0968510595
 11
5.7642825603
 21
3.0888916807
  0
LINE
  5
2F4
100
AcDbEntity
  8
03__ASM_ALL_CURVES
100
AcDbLine
 62
40
  6
CONTINUOUS
 10
5.7195110793
 20
3.1637098078
 11
5.7075720168
 21
3.1796285576
  0
LINE
  5
2F5
100
AcDbEntity
  8
03__ASM_ALL_CURVES
100
AcDbLine
 62
40
  6
CONTINUOUS
 10
5.6598157668
 20
3.2433035595
 11
5.6657852981
 21
3.2353441807
  0
LINE
  5
2F6
100
AcDbEntity
  8
03__ASM_ALL_CURVES
100
AcDbLine
 62
40
  6
CONTINUOUS
 10
5.7553282668
 20
3.2433035595
 11
5.7672673293
 21
3.2273848076
  0
LINE
  5
2F7
100
AcDbEntity
  8
0
100
AcDbLine
 62
7
  6
CONTINUOUS
 10
5.2939169344
 20
3.5917629326
 11
5.2939169344
 21
5.1507629326
  0
LINE
  5
2F8
100
AcDbEntity
  8
0
100
AcDbLine
 62
7
  6
CONTINUOUS
 10
5.3439169344
 20
3.5917629326
 11
5.3439169344
 21
5.1507629326
  0
LINE
  5
2F9
100
AcDbEntity
  8
03__ASM_ALL_CURVES
100
AcDbLine
 62
40
  6
CONTINUOUS
 10
6.4927425588
 20
5.4482994329
 11
6.4768238088
 21
5.4376869326
  0
LINE
  5
2FA
100
AcDbEntity
  8
03__ASM_ALL_CURVES
100
AcDbLine
 62
40
  6
CONTINUOUS
 10
6.6200925588
 20
5.4482994329
 11
6.6041738088
 21
5.4376869326
  0
LINE
  5
2FB
100
AcDbEntity
  8
THREAD
100
AcDbLine
 62
7
  6
CONTINUOUS
 10
6.6539169344
 20
3.6697629326
 11
6.3536297473
 21
3.6697629326
  0
LINE
  5
2FC
100
AcDbEntity
  8
0
100
AcDbLine
 62
7
  6
CONTINUOUS
 10
5.4679169344
 20
3.6797629326
 11
5.4469169344
 21
3.6797629326
  0
LINE
  5
2FD
100
AcDbEntity
  8
0
100
AcDbLine
 62
7
  6
CONTINUOUS
 10
5.9494802016
 20
3.7152629326
 11
5.6359169344
 21
3.7152629326
  0
LINE
  5
2FE
100
AcDbEntity
  8
THREAD
100
AcDbLine
 62
7
  6
CONTINUOUS
 10
6.8119169344
 20
3.7307629326
 11
6.7149169344
 21
3.7307629326
  0
LINE
  5
2FF
100
AcDbEntity
  8
0
100
AcDbLine
 62
7
  6
CONTINUOUS
 10
7.6169169344
 20
3.7472629326
 11
7.6669169344
 21
3.7472629326
  0
LINE
  5
300
100
AcDbEntity
  8
0
100
AcDbLine
 62
7
  6
CONTINUOUS
 10
7.7699169344
 20
3.7472629326
 11
7.8199169344
 21
3.7472629326
  0
LINE
  5
301
100
AcDbEntity
  8
0
100
AcDbLine
 62
7
  6
CONTINUOUS
 10
7.5359169344
 20
3.7477629326
 11
7.6169169344
 21
3.7477629326
  0
LINE
  5
302
100
AcDbEntity
  8
0
100
AcDbLine
 62
7
  6
CONTINUOUS
 10
7.8409169344
 20
3.7477629326
 11
7.8879169344
 21
3.7477629326
  0
LINE
  5
303
100
AcDbEntity
  8
0
100
AcDbLine
 62
7
  6
CONTINUOUS
 10
4.2939169344
 20
3.7772629326
 11
3.6989169344
 21
3.7772629326
  0
LINE
  5
304
100
AcDbEntity
  8
0
100
AcDbLine
 62
7
  6
CONTINUOUS
 10
7.8409169344
 20
3.8352629326
 11
7.8199169344
 21
3.8352629326
  0
LINE
  5
305
100
AcDbEntity
  8
0
100
AcDbLine
 62
7
  6
CONTINUOUS
 10
7.2934169344
 20
3.8417629326
 11
6.8249169344
 21
3.8417629326
  0
LINE
  5
306
100
AcDbEntity
  8
03__ASM_ALL_CURVES
100
AcDbLine
 62
40
  6
CONTINUOUS
 10
6.8186384171
 20
3.0092979326
 11
6.8066993546
 21
3.0172573078
  0
LINE
  5
307
100
AcDbEntity
  8
03__ASM_ALL_CURVES
100
AcDbLine
 62
40
  6
CONTINUOUS
 10
6.8066993546
 20
3.0729729345
 11
6.8425165421
 21
3.0490948066
  0
LINE
  5
308
100
AcDbEntity
  8
03__ASM_ALL_CURVES
100
AcDbLine
 62
40
  6
CONTINUOUS
 10
6.8425165421
 20
3.0968510595
 11
6.8305774796
 21
3.1048104326
  0
LINE
  5
309
100
AcDbEntity
  8
03__ASM_ALL_CURVES
100
AcDbLine
 62
40
  6
CONTINUOUS
 10
4.1072450594
 20
5.5544244351
 11
4.1152044344
 21
5.5438119301
  0
LINE
  5
30A
100
AcDbEntity
  8
03__ASM_ALL_CURVES
100
AcDbLine
 62
40
  6
CONTINUOUS
 10
4.1868388094
 20
5.4482994329
 11
4.1709200594
 21
5.4695244326
  0
LINE
  5
30B
100
AcDbEntity
  8
03__ASM_ALL_CURVES
100
AcDbLine
 62
40
  6
CONTINUOUS
 10
5.8508407668
 20
3.2433035595
 11
5.8568102981
 21
3.2353441807
  0
LINE
  5
30C
100
AcDbEntity
  8
03__ASM_ALL_CURVES
100
AcDbLine
 62
40
  6
CONTINUOUS
 10
4.1868388094
 20
5.5225869351
 11
4.1788794344
 21
5.5331994326
  0
LINE
  5
30D
100
AcDbEntity
  8
03__ASM_ALL_CURVES
100
AcDbLine
 62
40
  6
CONTINUOUS
 10
4.2345950594
 20
5.5013619326
 11
4.2505138094
 21
5.4801369339
  0
LINE
  5
30E
100
AcDbEntity
  8
03__ASM_ALL_CURVES
100
AcDbLine
 62
40
  6
CONTINUOUS
 10
6.0060485793
 20
3.1637098078
 11
6.0000790481
 21
3.1716691831
  0
LINE
  5
30F
100
AcDbEntity
  8
03__ASM_ALL_CURVES
100
AcDbLine
 62
40
  6
CONTINUOUS
 10
4.2345950594
 20
5.5544244351
 11
4.2425544344
 21
5.5438119301
  0
LINE
  5
310
100
AcDbEntity
  8
03__ASM_ALL_CURVES
100
AcDbLine
 62
40
  6
CONTINUOUS
 10
4.3301075594
 20
5.4589119332
 11
4.3460263094
 21
5.4376869326
  0
LINE
  5
311
100
AcDbEntity
  8
03__ASM_ALL_CURVES
100
AcDbLine
 62
40
  6
CONTINUOUS
 10
6.0418657668
 20
3.2035066826
 11
6.0538048293
 21
3.1875879335
  0
LINE
  5
312
100
AcDbEntity
  8
03__ASM_ALL_CURVES
100
AcDbLine
 62
40
  6
CONTINUOUS
 10
6.0418657668
 20
3.2433035595
 11
6.0478352981
 21
3.2353441807
  0
LINE
  5
313
100
AcDbEntity
  8
03__ASM_ALL_CURVES
100
AcDbLine
 62
40
  6
CONTINUOUS
 10
5.7463739665
 20
3.0570541826
 11
5.7642825603
 21
3.0092979326
  0
LINE
  5
314
100
AcDbEntity
  8
03__ASM_ALL_CURVES
100
AcDbLine
 62
40
  6
CONTINUOUS
 10
5.6687700603
 20
3.0809323076
 11
5.6747395915
 21
3.0570541826
  0
LINE
  5
315
100
AcDbEntity
  8
0
100
AcDbLine
 62
7
  6
CONTINUOUS
 10
5.4469169344
 20
5.1142629326
 11
5.4469169344
 21
3.6282629326
  0
LINE
  5
316
100
AcDbEntity
  8
0
100
AcDbLine
 62
7
  6
CONTINUOUS
 10
5.4679169344
 20
3.5917629326
 11
5.4679169344
 21
5.1507629326
  0
LINE
  5
317
100
AcDbEntity
  8
0
100
AcDbLine
 62
7
  6
CONTINUOUS
 10
5.5299169344
 20
3.5917629326
 11
5.5299169344
 21
5.1507629326
  0
LINE
  5
318
100
AcDbEntity
  8
128-403_FEATURES
100
AcDbLine
 62
7
  6
CONTINUOUS
 10
5.6012196927
 20
3.715985381
 11
5.6012196927
 21
5.0272629326
  0
LINE
  5
319
100
AcDbEntity
  8
0
100
AcDbLine
 62
7
  6
CONTINUOUS
 10
6.0199169344
 20
5.1492629326
 11
5.9494802016
 21
5.0272629326
  0
LINE
  5
31A
100
AcDbEntity
  8
03__ASM_ALL_CURVES
100
AcDbLine
 62
40
  6
CONTINUOUS
 10
6.4290675588
 20
5.5331994326
 11
6.4449863088
 21
5.5544244351
  0
LINE
  5
31B
100
AcDbEntity
  8
03__ASM_ALL_CURVES
100
AcDbLine
 62
40
  6
CONTINUOUS
 10
7.2090863088
 20
5.5544244351
 11
7.2250050588
 21
5.5650369326
  0
LINE
  5
31C
100
AcDbEntity
  8
0
100
AcDbLine
 62
7
  6
CONTINUOUS
 10
5.0392137404
 20
3.9973519315
 11
4.3453011084
 21
3.9973519315
  0
LINE
  5
31D
100
AcDbEntity
  8
0
100
AcDbLine
 62
7
  6
CONTINUOUS
 10
5.0392137404
 20
4.0365349348
 11
4.3453011084
 21
4.0365349348
  0
LINE
  5
31E
100
AcDbEntity
  8
0
100
AcDbLine
 62
7
  6
CONTINUOUS
 10
3.4299169345
 20
4.0902629326
 11
3.6001406561
 21
4.0902629326
  0
LINE
  5
31F
100
AcDbEntity
  8
03__ASM_ALL_CURVES
100
AcDbLine
 62
40
  6
CONTINUOUS
 10
7.0096634171
 20
3.0092979326
 11
6.9977243546
 21
3.0172573078
  0
LINE
  5
320
100
AcDbEntity
  8
03__ASM_ALL_CURVES
100
AcDbLine
 62
40
  6
CONTINUOUS
 10
7.1051759171
 20
3.0092979326
 11
7.0932368546
 21
3.0172573078
  0
LINE
  5
321
100
AcDbEntity
  8
03__ASM_ALL_CURVES
100
AcDbLine
 62
40
  6
CONTINUOUS
 10
7.0216024796
 20
3.1048104326
 11
7.0335415421
 21
3.0968510595
  0
LINE
  5
322
100
AcDbEntity
  8
03__ASM_ALL_CURVES
100
AcDbLine
 62
40
  6
CONTINUOUS
 10
7.0544349115
 20
3.1557504326
 11
7.042495849
 21
3.1637098078
  0
LINE
  5
323
100
AcDbEntity
  8
03__ASM_ALL_CURVES
100
AcDbLine
 62
40
  6
CONTINUOUS
 10
6.970861474
 20
3.2512629326
 11
6.9828005365
 21
3.2433035595
  0
LINE
  5
324
100
AcDbEntity
  8
03__ASM_ALL_CURVES
100
AcDbLine
 62
40
  6
CONTINUOUS
 10
4.4415388094
 20
5.4482994329
 11
4.4256200594
 21
5.4695244326
  0
LINE
  5
325
100
AcDbEntity
  8
03__ASM_ALL_CURVES
100
AcDbLine
 62
40
  6
CONTINUOUS
 10
4.4415388094
 20
5.5225869351
 11
4.4335794344
 21
5.5331994326
  0
LINE
  5
326
100
AcDbEntity
  8
03__ASM_ALL_CURVES
100
AcDbLine
 62
40
  6
CONTINUOUS
 10
4.4892950594
 20
5.5013619326
 11
4.5052138094
 21
5.4801369339
  0
LINE
  5
327
100
AcDbEntity
  8
03__ASM_ALL_CURVES
100
AcDbLine
 62
40
  6
CONTINUOUS
 10
4.4892950594
 20
5.5544244351
 11
4.4972544344
 21
5.5438119301
  0
LINE
  5
328
100
AcDbEntity
  8
03__ASM_ALL_CURVES
100
AcDbLine
 62
40
  6
CONTINUOUS
 10
4.5688888094
 20
5.4482994329
 11
4.5609294344
 21
5.4589119332
  0
LINE
  5
329
100
AcDbEntity
  8
03__ASM_ALL_CURVES
100
AcDbLine
 62
40
  6
CONTINUOUS
 10
4.6166450594
 20
5.5013619326
 11
4.6325638094
 21
5.4801369339
  0
LINE
  5
32A
100
AcDbEntity
  8
03__ASM_ALL_CURVES
100
AcDbLine
 62
40
  6
CONTINUOUS
 10
4.6166450594
 20
5.5544244351
 11
4.6246044344
 21
5.5438119301
  0
LINE
  5
32B
100
AcDbEntity
  8
03__ASM_ALL_CURVES
100
AcDbLine
 62
40
  6
CONTINUOUS
 10
6.0030638103
 20
3.1048104326
 11
6.0508200603
 21
3.0092979326
  0
LINE
  5
32C
100
AcDbEntity
  8
03__ASM_ALL_CURVES
100
AcDbLine
 62
40
  6
CONTINUOUS
 10
5.8389017043
 20
3.2035066826
 11
5.8568102981
 21
3.1557504326
  0
LINE
  5
32D
100
AcDbEntity
  8
03__ASM_ALL_CURVES
100
AcDbLine
 62
40
  6
CONTINUOUS
 10
5.8359169353
 20
3.1048104326
 11
5.8657645915
 21
3.0092979326
  0
LINE
  5
32E
100
AcDbEntity
  8
03__ASM_ALL_CURVES
100
AcDbLine
 62
40
  6
CONTINUOUS
 10
5.1101263094
 20
5.5438119301
 11
5.1180856844
 21
5.5119744301
  0
LINE
  5
32F
100
AcDbEntity
  8
03__ASM_ALL_CURVES
100
AcDbLine
 62
40
  6
CONTINUOUS
 10
5.7075720168
 20
3.1796285576
 11
5.7016024856
 21
3.2035066826
  0
LINE
  5
330
100
AcDbEntity
  8
03__ASM_ALL_CURVES
100
AcDbLine
 62
40
  6
CONTINUOUS
 10
5.7672673293
 20
3.2273848076
 11
5.7732368606
 21
3.2035066826
  0
LINE
  5
331
100
AcDbEntity
  8
03__ASM_ALL_CURVES
100
AcDbLine
 62
40
  6
CONTINUOUS
 10
5.6180290481
 20
3.1557504326
 11
5.6180290481
 21
3.2512629326
  0
LINE
  5
332
100
AcDbEntity
  8
03__ASM_ALL_CURVES
100
AcDbLine
 62
40
  6
CONTINUOUS
 10
5.6210138103
 20
3.0092979326
 11
5.6210138103
 21
3.1048104326
  0
LINE
  5
333
100
AcDbEntity
  8
03__ASM_ALL_CURVES
100
AcDbLine
 62
40
  6
CONTINUOUS
 10
5.6657852981
 20
3.2353441807
 11
5.6657852981
 21
3.2194254345
  0
LINE
  5
334
100
AcDbEntity
  8
03__ASM_ALL_CURVES
100
AcDbLine
 62
40
  6
CONTINUOUS
 10
5.7165263103
 20
3.0092979326
 11
5.7165263103
 21
3.1048104326
  0
LINE
  5
335
100
AcDbEntity
  8
03__ASM_ALL_CURVES
100
AcDbLine
 62
40
  6
CONTINUOUS
 10
5.7642825603
 20
3.0888916807
 11
5.7642825603
 21
3.0729729345
  0
LINE
  5
336
100
AcDbEntity
  8
03__ASM_ALL_CURVES
100
AcDbLine
 62
40
  6
CONTINUOUS
 10
5.8090540481
 20
3.1557504326
 11
5.8090540481
 21
3.2512629326
  0
LINE
  5
337
100
AcDbEntity
  8
03__ASM_ALL_CURVES
100
AcDbLine
 62
40
  6
CONTINUOUS
 10
6.5086613088
 20
5.4695244326
 11
6.4927425588
 21
5.4482994329
  0
LINE
  5
338
100
AcDbEntity
  8
03__ASM_ALL_CURVES
100
AcDbLine
 62
40
  6
CONTINUOUS
 10
6.5564175588
 20
5.5331994326
 11
6.5723363088
 21
5.5544244351
  0
LINE
  5
339
100
AcDbEntity
  8
03__ASM_ALL_CURVES
100
AcDbLine
 62
40
  6
CONTINUOUS
 10
6.6280519338
 20
5.4589119332
 11
6.6200925588
 21
5.4482994329
  0
LINE
  5
33A
100
AcDbEntity
  8
03__ASM_ALL_CURVES
100
AcDbLine
 62
40
  6
CONTINUOUS
 10
7.2568425588
 20
5.4482994329
 11
7.2409238088
 21
5.4376869326
  0
LINE
  5
33B
100
AcDbEntity
  8
03__ASM_ALL_CURVES
100
AcDbLine
 62
40
  6
CONTINUOUS
 10
7.4797050588
 20
5.5650369326
 11
7.4637863088
 21
5.5544244351
  0
LINE
  5
33C
100
AcDbEntity
  8
03__ASM_ALL_CURVES
100
AcDbLine
 62
40
  6
CONTINUOUS
 10
7.5115425588
 20
5.4482994329
 11
7.4956238088
 21
5.4376869326
  0
LINE
  5
33D
100
AcDbEntity
  8
03__ASM_ALL_CURVES
100
AcDbLine
 62
40
  6
CONTINUOUS
 10
7.7184863088
 20
5.5544244351
 11
7.7344050588
 21
5.5650369326
  0
LINE
  5
33E
100
AcDbEntity
  8
0
100
AcDbLine
 62
7
  6
CONTINUOUS
 10
3.6369169344
 20
4.1002629326
 11
3.6059169344
 21
4.1002629326
  0
LINE
  5
33F
100
AcDbEntity
  8
0
100
AcDbLine
 62
7
  6
CONTINUOUS
 10
3.3929169344
 20
4.1002629326
 11
3.3869169344
 21
4.1002629326
  0
LINE
  5
340
100
AcDbEntity
  8
0
100
AcDbLine
 62
7
  6
CONTINUOUS
 10
3.4144169344
 20
4.1057629326
 11
3.3984169344
 21
4.1057629326
  0
LINE
  5
341
100
AcDbEntity
  8
0
100
AcDbLine
 62
7
  6
CONTINUOUS
 10
2.8559169344
 20
4.1872629326
 11
3.0549169344
 21
4.1872629326
  0
LINE
  5
342
100
AcDbEntity
  8
0
100
AcDbLine
 62
7
  6
CONTINUOUS
 10
3.0929169344
 20
4.1872629326
 11
3.3249169344
 21
4.1872629326
  0
LINE
  5
343
100
AcDbEntity
  8
0
100
AcDbLine
 62
7
  6
CONTINUOUS
 10
3.0549169344
 20
4.2202629326
 11
3.0564169344
 21
4.2202629326
  0
LINE
  5
344
100
AcDbEntity
  8
0
100
AcDbLine
 62
7
  6
CONTINUOUS
 10
3.0914169344
 20
4.2202629326
 11
3.0929169344
 21
4.2202629326
  0
LINE
  5
345
100
AcDbEntity
  8
03__ASM_ALL_CURVES
100
AcDbLine
 62
40
  6
CONTINUOUS
 10
8.6763325585
 20
4.2502804326
 11
8.6285763085
 21
4.2502804326
  0
LINE
  5
346
100
AcDbEntity
  8
03__ASM_ALL_CURVES
100
AcDbLine
 62
40
  6
CONTINUOUS
 10
8.5330638085
 20
4.2502804326
 11
8.5808200585
 21
4.2502804326
  0
LINE
  5
347
100
AcDbEntity
  8
03__ASM_ALL_CURVES
100
AcDbLine
 62
40
  6
CONTINUOUS
 10
8.6285763085
 20
4.2980366826
 11
8.6584239647
 21
4.2980366826
  0
LINE
  5
348
100
AcDbEntity
  8
03__ASM_ALL_CURVES
100
AcDbLine
 62
40
  6
CONTINUOUS
 10
7.3917134171
 20
3.0092979326
 11
7.3797743546
 21
3.0172573078
  0
LINE
  5
349
100
AcDbEntity
  8
03__ASM_ALL_CURVES
100
AcDbLine
 62
40
  6
CONTINUOUS
 10
7.066373974
 20
3.2512629326
 11
7.0783130365
 21
3.2433035595
  0
LINE
  5
34A
100
AcDbEntity
  8
03__ASM_ALL_CURVES
100
AcDbLine
 62
40
  6
CONTINUOUS
 10
3.8207075594
 20
5.4376869326
 11
3.8047888094
 21
5.4482994329
  0
LINE
  5
34B
100
AcDbEntity
  8
03__ASM_ALL_CURVES
100
AcDbLine
 62
40
  6
CONTINUOUS
 10
7.161886474
 20
3.2512629326
 11
7.1738255365
 21
3.2433035595
  0
LINE
  5
34C
100
AcDbEntity
  8
03__ASM_ALL_CURVES
100
AcDbLine
 62
40
  6
CONTINUOUS
 10
7.4036524796
 20
3.1048104326
 11
7.4155915421
 21
3.0968510595
  0
LINE
  5
34D
100
AcDbEntity
  8
03__ASM_ALL_CURVES
100
AcDbLine
 62
40
  6
CONTINUOUS
 10
3.8366263094
 20
5.5119744301
 11
3.8525450594
 21
5.5013619326
  0
LINE
  5
34E
100
AcDbEntity
  8
03__ASM_ALL_CURVES
100
AcDbLine
 62
40
  6
CONTINUOUS
 10
3.8366263094
 20
5.5650369326
 11
3.8525450594
 21
5.5544244351
  0
LINE
  5
34F
100
AcDbEntity
  8
03__ASM_ALL_CURVES
100
AcDbLine
 62
40
  6
CONTINUOUS
 10
7.352911474
 20
3.2512629326
 11
7.3648505365
 21
3.2433035595
  0
LINE
  5
350
100
AcDbEntity
  8
03__ASM_ALL_CURVES
100
AcDbLine
 62
40
  6
CONTINUOUS
 10
4.7121575594
 20
5.4482994329
 11
4.7201169344
 21
5.4376869326
  0
LINE
  5
351
100
AcDbEntity
  8
03__ASM_ALL_CURVES
100
AcDbLine
 62
40
  6
CONTINUOUS
 10
4.8235888094
 20
5.4482994329
 11
4.8156294344
 21
5.4589119332
  0
LINE
  5
352
100
AcDbEntity
  8
03__ASM_ALL_CURVES
100
AcDbLine
 62
40
  6
CONTINUOUS
 10
4.8713450594
 20
5.5013619326
 11
4.8872638094
 21
5.4801369339
  0
LINE
  5
353
100
AcDbEntity
  8
03__ASM_ALL_CURVES
100
AcDbLine
 62
40
  6
CONTINUOUS
 10
4.8713450594
 20
5.5544244351
 11
4.8793044344
 21
5.5438119301
  0
LINE
  5
354
100
AcDbEntity
  8
0
100
AcDbLine
 62
7
  6
CONTINUOUS
 10
6.0199169344
 20
3.5932629326
 11
5.9494802016
 21
3.7152629326
  0
LINE
  5
355
100
AcDbEntity
  8
03__ASM_ALL_CURVES
100
AcDbLine
 62
40
  6
CONTINUOUS
 10
5.8568102981
 20
3.2353441807
 11
5.8568102981
 21
3.2194254345
  0
LINE
  5
356
100
AcDbEntity
  8
03__ASM_ALL_CURVES
100
AcDbLine
 62
40
  6
CONTINUOUS
 10
5.9284446731
 20
3.2512629326
 11
5.9284446731
 21
3.1557504326
  0
LINE
  5
357
100
AcDbEntity
  8
03__ASM_ALL_CURVES
100
AcDbLine
 62
40
  6
CONTINUOUS
 10
5.9314294353
 20
3.1048104326
 11
5.9314294353
 21
3.0092979326
  0
LINE
  5
358
100
AcDbEntity
  8
0
100
AcDbLine
 62
7
  6
CONTINUOUS
 10
5.9494802016
 20
3.7152629326
 11
5.9494802016
 21
5.0272629326
  0
LINE
  5
359
100
AcDbEntity
  8
03__ASM_ALL_CURVES
100
AcDbLine
 62
40
  6
CONTINUOUS
 10
5.9530969344
 20
5.4122169326
 11
5.9530969344
 21
5.3612769326
  0
LINE
  5
35A
100
AcDbEntity
  8
03__ASM_ALL_CURVES
100
AcDbLine
 62
40
  6
CONTINUOUS
 10
6.0030638103
 20
3.0092979326
 11
6.0030638103
 21
3.1048104326
  0
LINE
  5
35B
100
AcDbEntity
  8
0
100
AcDbLine
 62
7
  6
CONTINUOUS
 10
6.0199169344
 20
3.5932629326
 11
6.0199169344
 21
5.1492629326
  0
LINE
  5
35C
100
AcDbEntity
  8
03__ASM_ALL_CURVES
100
AcDbLine
 62
40
  6
CONTINUOUS
 10
5.7016024856
 20
3.2035066826
 11
5.7075720168
 21
3.2273848076
  0
LINE
  5
35D
100
AcDbEntity
  8
03__ASM_ALL_CURVES
100
AcDbLine
 62
40
  6
CONTINUOUS
 10
5.6747395915
 20
3.0570541826
 11
5.6687700603
 21
3.0331760576
  0
LINE
  5
35E
100
AcDbEntity
  8
03__ASM_ALL_CURVES
100
AcDbLine
 62
40
  6
CONTINUOUS
 10
5.7732368606
 20
3.2035066826
 11
5.7672673293
 21
3.1796285576
  0
LINE
  5
35F
100
AcDbEntity
  8
THREAD
100
AcDbLine
 62
7
  6
CONTINUOUS
 10
6.3536297473
 20
5.0727629326
 11
6.3259169344
 21
5.0247629326
  0
LINE
  5
360
100
AcDbEntity
  8
0
100
AcDbLine
 62
7
  6
CONTINUOUS
 10
5.5739169344
 20
3.6679731681
 11
5.5299169344
 21
3.5917629326
  0
LINE
  5
361
100
AcDbEntity
  8
03__ASM_ALL_CURVES
100
AcDbLine
 62
40
  6
CONTINUOUS
 10
7.7662425588
 20
5.4482994329
 11
7.7503238088
 21
5.4376869326
  0
LINE
  5
362
100
AcDbEntity
  8
03__ASM_ALL_CURVES
100
AcDbLine
 62
40
  6
CONTINUOUS
 10
7.8935925588
 20
5.4482994329
 11
7.8776738088
 21
5.4376869326
  0
LINE
  5
363
100
AcDbEntity
  8
03__ASM_ALL_CURVES
100
AcDbLine
 62
40
  6
CONTINUOUS
 10
8.6285763085
 20
4.3457929326
 11
8.6763325585
 21
4.3457929326
  0
LINE
  5
364
100
AcDbEntity
  8
03__ASM_ALL_CURVES
100
AcDbLine
 62
40
  6
CONTINUOUS
 10
8.7181192772
 20
4.3457929326
 11
8.7778145897
 21
4.3457929326
  0
LINE
  5
365
100
AcDbEntity
  8
0
100
AcDbLine
 62
7
  6
CONTINUOUS
 10
3.575045524
 20
4.3712629326
 11
3.4733877857
 21
4.3712629326
  0
LINE
  5
366
100
AcDbEntity
  8
03__ASM_ALL_CURVES
100
AcDbLine
 62
40
  6
CONTINUOUS
 10
8.4912770902
 20
4.3967329326
 11
8.4793380277
 21
4.3967329326
  0
LINE
  5
367
100
AcDbEntity
  8
03__ASM_ALL_CURVES
100
AcDbLine
 62
40
  6
CONTINUOUS
 10
8.5867895902
 20
4.4444891826
 11
8.5569419339
 21
4.4444891826
  0
LINE
  5
368
100
AcDbEntity
  8
03__ASM_ALL_CURVES
100
AcDbLine
 62
40
  6
CONTINUOUS
 10
8.3957645902
 20
4.4444891826
 11
8.3659169339
 21
4.4444891826
  0
LINE
  5
369
100
AcDbEntity
  8
03__ASM_ALL_CURVES
100
AcDbLine
 62
40
  6
CONTINUOUS
 10
8.3659169339
 20
4.4922454326
 11
8.3957645902
 21
4.4922454326
  0
LINE
  5
36A
100
AcDbEntity
  8
03__ASM_ALL_CURVES
100
AcDbLine
 62
40
  6
CONTINUOUS
 10
8.4793380277
 20
4.4922454326
 11
8.4912770902
 21
4.4922454326
  0
LINE
  5
36B
100
AcDbEntity
  8
03__ASM_ALL_CURVES
100
AcDbLine
 62
40
  6
CONTINUOUS
 10
8.5569419339
 20
4.4922454326
 11
8.5867895902
 21
4.4922454326
  0
LINE
  5
36C
100
AcDbEntity
  8
03__ASM_ALL_CURVES
100
AcDbLine
 62
40
  6
CONTINUOUS
 10
8.6464849027
 20
4.4922454326
 11
8.7061802152
 21
4.4922454326
  0
LINE
  5
36D
100
AcDbEntity
  8
0
100
AcDbLine
 62
7
  6
CONTINUOUS
 10
3.0549169344
 20
4.5222629326
 11
3.0929169344
 21
4.5222629326
  0
LINE
  5
36E
100
AcDbEntity
  8
03__ASM_ALL_CURVES
100
AcDbLine
 62
40
  6
CONTINUOUS
 10
4.2027575594
 20
5.4376869326
 11
4.1868388094
 21
5.4482994329
  0
LINE
  5
36F
100
AcDbEntity
  8
03__ASM_ALL_CURVES
100
AcDbLine
 62
40
  6
CONTINUOUS
 10
4.0913263094
 20
5.5650369326
 11
4.1072450594
 21
5.5544244351
  0
LINE
  5
370
100
AcDbEntity
  8
03__ASM_ALL_CURVES
100
AcDbLine
 62
40
  6
CONTINUOUS
 10
4.2027575594
 20
5.5119744301
 11
4.1868388094
 21
5.5225869351
  0
LINE
  5
371
100
AcDbEntity
  8
03__ASM_ALL_CURVES
100
AcDbLine
 62
40
  6
CONTINUOUS
 10
4.2186763094
 20
5.5119744301
 11
4.2345950594
 21
5.5013619326
  0
LINE
  5
372
100
AcDbEntity
  8
03__ASM_ALL_CURVES
100
AcDbLine
 62
40
  6
CONTINUOUS
 10
4.2186763094
 20
5.5650369326
 11
4.2345950594
 21
5.5544244351
  0
LINE
  5
373
100
AcDbEntity
  8
03__ASM_ALL_CURVES
100
AcDbLine
 62
40
  6
CONTINUOUS
 10
4.4574575594
 20
5.4376869326
 11
4.4415388094
 21
5.4482994329
  0
LINE
  5
374
100
AcDbEntity
  8
03__ASM_ALL_CURVES
100
AcDbLine
 62
40
  6
CONTINUOUS
 10
6.8066993546
 20
3.0172573078
 11
6.7947602921
 21
3.0331760576
  0
LINE
  5
375
100
AcDbEntity
  8
03__ASM_ALL_CURVES
100
AcDbLine
 62
40
  6
CONTINUOUS
 10
6.8007298233
 20
3.0809323076
 11
6.8066993546
 21
3.0729729345
  0
LINE
  5
376
100
AcDbEntity
  8
03__ASM_ALL_CURVES
100
AcDbLine
 62
40
  6
CONTINUOUS
 10
6.8425165421
 20
3.0490948066
 11
6.8484860733
 21
3.0411354335
  0
LINE
  5
377
100
AcDbEntity
  8
03__ASM_ALL_CURVES
100
AcDbLine
 62
40
  6
CONTINUOUS
 10
6.8484860733
 20
3.0888916807
 11
6.8425165421
 21
3.0968510595
  0
LINE
  5
378
100
AcDbEntity
  8
03__ASM_ALL_CURVES
100
AcDbLine
 62
40
  6
CONTINUOUS
 10
6.9977243546
 20
3.0172573078
 11
6.9857852921
 21
3.0331760576
  0
LINE
  5
379
100
AcDbEntity
  8
03__ASM_ALL_CURVES
100
AcDbLine
 62
40
  6
CONTINUOUS
 10
5.0942075594
 20
5.5650369326
 11
5.1101263094
 21
5.5438119301
  0
LINE
  5
37A
100
AcDbEntity
  8
THREAD
100
AcDbLine
 62
7
  6
CONTINUOUS
 10
6.3536297473
 20
3.6697629326
 11
6.3259169344
 21
3.7177629326
  0
LINE
  5
37B
100
AcDbEntity
  8
0
100
AcDbLine
 62
7
  6
CONTINUOUS
 10
5.6012196927
 20
5.0272629326
 11
5.5299169344
 21
5.1507629326
  0
LINE
  5
37C
100
AcDbEntity
  8
03__ASM_ALL_CURVES
100
AcDbLine
 62
40
  6
CONTINUOUS
 10
6.0478352981
 20
3.2353441807
 11
6.0478352981
 21
3.2273848076
  0
LINE
  5
37D
100
AcDbEntity
  8
03__ASM_ALL_CURVES
100
AcDbLine
 62
40
  6
CONTINUOUS
 10
6.0508200603
 20
3.0092979326
 11
6.0508200603
 21
3.1048104326
  0
LINE
  5
37E
100
AcDbEntity
  8
03__ASM_ALL_CURVES
100
AcDbLine
 62
40
  6
CONTINUOUS
 10
6.0538048293
 20
3.1875879335
 11
6.0538048293
 21
3.1796285576
  0
LINE
  5
37F
100
AcDbEntity
  8
0
100
AcDbLine
 62
7
  6
CONTINUOUS
 10
6.1059169344
 20
3.5932629326
 11
6.1059169344
 21
5.1492629326
  0
LINE
  5
380
100
AcDbEntity
  8
03__ASM_ALL_CURVES
100
AcDbLine
 62
40
  6
CONTINUOUS
 10
6.1059169344
 20
5.1762329326
 11
6.1059169344
 21
5.4376869326
  0
LINE
  5
381
100
AcDbEntity
  8
THREAD
100
AcDbLine
 62
7
  6
CONTINUOUS
 10
6.1529169344
 20
3.6537629326
 11
6.1529169344
 21
5.0887629326
  0
LINE
  5
382
100
AcDbEntity
  8
0
100
AcDbLine
 62
7
  6
CONTINUOUS
 10
6.2559169344
 20
3.6532629326
 11
6.2559169344
 21
5.0892629326
  0
LINE
  5
383
100
AcDbEntity
  8
03__ASM_ALL_CURVES
100
AcDbLine
 62
40
  6
CONTINUOUS
 10
6.2587369344
 20
5.4122169326
 11
6.2587369344
 21
5.3612769326
  0
LINE
  5
384
100
AcDbEntity
  8
03__ASM_ALL_CURVES
100
AcDbLine
 62
40
  6
CONTINUOUS
 10
6.4211081838
 20
5.5013619326
 11
6.4290675588
 21
5.5331994326
  0
LINE
  5
385
100
AcDbEntity
  8
03__ASM_ALL_CURVES
100
AcDbLine
 62
40
  6
CONTINUOUS
 10
6.5166206838
 20
5.5013619326
 11
6.5086613088
 21
5.4695244326
  0
LINE
  5
386
100
AcDbEntity
  8
03__ASM_ALL_CURVES
100
AcDbLine
 62
40
  6
CONTINUOUS
 10
6.5484581838
 20
5.5013619326
 11
6.5564175588
 21
5.5331994326
  0
LINE
  5
387
100
AcDbEntity
  8
03__ASM_ALL_CURVES
100
AcDbLine
 62
40
  6
CONTINUOUS
 10
5.806069279
 20
3.0092979326
 11
5.8359169353
 21
3.1048104326
  0
LINE
  5
388
100
AcDbEntity
  8
03__ASM_ALL_CURVES
100
AcDbLine
 62
40
  6
CONTINUOUS
 10
7.1931675588
 20
5.5331994326
 11
7.2090863088
 21
5.5544244351
  0
LINE
  5
389
100
AcDbEntity
  8
03__ASM_ALL_CURVES
100
AcDbLine
 62
40
  6
CONTINUOUS
 10
8.1403331838
 20
5.4482994329
 11
8.1244144338
 21
5.4376869326
  0
LINE
  5
38A
100
AcDbEntity
  8
03__ASM_ALL_CURVES
100
AcDbLine
 62
40
  6
CONTINUOUS
 10
8.4029925588
 20
5.5119744301
 11
8.3870738088
 21
5.5013619326
  0
LINE
  5
38B
100
AcDbEntity
  8
0
100
AcDbLine
 62
7
  6
CONTINUOUS
 10
2.8559169344
 20
4.5552629326
 11
3.0549169344
 21
4.5552629326
  0
LINE
  5
38C
100
AcDbEntity
  8
0
100
AcDbLine
 62
7
  6
CONTINUOUS
 10
3.0929169344
 20
4.5552629326
 11
3.3249169344
 21
4.5552629326
  0
LINE
  5
38D
100
AcDbEntity
  8
0
100
AcDbLine
 62
7
  6
CONTINUOUS
 10
3.4144169344
 20
4.6367629326
 11
3.3984169344
 21
4.6367629326
  0
LINE
  5
38E
100
AcDbEntity
  8
0
100
AcDbLine
 62
7
  6
CONTINUOUS
 10
3.6369169344
 20
4.6422629326
 11
3.6059169344
 21
4.6422629326
  0
LINE
  5
38F
100
AcDbEntity
  8
0
100
AcDbLine
 62
7
  6
CONTINUOUS
 10
3.3929169344
 20
4.6422629326
 11
3.3869169344
 21
4.6422629326
  0
LINE
  5
390
100
AcDbEntity
  8
0
100
AcDbLine
 62
7
  6
CONTINUOUS
 10
3.4299169345
 20
4.6522629326
 11
3.6001406561
 21
4.6522629326
  0
LINE
  5
391
100
AcDbEntity
  8
0
100
AcDbLine
 62
7
  6
CONTINUOUS
 10
5.0392137404
 20
4.7059909304
 11
4.3453011084
 21
4.7059909304
  0
LINE
  5
392
100
AcDbEntity
  8
0
100
AcDbLine
 62
7
  6
CONTINUOUS
 10
5.0392137404
 20
4.7451739337
 11
4.3453011084
 21
4.7451739337
  0
LINE
  5
393
100
AcDbEntity
  8
03__ASM_ALL_CURVES
100
AcDbLine
 62
40
  6
CONTINUOUS
 10
4.4574575594
 20
5.5119744301
 11
4.4415388094
 21
5.5225869351
  0
LINE
  5
394
100
AcDbEntity
  8
03__ASM_ALL_CURVES
100
AcDbLine
 62
40
  6
CONTINUOUS
 10
4.5848075594
 20
5.4376869326
 11
4.5688888094
 21
5.4482994329
  0
LINE
  5
395
100
AcDbEntity
  8
03__ASM_ALL_CURVES
100
AcDbLine
 62
40
  6
CONTINUOUS
 10
4.4733763094
 20
5.5119744301
 11
4.4892950594
 21
5.5013619326
  0
LINE
  5
396
100
AcDbEntity
  8
03__ASM_ALL_CURVES
100
AcDbLine
 62
40
  6
CONTINUOUS
 10
4.4733763094
 20
5.5650369326
 11
4.4892950594
 21
5.5544244351
  0
LINE
  5
397
100
AcDbEntity
  8
03__ASM_ALL_CURVES
100
AcDbLine
 62
40
  6
CONTINUOUS
 10
4.6007263094
 20
5.5119744301
 11
4.6166450594
 21
5.5013619326
  0
LINE
  5
398
100
AcDbEntity
  8
03__ASM_ALL_CURVES
100
AcDbLine
 62
40
  6
CONTINUOUS
 10
4.6007263094
 20
5.5650369326
 11
4.6166450594
 21
5.5544244351
  0
LINE
  5
399
100
AcDbEntity
  8
03__ASM_ALL_CURVES
100
AcDbLine
 62
40
  6
CONTINUOUS
 10
4.8395075594
 20
5.4376869326
 11
4.8235888094
 21
5.4482994329
  0
LINE
  5
39A
100
AcDbEntity
  8
03__ASM_ALL_CURVES
100
AcDbLine
 62
40
  6
CONTINUOUS
 10
7.0932368546
 20
3.0172573078
 11
7.0872673233
 21
3.0252166831
  0
LINE
  5
39B
100
AcDbEntity
  8
03__ASM_ALL_CURVES
100
AcDbLine
 62
40
  6
CONTINUOUS
 10
7.0335415421
 20
3.0968510595
 11
7.0454806046
 21
3.0809323076
  0
LINE
  5
39C
100
AcDbEntity
  8
03__ASM_ALL_CURVES
100
AcDbLine
 62
40
  6
CONTINUOUS
 10
7.042495849
 20
3.1637098078
 11
7.0305567865
 21
3.1796285576
  0
LINE
  5
39D
100
AcDbEntity
  8
03__ASM_ALL_CURVES
100
AcDbLine
 62
40
  6
CONTINUOUS
 10
6.9828005365
 20
3.2433035595
 11
6.9887700677
 21
3.2353441807
  0
LINE
  5
39E
100
AcDbEntity
  8
03__ASM_ALL_CURVES
100
AcDbLine
 62
40
  6
CONTINUOUS
 10
7.0783130365
 20
3.2433035595
 11
7.090252099
 21
3.2273848076
  0
LINE
  5
39F
100
AcDbEntity
  8
03__ASM_ALL_CURVES
100
AcDbLine
 62
40
  6
CONTINUOUS
 10
7.0216024796
 20
3.0411354335
 11
7.0395110733
 21
3.0092979326
  0
LINE
  5
3A0
100
AcDbEntity
  8
0
100
AcDbLine
 62
7
  6
CONTINUOUS
 10
6.3059169344
 20
3.6532629326
 11
6.3059169344
 21
5.0892629326
  0
LINE
  5
3A1
100
AcDbEntity
  8
03__ASM_ALL_CURVES
100
AcDbLine
 62
40
  6
CONTINUOUS
 10
6.3096769338
 20
5.5650369326
 11
6.3096769338
 21
5.4376869326
  0
LINE
  5
3A2
100
AcDbEntity
  8
0
100
AcDbLine
 62
7
  6
CONTINUOUS
 10
6.3259169344
 20
3.7177629326
 11
6.3259169344
 21
5.0247629326
  0
LINE
  5
3A3
100
AcDbEntity
  8
THREAD
100
AcDbLine
 62
7
  6
CONTINUOUS
 10
6.3536297473
 20
3.6697629326
 11
6.3536297473
 21
5.0727629326
  0
LINE
  5
3A4
100
AcDbEntity
  8
03__ASM_ALL_CURVES
100
AcDbLine
 62
40
  6
CONTINUOUS
 10
6.6837675588
 20
5.4376869326
 11
6.7235644338
 21
5.5650369326
  0
LINE
  5
3A5
100
AcDbEntity
  8
03__ASM_ALL_CURVES
100
AcDbLine
 62
40
  6
CONTINUOUS
 10
7.2648019338
 20
5.4589119332
 11
7.2568425588
 21
5.4482994329
  0
LINE
  5
3A6
100
AcDbEntity
  8
03__ASM_ALL_CURVES
100
AcDbLine
 62
40
  6
CONTINUOUS
 10
5.6657852981
 20
3.2194254345
 11
5.6598157668
 21
3.2114660557
  0
LINE
  5
3A7
100
AcDbEntity
  8
03__ASM_ALL_CURVES
100
AcDbLine
 62
40
  6
CONTINUOUS
 10
5.7075720168
 20
3.2273848076
 11
5.7195110793
 21
3.2433035595
  0
LINE
  5
3A8
100
AcDbEntity
  8
03__ASM_ALL_CURVES
100
AcDbLine
 62
40
  6
CONTINUOUS
 10
7.4637863088
 20
5.5544244351
 11
7.4558269338
 21
5.5438119301
  0
LINE
  5
3A9
100
AcDbEntity
  8
03__ASM_ALL_CURVES
100
AcDbLine
 62
40
  6
CONTINUOUS
 10
5.7672673293
 20
3.1796285576
 11
5.7553282668
 21
3.1637098078
  0
LINE
  5
3AA
100
AcDbEntity
  8
03__ASM_ALL_CURVES
100
AcDbLine
 62
40
  6
CONTINUOUS
 10
5.6687700603
 20
3.0331760576
 11
5.6568309978
 21
3.0172573078
  0
LINE
  5
3AB
100
AcDbEntity
  8
03__ASM_ALL_CURVES
100
AcDbLine
 62
40
  6
CONTINUOUS
 10
7.5195019338
 20
5.4589119332
 11
7.5115425588
 21
5.4482994329
  0
LINE
  5
3AC
100
AcDbEntity
  8
0
100
AcDbLine
 62
7
  6
CONTINUOUS
 10
7.2934169344
 20
4.9007629326
 11
6.8249169344
 21
4.9007629326
  0
LINE
  5
3AD
100
AcDbEntity
  8
0
100
AcDbLine
 62
7
  6
CONTINUOUS
 10
7.8409169344
 20
4.9072629326
 11
7.8199169344
 21
4.9072629326
  0
LINE
  5
3AE
100
AcDbEntity
  8
03__ASM_ALL_CURVES
100
AcDbLine
 62
40
  6
CONTINUOUS
 10
2.9777369344
 20
5.3612769326
 11
2.8249169344
 21
5.3867469326
  0
LINE
  5
3AF
100
AcDbEntity
  8
03__ASM_ALL_CURVES
100
AcDbLine
 62
40
  6
CONTINUOUS
 10
4.8554263094
 20
5.5119744301
 11
4.8713450594
 21
5.5013619326
  0
LINE
  5
3B0
100
AcDbEntity
  8
03__ASM_ALL_CURVES
100
AcDbLine
 62
40
  6
CONTINUOUS
 10
4.8554263094
 20
5.5650369326
 11
4.8713450594
 21
5.5544244351
  0
LINE
  5
3B1
100
AcDbEntity
  8
03__ASM_ALL_CURVES
100
AcDbLine
 62
40
  6
CONTINUOUS
 10
7.1738255365
 20
3.2433035595
 11
7.1797950677
 21
3.2353441807
  0
LINE
  5
3B2
100
AcDbEntity
  8
03__ASM_ALL_CURVES
100
AcDbLine
 62
40
  6
CONTINUOUS
 10
7.3797743546
 20
3.0172573078
 11
7.3678352921
 21
3.0331760576
  0
LINE
  5
3B3
100
AcDbEntity
  8
03__ASM_ALL_CURVES
100
AcDbLine
 62
40
  6
CONTINUOUS
 10
7.4155915421
 20
3.0968510595
 11
7.4215610733
 21
3.0888916807
  0
LINE
  5
3B4
100
AcDbEntity
  8
03__ASM_ALL_CURVES
100
AcDbLine
 62
40
  6
CONTINUOUS
 10
7.3648505365
 20
3.2433035595
 11
7.3708200677
 21
3.2353441807
  0
LINE
  5
3B5
100
AcDbEntity
  8
THREAD
100
AcDbLine
 62
7
  6
CONTINUOUS
 10
6.6539169344
 20
3.6697629326
 11
6.6539169344
 21
5.0727629326
  0
LINE
  5
3B6
100
AcDbEntity
  8
03__ASM_ALL_CURVES
100
AcDbLine
 62
40
  6
CONTINUOUS
 10
5.8568102981
 20
3.2194254345
 11
5.8508407668
 21
3.2114660557
  0
LINE
  5
3B7
100
AcDbEntity
  8
03__ASM_ALL_CURVES
100
AcDbLine
 62
40
  6
CONTINUOUS
 10
5.7642825603
 20
3.0729729345
 11
5.758313029
 21
3.0650135557
  0
LINE
  5
3B8
100
AcDbEntity
  8
03__ASM_ALL_CURVES
100
AcDbLine
 62
40
  6
CONTINUOUS
 10
7.7025675588
 20
5.5331994326
 11
7.7184863088
 21
5.5544244351
  0
LINE
  5
3B9
100
AcDbEntity
  8
03__ASM_ALL_CURVES
100
AcDbLine
 62
40
  6
CONTINUOUS
 10
6.0478352981
 20
3.2273848076
 11
6.0418657668
 21
3.2194254345
  0
LINE
  5
3BA
100
AcDbEntity
  8
03__ASM_ALL_CURVES
100
AcDbLine
 62
40
  6
CONTINUOUS
 10
6.0538048293
 20
3.1796285576
 11
6.0418657668
 21
3.1637098078
  0
LINE
  5
3BB
100
AcDbEntity
  8
03__ASM_ALL_CURVES
100
AcDbLine
 62
40
  6
CONTINUOUS
 10
7.7821613088
 20
5.4695244326
 11
7.7662425588
 21
5.4482994329
  0
LINE
  5
3BC
100
AcDbEntity
  8
0
100
AcDbLine
 62
7
  6
CONTINUOUS
 10
7.5229169344
 20
4.9817629326
 11
7.5359169344
 21
4.9947629326
  0
LINE
  5
3BD
100
AcDbEntity
  8
03__ASM_ALL_CURVES
100
AcDbLine
 62
40
  6
CONTINUOUS
 10
5.6598157668
 20
3.2114660557
 11
5.6478767043
 21
3.2035066826
  0
LINE
  5
3BE
100
AcDbEntity
  8
03__ASM_ALL_CURVES
100
AcDbLine
 62
40
  6
CONTINUOUS
 10
5.7195110793
 20
3.2433035595
 11
5.7314501418
 21
3.2512629326
  0
LINE
  5
3BF
100
AcDbEntity
  8
0
100
AcDbLine
 62
7
  6
CONTINUOUS
 10
4.2939169344
 20
4.9652629326
 11
3.6989169344
 21
4.9652629326
  0
LINE
  5
3C0
100
AcDbEntity
  8
0
100
AcDbLine
 62
7
  6
CONTINUOUS
 10
7.5359169344
 20
4.9947629326
 11
7.6169169344
 21
4.9947629326
  0
LINE
  5
3C1
100
AcDbEntity
  8
0
100
AcDbLine
 62
7
  6
CONTINUOUS
 10
7.8409169344
 20
4.9947629326
 11
7.8879169344
 21
4.9947629326
  0
LINE
  5
3C2
100
AcDbEntity
  8
0
100
AcDbLine
 62
7
  6
CONTINUOUS
 10
7.6169169344
 20
4.9952629326
 11
7.6669169344
 21
4.9952629326
  0
LINE
  5
3C3
100
AcDbEntity
  8
0
100
AcDbLine
 62
7
  6
CONTINUOUS
 10
7.7699169344
 20
4.9952629326
 11
7.8199169344
 21
4.9952629326
  0
LINE
  5
3C4
100
AcDbEntity
  8
THREAD
100
AcDbLine
 62
7
  6
CONTINUOUS
 10
6.8119169344
 20
5.0117629326
 11
6.7149169344
 21
5.0117629326
  0
LINE
  5
3C5
100
AcDbEntity
  8
0
100
AcDbLine
 62
7
  6
CONTINUOUS
 10
5.9494802016
 20
5.0272629326
 11
5.6012196927
 21
5.0272629326
  0
LINE
  5
3C6
100
AcDbEntity
  8
0
100
AcDbLine
 62
7
  6
CONTINUOUS
 10
5.4679169344
 20
5.0627629326
 11
5.4469169344
 21
5.0627629326
  0
LINE
  5
3C7
100
AcDbEntity
  8
THREAD
100
AcDbLine
 62
7
  6
CONTINUOUS
 10
6.6539169344
 20
5.0727629326
 11
6.3536297473
 21
5.0727629326
  0
LINE
  5
3C8
100
AcDbEntity
  8
0
100
AcDbLine
 62
7
  6
CONTINUOUS
 10
5.0392137404
 20
5.0799019315
 11
4.3453011084
 21
5.0799019315
  0
LINE
  5
3C9
100
AcDbEntity
  8
0
100
AcDbLine
 62
7
  6
CONTINUOUS
 10
5.0392137404
 20
5.0802629326
 11
4.3453011084
 21
5.0802629326
  0
LINE
  5
3CA
100
AcDbEntity
  8
THREAD
100
AcDbLine
 62
7
  6
CONTINUOUS
 10
6.1529169344
 20
5.0887629326
 11
6.1059169344
 21
5.0887629326
  0
LINE
  5
3CB
100
AcDbEntity
  8
0
100
AcDbLine
 62
7
  6
CONTINUOUS
 10
6.2559169344
 20
5.0892629326
 11
6.3059169344
 21
5.0892629326
  0
LINE
  5
3CC
100
AcDbEntity
  8
0
100
AcDbLine
 62
7
  6
CONTINUOUS
 10
6.1059169344
 20
5.1492629326
 11
6.0199169344
 21
5.1492629326
  0
LINE
  5
3CD
100
AcDbEntity
  8
0
100
AcDbLine
 62
7
  6
CONTINUOUS
 10
5.5299169344
 20
5.1507629326
 11
5.4679169344
 21
5.1507629326
  0
LINE
  5
3CE
100
AcDbEntity
  8
0
100
AcDbLine
 62
7
  6
CONTINUOUS
 10
5.0799169344
 20
5.1507629326
 11
5.3439169344
 21
5.1507629326
  0
LINE
  5
3CF
100
AcDbEntity
  8
03__ASM_ALL_CURVES
100
AcDbLine
 62
40
  6
CONTINUOUS
 10
2.9777369344
 20
5.3740119326
 11
2.8249169344
 21
5.3867469326
  0
LINE
  5
3D0
100
AcDbEntity
  8
03__ASM_ALL_CURVES
100
AcDbLine
 62
40
  6
CONTINUOUS
 10
2.9777369344
 20
5.3697669326
 11
2.8249169344
 21
5.3867469326
  0
LINE
  5
3D1
100
AcDbEntity
  8
03__ASM_ALL_CURVES
100
AcDbLine
 62
40
  6
CONTINUOUS
 10
2.9777369344
 20
5.3655219326
 11
2.8249169344
 21
5.3867469326
  0
LINE
  5
3D2
100
AcDbEntity
  8
0
100
AcDbLine
 62
7
  6
CONTINUOUS
 10
7.5229169344
 20
3.7607629326
 11
7.5359169344
 21
3.7477629326
  0
LINE
  5
3D3
100
AcDbEntity
  8
03__ASM_ALL_CURVES
100
AcDbLine
 62
40
  6
CONTINUOUS
 10
7.2782923233
 20
3.1048104326
 11
7.3260485733
 21
3.0092979326
  0
LINE
  5
3D4
100
AcDbEntity
  8
03__ASM_ALL_CURVES
100
AcDbLine
 62
40
  6
CONTINUOUS
 10
6.9857852921
 20
3.0331760576
 11
6.9798157608
 21
3.0570541826
  0
LINE
  5
3D5
100
AcDbEntity
  8
THREAD
100
AcDbLine
 62
7
  6
CONTINUOUS
 10
6.7149169344
 20
3.7307629326
 11
6.7149169344
 21
5.0117629326
  0
LINE
  5
3D6
100
AcDbEntity
  8
03__ASM_ALL_CURVES
100
AcDbLine
 62
40
  6
CONTINUOUS
 10
6.8007298233
 20
3.0888916807
 11
6.8007298233
 21
3.0809323076
  0
LINE
  5
3D7
100
AcDbEntity
  8
0
100
AcDbLine
 62
7
  6
CONTINUOUS
 10
6.8119169344
 20
3.7307629326
 11
6.8119169344
 21
5.0117629326
  0
LINE
  5
3D8
100
AcDbEntity
  8
0
100
AcDbLine
 62
7
  6
CONTINUOUS
 10
6.8249169344
 20
3.7437629326
 11
6.8249169344
 21
4.9987629326
  0
LINE
  5
3D9
100
AcDbEntity
  8
03__ASM_ALL_CURVES
100
AcDbLine
 62
40
  6
CONTINUOUS
 10
6.8484860733
 20
3.0411354335
 11
6.8484860733
 21
3.0252166831
  0
LINE
  5
3DA
100
AcDbEntity
  8
03__ASM_ALL_CURVES
100
AcDbLine
 62
40
  6
CONTINUOUS
 10
6.8509144338
 20
5.5650369326
 11
6.8509144338
 21
5.4376869326
  0
LINE
  5
3DB
100
AcDbEntity
  8
03__ASM_ALL_CURVES
100
AcDbLine
 62
40
  6
CONTINUOUS
 10
6.8962423233
 20
3.0092979326
 11
6.8962423233
 21
3.1048104326
  0
LINE
  5
3DC
100
AcDbEntity
  8
03__ASM_ALL_CURVES
100
AcDbLine
 62
40
  6
CONTINUOUS
 10
7.1852081838
 20
5.5013619326
 11
7.1931675588
 21
5.5331994326
  0
LINE
  5
3DD
100
AcDbEntity
  8
03__ASM_ALL_CURVES
100
AcDbLine
 62
40
  6
CONTINUOUS
 10
7.9015519338
 20
5.4589119332
 11
7.8935925588
 21
5.4482994329
  0
LINE
  5
3DE
100
AcDbEntity
  8
THREAD
100
AcDbLine
 62
7
  6
CONTINUOUS
 10
6.7149169344
 20
3.7307629326
 11
6.6539169344
 21
3.6697629326
  0
LINE
  5
3DF
100
AcDbEntity
  8
0
100
AcDbLine
 62
7
  6
CONTINUOUS
 10
6.8249169344
 20
3.7437629326
 11
6.8119169344
 21
3.7307629326
  0
LINE
  5
3E0
100
AcDbEntity
  8
03__ASM_ALL_CURVES
100
AcDbLine
 62
40
  6
CONTINUOUS
 10
5.7553282668
 20
3.1637098078
 11
5.7433892043
 21
3.1557504326
  0
LINE
  5
3E1
100
AcDbEntity
  8
03__ASM_ALL_CURVES
100
AcDbLine
 62
40
  6
CONTINUOUS
 10
5.8508407668
 20
3.2114660557
 11
5.8389017043
 21
3.2035066826
  0
LINE
  5
3E2
100
AcDbEntity
  8
03__ASM_ALL_CURVES
100
AcDbLine
 62
40
  6
CONTINUOUS
 10
5.6568309978
 20
3.0172573078
 11
5.6448919353
 21
3.0092979326
  0
LINE
  5
3E3
100
AcDbEntity
  8
03__ASM_ALL_CURVES
100
AcDbLine
 62
40
  6
CONTINUOUS
 10
6.0060485793
 20
3.2433035595
 11
6.0179876418
 21
3.2512629326
  0
LINE
  5
3E4
100
AcDbEntity
  8
03__ASM_ALL_CURVES
100
AcDbLine
 62
40
  6
CONTINUOUS
 10
5.758313029
 20
3.0650135557
 11
5.7463739665
 21
3.0570541826
  0
LINE
  5
3E5
100
AcDbEntity
  8
03__ASM_ALL_CURVES
100
AcDbLine
 62
40
  6
CONTINUOUS
 10
6.0418657668
 20
3.2194254345
 11
6.0299267043
 21
3.2114660557
  0
LINE
  5
3E6
100
AcDbEntity
  8
03__ASM_ALL_CURVES
100
AcDbLine
 62
40
  6
CONTINUOUS
 10
6.0418657668
 20
3.1637098078
 11
6.0299267043
 21
3.1557504326
  0
LINE
  5
3E7
100
AcDbEntity
  8
03__ASM_ALL_CURVES
100
AcDbLine
 62
40
  6
CONTINUOUS
 10
5.9530969344
 20
5.3612769326
 11
6.2587369344
 21
5.4122169326
  0
LINE
  5
3E8
100
AcDbEntity
  8
03__ASM_ALL_CURVES
100
AcDbLine
 62
40
  6
CONTINUOUS
 10
5.9530969344
 20
5.3655219326
 11
6.2587369344
 21
5.4079719326
  0
LINE
  5
3E9
100
AcDbEntity
  8
03__ASM_ALL_CURVES
100
AcDbLine
 62
40
  6
CONTINUOUS
 10
5.9530969344
 20
5.3697669326
 11
6.2587369344
 21
5.4037269326
  0
LINE
  5
3EA
100
AcDbEntity
  8
03__ASM_ALL_CURVES
100
AcDbLine
 62
40
  6
CONTINUOUS
 10
5.9530969344
 20
5.3740119326
 11
6.2587369344
 21
5.3994819326
  0
LINE
  5
3EB
100
AcDbEntity
  8
03__ASM_ALL_CURVES
100
AcDbLine
 62
40
  6
CONTINUOUS
 10
5.9530969344
 20
5.3782569326
 11
6.2587369344
 21
5.3952369326
  0
LINE
  5
3EC
100
AcDbEntity
  8
03__ASM_ALL_CURVES
100
AcDbLine
 62
40
  6
CONTINUOUS
 10
5.9530969344
 20
5.3825019326
 11
6.2587369344
 21
5.3909919326
  0
LINE
  5
3ED
100
AcDbEntity
  8
03__ASM_ALL_CURVES
100
AcDbLine
 62
40
  6
CONTINUOUS
 10
2.8249169344
 20
5.3867469326
 11
8.5510369344
 21
5.3867469326
  0
LINE
  5
3EE
100
AcDbEntity
  8
03__ASM_ALL_CURVES
100
AcDbLine
 62
40
  6
CONTINUOUS
 10
2.9777369344
 20
5.3825019326
 11
2.8249169344
 21
5.3867469326
  0
LINE
  5
3EF
100
AcDbEntity
  8
03__ASM_ALL_CURVES
100
AcDbLine
 62
40
  6
CONTINUOUS
 10
5.9530969344
 20
5.3909919326
 11
6.2587369344
 21
5.3825019326
  0
LINE
  5
3F0
100
AcDbEntity
  8
03__ASM_ALL_CURVES
100
AcDbLine
 62
40
  6
CONTINUOUS
 10
2.9777369344
 20
5.3782569326
 11
2.8249169344
 21
5.3867469326
  0
LINE
  5
3F1
100
AcDbEntity
  8
03__ASM_ALL_CURVES
100
AcDbLine
 62
40
  6
CONTINUOUS
 10
7.161886474
 20
3.2035066826
 11
7.1797950677
 21
3.1557504326
  0
LINE
  5
3F2
100
AcDbEntity
  8
03__ASM_ALL_CURVES
100
AcDbLine
 62
40
  6
CONTINUOUS
 10
6.4290675588
 20
5.4695244326
 11
6.4211081838
 21
5.5013619326
  0
LINE
  5
3F3
100
AcDbEntity
  8
03__ASM_ALL_CURVES
100
AcDbLine
 62
40
  6
CONTINUOUS
 10
7.0454806046
 20
3.0809323076
 11
7.0514501358
 21
3.0570541826
  0
LINE
  5
3F4
100
AcDbEntity
  8
03__ASM_ALL_CURVES
100
AcDbLine
 62
40
  6
CONTINUOUS
 10
7.0305567865
 20
3.1796285576
 11
7.0245872552
 21
3.2035066826
  0
LINE
  5
3F5
100
AcDbEntity
  8
03__ASM_ALL_CURVES
100
AcDbLine
 62
40
  6
CONTINUOUS
 10
6.5086613088
 20
5.5331994326
 11
6.5166206838
 21
5.5013619326
  0
LINE
  5
3F6
100
AcDbEntity
  8
03__ASM_ALL_CURVES
100
AcDbLine
 62
40
  6
CONTINUOUS
 10
7.090252099
 20
3.2273848076
 11
7.0962216302
 21
3.2035066826
  0
LINE
  5
3F7
100
AcDbEntity
  8
03__ASM_ALL_CURVES
100
AcDbLine
 62
40
  6
CONTINUOUS
 10
6.5564175588
 20
5.4695244326
 11
6.5484581838
 21
5.5013619326
  0
LINE
  5
3F8
100
AcDbEntity
  8
03__ASM_ALL_CURVES
100
AcDbLine
 62
40
  6
CONTINUOUS
 10
6.9410138177
 20
3.1557504326
 11
6.9410138177
 21
3.2512629326
  0
LINE
  5
3F9
100
AcDbEntity
  8
03__ASM_ALL_CURVES
100
AcDbLine
 62
40
  6
CONTINUOUS
 10
6.9782644338
 20
5.5650369326
 11
6.9782644338
 21
5.4376869326
  0
LINE
  5
3FA
100
AcDbEntity
  8
03__ASM_ALL_CURVES
100
AcDbLine
 62
40
  6
CONTINUOUS
 10
6.9887700677
 20
3.2353441807
 11
6.9887700677
 21
3.2194254345
  0
LINE
  5
3FB
100
AcDbEntity
  8
03__ASM_ALL_CURVES
100
AcDbLine
 62
40
  6
CONTINUOUS
 10
7.0737769338
 20
5.4376869326
 11
7.0737769338
 21
5.5650369326
  0
LINE
  5
3FC
100
AcDbEntity
  8
03__ASM_ALL_CURVES
100
AcDbLine
 62
40
  6
CONTINUOUS
 10
7.0872673233
 20
3.0252166831
 11
7.0872673233
 21
3.1048104326
  0
LINE
  5
3FD
100
AcDbEntity
  8
03__ASM_ALL_CURVES
100
AcDbLine
 62
40
  6
CONTINUOUS
 10
8.1562519338
 20
5.4695244326
 11
8.1403331838
 21
5.4482994329
  0
LINE
  5
3FE
100
AcDbEntity
  8
03__ASM_ALL_CURVES
100
AcDbLine
 62
40
  6
CONTINUOUS
 10
8.4077036527
 20
4.4524485557
 11
8.3957645902
 21
4.4444891826
  0
LINE
  5
3FF
100
AcDbEntity
  8
03__ASM_ALL_CURVES
100
AcDbLine
 62
40
  6
CONTINUOUS
 10
8.4673989652
 20
4.4842860595
 11
8.4793380277
 21
4.4922454326
  0
LINE
  5
400
100
AcDbEntity
  8
03__ASM_ALL_CURVES
100
AcDbLine
 62
40
  6
CONTINUOUS
 10
2.9777369344
 20
5.3952369326
 11
2.8249169344
 21
5.3867469326
  0
LINE
  5
401
100
AcDbEntity
  8
03__ASM_ALL_CURVES
100
AcDbLine
 62
40
  6
CONTINUOUS
 10
2.9777369344
 20
5.3909919326
 11
2.8249169344
 21
5.3867469326
  0
LINE
  5
402
100
AcDbEntity
  8
03__ASM_ALL_CURVES
100
AcDbLine
 62
40
  6
CONTINUOUS
 10
8.2836019338
 20
5.4376869326
 11
8.2199269338
 21
5.4376869326
  0
LINE
  5
403
100
AcDbEntity
  8
03__ASM_ALL_CURVES
100
AcDbLine
 62
40
  6
CONTINUOUS
 10
8.1244144338
 20
5.4376869326
 11
8.0925769338
 21
5.4376869326
  0
LINE
  5
404
100
AcDbEntity
  8
03__ASM_ALL_CURVES
100
AcDbLine
 62
40
  6
CONTINUOUS
 10
7.8776738088
 20
5.4376869326
 11
7.8617550588
 21
5.4376869326
  0
LINE
  5
405
100
AcDbEntity
  8
03__ASM_ALL_CURVES
100
AcDbLine
 62
40
  6
CONTINUOUS
 10
7.7503238088
 20
5.4376869326
 11
7.7344050588
 21
5.4376869326
  0
LINE
  5
406
100
AcDbEntity
  8
03__ASM_ALL_CURVES
100
AcDbLine
 62
40
  6
CONTINUOUS
 10
7.4956238088
 20
5.4376869326
 11
7.4797050588
 21
5.4376869326
  0
LINE
  5
407
100
AcDbEntity
  8
03__ASM_ALL_CURVES
100
AcDbLine
 62
40
  6
CONTINUOUS
 10
7.2409238088
 20
5.4376869326
 11
7.2250050588
 21
5.4376869326
  0
LINE
  5
408
100
AcDbEntity
  8
03__ASM_ALL_CURVES
100
AcDbLine
 62
40
  6
CONTINUOUS
 10
6.6041738088
 20
5.4376869326
 11
6.5882550588
 21
5.4376869326
  0
LINE
  5
409
100
AcDbEntity
  8
03__ASM_ALL_CURVES
100
AcDbLine
 62
40
  6
CONTINUOUS
 10
6.4768238088
 20
5.4376869326
 11
6.4609050588
 21
5.4376869326
  0
LINE
  5
40A
100
AcDbEntity
  8
03__ASM_ALL_CURVES
100
AcDbLine
 62
40
  6
CONTINUOUS
 10
4.8554263094
 20
5.4376869326
 11
4.8395075594
 21
5.4376869326
  0
LINE
  5
40B
100
AcDbEntity
  8
03__ASM_ALL_CURVES
100
AcDbLine
 62
40
  6
CONTINUOUS
 10
4.7201169344
 20
5.4376869326
 11
4.7121575594
 21
5.4376869326
  0
LINE
  5
40C
100
AcDbEntity
  8
03__ASM_ALL_CURVES
100
AcDbLine
 62
40
  6
CONTINUOUS
 10
4.6007263094
 20
5.4376869326
 11
4.5848075594
 21
5.4376869326
  0
LINE
  5
40D
100
AcDbEntity
  8
03__ASM_ALL_CURVES
100
AcDbLine
 62
40
  6
CONTINUOUS
 10
4.4733763094
 20
5.4376869326
 11
4.4574575594
 21
5.4376869326
  0
LINE
  5
40E
100
AcDbEntity
  8
03__ASM_ALL_CURVES
100
AcDbLine
 62
40
  6
CONTINUOUS
 10
4.2186763094
 20
5.4376869326
 11
4.2027575594
 21
5.4376869326
  0
LINE
  5
40F
100
AcDbEntity
  8
03__ASM_ALL_CURVES
100
AcDbLine
 62
40
  6
CONTINUOUS
 10
3.9560169344
 20
5.4376869326
 11
3.9480575594
 21
5.4376869326
  0
LINE
  5
410
100
AcDbEntity
  8
03__ASM_ALL_CURVES
100
AcDbLine
 62
40
  6
CONTINUOUS
 10
3.8366263094
 20
5.4376869326
 11
3.8207075594
 21
5.4376869326
  0
LINE
  5
411
100
AcDbEntity
  8
03__ASM_ALL_CURVES
100
AcDbLine
 62
40
  6
CONTINUOUS
 10
4.0515294344
 20
5.4376869326
 11
4.1152044344
 21
5.4376869326
  0
LINE
  5
412
100
AcDbEntity
  8
03__ASM_ALL_CURVES
100
AcDbLine
 62
40
  6
CONTINUOUS
 10
6.3096769338
 20
5.4376869326
 11
6.3733519338
 21
5.4376869326
  0
LINE
  5
413
100
AcDbEntity
  8
03__ASM_ALL_CURVES
100
AcDbLine
 62
40
  6
CONTINUOUS
 10
7.9652269338
 20
5.4376869326
 11
8.0289019338
 21
5.4376869326
  0
LINE
  5
414
100
AcDbEntity
  8
03__ASM_ALL_CURVES
100
AcDbLine
 62
40
  6
CONTINUOUS
 10
6.6996863088
 20
5.4801369339
 11
6.7474425588
 21
5.4801369339
  0
LINE
  5
415
100
AcDbEntity
  8
03__ASM_ALL_CURVES
100
AcDbLine
 62
40
  6
CONTINUOUS
 10
8.3870738088
 20
5.5013619326
 11
8.3472769338
 21
5.5013619326
  0
LINE
  5
416
100
AcDbEntity
  8
03__ASM_ALL_CURVES
100
AcDbLine
 62
40
  6
CONTINUOUS
 10
7.2329644338
 20
5.5013619326
 11
7.2648019338
 21
5.5013619326
  0
LINE
  5
417
100
AcDbEntity
  8
03__ASM_ALL_CURVES
100
AcDbLine
 62
40
  6
CONTINUOUS
 10
7.5831769338
 20
5.5013619326
 11
7.6468519338
 21
5.5013619326
  0
LINE
  5
418
100
AcDbEntity
  8
03__ASM_ALL_CURVES
100
AcDbLine
 62
40
  6
CONTINUOUS
 10
8.2199269338
 20
5.5013619326
 11
8.2597238088
 21
5.5013619326
  0
LINE
  5
419
100
AcDbEntity
  8
03__ASM_ALL_CURVES
100
AcDbLine
 62
40
  6
CONTINUOUS
 10
3.8207075594
 20
5.5119744301
 11
3.8366263094
 21
5.5119744301
  0
LINE
  5
41A
100
AcDbEntity
  8
03__ASM_ALL_CURVES
100
AcDbLine
 62
40
  6
CONTINUOUS
 10
4.2027575594
 20
5.5119744301
 11
4.2186763094
 21
5.5119744301
  0
LINE
  5
41B
100
AcDbEntity
  8
03__ASM_ALL_CURVES
100
AcDbLine
 62
40
  6
CONTINUOUS
 10
4.4574575594
 20
5.5119744301
 11
4.4733763094
 21
5.5119744301
  0
LINE
  5
41C
100
AcDbEntity
  8
03__ASM_ALL_CURVES
100
AcDbLine
 62
40
  6
CONTINUOUS
 10
4.5848075594
 20
5.5119744301
 11
4.6007263094
 21
5.5119744301
  0
LINE
  5
41D
100
AcDbEntity
  8
03__ASM_ALL_CURVES
100
AcDbLine
 62
40
  6
CONTINUOUS
 10
4.8395075594
 20
5.5119744301
 11
4.8554263094
 21
5.5119744301
  0
LINE
  5
41E
100
AcDbEntity
  8
03__ASM_ALL_CURVES
100
AcDbLine
 62
40
  6
CONTINUOUS
 10
7.4956238088
 20
5.5650369326
 11
7.4797050588
 21
5.5650369326
  0
LINE
  5
41F
100
AcDbEntity
  8
03__ASM_ALL_CURVES
100
AcDbLine
 62
40
  6
CONTINUOUS
 10
3.8207075594
 20
5.5650369326
 11
3.8366263094
 21
5.5650369326
  0
LINE
  5
420
100
AcDbEntity
  8
03__ASM_ALL_CURVES
100
AcDbLine
 62
40
  6
CONTINUOUS
 10
4.0754075594
 20
5.5650369326
 11
4.0913263094
 21
5.5650369326
  0
LINE
  5
421
100
AcDbEntity
  8
03__ASM_ALL_CURVES
100
AcDbLine
 62
40
  6
CONTINUOUS
 10
4.2027575594
 20
5.5650369326
 11
4.2186763094
 21
5.5650369326
  0
LINE
  5
422
100
AcDbEntity
  8
03__ASM_ALL_CURVES
100
AcDbLine
 62
40
  6
CONTINUOUS
 10
4.4574575594
 20
5.5650369326
 11
4.4733763094
 21
5.5650369326
  0
LINE
  5
423
100
AcDbEntity
  8
03__ASM_ALL_CURVES
100
AcDbLine
 62
40
  6
CONTINUOUS
 10
4.5848075594
 20
5.5650369326
 11
4.6007263094
 21
5.5650369326
  0
LINE
  5
424
100
AcDbEntity
  8
03__ASM_ALL_CURVES
100
AcDbLine
 62
40
  6
CONTINUOUS
 10
4.8395075594
 20
5.5650369326
 11
4.8554263094
 21
5.5650369326
  0
LINE
  5
425
100
AcDbEntity
  8
03__ASM_ALL_CURVES
100
AcDbLine
 62
40
  6
CONTINUOUS
 10
6.4609050588
 20
5.5650369326
 11
6.4768238088
 21
5.5650369326
  0
LINE
  5
426
100
AcDbEntity
  8
03__ASM_ALL_CURVES
100
AcDbLine
 62
40
  6
CONTINUOUS
 10
6.5882550588
 20
5.5650369326
 11
6.6041738088
 21
5.5650369326
  0
LINE
  5
427
100
AcDbEntity
  8
03__ASM_ALL_CURVES
100
AcDbLine
 62
40
  6
CONTINUOUS
 10
6.8111175588
 20
5.5650369326
 11
6.8907113088
 21
5.5650369326
  0
LINE
  5
428
100
AcDbEntity
  8
03__ASM_ALL_CURVES
100
AcDbLine
 62
40
  6
CONTINUOUS
 10
7.2250050588
 20
5.5650369326
 11
7.2409238088
 21
5.5650369326
  0
LINE
  5
429
100
AcDbEntity
  8
03__ASM_ALL_CURVES
100
AcDbLine
 62
40
  6
CONTINUOUS
 10
7.7344050588
 20
5.5650369326
 11
7.7503238088
 21
5.5650369326
  0
LINE
  5
42A
100
AcDbEntity
  8
03__ASM_ALL_CURVES
100
AcDbLine
 62
40
  6
CONTINUOUS
 10
8.0925769338
 20
5.5650369326
 11
8.1244144338
 21
5.5650369326
  0
LINE
  5
42B
100
AcDbEntity
  8
03__ASM_ALL_CURVES
100
AcDbLine
 62
40
  6
CONTINUOUS
 10
8.2199269338
 20
5.5650369326
 11
8.2836019338
 21
5.5650369326
  0
LINE
  5
42C
100
AcDbEntity
  8
03__ASM_ALL_CURVES
100
AcDbLine
 62
40
  6
CONTINUOUS
 10
8.3472769338
 20
5.5650369326
 11
8.3870738088
 21
5.5650369326
  0
LINE
  5
42D
100
AcDbEntity
  8
03__ASM_ALL_CURVES
100
AcDbLine
 62
40
  6
CONTINUOUS
 10
5.9530969344
 20
5.3952369326
 11
6.2587369344
 21
5.3782569326
  0
LINE
  5
42E
100
AcDbEntity
  8
03__ASM_ALL_CURVES
100
AcDbLine
 62
40
  6
CONTINUOUS
 10
5.9530969344
 20
5.3994819326
 11
6.2587369344
 21
5.3740119326
  0
LINE
  5
42F
100
AcDbEntity
  8
03__ASM_ALL_CURVES
100
AcDbLine
 62
40
  6
CONTINUOUS
 10
5.9530969344
 20
5.4037269326
 11
6.2587369344
 21
5.3697669326
  0
LINE
  5
430
100
AcDbEntity
  8
03__ASM_ALL_CURVES
100
AcDbLine
 62
40
  6
CONTINUOUS
 10
5.9530969344
 20
5.4079719326
 11
6.2587369344
 21
5.3655219326
  0
LINE
  5
431
100
AcDbEntity
  8
03__ASM_ALL_CURVES
100
AcDbLine
 62
40
  6
CONTINUOUS
 10
6.2587369344
 20
5.3612769326
 11
5.9530969344
 21
5.4122169326
  0
LINE
  5
432
100
AcDbEntity
  8
03__ASM_ALL_CURVES
100
AcDbLine
 62
40
  6
CONTINUOUS
 10
6.4609050588
 20
5.4376869326
 11
6.4449863088
 21
5.4482994329
  0
LINE
  5
433
100
AcDbEntity
  8
THREAD
100
AcDbLine
 62
7
  6
CONTINUOUS
 10
6.7149169344
 20
5.0117629326
 11
6.6539169344
 21
5.0727629326
  0
LINE
  5
434
100
AcDbEntity
  8
0
100
AcDbLine
 62
7
  6
CONTINUOUS
 10
6.8249169344
 20
4.9987629326
 11
6.8119169344
 21
5.0117629326
  0
LINE
  5
435
100
AcDbEntity
  8
03__ASM_ALL_CURVES
100
AcDbLine
 62
40
  6
CONTINUOUS
 10
6.4449863088
 20
5.4482994329
 11
6.4290675588
 21
5.4695244326
  0
LINE
  5
436
100
AcDbEntity
  8
03__ASM_ALL_CURVES
100
AcDbLine
 62
40
  6
CONTINUOUS
 10
6.5723363088
 20
5.4482994329
 11
6.5564175588
 21
5.4695244326
  0
LINE
  5
437
100
AcDbEntity
  8
03__ASM_ALL_CURVES
100
AcDbLine
 62
40
  6
CONTINUOUS
 10
6.4927425588
 20
5.5544244351
 11
6.5086613088
 21
5.5331994326
  0
LINE
  5
438
100
AcDbEntity
  8
03__ASM_ALL_CURVES
100
AcDbLine
 62
40
  6
CONTINUOUS
 10
6.7235644338
 20
5.5650369326
 11
6.7633613088
 21
5.4376869326
  0
LINE
  5
439
100
AcDbEntity
  8
03__ASM_ALL_CURVES
100
AcDbLine
 62
40
  6
CONTINUOUS
 10
7.3678352921
 20
3.0331760576
 11
7.3618657608
 21
3.0570541826
  0
LINE
  5
43A
100
AcDbEntity
  8
03__ASM_ALL_CURVES
100
AcDbLine
 62
40
  6
CONTINUOUS
 10
7.1320388177
 20
3.1557504326
 11
7.1320388177
 21
3.2512629326
  0
LINE
  5
43B
100
AcDbEntity
  8
03__ASM_ALL_CURVES
100
AcDbLine
 62
40
  6
CONTINUOUS
 10
7.1350235733
 20
3.1048104326
 11
7.1350235733
 21
3.0252166831
  0
LINE
  5
43C
100
AcDbEntity
  8
03__ASM_ALL_CURVES
100
AcDbLine
 62
40
  6
CONTINUOUS
 10
7.1374519338
 20
5.4376869326
 11
7.1374519338
 21
5.5650369326
  0
LINE
  5
43D
100
AcDbEntity
  8
03__ASM_ALL_CURVES
100
AcDbLine
 62
40
  6
CONTINUOUS
 10
7.1797950677
 20
3.2353441807
 11
7.1797950677
 21
3.2194254345
  0
LINE
  5
43E
100
AcDbEntity
  8
03__ASM_ALL_CURVES
100
AcDbLine
 62
40
  6
CONTINUOUS
 10
7.1827798233
 20
3.0092979326
 11
7.1827798233
 21
3.1048104326
  0
LINE
  5
43F
100
AcDbEntity
  8
03__ASM_ALL_CURVES
100
AcDbLine
 62
40
  6
CONTINUOUS
 10
7.2514294427
 20
3.2512629326
 11
7.2514294427
 21
3.1557504326
  0
LINE
  5
440
100
AcDbEntity
  8
03__ASM_ALL_CURVES
100
AcDbLine
 62
40
  6
CONTINUOUS
 10
7.2648019338
 20
5.5013619326
 11
7.2648019338
 21
5.4589119332
  0
LINE
  5
441
100
AcDbEntity
  8
03__ASM_ALL_CURVES
100
AcDbLine
 62
40
  6
CONTINUOUS
 10
7.2782923233
 20
3.0092979326
 11
7.2782923233
 21
3.1048104326
  0
LINE
  5
442
100
AcDbEntity
  8
0
100
AcDbLine
 62
7
  6
CONTINUOUS
 10
7.2939169344
 20
4.3661215706
 11
7.2939169344
 21
4.3763555429
  0
LINE
  5
443
100
AcDbEntity
  8
0
100
AcDbLine
 62
7
  6
CONTINUOUS
 10
7.3009169344
 20
4.3319724366
 11
7.3009169344
 21
4.410445397
  0
LINE
  5
444
100
AcDbEntity
  8
03__ASM_ALL_CURVES
100
AcDbLine
 62
40
  6
CONTINUOUS
 10
7.3260485733
 20
3.0092979326
 11
7.3260485733
 21
3.1048104326
  0
LINE
  5
445
100
AcDbEntity
  8
0
100
AcDbLine
 62
7
  6
CONTINUOUS
 10
7.3389169344
 20
4.0509173131
 11
7.3389169344
 21
4.0646330805
  0
LINE
  5
446
100
AcDbEntity
  8
0
100
AcDbLine
 62
7
  6
CONTINUOUS
 10
7.3389169344
 20
4.2826818383
 11
7.3389169344
 21
4.4597511467
  0
LINE
  5
447
100
AcDbEntity
  8
0
100
AcDbLine
 62
7
  6
CONTINUOUS
 10
7.3389169344
 20
4.6779215819
 11
7.3389169344
 21
4.6916074399
  0
LINE
  5
448
100
AcDbEntity
  8
03__ASM_ALL_CURVES
100
AcDbLine
 62
40
  6
CONTINUOUS
 10
6.9798157608
 20
3.0570541826
 11
6.9857852921
 21
3.0809323076
  0
LINE
  5
449
100
AcDbEntity
  8
03__ASM_ALL_CURVES
100
AcDbLine
 62
40
  6
CONTINUOUS
 10
7.0245872552
 20
3.2035066826
 11
7.0305567865
 21
3.2273848076
  0
LINE
  5
44A
100
AcDbEntity
  8
03__ASM_ALL_CURVES
100
AcDbLine
 62
40
  6
CONTINUOUS
 10
7.0514501358
 20
3.0570541826
 11
7.0454806046
 21
3.0331760576
  0
LINE
  5
44B
100
AcDbEntity
  8
03__ASM_ALL_CURVES
100
AcDbLine
 62
40
  6
CONTINUOUS
 10
7.0962216302
 20
3.2035066826
 11
7.090252099
 21
3.1796285576
  0
LINE
  5
44C
100
AcDbEntity
  8
03__ASM_ALL_CURVES
100
AcDbLine
 62
40
  6
CONTINUOUS
 10
8.4109519338
 20
5.5225869351
 11
8.4029925588
 21
5.5119744301
  0
LINE
  5
44D
100
AcDbEntity
  8
03__ASM_ALL_CURVES
100
AcDbLine
 62
40
  6
CONTINUOUS
 10
6.8066993546
 20
3.0968510595
 11
6.8007298233
 21
3.0888916807
  0
LINE
  5
44E
100
AcDbEntity
  8
03__ASM_ALL_CURVES
100
AcDbLine
 62
40
  6
CONTINUOUS
 10
8.5032161527
 20
4.4046923078
 11
8.4912770902
 21
4.3967329326
  0
LINE
  5
44F
100
AcDbEntity
  8
03__ASM_ALL_CURVES
100
AcDbLine
 62
40
  6
CONTINUOUS
 10
8.5987286527
 20
4.4524485557
 11
8.5867895902
 21
4.4444891826
  0
LINE
  5
450
100
AcDbEntity
  8
03__ASM_ALL_CURVES
100
AcDbLine
 62
40
  6
CONTINUOUS
 10
2.9777369344
 20
5.4079719326
 11
2.8249169344
 21
5.3867469326
  0
LINE
  5
451
100
AcDbEntity
  8
03__ASM_ALL_CURVES
100
AcDbLine
 62
40
  6
CONTINUOUS
 10
2.9777369344
 20
5.4037269326
 11
2.8249169344
 21
5.3867469326
  0
LINE
  5
452
100
AcDbEntity
  8
03__ASM_ALL_CURVES
100
AcDbLine
 62
40
  6
CONTINUOUS
 10
2.9777369344
 20
5.3994819326
 11
2.8249169344
 21
5.3867469326
  0
LINE
  5
453
100
AcDbEntity
  8
03__ASM_ALL_CURVES
100
AcDbLine
 62
40
  6
CONTINUOUS
 10
6.5882550588
 20
5.4376869326
 11
6.5723363088
 21
5.4482994329
  0
LINE
  5
454
100
AcDbEntity
  8
03__ASM_ALL_CURVES
100
AcDbLine
 62
40
  6
CONTINUOUS
 10
6.4768238088
 20
5.5650369326
 11
6.4927425588
 21
5.5544244351
  0
LINE
  5
455
100
AcDbEntity
  8
03__ASM_ALL_CURVES
100
AcDbLine
 62
40
  6
CONTINUOUS
 10
6.6041738088
 20
5.5650369326
 11
6.6200925588
 21
5.5544244351
  0
LINE
  5
456
100
AcDbEntity
  8
03__ASM_ALL_CURVES
100
AcDbLine
 62
40
  6
CONTINUOUS
 10
6.6200925588
 20
5.5544244351
 11
6.6280519338
 21
5.5438119301
  0
LINE
  5
457
100
AcDbEntity
  8
0
100
AcDbLine
 62
7
  6
CONTINUOUS
 10
7.3459169344
 20
4.6940848602
 11
7.3459169344
 21
4.6738066319
  0
LINE
  5
458
100
AcDbEntity
  8
0
100
AcDbLine
 62
7
  6
CONTINUOUS
 10
7.3459169344
 20
4.0484418725
 11
7.3459169344
 21
4.0686290585
  0
LINE
  5
459
100
AcDbEntity
  8
0
100
AcDbLine
 62
7
  6
CONTINUOUS
 10
7.3459169344
 20
4.2782461085
 11
7.3459169344
 21
4.4643315087
  0
LINE
  5
45A
100
AcDbEntity
  8
0
100
AcDbLine
 62
7
  6
CONTINUOUS
 10
7.3559169344
 20
4.6968654911
 11
7.3559169344
 21
4.6695657528
  0
LINE
  5
45B
100
AcDbEntity
  8
0
100
AcDbLine
 62
7
  6
CONTINUOUS
 10
7.3559169344
 20
4.0456599135
 11
7.3559169344
 21
4.0729735944
  0
LINE
  5
45C
100
AcDbEntity
  8
0
100
AcDbLine
 62
7
  6
CONTINUOUS
 10
7.3559169344
 20
4.2727157288
 11
7.3559169344
 21
4.4697355693
  0
LINE
  5
45D
100
AcDbEntity
  8
0
100
AcDbLine
 62
7
  6
CONTINUOUS
 10
7.3629169344
 20
4.043962055
 11
7.3629169344
 21
4.0758553333
  0
LINE
  5
45E
100
AcDbEntity
  8
0
100
AcDbLine
 62
7
  6
CONTINUOUS
 10
7.3629169344
 20
4.2696475026
 11
7.3629169344
 21
4.4729617648
  0
LINE
  5
45F
100
AcDbEntity
  8
0
100
AcDbLine
 62
7
  6
CONTINUOUS
 10
7.3629169344
 20
4.6665971373
 11
7.3629169344
 21
4.6985646476
  0
LINE
  5
460
100
AcDbEntity
  8
03__ASM_ALL_CURVES
100
AcDbLine
 62
40
  6
CONTINUOUS
 10
7.3708200677
 20
3.2353441807
 11
7.3708200677
 21
3.2194254345
  0
LINE
  5
461
100
AcDbEntity
  8
0
100
AcDbLine
 62
7
  6
CONTINUOUS
 10
7.4009169344
 20
4.0401756526
 11
7.4009169344
 21
4.0822113985
  0
LINE
  5
462
100
AcDbEntity
  8
0
100
AcDbLine
 62
7
  6
CONTINUOUS
 10
7.4009169344
 20
4.2618163301
 11
7.4009169344
 21
4.4806137487
  0
LINE
  5
463
100
AcDbEntity
  8
0
100
AcDbLine
 62
7
  6
CONTINUOUS
 10
7.4009169344
 20
4.660310931
 11
7.4009169344
 21
4.7023502636
  0
LINE
  5
464
100
AcDbEntity
  8
0
100
AcDbLine
 62
7
  6
CONTINUOUS
 10
7.4079169344
 20
4.7022039449
 11
7.4079169344
 21
4.6605581285
  0
LINE
  5
465
100
AcDbEntity
  8
0
100
AcDbLine
 62
7
  6
CONTINUOUS
 10
7.4079169344
 20
4.0403216932
 11
7.4079169344
 21
4.0819706845
  0
LINE
  5
466
100
AcDbEntity
  8
0
100
AcDbLine
 62
7
  6
CONTINUOUS
 10
7.4079169344
 20
4.262330196
 11
7.4079169344
 21
4.4802409223
  0
LINE
  5
467
100
AcDbEntity
  8
0
100
AcDbLine
 62
7
  6
CONTINUOUS
 10
7.4179169344
 20
4.7017164515
 11
7.4179169344
 21
4.66136584
  0
LINE
  5
468
100
AcDbEntity
  8
0
100
AcDbLine
 62
7
  6
CONTINUOUS
 10
7.4179169344
 20
4.0408087324
 11
7.4179169344
 21
4.0811688685
  0
LINE
  5
469
100
AcDbEntity
  8
0
100
AcDbLine
 62
7
  6
CONTINUOUS
 10
7.4179169344
 20
4.2631661611
 11
7.4179169344
 21
4.479307873
  0
LINE
  5
46A
100
AcDbEntity
  8
0
100
AcDbLine
 62
7
  6
CONTINUOUS
 10
7.4249169344
 20
4.0412120857
 11
7.4249169344
 21
4.0803300924
  0
LINE
  5
46B
100
AcDbEntity
  8
0
100
AcDbLine
 62
7
  6
CONTINUOUS
 10
7.4249169344
 20
4.2642008711
 11
7.4249169344
 21
4.4784146662
  0
LINE
  5
46C
100
AcDbEntity
  8
0
100
AcDbLine
 62
7
  6
CONTINUOUS
 10
7.4249169344
 20
4.6621856853
 11
7.4249169344
 21
4.7013147386
  0
LINE
  5
46D
100
AcDbEntity
  8
03__ASM_ALL_CURVES
100
AcDbLine
 62
40
  6
CONTINUOUS
 10
7.4558269338
 20
5.5438119301
 11
7.4558269338
 21
5.5331994326
  0
LINE
  5
46E
100
AcDbEntity
  8
0
100
AcDbLine
 62
7
  6
CONTINUOUS
 10
7.4629169344
 20
4.0492743805
 11
7.4629169344
 21
4.0672156614
  0
LINE
  5
46F
100
AcDbEntity
  8
0
100
AcDbLine
 62
7
  6
CONTINUOUS
 10
7.4629169344
 20
4.2797442723
 11
7.4629169344
 21
4.4628390186
  0
LINE
  5
470
100
AcDbEntity
  8
0
100
AcDbLine
 62
7
  6
CONTINUOUS
 10
7.4629169344
 20
4.6752855551
 11
7.4629169344
 21
4.6932486009
  0
LINE
  5
471
100
AcDbEntity
  8
03__ASM_ALL_CURVES
100
AcDbLine
 62
40
  6
CONTINUOUS
 10
7.4693173233
 20
3.0092979326
 11
7.4693173233
 21
3.1048104326
  0
LINE
  5
472
100
AcDbEntity
  8
0
100
AcDbLine
 62
7
  6
CONTINUOUS
 10
7.4699169344
 20
4.6902697323
 11
7.4699169344
 21
4.6798274592
  0
LINE
  5
473
100
AcDbEntity
  8
0
100
AcDbLine
 62
7
  6
CONTINUOUS
 10
7.4699169344
 20
4.0522570058
 11
7.4699169344
 21
4.0626988708
  0
LINE
  5
474
100
AcDbEntity
  8
0
100
AcDbLine
 62
7
  6
CONTINUOUS
 10
7.4699169344
 20
4.2853091409
 11
7.4699169344
 21
4.4572430296
  0
LINE
  5
475
100
AcDbEntity
  8
0
100
AcDbLine
 62
7
  6
CONTINUOUS
 10
7.4799169344
 20
4.2935719503
 11
7.4799169344
 21
4.4490437808
  0
LINE
  5
476
100
AcDbEntity
  8
0
100
AcDbLine
 62
7
  6
CONTINUOUS
 10
7.4869169344
 20
4.3018222565
 11
7.4869169344
 21
4.4407124553
  0
LINE
  5
477
100
AcDbEntity
  8
0
100
AcDbLine
 62
7
  6
CONTINUOUS
 10
7.5099169344
 20
3.8422742749
 11
7.5099169344
 21
3.9807607817
  0
LINE
  5
478
100
AcDbEntity
  8
0
100
AcDbLine
 62
7
  6
CONTINUOUS
 10
7.5099169344
 20
4.0136621494
 11
7.5099169344
 21
4.3479981523
  0
LINE
  5
479
100
AcDbEntity
  8
0
100
AcDbLine
 62
7
  6
CONTINUOUS
 10
7.5099169344
 20
4.3945277128
 11
7.5099169344
 21
4.7288637158
  0
LINE
  5
47A
100
AcDbEntity
  8
0
100
AcDbLine
 62
7
  6
CONTINUOUS
 10
7.5099169344
 20
4.7617650835
 11
7.5099169344
 21
4.9002515903
  0
LINE
  5
47B
100
AcDbEntity
  8
03__ASM_ALL_CURVES
100
AcDbLine
 62
40
  6
CONTINUOUS
 10
7.5195019338
 20
5.4801369339
 11
7.5195019338
 21
5.4589119332
  0
LINE
  5
47C
100
AcDbEntity
  8
0
100
AcDbLine
 62
7
  6
CONTINUOUS
 10
7.5229169344
 20
4.9817629326
 11
7.5229169344
 21
3.7607629326
  0
LINE
  5
47D
100
AcDbEntity
  8
0
100
AcDbLine
 62
7
  6
CONTINUOUS
 10
7.5359169344
 20
4.9947629326
 11
7.5359169344
 21
3.7477629326
  0
LINE
  5
47E
100
AcDbEntity
  8
03__ASM_ALL_CURVES
100
AcDbLine
 62
40
  6
CONTINUOUS
 10
7.6946081838
 20
5.5013619326
 11
7.7025675588
 21
5.5331994326
  0
LINE
  5
47F
100
AcDbEntity
  8
03__ASM_ALL_CURVES
100
AcDbLine
 62
40
  6
CONTINUOUS
 10
7.7901206838
 20
5.5013619326
 11
7.7821613088
 21
5.4695244326
  0
LINE
  5
480
100
AcDbEntity
  8
03__ASM_ALL_CURVES
100
AcDbLine
 62
40
  6
CONTINUOUS
 10
7.329033349
 20
3.1796285576
 11
7.3230638177
 21
3.1557504326
  0
LINE
  5
481
100
AcDbEntity
  8
03__ASM_ALL_CURVES
100
AcDbLine
 62
40
  6
CONTINUOUS
 10
6.9887700677
 20
3.2194254345
 11
6.9828005365
 21
3.2114660557
  0
LINE
  5
482
100
AcDbEntity
  8
03__ASM_ALL_CURVES
100
AcDbLine
 62
40
  6
CONTINUOUS
 10
6.8484860733
 20
3.0252166831
 11
6.8425165421
 21
3.0172573078
  0
LINE
  5
483
100
AcDbEntity
  8
03__ASM_ALL_CURVES
100
AcDbLine
 62
40
  6
CONTINUOUS
 10
7.0305567865
 20
3.2273848076
 11
7.042495849
 21
3.2433035595
  0
LINE
  5
484
100
AcDbEntity
  8
03__ASM_ALL_CURVES
100
AcDbLine
 62
40
  6
CONTINUOUS
 10
6.9857852921
 20
3.0809323076
 11
6.9977243546
 21
3.0968510595
  0
LINE
  5
485
100
AcDbEntity
  8
03__ASM_ALL_CURVES
100
AcDbLine
 62
40
  6
CONTINUOUS
 10
7.090252099
 20
3.1796285576
 11
7.0783130365
 21
3.1637098078
  0
LINE
  5
486
100
AcDbEntity
  8
03__ASM_ALL_CURVES
100
AcDbLine
 62
40
  6
CONTINUOUS
 10
7.1797950677
 20
3.2194254345
 11
7.1738255365
 21
3.2114660557
  0
LINE
  5
487
100
AcDbEntity
  8
03__ASM_ALL_CURVES
100
AcDbLine
 62
40
  6
CONTINUOUS
 10
7.0454806046
 20
3.0331760576
 11
7.0335415421
 21
3.0172573078
  0
LINE
  5
488
100
AcDbEntity
  8
03__ASM_ALL_CURVES
100
AcDbLine
 62
40
  6
CONTINUOUS
 10
6.8186384171
 20
3.1048104326
 11
6.8066993546
 21
3.0968510595
  0
LINE
  5
489
100
AcDbEntity
  8
03__ASM_ALL_CURVES
100
AcDbLine
 62
40
  6
CONTINUOUS
 10
6.9828005365
 20
3.2114660557
 11
6.970861474
 21
3.2035066826
  0
LINE
  5
48A
100
AcDbEntity
  8
03__ASM_ALL_CURVES
100
AcDbLine
 62
40
  6
CONTINUOUS
 10
7.042495849
 20
3.2433035595
 11
7.0544349115
 21
3.2512629326
  0
LINE
  5
48B
100
AcDbEntity
  8
03__ASM_ALL_CURVES
100
AcDbLine
 62
40
  6
CONTINUOUS
 10
6.8425165421
 20
3.0172573078
 11
6.8305774796
 21
3.0092979326
  0
LINE
  5
48C
100
AcDbEntity
  8
03__ASM_ALL_CURVES
100
AcDbLine
 62
40
  6
CONTINUOUS
 10
7.0783130365
 20
3.1637098078
 11
7.066373974
 21
3.1557504326
  0
LINE
  5
48D
100
AcDbEntity
  8
03__ASM_ALL_CURVES
100
AcDbLine
 62
40
  6
CONTINUOUS
 10
6.9977243546
 20
3.0968510595
 11
7.0096634171
 21
3.1048104326
  0
LINE
  5
48E
100
AcDbEntity
  8
03__ASM_ALL_CURVES
100
AcDbLine
 62
40
  6
CONTINUOUS
 10
7.1738255365
 20
3.2114660557
 11
7.161886474
 21
3.2035066826
  0
LINE
  5
48F
100
AcDbEntity
  8
03__ASM_ALL_CURVES
100
AcDbLine
 62
40
  6
CONTINUOUS
 10
7.329033349
 20
3.2433035595
 11
7.3409724115
 21
3.2512629326
  0
LINE
  5
490
100
AcDbEntity
  8
03__ASM_ALL_CURVES
100
AcDbLine
 62
40
  6
CONTINUOUS
 10
7.0335415421
 20
3.0172573078
 11
7.0216024796
 21
3.0092979326
  0
LINE
  5
491
100
AcDbEntity
  8
03__ASM_ALL_CURVES
100
AcDbLine
 62
40
  6
CONTINUOUS
 10
2.8249169344
 20
5.3867469326
 11
2.9777369344
 21
5.4122169326
  0
LINE
  5
492
100
AcDbEntity
  8
03__ASM_ALL_CURVES
100
AcDbLine
 62
40
  6
CONTINUOUS
 10
8.4793380277
 20
4.3967329326
 11
8.4673989652
 21
4.4046923078
  0
LINE
  5
493
100
AcDbEntity
  8
03__ASM_ALL_CURVES
100
AcDbLine
 62
40
  6
CONTINUOUS
 10
8.3957645902
 20
4.4922454326
 11
8.4077036527
 21
4.4842860595
  0
LINE
  5
494
100
AcDbEntity
  8
03__ASM_ALL_CURVES
100
AcDbLine
 62
40
  6
CONTINUOUS
 10
8.4912770902
 20
4.4922454326
 11
8.5032161527
 21
4.4842860595
  0
LINE
  5
495
100
AcDbEntity
  8
03__ASM_ALL_CURVES
100
AcDbLine
 62
40
  6
CONTINUOUS
 10
8.5867895902
 20
4.4922454326
 11
8.5987286527
 21
4.4842860595
  0
LINE
  5
496
100
AcDbEntity
  8
03__ASM_ALL_CURVES
100
AcDbLine
 62
40
  6
CONTINUOUS
 10
7.2250050588
 20
5.4376869326
 11
7.2090863088
 21
5.4482994329
  0
LINE
  5
497
100
AcDbEntity
  8
03__ASM_ALL_CURVES
100
AcDbLine
 62
40
  6
CONTINUOUS
 10
7.0737769338
 20
5.5650369326
 11
7.1374519338
 21
5.4376869326
  0
LINE
  5
498
100
AcDbEntity
  8
03__ASM_ALL_CURVES
100
AcDbLine
 62
40
  6
CONTINUOUS
 10
7.1931675588
 20
5.4695244326
 11
7.1852081838
 21
5.5013619326
  0
LINE
  5
499
100
AcDbEntity
  8
03__ASM_ALL_CURVES
100
AcDbLine
 62
40
  6
CONTINUOUS
 10
7.5831769338
 20
5.5650369326
 11
7.5831769338
 21
5.4376869326
  0
LINE
  5
49A
100
AcDbEntity
  8
0
100
AcDbLine
 62
7
  6
CONTINUOUS
 10
7.6169169344
 20
3.7472629326
 11
7.6169169344
 21
4.9952629326
  0
LINE
  5
49B
100
AcDbEntity
  8
03__ASM_ALL_CURVES
100
AcDbLine
 62
40
  6
CONTINUOUS
 10
7.6468519338
 20
5.5650369326
 11
7.6468519338
 21
5.4376869326
  0
LINE
  5
49C
100
AcDbEntity
  8
0
100
AcDbLine
 62
7
  6
CONTINUOUS
 10
7.6669169344
 20
3.7472629326
 11
7.6669169344
 21
4.9952629326
  0
LINE
  5
49D
100
AcDbEntity
  8
0
100
AcDbLine
 62
7
  6
CONTINUOUS
 10
7.7699169344
 20
3.7472629326
 11
7.7699169344
 21
4.9952629326
  0
LINE
  5
49E
100
AcDbEntity
  8
03__ASM_ALL_CURVES
100
AcDbLine
 62
40
  6
CONTINUOUS
 10
7.3618657608
 20
3.0570541826
 11
7.3678352921
 21
3.0809323076
  0
LINE
  5
49F
100
AcDbEntity
  8
03__ASM_ALL_CURVES
100
AcDbLine
 62
40
  6
CONTINUOUS
 10
7.1350235733
 20
3.0252166831
 11
7.1290540421
 21
3.0172573078
  0
LINE
  5
4A0
100
AcDbEntity
  8
03__ASM_ALL_CURVES
100
AcDbLine
 62
40
  6
CONTINUOUS
 10
7.3230638177
 20
3.2353441807
 11
7.329033349
 21
3.2433035595
  0
LINE
  5
4A1
100
AcDbEntity
  8
03__ASM_ALL_CURVES
100
AcDbLine
 62
40
  6
CONTINUOUS
 10
7.3409724115
 20
3.1955473066
 11
7.329033349
 21
3.1796285576
  0
LINE
  5
4A2
100
AcDbEntity
  8
03__ASM_ALL_CURVES
100
AcDbLine
 62
40
  6
CONTINUOUS
 10
7.3708200677
 20
3.2194254345
 11
7.3648505365
 21
3.2114660557
  0
LINE
  5
4A3
100
AcDbEntity
  8
0
100
AcDbLine
 62
7
  6
CONTINUOUS
 10
7.8879169344
 20
3.7477629326
 11
7.9189169344
 21
3.7787629326
  0
LINE
  5
4A4
100
AcDbEntity
  8
03__ASM_ALL_CURVES
100
AcDbLine
 62
40
  6
CONTINUOUS
 10
7.3648505365
 20
3.2114660557
 11
7.3409724115
 21
3.1955473066
  0
LINE
  5
4A5
100
AcDbEntity
  8
03__ASM_ALL_CURVES
100
AcDbLine
 62
40
  6
CONTINUOUS
 10
7.1290540421
 20
3.0172573078
 11
7.1171149796
 21
3.0092979326
  0
LINE
  5
4A6
100
AcDbEntity
  8
03__ASM_ALL_CURVES
100
AcDbLine
 62
40
  6
CONTINUOUS
 10
7.3797743546
 20
3.0968510595
 11
7.3917134171
 21
3.1048104326
  0
LINE
  5
4A7
100
AcDbEntity
  8
03__ASM_ALL_CURVES
100
AcDbLine
 62
40
  6
CONTINUOUS
 10
7.4155915421
 20
3.0172573078
 11
7.4036524796
 21
3.0092979326
  0
LINE
  5
4A8
100
AcDbEntity
  8
03__ASM_ALL_CURVES
100
AcDbLine
 62
40
  6
CONTINUOUS
 10
7.2409238088
 20
5.5650369326
 11
7.2568425588
 21
5.5544244351
  0
LINE
  5
4A9
100
AcDbEntity
  8
03__ASM_ALL_CURVES
100
AcDbLine
 62
40
  6
CONTINUOUS
 10
7.4797050588
 20
5.4376869326
 11
7.4637863088
 21
5.4482994329
  0
LINE
  5
4AA
100
AcDbEntity
  8
03__ASM_ALL_CURVES
100
AcDbLine
 62
40
  6
CONTINUOUS
 10
7.4637863088
 20
5.5225869351
 11
7.5115425588
 21
5.4907494313
  0
LINE
  5
4AB
100
AcDbEntity
  8
03__ASM_ALL_CURVES
100
AcDbLine
 62
40
  6
CONTINUOUS
 10
7.2090863088
 20
5.4482994329
 11
7.1931675588
 21
5.4695244326
  0
LINE
  5
4AC
100
AcDbEntity
  8
03__ASM_ALL_CURVES
100
AcDbLine
 62
40
  6
CONTINUOUS
 10
7.2568425588
 20
5.5544244351
 11
7.2648019338
 21
5.5438119301
  0
LINE
  5
4AD
100
AcDbEntity
  8
0
100
AcDbLine
 62
7
  6
CONTINUOUS
 10
7.8199169344
 20
3.7472629326
 11
7.8199169344
 21
4.9952629326
  0
LINE
  5
4AE
100
AcDbEntity
  8
03__ASM_ALL_CURVES
100
AcDbLine
 62
40
  6
CONTINUOUS
 10
7.8378769338
 20
5.4589119332
 11
7.8378769338
 21
5.5650369326
  0
LINE
  5
4AF
100
AcDbEntity
  8
0
100
AcDbLine
 62
7
  6
CONTINUOUS
 10
7.8409169344
 20
4.9947556269
 11
7.8409169344
 21
3.7477702383
  0
LINE
  5
4B0
100
AcDbEntity
  8
0
100
AcDbLine
 62
7
  6
CONTINUOUS
 10
7.8879169344
 20
3.7477629326
 11
7.8879169344
 21
4.9947629326
  0
LINE
  5
4B1
100
AcDbEntity
  8
03__ASM_ALL_CURVES
100
AcDbLine
 62
40
  6
CONTINUOUS
 10
7.9015519338
 20
5.5650369326
 11
7.9015519338
 21
5.4589119332
  0
LINE
  5
4B2
100
AcDbEntity
  8
0
100
AcDbLine
 62
7
  6
CONTINUOUS
 10
7.9189169344
 20
3.7787629326
 11
7.9189169344
 21
4.9637629326
  0
LINE
  5
4B3
100
AcDbEntity
  8
03__ASM_ALL_CURVES
100
AcDbLine
 62
40
  6
CONTINUOUS
 10
7.9652269338
 20
5.5650369326
 11
7.9652269338
 21
5.4376869326
  0
LINE
  5
4B4
100
AcDbEntity
  8
03__ASM_ALL_CURVES
100
AcDbLine
 62
40
  6
CONTINUOUS
 10
8.1642113088
 20
5.5013619326
 11
8.1562519338
 21
5.4695244326
  0
LINE
  5
4B5
100
AcDbEntity
  8
03__ASM_ALL_CURVES
100
AcDbLine
 62
40
  6
CONTINUOUS
 10
7.3678352921
 20
3.0809323076
 11
7.3797743546
 21
3.0968510595
  0
LINE
  5
4B6
100
AcDbEntity
  8
03__ASM_ALL_CURVES
100
AcDbLine
 62
40
  6
CONTINUOUS
 10
8.4136731839
 20
4.4604079345
 11
8.4077036527
 21
4.4524485557
  0
LINE
  5
4B7
100
AcDbEntity
  8
03__ASM_ALL_CURVES
100
AcDbLine
 62
40
  6
CONTINUOUS
 10
8.4554599027
 20
4.4683673076
 11
8.4673989652
 21
4.4842860595
  0
LINE
  5
4B8
100
AcDbEntity
  8
03__ASM_ALL_CURVES
100
AcDbLine
 62
40
  6
CONTINUOUS
 10
7.4215610733
 20
3.0252166831
 11
7.4155915421
 21
3.0172573078
  0
LINE
  5
4B9
100
AcDbEntity
  8
03__ASM_ALL_CURVES
100
AcDbLine
 62
40
  6
CONTINUOUS
 10
8.5151552152
 20
4.4206110576
 11
8.5032161527
 21
4.4046923078
  0
LINE
  5
4BA
100
AcDbEntity
  8
03__ASM_ALL_CURVES
100
AcDbLine
 62
40
  6
CONTINUOUS
 10
8.6046981839
 20
4.4604079345
 11
8.5987286527
 21
4.4524485557
  0
LINE
  5
4BB
100
AcDbEntity
  8
03__ASM_ALL_CURVES
100
AcDbLine
 62
40
  6
CONTINUOUS
 10
7.5115425588
 20
5.5544244351
 11
7.4956238088
 21
5.5650369326
  0
LINE
  5
4BC
100
AcDbEntity
  8
03__ASM_ALL_CURVES
100
AcDbLine
 62
40
  6
CONTINUOUS
 10
7.7344050588
 20
5.4376869326
 11
7.7184863088
 21
5.4482994329
  0
LINE
  5
4BD
100
AcDbEntity
  8
03__ASM_ALL_CURVES
100
AcDbLine
 62
40
  6
CONTINUOUS
 10
7.8617550588
 20
5.4376869326
 11
7.8458363088
 21
5.4482994329
  0
LINE
  5
4BE
100
AcDbEntity
  8
03__ASM_ALL_CURVES
100
AcDbLine
 62
40
  6
CONTINUOUS
 10
7.7503238088
 20
5.5650369326
 11
7.7662425588
 21
5.5544244351
  0
LINE
  5
4BF
100
AcDbEntity
  8
0
100
AcDbLine
 62
7
  6
CONTINUOUS
 10
7.8879169344
 20
4.9947629326
 11
7.9189169344
 21
4.9637629326
  0
LINE
  5
4C0
100
AcDbEntity
  8
03__ASM_ALL_CURVES
100
AcDbLine
 62
40
  6
CONTINUOUS
 10
7.4637863088
 20
5.4482994329
 11
7.4478675588
 21
5.4695244326
  0
LINE
  5
4C1
100
AcDbEntity
  8
03__ASM_ALL_CURVES
100
AcDbLine
 62
40
  6
CONTINUOUS
 10
7.4558269338
 20
5.5331994326
 11
7.4637863088
 21
5.5225869351
  0
LINE
  5
4C2
100
AcDbEntity
  8
03__ASM_ALL_CURVES
100
AcDbLine
 62
40
  6
CONTINUOUS
 10
7.5115425588
 20
5.4907494313
 11
7.5195019338
 21
5.4801369339
  0
LINE
  5
4C3
100
AcDbEntity
  8
03__ASM_ALL_CURVES
100
AcDbLine
 62
40
  6
CONTINUOUS
 10
7.5195019338
 20
5.5438119301
 11
7.5115425588
 21
5.5544244351
  0
LINE
  5
4C4
100
AcDbEntity
  8
03__ASM_ALL_CURVES
100
AcDbLine
 62
40
  6
CONTINUOUS
 10
7.7025675588
 20
5.4695244326
 11
7.6946081838
 21
5.5013619326
  0
LINE
  5
4C5
100
AcDbEntity
  8
03__ASM_ALL_CURVES
100
AcDbLine
 62
40
  6
CONTINUOUS
 10
8.0925769338
 20
5.4376869326
 11
8.0925769338
 21
5.5650369326
  0
LINE
  5
4C6
100
AcDbEntity
  8
03__ASM_ALL_CURVES
100
AcDbLine
 62
40
  6
CONTINUOUS
 10
8.1244144338
 20
5.5650369326
 11
8.1403331838
 21
5.5544244351
  0
LINE
  5
4C7
100
AcDbEntity
  8
03__ASM_ALL_CURVES
100
AcDbLine
 62
40
  6
CONTINUOUS
 10
8.4673989652
 20
4.4046923078
 11
8.4554599027
 21
4.4206110576
  0
LINE
  5
4C8
100
AcDbEntity
  8
03__ASM_ALL_CURVES
100
AcDbLine
 62
40
  6
CONTINUOUS
 10
8.4077036527
 20
4.4842860595
 11
8.4136731839
 21
4.4763266807
  0
LINE
  5
4C9
100
AcDbEntity
  8
03__ASM_ALL_CURVES
100
AcDbLine
 62
40
  6
CONTINUOUS
 10
7.7184863088
 20
5.4482994329
 11
7.7025675588
 21
5.4695244326
  0
LINE
  5
4CA
100
AcDbEntity
  8
03__ASM_ALL_CURVES
100
AcDbLine
 62
40
  6
CONTINUOUS
 10
8.5032161527
 20
4.4842860595
 11
8.5151552152
 21
4.4683673076
  0
LINE
  5
4CB
100
AcDbEntity
  8
03__ASM_ALL_CURVES
100
AcDbLine
 62
40
  6
CONTINUOUS
 10
7.8458363088
 20
5.4482994329
 11
7.8378769338
 21
5.4589119332
  0
LINE
  5
4CC
100
AcDbEntity
  8
03__ASM_ALL_CURVES
100
AcDbLine
 62
40
  6
CONTINUOUS
 10
7.7662425588
 20
5.5544244351
 11
7.7821613088
 21
5.5331994326
  0
LINE
  5
4CD
100
AcDbEntity
  8
03__ASM_ALL_CURVES
100
AcDbLine
 62
40
  6
CONTINUOUS
 10
8.5987286527
 20
4.4842860595
 11
8.6046981839
 21
4.4763266807
  0
LINE
  5
4CE
100
AcDbEntity
  8
03__ASM_ALL_CURVES
100
AcDbLine
 62
40
  6
CONTINUOUS
 10
8.4375513085
 20
4.3457929326
 11
8.4853075585
 21
4.2502804326
  0
LINE
  5
4CF
100
AcDbEntity
  8
03__ASM_ALL_CURVES
100
AcDbLine
 62
40
  6
CONTINUOUS
 10
7.7821613088
 20
5.5331994326
 11
7.7901206838
 21
5.5013619326
  0
LINE
  5
4D0
100
AcDbEntity
  8
03__ASM_ALL_CURVES
100
AcDbLine
 62
40
  6
CONTINUOUS
 10
8.2199269338
 20
5.4376869326
 11
8.2199269338
 21
5.5650369326
  0
LINE
  5
4D1
100
AcDbEntity
  8
03__ASM_ALL_CURVES
100
AcDbLine
 62
40
  6
CONTINUOUS
 10
8.3472769338
 20
5.4376869326
 11
8.3472769338
 21
5.5650369326
  0
LINE
  5
4D2
100
AcDbEntity
  8
03__ASM_ALL_CURVES
100
AcDbLine
 62
40
  6
CONTINUOUS
 10
8.3659169335
 20
4.3457929326
 11
8.3659169335
 21
4.2502804326
  0
LINE
  5
4D3
100
AcDbEntity
  8
03__ASM_ALL_CURVES
100
AcDbLine
 62
40
  6
CONTINUOUS
 10
8.3659169339
 20
4.3967329326
 11
8.3659169339
 21
4.4922454326
  0
LINE
  5
4D4
100
AcDbEntity
  8
03__ASM_ALL_CURVES
100
AcDbLine
 62
40
  6
CONTINUOUS
 10
8.4109519338
 20
5.5438119301
 11
8.4109519338
 21
5.5225869351
  0
LINE
  5
4D5
100
AcDbEntity
  8
03__ASM_ALL_CURVES
100
AcDbLine
 62
40
  6
CONTINUOUS
 10
8.4136731839
 20
4.4763266807
 11
8.4136731839
 21
4.4604079345
  0
LINE
  5
4D6
100
AcDbEntity
  8
03__ASM_ALL_CURVES
100
AcDbLine
 62
40
  6
CONTINUOUS
 10
8.4494903714
 20
4.4444891826
 11
8.4554599027
 21
4.4683673076
  0
LINE
  5
4D7
100
AcDbEntity
  8
03__ASM_ALL_CURVES
100
AcDbLine
 62
40
  6
CONTINUOUS
 10
8.5211247464
 20
4.4444891826
 11
8.5151552152
 21
4.4206110576
  0
LINE
  5
4D8
100
AcDbEntity
  8
03__ASM_ALL_CURVES
100
AcDbLine
 62
40
  6
CONTINUOUS
 10
8.3870738088
 20
5.5650369326
 11
8.4029925588
 21
5.5544244351
  0
LINE
  5
4D9
100
AcDbEntity
  8
03__ASM_ALL_CURVES
100
AcDbLine
 62
40
  6
CONTINUOUS
 10
8.1562519338
 20
5.5331994326
 11
8.1642113088
 21
5.5013619326
  0
LINE
  5
4DA
100
AcDbEntity
  8
03__ASM_ALL_CURVES
100
AcDbLine
 62
40
  6
CONTINUOUS
 10
8.4554599027
 20
4.4206110576
 11
8.4494903714
 21
4.4444891826
  0
LINE
  5
4DB
100
AcDbEntity
  8
03__ASM_ALL_CURVES
100
AcDbLine
 62
40
  6
CONTINUOUS
 10
8.4375513085
 20
4.2502804326
 11
8.4375513085
 21
4.3457929326
  0
LINE
  5
4DC
100
AcDbEntity
  8
03__ASM_ALL_CURVES
100
AcDbLine
 62
40
  6
CONTINUOUS
 10
8.4853075585
 20
4.2502804326
 11
8.4853075585
 21
4.3457929326
  0
LINE
  5
4DD
100
AcDbEntity
  8
03__ASM_ALL_CURVES
100
AcDbLine
 62
40
  6
CONTINUOUS
 10
8.5330638085
 20
4.3457929326
 11
8.5330638085
 21
4.2502804326
  0
LINE
  5
4DE
100
AcDbEntity
  8
03__ASM_ALL_CURVES
100
AcDbLine
 62
40
  6
CONTINUOUS
 10
8.5569419339
 20
4.3967329326
 11
8.5569419339
 21
4.4922454326
  0
LINE
  5
4DF
100
AcDbEntity
  8
03__ASM_ALL_CURVES
100
AcDbLine
 62
40
  6
CONTINUOUS
 10
8.6046981839
 20
4.4763266807
 11
8.6046981839
 21
4.4604079345
  0
LINE
  5
4E0
100
AcDbEntity
  8
03__ASM_ALL_CURVES
100
AcDbLine
 62
40
  6
CONTINUOUS
 10
8.6285763085
 20
4.2502804326
 11
8.6285763085
 21
4.3457929326
  0
LINE
  5
4E1
100
AcDbEntity
  8
03__ASM_ALL_CURVES
100
AcDbLine
 62
40
  6
CONTINUOUS
 10
8.1403331838
 20
5.5544244351
 11
8.1562519338
 21
5.5331994326
  0
LINE
  5
4E2
100
AcDbEntity
  8
03__ASM_ALL_CURVES
100
AcDbLine
 62
40
  6
CONTINUOUS
 10
8.5867895902
 20
4.4444891826
 11
8.6046981839
 21
4.3967329326
  0
LINE
  5
4E3
100
AcDbEntity
  8
03__ASM_ALL_CURVES
100
AcDbLine
 62
40
  6
CONTINUOUS
 10
8.5151552152
 20
4.4683673076
 11
8.5211247464
 21
4.4444891826
  0
LINE
  5
4E4
100
AcDbEntity
  8
03__ASM_ALL_CURVES
100
AcDbLine
 62
40
  6
CONTINUOUS
 10
8.6763325589
 20
4.4922454326
 11
8.6763325589
 21
4.3967329326
  0
LINE
  5
4E5
100
AcDbEntity
  8
03__ASM_ALL_CURVES
100
AcDbLine
 62
40
  6
CONTINUOUS
 10
8.7479669335
 20
4.3457929326
 11
8.7479669335
 21
4.2502804326
  0
LINE
  5
4E6
100
AcDbEntity
  8
03__ASM_ALL_CURVES
100
AcDbLine
 62
40
  6
CONTINUOUS
 10
8.7718450589
 20
4.4922454326
 11
8.7718450589
 21
4.3967329326
  0
LINE
  5
4E7
100
AcDbEntity
  8
03__ASM_ALL_CURVES
100
AcDbLine
 62
40
  6
CONTINUOUS
 10
8.4029925588
 20
5.5544244351
 11
8.4109519338
 21
5.5438119301
  0
LINE
  5
4E8
100
AcDbEntity
  8
03__ASM_ALL_CURVES
100
AcDbLine
 62
40
  6
CONTINUOUS
 10
8.3870738088
 20
5.5013619326
 11
8.4109519338
 21
5.4376869326
  0
CIRCLE
  5
4E9
100
AcDbEntity
  8
0
100
AcDbCircle
 62
7
  6
CONTINUOUS
 10
7.4029169344
 20
4.3712629326
 40
0.1095
  0
ARC
  5
4EA
100
AcDbEntity
  8
0
100
AcDbCircle
 62
7
  6
CONTINUOUS
 10
3.3869169344
 20
4.5482629326
 40
0.094
100
AcDbArc
 50
90.0
 51
131.267427381
  0
ARC
  5
4EB
100
AcDbEntity
  8
0
100
AcDbCircle
 62
7
  6
CONTINUOUS
 10
3.3869169344
 20
4.1942629326
 40
0.094
100
AcDbArc
 50
228.732572619
 51
270.0
  0
ARC
  5
4EC
100
AcDbEntity
  8
0
100
AcDbCircle
 62
7
  6
CONTINUOUS
 10
6.2982809056
 20
3.7132629326
 40
0.028
100
AcDbArc
 50
9.2483577962
 51
74.0465090637
  0
ARC
  5
4ED
100
AcDbEntity
  8
0
100
AcDbCircle
 62
7
  6
CONTINUOUS
 10
6.2982809056
 20
5.0292629326
 40
0.028
100
AcDbArc
 50
285.9534909363
 51
350.7516422038
  0
ARC
  5
4EE
100
AcDbEntity
  8
0
100
AcDbCircle
 62
7
  6
CONTINUOUS
 10
3.0739169344
 20
4.2097629326
 40
0.0175
100
AcDbArc
 50
180.0
 51
360.0
  0
ARC
  5
4EF
100
AcDbEntity
  8
0
100
AcDbCircle
 62
7
  6
CONTINUOUS
 10
7.5099169344
 20
3.8287629326
 40
0.013
100
AcDbArc
 50
0.0000050812
 51
78.912510789
  0
ARC
  5
4F0
100
AcDbEntity
  8
0
100
AcDbCircle
 62
7
  6
CONTINUOUS
 10
7.5099169344
 20
4.9137629326
 40
0.013
100
AcDbArc
 50
281.087489211
 51
359.9999949188
  0
SPLINE
  5
4F1
100
AcDbEntity
  8
0
100
AcDbSpline
 62
7
  6
CONTINUOUS
 70
0
 71
3
 72
20
 73
16
 74
14
 42
0.0000001
 43
0.0000001
 44
0.0000000001
 12
0.0
 22
0.0416605862
 32
0.0
 13
0.0
 23
-0.0416605862
 33
0.0
 40
0.0
 40
0.0
 40
0.0
 40
0.0
 40
0.0489307848
 40
0.1062135912
 40
0.175871992
 40
0.2580136346
 40
0.3503828832
 40
0.4493672053
 40
0.5506327947
 40
0.6496171168
 40
0.7419863654
 40
0.824128008
 40
0.8937864088
 40
0.9510692152
 40
1.0
 40
1.0
 40
1.0
 40
1.0
 10
3.0914169344
 20
4.4473865014
 30
0.0
 10
3.0914169344
 20
4.4480659965
 30
0.0
 10
3.0909954005
 20
4.4495520075
 30
0.0
 10
3.0893601327
 20
4.4514304348
 30
0.0
 10
3.0869082122
 20
4.4530294351
 30
0.0
 10
3.0837489798
 20
4.4543041862
 30
0.0
 10
3.0800458861
 20
4.455196174
 30
0.0
 10
3.0759989772
 20
4.4556554117
 30
0.0
 10
3.0718348916
 20
4.4556554117
 30
0.0
 10
3.0677879827
 20
4.455196174
 30
0.0
 10
3.064084889
 20
4.4543041862
 30
0.0
 10
3.0609256566
 20
4.4530294351
 30
0.0
 10
3.0584737362
 20
4.4514304348
 30
0.0
 10
3.0568384684
 20
4.4495520075
 30
0.0
 10
3.0564169344
 20
4.4480659965
 30
0.0
 10
3.0564169344
 20
4.4473865014
 30
0.0
 11
3.0914169344
 21
4.4473865014
 31
0.0
 11
3.0909084162
 21
4.4493605407
 31
0.0
 11
3.0894124149
 21
4.451219856
 31
0.0
 11
3.0870158725
 21
4.4528563906
 31
0.0
 11
3.0838580675
 21
4.4541750352
 31
0.0
 11
3.0801225199
 21
4.4550991549
 31
0.0
 11
3.0760263263
 21
4.4555750432
 31
0.0
 11
3.0718075425
 21
4.4555750432
 31
0.0
 11
3.0677113489
 21
4.4550991549
 31
0.0
 11
3.0639758013
 21
4.4541750352
 31
0.0
 11
3.0608179963
 21
4.4528563906
 31
0.0
 11
3.058421454
 21
4.451219856
 31
0.0
 11
3.0569254526
 21
4.4493605407
 31
0.0
 11
3.0564169344
 21
4.4473865014
 31
0.0
  0
SPLINE
  5
4F2
100
AcDbEntity
  8
0
100
AcDbSpline
 62
7
  6
CONTINUOUS
 70
0
 71
3
 72
15
 73
11
 74
9
 42
0.0000001
 43
0.0000001
 44
0.0000000001
 12
0.0
 22
0.1617702498
 32
0.0
 13
-0.0
 23
-0.1617702498
 33
0.0
 40
0.0
 40
0.0
 40
0.0
 40
0.0
 40
0.125
 40
0.25
 40
0.375
 40
0.5
 40
0.625
 40
0.75
 40
0.875
 40
1.0
 40
1.0
 40
1.0
 40
1.0
 10
7.7699169344
 20
4.9587629326
 30
0.0
 10
7.7699169344
 20
4.9655033597
 30
0.0
 10
7.7672354258
 20
4.9789842138
 30
0.0
 10
7.7557809901
 20
4.9961269883
 30
0.0
 10
7.7386382156
 20
5.007581424
 30
0.0
 10
7.7184169344
 20
5.0116036869
 30
0.0
 10
7.6981956532
 20
5.007581424
 30
0.0
 10
7.6810528787
 20
4.9961269883
 30
0.0
 10
7.669598443
 20
4.9789842138
 30
0.0
 10
7.6669169344
 20
4.9655033597
 30
0.0
 10
7.6669169344
 20
4.9587629326
 30
0.0
 11
7.7699169344
 21
4.9587629326
 31
0.0
 11
7.7659967303
 21
4.9784711294
 31
0.0
 11
7.7548329336
 21
4.9951789318
 31
0.0
 11
7.7381251312
 21
5.0063427285
 31
0.0
 11
7.7184169344
 21
5.0102629326
 31
0.0
 11
7.6987087376
 21
5.0063427285
 31
0.0
 11
7.6820009352
 21
4.9951789318
 31
0.0
 11
7.6708371385
 21
4.9784711294
 31
0.0
 11
7.6669169344
 21
4.9587629326
 31
0.0
  0
SPLINE
  5
4F3
100
AcDbEntity
  8
0
100
AcDbSpline
 62
7
  6
CONTINUOUS
 70
0
 71
3
 72
15
 73
11
 74
9
 42
0.0000001
 43
0.0000001
 44
0.0000000001
 12
0.0
 22
-0.1617702498
 32
0.0
 13
-0.0
 23
0.1617702498
 33
0.0
 40
0.0
 40
0.0
 40
0.0
 40
0.0
 40
0.125
 40
0.25
 40
0.375
 40
0.5
 40
0.625
 40
0.75
 40
0.875
 40
1.0
 40
1.0
 40
1.0
 40
1.0
 10
7.7699169344
 20
3.7837629326
 30
0.0
 10
7.7699169344
 20
3.7770225055
 30
0.0
 10
7.7672354258
 20
3.7635416514
 30
0.0
 10
7.7557809901
 20
3.7463988769
 30
0.0
 10
7.7386382156
 20
3.7349444412
 30
0.0
 10
7.7184169344
 20
3.7309221783
 30
0.0
 10
7.6981956532
 20
3.7349444412
 30
0.0
 10
7.6810528787
 20
3.7463988769
 30
0.0
 10
7.669598443
 20
3.7635416514
 30
0.0
 10
7.6669169344
 20
3.7770225055
 30
0.0
 10
7.6669169344
 20
3.7837629326
 30
0.0
 11
7.7699169344
 21
3.7837629326
 31
0.0
 11
7.7659967303
 21
3.7640547358
 31
0.0
 11
7.7548329336
 21
3.7473469334
 31
0.0
 11
7.7381251312
 21
3.7361831367
 31
0.0
 11
7.7184169344
 21
3.7322629326
 31
0.0
 11
7.6987087376
 21
3.7361831367
 31
0.0
 11
7.6820009352
 21
3.7473469334
 31
0.0
 11
7.6708371385
 21
3.7640547358
 31
0.0
 11
7.6669169344
 21
3.7837629326
 31
0.0
  0
SPLINE
  5
4F4
100
AcDbEntity
  8
0
100
AcDbSpline
 62
7
  6
CONTINUOUS
 70
0
 71
3
 72
16
 73
12
 74
10
 42
0.0000001
 43
0.0000001
 44
0.0000000001
 12
0.0906480335
 22
0.2719441006
 32
0.0
 13
-0.0906480335
 23
0.2719441006
 33
0.0
 40
0.0
 40
0.0
 40
0.0
 40
0.0
 40
0.1184548733
 40
0.230565332
 40
0.3393089466
 40
0.4465959239
 40
0.5535015371
 40
0.6607803311
 40
0.769505023
 40
0.8815660643
 40
1.0
 40
1.0
 40
1.0
 40
1.0
 10
3.575045524
 20
4.0902629326
 30
0.0
 10
3.5786247578
 20
4.1010006339
 30
0.0
 10
3.5850558445
 20
4.1220866808
 30
0.0
 10
3.5925752741
 20
4.1536477356
 30
0.0
 10
3.5976635016
 20
4.1846165537
 30
0.0
 10
3.6002503638
 20
4.2153996233
 30
0.0
 10
3.6002491755
 20
4.2461534243
 30
0.0
 10
3.5976603349
 20
4.2769337157
 30
0.0
 10
3.5925716001
 20
4.3078950175
 30
0.0
 10
3.5850533433
 20
4.3394475491
 30
0.0
 10
3.5786241252
 20
4.3605271292
 30
0.0
 10
3.575045524
 20
4.3712629326
 30
0.0
 11
3.575045524
 21
4.0902629326
 31
0.0
 11
3.5848839936
 21
4.1227619605
 31
0.0
 11
3.5922711641
 21
4.1540383509
 31
0.0
 11
3.5972757815
 21
4.1848058034
 31
0.0
 11
3.5998227468
 21
4.2154544246
 31
0.0
 11
3.5998215766
 21
4.2460993731
 31
0.0
 11
3.5972726366
 21
4.2767454762
 31
0.0
 11
3.5922671975
 21
4.3075072994
 31
0.0
 11
3.5848824261
 21
4.338769701
 31
0.0
 11
3.575045524
 21
4.3712629326
 31
0.0
  0
SPLINE
  5
4F5
100
AcDbEntity
  8
0
100
AcDbSpline
 62
7
  6
CONTINUOUS
 70
0
 71
3
 72
17
 73
13
 74
11
 42
0.0000001
 43
0.0000001
 44
0.0000000001
 12
-0.1487434696
 22
0.2576312467
 32
0.0
 13
0.1487434696
 23
0.2576312467
 33
0.0
 40
0.0
 40
0.0
 40
0.0
 40
0.0
 40
0.1169386465
 40
0.2216811606
 40
0.3184580982
 40
0.4103908543
 40
0.5000417254
 40
0.5896883004
 40
0.6816074548
 40
0.7783545182
 40
0.8830694657
 40
1.0
 40
1.0
 40
1.0
 40
1.0
 10
3.4733877857
 20
4.0902629326
 30
0.0
 10
3.4675898324
 20
4.1003052824
 30
0.0
 10
3.4572500047
 20
4.1197351298
 30
0.0
 10
3.4448763813
 20
4.1488372074
 30
0.0
 10
3.4362229346
 20
4.1766787701
 30
0.0
 10
3.43106583
 20
4.2038620897
 30
0.0
 10
3.4293489497
 20
4.2307749746
 30
0.0
 10
3.4310688353
 20
4.2576862994
 30
0.0
 10
3.4362275869
 20
4.28486444
 30
0.0
 10
3.4448804388
 20
4.312698746
 30
0.0
 10
3.4572520262
 20
4.3417945857
 30
0.0
 10
3.4675902346
 20
4.3612212795
 30
0.0
 10
3.4733877857
 20
4.3712629326
 30
0.0
 11
3.4733877857
 21
4.0902629326
 31
0.0
 11
3.4571615543
 21
4.1210345896
 31
0.0
 11
3.4450767978
 21
4.1497552262
 31
0.0
 11
3.4366241245
 21
4.1772762948
 31
0.0
 11
3.4315912391
 21
4.20415801
 31
0.0
 11
3.4299169348
 21
4.2307753661
 31
0.0
 11
3.4315941771
 21
4.2573912566
 31
0.0
 11
3.4366288237
 21
4.2842685253
 31
0.0
 11
3.4450804388
 21
4.3117806219
 31
0.0
 11
3.45716259
 21
4.3404934576
 31
0.0
 11
3.4733877857
 21
4.3712629326
 31
0.0
  0
SPLINE
  5
4F6
100
AcDbEntity
  8
0
100
AcDbSpline
 62
7
  6
CONTINUOUS
 70
0
 71
3
 72
16
 73
12
 74
10
 42
0.0000001
 43
0.0000001
 44
0.0000000001
 12
0.0906480335
 22
0.2719441006
 32
0.0
 13
-0.0906480335
 23
0.2719441006
 33
0.0
 40
0.0
 40
0.0
 40
0.0
 40
0.0
 40
0.1184548733
 40
0.230565332
 40
0.3393089466
 40
0.4465959239
 40
0.5535015371
 40
0.6607803311
 40
0.769505023
 40
0.8815660643
 40
1.0
 40
1.0
 40
1.0
 40
1.0
 10
3.575045524
 20
4.3712629326
 30
0.0
 10
3.5786247578
 20
4.3820006339
 30
0.0
 10
3.5850558445
 20
4.4030866808
 30
0.0
 10
3.5925752741
 20
4.4346477356
 30
0.0
 10
3.5976635016
 20
4.4656165537
 30
0.0
 10
3.6002503638
 20
4.4963996233
 30
0.0
 10
3.6002491755
 20
4.5271534243
 30
0.0
 10
3.5976603349
 20
4.5579337157
 30
0.0
 10
3.5925716001
 20
4.5888950175
 30
0.0
 10
3.5850533433
 20
4.6204475491
 30
0.0
 10
3.5786241252
 20
4.6415271292
 30
0.0
 10
3.575045524
 20
4.6522629326
 30
0.0
 11
3.575045524
 21
4.3712629326
 31
0.0
 11
3.5848839936
 21
4.4037619605
 31
0.0
 11
3.5922711641
 21
4.4350383509
 31
0.0
 11
3.5972757815
 21
4.4658058034
 31
0.0
 11
3.5998227468
 21
4.4964544246
 31
0.0
 11
3.5998215766
 21
4.5270993731
 31
0.0
 11
3.5972726366
 21
4.5577454762
 31
0.0
 11
3.5922671975
 21
4.5885072994
 31
0.0
 11
3.5848824261
 21
4.619769701
 31
0.0
 11
3.575045524
 21
4.6522629326
 31
0.0
  0
SPLINE
  5
4F7
100
AcDbEntity
  8
0
100
AcDbSpline
 62
7
  6
CONTINUOUS
 70
0
 71
3
 72
17
 73
13
 74
11
 42
0.0000001
 43
0.0000001
 44
0.0000000001
 12
-0.1487434696
 22
0.2576312467
 32
0.0
 13
0.1487434696
 23
0.2576312467
 33
0.0
 40
0.0
 40
0.0
 40
0.0
 40
0.0
 40
0.1169386465
 40
0.2216811606
 40
0.3184580982
 40
0.4103908543
 40
0.5000417254
 40
0.5896883004
 40
0.6816074548
 40
0.7783545182
 40
0.8830694657
 40
1.0
 40
1.0
 40
1.0
 40
1.0
 10
3.4733877857
 20
4.3712629326
 30
0.0
 10
3.4675898324
 20
4.3813052824
 30
0.0
 10
3.4572500047
 20
4.4007351298
 30
0.0
 10
3.4448763813
 20
4.4298372074
 30
0.0
 10
3.4362229346
 20
4.4576787701
 30
0.0
 10
3.43106583
 20
4.4848620897
 30
0.0
 10
3.4293489497
 20
4.5117749746
 30
0.0
 10
3.4310688353
 20
4.5386862994
 30
0.0
 10
3.4362275869
 20
4.56586444
 30
0.0
 10
3.4448804388
 20
4.593698746
 30
0.0
 10
3.4572520262
 20
4.6227945857
 30
0.0
 10
3.4675902346
 20
4.6422212795
 30
0.0
 10
3.4733877857
 20
4.6522629326
 30
0.0
 11
3.4733877857
 21
4.3712629326
 31
0.0
 11
3.4571615543
 21
4.4020345896
 31
0.0
 11
3.4450767978
 21
4.4307552262
 31
0.0
 11
3.4366241245
 21
4.4582762948
 31
0.0
 11
3.4315912391
 21
4.48515801
 31
0.0
 11
3.4299169348
 21
4.5117753661
 31
0.0
 11
3.4315941771
 21
4.5383912566
 31
0.0
 11
3.4366288237
 21
4.5652685253
 31
0.0
 11
3.4450804388
 21
4.5927806219
 31
0.0
 11
3.45716259
 21
4.6214934576
 31
0.0
 11
3.4733877857
 21
4.6522629326
 31
0.0
  0
SPLINE
  5
4F8
100
AcDbEntity
  8
0
100
AcDbSpline
 62
7
  6
CONTINUOUS
 70
0
 71
3
 72
15
 73
11
 74
9
 42
0.0000001
 43
0.0000001
 44
0.0000000001
 12
0.0
 22
0.1617702498
 32
0.0
 13
0.0
 23
-0.1617702498
 33
0.0
 40
0.0
 40
0.0
 40
0.0
 40
0.0
 40
0.125
 40
0.25
 40
0.375
 40
0.5
 40
0.625
 40
0.75
 40
0.875
 40
1.0
 40
1.0
 40
1.0
 40
1.0
 10
6.2559169344
 20
5.0527629326
 30
0.0
 10
6.2559169344
 20
5.0595033597
 30
0.0
 10
6.2532354258
 20
5.0729842138
 30
0.0
 10
6.2417809901
 20
5.0901269883
 30
0.0
 10
6.2246382156
 20
5.101581424
 30
0.0
 10
6.2044169344
 20
5.1056036869
 30
0.0
 10
6.1841956532
 20
5.101581424
 30
0.0
 10
6.1670528787
 20
5.0901269883
 30
0.0
 10
6.155598443
 20
5.0729842138
 30
0.0
 10
6.1529169344
 20
5.0595033597
 30
0.0
 10
6.1529169344
 20
5.0527629326
 30
0.0
 11
6.2559169344
 21
5.0527629326
 31
0.0
 11
6.2519967303
 21
5.0724711294
 31
0.0
 11
6.2408329336
 21
5.0891789318
 31
0.0
 11
6.2241251312
 21
5.1003427285
 31
0.0
 11
6.2044169344
 21
5.1042629326
 31
0.0
 11
6.1847087376
 21
5.1003427285
 31
0.0
 11
6.1680009352
 21
5.0891789318
 31
0.0
 11
6.1568371385
 21
5.0724711294
 31
0.0
 11
6.1529169344
 21
5.0527629326
 31
0.0
  0
SPLINE
  5
4F9
100
AcDbEntity
  8
0
100
AcDbSpline
 62
7
  6
CONTINUOUS
 70
0
 71
3
 72
15
 73
11
 74
9
 42
0.0000001
 43
0.0000001
 44
0.0000000001
 12
0.0
 22
-0.1617702498
 32
0.0
 13
0.0
 23
0.1617702498
 33
0.0
 40
0.0
 40
0.0
 40
0.0
 40
0.0
 40
0.125
 40
0.25
 40
0.375
 40
0.5
 40
0.625
 40
0.75
 40
0.875
 40
1.0
 40
1.0
 40
1.0
 40
1.0
 10
6.2559169344
 20
3.6897629326
 30
0.0
 10
6.2559169344
 20
3.6830225055
 30
0.0
 10
6.2532354258
 20
3.6695416514
 30
0.0
 10
6.2417809901
 20
3.6523988769
 30
0.0
 10
6.2246382156
 20
3.6409444412
 30
0.0
 10
6.2044169344
 20
3.6369221783
 30
0.0
 10
6.1841956532
 20
3.6409444412
 30
0.0
 10
6.1670528787
 20
3.6523988769
 30
0.0
 10
6.155598443
 20
3.6695416514
 30
0.0
 10
6.1529169344
 20
3.6830225055
 30
0.0
 10
6.1529169344
 20
3.6897629326
 30
0.0
 11
6.2559169344
 21
3.6897629326
 31
0.0
 11
6.2519967303
 21
3.6700547358
 31
0.0
 11
6.2408329336
 21
3.6533469334
 31
0.0
 11
6.2241251312
 21
3.6421831367
 31
0.0
 11
6.2044169344
 21
3.6382629326
 31
0.0
 11
6.1847087376
 21
3.6421831367
 31
0.0
 11
6.1680009352
 21
3.6533469334
 31
0.0
 11
6.1568371385
 21
3.6700547358
 31
0.0
 11
6.1529169344
 21
3.6897629326
 31
0.0
  0
SPLINE
  5
4FA
100
AcDbEntity
  8
0
100
AcDbSpline
 62
7
  6
CONTINUOUS
 70
0
 71
3
 72
15
 73
11
 74
9
 42
0.0000001
 43
0.0000001
 44
0.0000000001
 12
0.0
 22
0.1617702498
 32
0.0
 13
0.0
 23
-0.1617702498
 33
0.0
 40
0.0
 40
0.0
 40
0.0
 40
0.0
 40
0.125
 40
0.25
 40
0.375
 40
0.5
 40
0.625
 40
0.75
 40
0.875
 40
1.0
 40
1.0
 40
1.0
 40
1.0
 10
5.4469169344
 20
5.1142629326
 30
0.0
 10
5.4469169344
 20
5.1210033597
 30
0.0
 10
5.4442354258
 20
5.1344842138
 30
0.0
 10
5.4327809901
 20
5.1516269883
 30
0.0
 10
5.4156382156
 20
5.163081424
 30
0.0
 10
5.3954169344
 20
5.1671036869
 30
0.0
 10
5.3751956532
 20
5.163081424
 30
0.0
 10
5.3580528787
 20
5.1516269883
 30
0.0
 10
5.346598443
 20
5.1344842138
 30
0.0
 10
5.3439169344
 20
5.1210033597
 30
0.0
 10
5.3439169344
 20
5.1142629326
 30
0.0
 11
5.4469169344
 21
5.1142629326
 31
0.0
 11
5.4429967303
 21
5.1339711294
 31
0.0
 11
5.4318329336
 21
5.1506789318
 31
0.0
 11
5.4151251312
 21
5.1618427285
 31
0.0
 11
5.3954169344
 21
5.1657629326
 31
0.0
 11
5.3757087376
 21
5.1618427285
 31
0.0
 11
5.3590009352
 21
5.1506789318
 31
0.0
 11
5.3478371385
 21
5.1339711294
 31
0.0
 11
5.3439169344
 21
5.1142629326
 31
0.0
  0
SPLINE
  5
4FB
100
AcDbEntity
  8
0
100
AcDbSpline
 62
7
  6
CONTINUOUS
 70
0
 71
3
 72
15
 73
11
 74
9
 42
0.0000001
 43
0.0000001
 44
0.0000000001
 12
0.0
 22
-0.1617702498
 32
0.0
 13
0.0
 23
0.1617702498
 33
0.0
 40
0.0
 40
0.0
 40
0.0
 40
0.0
 40
0.125
 40
0.25
 40
0.375
 40
0.5
 40
0.625
 40
0.75
 40
0.875
 40
1.0
 40
1.0
 40
1.0
 40
1.0
 10
5.4469169344
 20
3.6282629326
 30
0.0
 10
5.4469169344
 20
3.6215225055
 30
0.0
 10
5.4442354258
 20
3.6080416514
 30
0.0
 10
5.4327809901
 20
3.5908988769
 30
0.0
 10
5.4156382156
 20
3.5794444412
 30
0.0
 10
5.3954169344
 20
3.5754221783
 30
0.0
 10
5.3751956532
 20
3.5794444412
 30
0.0
 10
5.3580528787
 20
3.5908988769
 30
0.0
 10
5.346598443
 20
3.6080416514
 30
0.0
 10
5.3439169344
 20
3.6215225055
 30
0.0
 10
5.3439169344
 20
3.6282629326
 30
0.0
 11
5.4469169344
 21
3.6282629326
 31
0.0
 11
5.4429967303
 21
3.6085547358
 31
0.0
 11
5.4318329336
 21
3.5918469334
 31
0.0
 11
5.4151251312
 21
3.5806831367
 31
0.0
 11
5.3954169344
 21
3.5767629326
 31
0.0
 11
5.3757087376
 21
3.5806831367
 31
0.0
 11
5.3590009352
 21
3.5918469334
 31
0.0
 11
5.3478371385
 21
3.6085547358
 31
0.0
 11
5.3439169344
 21
3.6282629326
 31
0.0
  0
SPLINE
  5
4FC
100
AcDbEntity
  8
0
100
AcDbSpline
 62
7
  6
CONTINUOUS
 70
0
 71
3
 72
14
 73
10
 74
8
 42
0.0000001
 43
0.0000001
 44
0.0000000001
 12
-0.0382597458
 22
0.1298984512
 32
0.0
 13
-0.1354157147
 23
0.0
 33
0.0
 40
0.0
 40
0.0
 40
0.0
 40
0.0
 40
0.1301776834
 40
0.2706994185
 40
0.4066841546
 40
0.5428268034
 40
0.6929233073
 40
0.8492111618
 40
1.0
 40
1.0
 40
1.0
 40
1.0
 10
7.5099169344
 20
4.0136621494
 30
0.0
 10
7.5082567461
 20
4.0192987759
 30
0.0
 10
7.5032154277
 20
4.03058502
 30
0.0
 10
7.4921065447
 20
4.0453583874
 30
0.0
 10
7.4782388799
 20
4.0579352653
 30
0.0
 10
7.4621382873
 20
4.0682793049
 30
0.0
 10
7.4437278463
 20
4.076266066
 30
0.0
 10
7.4236093099
 20
4.0812608131
 30
0.0
 10
7.4097233272
 20
4.0823715925
 30
0.0
 10
7.4029169344
 20
4.0823715925
 30
0.0
 11
7.5099169344
 21
4.0136621494
 31
0.0
 11
7.5028639068
 21
4.0298177941
 31
0.0
 11
7.4915333721
 21
4.0451055722
 31
0.0
 11
7.4779366047
 21
4.0575241321
 31
0.0
 11
7.4624456852
 21
4.0675197376
 31
0.0
 11
7.4438086988
 21
4.0756305731
 31
0.0
 11
7.4232707892
 21
4.0807395879
 31
0.0
 11
7.4029169344
 21
4.0823715925
 31
0.0
  0
SPLINE
  5
4FD
100
AcDbEntity
  8
0
100
AcDbSpline
 62
7
  6
CONTINUOUS
 70
0
 71
3
 72
16
 73
12
 74
10
 42
0.0000001
 43
0.0000001
 44
0.0000000001
 12
-0.1524155503
 22
0.0
 32
0.0
 13
0.0000711104
 23
-0.1529467332
 33
0.0
 40
0.0
 40
0.0
 40
0.0
 40
0.0
 40
0.1338301632
 40
0.2725897505
 40
0.405415645
 40
0.525696126
 40
0.6453959587
 40
0.7679567132
 40
0.8811932367
 40
0.9859311261
 40
1.0
 40
1.0
 40
1.0
 40
1.0
 10
7.4029169344
 20
4.0823715925
 30
0.0
 10
7.3961176684
 20
4.0823715925
 30
0.0
 10
7.3822438106
 20
4.0812629674
 30
0.0
 10
7.3621621501
 20
4.076282153
 30
0.0
 10
7.3438086092
 20
4.0683336881
 30
0.0
 10
7.327793721
 20
4.0580765096
 30
0.0
 10
7.3140471358
 20
4.0456826063
 30
0.0
 10
7.303031716
 20
4.0312082541
 30
0.0
 10
7.2957111656
 20
4.0153605977
 30
0.0
 10
7.2935340965
 20
4.0036327418
 30
0.0
 10
7.2934177641
 20
3.9975764942
 30
0.0
 10
7.2934180976
 20
3.9968592314
 30
0.0
 11
7.4029169344
 21
4.0823715925
 31
0.0
 11
7.3825842546
 21
4.0807430064
 31
0.0
 11
7.3620594559
 21
4.0756422349
 31
0.0
 11
7.3434913854
 21
4.06757527
 31
0.0
 11
7.3280726394
 21
4.0576582609
 31
0.0
 11
7.3145655564
 21
4.0453942292
 31
0.0
 11
7.3033472645
 21
4.0304577475
 31
0.0
 11
7.2962411444
 21
4.0147295441
 31
0.0
 11
7.2934593153
 21
3.9990101102
 31
0.0
 11
7.2934180976
 21
3.9968592314
 31
0.0
  0
SPLINE
  5
4FE
100
AcDbEntity
  8
0
100
AcDbSpline
 62
7
  6
CONTINUOUS
 70
0
 71
3
 72
14
 73
10
 74
8
 42
0.0000001
 43
0.0000001
 44
0.0000000001
 12
-0.0382599279
 22
-0.1298990696
 32
0.0
 13
-0.1354163593
 23
-0.0
 33
0.0
 40
0.0
 40
0.0
 40
0.0
 40
0.0
 40
0.1285853076
 40
0.2679727771
 40
0.404421303
 40
0.5408009597
 40
0.6908890847
 40
0.8481120728
 40
1.0
 40
1.0
 40
1.0
 40
1.0
 10
7.5099169344
 20
4.7288637158
 30
0.0
 10
7.5082770462
 20
4.7232960118
 30
0.0
 10
7.5033058559
 20
4.7121182024
 30
0.0
 10
7.4923083165
 20
4.6973912324
 30
0.0
 10
7.4784942895
 20
4.6847825348
 30
0.0
 10
7.4623928542
 20
4.6743809569
 30
0.0
 10
7.4439519085
 20
4.6663317697
 30
0.0
 10
7.4237513737
 20
4.6612806228
 30
0.0
 10
7.4097729711
 20
4.6601542727
 30
0.0
 10
7.4029169344
 20
4.6601542727
 30
0.0
 11
7.5099169344
 21
4.7288637158
 31
0.0
 11
7.5029730174
 21
4.712895652
 31
0.0
 11
7.4917833539
 21
4.6976946642
 31
0.0
 11
7.4781807499
 21
4.6851893817
 31
0.0
 11
7.4626881601
 21
4.6751371164
 31
0.0
 11
7.444070461
 21
4.6669846929
 31
0.0
 11
7.4234182781
 21
4.6618101898
 31
0.0
 11
7.4029169344
 21
4.6601542727
 31
0.0
  0
SPLINE
  5
4FF
100
AcDbEntity
  8
0
100
AcDbSpline
 62
7
  6
CONTINUOUS
 70
0
 71
3
 72
22
 73
18
 74
16
 42
0.0000001
 43
0.0000001
 44
0.0000000001
 12
-0.2136888785
 22
-0.0432234409
 32
0.0
 13
-0.2134989402
 23
0.0441513669
 33
0.0
 40
0.0
 40
0.0
 40
0.0
 40
0.0
 40
0.0306174762
 40
0.0788299961
 40
0.1426390815
 40
0.2195760093
 40
0.3067827044
 40
0.4010835494
 40
0.4989311956
 40
0.5966196405
 40
0.6904263627
 40
0.7768008401
 40
0.8525791479
 40
0.9149427892
 40
0.9614838156
 40
0.9902788077
 40
1.0
 40
1.0
 40
1.0
 40
1.0
 10
7.5099169344
 20
4.9002515903
 30
0.0
 10
7.507736063
 20
4.8998104594
 30
0.0
 10
7.5021145204
 20
4.8987066788
 30
0.0
 10
7.4919136881
 20
4.8968609471
 30
0.0
 10
7.478350044
 20
4.8947080109
 30
0.0
 10
7.461920601
 20
4.8925664082
 30
0.0
 10
7.4432220948
 20
4.8907583267
 30
0.0
 10
7.4229506869
 20
4.8895634313
 30
0.0
 10
7.4018852737
 20
4.8891716788
 30
0.0
 10
7.380857528
 20
4.8896467259
 30
0.0
 10
7.3606986706
 20
4.8909122062
 30
0.0
 10
7.3421863781
 20
4.8927672375
 30
0.0
 10
7.3260110814
 20
4.8949250136
 30
0.0
 10
7.3127595292
 20
4.8970612194
 30
0.0
 10
7.3029151366
 20
4.8988604162
 30
0.0
 10
7.296850834
 20
4.9000579484
 30
0.0
 10
7.2941087558
 20
4.9006198646
 30
0.0
 10
7.2934169344
 20
4.9007629326
 30
0.0
 11
7.5099169344
 21
4.9002515903
 31
0.0
 11
7.503366851
 21
4.8989656763
 31
0.0
 11
7.4930235553
 21
4.8970948479
 31
0.0
 11
7.4792839027
 21
4.8949154069
 31
0.0
 11
7.4626508202
 21
4.8927494014
 31
0.0
 11
7.4437263577
 21
4.8909218679
 31
0.0
 11
7.4232027278
 21
4.889714004
 31
0.0
 11
7.4018739998
 21
4.8893180336
 31
0.0
 11
7.3805817194
 21
4.8897982369
 31
0.0
 11
7.3601703585
 21
4.891077582
 31
0.0
 11
7.3414328935
 21
4.8929527708
 31
0.0
 11
7.3250567623
 21
4.8951352514
 31
0.0
 11
7.3116335376
 21
4.897297778
 31
0.0
 11
7.3016520485
 21
4.8991214147
 31
0.0
 11
7.2954931701
 21
4.9003374691
 31
0.0
 11
7.2934169344
 21
4.9007629326
 31
0.0
  0
SPLINE
  5
500
100
AcDbEntity
  8
0
100
AcDbSpline
 62
7
  6
CONTINUOUS
 70
0
 71
3
 72
16
 73
12
 74
10
 42
0.0000001
 43
0.0000001
 44
0.0000000001
 12
-0.0000644306
 22
-0.1529740194
 32
0.0
 13
0.1524171016
 23
-0.0
 33
0.0
 40
0.0
 40
0.0
 40
0.0
 40
0.0
 40
0.0213689665
 40
0.1277256836
 40
0.2427471896
 40
0.3659858067
 40
0.4839536703
 40
0.6025807349
 40
0.7334452372
 40
0.8691023455
 40
1.0
 40
1.0
 40
1.0
 40
1.0
 10
7.2934187861
 20
4.7456664638
 30
0.0
 10
7.2934183272
 20
4.7445768316
 30
0.0
 10
7.2936092777
 20
4.7380647161
 30
0.0
 10
7.2961388175
 20
4.7258450683
 30
0.0
 10
7.3038672021
 20
4.7099601344
 30
0.0
 10
7.3151677637
 20
4.6956629387
 30
0.0
 10
7.3289912336
 20
4.683570528
 30
0.0
 10
7.3448896012
 20
4.6736441445
 30
0.0
 10
7.3629930727
 20
4.6659897548
 30
0.0
 10
7.3827007755
 20
4.6612144757
 30
0.0
 10
7.3962665874
 20
4.6601542727
 30
0.0
 10
7.4029169344
 20
4.6601542727
 30
0.0
 11
7.2934187861
 21
4.7456664638
 31
0.0
 11
7.2935141301
 21
4.742400141
 31
0.0
 11
7.2966619733
 21
4.7264981264
 31
0.0
 11
7.3041991522
 21
4.7106698141
 31
0.0
 11
7.3157564256
 21
4.6958625255
 31
0.0
 11
7.3292511463
 21
4.6839804207
 31
0.0
 11
7.3445709916
 21
4.67437743
 31
0.0
 11
7.3629339248
 21
4.6665899319
 31
0.0
 11
7.3830268175
 21
4.6617122483
 31
0.0
 11
7.4029169344
 21
4.6601542727
 31
0.0
  0
SPLINE
  5
501
100
AcDbEntity
  8
0
100
AcDbSpline
 62
7
  6
CONTINUOUS
 70
0
 71
3
 72
9
 73
5
 74
3
 42
0.0000001
 43
0.0000001
 44
0.0000000001
 12
-0.0156666312
 22
0.0084687894
 32
0.0
 13
-0.0168176516
 23
0.0058327799
 33
0.0
 40
0.0
 40
0.0
 40
0.0
 40
0.0
 40
0.9493422556
 40
1.0
 40
1.0
 40
1.0
 40
1.0
 10
7.4792460075
 20
4.6862123828
 30
0.0
 10
7.4742883425
 20
4.6888923094
 30
0.0
 10
7.4688198285
 20
4.6912426729
 30
0.0
 10
7.4632204113
 20
4.6932063203
 30
0.0
 10
7.4629364299
 20
4.6933048122
 30
0.0
 11
7.4792460075
 21
4.6862123828
 31
0.0
 11
7.4637873831
 21
4.69300638
 31
0.0
 11
7.4629364299
 21
4.6933048122
 31
0.0
  0
SPLINE
  5
502
100
AcDbEntity
  8
0
100
AcDbSpline
 62
7
  6
CONTINUOUS
 70
0
 71
3
 72
9
 73
5
 74
3
 42
0.0000001
 43
0.0000001
 44
0.0000000001
 12
-0.0368049172
 22
0.0127648609
 32
0.0
 13
-0.0387425588
 23
0.0039406645
 33
0.0
 40
0.0
 40
0.0
 40
0.0
 40
0.0
 40
0.4801713154
 40
1.0
 40
1.0
 40
1.0
 40
1.0
 10
7.4629364299
 20
4.6933048122
 30
0.0
 10
7.4570455414
 20
4.6953479188
 30
0.0
 10
7.4444836648
 20
4.6987227317
 30
0.0
 10
7.4316331725
 20
4.7006621329
 30
0.0
 10
7.424920008
 20
4.7013449564
 30
0.0
 11
7.4629364299
 21
4.6933048122
 31
0.0
 11
7.4449152912
 21
4.6982579405
 31
0.0
 11
7.424920008
 21
4.7013449564
 31
0.0
  0
SPLINE
  5
503
100
AcDbEntity
  8
0
100
AcDbSpline
 62
7
  6
CONTINUOUS
 70
0
 71
3
 72
9
 73
5
 74
3
 42
0.0000001
 43
0.0000001
 44
0.0000000001
 12
-0.0219306832
 22
0.0022306597
 32
0.0
 13
-0.0220311007
 23
0.0
 33
0.0
 40
0.0
 40
0.0
 40
0.0
 40
0.0
 40
0.0266218059
 40
1.0
 40
1.0
 40
1.0
 40
1.0
 10
7.424920008
 20
4.7013449564
 30
0.0
 10
7.4247253965
 20
4.7013647512
 30
0.0
 10
7.4174141236
 20
4.7020980344
 30
0.0
 10
7.4100651321
 20
4.7024476916
 30
0.0
 10
7.4029169344
 20
4.7024476916
 30
0.0
 11
7.424920008
 21
4.7013449564
 31
0.0
 11
7.4243360912
 21
4.7014035219
 31
0.0
 11
7.4029169344
 21
4.7024476916
 31
0.0
  0
SPLINE
  5
504
100
AcDbEntity
  8
0
100
AcDbSpline
 62
7
  6
CONTINUOUS
 70
0
 71
3
 72
11
 73
7
 74
5
 42
0.0000001
 43
0.0000001
 44
0.0000000001
 12
0.0000002874
 22
-0.0172248094
 32
0.0
 13
-0.004864447
 23
-0.0165156386
 33
0.0
 40
0.0
 40
0.0
 40
0.0
 40
0.0
 40
0.0126992219
 40
0.3359670669
 40
0.6655763865
 40
1.0
 40
1.0
 40
1.0
 40
1.0
 10
7.5124169263
 20
4.745846373
 30
0.0
 10
7.5124169275
 20
4.7457734591
 30
0.0
 10
7.5124131046
 20
4.7438444785
 30
0.0
 10
7.5122040879
 20
4.740024405
 30
0.0
 10
7.5113646281
 20
4.7344131848
 30
0.0
 10
7.5104591964
 20
4.7307047889
 30
0.0
 10
7.5099169344
 20
4.7288637158
 30
0.0
 11
7.5124169263
 21
4.745846373
 31
0.0
 11
7.5124164932
 21
4.745627633
 31
0.0
 11
7.5121202501
 21
4.7400697818
 31
0.0
 11
7.5112847443
 21
4.7344567009
 31
0.0
 11
7.5099169344
 21
4.7288637158
 31
0.0
  0
SPLINE
  5
505
100
AcDbEntity
  8
0
100
AcDbSpline
 62
7
  6
CONTINUOUS
 70
0
 71
3
 72
8
 73
4
 74
2
 42
0.0000001
 43
0.0000001
 44
0.0000000001
 12
0.0118297785
 22
-0.006388554
 32
0.0
 13
0.0125411766
 23
-0.0048382303
 33
0.0
 40
0.0
 40
0.0
 40
0.0
 40
0.0
 40
1.0
 40
1.0
 40
1.0
 40
1.0
 10
7.3266212841
 20
4.0562954272
 30
0.0
 10
7.3305645436
 20
4.0541659092
 30
0.0
 10
7.3346554826
 20
4.0523199419
 30
0.0
 10
7.3388358748
 20
4.0507071984
 30
0.0
 11
7.3266212841
 21
4.0562954272
 31
0.0
 11
7.3388358748
 21
4.0507071984
 31
0.0
  0
SPLINE
  5
506
100
AcDbEntity
  8
0
100
AcDbSpline
 62
7
  6
CONTINUOUS
 70
0
 71
3
 72
10
 73
6
 74
4
 42
0.0000001
 43
0.0000001
 44
0.0000000001
 12
0.0233780966
 22
-0.0090189795
 32
0.0
 13
0.0245568455
 23
-0.0048958694
 33
0.0
 40
0.0
 40
0.0
 40
0.0
 40
0.0
 40
0.1371128996
 40
0.9196852336
 40
1.0
 40
1.0
 40
1.0
 40
1.0
 10
7.3388358748
 20
4.0507071984
 30
0.0
 10
7.3399043543
 20
4.0502949923
 30
0.0
 10
7.3471103816
 20
4.0476323138
 30
0.0
 10
7.3551840152
 20
4.0454413385
 30
0.0
 10
7.3622394815
 20
4.0439926727
 30
0.0
 10
7.3628969073
 20
4.0438616025
 30
0.0
 11
7.3388358748
 21
4.0507071984
 31
0.0
 11
7.3420578725
 21
4.0495154477
 31
0.0
 11
7.3609268507
 21
4.0442661753
 31
0.0
 11
7.3628969073
 21
4.0438616025
 31
0.0
  0
SPLINE
  5
507
100
AcDbEntity
  8
0
100
AcDbSpline
 62
7
  6
CONTINUOUS
 70
0
 71
3
 72
9
 73
5
 74
3
 42
0.0000001
 43
0.0000001
 44
0.0000000001
 12
0.0375250032
 22
-0.0074813157
 32
0.0
 13
0.0382468675
 23
-0.0003408427
 33
0.0
 40
0.0
 40
0.0
 40
0.0
 40
0.0
 40
0.4916885866
 40
1.0
 40
1.0
 40
1.0
 40
1.0
 10
7.3628969073
 20
4.0438616025
 30
0.0
 10
7.3690471126
 20
4.0426354433
 30
0.0
 10
7.3816845917
 20
4.0408121548
 30
0.0
 10
7.3944357053
 20
4.0401448311
 30
0.0
 10
7.4009161451
 20
4.0400870797
 30
0.0
 11
7.3628969073
 21
4.0438616025
 31
0.0
 11
7.3815019931
 21
4.0411219263
 31
0.0
 11
7.4009161451
 21
4.0400870797
 31
0.0
  0
SPLINE
  5
508
100
AcDbEntity
  8
0
100
AcDbSpline
 62
7
  6
CONTINUOUS
 70
0
 71
3
 72
8
 73
4
 74
2
 42
0.0000001
 43
0.0000001
 44
0.0000000001
 12
0.0020008574
 22
-0.0000178309
 32
0.0
 13
0.0020006881
 23
0.0
 33
0.0
 40
0.0
 40
0.0
 40
0.0
 40
0.0
 40
1.0
 40
1.0
 40
1.0
 40
1.0
 10
7.4009161451
 20
4.0400870797
 30
0.0
 10
7.4015830975
 20
4.0400811361
 30
0.0
 10
7.4022500384
 20
4.0400781736
 30
0.0
 10
7.4029169344
 20
4.0400781736
 30
0.0
 11
7.4009161451
 21
4.0400870797
 31
0.0
 11
7.4029169344
 21
4.0400781736
 31
0.0
  0
SPLINE
  5
509
100
AcDbEntity
  8
0
100
AcDbSpline
 62
7
  6
CONTINUOUS
 70
0
 71
3
 72
8
 73
4
 74
2
 42
0.0000001
 43
0.0000001
 44
0.0000000001
 12
-0.0020006877
 22
0.0
 32
0.0
 13
-0.0020008568
 23
-0.0000178311
 33
0.0
 40
0.0
 40
0.0
 40
0.0
 40
0.0
 40
1.0
 40
1.0
 40
1.0
 40
1.0
 10
7.4029169344
 20
4.7024476916
 30
0.0
 10
7.4022500385
 20
4.7024476916
 30
0.0
 10
7.4015830978
 20
4.7024447291
 30
0.0
 10
7.4009161455
 20
4.7024387854
 30
0.0
 11
7.4029169344
 21
4.7024476916
 31
0.0
 11
7.4009161455
 21
4.7024387854
 31
0.0
  0
SPLINE
  5
50A
100
AcDbEntity
  8
0
100
AcDbSpline
 62
7
  6
CONTINUOUS
 70
0
 71
3
 72
9
 73
5
 74
3
 42
0.0000001
 43
0.0000001
 44
0.0000000001
 12
-0.0382467164
 22
-0.0003408446
 32
0.0
 13
-0.0375248774
 23
-0.0074812248
 33
0.0
 40
0.0
 40
0.0
 40
0.0
 40
0.0
 40
0.5080275308
 40
1.0
 40
1.0
 40
1.0
 40
1.0
 10
7.4009161455
 20
4.7024387854
 30
0.0
 10
7.3944393506
 20
4.7023810659
 30
0.0
 10
7.381688294
 20
4.7017140507
 30
0.0
 10
7.3690508039
 20
4.6998911453
 30
0.0
 10
7.3628970684
 20
4.6986642931
 30
0.0
 11
7.4009161455
 21
4.7024387854
 31
0.0
 11
7.3815128856
 21
4.7014050157
 31
0.0
 11
7.3628970684
 21
4.6986642931
 31
0.0
  0
SPLINE
  5
50B
100
AcDbEntity
  8
0
100
AcDbSpline
 62
7
  6
CONTINUOUS
 70
0
 71
3
 72
10
 73
6
 74
4
 42
0.0000001
 43
0.0000001
 44
0.0000000001
 12
-0.0245574118
 22
-0.0048959392
 32
0.0
 13
-0.023378595
 23
-0.0090192515
 33
0.0
 40
0.0
 40
0.0
 40
0.0
 40
0.0
 40
0.0796303864
 40
0.8621089702
 40
1.0
 40
1.0
 40
1.0
 40
1.0
 10
7.3628970684
 20
4.6986642931
 30
0.0
 10
7.3622452297
 20
4.6985343379
 30
0.0
 10
7.3551958958
 20
4.6970873029
 30
0.0
 10
7.3471218393
 20
4.6948972385
 30
0.0
 10
7.3399100653
 20
4.6922330845
 30
0.0
 10
7.3388354991
 20
4.6918185265
 30
0.0
 11
7.3628970684
 21
4.6986642931
 31
0.0
 11
7.3609437346
 21
4.6982632586
 31
0.0
 11
7.3420759444
 21
4.6930168227
 31
0.0
 11
7.3388354991
 21
4.6918185265
 31
0.0
  0
SPLINE
  5
50C
100
AcDbEntity
  8
0
100
AcDbSpline
 62
7
  6
CONTINUOUS
 70
0
 71
3
 72
8
 73
4
 74
2
 42
0.0000001
 43
0.0000001
 44
0.0000000001
 12
-0.0124550781
 22
-0.004805057
 32
0.0
 13
-0.0117546299
 23
-0.0063331743
 33
0.0
 40
0.0
 40
0.0
 40
0.0
 40
0.0
 40
1.0
 40
1.0
 40
1.0
 40
1.0
 10
7.3388354991
 20
4.6918185265
 30
0.0
 10
7.3346838064
 20
4.6902168409
 30
0.0
 10
7.330620359
 20
4.6883851125
 30
0.0
 10
7.326702149
 20
4.6862740544
 30
0.0
 11
7.3388354991
 21
4.6918185265
 31
0.0
 11
7.326702149
 21
4.6862740544
 31
0.0
  0
SPLINE
  5
50D
100
AcDbEntity
  8
0
100
AcDbSpline
 62
7
  6
CONTINUOUS
 70
0
 71
3
 72
9
 73
5
 74
3
 42
0.0000001
 43
0.0000001
 44
0.0000000001
 12
0.0220312113
 22
0.0
 32
0.0
 13
0.0219307689
 23
0.0022306614
 33
0.0
 40
0.0
 40
0.0
 40
0.0
 40
0.0
 40
0.9724898495
 40
1.0
 40
1.0
 40
1.0
 40
1.0
 10
7.4029169344
 20
4.0400781736
 30
0.0
 10
7.4100586442
 20
4.0400781736
 30
0.0
 10
7.4174076617
 20
4.0404275222
 30
0.0
 10
7.4247189984
 20
4.0411604622
 30
0.0
 10
7.4249201047
 20
4.0411809175
 30
0.0
 11
7.4029169344
 21
4.0400781736
 31
0.0
 11
7.4243166979
 21
4.041120426
 31
0.0
 11
7.4249201047
 21
4.0411809175
 31
0.0
  0
SPLINE
  5
50E
100
AcDbEntity
  8
0
100
AcDbSpline
 62
7
  6
CONTINUOUS
 70
0
 71
3
 72
9
 73
5
 74
3
 42
0.0000001
 43
0.0000001
 44
0.0000000001
 12
0.0387415117
 22
0.0039405457
 32
0.0
 13
0.0368041809
 23
0.0127641594
 33
0.0
 40
0.0
 40
0.0
 40
0.0
 40
0.0
 40
0.5189593527
 40
1.0
 40
1.0
 40
1.0
 40
1.0
 10
7.4249201047
 20
4.0411809175
 30
0.0
 10
7.4316218613
 20
4.0418625785
 30
0.0
 10
7.4444720949
 20
4.0438009118
 30
0.0
 10
7.4570340999
 20
4.0471740528
 30
0.0
 10
7.4629355355
 20
4.049220746
 30
0.0
 11
7.4249201047
 21
4.0411809175
 31
0.0
 11
7.4448817337
 21
4.0442608316
 31
0.0
 11
7.4629355355
 21
4.049220746
 31
0.0
  0
SPLINE
  5
50F
100
AcDbEntity
  8
0
100
AcDbSpline
 62
7
  6
CONTINUOUS
 70
0
 71
3
 72
9
 73
5
 74
3
 42
0.0000001
 43
0.0000001
 44
0.0000000001
 12
0.0167975252
 22
0.005825596
 32
0.0
 13
0.0156498605
 23
0.0084548615
 33
0.0
 40
0.0
 40
0.0
 40
0.0
 40
0.0
 40
0.0483276105
 40
1.0
 40
1.0
 40
1.0
 40
1.0
 10
7.4629355355
 20
4.049220746
 30
0.0
 10
7.4632061303
 20
4.0493145917
 30
0.0
 10
7.4687991539
 20
4.051274906
 30
0.0
 10
7.4742618083
 20
4.0536207671
 30
0.0
 10
7.4792263217
 20
4.0563028532
 30
0.0
 11
7.4629355355
 21
4.049220746
 31
0.0
 11
7.4637464207
 21
4.0495049668
 31
0.0
 11
7.4792263217
 21
4.0563028532
 31
0.0
  0
SPLINE
  5
510
100
AcDbEntity
  8
0
100
AcDbSpline
 62
7
  6
CONTINUOUS
 70
0
 71
3
 72
22
 73
18
 74
16
 42
0.0000001
 43
0.0000001
 44
0.0000000001
 12
0.2134989415
 22
0.0441513673
 32
0.0
 13
0.2136888802
 23
-0.0432234413
 33
0.0
 40
0.0
 40
0.0
 40
0.0
 40
0.0
 40
0.0097383966
 40
0.0385724368
 40
0.0851670811
 40
0.1475752751
 40
0.223369826
 40
0.3097238839
 40
0.4034896718
 40
0.5011450728
 40
0.5989962501
 40
0.6933213234
 40
0.7805465033
 40
0.8574711829
 40
0.9212425526
 40
0.9694103093
 40
1.0
 40
1.0
 40
1.0
 40
1.0
 10
7.2934169344
 20
3.8417629326
 30
0.0
 10
7.2941099802
 20
3.8419062538
 30
0.0
 10
7.296856065
 20
3.8424689819
 30
0.0
 10
7.3029282177
 20
3.8436679778
 30
0.0
 10
7.3127824785
 20
3.8454686571
 30
0.0
 10
7.3260423521
 20
3.8476055057
 30
0.0
 10
7.3422206992
 20
3.8497626207
 30
0.0
 10
7.3607298493
 20
3.8516161101
 30
0.0
 10
7.3808819226
 20
3.8528800699
 30
0.0
 10
7.4019045631
 20
3.8533541803
 30
0.0
 10
7.4229695801
 20
3.8529617431
 30
0.0
 10
7.4432443006
 20
3.851765872
 30
0.0
 10
7.4619449288
 20
3.8499567089
 30
0.0
 10
7.4783720022
 20
3.8478146373
 30
0.0
 10
7.4919287684
 20
3.8456622981
 30
0.0
 10
7.502121679
 20
3.8438177992
 30
0.0
 10
7.5077380422
 20
3.8427150054
 30
0.0
 10
7.5099169344
 20
3.8422742749
 30
0.0
 11
7.2934169344
 21
3.8417629326
 31
0.0
 11
7.2954968459
 21
3.8421891425
 31
0.0
 11
7.301664093
 21
3.843406761
 31
0.0
 11
7.3116571392
 21
3.8452321823
 31
0.0
 11
7.325090065
 21
3.8473955624
 31
0.0
 11
7.3414698481
 21
3.8495774484
 31
0.0
 11
7.3602030064
 21
3.8514509669
 31
0.0
 11
7.3806055295
 21
3.8527286533
 31
0.0
 11
7.4018906265
 21
3.8532078648
 31
0.0
 11
7.4232201114
 21
3.8528111807
 31
0.0
 11
7.4437489682
 21
3.8516022212
 31
0.0
 11
7.4626773575
 21
3.8497734234
 31
0.0
 11
7.4793076914
 21
3.8476069885
 31
0.0
 11
7.4930391452
 21
3.8454283456
 31
0.0
 11
7.5033728018
 21
3.8435590561
 31
0.0
 11
7.5099169344
 21
3.8422742749
 31
0.0
  0
SPLINE
  5
511
100
AcDbEntity
  8
0
100
AcDbSpline
 62
7
  6
CONTINUOUS
 70
0
 71
3
 72
9
 73
5
 74
3
 42
0.0000001
 43
0.0000001
 44
0.0000000001
 12
-0.002422481
 22
-0.0009757369
 32
0.0
 13
-0.0025614959
 23
-0.0005181209
 33
0.0
 40
0.0
 40
0.0
 40
0.0
 40
0.0
 40
0.2746891725
 40
1.0
 40
1.0
 40
1.0
 40
1.0
 10
7.5124169344
 20
4.9010055818
 30
0.0
 10
7.5121951246
 20
4.9009162403
 30
0.0
 10
7.511379066
 20
4.900610005
 30
0.0
 10
7.510536228
 20
4.9003768565
 30
0.0
 10
7.5099169344
 20
4.9002515903
 30
0.0
 11
7.5124169344
 21
4.9010055818
 31
0.0
 11
7.5117447791
 21
4.900753516
 31
0.0
 11
7.5099169344
 21
4.9002515903
 31
0.0
  0
SPLINE
  5
512
100
AcDbEntity
  8
0
100
AcDbSpline
 62
7
  6
CONTINUOUS
 70
0
 71
3
 72
9
 73
5
 74
3
 42
0.0000001
 43
0.0000001
 44
0.0000000001
 12
0.0025614962
 22
-0.0005181209
 32
0.0
 13
0.0024224812
 23
-0.000975737
 33
0.0
 40
0.0
 40
0.0
 40
0.0
 40
0.0
 40
0.7252635164
 40
1.0
 40
1.0
 40
1.0
 40
1.0
 10
7.5099169344
 20
3.8422742749
 30
0.0
 10
7.5105361877
 20
3.8421490168
 30
0.0
 10
7.5113790263
 20
3.8419158723
 30
0.0
 10
7.5121950864
 20
3.8416096403
 30
0.0
 10
7.5124169344
 20
3.8415202834
 30
0.0
 11
7.5099169344
 21
3.8422742749
 31
0.0
 11
7.5117446622
 21
3.8417723898
 31
0.0
 11
7.5124169344
 21
3.8415202834
 31
0.0
  0
SPLINE
  5
513
100
AcDbEntity
  8
0
100
AcDbSpline
 62
7
  6
CONTINUOUS
 70
0
 71
3
 72
10
 73
6
 74
4
 42
0.0000001
 43
0.0000001
 44
0.0000000001
 12
0.0048649846
 22
-0.0165174636
 32
0.0
 13
-0.0000008747
 23
-0.017226395
 33
0.0
 40
0.0
 40
0.0
 40
0.0
 40
0.0
 40
0.3481965918
 40
0.6866928057
 40
1.0
 40
1.0
 40
1.0
 40
1.0
 10
7.5099169344
 20
4.0136621494
 30
0.0
 10
7.5104815914
 20
4.0117450412
 30
0.0
 10
7.511410838
 20
4.0079073428
 30
0.0
 10
7.5122325167
 20
4.00221865
 30
0.0
 10
7.5124170332
 20
3.9984763016
 30
0.0
 10
7.5124169418
 20
3.9966772505
 30
0.0
 11
7.5099169344
 21
4.0136621494
 31
0.0
 11
7.511330117
 21
4.0078354706
 31
0.0
 11
7.5121585355
 21
4.0020660693
 31
0.0
 11
7.5124169418
 21
3.9966772505
 31
0.0
  0
SPLINE
  5
514
100
AcDbEntity
  8
0
100
AcDbSpline
 62
7
  6
CONTINUOUS
 70
0
 71
3
 72
10
 73
6
 74
4
 42
0.0000001
 43
0.0000001
 44
0.0000000001
 12
0.0049520597
 22
-0.0153965281
 32
0.0
 13
0.00000027
 23
-0.0161805353
 33
0.0
 40
0.0
 40
0.0
 40
0.0
 40
0.0
 40
0.3397991136
 40
0.6752751801
 40
1.0
 40
1.0
 40
1.0
 40
1.0
 10
7.5099169344
 20
4.7617650835
 30
0.0
 10
7.5104778362
 20
4.7600211747
 30
0.0
 10
7.5114224617
 20
4.7564972478
 30
0.0
 10
7.5122459013
 20
4.7511589807
 30
0.0
 10
7.5124168971
 20
4.7475977801
 30
0.0
 10
7.5124169263
 20
4.745846373
 30
0.0
 11
7.5099169344
 21
4.7617650835
 31
0.0
 11
7.511330117
 21
4.7564542102
 31
0.0
 11
7.5121585355
 21
4.751092067
 31
0.0
 11
7.5124169263
 21
4.745846373
 31
0.0
  0
SPLINE
  5
515
100
AcDbEntity
  8
0
100
AcDbSpline
 62
7
  6
CONTINUOUS
 70
0
 71
3
 72
14
 73
10
 74
8
 42
0.0000001
 43
0.0000001
 44
0.0000000001
 12
-0.0388666792
 22
0.1208410138
 32
0.0
 13
-0.1269376594
 23
-0.0
 33
0.0
 40
0.0
 40
0.0
 40
0.0
 40
0.0
 40
0.1175033962
 40
0.240534922
 40
0.3732601618
 40
0.5168696166
 40
0.6711831321
 40
0.8335721638
 40
1.0
 40
1.0
 40
1.0
 40
1.0
 10
7.5099169344
 20
4.7617650835
 30
0.0
 10
7.5083946121
 20
4.76649816
 30
0.0
 10
7.5038323881
 20
4.7757733191
 30
0.0
 10
7.4932475912
 20
4.787699647
 30
0.0
 10
7.4793978185
 20
4.797585412
 30
0.0
 10
7.4628195484
 20
4.8053393241
 30
0.0
 10
7.4440946471
 20
4.8109126757
 30
0.0
 10
7.4238843437
 20
4.8142675482
 30
0.0
 10
7.4099589211
 20
4.8150106578
 30
0.0
 10
7.4029169344
 20
4.8150106578
 30
0.0
 11
7.5099169344
 21
4.7617650835
 31
0.0
 11
7.5033982005
 21
4.7751807987
 31
0.0
 11
7.4931483386
 21
4.7869638989
 31
0.0
 11
7.4795319661
 21
4.7968857847
 31
0.0
 11
7.4630805205
 21
4.8047383456
 31
0.0
 11
7.4443364351
 21
4.8104266411
 31
0.0
 11
7.4240117447
 21
4.8138638523
 31
0.0
 11
7.4029169344
 21
4.8150106578
 31
0.0
  0
SPLINE
  5
516
100
AcDbEntity
  8
0
100
AcDbSpline
 62
7
  6
CONTINUOUS
 70
0
 71
3
 72
15
 73
11
 74
9
 42
0.0000001
 43
0.0000001
 44
0.0000000001
 12
-0.1432225825
 22
0.0
 32
0.0
 13
-0.0000605438
 23
-0.1437459045
 33
0.0
 40
0.0
 40
0.0
 40
0.0
 40
0.0
 40
0.15324304
 40
0.3024844943
 40
0.4437599423
 40
0.5746904877
 40
0.6953761478
 40
0.807320099
 40
0.9150632853
 40
1.0
 40
1.0
 40
1.0
 40
1.0
 10
7.4029169344
 20
4.8150106578
 30
0.0
 10
7.3956009798
 20
4.8150106578
 30
0.0
 10
7.3811462297
 20
4.814209829
 30
0.0
 10
7.3602207243
 20
4.8105928335
 30
0.0
 10
7.3409469907
 20
4.8045831319
 30
0.0
 10
7.3240532534
 20
4.7962167554
 30
0.0
 10
7.3101883664
 20
4.7855465863
 30
0.0
 10
7.2999656849
 20
4.7726670193
 30
0.0
 10
7.2944499017
 20
4.7589727209
 30
0.0
 10
7.2934205002
 20
4.7497362321
 30
0.0
 10
7.2934187861
 20
4.7456664638
 30
0.0
 11
7.4029169344
 21
4.8150106578
 31
0.0
 11
7.3810040518
 21
4.8137719861
 31
0.0
 11
7.359954167
 21
4.810059556
 31
0.0
 11
7.3406743414
 21
4.8039198178
 31
0.0
 11
7.3239439931
 21
4.7954498204
 31
0.0
 11
7.3103622989
 21
4.784758433
 31
0.0
 11
7.300519858
 21
4.7721021976
 31
0.0
 11
7.2948059737
 21
4.7577677903
 31
0.0
 11
7.2934187861
 21
4.7456664638
 31
0.0
  0
SPLINE
  5
517
100
AcDbEntity
  8
0
100
AcDbSpline
 62
7
  6
CONTINUOUS
 70
0
 71
3
 72
15
 73
11
 74
9
 42
0.0000001
 43
0.0000001
 44
0.0000000001
 12
0.0000668233
 22
-0.1437257538
 32
0.0
 13
0.1432265953
 23
0.0
 33
0.0
 40
0.0
 40
0.0
 40
0.0
 40
0.0
 40
0.0915832371
 40
0.1984239475
 40
0.3096596607
 40
0.4295725034
 40
0.5596710706
 40
0.6999213674
 40
0.847984713
 40
1.0
 40
1.0
 40
1.0
 40
1.0
 10
7.2934180976
 20
3.9968592314
 30
0.0
 10
7.2934201376
 20
3.9924716082
 30
0.0
 10
7.2945684547
 20
3.9829578343
 30
0.0
 10
7.300412487
 20
3.9691409607
 30
0.0
 10
7.310720454
 20
3.9564857489
 30
0.0
 10
7.3245801973
 20
3.9459996257
 30
0.0
 10
7.3414000935
 20
3.9377739961
 30
0.0
 10
7.3605509424
 20
3.9318625454
 30
0.0
 10
7.3813194365
 20
3.9283034427
 30
0.0
 10
7.3956593904
 20
3.9275152074
 30
0.0
 10
7.4029169344
 20
3.9275152074
 30
0.0
 11
7.2934180976
 21
3.9968592314
 31
0.0
 11
7.2950332774
 21
3.9838300205
 31
0.0
 11
7.3009380636
 21
3.9697127297
 31
0.0
 11
7.3108770187
 21
3.957261103
 31
0.0
 11
7.3244615998
 21
3.9467525466
 31
0.0
 11
7.3411298034
 21
3.9384230149
 31
0.0
 11
7.3602885495
 21
3.9323853813
 31
0.0
 11
7.3811784414
 21
3.9287339877
 31
0.0
 11
7.4029169344
 21
3.9275152074
 31
0.0
  0
SPLINE
  5
518
100
AcDbEntity
  8
0
100
AcDbSpline
 62
7
  6
CONTINUOUS
 70
0
 71
3
 72
11
 73
7
 74
5
 42
0.0000001
 43
0.0000001
 44
0.0000000001
 12
-0.0000008215
 22
-0.0161783749
 32
0.0
 13
-0.0049514899
 23
-0.0153947563
 33
0.0
 40
0.0
 40
0.0
 40
0.0
 40
0.0
 40
0.0135121674
 40
0.3475841507
 40
0.6736497584
 40
1.0
 40
1.0
 40
1.0
 40
1.0
 10
7.5124169418
 20
3.9966772505
 30
0.0
 10
7.5124169381
 20
3.9966043822
 30
0.0
 10
7.5124130961
 20
3.9947299253
 30
0.0
 10
7.512218199
 20
3.991097322
 30
0.0
 10
7.5113747703
 20
3.9858372651
 30
0.0
 10
7.5104555744
 20
3.9824354758
 30
0.0
 10
7.5099169344
 20
3.9807607817
 30
0.0
 11
7.5124169418
 21
3.9966772505
 31
0.0
 11
7.5124164932
 21
3.9964586452
 31
0.0
 11
7.5121202501
 21
3.9910643454
 31
0.0
 11
7.5112847443
 21
3.9858580062
 31
0.0
 11
7.5099169344
 21
3.9807607817
 31
0.0
  0
SPLINE
  5
519
100
AcDbEntity
  8
0
100
AcDbSpline
 62
7
  6
CONTINUOUS
 70
0
 71
3
 72
14
 73
10
 74
8
 42
0.0000001
 43
0.0000001
 44
0.0000000001
 12
-0.0388666436
 22
-0.120840903
 32
0.0
 13
-0.126937543
 23
-0.0
 33
0.0
 40
0.0
 40
0.0
 40
0.0
 40
0.0
 40
0.1176128096
 40
0.2407149756
 40
0.3735519023
 40
0.5171662329
 40
0.6714315703
 40
0.8337342796
 40
1.0
 40
1.0
 40
1.0
 40
1.0
 10
7.5099169344
 20
3.9807607817
 30
0.0
 10
7.508393196
 20
3.9760233023
 30
0.0
 10
7.503826133
 20
3.966741587
 30
0.0
 10
7.4932294328
 20
3.954809094
 30
0.0
 10
7.4793694321
 20
3.9449237973
 30
0.0
 10
7.4627860592
 20
3.9371742573
 30
0.0
 10
7.4440652167
 20
3.9316069098
 30
0.0
 10
7.4238669147
 20
3.9282570426
 30
0.0
 10
7.4099520551
 20
3.9275152074
 30
0.0
 10
7.4029169344
 20
3.9275152074
 30
0.0
 11
7.5099169344
 21
3.9807607817
 31
0.0
 11
7.5033904236
 21
3.9673334192
 31
0.0
 11
7.4931312977
 21
3.9555465127
 31
0.0
 11
7.4794999002
 21
3.9456212009
 31
0.0
 11
7.4630452322
 21
3.9377739955
 31
0.0
 11
7.4443056266
 21
3.9320920618
 31
0.0
 11
7.423991239
 21
3.9286597573
 31
0.0
 11
7.4029169344
 21
3.9275152074
 31
0.0
  0
SPLINE
  5
51A
100
AcDbEntity
  8
128-403_FEATURES
100
AcDbSpline
 62
7
  6
CONTINUOUS
 70
0
 71
3
 72
9
 73
5
 74
3
 42
0.0000001
 43
0.0000001
 44
0.0000000001
 12
0.0036972013
 22
0.0000208605
 32
0.0
 13
0.0036972601
 23
0.0
 33
0.0
 40
0.0
 40
0.0
 40
0.0
 40
0.0
 40
0.4980848124
 40
1.0
 40
1.0
 40
1.0
 40
1.0
 10
5.6012196927
 20
3.715985381
 30
0.0
 10
5.6018335326
 20
3.7159888445
 30
0.0
 10
5.6030659434
 20
3.7159940664
 30
0.0
 10
5.6042983641
 20
3.7159958115
 30
0.0
 10
5.6049169344
 20
3.7159958115
 30
0.0
 11
5.6012196927
 21
3.715985381
 31
0.0
 11
5.6030612253
 21
3.7159931838
 31
0.0
 11
5.6049169344
 21
3.7159958115
 31
0.0
  0
SPLINE
  5
51B
100
AcDbEntity
  8
128-403_FEATURES
100
AcDbSpline
 62
7
  6
CONTINUOUS
 70
0
 71
3
 72
11
 73
7
 74
5
 42
0.0000001
 43
0.0000001
 44
0.0000000001
 12
0.0294657346
 22
0.0
 32
0.0
 13
0.0294360876
 23
-0.0013218954
 33
0.0
 40
0.0
 40
0.0
 40
0.0
 40
0.0
 40
0.3222586201
 40
0.6158472451
 40
0.8490232447
 40
1.0
 40
1.0
 40
1.0
 40
1.0
 10
5.6049169344
 20
3.7159958115
 30
0.0
 10
5.6080821301
 20
3.7159958115
 30
0.0
 10
5.6141310222
 20
3.7159519781
 30
0.0
 10
5.6224684292
 20
3.715776151
 30
0.0
 10
5.6291216668
 20
3.7155571596
 30
0.0
 10
5.6328915606
 20
3.7154006074
 30
0.0
 10
5.6343729489
 20
3.7153340822
 30
0.0
 11
5.6049169344
 21
3.7159958115
 31
0.0
 11
5.6144122722
 21
3.7159270176
 31
0.0
 11
5.6230611543
 21
3.7157446547
 31
0.0
 11
5.6299281384
 21
3.7155186529
 31
0.0
 11
5.6343729489
 21
3.7153340822
 31
0.0
  0
SPLINE
  5
51C
100
AcDbEntity
  8
128-403_FEATURES
100
AcDbSpline
 62
7
  6
CONTINUOUS
 70
0
 71
3
 72
8
 73
4
 74
2
 42
0.0000001
 43
0.0000001
 44
0.0000000001
 12
0.0015440688
 22
-0.00006934
 32
0.0
 13
0.0015439007
 23
-0.0000729588
 33
0.0
 40
0.0
 40
0.0
 40
0.0
 40
0.0
 40
1.0
 40
1.0
 40
1.0
 40
1.0
 10
5.6343729489
 20
3.7153340822
 30
0.0
 10
5.6348876386
 20
3.7153109689
 30
0.0
 10
5.6354023008
 20
3.7152872522
 30
0.0
 10
5.6359169344
 20
3.7152629326
 30
0.0
 11
5.6343729489
 21
3.7153340822
 31
0.0
 11
5.6359169344
 21
3.7152629326
 31
0.0
  0
SPLINE
  5
51D
100
AcDbEntity
  8
128-403_FEATURES
100
AcDbSpline
 62
7
  6
CONTINUOUS
 70
0
 71
3
 72
8
 73
4
 74
2
 42
0.0000001
 43
0.0000001
 44
0.0000000001
 12
0.0006705053
 22
0.0011909042
 32
0.0
 13
0.000670737
 23
0.0011907737
 33
0.0
 40
0.0
 40
0.0
 40
0.0
 40
0.0
 40
1.0
 40
1.0
 40
1.0
 40
1.0
 10
5.5739169344
 20
3.6679731681
 30
0.0
 10
5.5741404362
 20
3.6683701362
 30
0.0
 10
5.5743639765
 20
3.6687670826
 30
0.0
 10
5.5745875555
 20
3.6691640071
 30
0.0
 11
5.5739169344
 21
3.6679731681
 31
0.0
 11
5.5745875555
 21
3.6691640071
 31
0.0
  0
SPLINE
  5
51E
100
AcDbEntity
  8
128-403_FEATURES
100
AcDbSpline
 62
7
  6
CONTINUOUS
 70
0
 71
3
 72
15
 73
11
 74
9
 42
0.0000001
 43
0.0000001
 44
0.0000000001
 12
0.0264360829
 22
0.0469325392
 32
0.0
 13
0.0268450921
 23
0.0466997935
 33
0.0
 40
0.0
 40
0.0
 40
0.0
 40
0.0
 40
0.0007300438
 40
0.0702723036
 40
0.1721491187
 40
0.2961749543
 40
0.4407374829
 40
0.606316928
 40
0.7931196278
 40
1.0
 40
1.0
 40
1.0
 40
1.0
 10
5.5745875555
 20
3.6691640071
 30
0.0
 10
5.5745939886
 20
3.6691754281
 30
0.0
 10
5.5752132332
 20
3.6702747789
 30
0.0
 10
5.5767309516
 20
3.6729674963
 30
0.0
 10
5.5793387816
 20
3.6775870309
 30
0.0
 10
5.5826140466
 20
3.6833766071
 30
0.0
 10
5.5864600371
 20
3.690157452
 30
0.0
 10
5.59087244
 20
3.6979128888
 30
0.0
 10
5.5958519102
 20
3.7066330403
 30
0.0
 10
5.5993684518
 20
3.7127649575
 30
0.0
 10
5.6012196927
 20
3.715985381
 30
0.0
 11
5.5745875555
 21
3.6691640071
 31
0.0
 11
5.5746068551
 21
3.6691982699
 31
0.0
 11
5.5764461764
 21
3.6724615596
 31
0.0
 11
5.5791439276
 21
3.6772403443
 31
0.0
 11
5.5824334764
 21
3.6830550998
 31
0.0
 11
5.5862752617
 21
3.6898284148
 31
0.0
 11
5.5906859093
 21
3.697580584
 31
0.0
 11
5.595675697
 21
3.7063185254
 31
0.0
 11
5.6012196927
 21
3.715985381
 31
0.0
  0
SPLINE
  5
51F
100
AcDbEntity
  8
0
100
AcDbSpline
 62
7
  6
CONTINUOUS
 70
0
 71
3
 72
14
 73
10
 74
8
 42
0.0000001
 43
0.0000001
 44
0.0000000001
 12
-0.1684527097
 22
0.3090030944
 32
0.0
 13
0.1684527097
 23
0.3090030944
 33
0.0
 40
0.0
 40
0.0
 40
0.0
 40
0.0
 40
0.1546757524
 40
0.2971498922
 40
0.4331013552
 40
0.5670155335
 40
0.7029600408
 40
0.8453689352
 40
1.0
 40
1.0
 40
1.0
 40
1.0
 10
4.3453011084
 20
3.6626239337
 30
0.0
 10
4.3366159252
 20
3.6785556957
 30
0.0
 10
4.3213244416
 20
3.7099724309
 30
0.0
 10
4.3049025941
 20
3.7582209552
 30
0.0
 10
4.2964733648
 20
3.8060798635
 30
0.0
 10
4.2964770904
 20
3.8539364836
 30
0.0
 10
4.3049114521
 20
3.9017857654
 30
0.0
 10
4.3213322214
 20
3.9500198946
 30
0.0
 10
4.3366184344
 20
3.9814247723
 30
0.0
 10
4.3453011084
 20
3.9973519315
 30
0.0
 11
4.3453011084
 21
3.6626239337
 31
0.0
 11
4.3217869864
 21
3.7117194234
 31
0.0
 11
4.3059292647
 21
3.7592876515
 31
0.0
 11
4.2978324264
 21
3.8064438449
 31
0.0
 11
4.2978359947
 21
3.8535731183
 31
0.0
 11
4.3059388428
 21
3.9007257956
 31
0.0
 11
4.321792947
 21
3.948271025
 31
0.0
 11
4.3453011084
 21
3.9973519315
 31
0.0
  0
SPLINE
  5
520
100
AcDbEntity
  8
0
100
AcDbSpline
 62
7
  6
CONTINUOUS
 70
0
 71
3
 72
14
 73
10
 74
8
 42
0.0000001
 43
0.0000001
 44
0.0000000001
 12
-0.1783866806
 22
0.6544511679
 32
0.0
 13
0.1783866806
 23
0.6544511679
 33
0.0
 40
0.0
 40
0.0
 40
0.0
 40
0.0
 40
0.1488473348
 40
0.2910338478
 40
0.4305819521
 40
0.5695392444
 40
0.7090777779
 40
0.8511965268
 40
1.0
 40
1.0
 40
1.0
 40
1.0
 10
4.3453011084
 20
4.0365349348
 30
0.0
 10
4.3364503144
 20
4.0690060388
 30
0.0
 10
4.3209569475
 20
4.1330159397
 30
0.0
 10
4.3047350492
 20
4.2291037286
 30
0.0
 10
4.296469657
 20
4.3239802905
 30
0.0
 10
4.2964732959
 20
4.4186257069
 30
0.0
 10
4.3047438406
 20
4.5134842161
 30
0.0
 10
4.3209649695
 20
4.6095442023
 30
0.0
 10
4.3364529225
 20
4.6735293948
 30
0.0
 10
4.3453011084
 20
4.7059909304
 30
0.0
 11
4.3453011084
 21
4.0365349348
 31
0.0
 11
4.3217869864
 21
4.1347259142
 31
0.0
 11
4.3059292647
 21
4.2298623704
 31
0.0
 11
4.2978324264
 21
4.3241747573
 31
0.0
 11
4.2978359947
 21
4.418433304
 31
0.0
 11
4.3059388428
 21
4.5127386586
 31
0.0
 11
4.321792947
 21
4.6078291173
 31
0.0
 11
4.3453011084
 21
4.7059909304
 31
0.0
  0
SPLINE
  5
521
100
AcDbEntity
  8
0
100
AcDbSpline
 62
7
  6
CONTINUOUS
 70
0
 71
3
 72
14
 73
10
 74
8
 42
0.0000001
 43
0.0000001
 44
0.0000000001
 12
-0.1684527097
 22
0.3090030944
 32
0.0
 13
0.1684527097
 23
0.3090030944
 33
0.0
 40
0.0
 40
0.0
 40
0.0
 40
0.0
 40
0.1546757524
 40
0.2971498922
 40
0.4331013552
 40
0.5670155335
 40
0.7029600408
 40
0.8453689352
 40
1.0
 40
1.0
 40
1.0
 40
1.0
 10
4.3453011084
 20
4.7451739337
 30
0.0
 10
4.3366159252
 20
4.7611056957
 30
0.0
 10
4.3213244416
 20
4.7925224309
 30
0.0
 10
4.3049025941
 20
4.8407709552
 30
0.0
 10
4.2964733648
 20
4.8886298635
 30
0.0
 10
4.2964770904
 20
4.9364864836
 30
0.0
 10
4.3049114521
 20
4.9843357654
 30
0.0
 10
4.3213322214
 20
5.0325698946
 30
0.0
 10
4.3366184344
 20
5.0639747723
 30
0.0
 10
4.3453011084
 20
5.0799019315
 30
0.0
 11
4.3453011084
 21
4.7451739337
 31
0.0
 11
4.3217869864
 21
4.7942694234
 31
0.0
 11
4.3059292647
 21
4.8418376515
 31
0.0
 11
4.2978324264
 21
4.8889938449
 31
0.0
 11
4.2978359947
 21
4.9361231183
 31
0.0
 11
4.3059388428
 21
4.9832757956
 31
0.0
 11
4.321792947
 21
5.030821025
 31
0.0
 11
4.3453011084
 21
5.0799019315
 31
0.0
  0
ENDSEC
  0
SECTION
  2
OBJECTS
  0
DICTIONARY
  5
C
100
AcDbDictionary
280
0
281
1
  3
ACAD_GROUP
350
D
  3
ACAD_MLINESTYLE
350
17
  3
ACAD_LAYOUT
350
1A
  3
ACAD_PLOTSETTINGS
350
19
  3
ACAD_PLOTSTYLENAME
350
E
  0
DICTIONARY
  5
D
102
{ACAD_REACTORS
330
C
102
}
100
AcDbDictionary
280
0
281
1
  0
ACDBDICTIONARYWDFLT
  5
E
102
{ACAD_REACTORS
330
C
102
}
100
AcDbDictionary
281
1
  3
Normal
350
F
100
AcDbDictionaryWithDefault
340
F
  0
DICTIONARY
  5
17
102
{ACAD_REACTORS
330
C
102
}
100
AcDbDictionary
280
0
281
1
  3
Standard
350
18
  0
DICTIONARY
  5
19
102
{ACAD_REACTORS
330
C
102
}
100
AcDbDictionary
281
1
  0
DICTIONARY
  5
1A
102
{ACAD_REACTORS
330
C
102
}
100
AcDbDictionary
281
1
  3
Layout1
350
1E
  3
Model
350
22
  0
ACDBPLACEHOLDER
  5
F
102
{ACAD_REACTORS
330
E
102
}
  0
MLINESTYLE
  5
18
102
{ACAD_REACTORS
330
17
102
}
100
AcDbMlineStyle
  2
STANDARD
 70
0
  3

 62
256
 51
90.0
 52
90.0
 71
2
 49
0.5
 62
256
  6
BYLAYER
 49
-0.5
 62
256
  6
BYLAYER
  0
LAYOUT
  5
1E
102
{ACAD_REACTORS
330
1A
102
}
100
AcDbPlotSettings
  1

  2

  4

  6

 40
0.0
 41
0.0
 42
0.0
 43
0.0
 44
0.0
 45
0.0
 46
0.0
 47
0.0
 48
0.0
 49
0.0
140
0.0
141
0.0
142
1.0
143
1.0
 70
0
 72
0
 73
0
 74
0
  7

 75
0
147
1.0
148
0.0
149
0.0
100
AcDbLayout
  1
Layout1
 70
0
 71
0
 10
0.0
 20
0.0
 11
0.0
 21
0.0
 12
0.0
 22
0.0
 32
0.0
 14
0.0
 24
0.0
 34
0.0
 15
0.0
 25
0.0
 35
0.0
146
0.0
 13
0.0
 23
0.0
 33
0.0
 16
0.0
 26
0.0
 36
0.0
 17
0.0
 27
0.0
 37
0.0
 76
0
330
1B
331
0
345
0
346
0
  0
LAYOUT
  5
22
102
{ACAD_REACTORS
330
1A
102
}
100
AcDbPlotSettings
  1

  2

  4

  6

 40
0.0
 41
0.0
 42
0.0
 43
0.0
 44
0.0
 45
0.0
 46
0.0
 47
0.0
 48
0.0
 49
0.0
140
0.0
141
0.0
142
1.0
143
1.0
 70
0
 72
0
 73
0
 74
0
  7

 75
0
147
1.0
148
0.0
149
0.0
100
AcDbLayout
  1
Model
 70
0
 71
0
 10
0.0
 20
0.0
 11
0.0
 21
0.0
 12
0.0
 22
0.0
 32
0.0
 14
0.0
 24
0.0
 34
0.0
 15
0.0
 25
0.0
 35
0.0
146
0.0
 13
0.0
 23
0.0
 33
0.0
 16
0.0
 26
0.0
 36
0.0
 17
0.0
 27
0.0
 37
0.0
 76
0
330
1F
331
0
345
0
346
0
  0
ENDSEC
  0
EOF
