999
DXF file: RQEB-LAN.dxf
999
Pro/ENGINEER 2006240 by Parametric Technology Corporation
  0
SECTION
  2
HEADER
  9
$ACADVER
  1
AC1015
  9
$DWGCODEPAGE
  3
ANSI_1252
  9
$EXTMAX
 10
11.6929133858
 20
8.2677165354
 30
0.0
  9
$EXTMIN
 10
0.0
 20
0.0
 30
0.0
  9
$LIMMIN
 10
0.0
 20
0.0
  9
$LIMMAX
 10
11.6929133858
 20
8.2677165354
  9
$VIEWCTR
 10
5.8464566929
 20
4.1338582677
  9
$VIEWSIZE
 40
8.2677165354
  9
$CLAYER
  8
0
  9
$LTSCALE
 40
0.6431102362
  9
$CELTYPE
  6
BYLAYER
  9
$DIMSCALE
 40
1.0
  9
$DIMASZ
 40
0.1875
  9
$DIMEXO
 40
0.0730807087
  9
$DIMDLI
 40
0.4443307087
  9
$DIMEXE
 40
0.2104724409
  9
$DIMCEN
 40
0.1052362205
  9
$DIMLFAC
 40
1.0
  9
$DIMBLK
  1
_CLOSED
  9
$DIMTXT
 40
0.15625
  9
$DIMTOL
 70
0
  9
$DIMLIM
 70
0
  9
$DIMTFAC
 40
1.0
  9
$PDMODE
 70
3
  9
$PDSIZE
 40
0.3125
  9
$HANDSEED
  5
4AD
  9
$MEASUREMENT
 70
0
  9
$INSUNITS
 70
1
  0
ENDSEC
  0
SECTION
  2
CLASSES
  0
CLASS
  1
ACDBDICTIONARYWDFLT
  2
AcDbDictionaryWithDefault
  3
AutoCAD 2000
 90
0
280
0
281
0
  0
CLASS
  1
ACDBPLACEHOLDER
  2
AcDbPlaceHolder
  3
AutoCAD 2000
 90
0
280
0
281
0
  0
CLASS
  1
LAYOUT
  2
AcDbLayout
  3
AutoCAD 2000
 90
0
280
0
281
0
  0
ENDSEC
  0
SECTION
  2
TABLES
  0
TABLE
  2
VPORT
  5
8
100
AcDbSymbolTable
 70
2
  0
VPORT
  5
1F4
100
AcDbSymbolTableRecord
100
AcDbViewportTableRecord
  2
*ACTIVE
 70
0
 10
0.0
 20
0.0
 11
1.0
 21
1.0
 12
5.8464566929
 22
4.1338582677
 13
0.0
 23
0.0
 14
1.0
 24
1.0
 15
0.0
 25
0.0
 16
0.0
 26
0.0
 36
1.0
 17
0.0
 27
0.0
 37
0.0
 40
8.2677165354
 41
1.4142857143
 42
50.0
 43
0.0
 44
0.0
 50
0.0
 51
0.0
 71
0
 72
100
 73
1
 74
1
 75
0
 76
0
 77
0
 78
0
  0
ENDTAB
  0
TABLE
  2
LTYPE
  5
5
100
AcDbSymbolTable
 70
6
  0
LTYPE
  5
14
100
AcDbSymbolTableRecord
100
AcDbLinetypeTableRecord
  2
BYBLOCK
 70
0
  3

 72
65
 73
0
 40
0.0
  0
LTYPE
  5
15
100
AcDbSymbolTableRecord
100
AcDbLinetypeTableRecord
  2
BYLAYER
 70
0
  3

 72
65
 73
0
 40
0.0
  0
LTYPE
  5
16
100
AcDbSymbolTableRecord
100
AcDbLinetypeTableRecord
  2
CONTINUOUS
 70
64
  3
Solid line
 72
65
 73
0
 40
0.0
  0
LTYPE
  5
1F5
100
AcDbSymbolTableRecord
100
AcDbLinetypeTableRecord
  2
CENTER
 70
64
  3
____ _ ____ _ ____ _ ____ _ ____ _ ____ _ ____
 72
65
 73
4
 40
0.6
 49
0.375
 74
0
 49
-0.075
 74
0
 49
0.075
 74
0
 49
-0.075
 74
0
  0
LTYPE
  5
1F6
100
AcDbSymbolTableRecord
100
AcDbLinetypeTableRecord
  2
HIDDEN
 70
64
  3
- - - - - - - - - - - - - - - - - - - -
 72
65
 73
2
 40
0.2
 49
0.1
 74
0
 49
-0.1
 74
0
  0
LTYPE
  5
1F7
100
AcDbSymbolTableRecord
100
AcDbLinetypeTableRecord
  2
PHANTOM
 70
64
  3
_____ _ _ _____ _ _ _____ _ _ _____
 72
65
 73
6
 40
0.8
 49
0.45
 74
0
 49
-0.05
 74
0
 49
0.1
 74
0
 49
-0.05
 74
0
 49
0.1
 74
0
 49
-0.05
 74
0
  0
LTYPE
  5
1F8
100
AcDbSymbolTableRecord
100
AcDbLinetypeTableRecord
  2
DOT
 70
64
  3
. . . . . . . . . . . . . . . . . . . .
 72
65
 73
2
 40
0.2
 49
0.1
 74
0
 49
-0.1
 74
0
  0
LTYPE
  5
1F9
100
AcDbSymbolTableRecord
100
AcDbLinetypeTableRecord
  2
DASHED
 70
64
  3
- - - - - - - - - - - - - - - - - - - -
 72
65
 73
2
 40
0.2
 49
0.1
 74
0
 49
-0.1
 74
0
  0
ENDTAB
  0
TABLE
  2
LAYER
  5
2
100
AcDbSymbolTable
 70
36
  0
LAYER
  5
10
100
AcDbSymbolTableRecord
100
AcDbLayerTableRecord
  2
0
 70
0
 62
7
  6
CONTINUOUS
370
-3
390
F
  0
LAYER
  5
1FA
100
AcDbSymbolTableRecord
100
AcDbLayerTableRecord
  2
DEFAULT_1
 70
0
 62
7
  6
CENTER
370
-3
390
F
  0
LAYER
  5
1FB
100
AcDbSymbolTableRecord
100
AcDbLayerTableRecord
  2
DEFAULT_2
 70
0
 62
8
  6
HIDDEN
370
-3
390
F
  0
LAYER
  5
1FC
100
AcDbSymbolTableRecord
100
AcDbLayerTableRecord
  2
DEFAULT_3
 70
0
 62
7
  6
PHANTOM
370
-3
390
F
  0
LAYER
  5
1FD
100
AcDbSymbolTableRecord
100
AcDbLayerTableRecord
  2
_BLACK_HOLE
 70
0
 62
7
  6
CONTINUOUS
370
-3
390
F
  0
LAYER
  5
1FE
100
AcDbSymbolTableRecord
100
AcDbLayerTableRecord
  2
01_ALL_DTM_PLN
 70
0
 62
7
  6
CONTINUOUS
370
-3
390
F
  0
LAYER
  5
1FF
100
AcDbSymbolTableRecord
100
AcDbLayerTableRecord
  2
01__ASM_ALL_DTM_PLN
 70
0
 62
7
  6
CONTINUOUS
370
-3
390
F
  0
LAYER
  5
200
100
AcDbSymbolTableRecord
100
AcDbLayerTableRecord
  2
01__ASM_DEF_DTM_PLN
 70
0
 62
7
  6
CONTINUOUS
370
-3
390
F
  0
LAYER
  5
201
100
AcDbSymbolTableRecord
100
AcDbLayerTableRecord
  2
01___PRT_ALL_DTM_PLN
 70
0
 62
7
  6
CONTINUOUS
370
-3
390
F
  0
LAYER
  5
202
100
AcDbSymbolTableRecord
100
AcDbLayerTableRecord
  2
01___PRT_DEF_DTM_PLN
 70
0
 62
7
  6
CONTINUOUS
370
-3
390
F
  0
LAYER
  5
203
100
AcDbSymbolTableRecord
100
AcDbLayerTableRecord
  2
02_ALL_AXES
 70
0
 62
7
  6
CONTINUOUS
370
-3
390
F
  0
LAYER
  5
204
100
AcDbSymbolTableRecord
100
AcDbLayerTableRecord
  2
02__ASM_ALL_AXES
 70
0
 62
7
  6
CONTINUOUS
370
-3
390
F
  0
LAYER
  5
205
100
AcDbSymbolTableRecord
100
AcDbLayerTableRecord
  2
02___PRT_ALL_AXES
 70
0
 62
7
  6
CONTINUOUS
370
-3
390
F
  0
LAYER
  5
206
100
AcDbSymbolTableRecord
100
AcDbLayerTableRecord
  2
03_ALL_CURVES
 70
0
 62
7
  6
CONTINUOUS
370
-3
390
F
  0
LAYER
  5
207
100
AcDbSymbolTableRecord
100
AcDbLayerTableRecord
  2
03__ASM_ALL_CURVES
 70
0
 62
7
  6
CONTINUOUS
370
-3
390
F
  0
LAYER
  5
208
100
AcDbSymbolTableRecord
100
AcDbLayerTableRecord
  2
03___PRT_ALL_CURVES
 70
0
 62
7
  6
CONTINUOUS
370
-3
390
F
  0
LAYER
  5
209
100
AcDbSymbolTableRecord
100
AcDbLayerTableRecord
  2
04_ALL_DTM_PNT
 70
0
 62
7
  6
CONTINUOUS
370
-3
390
F
  0
LAYER
  5
20A
100
AcDbSymbolTableRecord
100
AcDbLayerTableRecord
  2
04__ASM_ALL_DTM_PNT
 70
0
 62
7
  6
CONTINUOUS
370
-3
390
F
  0
LAYER
  5
20B
100
AcDbSymbolTableRecord
100
AcDbLayerTableRecord
  2
04___PRT_ALL_DTM_PNT
 70
0
 62
7
  6
CONTINUOUS
370
-3
390
F
  0
LAYER
  5
20C
100
AcDbSymbolTableRecord
100
AcDbLayerTableRecord
  2
05_ALL_DTM_CSYS
 70
0
 62
7
  6
CONTINUOUS
370
-3
390
F
  0
LAYER
  5
20D
100
AcDbSymbolTableRecord
100
AcDbLayerTableRecord
  2
05__ASM_ALL_DTM_CSYS
 70
0
 62
7
  6
CONTINUOUS
370
-3
390
F
  0
LAYER
  5
20E
100
AcDbSymbolTableRecord
100
AcDbLayerTableRecord
  2
05__ASM_DEF_DTM_CSYS
 70
0
 62
7
  6
CONTINUOUS
370
-3
390
F
  0
LAYER
  5
20F
100
AcDbSymbolTableRecord
100
AcDbLayerTableRecord
  2
05___PRT_ALL_DTM_CSYS
 70
0
 62
7
  6
CONTINUOUS
370
-3
390
F
  0
LAYER
  5
210
100
AcDbSymbolTableRecord
100
AcDbLayerTableRecord
  2
05___PRT_DEF_DTM_CSYS
 70
0
 62
7
  6
CONTINUOUS
370
-3
390
F
  0
LAYER
  5
211
100
AcDbSymbolTableRecord
100
AcDbLayerTableRecord
  2
06_ALL_SURFS
 70
0
 62
7
  6
CONTINUOUS
370
-3
390
F
  0
LAYER
  5
212
100
AcDbSymbolTableRecord
100
AcDbLayerTableRecord
  2
06__ASM_ALL_SURFS
 70
0
 62
7
  6
CONTINUOUS
370
-3
390
F
  0
LAYER
  5
213
100
AcDbSymbolTableRecord
100
AcDbLayerTableRecord
  2
06___PRT_ALL_SURFS
 70
0
 62
7
  6
CONTINUOUS
370
-3
390
F
  0
LAYER
  5
214
100
AcDbSymbolTableRecord
100
AcDbLayerTableRecord
  2
07__ASM_ALL_SKELETONS
 70
0
 62
7
  6
CONTINUOUS
370
-3
390
F
  0
LAYER
  5
215
100
AcDbSymbolTableRecord
100
AcDbLayerTableRecord
  2
125-104_HEX_FEATURES
 70
0
 62
7
  6
CONTINUOUS
370
-3
390
F
  0
LAYER
  5
216
100
AcDbSymbolTableRecord
100
AcDbLayerTableRecord
  2
125-104_REF_GEOMETRY
 70
0
 62
7
  6
CONTINUOUS
370
-3
390
F
  0
LAYER
  5
217
100
AcDbSymbolTableRecord
100
AcDbLayerTableRecord
  2
125-105_HEX_FEATURES
 70
0
 62
7
  6
CONTINUOUS
370
-3
390
F
  0
LAYER
  5
218
100
AcDbSymbolTableRecord
100
AcDbLayerTableRecord
  2
125-105_REF_GEOMETRY
 70
0
 62
7
  6
CONTINUOUS
370
-3
390
F
  0
LAYER
  5
219
100
AcDbSymbolTableRecord
100
AcDbLayerTableRecord
  2
125-132_HEX_FEATURES
 70
0
 62
7
  6
CONTINUOUS
370
-3
390
F
  0
LAYER
  5
21A
100
AcDbSymbolTableRecord
100
AcDbLayerTableRecord
  2
125-132_REF_GEOMETRY
 70
0
 62
7
  6
CONTINUOUS
370
-3
390
F
  0
LAYER
  5
21B
100
AcDbSymbolTableRecord
100
AcDbLayerTableRecord
  2
125-150_HEX_FEATURES
 70
0
 62
7
  6
CONTINUOUS
370
-3
390
F
  0
LAYER
  5
21C
100
AcDbSymbolTableRecord
100
AcDbLayerTableRecord
  2
125-150_REF_GEOMETRY
 70
0
 62
7
  6
CONTINUOUS
370
-3
390
F
  0
LAYER
  5
21D
100
AcDbSymbolTableRecord
100
AcDbLayerTableRecord
  2
125-158_HEX_FEATURES
 70
0
 62
7
  6
CONTINUOUS
370
-3
390
F
  0
LAYER
  5
21E
100
AcDbSymbolTableRecord
100
AcDbLayerTableRecord
  2
125-158_REF_GEOMETRY
 70
0
 62
7
  6
CONTINUOUS
370
-3
390
F
  0
LAYER
  5
21F
100
AcDbSymbolTableRecord
100
AcDbLayerTableRecord
  2
126-003_HEX_FEATURES
 70
0
 62
7
  6
CONTINUOUS
370
-3
390
F
  0
LAYER
  5
220
100
AcDbSymbolTableRecord
100
AcDbLayerTableRecord
  2
126-003_REF_GEOMETRY
 70
0
 62
7
  6
CONTINUOUS
370
-3
390
F
  0
LAYER
  5
221
100
AcDbSymbolTableRecord
100
AcDbLayerTableRecord
  2
126-005_HEX_FEATURES
 70
0
 62
7
  6
CONTINUOUS
370
-3
390
F
  0
LAYER
  5
222
100
AcDbSymbolTableRecord
100
AcDbLayerTableRecord
  2
126-005_REF_GEOMETRY
 70
0
 62
7
  6
CONTINUOUS
370
-3
390
F
  0
LAYER
  5
223
100
AcDbSymbolTableRecord
100
AcDbLayerTableRecord
  2
126-007_HEX_FEATURES
 70
0
 62
7
  6
CONTINUOUS
370
-3
390
F
  0
LAYER
  5
224
100
AcDbSymbolTableRecord
100
AcDbLayerTableRecord
  2
126-007_REF_GEOMETRY
 70
0
 62
7
  6
CONTINUOUS
370
-3
390
F
  0
LAYER
  5
225
100
AcDbSymbolTableRecord
100
AcDbLayerTableRecord
  2
126-200_HEX_FEATURES
 70
0
 62
7
  6
CONTINUOUS
370
-3
390
F
  0
LAYER
  5
226
100
AcDbSymbolTableRecord
100
AcDbLayerTableRecord
  2
126-200_REF_GEOMETRY
 70
0
 62
7
  6
CONTINUOUS
370
-3
390
F
  0
LAYER
  5
227
100
AcDbSymbolTableRecord
100
AcDbLayerTableRecord
  2
126-202_HEX_FEATURES
 70
0
 62
7
  6
CONTINUOUS
370
-3
390
F
  0
LAYER
  5
228
100
AcDbSymbolTableRecord
100
AcDbLayerTableRecord
  2
126-202_REF_GEOMETRY
 70
0
 62
7
  6
CONTINUOUS
370
-3
390
F
  0
LAYER
  5
229
100
AcDbSymbolTableRecord
100
AcDbLayerTableRecord
  2
126-220_HEX_FEATURES
 70
0
 62
7
  6
CONTINUOUS
370
-3
390
F
  0
LAYER
  5
22A
100
AcDbSymbolTableRecord
100
AcDbLayerTableRecord
  2
126-220_REF_GEOMETRY
 70
0
 62
7
  6
CONTINUOUS
370
-3
390
F
  0
LAYER
  5
22B
100
AcDbSymbolTableRecord
100
AcDbLayerTableRecord
  2
COPY_GEO_FET
 70
0
 62
7
  6
CONTINUOUS
370
-3
390
F
  0
LAYER
  5
22C
100
AcDbSymbolTableRecord
100
AcDbLayerTableRecord
  2
COSMETIC
 70
0
 62
7
  6
CONTINUOUS
370
-3
390
F
  0
LAYER
  5
22D
100
AcDbSymbolTableRecord
100
AcDbLayerTableRecord
  2
COSM_REF
 70
0
 62
7
  6
CONTINUOUS
370
-3
390
F
  0
LAYER
  5
22E
100
AcDbSymbolTableRecord
100
AcDbLayerTableRecord
  2
CURVES
 70
0
 62
7
  6
CONTINUOUS
370
-3
390
F
  0
LAYER
  5
22F
100
AcDbSymbolTableRecord
100
AcDbLayerTableRecord
  2
CUT_REF_SURF
 70
0
 62
7
  6
CONTINUOUS
370
-3
390
F
  0
LAYER
  5
230
100
AcDbSymbolTableRecord
100
AcDbLayerTableRecord
  2
DATUM
 70
0
 62
7
  6
CONTINUOUS
370
-3
390
F
  0
LAYER
  5
231
100
AcDbSymbolTableRecord
100
AcDbLayerTableRecord
  2
DATUMCURVES
 70
0
 62
7
  6
CONTINUOUS
370
-3
390
F
  0
LAYER
  5
232
100
AcDbSymbolTableRecord
100
AcDbLayerTableRecord
  2
DATUM_ADDED_280-022
 70
0
 62
7
  6
CONTINUOUS
370
-3
390
F
  0
LAYER
  5
233
100
AcDbSymbolTableRecord
100
AcDbLayerTableRecord
  2
DIMENSIONS
 70
0
 62
7
  6
CONTINUOUS
370
-3
390
F
  0
LAYER
  5
234
100
AcDbSymbolTableRecord
100
AcDbLayerTableRecord
  2
DRAWINGNOTES
 70
0
 62
7
  6
CONTINUOUS
370
-3
390
F
  0
LAYER
  5
235
100
AcDbSymbolTableRecord
100
AcDbLayerTableRecord
  2
DTM
 70
0
 62
7
  6
CONTINUOUS
370
-3
390
F
  0
LAYER
  5
236
100
AcDbSymbolTableRecord
100
AcDbLayerTableRecord
  2
DTM325
 70
0
 62
7
  6
CONTINUOUS
370
-3
390
F
  0
LAYER
  5
237
100
AcDbSymbolTableRecord
100
AcDbLayerTableRecord
  2
DTM_280-022
 70
0
 62
7
  6
CONTINUOUS
370
-3
390
F
  0
LAYER
  5
238
100
AcDbSymbolTableRecord
100
AcDbLayerTableRecord
  2
DTM_500001
 70
0
 62
7
  6
CONTINUOUS
370
-3
390
F
  0
LAYER
  5
239
100
AcDbSymbolTableRecord
100
AcDbLayerTableRecord
  2
DTM_500002
 70
0
 62
7
  6
CONTINUOUS
370
-3
390
F
  0
LAYER
  5
23A
100
AcDbSymbolTableRecord
100
AcDbLayerTableRecord
  2
DTM_515002
 70
0
 62
7
  6
CONTINUOUS
370
-3
390
F
  0
LAYER
  5
23B
100
AcDbSymbolTableRecord
100
AcDbLayerTableRecord
  2
DTM_700-003
 70
0
 62
7
  6
CONTINUOUS
370
-3
390
F
  0
LAYER
  5
23C
100
AcDbSymbolTableRecord
100
AcDbLayerTableRecord
  2
DTM_800001
 70
0
 62
7
  6
CONTINUOUS
370
-3
390
F
  0
LAYER
  5
23D
100
AcDbSymbolTableRecord
100
AcDbLayerTableRecord
  2
DTM_BALLHOLDER
 70
0
 62
7
  6
CONTINUOUS
370
-3
390
F
  0
LAYER
  5
23E
100
AcDbSymbolTableRecord
100
AcDbLayerTableRecord
  2
DTM_ORIFICE_SEAT
 70
0
 62
7
  6
CONTINUOUS
370
-3
390
F
  0
LAYER
  5
23F
100
AcDbSymbolTableRecord
100
AcDbLayerTableRecord
  2
DTM_SPRING_LH
 70
0
 62
7
  6
CONTINUOUS
370
-3
390
F
  0
LAYER
  5
240
100
AcDbSymbolTableRecord
100
AcDbLayerTableRecord
  2
DTM_SP_LH_CONSTR
 70
0
 62
7
  6
CONTINUOUS
370
-3
390
F
  0
LAYER
  5
241
100
AcDbSymbolTableRecord
100
AcDbLayerTableRecord
  2
FACE1
 70
0
 62
7
  6
CONTINUOUS
370
-3
390
F
  0
LAYER
  5
242
100
AcDbSymbolTableRecord
100
AcDbLayerTableRecord
  2
FACE2
 70
0
 62
7
  6
CONTINUOUS
370
-3
390
F
  0
LAYER
  5
243
100
AcDbSymbolTableRecord
100
AcDbLayerTableRecord
  2
FACE3
 70
0
 62
7
  6
CONTINUOUS
370
-3
390
F
  0
LAYER
  5
244
100
AcDbSymbolTableRecord
100
AcDbLayerTableRecord
  2
FACE4
 70
0
 62
7
  6
CONTINUOUS
370
-3
390
F
  0
LAYER
  5
245
100
AcDbSymbolTableRecord
100
AcDbLayerTableRecord
  2
GEOMETRICTOLERANCES
 70
0
 62
7
  6
CONTINUOUS
370
-3
390
F
  0
LAYER
  5
246
100
AcDbSymbolTableRecord
100
AcDbLayerTableRecord
  2
HOLE_FEATURES
 70
0
 62
7
  6
CONTINUOUS
370
-3
390
F
  0
LAYER
  5
247
100
AcDbSymbolTableRecord
100
AcDbLayerTableRecord
  2
LAY0001
 70
0
 62
7
  6
CONTINUOUS
370
-3
390
F
  0
LAYER
  5
248
100
AcDbSymbolTableRecord
100
AcDbLayerTableRecord
  2
PARAMETERDIMENSIONS
 70
0
 62
7
  6
CONTINUOUS
370
-3
390
F
  0
LAYER
  5
249
100
AcDbSymbolTableRecord
100
AcDbLayerTableRecord
  2
PLANE
 70
0
 62
7
  6
CONTINUOUS
370
-3
390
F
  0
LAYER
  5
24A
100
AcDbSymbolTableRecord
100
AcDbLayerTableRecord
  2
PROTRUSIONS
 70
0
 62
7
  6
CONTINUOUS
370
-3
390
F
  0
LAYER
  5
24B
100
AcDbSymbolTableRecord
100
AcDbLayerTableRecord
  2
TEXT
 70
0
 62
7
  6
CONTINUOUS
370
-3
390
F
  0
LAYER
  5
24C
100
AcDbSymbolTableRecord
100
AcDbLayerTableRecord
  2
THREAD
 70
0
 62
7
  6
CONTINUOUS
370
-3
390
F
  0
LAYER
  5
24D
100
AcDbSymbolTableRecord
100
AcDbLayerTableRecord
  2
WIRE_GRV_RAD_DRW_REF
 70
0
 62
7
  6
CONTINUOUS
370
-3
390
F
  0
LAYER
  5
24E
100
AcDbSymbolTableRecord
100
AcDbLayerTableRecord
  2
WIRE_SLOT_DRW_REF
 70
0
 62
7
  6
CONTINUOUS
370
-3
390
F
  0
LAYER
  5
24F
100
AcDbSymbolTableRecord
100
AcDbLayerTableRecord
  2
XSEC_DATUMS
 70
0
 62
7
  6
CONTINUOUS
370
-3
390
F
  0
ENDTAB
  0
TABLE
  2
STYLE
  5
3
100
AcDbSymbolTable
 70
1
  0
STYLE
  5
11
100
AcDbSymbolTableRecord
100
AcDbTextStyleTableRecord
  2
STANDARD
 70
0
 40
0.0
 41
0.8
 50
0.0
 71
0
 42
0.2
  3
txt
  4

  0
ENDTAB
  0
TABLE
  2
VIEW
  5
6
100
AcDbSymbolTable
 70
0
  0
ENDTAB
  0
TABLE
  2
UCS
  5
7
100
AcDbSymbolTable
 70
0
  0
ENDTAB
  0
TABLE
  2
APPID
  5
9
100
AcDbSymbolTable
 70
1
  0
APPID
  5
250
100
AcDbSymbolTableRecord
100
AcDbRegAppTableRecord
  2
ACAD
 70
0
  0
ENDTAB
  0
TABLE
  2
BLOCK_RECORD
  5
1
100
AcDbSymbolTable
 70
0
  0
BLOCK_RECORD
  5
1F
100
AcDbSymbolTableRecord
100
AcDbBlockTableRecord
  2
*MODEL_SPACE
  0
BLOCK_RECORD
  5
1B
100
AcDbSymbolTableRecord
100
AcDbBlockTableRecord
  2
*PAPER_SPACE
  0
ENDTAB
  0
TABLE
  2
DIMSTYLE
  5
A
100
AcDbSymbolTable
 70
1
100
AcDbDimStyleTable
 71
0
  0
DIMSTYLE
105
251
100
AcDbSymbolTableRecord
100
AcDbDimStyleTableRecord
  2
STANDARD
 70
0
  3

  4

 40
1.0
 41
0.1875
 42
0.0625
 43
0.38
 44
0.18
 45
0.0
 46
0.0
 47
0.01
 48
0.01
140
0.15625
141
0.09
142
0.0
143
25.4
144
1.0
145
0.0
146
1.0
147
0.09
 71
0.0
 72
0.0
 73
1
 74
1
 75
0
 76
0
 77
0
 78
4
170
0
171
2
172
0
173
0
174
0
175
0
176
0
177
0
178
0
270
2
271
2
272
2
273
2
274
2
275
0
280
0
281
0
282
0
283
1
284
4
285
0
286
0
287
3
288
0
340
11
  0
ENDTAB
  0
ENDSEC
  0
SECTION
  2
BLOCKS
  0
BLOCK
  5
20
100
AcDbEntity
  8
0
100
AcDbBlockBegin
  2
*MODEL_SPACE
 70
0
 10
0.0
 20
0.0
 30
0.0
  3
*MODEL_SPACE
  1

  0
ENDBLK
  5
21
100
AcDbEntity
  8
0
100
AcDbBlockEnd
  0
BLOCK
  5
1C
100
AcDbEntity
  8
0
100
AcDbBlockBegin
  2
*PAPER_SPACE
 70
0
 10
0.0
 20
0.0
 30
0.0
  3
*PAPER_SPACE
  1

  0
ENDBLK
  5
1D
100
AcDbEntity
  8
0
100
AcDbBlockEnd
  0
ENDSEC
  0
SECTION
  2
ENTITIES
  0
LINE
  5
252
100
AcDbEntity
  8
0
100
AcDbLine
 62
7
  6
CONTINUOUS
 10
3.7443147853
 20
4.256939308
 11
3.7443147853
 21
3.9509530572
  0
LINE
  5
253
100
AcDbEntity
  8
03__ASM_ALL_CURVES
100
AcDbLine
 62
40
  6
CONTINUOUS
 10
3.7443147853
 20
4.256939308
 11
3.7443147853
 21
5.1125561826
  0
LINE
  5
254
100
AcDbEntity
  8
0
100
AcDbLine
 62
7
  6
CONTINUOUS
 10
3.7753147853
 20
4.2879461826
 11
3.7753147853
 21
3.9199461826
  0
LINE
  5
255
100
AcDbEntity
  8
03__ASM_ALL_CURVES
100
AcDbLine
 62
40
  6
CONTINUOUS
 10
3.8512047853
 20
5.0947411826
 11
3.8512047853
 21
5.0591111826
  0
LINE
  5
256
100
AcDbEntity
  8
0
100
AcDbLine
 62
7
  6
CONTINUOUS
 10
3.9743147853
 20
4.2879411673
 11
3.9743147853
 21
3.9199511979
  0
LINE
  5
257
100
AcDbEntity
  8
0
100
AcDbLine
 62
7
  6
CONTINUOUS
 10
3.9758147853
 20
3.9428031896
 11
3.9758147853
 21
4.1800697514
  0
LINE
  5
258
100
AcDbEntity
  8
0
100
AcDbLine
 62
7
  6
CONTINUOUS
 10
4.0108147853
 20
3.9428031896
 11
4.0108147853
 21
4.1800697514
  0
LINE
  5
259
100
AcDbEntity
  8
0
100
AcDbLine
 62
7
  6
CONTINUOUS
 10
4.0123147853
 20
4.2879411673
 11
4.0123147853
 21
3.9199511979
  0
LINE
  5
25A
100
AcDbEntity
  8
03__ASM_ALL_CURVES
100
AcDbLine
 62
40
  6
CONTINUOUS
 10
4.3677460353
 20
5.1867853475
 11
4.3733132228
 21
5.1942082677
  0
LINE
  5
25B
100
AcDbEntity
  8
03__ASM_ALL_CURVES
100
AcDbLine
 62
40
  6
CONTINUOUS
 10
4.3844475978
 20
5.149670765
 11
4.3733132228
 21
5.1348249326
  0
LINE
  5
25C
100
AcDbEntity
  8
03__ASM_ALL_CURVES
100
AcDbLine
 62
40
  6
CONTINUOUS
 10
4.4122835353
 20
5.1719395177
 11
4.4067163478
 21
5.1645165975
  0
LINE
  5
25D
100
AcDbEntity
  8
0
100
AcDbLine
 62
7
  6
CONTINUOUS
 10
3.7443147853
 20
3.9509461826
 11
3.7753147853
 21
3.9199461826
  0
LINE
  5
25E
100
AcDbEntity
  8
0
100
AcDbLine
 62
7
  6
CONTINUOUS
 10
4.2493147853
 20
3.8562949975
 11
4.2493147853
 21
4.3515973677
  0
LINE
  5
25F
100
AcDbEntity
  8
0
100
AcDbLine
 62
7
  6
CONTINUOUS
 10
4.3113147853
 20
3.8329461826
 11
4.3113147853
 21
4.3749461826
  0
LINE
  5
260
100
AcDbEntity
  8
0
100
AcDbLine
 62
7
  6
CONTINUOUS
 10
4.3173147853
 20
3.8329461826
 11
4.3173147853
 21
4.3749461826
  0
LINE
  5
261
100
AcDbEntity
  8
03__ASM_ALL_CURVES
100
AcDbLine
 62
40
  6
CONTINUOUS
 10
4.3733132228
 20
5.1348249326
 11
4.3677460353
 21
5.1125561826
  0
LINE
  5
262
100
AcDbEntity
  8
03__ASM_ALL_CURVES
100
AcDbLine
 62
40
  6
CONTINUOUS
 10
4.5458960353
 20
5.1719395177
 11
4.5514632228
 21
5.1867853475
  0
LINE
  5
263
100
AcDbEntity
  8
03__ASM_ALL_CURVES
100
AcDbLine
 62
40
  6
CONTINUOUS
 10
4.5514632228
 20
5.1867853475
 11
4.5570304103
 21
5.1942082677
  0
LINE
  5
264
100
AcDbEntity
  8
03__ASM_ALL_CURVES
100
AcDbLine
 62
40
  6
CONTINUOUS
 10
4.3733132228
 20
5.1942082677
 11
4.3844475978
 21
5.2016311826
  0
LINE
  5
265
100
AcDbEntity
  8
03__ASM_ALL_CURVES
100
AcDbLine
 62
40
  6
CONTINUOUS
 10
4.4067163478
 20
5.1645165975
 11
4.3844475978
 21
5.149670765
  0
LINE
  5
266
100
AcDbEntity
  8
0
100
AcDbLine
 62
7
  6
CONTINUOUS
 10
4.3228147853
 20
3.8384461826
 11
4.3228147853
 21
4.3694461826
  0
LINE
  5
267
100
AcDbEntity
  8
0
100
AcDbLine
 62
7
  6
CONTINUOUS
 10
4.3388147853
 20
3.8384461826
 11
4.3388147853
 21
4.3694461826
  0
LINE
  5
268
100
AcDbEntity
  8
03__ASM_ALL_CURVES
100
AcDbLine
 62
40
  6
CONTINUOUS
 10
4.4122835353
 20
5.1867853475
 11
4.4122835353
 21
5.1719395177
  0
LINE
  5
269
100
AcDbEntity
  8
03__ASM_ALL_CURVES
100
AcDbLine
 62
40
  6
CONTINUOUS
 10
4.6516725978
 20
5.1867853475
 11
4.6461054103
 21
5.1645165975
  0
LINE
  5
26A
100
AcDbEntity
  8
03__ASM_ALL_CURVES
100
AcDbLine
 62
40
  6
CONTINUOUS
 10
4.5904335353
 20
5.1422478501
 11
4.5848663478
 21
5.1274020164
  0
LINE
  5
26B
100
AcDbEntity
  8
03__ASM_ALL_CURVES
100
AcDbLine
 62
40
  6
CONTINUOUS
 10
4.5848663478
 20
5.1274020164
 11
4.5792991603
 21
5.1199790995
  0
LINE
  5
26C
100
AcDbEntity
  8
03__ASM_ALL_CURVES
100
AcDbLine
 62
40
  6
CONTINUOUS
 10
4.6628069728
 20
5.2016311826
 11
4.6516725978
 21
5.1867853475
  0
LINE
  5
26D
100
AcDbEntity
  8
0
100
AcDbLine
 62
7
  6
CONTINUOUS
 10
3.7443147853
 20
4.2569461826
 11
3.7753147853
 21
4.2879461826
  0
LINE
  5
26E
100
AcDbEntity
  8
03__ASM_ALL_CURVES
100
AcDbLine
 62
40
  6
CONTINUOUS
 10
4.5570304103
 20
5.1942082677
 11
4.5681647853
 21
5.2016311826
  0
LINE
  5
26F
100
AcDbEntity
  8
03__ASM_ALL_CURVES
100
AcDbLine
 62
40
  6
CONTINUOUS
 10
4.5792991603
 20
5.1199790995
 11
4.5681647853
 21
5.1125561826
  0
LINE
  5
270
100
AcDbEntity
  8
0
100
AcDbLine
 62
7
  6
CONTINUOUS
 10
4.3543155709
 20
3.822945397
 11
4.3388147853
 21
3.8384461826
  0
LINE
  5
271
100
AcDbEntity
  8
03__ASM_ALL_CURVES
100
AcDbLine
 62
40
  6
CONTINUOUS
 10
4.4735225978
 20
5.1125561826
 11
4.4735225978
 21
5.1199790995
  0
LINE
  5
272
100
AcDbEntity
  8
0
100
AcDbLine
 62
7
  6
CONTINUOUS
 10
4.5303147853
 20
3.8329461826
 11
4.5303147853
 21
4.3749461826
  0
LINE
  5
273
100
AcDbEntity
  8
03__ASM_ALL_CURVES
100
AcDbLine
 62
40
  6
CONTINUOUS
 10
4.5458960353
 20
5.1422478501
 11
4.5458960353
 21
5.1719395177
  0
LINE
  5
274
100
AcDbEntity
  8
0
100
AcDbLine
 62
7
  6
CONTINUOUS
 10
4.5613147853
 20
3.7804461826
 11
4.5613147853
 21
4.4274461826
  0
LINE
  5
275
100
AcDbEntity
  8
03__ASM_ALL_CURVES
100
AcDbLine
 62
40
  6
CONTINUOUS
 10
4.5904335353
 20
5.1719395177
 11
4.5904335353
 21
5.1422478501
  0
LINE
  5
276
100
AcDbEntity
  8
0
100
AcDbLine
 62
7
  6
CONTINUOUS
 10
4.6113147853
 20
3.7304461826
 11
4.6113147853
 21
4.4774461826
  0
LINE
  5
277
100
AcDbEntity
  8
03__ASM_ALL_CURVES
100
AcDbLine
 62
40
  6
CONTINUOUS
 10
4.7351804103
 20
5.2016311826
 11
4.7296132228
 21
5.1645165975
  0
LINE
  5
278
100
AcDbEntity
  8
03__ASM_ALL_CURVES
100
AcDbLine
 62
40
  6
CONTINUOUS
 10
4.7741507228
 20
5.1422478501
 11
4.7685835353
 21
5.1274020164
  0
LINE
  5
279
100
AcDbEntity
  8
03__ASM_ALL_CURVES
100
AcDbLine
 62
40
  6
CONTINUOUS
 10
4.8131210353
 20
5.1719395177
 11
4.8186882228
 21
5.1867853475
  0
LINE
  5
27A
100
AcDbEntity
  8
03__ASM_ALL_CURVES
100
AcDbLine
 62
40
  6
CONTINUOUS
 10
4.8576585353
 20
5.1422478501
 11
4.8520913478
 21
5.1274020164
  0
LINE
  5
27B
100
AcDbEntity
  8
03__ASM_ALL_CURVES
100
AcDbLine
 62
40
  6
CONTINUOUS
 10
4.7685835353
 20
5.1274020164
 11
4.7630163478
 21
5.1199790995
  0
LINE
  5
27C
100
AcDbEntity
  8
03__ASM_ALL_CURVES
100
AcDbLine
 62
40
  6
CONTINUOUS
 10
4.8186882228
 20
5.1867853475
 11
4.8242554103
 21
5.1942082677
  0
LINE
  5
27D
100
AcDbEntity
  8
03__ASM_ALL_CURVES
100
AcDbLine
 62
40
  6
CONTINUOUS
 10
4.8520913478
 20
5.1274020164
 11
4.8465241603
 21
5.1199790995
  0
LINE
  5
27E
100
AcDbEntity
  8
03__ASM_ALL_CURVES
100
AcDbLine
 62
40
  6
CONTINUOUS
 10
4.9912710353
 20
5.1867853475
 11
4.9968382228
 21
5.1942082677
  0
LINE
  5
27F
100
AcDbEntity
  8
03__ASM_ALL_CURVES
100
AcDbLine
 62
40
  6
CONTINUOUS
 10
4.7296132228
 20
5.1645165975
 11
4.7407475978
 21
5.1719395177
  0
LINE
  5
280
100
AcDbEntity
  8
03__ASM_ALL_CURVES
100
AcDbLine
 62
40
  6
CONTINUOUS
 10
4.8242554103
 20
5.1942082677
 11
4.8353897853
 21
5.2016311826
  0
LINE
  5
281
100
AcDbEntity
  8
03__ASM_ALL_CURVES
100
AcDbLine
 62
40
  6
CONTINUOUS
 10
4.7630163478
 20
5.1199790995
 11
4.7518819728
 21
5.1125561826
  0
LINE
  5
282
100
AcDbEntity
  8
03__ASM_ALL_CURVES
100
AcDbLine
 62
40
  6
CONTINUOUS
 10
4.8465241603
 20
5.1199790995
 11
4.8353897853
 21
5.1125561826
  0
LINE
  5
283
100
AcDbEntity
  8
03__ASM_ALL_CURVES
100
AcDbLine
 62
40
  6
CONTINUOUS
 10
4.9968382228
 20
5.1942082677
 11
5.0079725978
 21
5.2016311826
  0
LINE
  5
284
100
AcDbEntity
  8
0
100
AcDbLine
 62
7
  6
CONTINUOUS
 10
4.6113147853
 20
3.7304461826
 11
4.5613147853
 21
3.7804461826
  0
LINE
  5
285
100
AcDbEntity
  8
03__ASM_ALL_CURVES
100
AcDbLine
 62
40
  6
CONTINUOUS
 10
4.6461054103
 20
5.1645165975
 11
4.6461054103
 21
5.149670765
  0
LINE
  5
286
100
AcDbEntity
  8
0
100
AcDbLine
 62
7
  6
CONTINUOUS
 10
4.6623147853
 20
3.7304461826
 11
4.6623147853
 21
4.4774461826
  0
LINE
  5
287
100
AcDbEntity
  8
0
100
AcDbLine
 62
7
  6
CONTINUOUS
 10
4.6673147853
 20
3.7354461826
 11
4.6673147853
 21
4.4724461826
  0
LINE
  5
288
100
AcDbEntity
  8
0
100
AcDbLine
 62
7
  6
CONTINUOUS
 10
4.6753147853
 20
3.7539461826
 11
4.6753147853
 21
4.4539461826
  0
LINE
  5
289
100
AcDbEntity
  8
0
100
AcDbLine
 62
7
  6
CONTINUOUS
 10
4.6973147853
 20
3.7539461826
 11
4.6973147853
 21
4.4539461826
  0
LINE
  5
28A
100
AcDbEntity
  8
0
100
AcDbLine
 62
7
  6
CONTINUOUS
 10
4.7053147853
 20
3.7354461826
 11
4.7053147853
 21
4.4724461826
  0
LINE
  5
28B
100
AcDbEntity
  8
0
100
AcDbLine
 62
7
  6
CONTINUOUS
 10
4.7103147853
 20
3.7304461826
 11
4.7103147853
 21
4.4774461826
  0
LINE
  5
28C
100
AcDbEntity
  8
03__ASM_ALL_CURVES
100
AcDbLine
 62
40
  6
CONTINUOUS
 10
4.9857038478
 20
5.1422478501
 11
4.9968382228
 21
5.1570936826
  0
LINE
  5
28D
100
AcDbEntity
  8
03__ASM_ALL_CURVES
100
AcDbLine
 62
40
  6
CONTINUOUS
 10
5.0358085353
 20
5.1793624326
 11
5.0302413478
 21
5.1719395177
  0
LINE
  5
28E
100
AcDbEntity
  8
03__ASM_ALL_CURVES
100
AcDbLine
 62
40
  6
CONTINUOUS
 10
5.0413757228
 20
5.1348249326
 11
5.0302413478
 21
5.1199790995
  0
LINE
  5
28F
100
AcDbEntity
  8
03__ASM_ALL_CURVES
100
AcDbLine
 62
40
  6
CONTINUOUS
 10
5.1081819728
 20
5.1274020164
 11
5.0970475978
 21
5.1125561826
  0
LINE
  5
290
100
AcDbEntity
  8
0
100
AcDbLine
 62
7
  6
CONTINUOUS
 10
4.3543155709
 20
4.3849469682
 11
4.3388147853
 21
4.3694461826
  0
LINE
  5
291
100
AcDbEntity
  8
03__ASM_ALL_CURVES
100
AcDbLine
 62
40
  6
CONTINUOUS
 10
4.9968382228
 20
5.1570936826
 11
5.0079725978
 21
5.1645165975
  0
LINE
  5
292
100
AcDbEntity
  8
03__ASM_ALL_CURVES
100
AcDbLine
 62
40
  6
CONTINUOUS
 10
5.0302413478
 20
5.1719395177
 11
5.0191069728
 21
5.1645165975
  0
LINE
  5
293
100
AcDbEntity
  8
03__ASM_ALL_CURVES
100
AcDbLine
 62
40
  6
CONTINUOUS
 10
5.0302413478
 20
5.1199790995
 11
5.0191069728
 21
5.1125561826
  0
LINE
  5
294
100
AcDbEntity
  8
0
100
AcDbLine
 62
7
  6
CONTINUOUS
 10
4.5303147853
 20
4.3749461826
 11
4.5242200132
 21
4.3855026376
  0
LINE
  5
295
100
AcDbEntity
  8
03__ASM_ALL_CURVES
100
AcDbLine
 62
40
  6
CONTINUOUS
 10
4.8131210353
 20
5.1422478501
 11
4.8131210353
 21
5.1719395177
  0
LINE
  5
296
100
AcDbEntity
  8
03__ASM_ALL_CURVES
100
AcDbLine
 62
40
  6
CONTINUOUS
 10
4.8576585353
 20
5.1719395177
 11
4.8576585353
 21
5.1422478501
  0
LINE
  5
297
100
AcDbEntity
  8
03__ASM_ALL_CURVES
100
AcDbLine
 62
40
  6
CONTINUOUS
 10
4.9188975978
 20
5.1125561826
 11
4.9188975978
 21
5.1199790995
  0
LINE
  5
298
100
AcDbEntity
  8
0
100
AcDbLine
 62
7
  6
CONTINUOUS
 10
4.6113147853
 20
4.4774461826
 11
4.5613147853
 21
4.4274461826
  0
LINE
  5
299
100
AcDbEntity
  8
03__ASM_ALL_CURVES
100
AcDbLine
 62
40
  6
CONTINUOUS
 10
6.9293134232
 20
3.3727036826
 11
6.8959102982
 21
3.3727036826
  0
LINE
  5
29A
100
AcDbEntity
  8
03__ASM_ALL_CURVES
100
AcDbLine
 62
40
  6
CONTINUOUS
 10
6.7163685013
 20
3.3727036826
 11
6.7080177201
 21
3.3727036826
  0
LINE
  5
29B
100
AcDbEntity
  8
03__ASM_ALL_CURVES
100
AcDbLine
 62
40
  6
CONTINUOUS
 10
6.6495622513
 20
3.3727036826
 11
6.6412114701
 21
3.3727036826
  0
LINE
  5
29C
100
AcDbEntity
  8
03__ASM_ALL_CURVES
100
AcDbLine
 62
40
  6
CONTINUOUS
 10
6.8291040482
 20
3.3727036826
 11
6.8625071732
 21
3.3727036826
  0
LINE
  5
29D
100
AcDbEntity
  8
03__ASM_ALL_CURVES
100
AcDbLine
 62
40
  6
CONTINUOUS
 10
6.8959102982
 20
3.4061068076
 11
6.9167872513
 21
3.4061068076
  0
LINE
  5
29E
100
AcDbEntity
  8
0
100
AcDbLine
 62
7
  6
CONTINUOUS
 10
4.3228147853
 20
4.3694461826
 11
4.3173147853
 21
4.3749461826
  0
LINE
  5
29F
100
AcDbEntity
  8
0
100
AcDbLine
 62
7
  6
CONTINUOUS
 10
5.0953784512
 20
3.6149461826
 11
5.0613147853
 21
3.6739461826
  0
LINE
  5
2A0
100
AcDbEntity
  8
03__ASM_ALL_CURVES
100
AcDbLine
 62
40
  6
CONTINUOUS
 10
4.6461054103
 20
5.149670765
 11
4.6516725978
 21
5.1274020164
  0
LINE
  5
2A1
100
AcDbEntity
  8
03__ASM_ALL_CURVES
100
AcDbLine
 62
40
  6
CONTINUOUS
 10
4.9857038478
 20
5.1348249326
 11
4.9857038478
 21
5.1422478501
  0
LINE
  5
2A2
100
AcDbEntity
  8
03__ASM_ALL_CURVES
100
AcDbLine
 62
40
  6
CONTINUOUS
 10
4.9912710353
 20
5.1793624326
 11
4.9912710353
 21
5.1867853475
  0
LINE
  5
2A3
100
AcDbEntity
  8
03__ASM_ALL_CURVES
100
AcDbLine
 62
40
  6
CONTINUOUS
 10
5.0358085353
 20
5.1867853475
 11
5.0358085353
 21
5.1793624326
  0
LINE
  5
2A4
100
AcDbEntity
  8
03__ASM_ALL_CURVES
100
AcDbLine
 62
40
  6
CONTINUOUS
 10
5.0413757228
 20
5.1422478501
 11
5.0413757228
 21
5.1348249326
  0
LINE
  5
2A5
100
AcDbEntity
  8
0
100
AcDbLine
 62
7
  6
CONTINUOUS
 10
5.0613147853
 20
3.6739461826
 11
5.0613147853
 21
4.5339461826
  0
LINE
  5
2A6
100
AcDbEntity
  8
03__ASM_ALL_CURVES
100
AcDbLine
 62
40
  6
CONTINUOUS
 10
5.1137491603
 20
5.149670765
 11
5.1081819728
 21
5.1274020164
  0
LINE
  5
2A7
100
AcDbEntity
  8
0
100
AcDbLine
 62
7
  6
CONTINUOUS
 10
4.5303147853
 20
3.8329461826
 11
4.5242200132
 21
3.8223897276
  0
LINE
  5
2A8
100
AcDbEntity
  8
0
100
AcDbLine
 62
7
  6
CONTINUOUS
 10
5.0949898104
 20
4.592273037
 11
5.0613147853
 21
4.5339461826
  0
LINE
  5
2A9
100
AcDbEntity
  8
03__ASM_ALL_CURVES
100
AcDbLine
 62
40
  6
CONTINUOUS
 10
6.6412114701
 20
3.4395099326
 11
6.6495622513
 21
3.4395099326
  0
LINE
  5
2AA
100
AcDbEntity
  8
03__ASM_ALL_CURVES
100
AcDbLine
 62
40
  6
CONTINUOUS
 10
6.7581224076
 20
3.4395099326
 11
6.7998763138
 21
3.4395099326
  0
LINE
  5
2AB
100
AcDbEntity
  8
03__ASM_ALL_CURVES
100
AcDbLine
 62
40
  6
CONTINUOUS
 10
6.8959102982
 20
3.4395099326
 11
6.9293134232
 21
3.4395099326
  0
LINE
  5
2AC
100
AcDbEntity
  8
03__ASM_ALL_CURVES
100
AcDbLine
 62
40
  6
CONTINUOUS
 10
6.9585411576
 20
3.4395099326
 11
7.0002950638
 21
3.4395099326
  0
LINE
  5
2AD
100
AcDbEntity
  8
03__ASM_ALL_CURVES
100
AcDbLine
 62
40
  6
CONTINUOUS
 10
6.7476839556
 20
3.4751399326
 11
6.7393331743
 21
3.4751399326
  0
LINE
  5
2AE
100
AcDbEntity
  8
03__ASM_ALL_CURVES
100
AcDbLine
 62
40
  6
CONTINUOUS
 10
6.9272257525
 20
3.4751399326
 11
6.9606288775
 21
3.4751399326
  0
LINE
  5
2AF
100
AcDbEntity
  8
03__ASM_ALL_CURVES
100
AcDbLine
 62
40
  6
CONTINUOUS
 10
6.8144902056
 20
3.5085430576
 11
6.7936132525
 21
3.5085430576
  0
LINE
  5
2B0
100
AcDbEntity
  8
03__ASM_ALL_CURVES
100
AcDbLine
 62
40
  6
CONTINUOUS
 10
6.6808777056
 20
3.5085430576
 11
6.6600007525
 21
3.5085430576
  0
LINE
  5
2B1
100
AcDbEntity
  8
03__ASM_ALL_CURVES
100
AcDbLine
 62
40
  6
CONTINUOUS
 10
6.6600007525
 20
3.5419461826
 11
6.6808777056
 21
3.5419461826
  0
LINE
  5
2B2
100
AcDbEntity
  8
03__ASM_ALL_CURVES
100
AcDbLine
 62
40
  6
CONTINUOUS
 10
6.7393331743
 20
3.5419461826
 11
6.7476839556
 21
3.5419461826
  0
LINE
  5
2B3
100
AcDbEntity
  8
03__ASM_ALL_CURVES
100
AcDbLine
 62
40
  6
CONTINUOUS
 10
6.7936132525
 20
3.5419461826
 11
6.8144902056
 21
3.5419461826
  0
LINE
  5
2B4
100
AcDbEntity
  8
03__ASM_ALL_CURVES
100
AcDbLine
 62
40
  6
CONTINUOUS
 10
6.8562441118
 20
3.5419461826
 11
6.8979980181
 21
3.5419461826
  0
LINE
  5
2B5
100
AcDbEntity
  8
03__ASM_ALL_CURVES
100
AcDbLine
 62
40
  6
CONTINUOUS
 10
6.9397519243
 20
3.5419461826
 11
6.9481027056
 21
3.5419461826
  0
LINE
  5
2B6
100
AcDbEntity
  8
03__ASM_ALL_CURVES
100
AcDbLine
 62
40
  6
CONTINUOUS
 10
4.5514632228
 20
5.1274020164
 11
4.5458960353
 21
5.1422478501
  0
LINE
  5
2B7
100
AcDbEntity
  8
03__ASM_ALL_CURVES
100
AcDbLine
 62
40
  6
CONTINUOUS
 10
4.5848663478
 20
5.1867853475
 11
4.5904335353
 21
5.1719395177
  0
LINE
  5
2B8
100
AcDbEntity
  8
0
100
AcDbLine
 62
7
  6
CONTINUOUS
 10
5.0953784512
 20
3.6149461826
 11
5.0953784512
 21
3.6158437101
  0
LINE
  5
2B9
100
AcDbEntity
  8
0
100
AcDbLine
 62
7
  6
CONTINUOUS
 10
5.0953784512
 20
3.8342486551
 11
5.0953784512
 21
3.8855412376
  0
LINE
  5
2BA
100
AcDbEntity
  8
0
100
AcDbLine
 62
7
  6
CONTINUOUS
 10
5.0953784512
 20
4.3223511276
 11
5.0953784512
 21
4.3736437101
  0
LINE
  5
2BB
100
AcDbEntity
  8
0
100
AcDbLine
 62
7
  6
CONTINUOUS
 10
5.0953784512
 20
4.5920486551
 11
5.0953784512
 21
4.5929461826
  0
LINE
  5
2BC
100
AcDbEntity
  8
03__ASM_ALL_CURVES
100
AcDbLine
 62
40
  6
CONTINUOUS
 10
5.1137491603
 20
5.1645165975
 11
5.1137491603
 21
5.149670765
  0
LINE
  5
2BD
100
AcDbEntity
  8
0
100
AcDbLine
 62
7
  6
CONTINUOUS
 10
4.3228147853
 20
3.8384461826
 11
4.3173147853
 21
3.8329461826
  0
LINE
  5
2BE
100
AcDbEntity
  8
03__ASM_ALL_CURVES
100
AcDbLine
 62
40
  6
CONTINUOUS
 10
5.9854769731
 20
5.1942082677
 11
5.9966113481
 21
5.2016311826
  0
LINE
  5
2BF
100
AcDbEntity
  8
03__ASM_ALL_CURVES
100
AcDbLine
 62
40
  6
CONTINUOUS
 10
6.0745519731
 20
5.1942082677
 11
6.0856863481
 21
5.2016311826
  0
LINE
  5
2C0
100
AcDbEntity
  8
0
100
AcDbLine
 62
7
  6
CONTINUOUS
 10
5.4678147853
 20
3.6149461826
 11
5.0953784512
 21
3.6149461826
  0
LINE
  5
2C1
100
AcDbEntity
  8
0
100
AcDbLine
 62
7
  6
CONTINUOUS
 10
5.4678147853
 20
3.6158437101
 11
5.0953784512
 21
3.6158437101
  0
LINE
  5
2C2
100
AcDbEntity
  8
0
100
AcDbLine
 62
7
  6
CONTINUOUS
 10
5.7453147853
 20
3.6764461826
 11
5.6953147853
 21
3.6764461826
  0
LINE
  5
2C3
100
AcDbEntity
  8
0
100
AcDbLine
 62
7
  6
CONTINUOUS
 10
5.6753147853
 20
3.6764461826
 11
5.5293147853
 21
3.6764461826
  0
LINE
  5
2C4
100
AcDbEntity
  8
THREAD
100
AcDbLine
 62
7
  6
CONTINUOUS
 10
5.7953147853
 20
3.6989461826
 11
5.7730372172
 21
3.6989461826
  0
LINE
  5
2C5
100
AcDbEntity
  8
0
100
AcDbLine
 62
7
  6
CONTINUOUS
 10
5.8653147853
 20
3.6994461826
 11
5.9153147853
 21
3.6994461826
  0
LINE
  5
2C6
100
AcDbEntity
  8
03__ASM_ALL_CURVES
100
AcDbLine
 62
40
  6
CONTINUOUS
 10
4.7685835353
 20
5.1570936826
 11
4.7741507228
 21
5.1422478501
  0
LINE
  5
2C7
100
AcDbEntity
  8
03__ASM_ALL_CURVES
100
AcDbLine
 62
40
  6
CONTINUOUS
 10
4.8186882228
 20
5.1274020164
 11
4.8131210353
 21
5.1422478501
  0
LINE
  5
2C8
100
AcDbEntity
  8
03__ASM_ALL_CURVES
100
AcDbLine
 62
40
  6
CONTINUOUS
 10
6.0188800981
 20
5.1199790995
 11
6.0077457231
 21
5.1125561826
  0
LINE
  5
2C9
100
AcDbEntity
  8
03__ASM_ALL_CURVES
100
AcDbLine
 62
40
  6
CONTINUOUS
 10
6.1079550981
 20
5.1199790995
 11
6.0968207231
 21
5.1125561826
  0
LINE
  5
2CA
100
AcDbEntity
  8
THREAD
100
AcDbLine
 62
7
  6
CONTINUOUS
 10
6.2038147853
 20
3.7164461826
 11
5.9566767453
 21
3.7164461826
  0
LINE
  5
2CB
100
AcDbEntity
  8
0
100
AcDbLine
 62
7
  6
CONTINUOUS
 10
5.0613147853
 20
3.7304461826
 11
4.7103147853
 21
3.7304461826
  0
LINE
  5
2CC
100
AcDbEntity
  8
0
100
AcDbLine
 62
7
  6
CONTINUOUS
 10
4.6623147853
 20
3.7304461826
 11
4.6113147853
 21
3.7304461826
  0
LINE
  5
2CD
100
AcDbEntity
  8
THREAD
100
AcDbLine
 62
7
  6
CONTINUOUS
 10
5.9306959832
 20
3.7534461826
 11
5.9153147853
 21
3.7534461826
  0
LINE
  5
2CE
100
AcDbEntity
  8
0
100
AcDbLine
 62
7
  6
CONTINUOUS
 10
4.6973147853
 20
3.7539461826
 11
4.6753147853
 21
3.7539461826
  0
LINE
  5
2CF
100
AcDbEntity
  8
THREAD
100
AcDbLine
 62
7
  6
CONTINUOUS
 10
6.4263147853
 20
3.7609461826
 11
6.3003147853
 21
3.7609461826
  0
LINE
  5
2D0
100
AcDbEntity
  8
THREAD
100
AcDbLine
 62
7
  6
CONTINUOUS
 10
6.2603147853
 20
3.7609461826
 11
6.2483147853
 21
3.7609461826
  0
LINE
  5
2D1
100
AcDbEntity
  8
0
100
AcDbLine
 62
7
  6
CONTINUOUS
 10
7.2923147853
 20
3.7614461826
 11
7.2453147853
 21
3.7614461826
  0
LINE
  5
2D2
100
AcDbEntity
  8
0
100
AcDbLine
 62
7
  6
CONTINUOUS
 10
7.0943147853
 20
3.7614461826
 11
7.0313147853
 21
3.7614461826
  0
LINE
  5
2D3
100
AcDbEntity
  8
0
100
AcDbLine
 62
7
  6
CONTINUOUS
 10
7.0993147853
 20
3.7619461826
 11
7.1493147853
 21
3.7619461826
  0
LINE
  5
2D4
100
AcDbEntity
  8
0
100
AcDbLine
 62
7
  6
CONTINUOUS
 10
7.2193147853
 20
3.8159461826
 11
7.2403147853
 21
3.8159461826
  0
LINE
  5
2D5
100
AcDbEntity
  8
0
100
AcDbLine
 62
7
  6
CONTINUOUS
 10
4.3543147854
 20
3.8229461826
 11
4.524538507
 21
3.8229461826
  0
LINE
  5
2D6
100
AcDbEntity
  8
0
100
AcDbLine
 62
7
  6
CONTINUOUS
 10
6.4363147853
 20
3.8239461826
 11
6.5253442226
 21
3.8239461826
  0
LINE
  5
2D7
100
AcDbEntity
  8
0
100
AcDbLine
 62
7
  6
CONTINUOUS
 10
6.5592853481
 20
3.8239461826
 11
6.9018147853
 21
3.8239461826
  0
LINE
  5
2D8
100
AcDbEntity
  8
0
100
AcDbLine
 62
7
  6
CONTINUOUS
 10
7.0108147853
 20
3.8239461826
 11
7.0263147853
 21
3.8239461826
  0
LINE
  5
2D9
100
AcDbEntity
  8
0
100
AcDbLine
 62
7
  6
CONTINUOUS
 10
4.5613147853
 20
3.8329461826
 11
4.5303147853
 21
3.8329461826
  0
LINE
  5
2DA
100
AcDbEntity
  8
0
100
AcDbLine
 62
7
  6
CONTINUOUS
 10
4.3173147853
 20
3.8329461826
 11
4.3113147853
 21
3.8329461826
  0
LINE
  5
2DB
100
AcDbEntity
  8
0
100
AcDbLine
 62
7
  6
CONTINUOUS
 10
5.4678147853
 20
3.8342486551
 11
5.0953784512
 21
3.8342486551
  0
LINE
  5
2DC
100
AcDbEntity
  8
0
100
AcDbLine
 62
7
  6
CONTINUOUS
 10
4.3388147853
 20
3.8384461826
 11
4.3228147853
 21
3.8384461826
  0
LINE
  5
2DD
100
AcDbEntity
  8
0
100
AcDbLine
 62
7
  6
CONTINUOUS
 10
5.6953147853
 20
3.6764461826
 11
5.6867927473
 21
3.6857936351
  0
LINE
  5
2DE
100
AcDbEntity
  8
03__ASM_ALL_CURVES
100
AcDbLine
 62
40
  6
CONTINUOUS
 10
4.4067163478
 20
5.1942082677
 11
4.4122835353
 21
5.1867853475
  0
LINE
  5
2DF
100
AcDbEntity
  8
03__ASM_ALL_CURVES
100
AcDbLine
 62
40
  6
CONTINUOUS
 10
4.4735225978
 20
5.1199790995
 11
4.4790897853
 21
5.1125561826
  0
LINE
  5
2E0
100
AcDbEntity
  8
03__ASM_ALL_CURVES
100
AcDbLine
 62
40
  6
CONTINUOUS
 10
4.5570304103
 20
5.1199790995
 11
4.5514632228
 21
5.1274020164
  0
LINE
  5
2E1
100
AcDbEntity
  8
03__ASM_ALL_CURVES
100
AcDbLine
 62
40
  6
CONTINUOUS
 10
4.5792991603
 20
5.1942082677
 11
4.5848663478
 21
5.1867853475
  0
LINE
  5
2E2
100
AcDbEntity
  8
03__ASM_ALL_CURVES
100
AcDbLine
 62
40
  6
CONTINUOUS
 10
4.8520913478
 20
5.1867853475
 11
4.8576585353
 21
5.1719395177
  0
LINE
  5
2E3
100
AcDbEntity
  8
03__ASM_ALL_CURVES
100
AcDbLine
 62
40
  6
CONTINUOUS
 10
5.1081819728
 20
5.1867853475
 11
5.1137491603
 21
5.1645165975
  0
LINE
  5
2E4
100
AcDbEntity
  8
0
100
AcDbLine
 62
7
  6
CONTINUOUS
 10
5.4678147853
 20
3.6149461826
 11
5.4678147853
 21
3.6158437101
  0
LINE
  5
2E5
100
AcDbEntity
  8
0
100
AcDbLine
 62
7
  6
CONTINUOUS
 10
5.4678147853
 20
3.8342486551
 11
5.4678147853
 21
3.8855412376
  0
LINE
  5
2E6
100
AcDbEntity
  8
0
100
AcDbLine
 62
7
  6
CONTINUOUS
 10
5.4678147853
 20
4.3223511276
 11
5.4678147853
 21
4.3736437101
  0
LINE
  5
2E7
100
AcDbEntity
  8
0
100
AcDbLine
 62
7
  6
CONTINUOUS
 10
5.4678147853
 20
4.5920486551
 11
5.4678147853
 21
4.5929461826
  0
LINE
  5
2E8
100
AcDbEntity
  8
03__ASM_ALL_CURVES
100
AcDbLine
 62
40
  6
CONTINUOUS
 10
5.9743425981
 20
5.1793624326
 11
5.9854769731
 21
5.1942082677
  0
LINE
  5
2E9
100
AcDbEntity
  8
03__ASM_ALL_CURVES
100
AcDbLine
 62
40
  6
CONTINUOUS
 10
6.0300144731
 20
5.1348249326
 11
6.0188800981
 21
5.1199790995
  0
LINE
  5
2EA
100
AcDbEntity
  8
03__ASM_ALL_CURVES
100
AcDbLine
 62
40
  6
CONTINUOUS
 10
6.0634175981
 20
5.1793624326
 11
6.0745519731
 21
5.1942082677
  0
LINE
  5
2EB
100
AcDbEntity
  8
03__ASM_ALL_CURVES
100
AcDbLine
 62
40
  6
CONTINUOUS
 10
6.5199269731
 20
5.1942082677
 11
6.5310613481
 21
5.2016311826
  0
LINE
  5
2EC
100
AcDbEntity
  8
0
100
AcDbLine
 62
7
  6
CONTINUOUS
 10
5.4678147853
 20
3.8855412376
 11
5.0953784512
 21
3.8855412376
  0
LINE
  5
2ED
100
AcDbEntity
  8
0
100
AcDbLine
 62
7
  6
CONTINUOUS
 10
3.7753147853
 20
3.9199461826
 11
3.9743147853
 21
3.9199461826
  0
LINE
  5
2EE
100
AcDbEntity
  8
0
100
AcDbLine
 62
7
  6
CONTINUOUS
 10
4.0123147853
 20
3.9199461826
 11
4.2493147853
 21
3.9199461826
  0
LINE
  5
2EF
100
AcDbEntity
  8
0
100
AcDbLine
 62
7
  6
CONTINUOUS
 10
3.9743147853
 20
3.9529461826
 11
3.9758147853
 21
3.9529461826
  0
LINE
  5
2F0
100
AcDbEntity
  8
0
100
AcDbLine
 62
7
  6
CONTINUOUS
 10
4.0108147853
 20
3.9529461826
 11
4.0123147853
 21
3.9529461826
  0
LINE
  5
2F1
100
AcDbEntity
  8
03__ASM_ALL_CURVES
100
AcDbLine
 62
40
  6
CONTINUOUS
 10
6.6412114701
 20
3.3727036826
 11
6.6328606888
 21
3.3782708703
  0
LINE
  5
2F2
100
AcDbEntity
  8
03__ASM_ALL_CURVES
100
AcDbLine
 62
40
  6
CONTINUOUS
 10
4.6516725978
 20
5.1274020164
 11
4.6628069728
 21
5.1125561826
  0
LINE
  5
2F3
100
AcDbEntity
  8
03__ASM_ALL_CURVES
100
AcDbLine
 62
40
  6
CONTINUOUS
 10
4.7296132228
 20
5.1199790995
 11
4.7240460353
 21
5.1274020164
  0
LINE
  5
2F4
100
AcDbEntity
  8
03__ASM_ALL_CURVES
100
AcDbLine
 62
40
  6
CONTINUOUS
 10
4.7630163478
 20
5.1645165975
 11
4.7685835353
 21
5.1570936826
  0
LINE
  5
2F5
100
AcDbEntity
  8
03__ASM_ALL_CURVES
100
AcDbLine
 62
40
  6
CONTINUOUS
 10
4.8242554103
 20
5.1199790995
 11
4.8186882228
 21
5.1274020164
  0
LINE
  5
2F6
100
AcDbEntity
  8
0
100
AcDbLine
 62
7
  6
CONTINUOUS
 10
5.5293147853
 20
3.6764461826
 11
5.5293147853
 21
4.5314461826
  0
LINE
  5
2F7
100
AcDbEntity
  8
03__ASM_ALL_CURVES
100
AcDbLine
 62
40
  6
CONTINUOUS
 10
5.6414247853
 20
5.0947411826
 11
5.6414247853
 21
5.0591111826
  0
LINE
  5
2F8
100
AcDbEntity
  8
03__ASM_ALL_CURVES
100
AcDbLine
 62
40
  6
CONTINUOUS
 10
6.1135222856
 20
5.1274020164
 11
6.1079550981
 21
5.1199790995
  0
LINE
  5
2F9
100
AcDbEntity
  8
0
100
AcDbLine
 62
7
  6
CONTINUOUS
 10
5.6953147853
 20
4.5314461826
 11
5.6867927473
 21
4.5220987301
  0
LINE
  5
2FA
100
AcDbEntity
  8
03__ASM_ALL_CURVES
100
AcDbLine
 62
40
  6
CONTINUOUS
 10
6.5533300981
 20
5.1199790995
 11
6.5421957231
 21
5.1125561826
  0
LINE
  5
2FB
100
AcDbEntity
  8
03__ASM_ALL_CURVES
100
AcDbLine
 62
40
  6
CONTINUOUS
 10
6.7092113481
 20
5.2016311826
 11
6.6980769731
 21
5.1942082677
  0
LINE
  5
2FC
100
AcDbEntity
  8
03__ASM_ALL_CURVES
100
AcDbLine
 62
40
  6
CONTINUOUS
 10
6.7314800981
 20
5.1199790995
 11
6.7203457231
 21
5.1125561826
  0
LINE
  5
2FD
100
AcDbEntity
  8
03__ASM_ALL_CURVES
100
AcDbLine
 62
40
  6
CONTINUOUS
 10
6.8762269731
 20
5.1942082677
 11
6.8873613481
 21
5.2016311826
  0
LINE
  5
2FE
100
AcDbEntity
  8
03__ASM_ALL_CURVES
100
AcDbLine
 62
40
  6
CONTINUOUS
 10
7.7874350982
 20
4.0193249326
 11
7.7540319732
 21
4.0193249326
  0
LINE
  5
2FF
100
AcDbEntity
  8
03__ASM_ALL_CURVES
100
AcDbLine
 62
40
  6
CONTINUOUS
 10
7.6872257232
 20
4.0193249326
 11
7.7206288482
 21
4.0193249326
  0
LINE
  5
300
100
AcDbEntity
  8
03__ASM_ALL_CURVES
100
AcDbLine
 62
40
  6
CONTINUOUS
 10
7.7540319732
 20
4.0527280576
 11
7.7749089263
 21
4.0527280576
  0
LINE
  5
301
100
AcDbEntity
  8
03__ASM_ALL_CURVES
100
AcDbLine
 62
40
  6
CONTINUOUS
 10
7.7540319732
 20
4.0861311826
 11
7.7874350982
 21
4.0861311826
  0
LINE
  5
302
100
AcDbEntity
  8
03__ASM_ALL_CURVES
100
AcDbLine
 62
40
  6
CONTINUOUS
 10
7.8166628325
 20
4.0861311826
 11
7.8584167388
 21
4.0861311826
  0
LINE
  5
303
100
AcDbEntity
  8
0
100
AcDbLine
 62
7
  6
CONTINUOUS
 10
4.499443375
 20
4.1039461826
 11
4.3977856366
 21
4.1039461826
  0
LINE
  5
304
100
AcDbEntity
  8
03__ASM_ALL_CURVES
100
AcDbLine
 62
40
  6
CONTINUOUS
 10
7.6579979886
 20
4.1217611826
 11
7.6496472074
 21
4.1217611826
  0
LINE
  5
305
100
AcDbEntity
  8
03__ASM_ALL_CURVES
100
AcDbLine
 62
40
  6
CONTINUOUS
 10
7.7248042386
 20
4.1551643076
 11
7.7039272855
 21
4.1551643076
  0
LINE
  5
306
100
AcDbEntity
  8
03__ASM_ALL_CURVES
100
AcDbLine
 62
40
  6
CONTINUOUS
 10
7.5911917386
 20
4.1551643076
 11
7.5703147855
 21
4.1551643076
  0
LINE
  5
307
100
AcDbEntity
  8
03__ASM_ALL_CURVES
100
AcDbLine
 62
40
  6
CONTINUOUS
 10
6.7080177201
 20
3.3727036826
 11
6.6996669388
 21
3.3782708703
  0
LINE
  5
308
100
AcDbEntity
  8
03__ASM_ALL_CURVES
100
AcDbLine
 62
40
  6
CONTINUOUS
 10
6.6495622513
 20
3.4395099326
 11
6.6579130326
 21
3.4339427464
  0
LINE
  5
309
100
AcDbEntity
  8
03__ASM_ALL_CURVES
100
AcDbLine
 62
40
  6
CONTINUOUS
 10
6.7393331743
 20
3.4751399326
 11
6.7309823931
 21
3.4807071203
  0
LINE
  5
30A
100
AcDbEntity
  8
03__ASM_ALL_CURVES
100
AcDbLine
 62
40
  6
CONTINUOUS
 10
6.6808777056
 20
3.5419461826
 11
6.6892284868
 21
3.5363789964
  0
LINE
  5
30B
100
AcDbEntity
  8
03__ASM_ALL_CURVES
100
AcDbLine
 62
40
  6
CONTINUOUS
 10
4.8465241603
 20
5.1942082677
 11
4.8520913478
 21
5.1867853475
  0
LINE
  5
30C
100
AcDbEntity
  8
03__ASM_ALL_CURVES
100
AcDbLine
 62
40
  6
CONTINUOUS
 10
4.9188975978
 20
5.1199790995
 11
4.9244647853
 21
5.1125561826
  0
LINE
  5
30D
100
AcDbEntity
  8
03__ASM_ALL_CURVES
100
AcDbLine
 62
40
  6
CONTINUOUS
 10
4.9968382228
 20
5.1199790995
 11
4.9857038478
 21
5.1348249326
  0
LINE
  5
30E
100
AcDbEntity
  8
THREAD
100
AcDbLine
 62
7
  6
CONTINUOUS
 10
5.9566767453
 20
3.7164461826
 11
5.9376241864
 21
3.7494461826
  0
LINE
  5
30F
100
AcDbEntity
  8
0
100
AcDbLine
 62
7
  6
CONTINUOUS
 10
5.6753147853
 20
3.6764461826
 11
5.6753147853
 21
4.5314461826
  0
LINE
  5
310
100
AcDbEntity
  8
0
100
AcDbLine
 62
7
  6
CONTINUOUS
 10
5.6838368233
 20
3.6857936351
 11
5.6838368233
 21
4.5220987301
  0
LINE
  5
311
100
AcDbEntity
  8
0
100
AcDbLine
 62
7
  6
CONTINUOUS
 10
5.6867927473
 20
3.6857936351
 11
5.6867927473
 21
4.5220987301
  0
LINE
  5
312
100
AcDbEntity
  8
0
100
AcDbLine
 62
7
  6
CONTINUOUS
 10
5.6953147853
 20
3.6764461826
 11
5.6953147853
 21
4.5314461826
  0
LINE
  5
313
100
AcDbEntity
  8
0
100
AcDbLine
 62
7
  6
CONTINUOUS
 10
5.7453147853
 20
4.5314461826
 11
5.7453147853
 21
3.6764461826
  0
LINE
  5
314
100
AcDbEntity
  8
0
100
AcDbLine
 62
7
  6
CONTINUOUS
 10
5.7483147853
 20
4.5284461826
 11
5.7483147853
 21
3.6794461826
  0
LINE
  5
315
100
AcDbEntity
  8
03__ASM_ALL_CURVES
100
AcDbLine
 62
40
  6
CONTINUOUS
 10
5.7483147853
 20
4.5492611826
 11
5.7483147853
 21
5.1125561826
  0
LINE
  5
316
100
AcDbEntity
  8
0
100
AcDbLine
 62
7
  6
CONTINUOUS
 10
5.7508147853
 20
3.6868895583
 11
5.7508147853
 21
4.5210028069
  0
LINE
  5
317
100
AcDbEntity
  8
0
100
AcDbLine
 62
7
  6
CONTINUOUS
 10
5.7705372105
 20
4.5089462077
 11
5.7705372172
 21
4.5096160556
  0
LINE
  5
318
100
AcDbEntity
  8
0
100
AcDbLine
 62
7
  6
CONTINUOUS
 10
5.7705372172
 20
3.6982763096
 11
5.7705372105
 21
4.5089462077
  0
LINE
  5
319
100
AcDbEntity
  8
0
100
AcDbLine
 62
7
  6
CONTINUOUS
 10
5.7730372172
 20
3.6989461826
 11
5.7730372172
 21
4.5089461826
  0
LINE
  5
31A
100
AcDbEntity
  8
THREAD
100
AcDbLine
 62
7
  6
CONTINUOUS
 10
5.7953147853
 20
3.6989461826
 11
5.7953147853
 21
4.5089461826
  0
LINE
  5
31B
100
AcDbEntity
  8
03__ASM_ALL_CURVES
100
AcDbLine
 62
40
  6
CONTINUOUS
 10
5.9687754106
 20
5.1570936826
 11
5.9743425981
 21
5.1793624326
  0
LINE
  5
31C
100
AcDbEntity
  8
03__ASM_ALL_CURVES
100
AcDbLine
 62
40
  6
CONTINUOUS
 10
6.0355816606
 20
5.1570936826
 11
6.0300144731
 21
5.1348249326
  0
LINE
  5
31D
100
AcDbEntity
  8
03__ASM_ALL_CURVES
100
AcDbLine
 62
40
  6
CONTINUOUS
 10
6.9096300981
 20
5.1199790995
 11
6.8984957231
 21
5.1125561826
  0
LINE
  5
31E
100
AcDbEntity
  8
03__ASM_ALL_CURVES
100
AcDbLine
 62
40
  6
CONTINUOUS
 10
6.9987050981
 20
5.1199790995
 11
6.9875707231
 21
5.1125561826
  0
LINE
  5
31F
100
AcDbEntity
  8
03__ASM_ALL_CURVES
100
AcDbLine
 62
40
  6
CONTINUOUS
 10
7.5703147855
 20
4.1885674326
 11
7.5911917386
 21
4.1885674326
  0
LINE
  5
320
100
AcDbEntity
  8
03__ASM_ALL_CURVES
100
AcDbLine
 62
40
  6
CONTINUOUS
 10
7.6496472074
 20
4.1885674326
 11
7.6579979886
 21
4.1885674326
  0
LINE
  5
321
100
AcDbEntity
  8
03__ASM_ALL_CURVES
100
AcDbLine
 62
40
  6
CONTINUOUS
 10
7.7039272855
 20
4.1885674326
 11
7.7248042386
 21
4.1885674326
  0
LINE
  5
322
100
AcDbEntity
  8
03__ASM_ALL_CURVES
100
AcDbLine
 62
40
  6
CONTINUOUS
 10
7.7665581449
 20
4.1885674326
 11
7.8083120511
 21
4.1885674326
  0
LINE
  5
323
100
AcDbEntity
  8
0
100
AcDbLine
 62
7
  6
CONTINUOUS
 10
3.9743147853
 20
4.2549461826
 11
4.0123147853
 21
4.2549461826
  0
LINE
  5
324
100
AcDbEntity
  8
0
100
AcDbLine
 62
7
  6
CONTINUOUS
 10
3.7753147853
 20
4.2879461826
 11
3.9743147853
 21
4.2879461826
  0
LINE
  5
325
100
AcDbEntity
  8
0
100
AcDbLine
 62
7
  6
CONTINUOUS
 10
4.0123147853
 20
4.2879461826
 11
4.2493147853
 21
4.2879461826
  0
LINE
  5
326
100
AcDbEntity
  8
03__ASM_ALL_CURVES
100
AcDbLine
 62
40
  6
CONTINUOUS
 10
6.7476839556
 20
3.5419461826
 11
6.7560347368
 21
3.5363789964
  0
LINE
  5
327
100
AcDbEntity
  8
03__ASM_ALL_CURVES
100
AcDbLine
 62
40
  6
CONTINUOUS
 10
6.8144902056
 20
3.5419461826
 11
6.8228409868
 21
3.5363789964
  0
LINE
  5
328
100
AcDbEntity
  8
03__ASM_ALL_CURVES
100
AcDbLine
 62
40
  6
CONTINUOUS
 10
4.3955819728
 20
5.2016311826
 11
4.4067163478
 21
5.1942082677
  0
LINE
  5
329
100
AcDbEntity
  8
03__ASM_ALL_CURVES
100
AcDbLine
 62
40
  6
CONTINUOUS
 10
4.5681647853
 20
5.1125561826
 11
4.5570304103
 21
5.1199790995
  0
LINE
  5
32A
100
AcDbEntity
  8
03__ASM_ALL_CURVES
100
AcDbLine
 62
40
  6
CONTINUOUS
 10
6.9481027056
 20
3.5419461826
 11
6.9564534868
 21
3.5363789964
  0
LINE
  5
32B
100
AcDbEntity
  8
0
100
AcDbLine
 62
7
  6
CONTINUOUS
 10
5.5293147853
 20
4.5314461826
 11
5.4682635491
 21
4.5924974188
  0
LINE
  5
32C
100
AcDbEntity
  8
03__ASM_ALL_CURVES
100
AcDbLine
 62
40
  6
CONTINUOUS
 10
4.9968382228
 20
5.1719395177
 11
4.9912710353
 21
5.1793624326
  0
LINE
  5
32D
100
AcDbEntity
  8
03__ASM_ALL_CURVES
100
AcDbLine
 62
40
  6
CONTINUOUS
 10
5.0302413478
 20
5.1570936826
 11
5.0413757228
 21
5.1422478501
  0
LINE
  5
32E
100
AcDbEntity
  8
03__ASM_ALL_CURVES
100
AcDbLine
 62
40
  6
CONTINUOUS
 10
5.0302413478
 20
5.1942082677
 11
5.0358085353
 21
5.1867853475
  0
LINE
  5
32F
100
AcDbEntity
  8
03__ASM_ALL_CURVES
100
AcDbLine
 62
40
  6
CONTINUOUS
 10
5.0970475978
 20
5.2016311826
 11
5.1081819728
 21
5.1867853475
  0
LINE
  5
330
100
AcDbEntity
  8
03__ASM_ALL_CURVES
100
AcDbLine
 62
40
  6
CONTINUOUS
 10
5.8552047853
 20
5.0947411826
 11
5.8552047853
 21
5.0591111826
  0
LINE
  5
331
100
AcDbEntity
  8
0
100
AcDbLine
 62
7
  6
CONTINUOUS
 10
5.8653147853
 20
3.6994467976
 11
5.8653147853
 21
4.5084455676
  0
LINE
  5
332
100
AcDbEntity
  8
03__ASM_ALL_CURVES
100
AcDbLine
 62
40
  6
CONTINUOUS
 10
5.8908347856
 20
5.2016311826
 11
5.8908347856
 21
5.1125561826
  0
LINE
  5
333
100
AcDbEntity
  8
0
100
AcDbLine
 62
7
  6
CONTINUOUS
 10
5.9153147853
 20
3.6994467976
 11
5.9153147853
 21
4.5084455676
  0
LINE
  5
334
100
AcDbEntity
  8
0
100
AcDbLine
 62
7
  6
CONTINUOUS
 10
5.9306959832
 20
3.7534461826
 11
5.9306959832
 21
4.4544461826
  0
LINE
  5
335
100
AcDbEntity
  8
0
100
AcDbLine
 62
7
  6
CONTINUOUS
 10
5.9376241864
 20
3.7494461826
 11
5.9376241864
 21
4.4584461826
  0
LINE
  5
336
100
AcDbEntity
  8
THREAD
100
AcDbLine
 62
7
  6
CONTINUOUS
 10
5.9566767453
 20
3.7164461826
 11
5.9566767453
 21
4.4914461826
  0
LINE
  5
337
100
AcDbEntity
  8
03__ASM_ALL_CURVES
100
AcDbLine
 62
40
  6
CONTINUOUS
 10
6.0578504106
 20
5.1570936826
 11
6.0634175981
 21
5.1793624326
  0
LINE
  5
338
100
AcDbEntity
  8
03__ASM_ALL_CURVES
100
AcDbLine
 62
40
  6
CONTINUOUS
 10
6.1524925981
 20
5.1125561826
 11
6.1803285356
 21
5.2016311826
  0
LINE
  5
339
100
AcDbEntity
  8
THREAD
100
AcDbLine
 62
7
  6
CONTINUOUS
 10
5.9566767453
 20
4.4914461826
 11
5.9376241864
 21
4.4584461826
  0
LINE
  5
33A
100
AcDbEntity
  8
03__ASM_ALL_CURVES
100
AcDbLine
 62
40
  6
CONTINUOUS
 10
6.5087925981
 20
5.1793624326
 11
6.5199269731
 21
5.1942082677
  0
LINE
  5
33B
100
AcDbEntity
  8
03__ASM_ALL_CURVES
100
AcDbLine
 62
40
  6
CONTINUOUS
 10
6.5588972856
 20
5.1274020164
 11
6.5533300981
 21
5.1199790995
  0
LINE
  5
33C
100
AcDbEntity
  8
03__ASM_ALL_CURVES
100
AcDbLine
 62
40
  6
CONTINUOUS
 10
7.1712879106
 20
5.1199790995
 11
7.1601535356
 21
5.1125561826
  0
LINE
  5
33D
100
AcDbEntity
  8
03__ASM_ALL_CURVES
100
AcDbLine
 62
40
  6
CONTINUOUS
 10
7.3550050981
 20
5.1645165975
 11
7.3438707231
 21
5.1570936826
  0
LINE
  5
33E
100
AcDbEntity
  8
0
100
AcDbLine
 62
7
  6
CONTINUOUS
 10
5.4678147853
 20
4.3223511276
 11
5.0953784512
 21
4.3223511276
  0
LINE
  5
33F
100
AcDbEntity
  8
0
100
AcDbLine
 62
7
  6
CONTINUOUS
 10
4.3388147853
 20
4.3694461826
 11
4.3228147853
 21
4.3694461826
  0
LINE
  5
340
100
AcDbEntity
  8
0
100
AcDbLine
 62
7
  6
CONTINUOUS
 10
5.4678147853
 20
4.3736437101
 11
5.0953784512
 21
4.3736437101
  0
LINE
  5
341
100
AcDbEntity
  8
0
100
AcDbLine
 62
7
  6
CONTINUOUS
 10
4.5613147853
 20
4.3749461826
 11
4.5303147853
 21
4.3749461826
  0
LINE
  5
342
100
AcDbEntity
  8
0
100
AcDbLine
 62
7
  6
CONTINUOUS
 10
4.3173147853
 20
4.3749461826
 11
4.3113147853
 21
4.3749461826
  0
LINE
  5
343
100
AcDbEntity
  8
0
100
AcDbLine
 62
7
  6
CONTINUOUS
 10
6.4363147853
 20
4.3839461826
 11
6.5223686015
 21
4.3839461826
  0
LINE
  5
344
100
AcDbEntity
  8
0
100
AcDbLine
 62
7
  6
CONTINUOUS
 10
6.5631935845
 20
4.3839461826
 11
6.9018147853
 21
4.3839461826
  0
LINE
  5
345
100
AcDbEntity
  8
0
100
AcDbLine
 62
7
  6
CONTINUOUS
 10
7.0108147853
 20
4.3839461826
 11
7.0263147853
 21
4.3839461826
  0
LINE
  5
346
100
AcDbEntity
  8
0
100
AcDbLine
 62
7
  6
CONTINUOUS
 10
4.3543147854
 20
4.3849461826
 11
4.524538507
 21
4.3849461826
  0
LINE
  5
347
100
AcDbEntity
  8
0
100
AcDbLine
 62
7
  6
CONTINUOUS
 10
7.2193147853
 20
4.3919461826
 11
7.2403147853
 21
4.3919461826
  0
LINE
  5
348
100
AcDbEntity
  8
0
100
AcDbLine
 62
7
  6
CONTINUOUS
 10
7.0993147853
 20
4.4459461826
 11
7.1493147853
 21
4.4459461826
  0
LINE
  5
349
100
AcDbEntity
  8
0
100
AcDbLine
 62
7
  6
CONTINUOUS
 10
7.2923147853
 20
4.4464461826
 11
7.2453147853
 21
4.4464461826
  0
LINE
  5
34A
100
AcDbEntity
  8
0
100
AcDbLine
 62
7
  6
CONTINUOUS
 10
7.0943147853
 20
4.4464461826
 11
7.0313147853
 21
4.4464461826
  0
LINE
  5
34B
100
AcDbEntity
  8
THREAD
100
AcDbLine
 62
7
  6
CONTINUOUS
 10
6.4263147853
 20
4.4469461826
 11
6.2483147853
 21
4.4469461826
  0
LINE
  5
34C
100
AcDbEntity
  8
0
100
AcDbLine
 62
7
  6
CONTINUOUS
 10
4.6973147853
 20
4.4539461826
 11
4.6753147853
 21
4.4539461826
  0
LINE
  5
34D
100
AcDbEntity
  8
THREAD
100
AcDbLine
 62
7
  6
CONTINUOUS
 10
5.9306959832
 20
4.4544461826
 11
5.9153147853
 21
4.4544461826
  0
LINE
  5
34E
100
AcDbEntity
  8
03__ASM_ALL_CURVES
100
AcDbLine
 62
40
  6
CONTINUOUS
 10
4.5681647853
 20
5.2016311826
 11
4.5792991603
 21
5.1942082677
  0
LINE
  5
34F
100
AcDbEntity
  8
03__ASM_ALL_CURVES
100
AcDbLine
 62
40
  6
CONTINUOUS
 10
4.7407475978
 20
5.1125561826
 11
4.7296132228
 21
5.1199790995
  0
LINE
  5
350
100
AcDbEntity
  8
03__ASM_ALL_CURVES
100
AcDbLine
 62
40
  6
CONTINUOUS
 10
4.8353897853
 20
5.1125561826
 11
4.8242554103
 21
5.1199790995
  0
LINE
  5
351
100
AcDbEntity
  8
03__ASM_ALL_CURVES
100
AcDbLine
 62
40
  6
CONTINUOUS
 10
4.7518819728
 20
5.1719395177
 11
4.7630163478
 21
5.1645165975
  0
LINE
  5
352
100
AcDbEntity
  8
0
100
AcDbLine
 62
7
  6
CONTINUOUS
 10
5.6838368233
 20
4.5220987301
 11
5.6753147853
 21
4.5314461826
  0
LINE
  5
353
100
AcDbEntity
  8
03__ASM_ALL_CURVES
100
AcDbLine
 62
40
  6
CONTINUOUS
 10
6.6328606888
 20
3.3782708703
 11
6.6245099076
 21
3.3894052451
  0
LINE
  5
354
100
AcDbEntity
  8
03__ASM_ALL_CURVES
100
AcDbLine
 62
40
  6
CONTINUOUS
 10
6.6980769731
 20
5.1942082677
 11
6.6925097856
 21
5.1867853475
  0
LINE
  5
355
100
AcDbEntity
  8
03__ASM_ALL_CURVES
100
AcDbLine
 62
40
  6
CONTINUOUS
 10
6.7370472856
 20
5.1274020164
 11
6.7314800981
 21
5.1199790995
  0
LINE
  5
356
100
AcDbEntity
  8
03__ASM_ALL_CURVES
100
AcDbLine
 62
40
  6
CONTINUOUS
 10
6.8650925981
 20
5.1793624326
 11
6.8762269731
 21
5.1942082677
  0
LINE
  5
357
100
AcDbEntity
  8
0
100
AcDbLine
 62
7
  6
CONTINUOUS
 10
5.6838368233
 20
3.6857936351
 11
5.6753147853
 21
3.6764461826
  0
LINE
  5
358
100
AcDbEntity
  8
0
100
AcDbLine
 62
7
  6
CONTINUOUS
 10
5.5293147853
 20
3.6764461826
 11
5.4682635491
 21
3.6153949463
  0
LINE
  5
359
100
AcDbEntity
  8
0
100
AcDbLine
 62
7
  6
CONTINUOUS
 10
5.0613147853
 20
4.4774461826
 11
4.7103147853
 21
4.4774461826
  0
LINE
  5
35A
100
AcDbEntity
  8
0
100
AcDbLine
 62
7
  6
CONTINUOUS
 10
4.6623147853
 20
4.4774461826
 11
4.6113147853
 21
4.4774461826
  0
LINE
  5
35B
100
AcDbEntity
  8
THREAD
100
AcDbLine
 62
7
  6
CONTINUOUS
 10
6.2038147853
 20
4.4914461826
 11
5.9566767453
 21
4.4914461826
  0
LINE
  5
35C
100
AcDbEntity
  8
0
100
AcDbLine
 62
7
  6
CONTINUOUS
 10
5.8653147853
 20
4.5084461826
 11
5.9153147853
 21
4.5084461826
  0
LINE
  5
35D
100
AcDbEntity
  8
THREAD
100
AcDbLine
 62
7
  6
CONTINUOUS
 10
5.7953147853
 20
4.5089461826
 11
5.7730372172
 21
4.5089461826
  0
LINE
  5
35E
100
AcDbEntity
  8
0
100
AcDbLine
 62
7
  6
CONTINUOUS
 10
5.7453147853
 20
4.5314461826
 11
5.6953147853
 21
4.5314461826
  0
LINE
  5
35F
100
AcDbEntity
  8
0
100
AcDbLine
 62
7
  6
CONTINUOUS
 10
5.6753147853
 20
4.5314461826
 11
5.5293147853
 21
4.5314461826
  0
LINE
  5
360
100
AcDbEntity
  8
0
100
AcDbLine
 62
7
  6
CONTINUOUS
 10
5.4678147853
 20
4.5920486551
 11
5.0953784512
 21
4.5920486551
  0
LINE
  5
361
100
AcDbEntity
  8
0
100
AcDbLine
 62
7
  6
CONTINUOUS
 10
5.4678147853
 20
4.5929461826
 11
5.0953784512
 21
4.5929461826
  0
LINE
  5
362
100
AcDbEntity
  8
THREAD
100
AcDbLine
 62
7
  6
CONTINUOUS
 10
5.7705372172
 20
4.5096160556
 11
5.7508147853
 21
4.5210028069
  0
LINE
  5
363
100
AcDbEntity
  8
03__ASM_ALL_CURVES
100
AcDbLine
 62
40
  6
CONTINUOUS
 10
4.8353897853
 20
5.2016311826
 11
4.8465241603
 21
5.1942082677
  0
LINE
  5
364
100
AcDbEntity
  8
03__ASM_ALL_CURVES
100
AcDbLine
 62
40
  6
CONTINUOUS
 10
5.0079725978
 20
5.1125561826
 11
4.9968382228
 21
5.1199790995
  0
LINE
  5
365
100
AcDbEntity
  8
03__ASM_ALL_CURVES
100
AcDbLine
 62
40
  6
CONTINUOUS
 10
5.0079725978
 20
5.1645165975
 11
4.9968382228
 21
5.1719395177
  0
LINE
  5
366
100
AcDbEntity
  8
03__ASM_ALL_CURVES
100
AcDbLine
 62
40
  6
CONTINUOUS
 10
5.0191069728
 20
5.1645165975
 11
5.0302413478
 21
5.1570936826
  0
LINE
  5
367
100
AcDbEntity
  8
03__ASM_ALL_CURVES
100
AcDbLine
 62
40
  6
CONTINUOUS
 10
6.6996669388
 20
3.3782708703
 11
6.6954915482
 21
3.3838380579
  0
LINE
  5
368
100
AcDbEntity
  8
03__ASM_ALL_CURVES
100
AcDbLine
 62
40
  6
CONTINUOUS
 10
6.6579130326
 20
3.4339427464
 11
6.6662638138
 21
3.4228083701
  0
LINE
  5
369
100
AcDbEntity
  8
03__ASM_ALL_CURVES
100
AcDbLine
 62
40
  6
CONTINUOUS
 10
6.7309823931
 20
3.4807071203
 11
6.7226316118
 21
3.4918414951
  0
LINE
  5
36A
100
AcDbEntity
  8
03__ASM_ALL_CURVES
100
AcDbLine
 62
40
  6
CONTINUOUS
 10
6.6892284868
 20
3.5363789964
 11
6.6934038775
 21
3.5308118063
  0
LINE
  5
36B
100
AcDbEntity
  8
03__ASM_ALL_CURVES
100
AcDbLine
 62
40
  6
CONTINUOUS
 10
6.7560347368
 20
3.5363789964
 11
6.7643855181
 21
3.5252446201
  0
LINE
  5
36C
100
AcDbEntity
  8
THREAD
100
AcDbLine
 62
7
  6
CONTINUOUS
 10
6.2038147853
 20
3.7164461826
 11
6.2038147853
 21
4.4914461826
  0
LINE
  5
36D
100
AcDbEntity
  8
THREAD
100
AcDbLine
 62
7
  6
CONTINUOUS
 10
6.2483147853
 20
3.7609461826
 11
6.2483147853
 21
4.4469461826
  0
LINE
  5
36E
100
AcDbEntity
  8
03__ASM_ALL_CURVES
100
AcDbLine
 62
40
  6
CONTINUOUS
 10
6.2694035356
 20
5.2016311826
 11
6.2694035356
 21
5.1125561826
  0
LINE
  5
36F
100
AcDbEntity
  8
03__ASM_ALL_CURVES
100
AcDbLine
 62
40
  6
CONTINUOUS
 10
6.5032254106
 20
5.1570936826
 11
6.5087925981
 21
5.1793624326
  0
LINE
  5
370
100
AcDbEntity
  8
03__ASM_ALL_CURVES
100
AcDbLine
 62
40
  6
CONTINUOUS
 10
6.9207644731
 20
5.1348249326
 11
6.9096300981
 21
5.1199790995
  0
LINE
  5
371
100
AcDbEntity
  8
03__ASM_ALL_CURVES
100
AcDbLine
 62
40
  6
CONTINUOUS
 10
7.0042722856
 20
5.1274020164
 11
6.9987050981
 21
5.1199790995
  0
LINE
  5
372
100
AcDbEntity
  8
03__ASM_ALL_CURVES
100
AcDbLine
 62
40
  6
CONTINUOUS
 10
3.8512047853
 20
5.0591111826
 11
3.7443147853
 21
5.0769261826
  0
LINE
  5
373
100
AcDbEntity
  8
03__ASM_ALL_CURVES
100
AcDbLine
 62
40
  6
CONTINUOUS
 10
5.0191069728
 20
5.2016311826
 11
5.0302413478
 21
5.1942082677
  0
LINE
  5
374
100
AcDbEntity
  8
THREAD
100
AcDbLine
 62
7
  6
CONTINUOUS
 10
6.2483147853
 20
4.4469461826
 11
6.2038147853
 21
4.4914461826
  0
LINE
  5
375
100
AcDbEntity
  8
03__ASM_ALL_CURVES
100
AcDbLine
 62
40
  6
CONTINUOUS
 10
6.8228409868
 20
3.5363789964
 11
6.8270163775
 21
3.5308118063
  0
LINE
  5
376
100
AcDbEntity
  8
03__ASM_ALL_CURVES
100
AcDbLine
 62
40
  6
CONTINUOUS
 10
5.9743425981
 20
5.1348249326
 11
5.9687754106
 21
5.1570936826
  0
LINE
  5
377
100
AcDbEntity
  8
03__ASM_ALL_CURVES
100
AcDbLine
 62
40
  6
CONTINUOUS
 10
6.0300144731
 20
5.1793624326
 11
6.0355816606
 21
5.1570936826
  0
LINE
  5
378
100
AcDbEntity
  8
03__ASM_ALL_CURVES
100
AcDbLine
 62
40
  6
CONTINUOUS
 10
6.0634175981
 20
5.1348249326
 11
6.0578504106
 21
5.1570936826
  0
LINE
  5
379
100
AcDbEntity
  8
03__ASM_ALL_CURVES
100
AcDbLine
 62
40
  6
CONTINUOUS
 10
6.3584785356
 20
5.2016311826
 11
6.3584785356
 21
5.1125561826
  0
LINE
  5
37A
100
AcDbEntity
  8
03__ASM_ALL_CURVES
100
AcDbLine
 62
40
  6
CONTINUOUS
 10
7.1824222856
 20
5.1348249326
 11
7.1712879106
 21
5.1199790995
  0
LINE
  5
37B
100
AcDbEntity
  8
THREAD
100
AcDbLine
 62
7
  6
CONTINUOUS
 10
5.7705372172
 20
3.6982763096
 11
5.7508147853
 21
3.6868895583
  0
LINE
  5
37C
100
AcDbEntity
  8
03__ASM_ALL_CURVES
100
AcDbLine
 62
40
  6
CONTINUOUS
 10
3.8512047853
 20
5.0680186826
 11
3.7443147853
 21
5.0769261826
  0
LINE
  5
37D
100
AcDbEntity
  8
03__ASM_ALL_CURVES
100
AcDbLine
 62
40
  6
CONTINUOUS
 10
3.8512047853
 20
5.0650495159
 11
3.7443147853
 21
5.0769261826
  0
LINE
  5
37E
100
AcDbEntity
  8
03__ASM_ALL_CURVES
100
AcDbLine
 62
40
  6
CONTINUOUS
 10
3.8512047853
 20
5.0620803493
 11
3.7443147853
 21
5.0769261826
  0
LINE
  5
37F
100
AcDbEntity
  8
0
100
AcDbLine
 62
7
  6
CONTINUOUS
 10
7.0313147853
 20
3.7614461826
 11
7.0263147853
 21
3.7664461826
  0
LINE
  5
380
100
AcDbEntity
  8
0
100
AcDbLine
 62
7
  6
CONTINUOUS
 10
6.4363147853
 20
4.4369461826
 11
6.4263147853
 21
4.4469461826
  0
LINE
  5
381
100
AcDbEntity
  8
03__ASM_ALL_CURVES
100
AcDbLine
 62
40
  6
CONTINUOUS
 10
6.9564534868
 20
3.5363789964
 11
6.9606288775
 21
3.5308118063
  0
LINE
  5
382
100
AcDbEntity
  8
03__ASM_ALL_CURVES
100
AcDbLine
 62
40
  6
CONTINUOUS
 10
6.6245099076
 20
3.3894052451
 11
6.6203345169
 21
3.4061068076
  0
LINE
  5
383
100
AcDbEntity
  8
03__ASM_ALL_CURVES
100
AcDbLine
 62
40
  6
CONTINUOUS
 10
6.4252847856
 20
5.1125561826
 11
6.4252847856
 21
5.2016311826
  0
LINE
  5
384
100
AcDbEntity
  8
0
100
AcDbLine
 62
7
  6
CONTINUOUS
 10
6.4263147853
 20
3.7609461826
 11
6.4263147853
 21
4.4469461826
  0
LINE
  5
385
100
AcDbEntity
  8
0
100
AcDbLine
 62
7
  6
CONTINUOUS
 10
6.4363147853
 20
3.7709461826
 11
6.4363147853
 21
4.4369461826
  0
LINE
  5
386
100
AcDbEntity
  8
03__ASM_ALL_CURVES
100
AcDbLine
 62
40
  6
CONTINUOUS
 10
6.4698222856
 20
5.1125561826
 11
6.4698222856
 21
5.2016311826
  0
LINE
  5
387
100
AcDbEntity
  8
0
100
AcDbLine
 62
7
  6
CONTINUOUS
 10
6.5253442226
 20
4.3837847978
 11
6.5253442226
 21
3.8239461826
  0
LINE
  5
388
100
AcDbEntity
  8
03__ASM_ALL_CURVES
100
AcDbLine
 62
40
  6
CONTINUOUS
 10
6.5588972856
 20
5.1570936826
 11
6.5588972856
 21
5.1274020164
  0
LINE
  5
389
100
AcDbEntity
  8
0
100
AcDbLine
 62
7
  6
CONTINUOUS
 10
6.5592853481
 20
4.3837295987
 11
6.5592853481
 21
3.8239461826
  0
LINE
  5
38A
100
AcDbEntity
  8
03__ASM_ALL_CURVES
100
AcDbLine
 62
40
  6
CONTINUOUS
 10
7.3605722856
 20
5.1719395177
 11
7.3550050981
 21
5.1645165975
  0
LINE
  5
38B
100
AcDbEntity
  8
THREAD
100
AcDbLine
 62
7
  6
CONTINUOUS
 10
6.2483147853
 20
3.7609461826
 11
6.2038147853
 21
3.7164461826
  0
LINE
  5
38C
100
AcDbEntity
  8
0
100
AcDbLine
 62
7
  6
CONTINUOUS
 10
7.0313147853
 20
4.4464461826
 11
7.0263147853
 21
4.4414461826
  0
LINE
  5
38D
100
AcDbEntity
  8
03__ASM_ALL_CURVES
100
AcDbLine
 62
40
  6
CONTINUOUS
 10
3.8512047853
 20
5.0739570159
 11
3.7443147853
 21
5.0769261826
  0
LINE
  5
38E
100
AcDbEntity
  8
03__ASM_ALL_CURVES
100
AcDbLine
 62
40
  6
CONTINUOUS
 10
3.8512047853
 20
5.0709878493
 11
3.7443147853
 21
5.0769261826
  0
LINE
  5
38F
100
AcDbEntity
  8
03__ASM_ALL_CURVES
100
AcDbLine
 62
40
  6
CONTINUOUS
 10
5.8552047853
 20
5.0591111826
 11
5.6414247853
 21
5.0947411826
  0
LINE
  5
390
100
AcDbEntity
  8
0
100
AcDbLine
 62
7
  6
CONTINUOUS
 10
7.2453147853
 20
3.7614461826
 11
7.2403147853
 21
3.7664461826
  0
LINE
  5
391
100
AcDbEntity
  8
03__ASM_ALL_CURVES
100
AcDbLine
 62
40
  6
CONTINUOUS
 10
5.9854769731
 20
5.1199790995
 11
5.9743425981
 21
5.1348249326
  0
LINE
  5
392
100
AcDbEntity
  8
03__ASM_ALL_CURVES
100
AcDbLine
 62
40
  6
CONTINUOUS
 10
6.0745519731
 20
5.1199790995
 11
6.0634175981
 21
5.1348249326
  0
LINE
  5
393
100
AcDbEntity
  8
03__ASM_ALL_CURVES
100
AcDbLine
 62
40
  6
CONTINUOUS
 10
6.0188800981
 20
5.1942082677
 11
6.0300144731
 21
5.1793624326
  0
LINE
  5
394
100
AcDbEntity
  8
03__ASM_ALL_CURVES
100
AcDbLine
 62
40
  6
CONTINUOUS
 10
6.8144902056
 20
3.5085430576
 11
6.8270163775
 21
3.4751399326
  0
LINE
  5
395
100
AcDbEntity
  8
03__ASM_ALL_CURVES
100
AcDbLine
 62
40
  6
CONTINUOUS
 10
6.1803285356
 20
5.2016311826
 11
6.2081644731
 21
5.1125561826
  0
LINE
  5
396
100
AcDbEntity
  8
03__ASM_ALL_CURVES
100
AcDbLine
 62
40
  6
CONTINUOUS
 10
6.6662638138
 20
3.4228083701
 11
6.6704392044
 21
3.4061068076
  0
LINE
  5
397
100
AcDbEntity
  8
03__ASM_ALL_CURVES
100
AcDbLine
 62
40
  6
CONTINUOUS
 10
6.7226316118
 20
3.4918414951
 11
6.7184562212
 21
3.5085430576
  0
LINE
  5
398
100
AcDbEntity
  8
03__ASM_ALL_CURVES
100
AcDbLine
 62
40
  6
CONTINUOUS
 10
6.7643855181
 20
3.5252446201
 11
6.7685609087
 21
3.5085430576
  0
LINE
  5
399
100
AcDbEntity
  8
03__ASM_ALL_CURVES
100
AcDbLine
 62
40
  6
CONTINUOUS
 10
6.6600007525
 20
3.4751399326
 11
6.6600007525
 21
3.5419461826
  0
LINE
  5
39A
100
AcDbEntity
  8
03__ASM_ALL_CURVES
100
AcDbLine
 62
40
  6
CONTINUOUS
 10
6.6925097856
 20
5.1867853475
 11
6.6925097856
 21
5.1793624326
  0
LINE
  5
39B
100
AcDbEntity
  8
03__ASM_ALL_CURVES
100
AcDbLine
 62
40
  6
CONTINUOUS
 10
6.6934038775
 20
3.5308118063
 11
6.6934038775
 21
3.5196774339
  0
LINE
  5
39C
100
AcDbEntity
  8
03__ASM_ALL_CURVES
100
AcDbLine
 62
40
  6
CONTINUOUS
 10
6.6954915482
 20
3.3838380579
 11
6.6954915482
 21
3.4395099326
  0
LINE
  5
39D
100
AcDbEntity
  8
03__ASM_ALL_CURVES
100
AcDbLine
 62
40
  6
CONTINUOUS
 10
6.8595254106
 20
5.1570936826
 11
6.8650925981
 21
5.1793624326
  0
LINE
  5
39E
100
AcDbEntity
  8
03__ASM_ALL_CURVES
100
AcDbLine
 62
40
  6
CONTINUOUS
 10
6.9263316606
 20
5.1570936826
 11
6.9207644731
 21
5.1348249326
  0
LINE
  5
39F
100
AcDbEntity
  8
0
100
AcDbLine
 62
7
  6
CONTINUOUS
 10
6.4363147853
 20
3.7709461826
 11
6.4263147853
 21
3.7609461826
  0
LINE
  5
3A0
100
AcDbEntity
  8
0
100
AcDbLine
 62
7
  6
CONTINUOUS
 10
7.2453147853
 20
4.4464461826
 11
7.2403147853
 21
4.4414461826
  0
LINE
  5
3A1
100
AcDbEntity
  8
03__ASM_ALL_CURVES
100
AcDbLine
 62
40
  6
CONTINUOUS
 10
5.6414247853
 20
5.0591111826
 11
5.8552047853
 21
5.0947411826
  0
LINE
  5
3A2
100
AcDbEntity
  8
03__ASM_ALL_CURVES
100
AcDbLine
 62
40
  6
CONTINUOUS
 10
5.6414247853
 20
5.0620803493
 11
5.8552047853
 21
5.0917720159
  0
LINE
  5
3A3
100
AcDbEntity
  8
03__ASM_ALL_CURVES
100
AcDbLine
 62
40
  6
CONTINUOUS
 10
5.6414247853
 20
5.0650495159
 11
5.8552047853
 21
5.0888028493
  0
LINE
  5
3A4
100
AcDbEntity
  8
03__ASM_ALL_CURVES
100
AcDbLine
 62
40
  6
CONTINUOUS
 10
5.6414247853
 20
5.0680186826
 11
5.8552047853
 21
5.0858336826
  0
LINE
  5
3A5
100
AcDbEntity
  8
03__ASM_ALL_CURVES
100
AcDbLine
 62
40
  6
CONTINUOUS
 10
5.6414247853
 20
5.0709878493
 11
5.8552047853
 21
5.0828645159
  0
LINE
  5
3A6
100
AcDbEntity
  8
03__ASM_ALL_CURVES
100
AcDbLine
 62
40
  6
CONTINUOUS
 10
3.8512047853
 20
5.0828645159
 11
3.7443147853
 21
5.0769261826
  0
LINE
  5
3A7
100
AcDbEntity
  8
03__ASM_ALL_CURVES
100
AcDbLine
 62
40
  6
CONTINUOUS
 10
5.6414247853
 20
5.0739570159
 11
5.8552047853
 21
5.0798953493
  0
LINE
  5
3A8
100
AcDbEntity
  8
03__ASM_ALL_CURVES
100
AcDbLine
 62
40
  6
CONTINUOUS
 10
3.8512047853
 20
5.0798953493
 11
3.7443147853
 21
5.0769261826
  0
LINE
  5
3A9
100
AcDbEntity
  8
03__ASM_ALL_CURVES
100
AcDbLine
 62
40
  6
CONTINUOUS
 10
3.7443147853
 20
5.0769261826
 11
7.4585547853
 21
5.0769261826
  0
LINE
  5
3AA
100
AcDbEntity
  8
03__ASM_ALL_CURVES
100
AcDbLine
 62
40
  6
CONTINUOUS
 10
7.2714972856
 20
5.1125561826
 11
7.2269597856
 21
5.1125561826
  0
LINE
  5
3AB
100
AcDbEntity
  8
03__ASM_ALL_CURVES
100
AcDbLine
 62
40
  6
CONTINUOUS
 10
7.1601535356
 20
5.1125561826
 11
7.1378847856
 21
5.1125561826
  0
LINE
  5
3AC
100
AcDbEntity
  8
03__ASM_ALL_CURVES
100
AcDbLine
 62
40
  6
CONTINUOUS
 10
6.9875707231
 20
5.1125561826
 11
6.9764363481
 21
5.1125561826
  0
LINE
  5
3AD
100
AcDbEntity
  8
03__ASM_ALL_CURVES
100
AcDbLine
 62
40
  6
CONTINUOUS
 10
6.8984957231
 20
5.1125561826
 11
6.8873613481
 21
5.1125561826
  0
LINE
  5
3AE
100
AcDbEntity
  8
03__ASM_ALL_CURVES
100
AcDbLine
 62
40
  6
CONTINUOUS
 10
6.7203457231
 20
5.1125561826
 11
6.7092113481
 21
5.1125561826
  0
LINE
  5
3AF
100
AcDbEntity
  8
03__ASM_ALL_CURVES
100
AcDbLine
 62
40
  6
CONTINUOUS
 10
6.5421957231
 20
5.1125561826
 11
6.5310613481
 21
5.1125561826
  0
LINE
  5
3B0
100
AcDbEntity
  8
03__ASM_ALL_CURVES
100
AcDbLine
 62
40
  6
CONTINUOUS
 10
6.0968207231
 20
5.1125561826
 11
6.0856863481
 21
5.1125561826
  0
LINE
  5
3B1
100
AcDbEntity
  8
03__ASM_ALL_CURVES
100
AcDbLine
 62
40
  6
CONTINUOUS
 10
6.0077457231
 20
5.1125561826
 11
5.9966113481
 21
5.1125561826
  0
LINE
  5
3B2
100
AcDbEntity
  8
03__ASM_ALL_CURVES
100
AcDbLine
 62
40
  6
CONTINUOUS
 10
5.0191069728
 20
5.1125561826
 11
5.0079725978
 21
5.1125561826
  0
LINE
  5
3B3
100
AcDbEntity
  8
03__ASM_ALL_CURVES
100
AcDbLine
 62
40
  6
CONTINUOUS
 10
4.9244647853
 20
5.1125561826
 11
4.9188975978
 21
5.1125561826
  0
LINE
  5
3B4
100
AcDbEntity
  8
03__ASM_ALL_CURVES
100
AcDbLine
 62
40
  6
CONTINUOUS
 10
4.7518819728
 20
5.1125561826
 11
4.7407475978
 21
5.1125561826
  0
LINE
  5
3B5
100
AcDbEntity
  8
03__ASM_ALL_CURVES
100
AcDbLine
 62
40
  6
CONTINUOUS
 10
4.4790897853
 20
5.1125561826
 11
4.4735225978
 21
5.1125561826
  0
LINE
  5
3B6
100
AcDbEntity
  8
03__ASM_ALL_CURVES
100
AcDbLine
 62
40
  6
CONTINUOUS
 10
4.3677460353
 20
5.1125561826
 11
4.4122835353
 21
5.1125561826
  0
LINE
  5
3B7
100
AcDbEntity
  8
03__ASM_ALL_CURVES
100
AcDbLine
 62
40
  6
CONTINUOUS
 10
5.8908347856
 20
5.1125561826
 11
5.9353722856
 21
5.1125561826
  0
LINE
  5
3B8
100
AcDbEntity
  8
03__ASM_ALL_CURVES
100
AcDbLine
 62
40
  6
CONTINUOUS
 10
7.0488097856
 20
5.1125561826
 11
7.0933472856
 21
5.1125561826
  0
LINE
  5
3B9
100
AcDbEntity
  8
03__ASM_ALL_CURVES
100
AcDbLine
 62
40
  6
CONTINUOUS
 10
6.1636269731
 20
5.1422478501
 11
6.1970300981
 21
5.1422478501
  0
LINE
  5
3BA
100
AcDbEntity
  8
03__ASM_ALL_CURVES
100
AcDbLine
 62
40
  6
CONTINUOUS
 10
7.3438707231
 20
5.1570936826
 11
7.3160347856
 21
5.1570936826
  0
LINE
  5
3BB
100
AcDbEntity
  8
03__ASM_ALL_CURVES
100
AcDbLine
 62
40
  6
CONTINUOUS
 10
6.5366285356
 20
5.1570936826
 11
6.5588972856
 21
5.1570936826
  0
LINE
  5
3BC
100
AcDbEntity
  8
03__ASM_ALL_CURVES
100
AcDbLine
 62
40
  6
CONTINUOUS
 10
6.7815847856
 20
5.1570936826
 11
6.8261222856
 21
5.1570936826
  0
LINE
  5
3BD
100
AcDbEntity
  8
03__ASM_ALL_CURVES
100
AcDbLine
 62
40
  6
CONTINUOUS
 10
7.2269597856
 20
5.1570936826
 11
7.2547957231
 21
5.1570936826
  0
LINE
  5
3BE
100
AcDbEntity
  8
03__ASM_ALL_CURVES
100
AcDbLine
 62
40
  6
CONTINUOUS
 10
5.0079725978
 20
5.1645165975
 11
5.0191069728
 21
5.1645165975
  0
LINE
  5
3BF
100
AcDbEntity
  8
03__ASM_ALL_CURVES
100
AcDbLine
 62
40
  6
CONTINUOUS
 10
4.7407475978
 20
5.1719395177
 11
4.7518819728
 21
5.1719395177
  0
LINE
  5
3C0
100
AcDbEntity
  8
03__ASM_ALL_CURVES
100
AcDbLine
 62
40
  6
CONTINUOUS
 10
6.7203457231
 20
5.2016311826
 11
6.7092113481
 21
5.2016311826
  0
LINE
  5
3C1
100
AcDbEntity
  8
03__ASM_ALL_CURVES
100
AcDbLine
 62
40
  6
CONTINUOUS
 10
4.7685835353
 20
5.2016311826
 11
4.7351804103
 21
5.2016311826
  0
LINE
  5
3C2
100
AcDbEntity
  8
03__ASM_ALL_CURVES
100
AcDbLine
 62
40
  6
CONTINUOUS
 10
4.3844475978
 20
5.2016311826
 11
4.3955819728
 21
5.2016311826
  0
LINE
  5
3C3
100
AcDbEntity
  8
03__ASM_ALL_CURVES
100
AcDbLine
 62
40
  6
CONTINUOUS
 10
5.0079725978
 20
5.2016311826
 11
5.0191069728
 21
5.2016311826
  0
LINE
  5
3C4
100
AcDbEntity
  8
03__ASM_ALL_CURVES
100
AcDbLine
 62
40
  6
CONTINUOUS
 10
5.9966113481
 20
5.2016311826
 11
6.0077457231
 21
5.2016311826
  0
LINE
  5
3C5
100
AcDbEntity
  8
03__ASM_ALL_CURVES
100
AcDbLine
 62
40
  6
CONTINUOUS
 10
6.0856863481
 20
5.2016311826
 11
6.0968207231
 21
5.2016311826
  0
LINE
  5
3C6
100
AcDbEntity
  8
03__ASM_ALL_CURVES
100
AcDbLine
 62
40
  6
CONTINUOUS
 10
6.2415675981
 20
5.2016311826
 11
6.2972394731
 21
5.2016311826
  0
LINE
  5
3C7
100
AcDbEntity
  8
03__ASM_ALL_CURVES
100
AcDbLine
 62
40
  6
CONTINUOUS
 10
6.5310613481
 20
5.2016311826
 11
6.5421957231
 21
5.2016311826
  0
LINE
  5
3C8
100
AcDbEntity
  8
03__ASM_ALL_CURVES
100
AcDbLine
 62
40
  6
CONTINUOUS
 10
6.8873613481
 20
5.2016311826
 11
6.8984957231
 21
5.2016311826
  0
LINE
  5
3C9
100
AcDbEntity
  8
03__ASM_ALL_CURVES
100
AcDbLine
 62
40
  6
CONTINUOUS
 10
7.1378847856
 20
5.2016311826
 11
7.1601535356
 21
5.2016311826
  0
LINE
  5
3CA
100
AcDbEntity
  8
03__ASM_ALL_CURVES
100
AcDbLine
 62
40
  6
CONTINUOUS
 10
7.2269597856
 20
5.2016311826
 11
7.2714972856
 21
5.2016311826
  0
LINE
  5
3CB
100
AcDbEntity
  8
03__ASM_ALL_CURVES
100
AcDbLine
 62
40
  6
CONTINUOUS
 10
7.3160347856
 20
5.2016311826
 11
7.3438707231
 21
5.2016311826
  0
LINE
  5
3CC
100
AcDbEntity
  8
03__ASM_ALL_CURVES
100
AcDbLine
 62
40
  6
CONTINUOUS
 10
5.6414247853
 20
5.0798953493
 11
5.8552047853
 21
5.0739570159
  0
LINE
  5
3CD
100
AcDbEntity
  8
03__ASM_ALL_CURVES
100
AcDbLine
 62
40
  6
CONTINUOUS
 10
5.6414247853
 20
5.0828645159
 11
5.8552047853
 21
5.0709878493
  0
LINE
  5
3CE
100
AcDbEntity
  8
03__ASM_ALL_CURVES
100
AcDbLine
 62
40
  6
CONTINUOUS
 10
5.6414247853
 20
5.0858336826
 11
5.8552047853
 21
5.0680186826
  0
LINE
  5
3CF
100
AcDbEntity
  8
03__ASM_ALL_CURVES
100
AcDbLine
 62
40
  6
CONTINUOUS
 10
5.6414247853
 20
5.0888028493
 11
5.8552047853
 21
5.0650495159
  0
LINE
  5
3D0
100
AcDbEntity
  8
03__ASM_ALL_CURVES
100
AcDbLine
 62
40
  6
CONTINUOUS
 10
5.6414247853
 20
5.0917720159
 11
5.8552047853
 21
5.0620803493
  0
LINE
  5
3D1
100
AcDbEntity
  8
03__ASM_ALL_CURVES
100
AcDbLine
 62
40
  6
CONTINUOUS
 10
5.9966113481
 20
5.1125561826
 11
5.9854769731
 21
5.1199790995
  0
LINE
  5
3D2
100
AcDbEntity
  8
03__ASM_ALL_CURVES
100
AcDbLine
 62
40
  6
CONTINUOUS
 10
6.0856863481
 20
5.1125561826
 11
6.0745519731
 21
5.1199790995
  0
LINE
  5
3D3
100
AcDbEntity
  8
03__ASM_ALL_CURVES
100
AcDbLine
 62
40
  6
CONTINUOUS
 10
6.0077457231
 20
5.2016311826
 11
6.0188800981
 21
5.1942082677
  0
LINE
  5
3D4
100
AcDbEntity
  8
03__ASM_ALL_CURVES
100
AcDbLine
 62
40
  6
CONTINUOUS
 10
7.6496472074
 20
4.1217611826
 11
7.6412964261
 21
4.1273283703
  0
LINE
  5
3D5
100
AcDbEntity
  8
03__ASM_ALL_CURVES
100
AcDbLine
 62
40
  6
CONTINUOUS
 10
7.5911917386
 20
4.1885674326
 11
7.5995425199
 21
4.1830002464
  0
LINE
  5
3D6
100
AcDbEntity
  8
03__ASM_ALL_CURVES
100
AcDbLine
 62
40
  6
CONTINUOUS
 10
6.1079550981
 20
5.1942082677
 11
6.1135222856
 21
5.1867853475
  0
LINE
  5
3D7
100
AcDbEntity
  8
03__ASM_ALL_CURVES
100
AcDbLine
 62
40
  6
CONTINUOUS
 10
6.5087925981
 20
5.1348249326
 11
6.5032254106
 21
5.1570936826
  0
LINE
  5
3D8
100
AcDbEntity
  8
03__ASM_ALL_CURVES
100
AcDbLine
 62
40
  6
CONTINUOUS
 10
6.7288946732
 20
3.4395099326
 11
6.7288946732
 21
3.3838380579
  0
LINE
  5
3D9
100
AcDbEntity
  8
03__ASM_ALL_CURVES
100
AcDbLine
 62
40
  6
CONTINUOUS
 10
6.7370472856
 20
5.1422478501
 11
6.7370472856
 21
5.1274020164
  0
LINE
  5
3DA
100
AcDbEntity
  8
03__ASM_ALL_CURVES
100
AcDbLine
 62
40
  6
CONTINUOUS
 10
6.7789993607
 20
3.4395099326
 11
6.7789993607
 21
3.3727036826
  0
LINE
  5
3DB
100
AcDbEntity
  8
03__ASM_ALL_CURVES
100
AcDbLine
 62
40
  6
CONTINUOUS
 10
6.7815847856
 20
5.2016311826
 11
6.7815847856
 21
5.1125561826
  0
LINE
  5
3DC
100
AcDbEntity
  8
03__ASM_ALL_CURVES
100
AcDbLine
 62
40
  6
CONTINUOUS
 10
6.7936132525
 20
3.4751399326
 11
6.7936132525
 21
3.5419461826
  0
LINE
  5
3DD
100
AcDbEntity
  8
03__ASM_ALL_CURVES
100
AcDbLine
 62
40
  6
CONTINUOUS
 10
6.8261222856
 20
5.2016311826
 11
6.8261222856
 21
5.1125561826
  0
LINE
  5
3DE
100
AcDbEntity
  8
03__ASM_ALL_CURVES
100
AcDbLine
 62
40
  6
CONTINUOUS
 10
6.8270163775
 20
3.5308118063
 11
6.8270163775
 21
3.5196774339
  0
LINE
  5
3DF
100
AcDbEntity
  8
03__ASM_ALL_CURVES
100
AcDbLine
 62
40
  6
CONTINUOUS
 10
6.8291040482
 20
3.4395099326
 11
6.8291040482
 21
3.3727036826
  0
LINE
  5
3E0
100
AcDbEntity
  8
03__ASM_ALL_CURVES
100
AcDbLine
 62
40
  6
CONTINUOUS
 10
6.6203345169
 20
3.4061068076
 11
6.6245099076
 21
3.4228083701
  0
LINE
  5
3E1
100
AcDbEntity
  8
03__ASM_ALL_CURVES
100
AcDbLine
 62
40
  6
CONTINUOUS
 10
6.6704392044
 20
3.4061068076
 11
6.6662638138
 21
3.3894052451
  0
LINE
  5
3E2
100
AcDbEntity
  8
03__ASM_ALL_CURVES
100
AcDbLine
 62
40
  6
CONTINUOUS
 10
3.8512047853
 20
5.0917720159
 11
3.7443147853
 21
5.0769261826
  0
LINE
  5
3E3
100
AcDbEntity
  8
03__ASM_ALL_CURVES
100
AcDbLine
 62
40
  6
CONTINUOUS
 10
3.8512047853
 20
5.0888028493
 11
3.7443147853
 21
5.0769261826
  0
LINE
  5
3E4
100
AcDbEntity
  8
03__ASM_ALL_CURVES
100
AcDbLine
 62
40
  6
CONTINUOUS
 10
3.8512047853
 20
5.0858336826
 11
3.7443147853
 21
5.0769261826
  0
LINE
  5
3E5
100
AcDbEntity
  8
03__ASM_ALL_CURVES
100
AcDbLine
 62
40
  6
CONTINUOUS
 10
6.0968207231
 20
5.2016311826
 11
6.1079550981
 21
5.1942082677
  0
LINE
  5
3E6
100
AcDbEntity
  8
03__ASM_ALL_CURVES
100
AcDbLine
 62
40
  6
CONTINUOUS
 10
7.6579979886
 20
4.1885674326
 11
7.6663487699
 21
4.1830002464
  0
LINE
  5
3E7
100
AcDbEntity
  8
03__ASM_ALL_CURVES
100
AcDbLine
 62
40
  6
CONTINUOUS
 10
7.7248042386
 20
4.1885674326
 11
7.7331550199
 21
4.1830002464
  0
LINE
  5
3E8
100
AcDbEntity
  8
0
100
AcDbLine
 62
7
  6
CONTINUOUS
 10
7.0993147853
 20
4.4414461826
 11
7.0943147853
 21
4.4464461826
  0
LINE
  5
3E9
100
AcDbEntity
  8
03__ASM_ALL_CURVES
100
AcDbLine
 62
40
  6
CONTINUOUS
 10
6.4252847856
 20
5.2016311826
 11
6.4698222856
 21
5.1125561826
  0
LINE
  5
3EA
100
AcDbEntity
  8
03__ASM_ALL_CURVES
100
AcDbLine
 62
40
  6
CONTINUOUS
 10
6.877121065
 20
3.5419461826
 11
6.877121065
 21
3.4751399326
  0
LINE
  5
3EB
100
AcDbEntity
  8
03__ASM_ALL_CURVES
100
AcDbLine
 62
40
  6
CONTINUOUS
 10
6.8959102982
 20
3.3727036826
 11
6.8959102982
 21
3.4395099326
  0
LINE
  5
3EC
100
AcDbEntity
  8
0
100
AcDbLine
 62
7
  6
CONTINUOUS
 10
6.9063147853
 20
4.0823821295
 11
6.9063147853
 21
4.1254320772
  0
LINE
  5
3ED
100
AcDbEntity
  8
0
100
AcDbLine
 62
7
  6
CONTINUOUS
 10
6.9133147853
 20
4.0707215881
 11
6.9133147853
 21
4.1372089087
  0
LINE
  5
3EE
100
AcDbEntity
  8
0
100
AcDbLine
 62
7
  6
CONTINUOUS
 10
6.9513147853
 20
3.9386482827
 11
6.9513147853
 21
3.9478075198
  0
LINE
  5
3EF
100
AcDbEntity
  8
0
100
AcDbLine
 62
7
  6
CONTINUOUS
 10
6.9513147853
 20
4.0497764734
 11
6.9513147853
 21
4.1581807327
  0
LINE
  5
3F0
100
AcDbEntity
  8
0
100
AcDbLine
 62
7
  6
CONTINUOUS
 10
6.9513147853
 20
4.2600848362
 11
6.9513147853
 21
4.2692442948
  0
LINE
  5
3F1
100
AcDbEntity
  8
0
100
AcDbLine
 62
7
  6
CONTINUOUS
 10
6.9583147853
 20
4.2693913483
 11
6.9583147853
 21
4.2598011654
  0
LINE
  5
3F2
100
AcDbEntity
  8
0
100
AcDbLine
 62
7
  6
CONTINUOUS
 10
6.9583147853
 20
3.9385009794
 11
6.9583147853
 21
3.9480912068
  0
LINE
  5
3F3
100
AcDbEntity
  8
0
100
AcDbLine
 62
7
  6
CONTINUOUS
 10
6.9583147853
 20
4.0497356702
 11
6.9583147853
 21
4.1581304645
  0
LINE
  5
3F4
100
AcDbEntity
  8
03__ASM_ALL_CURVES
100
AcDbLine
 62
40
  6
CONTINUOUS
 10
6.9597347856
 20
5.1274020164
 11
6.9597347856
 21
5.2016311826
  0
LINE
  5
3F5
100
AcDbEntity
  8
03__ASM_ALL_CURVES
100
AcDbLine
 62
40
  6
CONTINUOUS
 10
6.9606288775
 20
3.5308118063
 11
6.9606288775
 21
3.5196774339
  0
LINE
  5
3F6
100
AcDbEntity
  8
0
100
AcDbLine
 62
7
  6
CONTINUOUS
 10
6.9683147853
 20
4.2687647327
 11
6.9683147853
 21
4.2607467792
  0
LINE
  5
3F7
100
AcDbEntity
  8
0
100
AcDbLine
 62
7
  6
CONTINUOUS
 10
6.9683147853
 20
3.9391277692
 11
6.9683147853
 21
3.9471456282
  0
LINE
  5
3F8
100
AcDbEntity
  8
0
100
AcDbLine
 62
7
  6
CONTINUOUS
 10
6.9683147853
 20
4.0510859803
 11
6.9683147853
 21
4.1567966202
  0
LINE
  5
3F9
100
AcDbEntity
  8
0
100
AcDbLine
 62
7
  6
CONTINUOUS
 10
6.9753147853
 20
3.940204768
 11
6.9753147853
 21
3.9451118636
  0
LINE
  5
3FA
100
AcDbEntity
  8
0
100
AcDbLine
 62
7
  6
CONTINUOUS
 10
6.9753147853
 20
4.0530872358
 11
6.9753147853
 21
4.1548587589
  0
LINE
  5
3FB
100
AcDbEntity
  8
0
100
AcDbLine
 62
7
  6
CONTINUOUS
 10
6.9753147853
 20
4.2627805448
 11
6.9753147853
 21
4.267687307
  0
LINE
  5
3FC
100
AcDbEntity
  8
03__ASM_ALL_CURVES
100
AcDbLine
 62
40
  6
CONTINUOUS
 10
6.9794181107
 20
3.4395099326
 11
6.9794181107
 21
3.3727036826
  0
LINE
  5
3FD
100
AcDbEntity
  8
03__ASM_ALL_CURVES
100
AcDbLine
 62
40
  6
CONTINUOUS
 10
7.0042722856
 20
5.2016311826
 11
7.0042722856
 21
5.1274020164
  0
LINE
  5
3FE
100
AcDbEntity
  8
03__ASM_ALL_CURVES
100
AcDbLine
 62
40
  6
CONTINUOUS
 10
6.7184562212
 20
3.5085430576
 11
6.7226316118
 21
3.5252446201
  0
LINE
  5
3FF
100
AcDbEntity
  8
03__ASM_ALL_CURVES
100
AcDbLine
 62
40
  6
CONTINUOUS
 10
6.7685609087
 20
3.5085430576
 11
6.7643855181
 21
3.4918414951
  0
LINE
  5
400
100
AcDbEntity
  8
03__ASM_ALL_CURVES
100
AcDbLine
 62
40
  6
CONTINUOUS
 10
7.1879894731
 20
5.1570936826
 11
7.1824222856
 21
5.1348249326
  0
LINE
  5
401
100
AcDbEntity
  8
03__ASM_ALL_CURVES
100
AcDbLine
 62
40
  6
CONTINUOUS
 10
6.6934038775
 20
3.5196774339
 11
6.6892284868
 21
3.5141102438
  0
LINE
  5
402
100
AcDbEntity
  8
03__ASM_ALL_CURVES
100
AcDbLine
 62
40
  6
CONTINUOUS
 10
6.6245099076
 20
3.4228083701
 11
6.6328606888
 21
3.4339427464
  0
LINE
  5
403
100
AcDbEntity
  8
03__ASM_ALL_CURVES
100
AcDbLine
 62
40
  6
CONTINUOUS
 10
6.7226316118
 20
3.5252446201
 11
6.7309823931
 21
3.5363789964
  0
LINE
  5
404
100
AcDbEntity
  8
03__ASM_ALL_CURVES
100
AcDbLine
 62
40
  6
CONTINUOUS
 10
7.5995425199
 20
4.1607314938
 11
7.5911917386
 21
4.1551643076
  0
LINE
  5
405
100
AcDbEntity
  8
03__ASM_ALL_CURVES
100
AcDbLine
 62
40
  6
CONTINUOUS
 10
7.6412964261
 20
4.1830002464
 11
7.6496472074
 21
4.1885674326
  0
LINE
  5
406
100
AcDbEntity
  8
03__ASM_ALL_CURVES
100
AcDbLine
 62
40
  6
CONTINUOUS
 10
6.6892284868
 20
3.5141102438
 11
6.6808777056
 21
3.5085430576
  0
LINE
  5
407
100
AcDbEntity
  8
03__ASM_ALL_CURVES
100
AcDbLine
 62
40
  6
CONTINUOUS
 10
6.7309823931
 20
3.5363789964
 11
6.7393331743
 21
3.5419461826
  0
LINE
  5
408
100
AcDbEntity
  8
03__ASM_ALL_CURVES
100
AcDbLine
 62
40
  6
CONTINUOUS
 10
7.6663487699
 20
4.1273283703
 11
7.6579979886
 21
4.1217611826
  0
LINE
  5
409
100
AcDbEntity
  8
03__ASM_ALL_CURVES
100
AcDbLine
 62
40
  6
CONTINUOUS
 10
6.6328606888
 20
3.4339427464
 11
6.6412114701
 21
3.4395099326
  0
LINE
  5
40A
100
AcDbEntity
  8
03__ASM_ALL_CURVES
100
AcDbLine
 62
40
  6
CONTINUOUS
 10
7.7331550199
 20
4.1607314938
 11
7.7248042386
 21
4.1551643076
  0
LINE
  5
40B
100
AcDbEntity
  8
03__ASM_ALL_CURVES
100
AcDbLine
 62
40
  6
CONTINUOUS
 10
6.7560347368
 20
3.4807071203
 11
6.7476839556
 21
3.4751399326
  0
LINE
  5
40C
100
AcDbEntity
  8
03__ASM_ALL_CURVES
100
AcDbLine
 62
40
  6
CONTINUOUS
 10
6.8228409868
 20
3.5141102438
 11
6.8144902056
 21
3.5085430576
  0
LINE
  5
40D
100
AcDbEntity
  8
03__ASM_ALL_CURVES
100
AcDbLine
 62
40
  6
CONTINUOUS
 10
3.7443147853
 20
5.0769261826
 11
3.8512047853
 21
5.0947411826
  0
LINE
  5
40E
100
AcDbEntity
  8
03__ASM_ALL_CURVES
100
AcDbLine
 62
40
  6
CONTINUOUS
 10
6.5310613481
 20
5.1125561826
 11
6.5199269731
 21
5.1199790995
  0
LINE
  5
40F
100
AcDbEntity
  8
03__ASM_ALL_CURVES
100
AcDbLine
 62
40
  6
CONTINUOUS
 10
6.5421957231
 20
5.2016311826
 11
6.5533300981
 21
5.1942082677
  0
LINE
  5
410
100
AcDbEntity
  8
03__ASM_ALL_CURVES
100
AcDbLine
 62
40
  6
CONTINUOUS
 10
6.7092113481
 20
5.1125561826
 11
6.6980769731
 21
5.1199790995
  0
LINE
  5
411
100
AcDbEntity
  8
0
100
AcDbLine
 62
7
  6
CONTINUOUS
 10
7.3073147853
 20
4.4314461826
 11
7.2923147853
 21
4.4464461826
  0
LINE
  5
412
100
AcDbEntity
  8
03__ASM_ALL_CURVES
100
AcDbLine
 62
40
  6
CONTINUOUS
 10
6.5199269731
 20
5.1199790995
 11
6.5087925981
 21
5.1348249326
  0
LINE
  5
413
100
AcDbEntity
  8
03__ASM_ALL_CURVES
100
AcDbLine
 62
40
  6
CONTINUOUS
 10
6.5533300981
 20
5.1942082677
 11
6.5588972856
 21
5.1867853475
  0
LINE
  5
414
100
AcDbEntity
  8
03__ASM_ALL_CURVES
100
AcDbLine
 62
40
  6
CONTINUOUS
 10
6.6980769731
 20
5.1199790995
 11
6.6869425981
 21
5.1348249326
  0
LINE
  5
415
100
AcDbEntity
  8
0
100
AcDbLine
 62
7
  6
CONTINUOUS
 10
7.0263147853
 20
3.7664461826
 11
7.0263147853
 21
4.4414461826
  0
LINE
  5
416
100
AcDbEntity
  8
0
100
AcDbLine
 62
7
  6
CONTINUOUS
 10
7.0313147853
 20
3.7614461826
 11
7.0313147853
 21
4.4464461826
  0
LINE
  5
417
100
AcDbEntity
  8
03__ASM_ALL_CURVES
100
AcDbLine
 62
40
  6
CONTINUOUS
 10
7.0488097856
 20
5.2016311826
 11
7.0488097856
 21
5.1125561826
  0
LINE
  5
418
100
AcDbEntity
  8
0
100
AcDbLine
 62
7
  6
CONTINUOUS
 10
7.0943147853
 20
3.7614461826
 11
7.0943147853
 21
4.4464461826
  0
LINE
  5
419
100
AcDbEntity
  8
0
100
AcDbLine
 62
7
  6
CONTINUOUS
 10
7.0993147853
 20
3.7619467026
 11
7.0993147853
 21
4.4459456626
  0
LINE
  5
41A
100
AcDbEntity
  8
03__ASM_ALL_CURVES
100
AcDbLine
 62
40
  6
CONTINUOUS
 10
7.1378847856
 20
5.1125561826
 11
7.1378847856
 21
5.2016311826
  0
LINE
  5
41B
100
AcDbEntity
  8
0
100
AcDbLine
 62
7
  6
CONTINUOUS
 10
7.1493147853
 20
3.7619467026
 11
7.1493147853
 21
4.4459456626
  0
LINE
  5
41C
100
AcDbEntity
  8
03__ASM_ALL_CURVES
100
AcDbLine
 62
40
  6
CONTINUOUS
 10
6.9314011431
 20
3.4918414951
 11
6.9272257525
 21
3.4751399326
  0
LINE
  5
41D
100
AcDbEntity
  8
03__ASM_ALL_CURVES
100
AcDbLine
 62
40
  6
CONTINUOUS
 10
6.6662638138
 20
3.3894052451
 11
6.6579130326
 21
3.3782708703
  0
LINE
  5
41E
100
AcDbEntity
  8
03__ASM_ALL_CURVES
100
AcDbLine
 62
40
  6
CONTINUOUS
 10
6.7643855181
 20
3.4918414951
 11
6.7560347368
 21
3.4807071203
  0
LINE
  5
41F
100
AcDbEntity
  8
03__ASM_ALL_CURVES
100
AcDbLine
 62
40
  6
CONTINUOUS
 10
6.8270163775
 20
3.5196774339
 11
6.8228409868
 21
3.5141102438
  0
LINE
  5
420
100
AcDbEntity
  8
03__ASM_ALL_CURVES
100
AcDbLine
 62
40
  6
CONTINUOUS
 10
6.7288946732
 20
3.3838380579
 11
6.7247192826
 21
3.3782708703
  0
LINE
  5
421
100
AcDbEntity
  8
03__ASM_ALL_CURVES
100
AcDbLine
 62
40
  6
CONTINUOUS
 10
6.9272257525
 20
3.5308118063
 11
6.9314011431
 21
3.5363789964
  0
LINE
  5
422
100
AcDbEntity
  8
0
100
AcDbLine
 62
7
  6
CONTINUOUS
 10
7.0993147853
 20
3.7664461826
 11
7.0943147853
 21
3.7614461826
  0
LINE
  5
423
100
AcDbEntity
  8
03__ASM_ALL_CURVES
100
AcDbLine
 62
40
  6
CONTINUOUS
 10
6.6579130326
 20
3.3782708703
 11
6.6495622513
 21
3.3727036826
  0
LINE
  5
424
100
AcDbEntity
  8
03__ASM_ALL_CURVES
100
AcDbLine
 62
40
  6
CONTINUOUS
 10
6.9314011431
 20
3.5363789964
 11
6.9397519243
 21
3.5419461826
  0
LINE
  5
425
100
AcDbEntity
  8
03__ASM_ALL_CURVES
100
AcDbLine
 62
40
  6
CONTINUOUS
 10
6.7247192826
 20
3.3782708703
 11
6.7163685013
 21
3.3727036826
  0
LINE
  5
426
100
AcDbEntity
  8
03__ASM_ALL_CURVES
100
AcDbLine
 62
40
  6
CONTINUOUS
 10
6.9564534868
 20
3.5141102438
 11
6.9397519243
 21
3.5029758694
  0
LINE
  5
427
100
AcDbEntity
  8
03__ASM_ALL_CURVES
100
AcDbLine
 62
40
  6
CONTINUOUS
 10
6.6980769731
 20
5.1719395177
 11
6.7314800981
 21
5.149670765
  0
LINE
  5
428
100
AcDbEntity
  8
03__ASM_ALL_CURVES
100
AcDbLine
 62
40
  6
CONTINUOUS
 10
6.7314800981
 20
5.1942082677
 11
6.7203457231
 21
5.2016311826
  0
LINE
  5
429
100
AcDbEntity
  8
03__ASM_ALL_CURVES
100
AcDbLine
 62
40
  6
CONTINUOUS
 10
6.8873613481
 20
5.1125561826
 11
6.8762269731
 21
5.1199790995
  0
LINE
  5
42A
100
AcDbEntity
  8
03__ASM_ALL_CURVES
100
AcDbLine
 62
40
  6
CONTINUOUS
 10
6.9764363481
 20
5.1125561826
 11
6.9653019731
 21
5.1199790995
  0
LINE
  5
42B
100
AcDbEntity
  8
03__ASM_ALL_CURVES
100
AcDbLine
 62
40
  6
CONTINUOUS
 10
6.8984957231
 20
5.2016311826
 11
6.9096300981
 21
5.1942082677
  0
LINE
  5
42C
100
AcDbEntity
  8
03__ASM_ALL_CURVES
100
AcDbLine
 62
40
  6
CONTINUOUS
 10
6.6925097856
 20
5.1793624326
 11
6.6980769731
 21
5.1719395177
  0
LINE
  5
42D
100
AcDbEntity
  8
03__ASM_ALL_CURVES
100
AcDbLine
 62
40
  6
CONTINUOUS
 10
6.7314800981
 20
5.149670765
 11
6.7370472856
 21
5.1422478501
  0
LINE
  5
42E
100
AcDbEntity
  8
03__ASM_ALL_CURVES
100
AcDbLine
 62
40
  6
CONTINUOUS
 10
6.7370472856
 20
5.1867853475
 11
6.7314800981
 21
5.1942082677
  0
LINE
  5
42F
100
AcDbEntity
  8
03__ASM_ALL_CURVES
100
AcDbLine
 62
40
  6
CONTINUOUS
 10
6.8762269731
 20
5.1199790995
 11
6.8650925981
 21
5.1348249326
  0
LINE
  5
430
100
AcDbEntity
  8
03__ASM_ALL_CURVES
100
AcDbLine
 62
40
  6
CONTINUOUS
 10
6.8650925981
 20
5.1348249326
 11
6.8595254106
 21
5.1570936826
  0
LINE
  5
431
100
AcDbEntity
  8
03__ASM_ALL_CURVES
100
AcDbLine
 62
40
  6
CONTINUOUS
 10
6.9207644731
 20
5.1793624326
 11
6.9263316606
 21
5.1570936826
  0
LINE
  5
432
100
AcDbEntity
  8
0
100
AcDbLine
 62
7
  6
CONTINUOUS
 10
7.2193147853
 20
4.4269461826
 11
7.2193147853
 21
3.7809461826
  0
LINE
  5
433
100
AcDbEntity
  8
03__ASM_ALL_CURVES
100
AcDbLine
 62
40
  6
CONTINUOUS
 10
7.2269597856
 20
5.1125561826
 11
7.2269597856
 21
5.2016311826
  0
LINE
  5
434
100
AcDbEntity
  8
0
100
AcDbLine
 62
7
  6
CONTINUOUS
 10
7.2403147853
 20
3.7664461826
 11
7.2403147853
 21
4.4414461826
  0
LINE
  5
435
100
AcDbEntity
  8
0
100
AcDbLine
 62
7
  6
CONTINUOUS
 10
7.2453147853
 20
3.7614461826
 11
7.2453147853
 21
4.4464461826
  0
LINE
  5
436
100
AcDbEntity
  8
0
100
AcDbLine
 62
7
  6
CONTINUOUS
 10
7.2923147853
 20
3.7614461826
 11
7.2923147853
 21
4.4464461826
  0
LINE
  5
437
100
AcDbEntity
  8
0
100
AcDbLine
 62
7
  6
CONTINUOUS
 10
7.3073147853
 20
3.7764519068
 11
7.3073147853
 21
4.4314404584
  0
LINE
  5
438
100
AcDbEntity
  8
03__ASM_ALL_CURVES
100
AcDbLine
 62
40
  6
CONTINUOUS
 10
7.3160347856
 20
5.1125561826
 11
7.3160347856
 21
5.2016311826
  0
LINE
  5
439
100
AcDbEntity
  8
03__ASM_ALL_CURVES
100
AcDbLine
 62
40
  6
CONTINUOUS
 10
6.9397519243
 20
3.5029758694
 11
6.9314011431
 21
3.4918414951
  0
LINE
  5
43A
100
AcDbEntity
  8
03__ASM_ALL_CURVES
100
AcDbLine
 62
40
  6
CONTINUOUS
 10
6.9606288775
 20
3.5196774339
 11
6.9564534868
 21
3.5141102438
  0
LINE
  5
43B
100
AcDbEntity
  8
03__ASM_ALL_CURVES
100
AcDbLine
 62
40
  6
CONTINUOUS
 10
7.6037179105
 20
4.1662986839
 11
7.5995425199
 21
4.1607314938
  0
LINE
  5
43C
100
AcDbEntity
  8
0
100
AcDbLine
 62
7
  6
CONTINUOUS
 10
7.3073147853
 20
3.7764461826
 11
7.2923147853
 21
3.7614461826
  0
LINE
  5
43D
100
AcDbEntity
  8
03__ASM_ALL_CURVES
100
AcDbLine
 62
40
  6
CONTINUOUS
 10
7.1601535356
 20
5.2016311826
 11
7.1712879106
 21
5.1942082677
  0
LINE
  5
43E
100
AcDbEntity
  8
03__ASM_ALL_CURVES
100
AcDbLine
 62
40
  6
CONTINUOUS
 10
7.6412964261
 20
4.1273283703
 11
7.6329456449
 21
4.1384627451
  0
LINE
  5
43F
100
AcDbEntity
  8
03__ASM_ALL_CURVES
100
AcDbLine
 62
40
  6
CONTINUOUS
 10
7.5995425199
 20
4.1830002464
 11
7.6037179105
 21
4.1774330563
  0
LINE
  5
440
100
AcDbEntity
  8
03__ASM_ALL_CURVES
100
AcDbLine
 62
40
  6
CONTINUOUS
 10
7.6663487699
 20
4.1830002464
 11
7.6746995511
 21
4.1718658701
  0
LINE
  5
441
100
AcDbEntity
  8
03__ASM_ALL_CURVES
100
AcDbLine
 62
40
  6
CONTINUOUS
 10
6.9096300981
 20
5.1942082677
 11
6.9207644731
 21
5.1793624326
  0
LINE
  5
442
100
AcDbEntity
  8
03__ASM_ALL_CURVES
100
AcDbLine
 62
40
  6
CONTINUOUS
 10
6.9653019731
 20
5.1199790995
 11
6.9597347856
 21
5.1274020164
  0
LINE
  5
443
100
AcDbEntity
  8
03__ASM_ALL_CURVES
100
AcDbLine
 62
40
  6
CONTINUOUS
 10
7.7331550199
 20
4.1830002464
 11
7.7373304105
 21
4.1774330563
  0
LINE
  5
444
100
AcDbEntity
  8
03__ASM_ALL_CURVES
100
AcDbLine
 62
40
  6
CONTINUOUS
 10
7.3605722856
 20
5.1867853475
 11
7.3605722856
 21
5.1719395177
  0
LINE
  5
445
100
AcDbEntity
  8
03__ASM_ALL_CURVES
100
AcDbLine
 62
40
  6
CONTINUOUS
 10
7.6329456449
 20
4.1718658701
 11
7.6412964261
 21
4.1830002464
  0
LINE
  5
446
100
AcDbEntity
  8
03__ASM_ALL_CURVES
100
AcDbLine
 62
40
  6
CONTINUOUS
 10
7.6746995511
 20
4.1384627451
 11
7.6663487699
 21
4.1273283703
  0
LINE
  5
447
100
AcDbEntity
  8
03__ASM_ALL_CURVES
100
AcDbLine
 62
40
  6
CONTINUOUS
 10
7.7373304105
 20
4.1662986839
 11
7.7331550199
 21
4.1607314938
  0
LINE
  5
448
100
AcDbEntity
  8
03__ASM_ALL_CURVES
100
AcDbLine
 62
40
  6
CONTINUOUS
 10
7.3438707231
 20
5.2016311826
 11
7.3550050981
 21
5.1942082677
  0
LINE
  5
449
100
AcDbEntity
  8
03__ASM_ALL_CURVES
100
AcDbLine
 62
40
  6
CONTINUOUS
 10
7.1712879106
 20
5.1942082677
 11
7.1824222856
 21
5.1793624326
  0
LINE
  5
44A
100
AcDbEntity
  8
03__ASM_ALL_CURVES
100
AcDbLine
 62
40
  6
CONTINUOUS
 10
7.6204194732
 20
4.0861311826
 11
7.6538225982
 21
4.0193249326
  0
LINE
  5
44B
100
AcDbEntity
  8
03__ASM_ALL_CURVES
100
AcDbLine
 62
40
  6
CONTINUOUS
 10
7.1824222856
 20
5.1793624326
 11
7.1879894731
 21
5.1570936826
  0
LINE
  5
44C
100
AcDbEntity
  8
03__ASM_ALL_CURVES
100
AcDbLine
 62
40
  6
CONTINUOUS
 10
7.5703147857
 20
4.0861311826
 11
7.5703147857
 21
4.0193249326
  0
LINE
  5
44D
100
AcDbEntity
  8
03__ASM_ALL_CURVES
100
AcDbLine
 62
40
  6
CONTINUOUS
 10
7.5703147855
 20
4.1217611826
 11
7.5703147855
 21
4.1885674326
  0
LINE
  5
44E
100
AcDbEntity
  8
03__ASM_ALL_CURVES
100
AcDbLine
 62
40
  6
CONTINUOUS
 10
7.6037179105
 20
4.1774330563
 11
7.6037179105
 21
4.1662986839
  0
LINE
  5
44F
100
AcDbEntity
  8
03__ASM_ALL_CURVES
100
AcDbLine
 62
40
  6
CONTINUOUS
 10
7.6204194732
 20
4.0193249326
 11
7.6204194732
 21
4.0861311826
  0
LINE
  5
450
100
AcDbEntity
  8
03__ASM_ALL_CURVES
100
AcDbLine
 62
40
  6
CONTINUOUS
 10
7.6287702543
 20
4.1551643076
 11
7.6329456449
 21
4.1718658701
  0
LINE
  5
451
100
AcDbEntity
  8
03__ASM_ALL_CURVES
100
AcDbLine
 62
40
  6
CONTINUOUS
 10
7.3550050981
 20
5.1942082677
 11
7.3605722856
 21
5.1867853475
  0
LINE
  5
452
100
AcDbEntity
  8
03__ASM_ALL_CURVES
100
AcDbLine
 62
40
  6
CONTINUOUS
 10
7.3438707231
 20
5.1570936826
 11
7.3605722856
 21
5.1125561826
  0
LINE
  5
453
100
AcDbEntity
  8
03__ASM_ALL_CURVES
100
AcDbLine
 62
40
  6
CONTINUOUS
 10
7.7248042386
 20
4.1551643076
 11
7.7373304105
 21
4.1217611826
  0
LINE
  5
454
100
AcDbEntity
  8
03__ASM_ALL_CURVES
100
AcDbLine
 62
40
  6
CONTINUOUS
 10
7.6329456449
 20
4.1384627451
 11
7.6287702543
 21
4.1551643076
  0
LINE
  5
455
100
AcDbEntity
  8
03__ASM_ALL_CURVES
100
AcDbLine
 62
40
  6
CONTINUOUS
 10
7.6746995511
 20
4.1718658701
 11
7.6788749418
 21
4.1551643076
  0
LINE
  5
456
100
AcDbEntity
  8
03__ASM_ALL_CURVES
100
AcDbLine
 62
40
  6
CONTINUOUS
 10
7.6538225982
 20
4.0193249326
 11
7.6538225982
 21
4.0861311826
  0
LINE
  5
457
100
AcDbEntity
  8
03__ASM_ALL_CURVES
100
AcDbLine
 62
40
  6
CONTINUOUS
 10
7.6872257232
 20
4.0861311826
 11
7.6872257232
 21
4.0193249326
  0
LINE
  5
458
100
AcDbEntity
  8
03__ASM_ALL_CURVES
100
AcDbLine
 62
40
  6
CONTINUOUS
 10
7.7039272855
 20
4.1217611826
 11
7.7039272855
 21
4.1885674326
  0
LINE
  5
459
100
AcDbEntity
  8
03__ASM_ALL_CURVES
100
AcDbLine
 62
40
  6
CONTINUOUS
 10
7.7373304105
 20
4.1774330563
 11
7.7373304105
 21
4.1662986839
  0
LINE
  5
45A
100
AcDbEntity
  8
03__ASM_ALL_CURVES
100
AcDbLine
 62
40
  6
CONTINUOUS
 10
7.7540319732
 20
4.0193249326
 11
7.7540319732
 21
4.0861311826
  0
LINE
  5
45B
100
AcDbEntity
  8
03__ASM_ALL_CURVES
100
AcDbLine
 62
40
  6
CONTINUOUS
 10
7.6788749418
 20
4.1551643076
 11
7.6746995511
 21
4.1384627451
  0
LINE
  5
45C
100
AcDbEntity
  8
03__ASM_ALL_CURVES
100
AcDbLine
 62
40
  6
CONTINUOUS
 10
7.787435098
 20
4.1885674326
 11
7.787435098
 21
4.1217611826
  0
LINE
  5
45D
100
AcDbEntity
  8
03__ASM_ALL_CURVES
100
AcDbLine
 62
40
  6
CONTINUOUS
 10
7.8375397857
 20
4.0861311826
 11
7.8375397857
 21
4.0193249326
  0
LINE
  5
45E
100
AcDbEntity
  8
03__ASM_ALL_CURVES
100
AcDbLine
 62
40
  6
CONTINUOUS
 10
7.854241348
 20
4.1885674326
 11
7.854241348
 21
4.1217611826
  0
ARC
  5
45F
100
AcDbEntity
  8
0
100
AcDbCircle
 62
7
  6
CONTINUOUS
 10
4.3113147853
 20
4.2809461826
 40
0.094
100
AcDbArc
 50
90.0
 51
131.267427381
  0
ARC
  5
460
100
AcDbEntity
  8
0
100
AcDbCircle
 62
7
  6
CONTINUOUS
 10
4.3113147853
 20
3.9269461826
 40
0.094
100
AcDbArc
 50
228.732572619
 51
270.0
  0
CIRCLE
  5
461
100
AcDbEntity
  8
0
100
AcDbCircle
 62
7
  6
CONTINUOUS
 10
6.9563147853
 20
4.1039461826
 40
0.0545
  0
ARC
  5
462
100
AcDbEntity
  8
0
100
AcDbCircle
 62
7
  6
CONTINUOUS
 10
3.9933147853
 20
3.9424461826
 40
0.0175
100
AcDbArc
 50
180.0
 51
360.0
  0
ARC
  5
463
100
AcDbEntity
  8
0
100
AcDbCircle
 62
7
  6
CONTINUOUS
 10
6.5423147853
 20
3.8229461826
 40
0.017
100
AcDbArc
 50
3.3722866834
 51
176.6277133166
  0
ARC
  5
464
100
AcDbEntity
  8
0
100
AcDbCircle
 62
7
  6
CONTINUOUS
 10
4.6973147853
 20
4.4619461826
 40
0.008
100
AcDbArc
 50
270.0
 51
360.0
  0
ARC
  5
465
100
AcDbEntity
  8
0
100
AcDbCircle
 62
7
  6
CONTINUOUS
 10
4.6753147853
 20
4.4619461826
 40
0.008
100
AcDbArc
 50
180.0
 51
270.0
  0
ARC
  5
466
100
AcDbEntity
  8
0
100
AcDbCircle
 62
7
  6
CONTINUOUS
 10
4.6973147853
 20
3.7459461826
 40
0.008
100
AcDbArc
 50
0.0
 51
90.0
  0
ARC
  5
467
100
AcDbEntity
  8
0
100
AcDbCircle
 62
7
  6
CONTINUOUS
 10
4.6753147853
 20
3.7459461826
 40
0.008
100
AcDbArc
 50
90.0
 51
180.0
  0
ARC
  5
468
100
AcDbEntity
  8
0
100
AcDbCircle
 62
7
  6
CONTINUOUS
 10
5.9306959832
 20
3.7454461826
 40
0.008
100
AcDbArc
 50
29.9999999771
 51
90.0
  0
ARC
  5
469
100
AcDbEntity
  8
0
100
AcDbCircle
 62
7
  6
CONTINUOUS
 10
5.9306959832
 20
4.4624461826
 40
0.008
100
AcDbArc
 50
270.0
 51
330.0000000114
  0
ARC
  5
46A
100
AcDbEntity
  8
0
100
AcDbCircle
 62
7
  6
CONTINUOUS
 10
5.7730372172
 20
3.6939461826
 40
0.005
100
AcDbArc
 50
90.0
 51
120.0000000334
  0
ARC
  5
46B
100
AcDbEntity
  8
0
100
AcDbCircle
 62
7
  6
CONTINUOUS
 10
5.7730372172
 20
4.5139461826
 40
0.005
100
AcDbArc
 50
239.9999999644
 51
270.0
  0
ARC
  5
46C
100
AcDbEntity
  8
0
100
AcDbCircle
 62
7
  6
CONTINUOUS
 10
5.7533147853
 20
3.6825594312
 40
0.005
100
AcDbArc
 50
120.0000000351
 51
179.9999999991
  0
ARC
  5
46D
100
AcDbEntity
  8
0
100
AcDbCircle
 62
7
  6
CONTINUOUS
 10
5.7533147853
 20
4.5253329339
 40
0.005
100
AcDbArc
 50
180.0000000012
 51
239.9999999561
  0
ARC
  5
46E
100
AcDbEntity
  8
0
100
AcDbCircle
 62
7
  6
CONTINUOUS
 10
4.7103147853
 20
4.4724461826
 40
0.005
100
AcDbArc
 50
90.0
 51
180.0
  0
ARC
  5
46F
100
AcDbEntity
  8
0
100
AcDbCircle
 62
7
  6
CONTINUOUS
 10
4.6623147853
 20
4.4724461826
 40
0.005
100
AcDbArc
 50
0.0
 51
90.0
  0
ARC
  5
470
100
AcDbEntity
  8
0
100
AcDbCircle
 62
7
  6
CONTINUOUS
 10
4.7103147853
 20
3.7354461826
 40
0.005
100
AcDbArc
 50
180.0
 51
270.0
  0
ARC
  5
471
100
AcDbEntity
  8
0
100
AcDbCircle
 62
7
  6
CONTINUOUS
 10
4.6623147853
 20
3.7354461826
 40
0.005
100
AcDbArc
 50
270.0
 51
360.0
  0
ARC
  5
472
100
AcDbEntity
  8
0
100
AcDbCircle
 62
7
  6
CONTINUOUS
 10
5.7453147853
 20
3.6794461826
 40
0.003
100
AcDbArc
 50
270.0
 51
360.0
  0
ARC
  5
473
100
AcDbEntity
  8
0
100
AcDbCircle
 62
7
  6
CONTINUOUS
 10
5.7453147853
 20
4.5284461826
 40
0.003
100
AcDbArc
 50
0.0
 51
90.0
  0
ARC
  5
474
100
AcDbEntity
  8
0
100
AcDbCircle
 62
7
  6
CONTINUOUS
 10
5.6853147853
 20
4.5234461826
 40
0.002
100
AcDbArc
 50
222.3553148142
 51
317.6446851858
  0
ARC
  5
475
100
AcDbEntity
  8
0
100
AcDbCircle
 62
7
  6
CONTINUOUS
 10
5.6853147853
 20
3.6844461826
 40
0.002
100
AcDbArc
 50
42.3553148142
 51
137.6446851858
  0
SPLINE
  5
476
100
AcDbEntity
  8
0
100
AcDbSpline
 62
7
  6
CONTINUOUS
 70
0
 71
3
 72
20
 73
16
 74
14
 42
0.0000001
 43
0.0000001
 44
0.0000000001
 12
0.0
 22
0.0416605862
 32
0.0
 13
0.0
 23
-0.0416605862
 33
0.0
 40
0.0
 40
0.0
 40
0.0
 40
0.0
 40
0.0489307848
 40
0.1062135912
 40
0.175871992
 40
0.2580136346
 40
0.3503828832
 40
0.4493672053
 40
0.5506327947
 40
0.6496171168
 40
0.7419863654
 40
0.824128008
 40
0.8937864088
 40
0.9510692152
 40
1.0
 40
1.0
 40
1.0
 40
1.0
 10
4.0108147853
 20
4.1800697514
 30
0.0
 10
4.0108147853
 20
4.1807492465
 30
0.0
 10
4.0103932514
 20
4.1822352575
 30
0.0
 10
4.0087579836
 20
4.1841136848
 30
0.0
 10
4.0063060631
 20
4.1857126851
 30
0.0
 10
4.0031468307
 20
4.1869874362
 30
0.0
 10
3.9994437371
 20
4.187879424
 30
0.0
 10
3.9953968281
 20
4.1883386617
 30
0.0
 10
3.9912327425
 20
4.1883386617
 30
0.0
 10
3.9871858336
 20
4.187879424
 30
0.0
 10
3.98348274
 20
4.1869874362
 30
0.0
 10
3.9803235076
 20
4.1857126851
 30
0.0
 10
3.9778715871
 20
4.1841136848
 30
0.0
 10
3.9762363193
 20
4.1822352575
 30
0.0
 10
3.9758147853
 20
4.1807492465
 30
0.0
 10
3.9758147853
 20
4.1800697514
 30
0.0
 11
4.0108147853
 21
4.1800697514
 31
0.0
 11
4.0103062671
 21
4.1820437907
 31
0.0
 11
4.0088102658
 21
4.183903106
 31
0.0
 11
4.0064137234
 21
4.1855396406
 31
0.0
 11
4.0032559184
 21
4.1868582852
 31
0.0
 11
3.9995203709
 21
4.1877824049
 31
0.0
 11
3.9954241772
 21
4.1882582932
 31
0.0
 11
3.9912053934
 21
4.1882582932
 31
0.0
 11
3.9871091998
 21
4.1877824049
 31
0.0
 11
3.9833736523
 21
4.1868582852
 31
0.0
 11
3.9802158472
 21
4.1855396406
 31
0.0
 11
3.9778193049
 21
4.183903106
 31
0.0
 11
3.9763233035
 21
4.1820437907
 31
0.0
 11
3.9758147853
 21
4.1800697514
 31
0.0
  0
SPLINE
  5
477
100
AcDbEntity
  8
0
100
AcDbSpline
 62
7
  6
CONTINUOUS
 70
0
 71
3
 72
15
 73
11
 74
9
 42
0.0000001
 43
0.0000001
 44
0.0000000001
 12
0.0
 22
0.1099409465
 32
0.0
 13
0.0
 23
-0.1099409465
 33
0.0
 40
0.0
 40
0.0
 40
0.0
 40
0.0
 40
0.125
 40
0.25
 40
0.375
 40
0.5
 40
0.625
 40
0.75
 40
0.875
 40
1.0
 40
1.0
 40
1.0
 40
1.0
 10
7.2193147853
 20
4.4269461826
 30
0.0
 10
7.2193147853
 20
4.4315270554
 30
0.0
 10
7.2174924008
 20
4.4406888009
 30
0.0
 10
7.2097078329
 20
4.4523392302
 30
0.0
 10
7.1980574036
 20
4.4601237981
 30
0.0
 10
7.1843147853
 20
4.4628573748
 30
0.0
 10
7.170572167
 20
4.4601237981
 30
0.0
 10
7.1589217378
 20
4.4523392302
 30
0.0
 10
7.1511371698
 20
4.4406888009
 30
0.0
 10
7.1493147853
 20
4.4315270554
 30
0.0
 10
7.1493147853
 20
4.4269461826
 30
0.0
 11
7.2193147853
 21
4.4269461826
 31
0.0
 11
7.216650569
 21
4.4403401027
 31
0.0
 11
7.2090635227
 21
4.4516949199
 31
0.0
 11
7.1977087055
 21
4.4592819662
 31
0.0
 11
7.1843147853
 21
4.4619461826
 31
0.0
 11
7.1709208652
 21
4.4592819662
 31
0.0
 11
7.159566048
 21
4.4516949199
 31
0.0
 11
7.1519790017
 21
4.4403401027
 31
0.0
 11
7.1493147853
 21
4.4269461826
 31
0.0
  0
SPLINE
  5
478
100
AcDbEntity
  8
0
100
AcDbSpline
 62
7
  6
CONTINUOUS
 70
0
 71
3
 72
15
 73
11
 74
9
 42
0.0000001
 43
0.0000001
 44
0.0000000001
 12
0.0
 22
-0.1099409465
 32
0.0
 13
0.0
 23
0.1099409465
 33
0.0
 40
0.0
 40
0.0
 40
0.0
 40
0.0
 40
0.125
 40
0.25
 40
0.375
 40
0.5
 40
0.625
 40
0.75
 40
0.875
 40
1.0
 40
1.0
 40
1.0
 40
1.0
 10
7.2193147853
 20
3.7809461826
 30
0.0
 10
7.2193147853
 20
3.7763653098
 30
0.0
 10
7.2174924008
 20
3.7672035643
 30
0.0
 10
7.2097078329
 20
3.755553135
 30
0.0
 10
7.1980574036
 20
3.7477685671
 30
0.0
 10
7.1843147853
 20
3.7450349903
 30
0.0
 10
7.170572167
 20
3.7477685671
 30
0.0
 10
7.1589217378
 20
3.755553135
 30
0.0
 10
7.1511371698
 20
3.7672035643
 30
0.0
 10
7.1493147853
 20
3.7763653098
 30
0.0
 10
7.1493147853
 20
3.7809461826
 30
0.0
 11
7.2193147853
 21
3.7809461826
 31
0.0
 11
7.216650569
 21
3.7675522625
 31
0.0
 11
7.2090635227
 21
3.7561974453
 31
0.0
 11
7.1977087055
 21
3.748610399
 31
0.0
 11
7.1843147853
 21
3.7459461826
 31
0.0
 11
7.1709208652
 21
3.748610399
 31
0.0
 11
7.159566048
 21
3.7561974453
 31
0.0
 11
7.1519790017
 21
3.7675522625
 31
0.0
 11
7.1493147853
 21
3.7809461826
 31
0.0
  0
SPLINE
  5
479
100
AcDbEntity
  8
0
100
AcDbSpline
 62
7
  6
CONTINUOUS
 70
0
 71
3
 72
14
 73
10
 74
8
 42
0.0000001
 43
0.0000001
 44
0.0000000001
 12
0.0
 22
0.0923501321
 32
0.0
 13
-0.0445331995
 23
-0.0809161858
 33
0.0
 40
0.0
 40
0.0
 40
0.0
 40
0.0
 40
0.1488099475
 40
0.297619895
 40
0.4464298425
 40
0.59523979
 40
0.7440497375
 40
0.892859685
 40
1.0
 40
1.0
 40
1.0
 40
1.0
 10
5.8653147853
 20
4.4894461826
 30
0.0
 10
5.8653147853
 20
4.4940270554
 30
0.0
 10
5.8634924008
 20
4.5031888009
 30
0.0
 10
5.8557078329
 20
4.5148392302
 30
0.0
 10
5.8440574036
 20
4.5226237981
 30
0.0
 10
5.8303147853
 20
4.5253573748
 30
0.0
 10
5.816572167
 20
4.5226237981
 30
0.0
 10
5.8060091855
 20
4.5155658395
 30
0.0
 10
5.8012357653
 20
4.5091966519
 30
0.0
 10
5.7996453316
 20
4.5063068567
 30
0.0
 11
5.8653147853
 21
4.4894461826
 31
0.0
 11
5.862650569
 21
4.5028401027
 31
0.0
 11
5.8550635227
 21
4.5141949199
 31
0.0
 11
5.8437087055
 21
4.5217819662
 31
0.0
 11
5.8303147853
 21
4.5244461826
 31
0.0
 11
5.8169208652
 21
4.5217819662
 31
0.0
 11
5.805566048
 21
4.5141949199
 31
0.0
 11
5.7996453316
 21
4.5063068567
 31
0.0
  0
SPLINE
  5
47A
100
AcDbEntity
  8
0
100
AcDbSpline
 62
7
  6
CONTINUOUS
 70
0
 71
3
 72
9
 73
5
 74
3
 42
0.0000001
 43
0.0000001
 44
0.0000000001
 12
-0.0084826651
 22
-0.0154128811
 32
0.0
 13
0.0
 23
-0.0175908144
 33
0.0
 40
0.0
 40
0.0
 40
0.0
 40
0.0
 40
0.2187616778
 40
1.0
 40
1.0
 40
1.0
 40
1.0
 10
5.7996453316
 20
4.5063068567
 30
0.0
 10
5.7990267709
 20
4.5051829408
 30
0.0
 10
5.7964811288
 20
4.4998906602
 30
0.0
 10
5.7953147853
 20
4.4940270554
 30
0.0
 10
5.7953147853
 20
4.4894461826
 30
0.0
 11
5.7996453316
 21
4.5063068567
 31
0.0
 11
5.7979790017
 21
4.5028401027
 31
0.0
 11
5.7953147853
 21
4.4894461826
 31
0.0
  0
SPLINE
  5
47B
100
AcDbEntity
  8
0
100
AcDbSpline
 62
7
  6
CONTINUOUS
 70
0
 71
3
 72
14
 73
10
 74
8
 42
0.0000001
 43
0.0000001
 44
0.0000000001
 12
0.0
 22
-0.0923501321
 32
0.0
 13
-0.0445331995
 23
0.0809161858
 33
0.0
 40
0.0
 40
0.0
 40
0.0
 40
0.0
 40
0.1488099475
 40
0.297619895
 40
0.4464298425
 40
0.59523979
 40
0.7440497375
 40
0.892859685
 40
1.0
 40
1.0
 40
1.0
 40
1.0
 10
5.8653147853
 20
3.7184461826
 30
0.0
 10
5.8653147853
 20
3.7138653098
 30
0.0
 10
5.8634924008
 20
3.7047035643
 30
0.0
 10
5.8557078329
 20
3.693053135
 30
0.0
 10
5.8440574036
 20
3.6852685671
 30
0.0
 10
5.8303147853
 20
3.6825349903
 30
0.0
 10
5.816572167
 20
3.6852685671
 30
0.0
 10
5.8060091855
 20
3.6923265257
 30
0.0
 10
5.8012357653
 20
3.6986957133
 30
0.0
 10
5.7996453316
 20
3.7015855085
 30
0.0
 11
5.8653147853
 21
3.7184461826
 31
0.0
 11
5.862650569
 21
3.7050522625
 31
0.0
 11
5.8550635227
 21
3.6936974453
 31
0.0
 11
5.8437087055
 21
3.686110399
 31
0.0
 11
5.8303147853
 21
3.6834461826
 31
0.0
 11
5.8169208652
 21
3.686110399
 31
0.0
 11
5.805566048
 21
3.6936974453
 31
0.0
 11
5.7996453316
 21
3.7015855085
 31
0.0
  0
SPLINE
  5
47C
100
AcDbEntity
  8
0
100
AcDbSpline
 62
7
  6
CONTINUOUS
 70
0
 71
3
 72
9
 73
5
 74
3
 42
0.0000001
 43
0.0000001
 44
0.0000000001
 12
-0.0084826651
 22
0.0154128811
 32
0.0
 13
0.0
 23
0.0175908144
 33
0.0
 40
0.0
 40
0.0
 40
0.0
 40
0.0
 40
0.2187616778
 40
1.0
 40
1.0
 40
1.0
 40
1.0
 10
5.7996453316
 20
3.7015855085
 30
0.0
 10
5.7990267709
 20
3.7027094244
 30
0.0
 10
5.7964811288
 20
3.708001705
 30
0.0
 10
5.7953147853
 20
3.7138653098
 30
0.0
 10
5.7953147853
 20
3.7184461826
 30
0.0
 11
5.7996453316
 21
3.7015855085
 31
0.0
 11
5.7979790017
 21
3.7050522625
 31
0.0
 11
5.7953147853
 21
3.7184461826
 31
0.0
  0
SPLINE
  5
47D
100
AcDbEntity
  8
0
100
AcDbSpline
 62
7
  6
CONTINUOUS
 70
0
 71
3
 72
16
 73
12
 74
10
 42
0.0000001
 43
0.0000001
 44
0.0000000001
 12
0.0906480335
 22
0.2719441006
 32
0.0
 13
-0.0906480335
 23
0.2719441006
 33
0.0
 40
0.0
 40
0.0
 40
0.0
 40
0.0
 40
0.1184548733
 40
0.230565332
 40
0.3393089466
 40
0.4465959239
 40
0.5535015371
 40
0.6607803311
 40
0.769505023
 40
0.8815660643
 40
1.0
 40
1.0
 40
1.0
 40
1.0
 10
4.499443375
 20
3.8229461826
 30
0.0
 10
4.5030226087
 20
3.8336838839
 30
0.0
 10
4.5094536954
 20
3.8547699308
 30
0.0
 10
4.516973125
 20
3.8863309856
 30
0.0
 10
4.5220613525
 20
3.9172998037
 30
0.0
 10
4.5246482147
 20
3.9480828733
 30
0.0
 10
4.5246470264
 20
3.9788366743
 30
0.0
 10
4.5220581858
 20
4.0096169657
 30
0.0
 10
4.516969451
 20
4.0405782675
 30
0.0
 10
4.5094511943
 20
4.0721307991
 30
0.0
 10
4.5030219761
 20
4.0932103792
 30
0.0
 10
4.499443375
 20
4.1039461826
 30
0.0
 11
4.499443375
 21
3.8229461826
 31
0.0
 11
4.5092818445
 21
3.8554452105
 31
0.0
 11
4.516669015
 21
3.8867216009
 31
0.0
 11
4.5216736324
 21
3.9174890534
 31
0.0
 11
4.5242205977
 21
3.9481376746
 31
0.0
 11
4.5242194276
 21
3.9787826231
 31
0.0
 11
4.5216704875
 21
4.0094287262
 31
0.0
 11
4.5166650484
 21
4.0401905494
 31
0.0
 11
4.509280277
 21
4.071452951
 31
0.0
 11
4.499443375
 21
4.1039461826
 31
0.0
  0
SPLINE
  5
47E
100
AcDbEntity
  8
0
100
AcDbSpline
 62
7
  6
CONTINUOUS
 70
0
 71
3
 72
17
 73
13
 74
11
 42
0.0000001
 43
0.0000001
 44
0.0000000001
 12
-0.1487434696
 22
0.2576312467
 32
0.0
 13
0.1487434696
 23
0.2576312467
 33
0.0
 40
0.0
 40
0.0
 40
0.0
 40
0.0
 40
0.1169386465
 40
0.2216811606
 40
0.3184580982
 40
0.4103908543
 40
0.5000417254
 40
0.5896883004
 40
0.6816074548
 40
0.7783545182
 40
0.8830694657
 40
1.0
 40
1.0
 40
1.0
 40
1.0
 10
4.3977856366
 20
3.8229461826
 30
0.0
 10
4.3919876833
 20
3.8329885324
 30
0.0
 10
4.3816478557
 20
3.8524183798
 30
0.0
 10
4.3692742322
 20
3.8815204574
 30
0.0
 10
4.3606207855
 20
3.9093620201
 30
0.0
 10
4.3554636809
 20
3.9365453397
 30
0.0
 10
4.3537468006
 20
3.9634582246
 30
0.0
 10
4.3554666862
 20
3.9903695494
 30
0.0
 10
4.3606254379
 20
4.01754769
 30
0.0
 10
4.3692782897
 20
4.045381996
 30
0.0
 10
4.3816498771
 20
4.0744778357
 30
0.0
 10
4.3919880855
 20
4.0939045295
 30
0.0
 10
4.3977856366
 20
4.1039461826
 30
0.0
 11
4.3977856366
 21
3.8229461826
 31
0.0
 11
4.3815594052
 21
3.8537178396
 31
0.0
 11
4.3694746487
 21
3.8824384762
 31
0.0
 11
4.3610219754
 21
3.9099595448
 31
0.0
 11
4.35598909
 21
3.93684126
 31
0.0
 11
4.3543147857
 21
3.9634586161
 31
0.0
 11
4.355992028
 21
3.9900745066
 31
0.0
 11
4.3610266747
 21
4.0169517753
 31
0.0
 11
4.3694782897
 21
4.0444638719
 31
0.0
 11
4.3815604409
 21
4.0731767076
 31
0.0
 11
4.3977856366
 21
4.1039461826
 31
0.0
  0
SPLINE
  5
47F
100
AcDbEntity
  8
0
100
AcDbSpline
 62
7
  6
CONTINUOUS
 70
0
 71
3
 72
16
 73
12
 74
10
 42
0.0000001
 43
0.0000001
 44
0.0000000001
 12
0.0906480335
 22
0.2719441006
 32
0.0
 13
-0.0906480335
 23
0.2719441006
 33
0.0
 40
0.0
 40
0.0
 40
0.0
 40
0.0
 40
0.1184548733
 40
0.230565332
 40
0.3393089466
 40
0.4465959239
 40
0.5535015371
 40
0.6607803311
 40
0.769505023
 40
0.8815660643
 40
1.0
 40
1.0
 40
1.0
 40
1.0
 10
4.499443375
 20
4.1039461826
 30
0.0
 10
4.5030226087
 20
4.1146838839
 30
0.0
 10
4.5094536954
 20
4.1357699308
 30
0.0
 10
4.516973125
 20
4.1673309856
 30
0.0
 10
4.5220613525
 20
4.1982998037
 30
0.0
 10
4.5246482147
 20
4.2290828733
 30
0.0
 10
4.5246470264
 20
4.2598366743
 30
0.0
 10
4.5220581858
 20
4.2906169657
 30
0.0
 10
4.516969451
 20
4.3215782675
 30
0.0
 10
4.5094511943
 20
4.3531307991
 30
0.0
 10
4.5030219761
 20
4.3742103792
 30
0.0
 10
4.499443375
 20
4.3849461826
 30
0.0
 11
4.499443375
 21
4.1039461826
 31
0.0
 11
4.5092818445
 21
4.1364452105
 31
0.0
 11
4.516669015
 21
4.1677216009
 31
0.0
 11
4.5216736324
 21
4.1984890534
 31
0.0
 11
4.5242205977
 21
4.2291376746
 31
0.0
 11
4.5242194276
 21
4.2597826231
 31
0.0
 11
4.5216704875
 21
4.2904287262
 31
0.0
 11
4.5166650484
 21
4.3211905494
 31
0.0
 11
4.509280277
 21
4.352452951
 31
0.0
 11
4.499443375
 21
4.3849461826
 31
0.0
  0
SPLINE
  5
480
100
AcDbEntity
  8
0
100
AcDbSpline
 62
7
  6
CONTINUOUS
 70
0
 71
3
 72
17
 73
13
 74
11
 42
0.0000001
 43
0.0000001
 44
0.0000000001
 12
-0.1487434696
 22
0.2576312467
 32
0.0
 13
0.1487434696
 23
0.2576312467
 33
0.0
 40
0.0
 40
0.0
 40
0.0
 40
0.0
 40
0.1169386465
 40
0.2216811606
 40
0.3184580982
 40
0.4103908543
 40
0.5000417254
 40
0.5896883004
 40
0.6816074548
 40
0.7783545182
 40
0.8830694657
 40
1.0
 40
1.0
 40
1.0
 40
1.0
 10
4.3977856366
 20
4.1039461826
 30
0.0
 10
4.3919876833
 20
4.1139885324
 30
0.0
 10
4.3816478557
 20
4.1334183798
 30
0.0
 10
4.3692742322
 20
4.1625204574
 30
0.0
 10
4.3606207855
 20
4.1903620201
 30
0.0
 10
4.3554636809
 20
4.2175453397
 30
0.0
 10
4.3537468006
 20
4.2444582246
 30
0.0
 10
4.3554666862
 20
4.2713695494
 30
0.0
 10
4.3606254379
 20
4.29854769
 30
0.0
 10
4.3692782897
 20
4.326381996
 30
0.0
 10
4.3816498771
 20
4.3554778357
 30
0.0
 10
4.3919880855
 20
4.3749045295
 30
0.0
 10
4.3977856366
 20
4.3849461826
 30
0.0
 11
4.3977856366
 21
4.1039461826
 31
0.0
 11
4.3815594052
 21
4.1347178396
 31
0.0
 11
4.3694746487
 21
4.1634384762
 31
0.0
 11
4.3610219754
 21
4.1909595448
 31
0.0
 11
4.35598909
 21
4.21784126
 31
0.0
 11
4.3543147857
 21
4.2444586161
 31
0.0
 11
4.355992028
 21
4.2710745066
 31
0.0
 11
4.3610266747
 21
4.2979517753
 31
0.0
 11
4.3694782897
 21
4.3254638719
 31
0.0
 11
4.3815604409
 21
4.3541767076
 31
0.0
 11
4.3977856366
 21
4.3849461826
 31
0.0
  0
SPLINE
  5
481
100
AcDbEntity
  8
0
100
AcDbSpline
 62
7
  6
CONTINUOUS
 70
0
 71
3
 72
14
 73
10
 74
8
 42
0.0000001
 43
0.0000001
 44
0.0000000001
 12
-0.0756798031
 22
0.0
 32
0.0
 13
0.0000430686
 23
-0.0759682058
 33
0.0
 40
0.0
 40
0.0
 40
0.0
 40
0.0
 40
0.1597772872
 40
0.3181135913
 40
0.4725872007
 40
0.6200554513
 40
0.7574448074
 40
0.8834901399
 40
1.0
 40
1.0
 40
1.0
 40
1.0
 10
6.9563147853
 20
3.9482803225
 30
0.0
 10
6.9522841475
 20
3.9482803225
 30
0.0
 10
6.9442385589
 20
3.9475224436
 30
0.0
 10
6.9327245719
 20
3.9441762653
 30
0.0
 10
6.922328284
 20
3.9388407491
 30
0.0
 10
6.9135994506
 20
3.9318862497
 30
0.0
 10
6.9069901371
 20
3.923787196
 30
0.0
 10
6.9028269997
 20
3.9150354123
 30
0.0
 10
6.9018131177
 20
3.9089067024
 30
0.0
 10
6.9018147903
 20
3.9059563541
 30
0.0
 11
6.9563147853
 21
3.9482803225
 31
0.0
 11
6.9442765729
 21
3.9471419827
 31
0.0
 11
6.9327728622
 21
3.9437873468
 31
0.0
 11
6.9223848947
 21
3.9384246351
 31
0.0
 11
6.9136880502
 21
3.9314304437
 31
0.0
 11
6.9071750792
 21
3.9233254278
 31
0.0
 11
6.9031664269
 21
3.9146695126
 31
0.0
 11
6.9018147903
 21
3.9059563541
 31
0.0
  0
SPLINE
  5
482
100
AcDbEntity
  8
0
100
AcDbSpline
 62
7
  6
CONTINUOUS
 70
0
 71
3
 72
14
 73
10
 74
8
 42
0.0000001
 43
0.0000001
 44
0.0000000001
 12
0.0756798035
 22
0.0
 32
0.0
 13
-0.0000430735
 23
0.0759682059
 33
0.0
 40
0.0
 40
0.0
 40
0.0
 40
0.0
 40
0.1597786831
 40
0.3181170899
 40
0.4725918032
 40
0.6200583893
 40
0.7574472053
 40
0.8834914924
 40
1.0
 40
1.0
 40
1.0
 40
1.0
 10
6.9563147853
 20
4.2596120427
 30
0.0
 10
6.9603454584
 20
4.2596120427
 30
0.0
 10
6.9683911358
 20
4.2603699366
 30
0.0
 10
6.9799052271
 20
4.2637161817
 30
0.0
 10
6.9903015243
 20
4.2690517695
 30
0.0
 10
6.9990302975
 20
4.276006297
 30
0.0
 10
7.0056395232
 20
4.2841053159
 30
0.0
 10
7.009802593
 20
4.2928570482
 30
0.0
 10
7.0108164531
 20
4.2989856963
 30
0.0
 10
7.0108147803
 20
4.3019360104
 30
0.0
 11
6.9563147853
 21
4.2596120427
 31
0.0
 11
6.968353102
 21
4.2607504024
 31
0.0
 11
6.9798569556
 21
4.264105117
 31
0.0
 11
6.9902449697
 21
4.2694679208
 31
0.0
 11
6.998941679
 21
4.2764620794
 31
0.0
 11
7.0054545884
 21
4.2845670924
 31
0.0
 11
7.0094631742
 21
4.2932229513
 31
0.0
 11
7.0108147803
 21
4.3019360104
 31
0.0
  0
SPLINE
  5
483
100
AcDbEntity
  8
0
100
AcDbSpline
 62
7
  6
CONTINUOUS
 70
0
 71
3
 72
8
 73
4
 74
2
 42
0.0000001
 43
0.0000001
 44
0.0000000001
 12
-0.0022401235
 22
0.0001124521
 32
0.0
 13
-0.002239404
 23
0.0001260165
 33
0.0
 40
0.0
 40
0.0
 40
0.0
 40
0.0
 40
1.0
 40
1.0
 40
1.0
 40
1.0
 10
6.5253442226
 20
4.3837847978
 30
0.0
 10
6.5245975147
 20
4.3838222818
 30
0.0
 10
6.5238509185
 20
4.3838620395
 30
0.0
 10
6.5231044505
 20
4.383904045
 30
0.0
 11
6.5253442226
 21
4.3837847978
 31
0.0
 11
6.5231044505
 21
4.383904045
 31
0.0
  0
SPLINE
  5
484
100
AcDbEntity
  8
0
100
AcDbSpline
 62
7
  6
CONTINUOUS
 70
0
 71
3
 72
8
 73
4
 74
2
 42
0.0000001
 43
0.0000001
 44
0.0000000001
 12
-0.0007358912
 22
0.0000414103
 32
0.0
 13
-0.0007358063
 23
0.000042864
 33
0.0
 40
0.0
 40
0.0
 40
0.0
 40
0.0
 40
1.0
 40
1.0
 40
1.0
 40
1.0
 10
6.5231044505
 20
4.383904045
 30
0.0
 10
6.5228591535
 20
4.3839178484
 30
0.0
 10
6.5226138703
 20
4.3839318946
 30
0.0
 10
6.5223686015
 20
4.3839461826
 30
0.0
 11
6.5231044505
 21
4.383904045
 31
0.0
 11
6.5223686015
 21
4.3839461826
 31
0.0
  0
SPLINE
  5
485
100
AcDbEntity
  8
0
100
AcDbSpline
 62
7
  6
CONTINUOUS
 70
0
 71
3
 72
14
 73
10
 74
8
 42
0.0000001
 43
0.0000001
 44
0.0000000001
 12
0.0000430457
 22
0.0759682023
 32
0.0
 13
-0.0756798018
 23
0.0
 33
0.0
 40
0.0
 40
0.0
 40
0.0
 40
0.0
 40
0.1165146604
 40
0.2425632927
 40
0.3799544018
 40
0.5274235082
 40
0.6818960828
 40
0.8402271767
 40
1.0
 40
1.0
 40
1.0
 40
1.0
 10
7.0108147806
 20
3.905956351
 30
0.0
 10
7.0108164524
 20
3.9089068208
 30
0.0
 10
7.0098024946
 20
3.9150357409
 30
0.0
 10
7.0056391279
 20
3.9237876942
 30
0.0
 10
6.9990295996
 20
3.9318867667
 30
0.0
 10
6.9903006357
 20
3.9388411651
 30
0.0
 10
6.9799044025
 20
3.9441764845
 30
0.0
 10
6.9683906532
 20
3.947522488
 30
0.0
 10
6.9603453105
 20
3.9482803225
 30
0.0
 10
6.9563147853
 20
3.9482803225
 30
0.0
 11
7.0108147806
 21
3.905956351
 31
0.0
 11
7.009463036
 21
3.914669863
 31
0.0
 11
7.0054541639
 21
3.9233259515
 31
0.0
 11
6.9989409888
 21
3.9314309733
 31
0.0
 11
6.9902439924
 21
3.9384250789
 31
0.0
 11
6.9798560249
 21
3.9437876196
 31
0.0
 11
6.9683526642
 21
3.9471420464
 31
0.0
 11
6.9563147853
 21
3.9482803225
 31
0.0
  0
SPLINE
  5
486
100
AcDbEntity
  8
0
100
AcDbSpline
 62
7
  6
CONTINUOUS
 70
0
 71
3
 72
10
 73
6
 74
4
 42
0.0000001
 43
0.0000001
 44
0.0000000001
 12
0.0212176691
 22
-0.0062609699
 32
0.0
 13
0.0220940628
 23
-0.0010055922
 33
0.0
 40
0.0
 40
0.0
 40
0.0
 40
0.0
 40
0.270719642
 40
0.7415939113
 40
1.0
 40
1.0
 40
1.0
 40
1.0
 10
6.9295147828
 20
3.9419776684
 30
0.0
 10
6.9314294627
 20
3.9414126793
 30
0.0
 10
6.9367396755
 20
3.9400857821
 30
0.0
 10
6.9440404331
 20
3.938988871
 30
0.0
 10
6.9494056913
 20
3.9386027662
 30
0.0
 10
6.9513087714
 20
3.9385161491
 30
0.0
 11
6.9295147828
 21
3.9419776684
 31
0.0
 11
6.9353203175
 21
3.9405123303
 31
0.0
 11
6.9456086872
 21
3.9389283424
 31
0.0
 11
6.9513087714
 21
3.9385161491
 31
0.0
  0
SPLINE
  5
487
100
AcDbEntity
  8
0
100
AcDbSpline
 62
7
  6
CONTINUOUS
 70
0
 71
3
 72
8
 73
4
 74
2
 42
0.0000001
 43
0.0000001
 44
0.0000000001
 12
0.0050035003
 22
-0.00022773
 32
0.0
 13
0.005006417
 23
0.0
 33
0.0
 40
0.0
 40
0.0
 40
0.0
 40
0.0
 40
1.0
 40
1.0
 40
1.0
 40
1.0
 10
6.9513087714
 20
3.9385161491
 30
0.0
 10
6.9529766048
 20
3.9384402391
 30
0.0
 10
6.9546459797
 20
3.9384028789
 30
0.0
 10
6.9563147853
 20
3.9384028789
 30
0.0
 11
6.9513087714
 21
3.9385161491
 31
0.0
 11
6.9563147853
 21
3.9384028789
 31
0.0
  0
SPLINE
  5
488
100
AcDbEntity
  8
0
100
AcDbSpline
 62
7
  6
CONTINUOUS
 70
0
 71
3
 72
9
 73
5
 74
3
 42
0.0000001
 43
0.0000001
 44
0.0000000001
 12
-0.0076790693
 22
0.0022659887
 32
0.0
 13
-0.0078654774
 23
0.0014863885
 33
0.0
 40
0.0
 40
0.0
 40
0.0
 40
0.0
 40
0.7486582873
 40
1.0
 40
1.0
 40
1.0
 40
1.0
 10
6.983114981
 20
4.2659146385
 30
0.0
 10
6.9811986481
 20
4.2664801222
 30
0.0
 10
6.9786070893
 20
4.2671276017
 30
0.0
 10
6.9759907734
 20
4.2676528084
 30
0.0
 10
6.9753317992
 20
4.2677773389
 30
0.0
 11
6.983114981
 21
4.2659146385
 31
0.0
 11
6.9773043881
 21
4.2673810714
 31
0.0
 11
6.9753317992
 21
4.2677773389
 31
0.0
  0
SPLINE
  5
489
100
AcDbEntity
  8
0
100
AcDbSpline
 62
7
  6
CONTINUOUS
 70
0
 71
3
 72
9
 73
5
 74
3
 42
0.0000001
 43
0.0000001
 44
0.0000000001
 12
-0.0187890831
 22
0.0035506906
 32
0.0
 13
-0.0191126427
 23
0.0
 33
0.0
 40
0.0
 40
0.0
 40
0.0
 40
0.0
 40
0.4392986449
 40
1.0
 40
1.0
 40
1.0
 40
1.0
 10
6.9753317992
 20
4.2677773389
 30
0.0
 10
6.9725804596
 20
4.2682972767
 30
0.0
 10
6.9662624777
 20
4.2691841839
 30
0.0
 10
6.9598869469
 20
4.2694894863
 30
0.0
 10
6.9563147853
 20
4.2694894863
 30
0.0
 11
6.9753317992
 21
4.2677773389
 31
0.0
 11
6.9670183918
 21
4.2689642709
 31
0.0
 11
6.9563147853
 21
4.2694894863
 31
0.0
  0
SPLINE
  5
48A
100
AcDbEntity
  8
0
100
AcDbSpline
 62
7
  6
CONTINUOUS
 70
0
 71
3
 72
14
 73
10
 74
8
 42
0.0000001
 43
0.0000001
 44
0.0000000001
 12
-0.0000430526
 22
-0.0759682034
 32
0.0
 13
0.0756798023
 23
0.0
 33
0.0
 40
0.0
 40
0.0
 40
0.0
 40
0.0
 40
0.1165130696
 40
0.2425606285
 40
0.3799513001
 40
0.5274190171
 40
0.6818925249
 40
0.8402257913
 40
1.0
 40
1.0
 40
1.0
 40
1.0
 10
6.9018147902
 20
4.3019360133
 30
0.0
 10
6.9018131181
 20
4.2989855838
 30
0.0
 10
6.9028270508
 20
4.2928567326
 30
0.0
 10
6.9069903435
 20
4.2841048319
 30
0.0
 10
6.913599787
 20
4.2760057851
 30
0.0
 10
6.922328695
 20
4.2690513548
 30
0.0
 10
6.9327249412
 20
4.2637159622
 30
0.0
 10
6.9442387921
 20
4.2603698923
 30
0.0
 10
6.9522842252
 20
4.2596120427
 30
0.0
 10
6.9563147853
 20
4.2596120427
 30
0.0
 11
6.9018147902
 21
4.3019360133
 31
0.0
 11
6.903166499
 21
4.2932226183
 31
0.0
 11
6.907175299
 21
4.284566586
 31
0.0
 11
6.9136884145
 21
4.2764615586
 31
0.0
 11
6.9223852916
 21
4.2694674724
 31
0.0
 11
6.9327732944
 21
4.2641048459
 31
0.0
 11
6.9442768029
 21
4.2607503385
 31
0.0
 11
6.9563147853
 21
4.2596120427
 31
0.0
  0
SPLINE
  5
48B
100
AcDbEntity
  8
0
100
AcDbSpline
 62
7
  6
CONTINUOUS
 70
0
 71
3
 72
8
 73
4
 74
2
 42
0.0000001
 43
0.0000001
 44
0.0000000001
 12
-0.0050064089
 22
0.0
 32
0.0
 13
-0.0050034893
 23
-0.0002277302
 33
0.0
 40
0.0
 40
0.0
 40
0.0
 40
0.0
 40
1.0
 40
1.0
 40
1.0
 40
1.0
 10
6.9563147853
 20
4.2694894863
 30
0.0
 10
6.9546459824
 20
4.2694894863
 30
0.0
 10
6.9529766108
 20
4.2694521256
 30
0.0
 10
6.9513087811
 20
4.2693762155
 30
0.0
 11
6.9563147853
 21
4.2694894863
 31
0.0
 11
6.9513087811
 21
4.2693762155
 31
0.0
  0
SPLINE
  5
48C
100
AcDbEntity
  8
0
100
AcDbSpline
 62
7
  6
CONTINUOUS
 70
0
 71
3
 72
10
 73
6
 74
4
 42
0.0000001
 43
0.0000001
 44
0.0000000001
 12
-0.0220946348
 22
-0.0010056212
 32
0.0
 13
-0.0212181394
 23
-0.0062613205
 33
0.0
 40
0.0
 40
0.0
 40
0.0
 40
0.0
 40
0.257990997
 40
0.7284868107
 40
1.0
 40
1.0
 40
1.0
 40
1.0
 10
6.9513087811
 20
4.2693762155
 30
0.0
 10
6.9494087088
 20
4.2692897351
 30
0.0
 10
6.9440491424
 20
4.2689042644
 30
0.0
 10
6.9367480746
 20
4.2678082866
 30
0.0
 10
6.9314345899
 20
4.266481214
 30
0.0
 10
6.929514255
 20
4.265914537
 30
0.0
 11
6.9513087811
 21
4.2693762155
 31
0.0
 11
6.9456176878
 21
4.2689649188
 31
0.0
 11
6.9353370927
 21
4.2673836075
 31
0.0
 11
6.929514255
 21
4.265914537
 31
0.0
  0
SPLINE
  5
48D
100
AcDbEntity
  8
0
100
AcDbSpline
 62
7
  6
CONTINUOUS
 70
0
 71
3
 72
9
 73
5
 74
3
 42
0.0000001
 43
0.0000001
 44
0.0000000001
 12
0.0191125954
 22
0.0
 32
0.0
 13
0.0187890372
 23
0.003550665
 33
0.0
 40
0.0
 40
0.0
 40
0.0
 40
0.0
 40
0.5604940901
 40
1.0
 40
1.0
 40
1.0
 40
1.0
 10
6.9563147853
 20
3.9384028789
 30
0.0
 10
6.9598856176
 20
3.9384028789
 30
0.0
 10
6.9662611287
 20
3.9387080694
 30
0.0
 10
6.972579115
 20
3.9395948381
 30
0.0
 10
6.975331746
 20
3.9401150175
 30
0.0
 11
6.9563147853
 21
3.9384028789
 31
0.0
 11
6.9670144185
 21
3.9389276987
 31
0.0
 11
6.975331746
 21
3.9401150175
 31
0.0
  0
SPLINE
  5
48E
100
AcDbEntity
  8
0
100
AcDbSpline
 62
7
  6
CONTINUOUS
 70
0
 71
3
 72
9
 73
5
 74
3
 42
0.0000001
 43
0.0000001
 44
0.0000000001
 12
0.0078656762
 22
0.001486419
 32
0.0
 13
0.0076792534
 23
0.0022660649
 33
0.0
 40
0.0
 40
0.0
 40
0.0
 40
0.0
 40
0.2504529101
 40
1.0
 40
1.0
 40
1.0
 40
1.0
 10
6.975331746
 20
3.9401150175
 30
0.0
 10
6.9759884065
 20
3.9402391101
 30
0.0
 10
6.9786048084
 20
3.9407642224
 30
0.0
 10
6.9811964653
 20
3.9414115948
 30
0.0
 10
6.9831151193
 20
3.9419777689
 30
0.0
 11
6.975331746
 21
3.9401150175
 31
0.0
 11
6.9772974253
 21
3.9405098109
 31
0.0
 11
6.9831151193
 21
3.9419777689
 31
0.0
  0
SPLINE
  5
48F
100
AcDbEntity
  8
0
100
AcDbSpline
 62
7
  6
CONTINUOUS
 70
0
 71
3
 72
23
 73
19
 74
17
 42
0.0000001
 43
0.0000001
 44
0.0000000001
 12
-0.0028042805
 22
-0.0488592878
 32
0.0
 13
-0.0113244996
 23
0.0476941747
 33
0.0
 40
0.0
 40
0.0
 40
0.0
 40
0.0
 40
0.0859235264
 40
0.161917205
 40
0.2328539181
 40
0.302490544
 40
0.372731939
 40
0.4441303514
 40
0.5135321858
 40
0.579350797
 40
0.6419373574
 40
0.7018636459
 40
0.7605151851
 40
0.8195810208
 40
0.8788018671
 40
0.9388996711
 40
0.9985535589
 40
1.0
 40
1.0
 40
1.0
 40
1.0
 10
6.5592853481
 20
4.3837295987
 30
0.0
 10
6.5592050302
 20
4.3823302113
 30
0.0
 10
6.5587420483
 20
4.3797003516
 30
0.0
 10
6.5572763512
 20
4.376168622
 30
0.0
 10
6.5552815198
 20
4.3732242698
 30
0.0
 10
6.5528070967
 20
4.3708021703
 30
0.0
 10
6.549878411
 20
4.3689363948
 30
0.0
 10
6.5466188041
 20
4.3677440775
 30
0.0
 10
6.5432529364
 20
4.3672913693
 30
0.0
 10
6.5400135064
 20
4.3675216558
 30
0.0
 10
6.5370276102
 20
4.3683126582
 30
0.0
 10
6.5343313967
 20
4.3695559308
 30
0.0
 10
6.5319211883
 20
4.3711869424
 30
0.0
 10
6.529808397
 20
4.3731715385
 30
0.0
 10
6.5280239805
 20
4.3754860654
 30
0.0
 10
6.5266356219
 20
4.3780701704
 30
0.0
 10
6.5260026937
 20
4.3799528736
 30
0.0
 10
6.5257700021
 20
4.3809237462
 30
0.0
 10
6.525764542
 20
4.3809467418
 30
0.0
 11
6.5592853481
 21
4.3837295987
 31
0.0
 11
6.5585570259
 21
4.3795880806
 31
0.0
 11
6.5571298821
 21
4.3761536924
 31
0.0
 11
6.5551791128
 21
4.3732819937
 31
0.0
 11
6.5527405456
 21
4.3709012747
 31
0.0
 11
6.5498392915
 21
4.3690574289
 31
0.0
 11
6.5465573764
 21
4.3678580193
 31
0.0
 11
6.5431914839
 21
4.3674030332
 31
0.0
 11
6.5399781953
 21
4.3676278413
 31
0.0
 11
6.5370165036
 21
4.3684089629
 31
0.0
 11
6.5343522511
 21
4.3696349011
 31
0.0
 11
6.5319743491
 21
4.3712426052
 31
0.0
 11
6.5298673971
 21
4.3732216687
 31
0.0
 11
6.5280987639
 21
4.3755177069
 31
0.0
 11
6.5267086383
 21
4.3781096217
 31
0.0
 11
6.5257810676
 21
4.380877791
 31
0.0
 11
6.525764542
 21
4.3809467418
 31
0.0
  0
SPLINE
  5
490
100
AcDbEntity
  8
0
100
AcDbSpline
 62
7
  6
CONTINUOUS
 70
0
 71
3
 72
22
 73
18
 74
16
 42
0.0000001
 43
0.0000001
 44
0.0000000001
 12
-0.1076692396
 22
-0.0209570676
 32
0.0
 13
-0.1076692396
 23
0.0209570675
 33
0.0
 40
0.0
 40
0.0
 40
0.0
 40
0.0
 40
0.0110466848
 40
0.0436777342
 40
0.0963361408
 40
0.1662757182
 40
0.2508874884
 40
0.3458858561
 40
0.4480922402
 40
0.5520721278
 40
0.6542947893
 40
0.749325918
 40
0.8339073555
 40
0.903811829
 40
0.9563923393
 40
0.9889785466
 40
1.0
 40
1.0
 40
1.0
 40
1.0
 10
7.0108147853
 20
4.3839461826
 30
0.0
 10
7.0104183226
 20
4.3838690139
 30
0.0
 10
7.0088501367
 20
4.3835669811
 30
0.0
 10
7.0053861517
 20
4.3829278747
 30
0.0
 10
6.9997890452
 20
4.3819845637
 30
0.0
 10
6.9922906079
 20
4.380895292
 30
0.0
 10
6.9832248587
 20
4.3798485832
 30
0.0
 10
6.972951372
 20
4.379023952
 30
0.0
 10
6.9619453258
 20
4.3785710549
 30
0.0
 10
6.9506656184
 20
4.3785714256
 30
0.0
 10
6.9396578105
 20
4.3790251521
 30
0.0
 10
6.9293837039
 20
4.3798506326
 30
0.0
 10
6.9203192229
 20
4.3808978938
 30
0.0
 10
6.9128260409
 20
4.3819868765
 30
0.0
 10
6.9072346644
 20
4.3829294509
 30
0.0
 10
6.9037760112
 20
4.3835676349
 30
0.0
 10
6.9022103425
 20
4.3838691901
 30
0.0
 10
6.9018147853
 20
4.3839461826
 30
0.0
 11
7.0108147853
 21
4.3839461826
 31
0.0
 11
7.009624942
 21
4.3837170224
 31
0.0
 11
7.0061050348
 21
4.3830676955
 31
0.0
 11
7.0004092004
 21
4.3821081272
 31
0.0
 11
6.9928171052
 21
4.3810060486
 31
0.0
 11
6.9835971615
 21
4.3799427008
 31
0.0
 11
6.9732101097
 21
4.3791101373
 31
0.0
 11
6.962008546
 21
4.3786499665
 31
0.0
 11
6.9506029986
 21
4.3786503408
 31
0.0
 11
6.9393996825
 21
4.3791113525
 31
0.0
 11
6.929009113
 21
4.3799450046
 31
0.0
 11
6.9197925555
 21
4.3810086724
 31
0.0
 11
6.9122043392
 21
4.3821106689
 31
0.0
 11
6.9065169689
 21
4.3830690454
 31
0.0
 11
6.9030019099
 21
4.3837175405
 31
0.0
 11
6.9018147853
 21
4.3839461826
 31
0.0
  0
SPLINE
  5
491
100
AcDbEntity
  8
0
100
AcDbSpline
 62
7
  6
CONTINUOUS
 70
0
 71
3
 72
8
 73
4
 74
2
 42
0.0000001
 43
0.0000001
 44
0.0000000001
 12
-0.0004339761
 22
-0.0000267334
 32
0.0
 13
-0.0004340124
 23
-0.0000261372
 33
0.0
 40
0.0
 40
0.0
 40
0.0
 40
0.0
 40
1.0
 40
1.0
 40
1.0
 40
1.0
 10
6.5631935845
 20
4.3839461826
 30
0.0
 10
6.5630489258
 20
4.3839372715
 30
0.0
 10
6.562904261
 20
4.3839284597
 30
0.0
 10
6.5627595902
 20
4.3839197473
 30
0.0
 11
6.5631935845
 21
4.3839461826
 31
0.0
 11
6.5627595902
 21
4.3839197473
 31
0.0
  0
SPLINE
  5
492
100
AcDbEntity
  8
0
100
AcDbSpline
 62
7
  6
CONTINUOUS
 70
0
 71
3
 72
8
 73
4
 74
2
 42
0.0000001
 43
0.0000001
 44
0.0000000001
 12
-0.000185554
 22
-0.0000111745
 32
0.0
 13
-0.0001855606
 23
-0.0000110656
 33
0.0
 40
0.0
 40
0.0
 40
0.0
 40
0.0
 40
1.0
 40
1.0
 40
1.0
 40
1.0
 10
6.5627595902
 20
4.3839197473
 30
0.0
 10
6.5626977388
 20
4.3839160225
 30
0.0
 10
6.5626358864
 20
4.3839123158
 30
0.0
 10
6.5625740329
 20
4.3839086273
 30
0.0
 11
6.5627595902
 21
4.3839197473
 31
0.0
 11
6.5625740329
 21
4.3839086273
 31
0.0
  0
SPLINE
  5
493
100
AcDbEntity
  8
0
100
AcDbSpline
 62
7
  6
CONTINUOUS
 70
0
 71
3
 72
8
 73
4
 74
2
 42
0.0000001
 43
0.0000001
 44
0.0000000001
 12
-0.0011280729
 22
-0.0000672708
 32
0.0
 13
-0.001128307
 23
-0.0000632547
 33
0.0
 40
0.0
 40
0.0
 40
0.0
 40
0.0
 40
1.0
 40
1.0
 40
1.0
 40
1.0
 10
6.5625740329
 20
4.3839086273
 30
0.0
 10
6.5621980086
 20
4.3838862037
 30
0.0
 10
6.5618219441
 20
4.3838644506
 30
0.0
 10
6.5614458418
 20
4.3838433657
 30
0.0
 11
6.5625740329
 21
4.3839086273
 31
0.0
 11
6.5614458418
 21
4.3838433657
 31
0.0
  0
SPLINE
  5
494
100
AcDbEntity
  8
0
100
AcDbSpline
 62
7
  6
CONTINUOUS
 70
0
 71
3
 72
8
 73
4
 74
2
 42
0.0000001
 43
0.0000001
 44
0.0000000001
 12
-0.0021600989
 22
-0.0001210986
 32
0.0
 13
-0.0021608666
 23
-0.0001064514
 33
0.0
 40
0.0
 40
0.0
 40
0.0
 40
0.0
 40
1.0
 40
1.0
 40
1.0
 40
1.0
 10
6.5614458418
 20
4.3838433657
 30
0.0
 10
6.5607258089
 20
4.3838029995
 30
0.0
 10
6.5600056369
 20
4.3837650825
 30
0.0
 10
6.5592853481
 20
4.3837295987
 30
0.0
 11
6.5614458418
 21
4.3838433657
 31
0.0
 11
6.5592853481
 21
4.3837295987
 31
0.0
  0
SPLINE
  5
495
100
AcDbEntity
  8
0
100
AcDbSpline
 62
7
  6
CONTINUOUS
 70
0
 71
3
 72
22
 73
18
 74
16
 42
0.0000001
 43
0.0000001
 44
0.0000000001
 12
0.1076692396
 22
0.0209570676
 32
0.0
 13
0.1076692396
 23
-0.0209570675
 33
0.0
 40
0.0
 40
0.0
 40
0.0
 40
0.0
 40
0.0110466848
 40
0.0436777342
 40
0.0963361408
 40
0.1662757182
 40
0.2508874884
 40
0.3458858561
 40
0.4480922402
 40
0.5520721278
 40
0.6542947893
 40
0.749325918
 40
0.8339073555
 40
0.903811829
 40
0.9563923393
 40
0.9889785466
 40
1.0
 40
1.0
 40
1.0
 40
1.0
 10
6.9018147853
 20
3.8239461826
 30
0.0
 10
6.9022112481
 20
3.8240233513
 30
0.0
 10
6.903779434
 20
3.8243253841
 30
0.0
 10
6.907243419
 20
3.8249644905
 30
0.0
 10
6.9128405254
 20
3.8259078015
 30
0.0
 10
6.9203389627
 20
3.8269970731
 30
0.0
 10
6.929404712
 20
3.828043782
 30
0.0
 10
6.9396781986
 20
3.8288684132
 30
0.0
 10
6.9506842449
 20
3.8293213103
 30
0.0
 10
6.9619639523
 20
3.8293209396
 30
0.0
 10
6.9729717602
 20
3.8288672131
 30
0.0
 10
6.9832458667
 20
3.8280417325
 30
0.0
 10
6.9923103477
 20
3.8269944714
 30
0.0
 10
6.9998035298
 20
3.8259054887
 30
0.0
 10
7.0053949062
 20
3.8249629143
 30
0.0
 10
7.0088535595
 20
3.8243247303
 30
0.0
 10
7.0104192282
 20
3.824023175
 30
0.0
 10
7.0108147853
 20
3.8239461826
 30
0.0
 11
6.9018147853
 21
3.8239461826
 31
0.0
 11
6.9030046287
 21
3.8241753428
 31
0.0
 11
6.9065245359
 21
3.8248246697
 31
0.0
 11
6.9122203703
 21
3.825784238
 31
0.0
 11
6.9198124655
 21
3.8268863166
 31
0.0
 11
6.9290324092
 21
3.8279496644
 31
0.0
 11
6.939419461
 21
3.8287822279
 31
0.0
 11
6.9506210247
 21
3.8292423987
 31
0.0
 11
6.962026572
 21
3.8292420244
 31
0.0
 11
6.9732298881
 21
3.8287810127
 31
0.0
 11
6.9836204577
 21
3.8279473606
 31
0.0
 11
6.9928370152
 21
3.8268836928
 31
0.0
 11
7.0004252315
 21
3.8257816963
 31
0.0
 11
7.0061126018
 21
3.8248233198
 31
0.0
 11
7.0096276607
 21
3.8241748247
 31
0.0
 11
7.0108147853
 21
3.8239461826
 31
0.0
  0
SPLINE
  5
496
100
AcDbEntity
  8
0
100
AcDbSpline
 62
7
  6
CONTINUOUS
 70
0
 71
3
 72
14
 73
10
 74
8
 42
0.0000001
 43
0.0000001
 44
0.0000000001
 12
-0.0000406244
 22
0.071648678
 32
0.0
 13
-0.0713766741
 23
0.0
 33
0.0
 40
0.0
 40
0.0
 40
0.0
 40
0.0
 40
0.1182071039
 40
0.2388029845
 40
0.3685698851
 40
0.5112464347
 40
0.6664703703
 40
0.8308969075
 40
1.0
 40
1.0
 40
1.0
 40
1.0
 10
7.0108147803
 20
4.3019360104
 30
0.0
 10
7.0108131796
 20
4.304759138
 30
0.0
 10
7.00990621
 20
4.3104742831
 30
0.0
 10
7.0056930741
 20
4.3183384397
 30
0.0
 10
6.9989491125
 20
4.3249827919
 30
0.0
 10
6.9901302482
 20
4.3302117218
 30
0.0
 10
6.9797310518
 20
4.3339542622
 30
0.0
 10
6.9682832441
 20
4.3361930798
 30
0.0
 10
6.9603381241
 20
4.3366866819
 30
0.0
 10
6.9563147853
 20
4.3366866819
 30
0.0
 11
7.0108147803
 21
4.3019360104
 31
0.0
 11
7.0094686547
 21
4.3102652438
 31
0.0
 11
7.0054652053
 21
4.3178853132
 31
0.0
 11
6.9989566178
 21
4.3244753847
 31
0.0
 11
6.9902610441
 21
4.3297759813
 31
0.0
 11
6.9798679996
 21
4.3336148648
 31
0.0
 11
6.9683604472
 21
4.3359203111
 31
0.0
 11
6.9563147853
 21
4.3366866819
 31
0.0
  0
SPLINE
  5
497
100
AcDbEntity
  8
0
100
AcDbSpline
 62
7
  6
CONTINUOUS
 70
0
 71
3
 72
14
 73
10
 74
8
 42
0.0000001
 43
0.0000001
 44
0.0000000001
 12
-0.0713766727
 22
0.0
 32
0.0
 13
-0.0000406046
 23
-0.0716486754
 33
0.0
 40
0.0
 40
0.0
 40
0.0
 40
0.0
 40
0.169101671
 40
0.3335273421
 40
0.4887502821
 40
0.631426423
 40
0.7611932116
 40
0.8817892995
 40
1.0
 40
1.0
 40
1.0
 40
1.0
 10
6.9563147853
 20
4.3366866819
 30
0.0
 10
6.9522914805
 20
4.3366866819
 30
0.0
 10
6.9443464153
 20
4.3361930873
 30
0.0
 10
6.9328986818
 20
4.3339543025
 30
0.0
 10
6.9224995268
 20
4.3302118116
 30
0.0
 10
6.9136806685
 20
4.3249829466
 30
0.0
 10
6.9069366619
 20
4.3183386547
 30
0.0
 10
6.902723406
 20
4.3104744619
 30
0.0
 10
6.9018163901
 20
4.3047592267
 30
0.0
 10
6.9018147902
 20
4.3019360133
 30
0.0
 11
6.9563147853
 21
4.3366866819
 31
0.0
 11
6.9442692245
 21
4.3359203241
 31
0.0
 11
6.9327617292
 21
4.3336149089
 31
0.0
 11
6.9223687395
 21
4.3297760827
 31
0.0
 11
6.9136731624
 21
4.3244755481
 31
0.0
 11
6.9071645286
 21
4.3178855339
 31
0.0
 11
6.9031609984
 21
4.3102654903
 31
0.0
 11
6.9018147902
 21
4.3019360133
 31
0.0
  0
SPLINE
  5
498
100
AcDbEntity
  8
0
100
AcDbSpline
 62
7
  6
CONTINUOUS
 70
0
 71
3
 72
14
 73
10
 74
8
 42
0.0000001
 43
0.0000001
 44
0.0000000001
 12
0.0000406197
 22
-0.071648678
 32
0.0
 13
0.0713766738
 23
0.0
 33
0.0
 40
0.0
 40
0.0
 40
0.0
 40
0.0
 40
0.1182080425
 40
0.2388037891
 40
0.3685706033
 40
0.5112470139
 40
0.6664707902
 40
0.8308971346
 40
1.0
 40
1.0
 40
1.0
 40
1.0
 10
6.9018147903
 20
3.9059563541
 30
0.0
 10
6.9018163908
 20
3.9031332041
 30
0.0
 10
6.9027233718
 20
3.8974180399
 30
0.0
 10
6.9069365339
 20
3.8895538784
 30
0.0
 10
6.9136804994
 20
3.8829095434
 30
0.0
 10
6.9224993604
 20
3.8776806268
 30
0.0
 10
6.9328985475
 20
3.8739380959
 30
0.0
 10
6.9443463421
 20
3.8716992841
 30
0.0
 10
6.952291452
 20
3.8712056833
 30
0.0
 10
6.9563147853
 20
3.8712056833
 30
0.0
 11
6.9018147903
 21
3.9059563541
 31
0.0
 11
6.9031609375
 21
3.897627057
 31
0.0
 11
6.9071643999
 21
3.8900070053
 31
0.0
 11
6.9136729936
 21
3.8834169487
 31
0.0
 11
6.9223685641
 21
3.878116366
 31
0.0
 11
6.9327616001
 21
3.8742774923
 31
0.0
 11
6.9442691396
 21
3.871972052
 31
0.0
 11
6.9563147853
 21
3.8712056833
 31
0.0
  0
SPLINE
  5
499
100
AcDbEntity
  8
0
100
AcDbSpline
 62
7
  6
CONTINUOUS
 70
0
 71
3
 72
14
 73
10
 74
8
 42
0.0000001
 43
0.0000001
 44
0.0000000001
 12
0.0713766724
 22
0.0
 32
0.0
 13
0.0000405982
 23
0.0716486745
 33
0.0
 40
0.0
 40
0.0
 40
0.0
 40
0.0
 40
0.1691014004
 40
0.3335268529
 40
0.4887496306
 40
0.6314256409
 40
0.761192309
 40
0.8817884798
 40
1.0
 40
1.0
 40
1.0
 40
1.0
 10
6.9563147853
 20
3.8712056833
 30
0.0
 10
6.9603380838
 20
3.8712056833
 30
0.0
 10
6.9682831372
 20
3.8716992764
 30
0.0
 10
6.979730856
 20
3.8739380546
 30
0.0
 10
6.9901300015
 20
3.877680535
 30
0.0
 10
6.9989488563
 20
3.8829093854
 30
0.0
 10
7.0056928712
 20
3.889553662
 30
0.0
 10
7.0099061542
 20
3.8974178618
 30
0.0
 10
7.0108131808
 20
3.9031331181
 30
0.0
 10
7.0108147806
 20
3.905956351
 30
0.0
 11
6.9563147853
 21
3.8712056833
 31
0.0
 11
6.9683603269
 21
3.8719720386
 31
0.0
 11
6.9798678076
 21
3.8742774469
 31
0.0
 11
6.9902607889
 21
3.8781162624
 31
0.0
 11
6.9989563639
 21
3.8834167825
 31
0.0
 11
7.0054650033
 21
3.890006779
 31
0.0
 11
7.0094685534
 21
3.8976268187
 31
0.0
 11
7.0108147806
 21
3.905956351
 31
0.0
  0
SPLINE
  5
49A
100
AcDbEntity
  8
126-200_HEX_FEATURES
100
AcDbSpline
 62
7
  6
CONTINUOUS
 70
0
 71
3
 72
11
 73
7
 74
5
 42
0.0000001
 43
0.0000001
 44
0.0000000001
 12
0.0190041497
 22
0.0
 32
0.0
 13
0.018975086
 23
-0.0010509743
 33
0.0
 40
0.0
 40
0.0
 40
0.0
 40
0.0
 40
0.3220367139
 40
0.615477374
 40
0.8486707135
 40
1.0
 40
1.0
 40
1.0
 40
1.0
 10
6.2803147853
 20
3.7615297694
 30
0.0
 10
6.2823547966
 20
3.7615297694
 30
0.0
 10
6.2862537644
 20
3.7614949193
 30
0.0
 10
6.2916282601
 20
3.7613551284
 30
0.0
 10
6.2959195538
 20
3.7611809396
 30
0.0
 10
6.2983522355
 20
3.7610563515
 30
0.0
 10
6.2993093975
 20
3.7610033371
 30
0.0
 11
6.2803147853
 21
3.7615297694
 31
0.0
 11
6.2864345749
 21
3.7614750863
 31
0.0
 11
6.2920092808
 21
3.7613301275
 31
0.0
 11
6.2964372768
 21
3.7611504202
 31
0.0
 11
6.2993093975
 21
3.7610033371
 31
0.0
  0
SPLINE
  5
49B
100
AcDbEntity
  8
126-200_HEX_FEATURES
100
AcDbSpline
 62
7
  6
CONTINUOUS
 70
0
 71
3
 72
8
 73
4
 74
2
 42
0.0000001
 43
0.0000001
 44
0.0000000001
 12
0.001005471
 22
-0.0000556901
 32
0.0
 13
0.0010053032
 23
-0.0000586184
 33
0.0
 40
0.0
 40
0.0
 40
0.0
 40
0.0
 40
1.0
 40
1.0
 40
1.0
 40
1.0
 10
6.2993093975
 20
3.7610033371
 30
0.0
 10
6.2996445545
 20
3.7609847737
 30
0.0
 10
6.2999796843
 20
3.760965722
 30
0.0
 10
6.3003147853
 20
3.7609461826
 30
0.0
 11
6.2993093975
 21
3.7610033371
 31
0.0
 11
6.3003147853
 21
3.7609461826
 31
0.0
  0
SPLINE
  5
49C
100
AcDbEntity
  8
126-200_HEX_FEATURES
100
AcDbSpline
 62
7
  6
CONTINUOUS
 70
0
 71
3
 72
12
 73
8
 74
6
 42
0.0000001
 43
0.0000001
 44
0.0000000001
 12
-0.0294120248
 22
0.0
 32
0.0
 13
0.0000052465
 23
0.0295603849
 33
0.0
 40
0.0
 40
0.0
 40
0.0
 40
0.0
 40
0.2109141835
 40
0.4195446721
 40
0.6204876092
 40
0.8130392226
 40
1.0
 40
1.0
 40
1.0
 40
1.0
 10
6.2803147853
 20
4.2578338811
 30
0.0
 10
6.2782469809
 20
4.2578338811
 30
0.0
 10
6.2741102962
 20
4.2584099554
 30
0.0
 10
6.2684848404
 20
4.2609329544
 30
0.0
 10
6.2639677102
 20
4.2648774512
 30
0.0
 10
6.2610171544
 20
4.2698667249
 30
0.0
 10
6.2603144615
 20
4.2736037368
 30
0.0
 10
6.2603147884
 20
4.2754459476
 30
0.0
 11
6.2803147853
 21
4.2578338811
 31
0.0
 11
6.2741719417
 21
4.2586986394
 31
0.0
 11
6.2685813767
 21
4.2612282813
 31
0.0
 11
6.2641529621
 21
4.2651422157
 31
0.0
 11
6.2613044441
 21
4.2700370379
 31
0.0
 11
6.2603147884
 21
4.2754459476
 31
0.0
  0
SPLINE
  5
49D
100
AcDbEntity
  8
126-200_HEX_FEATURES
100
AcDbSpline
 62
7
  6
CONTINUOUS
 70
0
 71
3
 72
9
 73
5
 74
3
 42
0.0000001
 43
0.0000001
 44
0.0000000001
 12
-0.0077945367
 22
0.0031326787
 32
0.0
 13
-0.0083779089
 23
0.0001719727
 33
0.0
 40
0.0
 40
0.0
 40
0.0
 40
0.0
 40
0.3191815858
 40
1.0
 40
1.0
 40
1.0
 40
1.0
 10
6.2889996804
 20
4.2600103148
 30
0.0
 10
6.2881703895
 20
4.2603436126
 30
0.0
 10
6.2855067462
 20
4.2612280435
 30
0.0
 10
6.2827094267
 20
4.2616169106
 30
0.0
 10
6.2808081485
 20
4.261655938
 30
0.0
 11
6.2889996804
 21
4.2600103148
 31
0.0
 11
6.2864563992
 21
4.2608577142
 31
0.0
 11
6.2808081485
 21
4.261655938
 31
0.0
  0
SPLINE
  5
49E
100
AcDbEntity
  8
126-200_HEX_FEATURES
100
AcDbSpline
 62
7
  6
CONTINUOUS
 70
0
 71
3
 72
8
 73
4
 74
2
 42
0.0000001
 43
0.0000001
 44
0.0000000001
 12
-0.000493477
 22
0.0000101296
 32
0.0
 13
-0.0004932072
 23
0.0
 33
0.0
 40
0.0
 40
0.0
 40
0.0
 40
0.0
 40
1.0
 40
1.0
 40
1.0
 40
1.0
 10
6.2808081485
 20
4.261655938
 30
0.0
 10
6.2806436562
 20
4.2616593145
 30
0.0
 10
6.2804791877
 20
4.2616610015
 30
0.0
 10
6.2803147853
 20
4.2616610015
 30
0.0
 11
6.2808081485
 21
4.261655938
 31
0.0
 11
6.2803147853
 21
4.2616610015
 31
0.0
  0
SPLINE
  5
49F
100
AcDbEntity
  8
126-200_HEX_FEATURES
100
AcDbSpline
 62
7
  6
CONTINUOUS
 70
0
 71
3
 72
12
 73
8
 74
6
 42
0.0000001
 43
0.0000001
 44
0.0000000001
 12
0.0000064008
 22
-0.0295604432
 32
0.0
 13
-0.0294122457
 23
0.0
 33
0.0
 40
0.0
 40
0.0
 40
0.0
 40
0.0
 40
0.1847781816
 40
0.3783190333
 40
0.5786176166
 40
0.7879551213
 40
1.0
 40
1.0
 40
1.0
 40
1.0
 10
6.300314789
 20
4.2754464176
 30
0.0
 10
6.3003151832
 20
4.2736257092
 30
0.0
 10
6.2996234062
 20
4.2699005882
 30
0.0
 10
6.2966958271
 20
4.2649169879
 30
0.0
 10
6.2921805638
 20
4.2609555328
 30
0.0
 10
6.2865487892
 20
4.2584156133
 30
0.0
 10
6.2823936907
 20
4.2578338811
 30
0.0
 10
6.2803147853
 20
4.2578338811
 30
0.0
 11
6.300314789
 21
4.2754464176
 31
0.0
 11
6.2993478292
 21
4.270098198
 31
0.0
 11
6.2964992634
 21
4.2651697196
 31
0.0
 11
6.2920941545
 21
4.261257991
 31
0.0
 11
6.2864899424
 21
4.2587079879
 31
0.0
 11
6.2803147853
 21
4.2578338811
 31
0.0
  0
SPLINE
  5
4A0
100
AcDbEntity
  8
126-200_HEX_FEATURES
100
AcDbSpline
 62
7
  6
CONTINUOUS
 70
0
 71
3
 72
8
 73
4
 74
2
 42
0.0000001
 43
0.0000001
 44
0.0000000001
 12
-0.0005120799
 22
0.0
 32
0.0
 13
-0.0005123806
 23
-0.0000109186
 33
0.0
 40
0.0
 40
0.0
 40
0.0
 40
0.0
 40
1.0
 40
1.0
 40
1.0
 40
1.0
 10
6.2803147853
 20
4.2616610015
 30
0.0
 10
6.280144092
 20
4.2616610015
 30
0.0
 10
6.279973325
 20
4.2616591833
 30
0.0
 10
6.2798025315
 20
4.2616555437
 30
0.0
 11
6.2803147853
 21
4.2616610015
 31
0.0
 11
6.2798025315
 21
4.2616555437
 31
0.0
  0
SPLINE
  5
4A1
100
AcDbEntity
  8
126-200_HEX_FEATURES
100
AcDbSpline
 62
7
  6
CONTINUOUS
 70
0
 71
3
 72
9
 73
5
 74
3
 42
0.0000001
 43
0.0000001
 44
0.0000000001
 12
-0.008350419
 22
-0.0001779441
 32
0.0
 13
-0.0077733656
 23
-0.0031211912
 33
0.0
 40
0.0
 40
0.0
 40
0.0
 40
0.0
 40
0.7091005971
 40
1.0
 40
1.0
 40
1.0
 40
1.0
 10
6.2798025315
 20
4.2616555437
 30
0.0
 10
6.2778287691
 20
4.2616134836
 30
0.0
 10
6.2750403037
 20
4.261211139
 30
0.0
 10
6.2723897522
 20
4.2603153558
 30
0.0
 10
6.2716359964
 20
4.2600127049
 30
0.0
 11
6.2798025315
 21
4.2616555437
 31
0.0
 11
6.2739435105
 21
4.2607947654
 31
0.0
 11
6.2716359964
 21
4.2600127049
 31
0.0
  0
SPLINE
  5
4A2
100
AcDbEntity
  8
126-200_HEX_FEATURES
100
AcDbSpline
 62
7
  6
CONTINUOUS
 70
0
 71
3
 72
9
 73
5
 74
3
 42
0.0000001
 43
0.0000001
 44
0.0000000001
 12
0.0007954945
 22
0.0000463845
 32
0.0
 13
0.0007955999
 23
0.0000445513
 33
0.0
 40
0.0
 40
0.0
 40
0.0
 40
0.0
 40
0.8968145021
 40
1.0
 40
1.0
 40
1.0
 40
1.0
 10
6.2603147853
 20
3.7609461826
 30
0.0
 10
6.260552589
 20
3.7609600487
 30
0.0
 10
6.2608177699
 20
3.7609752363
 30
0.0
 10
6.2610829681
 20
3.7609901183
 30
0.0
 10
6.2611103329
 20
3.7609916506
 30
0.0
 11
6.2603147853
 21
3.7609461826
 31
0.0
 11
6.2610282391
 21
3.7609870438
 31
0.0
 11
6.2611103329
 21
3.7609916506
 31
0.0
  0
SPLINE
  5
4A3
100
AcDbEntity
  8
126-200_HEX_FEATURES
100
AcDbSpline
 62
7
  6
CONTINUOUS
 70
0
 71
3
 72
8
 73
4
 74
2
 42
0.0000001
 43
0.0000001
 44
0.0000000001
 12
0.0005691926
 22
0.0000318731
 32
0.0
 13
0.0005692447
 23
0.0000309341
 33
0.0
 40
0.0
 40
0.0
 40
0.0
 40
0.0
 40
1.0
 40
1.0
 40
1.0
 40
1.0
 10
6.2611103329
 20
3.7609916506
 30
0.0
 10
6.2613000638
 20
3.761002275
 30
0.0
 10
6.2614898034
 20
3.7610127429
 30
0.0
 10
6.2616795516
 20
3.7610230543
 30
0.0
 11
6.2611103329
 21
3.7609916506
 31
0.0
 11
6.2616795516
 21
3.7610230543
 31
0.0
  0
SPLINE
  5
4A4
100
AcDbEntity
  8
126-200_HEX_FEATURES
100
AcDbSpline
 62
7
  6
CONTINUOUS
 70
0
 71
3
 72
12
 73
8
 74
6
 42
0.0000001
 43
0.0000001
 44
0.0000000001
 12
0.0186168402
 22
0.0010116819
 32
0.0
 13
0.0186442868
 23
0.0
 33
0.0
 40
0.0
 40
0.0
 40
0.0
 40
0.0
 40
0.0754649471
 40
0.2467743967
 40
0.4676871224
 40
0.724365562
 40
1.0
 40
1.0
 40
1.0
 40
1.0
 10
6.2616795516
 20
3.7610230543
 30
0.0
 10
6.2621478579
 20
3.7610485031
 30
0.0
 10
6.2636794149
 20
3.7611286038
 30
0.0
 10
6.2665830012
 20
3.7612610547
 30
0.0
 10
6.270613399
 20
3.7614020132
 30
0.0
 10
6.2752935295
 20
3.7615049408
 30
0.0
 10
6.2786017828
 20
3.7615297694
 30
0.0
 10
6.2803147853
 20
3.7615297694
 30
0.0
 11
6.2616795516
 21
3.7610230543
 31
0.0
 11
6.263084623
 21
3.7610965384
 31
0.0
 11
6.2662752482
 21
3.7612420703
 31
0.0
 11
6.2703914925
 21
3.7613860102
 31
0.0
 11
6.2751759225
 21
3.7614912105
 31
0.0
 11
6.2803147853
 21
3.7615297694
 31
0.0
  0
SPLINE
  5
4A5
100
AcDbEntity
  8
0
100
AcDbSpline
 62
7
  6
CONTINUOUS
 70
0
 71
3
 72
14
 73
10
 74
8
 42
0.0000001
 43
0.0000001
 44
0.0000000001
 12
-0.1046826132
 22
0.2029792199
 32
0.0
 13
0.1046826132
 23
0.2029792199
 33
0.0
 40
0.0
 40
0.0
 40
0.0
 40
0.0
 40
0.1530438599
 40
0.2956043717
 40
0.4324922324
 40
0.5675957362
 40
0.7044780411
 40
0.8469906498
 40
1.0
 40
1.0
 40
1.0
 40
1.0
 10
5.0953784512
 20
3.6158437101
 30
0.0
 10
5.0900381075
 20
3.6261986179
 30
0.0
 10
5.0806331141
 20
3.6466983462
 30
0.0
 10
5.070591496
 20
3.6781538705
 30
0.0
 10
5.0654477859
 20
3.7094215393
 30
0.0
 10
5.065449479
 20
3.7406905635
 30
0.0
 10
5.0705955595
 20
3.7719536685
 30
0.0
 10
5.0806367419
 20
3.8034021835
 30
0.0
 10
5.0900393117
 20
3.8238960822
 30
0.0
 10
5.0953784512
 20
3.8342486551
 30
0.0
 11
5.0953784512
 21
3.6158437101
 31
0.0
 11
5.0809808525
 21
3.647693351
 31
0.0
 11
5.0712459803
 21
3.6787624022
 31
0.0
 11
5.0662807465
 21
3.709628516
 31
0.0
 11
5.0662823772
 21
3.7404839241
 31
0.0
 11
5.0712503662
 21
3.7713483094
 31
0.0
 11
5.0809836886
 21
3.8024063815
 31
0.0
 11
5.0953784512
 21
3.8342486551
 31
0.0
  0
SPLINE
  5
4A6
100
AcDbEntity
  8
0
100
AcDbSpline
 62
7
  6
CONTINUOUS
 70
0
 71
3
 72
15
 73
11
 74
9
 42
0.0000001
 43
0.0000001
 44
0.0000000001
 12
0.1643031241
 22
0.1839340856
 32
0.0
 13
-0.1643031241
 23
0.1839340856
 33
0.0
 40
0.0
 40
0.0
 40
0.0
 40
0.0
 40
0.1498215377
 40
0.2783315905
 40
0.3927788038
 40
0.5000592815
 40
0.6073304266
 40
0.7217569014
 40
0.8502022558
 40
1.0
 40
1.0
 40
1.0
 40
1.0
 10
5.4678147853
 20
3.6158437101
 30
0.0
 10
5.4760201676
 20
3.6250294726
 30
0.0
 10
5.4904519471
 20
3.6428724312
 30
0.0
 10
5.5070496758
 20
3.6707308453
 30
0.0
 10
5.5170347828
 20
3.6979579193
 30
0.0
 10
5.5203958059
 20
3.725060275
 30
0.0
 10
5.5170280322
 20
3.7521599388
 30
0.0
 10
5.5070409149
 20
3.7793777154
 30
0.0
 10
5.4904461853
 20
3.8072271758
 30
0.0
 10
5.4760188645
 20
3.8250643514
 30
0.0
 10
5.4678147853
 20
3.8342486551
 30
0.0
 11
5.4678147853
 21
3.6158437101
 31
0.0
 11
5.4907832591
 21
3.6447886231
 31
0.0
 11
5.506709444
 21
3.6721913381
 31
0.0
 11
5.5161584414
 21
3.6987891195
 31
0.0
 11
5.5192987504
 21
3.7250608834
 31
0.0
 11
5.5161521621
 21
3.7513295779
 31
0.0
 11
5.50670013
 21
3.7779208527
 31
0.0
 11
5.4907799224
 21
3.8053085857
 31
0.0
 11
5.4678147853
 21
3.8342486551
 31
0.0
  0
SPLINE
  5
4A7
100
AcDbEntity
  8
0
100
AcDbSpline
 62
7
  6
CONTINUOUS
 70
0
 71
3
 72
14
 73
10
 74
8
 42
0.0000001
 43
0.0000001
 44
0.0000000001
 12
-0.1103507163
 22
0.4279393037
 32
0.0
 13
0.1103507163
 23
0.4279393037
 33
0.0
 40
0.0
 40
0.0
 40
0.0
 40
0.0
 40
0.1477720816
 40
0.2900907235
 40
0.430227046
 40
0.569863817
 40
0.7099928421
 40
0.8522618536
 40
1.0
 40
1.0
 40
1.0
 40
1.0
 10
5.0953784512
 20
3.8855412376
 30
0.0
 10
5.0899428662
 20
3.9066203982
 30
0.0
 10
5.080427514
 20
3.9483144371
 30
0.0
 10
5.0705004307
 20
4.0109630761
 30
0.0
 10
5.0654458879
 20
4.073002511
 30
0.0
 10
5.0654475466
 20
4.134928972
 30
0.0
 10
5.0705044645
 20
4.1969597784
 30
0.0
 10
5.0804312399
 20
4.2595948538
 30
0.0
 10
5.0899441145
 20
4.3012768078
 30
0.0
 10
5.0953784512
 20
4.3223511276
 30
0.0
 11
5.0953784512
 21
3.8855412376
 31
0.0
 11
5.0809808525
 21
3.9492405194
 31
0.0
 11
5.0712459803
 21
4.0113786218
 31
0.0
 11
5.0662807465
 21
4.0731108495
 31
0.0
 11
5.0662823772
 21
4.1348216657
 31
0.0
 11
5.0712503662
 21
4.1965504363
 31
0.0
 11
5.0809836886
 21
4.2586665803
 31
0.0
 11
5.0953784512
 21
4.3223511276
 31
0.0
  0
SPLINE
  5
4A8
100
AcDbEntity
  8
0
100
AcDbSpline
 62
7
  6
CONTINUOUS
 70
0
 71
3
 72
15
 73
11
 74
9
 42
0.0000001
 43
0.0000001
 44
0.0000000001
 12
0.1843202379
 22
0.4126856942
 32
0.0
 13
-0.1843202379
 23
0.4126856942
 33
0.0
 40
0.0
 40
0.0
 40
0.0
 40
0.0
 40
0.1377942686
 40
0.2640673782
 40
0.3836049145
 40
0.5000649493
 40
0.6165122554
 40
0.736022619
 40
0.8622283762
 40
1.0
 40
1.0
 40
1.0
 40
1.0
 10
5.4678147853
 20
3.8855412376
 30
0.0
 10
5.4762808761
 20
3.9044964787
 30
0.0
 10
5.4911124189
 20
3.9414774176
 30
0.0
 10
5.5074495341
 20
3.9970136987
 30
0.0
 10
5.5171427036
 20
4.050844438
 30
0.0
 10
5.5203643601
 20
4.1039737409
 30
0.0
 10
5.51713617
 20
4.1570984915
 30
0.0
 10
5.5074406484
 20
4.2109122741
 30
0.0
 10
5.491106199
 20
4.2664307693
 30
0.0
 10
5.4762794848
 20
4.3033990015
 30
0.0
 10
5.4678147853
 20
4.3223511276
 30
0.0
 11
5.4678147853
 21
3.8855412376
 31
0.0
 11
5.4907832591
 21
3.9434310636
 31
0.0
 11
5.506709444
 21
3.9982364937
 31
0.0
 11
5.5161584414
 21
4.0514320563
 31
0.0
 11
5.5192987504
 21
4.1039755843
 31
0.0
 11
5.5161521621
 21
4.1565129732
 31
0.0
 11
5.50670013
 21
4.2096955229
 31
0.0
 11
5.4907799224
 21
4.2644709889
 31
0.0
 11
5.4678147853
 21
4.3223511276
 31
0.0
  0
SPLINE
  5
4A9
100
AcDbEntity
  8
0
100
AcDbSpline
 62
7
  6
CONTINUOUS
 70
0
 71
3
 72
14
 73
10
 74
8
 42
0.0000001
 43
0.0000001
 44
0.0000000001
 12
-0.1046826132
 22
0.2029792199
 32
0.0
 13
0.1046826132
 23
0.2029792199
 33
0.0
 40
0.0
 40
0.0
 40
0.0
 40
0.0
 40
0.1530438599
 40
0.2956043717
 40
0.4324922324
 40
0.5675957362
 40
0.7044780411
 40
0.8469906498
 40
1.0
 40
1.0
 40
1.0
 40
1.0
 10
5.0953784512
 20
4.3736437101
 30
0.0
 10
5.0900381075
 20
4.3839986179
 30
0.0
 10
5.0806331141
 20
4.4044983462
 30
0.0
 10
5.070591496
 20
4.4359538705
 30
0.0
 10
5.0654477859
 20
4.4672215393
 30
0.0
 10
5.065449479
 20
4.4984905635
 30
0.0
 10
5.0705955595
 20
4.5297536685
 30
0.0
 10
5.0806367419
 20
4.5612021835
 30
0.0
 10
5.0900393117
 20
4.5816960822
 30
0.0
 10
5.0953784512
 20
4.5920486551
 30
0.0
 11
5.0953784512
 21
4.3736437101
 31
0.0
 11
5.0809808525
 21
4.405493351
 31
0.0
 11
5.0712459803
 21
4.4365624022
 31
0.0
 11
5.0662807465
 21
4.467428516
 31
0.0
 11
5.0662823772
 21
4.4982839241
 31
0.0
 11
5.0712503662
 21
4.5291483094
 31
0.0
 11
5.0809836886
 21
4.5602063815
 31
0.0
 11
5.0953784512
 21
4.5920486551
 31
0.0
  0
SPLINE
  5
4AA
100
AcDbEntity
  8
0
100
AcDbSpline
 62
7
  6
CONTINUOUS
 70
0
 71
3
 72
15
 73
11
 74
9
 42
0.0000001
 43
0.0000001
 44
0.0000000001
 12
0.1643031241
 22
0.1839340856
 32
0.0
 13
-0.1643031241
 23
0.1839340856
 33
0.0
 40
0.0
 40
0.0
 40
0.0
 40
0.0
 40
0.1498215377
 40
0.2783315905
 40
0.3927788038
 40
0.5000592815
 40
0.6073304266
 40
0.7217569014
 40
0.8502022558
 40
1.0
 40
1.0
 40
1.0
 40
1.0
 10
5.4678147853
 20
4.3736437101
 30
0.0
 10
5.4760201676
 20
4.3828294726
 30
0.0
 10
5.4904519471
 20
4.4006724312
 30
0.0
 10
5.5070496758
 20
4.4285308453
 30
0.0
 10
5.5170347828
 20
4.4557579193
 30
0.0
 10
5.5203958059
 20
4.482860275
 30
0.0
 10
5.5170280322
 20
4.5099599388
 30
0.0
 10
5.5070409149
 20
4.5371777154
 30
0.0
 10
5.4904461853
 20
4.5650271758
 30
0.0
 10
5.4760188645
 20
4.5828643514
 30
0.0
 10
5.4678147853
 20
4.5920486551
 30
0.0
 11
5.4678147853
 21
4.3736437101
 31
0.0
 11
5.4907832591
 21
4.4025886231
 31
0.0
 11
5.506709444
 21
4.4299913381
 31
0.0
 11
5.5161584414
 21
4.4565891195
 31
0.0
 11
5.5192987504
 21
4.4828608834
 31
0.0
 11
5.5161521621
 21
4.5091295779
 31
0.0
 11
5.50670013
 21
4.5357208527
 31
0.0
 11
5.4907799224
 21
4.5631085857
 31
0.0
 11
5.4678147853
 21
4.5920486551
 31
0.0
  0
SPLINE
  5
4AB
100
AcDbEntity
  8
126-200_HEX_FEATURES
100
AcDbSpline
 62
7
  6
CONTINUOUS
 70
0
 71
3
 72
12
 73
8
 74
6
 42
0.0000001
 43
0.0000001
 44
0.0000000001
 12
0.0000051814
 22
0.0291937548
 32
0.0
 13
0.0290472348
 23
-0.0
 33
0.0
 40
0.0
 40
0.0
 40
0.0
 40
0.0
 40
0.1852361795
 40
0.37686522
 40
0.5756263854
 40
0.7855507883
 40
1.0
 40
1.0
 40
1.0
 40
1.0
 10
6.2603147884
 20
4.2754459476
 30
0.0
 10
6.2603151084
 20
4.2772485275
 30
0.0
 10
6.2609902323
 20
4.2809182244
 30
0.0
 10
6.2639368341
 20
4.2857847029
 30
0.0
 10
6.2684775539
 20
4.289563867
 30
0.0
 10
6.2741081859
 20
4.2919379483
 30
0.0
 10
6.2782383998
 20
4.2924748973
 30
0.0
 10
6.2803147853
 20
4.2924748973
 30
0.0
 11
6.2603147884
 21
4.2754459476
 31
0.0
 11
6.2612817414
 21
4.2807391434
 31
0.0
 11
6.2641303072
 21
4.285521329
 31
0.0
 11
6.2685354161
 21
4.2892533368
 31
0.0
 11
6.2741396283
 21
4.2916564675
 31
0.0
 11
6.2803147853
 21
4.2924748973
 31
0.0
  0
SPLINE
  5
4AC
100
AcDbEntity
  8
126-200_HEX_FEATURES
100
AcDbSpline
 62
7
  6
CONTINUOUS
 70
0
 71
3
 72
12
 73
8
 74
6
 42
0.0000001
 43
0.0000001
 44
0.0000000001
 12
0.029046983
 22
0.0
 32
0.0
 13
0.0000063213
 23
-0.02919334
 33
0.0
 40
0.0
 40
0.0
 40
0.0
 40
0.0
 40
0.2133086602
 40
0.4225407685
 40
0.6219541851
 40
0.8125951187
 40
1.0
 40
1.0
 40
1.0
 40
1.0
 10
6.2803147853
 20
4.2924748973
 30
0.0
 10
6.2823801097
 20
4.2924748973
 30
0.0
 10
6.2864922114
 20
4.2919430967
 30
0.0
 10
6.2921160951
 20
4.2895850856
 30
0.0
 10
6.2966585133
 20
4.2858228184
 30
0.0
 10
6.2996285165
 20
4.280951564
 30
0.0
 10
6.3003143941
 20
4.2772700757
 30
0.0
 10
6.300314789
 20
4.2754464176
 30
0.0
 11
6.2803147853
 21
4.2924748973
 31
0.0
 11
6.286457629
 21
4.2916652349
 31
0.0
 11
6.2920481939
 21
4.2892814695
 31
0.0
 11
6.2964766086
 21
4.2855477641
 31
0.0
 11
6.2993251265
 21
4.2807990444
 31
0.0
 11
6.300314789
 21
4.2754464176
 31
0.0
  0
ENDSEC
  0
SECTION
  2
OBJECTS
  0
DICTIONARY
  5
C
100
AcDbDictionary
280
0
281
1
  3
ACAD_GROUP
350
D
  3
ACAD_MLINESTYLE
350
17
  3
ACAD_LAYOUT
350
1A
  3
ACAD_PLOTSETTINGS
350
19
  3
ACAD_PLOTSTYLENAME
350
E
  0
DICTIONARY
  5
D
102
{ACAD_REACTORS
330
C
102
}
100
AcDbDictionary
280
0
281
1
  0
ACDBDICTIONARYWDFLT
  5
E
102
{ACAD_REACTORS
330
C
102
}
100
AcDbDictionary
281
1
  3
Normal
350
F
100
AcDbDictionaryWithDefault
340
F
  0
DICTIONARY
  5
17
102
{ACAD_REACTORS
330
C
102
}
100
AcDbDictionary
280
0
281
1
  3
Standard
350
18
  0
DICTIONARY
  5
19
102
{ACAD_REACTORS
330
C
102
}
100
AcDbDictionary
281
1
  0
DICTIONARY
  5
1A
102
{ACAD_REACTORS
330
C
102
}
100
AcDbDictionary
281
1
  3
Layout1
350
1E
  3
Model
350
22
  0
ACDBPLACEHOLDER
  5
F
102
{ACAD_REACTORS
330
E
102
}
  0
MLINESTYLE
  5
18
102
{ACAD_REACTORS
330
17
102
}
100
AcDbMlineStyle
  2
STANDARD
 70
0
  3

 62
256
 51
90.0
 52
90.0
 71
2
 49
0.5
 62
256
  6
BYLAYER
 49
-0.5
 62
256
  6
BYLAYER
  0
LAYOUT
  5
1E
102
{ACAD_REACTORS
330
1A
102
}
100
AcDbPlotSettings
  1

  2

  4

  6

 40
0.0
 41
0.0
 42
0.0
 43
0.0
 44
0.0
 45
0.0
 46
0.0
 47
0.0
 48
0.0
 49
0.0
140
0.0
141
0.0
142
1.0
143
1.0
 70
0
 72
0
 73
0
 74
0
  7

 75
0
147
1.0
148
0.0
149
0.0
100
AcDbLayout
  1
Layout1
 70
0
 71
0
 10
0.0
 20
0.0
 11
0.0
 21
0.0
 12
0.0
 22
0.0
 32
0.0
 14
0.0
 24
0.0
 34
0.0
 15
0.0
 25
0.0
 35
0.0
146
0.0
 13
0.0
 23
0.0
 33
0.0
 16
0.0
 26
0.0
 36
0.0
 17
0.0
 27
0.0
 37
0.0
 76
0
330
1B
331
0
345
0
346
0
  0
LAYOUT
  5
22
102
{ACAD_REACTORS
330
1A
102
}
100
AcDbPlotSettings
  1

  2

  4

  6

 40
0.0
 41
0.0
 42
0.0
 43
0.0
 44
0.0
 45
0.0
 46
0.0
 47
0.0
 48
0.0
 49
0.0
140
0.0
141
0.0
142
1.0
143
1.0
 70
0
 72
0
 73
0
 74
0
  7

 75
0
147
1.0
148
0.0
149
0.0
100
AcDbLayout
  1
Model
 70
0
 71
0
 10
0.0
 20
0.0
 11
0.0
 21
0.0
 12
0.0
 22
0.0
 32
0.0
 14
0.0
 24
0.0
 34
0.0
 15
0.0
 25
0.0
 35
0.0
146
0.0
 13
0.0
 23
0.0
 33
0.0
 16
0.0
 26
0.0
 36
0.0
 17
0.0
 27
0.0
 37
0.0
 76
0
330
1F
331
0
345
0
346
0
  0
ENDSEC
  0
EOF
