999
DXF file: RPKE-LAN.dxf
999
Pro/ENGINEER 2006240 by Parametric Technology Corporation
  0
SECTION
  2
HEADER
  9
$ACADVER
  1
AC1015
  9
$DWGCODEPAGE
  3
ANSI_1252
  9
$EXTMAX
 10
11.6929133858
 20
8.2677165354
 30
0.0
  9
$EXTMIN
 10
0.0
 20
0.0
 30
0.0
  9
$LIMMIN
 10
0.0
 20
0.0
  9
$LIMMAX
 10
11.6929133858
 20
8.2677165354
  9
$VIEWCTR
 10
5.8464566929
 20
4.1338582677
  9
$VIEWSIZE
 40
8.2677165354
  9
$CLAYER
  8
0
  9
$LTSCALE
 40
0.6431102362
  9
$CELTYPE
  6
BYLAYER
  9
$DIMSCALE
 40
1.0
  9
$DIMASZ
 40
0.1875
  9
$DIMEXO
 40
0.0730807087
  9
$DIMDLI
 40
0.4443307087
  9
$DIMEXE
 40
0.2104724409
  9
$DIMCEN
 40
0.1052362205
  9
$DIMLFAC
 40
1.0
  9
$DIMBLK
  1
_CLOSED
  9
$DIMTXT
 40
0.15625
  9
$DIMTOL
 70
0
  9
$DIMLIM
 70
0
  9
$DIMTFAC
 40
1.0
  9
$PDMODE
 70
3
  9
$PDSIZE
 40
0.3125
  9
$HANDSEED
  5
46C
  9
$MEASUREMENT
 70
0
  9
$INSUNITS
 70
1
  0
ENDSEC
  0
SECTION
  2
CLASSES
  0
CLASS
  1
ACDBDICTIONARYWDFLT
  2
AcDbDictionaryWithDefault
  3
AutoCAD 2000
 90
0
280
0
281
0
  0
CLASS
  1
ACDBPLACEHOLDER
  2
AcDbPlaceHolder
  3
AutoCAD 2000
 90
0
280
0
281
0
  0
CLASS
  1
LAYOUT
  2
AcDbLayout
  3
AutoCAD 2000
 90
0
280
0
281
0
  0
ENDSEC
  0
SECTION
  2
TABLES
  0
TABLE
  2
VPORT
  5
8
100
AcDbSymbolTable
 70
2
  0
VPORT
  5
1F4
100
AcDbSymbolTableRecord
100
AcDbViewportTableRecord
  2
*ACTIVE
 70
0
 10
0.0
 20
0.0
 11
1.0
 21
1.0
 12
5.8464566929
 22
4.1338582677
 13
0.0
 23
0.0
 14
1.0
 24
1.0
 15
0.0
 25
0.0
 16
0.0
 26
0.0
 36
1.0
 17
0.0
 27
0.0
 37
0.0
 40
8.2677165354
 41
1.4142857143
 42
50.0
 43
0.0
 44
0.0
 50
0.0
 51
0.0
 71
0
 72
100
 73
1
 74
1
 75
0
 76
0
 77
0
 78
0
  0
ENDTAB
  0
TABLE
  2
LTYPE
  5
5
100
AcDbSymbolTable
 70
6
  0
LTYPE
  5
14
100
AcDbSymbolTableRecord
100
AcDbLinetypeTableRecord
  2
BYBLOCK
 70
0
  3

 72
65
 73
0
 40
0.0
  0
LTYPE
  5
15
100
AcDbSymbolTableRecord
100
AcDbLinetypeTableRecord
  2
BYLAYER
 70
0
  3

 72
65
 73
0
 40
0.0
  0
LTYPE
  5
16
100
AcDbSymbolTableRecord
100
AcDbLinetypeTableRecord
  2
CONTINUOUS
 70
64
  3
Solid line
 72
65
 73
0
 40
0.0
  0
LTYPE
  5
1F5
100
AcDbSymbolTableRecord
100
AcDbLinetypeTableRecord
  2
CENTER
 70
64
  3
____ _ ____ _ ____ _ ____ _ ____ _ ____ _ ____
 72
65
 73
4
 40
0.6
 49
0.375
 74
0
 49
-0.075
 74
0
 49
0.075
 74
0
 49
-0.075
 74
0
  0
LTYPE
  5
1F6
100
AcDbSymbolTableRecord
100
AcDbLinetypeTableRecord
  2
HIDDEN
 70
64
  3
- - - - - - - - - - - - - - - - - - - -
 72
65
 73
2
 40
0.2
 49
0.1
 74
0
 49
-0.1
 74
0
  0
LTYPE
  5
1F7
100
AcDbSymbolTableRecord
100
AcDbLinetypeTableRecord
  2
PHANTOM
 70
64
  3
_____ _ _ _____ _ _ _____ _ _ _____
 72
65
 73
6
 40
0.8
 49
0.45
 74
0
 49
-0.05
 74
0
 49
0.1
 74
0
 49
-0.05
 74
0
 49
0.1
 74
0
 49
-0.05
 74
0
  0
LTYPE
  5
1F8
100
AcDbSymbolTableRecord
100
AcDbLinetypeTableRecord
  2
DOT
 70
64
  3
. . . . . . . . . . . . . . . . . . . .
 72
65
 73
2
 40
0.2
 49
0.1
 74
0
 49
-0.1
 74
0
  0
LTYPE
  5
1F9
100
AcDbSymbolTableRecord
100
AcDbLinetypeTableRecord
  2
DASHED
 70
64
  3
- - - - - - - - - - - - - - - - - - - -
 72
65
 73
2
 40
0.2
 49
0.1
 74
0
 49
-0.1
 74
0
  0
ENDTAB
  0
TABLE
  2
LAYER
  5
2
100
AcDbSymbolTable
 70
36
  0
LAYER
  5
10
100
AcDbSymbolTableRecord
100
AcDbLayerTableRecord
  2
0
 70
0
 62
7
  6
CONTINUOUS
370
-3
390
F
  0
LAYER
  5
1FA
100
AcDbSymbolTableRecord
100
AcDbLayerTableRecord
  2
DEFAULT_1
 70
0
 62
7
  6
CENTER
370
-3
390
F
  0
LAYER
  5
1FB
100
AcDbSymbolTableRecord
100
AcDbLayerTableRecord
  2
DEFAULT_2
 70
0
 62
8
  6
HIDDEN
370
-3
390
F
  0
LAYER
  5
1FC
100
AcDbSymbolTableRecord
100
AcDbLayerTableRecord
  2
DEFAULT_3
 70
0
 62
7
  6
PHANTOM
370
-3
390
F
  0
LAYER
  5
1FD
100
AcDbSymbolTableRecord
100
AcDbLayerTableRecord
  2
_BLACK_HOLE
 70
0
 62
7
  6
CONTINUOUS
370
-3
390
F
  0
LAYER
  5
1FE
100
AcDbSymbolTableRecord
100
AcDbLayerTableRecord
  2
01_ALL_DTM_PLN
 70
0
 62
7
  6
CONTINUOUS
370
-3
390
F
  0
LAYER
  5
1FF
100
AcDbSymbolTableRecord
100
AcDbLayerTableRecord
  2
01__ASM_ALL_DTM_PLN
 70
0
 62
7
  6
CONTINUOUS
370
-3
390
F
  0
LAYER
  5
200
100
AcDbSymbolTableRecord
100
AcDbLayerTableRecord
  2
01__ASM_DEF_DTM_PLN
 70
0
 62
7
  6
CONTINUOUS
370
-3
390
F
  0
LAYER
  5
201
100
AcDbSymbolTableRecord
100
AcDbLayerTableRecord
  2
01___PRT_ALL_DTM_PLN
 70
0
 62
7
  6
CONTINUOUS
370
-3
390
F
  0
LAYER
  5
202
100
AcDbSymbolTableRecord
100
AcDbLayerTableRecord
  2
01___PRT_DEF_DTM_PLN
 70
0
 62
7
  6
CONTINUOUS
370
-3
390
F
  0
LAYER
  5
203
100
AcDbSymbolTableRecord
100
AcDbLayerTableRecord
  2
02_ALL_AXES
 70
0
 62
7
  6
CONTINUOUS
370
-3
390
F
  0
LAYER
  5
204
100
AcDbSymbolTableRecord
100
AcDbLayerTableRecord
  2
02__ASM_ALL_AXES
 70
0
 62
7
  6
CONTINUOUS
370
-3
390
F
  0
LAYER
  5
205
100
AcDbSymbolTableRecord
100
AcDbLayerTableRecord
  2
02___PRT_ALL_AXES
 70
0
 62
7
  6
CONTINUOUS
370
-3
390
F
  0
LAYER
  5
206
100
AcDbSymbolTableRecord
100
AcDbLayerTableRecord
  2
03_ALL_CURVES
 70
0
 62
7
  6
CONTINUOUS
370
-3
390
F
  0
LAYER
  5
207
100
AcDbSymbolTableRecord
100
AcDbLayerTableRecord
  2
03__ASM_ALL_CURVES
 70
0
 62
7
  6
CONTINUOUS
370
-3
390
F
  0
LAYER
  5
208
100
AcDbSymbolTableRecord
100
AcDbLayerTableRecord
  2
03___PRT_ALL_CURVES
 70
0
 62
7
  6
CONTINUOUS
370
-3
390
F
  0
LAYER
  5
209
100
AcDbSymbolTableRecord
100
AcDbLayerTableRecord
  2
04_ALL_DTM_PNT
 70
0
 62
7
  6
CONTINUOUS
370
-3
390
F
  0
LAYER
  5
20A
100
AcDbSymbolTableRecord
100
AcDbLayerTableRecord
  2
04__ASM_ALL_DTM_PNT
 70
0
 62
7
  6
CONTINUOUS
370
-3
390
F
  0
LAYER
  5
20B
100
AcDbSymbolTableRecord
100
AcDbLayerTableRecord
  2
04___PRT_ALL_DTM_PNT
 70
0
 62
7
  6
CONTINUOUS
370
-3
390
F
  0
LAYER
  5
20C
100
AcDbSymbolTableRecord
100
AcDbLayerTableRecord
  2
05_ALL_DTM_CSYS
 70
0
 62
7
  6
CONTINUOUS
370
-3
390
F
  0
LAYER
  5
20D
100
AcDbSymbolTableRecord
100
AcDbLayerTableRecord
  2
05__ASM_ALL_DTM_CSYS
 70
0
 62
7
  6
CONTINUOUS
370
-3
390
F
  0
LAYER
  5
20E
100
AcDbSymbolTableRecord
100
AcDbLayerTableRecord
  2
05__ASM_DEF_DTM_CSYS
 70
0
 62
7
  6
CONTINUOUS
370
-3
390
F
  0
LAYER
  5
20F
100
AcDbSymbolTableRecord
100
AcDbLayerTableRecord
  2
05___PRT_ALL_DTM_CSYS
 70
0
 62
7
  6
CONTINUOUS
370
-3
390
F
  0
LAYER
  5
210
100
AcDbSymbolTableRecord
100
AcDbLayerTableRecord
  2
05___PRT_DEF_DTM_CSYS
 70
0
 62
7
  6
CONTINUOUS
370
-3
390
F
  0
LAYER
  5
211
100
AcDbSymbolTableRecord
100
AcDbLayerTableRecord
  2
06_ALL_SURFS
 70
0
 62
7
  6
CONTINUOUS
370
-3
390
F
  0
LAYER
  5
212
100
AcDbSymbolTableRecord
100
AcDbLayerTableRecord
  2
06__ASM_ALL_SURFS
 70
0
 62
7
  6
CONTINUOUS
370
-3
390
F
  0
LAYER
  5
213
100
AcDbSymbolTableRecord
100
AcDbLayerTableRecord
  2
06___PRT_ALL_SURFS
 70
0
 62
7
  6
CONTINUOUS
370
-3
390
F
  0
LAYER
  5
214
100
AcDbSymbolTableRecord
100
AcDbLayerTableRecord
  2
07__ASM_ALL_SKELETONS
 70
0
 62
7
  6
CONTINUOUS
370
-3
390
F
  0
LAYER
  5
215
100
AcDbSymbolTableRecord
100
AcDbLayerTableRecord
  2
125-177_FEATURES
 70
0
 62
7
  6
CONTINUOUS
370
-3
390
F
  0
LAYER
  5
216
100
AcDbSymbolTableRecord
100
AcDbLayerTableRecord
  2
125-177_REF_GEOMETRY
 70
0
 62
7
  6
CONTINUOUS
370
-3
390
F
  0
LAYER
  5
217
100
AcDbSymbolTableRecord
100
AcDbLayerTableRecord
  2
129-008_FEATURES
 70
0
 62
7
  6
CONTINUOUS
370
-3
390
F
  0
LAYER
  5
218
100
AcDbSymbolTableRecord
100
AcDbLayerTableRecord
  2
129-008_REF_GEOMETRY
 70
0
 62
7
  6
CONTINUOUS
370
-3
390
F
  0
LAYER
  5
219
100
AcDbSymbolTableRecord
100
AcDbLayerTableRecord
  2
129-200_FEATURES
 70
0
 62
7
  6
CONTINUOUS
370
-3
390
F
  0
LAYER
  5
21A
100
AcDbSymbolTableRecord
100
AcDbLayerTableRecord
  2
129-200_REF_GEOMETRY
 70
0
 62
7
  6
CONTINUOUS
370
-3
390
F
  0
LAYER
  5
21B
100
AcDbSymbolTableRecord
100
AcDbLayerTableRecord
  2
129-201_FEATURES
 70
0
 62
7
  6
CONTINUOUS
370
-3
390
F
  0
LAYER
  5
21C
100
AcDbSymbolTableRecord
100
AcDbLayerTableRecord
  2
129-201_REF_GEOMETRY
 70
0
 62
7
  6
CONTINUOUS
370
-3
390
F
  0
LAYER
  5
21D
100
AcDbSymbolTableRecord
100
AcDbLayerTableRecord
  2
COPY_GEO_FET
 70
0
 62
7
  6
CONTINUOUS
370
-3
390
F
  0
LAYER
  5
21E
100
AcDbSymbolTableRecord
100
AcDbLayerTableRecord
  2
COSMETIC
 70
0
 62
7
  6
CONTINUOUS
370
-3
390
F
  0
LAYER
  5
21F
100
AcDbSymbolTableRecord
100
AcDbLayerTableRecord
  2
COSM_REF
 70
0
 62
7
  6
CONTINUOUS
370
-3
390
F
  0
LAYER
  5
220
100
AcDbSymbolTableRecord
100
AcDbLayerTableRecord
  2
CURVES
 70
0
 62
7
  6
CONTINUOUS
370
-3
390
F
  0
LAYER
  5
221
100
AcDbSymbolTableRecord
100
AcDbLayerTableRecord
  2
CUT_REF_SURF
 70
0
 62
7
  6
CONTINUOUS
370
-3
390
F
  0
LAYER
  5
222
100
AcDbSymbolTableRecord
100
AcDbLayerTableRecord
  2
DATUM
 70
0
 62
7
  6
CONTINUOUS
370
-3
390
F
  0
LAYER
  5
223
100
AcDbSymbolTableRecord
100
AcDbLayerTableRecord
  2
DATUMCURVES
 70
0
 62
7
  6
CONTINUOUS
370
-3
390
F
  0
LAYER
  5
224
100
AcDbSymbolTableRecord
100
AcDbLayerTableRecord
  2
DIMENSIONS
 70
0
 62
7
  6
CONTINUOUS
370
-3
390
F
  0
LAYER
  5
225
100
AcDbSymbolTableRecord
100
AcDbLayerTableRecord
  2
DRAWINGNOTES
 70
0
 62
7
  6
CONTINUOUS
370
-3
390
F
  0
LAYER
  5
226
100
AcDbSymbolTableRecord
100
AcDbLayerTableRecord
  2
DTM
 70
0
 62
7
  6
CONTINUOUS
370
-3
390
F
  0
LAYER
  5
227
100
AcDbSymbolTableRecord
100
AcDbLayerTableRecord
  2
DTM230
 70
0
 62
7
  6
CONTINUOUS
370
-3
390
F
  0
LAYER
  5
228
100
AcDbSymbolTableRecord
100
AcDbLayerTableRecord
  2
DTM_500001
 70
0
 62
7
  6
CONTINUOUS
370
-3
390
F
  0
LAYER
  5
229
100
AcDbSymbolTableRecord
100
AcDbLayerTableRecord
  2
DTM_500002
 70
0
 62
7
  6
CONTINUOUS
370
-3
390
F
  0
LAYER
  5
22A
100
AcDbSymbolTableRecord
100
AcDbLayerTableRecord
  2
DTM_515002
 70
0
 62
7
  6
CONTINUOUS
370
-3
390
F
  0
LAYER
  5
22B
100
AcDbSymbolTableRecord
100
AcDbLayerTableRecord
  2
DTM_530-102
 70
0
 62
7
  6
CONTINUOUS
370
-3
390
F
  0
LAYER
  5
22C
100
AcDbSymbolTableRecord
100
AcDbLayerTableRecord
  2
DTM_800001
 70
0
 62
7
  6
CONTINUOUS
370
-3
390
F
  0
LAYER
  5
22D
100
AcDbSymbolTableRecord
100
AcDbLayerTableRecord
  2
DTM_BALLHOLDER
 70
0
 62
7
  6
CONTINUOUS
370
-3
390
F
  0
LAYER
  5
22E
100
AcDbSymbolTableRecord
100
AcDbLayerTableRecord
  2
DTM_SPRING_RH
 70
0
 62
7
  6
CONTINUOUS
370
-3
390
F
  0
LAYER
  5
22F
100
AcDbSymbolTableRecord
100
AcDbLayerTableRecord
  2
DTM_SP_RH_CONSTR
 70
0
 62
7
  6
CONTINUOUS
370
-3
390
F
  0
LAYER
  5
230
100
AcDbSymbolTableRecord
100
AcDbLayerTableRecord
  2
FACE1
 70
0
 62
7
  6
CONTINUOUS
370
-3
390
F
  0
LAYER
  5
231
100
AcDbSymbolTableRecord
100
AcDbLayerTableRecord
  2
FACE2
 70
0
 62
7
  6
CONTINUOUS
370
-3
390
F
  0
LAYER
  5
232
100
AcDbSymbolTableRecord
100
AcDbLayerTableRecord
  2
FACE3
 70
0
 62
7
  6
CONTINUOUS
370
-3
390
F
  0
LAYER
  5
233
100
AcDbSymbolTableRecord
100
AcDbLayerTableRecord
  2
FACE4
 70
0
 62
7
  6
CONTINUOUS
370
-3
390
F
  0
LAYER
  5
234
100
AcDbSymbolTableRecord
100
AcDbLayerTableRecord
  2
GEOMETRICTOLERANCES
 70
0
 62
7
  6
CONTINUOUS
370
-3
390
F
  0
LAYER
  5
235
100
AcDbSymbolTableRecord
100
AcDbLayerTableRecord
  2
LAY0001
 70
0
 62
7
  6
CONTINUOUS
370
-3
390
F
  0
LAYER
  5
236
100
AcDbSymbolTableRecord
100
AcDbLayerTableRecord
  2
PARAMETERDIMENSIONS
 70
0
 62
7
  6
CONTINUOUS
370
-3
390
F
  0
LAYER
  5
237
100
AcDbSymbolTableRecord
100
AcDbLayerTableRecord
  2
PART
 70
0
 62
7
  6
CONTINUOUS
370
-3
390
F
  0
LAYER
  5
238
100
AcDbSymbolTableRecord
100
AcDbLayerTableRecord
  2
PLANE
 70
0
 62
7
  6
CONTINUOUS
370
-3
390
F
  0
LAYER
  5
239
100
AcDbSymbolTableRecord
100
AcDbLayerTableRecord
  2
PROTRUSIONS
 70
0
 62
7
  6
CONTINUOUS
370
-3
390
F
  0
LAYER
  5
23A
100
AcDbSymbolTableRecord
100
AcDbLayerTableRecord
  2
SAE_PORT
 70
0
 62
7
  6
CONTINUOUS
370
-3
390
F
  0
LAYER
  5
23B
100
AcDbSymbolTableRecord
100
AcDbLayerTableRecord
  2
TEXT
 70
0
 62
7
  6
CONTINUOUS
370
-3
390
F
  0
LAYER
  5
23C
100
AcDbSymbolTableRecord
100
AcDbLayerTableRecord
  2
THREAD
 70
0
 62
7
  6
CONTINUOUS
370
-3
390
F
  0
ENDTAB
  0
TABLE
  2
STYLE
  5
3
100
AcDbSymbolTable
 70
1
  0
STYLE
  5
11
100
AcDbSymbolTableRecord
100
AcDbTextStyleTableRecord
  2
STANDARD
 70
0
 40
0.0
 41
0.8
 50
0.0
 71
0
 42
0.2
  3
txt
  4

  0
ENDTAB
  0
TABLE
  2
VIEW
  5
6
100
AcDbSymbolTable
 70
0
  0
ENDTAB
  0
TABLE
  2
UCS
  5
7
100
AcDbSymbolTable
 70
0
  0
ENDTAB
  0
TABLE
  2
APPID
  5
9
100
AcDbSymbolTable
 70
1
  0
APPID
  5
23D
100
AcDbSymbolTableRecord
100
AcDbRegAppTableRecord
  2
ACAD
 70
0
  0
ENDTAB
  0
TABLE
  2
BLOCK_RECORD
  5
1
100
AcDbSymbolTable
 70
0
  0
BLOCK_RECORD
  5
1F
100
AcDbSymbolTableRecord
100
AcDbBlockTableRecord
  2
*MODEL_SPACE
  0
BLOCK_RECORD
  5
1B
100
AcDbSymbolTableRecord
100
AcDbBlockTableRecord
  2
*PAPER_SPACE
  0
ENDTAB
  0
TABLE
  2
DIMSTYLE
  5
A
100
AcDbSymbolTable
 70
1
100
AcDbDimStyleTable
 71
0
  0
DIMSTYLE
105
23E
100
AcDbSymbolTableRecord
100
AcDbDimStyleTableRecord
  2
STANDARD
 70
0
  3

  4

 40
1.0
 41
0.1875
 42
0.0625
 43
0.38
 44
0.18
 45
0.0
 46
0.0
 47
0.01
 48
0.01
140
0.15625
141
0.09
142
0.0
143
25.4
144
1.0
145
0.0
146
1.0
147
0.09
 71
0.0
 72
0.0
 73
1
 74
1
 75
0
 76
0
 77
0
 78
4
170
0
171
2
172
0
173
0
174
0
175
0
176
0
177
0
178
0
270
2
271
2
272
2
273
2
274
2
275
0
280
0
281
0
282
0
283
1
284
4
285
0
286
0
287
3
288
0
340
11
  0
ENDTAB
  0
ENDSEC
  0
SECTION
  2
BLOCKS
  0
BLOCK
  5
20
100
AcDbEntity
  8
0
100
AcDbBlockBegin
  2
*MODEL_SPACE
 70
0
 10
0.0
 20
0.0
 30
0.0
  3
*MODEL_SPACE
  1

  0
ENDBLK
  5
21
100
AcDbEntity
  8
0
100
AcDbBlockEnd
  0
BLOCK
  5
1C
100
AcDbEntity
  8
0
100
AcDbBlockBegin
  2
*PAPER_SPACE
 70
0
 10
0.0
 20
0.0
 30
0.0
  3
*PAPER_SPACE
  1

  0
ENDBLK
  5
1D
100
AcDbEntity
  8
0
100
AcDbBlockEnd
  0
ENDSEC
  0
SECTION
  2
ENTITIES
  0
LINE
  5
23F
100
AcDbEntity
  8
0
100
AcDbLine
 62
7
  6
CONTINUOUS
 10
2.4633347079
 20
4.5204396826
 11
2.4633347079
 21
4.2144396826
  0
LINE
  5
240
100
AcDbEntity
  8
03__ASM_ALL_CURVES
100
AcDbLine
 62
40
  6
CONTINUOUS
 10
2.4633347079
 20
4.5204396826
 11
2.4633347079
 21
5.7154776826
  0
LINE
  5
241
100
AcDbEntity
  8
0
100
AcDbLine
 62
7
  6
CONTINUOUS
 10
2.4943347079
 20
4.5514396826
 11
2.4943347079
 21
4.1834396826
  0
LINE
  5
242
100
AcDbEntity
  8
03__ASM_ALL_CURVES
100
AcDbLine
 62
40
  6
CONTINUOUS
 10
2.6414447079
 20
5.6857926826
 11
2.6414447079
 21
5.6264226826
  0
LINE
  5
243
100
AcDbEntity
  8
0
100
AcDbLine
 62
7
  6
CONTINUOUS
 10
2.6933347079
 20
4.5514396826
 11
2.6933347079
 21
4.1834396826
  0
LINE
  5
244
100
AcDbEntity
  8
0
100
AcDbLine
 62
7
  6
CONTINUOUS
 10
2.6948347079
 20
4.2062966896
 11
2.6948347079
 21
4.4435632514
  0
LINE
  5
245
100
AcDbEntity
  8
0
100
AcDbLine
 62
7
  6
CONTINUOUS
 10
2.7298347079
 20
4.2062966896
 11
2.7298347079
 21
4.4435632514
  0
LINE
  5
246
100
AcDbEntity
  8
0
100
AcDbLine
 62
7
  6
CONTINUOUS
 10
2.7313347079
 20
4.5514396826
 11
2.7313347079
 21
4.1834396826
  0
LINE
  5
247
100
AcDbEntity
  8
03__ASM_ALL_CURVES
100
AcDbLine
 62
40
  6
CONTINUOUS
 10
3.0988800204
 20
5.7525839326
 11
3.0896034579
 21
5.7154776826
  0
LINE
  5
248
100
AcDbEntity
  8
03__ASM_ALL_CURVES
100
AcDbLine
 62
40
  6
CONTINUOUS
 10
3.0896034579
 20
5.8391651796
 11
3.0988800204
 21
5.8515339355
  0
LINE
  5
249
100
AcDbEntity
  8
03__ASM_ALL_CURVES
100
AcDbLine
 62
40
  6
CONTINUOUS
 10
3.1174331454
 20
5.7773214311
 11
3.0988800204
 21
5.7525839326
  0
LINE
  5
24A
100
AcDbEntity
  8
03__ASM_ALL_CURVES
100
AcDbLine
 62
40
  6
CONTINUOUS
 10
3.1638159579
 20
5.8144276855
 11
3.1545393954
 21
5.8020589296
  0
LINE
  5
24B
100
AcDbEntity
  8
0
100
AcDbLine
 62
7
  6
CONTINUOUS
 10
2.9623347079
 20
4.1197884975
 11
2.9623347079
 21
4.6150908677
  0
LINE
  5
24C
100
AcDbEntity
  8
0
100
AcDbLine
 62
7
  6
CONTINUOUS
 10
3.0243347079
 20
4.0964396826
 11
3.0243347079
 21
4.6384396826
  0
LINE
  5
24D
100
AcDbEntity
  8
0
100
AcDbLine
 62
7
  6
CONTINUOUS
 10
3.0303347079
 20
4.0964396826
 11
3.0303347079
 21
4.6384396826
  0
LINE
  5
24E
100
AcDbEntity
  8
0
100
AcDbLine
 62
7
  6
CONTINUOUS
 10
3.0358347079
 20
4.1019396826
 11
3.0358347079
 21
4.6329396826
  0
LINE
  5
24F
100
AcDbEntity
  8
0
100
AcDbLine
 62
7
  6
CONTINUOUS
 10
3.0518347079
 20
4.1019396826
 11
3.0518347079
 21
4.6329396826
  0
LINE
  5
250
100
AcDbEntity
  8
03__ASM_ALL_CURVES
100
AcDbLine
 62
40
  6
CONTINUOUS
 10
3.3864534579
 20
5.8391651796
 11
3.3957300204
 21
5.8515339355
  0
LINE
  5
251
100
AcDbEntity
  8
03__ASM_ALL_CURVES
100
AcDbLine
 62
40
  6
CONTINUOUS
 10
3.3771768954
 20
5.7649526841
 11
3.3957300204
 21
5.7896901826
  0
LINE
  5
252
100
AcDbEntity
  8
03__ASM_ALL_CURVES
100
AcDbLine
 62
40
  6
CONTINUOUS
 10
3.4606659579
 20
5.8267964326
 11
3.4513893954
 21
5.8144276855
  0
LINE
  5
253
100
AcDbEntity
  8
03__ASM_ALL_CURVES
100
AcDbLine
 62
40
  6
CONTINUOUS
 10
3.4699425204
 20
5.7525839326
 11
3.4513893954
 21
5.727846433
  0
LINE
  5
254
100
AcDbEntity
  8
03__ASM_ALL_CURVES
100
AcDbLine
 62
40
  6
CONTINUOUS
 10
3.0988800204
 20
5.8515339355
 11
3.1174331454
 21
5.8639026826
  0
LINE
  5
255
100
AcDbEntity
  8
03__ASM_ALL_CURVES
100
AcDbLine
 62
40
  6
CONTINUOUS
 10
3.1545393954
 20
5.8020589296
 11
3.1174331454
 21
5.7773214311
  0
LINE
  5
256
100
AcDbEntity
  8
03__ASM_ALL_CURVES
100
AcDbLine
 62
40
  6
CONTINUOUS
 10
3.1638159579
 20
5.8391651796
 11
3.1638159579
 21
5.8144276855
  0
LINE
  5
257
100
AcDbEntity
  8
0
100
AcDbLine
 62
7
  6
CONTINUOUS
 10
3.2433347079
 20
4.0964396826
 11
3.2433347079
 21
4.6384396826
  0
LINE
  5
258
100
AcDbEntity
  8
03__ASM_ALL_CURVES
100
AcDbLine
 62
40
  6
CONTINUOUS
 10
3.2658581454
 20
5.7154776826
 11
3.2658581454
 21
5.727846433
  0
LINE
  5
259
100
AcDbEntity
  8
0
100
AcDbLine
 62
7
  6
CONTINUOUS
 10
3.2743347079
 20
3.6484396826
 11
3.2743347079
 21
5.0864396826
  0
LINE
  5
25A
100
AcDbEntity
  8
0
100
AcDbLine
 62
7
  6
CONTINUOUS
 10
3.3363347079
 20
3.5864396826
 11
3.3363347079
 21
5.1484396826
  0
LINE
  5
25B
100
AcDbEntity
  8
03__ASM_ALL_CURVES
100
AcDbLine
 62
40
  6
CONTINUOUS
 10
3.7296862704
 20
5.8639026826
 11
3.7111331454
 21
5.8391651796
  0
LINE
  5
25C
100
AcDbEntity
  8
0
100
AcDbLine
 62
7
  6
CONTINUOUS
 10
2.4633347079
 20
4.5204396826
 11
2.4943347079
 21
4.5514396826
  0
LINE
  5
25D
100
AcDbEntity
  8
03__ASM_ALL_CURVES
100
AcDbLine
 62
40
  6
CONTINUOUS
 10
3.3957300204
 20
5.8515339355
 11
3.4142831454
 21
5.8639026826
  0
LINE
  5
25E
100
AcDbEntity
  8
03__ASM_ALL_CURVES
100
AcDbLine
 62
40
  6
CONTINUOUS
 10
3.3957300204
 20
5.7896901826
 11
3.4142831454
 21
5.8020589296
  0
LINE
  5
25F
100
AcDbEntity
  8
03__ASM_ALL_CURVES
100
AcDbLine
 62
40
  6
CONTINUOUS
 10
3.4513893954
 20
5.8144276855
 11
3.4328362704
 21
5.8020589296
  0
LINE
  5
260
100
AcDbEntity
  8
03__ASM_ALL_CURVES
100
AcDbLine
 62
40
  6
CONTINUOUS
 10
3.4513893954
 20
5.727846433
 11
3.4328362704
 21
5.7154776826
  0
LINE
  5
261
100
AcDbEntity
  8
03__ASM_ALL_CURVES
100
AcDbLine
 62
40
  6
CONTINUOUS
 10
3.3771768954
 20
5.7525839326
 11
3.3771768954
 21
5.7649526841
  0
LINE
  5
262
100
AcDbEntity
  8
03__ASM_ALL_CURVES
100
AcDbLine
 62
40
  6
CONTINUOUS
 10
3.3864534579
 20
5.8267964326
 11
3.3864534579
 21
5.8391651796
  0
LINE
  5
263
100
AcDbEntity
  8
03__ASM_ALL_CURVES
100
AcDbLine
 62
40
  6
CONTINUOUS
 10
3.4606659579
 20
5.8391651796
 11
3.4606659579
 21
5.8267964326
  0
LINE
  5
264
100
AcDbEntity
  8
03__ASM_ALL_CURVES
100
AcDbLine
 62
40
  6
CONTINUOUS
 10
3.4699425204
 20
5.7649526841
 11
3.4699425204
 21
5.7525839326
  0
LINE
  5
265
100
AcDbEntity
  8
03__ASM_ALL_CURVES
100
AcDbLine
 62
40
  6
CONTINUOUS
 10
3.5719847079
 20
5.8639026826
 11
3.5719847079
 21
5.7154776826
  0
LINE
  5
266
100
AcDbEntity
  8
03__ASM_ALL_CURVES
100
AcDbLine
 62
40
  6
CONTINUOUS
 10
3.7111331454
 20
5.8391651796
 11
3.7018565829
 21
5.8020589296
  0
LINE
  5
267
100
AcDbEntity
  8
03__ASM_ALL_CURVES
100
AcDbLine
 62
40
  6
CONTINUOUS
 10
3.8781112704
 20
5.7773214311
 11
3.8873878329
 21
5.8144276855
  0
LINE
  5
268
100
AcDbEntity
  8
03__ASM_ALL_CURVES
100
AcDbLine
 62
40
  6
CONTINUOUS
 10
3.8873878329
 20
5.8144276855
 11
3.9059409579
 21
5.8639026826
  0
LINE
  5
269
100
AcDbEntity
  8
0
100
AcDbLine
 62
7
  6
CONTINUOUS
 10
3.3363347079
 20
5.1484396826
 11
3.2743347079
 21
5.0864396826
  0
LINE
  5
26A
100
AcDbEntity
  8
0
100
AcDbLine
 62
7
  6
CONTINUOUS
 10
3.0673354935
 20
4.6484404682
 11
3.0518347079
 21
4.6329396826
  0
LINE
  5
26B
100
AcDbEntity
  8
0
100
AcDbLine
 62
7
  6
CONTINUOUS
 10
2.4633347079
 20
4.2144396826
 11
2.4943347079
 21
4.1834396826
  0
LINE
  5
26C
100
AcDbEntity
  8
0
100
AcDbLine
 62
7
  6
CONTINUOUS
 10
3.3363347079
 20
3.5864396826
 11
3.2743347079
 21
3.6484396826
  0
LINE
  5
26D
100
AcDbEntity
  8
03__ASM_ALL_CURVES
100
AcDbLine
 62
40
  6
CONTINUOUS
 10
3.7018565829
 20
5.8020589296
 11
3.7018565829
 21
5.7773214311
  0
LINE
  5
26E
100
AcDbEntity
  8
03__ASM_ALL_CURVES
100
AcDbLine
 62
40
  6
CONTINUOUS
 10
3.8688347079
 20
5.7154776826
 11
3.8781112704
 21
5.7773214311
  0
LINE
  5
26F
100
AcDbEntity
  8
0
100
AcDbLine
 62
7
  6
CONTINUOUS
 10
3.2433347079
 20
4.0964396826
 11
3.2372399358
 21
4.0858832276
  0
LINE
  5
270
100
AcDbEntity
  8
03__ASM_ALL_CURVES
100
AcDbLine
 62
40
  6
CONTINUOUS
 10
4.3512159579
 20
5.8267964326
 11
4.3419393954
 21
5.8144276855
  0
LINE
  5
271
100
AcDbEntity
  8
03__ASM_ALL_CURVES
100
AcDbLine
 62
40
  6
CONTINUOUS
 10
4.3604925204
 20
5.7525839326
 11
4.3419393954
 21
5.727846433
  0
LINE
  5
272
100
AcDbEntity
  8
03__ASM_ALL_CURVES
100
AcDbLine
 62
40
  6
CONTINUOUS
 10
4.2862800204
 20
5.8515339355
 11
4.3048331454
 21
5.8639026826
  0
LINE
  5
273
100
AcDbEntity
  8
03__ASM_ALL_CURVES
100
AcDbLine
 62
40
  6
CONTINUOUS
 10
4.3419393954
 20
5.8144276855
 11
4.3233862704
 21
5.8020589296
  0
LINE
  5
274
100
AcDbEntity
  8
03__ASM_ALL_CURVES
100
AcDbLine
 62
40
  6
CONTINUOUS
 10
4.3419393954
 20
5.727846433
 11
4.3233862704
 21
5.7154776826
  0
LINE
  5
275
100
AcDbEntity
  8
0
100
AcDbLine
 62
7
  6
CONTINUOUS
 10
3.0673354935
 20
4.086438897
 11
3.0518347079
 21
4.1019396826
  0
LINE
  5
276
100
AcDbEntity
  8
0
100
AcDbLine
 62
7
  6
CONTINUOUS
 10
3.2433347079
 20
4.6384396826
 11
3.2372399358
 21
4.6489961376
  0
LINE
  5
277
100
AcDbEntity
  8
03__ASM_ALL_CURVES
100
AcDbLine
 62
40
  6
CONTINUOUS
 10
4.0172597079
 20
5.8639026826
 11
4.0172597079
 21
5.7154776826
  0
LINE
  5
278
100
AcDbEntity
  8
0
100
AcDbLine
 62
7
  6
CONTINUOUS
 10
4.0873347079
 20
3.5604396826
 11
4.0873347079
 21
5.1744396826
  0
LINE
  5
279
100
AcDbEntity
  8
03__ASM_ALL_CURVES
100
AcDbLine
 62
40
  6
CONTINUOUS
 10
4.4810878329
 20
5.8144276855
 11
4.4996409579
 21
5.8639026826
  0
LINE
  5
27A
100
AcDbEntity
  8
0
100
AcDbLine
 62
7
  6
CONTINUOUS
 10
4.1543073391
 20
5.2904396826
 11
4.0873347079
 21
5.1744396826
  0
LINE
  5
27B
100
AcDbEntity
  8
03__ASM_ALL_CURVES
100
AcDbLine
 62
40
  6
CONTINUOUS
 10
4.6202362704
 20
5.7402151833
 11
4.6016831454
 21
5.7154776826
  0
LINE
  5
27C
100
AcDbEntity
  8
0
100
AcDbLine
 62
7
  6
CONTINUOUS
 10
3.0358347079
 20
4.1019396826
 11
3.0303347079
 21
4.0964396826
  0
LINE
  5
27D
100
AcDbEntity
  8
0
100
AcDbLine
 62
7
  6
CONTINUOUS
 10
3.0358347079
 20
4.6329396826
 11
3.0303347079
 21
4.6384396826
  0
LINE
  5
27E
100
AcDbEntity
  8
0
100
AcDbLine
 62
7
  6
CONTINUOUS
 10
4.1543073391
 20
3.4444396826
 11
4.0873347079
 21
3.5604396826
  0
LINE
  5
27F
100
AcDbEntity
  8
0
100
AcDbLine
 62
7
  6
CONTINUOUS
 10
4.1543073391
 20
3.4444396826
 11
4.1543073391
 21
3.444835024
  0
LINE
  5
280
100
AcDbEntity
  8
0
100
AcDbLine
 62
7
  6
CONTINUOUS
 10
4.1543073391
 20
3.8827443411
 11
4.1543073391
 21
3.9295303655
  0
LINE
  5
281
100
AcDbEntity
  8
0
100
AcDbLine
 62
7
  6
CONTINUOUS
 10
4.1543073391
 20
4.8053489997
 11
4.1543073391
 21
4.852135024
  0
LINE
  5
282
100
AcDbEntity
  8
0
100
AcDbLine
 62
7
  6
CONTINUOUS
 10
4.1543073391
 20
5.2900443411
 11
4.1543073391
 21
5.2904396826
  0
LINE
  5
283
100
AcDbEntity
  8
03__ASM_ALL_CURVES
100
AcDbLine
 62
40
  6
CONTINUOUS
 10
4.1564081454
 20
5.7154776826
 11
4.1564081454
 21
5.727846433
  0
LINE
  5
284
100
AcDbEntity
  8
03__ASM_ALL_CURVES
100
AcDbLine
 62
40
  6
CONTINUOUS
 10
4.3512159579
 20
5.8391651796
 11
4.3512159579
 21
5.8267964326
  0
LINE
  5
285
100
AcDbEntity
  8
03__ASM_ALL_CURVES
100
AcDbLine
 62
40
  6
CONTINUOUS
 10
4.4625347079
 20
5.7154776826
 11
4.4718112704
 21
5.7773214311
  0
LINE
  5
286
100
AcDbEntity
  8
03__ASM_ALL_CURVES
100
AcDbLine
 62
40
  6
CONTINUOUS
 10
4.4718112704
 20
5.7773214311
 11
4.4810878329
 21
5.8144276855
  0
LINE
  5
287
100
AcDbEntity
  8
03__ASM_ALL_CURVES
100
AcDbLine
 62
40
  6
CONTINUOUS
 10
4.6295128329
 20
5.7773214311
 11
4.6202362704
 21
5.7402151833
  0
LINE
  5
288
100
AcDbEntity
  8
03__ASM_ALL_CURVES
100
AcDbLine
 62
40
  6
CONTINUOUS
 10
7.4106211546
 20
2.7104321826
 11
7.3549617796
 21
2.7104321826
  0
LINE
  5
289
100
AcDbEntity
  8
03__ASM_ALL_CURVES
100
AcDbLine
 62
40
  6
CONTINUOUS
 10
7.055792639
 20
2.7104321826
 11
7.0418777952
 21
2.7104321826
  0
LINE
  5
28A
100
AcDbEntity
  8
03__ASM_ALL_CURVES
100
AcDbLine
 62
40
  6
CONTINUOUS
 10
6.944473889
 20
2.7104321826
 11
6.9305590452
 21
2.7104321826
  0
LINE
  5
28B
100
AcDbEntity
  8
03__ASM_ALL_CURVES
100
AcDbLine
 62
40
  6
CONTINUOUS
 10
7.2436430296
 20
2.7104321826
 11
7.2993024046
 21
2.7104321826
  0
LINE
  5
28C
100
AcDbEntity
  8
03__ASM_ALL_CURVES
100
AcDbLine
 62
40
  6
CONTINUOUS
 10
7.3549617796
 20
2.7660915576
 11
7.389748889
 21
2.7660915576
  0
LINE
  5
28D
100
AcDbEntity
  8
03__ASM_ALL_CURVES
100
AcDbLine
 62
40
  6
CONTINUOUS
 10
6.9305590452
 20
2.8217509326
 11
6.944473889
 21
2.8217509326
  0
LINE
  5
28E
100
AcDbEntity
  8
03__ASM_ALL_CURVES
100
AcDbLine
 62
40
  6
CONTINUOUS
 10
7.1253668577
 20
2.8217509326
 11
7.1949410765
 21
2.8217509326
  0
LINE
  5
28F
100
AcDbEntity
  8
03__ASM_ALL_CURVES
100
AcDbLine
 62
40
  6
CONTINUOUS
 10
7.3549617796
 20
2.8217509326
 11
7.4106211546
 21
2.8217509326
  0
LINE
  5
290
100
AcDbEntity
  8
03__ASM_ALL_CURVES
100
AcDbLine
 62
40
  6
CONTINUOUS
 10
7.4593231077
 20
2.8217509326
 11
7.5288973265
 21
2.8217509326
  0
LINE
  5
291
100
AcDbEntity
  8
03__ASM_ALL_CURVES
100
AcDbLine
 62
40
  6
CONTINUOUS
 10
3.7018565829
 20
5.7773214311
 11
3.7111331454
 21
5.7402151833
  0
LINE
  5
292
100
AcDbEntity
  8
03__ASM_ALL_CURVES
100
AcDbLine
 62
40
  6
CONTINUOUS
 10
4.3604925204
 20
5.7649526841
 11
4.3604925204
 21
5.7525839326
  0
LINE
  5
293
100
AcDbEntity
  8
03__ASM_ALL_CURVES
100
AcDbLine
 62
40
  6
CONTINUOUS
 10
5.6695162709
 20
5.8515339355
 11
5.6880693959
 21
5.8639026826
  0
LINE
  5
294
100
AcDbEntity
  8
03__ASM_ALL_CURVES
100
AcDbLine
 62
40
  6
CONTINUOUS
 10
5.8179412709
 20
5.8515339355
 11
5.8364943959
 21
5.8639026826
  0
LINE
  5
295
100
AcDbEntity
  8
03__ASM_ALL_CURVES
100
AcDbLine
 62
40
  6
CONTINUOUS
 10
5.7251756459
 20
5.727846433
 11
5.7066225209
 21
5.7154776826
  0
LINE
  5
296
100
AcDbEntity
  8
03__ASM_ALL_CURVES
100
AcDbLine
 62
40
  6
CONTINUOUS
 10
7.1079734452
 20
2.8811209326
 11
7.0940586014
 21
2.8811209326
  0
LINE
  5
297
100
AcDbEntity
  8
03__ASM_ALL_CURVES
100
AcDbLine
 62
40
  6
CONTINUOUS
 10
7.4071425858
 20
2.8811209326
 11
7.4628019608
 21
2.8811209326
  0
LINE
  5
298
100
AcDbEntity
  8
03__ASM_ALL_CURVES
100
AcDbLine
 62
40
  6
CONTINUOUS
 10
7.2192921952
 20
2.9367803076
 11
7.1845050858
 21
2.9367803076
  0
LINE
  5
299
100
AcDbEntity
  8
03__ASM_ALL_CURVES
100
AcDbLine
 62
40
  6
CONTINUOUS
 10
6.9966546952
 20
2.9367803076
 11
6.9618675858
 21
2.9367803076
  0
LINE
  5
29A
100
AcDbEntity
  8
03__ASM_ALL_CURVES
100
AcDbLine
 62
40
  6
CONTINUOUS
 10
6.9618675858
 20
2.9924396826
 11
6.9966546952
 21
2.9924396826
  0
LINE
  5
29B
100
AcDbEntity
  8
03__ASM_ALL_CURVES
100
AcDbLine
 62
40
  6
CONTINUOUS
 10
7.0940586014
 20
2.9924396826
 11
7.1079734452
 21
2.9924396826
  0
LINE
  5
29C
100
AcDbEntity
  8
03__ASM_ALL_CURVES
100
AcDbLine
 62
40
  6
CONTINUOUS
 10
7.1845050858
 20
2.9924396826
 11
7.2192921952
 21
2.9924396826
  0
LINE
  5
29D
100
AcDbEntity
  8
03__ASM_ALL_CURVES
100
AcDbLine
 62
40
  6
CONTINUOUS
 10
7.2888664139
 20
2.9924396826
 11
7.3584406327
 21
2.9924396826
  0
LINE
  5
29E
100
AcDbEntity
  8
03__ASM_ALL_CURVES
100
AcDbLine
 62
40
  6
CONTINUOUS
 10
7.4280148514
 20
2.9924396826
 11
7.4419296952
 21
2.9924396826
  0
LINE
  5
29F
100
AcDbEntity
  8
03__ASM_ALL_CURVES
100
AcDbLine
 62
40
  6
CONTINUOUS
 10
4.6295128329
 20
5.8020589296
 11
4.6295128329
 21
5.7773214311
  0
LINE
  5
2A0
100
AcDbEntity
  8
0
100
AcDbLine
 62
7
  6
CONTINUOUS
 10
5.0863347079
 20
5.3969396826
 11
5.0248469043
 21
5.2904396826
  0
LINE
  5
2A1
100
AcDbEntity
  8
03__ASM_ALL_CURVES
100
AcDbLine
 62
40
  6
CONTINUOUS
 10
5.6509631459
 20
5.8267964326
 11
5.6695162709
 21
5.8515339355
  0
LINE
  5
2A2
100
AcDbEntity
  8
03__ASM_ALL_CURVES
100
AcDbLine
 62
40
  6
CONTINUOUS
 10
5.8736006459
 20
5.727846433
 11
5.8550475209
 21
5.7154776826
  0
LINE
  5
2A3
100
AcDbEntity
  8
03__ASM_ALL_CURVES
100
AcDbLine
 62
40
  6
CONTINUOUS
 10
3.1545393954
 20
5.8515339355
 11
3.1638159579
 21
5.8391651796
  0
LINE
  5
2A4
100
AcDbEntity
  8
03__ASM_ALL_CURVES
100
AcDbLine
 62
40
  6
CONTINUOUS
 10
3.2658581454
 20
5.727846433
 11
3.2751347079
 21
5.7154776826
  0
LINE
  5
2A5
100
AcDbEntity
  8
03__ASM_ALL_CURVES
100
AcDbLine
 62
40
  6
CONTINUOUS
 10
3.3957300204
 20
5.727846433
 11
3.3771768954
 21
5.7525839326
  0
LINE
  5
2A6
100
AcDbEntity
  8
03__ASM_ALL_CURVES
100
AcDbLine
 62
40
  6
CONTINUOUS
 10
3.3957300204
 20
5.8144276855
 11
3.3864534579
 21
5.8267964326
  0
LINE
  5
2A7
100
AcDbEntity
  8
03__ASM_ALL_CURVES
100
AcDbLine
 62
40
  6
CONTINUOUS
 10
3.4513893954
 20
5.7896901826
 11
3.4699425204
 21
5.7649526841
  0
LINE
  5
2A8
100
AcDbEntity
  8
0
100
AcDbLine
 62
7
  6
CONTINUOUS
 10
5.0863347079
 20
3.3379396826
 11
5.0248469043
 21
3.4444396826
  0
LINE
  5
2A9
100
AcDbEntity
  8
0
100
AcDbLine
 62
7
  6
CONTINUOUS
 10
5.0248469043
 20
3.4444396826
 11
5.0248469043
 21
5.2904396826
  0
LINE
  5
2AA
100
AcDbEntity
  8
0
100
AcDbLine
 62
7
  6
CONTINUOUS
 10
5.0863347079
 20
3.3379396826
 11
5.0863347079
 21
5.3969396826
  0
LINE
  5
2AB
100
AcDbEntity
  8
THREAD
100
AcDbLine
 62
7
  6
CONTINUOUS
 10
5.5253569219
 20
5.3089396826
 11
5.4953347079
 21
5.2569396826
  0
LINE
  5
2AC
100
AcDbEntity
  8
03__ASM_ALL_CURVES
100
AcDbLine
 62
40
  6
CONTINUOUS
 10
5.7437287709
 20
5.7525839326
 11
5.7251756459
 21
5.727846433
  0
LINE
  5
2AD
100
AcDbEntity
  8
03__ASM_ALL_CURVES
100
AcDbLine
 62
40
  6
CONTINUOUS
 10
5.7993881459
 20
5.8267964326
 11
5.8179412709
 21
5.8515339355
  0
LINE
  5
2AE
100
AcDbEntity
  8
03__ASM_ALL_CURVES
100
AcDbLine
 62
40
  6
CONTINUOUS
 10
5.8828772084
 20
5.7402151833
 11
5.8736006459
 21
5.727846433
  0
LINE
  5
2AF
100
AcDbEntity
  8
03__ASM_ALL_CURVES
100
AcDbLine
 62
40
  6
CONTINUOUS
 10
6.5600662709
 20
5.8515339355
 11
6.5786193959
 21
5.8639026826
  0
LINE
  5
2B0
100
AcDbEntity
  8
03__ASM_ALL_CURVES
100
AcDbLine
 62
40
  6
CONTINUOUS
 10
6.6157256459
 20
5.727846433
 11
6.5971725209
 21
5.7154776826
  0
LINE
  5
2B1
100
AcDbEntity
  8
03__ASM_ALL_CURVES
100
AcDbLine
 62
40
  6
CONTINUOUS
 10
6.8754693959
 20
5.8639026826
 11
6.8569162709
 21
5.8515339355
  0
LINE
  5
2B2
100
AcDbEntity
  8
0
100
AcDbLine
 62
7
  6
CONTINUOUS
 10
5.2743347079
 20
3.3379396826
 11
5.0863347079
 21
3.3379396826
  0
LINE
  5
2B3
100
AcDbEntity
  8
0
100
AcDbLine
 62
7
  6
CONTINUOUS
 10
5.4243347079
 20
3.4134396826
 11
5.4743347079
 21
3.4134396826
  0
LINE
  5
2B4
100
AcDbEntity
  8
THREAD
100
AcDbLine
 62
7
  6
CONTINUOUS
 10
5.3213347079
 20
3.4139396826
 11
5.2743347079
 21
3.4139396826
  0
LINE
  5
2B5
100
AcDbEntity
  8
THREAD
100
AcDbLine
 62
7
  6
CONTINUOUS
 10
5.9948347079
 20
3.4259396826
 11
5.5253569219
 21
3.4259396826
  0
LINE
  5
2B6
100
AcDbEntity
  8
0
100
AcDbLine
 62
7
  6
CONTINUOUS
 10
5.0248469043
 20
3.4444396826
 11
4.1543073391
 21
3.4444396826
  0
LINE
  5
2B7
100
AcDbEntity
  8
0
100
AcDbLine
 62
7
  6
CONTINUOUS
 10
5.0248469043
 20
3.444835024
 11
4.1543073391
 21
3.444835024
  0
LINE
  5
2B8
100
AcDbEntity
  8
THREAD
100
AcDbLine
 62
7
  6
CONTINUOUS
 10
6.3233347079
 20
3.5234396826
 11
6.0923347079
 21
3.5234396826
  0
LINE
  5
2B9
100
AcDbEntity
  8
0
100
AcDbLine
 62
7
  6
CONTINUOUS
 10
8.0563347079
 20
3.5559396826
 11
8.1063347079
 21
3.5559396826
  0
LINE
  5
2BA
100
AcDbEntity
  8
0
100
AcDbLine
 62
7
  6
CONTINUOUS
 10
8.2093347079
 20
3.5559396826
 11
8.2593347079
 21
3.5559396826
  0
LINE
  5
2BB
100
AcDbEntity
  8
0
100
AcDbLine
 62
7
  6
CONTINUOUS
 10
7.9623347079
 20
3.5564396826
 11
8.0563347079
 21
3.5564396826
  0
LINE
  5
2BC
100
AcDbEntity
  8
0
100
AcDbLine
 62
7
  6
CONTINUOUS
 10
8.2993347079
 20
3.5564396826
 11
8.3693347079
 21
3.5564396826
  0
LINE
  5
2BD
100
AcDbEntity
  8
03__ASM_ALL_CURVES
100
AcDbLine
 62
40
  6
CONTINUOUS
 10
3.4513893954
 20
5.8515339355
 11
3.4606659579
 21
5.8391651796
  0
LINE
  5
2BE
100
AcDbEntity
  8
03__ASM_ALL_CURVES
100
AcDbLine
 62
40
  6
CONTINUOUS
 10
3.7111331454
 20
5.7402151833
 11
3.7296862704
 21
5.7154776826
  0
LINE
  5
2BF
100
AcDbEntity
  8
03__ASM_ALL_CURVES
100
AcDbLine
 62
40
  6
CONTINUOUS
 10
4.6202362704
 20
5.8391651796
 11
4.6295128329
 21
5.8020589296
  0
LINE
  5
2C0
100
AcDbEntity
  8
03__ASM_ALL_CURVES
100
AcDbLine
 62
40
  6
CONTINUOUS
 10
5.0962247079
 20
5.6857926826
 11
5.0962247079
 21
5.6264226826
  0
LINE
  5
2C1
100
AcDbEntity
  8
0
100
AcDbLine
 62
7
  6
CONTINUOUS
 10
5.2743347079
 20
3.3379396826
 11
5.2743347079
 21
5.3969396826
  0
LINE
  5
2C2
100
AcDbEntity
  8
03__ASM_ALL_CURVES
100
AcDbLine
 62
40
  6
CONTINUOUS
 10
5.2743347079
 20
5.4266246826
 11
5.2743347079
 21
5.7154776826
  0
LINE
  5
2C3
100
AcDbEntity
  8
THREAD
100
AcDbLine
 62
7
  6
CONTINUOUS
 10
5.3213347079
 20
3.4139396826
 11
5.3213347079
 21
5.3209396826
  0
LINE
  5
2C4
100
AcDbEntity
  8
03__ASM_ALL_CURVES
100
AcDbLine
 62
40
  6
CONTINUOUS
 10
5.6416865834
 20
5.7896901826
 11
5.6509631459
 21
5.8267964326
  0
LINE
  5
2C5
100
AcDbEntity
  8
03__ASM_ALL_CURVES
100
AcDbLine
 62
40
  6
CONTINUOUS
 10
6.9125756459
 20
5.727846433
 11
6.8940225209
 21
5.7154776826
  0
LINE
  5
2C6
100
AcDbEntity
  8
03__ASM_ALL_CURVES
100
AcDbLine
 62
40
  6
CONTINUOUS
 10
7.1537662709
 20
5.8515339355
 11
7.1723193959
 21
5.8639026826
  0
LINE
  5
2C7
100
AcDbEntity
  8
0
100
AcDbLine
 62
7
  6
CONTINUOUS
 10
4.0873347079
 20
3.5864396826
 11
3.3363347079
 21
3.5864396826
  0
LINE
  5
2C8
100
AcDbEntity
  8
0
100
AcDbLine
 62
7
  6
CONTINUOUS
 10
8.2993347079
 20
3.6439396826
 11
8.2593347079
 21
3.6439396826
  0
LINE
  5
2C9
100
AcDbEntity
  8
0
100
AcDbLine
 62
7
  6
CONTINUOUS
 10
7.9623347079
 20
3.6494396826
 11
7.9303347079
 21
3.6494396826
  0
LINE
  5
2CA
100
AcDbEntity
  8
0
100
AcDbLine
 62
7
  6
CONTINUOUS
 10
7.6183347079
 20
3.6494396826
 11
6.7739782612
 21
3.6494396826
  0
LINE
  5
2CB
100
AcDbEntity
  8
0
100
AcDbLine
 62
7
  6
CONTINUOUS
 10
6.7006911546
 20
3.6494396826
 11
6.3363347079
 21
3.6494396826
  0
LINE
  5
2CC
100
AcDbEntity
  8
03__ASM_ALL_CURVES
100
AcDbLine
 62
40
  6
CONTINUOUS
 10
6.9305590452
 20
2.7104321826
 11
6.9166442015
 21
2.7197087454
  0
LINE
  5
2CD
100
AcDbEntity
  8
03__ASM_ALL_CURVES
100
AcDbLine
 62
40
  6
CONTINUOUS
 10
7.0418777952
 20
2.7104321826
 11
7.0279629515
 21
2.7197087454
  0
LINE
  5
2CE
100
AcDbEntity
  8
03__ASM_ALL_CURVES
100
AcDbLine
 62
40
  6
CONTINUOUS
 10
6.944473889
 20
2.8217509326
 11
6.9583887327
 21
2.8124743723
  0
LINE
  5
2CF
100
AcDbEntity
  8
THREAD
100
AcDbLine
 62
7
  6
CONTINUOUS
 10
5.5253569219
 20
3.4259396826
 11
5.4953347079
 21
3.4779396826
  0
LINE
  5
2D0
100
AcDbEntity
  8
0
100
AcDbLine
 62
7
  6
CONTINUOUS
 10
5.4243347079
 20
3.4134396826
 11
5.4243347079
 21
5.3214396826
  0
LINE
  5
2D1
100
AcDbEntity
  8
03__ASM_ALL_CURVES
100
AcDbLine
 62
40
  6
CONTINUOUS
 10
5.4524447079
 20
5.6857926826
 11
5.4524447079
 21
5.6264226826
  0
LINE
  5
2D2
100
AcDbEntity
  8
0
100
AcDbLine
 62
7
  6
CONTINUOUS
 10
5.4743347079
 20
3.4134396826
 11
5.4743347079
 21
5.3214396826
  0
LINE
  5
2D3
100
AcDbEntity
  8
0
100
AcDbLine
 62
7
  6
CONTINUOUS
 10
5.4953347079
 20
3.4779396826
 11
5.4953347079
 21
5.2569396826
  0
LINE
  5
2D4
100
AcDbEntity
  8
03__ASM_ALL_CURVES
100
AcDbLine
 62
40
  6
CONTINUOUS
 10
5.5118147084
 20
5.8639026826
 11
5.5118147084
 21
5.7154776826
  0
LINE
  5
2D5
100
AcDbEntity
  8
THREAD
100
AcDbLine
 62
7
  6
CONTINUOUS
 10
5.5253569219
 20
3.4259396826
 11
5.5253569219
 21
5.3089396826
  0
LINE
  5
2D6
100
AcDbEntity
  8
03__ASM_ALL_CURVES
100
AcDbLine
 62
40
  6
CONTINUOUS
 10
5.7530053334
 20
5.7896901826
 11
5.7437287709
 21
5.7525839326
  0
LINE
  5
2D7
100
AcDbEntity
  8
03__ASM_ALL_CURVES
100
AcDbLine
 62
40
  6
CONTINUOUS
 10
5.7901115834
 20
5.7896901826
 11
5.7993881459
 21
5.8267964326
  0
LINE
  5
2D8
100
AcDbEntity
  8
03__ASM_ALL_CURVES
100
AcDbLine
 62
40
  6
CONTINUOUS
 10
5.9478131459
 20
5.7154776826
 11
5.9941959584
 21
5.8639026826
  0
LINE
  5
2D9
100
AcDbEntity
  8
03__ASM_ALL_CURVES
100
AcDbLine
 62
40
  6
CONTINUOUS
 10
6.5415131459
 20
5.8267964326
 11
6.5600662709
 21
5.8515339355
  0
LINE
  5
2DA
100
AcDbEntity
  8
03__ASM_ALL_CURVES
100
AcDbLine
 62
40
  6
CONTINUOUS
 10
7.2094256459
 20
5.727846433
 11
7.1908725209
 21
5.7154776826
  0
LINE
  5
2DB
100
AcDbEntity
  8
03__ASM_ALL_CURVES
100
AcDbLine
 62
40
  6
CONTINUOUS
 10
7.3578506459
 20
5.727846433
 11
7.3392975209
 21
5.7154776826
  0
LINE
  5
2DC
100
AcDbEntity
  8
0
100
AcDbLine
 62
7
  6
CONTINUOUS
 10
5.0248469043
 20
3.8827443411
 11
4.1543073391
 21
3.8827443411
  0
LINE
  5
2DD
100
AcDbEntity
  8
0
100
AcDbLine
 62
7
  6
CONTINUOUS
 10
5.0248469043
 20
3.9295303655
 11
4.1543073391
 21
3.9295303655
  0
LINE
  5
2DE
100
AcDbEntity
  8
03__ASM_ALL_CURVES
100
AcDbLine
 62
40
  6
CONTINUOUS
 10
7.0940586014
 20
2.8811209326
 11
7.0801437577
 21
2.8903974954
  0
LINE
  5
2DF
100
AcDbEntity
  8
03__ASM_ALL_CURVES
100
AcDbLine
 62
40
  6
CONTINUOUS
 10
6.9966546952
 20
2.9924396826
 11
7.0105695389
 21
2.9831631223
  0
LINE
  5
2E0
100
AcDbEntity
  8
03__ASM_ALL_CURVES
100
AcDbLine
 62
40
  6
CONTINUOUS
 10
7.1079734452
 20
2.9924396826
 11
7.1218882889
 21
2.9831631223
  0
LINE
  5
2E1
100
AcDbEntity
  8
03__ASM_ALL_CURVES
100
AcDbLine
 62
40
  6
CONTINUOUS
 10
7.2192921952
 20
2.9924396826
 11
7.2332070389
 21
2.9831631223
  0
LINE
  5
2E2
100
AcDbEntity
  8
03__ASM_ALL_CURVES
100
AcDbLine
 62
40
  6
CONTINUOUS
 10
4.1564081454
 20
5.727846433
 11
4.1656847079
 21
5.7154776826
  0
LINE
  5
2E3
100
AcDbEntity
  8
03__ASM_ALL_CURVES
100
AcDbLine
 62
40
  6
CONTINUOUS
 10
4.2862800204
 20
5.727846433
 11
4.2770034579
 21
5.7402151833
  0
LINE
  5
2E4
100
AcDbEntity
  8
03__ASM_ALL_CURVES
100
AcDbLine
 62
40
  6
CONTINUOUS
 10
4.3419393954
 20
5.7896901826
 11
4.3604925204
 21
5.7649526841
  0
LINE
  5
2E5
100
AcDbEntity
  8
03__ASM_ALL_CURVES
100
AcDbLine
 62
40
  6
CONTINUOUS
 10
4.3419393954
 20
5.8515339355
 11
4.3512159579
 21
5.8391651796
  0
LINE
  5
2E6
100
AcDbEntity
  8
03__ASM_ALL_CURVES
100
AcDbLine
 62
40
  6
CONTINUOUS
 10
6.6250022084
 20
5.7402151833
 11
6.6157256459
 21
5.727846433
  0
LINE
  5
2E7
100
AcDbEntity
  8
03__ASM_ALL_CURVES
100
AcDbLine
 62
40
  6
CONTINUOUS
 10
6.8569162709
 20
5.8515339355
 11
6.8476397084
 21
5.8391651796
  0
LINE
  5
2E8
100
AcDbEntity
  8
03__ASM_ALL_CURVES
100
AcDbLine
 62
40
  6
CONTINUOUS
 10
6.9218522084
 20
5.7402151833
 11
6.9125756459
 21
5.727846433
  0
LINE
  5
2E9
100
AcDbEntity
  8
03__ASM_ALL_CURVES
100
AcDbLine
 62
40
  6
CONTINUOUS
 10
7.6454240834
 20
5.727846433
 11
7.6268709584
 21
5.7154776826
  0
LINE
  5
2EA
100
AcDbEntity
  8
03__ASM_ALL_CURVES
100
AcDbLine
 62
40
  6
CONTINUOUS
 10
7.9515506459
 20
5.8020589296
 11
7.9329975209
 21
5.7896901826
  0
LINE
  5
2EB
100
AcDbEntity
  8
0
100
AcDbLine
 62
7
  6
CONTINUOUS
 10
3.067334708
 20
4.0864396826
 11
3.2375584296
 21
4.0864396826
  0
LINE
  5
2EC
100
AcDbEntity
  8
0
100
AcDbLine
 62
7
  6
CONTINUOUS
 10
3.2743347079
 20
4.0964396826
 11
3.2433347079
 21
4.0964396826
  0
LINE
  5
2ED
100
AcDbEntity
  8
0
100
AcDbLine
 62
7
  6
CONTINUOUS
 10
3.0303347079
 20
4.0964396826
 11
3.0243347079
 21
4.0964396826
  0
LINE
  5
2EE
100
AcDbEntity
  8
0
100
AcDbLine
 62
7
  6
CONTINUOUS
 10
3.0518347079
 20
4.1019396826
 11
3.0358347079
 21
4.1019396826
  0
LINE
  5
2EF
100
AcDbEntity
  8
0
100
AcDbLine
 62
7
  6
CONTINUOUS
 10
2.4943347079
 20
4.1834396826
 11
2.6933347079
 21
4.1834396826
  0
LINE
  5
2F0
100
AcDbEntity
  8
0
100
AcDbLine
 62
7
  6
CONTINUOUS
 10
2.7313347079
 20
4.1834396826
 11
2.9623347079
 21
4.1834396826
  0
LINE
  5
2F1
100
AcDbEntity
  8
0
100
AcDbLine
 62
7
  6
CONTINUOUS
 10
2.6933347079
 20
4.2164396826
 11
2.6948347079
 21
4.2164396826
  0
LINE
  5
2F2
100
AcDbEntity
  8
0
100
AcDbLine
 62
7
  6
CONTINUOUS
 10
2.7298347079
 20
4.2164396826
 11
2.7313347079
 21
4.2164396826
  0
LINE
  5
2F3
100
AcDbEntity
  8
03__ASM_ALL_CURVES
100
AcDbLine
 62
40
  6
CONTINUOUS
 10
9.0211206443
 20
4.2264359326
 11
8.9654612693
 21
4.2264359326
  0
LINE
  5
2F4
100
AcDbEntity
  8
03__ASM_ALL_CURVES
100
AcDbLine
 62
40
  6
CONTINUOUS
 10
8.8541425193
 20
4.2264359326
 11
8.9098018943
 21
4.2264359326
  0
LINE
  5
2F5
100
AcDbEntity
  8
03__ASM_ALL_CURVES
100
AcDbLine
 62
40
  6
CONTINUOUS
 10
8.9654612693
 20
4.2820953076
 11
9.0002483787
 21
4.2820953076
  0
LINE
  5
2F6
100
AcDbEntity
  8
03__ASM_ALL_CURVES
100
AcDbLine
 62
40
  6
CONTINUOUS
 10
7.4419296952
 20
2.9924396826
 11
7.4558445389
 21
2.9831631223
  0
LINE
  5
2F7
100
AcDbEntity
  8
03__ASM_ALL_CURVES
100
AcDbLine
 62
40
  6
CONTINUOUS
 10
3.1359862704
 20
5.8639026826
 11
3.1545393954
 21
5.8515339355
  0
LINE
  5
2F8
100
AcDbEntity
  8
03__ASM_ALL_CURVES
100
AcDbLine
 62
40
  6
CONTINUOUS
 10
3.4142831454
 20
5.7154776826
 11
3.3957300204
 21
5.727846433
  0
LINE
  5
2F9
100
AcDbEntity
  8
03__ASM_ALL_CURVES
100
AcDbLine
 62
40
  6
CONTINUOUS
 10
3.4142831454
 20
5.8020589296
 11
3.3957300204
 21
5.8144276855
  0
LINE
  5
2FA
100
AcDbEntity
  8
03__ASM_ALL_CURVES
100
AcDbLine
 62
40
  6
CONTINUOUS
 10
3.4328362704
 20
5.8020589296
 11
3.4513893954
 21
5.7896901826
  0
LINE
  5
2FB
100
AcDbEntity
  8
03__ASM_ALL_CURVES
100
AcDbLine
 62
40
  6
CONTINUOUS
 10
3.4328362704
 20
5.8639026826
 11
3.4513893954
 21
5.8515339355
  0
LINE
  5
2FC
100
AcDbEntity
  8
03__ASM_ALL_CURVES
100
AcDbLine
 62
40
  6
CONTINUOUS
 10
6.9166442015
 20
2.7197087454
 11
6.9027293577
 21
2.7382618701
  0
LINE
  5
2FD
100
AcDbEntity
  8
03__ASM_ALL_CURVES
100
AcDbLine
 62
40
  6
CONTINUOUS
 10
4.6016831454
 20
5.8639026826
 11
4.6202362704
 21
5.8391651796
  0
LINE
  5
2FE
100
AcDbEntity
  8
THREAD
100
AcDbLine
 62
7
  6
CONTINUOUS
 10
5.9948347079
 20
3.4259396826
 11
5.9948347079
 21
5.3089396826
  0
LINE
  5
2FF
100
AcDbEntity
  8
03__ASM_ALL_CURVES
100
AcDbLine
 62
40
  6
CONTINUOUS
 10
7.1352131459
 20
5.8267964326
 11
7.1537662709
 21
5.8515339355
  0
LINE
  5
300
100
AcDbEntity
  8
03__ASM_ALL_CURVES
100
AcDbLine
 62
40
  6
CONTINUOUS
 10
7.2279787709
 20
5.7525839326
 11
7.2094256459
 21
5.727846433
  0
LINE
  5
301
100
AcDbEntity
  8
03__ASM_ALL_CURVES
100
AcDbLine
 62
40
  6
CONTINUOUS
 10
8.9654612693
 20
4.3377546826
 11
9.0211206443
 21
4.3377546826
  0
LINE
  5
302
100
AcDbEntity
  8
03__ASM_ALL_CURVES
100
AcDbLine
 62
40
  6
CONTINUOUS
 10
9.0698225975
 20
4.3377546826
 11
9.1393968162
 21
4.3377546826
  0
LINE
  5
303
100
AcDbEntity
  8
0
100
AcDbLine
 62
7
  6
CONTINUOUS
 10
3.2124632975
 20
4.3674396826
 11
3.1108055592
 21
4.3674396826
  0
LINE
  5
304
100
AcDbEntity
  8
03__ASM_ALL_CURVES
100
AcDbLine
 62
40
  6
CONTINUOUS
 10
8.8054405668
 20
4.3971246826
 11
8.791525723
 21
4.3971246826
  0
LINE
  5
305
100
AcDbEntity
  8
03__ASM_ALL_CURVES
100
AcDbLine
 62
40
  6
CONTINUOUS
 10
8.9167593168
 20
4.4527840576
 11
8.8819722074
 21
4.4527840576
  0
LINE
  5
306
100
AcDbEntity
  8
03__ASM_ALL_CURVES
100
AcDbLine
 62
40
  6
CONTINUOUS
 10
8.6941218168
 20
4.4527840576
 11
8.6593347074
 21
4.4527840576
  0
LINE
  5
307
100
AcDbEntity
  8
03__ASM_ALL_CURVES
100
AcDbLine
 62
40
  6
CONTINUOUS
 10
8.6593347074
 20
4.5084434326
 11
8.6941218168
 21
4.5084434326
  0
LINE
  5
308
100
AcDbEntity
  8
03__ASM_ALL_CURVES
100
AcDbLine
 62
40
  6
CONTINUOUS
 10
8.791525723
 20
4.5084434326
 11
8.8054405668
 21
4.5084434326
  0
LINE
  5
309
100
AcDbEntity
  8
03__ASM_ALL_CURVES
100
AcDbLine
 62
40
  6
CONTINUOUS
 10
8.8819722074
 20
4.5084434326
 11
8.9167593168
 21
4.5084434326
  0
LINE
  5
30A
100
AcDbEntity
  8
03__ASM_ALL_CURVES
100
AcDbLine
 62
40
  6
CONTINUOUS
 10
8.9863335355
 20
4.5084434326
 11
9.0559077543
 21
4.5084434326
  0
LINE
  5
30B
100
AcDbEntity
  8
0
100
AcDbLine
 62
7
  6
CONTINUOUS
 10
2.6933347079
 20
4.5184396826
 11
2.7313347079
 21
4.5184396826
  0
LINE
  5
30C
100
AcDbEntity
  8
0
100
AcDbLine
 62
7
  6
CONTINUOUS
 10
2.4943347079
 20
4.5514396826
 11
2.6933347079
 21
4.5514396826
  0
LINE
  5
30D
100
AcDbEntity
  8
0
100
AcDbLine
 62
7
  6
CONTINUOUS
 10
2.7313347079
 20
4.5514396826
 11
2.9623347079
 21
4.5514396826
  0
LINE
  5
30E
100
AcDbEntity
  8
03__ASM_ALL_CURVES
100
AcDbLine
 62
40
  6
CONTINUOUS
 10
7.0279629515
 20
2.7197087454
 11
7.0210055296
 21
2.7289853081
  0
LINE
  5
30F
100
AcDbEntity
  8
03__ASM_ALL_CURVES
100
AcDbLine
 62
40
  6
CONTINUOUS
 10
6.9583887327
 20
2.8124743723
 11
6.9723035765
 21
2.7939212451
  0
LINE
  5
310
100
AcDbEntity
  8
03__ASM_ALL_CURVES
100
AcDbLine
 62
40
  6
CONTINUOUS
 10
7.0801437577
 20
2.8903974954
 11
7.0662289139
 21
2.9089506201
  0
LINE
  5
311
100
AcDbEntity
  8
03__ASM_ALL_CURVES
100
AcDbLine
 62
40
  6
CONTINUOUS
 10
7.0105695389
 20
2.9831631223
 11
7.0175269608
 21
2.9738865554
  0
LINE
  5
312
100
AcDbEntity
  8
03__ASM_ALL_CURVES
100
AcDbLine
 62
40
  6
CONTINUOUS
 10
7.1218882889
 20
2.9831631223
 11
7.1358031327
 21
2.9646099951
  0
LINE
  5
313
100
AcDbEntity
  8
03__ASM_ALL_CURVES
100
AcDbLine
 62
40
  6
CONTINUOUS
 10
5.6509631459
 20
5.7525839326
 11
5.6416865834
 21
5.7896901826
  0
LINE
  5
314
100
AcDbEntity
  8
129-200_FEATURES
100
AcDbLine
 62
7
  6
CONTINUOUS
 10
6.0923347079
 20
3.5234396826
 11
6.0923347079
 21
5.2114396826
  0
LINE
  5
315
100
AcDbEntity
  8
03__ASM_ALL_CURVES
100
AcDbLine
 62
40
  6
CONTINUOUS
 10
6.1426209584
 20
5.8639026826
 11
6.1426209584
 21
5.7154776826
  0
LINE
  5
316
100
AcDbEntity
  8
03__ASM_ALL_CURVES
100
AcDbLine
 62
40
  6
CONTINUOUS
 10
6.2910459584
 20
5.8639026826
 11
6.2910459584
 21
5.7154776826
  0
LINE
  5
317
100
AcDbEntity
  8
0
100
AcDbLine
 62
7
  6
CONTINUOUS
 10
6.3233347079
 20
3.5234396826
 11
6.3233347079
 21
5.2114396826
  0
LINE
  5
318
100
AcDbEntity
  8
03__ASM_ALL_CURVES
100
AcDbLine
 62
40
  6
CONTINUOUS
 10
6.5322365834
 20
5.7896901826
 11
6.5415131459
 21
5.8267964326
  0
LINE
  5
319
100
AcDbEntity
  8
03__ASM_ALL_CURVES
100
AcDbLine
 62
40
  6
CONTINUOUS
 10
7.3671272084
 20
5.7402151833
 11
7.3578506459
 21
5.727846433
  0
LINE
  5
31A
100
AcDbEntity
  8
0
100
AcDbLine
 62
7
  6
CONTINUOUS
 10
3.0518347079
 20
4.6329396826
 11
3.0358347079
 21
4.6329396826
  0
LINE
  5
31B
100
AcDbEntity
  8
0
100
AcDbLine
 62
7
  6
CONTINUOUS
 10
3.2743347079
 20
4.6384396826
 11
3.2433347079
 21
4.6384396826
  0
LINE
  5
31C
100
AcDbEntity
  8
0
100
AcDbLine
 62
7
  6
CONTINUOUS
 10
3.0303347079
 20
4.6384396826
 11
3.0243347079
 21
4.6384396826
  0
LINE
  5
31D
100
AcDbEntity
  8
0
100
AcDbLine
 62
7
  6
CONTINUOUS
 10
3.067334708
 20
4.6484396826
 11
3.2375584296
 21
4.6484396826
  0
LINE
  5
31E
100
AcDbEntity
  8
0
100
AcDbLine
 62
7
  6
CONTINUOUS
 10
5.0248469043
 20
4.8053489997
 11
4.1543073391
 21
4.8053489997
  0
LINE
  5
31F
100
AcDbEntity
  8
03__ASM_ALL_CURVES
100
AcDbLine
 62
40
  6
CONTINUOUS
 10
4.3048331454
 20
5.7154776826
 11
4.2862800204
 21
5.727846433
  0
LINE
  5
320
100
AcDbEntity
  8
03__ASM_ALL_CURVES
100
AcDbLine
 62
40
  6
CONTINUOUS
 10
4.3233862704
 20
5.8020589296
 11
4.3419393954
 21
5.7896901826
  0
LINE
  5
321
100
AcDbEntity
  8
03__ASM_ALL_CURVES
100
AcDbLine
 62
40
  6
CONTINUOUS
 10
4.3233862704
 20
5.8639026826
 11
4.3419393954
 21
5.8515339355
  0
LINE
  5
322
100
AcDbEntity
  8
03__ASM_ALL_CURVES
100
AcDbLine
 62
40
  6
CONTINUOUS
 10
7.2332070389
 20
2.9831631223
 11
7.2401644608
 21
2.9738865554
  0
LINE
  5
323
100
AcDbEntity
  8
03__ASM_ALL_CURVES
100
AcDbLine
 62
40
  6
CONTINUOUS
 10
5.7437287709
 20
5.8267964326
 11
5.7530053334
 21
5.7896901826
  0
LINE
  5
324
100
AcDbEntity
  8
03__ASM_ALL_CURVES
100
AcDbLine
 62
40
  6
CONTINUOUS
 10
5.7993881459
 20
5.7525839326
 11
5.7901115834
 21
5.7896901826
  0
LINE
  5
325
100
AcDbEntity
  8
0
100
AcDbLine
 62
7
  6
CONTINUOUS
 10
6.3363347079
 20
3.5364396826
 11
6.3363347079
 21
5.1984396826
  0
LINE
  5
326
100
AcDbEntity
  8
03__ASM_ALL_CURVES
100
AcDbLine
 62
40
  6
CONTINUOUS
 10
6.4023647084
 20
5.7154776826
 11
6.4023647084
 21
5.8639026826
  0
LINE
  5
327
100
AcDbEntity
  8
03__ASM_ALL_CURVES
100
AcDbLine
 62
40
  6
CONTINUOUS
 10
6.4765772084
 20
5.7154776826
 11
6.4765772084
 21
5.8639026826
  0
LINE
  5
328
100
AcDbEntity
  8
03__ASM_ALL_CURVES
100
AcDbLine
 62
40
  6
CONTINUOUS
 10
7.6639772084
 20
5.7525839326
 11
7.6454240834
 21
5.727846433
  0
LINE
  5
329
100
AcDbEntity
  8
THREAD
100
AcDbLine
 62
7
  6
CONTINUOUS
 10
6.0484940875
 20
3.4795990622
 11
5.9948347079
 21
3.4259396826
  0
LINE
  5
32A
100
AcDbEntity
  8
0
100
AcDbLine
 62
7
  6
CONTINUOUS
 10
5.0248469043
 20
4.852135024
 11
4.1543073391
 21
4.852135024
  0
LINE
  5
32B
100
AcDbEntity
  8
03__ASM_ALL_CURVES
100
AcDbLine
 62
40
  6
CONTINUOUS
 10
7.4558445389
 20
2.9831631223
 11
7.4628019608
 21
2.9738865554
  0
LINE
  5
32C
100
AcDbEntity
  8
03__ASM_ALL_CURVES
100
AcDbLine
 62
40
  6
CONTINUOUS
 10
5.6695162709
 20
5.727846433
 11
5.6509631459
 21
5.7525839326
  0
LINE
  5
32D
100
AcDbEntity
  8
03__ASM_ALL_CURVES
100
AcDbLine
 62
40
  6
CONTINUOUS
 10
5.9941959584
 20
5.8639026826
 11
6.0405787709
 21
5.7154776826
  0
LINE
  5
32E
100
AcDbEntity
  8
03__ASM_ALL_CURVES
100
AcDbLine
 62
40
  6
CONTINUOUS
 10
6.9027293577
 20
2.7382618701
 11
6.8957719359
 21
2.7660915576
  0
LINE
  5
32F
100
AcDbEntity
  8
03__ASM_ALL_CURVES
100
AcDbLine
 62
40
  6
CONTINUOUS
 10
6.6250022084
 20
5.7896901826
 11
6.6250022084
 21
5.7402151833
  0
LINE
  5
330
100
AcDbEntity
  8
0
100
AcDbLine
 62
7
  6
CONTINUOUS
 10
6.7006911546
 20
3.6494396826
 11
6.7006911546
 21
5.0854396826
  0
LINE
  5
331
100
AcDbEntity
  8
0
100
AcDbLine
 62
7
  6
CONTINUOUS
 10
6.7739782612
 20
3.6494396826
 11
6.7739782612
 21
5.0854396826
  0
LINE
  5
332
100
AcDbEntity
  8
03__ASM_ALL_CURVES
100
AcDbLine
 62
40
  6
CONTINUOUS
 10
7.1259365834
 20
5.7896901826
 11
7.1352131459
 21
5.8267964326
  0
LINE
  5
333
100
AcDbEntity
  8
03__ASM_ALL_CURVES
100
AcDbLine
 62
40
  6
CONTINUOUS
 10
7.9608272084
 20
5.8144276855
 11
7.9515506459
 21
5.8020589296
  0
LINE
  5
334
100
AcDbEntity
  8
0
100
AcDbLine
 62
7
  6
CONTINUOUS
 10
6.3363347079
 20
3.5364396826
 11
6.3233347079
 21
3.5234396826
  0
LINE
  5
335
100
AcDbEntity
  8
0
100
AcDbLine
 62
7
  6
CONTINUOUS
 10
7.9623347079
 20
5.0854396826
 11
7.9303347079
 21
5.0854396826
  0
LINE
  5
336
100
AcDbEntity
  8
0
100
AcDbLine
 62
7
  6
CONTINUOUS
 10
7.6183347079
 20
5.0854396826
 11
6.7739782612
 21
5.0854396826
  0
LINE
  5
337
100
AcDbEntity
  8
0
100
AcDbLine
 62
7
  6
CONTINUOUS
 10
6.7006911546
 20
5.0854396826
 11
6.3363347079
 21
5.0854396826
  0
LINE
  5
338
100
AcDbEntity
  8
0
100
AcDbLine
 62
7
  6
CONTINUOUS
 10
8.2993347079
 20
5.0909396826
 11
8.2593347079
 21
5.0909396826
  0
LINE
  5
339
100
AcDbEntity
  8
0
100
AcDbLine
 62
7
  6
CONTINUOUS
 10
4.0873347079
 20
5.1484396826
 11
3.3363347079
 21
5.1484396826
  0
LINE
  5
33A
100
AcDbEntity
  8
0
100
AcDbLine
 62
7
  6
CONTINUOUS
 10
7.9623347079
 20
5.1784396826
 11
8.0563347079
 21
5.1784396826
  0
LINE
  5
33B
100
AcDbEntity
  8
0
100
AcDbLine
 62
7
  6
CONTINUOUS
 10
8.2993347079
 20
5.1784396826
 11
8.3693347079
 21
5.1784396826
  0
LINE
  5
33C
100
AcDbEntity
  8
0
100
AcDbLine
 62
7
  6
CONTINUOUS
 10
8.0563347079
 20
5.1789396826
 11
8.1063347079
 21
5.1789396826
  0
LINE
  5
33D
100
AcDbEntity
  8
0
100
AcDbLine
 62
7
  6
CONTINUOUS
 10
8.2093347079
 20
5.1789396826
 11
8.2593347079
 21
5.1789396826
  0
LINE
  5
33E
100
AcDbEntity
  8
THREAD
100
AcDbLine
 62
7
  6
CONTINUOUS
 10
6.3233347079
 20
5.2114396826
 11
6.0923347079
 21
5.2114396826
  0
LINE
  5
33F
100
AcDbEntity
  8
0
100
AcDbLine
 62
7
  6
CONTINUOUS
 10
5.0248469043
 20
5.2900443411
 11
4.1543073391
 21
5.2900443411
  0
LINE
  5
340
100
AcDbEntity
  8
0
100
AcDbLine
 62
7
  6
CONTINUOUS
 10
5.0248469043
 20
5.2904396826
 11
4.1543073391
 21
5.2904396826
  0
LINE
  5
341
100
AcDbEntity
  8
03__ASM_ALL_CURVES
100
AcDbLine
 62
40
  6
CONTINUOUS
 10
2.6414447079
 20
5.6363176826
 11
2.4633347079
 21
5.6561076826
  0
LINE
  5
342
100
AcDbEntity
  8
03__ASM_ALL_CURVES
100
AcDbLine
 62
40
  6
CONTINUOUS
 10
2.6414447079
 20
5.6313701826
 11
2.4633347079
 21
5.6561076826
  0
LINE
  5
343
100
AcDbEntity
  8
03__ASM_ALL_CURVES
100
AcDbLine
 62
40
  6
CONTINUOUS
 10
2.6414447079
 20
5.6264226826
 11
2.4633347079
 21
5.6561076826
  0
LINE
  5
344
100
AcDbEntity
  8
THREAD
100
AcDbLine
 62
7
  6
CONTINUOUS
 10
6.0923347079
 20
5.2114396826
 11
5.9948347079
 21
5.3089396826
  0
LINE
  5
345
100
AcDbEntity
  8
03__ASM_ALL_CURVES
100
AcDbLine
 62
40
  6
CONTINUOUS
 10
5.8179412709
 20
5.727846433
 11
5.7993881459
 21
5.7525839326
  0
LINE
  5
346
100
AcDbEntity
  8
03__ASM_ALL_CURVES
100
AcDbLine
 62
40
  6
CONTINUOUS
 10
5.7251756459
 20
5.8515339355
 11
5.7437287709
 21
5.8267964326
  0
LINE
  5
347
100
AcDbEntity
  8
03__ASM_ALL_CURVES
100
AcDbLine
 62
40
  6
CONTINUOUS
 10
5.8736006459
 20
5.8515339355
 11
5.8828772084
 21
5.8391651796
  0
LINE
  5
348
100
AcDbEntity
  8
03__ASM_ALL_CURVES
100
AcDbLine
 62
40
  6
CONTINUOUS
 10
7.2192921952
 20
2.9367803076
 11
7.2401644608
 21
2.8811209326
  0
LINE
  5
349
100
AcDbEntity
  8
03__ASM_ALL_CURVES
100
AcDbLine
 62
40
  6
CONTINUOUS
 10
6.9723035765
 20
2.7939212451
 11
6.9792609984
 21
2.7660915576
  0
LINE
  5
34A
100
AcDbEntity
  8
03__ASM_ALL_CURVES
100
AcDbLine
 62
40
  6
CONTINUOUS
 10
7.0662289139
 20
2.9089506201
 11
7.059271492
 21
2.9367803076
  0
LINE
  5
34B
100
AcDbEntity
  8
03__ASM_ALL_CURVES
100
AcDbLine
 62
40
  6
CONTINUOUS
 10
7.1358031327
 20
2.9646099951
 11
7.1427605545
 21
2.9367803076
  0
LINE
  5
34C
100
AcDbEntity
  8
03__ASM_ALL_CURVES
100
AcDbLine
 62
40
  6
CONTINUOUS
 10
6.8476397084
 20
5.8391651796
 11
6.8476397084
 21
5.8267964326
  0
LINE
  5
34D
100
AcDbEntity
  8
03__ASM_ALL_CURVES
100
AcDbLine
 62
40
  6
CONTINUOUS
 10
6.9218522084
 20
5.7649526841
 11
6.9218522084
 21
5.7402151833
  0
LINE
  5
34E
100
AcDbEntity
  8
03__ASM_ALL_CURVES
100
AcDbLine
 62
40
  6
CONTINUOUS
 10
6.9618675858
 20
2.8811209326
 11
6.9618675858
 21
2.9924396826
  0
LINE
  5
34F
100
AcDbEntity
  8
03__ASM_ALL_CURVES
100
AcDbLine
 62
40
  6
CONTINUOUS
 10
6.9960647084
 20
5.8639026826
 11
6.9960647084
 21
5.7154776826
  0
LINE
  5
350
100
AcDbEntity
  8
03__ASM_ALL_CURVES
100
AcDbLine
 62
40
  6
CONTINUOUS
 10
7.0175269608
 20
2.9738865554
 11
7.0175269608
 21
2.9553334348
  0
LINE
  5
351
100
AcDbEntity
  8
03__ASM_ALL_CURVES
100
AcDbLine
 62
40
  6
CONTINUOUS
 10
7.0210055296
 20
2.7289853081
 11
7.0210055296
 21
2.8217509326
  0
LINE
  5
352
100
AcDbEntity
  8
03__ASM_ALL_CURVES
100
AcDbLine
 62
40
  6
CONTINUOUS
 10
7.2372553334
 20
5.7896901826
 11
7.2279787709
 21
5.7525839326
  0
LINE
  5
353
100
AcDbEntity
  8
THREAD
100
AcDbLine
 62
7
  6
CONTINUOUS
 10
5.9948347079
 20
5.3089396826
 11
5.5253569219
 21
5.3089396826
  0
LINE
  5
354
100
AcDbEntity
  8
THREAD
100
AcDbLine
 62
7
  6
CONTINUOUS
 10
5.3213347079
 20
5.3209396826
 11
5.2743347079
 21
5.3209396826
  0
LINE
  5
355
100
AcDbEntity
  8
0
100
AcDbLine
 62
7
  6
CONTINUOUS
 10
5.4243347079
 20
5.3214396826
 11
5.4743347079
 21
5.3214396826
  0
LINE
  5
356
100
AcDbEntity
  8
0
100
AcDbLine
 62
7
  6
CONTINUOUS
 10
5.2743347079
 20
5.3969396826
 11
5.0863347079
 21
5.3969396826
  0
LINE
  5
357
100
AcDbEntity
  8
03__ASM_ALL_CURVES
100
AcDbLine
 62
40
  6
CONTINUOUS
 10
2.6414447079
 20
5.6462126826
 11
2.4633347079
 21
5.6561076826
  0
LINE
  5
358
100
AcDbEntity
  8
03__ASM_ALL_CURVES
100
AcDbLine
 62
40
  6
CONTINUOUS
 10
2.6414447079
 20
5.6412651826
 11
2.4633347079
 21
5.6561076826
  0
LINE
  5
359
100
AcDbEntity
  8
03__ASM_ALL_CURVES
100
AcDbLine
 62
40
  6
CONTINUOUS
 10
5.6880693959
 20
5.7154776826
 11
5.6695162709
 21
5.727846433
  0
LINE
  5
35A
100
AcDbEntity
  8
03__ASM_ALL_CURVES
100
AcDbLine
 62
40
  6
CONTINUOUS
 10
5.8364943959
 20
5.7154776826
 11
5.8179412709
 21
5.727846433
  0
LINE
  5
35B
100
AcDbEntity
  8
03__ASM_ALL_CURVES
100
AcDbLine
 62
40
  6
CONTINUOUS
 10
5.7066225209
 20
5.8639026826
 11
5.7251756459
 21
5.8515339355
  0
LINE
  5
35C
100
AcDbEntity
  8
0
100
AcDbLine
 62
7
  6
CONTINUOUS
 10
6.3363347079
 20
5.1984396826
 11
6.3233347079
 21
5.2114396826
  0
LINE
  5
35D
100
AcDbEntity
  8
03__ASM_ALL_CURVES
100
AcDbLine
 62
40
  6
CONTINUOUS
 10
6.4023647084
 20
5.8639026826
 11
6.4765772084
 21
5.7154776826
  0
LINE
  5
35E
100
AcDbEntity
  8
03__ASM_ALL_CURVES
100
AcDbLine
 62
40
  6
CONTINUOUS
 10
6.5415131459
 20
5.7525839326
 11
6.5322365834
 21
5.7896901826
  0
LINE
  5
35F
100
AcDbEntity
  8
03__ASM_ALL_CURVES
100
AcDbLine
 62
40
  6
CONTINUOUS
 10
7.0702772084
 20
5.8639026826
 11
7.0702772084
 21
5.7154776826
  0
LINE
  5
360
100
AcDbEntity
  8
03__ASM_ALL_CURVES
100
AcDbLine
 62
40
  6
CONTINUOUS
 10
7.0766649046
 20
2.8217509326
 11
7.0766649046
 21
2.7289853081
  0
LINE
  5
361
100
AcDbEntity
  8
03__ASM_ALL_CURVES
100
AcDbLine
 62
40
  6
CONTINUOUS
 10
7.1601539671
 20
2.8217509326
 11
7.1601539671
 21
2.7104321826
  0
LINE
  5
362
100
AcDbEntity
  8
03__ASM_ALL_CURVES
100
AcDbLine
 62
40
  6
CONTINUOUS
 10
7.1845050858
 20
2.8811209326
 11
7.1845050858
 21
2.9924396826
  0
LINE
  5
363
100
AcDbEntity
  8
03__ASM_ALL_CURVES
100
AcDbLine
 62
40
  6
CONTINUOUS
 10
7.2401644608
 20
2.9738865554
 11
7.2401644608
 21
2.9553334348
  0
LINE
  5
364
100
AcDbEntity
  8
03__ASM_ALL_CURVES
100
AcDbLine
 62
40
  6
CONTINUOUS
 10
7.2436430296
 20
2.8217509326
 11
7.2436430296
 21
2.7104321826
  0
LINE
  5
365
100
AcDbEntity
  8
03__ASM_ALL_CURVES
100
AcDbLine
 62
40
  6
CONTINUOUS
 10
7.2929147084
 20
5.7402151833
 11
7.2929147084
 21
5.8639026826
  0
LINE
  5
366
100
AcDbEntity
  8
03__ASM_ALL_CURVES
100
AcDbLine
 62
40
  6
CONTINUOUS
 10
6.8957719359
 20
2.7660915576
 11
6.9027293577
 21
2.7939212451
  0
LINE
  5
367
100
AcDbEntity
  8
03__ASM_ALL_CURVES
100
AcDbLine
 62
40
  6
CONTINUOUS
 10
7.6732537709
 20
5.7896901826
 11
7.6639772084
 21
5.7525839326
  0
LINE
  5
368
100
AcDbEntity
  8
03__ASM_ALL_CURVES
100
AcDbLine
 62
40
  6
CONTINUOUS
 10
8.7080366605
 20
4.4620606179
 11
8.6941218168
 21
4.4527840576
  0
LINE
  5
369
100
AcDbEntity
  8
03__ASM_ALL_CURVES
100
AcDbLine
 62
40
  6
CONTINUOUS
 10
8.7776108793
 20
4.4991668723
 11
8.791525723
 21
4.5084434326
  0
LINE
  5
36A
100
AcDbEntity
  8
03__ASM_ALL_CURVES
100
AcDbLine
 62
40
  6
CONTINUOUS
 10
5.0962247079
 20
5.6264226826
 11
5.4524447079
 21
5.6857926826
  0
LINE
  5
36B
100
AcDbEntity
  8
03__ASM_ALL_CURVES
100
AcDbLine
 62
40
  6
CONTINUOUS
 10
5.0962247079
 20
5.6313701826
 11
5.4524447079
 21
5.6808451826
  0
LINE
  5
36C
100
AcDbEntity
  8
03__ASM_ALL_CURVES
100
AcDbLine
 62
40
  6
CONTINUOUS
 10
5.0962247079
 20
5.6363176826
 11
5.4524447079
 21
5.6758976826
  0
LINE
  5
36D
100
AcDbEntity
  8
03__ASM_ALL_CURVES
100
AcDbLine
 62
40
  6
CONTINUOUS
 10
5.0962247079
 20
5.6412651826
 11
5.4524447079
 21
5.6709501826
  0
LINE
  5
36E
100
AcDbEntity
  8
03__ASM_ALL_CURVES
100
AcDbLine
 62
40
  6
CONTINUOUS
 10
5.0962247079
 20
5.6462126826
 11
5.4524447079
 21
5.6660026826
  0
LINE
  5
36F
100
AcDbEntity
  8
03__ASM_ALL_CURVES
100
AcDbLine
 62
40
  6
CONTINUOUS
 10
5.0962247079
 20
5.6511601826
 11
5.4524447079
 21
5.6610551826
  0
LINE
  5
370
100
AcDbEntity
  8
03__ASM_ALL_CURVES
100
AcDbLine
 62
40
  6
CONTINUOUS
 10
2.6414447079
 20
5.6610551826
 11
2.4633347079
 21
5.6561076826
  0
LINE
  5
371
100
AcDbEntity
  8
03__ASM_ALL_CURVES
100
AcDbLine
 62
40
  6
CONTINUOUS
 10
2.4633347079
 20
5.6561076826
 11
8.1240947079
 21
5.6561076826
  0
LINE
  5
372
100
AcDbEntity
  8
03__ASM_ALL_CURVES
100
AcDbLine
 62
40
  6
CONTINUOUS
 10
7.8124022084
 20
5.7154776826
 11
7.7381897084
 21
5.7154776826
  0
LINE
  5
373
100
AcDbEntity
  8
03__ASM_ALL_CURVES
100
AcDbLine
 62
40
  6
CONTINUOUS
 10
7.6268709584
 20
5.7154776826
 11
7.5897647084
 21
5.7154776826
  0
LINE
  5
374
100
AcDbEntity
  8
03__ASM_ALL_CURVES
100
AcDbLine
 62
40
  6
CONTINUOUS
 10
7.3392975209
 20
5.7154776826
 11
7.3207443959
 21
5.7154776826
  0
LINE
  5
375
100
AcDbEntity
  8
03__ASM_ALL_CURVES
100
AcDbLine
 62
40
  6
CONTINUOUS
 10
7.1908725209
 20
5.7154776826
 11
7.1723193959
 21
5.7154776826
  0
LINE
  5
376
100
AcDbEntity
  8
03__ASM_ALL_CURVES
100
AcDbLine
 62
40
  6
CONTINUOUS
 10
6.8940225209
 20
5.7154776826
 11
6.8754693959
 21
5.7154776826
  0
LINE
  5
377
100
AcDbEntity
  8
03__ASM_ALL_CURVES
100
AcDbLine
 62
40
  6
CONTINUOUS
 10
6.5971725209
 20
5.7154776826
 11
6.5786193959
 21
5.7154776826
  0
LINE
  5
378
100
AcDbEntity
  8
03__ASM_ALL_CURVES
100
AcDbLine
 62
40
  6
CONTINUOUS
 10
5.8550475209
 20
5.7154776826
 11
5.8364943959
 21
5.7154776826
  0
LINE
  5
379
100
AcDbEntity
  8
03__ASM_ALL_CURVES
100
AcDbLine
 62
40
  6
CONTINUOUS
 10
5.7066225209
 20
5.7154776826
 11
5.6880693959
 21
5.7154776826
  0
LINE
  5
37A
100
AcDbEntity
  8
03__ASM_ALL_CURVES
100
AcDbLine
 62
40
  6
CONTINUOUS
 10
4.3233862704
 20
5.7154776826
 11
4.3048331454
 21
5.7154776826
  0
LINE
  5
37B
100
AcDbEntity
  8
03__ASM_ALL_CURVES
100
AcDbLine
 62
40
  6
CONTINUOUS
 10
4.1656847079
 20
5.7154776826
 11
4.1564081454
 21
5.7154776826
  0
LINE
  5
37C
100
AcDbEntity
  8
03__ASM_ALL_CURVES
100
AcDbLine
 62
40
  6
CONTINUOUS
 10
3.4328362704
 20
5.7154776826
 11
3.4142831454
 21
5.7154776826
  0
LINE
  5
37D
100
AcDbEntity
  8
03__ASM_ALL_CURVES
100
AcDbLine
 62
40
  6
CONTINUOUS
 10
3.2751347079
 20
5.7154776826
 11
3.2658581454
 21
5.7154776826
  0
LINE
  5
37E
100
AcDbEntity
  8
03__ASM_ALL_CURVES
100
AcDbLine
 62
40
  6
CONTINUOUS
 10
3.0896034579
 20
5.7154776826
 11
3.1638159579
 21
5.7154776826
  0
LINE
  5
37F
100
AcDbEntity
  8
03__ASM_ALL_CURVES
100
AcDbLine
 62
40
  6
CONTINUOUS
 10
5.5118147084
 20
5.7154776826
 11
5.5860272084
 21
5.7154776826
  0
LINE
  5
380
100
AcDbEntity
  8
03__ASM_ALL_CURVES
100
AcDbLine
 62
40
  6
CONTINUOUS
 10
7.4413397084
 20
5.7154776826
 11
7.5155522084
 21
5.7154776826
  0
LINE
  5
381
100
AcDbEntity
  8
03__ASM_ALL_CURVES
100
AcDbLine
 62
40
  6
CONTINUOUS
 10
5.9663662709
 20
5.7649526841
 11
6.0220256459
 21
5.7649526841
  0
LINE
  5
382
100
AcDbEntity
  8
03__ASM_ALL_CURVES
100
AcDbLine
 62
40
  6
CONTINUOUS
 10
7.9329975209
 20
5.7896901826
 11
7.8866147084
 21
5.7896901826
  0
LINE
  5
383
100
AcDbEntity
  8
03__ASM_ALL_CURVES
100
AcDbLine
 62
40
  6
CONTINUOUS
 10
6.5878959584
 20
5.7896901826
 11
6.6250022084
 21
5.7896901826
  0
LINE
  5
384
100
AcDbEntity
  8
03__ASM_ALL_CURVES
100
AcDbLine
 62
40
  6
CONTINUOUS
 10
6.9960647084
 20
5.7896901826
 11
7.0702772084
 21
5.7896901826
  0
LINE
  5
385
100
AcDbEntity
  8
03__ASM_ALL_CURVES
100
AcDbLine
 62
40
  6
CONTINUOUS
 10
7.7381897084
 20
5.7896901826
 11
7.7845725209
 21
5.7896901826
  0
LINE
  5
386
100
AcDbEntity
  8
03__ASM_ALL_CURVES
100
AcDbLine
 62
40
  6
CONTINUOUS
 10
2.6414447079
 20
5.6511601826
 11
2.4633347079
 21
5.6561076826
  0
LINE
  5
387
100
AcDbEntity
  8
03__ASM_ALL_CURVES
100
AcDbLine
 62
40
  6
CONTINUOUS
 10
5.0962247079
 20
5.6610551826
 11
5.4524447079
 21
5.6511601826
  0
LINE
  5
388
100
AcDbEntity
  8
03__ASM_ALL_CURVES
100
AcDbLine
 62
40
  6
CONTINUOUS
 10
5.0962247079
 20
5.6660026826
 11
5.4524447079
 21
5.6462126826
  0
LINE
  5
389
100
AcDbEntity
  8
03__ASM_ALL_CURVES
100
AcDbLine
 62
40
  6
CONTINUOUS
 10
5.0962247079
 20
5.6709501826
 11
5.4524447079
 21
5.6412651826
  0
LINE
  5
38A
100
AcDbEntity
  8
03__ASM_ALL_CURVES
100
AcDbLine
 62
40
  6
CONTINUOUS
 10
5.0962247079
 20
5.6758976826
 11
5.4524447079
 21
5.6363176826
  0
LINE
  5
38B
100
AcDbEntity
  8
03__ASM_ALL_CURVES
100
AcDbLine
 62
40
  6
CONTINUOUS
 10
5.0962247079
 20
5.6808451826
 11
5.4524447079
 21
5.6313701826
  0
LINE
  5
38C
100
AcDbEntity
  8
03__ASM_ALL_CURVES
100
AcDbLine
 62
40
  6
CONTINUOUS
 10
5.4524447079
 20
5.6264226826
 11
5.0962247079
 21
5.6857926826
  0
LINE
  5
38D
100
AcDbEntity
  8
03__ASM_ALL_CURVES
100
AcDbLine
 62
40
  6
CONTINUOUS
 10
5.8550475209
 20
5.8639026826
 11
5.8736006459
 21
5.8515339355
  0
LINE
  5
38E
100
AcDbEntity
  8
03__ASM_ALL_CURVES
100
AcDbLine
 62
40
  6
CONTINUOUS
 10
6.5600662709
 20
5.727846433
 11
6.5415131459
 21
5.7525839326
  0
LINE
  5
38F
100
AcDbEntity
  8
03__ASM_ALL_CURVES
100
AcDbLine
 62
40
  6
CONTINUOUS
 10
7.3236535233
 20
2.9924396826
 11
7.3236535233
 21
2.8811209326
  0
LINE
  5
390
100
AcDbEntity
  8
03__ASM_ALL_CURVES
100
AcDbLine
 62
40
  6
CONTINUOUS
 10
7.3549617796
 20
2.7104321826
 11
7.3549617796
 21
2.8217509326
  0
LINE
  5
391
100
AcDbEntity
  8
03__ASM_ALL_CURVES
100
AcDbLine
 62
40
  6
CONTINUOUS
 10
7.3671272084
 20
5.8639026826
 11
7.3671272084
 21
5.7402151833
  0
LINE
  5
392
100
AcDbEntity
  8
03__ASM_ALL_CURVES
100
AcDbLine
 62
40
  6
CONTINUOUS
 10
7.4413397084
 20
5.8639026826
 11
7.4413397084
 21
5.7154776826
  0
LINE
  5
393
100
AcDbEntity
  8
03__ASM_ALL_CURVES
100
AcDbLine
 62
40
  6
CONTINUOUS
 10
7.4628019608
 20
2.9738865554
 11
7.4628019608
 21
2.9553334348
  0
LINE
  5
394
100
AcDbEntity
  8
03__ASM_ALL_CURVES
100
AcDbLine
 62
40
  6
CONTINUOUS
 10
7.4941102171
 20
2.8217509326
 11
7.4941102171
 21
2.7104321826
  0
LINE
  5
395
100
AcDbEntity
  8
03__ASM_ALL_CURVES
100
AcDbLine
 62
40
  6
CONTINUOUS
 10
6.9792609984
 20
2.7660915576
 11
6.9723035765
 21
2.7382618701
  0
LINE
  5
396
100
AcDbEntity
  8
03__ASM_ALL_CURVES
100
AcDbLine
 62
40
  6
CONTINUOUS
 10
7.059271492
 20
2.9367803076
 11
7.0662289139
 21
2.9646099951
  0
LINE
  5
397
100
AcDbEntity
  8
03__ASM_ALL_CURVES
100
AcDbLine
 62
40
  6
CONTINUOUS
 10
7.1427605545
 20
2.9367803076
 11
7.1358031327
 21
2.9089506201
  0
LINE
  5
398
100
AcDbEntity
  8
03__ASM_ALL_CURVES
100
AcDbLine
 62
40
  6
CONTINUOUS
 10
8.8193554105
 20
4.4064012454
 11
8.8054405668
 21
4.3971246826
  0
LINE
  5
399
100
AcDbEntity
  8
03__ASM_ALL_CURVES
100
AcDbLine
 62
40
  6
CONTINUOUS
 10
8.9306741605
 20
4.4620606179
 11
8.9167593168
 21
4.4527840576
  0
LINE
  5
39A
100
AcDbEntity
  8
03__ASM_ALL_CURVES
100
AcDbLine
 62
40
  6
CONTINUOUS
 10
2.6414447079
 20
5.6758976826
 11
2.4633347079
 21
5.6561076826
  0
LINE
  5
39B
100
AcDbEntity
  8
03__ASM_ALL_CURVES
100
AcDbLine
 62
40
  6
CONTINUOUS
 10
2.6414447079
 20
5.6709501826
 11
2.4633347079
 21
5.6561076826
  0
LINE
  5
39C
100
AcDbEntity
  8
03__ASM_ALL_CURVES
100
AcDbLine
 62
40
  6
CONTINUOUS
 10
2.6414447079
 20
5.6660026826
 11
2.4633347079
 21
5.6561076826
  0
LINE
  5
39D
100
AcDbEntity
  8
03__ASM_ALL_CURVES
100
AcDbLine
 62
40
  6
CONTINUOUS
 10
3.4142831454
 20
5.8020589296
 11
3.4328362704
 21
5.8020589296
  0
LINE
  5
39E
100
AcDbEntity
  8
03__ASM_ALL_CURVES
100
AcDbLine
 62
40
  6
CONTINUOUS
 10
4.3048331454
 20
5.8020589296
 11
4.3233862704
 21
5.8020589296
  0
LINE
  5
39F
100
AcDbEntity
  8
03__ASM_ALL_CURVES
100
AcDbLine
 62
40
  6
CONTINUOUS
 10
6.8940225209
 20
5.8639026826
 11
6.8754693959
 21
5.8639026826
  0
LINE
  5
3A0
100
AcDbEntity
  8
03__ASM_ALL_CURVES
100
AcDbLine
 62
40
  6
CONTINUOUS
 10
4.4996409579
 20
5.8639026826
 11
4.4254284579
 21
5.8639026826
  0
LINE
  5
3A1
100
AcDbEntity
  8
03__ASM_ALL_CURVES
100
AcDbLine
 62
40
  6
CONTINUOUS
 10
3.9059409579
 20
5.8639026826
 11
3.8317284579
 21
5.8639026826
  0
LINE
  5
3A2
100
AcDbEntity
  8
03__ASM_ALL_CURVES
100
AcDbLine
 62
40
  6
CONTINUOUS
 10
3.1174331454
 20
5.8639026826
 11
3.1359862704
 21
5.8639026826
  0
LINE
  5
3A3
100
AcDbEntity
  8
03__ASM_ALL_CURVES
100
AcDbLine
 62
40
  6
CONTINUOUS
 10
3.4142831454
 20
5.8639026826
 11
3.4328362704
 21
5.8639026826
  0
LINE
  5
3A4
100
AcDbEntity
  8
03__ASM_ALL_CURVES
100
AcDbLine
 62
40
  6
CONTINUOUS
 10
4.3048331454
 20
5.8639026826
 11
4.3233862704
 21
5.8639026826
  0
LINE
  5
3A5
100
AcDbEntity
  8
03__ASM_ALL_CURVES
100
AcDbLine
 62
40
  6
CONTINUOUS
 10
5.6880693959
 20
5.8639026826
 11
5.7066225209
 21
5.8639026826
  0
LINE
  5
3A6
100
AcDbEntity
  8
03__ASM_ALL_CURVES
100
AcDbLine
 62
40
  6
CONTINUOUS
 10
5.8364943959
 20
5.8639026826
 11
5.8550475209
 21
5.8639026826
  0
LINE
  5
3A7
100
AcDbEntity
  8
03__ASM_ALL_CURVES
100
AcDbLine
 62
40
  6
CONTINUOUS
 10
6.0962381459
 20
5.8639026826
 11
6.1890037709
 21
5.8639026826
  0
LINE
  5
3A8
100
AcDbEntity
  8
03__ASM_ALL_CURVES
100
AcDbLine
 62
40
  6
CONTINUOUS
 10
6.5786193959
 20
5.8639026826
 11
6.5971725209
 21
5.8639026826
  0
LINE
  5
3A9
100
AcDbEntity
  8
03__ASM_ALL_CURVES
100
AcDbLine
 62
40
  6
CONTINUOUS
 10
7.1723193959
 20
5.8639026826
 11
7.1908725209
 21
5.8639026826
  0
LINE
  5
3AA
100
AcDbEntity
  8
03__ASM_ALL_CURVES
100
AcDbLine
 62
40
  6
CONTINUOUS
 10
7.5897647084
 20
5.8639026826
 11
7.6268709584
 21
5.8639026826
  0
LINE
  5
3AB
100
AcDbEntity
  8
03__ASM_ALL_CURVES
100
AcDbLine
 62
40
  6
CONTINUOUS
 10
7.7381897084
 20
5.8639026826
 11
7.8124022084
 21
5.8639026826
  0
LINE
  5
3AC
100
AcDbEntity
  8
03__ASM_ALL_CURVES
100
AcDbLine
 62
40
  6
CONTINUOUS
 10
7.8866147084
 20
5.8639026826
 11
7.9329975209
 21
5.8639026826
  0
LINE
  5
3AD
100
AcDbEntity
  8
03__ASM_ALL_CURVES
100
AcDbLine
 62
40
  6
CONTINUOUS
 10
6.5786193959
 20
5.7154776826
 11
6.5600662709
 21
5.727846433
  0
LINE
  5
3AE
100
AcDbEntity
  8
03__ASM_ALL_CURVES
100
AcDbLine
 62
40
  6
CONTINUOUS
 10
8.791525723
 20
4.3971246826
 11
8.7776108793
 21
4.4064012454
  0
LINE
  5
3AF
100
AcDbEntity
  8
03__ASM_ALL_CURVES
100
AcDbLine
 62
40
  6
CONTINUOUS
 10
6.5971725209
 20
5.8639026826
 11
6.6157256459
 21
5.8515339355
  0
LINE
  5
3B0
100
AcDbEntity
  8
03__ASM_ALL_CURVES
100
AcDbLine
 62
40
  6
CONTINUOUS
 10
6.6157256459
 20
5.8515339355
 11
6.6250022084
 21
5.8391651796
  0
LINE
  5
3B1
100
AcDbEntity
  8
03__ASM_ALL_CURVES
100
AcDbLine
 62
40
  6
CONTINUOUS
 10
6.8569162709
 20
5.727846433
 11
6.8383631459
 21
5.7525839326
  0
LINE
  5
3B2
100
AcDbEntity
  8
03__ASM_ALL_CURVES
100
AcDbLine
 62
40
  6
CONTINUOUS
 10
7.1352131459
 20
5.7525839326
 11
7.1259365834
 21
5.7896901826
  0
LINE
  5
3B3
100
AcDbEntity
  8
03__ASM_ALL_CURVES
100
AcDbLine
 62
40
  6
CONTINUOUS
 10
7.5897647084
 20
5.7154776826
 11
7.5897647084
 21
5.8639026826
  0
LINE
  5
3B4
100
AcDbEntity
  8
0
100
AcDbLine
 62
7
  6
CONTINUOUS
 10
7.6403347079
 20
4.2887338843
 11
7.6403347079
 21
4.4460562012
  0
LINE
  5
3B5
100
AcDbEntity
  8
0
100
AcDbLine
 62
7
  6
CONTINUOUS
 10
7.6473347079
 20
4.2775247496
 11
7.6473347079
 21
4.4574402917
  0
LINE
  5
3B6
100
AcDbEntity
  8
0
100
AcDbLine
 62
7
  6
CONTINUOUS
 10
7.6573347079
 20
4.265223005
 11
7.6573347079
 21
4.4695814861
  0
LINE
  5
3B7
100
AcDbEntity
  8
0
100
AcDbLine
 62
7
  6
CONTINUOUS
 10
7.6643347079
 20
4.2569823966
 11
7.6643347079
 21
4.4780364701
  0
LINE
  5
3B8
100
AcDbEntity
  8
0
100
AcDbLine
 62
7
  6
CONTINUOUS
 10
7.7023347079
 20
3.9301358177
 11
7.7023347079
 21
3.9666387868
  0
LINE
  5
3B9
100
AcDbEntity
  8
0
100
AcDbLine
 62
7
  6
CONTINUOUS
 10
7.7023347079
 20
4.2298640624
 11
7.7023347079
 21
4.5049830096
  0
LINE
  5
3BA
100
AcDbEntity
  8
0
100
AcDbLine
 62
7
  6
CONTINUOUS
 10
7.7023347079
 20
4.7682406869
 11
7.7023347079
 21
4.8047445419
  0
LINE
  5
3BB
100
AcDbEntity
  8
0
100
AcDbLine
 62
7
  6
CONTINUOUS
 10
7.7093347079
 20
4.8066311812
 11
7.7093347079
 21
4.7650995053
  0
LINE
  5
3BC
100
AcDbEntity
  8
0
100
AcDbLine
 62
7
  6
CONTINUOUS
 10
7.7093347079
 20
3.9282446119
 11
7.7093347079
 21
3.9697797306
  0
LINE
  5
3BD
100
AcDbEntity
  8
0
100
AcDbLine
 62
7
  6
CONTINUOUS
 10
7.7093347079
 20
4.2260505619
 11
7.7093347079
 21
4.5087054127
  0
LINE
  5
3BE
100
AcDbEntity
  8
0
100
AcDbLine
 62
7
  6
CONTINUOUS
 10
7.7193347079
 20
4.8087621604
 11
7.7193347079
 21
4.7621311357
  0
LINE
  5
3BF
100
AcDbEntity
  8
0
100
AcDbLine
 62
7
  6
CONTINUOUS
 10
7.7193347079
 20
3.9261218841
 11
7.7193347079
 21
3.9727481795
  0
LINE
  5
3C0
100
AcDbEntity
  8
0
100
AcDbLine
 62
7
  6
CONTINUOUS
 10
7.7193347079
 20
4.2219779491
 11
7.7193347079
 21
4.5130140161
  0
LINE
  5
3C1
100
AcDbEntity
  8
0
100
AcDbLine
 62
7
  6
CONTINUOUS
 10
7.7263347079
 20
3.9250864084
 11
7.7263347079
 21
3.9748260937
  0
LINE
  5
3C2
100
AcDbEntity
  8
0
100
AcDbLine
 62
7
  6
CONTINUOUS
 10
7.7263347079
 20
4.2197936892
 11
7.7263347079
 21
4.5151160416
  0
LINE
  5
3C3
100
AcDbEntity
  8
0
100
AcDbLine
 62
7
  6
CONTINUOUS
 10
7.7263347079
 20
4.760053277
 11
7.7263347079
 21
4.8097954331
  0
LINE
  5
3C4
100
AcDbEntity
  8
03__ASM_ALL_CURVES
100
AcDbLine
 62
40
  6
CONTINUOUS
 10
7.7381897084
 20
5.7154776826
 11
7.7381897084
 21
5.8639026826
  0
LINE
  5
3C5
100
AcDbEntity
  8
0
100
AcDbLine
 62
7
  6
CONTINUOUS
 10
7.7643347079
 20
3.9215297337
 11
7.7643347079
 21
3.9812108104
  0
LINE
  5
3C6
100
AcDbEntity
  8
0
100
AcDbLine
 62
7
  6
CONTINUOUS
 10
7.7643347079
 20
4.2124001071
 11
7.7643347079
 21
4.5224245714
  0
LINE
  5
3C7
100
AcDbEntity
  8
0
100
AcDbLine
 62
7
  6
CONTINUOUS
 10
7.7643347079
 20
4.7536685231
 11
7.7643347079
 21
4.8133505599
  0
LINE
  5
3C8
100
AcDbEntity
  8
0
100
AcDbLine
 62
7
  6
CONTINUOUS
 10
7.7713347079
 20
4.8136795481
 11
7.7713347079
 21
4.7529943642
  0
LINE
  5
3C9
100
AcDbEntity
  8
0
100
AcDbLine
 62
7
  6
CONTINUOUS
 10
7.7713347079
 20
3.9212000957
 11
7.7713347079
 21
3.9818849915
  0
LINE
  5
3CA
100
AcDbEntity
  8
0
100
AcDbLine
 62
7
  6
CONTINUOUS
 10
7.7713347079
 20
4.2116640906
 11
7.7713347079
 21
4.5230861576
  0
LINE
  5
3CB
100
AcDbEntity
  8
0
100
AcDbLine
 62
7
  6
CONTINUOUS
 10
7.7813347079
 20
4.8134909263
 11
7.7813347079
 21
4.7533796172
  0
LINE
  5
3CC
100
AcDbEntity
  8
0
100
AcDbLine
 62
7
  6
CONTINUOUS
 10
7.7813347079
 20
3.9213878329
 11
7.7813347079
 21
3.9814997645
  0
LINE
  5
3CD
100
AcDbEntity
  8
0
100
AcDbLine
 62
7
  6
CONTINUOUS
 10
7.7813347079
 20
4.2121799944
 11
7.7813347079
 21
4.5227853837
  0
LINE
  5
3CE
100
AcDbEntity
  8
0
100
AcDbLine
 62
7
  6
CONTINUOUS
 10
7.7883347079
 20
3.9217168435
 11
7.7883347079
 21
3.9808256028
  0
LINE
  5
3CF
100
AcDbEntity
  8
0
100
AcDbLine
 62
7
  6
CONTINUOUS
 10
7.7883347079
 20
4.2128345572
 11
7.7883347079
 21
4.5220576117
  0
LINE
  5
3D0
100
AcDbEntity
  8
0
100
AcDbLine
 62
7
  6
CONTINUOUS
 10
7.7883347079
 20
4.7540537955
 11
7.7883347079
 21
4.8131613095
  0
LINE
  5
3D1
100
AcDbEntity
  8
03__ASM_ALL_CURVES
100
AcDbLine
 62
40
  6
CONTINUOUS
 10
7.4141000077
 20
2.9089506201
 11
7.4071425858
 21
2.8811209326
  0
LINE
  5
3D2
100
AcDbEntity
  8
03__ASM_ALL_CURVES
100
AcDbLine
 62
40
  6
CONTINUOUS
 10
7.0175269608
 20
2.9553334348
 11
7.0105695389
 21
2.9460568679
  0
LINE
  5
3D3
100
AcDbEntity
  8
03__ASM_ALL_CURVES
100
AcDbLine
 62
40
  6
CONTINUOUS
 10
6.9027293577
 20
2.7939212451
 11
6.9166442015
 21
2.8124743723
  0
LINE
  5
3D4
100
AcDbEntity
  8
03__ASM_ALL_CURVES
100
AcDbLine
 62
40
  6
CONTINUOUS
 10
7.0662289139
 20
2.9646099951
 11
7.0801437577
 21
2.9831631223
  0
LINE
  5
3D5
100
AcDbEntity
  8
03__ASM_ALL_CURVES
100
AcDbLine
 62
40
  6
CONTINUOUS
 10
6.9723035765
 20
2.7382618701
 11
6.9583887327
 21
2.7197087454
  0
LINE
  5
3D6
100
AcDbEntity
  8
03__ASM_ALL_CURVES
100
AcDbLine
 62
40
  6
CONTINUOUS
 10
7.1358031327
 20
2.9089506201
 11
7.1218882889
 21
2.8903974954
  0
LINE
  5
3D7
100
AcDbEntity
  8
03__ASM_ALL_CURVES
100
AcDbLine
 62
40
  6
CONTINUOUS
 10
7.2401644608
 20
2.9553334348
 11
7.2332070389
 21
2.9460568679
  0
LINE
  5
3D8
100
AcDbEntity
  8
03__ASM_ALL_CURVES
100
AcDbLine
 62
40
  6
CONTINUOUS
 10
7.0766649046
 20
2.7289853081
 11
7.0697074827
 21
2.7197087454
  0
LINE
  5
3D9
100
AcDbEntity
  8
03__ASM_ALL_CURVES
100
AcDbLine
 62
40
  6
CONTINUOUS
 10
7.0105695389
 20
2.9460568679
 11
6.9966546952
 21
2.9367803076
  0
LINE
  5
3DA
100
AcDbEntity
  8
03__ASM_ALL_CURVES
100
AcDbLine
 62
40
  6
CONTINUOUS
 10
7.0801437577
 20
2.9831631223
 11
7.0940586014
 21
2.9924396826
  0
LINE
  5
3DB
100
AcDbEntity
  8
03__ASM_ALL_CURVES
100
AcDbLine
 62
40
  6
CONTINUOUS
 10
6.9166442015
 20
2.8124743723
 11
6.9305590452
 21
2.8217509326
  0
LINE
  5
3DC
100
AcDbEntity
  8
03__ASM_ALL_CURVES
100
AcDbLine
 62
40
  6
CONTINUOUS
 10
7.1218882889
 20
2.8903974954
 11
7.1079734452
 21
2.8811209326
  0
LINE
  5
3DD
100
AcDbEntity
  8
03__ASM_ALL_CURVES
100
AcDbLine
 62
40
  6
CONTINUOUS
 10
7.2332070389
 20
2.9460568679
 11
7.2192921952
 21
2.9367803076
  0
LINE
  5
3DE
100
AcDbEntity
  8
03__ASM_ALL_CURVES
100
AcDbLine
 62
40
  6
CONTINUOUS
 10
6.9583887327
 20
2.7197087454
 11
6.944473889
 21
2.7104321826
  0
LINE
  5
3DF
100
AcDbEntity
  8
03__ASM_ALL_CURVES
100
AcDbLine
 62
40
  6
CONTINUOUS
 10
7.4141000077
 20
2.9831631223
 11
7.4280148514
 21
2.9924396826
  0
LINE
  5
3E0
100
AcDbEntity
  8
03__ASM_ALL_CURVES
100
AcDbLine
 62
40
  6
CONTINUOUS
 10
2.4633347079
 20
5.6561076826
 11
2.6414447079
 21
5.6857926826
  0
LINE
  5
3E1
100
AcDbEntity
  8
03__ASM_ALL_CURVES
100
AcDbLine
 62
40
  6
CONTINUOUS
 10
2.6414447079
 20
5.6808451826
 11
2.4633347079
 21
5.6561076826
  0
LINE
  5
3E2
100
AcDbEntity
  8
03__ASM_ALL_CURVES
100
AcDbLine
 62
40
  6
CONTINUOUS
 10
6.8754693959
 20
5.7154776826
 11
6.8569162709
 21
5.727846433
  0
LINE
  5
3E3
100
AcDbEntity
  8
03__ASM_ALL_CURVES
100
AcDbLine
 62
40
  6
CONTINUOUS
 10
8.6941218168
 20
4.5084434326
 11
8.7080366605
 21
4.4991668723
  0
LINE
  5
3E4
100
AcDbEntity
  8
03__ASM_ALL_CURVES
100
AcDbLine
 62
40
  6
CONTINUOUS
 10
8.8054405668
 20
4.5084434326
 11
8.8193554105
 21
4.4991668723
  0
LINE
  5
3E5
100
AcDbEntity
  8
03__ASM_ALL_CURVES
100
AcDbLine
 62
40
  6
CONTINUOUS
 10
6.8569162709
 20
5.8144276855
 11
6.9125756459
 21
5.7773214311
  0
LINE
  5
3E6
100
AcDbEntity
  8
03__ASM_ALL_CURVES
100
AcDbLine
 62
40
  6
CONTINUOUS
 10
8.9167593168
 20
4.5084434326
 11
8.9306741605
 21
4.4991668723
  0
LINE
  5
3E7
100
AcDbEntity
  8
03__ASM_ALL_CURVES
100
AcDbLine
 62
40
  6
CONTINUOUS
 10
6.9125756459
 20
5.8515339355
 11
6.8940225209
 21
5.8639026826
  0
LINE
  5
3E8
100
AcDbEntity
  8
03__ASM_ALL_CURVES
100
AcDbLine
 62
40
  6
CONTINUOUS
 10
7.1723193959
 20
5.7154776826
 11
7.1537662709
 21
5.727846433
  0
LINE
  5
3E9
100
AcDbEntity
  8
03__ASM_ALL_CURVES
100
AcDbLine
 62
40
  6
CONTINUOUS
 10
6.8476397084
 20
5.8267964326
 11
6.8569162709
 21
5.8144276855
  0
LINE
  5
3EA
100
AcDbEntity
  8
03__ASM_ALL_CURVES
100
AcDbLine
 62
40
  6
CONTINUOUS
 10
6.9125756459
 20
5.7773214311
 11
6.9218522084
 21
5.7649526841
  0
LINE
  5
3EB
100
AcDbEntity
  8
03__ASM_ALL_CURVES
100
AcDbLine
 62
40
  6
CONTINUOUS
 10
6.9218522084
 20
5.8391651796
 11
6.9125756459
 21
5.8515339355
  0
LINE
  5
3EC
100
AcDbEntity
  8
03__ASM_ALL_CURVES
100
AcDbLine
 62
40
  6
CONTINUOUS
 10
7.1537662709
 20
5.727846433
 11
7.1352131459
 21
5.7525839326
  0
LINE
  5
3ED
100
AcDbEntity
  8
03__ASM_ALL_CURVES
100
AcDbLine
 62
40
  6
CONTINUOUS
 10
7.2279787709
 20
5.8267964326
 11
7.2372553334
 21
5.7896901826
  0
LINE
  5
3EE
100
AcDbEntity
  8
0
100
AcDbLine
 62
7
  6
CONTINUOUS
 10
7.8263347079
 20
3.9256745077
 11
7.8263347079
 21
3.9736387342
  0
LINE
  5
3EF
100
AcDbEntity
  8
0
100
AcDbLine
 62
7
  6
CONTINUOUS
 10
7.8263347079
 20
4.2209584688
 11
7.8263347079
 21
4.5138465387
  0
LINE
  5
3F0
100
AcDbEntity
  8
0
100
AcDbLine
 62
7
  6
CONTINUOUS
 10
7.8263347079
 20
4.7612406447
 11
7.8263347079
 21
4.8092013828
  0
LINE
  5
3F1
100
AcDbEntity
  8
0
100
AcDbLine
 62
7
  6
CONTINUOUS
 10
7.8333347079
 20
4.8081659808
 11
7.8333347079
 21
4.7633185507
  0
LINE
  5
3F2
100
AcDbEntity
  8
0
100
AcDbLine
 62
7
  6
CONTINUOUS
 10
7.8333347079
 20
3.926707858
 11
7.8333347079
 21
3.9715608674
  0
LINE
  5
3F3
100
AcDbEntity
  8
0
100
AcDbLine
 62
7
  6
CONTINUOUS
 10
7.8333347079
 20
4.2230539352
 11
7.8333347079
 21
4.5116722628
  0
LINE
  5
3F4
100
AcDbEntity
  8
0
100
AcDbLine
 62
7
  6
CONTINUOUS
 10
7.8433347079
 20
4.8055540372
 11
7.8433347079
 21
4.7666658526
  0
LINE
  5
3F5
100
AcDbEntity
  8
0
100
AcDbLine
 62
7
  6
CONTINUOUS
 10
7.8433347079
 20
3.9293262376
 11
7.8433347079
 21
3.9682134158
  0
LINE
  5
3F6
100
AcDbEntity
  8
0
100
AcDbLine
 62
7
  6
CONTINUOUS
 10
7.8433347079
 20
4.2283058044
 11
7.8433347079
 21
4.506639733
  0
LINE
  5
3F7
100
AcDbEntity
  8
0
100
AcDbLine
 62
7
  6
CONTINUOUS
 10
7.8503347079
 20
3.9312130443
 11
7.8503347079
 21
3.9645390663
  0
LINE
  5
3F8
100
AcDbEntity
  8
0
100
AcDbLine
 62
7
  6
CONTINUOUS
 10
7.8503347079
 20
4.2320216061
 11
7.8503347079
 21
4.5028376241
  0
LINE
  5
3F9
100
AcDbEntity
  8
0
100
AcDbLine
 62
7
  6
CONTINUOUS
 10
7.8503347079
 20
4.7703402515
 11
7.8503347079
 21
4.8036629907
  0
LINE
  5
3FA
100
AcDbEntity
  8
03__ASM_ALL_CURVES
100
AcDbLine
 62
40
  6
CONTINUOUS
 10
7.8866147084
 20
5.7154776826
 11
7.8866147084
 21
5.8639026826
  0
LINE
  5
3FB
100
AcDbEntity
  8
0
100
AcDbLine
 62
7
  6
CONTINUOUS
 10
7.8883347079
 20
4.2616638513
 11
7.8883347079
 21
4.4733313612
  0
LINE
  5
3FC
100
AcDbEntity
  8
0
100
AcDbLine
 62
7
  6
CONTINUOUS
 10
7.8953347079
 20
4.2701546187
 11
7.8953347079
 21
4.4647335617
  0
LINE
  5
3FD
100
AcDbEntity
  8
0
100
AcDbLine
 62
7
  6
CONTINUOUS
 10
7.9053347079
 20
4.283242892
 11
7.9053347079
 21
4.4517802321
  0
LINE
  5
3FE
100
AcDbEntity
  8
0
100
AcDbLine
 62
7
  6
CONTINUOUS
 10
7.9123347079
 20
4.2962781359
 11
7.9123347079
 21
4.438607257
  0
LINE
  5
3FF
100
AcDbEntity
  8
03__ASM_ALL_CURVES
100
AcDbLine
 62
40
  6
CONTINUOUS
 10
7.9608272084
 20
5.8391651796
 11
7.9608272084
 21
5.8144276855
  0
LINE
  5
400
100
AcDbEntity
  8
0
100
AcDbLine
 62
7
  6
CONTINUOUS
 10
7.9623347079
 20
5.17843018
 11
7.9623347079
 21
3.5564491852
  0
LINE
  5
401
100
AcDbEntity
  8
03__ASM_ALL_CURVES
100
AcDbLine
 62
40
  6
CONTINUOUS
 10
7.4071425858
 20
2.9738865554
 11
7.4141000077
 21
2.9831631223
  0
LINE
  5
402
100
AcDbEntity
  8
03__ASM_ALL_CURVES
100
AcDbLine
 62
40
  6
CONTINUOUS
 10
7.4280148514
 20
2.927503744
 11
7.4141000077
 21
2.9089506201
  0
LINE
  5
403
100
AcDbEntity
  8
03__ASM_ALL_CURVES
100
AcDbLine
 62
40
  6
CONTINUOUS
 10
7.4628019608
 20
2.9553334348
 11
7.4558445389
 21
2.9460568679
  0
LINE
  5
404
100
AcDbEntity
  8
03__ASM_ALL_CURVES
100
AcDbLine
 62
40
  6
CONTINUOUS
 10
8.7149940824
 20
4.4713371848
 11
8.7080366605
 21
4.4620606179
  0
LINE
  5
405
100
AcDbEntity
  8
03__ASM_ALL_CURVES
100
AcDbLine
 62
40
  6
CONTINUOUS
 10
7.0697074827
 20
2.7197087454
 11
7.055792639
 21
2.7104321826
  0
LINE
  5
406
100
AcDbEntity
  8
03__ASM_ALL_CURVES
100
AcDbLine
 62
40
  6
CONTINUOUS
 10
7.4558445389
 20
2.9460568679
 11
7.4280148514
 21
2.927503744
  0
LINE
  5
407
100
AcDbEntity
  8
03__ASM_ALL_CURVES
100
AcDbLine
 62
40
  6
CONTINUOUS
 10
7.3207443959
 20
5.7154776826
 11
7.3021912709
 21
5.727846433
  0
LINE
  5
408
100
AcDbEntity
  8
03__ASM_ALL_CURVES
100
AcDbLine
 62
40
  6
CONTINUOUS
 10
7.1908725209
 20
5.8639026826
 11
7.2094256459
 21
5.8515339355
  0
LINE
  5
409
100
AcDbEntity
  8
03__ASM_ALL_CURVES
100
AcDbLine
 62
40
  6
CONTINUOUS
 10
7.2094256459
 20
5.8515339355
 11
7.2279787709
 21
5.8267964326
  0
LINE
  5
40A
100
AcDbEntity
  8
03__ASM_ALL_CURVES
100
AcDbLine
 62
40
  6
CONTINUOUS
 10
7.3021912709
 20
5.727846433
 11
7.2929147084
 21
5.7402151833
  0
LINE
  5
40B
100
AcDbEntity
  8
03__ASM_ALL_CURVES
100
AcDbLine
 62
40
  6
CONTINUOUS
 10
7.6639772084
 20
5.8267964326
 11
7.6732537709
 21
5.7896901826
  0
LINE
  5
40C
100
AcDbEntity
  8
0
100
AcDbLine
 62
7
  6
CONTINUOUS
 10
8.0563347079
 20
3.5559396826
 11
8.0563347079
 21
5.1789396826
  0
LINE
  5
40D
100
AcDbEntity
  8
0
100
AcDbLine
 62
7
  6
CONTINUOUS
 10
8.1063347079
 20
3.5559396826
 11
8.1063347079
 21
5.1789396826
  0
LINE
  5
40E
100
AcDbEntity
  8
0
100
AcDbLine
 62
7
  6
CONTINUOUS
 10
8.2093347079
 20
3.5559396826
 11
8.2093347079
 21
5.1789396826
  0
LINE
  5
40F
100
AcDbEntity
  8
0
100
AcDbLine
 62
7
  6
CONTINUOUS
 10
8.2593347079
 20
3.5559396826
 11
8.2593347079
 21
5.1789396826
  0
LINE
  5
410
100
AcDbEntity
  8
03__ASM_ALL_CURVES
100
AcDbLine
 62
40
  6
CONTINUOUS
 10
8.7636960355
 20
4.4806137451
 11
8.7776108793
 21
4.4991668723
  0
LINE
  5
411
100
AcDbEntity
  8
03__ASM_ALL_CURVES
100
AcDbLine
 62
40
  6
CONTINUOUS
 10
8.8332702543
 20
4.4249543701
 11
8.8193554105
 21
4.4064012454
  0
LINE
  5
412
100
AcDbEntity
  8
03__ASM_ALL_CURVES
100
AcDbLine
 62
40
  6
CONTINUOUS
 10
8.9376315824
 20
4.4713371848
 11
8.9306741605
 21
4.4620606179
  0
LINE
  5
413
100
AcDbEntity
  8
0
100
AcDbLine
 62
7
  6
CONTINUOUS
 10
8.3693347079
 20
3.5564396826
 11
8.4003347079
 21
3.5874396826
  0
LINE
  5
414
100
AcDbEntity
  8
03__ASM_ALL_CURVES
100
AcDbLine
 62
40
  6
CONTINUOUS
 10
7.6268709584
 20
5.8639026826
 11
7.6454240834
 21
5.8515339355
  0
LINE
  5
415
100
AcDbEntity
  8
0
100
AcDbLine
 62
7
  6
CONTINUOUS
 10
8.3693347079
 20
5.1784396826
 11
8.4003347079
 21
5.1474396826
  0
LINE
  5
416
100
AcDbEntity
  8
03__ASM_ALL_CURVES
100
AcDbLine
 62
40
  6
CONTINUOUS
 10
7.6454240834
 20
5.8515339355
 11
7.6639772084
 21
5.8267964326
  0
LINE
  5
417
100
AcDbEntity
  8
03__ASM_ALL_CURVES
100
AcDbLine
 62
40
  6
CONTINUOUS
 10
8.7776108793
 20
4.4064012454
 11
8.7636960355
 21
4.4249543701
  0
LINE
  5
418
100
AcDbEntity
  8
03__ASM_ALL_CURVES
100
AcDbLine
 62
40
  6
CONTINUOUS
 10
8.7080366605
 20
4.4991668723
 11
8.7149940824
 21
4.4898903054
  0
LINE
  5
419
100
AcDbEntity
  8
0
100
AcDbLine
 62
7
  6
CONTINUOUS
 10
8.2993347079
 20
5.17843018
 11
8.2993347079
 21
3.5564491852
  0
LINE
  5
41A
100
AcDbEntity
  8
0
100
AcDbLine
 62
7
  6
CONTINUOUS
 10
8.3693347079
 20
3.5564396826
 11
8.3693347079
 21
5.1784396826
  0
LINE
  5
41B
100
AcDbEntity
  8
0
100
AcDbLine
 62
7
  6
CONTINUOUS
 10
8.4003347079
 20
3.5874396826
 11
8.4003347079
 21
5.1474396826
  0
LINE
  5
41C
100
AcDbEntity
  8
03__ASM_ALL_CURVES
100
AcDbLine
 62
40
  6
CONTINUOUS
 10
7.9329975209
 20
5.8639026826
 11
7.9515506459
 21
5.8515339355
  0
LINE
  5
41D
100
AcDbEntity
  8
03__ASM_ALL_CURVES
100
AcDbLine
 62
40
  6
CONTINUOUS
 10
8.8193554105
 20
4.4991668723
 11
8.8332702543
 21
4.4806137451
  0
LINE
  5
41E
100
AcDbEntity
  8
03__ASM_ALL_CURVES
100
AcDbLine
 62
40
  6
CONTINUOUS
 10
8.9306741605
 20
4.4991668723
 11
8.9376315824
 21
4.4898903054
  0
LINE
  5
41F
100
AcDbEntity
  8
03__ASM_ALL_CURVES
100
AcDbLine
 62
40
  6
CONTINUOUS
 10
7.9515506459
 20
5.8515339355
 11
7.9608272084
 21
5.8391651796
  0
LINE
  5
420
100
AcDbEntity
  8
03__ASM_ALL_CURVES
100
AcDbLine
 62
40
  6
CONTINUOUS
 10
8.7428237693
 20
4.3377546826
 11
8.7984831443
 21
4.2264359326
  0
LINE
  5
421
100
AcDbEntity
  8
03__ASM_ALL_CURVES
100
AcDbLine
 62
40
  6
CONTINUOUS
 10
7.9329975209
 20
5.7896901826
 11
7.9608272084
 21
5.7154776826
  0
LINE
  5
422
100
AcDbEntity
  8
03__ASM_ALL_CURVES
100
AcDbLine
 62
40
  6
CONTINUOUS
 10
8.6593347068
 20
4.3377546826
 11
8.6593347068
 21
4.2264359326
  0
LINE
  5
423
100
AcDbEntity
  8
03__ASM_ALL_CURVES
100
AcDbLine
 62
40
  6
CONTINUOUS
 10
8.6593347074
 20
4.3971246826
 11
8.6593347074
 21
4.5084434326
  0
LINE
  5
424
100
AcDbEntity
  8
03__ASM_ALL_CURVES
100
AcDbLine
 62
40
  6
CONTINUOUS
 10
8.7149940824
 20
4.4898903054
 11
8.7149940824
 21
4.4713371848
  0
LINE
  5
425
100
AcDbEntity
  8
03__ASM_ALL_CURVES
100
AcDbLine
 62
40
  6
CONTINUOUS
 10
8.7428237693
 20
4.2264359326
 11
8.7428237693
 21
4.3377546826
  0
LINE
  5
426
100
AcDbEntity
  8
03__ASM_ALL_CURVES
100
AcDbLine
 62
40
  6
CONTINUOUS
 10
8.7567386136
 20
4.4527840576
 11
8.7636960355
 21
4.4806137451
  0
LINE
  5
427
100
AcDbEntity
  8
03__ASM_ALL_CURVES
100
AcDbLine
 62
40
  6
CONTINUOUS
 10
8.8402276761
 20
4.4527840576
 11
8.8332702543
 21
4.4249543701
  0
LINE
  5
428
100
AcDbEntity
  8
03__ASM_ALL_CURVES
100
AcDbLine
 62
40
  6
CONTINUOUS
 10
8.9167593168
 20
4.4527840576
 11
8.9376315824
 21
4.3971246826
  0
LINE
  5
429
100
AcDbEntity
  8
03__ASM_ALL_CURVES
100
AcDbLine
 62
40
  6
CONTINUOUS
 10
8.7636960355
 20
4.4249543701
 11
8.7567386136
 21
4.4527840576
  0
LINE
  5
42A
100
AcDbEntity
  8
03__ASM_ALL_CURVES
100
AcDbLine
 62
40
  6
CONTINUOUS
 10
8.7984831443
 20
4.2264359326
 11
8.7984831443
 21
4.3377546826
  0
LINE
  5
42B
100
AcDbEntity
  8
03__ASM_ALL_CURVES
100
AcDbLine
 62
40
  6
CONTINUOUS
 10
8.8541425193
 20
4.3377546826
 11
8.8541425193
 21
4.2264359326
  0
LINE
  5
42C
100
AcDbEntity
  8
03__ASM_ALL_CURVES
100
AcDbLine
 62
40
  6
CONTINUOUS
 10
8.8819722074
 20
4.3971246826
 11
8.8819722074
 21
4.5084434326
  0
LINE
  5
42D
100
AcDbEntity
  8
03__ASM_ALL_CURVES
100
AcDbLine
 62
40
  6
CONTINUOUS
 10
8.9376315824
 20
4.4898903054
 11
8.9376315824
 21
4.4713371848
  0
LINE
  5
42E
100
AcDbEntity
  8
03__ASM_ALL_CURVES
100
AcDbLine
 62
40
  6
CONTINUOUS
 10
8.9654612693
 20
4.2264359326
 11
8.9654612693
 21
4.3377546826
  0
LINE
  5
42F
100
AcDbEntity
  8
03__ASM_ALL_CURVES
100
AcDbLine
 62
40
  6
CONTINUOUS
 10
9.0211206449
 20
4.5084434326
 11
9.0211206449
 21
4.3971246826
  0
LINE
  5
430
100
AcDbEntity
  8
03__ASM_ALL_CURVES
100
AcDbLine
 62
40
  6
CONTINUOUS
 10
8.8332702543
 20
4.4806137451
 11
8.8402276761
 21
4.4527840576
  0
LINE
  5
431
100
AcDbEntity
  8
03__ASM_ALL_CURVES
100
AcDbLine
 62
40
  6
CONTINUOUS
 10
9.1046097068
 20
4.3377546826
 11
9.1046097068
 21
4.2264359326
  0
LINE
  5
432
100
AcDbEntity
  8
03__ASM_ALL_CURVES
100
AcDbLine
 62
40
  6
CONTINUOUS
 10
9.1324393949
 20
4.5084434326
 11
9.1324393949
 21
4.3971246826
  0
CIRCLE
  5
433
100
AcDbEntity
  8
0
100
AcDbCircle
 62
7
  6
CONTINUOUS
 10
7.7743347079
 20
4.3674396826
 40
0.156
  0
ARC
  5
434
100
AcDbEntity
  8
0
100
AcDbCircle
 62
7
  6
CONTINUOUS
 10
3.0243347079
 20
4.5444396826
 40
0.094
100
AcDbArc
 50
90.0
 51
131.267427381
  0
ARC
  5
435
100
AcDbEntity
  8
0
100
AcDbCircle
 62
7
  6
CONTINUOUS
 10
3.0243347079
 20
4.1904396826
 40
0.094
100
AcDbArc
 50
228.732572619
 51
270.0
  0
ARC
  5
436
100
AcDbEntity
  8
0
100
AcDbCircle
 62
7
  6
CONTINUOUS
 10
6.7373347079
 20
5.1079396826
 40
0.043
100
AcDbArc
 50
303.1280236397
 51
328.449100446
  0
ARC
  5
437
100
AcDbEntity
  8
0
100
AcDbCircle
 62
7
  6
CONTINUOUS
 10
6.7373347079
 20
5.1079396826
 40
0.043
100
AcDbArc
 50
211.550899554
 51
236.8719763603
  0
ARC
  5
438
100
AcDbEntity
  8
0
100
AcDbCircle
 62
7
  6
CONTINUOUS
 10
6.7373347079
 20
3.6269396826
 40
0.043
100
AcDbArc
 50
31.550899554
 51
148.449100446
  0
ARC
  5
439
100
AcDbEntity
  8
0
100
AcDbCircle
 62
7
  6
CONTINUOUS
 10
5.4676986791
 20
3.4734396826
 40
0.028
100
AcDbArc
 50
9.2483578233
 51
76.1357484507
  0
ARC
  5
43A
100
AcDbEntity
  8
0
100
AcDbCircle
 62
7
  6
CONTINUOUS
 10
5.4676986791
 20
5.2614396826
 40
0.028
100
AcDbArc
 50
283.8642515493
 51
350.7516421767
  0
ARC
  5
43B
100
AcDbEntity
  8
0
100
AcDbCircle
 62
7
  6
CONTINUOUS
 10
2.7123347079
 20
4.2059396826
 40
0.0175
100
AcDbArc
 50
180.0
 51
360.0
  0
SPLINE
  5
43C
100
AcDbEntity
  8
0
100
AcDbSpline
 62
7
  6
CONTINUOUS
 70
0
 71
3
 72
20
 73
16
 74
14
 42
0.0000001
 43
0.0000001
 44
0.0000000001
 12
0.0
 22
0.0416605862
 32
0.0
 13
0.0
 23
-0.0416605862
 33
0.0
 40
0.0
 40
0.0
 40
0.0
 40
0.0
 40
0.0489307848
 40
0.1062135912
 40
0.175871992
 40
0.2580136346
 40
0.3503828832
 40
0.4493672053
 40
0.5506327947
 40
0.6496171168
 40
0.7419863654
 40
0.824128008
 40
0.8937864088
 40
0.9510692152
 40
1.0
 40
1.0
 40
1.0
 40
1.0
 10
2.7298347079
 20
4.4435632514
 30
0.0
 10
2.7298347079
 20
4.4442427465
 30
0.0
 10
2.729413174
 20
4.4457287575
 30
0.0
 10
2.7277779062
 20
4.4476071848
 30
0.0
 10
2.7253259857
 20
4.4492061851
 30
0.0
 10
2.7221667533
 20
4.4504809362
 30
0.0
 10
2.7184636596
 20
4.451372924
 30
0.0
 10
2.7144167507
 20
4.4518321617
 30
0.0
 10
2.7102526651
 20
4.4518321617
 30
0.0
 10
2.7062057562
 20
4.451372924
 30
0.0
 10
2.7025026625
 20
4.4504809362
 30
0.0
 10
2.6993434301
 20
4.4492061851
 30
0.0
 10
2.6968915097
 20
4.4476071848
 30
0.0
 10
2.6952562419
 20
4.4457287575
 30
0.0
 10
2.6948347079
 20
4.4442427465
 30
0.0
 10
2.6948347079
 20
4.4435632514
 30
0.0
 11
2.7298347079
 21
4.4435632514
 31
0.0
 11
2.7293261897
 21
4.4455372907
 31
0.0
 11
2.7278301884
 21
4.447396606
 31
0.0
 11
2.725433646
 21
4.4490331406
 31
0.0
 11
2.722275841
 21
4.4503517852
 31
0.0
 11
2.7185402934
 21
4.4512759049
 31
0.0
 11
2.7144440998
 21
4.4517517932
 31
0.0
 11
2.710225316
 21
4.4517517932
 31
0.0
 11
2.7061291224
 21
4.4512759049
 31
0.0
 11
2.7023935749
 21
4.4503517852
 31
0.0
 11
2.6992357698
 21
4.4490331406
 31
0.0
 11
2.6968392275
 21
4.447396606
 31
0.0
 11
2.6953432261
 21
4.4455372907
 31
0.0
 11
2.6948347079
 21
4.4435632514
 31
0.0
  0
SPLINE
  5
43D
100
AcDbEntity
  8
0
100
AcDbSpline
 62
7
  6
CONTINUOUS
 70
0
 71
3
 72
16
 73
12
 74
10
 42
0.0000001
 43
0.0000001
 44
0.0000000001
 12
0.0906480335
 22
0.2719441006
 32
0.0
 13
-0.0906480335
 23
0.2719441006
 33
0.0
 40
0.0
 40
0.0
 40
0.0
 40
0.0
 40
0.1184548733
 40
0.230565332
 40
0.3393089466
 40
0.4465959239
 40
0.5535015371
 40
0.6607803311
 40
0.769505023
 40
0.8815660643
 40
1.0
 40
1.0
 40
1.0
 40
1.0
 10
3.2124632975
 20
4.0864396826
 30
0.0
 10
3.2160425313
 20
4.0971773839
 30
0.0
 10
3.222473618
 20
4.1182634308
 30
0.0
 10
3.2299930476
 20
4.1498244856
 30
0.0
 10
3.2350812751
 20
4.1807933037
 30
0.0
 10
3.2376681373
 20
4.2115763733
 30
0.0
 10
3.237666949
 20
4.2423301743
 30
0.0
 10
3.2350781084
 20
4.2731104657
 30
0.0
 10
3.2299893736
 20
4.3040717675
 30
0.0
 10
3.2224711169
 20
4.3356242991
 30
0.0
 10
3.2160418987
 20
4.3567038792
 30
0.0
 10
3.2124632975
 20
4.3674396826
 30
0.0
 11
3.2124632975
 21
4.0864396826
 31
0.0
 11
3.2223017671
 21
4.1189387105
 31
0.0
 11
3.2296889376
 21
4.1502151009
 31
0.0
 11
3.234693555
 21
4.1809825534
 31
0.0
 11
3.2372405203
 21
4.2116311746
 31
0.0
 11
3.2372393502
 21
4.2422761231
 31
0.0
 11
3.2346904101
 21
4.2729222262
 31
0.0
 11
3.229684971
 21
4.3036840494
 31
0.0
 11
3.2223001996
 21
4.334946451
 31
0.0
 11
3.2124632975
 21
4.3674396826
 31
0.0
  0
SPLINE
  5
43E
100
AcDbEntity
  8
0
100
AcDbSpline
 62
7
  6
CONTINUOUS
 70
0
 71
3
 72
17
 73
13
 74
11
 42
0.0000001
 43
0.0000001
 44
0.0000000001
 12
-0.1487434696
 22
0.2576312467
 32
0.0
 13
0.1487434696
 23
0.2576312467
 33
0.0
 40
0.0
 40
0.0
 40
0.0
 40
0.0
 40
0.1169386465
 40
0.2216811606
 40
0.3184580982
 40
0.4103908543
 40
0.5000417254
 40
0.5896883004
 40
0.6816074548
 40
0.7783545182
 40
0.8830694657
 40
1.0
 40
1.0
 40
1.0
 40
1.0
 10
3.1108055592
 20
4.0864396826
 30
0.0
 10
3.1050076059
 20
4.0964820324
 30
0.0
 10
3.0946677782
 20
4.1159118798
 30
0.0
 10
3.0822941548
 20
4.1450139574
 30
0.0
 10
3.0736407081
 20
4.1728555201
 30
0.0
 10
3.0684836035
 20
4.2000388397
 30
0.0
 10
3.0667667232
 20
4.2269517246
 30
0.0
 10
3.0684866088
 20
4.2538630494
 30
0.0
 10
3.0736453604
 20
4.28104119
 30
0.0
 10
3.0822982123
 20
4.308875496
 30
0.0
 10
3.0946697997
 20
4.3379713357
 30
0.0
 10
3.1050080081
 20
4.3573980295
 30
0.0
 10
3.1108055592
 20
4.3674396826
 30
0.0
 11
3.1108055592
 21
4.0864396826
 31
0.0
 11
3.0945793278
 21
4.1172113396
 31
0.0
 11
3.0824945713
 21
4.1459319762
 31
0.0
 11
3.074041898
 21
4.1734530448
 31
0.0
 11
3.0690090126
 21
4.20033476
 31
0.0
 11
3.0673347083
 21
4.2269521161
 31
0.0
 11
3.0690119506
 21
4.2535680066
 31
0.0
 11
3.0740465973
 21
4.2804452753
 31
0.0
 11
3.0824982123
 21
4.3079573719
 31
0.0
 11
3.0945803635
 21
4.3366702076
 31
0.0
 11
3.1108055592
 21
4.3674396826
 31
0.0
  0
SPLINE
  5
43F
100
AcDbEntity
  8
0
100
AcDbSpline
 62
7
  6
CONTINUOUS
 70
0
 71
3
 72
16
 73
12
 74
10
 42
0.0000001
 43
0.0000001
 44
0.0000000001
 12
0.0906480335
 22
0.2719441006
 32
0.0
 13
-0.0906480335
 23
0.2719441006
 33
0.0
 40
0.0
 40
0.0
 40
0.0
 40
0.0
 40
0.1184548733
 40
0.230565332
 40
0.3393089466
 40
0.4465959239
 40
0.5535015371
 40
0.6607803311
 40
0.769505023
 40
0.8815660643
 40
1.0
 40
1.0
 40
1.0
 40
1.0
 10
3.2124632975
 20
4.3674396826
 30
0.0
 10
3.2160425313
 20
4.3781773839
 30
0.0
 10
3.222473618
 20
4.3992634308
 30
0.0
 10
3.2299930476
 20
4.4308244856
 30
0.0
 10
3.2350812751
 20
4.4617933037
 30
0.0
 10
3.2376681373
 20
4.4925763733
 30
0.0
 10
3.237666949
 20
4.5233301743
 30
0.0
 10
3.2350781084
 20
4.5541104657
 30
0.0
 10
3.2299893736
 20
4.5850717675
 30
0.0
 10
3.2224711169
 20
4.6166242991
 30
0.0
 10
3.2160418987
 20
4.6377038792
 30
0.0
 10
3.2124632975
 20
4.6484396826
 30
0.0
 11
3.2124632975
 21
4.3674396826
 31
0.0
 11
3.2223017671
 21
4.3999387105
 31
0.0
 11
3.2296889376
 21
4.4312151009
 31
0.0
 11
3.234693555
 21
4.4619825534
 31
0.0
 11
3.2372405203
 21
4.4926311746
 31
0.0
 11
3.2372393502
 21
4.5232761231
 31
0.0
 11
3.2346904101
 21
4.5539222262
 31
0.0
 11
3.229684971
 21
4.5846840494
 31
0.0
 11
3.2223001996
 21
4.615946451
 31
0.0
 11
3.2124632975
 21
4.6484396826
 31
0.0
  0
SPLINE
  5
440
100
AcDbEntity
  8
0
100
AcDbSpline
 62
7
  6
CONTINUOUS
 70
0
 71
3
 72
17
 73
13
 74
11
 42
0.0000001
 43
0.0000001
 44
0.0000000001
 12
-0.1487434696
 22
0.2576312467
 32
0.0
 13
0.1487434696
 23
0.2576312467
 33
0.0
 40
0.0
 40
0.0
 40
0.0
 40
0.0
 40
0.1169386465
 40
0.2216811606
 40
0.3184580982
 40
0.4103908543
 40
0.5000417254
 40
0.5896883004
 40
0.6816074548
 40
0.7783545182
 40
0.8830694657
 40
1.0
 40
1.0
 40
1.0
 40
1.0
 10
3.1108055592
 20
4.3674396826
 30
0.0
 10
3.1050076059
 20
4.3774820324
 30
0.0
 10
3.0946677782
 20
4.3969118798
 30
0.0
 10
3.0822941548
 20
4.4260139574
 30
0.0
 10
3.0736407081
 20
4.4538555201
 30
0.0
 10
3.0684836035
 20
4.4810388397
 30
0.0
 10
3.0667667232
 20
4.5079517246
 30
0.0
 10
3.0684866088
 20
4.5348630494
 30
0.0
 10
3.0736453604
 20
4.56204119
 30
0.0
 10
3.0822982123
 20
4.589875496
 30
0.0
 10
3.0946697997
 20
4.6189713357
 30
0.0
 10
3.1050080081
 20
4.6383980295
 30
0.0
 10
3.1108055592
 20
4.6484396826
 30
0.0
 11
3.1108055592
 21
4.3674396826
 31
0.0
 11
3.0945793278
 21
4.3982113396
 31
0.0
 11
3.0824945713
 21
4.4269319762
 31
0.0
 11
3.074041898
 21
4.4544530448
 31
0.0
 11
3.0690090126
 21
4.48133476
 31
0.0
 11
3.0673347083
 21
4.5079521161
 31
0.0
 11
3.0690119506
 21
4.5345680066
 31
0.0
 11
3.0740465973
 21
4.5614452753
 31
0.0
 11
3.0824982123
 21
4.5889573719
 31
0.0
 11
3.0945803635
 21
4.6176702076
 31
0.0
 11
3.1108055592
 21
4.6484396826
 31
0.0
  0
SPLINE
  5
441
100
AcDbEntity
  8
0
100
AcDbSpline
 62
7
  6
CONTINUOUS
 70
0
 71
3
 72
15
 73
11
 74
9
 42
0.0000001
 43
0.0000001
 44
0.0000000001
 12
0.0
 22
0.1617702498
 32
0.0
 13
-0.0
 23
-0.1617702498
 33
0.0
 40
0.0
 40
0.0
 40
0.0
 40
0.0
 40
0.125
 40
0.25
 40
0.375
 40
0.5
 40
0.625
 40
0.75
 40
0.875
 40
1.0
 40
1.0
 40
1.0
 40
1.0
 10
8.2093347079
 20
5.1424396826
 30
0.0
 10
8.2093347079
 20
5.1491801097
 30
0.0
 10
8.2066531993
 20
5.1626609638
 30
0.0
 10
8.1951987636
 20
5.1798037383
 30
0.0
 10
8.1780559891
 20
5.191258174
 30
0.0
 10
8.1578347079
 20
5.1952804369
 30
0.0
 10
8.1376134267
 20
5.191258174
 30
0.0
 10
8.1204706522
 20
5.1798037383
 30
0.0
 10
8.1090162165
 20
5.1626609638
 30
0.0
 10
8.1063347079
 20
5.1491801097
 30
0.0
 10
8.1063347079
 20
5.1424396826
 30
0.0
 11
8.2093347079
 21
5.1424396826
 31
0.0
 11
8.2054145038
 21
5.1621478794
 31
0.0
 11
8.1942507072
 21
5.1788556818
 31
0.0
 11
8.1775429047
 21
5.1900194785
 31
0.0
 11
8.1578347079
 21
5.1939396826
 31
0.0
 11
8.1381265112
 21
5.1900194785
 31
0.0
 11
8.1214187087
 21
5.1788556818
 31
0.0
 11
8.110254912
 21
5.1621478794
 31
0.0
 11
8.1063347079
 21
5.1424396826
 31
0.0
  0
SPLINE
  5
442
100
AcDbEntity
  8
0
100
AcDbSpline
 62
7
  6
CONTINUOUS
 70
0
 71
3
 72
15
 73
11
 74
9
 42
0.0000001
 43
0.0000001
 44
0.0000000001
 12
0.0
 22
-0.1617702498
 32
0.0
 13
-0.0
 23
0.1617702498
 33
0.0
 40
0.0
 40
0.0
 40
0.0
 40
0.0
 40
0.125
 40
0.25
 40
0.375
 40
0.5
 40
0.625
 40
0.75
 40
0.875
 40
1.0
 40
1.0
 40
1.0
 40
1.0
 10
8.2093347079
 20
3.5924396826
 30
0.0
 10
8.2093347079
 20
3.5856992555
 30
0.0
 10
8.2066531993
 20
3.5722184014
 30
0.0
 10
8.1951987636
 20
3.5550756269
 30
0.0
 10
8.1780559891
 20
3.5436211912
 30
0.0
 10
8.1578347079
 20
3.5395989283
 30
0.0
 10
8.1376134267
 20
3.5436211912
 30
0.0
 10
8.1204706522
 20
3.5550756269
 30
0.0
 10
8.1090162165
 20
3.5722184014
 30
0.0
 10
8.1063347079
 20
3.5856992555
 30
0.0
 10
8.1063347079
 20
3.5924396826
 30
0.0
 11
8.2093347079
 21
3.5924396826
 31
0.0
 11
8.2054145038
 21
3.5727314858
 31
0.0
 11
8.1942507072
 21
3.5560236834
 31
0.0
 11
8.1775429047
 21
3.5448598867
 31
0.0
 11
8.1578347079
 21
3.5409396826
 31
0.0
 11
8.1381265112
 21
3.5448598867
 31
0.0
 11
8.1214187087
 21
3.5560236834
 31
0.0
 11
8.110254912
 21
3.5727314858
 31
0.0
 11
8.1063347079
 21
3.5924396826
 31
0.0
  0
SPLINE
  5
443
100
AcDbEntity
  8
0
100
AcDbSpline
 62
7
  6
CONTINUOUS
 70
0
 71
3
 72
15
 73
11
 74
9
 42
0.0000001
 43
0.0000001
 44
0.0000000001
 12
0.0
 22
0.1617702498
 32
0.0
 13
-0.0
 23
-0.1617702498
 33
0.0
 40
0.0
 40
0.0
 40
0.0
 40
0.0
 40
0.125
 40
0.25
 40
0.375
 40
0.5
 40
0.625
 40
0.75
 40
0.875
 40
1.0
 40
1.0
 40
1.0
 40
1.0
 10
5.4243347079
 20
5.2849396826
 30
0.0
 10
5.4243347079
 20
5.2916801097
 30
0.0
 10
5.4216531993
 20
5.3051609638
 30
0.0
 10
5.4101987636
 20
5.3223037383
 30
0.0
 10
5.3930559891
 20
5.333758174
 30
0.0
 10
5.3728347079
 20
5.3377804369
 30
0.0
 10
5.3526134267
 20
5.333758174
 30
0.0
 10
5.3354706522
 20
5.3223037383
 30
0.0
 10
5.3240162165
 20
5.3051609638
 30
0.0
 10
5.3213347079
 20
5.2916801097
 30
0.0
 10
5.3213347079
 20
5.2849396826
 30
0.0
 11
5.4243347079
 21
5.2849396826
 31
0.0
 11
5.4204145038
 21
5.3046478794
 31
0.0
 11
5.4092507072
 21
5.3213556818
 31
0.0
 11
5.3925429047
 21
5.3325194785
 31
0.0
 11
5.3728347079
 21
5.3364396826
 31
0.0
 11
5.3531265112
 21
5.3325194785
 31
0.0
 11
5.3364187087
 21
5.3213556818
 31
0.0
 11
5.325254912
 21
5.3046478794
 31
0.0
 11
5.3213347079
 21
5.2849396826
 31
0.0
  0
SPLINE
  5
444
100
AcDbEntity
  8
0
100
AcDbSpline
 62
7
  6
CONTINUOUS
 70
0
 71
3
 72
15
 73
11
 74
9
 42
0.0000001
 43
0.0000001
 44
0.0000000001
 12
0.0
 22
-0.1617702498
 32
0.0
 13
0.0
 23
0.1617702498
 33
0.0
 40
0.0
 40
0.0
 40
0.0
 40
0.0
 40
0.125
 40
0.25
 40
0.375
 40
0.5
 40
0.625
 40
0.75
 40
0.875
 40
1.0
 40
1.0
 40
1.0
 40
1.0
 10
5.4243347079
 20
3.4499396826
 30
0.0
 10
5.4243347079
 20
3.4431992555
 30
0.0
 10
5.4216531993
 20
3.4297184014
 30
0.0
 10
5.4101987636
 20
3.4125756269
 30
0.0
 10
5.3930559891
 20
3.4011211912
 30
0.0
 10
5.3728347079
 20
3.3970989283
 30
0.0
 10
5.3526134267
 20
3.4011211912
 30
0.0
 10
5.3354706522
 20
3.4125756269
 30
0.0
 10
5.3240162165
 20
3.4297184014
 30
0.0
 10
5.3213347079
 20
3.4431992555
 30
0.0
 10
5.3213347079
 20
3.4499396826
 30
0.0
 11
5.4243347079
 21
3.4499396826
 31
0.0
 11
5.4204145038
 21
3.4302314858
 31
0.0
 11
5.4092507072
 21
3.4135236834
 31
0.0
 11
5.3925429047
 21
3.4023598867
 31
0.0
 11
5.3728347079
 21
3.3984396826
 31
0.0
 11
5.3531265112
 21
3.4023598867
 31
0.0
 11
5.3364187087
 21
3.4135236834
 31
0.0
 11
5.325254912
 21
3.4302314858
 31
0.0
 11
5.3213347079
 21
3.4499396826
 31
0.0
  0
SPLINE
  5
445
100
AcDbEntity
  8
0
100
AcDbSpline
 62
7
  6
CONTINUOUS
 70
0
 71
3
 72
8
 73
4
 74
2
 42
0.0000001
 43
0.0000001
 44
0.0000000001
 12
-0.0011384755
 22
-0.000780962
 32
0.0
 13
-0.0011629767
 23
-0.0007444859
 33
0.0
 40
0.0
 40
0.0
 40
0.0
 40
0.0
 40
1.0
 40
1.0
 40
1.0
 40
1.0
 10
6.7608347079
 20
5.0719292674
 30
0.0
 10
6.7604552161
 20
5.0716689468
 30
0.0
 10
6.7600715488
 20
5.0714146238
 30
0.0
 10
6.7596838899
 20
5.0711664619
 30
0.0
 11
6.7608347079
 21
5.0719292674
 31
0.0
 11
6.7596838899
 21
5.0711664619
 31
0.0
  0
SPLINE
  5
446
100
AcDbEntity
  8
0
100
AcDbSpline
 62
7
  6
CONTINUOUS
 70
0
 71
3
 72
16
 73
12
 74
10
 42
0.0000001
 43
0.0000001
 44
0.0000000001
 12
-0.0397677157
 22
-0.0254575194
 32
0.0
 13
-0.0397677049
 23
0.0254574693
 33
0.0
 40
0.0
 40
0.0
 40
0.0
 40
0.0
 40
0.0832338745
 40
0.2039382949
 40
0.3461159169
 40
0.4991678935
 40
0.6534626818
 40
0.7980562327
 40
0.9170986614
 40
0.9996031753
 40
1.0
 40
1.0
 40
1.0
 40
1.0
 10
6.7596838899
 20
5.0711664619
 30
0.0
 10
6.7585805496
 20
5.0704601525
 30
0.0
 10
6.7557979362
 20
5.0688518484
 30
0.0
 10
6.7507891111
 20
5.0666691446
 30
0.0
 10
6.7444379801
 20
5.0649681726
 30
0.0
 10
6.7373548497
 20
5.064325456
 30
0.0
 10
6.7302322396
 20
5.0649629346
 30
0.0
 10
6.7238510596
 20
5.0666782781
 30
0.0
 10
6.7188452758
 20
5.0688674206
 30
0.0
 10
6.7160898712
 20
5.0704598454
 30
0.0
 10
6.7149907856
 20
5.0711630945
 30
0.0
 10
6.7149855254
 20
5.0711664619
 30
0.0
 11
6.7596838899
 21
5.0711664619
 31
0.0
 11
6.7562811007
 21
5.0692010213
 31
0.0
 11
6.7510556318
 21
5.0669274186
 31
0.0
 11
6.7445706557
 21
5.0651947578
 31
0.0
 11
6.7373741945
 21
5.0645437113
 31
0.0
 11
6.7301185007
 21
5.0651911864
 31
0.0
 11
6.7235249141
 21
5.0669592083
 31
0.0
 11
6.7183743404
 21
5.0692082624
 31
0.0
 11
6.7150013084
 21
5.0711563632
 31
0.0
 11
6.7149855254
 21
5.0711664619
 31
0.0
  0
SPLINE
  5
447
100
AcDbEntity
  8
0
100
AcDbSpline
 62
7
  6
CONTINUOUS
 70
0
 71
3
 72
8
 73
4
 74
2
 42
0.0000001
 43
0.0000001
 44
0.0000000001
 12
-0.0011629762
 22
0.0007444843
 32
0.0
 13
-0.0011384741
 23
0.0007809636
 33
0.0
 40
0.0
 40
0.0
 40
0.0
 40
0.0
 40
1.0
 40
1.0
 40
1.0
 40
1.0
 10
6.7149855254
 20
5.0711664619
 30
0.0
 10
6.7145978666
 20
5.0714146233
 30
0.0
 10
6.7142141993
 20
5.0716689462
 30
0.0
 10
6.7138347079
 20
5.0719292674
 30
0.0
 11
6.7149855254
 21
5.0711664619
 31
0.0
 11
6.7138347079
 21
5.0719292674
 31
0.0
  0
SPLINE
  5
448
100
AcDbEntity
  8
0
100
AcDbSpline
 62
7
  6
CONTINUOUS
 70
0
 71
3
 72
14
 73
10
 74
8
 42
0.0000001
 43
0.0000001
 44
0.0000000001
 12
-0.2174036543
 22
0.0
 32
0.0
 13
0.0001343852
 23
-0.2182356145
 33
0.0
 40
0.0
 40
0.0
 40
0.0
 40
0.0
 40
0.1590179448
 40
0.3170065311
 40
0.4717494795
 40
0.6198007302
 40
0.7577300698
 40
0.8839532554
 40
1.0
 40
1.0
 40
1.0
 40
1.0
 10
7.7743347079
 20
3.9821739263
 30
0.0
 10
7.7628110138
 20
3.9821739263
 30
0.0
 10
7.739777109
 20
3.9799613949
 30
0.0
 10
7.7068037877
 20
3.9701956191
 30
0.0
 10
7.6770143964
 20
3.9546352225
 30
0.0
 10
7.6520137616
 20
3.9344038291
 30
0.0
 10
7.6331145528
 20
3.9109509894
 30
0.0
 10
7.6212344297
 20
3.8857601727
 30
0.0
 10
7.6183295091
 20
3.8681788518
 30
0.0
 10
7.6183347074
 20
3.8597370076
 30
0.0
 11
7.7743347079
 21
3.9821739263
 31
0.0
 11
7.739922858
 21
3.9788596665
 31
0.0
 11
7.7069956598
 21
3.9690853962
 31
0.0
 11
7.6772083579
 21
3.9534495577
 31
0.0
 11
7.6522732694
 21
3.9330967497
 31
0.0
 11
7.633629491
 21
3.9096107909
 31
0.0
 11
7.6221828133
 21
3.8846708028
 31
0.0
 11
7.6183347074
 21
3.8597370076
 31
0.0
  0
SPLINE
  5
449
100
AcDbEntity
  8
0
100
AcDbSpline
 62
7
  6
CONTINUOUS
 70
0
 71
3
 72
14
 73
10
 74
8
 42
0.0000001
 43
0.0000001
 44
0.0000000001
 12
0.2174036537
 22
0.0
 32
0.0
 13
-0.0001343796
 23
0.2182356142
 33
0.0
 40
0.0
 40
0.0
 40
0.0
 40
0.0
 40
0.1590172964
 40
0.3170054324
 40
0.4717480068
 40
0.6197990899
 40
0.7577287074
 40
0.8839525193
 40
1.0
 40
1.0
 40
1.0
 40
1.0
 10
7.7743347079
 20
4.7527054389
 30
0.0
 10
7.785858355
 20
4.7527054389
 30
0.0
 10
7.8088921794
 20
4.7549179534
 30
0.0
 10
7.841865407
 20
4.7646836633
 30
0.0
 10
7.8716547582
 20
4.7802439774
 30
0.0
 10
7.8966554205
 20
4.8004753041
 30
0.0
 10
7.9155547203
 20
4.8239281394
 30
0.0
 10
7.927434951
 20
4.8491190394
 30
0.0
 10
7.9303399066
 20
4.8667004604
 30
0.0
 10
7.9303347084
 20
4.8751423582
 30
0.0
 11
7.7743347079
 21
4.7527054389
 31
0.0
 11
7.8087464187
 21
4.7560196716
 31
0.0
 11
7.8416735335
 21
4.7657938787
 31
0.0
 11
7.8714607891
 21
4.7814296301
 31
0.0
 11
7.8963958939
 21
4.8017823604
 31
0.0
 11
7.9150397678
 21
4.8252683204
 31
0.0
 11
7.9264865554
 21
4.8502084078
 31
0.0
 11
7.9303347084
 21
4.8751423582
 31
0.0
  0
SPLINE
  5
44A
100
AcDbEntity
  8
0
100
AcDbSpline
 62
7
  6
CONTINUOUS
 70
0
 71
3
 72
8
 73
4
 74
2
 42
0.0000001
 43
0.0000001
 44
0.0000000001
 12
-0.0100094076
 22
0.0
 32
0.0
 13
-0.0100080693
 23
-0.000305252
 33
0.0
 40
0.0
 40
0.0
 40
0.0
 40
0.0
 40
1.0
 40
1.0
 40
1.0
 40
1.0
 10
7.7743347079
 20
4.813820543
 30
0.0
 10
7.7709982387
 20
4.813820543
 30
0.0
 10
7.7676610332
 20
4.8137702654
 30
0.0
 10
7.7643250101
 20
4.8136685147
 30
0.0
 11
7.7743347079
 21
4.813820543
 31
0.0
 11
7.7643250101
 21
4.8136685147
 31
0.0
  0
SPLINE
  5
44B
100
AcDbEntity
  8
0
100
AcDbSpline
 62
7
  6
CONTINUOUS
 70
0
 71
3
 72
9
 73
5
 74
3
 42
0.0000001
 43
0.0000001
 44
0.0000000001
 12
-0.0382116523
 22
-0.001165478
 32
0.0
 13
-0.0377644916
 23
-0.0059636275
 33
0.0
 40
0.0
 40
0.0
 40
0.0
 40
0.0
 40
0.5348408144
 40
1.0
 40
1.0
 40
1.0
 40
1.0
 10
7.7643250101
 20
4.8136685147
 30
0.0
 10
7.7575126264
 20
4.813460733
 30
0.0
 10
7.7447846278
 20
4.8126709158
 30
0.0
 10
7.7321309835
 20
4.8110951492
 30
0.0
 10
7.7262754834
 20
4.8101704705
 30
0.0
 11
7.7643250101
 21
4.8136685147
 31
0.0
 11
7.7439189895
 21
4.8123910555
 31
0.0
 11
7.7262754834
 21
4.8101704705
 31
0.0
  0
SPLINE
  5
44C
100
AcDbEntity
  8
0
100
AcDbSpline
 62
7
  6
CONTINUOUS
 70
0
 71
3
 72
9
 73
5
 74
3
 42
0.0000001
 43
0.0000001
 44
0.0000000001
 12
-0.0242724255
 22
-0.0038330108
 32
0.0
 13
-0.0237741433
 23
-0.0062408613
 33
0.0
 40
0.0
 40
0.0
 40
0.0
 40
0.0
 40
0.4784460895
 40
1.0
 40
1.0
 40
1.0
 40
1.0
 10
7.7262754834
 20
4.8101704705
 30
0.0
 10
7.7224044677
 20
4.8095591742
 30
0.0
 10
7.7143414821
 20
4.8081063972
 30
0.0
 10
7.7063547873
 20
4.8062603189
 30
0.0
 10
7.7022216215
 20
4.805175337
 30
0.0
 11
7.7262754834
 21
4.8101704705
 31
0.0
 11
7.7147065236
 21
4.8080789924
 31
0.0
 11
7.7022216215
 21
4.805175337
 31
0.0
  0
SPLINE
  5
44D
100
AcDbEntity
  8
0
100
AcDbSpline
 62
7
  6
CONTINUOUS
 70
0
 71
3
 72
9
 73
5
 74
3
 42
0.0000001
 43
0.0000001
 44
0.0000000001
 12
-0.0382324606
 22
-0.01003626
 32
0.0
 13
-0.034915541
 23
-0.0185971002
 33
0.0
 40
0.0
 40
0.0
 40
0.0
 40
0.0
 40
0.3781311801
 40
1.0
 40
1.0
 40
1.0
 40
1.0
 10
7.7022216215
 20
4.805175337
 30
0.0
 10
7.6974026597
 20
4.8039103294
 30
0.0
 10
7.6847747185
 20
4.8001257712
 30
0.0
 10
7.6725824013
 20
4.7950117491
 30
0.0
 10
7.6653447726
 20
4.7911567635
 30
0.0
 11
7.7022216215
 21
4.805175337
 31
0.0
 11
7.68791491
 21
4.8008581195
 31
0.0
 11
7.6653447726
 21
4.7911567635
 31
0.0
  0
SPLINE
  5
44E
100
AcDbEntity
  8
0
100
AcDbSpline
 62
7
  6
CONTINUOUS
 70
0
 71
3
 72
8
 73
4
 74
2
 42
0.0000001
 43
0.0000001
 44
0.0000000001
 12
0.0140163465
 22
0.0
 32
0.0
 13
0.0140092045
 23
0.0006013802
 33
0.0
 40
0.0
 40
0.0
 40
0.0
 40
0.0
 40
1.0
 40
1.0
 40
1.0
 40
1.0
 10
7.7743347079
 20
3.9210588222
 30
0.0
 10
7.7790068234
 20
3.9210588222
 30
0.0
 10
7.7836803829
 20
3.9211574109
 30
0.0
 10
7.7883501177
 20
3.9213578709
 30
0.0
 11
7.7743347079
 21
3.9210588222
 31
0.0
 11
7.7883501177
 21
3.9213578709
 31
0.0
  0
SPLINE
  5
44F
100
AcDbEntity
  8
0
100
AcDbSpline
 62
7
  6
CONTINUOUS
 70
0
 71
3
 72
9
 73
5
 74
3
 42
0.0000001
 43
0.0000001
 44
0.0000000001
 12
0.038236643
 22
0.0016414037
 32
0.0
 13
0.0377090763
 23
0.0065404079
 33
0.0
 40
0.0
 40
0.0
 40
0.0
 40
0.0
 40
0.4296034812
 40
1.0
 40
1.0
 40
1.0
 40
1.0
 10
7.7883501177
 20
3.9213578709
 30
0.0
 10
7.7938256494
 20
3.9215929218
 30
0.0
 10
7.8065589569
 20
3.9224660828
 30
0.0
 10
7.8192177516
 20
3.9241268196
 30
0.0
 10
7.8263874602
 20
3.9253703616
 30
0.0
 11
7.7883501177
 21
3.9213578709
 31
0.0
 11
7.8047524438
 21
3.9224885021
 31
0.0
 11
7.8263874602
 21
3.9253703616
 31
0.0
  0
SPLINE
  5
450
100
AcDbEntity
  8
0
100
AcDbSpline
 62
7
  6
CONTINUOUS
 70
0
 71
3
 72
9
 73
5
 74
3
 42
0.0000001
 43
0.0000001
 44
0.0000000001
 12
0.0243127692
 22
0.0042169007
 32
0.0
 13
0.0237452873
 23
0.0067330278
 33
0.0
 40
0.0
 40
0.0
 40
0.0
 40
0.0
 40
0.3125717239
 40
1.0
 40
1.0
 40
1.0
 40
1.0
 10
7.8263874602
 20
3.9253703616
 30
0.0
 10
7.8289206216
 20
3.9258097229
 30
0.0
 10
7.8370045806
 20
3.9273336745
 30
0.0
 10
7.8450116035
 20
3.9292542249
 30
0.0
 10
7.8504526642
 20
3.9307970495
 30
0.0
 11
7.8263874602
 21
3.9253703616
 31
0.0
 11
7.8339667389
 21
3.9268011594
 31
0.0
 11
7.8504526642
 21
3.9307970495
 31
0.0
  0
SPLINE
  5
451
100
AcDbEntity
  8
0
100
AcDbSpline
 62
7
  6
CONTINUOUS
 70
0
 71
3
 72
9
 73
5
 74
3
 42
0.0000001
 43
0.0000001
 44
0.0000000001
 12
0.0340334243
 22
0.0096502514
 32
0.0
 13
0.0312482674
 23
0.0166437422
 33
0.0
 40
0.0
 40
0.0
 40
0.0
 40
0.0
 40
0.3053125877
 40
1.0
 40
1.0
 40
1.0
 40
1.0
 10
7.8504526642
 20
3.9307970495
 30
0.0
 10
7.8539162751
 20
3.9317791639
 30
0.0
 10
7.8651768777
 20
3.9352913345
 30
0.0
 10
7.8760885078
 20
3.9398684228
 30
0.0
 10
7.8833244338
 20
3.9437224889
 30
0.0
 11
7.8504526642
 21
3.9307970495
 31
0.0
 11
7.8607597528
 21
3.9340230508
 31
0.0
 11
7.8833244338
 21
3.9437224889
 31
0.0
  0
SPLINE
  5
452
100
AcDbEntity
  8
0
100
AcDbSpline
 62
7
  6
CONTINUOUS
 70
0
 71
3
 72
9
 73
5
 74
3
 42
0.0000001
 43
0.0000001
 44
0.0000000001
 12
0.0349103587
 22
-0.018592906
 32
0.0
 13
0.038226931
 23
-0.0100346738
 33
0.0
 40
0.0
 40
0.0
 40
0.0
 40
0.0
 40
0.6180729559
 40
1.0
 40
1.0
 40
1.0
 40
1.0
 10
7.6653497239
 20
3.943719935
 30
0.0
 10
7.6725421068
 20
3.9398893443
 30
0.0
 10
7.6847297906
 20
3.9347698934
 30
0.0
 10
7.6973547436
 20
3.9309815878
 30
0.0
 10
7.7022213765
 20
3.9297040833
 30
0.0
 11
7.6653497239
 21
3.943719935
 31
0.0
 11
7.6877749053
 21
3.9340694724
 31
0.0
 11
7.7022213765
 21
3.9297040833
 31
0.0
  0
SPLINE
  5
453
100
AcDbEntity
  8
0
100
AcDbSpline
 62
7
  6
CONTINUOUS
 70
0
 71
3
 72
9
 73
5
 74
3
 42
0.0000001
 43
0.0000001
 44
0.0000000001
 12
0.0237741022
 22
-0.0062407668
 32
0.0
 13
0.0242722941
 23
-0.0038329905
 33
0.0
 40
0.0
 40
0.0
 40
0.0
 40
0.0
 40
0.5170776409
 40
1.0
 40
1.0
 40
1.0
 40
1.0
 10
7.7022213765
 20
3.9297040833
 30
0.0
 10
7.706319062
 20
3.9286284297
 30
0.0
 10
7.7143052174
 20
3.92678037
 30
0.0
 10
7.7223678881
 20
3.9253259505
 30
0.0
 10
7.7262750992
 20
3.9247089383
 30
0.0
 11
7.7022213765
 21
3.9297040833
 31
0.0
 11
7.7145984446
 21
3.9268224963
 31
0.0
 11
7.7262750992
 21
3.9247089383
 31
0.0
  0
SPLINE
  5
454
100
AcDbEntity
  8
0
100
AcDbSpline
 62
7
  6
CONTINUOUS
 70
0
 71
3
 72
9
 73
5
 74
3
 42
0.0000001
 43
0.0000001
 44
0.0000000001
 12
0.0377648469
 22
-0.0059636843
 32
0.0
 13
0.038211963
 23
-0.0011654657
 33
0.0
 40
0.0
 40
0.0
 40
0.0
 40
0.0
 40
0.4636322059
 40
1.0
 40
1.0
 40
1.0
 40
1.0
 10
7.7262750992
 20
3.9247089383
 30
0.0
 10
7.7321114323
 20
3.9237872862
 30
0.0
 10
7.7447650073
 20
3.9222101855
 30
0.0
 10
7.7574930931
 20
3.9214192197
 30
0.0
 10
7.7643249819
 20
3.921210847
 30
0.0
 11
7.7262750992
 21
3.9247089383
 31
0.0
 11
7.7438606586
 21
3.9224938803
 31
0.0
 11
7.7643249819
 21
3.921210847
 31
0.0
  0
SPLINE
  5
455
100
AcDbEntity
  8
0
100
AcDbSpline
 62
7
  6
CONTINUOUS
 70
0
 71
3
 72
8
 73
4
 74
2
 42
0.0000001
 43
0.0000001
 44
0.0000000001
 12
0.0100081018
 22
-0.0003052473
 32
0.0
 13
0.0100094312
 23
0.0
 33
0.0
 40
0.0
 40
0.0
 40
0.0
 40
0.0
 40
1.0
 40
1.0
 40
1.0
 40
1.0
 10
7.7643249819
 20
3.921210847
 30
0.0
 10
7.7676610158
 20
3.9211090979
 30
0.0
 10
7.7709982309
 20
3.9210588222
 30
0.0
 10
7.7743347079
 20
3.9210588222
 30
0.0
 11
7.7643249819
 21
3.921210847
 31
0.0
 11
7.7743347079
 21
3.9210588222
 31
0.0
  0
SPLINE
  5
456
100
AcDbEntity
  8
0
100
AcDbSpline
 62
7
  6
CONTINUOUS
 70
0
 71
3
 72
14
 73
10
 74
8
 42
0.0000001
 43
0.0000001
 44
0.0000000001
 12
0.0001343648
 22
0.2182356155
 32
0.0
 13
-0.2174036516
 23
0.0
 33
0.0
 40
0.0
 40
0.0
 40
0.0
 40
0.0
 40
0.1160497555
 40
0.2422756274
 40
0.3802057516
 40
0.5282561394
 40
0.6829990757
 40
0.8409865697
 40
1.0
 40
1.0
 40
1.0
 40
1.0
 10
7.9303347086
 20
3.8597370055
 30
0.0
 10
7.9303399062
 20
3.8681790687
 30
0.0
 10
7.9274348408
 20
3.8857608079
 30
0.0
 10
7.9155542809
 20
3.9109519493
 30
0.0
 10
7.896654722
 20
3.9344047488
 30
0.0
 10
7.8716539281
 20
3.9546359258
 30
0.0
 10
7.8418645542
 20
3.9701960435
 30
0.0
 10
7.8088915677
 20
3.9799614978
 30
0.0
 10
7.7858580747
 20
3.9821739263
 30
0.0
 10
7.7743347079
 20
3.9821739263
 30
0.0
 11
7.9303347086
 21
3.8597370055
 31
0.0
 11
7.9264864095
 21
3.884671435
 31
0.0
 11
7.915039268
 21
3.9096118524
 31
0.0
 11
7.8963951483
 21
3.9330977576
 31
0.0
 11
7.8714600321
 21
3.9534502344
 31
0.0
 11
7.8416726205
 21
3.9690858572
 31
0.0
 11
7.8087455895
 21
3.9788598549
 31
0.0
 11
7.7743347079
 21
3.9821739263
 31
0.0
  0
SPLINE
  5
457
100
AcDbEntity
  8
0
100
AcDbSpline
 62
7
  6
CONTINUOUS
 70
0
 71
3
 72
14
 73
10
 74
8
 42
0.0000001
 43
0.0000001
 44
0.0000000001
 12
-0.0001343585
 22
-0.218235615
 32
0.0
 13
0.2174036509
 23
0.0
 33
0.0
 40
0.0
 40
0.0
 40
0.0
 40
0.0
 40
0.1160505193
 40
0.2422770715
 40
0.3802074643
 40
0.5282576162
 40
0.6830001552
 40
0.8409872163
 40
1.0
 40
1.0
 40
1.0
 40
1.0
 10
7.6183347072
 20
4.8751423604
 30
0.0
 10
7.6183295098
 20
4.8667002416
 30
0.0
 10
7.6212346118
 20
4.8491183961
 30
0.0
 10
7.6331152847
 20
4.823927168
 30
0.0
 10
7.6520149364
 20
4.8004743767
 30
0.0
 10
7.6770157529
 20
4.7802432723
 30
0.0
 10
7.7068050817
 20
4.7646832393
 30
0.0
 10
7.7397779741
 20
4.7549178507
 30
0.0
 10
7.762811388
 20
4.7527054389
 30
0.0
 10
7.7743347079
 20
4.7527054389
 30
0.0
 11
7.6183347072
 21
4.8751423604
 31
0.0
 11
7.6221830553
 21
4.8502077698
 31
0.0
 11
7.6336303143
 21
4.8252672437
 31
0.0
 11
7.6522745312
 21
4.8017813412
 31
0.0
 11
7.6772096533
 21
4.7814289529
 31
0.0
 11
7.706997014
 21
4.7657934192
 31
0.0
 11
7.739923965
 21
4.7560194833
 31
0.0
 11
7.7743347079
 21
4.7527054389
 31
0.0
  0
SPLINE
  5
458
100
AcDbEntity
  8
0
100
AcDbSpline
 62
7
  6
CONTINUOUS
 70
0
 71
3
 72
9
 73
5
 74
3
 42
0.0000001
 43
0.0000001
 44
0.0000000001
 12
-0.031242911
 22
0.0166397116
 32
0.0
 13
-0.0340276378
 23
0.0096486584
 33
0.0
 40
0.0
 40
0.0
 40
0.0
 40
0.0
 40
0.6907806259
 40
1.0
 40
1.0
 40
1.0
 40
1.0
 10
7.883319888
 20
4.7911593245
 30
0.0
 10
7.8761258888
 20
4.794990788
 30
0.0
 10
7.8652184705
 20
4.7995722282
 30
0.0
 10
7.8539608802
 20
4.8030875734
 30
0.0
 10
7.8504535452
 20
4.8040820908
 30
0.0
 11
7.883319888
 21
4.7911593245
 31
0.0
 11
7.860889528
 21
4.8008116113
 31
0.0
 11
7.8504535452
 21
4.8040820908
 31
0.0
  0
SPLINE
  5
459
100
AcDbEntity
  8
0
100
AcDbSpline
 62
7
  6
CONTINUOUS
 70
0
 71
3
 72
9
 73
5
 74
3
 42
0.0000001
 43
0.0000001
 44
0.0000000001
 12
-0.0237456052
 22
0.0067331513
 32
0.0
 13
-0.0243130409
 23
0.0042170094
 33
0.0
 40
0.0
 40
0.0
 40
0.0
 40
0.0
 40
0.6832955603
 40
1.0
 40
1.0
 40
1.0
 40
1.0
 10
7.8504535452
 20
4.8040820908
 30
0.0
 10
7.845045123
 20
4.8056156682
 30
0.0
 10
7.8370385022
 20
4.8075381686
 30
0.0
 10
7.8289547318
 20
4.8090637381
 30
0.0
 10
7.8263880491
 20
4.80950892
 30
0.0
 11
7.8504535452
 21
4.8040820908
 31
0.0
 11
7.8340673255
 21
4.808057616
 31
0.0
 11
7.8263880491
 21
4.80950892
 31
0.0
  0
SPLINE
  5
45A
100
AcDbEntity
  8
0
100
AcDbSpline
 62
7
  6
CONTINUOUS
 70
0
 71
3
 72
9
 73
5
 74
3
 42
0.0000001
 43
0.0000001
 44
0.0000000001
 12
-0.0377095629
 22
0.006540588
 32
0.0
 13
-0.0382371492
 23
0.0016414121
 33
0.0
 40
0.0
 40
0.0
 40
0.0
 40
0.0
 40
0.5689761376
 40
1.0
 40
1.0
 40
1.0
 40
1.0
 10
7.8263880491
 20
4.80950892
 30
0.0
 10
7.819236102
 20
4.8107493995
 30
0.0
 10
7.8065773199
 20
4.8124114132
 30
0.0
 10
7.7938438777
 20
4.8132856692
 30
0.0
 10
7.7883501698
 20
4.8135214985
 30
0.0
 11
7.8263880491
 21
4.80950892
 31
0.0
 11
7.8048068421
 21
4.8123856679
 31
0.0
 11
7.7883501698
 21
4.8135214985
 31
0.0
  0
SPLINE
  5
45B
100
AcDbEntity
  8
0
100
AcDbSpline
 62
7
  6
CONTINUOUS
 70
0
 71
3
 72
8
 73
4
 74
2
 42
0.0000001
 43
0.0000001
 44
0.0000000001
 12
-0.0140092638
 22
0.0006013779
 32
0.0
 13
-0.0140163904
 23
0.0
 33
0.0
 40
0.0
 40
0.0
 40
0.0
 40
0.0
 40
1.0
 40
1.0
 40
1.0
 40
1.0
 10
7.7883501698
 20
4.8135214985
 30
0.0
 10
7.7836804152
 20
4.8137219577
 30
0.0
 10
7.7790068381
 20
4.813820543
 30
0.0
 10
7.7743347079
 20
4.813820543
 30
0.0
 11
7.7883501698
 21
4.8135214985
 31
0.0
 11
7.7743347079
 21
4.813820543
 31
0.0
  0
SPLINE
  5
45C
100
AcDbEntity
  8
0
100
AcDbSpline
 62
7
  6
CONTINUOUS
 70
0
 71
3
 72
23
 73
19
 74
17
 42
0.0000001
 43
0.0000001
 44
0.0000000001
 12
-0.3072991389
 22
-0.0667669891
 32
0.0
 13
-0.3072991396
 23
0.066766989
 33
0.0
 40
0.0
 40
0.0
 40
0.0
 40
0.0
 40
0.0097620183
 40
0.0386465404
 40
0.085276302
 40
0.1476626404
 40
0.2233457633
 40
0.3094785887
 40
0.4029019053
 40
0.5000626715
 40
0.5972408149
 40
0.6906947406
 40
0.7768450601
 40
0.8525086331
 40
0.9148449757
 40
0.961415208
 40
0.9902565467
 40
1.0
 40
1.0
 40
1.0
 40
1.0
 10
7.9303347079
 20
5.0854396826
 30
0.0
 10
7.9293347547
 20
5.0852224224
 30
0.0
 10
7.9253744312
 20
5.0843698419
 30
0.0
 10
7.9166215541
 20
5.0825546779
 30
0.0
 10
7.9024242837
 20
5.0798319157
 30
0.0
 10
7.8833318776
 20
5.0766069924
 30
0.0
 10
7.8600514311
 20
5.0733615263
 30
0.0
 10
7.8334342646
 20
5.0705887154
 30
0.0
 10
7.804479693
 20
5.0687229234
 30
0.0
 10
7.7743131722
 20
5.0680654099
 30
0.0
 10
7.7441434787
 20
5.068724808
 30
0.0
 10
7.7151821814
 20
5.0705930742
 30
0.0
 10
7.6885622549
 20
5.0733683041
 30
0.0
 10
7.6652874647
 20
5.0766148001
 30
0.0
 10
7.6462085988
 20
5.0798386165
 30
0.0
 10
7.632027152
 20
5.0825588827
 30
0.0
 10
7.6232867522
 20
5.0843716031
 30
0.0
 10
7.6193327595
 20
5.0852228356
 30
0.0
 10
7.6183347079
 20
5.0854396826
 30
0.0
 11
7.9303347079
 21
5.0854396826
 31
0.0
 11
7.9273336103
 21
5.0847936148
 31
0.0
 11
7.9184395079
 21
5.0829494263
 31
0.0
 11
7.9040381451
 21
5.0801885736
 31
0.0
 11
7.8846932184
 21
5.0769232982
 31
0.0
 11
7.861120693
 21
5.0736406506
 31
0.0
 11
7.8341799601
 21
5.0708381857
 31
0.0
 11
7.8048618195
 21
5.0689522659
 31
0.0
 11
7.774315
 21
5.0682877406
 31
0.0
 11
7.7437627571
 21
5.0689542186
 31
0.0
 11
7.7144351429
 21
5.0708428088
 31
0.0
 11
7.6874891598
 21
5.0736479728
 31
0.0
 11
7.6639229751
 21
5.0769315788
 31
0.0
 11
7.644593748
 21
5.0801954028
 31
0.0
 11
7.630210872
 21
5.0829532604
 31
0.0
 11
7.6213300959
 21
5.0847948326
 31
0.0
 11
7.6183347079
 21
5.0854396826
 31
0.0
  0
SPLINE
  5
45D
100
AcDbEntity
  8
0
100
AcDbSpline
 62
7
  6
CONTINUOUS
 70
0
 71
3
 72
23
 73
19
 74
17
 42
0.0000001
 43
0.0000001
 44
0.0000000001
 12
0.3072991389
 22
0.0667669891
 32
0.0
 13
0.3072991396
 23
-0.066766989
 33
0.0
 40
0.0
 40
0.0
 40
0.0
 40
0.0
 40
0.0097620183
 40
0.0386465404
 40
0.085276302
 40
0.1476626404
 40
0.2233457633
 40
0.3094785887
 40
0.4029019053
 40
0.5000626715
 40
0.5972408149
 40
0.6906947406
 40
0.7768450601
 40
0.8525086331
 40
0.9148449757
 40
0.961415208
 40
0.9902565467
 40
1.0
 40
1.0
 40
1.0
 40
1.0
 10
7.6183347079
 20
3.6494396826
 30
0.0
 10
7.6193346612
 20
3.6496569428
 30
0.0
 10
7.6232949846
 20
3.6505095233
 30
0.0
 10
7.6320478618
 20
3.6523246873
 30
0.0
 10
7.6462451322
 20
3.6550474494
 30
0.0
 10
7.6653375382
 20
3.6582723728
 30
0.0
 10
7.6886179847
 20
3.6615178389
 30
0.0
 10
7.7152351512
 20
3.6642906498
 30
0.0
 10
7.7441897228
 20
3.6661564418
 30
0.0
 10
7.7743562436
 20
3.6668139553
 30
0.0
 10
7.8045259371
 20
3.6661545572
 30
0.0
 10
7.8334872345
 20
3.664286291
 30
0.0
 10
7.8601071609
 20
3.6615110611
 30
0.0
 10
7.8833819511
 20
3.6582645651
 30
0.0
 10
7.9024608171
 20
3.6550407487
 30
0.0
 10
7.9166422638
 20
3.6523204825
 30
0.0
 10
7.9253826637
 20
3.6505077621
 30
0.0
 10
7.9293366563
 20
3.6496565296
 30
0.0
 10
7.9303347079
 20
3.6494396826
 30
0.0
 11
7.6183347079
 21
3.6494396826
 31
0.0
 11
7.6213358056
 21
3.6500857503
 31
0.0
 11
7.6302299079
 21
3.6519299389
 31
0.0
 11
7.6446312707
 21
3.6546907916
 31
0.0
 11
7.6639761974
 21
3.657956067
 31
0.0
 11
7.6875487228
 21
3.6612387146
 31
0.0
 11
7.7144894557
 21
3.6640411795
 31
0.0
 11
7.7438075963
 21
3.6659270993
 31
0.0
 11
7.7743544158
 21
3.6665916246
 31
0.0
 11
7.8049066587
 21
3.6659251466
 31
0.0
 11
7.834234273
 21
3.6640365564
 31
0.0
 11
7.861180256
 21
3.6612313923
 31
0.0
 11
7.8847464407
 21
3.6579477864
 31
0.0
 11
7.9040756678
 21
3.6546839624
 31
0.0
 11
7.9184585439
 21
3.6519261047
 31
0.0
 11
7.92733932
 21
3.6500845325
 31
0.0
 11
7.9303347079
 21
3.6494396826
 31
0.0
  0
SPLINE
  5
45E
100
AcDbEntity
  8
0
100
AcDbSpline
 62
7
  6
CONTINUOUS
 70
0
 71
3
 72
14
 73
10
 74
8
 42
0.0000001
 43
0.0000001
 44
0.0000000001
 12
0.0001258735
 22
-0.2044130052
 32
0.0
 13
0.2036337397
 23
0.0
 33
0.0
 40
0.0
 40
0.0
 40
0.0
 40
0.0
 40
0.1182318507
 40
0.2384022818
 40
0.367823235
 40
0.5104882804
 40
0.6659643714
 40
0.8306777233
 40
1.0
 40
1.0
 40
1.0
 40
1.0
 10
7.6183347074
 20
3.8597370076
 30
0.0
 10
7.6183396682
 20
3.851680965
 30
0.0
 10
7.6209143607
 20
3.8353992598
 30
0.0
 10
7.6329775514
 20
3.8130322429
 30
0.0
 10
7.6523201959
 20
3.7942456253
 30
0.0
 10
7.6776110138
 20
3.7795633653
 30
0.0
 10
7.7073994982
 20
3.7691272848
 30
0.0
 10
7.7401417575
 20
3.7629205309
 30
0.0
 10
7.7628414651
 20
3.7615566105
 30
0.0
 10
7.7743347079
 20
3.7615566105
 30
0.0
 11
7.6183347074
 21
3.8597370076
 31
0.0
 11
7.6221831872
 21
3.8359705953
 31
0.0
 11
7.6336297031
 21
3.8143420241
 31
0.0
 11
7.6522728696
 21
3.7957143412
 31
0.0
 11
7.6772086923
 21
3.7808083169
 31
0.0
 11
7.7069959614
 21
3.7700805276
 31
0.0
 11
7.73992025
 21
3.7636771658
 31
0.0
 11
7.7743347079
 21
3.7615566105
 31
0.0
  0
SPLINE
  5
45F
100
AcDbEntity
  8
0
100
AcDbSpline
 62
7
  6
CONTINUOUS
 70
0
 71
3
 72
14
 73
10
 74
8
 42
0.0000001
 43
0.0000001
 44
0.0000000001
 12
-0.2036337383
 22
0.0
 32
0.0
 13
-0.0001258485
 23
-0.2044130074
 33
0.0
 40
0.0
 40
0.0
 40
0.0
 40
0.0
 40
0.1693213301
 40
0.3340342611
 40
0.4895101802
 40
0.6321751537
 40
0.7615960739
 40
0.8817667424
 40
1.0
 40
1.0
 40
1.0
 40
1.0
 10
7.7743347079
 20
4.9733227547
 30
0.0
 10
7.7628415295
 20
4.9733227547
 30
0.0
 10
7.7401419153
 20
4.9719588474
 30
0.0
 10
7.7073997541
 20
4.9657521439
 30
0.0
 10
7.6776112977
 20
4.9553161247
 30
0.0
 10
7.6523204637
 20
4.9406339346
 30
0.0
 10
7.6329777499
 20
4.9218473802
 30
0.0
 10
7.6209144127
 20
4.8994803153
 30
0.0
 10
7.6183396671
 20
4.883198499
 30
0.0
 10
7.6183347072
 20
4.8751423604
 30
0.0
 11
7.7743347079
 21
4.9733227547
 31
0.0
 11
7.7399204419
 21
4.9712022234
 31
0.0
 11
7.7069962313
 21
4.9647989107
 31
0.0
 11
7.6772089781
 21
4.9540711813
 31
0.0
 11
7.6522731319
 21
4.9391652252
 31
0.0
 11
7.6336299056
 21
4.9205376119
 31
0.0
 11
7.6221832795
 21
4.8989090446
 31
0.0
 11
7.6183347072
 21
4.8751423604
 31
0.0
  0
SPLINE
  5
460
100
AcDbEntity
  8
0
100
AcDbSpline
 62
7
  6
CONTINUOUS
 70
0
 71
3
 72
14
 73
10
 74
8
 42
0.0000001
 43
0.0000001
 44
0.0000000001
 12
-0.0001258682
 22
0.2044130054
 32
0.0
 13
-0.2036337396
 23
0.0
 33
0.0
 40
0.0
 40
0.0
 40
0.0
 40
0.0
 40
0.1182321023
 40
0.2384025305
 40
0.3678234447
 40
0.5104884554
 40
0.6659645022
 40
0.8306777891
 40
1.0
 40
1.0
 40
1.0
 40
1.0
 10
7.9303347084
 20
4.8751423582
 30
0.0
 10
7.9303297479
 20
4.883198418
 30
0.0
 10
7.9277550463
 20
4.8994801398
 30
0.0
 10
7.9156918336
 20
4.921847161
 30
0.0
 10
7.8963491843
 20
4.9406337652
 30
0.0
 10
7.8710583696
 20
4.9553160138
 30
0.0
 10
7.8412698929
 20
4.9657520863
 30
0.0
 10
7.808527645
 20
4.9719588354
 30
0.0
 10
7.7858279463
 20
4.9733227547
 30
0.0
 10
7.7743347079
 20
4.9733227547
 30
0.0
 11
7.9303347084
 21
4.8751423582
 31
0.0
 11
7.9264862122
 21
4.898908819
 31
0.0
 11
7.9150396821
 21
4.920537382
 31
0.0
 11
7.8963965121
 21
4.9391650502
 31
0.0
 11
7.871460691
 21
4.9540710634
 31
0.0
 11
7.8416734286
 21
4.9647988446
 31
0.0
 11
7.8087491526
 21
4.971202201
 31
0.0
 11
7.7743347079
 21
4.9733227547
 31
0.0
  0
SPLINE
  5
461
100
AcDbEntity
  8
0
100
AcDbSpline
 62
7
  6
CONTINUOUS
 70
0
 71
3
 72
14
 73
10
 74
8
 42
0.0000001
 43
0.0000001
 44
0.0000000001
 12
0.2036337385
 22
0.0
 32
0.0
 13
0.0001258544
 23
0.2044130075
 33
0.0
 40
0.0
 40
0.0
 40
0.0
 40
0.0
 40
0.1693214155
 40
0.334034424
 40
0.4895103977
 40
0.6321754131
 40
0.7615963788
 40
0.8817670517
 40
1.0
 40
1.0
 40
1.0
 40
1.0
 10
7.7743347079
 20
3.7615566105
 30
0.0
 10
7.7858278922
 20
3.7615566105
 30
0.0
 10
7.8085275175
 20
3.7629205192
 30
0.0
 10
7.8412696928
 20
3.7691272287
 30
0.0
 10
7.8710581585
 20
3.7795632578
 30
0.0
 10
7.8963489961
 20
3.7942454619
 30
0.0
 10
7.9156917039
 20
3.8130320327
 30
0.0
 10
7.927755014
 20
3.8353990922
 30
0.0
 10
7.9303297485
 20
3.8516808879
 30
0.0
 10
7.9303347086
 20
3.8597370055
 30
0.0
 11
7.7743347079
 21
3.7615566105
 31
0.0
 11
7.8087489913
 21
3.763677144
 31
0.0
 11
7.8416732167
 21
3.7700804633
 31
0.0
 11
7.8714604781
 21
3.7808082027
 31
0.0
 11
7.8963963261
 21
3.7957141723
 31
0.0
 11
7.9150395478
 21
3.8143418035
 31
0.0
 11
7.9264861566
 21
3.835970381
 31
0.0
 11
7.9303347086
 21
3.8597370055
 31
0.0
  0
SPLINE
  5
462
100
AcDbEntity
  8
129-200_FEATURES
100
AcDbSpline
 62
7
  6
CONTINUOUS
 70
0
 71
3
 72
15
 73
11
 74
9
 42
0.0000001
 43
0.0000001
 44
0.0000000001
 12
-0.0539034259
 22
-0.0272416812
 32
0.0
 13
0.0
 23
0.0599623474
 33
0.0
 40
0.0
 40
0.0
 40
0.0
 40
0.0
 40
0.0148550029
 40
0.1181107253
 40
0.2355397699
 40
0.373327214
 40
0.5272001316
 40
0.6895237492
 40
0.8506120279
 40
1.0
 40
1.0
 40
1.0
 40
1.0
 10
6.0841108589
 20
4.7725918458
 30
0.0
 10
6.0838439471
 20
4.7724569541
 30
0.0
 10
6.0816826029
 20
4.7714659052
 30
0.0
 10
6.0768168842
 20
4.7708736428
 30
0.0
 10
6.0698453415
 20
4.7731142261
 30
0.0
 10
6.0631095601
 20
4.7779163544
 30
0.0
 10
6.0571149803
 20
4.784820262
 30
0.0
 10
6.0523758095
 20
4.7931675259
 30
0.0
 10
6.0493029659
 20
4.8021589036
 30
0.0
 10
6.0484940875
 20
4.8083741083
 30
0.0
 10
6.0484940875
 20
4.8113599928
 30
0.0
 11
6.0841108589
 21
4.7725918458
 31
0.0
 11
6.0832958682
 21
4.772218641
 31
0.0
 11
6.0771681213
 21
4.7713327301
 31
0.0
 11
6.0704024243
 21
4.7732835117
 31
0.0
 11
6.0635866789
 21
4.7779533325
 31
0.0
 11
6.0574717954
 21
4.7848626018
 31
0.0
 11
6.0526430072
 21
4.7933136393
 31
0.0
 11
6.0495523782
 21
4.8024650742
 31
0.0
 11
6.0484940875
 21
4.8113599928
 31
0.0
  0
SPLINE
  5
463
100
AcDbEntity
  8
129-200_FEATURES
100
AcDbSpline
 62
7
  6
CONTINUOUS
 70
0
 71
3
 72
8
 73
4
 74
2
 42
0.0000001
 43
0.0000001
 44
0.0000000001
 12
0.0012994639
 22
0.0013652543
 32
0.0
 13
0.001301414
 23
0.0013633965
 33
0.0
 40
0.0
 40
0.0
 40
0.0
 40
0.0
 40
1.0
 40
1.0
 40
1.0
 40
1.0
 10
6.0484940875
 20
3.4795990622
 30
0.0
 10
6.0489272421
 20
3.4800541469
 30
0.0
 10
6.0493607212
 20
3.480508923
 30
0.0
 10
6.0497945259
 20
3.4809633886
 30
0.0
 11
6.0484940875
 21
3.4795990622
 31
0.0
 11
6.0497945259
 21
3.4809633886
 31
0.0
  0
SPLINE
  5
464
100
AcDbEntity
  8
129-200_FEATURES
100
AcDbSpline
 62
7
  6
CONTINUOUS
 70
0
 71
3
 72
15
 73
11
 74
9
 42
0.0000001
 43
0.0000001
 44
0.0000000001
 12
0.0402361739
 22
0.0421525065
 32
0.0
 13
0.0421964076
 23
0.040190136
 33
0.0
 40
0.0
 40
0.0
 40
0.0
 40
0.0
 40
0.0934188001
 40
0.2369085186
 40
0.4120796093
 40
0.597574316
 40
0.7695137715
 40
0.9080782108
 40
0.9994434814
 40
1.0
 40
1.0
 40
1.0
 40
1.0
 10
6.0497945259
 20
3.4809633886
 30
0.0
 10
6.0510474643
 20
3.4822760008
 30
0.0
 10
6.0542317818
 20
3.4855981928
 30
0.0
 10
6.0598012584
 20
3.4913473272
 30
0.0
 10
6.0666663653
 20
3.4983311751
 30
0.0
 10
6.0739811101
 20
3.5056474559
 30
0.0
 10
6.080851557
 20
3.5124019148
 30
0.0
 10
6.0864599583
 20
3.5178316285
 30
0.0
 10
6.0896945413
 20
3.5209270687
 30
0.0
 10
6.0909874468
 20
3.5221585369
 30
0.0
 10
6.0909952745
 20
3.5221659924
 30
0.0
 11
6.0497945259
 21
3.4809633886
 31
0.0
 11
6.0535615132
 21
3.4848934062
 31
0.0
 11
6.0593796262
 21
3.4908989309
 31
0.0
 11
6.0665357299
 21
3.4981783155
 31
0.0
 11
6.0741786214
 21
3.5058222175
 31
0.0
 11
6.0813237652
 21
3.5128462486
 31
0.0
 11
6.0871251689
 21
3.518462571
 31
0.0
 11
6.0909717918
 21
3.5221436256
 31
0.0
 11
6.0909952745
 21
3.5221659924
 31
0.0
  0
SPLINE
  5
465
100
AcDbEntity
  8
129-200_FEATURES
100
AcDbSpline
 62
7
  6
CONTINUOUS
 70
0
 71
3
 72
8
 73
4
 74
2
 42
0.0000001
 43
0.0000001
 44
0.0000000001
 12
0.0013384065
 22
0.0012747706
 32
0.0
 13
0.0013404823
 23
0.0012725865
 33
0.0
 40
0.0
 40
0.0
 40
0.0
 40
0.0
 40
1.0
 40
1.0
 40
1.0
 40
1.0
 10
6.0909952745
 20
3.5221659924
 30
0.0
 10
6.09144141
 20
3.522590916
 30
0.0
 10
6.0918878908
 20
3.5230154768
 30
0.0
 10
6.0923347182
 20
3.5234396723
 30
0.0
 11
6.0909952745
 21
3.5221659924
 31
0.0
 11
6.0923347182
 21
3.5234396723
 31
0.0
  0
SPLINE
  5
466
100
AcDbEntity
  8
129-200_FEATURES
100
AcDbSpline
 62
7
  6
CONTINUOUS
 70
0
 71
3
 72
10
 73
6
 74
4
 42
0.0000001
 43
0.0000001
 44
0.0000000001
 12
0.0
 22
0.0192727427
 32
0.0
 13
0.0174993937
 23
0.0087680366
 33
0.0
 40
0.0
 40
0.0
 40
0.0
 40
0.0
 40
0.4477602263
 40
0.8237134245
 40
1.0
 40
1.0
 40
1.0
 40
1.0
 10
6.0484940875
 20
4.8113599928
 30
0.0
 10
6.0484940875
 20
4.8142365154
 30
0.0
 10
6.0491396082
 20
4.8195778115
 30
0.0
 10
6.0523774954
 20
4.825436792
 30
0.0
 10
6.0553721016
 20
4.8275071959
 30
0.0
 10
6.0564004044
 20
4.8280224249
 30
0.0
 11
6.0484940875
 21
4.8113599928
 31
0.0
 11
6.0497932296
 21
4.81989121
 31
0.0
 11
6.0535831653
 21
4.8260666307
 31
0.0
 11
6.0564004044
 21
4.8280224249
 31
0.0
  0
SPLINE
  5
467
100
AcDbEntity
  8
0
100
AcDbSpline
 62
7
  6
CONTINUOUS
 70
0
 71
3
 72
15
 73
11
 74
9
 42
0.0000001
 43
0.0000001
 44
0.0000000001
 12
-0.2213747391
 22
0.4040882383
 32
0.0
 13
0.2213747391
 23
0.4040882383
 33
0.0
 40
0.0
 40
0.0
 40
0.0
 40
0.0
 40
0.1363385306
 40
0.2625242499
 40
0.3826814249
 40
0.5000474403
 40
0.6174094987
 40
0.7375563123
 40
0.8636900968
 40
1.0
 40
1.0
 40
1.0
 40
1.0
 10
4.1543073391
 20
3.444835024
 30
0.0
 10
4.1442467036
 20
3.4631992896
 30
0.0
 10
4.1262995001
 20
3.4993830653
 30
0.0
 10
4.1058780523
 20
3.5546337831
 30
0.0
 10
4.0933538729
 20
3.6092568257
 30
0.0
 10
4.0891076876
 20
3.6638110732
 30
0.0
 10
4.0933603922
 20
3.7183631708
 30
0.0
 10
4.1058876615
 20
3.7729749545
 30
0.0
 10
4.1263068284
 20
3.8282114306
 30
0.0
 10
4.1442488161
 20
3.8643839316
 30
0.0
 10
4.1543073391
 20
3.8827443411
 30
0.0
 11
4.1543073391
 21
3.444835024
 31
0.0
 11
4.1266674901
 21
3.5012460378
 31
0.0
 11
4.1067798864
 21
3.5558794249
 31
0.0
 11
4.0946235698
 21
3.6098912024
 31
0.0
 11
4.0905130414
 21
3.6638115893
 31
0.0
 11
4.0946298753
 21
3.7177296667
 31
0.0
 11
4.1067904562
 21
3.7717355908
 31
0.0
 11
4.1266726965
 21
3.8263454648
 31
0.0
 11
4.1543073391
 21
3.8827443411
 31
0.0
  0
SPLINE
  5
468
100
AcDbEntity
  8
0
100
AcDbSpline
 62
7
  6
CONTINUOUS
 70
0
 71
3
 72
15
 73
11
 74
9
 42
0.0000001
 43
0.0000001
 44
0.0000000001
 12
-0.2344928018
 22
0.8560668082
 32
0.0
 13
0.2344928018
 23
0.8560668082
 33
0.0
 40
0.0
 40
0.0
 40
0.0
 40
0.0
 40
0.130867655
 40
0.2559934432
 40
0.3784643323
 40
0.5000493322
 40
0.6216294027
 40
0.7440877225
 40
0.8691603039
 40
1.0
 40
1.0
 40
1.0
 40
1.0
 10
4.1543073391
 20
3.9295303655
 30
0.0
 10
4.1440781648
 20
3.9668741841
 30
0.0
 10
4.1259055316
 20
4.0404492848
 30
0.0
 10
4.1056551331
 20
4.1506540684
 30
0.0
 10
4.0932975101
 20
4.2592769272
 30
0.0
 10
4.0891242392
 20
4.3674820821
 30
0.0
 10
4.0933039321
 20
4.4756832475
 30
0.0
 10
4.1056647471
 20
4.5842846392
 30
0.0
 10
4.1259130894
 20
4.6944614997
 30
0.0
 10
4.1440803502
 20
4.7680131594
 30
0.0
 10
4.1543073391
 20
4.8053489997
 30
0.0
 11
4.1543073391
 21
3.9295303655
 31
0.0
 11
4.1266674901
 21
4.042352393
 31
0.0
 11
4.1067798864
 21
4.1516191672
 31
0.0
 11
4.0946235698
 21
4.2596427222
 31
0.0
 11
4.0905130414
 21
4.3674834961
 31
0.0
 11
4.0946298753
 21
4.4753196509
 31
0.0
 11
4.1067904562
 21
4.5833314989
 31
0.0
 11
4.1266726965
 21
4.692551247
 31
0.0
 11
4.1543073391
 21
4.8053489997
 31
0.0
  0
SPLINE
  5
469
100
AcDbEntity
  8
0
100
AcDbSpline
 62
7
  6
CONTINUOUS
 70
0
 71
3
 72
15
 73
11
 74
9
 42
0.0000001
 43
0.0000001
 44
0.0000000001
 12
-0.2213747391
 22
0.4040882383
 32
0.0
 13
0.2213747391
 23
0.4040882383
 33
0.0
 40
0.0
 40
0.0
 40
0.0
 40
0.0
 40
0.1363385306
 40
0.2625242499
 40
0.3826814249
 40
0.5000474403
 40
0.6174094987
 40
0.7375563123
 40
0.8636900968
 40
1.0
 40
1.0
 40
1.0
 40
1.0
 10
4.1543073391
 20
4.852135024
 30
0.0
 10
4.1442467036
 20
4.8704992896
 30
0.0
 10
4.1262995001
 20
4.9066830653
 30
0.0
 10
4.1058780523
 20
4.9619337831
 30
0.0
 10
4.0933538729
 20
5.0165568257
 30
0.0
 10
4.0891076876
 20
5.0711110732
 30
0.0
 10
4.0933603922
 20
5.1256631708
 30
0.0
 10
4.1058876615
 20
5.1802749545
 30
0.0
 10
4.1263068284
 20
5.2355114306
 30
0.0
 10
4.1442488161
 20
5.2716839316
 30
0.0
 10
4.1543073391
 20
5.2900443411
 30
0.0
 11
4.1543073391
 21
4.852135024
 31
0.0
 11
4.1266674901
 21
4.9085460378
 31
0.0
 11
4.1067798864
 21
4.9631794249
 31
0.0
 11
4.0946235698
 21
5.0171912024
 31
0.0
 11
4.0905130414
 21
5.0711115893
 31
0.0
 11
4.0946298753
 21
5.1250296667
 31
0.0
 11
4.1067904562
 21
5.1790355908
 31
0.0
 11
4.1266726965
 21
5.2336454648
 31
0.0
 11
4.1543073391
 21
5.2900443411
 31
0.0
  0
SPLINE
  5
46A
100
AcDbEntity
  8
129-200_FEATURES
100
AcDbSpline
 62
7
  6
CONTINUOUS
 70
0
 71
3
 72
14
 73
10
 74
8
 42
0.0000001
 43
0.0000001
 44
0.0000000001
 12
0.0542291307
 22
0.0271713987
 32
0.0
 13
0.0000001419
 23
-0.0597245883
 33
0.0
 40
0.0
 40
0.0
 40
0.0
 40
0.0
 40
0.0525570736
 40
0.1728384047
 40
0.3166434413
 40
0.4810794583
 40
0.6568170451
 40
0.8336279129
 40
1.0
 40
1.0
 40
1.0
 40
1.0
 10
6.0564004044
 20
4.8280224249
 30
0.0
 10
6.0573504458
 20
4.8284984413
 30
0.0
 10
6.0606778607
 20
4.8296549077
 30
0.0
 10
6.0672071347
 20
4.8288885575
 30
0.0
 10
6.0747860769
 20
4.8247026054
 30
0.0
 10
6.0817629649
 20
4.8179252645
 30
0.0
 10
6.0874642377
 20
4.8092659112
 30
0.0
 10
6.0912941957
 20
4.7995967798
 30
0.0
 10
6.0923347107
 20
4.7927518561
 30
0.0
 10
6.0923347186
 20
4.7894396879
 30
0.0
 11
6.0564004044
 21
4.8280224249
 31
0.0
 11
6.0593959345
 21
4.8290561498
 31
0.0
 11
6.0665613317
 21
4.8285429346
 31
0.0
 11
6.0742017731
 21
4.8246200064
 31
0.0
 11
6.0813307641
 21
4.8178652273
 31
0.0
 11
6.0871328923
 21
4.8091188977
 31
0.0
 11
6.0909751004
 21
4.7992827341
 31
0.0
 11
6.0923347186
 21
4.7894396879
 31
0.0
  0
SPLINE
  5
46B
100
AcDbEntity
  8
129-200_FEATURES
100
AcDbSpline
 62
7
  6
CONTINUOUS
 70
0
 71
3
 72
10
 73
6
 74
4
 42
0.0000001
 43
0.0000001
 44
0.0000000001
 12
0.0000000006
 22
-0.0196141223
 32
0.0
 13
-0.0176322047
 23
-0.0089109531
 33
0.0
 40
0.0
 40
0.0
 40
0.0
 40
0.0
 40
0.3986283031
 40
0.7398998037
 40
1.0
 40
1.0
 40
1.0
 40
1.0
 10
6.0923347078
 20
4.7894396825
 30
0.0
 10
6.0923347079
 20
4.7868334344
 30
0.0
 10
6.0917558836
 20
4.7819531321
 30
0.0
 10
6.0888005926
 20
4.7759277626
 30
0.0
 10
6.0856395722
 20
4.773364426
 30
0.0
 10
6.0841108589
 20
4.7725918458
 30
0.0
 11
6.0923347078
 21
4.7894396825
 31
0.0
 11
6.0912443313
 21
4.7816973417
 31
0.0
 11
6.088115067
 21
4.7757800896
 31
0.0
 11
6.0841108589
 21
4.7725918458
 31
0.0
  0
ENDSEC
  0
SECTION
  2
OBJECTS
  0
DICTIONARY
  5
C
100
AcDbDictionary
280
0
281
1
  3
ACAD_GROUP
350
D
  3
ACAD_MLINESTYLE
350
17
  3
ACAD_LAYOUT
350
1A
  3
ACAD_PLOTSETTINGS
350
19
  3
ACAD_PLOTSTYLENAME
350
E
  0
DICTIONARY
  5
D
102
{ACAD_REACTORS
330
C
102
}
100
AcDbDictionary
280
0
281
1
  0
ACDBDICTIONARYWDFLT
  5
E
102
{ACAD_REACTORS
330
C
102
}
100
AcDbDictionary
281
1
  3
Normal
350
F
100
AcDbDictionaryWithDefault
340
F
  0
DICTIONARY
  5
17
102
{ACAD_REACTORS
330
C
102
}
100
AcDbDictionary
280
0
281
1
  3
Standard
350
18
  0
DICTIONARY
  5
19
102
{ACAD_REACTORS
330
C
102
}
100
AcDbDictionary
281
1
  0
DICTIONARY
  5
1A
102
{ACAD_REACTORS
330
C
102
}
100
AcDbDictionary
281
1
  3
Layout1
350
1E
  3
Model
350
22
  0
ACDBPLACEHOLDER
  5
F
102
{ACAD_REACTORS
330
E
102
}
  0
MLINESTYLE
  5
18
102
{ACAD_REACTORS
330
17
102
}
100
AcDbMlineStyle
  2
STANDARD
 70
0
  3

 62
256
 51
90.0
 52
90.0
 71
2
 49
0.5
 62
256
  6
BYLAYER
 49
-0.5
 62
256
  6
BYLAYER
  0
LAYOUT
  5
1E
102
{ACAD_REACTORS
330
1A
102
}
100
AcDbPlotSettings
  1

  2

  4

  6

 40
0.0
 41
0.0
 42
0.0
 43
0.0
 44
0.0
 45
0.0
 46
0.0
 47
0.0
 48
0.0
 49
0.0
140
0.0
141
0.0
142
1.0
143
1.0
 70
0
 72
0
 73
0
 74
0
  7

 75
0
147
1.0
148
0.0
149
0.0
100
AcDbLayout
  1
Layout1
 70
0
 71
0
 10
0.0
 20
0.0
 11
0.0
 21
0.0
 12
0.0
 22
0.0
 32
0.0
 14
0.0
 24
0.0
 34
0.0
 15
0.0
 25
0.0
 35
0.0
146
0.0
 13
0.0
 23
0.0
 33
0.0
 16
0.0
 26
0.0
 36
0.0
 17
0.0
 27
0.0
 37
0.0
 76
0
330
1B
331
0
345
0
346
0
  0
LAYOUT
  5
22
102
{ACAD_REACTORS
330
1A
102
}
100
AcDbPlotSettings
  1

  2

  4

  6

 40
0.0
 41
0.0
 42
0.0
 43
0.0
 44
0.0
 45
0.0
 46
0.0
 47
0.0
 48
0.0
 49
0.0
140
0.0
141
0.0
142
1.0
143
1.0
 70
0
 72
0
 73
0
 74
0
  7

 75
0
147
1.0
148
0.0
149
0.0
100
AcDbLayout
  1
Model
 70
0
 71
0
 10
0.0
 20
0.0
 11
0.0
 21
0.0
 12
0.0
 22
0.0
 32
0.0
 14
0.0
 24
0.0
 34
0.0
 15
0.0
 25
0.0
 35
0.0
146
0.0
 13
0.0
 23
0.0
 33
0.0
 16
0.0
 26
0.0
 36
0.0
 17
0.0
 27
0.0
 37
0.0
 76
0
330
1F
331
0
345
0
346
0
  0
ENDSEC
  0
EOF
