999
DXF file: RPIC-LNN.dxf
999
Pro/ENGINEER 2006240 by Parametric Technology Corporation
  0
SECTION
  2
HEADER
  9
$ACADVER
  1
AC1015
  9
$DWGCODEPAGE
  3
ANSI_1252
  9
$EXTMAX
 10
11.6929133858
 20
8.2677165354
 30
0.0
  9
$EXTMIN
 10
0.0
 20
0.0
 30
0.0
  9
$LIMMIN
 10
0.0
 20
0.0
  9
$LIMMAX
 10
11.6929133858
 20
8.2677165354
  9
$VIEWCTR
 10
5.8464566929
 20
4.1338582677
  9
$VIEWSIZE
 40
8.2677165354
  9
$CLAYER
  8
0
  9
$LTSCALE
 40
0.6431102362
  9
$CELTYPE
  6
BYLAYER
  9
$DIMSCALE
 40
1.0
  9
$DIMASZ
 40
0.1875
  9
$DIMEXO
 40
0.0730807087
  9
$DIMDLI
 40
0.4443307087
  9
$DIMEXE
 40
0.2104724409
  9
$DIMCEN
 40
0.1052362205
  9
$DIMLFAC
 40
1.0
  9
$DIMBLK
  1
_CLOSED
  9
$DIMTXT
 40
0.15625
  9
$DIMTOL
 70
0
  9
$DIMLIM
 70
0
  9
$DIMTFAC
 40
1.0
  9
$PDMODE
 70
3
  9
$PDSIZE
 40
0.3125
  9
$HANDSEED
  5
471
  9
$MEASUREMENT
 70
0
  9
$INSUNITS
 70
1
  0
ENDSEC
  0
SECTION
  2
CLASSES
  0
CLASS
  1
ACDBDICTIONARYWDFLT
  2
AcDbDictionaryWithDefault
  3
AutoCAD 2000
 90
0
280
0
281
0
  0
CLASS
  1
ACDBPLACEHOLDER
  2
AcDbPlaceHolder
  3
AutoCAD 2000
 90
0
280
0
281
0
  0
CLASS
  1
LAYOUT
  2
AcDbLayout
  3
AutoCAD 2000
 90
0
280
0
281
0
  0
ENDSEC
  0
SECTION
  2
TABLES
  0
TABLE
  2
VPORT
  5
8
100
AcDbSymbolTable
 70
2
  0
VPORT
  5
1F4
100
AcDbSymbolTableRecord
100
AcDbViewportTableRecord
  2
*ACTIVE
 70
0
 10
0.0
 20
0.0
 11
1.0
 21
1.0
 12
5.8464566929
 22
4.1338582677
 13
0.0
 23
0.0
 14
1.0
 24
1.0
 15
0.0
 25
0.0
 16
0.0
 26
0.0
 36
1.0
 17
0.0
 27
0.0
 37
0.0
 40
8.2677165354
 41
1.4142857143
 42
50.0
 43
0.0
 44
0.0
 50
0.0
 51
0.0
 71
0
 72
100
 73
1
 74
1
 75
0
 76
0
 77
0
 78
0
  0
ENDTAB
  0
TABLE
  2
LTYPE
  5
5
100
AcDbSymbolTable
 70
6
  0
LTYPE
  5
14
100
AcDbSymbolTableRecord
100
AcDbLinetypeTableRecord
  2
BYBLOCK
 70
0
  3

 72
65
 73
0
 40
0.0
  0
LTYPE
  5
15
100
AcDbSymbolTableRecord
100
AcDbLinetypeTableRecord
  2
BYLAYER
 70
0
  3

 72
65
 73
0
 40
0.0
  0
LTYPE
  5
16
100
AcDbSymbolTableRecord
100
AcDbLinetypeTableRecord
  2
CONTINUOUS
 70
64
  3
Solid line
 72
65
 73
0
 40
0.0
  0
LTYPE
  5
1F5
100
AcDbSymbolTableRecord
100
AcDbLinetypeTableRecord
  2
CENTER
 70
64
  3
____ _ ____ _ ____ _ ____ _ ____ _ ____ _ ____
 72
65
 73
4
 40
0.6
 49
0.375
 74
0
 49
-0.075
 74
0
 49
0.075
 74
0
 49
-0.075
 74
0
  0
LTYPE
  5
1F6
100
AcDbSymbolTableRecord
100
AcDbLinetypeTableRecord
  2
HIDDEN
 70
64
  3
- - - - - - - - - - - - - - - - - - - -
 72
65
 73
2
 40
0.2
 49
0.1
 74
0
 49
-0.1
 74
0
  0
LTYPE
  5
1F7
100
AcDbSymbolTableRecord
100
AcDbLinetypeTableRecord
  2
PHANTOM
 70
64
  3
_____ _ _ _____ _ _ _____ _ _ _____
 72
65
 73
6
 40
0.8
 49
0.45
 74
0
 49
-0.05
 74
0
 49
0.1
 74
0
 49
-0.05
 74
0
 49
0.1
 74
0
 49
-0.05
 74
0
  0
LTYPE
  5
1F8
100
AcDbSymbolTableRecord
100
AcDbLinetypeTableRecord
  2
DOT
 70
64
  3
. . . . . . . . . . . . . . . . . . . .
 72
65
 73
2
 40
0.2
 49
0.1
 74
0
 49
-0.1
 74
0
  0
LTYPE
  5
1F9
100
AcDbSymbolTableRecord
100
AcDbLinetypeTableRecord
  2
DASHED
 70
64
  3
- - - - - - - - - - - - - - - - - - - -
 72
65
 73
2
 40
0.2
 49
0.1
 74
0
 49
-0.1
 74
0
  0
ENDTAB
  0
TABLE
  2
LAYER
  5
2
100
AcDbSymbolTable
 70
36
  0
LAYER
  5
10
100
AcDbSymbolTableRecord
100
AcDbLayerTableRecord
  2
0
 70
0
 62
7
  6
CONTINUOUS
370
-3
390
F
  0
LAYER
  5
1FA
100
AcDbSymbolTableRecord
100
AcDbLayerTableRecord
  2
DEFAULT_1
 70
0
 62
7
  6
CENTER
370
-3
390
F
  0
LAYER
  5
1FB
100
AcDbSymbolTableRecord
100
AcDbLayerTableRecord
  2
DEFAULT_2
 70
0
 62
8
  6
HIDDEN
370
-3
390
F
  0
LAYER
  5
1FC
100
AcDbSymbolTableRecord
100
AcDbLayerTableRecord
  2
DEFAULT_3
 70
0
 62
7
  6
PHANTOM
370
-3
390
F
  0
LAYER
  5
1FD
100
AcDbSymbolTableRecord
100
AcDbLayerTableRecord
  2
_BLACK_HOLE
 70
0
 62
7
  6
CONTINUOUS
370
-3
390
F
  0
LAYER
  5
1FE
100
AcDbSymbolTableRecord
100
AcDbLayerTableRecord
  2
01_ALL_DTM_PLN
 70
0
 62
7
  6
CONTINUOUS
370
-3
390
F
  0
LAYER
  5
1FF
100
AcDbSymbolTableRecord
100
AcDbLayerTableRecord
  2
01__ASM_ALL_DTM_PLN
 70
0
 62
7
  6
CONTINUOUS
370
-3
390
F
  0
LAYER
  5
200
100
AcDbSymbolTableRecord
100
AcDbLayerTableRecord
  2
01__ASM_DEF_DTM_PLN
 70
0
 62
7
  6
CONTINUOUS
370
-3
390
F
  0
LAYER
  5
201
100
AcDbSymbolTableRecord
100
AcDbLayerTableRecord
  2
01___PRT_ALL_DTM_PLN
 70
0
 62
7
  6
CONTINUOUS
370
-3
390
F
  0
LAYER
  5
202
100
AcDbSymbolTableRecord
100
AcDbLayerTableRecord
  2
01___PRT_DEF_DTM_PLN
 70
0
 62
7
  6
CONTINUOUS
370
-3
390
F
  0
LAYER
  5
203
100
AcDbSymbolTableRecord
100
AcDbLayerTableRecord
  2
02_ALL_AXES
 70
0
 62
7
  6
CONTINUOUS
370
-3
390
F
  0
LAYER
  5
204
100
AcDbSymbolTableRecord
100
AcDbLayerTableRecord
  2
02__ASM_ALL_AXES
 70
0
 62
7
  6
CONTINUOUS
370
-3
390
F
  0
LAYER
  5
205
100
AcDbSymbolTableRecord
100
AcDbLayerTableRecord
  2
02___PRT_ALL_AXES
 70
0
 62
7
  6
CONTINUOUS
370
-3
390
F
  0
LAYER
  5
206
100
AcDbSymbolTableRecord
100
AcDbLayerTableRecord
  2
03_ALL_CURVES
 70
0
 62
7
  6
CONTINUOUS
370
-3
390
F
  0
LAYER
  5
207
100
AcDbSymbolTableRecord
100
AcDbLayerTableRecord
  2
03__ASM_ALL_CURVES
 70
0
 62
7
  6
CONTINUOUS
370
-3
390
F
  0
LAYER
  5
208
100
AcDbSymbolTableRecord
100
AcDbLayerTableRecord
  2
03___PRT_ALL_CURVES
 70
0
 62
7
  6
CONTINUOUS
370
-3
390
F
  0
LAYER
  5
209
100
AcDbSymbolTableRecord
100
AcDbLayerTableRecord
  2
04_ALL_DTM_PNT
 70
0
 62
7
  6
CONTINUOUS
370
-3
390
F
  0
LAYER
  5
20A
100
AcDbSymbolTableRecord
100
AcDbLayerTableRecord
  2
04__ASM_ALL_DTM_PNT
 70
0
 62
7
  6
CONTINUOUS
370
-3
390
F
  0
LAYER
  5
20B
100
AcDbSymbolTableRecord
100
AcDbLayerTableRecord
  2
04___PRT_ALL_DTM_PNT
 70
0
 62
7
  6
CONTINUOUS
370
-3
390
F
  0
LAYER
  5
20C
100
AcDbSymbolTableRecord
100
AcDbLayerTableRecord
  2
05_ALL_DTM_CSYS
 70
0
 62
7
  6
CONTINUOUS
370
-3
390
F
  0
LAYER
  5
20D
100
AcDbSymbolTableRecord
100
AcDbLayerTableRecord
  2
05__ASM_ALL_DTM_CSYS
 70
0
 62
7
  6
CONTINUOUS
370
-3
390
F
  0
LAYER
  5
20E
100
AcDbSymbolTableRecord
100
AcDbLayerTableRecord
  2
05__ASM_DEF_DTM_CSYS
 70
0
 62
7
  6
CONTINUOUS
370
-3
390
F
  0
LAYER
  5
20F
100
AcDbSymbolTableRecord
100
AcDbLayerTableRecord
  2
05___PRT_ALL_DTM_CSYS
 70
0
 62
7
  6
CONTINUOUS
370
-3
390
F
  0
LAYER
  5
210
100
AcDbSymbolTableRecord
100
AcDbLayerTableRecord
  2
05___PRT_DEF_DTM_CSYS
 70
0
 62
7
  6
CONTINUOUS
370
-3
390
F
  0
LAYER
  5
211
100
AcDbSymbolTableRecord
100
AcDbLayerTableRecord
  2
06_ALL_SURFS
 70
0
 62
7
  6
CONTINUOUS
370
-3
390
F
  0
LAYER
  5
212
100
AcDbSymbolTableRecord
100
AcDbLayerTableRecord
  2
06__ASM_ALL_SURFS
 70
0
 62
7
  6
CONTINUOUS
370
-3
390
F
  0
LAYER
  5
213
100
AcDbSymbolTableRecord
100
AcDbLayerTableRecord
  2
06___PRT_ALL_SURFS
 70
0
 62
7
  6
CONTINUOUS
370
-3
390
F
  0
LAYER
  5
214
100
AcDbSymbolTableRecord
100
AcDbLayerTableRecord
  2
07__ASM_ALL_SKELETONS
 70
0
 62
7
  6
CONTINUOUS
370
-3
390
F
  0
LAYER
  5
215
100
AcDbSymbolTableRecord
100
AcDbLayerTableRecord
  2
125-151_FEATURES
 70
0
 62
7
  6
CONTINUOUS
370
-3
390
F
  0
LAYER
  5
216
100
AcDbSymbolTableRecord
100
AcDbLayerTableRecord
  2
125-151_REF_GEOMETRY
 70
0
 62
7
  6
CONTINUOUS
370
-3
390
F
  0
LAYER
  5
217
100
AcDbSymbolTableRecord
100
AcDbLayerTableRecord
  2
128-015_FEATURES
 70
0
 62
7
  6
CONTINUOUS
370
-3
390
F
  0
LAYER
  5
218
100
AcDbSymbolTableRecord
100
AcDbLayerTableRecord
  2
128-015_REF_GEOMETRY
 70
0
 62
7
  6
CONTINUOUS
370
-3
390
F
  0
LAYER
  5
219
100
AcDbSymbolTableRecord
100
AcDbLayerTableRecord
  2
128-200_FEATURES
 70
0
 62
7
  6
CONTINUOUS
370
-3
390
F
  0
LAYER
  5
21A
100
AcDbSymbolTableRecord
100
AcDbLayerTableRecord
  2
128-200_REF_GEOMETRY
 70
0
 62
7
  6
CONTINUOUS
370
-3
390
F
  0
LAYER
  5
21B
100
AcDbSymbolTableRecord
100
AcDbLayerTableRecord
  2
128-201_FEATURES
 70
0
 62
7
  6
CONTINUOUS
370
-3
390
F
  0
LAYER
  5
21C
100
AcDbSymbolTableRecord
100
AcDbLayerTableRecord
  2
128-201_REF_GEOMETRY
 70
0
 62
7
  6
CONTINUOUS
370
-3
390
F
  0
LAYER
  5
21D
100
AcDbSymbolTableRecord
100
AcDbLayerTableRecord
  2
128-202_FEATURES
 70
0
 62
7
  6
CONTINUOUS
370
-3
390
F
  0
LAYER
  5
21E
100
AcDbSymbolTableRecord
100
AcDbLayerTableRecord
  2
128-202_REF_GEOMETRY
 70
0
 62
7
  6
CONTINUOUS
370
-3
390
F
  0
LAYER
  5
21F
100
AcDbSymbolTableRecord
100
AcDbLayerTableRecord
  2
COPY_GEO_FET
 70
0
 62
7
  6
CONTINUOUS
370
-3
390
F
  0
LAYER
  5
220
100
AcDbSymbolTableRecord
100
AcDbLayerTableRecord
  2
COSMETIC
 70
0
 62
7
  6
CONTINUOUS
370
-3
390
F
  0
LAYER
  5
221
100
AcDbSymbolTableRecord
100
AcDbLayerTableRecord
  2
COSM_REF
 70
0
 62
7
  6
CONTINUOUS
370
-3
390
F
  0
LAYER
  5
222
100
AcDbSymbolTableRecord
100
AcDbLayerTableRecord
  2
CURVES
 70
0
 62
7
  6
CONTINUOUS
370
-3
390
F
  0
LAYER
  5
223
100
AcDbSymbolTableRecord
100
AcDbLayerTableRecord
  2
CUT_REF_SURF
 70
0
 62
7
  6
CONTINUOUS
370
-3
390
F
  0
LAYER
  5
224
100
AcDbSymbolTableRecord
100
AcDbLayerTableRecord
  2
DATUM
 70
0
 62
7
  6
CONTINUOUS
370
-3
390
F
  0
LAYER
  5
225
100
AcDbSymbolTableRecord
100
AcDbLayerTableRecord
  2
DATUMCURVES
 70
0
 62
7
  6
CONTINUOUS
370
-3
390
F
  0
LAYER
  5
226
100
AcDbSymbolTableRecord
100
AcDbLayerTableRecord
  2
DIMENSIONS
 70
0
 62
7
  6
CONTINUOUS
370
-3
390
F
  0
LAYER
  5
227
100
AcDbSymbolTableRecord
100
AcDbLayerTableRecord
  2
DRAWINGNOTES
 70
0
 62
7
  6
CONTINUOUS
370
-3
390
F
  0
LAYER
  5
228
100
AcDbSymbolTableRecord
100
AcDbLayerTableRecord
  2
DTM
 70
0
 62
7
  6
CONTINUOUS
370
-3
390
F
  0
LAYER
  5
229
100
AcDbSymbolTableRecord
100
AcDbLayerTableRecord
  2
DTM230
 70
0
 62
7
  6
CONTINUOUS
370
-3
390
F
  0
LAYER
  5
22A
100
AcDbSymbolTableRecord
100
AcDbLayerTableRecord
  2
DTM_500001
 70
0
 62
7
  6
CONTINUOUS
370
-3
390
F
  0
LAYER
  5
22B
100
AcDbSymbolTableRecord
100
AcDbLayerTableRecord
  2
DTM_500002
 70
0
 62
7
  6
CONTINUOUS
370
-3
390
F
  0
LAYER
  5
22C
100
AcDbSymbolTableRecord
100
AcDbLayerTableRecord
  2
DTM_515002
 70
0
 62
7
  6
CONTINUOUS
370
-3
390
F
  0
LAYER
  5
22D
100
AcDbSymbolTableRecord
100
AcDbLayerTableRecord
  2
DTM_525001
 70
0
 62
7
  6
CONTINUOUS
370
-3
390
F
  0
LAYER
  5
22E
100
AcDbSymbolTableRecord
100
AcDbLayerTableRecord
  2
DTM_530-102
 70
0
 62
7
  6
CONTINUOUS
370
-3
390
F
  0
LAYER
  5
22F
100
AcDbSymbolTableRecord
100
AcDbLayerTableRecord
  2
DTM_800001
 70
0
 62
7
  6
CONTINUOUS
370
-3
390
F
  0
LAYER
  5
230
100
AcDbSymbolTableRecord
100
AcDbLayerTableRecord
  2
DTM_BALLHOLDER
 70
0
 62
7
  6
CONTINUOUS
370
-3
390
F
  0
LAYER
  5
231
100
AcDbSymbolTableRecord
100
AcDbLayerTableRecord
  2
DTM_SPRING_RH
 70
0
 62
7
  6
CONTINUOUS
370
-3
390
F
  0
LAYER
  5
232
100
AcDbSymbolTableRecord
100
AcDbLayerTableRecord
  2
DTM_SP_RH_CONSTR
 70
0
 62
7
  6
CONTINUOUS
370
-3
390
F
  0
LAYER
  5
233
100
AcDbSymbolTableRecord
100
AcDbLayerTableRecord
  2
FACE1
 70
0
 62
7
  6
CONTINUOUS
370
-3
390
F
  0
LAYER
  5
234
100
AcDbSymbolTableRecord
100
AcDbLayerTableRecord
  2
FACE2
 70
0
 62
7
  6
CONTINUOUS
370
-3
390
F
  0
LAYER
  5
235
100
AcDbSymbolTableRecord
100
AcDbLayerTableRecord
  2
FACE3
 70
0
 62
7
  6
CONTINUOUS
370
-3
390
F
  0
LAYER
  5
236
100
AcDbSymbolTableRecord
100
AcDbLayerTableRecord
  2
FACE4
 70
0
 62
7
  6
CONTINUOUS
370
-3
390
F
  0
LAYER
  5
237
100
AcDbSymbolTableRecord
100
AcDbLayerTableRecord
  2
GEOMETRICTOLERANCES
 70
0
 62
7
  6
CONTINUOUS
370
-3
390
F
  0
LAYER
  5
238
100
AcDbSymbolTableRecord
100
AcDbLayerTableRecord
  2
LAY0001
 70
0
 62
7
  6
CONTINUOUS
370
-3
390
F
  0
LAYER
  5
239
100
AcDbSymbolTableRecord
100
AcDbLayerTableRecord
  2
PARAMETERDIMENSIONS
 70
0
 62
7
  6
CONTINUOUS
370
-3
390
F
  0
LAYER
  5
23A
100
AcDbSymbolTableRecord
100
AcDbLayerTableRecord
  2
PART
 70
0
 62
7
  6
CONTINUOUS
370
-3
390
F
  0
LAYER
  5
23B
100
AcDbSymbolTableRecord
100
AcDbLayerTableRecord
  2
PLANE
 70
0
 62
7
  6
CONTINUOUS
370
-3
390
F
  0
LAYER
  5
23C
100
AcDbSymbolTableRecord
100
AcDbLayerTableRecord
  2
PROTRUSIONS
 70
0
 62
7
  6
CONTINUOUS
370
-3
390
F
  0
LAYER
  5
23D
100
AcDbSymbolTableRecord
100
AcDbLayerTableRecord
  2
SUN_STD_SAE-4_PORT
 70
0
 62
7
  6
CONTINUOUS
370
-3
390
F
  0
LAYER
  5
23E
100
AcDbSymbolTableRecord
100
AcDbLayerTableRecord
  2
TEXT
 70
0
 62
7
  6
CONTINUOUS
370
-3
390
F
  0
LAYER
  5
23F
100
AcDbSymbolTableRecord
100
AcDbLayerTableRecord
  2
THREAD
 70
0
 62
7
  6
CONTINUOUS
370
-3
390
F
  0
LAYER
  5
240
100
AcDbSymbolTableRecord
100
AcDbLayerTableRecord
  2
WIRE_SLOT_REF
 70
0
 62
7
  6
CONTINUOUS
370
-3
390
F
  0
ENDTAB
  0
TABLE
  2
STYLE
  5
3
100
AcDbSymbolTable
 70
1
  0
STYLE
  5
11
100
AcDbSymbolTableRecord
100
AcDbTextStyleTableRecord
  2
STANDARD
 70
0
 40
0.0
 41
0.8
 50
0.0
 71
0
 42
0.2
  3
txt
  4

  0
ENDTAB
  0
TABLE
  2
VIEW
  5
6
100
AcDbSymbolTable
 70
0
  0
ENDTAB
  0
TABLE
  2
UCS
  5
7
100
AcDbSymbolTable
 70
0
  0
ENDTAB
  0
TABLE
  2
APPID
  5
9
100
AcDbSymbolTable
 70
1
  0
APPID
  5
241
100
AcDbSymbolTableRecord
100
AcDbRegAppTableRecord
  2
ACAD
 70
0
  0
ENDTAB
  0
TABLE
  2
BLOCK_RECORD
  5
1
100
AcDbSymbolTable
 70
0
  0
BLOCK_RECORD
  5
1F
100
AcDbSymbolTableRecord
100
AcDbBlockTableRecord
  2
*MODEL_SPACE
  0
BLOCK_RECORD
  5
1B
100
AcDbSymbolTableRecord
100
AcDbBlockTableRecord
  2
*PAPER_SPACE
  0
ENDTAB
  0
TABLE
  2
DIMSTYLE
  5
A
100
AcDbSymbolTable
 70
1
100
AcDbDimStyleTable
 71
0
  0
DIMSTYLE
105
242
100
AcDbSymbolTableRecord
100
AcDbDimStyleTableRecord
  2
STANDARD
 70
0
  3

  4

 40
1.0
 41
0.1875
 42
0.0625
 43
0.38
 44
0.18
 45
0.0
 46
0.0
 47
0.01
 48
0.01
140
0.15625
141
0.09
142
0.0
143
25.4
144
1.0
145
0.0
146
1.0
147
0.09
 71
0.0
 72
0.0
 73
1
 74
1
 75
0
 76
0
 77
0
 78
4
170
0
171
2
172
0
173
0
174
0
175
0
176
0
177
0
178
0
270
2
271
2
272
2
273
2
274
2
275
0
280
0
281
0
282
0
283
1
284
4
285
0
286
0
287
3
288
0
340
11
  0
ENDTAB
  0
ENDSEC
  0
SECTION
  2
BLOCKS
  0
BLOCK
  5
20
100
AcDbEntity
  8
0
100
AcDbBlockBegin
  2
*MODEL_SPACE
 70
0
 10
0.0
 20
0.0
 30
0.0
  3
*MODEL_SPACE
  1

  0
ENDBLK
  5
21
100
AcDbEntity
  8
0
100
AcDbBlockEnd
  0
BLOCK
  5
1C
100
AcDbEntity
  8
0
100
AcDbBlockBegin
  2
*PAPER_SPACE
 70
0
 10
0.0
 20
0.0
 30
0.0
  3
*PAPER_SPACE
  1

  0
ENDBLK
  5
1D
100
AcDbEntity
  8
0
100
AcDbBlockEnd
  0
ENDSEC
  0
SECTION
  2
ENTITIES
  0
LINE
  5
243
100
AcDbEntity
  8
0
100
AcDbLine
 62
7
  6
CONTINUOUS
 10
3.0367710351
 20
4.4815681826
 11
3.0367710351
 21
4.1755681826
  0
LINE
  5
244
100
AcDbEntity
  8
03__ASM_ALL_CURVES
100
AcDbLine
 62
40
  6
CONTINUOUS
 10
3.0367710351
 20
4.4815681826
 11
3.0367710351
 21
5.3864541826
  0
LINE
  5
245
100
AcDbEntity
  8
0
100
AcDbLine
 62
7
  6
CONTINUOUS
 10
3.0677710351
 20
4.5125681826
 11
3.0677710351
 21
4.1445681826
  0
LINE
  5
246
100
AcDbEntity
  8
03__ASM_ALL_CURVES
100
AcDbLine
 62
40
  6
CONTINUOUS
 10
3.1830210351
 20
5.3620791826
 11
3.1830210351
 21
5.3133291826
  0
LINE
  5
247
100
AcDbEntity
  8
0
100
AcDbLine
 62
7
  6
CONTINUOUS
 10
3.2667710351
 20
4.5125631673
 11
3.2667710351
 21
4.1445731979
  0
LINE
  5
248
100
AcDbEntity
  8
0
100
AcDbLine
 62
7
  6
CONTINUOUS
 10
3.2682710351
 20
4.1674251896
 11
3.2682710351
 21
4.4046917514
  0
LINE
  5
249
100
AcDbEntity
  8
0
100
AcDbLine
 62
7
  6
CONTINUOUS
 10
3.3032710351
 20
4.1674251896
 11
3.3032710351
 21
4.4046917514
  0
LINE
  5
24A
100
AcDbEntity
  8
0
100
AcDbLine
 62
7
  6
CONTINUOUS
 10
3.3047710351
 20
4.5125631673
 11
3.3047710351
 21
4.1445731979
  0
LINE
  5
24B
100
AcDbEntity
  8
03__ASM_ALL_CURVES
100
AcDbLine
 62
40
  6
CONTINUOUS
 10
3.6154272851
 20
5.4880166802
 11
3.6230444726
 21
5.498172935
  0
LINE
  5
24C
100
AcDbEntity
  8
03__ASM_ALL_CURVES
100
AcDbLine
 62
40
  6
CONTINUOUS
 10
3.6382788476
 20
5.4372354314
 11
3.6230444726
 21
5.4169229326
  0
LINE
  5
24D
100
AcDbEntity
  8
03__ASM_ALL_CURVES
100
AcDbLine
 62
40
  6
CONTINUOUS
 10
3.6763647851
 20
5.467704185
 11
3.6687475976
 21
5.4575479302
  0
LINE
  5
24E
100
AcDbEntity
  8
0
100
AcDbLine
 62
7
  6
CONTINUOUS
 10
3.5367710351
 20
4.0809169975
 11
3.5367710351
 21
4.5762193677
  0
LINE
  5
24F
100
AcDbEntity
  8
0
100
AcDbLine
 62
7
  6
CONTINUOUS
 10
3.5987710351
 20
4.0575681826
 11
3.5987710351
 21
4.5995681826
  0
LINE
  5
250
100
AcDbEntity
  8
0
100
AcDbLine
 62
7
  6
CONTINUOUS
 10
3.6047710351
 20
4.0575681826
 11
3.6047710351
 21
4.5995681826
  0
LINE
  5
251
100
AcDbEntity
  8
0
100
AcDbLine
 62
7
  6
CONTINUOUS
 10
3.6102710351
 20
4.0630681826
 11
3.6102710351
 21
4.5940681826
  0
LINE
  5
252
100
AcDbEntity
  8
03__ASM_ALL_CURVES
100
AcDbLine
 62
40
  6
CONTINUOUS
 10
3.6230444726
 20
5.4169229326
 11
3.6154272851
 21
5.3864541826
  0
LINE
  5
253
100
AcDbEntity
  8
03__ASM_ALL_CURVES
100
AcDbLine
 62
40
  6
CONTINUOUS
 10
3.9124975976
 20
5.5083291826
 11
3.8591772851
 21
5.4169229326
  0
LINE
  5
254
100
AcDbEntity
  8
03__ASM_ALL_CURVES
100
AcDbLine
 62
40
  6
CONTINUOUS
 10
3.6230444726
 20
5.498172935
 11
3.6382788476
 21
5.5083291826
  0
LINE
  5
255
100
AcDbEntity
  8
0
100
AcDbLine
 62
7
  6
CONTINUOUS
 10
3.6262710351
 20
4.0630681826
 11
3.6262710351
 21
4.5940681826
  0
LINE
  5
256
100
AcDbEntity
  8
03__ASM_ALL_CURVES
100
AcDbLine
 62
40
  6
CONTINUOUS
 10
3.6763647851
 20
5.4880166802
 11
3.6763647851
 21
5.467704185
  0
LINE
  5
257
100
AcDbEntity
  8
03__ASM_ALL_CURVES
100
AcDbLine
 62
40
  6
CONTINUOUS
 10
3.7601538476
 20
5.3864541826
 11
3.7601538476
 21
5.3966104329
  0
LINE
  5
258
100
AcDbEntity
  8
03__ASM_ALL_CURVES
100
AcDbLine
 62
40
  6
CONTINUOUS
 10
4.0419897851
 20
5.4778604326
 11
4.0343725976
 21
5.467704185
  0
LINE
  5
259
100
AcDbEntity
  8
03__ASM_ALL_CURVES
100
AcDbLine
 62
40
  6
CONTINUOUS
 10
4.0496069726
 20
5.4169229326
 11
4.0343725976
 21
5.3966104329
  0
LINE
  5
25A
100
AcDbEntity
  8
03__ASM_ALL_CURVES
100
AcDbLine
 62
40
  6
CONTINUOUS
 10
4.1410132226
 20
5.5083291826
 11
4.1257788476
 21
5.4880166802
  0
LINE
  5
25B
100
AcDbEntity
  8
0
100
AcDbLine
 62
7
  6
CONTINUOUS
 10
3.0367710351
 20
4.4815681826
 11
3.0677710351
 21
4.5125681826
  0
LINE
  5
25C
100
AcDbEntity
  8
03__ASM_ALL_CURVES
100
AcDbLine
 62
40
  6
CONTINUOUS
 10
3.6687475976
 20
5.4575479302
 11
3.6382788476
 21
5.4372354314
  0
LINE
  5
25D
100
AcDbEntity
  8
03__ASM_ALL_CURVES
100
AcDbLine
 62
40
  6
CONTINUOUS
 10
3.9886694726
 20
5.498172935
 11
4.0039038476
 21
5.5083291826
  0
LINE
  5
25E
100
AcDbEntity
  8
0
100
AcDbLine
 62
7
  6
CONTINUOUS
 10
3.0367710351
 20
4.1755681826
 11
3.0677710351
 21
4.1445681826
  0
LINE
  5
25F
100
AcDbEntity
  8
0
100
AcDbLine
 62
7
  6
CONTINUOUS
 10
3.8177710351
 20
4.0575681826
 11
3.8177710351
 21
4.5995681826
  0
LINE
  5
260
100
AcDbEntity
  8
0
100
AcDbLine
 62
7
  6
CONTINUOUS
 10
3.8487710351
 20
3.7965681826
 11
3.8487710351
 21
4.8605681826
  0
LINE
  5
261
100
AcDbEntity
  8
0
100
AcDbLine
 62
7
  6
CONTINUOUS
 10
3.9107710351
 20
3.7345681826
 11
3.9107710351
 21
4.9225681826
  0
LINE
  5
262
100
AcDbEntity
  8
03__ASM_ALL_CURVES
100
AcDbLine
 62
40
  6
CONTINUOUS
 10
3.9124975976
 20
5.3864541826
 11
3.9124975976
 21
5.5083291826
  0
LINE
  5
263
100
AcDbEntity
  8
03__ASM_ALL_CURVES
100
AcDbLine
 62
40
  6
CONTINUOUS
 10
4.1257788476
 20
5.4880166802
 11
4.1181616601
 21
5.4575479302
  0
LINE
  5
264
100
AcDbEntity
  8
03__ASM_ALL_CURVES
100
AcDbLine
 62
40
  6
CONTINUOUS
 10
4.2248022851
 20
5.467704185
 11
4.2324194726
 21
5.4880166802
  0
LINE
  5
265
100
AcDbEntity
  8
03__ASM_ALL_CURVES
100
AcDbLine
 62
40
  6
CONTINUOUS
 10
4.2248022851
 20
5.4270791838
 11
4.2324194726
 21
5.4473916826
  0
LINE
  5
266
100
AcDbEntity
  8
03__ASM_ALL_CURVES
100
AcDbLine
 62
40
  6
CONTINUOUS
 10
4.2857397851
 20
5.4270791838
 11
4.2781225976
 21
5.4067666832
  0
LINE
  5
267
100
AcDbEntity
  8
03__ASM_ALL_CURVES
100
AcDbLine
 62
40
  6
CONTINUOUS
 10
4.2324194726
 20
5.4880166802
 11
4.2400366601
 21
5.498172935
  0
LINE
  5
268
100
AcDbEntity
  8
03__ASM_ALL_CURVES
100
AcDbLine
 62
40
  6
CONTINUOUS
 10
4.2781225976
 20
5.4067666832
 11
4.2705054101
 21
5.3966104329
  0
LINE
  5
269
100
AcDbEntity
  8
03__ASM_ALL_CURVES
100
AcDbLine
 62
40
  6
CONTINUOUS
 10
4.0343725976
 20
5.467704185
 11
4.0191382226
 21
5.4575479302
  0
LINE
  5
26A
100
AcDbEntity
  8
03__ASM_ALL_CURVES
100
AcDbLine
 62
40
  6
CONTINUOUS
 10
4.0343725976
 20
5.3966104329
 11
4.0191382226
 21
5.3864541826
  0
LINE
  5
26B
100
AcDbEntity
  8
03__ASM_ALL_CURVES
100
AcDbLine
 62
40
  6
CONTINUOUS
 10
4.2400366601
 20
5.498172935
 11
4.2552710351
 21
5.5083291826
  0
LINE
  5
26C
100
AcDbEntity
  8
03__ASM_ALL_CURVES
100
AcDbLine
 62
40
  6
CONTINUOUS
 10
4.0419897851
 20
5.4880166802
 11
4.0419897851
 21
5.4778604326
  0
LINE
  5
26D
100
AcDbEntity
  8
03__ASM_ALL_CURVES
100
AcDbLine
 62
40
  6
CONTINUOUS
 10
4.0496069726
 20
5.4270791838
 11
4.0496069726
 21
5.4169229326
  0
LINE
  5
26E
100
AcDbEntity
  8
03__ASM_ALL_CURVES
100
AcDbLine
 62
40
  6
CONTINUOUS
 10
4.1181616601
 20
5.4575479302
 11
4.1181616601
 21
5.4372354314
  0
LINE
  5
26F
100
AcDbEntity
  8
0
100
AcDbLine
 62
7
  6
CONTINUOUS
 10
3.8177710351
 20
4.0575681826
 11
3.811676263
 21
4.0470117276
  0
LINE
  5
270
100
AcDbEntity
  8
03__ASM_ALL_CURVES
100
AcDbLine
 62
40
  6
CONTINUOUS
 10
4.7123022851
 20
5.4880166802
 11
4.7199194726
 21
5.498172935
  0
LINE
  5
271
100
AcDbEntity
  8
0
100
AcDbLine
 62
7
  6
CONTINUOUS
 10
3.9107710351
 20
4.9225681826
 11
3.8487710351
 21
4.8605681826
  0
LINE
  5
272
100
AcDbEntity
  8
0
100
AcDbLine
 62
7
  6
CONTINUOUS
 10
3.6417718207
 20
4.6095689682
 11
3.6262710351
 21
4.5940681826
  0
LINE
  5
273
100
AcDbEntity
  8
03__ASM_ALL_CURVES
100
AcDbLine
 62
40
  6
CONTINUOUS
 10
4.2705054101
 20
5.3966104329
 11
4.2552710351
 21
5.3864541826
  0
LINE
  5
274
100
AcDbEntity
  8
03__ASM_ALL_CURVES
100
AcDbLine
 62
40
  6
CONTINUOUS
 10
4.7199194726
 20
5.498172935
 11
4.7351538476
 21
5.5083291826
  0
LINE
  5
275
100
AcDbEntity
  8
03__ASM_ALL_CURVES
100
AcDbLine
 62
40
  6
CONTINUOUS
 10
4.2324194726
 20
5.4473916826
 11
4.2552710351
 21
5.4575479302
  0
LINE
  5
276
100
AcDbEntity
  8
0
100
AcDbLine
 62
7
  6
CONTINUOUS
 10
3.9107710351
 20
3.7345681826
 11
3.8487710351
 21
3.7965681826
  0
LINE
  5
277
100
AcDbEntity
  8
0
100
AcDbLine
 62
7
  6
CONTINUOUS
 10
3.6417718207
 20
4.047567397
 11
3.6262710351
 21
4.0630681826
  0
LINE
  5
278
100
AcDbEntity
  8
03__ASM_ALL_CURVES
100
AcDbLine
 62
40
  6
CONTINUOUS
 10
4.2248022851
 20
5.4270791838
 11
4.2248022851
 21
5.467704185
  0
LINE
  5
279
100
AcDbEntity
  8
03__ASM_ALL_CURVES
100
AcDbLine
 62
40
  6
CONTINUOUS
 10
4.3771460351
 20
5.5083291826
 11
4.3771460351
 21
5.3864541826
  0
LINE
  5
27A
100
AcDbEntity
  8
03__ASM_ALL_CURVES
100
AcDbLine
 62
40
  6
CONTINUOUS
 10
4.6285132226
 20
5.4372354314
 11
4.6361304101
 21
5.467704185
  0
LINE
  5
27B
100
AcDbEntity
  8
03__ASM_ALL_CURVES
100
AcDbLine
 62
40
  6
CONTINUOUS
 10
4.6361304101
 20
5.467704185
 11
4.6513647851
 21
5.5083291826
  0
LINE
  5
27C
100
AcDbEntity
  8
0
100
AcDbLine
 62
7
  6
CONTINUOUS
 10
4.5561552091
 20
5.0375681826
 11
4.5047710351
 21
4.9485681826
  0
LINE
  5
27D
100
AcDbEntity
  8
03__ASM_ALL_CURVES
100
AcDbLine
 62
40
  6
CONTINUOUS
 10
4.7351538476
 20
5.4372354314
 11
4.7199194726
 21
5.4169229326
  0
LINE
  5
27E
100
AcDbEntity
  8
03__ASM_ALL_CURVES
100
AcDbLine
 62
40
  6
CONTINUOUS
 10
4.7732397851
 20
5.467704185
 11
4.7656225976
 21
5.4575479302
  0
LINE
  5
27F
100
AcDbEntity
  8
03__ASM_ALL_CURVES
100
AcDbLine
 62
40
  6
CONTINUOUS
 10
4.8722632226
 20
5.4067666832
 11
4.8570288476
 21
5.3864541826
  0
LINE
  5
280
100
AcDbEntity
  8
0
100
AcDbLine
 62
7
  6
CONTINUOUS
 10
3.6102710351
 20
4.0630681826
 11
3.6047710351
 21
4.0575681826
  0
LINE
  5
281
100
AcDbEntity
  8
03__ASM_ALL_CURVES
100
AcDbLine
 62
40
  6
CONTINUOUS
 10
4.7656225976
 20
5.4575479302
 11
4.7351538476
 21
5.4372354314
  0
LINE
  5
282
100
AcDbEntity
  8
0
100
AcDbLine
 62
7
  6
CONTINUOUS
 10
3.8177710351
 20
4.5995681826
 11
3.811676263
 21
4.6101246376
  0
LINE
  5
283
100
AcDbEntity
  8
0
100
AcDbLine
 62
7
  6
CONTINUOUS
 10
4.5561552091
 20
3.6195681826
 11
4.5047710351
 21
3.7085681826
  0
LINE
  5
284
100
AcDbEntity
  8
03__ASM_ALL_CURVES
100
AcDbLine
 62
40
  6
CONTINUOUS
 10
4.4914038476
 20
5.3864541826
 11
4.4914038476
 21
5.3966104329
  0
LINE
  5
285
100
AcDbEntity
  8
0
100
AcDbLine
 62
7
  6
CONTINUOUS
 10
4.5047710351
 20
3.7085681826
 11
4.5047710351
 21
4.9485681826
  0
LINE
  5
286
100
AcDbEntity
  8
0
100
AcDbLine
 62
7
  6
CONTINUOUS
 10
4.5561552091
 20
3.6195681826
 11
4.5561552091
 21
3.6199291837
  0
LINE
  5
287
100
AcDbEntity
  8
0
100
AcDbLine
 62
7
  6
CONTINUOUS
 10
4.5561552091
 20
3.9546571815
 11
4.5561552091
 21
3.9938401848
  0
LINE
  5
288
100
AcDbEntity
  8
0
100
AcDbLine
 62
7
  6
CONTINUOUS
 10
4.5561552091
 20
4.6632961804
 11
4.5561552091
 21
4.7024791837
  0
LINE
  5
289
100
AcDbEntity
  8
0
100
AcDbLine
 62
7
  6
CONTINUOUS
 10
4.5561552091
 20
5.0372071815
 11
4.5561552091
 21
5.0375681826
  0
LINE
  5
28A
100
AcDbEntity
  8
03__ASM_ALL_CURVES
100
AcDbLine
 62
40
  6
CONTINUOUS
 10
4.6208960351
 20
5.3864541826
 11
4.6285132226
 21
5.4372354314
  0
LINE
  5
28B
100
AcDbEntity
  8
03__ASM_ALL_CURVES
100
AcDbLine
 62
40
  6
CONTINUOUS
 10
4.7199194726
 20
5.4169229326
 11
4.7123022851
 21
5.3864541826
  0
LINE
  5
28C
100
AcDbEntity
  8
03__ASM_ALL_CURVES
100
AcDbLine
 62
40
  6
CONTINUOUS
 10
7.1985883704
 20
3.0660056826
 11
7.1528852454
 21
3.0660056826
  0
LINE
  5
28D
100
AcDbEntity
  8
03__ASM_ALL_CURVES
100
AcDbLine
 62
40
  6
CONTINUOUS
 10
6.9072309486
 20
3.0660056826
 11
6.8958051673
 21
3.0660056826
  0
LINE
  5
28E
100
AcDbEntity
  8
03__ASM_ALL_CURVES
100
AcDbLine
 62
40
  6
CONTINUOUS
 10
6.8158246986
 20
3.0660056826
 11
6.8043989173
 21
3.0660056826
  0
LINE
  5
28F
100
AcDbEntity
  8
03__ASM_ALL_CURVES
100
AcDbLine
 62
40
  6
CONTINUOUS
 10
7.0614789954
 20
3.0660056826
 11
7.1071821204
 21
3.0660056826
  0
LINE
  5
290
100
AcDbEntity
  8
0
100
AcDbLine
 62
7
  6
CONTINUOUS
 10
3.6102710351
 20
4.5940681826
 11
3.6047710351
 21
4.5995681826
  0
LINE
  5
291
100
AcDbEntity
  8
03__ASM_ALL_CURVES
100
AcDbLine
 62
40
  6
CONTINUOUS
 10
4.1181616601
 20
5.4372354314
 11
4.1257788476
 21
5.4067666832
  0
LINE
  5
292
100
AcDbEntity
  8
03__ASM_ALL_CURVES
100
AcDbLine
 62
40
  6
CONTINUOUS
 10
4.7732397851
 20
5.4880166802
 11
4.7732397851
 21
5.467704185
  0
LINE
  5
293
100
AcDbEntity
  8
03__ASM_ALL_CURVES
100
AcDbLine
 62
40
  6
CONTINUOUS
 10
4.8798804101
 20
5.4372354314
 11
4.8722632226
 21
5.4067666832
  0
LINE
  5
294
100
AcDbEntity
  8
03__ASM_ALL_CURVES
100
AcDbLine
 62
40
  6
CONTINUOUS
 10
5.7982632219
 20
5.498172935
 11
5.8134975969
 21
5.5083291826
  0
LINE
  5
295
100
AcDbEntity
  8
03__ASM_ALL_CURVES
100
AcDbLine
 62
40
  6
CONTINUOUS
 10
7.1528852454
 20
3.1117088076
 11
7.1814496986
 21
3.1117088076
  0
LINE
  5
296
100
AcDbEntity
  8
03__ASM_ALL_CURVES
100
AcDbLine
 62
40
  6
CONTINUOUS
 10
6.8043989173
 20
3.1574119326
 11
6.8158246986
 21
3.1574119326
  0
LINE
  5
297
100
AcDbEntity
  8
03__ASM_ALL_CURVES
100
AcDbLine
 62
40
  6
CONTINUOUS
 10
6.9643598548
 20
3.1574119326
 11
7.0214887611
 21
3.1574119326
  0
LINE
  5
298
100
AcDbEntity
  8
03__ASM_ALL_CURVES
100
AcDbLine
 62
40
  6
CONTINUOUS
 10
7.1528852454
 20
3.1574119326
 11
7.1985883704
 21
3.1574119326
  0
LINE
  5
299
100
AcDbEntity
  8
03__ASM_ALL_CURVES
100
AcDbLine
 62
40
  6
CONTINUOUS
 10
7.2385786048
 20
3.1574119326
 11
7.2957075111
 21
3.1574119326
  0
LINE
  5
29A
100
AcDbEntity
  8
03__ASM_ALL_CURVES
100
AcDbLine
 62
40
  6
CONTINUOUS
 10
6.9500776404
 20
3.2061619326
 11
6.9386518591
 21
3.2061619326
  0
LINE
  5
29B
100
AcDbEntity
  8
03__ASM_ALL_CURVES
100
AcDbLine
 62
40
  6
CONTINUOUS
 10
7.1957319372
 20
3.2061619326
 11
7.2414350622
 21
3.2061619326
  0
LINE
  5
29C
100
AcDbEntity
  8
03__ASM_ALL_CURVES
100
AcDbLine
 62
40
  6
CONTINUOUS
 10
7.0414838904
 20
3.2518650576
 11
7.0129194372
 21
3.2518650576
  0
LINE
  5
29D
100
AcDbEntity
  8
03__ASM_ALL_CURVES
100
AcDbLine
 62
40
  6
CONTINUOUS
 10
6.8586713904
 20
3.2518650576
 11
6.8301069372
 21
3.2518650576
  0
LINE
  5
29E
100
AcDbEntity
  8
03__ASM_ALL_CURVES
100
AcDbLine
 62
40
  6
CONTINUOUS
 10
6.8301069372
 20
3.2975681826
 11
6.8586713904
 21
3.2975681826
  0
LINE
  5
29F
100
AcDbEntity
  8
03__ASM_ALL_CURVES
100
AcDbLine
 62
40
  6
CONTINUOUS
 10
6.9386518591
 20
3.2975681826
 11
6.9500776404
 21
3.2975681826
  0
LINE
  5
2A0
100
AcDbEntity
  8
03__ASM_ALL_CURVES
100
AcDbLine
 62
40
  6
CONTINUOUS
 10
7.0129194372
 20
3.2975681826
 11
7.0414838904
 21
3.2975681826
  0
LINE
  5
2A1
100
AcDbEntity
  8
03__ASM_ALL_CURVES
100
AcDbLine
 62
40
  6
CONTINUOUS
 10
7.0986127966
 20
3.2975681826
 11
7.1557417029
 21
3.2975681826
  0
LINE
  5
2A2
100
AcDbEntity
  8
03__ASM_ALL_CURVES
100
AcDbLine
 62
40
  6
CONTINUOUS
 10
7.2128706091
 20
3.2975681826
 11
7.2242963904
 21
3.2975681826
  0
LINE
  5
2A3
100
AcDbEntity
  8
03__ASM_ALL_CURVES
100
AcDbLine
 62
40
  6
CONTINUOUS
 10
4.2324194726
 20
5.4067666832
 11
4.2248022851
 21
5.4270791838
  0
LINE
  5
2A4
100
AcDbEntity
  8
03__ASM_ALL_CURVES
100
AcDbLine
 62
40
  6
CONTINUOUS
 10
4.2781225976
 20
5.4473916826
 11
4.2857397851
 21
5.4270791838
  0
LINE
  5
2A5
100
AcDbEntity
  8
03__ASM_ALL_CURVES
100
AcDbLine
 62
40
  6
CONTINUOUS
 10
4.8798804101
 20
5.4575479302
 11
4.8798804101
 21
5.4372354314
  0
LINE
  5
2A6
100
AcDbEntity
  8
0
100
AcDbLine
 62
7
  6
CONTINUOUS
 10
5.2907710351
 20
5.1080681826
 11
5.2500678412
 21
5.0375681826
  0
LINE
  5
2A7
100
AcDbEntity
  8
03__ASM_ALL_CURVES
100
AcDbLine
 62
40
  6
CONTINUOUS
 10
5.9201382219
 20
5.498172935
 11
5.9353725969
 21
5.5083291826
  0
LINE
  5
2A8
100
AcDbEntity
  8
03__ASM_ALL_CURVES
100
AcDbLine
 62
40
  6
CONTINUOUS
 10
5.8439663469
 20
5.3966104329
 11
5.8287319719
 21
5.3864541826
  0
LINE
  5
2A9
100
AcDbEntity
  8
03__ASM_ALL_CURVES
100
AcDbLine
 62
40
  6
CONTINUOUS
 10
5.9658413469
 20
5.3966104329
 11
5.9506069719
 21
5.3864541826
  0
LINE
  5
2AA
100
AcDbEntity
  8
03__ASM_ALL_CURVES
100
AcDbLine
 62
40
  6
CONTINUOUS
 10
3.6687475976
 20
5.498172935
 11
3.6763647851
 21
5.4880166802
  0
LINE
  5
2AB
100
AcDbEntity
  8
03__ASM_ALL_CURVES
100
AcDbLine
 62
40
  6
CONTINUOUS
 10
3.7601538476
 20
5.3966104329
 11
3.7677710351
 21
5.3864541826
  0
LINE
  5
2AC
100
AcDbEntity
  8
03__ASM_ALL_CURVES
100
AcDbLine
 62
40
  6
CONTINUOUS
 10
3.9886694726
 20
5.3966104329
 11
3.9810522851
 21
5.4067666832
  0
LINE
  5
2AD
100
AcDbEntity
  8
0
100
AcDbLine
 62
7
  6
CONTINUOUS
 10
5.2907710351
 20
3.5490681826
 11
5.2500678412
 21
3.6195681826
  0
LINE
  5
2AE
100
AcDbEntity
  8
03__ASM_ALL_CURVES
100
AcDbLine
 62
40
  6
CONTINUOUS
 10
5.7830288469
 20
5.4778604326
 11
5.7982632219
 21
5.498172935
  0
LINE
  5
2AF
100
AcDbEntity
  8
03__ASM_ALL_CURVES
100
AcDbLine
 62
40
  6
CONTINUOUS
 10
5.8592007219
 20
5.4169229326
 11
5.8439663469
 21
5.3966104329
  0
LINE
  5
2B0
100
AcDbEntity
  8
03__ASM_ALL_CURVES
100
AcDbLine
 62
40
  6
CONTINUOUS
 10
5.9049038469
 20
5.4778604326
 11
5.9201382219
 21
5.498172935
  0
LINE
  5
2B1
100
AcDbEntity
  8
03__ASM_ALL_CURVES
100
AcDbLine
 62
40
  6
CONTINUOUS
 10
6.5295132219
 20
5.498172935
 11
6.5447475969
 21
5.5083291826
  0
LINE
  5
2B2
100
AcDbEntity
  8
0
100
AcDbLine
 62
7
  6
CONTINUOUS
 10
5.4737710351
 20
3.5490681826
 11
5.2907710351
 21
3.5490681826
  0
LINE
  5
2B3
100
AcDbEntity
  8
0
100
AcDbLine
 62
7
  6
CONTINUOUS
 10
5.6237710351
 20
3.6105681826
 11
5.6737710351
 21
3.6105681826
  0
LINE
  5
2B4
100
AcDbEntity
  8
THREAD
100
AcDbLine
 62
7
  6
CONTINUOUS
 10
5.5207710351
 20
3.6110681826
 11
5.4737710351
 21
3.6110681826
  0
LINE
  5
2B5
100
AcDbEntity
  8
0
100
AcDbLine
 62
7
  6
CONTINUOUS
 10
5.2500678412
 20
3.6195681826
 11
4.5561552091
 21
3.6195681826
  0
LINE
  5
2B6
100
AcDbEntity
  8
0
100
AcDbLine
 62
7
  6
CONTINUOUS
 10
5.2500678412
 20
3.6199291837
 11
4.5561552091
 21
3.6199291837
  0
LINE
  5
2B7
100
AcDbEntity
  8
THREAD
100
AcDbLine
 62
7
  6
CONTINUOUS
 10
6.0322710351
 20
3.6270681826
 11
5.7214838481
 21
3.6270681826
  0
LINE
  5
2B8
100
AcDbEntity
  8
THREAD
100
AcDbLine
 62
7
  6
CONTINUOUS
 10
6.4917710351
 20
3.6775681826
 11
6.1266116556
 21
3.6775681826
  0
LINE
  5
2B9
100
AcDbEntity
  8
0
100
AcDbLine
 62
7
  6
CONTINUOUS
 10
7.6097710351
 20
3.7045681826
 11
7.6597710351
 21
3.7045681826
  0
LINE
  5
2BA
100
AcDbEntity
  8
0
100
AcDbLine
 62
7
  6
CONTINUOUS
 10
7.7627710351
 20
3.7045681826
 11
7.8127710351
 21
3.7045681826
  0
LINE
  5
2BB
100
AcDbEntity
  8
0
100
AcDbLine
 62
7
  6
CONTINUOUS
 10
7.5287710351
 20
3.7050681826
 11
7.6097710351
 21
3.7050681826
  0
LINE
  5
2BC
100
AcDbEntity
  8
0
100
AcDbLine
 62
7
  6
CONTINUOUS
 10
7.8337710351
 20
3.7050681826
 11
7.8807710351
 21
3.7050681826
  0
LINE
  5
2BD
100
AcDbEntity
  8
03__ASM_ALL_CURVES
100
AcDbLine
 62
40
  6
CONTINUOUS
 10
4.0343725976
 20
5.4473916826
 11
4.0496069726
 21
5.4270791838
  0
LINE
  5
2BE
100
AcDbEntity
  8
03__ASM_ALL_CURVES
100
AcDbLine
 62
40
  6
CONTINUOUS
 10
4.0343725976
 20
5.498172935
 11
4.0419897851
 21
5.4880166802
  0
LINE
  5
2BF
100
AcDbEntity
  8
03__ASM_ALL_CURVES
100
AcDbLine
 62
40
  6
CONTINUOUS
 10
4.1257788476
 20
5.4067666832
 11
4.1410132226
 21
5.3864541826
  0
LINE
  5
2C0
100
AcDbEntity
  8
03__ASM_ALL_CURVES
100
AcDbLine
 62
40
  6
CONTINUOUS
 10
4.2400366601
 20
5.3966104329
 11
4.2324194726
 21
5.4067666832
  0
LINE
  5
2C1
100
AcDbEntity
  8
03__ASM_ALL_CURVES
100
AcDbLine
 62
40
  6
CONTINUOUS
 10
4.8722632226
 20
5.4880166802
 11
4.8798804101
 21
5.4575479302
  0
LINE
  5
2C2
100
AcDbEntity
  8
0
100
AcDbLine
 62
7
  6
CONTINUOUS
 10
5.2500678412
 20
3.6195681826
 11
5.2500678412
 21
5.0375681826
  0
LINE
  5
2C3
100
AcDbEntity
  8
0
100
AcDbLine
 62
7
  6
CONTINUOUS
 10
5.2907710351
 20
3.5490681826
 11
5.2907710351
 21
5.1080681826
  0
LINE
  5
2C4
100
AcDbEntity
  8
03__ASM_ALL_CURVES
100
AcDbLine
 62
40
  6
CONTINUOUS
 10
5.3275210351
 20
5.3620791826
 11
5.3275210351
 21
5.3133291826
  0
LINE
  5
2C5
100
AcDbEntity
  8
THREAD
100
AcDbLine
 62
7
  6
CONTINUOUS
 10
5.7214838481
 20
5.0300681826
 11
5.6937710351
 21
4.9820681826
  0
LINE
  5
2C6
100
AcDbEntity
  8
03__ASM_ALL_CURVES
100
AcDbLine
 62
40
  6
CONTINUOUS
 10
5.9734585344
 20
5.4067666832
 11
5.9658413469
 21
5.3966104329
  0
LINE
  5
2C7
100
AcDbEntity
  8
03__ASM_ALL_CURVES
100
AcDbLine
 62
40
  6
CONTINUOUS
 10
6.5752163469
 20
5.3966104329
 11
6.5599819719
 21
5.3864541826
  0
LINE
  5
2C8
100
AcDbEntity
  8
03__ASM_ALL_CURVES
100
AcDbLine
 62
40
  6
CONTINUOUS
 10
6.7884975969
 20
5.5083291826
 11
6.7732632219
 21
5.498172935
  0
LINE
  5
2C9
100
AcDbEntity
  8
0
100
AcDbLine
 62
7
  6
CONTINUOUS
 10
4.5047710351
 20
3.7345681826
 11
3.9107710351
 21
3.7345681826
  0
LINE
  5
2CA
100
AcDbEntity
  8
0
100
AcDbLine
 62
7
  6
CONTINUOUS
 10
7.8337710351
 20
3.7925681826
 11
7.8127710351
 21
3.7925681826
  0
LINE
  5
2CB
100
AcDbEntity
  8
0
100
AcDbLine
 62
7
  6
CONTINUOUS
 10
7.2862710351
 20
3.7990681826
 11
6.7422710455
 21
3.7990681826
  0
LINE
  5
2CC
100
AcDbEntity
  8
0
100
AcDbLine
 62
7
  6
CONTINUOUS
 10
6.6952710247
 20
3.7990681826
 11
6.5047710351
 21
3.7990681826
  0
LINE
  5
2CD
100
AcDbEntity
  8
03__ASM_ALL_CURVES
100
AcDbLine
 62
40
  6
CONTINUOUS
 10
6.8043989173
 20
3.0660056826
 11
6.7929731361
 21
3.0736228703
  0
LINE
  5
2CE
100
AcDbEntity
  8
03__ASM_ALL_CURVES
100
AcDbLine
 62
40
  6
CONTINUOUS
 10
6.8958051673
 20
3.0660056826
 11
6.8843793861
 21
3.0736228703
  0
LINE
  5
2CF
100
AcDbEntity
  8
03__ASM_ALL_CURVES
100
AcDbLine
 62
40
  6
CONTINUOUS
 10
6.8158246986
 20
3.1574119326
 11
6.8272504798
 21
3.1497947469
  0
LINE
  5
2D0
100
AcDbEntity
  8
03__ASM_ALL_CURVES
100
AcDbLine
 62
40
  6
CONTINUOUS
 10
4.2705054101
 20
5.498172935
 11
4.2781225976
 21
5.4880166802
  0
LINE
  5
2D1
100
AcDbEntity
  8
03__ASM_ALL_CURVES
100
AcDbLine
 62
40
  6
CONTINUOUS
 10
4.4914038476
 20
5.3966104329
 11
4.4990210351
 21
5.3864541826
  0
LINE
  5
2D2
100
AcDbEntity
  8
THREAD
100
AcDbLine
 62
7
  6
CONTINUOUS
 10
5.7214838481
 20
3.6270681826
 11
5.6937710351
 21
3.6750681826
  0
LINE
  5
2D3
100
AcDbEntity
  8
0
100
AcDbLine
 62
7
  6
CONTINUOUS
 10
5.4737710351
 20
3.5490681826
 11
5.4737710351
 21
5.1080681826
  0
LINE
  5
2D4
100
AcDbEntity
  8
03__ASM_ALL_CURVES
100
AcDbLine
 62
40
  6
CONTINUOUS
 10
5.4737710351
 20
5.1324431826
 11
5.4737710351
 21
5.3864541826
  0
LINE
  5
2D5
100
AcDbEntity
  8
THREAD
100
AcDbLine
 62
7
  6
CONTINUOUS
 10
5.5207710351
 20
3.6110681826
 11
5.5207710351
 21
5.0460681826
  0
LINE
  5
2D6
100
AcDbEntity
  8
03__ASM_ALL_CURVES
100
AcDbLine
 62
40
  6
CONTINUOUS
 10
5.6200210351
 20
5.3620791826
 11
5.6200210351
 21
5.3133291826
  0
LINE
  5
2D7
100
AcDbEntity
  8
0
100
AcDbLine
 62
7
  6
CONTINUOUS
 10
5.6237710351
 20
3.6105681826
 11
5.6237710351
 21
5.0465681826
  0
LINE
  5
2D8
100
AcDbEntity
  8
03__ASM_ALL_CURVES
100
AcDbLine
 62
40
  6
CONTINUOUS
 10
5.7754116594
 20
5.4473916826
 11
5.7830288469
 21
5.4778604326
  0
LINE
  5
2D9
100
AcDbEntity
  8
03__ASM_ALL_CURVES
100
AcDbLine
 62
40
  6
CONTINUOUS
 10
5.8668179094
 20
5.4473916826
 11
5.8592007219
 21
5.4169229326
  0
LINE
  5
2DA
100
AcDbEntity
  8
03__ASM_ALL_CURVES
100
AcDbLine
 62
40
  6
CONTINUOUS
 10
5.8972866594
 20
5.4473916826
 11
5.9049038469
 21
5.4778604326
  0
LINE
  5
2DB
100
AcDbEntity
  8
03__ASM_ALL_CURVES
100
AcDbLine
 62
40
  6
CONTINUOUS
 10
6.8189663469
 20
5.3966104329
 11
6.8037319719
 21
5.3864541826
  0
LINE
  5
2DC
100
AcDbEntity
  8
03__ASM_ALL_CURVES
100
AcDbLine
 62
40
  6
CONTINUOUS
 10
7.0170132219
 20
5.498172935
 11
7.0322475969
 21
5.5083291826
  0
LINE
  5
2DD
100
AcDbEntity
  8
03__ASM_ALL_CURVES
100
AcDbLine
 62
40
  6
CONTINUOUS
 10
7.0627163469
 20
5.3966104329
 11
7.0474819719
 21
5.3864541826
  0
LINE
  5
2DE
100
AcDbEntity
  8
0
100
AcDbLine
 62
7
  6
CONTINUOUS
 10
5.2500678412
 20
3.9546571815
 11
4.5561552091
 21
3.9546571815
  0
LINE
  5
2DF
100
AcDbEntity
  8
0
100
AcDbLine
 62
7
  6
CONTINUOUS
 10
5.2500678412
 20
3.9938401848
 11
4.5561552091
 21
3.9938401848
  0
LINE
  5
2E0
100
AcDbEntity
  8
0
100
AcDbLine
 62
7
  6
CONTINUOUS
 10
3.6417710352
 20
4.0475681826
 11
3.8119947568
 21
4.0475681826
  0
LINE
  5
2E1
100
AcDbEntity
  8
0
100
AcDbLine
 62
7
  6
CONTINUOUS
 10
3.8487710351
 20
4.0575681826
 11
3.8177710351
 21
4.0575681826
  0
LINE
  5
2E2
100
AcDbEntity
  8
0
100
AcDbLine
 62
7
  6
CONTINUOUS
 10
3.6047710351
 20
4.0575681826
 11
3.5987710351
 21
4.0575681826
  0
LINE
  5
2E3
100
AcDbEntity
  8
0
100
AcDbLine
 62
7
  6
CONTINUOUS
 10
3.6262710351
 20
4.0630681826
 11
3.6102710351
 21
4.0630681826
  0
LINE
  5
2E4
100
AcDbEntity
  8
03__ASM_ALL_CURVES
100
AcDbLine
 62
40
  6
CONTINUOUS
 10
6.9386518591
 20
3.2061619326
 11
6.9272260779
 21
3.2137791203
  0
LINE
  5
2E5
100
AcDbEntity
  8
03__ASM_ALL_CURVES
100
AcDbLine
 62
40
  6
CONTINUOUS
 10
6.8586713904
 20
3.2975681826
 11
6.8700971716
 21
3.2899509969
  0
LINE
  5
2E6
100
AcDbEntity
  8
03__ASM_ALL_CURVES
100
AcDbLine
 62
40
  6
CONTINUOUS
 10
6.9500776404
 20
3.2975681826
 11
6.9615034216
 21
3.2899509969
  0
LINE
  5
2E7
100
AcDbEntity
  8
03__ASM_ALL_CURVES
100
AcDbLine
 62
40
  6
CONTINUOUS
 10
3.6535132226
 20
5.5083291826
 11
3.6687475976
 21
5.498172935
  0
LINE
  5
2E8
100
AcDbEntity
  8
03__ASM_ALL_CURVES
100
AcDbLine
 62
40
  6
CONTINUOUS
 10
5.6687710344
 20
5.5083291826
 11
5.6687710344
 21
5.3864541826
  0
LINE
  5
2E9
100
AcDbEntity
  8
0
100
AcDbLine
 62
7
  6
CONTINUOUS
 10
5.6737710351
 20
3.6105681826
 11
5.6737710351
 21
5.0465681826
  0
LINE
  5
2EA
100
AcDbEntity
  8
0
100
AcDbLine
 62
7
  6
CONTINUOUS
 10
5.6937710351
 20
3.6750681826
 11
5.6937710351
 21
4.9820681826
  0
LINE
  5
2EB
100
AcDbEntity
  8
THREAD
100
AcDbLine
 62
7
  6
CONTINUOUS
 10
5.7214838481
 20
3.6270681826
 11
5.7214838481
 21
5.0300681826
  0
LINE
  5
2EC
100
AcDbEntity
  8
03__ASM_ALL_CURVES
100
AcDbLine
 62
40
  6
CONTINUOUS
 10
6.0267788469
 20
5.3864541826
 11
6.0648647844
 21
5.5083291826
  0
LINE
  5
2ED
100
AcDbEntity
  8
03__ASM_ALL_CURVES
100
AcDbLine
 62
40
  6
CONTINUOUS
 10
6.5142788469
 20
5.4778604326
 11
6.5295132219
 21
5.498172935
  0
LINE
  5
2EE
100
AcDbEntity
  8
03__ASM_ALL_CURVES
100
AcDbLine
 62
40
  6
CONTINUOUS
 10
6.5828335344
 20
5.4067666832
 11
6.5752163469
 21
5.3966104329
  0
LINE
  5
2EF
100
AcDbEntity
  8
03__ASM_ALL_CURVES
100
AcDbLine
 62
40
  6
CONTINUOUS
 10
7.1845913469
 20
5.3966104329
 11
7.1693569719
 21
5.3864541826
  0
LINE
  5
2F0
100
AcDbEntity
  8
03__ASM_ALL_CURVES
100
AcDbLine
 62
40
  6
CONTINUOUS
 10
7.4207241594
 20
5.3966104329
 11
7.4054897844
 21
5.3864541826
  0
LINE
  5
2F1
100
AcDbEntity
  8
0
100
AcDbLine
 62
7
  6
CONTINUOUS
 10
3.0677710351
 20
4.1445681826
 11
3.2667710351
 21
4.1445681826
  0
LINE
  5
2F2
100
AcDbEntity
  8
0
100
AcDbLine
 62
7
  6
CONTINUOUS
 10
3.3047710351
 20
4.1445681826
 11
3.5367710351
 21
4.1445681826
  0
LINE
  5
2F3
100
AcDbEntity
  8
0
100
AcDbLine
 62
7
  6
CONTINUOUS
 10
3.2667710351
 20
4.1775681826
 11
3.2682710351
 21
4.1775681826
  0
LINE
  5
2F4
100
AcDbEntity
  8
0
100
AcDbLine
 62
7
  6
CONTINUOUS
 10
3.3032710351
 20
4.1775681826
 11
3.3047710351
 21
4.1775681826
  0
LINE
  5
2F5
100
AcDbEntity
  8
03__ASM_ALL_CURVES
100
AcDbLine
 62
40
  6
CONTINUOUS
 10
8.4688413484
 20
4.2127869326
 11
8.4231382234
 21
4.2127869326
  0
LINE
  5
2F6
100
AcDbEntity
  8
03__ASM_ALL_CURVES
100
AcDbLine
 62
40
  6
CONTINUOUS
 10
8.3317319734
 20
4.2127869326
 11
8.3774350984
 21
4.2127869326
  0
LINE
  5
2F7
100
AcDbEntity
  8
03__ASM_ALL_CURVES
100
AcDbLine
 62
40
  6
CONTINUOUS
 10
8.4231382234
 20
4.2584900576
 11
8.4517026765
 21
4.2584900576
  0
LINE
  5
2F8
100
AcDbEntity
  8
03__ASM_ALL_CURVES
100
AcDbLine
 62
40
  6
CONTINUOUS
 10
8.4231382234
 20
4.3041931826
 11
8.4688413484
 21
4.3041931826
  0
LINE
  5
2F9
100
AcDbEntity
  8
03__ASM_ALL_CURVES
100
AcDbLine
 62
40
  6
CONTINUOUS
 10
8.5088315828
 20
4.3041931826
 11
8.565960489
 21
4.3041931826
  0
LINE
  5
2FA
100
AcDbEntity
  8
03__ASM_ALL_CURVES
100
AcDbLine
 62
40
  6
CONTINUOUS
 10
7.0414838904
 20
3.2975681826
 11
7.0529096716
 21
3.2899509969
  0
LINE
  5
2FB
100
AcDbEntity
  8
03__ASM_ALL_CURVES
100
AcDbLine
 62
40
  6
CONTINUOUS
 10
4.0039038476
 20
5.3864541826
 11
3.9886694726
 21
5.3966104329
  0
LINE
  5
2FC
100
AcDbEntity
  8
03__ASM_ALL_CURVES
100
AcDbLine
 62
40
  6
CONTINUOUS
 10
7.2242963904
 20
3.2975681826
 11
7.2357221716
 21
3.2899509969
  0
LINE
  5
2FD
100
AcDbEntity
  8
03__ASM_ALL_CURVES
100
AcDbLine
 62
40
  6
CONTINUOUS
 10
4.0191382226
 20
5.4575479302
 11
4.0343725976
 21
5.4473916826
  0
LINE
  5
2FE
100
AcDbEntity
  8
03__ASM_ALL_CURVES
100
AcDbLine
 62
40
  6
CONTINUOUS
 10
4.7656225976
 20
5.498172935
 11
4.7732397851
 21
5.4880166802
  0
LINE
  5
2FF
100
AcDbEntity
  8
03__ASM_ALL_CURVES
100
AcDbLine
 62
40
  6
CONTINUOUS
 10
4.8570288476
 20
5.5083291826
 11
4.8722632226
 21
5.4880166802
  0
LINE
  5
300
100
AcDbEntity
  8
03__ASM_ALL_CURVES
100
AcDbLine
 62
40
  6
CONTINUOUS
 10
6.7732632219
 20
5.498172935
 11
6.7656460344
 21
5.4880166802
  0
LINE
  5
301
100
AcDbEntity
  8
03__ASM_ALL_CURVES
100
AcDbLine
 62
40
  6
CONTINUOUS
 10
6.8265835344
 20
5.4067666832
 11
6.8189663469
 21
5.3966104329
  0
LINE
  5
302
100
AcDbEntity
  8
03__ASM_ALL_CURVES
100
AcDbLine
 62
40
  6
CONTINUOUS
 10
7.6720913469
 20
5.4575479302
 11
7.6568569719
 21
5.4473916826
  0
LINE
  5
303
100
AcDbEntity
  8
0
100
AcDbLine
 62
7
  6
CONTINUOUS
 10
3.7868996247
 20
4.3285681826
 11
3.6852418864
 21
4.3285681826
  0
LINE
  5
304
100
AcDbEntity
  8
03__ASM_ALL_CURVES
100
AcDbLine
 62
40
  6
CONTINUOUS
 10
8.2917417386
 20
4.3529431826
 11
8.2803159574
 21
4.3529431826
  0
LINE
  5
305
100
AcDbEntity
  8
03__ASM_ALL_CURVES
100
AcDbLine
 62
40
  6
CONTINUOUS
 10
8.3831479886
 20
4.3986463076
 11
8.3545835355
 21
4.3986463076
  0
LINE
  5
306
100
AcDbEntity
  8
03__ASM_ALL_CURVES
100
AcDbLine
 62
40
  6
CONTINUOUS
 10
8.2003354886
 20
4.3986463076
 11
8.1717710355
 21
4.3986463076
  0
LINE
  5
307
100
AcDbEntity
  8
03__ASM_ALL_CURVES
100
AcDbLine
 62
40
  6
CONTINUOUS
 10
8.1717710355
 20
4.4443494326
 11
8.2003354886
 21
4.4443494326
  0
LINE
  5
308
100
AcDbEntity
  8
03__ASM_ALL_CURVES
100
AcDbLine
 62
40
  6
CONTINUOUS
 10
8.2803159574
 20
4.4443494326
 11
8.2917417386
 21
4.4443494326
  0
LINE
  5
309
100
AcDbEntity
  8
03__ASM_ALL_CURVES
100
AcDbLine
 62
40
  6
CONTINUOUS
 10
8.3545835355
 20
4.4443494326
 11
8.3831479886
 21
4.4443494326
  0
LINE
  5
30A
100
AcDbEntity
  8
03__ASM_ALL_CURVES
100
AcDbLine
 62
40
  6
CONTINUOUS
 10
8.4402768949
 20
4.4443494326
 11
8.4974058011
 21
4.4443494326
  0
LINE
  5
30B
100
AcDbEntity
  8
0
100
AcDbLine
 62
7
  6
CONTINUOUS
 10
3.2667710351
 20
4.4795681826
 11
3.3047710351
 21
4.4795681826
  0
LINE
  5
30C
100
AcDbEntity
  8
0
100
AcDbLine
 62
7
  6
CONTINUOUS
 10
3.0677710351
 20
4.5125681826
 11
3.2667710351
 21
4.5125681826
  0
LINE
  5
30D
100
AcDbEntity
  8
0
100
AcDbLine
 62
7
  6
CONTINUOUS
 10
3.3047710351
 20
4.5125681826
 11
3.5367710351
 21
4.5125681826
  0
LINE
  5
30E
100
AcDbEntity
  8
03__ASM_ALL_CURVES
100
AcDbLine
 62
40
  6
CONTINUOUS
 10
4.0191382226
 20
5.5083291826
 11
4.0343725976
 21
5.498172935
  0
LINE
  5
30F
100
AcDbEntity
  8
03__ASM_ALL_CURVES
100
AcDbLine
 62
40
  6
CONTINUOUS
 10
4.2552710351
 20
5.3864541826
 11
4.2400366601
 21
5.3966104329
  0
LINE
  5
310
100
AcDbEntity
  8
03__ASM_ALL_CURVES
100
AcDbLine
 62
40
  6
CONTINUOUS
 10
4.2552710351
 20
5.5083291826
 11
4.2705054101
 21
5.498172935
  0
LINE
  5
311
100
AcDbEntity
  8
03__ASM_ALL_CURVES
100
AcDbLine
 62
40
  6
CONTINUOUS
 10
6.7929731361
 20
3.0736228703
 11
6.7815473548
 21
3.0888572451
  0
LINE
  5
312
100
AcDbEntity
  8
03__ASM_ALL_CURVES
100
AcDbLine
 62
40
  6
CONTINUOUS
 10
6.8843793861
 20
3.0736228703
 11
6.8786664954
 21
3.081240058
  0
LINE
  5
313
100
AcDbEntity
  8
03__ASM_ALL_CURVES
100
AcDbLine
 62
40
  6
CONTINUOUS
 10
6.8272504798
 20
3.1497947469
 11
6.8386762611
 21
3.1345603701
  0
LINE
  5
314
100
AcDbEntity
  8
THREAD
100
AcDbLine
 62
7
  6
CONTINUOUS
 10
6.0322710351
 20
3.6270681826
 11
6.0322710351
 21
5.0300681826
  0
LINE
  5
315
100
AcDbEntity
  8
128-200_FEATURES
100
AcDbLine
 62
7
  6
CONTINUOUS
 10
6.0827710351
 20
3.6783064872
 11
6.0827710351
 21
4.9795681826
  0
LINE
  5
316
100
AcDbEntity
  8
03__ASM_ALL_CURVES
100
AcDbLine
 62
40
  6
CONTINUOUS
 10
6.1867397844
 20
5.5083291826
 11
6.1867397844
 21
5.3864541826
  0
LINE
  5
317
100
AcDbEntity
  8
03__ASM_ALL_CURVES
100
AcDbLine
 62
40
  6
CONTINUOUS
 10
6.5066616594
 20
5.4473916826
 11
6.5142788469
 21
5.4778604326
  0
LINE
  5
318
100
AcDbEntity
  8
03__ASM_ALL_CURVES
100
AcDbLine
 62
40
  6
CONTINUOUS
 10
7.0017788469
 20
5.4778604326
 11
7.0170132219
 21
5.498172935
  0
LINE
  5
319
100
AcDbEntity
  8
03__ASM_ALL_CURVES
100
AcDbLine
 62
40
  6
CONTINUOUS
 10
7.0779507219
 20
5.4169229326
 11
7.0627163469
 21
5.3966104329
  0
LINE
  5
31A
100
AcDbEntity
  8
0
100
AcDbLine
 62
7
  6
CONTINUOUS
 10
3.6262710351
 20
4.5940681826
 11
3.6102710351
 21
4.5940681826
  0
LINE
  5
31B
100
AcDbEntity
  8
0
100
AcDbLine
 62
7
  6
CONTINUOUS
 10
3.8487710351
 20
4.5995681826
 11
3.8177710351
 21
4.5995681826
  0
LINE
  5
31C
100
AcDbEntity
  8
0
100
AcDbLine
 62
7
  6
CONTINUOUS
 10
3.6047710351
 20
4.5995681826
 11
3.5987710351
 21
4.5995681826
  0
LINE
  5
31D
100
AcDbEntity
  8
0
100
AcDbLine
 62
7
  6
CONTINUOUS
 10
3.6417710352
 20
4.6095681826
 11
3.8119947568
 21
4.6095681826
  0
LINE
  5
31E
100
AcDbEntity
  8
0
100
AcDbLine
 62
7
  6
CONTINUOUS
 10
5.2500678412
 20
4.6632961804
 11
4.5561552091
 21
4.6632961804
  0
LINE
  5
31F
100
AcDbEntity
  8
0
100
AcDbLine
 62
7
  6
CONTINUOUS
 10
5.2500678412
 20
4.7024791837
 11
4.5561552091
 21
4.7024791837
  0
LINE
  5
320
100
AcDbEntity
  8
03__ASM_ALL_CURVES
100
AcDbLine
 62
40
  6
CONTINUOUS
 10
6.9272260779
 20
3.2137791203
 11
6.9158002966
 21
3.2290134951
  0
LINE
  5
321
100
AcDbEntity
  8
03__ASM_ALL_CURVES
100
AcDbLine
 62
40
  6
CONTINUOUS
 10
6.8700971716
 20
3.2899509969
 11
6.8758100622
 21
3.2823338058
  0
LINE
  5
322
100
AcDbEntity
  8
03__ASM_ALL_CURVES
100
AcDbLine
 62
40
  6
CONTINUOUS
 10
6.9615034216
 20
3.2899509969
 11
6.9729292029
 21
3.2747166201
  0
LINE
  5
323
100
AcDbEntity
  8
03__ASM_ALL_CURVES
100
AcDbLine
 62
40
  6
CONTINUOUS
 10
7.0529096716
 20
3.2899509969
 11
7.0586225622
 21
3.2823338058
  0
LINE
  5
324
100
AcDbEntity
  8
03__ASM_ALL_CURVES
100
AcDbLine
 62
40
  6
CONTINUOUS
 10
5.7830288469
 20
5.4169229326
 11
5.7754116594
 21
5.4473916826
  0
LINE
  5
325
100
AcDbEntity
  8
03__ASM_ALL_CURVES
100
AcDbLine
 62
40
  6
CONTINUOUS
 10
5.8592007219
 20
5.4778604326
 11
5.8668179094
 21
5.4473916826
  0
LINE
  5
326
100
AcDbEntity
  8
03__ASM_ALL_CURVES
100
AcDbLine
 62
40
  6
CONTINUOUS
 10
5.9049038469
 20
5.4169229326
 11
5.8972866594
 21
5.4473916826
  0
LINE
  5
327
100
AcDbEntity
  8
03__ASM_ALL_CURVES
100
AcDbLine
 62
40
  6
CONTINUOUS
 10
6.3086147844
 20
5.5083291826
 11
6.3086147844
 21
5.3864541826
  0
LINE
  5
328
100
AcDbEntity
  8
03__ASM_ALL_CURVES
100
AcDbLine
 62
40
  6
CONTINUOUS
 10
6.4000210344
 20
5.3864541826
 11
6.4000210344
 21
5.5083291826
  0
LINE
  5
329
100
AcDbEntity
  8
03__ASM_ALL_CURVES
100
AcDbLine
 62
40
  6
CONTINUOUS
 10
7.1922085344
 20
5.4067666832
 11
7.1845913469
 21
5.3966104329
  0
LINE
  5
32A
100
AcDbEntity
  8
03__ASM_ALL_CURVES
100
AcDbLine
 62
40
  6
CONTINUOUS
 10
7.4359585344
 20
5.4169229326
 11
7.4207241594
 21
5.3966104329
  0
LINE
  5
32B
100
AcDbEntity
  8
THREAD
100
AcDbLine
 62
7
  6
CONTINUOUS
 10
6.0608507249
 20
3.6556478724
 11
6.0322710351
 21
3.6270681826
  0
LINE
  5
32C
100
AcDbEntity
  8
0
100
AcDbLine
 62
7
  6
CONTINUOUS
 10
7.2862710351
 20
4.8580681826
 11
6.7405984834
 21
4.8580681826
  0
LINE
  5
32D
100
AcDbEntity
  8
0
100
AcDbLine
 62
7
  6
CONTINUOUS
 10
6.6969435868
 20
4.8580681826
 11
6.5047710351
 21
4.8580681826
  0
LINE
  5
32E
100
AcDbEntity
  8
0
100
AcDbLine
 62
7
  6
CONTINUOUS
 10
7.8337710351
 20
4.8645681826
 11
7.8127710351
 21
4.8645681826
  0
LINE
  5
32F
100
AcDbEntity
  8
03__ASM_ALL_CURVES
100
AcDbLine
 62
40
  6
CONTINUOUS
 10
3.1830210351
 20
5.3133291826
 11
3.0367710351
 21
5.3377041826
  0
LINE
  5
330
100
AcDbEntity
  8
03__ASM_ALL_CURVES
100
AcDbLine
 62
40
  6
CONTINUOUS
 10
4.2552710351
 20
5.4575479302
 11
4.2781225976
 21
5.4473916826
  0
LINE
  5
331
100
AcDbEntity
  8
03__ASM_ALL_CURVES
100
AcDbLine
 62
40
  6
CONTINUOUS
 10
4.7503882226
 20
5.5083291826
 11
4.7656225976
 21
5.498172935
  0
LINE
  5
332
100
AcDbEntity
  8
03__ASM_ALL_CURVES
100
AcDbLine
 62
40
  6
CONTINUOUS
 10
7.2357221716
 20
3.2899509969
 11
7.2414350622
 21
3.2823338058
  0
LINE
  5
333
100
AcDbEntity
  8
03__ASM_ALL_CURVES
100
AcDbLine
 62
40
  6
CONTINUOUS
 10
6.0648647844
 20
5.5083291826
 11
6.1029507219
 21
5.3864541826
  0
LINE
  5
334
100
AcDbEntity
  8
03__ASM_ALL_CURVES
100
AcDbLine
 62
40
  6
CONTINUOUS
 10
6.4609585344
 20
5.3864541826
 11
6.4609585344
 21
5.5083291826
  0
LINE
  5
335
100
AcDbEntity
  8
0
100
AcDbLine
 62
7
  6
CONTINUOUS
 10
6.4917710351
 20
3.6775681826
 11
6.4917710351
 21
4.9795681826
  0
LINE
  5
336
100
AcDbEntity
  8
0
100
AcDbLine
 62
7
  6
CONTINUOUS
 10
6.5047710351
 20
3.6905681826
 11
6.5047710351
 21
4.9665681826
  0
LINE
  5
337
100
AcDbEntity
  8
03__ASM_ALL_CURVES
100
AcDbLine
 62
40
  6
CONTINUOUS
 10
6.5828335344
 20
5.4473916826
 11
6.5828335344
 21
5.4067666832
  0
LINE
  5
338
100
AcDbEntity
  8
03__ASM_ALL_CURVES
100
AcDbLine
 62
40
  6
CONTINUOUS
 10
7.6797085344
 20
5.467704185
 11
7.6720913469
 21
5.4575479302
  0
LINE
  5
339
100
AcDbEntity
  8
0
100
AcDbLine
 62
7
  6
CONTINUOUS
 10
7.5157710351
 20
4.9390681826
 11
7.5287710351
 21
4.9520681826
  0
LINE
  5
33A
100
AcDbEntity
  8
0
100
AcDbLine
 62
7
  6
CONTINUOUS
 10
4.5047710351
 20
4.9225681826
 11
3.9107710351
 21
4.9225681826
  0
LINE
  5
33B
100
AcDbEntity
  8
0
100
AcDbLine
 62
7
  6
CONTINUOUS
 10
7.5287710351
 20
4.9520681826
 11
7.6097710351
 21
4.9520681826
  0
LINE
  5
33C
100
AcDbEntity
  8
0
100
AcDbLine
 62
7
  6
CONTINUOUS
 10
7.8337710351
 20
4.9520681826
 11
7.8807710351
 21
4.9520681826
  0
LINE
  5
33D
100
AcDbEntity
  8
0
100
AcDbLine
 62
7
  6
CONTINUOUS
 10
7.6097710351
 20
4.9525681826
 11
7.6597710351
 21
4.9525681826
  0
LINE
  5
33E
100
AcDbEntity
  8
0
100
AcDbLine
 62
7
  6
CONTINUOUS
 10
7.7627710351
 20
4.9525681826
 11
7.8127710351
 21
4.9525681826
  0
LINE
  5
33F
100
AcDbEntity
  8
THREAD
100
AcDbLine
 62
7
  6
CONTINUOUS
 10
6.4917710351
 20
4.9795681826
 11
6.0827710351
 21
4.9795681826
  0
LINE
  5
340
100
AcDbEntity
  8
THREAD
100
AcDbLine
 62
7
  6
CONTINUOUS
 10
6.0322710351
 20
5.0300681826
 11
5.7214838481
 21
5.0300681826
  0
LINE
  5
341
100
AcDbEntity
  8
0
100
AcDbLine
 62
7
  6
CONTINUOUS
 10
5.2500678412
 20
5.0372071815
 11
4.5561552091
 21
5.0372071815
  0
LINE
  5
342
100
AcDbEntity
  8
0
100
AcDbLine
 62
7
  6
CONTINUOUS
 10
5.2500678412
 20
5.0375681826
 11
4.5561552091
 21
5.0375681826
  0
LINE
  5
343
100
AcDbEntity
  8
THREAD
100
AcDbLine
 62
7
  6
CONTINUOUS
 10
5.5207710351
 20
5.0460681826
 11
5.4737710351
 21
5.0460681826
  0
LINE
  5
344
100
AcDbEntity
  8
0
100
AcDbLine
 62
7
  6
CONTINUOUS
 10
5.6237710351
 20
5.0465681826
 11
5.6737710351
 21
5.0465681826
  0
LINE
  5
345
100
AcDbEntity
  8
0
100
AcDbLine
 62
7
  6
CONTINUOUS
 10
5.4737710351
 20
5.1080681826
 11
5.2907710351
 21
5.1080681826
  0
LINE
  5
346
100
AcDbEntity
  8
03__ASM_ALL_CURVES
100
AcDbLine
 62
40
  6
CONTINUOUS
 10
3.1830210351
 20
5.3255166826
 11
3.0367710351
 21
5.3377041826
  0
LINE
  5
347
100
AcDbEntity
  8
03__ASM_ALL_CURVES
100
AcDbLine
 62
40
  6
CONTINUOUS
 10
3.1830210351
 20
5.3214541826
 11
3.0367710351
 21
5.3377041826
  0
LINE
  5
348
100
AcDbEntity
  8
03__ASM_ALL_CURVES
100
AcDbLine
 62
40
  6
CONTINUOUS
 10
3.1830210351
 20
5.3173916826
 11
3.0367710351
 21
5.3377041826
  0
LINE
  5
349
100
AcDbEntity
  8
THREAD
100
AcDbLine
 62
7
  6
CONTINUOUS
 10
6.0827710351
 20
4.9795681826
 11
6.0322710351
 21
5.0300681826
  0
LINE
  5
34A
100
AcDbEntity
  8
0
100
AcDbLine
 62
7
  6
CONTINUOUS
 10
7.5157710351
 20
3.7180681826
 11
7.5287710351
 21
3.7050681826
  0
LINE
  5
34B
100
AcDbEntity
  8
03__ASM_ALL_CURVES
100
AcDbLine
 62
40
  6
CONTINUOUS
 10
5.7982632219
 20
5.3966104329
 11
5.7830288469
 21
5.4169229326
  0
LINE
  5
34C
100
AcDbEntity
  8
03__ASM_ALL_CURVES
100
AcDbLine
 62
40
  6
CONTINUOUS
 10
5.9201382219
 20
5.3966104329
 11
5.9049038469
 21
5.4169229326
  0
LINE
  5
34D
100
AcDbEntity
  8
03__ASM_ALL_CURVES
100
AcDbLine
 62
40
  6
CONTINUOUS
 10
5.8439663469
 20
5.498172935
 11
5.8592007219
 21
5.4778604326
  0
LINE
  5
34E
100
AcDbEntity
  8
03__ASM_ALL_CURVES
100
AcDbLine
 62
40
  6
CONTINUOUS
 10
7.0414838904
 20
3.2518650576
 11
7.0586225622
 21
3.2061619326
  0
LINE
  5
34F
100
AcDbEntity
  8
03__ASM_ALL_CURVES
100
AcDbLine
 62
40
  6
CONTINUOUS
 10
6.7815473548
 20
3.0888572451
 11
6.7758344642
 21
3.1117088076
  0
LINE
  5
350
100
AcDbEntity
  8
03__ASM_ALL_CURVES
100
AcDbLine
 62
40
  6
CONTINUOUS
 10
6.8386762611
 20
3.1345603701
 11
6.8443891517
 21
3.1117088076
  0
LINE
  5
351
100
AcDbEntity
  8
03__ASM_ALL_CURVES
100
AcDbLine
 62
40
  6
CONTINUOUS
 10
6.9158002966
 20
3.2290134951
 11
6.910087406
 21
3.2518650576
  0
LINE
  5
352
100
AcDbEntity
  8
0
100
AcDbLine
 62
7
  6
CONTINUOUS
 10
6.6969435868
 20
3.7991397762
 11
6.6969435868
 21
4.8580681826
  0
LINE
  5
353
100
AcDbEntity
  8
0
100
AcDbLine
 62
7
  6
CONTINUOUS
 10
6.7405984834
 20
3.7991397762
 11
6.7405984834
 21
4.8580681826
  0
LINE
  5
354
100
AcDbEntity
  8
03__ASM_ALL_CURVES
100
AcDbLine
 62
40
  6
CONTINUOUS
 10
6.7656460344
 20
5.4880166802
 11
6.7656460344
 21
5.4778604326
  0
LINE
  5
355
100
AcDbEntity
  8
03__ASM_ALL_CURVES
100
AcDbLine
 62
40
  6
CONTINUOUS
 10
6.8265835344
 20
5.4270791838
 11
6.8265835344
 21
5.4067666832
  0
LINE
  5
356
100
AcDbEntity
  8
03__ASM_ALL_CURVES
100
AcDbLine
 62
40
  6
CONTINUOUS
 10
6.8301069372
 20
3.2061619326
 11
6.8301069372
 21
3.2975681826
  0
LINE
  5
357
100
AcDbEntity
  8
03__ASM_ALL_CURVES
100
AcDbLine
 62
40
  6
CONTINUOUS
 10
6.9941616594
 20
5.4473916826
 11
7.0017788469
 21
5.4778604326
  0
LINE
  5
358
100
AcDbEntity
  8
03__ASM_ALL_CURVES
100
AcDbLine
 62
40
  6
CONTINUOUS
 10
7.0855679094
 20
5.4473916826
 11
7.0779507219
 21
5.4169229326
  0
LINE
  5
359
100
AcDbEntity
  8
0
100
AcDbLine
 62
7
  6
CONTINUOUS
 10
6.5047710351
 20
3.6905681826
 11
6.4917710351
 21
3.6775681826
  0
LINE
  5
35A
100
AcDbEntity
  8
03__ASM_ALL_CURVES
100
AcDbLine
 62
40
  6
CONTINUOUS
 10
3.1830210351
 20
5.3336416826
 11
3.0367710351
 21
5.3377041826
  0
LINE
  5
35B
100
AcDbEntity
  8
03__ASM_ALL_CURVES
100
AcDbLine
 62
40
  6
CONTINUOUS
 10
3.1830210351
 20
5.3295791826
 11
3.0367710351
 21
5.3377041826
  0
LINE
  5
35C
100
AcDbEntity
  8
03__ASM_ALL_CURVES
100
AcDbLine
 62
40
  6
CONTINUOUS
 10
5.3275210351
 20
5.3458291826
 11
5.6200210351
 21
5.3295791826
  0
LINE
  5
35D
100
AcDbEntity
  8
03__ASM_ALL_CURVES
100
AcDbLine
 62
40
  6
CONTINUOUS
 10
5.3275210351
 20
5.3498916826
 11
5.6200210351
 21
5.3255166826
  0
LINE
  5
35E
100
AcDbEntity
  8
03__ASM_ALL_CURVES
100
AcDbLine
 62
40
  6
CONTINUOUS
 10
5.3275210351
 20
5.3539541826
 11
5.6200210351
 21
5.3214541826
  0
LINE
  5
35F
100
AcDbEntity
  8
03__ASM_ALL_CURVES
100
AcDbLine
 62
40
  6
CONTINUOUS
 10
5.3275210351
 20
5.3580166826
 11
5.6200210351
 21
5.3173916826
  0
LINE
  5
360
100
AcDbEntity
  8
03__ASM_ALL_CURVES
100
AcDbLine
 62
40
  6
CONTINUOUS
 10
5.6200210351
 20
5.3133291826
 11
5.3275210351
 21
5.3620791826
  0
LINE
  5
361
100
AcDbEntity
  8
03__ASM_ALL_CURVES
100
AcDbLine
 62
40
  6
CONTINUOUS
 10
5.8134975969
 20
5.3864541826
 11
5.7982632219
 21
5.3966104329
  0
LINE
  5
362
100
AcDbEntity
  8
03__ASM_ALL_CURVES
100
AcDbLine
 62
40
  6
CONTINUOUS
 10
5.9353725969
 20
5.3864541826
 11
5.9201382219
 21
5.3966104329
  0
LINE
  5
363
100
AcDbEntity
  8
03__ASM_ALL_CURVES
100
AcDbLine
 62
40
  6
CONTINUOUS
 10
5.8287319719
 20
5.5083291826
 11
5.8439663469
 21
5.498172935
  0
LINE
  5
364
100
AcDbEntity
  8
0
100
AcDbLine
 62
7
  6
CONTINUOUS
 10
6.5047710351
 20
4.9665681826
 11
6.4917710351
 21
4.9795681826
  0
LINE
  5
365
100
AcDbEntity
  8
03__ASM_ALL_CURVES
100
AcDbLine
 62
40
  6
CONTINUOUS
 10
5.9658413469
 20
5.498172935
 11
5.9734585344
 21
5.4880166802
  0
LINE
  5
366
100
AcDbEntity
  8
03__ASM_ALL_CURVES
100
AcDbLine
 62
40
  6
CONTINUOUS
 10
6.9729292029
 20
3.2747166201
 11
6.9786420935
 21
3.2518650576
  0
LINE
  5
367
100
AcDbEntity
  8
03__ASM_ALL_CURVES
100
AcDbLine
 62
40
  6
CONTINUOUS
 10
6.5142788469
 20
5.4169229326
 11
6.5066616594
 21
5.4473916826
  0
LINE
  5
368
100
AcDbEntity
  8
03__ASM_ALL_CURVES
100
AcDbLine
 62
40
  6
CONTINUOUS
 10
6.8758100622
 20
3.2823338058
 11
6.8758100622
 21
3.2670994344
  0
LINE
  5
369
100
AcDbEntity
  8
03__ASM_ALL_CURVES
100
AcDbLine
 62
40
  6
CONTINUOUS
 10
6.8786664954
 20
3.081240058
 11
6.8786664954
 21
3.1574119326
  0
LINE
  5
36A
100
AcDbEntity
  8
03__ASM_ALL_CURVES
100
AcDbLine
 62
40
  6
CONTINUOUS
 10
6.8875210344
 20
5.5083291826
 11
6.8875210344
 21
5.3864541826
  0
LINE
  5
36B
100
AcDbEntity
  8
03__ASM_ALL_CURVES
100
AcDbLine
 62
40
  6
CONTINUOUS
 10
6.9243696204
 20
3.1574119326
 11
6.9243696204
 21
3.081240058
  0
LINE
  5
36C
100
AcDbEntity
  8
03__ASM_ALL_CURVES
100
AcDbLine
 62
40
  6
CONTINUOUS
 10
6.9484585344
 20
5.5083291826
 11
6.9484585344
 21
5.3864541826
  0
LINE
  5
36D
100
AcDbEntity
  8
03__ASM_ALL_CURVES
100
AcDbLine
 62
40
  6
CONTINUOUS
 10
6.9929243079
 20
3.1574119326
 11
6.9929243079
 21
3.0660056826
  0
LINE
  5
36E
100
AcDbEntity
  8
03__ASM_ALL_CURVES
100
AcDbLine
 62
40
  6
CONTINUOUS
 10
7.0129194372
 20
3.2061619326
 11
7.0129194372
 21
3.2975681826
  0
LINE
  5
36F
100
AcDbEntity
  8
03__ASM_ALL_CURVES
100
AcDbLine
 62
40
  6
CONTINUOUS
 10
6.7758344642
 20
3.1117088076
 11
6.7815473548
 21
3.1345603701
  0
LINE
  5
370
100
AcDbEntity
  8
03__ASM_ALL_CURVES
100
AcDbLine
 62
40
  6
CONTINUOUS
 10
5.3275210351
 20
5.3133291826
 11
5.6200210351
 21
5.3620791826
  0
LINE
  5
371
100
AcDbEntity
  8
03__ASM_ALL_CURVES
100
AcDbLine
 62
40
  6
CONTINUOUS
 10
5.3275210351
 20
5.3173916826
 11
5.6200210351
 21
5.3580166826
  0
LINE
  5
372
100
AcDbEntity
  8
03__ASM_ALL_CURVES
100
AcDbLine
 62
40
  6
CONTINUOUS
 10
5.3275210351
 20
5.3214541826
 11
5.6200210351
 21
5.3539541826
  0
LINE
  5
373
100
AcDbEntity
  8
03__ASM_ALL_CURVES
100
AcDbLine
 62
40
  6
CONTINUOUS
 10
5.3275210351
 20
5.3255166826
 11
5.6200210351
 21
5.3498916826
  0
LINE
  5
374
100
AcDbEntity
  8
03__ASM_ALL_CURVES
100
AcDbLine
 62
40
  6
CONTINUOUS
 10
5.3275210351
 20
5.3295791826
 11
5.6200210351
 21
5.3458291826
  0
LINE
  5
375
100
AcDbEntity
  8
03__ASM_ALL_CURVES
100
AcDbLine
 62
40
  6
CONTINUOUS
 10
3.1830210351
 20
5.3458291826
 11
3.0367710351
 21
5.3377041826
  0
LINE
  5
376
100
AcDbEntity
  8
03__ASM_ALL_CURVES
100
AcDbLine
 62
40
  6
CONTINUOUS
 10
5.3275210351
 20
5.3336416826
 11
5.6200210351
 21
5.3417666826
  0
LINE
  5
377
100
AcDbEntity
  8
03__ASM_ALL_CURVES
100
AcDbLine
 62
40
  6
CONTINUOUS
 10
3.1830210351
 20
5.3417666826
 11
3.0367710351
 21
5.3377041826
  0
LINE
  5
378
100
AcDbEntity
  8
03__ASM_ALL_CURVES
100
AcDbLine
 62
40
  6
CONTINUOUS
 10
3.0367710351
 20
5.3377041826
 11
7.8137710351
 21
5.3377041826
  0
LINE
  5
379
100
AcDbEntity
  8
03__ASM_ALL_CURVES
100
AcDbLine
 62
40
  6
CONTINUOUS
 10
7.5578335344
 20
5.3864541826
 11
7.4968960344
 21
5.3864541826
  0
LINE
  5
37A
100
AcDbEntity
  8
03__ASM_ALL_CURVES
100
AcDbLine
 62
40
  6
CONTINUOUS
 10
7.4054897844
 20
5.3864541826
 11
7.3750210344
 21
5.3864541826
  0
LINE
  5
37B
100
AcDbEntity
  8
03__ASM_ALL_CURVES
100
AcDbLine
 62
40
  6
CONTINUOUS
 10
7.1693569719
 20
5.3864541826
 11
7.1541225969
 21
5.3864541826
  0
LINE
  5
37C
100
AcDbEntity
  8
03__ASM_ALL_CURVES
100
AcDbLine
 62
40
  6
CONTINUOUS
 10
7.0474819719
 20
5.3864541826
 11
7.0322475969
 21
5.3864541826
  0
LINE
  5
37D
100
AcDbEntity
  8
03__ASM_ALL_CURVES
100
AcDbLine
 62
40
  6
CONTINUOUS
 10
6.8037319719
 20
5.3864541826
 11
6.7884975969
 21
5.3864541826
  0
LINE
  5
37E
100
AcDbEntity
  8
03__ASM_ALL_CURVES
100
AcDbLine
 62
40
  6
CONTINUOUS
 10
6.5599819719
 20
5.3864541826
 11
6.5447475969
 21
5.3864541826
  0
LINE
  5
37F
100
AcDbEntity
  8
03__ASM_ALL_CURVES
100
AcDbLine
 62
40
  6
CONTINUOUS
 10
5.9506069719
 20
5.3864541826
 11
5.9353725969
 21
5.3864541826
  0
LINE
  5
380
100
AcDbEntity
  8
03__ASM_ALL_CURVES
100
AcDbLine
 62
40
  6
CONTINUOUS
 10
5.8287319719
 20
5.3864541826
 11
5.8134975969
 21
5.3864541826
  0
LINE
  5
381
100
AcDbEntity
  8
03__ASM_ALL_CURVES
100
AcDbLine
 62
40
  6
CONTINUOUS
 10
4.4990210351
 20
5.3864541826
 11
4.4914038476
 21
5.3864541826
  0
LINE
  5
382
100
AcDbEntity
  8
03__ASM_ALL_CURVES
100
AcDbLine
 62
40
  6
CONTINUOUS
 10
4.0191382226
 20
5.3864541826
 11
4.0039038476
 21
5.3864541826
  0
LINE
  5
383
100
AcDbEntity
  8
03__ASM_ALL_CURVES
100
AcDbLine
 62
40
  6
CONTINUOUS
 10
3.7677710351
 20
5.3864541826
 11
3.7601538476
 21
5.3864541826
  0
LINE
  5
384
100
AcDbEntity
  8
03__ASM_ALL_CURVES
100
AcDbLine
 62
40
  6
CONTINUOUS
 10
3.6154272851
 20
5.3864541826
 11
3.6763647851
 21
5.3864541826
  0
LINE
  5
385
100
AcDbEntity
  8
03__ASM_ALL_CURVES
100
AcDbLine
 62
40
  6
CONTINUOUS
 10
4.7123022851
 20
5.3864541826
 11
4.7732397851
 21
5.3864541826
  0
LINE
  5
386
100
AcDbEntity
  8
03__ASM_ALL_CURVES
100
AcDbLine
 62
40
  6
CONTINUOUS
 10
5.6687710344
 20
5.3864541826
 11
5.7297085344
 21
5.3864541826
  0
LINE
  5
387
100
AcDbEntity
  8
03__ASM_ALL_CURVES
100
AcDbLine
 62
40
  6
CONTINUOUS
 10
7.2531460344
 20
5.3864541826
 11
7.3140835344
 21
5.3864541826
  0
LINE
  5
388
100
AcDbEntity
  8
03__ASM_ALL_CURVES
100
AcDbLine
 62
40
  6
CONTINUOUS
 10
3.8591772851
 20
5.4169229326
 11
3.9277319726
 21
5.4169229326
  0
LINE
  5
389
100
AcDbEntity
  8
03__ASM_ALL_CURVES
100
AcDbLine
 62
40
  6
CONTINUOUS
 10
6.0420132219
 20
5.4270791838
 11
6.0877163469
 21
5.4270791838
  0
LINE
  5
38A
100
AcDbEntity
  8
03__ASM_ALL_CURVES
100
AcDbLine
 62
40
  6
CONTINUOUS
 10
7.6568569719
 20
5.4473916826
 11
7.6187710344
 21
5.4473916826
  0
LINE
  5
38B
100
AcDbEntity
  8
03__ASM_ALL_CURVES
100
AcDbLine
 62
40
  6
CONTINUOUS
 10
6.5523647844
 20
5.4473916826
 11
6.5828335344
 21
5.4473916826
  0
LINE
  5
38C
100
AcDbEntity
  8
03__ASM_ALL_CURVES
100
AcDbLine
 62
40
  6
CONTINUOUS
 10
6.8875210344
 20
5.4473916826
 11
6.9484585344
 21
5.4473916826
  0
LINE
  5
38D
100
AcDbEntity
  8
03__ASM_ALL_CURVES
100
AcDbLine
 62
40
  6
CONTINUOUS
 10
7.4968960344
 20
5.4473916826
 11
7.5349819719
 21
5.4473916826
  0
LINE
  5
38E
100
AcDbEntity
  8
03__ASM_ALL_CURVES
100
AcDbLine
 62
40
  6
CONTINUOUS
 10
4.0039038476
 20
5.4575479302
 11
4.0191382226
 21
5.4575479302
  0
LINE
  5
38F
100
AcDbEntity
  8
03__ASM_ALL_CURVES
100
AcDbLine
 62
40
  6
CONTINUOUS
 10
6.8037319719
 20
5.5083291826
 11
6.7884975969
 21
5.5083291826
  0
LINE
  5
390
100
AcDbEntity
  8
03__ASM_ALL_CURVES
100
AcDbLine
 62
40
  6
CONTINUOUS
 10
4.6513647851
 20
5.5083291826
 11
4.5904272851
 21
5.5083291826
  0
LINE
  5
391
100
AcDbEntity
  8
03__ASM_ALL_CURVES
100
AcDbLine
 62
40
  6
CONTINUOUS
 10
3.6382788476
 20
5.5083291826
 11
3.6535132226
 21
5.5083291826
  0
LINE
  5
392
100
AcDbEntity
  8
03__ASM_ALL_CURVES
100
AcDbLine
 62
40
  6
CONTINUOUS
 10
4.0039038476
 20
5.5083291826
 11
4.0191382226
 21
5.5083291826
  0
LINE
  5
393
100
AcDbEntity
  8
03__ASM_ALL_CURVES
100
AcDbLine
 62
40
  6
CONTINUOUS
 10
4.7351538476
 20
5.5083291826
 11
4.7503882226
 21
5.5083291826
  0
LINE
  5
394
100
AcDbEntity
  8
03__ASM_ALL_CURVES
100
AcDbLine
 62
40
  6
CONTINUOUS
 10
5.8134975969
 20
5.5083291826
 11
5.8287319719
 21
5.5083291826
  0
LINE
  5
395
100
AcDbEntity
  8
03__ASM_ALL_CURVES
100
AcDbLine
 62
40
  6
CONTINUOUS
 10
5.9353725969
 20
5.5083291826
 11
5.9506069719
 21
5.5083291826
  0
LINE
  5
396
100
AcDbEntity
  8
03__ASM_ALL_CURVES
100
AcDbLine
 62
40
  6
CONTINUOUS
 10
6.1486538469
 20
5.5083291826
 11
6.2248257219
 21
5.5083291826
  0
LINE
  5
397
100
AcDbEntity
  8
03__ASM_ALL_CURVES
100
AcDbLine
 62
40
  6
CONTINUOUS
 10
6.5447475969
 20
5.5083291826
 11
6.5599819719
 21
5.5083291826
  0
LINE
  5
398
100
AcDbEntity
  8
03__ASM_ALL_CURVES
100
AcDbLine
 62
40
  6
CONTINUOUS
 10
7.0322475969
 20
5.5083291826
 11
7.0474819719
 21
5.5083291826
  0
LINE
  5
399
100
AcDbEntity
  8
03__ASM_ALL_CURVES
100
AcDbLine
 62
40
  6
CONTINUOUS
 10
7.3750210344
 20
5.5083291826
 11
7.4054897844
 21
5.5083291826
  0
LINE
  5
39A
100
AcDbEntity
  8
03__ASM_ALL_CURVES
100
AcDbLine
 62
40
  6
CONTINUOUS
 10
7.4968960344
 20
5.5083291826
 11
7.5578335344
 21
5.5083291826
  0
LINE
  5
39B
100
AcDbEntity
  8
03__ASM_ALL_CURVES
100
AcDbLine
 62
40
  6
CONTINUOUS
 10
7.6187710344
 20
5.5083291826
 11
7.6568569719
 21
5.5083291826
  0
LINE
  5
39C
100
AcDbEntity
  8
03__ASM_ALL_CURVES
100
AcDbLine
 62
40
  6
CONTINUOUS
 10
5.3275210351
 20
5.3417666826
 11
5.6200210351
 21
5.3336416826
  0
LINE
  5
39D
100
AcDbEntity
  8
03__ASM_ALL_CURVES
100
AcDbLine
 62
40
  6
CONTINUOUS
 10
5.9506069719
 20
5.5083291826
 11
5.9658413469
 21
5.498172935
  0
LINE
  5
39E
100
AcDbEntity
  8
03__ASM_ALL_CURVES
100
AcDbLine
 62
40
  6
CONTINUOUS
 10
6.4000210344
 20
5.5083291826
 11
6.4609585344
 21
5.3864541826
  0
LINE
  5
39F
100
AcDbEntity
  8
03__ASM_ALL_CURVES
100
AcDbLine
 62
40
  6
CONTINUOUS
 10
7.0586225622
 20
3.2823338058
 11
7.0586225622
 21
3.2670994344
  0
LINE
  5
3A0
100
AcDbEntity
  8
03__ASM_ALL_CURVES
100
AcDbLine
 62
40
  6
CONTINUOUS
 10
7.0614789954
 20
3.1574119326
 11
7.0614789954
 21
3.0660056826
  0
LINE
  5
3A1
100
AcDbEntity
  8
03__ASM_ALL_CURVES
100
AcDbLine
 62
40
  6
CONTINUOUS
 10
7.1271772497
 20
3.2975681826
 11
7.1271772497
 21
3.2061619326
  0
LINE
  5
3A2
100
AcDbEntity
  8
03__ASM_ALL_CURVES
100
AcDbLine
 62
40
  6
CONTINUOUS
 10
7.1312710344
 20
5.4067666832
 11
7.1312710344
 21
5.5083291826
  0
LINE
  5
3A3
100
AcDbEntity
  8
03__ASM_ALL_CURVES
100
AcDbLine
 62
40
  6
CONTINUOUS
 10
7.1528852454
 20
3.0660056826
 11
7.1528852454
 21
3.1574119326
  0
LINE
  5
3A4
100
AcDbEntity
  8
03__ASM_ALL_CURVES
100
AcDbLine
 62
40
  6
CONTINUOUS
 10
7.1922085344
 20
5.5083291826
 11
7.1922085344
 21
5.4067666832
  0
LINE
  5
3A5
100
AcDbEntity
  8
03__ASM_ALL_CURVES
100
AcDbLine
 62
40
  6
CONTINUOUS
 10
6.8443891517
 20
3.1117088076
 11
6.8386762611
 21
3.0888572451
  0
LINE
  5
3A6
100
AcDbEntity
  8
03__ASM_ALL_CURVES
100
AcDbLine
 62
40
  6
CONTINUOUS
 10
7.4435757219
 20
5.4473916826
 11
7.4359585344
 21
5.4169229326
  0
LINE
  5
3A7
100
AcDbEntity
  8
03__ASM_ALL_CURVES
100
AcDbLine
 62
40
  6
CONTINUOUS
 10
6.910087406
 20
3.2518650576
 11
6.9158002966
 21
3.2747166201
  0
LINE
  5
3A8
100
AcDbEntity
  8
03__ASM_ALL_CURVES
100
AcDbLine
 62
40
  6
CONTINUOUS
 10
6.9786420935
 20
3.2518650576
 11
6.9729292029
 21
3.2290134951
  0
LINE
  5
3A9
100
AcDbEntity
  8
03__ASM_ALL_CURVES
100
AcDbLine
 62
40
  6
CONTINUOUS
 10
8.2117612699
 20
4.4062634933
 11
8.2003354886
 21
4.3986463076
  0
LINE
  5
3AA
100
AcDbEntity
  8
03__ASM_ALL_CURVES
100
AcDbLine
 62
40
  6
CONTINUOUS
 10
8.2688901761
 20
4.4367322469
 11
8.2803159574
 21
4.4443494326
  0
LINE
  5
3AB
100
AcDbEntity
  8
03__ASM_ALL_CURVES
100
AcDbLine
 62
40
  6
CONTINUOUS
 10
8.3031675199
 20
4.3605603703
 11
8.2917417386
 21
4.3529431826
  0
LINE
  5
3AC
100
AcDbEntity
  8
03__ASM_ALL_CURVES
100
AcDbLine
 62
40
  6
CONTINUOUS
 10
8.3945737699
 20
4.4062634933
 11
8.3831479886
 21
4.3986463076
  0
LINE
  5
3AD
100
AcDbEntity
  8
03__ASM_ALL_CURVES
100
AcDbLine
 62
40
  6
CONTINUOUS
 10
3.1830210351
 20
5.3580166826
 11
3.0367710351
 21
5.3377041826
  0
LINE
  5
3AE
100
AcDbEntity
  8
03__ASM_ALL_CURVES
100
AcDbLine
 62
40
  6
CONTINUOUS
 10
3.1830210351
 20
5.3539541826
 11
3.0367710351
 21
5.3377041826
  0
LINE
  5
3AF
100
AcDbEntity
  8
03__ASM_ALL_CURVES
100
AcDbLine
 62
40
  6
CONTINUOUS
 10
3.1830210351
 20
5.3498916826
 11
3.0367710351
 21
5.3377041826
  0
LINE
  5
3B0
100
AcDbEntity
  8
03__ASM_ALL_CURVES
100
AcDbLine
 62
40
  6
CONTINUOUS
 10
6.5447475969
 20
5.3864541826
 11
6.5295132219
 21
5.3966104329
  0
LINE
  5
3B1
100
AcDbEntity
  8
03__ASM_ALL_CURVES
100
AcDbLine
 62
40
  6
CONTINUOUS
 10
8.2803159574
 20
4.3529431826
 11
8.2688901761
 21
4.3605603703
  0
LINE
  5
3B2
100
AcDbEntity
  8
03__ASM_ALL_CURVES
100
AcDbLine
 62
40
  6
CONTINUOUS
 10
6.5599819719
 20
5.5083291826
 11
6.5752163469
 21
5.498172935
  0
LINE
  5
3B3
100
AcDbEntity
  8
03__ASM_ALL_CURVES
100
AcDbLine
 62
40
  6
CONTINUOUS
 10
6.5295132219
 20
5.3966104329
 11
6.5142788469
 21
5.4169229326
  0
LINE
  5
3B4
100
AcDbEntity
  8
03__ASM_ALL_CURVES
100
AcDbLine
 62
40
  6
CONTINUOUS
 10
6.5752163469
 20
5.498172935
 11
6.5828335344
 21
5.4880166802
  0
LINE
  5
3B5
100
AcDbEntity
  8
03__ASM_ALL_CURVES
100
AcDbLine
 62
40
  6
CONTINUOUS
 10
7.2414350622
 20
3.2823338058
 11
7.2414350622
 21
3.2670994344
  0
LINE
  5
3B6
100
AcDbEntity
  8
03__ASM_ALL_CURVES
100
AcDbLine
 62
40
  6
CONTINUOUS
 10
7.2531460344
 20
5.5083291826
 11
7.2531460344
 21
5.3864541826
  0
LINE
  5
3B7
100
AcDbEntity
  8
03__ASM_ALL_CURVES
100
AcDbLine
 62
40
  6
CONTINUOUS
 10
7.2671430579
 20
3.1574119326
 11
7.2671430579
 21
3.0660056826
  0
LINE
  5
3B8
100
AcDbEntity
  8
0
100
AcDbLine
 62
7
  6
CONTINUOUS
 10
7.2867710351
 20
4.3234268206
 11
7.2867710351
 21
4.3336607929
  0
LINE
  5
3B9
100
AcDbEntity
  8
0
100
AcDbLine
 62
7
  6
CONTINUOUS
 10
7.2937710351
 20
4.2892776866
 11
7.2937710351
 21
4.367750647
  0
LINE
  5
3BA
100
AcDbEntity
  8
0
100
AcDbLine
 62
7
  6
CONTINUOUS
 10
7.3317710351
 20
4.0082225631
 11
7.3317710351
 21
4.0219383305
  0
LINE
  5
3BB
100
AcDbEntity
  8
0
100
AcDbLine
 62
7
  6
CONTINUOUS
 10
7.3317710351
 20
4.2399870883
 11
7.3317710351
 21
4.4170563967
  0
LINE
  5
3BC
100
AcDbEntity
  8
0
100
AcDbLine
 62
7
  6
CONTINUOUS
 10
7.3317710351
 20
4.6352268319
 11
7.3317710351
 21
4.6489126899
  0
LINE
  5
3BD
100
AcDbEntity
  8
0
100
AcDbLine
 62
7
  6
CONTINUOUS
 10
7.3387710351
 20
4.6513901102
 11
7.3387710351
 21
4.6311118819
  0
LINE
  5
3BE
100
AcDbEntity
  8
0
100
AcDbLine
 62
7
  6
CONTINUOUS
 10
7.3387710351
 20
4.0057471225
 11
7.3387710351
 21
4.0259343085
  0
LINE
  5
3BF
100
AcDbEntity
  8
0
100
AcDbLine
 62
7
  6
CONTINUOUS
 10
7.3387710351
 20
4.2355513585
 11
7.3387710351
 21
4.4216367587
  0
LINE
  5
3C0
100
AcDbEntity
  8
0
100
AcDbLine
 62
7
  6
CONTINUOUS
 10
7.3487710351
 20
4.6541707411
 11
7.3487710351
 21
4.6268710028
  0
LINE
  5
3C1
100
AcDbEntity
  8
0
100
AcDbLine
 62
7
  6
CONTINUOUS
 10
7.3487710351
 20
4.0029651635
 11
7.3487710351
 21
4.0302788444
  0
LINE
  5
3C2
100
AcDbEntity
  8
0
100
AcDbLine
 62
7
  6
CONTINUOUS
 10
7.3487710351
 20
4.2300209788
 11
7.3487710351
 21
4.4270408193
  0
LINE
  5
3C3
100
AcDbEntity
  8
0
100
AcDbLine
 62
7
  6
CONTINUOUS
 10
7.3557710351
 20
4.001267305
 11
7.3557710351
 21
4.0331605833
  0
LINE
  5
3C4
100
AcDbEntity
  8
0
100
AcDbLine
 62
7
  6
CONTINUOUS
 10
7.3557710351
 20
4.2269527526
 11
7.3557710351
 21
4.4302670148
  0
LINE
  5
3C5
100
AcDbEntity
  8
0
100
AcDbLine
 62
7
  6
CONTINUOUS
 10
7.3557710351
 20
4.6239023873
 11
7.3557710351
 21
4.6558698976
  0
LINE
  5
3C6
100
AcDbEntity
  8
03__ASM_ALL_CURVES
100
AcDbLine
 62
40
  6
CONTINUOUS
 10
7.3750210344
 20
5.3864541826
 11
7.3750210344
 21
5.5083291826
  0
LINE
  5
3C7
100
AcDbEntity
  8
0
100
AcDbLine
 62
7
  6
CONTINUOUS
 10
7.3937710351
 20
3.9974809026
 11
7.3937710351
 21
4.0395166485
  0
LINE
  5
3C8
100
AcDbEntity
  8
0
100
AcDbLine
 62
7
  6
CONTINUOUS
 10
7.3937710351
 20
4.2191215801
 11
7.3937710351
 21
4.4379189987
  0
LINE
  5
3C9
100
AcDbEntity
  8
0
100
AcDbLine
 62
7
  6
CONTINUOUS
 10
7.3937710351
 20
4.617616181
 11
7.3937710351
 21
4.6596555136
  0
LINE
  5
3CA
100
AcDbEntity
  8
0
100
AcDbLine
 62
7
  6
CONTINUOUS
 10
7.4007710351
 20
4.6595091949
 11
7.4007710351
 21
4.6178633785
  0
LINE
  5
3CB
100
AcDbEntity
  8
0
100
AcDbLine
 62
7
  6
CONTINUOUS
 10
7.4007710351
 20
3.9976269432
 11
7.4007710351
 21
4.0392759345
  0
LINE
  5
3CC
100
AcDbEntity
  8
0
100
AcDbLine
 62
7
  6
CONTINUOUS
 10
7.4007710351
 20
4.219635446
 11
7.4007710351
 21
4.4375461723
  0
LINE
  5
3CD
100
AcDbEntity
  8
0
100
AcDbLine
 62
7
  6
CONTINUOUS
 10
7.4107710351
 20
4.6590217015
 11
7.4107710351
 21
4.61867109
  0
LINE
  5
3CE
100
AcDbEntity
  8
0
100
AcDbLine
 62
7
  6
CONTINUOUS
 10
7.4107710351
 20
3.9981139824
 11
7.4107710351
 21
4.0384741185
  0
LINE
  5
3CF
100
AcDbEntity
  8
0
100
AcDbLine
 62
7
  6
CONTINUOUS
 10
7.4107710351
 20
4.2204714111
 11
7.4107710351
 21
4.436613123
  0
LINE
  5
3D0
100
AcDbEntity
  8
0
100
AcDbLine
 62
7
  6
CONTINUOUS
 10
7.4177710351
 20
3.9985173357
 11
7.4177710351
 21
4.0376353424
  0
LINE
  5
3D1
100
AcDbEntity
  8
0
100
AcDbLine
 62
7
  6
CONTINUOUS
 10
7.4177710351
 20
4.2215061211
 11
7.4177710351
 21
4.4357199162
  0
LINE
  5
3D2
100
AcDbEntity
  8
0
100
AcDbLine
 62
7
  6
CONTINUOUS
 10
7.4177710351
 20
4.6194909353
 11
7.4177710351
 21
4.6586199886
  0
LINE
  5
3D3
100
AcDbEntity
  8
03__ASM_ALL_CURVES
100
AcDbLine
 62
40
  6
CONTINUOUS
 10
7.2014448279
 20
3.2290134951
 11
7.1957319372
 21
3.2061619326
  0
LINE
  5
3D4
100
AcDbEntity
  8
03__ASM_ALL_CURVES
100
AcDbLine
 62
40
  6
CONTINUOUS
 10
6.8758100622
 20
3.2670994344
 11
6.8700971716
 21
3.2594822433
  0
LINE
  5
3D5
100
AcDbEntity
  8
03__ASM_ALL_CURVES
100
AcDbLine
 62
40
  6
CONTINUOUS
 10
6.7815473548
 20
3.1345603701
 11
6.7929731361
 21
3.1497947469
  0
LINE
  5
3D6
100
AcDbEntity
  8
03__ASM_ALL_CURVES
100
AcDbLine
 62
40
  6
CONTINUOUS
 10
6.9158002966
 20
3.2747166201
 11
6.9272260779
 21
3.2899509969
  0
LINE
  5
3D7
100
AcDbEntity
  8
03__ASM_ALL_CURVES
100
AcDbLine
 62
40
  6
CONTINUOUS
 10
6.8386762611
 20
3.0888572451
 11
6.8272504798
 21
3.0736228703
  0
LINE
  5
3D8
100
AcDbEntity
  8
03__ASM_ALL_CURVES
100
AcDbLine
 62
40
  6
CONTINUOUS
 10
6.9729292029
 20
3.2290134951
 11
6.9615034216
 21
3.2137791203
  0
LINE
  5
3D9
100
AcDbEntity
  8
03__ASM_ALL_CURVES
100
AcDbLine
 62
40
  6
CONTINUOUS
 10
7.0586225622
 20
3.2670994344
 11
7.0529096716
 21
3.2594822433
  0
LINE
  5
3DA
100
AcDbEntity
  8
03__ASM_ALL_CURVES
100
AcDbLine
 62
40
  6
CONTINUOUS
 10
6.9243696204
 20
3.081240058
 11
6.9186567298
 21
3.0736228703
  0
LINE
  5
3DB
100
AcDbEntity
  8
03__ASM_ALL_CURVES
100
AcDbLine
 62
40
  6
CONTINUOUS
 10
6.8700971716
 20
3.2594822433
 11
6.8586713904
 21
3.2518650576
  0
LINE
  5
3DC
100
AcDbEntity
  8
03__ASM_ALL_CURVES
100
AcDbLine
 62
40
  6
CONTINUOUS
 10
6.9272260779
 20
3.2899509969
 11
6.9386518591
 21
3.2975681826
  0
LINE
  5
3DD
100
AcDbEntity
  8
03__ASM_ALL_CURVES
100
AcDbLine
 62
40
  6
CONTINUOUS
 10
6.7929731361
 20
3.1497947469
 11
6.8043989173
 21
3.1574119326
  0
LINE
  5
3DE
100
AcDbEntity
  8
03__ASM_ALL_CURVES
100
AcDbLine
 62
40
  6
CONTINUOUS
 10
6.9615034216
 20
3.2137791203
 11
6.9500776404
 21
3.2061619326
  0
LINE
  5
3DF
100
AcDbEntity
  8
03__ASM_ALL_CURVES
100
AcDbLine
 62
40
  6
CONTINUOUS
 10
7.0529096716
 20
3.2594822433
 11
7.0414838904
 21
3.2518650576
  0
LINE
  5
3E0
100
AcDbEntity
  8
03__ASM_ALL_CURVES
100
AcDbLine
 62
40
  6
CONTINUOUS
 10
6.8272504798
 20
3.0736228703
 11
6.8158246986
 21
3.0660056826
  0
LINE
  5
3E1
100
AcDbEntity
  8
03__ASM_ALL_CURVES
100
AcDbLine
 62
40
  6
CONTINUOUS
 10
7.2014448279
 20
3.2899509969
 11
7.2128706091
 21
3.2975681826
  0
LINE
  5
3E2
100
AcDbEntity
  8
03__ASM_ALL_CURVES
100
AcDbLine
 62
40
  6
CONTINUOUS
 10
6.9186567298
 20
3.0736228703
 11
6.9072309486
 21
3.0660056826
  0
LINE
  5
3E3
100
AcDbEntity
  8
03__ASM_ALL_CURVES
100
AcDbLine
 62
40
  6
CONTINUOUS
 10
3.0367710351
 20
5.3377041826
 11
3.1830210351
 21
5.3620791826
  0
LINE
  5
3E4
100
AcDbEntity
  8
03__ASM_ALL_CURVES
100
AcDbLine
 62
40
  6
CONTINUOUS
 10
8.2003354886
 20
4.4443494326
 11
8.2117612699
 21
4.4367322469
  0
LINE
  5
3E5
100
AcDbEntity
  8
03__ASM_ALL_CURVES
100
AcDbLine
 62
40
  6
CONTINUOUS
 10
6.7884975969
 20
5.3864541826
 11
6.7732632219
 21
5.3966104329
  0
LINE
  5
3E6
100
AcDbEntity
  8
03__ASM_ALL_CURVES
100
AcDbLine
 62
40
  6
CONTINUOUS
 10
8.2917417386
 20
4.4443494326
 11
8.3031675199
 21
4.4367322469
  0
LINE
  5
3E7
100
AcDbEntity
  8
03__ASM_ALL_CURVES
100
AcDbLine
 62
40
  6
CONTINUOUS
 10
6.7732632219
 20
5.467704185
 11
6.8189663469
 21
5.4372354314
  0
LINE
  5
3E8
100
AcDbEntity
  8
03__ASM_ALL_CURVES
100
AcDbLine
 62
40
  6
CONTINUOUS
 10
8.3831479886
 20
4.4443494326
 11
8.3945737699
 21
4.4367322469
  0
LINE
  5
3E9
100
AcDbEntity
  8
03__ASM_ALL_CURVES
100
AcDbLine
 62
40
  6
CONTINUOUS
 10
6.8189663469
 20
5.498172935
 11
6.8037319719
 21
5.5083291826
  0
LINE
  5
3EA
100
AcDbEntity
  8
03__ASM_ALL_CURVES
100
AcDbLine
 62
40
  6
CONTINUOUS
 10
7.0322475969
 20
5.3864541826
 11
7.0170132219
 21
5.3966104329
  0
LINE
  5
3EB
100
AcDbEntity
  8
03__ASM_ALL_CURVES
100
AcDbLine
 62
40
  6
CONTINUOUS
 10
6.7732632219
 20
5.3966104329
 11
6.7580288469
 21
5.4169229326
  0
LINE
  5
3EC
100
AcDbEntity
  8
03__ASM_ALL_CURVES
100
AcDbLine
 62
40
  6
CONTINUOUS
 10
6.7656460344
 20
5.4778604326
 11
6.7732632219
 21
5.467704185
  0
LINE
  5
3ED
100
AcDbEntity
  8
03__ASM_ALL_CURVES
100
AcDbLine
 62
40
  6
CONTINUOUS
 10
6.8189663469
 20
5.4372354314
 11
6.8265835344
 21
5.4270791838
  0
LINE
  5
3EE
100
AcDbEntity
  8
03__ASM_ALL_CURVES
100
AcDbLine
 62
40
  6
CONTINUOUS
 10
6.8265835344
 20
5.4880166802
 11
6.8189663469
 21
5.498172935
  0
LINE
  5
3EF
100
AcDbEntity
  8
03__ASM_ALL_CURVES
100
AcDbLine
 62
40
  6
CONTINUOUS
 10
7.0170132219
 20
5.3966104329
 11
7.0017788469
 21
5.4169229326
  0
LINE
  5
3F0
100
AcDbEntity
  8
03__ASM_ALL_CURVES
100
AcDbLine
 62
40
  6
CONTINUOUS
 10
7.0017788469
 20
5.4169229326
 11
6.9941616594
 21
5.4473916826
  0
LINE
  5
3F1
100
AcDbEntity
  8
03__ASM_ALL_CURVES
100
AcDbLine
 62
40
  6
CONTINUOUS
 10
7.0779507219
 20
5.4778604326
 11
7.0855679094
 21
5.4473916826
  0
LINE
  5
3F2
100
AcDbEntity
  8
0
100
AcDbLine
 62
7
  6
CONTINUOUS
 10
7.4557710351
 20
4.0065796305
 11
7.4557710351
 21
4.0245209114
  0
LINE
  5
3F3
100
AcDbEntity
  8
0
100
AcDbLine
 62
7
  6
CONTINUOUS
 10
7.4557710351
 20
4.2370495223
 11
7.4557710351
 21
4.4201442686
  0
LINE
  5
3F4
100
AcDbEntity
  8
0
100
AcDbLine
 62
7
  6
CONTINUOUS
 10
7.4557710351
 20
4.6325908051
 11
7.4557710351
 21
4.6505538509
  0
LINE
  5
3F5
100
AcDbEntity
  8
0
100
AcDbLine
 62
7
  6
CONTINUOUS
 10
7.4627710351
 20
4.6475749823
 11
7.4627710351
 21
4.6371327092
  0
LINE
  5
3F6
100
AcDbEntity
  8
0
100
AcDbLine
 62
7
  6
CONTINUOUS
 10
7.4627710351
 20
4.0095622558
 11
7.4627710351
 21
4.0200041208
  0
LINE
  5
3F7
100
AcDbEntity
  8
0
100
AcDbLine
 62
7
  6
CONTINUOUS
 10
7.4627710351
 20
4.2426143909
 11
7.4627710351
 21
4.4145482796
  0
LINE
  5
3F8
100
AcDbEntity
  8
0
100
AcDbLine
 62
7
  6
CONTINUOUS
 10
7.4727710351
 20
4.2508772003
 11
7.4727710351
 21
4.4063490308
  0
LINE
  5
3F9
100
AcDbEntity
  8
0
100
AcDbLine
 62
7
  6
CONTINUOUS
 10
7.4797710351
 20
4.2591275065
 11
7.4797710351
 21
4.3980177053
  0
LINE
  5
3FA
100
AcDbEntity
  8
03__ASM_ALL_CURVES
100
AcDbLine
 62
40
  6
CONTINUOUS
 10
7.4968960344
 20
5.3864541826
 11
7.4968960344
 21
5.5083291826
  0
LINE
  5
3FB
100
AcDbEntity
  8
0
100
AcDbLine
 62
7
  6
CONTINUOUS
 10
7.5027710351
 20
3.7995795249
 11
7.5027710351
 21
3.9380660317
  0
LINE
  5
3FC
100
AcDbEntity
  8
0
100
AcDbLine
 62
7
  6
CONTINUOUS
 10
7.5027710351
 20
3.9709673994
 11
7.5027710351
 21
4.3053034023
  0
LINE
  5
3FD
100
AcDbEntity
  8
0
100
AcDbLine
 62
7
  6
CONTINUOUS
 10
7.5027710351
 20
4.3518329628
 11
7.5027710351
 21
4.6861689658
  0
LINE
  5
3FE
100
AcDbEntity
  8
0
100
AcDbLine
 62
7
  6
CONTINUOUS
 10
7.5027710351
 20
4.7190703335
 11
7.5027710351
 21
4.8575568403
  0
LINE
  5
3FF
100
AcDbEntity
  8
0
100
AcDbLine
 62
7
  6
CONTINUOUS
 10
7.5157710351
 20
4.9390681826
 11
7.5157710351
 21
3.7180681826
  0
LINE
  5
400
100
AcDbEntity
  8
0
100
AcDbLine
 62
7
  6
CONTINUOUS
 10
7.5287710351
 20
4.9520681826
 11
7.5287710351
 21
3.7050681826
  0
LINE
  5
401
100
AcDbEntity
  8
0
100
AcDbLine
 62
7
  6
CONTINUOUS
 10
7.6097710351
 20
3.7045681826
 11
7.6097710351
 21
4.9525681826
  0
LINE
  5
402
100
AcDbEntity
  8
03__ASM_ALL_CURVES
100
AcDbLine
 62
40
  6
CONTINUOUS
 10
7.6187710344
 20
5.3864541826
 11
7.6187710344
 21
5.5083291826
  0
LINE
  5
403
100
AcDbEntity
  8
03__ASM_ALL_CURVES
100
AcDbLine
 62
40
  6
CONTINUOUS
 10
7.1957319372
 20
3.2823338058
 11
7.2014448279
 21
3.2899509969
  0
LINE
  5
404
100
AcDbEntity
  8
03__ASM_ALL_CURVES
100
AcDbLine
 62
40
  6
CONTINUOUS
 10
7.2128706091
 20
3.2442478692
 11
7.2014448279
 21
3.2290134951
  0
LINE
  5
405
100
AcDbEntity
  8
03__ASM_ALL_CURVES
100
AcDbLine
 62
40
  6
CONTINUOUS
 10
7.2414350622
 20
3.2670994344
 11
7.2357221716
 21
3.2594822433
  0
LINE
  5
406
100
AcDbEntity
  8
03__ASM_ALL_CURVES
100
AcDbLine
 62
40
  6
CONTINUOUS
 10
7.2357221716
 20
3.2594822433
 11
7.2128706091
 21
3.2442478692
  0
LINE
  5
407
100
AcDbEntity
  8
03__ASM_ALL_CURVES
100
AcDbLine
 62
40
  6
CONTINUOUS
 10
7.1541225969
 20
5.3864541826
 11
7.1388882219
 21
5.3966104329
  0
LINE
  5
408
100
AcDbEntity
  8
03__ASM_ALL_CURVES
100
AcDbLine
 62
40
  6
CONTINUOUS
 10
7.0474819719
 20
5.5083291826
 11
7.0627163469
 21
5.498172935
  0
LINE
  5
409
100
AcDbEntity
  8
03__ASM_ALL_CURVES
100
AcDbLine
 62
40
  6
CONTINUOUS
 10
7.0627163469
 20
5.498172935
 11
7.0779507219
 21
5.4778604326
  0
LINE
  5
40A
100
AcDbEntity
  8
03__ASM_ALL_CURVES
100
AcDbLine
 62
40
  6
CONTINUOUS
 10
7.1388882219
 20
5.3966104329
 11
7.1312710344
 21
5.4067666832
  0
LINE
  5
40B
100
AcDbEntity
  8
0
100
AcDbLine
 62
7
  6
CONTINUOUS
 10
7.6597710351
 20
3.7045681826
 11
7.6597710351
 21
4.9525681826
  0
LINE
  5
40C
100
AcDbEntity
  8
03__ASM_ALL_CURVES
100
AcDbLine
 62
40
  6
CONTINUOUS
 10
7.6797085344
 20
5.4880166802
 11
7.6797085344
 21
5.467704185
  0
LINE
  5
40D
100
AcDbEntity
  8
0
100
AcDbLine
 62
7
  6
CONTINUOUS
 10
7.7627710351
 20
3.7045681826
 11
7.7627710351
 21
4.9525681826
  0
LINE
  5
40E
100
AcDbEntity
  8
0
100
AcDbLine
 62
7
  6
CONTINUOUS
 10
7.8127710351
 20
3.7045681826
 11
7.8127710351
 21
4.9525681826
  0
LINE
  5
40F
100
AcDbEntity
  8
0
100
AcDbLine
 62
7
  6
CONTINUOUS
 10
7.8337710351
 20
4.9520608769
 11
7.8337710351
 21
3.7050754883
  0
LINE
  5
410
100
AcDbEntity
  8
03__ASM_ALL_CURVES
100
AcDbLine
 62
40
  6
CONTINUOUS
 10
8.2174741605
 20
4.4138806844
 11
8.2117612699
 21
4.4062634933
  0
LINE
  5
411
100
AcDbEntity
  8
03__ASM_ALL_CURVES
100
AcDbLine
 62
40
  6
CONTINUOUS
 10
8.2574643949
 20
4.4214978701
 11
8.2688901761
 21
4.4367322469
  0
LINE
  5
412
100
AcDbEntity
  8
03__ASM_ALL_CURVES
100
AcDbLine
 62
40
  6
CONTINUOUS
 10
8.3145933011
 20
4.3757947451
 11
8.3031675199
 21
4.3605603703
  0
LINE
  5
413
100
AcDbEntity
  8
03__ASM_ALL_CURVES
100
AcDbLine
 62
40
  6
CONTINUOUS
 10
8.4002866605
 20
4.4138806844
 11
8.3945737699
 21
4.4062634933
  0
LINE
  5
414
100
AcDbEntity
  8
0
100
AcDbLine
 62
7
  6
CONTINUOUS
 10
7.8807710351
 20
3.7050681826
 11
7.9117710351
 21
3.7360681826
  0
LINE
  5
415
100
AcDbEntity
  8
03__ASM_ALL_CURVES
100
AcDbLine
 62
40
  6
CONTINUOUS
 10
7.4054897844
 20
5.5083291826
 11
7.4207241594
 21
5.498172935
  0
LINE
  5
416
100
AcDbEntity
  8
0
100
AcDbLine
 62
7
  6
CONTINUOUS
 10
7.8807710351
 20
4.9520681826
 11
7.9117710351
 21
4.9210681826
  0
LINE
  5
417
100
AcDbEntity
  8
03__ASM_ALL_CURVES
100
AcDbLine
 62
40
  6
CONTINUOUS
 10
8.2688901761
 20
4.3605603703
 11
8.2574643949
 21
4.3757947451
  0
LINE
  5
418
100
AcDbEntity
  8
03__ASM_ALL_CURVES
100
AcDbLine
 62
40
  6
CONTINUOUS
 10
8.2117612699
 20
4.4367322469
 11
8.2174741605
 21
4.4291150558
  0
LINE
  5
419
100
AcDbEntity
  8
03__ASM_ALL_CURVES
100
AcDbLine
 62
40
  6
CONTINUOUS
 10
7.4207241594
 20
5.498172935
 11
7.4359585344
 21
5.4778604326
  0
LINE
  5
41A
100
AcDbEntity
  8
03__ASM_ALL_CURVES
100
AcDbLine
 62
40
  6
CONTINUOUS
 10
7.4359585344
 20
5.4778604326
 11
7.4435757219
 21
5.4473916826
  0
LINE
  5
41B
100
AcDbEntity
  8
0
100
AcDbLine
 62
7
  6
CONTINUOUS
 10
7.8807710351
 20
3.7050681826
 11
7.8807710351
 21
4.9520681826
  0
LINE
  5
41C
100
AcDbEntity
  8
0
100
AcDbLine
 62
7
  6
CONTINUOUS
 10
7.9117710351
 20
3.7360681826
 11
7.9117710351
 21
4.9210681826
  0
LINE
  5
41D
100
AcDbEntity
  8
03__ASM_ALL_CURVES
100
AcDbLine
 62
40
  6
CONTINUOUS
 10
7.6568569719
 20
5.5083291826
 11
7.6720913469
 21
5.498172935
  0
LINE
  5
41E
100
AcDbEntity
  8
03__ASM_ALL_CURVES
100
AcDbLine
 62
40
  6
CONTINUOUS
 10
8.3031675199
 20
4.4367322469
 11
8.3145933011
 21
4.4214978701
  0
LINE
  5
41F
100
AcDbEntity
  8
03__ASM_ALL_CURVES
100
AcDbLine
 62
40
  6
CONTINUOUS
 10
8.3945737699
 20
4.4367322469
 11
8.4002866605
 21
4.4291150558
  0
LINE
  5
420
100
AcDbEntity
  8
03__ASM_ALL_CURVES
100
AcDbLine
 62
40
  6
CONTINUOUS
 10
7.6720913469
 20
5.498172935
 11
7.6797085344
 21
5.4880166802
  0
LINE
  5
421
100
AcDbEntity
  8
03__ASM_ALL_CURVES
100
AcDbLine
 62
40
  6
CONTINUOUS
 10
8.2403257234
 20
4.3041931826
 11
8.2860288484
 21
4.2127869326
  0
LINE
  5
422
100
AcDbEntity
  8
03__ASM_ALL_CURVES
100
AcDbLine
 62
40
  6
CONTINUOUS
 10
7.6568569719
 20
5.4473916826
 11
7.6797085344
 21
5.3864541826
  0
LINE
  5
423
100
AcDbEntity
  8
03__ASM_ALL_CURVES
100
AcDbLine
 62
40
  6
CONTINUOUS
 10
8.1717710359
 20
4.3041931826
 11
8.1717710359
 21
4.2127869326
  0
LINE
  5
424
100
AcDbEntity
  8
03__ASM_ALL_CURVES
100
AcDbLine
 62
40
  6
CONTINUOUS
 10
8.1717710355
 20
4.3529431826
 11
8.1717710355
 21
4.4443494326
  0
LINE
  5
425
100
AcDbEntity
  8
03__ASM_ALL_CURVES
100
AcDbLine
 62
40
  6
CONTINUOUS
 10
8.2174741605
 20
4.4291150558
 11
8.2174741605
 21
4.4138806844
  0
LINE
  5
426
100
AcDbEntity
  8
03__ASM_ALL_CURVES
100
AcDbLine
 62
40
  6
CONTINUOUS
 10
8.2403257234
 20
4.2127869326
 11
8.2403257234
 21
4.3041931826
  0
LINE
  5
427
100
AcDbEntity
  8
03__ASM_ALL_CURVES
100
AcDbLine
 62
40
  6
CONTINUOUS
 10
8.2517515043
 20
4.3986463076
 11
8.2574643949
 21
4.4214978701
  0
LINE
  5
428
100
AcDbEntity
  8
03__ASM_ALL_CURVES
100
AcDbLine
 62
40
  6
CONTINUOUS
 10
8.3203061918
 20
4.3986463076
 11
8.3145933011
 21
4.3757947451
  0
LINE
  5
429
100
AcDbEntity
  8
03__ASM_ALL_CURVES
100
AcDbLine
 62
40
  6
CONTINUOUS
 10
8.2574643949
 20
4.3757947451
 11
8.2517515043
 21
4.3986463076
  0
LINE
  5
42A
100
AcDbEntity
  8
03__ASM_ALL_CURVES
100
AcDbLine
 62
40
  6
CONTINUOUS
 10
8.2860288484
 20
4.2127869326
 11
8.2860288484
 21
4.3041931826
  0
LINE
  5
42B
100
AcDbEntity
  8
03__ASM_ALL_CURVES
100
AcDbLine
 62
40
  6
CONTINUOUS
 10
8.3317319734
 20
4.3041931826
 11
8.3317319734
 21
4.2127869326
  0
LINE
  5
42C
100
AcDbEntity
  8
03__ASM_ALL_CURVES
100
AcDbLine
 62
40
  6
CONTINUOUS
 10
8.3545835355
 20
4.3529431826
 11
8.3545835355
 21
4.4443494326
  0
LINE
  5
42D
100
AcDbEntity
  8
03__ASM_ALL_CURVES
100
AcDbLine
 62
40
  6
CONTINUOUS
 10
8.4002866605
 20
4.4291150558
 11
8.4002866605
 21
4.4138806844
  0
LINE
  5
42E
100
AcDbEntity
  8
03__ASM_ALL_CURVES
100
AcDbLine
 62
40
  6
CONTINUOUS
 10
8.4231382234
 20
4.2127869326
 11
8.4231382234
 21
4.3041931826
  0
LINE
  5
42F
100
AcDbEntity
  8
03__ASM_ALL_CURVES
100
AcDbLine
 62
40
  6
CONTINUOUS
 10
8.3831479886
 20
4.3986463076
 11
8.4002866605
 21
4.3529431826
  0
LINE
  5
430
100
AcDbEntity
  8
03__ASM_ALL_CURVES
100
AcDbLine
 62
40
  6
CONTINUOUS
 10
8.3145933011
 20
4.4214978701
 11
8.3203061918
 21
4.3986463076
  0
LINE
  5
431
100
AcDbEntity
  8
03__ASM_ALL_CURVES
100
AcDbLine
 62
40
  6
CONTINUOUS
 10
8.468841348
 20
4.4443494326
 11
8.468841348
 21
4.3529431826
  0
LINE
  5
432
100
AcDbEntity
  8
03__ASM_ALL_CURVES
100
AcDbLine
 62
40
  6
CONTINUOUS
 10
8.5373960359
 20
4.3041931826
 11
8.5373960359
 21
4.2127869326
  0
LINE
  5
433
100
AcDbEntity
  8
03__ASM_ALL_CURVES
100
AcDbLine
 62
40
  6
CONTINUOUS
 10
8.560247598
 20
4.4443494326
 11
8.560247598
 21
4.3529431826
  0
CIRCLE
  5
434
100
AcDbEntity
  8
0
100
AcDbCircle
 62
7
  6
CONTINUOUS
 10
7.3957710351
 20
4.3285681826
 40
0.1095
  0
ARC
  5
435
100
AcDbEntity
  8
0
100
AcDbCircle
 62
7
  6
CONTINUOUS
 10
3.5987710351
 20
4.5055681826
 40
0.094
100
AcDbArc
 50
90.0
 51
131.267427381
  0
ARC
  5
436
100
AcDbEntity
  8
0
100
AcDbCircle
 62
7
  6
CONTINUOUS
 10
3.5987710351
 20
4.1515681826
 40
0.094
100
AcDbArc
 50
228.732572619
 51
270.0
  0
ARC
  5
437
100
AcDbEntity
  8
0
100
AcDbCircle
 62
7
  6
CONTINUOUS
 10
5.6661350079
 20
3.6705681826
 40
0.028
100
AcDbArc
 50
9.2483583379
 51
74.0465125094
  0
ARC
  5
438
100
AcDbEntity
  8
0
100
AcDbCircle
 62
7
  6
CONTINUOUS
 10
5.6661350079
 20
4.9865681826
 40
0.028
100
AcDbArc
 50
285.9534874906
 51
350.7516416621
  0
ARC
  5
439
100
AcDbEntity
  8
0
100
AcDbCircle
 62
7
  6
CONTINUOUS
 10
6.7187710351
 20
4.8608181826
 40
0.022
100
AcDbArc
 50
187.1807557815
 51
352.8192442185
  0
ARC
  5
43A
100
AcDbEntity
  8
0
100
AcDbCircle
 62
7
  6
CONTINUOUS
 10
3.2857710351
 20
4.1670681826
 40
0.0175
100
AcDbArc
 50
180.0
 51
360.0
  0
ARC
  5
43B
100
AcDbEntity
  8
0
100
AcDbCircle
 62
7
  6
CONTINUOUS
 10
7.5027710351
 20
3.7860681826
 40
0.013
100
AcDbArc
 50
0.0000050812
 51
78.912510789
  0
ARC
  5
43C
100
AcDbEntity
  8
0
100
AcDbCircle
 62
7
  6
CONTINUOUS
 10
7.5027710351
 20
4.8710681826
 40
0.013
100
AcDbArc
 50
281.087489211
 51
359.9999949188
  0
SPLINE
  5
43D
100
AcDbEntity
  8
0
100
AcDbSpline
 62
7
  6
CONTINUOUS
 70
0
 71
3
 72
20
 73
16
 74
14
 42
0.0000001
 43
0.0000001
 44
0.0000000001
 12
0.0
 22
0.0416605862
 32
0.0
 13
0.0
 23
-0.0416605862
 33
0.0
 40
0.0
 40
0.0
 40
0.0
 40
0.0
 40
0.0489307848
 40
0.1062135912
 40
0.175871992
 40
0.2580136346
 40
0.3503828832
 40
0.4493672053
 40
0.5506327947
 40
0.6496171168
 40
0.7419863654
 40
0.824128008
 40
0.8937864088
 40
0.9510692152
 40
1.0
 40
1.0
 40
1.0
 40
1.0
 10
3.3032710351
 20
4.4046917514
 30
0.0
 10
3.3032710351
 20
4.4053712465
 30
0.0
 10
3.3028495012
 20
4.4068572575
 30
0.0
 10
3.3012142334
 20
4.4087356848
 30
0.0
 10
3.2987623129
 20
4.4103346851
 30
0.0
 10
3.2956030805
 20
4.4116094362
 30
0.0
 10
3.2918999869
 20
4.412501424
 30
0.0
 10
3.2878530779
 20
4.4129606617
 30
0.0
 10
3.2836889923
 20
4.4129606617
 30
0.0
 10
3.2796420834
 20
4.412501424
 30
0.0
 10
3.2759389898
 20
4.4116094362
 30
0.0
 10
3.2727797573
 20
4.4103346851
 30
0.0
 10
3.2703278369
 20
4.4087356848
 30
0.0
 10
3.2686925691
 20
4.4068572575
 30
0.0
 10
3.2682710351
 20
4.4053712465
 30
0.0
 10
3.2682710351
 20
4.4046917514
 30
0.0
 11
3.3032710351
 21
4.4046917514
 31
0.0
 11
3.3027625169
 21
4.4066657907
 31
0.0
 11
3.3012665156
 21
4.408525106
 31
0.0
 11
3.2988699732
 21
4.4101616406
 31
0.0
 11
3.2957121682
 21
4.4114802852
 31
0.0
 11
3.2919766207
 21
4.4124044049
 31
0.0
 11
3.287880427
 21
4.4128802932
 31
0.0
 11
3.2836616432
 21
4.4128802932
 31
0.0
 11
3.2795654496
 21
4.4124044049
 31
0.0
 11
3.2758299021
 21
4.4114802852
 31
0.0
 11
3.272672097
 21
4.4101616406
 31
0.0
 11
3.2702755547
 21
4.408525106
 31
0.0
 11
3.2687795533
 21
4.4066657907
 31
0.0
 11
3.2682710351
 21
4.4046917514
 31
0.0
  0
SPLINE
  5
43E
100
AcDbEntity
  8
0
100
AcDbSpline
 62
7
  6
CONTINUOUS
 70
0
 71
3
 72
15
 73
11
 74
9
 42
0.0000001
 43
0.0000001
 44
0.0000000001
 12
0.0
 22
0.1617702498
 32
0.0
 13
0.0
 23
-0.1617702498
 33
0.0
 40
0.0
 40
0.0
 40
0.0
 40
0.0
 40
0.125
 40
0.25
 40
0.375
 40
0.5
 40
0.625
 40
0.75
 40
0.875
 40
1.0
 40
1.0
 40
1.0
 40
1.0
 10
7.7627710351
 20
4.9160681826
 30
0.0
 10
7.7627710351
 20
4.9228086097
 30
0.0
 10
7.7600895265
 20
4.9362894638
 30
0.0
 10
7.7486350908
 20
4.9534322383
 30
0.0
 10
7.7314923164
 20
4.964886674
 30
0.0
 10
7.7112710351
 20
4.9689089369
 30
0.0
 10
7.6910497539
 20
4.964886674
 30
0.0
 10
7.6739069794
 20
4.9534322383
 30
0.0
 10
7.6624525437
 20
4.9362894638
 30
0.0
 10
7.6597710351
 20
4.9228086097
 30
0.0
 10
7.6597710351
 20
4.9160681826
 30
0.0
 11
7.7627710351
 21
4.9160681826
 31
0.0
 11
7.7588508311
 21
4.9357763794
 31
0.0
 11
7.7476870344
 21
4.9524841818
 31
0.0
 11
7.7309792319
 21
4.9636479785
 31
0.0
 11
7.7112710351
 21
4.9675681826
 31
0.0
 11
7.6915628384
 21
4.9636479785
 31
0.0
 11
7.6748550359
 21
4.9524841818
 31
0.0
 11
7.6636912392
 21
4.9357763794
 31
0.0
 11
7.6597710351
 21
4.9160681826
 31
0.0
  0
SPLINE
  5
43F
100
AcDbEntity
  8
0
100
AcDbSpline
 62
7
  6
CONTINUOUS
 70
0
 71
3
 72
15
 73
11
 74
9
 42
0.0000001
 43
0.0000001
 44
0.0000000001
 12
0.0
 22
-0.1617702498
 32
0.0
 13
0.0
 23
0.1617702498
 33
0.0
 40
0.0
 40
0.0
 40
0.0
 40
0.0
 40
0.125
 40
0.25
 40
0.375
 40
0.5
 40
0.625
 40
0.75
 40
0.875
 40
1.0
 40
1.0
 40
1.0
 40
1.0
 10
7.7627710351
 20
3.7410681826
 30
0.0
 10
7.7627710351
 20
3.7343277555
 30
0.0
 10
7.7600895265
 20
3.7208469014
 30
0.0
 10
7.7486350908
 20
3.7037041269
 30
0.0
 10
7.7314923164
 20
3.6922496912
 30
0.0
 10
7.7112710351
 20
3.6882274283
 30
0.0
 10
7.6910497539
 20
3.6922496912
 30
0.0
 10
7.6739069794
 20
3.7037041269
 30
0.0
 10
7.6624525437
 20
3.7208469014
 30
0.0
 10
7.6597710351
 20
3.7343277555
 30
0.0
 10
7.6597710351
 20
3.7410681826
 30
0.0
 11
7.7627710351
 21
3.7410681826
 31
0.0
 11
7.7588508311
 21
3.7213599858
 31
0.0
 11
7.7476870344
 21
3.7046521834
 31
0.0
 11
7.7309792319
 21
3.6934883867
 31
0.0
 11
7.7112710351
 21
3.6895681826
 31
0.0
 11
7.6915628384
 21
3.6934883867
 31
0.0
 11
7.6748550359
 21
3.7046521834
 31
0.0
 11
7.6636912392
 21
3.7213599858
 31
0.0
 11
7.6597710351
 21
3.7410681826
 31
0.0
  0
SPLINE
  5
440
100
AcDbEntity
  8
0
100
AcDbSpline
 62
7
  6
CONTINUOUS
 70
0
 71
3
 72
16
 73
12
 74
10
 42
0.0000001
 43
0.0000001
 44
0.0000000001
 12
0.0906480335
 22
0.2719441006
 32
0.0
 13
-0.0906480335
 23
0.2719441006
 33
0.0
 40
0.0
 40
0.0
 40
0.0
 40
0.0
 40
0.1184548733
 40
0.230565332
 40
0.3393089466
 40
0.4465959239
 40
0.5535015371
 40
0.6607803311
 40
0.769505023
 40
0.8815660643
 40
1.0
 40
1.0
 40
1.0
 40
1.0
 10
3.7868996247
 20
4.0475681826
 30
0.0
 10
3.7904788585
 20
4.0583058839
 30
0.0
 10
3.7969099452
 20
4.0793919308
 30
0.0
 10
3.8044293748
 20
4.1109529856
 30
0.0
 10
3.8095176023
 20
4.1419218037
 30
0.0
 10
3.8121044645
 20
4.1727048733
 30
0.0
 10
3.8121032762
 20
4.2034586743
 30
0.0
 10
3.8095144356
 20
4.2342389657
 30
0.0
 10
3.8044257008
 20
4.2652002675
 30
0.0
 10
3.7969074441
 20
4.2967527991
 30
0.0
 10
3.7904782259
 20
4.3178323792
 30
0.0
 10
3.7868996247
 20
4.3285681826
 30
0.0
 11
3.7868996247
 21
4.0475681826
 31
0.0
 11
3.7967380943
 21
4.0800672105
 31
0.0
 11
3.8041252648
 21
4.1113436009
 31
0.0
 11
3.8091298822
 21
4.1421110534
 31
0.0
 11
3.8116768475
 21
4.1727596746
 31
0.0
 11
3.8116756774
 21
4.2034046231
 31
0.0
 11
3.8091267373
 21
4.2340507262
 31
0.0
 11
3.8041212982
 21
4.2648125494
 31
0.0
 11
3.7967365268
 21
4.296074951
 31
0.0
 11
3.7868996247
 21
4.3285681826
 31
0.0
  0
SPLINE
  5
441
100
AcDbEntity
  8
0
100
AcDbSpline
 62
7
  6
CONTINUOUS
 70
0
 71
3
 72
17
 73
13
 74
11
 42
0.0000001
 43
0.0000001
 44
0.0000000001
 12
-0.1487434696
 22
0.2576312467
 32
0.0
 13
0.1487434696
 23
0.2576312467
 33
0.0
 40
0.0
 40
0.0
 40
0.0
 40
0.0
 40
0.1169386465
 40
0.2216811606
 40
0.3184580982
 40
0.4103908543
 40
0.5000417254
 40
0.5896883004
 40
0.6816074548
 40
0.7783545182
 40
0.8830694657
 40
1.0
 40
1.0
 40
1.0
 40
1.0
 10
3.6852418864
 20
4.0475681826
 30
0.0
 10
3.6794439331
 20
4.0576105324
 30
0.0
 10
3.6691041055
 20
4.0770403798
 30
0.0
 10
3.656730482
 20
4.1061424574
 30
0.0
 10
3.6480770353
 20
4.1339840201
 30
0.0
 10
3.6429199307
 20
4.1611673397
 30
0.0
 10
3.6412030504
 20
4.1880802246
 30
0.0
 10
3.642922936
 20
4.2149915494
 30
0.0
 10
3.6480816876
 20
4.24216969
 30
0.0
 10
3.6567345395
 20
4.270003996
 30
0.0
 10
3.6691061269
 20
4.2990998357
 30
0.0
 10
3.6794443353
 20
4.3185265295
 30
0.0
 10
3.6852418864
 20
4.3285681826
 30
0.0
 11
3.6852418864
 21
4.0475681826
 31
0.0
 11
3.669015655
 21
4.0783398396
 31
0.0
 11
3.6569308985
 21
4.1070604762
 31
0.0
 11
3.6484782252
 21
4.1345815448
 31
0.0
 11
3.6434453398
 21
4.16146326
 31
0.0
 11
3.6417710355
 21
4.1880806161
 31
0.0
 11
3.6434482778
 21
4.2146965066
 31
0.0
 11
3.6484829245
 21
4.2415737753
 31
0.0
 11
3.6569345395
 21
4.2690858719
 31
0.0
 11
3.6690166907
 21
4.2977987076
 31
0.0
 11
3.6852418864
 21
4.3285681826
 31
0.0
  0
SPLINE
  5
442
100
AcDbEntity
  8
0
100
AcDbSpline
 62
7
  6
CONTINUOUS
 70
0
 71
3
 72
16
 73
12
 74
10
 42
0.0000001
 43
0.0000001
 44
0.0000000001
 12
0.0906480335
 22
0.2719441006
 32
0.0
 13
-0.0906480335
 23
0.2719441006
 33
0.0
 40
0.0
 40
0.0
 40
0.0
 40
0.0
 40
0.1184548733
 40
0.230565332
 40
0.3393089466
 40
0.4465959239
 40
0.5535015371
 40
0.6607803311
 40
0.769505023
 40
0.8815660643
 40
1.0
 40
1.0
 40
1.0
 40
1.0
 10
3.7868996247
 20
4.3285681826
 30
0.0
 10
3.7904788585
 20
4.3393058839
 30
0.0
 10
3.7969099452
 20
4.3603919308
 30
0.0
 10
3.8044293748
 20
4.3919529856
 30
0.0
 10
3.8095176023
 20
4.4229218037
 30
0.0
 10
3.8121044645
 20
4.4537048733
 30
0.0
 10
3.8121032762
 20
4.4844586743
 30
0.0
 10
3.8095144356
 20
4.5152389657
 30
0.0
 10
3.8044257008
 20
4.5462002675
 30
0.0
 10
3.7969074441
 20
4.5777527991
 30
0.0
 10
3.7904782259
 20
4.5988323792
 30
0.0
 10
3.7868996247
 20
4.6095681826
 30
0.0
 11
3.7868996247
 21
4.3285681826
 31
0.0
 11
3.7967380943
 21
4.3610672105
 31
0.0
 11
3.8041252648
 21
4.3923436009
 31
0.0
 11
3.8091298822
 21
4.4231110534
 31
0.0
 11
3.8116768475
 21
4.4537596746
 31
0.0
 11
3.8116756774
 21
4.4844046231
 31
0.0
 11
3.8091267373
 21
4.5150507262
 31
0.0
 11
3.8041212982
 21
4.5458125494
 31
0.0
 11
3.7967365268
 21
4.577074951
 31
0.0
 11
3.7868996247
 21
4.6095681826
 31
0.0
  0
SPLINE
  5
443
100
AcDbEntity
  8
0
100
AcDbSpline
 62
7
  6
CONTINUOUS
 70
0
 71
3
 72
17
 73
13
 74
11
 42
0.0000001
 43
0.0000001
 44
0.0000000001
 12
-0.1487434696
 22
0.2576312467
 32
0.0
 13
0.1487434696
 23
0.2576312467
 33
0.0
 40
0.0
 40
0.0
 40
0.0
 40
0.0
 40
0.1169386465
 40
0.2216811606
 40
0.3184580982
 40
0.4103908543
 40
0.5000417254
 40
0.5896883004
 40
0.6816074548
 40
0.7783545182
 40
0.8830694657
 40
1.0
 40
1.0
 40
1.0
 40
1.0
 10
3.6852418864
 20
4.3285681826
 30
0.0
 10
3.6794439331
 20
4.3386105324
 30
0.0
 10
3.6691041055
 20
4.3580403798
 30
0.0
 10
3.656730482
 20
4.3871424574
 30
0.0
 10
3.6480770353
 20
4.4149840201
 30
0.0
 10
3.6429199307
 20
4.4421673397
 30
0.0
 10
3.6412030504
 20
4.4690802246
 30
0.0
 10
3.642922936
 20
4.4959915494
 30
0.0
 10
3.6480816876
 20
4.52316969
 30
0.0
 10
3.6567345395
 20
4.551003996
 30
0.0
 10
3.6691061269
 20
4.5800998357
 30
0.0
 10
3.6794443353
 20
4.5995265295
 30
0.0
 10
3.6852418864
 20
4.6095681826
 30
0.0
 11
3.6852418864
 21
4.3285681826
 31
0.0
 11
3.669015655
 21
4.3593398396
 31
0.0
 11
3.6569308985
 21
4.3880604762
 31
0.0
 11
3.6484782252
 21
4.4155815448
 31
0.0
 11
3.6434453398
 21
4.44246326
 31
0.0
 11
3.6417710355
 21
4.4690806161
 31
0.0
 11
3.6434482778
 21
4.4956965066
 31
0.0
 11
3.6484829245
 21
4.5225737753
 31
0.0
 11
3.6569345395
 21
4.5500858719
 31
0.0
 11
3.6690166907
 21
4.5787987076
 31
0.0
 11
3.6852418864
 21
4.6095681826
 31
0.0
  0
SPLINE
  5
444
100
AcDbEntity
  8
0
100
AcDbSpline
 62
7
  6
CONTINUOUS
 70
0
 71
3
 72
15
 73
11
 74
9
 42
0.0000001
 43
0.0000001
 44
0.0000000001
 12
0.0
 22
0.1617702498
 32
0.0
 13
0.0
 23
-0.1617702498
 33
0.0
 40
0.0
 40
0.0
 40
0.0
 40
0.0
 40
0.125
 40
0.25
 40
0.375
 40
0.5
 40
0.625
 40
0.75
 40
0.875
 40
1.0
 40
1.0
 40
1.0
 40
1.0
 10
5.6237710351
 20
5.0100681826
 30
0.0
 10
5.6237710351
 20
5.0168086097
 30
0.0
 10
5.6210895265
 20
5.0302894638
 30
0.0
 10
5.6096350908
 20
5.0474322383
 30
0.0
 10
5.5924923164
 20
5.058886674
 30
0.0
 10
5.5722710351
 20
5.0629089369
 30
0.0
 10
5.5520497539
 20
5.058886674
 30
0.0
 10
5.5349069794
 20
5.0474322383
 30
0.0
 10
5.5234525437
 20
5.0302894638
 30
0.0
 10
5.5207710351
 20
5.0168086097
 30
0.0
 10
5.5207710351
 20
5.0100681826
 30
0.0
 11
5.6237710351
 21
5.0100681826
 31
0.0
 11
5.6198508311
 21
5.0297763794
 31
0.0
 11
5.6086870344
 21
5.0464841818
 31
0.0
 11
5.5919792319
 21
5.0576479785
 31
0.0
 11
5.5722710351
 21
5.0615681826
 31
0.0
 11
5.5525628384
 21
5.0576479785
 31
0.0
 11
5.5358550359
 21
5.0464841818
 31
0.0
 11
5.5246912392
 21
5.0297763794
 31
0.0
 11
5.5207710351
 21
5.0100681826
 31
0.0
  0
SPLINE
  5
445
100
AcDbEntity
  8
0
100
AcDbSpline
 62
7
  6
CONTINUOUS
 70
0
 71
3
 72
15
 73
11
 74
9
 42
0.0000001
 43
0.0000001
 44
0.0000000001
 12
0.0
 22
-0.1617702498
 32
0.0
 13
0.0
 23
0.1617702498
 33
0.0
 40
0.0
 40
0.0
 40
0.0
 40
0.0
 40
0.125
 40
0.25
 40
0.375
 40
0.5
 40
0.625
 40
0.75
 40
0.875
 40
1.0
 40
1.0
 40
1.0
 40
1.0
 10
5.6237710351
 20
3.6470681826
 30
0.0
 10
5.6237710351
 20
3.6403277555
 30
0.0
 10
5.6210895265
 20
3.6268469014
 30
0.0
 10
5.6096350908
 20
3.6097041269
 30
0.0
 10
5.5924923164
 20
3.5982496912
 30
0.0
 10
5.5722710351
 20
3.5942274283
 30
0.0
 10
5.5520497539
 20
3.5982496912
 30
0.0
 10
5.5349069794
 20
3.6097041269
 30
0.0
 10
5.5234525437
 20
3.6268469014
 30
0.0
 10
5.5207710351
 20
3.6403277555
 30
0.0
 10
5.5207710351
 20
3.6470681826
 30
0.0
 11
5.6237710351
 21
3.6470681826
 31
0.0
 11
5.6198508311
 21
3.6273599858
 31
0.0
 11
5.6086870344
 21
3.6106521834
 31
0.0
 11
5.5919792319
 21
3.5994883867
 31
0.0
 11
5.5722710351
 21
3.5955681826
 31
0.0
 11
5.5525628384
 21
3.5994883867
 31
0.0
 11
5.5358550359
 21
3.6106521834
 31
0.0
 11
5.5246912392
 21
3.6273599858
 31
0.0
 11
5.5207710351
 21
3.6470681826
 31
0.0
  0
SPLINE
  5
446
100
AcDbEntity
  8
0
100
AcDbSpline
 62
7
  6
CONTINUOUS
 70
0
 71
3
 72
14
 73
10
 74
8
 42
0.0000001
 43
0.0000001
 44
0.0000000001
 12
-0.0382597458
 22
0.1298984512
 32
0.0
 13
-0.1354157147
 23
-0.0
 33
0.0
 40
0.0
 40
0.0
 40
0.0
 40
0.0
 40
0.1301776834
 40
0.2706994185
 40
0.4066841546
 40
0.5428268034
 40
0.6929233073
 40
0.8492111618
 40
1.0
 40
1.0
 40
1.0
 40
1.0
 10
7.5027710351
 20
3.9709673994
 30
0.0
 10
7.5011108468
 20
3.9766040259
 30
0.0
 10
7.4960695284
 20
3.98789027
 30
0.0
 10
7.4849606454
 20
4.0026636374
 30
0.0
 10
7.4710929806
 20
4.0152405153
 30
0.0
 10
7.454992388
 20
4.0255845549
 30
0.0
 10
7.436581947
 20
4.033571316
 30
0.0
 10
7.4164634106
 20
4.0385660631
 30
0.0
 10
7.4025774279
 20
4.0396768425
 30
0.0
 10
7.3957710351
 20
4.0396768425
 30
0.0
 11
7.5027710351
 21
3.9709673994
 31
0.0
 11
7.4957180076
 21
3.9871230441
 31
0.0
 11
7.4843874728
 21
4.0024108222
 31
0.0
 11
7.4707907054
 21
4.0148293821
 31
0.0
 11
7.455299786
 21
4.0248249876
 31
0.0
 11
7.4366627995
 21
4.0329358231
 31
0.0
 11
7.4161248899
 21
4.0380448379
 31
0.0
 11
7.3957710351
 21
4.0396768425
 31
0.0
  0
SPLINE
  5
447
100
AcDbEntity
  8
0
100
AcDbSpline
 62
7
  6
CONTINUOUS
 70
0
 71
3
 72
16
 73
12
 74
10
 42
0.0000001
 43
0.0000001
 44
0.0000000001
 12
-0.1524155503
 22
0.0
 32
0.0
 13
0.0000711104
 23
-0.1529467332
 33
0.0
 40
0.0
 40
0.0
 40
0.0
 40
0.0
 40
0.1338301632
 40
0.2725897505
 40
0.405415645
 40
0.525696126
 40
0.6453959587
 40
0.7679567132
 40
0.8811932367
 40
0.9859311261
 40
1.0
 40
1.0
 40
1.0
 40
1.0
 10
7.3957710351
 20
4.0396768425
 30
0.0
 10
7.3889717691
 20
4.0396768425
 30
0.0
 10
7.3750979114
 20
4.0385682174
 30
0.0
 10
7.3550162508
 20
4.033587403
 30
0.0
 10
7.3366627099
 20
4.0256389381
 30
0.0
 10
7.3206478217
 20
4.0153817596
 30
0.0
 10
7.3069012365
 20
4.0029878563
 30
0.0
 10
7.2958858167
 20
3.9885135041
 30
0.0
 10
7.2885652663
 20
3.9726658477
 30
0.0
 10
7.2863881972
 20
3.9609379918
 30
0.0
 10
7.2862718648
 20
3.9548817442
 30
0.0
 10
7.2862721983
 20
3.9541644814
 30
0.0
 11
7.3957710351
 21
4.0396768425
 31
0.0
 11
7.3754383553
 21
4.0380482564
 31
0.0
 11
7.3549135567
 21
4.0329474849
 31
0.0
 11
7.3363454861
 21
4.02488052
 31
0.0
 11
7.3209267402
 21
4.0149635109
 31
0.0
 11
7.3074196572
 21
4.0026994792
 31
0.0
 11
7.2962013653
 21
3.9877629975
 31
0.0
 11
7.2890952451
 21
3.9720347941
 31
0.0
 11
7.286313416
 21
3.9563153602
 31
0.0
 11
7.2862721983
 21
3.9541644814
 31
0.0
  0
SPLINE
  5
448
100
AcDbEntity
  8
0
100
AcDbSpline
 62
7
  6
CONTINUOUS
 70
0
 71
3
 72
8
 73
4
 74
2
 42
0.0000001
 43
0.0000001
 44
0.0000000001
 12
0.001256246
 22
-0.0000517167
 32
0.0
 13
0.0012561167
 23
-0.0000547727
 33
0.0
 40
0.0
 40
0.0
 40
0.0
 40
0.0
 40
1.0
 40
1.0
 40
1.0
 40
1.0
 10
6.7405984834
 20
3.7991397762
 30
0.0
 10
6.7410172321
 20
3.7991225373
 30
0.0
 10
6.7414359586
 20
3.7991047559
 30
0.0
 10
6.7418546642
 20
3.7990864984
 30
0.0
 11
6.7405984834
 21
3.7991397762
 31
0.0
 11
6.7418546642
 21
3.7990864984
 31
0.0
  0
SPLINE
  5
449
100
AcDbEntity
  8
0
100
AcDbSpline
 62
7
  6
CONTINUOUS
 70
0
 71
3
 72
8
 73
4
 74
2
 42
0.0000001
 43
0.0000001
 44
0.0000000001
 12
0.0004164949
 22
-0.0000181612
 32
0.0
 13
0.0004164812
 23
-0.000018468
 33
0.0
 40
0.0
 40
0.0
 40
0.0
 40
0.0
 40
1.0
 40
1.0
 40
1.0
 40
1.0
 10
6.7418546642
 20
3.7990864984
 30
0.0
 10
6.7419934958
 20
3.7990804447
 30
0.0
 10
6.7421323251
 20
3.7990743386
 30
0.0
 10
6.7422711522
 20
3.7990681826
 30
0.0
 11
6.7418546642
 21
3.7990864984
 31
0.0
 11
6.7422711522
 21
3.7990681826
 31
0.0
  0
SPLINE
  5
44A
100
AcDbEntity
  8
0
100
AcDbSpline
 62
7
  6
CONTINUOUS
 70
0
 71
3
 72
8
 73
4
 74
2
 42
0.0000001
 43
0.0000001
 44
0.0000000001
 12
0.0004164804
 22
0.0000184677
 32
0.0
 13
0.0004164941
 23
0.0000181614
 33
0.0
 40
0.0
 40
0.0
 40
0.0
 40
0.0
 40
1.0
 40
1.0
 40
1.0
 40
1.0
 10
6.6952709189
 20
3.7990681826
 30
0.0
 10
6.6954097457
 20
3.7990743385
 30
0.0
 10
6.6955485748
 20
3.7990804446
 30
0.0
 10
6.6956874061
 20
3.7990864984
 30
0.0
 11
6.6952709189
 21
3.7990681826
 31
0.0
 11
6.6956874061
 21
3.7990864984
 31
0.0
  0
SPLINE
  5
44B
100
AcDbEntity
  8
0
100
AcDbSpline
 62
7
  6
CONTINUOUS
 70
0
 71
3
 72
8
 73
4
 74
2
 42
0.0000001
 43
0.0000001
 44
0.0000000001
 12
0.0012561166
 22
0.0000547734
 32
0.0
 13
0.001256246
 23
0.000051714
 33
0.0
 40
0.0
 40
0.0
 40
0.0
 40
0.0
 40
1.0
 40
1.0
 40
1.0
 40
1.0
 10
6.6956874061
 20
3.7990864984
 30
0.0
 10
6.6961061117
 20
3.7991047562
 30
0.0
 10
6.6965248381
 20
3.7991225382
 30
0.0
 10
6.6969435868
 20
3.7991397762
 30
0.0
 11
6.6956874061
 21
3.7990864984
 31
0.0
 11
6.6969435868
 21
3.7991397762
 31
0.0
  0
SPLINE
  5
44C
100
AcDbEntity
  8
0
100
AcDbSpline
 62
7
  6
CONTINUOUS
 70
0
 71
3
 72
14
 73
10
 74
8
 42
0.0000001
 43
0.0000001
 44
0.0000000001
 12
-0.0382599279
 22
-0.1298990696
 32
0.0
 13
-0.1354163593
 23
-0.0
 33
0.0
 40
0.0
 40
0.0
 40
0.0
 40
0.0
 40
0.1285853076
 40
0.2679727771
 40
0.404421303
 40
0.5408009597
 40
0.6908890847
 40
0.8481120728
 40
1.0
 40
1.0
 40
1.0
 40
1.0
 10
7.5027710351
 20
4.6861689658
 30
0.0
 10
7.5011311469
 20
4.6806012618
 30
0.0
 10
7.4961599566
 20
4.6694234524
 30
0.0
 10
7.4851624172
 20
4.6546964824
 30
0.0
 10
7.4713483902
 20
4.6420877848
 30
0.0
 10
7.4552469549
 20
4.6316862069
 30
0.0
 10
7.4368060092
 20
4.6236370197
 30
0.0
 10
7.4166054744
 20
4.6185858728
 30
0.0
 10
7.4026270718
 20
4.6174595227
 30
0.0
 10
7.3957710351
 20
4.6174595227
 30
0.0
 11
7.5027710351
 21
4.6861689658
 31
0.0
 11
7.4958271182
 21
4.670200902
 31
0.0
 11
7.4846374546
 21
4.6549999142
 31
0.0
 11
7.4710348506
 21
4.6424946317
 31
0.0
 11
7.4555422608
 21
4.6324423664
 31
0.0
 11
7.4369245618
 21
4.6242899429
 31
0.0
 11
7.4162723788
 21
4.6191154398
 31
0.0
 11
7.3957710351
 21
4.6174595227
 31
0.0
  0
SPLINE
  5
44D
100
AcDbEntity
  8
0
100
AcDbSpline
 62
7
  6
CONTINUOUS
 70
0
 71
3
 72
22
 73
18
 74
16
 42
0.0000001
 43
0.0000001
 44
0.0000000001
 12
-0.2136888785
 22
-0.0432234409
 32
0.0
 13
-0.2134989402
 23
0.0441513669
 33
0.0
 40
0.0
 40
0.0
 40
0.0
 40
0.0
 40
0.0306174762
 40
0.0788299961
 40
0.1426390815
 40
0.2195760093
 40
0.3067827044
 40
0.4010835494
 40
0.4989311956
 40
0.5966196405
 40
0.6904263627
 40
0.7768008401
 40
0.8525791479
 40
0.9149427892
 40
0.9614838156
 40
0.9902788077
 40
1.0
 40
1.0
 40
1.0
 40
1.0
 10
7.5027710351
 20
4.8575568403
 30
0.0
 10
7.5005901637
 20
4.8571157094
 30
0.0
 10
7.4949686211
 20
4.8560119288
 30
0.0
 10
7.4847677888
 20
4.8541661971
 30
0.0
 10
7.4712041447
 20
4.8520132609
 30
0.0
 10
7.4547747018
 20
4.8498716582
 30
0.0
 10
7.4360761955
 20
4.8480635767
 30
0.0
 10
7.4158047876
 20
4.8468686813
 30
0.0
 10
7.3947393744
 20
4.8464769288
 30
0.0
 10
7.3737116287
 20
4.8469519759
 30
0.0
 10
7.3535527713
 20
4.8482174562
 30
0.0
 10
7.3350404788
 20
4.8500724875
 30
0.0
 10
7.3188651821
 20
4.8522302636
 30
0.0
 10
7.30561363
 20
4.8543664694
 30
0.0
 10
7.2957692373
 20
4.8561656662
 30
0.0
 10
7.2897049347
 20
4.8573631984
 30
0.0
 10
7.2869628565
 20
4.8579251146
 30
0.0
 10
7.2862710351
 20
4.8580681826
 30
0.0
 11
7.5027710351
 21
4.8575568403
 31
0.0
 11
7.4962209517
 21
4.8562709263
 31
0.0
 11
7.485877656
 21
4.8544000979
 31
0.0
 11
7.4721380034
 21
4.8522206569
 31
0.0
 11
7.4555049209
 21
4.8500546514
 31
0.0
 11
7.4365804584
 21
4.8482271179
 31
0.0
 11
7.4160568285
 21
4.847019254
 31
0.0
 11
7.3947281006
 21
4.8466232836
 31
0.0
 11
7.3734358201
 21
4.8471034869
 31
0.0
 11
7.3530244592
 21
4.848382832
 31
0.0
 11
7.3342869942
 21
4.8502580208
 31
0.0
 11
7.317910863
 21
4.8524405014
 31
0.0
 11
7.3044876383
 21
4.854603028
 31
0.0
 11
7.2945061492
 21
4.8564266647
 31
0.0
 11
7.2883472708
 21
4.8576427191
 31
0.0
 11
7.2862710351
 21
4.8580681826
 31
0.0
  0
SPLINE
  5
44E
100
AcDbEntity
  8
0
100
AcDbSpline
 62
7
  6
CONTINUOUS
 70
0
 71
3
 72
8
 73
4
 74
2
 42
0.0000001
 43
0.0000001
 44
0.0000000001
 12
0.0004303179
 22
0.0034337187
 32
0.0
 13
0.0009485097
 23
0.0033325482
 33
0.0
 40
0.0
 40
0.0
 40
0.0
 40
0.0
 40
1.0
 40
1.0
 40
1.0
 40
1.0
 10
6.696948162
 20
3.7991399227
 30
0.0
 10
6.6970916013
 20
3.8002844956
 30
0.0
 10
6.697321219
 20
3.8014204482
 30
0.0
 10
6.6976373889
 20
3.8025312976
 30
0.0
 11
6.696948162
 21
3.7991399227
 31
0.0
 11
6.6976373889
 21
3.8025312976
 31
0.0
  0
SPLINE
  5
44F
100
AcDbEntity
  8
0
100
AcDbSpline
 62
7
  6
CONTINUOUS
 70
0
 71
3
 72
21
 73
17
 74
15
 42
0.0000001
 43
0.0000001
 44
0.0000000001
 12
0.0156752899
 22
0.0550744622
 32
0.0
 13
0.0156778228
 23
-0.0550646955
 33
0.0
 40
0.0
 40
0.0
 40
0.0
 40
0.0
 40
0.0012268216
 40
0.0649795685
 40
0.1311202633
 40
0.2000440831
 40
0.2696680334
 40
0.3445636647
 40
0.4295255046
 40
0.5233851218
 40
0.6219762833
 40
0.7182449858
 40
0.8039463501
 40
0.8770733082
 40
0.9411174143
 40
1.0
 40
1.0
 40
1.0
 40
1.0
 10
6.6976373889
 20
3.8025312976
 30
0.0
 10
6.6976437991
 20
3.8025538198
 30
0.0
 10
6.6979852081
 20
3.8037461782
 30
0.0
 10
6.6988755504
 20
3.8060930086
 30
0.0
 10
6.7007790232
 20
3.8093902194
 30
0.0
 10
6.703282115
 20
3.8124091427
 30
0.0
 10
6.7064001495
 20
3.8150561976
 30
0.0
 10
6.7102252214
 20
3.817235547
 30
0.0
 10
6.7148762409
 20
3.8187084701
 30
0.0
 10
6.7202118126
 20
3.819053681
 30
0.0
 10
6.725673496
 20
3.8179590275
 30
0.0
 10
6.7305215751
 20
3.8155661459
 30
0.0
 10
6.7342897589
 20
3.812431208
 30
0.0
 10
6.7369657349
 20
3.8091006954
 30
0.0
 10
6.7387837638
 20
3.8058172642
 30
0.0
 10
6.7395975106
 20
3.8036107199
 30
0.0
 10
6.7399052275
 20
3.8025299361
 30
0.0
 11
6.6976373889
 21
3.8025312976
 31
0.0
 11
6.6976567264
 21
3.8025988331
 31
0.0
 11
6.6989464388
 21
3.8060091473
 31
0.0
 11
6.7008383639
 21
3.8092846217
 31
0.0
 11
6.7033551397
 21
3.8123183364
 31
0.0
 11
6.7063922389
 21
3.8148933859
 31
0.0
 11
6.7101157954
 21
3.8170104172
 31
0.0
 11
6.7147495352
 21
3.8184727013
 31
0.0
 11
6.7201063247
 21
3.8188172741
 31
0.0
 11
6.7256357717
 21
3.8177139008
 31
0.0
 11
6.7305764281
 21
3.815284508
 31
0.0
 11
6.7343476491
 21
3.8121539315
 31
0.0
 11
6.7369682208
 21
3.8088946356
 31
0.0
 11
6.738743094
 21
3.8056906988
 31
0.0
 11
6.7399052275
 21
3.8025299361
 31
0.0
  0
SPLINE
  5
450
100
AcDbEntity
  8
0
100
AcDbSpline
 62
7
  6
CONTINUOUS
 70
0
 71
3
 72
16
 73
12
 74
10
 42
0.0000001
 43
0.0000001
 44
0.0000000001
 12
-0.0000644306
 22
-0.1529740194
 32
0.0
 13
0.1524171016
 23
0.0
 33
0.0
 40
0.0
 40
0.0
 40
0.0
 40
0.0
 40
0.0213689665
 40
0.1277256836
 40
0.2427471896
 40
0.3659858067
 40
0.4839536703
 40
0.6025807349
 40
0.7334452372
 40
0.8691023455
 40
1.0
 40
1.0
 40
1.0
 40
1.0
 10
7.2862728868
 20
4.7029717138
 30
0.0
 10
7.2862724279
 20
4.7018820816
 30
0.0
 10
7.2864633784
 20
4.6953699661
 30
0.0
 10
7.2889929182
 20
4.6831503183
 30
0.0
 10
7.2967213028
 20
4.6672653844
 30
0.0
 10
7.3080218644
 20
4.6529681887
 30
0.0
 10
7.3218453343
 20
4.640875778
 30
0.0
 10
7.3377437019
 20
4.6309493945
 30
0.0
 10
7.3558471734
 20
4.6232950048
 30
0.0
 10
7.3755548762
 20
4.6185197257
 30
0.0
 10
7.3891206881
 20
4.6174595227
 30
0.0
 10
7.3957710351
 20
4.6174595227
 30
0.0
 11
7.2862728868
 21
4.7029717138
 31
0.0
 11
7.2863682308
 21
4.699705391
 31
0.0
 11
7.289516074
 21
4.6838033764
 31
0.0
 11
7.2970532529
 21
4.6679750641
 31
0.0
 11
7.3086105263
 21
4.6531677755
 31
0.0
 11
7.322105247
 21
4.6412856707
 31
0.0
 11
7.3374250923
 21
4.63168268
 31
0.0
 11
7.3557880255
 21
4.6238951819
 31
0.0
 11
7.3758809182
 21
4.6190174983
 31
0.0
 11
7.3957710351
 21
4.6174595227
 31
0.0
  0
SPLINE
  5
451
100
AcDbEntity
  8
0
100
AcDbSpline
 62
7
  6
CONTINUOUS
 70
0
 71
3
 72
9
 73
5
 74
3
 42
0.0000001
 43
0.0000001
 44
0.0000000001
 12
-0.0156666312
 22
0.0084687894
 32
0.0
 13
-0.0168176516
 23
0.0058327799
 33
0.0
 40
0.0
 40
0.0
 40
0.0
 40
0.0
 40
0.9493422556
 40
1.0
 40
1.0
 40
1.0
 40
1.0
 10
7.4721001082
 20
4.6435176328
 30
0.0
 10
7.4671424432
 20
4.6461975594
 30
0.0
 10
7.4616739292
 20
4.6485479229
 30
0.0
 10
7.456074512
 20
4.6505115703
 30
0.0
 10
7.4557905306
 20
4.6506100622
 30
0.0
 11
7.4721001082
 21
4.6435176328
 31
0.0
 11
7.4566414838
 21
4.65031163
 31
0.0
 11
7.4557905306
 21
4.6506100622
 31
0.0
  0
SPLINE
  5
452
100
AcDbEntity
  8
0
100
AcDbSpline
 62
7
  6
CONTINUOUS
 70
0
 71
3
 72
9
 73
5
 74
3
 42
0.0000001
 43
0.0000001
 44
0.0000000001
 12
-0.0368049172
 22
0.0127648609
 32
0.0
 13
-0.0387425588
 23
0.0039406645
 33
0.0
 40
0.0
 40
0.0
 40
0.0
 40
0.0
 40
0.4801713154
 40
1.0
 40
1.0
 40
1.0
 40
1.0
 10
7.4557905306
 20
4.6506100622
 30
0.0
 10
7.4498996421
 20
4.6526531688
 30
0.0
 10
7.4373377655
 20
4.6560279817
 30
0.0
 10
7.4244872732
 20
4.6579673829
 30
0.0
 10
7.4177741087
 20
4.6586502064
 30
0.0
 11
7.4557905306
 21
4.6506100622
 31
0.0
 11
7.437769392
 21
4.6555631905
 31
0.0
 11
7.4177741087
 21
4.6586502064
 31
0.0
  0
SPLINE
  5
453
100
AcDbEntity
  8
0
100
AcDbSpline
 62
7
  6
CONTINUOUS
 70
0
 71
3
 72
9
 73
5
 74
3
 42
0.0000001
 43
0.0000001
 44
0.0000000001
 12
-0.0219306832
 22
0.0022306597
 32
0.0
 13
-0.0220311007
 23
0.0
 33
0.0
 40
0.0
 40
0.0
 40
0.0
 40
0.0
 40
0.0266218059
 40
1.0
 40
1.0
 40
1.0
 40
1.0
 10
7.4177741087
 20
4.6586502064
 30
0.0
 10
7.4175794972
 20
4.6586700012
 30
0.0
 10
7.4102682243
 20
4.6594032844
 30
0.0
 10
7.4029192328
 20
4.6597529416
 30
0.0
 10
7.3957710351
 20
4.6597529416
 30
0.0
 11
7.4177741087
 21
4.6586502064
 31
0.0
 11
7.4171901919
 21
4.6587087719
 31
0.0
 11
7.3957710351
 21
4.6597529416
 31
0.0
  0
SPLINE
  5
454
100
AcDbEntity
  8
0
100
AcDbSpline
 62
7
  6
CONTINUOUS
 70
0
 71
3
 72
11
 73
7
 74
5
 42
0.0000001
 43
0.0000001
 44
0.0000000001
 12
0.0000002874
 22
-0.0172248094
 32
0.0
 13
-0.004864447
 23
-0.0165156386
 33
0.0
 40
0.0
 40
0.0
 40
0.0
 40
0.0
 40
0.0126992219
 40
0.3359670669
 40
0.6655763865
 40
1.0
 40
1.0
 40
1.0
 40
1.0
 10
7.505271027
 20
4.703151623
 30
0.0
 10
7.5052710282
 20
4.7030787091
 30
0.0
 10
7.5052672053
 20
4.7011497285
 30
0.0
 10
7.5050581887
 20
4.697329655
 30
0.0
 10
7.5042187288
 20
4.6917184348
 30
0.0
 10
7.5033132971
 20
4.6880100389
 30
0.0
 10
7.5027710351
 20
4.6861689658
 30
0.0
 11
7.505271027
 21
4.703151623
 31
0.0
 11
7.505270594
 21
4.702932883
 31
0.0
 11
7.5049743508
 21
4.6973750318
 31
0.0
 11
7.5041388451
 21
4.6917619509
 31
0.0
 11
7.5027710351
 21
4.6861689658
 31
0.0
  0
SPLINE
  5
455
100
AcDbEntity
  8
0
100
AcDbSpline
 62
7
  6
CONTINUOUS
 70
0
 71
3
 72
8
 73
4
 74
2
 42
0.0000001
 43
0.0000001
 44
0.0000000001
 12
0.0118297785
 22
-0.006388554
 32
0.0
 13
0.0125411766
 23
-0.0048382303
 33
0.0
 40
0.0
 40
0.0
 40
0.0
 40
0.0
 40
1.0
 40
1.0
 40
1.0
 40
1.0
 10
7.3194753848
 20
4.0136006772
 30
0.0
 10
7.3234186443
 20
4.0114711592
 30
0.0
 10
7.3275095833
 20
4.0096251919
 30
0.0
 10
7.3316899755
 20
4.0080124484
 30
0.0
 11
7.3194753848
 21
4.0136006772
 31
0.0
 11
7.3316899755
 21
4.0080124484
 31
0.0
  0
SPLINE
  5
456
100
AcDbEntity
  8
0
100
AcDbSpline
 62
7
  6
CONTINUOUS
 70
0
 71
3
 72
10
 73
6
 74
4
 42
0.0000001
 43
0.0000001
 44
0.0000000001
 12
0.0233780966
 22
-0.0090189795
 32
0.0
 13
0.0245568455
 23
-0.0048958694
 33
0.0
 40
0.0
 40
0.0
 40
0.0
 40
0.0
 40
0.1371128996
 40
0.9196852336
 40
1.0
 40
1.0
 40
1.0
 40
1.0
 10
7.3316899755
 20
4.0080124484
 30
0.0
 10
7.3327584551
 20
4.0076002423
 30
0.0
 10
7.3399644823
 20
4.0049375638
 30
0.0
 10
7.3480381159
 20
4.0027465885
 30
0.0
 10
7.3550935823
 20
4.0012979227
 30
0.0
 10
7.355751008
 20
4.0011668525
 30
0.0
 11
7.3316899755
 21
4.0080124484
 31
0.0
 11
7.3349119733
 21
4.0068206977
 31
0.0
 11
7.3537809514
 21
4.0015714253
 31
0.0
 11
7.355751008
 21
4.0011668525
 31
0.0
  0
SPLINE
  5
457
100
AcDbEntity
  8
0
100
AcDbSpline
 62
7
  6
CONTINUOUS
 70
0
 71
3
 72
9
 73
5
 74
3
 42
0.0000001
 43
0.0000001
 44
0.0000000001
 12
0.0375250032
 22
-0.0074813157
 32
0.0
 13
0.0382468675
 23
-0.0003408427
 33
0.0
 40
0.0
 40
0.0
 40
0.0
 40
0.0
 40
0.4916885866
 40
1.0
 40
1.0
 40
1.0
 40
1.0
 10
7.355751008
 20
4.0011668525
 30
0.0
 10
7.3619012133
 20
3.9999406933
 30
0.0
 10
7.3745386924
 20
3.9981174048
 30
0.0
 10
7.387289806
 20
3.9974500811
 30
0.0
 10
7.3937702458
 20
3.9973923297
 30
0.0
 11
7.355751008
 21
4.0011668525
 31
0.0
 11
7.3743560938
 21
3.9984271763
 31
0.0
 11
7.3937702458
 21
3.9973923297
 31
0.0
  0
SPLINE
  5
458
100
AcDbEntity
  8
0
100
AcDbSpline
 62
7
  6
CONTINUOUS
 70
0
 71
3
 72
8
 73
4
 74
2
 42
0.0000001
 43
0.0000001
 44
0.0000000001
 12
0.0020008574
 22
-0.0000178309
 32
0.0
 13
0.0020006881
 23
0.0
 33
0.0
 40
0.0
 40
0.0
 40
0.0
 40
0.0
 40
1.0
 40
1.0
 40
1.0
 40
1.0
 10
7.3937702458
 20
3.9973923297
 30
0.0
 10
7.3944371983
 20
3.9973863861
 30
0.0
 10
7.3951041391
 20
3.9973834236
 30
0.0
 10
7.3957710351
 20
3.9973834236
 30
0.0
 11
7.3937702458
 21
3.9973923297
 31
0.0
 11
7.3957710351
 21
3.9973834236
 31
0.0
  0
SPLINE
  5
459
100
AcDbEntity
  8
0
100
AcDbSpline
 62
7
  6
CONTINUOUS
 70
0
 71
3
 72
8
 73
4
 74
2
 42
0.0000001
 43
0.0000001
 44
0.0000000001
 12
-0.0020006877
 22
0.0
 32
0.0
 13
-0.0020008568
 23
-0.0000178311
 33
0.0
 40
0.0
 40
0.0
 40
0.0
 40
0.0
 40
1.0
 40
1.0
 40
1.0
 40
1.0
 10
7.3957710351
 20
4.6597529416
 30
0.0
 10
7.3951041392
 20
4.6597529416
 30
0.0
 10
7.3944371985
 20
4.6597499791
 30
0.0
 10
7.3937702462
 20
4.6597440354
 30
0.0
 11
7.3957710351
 21
4.6597529416
 31
0.0
 11
7.3937702462
 21
4.6597440354
 31
0.0
  0
SPLINE
  5
45A
100
AcDbEntity
  8
0
100
AcDbSpline
 62
7
  6
CONTINUOUS
 70
0
 71
3
 72
9
 73
5
 74
3
 42
0.0000001
 43
0.0000001
 44
0.0000000001
 12
-0.0382467164
 22
-0.0003408446
 32
0.0
 13
-0.0375248774
 23
-0.0074812248
 33
0.0
 40
0.0
 40
0.0
 40
0.0
 40
0.0
 40
0.5080275308
 40
1.0
 40
1.0
 40
1.0
 40
1.0
 10
7.3937702462
 20
4.6597440354
 30
0.0
 10
7.3872934513
 20
4.6596863159
 30
0.0
 10
7.3745423947
 20
4.6590193007
 30
0.0
 10
7.3619049046
 20
4.6571963953
 30
0.0
 10
7.3557511691
 20
4.6559695431
 30
0.0
 11
7.3937702462
 21
4.6597440354
 31
0.0
 11
7.3743669863
 21
4.6587102657
 31
0.0
 11
7.3557511691
 21
4.6559695431
 31
0.0
  0
SPLINE
  5
45B
100
AcDbEntity
  8
0
100
AcDbSpline
 62
7
  6
CONTINUOUS
 70
0
 71
3
 72
10
 73
6
 74
4
 42
0.0000001
 43
0.0000001
 44
0.0000000001
 12
-0.0245574118
 22
-0.0048959392
 32
0.0
 13
-0.023378595
 23
-0.0090192515
 33
0.0
 40
0.0
 40
0.0
 40
0.0
 40
0.0
 40
0.0796303864
 40
0.8621089702
 40
1.0
 40
1.0
 40
1.0
 40
1.0
 10
7.3557511691
 20
4.6559695431
 30
0.0
 10
7.3550993304
 20
4.6558395879
 30
0.0
 10
7.3480499965
 20
4.6543925529
 30
0.0
 10
7.33997594
 20
4.6522024885
 30
0.0
 10
7.332764166
 20
4.6495383345
 30
0.0
 10
7.3316895998
 20
4.6491237765
 30
0.0
 11
7.3557511691
 21
4.6559695431
 31
0.0
 11
7.3537978353
 21
4.6555685086
 31
0.0
 11
7.3349300451
 21
4.6503220727
 31
0.0
 11
7.3316895998
 21
4.6491237765
 31
0.0
  0
SPLINE
  5
45C
100
AcDbEntity
  8
0
100
AcDbSpline
 62
7
  6
CONTINUOUS
 70
0
 71
3
 72
8
 73
4
 74
2
 42
0.0000001
 43
0.0000001
 44
0.0000000001
 12
-0.0124550781
 22
-0.004805057
 32
0.0
 13
-0.0117546299
 23
-0.0063331743
 33
0.0
 40
0.0
 40
0.0
 40
0.0
 40
0.0
 40
1.0
 40
1.0
 40
1.0
 40
1.0
 10
7.3316895998
 20
4.6491237765
 30
0.0
 10
7.3275379071
 20
4.6475220909
 30
0.0
 10
7.3234744597
 20
4.6456903625
 30
0.0
 10
7.3195562497
 20
4.6435793044
 30
0.0
 11
7.3316895998
 21
4.6491237765
 31
0.0
 11
7.3195562497
 21
4.6435793044
 31
0.0
  0
SPLINE
  5
45D
100
AcDbEntity
  8
0
100
AcDbSpline
 62
7
  6
CONTINUOUS
 70
0
 71
3
 72
9
 73
5
 74
3
 42
0.0000001
 43
0.0000001
 44
0.0000000001
 12
0.0220312113
 22
0.0
 32
0.0
 13
0.0219307689
 23
0.0022306614
 33
0.0
 40
0.0
 40
0.0
 40
0.0
 40
0.0
 40
0.9724898495
 40
1.0
 40
1.0
 40
1.0
 40
1.0
 10
7.3957710351
 20
3.9973834236
 30
0.0
 10
7.4029127449
 20
3.9973834236
 30
0.0
 10
7.4102617624
 20
3.9977327722
 30
0.0
 10
7.4175730991
 20
3.9984657122
 30
0.0
 10
7.4177742054
 20
3.9984861675
 30
0.0
 11
7.3957710351
 21
3.9973834236
 31
0.0
 11
7.4171707987
 21
3.998425676
 31
0.0
 11
7.4177742054
 21
3.9984861675
 31
0.0
  0
SPLINE
  5
45E
100
AcDbEntity
  8
0
100
AcDbSpline
 62
7
  6
CONTINUOUS
 70
0
 71
3
 72
9
 73
5
 74
3
 42
0.0000001
 43
0.0000001
 44
0.0000000001
 12
0.0387415117
 22
0.0039405457
 32
0.0
 13
0.0368041809
 23
0.0127641594
 33
0.0
 40
0.0
 40
0.0
 40
0.0
 40
0.0
 40
0.5189593527
 40
1.0
 40
1.0
 40
1.0
 40
1.0
 10
7.4177742054
 20
3.9984861675
 30
0.0
 10
7.424475962
 20
3.9991678285
 30
0.0
 10
7.4373261956
 20
4.0011061618
 30
0.0
 10
7.4498882006
 20
4.0044793028
 30
0.0
 10
7.4557896363
 20
4.006525996
 30
0.0
 11
7.4177742054
 21
3.9984861675
 31
0.0
 11
7.4377358344
 21
4.0015660816
 31
0.0
 11
7.4557896363
 21
4.006525996
 31
0.0
  0
SPLINE
  5
45F
100
AcDbEntity
  8
0
100
AcDbSpline
 62
7
  6
CONTINUOUS
 70
0
 71
3
 72
9
 73
5
 74
3
 42
0.0000001
 43
0.0000001
 44
0.0000000001
 12
0.0167975252
 22
0.005825596
 32
0.0
 13
0.0156498605
 23
0.0084548615
 33
0.0
 40
0.0
 40
0.0
 40
0.0
 40
0.0
 40
0.0483276105
 40
1.0
 40
1.0
 40
1.0
 40
1.0
 10
7.4557896363
 20
4.006525996
 30
0.0
 10
7.456060231
 20
4.0066198417
 30
0.0
 10
7.4616532547
 20
4.008580156
 30
0.0
 10
7.467115909
 20
4.0109260171
 30
0.0
 10
7.4720804224
 20
4.0136081032
 30
0.0
 11
7.4557896363
 21
4.006525996
 31
0.0
 11
7.4566005215
 21
4.0068102168
 31
0.0
 11
7.4720804224
 21
4.0136081032
 31
0.0
  0
SPLINE
  5
460
100
AcDbEntity
  8
0
100
AcDbSpline
 62
7
  6
CONTINUOUS
 70
0
 71
3
 72
22
 73
18
 74
16
 42
0.0000001
 43
0.0000001
 44
0.0000000001
 12
0.2134989415
 22
0.0441513673
 32
0.0
 13
0.2136888802
 23
-0.0432234413
 33
0.0
 40
0.0
 40
0.0
 40
0.0
 40
0.0
 40
0.0097383966
 40
0.0385724368
 40
0.0851670811
 40
0.1475752751
 40
0.223369826
 40
0.3097238839
 40
0.4034896718
 40
0.5011450728
 40
0.5989962501
 40
0.6933213234
 40
0.7805465033
 40
0.8574711829
 40
0.9212425526
 40
0.9694103093
 40
1.0
 40
1.0
 40
1.0
 40
1.0
 10
7.2862710351
 20
3.7990681826
 30
0.0
 10
7.2869640809
 20
3.7992115038
 30
0.0
 10
7.2897101657
 20
3.7997742319
 30
0.0
 10
7.2957823185
 20
3.8009732278
 30
0.0
 10
7.3056365792
 20
3.8027739071
 30
0.0
 10
7.3188964528
 20
3.8049107557
 30
0.0
 10
7.3350747999
 20
3.8070678707
 30
0.0
 10
7.35358395
 20
3.8089213601
 30
0.0
 10
7.3737360233
 20
3.8101853199
 30
0.0
 10
7.3947586639
 20
3.8106594303
 30
0.0
 10
7.4158236808
 20
3.8102669931
 30
0.0
 10
7.4360984013
 20
3.809071122
 30
0.0
 10
7.4547990295
 20
3.8072619589
 30
0.0
 10
7.4712261029
 20
3.8051198873
 30
0.0
 10
7.4847828691
 20
3.8029675481
 30
0.0
 10
7.4949757797
 20
3.8011230492
 30
0.0
 10
7.5005921429
 20
3.8000202554
 30
0.0
 10
7.5027710351
 20
3.7995795249
 30
0.0
 11
7.2862710351
 21
3.7990681826
 31
0.0
 11
7.2883509466
 21
3.7994943925
 31
0.0
 11
7.2945181937
 21
3.800712011
 31
0.0
 11
7.30451124
 21
3.8025374323
 31
0.0
 11
7.3179441657
 21
3.8047008124
 31
0.0
 11
7.3343239488
 21
3.8068826984
 31
0.0
 11
7.3530571071
 21
3.8087562169
 31
0.0
 11
7.3734596303
 21
3.8100339033
 31
0.0
 11
7.3947447273
 21
3.8105131148
 31
0.0
 11
7.4160742121
 21
3.8101164307
 31
0.0
 11
7.4366030689
 21
3.8089074712
 31
0.0
 11
7.4555314582
 21
3.8070786734
 31
0.0
 11
7.4721617921
 21
3.8049122385
 31
0.0
 11
7.4858932459
 21
3.8027335956
 31
0.0
 11
7.4962269026
 21
3.8008643061
 31
0.0
 11
7.5027710351
 21
3.7995795249
 31
0.0
  0
SPLINE
  5
461
100
AcDbEntity
  8
0
100
AcDbSpline
 62
7
  6
CONTINUOUS
 70
0
 71
3
 72
9
 73
5
 74
3
 42
0.0000001
 43
0.0000001
 44
0.0000000001
 12
-0.002422481
 22
-0.0009757369
 32
0.0
 13
-0.0025614959
 23
-0.0005181209
 33
0.0
 40
0.0
 40
0.0
 40
0.0
 40
0.0
 40
0.2746891725
 40
1.0
 40
1.0
 40
1.0
 40
1.0
 10
7.5052710351
 20
4.8583108318
 30
0.0
 10
7.5050492254
 20
4.8582214903
 30
0.0
 10
7.5042331667
 20
4.857915255
 30
0.0
 10
7.5033903287
 20
4.8576821065
 30
0.0
 10
7.5027710351
 20
4.8575568403
 30
0.0
 11
7.5052710351
 21
4.8583108318
 31
0.0
 11
7.5045988798
 21
4.858058766
 31
0.0
 11
7.5027710351
 21
4.8575568403
 31
0.0
  0
SPLINE
  5
462
100
AcDbEntity
  8
0
100
AcDbSpline
 62
7
  6
CONTINUOUS
 70
0
 71
3
 72
9
 73
5
 74
3
 42
0.0000001
 43
0.0000001
 44
0.0000000001
 12
0.0025614962
 22
-0.0005181209
 32
0.0
 13
0.0024224812
 23
-0.000975737
 33
0.0
 40
0.0
 40
0.0
 40
0.0
 40
0.0
 40
0.7252635164
 40
1.0
 40
1.0
 40
1.0
 40
1.0
 10
7.5027710351
 20
3.7995795249
 30
0.0
 10
7.5033902884
 20
3.7994542668
 30
0.0
 10
7.504233127
 20
3.7992211223
 30
0.0
 10
7.5050491871
 20
3.7989148903
 30
0.0
 10
7.5052710351
 20
3.7988255334
 30
0.0
 11
7.5027710351
 21
3.7995795249
 31
0.0
 11
7.5045987629
 21
3.7990776398
 31
0.0
 11
7.5052710351
 21
3.7988255334
 31
0.0
  0
SPLINE
  5
463
100
AcDbEntity
  8
0
100
AcDbSpline
 62
7
  6
CONTINUOUS
 70
0
 71
3
 72
10
 73
6
 74
4
 42
0.0000001
 43
0.0000001
 44
0.0000000001
 12
0.0048649846
 22
-0.0165174636
 32
0.0
 13
-0.0000008747
 23
-0.017226395
 33
0.0
 40
0.0
 40
0.0
 40
0.0
 40
0.0
 40
0.3481965918
 40
0.6866928057
 40
1.0
 40
1.0
 40
1.0
 40
1.0
 10
7.5027710351
 20
3.9709673994
 30
0.0
 10
7.5033356921
 20
3.9690502912
 30
0.0
 10
7.5042649387
 20
3.9652125928
 30
0.0
 10
7.5050866174
 20
3.9595239
 30
0.0
 10
7.5052711339
 20
3.9557815516
 30
0.0
 10
7.5052710425
 20
3.9539825005
 30
0.0
 11
7.5027710351
 21
3.9709673994
 31
0.0
 11
7.5041842178
 21
3.9651407206
 31
0.0
 11
7.5050126362
 21
3.9593713193
 31
0.0
 11
7.5052710425
 21
3.9539825005
 31
0.0
  0
SPLINE
  5
464
100
AcDbEntity
  8
0
100
AcDbSpline
 62
7
  6
CONTINUOUS
 70
0
 71
3
 72
10
 73
6
 74
4
 42
0.0000001
 43
0.0000001
 44
0.0000000001
 12
0.0049520597
 22
-0.0153965281
 32
0.0
 13
0.00000027
 23
-0.0161805353
 33
0.0
 40
0.0
 40
0.0
 40
0.0
 40
0.0
 40
0.3397991136
 40
0.6752751801
 40
1.0
 40
1.0
 40
1.0
 40
1.0
 10
7.5027710351
 20
4.7190703335
 30
0.0
 10
7.503331937
 20
4.7173264247
 30
0.0
 10
7.5042765624
 20
4.7138024978
 30
0.0
 10
7.505100002
 20
4.7084642307
 30
0.0
 10
7.5052709978
 20
4.7049030301
 30
0.0
 10
7.505271027
 20
4.703151623
 30
0.0
 11
7.5027710351
 21
4.7190703335
 31
0.0
 11
7.5041842178
 21
4.7137594602
 31
0.0
 11
7.5050126362
 21
4.708397317
 31
0.0
 11
7.505271027
 21
4.703151623
 31
0.0
  0
SPLINE
  5
465
100
AcDbEntity
  8
0
100
AcDbSpline
 62
7
  6
CONTINUOUS
 70
0
 71
3
 72
14
 73
10
 74
8
 42
0.0000001
 43
0.0000001
 44
0.0000000001
 12
-0.0388666792
 22
0.1208410138
 32
0.0
 13
-0.1269376594
 23
0.0
 33
0.0
 40
0.0
 40
0.0
 40
0.0
 40
0.0
 40
0.1175033962
 40
0.240534922
 40
0.3732601618
 40
0.5168696166
 40
0.6711831321
 40
0.8335721638
 40
1.0
 40
1.0
 40
1.0
 40
1.0
 10
7.5027710351
 20
4.7190703335
 30
0.0
 10
7.5012487129
 20
4.72380341
 30
0.0
 10
7.4966864889
 20
4.7330785691
 30
0.0
 10
7.4861016919
 20
4.745004897
 30
0.0
 10
7.4722519192
 20
4.754890662
 30
0.0
 10
7.4556736491
 20
4.7626445741
 30
0.0
 10
7.4369487478
 20
4.7682179257
 30
0.0
 10
7.4167384444
 20
4.7715727982
 30
0.0
 10
7.4028130218
 20
4.7723159078
 30
0.0
 10
7.3957710351
 20
4.7723159078
 30
0.0
 11
7.5027710351
 21
4.7190703335
 31
0.0
 11
7.4962523012
 21
4.7324860487
 31
0.0
 11
7.4860024393
 21
4.7442691489
 31
0.0
 11
7.4723860668
 21
4.7541910347
 31
0.0
 11
7.4559346212
 21
4.7620435956
 31
0.0
 11
7.4371905358
 21
4.7677318911
 31
0.0
 11
7.4168658455
 21
4.7711691023
 31
0.0
 11
7.3957710351
 21
4.7723159078
 31
0.0
  0
SPLINE
  5
466
100
AcDbEntity
  8
0
100
AcDbSpline
 62
7
  6
CONTINUOUS
 70
0
 71
3
 72
15
 73
11
 74
9
 42
0.0000001
 43
0.0000001
 44
0.0000000001
 12
-0.1432225825
 22
0.0
 32
0.0
 13
-0.0000605438
 23
-0.1437459045
 33
0.0
 40
0.0
 40
0.0
 40
0.0
 40
0.0
 40
0.15324304
 40
0.3024844943
 40
0.4437599423
 40
0.5746904877
 40
0.6953761478
 40
0.807320099
 40
0.9150632853
 40
1.0
 40
1.0
 40
1.0
 40
1.0
 10
7.3957710351
 20
4.7723159078
 30
0.0
 10
7.3884550805
 20
4.7723159078
 30
0.0
 10
7.3740003305
 20
4.771515079
 30
0.0
 10
7.353074825
 20
4.7678980835
 30
0.0
 10
7.3338010914
 20
4.7618883819
 30
0.0
 10
7.3169073541
 20
4.7535220054
 30
0.0
 10
7.3030424671
 20
4.7428518363
 30
0.0
 10
7.2928197856
 20
4.7299722693
 30
0.0
 10
7.2873040024
 20
4.7162779709
 30
0.0
 10
7.286274601
 20
4.7070414821
 30
0.0
 10
7.2862728868
 20
4.7029717138
 30
0.0
 11
7.3957710351
 21
4.7723159078
 31
0.0
 11
7.3738581525
 21
4.7710772361
 31
0.0
 11
7.3528082677
 21
4.767364806
 31
0.0
 11
7.3335284421
 21
4.7612250678
 31
0.0
 11
7.3167980938
 21
4.7527550704
 31
0.0
 11
7.3032163997
 21
4.742063683
 31
0.0
 11
7.2933739587
 21
4.7294074476
 31
0.0
 11
7.2876600744
 21
4.7150730403
 31
0.0
 11
7.2862728868
 21
4.7029717138
 31
0.0
  0
SPLINE
  5
467
100
AcDbEntity
  8
0
100
AcDbSpline
 62
7
  6
CONTINUOUS
 70
0
 71
3
 72
15
 73
11
 74
9
 42
0.0000001
 43
0.0000001
 44
0.0000000001
 12
0.0000668233
 22
-0.1437257538
 32
0.0
 13
0.1432265953
 23
-0.0
 33
0.0
 40
0.0
 40
0.0
 40
0.0
 40
0.0
 40
0.0915832371
 40
0.1984239475
 40
0.3096596607
 40
0.4295725034
 40
0.5596710706
 40
0.6999213674
 40
0.847984713
 40
1.0
 40
1.0
 40
1.0
 40
1.0
 10
7.2862721983
 20
3.9541644814
 30
0.0
 10
7.2862742383
 20
3.9497768582
 30
0.0
 10
7.2874225554
 20
3.9402630843
 30
0.0
 10
7.2932665878
 20
3.9264462107
 30
0.0
 10
7.3035745547
 20
3.9137909989
 30
0.0
 10
7.317434298
 20
3.9033048757
 30
0.0
 10
7.3342541942
 20
3.8950792461
 30
0.0
 10
7.3534050431
 20
3.8891677954
 30
0.0
 10
7.3741735372
 20
3.8856086927
 30
0.0
 10
7.3885134911
 20
3.8848204574
 30
0.0
 10
7.3957710351
 20
3.8848204574
 30
0.0
 11
7.2862721983
 21
3.9541644814
 31
0.0
 11
7.2878873781
 21
3.9411352705
 31
0.0
 11
7.2937921643
 21
3.9270179797
 31
0.0
 11
7.3037311194
 21
3.914566353
 31
0.0
 11
7.3173157005
 21
3.9040577966
 31
0.0
 11
7.3339839042
 21
3.8957282649
 31
0.0
 11
7.3531426502
 21
3.8896906313
 31
0.0
 11
7.3740325421
 21
3.8860392377
 31
0.0
 11
7.3957710351
 21
3.8848204574
 31
0.0
  0
SPLINE
  5
468
100
AcDbEntity
  8
0
100
AcDbSpline
 62
7
  6
CONTINUOUS
 70
0
 71
3
 72
11
 73
7
 74
5
 42
0.0000001
 43
0.0000001
 44
0.0000000001
 12
-0.0000008215
 22
-0.0161783749
 32
0.0
 13
-0.0049514899
 23
-0.0153947563
 33
0.0
 40
0.0
 40
0.0
 40
0.0
 40
0.0
 40
0.0135121674
 40
0.3475841507
 40
0.6736497584
 40
1.0
 40
1.0
 40
1.0
 40
1.0
 10
7.5052710425
 20
3.9539825005
 30
0.0
 10
7.5052710388
 20
3.9539096322
 30
0.0
 10
7.5052671968
 20
3.9520351753
 30
0.0
 10
7.5050722998
 20
3.948402572
 30
0.0
 10
7.504228871
 20
3.9431425151
 30
0.0
 10
7.5033096751
 20
3.9397407258
 30
0.0
 10
7.5027710351
 20
3.9380660317
 30
0.0
 11
7.5052710425
 21
3.9539825005
 31
0.0
 11
7.505270594
 21
3.9537638952
 31
0.0
 11
7.5049743508
 21
3.9483695954
 31
0.0
 11
7.5041388451
 21
3.9431632562
 31
0.0
 11
7.5027710351
 21
3.9380660317
 31
0.0
  0
SPLINE
  5
469
100
AcDbEntity
  8
0
100
AcDbSpline
 62
7
  6
CONTINUOUS
 70
0
 71
3
 72
14
 73
10
 74
8
 42
0.0000001
 43
0.0000001
 44
0.0000000001
 12
-0.0388666436
 22
-0.120840903
 32
0.0
 13
-0.126937543
 23
0.0
 33
0.0
 40
0.0
 40
0.0
 40
0.0
 40
0.0
 40
0.1176128096
 40
0.2407149756
 40
0.3735519023
 40
0.5171662329
 40
0.6714315703
 40
0.8337342796
 40
1.0
 40
1.0
 40
1.0
 40
1.0
 10
7.5027710351
 20
3.9380660317
 30
0.0
 10
7.5012472967
 20
3.9333285523
 30
0.0
 10
7.4966802338
 20
3.924046837
 30
0.0
 10
7.4860835335
 20
3.912114344
 30
0.0
 10
7.4722235328
 20
3.9022290473
 30
0.0
 10
7.4556401599
 20
3.8944795073
 30
0.0
 10
7.4369193174
 20
3.8889121598
 30
0.0
 10
7.4167210155
 20
3.8855622926
 30
0.0
 10
7.4028061558
 20
3.8848204574
 30
0.0
 10
7.3957710351
 20
3.8848204574
 30
0.0
 11
7.5027710351
 21
3.9380660317
 31
0.0
 11
7.4962445243
 21
3.9246386692
 31
0.0
 11
7.4859853984
 21
3.9128517627
 31
0.0
 11
7.4723540009
 21
3.9029264509
 31
0.0
 11
7.4558993329
 21
3.8950792455
 31
0.0
 11
7.4371597273
 21
3.8893973118
 31
0.0
 11
7.4168453397
 21
3.8859650073
 31
0.0
 11
7.3957710351
 21
3.8848204574
 31
0.0
  0
SPLINE
  5
46A
100
AcDbEntity
  8
128-200_FEATURES
100
AcDbSpline
 62
7
  6
CONTINUOUS
 70
0
 71
3
 72
14
 73
10
 74
8
 42
0.0000001
 43
0.0000001
 44
0.0000000001
 12
0.0424698391
 22
-0.0000240964
 32
0.0
 13
0.042448639
 23
-0.0013421072
 33
0.0
 40
0.0
 40
0.0
 40
0.0
 40
0.0
 40
0.1734310363
 40
0.3448010762
 40
0.5096985228
 40
0.6642320286
 40
0.8040798881
 40
0.9203804451
 40
1.0
 40
1.0
 40
1.0
 40
1.0
 10
6.0827710351
 20
3.6783064872
 30
0.0
 10
6.0852262312
 20
3.6783050941
 30
0.0
 10
6.0901074496
 20
3.6782885258
 30
0.0
 10
6.0973228024
 20
3.6782241665
 30
0.0
 10
6.1042702123
 20
3.6781253846
 30
0.0
 10
6.1107708756
 20
3.6780007605
 30
0.0
 10
6.1165831317
 20
3.6778632068
 30
0.0
 10
6.1213346799
 20
3.6777324254
 30
0.0
 10
6.124106964
 20
3.6776480342
 30
0.0
 10
6.1252335446
 20
3.6776124149
 30
0.0
 11
6.0827710351
 21
3.6783064872
 31
0.0
 11
6.0901365825
 21
3.6782816036
 31
0.0
 11
6.0974143532
 21
3.6782167994
 31
0.0
 11
6.1044168159
 21
3.6781173332
 31
0.0
 11
6.1109786259
 21
3.6779916169
 31
0.0
 11
6.1169162818
 21
3.6778511542
 31
0.0
 11
6.1218536796
 21
3.6777152908
 31
0.0
 11
6.1252335446
 21
3.6776124149
 31
0.0
  0
SPLINE
  5
46B
100
AcDbEntity
  8
128-200_FEATURES
100
AcDbSpline
 62
7
  6
CONTINUOUS
 70
0
 71
3
 72
9
 73
5
 74
3
 42
0.0000001
 43
0.0000001
 44
0.0000000001
 12
0.0013781321
 22
-0.0000435727
 32
0.0
 13
0.0013780896
 23
-0.0000448911
 33
0.0
 40
0.0
 40
0.0
 40
0.0
 40
0.0
 40
0.0507613297
 40
1.0
 40
1.0
 40
1.0
 40
1.0
 10
6.1252335446
 20
3.6776124149
 30
0.0
 10
6.1252568632
 20
3.6776116776
 30
0.0
 10
6.1257162402
 20
3.6775971422
 30
0.0
 10
6.1261756102
 20
3.6775823867
 30
0.0
 10
6.1266116556
 20
3.6775681826
 30
0.0
 11
6.1252335446
 21
3.6776124149
 31
0.0
 11
6.1253035003
 21
3.6776102014
 31
0.0
 11
6.1266116556
 21
3.6775681826
 31
0.0
  0
SPLINE
  5
46C
100
AcDbEntity
  8
128-200_FEATURES
100
AcDbSpline
 62
7
  6
CONTINUOUS
 70
0
 71
3
 72
8
 73
4
 74
2
 42
0.0000001
 43
0.0000001
 44
0.0000000001
 12
0.0010517596
 22
0.0011225888
 32
0.0
 13
0.0010534567
 23
0.0011209971
 33
0.0
 40
0.0
 40
0.0
 40
0.0
 40
0.0
 40
1.0
 40
1.0
 40
1.0
 40
1.0
 10
6.0608507249
 20
3.6556478724
 30
0.0
 10
6.0612013115
 20
3.6560220686
 30
0.0
 10
6.0615521803
 20
3.6563960005
 30
0.0
 10
6.0619033326
 20
3.6567696662
 30
0.0
 11
6.0608507249
 21
3.6556478724
 31
0.0
 11
6.0619033326
 21
3.6567696662
 31
0.0
  0
SPLINE
  5
46D
100
AcDbEntity
  8
128-200_FEATURES
100
AcDbSpline
 62
7
  6
CONTINUOUS
 70
0
 71
3
 72
11
 73
7
 74
5
 42
0.0000001
 43
0.0000001
 44
0.0000000001
 12
0.0205371222
 22
0.0218538211
 32
0.0
 13
0.0212056876
 23
0.0212056876
 33
0.0
 40
0.0
 40
0.0
 40
0.0
 40
0.0
 40
0.1505642771
 40
0.3834581752
 40
0.6764269267
 40
1.0
 40
1.0
 40
1.0
 40
1.0
 10
6.0619033326
 20
3.6567696662
 30
0.0
 10
6.0629340516
 20
3.6578664678
 30
0.0
 10
6.0655653117
 20
3.6606539698
 30
0.0
 10
6.0702351277
 20
3.665544422
 30
0.0
 10
6.0761487191
 20
3.6716382138
 30
0.0
 10
6.0804838386
 20
3.6760192907
 30
0.0
 10
6.0827710351
 20
3.6783064872
 30
0.0
 11
6.0619033326
 21
3.6567696662
 31
0.0
 11
6.0650028392
 21
3.6600531468
 31
0.0
 11
6.0698263882
 21
3.6651043251
 31
0.0
 11
6.0759453418
 21
3.6714091883
 31
0.0
 11
6.0827710351
 21
3.6783064872
 31
0.0
  0
SPLINE
  5
46E
100
AcDbEntity
  8
0
100
AcDbSpline
 62
7
  6
CONTINUOUS
 70
0
 71
3
 72
15
 73
11
 74
9
 42
0.0000001
 43
0.0000001
 44
0.0000000001
 12
-0.1684866262
 22
0.3090653096
 32
0.0
 13
0.1684866262
 23
0.3090653096
 33
0.0
 40
0.0
 40
0.0
 40
0.0
 40
0.0
 40
0.1361861867
 40
0.2623602305
 40
0.3825822181
 40
0.50004626
 40
0.6175064396
 40
0.737718306
 40
0.8638418781
 40
1.0
 40
1.0
 40
1.0
 40
1.0
 10
4.5561552091
 20
3.6199291837
 30
0.0
 10
4.548506692
 20
3.6339593257
 30
0.0
 10
4.5348610998
 20
3.6616138847
 30
0.0
 10
4.5193403023
 20
3.7038410847
 30
0.0
 10
4.5098223473
 20
3.7456004608
 30
0.0
 10
4.5065959456
 20
3.7873091164
 30
0.0
 10
4.509827174
 20
3.8290161735
 30
0.0
 10
4.5193474257
 20
3.8707671879
 30
0.0
 10
4.5348665418
 20
3.9129837777
 30
0.0
 10
4.5485082682
 20
3.9406299308
 30
0.0
 10
4.5561552091
 20
3.9546571815
 30
0.0
 11
4.5561552091
 21
3.6199291837
 31
0.0
 11
4.5351492395
 21
3.6630203837
 31
0.0
 11
4.5200298962
 21
3.7047819061
 31
0.0
 11
4.510788422
 21
3.7460795324
 31
0.0
 11
4.5076638687
 21
3.7873095022
 31
0.0
 11
4.5107930921
 21
3.8285377543
 31
0.0
 11
4.5200377275
 21
3.8698310222
 31
0.0
 11
4.5351531216
 21
3.9115750794
 31
0.0
 11
4.5561552091
 21
3.9546571815
 31
0.0
  0
SPLINE
  5
46F
100
AcDbEntity
  8
0
100
AcDbSpline
 62
7
  6
CONTINUOUS
 70
0
 71
3
 72
15
 73
11
 74
9
 42
0.0000001
 43
0.0000001
 44
0.0000000001
 12
-0.1783968506
 22
0.654488479
 32
0.0
 13
0.1783968506
 23
0.654488479
 33
0.0
 40
0.0
 40
0.0
 40
0.0
 40
0.0
 40
0.1307633826
 40
0.2558882418
 40
0.378404165
 40
0.500048086
 40
0.6216872073
 40
0.7441908788
 40
0.8692640326
 40
1.0
 40
1.0
 40
1.0
 40
1.0
 10
4.5561552091
 20
3.9938401848
 30
0.0
 10
4.5483792839
 20
4.022367894
 30
0.0
 10
4.5345638901
 20
4.0785923654
 30
0.0
 10
4.5191725058
 20
4.1628197163
 30
0.0
 10
4.509780015
 20
4.2458653456
 30
0.0
 10
4.5066083737
 20
4.3285997692
 30
0.0
 10
4.5097847705
 20
4.4113312233
 30
0.0
 10
4.5191796323
 20
4.4943609015
 30
0.0
 10
4.5345695004
 20
4.5785674498
 30
0.0
 10
4.5483809141
 20
4.6347744522
 30
0.0
 10
4.5561552091
 20
4.6632961804
 30
0.0
 11
4.5561552091
 21
3.9938401848
 31
0.0
 11
4.5351492395
 21
4.0800225847
 31
0.0
 11
4.5200298962
 21
4.1635456296
 31
0.0
 11
4.510788422
 21
4.2461408821
 31
0.0
 11
4.5076638687
 21
4.3286008218
 31
0.0
 11
4.5107930921
 21
4.4110573261
 31
0.0
 11
4.5200377275
 21
4.4936438617
 31
0.0
 11
4.5351531216
 21
4.5771319762
 31
0.0
 11
4.5561552091
 21
4.6632961804
 31
0.0
  0
SPLINE
  5
470
100
AcDbEntity
  8
0
100
AcDbSpline
 62
7
  6
CONTINUOUS
 70
0
 71
3
 72
15
 73
11
 74
9
 42
0.0000001
 43
0.0000001
 44
0.0000000001
 12
-0.1684866262
 22
0.3090653096
 32
0.0
 13
0.1684866262
 23
0.3090653096
 33
0.0
 40
0.0
 40
0.0
 40
0.0
 40
0.0
 40
0.1361861867
 40
0.2623602305
 40
0.3825822181
 40
0.50004626
 40
0.6175064396
 40
0.737718306
 40
0.8638418781
 40
1.0
 40
1.0
 40
1.0
 40
1.0
 10
4.5561552091
 20
4.7024791837
 30
0.0
 10
4.548506692
 20
4.7165093257
 30
0.0
 10
4.5348610998
 20
4.7441638847
 30
0.0
 10
4.5193403023
 20
4.7863910847
 30
0.0
 10
4.5098223473
 20
4.8281504608
 30
0.0
 10
4.5065959456
 20
4.8698591164
 30
0.0
 10
4.509827174
 20
4.9115661735
 30
0.0
 10
4.5193474257
 20
4.9533171879
 30
0.0
 10
4.5348665418
 20
4.9955337777
 30
0.0
 10
4.5485082682
 20
5.0231799308
 30
0.0
 10
4.5561552091
 20
5.0372071815
 30
0.0
 11
4.5561552091
 21
4.7024791837
 31
0.0
 11
4.5351492395
 21
4.7455703837
 31
0.0
 11
4.5200298962
 21
4.7873319061
 31
0.0
 11
4.510788422
 21
4.8286295324
 31
0.0
 11
4.5076638687
 21
4.8698595022
 31
0.0
 11
4.5107930921
 21
4.9110877543
 31
0.0
 11
4.5200377275
 21
4.9523810222
 31
0.0
 11
4.5351531216
 21
4.9941250794
 31
0.0
 11
4.5561552091
 21
5.0372071815
 31
0.0
  0
ENDSEC
  0
SECTION
  2
OBJECTS
  0
DICTIONARY
  5
C
100
AcDbDictionary
280
0
281
1
  3
ACAD_GROUP
350
D
  3
ACAD_MLINESTYLE
350
17
  3
ACAD_LAYOUT
350
1A
  3
ACAD_PLOTSETTINGS
350
19
  3
ACAD_PLOTSTYLENAME
350
E
  0
DICTIONARY
  5
D
102
{ACAD_REACTORS
330
C
102
}
100
AcDbDictionary
280
0
281
1
  0
ACDBDICTIONARYWDFLT
  5
E
102
{ACAD_REACTORS
330
C
102
}
100
AcDbDictionary
281
1
  3
Normal
350
F
100
AcDbDictionaryWithDefault
340
F
  0
DICTIONARY
  5
17
102
{ACAD_REACTORS
330
C
102
}
100
AcDbDictionary
280
0
281
1
  3
Standard
350
18
  0
DICTIONARY
  5
19
102
{ACAD_REACTORS
330
C
102
}
100
AcDbDictionary
281
1
  0
DICTIONARY
  5
1A
102
{ACAD_REACTORS
330
C
102
}
100
AcDbDictionary
281
1
  3
Layout1
350
1E
  3
Model
350
22
  0
ACDBPLACEHOLDER
  5
F
102
{ACAD_REACTORS
330
E
102
}
  0
MLINESTYLE
  5
18
102
{ACAD_REACTORS
330
17
102
}
100
AcDbMlineStyle
  2
STANDARD
 70
0
  3

 62
256
 51
90.0
 52
90.0
 71
2
 49
0.5
 62
256
  6
BYLAYER
 49
-0.5
 62
256
  6
BYLAYER
  0
LAYOUT
  5
1E
102
{ACAD_REACTORS
330
1A
102
}
100
AcDbPlotSettings
  1

  2

  4

  6

 40
0.0
 41
0.0
 42
0.0
 43
0.0
 44
0.0
 45
0.0
 46
0.0
 47
0.0
 48
0.0
 49
0.0
140
0.0
141
0.0
142
1.0
143
1.0
 70
0
 72
0
 73
0
 74
0
  7

 75
0
147
1.0
148
0.0
149
0.0
100
AcDbLayout
  1
Layout1
 70
0
 71
0
 10
0.0
 20
0.0
 11
0.0
 21
0.0
 12
0.0
 22
0.0
 32
0.0
 14
0.0
 24
0.0
 34
0.0
 15
0.0
 25
0.0
 35
0.0
146
0.0
 13
0.0
 23
0.0
 33
0.0
 16
0.0
 26
0.0
 36
0.0
 17
0.0
 27
0.0
 37
0.0
 76
0
330
1B
331
0
345
0
346
0
  0
LAYOUT
  5
22
102
{ACAD_REACTORS
330
1A
102
}
100
AcDbPlotSettings
  1

  2

  4

  6

 40
0.0
 41
0.0
 42
0.0
 43
0.0
 44
0.0
 45
0.0
 46
0.0
 47
0.0
 48
0.0
 49
0.0
140
0.0
141
0.0
142
1.0
143
1.0
 70
0
 72
0
 73
0
 74
0
  7

 75
0
147
1.0
148
0.0
149
0.0
100
AcDbLayout
  1
Model
 70
0
 71
0
 10
0.0
 20
0.0
 11
0.0
 21
0.0
 12
0.0
 22
0.0
 32
0.0
 14
0.0
 24
0.0
 34
0.0
 15
0.0
 25
0.0
 35
0.0
146
0.0
 13
0.0
 23
0.0
 33
0.0
 16
0.0
 26
0.0
 36
0.0
 17
0.0
 27
0.0
 37
0.0
 76
0
330
1F
331
0
345
0
346
0
  0
ENDSEC
  0
EOF
