999
DXF file: RPGC-LNN.dxf
999
Pro/ENGINEER 2006240 by Parametric Technology Corporation
  0
SECTION
  2
HEADER
  9
$ACADVER
  1
AC1015
  9
$DWGCODEPAGE
  3
ANSI_1252
  9
$EXTMAX
 10
11.6929133858
 20
8.2677165354
 30
0.0
  9
$EXTMIN
 10
0.0
 20
0.0
 30
0.0
  9
$LIMMIN
 10
0.0
 20
0.0
  9
$LIMMAX
 10
11.6929133858
 20
8.2677165354
  9
$VIEWCTR
 10
5.8464566929
 20
4.1338582677
  9
$VIEWSIZE
 40
8.2677165354
  9
$CLAYER
  8
0
  9
$LTSCALE
 40
0.6431102362
  9
$CELTYPE
  6
BYLAYER
  9
$DIMSCALE
 40
1.0
  9
$DIMASZ
 40
0.1875
  9
$DIMEXO
 40
0.0730807087
  9
$DIMDLI
 40
0.4443307087
  9
$DIMEXE
 40
0.2104724409
  9
$DIMCEN
 40
0.1052362205
  9
$DIMLFAC
 40
1.0
  9
$DIMBLK
  1
_CLOSED
  9
$DIMTXT
 40
0.15625
  9
$DIMTOL
 70
0
  9
$DIMLIM
 70
0
  9
$DIMTFAC
 40
1.0
  9
$PDMODE
 70
3
  9
$PDSIZE
 40
0.3125
  9
$HANDSEED
  5
48B
  9
$MEASUREMENT
 70
0
  9
$INSUNITS
 70
1
  0
ENDSEC
  0
SECTION
  2
CLASSES
  0
CLASS
  1
ACDBDICTIONARYWDFLT
  2
AcDbDictionaryWithDefault
  3
AutoCAD 2000
 90
0
280
0
281
0
  0
CLASS
  1
ACDBPLACEHOLDER
  2
AcDbPlaceHolder
  3
AutoCAD 2000
 90
0
280
0
281
0
  0
CLASS
  1
LAYOUT
  2
AcDbLayout
  3
AutoCAD 2000
 90
0
280
0
281
0
  0
ENDSEC
  0
SECTION
  2
TABLES
  0
TABLE
  2
VPORT
  5
8
100
AcDbSymbolTable
 70
2
  0
VPORT
  5
1F4
100
AcDbSymbolTableRecord
100
AcDbViewportTableRecord
  2
*ACTIVE
 70
0
 10
0.0
 20
0.0
 11
1.0
 21
1.0
 12
5.8464566929
 22
4.1338582677
 13
0.0
 23
0.0
 14
1.0
 24
1.0
 15
0.0
 25
0.0
 16
0.0
 26
0.0
 36
1.0
 17
0.0
 27
0.0
 37
0.0
 40
8.2677165354
 41
1.4142857143
 42
50.0
 43
0.0
 44
0.0
 50
0.0
 51
0.0
 71
0
 72
100
 73
1
 74
1
 75
0
 76
0
 77
0
 78
0
  0
ENDTAB
  0
TABLE
  2
LTYPE
  5
5
100
AcDbSymbolTable
 70
6
  0
LTYPE
  5
14
100
AcDbSymbolTableRecord
100
AcDbLinetypeTableRecord
  2
BYBLOCK
 70
0
  3

 72
65
 73
0
 40
0.0
  0
LTYPE
  5
15
100
AcDbSymbolTableRecord
100
AcDbLinetypeTableRecord
  2
BYLAYER
 70
0
  3

 72
65
 73
0
 40
0.0
  0
LTYPE
  5
16
100
AcDbSymbolTableRecord
100
AcDbLinetypeTableRecord
  2
CONTINUOUS
 70
64
  3
Solid line
 72
65
 73
0
 40
0.0
  0
LTYPE
  5
1F5
100
AcDbSymbolTableRecord
100
AcDbLinetypeTableRecord
  2
CENTER
 70
64
  3
____ _ ____ _ ____ _ ____ _ ____ _ ____ _ ____
 72
65
 73
4
 40
0.6
 49
0.375
 74
0
 49
-0.075
 74
0
 49
0.075
 74
0
 49
-0.075
 74
0
  0
LTYPE
  5
1F6
100
AcDbSymbolTableRecord
100
AcDbLinetypeTableRecord
  2
HIDDEN
 70
64
  3
- - - - - - - - - - - - - - - - - - - -
 72
65
 73
2
 40
0.2
 49
0.1
 74
0
 49
-0.1
 74
0
  0
LTYPE
  5
1F7
100
AcDbSymbolTableRecord
100
AcDbLinetypeTableRecord
  2
PHANTOM
 70
64
  3
_____ _ _ _____ _ _ _____ _ _ _____
 72
65
 73
6
 40
0.8
 49
0.45
 74
0
 49
-0.05
 74
0
 49
0.1
 74
0
 49
-0.05
 74
0
 49
0.1
 74
0
 49
-0.05
 74
0
  0
LTYPE
  5
1F8
100
AcDbSymbolTableRecord
100
AcDbLinetypeTableRecord
  2
DOT
 70
64
  3
. . . . . . . . . . . . . . . . . . . .
 72
65
 73
2
 40
0.2
 49
0.1
 74
0
 49
-0.1
 74
0
  0
LTYPE
  5
1F9
100
AcDbSymbolTableRecord
100
AcDbLinetypeTableRecord
  2
DASHED
 70
64
  3
- - - - - - - - - - - - - - - - - - - -
 72
65
 73
2
 40
0.2
 49
0.1
 74
0
 49
-0.1
 74
0
  0
ENDTAB
  0
TABLE
  2
LAYER
  5
2
100
AcDbSymbolTable
 70
36
  0
LAYER
  5
10
100
AcDbSymbolTableRecord
100
AcDbLayerTableRecord
  2
0
 70
0
 62
7
  6
CONTINUOUS
370
-3
390
F
  0
LAYER
  5
1FA
100
AcDbSymbolTableRecord
100
AcDbLayerTableRecord
  2
DEFAULT_1
 70
0
 62
7
  6
CENTER
370
-3
390
F
  0
LAYER
  5
1FB
100
AcDbSymbolTableRecord
100
AcDbLayerTableRecord
  2
DEFAULT_2
 70
0
 62
8
  6
HIDDEN
370
-3
390
F
  0
LAYER
  5
1FC
100
AcDbSymbolTableRecord
100
AcDbLayerTableRecord
  2
DEFAULT_3
 70
0
 62
7
  6
PHANTOM
370
-3
390
F
  0
LAYER
  5
1FD
100
AcDbSymbolTableRecord
100
AcDbLayerTableRecord
  2
_BLACK_HOLE
 70
0
 62
7
  6
CONTINUOUS
370
-3
390
F
  0
LAYER
  5
1FE
100
AcDbSymbolTableRecord
100
AcDbLayerTableRecord
  2
01_ALL_DTM_PLN
 70
0
 62
7
  6
CONTINUOUS
370
-3
390
F
  0
LAYER
  5
1FF
100
AcDbSymbolTableRecord
100
AcDbLayerTableRecord
  2
01__ASM_ALL_DTM_PLN
 70
0
 62
7
  6
CONTINUOUS
370
-3
390
F
  0
LAYER
  5
200
100
AcDbSymbolTableRecord
100
AcDbLayerTableRecord
  2
01__ASM_DEF_DTM_PLN
 70
0
 62
7
  6
CONTINUOUS
370
-3
390
F
  0
LAYER
  5
201
100
AcDbSymbolTableRecord
100
AcDbLayerTableRecord
  2
01___PRT_ALL_DTM_PLN
 70
0
 62
7
  6
CONTINUOUS
370
-3
390
F
  0
LAYER
  5
202
100
AcDbSymbolTableRecord
100
AcDbLayerTableRecord
  2
01___PRT_DEF_DTM_PLN
 70
0
 62
7
  6
CONTINUOUS
370
-3
390
F
  0
LAYER
  5
203
100
AcDbSymbolTableRecord
100
AcDbLayerTableRecord
  2
02_ALL_AXES
 70
0
 62
7
  6
CONTINUOUS
370
-3
390
F
  0
LAYER
  5
204
100
AcDbSymbolTableRecord
100
AcDbLayerTableRecord
  2
02__ASM_ALL_AXES
 70
0
 62
7
  6
CONTINUOUS
370
-3
390
F
  0
LAYER
  5
205
100
AcDbSymbolTableRecord
100
AcDbLayerTableRecord
  2
02___PRT_ALL_AXES
 70
0
 62
7
  6
CONTINUOUS
370
-3
390
F
  0
LAYER
  5
206
100
AcDbSymbolTableRecord
100
AcDbLayerTableRecord
  2
03_ALL_CURVES
 70
0
 62
7
  6
CONTINUOUS
370
-3
390
F
  0
LAYER
  5
207
100
AcDbSymbolTableRecord
100
AcDbLayerTableRecord
  2
03__ASM_ALL_CURVES
 70
0
 62
7
  6
CONTINUOUS
370
-3
390
F
  0
LAYER
  5
208
100
AcDbSymbolTableRecord
100
AcDbLayerTableRecord
  2
03___PRT_ALL_CURVES
 70
0
 62
7
  6
CONTINUOUS
370
-3
390
F
  0
LAYER
  5
209
100
AcDbSymbolTableRecord
100
AcDbLayerTableRecord
  2
04_ALL_DTM_PNT
 70
0
 62
7
  6
CONTINUOUS
370
-3
390
F
  0
LAYER
  5
20A
100
AcDbSymbolTableRecord
100
AcDbLayerTableRecord
  2
04__ASM_ALL_DTM_PNT
 70
0
 62
7
  6
CONTINUOUS
370
-3
390
F
  0
LAYER
  5
20B
100
AcDbSymbolTableRecord
100
AcDbLayerTableRecord
  2
04___PRT_ALL_DTM_PNT
 70
0
 62
7
  6
CONTINUOUS
370
-3
390
F
  0
LAYER
  5
20C
100
AcDbSymbolTableRecord
100
AcDbLayerTableRecord
  2
05_ALL_DTM_CSYS
 70
0
 62
7
  6
CONTINUOUS
370
-3
390
F
  0
LAYER
  5
20D
100
AcDbSymbolTableRecord
100
AcDbLayerTableRecord
  2
05__ASM_ALL_DTM_CSYS
 70
0
 62
7
  6
CONTINUOUS
370
-3
390
F
  0
LAYER
  5
20E
100
AcDbSymbolTableRecord
100
AcDbLayerTableRecord
  2
05__ASM_DEF_DTM_CSYS
 70
0
 62
7
  6
CONTINUOUS
370
-3
390
F
  0
LAYER
  5
20F
100
AcDbSymbolTableRecord
100
AcDbLayerTableRecord
  2
05___PRT_ALL_DTM_CSYS
 70
0
 62
7
  6
CONTINUOUS
370
-3
390
F
  0
LAYER
  5
210
100
AcDbSymbolTableRecord
100
AcDbLayerTableRecord
  2
05___PRT_DEF_DTM_CSYS
 70
0
 62
7
  6
CONTINUOUS
370
-3
390
F
  0
LAYER
  5
211
100
AcDbSymbolTableRecord
100
AcDbLayerTableRecord
  2
06_ALL_SURFS
 70
0
 62
7
  6
CONTINUOUS
370
-3
390
F
  0
LAYER
  5
212
100
AcDbSymbolTableRecord
100
AcDbLayerTableRecord
  2
06__ASM_ALL_SURFS
 70
0
 62
7
  6
CONTINUOUS
370
-3
390
F
  0
LAYER
  5
213
100
AcDbSymbolTableRecord
100
AcDbLayerTableRecord
  2
06___PRT_ALL_SURFS
 70
0
 62
7
  6
CONTINUOUS
370
-3
390
F
  0
LAYER
  5
214
100
AcDbSymbolTableRecord
100
AcDbLayerTableRecord
  2
07__ASM_ALL_SKELETONS
 70
0
 62
7
  6
CONTINUOUS
370
-3
390
F
  0
LAYER
  5
215
100
AcDbSymbolTableRecord
100
AcDbLayerTableRecord
  2
125-149_FEATURES
 70
0
 62
7
  6
CONTINUOUS
370
-3
390
F
  0
LAYER
  5
216
100
AcDbSymbolTableRecord
100
AcDbLayerTableRecord
  2
125-149_REF_GEOMETRY
 70
0
 62
7
  6
CONTINUOUS
370
-3
390
F
  0
LAYER
  5
217
100
AcDbSymbolTableRecord
100
AcDbLayerTableRecord
  2
125-176_FEATURES
 70
0
 62
7
  6
CONTINUOUS
370
-3
390
F
  0
LAYER
  5
218
100
AcDbSymbolTableRecord
100
AcDbLayerTableRecord
  2
125-176_REF_GEOMETRY
 70
0
 62
7
  6
CONTINUOUS
370
-3
390
F
  0
LAYER
  5
219
100
AcDbSymbolTableRecord
100
AcDbLayerTableRecord
  2
127-003_FEATURES
 70
0
 62
7
  6
CONTINUOUS
370
-3
390
F
  0
LAYER
  5
21A
100
AcDbSymbolTableRecord
100
AcDbLayerTableRecord
  2
127-003_REF_GEOMETRY
 70
0
 62
7
  6
CONTINUOUS
370
-3
390
F
  0
LAYER
  5
21B
100
AcDbSymbolTableRecord
100
AcDbLayerTableRecord
  2
127-006_FEATURES
 70
0
 62
7
  6
CONTINUOUS
370
-3
390
F
  0
LAYER
  5
21C
100
AcDbSymbolTableRecord
100
AcDbLayerTableRecord
  2
127-006_REF_GEOMETRY
 70
0
 62
7
  6
CONTINUOUS
370
-3
390
F
  0
LAYER
  5
21D
100
AcDbSymbolTableRecord
100
AcDbLayerTableRecord
  2
127-007_FEATURES
 70
0
 62
7
  6
CONTINUOUS
370
-3
390
F
  0
LAYER
  5
21E
100
AcDbSymbolTableRecord
100
AcDbLayerTableRecord
  2
127-007_REF_GEOMETRY
 70
0
 62
7
  6
CONTINUOUS
370
-3
390
F
  0
LAYER
  5
21F
100
AcDbSymbolTableRecord
100
AcDbLayerTableRecord
  2
127-210_FEATURES
 70
0
 62
7
  6
CONTINUOUS
370
-3
390
F
  0
LAYER
  5
220
100
AcDbSymbolTableRecord
100
AcDbLayerTableRecord
  2
127-210_REF_GEOMETRY
 70
0
 62
7
  6
CONTINUOUS
370
-3
390
F
  0
LAYER
  5
221
100
AcDbSymbolTableRecord
100
AcDbLayerTableRecord
  2
ATMOSPHERIC_VENT_DRW_REF
 70
0
 62
7
  6
CONTINUOUS
370
-3
390
F
  0
LAYER
  5
222
100
AcDbSymbolTableRecord
100
AcDbLayerTableRecord
  2
COPY_GEO_FET
 70
0
 62
7
  6
CONTINUOUS
370
-3
390
F
  0
LAYER
  5
223
100
AcDbSymbolTableRecord
100
AcDbLayerTableRecord
  2
COSMETIC
 70
0
 62
7
  6
CONTINUOUS
370
-3
390
F
  0
LAYER
  5
224
100
AcDbSymbolTableRecord
100
AcDbLayerTableRecord
  2
COSM_REF
 70
0
 62
7
  6
CONTINUOUS
370
-3
390
F
  0
LAYER
  5
225
100
AcDbSymbolTableRecord
100
AcDbLayerTableRecord
  2
CURVES
 70
0
 62
7
  6
CONTINUOUS
370
-3
390
F
  0
LAYER
  5
226
100
AcDbSymbolTableRecord
100
AcDbLayerTableRecord
  2
CUT_REF_SURF
 70
0
 62
7
  6
CONTINUOUS
370
-3
390
F
  0
LAYER
  5
227
100
AcDbSymbolTableRecord
100
AcDbLayerTableRecord
  2
DATUM
 70
0
 62
7
  6
CONTINUOUS
370
-3
390
F
  0
LAYER
  5
228
100
AcDbSymbolTableRecord
100
AcDbLayerTableRecord
  2
DATUMCURVES
 70
0
 62
7
  6
CONTINUOUS
370
-3
390
F
  0
LAYER
  5
229
100
AcDbSymbolTableRecord
100
AcDbLayerTableRecord
  2
DATUM_ADDED_230
 70
0
 62
7
  6
CONTINUOUS
370
-3
390
F
  0
LAYER
  5
22A
100
AcDbSymbolTableRecord
100
AcDbLayerTableRecord
  2
DATUM_ADDED_280-022
 70
0
 62
7
  6
CONTINUOUS
370
-3
390
F
  0
LAYER
  5
22B
100
AcDbSymbolTableRecord
100
AcDbLayerTableRecord
  2
DATUM_PLANES
 70
0
 62
7
  6
CONTINUOUS
370
-3
390
F
  0
LAYER
  5
22C
100
AcDbSymbolTableRecord
100
AcDbLayerTableRecord
  2
DIMENSIONS
 70
0
 62
7
  6
CONTINUOUS
370
-3
390
F
  0
LAYER
  5
22D
100
AcDbSymbolTableRecord
100
AcDbLayerTableRecord
  2
DRAWINGNOTES
 70
0
 62
7
  6
CONTINUOUS
370
-3
390
F
  0
LAYER
  5
22E
100
AcDbSymbolTableRecord
100
AcDbLayerTableRecord
  2
DTM
 70
0
 62
7
  6
CONTINUOUS
370
-3
390
F
  0
LAYER
  5
22F
100
AcDbSymbolTableRecord
100
AcDbLayerTableRecord
  2
DTM230
 70
0
 62
7
  6
CONTINUOUS
370
-3
390
F
  0
LAYER
  5
230
100
AcDbSymbolTableRecord
100
AcDbLayerTableRecord
  2
DTM325
 70
0
 62
7
  6
CONTINUOUS
370
-3
390
F
  0
LAYER
  5
231
100
AcDbSymbolTableRecord
100
AcDbLayerTableRecord
  2
DTM_280-022
 70
0
 62
7
  6
CONTINUOUS
370
-3
390
F
  0
LAYER
  5
232
100
AcDbSymbolTableRecord
100
AcDbLayerTableRecord
  2
DTM_500001
 70
0
 62
7
  6
CONTINUOUS
370
-3
390
F
  0
LAYER
  5
233
100
AcDbSymbolTableRecord
100
AcDbLayerTableRecord
  2
DTM_500002
 70
0
 62
7
  6
CONTINUOUS
370
-3
390
F
  0
LAYER
  5
234
100
AcDbSymbolTableRecord
100
AcDbLayerTableRecord
  2
DTM_515002
 70
0
 62
7
  6
CONTINUOUS
370
-3
390
F
  0
LAYER
  5
235
100
AcDbSymbolTableRecord
100
AcDbLayerTableRecord
  2
DTM_525001
 70
0
 62
7
  6
CONTINUOUS
370
-3
390
F
  0
LAYER
  5
236
100
AcDbSymbolTableRecord
100
AcDbLayerTableRecord
  2
DTM_700-003
 70
0
 62
7
  6
CONTINUOUS
370
-3
390
F
  0
LAYER
  5
237
100
AcDbSymbolTableRecord
100
AcDbLayerTableRecord
  2
DTM_800001
 70
0
 62
7
  6
CONTINUOUS
370
-3
390
F
  0
LAYER
  5
238
100
AcDbSymbolTableRecord
100
AcDbLayerTableRecord
  2
DTM_BALLHOLDER
 70
0
 62
7
  6
CONTINUOUS
370
-3
390
F
  0
LAYER
  5
239
100
AcDbSymbolTableRecord
100
AcDbLayerTableRecord
  2
DTM_BODY_S2
 70
0
 62
7
  6
CONTINUOUS
370
-3
390
F
  0
LAYER
  5
23A
100
AcDbSymbolTableRecord
100
AcDbLayerTableRecord
  2
DTM_ORIFICE_SEAT
 70
0
 62
7
  6
CONTINUOUS
370
-3
390
F
  0
LAYER
  5
23B
100
AcDbSymbolTableRecord
100
AcDbLayerTableRecord
  2
DTM_SPRING_RH
 70
0
 62
7
  6
CONTINUOUS
370
-3
390
F
  0
LAYER
  5
23C
100
AcDbSymbolTableRecord
100
AcDbLayerTableRecord
  2
DTM_SP_RH_CONSTR
 70
0
 62
7
  6
CONTINUOUS
370
-3
390
F
  0
LAYER
  5
23D
100
AcDbSymbolTableRecord
100
AcDbLayerTableRecord
  2
FACE1
 70
0
 62
7
  6
CONTINUOUS
370
-3
390
F
  0
LAYER
  5
23E
100
AcDbSymbolTableRecord
100
AcDbLayerTableRecord
  2
FACE2
 70
0
 62
7
  6
CONTINUOUS
370
-3
390
F
  0
LAYER
  5
23F
100
AcDbSymbolTableRecord
100
AcDbLayerTableRecord
  2
FACE3
 70
0
 62
7
  6
CONTINUOUS
370
-3
390
F
  0
LAYER
  5
240
100
AcDbSymbolTableRecord
100
AcDbLayerTableRecord
  2
FACE4
 70
0
 62
7
  6
CONTINUOUS
370
-3
390
F
  0
LAYER
  5
241
100
AcDbSymbolTableRecord
100
AcDbLayerTableRecord
  2
GEOMETRICTOLERANCES
 70
0
 62
7
  6
CONTINUOUS
370
-3
390
F
  0
LAYER
  5
242
100
AcDbSymbolTableRecord
100
AcDbLayerTableRecord
  2
HOLE_FEATURES
 70
0
 62
7
  6
CONTINUOUS
370
-3
390
F
  0
LAYER
  5
243
100
AcDbSymbolTableRecord
100
AcDbLayerTableRecord
  2
LAY0001
 70
0
 62
7
  6
CONTINUOUS
370
-3
390
F
  0
LAYER
  5
244
100
AcDbSymbolTableRecord
100
AcDbLayerTableRecord
  2
PARAMETERDIMENSIONS
 70
0
 62
7
  6
CONTINUOUS
370
-3
390
F
  0
LAYER
  5
245
100
AcDbSymbolTableRecord
100
AcDbLayerTableRecord
  2
PLANE
 70
0
 62
7
  6
CONTINUOUS
370
-3
390
F
  0
LAYER
  5
246
100
AcDbSymbolTableRecord
100
AcDbLayerTableRecord
  2
PROTRUSIONS
 70
0
 62
7
  6
CONTINUOUS
370
-3
390
F
  0
LAYER
  5
247
100
AcDbSymbolTableRecord
100
AcDbLayerTableRecord
  2
S-164_NPTF_PORT
 70
0
 62
7
  6
CONTINUOUS
370
-3
390
F
  0
LAYER
  5
248
100
AcDbSymbolTableRecord
100
AcDbLayerTableRecord
  2
TEXT
 70
0
 62
7
  6
CONTINUOUS
370
-3
390
F
  0
LAYER
  5
249
100
AcDbSymbolTableRecord
100
AcDbLayerTableRecord
  2
THREAD
 70
0
 62
7
  6
CONTINUOUS
370
-3
390
F
  0
LAYER
  5
24A
100
AcDbSymbolTableRecord
100
AcDbLayerTableRecord
  2
WIRE_GRV-SLOT_DRW_REF
 70
0
 62
7
  6
CONTINUOUS
370
-3
390
F
  0
LAYER
  5
24B
100
AcDbSymbolTableRecord
100
AcDbLayerTableRecord
  2
XSEC_DATUMS
 70
0
 62
7
  6
CONTINUOUS
370
-3
390
F
  0
ENDTAB
  0
TABLE
  2
STYLE
  5
3
100
AcDbSymbolTable
 70
1
  0
STYLE
  5
11
100
AcDbSymbolTableRecord
100
AcDbTextStyleTableRecord
  2
STANDARD
 70
0
 40
0.0
 41
0.8
 50
0.0
 71
0
 42
0.2
  3
txt
  4

  0
ENDTAB
  0
TABLE
  2
VIEW
  5
6
100
AcDbSymbolTable
 70
0
  0
ENDTAB
  0
TABLE
  2
UCS
  5
7
100
AcDbSymbolTable
 70
0
  0
ENDTAB
  0
TABLE
  2
APPID
  5
9
100
AcDbSymbolTable
 70
1
  0
APPID
  5
24C
100
AcDbSymbolTableRecord
100
AcDbRegAppTableRecord
  2
ACAD
 70
0
  0
ENDTAB
  0
TABLE
  2
BLOCK_RECORD
  5
1
100
AcDbSymbolTable
 70
0
  0
BLOCK_RECORD
  5
1F
100
AcDbSymbolTableRecord
100
AcDbBlockTableRecord
  2
*MODEL_SPACE
  0
BLOCK_RECORD
  5
1B
100
AcDbSymbolTableRecord
100
AcDbBlockTableRecord
  2
*PAPER_SPACE
  0
ENDTAB
  0
TABLE
  2
DIMSTYLE
  5
A
100
AcDbSymbolTable
 70
1
100
AcDbDimStyleTable
 71
0
  0
DIMSTYLE
105
24D
100
AcDbSymbolTableRecord
100
AcDbDimStyleTableRecord
  2
STANDARD
 70
0
  3

  4

 40
1.0
 41
0.1875
 42
0.0625
 43
0.38
 44
0.18
 45
0.0
 46
0.0
 47
0.01
 48
0.01
140
0.15625
141
0.09
142
0.0
143
25.4
144
1.0
145
0.0
146
1.0
147
0.09
 71
0.0
 72
0.0
 73
1
 74
1
 75
0
 76
0
 77
0
 78
4
170
0
171
2
172
0
173
0
174
0
175
0
176
0
177
0
178
0
270
2
271
2
272
2
273
2
274
2
275
0
280
0
281
0
282
0
283
1
284
4
285
0
286
0
287
3
288
0
340
11
  0
ENDTAB
  0
ENDSEC
  0
SECTION
  2
BLOCKS
  0
BLOCK
  5
20
100
AcDbEntity
  8
0
100
AcDbBlockBegin
  2
*MODEL_SPACE
 70
0
 10
0.0
 20
0.0
 30
0.0
  3
*MODEL_SPACE
  1

  0
ENDBLK
  5
21
100
AcDbEntity
  8
0
100
AcDbBlockEnd
  0
BLOCK
  5
1C
100
AcDbEntity
  8
0
100
AcDbBlockBegin
  2
*PAPER_SPACE
 70
0
 10
0.0
 20
0.0
 30
0.0
  3
*PAPER_SPACE
  1

  0
ENDBLK
  5
1D
100
AcDbEntity
  8
0
100
AcDbBlockEnd
  0
ENDSEC
  0
SECTION
  2
ENTITIES
  0
LINE
  5
24E
100
AcDbEntity
  8
0
100
AcDbLine
 62
7
  6
CONTINUOUS
 10
3.5095661531
 20
4.3946179326
 11
3.5095661531
 21
4.0886179326
  0
LINE
  5
24F
100
AcDbEntity
  8
03__ASM_ALL_CURVES
100
AcDbLine
 62
40
  6
CONTINUOUS
 10
3.5095661531
 20
4.3946179326
 11
3.5095661531
 21
5.1417619326
  0
LINE
  5
250
100
AcDbEntity
  8
0
100
AcDbLine
 62
7
  6
CONTINUOUS
 10
3.5405661531
 20
4.4256179326
 11
3.5405661531
 21
4.0576179326
  0
LINE
  5
251
100
AcDbEntity
  8
03__ASM_ALL_CURVES
100
AcDbLine
 62
40
  6
CONTINUOUS
 10
3.6296261531
 20
5.1217519326
 11
3.6296261531
 21
5.0817319326
  0
LINE
  5
252
100
AcDbEntity
  8
0
100
AcDbLine
 62
7
  6
CONTINUOUS
 10
3.7395661531
 20
4.4256129173
 11
3.7395661531
 21
4.0576229479
  0
LINE
  5
253
100
AcDbEntity
  8
0
100
AcDbLine
 62
7
  6
CONTINUOUS
 10
3.7410661531
 20
4.0804749396
 11
3.7410661531
 21
4.3177415014
  0
LINE
  5
254
100
AcDbEntity
  8
0
100
AcDbLine
 62
7
  6
CONTINUOUS
 10
3.7760661531
 20
4.0804749396
 11
3.7760661531
 21
4.3177415014
  0
LINE
  5
255
100
AcDbEntity
  8
0
100
AcDbLine
 62
7
  6
CONTINUOUS
 10
3.7775661531
 20
4.4256129173
 11
3.7775661531
 21
4.0576229479
  0
LINE
  5
256
100
AcDbEntity
  8
03__ASM_ALL_CURVES
100
AcDbLine
 62
40
  6
CONTINUOUS
 10
4.0468036531
 20
5.2251369306
 11
4.0530567781
 21
5.2334744346
  0
LINE
  5
257
100
AcDbEntity
  8
03__ASM_ALL_CURVES
100
AcDbLine
 62
40
  6
CONTINUOUS
 10
4.0530567781
 20
5.1667744326
 11
4.0468036531
 21
5.1417619326
  0
LINE
  5
258
100
AcDbEntity
  8
03__ASM_ALL_CURVES
100
AcDbLine
 62
40
  6
CONTINUOUS
 10
4.0655630281
 20
5.1834494316
 11
4.0530567781
 21
5.1667744326
  0
LINE
  5
259
100
AcDbEntity
  8
03__ASM_ALL_CURVES
100
AcDbLine
 62
40
  6
CONTINUOUS
 10
4.0968286531
 20
5.2084619346
 11
4.0905755281
 21
5.2001244306
  0
LINE
  5
25A
100
AcDbEntity
  8
0
100
AcDbLine
 62
7
  6
CONTINUOUS
 10
4.0095661531
 20
3.9939667475
 11
4.0095661531
 21
4.4892691177
  0
LINE
  5
25B
100
AcDbEntity
  8
0
100
AcDbLine
 62
7
  6
CONTINUOUS
 10
4.0715661531
 20
3.9706179326
 11
4.0715661531
 21
4.5126179326
  0
LINE
  5
25C
100
AcDbEntity
  8
0
100
AcDbLine
 62
7
  6
CONTINUOUS
 10
4.0775661531
 20
3.9706179326
 11
4.0775661531
 21
4.5126179326
  0
LINE
  5
25D
100
AcDbEntity
  8
0
100
AcDbLine
 62
7
  6
CONTINUOUS
 10
4.0830661531
 20
3.9761179326
 11
4.0830661531
 21
4.5071179326
  0
LINE
  5
25E
100
AcDbEntity
  8
03__ASM_ALL_CURVES
100
AcDbLine
 62
40
  6
CONTINUOUS
 10
4.0968286531
 20
5.2251369306
 11
4.0968286531
 21
5.2084619346
  0
LINE
  5
25F
100
AcDbEntity
  8
0
100
AcDbLine
 62
7
  6
CONTINUOUS
 10
4.0990661531
 20
3.9761179326
 11
4.0990661531
 21
4.5071179326
  0
LINE
  5
260
100
AcDbEntity
  8
03__ASM_ALL_CURVES
100
AcDbLine
 62
40
  6
CONTINUOUS
 10
4.1656130281
 20
5.1417619326
 11
4.1656130281
 21
5.1500994328
  0
LINE
  5
261
100
AcDbEntity
  8
03__ASM_ALL_CURVES
100
AcDbLine
 62
40
  6
CONTINUOUS
 10
4.3469536531
 20
5.2251369306
 11
4.3532067781
 21
5.2334744346
  0
LINE
  5
262
100
AcDbEntity
  8
03__ASM_ALL_CURVES
100
AcDbLine
 62
40
  6
CONTINUOUS
 10
4.3657130281
 20
5.1834494316
 11
4.3532067781
 21
5.1667744326
  0
LINE
  5
263
100
AcDbEntity
  8
03__ASM_ALL_CURVES
100
AcDbLine
 62
40
  6
CONTINUOUS
 10
4.3969786531
 20
5.2084619346
 11
4.3907255281
 21
5.2001244306
  0
LINE
  5
264
100
AcDbEntity
  8
0
100
AcDbLine
 62
7
  6
CONTINUOUS
 10
3.5095661531
 20
4.3946179326
 11
3.5405661531
 21
4.4256179326
  0
LINE
  5
265
100
AcDbEntity
  8
03__ASM_ALL_CURVES
100
AcDbLine
 62
40
  6
CONTINUOUS
 10
4.0530567781
 20
5.2334744346
 11
4.0655630281
 21
5.2418119326
  0
LINE
  5
266
100
AcDbEntity
  8
03__ASM_ALL_CURVES
100
AcDbLine
 62
40
  6
CONTINUOUS
 10
4.0905755281
 20
5.2001244306
 11
4.0655630281
 21
5.1834494316
  0
LINE
  5
267
100
AcDbEntity
  8
0
100
AcDbLine
 62
7
  6
CONTINUOUS
 10
3.5095661531
 20
4.0886179326
 11
3.5405661531
 21
4.0576179326
  0
LINE
  5
268
100
AcDbEntity
  8
03__ASM_ALL_CURVES
100
AcDbLine
 62
40
  6
CONTINUOUS
 10
4.2719161531
 20
5.2418119326
 11
4.2719161531
 21
5.1417619326
  0
LINE
  5
269
100
AcDbEntity
  8
0
100
AcDbLine
 62
7
  6
CONTINUOUS
 10
4.2905661531
 20
3.9706179326
 11
4.2905661531
 21
4.5126179326
  0
LINE
  5
26A
100
AcDbEntity
  8
0
100
AcDbLine
 62
7
  6
CONTINUOUS
 10
4.3215661531
 20
3.8066179326
 11
4.3215661531
 21
4.6766179326
  0
LINE
  5
26B
100
AcDbEntity
  8
03__ASM_ALL_CURVES
100
AcDbLine
 62
40
  6
CONTINUOUS
 10
4.3532067781
 20
5.1667744326
 11
4.3469536531
 21
5.1417619326
  0
LINE
  5
26C
100
AcDbEntity
  8
03__ASM_ALL_CURVES
100
AcDbLine
 62
40
  6
CONTINUOUS
 10
4.4657630281
 20
5.2251369306
 11
4.4595099031
 21
5.2001244306
  0
LINE
  5
26D
100
AcDbEntity
  8
03__ASM_ALL_CURVES
100
AcDbLine
 62
40
  6
CONTINUOUS
 10
4.4782692781
 20
5.2418119326
 11
4.4657630281
 21
5.2251369306
  0
LINE
  5
26E
100
AcDbEntity
  8
03__ASM_ALL_CURVES
100
AcDbLine
 62
40
  6
CONTINUOUS
 10
4.5970786531
 20
5.1584369331
 11
4.5908255281
 21
5.1500994328
  0
LINE
  5
26F
100
AcDbEntity
  8
03__ASM_ALL_CURVES
100
AcDbLine
 62
40
  6
CONTINUOUS
 10
4.3532067781
 20
5.2334744346
 11
4.3657130281
 21
5.2418119326
  0
LINE
  5
270
100
AcDbEntity
  8
03__ASM_ALL_CURVES
100
AcDbLine
 62
40
  6
CONTINUOUS
 10
4.3907255281
 20
5.2001244306
 11
4.3657130281
 21
5.1834494316
  0
LINE
  5
271
100
AcDbEntity
  8
0
100
AcDbLine
 62
7
  6
CONTINUOUS
 10
4.3835661531
 20
3.7446179326
 11
4.3835661531
 21
4.7386179326
  0
LINE
  5
272
100
AcDbEntity
  8
03__ASM_ALL_CURVES
100
AcDbLine
 62
40
  6
CONTINUOUS
 10
4.3969786531
 20
5.2251369306
 11
4.3969786531
 21
5.2084619346
  0
LINE
  5
273
100
AcDbEntity
  8
03__ASM_ALL_CURVES
100
AcDbLine
 62
40
  6
CONTINUOUS
 10
4.4595099031
 20
5.2001244306
 11
4.4595099031
 21
5.1834494316
  0
LINE
  5
274
100
AcDbEntity
  8
03__ASM_ALL_CURVES
100
AcDbLine
 62
40
  6
CONTINUOUS
 10
4.5595599031
 20
5.2418119326
 11
4.5533067781
 21
5.2001244306
  0
LINE
  5
275
100
AcDbEntity
  8
03__ASM_ALL_CURVES
100
AcDbLine
 62
40
  6
CONTINUOUS
 10
4.6033317781
 20
5.1751119336
 11
4.5970786531
 21
5.1584369331
  0
LINE
  5
276
100
AcDbEntity
  8
03__ASM_ALL_CURVES
100
AcDbLine
 62
40
  6
CONTINUOUS
 10
4.6971286531
 20
5.2167994326
 11
4.6908755281
 21
5.2084619346
  0
LINE
  5
277
100
AcDbEntity
  8
03__ASM_ALL_CURVES
100
AcDbLine
 62
40
  6
CONTINUOUS
 10
4.7033817781
 20
5.1667744326
 11
4.6908755281
 21
5.1500994328
  0
LINE
  5
278
100
AcDbEntity
  8
03__ASM_ALL_CURVES
100
AcDbLine
 62
40
  6
CONTINUOUS
 10
4.8472036531
 20
5.2251369306
 11
4.8534567781
 21
5.2334744346
  0
LINE
  5
279
100
AcDbEntity
  8
0
100
AcDbLine
 62
7
  6
CONTINUOUS
 10
4.1145669387
 20
4.5226187182
 11
4.0990661531
 21
4.5071179326
  0
LINE
  5
27A
100
AcDbEntity
  8
0
100
AcDbLine
 62
7
  6
CONTINUOUS
 10
4.3835661531
 20
4.7386179326
 11
4.3215661531
 21
4.6766179326
  0
LINE
  5
27B
100
AcDbEntity
  8
03__ASM_ALL_CURVES
100
AcDbLine
 62
40
  6
CONTINUOUS
 10
4.5533067781
 20
5.2001244306
 11
4.5658130281
 21
5.2084619346
  0
LINE
  5
27C
100
AcDbEntity
  8
03__ASM_ALL_CURVES
100
AcDbLine
 62
40
  6
CONTINUOUS
 10
4.6533567781
 20
5.2334744346
 11
4.6658630281
 21
5.2418119326
  0
LINE
  5
27D
100
AcDbEntity
  8
03__ASM_ALL_CURVES
100
AcDbLine
 62
40
  6
CONTINUOUS
 10
4.5908255281
 20
5.1500994328
 11
4.5783192781
 21
5.1417619326
  0
LINE
  5
27E
100
AcDbEntity
  8
03__ASM_ALL_CURVES
100
AcDbLine
 62
40
  6
CONTINUOUS
 10
4.6908755281
 20
5.2084619346
 11
4.6783692781
 21
5.2001244306
  0
LINE
  5
27F
100
AcDbEntity
  8
03__ASM_ALL_CURVES
100
AcDbLine
 62
40
  6
CONTINUOUS
 10
4.6908755281
 20
5.1500994328
 11
4.6783692781
 21
5.1417619326
  0
LINE
  5
280
100
AcDbEntity
  8
03__ASM_ALL_CURVES
100
AcDbLine
 62
40
  6
CONTINUOUS
 10
4.8534567781
 20
5.2334744346
 11
4.8659630281
 21
5.2418119326
  0
LINE
  5
281
100
AcDbEntity
  8
0
100
AcDbLine
 62
7
  6
CONTINUOUS
 10
4.1145669387
 20
3.960617147
 11
4.0990661531
 21
3.9761179326
  0
LINE
  5
282
100
AcDbEntity
  8
0
100
AcDbLine
 62
7
  6
CONTINUOUS
 10
4.3835661531
 20
3.7446179326
 11
4.3215661531
 21
3.8066179326
  0
LINE
  5
283
100
AcDbEntity
  8
0
100
AcDbLine
 62
7
  6
CONTINUOUS
 10
4.2905661531
 20
3.9706179326
 11
4.284471381
 21
3.9600614776
  0
LINE
  5
284
100
AcDbEntity
  8
03__ASM_ALL_CURVES
100
AcDbLine
 62
40
  6
CONTINUOUS
 10
4.9910255281
 20
5.2418119326
 11
4.9472536531
 21
5.1667744326
  0
LINE
  5
285
100
AcDbEntity
  8
03__ASM_ALL_CURVES
100
AcDbLine
 62
40
  6
CONTINUOUS
 10
4.8409505281
 20
5.1751119336
 11
4.8534567781
 21
5.1917869326
  0
LINE
  5
286
100
AcDbEntity
  8
03__ASM_ALL_CURVES
100
AcDbLine
 62
40
  6
CONTINUOUS
 10
4.8972286531
 20
5.2167994326
 11
4.8909755281
 21
5.2084619346
  0
LINE
  5
287
100
AcDbEntity
  8
03__ASM_ALL_CURVES
100
AcDbLine
 62
40
  6
CONTINUOUS
 10
4.9034817781
 20
5.1667744326
 11
4.8909755281
 21
5.1500994328
  0
LINE
  5
288
100
AcDbEntity
  8
03__ASM_ALL_CURVES
100
AcDbLine
 62
40
  6
CONTINUOUS
 10
4.8534567781
 20
5.1917869326
 11
4.8659630281
 21
5.2001244306
  0
LINE
  5
289
100
AcDbEntity
  8
03__ASM_ALL_CURVES
100
AcDbLine
 62
40
  6
CONTINUOUS
 10
4.8909755281
 20
5.2084619346
 11
4.8784692781
 21
5.2001244306
  0
LINE
  5
28A
100
AcDbEntity
  8
03__ASM_ALL_CURVES
100
AcDbLine
 62
40
  6
CONTINUOUS
 10
4.8909755281
 20
5.1500994328
 11
4.8784692781
 21
5.1417619326
  0
LINE
  5
28B
100
AcDbEntity
  8
0
100
AcDbLine
 62
7
  6
CONTINUOUS
 10
4.2905661531
 20
4.5126179326
 11
4.284471381
 21
4.5231743876
  0
LINE
  5
28C
100
AcDbEntity
  8
0
100
AcDbLine
 62
7
  6
CONTINUOUS
 10
4.8671768244
 20
3.6076179326
 11
4.8215661531
 21
3.6866179326
  0
LINE
  5
28D
100
AcDbEntity
  8
03__ASM_ALL_CURVES
100
AcDbLine
 62
40
  6
CONTINUOUS
 10
4.6971286531
 20
5.2251369306
 11
4.6971286531
 21
5.2167994326
  0
LINE
  5
28E
100
AcDbEntity
  8
03__ASM_ALL_CURVES
100
AcDbLine
 62
40
  6
CONTINUOUS
 10
4.7033817781
 20
5.1751119336
 11
4.7033817781
 21
5.1667744326
  0
LINE
  5
28F
100
AcDbEntity
  8
03__ASM_ALL_CURVES
100
AcDbLine
 62
40
  6
CONTINUOUS
 10
4.7659130281
 20
5.1417619326
 11
4.7659130281
 21
5.1500994328
  0
LINE
  5
290
100
AcDbEntity
  8
0
100
AcDbLine
 62
7
  6
CONTINUOUS
 10
4.8215661531
 20
3.6866179326
 11
4.8215661531
 21
4.7966179326
  0
LINE
  5
291
100
AcDbEntity
  8
0
100
AcDbLine
 62
7
  6
CONTINUOUS
 10
4.8669106556
 20
4.8751569147
 11
4.8215661531
 21
4.7966179326
  0
LINE
  5
292
100
AcDbEntity
  8
03__ASM_ALL_CURVES
100
AcDbLine
 62
40
  6
CONTINUOUS
 10
5.0785692781
 20
5.1584369331
 11
5.0660630281
 21
5.1417619326
  0
LINE
  5
293
100
AcDbEntity
  8
0
100
AcDbLine
 62
7
  6
CONTINUOUS
 10
4.0830661531
 20
3.9761179326
 11
4.0775661531
 21
3.9706179326
  0
LINE
  5
294
100
AcDbEntity
  8
0
100
AcDbLine
 62
7
  6
CONTINUOUS
 10
4.0830661531
 20
4.5071179326
 11
4.0775661531
 21
4.5126179326
  0
LINE
  5
295
100
AcDbEntity
  8
03__ASM_ALL_CURVES
100
AcDbLine
 62
40
  6
CONTINUOUS
 10
4.4595099031
 20
5.1834494316
 11
4.4657630281
 21
5.1584369331
  0
LINE
  5
296
100
AcDbEntity
  8
03__ASM_ALL_CURVES
100
AcDbLine
 62
40
  6
CONTINUOUS
 10
4.8409505281
 20
5.1667744326
 11
4.8409505281
 21
5.1751119336
  0
LINE
  5
297
100
AcDbEntity
  8
03__ASM_ALL_CURVES
100
AcDbLine
 62
40
  6
CONTINUOUS
 10
4.8472036531
 20
5.2167994326
 11
4.8472036531
 21
5.2251369306
  0
LINE
  5
298
100
AcDbEntity
  8
0
100
AcDbLine
 62
7
  6
CONTINUOUS
 10
4.8671768244
 20
3.6076179326
 11
4.8671768244
 21
3.6082326231
  0
LINE
  5
299
100
AcDbEntity
  8
0
100
AcDbLine
 62
7
  6
CONTINUOUS
 10
4.8671768244
 20
3.9007532421
 11
4.8671768244
 21
3.9490973137
  0
LINE
  5
29A
100
AcDbEntity
  8
0
100
AcDbLine
 62
7
  6
CONTINUOUS
 10
4.8671768244
 20
4.5341385515
 11
4.8671768244
 21
4.5824826231
  0
LINE
  5
29B
100
AcDbEntity
  8
0
100
AcDbLine
 62
7
  6
CONTINUOUS
 10
4.8671768244
 20
4.8750032421
 11
4.8671768244
 21
4.8756179326
  0
LINE
  5
29C
100
AcDbEntity
  8
03__ASM_ALL_CURVES
100
AcDbLine
 62
40
  6
CONTINUOUS
 10
4.8972286531
 20
5.2251369306
 11
4.8972286531
 21
5.2167994326
  0
LINE
  5
29D
100
AcDbEntity
  8
03__ASM_ALL_CURVES
100
AcDbLine
 62
40
  6
CONTINUOUS
 10
4.9034817781
 20
5.1751119336
 11
4.9034817781
 21
5.1667744326
  0
LINE
  5
29E
100
AcDbEntity
  8
03__ASM_ALL_CURVES
100
AcDbLine
 62
40
  6
CONTINUOUS
 10
4.9910255281
 20
5.1417619326
 11
4.9910255281
 21
5.2418119326
  0
LINE
  5
29F
100
AcDbEntity
  8
03__ASM_ALL_CURVES
100
AcDbLine
 62
40
  6
CONTINUOUS
 10
5.0848224031
 20
5.1834494316
 11
5.0785692781
 21
5.1584369331
  0
LINE
  5
2A0
100
AcDbEntity
  8
03__ASM_ALL_CURVES
100
AcDbLine
 62
40
  6
CONTINUOUS
 10
7.0232267435
 20
3.3325229326
 11
6.9857079935
 21
3.3325229326
  0
LINE
  5
2A1
100
AcDbEntity
  8
03__ASM_ALL_CURVES
100
AcDbLine
 62
40
  6
CONTINUOUS
 10
6.7840447122
 20
3.3325229326
 11
6.7746650247
 21
3.3325229326
  0
LINE
  5
2A2
100
AcDbEntity
  8
03__ASM_ALL_CURVES
100
AcDbLine
 62
40
  6
CONTINUOUS
 10
6.7090072122
 20
3.3325229326
 11
6.6996275247
 21
3.3325229326
  0
LINE
  5
2A3
100
AcDbEntity
  8
03__ASM_ALL_CURVES
100
AcDbLine
 62
40
  6
CONTINUOUS
 10
6.9106704935
 20
3.3325229326
 11
6.9481892435
 21
3.3325229326
  0
LINE
  5
2A4
100
AcDbEntity
  8
03__ASM_ALL_CURVES
100
AcDbLine
 62
40
  6
CONTINUOUS
 10
6.9857079935
 20
3.3700416826
 11
7.0091572122
 21
3.3700416826
  0
LINE
  5
2A5
100
AcDbEntity
  8
03__ASM_ALL_CURVES
100
AcDbLine
 62
40
  6
CONTINUOUS
 10
6.6996275247
 20
3.4075604326
 11
6.7090072122
 21
3.4075604326
  0
LINE
  5
2A6
100
AcDbEntity
  8
03__ASM_ALL_CURVES
100
AcDbLine
 62
40
  6
CONTINUOUS
 10
6.8309431497
 20
3.4075604326
 11
6.8778415872
 21
3.4075604326
  0
LINE
  5
2A7
100
AcDbEntity
  8
03__ASM_ALL_CURVES
100
AcDbLine
 62
40
  6
CONTINUOUS
 10
6.9857079935
 20
3.4075604326
 11
7.0232267435
 21
3.4075604326
  0
LINE
  5
2A8
100
AcDbEntity
  8
03__ASM_ALL_CURVES
100
AcDbLine
 62
40
  6
CONTINUOUS
 10
7.0560556497
 20
3.4075604326
 11
7.1029540872
 21
3.4075604326
  0
LINE
  5
2A9
100
AcDbEntity
  8
03__ASM_ALL_CURVES
100
AcDbLine
 62
40
  6
CONTINUOUS
 10
6.8192184832
 20
3.4475804326
 11
6.8098387957
 21
3.4475804326
  0
LINE
  5
2AA
100
AcDbEntity
  8
03__ASM_ALL_CURVES
100
AcDbLine
 62
40
  6
CONTINUOUS
 10
7.0208817644
 20
3.4475804326
 11
7.0584005144
 21
3.4475804326
  0
LINE
  5
2AB
100
AcDbEntity
  8
03__ASM_ALL_CURVES
100
AcDbLine
 62
40
  6
CONTINUOUS
 10
4.5970786531
 20
5.1917869326
 11
4.6033317781
 21
5.1751119336
  0
LINE
  5
2AC
100
AcDbEntity
  8
03__ASM_ALL_CURVES
100
AcDbLine
 62
40
  6
CONTINUOUS
 10
5.0848224031
 20
5.2001244306
 11
5.0848224031
 21
5.1834494316
  0
LINE
  5
2AD
100
AcDbEntity
  8
03__ASM_ALL_CURVES
100
AcDbLine
 62
40
  6
CONTINUOUS
 10
5.9009492775
 20
5.2334744346
 11
5.9134555275
 21
5.2418119326
  0
LINE
  5
2AE
100
AcDbEntity
  8
03__ASM_ALL_CURVES
100
AcDbLine
 62
40
  6
CONTINUOUS
 10
6.0009992775
 20
5.2334744346
 11
6.0135055275
 21
5.2418119326
  0
LINE
  5
2AF
100
AcDbEntity
  8
03__ASM_ALL_CURVES
100
AcDbLine
 62
40
  6
CONTINUOUS
 10
5.9384680275
 20
5.1500994328
 11
5.9259617775
 21
5.1417619326
  0
LINE
  5
2B0
100
AcDbEntity
  8
03__ASM_ALL_CURVES
100
AcDbLine
 62
40
  6
CONTINUOUS
 10
6.8942559832
 20
3.4850991826
 11
6.8708067644
 21
3.4850991826
  0
LINE
  5
2B1
100
AcDbEntity
  8
03__ASM_ALL_CURVES
100
AcDbLine
 62
40
  6
CONTINUOUS
 10
6.7441809832
 20
3.4850991826
 11
6.7207317644
 21
3.4850991826
  0
LINE
  5
2B2
100
AcDbEntity
  8
03__ASM_ALL_CURVES
100
AcDbLine
 62
40
  6
CONTINUOUS
 10
6.7207317644
 20
3.5226179326
 11
6.7441809832
 21
3.5226179326
  0
LINE
  5
2B3
100
AcDbEntity
  8
03__ASM_ALL_CURVES
100
AcDbLine
 62
40
  6
CONTINUOUS
 10
6.8098387957
 20
3.5226179326
 11
6.8192184832
 21
3.5226179326
  0
LINE
  5
2B4
100
AcDbEntity
  8
03__ASM_ALL_CURVES
100
AcDbLine
 62
40
  6
CONTINUOUS
 10
6.8708067644
 20
3.5226179326
 11
6.8942559832
 21
3.5226179326
  0
LINE
  5
2B5
100
AcDbEntity
  8
03__ASM_ALL_CURVES
100
AcDbLine
 62
40
  6
CONTINUOUS
 10
6.9411544207
 20
3.5226179326
 11
6.9880528582
 21
3.5226179326
  0
LINE
  5
2B6
100
AcDbEntity
  8
03__ASM_ALL_CURVES
100
AcDbLine
 62
40
  6
CONTINUOUS
 10
7.0349512957
 20
3.5226179326
 11
7.0443309832
 21
3.5226179326
  0
LINE
  5
2B7
100
AcDbEntity
  8
0
100
AcDbLine
 62
7
  6
CONTINUOUS
 10
5.3911405273
 20
3.6076179326
 11
4.8671768244
 21
3.6076179326
  0
LINE
  5
2B8
100
AcDbEntity
  8
0
100
AcDbLine
 62
7
  6
CONTINUOUS
 10
5.3911405273
 20
3.6082326231
 11
4.8671768244
 21
3.6082326231
  0
LINE
  5
2B9
100
AcDbEntity
  8
03__ASM_ALL_CURVES
100
AcDbLine
 62
40
  6
CONTINUOUS
 10
4.0905755281
 20
5.2334744346
 11
4.0968286531
 21
5.2251369306
  0
LINE
  5
2BA
100
AcDbEntity
  8
03__ASM_ALL_CURVES
100
AcDbLine
 62
40
  6
CONTINUOUS
 10
4.1656130281
 20
5.1500994328
 11
4.1718661531
 21
5.1417619326
  0
LINE
  5
2BB
100
AcDbEntity
  8
03__ASM_ALL_CURVES
100
AcDbLine
 62
40
  6
CONTINUOUS
 10
5.8884430275
 20
5.2167994326
 11
5.9009492775
 21
5.2334744346
  0
LINE
  5
2BC
100
AcDbEntity
  8
03__ASM_ALL_CURVES
100
AcDbLine
 62
40
  6
CONTINUOUS
 10
6.0385180275
 20
5.1500994328
 11
6.0260117775
 21
5.1417619326
  0
LINE
  5
2BD
100
AcDbEntity
  8
0
100
AcDbLine
 62
7
  6
CONTINUOUS
 10
5.6315661531
 20
3.7036179326
 11
5.4465661531
 21
3.7036179326
  0
LINE
  5
2BE
100
AcDbEntity
  8
THREAD
100
AcDbLine
 62
7
  6
CONTINUOUS
 10
5.6815661531
 20
3.7271179326
 11
5.6584225596
 21
3.7271179326
  0
LINE
  5
2BF
100
AcDbEntity
  8
0
100
AcDbLine
 62
7
  6
CONTINUOUS
 10
5.7515661531
 20
3.7296179326
 11
5.8015661531
 21
3.7296179326
  0
LINE
  5
2C0
100
AcDbEntity
  8
0
100
AcDbLine
 62
7
  6
CONTINUOUS
 10
4.8215661531
 20
3.7446179326
 11
4.3835661531
 21
3.7446179326
  0
LINE
  5
2C1
100
AcDbEntity
  8
THREAD
100
AcDbLine
 62
7
  6
CONTINUOUS
 10
6.1525661531
 20
3.7456179326
 11
5.8445054634
 21
3.7456179326
  0
LINE
  5
2C2
100
AcDbEntity
  8
THREAD
100
AcDbLine
 62
7
  6
CONTINUOUS
 10
5.8150605996
 20
3.7836179326
 11
5.8015661531
 21
3.7836179326
  0
LINE
  5
2C3
100
AcDbEntity
  8
THREAD
100
AcDbLine
 62
7
  6
CONTINUOUS
 10
6.4935661531
 20
3.7896179326
 11
6.1965661531
 21
3.7896179326
  0
LINE
  5
2C4
100
AcDbEntity
  8
0
100
AcDbLine
 62
7
  6
CONTINUOUS
 10
7.4955661531
 20
3.8051179326
 11
7.4525661531
 21
3.8051179326
  0
LINE
  5
2C5
100
AcDbEntity
  8
0
100
AcDbLine
 62
7
  6
CONTINUOUS
 10
7.2510661531
 20
3.8051179326
 11
7.2010661531
 21
3.8051179326
  0
LINE
  5
2C6
100
AcDbEntity
  8
0
100
AcDbLine
 62
7
  6
CONTINUOUS
 10
7.2545661531
 20
3.8056179326
 11
7.3045661531
 21
3.8056179326
  0
LINE
  5
2C7
100
AcDbEntity
  8
0
100
AcDbLine
 62
7
  6
CONTINUOUS
 10
7.3745661531
 20
3.8056179326
 11
7.4245661531
 21
3.8056179326
  0
LINE
  5
2C8
100
AcDbEntity
  8
03__ASM_ALL_CURVES
100
AcDbLine
 62
40
  6
CONTINUOUS
 10
4.3907255281
 20
5.2334744346
 11
4.3969786531
 21
5.2251369306
  0
LINE
  5
2C9
100
AcDbEntity
  8
03__ASM_ALL_CURVES
100
AcDbLine
 62
40
  6
CONTINUOUS
 10
4.4657630281
 20
5.1584369331
 11
4.4782692781
 21
5.1417619326
  0
LINE
  5
2CA
100
AcDbEntity
  8
03__ASM_ALL_CURVES
100
AcDbLine
 62
40
  6
CONTINUOUS
 10
4.5533067781
 20
5.1500994328
 11
4.5470536531
 21
5.1584369331
  0
LINE
  5
2CB
100
AcDbEntity
  8
0
100
AcDbLine
 62
7
  6
CONTINUOUS
 10
5.3911405273
 20
3.6076179326
 11
5.3911405273
 21
3.6082326231
  0
LINE
  5
2CC
100
AcDbEntity
  8
0
100
AcDbLine
 62
7
  6
CONTINUOUS
 10
5.3911405273
 20
3.9007532421
 11
5.3911405273
 21
3.9490973137
  0
LINE
  5
2CD
100
AcDbEntity
  8
0
100
AcDbLine
 62
7
  6
CONTINUOUS
 10
5.3911405273
 20
4.5341385515
 11
5.3911405273
 21
4.5824826231
  0
LINE
  5
2CE
100
AcDbEntity
  8
0
100
AcDbLine
 62
7
  6
CONTINUOUS
 10
5.3911405273
 20
4.8750032421
 11
5.3911405273
 21
4.8756179326
  0
LINE
  5
2CF
100
AcDbEntity
  8
0
100
AcDbLine
 62
7
  6
CONTINUOUS
 10
5.4465661531
 20
3.7036179326
 11
5.4465661531
 21
4.7796179326
  0
LINE
  5
2D0
100
AcDbEntity
  8
03__ASM_ALL_CURVES
100
AcDbLine
 62
40
  6
CONTINUOUS
 10
5.9509742775
 20
5.1667744326
 11
5.9384680275
 21
5.1500994328
  0
LINE
  5
2D1
100
AcDbEntity
  8
03__ASM_ALL_CURVES
100
AcDbLine
 62
40
  6
CONTINUOUS
 10
5.9884930275
 20
5.2167994326
 11
6.0009992775
 21
5.2334744346
  0
LINE
  5
2D2
100
AcDbEntity
  8
03__ASM_ALL_CURVES
100
AcDbLine
 62
40
  6
CONTINUOUS
 10
6.0447711525
 20
5.1584369331
 11
6.0385180275
 21
5.1500994328
  0
LINE
  5
2D3
100
AcDbEntity
  8
03__ASM_ALL_CURVES
100
AcDbLine
 62
40
  6
CONTINUOUS
 10
6.5012492775
 20
5.2334744346
 11
6.5137555275
 21
5.2418119326
  0
LINE
  5
2D4
100
AcDbEntity
  8
03__ASM_ALL_CURVES
100
AcDbLine
 62
40
  6
CONTINUOUS
 10
6.5387680275
 20
5.1500994328
 11
6.5262617775
 21
5.1417619326
  0
LINE
  5
2D5
100
AcDbEntity
  8
0
100
AcDbLine
 62
7
  6
CONTINUOUS
 10
7.4245661531
 20
3.8596179326
 11
7.4525661531
 21
3.8596179326
  0
LINE
  5
2D6
100
AcDbEntity
  8
0
100
AcDbLine
 62
7
  6
CONTINUOUS
 10
6.5095661531
 20
3.8683679326
 11
7.0255661531
 21
3.8683679326
  0
LINE
  5
2D7
100
AcDbEntity
  8
0
100
AcDbLine
 62
7
  6
CONTINUOUS
 10
7.1815661531
 20
3.8683679326
 11
7.1975661531
 21
3.8683679326
  0
LINE
  5
2D8
100
AcDbEntity
  8
0
100
AcDbLine
 62
7
  6
CONTINUOUS
 10
5.3911405273
 20
3.9007532421
 11
4.8671768244
 21
3.9007532421
  0
LINE
  5
2D9
100
AcDbEntity
  8
0
100
AcDbLine
 62
7
  6
CONTINUOUS
 10
5.3911405273
 20
3.9490973137
 11
4.8671768244
 21
3.9490973137
  0
LINE
  5
2DA
100
AcDbEntity
  8
0
100
AcDbLine
 62
7
  6
CONTINUOUS
 10
4.1145661532
 20
3.9606179326
 11
4.2847898748
 21
3.9606179326
  0
LINE
  5
2DB
100
AcDbEntity
  8
0
100
AcDbLine
 62
7
  6
CONTINUOUS
 10
4.3215661531
 20
3.9706179326
 11
4.2905661531
 21
3.9706179326
  0
LINE
  5
2DC
100
AcDbEntity
  8
0
100
AcDbLine
 62
7
  6
CONTINUOUS
 10
4.0775661531
 20
3.9706179326
 11
4.0715661531
 21
3.9706179326
  0
LINE
  5
2DD
100
AcDbEntity
  8
0
100
AcDbLine
 62
7
  6
CONTINUOUS
 10
4.0990661531
 20
3.9761179326
 11
4.0830661531
 21
3.9761179326
  0
LINE
  5
2DE
100
AcDbEntity
  8
03__ASM_ALL_CURVES
100
AcDbLine
 62
40
  6
CONTINUOUS
 10
4.5908255281
 20
5.2001244306
 11
4.5970786531
 21
5.1917869326
  0
LINE
  5
2DF
100
AcDbEntity
  8
03__ASM_ALL_CURVES
100
AcDbLine
 62
40
  6
CONTINUOUS
 10
4.6533567781
 20
5.1500994328
 11
4.6471036531
 21
5.1584369331
  0
LINE
  5
2E0
100
AcDbEntity
  8
03__ASM_ALL_CURVES
100
AcDbLine
 62
40
  6
CONTINUOUS
 10
4.6908755281
 20
5.1917869326
 11
4.7033817781
 21
5.1751119336
  0
LINE
  5
2E1
100
AcDbEntity
  8
03__ASM_ALL_CURVES
100
AcDbLine
 62
40
  6
CONTINUOUS
 10
4.6908755281
 20
5.2334744346
 11
4.6971286531
 21
5.2251369306
  0
LINE
  5
2E2
100
AcDbEntity
  8
03__ASM_ALL_CURVES
100
AcDbLine
 62
40
  6
CONTINUOUS
 10
4.7659130281
 20
5.1500994328
 11
4.7721661531
 21
5.1417619326
  0
LINE
  5
2E3
100
AcDbEntity
  8
03__ASM_ALL_CURVES
100
AcDbLine
 62
40
  6
CONTINUOUS
 10
5.0785692781
 20
5.2251369306
 11
5.0848224031
 21
5.2001244306
  0
LINE
  5
2E4
100
AcDbEntity
  8
03__ASM_ALL_CURVES
100
AcDbLine
 62
40
  6
CONTINUOUS
 10
5.5145061531
 20
5.1217519326
 11
5.5145061531
 21
5.0817319326
  0
LINE
  5
2E5
100
AcDbEntity
  8
0
100
AcDbLine
 62
7
  6
CONTINUOUS
 10
5.6315661531
 20
4.7796179326
 11
5.6315661531
 21
3.7036179326
  0
LINE
  5
2E6
100
AcDbEntity
  8
0
100
AcDbLine
 62
7
  6
CONTINUOUS
 10
5.6345661531
 20
4.7766179326
 11
5.6345661531
 21
3.7066179326
  0
LINE
  5
2E7
100
AcDbEntity
  8
03__ASM_ALL_CURVES
100
AcDbLine
 62
40
  6
CONTINUOUS
 10
5.6345661531
 20
4.7996279326
 11
5.6345661531
 21
5.1417619326
  0
LINE
  5
2E8
100
AcDbEntity
  8
0
100
AcDbLine
 62
7
  6
CONTINUOUS
 10
5.6370661531
 20
3.7155613083
 11
5.6370661531
 21
4.7676745569
  0
LINE
  5
2E9
100
AcDbEntity
  8
0
100
AcDbLine
 62
7
  6
CONTINUOUS
 10
5.655922554
 20
4.7561179535
 11
5.6559225596
 21
4.7567878056
  0
LINE
  5
2EA
100
AcDbEntity
  8
0
100
AcDbLine
 62
7
  6
CONTINUOUS
 10
5.6559225596
 20
3.7264480596
 11
5.655922554
 21
4.7561179535
  0
LINE
  5
2EB
100
AcDbEntity
  8
THREAD
100
AcDbLine
 62
7
  6
CONTINUOUS
 10
5.8445054634
 20
4.7376179326
 11
5.8263189299
 21
4.7061179326
  0
LINE
  5
2EC
100
AcDbEntity
  8
03__ASM_ALL_CURVES
100
AcDbLine
 62
40
  6
CONTINUOUS
 10
6.7138555275
 20
5.2418119326
 11
6.7013492775
 21
5.2334744346
  0
LINE
  5
2ED
100
AcDbEntity
  8
03__ASM_ALL_CURVES
100
AcDbLine
 62
40
  6
CONTINUOUS
 10
6.7388680275
 20
5.1500994328
 11
6.7263617775
 21
5.1417619326
  0
LINE
  5
2EE
100
AcDbEntity
  8
03__ASM_ALL_CURVES
100
AcDbLine
 62
40
  6
CONTINUOUS
 10
6.9014492775
 20
5.2334744346
 11
6.9139555275
 21
5.2418119326
  0
LINE
  5
2EF
100
AcDbEntity
  8
0
100
AcDbLine
 62
7
  6
CONTINUOUS
 10
3.5405661531
 20
4.0576179326
 11
3.7395661531
 21
4.0576179326
  0
LINE
  5
2F0
100
AcDbEntity
  8
0
100
AcDbLine
 62
7
  6
CONTINUOUS
 10
3.7775661531
 20
4.0576179326
 11
4.0095661531
 21
4.0576179326
  0
LINE
  5
2F1
100
AcDbEntity
  8
0
100
AcDbLine
 62
7
  6
CONTINUOUS
 10
3.7395661531
 20
4.0906179326
 11
3.7410661531
 21
4.0906179326
  0
LINE
  5
2F2
100
AcDbEntity
  8
0
100
AcDbLine
 62
7
  6
CONTINUOUS
 10
3.7760661531
 20
4.0906179326
 11
3.7775661531
 21
4.0906179326
  0
LINE
  5
2F3
100
AcDbEntity
  8
03__ASM_ALL_CURVES
100
AcDbLine
 62
40
  6
CONTINUOUS
 10
6.6996275247
 20
3.3325229326
 11
6.6902478372
 21
3.3387760578
  0
LINE
  5
2F4
100
AcDbEntity
  8
03__ASM_ALL_CURVES
100
AcDbLine
 62
40
  6
CONTINUOUS
 10
6.7746650247
 20
3.3325229326
 11
6.7652853372
 21
3.3387760578
  0
LINE
  5
2F5
100
AcDbEntity
  8
03__ASM_ALL_CURVES
100
AcDbLine
 62
40
  6
CONTINUOUS
 10
6.7090072122
 20
3.4075604326
 11
6.7183868997
 21
3.4013073091
  0
LINE
  5
2F6
100
AcDbEntity
  8
03__ASM_ALL_CURVES
100
AcDbLine
 62
40
  6
CONTINUOUS
 10
4.0780692781
 20
5.2418119326
 11
4.0905755281
 21
5.2334744346
  0
LINE
  5
2F7
100
AcDbEntity
  8
03__ASM_ALL_CURVES
100
AcDbLine
 62
40
  6
CONTINUOUS
 10
4.8534567781
 20
5.1500994328
 11
4.8409505281
 21
5.1667744326
  0
LINE
  5
2F8
100
AcDbEntity
  8
03__ASM_ALL_CURVES
100
AcDbLine
 62
40
  6
CONTINUOUS
 10
4.8534567781
 20
5.2084619346
 11
4.8472036531
 21
5.2167994326
  0
LINE
  5
2F9
100
AcDbEntity
  8
03__ASM_ALL_CURVES
100
AcDbLine
 62
40
  6
CONTINUOUS
 10
4.8909755281
 20
5.1917869326
 11
4.9034817781
 21
5.1751119336
  0
LINE
  5
2FA
100
AcDbEntity
  8
03__ASM_ALL_CURVES
100
AcDbLine
 62
40
  6
CONTINUOUS
 10
4.8909755281
 20
5.2334744346
 11
4.8972286531
 21
5.2251369306
  0
LINE
  5
2FB
100
AcDbEntity
  8
THREAD
100
AcDbLine
 62
7
  6
CONTINUOUS
 10
5.8445054634
 20
3.7456179326
 11
5.8263189299
 21
3.7771179326
  0
LINE
  5
2FC
100
AcDbEntity
  8
0
100
AcDbLine
 62
7
  6
CONTINUOUS
 10
5.6584225596
 20
3.7271179326
 11
5.6584225596
 21
4.7561179326
  0
LINE
  5
2FD
100
AcDbEntity
  8
THREAD
100
AcDbLine
 62
7
  6
CONTINUOUS
 10
5.6815661531
 20
3.7271179326
 11
5.6815661531
 21
4.7561179326
  0
LINE
  5
2FE
100
AcDbEntity
  8
0
100
AcDbLine
 62
7
  6
CONTINUOUS
 10
5.7515661531
 20
3.7296179326
 11
5.7515661531
 21
4.7536179326
  0
LINE
  5
2FF
100
AcDbEntity
  8
03__ASM_ALL_CURVES
100
AcDbLine
 62
40
  6
CONTINUOUS
 10
5.7546261531
 20
5.1217519326
 11
5.7546261531
 21
5.0817319326
  0
LINE
  5
300
100
AcDbEntity
  8
03__ASM_ALL_CURVES
100
AcDbLine
 62
40
  6
CONTINUOUS
 10
5.7946461525
 20
5.2418119326
 11
5.7946461525
 21
5.1417619326
  0
LINE
  5
301
100
AcDbEntity
  8
0
100
AcDbLine
 62
7
  6
CONTINUOUS
 10
5.8015661531
 20
3.7296179326
 11
5.8015661531
 21
4.7536179326
  0
LINE
  5
302
100
AcDbEntity
  8
THREAD
100
AcDbLine
 62
7
  6
CONTINUOUS
 10
5.8150605996
 20
3.7836179326
 11
5.8150605996
 21
4.6996179326
  0
LINE
  5
303
100
AcDbEntity
  8
03__ASM_ALL_CURVES
100
AcDbLine
 62
40
  6
CONTINUOUS
 10
5.8821899025
 20
5.1917869326
 11
5.8884430275
 21
5.2167994326
  0
LINE
  5
304
100
AcDbEntity
  8
03__ASM_ALL_CURVES
100
AcDbLine
 62
40
  6
CONTINUOUS
 10
5.9572274025
 20
5.1917869326
 11
5.9509742775
 21
5.1667744326
  0
LINE
  5
305
100
AcDbEntity
  8
03__ASM_ALL_CURVES
100
AcDbLine
 62
40
  6
CONTINUOUS
 10
5.9822399025
 20
5.1917869326
 11
5.9884930275
 21
5.2167994326
  0
LINE
  5
306
100
AcDbEntity
  8
03__ASM_ALL_CURVES
100
AcDbLine
 62
40
  6
CONTINUOUS
 10
6.0885430275
 20
5.1417619326
 11
6.1198086525
 21
5.2418119326
  0
LINE
  5
307
100
AcDbEntity
  8
0
100
AcDbLine
 62
7
  6
CONTINUOUS
 10
5.4465661531
 20
3.7036179326
 11
5.3914066961
 21
3.6080789505
  0
LINE
  5
308
100
AcDbEntity
  8
03__ASM_ALL_CURVES
100
AcDbLine
 62
40
  6
CONTINUOUS
 10
6.4887430275
 20
5.2167994326
 11
6.5012492775
 21
5.2334744346
  0
LINE
  5
309
100
AcDbEntity
  8
03__ASM_ALL_CURVES
100
AcDbLine
 62
40
  6
CONTINUOUS
 10
6.9389680275
 20
5.1500994328
 11
6.9264617775
 21
5.1417619326
  0
LINE
  5
30A
100
AcDbEntity
  8
03__ASM_ALL_CURVES
100
AcDbLine
 62
40
  6
CONTINUOUS
 10
7.0390180275
 20
5.1500994328
 11
7.0265117775
 21
5.1417619326
  0
LINE
  5
30B
100
AcDbEntity
  8
03__ASM_ALL_CURVES
100
AcDbLine
 62
40
  6
CONTINUOUS
 10
8.0134380273
 20
4.1465704326
 11
7.9759192773
 21
4.1465704326
  0
LINE
  5
30C
100
AcDbEntity
  8
03__ASM_ALL_CURVES
100
AcDbLine
 62
40
  6
CONTINUOUS
 10
7.9008817773
 20
4.1465704326
 11
7.9384005273
 21
4.1465704326
  0
LINE
  5
30D
100
AcDbEntity
  8
03__ASM_ALL_CURVES
100
AcDbLine
 62
40
  6
CONTINUOUS
 10
7.9759192773
 20
4.1840891826
 11
7.999368496
 21
4.1840891826
  0
LINE
  5
30E
100
AcDbEntity
  8
03__ASM_ALL_CURVES
100
AcDbLine
 62
40
  6
CONTINUOUS
 10
7.9759192773
 20
4.2216079326
 11
8.0134380273
 21
4.2216079326
  0
LINE
  5
30F
100
AcDbEntity
  8
03__ASM_ALL_CURVES
100
AcDbLine
 62
40
  6
CONTINUOUS
 10
8.0462669335
 20
4.2216079326
 11
8.093165371
 21
4.2216079326
  0
LINE
  5
310
100
AcDbEntity
  8
0
100
AcDbLine
 62
7
  6
CONTINUOUS
 10
4.2596947427
 20
4.2416179326
 11
4.1580370044
 21
4.2416179326
  0
LINE
  5
311
100
AcDbEntity
  8
03__ASM_ALL_CURVES
100
AcDbLine
 62
40
  6
CONTINUOUS
 10
7.8680528714
 20
4.2616279326
 11
7.8586731839
 21
4.2616279326
  0
LINE
  5
312
100
AcDbEntity
  8
03__ASM_ALL_CURVES
100
AcDbLine
 62
40
  6
CONTINUOUS
 10
7.9430903714
 20
4.2991466826
 11
7.9196411527
 21
4.2991466826
  0
LINE
  5
313
100
AcDbEntity
  8
03__ASM_ALL_CURVES
100
AcDbLine
 62
40
  6
CONTINUOUS
 10
7.7930153714
 20
4.2991466826
 11
7.7695661527
 21
4.2991466826
  0
LINE
  5
314
100
AcDbEntity
  8
03__ASM_ALL_CURVES
100
AcDbLine
 62
40
  6
CONTINUOUS
 10
6.8098387957
 20
3.4475804326
 11
6.8004591082
 21
3.4538335578
  0
LINE
  5
315
100
AcDbEntity
  8
03__ASM_ALL_CURVES
100
AcDbLine
 62
40
  6
CONTINUOUS
 10
6.7441809832
 20
3.5226179326
 11
6.7535606707
 21
3.5163648091
  0
LINE
  5
316
100
AcDbEntity
  8
03__ASM_ALL_CURVES
100
AcDbLine
 62
40
  6
CONTINUOUS
 10
6.8192184832
 20
3.5226179326
 11
6.8285981707
 21
3.5163648091
  0
LINE
  5
317
100
AcDbEntity
  8
03__ASM_ALL_CURVES
100
AcDbLine
 62
40
  6
CONTINUOUS
 10
6.8942559832
 20
3.5226179326
 11
6.9036356707
 21
3.5163648091
  0
LINE
  5
318
100
AcDbEntity
  8
03__ASM_ALL_CURVES
100
AcDbLine
 62
40
  6
CONTINUOUS
 10
4.3782192781
 20
5.2418119326
 11
4.3907255281
 21
5.2334744346
  0
LINE
  5
319
100
AcDbEntity
  8
03__ASM_ALL_CURVES
100
AcDbLine
 62
40
  6
CONTINUOUS
 10
5.0660630281
 20
5.2418119326
 11
5.0785692781
 21
5.2251369306
  0
LINE
  5
31A
100
AcDbEntity
  8
0
100
AcDbLine
 62
7
  6
CONTINUOUS
 10
5.4465661531
 20
4.7796179326
 11
5.3914066961
 21
4.8751569147
  0
LINE
  5
31B
100
AcDbEntity
  8
THREAD
100
AcDbLine
 62
7
  6
CONTINUOUS
 10
5.8263189299
 20
3.7771179326
 11
5.8263189299
 21
4.7061179326
  0
LINE
  5
31C
100
AcDbEntity
  8
THREAD
100
AcDbLine
 62
7
  6
CONTINUOUS
 10
5.8445054634
 20
3.7456179326
 11
5.8445054634
 21
4.7376179326
  0
LINE
  5
31D
100
AcDbEntity
  8
03__ASM_ALL_CURVES
100
AcDbLine
 62
40
  6
CONTINUOUS
 10
6.5450211525
 20
5.1584369331
 11
6.5387680275
 21
5.1500994328
  0
LINE
  5
31E
100
AcDbEntity
  8
03__ASM_ALL_CURVES
100
AcDbLine
 62
40
  6
CONTINUOUS
 10
6.7013492775
 20
5.2334744346
 11
6.6950961525
 21
5.2251369306
  0
LINE
  5
31F
100
AcDbEntity
  8
03__ASM_ALL_CURVES
100
AcDbLine
 62
40
  6
CONTINUOUS
 10
7.2328649025
 20
5.1500994328
 11
7.2203586525
 21
5.1417619326
  0
LINE
  5
320
100
AcDbEntity
  8
03__ASM_ALL_CURVES
100
AcDbLine
 62
40
  6
CONTINUOUS
 10
7.4392180275
 20
5.2001244306
 11
7.4267117775
 21
5.1917869326
  0
LINE
  5
321
100
AcDbEntity
  8
03__ASM_ALL_CURVES
100
AcDbLine
 62
40
  6
CONTINUOUS
 10
7.7695661527
 20
4.3366654326
 11
7.7930153714
 21
4.3366654326
  0
LINE
  5
322
100
AcDbEntity
  8
03__ASM_ALL_CURVES
100
AcDbLine
 62
40
  6
CONTINUOUS
 10
7.8586731839
 20
4.3366654326
 11
7.8680528714
 21
4.3366654326
  0
LINE
  5
323
100
AcDbEntity
  8
03__ASM_ALL_CURVES
100
AcDbLine
 62
40
  6
CONTINUOUS
 10
7.9196411527
 20
4.3366654326
 11
7.9430903714
 21
4.3366654326
  0
LINE
  5
324
100
AcDbEntity
  8
03__ASM_ALL_CURVES
100
AcDbLine
 62
40
  6
CONTINUOUS
 10
7.9899888089
 20
4.3366654326
 11
8.0368872464
 21
4.3366654326
  0
LINE
  5
325
100
AcDbEntity
  8
0
100
AcDbLine
 62
7
  6
CONTINUOUS
 10
3.7395661531
 20
4.3926179326
 11
3.7775661531
 21
4.3926179326
  0
LINE
  5
326
100
AcDbEntity
  8
0
100
AcDbLine
 62
7
  6
CONTINUOUS
 10
3.5405661531
 20
4.4256179326
 11
3.7395661531
 21
4.4256179326
  0
LINE
  5
327
100
AcDbEntity
  8
0
100
AcDbLine
 62
7
  6
CONTINUOUS
 10
3.7775661531
 20
4.4256179326
 11
4.0095661531
 21
4.4256179326
  0
LINE
  5
328
100
AcDbEntity
  8
03__ASM_ALL_CURVES
100
AcDbLine
 62
40
  6
CONTINUOUS
 10
4.5658130281
 20
5.1417619326
 11
4.5533067781
 21
5.1500994328
  0
LINE
  5
329
100
AcDbEntity
  8
03__ASM_ALL_CURVES
100
AcDbLine
 62
40
  6
CONTINUOUS
 10
7.0443309832
 20
3.5226179326
 11
7.0537106707
 21
3.5163648091
  0
LINE
  5
32A
100
AcDbEntity
  8
03__ASM_ALL_CURVES
100
AcDbLine
 62
40
  6
CONTINUOUS
 10
4.6658630281
 20
5.1417619326
 11
4.6533567781
 21
5.1500994328
  0
LINE
  5
32B
100
AcDbEntity
  8
03__ASM_ALL_CURVES
100
AcDbLine
 62
40
  6
CONTINUOUS
 10
4.5783192781
 20
5.2084619346
 11
4.5908255281
 21
5.2001244306
  0
LINE
  5
32C
100
AcDbEntity
  8
03__ASM_ALL_CURVES
100
AcDbLine
 62
40
  6
CONTINUOUS
 10
4.6783692781
 20
5.2001244306
 11
4.6908755281
 21
5.1917869326
  0
LINE
  5
32D
100
AcDbEntity
  8
03__ASM_ALL_CURVES
100
AcDbLine
 62
40
  6
CONTINUOUS
 10
4.6783692781
 20
5.2418119326
 11
4.6908755281
 21
5.2334744346
  0
LINE
  5
32E
100
AcDbEntity
  8
03__ASM_ALL_CURVES
100
AcDbLine
 62
40
  6
CONTINUOUS
 10
6.6902478372
 20
3.3387760578
 11
6.6808681497
 21
3.3512823076
  0
LINE
  5
32F
100
AcDbEntity
  8
THREAD
100
AcDbLine
 62
7
  6
CONTINUOUS
 10
6.1525661531
 20
3.7456179326
 11
6.1525661531
 21
4.7376179326
  0
LINE
  5
330
100
AcDbEntity
  8
03__ASM_ALL_CURVES
100
AcDbLine
 62
40
  6
CONTINUOUS
 10
6.7451211525
 20
5.1584369331
 11
6.7388680275
 21
5.1500994328
  0
LINE
  5
331
100
AcDbEntity
  8
03__ASM_ALL_CURVES
100
AcDbLine
 62
40
  6
CONTINUOUS
 10
6.8889430275
 20
5.2167994326
 11
6.9014492775
 21
5.2334744346
  0
LINE
  5
332
100
AcDbEntity
  8
0
100
AcDbLine
 62
7
  6
CONTINUOUS
 10
4.0990661531
 20
4.5071179326
 11
4.0830661531
 21
4.5071179326
  0
LINE
  5
333
100
AcDbEntity
  8
0
100
AcDbLine
 62
7
  6
CONTINUOUS
 10
4.3215661531
 20
4.5126179326
 11
4.2905661531
 21
4.5126179326
  0
LINE
  5
334
100
AcDbEntity
  8
0
100
AcDbLine
 62
7
  6
CONTINUOUS
 10
4.0775661531
 20
4.5126179326
 11
4.0715661531
 21
4.5126179326
  0
LINE
  5
335
100
AcDbEntity
  8
0
100
AcDbLine
 62
7
  6
CONTINUOUS
 10
4.1145661532
 20
4.5226179326
 11
4.2847898748
 21
4.5226179326
  0
LINE
  5
336
100
AcDbEntity
  8
0
100
AcDbLine
 62
7
  6
CONTINUOUS
 10
5.3911405273
 20
4.5341385515
 11
4.8671768244
 21
4.5341385515
  0
LINE
  5
337
100
AcDbEntity
  8
0
100
AcDbLine
 62
7
  6
CONTINUOUS
 10
5.3911405273
 20
4.5824826231
 11
4.8671768244
 21
4.5824826231
  0
LINE
  5
338
100
AcDbEntity
  8
0
100
AcDbLine
 62
7
  6
CONTINUOUS
 10
6.5095661531
 20
4.6148679326
 11
7.0255661531
 21
4.6148679326
  0
LINE
  5
339
100
AcDbEntity
  8
0
100
AcDbLine
 62
7
  6
CONTINUOUS
 10
7.1815661531
 20
4.6148679326
 11
7.1975661531
 21
4.6148679326
  0
LINE
  5
33A
100
AcDbEntity
  8
0
100
AcDbLine
 62
7
  6
CONTINUOUS
 10
7.4245661531
 20
4.6236179326
 11
7.4525661531
 21
4.6236179326
  0
LINE
  5
33B
100
AcDbEntity
  8
THREAD
100
AcDbLine
 62
7
  6
CONTINUOUS
 10
5.6559225596
 20
4.7567878056
 11
5.6370661531
 21
4.7676745569
  0
LINE
  5
33C
100
AcDbEntity
  8
03__ASM_ALL_CURVES
100
AcDbLine
 62
40
  6
CONTINUOUS
 10
4.8659630281
 20
5.1417619326
 11
4.8534567781
 21
5.1500994328
  0
LINE
  5
33D
100
AcDbEntity
  8
03__ASM_ALL_CURVES
100
AcDbLine
 62
40
  6
CONTINUOUS
 10
4.8659630281
 20
5.2001244306
 11
4.8534567781
 21
5.2084619346
  0
LINE
  5
33E
100
AcDbEntity
  8
03__ASM_ALL_CURVES
100
AcDbLine
 62
40
  6
CONTINUOUS
 10
4.8784692781
 20
5.2001244306
 11
4.8909755281
 21
5.1917869326
  0
LINE
  5
33F
100
AcDbEntity
  8
03__ASM_ALL_CURVES
100
AcDbLine
 62
40
  6
CONTINUOUS
 10
4.8784692781
 20
5.2418119326
 11
4.8909755281
 21
5.2334744346
  0
LINE
  5
340
100
AcDbEntity
  8
03__ASM_ALL_CURVES
100
AcDbLine
 62
40
  6
CONTINUOUS
 10
6.7652853372
 20
3.3387760578
 11
6.7605954935
 21
3.345029183
  0
LINE
  5
341
100
AcDbEntity
  8
03__ASM_ALL_CURVES
100
AcDbLine
 62
40
  6
CONTINUOUS
 10
6.7183868997
 20
3.4013073091
 11
6.7277665872
 21
3.3888010576
  0
LINE
  5
342
100
AcDbEntity
  8
03__ASM_ALL_CURVES
100
AcDbLine
 62
40
  6
CONTINUOUS
 10
6.8004591082
 20
3.4538335578
 11
6.7910794207
 21
3.4663398076
  0
LINE
  5
343
100
AcDbEntity
  8
03__ASM_ALL_CURVES
100
AcDbLine
 62
40
  6
CONTINUOUS
 10
6.7535606707
 20
3.5163648091
 11
6.7582505144
 21
3.5101116811
  0
LINE
  5
344
100
AcDbEntity
  8
03__ASM_ALL_CURVES
100
AcDbLine
 62
40
  6
CONTINUOUS
 10
5.8884430275
 20
5.1667744326
 11
5.8821899025
 21
5.1917869326
  0
LINE
  5
345
100
AcDbEntity
  8
0
100
AcDbLine
 62
7
  6
CONTINUOUS
 10
6.1965661531
 20
3.7896179326
 11
6.1965661531
 21
3.8417274915
  0
LINE
  5
346
100
AcDbEntity
  8
0
100
AcDbLine
 62
7
  6
CONTINUOUS
 10
6.1965661531
 20
3.8592070267
 11
6.1965661531
 21
4.6240288385
  0
LINE
  5
347
100
AcDbEntity
  8
0
100
AcDbLine
 62
7
  6
CONTINUOUS
 10
6.1965661531
 20
4.6415083737
 11
6.1965661531
 21
4.6936179326
  0
LINE
  5
348
100
AcDbEntity
  8
03__ASM_ALL_CURVES
100
AcDbLine
 62
40
  6
CONTINUOUS
 10
6.2198586525
 20
5.2418119326
 11
6.2198586525
 21
5.1417619326
  0
LINE
  5
349
100
AcDbEntity
  8
03__ASM_ALL_CURVES
100
AcDbLine
 62
40
  6
CONTINUOUS
 10
6.3199086525
 20
5.2418119326
 11
6.3199086525
 21
5.1417619326
  0
LINE
  5
34A
100
AcDbEntity
  8
03__ASM_ALL_CURVES
100
AcDbLine
 62
40
  6
CONTINUOUS
 10
6.4824899025
 20
5.1917869326
 11
6.4887430275
 21
5.2167994326
  0
LINE
  5
34B
100
AcDbEntity
  8
03__ASM_ALL_CURVES
100
AcDbLine
 62
40
  6
CONTINUOUS
 10
6.9514742775
 20
5.1667744326
 11
6.9389680275
 21
5.1500994328
  0
LINE
  5
34C
100
AcDbEntity
  8
03__ASM_ALL_CURVES
100
AcDbLine
 62
40
  6
CONTINUOUS
 10
7.0452711525
 20
5.1584369331
 11
7.0390180275
 21
5.1500994328
  0
LINE
  5
34D
100
AcDbEntity
  8
THREAD
100
AcDbLine
 62
7
  6
CONTINUOUS
 10
5.6559225596
 20
3.7264480596
 11
5.6370661531
 21
3.7155613083
  0
LINE
  5
34E
100
AcDbEntity
  8
0
100
AcDbLine
 62
7
  6
CONTINUOUS
 10
7.2545661531
 20
4.6776179326
 11
7.3045661531
 21
4.6776179326
  0
LINE
  5
34F
100
AcDbEntity
  8
0
100
AcDbLine
 62
7
  6
CONTINUOUS
 10
7.3745661531
 20
4.6776179326
 11
7.4245661531
 21
4.6776179326
  0
LINE
  5
350
100
AcDbEntity
  8
0
100
AcDbLine
 62
7
  6
CONTINUOUS
 10
7.4955661531
 20
4.6781179326
 11
7.4525661531
 21
4.6781179326
  0
LINE
  5
351
100
AcDbEntity
  8
0
100
AcDbLine
 62
7
  6
CONTINUOUS
 10
7.2510661531
 20
4.6781179326
 11
7.2010661531
 21
4.6781179326
  0
LINE
  5
352
100
AcDbEntity
  8
THREAD
100
AcDbLine
 62
7
  6
CONTINUOUS
 10
6.4935661531
 20
4.6936179326
 11
6.1965661531
 21
4.6936179326
  0
LINE
  5
353
100
AcDbEntity
  8
THREAD
100
AcDbLine
 62
7
  6
CONTINUOUS
 10
5.8150605996
 20
4.6996179326
 11
5.8015661531
 21
4.6996179326
  0
LINE
  5
354
100
AcDbEntity
  8
THREAD
100
AcDbLine
 62
7
  6
CONTINUOUS
 10
6.1525661531
 20
4.7376179326
 11
5.8445054634
 21
4.7376179326
  0
LINE
  5
355
100
AcDbEntity
  8
0
100
AcDbLine
 62
7
  6
CONTINUOUS
 10
4.8215661531
 20
4.7386179326
 11
4.3835661531
 21
4.7386179326
  0
LINE
  5
356
100
AcDbEntity
  8
0
100
AcDbLine
 62
7
  6
CONTINUOUS
 10
5.7515661531
 20
4.7536179326
 11
5.8015661531
 21
4.7536179326
  0
LINE
  5
357
100
AcDbEntity
  8
THREAD
100
AcDbLine
 62
7
  6
CONTINUOUS
 10
5.6815661531
 20
4.7561179326
 11
5.6584225596
 21
4.7561179326
  0
LINE
  5
358
100
AcDbEntity
  8
0
100
AcDbLine
 62
7
  6
CONTINUOUS
 10
5.6315661531
 20
4.7796179326
 11
5.4465661531
 21
4.7796179326
  0
LINE
  5
359
100
AcDbEntity
  8
03__ASM_ALL_CURVES
100
AcDbLine
 62
40
  6
CONTINUOUS
 10
3.6296261531
 20
5.0850669326
 11
3.5095661531
 21
5.1017419326
  0
LINE
  5
35A
100
AcDbEntity
  8
03__ASM_ALL_CURVES
100
AcDbLine
 62
40
  6
CONTINUOUS
 10
3.6296261531
 20
5.0817319326
 11
3.5095661531
 21
5.1017419326
  0
LINE
  5
35B
100
AcDbEntity
  8
03__ASM_ALL_CURVES
100
AcDbLine
 62
40
  6
CONTINUOUS
 10
6.8285981707
 20
3.5163648091
 11
6.8379778582
 21
3.5038585576
  0
LINE
  5
35C
100
AcDbEntity
  8
03__ASM_ALL_CURVES
100
AcDbLine
 62
40
  6
CONTINUOUS
 10
6.9036356707
 20
3.5163648091
 11
6.9083255144
 21
3.5101116811
  0
LINE
  5
35D
100
AcDbEntity
  8
03__ASM_ALL_CURVES
100
AcDbLine
 62
40
  6
CONTINUOUS
 10
5.9509742775
 20
5.2167994326
 11
5.9572274025
 21
5.1917869326
  0
LINE
  5
35E
100
AcDbEntity
  8
03__ASM_ALL_CURVES
100
AcDbLine
 62
40
  6
CONTINUOUS
 10
5.9884930275
 20
5.1667744326
 11
5.9822399025
 21
5.1917869326
  0
LINE
  5
35F
100
AcDbEntity
  8
03__ASM_ALL_CURVES
100
AcDbLine
 62
40
  6
CONTINUOUS
 10
6.3949461525
 20
5.1417619326
 11
6.3949461525
 21
5.2418119326
  0
LINE
  5
360
100
AcDbEntity
  8
03__ASM_ALL_CURVES
100
AcDbLine
 62
40
  6
CONTINUOUS
 10
6.4449711525
 20
5.1417619326
 11
6.4449711525
 21
5.2418119326
  0
LINE
  5
361
100
AcDbEntity
  8
03__ASM_ALL_CURVES
100
AcDbLine
 62
40
  6
CONTINUOUS
 10
7.2453711525
 20
5.1667744326
 11
7.2328649025
 21
5.1500994328
  0
LINE
  5
362
100
AcDbEntity
  8
THREAD
100
AcDbLine
 62
7
  6
CONTINUOUS
 10
6.1965661531
 20
3.7896179326
 11
6.1525661531
 21
3.7456179326
  0
LINE
  5
363
100
AcDbEntity
  8
0
100
AcDbLine
 62
7
  6
CONTINUOUS
 10
5.3911405273
 20
4.8750032421
 11
4.8671768244
 21
4.8750032421
  0
LINE
  5
364
100
AcDbEntity
  8
0
100
AcDbLine
 62
7
  6
CONTINUOUS
 10
5.3911405273
 20
4.8756179326
 11
4.8671768244
 21
4.8756179326
  0
LINE
  5
365
100
AcDbEntity
  8
03__ASM_ALL_CURVES
100
AcDbLine
 62
40
  6
CONTINUOUS
 10
3.6296261531
 20
5.0917369326
 11
3.5095661531
 21
5.1017419326
  0
LINE
  5
366
100
AcDbEntity
  8
03__ASM_ALL_CURVES
100
AcDbLine
 62
40
  6
CONTINUOUS
 10
3.6296261531
 20
5.0884019326
 11
3.5095661531
 21
5.1017419326
  0
LINE
  5
367
100
AcDbEntity
  8
THREAD
100
AcDbLine
 62
7
  6
CONTINUOUS
 10
6.1965661531
 20
4.6936179326
 11
6.1525661531
 21
4.7376179326
  0
LINE
  5
368
100
AcDbEntity
  8
0
100
AcDbLine
 62
7
  6
CONTINUOUS
 10
7.2010661531
 20
3.8051179326
 11
7.1975661531
 21
3.8086179326
  0
LINE
  5
369
100
AcDbEntity
  8
03__ASM_ALL_CURVES
100
AcDbLine
 62
40
  6
CONTINUOUS
 10
7.0537106707
 20
3.5163648091
 11
7.0584005144
 21
3.5101116811
  0
LINE
  5
36A
100
AcDbEntity
  8
03__ASM_ALL_CURVES
100
AcDbLine
 62
40
  6
CONTINUOUS
 10
5.9009492775
 20
5.1500994328
 11
5.8884430275
 21
5.1667744326
  0
LINE
  5
36B
100
AcDbEntity
  8
03__ASM_ALL_CURVES
100
AcDbLine
 62
40
  6
CONTINUOUS
 10
6.0009992775
 20
5.1500994328
 11
5.9884930275
 21
5.1667744326
  0
LINE
  5
36C
100
AcDbEntity
  8
03__ASM_ALL_CURVES
100
AcDbLine
 62
40
  6
CONTINUOUS
 10
5.9384680275
 20
5.2334744346
 11
5.9509742775
 21
5.2167994326
  0
LINE
  5
36D
100
AcDbEntity
  8
03__ASM_ALL_CURVES
100
AcDbLine
 62
40
  6
CONTINUOUS
 10
6.1198086525
 20
5.2418119326
 11
6.1510742775
 21
5.1417619326
  0
LINE
  5
36E
100
AcDbEntity
  8
03__ASM_ALL_CURVES
100
AcDbLine
 62
40
  6
CONTINUOUS
 10
6.6808681497
 20
3.3512823076
 11
6.676178306
 21
3.3700416826
  0
LINE
  5
36F
100
AcDbEntity
  8
03__ASM_ALL_CURVES
100
AcDbLine
 62
40
  6
CONTINUOUS
 10
6.7277665872
 20
3.3888010576
 11
6.732456431
 21
3.3700416826
  0
LINE
  5
370
100
AcDbEntity
  8
0
100
AcDbLine
 62
7
  6
CONTINUOUS
 10
6.4935661531
 20
3.7896179326
 11
6.4935661531
 21
4.6936179326
  0
LINE
  5
371
100
AcDbEntity
  8
0
100
AcDbLine
 62
7
  6
CONTINUOUS
 10
6.5095661531
 20
3.8056179326
 11
6.5095661531
 21
4.6776179326
  0
LINE
  5
372
100
AcDbEntity
  8
03__ASM_ALL_CURVES
100
AcDbLine
 62
40
  6
CONTINUOUS
 10
6.5450211525
 20
5.1917869326
 11
6.5450211525
 21
5.1584369331
  0
LINE
  5
373
100
AcDbEntity
  8
03__ASM_ALL_CURVES
100
AcDbLine
 62
40
  6
CONTINUOUS
 10
6.8826899025
 20
5.1917869326
 11
6.8889430275
 21
5.2167994326
  0
LINE
  5
374
100
AcDbEntity
  8
03__ASM_ALL_CURVES
100
AcDbLine
 62
40
  6
CONTINUOUS
 10
7.4454711525
 20
5.2084619346
 11
7.4392180275
 21
5.2001244306
  0
LINE
  5
375
100
AcDbEntity
  8
0
100
AcDbLine
 62
7
  6
CONTINUOUS
 10
7.2010661531
 20
4.6781179326
 11
7.1975661531
 21
4.6746179326
  0
LINE
  5
376
100
AcDbEntity
  8
0
100
AcDbLine
 62
7
  6
CONTINUOUS
 10
6.5095661531
 20
3.8056179326
 11
6.4935661531
 21
3.7896179326
  0
LINE
  5
377
100
AcDbEntity
  8
03__ASM_ALL_CURVES
100
AcDbLine
 62
40
  6
CONTINUOUS
 10
5.5145061531
 20
5.0817319326
 11
5.7546261531
 21
5.1217519326
  0
LINE
  5
378
100
AcDbEntity
  8
03__ASM_ALL_CURVES
100
AcDbLine
 62
40
  6
CONTINUOUS
 10
5.5145061531
 20
5.0850669326
 11
5.7546261531
 21
5.1184169326
  0
LINE
  5
379
100
AcDbEntity
  8
03__ASM_ALL_CURVES
100
AcDbLine
 62
40
  6
CONTINUOUS
 10
5.5145061531
 20
5.0884019326
 11
5.7546261531
 21
5.1150819326
  0
LINE
  5
37A
100
AcDbEntity
  8
03__ASM_ALL_CURVES
100
AcDbLine
 62
40
  6
CONTINUOUS
 10
5.5145061531
 20
5.0917369326
 11
5.7546261531
 21
5.1117469326
  0
LINE
  5
37B
100
AcDbEntity
  8
03__ASM_ALL_CURVES
100
AcDbLine
 62
40
  6
CONTINUOUS
 10
5.5145061531
 20
5.0950719326
 11
5.7546261531
 21
5.1084119326
  0
LINE
  5
37C
100
AcDbEntity
  8
03__ASM_ALL_CURVES
100
AcDbLine
 62
40
  6
CONTINUOUS
 10
5.5145061531
 20
5.0984069326
 11
5.7546261531
 21
5.1050769326
  0
LINE
  5
37D
100
AcDbEntity
  8
03__ASM_ALL_CURVES
100
AcDbLine
 62
40
  6
CONTINUOUS
 10
3.5095661531
 20
5.1017419326
 11
7.5555261531
 21
5.1017419326
  0
LINE
  5
37E
100
AcDbEntity
  8
03__ASM_ALL_CURVES
100
AcDbLine
 62
40
  6
CONTINUOUS
 10
3.6296261531
 20
5.0984069326
 11
3.5095661531
 21
5.1017419326
  0
LINE
  5
37F
100
AcDbEntity
  8
03__ASM_ALL_CURVES
100
AcDbLine
 62
40
  6
CONTINUOUS
 10
5.5145061531
 20
5.1050769326
 11
5.7546261531
 21
5.0984069326
  0
LINE
  5
380
100
AcDbEntity
  8
03__ASM_ALL_CURVES
100
AcDbLine
 62
40
  6
CONTINUOUS
 10
3.6296261531
 20
5.0950719326
 11
3.5095661531
 21
5.1017419326
  0
LINE
  5
381
100
AcDbEntity
  8
03__ASM_ALL_CURVES
100
AcDbLine
 62
40
  6
CONTINUOUS
 10
5.5145061531
 20
5.1084119326
 11
5.7546261531
 21
5.0950719326
  0
LINE
  5
382
100
AcDbEntity
  8
03__ASM_ALL_CURVES
100
AcDbLine
 62
40
  6
CONTINUOUS
 10
5.5145061531
 20
5.1117469326
 11
5.7546261531
 21
5.0917369326
  0
LINE
  5
383
100
AcDbEntity
  8
03__ASM_ALL_CURVES
100
AcDbLine
 62
40
  6
CONTINUOUS
 10
5.5145061531
 20
5.1150819326
 11
5.7546261531
 21
5.0884019326
  0
LINE
  5
384
100
AcDbEntity
  8
03__ASM_ALL_CURVES
100
AcDbLine
 62
40
  6
CONTINUOUS
 10
5.5145061531
 20
5.1184169326
 11
5.7546261531
 21
5.0850669326
  0
LINE
  5
385
100
AcDbEntity
  8
03__ASM_ALL_CURVES
100
AcDbLine
 62
40
  6
CONTINUOUS
 10
5.7546261531
 20
5.0817319326
 11
5.5145061531
 21
5.1217519326
  0
LINE
  5
386
100
AcDbEntity
  8
03__ASM_ALL_CURVES
100
AcDbLine
 62
40
  6
CONTINUOUS
 10
5.9134555275
 20
5.1417619326
 11
5.9009492775
 21
5.1500994328
  0
LINE
  5
387
100
AcDbEntity
  8
03__ASM_ALL_CURVES
100
AcDbLine
 62
40
  6
CONTINUOUS
 10
6.0135055275
 20
5.1417619326
 11
6.0009992775
 21
5.1500994328
  0
LINE
  5
388
100
AcDbEntity
  8
0
100
AcDbLine
 62
7
  6
CONTINUOUS
 10
6.5095661531
 20
4.6776179326
 11
6.4935661531
 21
4.6936179326
  0
LINE
  5
389
100
AcDbEntity
  8
03__ASM_ALL_CURVES
100
AcDbLine
 62
40
  6
CONTINUOUS
 10
6.0385180275
 20
5.2334744346
 11
6.0447711525
 21
5.2251369306
  0
LINE
  5
38A
100
AcDbEntity
  8
03__ASM_ALL_CURVES
100
AcDbLine
 62
40
  6
CONTINUOUS
 10
6.8942559832
 20
3.4850991826
 11
6.9083255144
 21
3.4475804326
  0
LINE
  5
38B
100
AcDbEntity
  8
03__ASM_ALL_CURVES
100
AcDbLine
 62
40
  6
CONTINUOUS
 10
6.7910794207
 20
3.4663398076
 11
6.7863895769
 21
3.4850991826
  0
LINE
  5
38C
100
AcDbEntity
  8
03__ASM_ALL_CURVES
100
AcDbLine
 62
40
  6
CONTINUOUS
 10
6.8379778582
 20
3.5038585576
 11
6.8426677019
 21
3.4850991826
  0
LINE
  5
38D
100
AcDbEntity
  8
03__ASM_ALL_CURVES
100
AcDbLine
 62
40
  6
CONTINUOUS
 10
6.6950961525
 20
5.2251369306
 11
6.6950961525
 21
5.2167994326
  0
LINE
  5
38E
100
AcDbEntity
  8
03__ASM_ALL_CURVES
100
AcDbLine
 62
40
  6
CONTINUOUS
 10
6.7207317644
 20
3.4475804326
 11
6.7207317644
 21
3.5226179326
  0
LINE
  5
38F
100
AcDbEntity
  8
03__ASM_ALL_CURVES
100
AcDbLine
 62
40
  6
CONTINUOUS
 10
6.7451211525
 20
5.1751119336
 11
6.7451211525
 21
5.1584369331
  0
LINE
  5
390
100
AcDbEntity
  8
03__ASM_ALL_CURVES
100
AcDbLine
 62
40
  6
CONTINUOUS
 10
6.7582505144
 20
3.5101116811
 11
6.7582505144
 21
3.4976054341
  0
LINE
  5
391
100
AcDbEntity
  8
03__ASM_ALL_CURVES
100
AcDbLine
 62
40
  6
CONTINUOUS
 10
6.7605954935
 20
3.345029183
 11
6.7605954935
 21
3.4075604326
  0
LINE
  5
392
100
AcDbEntity
  8
03__ASM_ALL_CURVES
100
AcDbLine
 62
40
  6
CONTINUOUS
 10
6.7951461525
 20
5.2418119326
 11
6.7951461525
 21
5.1417619326
  0
LINE
  5
393
100
AcDbEntity
  8
03__ASM_ALL_CURVES
100
AcDbLine
 62
40
  6
CONTINUOUS
 10
6.7981142435
 20
3.4075604326
 11
6.7981142435
 21
3.345029183
  0
LINE
  5
394
100
AcDbEntity
  8
03__ASM_ALL_CURVES
100
AcDbLine
 62
40
  6
CONTINUOUS
 10
6.9577274025
 20
5.1917869326
 11
6.9514742775
 21
5.1667744326
  0
LINE
  5
395
100
AcDbEntity
  8
03__ASM_ALL_CURVES
100
AcDbLine
 62
40
  6
CONTINUOUS
 10
3.6296261531
 20
5.1117469326
 11
3.5095661531
 21
5.1017419326
  0
LINE
  5
396
100
AcDbEntity
  8
03__ASM_ALL_CURVES
100
AcDbLine
 62
40
  6
CONTINUOUS
 10
3.6296261531
 20
5.1084119326
 11
3.5095661531
 21
5.1017419326
  0
LINE
  5
397
100
AcDbEntity
  8
03__ASM_ALL_CURVES
100
AcDbLine
 62
40
  6
CONTINUOUS
 10
3.6296261531
 20
5.1050769326
 11
3.5095661531
 21
5.1017419326
  0
LINE
  5
398
100
AcDbEntity
  8
03__ASM_ALL_CURVES
100
AcDbLine
 62
40
  6
CONTINUOUS
 10
7.3454211525
 20
5.1417619326
 11
7.2953961525
 21
5.1417619326
  0
LINE
  5
399
100
AcDbEntity
  8
03__ASM_ALL_CURVES
100
AcDbLine
 62
40
  6
CONTINUOUS
 10
7.2203586525
 20
5.1417619326
 11
7.1953461525
 21
5.1417619326
  0
LINE
  5
39A
100
AcDbEntity
  8
03__ASM_ALL_CURVES
100
AcDbLine
 62
40
  6
CONTINUOUS
 10
7.0265117775
 20
5.1417619326
 11
7.0140055275
 21
5.1417619326
  0
LINE
  5
39B
100
AcDbEntity
  8
03__ASM_ALL_CURVES
100
AcDbLine
 62
40
  6
CONTINUOUS
 10
6.9264617775
 20
5.1417619326
 11
6.9139555275
 21
5.1417619326
  0
LINE
  5
39C
100
AcDbEntity
  8
03__ASM_ALL_CURVES
100
AcDbLine
 62
40
  6
CONTINUOUS
 10
6.7263617775
 20
5.1417619326
 11
6.7138555275
 21
5.1417619326
  0
LINE
  5
39D
100
AcDbEntity
  8
03__ASM_ALL_CURVES
100
AcDbLine
 62
40
  6
CONTINUOUS
 10
6.5262617775
 20
5.1417619326
 11
6.5137555275
 21
5.1417619326
  0
LINE
  5
39E
100
AcDbEntity
  8
03__ASM_ALL_CURVES
100
AcDbLine
 62
40
  6
CONTINUOUS
 10
6.0260117775
 20
5.1417619326
 11
6.0135055275
 21
5.1417619326
  0
LINE
  5
39F
100
AcDbEntity
  8
03__ASM_ALL_CURVES
100
AcDbLine
 62
40
  6
CONTINUOUS
 10
5.9259617775
 20
5.1417619326
 11
5.9134555275
 21
5.1417619326
  0
LINE
  5
3A0
100
AcDbEntity
  8
03__ASM_ALL_CURVES
100
AcDbLine
 62
40
  6
CONTINUOUS
 10
4.8784692781
 20
5.1417619326
 11
4.8659630281
 21
5.1417619326
  0
LINE
  5
3A1
100
AcDbEntity
  8
03__ASM_ALL_CURVES
100
AcDbLine
 62
40
  6
CONTINUOUS
 10
4.7721661531
 20
5.1417619326
 11
4.7659130281
 21
5.1417619326
  0
LINE
  5
3A2
100
AcDbEntity
  8
03__ASM_ALL_CURVES
100
AcDbLine
 62
40
  6
CONTINUOUS
 10
4.6783692781
 20
5.1417619326
 11
4.6658630281
 21
5.1417619326
  0
LINE
  5
3A3
100
AcDbEntity
  8
03__ASM_ALL_CURVES
100
AcDbLine
 62
40
  6
CONTINUOUS
 10
4.5783192781
 20
5.1417619326
 11
4.5658130281
 21
5.1417619326
  0
LINE
  5
3A4
100
AcDbEntity
  8
03__ASM_ALL_CURVES
100
AcDbLine
 62
40
  6
CONTINUOUS
 10
4.1718661531
 20
5.1417619326
 11
4.1656130281
 21
5.1417619326
  0
LINE
  5
3A5
100
AcDbEntity
  8
03__ASM_ALL_CURVES
100
AcDbLine
 62
40
  6
CONTINUOUS
 10
4.0468036531
 20
5.1417619326
 11
4.0968286531
 21
5.1417619326
  0
LINE
  5
3A6
100
AcDbEntity
  8
03__ASM_ALL_CURVES
100
AcDbLine
 62
40
  6
CONTINUOUS
 10
4.3469536531
 20
5.1417619326
 11
4.3969786531
 21
5.1417619326
  0
LINE
  5
3A7
100
AcDbEntity
  8
03__ASM_ALL_CURVES
100
AcDbLine
 62
40
  6
CONTINUOUS
 10
5.7946461525
 20
5.1417619326
 11
5.8446711525
 21
5.1417619326
  0
LINE
  5
3A8
100
AcDbEntity
  8
03__ASM_ALL_CURVES
100
AcDbLine
 62
40
  6
CONTINUOUS
 10
7.0952961525
 20
5.1417619326
 11
7.1453211525
 21
5.1417619326
  0
LINE
  5
3A9
100
AcDbEntity
  8
03__ASM_ALL_CURVES
100
AcDbLine
 62
40
  6
CONTINUOUS
 10
4.9472536531
 20
5.1667744326
 11
5.0035317781
 21
5.1667744326
  0
LINE
  5
3AA
100
AcDbEntity
  8
03__ASM_ALL_CURVES
100
AcDbLine
 62
40
  6
CONTINUOUS
 10
6.1010492775
 20
5.1751119336
 11
6.1385680275
 21
5.1751119336
  0
LINE
  5
3AB
100
AcDbEntity
  8
03__ASM_ALL_CURVES
100
AcDbLine
 62
40
  6
CONTINUOUS
 10
7.4267117775
 20
5.1917869326
 11
7.3954461525
 21
5.1917869326
  0
LINE
  5
3AC
100
AcDbEntity
  8
03__ASM_ALL_CURVES
100
AcDbLine
 62
40
  6
CONTINUOUS
 10
6.5200086525
 20
5.1917869326
 11
6.5450211525
 21
5.1917869326
  0
LINE
  5
3AD
100
AcDbEntity
  8
03__ASM_ALL_CURVES
100
AcDbLine
 62
40
  6
CONTINUOUS
 10
6.7951461525
 20
5.1917869326
 11
6.8451711525
 21
5.1917869326
  0
LINE
  5
3AE
100
AcDbEntity
  8
03__ASM_ALL_CURVES
100
AcDbLine
 62
40
  6
CONTINUOUS
 10
7.2953961525
 20
5.1917869326
 11
7.3266617775
 21
5.1917869326
  0
LINE
  5
3AF
100
AcDbEntity
  8
03__ASM_ALL_CURVES
100
AcDbLine
 62
40
  6
CONTINUOUS
 10
4.6658630281
 20
5.2001244306
 11
4.6783692781
 21
5.2001244306
  0
LINE
  5
3B0
100
AcDbEntity
  8
03__ASM_ALL_CURVES
100
AcDbLine
 62
40
  6
CONTINUOUS
 10
4.8659630281
 20
5.2001244306
 11
4.8784692781
 21
5.2001244306
  0
LINE
  5
3B1
100
AcDbEntity
  8
03__ASM_ALL_CURVES
100
AcDbLine
 62
40
  6
CONTINUOUS
 10
4.5658130281
 20
5.2084619346
 11
4.5783192781
 21
5.2084619346
  0
LINE
  5
3B2
100
AcDbEntity
  8
03__ASM_ALL_CURVES
100
AcDbLine
 62
40
  6
CONTINUOUS
 10
6.7263617775
 20
5.2418119326
 11
6.7138555275
 21
5.2418119326
  0
LINE
  5
3B3
100
AcDbEntity
  8
03__ASM_ALL_CURVES
100
AcDbLine
 62
40
  6
CONTINUOUS
 10
4.5970786531
 20
5.2418119326
 11
4.5595599031
 21
5.2418119326
  0
LINE
  5
3B4
100
AcDbEntity
  8
03__ASM_ALL_CURVES
100
AcDbLine
 62
40
  6
CONTINUOUS
 10
4.0655630281
 20
5.2418119326
 11
4.0780692781
 21
5.2418119326
  0
LINE
  5
3B5
100
AcDbEntity
  8
03__ASM_ALL_CURVES
100
AcDbLine
 62
40
  6
CONTINUOUS
 10
4.3657130281
 20
5.2418119326
 11
4.3782192781
 21
5.2418119326
  0
LINE
  5
3B6
100
AcDbEntity
  8
03__ASM_ALL_CURVES
100
AcDbLine
 62
40
  6
CONTINUOUS
 10
4.6658630281
 20
5.2418119326
 11
4.6783692781
 21
5.2418119326
  0
LINE
  5
3B7
100
AcDbEntity
  8
03__ASM_ALL_CURVES
100
AcDbLine
 62
40
  6
CONTINUOUS
 10
4.8659630281
 20
5.2418119326
 11
4.8784692781
 21
5.2418119326
  0
LINE
  5
3B8
100
AcDbEntity
  8
03__ASM_ALL_CURVES
100
AcDbLine
 62
40
  6
CONTINUOUS
 10
5.9134555275
 20
5.2418119326
 11
5.9259617775
 21
5.2418119326
  0
LINE
  5
3B9
100
AcDbEntity
  8
03__ASM_ALL_CURVES
100
AcDbLine
 62
40
  6
CONTINUOUS
 10
6.0135055275
 20
5.2418119326
 11
6.0260117775
 21
5.2418119326
  0
LINE
  5
3BA
100
AcDbEntity
  8
03__ASM_ALL_CURVES
100
AcDbLine
 62
40
  6
CONTINUOUS
 10
6.1885930275
 20
5.2418119326
 11
6.2511242775
 21
5.2418119326
  0
LINE
  5
3BB
100
AcDbEntity
  8
03__ASM_ALL_CURVES
100
AcDbLine
 62
40
  6
CONTINUOUS
 10
6.5137555275
 20
5.2418119326
 11
6.5262617775
 21
5.2418119326
  0
LINE
  5
3BC
100
AcDbEntity
  8
03__ASM_ALL_CURVES
100
AcDbLine
 62
40
  6
CONTINUOUS
 10
6.9139555275
 20
5.2418119326
 11
6.9264617775
 21
5.2418119326
  0
LINE
  5
3BD
100
AcDbEntity
  8
03__ASM_ALL_CURVES
100
AcDbLine
 62
40
  6
CONTINUOUS
 10
7.1953461525
 20
5.2418119326
 11
7.2203586525
 21
5.2418119326
  0
LINE
  5
3BE
100
AcDbEntity
  8
03__ASM_ALL_CURVES
100
AcDbLine
 62
40
  6
CONTINUOUS
 10
7.2953961525
 20
5.2418119326
 11
7.3454211525
 21
5.2418119326
  0
LINE
  5
3BF
100
AcDbEntity
  8
03__ASM_ALL_CURVES
100
AcDbLine
 62
40
  6
CONTINUOUS
 10
7.3954461525
 20
5.2418119326
 11
7.4267117775
 21
5.2418119326
  0
LINE
  5
3C0
100
AcDbEntity
  8
03__ASM_ALL_CURVES
100
AcDbLine
 62
40
  6
CONTINUOUS
 10
5.9259617775
 20
5.2418119326
 11
5.9384680275
 21
5.2334744346
  0
LINE
  5
3C1
100
AcDbEntity
  8
03__ASM_ALL_CURVES
100
AcDbLine
 62
40
  6
CONTINUOUS
 10
6.0260117775
 20
5.2418119326
 11
6.0385180275
 21
5.2334744346
  0
LINE
  5
3C2
100
AcDbEntity
  8
03__ASM_ALL_CURVES
100
AcDbLine
 62
40
  6
CONTINUOUS
 10
6.3949461525
 20
5.2418119326
 11
6.4449711525
 21
5.1417619326
  0
LINE
  5
3C3
100
AcDbEntity
  8
03__ASM_ALL_CURVES
100
AcDbLine
 62
40
  6
CONTINUOUS
 10
6.4887430275
 20
5.1667744326
 11
6.4824899025
 21
5.1917869326
  0
LINE
  5
3C4
100
AcDbEntity
  8
03__ASM_ALL_CURVES
100
AcDbLine
 62
40
  6
CONTINUOUS
 10
6.8451711525
 20
5.2418119326
 11
6.8451711525
 21
5.1417619326
  0
LINE
  5
3C5
100
AcDbEntity
  8
03__ASM_ALL_CURVES
100
AcDbLine
 62
40
  6
CONTINUOUS
 10
6.8543923685
 20
3.4075604326
 11
6.8543923685
 21
3.3325229326
  0
LINE
  5
3C6
100
AcDbEntity
  8
03__ASM_ALL_CURVES
100
AcDbLine
 62
40
  6
CONTINUOUS
 10
6.8708067644
 20
3.4475804326
 11
6.8708067644
 21
3.5226179326
  0
LINE
  5
3C7
100
AcDbEntity
  8
03__ASM_ALL_CURVES
100
AcDbLine
 62
40
  6
CONTINUOUS
 10
6.9083255144
 20
3.5101116811
 11
6.9083255144
 21
3.4976054341
  0
LINE
  5
3C8
100
AcDbEntity
  8
03__ASM_ALL_CURVES
100
AcDbLine
 62
40
  6
CONTINUOUS
 10
6.9106704935
 20
3.4075604326
 11
6.9106704935
 21
3.3325229326
  0
LINE
  5
3C9
100
AcDbEntity
  8
03__ASM_ALL_CURVES
100
AcDbLine
 62
40
  6
CONTINUOUS
 10
6.9646036394
 20
3.5226179326
 11
6.9646036394
 21
3.4475804326
  0
LINE
  5
3CA
100
AcDbEntity
  8
03__ASM_ALL_CURVES
100
AcDbLine
 62
40
  6
CONTINUOUS
 10
6.676178306
 20
3.3700416826
 11
6.6808681497
 21
3.3888010576
  0
LINE
  5
3CB
100
AcDbEntity
  8
03__ASM_ALL_CURVES
100
AcDbLine
 62
40
  6
CONTINUOUS
 10
6.732456431
 20
3.3700416826
 11
6.7277665872
 21
3.3512823076
  0
LINE
  5
3CC
100
AcDbEntity
  8
03__ASM_ALL_CURVES
100
AcDbLine
 62
40
  6
CONTINUOUS
 10
6.7863895769
 20
3.4850991826
 11
6.7910794207
 21
3.5038585576
  0
LINE
  5
3CD
100
AcDbEntity
  8
03__ASM_ALL_CURVES
100
AcDbLine
 62
40
  6
CONTINUOUS
 10
7.8023950589
 20
4.3053998061
 11
7.7930153714
 21
4.2991466826
  0
LINE
  5
3CE
100
AcDbEntity
  8
03__ASM_ALL_CURVES
100
AcDbLine
 62
40
  6
CONTINUOUS
 10
7.8492934964
 20
4.3304123091
 11
7.8586731839
 21
4.3366654326
  0
LINE
  5
3CF
100
AcDbEntity
  8
03__ASM_ALL_CURVES
100
AcDbLine
 62
40
  6
CONTINUOUS
 10
7.8774325589
 20
4.2678810578
 11
7.8680528714
 21
4.2616279326
  0
LINE
  5
3D0
100
AcDbEntity
  8
03__ASM_ALL_CURVES
100
AcDbLine
 62
40
  6
CONTINUOUS
 10
7.9524700589
 20
4.3053998061
 11
7.9430903714
 21
4.2991466826
  0
LINE
  5
3D1
100
AcDbEntity
  8
03__ASM_ALL_CURVES
100
AcDbLine
 62
40
  6
CONTINUOUS
 10
3.5095661531
 20
5.1017419326
 11
3.6296261531
 21
5.1217519326
  0
LINE
  5
3D2
100
AcDbEntity
  8
03__ASM_ALL_CURVES
100
AcDbLine
 62
40
  6
CONTINUOUS
 10
3.6296261531
 20
5.1184169326
 11
3.5095661531
 21
5.1017419326
  0
LINE
  5
3D3
100
AcDbEntity
  8
03__ASM_ALL_CURVES
100
AcDbLine
 62
40
  6
CONTINUOUS
 10
3.6296261531
 20
5.1150819326
 11
3.5095661531
 21
5.1017419326
  0
LINE
  5
3D4
100
AcDbEntity
  8
03__ASM_ALL_CURVES
100
AcDbLine
 62
40
  6
CONTINUOUS
 10
6.5137555275
 20
5.1417619326
 11
6.5012492775
 21
5.1500994328
  0
LINE
  5
3D5
100
AcDbEntity
  8
03__ASM_ALL_CURVES
100
AcDbLine
 62
40
  6
CONTINUOUS
 10
7.8586731839
 20
4.2616279326
 11
7.8492934964
 21
4.2678810578
  0
LINE
  5
3D6
100
AcDbEntity
  8
03__ASM_ALL_CURVES
100
AcDbLine
 62
40
  6
CONTINUOUS
 10
7.7930153714
 20
4.3366654326
 11
7.8023950589
 21
4.3304123091
  0
LINE
  5
3D7
100
AcDbEntity
  8
03__ASM_ALL_CURVES
100
AcDbLine
 62
40
  6
CONTINUOUS
 10
6.5012492775
 20
5.1500994328
 11
6.4887430275
 21
5.1667744326
  0
LINE
  5
3D8
100
AcDbEntity
  8
03__ASM_ALL_CURVES
100
AcDbLine
 62
40
  6
CONTINUOUS
 10
6.5387680275
 20
5.2334744346
 11
6.5450211525
 21
5.2251369306
  0
LINE
  5
3D9
100
AcDbEntity
  8
03__ASM_ALL_CURVES
100
AcDbLine
 62
40
  6
CONTINUOUS
 10
6.9857079935
 20
3.3325229326
 11
6.9857079935
 21
3.4075604326
  0
LINE
  5
3DA
100
AcDbEntity
  8
03__ASM_ALL_CURVES
100
AcDbLine
 62
40
  6
CONTINUOUS
 10
6.9952461525
 20
5.1584369331
 11
6.9952461525
 21
5.2418119326
  0
LINE
  5
3DB
100
AcDbEntity
  8
0
100
AcDbLine
 62
7
  6
CONTINUOUS
 10
7.0285661531
 20
4.2213142291
 11
7.0285661531
 21
4.261921624
  0
LINE
  5
3DC
100
AcDbEntity
  8
03__ASM_ALL_CURVES
100
AcDbLine
 62
40
  6
CONTINUOUS
 10
7.0452711525
 20
5.2418119326
 11
7.0452711525
 21
5.1584369331
  0
LINE
  5
3DD
100
AcDbEntity
  8
03__ASM_ALL_CURVES
100
AcDbLine
 62
40
  6
CONTINUOUS
 10
7.0584005144
 20
3.5101116811
 11
7.0584005144
 21
3.4976054341
  0
LINE
  5
3DE
100
AcDbEntity
  8
0
100
AcDbLine
 62
7
  6
CONTINUOUS
 10
7.0725661531
 20
4.0210050318
 11
7.0725661531
 21
4.0329586592
  0
LINE
  5
3DF
100
AcDbEntity
  8
0
100
AcDbLine
 62
7
  6
CONTINUOUS
 10
7.0725661531
 20
4.1703611385
 11
7.0725661531
 21
4.3128780573
  0
LINE
  5
3E0
100
AcDbEntity
  8
0
100
AcDbLine
 62
7
  6
CONTINUOUS
 10
7.0725661531
 20
4.4502771774
 11
7.0725661531
 21
4.4622285959
  0
LINE
  5
3E1
100
AcDbEntity
  8
03__ASM_ALL_CURVES
100
AcDbLine
 62
40
  6
CONTINUOUS
 10
7.0795048685
 20
3.4075604326
 11
7.0795048685
 21
3.3325229326
  0
LINE
  5
3E2
100
AcDbEntity
  8
0
100
AcDbLine
 62
7
  6
CONTINUOUS
 10
7.0795661531
 20
4.4634351768
 11
7.0795661531
 21
4.4482120278
  0
LINE
  5
3E3
100
AcDbEntity
  8
0
100
AcDbLine
 62
7
  6
CONTINUOUS
 10
7.0795661531
 20
4.019800621
 11
7.0795661531
 21
4.0350238351
  0
LINE
  5
3E4
100
AcDbEntity
  8
0
100
AcDbLine
 62
7
  6
CONTINUOUS
 10
7.0795661531
 20
4.1679107217
 11
7.0795661531
 21
4.3153231267
  0
LINE
  5
3E5
100
AcDbEntity
  8
0
100
AcDbLine
 62
7
  6
CONTINUOUS
 10
7.0895661531
 20
4.4647737713
 11
7.0895661531
 21
4.4459037904
  0
LINE
  5
3E6
100
AcDbEntity
  8
0
100
AcDbLine
 62
7
  6
CONTINUOUS
 10
7.0895661531
 20
4.018460635
 11
7.0895661531
 21
4.0373320567
  0
LINE
  5
3E7
100
AcDbEntity
  8
0
100
AcDbLine
 62
7
  6
CONTINUOUS
 10
7.0895661531
 20
4.1651856009
 11
7.0895661531
 21
4.3180536908
  0
LINE
  5
3E8
100
AcDbEntity
  8
03__ASM_ALL_CURVES
100
AcDbLine
 62
40
  6
CONTINUOUS
 10
7.0952961525
 20
5.2418119326
 11
7.0952961525
 21
5.1417619326
  0
LINE
  5
3E9
100
AcDbEntity
  8
0
100
AcDbLine
 62
7
  6
CONTINUOUS
 10
7.0965661531
 20
4.0180859856
 11
7.0965661531
 21
4.0380019932
  0
LINE
  5
3EA
100
AcDbEntity
  8
0
100
AcDbLine
 62
7
  6
CONTINUOUS
 10
7.0965661531
 20
4.1643993028
 11
7.0965661531
 21
4.3188329138
  0
LINE
  5
3EB
100
AcDbEntity
  8
0
100
AcDbLine
 62
7
  6
CONTINUOUS
 10
7.0965661531
 20
4.4452338629
 11
7.0965661531
 21
4.4651491502
  0
LINE
  5
3EC
100
AcDbEntity
  8
0
100
AcDbLine
 62
7
  6
CONTINUOUS
 10
7.1405661531
 20
4.0225011126
 11
7.1405661531
 21
4.030437104
  0
LINE
  5
3ED
100
AcDbEntity
  8
0
100
AcDbLine
 62
7
  6
CONTINUOUS
 10
7.1405661531
 20
4.1733224097
 11
7.1405661531
 21
4.3099167432
  0
LINE
  5
3EE
100
AcDbEntity
  8
0
100
AcDbLine
 62
7
  6
CONTINUOUS
 10
7.1405661531
 20
4.4527987396
 11
7.1405661531
 21
4.4607323337
  0
LINE
  5
3EF
100
AcDbEntity
  8
0
100
AcDbLine
 62
7
  6
CONTINUOUS
 10
7.1475661531
 20
4.4584492118
 11
7.1475661531
 21
4.456451892
  0
LINE
  5
3F0
100
AcDbEntity
  8
0
100
AcDbLine
 62
7
  6
CONTINUOUS
 10
7.1475661531
 20
4.0247869548
 11
7.1475661531
 21
4.0267839956
  0
LINE
  5
3F1
100
AcDbEntity
  8
0
100
AcDbLine
 62
7
  6
CONTINUOUS
 10
7.1475661531
 20
4.177734898
 11
7.1475661531
 21
4.3054966402
  0
LINE
  5
3F2
100
AcDbEntity
  8
03__ASM_ALL_CURVES
100
AcDbLine
 62
40
  6
CONTINUOUS
 10
7.2516242775
 20
5.1917869326
 11
7.2453711525
 21
5.1667744326
  0
LINE
  5
3F3
100
AcDbEntity
  8
03__ASM_ALL_CURVES
100
AcDbLine
 62
40
  6
CONTINUOUS
 10
6.8426677019
 20
3.4850991826
 11
6.8379778582
 21
3.4663398076
  0
LINE
  5
3F4
100
AcDbEntity
  8
03__ASM_ALL_CURVES
100
AcDbLine
 62
40
  6
CONTINUOUS
 10
6.7582505144
 20
3.4976054341
 11
6.7535606707
 21
3.4913523061
  0
LINE
  5
3F5
100
AcDbEntity
  8
03__ASM_ALL_CURVES
100
AcDbLine
 62
40
  6
CONTINUOUS
 10
6.6808681497
 20
3.3888010576
 11
6.6902478372
 21
3.4013073091
  0
LINE
  5
3F6
100
AcDbEntity
  8
03__ASM_ALL_CURVES
100
AcDbLine
 62
40
  6
CONTINUOUS
 10
6.7910794207
 20
3.5038585576
 11
6.8004591082
 21
3.5163648091
  0
LINE
  5
3F7
100
AcDbEntity
  8
03__ASM_ALL_CURVES
100
AcDbLine
 62
40
  6
CONTINUOUS
 10
6.7277665872
 20
3.3512823076
 11
6.7183868997
 21
3.3387760578
  0
LINE
  5
3F8
100
AcDbEntity
  8
03__ASM_ALL_CURVES
100
AcDbLine
 62
40
  6
CONTINUOUS
 10
6.8379778582
 20
3.4663398076
 11
6.8285981707
 21
3.4538335578
  0
LINE
  5
3F9
100
AcDbEntity
  8
03__ASM_ALL_CURVES
100
AcDbLine
 62
40
  6
CONTINUOUS
 10
6.7535606707
 20
3.4913523061
 11
6.7441809832
 21
3.4850991826
  0
LINE
  5
3FA
100
AcDbEntity
  8
03__ASM_ALL_CURVES
100
AcDbLine
 62
40
  6
CONTINUOUS
 10
6.8004591082
 20
3.5163648091
 11
6.8098387957
 21
3.5226179326
  0
LINE
  5
3FB
100
AcDbEntity
  8
03__ASM_ALL_CURVES
100
AcDbLine
 62
40
  6
CONTINUOUS
 10
6.6902478372
 20
3.4013073091
 11
6.6996275247
 21
3.4075604326
  0
LINE
  5
3FC
100
AcDbEntity
  8
03__ASM_ALL_CURVES
100
AcDbLine
 62
40
  6
CONTINUOUS
 10
6.8285981707
 20
3.4538335578
 11
6.8192184832
 21
3.4475804326
  0
LINE
  5
3FD
100
AcDbEntity
  8
03__ASM_ALL_CURVES
100
AcDbLine
 62
40
  6
CONTINUOUS
 10
6.9036356707
 20
3.4913523061
 11
6.8942559832
 21
3.4850991826
  0
LINE
  5
3FE
100
AcDbEntity
  8
03__ASM_ALL_CURVES
100
AcDbLine
 62
40
  6
CONTINUOUS
 10
6.7183868997
 20
3.3387760578
 11
6.7090072122
 21
3.3325229326
  0
LINE
  5
3FF
100
AcDbEntity
  8
03__ASM_ALL_CURVES
100
AcDbLine
 62
40
  6
CONTINUOUS
 10
7.0255716082
 20
3.5163648091
 11
7.0349512957
 21
3.5226179326
  0
LINE
  5
400
100
AcDbEntity
  8
03__ASM_ALL_CURVES
100
AcDbLine
 62
40
  6
CONTINUOUS
 10
6.7934243997
 20
3.3387760578
 11
6.7840447122
 21
3.3325229326
  0
LINE
  5
401
100
AcDbEntity
  8
03__ASM_ALL_CURVES
100
AcDbLine
 62
40
  6
CONTINUOUS
 10
7.8680528714
 20
4.3366654326
 11
7.8774325589
 21
4.3304123091
  0
LINE
  5
402
100
AcDbEntity
  8
03__ASM_ALL_CURVES
100
AcDbLine
 62
40
  6
CONTINUOUS
 10
6.5262617775
 20
5.2418119326
 11
6.5387680275
 21
5.2334744346
  0
LINE
  5
403
100
AcDbEntity
  8
03__ASM_ALL_CURVES
100
AcDbLine
 62
40
  6
CONTINUOUS
 10
6.7138555275
 20
5.1417619326
 11
6.7013492775
 21
5.1500994328
  0
LINE
  5
404
100
AcDbEntity
  8
03__ASM_ALL_CURVES
100
AcDbLine
 62
40
  6
CONTINUOUS
 10
7.9430903714
 20
4.3366654326
 11
7.9524700589
 21
4.3304123091
  0
LINE
  5
405
100
AcDbEntity
  8
03__ASM_ALL_CURVES
100
AcDbLine
 62
40
  6
CONTINUOUS
 10
6.7013492775
 20
5.2084619346
 11
6.7388680275
 21
5.1834494316
  0
LINE
  5
406
100
AcDbEntity
  8
03__ASM_ALL_CURVES
100
AcDbLine
 62
40
  6
CONTINUOUS
 10
6.7388680275
 20
5.2334744346
 11
6.7263617775
 21
5.2418119326
  0
LINE
  5
407
100
AcDbEntity
  8
03__ASM_ALL_CURVES
100
AcDbLine
 62
40
  6
CONTINUOUS
 10
6.9139555275
 20
5.1417619326
 11
6.9014492775
 21
5.1500994328
  0
LINE
  5
408
100
AcDbEntity
  8
0
100
AcDbLine
 62
7
  6
CONTINUOUS
 10
7.2545661531
 20
4.6746179326
 11
7.2510661531
 21
4.6781179326
  0
LINE
  5
409
100
AcDbEntity
  8
03__ASM_ALL_CURVES
100
AcDbLine
 62
40
  6
CONTINUOUS
 10
6.7013492775
 20
5.1500994328
 11
6.6888430275
 21
5.1667744326
  0
LINE
  5
40A
100
AcDbEntity
  8
03__ASM_ALL_CURVES
100
AcDbLine
 62
40
  6
CONTINUOUS
 10
6.6950961525
 20
5.2167994326
 11
6.7013492775
 21
5.2084619346
  0
LINE
  5
40B
100
AcDbEntity
  8
03__ASM_ALL_CURVES
100
AcDbLine
 62
40
  6
CONTINUOUS
 10
6.7388680275
 20
5.1834494316
 11
6.7451211525
 21
5.1751119336
  0
LINE
  5
40C
100
AcDbEntity
  8
03__ASM_ALL_CURVES
100
AcDbLine
 62
40
  6
CONTINUOUS
 10
6.7451211525
 20
5.2251369306
 11
6.7388680275
 21
5.2334744346
  0
LINE
  5
40D
100
AcDbEntity
  8
03__ASM_ALL_CURVES
100
AcDbLine
 62
40
  6
CONTINUOUS
 10
6.8889430275
 20
5.1667744326
 11
6.8826899025
 21
5.1917869326
  0
LINE
  5
40E
100
AcDbEntity
  8
03__ASM_ALL_CURVES
100
AcDbLine
 62
40
  6
CONTINUOUS
 10
6.9514742775
 20
5.2167994326
 11
6.9577274025
 21
5.1917869326
  0
LINE
  5
40F
100
AcDbEntity
  8
0
100
AcDbLine
 62
7
  6
CONTINUOUS
 10
7.1575661531
 20
4.1859765755
 11
7.1575661531
 21
4.2972606646
  0
LINE
  5
410
100
AcDbEntity
  8
0
100
AcDbLine
 62
7
  6
CONTINUOUS
 10
7.1645661531
 20
4.1930526097
 11
7.1645661531
 21
4.2901985062
  0
LINE
  5
411
100
AcDbEntity
  8
03__ASM_ALL_CURVES
100
AcDbLine
 62
40
  6
CONTINUOUS
 10
7.1953461525
 20
5.1417619326
 11
7.1953461525
 21
5.2418119326
  0
LINE
  5
412
100
AcDbEntity
  8
0
100
AcDbLine
 62
7
  6
CONTINUOUS
 10
7.1975661531
 20
3.8086179326
 11
7.1975661531
 21
4.6746179326
  0
LINE
  5
413
100
AcDbEntity
  8
0
100
AcDbLine
 62
7
  6
CONTINUOUS
 10
7.2010661531
 20
3.8051179326
 11
7.2010661531
 21
4.6781179326
  0
LINE
  5
414
100
AcDbEntity
  8
0
100
AcDbLine
 62
7
  6
CONTINUOUS
 10
7.2510661531
 20
3.8051179326
 11
7.2510661531
 21
4.6781179326
  0
LINE
  5
415
100
AcDbEntity
  8
0
100
AcDbLine
 62
7
  6
CONTINUOUS
 10
7.2545661531
 20
3.8056185955
 11
7.2545661531
 21
4.6776172697
  0
LINE
  5
416
100
AcDbEntity
  8
03__ASM_ALL_CURVES
100
AcDbLine
 62
40
  6
CONTINUOUS
 10
7.2953961525
 20
5.1417619326
 11
7.2953961525
 21
5.2418119326
  0
LINE
  5
417
100
AcDbEntity
  8
0
100
AcDbLine
 62
7
  6
CONTINUOUS
 10
7.3045661531
 20
3.8056185955
 11
7.3045661531
 21
4.6776172697
  0
LINE
  5
418
100
AcDbEntity
  8
03__ASM_ALL_CURVES
100
AcDbLine
 62
40
  6
CONTINUOUS
 10
7.0255716082
 20
3.4663398076
 11
7.0208817644
 21
3.4475804326
  0
LINE
  5
419
100
AcDbEntity
  8
03__ASM_ALL_CURVES
100
AcDbLine
 62
40
  6
CONTINUOUS
 10
6.9083255144
 20
3.4976054341
 11
6.9036356707
 21
3.4913523061
  0
LINE
  5
41A
100
AcDbEntity
  8
03__ASM_ALL_CURVES
100
AcDbLine
 62
40
  6
CONTINUOUS
 10
6.7981142435
 20
3.345029183
 11
6.7934243997
 21
3.3387760578
  0
LINE
  5
41B
100
AcDbEntity
  8
03__ASM_ALL_CURVES
100
AcDbLine
 62
40
  6
CONTINUOUS
 10
7.0208817644
 20
3.5101116811
 11
7.0255716082
 21
3.5163648091
  0
LINE
  5
41C
100
AcDbEntity
  8
03__ASM_ALL_CURVES
100
AcDbLine
 62
40
  6
CONTINUOUS
 10
7.0349512957
 20
3.4788460569
 11
7.0255716082
 21
3.4663398076
  0
LINE
  5
41D
100
AcDbEntity
  8
03__ASM_ALL_CURVES
100
AcDbLine
 62
40
  6
CONTINUOUS
 10
7.0584005144
 20
3.4976054341
 11
7.0537106707
 21
3.4913523061
  0
LINE
  5
41E
100
AcDbEntity
  8
0
100
AcDbLine
 62
7
  6
CONTINUOUS
 10
7.2545661531
 20
3.8086179326
 11
7.2510661531
 21
3.8051179326
  0
LINE
  5
41F
100
AcDbEntity
  8
03__ASM_ALL_CURVES
100
AcDbLine
 62
40
  6
CONTINUOUS
 10
7.0537106707
 20
3.4913523061
 11
7.0349512957
 21
3.4788460569
  0
LINE
  5
420
100
AcDbEntity
  8
03__ASM_ALL_CURVES
100
AcDbLine
 62
40
  6
CONTINUOUS
 10
7.0140055275
 20
5.1417619326
 11
7.0014992775
 21
5.1500994328
  0
LINE
  5
421
100
AcDbEntity
  8
03__ASM_ALL_CURVES
100
AcDbLine
 62
40
  6
CONTINUOUS
 10
6.9264617775
 20
5.2418119326
 11
6.9389680275
 21
5.2334744346
  0
LINE
  5
422
100
AcDbEntity
  8
0
100
AcDbLine
 62
7
  6
CONTINUOUS
 10
7.5115661531
 20
4.6621179326
 11
7.4955661531
 21
4.6781179326
  0
LINE
  5
423
100
AcDbEntity
  8
03__ASM_ALL_CURVES
100
AcDbLine
 62
40
  6
CONTINUOUS
 10
6.9014492775
 20
5.1500994328
 11
6.8889430275
 21
5.1667744326
  0
LINE
  5
424
100
AcDbEntity
  8
03__ASM_ALL_CURVES
100
AcDbLine
 62
40
  6
CONTINUOUS
 10
6.9389680275
 20
5.2334744346
 11
6.9514742775
 21
5.2167994326
  0
LINE
  5
425
100
AcDbEntity
  8
03__ASM_ALL_CURVES
100
AcDbLine
 62
40
  6
CONTINUOUS
 10
7.0014992775
 20
5.1500994328
 11
6.9952461525
 21
5.1584369331
  0
LINE
  5
426
100
AcDbEntity
  8
0
100
AcDbLine
 62
7
  6
CONTINUOUS
 10
7.3745661531
 20
3.8056185955
 11
7.3745661531
 21
4.6776172697
  0
LINE
  5
427
100
AcDbEntity
  8
03__ASM_ALL_CURVES
100
AcDbLine
 62
40
  6
CONTINUOUS
 10
7.3954461525
 20
5.1417619326
 11
7.3954461525
 21
5.2418119326
  0
LINE
  5
428
100
AcDbEntity
  8
0
100
AcDbLine
 62
7
  6
CONTINUOUS
 10
7.4245661531
 20
3.8056185955
 11
7.4245661531
 21
4.6776172697
  0
LINE
  5
429
100
AcDbEntity
  8
03__ASM_ALL_CURVES
100
AcDbLine
 62
40
  6
CONTINUOUS
 10
7.4454711525
 20
5.2251369306
 11
7.4454711525
 21
5.2084619346
  0
LINE
  5
42A
100
AcDbEntity
  8
0
100
AcDbLine
 62
7
  6
CONTINUOUS
 10
7.4525661531
 20
3.8051230472
 11
7.4525661531
 21
4.678112818
  0
LINE
  5
42B
100
AcDbEntity
  8
03__ASM_ALL_CURVES
100
AcDbLine
 62
40
  6
CONTINUOUS
 10
7.8070849027
 20
4.3116529341
 11
7.8023950589
 21
4.3053998061
  0
LINE
  5
42C
100
AcDbEntity
  8
03__ASM_ALL_CURVES
100
AcDbLine
 62
40
  6
CONTINUOUS
 10
7.8399138089
 20
4.3179060576
 11
7.8492934964
 21
4.3304123091
  0
LINE
  5
42D
100
AcDbEntity
  8
03__ASM_ALL_CURVES
100
AcDbLine
 62
40
  6
CONTINUOUS
 10
7.8868122464
 20
4.2803873076
 11
7.8774325589
 21
4.2678810578
  0
LINE
  5
42E
100
AcDbEntity
  8
0
100
AcDbLine
 62
7
  6
CONTINUOUS
 10
7.5115661531
 20
3.8211179326
 11
7.4955661531
 21
3.8051179326
  0
LINE
  5
42F
100
AcDbEntity
  8
03__ASM_ALL_CURVES
100
AcDbLine
 62
40
  6
CONTINUOUS
 10
7.2203586525
 20
5.2418119326
 11
7.2328649025
 21
5.2334744346
  0
LINE
  5
430
100
AcDbEntity
  8
03__ASM_ALL_CURVES
100
AcDbLine
 62
40
  6
CONTINUOUS
 10
7.8492934964
 20
4.2678810578
 11
7.8399138089
 21
4.2803873076
  0
LINE
  5
431
100
AcDbEntity
  8
03__ASM_ALL_CURVES
100
AcDbLine
 62
40
  6
CONTINUOUS
 10
7.8023950589
 20
4.3304123091
 11
7.8070849027
 21
4.3241591811
  0
LINE
  5
432
100
AcDbEntity
  8
03__ASM_ALL_CURVES
100
AcDbLine
 62
40
  6
CONTINUOUS
 10
7.2453711525
 20
5.2167994326
 11
7.2516242775
 21
5.1917869326
  0
LINE
  5
433
100
AcDbEntity
  8
0
100
AcDbLine
 62
7
  6
CONTINUOUS
 10
7.4955661531
 20
3.8051179326
 11
7.4955661531
 21
4.6781179326
  0
LINE
  5
434
100
AcDbEntity
  8
0
100
AcDbLine
 62
7
  6
CONTINUOUS
 10
7.5115661531
 20
3.8211179326
 11
7.5115661531
 21
4.6621179326
  0
LINE
  5
435
100
AcDbEntity
  8
03__ASM_ALL_CURVES
100
AcDbLine
 62
40
  6
CONTINUOUS
 10
7.9571599027
 20
4.3116529341
 11
7.9524700589
 21
4.3053998061
  0
LINE
  5
436
100
AcDbEntity
  8
03__ASM_ALL_CURVES
100
AcDbLine
 62
40
  6
CONTINUOUS
 10
7.4267117775
 20
5.2418119326
 11
7.4392180275
 21
5.2334744346
  0
LINE
  5
437
100
AcDbEntity
  8
03__ASM_ALL_CURVES
100
AcDbLine
 62
40
  6
CONTINUOUS
 10
7.8774325589
 20
4.3304123091
 11
7.8868122464
 21
4.3179060576
  0
LINE
  5
438
100
AcDbEntity
  8
03__ASM_ALL_CURVES
100
AcDbLine
 62
40
  6
CONTINUOUS
 10
7.2328649025
 20
5.2334744346
 11
7.2453711525
 21
5.2167994326
  0
LINE
  5
439
100
AcDbEntity
  8
03__ASM_ALL_CURVES
100
AcDbLine
 62
40
  6
CONTINUOUS
 10
7.9524700589
 20
4.3304123091
 11
7.9571599027
 21
4.3241591811
  0
LINE
  5
43A
100
AcDbEntity
  8
03__ASM_ALL_CURVES
100
AcDbLine
 62
40
  6
CONTINUOUS
 10
7.8258442773
 20
4.2216079326
 11
7.8633630273
 21
4.1465704326
  0
LINE
  5
43B
100
AcDbEntity
  8
03__ASM_ALL_CURVES
100
AcDbLine
 62
40
  6
CONTINUOUS
 10
7.4267117775
 20
5.1917869326
 11
7.4454711525
 21
5.1417619326
  0
LINE
  5
43C
100
AcDbEntity
  8
03__ASM_ALL_CURVES
100
AcDbLine
 62
40
  6
CONTINUOUS
 10
7.7695661523
 20
4.2216079326
 11
7.7695661523
 21
4.1465704326
  0
LINE
  5
43D
100
AcDbEntity
  8
03__ASM_ALL_CURVES
100
AcDbLine
 62
40
  6
CONTINUOUS
 10
7.7695661527
 20
4.2616279326
 11
7.7695661527
 21
4.3366654326
  0
LINE
  5
43E
100
AcDbEntity
  8
03__ASM_ALL_CURVES
100
AcDbLine
 62
40
  6
CONTINUOUS
 10
7.8070849027
 20
4.3241591811
 11
7.8070849027
 21
4.3116529341
  0
LINE
  5
43F
100
AcDbEntity
  8
03__ASM_ALL_CURVES
100
AcDbLine
 62
40
  6
CONTINUOUS
 10
7.8352239652
 20
4.2991466826
 11
7.8399138089
 21
4.3179060576
  0
LINE
  5
440
100
AcDbEntity
  8
03__ASM_ALL_CURVES
100
AcDbLine
 62
40
  6
CONTINUOUS
 10
7.4392180275
 20
5.2334744346
 11
7.4454711525
 21
5.2251369306
  0
LINE
  5
441
100
AcDbEntity
  8
03__ASM_ALL_CURVES
100
AcDbLine
 62
40
  6
CONTINUOUS
 10
7.8399138089
 20
4.2803873076
 11
7.8352239652
 21
4.2991466826
  0
LINE
  5
442
100
AcDbEntity
  8
03__ASM_ALL_CURVES
100
AcDbLine
 62
40
  6
CONTINUOUS
 10
7.8258442773
 20
4.1465704326
 11
7.8258442773
 21
4.2216079326
  0
LINE
  5
443
100
AcDbEntity
  8
03__ASM_ALL_CURVES
100
AcDbLine
 62
40
  6
CONTINUOUS
 10
7.8633630273
 20
4.1465704326
 11
7.8633630273
 21
4.2216079326
  0
LINE
  5
444
100
AcDbEntity
  8
03__ASM_ALL_CURVES
100
AcDbLine
 62
40
  6
CONTINUOUS
 10
7.9008817773
 20
4.2216079326
 11
7.9008817773
 21
4.1465704326
  0
LINE
  5
445
100
AcDbEntity
  8
03__ASM_ALL_CURVES
100
AcDbLine
 62
40
  6
CONTINUOUS
 10
7.9196411527
 20
4.2616279326
 11
7.9196411527
 21
4.3366654326
  0
LINE
  5
446
100
AcDbEntity
  8
03__ASM_ALL_CURVES
100
AcDbLine
 62
40
  6
CONTINUOUS
 10
7.9571599027
 20
4.3241591811
 11
7.9571599027
 21
4.3116529341
  0
LINE
  5
447
100
AcDbEntity
  8
03__ASM_ALL_CURVES
100
AcDbLine
 62
40
  6
CONTINUOUS
 10
7.8915020902
 20
4.2991466826
 11
7.8868122464
 21
4.2803873076
  0
LINE
  5
448
100
AcDbEntity
  8
03__ASM_ALL_CURVES
100
AcDbLine
 62
40
  6
CONTINUOUS
 10
7.9430903714
 20
4.2991466826
 11
7.9571599027
 21
4.2616279326
  0
LINE
  5
449
100
AcDbEntity
  8
03__ASM_ALL_CURVES
100
AcDbLine
 62
40
  6
CONTINUOUS
 10
7.8868122464
 20
4.3179060576
 11
7.8915020902
 21
4.2991466826
  0
LINE
  5
44A
100
AcDbEntity
  8
03__ASM_ALL_CURVES
100
AcDbLine
 62
40
  6
CONTINUOUS
 10
7.9759192773
 20
4.1465704326
 11
7.9759192773
 21
4.2216079326
  0
LINE
  5
44B
100
AcDbEntity
  8
03__ASM_ALL_CURVES
100
AcDbLine
 62
40
  6
CONTINUOUS
 10
8.0134380277
 20
4.3366654326
 11
8.0134380277
 21
4.2616279326
  0
LINE
  5
44C
100
AcDbEntity
  8
03__ASM_ALL_CURVES
100
AcDbLine
 62
40
  6
CONTINUOUS
 10
8.0697161523
 20
4.2216079326
 11
8.0697161523
 21
4.1465704326
  0
LINE
  5
44D
100
AcDbEntity
  8
03__ASM_ALL_CURVES
100
AcDbLine
 62
40
  6
CONTINUOUS
 10
8.0884755277
 20
4.3366654326
 11
8.0884755277
 21
4.2616279326
  0
ARC
  5
44E
100
AcDbEntity
  8
0
100
AcDbCircle
 62
7
  6
CONTINUOUS
 10
4.0715661531
 20
4.4186179326
 40
0.094
100
AcDbArc
 50
90.0
 51
131.267427381
  0
ARC
  5
44F
100
AcDbEntity
  8
0
100
AcDbCircle
 62
7
  6
CONTINUOUS
 10
4.0715661531
 20
4.0646179326
 40
0.094
100
AcDbArc
 50
228.732572619
 51
270.0
  0
CIRCLE
  5
450
100
AcDbEntity
  8
0
100
AcDbCircle
 62
7
  6
CONTINUOUS
 10
7.1035661531
 20
4.2416179326
 40
0.078
  0
ARC
  5
451
100
AcDbEntity
  8
0
100
AcDbCircle
 62
7
  6
CONTINUOUS
 10
3.7585661531
 20
4.0801179326
 40
0.0175
100
AcDbArc
 50
180.0
 51
360.0
  0
ARC
  5
452
100
AcDbEntity
  8
THREAD
100
AcDbCircle
 62
7
  6
CONTINUOUS
 10
5.8150605996
 20
3.7706179326
 40
0.013
100
AcDbArc
 50
29.9999999999
 51
90.0
  0
ARC
  5
453
100
AcDbEntity
  8
THREAD
100
AcDbCircle
 62
7
  6
CONTINUOUS
 10
5.8150605996
 20
4.7126179326
 40
0.013
100
AcDbArc
 50
270.0
 51
330.0000000001
  0
ARC
  5
454
100
AcDbEntity
  8
0
100
AcDbCircle
 62
7
  6
CONTINUOUS
 10
5.6395661531
 20
3.7112311812
 40
0.005
100
AcDbArc
 50
120.0000000138
 51
179.9999999997
  0
ARC
  5
455
100
AcDbEntity
  8
0
100
AcDbCircle
 62
7
  6
CONTINUOUS
 10
5.6395661531
 20
4.7720046839
 40
0.005
100
AcDbArc
 50
180.0000000004
 51
239.9999999822
  0
ARC
  5
456
100
AcDbEntity
  8
0
100
AcDbCircle
 62
7
  6
CONTINUOUS
 10
5.6584225596
 20
3.7221179326
 40
0.005
100
AcDbArc
 50
90.0
 51
120.0000000273
  0
ARC
  5
457
100
AcDbEntity
  8
0
100
AcDbCircle
 62
7
  6
CONTINUOUS
 10
5.6584225596
 20
4.7611179326
 40
0.005
100
AcDbArc
 50
239.9999999706
 51
270.0
  0
ARC
  5
458
100
AcDbEntity
  8
0
100
AcDbCircle
 62
7
  6
CONTINUOUS
 10
5.6315661531
 20
3.7066179326
 40
0.003
100
AcDbArc
 50
270.0
 51
360.0
  0
ARC
  5
459
100
AcDbEntity
  8
0
100
AcDbCircle
 62
7
  6
CONTINUOUS
 10
5.6315661531
 20
4.7766179326
 40
0.003
100
AcDbArc
 50
0.0
 51
90.0
  0
SPLINE
  5
45A
100
AcDbEntity
  8
0
100
AcDbSpline
 62
7
  6
CONTINUOUS
 70
0
 71
3
 72
20
 73
16
 74
14
 42
0.0000001
 43
0.0000001
 44
0.0000000001
 12
0.0
 22
0.0416605862
 32
0.0
 13
0.0
 23
-0.0416605862
 33
0.0
 40
0.0
 40
0.0
 40
0.0
 40
0.0
 40
0.0489307848
 40
0.1062135912
 40
0.175871992
 40
0.2580136346
 40
0.3503828832
 40
0.4493672053
 40
0.5506327947
 40
0.6496171168
 40
0.7419863654
 40
0.824128008
 40
0.8937864088
 40
0.9510692152
 40
1.0
 40
1.0
 40
1.0
 40
1.0
 10
3.7760661531
 20
4.3177415014
 30
0.0
 10
3.7760661531
 20
4.3184209965
 30
0.0
 10
3.7756446192
 20
4.3199070075
 30
0.0
 10
3.7740093514
 20
4.3217854348
 30
0.0
 10
3.7715574309
 20
4.3233844351
 30
0.0
 10
3.7683981985
 20
4.3246591862
 30
0.0
 10
3.7646951048
 20
4.325551174
 30
0.0
 10
3.7606481959
 20
4.3260104117
 30
0.0
 10
3.7564841103
 20
4.3260104117
 30
0.0
 10
3.7524372014
 20
4.325551174
 30
0.0
 10
3.7487341078
 20
4.3246591862
 30
0.0
 10
3.7455748753
 20
4.3233844351
 30
0.0
 10
3.7431229549
 20
4.3217854348
 30
0.0
 10
3.7414876871
 20
4.3199070075
 30
0.0
 10
3.7410661531
 20
4.3184209965
 30
0.0
 10
3.7410661531
 20
4.3177415014
 30
0.0
 11
3.7760661531
 21
4.3177415014
 31
0.0
 11
3.7755576349
 21
4.3197155407
 31
0.0
 11
3.7740616336
 21
4.321574856
 31
0.0
 11
3.7716650912
 21
4.3232113906
 31
0.0
 11
3.7685072862
 21
4.3245300352
 31
0.0
 11
3.7647717387
 21
4.3254541549
 31
0.0
 11
3.760675545
 21
4.3259300432
 31
0.0
 11
3.7564567612
 21
4.3259300432
 31
0.0
 11
3.7523605676
 21
4.3254541549
 31
0.0
 11
3.7486250201
 21
4.3245300352
 31
0.0
 11
3.745467215
 21
4.3232113906
 31
0.0
 11
3.7430706727
 21
4.321574856
 31
0.0
 11
3.7415746713
 21
4.3197155407
 31
0.0
 11
3.7410661531
 21
4.3177415014
 31
0.0
  0
SPLINE
  5
45B
100
AcDbEntity
  8
0
100
AcDbSpline
 62
7
  6
CONTINUOUS
 70
0
 71
3
 72
15
 73
11
 74
9
 42
0.0000001
 43
0.0000001
 44
0.0000000001
 12
0.0
 22
0.1099409465
 32
0.0
 13
0.0
 23
-0.1099409465
 33
0.0
 40
0.0
 40
0.0
 40
0.0
 40
0.0
 40
0.125
 40
0.25
 40
0.375
 40
0.5
 40
0.625
 40
0.75
 40
0.875
 40
1.0
 40
1.0
 40
1.0
 40
1.0
 10
7.3745661531
 20
4.6586179326
 30
0.0
 10
7.3745661531
 20
4.6631988054
 30
0.0
 10
7.3727437686
 20
4.6723605509
 30
0.0
 10
7.3649592007
 20
4.6840109802
 30
0.0
 10
7.3533087714
 20
4.6917955481
 30
0.0
 10
7.3395661531
 20
4.6945291248
 30
0.0
 10
7.3258235348
 20
4.6917955481
 30
0.0
 10
7.3141731056
 20
4.6840109802
 30
0.0
 10
7.3063885376
 20
4.6723605509
 30
0.0
 10
7.3045661531
 20
4.6631988054
 30
0.0
 10
7.3045661531
 20
4.6586179326
 30
0.0
 11
7.3745661531
 21
4.6586179326
 31
0.0
 11
7.3719019368
 21
4.6720118527
 31
0.0
 11
7.3643148905
 21
4.6833666699
 31
0.0
 11
7.3529600733
 21
4.6909537162
 31
0.0
 11
7.3395661531
 21
4.6936179326
 31
0.0
 11
7.326172233
 21
4.6909537162
 31
0.0
 11
7.3148174158
 21
4.6833666699
 31
0.0
 11
7.3072303695
 21
4.6720118527
 31
0.0
 11
7.3045661531
 21
4.6586179326
 31
0.0
  0
SPLINE
  5
45C
100
AcDbEntity
  8
0
100
AcDbSpline
 62
7
  6
CONTINUOUS
 70
0
 71
3
 72
15
 73
11
 74
9
 42
0.0000001
 43
0.0000001
 44
0.0000000001
 12
0.0
 22
-0.1099409465
 32
0.0
 13
0.0
 23
0.1099409465
 33
0.0
 40
0.0
 40
0.0
 40
0.0
 40
0.0
 40
0.125
 40
0.25
 40
0.375
 40
0.5
 40
0.625
 40
0.75
 40
0.875
 40
1.0
 40
1.0
 40
1.0
 40
1.0
 10
7.3745661531
 20
3.8246179326
 30
0.0
 10
7.3745661531
 20
3.8200370598
 30
0.0
 10
7.3727437686
 20
3.8108753143
 30
0.0
 10
7.3649592007
 20
3.799224885
 30
0.0
 10
7.3533087714
 20
3.7914403171
 30
0.0
 10
7.3395661531
 20
3.7887067403
 30
0.0
 10
7.3258235348
 20
3.7914403171
 30
0.0
 10
7.3141731056
 20
3.799224885
 30
0.0
 10
7.3063885376
 20
3.8108753143
 30
0.0
 10
7.3045661531
 20
3.8200370598
 30
0.0
 10
7.3045661531
 20
3.8246179326
 30
0.0
 11
7.3745661531
 21
3.8246179326
 31
0.0
 11
7.3719019368
 21
3.8112240125
 31
0.0
 11
7.3643148905
 21
3.7998691953
 31
0.0
 11
7.3529600733
 21
3.792282149
 31
0.0
 11
7.3395661531
 21
3.7896179326
 31
0.0
 11
7.326172233
 21
3.792282149
 31
0.0
 11
7.3148174158
 21
3.7998691953
 31
0.0
 11
7.3072303695
 21
3.8112240125
 31
0.0
 11
7.3045661531
 21
3.8246179326
 31
0.0
  0
SPLINE
  5
45D
100
AcDbEntity
  8
0
100
AcDbSpline
 62
7
  6
CONTINUOUS
 70
0
 71
3
 72
14
 73
10
 74
8
 42
0.0000001
 43
0.0000001
 44
0.0000000001
 12
0.0
 22
0.0916172274
 32
0.0
 13
-0.045846371
 23
-0.079336773
 33
0.0
 40
0.0
 40
0.0
 40
0.0
 40
0.0
 40
0.1500003733
 40
0.3000007465
 40
0.4500011198
 40
0.6000014931
 40
0.7500018663
 40
0.9000022396
 40
1.0
 40
1.0
 40
1.0
 40
1.0
 10
5.7515661531
 20
4.7346179326
 30
0.0
 10
5.7515661531
 20
4.7391988054
 30
0.0
 10
5.7497437686
 20
4.7483605509
 30
0.0
 10
5.7419592007
 20
4.7600109802
 30
0.0
 10
5.7303087714
 20
4.7677955481
 30
0.0
 10
5.7165661531
 20
4.7705291248
 30
0.0
 10
5.7028235348
 20
4.7677955481
 30
0.0
 10
5.6924676621
 20
4.7608759752
 30
0.0
 10
5.6877849808
 20
4.7547615433
 30
0.0
 10
5.6862568027
 20
4.7521170434
 30
0.0
 11
5.7515661531
 21
4.7346179326
 31
0.0
 11
5.7489019368
 21
4.7480118527
 31
0.0
 11
5.7413148905
 21
4.7593666699
 31
0.0
 11
5.7299600733
 21
4.7669537162
 31
0.0
 11
5.7165661531
 21
4.7696179326
 31
0.0
 11
5.703172233
 21
4.7669537162
 31
0.0
 11
5.6918174158
 21
4.7593666699
 31
0.0
 11
5.6862568027
 21
4.7521170434
 31
0.0
  0
SPLINE
  5
45E
100
AcDbEntity
  8
0
100
AcDbSpline
 62
7
  6
CONTINUOUS
 70
0
 71
3
 72
9
 73
5
 74
3
 42
0.0000001
 43
0.0000001
 44
0.0000000001
 12
-0.0091694111
 22
-0.0158675915
 32
0.0
 13
0.0
 23
-0.0183237191
 33
0.0
 40
0.0
 40
0.0
 40
0.0
 40
0.0
 40
0.2500093315
 40
1.0
 40
1.0
 40
1.0
 40
1.0
 10
5.6862568027
 20
4.7521170434
 30
0.0
 10
5.6854926566
 20
4.7507946948
 30
0.0
 10
5.6827810912
 20
4.7453067117
 30
0.0
 10
5.6815661531
 20
4.7391988054
 30
0.0
 10
5.6815661531
 20
4.7346179326
 30
0.0
 11
5.6862568027
 21
4.7521170434
 31
0.0
 11
5.6842303695
 21
4.7480118527
 31
0.0
 11
5.6815661531
 21
4.7346179326
 31
0.0
  0
SPLINE
  5
45F
100
AcDbEntity
  8
0
100
AcDbSpline
 62
7
  6
CONTINUOUS
 70
0
 71
3
 72
14
 73
10
 74
8
 42
0.0000001
 43
0.0000001
 44
0.0000000001
 12
0.0
 22
-0.0916172274
 32
0.0
 13
-0.045846371
 23
0.079336773
 33
0.0
 40
0.0
 40
0.0
 40
0.0
 40
0.0
 40
0.1500003733
 40
0.3000007465
 40
0.4500011198
 40
0.6000014931
 40
0.7500018663
 40
0.9000022396
 40
1.0
 40
1.0
 40
1.0
 40
1.0
 10
5.7515661531
 20
3.7486179326
 30
0.0
 10
5.7515661531
 20
3.7440370598
 30
0.0
 10
5.7497437686
 20
3.7348753143
 30
0.0
 10
5.7419592007
 20
3.723224885
 30
0.0
 10
5.7303087714
 20
3.7154403171
 30
0.0
 10
5.7165661531
 20
3.7127067403
 30
0.0
 10
5.7028235348
 20
3.7154403171
 30
0.0
 10
5.6924676621
 20
3.72235989
 30
0.0
 10
5.6877849808
 20
3.7284743219
 30
0.0
 10
5.6862568027
 20
3.7311188218
 30
0.0
 11
5.7515661531
 21
3.7486179326
 31
0.0
 11
5.7489019368
 21
3.7352240125
 31
0.0
 11
5.7413148905
 21
3.7238691953
 31
0.0
 11
5.7299600733
 21
3.716282149
 31
0.0
 11
5.7165661531
 21
3.7136179326
 31
0.0
 11
5.703172233
 21
3.716282149
 31
0.0
 11
5.6918174158
 21
3.7238691953
 31
0.0
 11
5.6862568027
 21
3.7311188218
 31
0.0
  0
SPLINE
  5
460
100
AcDbEntity
  8
0
100
AcDbSpline
 62
7
  6
CONTINUOUS
 70
0
 71
3
 72
9
 73
5
 74
3
 42
0.0000001
 43
0.0000001
 44
0.0000000001
 12
-0.0091694111
 22
0.0158675915
 32
0.0
 13
0.0
 23
0.0183237191
 33
0.0
 40
0.0
 40
0.0
 40
0.0
 40
0.0
 40
0.2500093315
 40
1.0
 40
1.0
 40
1.0
 40
1.0
 10
5.6862568027
 20
3.7311188218
 30
0.0
 10
5.6854926566
 20
3.7324411704
 30
0.0
 10
5.6827810912
 20
3.7379291535
 30
0.0
 10
5.6815661531
 20
3.7440370598
 30
0.0
 10
5.6815661531
 20
3.7486179326
 30
0.0
 11
5.6862568027
 21
3.7311188218
 31
0.0
 11
5.6842303695
 21
3.7352240125
 31
0.0
 11
5.6815661531
 21
3.7486179326
 31
0.0
  0
SPLINE
  5
461
100
AcDbEntity
  8
0
100
AcDbSpline
 62
7
  6
CONTINUOUS
 70
0
 71
3
 72
16
 73
12
 74
10
 42
0.0000001
 43
0.0000001
 44
0.0000000001
 12
0.0906480335
 22
0.2719441006
 32
0.0
 13
-0.0906480335
 23
0.2719441006
 33
0.0
 40
0.0
 40
0.0
 40
0.0
 40
0.0
 40
0.1184548733
 40
0.230565332
 40
0.3393089466
 40
0.4465959239
 40
0.5535015371
 40
0.6607803311
 40
0.769505023
 40
0.8815660643
 40
1.0
 40
1.0
 40
1.0
 40
1.0
 10
4.2596947427
 20
3.9606179326
 30
0.0
 10
4.2632739765
 20
3.9713556339
 30
0.0
 10
4.2697050632
 20
3.9924416808
 30
0.0
 10
4.2772244928
 20
4.0240027356
 30
0.0
 10
4.2823127203
 20
4.0549715537
 30
0.0
 10
4.2848995825
 20
4.0857546233
 30
0.0
 10
4.2848983942
 20
4.1165084243
 30
0.0
 10
4.2823095536
 20
4.1472887157
 30
0.0
 10
4.2772208188
 20
4.1782500175
 30
0.0
 10
4.2697025621
 20
4.2098025491
 30
0.0
 10
4.2632733439
 20
4.2308821292
 30
0.0
 10
4.2596947427
 20
4.2416179326
 30
0.0
 11
4.2596947427
 21
3.9606179326
 31
0.0
 11
4.2695332123
 21
3.9931169605
 31
0.0
 11
4.2769203828
 21
4.0243933509
 31
0.0
 11
4.2819250002
 21
4.0551608034
 31
0.0
 11
4.2844719655
 21
4.0858094246
 31
0.0
 11
4.2844707954
 21
4.1164543731
 31
0.0
 11
4.2819218553
 21
4.1471004762
 31
0.0
 11
4.2769164162
 21
4.1778622994
 31
0.0
 11
4.2695316448
 21
4.209124701
 31
0.0
 11
4.2596947427
 21
4.2416179326
 31
0.0
  0
SPLINE
  5
462
100
AcDbEntity
  8
0
100
AcDbSpline
 62
7
  6
CONTINUOUS
 70
0
 71
3
 72
17
 73
13
 74
11
 42
0.0000001
 43
0.0000001
 44
0.0000000001
 12
-0.1487434696
 22
0.2576312467
 32
0.0
 13
0.1487434696
 23
0.2576312467
 33
0.0
 40
0.0
 40
0.0
 40
0.0
 40
0.0
 40
0.1169386465
 40
0.2216811606
 40
0.3184580982
 40
0.4103908543
 40
0.5000417254
 40
0.5896883004
 40
0.6816074548
 40
0.7783545182
 40
0.8830694657
 40
1.0
 40
1.0
 40
1.0
 40
1.0
 10
4.1580370044
 20
3.9606179326
 30
0.0
 10
4.1522390511
 20
3.9706602824
 30
0.0
 10
4.1418992235
 20
3.9900901298
 30
0.0
 10
4.1295256
 20
4.0191922074
 30
0.0
 10
4.1208721533
 20
4.0470337701
 30
0.0
 10
4.1157150487
 20
4.0742170897
 30
0.0
 10
4.1139981684
 20
4.1011299746
 30
0.0
 10
4.115718054
 20
4.1280412994
 30
0.0
 10
4.1208768056
 20
4.15521944
 30
0.0
 10
4.1295296575
 20
4.183053746
 30
0.0
 10
4.1419012449
 20
4.2121495857
 30
0.0
 10
4.1522394533
 20
4.2315762795
 30
0.0
 10
4.1580370044
 20
4.2416179326
 30
0.0
 11
4.1580370044
 21
3.9606179326
 31
0.0
 11
4.141810773
 21
3.9913895896
 31
0.0
 11
4.1297260165
 21
4.0201102262
 31
0.0
 11
4.1212733432
 21
4.0476312948
 31
0.0
 11
4.1162404578
 21
4.07451301
 31
0.0
 11
4.1145661535
 21
4.1011303661
 31
0.0
 11
4.1162433958
 21
4.1277462566
 31
0.0
 11
4.1212780425
 21
4.1546235253
 31
0.0
 11
4.1297296575
 21
4.1821356219
 31
0.0
 11
4.1418118087
 21
4.2108484576
 31
0.0
 11
4.1580370044
 21
4.2416179326
 31
0.0
  0
SPLINE
  5
463
100
AcDbEntity
  8
0
100
AcDbSpline
 62
7
  6
CONTINUOUS
 70
0
 71
3
 72
16
 73
12
 74
10
 42
0.0000001
 43
0.0000001
 44
0.0000000001
 12
0.0906480335
 22
0.2719441006
 32
0.0
 13
-0.0906480335
 23
0.2719441006
 33
0.0
 40
0.0
 40
0.0
 40
0.0
 40
0.0
 40
0.1184548733
 40
0.230565332
 40
0.3393089466
 40
0.4465959239
 40
0.5535015371
 40
0.6607803311
 40
0.769505023
 40
0.8815660643
 40
1.0
 40
1.0
 40
1.0
 40
1.0
 10
4.2596947427
 20
4.2416179326
 30
0.0
 10
4.2632739765
 20
4.2523556339
 30
0.0
 10
4.2697050632
 20
4.2734416808
 30
0.0
 10
4.2772244928
 20
4.3050027356
 30
0.0
 10
4.2823127203
 20
4.3359715537
 30
0.0
 10
4.2848995825
 20
4.3667546233
 30
0.0
 10
4.2848983942
 20
4.3975084243
 30
0.0
 10
4.2823095536
 20
4.4282887157
 30
0.0
 10
4.2772208188
 20
4.4592500175
 30
0.0
 10
4.2697025621
 20
4.4908025491
 30
0.0
 10
4.2632733439
 20
4.5118821292
 30
0.0
 10
4.2596947427
 20
4.5226179326
 30
0.0
 11
4.2596947427
 21
4.2416179326
 31
0.0
 11
4.2695332123
 21
4.2741169605
 31
0.0
 11
4.2769203828
 21
4.3053933509
 31
0.0
 11
4.2819250002
 21
4.3361608034
 31
0.0
 11
4.2844719655
 21
4.3668094246
 31
0.0
 11
4.2844707954
 21
4.3974543731
 31
0.0
 11
4.2819218553
 21
4.4281004762
 31
0.0
 11
4.2769164162
 21
4.4588622994
 31
0.0
 11
4.2695316448
 21
4.490124701
 31
0.0
 11
4.2596947427
 21
4.5226179326
 31
0.0
  0
SPLINE
  5
464
100
AcDbEntity
  8
0
100
AcDbSpline
 62
7
  6
CONTINUOUS
 70
0
 71
3
 72
17
 73
13
 74
11
 42
0.0000001
 43
0.0000001
 44
0.0000000001
 12
-0.1487434696
 22
0.2576312467
 32
0.0
 13
0.1487434696
 23
0.2576312467
 33
0.0
 40
0.0
 40
0.0
 40
0.0
 40
0.0
 40
0.1169386465
 40
0.2216811606
 40
0.3184580982
 40
0.4103908543
 40
0.5000417254
 40
0.5896883004
 40
0.6816074548
 40
0.7783545182
 40
0.8830694657
 40
1.0
 40
1.0
 40
1.0
 40
1.0
 10
4.1580370044
 20
4.2416179326
 30
0.0
 10
4.1522390511
 20
4.2516602824
 30
0.0
 10
4.1418992235
 20
4.2710901298
 30
0.0
 10
4.1295256
 20
4.3001922074
 30
0.0
 10
4.1208721533
 20
4.3280337701
 30
0.0
 10
4.1157150487
 20
4.3552170897
 30
0.0
 10
4.1139981684
 20
4.3821299746
 30
0.0
 10
4.115718054
 20
4.4090412994
 30
0.0
 10
4.1208768056
 20
4.43621944
 30
0.0
 10
4.1295296575
 20
4.464053746
 30
0.0
 10
4.1419012449
 20
4.4931495857
 30
0.0
 10
4.1522394533
 20
4.5125762795
 30
0.0
 10
4.1580370044
 20
4.5226179326
 30
0.0
 11
4.1580370044
 21
4.2416179326
 31
0.0
 11
4.141810773
 21
4.2723895896
 31
0.0
 11
4.1297260165
 21
4.3011102262
 31
0.0
 11
4.1212733432
 21
4.3286312948
 31
0.0
 11
4.1162404578
 21
4.35551301
 31
0.0
 11
4.1145661535
 21
4.3821303661
 31
0.0
 11
4.1162433958
 21
4.4087462566
 31
0.0
 11
4.1212780425
 21
4.4356235253
 31
0.0
 11
4.1297296575
 21
4.4631356219
 31
0.0
 11
4.1418118087
 21
4.4918484576
 31
0.0
 11
4.1580370044
 21
4.5226179326
 31
0.0
  0
SPLINE
  5
465
100
AcDbEntity
  8
0
100
AcDbSpline
 62
7
  6
CONTINUOUS
 70
0
 71
3
 72
14
 73
10
 74
8
 42
0.0000001
 43
0.0000001
 44
0.0000000001
 12
-0.1085585049
 22
0.0
 32
0.0
 13
0.0000651248
 23
-0.1089732724
 33
0.0
 40
0.0
 40
0.0
 40
0.0
 40
0.0
 40
0.159359142
 40
0.317507839
 40
0.4721472363
 40
0.6199330871
 40
0.7576326087
 40
0.883798381
 40
1.0
 40
1.0
 40
1.0
 40
1.0
 10
7.1035661531
 20
4.0386719298
 30
0.0
 10
7.0977995564
 20
4.0386719298
 30
0.0
 10
7.086279935
 20
4.0375728537
 30
0.0
 10
7.0697934131
 20
4.0327219983
 30
0.0
 10
7.0549060265
 20
4.0249934049
 30
0.0
 10
7.0424119562
 20
4.0149382584
 30
0.0
 10
7.0329611235
 20
4.0032632065
 30
0.0
 10
7.0270153405
 20
3.9906946154
 30
0.0
 10
7.0255636307
 20
3.9819112854
 30
0.0
 10
7.0255661533
 20
3.9776903285
 30
0.0
 11
7.1035661531
 21
4.0386719298
 31
0.0
 11
7.0863450514
 21
4.0370237804
 31
0.0
 11
7.0698783449
 21
4.0321656882
 31
0.0
 11
7.0549957217
 21
4.0243987676
 31
0.0
 11
7.042540984
 21
4.0142858775
 31
0.0
 11
7.0332219284
 21
4.0025977859
 31
0.0
 11
7.0274935222
 21
3.9901568918
 31
0.0
 11
7.0255661533
 21
3.9776903285
 31
0.0
  0
SPLINE
  5
466
100
AcDbEntity
  8
0
100
AcDbSpline
 62
7
  6
CONTINUOUS
 70
0
 71
3
 72
14
 73
10
 74
8
 42
0.0000001
 43
0.0000001
 44
0.0000000001
 12
0.108558505
 22
0.0
 32
0.0
 13
-0.0000651253
 23
0.1089732724
 33
0.0
 40
0.0
 40
0.0
 40
0.0
 40
0.0
 40
0.1593588669
 40
0.3175078782
 40
0.4721477421
 40
0.6199335938
 40
0.7576329684
 40
0.8837985378
 40
1.0
 40
1.0
 40
1.0
 40
1.0
 10
7.1035661531
 20
4.4445639354
 30
0.0
 10
7.1093327399
 20
4.4445639354
 30
0.0
 10
7.1208523626
 20
4.4456630097
 30
0.0
 10
7.1373389033
 20
4.450513868
 30
0.0
 10
7.1522263132
 20
4.4582424799
 30
0.0
 10
7.1647203856
 20
4.4682976425
 30
0.0
 10
7.174171202
 20
4.4799726912
 30
0.0
 10
7.1801169699
 20
4.4925412686
 30
0.0
 10
7.1815686755
 20
4.5013245855
 30
0.0
 10
7.181566153
 20
4.5055455367
 30
0.0
 11
7.1035661531
 21
4.4445639354
 31
0.0
 11
7.1207872254
 21
4.4462120791
 31
0.0
 11
7.1372539653
 21
4.4510701786
 31
0.0
 11
7.1521366307
 21
4.4588371279
 31
0.0
 11
7.1645913613
 21
4.4689500269
 31
0.0
 11
7.1739103986
 21
4.4806381127
 31
0.0
 11
7.1796387891
 21
4.4930789899
 31
0.0
 11
7.181566153
 21
4.5055455367
 31
0.0
  0
SPLINE
  5
467
100
AcDbEntity
  8
0
100
AcDbSpline
 62
7
  6
CONTINUOUS
 70
0
 71
3
 72
14
 73
10
 74
8
 42
0.0000001
 43
0.0000001
 44
0.0000000001
 12
0.0000651202
 22
0.1089732708
 32
0.0
 13
-0.1085585041
 23
-0.0
 33
0.0
 40
0.0
 40
0.0
 40
0.0
 40
0.0
 40
0.1162030599
 40
0.2423706127
 40
0.3800705234
 40
0.5278564413
 40
0.6824956758
 40
0.8406426945
 40
1.0
 40
1.0
 40
1.0
 40
1.0
 10
7.181566153
 20
3.9776903284
 30
0.0
 10
7.1815686754
 20
3.9819113376
 30
0.0
 10
7.1801169281
 20
3.9906947849
 30
0.0
 10
7.1741710248
 20
4.0032634683
 30
0.0
 10
7.1647200762
 20
4.0149385301
 30
0.0
 10
7.1522259472
 20
4.0249936197
 30
0.0
 10
7.1373385834
 20
4.0327221152
 30
0.0
 10
7.1208521765
 20
4.0375728786
 30
0.0
 10
7.1093326834
 20
4.0386719298
 30
0.0
 10
7.1035661531
 20
4.0386719298
 30
0.0
 11
7.181566153
 21
3.9776903284
 31
0.0
 11
7.1796387378
 21
3.9901570428
 31
0.0
 11
7.1739101919
 21
4.0025980853
 31
0.0
 11
7.1645910439
 21
4.0142861572
 31
0.0
 11
7.1521362488
 21
4.0243989879
 31
0.0
 11
7.1372536056
 21
4.0321658318
 31
0.0
 11
7.1207870581
 21
4.0370238184
 31
0.0
 11
7.1035661531
 21
4.0386719298
 31
0.0
  0
SPLINE
  5
468
100
AcDbEntity
  8
0
100
AcDbSpline
 62
7
  6
CONTINUOUS
 70
0
 71
3
 72
9
 73
5
 74
3
 42
0.0000001
 43
0.0000001
 44
0.0000000001
 12
0.0149686324
 22
-0.0058233796
 32
0.0
 13
0.0156932491
 23
-0.0033854253
 33
0.0
 40
0.0
 40
0.0
 40
0.0
 40
0.0
 40
0.8121660383
 40
1.0
 40
1.0
 40
1.0
 40
1.0
 10
7.0571427982
 20
4.0253800585
 30
0.0
 10
7.0611951365
 20
4.0238035414
 30
0.0
 10
7.0663312737
 20
4.0222493041
 30
0.0
 10
7.0715487842
 20
4.0210557096
 30
0.0
 10
7.0725313593
 20
4.0208437437
 30
0.0
 11
7.0571427982
 21
4.0253800585
 31
0.0
 11
7.0695916038
 21
4.0215168288
 31
0.0
 11
7.0725313593
 21
4.0208437437
 31
0.0
  0
SPLINE
  5
469
100
AcDbEntity
  8
0
100
AcDbSpline
 62
7
  6
CONTINUOUS
 70
0
 71
3
 72
9
 73
5
 74
3
 42
0.0000001
 43
0.0000001
 44
0.0000000001
 12
0.0236936864
 22
-0.0051113192
 32
0.0
 13
0.0242116056
 23
-0.001040814
 33
0.0
 40
0.0
 40
0.0
 40
0.0
 40
0.0
 40
0.5778424097
 40
1.0
 40
1.0
 40
1.0
 40
1.0
 10
7.0725313593
 20
4.0208437437
 30
0.0
 10
7.0770950982
 20
4.0198592314
 30
0.0
 10
7.0850881711
 20
4.0186121096
 30
0.0
 10
7.0931494446
 20
4.0180074828
 30
0.0
 10
7.0965564823
 20
4.0178610203
 30
0.0
 11
7.0725313593
 21
4.0208437437
 31
0.0
 11
7.0863553435
 21
4.0186324819
 31
0.0
 11
7.0965564823
 21
4.0178610203
 31
0.0
  0
SPLINE
  5
46A
100
AcDbEntity
  8
0
100
AcDbSpline
 62
7
  6
CONTINUOUS
 70
0
 71
3
 72
8
 73
4
 74
2
 42
0.0000001
 43
0.0000001
 44
0.0000000001
 12
0.0070068147
 22
-0.0003012105
 32
0.0
 13
0.007009871
 23
0.0
 33
0.0
 40
0.0
 40
0.0
 40
0.0
 40
0.0
 40
1.0
 40
1.0
 40
1.0
 40
1.0
 10
7.0965564823
 20
4.0178610203
 30
0.0
 10
7.0988920872
 20
4.0177606168
 30
0.0
 10
7.1012295295
 20
4.0177113361
 30
0.0
 10
7.1035661531
 20
4.0177113361
 30
0.0
 11
7.0965564823
 21
4.0178610203
 31
0.0
 11
7.1035661531
 21
4.0177113361
 31
0.0
  0
SPLINE
  5
46B
100
AcDbEntity
  8
0
100
AcDbSpline
 62
7
  6
CONTINUOUS
 70
0
 71
3
 72
8
 73
4
 74
2
 42
0.0000001
 43
0.0000001
 44
0.0000000001
 12
-0.0070098983
 22
0.0
 32
0.0
 13
-0.0070068501
 23
-0.0003012072
 33
0.0
 40
0.0
 40
0.0
 40
0.0
 40
0.0
 40
1.0
 40
1.0
 40
1.0
 40
1.0
 10
7.1035661531
 20
4.4655245291
 30
0.0
 10
7.1012295204
 20
4.4655245291
 30
0.0
 10
7.0988920676
 20
4.4654752509
 30
0.0
 10
7.0965564509
 20
4.4653748485
 30
0.0
 11
7.1035661531
 21
4.4655245291
 31
0.0
 11
7.0965564509
 21
4.4653748485
 31
0.0
  0
SPLINE
  5
46C
100
AcDbEntity
  8
0
100
AcDbSpline
 62
7
  6
CONTINUOUS
 70
0
 71
3
 72
9
 73
5
 74
3
 42
0.0000001
 43
0.0000001
 44
0.0000000001
 12
-0.0242120142
 22
-0.0010408148
 32
0.0
 13
-0.0236939578
 23
-0.0051115393
 33
0.0
 40
0.0
 40
0.0
 40
0.0
 40
0.0
 40
0.423487665
 40
1.0
 40
1.0
 40
1.0
 40
1.0
 10
7.0965564509
 20
4.4653748485
 30
0.0
 10
7.0931386211
 20
4.4652279244
 30
0.0
 10
7.085077234
 20
4.4646224725
 30
0.0
 10
7.0770841798
 20
4.4633743263
 30
0.0
 10
7.0725308935
 20
4.4623920378
 30
0.0
 11
7.0965564509
 21
4.4653748485
 31
0.0
 11
7.0863230801
 21
4.4645998596
 31
0.0
 11
7.0725308935
 21
4.4623920378
 31
0.0
  0
SPLINE
  5
46D
100
AcDbEntity
  8
0
100
AcDbSpline
 62
7
  6
CONTINUOUS
 70
0
 71
3
 72
9
 73
5
 74
3
 42
0.0000001
 43
0.0000001
 44
0.0000000001
 12
-0.0156914974
 22
-0.0033851544
 32
0.0
 13
-0.0149670962
 23
-0.0058224937
 33
0.0
 40
0.0
 40
0.0
 40
0.0
 40
0.0
 40
0.1907042621
 40
1.0
 40
1.0
 40
1.0
 40
1.0
 10
7.0725308935
 20
4.4623920378
 30
0.0
 10
7.071533415
 20
4.46217685
 30
0.0
 10
7.0663167083
 20
4.4609823526
 30
0.0
 10
7.0611816036
 20
4.4594269832
 30
0.0
 10
7.0571440012
 20
4.4578562767
 30
0.0
 11
7.0725308935
 21
4.4623920378
 31
0.0
 11
7.0695466863
 21
4.4617081343
 31
0.0
 11
7.0571440012
 21
4.4578562767
 31
0.0
  0
SPLINE
  5
46E
100
AcDbEntity
  8
0
100
AcDbSpline
 62
7
  6
CONTINUOUS
 70
0
 71
3
 72
10
 73
6
 74
4
 42
0.0000001
 43
0.0000001
 44
0.0000000001
 12
0.0374202362
 22
0.0
 32
0.0
 13
0.0361429357
 23
0.0098638749
 33
0.0
 40
0.0
 40
0.0
 40
0.0
 40
0.0
 40
0.4614515527
 40
0.9163627913
 40
1.0
 40
1.0
 40
1.0
 40
1.0
 10
7.1035661531
 20
4.0177113361
 30
0.0
 10
7.1093220285
 20
4.0177113361
 30
0.0
 10
7.1207620805
 20
4.0183051331
 30
0.0
 10
7.1330968346
 20
4.020358672
 30
0.0
 10
7.1396109177
 20
4.0220341291
 30
0.0
 10
7.1406185491
 20
4.0223091247
 30
0.0
 11
7.1035661531
 21
4.0177113361
 31
0.0
 11
7.120809005
 21
4.0186359814
 31
0.0
 11
7.1375845222
 21
4.0215274643
 31
0.0
 11
7.1406185491
 21
4.0223091247
 31
0.0
  0
SPLINE
  5
46F
100
AcDbEntity
  8
0
100
AcDbSpline
 62
7
  6
CONTINUOUS
 70
0
 71
3
 72
8
 73
4
 74
2
 42
0.0000001
 43
0.0000001
 44
0.0000000001
 12
0.0095175593
 22
0.0025974651
 32
0.0
 13
0.0091938915
 23
0.0035766201
 33
0.0
 40
0.0
 40
0.0
 40
0.0
 40
0.0
 40
1.0
 40
1.0
 40
1.0
 40
1.0
 10
7.1406185491
 20
4.0223091247
 30
0.0
 10
7.1437910689
 20
4.0231749464
 30
0.0
 10
7.1469238043
 20
4.024187433
 30
0.0
 10
7.1499884347
 20
4.0253796397
 30
0.0
 11
7.1406185491
 21
4.0223091247
 31
0.0
 11
7.1499884347
 21
4.0253796397
 31
0.0
  0
SPLINE
  5
470
100
AcDbEntity
  8
0
100
AcDbSpline
 62
7
  6
CONTINUOUS
 70
0
 71
3
 72
8
 73
4
 74
2
 42
0.0000001
 43
0.0000001
 44
0.0000000001
 12
-0.0091942063
 22
0.0035768884
 32
0.0
 13
-0.0095179432
 23
0.0025976065
 33
0.0
 40
0.0
 40
0.0
 40
0.0
 40
0.0
 40
1.0
 40
1.0
 40
1.0
 40
1.0
 10
7.1499893867
 20
4.4578558547
 30
0.0
 10
7.1469246512
 20
4.4590481508
 30
0.0
 10
7.1437918171
 20
4.4600607226
 30
0.0
 10
7.1406191693
 20
4.4609265914
 30
0.0
 11
7.1499893867
 21
4.4578558547
 31
0.0
 11
7.1406191693
 21
4.4609265914
 31
0.0
  0
SPLINE
  5
471
100
AcDbEntity
  8
0
100
AcDbSpline
 62
7
  6
CONTINUOUS
 70
0
 71
3
 72
10
 73
6
 74
4
 42
0.0000001
 43
0.0000001
 44
0.0000000001
 12
-0.0361436726
 22
0.0098642149
 32
0.0
 13
-0.0374209014
 23
0.0
 33
0.0
 40
0.0
 40
0.0
 40
0.0
 40
0.0
 40
0.0848300903
 40
0.5394133845
 40
1.0
 40
1.0
 40
1.0
 40
1.0
 10
7.1406191693
 20
4.4609265914
 30
0.0
 10
7.1395971456
 20
4.4612055188
 30
0.0
 10
7.1330720808
 20
4.4628823457
 30
0.0
 10
7.1207366696
 20
4.4649325612
 30
0.0
 10
7.1093113419
 20
4.4655245291
 30
0.0
 10
7.1035661531
 20
4.4655245291
 30
0.0
 11
7.1406191693
 21
4.4609265914
 31
0.0
 11
7.1375416493
 21
4.4617188067
 31
0.0
 11
7.1207770861
 21
4.4646033698
 31
0.0
 11
7.1035661531
 21
4.4655245291
 31
0.0
  0
SPLINE
  5
472
100
AcDbEntity
  8
0
100
AcDbSpline
 62
7
  6
CONTINUOUS
 70
0
 71
3
 72
14
 73
10
 74
8
 42
0.0000001
 43
0.0000001
 44
0.0000000001
 12
-0.0000651207
 22
-0.1089732708
 32
0.0
 13
0.1085585042
 23
-0.0
 33
0.0
 40
0.0
 40
0.0
 40
0.0
 40
0.0
 40
0.1162029169
 40
0.2423702858
 40
0.3800700695
 40
0.527855965
 40
0.6824956844
 40
0.8406429845
 40
1.0
 40
1.0
 40
1.0
 40
1.0
 10
7.0255661533
 20
4.5055455367
 30
0.0
 10
7.0255636309
 20
4.5013245327
 30
0.0
 10
7.0270153744
 20
4.4925410974
 30
0.0
 10
7.0329612641
 20
4.4799724263
 30
0.0
 10
7.0424121975
 20
4.4682973679
 30
0.0
 10
7.0549063295
 20
4.4582422625
 30
0.0
 10
7.0697937159
 20
4.4505137498
 30
0.0
 10
7.0862801407
 20
4.4456629845
 30
0.0
 10
7.0977996334
 20
4.4445639354
 30
0.0
 10
7.1035661531
 20
4.4445639354
 30
0.0
 11
7.0255661533
 21
4.5055455367
 31
0.0
 11
7.0274935639
 21
4.4930788374
 31
0.0
 11
7.0332220955
 21
4.4806378102
 31
0.0
 11
7.0425412273
 21
4.4689497431
 31
0.0
 11
7.054996014
 21
4.4588369059
 31
0.0
 11
7.0698787015
 21
4.451070033
 31
0.0
 11
7.0863452792
 21
4.4462120407
 31
0.0
 11
7.1035661531
 21
4.4445639354
 31
0.0
  0
SPLINE
  5
473
100
AcDbEntity
  8
0
100
AcDbSpline
 62
7
  6
CONTINUOUS
 70
0
 71
3
 72
21
 73
17
 74
15
 42
0.0000001
 43
0.0000001
 44
0.0000000001
 12
-0.1538158118
 22
-0.0321437389
 32
0.0
 13
-0.1538158096
 23
0.0321437389
 33
0.0
 40
0.0
 40
0.0
 40
0.0
 40
0.0
 40
0.0125511272
 40
0.0504971434
 40
0.1108962933
 40
0.1887963194
 40
0.2838005794
 40
0.3903211202
 40
0.5000518337
 40
0.6096963077
 40
0.7161243207
 40
0.8112014231
 40
0.8891374438
 40
0.9494502938
 40
0.9874236965
 40
1.0
 40
1.0
 40
1.0
 40
1.0
 10
7.1815661531
 20
4.6148679326
 30
0.0
 10
7.1809226325
 20
4.6147334525
 30
0.0
 10
7.1783322578
 20
4.6141985322
 30
0.0
 10
7.1726323757
 20
4.6130783887
 30
0.0
 10
7.1635409133
 20
4.611470698
 30
0.0
 10
7.1514514247
 20
4.609673595
 30
0.0
 10
7.1369035875
 20
4.6080338854
 30
0.0
 10
7.1206343961
 20
4.6068944889
 30
0.0
 10
7.1035625193
 20
4.6064910665
 30
0.0
 10
7.0864955113
 20
4.6068948186
 30
0.0
 10
7.0702318531
 20
4.6080336238
 30
0.0
 10
7.0556831337
 20
4.6096731991
 30
0.0
 10
7.0435924869
 20
4.6114705542
 30
0.0
 10
7.0345022034
 20
4.6130779999
 30
0.0
 10
7.0288040383
 20
4.614197718
 30
0.0
 10
7.0262109646
 20
4.6147331828
 30
0.0
 10
7.0255661531
 20
4.6148679326
 30
0.0
 11
7.1815661531
 21
4.6148679326
 31
0.0
 11
7.1796346362
 21
4.614469078
 31
0.0
 11
7.1737837076
 21
4.6133195165
 31
0.0
 11
7.1644374942
 21
4.6116677707
 31
0.0
 11
7.1523291535
 21
4.6098697387
 31
0.0
 11
7.1374939366
 21
4.608200334
 31
0.0
 11
7.1207961613
 21
4.6070333615
 31
0.0
 11
7.1035580054
 21
4.6066269223
 31
0.0
 11
7.0863334078
 21
4.6070334906
 31
0.0
 11
7.0696501226
 21
4.6081992464
 31
0.0
 11
7.0548035043
 21
4.6098696922
 31
0.0
 11
7.0426895801
 21
4.6116686313
 31
0.0
 11
7.0333567149
 21
4.6133179833
 31
0.0
 11
7.0275015464
 21
4.6144682872
 31
0.0
 11
7.0255661531
 21
4.6148679326
 31
0.0
  0
SPLINE
  5
474
100
AcDbEntity
  8
0
100
AcDbSpline
 62
7
  6
CONTINUOUS
 70
0
 71
3
 72
21
 73
17
 74
15
 42
0.0000001
 43
0.0000001
 44
0.0000000001
 12
0.1538158118
 22
0.0321437389
 32
0.0
 13
0.1538158096
 23
-0.0321437389
 33
0.0
 40
0.0
 40
0.0
 40
0.0
 40
0.0
 40
0.0125511272
 40
0.0504971434
 40
0.1108962933
 40
0.1887963194
 40
0.2838005794
 40
0.3903211202
 40
0.5000518337
 40
0.6096963077
 40
0.7161243207
 40
0.8112014231
 40
0.8891374438
 40
0.9494502938
 40
0.9874236965
 40
1.0
 40
1.0
 40
1.0
 40
1.0
 10
7.0255661531
 20
3.8683679326
 30
0.0
 10
7.0262096737
 20
3.8685024126
 30
0.0
 10
7.0288000485
 20
3.869037333
 30
0.0
 10
7.0344999305
 20
3.8701574765
 30
0.0
 10
7.043591393
 20
3.8717651672
 30
0.0
 10
7.0556808816
 20
3.8735622702
 30
0.0
 10
7.0702287187
 20
3.8752019798
 30
0.0
 10
7.0864979101
 20
3.8763413763
 30
0.0
 10
7.1035697869
 20
3.8767447987
 30
0.0
 10
7.120636795
 20
3.8763410466
 30
0.0
 10
7.1369004531
 20
3.8752022414
 30
0.0
 10
7.1514491726
 20
3.8735626661
 30
0.0
 10
7.1635398194
 20
3.871765311
 30
0.0
 10
7.1726301029
 20
3.8701578653
 30
0.0
 10
7.178328268
 20
3.8690381472
 30
0.0
 10
7.1809213417
 20
3.8685026824
 30
0.0
 10
7.1815661531
 20
3.8683679326
 30
0.0
 11
7.0255661531
 21
3.8683679326
 31
0.0
 11
7.0274976701
 21
3.8687667872
 31
0.0
 11
7.0333485987
 21
3.8699163487
 31
0.0
 11
7.042694812
 21
3.8715680945
 31
0.0
 11
7.0548031527
 21
3.8733661265
 31
0.0
 11
7.0696383696
 21
3.8750355312
 31
0.0
 11
7.0863361449
 21
3.8762025037
 31
0.0
 11
7.1035743009
 21
3.8766089429
 31
0.0
 11
7.1207988985
 21
3.8762023746
 31
0.0
 11
7.1374821836
 21
3.8750366188
 31
0.0
 11
7.152328802
 21
3.873366173
 31
0.0
 11
7.1644427261
 21
3.8715672339
 31
0.0
 11
7.1737755913
 21
3.8699178819
 31
0.0
 11
7.1796307599
 21
3.868767578
 31
0.0
 11
7.1815661531
 21
3.8683679326
 31
0.0
  0
SPLINE
  5
475
100
AcDbEntity
  8
0
100
AcDbSpline
 62
7
  6
CONTINUOUS
 70
0
 71
3
 72
14
 73
10
 74
8
 42
0.0000001
 43
0.0000001
 44
0.0000000001
 12
-0.0000611549
 22
0.102329663
 32
0.0
 13
-0.1019401821
 23
0.0
 33
0.0
 40
0.0
 40
0.0
 40
0.0
 40
0.0
 40
0.1182875486
 40
0.2386284723
 40
0.3681523102
 40
0.5107572884
 40
0.666095751
 40
0.8307214634
 40
1.0
 40
1.0
 40
1.0
 40
1.0
 10
7.181566153
 20
4.5055455367
 30
0.0
 10
7.1815637417
 20
4.5095803116
 30
0.0
 10
7.1802712592
 20
4.5177380388
 30
0.0
 10
7.1742372112
 20
4.5289482673
 30
0.0
 10
7.164573671
 20
4.5383810053
 30
0.0
 10
7.1519408749
 20
4.5457718908
 30
0.0
 10
7.1370537802
 20
4.5510403013
 30
0.0
 10
7.1206776893
 20
4.5541813867
 30
0.0
 10
7.1093182481
 20
4.5548725933
 30
0.0
 10
7.1035661531
 20
4.5548725933
 30
0.0
 11
7.181566153
 21
4.5055455367
 31
0.0
 11
7.1796389344
 21
4.5174487874
 31
0.0
 11
7.1739105834
 21
4.5282968014
 31
0.0
 11
7.1645918139
 21
4.5376508271
 31
0.0
 11
7.1521376149
 21
4.5451489906
 31
0.0
 11
7.13725548
 21
4.5505597768
 31
0.0
 11
7.1207889731
 21
4.5537984243
 31
0.0
 11
7.1035661531
 21
4.5548725933
 31
0.0
  0
SPLINE
  5
476
100
AcDbEntity
  8
0
100
AcDbSpline
 62
7
  6
CONTINUOUS
 70
0
 71
3
 72
14
 73
10
 74
8
 42
0.0000001
 43
0.0000001
 44
0.0000000001
 12
0.0000611545
 22
-0.1023296631
 32
0.0
 13
0.1019401821
 23
0.0
 33
0.0
 40
0.0
 40
0.0
 40
0.0
 40
0.0
 40
0.1182876087
 40
0.2386285262
 40
0.3681523536
 40
0.5107573144
 40
0.6660957563
 40
0.8307214562
 40
1.0
 40
1.0
 40
1.0
 40
1.0
 10
7.0255661533
 20
3.9776903285
 30
0.0
 10
7.0255685645
 20
3.9736555514
 30
0.0
 10
7.0268610481
 20
3.9654978224
 30
0.0
 10
7.0328950985
 20
3.9542875936
 30
0.0
 10
7.0425586387
 20
3.9448548575
 30
0.0
 10
7.0551914338
 20
3.9374639735
 30
0.0
 10
7.0700785268
 20
3.9321955638
 30
0.0
 10
7.0864546168
 20
3.9290544785
 30
0.0
 10
7.0978140579
 20
3.9283632719
 30
0.0
 10
7.1035661531
 20
3.9283632719
 30
0.0
 11
7.0255661533
 21
3.9776903285
 31
0.0
 11
7.0274933738
 21
3.9657870719
 31
0.0
 11
7.0332217262
 21
3.9549390593
 31
0.0
 11
7.0425404959
 21
3.9455850354
 31
0.0
 11
7.0549946937
 21
3.9380868734
 31
0.0
 11
7.0698768268
 21
3.9326760883
 31
0.0
 11
7.0863433324
 21
3.929437441
 31
0.0
 11
7.1035661531
 21
3.9283632719
 31
0.0
  0
SPLINE
  5
477
100
AcDbEntity
  8
0
100
AcDbSpline
 62
7
  6
CONTINUOUS
 70
0
 71
3
 72
14
 73
10
 74
8
 42
0.0000001
 43
0.0000001
 44
0.0000000001
 12
0.1019401828
 22
0.0
 32
0.0
 13
0.0000611501
 23
0.102329663
 33
0.0
 40
0.0
 40
0.0
 40
0.0
 40
0.0
 40
0.1692801628
 40
0.3339061607
 40
0.4892433932
 40
0.6318486025
 40
0.7613728523
 40
0.8817130472
 40
1.0
 40
1.0
 40
1.0
 40
1.0
 10
7.1035661531
 20
3.9283632719
 30
0.0
 10
7.1093183034
 20
3.9283632719
 30
0.0
 10
7.1206778101
 20
3.9290544889
 30
0.0
 10
7.1370539199
 20
3.9321956028
 30
0.0
 10
7.1519409827
 20
3.9374640271
 30
0.0
 10
7.1645737537
 20
3.9448549175
 30
0.0
 10
7.1742372716
 20
3.9542876776
 30
0.0
 10
7.1802712733
 20
3.9654978927
 30
0.0
 10
7.1815637419
 20
3.9736555738
 30
0.0
 10
7.181566153
 20
3.9776903284
 30
0.0
 11
7.1035661531
 21
3.9283632719
 31
0.0
 11
7.120789138
 21
3.9294374618
 31
0.0
 11
7.1372556687
 21
3.9326761401
 31
0.0
 11
7.1521376782
 21
3.9380869043
 31
0.0
 11
7.1645918882
 21
3.9455850954
 31
0.0
 11
7.173910665
 21
3.9549391733
 31
0.0
 11
7.179638954
 21
3.9657871361
 31
0.0
 11
7.181566153
 21
3.9776903284
 31
0.0
  0
SPLINE
  5
478
100
AcDbEntity
  8
0
100
AcDbSpline
 62
7
  6
CONTINUOUS
 70
0
 71
3
 72
14
 73
10
 74
8
 42
0.0000001
 43
0.0000001
 44
0.0000000001
 12
-0.1019401828
 22
0.0
 32
0.0
 13
-0.0000611506
 23
-0.1023296629
 33
0.0
 40
0.0
 40
0.0
 40
0.0
 40
0.0
 40
0.1692801598
 40
0.3339061716
 40
0.4892434231
 40
0.6318486497
 40
0.7613729094
 40
0.8817131077
 40
1.0
 40
1.0
 40
1.0
 40
1.0
 10
7.1035661531
 20
4.5548725933
 30
0.0
 10
7.097814003
 20
4.5548725933
 30
0.0
 10
7.0864544959
 20
4.5541813763
 30
0.0
 10
7.0700783851
 20
4.5510402621
 30
0.0
 10
7.0551913207
 20
4.5457718369
 30
0.0
 10
7.0425585488
 20
4.5383809451
 30
0.0
 10
7.032895031
 20
4.5289481831
 30
0.0
 10
7.0268610319
 20
4.5177379684
 30
0.0
 10
7.0255685644
 20
4.5095802893
 30
0.0
 10
7.0255661533
 20
4.5055455367
 30
0.0
 11
7.1035661531
 21
4.5548725933
 31
0.0
 11
7.0863431685
 21
4.5537984034
 31
0.0
 11
7.0698766365
 21
4.5505597248
 31
0.0
 11
7.0549946252
 21
4.5451489596
 31
0.0
 11
7.0425404142
 21
4.5376507668
 31
0.0
 11
7.0332216378
 21
4.5282966872
 31
0.0
 11
7.0274933503
 21
4.5174487232
 31
0.0
 11
7.0255661533
 21
4.5055455367
 31
0.0
  0
SPLINE
  5
479
100
AcDbEntity
  8
0
100
AcDbSpline
 62
7
  6
CONTINUOUS
 70
0
 71
3
 72
9
 73
5
 74
3
 42
0.0000001
 43
0.0000001
 44
0.0000000001
 12
0.0
 22
0.0041869468
 32
0.0
 13
0.0038068211
 23
0.0020199741
 33
0.0
 40
0.0
 40
0.0
 40
0.0
 40
0.0
 40
0.6484134313
 40
1.0
 40
1.0
 40
1.0
 40
1.0
 10
6.1910757721
 20
4.6378162246
 30
0.0
 10
6.1910757721
 20
4.6387211821
 30
0.0
 10
6.1912583867
 20
4.640245348
 30
0.0
 10
6.1923829729
 20
4.6411952167
 30
0.0
 10
6.1928291152
 20
4.6414319486
 30
0.0
 11
6.1910757721
 21
4.6378162246
 31
0.0
 11
6.1917086341
 21
4.6404563039
 31
0.0
 11
6.1928291152
 21
4.6414319486
 31
0.0
  0
SPLINE
  5
47A
100
AcDbEntity
  8
0
100
AcDbSpline
 62
7
  6
CONTINUOUS
 70
0
 71
3
 72
10
 73
6
 74
4
 42
0.0000001
 43
0.0000001
 44
0.0000000001
 12
-0.0081536314
 22
0.0125747728
 32
0.0
 13
0.0
 23
0.0149868815
 33
0.0
 40
0.0
 40
0.0
 40
0.0
 40
0.0
 40
0.4035499901
 40
0.7425098665
 40
1.0
 40
1.0
 40
1.0
 40
1.0
 10
6.1965661531
 20
4.6240288385
 30
0.0
 10
6.1954693538
 20
4.625720355
 30
0.0
 10
6.193606788
 20
4.6289432797
 30
0.0
 10
6.191692776
 20
4.6335655495
 30
0.0
 10
6.1910757721
 20
4.6365298999
 30
0.0
 10
6.1910757721
 20
4.6378162246
 30
0.0
 11
6.1965661531
 21
4.6240288385
 31
0.0
 11
6.1935751468
 21
4.6292854202
 31
0.0
 11
6.1917062694
 21
4.6340091057
 31
0.0
 11
6.1910757721
 21
4.6378162246
 31
0.0
  0
SPLINE
  5
47B
100
AcDbEntity
  8
0
100
AcDbSpline
 62
7
  6
CONTINUOUS
 70
0
 71
3
 72
10
 73
6
 74
4
 42
0.0000001
 43
0.0000001
 44
0.0000000001
 12
0.0
 22
0.0149868578
 32
0.0
 13
0.0081536185
 23
0.012574753
 33
0.0
 40
0.0
 40
0.0
 40
0.0
 40
0.0
 40
0.2580499056
 40
0.5964248111
 40
1.0
 40
1.0
 40
1.0
 40
1.0
 10
6.1910757721
 20
3.8454196406
 30
0.0
 10
6.1910757721
 20
3.8467087597
 30
0.0
 10
6.1916938621
 20
3.8496729108
 30
0.0
 10
6.1936080773
 20
3.8542948866
 30
0.0
 10
6.1954692871
 20
3.8575154072
 30
0.0
 10
6.1965661531
 20
3.8592070267
 30
0.0
 11
6.1910757721
 21
3.8454196406
 31
0.0
 11
6.1917086341
 21
3.8492348651
 31
0.0
 11
6.1935749857
 21
3.8539501131
 31
0.0
 11
6.1965661531
 21
3.8592070267
 31
0.0
  0
SPLINE
  5
47C
100
AcDbEntity
  8
0
100
AcDbSpline
 62
7
  6
CONTINUOUS
 70
0
 71
3
 72
16
 73
12
 74
10
 42
0.0000001
 43
0.0000001
 44
0.0000000001
 12
0.0726942753
 22
0.0179666358
 32
0.0
 13
0.0670716412
 23
-0.0333581478
 33
0.0
 40
0.0
 40
0.0
 40
0.0
 40
0.0
 40
0.1467821615
 40
0.2976815295
 40
0.4410937971
 40
0.5697471433
 40
0.6837389052
 40
0.7847299942
 40
0.8744834248
 40
0.9518118211
 40
1.0
 40
1.0
 40
1.0
 40
1.0
 10
6.1965661531
 20
3.8592070267
 30
0.0
 10
6.2001228941
 20
3.8600860872
 30
0.0
 10
6.2074599818
 20
3.8613701334
 30
0.0
 10
6.2184353643
 20
3.8623358763
 30
0.0
 10
6.2289981643
 20
3.8625464596
 30
0.0
 10
6.2386321099
 20
3.8621772045
 30
0.0
 10
6.2471766334
 20
3.8613807323
 30
0.0
 10
6.2547033636
 20
3.860252832
 30
0.0
 10
6.2612486464
 20
3.8588368482
 30
0.0
 10
6.266402955
 20
3.8572948245
 30
0.0
 10
6.2692988067
 20
3.856071475
 30
0.0
 10
6.2703761601
 20
3.8555356522
 30
0.0
 11
6.1965661531
 21
3.8592070267
 31
0.0
 11
6.2073754939
 21
3.8611986427
 31
0.0
 11
6.2186287027
 21
3.8622213949
 31
0.0
 11
6.2293653416
 21
3.8624438645
 31
0.0
 11
6.2389918685
 21
3.8620703219
 31
0.0
 11
6.2474898701
 21
3.8612669799
 31
0.0
 11
6.2549657865
 21
3.86012671
 31
0.0
 11
6.261529231
 21
3.8586805218
 31
0.0
 11
6.2670591305
 21
3.8569630167
 31
0.0
 11
6.2703761601
 21
3.8555356522
 31
0.0
  0
SPLINE
  5
47D
100
AcDbEntity
  8
0
100
AcDbSpline
 62
7
  6
CONTINUOUS
 70
0
 71
3
 72
16
 73
12
 74
10
 42
0.0000001
 43
0.0000001
 44
0.0000000001
 12
-0.0670723218
 22
-0.0334301816
 32
0.0
 13
-0.0726928267
 23
0.0179662778
 33
0.0
 40
0.0
 40
0.0
 40
0.0
 40
0.0
 40
0.0455467357
 40
0.1232293241
 40
0.2140422144
 40
0.3165290384
 40
0.4314672638
 40
0.5596445829
 40
0.701459351
 40
0.8519675715
 40
1.0
 40
1.0
 40
1.0
 40
1.0
 10
6.2703739779
 20
4.6276991503
 30
0.0
 10
6.2693556695
 20
4.6271916051
 30
0.0
 10
6.2665188869
 20
4.6259834076
 30
0.0
 10
6.2613966201
 20
4.6244346665
 30
0.0
 10
6.2547826306
 20
4.6229951976
 30
0.0
 10
6.2471694879
 20
4.6218525992
 30
0.0
 10
6.2385759513
 20
4.6210548043
 30
0.0
 10
6.2289701934
 20
4.6206906665
 30
0.0
 10
6.2184693049
 20
4.6208998859
 30
0.0
 10
6.2075121924
 20
4.6218584774
 30
0.0
 10
6.2001531184
 20
4.6231423079
 30
0.0
 10
6.1965661531
 20
4.6240288385
 30
0.0
 11
6.2703739779
 21
4.6276991503
 31
0.0
 11
6.2672433335
 21
4.6263417266
 31
0.0
 11
6.2616937824
 21
4.6245985674
 31
0.0
 11
6.2550551269
 21
4.6231256933
 31
0.0
 11
6.247468982
 21
4.6219663126
 31
0.0
 11
6.2389003021
 21
4.6211593998
 31
0.0
 11
6.2293094246
 21
4.6207914084
 31
0.0
 11
6.2186925887
 21
4.6210110948
 31
0.0
 11
6.207468213
 21
4.6220249939
 31
0.0
 11
6.1965661531
 21
4.6240288385
 31
0.0
  0
SPLINE
  5
47E
100
AcDbEntity
  8
0
100
AcDbSpline
 62
7
  6
CONTINUOUS
 70
0
 71
3
 72
9
 73
5
 74
3
 42
0.0000001
 43
0.0000001
 44
0.0000000001
 12
-0.003806831
 22
0.0020207471
 32
0.0
 13
0.0
 23
0.0041870372
 33
0.0
 40
0.0
 40
0.0
 40
0.0
 40
0.0
 40
0.3525961401
 40
1.0
 40
1.0
 40
1.0
 40
1.0
 10
6.1928293646
 20
3.8418039804
 30
0.0
 10
6.19238194
 20
3.842041483
 30
0.0
 10
6.1912576622
 20
3.842992426
 30
0.0
 10
6.1910757721
 20
3.8445160726
 30
0.0
 10
6.1910757721
 20
3.8454196406
 30
0.0
 11
6.1928293646
 21
3.8418039804
 31
0.0
 11
6.1917062694
 21
3.8427832815
 31
0.0
 11
6.1910757721
 21
3.8454196406
 31
0.0
  0
SPLINE
  5
47F
100
AcDbEntity
  8
0
100
AcDbSpline
 62
7
  6
CONTINUOUS
 70
0
 71
3
 72
15
 73
11
 74
9
 42
0.0000001
 43
0.0000001
 44
0.0000000001
 12
0.1524995809
 22
0.5724822844
 32
0.0
 13
-0.1524995809
 23
0.5724822844
 33
0.0
 40
0.0
 40
0.0
 40
0.0
 40
0.0
 40
0.1303027146
 40
0.2554233163
 40
0.3781382012
 40
0.500042666
 40
0.6219428883
 40
0.7446469008
 40
0.8697222521
 40
1.0
 40
1.0
 40
1.0
 40
1.0
 10
5.3911405273
 20
3.9490973137
 30
0.0
 10
5.3977642304
 20
3.9739626456
 30
0.0
 10
5.4095360222
 20
4.0230417702
 30
0.0
 10
5.4226362603
 20
4.0966073902
 30
0.0
 10
5.4306303398
 20
4.16924548
 30
0.0
 10
5.4333286495
 20
4.2416424103
 30
0.0
 10
5.4306267563
 20
4.3140370478
 30
0.0
 10
5.4226308658
 20
4.3866629188
 30
0.0
 10
5.4095317477
 20
4.4602124168
 30
0.0
 10
5.3977629613
 20
4.509277984
 30
0.0
 10
5.3911405273
 20
4.5341385515
 30
0.0
 11
5.3911405273
 21
3.9490973137
 31
0.0
 11
5.4090141776
 21
4.0241969554
 31
0.0
 11
5.4218969581
 21
4.0971960856
 31
0.0
 11
5.4297700775
 21
4.1694704505
 31
0.0
 11
5.4324305976
 21
4.2416432241
 31
0.0
 11
5.4297665552
 21
4.3138133526
 31
0.0
 11
5.4218910421
 21
4.3860809773
 31
0.0
 11
5.4090111619
 21
4.4590533966
 31
0.0
 11
5.3911405273
 21
4.5341385515
 31
0.0
  0
SPLINE
  5
480
100
AcDbEntity
  8
0
100
AcDbSpline
 62
7
  6
CONTINUOUS
 70
0
 71
3
 72
15
 73
11
 74
9
 42
0.0000001
 43
0.0000001
 44
0.0000000001
 12
-0.144303637
 22
0.2708573861
 32
0.0
 13
0.144303637
 23
0.2708573861
 33
0.0
 40
0.0
 40
0.0
 40
0.0
 40
0.0
 40
0.1355060615
 40
0.2616268072
 40
0.3821382325
 40
0.5000411188
 40
0.6179405518
 40
0.7384429083
 40
0.8645194725
 40
1.0
 40
1.0
 40
1.0
 40
1.0
 10
4.8671768244
 20
4.5824826231
 30
0.0
 10
4.8606588186
 20
4.5947168957
 30
0.0
 10
4.8490255536
 20
4.6188718765
 30
0.0
 10
4.8358175713
 20
4.6557543053
 30
0.0
 10
4.8277211013
 20
4.6922734418
 30
0.0
 10
4.8249787061
 20
4.7287552743
 30
0.0
 10
4.8277247359
 20
4.765235879
 30
0.0
 10
4.8358229654
 20
4.8017486251
 30
0.0
 10
4.8490297066
 20
4.8386228308
 30
0.0
 10
4.8606600468
 20
4.8627712749
 30
0.0
 10
4.8671768244
 20
4.8750032421
 30
0.0
 11
4.8671768244
 21
4.5824826231
 31
0.0
 11
4.8493031741
 21
4.620032444
 31
0.0
 11
4.8364203936
 21
4.6565320091
 31
0.0
 11
4.8285472742
 21
4.6926691916
 31
0.0
 11
4.8258867541
 21
4.7287555784
 31
0.0
 11
4.8285507965
 21
4.7648406426
 31
0.0
 11
4.8364263096
 21
4.8009744549
 31
0.0
 11
4.8493061897
 21
4.8374606646
 31
0.0
 11
4.8671768244
 21
4.8750032421
 31
0.0
  0
SPLINE
  5
481
100
AcDbEntity
  8
0
100
AcDbSpline
 62
7
  6
CONTINUOUS
 70
0
 71
3
 72
15
 73
11
 74
9
 42
0.0000001
 43
0.0000001
 44
0.0000000001
 12
0.144303637
 22
0.2708573861
 32
0.0
 13
-0.144303637
 23
0.2708573861
 33
0.0
 40
0.0
 40
0.0
 40
0.0
 40
0.0
 40
0.1355060615
 40
0.2616268072
 40
0.3821382325
 40
0.5000411188
 40
0.6179405518
 40
0.7384429083
 40
0.8645194725
 40
1.0
 40
1.0
 40
1.0
 40
1.0
 10
5.3911405273
 20
4.5824826231
 30
0.0
 10
5.3976585331
 20
4.5947168957
 30
0.0
 10
5.4092917981
 20
4.6188718765
 30
0.0
 10
5.4224997804
 20
4.6557543053
 30
0.0
 10
5.4305962503
 20
4.6922734418
 30
0.0
 10
5.4333386456
 20
4.7287552743
 30
0.0
 10
5.4305926158
 20
4.765235879
 30
0.0
 10
5.4224943863
 20
4.8017486251
 30
0.0
 10
5.4092876451
 20
4.8386228308
 30
0.0
 10
5.3976573049
 20
4.8627712749
 30
0.0
 10
5.3911405273
 20
4.8750032421
 30
0.0
 11
5.3911405273
 21
4.5824826231
 31
0.0
 11
5.4090141776
 21
4.620032444
 31
0.0
 11
5.4218969581
 21
4.6565320091
 31
0.0
 11
5.4297700775
 21
4.6926691916
 31
0.0
 11
5.4324305976
 21
4.7287555784
 31
0.0
 11
5.4297665552
 21
4.7648406426
 31
0.0
 11
5.4218910421
 21
4.8009744549
 31
0.0
 11
5.4090111619
 21
4.8374606646
 31
0.0
 11
5.3911405273
 21
4.8750032421
 31
0.0
  0
SPLINE
  5
482
100
AcDbEntity
  8
0
100
AcDbSpline
 62
7
  6
CONTINUOUS
 70
0
 71
3
 72
10
 73
6
 74
4
 42
0.0000001
 43
0.0000001
 44
0.0000000001
 12
0.0
 22
-0.0077393439
 32
0.0
 13
-0.0069323564
 23
-0.0034552245
 33
0.0
 40
0.0
 40
0.0
 40
0.0
 40
0.0
 40
0.3429278877
 40
0.822060802
 40
1.0
 40
1.0
 40
1.0
 40
1.0
 10
6.2755661531
 20
4.6330614151
 30
0.0
 10
6.2755661531
 20
4.6321767362
 30
0.0
 10
6.2744459851
 20
4.6301357832
 30
0.0
 10
6.2722853314
 20
4.6286975839
 30
0.0
 10
6.2707851572
 20
4.6279040903
 30
0.0
 10
6.2703739779
 20
4.6276991503
 30
0.0
 11
6.2755661531
 21
4.6330614151
 31
0.0
 11
6.2745174224
 21
4.6306233677
 31
0.0
 11
6.2715917689
 21
4.6283449672
 31
0.0
 11
6.2703739779
 21
4.6276991503
 31
0.0
  0
SPLINE
  5
483
100
AcDbEntity
  8
0
100
AcDbSpline
 62
7
  6
CONTINUOUS
 70
0
 71
3
 72
10
 73
6
 74
4
 42
0.0000001
 43
0.0000001
 44
0.0000000001
 12
0.0069258301
 22
-0.0034445685
 32
0.0
 13
0.0
 23
-0.0077322904
 33
0.0
 40
0.0
 40
0.0
 40
0.0
 40
0.0
 40
0.1558721827
 40
0.6370733074
 40
1.0
 40
1.0
 40
1.0
 40
1.0
 10
6.2703761601
 20
3.8555356522
 30
0.0
 10
6.2707360082
 20
3.8553566814
 30
0.0
 10
6.2721910679
 20
3.854595035
 30
0.0
 10
6.2743564899
 20
3.8531880249
 30
0.0
 10
6.2755661531
 20
3.8511098683
 30
0.0
 10
6.2755661531
 20
3.8501744501
 30
0.0
 11
6.2703761601
 21
3.8555356522
 31
0.0
 11
6.2714435034
 21
3.8549759138
 31
0.0
 11
6.2744117008
 21
3.852732243
 31
0.0
 11
6.2755661531
 21
3.8501744501
 31
0.0
  0
SPLINE
  5
484
100
AcDbEntity
  8
0
100
AcDbSpline
 62
7
  6
CONTINUOUS
 70
0
 71
3
 72
9
 73
5
 74
3
 42
0.0000001
 43
0.0000001
 44
0.0000000001
 12
-0.0036461308
 22
-0.0010063135
 32
0.0
 13
-0.0034389836
 23
0.0018254859
 33
0.0
 40
0.0
 40
0.0
 40
0.0
 40
0.0
 40
0.7928007869
 40
1.0
 40
1.0
 40
1.0
 40
1.0
 10
6.1965661531
 20
3.8417274915
 30
0.0
 10
6.1956026013
 20
3.8414615561
 30
0.0
 10
6.1942825868
 20
3.8412024166
 30
0.0
 10
6.1930668828
 20
3.8416779007
 30
0.0
 10
6.1928293646
 20
3.8418039804
 30
0.0
 11
6.1965661531
 21
3.8417274915
 31
0.0
 11
6.1935751468
 21
3.8415123993
 31
0.0
 11
6.1928293646
 21
3.8418039804
 31
0.0
  0
SPLINE
  5
485
100
AcDbEntity
  8
0
100
AcDbSpline
 62
7
  6
CONTINUOUS
 70
0
 71
3
 72
18
 73
14
 74
12
 42
0.0000001
 43
0.0000001
 44
0.0000000001
 12
0.0803894453
 22
0.0173722303
 32
0.0
 13
0.0
 23
-0.082245105
 33
0.0
 40
0.0
 40
0.0
 40
0.0
 40
0.0
 40
0.133075413
 40
0.2703021378
 40
0.4008661356
 40
0.5179746466
 40
0.6216282949
 40
0.7132974278
 40
0.79456024
 40
0.8643305029
 40
0.9220570742
 40
0.9664235183
 40
1.0
 40
1.0
 40
1.0
 40
1.0
 10
6.1965661531
 20
4.6415083737
 30
0.0
 10
6.200132106
 20
4.6422789793
 30
0.0
 10
6.2074762615
 20
4.6433754324
 30
0.0
 10
6.2184414352
 20
4.6441841395
 30
0.0
 10
6.2289973166
 20
4.6443590704
 30
0.0
 10
6.238627389
 20
4.6440515803
 30
0.0
 10
6.247169568
 20
4.6433820106
 30
0.0
 10
6.2546946507
 20
4.6424207675
 30
0.0
 10
6.2612379822
 20
4.6411906505
 30
0.0
 10
6.2667774321
 20
4.6397212818
 30
0.0
 10
6.2711673161
 20
4.6379600747
 30
0.0
 10
6.2743622482
 20
4.6360262246
 30
0.0
 10
6.2755661531
 20
4.6339819155
 30
0.0
 10
6.2755661531
 20
4.6330614151
 30
0.0
 11
6.1965661531
 21
4.6415083737
 31
0.0
 11
6.2073754939
 21
4.6432250064
 31
0.0
 11
6.2186287027
 21
4.644087676
 31
0.0
 11
6.2293653416
 21
4.6442736635
 31
0.0
 11
6.2389918685
 21
4.6439610406
 31
0.0
 11
6.2474898701
 21
4.6432830413
 31
0.0
 11
6.2549657865
 21
4.6423071918
 31
0.0
 11
6.261529231
 21
4.6410462604
 31
0.0
 11
6.2670591305
 21
4.6395139844
 31
0.0
 11
6.2714435034
 21
4.6376923932
 31
0.0
 11
6.2744117008
 21
4.6355700261
 31
0.0
 11
6.2755661531
 21
4.6330614151
 31
0.0
  0
SPLINE
  5
486
100
AcDbEntity
  8
0
100
AcDbSpline
 62
7
  6
CONTINUOUS
 70
0
 71
3
 72
18
 73
14
 74
12
 42
0.0000001
 43
0.0000001
 44
0.0000000001
 12
0.0
 22
-0.0822509923
 32
0.0
 13
-0.0803951997
 23
0.0173734738
 33
0.0
 40
0.0
 40
0.0
 40
0.0
 40
0.0
 40
0.031768758
 40
0.0759718522
 40
0.1333706486
 40
0.2034449443
 40
0.285654648
 40
0.3786719918
 40
0.4831776774
 40
0.5998427808
 40
0.7289406067
 40
0.865800972
 40
1.0
 40
1.0
 40
1.0
 40
1.0
 10
6.2755661531
 20
3.8501744501
 30
0.0
 10
6.2755661531
 20
3.8493034461
 30
0.0
 10
6.2744523977
 20
3.8472951008
 30
0.0
 10
6.2713198968
 20
3.8453488097
 30
0.0
 10
6.2669479638
 20
3.843568656
 30
0.0
 10
6.2613856397
 20
3.8420762424
 30
0.0
 10
6.2547736415
 20
3.8408254302
 30
0.0
 10
6.2471622643
 20
3.8398516555
 30
0.0
 10
6.2385712426
 20
3.8391810722
 30
0.0
 10
6.2289693768
 20
3.8388778424
 30
0.0
 10
6.2184752658
 20
3.8390516533
 30
0.0
 10
6.2075284921
 20
3.8398543438
 30
0.0
 10
6.2001624723
 20
3.8409503237
 30
0.0
 10
6.1965661531
 20
3.8417274915
 30
0.0
 11
6.2755661531
 21
3.8501744501
 31
0.0
 11
6.2745174224
 21
3.8477811271
 31
0.0
 11
6.2715917689
 21
3.845622605
 31
0.0
 11
6.2672433335
 21
3.8437841355
 31
0.0
 11
6.2616937824
 21
3.8422276993
 31
0.0
 11
6.2550551269
 21
3.8409429447
 31
0.0
 11
6.247468982
 21
3.8399506401
 31
0.0
 11
6.2389003021
 21
3.8392696696
 31
0.0
 11
6.2293094246
 21
3.8389617074
 31
0.0
 11
6.2186925887
 21
3.8391453628
 31
0.0
 11
6.207468213
 21
3.8400004696
 31
0.0
 11
6.1965661531
 21
3.8417274915
 31
0.0
  0
SPLINE
  5
487
100
AcDbEntity
  8
0
100
AcDbSpline
 62
7
  6
CONTINUOUS
 70
0
 71
3
 72
9
 73
5
 74
3
 42
0.0000001
 43
0.0000001
 44
0.0000000001
 12
0.0034392465
 22
0.0018249318
 32
0.0
 13
0.0036463403
 23
-0.0010063713
 33
0.0
 40
0.0
 40
0.0
 40
0.0
 40
0.0
 40
0.207202928
 40
1.0
 40
1.0
 40
1.0
 40
1.0
 10
6.1928291152
 20
4.6414319486
 30
0.0
 10
6.1930666559
 20
4.6415579924
 30
0.0
 10
6.194282509
 20
4.6420332791
 30
0.0
 10
6.1956025505
 20
4.6417743231
 30
0.0
 10
6.1965661531
 20
4.6415083737
 30
0.0
 11
6.1928291152
 21
4.6414319486
 31
0.0
 11
6.1935749857
 21
4.6417234307
 31
0.0
 11
6.1965661531
 21
4.6415083737
 31
0.0
  0
SPLINE
  5
488
100
AcDbEntity
  8
0
100
AcDbSpline
 62
7
  6
CONTINUOUS
 70
0
 71
3
 72
15
 73
11
 74
9
 42
0.0000001
 43
0.0000001
 44
0.0000000001
 12
-0.144303637
 22
0.2708573861
 32
0.0
 13
0.144303637
 23
0.2708573861
 33
0.0
 40
0.0
 40
0.0
 40
0.0
 40
0.0
 40
0.1355060615
 40
0.2616268072
 40
0.3821382325
 40
0.5000411188
 40
0.6179405518
 40
0.7384429083
 40
0.8645194725
 40
1.0
 40
1.0
 40
1.0
 40
1.0
 10
4.8671768244
 20
3.6082326231
 30
0.0
 10
4.8606588186
 20
3.6204668957
 30
0.0
 10
4.8490255536
 20
3.6446218765
 30
0.0
 10
4.8358175713
 20
3.6815043053
 30
0.0
 10
4.8277211013
 20
3.7180234418
 30
0.0
 10
4.8249787061
 20
3.7545052743
 30
0.0
 10
4.8277247359
 20
3.790985879
 30
0.0
 10
4.8358229654
 20
3.8274986251
 30
0.0
 10
4.8490297066
 20
3.8643728308
 30
0.0
 10
4.8606600468
 20
3.8885212749
 30
0.0
 10
4.8671768244
 20
3.9007532421
 30
0.0
 11
4.8671768244
 21
3.6082326231
 31
0.0
 11
4.8493031741
 21
3.645782444
 31
0.0
 11
4.8364203936
 21
3.6822820091
 31
0.0
 11
4.8285472742
 21
3.7184191916
 31
0.0
 11
4.8258867541
 21
3.7545055784
 31
0.0
 11
4.8285507965
 21
3.7905906426
 31
0.0
 11
4.8364263096
 21
3.8267244549
 31
0.0
 11
4.8493061897
 21
3.8632106646
 31
0.0
 11
4.8671768244
 21
3.9007532421
 31
0.0
  0
SPLINE
  5
489
100
AcDbEntity
  8
0
100
AcDbSpline
 62
7
  6
CONTINUOUS
 70
0
 71
3
 72
15
 73
11
 74
9
 42
0.0000001
 43
0.0000001
 44
0.0000000001
 12
0.144303637
 22
0.2708573861
 32
0.0
 13
-0.144303637
 23
0.2708573861
 33
0.0
 40
0.0
 40
0.0
 40
0.0
 40
0.0
 40
0.1355060615
 40
0.2616268072
 40
0.3821382325
 40
0.5000411188
 40
0.6179405518
 40
0.7384429083
 40
0.8645194725
 40
1.0
 40
1.0
 40
1.0
 40
1.0
 10
5.3911405273
 20
3.6082326231
 30
0.0
 10
5.3976585331
 20
3.6204668957
 30
0.0
 10
5.4092917981
 20
3.6446218765
 30
0.0
 10
5.4224997804
 20
3.6815043053
 30
0.0
 10
5.4305962503
 20
3.7180234418
 30
0.0
 10
5.4333386456
 20
3.7545052743
 30
0.0
 10
5.4305926158
 20
3.790985879
 30
0.0
 10
5.4224943863
 20
3.8274986251
 30
0.0
 10
5.4092876451
 20
3.8643728308
 30
0.0
 10
5.3976573049
 20
3.8885212749
 30
0.0
 10
5.3911405273
 20
3.9007532421
 30
0.0
 11
5.3911405273
 21
3.6082326231
 31
0.0
 11
5.4090141776
 21
3.645782444
 31
0.0
 11
5.4218969581
 21
3.6822820091
 31
0.0
 11
5.4297700775
 21
3.7184191916
 31
0.0
 11
5.4324305976
 21
3.7545055784
 31
0.0
 11
5.4297665552
 21
3.7905906426
 31
0.0
 11
5.4218910421
 21
3.8267244549
 31
0.0
 11
5.4090111619
 21
3.8632106646
 31
0.0
 11
5.3911405273
 21
3.9007532421
 31
0.0
  0
SPLINE
  5
48A
100
AcDbEntity
  8
0
100
AcDbSpline
 62
7
  6
CONTINUOUS
 70
0
 71
3
 72
15
 73
11
 74
9
 42
0.0000001
 43
0.0000001
 44
0.0000000001
 12
-0.1524995809
 22
0.5724822844
 32
0.0
 13
0.1524995809
 23
0.5724822844
 33
0.0
 40
0.0
 40
0.0
 40
0.0
 40
0.0
 40
0.1303027146
 40
0.2554233163
 40
0.3781382012
 40
0.500042666
 40
0.6219428883
 40
0.7446469008
 40
0.8697222521
 40
1.0
 40
1.0
 40
1.0
 40
1.0
 10
4.8671768244
 20
3.9490973137
 30
0.0
 10
4.8605531213
 20
3.9739626456
 30
0.0
 10
4.8487813295
 20
4.0230417702
 30
0.0
 10
4.8356810914
 20
4.0966073902
 30
0.0
 10
4.8276870119
 20
4.16924548
 30
0.0
 10
4.8249887022
 20
4.2416424103
 30
0.0
 10
4.8276905954
 20
4.3140370478
 30
0.0
 10
4.8356864858
 20
4.3866629188
 30
0.0
 10
4.848785604
 20
4.4602124168
 30
0.0
 10
4.8605543904
 20
4.509277984
 30
0.0
 10
4.8671768244
 20
4.5341385515
 30
0.0
 11
4.8671768244
 21
3.9490973137
 31
0.0
 11
4.8493031741
 21
4.0241969554
 31
0.0
 11
4.8364203936
 21
4.0971960856
 31
0.0
 11
4.8285472742
 21
4.1694704505
 31
0.0
 11
4.8258867541
 21
4.2416432241
 31
0.0
 11
4.8285507965
 21
4.3138133526
 31
0.0
 11
4.8364263096
 21
4.3860809773
 31
0.0
 11
4.8493061897
 21
4.4590533966
 31
0.0
 11
4.8671768244
 21
4.5341385515
 31
0.0
  0
ENDSEC
  0
SECTION
  2
OBJECTS
  0
DICTIONARY
  5
C
100
AcDbDictionary
280
0
281
1
  3
ACAD_GROUP
350
D
  3
ACAD_MLINESTYLE
350
17
  3
ACAD_LAYOUT
350
1A
  3
ACAD_PLOTSETTINGS
350
19
  3
ACAD_PLOTSTYLENAME
350
E
  0
DICTIONARY
  5
D
102
{ACAD_REACTORS
330
C
102
}
100
AcDbDictionary
280
0
281
1
  0
ACDBDICTIONARYWDFLT
  5
E
102
{ACAD_REACTORS
330
C
102
}
100
AcDbDictionary
281
1
  3
Normal
350
F
100
AcDbDictionaryWithDefault
340
F
  0
DICTIONARY
  5
17
102
{ACAD_REACTORS
330
C
102
}
100
AcDbDictionary
280
0
281
1
  3
Standard
350
18
  0
DICTIONARY
  5
19
102
{ACAD_REACTORS
330
C
102
}
100
AcDbDictionary
281
1
  0
DICTIONARY
  5
1A
102
{ACAD_REACTORS
330
C
102
}
100
AcDbDictionary
281
1
  3
Layout1
350
1E
  3
Model
350
22
  0
ACDBPLACEHOLDER
  5
F
102
{ACAD_REACTORS
330
E
102
}
  0
MLINESTYLE
  5
18
102
{ACAD_REACTORS
330
17
102
}
100
AcDbMlineStyle
  2
STANDARD
 70
0
  3

 62
256
 51
90.0
 52
90.0
 71
2
 49
0.5
 62
256
  6
BYLAYER
 49
-0.5
 62
256
  6
BYLAYER
  0
LAYOUT
  5
1E
102
{ACAD_REACTORS
330
1A
102
}
100
AcDbPlotSettings
  1

  2

  4

  6

 40
0.0
 41
0.0
 42
0.0
 43
0.0
 44
0.0
 45
0.0
 46
0.0
 47
0.0
 48
0.0
 49
0.0
140
0.0
141
0.0
142
1.0
143
1.0
 70
0
 72
0
 73
0
 74
0
  7

 75
0
147
1.0
148
0.0
149
0.0
100
AcDbLayout
  1
Layout1
 70
0
 71
0
 10
0.0
 20
0.0
 11
0.0
 21
0.0
 12
0.0
 22
0.0
 32
0.0
 14
0.0
 24
0.0
 34
0.0
 15
0.0
 25
0.0
 35
0.0
146
0.0
 13
0.0
 23
0.0
 33
0.0
 16
0.0
 26
0.0
 36
0.0
 17
0.0
 27
0.0
 37
0.0
 76
0
330
1B
331
0
345
0
346
0
  0
LAYOUT
  5
22
102
{ACAD_REACTORS
330
1A
102
}
100
AcDbPlotSettings
  1

  2

  4

  6

 40
0.0
 41
0.0
 42
0.0
 43
0.0
 44
0.0
 45
0.0
 46
0.0
 47
0.0
 48
0.0
 49
0.0
140
0.0
141
0.0
142
1.0
143
1.0
 70
0
 72
0
 73
0
 74
0
  7

 75
0
147
1.0
148
0.0
149
0.0
100
AcDbLayout
  1
Model
 70
0
 71
0
 10
0.0
 20
0.0
 11
0.0
 21
0.0
 12
0.0
 22
0.0
 32
0.0
 14
0.0
 24
0.0
 34
0.0
 15
0.0
 25
0.0
 35
0.0
146
0.0
 13
0.0
 23
0.0
 33
0.0
 16
0.0
 26
0.0
 36
0.0
 17
0.0
 27
0.0
 37
0.0
 76
0
330
1F
331
0
345
0
346
0
  0
ENDSEC
  0
EOF
