999
DXF file: RPEC-JAN.dxf
999
Pro/ENGINEER 2006240 by Parametric Technology Corporation
  0
SECTION
  2
HEADER
  9
$ACADVER
  1
AC1015
  9
$DWGCODEPAGE
  3
ANSI_1252
  9
$EXTMAX
 10
11.6929133858
 20
8.2677165354
 30
0.0
  9
$EXTMIN
 10
0.0
 20
0.0
 30
0.0
  9
$LIMMIN
 10
0.0
 20
0.0
  9
$LIMMAX
 10
11.6929133858
 20
8.2677165354
  9
$VIEWCTR
 10
5.8464566929
 20
4.1338582677
  9
$VIEWSIZE
 40
8.2677165354
  9
$CLAYER
  8
0
  9
$LTSCALE
 40
0.6431102362
  9
$CELTYPE
  6
BYLAYER
  9
$DIMSCALE
 40
1.0
  9
$DIMASZ
 40
0.1875
  9
$DIMEXO
 40
0.0730807087
  9
$DIMDLI
 40
0.4443307087
  9
$DIMEXE
 40
0.2104724409
  9
$DIMCEN
 40
0.1052362205
  9
$DIMLFAC
 40
1.0
  9
$DIMBLK
  1
_CLOSED
  9
$DIMTXT
 40
0.15625
  9
$DIMTOL
 70
0
  9
$DIMLIM
 70
0
  9
$DIMTFAC
 40
1.0
  9
$PDMODE
 70
3
  9
$PDSIZE
 40
0.3125
  9
$HANDSEED
  5
45F
  9
$MEASUREMENT
 70
0
  9
$INSUNITS
 70
1
  0
ENDSEC
  0
SECTION
  2
CLASSES
  0
CLASS
  1
ACDBDICTIONARYWDFLT
  2
AcDbDictionaryWithDefault
  3
AutoCAD 2000
 90
0
280
0
281
0
  0
CLASS
  1
ACDBPLACEHOLDER
  2
AcDbPlaceHolder
  3
AutoCAD 2000
 90
0
280
0
281
0
  0
CLASS
  1
LAYOUT
  2
AcDbLayout
  3
AutoCAD 2000
 90
0
280
0
281
0
  0
ENDSEC
  0
SECTION
  2
TABLES
  0
TABLE
  2
VPORT
  5
8
100
AcDbSymbolTable
 70
2
  0
VPORT
  5
1F4
100
AcDbSymbolTableRecord
100
AcDbViewportTableRecord
  2
*ACTIVE
 70
0
 10
0.0
 20
0.0
 11
1.0
 21
1.0
 12
5.8464566929
 22
4.1338582677
 13
0.0
 23
0.0
 14
1.0
 24
1.0
 15
0.0
 25
0.0
 16
0.0
 26
0.0
 36
1.0
 17
0.0
 27
0.0
 37
0.0
 40
8.2677165354
 41
1.4142857143
 42
50.0
 43
0.0
 44
0.0
 50
0.0
 51
0.0
 71
0
 72
100
 73
1
 74
1
 75
0
 76
0
 77
0
 78
0
  0
ENDTAB
  0
TABLE
  2
LTYPE
  5
5
100
AcDbSymbolTable
 70
6
  0
LTYPE
  5
14
100
AcDbSymbolTableRecord
100
AcDbLinetypeTableRecord
  2
BYBLOCK
 70
0
  3

 72
65
 73
0
 40
0.0
  0
LTYPE
  5
15
100
AcDbSymbolTableRecord
100
AcDbLinetypeTableRecord
  2
BYLAYER
 70
0
  3

 72
65
 73
0
 40
0.0
  0
LTYPE
  5
16
100
AcDbSymbolTableRecord
100
AcDbLinetypeTableRecord
  2
CONTINUOUS
 70
64
  3
Solid line
 72
65
 73
0
 40
0.0
  0
LTYPE
  5
1F5
100
AcDbSymbolTableRecord
100
AcDbLinetypeTableRecord
  2
CENTER
 70
64
  3
____ _ ____ _ ____ _ ____ _ ____ _ ____ _ ____
 72
65
 73
4
 40
0.6
 49
0.375
 74
0
 49
-0.075
 74
0
 49
0.075
 74
0
 49
-0.075
 74
0
  0
LTYPE
  5
1F6
100
AcDbSymbolTableRecord
100
AcDbLinetypeTableRecord
  2
HIDDEN
 70
64
  3
- - - - - - - - - - - - - - - - - - - -
 72
65
 73
2
 40
0.2
 49
0.1
 74
0
 49
-0.1
 74
0
  0
LTYPE
  5
1F7
100
AcDbSymbolTableRecord
100
AcDbLinetypeTableRecord
  2
PHANTOM
 70
64
  3
_____ _ _ _____ _ _ _____ _ _ _____
 72
65
 73
6
 40
0.8
 49
0.45
 74
0
 49
-0.05
 74
0
 49
0.1
 74
0
 49
-0.05
 74
0
 49
0.1
 74
0
 49
-0.05
 74
0
  0
LTYPE
  5
1F8
100
AcDbSymbolTableRecord
100
AcDbLinetypeTableRecord
  2
DOT
 70
64
  3
. . . . . . . . . . . . . . . . . . . .
 72
65
 73
2
 40
0.2
 49
0.1
 74
0
 49
-0.1
 74
0
  0
LTYPE
  5
1F9
100
AcDbSymbolTableRecord
100
AcDbLinetypeTableRecord
  2
DASHED
 70
64
  3
- - - - - - - - - - - - - - - - - - - -
 72
65
 73
2
 40
0.2
 49
0.1
 74
0
 49
-0.1
 74
0
  0
ENDTAB
  0
TABLE
  2
LAYER
  5
2
100
AcDbSymbolTable
 70
36
  0
LAYER
  5
10
100
AcDbSymbolTableRecord
100
AcDbLayerTableRecord
  2
0
 70
0
 62
7
  6
CONTINUOUS
370
-3
390
F
  0
LAYER
  5
1FA
100
AcDbSymbolTableRecord
100
AcDbLayerTableRecord
  2
DEFAULT_1
 70
0
 62
7
  6
CENTER
370
-3
390
F
  0
LAYER
  5
1FB
100
AcDbSymbolTableRecord
100
AcDbLayerTableRecord
  2
DEFAULT_2
 70
0
 62
8
  6
HIDDEN
370
-3
390
F
  0
LAYER
  5
1FC
100
AcDbSymbolTableRecord
100
AcDbLayerTableRecord
  2
DEFAULT_3
 70
0
 62
7
  6
PHANTOM
370
-3
390
F
  0
LAYER
  5
1FD
100
AcDbSymbolTableRecord
100
AcDbLayerTableRecord
  2
_BLACK_HOLE
 70
0
 62
7
  6
CONTINUOUS
370
-3
390
F
  0
LAYER
  5
1FE
100
AcDbSymbolTableRecord
100
AcDbLayerTableRecord
  2
01_ALL_DTM_PLN
 70
0
 62
7
  6
CONTINUOUS
370
-3
390
F
  0
LAYER
  5
1FF
100
AcDbSymbolTableRecord
100
AcDbLayerTableRecord
  2
01__ASM_ALL_DTM_PLN
 70
0
 62
7
  6
CONTINUOUS
370
-3
390
F
  0
LAYER
  5
200
100
AcDbSymbolTableRecord
100
AcDbLayerTableRecord
  2
01__ASM_DEF_DTM_PLN
 70
0
 62
7
  6
CONTINUOUS
370
-3
390
F
  0
LAYER
  5
201
100
AcDbSymbolTableRecord
100
AcDbLayerTableRecord
  2
01___PRT_ALL_DTM_PLN
 70
0
 62
7
  6
CONTINUOUS
370
-3
390
F
  0
LAYER
  5
202
100
AcDbSymbolTableRecord
100
AcDbLayerTableRecord
  2
01___PRT_DEF_DTM_PLN
 70
0
 62
7
  6
CONTINUOUS
370
-3
390
F
  0
LAYER
  5
203
100
AcDbSymbolTableRecord
100
AcDbLayerTableRecord
  2
02_ALL_AXES
 70
0
 62
7
  6
CONTINUOUS
370
-3
390
F
  0
LAYER
  5
204
100
AcDbSymbolTableRecord
100
AcDbLayerTableRecord
  2
02__ASM_ALL_AXES
 70
0
 62
7
  6
CONTINUOUS
370
-3
390
F
  0
LAYER
  5
205
100
AcDbSymbolTableRecord
100
AcDbLayerTableRecord
  2
02___PRT_ALL_AXES
 70
0
 62
7
  6
CONTINUOUS
370
-3
390
F
  0
LAYER
  5
206
100
AcDbSymbolTableRecord
100
AcDbLayerTableRecord
  2
03_ALL_CURVES
 70
0
 62
7
  6
CONTINUOUS
370
-3
390
F
  0
LAYER
  5
207
100
AcDbSymbolTableRecord
100
AcDbLayerTableRecord
  2
03__ASM_ALL_CURVES
 70
0
 62
7
  6
CONTINUOUS
370
-3
390
F
  0
LAYER
  5
208
100
AcDbSymbolTableRecord
100
AcDbLayerTableRecord
  2
03___PRT_ALL_CURVES
 70
0
 62
7
  6
CONTINUOUS
370
-3
390
F
  0
LAYER
  5
209
100
AcDbSymbolTableRecord
100
AcDbLayerTableRecord
  2
04_ALL_DTM_PNT
 70
0
 62
7
  6
CONTINUOUS
370
-3
390
F
  0
LAYER
  5
20A
100
AcDbSymbolTableRecord
100
AcDbLayerTableRecord
  2
04__ASM_ALL_DTM_PNT
 70
0
 62
7
  6
CONTINUOUS
370
-3
390
F
  0
LAYER
  5
20B
100
AcDbSymbolTableRecord
100
AcDbLayerTableRecord
  2
04___PRT_ALL_DTM_PNT
 70
0
 62
7
  6
CONTINUOUS
370
-3
390
F
  0
LAYER
  5
20C
100
AcDbSymbolTableRecord
100
AcDbLayerTableRecord
  2
05_ALL_DTM_CSYS
 70
0
 62
7
  6
CONTINUOUS
370
-3
390
F
  0
LAYER
  5
20D
100
AcDbSymbolTableRecord
100
AcDbLayerTableRecord
  2
05__ASM_ALL_DTM_CSYS
 70
0
 62
7
  6
CONTINUOUS
370
-3
390
F
  0
LAYER
  5
20E
100
AcDbSymbolTableRecord
100
AcDbLayerTableRecord
  2
05__ASM_DEF_DTM_CSYS
 70
0
 62
7
  6
CONTINUOUS
370
-3
390
F
  0
LAYER
  5
20F
100
AcDbSymbolTableRecord
100
AcDbLayerTableRecord
  2
05___PRT_ALL_DTM_CSYS
 70
0
 62
7
  6
CONTINUOUS
370
-3
390
F
  0
LAYER
  5
210
100
AcDbSymbolTableRecord
100
AcDbLayerTableRecord
  2
05___PRT_DEF_DTM_CSYS
 70
0
 62
7
  6
CONTINUOUS
370
-3
390
F
  0
LAYER
  5
211
100
AcDbSymbolTableRecord
100
AcDbLayerTableRecord
  2
06_ALL_SURFS
 70
0
 62
7
  6
CONTINUOUS
370
-3
390
F
  0
LAYER
  5
212
100
AcDbSymbolTableRecord
100
AcDbLayerTableRecord
  2
06__ASM_ALL_SURFS
 70
0
 62
7
  6
CONTINUOUS
370
-3
390
F
  0
LAYER
  5
213
100
AcDbSymbolTableRecord
100
AcDbLayerTableRecord
  2
06___PRT_ALL_SURFS
 70
0
 62
7
  6
CONTINUOUS
370
-3
390
F
  0
LAYER
  5
214
100
AcDbSymbolTableRecord
100
AcDbLayerTableRecord
  2
07__ASM_ALL_SKELETONS
 70
0
 62
7
  6
CONTINUOUS
370
-3
390
F
  0
LAYER
  5
215
100
AcDbSymbolTableRecord
100
AcDbLayerTableRecord
  2
126-002_HEX_FEATURES
 70
0
 62
7
  6
CONTINUOUS
370
-3
390
F
  0
LAYER
  5
216
100
AcDbSymbolTableRecord
100
AcDbLayerTableRecord
  2
126-002_REF_GEOMETRY
 70
0
 62
7
  6
CONTINUOUS
370
-3
390
F
  0
LAYER
  5
217
100
AcDbSymbolTableRecord
100
AcDbLayerTableRecord
  2
126-100_HEX_FEATURES
 70
0
 62
7
  6
CONTINUOUS
370
-3
390
F
  0
LAYER
  5
218
100
AcDbSymbolTableRecord
100
AcDbLayerTableRecord
  2
126-100_REF_GEOMETRY
 70
0
 62
7
  6
CONTINUOUS
370
-3
390
F
  0
LAYER
  5
219
100
AcDbSymbolTableRecord
100
AcDbLayerTableRecord
  2
126-101_HEX_FEATURES
 70
0
 62
7
  6
CONTINUOUS
370
-3
390
F
  0
LAYER
  5
21A
100
AcDbSymbolTableRecord
100
AcDbLayerTableRecord
  2
126-101_REF_GEOMETRY
 70
0
 62
7
  6
CONTINUOUS
370
-3
390
F
  0
LAYER
  5
21B
100
AcDbSymbolTableRecord
100
AcDbLayerTableRecord
  2
126-102_HEX_FEATURES
 70
0
 62
7
  6
CONTINUOUS
370
-3
390
F
  0
LAYER
  5
21C
100
AcDbSymbolTableRecord
100
AcDbLayerTableRecord
  2
126-102_REF_GEOMETRY
 70
0
 62
7
  6
CONTINUOUS
370
-3
390
F
  0
LAYER
  5
21D
100
AcDbSymbolTableRecord
100
AcDbLayerTableRecord
  2
126-103_HEX_FEATURES
 70
0
 62
7
  6
CONTINUOUS
370
-3
390
F
  0
LAYER
  5
21E
100
AcDbSymbolTableRecord
100
AcDbLayerTableRecord
  2
126-103_REF_GEOMETRY
 70
0
 62
7
  6
CONTINUOUS
370
-3
390
F
  0
LAYER
  5
21F
100
AcDbSymbolTableRecord
100
AcDbLayerTableRecord
  2
126-104_HEX_FEATURES
 70
0
 62
7
  6
CONTINUOUS
370
-3
390
F
  0
LAYER
  5
220
100
AcDbSymbolTableRecord
100
AcDbLayerTableRecord
  2
126-104_REF_GEOMETRY
 70
0
 62
7
  6
CONTINUOUS
370
-3
390
F
  0
LAYER
  5
221
100
AcDbSymbolTableRecord
100
AcDbLayerTableRecord
  2
250-19_BSPP_PORT_PER_S-186
 70
0
 62
7
  6
CONTINUOUS
370
-3
390
F
  0
LAYER
  5
222
100
AcDbSymbolTableRecord
100
AcDbLayerTableRecord
  2
375-002
 70
0
 62
7
  6
CONTINUOUS
370
-3
390
F
  0
LAYER
  5
223
100
AcDbSymbolTableRecord
100
AcDbLayerTableRecord
  2
375-003
 70
0
 62
7
  6
CONTINUOUS
370
-3
390
F
  0
LAYER
  5
224
100
AcDbSymbolTableRecord
100
AcDbLayerTableRecord
  2
COPY_GEO_FET
 70
0
 62
7
  6
CONTINUOUS
370
-3
390
F
  0
LAYER
  5
225
100
AcDbSymbolTableRecord
100
AcDbLayerTableRecord
  2
COSMESTIC
 70
0
 62
7
  6
CONTINUOUS
370
-3
390
F
  0
LAYER
  5
226
100
AcDbSymbolTableRecord
100
AcDbLayerTableRecord
  2
COSMETIC
 70
0
 62
7
  6
CONTINUOUS
370
-3
390
F
  0
LAYER
  5
227
100
AcDbSymbolTableRecord
100
AcDbLayerTableRecord
  2
COSM_REF
 70
0
 62
7
  6
CONTINUOUS
370
-3
390
F
  0
LAYER
  5
228
100
AcDbSymbolTableRecord
100
AcDbLayerTableRecord
  2
CURVES
 70
0
 62
7
  6
CONTINUOUS
370
-3
390
F
  0
LAYER
  5
229
100
AcDbSymbolTableRecord
100
AcDbLayerTableRecord
  2
CUT_REF_SURF
 70
0
 62
7
  6
CONTINUOUS
370
-3
390
F
  0
LAYER
  5
22A
100
AcDbSymbolTableRecord
100
AcDbLayerTableRecord
  2
DATUM
 70
0
 62
7
  6
CONTINUOUS
370
-3
390
F
  0
LAYER
  5
22B
100
AcDbSymbolTableRecord
100
AcDbLayerTableRecord
  2
DATUMCURVES
 70
0
 62
7
  6
CONTINUOUS
370
-3
390
F
  0
LAYER
  5
22C
100
AcDbSymbolTableRecord
100
AcDbLayerTableRecord
  2
DATUM_ADDED_280-022
 70
0
 62
7
  6
CONTINUOUS
370
-3
390
F
  0
LAYER
  5
22D
100
AcDbSymbolTableRecord
100
AcDbLayerTableRecord
  2
DATUM_PLANES
 70
0
 62
7
  6
CONTINUOUS
370
-3
390
F
  0
LAYER
  5
22E
100
AcDbSymbolTableRecord
100
AcDbLayerTableRecord
  2
DIMENSIONS
 70
0
 62
7
  6
CONTINUOUS
370
-3
390
F
  0
LAYER
  5
22F
100
AcDbSymbolTableRecord
100
AcDbLayerTableRecord
  2
DRAWINGNOTES
 70
0
 62
7
  6
CONTINUOUS
370
-3
390
F
  0
LAYER
  5
230
100
AcDbSymbolTableRecord
100
AcDbLayerTableRecord
  2
DTM
 70
0
 62
7
  6
CONTINUOUS
370
-3
390
F
  0
LAYER
  5
231
100
AcDbSymbolTableRecord
100
AcDbLayerTableRecord
  2
DTM_280-022
 70
0
 62
7
  6
CONTINUOUS
370
-3
390
F
  0
LAYER
  5
232
100
AcDbSymbolTableRecord
100
AcDbLayerTableRecord
  2
DTM_500001
 70
0
 62
7
  6
CONTINUOUS
370
-3
390
F
  0
LAYER
  5
233
100
AcDbSymbolTableRecord
100
AcDbLayerTableRecord
  2
DTM_500002
 70
0
 62
7
  6
CONTINUOUS
370
-3
390
F
  0
LAYER
  5
234
100
AcDbSymbolTableRecord
100
AcDbLayerTableRecord
  2
DTM_515002
 70
0
 62
7
  6
CONTINUOUS
370
-3
390
F
  0
LAYER
  5
235
100
AcDbSymbolTableRecord
100
AcDbLayerTableRecord
  2
DTM_700-003
 70
0
 62
7
  6
CONTINUOUS
370
-3
390
F
  0
LAYER
  5
236
100
AcDbSymbolTableRecord
100
AcDbLayerTableRecord
  2
DTM_800001
 70
0
 62
7
  6
CONTINUOUS
370
-3
390
F
  0
LAYER
  5
237
100
AcDbSymbolTableRecord
100
AcDbLayerTableRecord
  2
DTM_ADJ_CAP
 70
0
 62
7
  6
CONTINUOUS
370
-3
390
F
  0
LAYER
  5
238
100
AcDbSymbolTableRecord
100
AcDbLayerTableRecord
  2
DTM_BALLHOLDER
 70
0
 62
7
  6
CONTINUOUS
370
-3
390
F
  0
LAYER
  5
239
100
AcDbSymbolTableRecord
100
AcDbLayerTableRecord
  2
DTM_ORIFICE_SEAT
 70
0
 62
7
  6
CONTINUOUS
370
-3
390
F
  0
LAYER
  5
23A
100
AcDbSymbolTableRecord
100
AcDbLayerTableRecord
  2
DTM_SPRING_LH
 70
0
 62
7
  6
CONTINUOUS
370
-3
390
F
  0
LAYER
  5
23B
100
AcDbSymbolTableRecord
100
AcDbLayerTableRecord
  2
DTM_SP_LH_CONSTR
 70
0
 62
7
  6
CONTINUOUS
370
-3
390
F
  0
LAYER
  5
23C
100
AcDbSymbolTableRecord
100
AcDbLayerTableRecord
  2
FACE1
 70
0
 62
7
  6
CONTINUOUS
370
-3
390
F
  0
LAYER
  5
23D
100
AcDbSymbolTableRecord
100
AcDbLayerTableRecord
  2
FACE2
 70
0
 62
7
  6
CONTINUOUS
370
-3
390
F
  0
LAYER
  5
23E
100
AcDbSymbolTableRecord
100
AcDbLayerTableRecord
  2
FACE3
 70
0
 62
7
  6
CONTINUOUS
370
-3
390
F
  0
LAYER
  5
23F
100
AcDbSymbolTableRecord
100
AcDbLayerTableRecord
  2
FACE4
 70
0
 62
7
  6
CONTINUOUS
370
-3
390
F
  0
LAYER
  5
240
100
AcDbSymbolTableRecord
100
AcDbLayerTableRecord
  2
GEOMETRICTOLERANCES
 70
0
 62
7
  6
CONTINUOUS
370
-3
390
F
  0
LAYER
  5
241
100
AcDbSymbolTableRecord
100
AcDbLayerTableRecord
  2
HOLE_FEATURES
 70
0
 62
7
  6
CONTINUOUS
370
-3
390
F
  0
LAYER
  5
242
100
AcDbSymbolTableRecord
100
AcDbLayerTableRecord
  2
LOCKWIRE
 70
0
 62
7
  6
CONTINUOUS
370
-3
390
F
  0
LAYER
  5
243
100
AcDbSymbolTableRecord
100
AcDbLayerTableRecord
  2
PARAMETERDIMENSIONS
 70
0
 62
7
  6
CONTINUOUS
370
-3
390
F
  0
LAYER
  5
244
100
AcDbSymbolTableRecord
100
AcDbLayerTableRecord
  2
PLANE
 70
0
 62
7
  6
CONTINUOUS
370
-3
390
F
  0
LAYER
  5
245
100
AcDbSymbolTableRecord
100
AcDbLayerTableRecord
  2
PROTRUSIONS
 70
0
 62
7
  6
CONTINUOUS
370
-3
390
F
  0
LAYER
  5
246
100
AcDbSymbolTableRecord
100
AcDbLayerTableRecord
  2
STD_SAE-4_PORT
 70
0
 62
7
  6
CONTINUOUS
370
-3
390
F
  0
LAYER
  5
247
100
AcDbSymbolTableRecord
100
AcDbLayerTableRecord
  2
STD_SAE-6_PORT
 70
0
 62
7
  6
CONTINUOUS
370
-3
390
F
  0
LAYER
  5
248
100
AcDbSymbolTableRecord
100
AcDbLayerTableRecord
  2
T-8A_CAVITY
 70
0
 62
7
  6
CONTINUOUS
370
-3
390
F
  0
LAYER
  5
249
100
AcDbSymbolTableRecord
100
AcDbLayerTableRecord
  2
T-8A_CAVITY_REF_GEOMETRY
 70
0
 62
7
  6
CONTINUOUS
370
-3
390
F
  0
LAYER
  5
24A
100
AcDbSymbolTableRecord
100
AcDbLayerTableRecord
  2
TEXT
 70
0
 62
7
  6
CONTINUOUS
370
-3
390
F
  0
LAYER
  5
24B
100
AcDbSymbolTableRecord
100
AcDbLayerTableRecord
  2
THREAD
 70
0
 62
7
  6
CONTINUOUS
370
-3
390
F
  0
LAYER
  5
24C
100
AcDbSymbolTableRecord
100
AcDbLayerTableRecord
  2
XSEC_DATUMS
 70
0
 62
7
  6
CONTINUOUS
370
-3
390
F
  0
ENDTAB
  0
TABLE
  2
STYLE
  5
3
100
AcDbSymbolTable
 70
1
  0
STYLE
  5
11
100
AcDbSymbolTableRecord
100
AcDbTextStyleTableRecord
  2
STANDARD
 70
0
 40
0.0
 41
0.8
 50
0.0
 71
0
 42
0.2
  3
txt
  4

  0
ENDTAB
  0
TABLE
  2
VIEW
  5
6
100
AcDbSymbolTable
 70
0
  0
ENDTAB
  0
TABLE
  2
UCS
  5
7
100
AcDbSymbolTable
 70
0
  0
ENDTAB
  0
TABLE
  2
APPID
  5
9
100
AcDbSymbolTable
 70
1
  0
APPID
  5
24D
100
AcDbSymbolTableRecord
100
AcDbRegAppTableRecord
  2
ACAD
 70
0
  0
ENDTAB
  0
TABLE
  2
BLOCK_RECORD
  5
1
100
AcDbSymbolTable
 70
0
  0
BLOCK_RECORD
  5
1F
100
AcDbSymbolTableRecord
100
AcDbBlockTableRecord
  2
*MODEL_SPACE
  0
BLOCK_RECORD
  5
1B
100
AcDbSymbolTableRecord
100
AcDbBlockTableRecord
  2
*PAPER_SPACE
  0
ENDTAB
  0
TABLE
  2
DIMSTYLE
  5
A
100
AcDbSymbolTable
 70
1
100
AcDbDimStyleTable
 71
0
  0
DIMSTYLE
105
24E
100
AcDbSymbolTableRecord
100
AcDbDimStyleTableRecord
  2
STANDARD
 70
0
  3

  4

 40
1.0
 41
0.1875
 42
0.0625
 43
0.38
 44
0.18
 45
0.0
 46
0.0
 47
0.01
 48
0.01
140
0.15625
141
0.09
142
0.0
143
25.4
144
1.0
145
0.0
146
1.0
147
0.09
 71
0.0
 72
0.0
 73
1
 74
1
 75
0
 76
0
 77
0
 78
4
170
0
171
2
172
0
173
0
174
0
175
0
176
0
177
0
178
0
270
2
271
2
272
2
273
2
274
2
275
0
280
0
281
0
282
0
283
1
284
4
285
0
286
0
287
3
288
0
340
11
  0
ENDTAB
  0
ENDSEC
  0
SECTION
  2
BLOCKS
  0
BLOCK
  5
20
100
AcDbEntity
  8
0
100
AcDbBlockBegin
  2
*MODEL_SPACE
 70
0
 10
0.0
 20
0.0
 30
0.0
  3
*MODEL_SPACE
  1

  0
ENDBLK
  5
21
100
AcDbEntity
  8
0
100
AcDbBlockEnd
  0
BLOCK
  5
1C
100
AcDbEntity
  8
0
100
AcDbBlockBegin
  2
*PAPER_SPACE
 70
0
 10
0.0
 20
0.0
 30
0.0
  3
*PAPER_SPACE
  1

  0
ENDBLK
  5
1D
100
AcDbEntity
  8
0
100
AcDbBlockEnd
  0
ENDSEC
  0
SECTION
  2
ENTITIES
  0
LINE
  5
24F
100
AcDbEntity
  8
0
100
AcDbLine
 62
7
  6
CONTINUOUS
 10
3.9475481062
 20
3.9601084326
 11
3.9475481062
 21
4.5221084326
  0
LINE
  5
250
100
AcDbEntity
  8
03__ASM_ALL_CURVES
100
AcDbLine
 62
40
  6
CONTINUOUS
 10
3.9475481062
 20
4.5221084326
 11
3.9475481062
 21
4.9538764326
  0
LINE
  5
251
100
AcDbEntity
  8
03__ASM_ALL_CURVES
100
AcDbLine
 62
40
  6
CONTINUOUS
 10
4.0179281062
 20
4.9421464326
 11
4.0179281062
 21
4.9186864326
  0
LINE
  5
252
100
AcDbEntity
  8
03__ASM_ALL_CURVES
100
AcDbLine
 62
40
  6
CONTINUOUS
 10
4.4246481062
 20
5.0242564326
 11
4.4246481062
 21
4.9538764326
  0
LINE
  5
253
100
AcDbEntity
  8
03__ASM_ALL_CURVES
100
AcDbLine
 62
40
  6
CONTINUOUS
 10
4.5478131062
 20
5.000796434
 11
4.5522118562
 21
5.0125264312
  0
LINE
  5
254
100
AcDbEntity
  8
03__ASM_ALL_CURVES
100
AcDbLine
 62
40
  6
CONTINUOUS
 10
4.5478131062
 20
4.9773364333
 11
4.5522118562
 21
4.9890664326
  0
LINE
  5
255
100
AcDbEntity
  8
03__ASM_ALL_CURVES
100
AcDbLine
 62
40
  6
CONTINUOUS
 10
4.5830031062
 20
4.9773364333
 11
4.5786043562
 21
4.9656064329
  0
LINE
  5
256
100
AcDbEntity
  8
03__ASM_ALL_CURVES
100
AcDbLine
 62
40
  6
CONTINUOUS
 10
4.6577818562
 20
4.9773364333
 11
4.6533831062
 21
4.9656064329
  0
LINE
  5
257
100
AcDbEntity
  8
03__ASM_ALL_CURVES
100
AcDbLine
 62
40
  6
CONTINUOUS
 10
4.5522118562
 20
5.0125264312
 11
4.5566106062
 21
5.018391434
  0
LINE
  5
258
100
AcDbEntity
  8
03__ASM_ALL_CURVES
100
AcDbLine
 62
40
  6
CONTINUOUS
 10
4.5786043562
 20
4.9656064329
 11
4.5742056062
 21
4.9597414328
  0
LINE
  5
259
100
AcDbEntity
  8
03__ASM_ALL_CURVES
100
AcDbLine
 62
40
  6
CONTINUOUS
 10
4.6533831062
 20
4.9656064329
 11
4.6489843562
 21
4.9597414328
  0
LINE
  5
25A
100
AcDbEntity
  8
03__ASM_ALL_CURVES
100
AcDbLine
 62
40
  6
CONTINUOUS
 10
4.7105668562
 20
5.0242564326
 11
4.7017693562
 21
5.0125264312
  0
LINE
  5
25B
100
AcDbEntity
  8
03__ASM_ALL_CURVES
100
AcDbLine
 62
40
  6
CONTINUOUS
 10
4.4906293562
 20
4.9538764326
 11
4.4906293562
 21
4.9597414328
  0
LINE
  5
25C
100
AcDbEntity
  8
0
100
AcDbLine
 62
7
  6
CONTINUOUS
 10
4.5435481062
 20
3.9601084326
 11
4.5435481062
 21
4.5221084326
  0
LINE
  5
25D
100
AcDbEntity
  8
03__ASM_ALL_CURVES
100
AcDbLine
 62
40
  6
CONTINUOUS
 10
4.5478131062
 20
4.9773364333
 11
4.5478131062
 21
5.000796434
  0
LINE
  5
25E
100
AcDbEntity
  8
0
100
AcDbLine
 62
7
  6
CONTINUOUS
 10
4.6055481062
 20
3.9701084326
 11
4.6055481062
 21
4.5121084326
  0
LINE
  5
25F
100
AcDbEntity
  8
0
100
AcDbLine
 62
7
  6
CONTINUOUS
 10
4.6115481062
 20
3.9701084326
 11
4.6115481062
 21
4.5121084326
  0
LINE
  5
260
100
AcDbEntity
  8
0
100
AcDbLine
 62
7
  6
CONTINUOUS
 10
4.6170481062
 20
3.9756084326
 11
4.6170481062
 21
4.5066084326
  0
LINE
  5
261
100
AcDbEntity
  8
03__ASM_ALL_CURVES
100
AcDbLine
 62
40
  6
CONTINUOUS
 10
4.6269906062
 20
5.0242564326
 11
4.6225918562
 21
4.9949314312
  0
LINE
  5
262
100
AcDbEntity
  8
03__ASM_ALL_CURVES
100
AcDbLine
 62
40
  6
CONTINUOUS
 10
4.7017693562
 20
5.0125264312
 11
4.6973706062
 21
4.9949314312
  0
LINE
  5
263
100
AcDbEntity
  8
03__ASM_ALL_CURVES
100
AcDbLine
 62
40
  6
CONTINUOUS
 10
4.7897443562
 20
5.0242564326
 11
4.7589531062
 21
4.9714714326
  0
LINE
  5
264
100
AcDbEntity
  8
03__ASM_ALL_CURVES
100
AcDbLine
 62
40
  6
CONTINUOUS
 10
4.5566106062
 20
5.018391434
 11
4.5654081062
 21
5.0242564326
  0
LINE
  5
265
100
AcDbEntity
  8
03__ASM_ALL_CURVES
100
AcDbLine
 62
40
  6
CONTINUOUS
 10
4.6225918562
 20
4.9949314312
 11
4.6313893562
 21
5.000796434
  0
LINE
  5
266
100
AcDbEntity
  8
03__ASM_ALL_CURVES
100
AcDbLine
 62
40
  6
CONTINUOUS
 10
4.5742056062
 20
4.9597414328
 11
4.5654081062
 21
4.9538764326
  0
LINE
  5
267
100
AcDbEntity
  8
03__ASM_ALL_CURVES
100
AcDbLine
 62
40
  6
CONTINUOUS
 10
4.6489843562
 20
4.9597414328
 11
4.6401868562
 21
4.9538764326
  0
LINE
  5
268
100
AcDbEntity
  8
0
100
AcDbLine
 62
7
  6
CONTINUOUS
 10
4.6330481062
 20
3.9756084326
 11
4.6330481062
 21
4.5066084326
  0
LINE
  5
269
100
AcDbEntity
  8
03__ASM_ALL_CURVES
100
AcDbLine
 62
40
  6
CONTINUOUS
 10
4.6973706062
 20
4.9949314312
 11
4.6973706062
 21
4.9832014319
  0
LINE
  5
26A
100
AcDbEntity
  8
03__ASM_ALL_CURVES
100
AcDbLine
 62
40
  6
CONTINUOUS
 10
4.9744918562
 20
5.0125264312
 11
4.9788906062
 21
5.018391434
  0
LINE
  5
26B
100
AcDbEntity
  8
03__ASM_ALL_CURVES
100
AcDbLine
 62
40
  6
CONTINUOUS
 10
5.0008843562
 20
4.9656064329
 11
4.9964856062
 21
4.9597414328
  0
LINE
  5
26C
100
AcDbEntity
  8
03__ASM_ALL_CURVES
100
AcDbLine
 62
40
  6
CONTINUOUS
 10
4.9788906062
 20
5.018391434
 11
4.9876881062
 21
5.0242564326
  0
LINE
  5
26D
100
AcDbEntity
  8
03__ASM_ALL_CURVES
100
AcDbLine
 62
40
  6
CONTINUOUS
 10
4.5522118562
 20
4.9890664326
 11
4.5654081062
 21
4.9949314312
  0
LINE
  5
26E
100
AcDbEntity
  8
0
100
AcDbLine
 62
7
  6
CONTINUOUS
 10
4.6485488918
 20
3.960107647
 11
4.6330481062
 21
3.9756084326
  0
LINE
  5
26F
100
AcDbEntity
  8
THREAD
100
AcDbLine
 62
7
  6
CONTINUOUS
 10
4.8896117721
 20
3.7521084326
 11
4.8555481062
 21
3.8111084326
  0
LINE
  5
270
100
AcDbEntity
  8
03__ASM_ALL_CURVES
100
AcDbLine
 62
40
  6
CONTINUOUS
 10
4.7897443562
 20
4.9538764326
 11
4.7897443562
 21
5.0242564326
  0
LINE
  5
271
100
AcDbEntity
  8
0
100
AcDbLine
 62
7
  6
CONTINUOUS
 10
4.8245481062
 20
3.9701084326
 11
4.8245481062
 21
4.5121084326
  0
LINE
  5
272
100
AcDbEntity
  8
03__ASM_ALL_CURVES
100
AcDbLine
 62
40
  6
CONTINUOUS
 10
4.8469281062
 20
5.0242564326
 11
4.8469281062
 21
4.9538764326
  0
LINE
  5
273
100
AcDbEntity
  8
THREAD
100
AcDbLine
 62
7
  6
CONTINUOUS
 10
4.8555481062
 20
3.8111084326
 11
4.8555481062
 21
4.6711084326
  0
LINE
  5
274
100
AcDbEntity
  8
03__ASM_ALL_CURVES
100
AcDbLine
 62
40
  6
CONTINUOUS
 10
4.9700931062
 20
5.000796434
 11
4.9744918562
 21
5.0125264312
  0
LINE
  5
275
100
AcDbEntity
  8
03__ASM_ALL_CURVES
100
AcDbLine
 62
40
  6
CONTINUOUS
 10
5.0052831062
 20
5.000796434
 11
5.0008843562
 21
4.9890664326
  0
LINE
  5
276
100
AcDbEntity
  8
03__ASM_ALL_CURVES
100
AcDbLine
 62
40
  6
CONTINUOUS
 10
5.0052831062
 20
4.9773364333
 11
5.0008843562
 21
4.9656064329
  0
LINE
  5
277
100
AcDbEntity
  8
THREAD
100
AcDbLine
 62
7
  6
CONTINUOUS
 10
4.8896117721
 20
4.7301084326
 11
4.8555481062
 21
4.6711084326
  0
LINE
  5
278
100
AcDbEntity
  8
03__ASM_ALL_CURVES
100
AcDbLine
 62
40
  6
CONTINUOUS
 10
5.1328468562
 20
4.9656064329
 11
5.1240493562
 21
4.9538764326
  0
LINE
  5
279
100
AcDbEntity
  8
0
100
AcDbLine
 62
7
  6
CONTINUOUS
 10
4.6485488918
 20
4.5221092182
 11
4.6330481062
 21
4.5066084326
  0
LINE
  5
27A
100
AcDbEntity
  8
03__ASM_ALL_CURVES
100
AcDbLine
 62
40
  6
CONTINUOUS
 10
4.9964856062
 20
4.9597414328
 11
4.9876881062
 21
4.9538764326
  0
LINE
  5
27B
100
AcDbEntity
  8
03__ASM_ALL_CURVES
100
AcDbLine
 62
40
  6
CONTINUOUS
 10
5.0008843562
 20
4.9890664326
 11
4.9876881062
 21
4.9832014319
  0
LINE
  5
27C
100
AcDbEntity
  8
03__ASM_ALL_CURVES
100
AcDbLine
 62
40
  6
CONTINUOUS
 10
4.5522118562
 20
4.9656064329
 11
4.5478131062
 21
4.9773364333
  0
LINE
  5
27D
100
AcDbEntity
  8
THREAD
100
AcDbLine
 62
7
  6
CONTINUOUS
 10
4.8896117721
 20
3.7521084326
 11
4.8896117721
 21
3.7530059601
  0
LINE
  5
27E
100
AcDbEntity
  8
THREAD
100
AcDbLine
 62
7
  6
CONTINUOUS
 10
4.8896117721
 20
3.9714109051
 11
4.8896117721
 21
4.0227034876
  0
LINE
  5
27F
100
AcDbEntity
  8
THREAD
100
AcDbLine
 62
7
  6
CONTINUOUS
 10
4.8896117721
 20
4.4595133776
 11
4.8896117721
 21
4.5108059601
  0
LINE
  5
280
100
AcDbEntity
  8
THREAD
100
AcDbLine
 62
7
  6
CONTINUOUS
 10
4.8896117721
 20
4.7292109051
 11
4.8896117721
 21
4.7301084326
  0
LINE
  5
281
100
AcDbEntity
  8
03__ASM_ALL_CURVES
100
AcDbLine
 62
40
  6
CONTINUOUS
 10
4.9129093562
 20
4.9538764326
 11
4.9129093562
 21
4.9597414328
  0
LINE
  5
282
100
AcDbEntity
  8
03__ASM_ALL_CURVES
100
AcDbLine
 62
40
  6
CONTINUOUS
 10
5.0052831062
 20
5.000796434
 11
5.0052831062
 21
4.9773364333
  0
LINE
  5
283
100
AcDbEntity
  8
03__ASM_ALL_CURVES
100
AcDbLine
 62
40
  6
CONTINUOUS
 10
5.1372456062
 20
4.9832014319
 11
5.1328468562
 21
4.9656064329
  0
LINE
  5
284
100
AcDbEntity
  8
03__ASM_ALL_CURVES
100
AcDbLine
 62
40
  6
CONTINUOUS
 10
4.5786043562
 20
4.9890664326
 11
4.5830031062
 21
4.9773364333
  0
LINE
  5
285
100
AcDbEntity
  8
03__ASM_ALL_CURVES
100
AcDbLine
 62
40
  6
CONTINUOUS
 10
4.6533831062
 20
4.9890664326
 11
4.6577818562
 21
4.9773364333
  0
LINE
  5
286
100
AcDbEntity
  8
03__ASM_ALL_CURVES
100
AcDbLine
 62
40
  6
CONTINUOUS
 10
4.6973706062
 20
4.9832014319
 11
4.7017693562
 21
4.9656064329
  0
LINE
  5
287
100
AcDbEntity
  8
03__ASM_ALL_CURVES
100
AcDbLine
 62
40
  6
CONTINUOUS
 10
5.0580681062
 20
5.0242564326
 11
5.0580681062
 21
4.9538764326
  0
LINE
  5
288
100
AcDbEntity
  8
03__ASM_ALL_CURVES
100
AcDbLine
 62
40
  6
CONTINUOUS
 10
5.1372456062
 20
4.9949314312
 11
5.1372456062
 21
4.9832014319
  0
LINE
  5
289
100
AcDbEntity
  8
0
100
AcDbLine
 62
7
  6
CONTINUOUS
 10
4.8245481062
 20
3.9701084326
 11
4.8184533341
 21
3.9595519776
  0
LINE
  5
28A
100
AcDbEntity
  8
03__ASM_ALL_CURVES
100
AcDbLine
 62
40
  6
CONTINUOUS
 10
6.7615714069
 20
3.5500784326
 11
6.7351789069
 21
3.5500784326
  0
LINE
  5
28B
100
AcDbEntity
  8
03__ASM_ALL_CURVES
100
AcDbLine
 62
40
  6
CONTINUOUS
 10
6.5933192194
 20
3.5500784326
 11
6.5867210944
 21
3.5500784326
  0
LINE
  5
28C
100
AcDbEntity
  8
03__ASM_ALL_CURVES
100
AcDbLine
 62
40
  6
CONTINUOUS
 10
6.5405342194
 20
3.5500784326
 11
6.5339360944
 21
3.5500784326
  0
LINE
  5
28D
100
AcDbEntity
  8
03__ASM_ALL_CURVES
100
AcDbLine
 62
40
  6
CONTINUOUS
 10
6.6823939069
 20
3.5500784326
 11
6.7087864069
 21
3.5500784326
  0
LINE
  5
28E
100
AcDbEntity
  8
03__ASM_ALL_CURVES
100
AcDbLine
 62
40
  6
CONTINUOUS
 10
6.7351789069
 20
3.5764709326
 11
6.7516742194
 21
3.5764709326
  0
LINE
  5
28F
100
AcDbEntity
  8
03__ASM_ALL_CURVES
100
AcDbLine
 62
40
  6
CONTINUOUS
 10
6.5339360944
 20
3.6028634326
 11
6.5405342194
 21
3.6028634326
  0
LINE
  5
290
100
AcDbEntity
  8
03__ASM_ALL_CURVES
100
AcDbLine
 62
40
  6
CONTINUOUS
 10
6.6263098444
 20
3.6028634326
 11
6.6593004694
 21
3.6028634326
  0
LINE
  5
291
100
AcDbEntity
  8
03__ASM_ALL_CURVES
100
AcDbLine
 62
40
  6
CONTINUOUS
 10
6.7351789069
 20
3.6028634326
 11
6.7615714069
 21
3.6028634326
  0
LINE
  5
292
100
AcDbEntity
  8
03__ASM_ALL_CURVES
100
AcDbLine
 62
40
  6
CONTINUOUS
 10
6.7846648444
 20
3.6028634326
 11
6.8176554694
 21
3.6028634326
  0
LINE
  5
293
100
AcDbEntity
  8
03__ASM_ALL_CURVES
100
AcDbLine
 62
40
  6
CONTINUOUS
 10
6.6180621701
 20
3.6263234326
 11
6.6114640451
 21
3.6263234326
  0
LINE
  5
294
100
AcDbEntity
  8
03__ASM_ALL_CURVES
100
AcDbLine
 62
40
  6
CONTINUOUS
 10
6.7599218576
 20
3.6263234326
 11
6.7863143576
 21
3.6263234326
  0
LINE
  5
295
100
AcDbEntity
  8
0
100
AcDbLine
 62
7
  6
CONTINUOUS
 10
4.6170481062
 20
4.5066084326
 11
4.6115481062
 21
4.5121084326
  0
LINE
  5
296
100
AcDbEntity
  8
0
100
AcDbLine
 62
7
  6
CONTINUOUS
 10
4.8245481062
 20
4.5121084326
 11
4.8184533341
 21
4.5226648876
  0
LINE
  5
297
100
AcDbEntity
  8
0
100
AcDbLine
 62
7
  6
CONTINUOUS
 10
4.6170481062
 20
3.9756084326
 11
4.6115481062
 21
3.9701084326
  0
LINE
  5
298
100
AcDbEntity
  8
03__ASM_ALL_CURVES
100
AcDbLine
 62
40
  6
CONTINUOUS
 10
5.7741668557
 20
5.018391434
 11
5.7829643557
 21
5.0242564326
  0
LINE
  5
299
100
AcDbEntity
  8
03__ASM_ALL_CURVES
100
AcDbLine
 62
40
  6
CONTINUOUS
 10
5.8445468557
 20
5.018391434
 11
5.8533443557
 21
5.0242564326
  0
LINE
  5
29A
100
AcDbEntity
  8
03__ASM_ALL_CURVES
100
AcDbLine
 62
40
  6
CONTINUOUS
 10
5.8005593557
 20
4.9597414328
 11
5.7917618557
 21
4.9538764326
  0
LINE
  5
29B
100
AcDbEntity
  8
03__ASM_ALL_CURVES
100
AcDbLine
 62
40
  6
CONTINUOUS
 10
5.8709393557
 20
4.9597414328
 11
5.8621418557
 21
4.9538764326
  0
LINE
  5
29C
100
AcDbEntity
  8
03__ASM_ALL_CURVES
100
AcDbLine
 62
40
  6
CONTINUOUS
 10
6.6708471701
 20
3.6527159326
 11
6.6543518576
 21
3.6527159326
  0
LINE
  5
29D
100
AcDbEntity
  8
03__ASM_ALL_CURVES
100
AcDbLine
 62
40
  6
CONTINUOUS
 10
6.5652771701
 20
3.6527159326
 11
6.5487818576
 21
3.6527159326
  0
LINE
  5
29E
100
AcDbEntity
  8
03__ASM_ALL_CURVES
100
AcDbLine
 62
40
  6
CONTINUOUS
 10
6.5487818576
 20
3.6791084326
 11
6.5652771701
 21
3.6791084326
  0
LINE
  5
29F
100
AcDbEntity
  8
03__ASM_ALL_CURVES
100
AcDbLine
 62
40
  6
CONTINUOUS
 10
6.6114640451
 20
3.6791084326
 11
6.6180621701
 21
3.6791084326
  0
LINE
  5
2A0
100
AcDbEntity
  8
03__ASM_ALL_CURVES
100
AcDbLine
 62
40
  6
CONTINUOUS
 10
6.6543518576
 20
3.6791084326
 11
6.6708471701
 21
3.6791084326
  0
LINE
  5
2A1
100
AcDbEntity
  8
03__ASM_ALL_CURVES
100
AcDbLine
 62
40
  6
CONTINUOUS
 10
6.7038377951
 20
3.6791084326
 11
6.7368284201
 21
3.6791084326
  0
LINE
  5
2A2
100
AcDbEntity
  8
03__ASM_ALL_CURVES
100
AcDbLine
 62
40
  6
CONTINUOUS
 10
6.7698190451
 20
3.6791084326
 11
6.7764171701
 21
3.6791084326
  0
LINE
  5
2A3
100
AcDbEntity
  8
THREAD
100
AcDbLine
 62
7
  6
CONTINUOUS
 10
5.3250481062
 20
3.7521084326
 11
4.8896117721
 21
3.7521084326
  0
LINE
  5
2A4
100
AcDbEntity
  8
THREAD
100
AcDbLine
 62
7
  6
CONTINUOUS
 10
5.3250481062
 20
3.7530059601
 11
4.8896117721
 21
3.7530059601
  0
LINE
  5
2A5
100
AcDbEntity
  8
03__ASM_ALL_CURVES
100
AcDbLine
 62
40
  6
CONTINUOUS
 10
4.4906293562
 20
4.9597414328
 11
4.4950281062
 21
4.9538764326
  0
LINE
  5
2A6
100
AcDbEntity
  8
03__ASM_ALL_CURVES
100
AcDbLine
 62
40
  6
CONTINUOUS
 10
4.5566106062
 20
4.9597414328
 11
4.5522118562
 21
4.9656064329
  0
LINE
  5
2A7
100
AcDbEntity
  8
03__ASM_ALL_CURVES
100
AcDbLine
 62
40
  6
CONTINUOUS
 10
4.5742056062
 20
5.018391434
 11
4.5786043562
 21
5.0125264312
  0
LINE
  5
2A8
100
AcDbEntity
  8
03__ASM_ALL_CURVES
100
AcDbLine
 62
40
  6
CONTINUOUS
 10
4.6225918562
 20
4.9597414328
 11
4.6181931062
 21
4.9656064329
  0
LINE
  5
2A9
100
AcDbEntity
  8
03__ASM_ALL_CURVES
100
AcDbLine
 62
40
  6
CONTINUOUS
 10
4.9744918562
 20
4.9890664326
 11
4.9700931062
 21
5.000796434
  0
LINE
  5
2AA
100
AcDbEntity
  8
THREAD
100
AcDbLine
 62
7
  6
CONTINUOUS
 10
5.3250481062
 20
3.7521084326
 11
5.3250481062
 21
3.7530059601
  0
LINE
  5
2AB
100
AcDbEntity
  8
THREAD
100
AcDbLine
 62
7
  6
CONTINUOUS
 10
5.3250481062
 20
3.9714109051
 11
5.3250481062
 21
4.0227034876
  0
LINE
  5
2AC
100
AcDbEntity
  8
THREAD
100
AcDbLine
 62
7
  6
CONTINUOUS
 10
5.3250481062
 20
4.4595133776
 11
5.3250481062
 21
4.5108059601
  0
LINE
  5
2AD
100
AcDbEntity
  8
THREAD
100
AcDbLine
 62
7
  6
CONTINUOUS
 10
5.3250481062
 20
4.7292109051
 11
5.3250481062
 21
4.7301084326
  0
LINE
  5
2AE
100
AcDbEntity
  8
THREAD
100
AcDbLine
 62
7
  6
CONTINUOUS
 10
5.3865481062
 20
3.8136084326
 11
5.3865481062
 21
4.6686084326
  0
LINE
  5
2AF
100
AcDbEntity
  8
03__ASM_ALL_CURVES
100
AcDbLine
 62
40
  6
CONTINUOUS
 10
5.7653693557
 20
5.0066614326
 11
5.7741668557
 21
5.018391434
  0
LINE
  5
2B0
100
AcDbEntity
  8
03__ASM_ALL_CURVES
100
AcDbLine
 62
40
  6
CONTINUOUS
 10
5.8093568557
 20
4.9714714326
 11
5.8005593557
 21
4.9597414328
  0
LINE
  5
2B1
100
AcDbEntity
  8
03__ASM_ALL_CURVES
100
AcDbLine
 62
40
  6
CONTINUOUS
 10
5.8357493557
 20
5.0066614326
 11
5.8445468557
 21
5.018391434
  0
LINE
  5
2B2
100
AcDbEntity
  8
0
100
AcDbLine
 62
7
  6
CONTINUOUS
 10
5.5525481062
 20
4.6686084326
 11
5.5440260683
 21
4.6592609801
  0
LINE
  5
2B3
100
AcDbEntity
  8
03__ASM_ALL_CURVES
100
AcDbLine
 62
40
  6
CONTINUOUS
 10
6.1964468557
 20
5.018391434
 11
6.2052443557
 21
5.0242564326
  0
LINE
  5
2B4
100
AcDbEntity
  8
THREAD
100
AcDbLine
 62
7
  6
CONTINUOUS
 10
5.6025481062
 20
3.8136084326
 11
5.5525481062
 21
3.8136084326
  0
LINE
  5
2B5
100
AcDbEntity
  8
THREAD
100
AcDbLine
 62
7
  6
CONTINUOUS
 10
5.5325481062
 20
3.8136084326
 11
5.3865481062
 21
3.8136084326
  0
LINE
  5
2B6
100
AcDbEntity
  8
0
100
AcDbLine
 62
7
  6
CONTINUOUS
 10
5.6525481062
 20
3.8361084326
 11
5.6302705381
 21
3.8361084326
  0
LINE
  5
2B7
100
AcDbEntity
  8
0
100
AcDbLine
 62
7
  6
CONTINUOUS
 10
5.7225481062
 20
3.8366084326
 11
5.7725481062
 21
3.8366084326
  0
LINE
  5
2B8
100
AcDbEntity
  8
0
100
AcDbLine
 62
7
  6
CONTINUOUS
 10
6.0610481062
 20
3.8536084326
 11
5.8139100662
 21
3.8536084326
  0
LINE
  5
2B9
100
AcDbEntity
  8
0
100
AcDbLine
 62
7
  6
CONTINUOUS
 10
5.7850425527
 20
3.8906084326
 11
5.7725481062
 21
3.8906084326
  0
LINE
  5
2BA
100
AcDbEntity
  8
0
100
AcDbLine
 62
7
  6
CONTINUOUS
 10
6.2835481062
 20
3.8981084326
 11
6.1055481062
 21
3.8981084326
  0
LINE
  5
2BB
100
AcDbEntity
  8
0
100
AcDbLine
 62
7
  6
CONTINUOUS
 10
7.1495481062
 20
3.8986084326
 11
7.1025481062
 21
3.8986084326
  0
LINE
  5
2BC
100
AcDbEntity
  8
0
100
AcDbLine
 62
7
  6
CONTINUOUS
 10
6.9515481062
 20
3.8986084326
 11
6.8885481062
 21
3.8986084326
  0
LINE
  5
2BD
100
AcDbEntity
  8
0
100
AcDbLine
 62
7
  6
CONTINUOUS
 10
6.9565481062
 20
3.8991084326
 11
7.0065481062
 21
3.8991084326
  0
LINE
  5
2BE
100
AcDbEntity
  8
0
100
AcDbLine
 62
7
  6
CONTINUOUS
 10
5.5525481062
 20
3.8136084326
 11
5.5440260683
 21
3.8229558851
  0
LINE
  5
2BF
100
AcDbEntity
  8
03__ASM_ALL_CURVES
100
AcDbLine
 62
40
  6
CONTINUOUS
 10
4.6489843562
 20
4.9949314312
 11
4.6533831062
 21
4.9890664326
  0
LINE
  5
2C0
100
AcDbEntity
  8
03__ASM_ALL_CURVES
100
AcDbLine
 62
40
  6
CONTINUOUS
 10
4.7017693562
 20
4.9656064329
 11
4.7105668562
 21
4.9538764326
  0
LINE
  5
2C1
100
AcDbEntity
  8
03__ASM_ALL_CURVES
100
AcDbLine
 62
40
  6
CONTINUOUS
 10
5.0008843562
 20
5.0125264312
 11
5.0052831062
 21
5.000796434
  0
LINE
  5
2C2
100
AcDbEntity
  8
03__ASM_ALL_CURVES
100
AcDbLine
 62
40
  6
CONTINUOUS
 10
5.1328468562
 20
5.0125264312
 11
5.1372456062
 21
4.9949314312
  0
LINE
  5
2C3
100
AcDbEntity
  8
0
100
AcDbLine
 62
7
  6
CONTINUOUS
 10
5.5325481062
 20
3.8136084326
 11
5.5325481062
 21
4.6686084326
  0
LINE
  5
2C4
100
AcDbEntity
  8
03__ASM_ALL_CURVES
100
AcDbLine
 62
40
  6
CONTINUOUS
 10
5.5351681062
 20
4.9421464326
 11
5.5351681062
 21
4.9186864326
  0
LINE
  5
2C5
100
AcDbEntity
  8
0
100
AcDbLine
 62
7
  6
CONTINUOUS
 10
5.5410701442
 20
3.8229558851
 11
5.5410701442
 21
4.6592609801
  0
LINE
  5
2C6
100
AcDbEntity
  8
0
100
AcDbLine
 62
7
  6
CONTINUOUS
 10
5.5440260683
 20
3.8229558851
 11
5.5440260683
 21
4.6592609801
  0
LINE
  5
2C7
100
AcDbEntity
  8
0
100
AcDbLine
 62
7
  6
CONTINUOUS
 10
5.5525481062
 20
3.8136084326
 11
5.5525481062
 21
4.6686084326
  0
LINE
  5
2C8
100
AcDbEntity
  8
03__ASM_ALL_CURVES
100
AcDbLine
 62
40
  6
CONTINUOUS
 10
5.8753381057
 20
4.9656064329
 11
5.8709393557
 21
4.9597414328
  0
LINE
  5
2C9
100
AcDbEntity
  8
03__ASM_ALL_CURVES
100
AcDbLine
 62
40
  6
CONTINUOUS
 10
6.2228393557
 20
4.9597414328
 11
6.2140418557
 21
4.9538764326
  0
LINE
  5
2CA
100
AcDbEntity
  8
03__ASM_ALL_CURVES
100
AcDbLine
 62
40
  6
CONTINUOUS
 10
6.3460043557
 20
5.0242564326
 11
6.3372068557
 21
5.018391434
  0
LINE
  5
2CB
100
AcDbEntity
  8
0
100
AcDbLine
 62
7
  6
CONTINUOUS
 10
7.0765481062
 20
3.9531084326
 11
7.0975481062
 21
3.9531084326
  0
LINE
  5
2CC
100
AcDbEntity
  8
0
100
AcDbLine
 62
7
  6
CONTINUOUS
 10
3.9475481062
 20
3.9601084326
 11
4.5435481062
 21
3.9601084326
  0
LINE
  5
2CD
100
AcDbEntity
  8
0
100
AcDbLine
 62
7
  6
CONTINUOUS
 10
4.6485481063
 20
3.9601084326
 11
4.8187718279
 21
3.9601084326
  0
LINE
  5
2CE
100
AcDbEntity
  8
0
100
AcDbLine
 62
7
  6
CONTINUOUS
 10
6.2935481062
 20
3.9611084326
 11
6.7590481062
 21
3.9611084326
  0
LINE
  5
2CF
100
AcDbEntity
  8
0
100
AcDbLine
 62
7
  6
CONTINUOUS
 10
6.8680481062
 20
3.9611084326
 11
6.8835481062
 21
3.9611084326
  0
LINE
  5
2D0
100
AcDbEntity
  8
0
100
AcDbLine
 62
7
  6
CONTINUOUS
 10
4.8555481062
 20
3.9701084326
 11
4.8245481062
 21
3.9701084326
  0
LINE
  5
2D1
100
AcDbEntity
  8
0
100
AcDbLine
 62
7
  6
CONTINUOUS
 10
4.6115481062
 20
3.9701084326
 11
4.6055481062
 21
3.9701084326
  0
LINE
  5
2D2
100
AcDbEntity
  8
THREAD
100
AcDbLine
 62
7
  6
CONTINUOUS
 10
5.3250481062
 20
3.9714109051
 11
4.8896117721
 21
3.9714109051
  0
LINE
  5
2D3
100
AcDbEntity
  8
0
100
AcDbLine
 62
7
  6
CONTINUOUS
 10
4.6330481062
 20
3.9756084326
 11
4.6170481062
 21
3.9756084326
  0
LINE
  5
2D4
100
AcDbEntity
  8
THREAD
100
AcDbLine
 62
7
  6
CONTINUOUS
 10
5.3250481062
 20
4.0227034876
 11
4.8896117721
 21
4.0227034876
  0
LINE
  5
2D5
100
AcDbEntity
  8
03__ASM_ALL_CURVES
100
AcDbLine
 62
40
  6
CONTINUOUS
 10
4.9129093562
 20
4.9597414328
 11
4.9173081062
 21
4.9538764326
  0
LINE
  5
2D6
100
AcDbEntity
  8
03__ASM_ALL_CURVES
100
AcDbLine
 62
40
  6
CONTINUOUS
 10
4.9788906062
 20
4.9597414328
 11
4.9744918562
 21
4.9656064329
  0
LINE
  5
2D7
100
AcDbEntity
  8
0
100
AcDbLine
 62
7
  6
CONTINUOUS
 10
5.6025481062
 20
4.6686084326
 11
5.6025481062
 21
3.8136084326
  0
LINE
  5
2D8
100
AcDbEntity
  8
0
100
AcDbLine
 62
7
  6
CONTINUOUS
 10
5.6055481062
 20
4.6656084326
 11
5.6055481062
 21
3.8166084326
  0
LINE
  5
2D9
100
AcDbEntity
  8
03__ASM_ALL_CURVES
100
AcDbLine
 62
40
  6
CONTINUOUS
 10
5.6055481062
 20
4.6803384326
 11
5.6055481062
 21
4.9538764326
  0
LINE
  5
2DA
100
AcDbEntity
  8
0
100
AcDbLine
 62
7
  6
CONTINUOUS
 10
5.6080481062
 20
3.8240518083
 11
5.6080481062
 21
4.6581650569
  0
LINE
  5
2DB
100
AcDbEntity
  8
0
100
AcDbLine
 62
7
  6
CONTINUOUS
 10
5.6277705381
 20
3.8354385596
 11
5.6277705381
 21
4.6467783056
  0
LINE
  5
2DC
100
AcDbEntity
  8
0
100
AcDbLine
 62
7
  6
CONTINUOUS
 10
5.6302705381
 20
3.8361084326
 11
5.6302705381
 21
4.6461084326
  0
LINE
  5
2DD
100
AcDbEntity
  8
0
100
AcDbLine
 62
7
  6
CONTINUOUS
 10
5.6525481062
 20
3.8361084326
 11
5.6525481062
 21
4.6461084326
  0
LINE
  5
2DE
100
AcDbEntity
  8
03__ASM_ALL_CURVES
100
AcDbLine
 62
40
  6
CONTINUOUS
 10
5.6759281062
 20
4.9421464326
 11
5.6759281062
 21
4.9186864326
  0
LINE
  5
2DF
100
AcDbEntity
  8
03__ASM_ALL_CURVES
100
AcDbLine
 62
40
  6
CONTINUOUS
 10
5.7609706057
 20
4.9890664326
 11
5.7653693557
 21
5.0066614326
  0
LINE
  5
2E0
100
AcDbEntity
  8
03__ASM_ALL_CURVES
100
AcDbLine
 62
40
  6
CONTINUOUS
 10
5.8137556057
 20
4.9890664326
 11
5.8093568557
 21
4.9714714326
  0
LINE
  5
2E1
100
AcDbEntity
  8
03__ASM_ALL_CURVES
100
AcDbLine
 62
40
  6
CONTINUOUS
 10
5.8313506057
 20
4.9890664326
 11
5.8357493557
 21
5.0066614326
  0
LINE
  5
2E2
100
AcDbEntity
  8
0
100
AcDbLine
 62
7
  6
CONTINUOUS
 10
5.8139100662
 20
4.6286084326
 11
5.796300883
 21
4.5981084326
  0
LINE
  5
2E3
100
AcDbEntity
  8
03__ASM_ALL_CURVES
100
AcDbLine
 62
40
  6
CONTINUOUS
 10
6.1876493557
 20
5.0066614326
 11
6.1964468557
 21
5.018391434
  0
LINE
  5
2E4
100
AcDbEntity
  8
03__ASM_ALL_CURVES
100
AcDbLine
 62
40
  6
CONTINUOUS
 10
6.3635993557
 20
4.9597414328
 11
6.3548018557
 21
4.9538764326
  0
LINE
  5
2E5
100
AcDbEntity
  8
03__ASM_ALL_CURVES
100
AcDbLine
 62
40
  6
CONTINUOUS
 10
6.4779668557
 20
5.018391434
 11
6.4867643557
 21
5.0242564326
  0
LINE
  5
2E6
100
AcDbEntity
  8
03__ASM_ALL_CURVES
100
AcDbLine
 62
40
  6
CONTINUOUS
 10
6.5043593557
 20
4.9597414328
 11
6.4955618557
 21
4.9538764326
  0
LINE
  5
2E7
100
AcDbEntity
  8
03__ASM_ALL_CURVES
100
AcDbLine
 62
40
  6
CONTINUOUS
 10
6.5747393557
 20
4.9597414328
 11
6.5659418557
 21
4.9538764326
  0
LINE
  5
2E8
100
AcDbEntity
  8
03__ASM_ALL_CURVES
100
AcDbLine
 62
40
  6
CONTINUOUS
 10
6.5339360944
 20
3.5500784326
 11
6.5273379694
 21
3.5544771827
  0
LINE
  5
2E9
100
AcDbEntity
  8
03__ASM_ALL_CURVES
100
AcDbLine
 62
40
  6
CONTINUOUS
 10
6.5867210944
 20
3.5500784326
 11
6.5801229694
 21
3.5544771827
  0
LINE
  5
2EA
100
AcDbEntity
  8
03__ASM_ALL_CURVES
100
AcDbLine
 62
40
  6
CONTINUOUS
 10
6.5405342194
 20
3.6028634326
 11
6.5471323444
 21
3.5984646836
  0
LINE
  5
2EB
100
AcDbEntity
  8
03__ASM_ALL_CURVES
100
AcDbLine
 62
40
  6
CONTINUOUS
 10
4.5654081062
 20
4.9538764326
 11
4.5566106062
 21
4.9597414328
  0
LINE
  5
2EC
100
AcDbEntity
  8
03__ASM_ALL_CURVES
100
AcDbLine
 62
40
  6
CONTINUOUS
 10
4.9964856062
 20
5.018391434
 11
5.0008843562
 21
5.0125264312
  0
LINE
  5
2ED
100
AcDbEntity
  8
0
100
AcDbLine
 62
7
  6
CONTINUOUS
 10
5.8139100662
 20
3.8536084326
 11
5.796300883
 21
3.8841084326
  0
LINE
  5
2EE
100
AcDbEntity
  8
03__ASM_ALL_CURVES
100
AcDbLine
 62
40
  6
CONTINUOUS
 10
5.6993881057
 20
5.0242564326
 11
5.6993881057
 21
4.9538764326
  0
LINE
  5
2EF
100
AcDbEntity
  8
0
100
AcDbLine
 62
7
  6
CONTINUOUS
 10
5.7225481062
 20
3.8366090476
 11
5.7225481062
 21
4.6456078176
  0
LINE
  5
2F0
100
AcDbEntity
  8
0
100
AcDbLine
 62
7
  6
CONTINUOUS
 10
5.7725481062
 20
3.8366090476
 11
5.7725481062
 21
4.6456078176
  0
LINE
  5
2F1
100
AcDbEntity
  8
0
100
AcDbLine
 62
7
  6
CONTINUOUS
 10
5.7850425527
 20
3.8906084326
 11
5.7850425527
 21
4.5916084326
  0
LINE
  5
2F2
100
AcDbEntity
  8
0
100
AcDbLine
 62
7
  6
CONTINUOUS
 10
5.796300883
 20
3.8841084326
 11
5.796300883
 21
4.5981084326
  0
LINE
  5
2F3
100
AcDbEntity
  8
0
100
AcDbLine
 62
7
  6
CONTINUOUS
 10
5.8139100662
 20
3.8536084326
 11
5.8139100662
 21
4.6286084326
  0
LINE
  5
2F4
100
AcDbEntity
  8
03__ASM_ALL_CURVES
100
AcDbLine
 62
40
  6
CONTINUOUS
 10
5.9061293557
 20
4.9538764326
 11
5.9281231057
 21
5.0242564326
  0
LINE
  5
2F5
100
AcDbEntity
  8
03__ASM_ALL_CURVES
100
AcDbLine
 62
40
  6
CONTINUOUS
 10
6.2272381057
 20
4.9656064329
 11
6.2228393557
 21
4.9597414328
  0
LINE
  5
2F6
100
AcDbEntity
  8
03__ASM_ALL_CURVES
100
AcDbLine
 62
40
  6
CONTINUOUS
 10
6.3372068557
 20
5.018391434
 11
6.3328081057
 21
5.0125264312
  0
LINE
  5
2F7
100
AcDbEntity
  8
03__ASM_ALL_CURVES
100
AcDbLine
 62
40
  6
CONTINUOUS
 10
6.7111006057
 20
4.9597414328
 11
6.7023031057
 21
4.9538764326
  0
LINE
  5
2F8
100
AcDbEntity
  8
03__ASM_ALL_CURVES
100
AcDbLine
 62
40
  6
CONTINUOUS
 10
6.8562593557
 20
4.9949314312
 11
6.8474618557
 21
4.9890664326
  0
LINE
  5
2F9
100
AcDbEntity
  8
03__ASM_ALL_CURVES
100
AcDbLine
 62
40
  6
CONTINUOUS
 10
7.5990993554
 20
4.1765934326
 11
7.5727068554
 21
4.1765934326
  0
LINE
  5
2FA
100
AcDbEntity
  8
03__ASM_ALL_CURVES
100
AcDbLine
 62
40
  6
CONTINUOUS
 10
7.5199218554
 20
4.1765934326
 11
7.5463143554
 21
4.1765934326
  0
LINE
  5
2FB
100
AcDbEntity
  8
03__ASM_ALL_CURVES
100
AcDbLine
 62
40
  6
CONTINUOUS
 10
7.5727068554
 20
4.2029859326
 11
7.5892021679
 21
4.2029859326
  0
LINE
  5
2FC
100
AcDbEntity
  8
03__ASM_ALL_CURVES
100
AcDbLine
 62
40
  6
CONTINUOUS
 10
7.5727068554
 20
4.2293784326
 11
7.5990993554
 21
4.2293784326
  0
LINE
  5
2FD
100
AcDbEntity
  8
03__ASM_ALL_CURVES
100
AcDbLine
 62
40
  6
CONTINUOUS
 10
7.6221927929
 20
4.2293784326
 11
7.6551834179
 21
4.2293784326
  0
LINE
  5
2FE
100
AcDbEntity
  8
0
100
AcDbLine
 62
7
  6
CONTINUOUS
 10
4.7936766959
 20
4.2411084326
 11
4.6920189575
 21
4.2411084326
  0
LINE
  5
2FF
100
AcDbEntity
  8
0
100
AcDbLine
 62
7
  6
CONTINUOUS
 10
4.5190369657
 20
4.2411084326
 11
3.9720592468
 21
4.2411084326
  0
LINE
  5
300
100
AcDbEntity
  8
03__ASM_ALL_CURVES
100
AcDbLine
 62
40
  6
CONTINUOUS
 10
7.4968284183
 20
4.2528384326
 11
7.4902302933
 21
4.2528384326
  0
LINE
  5
301
100
AcDbEntity
  8
03__ASM_ALL_CURVES
100
AcDbLine
 62
40
  6
CONTINUOUS
 10
7.5496134183
 20
4.2792309326
 11
7.5331181058
 21
4.2792309326
  0
LINE
  5
302
100
AcDbEntity
  8
03__ASM_ALL_CURVES
100
AcDbLine
 62
40
  6
CONTINUOUS
 10
7.4440434183
 20
4.2792309326
 11
7.4275481058
 21
4.2792309326
  0
LINE
  5
303
100
AcDbEntity
  8
03__ASM_ALL_CURVES
100
AcDbLine
 62
40
  6
CONTINUOUS
 10
6.6114640451
 20
3.6263234326
 11
6.6048659201
 21
3.6307221827
  0
LINE
  5
304
100
AcDbEntity
  8
03__ASM_ALL_CURVES
100
AcDbLine
 62
40
  6
CONTINUOUS
 10
4.6313893562
 20
4.9538764326
 11
4.6225918562
 21
4.9597414328
  0
LINE
  5
305
100
AcDbEntity
  8
03__ASM_ALL_CURVES
100
AcDbLine
 62
40
  6
CONTINUOUS
 10
6.5652771701
 20
3.6791084326
 11
6.5718752951
 21
3.6747096836
  0
LINE
  5
306
100
AcDbEntity
  8
03__ASM_ALL_CURVES
100
AcDbLine
 62
40
  6
CONTINUOUS
 10
4.5654081062
 20
5.0242564326
 11
4.5742056062
 21
5.018391434
  0
LINE
  5
307
100
AcDbEntity
  8
03__ASM_ALL_CURVES
100
AcDbLine
 62
40
  6
CONTINUOUS
 10
6.6180621701
 20
3.6791084326
 11
6.6246602951
 21
3.6747096836
  0
LINE
  5
308
100
AcDbEntity
  8
03__ASM_ALL_CURVES
100
AcDbLine
 62
40
  6
CONTINUOUS
 10
4.6401868562
 20
5.000796434
 11
4.6489843562
 21
4.9949314312
  0
LINE
  5
309
100
AcDbEntity
  8
03__ASM_ALL_CURVES
100
AcDbLine
 62
40
  6
CONTINUOUS
 10
6.6708471701
 20
3.6791084326
 11
6.6774452951
 21
3.6747096836
  0
LINE
  5
30A
100
AcDbEntity
  8
THREAD
100
AcDbLine
 62
7
  6
CONTINUOUS
 10
5.3865481062
 20
4.6686084326
 11
5.32549687
 21
4.7296596688
  0
LINE
  5
30B
100
AcDbEntity
  8
03__ASM_ALL_CURVES
100
AcDbLine
 62
40
  6
CONTINUOUS
 10
5.1240493562
 20
5.0242564326
 11
5.1328468562
 21
5.0125264312
  0
LINE
  5
30C
100
AcDbEntity
  8
03__ASM_ALL_CURVES
100
AcDbLine
 62
40
  6
CONTINUOUS
 10
6.3679981057
 20
4.9656064329
 11
6.3635993557
 21
4.9597414328
  0
LINE
  5
30D
100
AcDbEntity
  8
03__ASM_ALL_CURVES
100
AcDbLine
 62
40
  6
CONTINUOUS
 10
6.4691693557
 20
5.0066614326
 11
6.4779668557
 21
5.018391434
  0
LINE
  5
30E
100
AcDbEntity
  8
0
100
AcDbLine
 62
7
  6
CONTINUOUS
 10
5.5410701442
 20
3.8229558851
 11
5.5325481062
 21
3.8136084326
  0
LINE
  5
30F
100
AcDbEntity
  8
THREAD
100
AcDbLine
 62
7
  6
CONTINUOUS
 10
5.3865481062
 20
3.8136084326
 11
5.32549687
 21
3.7525571963
  0
LINE
  5
310
100
AcDbEntity
  8
03__ASM_ALL_CURVES
100
AcDbLine
 62
40
  6
CONTINUOUS
 10
7.4275481058
 20
4.3056234326
 11
7.4440434183
 21
4.3056234326
  0
LINE
  5
311
100
AcDbEntity
  8
03__ASM_ALL_CURVES
100
AcDbLine
 62
40
  6
CONTINUOUS
 10
7.4902302933
 20
4.3056234326
 11
7.4968284183
 21
4.3056234326
  0
LINE
  5
312
100
AcDbEntity
  8
03__ASM_ALL_CURVES
100
AcDbLine
 62
40
  6
CONTINUOUS
 10
7.5331181058
 20
4.3056234326
 11
7.5496134183
 21
4.3056234326
  0
LINE
  5
313
100
AcDbEntity
  8
03__ASM_ALL_CURVES
100
AcDbLine
 62
40
  6
CONTINUOUS
 10
7.5826040433
 20
4.3056234326
 11
7.6155946683
 21
4.3056234326
  0
LINE
  5
314
100
AcDbEntity
  8
03__ASM_ALL_CURVES
100
AcDbLine
 62
40
  6
CONTINUOUS
 10
4.5654081062
 20
4.9949314312
 11
4.5786043562
 21
4.9890664326
  0
LINE
  5
315
100
AcDbEntity
  8
03__ASM_ALL_CURVES
100
AcDbLine
 62
40
  6
CONTINUOUS
 10
6.7764171701
 20
3.6791084326
 11
6.7830152951
 21
3.6747096836
  0
LINE
  5
316
100
AcDbEntity
  8
03__ASM_ALL_CURVES
100
AcDbLine
 62
40
  6
CONTINUOUS
 10
4.9876881062
 20
4.9538764326
 11
4.9788906062
 21
4.9597414328
  0
LINE
  5
317
100
AcDbEntity
  8
0
100
AcDbLine
 62
7
  6
CONTINUOUS
 10
5.5410701442
 20
4.6592609801
 11
5.5325481062
 21
4.6686084326
  0
LINE
  5
318
100
AcDbEntity
  8
03__ASM_ALL_CURVES
100
AcDbLine
 62
40
  6
CONTINUOUS
 10
6.5273379694
 20
3.5544771827
 11
6.5207398444
 21
3.5632746826
  0
LINE
  5
319
100
AcDbEntity
  8
03__ASM_ALL_CURVES
100
AcDbLine
 62
40
  6
CONTINUOUS
 10
5.7653693557
 20
4.9714714326
 11
5.7609706057
 21
4.9890664326
  0
LINE
  5
31A
100
AcDbEntity
  8
03__ASM_ALL_CURVES
100
AcDbLine
 62
40
  6
CONTINUOUS
 10
5.9985031057
 20
5.0242564326
 11
5.9985031057
 21
4.9538764326
  0
LINE
  5
31B
100
AcDbEntity
  8
0
100
AcDbLine
 62
7
  6
CONTINUOUS
 10
6.0610481062
 20
3.8536084326
 11
6.0610481062
 21
4.6286084326
  0
LINE
  5
31C
100
AcDbEntity
  8
03__ASM_ALL_CURVES
100
AcDbLine
 62
40
  6
CONTINUOUS
 10
6.0688831057
 20
5.0242564326
 11
6.0688831057
 21
4.9538764326
  0
LINE
  5
31D
100
AcDbEntity
  8
03__ASM_ALL_CURVES
100
AcDbLine
 62
40
  6
CONTINUOUS
 10
6.1832506057
 20
4.9890664326
 11
6.1876493557
 21
5.0066614326
  0
LINE
  5
31E
100
AcDbEntity
  8
03__ASM_ALL_CURVES
100
AcDbLine
 62
40
  6
CONTINUOUS
 10
6.5131568557
 20
4.9714714326
 11
6.5043593557
 21
4.9597414328
  0
LINE
  5
31F
100
AcDbEntity
  8
03__ASM_ALL_CURVES
100
AcDbLine
 62
40
  6
CONTINUOUS
 10
6.5791381057
 20
4.9656064329
 11
6.5747393557
 21
4.9597414328
  0
LINE
  5
320
100
AcDbEntity
  8
THREAD
100
AcDbLine
 62
7
  6
CONTINUOUS
 10
5.3250481062
 20
4.4595133776
 11
4.8896117721
 21
4.4595133776
  0
LINE
  5
321
100
AcDbEntity
  8
0
100
AcDbLine
 62
7
  6
CONTINUOUS
 10
4.6330481062
 20
4.5066084326
 11
4.6170481062
 21
4.5066084326
  0
LINE
  5
322
100
AcDbEntity
  8
THREAD
100
AcDbLine
 62
7
  6
CONTINUOUS
 10
5.3250481062
 20
4.5108059601
 11
4.8896117721
 21
4.5108059601
  0
LINE
  5
323
100
AcDbEntity
  8
0
100
AcDbLine
 62
7
  6
CONTINUOUS
 10
4.8555481062
 20
4.5121084326
 11
4.8245481062
 21
4.5121084326
  0
LINE
  5
324
100
AcDbEntity
  8
0
100
AcDbLine
 62
7
  6
CONTINUOUS
 10
4.6115481062
 20
4.5121084326
 11
4.6055481062
 21
4.5121084326
  0
LINE
  5
325
100
AcDbEntity
  8
0
100
AcDbLine
 62
7
  6
CONTINUOUS
 10
6.2935481062
 20
4.5211084326
 11
6.7590481062
 21
4.5211084326
  0
LINE
  5
326
100
AcDbEntity
  8
0
100
AcDbLine
 62
7
  6
CONTINUOUS
 10
6.8680481062
 20
4.5211084326
 11
6.8835481062
 21
4.5211084326
  0
LINE
  5
327
100
AcDbEntity
  8
0
100
AcDbLine
 62
7
  6
CONTINUOUS
 10
3.9475481062
 20
4.5221084326
 11
4.5435481062
 21
4.5221084326
  0
LINE
  5
328
100
AcDbEntity
  8
0
100
AcDbLine
 62
7
  6
CONTINUOUS
 10
4.6485481063
 20
4.5221084326
 11
4.8187718279
 21
4.5221084326
  0
LINE
  5
329
100
AcDbEntity
  8
0
100
AcDbLine
 62
7
  6
CONTINUOUS
 10
7.0765481062
 20
4.5291084326
 11
7.0975481062
 21
4.5291084326
  0
LINE
  5
32A
100
AcDbEntity
  8
0
100
AcDbLine
 62
7
  6
CONTINUOUS
 10
5.6277705381
 20
4.6467783056
 11
5.6080481062
 21
4.6581650569
  0
LINE
  5
32B
100
AcDbEntity
  8
03__ASM_ALL_CURVES
100
AcDbLine
 62
40
  6
CONTINUOUS
 10
4.9876881062
 20
5.0242564326
 11
4.9964856062
 21
5.018391434
  0
LINE
  5
32C
100
AcDbEntity
  8
03__ASM_ALL_CURVES
100
AcDbLine
 62
40
  6
CONTINUOUS
 10
6.5801229694
 20
3.5544771827
 11
6.5768239069
 21
3.5588759329
  0
LINE
  5
32D
100
AcDbEntity
  8
03__ASM_ALL_CURVES
100
AcDbLine
 62
40
  6
CONTINUOUS
 10
6.5471323444
 20
3.5984646836
 11
6.5537304694
 21
3.5896671826
  0
LINE
  5
32E
100
AcDbEntity
  8
03__ASM_ALL_CURVES
100
AcDbLine
 62
40
  6
CONTINUOUS
 10
6.6048659201
 20
3.6307221827
 11
6.5982677951
 21
3.6395196826
  0
LINE
  5
32F
100
AcDbEntity
  8
03__ASM_ALL_CURVES
100
AcDbLine
 62
40
  6
CONTINUOUS
 10
6.5718752951
 20
3.6747096836
 11
6.5751743576
 21
3.6703109315
  0
LINE
  5
330
100
AcDbEntity
  8
03__ASM_ALL_CURVES
100
AcDbLine
 62
40
  6
CONTINUOUS
 10
5.8093568557
 20
5.0066614326
 11
5.8137556057
 21
4.9890664326
  0
LINE
  5
331
100
AcDbEntity
  8
03__ASM_ALL_CURVES
100
AcDbLine
 62
40
  6
CONTINUOUS
 10
5.8357493557
 20
4.9714714326
 11
5.8313506057
 21
4.9890664326
  0
LINE
  5
332
100
AcDbEntity
  8
0
100
AcDbLine
 62
7
  6
CONTINUOUS
 10
6.1055481062
 20
3.8981084326
 11
6.1055481062
 21
4.5841084326
  0
LINE
  5
333
100
AcDbEntity
  8
03__ASM_ALL_CURVES
100
AcDbLine
 62
40
  6
CONTINUOUS
 10
6.1216681057
 20
4.9538764326
 11
6.1216681057
 21
5.0242564326
  0
LINE
  5
334
100
AcDbEntity
  8
03__ASM_ALL_CURVES
100
AcDbLine
 62
40
  6
CONTINUOUS
 10
6.1568581057
 20
4.9538764326
 11
6.1568581057
 21
5.0242564326
  0
LINE
  5
335
100
AcDbEntity
  8
03__ASM_ALL_CURVES
100
AcDbLine
 62
40
  6
CONTINUOUS
 10
6.7198981057
 20
4.9714714326
 11
6.7111006057
 21
4.9597414328
  0
LINE
  5
336
100
AcDbEntity
  8
0
100
AcDbLine
 62
7
  6
CONTINUOUS
 10
5.6277705381
 20
3.8354385596
 11
5.6080481062
 21
3.8240518083
  0
LINE
  5
337
100
AcDbEntity
  8
0
100
AcDbLine
 62
7
  6
CONTINUOUS
 10
6.9565481062
 20
4.5831084326
 11
7.0065481062
 21
4.5831084326
  0
LINE
  5
338
100
AcDbEntity
  8
0
100
AcDbLine
 62
7
  6
CONTINUOUS
 10
7.1495481062
 20
4.5836084326
 11
7.1025481062
 21
4.5836084326
  0
LINE
  5
339
100
AcDbEntity
  8
0
100
AcDbLine
 62
7
  6
CONTINUOUS
 10
6.9515481062
 20
4.5836084326
 11
6.8885481062
 21
4.5836084326
  0
LINE
  5
33A
100
AcDbEntity
  8
0
100
AcDbLine
 62
7
  6
CONTINUOUS
 10
6.2835481062
 20
4.5841084326
 11
6.1055481062
 21
4.5841084326
  0
LINE
  5
33B
100
AcDbEntity
  8
0
100
AcDbLine
 62
7
  6
CONTINUOUS
 10
5.7850425527
 20
4.5916084326
 11
5.7725481062
 21
4.5916084326
  0
LINE
  5
33C
100
AcDbEntity
  8
0
100
AcDbLine
 62
7
  6
CONTINUOUS
 10
6.0610481062
 20
4.6286084326
 11
5.8139100662
 21
4.6286084326
  0
LINE
  5
33D
100
AcDbEntity
  8
0
100
AcDbLine
 62
7
  6
CONTINUOUS
 10
5.7225481062
 20
4.6456084326
 11
5.7725481062
 21
4.6456084326
  0
LINE
  5
33E
100
AcDbEntity
  8
0
100
AcDbLine
 62
7
  6
CONTINUOUS
 10
5.6525481062
 20
4.6461084326
 11
5.6302705381
 21
4.6461084326
  0
LINE
  5
33F
100
AcDbEntity
  8
THREAD
100
AcDbLine
 62
7
  6
CONTINUOUS
 10
5.6025481062
 20
4.6686084326
 11
5.5525481062
 21
4.6686084326
  0
LINE
  5
340
100
AcDbEntity
  8
THREAD
100
AcDbLine
 62
7
  6
CONTINUOUS
 10
5.5325481062
 20
4.6686084326
 11
5.3865481062
 21
4.6686084326
  0
LINE
  5
341
100
AcDbEntity
  8
03__ASM_ALL_CURVES
100
AcDbLine
 62
40
  6
CONTINUOUS
 10
4.0179281062
 20
4.9206414326
 11
3.9475481062
 21
4.9304164326
  0
LINE
  5
342
100
AcDbEntity
  8
03__ASM_ALL_CURVES
100
AcDbLine
 62
40
  6
CONTINUOUS
 10
4.0179281062
 20
4.9186864326
 11
3.9475481062
 21
4.9304164326
  0
LINE
  5
343
100
AcDbEntity
  8
03__ASM_ALL_CURVES
100
AcDbLine
 62
40
  6
CONTINUOUS
 10
4.9876881062
 20
4.9832014319
 11
4.9744918562
 21
4.9890664326
  0
LINE
  5
344
100
AcDbEntity
  8
03__ASM_ALL_CURVES
100
AcDbLine
 62
40
  6
CONTINUOUS
 10
6.6246602951
 20
3.6747096836
 11
6.6312584201
 21
3.6659121826
  0
LINE
  5
345
100
AcDbEntity
  8
03__ASM_ALL_CURVES
100
AcDbLine
 62
40
  6
CONTINUOUS
 10
6.6774452951
 20
3.6747096836
 11
6.6807443576
 21
3.6703109315
  0
LINE
  5
346
100
AcDbEntity
  8
03__ASM_ALL_CURVES
100
AcDbLine
 62
40
  6
CONTINUOUS
 10
5.7741668557
 20
4.9597414328
 11
5.7653693557
 21
4.9714714326
  0
LINE
  5
347
100
AcDbEntity
  8
03__ASM_ALL_CURVES
100
AcDbLine
 62
40
  6
CONTINUOUS
 10
5.9281231057
 20
5.0242564326
 11
5.9501168557
 21
4.9538764326
  0
LINE
  5
348
100
AcDbEntity
  8
03__ASM_ALL_CURVES
100
AcDbLine
 62
40
  6
CONTINUOUS
 10
6.2272381057
 20
4.9890664326
 11
6.2272381057
 21
4.9656064329
  0
LINE
  5
349
100
AcDbEntity
  8
0
100
AcDbLine
 62
7
  6
CONTINUOUS
 10
6.2835481062
 20
3.8981084326
 11
6.2835481062
 21
4.5841084326
  0
LINE
  5
34A
100
AcDbEntity
  8
0
100
AcDbLine
 62
7
  6
CONTINUOUS
 10
6.2935481062
 20
3.9081084326
 11
6.2935481062
 21
4.5741084326
  0
LINE
  5
34B
100
AcDbEntity
  8
03__ASM_ALL_CURVES
100
AcDbLine
 62
40
  6
CONTINUOUS
 10
6.3328081057
 20
5.0125264312
 11
6.3328081057
 21
5.0066614326
  0
LINE
  5
34C
100
AcDbEntity
  8
03__ASM_ALL_CURVES
100
AcDbLine
 62
40
  6
CONTINUOUS
 10
6.4647706057
 20
4.9890664326
 11
6.4691693557
 21
5.0066614326
  0
LINE
  5
34D
100
AcDbEntity
  8
03__ASM_ALL_CURVES
100
AcDbLine
 62
40
  6
CONTINUOUS
 10
6.5175556057
 20
4.9890664326
 11
6.5131568557
 21
4.9714714326
  0
LINE
  5
34E
100
AcDbEntity
  8
03__ASM_ALL_CURVES
100
AcDbLine
 62
40
  6
CONTINUOUS
 10
6.8606581057
 20
5.000796434
 11
6.8562593557
 21
4.9949314312
  0
LINE
  5
34F
100
AcDbEntity
  8
0
100
AcDbLine
 62
7
  6
CONTINUOUS
 10
6.1055481062
 20
3.8981084326
 11
6.1001891224
 21
3.8927494487
  0
LINE
  5
350
100
AcDbEntity
  8
0
100
AcDbLine
 62
7
  6
CONTINUOUS
 10
6.0709070901
 20
3.8634674164
 11
6.0610481062
 21
3.8536084326
  0
LINE
  5
351
100
AcDbEntity
  8
THREAD
100
AcDbLine
 62
7
  6
CONTINUOUS
 10
5.3250481062
 20
4.7292109051
 11
4.8896117721
 21
4.7292109051
  0
LINE
  5
352
100
AcDbEntity
  8
THREAD
100
AcDbLine
 62
7
  6
CONTINUOUS
 10
5.3250481062
 20
4.7301084326
 11
4.8896117721
 21
4.7301084326
  0
LINE
  5
353
100
AcDbEntity
  8
03__ASM_ALL_CURVES
100
AcDbLine
 62
40
  6
CONTINUOUS
 10
4.0179281062
 20
4.9265064326
 11
3.9475481062
 21
4.9304164326
  0
LINE
  5
354
100
AcDbEntity
  8
03__ASM_ALL_CURVES
100
AcDbLine
 62
40
  6
CONTINUOUS
 10
4.0179281062
 20
4.9245514326
 11
3.9475481062
 21
4.9304164326
  0
LINE
  5
355
100
AcDbEntity
  8
03__ASM_ALL_CURVES
100
AcDbLine
 62
40
  6
CONTINUOUS
 10
4.0179281062
 20
4.9225964326
 11
3.9475481062
 21
4.9304164326
  0
LINE
  5
356
100
AcDbEntity
  8
03__ASM_ALL_CURVES
100
AcDbLine
 62
40
  6
CONTINUOUS
 10
5.7829643557
 20
4.9538764326
 11
5.7741668557
 21
4.9597414328
  0
LINE
  5
357
100
AcDbEntity
  8
0
100
AcDbLine
 62
7
  6
CONTINUOUS
 10
6.1055481062
 20
4.5841084326
 11
6.0610481062
 21
4.6286084326
  0
LINE
  5
358
100
AcDbEntity
  8
0
100
AcDbLine
 62
7
  6
CONTINUOUS
 10
6.8885481062
 20
3.8986084326
 11
6.8835481062
 21
3.9036084326
  0
LINE
  5
359
100
AcDbEntity
  8
03__ASM_ALL_CURVES
100
AcDbLine
 62
40
  6
CONTINUOUS
 10
6.7830152951
 20
3.6747096836
 11
6.7863143576
 21
3.6703109315
  0
LINE
  5
35A
100
AcDbEntity
  8
03__ASM_ALL_CURVES
100
AcDbLine
 62
40
  6
CONTINUOUS
 10
5.8445468557
 20
4.9597414328
 11
5.8357493557
 21
4.9714714326
  0
LINE
  5
35B
100
AcDbEntity
  8
03__ASM_ALL_CURVES
100
AcDbLine
 62
40
  6
CONTINUOUS
 10
5.8005593557
 20
5.018391434
 11
5.8093568557
 21
5.0066614326
  0
LINE
  5
35C
100
AcDbEntity
  8
03__ASM_ALL_CURVES
100
AcDbLine
 62
40
  6
CONTINUOUS
 10
5.8709393557
 20
5.018391434
 11
5.8753381057
 21
5.0125264312
  0
LINE
  5
35D
100
AcDbEntity
  8
03__ASM_ALL_CURVES
100
AcDbLine
 62
40
  6
CONTINUOUS
 10
6.5207398444
 20
3.5632746826
 11
6.5174407819
 21
3.5764709326
  0
LINE
  5
35E
100
AcDbEntity
  8
03__ASM_ALL_CURVES
100
AcDbLine
 62
40
  6
CONTINUOUS
 10
6.1876493557
 20
4.9714714326
 11
6.1832506057
 21
4.9890664326
  0
LINE
  5
35F
100
AcDbEntity
  8
03__ASM_ALL_CURVES
100
AcDbLine
 62
40
  6
CONTINUOUS
 10
6.3679981057
 20
4.9773364333
 11
6.3679981057
 21
4.9656064329
  0
LINE
  5
360
100
AcDbEntity
  8
03__ASM_ALL_CURVES
100
AcDbLine
 62
40
  6
CONTINUOUS
 10
6.4031881057
 20
5.0242564326
 11
6.4031881057
 21
4.9538764326
  0
LINE
  5
361
100
AcDbEntity
  8
03__ASM_ALL_CURVES
100
AcDbLine
 62
40
  6
CONTINUOUS
 10
6.4383781057
 20
5.0242564326
 11
6.4383781057
 21
4.9538764326
  0
LINE
  5
362
100
AcDbEntity
  8
0
100
AcDbLine
 62
7
  6
CONTINUOUS
 10
6.8885481062
 20
4.5836084326
 11
6.8835481062
 21
4.5786084326
  0
LINE
  5
363
100
AcDbEntity
  8
0
100
AcDbLine
 62
7
  6
CONTINUOUS
 10
6.2935481062
 20
3.9081084326
 11
6.2835481062
 21
3.8981084326
  0
LINE
  5
364
100
AcDbEntity
  8
03__ASM_ALL_CURVES
100
AcDbLine
 62
40
  6
CONTINUOUS
 10
5.5351681062
 20
4.9186864326
 11
5.6759281062
 21
4.9421464326
  0
LINE
  5
365
100
AcDbEntity
  8
03__ASM_ALL_CURVES
100
AcDbLine
 62
40
  6
CONTINUOUS
 10
5.5351681062
 20
4.9206414326
 11
5.6759281062
 21
4.9401914326
  0
LINE
  5
366
100
AcDbEntity
  8
03__ASM_ALL_CURVES
100
AcDbLine
 62
40
  6
CONTINUOUS
 10
5.5351681062
 20
4.9225964326
 11
5.6759281062
 21
4.9382364326
  0
LINE
  5
367
100
AcDbEntity
  8
03__ASM_ALL_CURVES
100
AcDbLine
 62
40
  6
CONTINUOUS
 10
5.5351681062
 20
4.9245514326
 11
5.6759281062
 21
4.9362814326
  0
LINE
  5
368
100
AcDbEntity
  8
03__ASM_ALL_CURVES
100
AcDbLine
 62
40
  6
CONTINUOUS
 10
5.5351681062
 20
4.9265064326
 11
5.6759281062
 21
4.9343264326
  0
LINE
  5
369
100
AcDbEntity
  8
03__ASM_ALL_CURVES
100
AcDbLine
 62
40
  6
CONTINUOUS
 10
5.5351681062
 20
4.9284614326
 11
5.6759281062
 21
4.9323714326
  0
LINE
  5
36A
100
AcDbEntity
  8
03__ASM_ALL_CURVES
100
AcDbLine
 62
40
  6
CONTINUOUS
 10
3.9475481062
 20
4.9304164326
 11
6.9427681062
 21
4.9304164326
  0
LINE
  5
36B
100
AcDbEntity
  8
03__ASM_ALL_CURVES
100
AcDbLine
 62
40
  6
CONTINUOUS
 10
6.7902781057
 20
4.9538764326
 11
6.7550881057
 21
4.9538764326
  0
LINE
  5
36C
100
AcDbEntity
  8
03__ASM_ALL_CURVES
100
AcDbLine
 62
40
  6
CONTINUOUS
 10
6.7023031057
 20
4.9538764326
 11
6.6847081057
 21
4.9538764326
  0
LINE
  5
36D
100
AcDbEntity
  8
03__ASM_ALL_CURVES
100
AcDbLine
 62
40
  6
CONTINUOUS
 10
6.5659418557
 20
4.9538764326
 11
6.5571443557
 21
4.9538764326
  0
LINE
  5
36E
100
AcDbEntity
  8
03__ASM_ALL_CURVES
100
AcDbLine
 62
40
  6
CONTINUOUS
 10
6.4955618557
 20
4.9538764326
 11
6.4867643557
 21
4.9538764326
  0
LINE
  5
36F
100
AcDbEntity
  8
03__ASM_ALL_CURVES
100
AcDbLine
 62
40
  6
CONTINUOUS
 10
6.3548018557
 20
4.9538764326
 11
6.3460043557
 21
4.9538764326
  0
LINE
  5
370
100
AcDbEntity
  8
03__ASM_ALL_CURVES
100
AcDbLine
 62
40
  6
CONTINUOUS
 10
6.2140418557
 20
4.9538764326
 11
6.2052443557
 21
4.9538764326
  0
LINE
  5
371
100
AcDbEntity
  8
03__ASM_ALL_CURVES
100
AcDbLine
 62
40
  6
CONTINUOUS
 10
5.8621418557
 20
4.9538764326
 11
5.8533443557
 21
4.9538764326
  0
LINE
  5
372
100
AcDbEntity
  8
03__ASM_ALL_CURVES
100
AcDbLine
 62
40
  6
CONTINUOUS
 10
5.7917618557
 20
4.9538764326
 11
5.7829643557
 21
4.9538764326
  0
LINE
  5
373
100
AcDbEntity
  8
03__ASM_ALL_CURVES
100
AcDbLine
 62
40
  6
CONTINUOUS
 10
4.9173081062
 20
4.9538764326
 11
4.9129093562
 21
4.9538764326
  0
LINE
  5
374
100
AcDbEntity
  8
03__ASM_ALL_CURVES
100
AcDbLine
 62
40
  6
CONTINUOUS
 10
4.6401868562
 20
4.9538764326
 11
4.6313893562
 21
4.9538764326
  0
LINE
  5
375
100
AcDbEntity
  8
03__ASM_ALL_CURVES
100
AcDbLine
 62
40
  6
CONTINUOUS
 10
4.4950281062
 20
4.9538764326
 11
4.4906293562
 21
4.9538764326
  0
LINE
  5
376
100
AcDbEntity
  8
03__ASM_ALL_CURVES
100
AcDbLine
 62
40
  6
CONTINUOUS
 10
5.6993881057
 20
4.9538764326
 11
5.7345781057
 21
4.9538764326
  0
LINE
  5
377
100
AcDbEntity
  8
03__ASM_ALL_CURVES
100
AcDbLine
 62
40
  6
CONTINUOUS
 10
6.6143281057
 20
4.9538764326
 11
6.6495181057
 21
4.9538764326
  0
LINE
  5
378
100
AcDbEntity
  8
03__ASM_ALL_CURVES
100
AcDbLine
 62
40
  6
CONTINUOUS
 10
4.0179281062
 20
4.9284614326
 11
3.9475481062
 21
4.9304164326
  0
LINE
  5
379
100
AcDbEntity
  8
03__ASM_ALL_CURVES
100
AcDbLine
 62
40
  6
CONTINUOUS
 10
5.5351681062
 20
4.9323714326
 11
5.6759281062
 21
4.9284614326
  0
LINE
  5
37A
100
AcDbEntity
  8
03__ASM_ALL_CURVES
100
AcDbLine
 62
40
  6
CONTINUOUS
 10
5.5351681062
 20
4.9343264326
 11
5.6759281062
 21
4.9265064326
  0
LINE
  5
37B
100
AcDbEntity
  8
03__ASM_ALL_CURVES
100
AcDbLine
 62
40
  6
CONTINUOUS
 10
5.5351681062
 20
4.9362814326
 11
5.6759281062
 21
4.9245514326
  0
LINE
  5
37C
100
AcDbEntity
  8
03__ASM_ALL_CURVES
100
AcDbLine
 62
40
  6
CONTINUOUS
 10
5.5351681062
 20
4.9382364326
 11
5.6759281062
 21
4.9225964326
  0
LINE
  5
37D
100
AcDbEntity
  8
03__ASM_ALL_CURVES
100
AcDbLine
 62
40
  6
CONTINUOUS
 10
5.5351681062
 20
4.9401914326
 11
5.6759281062
 21
4.9206414326
  0
LINE
  5
37E
100
AcDbEntity
  8
03__ASM_ALL_CURVES
100
AcDbLine
 62
40
  6
CONTINUOUS
 10
5.6759281062
 20
4.9186864326
 11
5.5351681062
 21
4.9421464326
  0
LINE
  5
37F
100
AcDbEntity
  8
03__ASM_ALL_CURVES
100
AcDbLine
 62
40
  6
CONTINUOUS
 10
5.8533443557
 20
4.9538764326
 11
5.8445468557
 21
4.9597414328
  0
LINE
  5
380
100
AcDbEntity
  8
03__ASM_ALL_CURVES
100
AcDbLine
 62
40
  6
CONTINUOUS
 10
5.7917618557
 20
5.0242564326
 11
5.8005593557
 21
5.018391434
  0
LINE
  5
381
100
AcDbEntity
  8
03__ASM_ALL_CURVES
100
AcDbLine
 62
40
  6
CONTINUOUS
 10
5.8621418557
 20
5.0242564326
 11
5.8709393557
 21
5.018391434
  0
LINE
  5
382
100
AcDbEntity
  8
0
100
AcDbLine
 62
7
  6
CONTINUOUS
 10
6.2935481062
 20
4.5741084326
 11
6.2835481062
 21
4.5841084326
  0
LINE
  5
383
100
AcDbEntity
  8
0
100
AcDbLine
 62
7
  6
CONTINUOUS
 10
7.1025481062
 20
3.8986084326
 11
7.0975481062
 21
3.9036084326
  0
LINE
  5
384
100
AcDbEntity
  8
03__ASM_ALL_CURVES
100
AcDbLine
 62
40
  6
CONTINUOUS
 10
6.1216681057
 20
5.0242564326
 11
6.1568581057
 21
4.9538764326
  0
LINE
  5
385
100
AcDbEntity
  8
03__ASM_ALL_CURVES
100
AcDbLine
 62
40
  6
CONTINUOUS
 10
6.6708471701
 20
3.6527159326
 11
6.6807443576
 21
3.6263234326
  0
LINE
  5
386
100
AcDbEntity
  8
03__ASM_ALL_CURVES
100
AcDbLine
 62
40
  6
CONTINUOUS
 10
6.5537304694
 20
3.5896671826
 11
6.5570295319
 21
3.5764709326
  0
LINE
  5
387
100
AcDbEntity
  8
03__ASM_ALL_CURVES
100
AcDbLine
 62
40
  6
CONTINUOUS
 10
6.5982677951
 20
3.6395196826
 11
6.5949687326
 21
3.6527159326
  0
LINE
  5
388
100
AcDbEntity
  8
03__ASM_ALL_CURVES
100
AcDbLine
 62
40
  6
CONTINUOUS
 10
6.6312584201
 20
3.6659121826
 11
6.6345574826
 21
3.6527159326
  0
LINE
  5
389
100
AcDbEntity
  8
03__ASM_ALL_CURVES
100
AcDbLine
 62
40
  6
CONTINUOUS
 10
6.5439481057
 20
4.9656064329
 11
6.5439481057
 21
5.0242564326
  0
LINE
  5
38A
100
AcDbEntity
  8
03__ASM_ALL_CURVES
100
AcDbLine
 62
40
  6
CONTINUOUS
 10
6.5487818576
 20
3.6263234326
 11
6.5487818576
 21
3.6791084326
  0
LINE
  5
38B
100
AcDbEntity
  8
03__ASM_ALL_CURVES
100
AcDbLine
 62
40
  6
CONTINUOUS
 10
6.5751743576
 20
3.6703109315
 11
6.5751743576
 21
3.6615134336
  0
LINE
  5
38C
100
AcDbEntity
  8
03__ASM_ALL_CURVES
100
AcDbLine
 62
40
  6
CONTINUOUS
 10
6.5768239069
 20
3.5588759329
 11
6.5768239069
 21
3.6028634326
  0
LINE
  5
38D
100
AcDbEntity
  8
03__ASM_ALL_CURVES
100
AcDbLine
 62
40
  6
CONTINUOUS
 10
6.5791381057
 20
5.0242564326
 11
6.5791381057
 21
4.9656064329
  0
LINE
  5
38E
100
AcDbEntity
  8
03__ASM_ALL_CURVES
100
AcDbLine
 62
40
  6
CONTINUOUS
 10
6.6032164069
 20
3.6028634326
 11
6.6032164069
 21
3.5588759329
  0
LINE
  5
38F
100
AcDbEntity
  8
03__ASM_ALL_CURVES
100
AcDbLine
 62
40
  6
CONTINUOUS
 10
6.6143281057
 20
5.0242564326
 11
6.6143281057
 21
4.9538764326
  0
LINE
  5
390
100
AcDbEntity
  8
03__ASM_ALL_CURVES
100
AcDbLine
 62
40
  6
CONTINUOUS
 10
6.7242968557
 20
4.9890664326
 11
6.7198981057
 21
4.9714714326
  0
LINE
  5
391
100
AcDbEntity
  8
0
100
AcDbLine
 62
7
  6
CONTINUOUS
 10
7.1025481062
 20
4.5836084326
 11
7.0975481062
 21
4.5786084326
  0
LINE
  5
392
100
AcDbEntity
  8
03__ASM_ALL_CURVES
100
AcDbLine
 62
40
  6
CONTINUOUS
 10
4.0179281062
 20
4.9362814326
 11
3.9475481062
 21
4.9304164326
  0
LINE
  5
393
100
AcDbEntity
  8
03__ASM_ALL_CURVES
100
AcDbLine
 62
40
  6
CONTINUOUS
 10
4.0179281062
 20
4.9343264326
 11
3.9475481062
 21
4.9304164326
  0
LINE
  5
394
100
AcDbEntity
  8
03__ASM_ALL_CURVES
100
AcDbLine
 62
40
  6
CONTINUOUS
 10
4.0179281062
 20
4.9323714326
 11
3.9475481062
 21
4.9304164326
  0
LINE
  5
395
100
AcDbEntity
  8
03__ASM_ALL_CURVES
100
AcDbLine
 62
40
  6
CONTINUOUS
 10
4.7589531062
 20
4.9714714326
 11
4.7985418562
 21
4.9714714326
  0
LINE
  5
396
100
AcDbEntity
  8
03__ASM_ALL_CURVES
100
AcDbLine
 62
40
  6
CONTINUOUS
 10
5.9149268557
 20
4.9773364333
 11
5.9413193557
 21
4.9773364333
  0
LINE
  5
397
100
AcDbEntity
  8
03__ASM_ALL_CURVES
100
AcDbLine
 62
40
  6
CONTINUOUS
 10
6.8474618557
 20
4.9890664326
 11
6.8254681057
 21
4.9890664326
  0
LINE
  5
398
100
AcDbEntity
  8
03__ASM_ALL_CURVES
100
AcDbLine
 62
40
  6
CONTINUOUS
 10
6.2096431057
 20
4.9890664326
 11
6.2272381057
 21
4.9890664326
  0
LINE
  5
399
100
AcDbEntity
  8
03__ASM_ALL_CURVES
100
AcDbLine
 62
40
  6
CONTINUOUS
 10
6.4031881057
 20
4.9890664326
 11
6.4383781057
 21
4.9890664326
  0
LINE
  5
39A
100
AcDbEntity
  8
03__ASM_ALL_CURVES
100
AcDbLine
 62
40
  6
CONTINUOUS
 10
6.7550881057
 20
4.9890664326
 11
6.7770818557
 21
4.9890664326
  0
LINE
  5
39B
100
AcDbEntity
  8
03__ASM_ALL_CURVES
100
AcDbLine
 62
40
  6
CONTINUOUS
 10
4.6313893562
 20
5.000796434
 11
4.6401868562
 21
5.000796434
  0
LINE
  5
39C
100
AcDbEntity
  8
03__ASM_ALL_CURVES
100
AcDbLine
 62
40
  6
CONTINUOUS
 10
6.3548018557
 20
5.0242564326
 11
6.3460043557
 21
5.0242564326
  0
LINE
  5
39D
100
AcDbEntity
  8
03__ASM_ALL_CURVES
100
AcDbLine
 62
40
  6
CONTINUOUS
 10
4.6533831062
 20
5.0242564326
 11
4.6269906062
 21
5.0242564326
  0
LINE
  5
39E
100
AcDbEntity
  8
03__ASM_ALL_CURVES
100
AcDbLine
 62
40
  6
CONTINUOUS
 10
5.7829643557
 20
5.0242564326
 11
5.7917618557
 21
5.0242564326
  0
LINE
  5
39F
100
AcDbEntity
  8
03__ASM_ALL_CURVES
100
AcDbLine
 62
40
  6
CONTINUOUS
 10
5.8533443557
 20
5.0242564326
 11
5.8621418557
 21
5.0242564326
  0
LINE
  5
3A0
100
AcDbEntity
  8
03__ASM_ALL_CURVES
100
AcDbLine
 62
40
  6
CONTINUOUS
 10
5.9765093557
 20
5.0242564326
 11
6.0204968557
 21
5.0242564326
  0
LINE
  5
3A1
100
AcDbEntity
  8
03__ASM_ALL_CURVES
100
AcDbLine
 62
40
  6
CONTINUOUS
 10
6.2052443557
 20
5.0242564326
 11
6.2140418557
 21
5.0242564326
  0
LINE
  5
3A2
100
AcDbEntity
  8
03__ASM_ALL_CURVES
100
AcDbLine
 62
40
  6
CONTINUOUS
 10
6.4867643557
 20
5.0242564326
 11
6.4955618557
 21
5.0242564326
  0
LINE
  5
3A3
100
AcDbEntity
  8
03__ASM_ALL_CURVES
100
AcDbLine
 62
40
  6
CONTINUOUS
 10
6.6847081057
 20
5.0242564326
 11
6.7023031057
 21
5.0242564326
  0
LINE
  5
3A4
100
AcDbEntity
  8
03__ASM_ALL_CURVES
100
AcDbLine
 62
40
  6
CONTINUOUS
 10
6.7550881057
 20
5.0242564326
 11
6.7902781057
 21
5.0242564326
  0
LINE
  5
3A5
100
AcDbEntity
  8
03__ASM_ALL_CURVES
100
AcDbLine
 62
40
  6
CONTINUOUS
 10
6.8254681057
 20
5.0242564326
 11
6.8474618557
 21
5.0242564326
  0
LINE
  5
3A6
100
AcDbEntity
  8
03__ASM_ALL_CURVES
100
AcDbLine
 62
40
  6
CONTINUOUS
 10
6.2052443557
 20
4.9538764326
 11
6.1964468557
 21
4.9597414328
  0
LINE
  5
3A7
100
AcDbEntity
  8
03__ASM_ALL_CURVES
100
AcDbLine
 62
40
  6
CONTINUOUS
 10
6.1964468557
 20
4.9597414328
 11
6.1876493557
 21
4.9714714326
  0
LINE
  5
3A8
100
AcDbEntity
  8
03__ASM_ALL_CURVES
100
AcDbLine
 62
40
  6
CONTINUOUS
 10
6.2228393557
 20
5.018391434
 11
6.2272381057
 21
5.0125264312
  0
LINE
  5
3A9
100
AcDbEntity
  8
03__ASM_ALL_CURVES
100
AcDbLine
 62
40
  6
CONTINUOUS
 10
6.4691693557
 20
4.9714714326
 11
6.4647706057
 21
4.9890664326
  0
LINE
  5
3AA
100
AcDbEntity
  8
03__ASM_ALL_CURVES
100
AcDbLine
 62
40
  6
CONTINUOUS
 10
6.6428051569
 20
3.6028634326
 11
6.6428051569
 21
3.5500784326
  0
LINE
  5
3AB
100
AcDbEntity
  8
03__ASM_ALL_CURVES
100
AcDbLine
 62
40
  6
CONTINUOUS
 10
6.6543518576
 20
3.6263234326
 11
6.6543518576
 21
3.6791084326
  0
LINE
  5
3AC
100
AcDbEntity
  8
03__ASM_ALL_CURVES
100
AcDbLine
 62
40
  6
CONTINUOUS
 10
6.6807443576
 20
3.6703109315
 11
6.6807443576
 21
3.6615134336
  0
LINE
  5
3AD
100
AcDbEntity
  8
03__ASM_ALL_CURVES
100
AcDbLine
 62
40
  6
CONTINUOUS
 10
6.6823939069
 20
3.6028634326
 11
6.6823939069
 21
3.5500784326
  0
LINE
  5
3AE
100
AcDbEntity
  8
03__ASM_ALL_CURVES
100
AcDbLine
 62
40
  6
CONTINUOUS
 10
6.6847081057
 20
4.9538764326
 11
6.6847081057
 21
5.0242564326
  0
LINE
  5
3AF
100
AcDbEntity
  8
03__ASM_ALL_CURVES
100
AcDbLine
 62
40
  6
CONTINUOUS
 10
6.7203331076
 20
3.6791084326
 11
6.7203331076
 21
3.6263234326
  0
LINE
  5
3B0
100
AcDbEntity
  8
03__ASM_ALL_CURVES
100
AcDbLine
 62
40
  6
CONTINUOUS
 10
6.7351789069
 20
3.5500784326
 11
6.7351789069
 21
3.6028634326
  0
LINE
  5
3B1
100
AcDbEntity
  8
03__ASM_ALL_CURVES
100
AcDbLine
 62
40
  6
CONTINUOUS
 10
6.5174407819
 20
3.5764709326
 11
6.5207398444
 21
3.5896671826
  0
LINE
  5
3B2
100
AcDbEntity
  8
03__ASM_ALL_CURVES
100
AcDbLine
 62
40
  6
CONTINUOUS
 10
6.5570295319
 20
3.5764709326
 11
6.5537304694
 21
3.5632746826
  0
LINE
  5
3B3
100
AcDbEntity
  8
03__ASM_ALL_CURVES
100
AcDbLine
 62
40
  6
CONTINUOUS
 10
6.5949687326
 20
3.6527159326
 11
6.5982677951
 21
3.6659121826
  0
LINE
  5
3B4
100
AcDbEntity
  8
03__ASM_ALL_CURVES
100
AcDbLine
 62
40
  6
CONTINUOUS
 10
7.4506415433
 20
4.2836296815
 11
7.4440434183
 21
4.2792309326
  0
LINE
  5
3B5
100
AcDbEntity
  8
03__ASM_ALL_CURVES
100
AcDbLine
 62
40
  6
CONTINUOUS
 10
7.4836321683
 20
4.3012246836
 11
7.4902302933
 21
4.3056234326
  0
LINE
  5
3B6
100
AcDbEntity
  8
03__ASM_ALL_CURVES
100
AcDbLine
 62
40
  6
CONTINUOUS
 10
3.9475481062
 20
4.9304164326
 11
4.0179281062
 21
4.9421464326
  0
LINE
  5
3B7
100
AcDbEntity
  8
03__ASM_ALL_CURVES
100
AcDbLine
 62
40
  6
CONTINUOUS
 10
4.0179281062
 20
4.9401914326
 11
3.9475481062
 21
4.9304164326
  0
LINE
  5
3B8
100
AcDbEntity
  8
03__ASM_ALL_CURVES
100
AcDbLine
 62
40
  6
CONTINUOUS
 10
4.0179281062
 20
4.9382364326
 11
3.9475481062
 21
4.9304164326
  0
LINE
  5
3B9
100
AcDbEntity
  8
03__ASM_ALL_CURVES
100
AcDbLine
 62
40
  6
CONTINUOUS
 10
6.2140418557
 20
5.0242564326
 11
6.2228393557
 21
5.018391434
  0
LINE
  5
3BA
100
AcDbEntity
  8
03__ASM_ALL_CURVES
100
AcDbLine
 62
40
  6
CONTINUOUS
 10
6.3460043557
 20
4.9538764326
 11
6.3372068557
 21
4.9597414328
  0
LINE
  5
3BB
100
AcDbEntity
  8
03__ASM_ALL_CURVES
100
AcDbLine
 62
40
  6
CONTINUOUS
 10
6.3372068557
 20
5.000796434
 11
6.3635993557
 21
4.9832014319
  0
LINE
  5
3BC
100
AcDbEntity
  8
03__ASM_ALL_CURVES
100
AcDbLine
 62
40
  6
CONTINUOUS
 10
7.4902302933
 20
4.2528384326
 11
7.4836321683
 21
4.2572371827
  0
LINE
  5
3BD
100
AcDbEntity
  8
03__ASM_ALL_CURVES
100
AcDbLine
 62
40
  6
CONTINUOUS
 10
6.3635993557
 20
5.018391434
 11
6.3548018557
 21
5.0242564326
  0
LINE
  5
3BE
100
AcDbEntity
  8
03__ASM_ALL_CURVES
100
AcDbLine
 62
40
  6
CONTINUOUS
 10
7.4440434183
 20
4.3056234326
 11
7.4506415433
 21
4.3012246836
  0
LINE
  5
3BF
100
AcDbEntity
  8
03__ASM_ALL_CURVES
100
AcDbLine
 62
40
  6
CONTINUOUS
 10
6.4867643557
 20
4.9538764326
 11
6.4779668557
 21
4.9597414328
  0
LINE
  5
3C0
100
AcDbEntity
  8
03__ASM_ALL_CURVES
100
AcDbLine
 62
40
  6
CONTINUOUS
 10
6.3372068557
 20
4.9597414328
 11
6.3284093557
 21
4.9714714326
  0
LINE
  5
3C1
100
AcDbEntity
  8
03__ASM_ALL_CURVES
100
AcDbLine
 62
40
  6
CONTINUOUS
 10
6.3328081057
 20
5.0066614326
 11
6.3372068557
 21
5.000796434
  0
LINE
  5
3C2
100
AcDbEntity
  8
03__ASM_ALL_CURVES
100
AcDbLine
 62
40
  6
CONTINUOUS
 10
6.3635993557
 20
4.9832014319
 11
6.3679981057
 21
4.9773364333
  0
LINE
  5
3C3
100
AcDbEntity
  8
03__ASM_ALL_CURVES
100
AcDbLine
 62
40
  6
CONTINUOUS
 10
6.3679981057
 20
5.0125264312
 11
6.3635993557
 21
5.018391434
  0
LINE
  5
3C4
100
AcDbEntity
  8
03__ASM_ALL_CURVES
100
AcDbLine
 62
40
  6
CONTINUOUS
 10
6.4779668557
 20
4.9597414328
 11
6.4691693557
 21
4.9714714326
  0
LINE
  5
3C5
100
AcDbEntity
  8
03__ASM_ALL_CURVES
100
AcDbLine
 62
40
  6
CONTINUOUS
 10
6.5131568557
 20
5.0066614326
 11
6.5175556057
 21
4.9890664326
  0
LINE
  5
3C6
100
AcDbEntity
  8
03__ASM_ALL_CURVES
100
AcDbLine
 62
40
  6
CONTINUOUS
 10
6.7550881057
 20
4.9538764326
 11
6.7550881057
 21
5.0242564326
  0
LINE
  5
3C7
100
AcDbEntity
  8
0
100
AcDbLine
 62
7
  6
CONTINUOUS
 10
6.7615481062
 20
4.2257466119
 11
6.7615481062
 21
4.2564661925
  0
LINE
  5
3C8
100
AcDbEntity
  8
0
100
AcDbLine
 62
7
  6
CONTINUOUS
 10
6.7685481062
 20
4.2106116935
 11
6.7685481062
 21
4.2715469798
  0
LINE
  5
3C9
100
AcDbEntity
  8
03__ASM_ALL_CURVES
100
AcDbLine
 62
40
  6
CONTINUOUS
 10
6.7863143576
 20
3.6703109315
 11
6.7863143576
 21
3.6615134336
  0
LINE
  5
3CA
100
AcDbEntity
  8
03__ASM_ALL_CURVES
100
AcDbLine
 62
40
  6
CONTINUOUS
 10
6.8011601569
 20
3.6028634326
 11
6.8011601569
 21
3.5500784326
  0
LINE
  5
3CB
100
AcDbEntity
  8
0
100
AcDbLine
 62
7
  6
CONTINUOUS
 10
6.8065481062
 20
4.0759086942
 11
6.8065481062
 21
4.0847806487
  0
LINE
  5
3CC
100
AcDbEntity
  8
0
100
AcDbLine
 62
7
  6
CONTINUOUS
 10
6.8065481062
 20
4.1871550691
 11
6.8065481062
 21
4.295003599
  0
LINE
  5
3CD
100
AcDbEntity
  8
0
100
AcDbLine
 62
7
  6
CONTINUOUS
 10
6.8065481062
 20
4.3974362035
 11
6.8065481062
 21
4.4063084682
  0
LINE
  5
3CE
100
AcDbEntity
  8
0
100
AcDbLine
 62
7
  6
CONTINUOUS
 10
6.8135481062
 20
4.4066517363
 11
6.8135481062
 21
4.3967742927
  0
LINE
  5
3CF
100
AcDbEntity
  8
0
100
AcDbLine
 62
7
  6
CONTINUOUS
 10
6.8135481062
 20
4.0755651289
 11
6.8135481062
 21
4.0854425725
  0
LINE
  5
3D0
100
AcDbEntity
  8
0
100
AcDbLine
 62
7
  6
CONTINUOUS
 10
6.8135481062
 20
4.1869095783
 11
6.8135481062
 21
4.2953070768
  0
LINE
  5
3D1
100
AcDbEntity
  8
0
100
AcDbLine
 62
7
  6
CONTINUOUS
 10
6.8235481062
 20
4.4061610462
 11
6.8235481062
 21
4.3977199064
  0
LINE
  5
3D2
100
AcDbEntity
  8
0
100
AcDbLine
 62
7
  6
CONTINUOUS
 10
6.8235481062
 20
4.0760556315
 11
6.8235481062
 21
4.0844969939
  0
LINE
  5
3D3
100
AcDbEntity
  8
0
100
AcDbLine
 62
7
  6
CONTINUOUS
 10
6.8235481062
 20
4.187832127
 11
6.8235481062
 21
4.2944029067
  0
LINE
  5
3D4
100
AcDbEntity
  8
03__ASM_ALL_CURVES
100
AcDbLine
 62
40
  6
CONTINUOUS
 10
6.8254681057
 20
4.9538764326
 11
6.8254681057
 21
5.0242564326
  0
LINE
  5
3D5
100
AcDbEntity
  8
0
100
AcDbLine
 62
7
  6
CONTINUOUS
 10
6.8305481062
 20
4.077059304
 11
6.8305481062
 21
4.0828573217
  0
LINE
  5
3D6
100
AcDbEntity
  8
0
100
AcDbLine
 62
7
  6
CONTINUOUS
 10
6.8305481062
 20
4.189366785
 11
6.8305481062
 21
4.292848779
  0
LINE
  5
3D7
100
AcDbEntity
  8
0
100
AcDbLine
 62
7
  6
CONTINUOUS
 10
6.8305481062
 20
4.3993595616
 11
6.8305481062
 21
4.4051573929
  0
LINE
  5
3D8
100
AcDbEntity
  8
03__ASM_ALL_CURVES
100
AcDbLine
 62
40
  6
CONTINUOUS
 10
6.8606581057
 20
5.0125264312
 11
6.8606581057
 21
5.000796434
  0
LINE
  5
3D9
100
AcDbEntity
  8
03__ASM_ALL_CURVES
100
AcDbLine
 62
40
  6
CONTINUOUS
 10
6.6345574826
 20
3.6527159326
 11
6.6312584201
 21
3.6395196826
  0
LINE
  5
3DA
100
AcDbEntity
  8
03__ASM_ALL_CURVES
100
AcDbLine
 62
40
  6
CONTINUOUS
 10
6.5207398444
 20
3.5896671826
 11
6.5273379694
 21
3.5984646836
  0
LINE
  5
3DB
100
AcDbEntity
  8
03__ASM_ALL_CURVES
100
AcDbLine
 62
40
  6
CONTINUOUS
 10
6.5751743576
 20
3.6615134336
 11
6.5718752951
 21
3.6571146815
  0
LINE
  5
3DC
100
AcDbEntity
  8
03__ASM_ALL_CURVES
100
AcDbLine
 62
40
  6
CONTINUOUS
 10
6.5982677951
 20
3.6659121826
 11
6.6048659201
 21
3.6747096836
  0
LINE
  5
3DD
100
AcDbEntity
  8
03__ASM_ALL_CURVES
100
AcDbLine
 62
40
  6
CONTINUOUS
 10
6.5537304694
 20
3.5632746826
 11
6.5471323444
 21
3.5544771827
  0
LINE
  5
3DE
100
AcDbEntity
  8
03__ASM_ALL_CURVES
100
AcDbLine
 62
40
  6
CONTINUOUS
 10
6.6312584201
 20
3.6395196826
 11
6.6246602951
 21
3.6307221827
  0
LINE
  5
3DF
100
AcDbEntity
  8
03__ASM_ALL_CURVES
100
AcDbLine
 62
40
  6
CONTINUOUS
 10
6.6032164069
 20
3.5588759329
 11
6.5999173444
 21
3.5544771827
  0
LINE
  5
3E0
100
AcDbEntity
  8
03__ASM_ALL_CURVES
100
AcDbLine
 62
40
  6
CONTINUOUS
 10
6.6807443576
 20
3.6615134336
 11
6.6774452951
 21
3.6571146815
  0
LINE
  5
3E1
100
AcDbEntity
  8
03__ASM_ALL_CURVES
100
AcDbLine
 62
40
  6
CONTINUOUS
 10
6.5718752951
 20
3.6571146815
 11
6.5652771701
 21
3.6527159326
  0
LINE
  5
3E2
100
AcDbEntity
  8
03__ASM_ALL_CURVES
100
AcDbLine
 62
40
  6
CONTINUOUS
 10
6.6048659201
 20
3.6747096836
 11
6.6114640451
 21
3.6791084326
  0
LINE
  5
3E3
100
AcDbEntity
  8
03__ASM_ALL_CURVES
100
AcDbLine
 62
40
  6
CONTINUOUS
 10
7.5034265433
 20
4.2572371827
 11
7.4968284183
 21
4.2528384326
  0
LINE
  5
3E4
100
AcDbEntity
  8
03__ASM_ALL_CURVES
100
AcDbLine
 62
40
  6
CONTINUOUS
 10
6.5273379694
 20
3.5984646836
 11
6.5339360944
 21
3.6028634326
  0
LINE
  5
3E5
100
AcDbEntity
  8
03__ASM_ALL_CURVES
100
AcDbLine
 62
40
  6
CONTINUOUS
 10
7.5562115433
 20
4.2836296815
 11
7.5496134183
 21
4.2792309326
  0
LINE
  5
3E6
100
AcDbEntity
  8
03__ASM_ALL_CURVES
100
AcDbLine
 62
40
  6
CONTINUOUS
 10
6.6246602951
 20
3.6307221827
 11
6.6180621701
 21
3.6263234326
  0
LINE
  5
3E7
100
AcDbEntity
  8
03__ASM_ALL_CURVES
100
AcDbLine
 62
40
  6
CONTINUOUS
 10
6.6774452951
 20
3.6571146815
 11
6.6708471701
 21
3.6527159326
  0
LINE
  5
3E8
100
AcDbEntity
  8
03__ASM_ALL_CURVES
100
AcDbLine
 62
40
  6
CONTINUOUS
 10
6.5471323444
 20
3.5544771827
 11
6.5405342194
 21
3.5500784326
  0
LINE
  5
3E9
100
AcDbEntity
  8
03__ASM_ALL_CURVES
100
AcDbLine
 62
40
  6
CONTINUOUS
 10
6.7632209201
 20
3.6747096836
 11
6.7698190451
 21
3.6791084326
  0
LINE
  5
3EA
100
AcDbEntity
  8
03__ASM_ALL_CURVES
100
AcDbLine
 62
40
  6
CONTINUOUS
 10
6.5999173444
 20
3.5544771827
 11
6.5933192194
 21
3.5500784326
  0
LINE
  5
3EB
100
AcDbEntity
  8
03__ASM_ALL_CURVES
100
AcDbLine
 62
40
  6
CONTINUOUS
 10
6.7830152951
 20
3.6571146815
 11
6.7698190451
 21
3.6483171821
  0
LINE
  5
3EC
100
AcDbEntity
  8
03__ASM_ALL_CURVES
100
AcDbLine
 62
40
  6
CONTINUOUS
 10
7.4968284183
 20
4.3056234326
 11
7.5034265433
 21
4.3012246836
  0
LINE
  5
3ED
100
AcDbEntity
  8
03__ASM_ALL_CURVES
100
AcDbLine
 62
40
  6
CONTINUOUS
 10
6.5571443557
 20
4.9538764326
 11
6.5483468557
 21
4.9597414328
  0
LINE
  5
3EE
100
AcDbEntity
  8
03__ASM_ALL_CURVES
100
AcDbLine
 62
40
  6
CONTINUOUS
 10
7.5496134183
 20
4.3056234326
 11
7.5562115433
 21
4.3012246836
  0
LINE
  5
3EF
100
AcDbEntity
  8
03__ASM_ALL_CURVES
100
AcDbLine
 62
40
  6
CONTINUOUS
 10
6.4955618557
 20
5.0242564326
 11
6.5043593557
 21
5.018391434
  0
LINE
  5
3F0
100
AcDbEntity
  8
0
100
AcDbLine
 62
7
  6
CONTINUOUS
 10
6.9565481062
 20
4.5786084326
 11
6.9515481062
 21
4.5836084326
  0
LINE
  5
3F1
100
AcDbEntity
  8
03__ASM_ALL_CURVES
100
AcDbLine
 62
40
  6
CONTINUOUS
 10
6.5043593557
 20
5.018391434
 11
6.5131568557
 21
5.0066614326
  0
LINE
  5
3F2
100
AcDbEntity
  8
03__ASM_ALL_CURVES
100
AcDbLine
 62
40
  6
CONTINUOUS
 10
6.5483468557
 20
4.9597414328
 11
6.5439481057
 21
4.9656064329
  0
LINE
  5
3F3
100
AcDbEntity
  8
03__ASM_ALL_CURVES
100
AcDbLine
 62
40
  6
CONTINUOUS
 10
6.7198981057
 20
5.0066614326
 11
6.7242968557
 21
4.9890664326
  0
LINE
  5
3F4
100
AcDbEntity
  8
0
100
AcDbLine
 62
7
  6
CONTINUOUS
 10
6.8835481062
 20
3.9036084326
 11
6.8835481062
 21
4.5786084326
  0
LINE
  5
3F5
100
AcDbEntity
  8
0
100
AcDbLine
 62
7
  6
CONTINUOUS
 10
6.8885481062
 20
3.8986084326
 11
6.8885481062
 21
4.5836084326
  0
LINE
  5
3F6
100
AcDbEntity
  8
0
100
AcDbLine
 62
7
  6
CONTINUOUS
 10
6.9515481062
 20
3.8986084326
 11
6.9515481062
 21
4.5836084326
  0
LINE
  5
3F7
100
AcDbEntity
  8
0
100
AcDbLine
 62
7
  6
CONTINUOUS
 10
6.9565481062
 20
3.8991089526
 11
6.9565481062
 21
4.5831079126
  0
LINE
  5
3F8
100
AcDbEntity
  8
0
100
AcDbLine
 62
7
  6
CONTINUOUS
 10
7.0065481062
 20
3.8991089526
 11
7.0065481062
 21
4.5831079126
  0
LINE
  5
3F9
100
AcDbEntity
  8
03__ASM_ALL_CURVES
100
AcDbLine
 62
40
  6
CONTINUOUS
 10
6.7632209201
 20
3.6395196826
 11
6.7599218576
 21
3.6263234326
  0
LINE
  5
3FA
100
AcDbEntity
  8
03__ASM_ALL_CURVES
100
AcDbLine
 62
40
  6
CONTINUOUS
 10
6.7599218576
 20
3.6703109315
 11
6.7632209201
 21
3.6747096836
  0
LINE
  5
3FB
100
AcDbEntity
  8
03__ASM_ALL_CURVES
100
AcDbLine
 62
40
  6
CONTINUOUS
 10
6.7698190451
 20
3.6483171821
 11
6.7632209201
 21
3.6395196826
  0
LINE
  5
3FC
100
AcDbEntity
  8
03__ASM_ALL_CURVES
100
AcDbLine
 62
40
  6
CONTINUOUS
 10
6.7863143576
 20
3.6615134336
 11
6.7830152951
 21
3.6571146815
  0
LINE
  5
3FD
100
AcDbEntity
  8
0
100
AcDbLine
 62
7
  6
CONTINUOUS
 10
6.9565481062
 20
3.9036084326
 11
6.9515481062
 21
3.8986084326
  0
LINE
  5
3FE
100
AcDbEntity
  8
03__ASM_ALL_CURVES
100
AcDbLine
 62
40
  6
CONTINUOUS
 10
6.7023031057
 20
5.0242564326
 11
6.7111006057
 21
5.018391434
  0
LINE
  5
3FF
100
AcDbEntity
  8
03__ASM_ALL_CURVES
100
AcDbLine
 62
40
  6
CONTINUOUS
 10
6.8474618557
 20
5.0242564326
 11
6.8562593557
 21
5.018391434
  0
LINE
  5
400
100
AcDbEntity
  8
0
100
AcDbLine
 62
7
  6
CONTINUOUS
 10
7.1645481062
 20
4.5686084326
 11
7.1495481062
 21
4.5836084326
  0
LINE
  5
401
100
AcDbEntity
  8
03__ASM_ALL_CURVES
100
AcDbLine
 62
40
  6
CONTINUOUS
 10
6.7111006057
 20
5.018391434
 11
6.7198981057
 21
5.0066614326
  0
LINE
  5
402
100
AcDbEntity
  8
0
100
AcDbLine
 62
7
  6
CONTINUOUS
 10
7.0765481062
 20
4.5641084326
 11
7.0765481062
 21
3.9181084326
  0
LINE
  5
403
100
AcDbEntity
  8
0
100
AcDbLine
 62
7
  6
CONTINUOUS
 10
7.0975481062
 20
3.9036084326
 11
7.0975481062
 21
4.5786084326
  0
LINE
  5
404
100
AcDbEntity
  8
0
100
AcDbLine
 62
7
  6
CONTINUOUS
 10
7.1025481062
 20
3.8986084326
 11
7.1025481062
 21
4.5836084326
  0
LINE
  5
405
100
AcDbEntity
  8
03__ASM_ALL_CURVES
100
AcDbLine
 62
40
  6
CONTINUOUS
 10
7.4539406058
 20
4.2880284336
 11
7.4506415433
 21
4.2836296815
  0
LINE
  5
406
100
AcDbEntity
  8
03__ASM_ALL_CURVES
100
AcDbLine
 62
40
  6
CONTINUOUS
 10
7.4770340433
 20
4.2924271826
 11
7.4836321683
 21
4.3012246836
  0
LINE
  5
407
100
AcDbEntity
  8
0
100
AcDbLine
 62
7
  6
CONTINUOUS
 10
7.1645481062
 20
3.9136084326
 11
7.1495481062
 21
3.8986084326
  0
LINE
  5
408
100
AcDbEntity
  8
03__ASM_ALL_CURVES
100
AcDbLine
 62
40
  6
CONTINUOUS
 10
6.8562593557
 20
5.018391434
 11
6.8606581057
 21
5.0125264312
  0
LINE
  5
409
100
AcDbEntity
  8
03__ASM_ALL_CURVES
100
AcDbLine
 62
40
  6
CONTINUOUS
 10
7.4836321683
 20
4.2572371827
 11
7.4770340433
 21
4.2660346826
  0
LINE
  5
40A
100
AcDbEntity
  8
03__ASM_ALL_CURVES
100
AcDbLine
 62
40
  6
CONTINUOUS
 10
7.4506415433
 20
4.3012246836
 11
7.4539406058
 21
4.2968259315
  0
LINE
  5
40B
100
AcDbEntity
  8
03__ASM_ALL_CURVES
100
AcDbLine
 62
40
  6
CONTINUOUS
 10
6.8474618557
 20
4.9890664326
 11
6.8606581057
 21
4.9538764326
  0
LINE
  5
40C
100
AcDbEntity
  8
0
100
AcDbLine
 62
7
  6
CONTINUOUS
 10
7.1495481062
 20
3.8986084326
 11
7.1495481062
 21
4.5836084326
  0
LINE
  5
40D
100
AcDbEntity
  8
0
100
AcDbLine
 62
7
  6
CONTINUOUS
 10
7.1645481062
 20
3.9136141568
 11
7.1645481062
 21
4.5686027084
  0
LINE
  5
40E
100
AcDbEntity
  8
03__ASM_ALL_CURVES
100
AcDbLine
 62
40
  6
CONTINUOUS
 10
7.5100246683
 20
4.2660346826
 11
7.5034265433
 21
4.2572371827
  0
LINE
  5
40F
100
AcDbEntity
  8
03__ASM_ALL_CURVES
100
AcDbLine
 62
40
  6
CONTINUOUS
 10
7.5595106058
 20
4.2880284336
 11
7.5562115433
 21
4.2836296815
  0
LINE
  5
410
100
AcDbEntity
  8
03__ASM_ALL_CURVES
100
AcDbLine
 62
40
  6
CONTINUOUS
 10
7.5034265433
 20
4.3012246836
 11
7.5100246683
 21
4.2924271826
  0
LINE
  5
411
100
AcDbEntity
  8
03__ASM_ALL_CURVES
100
AcDbLine
 62
40
  6
CONTINUOUS
 10
7.5562115433
 20
4.3012246836
 11
7.5595106058
 21
4.2968259315
  0
LINE
  5
412
100
AcDbEntity
  8
03__ASM_ALL_CURVES
100
AcDbLine
 62
40
  6
CONTINUOUS
 10
7.4671368554
 20
4.2293784326
 11
7.4935293554
 21
4.1765934326
  0
LINE
  5
413
100
AcDbEntity
  8
03__ASM_ALL_CURVES
100
AcDbLine
 62
40
  6
CONTINUOUS
 10
7.4275481054
 20
4.2293784326
 11
7.4275481054
 21
4.1765934326
  0
LINE
  5
414
100
AcDbEntity
  8
03__ASM_ALL_CURVES
100
AcDbLine
 62
40
  6
CONTINUOUS
 10
7.4275481058
 20
4.2528384326
 11
7.4275481058
 21
4.3056234326
  0
LINE
  5
415
100
AcDbEntity
  8
03__ASM_ALL_CURVES
100
AcDbLine
 62
40
  6
CONTINUOUS
 10
7.4539406058
 20
4.2968259315
 11
7.4539406058
 21
4.2880284336
  0
LINE
  5
416
100
AcDbEntity
  8
03__ASM_ALL_CURVES
100
AcDbLine
 62
40
  6
CONTINUOUS
 10
7.4671368554
 20
4.1765934326
 11
7.4671368554
 21
4.2293784326
  0
LINE
  5
417
100
AcDbEntity
  8
03__ASM_ALL_CURVES
100
AcDbLine
 62
40
  6
CONTINUOUS
 10
7.4935293554
 20
4.1765934326
 11
7.4935293554
 21
4.2293784326
  0
LINE
  5
418
100
AcDbEntity
  8
03__ASM_ALL_CURVES
100
AcDbLine
 62
40
  6
CONTINUOUS
 10
7.5199218554
 20
4.2293784326
 11
7.5199218554
 21
4.1765934326
  0
LINE
  5
419
100
AcDbEntity
  8
03__ASM_ALL_CURVES
100
AcDbLine
 62
40
  6
CONTINUOUS
 10
7.5331181058
 20
4.2528384326
 11
7.5331181058
 21
4.3056234326
  0
LINE
  5
41A
100
AcDbEntity
  8
03__ASM_ALL_CURVES
100
AcDbLine
 62
40
  6
CONTINUOUS
 10
7.4737349808
 20
4.2792309326
 11
7.4770340433
 21
4.2924271826
  0
LINE
  5
41B
100
AcDbEntity
  8
03__ASM_ALL_CURVES
100
AcDbLine
 62
40
  6
CONTINUOUS
 10
7.5133237308
 20
4.2792309326
 11
7.5100246683
 21
4.2660346826
  0
LINE
  5
41C
100
AcDbEntity
  8
03__ASM_ALL_CURVES
100
AcDbLine
 62
40
  6
CONTINUOUS
 10
7.5496134183
 20
4.2792309326
 11
7.5595106058
 21
4.2528384326
  0
LINE
  5
41D
100
AcDbEntity
  8
03__ASM_ALL_CURVES
100
AcDbLine
 62
40
  6
CONTINUOUS
 10
7.4770340433
 20
4.2660346826
 11
7.4737349808
 21
4.2792309326
  0
LINE
  5
41E
100
AcDbEntity
  8
03__ASM_ALL_CURVES
100
AcDbLine
 62
40
  6
CONTINUOUS
 10
7.5100246683
 20
4.2924271826
 11
7.5133237308
 21
4.2792309326
  0
LINE
  5
41F
100
AcDbEntity
  8
03__ASM_ALL_CURVES
100
AcDbLine
 62
40
  6
CONTINUOUS
 10
7.5595106058
 20
4.2968259315
 11
7.5595106058
 21
4.2880284336
  0
LINE
  5
420
100
AcDbEntity
  8
03__ASM_ALL_CURVES
100
AcDbLine
 62
40
  6
CONTINUOUS
 10
7.5727068554
 20
4.1765934326
 11
7.5727068554
 21
4.2293784326
  0
LINE
  5
421
100
AcDbEntity
  8
03__ASM_ALL_CURVES
100
AcDbLine
 62
40
  6
CONTINUOUS
 10
7.5990993558
 20
4.3056234326
 11
7.5990993558
 21
4.2528384326
  0
LINE
  5
422
100
AcDbEntity
  8
03__ASM_ALL_CURVES
100
AcDbLine
 62
40
  6
CONTINUOUS
 10
7.6386881054
 20
4.2293784326
 11
7.6386881054
 21
4.1765934326
  0
LINE
  5
423
100
AcDbEntity
  8
03__ASM_ALL_CURVES
100
AcDbLine
 62
40
  6
CONTINUOUS
 10
7.6518843558
 20
4.3056234326
 11
7.6518843558
 21
4.2528384326
  0
ARC
  5
424
100
AcDbEntity
  8
0
100
AcDbCircle
 62
7
  6
CONTINUOUS
 10
4.6055481062
 20
4.4181084326
 40
0.094
100
AcDbArc
 50
90.0
 51
131.267427381
  0
ARC
  5
425
100
AcDbEntity
  8
0
100
AcDbCircle
 62
7
  6
CONTINUOUS
 10
4.6055481062
 20
4.0641084326
 40
0.094
100
AcDbArc
 50
228.732572619
 51
270.0
  0
CIRCLE
  5
426
100
AcDbEntity
  8
0
100
AcDbCircle
 62
7
  6
CONTINUOUS
 10
6.8135481062
 20
4.2411084326
 40
0.0545
  0
ARC
  5
427
100
AcDbEntity
  8
0
100
AcDbCircle
 62
7
  6
CONTINUOUS
 10
5.7850425527
 20
3.8776084326
 40
0.013
100
AcDbArc
 50
29.999999997
 51
90.0
  0
ARC
  5
428
100
AcDbEntity
  8
0
100
AcDbCircle
 62
7
  6
CONTINUOUS
 10
5.7850425527
 20
4.6046084326
 40
0.013
100
AcDbArc
 50
270.0
 51
330.0000000004
  0
ARC
  5
429
100
AcDbEntity
  8
0
100
AcDbCircle
 62
7
  6
CONTINUOUS
 10
5.6105481062
 20
3.8197216812
 40
0.005
100
AcDbArc
 50
120.0000000123
 51
179.9999999997
  0
ARC
  5
42A
100
AcDbEntity
  8
0
100
AcDbCircle
 62
7
  6
CONTINUOUS
 10
5.6105481062
 20
4.6624951839
 40
0.005
100
AcDbArc
 50
180.0000000002
 51
239.9999999914
  0
ARC
  5
42B
100
AcDbEntity
  8
0
100
AcDbCircle
 62
7
  6
CONTINUOUS
 10
5.6302705381
 20
3.8311084326
 40
0.005
100
AcDbArc
 50
90.0
 51
120.0000000158
  0
ARC
  5
42C
100
AcDbEntity
  8
0
100
AcDbCircle
 62
7
  6
CONTINUOUS
 10
5.6302705381
 20
4.6511084326
 40
0.005
100
AcDbArc
 50
239.9999999852
 51
270.0
  0
ARC
  5
42D
100
AcDbEntity
  8
0
100
AcDbCircle
 62
7
  6
CONTINUOUS
 10
5.6025481062
 20
3.8166084326
 40
0.003
100
AcDbArc
 50
270.0
 51
360.0
  0
ARC
  5
42E
100
AcDbEntity
  8
0
100
AcDbCircle
 62
7
  6
CONTINUOUS
 10
5.6025481062
 20
4.6656084326
 40
0.003
100
AcDbArc
 50
0.0
 51
90.0
  0
ARC
  5
42F
100
AcDbEntity
  8
0
100
AcDbCircle
 62
7
  6
CONTINUOUS
 10
5.5425481062
 20
4.6606084326
 40
0.002
100
AcDbArc
 50
222.3553148142
 51
317.6446851858
  0
ARC
  5
430
100
AcDbEntity
  8
0
100
AcDbCircle
 62
7
  6
CONTINUOUS
 10
5.5425481062
 20
3.8216084326
 40
0.002
100
AcDbArc
 50
42.3553148142
 51
137.6446851858
  0
SPLINE
  5
431
100
AcDbEntity
  8
0
100
AcDbSpline
 62
7
  6
CONTINUOUS
 70
0
 71
3
 72
15
 73
11
 74
9
 42
0.0000001
 43
0.0000001
 44
0.0000000001
 12
0.0
 22
0.1099409465
 32
0.0
 13
0.0
 23
-0.1099409465
 33
0.0
 40
0.0
 40
0.0
 40
0.0
 40
0.0
 40
0.125
 40
0.25
 40
0.375
 40
0.5
 40
0.625
 40
0.75
 40
0.875
 40
1.0
 40
1.0
 40
1.0
 40
1.0
 10
7.0765481062
 20
4.5641084326
 30
0.0
 10
7.0765481062
 20
4.5686893054
 30
0.0
 10
7.0747257217
 20
4.5778510509
 30
0.0
 10
7.0669411538
 20
4.5895014802
 30
0.0
 10
7.0552907245
 20
4.5972860481
 30
0.0
 10
7.0415481062
 20
4.6000196248
 30
0.0
 10
7.0278054879
 20
4.5972860481
 30
0.0
 10
7.0161550587
 20
4.5895014802
 30
0.0
 10
7.0083704907
 20
4.5778510509
 30
0.0
 10
7.0065481062
 20
4.5686893054
 30
0.0
 10
7.0065481062
 20
4.5641084326
 30
0.0
 11
7.0765481062
 21
4.5641084326
 31
0.0
 11
7.0738838899
 21
4.5775023527
 31
0.0
 11
7.0662968436
 21
4.5888571699
 31
0.0
 11
7.0549420264
 21
4.5964442162
 31
0.0
 11
7.0415481062
 21
4.5991084326
 31
0.0
 11
7.0281541861
 21
4.5964442162
 31
0.0
 11
7.0167993689
 21
4.5888571699
 31
0.0
 11
7.0092123226
 21
4.5775023527
 31
0.0
 11
7.0065481062
 21
4.5641084326
 31
0.0
  0
SPLINE
  5
432
100
AcDbEntity
  8
0
100
AcDbSpline
 62
7
  6
CONTINUOUS
 70
0
 71
3
 72
15
 73
11
 74
9
 42
0.0000001
 43
0.0000001
 44
0.0000000001
 12
0.0
 22
-0.1099409465
 32
0.0
 13
0.0
 23
0.1099409465
 33
0.0
 40
0.0
 40
0.0
 40
0.0
 40
0.0
 40
0.125
 40
0.25
 40
0.375
 40
0.5
 40
0.625
 40
0.75
 40
0.875
 40
1.0
 40
1.0
 40
1.0
 40
1.0
 10
7.0765481062
 20
3.9181084326
 30
0.0
 10
7.0765481062
 20
3.9135275598
 30
0.0
 10
7.0747257217
 20
3.9043658143
 30
0.0
 10
7.0669411538
 20
3.892715385
 30
0.0
 10
7.0552907245
 20
3.8849308171
 30
0.0
 10
7.0415481062
 20
3.8821972403
 30
0.0
 10
7.0278054879
 20
3.8849308171
 30
0.0
 10
7.0161550587
 20
3.892715385
 30
0.0
 10
7.0083704907
 20
3.9043658143
 30
0.0
 10
7.0065481062
 20
3.9135275598
 30
0.0
 10
7.0065481062
 20
3.9181084326
 30
0.0
 11
7.0765481062
 21
3.9181084326
 31
0.0
 11
7.0738838899
 21
3.9047145125
 31
0.0
 11
7.0662968436
 21
3.8933596953
 31
0.0
 11
7.0549420264
 21
3.885772649
 31
0.0
 11
7.0415481062
 21
3.8831084326
 31
0.0
 11
7.0281541861
 21
3.885772649
 31
0.0
 11
7.0167993689
 21
3.8933596953
 31
0.0
 11
7.0092123226
 21
3.9047145125
 31
0.0
 11
7.0065481062
 21
3.9181084326
 31
0.0
  0
SPLINE
  5
433
100
AcDbEntity
  8
0
100
AcDbSpline
 62
7
  6
CONTINUOUS
 70
0
 71
3
 72
15
 73
11
 74
9
 42
0.0000001
 43
0.0000001
 44
0.0000000001
 12
0.0
 22
0.1099409465
 32
0.0
 13
0.0
 23
-0.1099409465
 33
0.0
 40
0.0
 40
0.0
 40
0.0
 40
0.0
 40
0.125
 40
0.25
 40
0.375
 40
0.5
 40
0.625
 40
0.75
 40
0.875
 40
1.0
 40
1.0
 40
1.0
 40
1.0
 10
5.7225481062
 20
4.6266084326
 30
0.0
 10
5.7225481062
 20
4.6311893054
 30
0.0
 10
5.7207257217
 20
4.6403510509
 30
0.0
 10
5.7129411538
 20
4.6520014802
 30
0.0
 10
5.7012907245
 20
4.6597860481
 30
0.0
 10
5.6875481062
 20
4.6625196248
 30
0.0
 10
5.6738054879
 20
4.6597860481
 30
0.0
 10
5.6621550587
 20
4.6520014802
 30
0.0
 10
5.6543704907
 20
4.6403510509
 30
0.0
 10
5.6525481062
 20
4.6311893054
 30
0.0
 10
5.6525481062
 20
4.6266084326
 30
0.0
 11
5.7225481062
 21
4.6266084326
 31
0.0
 11
5.7198838899
 21
4.6400023527
 31
0.0
 11
5.7122968436
 21
4.6513571699
 31
0.0
 11
5.7009420264
 21
4.6589442162
 31
0.0
 11
5.6875481062
 21
4.6616084326
 31
0.0
 11
5.6741541861
 21
4.6589442162
 31
0.0
 11
5.6627993689
 21
4.6513571699
 31
0.0
 11
5.6552123226
 21
4.6400023527
 31
0.0
 11
5.6525481062
 21
4.6266084326
 31
0.0
  0
SPLINE
  5
434
100
AcDbEntity
  8
0
100
AcDbSpline
 62
7
  6
CONTINUOUS
 70
0
 71
3
 72
15
 73
11
 74
9
 42
0.0000001
 43
0.0000001
 44
0.0000000001
 12
0.0
 22
-0.1099409465
 32
0.0
 13
0.0
 23
0.1099409465
 33
0.0
 40
0.0
 40
0.0
 40
0.0
 40
0.0
 40
0.125
 40
0.25
 40
0.375
 40
0.5
 40
0.625
 40
0.75
 40
0.875
 40
1.0
 40
1.0
 40
1.0
 40
1.0
 10
5.7225481062
 20
3.8556084326
 30
0.0
 10
5.7225481062
 20
3.8510275598
 30
0.0
 10
5.7207257217
 20
3.8418658143
 30
0.0
 10
5.7129411538
 20
3.830215385
 30
0.0
 10
5.7012907245
 20
3.8224308171
 30
0.0
 10
5.6875481062
 20
3.8196972403
 30
0.0
 10
5.6738054879
 20
3.8224308171
 30
0.0
 10
5.6621550587
 20
3.830215385
 30
0.0
 10
5.6543704907
 20
3.8418658143
 30
0.0
 10
5.6525481062
 20
3.8510275598
 30
0.0
 10
5.6525481062
 20
3.8556084326
 30
0.0
 11
5.7225481062
 21
3.8556084326
 31
0.0
 11
5.7198838899
 21
3.8422145125
 31
0.0
 11
5.7122968436
 21
3.8308596953
 31
0.0
 11
5.7009420264
 21
3.823272649
 31
0.0
 11
5.6875481062
 21
3.8206084326
 31
0.0
 11
5.6741541861
 21
3.823272649
 31
0.0
 11
5.6627993689
 21
3.8308596953
 31
0.0
 11
5.6552123226
 21
3.8422145125
 31
0.0
 11
5.6525481062
 21
3.8556084326
 31
0.0
  0
SPLINE
  5
435
100
AcDbEntity
  8
0
100
AcDbSpline
 62
7
  6
CONTINUOUS
 70
0
 71
3
 72
16
 73
12
 74
10
 42
0.0000001
 43
0.0000001
 44
0.0000000001
 12
0.0906480335
 22
0.2719441006
 32
0.0
 13
-0.0906480335
 23
0.2719441006
 33
0.0
 40
0.0
 40
0.0
 40
0.0
 40
0.0
 40
0.1184548733
 40
0.230565332
 40
0.3393089466
 40
0.4465959239
 40
0.5535015371
 40
0.6607803311
 40
0.769505023
 40
0.8815660643
 40
1.0
 40
1.0
 40
1.0
 40
1.0
 10
4.7936766959
 20
3.9601084326
 30
0.0
 10
4.7972559296
 20
3.9708461339
 30
0.0
 10
4.8036870163
 20
3.9919321808
 30
0.0
 10
4.8112064459
 20
4.0234932356
 30
0.0
 10
4.8162946734
 20
4.0544620537
 30
0.0
 10
4.8188815356
 20
4.0852451233
 30
0.0
 10
4.8188803473
 20
4.1159989243
 30
0.0
 10
4.8162915067
 20
4.1467792157
 30
0.0
 10
4.8112027719
 20
4.1777405175
 30
0.0
 10
4.8036845152
 20
4.2092930491
 30
0.0
 10
4.797255297
 20
4.2303726292
 30
0.0
 10
4.7936766959
 20
4.2411084326
 30
0.0
 11
4.7936766959
 21
3.9601084326
 31
0.0
 11
4.8035151655
 21
3.9926074605
 31
0.0
 11
4.8109023359
 21
4.0238838509
 31
0.0
 11
4.8159069533
 21
4.0546513034
 31
0.0
 11
4.8184539186
 21
4.0852999246
 31
0.0
 11
4.8184527485
 21
4.1159448731
 31
0.0
 11
4.8159038084
 21
4.1465909762
 31
0.0
 11
4.8108983693
 21
4.1773527994
 31
0.0
 11
4.8035135979
 21
4.208615201
 31
0.0
 11
4.7936766959
 21
4.2411084326
 31
0.0
  0
SPLINE
  5
436
100
AcDbEntity
  8
0
100
AcDbSpline
 62
7
  6
CONTINUOUS
 70
0
 71
3
 72
17
 73
13
 74
11
 42
0.0000001
 43
0.0000001
 44
0.0000000001
 12
-0.1487434696
 22
0.2576312467
 32
0.0
 13
0.1487434696
 23
0.2576312467
 33
0.0
 40
0.0
 40
0.0
 40
0.0
 40
0.0
 40
0.1169386465
 40
0.2216811606
 40
0.3184580982
 40
0.4103908543
 40
0.5000417254
 40
0.5896883004
 40
0.6816074548
 40
0.7783545182
 40
0.8830694657
 40
1.0
 40
1.0
 40
1.0
 40
1.0
 10
4.6920189575
 20
3.9601084326
 30
0.0
 10
4.6862210042
 20
3.9701507824
 30
0.0
 10
4.6758811766
 20
3.9895806298
 30
0.0
 10
4.6635075532
 20
4.0186827074
 30
0.0
 10
4.6548541064
 20
4.0465242701
 30
0.0
 10
4.6496970018
 20
4.0737075897
 30
0.0
 10
4.6479801215
 20
4.1006204746
 30
0.0
 10
4.6497000071
 20
4.1275317994
 30
0.0
 10
4.6548587588
 20
4.15470994
 30
0.0
 10
4.6635116106
 20
4.182544246
 30
0.0
 10
4.675883198
 20
4.2116400857
 30
0.0
 10
4.6862214064
 20
4.2310667795
 30
0.0
 10
4.6920189575
 20
4.2411084326
 30
0.0
 11
4.6920189575
 21
3.9601084326
 31
0.0
 11
4.6757927261
 21
3.9908800896
 31
0.0
 11
4.6637079696
 21
4.0196007262
 31
0.0
 11
4.6552552963
 21
4.0471217948
 31
0.0
 11
4.6502224109
 21
4.07400351
 31
0.0
 11
4.6485481066
 21
4.1006208661
 31
0.0
 11
4.6502253489
 21
4.1272367566
 31
0.0
 11
4.6552599956
 21
4.1541140253
 31
0.0
 11
4.6637116106
 21
4.1816261219
 31
0.0
 11
4.6757937618
 21
4.2103389576
 31
0.0
 11
4.6920189575
 21
4.2411084326
 31
0.0
  0
SPLINE
  5
437
100
AcDbEntity
  8
0
100
AcDbSpline
 62
7
  6
CONTINUOUS
 70
0
 71
3
 72
16
 73
12
 74
10
 42
0.0000001
 43
0.0000001
 44
0.0000000001
 12
0.0906480335
 22
0.2719441006
 32
0.0
 13
-0.0906480335
 23
0.2719441006
 33
0.0
 40
0.0
 40
0.0
 40
0.0
 40
0.0
 40
0.1184548733
 40
0.230565332
 40
0.3393089466
 40
0.4465959239
 40
0.5535015371
 40
0.6607803311
 40
0.769505023
 40
0.8815660643
 40
1.0
 40
1.0
 40
1.0
 40
1.0
 10
4.7936766959
 20
4.2411084326
 30
0.0
 10
4.7972559296
 20
4.2518461339
 30
0.0
 10
4.8036870163
 20
4.2729321808
 30
0.0
 10
4.8112064459
 20
4.3044932356
 30
0.0
 10
4.8162946734
 20
4.3354620537
 30
0.0
 10
4.8188815356
 20
4.3662451233
 30
0.0
 10
4.8188803473
 20
4.3969989243
 30
0.0
 10
4.8162915067
 20
4.4277792157
 30
0.0
 10
4.8112027719
 20
4.4587405175
 30
0.0
 10
4.8036845152
 20
4.4902930491
 30
0.0
 10
4.797255297
 20
4.5113726292
 30
0.0
 10
4.7936766959
 20
4.5221084326
 30
0.0
 11
4.7936766959
 21
4.2411084326
 31
0.0
 11
4.8035151655
 21
4.2736074605
 31
0.0
 11
4.8109023359
 21
4.3048838509
 31
0.0
 11
4.8159069533
 21
4.3356513034
 31
0.0
 11
4.8184539186
 21
4.3662999246
 31
0.0
 11
4.8184527485
 21
4.3969448731
 31
0.0
 11
4.8159038084
 21
4.4275909762
 31
0.0
 11
4.8108983693
 21
4.4583527994
 31
0.0
 11
4.8035135979
 21
4.489615201
 31
0.0
 11
4.7936766959
 21
4.5221084326
 31
0.0
  0
SPLINE
  5
438
100
AcDbEntity
  8
0
100
AcDbSpline
 62
7
  6
CONTINUOUS
 70
0
 71
3
 72
17
 73
13
 74
11
 42
0.0000001
 43
0.0000001
 44
0.0000000001
 12
-0.1487434696
 22
0.2576312467
 32
0.0
 13
0.1487434696
 23
0.2576312467
 33
0.0
 40
0.0
 40
0.0
 40
0.0
 40
0.0
 40
0.1169386465
 40
0.2216811606
 40
0.3184580982
 40
0.4103908543
 40
0.5000417254
 40
0.5896883004
 40
0.6816074548
 40
0.7783545182
 40
0.8830694657
 40
1.0
 40
1.0
 40
1.0
 40
1.0
 10
4.6920189575
 20
4.2411084326
 30
0.0
 10
4.6862210042
 20
4.2511507824
 30
0.0
 10
4.6758811766
 20
4.2705806298
 30
0.0
 10
4.6635075532
 20
4.2996827074
 30
0.0
 10
4.6548541064
 20
4.3275242701
 30
0.0
 10
4.6496970018
 20
4.3547075897
 30
0.0
 10
4.6479801215
 20
4.3816204746
 30
0.0
 10
4.6497000071
 20
4.4085317994
 30
0.0
 10
4.6548587588
 20
4.43570994
 30
0.0
 10
4.6635116106
 20
4.463544246
 30
0.0
 10
4.675883198
 20
4.4926400857
 30
0.0
 10
4.6862214064
 20
4.5120667795
 30
0.0
 10
4.6920189575
 20
4.5221084326
 30
0.0
 11
4.6920189575
 21
4.2411084326
 31
0.0
 11
4.6757927261
 21
4.2718800896
 31
0.0
 11
4.6637079696
 21
4.3006007262
 31
0.0
 11
4.6552552963
 21
4.3281217948
 31
0.0
 11
4.6502224109
 21
4.35500351
 31
0.0
 11
4.6485481066
 21
4.3816208661
 31
0.0
 11
4.6502253489
 21
4.4082367566
 31
0.0
 11
4.6552599956
 21
4.4351140253
 31
0.0
 11
4.6637116106
 21
4.4626261219
 31
0.0
 11
4.6757937618
 21
4.4913389576
 31
0.0
 11
4.6920189575
 21
4.5221084326
 31
0.0
  0
SPLINE
  5
439
100
AcDbEntity
  8
0
100
AcDbSpline
 62
7
  6
CONTINUOUS
 70
0
 71
3
 72
11
 73
7
 74
5
 42
0.0000001
 43
0.0000001
 44
0.0000000001
 12
0.0065581001
 22
0.1243853682
 32
0.0
 13
0.0395553069
 23
0.1181105677
 33
0.0
 40
0.0
 40
0.0
 40
0.0
 40
0.0
 40
0.2417085824
 40
0.4860349504
 40
0.7367063685
 40
1.0
 40
1.0
 40
1.0
 40
1.0
 10
3.9475481062
 20
4.4004142011
 30
0.0
 10
3.9480764893
 20
4.4104358715
 30
0.0
 10
3.9499667957
 20
4.4305524417
 30
0.0
 10
3.9551548537
 20
4.4607226617
 30
0.0
 10
3.9626046258
 20
4.4913340552
 30
0.0
 10
3.9688817672
 20
4.5117425125
 30
0.0
 10
3.9723533207
 20
4.5221084326
 30
0.0
 11
3.9475481062
 21
4.4004142011
 31
0.0
 11
3.950335615
 21
4.430391649
 31
0.0
 11
3.9554456942
 21
4.4603923925
 31
0.0
 11
3.9627726628
 21
4.4907436938
 31
0.0
 11
3.9723533207
 21
4.5221084326
 31
0.0
  0
SPLINE
  5
43A
100
AcDbEntity
  8
0
100
AcDbSpline
 62
7
  6
CONTINUOUS
 70
0
 71
3
 72
11
 73
7
 74
5
 42
0.0000001
 43
0.0000001
 44
0.0000000001
 12
-0.0065581001
 22
0.1243853683
 32
0.0
 13
-0.0395553069
 23
0.1181105678
 33
0.0
 40
0.0
 40
0.0
 40
0.0
 40
0.0
 40
0.2417060951
 40
0.4860307644
 40
0.7367018609
 40
1.0
 40
1.0
 40
1.0
 40
1.0
 10
4.5435481062
 20
4.4004142011
 30
0.0
 10
4.5430197286
 20
4.4104357683
 30
0.0
 10
4.5411294471
 20
4.4305521656
 30
0.0
 10
4.5359414514
 20
4.4607222061
 30
0.0
 10
4.5284916888
 20
4.4913337083
 30
0.0
 10
4.5222145047
 20
4.511742335
 30
0.0
 10
4.5187428918
 20
4.5221084326
 30
0.0
 11
4.5435481062
 21
4.4004142011
 31
0.0
 11
4.5407606383
 21
4.4303913416
 31
0.0
 11
4.535650624
 21
4.4603918816
 31
0.0
 11
4.5283236984
 21
4.4907431521
 31
0.0
 11
4.5187428918
 21
4.5221084326
 31
0.0
  0
SPLINE
  5
43B
100
AcDbEntity
  8
0
100
AcDbSpline
 62
7
  6
CONTINUOUS
 70
0
 71
3
 72
11
 73
7
 74
5
 42
0.0000001
 43
0.0000001
 44
0.0000000001
 12
0.0395553074
 22
0.1181105691
 32
0.0
 13
0.0065581002
 23
0.1243853697
 33
0.0
 40
0.0
 40
0.0
 40
0.0
 40
0.0
 40
0.2633420954
 40
0.5140293393
 40
0.7583344282
 40
1.0
 40
1.0
 40
1.0
 40
1.0
 10
4.5187428918
 20
3.9601084326
 30
0.0
 10
4.5222150843
 20
3.9704762609
 30
0.0
 10
4.52849292
 20
3.9908873049
 30
0.0
 10
4.535942682
 20
4.0215005451
 30
0.0
 10
4.54112991
 20
4.0516688624
 30
0.0
 10
4.5430198172
 20
4.0717827769
 30
0.0
 10
4.5435481062
 20
4.0818026641
 30
0.0
 11
4.5187428918
 21
3.9601084326
 31
0.0
 11
4.528325148
 21
3.9914789955
 31
0.0
 11
4.535652142
 21
4.021832319
 31
0.0
 11
4.540761302
 21
4.0518305308
 31
0.0
 11
4.5435481062
 21
4.0818026641
 31
0.0
  0
SPLINE
  5
43C
100
AcDbEntity
  8
0
100
AcDbSpline
 62
7
  6
CONTINUOUS
 70
0
 71
3
 72
11
 73
7
 74
5
 42
0.0000001
 43
0.0000001
 44
0.0000000001
 12
-0.0395553073
 22
0.118110569
 32
0.0
 13
-0.0065581002
 23
0.1243853696
 33
0.0
 40
0.0
 40
0.0
 40
0.0
 40
0.0
 40
0.2633373967
 40
0.5140249804
 40
0.7583318719
 40
1.0
 40
1.0
 40
1.0
 40
1.0
 10
3.9723533207
 20
3.9601084326
 30
0.0
 10
3.9688811901
 20
3.9704760759
 30
0.0
 10
3.9626033988
 20
3.9908869435
 30
0.0
 10
3.9551536266
 20
4.0215000718
 30
0.0
 10
3.9499663339
 20
4.0516685763
 30
0.0
 10
3.9480764008
 20
4.0717826709
 30
0.0
 10
3.9475481062
 20
4.0818026641
 30
0.0
 11
3.9723533207
 21
3.9601084326
 31
0.0
 11
3.9627712195
 21
3.9914784309
 31
0.0
 11
3.9554441806
 21
4.021831787
 31
0.0
 11
3.9503349523
 21
4.0518302149
 31
0.0
 11
3.9475481062
 21
4.0818026641
 31
0.0
  0
SPLINE
  5
43D
100
AcDbEntity
  8
0
100
AcDbSpline
 62
7
  6
CONTINUOUS
 70
0
 71
3
 72
11
 73
7
 74
5
 42
0.0000001
 43
0.0000001
 44
0.0000000001
 12
0.0065092637
 22
0.1234591037
 32
0.0
 13
0.0390954227
 23
0.1172862682
 33
0.0
 40
0.0
 40
0.0
 40
0.0
 40
0.0
 40
0.241830305
 40
0.4862835797
 40
0.7370395833
 40
1.0
 40
1.0
 40
1.0
 40
1.0
 10
3.9475481062
 20
4.1202943518
 30
0.0
 10
3.9480728187
 20
4.1302464027
 30
0.0
 10
3.9499442286
 20
4.1502235858
 30
0.0
 10
3.955072903
 20
4.180186357
 30
0.0
 10
3.9624323369
 20
4.2105729159
 30
0.0
 10
3.9686323973
 20
4.2308278839
 30
0.0
 10
3.9720592468
 20
4.2411084326
 30
0.0
 11
3.9475481062
 21
4.1202943518
 31
0.0
 11
3.9503081626
 21
4.1500643006
 31
0.0
 11
3.9553606934
 21
4.1798608643
 31
0.0
 11
3.9626030012
 21
4.2100041527
 31
0.0
 11
3.9720592468
 21
4.2411084326
 31
0.0
  0
SPLINE
  5
43E
100
AcDbEntity
  8
0
100
AcDbSpline
 62
7
  6
CONTINUOUS
 70
0
 71
3
 72
11
 73
7
 74
5
 42
0.0000001
 43
0.0000001
 44
0.0000000001
 12
-0.0065092637
 22
0.1234591037
 32
0.0
 13
-0.0390954227
 23
0.1172862682
 33
0.0
 40
0.0
 40
0.0
 40
0.0
 40
0.0
 40
0.241830305
 40
0.4862835797
 40
0.7370395833
 40
1.0
 40
1.0
 40
1.0
 40
1.0
 10
4.5435481062
 20
4.1202943518
 30
0.0
 10
4.5430233938
 20
4.1302464027
 30
0.0
 10
4.5411519839
 20
4.1502235858
 30
0.0
 10
4.5360233095
 20
4.180186357
 30
0.0
 10
4.5286638756
 20
4.2105729159
 30
0.0
 10
4.5224638152
 20
4.2308278839
 30
0.0
 10
4.5190369657
 20
4.2411084326
 30
0.0
 11
4.5435481062
 21
4.1202943518
 31
0.0
 11
4.5407880499
 21
4.1500643006
 31
0.0
 11
4.535735519
 21
4.1798608643
 31
0.0
 11
4.5284932112
 21
4.2100041527
 31
0.0
 11
4.5190369657
 21
4.2411084326
 31
0.0
  0
SPLINE
  5
43F
100
AcDbEntity
  8
0
100
AcDbSpline
 62
7
  6
CONTINUOUS
 70
0
 71
3
 72
11
 73
7
 74
5
 42
0.0000001
 43
0.0000001
 44
0.0000000001
 12
0.0390954231
 22
0.1172862694
 32
0.0
 13
0.0065092638
 23
0.1234591049
 33
0.0
 40
0.0
 40
0.0
 40
0.0
 40
0.0
 40
0.2629996122
 40
0.513770255
 40
0.7582061964
 40
1.0
 40
1.0
 40
1.0
 40
1.0
 10
4.5190369657
 20
4.2411084326
 30
0.0
 10
4.522464326
 20
4.2513905137
 30
0.0
 10
4.5286649632
 20
4.2716476314
 30
0.0
 10
4.5360243991
 20
4.302035743
 30
0.0
 10
4.541152395
 20
4.3319969888
 30
0.0
 10
4.543023473
 20
4.3519719646
 30
0.0
 10
4.5435481062
 20
4.3619225134
 30
0.0
 11
4.5190369657
 21
4.2411084326
 31
0.0
 11
4.5284944886
 21
4.2722173892
 31
0.0
 11
4.5357368626
 21
4.3023625235
 31
0.0
 11
4.540788641
 21
4.3321570416
 31
0.0
 11
4.5435481062
 21
4.3619225134
 31
0.0
  0
SPLINE
  5
440
100
AcDbEntity
  8
0
100
AcDbSpline
 62
7
  6
CONTINUOUS
 70
0
 71
3
 72
11
 73
7
 74
5
 42
0.0000001
 43
0.0000001
 44
0.0000000001
 12
-0.0390954231
 22
0.1172862694
 32
0.0
 13
-0.0065092638
 23
0.1234591049
 33
0.0
 40
0.0
 40
0.0
 40
0.0
 40
0.0
 40
0.2629996122
 40
0.513770255
 40
0.7582061964
 40
1.0
 40
1.0
 40
1.0
 40
1.0
 10
3.9720592468
 20
4.2411084326
 30
0.0
 10
3.9686318864
 20
4.2513905137
 30
0.0
 10
3.9624312493
 20
4.2716476314
 30
0.0
 10
3.9550718134
 20
4.302035743
 30
0.0
 10
3.9499438175
 20
4.3319969888
 30
0.0
 10
3.9480727395
 20
4.3519719646
 30
0.0
 10
3.9475481062
 20
4.3619225134
 30
0.0
 11
3.9720592468
 21
4.2411084326
 31
0.0
 11
3.9626017239
 21
4.2722173892
 31
0.0
 11
3.9553593499
 21
4.3023625235
 31
0.0
 11
3.9503075715
 21
4.3321570416
 31
0.0
 11
3.9475481062
 21
4.3619225134
 31
0.0
  0
SPLINE
  5
441
100
AcDbEntity
  8
0
100
AcDbSpline
 62
7
  6
CONTINUOUS
 70
0
 71
3
 72
14
 73
10
 74
8
 42
0.0000001
 43
0.0000001
 44
0.0000000001
 12
-0.0756798031
 22
0.0
 32
0.0
 13
0.0000430686
 23
-0.0759682058
 33
0.0
 40
0.0
 40
0.0
 40
0.0
 40
0.0
 40
0.1597772872
 40
0.3181135913
 40
0.4725872007
 40
0.6200554513
 40
0.7574448074
 40
0.8834901399
 40
1.0
 40
1.0
 40
1.0
 40
1.0
 10
6.8135481062
 20
4.0854425725
 30
0.0
 10
6.8095174684
 20
4.0854425725
 30
0.0
 10
6.8014718798
 20
4.0846846936
 30
0.0
 10
6.7899578928
 20
4.0813385153
 30
0.0
 10
6.7795616049
 20
4.0760029991
 30
0.0
 10
6.7708327715
 20
4.0690484997
 30
0.0
 10
6.764223458
 20
4.060949446
 30
0.0
 10
6.7600603206
 20
4.0521976623
 30
0.0
 10
6.7590464386
 20
4.0460689524
 30
0.0
 10
6.7590481112
 20
4.0431186041
 30
0.0
 11
6.8135481062
 21
4.0854425725
 31
0.0
 11
6.8015098938
 21
4.0843042327
 31
0.0
 11
6.7900061831
 21
4.0809495968
 31
0.0
 11
6.7796182156
 21
4.0755868851
 31
0.0
 11
6.7709213711
 21
4.0685926937
 31
0.0
 11
6.7644084001
 21
4.0604876778
 31
0.0
 11
6.7603997478
 21
4.0518317626
 31
0.0
 11
6.7590481112
 21
4.0431186041
 31
0.0
  0
SPLINE
  5
442
100
AcDbEntity
  8
0
100
AcDbSpline
 62
7
  6
CONTINUOUS
 70
0
 71
3
 72
14
 73
10
 74
8
 42
0.0000001
 43
0.0000001
 44
0.0000000001
 12
0.0756798035
 22
0.0
 32
0.0
 13
-0.0000430735
 23
0.0759682059
 33
0.0
 40
0.0
 40
0.0
 40
0.0
 40
0.0
 40
0.1597786831
 40
0.3181170899
 40
0.4725918032
 40
0.6200583893
 40
0.7574472053
 40
0.8834914924
 40
1.0
 40
1.0
 40
1.0
 40
1.0
 10
6.8135481062
 20
4.3967742927
 30
0.0
 10
6.8175787794
 20
4.3967742927
 30
0.0
 10
6.8256244567
 20
4.3975321866
 30
0.0
 10
6.837138548
 20
4.4008784317
 30
0.0
 10
6.8475348452
 20
4.4062140195
 30
0.0
 10
6.8562636184
 20
4.413168547
 30
0.0
 10
6.8628728441
 20
4.4212675659
 30
0.0
 10
6.8670359139
 20
4.4300192982
 30
0.0
 10
6.868049774
 20
4.4361479463
 30
0.0
 10
6.8680481012
 20
4.4390982604
 30
0.0
 11
6.8135481062
 21
4.3967742927
 31
0.0
 11
6.8255864229
 21
4.3979126524
 31
0.0
 11
6.8370902765
 21
4.401267367
 31
0.0
 11
6.8474782906
 21
4.4066301708
 31
0.0
 11
6.8561749999
 21
4.4136243294
 31
0.0
 11
6.8626879093
 21
4.4217293424
 31
0.0
 11
6.8666964951
 21
4.4303852013
 31
0.0
 11
6.8680481012
 21
4.4390982604
 31
0.0
  0
SPLINE
  5
443
100
AcDbEntity
  8
0
100
AcDbSpline
 62
7
  6
CONTINUOUS
 70
0
 71
3
 72
14
 73
10
 74
8
 42
0.0000001
 43
0.0000001
 44
0.0000000001
 12
0.0000430457
 22
0.0759682023
 32
0.0
 13
-0.0756798018
 23
0.0
 33
0.0
 40
0.0
 40
0.0
 40
0.0
 40
0.0
 40
0.1165146604
 40
0.2425632927
 40
0.3799544018
 40
0.5274235082
 40
0.6818960828
 40
0.8402271767
 40
1.0
 40
1.0
 40
1.0
 40
1.0
 10
6.8680481015
 20
4.043118601
 30
0.0
 10
6.8680497733
 20
4.0460690708
 30
0.0
 10
6.8670358155
 20
4.0521979909
 30
0.0
 10
6.8628724488
 20
4.0609499442
 30
0.0
 10
6.8562629205
 20
4.0690490167
 30
0.0
 10
6.8475339566
 20
4.0760034151
 30
0.0
 10
6.8371377234
 20
4.0813387345
 30
0.0
 10
6.8256239742
 20
4.084684738
 30
0.0
 10
6.8175786314
 20
4.0854425725
 30
0.0
 10
6.8135481062
 20
4.0854425725
 30
0.0
 11
6.8680481015
 21
4.043118601
 31
0.0
 11
6.8666963569
 21
4.051832113
 31
0.0
 11
6.8626874848
 21
4.0604882015
 31
0.0
 11
6.8561743097
 21
4.0685932233
 31
0.0
 11
6.8474773133
 21
4.0755873289
 31
0.0
 11
6.8370893458
 21
4.0809498696
 31
0.0
 11
6.8255859851
 21
4.0843042964
 31
0.0
 11
6.8135481062
 21
4.0854425725
 31
0.0
  0
SPLINE
  5
444
100
AcDbEntity
  8
0
100
AcDbSpline
 62
7
  6
CONTINUOUS
 70
0
 71
3
 72
10
 73
6
 74
4
 42
0.0000001
 43
0.0000001
 44
0.0000000001
 12
0.0192945051
 22
-0.0056934772
 32
0.0
 13
0.0200725263
 23
-0.0012884745
 33
0.0
 40
0.0
 40
0.0
 40
0.0
 40
0.0
 40
0.2977034008
 40
0.8155116774
 40
1.0
 40
1.0
 40
1.0
 40
1.0
 10
6.7867481037
 20
4.0791399184
 30
0.0
 10
6.7886627836
 20
4.0785749293
 30
0.0
 10
6.7939729964
 20
4.0772480321
 30
0.0
 10
6.8006120153
 20
4.0762505448
 30
0.0
 10
6.805305986
 20
4.0758673843
 30
0.0
 10
6.8065403683
 20
4.0757881481
 30
0.0
 11
6.7867481037
 21
4.0791399184
 31
0.0
 11
6.7925536384
 21
4.0776745803
 31
0.0
 11
6.8028420081
 21
4.0760905924
 31
0.0
 11
6.8065403683
 21
4.0757881481
 31
0.0
  0
SPLINE
  5
445
100
AcDbEntity
  8
0
100
AcDbSpline
 62
7
  6
CONTINUOUS
 70
0
 71
3
 72
8
 73
4
 74
2
 42
0.0000001
 43
0.0000001
 44
0.0000000001
 12
0.0069994971
 22
-0.0004493043
 32
0.0
 13
0.0070101845
 23
0.0
 33
0.0
 40
0.0
 40
0.0
 40
0.0
 40
0.0
 40
1.0
 40
1.0
 40
1.0
 40
1.0
 10
6.8065403683
 20
4.0757881481
 30
0.0
 10
6.808873534
 20
4.07563838
 30
0.0
 10
6.8112113781
 20
4.0755651289
 30
0.0
 10
6.8135481062
 20
4.0755651289
 30
0.0
 11
6.8065403683
 21
4.0757881481
 31
0.0
 11
6.8135481062
 21
4.0755651289
 31
0.0
  0
SPLINE
  5
446
100
AcDbEntity
  8
0
100
AcDbSpline
 62
7
  6
CONTINUOUS
 70
0
 71
3
 72
9
 73
5
 74
3
 42
0.0000001
 43
0.0000001
 44
0.0000000001
 12
-0.0096223478
 22
0.0028394237
 32
0.0
 13
-0.0098949223
 23
0.0016411473
 33
0.0
 40
0.0
 40
0.0
 40
0.0
 40
0.0
 40
0.597463215
 40
1.0
 40
1.0
 40
1.0
 40
1.0
 10
6.8403483019
 20
4.4030768885
 30
0.0
 10
6.838431969
 20
4.4036423722
 30
0.0
 10
6.8351845859
 20
4.404453704
 30
0.0
 10
6.83189833
 20
4.4050730474
 30
0.0
 10
6.83057064
 20
4.4052932548
 30
0.0
 11
6.8403483019
 21
4.4030768885
 31
0.0
 11
6.834537709
 21
4.4045433214
 31
0.0
 11
6.83057064
 21
4.4052932548
 31
0.0
  0
SPLINE
  5
447
100
AcDbEntity
  8
0
100
AcDbSpline
 62
7
  6
CONTINUOUS
 70
0
 71
3
 72
9
 73
5
 74
3
 42
0.0000001
 43
0.0000001
 44
0.0000000001
 12
-0.0168650932
 22
0.0027972026
 32
0.0
 13
-0.0170879146
 23
0.0
 33
0.0
 40
0.0
 40
0.0
 40
0.0
 40
0.0
 40
0.3728617618
 40
1.0
 40
1.0
 40
1.0
 40
1.0
 10
6.83057064
 20
4.4052932548
 30
0.0
 10
6.8284745238
 20
4.4056409115
 30
0.0
 10
6.8228203966
 20
4.4063787766
 30
0.0
 10
6.8171202678
 20
4.4066517363
 30
0.0
 10
6.8135481062
 20
4.4066517363
 30
0.0
 11
6.83057064
 21
4.4052932548
 31
0.0
 11
6.8242517128
 21
4.4061265209
 31
0.0
 11
6.8135481062
 21
4.4066517363
 31
0.0
  0
SPLINE
  5
448
100
AcDbEntity
  8
0
100
AcDbSpline
 62
7
  6
CONTINUOUS
 70
0
 71
3
 72
14
 73
10
 74
8
 42
0.0000001
 43
0.0000001
 44
0.0000000001
 12
-0.0000430526
 22
-0.0759682034
 32
0.0
 13
0.0756798023
 23
0.0
 33
0.0
 40
0.0
 40
0.0
 40
0.0
 40
0.0
 40
0.1165130696
 40
0.2425606285
 40
0.3799513001
 40
0.5274190171
 40
0.6818925249
 40
0.8402257913
 40
1.0
 40
1.0
 40
1.0
 40
1.0
 10
6.7590481111
 20
4.4390982633
 30
0.0
 10
6.759046439
 20
4.4361478338
 30
0.0
 10
6.7600603717
 20
4.4300189826
 30
0.0
 10
6.7642236644
 20
4.4212670819
 30
0.0
 10
6.7708331079
 20
4.4131680351
 30
0.0
 10
6.7795620159
 20
4.4062136048
 30
0.0
 10
6.7899582622
 20
4.4008782122
 30
0.0
 10
6.801472113
 20
4.3975321423
 30
0.0
 10
6.8095175461
 20
4.3967742927
 30
0.0
 10
6.8135481062
 20
4.3967742927
 30
0.0
 11
6.7590481111
 21
4.4390982633
 31
0.0
 11
6.7603998199
 21
4.4303848683
 31
0.0
 11
6.7644086199
 21
4.421728836
 31
0.0
 11
6.7709217354
 21
4.4136238086
 31
0.0
 11
6.7796186126
 21
4.4066297224
 31
0.0
 11
6.7900066153
 21
4.4012670959
 31
0.0
 11
6.8015101238
 21
4.3979125885
 31
0.0
 11
6.8135481062
 21
4.3967742927
 31
0.0
  0
SPLINE
  5
449
100
AcDbEntity
  8
0
100
AcDbSpline
 62
7
  6
CONTINUOUS
 70
0
 71
3
 72
8
 73
4
 74
2
 42
0.0000001
 43
0.0000001
 44
0.0000000001
 12
-0.0070101682
 22
0.0
 32
0.0
 13
-0.0069994757
 23
-0.0004493017
 33
0.0
 40
0.0
 40
0.0
 40
0.0
 40
0.0
 40
1.0
 40
1.0
 40
1.0
 40
1.0
 10
6.8135481062
 20
4.4066517363
 30
0.0
 10
6.8112113835
 20
4.4066517363
 30
0.0
 10
6.8088735459
 20
4.4065784843
 30
0.0
 10
6.8065403874
 20
4.406428717
 30
0.0
 11
6.8135481062
 21
4.4066517363
 31
0.0
 11
6.8065403874
 21
4.406428717
 31
0.0
  0
SPLINE
  5
44A
100
AcDbEntity
  8
0
100
AcDbSpline
 62
7
  6
CONTINUOUS
 70
0
 71
3
 72
10
 73
6
 74
4
 42
0.0000001
 43
0.0000001
 44
0.0000000001
 12
-0.0200731038
 22
-0.0012885078
 32
0.0
 13
-0.0192949915
 23
-0.0056938134
 33
0.0
 40
0.0
 40
0.0
 40
0.0
 40
0.0
 40
0.1840343391
 40
0.7014248641
 40
1.0
 40
1.0
 40
1.0
 40
1.0
 10
6.8065403874
 20
4.406428717
 30
0.0
 10
6.8053090072
 20
4.4063496738
 30
0.0
 10
6.8006207166
 20
4.4059671783
 30
0.0
 10
6.7939813955
 20
4.4049705366
 30
0.0
 10
6.7886679108
 20
4.403643464
 30
0.0
 10
6.7867475759
 20
4.403076787
 30
0.0
 11
6.8065403874
 21
4.406428717
 31
0.0
 11
6.8028510087
 21
4.4061271688
 31
0.0
 11
6.7925704136
 21
4.4045458575
 31
0.0
 11
6.7867475759
 21
4.403076787
 31
0.0
  0
SPLINE
  5
44B
100
AcDbEntity
  8
0
100
AcDbSpline
 62
7
  6
CONTINUOUS
 70
0
 71
3
 72
9
 73
5
 74
3
 42
0.0000001
 43
0.0000001
 44
0.0000000001
 12
0.0170878932
 22
0.0
 32
0.0
 13
0.0168650656
 23
0.0027971972
 33
0.0
 40
0.0
 40
0.0
 40
0.0
 40
0.0
 40
0.6269056479
 40
1.0
 40
1.0
 40
1.0
 40
1.0
 10
6.8135481062
 20
4.0755651289
 30
0.0
 10
6.8171189385
 20
4.0755651289
 30
0.0
 10
6.8228190567
 20
4.0758379889
 30
0.0
 10
6.8284731924
 20
4.0765757342
 30
0.0
 10
6.8305706126
 20
4.076923607
 30
0.0
 11
6.8135481062
 21
4.0755651289
 31
0.0
 11
6.8242477394
 21
4.0760899487
 31
0.0
 11
6.8305706126
 21
4.076923607
 31
0.0
  0
SPLINE
  5
44C
100
AcDbEntity
  8
0
100
AcDbSpline
 62
7
  6
CONTINUOUS
 70
0
 71
3
 72
9
 73
5
 74
3
 42
0.0000001
 43
0.0000001
 44
0.0000000001
 12
0.0098950922
 22
0.001641175
 32
0.0
 13
0.0096225046
 23
0.0028394974
 33
0.0
 40
0.0
 40
0.0
 40
0.0
 40
0.0
 40
0.4018228854
 40
1.0
 40
1.0
 40
1.0
 40
1.0
 10
6.8305706126
 20
4.076923607
 30
0.0
 10
6.8318959708
 20
4.0771434276
 30
0.0
 10
6.8351823051
 20
4.0777626535
 30
0.0
 10
6.8384297862
 20
4.0785738448
 30
0.0
 10
6.8403484402
 20
4.0791400189
 30
0.0
 11
6.8305706126
 21
4.076923607
 31
0.0
 11
6.8345307462
 21
4.0776720609
 31
0.0
 11
6.8403484402
 21
4.0791400189
 31
0.0
  0
SPLINE
  5
44D
100
AcDbEntity
  8
0
100
AcDbSpline
 62
7
  6
CONTINUOUS
 70
0
 71
3
 72
22
 73
18
 74
16
 42
0.0000001
 43
0.0000001
 44
0.0000000001
 12
-0.1076692396
 22
-0.0209570676
 32
0.0
 13
-0.1076692396
 23
0.0209570675
 33
0.0
 40
0.0
 40
0.0
 40
0.0
 40
0.0
 40
0.0110466848
 40
0.0436777342
 40
0.0963361408
 40
0.1662757182
 40
0.2508874884
 40
0.3458858561
 40
0.4480922402
 40
0.5520721278
 40
0.6542947893
 40
0.749325918
 40
0.8339073555
 40
0.903811829
 40
0.9563923393
 40
0.9889785466
 40
1.0
 40
1.0
 40
1.0
 40
1.0
 10
6.8680481062
 20
4.5211084326
 30
0.0
 10
6.8676516435
 20
4.5210312639
 30
0.0
 10
6.8660834576
 20
4.5207292311
 30
0.0
 10
6.8626194726
 20
4.5200901247
 30
0.0
 10
6.8570223661
 20
4.5191468137
 30
0.0
 10
6.8495239288
 20
4.518057542
 30
0.0
 10
6.8404581796
 20
4.5170108332
 30
0.0
 10
6.830184693
 20
4.516186202
 30
0.0
 10
6.8191786467
 20
4.5157333049
 30
0.0
 10
6.8078989393
 20
4.5157336756
 30
0.0
 10
6.7968911314
 20
4.5161874021
 30
0.0
 10
6.7866170248
 20
4.5170128826
 30
0.0
 10
6.7775525439
 20
4.5180601438
 30
0.0
 10
6.7700593618
 20
4.5191491265
 30
0.0
 10
6.7644679853
 20
4.5200917009
 30
0.0
 10
6.7610093321
 20
4.5207298849
 30
0.0
 10
6.7594436634
 20
4.5210314401
 30
0.0
 10
6.7590481062
 20
4.5211084326
 30
0.0
 11
6.8680481062
 21
4.5211084326
 31
0.0
 11
6.8668582629
 21
4.5208792724
 31
0.0
 11
6.8633383557
 21
4.5202299455
 31
0.0
 11
6.8576425213
 21
4.5192703772
 31
0.0
 11
6.8500504261
 21
4.5181682986
 31
0.0
 11
6.8408304824
 21
4.5171049508
 31
0.0
 11
6.8304434306
 21
4.5162723873
 31
0.0
 11
6.8192418669
 21
4.5158122165
 31
0.0
 11
6.8078363195
 21
4.5158125908
 31
0.0
 11
6.7966330034
 21
4.5162736025
 31
0.0
 11
6.7862424339
 21
4.5171072546
 31
0.0
 11
6.7770258764
 21
4.5181709224
 31
0.0
 11
6.7694376601
 21
4.5192729189
 31
0.0
 11
6.7637502898
 21
4.5202312954
 31
0.0
 11
6.7602352308
 21
4.5208797905
 31
0.0
 11
6.7590481062
 21
4.5211084326
 31
0.0
  0
SPLINE
  5
44E
100
AcDbEntity
  8
0
100
AcDbSpline
 62
7
  6
CONTINUOUS
 70
0
 71
3
 72
22
 73
18
 74
16
 42
0.0000001
 43
0.0000001
 44
0.0000000001
 12
0.1076692396
 22
0.0209570676
 32
0.0
 13
0.1076692396
 23
-0.0209570675
 33
0.0
 40
0.0
 40
0.0
 40
0.0
 40
0.0
 40
0.0110466848
 40
0.0436777342
 40
0.0963361408
 40
0.1662757182
 40
0.2508874884
 40
0.3458858561
 40
0.4480922402
 40
0.5520721278
 40
0.6542947893
 40
0.749325918
 40
0.8339073555
 40
0.903811829
 40
0.9563923393
 40
0.9889785466
 40
1.0
 40
1.0
 40
1.0
 40
1.0
 10
6.7590481062
 20
3.9611084326
 30
0.0
 10
6.759444569
 20
3.9611856013
 30
0.0
 10
6.7610127549
 20
3.9614876341
 30
0.0
 10
6.7644767399
 20
3.9621267405
 30
0.0
 10
6.7700738463
 20
3.9630700515
 30
0.0
 10
6.7775722836
 20
3.9641593231
 30
0.0
 10
6.7866380329
 20
3.965206032
 30
0.0
 10
6.7969115195
 20
3.9660306632
 30
0.0
 10
6.8079175658
 20
3.9664835603
 30
0.0
 10
6.8191972732
 20
3.9664831896
 30
0.0
 10
6.8302050811
 20
3.9660294631
 30
0.0
 10
6.8404791876
 20
3.9652039825
 30
0.0
 10
6.8495436686
 20
3.9641567214
 30
0.0
 10
6.8570368507
 20
3.9630677387
 30
0.0
 10
6.8626282271
 20
3.9621251643
 30
0.0
 10
6.8660868804
 20
3.9614869803
 30
0.0
 10
6.8676525491
 20
3.961185425
 30
0.0
 10
6.8680481062
 20
3.9611084326
 30
0.0
 11
6.7590481062
 21
3.9611084326
 31
0.0
 11
6.7602379496
 21
3.9613375928
 31
0.0
 11
6.7637578568
 21
3.9619869197
 31
0.0
 11
6.7694536912
 21
3.962946488
 31
0.0
 11
6.7770457864
 21
3.9640485666
 31
0.0
 11
6.7862657301
 21
3.9651119144
 31
0.0
 11
6.7966527819
 21
3.9659444779
 31
0.0
 11
6.8078543456
 21
3.9664046487
 31
0.0
 11
6.8192598929
 21
3.9664042744
 31
0.0
 11
6.830463209
 21
3.9659432627
 31
0.0
 11
6.8408537786
 21
3.9651096106
 31
0.0
 11
6.8500703361
 21
3.9640459428
 31
0.0
 11
6.8576585524
 21
3.9629439463
 31
0.0
 11
6.8633459227
 21
3.9619855698
 31
0.0
 11
6.8668609816
 21
3.9613370747
 31
0.0
 11
6.8680481062
 21
3.9611084326
 31
0.0
  0
SPLINE
  5
44F
100
AcDbEntity
  8
0
100
AcDbSpline
 62
7
  6
CONTINUOUS
 70
0
 71
3
 72
14
 73
10
 74
8
 42
0.0000001
 43
0.0000001
 44
0.0000000001
 12
-0.0713766727
 22
0.0
 32
0.0
 13
-0.0000406046
 23
-0.0716486754
 33
0.0
 40
0.0
 40
0.0
 40
0.0
 40
0.0
 40
0.169101671
 40
0.3335273421
 40
0.4887502821
 40
0.631426423
 40
0.7611932116
 40
0.8817892995
 40
1.0
 40
1.0
 40
1.0
 40
1.0
 10
6.8135481062
 20
4.4738489319
 30
0.0
 10
6.8095248014
 20
4.4738489319
 30
0.0
 10
6.8015797362
 20
4.4733553373
 30
0.0
 10
6.7901320027
 20
4.4711165525
 30
0.0
 10
6.7797328477
 20
4.4673740616
 30
0.0
 10
6.7709139894
 20
4.4621451966
 30
0.0
 10
6.7641699828
 20
4.4555009047
 30
0.0
 10
6.7599567269
 20
4.4476367119
 30
0.0
 10
6.759049711
 20
4.4419214767
 30
0.0
 10
6.7590481111
 20
4.4390982633
 30
0.0
 11
6.8135481062
 21
4.4738489319
 31
0.0
 11
6.8015025454
 21
4.4730825741
 31
0.0
 11
6.7899950501
 21
4.4707771589
 31
0.0
 11
6.7796020604
 21
4.4669383327
 31
0.0
 11
6.7709064833
 21
4.4616377981
 31
0.0
 11
6.7643978495
 21
4.4550477839
 31
0.0
 11
6.7603943193
 21
4.4474277403
 31
0.0
 11
6.7590481111
 21
4.4390982633
 31
0.0
  0
SPLINE
  5
450
100
AcDbEntity
  8
0
100
AcDbSpline
 62
7
  6
CONTINUOUS
 70
0
 71
3
 72
14
 73
10
 74
8
 42
0.0000001
 43
0.0000001
 44
0.0000000001
 12
0.0000406197
 22
-0.071648678
 32
0.0
 13
0.0713766738
 23
-0.0
 33
0.0
 40
0.0
 40
0.0
 40
0.0
 40
0.0
 40
0.1182080425
 40
0.2388037891
 40
0.3685706033
 40
0.5112470139
 40
0.6664707902
 40
0.8308971346
 40
1.0
 40
1.0
 40
1.0
 40
1.0
 10
6.7590481112
 20
4.0431186041
 30
0.0
 10
6.7590497117
 20
4.0402954541
 30
0.0
 10
6.7599566927
 20
4.0345802899
 30
0.0
 10
6.7641698548
 20
4.0267161284
 30
0.0
 10
6.7709138203
 20
4.0200717934
 30
0.0
 10
6.7797326813
 20
4.0148428768
 30
0.0
 10
6.7901318684
 20
4.0111003459
 30
0.0
 10
6.801579663
 20
4.0088615341
 30
0.0
 10
6.8095247729
 20
4.0083679333
 30
0.0
 10
6.8135481062
 20
4.0083679333
 30
0.0
 11
6.7590481112
 21
4.0431186041
 31
0.0
 11
6.7603942584
 21
4.034789307
 31
0.0
 11
6.7643977208
 21
4.0271692553
 31
0.0
 11
6.7709063145
 21
4.0205791987
 31
0.0
 11
6.779601885
 21
4.015278616
 31
0.0
 11
6.789994921
 21
4.0114397423
 31
0.0
 11
6.8015024605
 21
4.009134302
 31
0.0
 11
6.8135481062
 21
4.0083679333
 31
0.0
  0
SPLINE
  5
451
100
AcDbEntity
  8
0
100
AcDbSpline
 62
7
  6
CONTINUOUS
 70
0
 71
3
 72
14
 73
10
 74
8
 42
0.0000001
 43
0.0000001
 44
0.0000000001
 12
0.0713766724
 22
0.0
 32
0.0
 13
0.0000405982
 23
0.0716486745
 33
0.0
 40
0.0
 40
0.0
 40
0.0
 40
0.0
 40
0.1691014004
 40
0.3335268529
 40
0.4887496306
 40
0.6314256409
 40
0.761192309
 40
0.8817884798
 40
1.0
 40
1.0
 40
1.0
 40
1.0
 10
6.8135481062
 20
4.0083679333
 30
0.0
 10
6.8175714047
 20
4.0083679333
 30
0.0
 10
6.8255164581
 20
4.0088615264
 30
0.0
 10
6.8369641769
 20
4.0111003046
 30
0.0
 10
6.8473633224
 20
4.014842785
 30
0.0
 10
6.8561821773
 20
4.0200716354
 30
0.0
 10
6.8629261921
 20
4.026715912
 30
0.0
 10
6.8671394751
 20
4.0345801118
 30
0.0
 10
6.8680465017
 20
4.0402953681
 30
0.0
 10
6.8680481015
 20
4.043118601
 30
0.0
 11
6.8135481062
 21
4.0083679333
 31
0.0
 11
6.8255936478
 21
4.0091342886
 31
0.0
 11
6.8371011285
 21
4.0114396969
 31
0.0
 11
6.8474941098
 21
4.0152785124
 31
0.0
 11
6.8561896848
 21
4.0205790325
 31
0.0
 11
6.8626983242
 21
4.027169029
 31
0.0
 11
6.8667018743
 21
4.0347890687
 31
0.0
 11
6.8680481015
 21
4.043118601
 31
0.0
  0
SPLINE
  5
452
100
AcDbEntity
  8
0
100
AcDbSpline
 62
7
  6
CONTINUOUS
 70
0
 71
3
 72
14
 73
10
 74
8
 42
0.0000001
 43
0.0000001
 44
0.0000000001
 12
-0.0000406244
 22
0.071648678
 32
0.0
 13
-0.0713766741
 23
-0.0
 33
0.0
 40
0.0
 40
0.0
 40
0.0
 40
0.0
 40
0.1182071039
 40
0.2388029845
 40
0.3685698851
 40
0.5112464347
 40
0.6664703703
 40
0.8308969075
 40
1.0
 40
1.0
 40
1.0
 40
1.0
 10
6.8680481012
 20
4.4390982604
 30
0.0
 10
6.8680465005
 20
4.441921388
 30
0.0
 10
6.8671395309
 20
4.4476365331
 30
0.0
 10
6.862926395
 20
4.4555006897
 30
0.0
 10
6.8561824334
 20
4.4621450419
 30
0.0
 10
6.8473635691
 20
4.4673739718
 30
0.0
 10
6.8369643727
 20
4.4711165122
 30
0.0
 10
6.825516565
 20
4.4733553298
 30
0.0
 10
6.817571445
 20
4.4738489319
 30
0.0
 10
6.8135481062
 20
4.4738489319
 30
0.0
 11
6.8680481012
 21
4.4390982604
 31
0.0
 11
6.8667019756
 21
4.4474274938
 31
0.0
 11
6.8626985262
 21
4.4550475632
 31
0.0
 11
6.8561899387
 21
4.4616376347
 31
0.0
 11
6.847494365
 21
4.4669382313
 31
0.0
 11
6.8371013205
 21
4.4707771148
 31
0.0
 11
6.8255937681
 21
4.4730825611
 31
0.0
 11
6.8135481062
 21
4.4738489319
 31
0.0
  0
SPLINE
  5
453
100
AcDbEntity
  8
0
100
AcDbSpline
 62
7
  6
CONTINUOUS
 70
0
 71
3
 72
11
 73
7
 74
5
 42
0.0000001
 43
0.0000001
 44
0.0000000001
 12
0.0
 22
0.013598141
 32
0.0
 13
0.0131290075
 23
0.003795777
 33
0.0
 40
0.0
 40
0.0
 40
0.0
 40
0.0
 40
0.3675619648
 40
0.6819520079
 40
0.9645911104
 40
1.0
 40
1.0
 40
1.0
 40
1.0
 10
6.0709070901
 20
4.4299289407
 30
0.0
 10
6.0709070901
 20
4.4315949938
 30
0.0
 10
6.0712560441
 20
4.4347097421
 30
0.0
 10
6.0732027948
 20
4.438768569
 30
0.0
 10
6.0756535187
 20
4.4405188847
 30
0.0
 10
6.0770318481
 20
4.4409674611
 30
0.0
 10
6.0771868093
 20
4.4410122625
 30
0.0
 11
6.0709070901
 21
4.4299289407
 31
0.0
 11
6.0715817084
 21
4.4348813631
 31
0.0
 11
6.073574282
 21
4.4386637304
 31
0.0
 11
6.0767267521
 21
4.4408622292
 31
0.0
 11
6.0771868093
 21
4.4410122625
 31
0.0
  0
SPLINE
  5
454
100
AcDbEntity
  8
0
100
AcDbSpline
 62
7
  6
CONTINUOUS
 70
0
 71
3
 72
14
 73
10
 74
8
 42
0.0000001
 43
0.0000001
 44
0.0000000001
 12
-0.0369879893
 22
-0.0106347923
 32
0.0
 13
0.0
 23
0.0382386955
 33
0.0
 40
0.0
 40
0.0
 40
0.0
 40
0.0
 40
0.0880043518
 40
0.2129734341
 40
0.3588240659
 40
0.5197626855
 40
0.6870274328
 40
0.8495691737
 40
1.0
 40
1.0
 40
1.0
 40
1.0
 10
6.0934297955
 20
4.4040675315
 30
0.0
 10
6.0923447608
 20
4.4037555622
 30
0.0
 10
6.0895583398
 20
4.403532391
 30
0.0
 10
6.0851013342
 20
4.4049336474
 30
0.0
 10
6.0805469243
 20
4.4081391254
 30
0.0
 10
6.0765385631
 20
4.4127234575
 30
0.0
 10
6.0734243742
 20
4.4181938848
 30
0.0
 10
6.0714307195
 20
4.4240163499
 30
0.0
 10
6.0709070901
 20
4.4280115145
 30
0.0
 10
6.0709070901
 20
4.4299289407
 30
0.0
 11
6.0934297955
 21
4.4040675315
 31
0.0
 11
6.0900660485
 21
4.4037512419
 31
0.0
 11
6.0854686952
 21
4.4050550373
 31
0.0
 11
6.0808512078
 21
4.4081828605
 31
0.0
 11
6.0767585441
 21
4.4127788195
 31
0.0
 11
6.0735805574
 21
4.4183294082
 31
0.0
 11
6.0715896508
 21
4.4242173017
 31
0.0
 11
6.0709070901
 21
4.4299289407
 31
0.0
  0
SPLINE
  5
455
100
AcDbEntity
  8
0
100
AcDbSpline
 62
7
  6
CONTINUOUS
 70
0
 71
3
 72
17
 73
13
 74
11
 42
0.0000001
 43
0.0000001
 44
0.0000000001
 12
0.0275297486
 22
0.0296171302
 32
0.0
 13
0.0296260444
 23
0.027520192
 33
0.0
 40
0.0
 40
0.0
 40
0.0
 40
0.0
 40
0.0244655736
 40
0.0961174646
 40
0.2093271998
 40
0.3544191718
 40
0.5156503484
 40
0.6752955755
 40
0.8161876577
 40
0.9261421624
 40
0.9988161752
 40
1.0
 40
1.0
 40
1.0
 40
1.0
 10
6.0709070901
 20
3.8634674164
 30
0.0
 10
6.0711316005
 20
3.8637089498
 30
0.0
 10
6.0720144085
 20
3.8646571348
 30
0.0
 10
6.073943688
 20
3.8667158946
 30
0.0
 10
6.0770051374
 20
3.869941823
 30
0.0
 10
6.080934465
 20
3.8740084523
 30
0.0
 10
6.0853478523
 20
3.8784772291
 30
0.0
 10
6.089773354
 20
3.8828538781
 30
0.0
 10
6.0937513376
 20
3.8866995873
 30
0.0
 10
6.0969157799
 20
3.8896998779
 30
0.0
 10
6.0987259318
 20
3.8913915102
 30
0.0
 10
6.0994552716
 20
3.892069072
 30
0.0
 10
6.0994669623
 20
3.8920799317
 30
0.0
 11
6.0709070901
 21
3.8634674164
 31
0.0
 11
6.0715812159
 21
3.8641914634
 31
0.0
 11
6.0735623848
 21
3.8663055512
 31
0.0
 11
6.0767136638
 21
3.8696259608
 31
0.0
 11
6.0807905544
 21
3.8738449375
 31
0.0
 11
6.0853719779
 21
3.8784833422
 31
0.0
 11
6.0899621515
 21
3.8830223368
 31
0.0
 11
6.094058308
 21
3.8869819362
 31
0.0
 11
6.0972848364
 21
3.8900409232
 31
0.0
 11
6.0994318918
 21
3.892047351
 31
0.0
 11
6.0994669623
 21
3.8920799317
 31
0.0
  0
SPLINE
  5
456
100
AcDbEntity
  8
0
100
AcDbSpline
 62
7
  6
CONTINUOUS
 70
0
 71
3
 72
8
 73
4
 74
2
 42
0.0000001
 43
0.0000001
 44
0.0000000001
 12
0.000721507
 22
0.0006702215
 32
0.0
 13
0.0007228137
 23
0.0006688111
 33
0.0
 40
0.0
 40
0.0
 40
0.0
 40
0.0
 40
1.0
 40
1.0
 40
1.0
 40
1.0
 10
6.0994669623
 20
3.8920799317
 30
0.0
 10
6.0997074646
 20
3.8923033389
 30
0.0
 10
6.0999481845
 20
3.8925265117
 30
0.0
 10
6.1001891224
 20
3.8927494487
 30
0.0
 11
6.0994669623
 21
3.8920799317
 31
0.0
 11
6.1001891224
 21
3.8927494487
 31
0.0
  0
SPLINE
  5
457
100
AcDbEntity
  8
0
100
AcDbSpline
 62
7
  6
CONTINUOUS
 70
0
 71
3
 72
11
 73
7
 74
5
 42
0.0000001
 43
0.0000001
 44
0.0000000001
 12
0.0
 22
-0.0139963637
 32
0.0
 13
-0.0135385725
 23
-0.0038926124
 33
0.0
 40
0.0
 40
0.0
 40
0.0
 40
0.0
 40
0.3518234559
 40
0.6595996176
 40
0.9427117206
 40
1.0
 40
1.0
 40
1.0
 40
1.0
 10
6.1001891224
 20
4.4152879245
 30
0.0
 10
6.1001891224
 20
4.4136465082
 30
0.0
 10
6.0998070654
 20
4.4105397384
 30
0.0
 10
6.0977490689
 20
4.406514662
 30
0.0
 10
6.0952021206
 20
4.4046576789
 30
0.0
 10
6.0936883294
 20
4.4041418652
 30
0.0
 10
6.0934297955
 20
4.4040675315
 30
0.0
 11
6.1001891224
 21
4.4152879245
 31
0.0
 11
6.0994805782
 21
4.4104149179
 31
0.0
 11
6.0974152666
 21
4.4066345511
 31
0.0
 11
6.0941928704
 21
4.404328497
 31
0.0
 11
6.0934297955
 21
4.4040675315
 31
0.0
  0
SPLINE
  5
458
100
AcDbEntity
  8
0
100
AcDbSpline
 62
7
  6
CONTINUOUS
 70
0
 71
3
 72
14
 73
10
 74
8
 42
0.0000001
 43
0.0000001
 44
0.0000000001
 12
0.0368885853
 22
0.0106649984
 32
0.0
 13
0.0
 23
-0.0382067102
 33
0.0
 40
0.0
 40
0.0
 40
0.0
 40
0.0
 40
0.0947922283
 40
0.2207806016
 40
0.3673497955
 40
0.525933995
 40
0.6875632376
 40
0.8490398378
 40
1.0
 40
1.0
 40
1.0
 40
1.0
 10
6.0771868093
 20
4.4410122625
 30
0.0
 10
6.078352393
 20
4.4413492489
 30
0.0
 10
6.0812660212
 20
4.4414568782
 30
0.0
 10
6.0857360925
 20
4.439820647
 30
0.0
 10
6.0902315087
 20
4.4365799316
 30
0.0
 10
6.0942407663
 20
4.4321399272
 30
0.0
 10
6.0974612805
 20
4.4268776363
 30
0.0
 10
6.0996088839
 20
4.4211965292
 30
0.0
 10
6.1001891224
 20
4.4172104882
 30
0.0
 10
6.1001891224
 20
4.4152879245
 30
0.0
 11
6.0771868093
 21
4.4410122625
 31
0.0
 11
6.0808124683
 21
4.4412405499
 31
0.0
 11
6.0853842261
 21
4.4397339683
 31
0.0
 11
6.0899768629
 21
4.4365297731
 31
0.0
 11
6.094065133
 21
4.4320579399
 31
0.0
 11
6.0972880078
 21
4.4267903337
 31
0.0
 11
6.0994334444
 21
4.4210058973
 31
0.0
 11
6.1001891224
 21
4.4152879245
 31
0.0
  0
SPLINE
  5
459
100
AcDbEntity
  8
THREAD
100
AcDbSpline
 62
7
  6
CONTINUOUS
 70
0
 71
3
 72
15
 73
11
 74
9
 42
0.0000001
 43
0.0000001
 44
0.0000000001
 12
-0.1047017673
 22
0.2030163597
 32
0.0
 13
0.1047017673
 23
0.2030163597
 33
0.0
 40
0.0
 40
0.0
 40
0.0
 40
0.0
 40
0.1346257358
 40
0.2606745914
 40
0.3815608613
 40
0.5000347823
 40
0.6185057449
 40
0.7393842591
 40
0.8653963
 40
1.0
 40
1.0
 40
1.0
 40
1.0
 10
4.8896117721
 20
3.7530059601
 30
0.0
 10
4.8849132546
 20
3.762116369
 30
0.0
 10
4.8765243169
 20
3.7801414227
 30
0.0
 10
4.86702419
 20
3.8076597542
 30
0.0
 10
4.8612043467
 20
3.8349487481
 30
0.0
 10
4.8592351481
 20
3.8622161966
 30
0.0
 10
4.8612065445
 20
3.8894828807
 30
0.0
 10
4.8670274721
 20
3.9167679096
 30
0.0
 10
4.8765268663
 20
3.9442810662
 30
0.0
 10
4.8849140237
 20
3.9623019874
 30
0.0
 10
4.8896117721
 20
3.9714109051
 30
0.0
 11
4.8896117721
 21
3.7530059601
 31
0.0
 11
4.8767547091
 21
3.7809411796
 31
0.0
 11
4.867472873
 21
3.8081968138
 31
0.0
 11
4.8618023209
 21
3.8352217842
 31
0.0
 11
4.8598874907
 21
3.8622163934
 31
0.0
 11
4.8618044552
 21
3.8892101735
 31
0.0
 11
4.8674764651
 21
3.9162330279
 31
0.0
 11
4.8767565893
 21
3.9434803613
 31
0.0
 11
4.8896117721
 21
3.9714109051
 31
0.0
  0
SPLINE
  5
45A
100
AcDbEntity
  8
THREAD
100
AcDbSpline
 62
7
  6
CONTINUOUS
 70
0
 71
3
 72
15
 73
11
 74
9
 42
0.0000001
 43
0.0000001
 44
0.0000000001
 12
0.1643031241
 22
0.1839340856
 32
0.0
 13
-0.1643031241
 23
0.1839340856
 33
0.0
 40
0.0
 40
0.0
 40
0.0
 40
0.0
 40
0.1498215377
 40
0.2783315905
 40
0.3927788038
 40
0.5000592815
 40
0.6073304266
 40
0.7217569014
 40
0.8502022558
 40
1.0
 40
1.0
 40
1.0
 40
1.0
 10
5.3250481062
 20
3.7530059601
 30
0.0
 10
5.3332534885
 20
3.7621917226
 30
0.0
 10
5.347685268
 20
3.7800346812
 30
0.0
 10
5.3642829967
 20
3.8078930953
 30
0.0
 10
5.3742681037
 20
3.8351201693
 30
0.0
 10
5.3776291268
 20
3.862222525
 30
0.0
 10
5.3742613531
 20
3.8893221888
 30
0.0
 10
5.3642742358
 20
3.9165399654
 30
0.0
 10
5.3476795062
 20
3.9443894258
 30
0.0
 10
5.3332521854
 20
3.9622266014
 30
0.0
 10
5.3250481062
 20
3.9714109051
 30
0.0
 11
5.3250481062
 21
3.7530059601
 31
0.0
 11
5.34801658
 21
3.7819508731
 31
0.0
 11
5.3639427649
 21
3.8093535881
 31
0.0
 11
5.3733917623
 21
3.8359513695
 31
0.0
 11
5.3765320713
 21
3.8622231334
 31
0.0
 11
5.373385483
 21
3.8884918279
 31
0.0
 11
5.3639334509
 21
3.9150831027
 31
0.0
 11
5.3480132434
 21
3.9424708357
 31
0.0
 11
5.3250481062
 21
3.9714109051
 31
0.0
  0
SPLINE
  5
45B
100
AcDbEntity
  8
THREAD
100
AcDbSpline
 62
7
  6
CONTINUOUS
 70
0
 71
3
 72
15
 73
11
 74
9
 42
0.0000001
 43
0.0000001
 44
0.0000000001
 12
-0.1103563678
 22
0.4279612204
 32
0.0
 13
0.1103563678
 23
0.4279612204
 33
0.0
 40
0.0
 40
0.0
 40
0.0
 40
0.0
 40
0.1297189924
 40
0.2548338227
 40
0.3778008073
 40
0.5000360058
 40
0.6222676266
 40
0.7452254315
 40
0.8703025816
 40
1.0
 40
1.0
 40
1.0
 40
1.0
 10
4.8896117721
 20
4.0227034876
 30
0.0
 10
4.8848399998
 20
4.041208387
 30
0.0
 10
4.8763572734
 20
4.077801409
 30
0.0
 10
4.8669321363
 20
4.132689217
 30
0.0
 10
4.861181658
 20
4.1869823534
 30
0.0
 10
4.8592417901
 20
4.241123841
 30
0.0
 10
4.861183827
 20
4.2952638915
 30
0.0
 10
4.8669354174
 20
4.3495494231
 30
0.0
 10
4.876359892
 20
4.404427083
 30
0.0
 10
4.8848407935
 20
4.4410115558
 30
0.0
 10
4.8896117721
 20
4.4595133776
 30
0.0
 11
4.8896117721
 21
4.0227034876
 31
0.0
 11
4.8767547091
 21
4.0785739266
 31
0.0
 11
4.867472873
 21
4.1330851949
 31
0.0
 11
4.8618023209
 21
4.1871351359
 31
0.0
 11
4.8598874907
 21
4.2411243541
 31
0.0
 11
4.8618044552
 21
4.2951119144
 31
0.0
 11
4.8674764651
 21
4.3491576231
 31
0.0
 11
4.8767565893
 21
4.40365229
 31
0.0
 11
4.8896117721
 21
4.4595133776
 31
0.0
  0
SPLINE
  5
45C
100
AcDbEntity
  8
THREAD
100
AcDbSpline
 62
7
  6
CONTINUOUS
 70
0
 71
3
 72
15
 73
11
 74
9
 42
0.0000001
 43
0.0000001
 44
0.0000000001
 12
0.1843202379
 22
0.4126856942
 32
0.0
 13
-0.1843202379
 23
0.4126856942
 33
0.0
 40
0.0
 40
0.0
 40
0.0
 40
0.0
 40
0.1377942686
 40
0.2640673782
 40
0.3836049145
 40
0.5000649493
 40
0.6165122554
 40
0.736022619
 40
0.8622283762
 40
1.0
 40
1.0
 40
1.0
 40
1.0
 10
5.3250481062
 20
4.0227034876
 30
0.0
 10
5.333514197
 20
4.0416587287
 30
0.0
 10
5.3483457398
 20
4.0786396676
 30
0.0
 10
5.364682855
 20
4.1341759487
 30
0.0
 10
5.3743760245
 20
4.188006688
 30
0.0
 10
5.377597681
 20
4.2411359909
 30
0.0
 10
5.3743694909
 20
4.2942607415
 30
0.0
 10
5.3646739693
 20
4.3480745241
 30
0.0
 10
5.3483395199
 20
4.4035930193
 30
0.0
 10
5.3335128057
 20
4.4405612515
 30
0.0
 10
5.3250481062
 20
4.4595133776
 30
0.0
 11
5.3250481062
 21
4.0227034876
 31
0.0
 11
5.34801658
 21
4.0805933136
 31
0.0
 11
5.3639427649
 21
4.1353987437
 31
0.0
 11
5.3733917623
 21
4.1885943063
 31
0.0
 11
5.3765320713
 21
4.2411378343
 31
0.0
 11
5.373385483
 21
4.2936752232
 31
0.0
 11
5.3639334509
 21
4.3468577729
 31
0.0
 11
5.3480132434
 21
4.4016332389
 31
0.0
 11
5.3250481062
 21
4.4595133776
 31
0.0
  0
SPLINE
  5
45D
100
AcDbEntity
  8
THREAD
100
AcDbSpline
 62
7
  6
CONTINUOUS
 70
0
 71
3
 72
15
 73
11
 74
9
 42
0.0000001
 43
0.0000001
 44
0.0000000001
 12
-0.1047017673
 22
0.2030163597
 32
0.0
 13
0.1047017673
 23
0.2030163597
 33
0.0
 40
0.0
 40
0.0
 40
0.0
 40
0.0
 40
0.1346257358
 40
0.2606745914
 40
0.3815608613
 40
0.5000347823
 40
0.6185057449
 40
0.7393842591
 40
0.8653963
 40
1.0
 40
1.0
 40
1.0
 40
1.0
 10
4.8896117721
 20
4.5108059601
 30
0.0
 10
4.8849132546
 20
4.519916369
 30
0.0
 10
4.8765243169
 20
4.5379414227
 30
0.0
 10
4.86702419
 20
4.5654597542
 30
0.0
 10
4.8612043467
 20
4.5927487481
 30
0.0
 10
4.8592351481
 20
4.6200161966
 30
0.0
 10
4.8612065445
 20
4.6472828807
 30
0.0
 10
4.8670274721
 20
4.6745679096
 30
0.0
 10
4.8765268663
 20
4.7020810662
 30
0.0
 10
4.8849140237
 20
4.7201019874
 30
0.0
 10
4.8896117721
 20
4.7292109051
 30
0.0
 11
4.8896117721
 21
4.5108059601
 31
0.0
 11
4.8767547091
 21
4.5387411796
 31
0.0
 11
4.867472873
 21
4.5659968138
 31
0.0
 11
4.8618023209
 21
4.5930217842
 31
0.0
 11
4.8598874907
 21
4.6200163934
 31
0.0
 11
4.8618044552
 21
4.6470101735
 31
0.0
 11
4.8674764651
 21
4.6740330279
 31
0.0
 11
4.8767565893
 21
4.7012803613
 31
0.0
 11
4.8896117721
 21
4.7292109051
 31
0.0
  0
SPLINE
  5
45E
100
AcDbEntity
  8
THREAD
100
AcDbSpline
 62
7
  6
CONTINUOUS
 70
0
 71
3
 72
15
 73
11
 74
9
 42
0.0000001
 43
0.0000001
 44
0.0000000001
 12
0.1643031241
 22
0.1839340856
 32
0.0
 13
-0.1643031241
 23
0.1839340856
 33
0.0
 40
0.0
 40
0.0
 40
0.0
 40
0.0
 40
0.1498215377
 40
0.2783315905
 40
0.3927788038
 40
0.5000592815
 40
0.6073304266
 40
0.7217569014
 40
0.8502022558
 40
1.0
 40
1.0
 40
1.0
 40
1.0
 10
5.3250481062
 20
4.5108059601
 30
0.0
 10
5.3332534885
 20
4.5199917226
 30
0.0
 10
5.347685268
 20
4.5378346812
 30
0.0
 10
5.3642829967
 20
4.5656930953
 30
0.0
 10
5.3742681037
 20
4.5929201693
 30
0.0
 10
5.3776291268
 20
4.620022525
 30
0.0
 10
5.3742613531
 20
4.6471221888
 30
0.0
 10
5.3642742358
 20
4.6743399654
 30
0.0
 10
5.3476795062
 20
4.7021894258
 30
0.0
 10
5.3332521854
 20
4.7200266014
 30
0.0
 10
5.3250481062
 20
4.7292109051
 30
0.0
 11
5.3250481062
 21
4.5108059601
 31
0.0
 11
5.34801658
 21
4.5397508731
 31
0.0
 11
5.3639427649
 21
4.5671535881
 31
0.0
 11
5.3733917623
 21
4.5937513695
 31
0.0
 11
5.3765320713
 21
4.6200231334
 31
0.0
 11
5.373385483
 21
4.6462918279
 31
0.0
 11
5.3639334509
 21
4.6728831027
 31
0.0
 11
5.3480132434
 21
4.7002708357
 31
0.0
 11
5.3250481062
 21
4.7292109051
 31
0.0
  0
ENDSEC
  0
SECTION
  2
OBJECTS
  0
DICTIONARY
  5
C
100
AcDbDictionary
280
0
281
1
  3
ACAD_GROUP
350
D
  3
ACAD_MLINESTYLE
350
17
  3
ACAD_LAYOUT
350
1A
  3
ACAD_PLOTSETTINGS
350
19
  3
ACAD_PLOTSTYLENAME
350
E
  0
DICTIONARY
  5
D
102
{ACAD_REACTORS
330
C
102
}
100
AcDbDictionary
280
0
281
1
  0
ACDBDICTIONARYWDFLT
  5
E
102
{ACAD_REACTORS
330
C
102
}
100
AcDbDictionary
281
1
  3
Normal
350
F
100
AcDbDictionaryWithDefault
340
F
  0
DICTIONARY
  5
17
102
{ACAD_REACTORS
330
C
102
}
100
AcDbDictionary
280
0
281
1
  3
Standard
350
18
  0
DICTIONARY
  5
19
102
{ACAD_REACTORS
330
C
102
}
100
AcDbDictionary
281
1
  0
DICTIONARY
  5
1A
102
{ACAD_REACTORS
330
C
102
}
100
AcDbDictionary
281
1
  3
Layout1
350
1E
  3
Model
350
22
  0
ACDBPLACEHOLDER
  5
F
102
{ACAD_REACTORS
330
E
102
}
  0
MLINESTYLE
  5
18
102
{ACAD_REACTORS
330
17
102
}
100
AcDbMlineStyle
  2
STANDARD
 70
0
  3

 62
256
 51
90.0
 52
90.0
 71
2
 49
0.5
 62
256
  6
BYLAYER
 49
-0.5
 62
256
  6
BYLAYER
  0
LAYOUT
  5
1E
102
{ACAD_REACTORS
330
1A
102
}
100
AcDbPlotSettings
  1

  2

  4

  6

 40
0.0
 41
0.0
 42
0.0
 43
0.0
 44
0.0
 45
0.0
 46
0.0
 47
0.0
 48
0.0
 49
0.0
140
0.0
141
0.0
142
1.0
143
1.0
 70
0
 72
0
 73
0
 74
0
  7

 75
0
147
1.0
148
0.0
149
0.0
100
AcDbLayout
  1
Layout1
 70
0
 71
0
 10
0.0
 20
0.0
 11
0.0
 21
0.0
 12
0.0
 22
0.0
 32
0.0
 14
0.0
 24
0.0
 34
0.0
 15
0.0
 25
0.0
 35
0.0
146
0.0
 13
0.0
 23
0.0
 33
0.0
 16
0.0
 26
0.0
 36
0.0
 17
0.0
 27
0.0
 37
0.0
 76
0
330
1B
331
0
345
0
346
0
  0
LAYOUT
  5
22
102
{ACAD_REACTORS
330
1A
102
}
100
AcDbPlotSettings
  1

  2

  4

  6

 40
0.0
 41
0.0
 42
0.0
 43
0.0
 44
0.0
 45
0.0
 46
0.0
 47
0.0
 48
0.0
 49
0.0
140
0.0
141
0.0
142
1.0
143
1.0
 70
0
 72
0
 73
0
 74
0
  7

 75
0
147
1.0
148
0.0
149
0.0
100
AcDbLayout
  1
Model
 70
0
 71
0
 10
0.0
 20
0.0
 11
0.0
 21
0.0
 12
0.0
 22
0.0
 32
0.0
 14
0.0
 24
0.0
 34
0.0
 15
0.0
 25
0.0
 35
0.0
146
0.0
 13
0.0
 23
0.0
 33
0.0
 16
0.0
 26
0.0
 36
0.0
 17
0.0
 27
0.0
 37
0.0
 76
0
330
1F
331
0
345
0
346
0
  0
ENDSEC
  0
EOF
