999
DXF file: RDJA-LAN.dxf
999
Pro/ENGINEER 2006240 by Parametric Technology Corporation
  0
SECTION
  2
HEADER
  9
$ACADVER
  1
AC1015
  9
$DWGCODEPAGE
  3
ANSI_1252
  9
$EXTMAX
 10
11.6929133858
 20
8.2677165354
 30
0.0
  9
$EXTMIN
 10
0.0
 20
0.0
 30
0.0
  9
$LIMMIN
 10
0.0
 20
0.0
  9
$LIMMAX
 10
11.6929133858
 20
8.2677165354
  9
$VIEWCTR
 10
5.8464566929
 20
4.1338582677
  9
$VIEWSIZE
 40
8.2677165354
  9
$CLAYER
  8
0
  9
$LTSCALE
 40
0.6431102362
  9
$CELTYPE
  6
BYLAYER
  9
$DIMSCALE
 40
1.0
  9
$DIMASZ
 40
0.1875
  9
$DIMEXO
 40
0.0730807087
  9
$DIMDLI
 40
0.4443307087
  9
$DIMEXE
 40
0.2104724409
  9
$DIMCEN
 40
0.1052362205
  9
$DIMLFAC
 40
1.0
  9
$DIMBLK
  1
_CLOSED
  9
$DIMTXT
 40
0.15625
  9
$DIMTOL
 70
0
  9
$DIMLIM
 70
0
  9
$DIMTFAC
 40
1.0
  9
$PDMODE
 70
3
  9
$PDSIZE
 40
0.3125
  9
$HANDSEED
  5
46F
  9
$MEASUREMENT
 70
0
  9
$INSUNITS
 70
1
  0
ENDSEC
  0
SECTION
  2
CLASSES
  0
CLASS
  1
ACDBDICTIONARYWDFLT
  2
AcDbDictionaryWithDefault
  3
AutoCAD 2000
 90
0
280
0
281
0
  0
CLASS
  1
ACDBPLACEHOLDER
  2
AcDbPlaceHolder
  3
AutoCAD 2000
 90
0
280
0
281
0
  0
CLASS
  1
LAYOUT
  2
AcDbLayout
  3
AutoCAD 2000
 90
0
280
0
281
0
  0
ENDSEC
  0
SECTION
  2
TABLES
  0
TABLE
  2
VPORT
  5
8
100
AcDbSymbolTable
 70
2
  0
VPORT
  5
1F4
100
AcDbSymbolTableRecord
100
AcDbViewportTableRecord
  2
*ACTIVE
 70
0
 10
0.0
 20
0.0
 11
1.0
 21
1.0
 12
5.8464566929
 22
4.1338582677
 13
0.0
 23
0.0
 14
1.0
 24
1.0
 15
0.0
 25
0.0
 16
0.0
 26
0.0
 36
1.0
 17
0.0
 27
0.0
 37
0.0
 40
8.2677165354
 41
1.4142857143
 42
50.0
 43
0.0
 44
0.0
 50
0.0
 51
0.0
 71
0
 72
100
 73
1
 74
1
 75
0
 76
0
 77
0
 78
0
  0
ENDTAB
  0
TABLE
  2
LTYPE
  5
5
100
AcDbSymbolTable
 70
6
  0
LTYPE
  5
14
100
AcDbSymbolTableRecord
100
AcDbLinetypeTableRecord
  2
BYBLOCK
 70
0
  3

 72
65
 73
0
 40
0.0
  0
LTYPE
  5
15
100
AcDbSymbolTableRecord
100
AcDbLinetypeTableRecord
  2
BYLAYER
 70
0
  3

 72
65
 73
0
 40
0.0
  0
LTYPE
  5
16
100
AcDbSymbolTableRecord
100
AcDbLinetypeTableRecord
  2
CONTINUOUS
 70
64
  3
Solid line
 72
65
 73
0
 40
0.0
  0
LTYPE
  5
1F5
100
AcDbSymbolTableRecord
100
AcDbLinetypeTableRecord
  2
CENTER
 70
64
  3
____ _ ____ _ ____ _ ____ _ ____ _ ____ _ ____
 72
65
 73
4
 40
0.6
 49
0.375
 74
0
 49
-0.075
 74
0
 49
0.075
 74
0
 49
-0.075
 74
0
  0
LTYPE
  5
1F6
100
AcDbSymbolTableRecord
100
AcDbLinetypeTableRecord
  2
HIDDEN
 70
64
  3
- - - - - - - - - - - - - - - - - - - -
 72
65
 73
2
 40
0.2
 49
0.1
 74
0
 49
-0.1
 74
0
  0
LTYPE
  5
1F7
100
AcDbSymbolTableRecord
100
AcDbLinetypeTableRecord
  2
PHANTOM
 70
64
  3
_____ _ _ _____ _ _ _____ _ _ _____
 72
65
 73
6
 40
0.8
 49
0.45
 74
0
 49
-0.05
 74
0
 49
0.1
 74
0
 49
-0.05
 74
0
 49
0.1
 74
0
 49
-0.05
 74
0
  0
LTYPE
  5
1F8
100
AcDbSymbolTableRecord
100
AcDbLinetypeTableRecord
  2
DOT
 70
64
  3
. . . . . . . . . . . . . . . . . . . .
 72
65
 73
2
 40
0.2
 49
0.1
 74
0
 49
-0.1
 74
0
  0
LTYPE
  5
1F9
100
AcDbSymbolTableRecord
100
AcDbLinetypeTableRecord
  2
DASHED
 70
64
  3
- - - - - - - - - - - - - - - - - - - -
 72
65
 73
2
 40
0.2
 49
0.1
 74
0
 49
-0.1
 74
0
  0
ENDTAB
  0
TABLE
  2
LAYER
  5
2
100
AcDbSymbolTable
 70
36
  0
LAYER
  5
10
100
AcDbSymbolTableRecord
100
AcDbLayerTableRecord
  2
0
 70
0
 62
7
  6
CONTINUOUS
370
-3
390
F
  0
LAYER
  5
1FA
100
AcDbSymbolTableRecord
100
AcDbLayerTableRecord
  2
DEFAULT_1
 70
0
 62
7
  6
CENTER
370
-3
390
F
  0
LAYER
  5
1FB
100
AcDbSymbolTableRecord
100
AcDbLayerTableRecord
  2
DEFAULT_2
 70
0
 62
8
  6
HIDDEN
370
-3
390
F
  0
LAYER
  5
1FC
100
AcDbSymbolTableRecord
100
AcDbLayerTableRecord
  2
DEFAULT_3
 70
0
 62
7
  6
PHANTOM
370
-3
390
F
  0
LAYER
  5
1FD
100
AcDbSymbolTableRecord
100
AcDbLayerTableRecord
  2
_BLACK_HOLE
 70
0
 62
7
  6
CONTINUOUS
370
-3
390
F
  0
LAYER
  5
1FE
100
AcDbSymbolTableRecord
100
AcDbLayerTableRecord
  2
01_ALL_DTM_PLN
 70
0
 62
7
  6
CONTINUOUS
370
-3
390
F
  0
LAYER
  5
1FF
100
AcDbSymbolTableRecord
100
AcDbLayerTableRecord
  2
01__ASM_ALL_DTM_PLN
 70
0
 62
7
  6
CONTINUOUS
370
-3
390
F
  0
LAYER
  5
200
100
AcDbSymbolTableRecord
100
AcDbLayerTableRecord
  2
01__ASM_DEF_DTM_PLN
 70
0
 62
7
  6
CONTINUOUS
370
-3
390
F
  0
LAYER
  5
201
100
AcDbSymbolTableRecord
100
AcDbLayerTableRecord
  2
01___PRT_ALL_DTM_PLN
 70
0
 62
7
  6
CONTINUOUS
370
-3
390
F
  0
LAYER
  5
202
100
AcDbSymbolTableRecord
100
AcDbLayerTableRecord
  2
01___PRT_DEF_DTM_PLN
 70
0
 62
7
  6
CONTINUOUS
370
-3
390
F
  0
LAYER
  5
203
100
AcDbSymbolTableRecord
100
AcDbLayerTableRecord
  2
02_ALL_AXES
 70
0
 62
7
  6
CONTINUOUS
370
-3
390
F
  0
LAYER
  5
204
100
AcDbSymbolTableRecord
100
AcDbLayerTableRecord
  2
02__ASM_ALL_AXES
 70
0
 62
7
  6
CONTINUOUS
370
-3
390
F
  0
LAYER
  5
205
100
AcDbSymbolTableRecord
100
AcDbLayerTableRecord
  2
02___PRT_ALL_AXES
 70
0
 62
7
  6
CONTINUOUS
370
-3
390
F
  0
LAYER
  5
206
100
AcDbSymbolTableRecord
100
AcDbLayerTableRecord
  2
03_ALL_CURVES
 70
0
 62
7
  6
CONTINUOUS
370
-3
390
F
  0
LAYER
  5
207
100
AcDbSymbolTableRecord
100
AcDbLayerTableRecord
  2
03__ASM_ALL_CURVES
 70
0
 62
7
  6
CONTINUOUS
370
-3
390
F
  0
LAYER
  5
208
100
AcDbSymbolTableRecord
100
AcDbLayerTableRecord
  2
03___PRT_ALL_CURVES
 70
0
 62
7
  6
CONTINUOUS
370
-3
390
F
  0
LAYER
  5
209
100
AcDbSymbolTableRecord
100
AcDbLayerTableRecord
  2
04_ALL_DTM_PNT
 70
0
 62
7
  6
CONTINUOUS
370
-3
390
F
  0
LAYER
  5
20A
100
AcDbSymbolTableRecord
100
AcDbLayerTableRecord
  2
04__ASM_ALL_DTM_PNT
 70
0
 62
7
  6
CONTINUOUS
370
-3
390
F
  0
LAYER
  5
20B
100
AcDbSymbolTableRecord
100
AcDbLayerTableRecord
  2
04___PRT_ALL_DTM_PNT
 70
0
 62
7
  6
CONTINUOUS
370
-3
390
F
  0
LAYER
  5
20C
100
AcDbSymbolTableRecord
100
AcDbLayerTableRecord
  2
05_ALL_DTM_CSYS
 70
0
 62
7
  6
CONTINUOUS
370
-3
390
F
  0
LAYER
  5
20D
100
AcDbSymbolTableRecord
100
AcDbLayerTableRecord
  2
05__ASM_ALL_DTM_CSYS
 70
0
 62
7
  6
CONTINUOUS
370
-3
390
F
  0
LAYER
  5
20E
100
AcDbSymbolTableRecord
100
AcDbLayerTableRecord
  2
05__ASM_DEF_DTM_CSYS
 70
0
 62
7
  6
CONTINUOUS
370
-3
390
F
  0
LAYER
  5
20F
100
AcDbSymbolTableRecord
100
AcDbLayerTableRecord
  2
05___PRT_ALL_DTM_CSYS
 70
0
 62
7
  6
CONTINUOUS
370
-3
390
F
  0
LAYER
  5
210
100
AcDbSymbolTableRecord
100
AcDbLayerTableRecord
  2
05___PRT_DEF_DTM_CSYS
 70
0
 62
7
  6
CONTINUOUS
370
-3
390
F
  0
LAYER
  5
211
100
AcDbSymbolTableRecord
100
AcDbLayerTableRecord
  2
06_ALL_SURFS
 70
0
 62
7
  6
CONTINUOUS
370
-3
390
F
  0
LAYER
  5
212
100
AcDbSymbolTableRecord
100
AcDbLayerTableRecord
  2
06__ASM_ALL_SURFS
 70
0
 62
7
  6
CONTINUOUS
370
-3
390
F
  0
LAYER
  5
213
100
AcDbSymbolTableRecord
100
AcDbLayerTableRecord
  2
06___PRT_ALL_SURFS
 70
0
 62
7
  6
CONTINUOUS
370
-3
390
F
  0
LAYER
  5
214
100
AcDbSymbolTableRecord
100
AcDbLayerTableRecord
  2
07__ASM_ALL_SKELETONS
 70
0
 62
7
  6
CONTINUOUS
370
-3
390
F
  0
LAYER
  5
215
100
AcDbSymbolTableRecord
100
AcDbLayerTableRecord
  2
125-177_FEATURES
 70
0
 62
7
  6
CONTINUOUS
370
-3
390
F
  0
LAYER
  5
216
100
AcDbSymbolTableRecord
100
AcDbLayerTableRecord
  2
125-177_REF_GEOMETRY
 70
0
 62
7
  6
CONTINUOUS
370
-3
390
F
  0
LAYER
  5
217
100
AcDbSymbolTableRecord
100
AcDbLayerTableRecord
  2
129-008_FEATURES
 70
0
 62
7
  6
CONTINUOUS
370
-3
390
F
  0
LAYER
  5
218
100
AcDbSymbolTableRecord
100
AcDbLayerTableRecord
  2
129-008_REF_GEOMETRY
 70
0
 62
7
  6
CONTINUOUS
370
-3
390
F
  0
LAYER
  5
219
100
AcDbSymbolTableRecord
100
AcDbLayerTableRecord
  2
129-200_FEATURES
 70
0
 62
7
  6
CONTINUOUS
370
-3
390
F
  0
LAYER
  5
21A
100
AcDbSymbolTableRecord
100
AcDbLayerTableRecord
  2
129-200_REF_GEOMETRY
 70
0
 62
7
  6
CONTINUOUS
370
-3
390
F
  0
LAYER
  5
21B
100
AcDbSymbolTableRecord
100
AcDbLayerTableRecord
  2
129-201_FEATURES
 70
0
 62
7
  6
CONTINUOUS
370
-3
390
F
  0
LAYER
  5
21C
100
AcDbSymbolTableRecord
100
AcDbLayerTableRecord
  2
129-201_REF_GEOMETRY
 70
0
 62
7
  6
CONTINUOUS
370
-3
390
F
  0
LAYER
  5
21D
100
AcDbSymbolTableRecord
100
AcDbLayerTableRecord
  2
COPY_GEO_FET
 70
0
 62
7
  6
CONTINUOUS
370
-3
390
F
  0
LAYER
  5
21E
100
AcDbSymbolTableRecord
100
AcDbLayerTableRecord
  2
COSMETIC
 70
0
 62
7
  6
CONTINUOUS
370
-3
390
F
  0
LAYER
  5
21F
100
AcDbSymbolTableRecord
100
AcDbLayerTableRecord
  2
CURVES
 70
0
 62
7
  6
CONTINUOUS
370
-3
390
F
  0
LAYER
  5
220
100
AcDbSymbolTableRecord
100
AcDbLayerTableRecord
  2
CUT_REF_SURF
 70
0
 62
7
  6
CONTINUOUS
370
-3
390
F
  0
LAYER
  5
221
100
AcDbSymbolTableRecord
100
AcDbLayerTableRecord
  2
DATUM
 70
0
 62
7
  6
CONTINUOUS
370
-3
390
F
  0
LAYER
  5
222
100
AcDbSymbolTableRecord
100
AcDbLayerTableRecord
  2
DATUMCURVES
 70
0
 62
7
  6
CONTINUOUS
370
-3
390
F
  0
LAYER
  5
223
100
AcDbSymbolTableRecord
100
AcDbLayerTableRecord
  2
DIMENSIONS
 70
0
 62
7
  6
CONTINUOUS
370
-3
390
F
  0
LAYER
  5
224
100
AcDbSymbolTableRecord
100
AcDbLayerTableRecord
  2
DRAWINGNOTES
 70
0
 62
7
  6
CONTINUOUS
370
-3
390
F
  0
LAYER
  5
225
100
AcDbSymbolTableRecord
100
AcDbLayerTableRecord
  2
DTM
 70
0
 62
7
  6
CONTINUOUS
370
-3
390
F
  0
LAYER
  5
226
100
AcDbSymbolTableRecord
100
AcDbLayerTableRecord
  2
DTM230
 70
0
 62
7
  6
CONTINUOUS
370
-3
390
F
  0
LAYER
  5
227
100
AcDbSymbolTableRecord
100
AcDbLayerTableRecord
  2
DTM_500001
 70
0
 62
7
  6
CONTINUOUS
370
-3
390
F
  0
LAYER
  5
228
100
AcDbSymbolTableRecord
100
AcDbLayerTableRecord
  2
DTM_500002
 70
0
 62
7
  6
CONTINUOUS
370
-3
390
F
  0
LAYER
  5
229
100
AcDbSymbolTableRecord
100
AcDbLayerTableRecord
  2
DTM_515002
 70
0
 62
7
  6
CONTINUOUS
370
-3
390
F
  0
LAYER
  5
22A
100
AcDbSymbolTableRecord
100
AcDbLayerTableRecord
  2
DTM_530-102
 70
0
 62
7
  6
CONTINUOUS
370
-3
390
F
  0
LAYER
  5
22B
100
AcDbSymbolTableRecord
100
AcDbLayerTableRecord
  2
DTM_530002
 70
0
 62
7
  6
CONTINUOUS
370
-3
390
F
  0
LAYER
  5
22C
100
AcDbSymbolTableRecord
100
AcDbLayerTableRecord
  2
DTM_800001
 70
0
 62
7
  6
CONTINUOUS
370
-3
390
F
  0
LAYER
  5
22D
100
AcDbSymbolTableRecord
100
AcDbLayerTableRecord
  2
DTM_BALLHOLDER
 70
0
 62
7
  6
CONTINUOUS
370
-3
390
F
  0
LAYER
  5
22E
100
AcDbSymbolTableRecord
100
AcDbLayerTableRecord
  2
DTM_PISTON
 70
0
 62
7
  6
CONTINUOUS
370
-3
390
F
  0
LAYER
  5
22F
100
AcDbSymbolTableRecord
100
AcDbLayerTableRecord
  2
DTM_SPRING_RH
 70
0
 62
7
  6
CONTINUOUS
370
-3
390
F
  0
LAYER
  5
230
100
AcDbSymbolTableRecord
100
AcDbLayerTableRecord
  2
DTM_SP_RH_CONSTR
 70
0
 62
7
  6
CONTINUOUS
370
-3
390
F
  0
LAYER
  5
231
100
AcDbSymbolTableRecord
100
AcDbLayerTableRecord
  2
FACE1
 70
0
 62
7
  6
CONTINUOUS
370
-3
390
F
  0
LAYER
  5
232
100
AcDbSymbolTableRecord
100
AcDbLayerTableRecord
  2
FACE2
 70
0
 62
7
  6
CONTINUOUS
370
-3
390
F
  0
LAYER
  5
233
100
AcDbSymbolTableRecord
100
AcDbLayerTableRecord
  2
FACE3
 70
0
 62
7
  6
CONTINUOUS
370
-3
390
F
  0
LAYER
  5
234
100
AcDbSymbolTableRecord
100
AcDbLayerTableRecord
  2
FACE4
 70
0
 62
7
  6
CONTINUOUS
370
-3
390
F
  0
LAYER
  5
235
100
AcDbSymbolTableRecord
100
AcDbLayerTableRecord
  2
GEOMETRICTOLERANCES
 70
0
 62
7
  6
CONTINUOUS
370
-3
390
F
  0
LAYER
  5
236
100
AcDbSymbolTableRecord
100
AcDbLayerTableRecord
  2
LAY0001
 70
0
 62
7
  6
CONTINUOUS
370
-3
390
F
  0
LAYER
  5
237
100
AcDbSymbolTableRecord
100
AcDbLayerTableRecord
  2
PARAMETERDIMENSIONS
 70
0
 62
7
  6
CONTINUOUS
370
-3
390
F
  0
LAYER
  5
238
100
AcDbSymbolTableRecord
100
AcDbLayerTableRecord
  2
PART
 70
0
 62
7
  6
CONTINUOUS
370
-3
390
F
  0
LAYER
  5
239
100
AcDbSymbolTableRecord
100
AcDbLayerTableRecord
  2
PLANE
 70
0
 62
7
  6
CONTINUOUS
370
-3
390
F
  0
LAYER
  5
23A
100
AcDbSymbolTableRecord
100
AcDbLayerTableRecord
  2
PROTRUSIONS
 70
0
 62
7
  6
CONTINUOUS
370
-3
390
F
  0
LAYER
  5
23B
100
AcDbSymbolTableRecord
100
AcDbLayerTableRecord
  2
SAE_PORT
 70
0
 62
7
  6
CONTINUOUS
370
-3
390
F
  0
LAYER
  5
23C
100
AcDbSymbolTableRecord
100
AcDbLayerTableRecord
  2
TEXT
 70
0
 62
7
  6
CONTINUOUS
370
-3
390
F
  0
LAYER
  5
23D
100
AcDbSymbolTableRecord
100
AcDbLayerTableRecord
  2
THREAD
 70
0
 62
7
  6
CONTINUOUS
370
-3
390
F
  0
ENDTAB
  0
TABLE
  2
STYLE
  5
3
100
AcDbSymbolTable
 70
1
  0
STYLE
  5
11
100
AcDbSymbolTableRecord
100
AcDbTextStyleTableRecord
  2
STANDARD
 70
0
 40
0.0
 41
0.8
 50
0.0
 71
0
 42
0.2
  3
txt
  4

  0
ENDTAB
  0
TABLE
  2
VIEW
  5
6
100
AcDbSymbolTable
 70
0
  0
ENDTAB
  0
TABLE
  2
UCS
  5
7
100
AcDbSymbolTable
 70
0
  0
ENDTAB
  0
TABLE
  2
APPID
  5
9
100
AcDbSymbolTable
 70
1
  0
APPID
  5
23E
100
AcDbSymbolTableRecord
100
AcDbRegAppTableRecord
  2
ACAD
 70
0
  0
ENDTAB
  0
TABLE
  2
BLOCK_RECORD
  5
1
100
AcDbSymbolTable
 70
0
  0
BLOCK_RECORD
  5
1F
100
AcDbSymbolTableRecord
100
AcDbBlockTableRecord
  2
*MODEL_SPACE
  0
BLOCK_RECORD
  5
1B
100
AcDbSymbolTableRecord
100
AcDbBlockTableRecord
  2
*PAPER_SPACE
  0
ENDTAB
  0
TABLE
  2
DIMSTYLE
  5
A
100
AcDbSymbolTable
 70
1
100
AcDbDimStyleTable
 71
0
  0
DIMSTYLE
105
23F
100
AcDbSymbolTableRecord
100
AcDbDimStyleTableRecord
  2
STANDARD
 70
0
  3

  4

 40
1.0
 41
0.1875
 42
0.0625
 43
0.38
 44
0.18
 45
0.0
 46
0.0
 47
0.01
 48
0.01
140
0.15625
141
0.09
142
0.0
143
25.4
144
1.0
145
0.0
146
1.0
147
0.09
 71
0.0
 72
0.0
 73
1
 74
1
 75
0
 76
0
 77
0
 78
4
170
0
171
2
172
0
173
0
174
0
175
0
176
0
177
0
178
0
270
2
271
2
272
2
273
2
274
2
275
0
280
0
281
0
282
0
283
1
284
4
285
0
286
0
287
3
288
0
340
11
  0
ENDTAB
  0
ENDSEC
  0
SECTION
  2
BLOCKS
  0
BLOCK
  5
20
100
AcDbEntity
  8
0
100
AcDbBlockBegin
  2
*MODEL_SPACE
 70
0
 10
0.0
 20
0.0
 30
0.0
  3
*MODEL_SPACE
  1

  0
ENDBLK
  5
21
100
AcDbEntity
  8
0
100
AcDbBlockEnd
  0
BLOCK
  5
1C
100
AcDbEntity
  8
0
100
AcDbBlockBegin
  2
*PAPER_SPACE
 70
0
 10
0.0
 20
0.0
 30
0.0
  3
*PAPER_SPACE
  1

  0
ENDBLK
  5
1D
100
AcDbEntity
  8
0
100
AcDbBlockEnd
  0
ENDSEC
  0
SECTION
  2
ENTITIES
  0
LINE
  5
240
100
AcDbEntity
  8
0
100
AcDbLine
 62
7
  6
CONTINUOUS
 10
1.8702550217
 20
4.514870808
 11
1.8702550217
 21
4.2088845572
  0
LINE
  5
241
100
AcDbEntity
  8
03__ASM_ALL_CURVES
100
AcDbLine
 62
40
  6
CONTINUOUS
 10
1.8702550217
 20
4.514870808
 11
1.8702550217
 21
5.7377796826
  0
LINE
  5
242
100
AcDbEntity
  8
0
100
AcDbLine
 62
7
  6
CONTINUOUS
 10
1.9012550217
 20
4.5458776826
 11
1.9012550217
 21
4.1778776826
  0
LINE
  5
243
100
AcDbEntity
  8
03__ASM_ALL_CURVES
100
AcDbLine
 62
40
  6
CONTINUOUS
 10
2.0706850217
 20
5.7043746826
 11
2.0706850217
 21
5.6375646826
  0
LINE
  5
244
100
AcDbEntity
  8
0
100
AcDbLine
 62
7
  6
CONTINUOUS
 10
2.1002550217
 20
4.5458776826
 11
2.1002550217
 21
4.1778776826
  0
LINE
  5
245
100
AcDbEntity
  8
0
100
AcDbLine
 62
7
  6
CONTINUOUS
 10
2.1017550217
 20
4.2007346896
 11
2.1017550217
 21
4.4380012514
  0
LINE
  5
246
100
AcDbEntity
  8
0
100
AcDbLine
 62
7
  6
CONTINUOUS
 10
2.1367550217
 20
4.2007346896
 11
2.1367550217
 21
4.4380012514
  0
LINE
  5
247
100
AcDbEntity
  8
0
100
AcDbLine
 62
7
  6
CONTINUOUS
 10
2.1382550217
 20
4.5458776826
 11
2.1382550217
 21
4.1778776826
  0
LINE
  5
248
100
AcDbEntity
  8
0
100
AcDbLine
 62
7
  6
CONTINUOUS
 10
2.3702550217
 20
4.1142264975
 11
2.3702550217
 21
4.6095288677
  0
LINE
  5
249
100
AcDbEntity
  8
0
100
AcDbLine
 62
7
  6
CONTINUOUS
 10
2.4322550217
 20
4.0908776826
 11
2.4322550217
 21
4.6328776826
  0
LINE
  5
24A
100
AcDbEntity
  8
0
100
AcDbLine
 62
7
  6
CONTINUOUS
 10
2.4382550217
 20
4.0908776826
 11
2.4382550217
 21
4.6328776826
  0
LINE
  5
24B
100
AcDbEntity
  8
0
100
AcDbLine
 62
7
  6
CONTINUOUS
 10
2.4437550217
 20
4.0963776826
 11
2.4437550217
 21
4.6273776826
  0
LINE
  5
24C
100
AcDbEntity
  8
0
100
AcDbLine
 62
7
  6
CONTINUOUS
 10
2.4597550217
 20
4.0963776826
 11
2.4597550217
 21
4.6273776826
  0
LINE
  5
24D
100
AcDbEntity
  8
0
100
AcDbLine
 62
7
  6
CONTINUOUS
 10
2.6512550217
 20
4.0908776826
 11
2.6512550217
 21
4.6328776826
  0
LINE
  5
24E
100
AcDbEntity
  8
0
100
AcDbLine
 62
7
  6
CONTINUOUS
 10
2.6822550217
 20
3.6428776826
 11
2.6822550217
 21
5.0808776826
  0
LINE
  5
24F
100
AcDbEntity
  8
03__ASM_ALL_CURVES
100
AcDbLine
 62
40
  6
CONTINUOUS
 10
3.0453862717
 20
5.8630484326
 11
3.0349472092
 21
5.8491296859
  0
LINE
  5
250
100
AcDbEntity
  8
03__ASM_ALL_CURVES
100
AcDbLine
 62
40
  6
CONTINUOUS
 10
3.0558253342
 20
5.7795359326
 11
3.0349472092
 21
5.751698433
  0
LINE
  5
251
100
AcDbEntity
  8
0
100
AcDbLine
 62
7
  6
CONTINUOUS
 10
2.7442550217
 20
3.5808776826
 11
2.7442550217
 21
5.1428776826
  0
LINE
  5
252
100
AcDbEntity
  8
03__ASM_ALL_CURVES
100
AcDbLine
 62
40
  6
CONTINUOUS
 10
3.2959237717
 20
5.8491296859
 11
3.3063628342
 21
5.8769671793
  0
LINE
  5
253
100
AcDbEntity
  8
03__ASM_ALL_CURVES
100
AcDbLine
 62
40
  6
CONTINUOUS
 10
3.3794362717
 20
5.8491296859
 11
3.3689972092
 21
5.8212921826
  0
LINE
  5
254
100
AcDbEntity
  8
03__ASM_ALL_CURVES
100
AcDbLine
 62
40
  6
CONTINUOUS
 10
3.3794362717
 20
5.7934546843
 11
3.3689972092
 21
5.7656171834
  0
LINE
  5
255
100
AcDbEntity
  8
03__ASM_ALL_CURVES
100
AcDbLine
 62
40
  6
CONTINUOUS
 10
3.3063628342
 20
5.8769671793
 11
3.3168018967
 21
5.8908859359
  0
LINE
  5
256
100
AcDbEntity
  8
03__ASM_ALL_CURVES
100
AcDbLine
 62
40
  6
CONTINUOUS
 10
3.3689972092
 20
5.7656171834
 11
3.3585581467
 21
5.751698433
  0
LINE
  5
257
100
AcDbEntity
  8
0
100
AcDbLine
 62
7
  6
CONTINUOUS
 10
1.8702550217
 20
4.5148776826
 11
1.9012550217
 21
4.5458776826
  0
LINE
  5
258
100
AcDbEntity
  8
03__ASM_ALL_CURVES
100
AcDbLine
 62
40
  6
CONTINUOUS
 10
2.9723128342
 20
5.8908859359
 11
2.9931909592
 21
5.9048046826
  0
LINE
  5
259
100
AcDbEntity
  8
03__ASM_ALL_CURVES
100
AcDbLine
 62
40
  6
CONTINUOUS
 10
3.0349472092
 20
5.8491296859
 11
3.0140690842
 21
5.8352109293
  0
LINE
  5
25A
100
AcDbEntity
  8
0
100
AcDbLine
 62
7
  6
CONTINUOUS
 10
1.8702550217
 20
4.2088776826
 11
1.9012550217
 21
4.1778776826
  0
LINE
  5
25B
100
AcDbEntity
  8
03__ASM_ALL_CURVES
100
AcDbLine
 62
40
  6
CONTINUOUS
 10
3.0453862717
 20
5.8769671793
 11
3.0453862717
 21
5.8630484326
  0
LINE
  5
25C
100
AcDbEntity
  8
03__ASM_ALL_CURVES
100
AcDbLine
 62
40
  6
CONTINUOUS
 10
3.0558253342
 20
5.7934546843
 11
3.0558253342
 21
5.7795359326
  0
LINE
  5
25D
100
AcDbEntity
  8
03__ASM_ALL_CURVES
100
AcDbLine
 62
40
  6
CONTINUOUS
 10
3.1602159592
 20
5.7377796826
 11
3.1602159592
 21
5.751698433
  0
LINE
  5
25E
100
AcDbEntity
  8
0
100
AcDbLine
 62
7
  6
CONTINUOUS
 10
2.6512550217
 20
4.0908776826
 11
2.6451602496
 21
4.0803212276
  0
LINE
  5
25F
100
AcDbEntity
  8
03__ASM_ALL_CURVES
100
AcDbLine
 62
40
  6
CONTINUOUS
 10
3.5464612717
 20
5.8630484326
 11
3.5360222092
 21
5.8491296859
  0
LINE
  5
260
100
AcDbEntity
  8
03__ASM_ALL_CURVES
100
AcDbLine
 62
40
  6
CONTINUOUS
 10
3.5569003342
 20
5.7795359326
 11
3.5360222092
 21
5.751698433
  0
LINE
  5
261
100
AcDbEntity
  8
03__ASM_ALL_CURVES
100
AcDbLine
 62
40
  6
CONTINUOUS
 10
3.6821690842
 20
5.9048046826
 11
3.6612909592
 21
5.8769671793
  0
LINE
  5
262
100
AcDbEntity
  8
03__ASM_ALL_CURVES
100
AcDbLine
 62
40
  6
CONTINUOUS
 10
3.8074378342
 20
5.8769671793
 11
3.8178768967
 21
5.8908859359
  0
LINE
  5
263
100
AcDbEntity
  8
0
100
AcDbLine
 62
7
  6
CONTINUOUS
 10
2.7442550217
 20
5.1428776826
 11
2.6822550217
 21
5.0808776826
  0
LINE
  5
264
100
AcDbEntity
  8
0
100
AcDbLine
 62
7
  6
CONTINUOUS
 10
2.4752558073
 20
4.6428784682
 11
2.4597550217
 21
4.6273776826
  0
LINE
  5
265
100
AcDbEntity
  8
03__ASM_ALL_CURVES
100
AcDbLine
 62
40
  6
CONTINUOUS
 10
3.0349472092
 20
5.751698433
 11
3.0140690842
 21
5.7377796826
  0
LINE
  5
266
100
AcDbEntity
  8
03__ASM_ALL_CURVES
100
AcDbLine
 62
40
  6
CONTINUOUS
 10
3.3168018967
 20
5.8908859359
 11
3.3376800217
 21
5.9048046826
  0
LINE
  5
267
100
AcDbEntity
  8
03__ASM_ALL_CURVES
100
AcDbLine
 62
40
  6
CONTINUOUS
 10
3.4733878342
 20
5.8908859359
 11
3.4942659592
 21
5.9048046826
  0
LINE
  5
268
100
AcDbEntity
  8
03__ASM_ALL_CURVES
100
AcDbLine
 62
40
  6
CONTINUOUS
 10
3.3585581467
 20
5.751698433
 11
3.3376800217
 21
5.7377796826
  0
LINE
  5
269
100
AcDbEntity
  8
03__ASM_ALL_CURVES
100
AcDbLine
 62
40
  6
CONTINUOUS
 10
3.5360222092
 20
5.8491296859
 11
3.5151440842
 21
5.8352109293
  0
LINE
  5
26A
100
AcDbEntity
  8
0
100
AcDbLine
 62
7
  6
CONTINUOUS
 10
2.7442550217
 20
3.5808776826
 11
2.6822550217
 21
3.6428776826
  0
LINE
  5
26B
100
AcDbEntity
  8
0
100
AcDbLine
 62
7
  6
CONTINUOUS
 10
2.6512550217
 20
4.6328776826
 11
2.6451602496
 21
4.6434341376
  0
LINE
  5
26C
100
AcDbEntity
  8
03__ASM_ALL_CURVES
100
AcDbLine
 62
40
  6
CONTINUOUS
 10
3.3794362717
 20
5.8491296859
 11
3.3794362717
 21
5.7934546843
  0
LINE
  5
26D
100
AcDbEntity
  8
0
100
AcDbLine
 62
7
  6
CONTINUOUS
 10
3.4952550217
 20
3.5548776826
 11
3.4952550217
 21
5.1688776826
  0
LINE
  5
26E
100
AcDbEntity
  8
03__ASM_ALL_CURVES
100
AcDbLine
 62
40
  6
CONTINUOUS
 10
3.5464612717
 20
5.8769671793
 11
3.5464612717
 21
5.8630484326
  0
LINE
  5
26F
100
AcDbEntity
  8
03__ASM_ALL_CURVES
100
AcDbLine
 62
40
  6
CONTINUOUS
 10
3.5569003342
 20
5.7934546843
 11
3.5569003342
 21
5.7795359326
  0
LINE
  5
270
100
AcDbEntity
  8
0
100
AcDbLine
 62
7
  6
CONTINUOUS
 10
3.5622276529
 20
3.4388776826
 11
3.5622276529
 21
3.439273024
  0
LINE
  5
271
100
AcDbEntity
  8
0
100
AcDbLine
 62
7
  6
CONTINUOUS
 10
3.5622276529
 20
3.8771823411
 11
3.5622276529
 21
3.9239683655
  0
LINE
  5
272
100
AcDbEntity
  8
0
100
AcDbLine
 62
7
  6
CONTINUOUS
 10
3.5622276529
 20
4.7997869997
 11
3.5622276529
 21
4.846573024
  0
LINE
  5
273
100
AcDbEntity
  8
0
100
AcDbLine
 62
7
  6
CONTINUOUS
 10
3.5622276529
 20
5.2844823411
 11
3.5622276529
 21
5.2848776826
  0
LINE
  5
274
100
AcDbEntity
  8
03__ASM_ALL_CURVES
100
AcDbLine
 62
40
  6
CONTINUOUS
 10
3.6612909592
 20
5.8769671793
 11
3.6508518967
 21
5.8352109293
  0
LINE
  5
275
100
AcDbEntity
  8
03__ASM_ALL_CURVES
100
AcDbLine
 62
40
  6
CONTINUOUS
 10
3.7969987717
 20
5.8491296859
 11
3.8074378342
 21
5.8769671793
  0
LINE
  5
276
100
AcDbEntity
  8
03__ASM_ALL_CURVES
100
AcDbLine
 62
40
  6
CONTINUOUS
 10
3.8805112717
 20
5.8491296859
 11
3.8700722092
 21
5.8212921826
  0
LINE
  5
277
100
AcDbEntity
  8
03__ASM_ALL_CURVES
100
AcDbLine
 62
40
  6
CONTINUOUS
 10
3.8805112717
 20
5.7934546843
 11
3.8700722092
 21
5.7656171834
  0
LINE
  5
278
100
AcDbEntity
  8
03__ASM_ALL_CURVES
100
AcDbLine
 62
40
  6
CONTINUOUS
 10
3.9640237717
 20
5.8491296859
 11
3.9744628342
 21
5.8769671793
  0
LINE
  5
279
100
AcDbEntity
  8
0
100
AcDbLine
 62
7
  6
CONTINUOUS
 10
3.5622276529
 20
5.2848776826
 11
3.4952550217
 21
5.1688776826
  0
LINE
  5
27A
100
AcDbEntity
  8
03__ASM_ALL_CURVES
100
AcDbLine
 62
40
  6
CONTINUOUS
 10
3.8700722092
 20
5.7656171834
 11
3.8596331467
 21
5.751698433
  0
LINE
  5
27B
100
AcDbEntity
  8
03__ASM_ALL_CURVES
100
AcDbLine
 62
40
  6
CONTINUOUS
 10
3.9744628342
 20
5.8769671793
 11
3.9849018967
 21
5.8908859359
  0
LINE
  5
27C
100
AcDbEntity
  8
03__ASM_ALL_CURVES
100
AcDbLine
 62
40
  6
CONTINUOUS
 10
4.0370972092
 20
5.7656171834
 11
4.0266581467
 21
5.751698433
  0
LINE
  5
27D
100
AcDbEntity
  8
0
100
AcDbLine
 62
7
  6
CONTINUOUS
 10
2.4437550217
 20
4.0963776826
 11
2.4382550217
 21
4.0908776826
  0
LINE
  5
27E
100
AcDbEntity
  8
03__ASM_ALL_CURVES
100
AcDbLine
 62
40
  6
CONTINUOUS
 10
3.5360222092
 20
5.751698433
 11
3.5151440842
 21
5.7377796826
  0
LINE
  5
27F
100
AcDbEntity
  8
03__ASM_ALL_CURVES
100
AcDbLine
 62
40
  6
CONTINUOUS
 10
3.8178768967
 20
5.8908859359
 11
3.8387550217
 21
5.9048046826
  0
LINE
  5
280
100
AcDbEntity
  8
03__ASM_ALL_CURVES
100
AcDbLine
 62
40
  6
CONTINUOUS
 10
3.9849018967
 20
5.8908859359
 11
4.0057800217
 21
5.9048046826
  0
LINE
  5
281
100
AcDbEntity
  8
03__ASM_ALL_CURVES
100
AcDbLine
 62
40
  6
CONTINUOUS
 10
3.8596331467
 20
5.751698433
 11
3.8387550217
 21
5.7377796826
  0
LINE
  5
282
100
AcDbEntity
  8
03__ASM_ALL_CURVES
100
AcDbLine
 62
40
  6
CONTINUOUS
 10
3.3689972092
 20
5.8212921826
 11
3.3376800217
 21
5.8073734309
  0
LINE
  5
283
100
AcDbEntity
  8
0
100
AcDbLine
 62
7
  6
CONTINUOUS
 10
2.4752558073
 20
4.080876897
 11
2.4597550217
 21
4.0963776826
  0
LINE
  5
284
100
AcDbEntity
  8
0
100
AcDbLine
 62
7
  6
CONTINUOUS
 10
3.5622276529
 20
3.4388776826
 11
3.4952550217
 21
3.5548776826
  0
LINE
  5
285
100
AcDbEntity
  8
03__ASM_ALL_CURVES
100
AcDbLine
 62
40
  6
CONTINUOUS
 10
3.6508518967
 20
5.8352109293
 11
3.6508518967
 21
5.8073734309
  0
LINE
  5
286
100
AcDbEntity
  8
03__ASM_ALL_CURVES
100
AcDbLine
 62
40
  6
CONTINUOUS
 10
4.0475362717
 20
5.8491296859
 11
4.0370972092
 21
5.8212921826
  0
LINE
  5
287
100
AcDbEntity
  8
03__ASM_ALL_CURVES
100
AcDbLine
 62
40
  6
CONTINUOUS
 10
4.0475362717
 20
5.7934546843
 11
4.0370972092
 21
5.7656171834
  0
LINE
  5
288
100
AcDbEntity
  8
03__ASM_ALL_CURVES
100
AcDbLine
 62
40
  6
CONTINUOUS
 10
4.2980737717
 20
5.8769671793
 11
4.3085128342
 21
5.8908859359
  0
LINE
  5
289
100
AcDbEntity
  8
03__ASM_ALL_CURVES
100
AcDbLine
 62
40
  6
CONTINUOUS
 10
4.2876347092
 20
5.7934546843
 11
4.3085128342
 21
5.8212921826
  0
LINE
  5
28A
100
AcDbEntity
  8
03__ASM_ALL_CURVES
100
AcDbLine
 62
40
  6
CONTINUOUS
 10
4.3815862717
 20
5.8630484326
 11
4.3711472092
 21
5.8491296859
  0
LINE
  5
28B
100
AcDbEntity
  8
03__ASM_ALL_CURVES
100
AcDbLine
 62
40
  6
CONTINUOUS
 10
4.3920253342
 20
5.7795359326
 11
4.3711472092
 21
5.751698433
  0
LINE
  5
28C
100
AcDbEntity
  8
03__ASM_ALL_CURVES
100
AcDbLine
 62
40
  6
CONTINUOUS
 10
4.4650987717
 20
5.8769671793
 11
4.4755378342
 21
5.8908859359
  0
LINE
  5
28D
100
AcDbEntity
  8
03__ASM_ALL_CURVES
100
AcDbLine
 62
40
  6
CONTINUOUS
 10
4.4964159592
 20
5.8073734309
 11
4.4755378342
 21
5.7795359326
  0
LINE
  5
28E
100
AcDbEntity
  8
03__ASM_ALL_CURVES
100
AcDbLine
 62
40
  6
CONTINUOUS
 10
4.0266581467
 20
5.751698433
 11
4.0057800217
 21
5.7377796826
  0
LINE
  5
28F
100
AcDbEntity
  8
03__ASM_ALL_CURVES
100
AcDbLine
 62
40
  6
CONTINUOUS
 10
4.3085128342
 20
5.8908859359
 11
4.3293909592
 21
5.9048046826
  0
LINE
  5
290
100
AcDbEntity
  8
03__ASM_ALL_CURVES
100
AcDbLine
 62
40
  6
CONTINUOUS
 10
4.3085128342
 20
5.8212921826
 11
4.3293909592
 21
5.8352109293
  0
LINE
  5
291
100
AcDbEntity
  8
03__ASM_ALL_CURVES
100
AcDbLine
 62
40
  6
CONTINUOUS
 10
4.3711472092
 20
5.8491296859
 11
4.3502690842
 21
5.8352109293
  0
LINE
  5
292
100
AcDbEntity
  8
03__ASM_ALL_CURVES
100
AcDbLine
 62
40
  6
CONTINUOUS
 10
4.4755378342
 20
5.8908859359
 11
4.4964159592
 21
5.9048046826
  0
LINE
  5
293
100
AcDbEntity
  8
03__ASM_ALL_CURVES
100
AcDbLine
 62
40
  6
CONTINUOUS
 10
4.3711472092
 20
5.751698433
 11
4.3502690842
 21
5.7377796826
  0
LINE
  5
294
100
AcDbEntity
  8
03__ASM_ALL_CURVES
100
AcDbLine
 62
40
  6
CONTINUOUS
 10
4.5381722092
 20
5.8352109293
 11
4.4964159592
 21
5.8073734309
  0
LINE
  5
295
100
AcDbEntity
  8
03__ASM_ALL_CURVES
100
AcDbLine
 62
40
  6
CONTINUOUS
 10
3.8700722092
 20
5.8212921826
 11
3.8387550217
 21
5.8073734309
  0
LINE
  5
296
100
AcDbEntity
  8
03__ASM_ALL_CURVES
100
AcDbLine
 62
40
  6
CONTINUOUS
 10
4.0370972092
 20
5.8212921826
 11
4.0057800217
 21
5.8073734309
  0
LINE
  5
297
100
AcDbEntity
  8
0
100
AcDbLine
 62
7
  6
CONTINUOUS
 10
2.4437550217
 20
4.6273776826
 11
2.4382550217
 21
4.6328776826
  0
LINE
  5
298
100
AcDbEntity
  8
03__ASM_ALL_CURVES
100
AcDbLine
 62
40
  6
CONTINUOUS
 10
3.8805112717
 20
5.8491296859
 11
3.8805112717
 21
5.7934546843
  0
LINE
  5
299
100
AcDbEntity
  8
03__ASM_ALL_CURVES
100
AcDbLine
 62
40
  6
CONTINUOUS
 10
4.0475362717
 20
5.8491296859
 11
4.0475362717
 21
5.7934546843
  0
LINE
  5
29A
100
AcDbEntity
  8
0
100
AcDbLine
 62
7
  6
CONTINUOUS
 10
4.4942550217
 20
5.3913776826
 11
4.432767218
 21
5.2848776826
  0
LINE
  5
29B
100
AcDbEntity
  8
03__ASM_ALL_CURVES
100
AcDbLine
 62
40
  6
CONTINUOUS
 10
4.5486112717
 20
5.8491296859
 11
4.5381722092
 21
5.8352109293
  0
LINE
  5
29C
100
AcDbEntity
  8
03__ASM_ALL_CURVES
100
AcDbLine
 62
40
  6
CONTINUOUS
 10
4.6843190842
 20
5.7656171834
 11
4.6634409592
 21
5.7377796826
  0
LINE
  5
29D
100
AcDbEntity
  8
03__ASM_ALL_CURVES
100
AcDbLine
 62
40
  6
CONTINUOUS
 10
3.3063628342
 20
5.8212921826
 11
3.2959237717
 21
5.8491296859
  0
LINE
  5
29E
100
AcDbEntity
  8
03__ASM_ALL_CURVES
100
AcDbLine
 62
40
  6
CONTINUOUS
 10
3.3689972092
 20
5.8769671793
 11
3.3794362717
 21
5.8491296859
  0
LINE
  5
29F
100
AcDbEntity
  8
03__ASM_ALL_CURVES
100
AcDbLine
 62
40
  6
CONTINUOUS
 10
3.6508518967
 20
5.8073734309
 11
3.6612909592
 21
5.7656171834
  0
LINE
  5
2A0
100
AcDbEntity
  8
03__ASM_ALL_CURVES
100
AcDbLine
 62
40
  6
CONTINUOUS
 10
4.1623659592
 20
5.7377796826
 11
4.1623659592
 21
5.751698433
  0
LINE
  5
2A1
100
AcDbEntity
  8
03__ASM_ALL_CURVES
100
AcDbLine
 62
40
  6
CONTINUOUS
 10
4.2876347092
 20
5.7795359326
 11
4.2876347092
 21
5.7934546843
  0
LINE
  5
2A2
100
AcDbEntity
  8
03__ASM_ALL_CURVES
100
AcDbLine
 62
40
  6
CONTINUOUS
 10
4.2980737717
 20
5.8630484326
 11
4.2980737717
 21
5.8769671793
  0
LINE
  5
2A3
100
AcDbEntity
  8
03__ASM_ALL_CURVES
100
AcDbLine
 62
40
  6
CONTINUOUS
 10
4.3815862717
 20
5.8769671793
 11
4.3815862717
 21
5.8630484326
  0
LINE
  5
2A4
100
AcDbEntity
  8
03__ASM_ALL_CURVES
100
AcDbLine
 62
40
  6
CONTINUOUS
 10
4.3920253342
 20
5.7934546843
 11
4.3920253342
 21
5.7795359326
  0
LINE
  5
2A5
100
AcDbEntity
  8
03__ASM_ALL_CURVES
100
AcDbLine
 62
40
  6
CONTINUOUS
 10
4.4755378342
 20
5.7795359326
 11
4.4650987717
 21
5.7377796826
  0
LINE
  5
2A6
100
AcDbEntity
  8
03__ASM_ALL_CURVES
100
AcDbLine
 62
40
  6
CONTINUOUS
 10
4.6947581467
 20
5.8073734309
 11
4.6843190842
 21
5.7656171834
  0
LINE
  5
2A7
100
AcDbEntity
  8
03__ASM_ALL_CURVES
100
AcDbLine
 62
40
  6
CONTINUOUS
 10
7.9683899888
 20
2.6695301826
 11
7.9057556138
 21
2.6695301826
  0
LINE
  5
2A8
100
AcDbEntity
  8
03__ASM_ALL_CURVES
100
AcDbLine
 62
40
  6
CONTINUOUS
 10
7.5690958482
 20
2.6695301826
 11
7.5534372544
 21
2.6695301826
  0
LINE
  5
2A9
100
AcDbEntity
  8
03__ASM_ALL_CURVES
100
AcDbLine
 62
40
  6
CONTINUOUS
 10
7.4438270982
 20
2.6695301826
 11
7.4281685044
 21
2.6695301826
  0
LINE
  5
2AA
100
AcDbEntity
  8
03__ASM_ALL_CURVES
100
AcDbLine
 62
40
  6
CONTINUOUS
 10
7.7804868638
 20
2.6695301826
 11
7.8431212388
 21
2.6695301826
  0
LINE
  5
2AB
100
AcDbEntity
  8
03__ASM_ALL_CURVES
100
AcDbLine
 62
40
  6
CONTINUOUS
 10
7.9057556138
 20
2.7321645576
 11
7.9449020982
 21
2.7321645576
  0
LINE
  5
2AC
100
AcDbEntity
  8
03__ASM_ALL_CURVES
100
AcDbLine
 62
40
  6
CONTINUOUS
 10
7.4281685044
 20
2.7947989326
 11
7.4438270982
 21
2.7947989326
  0
LINE
  5
2AD
100
AcDbEntity
  8
03__ASM_ALL_CURVES
100
AcDbLine
 62
40
  6
CONTINUOUS
 10
7.6473888169
 20
2.7947989326
 11
7.7256817857
 21
2.7947989326
  0
LINE
  5
2AE
100
AcDbEntity
  8
03__ASM_ALL_CURVES
100
AcDbLine
 62
40
  6
CONTINUOUS
 10
7.9057556138
 20
2.7947989326
 11
7.9683899888
 21
2.7947989326
  0
LINE
  5
2AF
100
AcDbEntity
  8
03__ASM_ALL_CURVES
100
AcDbLine
 62
40
  6
CONTINUOUS
 10
8.0231950669
 20
2.7947989326
 11
8.1014880357
 21
2.7947989326
  0
LINE
  5
2B0
100
AcDbEntity
  8
03__ASM_ALL_CURVES
100
AcDbLine
 62
40
  6
CONTINUOUS
 10
7.6278156247
 20
2.8616089326
 11
7.612157031
 21
2.8616089326
  0
LINE
  5
2B1
100
AcDbEntity
  8
03__ASM_ALL_CURVES
100
AcDbLine
 62
40
  6
CONTINUOUS
 10
7.9644753904
 20
2.8616089326
 11
8.0271097654
 21
2.8616089326
  0
LINE
  5
2B2
100
AcDbEntity
  8
03__ASM_ALL_CURVES
100
AcDbLine
 62
40
  6
CONTINUOUS
 10
2.9723128342
 20
5.751698433
 11
2.9618737717
 21
5.7656171834
  0
LINE
  5
2B3
100
AcDbEntity
  8
0
100
AcDbLine
 62
7
  6
CONTINUOUS
 10
4.4942550217
 20
3.3323776826
 11
4.432767218
 21
3.4388776826
  0
LINE
  5
2B4
100
AcDbEntity
  8
0
100
AcDbLine
 62
7
  6
CONTINUOUS
 10
4.432767218
 20
3.4388776826
 11
4.432767218
 21
5.2848776826
  0
LINE
  5
2B5
100
AcDbEntity
  8
0
100
AcDbLine
 62
7
  6
CONTINUOUS
 10
4.4942550217
 20
3.3323776826
 11
4.4942550217
 21
5.3913776826
  0
LINE
  5
2B6
100
AcDbEntity
  8
03__ASM_ALL_CURVES
100
AcDbLine
 62
40
  6
CONTINUOUS
 10
4.5486112717
 20
5.8769671793
 11
4.5486112717
 21
5.8491296859
  0
LINE
  5
2B7
100
AcDbEntity
  8
03__ASM_ALL_CURVES
100
AcDbLine
 62
40
  6
CONTINUOUS
 10
4.6947581467
 20
5.8352109293
 11
4.6947581467
 21
5.8073734309
  0
LINE
  5
2B8
100
AcDbEntity
  8
03__ASM_ALL_CURVES
100
AcDbLine
 62
40
  6
CONTINUOUS
 10
7.7530843747
 20
2.9242433076
 11
7.7139378904
 21
2.9242433076
  0
LINE
  5
2B9
100
AcDbEntity
  8
03__ASM_ALL_CURVES
100
AcDbLine
 62
40
  6
CONTINUOUS
 10
7.5025468747
 20
2.9242433076
 11
7.4634003904
 21
2.9242433076
  0
LINE
  5
2BA
100
AcDbEntity
  8
03__ASM_ALL_CURVES
100
AcDbLine
 62
40
  6
CONTINUOUS
 10
7.4634003904
 20
2.9868776826
 11
7.5025468747
 21
2.9868776826
  0
LINE
  5
2BB
100
AcDbEntity
  8
03__ASM_ALL_CURVES
100
AcDbLine
 62
40
  6
CONTINUOUS
 10
7.612157031
 20
2.9868776826
 11
7.6278156247
 21
2.9868776826
  0
LINE
  5
2BC
100
AcDbEntity
  8
03__ASM_ALL_CURVES
100
AcDbLine
 62
40
  6
CONTINUOUS
 10
7.7139378904
 20
2.9868776826
 11
7.7530843747
 21
2.9868776826
  0
LINE
  5
2BD
100
AcDbEntity
  8
03__ASM_ALL_CURVES
100
AcDbLine
 62
40
  6
CONTINUOUS
 10
7.8313773435
 20
2.9868776826
 11
7.9096703122
 21
2.9868776826
  0
LINE
  5
2BE
100
AcDbEntity
  8
03__ASM_ALL_CURVES
100
AcDbLine
 62
40
  6
CONTINUOUS
 10
7.987963281
 20
2.9868776826
 11
8.0036218747
 21
2.9868776826
  0
LINE
  5
2BF
100
AcDbEntity
  8
03__ASM_ALL_CURVES
100
AcDbLine
 62
40
  6
CONTINUOUS
 10
3.0349472092
 20
5.8212921826
 11
3.0558253342
 21
5.7934546843
  0
LINE
  5
2C0
100
AcDbEntity
  8
03__ASM_ALL_CURVES
100
AcDbLine
 62
40
  6
CONTINUOUS
 10
3.0349472092
 20
5.8908859359
 11
3.0453862717
 21
5.8769671793
  0
LINE
  5
2C1
100
AcDbEntity
  8
03__ASM_ALL_CURVES
100
AcDbLine
 62
40
  6
CONTINUOUS
 10
3.1602159592
 20
5.751698433
 11
3.1706550217
 21
5.7377796826
  0
LINE
  5
2C2
100
AcDbEntity
  8
03__ASM_ALL_CURVES
100
AcDbLine
 62
40
  6
CONTINUOUS
 10
3.3168018967
 20
5.751698433
 11
3.3063628342
 21
5.7656171834
  0
LINE
  5
2C3
100
AcDbEntity
  8
03__ASM_ALL_CURVES
100
AcDbLine
 62
40
  6
CONTINUOUS
 10
3.8074378342
 20
5.8212921826
 11
3.7969987717
 21
5.8491296859
  0
LINE
  5
2C4
100
AcDbEntity
  8
03__ASM_ALL_CURVES
100
AcDbLine
 62
40
  6
CONTINUOUS
 10
3.8700722092
 20
5.8769671793
 11
3.8805112717
 21
5.8491296859
  0
LINE
  5
2C5
100
AcDbEntity
  8
03__ASM_ALL_CURVES
100
AcDbLine
 62
40
  6
CONTINUOUS
 10
3.9744628342
 20
5.8212921826
 11
3.9640237717
 21
5.8491296859
  0
LINE
  5
2C6
100
AcDbEntity
  8
03__ASM_ALL_CURVES
100
AcDbLine
 62
40
  6
CONTINUOUS
 10
6.2519590843
 20
5.8908859359
 11
6.2728372093
 21
5.9048046826
  0
LINE
  5
2C7
100
AcDbEntity
  8
03__ASM_ALL_CURVES
100
AcDbLine
 62
40
  6
CONTINUOUS
 10
6.4189840843
 20
5.8908859359
 11
6.4398622093
 21
5.9048046826
  0
LINE
  5
2C8
100
AcDbEntity
  8
03__ASM_ALL_CURVES
100
AcDbLine
 62
40
  6
CONTINUOUS
 10
6.3145934593
 20
5.751698433
 11
6.2937153343
 21
5.7377796826
  0
LINE
  5
2C9
100
AcDbEntity
  8
03__ASM_ALL_CURVES
100
AcDbLine
 62
40
  6
CONTINUOUS
 10
6.4816184593
 20
5.751698433
 11
6.4607403343
 21
5.7377796826
  0
LINE
  5
2CA
100
AcDbEntity
  8
0
100
AcDbLine
 62
7
  6
CONTINUOUS
 10
5.8072550217
 20
3.3323776826
 11
4.4942550217
 21
3.3323776826
  0
LINE
  5
2CB
100
AcDbEntity
  8
0
100
AcDbLine
 62
7
  6
CONTINUOUS
 10
5.9572550217
 20
3.4078776826
 11
6.0072550217
 21
3.4078776826
  0
LINE
  5
2CC
100
AcDbEntity
  8
THREAD
100
AcDbLine
 62
7
  6
CONTINUOUS
 10
5.8542550217
 20
3.4083776826
 11
5.8072550217
 21
3.4083776826
  0
LINE
  5
2CD
100
AcDbEntity
  8
THREAD
100
AcDbLine
 62
7
  6
CONTINUOUS
 10
6.5277550217
 20
3.4203776826
 11
6.0582772357
 21
3.4203776826
  0
LINE
  5
2CE
100
AcDbEntity
  8
0
100
AcDbLine
 62
7
  6
CONTINUOUS
 10
4.432767218
 20
3.4388776826
 11
3.5622276529
 21
3.4388776826
  0
LINE
  5
2CF
100
AcDbEntity
  8
0
100
AcDbLine
 62
7
  6
CONTINUOUS
 10
4.432767218
 20
3.439273024
 11
3.5622276529
 21
3.439273024
  0
LINE
  5
2D0
100
AcDbEntity
  8
03__ASM_ALL_CURVES
100
AcDbLine
 62
40
  6
CONTINUOUS
 10
3.3585581467
 20
5.8908859359
 11
3.3689972092
 21
5.8769671793
  0
LINE
  5
2D1
100
AcDbEntity
  8
03__ASM_ALL_CURVES
100
AcDbLine
 62
40
  6
CONTINUOUS
 10
3.4733878342
 20
5.751698433
 11
3.4629487717
 21
5.7656171834
  0
LINE
  5
2D2
100
AcDbEntity
  8
03__ASM_ALL_CURVES
100
AcDbLine
 62
40
  6
CONTINUOUS
 10
3.5360222092
 20
5.8212921826
 11
3.5569003342
 21
5.7934546843
  0
LINE
  5
2D3
100
AcDbEntity
  8
03__ASM_ALL_CURVES
100
AcDbLine
 62
40
  6
CONTINUOUS
 10
3.5360222092
 20
5.8908859359
 11
3.5464612717
 21
5.8769671793
  0
LINE
  5
2D4
100
AcDbEntity
  8
03__ASM_ALL_CURVES
100
AcDbLine
 62
40
  6
CONTINUOUS
 10
3.6612909592
 20
5.7656171834
 11
3.6821690842
 21
5.7377796826
  0
LINE
  5
2D5
100
AcDbEntity
  8
03__ASM_ALL_CURVES
100
AcDbLine
 62
40
  6
CONTINUOUS
 10
4.0370972092
 20
5.8769671793
 11
4.0475362717
 21
5.8491296859
  0
LINE
  5
2D6
100
AcDbEntity
  8
03__ASM_ALL_CURVES
100
AcDbLine
 62
40
  6
CONTINUOUS
 10
6.2310809593
 20
5.8630484326
 11
6.2519590843
 21
5.8908859359
  0
LINE
  5
2D7
100
AcDbEntity
  8
THREAD
100
AcDbLine
 62
7
  6
CONTINUOUS
 10
6.7322550217
 20
3.5178776826
 11
6.6252550217
 21
3.5178776826
  0
LINE
  5
2D8
100
AcDbEntity
  8
0
100
AcDbLine
 62
7
  6
CONTINUOUS
 10
8.7067550217
 20
3.5493776826
 11
8.7877550217
 21
3.5493776826
  0
LINE
  5
2D9
100
AcDbEntity
  8
0
100
AcDbLine
 62
7
  6
CONTINUOUS
 10
8.8932550217
 20
3.5513776826
 11
8.7932550217
 21
3.5513776826
  0
LINE
  5
2DA
100
AcDbEntity
  8
0
100
AcDbLine
 62
7
  6
CONTINUOUS
 10
8.6792550217
 20
3.5513776826
 11
8.5512550217
 21
3.5513776826
  0
LINE
  5
2DB
100
AcDbEntity
  8
0
100
AcDbLine
 62
7
  6
CONTINUOUS
 10
3.4952550217
 20
3.5808776826
 11
2.7442550217
 21
3.5808776826
  0
LINE
  5
2DC
100
AcDbEntity
  8
0
100
AcDbLine
 62
7
  6
CONTINUOUS
 10
6.9912550217
 20
3.6428776826
 11
7.7542550217
 21
3.6428776826
  0
LINE
  5
2DD
100
AcDbEntity
  8
0
100
AcDbLine
 62
7
  6
CONTINUOUS
 10
8.0982550217
 20
3.6428776826
 11
8.5512550217
 21
3.6428776826
  0
LINE
  5
2DE
100
AcDbEntity
  8
0
100
AcDbLine
 62
7
  6
CONTINUOUS
 10
6.9912550217
 20
3.6443776826
 11
6.7452550217
 21
3.6443776826
  0
LINE
  5
2DF
100
AcDbEntity
  8
03__ASM_ALL_CURVES
100
AcDbLine
 62
40
  6
CONTINUOUS
 10
3.8178768967
 20
5.751698433
 11
3.8074378342
 21
5.7656171834
  0
LINE
  5
2E0
100
AcDbEntity
  8
03__ASM_ALL_CURVES
100
AcDbLine
 62
40
  6
CONTINUOUS
 10
3.8596331467
 20
5.8908859359
 11
3.8700722092
 21
5.8769671793
  0
LINE
  5
2E1
100
AcDbEntity
  8
03__ASM_ALL_CURVES
100
AcDbLine
 62
40
  6
CONTINUOUS
 10
3.9849018967
 20
5.751698433
 11
3.9744628342
 21
5.7656171834
  0
LINE
  5
2E2
100
AcDbEntity
  8
03__ASM_ALL_CURVES
100
AcDbLine
 62
40
  6
CONTINUOUS
 10
4.6843190842
 20
5.8769671793
 11
4.6947581467
 21
5.8352109293
  0
LINE
  5
2E3
100
AcDbEntity
  8
THREAD
100
AcDbLine
 62
7
  6
CONTINUOUS
 10
6.0582772357
 20
5.3033776826
 11
6.0282550217
 21
5.2513776826
  0
LINE
  5
2E4
100
AcDbEntity
  8
03__ASM_ALL_CURVES
100
AcDbLine
 62
40
  6
CONTINUOUS
 10
6.3354715843
 20
5.7795359326
 11
6.3145934593
 21
5.751698433
  0
LINE
  5
2E5
100
AcDbEntity
  8
03__ASM_ALL_CURVES
100
AcDbLine
 62
40
  6
CONTINUOUS
 10
6.3981059593
 20
5.8630484326
 11
6.4189840843
 21
5.8908859359
  0
LINE
  5
2E6
100
AcDbEntity
  8
03__ASM_ALL_CURVES
100
AcDbLine
 62
40
  6
CONTINUOUS
 10
6.4920575218
 20
5.7656171834
 11
6.4816184593
 21
5.751698433
  0
LINE
  5
2E7
100
AcDbEntity
  8
03__ASM_ALL_CURVES
100
AcDbLine
 62
40
  6
CONTINUOUS
 10
7.2541090843
 20
5.8908859359
 11
7.2749872093
 21
5.9048046826
  0
LINE
  5
2E8
100
AcDbEntity
  8
03__ASM_ALL_CURVES
100
AcDbLine
 62
40
  6
CONTINUOUS
 10
7.3167434593
 20
5.751698433
 11
7.2958653343
 21
5.7377796826
  0
LINE
  5
2E9
100
AcDbEntity
  8
03__ASM_ALL_CURVES
100
AcDbLine
 62
40
  6
CONTINUOUS
 10
7.6090372093
 20
5.9048046826
 11
7.5881590843
 21
5.8908859359
  0
LINE
  5
2EA
100
AcDbEntity
  8
0
100
AcDbLine
 62
7
  6
CONTINUOUS
 10
4.432767218
 20
3.8771823411
 11
3.5622276529
 21
3.8771823411
  0
LINE
  5
2EB
100
AcDbEntity
  8
0
100
AcDbLine
 62
7
  6
CONTINUOUS
 10
4.432767218
 20
3.9239683655
 11
3.5622276529
 21
3.9239683655
  0
LINE
  5
2EC
100
AcDbEntity
  8
03__ASM_ALL_CURVES
100
AcDbLine
 62
40
  6
CONTINUOUS
 10
7.4281685044
 20
2.6695301826
 11
7.4125099107
 21
2.6799692454
  0
LINE
  5
2ED
100
AcDbEntity
  8
03__ASM_ALL_CURVES
100
AcDbLine
 62
40
  6
CONTINUOUS
 10
7.5534372544
 20
2.6695301826
 11
7.5377786607
 21
2.6799692454
  0
LINE
  5
2EE
100
AcDbEntity
  8
03__ASM_ALL_CURVES
100
AcDbLine
 62
40
  6
CONTINUOUS
 10
2.9931909592
 20
5.7377796826
 11
2.9723128342
 21
5.751698433
  0
LINE
  5
2EF
100
AcDbEntity
  8
03__ASM_ALL_CURVES
100
AcDbLine
 62
40
  6
CONTINUOUS
 10
7.4438270982
 20
2.7947989326
 11
7.4594856919
 21
2.7843598726
  0
LINE
  5
2F0
100
AcDbEntity
  8
03__ASM_ALL_CURVES
100
AcDbLine
 62
40
  6
CONTINUOUS
 10
3.0140690842
 20
5.8352109293
 11
3.0349472092
 21
5.8212921826
  0
LINE
  5
2F1
100
AcDbEntity
  8
03__ASM_ALL_CURVES
100
AcDbLine
 62
40
  6
CONTINUOUS
 10
4.0266581467
 20
5.8908859359
 11
4.0370972092
 21
5.8769671793
  0
LINE
  5
2F2
100
AcDbEntity
  8
03__ASM_ALL_CURVES
100
AcDbLine
 62
40
  6
CONTINUOUS
 10
4.1623659592
 20
5.751698433
 11
4.1728050217
 21
5.7377796826
  0
LINE
  5
2F3
100
AcDbEntity
  8
03__ASM_ALL_CURVES
100
AcDbLine
 62
40
  6
CONTINUOUS
 10
4.3085128342
 20
5.751698433
 11
4.2876347092
 21
5.7795359326
  0
LINE
  5
2F4
100
AcDbEntity
  8
03__ASM_ALL_CURVES
100
AcDbLine
 62
40
  6
CONTINUOUS
 10
4.3085128342
 20
5.8491296859
 11
4.2980737717
 21
5.8630484326
  0
LINE
  5
2F5
100
AcDbEntity
  8
03__ASM_ALL_CURVES
100
AcDbLine
 62
40
  6
CONTINUOUS
 10
5.6068250217
 20
5.7043746826
 11
5.6068250217
 21
5.6375646826
  0
LINE
  5
2F6
100
AcDbEntity
  8
0
100
AcDbLine
 62
7
  6
CONTINUOUS
 10
5.8072550217
 20
3.3323776826
 11
5.8072550217
 21
5.3913776826
  0
LINE
  5
2F7
100
AcDbEntity
  8
03__ASM_ALL_CURVES
100
AcDbLine
 62
40
  6
CONTINUOUS
 10
5.8072550217
 20
5.4247826826
 11
5.8072550217
 21
5.7377796826
  0
LINE
  5
2F8
100
AcDbEntity
  8
03__ASM_ALL_CURVES
100
AcDbLine
 62
40
  6
CONTINUOUS
 10
6.2206418968
 20
5.8212921826
 11
6.2310809593
 21
5.8630484326
  0
LINE
  5
2F9
100
AcDbEntity
  8
03__ASM_ALL_CURVES
100
AcDbLine
 62
40
  6
CONTINUOUS
 10
7.6507934593
 20
5.751698433
 11
7.6299153343
 21
5.7377796826
  0
LINE
  5
2FA
100
AcDbEntity
  8
03__ASM_ALL_CURVES
100
AcDbLine
 62
40
  6
CONTINUOUS
 10
7.9222090843
 20
5.8908859359
 11
7.9430872093
 21
5.9048046826
  0
LINE
  5
2FB
100
AcDbEntity
  8
03__ASM_ALL_CURVES
100
AcDbLine
 62
40
  6
CONTINUOUS
 10
7.9848434593
 20
5.751698433
 11
7.9639653343
 21
5.7377796826
  0
LINE
  5
2FC
100
AcDbEntity
  8
0
100
AcDbLine
 62
7
  6
CONTINUOUS
 10
2.4752550218
 20
4.0808776826
 11
2.6454787434
 21
4.0808776826
  0
LINE
  5
2FD
100
AcDbEntity
  8
0
100
AcDbLine
 62
7
  6
CONTINUOUS
 10
2.6822550217
 20
4.0908776826
 11
2.6512550217
 21
4.0908776826
  0
LINE
  5
2FE
100
AcDbEntity
  8
0
100
AcDbLine
 62
7
  6
CONTINUOUS
 10
2.4382550217
 20
4.0908776826
 11
2.4322550217
 21
4.0908776826
  0
LINE
  5
2FF
100
AcDbEntity
  8
0
100
AcDbLine
 62
7
  6
CONTINUOUS
 10
2.4597550217
 20
4.0963776826
 11
2.4437550217
 21
4.0963776826
  0
LINE
  5
300
100
AcDbEntity
  8
0
100
AcDbLine
 62
7
  6
CONTINUOUS
 10
1.9012550217
 20
4.1778776826
 11
2.1002550217
 21
4.1778776826
  0
LINE
  5
301
100
AcDbEntity
  8
0
100
AcDbLine
 62
7
  6
CONTINUOUS
 10
2.1382550217
 20
4.1778776826
 11
2.3702550217
 21
4.1778776826
  0
LINE
  5
302
100
AcDbEntity
  8
03__ASM_ALL_CURVES
100
AcDbLine
 62
40
  6
CONTINUOUS
 10
9.5993784555
 20
4.2032039326
 11
9.5367440805
 21
4.2032039326
  0
LINE
  5
303
100
AcDbEntity
  8
03__ASM_ALL_CURVES
100
AcDbLine
 62
40
  6
CONTINUOUS
 10
9.4114753305
 20
4.2032039326
 11
9.4741097055
 21
4.2032039326
  0
LINE
  5
304
100
AcDbEntity
  8
0
100
AcDbLine
 62
7
  6
CONTINUOUS
 10
2.1002550217
 20
4.2108776826
 11
2.1017550217
 21
4.2108776826
  0
LINE
  5
305
100
AcDbEntity
  8
0
100
AcDbLine
 62
7
  6
CONTINUOUS
 10
2.1367550217
 20
4.2108776826
 11
2.1382550217
 21
4.2108776826
  0
LINE
  5
306
100
AcDbEntity
  8
03__ASM_ALL_CURVES
100
AcDbLine
 62
40
  6
CONTINUOUS
 10
9.5367440805
 20
4.2658383076
 11
9.5758905649
 21
4.2658383076
  0
LINE
  5
307
100
AcDbEntity
  8
03__ASM_ALL_CURVES
100
AcDbLine
 62
40
  6
CONTINUOUS
 10
3.0140690842
 20
5.9048046826
 11
3.0349472092
 21
5.8908859359
  0
LINE
  5
308
100
AcDbEntity
  8
03__ASM_ALL_CURVES
100
AcDbLine
 62
40
  6
CONTINUOUS
 10
7.612157031
 20
2.8616089326
 11
7.5964984372
 21
2.8720479954
  0
LINE
  5
309
100
AcDbEntity
  8
03__ASM_ALL_CURVES
100
AcDbLine
 62
40
  6
CONTINUOUS
 10
3.3376800217
 20
5.7377796826
 11
3.3168018967
 21
5.751698433
  0
LINE
  5
30A
100
AcDbEntity
  8
03__ASM_ALL_CURVES
100
AcDbLine
 62
40
  6
CONTINUOUS
 10
7.5025468747
 20
2.9868776826
 11
7.5182054685
 21
2.9764386226
  0
LINE
  5
30B
100
AcDbEntity
  8
03__ASM_ALL_CURVES
100
AcDbLine
 62
40
  6
CONTINUOUS
 10
3.4942659592
 20
5.7377796826
 11
3.4733878342
 21
5.751698433
  0
LINE
  5
30C
100
AcDbEntity
  8
03__ASM_ALL_CURVES
100
AcDbLine
 62
40
  6
CONTINUOUS
 10
7.6278156247
 20
2.9868776826
 11
7.6434742185
 21
2.9764386226
  0
LINE
  5
30D
100
AcDbEntity
  8
03__ASM_ALL_CURVES
100
AcDbLine
 62
40
  6
CONTINUOUS
 10
3.3376800217
 20
5.9048046826
 11
3.3585581467
 21
5.8908859359
  0
LINE
  5
30E
100
AcDbEntity
  8
03__ASM_ALL_CURVES
100
AcDbLine
 62
40
  6
CONTINUOUS
 10
7.7530843747
 20
2.9868776826
 11
7.7687429685
 21
2.9764386226
  0
LINE
  5
30F
100
AcDbEntity
  8
03__ASM_ALL_CURVES
100
AcDbLine
 62
40
  6
CONTINUOUS
 10
3.5151440842
 20
5.8352109293
 11
3.5360222092
 21
5.8212921826
  0
LINE
  5
310
100
AcDbEntity
  8
03__ASM_ALL_CURVES
100
AcDbLine
 62
40
  6
CONTINUOUS
 10
4.3711472092
 20
5.8212921826
 11
4.3920253342
 21
5.7934546843
  0
LINE
  5
311
100
AcDbEntity
  8
03__ASM_ALL_CURVES
100
AcDbLine
 62
40
  6
CONTINUOUS
 10
4.3711472092
 20
5.8908859359
 11
4.3815862717
 21
5.8769671793
  0
LINE
  5
312
100
AcDbEntity
  8
03__ASM_ALL_CURVES
100
AcDbLine
 62
40
  6
CONTINUOUS
 10
4.5381722092
 20
5.8908859359
 11
4.5486112717
 21
5.8769671793
  0
LINE
  5
313
100
AcDbEntity
  8
THREAD
100
AcDbLine
 62
7
  6
CONTINUOUS
 10
6.0582772357
 20
3.4203776826
 11
6.0282550217
 21
3.4723776826
  0
LINE
  5
314
100
AcDbEntity
  8
THREAD
100
AcDbLine
 62
7
  6
CONTINUOUS
 10
5.8542550217
 20
3.4083776826
 11
5.8542550217
 21
5.3153776826
  0
LINE
  5
315
100
AcDbEntity
  8
0
100
AcDbLine
 62
7
  6
CONTINUOUS
 10
5.9572550217
 20
3.4078776826
 11
5.9572550217
 21
5.3158776826
  0
LINE
  5
316
100
AcDbEntity
  8
0
100
AcDbLine
 62
7
  6
CONTINUOUS
 10
6.0072550217
 20
3.4078776826
 11
6.0072550217
 21
5.3158776826
  0
LINE
  5
317
100
AcDbEntity
  8
03__ASM_ALL_CURVES
100
AcDbLine
 62
40
  6
CONTINUOUS
 10
6.0076850217
 20
5.7043746826
 11
6.0076850217
 21
5.6375646826
  0
LINE
  5
318
100
AcDbEntity
  8
0
100
AcDbLine
 62
7
  6
CONTINUOUS
 10
6.0282550217
 20
3.4723776826
 11
6.0282550217
 21
5.2513776826
  0
LINE
  5
319
100
AcDbEntity
  8
THREAD
100
AcDbLine
 62
7
  6
CONTINUOUS
 10
6.0582772357
 20
3.4203776826
 11
6.0582772357
 21
5.3033776826
  0
LINE
  5
31A
100
AcDbEntity
  8
03__ASM_ALL_CURVES
100
AcDbLine
 62
40
  6
CONTINUOUS
 10
6.0744950218
 20
5.9048046826
 11
6.0744950218
 21
5.7377796826
  0
LINE
  5
31B
100
AcDbEntity
  8
03__ASM_ALL_CURVES
100
AcDbLine
 62
40
  6
CONTINUOUS
 10
6.3459106468
 20
5.8212921826
 11
6.3354715843
 21
5.7795359326
  0
LINE
  5
31C
100
AcDbEntity
  8
03__ASM_ALL_CURVES
100
AcDbLine
 62
40
  6
CONTINUOUS
 10
6.3876668968
 20
5.8212921826
 11
6.3981059593
 21
5.8630484326
  0
LINE
  5
31D
100
AcDbEntity
  8
03__ASM_ALL_CURVES
100
AcDbLine
 62
40
  6
CONTINUOUS
 10
6.5651309593
 20
5.7377796826
 11
6.6173262718
 21
5.9048046826
  0
LINE
  5
31E
100
AcDbEntity
  8
03__ASM_ALL_CURVES
100
AcDbLine
 62
40
  6
CONTINUOUS
 10
7.2332309593
 20
5.8630484326
 11
7.2541090843
 21
5.8908859359
  0
LINE
  5
31F
100
AcDbEntity
  8
03__ASM_ALL_CURVES
100
AcDbLine
 62
40
  6
CONTINUOUS
 10
8.1518684593
 20
5.751698433
 11
8.1309903343
 21
5.7377796826
  0
LINE
  5
320
100
AcDbEntity
  8
03__ASM_ALL_CURVES
100
AcDbLine
 62
40
  6
CONTINUOUS
 10
8.4754793968
 20
5.751698433
 11
8.4546012718
 21
5.7377796826
  0
LINE
  5
321
100
AcDbEntity
  8
03__ASM_ALL_CURVES
100
AcDbLine
 62
40
  6
CONTINUOUS
 10
9.5367440805
 20
4.3284726826
 11
9.5993784555
 21
4.3284726826
  0
LINE
  5
322
100
AcDbEntity
  8
03__ASM_ALL_CURVES
100
AcDbLine
 62
40
  6
CONTINUOUS
 10
9.6541835337
 20
4.3284726826
 11
9.7324765024
 21
4.3284726826
  0
LINE
  5
323
100
AcDbEntity
  8
0
100
AcDbLine
 62
7
  6
CONTINUOUS
 10
2.6203836113
 20
4.3618776826
 11
2.518725873
 21
4.3618776826
  0
LINE
  5
324
100
AcDbEntity
  8
03__ASM_ALL_CURVES
100
AcDbLine
 62
40
  6
CONTINUOUS
 10
9.3566702543
 20
4.3952826826
 11
9.3410116605
 21
4.3952826826
  0
LINE
  5
325
100
AcDbEntity
  8
03__ASM_ALL_CURVES
100
AcDbLine
 62
40
  6
CONTINUOUS
 10
9.4819390043
 20
4.4579170576
 11
9.4427925199
 21
4.4579170576
  0
LINE
  5
326
100
AcDbEntity
  8
03__ASM_ALL_CURVES
100
AcDbLine
 62
40
  6
CONTINUOUS
 10
9.2314015043
 20
4.4579170576
 11
9.1922550199
 21
4.4579170576
  0
LINE
  5
327
100
AcDbEntity
  8
0
100
AcDbLine
 62
7
  6
CONTINUOUS
 10
2.1002550217
 20
4.5128776826
 11
2.1382550217
 21
4.5128776826
  0
LINE
  5
328
100
AcDbEntity
  8
03__ASM_ALL_CURVES
100
AcDbLine
 62
40
  6
CONTINUOUS
 10
9.1922550199
 20
4.5205514326
 11
9.2314015043
 21
4.5205514326
  0
LINE
  5
329
100
AcDbEntity
  8
03__ASM_ALL_CURVES
100
AcDbLine
 62
40
  6
CONTINUOUS
 10
9.3410116605
 20
4.5205514326
 11
9.3566702543
 21
4.5205514326
  0
LINE
  5
32A
100
AcDbEntity
  8
03__ASM_ALL_CURVES
100
AcDbLine
 62
40
  6
CONTINUOUS
 10
9.4427925199
 20
4.5205514326
 11
9.4819390043
 21
4.5205514326
  0
LINE
  5
32B
100
AcDbEntity
  8
03__ASM_ALL_CURVES
100
AcDbLine
 62
40
  6
CONTINUOUS
 10
9.560231973
 20
4.5205514326
 11
9.6385249418
 21
4.5205514326
  0
LINE
  5
32C
100
AcDbEntity
  8
0
100
AcDbLine
 62
7
  6
CONTINUOUS
 10
1.9012550217
 20
4.5458776826
 11
2.1002550217
 21
4.5458776826
  0
LINE
  5
32D
100
AcDbEntity
  8
0
100
AcDbLine
 62
7
  6
CONTINUOUS
 10
2.1382550217
 20
4.5458776826
 11
2.3702550217
 21
4.5458776826
  0
LINE
  5
32E
100
AcDbEntity
  8
03__ASM_ALL_CURVES
100
AcDbLine
 62
40
  6
CONTINUOUS
 10
3.5151440842
 20
5.9048046826
 11
3.5360222092
 21
5.8908859359
  0
LINE
  5
32F
100
AcDbEntity
  8
03__ASM_ALL_CURVES
100
AcDbLine
 62
40
  6
CONTINUOUS
 10
3.8387550217
 20
5.7377796826
 11
3.8178768967
 21
5.751698433
  0
LINE
  5
330
100
AcDbEntity
  8
03__ASM_ALL_CURVES
100
AcDbLine
 62
40
  6
CONTINUOUS
 10
8.0036218747
 20
2.9868776826
 11
8.0192804685
 21
2.9764386226
  0
LINE
  5
331
100
AcDbEntity
  8
03__ASM_ALL_CURVES
100
AcDbLine
 62
40
  6
CONTINUOUS
 10
4.0057800217
 20
5.7377796826
 11
3.9849018967
 21
5.751698433
  0
LINE
  5
332
100
AcDbEntity
  8
03__ASM_ALL_CURVES
100
AcDbLine
 62
40
  6
CONTINUOUS
 10
3.8387550217
 20
5.9048046826
 11
3.8596331467
 21
5.8908859359
  0
LINE
  5
333
100
AcDbEntity
  8
03__ASM_ALL_CURVES
100
AcDbLine
 62
40
  6
CONTINUOUS
 10
4.6634409592
 20
5.9048046826
 11
4.6843190842
 21
5.8769671793
  0
LINE
  5
334
100
AcDbEntity
  8
03__ASM_ALL_CURVES
100
AcDbLine
 62
40
  6
CONTINUOUS
 10
7.3271825218
 20
5.7656171834
 11
7.3167434593
 21
5.751698433
  0
LINE
  5
335
100
AcDbEntity
  8
03__ASM_ALL_CURVES
100
AcDbLine
 62
40
  6
CONTINUOUS
 10
7.5881590843
 20
5.8908859359
 11
7.5777200218
 21
5.8769671793
  0
LINE
  5
336
100
AcDbEntity
  8
03__ASM_ALL_CURVES
100
AcDbLine
 62
40
  6
CONTINUOUS
 10
7.6612325218
 20
5.7656171834
 11
7.6507934593
 21
5.751698433
  0
LINE
  5
337
100
AcDbEntity
  8
03__ASM_ALL_CURVES
100
AcDbLine
 62
40
  6
CONTINUOUS
 10
8.8199684593
 20
5.8352109293
 11
8.7990903343
 21
5.8212921826
  0
LINE
  5
338
100
AcDbEntity
  8
0
100
AcDbLine
 62
7
  6
CONTINUOUS
 10
2.4597550217
 20
4.6273776826
 11
2.4437550217
 21
4.6273776826
  0
LINE
  5
339
100
AcDbEntity
  8
0
100
AcDbLine
 62
7
  6
CONTINUOUS
 10
2.6822550217
 20
4.6328776826
 11
2.6512550217
 21
4.6328776826
  0
LINE
  5
33A
100
AcDbEntity
  8
0
100
AcDbLine
 62
7
  6
CONTINUOUS
 10
2.4382550217
 20
4.6328776826
 11
2.4322550217
 21
4.6328776826
  0
LINE
  5
33B
100
AcDbEntity
  8
0
100
AcDbLine
 62
7
  6
CONTINUOUS
 10
2.4752550218
 20
4.6428776826
 11
2.6454787434
 21
4.6428776826
  0
LINE
  5
33C
100
AcDbEntity
  8
0
100
AcDbLine
 62
7
  6
CONTINUOUS
 10
4.432767218
 20
4.7997869997
 11
3.5622276529
 21
4.7997869997
  0
LINE
  5
33D
100
AcDbEntity
  8
0
100
AcDbLine
 62
7
  6
CONTINUOUS
 10
4.432767218
 20
4.846573024
 11
3.5622276529
 21
4.846573024
  0
LINE
  5
33E
100
AcDbEntity
  8
03__ASM_ALL_CURVES
100
AcDbLine
 62
40
  6
CONTINUOUS
 10
3.3376800217
 20
5.8073734309
 11
3.3063628342
 21
5.8212921826
  0
LINE
  5
33F
100
AcDbEntity
  8
03__ASM_ALL_CURVES
100
AcDbLine
 62
40
  6
CONTINUOUS
 10
3.8387550217
 20
5.8073734309
 11
3.8074378342
 21
5.8212921826
  0
LINE
  5
340
100
AcDbEntity
  8
03__ASM_ALL_CURVES
100
AcDbLine
 62
40
  6
CONTINUOUS
 10
4.0057800217
 20
5.9048046826
 11
4.0266581467
 21
5.8908859359
  0
LINE
  5
341
100
AcDbEntity
  8
03__ASM_ALL_CURVES
100
AcDbLine
 62
40
  6
CONTINUOUS
 10
4.3293909592
 20
5.7377796826
 11
4.3085128342
 21
5.751698433
  0
LINE
  5
342
100
AcDbEntity
  8
03__ASM_ALL_CURVES
100
AcDbLine
 62
40
  6
CONTINUOUS
 10
4.3293909592
 20
5.8352109293
 11
4.3085128342
 21
5.8491296859
  0
LINE
  5
343
100
AcDbEntity
  8
03__ASM_ALL_CURVES
100
AcDbLine
 62
40
  6
CONTINUOUS
 10
4.3502690842
 20
5.8352109293
 11
4.3711472092
 21
5.8212921826
  0
LINE
  5
344
100
AcDbEntity
  8
03__ASM_ALL_CURVES
100
AcDbLine
 62
40
  6
CONTINUOUS
 10
4.3502690842
 20
5.9048046826
 11
4.3711472092
 21
5.8908859359
  0
LINE
  5
345
100
AcDbEntity
  8
03__ASM_ALL_CURVES
100
AcDbLine
 62
40
  6
CONTINUOUS
 10
7.4125099107
 20
2.6799692454
 11
7.3968513169
 21
2.7008473701
  0
LINE
  5
346
100
AcDbEntity
  8
03__ASM_ALL_CURVES
100
AcDbLine
 62
40
  6
CONTINUOUS
 10
7.5377786607
 20
2.6799692454
 11
7.5299493638
 21
2.6904083082
  0
LINE
  5
347
100
AcDbEntity
  8
03__ASM_ALL_CURVES
100
AcDbLine
 62
40
  6
CONTINUOUS
 10
7.4594856919
 20
2.7843598726
 11
7.4751442857
 21
2.7634817451
  0
LINE
  5
348
100
AcDbEntity
  8
03__ASM_ALL_CURVES
100
AcDbLine
 62
40
  6
CONTINUOUS
 10
7.5964984372
 20
2.8720479954
 11
7.5808398435
 21
2.8929261201
  0
LINE
  5
349
100
AcDbEntity
  8
03__ASM_ALL_CURVES
100
AcDbLine
 62
40
  6
CONTINUOUS
 10
7.5182054685
 20
2.9764386226
 11
7.5260347654
 21
2.9659995551
  0
LINE
  5
34A
100
AcDbEntity
  8
THREAD
100
AcDbLine
 62
7
  6
CONTINUOUS
 10
6.5277550217
 20
3.4203776826
 11
6.5277550217
 21
5.3033776826
  0
LINE
  5
34B
100
AcDbEntity
  8
THREAD
100
AcDbLine
 62
7
  6
CONTINUOUS
 10
6.6252550217
 20
3.5178776826
 11
6.6252550217
 21
5.2058776826
  0
LINE
  5
34C
100
AcDbEntity
  8
03__ASM_ALL_CURVES
100
AcDbLine
 62
40
  6
CONTINUOUS
 10
7.9013309593
 20
5.8630484326
 11
7.9222090843
 21
5.8908859359
  0
LINE
  5
34D
100
AcDbEntity
  8
03__ASM_ALL_CURVES
100
AcDbLine
 62
40
  6
CONTINUOUS
 10
8.0057215843
 20
5.7795359326
 11
7.9848434593
 21
5.751698433
  0
LINE
  5
34E
100
AcDbEntity
  8
0
100
AcDbLine
 62
7
  6
CONTINUOUS
 10
6.9912550217
 20
5.0793776826
 11
6.7452550217
 21
5.0793776826
  0
LINE
  5
34F
100
AcDbEntity
  8
0
100
AcDbLine
 62
7
  6
CONTINUOUS
 10
6.9912550217
 20
5.0808776826
 11
7.7542550217
 21
5.0808776826
  0
LINE
  5
350
100
AcDbEntity
  8
0
100
AcDbLine
 62
7
  6
CONTINUOUS
 10
8.0982550217
 20
5.0808776826
 11
8.5512550217
 21
5.0808776826
  0
LINE
  5
351
100
AcDbEntity
  8
0
100
AcDbLine
 62
7
  6
CONTINUOUS
 10
3.4952550217
 20
5.1428776826
 11
2.7442550217
 21
5.1428776826
  0
LINE
  5
352
100
AcDbEntity
  8
0
100
AcDbLine
 62
7
  6
CONTINUOUS
 10
8.8932550217
 20
5.1723776826
 11
8.7932550217
 21
5.1723776826
  0
LINE
  5
353
100
AcDbEntity
  8
0
100
AcDbLine
 62
7
  6
CONTINUOUS
 10
8.6792550217
 20
5.1723776826
 11
8.5512550217
 21
5.1723776826
  0
LINE
  5
354
100
AcDbEntity
  8
0
100
AcDbLine
 62
7
  6
CONTINUOUS
 10
8.7067550217
 20
5.1743776826
 11
8.7877550217
 21
5.1743776826
  0
LINE
  5
355
100
AcDbEntity
  8
03__ASM_ALL_CURVES
100
AcDbLine
 62
40
  6
CONTINUOUS
 10
2.0706850217
 20
5.6431321826
 11
1.8702550217
 21
5.6709696826
  0
LINE
  5
356
100
AcDbEntity
  8
03__ASM_ALL_CURVES
100
AcDbLine
 62
40
  6
CONTINUOUS
 10
2.0706850217
 20
5.6375646826
 11
1.8702550217
 21
5.6709696826
  0
LINE
  5
357
100
AcDbEntity
  8
03__ASM_ALL_CURVES
100
AcDbLine
 62
40
  6
CONTINUOUS
 10
4.0057800217
 20
5.8073734309
 11
3.9744628342
 21
5.8212921826
  0
LINE
  5
358
100
AcDbEntity
  8
03__ASM_ALL_CURVES
100
AcDbLine
 62
40
  6
CONTINUOUS
 10
4.5172940842
 20
5.9048046826
 11
4.5381722092
 21
5.8908859359
  0
LINE
  5
359
100
AcDbEntity
  8
03__ASM_ALL_CURVES
100
AcDbLine
 62
40
  6
CONTINUOUS
 10
7.6434742185
 20
2.9764386226
 11
7.6591328122
 21
2.9555604951
  0
LINE
  5
35A
100
AcDbEntity
  8
03__ASM_ALL_CURVES
100
AcDbLine
 62
40
  6
CONTINUOUS
 10
7.7687429685
 20
2.9764386226
 11
7.7765722654
 21
2.9659995551
  0
LINE
  5
35B
100
AcDbEntity
  8
03__ASM_ALL_CURVES
100
AcDbLine
 62
40
  6
CONTINUOUS
 10
6.2310809593
 20
5.7795359326
 11
6.2206418968
 21
5.8212921826
  0
LINE
  5
35C
100
AcDbEntity
  8
0
100
AcDbLine
 62
7
  6
CONTINUOUS
 10
6.7322550217
 20
3.5178776826
 11
6.7322550217
 21
5.2058776826
  0
LINE
  5
35D
100
AcDbEntity
  8
0
100
AcDbLine
 62
7
  6
CONTINUOUS
 10
6.7452550217
 20
3.5308776826
 11
6.7452550217
 21
5.1928776826
  0
LINE
  5
35E
100
AcDbEntity
  8
03__ASM_ALL_CURVES
100
AcDbLine
 62
40
  6
CONTINUOUS
 10
6.7843512718
 20
5.9048046826
 11
6.7843512718
 21
5.7377796826
  0
LINE
  5
35F
100
AcDbEntity
  8
03__ASM_ALL_CURVES
100
AcDbLine
 62
40
  6
CONTINUOUS
 10
6.9513762718
 20
5.9048046826
 11
6.9513762718
 21
5.7377796826
  0
LINE
  5
360
100
AcDbEntity
  8
03__ASM_ALL_CURVES
100
AcDbLine
 62
40
  6
CONTINUOUS
 10
7.2227918968
 20
5.8212921826
 11
7.2332309593
 21
5.8630484326
  0
LINE
  5
361
100
AcDbEntity
  8
03__ASM_ALL_CURVES
100
AcDbLine
 62
40
  6
CONTINUOUS
 10
8.1623075218
 20
5.7656171834
 11
8.1518684593
 21
5.751698433
  0
LINE
  5
362
100
AcDbEntity
  8
THREAD
100
AcDbLine
 62
7
  6
CONTINUOUS
 10
6.6252550217
 20
3.5178776826
 11
6.5277550217
 21
3.4203776826
  0
LINE
  5
363
100
AcDbEntity
  8
0
100
AcDbLine
 62
7
  6
CONTINUOUS
 10
8.6937550217
 20
5.1643776826
 11
8.7067550217
 21
5.1743776826
  0
LINE
  5
364
100
AcDbEntity
  8
THREAD
100
AcDbLine
 62
7
  6
CONTINUOUS
 10
6.7322550217
 20
5.2058776826
 11
6.6252550217
 21
5.2058776826
  0
LINE
  5
365
100
AcDbEntity
  8
0
100
AcDbLine
 62
7
  6
CONTINUOUS
 10
4.432767218
 20
5.2844823411
 11
3.5622276529
 21
5.2844823411
  0
LINE
  5
366
100
AcDbEntity
  8
0
100
AcDbLine
 62
7
  6
CONTINUOUS
 10
4.432767218
 20
5.2848776826
 11
3.5622276529
 21
5.2848776826
  0
LINE
  5
367
100
AcDbEntity
  8
THREAD
100
AcDbLine
 62
7
  6
CONTINUOUS
 10
6.5277550217
 20
5.3033776826
 11
6.0582772357
 21
5.3033776826
  0
LINE
  5
368
100
AcDbEntity
  8
THREAD
100
AcDbLine
 62
7
  6
CONTINUOUS
 10
5.8542550217
 20
5.3153776826
 11
5.8072550217
 21
5.3153776826
  0
LINE
  5
369
100
AcDbEntity
  8
0
100
AcDbLine
 62
7
  6
CONTINUOUS
 10
5.9572550217
 20
5.3158776826
 11
6.0072550217
 21
5.3158776826
  0
LINE
  5
36A
100
AcDbEntity
  8
0
100
AcDbLine
 62
7
  6
CONTINUOUS
 10
5.8072550217
 20
5.3913776826
 11
4.4942550217
 21
5.3913776826
  0
LINE
  5
36B
100
AcDbEntity
  8
03__ASM_ALL_CURVES
100
AcDbLine
 62
40
  6
CONTINUOUS
 10
2.0706850217
 20
5.6598346826
 11
1.8702550217
 21
5.6709696826
  0
LINE
  5
36C
100
AcDbEntity
  8
03__ASM_ALL_CURVES
100
AcDbLine
 62
40
  6
CONTINUOUS
 10
2.0706850217
 20
5.6542671826
 11
1.8702550217
 21
5.6709696826
  0
LINE
  5
36D
100
AcDbEntity
  8
03__ASM_ALL_CURVES
100
AcDbLine
 62
40
  6
CONTINUOUS
 10
2.0706850217
 20
5.6486996826
 11
1.8702550217
 21
5.6709696826
  0
LINE
  5
36E
100
AcDbEntity
  8
03__ASM_ALL_CURVES
100
AcDbLine
 62
40
  6
CONTINUOUS
 10
8.0192804685
 20
2.9764386226
 11
8.0271097654
 21
2.9659995551
  0
LINE
  5
36F
100
AcDbEntity
  8
03__ASM_ALL_CURVES
100
AcDbLine
 62
40
  6
CONTINUOUS
 10
6.3354715843
 20
5.8630484326
 11
6.3459106468
 21
5.8212921826
  0
LINE
  5
370
100
AcDbEntity
  8
03__ASM_ALL_CURVES
100
AcDbLine
 62
40
  6
CONTINUOUS
 10
6.3981059593
 20
5.7795359326
 11
6.3876668968
 21
5.8212921826
  0
LINE
  5
371
100
AcDbEntity
  8
03__ASM_ALL_CURVES
100
AcDbLine
 62
40
  6
CONTINUOUS
 10
7.3968513169
 20
2.7008473701
 11
7.38902202
 21
2.7321645576
  0
LINE
  5
372
100
AcDbEntity
  8
0
100
AcDbLine
 62
7
  6
CONTINUOUS
 10
6.9912550217
 20
5.0808692579
 11
6.9912550217
 21
3.6428861073
  0
LINE
  5
373
100
AcDbEntity
  8
03__ASM_ALL_CURVES
100
AcDbLine
 62
40
  6
CONTINUOUS
 10
7.0766450218
 20
5.7377796826
 11
7.0766450218
 21
5.9048046826
  0
LINE
  5
374
100
AcDbEntity
  8
03__ASM_ALL_CURVES
100
AcDbLine
 62
40
  6
CONTINUOUS
 10
7.1601575218
 20
5.7377796826
 11
7.1601575218
 21
5.9048046826
  0
LINE
  5
375
100
AcDbEntity
  8
03__ASM_ALL_CURVES
100
AcDbLine
 62
40
  6
CONTINUOUS
 10
8.4963575218
 20
5.7795359326
 11
8.4754793968
 21
5.751698433
  0
LINE
  5
376
100
AcDbEntity
  8
0
100
AcDbLine
 62
7
  6
CONTINUOUS
 10
6.7452550217
 20
3.5308776826
 11
6.7322550217
 21
3.5178776826
  0
LINE
  5
377
100
AcDbEntity
  8
03__ASM_ALL_CURVES
100
AcDbLine
 62
40
  6
CONTINUOUS
 10
5.6068250217
 20
5.6375646826
 11
6.0076850217
 21
5.7043746826
  0
LINE
  5
378
100
AcDbEntity
  8
03__ASM_ALL_CURVES
100
AcDbLine
 62
40
  6
CONTINUOUS
 10
5.6068250217
 20
5.6431321826
 11
6.0076850217
 21
5.6988071826
  0
LINE
  5
379
100
AcDbEntity
  8
03__ASM_ALL_CURVES
100
AcDbLine
 62
40
  6
CONTINUOUS
 10
5.6068250217
 20
5.6486996826
 11
6.0076850217
 21
5.6932396826
  0
LINE
  5
37A
100
AcDbEntity
  8
03__ASM_ALL_CURVES
100
AcDbLine
 62
40
  6
CONTINUOUS
 10
5.6068250217
 20
5.6542671826
 11
6.0076850217
 21
5.6876721826
  0
LINE
  5
37B
100
AcDbEntity
  8
03__ASM_ALL_CURVES
100
AcDbLine
 62
40
  6
CONTINUOUS
 10
5.6068250217
 20
5.6598346826
 11
6.0076850217
 21
5.6821046826
  0
LINE
  5
37C
100
AcDbEntity
  8
03__ASM_ALL_CURVES
100
AcDbLine
 62
40
  6
CONTINUOUS
 10
5.6068250217
 20
5.6654021826
 11
6.0076850217
 21
5.6765371826
  0
LINE
  5
37D
100
AcDbEntity
  8
03__ASM_ALL_CURVES
100
AcDbLine
 62
40
  6
CONTINUOUS
 10
1.8702550217
 20
5.6709696826
 11
9.0141350217
 21
5.6709696826
  0
LINE
  5
37E
100
AcDbEntity
  8
03__ASM_ALL_CURVES
100
AcDbLine
 62
40
  6
CONTINUOUS
 10
8.6633825218
 20
5.7377796826
 11
8.5798700218
 21
5.7377796826
  0
LINE
  5
37F
100
AcDbEntity
  8
03__ASM_ALL_CURVES
100
AcDbLine
 62
40
  6
CONTINUOUS
 10
8.4546012718
 20
5.7377796826
 11
8.4128450218
 21
5.7377796826
  0
LINE
  5
380
100
AcDbEntity
  8
03__ASM_ALL_CURVES
100
AcDbLine
 62
40
  6
CONTINUOUS
 10
8.1309903343
 20
5.7377796826
 11
8.1101122093
 21
5.7377796826
  0
LINE
  5
381
100
AcDbEntity
  8
03__ASM_ALL_CURVES
100
AcDbLine
 62
40
  6
CONTINUOUS
 10
7.9639653343
 20
5.7377796826
 11
7.9430872093
 21
5.7377796826
  0
LINE
  5
382
100
AcDbEntity
  8
03__ASM_ALL_CURVES
100
AcDbLine
 62
40
  6
CONTINUOUS
 10
7.6299153343
 20
5.7377796826
 11
7.6090372093
 21
5.7377796826
  0
LINE
  5
383
100
AcDbEntity
  8
03__ASM_ALL_CURVES
100
AcDbLine
 62
40
  6
CONTINUOUS
 10
7.2958653343
 20
5.7377796826
 11
7.2749872093
 21
5.7377796826
  0
LINE
  5
384
100
AcDbEntity
  8
03__ASM_ALL_CURVES
100
AcDbLine
 62
40
  6
CONTINUOUS
 10
6.4607403343
 20
5.7377796826
 11
6.4398622093
 21
5.7377796826
  0
LINE
  5
385
100
AcDbEntity
  8
03__ASM_ALL_CURVES
100
AcDbLine
 62
40
  6
CONTINUOUS
 10
6.2937153343
 20
5.7377796826
 11
6.2728372093
 21
5.7377796826
  0
LINE
  5
386
100
AcDbEntity
  8
03__ASM_ALL_CURVES
100
AcDbLine
 62
40
  6
CONTINUOUS
 10
4.3502690842
 20
5.7377796826
 11
4.3293909592
 21
5.7377796826
  0
LINE
  5
387
100
AcDbEntity
  8
03__ASM_ALL_CURVES
100
AcDbLine
 62
40
  6
CONTINUOUS
 10
4.1728050217
 20
5.7377796826
 11
4.1623659592
 21
5.7377796826
  0
LINE
  5
388
100
AcDbEntity
  8
03__ASM_ALL_CURVES
100
AcDbLine
 62
40
  6
CONTINUOUS
 10
3.5151440842
 20
5.7377796826
 11
3.4942659592
 21
5.7377796826
  0
LINE
  5
389
100
AcDbEntity
  8
03__ASM_ALL_CURVES
100
AcDbLine
 62
40
  6
CONTINUOUS
 10
3.1706550217
 20
5.7377796826
 11
3.1602159592
 21
5.7377796826
  0
LINE
  5
38A
100
AcDbEntity
  8
03__ASM_ALL_CURVES
100
AcDbLine
 62
40
  6
CONTINUOUS
 10
3.0140690842
 20
5.7377796826
 11
2.9931909592
 21
5.7377796826
  0
LINE
  5
38B
100
AcDbEntity
  8
03__ASM_ALL_CURVES
100
AcDbLine
 62
40
  6
CONTINUOUS
 10
4.4650987717
 20
5.7377796826
 11
4.5486112717
 21
5.7377796826
  0
LINE
  5
38C
100
AcDbEntity
  8
03__ASM_ALL_CURVES
100
AcDbLine
 62
40
  6
CONTINUOUS
 10
6.0744950218
 20
5.7377796826
 11
6.1580075218
 21
5.7377796826
  0
LINE
  5
38D
100
AcDbEntity
  8
03__ASM_ALL_CURVES
100
AcDbLine
 62
40
  6
CONTINUOUS
 10
8.2458200218
 20
5.7377796826
 11
8.3293325218
 21
5.7377796826
  0
LINE
  5
38E
100
AcDbEntity
  8
03__ASM_ALL_CURVES
100
AcDbLine
 62
40
  6
CONTINUOUS
 10
2.0706850217
 20
5.6654021826
 11
1.8702550217
 21
5.6709696826
  0
LINE
  5
38F
100
AcDbEntity
  8
03__ASM_ALL_CURVES
100
AcDbLine
 62
40
  6
CONTINUOUS
 10
5.6068250217
 20
5.6765371826
 11
6.0076850217
 21
5.6654021826
  0
LINE
  5
390
100
AcDbEntity
  8
03__ASM_ALL_CURVES
100
AcDbLine
 62
40
  6
CONTINUOUS
 10
5.6068250217
 20
5.6821046826
 11
6.0076850217
 21
5.6598346826
  0
LINE
  5
391
100
AcDbEntity
  8
03__ASM_ALL_CURVES
100
AcDbLine
 62
40
  6
CONTINUOUS
 10
5.6068250217
 20
5.6876721826
 11
6.0076850217
 21
5.6542671826
  0
LINE
  5
392
100
AcDbEntity
  8
03__ASM_ALL_CURVES
100
AcDbLine
 62
40
  6
CONTINUOUS
 10
5.6068250217
 20
5.6932396826
 11
6.0076850217
 21
5.6486996826
  0
LINE
  5
393
100
AcDbEntity
  8
03__ASM_ALL_CURVES
100
AcDbLine
 62
40
  6
CONTINUOUS
 10
5.6068250217
 20
5.6988071826
 11
6.0076850217
 21
5.6431321826
  0
LINE
  5
394
100
AcDbEntity
  8
03__ASM_ALL_CURVES
100
AcDbLine
 62
40
  6
CONTINUOUS
 10
6.0076850217
 20
5.6375646826
 11
5.6068250217
 21
5.7043746826
  0
LINE
  5
395
100
AcDbEntity
  8
0
100
AcDbLine
 62
7
  6
CONTINUOUS
 10
8.6937550217
 20
3.5593776826
 11
8.7067550217
 21
3.5493776826
  0
LINE
  5
396
100
AcDbEntity
  8
THREAD
100
AcDbLine
 62
7
  6
CONTINUOUS
 10
6.6252550217
 20
5.2058776826
 11
6.5277550217
 21
5.3033776826
  0
LINE
  5
397
100
AcDbEntity
  8
0
100
AcDbLine
 62
7
  6
CONTINUOUS
 10
6.7452550217
 20
5.1928776826
 11
6.7322550217
 21
5.2058776826
  0
LINE
  5
398
100
AcDbEntity
  8
03__ASM_ALL_CURVES
100
AcDbLine
 62
40
  6
CONTINUOUS
 10
6.2519590843
 20
5.751698433
 11
6.2310809593
 21
5.7795359326
  0
LINE
  5
399
100
AcDbEntity
  8
03__ASM_ALL_CURVES
100
AcDbLine
 62
40
  6
CONTINUOUS
 10
6.4189840843
 20
5.751698433
 11
6.3981059593
 21
5.7795359326
  0
LINE
  5
39A
100
AcDbEntity
  8
03__ASM_ALL_CURVES
100
AcDbLine
 62
40
  6
CONTINUOUS
 10
6.3145934593
 20
5.8908859359
 11
6.3354715843
 21
5.8630484326
  0
LINE
  5
39B
100
AcDbEntity
  8
03__ASM_ALL_CURVES
100
AcDbLine
 62
40
  6
CONTINUOUS
 10
7.7530843747
 20
2.9242433076
 11
7.7765722654
 21
2.8616089326
  0
LINE
  5
39C
100
AcDbEntity
  8
03__ASM_ALL_CURVES
100
AcDbLine
 62
40
  6
CONTINUOUS
 10
6.6173262718
 20
5.9048046826
 11
6.6695215843
 21
5.7377796826
  0
LINE
  5
39D
100
AcDbEntity
  8
03__ASM_ALL_CURVES
100
AcDbLine
 62
40
  6
CONTINUOUS
 10
7.4751442857
 20
2.7634817451
 11
7.4829735825
 21
2.7321645576
  0
LINE
  5
39E
100
AcDbEntity
  8
03__ASM_ALL_CURVES
100
AcDbLine
 62
40
  6
CONTINUOUS
 10
7.5808398435
 20
2.8929261201
 11
7.5730105466
 21
2.9242433076
  0
LINE
  5
39F
100
AcDbEntity
  8
0
100
AcDbLine
 62
7
  6
CONTINUOUS
 10
7.325325075
 20
4.27641887
 11
7.325325075
 21
4.4473177438
  0
LINE
  5
3A0
100
AcDbEntity
  8
03__ASM_ALL_CURVES
100
AcDbLine
 62
40
  6
CONTINUOUS
 10
7.3271825218
 20
5.8212921826
 11
7.3271825218
 21
5.7656171834
  0
LINE
  5
3A1
100
AcDbEntity
  8
0
100
AcDbLine
 62
7
  6
CONTINUOUS
 10
7.339225075
 20
4.2714682039
 11
7.339225075
 21
4.4523899789
  0
LINE
  5
3A2
100
AcDbEntity
  8
03__ASM_ALL_CURVES
100
AcDbLine
 62
40
  6
CONTINUOUS
 10
7.4634003904
 20
2.8616089326
 11
7.4634003904
 21
2.9868776826
  0
LINE
  5
3A3
100
AcDbEntity
  8
03__ASM_ALL_CURVES
100
AcDbLine
 62
40
  6
CONTINUOUS
 10
7.5260347654
 20
2.9659995551
 11
7.5260347654
 21
2.9451214351
  0
LINE
  5
3A4
100
AcDbEntity
  8
03__ASM_ALL_CURVES
100
AcDbLine
 62
40
  6
CONTINUOUS
 10
7.5299493638
 20
2.6904083082
 11
7.5299493638
 21
2.7947989326
  0
LINE
  5
3A5
100
AcDbEntity
  8
03__ASM_ALL_CURVES
100
AcDbLine
 62
40
  6
CONTINUOUS
 10
7.8908918968
 20
5.8212921826
 11
7.9013309593
 21
5.8630484326
  0
LINE
  5
3A6
100
AcDbEntity
  8
03__ASM_ALL_CURVES
100
AcDbLine
 62
40
  6
CONTINUOUS
 10
8.8304075218
 20
5.8491296859
 11
8.8199684593
 21
5.8352109293
  0
LINE
  5
3A7
100
AcDbEntity
  8
03__ASM_ALL_CURVES
100
AcDbLine
 62
40
  6
CONTINUOUS
 10
2.0706850217
 20
5.6876721826
 11
1.8702550217
 21
5.6709696826
  0
LINE
  5
3A8
100
AcDbEntity
  8
03__ASM_ALL_CURVES
100
AcDbLine
 62
40
  6
CONTINUOUS
 10
2.0706850217
 20
5.6821046826
 11
1.8702550217
 21
5.6709696826
  0
LINE
  5
3A9
100
AcDbEntity
  8
03__ASM_ALL_CURVES
100
AcDbLine
 62
40
  6
CONTINUOUS
 10
2.0706850217
 20
5.6765371826
 11
1.8702550217
 21
5.6709696826
  0
LINE
  5
3AA
100
AcDbEntity
  8
03__ASM_ALL_CURVES
100
AcDbLine
 62
40
  6
CONTINUOUS
 10
6.5860090843
 20
5.7934546843
 11
6.6486434593
 21
5.7934546843
  0
LINE
  5
3AB
100
AcDbEntity
  8
03__ASM_ALL_CURVES
100
AcDbLine
 62
40
  6
CONTINUOUS
 10
8.7990903343
 20
5.8212921826
 11
8.7468950218
 21
5.8212921826
  0
LINE
  5
3AC
100
AcDbEntity
  8
03__ASM_ALL_CURVES
100
AcDbLine
 62
40
  6
CONTINUOUS
 10
7.2854262718
 20
5.8212921826
 11
7.3271825218
 21
5.8212921826
  0
LINE
  5
3AD
100
AcDbEntity
  8
03__ASM_ALL_CURVES
100
AcDbLine
 62
40
  6
CONTINUOUS
 10
7.7447450218
 20
5.8212921826
 11
7.8282575218
 21
5.8212921826
  0
LINE
  5
3AE
100
AcDbEntity
  8
03__ASM_ALL_CURVES
100
AcDbLine
 62
40
  6
CONTINUOUS
 10
8.5798700218
 20
5.8212921826
 11
8.6320653343
 21
5.8212921826
  0
LINE
  5
3AF
100
AcDbEntity
  8
03__ASM_ALL_CURVES
100
AcDbLine
 62
40
  6
CONTINUOUS
 10
2.9931909592
 20
5.8352109293
 11
3.0140690842
 21
5.8352109293
  0
LINE
  5
3B0
100
AcDbEntity
  8
03__ASM_ALL_CURVES
100
AcDbLine
 62
40
  6
CONTINUOUS
 10
3.4942659592
 20
5.8352109293
 11
3.5151440842
 21
5.8352109293
  0
LINE
  5
3B1
100
AcDbEntity
  8
03__ASM_ALL_CURVES
100
AcDbLine
 62
40
  6
CONTINUOUS
 10
4.3293909592
 20
5.8352109293
 11
4.3502690842
 21
5.8352109293
  0
LINE
  5
3B2
100
AcDbEntity
  8
03__ASM_ALL_CURVES
100
AcDbLine
 62
40
  6
CONTINUOUS
 10
7.6299153343
 20
5.9048046826
 11
7.6090372093
 21
5.9048046826
  0
LINE
  5
3B3
100
AcDbEntity
  8
03__ASM_ALL_CURVES
100
AcDbLine
 62
40
  6
CONTINUOUS
 10
2.9931909592
 20
5.9048046826
 11
3.0140690842
 21
5.9048046826
  0
LINE
  5
3B4
100
AcDbEntity
  8
03__ASM_ALL_CURVES
100
AcDbLine
 62
40
  6
CONTINUOUS
 10
3.4942659592
 20
5.9048046826
 11
3.5151440842
 21
5.9048046826
  0
LINE
  5
3B5
100
AcDbEntity
  8
03__ASM_ALL_CURVES
100
AcDbLine
 62
40
  6
CONTINUOUS
 10
4.3293909592
 20
5.9048046826
 11
4.3502690842
 21
5.9048046826
  0
LINE
  5
3B6
100
AcDbEntity
  8
03__ASM_ALL_CURVES
100
AcDbLine
 62
40
  6
CONTINUOUS
 10
4.4964159592
 20
5.9048046826
 11
4.5172940842
 21
5.9048046826
  0
LINE
  5
3B7
100
AcDbEntity
  8
03__ASM_ALL_CURVES
100
AcDbLine
 62
40
  6
CONTINUOUS
 10
6.2728372093
 20
5.9048046826
 11
6.2937153343
 21
5.9048046826
  0
LINE
  5
3B8
100
AcDbEntity
  8
03__ASM_ALL_CURVES
100
AcDbLine
 62
40
  6
CONTINUOUS
 10
6.4398622093
 20
5.9048046826
 11
6.4607403343
 21
5.9048046826
  0
LINE
  5
3B9
100
AcDbEntity
  8
03__ASM_ALL_CURVES
100
AcDbLine
 62
40
  6
CONTINUOUS
 10
6.7321559593
 20
5.9048046826
 11
6.8365465843
 21
5.9048046826
  0
LINE
  5
3BA
100
AcDbEntity
  8
03__ASM_ALL_CURVES
100
AcDbLine
 62
40
  6
CONTINUOUS
 10
7.2749872093
 20
5.9048046826
 11
7.2958653343
 21
5.9048046826
  0
LINE
  5
3BB
100
AcDbEntity
  8
03__ASM_ALL_CURVES
100
AcDbLine
 62
40
  6
CONTINUOUS
 10
7.9430872093
 20
5.9048046826
 11
7.9639653343
 21
5.9048046826
  0
LINE
  5
3BC
100
AcDbEntity
  8
03__ASM_ALL_CURVES
100
AcDbLine
 62
40
  6
CONTINUOUS
 10
8.4128450218
 20
5.9048046826
 11
8.4546012718
 21
5.9048046826
  0
LINE
  5
3BD
100
AcDbEntity
  8
03__ASM_ALL_CURVES
100
AcDbLine
 62
40
  6
CONTINUOUS
 10
8.5798700218
 20
5.9048046826
 11
8.6633825218
 21
5.9048046826
  0
LINE
  5
3BE
100
AcDbEntity
  8
03__ASM_ALL_CURVES
100
AcDbLine
 62
40
  6
CONTINUOUS
 10
8.7468950218
 20
5.9048046826
 11
8.7990903343
 21
5.9048046826
  0
LINE
  5
3BF
100
AcDbEntity
  8
03__ASM_ALL_CURVES
100
AcDbLine
 62
40
  6
CONTINUOUS
 10
6.2728372093
 20
5.7377796826
 11
6.2519590843
 21
5.751698433
  0
LINE
  5
3C0
100
AcDbEntity
  8
03__ASM_ALL_CURVES
100
AcDbLine
 62
40
  6
CONTINUOUS
 10
6.4398622093
 20
5.7377796826
 11
6.4189840843
 21
5.751698433
  0
LINE
  5
3C1
100
AcDbEntity
  8
03__ASM_ALL_CURVES
100
AcDbLine
 62
40
  6
CONTINUOUS
 10
6.2937153343
 20
5.9048046826
 11
6.3145934593
 21
5.8908859359
  0
LINE
  5
3C2
100
AcDbEntity
  8
03__ASM_ALL_CURVES
100
AcDbLine
 62
40
  6
CONTINUOUS
 10
6.4607403343
 20
5.9048046826
 11
6.4816184593
 21
5.8908859359
  0
LINE
  5
3C3
100
AcDbEntity
  8
03__ASM_ALL_CURVES
100
AcDbLine
 62
40
  6
CONTINUOUS
 10
6.4816184593
 20
5.8908859359
 11
6.4920575218
 21
5.8769671793
  0
LINE
  5
3C4
100
AcDbEntity
  8
03__ASM_ALL_CURVES
100
AcDbLine
 62
40
  6
CONTINUOUS
 10
7.6591328122
 20
2.9555604951
 11
7.6669621091
 21
2.9242433076
  0
LINE
  5
3C5
100
AcDbEntity
  8
03__ASM_ALL_CURVES
100
AcDbLine
 62
40
  6
CONTINUOUS
 10
7.5777200218
 20
5.8769671793
 11
7.5777200218
 21
5.8630484326
  0
LINE
  5
3C6
100
AcDbEntity
  8
03__ASM_ALL_CURVES
100
AcDbLine
 62
40
  6
CONTINUOUS
 10
7.5925837388
 20
2.7947989326
 11
7.5925837388
 21
2.6904083082
  0
LINE
  5
3C7
100
AcDbEntity
  8
03__ASM_ALL_CURVES
100
AcDbLine
 62
40
  6
CONTINUOUS
 10
7.6612325218
 20
5.7934546843
 11
7.6612325218
 21
5.7656171834
  0
LINE
  5
3C8
100
AcDbEntity
  8
03__ASM_ALL_CURVES
100
AcDbLine
 62
40
  6
CONTINUOUS
 10
7.6865353013
 20
2.7947989326
 11
7.6865353013
 21
2.6695301826
  0
LINE
  5
3C9
100
AcDbEntity
  8
03__ASM_ALL_CURVES
100
AcDbLine
 62
40
  6
CONTINUOUS
 10
7.7139378904
 20
2.8616089326
 11
7.7139378904
 21
2.9868776826
  0
LINE
  5
3CA
100
AcDbEntity
  8
03__ASM_ALL_CURVES
100
AcDbLine
 62
40
  6
CONTINUOUS
 10
7.7447450218
 20
5.9048046826
 11
7.7447450218
 21
5.7377796826
  0
LINE
  5
3CB
100
AcDbEntity
  8
03__ASM_ALL_CURVES
100
AcDbLine
 62
40
  6
CONTINUOUS
 10
7.7765722654
 20
2.9659995551
 11
7.7765722654
 21
2.9451214351
  0
LINE
  5
3CC
100
AcDbEntity
  8
03__ASM_ALL_CURVES
100
AcDbLine
 62
40
  6
CONTINUOUS
 10
7.7804868638
 20
2.7947989326
 11
7.7804868638
 21
2.6695301826
  0
LINE
  5
3CD
100
AcDbEntity
  8
03__ASM_ALL_CURVES
100
AcDbLine
 62
40
  6
CONTINUOUS
 10
8.0161606468
 20
5.8212921826
 11
8.0057215843
 21
5.7795359326
  0
LINE
  5
3CE
100
AcDbEntity
  8
03__ASM_ALL_CURVES
100
AcDbLine
 62
40
  6
CONTINUOUS
 10
7.38902202
 20
2.7321645576
 11
7.3968513169
 21
2.7634817451
  0
LINE
  5
3CF
100
AcDbEntity
  8
03__ASM_ALL_CURVES
100
AcDbLine
 62
40
  6
CONTINUOUS
 10
7.4829735825
 20
2.7321645576
 11
7.4751442857
 21
2.7008473701
  0
LINE
  5
3D0
100
AcDbEntity
  8
03__ASM_ALL_CURVES
100
AcDbLine
 62
40
  6
CONTINUOUS
 10
9.247060098
 20
4.4683561176
 11
9.2314015043
 21
4.4579170576
  0
LINE
  5
3D1
100
AcDbEntity
  8
03__ASM_ALL_CURVES
100
AcDbLine
 62
40
  6
CONTINUOUS
 10
9.3253530668
 20
4.5101123726
 11
9.3410116605
 21
4.5205514326
  0
LINE
  5
3D2
100
AcDbEntity
  8
03__ASM_ALL_CURVES
100
AcDbLine
 62
40
  6
CONTINUOUS
 10
9.372328848
 20
4.4057217454
 11
9.3566702543
 21
4.3952826826
  0
LINE
  5
3D3
100
AcDbEntity
  8
03__ASM_ALL_CURVES
100
AcDbLine
 62
40
  6
CONTINUOUS
 10
9.497597598
 20
4.4683561176
 11
9.4819390043
 21
4.4579170576
  0
LINE
  5
3D4
100
AcDbEntity
  8
03__ASM_ALL_CURVES
100
AcDbLine
 62
40
  6
CONTINUOUS
 10
1.8702550217
 20
5.6709696826
 11
2.0706850217
 21
5.7043746826
  0
LINE
  5
3D5
100
AcDbEntity
  8
03__ASM_ALL_CURVES
100
AcDbLine
 62
40
  6
CONTINUOUS
 10
2.0706850217
 20
5.6988071826
 11
1.8702550217
 21
5.6709696826
  0
LINE
  5
3D6
100
AcDbEntity
  8
03__ASM_ALL_CURVES
100
AcDbLine
 62
40
  6
CONTINUOUS
 10
2.0706850217
 20
5.6932396826
 11
1.8702550217
 21
5.6709696826
  0
LINE
  5
3D7
100
AcDbEntity
  8
03__ASM_ALL_CURVES
100
AcDbLine
 62
40
  6
CONTINUOUS
 10
7.0766450218
 20
5.9048046826
 11
7.1601575218
 21
5.7377796826
  0
LINE
  5
3D8
100
AcDbEntity
  8
03__ASM_ALL_CURVES
100
AcDbLine
 62
40
  6
CONTINUOUS
 10
7.2332309593
 20
5.7795359326
 11
7.2227918968
 21
5.8212921826
  0
LINE
  5
3D9
100
AcDbEntity
  8
03__ASM_ALL_CURVES
100
AcDbLine
 62
40
  6
CONTINUOUS
 10
7.8282575218
 20
5.9048046826
 11
7.8282575218
 21
5.7377796826
  0
LINE
  5
3DA
100
AcDbEntity
  8
03__ASM_ALL_CURVES
100
AcDbLine
 62
40
  6
CONTINUOUS
 10
7.8705238279
 20
2.9868776826
 11
7.8705238279
 21
2.8616089326
  0
LINE
  5
3DB
100
AcDbEntity
  8
03__ASM_ALL_CURVES
100
AcDbLine
 62
40
  6
CONTINUOUS
 10
7.9057556138
 20
2.6695301826
 11
7.9057556138
 21
2.7947989326
  0
LINE
  5
3DC
100
AcDbEntity
  8
0
100
AcDbLine
 62
7
  6
CONTINUOUS
 10
7.907225075
 20
4.7775460861
 11
7.907225075
 21
4.5639375275
  0
LINE
  5
3DD
100
AcDbEntity
  8
0
100
AcDbLine
 62
7
  6
CONTINUOUS
 10
7.907225075
 20
3.9462107871
 11
7.907225075
 21
4.1598178474
  0
LINE
  5
3DE
100
AcDbEntity
  8
0
100
AcDbLine
 62
7
  6
CONTINUOUS
 10
7.923225075
 20
4.7786638813
 11
7.923225075
 21
4.5622944271
  0
LINE
  5
3DF
100
AcDbEntity
  8
0
100
AcDbLine
 62
7
  6
CONTINUOUS
 10
7.923225075
 20
3.945091724
 11
7.923225075
 21
4.1614609397
  0
LINE
  5
3E0
100
AcDbEntity
  8
0
100
AcDbLine
 62
7
  6
CONTINUOUS
 10
7.9533344798
 20
4.7769815746
 11
7.9533344798
 21
4.5647641483
  0
LINE
  5
3E1
100
AcDbEntity
  8
0
100
AcDbLine
 62
7
  6
CONTINUOUS
 10
7.9533344798
 20
4.1589912029
 11
7.9533344798
 21
3.9467716262
  0
LINE
  5
3E2
100
AcDbEntity
  8
03__ASM_ALL_CURVES
100
AcDbLine
 62
40
  6
CONTINUOUS
 10
8.0271097654
 20
2.9659995551
 11
8.0271097654
 21
2.9451214351
  0
LINE
  5
3E3
100
AcDbEntity
  8
03__ASM_ALL_CURVES
100
AcDbLine
 62
40
  6
CONTINUOUS
 10
8.0623415513
 20
2.7947989326
 11
8.0623415513
 21
2.6695301826
  0
LINE
  5
3E4
100
AcDbEntity
  8
03__ASM_ALL_CURVES
100
AcDbLine
 62
40
  6
CONTINUOUS
 10
8.0787950218
 20
5.7656171834
 11
8.0787950218
 21
5.9048046826
  0
LINE
  5
3E5
100
AcDbEntity
  8
03__ASM_ALL_CURVES
100
AcDbLine
 62
40
  6
CONTINUOUS
 10
7.5730105466
 20
2.9242433076
 11
7.5808398435
 21
2.9555604951
  0
LINE
  5
3E6
100
AcDbEntity
  8
03__ASM_ALL_CURVES
100
AcDbLine
 62
40
  6
CONTINUOUS
 10
7.6669621091
 20
2.9242433076
 11
7.6591328122
 21
2.8929261201
  0
LINE
  5
3E7
100
AcDbEntity
  8
03__ASM_ALL_CURVES
100
AcDbLine
 62
40
  6
CONTINUOUS
 10
8.5067965843
 20
5.8212921826
 11
8.4963575218
 21
5.7795359326
  0
LINE
  5
3E8
100
AcDbEntity
  8
03__ASM_ALL_CURVES
100
AcDbLine
 62
40
  6
CONTINUOUS
 10
7.5260347654
 20
2.9451214351
 11
7.5182054685
 21
2.9346823676
  0
LINE
  5
3E9
100
AcDbEntity
  8
03__ASM_ALL_CURVES
100
AcDbLine
 62
40
  6
CONTINUOUS
 10
7.3968513169
 20
2.7634817451
 11
7.4125099107
 21
2.7843598726
  0
LINE
  5
3EA
100
AcDbEntity
  8
03__ASM_ALL_CURVES
100
AcDbLine
 62
40
  6
CONTINUOUS
 10
7.5808398435
 20
2.9555604951
 11
7.5964984372
 21
2.9764386226
  0
LINE
  5
3EB
100
AcDbEntity
  8
03__ASM_ALL_CURVES
100
AcDbLine
 62
40
  6
CONTINUOUS
 10
7.4751442857
 20
2.7008473701
 11
7.4594856919
 21
2.6799692454
  0
LINE
  5
3EC
100
AcDbEntity
  8
03__ASM_ALL_CURVES
100
AcDbLine
 62
40
  6
CONTINUOUS
 10
7.5182054685
 20
2.9346823676
 11
7.5025468747
 21
2.9242433076
  0
LINE
  5
3ED
100
AcDbEntity
  8
03__ASM_ALL_CURVES
100
AcDbLine
 62
40
  6
CONTINUOUS
 10
7.5964984372
 20
2.9764386226
 11
7.612157031
 21
2.9868776826
  0
LINE
  5
3EE
100
AcDbEntity
  8
03__ASM_ALL_CURVES
100
AcDbLine
 62
40
  6
CONTINUOUS
 10
7.4125099107
 20
2.7843598726
 11
7.4281685044
 21
2.7947989326
  0
LINE
  5
3EF
100
AcDbEntity
  8
03__ASM_ALL_CURVES
100
AcDbLine
 62
40
  6
CONTINUOUS
 10
7.6434742185
 20
2.8720479954
 11
7.6278156247
 21
2.8616089326
  0
LINE
  5
3F0
100
AcDbEntity
  8
03__ASM_ALL_CURVES
100
AcDbLine
 62
40
  6
CONTINUOUS
 10
7.7687429685
 20
2.9346823676
 11
7.7530843747
 21
2.9242433076
  0
LINE
  5
3F1
100
AcDbEntity
  8
03__ASM_ALL_CURVES
100
AcDbLine
 62
40
  6
CONTINUOUS
 10
7.4594856919
 20
2.6799692454
 11
7.4438270982
 21
2.6695301826
  0
LINE
  5
3F2
100
AcDbEntity
  8
03__ASM_ALL_CURVES
100
AcDbLine
 62
40
  6
CONTINUOUS
 10
7.9723046872
 20
2.9764386226
 11
7.987963281
 21
2.9868776826
  0
LINE
  5
3F3
100
AcDbEntity
  8
03__ASM_ALL_CURVES
100
AcDbLine
 62
40
  6
CONTINUOUS
 10
7.2749872093
 20
5.7377796826
 11
7.2541090843
 21
5.751698433
  0
LINE
  5
3F4
100
AcDbEntity
  8
03__ASM_ALL_CURVES
100
AcDbLine
 62
40
  6
CONTINUOUS
 10
9.3410116605
 20
4.3952826826
 11
9.3253530668
 21
4.4057217454
  0
LINE
  5
3F5
100
AcDbEntity
  8
03__ASM_ALL_CURVES
100
AcDbLine
 62
40
  6
CONTINUOUS
 10
9.2314015043
 20
4.5205514326
 11
9.247060098
 21
4.5101123726
  0
LINE
  5
3F6
100
AcDbEntity
  8
03__ASM_ALL_CURVES
100
AcDbLine
 62
40
  6
CONTINUOUS
 10
9.3566702543
 20
4.5205514326
 11
9.372328848
 21
4.5101123726
  0
LINE
  5
3F7
100
AcDbEntity
  8
03__ASM_ALL_CURVES
100
AcDbLine
 62
40
  6
CONTINUOUS
 10
7.2958653343
 20
5.9048046826
 11
7.3167434593
 21
5.8908859359
  0
LINE
  5
3F8
100
AcDbEntity
  8
03__ASM_ALL_CURVES
100
AcDbLine
 62
40
  6
CONTINUOUS
 10
7.6090372093
 20
5.7377796826
 11
7.5881590843
 21
5.751698433
  0
LINE
  5
3F9
100
AcDbEntity
  8
03__ASM_ALL_CURVES
100
AcDbLine
 62
40
  6
CONTINUOUS
 10
9.4819390043
 20
4.5205514326
 11
9.497597598
 21
4.5101123726
  0
LINE
  5
3FA
100
AcDbEntity
  8
03__ASM_ALL_CURVES
100
AcDbLine
 62
40
  6
CONTINUOUS
 10
7.5881590843
 20
5.8491296859
 11
7.6507934593
 21
5.8073734309
  0
LINE
  5
3FB
100
AcDbEntity
  8
03__ASM_ALL_CURVES
100
AcDbLine
 62
40
  6
CONTINUOUS
 10
7.2541090843
 20
5.751698433
 11
7.2332309593
 21
5.7795359326
  0
LINE
  5
3FC
100
AcDbEntity
  8
03__ASM_ALL_CURVES
100
AcDbLine
 62
40
  6
CONTINUOUS
 10
7.3167434593
 20
5.8908859359
 11
7.3271825218
 21
5.8769671793
  0
LINE
  5
3FD
100
AcDbEntity
  8
03__ASM_ALL_CURVES
100
AcDbLine
 62
40
  6
CONTINUOUS
 10
8.1623075218
 20
5.9048046826
 11
8.1623075218
 21
5.7656171834
  0
LINE
  5
3FE
100
AcDbEntity
  8
03__ASM_ALL_CURVES
100
AcDbLine
 62
40
  6
CONTINUOUS
 10
8.2458200218
 20
5.9048046826
 11
8.2458200218
 21
5.7377796826
  0
LINE
  5
3FF
100
AcDbEntity
  8
03__ASM_ALL_CURVES
100
AcDbLine
 62
40
  6
CONTINUOUS
 10
7.9723046872
 20
2.8929261201
 11
7.9644753904
 21
2.8616089326
  0
LINE
  5
400
100
AcDbEntity
  8
03__ASM_ALL_CURVES
100
AcDbLine
 62
40
  6
CONTINUOUS
 10
7.6591328122
 20
2.8929261201
 11
7.6434742185
 21
2.8720479954
  0
LINE
  5
401
100
AcDbEntity
  8
03__ASM_ALL_CURVES
100
AcDbLine
 62
40
  6
CONTINUOUS
 10
7.7765722654
 20
2.9451214351
 11
7.7687429685
 21
2.9346823676
  0
LINE
  5
402
100
AcDbEntity
  8
03__ASM_ALL_CURVES
100
AcDbLine
 62
40
  6
CONTINUOUS
 10
7.5925837388
 20
2.6904083082
 11
7.5847544419
 21
2.6799692454
  0
LINE
  5
403
100
AcDbEntity
  8
03__ASM_ALL_CURVES
100
AcDbLine
 62
40
  6
CONTINUOUS
 10
7.9644753904
 20
2.9659995551
 11
7.9723046872
 21
2.9764386226
  0
LINE
  5
404
100
AcDbEntity
  8
03__ASM_ALL_CURVES
100
AcDbLine
 62
40
  6
CONTINUOUS
 10
7.987963281
 20
2.9138042439
 11
7.9723046872
 21
2.8929261201
  0
LINE
  5
405
100
AcDbEntity
  8
03__ASM_ALL_CURVES
100
AcDbLine
 62
40
  6
CONTINUOUS
 10
8.0271097654
 20
2.9451214351
 11
8.0192804685
 21
2.9346823676
  0
LINE
  5
406
100
AcDbEntity
  8
0
100
AcDbLine
 62
7
  6
CONTINUOUS
 10
8.7877550217
 20
3.5493776826
 11
8.7932550217
 21
3.5536084518
  0
LINE
  5
407
100
AcDbEntity
  8
03__ASM_ALL_CURVES
100
AcDbLine
 62
40
  6
CONTINUOUS
 10
7.5847544419
 20
2.6799692454
 11
7.5690958482
 21
2.6695301826
  0
LINE
  5
408
100
AcDbEntity
  8
03__ASM_ALL_CURVES
100
AcDbLine
 62
40
  6
CONTINUOUS
 10
8.0192804685
 20
2.9346823676
 11
7.987963281
 21
2.9138042439
  0
LINE
  5
409
100
AcDbEntity
  8
03__ASM_ALL_CURVES
100
AcDbLine
 62
40
  6
CONTINUOUS
 10
7.6507934593
 20
5.8908859359
 11
7.6299153343
 21
5.9048046826
  0
LINE
  5
40A
100
AcDbEntity
  8
03__ASM_ALL_CURVES
100
AcDbLine
 62
40
  6
CONTINUOUS
 10
7.9430872093
 20
5.7377796826
 11
7.9222090843
 21
5.751698433
  0
LINE
  5
40B
100
AcDbEntity
  8
03__ASM_ALL_CURVES
100
AcDbLine
 62
40
  6
CONTINUOUS
 10
8.1101122093
 20
5.7377796826
 11
8.0892340843
 21
5.751698433
  0
LINE
  5
40C
100
AcDbEntity
  8
03__ASM_ALL_CURVES
100
AcDbLine
 62
40
  6
CONTINUOUS
 10
7.9639653343
 20
5.9048046826
 11
7.9848434593
 21
5.8908859359
  0
LINE
  5
40D
100
AcDbEntity
  8
0
100
AcDbLine
 62
7
  6
CONTINUOUS
 10
8.7877550217
 20
5.1743776826
 11
8.7932550217
 21
5.1701469134
  0
LINE
  5
40E
100
AcDbEntity
  8
03__ASM_ALL_CURVES
100
AcDbLine
 62
40
  6
CONTINUOUS
 10
7.5881590843
 20
5.751698433
 11
7.5672809593
 21
5.7795359326
  0
LINE
  5
40F
100
AcDbEntity
  8
03__ASM_ALL_CURVES
100
AcDbLine
 62
40
  6
CONTINUOUS
 10
7.5777200218
 20
5.8630484326
 11
7.5881590843
 21
5.8491296859
  0
LINE
  5
410
100
AcDbEntity
  8
03__ASM_ALL_CURVES
100
AcDbLine
 62
40
  6
CONTINUOUS
 10
7.6507934593
 20
5.8073734309
 11
7.6612325218
 21
5.7934546843
  0
LINE
  5
411
100
AcDbEntity
  8
03__ASM_ALL_CURVES
100
AcDbLine
 62
40
  6
CONTINUOUS
 10
7.6612325218
 20
5.8769671793
 11
7.6507934593
 21
5.8908859359
  0
LINE
  5
412
100
AcDbEntity
  8
03__ASM_ALL_CURVES
100
AcDbLine
 62
40
  6
CONTINUOUS
 10
7.9222090843
 20
5.751698433
 11
7.9013309593
 21
5.7795359326
  0
LINE
  5
413
100
AcDbEntity
  8
03__ASM_ALL_CURVES
100
AcDbLine
 62
40
  6
CONTINUOUS
 10
7.9013309593
 20
5.7795359326
 11
7.8908918968
 21
5.8212921826
  0
LINE
  5
414
100
AcDbEntity
  8
03__ASM_ALL_CURVES
100
AcDbLine
 62
40
  6
CONTINUOUS
 10
8.0057215843
 20
5.8630484326
 11
8.0161606468
 21
5.8212921826
  0
LINE
  5
415
100
AcDbEntity
  8
03__ASM_ALL_CURVES
100
AcDbLine
 62
40
  6
CONTINUOUS
 10
8.4128450218
 20
5.7377796826
 11
8.4128450218
 21
5.9048046826
  0
LINE
  5
416
100
AcDbEntity
  8
0
100
AcDbLine
 62
7
  6
CONTINUOUS
 10
8.5512550217
 20
3.5513842846
 11
8.5512550217
 21
5.1723710806
  0
LINE
  5
417
100
AcDbEntity
  8
03__ASM_ALL_CURVES
100
AcDbLine
 62
40
  6
CONTINUOUS
 10
8.5798700218
 20
5.7377796826
 11
8.5798700218
 21
5.9048046826
  0
LINE
  5
418
100
AcDbEntity
  8
03__ASM_ALL_CURVES
100
AcDbLine
 62
40
  6
CONTINUOUS
 10
9.2548893949
 20
4.4787951851
 11
9.247060098
 21
4.4683561176
  0
LINE
  5
419
100
AcDbEntity
  8
03__ASM_ALL_CURVES
100
AcDbLine
 62
40
  6
CONTINUOUS
 10
9.309694473
 20
4.4892342451
 11
9.3253530668
 21
4.5101123726
  0
LINE
  5
41A
100
AcDbEntity
  8
03__ASM_ALL_CURVES
100
AcDbLine
 62
40
  6
CONTINUOUS
 10
9.3879874418
 20
4.4265998701
 11
9.372328848
 21
4.4057217454
  0
LINE
  5
41B
100
AcDbEntity
  8
03__ASM_ALL_CURVES
100
AcDbLine
 62
40
  6
CONTINUOUS
 10
9.5054268949
 20
4.4787951851
 11
9.497597598
 21
4.4683561176
  0
LINE
  5
41C
100
AcDbEntity
  8
0
100
AcDbLine
 62
7
  6
CONTINUOUS
 10
8.9242550217
 20
3.5823776826
 11
8.8932550217
 21
3.5513776826
  0
LINE
  5
41D
100
AcDbEntity
  8
03__ASM_ALL_CURVES
100
AcDbLine
 62
40
  6
CONTINUOUS
 10
8.4546012718
 20
5.9048046826
 11
8.4754793968
 21
5.8908859359
  0
LINE
  5
41E
100
AcDbEntity
  8
0
100
AcDbLine
 62
7
  6
CONTINUOUS
 10
8.9242550217
 20
5.1413776826
 11
8.8932550217
 21
5.1723776826
  0
LINE
  5
41F
100
AcDbEntity
  8
03__ASM_ALL_CURVES
100
AcDbLine
 62
40
  6
CONTINUOUS
 10
7.9848434593
 20
5.8908859359
 11
8.0057215843
 21
5.8630484326
  0
LINE
  5
420
100
AcDbEntity
  8
03__ASM_ALL_CURVES
100
AcDbLine
 62
40
  6
CONTINUOUS
 10
8.0892340843
 20
5.751698433
 11
8.0787950218
 21
5.7656171834
  0
LINE
  5
421
100
AcDbEntity
  8
0
100
AcDbLine
 62
7
  6
CONTINUOUS
 10
8.6792550217
 20
3.5513842846
 11
8.6792550217
 21
5.1723710806
  0
LINE
  5
422
100
AcDbEntity
  8
0
100
AcDbLine
 62
7
  6
CONTINUOUS
 10
8.6937550217
 20
3.5593789027
 11
8.6937550217
 21
5.1643764625
  0
LINE
  5
423
100
AcDbEntity
  8
0
100
AcDbLine
 62
7
  6
CONTINUOUS
 10
8.7067550217
 20
3.5493776826
 11
8.7067550217
 21
5.1743776826
  0
LINE
  5
424
100
AcDbEntity
  8
03__ASM_ALL_CURVES
100
AcDbLine
 62
40
  6
CONTINUOUS
 10
8.7468950218
 20
5.7377796826
 11
8.7468950218
 21
5.9048046826
  0
LINE
  5
425
100
AcDbEntity
  8
0
100
AcDbLine
 62
7
  6
CONTINUOUS
 10
8.7877550217
 20
3.5493776826
 11
8.7877550217
 21
5.1743776826
  0
LINE
  5
426
100
AcDbEntity
  8
0
100
AcDbLine
 62
7
  6
CONTINUOUS
 10
8.7932550217
 20
3.5513842846
 11
8.7932550217
 21
5.1723710806
  0
LINE
  5
427
100
AcDbEntity
  8
03__ASM_ALL_CURVES
100
AcDbLine
 62
40
  6
CONTINUOUS
 10
8.8304075218
 20
5.8769671793
 11
8.8304075218
 21
5.8491296859
  0
LINE
  5
428
100
AcDbEntity
  8
0
100
AcDbLine
 62
7
  6
CONTINUOUS
 10
8.8932550217
 20
3.5513776826
 11
8.8932550217
 21
5.1723776826
  0
LINE
  5
429
100
AcDbEntity
  8
0
100
AcDbLine
 62
7
  6
CONTINUOUS
 10
8.9242550217
 20
3.5823868161
 11
8.9242550217
 21
5.141368549
  0
LINE
  5
42A
100
AcDbEntity
  8
03__ASM_ALL_CURVES
100
AcDbLine
 62
40
  6
CONTINUOUS
 10
8.7990903343
 20
5.9048046826
 11
8.8199684593
 21
5.8908859359
  0
LINE
  5
42B
100
AcDbEntity
  8
03__ASM_ALL_CURVES
100
AcDbLine
 62
40
  6
CONTINUOUS
 10
9.3253530668
 20
4.4057217454
 11
9.309694473
 21
4.4265998701
  0
LINE
  5
42C
100
AcDbEntity
  8
03__ASM_ALL_CURVES
100
AcDbLine
 62
40
  6
CONTINUOUS
 10
9.247060098
 20
4.5101123726
 11
9.2548893949
 21
4.4996733051
  0
LINE
  5
42D
100
AcDbEntity
  8
03__ASM_ALL_CURVES
100
AcDbLine
 62
40
  6
CONTINUOUS
 10
9.372328848
 20
4.5101123726
 11
9.3879874418
 21
4.4892342451
  0
LINE
  5
42E
100
AcDbEntity
  8
03__ASM_ALL_CURVES
100
AcDbLine
 62
40
  6
CONTINUOUS
 10
9.497597598
 20
4.5101123726
 11
9.5054268949
 21
4.4996733051
  0
LINE
  5
42F
100
AcDbEntity
  8
03__ASM_ALL_CURVES
100
AcDbLine
 62
40
  6
CONTINUOUS
 10
8.4754793968
 20
5.8908859359
 11
8.4963575218
 21
5.8630484326
  0
LINE
  5
430
100
AcDbEntity
  8
03__ASM_ALL_CURVES
100
AcDbLine
 62
40
  6
CONTINUOUS
 10
9.2862065805
 20
4.3284726826
 11
9.3488409555
 21
4.2032039326
  0
LINE
  5
431
100
AcDbEntity
  8
03__ASM_ALL_CURVES
100
AcDbLine
 62
40
  6
CONTINUOUS
 10
8.4963575218
 20
5.8630484326
 11
8.5067965843
 21
5.8212921826
  0
LINE
  5
432
100
AcDbEntity
  8
03__ASM_ALL_CURVES
100
AcDbLine
 62
40
  6
CONTINUOUS
 10
9.192255018
 20
4.3284726826
 11
9.192255018
 21
4.2032039326
  0
LINE
  5
433
100
AcDbEntity
  8
03__ASM_ALL_CURVES
100
AcDbLine
 62
40
  6
CONTINUOUS
 10
9.1922550199
 20
4.3952826826
 11
9.1922550199
 21
4.5205514326
  0
LINE
  5
434
100
AcDbEntity
  8
03__ASM_ALL_CURVES
100
AcDbLine
 62
40
  6
CONTINUOUS
 10
9.3018651761
 20
4.4579170576
 11
9.309694473
 21
4.4892342451
  0
LINE
  5
435
100
AcDbEntity
  8
03__ASM_ALL_CURVES
100
AcDbLine
 62
40
  6
CONTINUOUS
 10
8.8199684593
 20
5.8908859359
 11
8.8304075218
 21
5.8769671793
  0
LINE
  5
436
100
AcDbEntity
  8
03__ASM_ALL_CURVES
100
AcDbLine
 62
40
  6
CONTINUOUS
 10
8.7990903343
 20
5.8212921826
 11
8.8304075218
 21
5.7377796826
  0
LINE
  5
437
100
AcDbEntity
  8
03__ASM_ALL_CURVES
100
AcDbLine
 62
40
  6
CONTINUOUS
 10
9.309694473
 20
4.4265998701
 11
9.3018651761
 21
4.4579170576
  0
LINE
  5
438
100
AcDbEntity
  8
03__ASM_ALL_CURVES
100
AcDbLine
 62
40
  6
CONTINUOUS
 10
9.2548893949
 20
4.4996733051
 11
9.2548893949
 21
4.4787951851
  0
LINE
  5
439
100
AcDbEntity
  8
03__ASM_ALL_CURVES
100
AcDbLine
 62
40
  6
CONTINUOUS
 10
9.2862065805
 20
4.2032039326
 11
9.2862065805
 21
4.3284726826
  0
LINE
  5
43A
100
AcDbEntity
  8
03__ASM_ALL_CURVES
100
AcDbLine
 62
40
  6
CONTINUOUS
 10
9.3488409555
 20
4.2032039326
 11
9.3488409555
 21
4.3284726826
  0
LINE
  5
43B
100
AcDbEntity
  8
03__ASM_ALL_CURVES
100
AcDbLine
 62
40
  6
CONTINUOUS
 10
9.4114753305
 20
4.3284726826
 11
9.4114753305
 21
4.2032039326
  0
LINE
  5
43C
100
AcDbEntity
  8
03__ASM_ALL_CURVES
100
AcDbLine
 62
40
  6
CONTINUOUS
 10
9.4427925199
 20
4.3952826826
 11
9.4427925199
 21
4.5205514326
  0
LINE
  5
43D
100
AcDbEntity
  8
03__ASM_ALL_CURVES
100
AcDbLine
 62
40
  6
CONTINUOUS
 10
9.5054268949
 20
4.4996733051
 11
9.5054268949
 21
4.4787951851
  0
LINE
  5
43E
100
AcDbEntity
  8
03__ASM_ALL_CURVES
100
AcDbLine
 62
40
  6
CONTINUOUS
 10
9.3958167386
 20
4.4579170576
 11
9.3879874418
 21
4.4265998701
  0
LINE
  5
43F
100
AcDbEntity
  8
03__ASM_ALL_CURVES
100
AcDbLine
 62
40
  6
CONTINUOUS
 10
9.4819390043
 20
4.4579170576
 11
9.5054268949
 21
4.3952826826
  0
LINE
  5
440
100
AcDbEntity
  8
03__ASM_ALL_CURVES
100
AcDbLine
 62
40
  6
CONTINUOUS
 10
9.3879874418
 20
4.4892342451
 11
9.3958167386
 21
4.4579170576
  0
LINE
  5
441
100
AcDbEntity
  8
03__ASM_ALL_CURVES
100
AcDbLine
 62
40
  6
CONTINUOUS
 10
9.5367440805
 20
4.2032039326
 11
9.5367440805
 21
4.3284726826
  0
LINE
  5
442
100
AcDbEntity
  8
03__ASM_ALL_CURVES
100
AcDbLine
 62
40
  6
CONTINUOUS
 10
9.5993784574
 20
4.5205514326
 11
9.5993784574
 21
4.3952826826
  0
LINE
  5
443
100
AcDbEntity
  8
03__ASM_ALL_CURVES
100
AcDbLine
 62
40
  6
CONTINUOUS
 10
9.693330018
 20
4.3284726826
 11
9.693330018
 21
4.2032039326
  0
LINE
  5
444
100
AcDbEntity
  8
03__ASM_ALL_CURVES
100
AcDbLine
 62
40
  6
CONTINUOUS
 10
9.7246472074
 20
4.5205514326
 11
9.7246472074
 21
4.3952826826
  0
ARC
  5
445
100
AcDbEntity
  8
0
100
AcDbCircle
 62
7
  6
CONTINUOUS
 10
2.4322550217
 20
4.5388776826
 40
0.094
100
AcDbArc
 50
90.0
 51
131.267427381
  0
ARC
  5
446
100
AcDbEntity
  8
0
100
AcDbCircle
 62
7
  6
CONTINUOUS
 10
2.4322550217
 20
4.1848776826
 40
0.094
100
AcDbArc
 50
228.732572619
 51
270.0
  0
CIRCLE
  5
447
100
AcDbEntity
  8
0
100
AcDbCircle
 62
7
  6
CONTINUOUS
 10
7.3632550217
 20
4.3618776826
 40
0.094
  0
ARC
  5
448
100
AcDbEntity
  8
0
100
AcDbCircle
 62
7
  6
CONTINUOUS
 10
6.0006189924
 20
3.4678776826
 40
0.028
100
AcDbArc
 50
9.2483576507
 51
76.1357473529
  0
ARC
  5
449
100
AcDbEntity
  8
0
100
AcDbCircle
 62
7
  6
CONTINUOUS
 10
6.0006189924
 20
5.2558776826
 40
0.028
100
AcDbArc
 50
283.8642526471
 51
350.7516423493
  0
ARC
  5
44A
100
AcDbEntity
  8
0
100
AcDbCircle
 62
7
  6
CONTINUOUS
 10
2.1192550217
 20
4.2003776826
 40
0.0175
100
AcDbArc
 50
180.0
 51
360.0
  0
SPLINE
  5
44B
100
AcDbEntity
  8
0
100
AcDbSpline
 62
7
  6
CONTINUOUS
 70
0
 71
3
 72
20
 73
16
 74
14
 42
0.0000001
 43
0.0000001
 44
0.0000000001
 12
0.0
 22
0.0416605862
 32
0.0
 13
0.0
 23
-0.0416605862
 33
0.0
 40
0.0
 40
0.0
 40
0.0
 40
0.0
 40
0.0489307848
 40
0.1062135912
 40
0.175871992
 40
0.2580136346
 40
0.3503828832
 40
0.4493672053
 40
0.5506327947
 40
0.6496171168
 40
0.7419863654
 40
0.824128008
 40
0.8937864088
 40
0.9510692152
 40
1.0
 40
1.0
 40
1.0
 40
1.0
 10
2.1367550217
 20
4.4380012514
 30
0.0
 10
2.1367550217
 20
4.4386807465
 30
0.0
 10
2.1363334878
 20
4.4401667575
 30
0.0
 10
2.13469822
 20
4.4420451848
 30
0.0
 10
2.1322462995
 20
4.4436441851
 30
0.0
 10
2.1290870671
 20
4.4449189362
 30
0.0
 10
2.1253839734
 20
4.445810924
 30
0.0
 10
2.1213370645
 20
4.4462701617
 30
0.0
 10
2.1171729789
 20
4.4462701617
 30
0.0
 10
2.11312607
 20
4.445810924
 30
0.0
 10
2.1094229763
 20
4.4449189362
 30
0.0
 10
2.1062637439
 20
4.4436441851
 30
0.0
 10
2.1038118234
 20
4.4420451848
 30
0.0
 10
2.1021765557
 20
4.4401667575
 30
0.0
 10
2.1017550217
 20
4.4386807465
 30
0.0
 10
2.1017550217
 20
4.4380012514
 30
0.0
 11
2.1367550217
 21
4.4380012514
 31
0.0
 11
2.1362465035
 21
4.4399752907
 31
0.0
 11
2.1347505022
 21
4.441834606
 31
0.0
 11
2.1323539598
 21
4.4434711406
 31
0.0
 11
2.1291961548
 21
4.4447897852
 31
0.0
 11
2.1254606072
 21
4.4457139049
 31
0.0
 11
2.1213644136
 21
4.4461897932
 31
0.0
 11
2.1171456298
 21
4.4461897932
 31
0.0
 11
2.1130494362
 21
4.4457139049
 31
0.0
 11
2.1093138886
 21
4.4447897852
 31
0.0
 11
2.1061560836
 21
4.4434711406
 31
0.0
 11
2.1037595413
 21
4.441834606
 31
0.0
 11
2.1022635399
 21
4.4399752907
 31
0.0
 11
2.1017550217
 21
4.4380012514
 31
0.0
  0
SPLINE
  5
44C
100
AcDbEntity
  8
0
100
AcDbSpline
 62
7
  6
CONTINUOUS
 70
0
 71
3
 72
16
 73
12
 74
10
 42
0.0000001
 43
0.0000001
 44
0.0000000001
 12
0.0906480335
 22
0.2719441006
 32
0.0
 13
-0.0906480335
 23
0.2719441006
 33
0.0
 40
0.0
 40
0.0
 40
0.0
 40
0.0
 40
0.1184548733
 40
0.230565332
 40
0.3393089466
 40
0.4465959239
 40
0.5535015371
 40
0.6607803311
 40
0.769505023
 40
0.8815660643
 40
1.0
 40
1.0
 40
1.0
 40
1.0
 10
2.6203836113
 20
4.0808776826
 30
0.0
 10
2.6239628451
 20
4.0916153839
 30
0.0
 10
2.6303939317
 20
4.1127014308
 30
0.0
 10
2.6379133614
 20
4.1442624856
 30
0.0
 10
2.6430015889
 20
4.1752313037
 30
0.0
 10
2.6455884511
 20
4.2060143733
 30
0.0
 10
2.6455872628
 20
4.2367681743
 30
0.0
 10
2.6429984222
 20
4.2675484657
 30
0.0
 10
2.6379096874
 20
4.2985097675
 30
0.0
 10
2.6303914306
 20
4.3300622991
 30
0.0
 10
2.6239622125
 20
4.3511418792
 30
0.0
 10
2.6203836113
 20
4.3618776826
 30
0.0
 11
2.6203836113
 21
4.0808776826
 31
0.0
 11
2.6302220809
 21
4.1133767105
 31
0.0
 11
2.6376092514
 21
4.1446531009
 31
0.0
 11
2.6426138688
 21
4.1754205534
 31
0.0
 11
2.6451608341
 21
4.2060691746
 31
0.0
 11
2.6451596639
 21
4.2367141231
 31
0.0
 11
2.6426107239
 21
4.2673602262
 31
0.0
 11
2.6376052848
 21
4.2981220494
 31
0.0
 11
2.6302205134
 21
4.329384451
 31
0.0
 11
2.6203836113
 21
4.3618776826
 31
0.0
  0
SPLINE
  5
44D
100
AcDbEntity
  8
0
100
AcDbSpline
 62
7
  6
CONTINUOUS
 70
0
 71
3
 72
17
 73
13
 74
11
 42
0.0000001
 43
0.0000001
 44
0.0000000001
 12
-0.1487434696
 22
0.2576312467
 32
0.0
 13
0.1487434696
 23
0.2576312467
 33
0.0
 40
0.0
 40
0.0
 40
0.0
 40
0.0
 40
0.1169386465
 40
0.2216811606
 40
0.3184580982
 40
0.4103908543
 40
0.5000417254
 40
0.5896883004
 40
0.6816074548
 40
0.7783545182
 40
0.8830694657
 40
1.0
 40
1.0
 40
1.0
 40
1.0
 10
2.518725873
 20
4.0808776826
 30
0.0
 10
2.5129279197
 20
4.0909200324
 30
0.0
 10
2.502588092
 20
4.1103498798
 30
0.0
 10
2.4902144686
 20
4.1394519574
 30
0.0
 10
2.4815610219
 20
4.1672935201
 30
0.0
 10
2.4764039173
 20
4.1944768397
 30
0.0
 10
2.474687037
 20
4.2213897246
 30
0.0
 10
2.4764069226
 20
4.2483010494
 30
0.0
 10
2.4815656742
 20
4.27547919
 30
0.0
 10
2.4902185261
 20
4.303313496
 30
0.0
 10
2.5025901135
 20
4.3324093357
 30
0.0
 10
2.5129283219
 20
4.3518360295
 30
0.0
 10
2.518725873
 20
4.3618776826
 30
0.0
 11
2.518725873
 21
4.0808776826
 31
0.0
 11
2.5024996416
 21
4.1116493396
 31
0.0
 11
2.4904148851
 21
4.1403699762
 31
0.0
 11
2.4819622118
 21
4.1678910448
 31
0.0
 11
2.4769293264
 21
4.19477276
 31
0.0
 11
2.4752550221
 21
4.2213901161
 31
0.0
 11
2.4769322644
 21
4.2480060066
 31
0.0
 11
2.481966911
 21
4.2748832753
 31
0.0
 11
2.4904185261
 21
4.3023953719
 31
0.0
 11
2.5025006773
 21
4.3311082076
 31
0.0
 11
2.518725873
 21
4.3618776826
 31
0.0
  0
SPLINE
  5
44E
100
AcDbEntity
  8
0
100
AcDbSpline
 62
7
  6
CONTINUOUS
 70
0
 71
3
 72
16
 73
12
 74
10
 42
0.0000001
 43
0.0000001
 44
0.0000000001
 12
0.0906480335
 22
0.2719441006
 32
0.0
 13
-0.0906480335
 23
0.2719441006
 33
0.0
 40
0.0
 40
0.0
 40
0.0
 40
0.0
 40
0.1184548733
 40
0.230565332
 40
0.3393089466
 40
0.4465959239
 40
0.5535015371
 40
0.6607803311
 40
0.769505023
 40
0.8815660643
 40
1.0
 40
1.0
 40
1.0
 40
1.0
 10
2.6203836113
 20
4.3618776826
 30
0.0
 10
2.6239628451
 20
4.3726153839
 30
0.0
 10
2.6303939317
 20
4.3937014308
 30
0.0
 10
2.6379133614
 20
4.4252624856
 30
0.0
 10
2.6430015889
 20
4.4562313037
 30
0.0
 10
2.6455884511
 20
4.4870143733
 30
0.0
 10
2.6455872628
 20
4.5177681743
 30
0.0
 10
2.6429984222
 20
4.5485484657
 30
0.0
 10
2.6379096874
 20
4.5795097675
 30
0.0
 10
2.6303914306
 20
4.6110622991
 30
0.0
 10
2.6239622125
 20
4.6321418792
 30
0.0
 10
2.6203836113
 20
4.6428776826
 30
0.0
 11
2.6203836113
 21
4.3618776826
 31
0.0
 11
2.6302220809
 21
4.3943767105
 31
0.0
 11
2.6376092514
 21
4.4256531009
 31
0.0
 11
2.6426138688
 21
4.4564205534
 31
0.0
 11
2.6451608341
 21
4.4870691746
 31
0.0
 11
2.6451596639
 21
4.5177141231
 31
0.0
 11
2.6426107239
 21
4.5483602262
 31
0.0
 11
2.6376052848
 21
4.5791220494
 31
0.0
 11
2.6302205134
 21
4.610384451
 31
0.0
 11
2.6203836113
 21
4.6428776826
 31
0.0
  0
SPLINE
  5
44F
100
AcDbEntity
  8
0
100
AcDbSpline
 62
7
  6
CONTINUOUS
 70
0
 71
3
 72
17
 73
13
 74
11
 42
0.0000001
 43
0.0000001
 44
0.0000000001
 12
-0.1487434696
 22
0.2576312467
 32
0.0
 13
0.1487434696
 23
0.2576312467
 33
0.0
 40
0.0
 40
0.0
 40
0.0
 40
0.0
 40
0.1169386465
 40
0.2216811606
 40
0.3184580982
 40
0.4103908543
 40
0.5000417254
 40
0.5896883004
 40
0.6816074548
 40
0.7783545182
 40
0.8830694657
 40
1.0
 40
1.0
 40
1.0
 40
1.0
 10
2.518725873
 20
4.3618776826
 30
0.0
 10
2.5129279197
 20
4.3719200324
 30
0.0
 10
2.502588092
 20
4.3913498798
 30
0.0
 10
2.4902144686
 20
4.4204519574
 30
0.0
 10
2.4815610219
 20
4.4482935201
 30
0.0
 10
2.4764039173
 20
4.4754768397
 30
0.0
 10
2.474687037
 20
4.5023897246
 30
0.0
 10
2.4764069226
 20
4.5293010494
 30
0.0
 10
2.4815656742
 20
4.55647919
 30
0.0
 10
2.4902185261
 20
4.584313496
 30
0.0
 10
2.5025901135
 20
4.6134093357
 30
0.0
 10
2.5129283219
 20
4.6328360295
 30
0.0
 10
2.518725873
 20
4.6428776826
 30
0.0
 11
2.518725873
 21
4.3618776826
 31
0.0
 11
2.5024996416
 21
4.3926493396
 31
0.0
 11
2.4904148851
 21
4.4213699762
 31
0.0
 11
2.4819622118
 21
4.4488910448
 31
0.0
 11
2.4769293264
 21
4.47577276
 31
0.0
 11
2.4752550221
 21
4.5023901161
 31
0.0
 11
2.4769322644
 21
4.5290060066
 31
0.0
 11
2.481966911
 21
4.5558832753
 31
0.0
 11
2.4904185261
 21
4.5833953719
 31
0.0
 11
2.5025006773
 21
4.6121082076
 31
0.0
 11
2.518725873
 21
4.6428776826
 31
0.0
  0
SPLINE
  5
450
100
AcDbEntity
  8
0
100
AcDbSpline
 62
7
  6
CONTINUOUS
 70
0
 71
3
 72
9
 73
5
 74
3
 42
0.0000001
 43
0.0000001
 44
0.0000000001
 12
-0.0273990738
 22
-0.0284416549
 32
0.0
 13
0.0
 23
-0.0394920008
 33
0.0
 40
0.0
 40
0.0
 40
0.0
 40
0.0
 40
0.4879651366
 40
1.0
 40
1.0
 40
1.0
 40
1.0
 10
8.693673189
 20
5.1426152935
 30
0.0
 10
8.6892165914
 20
5.1379891148
 30
0.0
 10
8.6818735042
 20
5.1267821099
 30
0.0
 10
8.6792550217
 20
5.1136181097
 30
0.0
 10
8.6792550217
 20
5.1068776826
 30
0.0
 11
8.693673189
 21
5.1426152935
 31
0.0
 11
8.6831752258
 21
5.1265858794
 31
0.0
 11
8.6792550217
 21
5.1068776826
 31
0.0
  0
SPLINE
  5
451
100
AcDbEntity
  8
0
100
AcDbSpline
 62
7
  6
CONTINUOUS
 70
0
 71
3
 72
9
 73
5
 74
3
 42
0.0000001
 43
0.0000001
 44
0.0000000001
 12
-0.0273990738
 22
0.0284416549
 32
0.0
 13
0.0
 23
0.0394920008
 33
0.0
 40
0.0
 40
0.0
 40
0.0
 40
0.0
 40
0.4879651366
 40
1.0
 40
1.0
 40
1.0
 40
1.0
 10
8.693673189
 20
3.5811400717
 30
0.0
 10
8.6892165914
 20
3.5857662504
 30
0.0
 10
8.6818735042
 20
3.5969732553
 30
0.0
 10
8.6792550217
 20
3.6101372555
 30
0.0
 10
8.6792550217
 20
3.6168776826
 30
0.0
 11
8.693673189
 21
3.5811400717
 31
0.0
 11
8.6831752258
 21
3.5971694858
 31
0.0
 11
8.6792550217
 21
3.6168776826
 31
0.0
  0
SPLINE
  5
452
100
AcDbEntity
  8
0
100
AcDbSpline
 62
7
  6
CONTINUOUS
 70
0
 71
3
 72
14
 73
10
 74
8
 42
0.0000001
 43
0.0000001
 44
0.0000000001
 12
0.0
 22
0.1323573704
 32
0.0
 13
-0.0715842835
 23
-0.1113582083
 33
0.0
 40
0.0
 40
0.0
 40
0.0
 40
0.0
 40
0.152777901
 40
0.305555802
 40
0.458333703
 40
0.6111116041
 40
0.7638895051
 40
0.9166674061
 40
1.0
 40
1.0
 40
1.0
 40
1.0
 10
5.9572550217
 20
5.2793776826
 30
0.0
 10
5.9572550217
 20
5.2861181097
 30
0.0
 10
5.9545735131
 20
5.2995989638
 30
0.0
 10
5.9431190774
 20
5.3167417383
 30
0.0
 10
5.9259763029
 20
5.328196174
 30
0.0
 10
5.9057550217
 20
5.3322184369
 30
0.0
 10
5.8855337405
 20
5.328196174
 30
0.0
 10
5.8709883863
 20
5.318477279
 30
0.0
 10
5.864421641
 20
5.3103121785
 30
0.0
 10
5.8624332063
 20
5.3072189224
 30
0.0
 11
5.9572550217
 21
5.2793776826
 31
0.0
 11
5.9533348176
 21
5.2990858794
 31
0.0
 11
5.9421710209
 21
5.3157936818
 31
0.0
 11
5.9254632185
 21
5.3269574785
 31
0.0
 11
5.9057550217
 21
5.3308776826
 31
0.0
 11
5.8860468249
 21
5.3269574785
 31
0.0
 11
5.8693390225
 21
5.3157936818
 31
0.0
 11
5.8624332063
 21
5.3072189224
 31
0.0
  0
SPLINE
  5
453
100
AcDbEntity
  8
0
100
AcDbSpline
 62
7
  6
CONTINUOUS
 70
0
 71
3
 72
9
 73
5
 74
3
 42
0.0000001
 43
0.0000001
 44
0.0000000001
 12
-0.0159076891
 22
-0.0247463783
 32
0.0
 13
0.0
 23
-0.0294128795
 33
0.0
 40
0.0
 40
0.0
 40
0.0
 40
0.0
 40
0.3125024955
 40
1.0
 40
1.0
 40
1.0
 40
1.0
 10
5.8624332063
 20
5.3072189224
 30
0.0
 10
5.8607761421
 20
5.304641154
 30
0.0
 10
5.8562052169
 20
5.2959224028
 30
0.0
 10
5.8542550217
 20
5.2861181097
 30
0.0
 10
5.8542550217
 20
5.2793776826
 30
0.0
 11
5.8624332063
 21
5.3072189224
 31
0.0
 11
5.8581752258
 21
5.2990858794
 31
0.0
 11
5.8542550217
 21
5.2793776826
 31
0.0
  0
SPLINE
  5
454
100
AcDbEntity
  8
0
100
AcDbSpline
 62
7
  6
CONTINUOUS
 70
0
 71
3
 72
14
 73
10
 74
8
 42
0.0000001
 43
0.0000001
 44
0.0000000001
 12
0.0
 22
-0.1323573704
 32
0.0
 13
-0.0715842835
 23
0.1113582083
 33
0.0
 40
0.0
 40
0.0
 40
0.0
 40
0.0
 40
0.152777901
 40
0.305555802
 40
0.458333703
 40
0.6111116041
 40
0.7638895051
 40
0.9166674061
 40
1.0
 40
1.0
 40
1.0
 40
1.0
 10
5.9572550217
 20
3.4443776826
 30
0.0
 10
5.9572550217
 20
3.4376372555
 30
0.0
 10
5.9545735131
 20
3.4241564014
 30
0.0
 10
5.9431190774
 20
3.4070136269
 30
0.0
 10
5.9259763029
 20
3.3955591912
 30
0.0
 10
5.9057550217
 20
3.3915369283
 30
0.0
 10
5.8855337405
 20
3.3955591912
 30
0.0
 10
5.8709883863
 20
3.4052780862
 30
0.0
 10
5.864421641
 20
3.4134431867
 30
0.0
 10
5.8624332063
 20
3.4165364428
 30
0.0
 11
5.9572550217
 21
3.4443776826
 31
0.0
 11
5.9533348176
 21
3.4246694858
 31
0.0
 11
5.9421710209
 21
3.4079616834
 31
0.0
 11
5.9254632185
 21
3.3967978867
 31
0.0
 11
5.9057550217
 21
3.3928776826
 31
0.0
 11
5.8860468249
 21
3.3967978867
 31
0.0
 11
5.8693390225
 21
3.4079616834
 31
0.0
 11
5.8624332063
 21
3.4165364428
 31
0.0
  0
SPLINE
  5
455
100
AcDbEntity
  8
0
100
AcDbSpline
 62
7
  6
CONTINUOUS
 70
0
 71
3
 72
9
 73
5
 74
3
 42
0.0000001
 43
0.0000001
 44
0.0000000001
 12
-0.0159076891
 22
0.0247463783
 32
0.0
 13
0.0
 23
0.0294128795
 33
0.0
 40
0.0
 40
0.0
 40
0.0
 40
0.0
 40
0.3125024955
 40
1.0
 40
1.0
 40
1.0
 40
1.0
 10
5.8624332063
 20
3.4165364428
 30
0.0
 10
5.8607761421
 20
3.4191142112
 30
0.0
 10
5.8562052169
 20
3.4278329624
 30
0.0
 10
5.8542550217
 20
3.4376372555
 30
0.0
 10
5.8542550217
 20
3.4443776826
 30
0.0
 11
5.8624332063
 21
3.4165364428
 31
0.0
 11
5.8581752258
 21
3.4246694858
 31
0.0
 11
5.8542550217
 21
3.4443776826
 31
0.0
  0
SPLINE
  5
456
100
AcDbEntity
  8
0
100
AcDbSpline
 62
7
  6
CONTINUOUS
 70
0
 71
3
 72
14
 73
10
 74
8
 42
0.0000001
 43
0.0000001
 44
0.0000000001
 12
0.116183359
 22
0.0
 32
0.0
 13
0.0000985969
 23
0.1174191932
 33
0.0
 40
0.0
 40
0.0
 40
0.0
 40
0.0
 40
0.193559848
 40
0.3806551677
 40
0.5545936885
 40
0.7092472499
 40
0.8408939404
 40
0.9508115898
 40
1.0
 40
1.0
 40
1.0
 40
1.0
 10
7.3632550217
 20
4.9322055938
 30
0.0
 10
7.3707511662
 20
4.9322055938
 30
0.0
 10
7.3855171212
 20
4.9332858384
 30
0.0
 10
7.4065458098
 20
4.9380384628
 30
0.0
 10
7.4251684317
 20
4.9455118107
 30
0.0
 10
7.4403397045
 20
4.9550959055
 30
0.0
 10
7.4512597258
 20
4.9661064222
 30
0.0
 10
7.4564978757
 20
4.9763852677
 30
0.0
 10
7.4572312804
 20
4.982624742
 30
0.0
 10
7.457232897
 20
4.9845499632
 30
0.0
 11
7.3632550217
 21
4.9322055938
 31
0.0
 11
7.3856819025
 21
4.9338683183
 31
0.0
 11
7.4068696674
 21
4.9387254322
 31
0.0
 11
7.4255749786
 21
4.9463743131
 31
0.0
 11
7.440646708
 21
4.9561568544
 31
0.0
 11
7.451173806
 21
4.9672528881
 31
0.0
 11
7.4565739419
 21
4.9788255629
 31
0.0
 11
7.457232897
 21
4.9845499632
 31
0.0
  0
SPLINE
  5
457
100
AcDbEntity
  8
0
100
AcDbSpline
 62
7
  6
CONTINUOUS
 70
0
 71
3
 72
14
 73
10
 74
8
 42
0.0000001
 43
0.0000001
 44
0.0000000001
 12
0.0642876514
 22
-0.1953854386
 32
0.0
 13
0.2051850474
 23
0.0
 33
0.0
 40
0.0
 40
0.0
 40
0.0
 40
0.0
 40
0.0900296927
 40
0.2287389492
 40
0.3707927552
 40
0.5188472594
 40
0.673986849
 40
0.8354227388
 40
1.0
 40
1.0
 40
1.0
 40
1.0
 10
7.7602680415
 20
4.0422481726
 30
0.0
 10
7.7621973073
 20
4.0363846756
 30
0.0
 10
7.7682661391
 20
4.0218700863
 30
0.0
 10
7.7826573935
 20
4.0006991807
 30
0.0
 10
7.8043612687
 20
3.9806366065
 30
0.0
 10
7.8305791289
 20
3.9647917901
 30
0.0
 10
7.860378572
 20
3.953339577
 30
0.0
 10
7.8926686468
 20
3.9464178276
 30
0.0
 10
7.9149987573
 20
3.9448798052
 30
0.0
 10
7.9262550217
 20
3.9448798052
 30
0.0
 11
7.7602680415
 21
4.0422481726
 31
0.0
 11
7.7674097438
 21
4.025184352
 31
0.0
 11
7.7833363012
 21
4.0015967067
 31
0.0
 11
7.8046328261
 21
3.9816963521
 31
0.0
 11
7.8305416473
 21
3.9658347466
 31
0.0
 11
7.8602008549
 21
3.9542749779
 31
0.0
 11
7.892568522
 21
3.9472358876
 31
0.0
 11
7.9262550217
 21
3.9448798052
 31
0.0
  0
SPLINE
  5
458
100
AcDbEntity
  8
0
100
AcDbSpline
 62
7
  6
CONTINUOUS
 70
0
 71
3
 72
15
 73
11
 74
9
 42
0.0000001
 43
0.0000001
 44
0.0000000001
 12
0.2586010859
 22
0.0
 32
0.0
 13
0.0000146177
 23
0.2592248222
 33
0.0
 40
0.0
 40
0.0
 40
0.0
 40
0.0
 40
0.1375317211
 40
0.2758225156
 40
0.4146818848
 40
0.5525481579
 40
0.687077646
 40
0.8163810563
 40
0.9400056085
 40
1.0
 40
1.0
 40
1.0
 40
1.0
 10
7.9262550217
 20
4.5619832704
 30
0.0
 10
7.9381103059
 20
4.5619832704
 30
0.0
 10
7.9619572086
 20
4.5644349989
 30
0.0
 10
7.9962568274
 20
4.5753065591
 30
0.0
 10
8.0277117895
 20
4.5928569574
 30
0.0
 10
8.0547917507
 20
4.6161018567
 30
0.0
 10
8.0761786272
 20
4.6436382333
 30
0.0
 10
8.0909303638
 20
4.6738804164
 30
0.0
 10
8.09729928
 20
4.7003256759
 30
0.0
 10
8.0982530145
 20
4.7161936544
 30
0.0
 10
8.0982533069
 20
4.7213776662
 30
0.0
 11
7.9262550217
 21
4.5619832704
 31
0.0
 11
7.9616348075
 21
4.565616536
 31
0.0
 11
7.9957322253
 21
4.5764006652
 31
0.0
 11
8.0270941037
 21
4.5938907212
 31
0.0
 11
8.0541318469
 21
4.6171297354
 31
0.0
 11
8.0754163978
 21
4.6446483697
 31
0.0
 11
8.0899752153
 21
4.6747505429
 31
0.0
 11
8.0973326335
 21
4.7058618545
 31
0.0
 11
8.0982533069
 21
4.7213776662
 31
0.0
  0
SPLINE
  5
459
100
AcDbEntity
  8
0
100
AcDbSpline
 62
7
  6
CONTINUOUS
 70
0
 71
3
 72
15
 73
11
 74
9
 42
0.0000001
 43
0.0000001
 44
0.0000000001
 12
-0.0000146186
 22
0.25922482
 32
0.0
 13
-0.2586010848
 23
0.0
 33
0.0
 40
0.0
 40
0.0
 40
0.0
 40
0.0
 40
0.0599940051
 40
0.1836182817
 40
0.3129214741
 40
0.4474508425
 40
0.5853170627
 40
0.7241765059
 40
0.8624675916
 40
1.0
 40
1.0
 40
1.0
 40
1.0
 10
8.0982533068
 20
4.0023776998
 30
0.0
 10
8.0982530145
 20
4.0075616782
 30
0.0
 10
8.0972992895
 20
4.0234295993
 30
0.0
 10
8.0909304168
 20
4.0498747897
 30
0.0
 10
8.0761787422
 20
4.080116943
 30
0.0
 10
8.0547919259
 20
4.1076533229
 30
0.0
 10
8.0277120062
 20
4.1308982569
 30
0.0
 10
7.9962570462
 20
4.1484487148
 30
0.0
 10
7.9619573531
 20
4.1593203451
 30
0.0
 10
7.9381103651
 20
4.1617720948
 30
0.0
 10
7.9262550217
 20
4.1617720948
 30
0.0
 11
8.0982533068
 21
4.0023776998
 31
0.0
 11
8.0973326452
 21
4.0178934119
 31
0.0
 11
8.0899752729
 21
4.049004661
 31
0.0
 11
8.075416518
 21
4.0791068017
 31
0.0
 11
8.0541320254
 21
4.1066254418
 31
0.0
 11
8.0270943276
 21
4.1298644877
 31
0.0
 11
7.9957324585
 21
4.1473545993
 31
0.0
 11
7.9616349823
 21
4.1581387929
 31
0.0
 11
7.9262550217
 21
4.1617720948
 31
0.0
  0
SPLINE
  5
45A
100
AcDbEntity
  8
0
100
AcDbSpline
 62
7
  6
CONTINUOUS
 70
0
 71
3
 72
15
 73
11
 74
9
 42
0.0000001
 43
0.0000001
 44
0.0000000001
 12
0.000014621
 22
-0.2592248189
 32
0.0
 13
0.2586010837
 23
0.0
 33
0.0
 40
0.0
 40
0.0
 40
0.0
 40
0.0
 40
0.0599940243
 40
0.1836182982
 40
0.3129214869
 40
0.4474508533
 40
0.5853170712
 40
0.7241765111
 40
0.8624675937
 40
1.0
 40
1.0
 40
1.0
 40
1.0
 10
7.7542567366
 20
4.7213776642
 30
0.0
 10
7.754257029
 20
4.7161936842
 30
0.0
 10
7.7552107545
 20
4.7003257618
 30
0.0
 10
7.7615796284
 20
4.6738805707
 30
0.0
 10
7.7763313036
 20
4.6436384186
 30
0.0
 10
7.7977181199
 20
4.6161020398
 30
0.0
 10
7.8247980394
 20
4.5928571069
 30
0.0
 10
7.8562529988
 20
4.5753066497
 30
0.0
 10
7.8905526911
 20
4.56443502
 30
0.0
 10
7.9143996786
 20
4.5619832704
 30
0.0
 10
7.9262550217
 20
4.5619832704
 30
0.0
 11
7.7542567366
 21
4.7213776642
 31
0.0
 11
7.7551773989
 21
4.7058619473
 31
0.0
 11
7.7625347723
 21
4.6747506993
 31
0.0
 11
7.7770935276
 21
4.64464856
 31
0.0
 11
7.7983780204
 21
4.6171299209
 31
0.0
 11
7.825415718
 21
4.593890876
 31
0.0
 11
7.8567775864
 21
4.5764007653
 31
0.0
 11
7.8908750618
 21
4.5656165721
 31
0.0
 11
7.9262550217
 21
4.5619832704
 31
0.0
  0
SPLINE
  5
45B
100
AcDbEntity
  8
0
100
AcDbSpline
 62
7
  6
CONTINUOUS
 70
0
 71
3
 72
14
 73
10
 74
8
 42
0.0000001
 43
0.0000001
 44
0.0000000001
 12
-0.116183359
 22
0.0
 32
0.0
 13
-0.0000985969
 23
-0.1174191932
 33
0.0
 40
0.0
 40
0.0
 40
0.0
 40
0.0
 40
0.193559848
 40
0.3806551677
 40
0.5545936885
 40
0.7092472499
 40
0.8408939404
 40
0.9508115898
 40
1.0
 40
1.0
 40
1.0
 40
1.0
 10
7.3632550217
 20
3.7915497714
 30
0.0
 10
7.3557588773
 20
3.7915497714
 30
0.0
 10
7.3409929222
 20
3.7904695268
 30
0.0
 10
7.3199642337
 20
3.7857169024
 30
0.0
 10
7.3013416117
 20
3.7782435545
 30
0.0
 10
7.2861703389
 20
3.7686594597
 30
0.0
 10
7.2752503176
 20
3.757648943
 30
0.0
 10
7.2700121678
 20
3.7473700975
 30
0.0
 10
7.269278763
 20
3.7411306232
 30
0.0
 10
7.2692771464
 20
3.739205402
 30
0.0
 11
7.3632550217
 21
3.7915497714
 31
0.0
 11
7.340828141
 21
3.7898870469
 31
0.0
 11
7.3196403761
 21
3.785029933
 31
0.0
 11
7.3009350649
 21
3.7773810521
 31
0.0
 11
7.2858633354
 21
3.7675985108
 31
0.0
 11
7.2753362374
 21
3.7565024771
 31
0.0
 11
7.2699361015
 21
3.7449298023
 31
0.0
 11
7.2692771464
 21
3.739205402
 31
0.0
  0
SPLINE
  5
45C
100
AcDbEntity
  8
0
100
AcDbSpline
 62
7
  6
CONTINUOUS
 70
0
 71
3
 72
14
 73
10
 74
8
 42
0.0000001
 43
0.0000001
 44
0.0000000001
 12
-0.0642879247
 22
0.1953848448
 32
0.0
 13
-0.2051847566
 23
-0.0
 33
0.0
 40
0.0
 40
0.0
 40
0.0
 40
0.0
 40
0.0900070687
 40
0.2287266109
 40
0.3707806923
 40
0.5188346841
 40
0.673979606
 40
0.835421737
 40
1.0
 40
1.0
 40
1.0
 40
1.0
 10
8.092241914
 20
4.681507468
 30
0.0
 10
8.0903131248
 20
4.6873694737
 30
0.0
 10
8.0842448971
 20
4.7018833296
 30
0.0
 10
8.0698546915
 20
4.7230539588
 30
0.0
 10
8.0481506765
 20
4.7431173403
 30
0.0
 10
8.0219327848
 20
4.7589627062
 30
0.0
 10
7.9921327729
 20
4.7704154695
 30
0.0
 10
7.9598419132
 20
4.7773374985
 30
0.0
 10
7.9375113387
 20
4.77887556
 30
0.0
 10
7.9262550217
 20
4.77887556
 30
0.0
 11
8.092241914
 21
4.681507468
 31
0.0
 11
8.0851023144
 21
4.6985670979
 31
0.0
 11
8.0691752522
 21
4.7221569001
 31
0.0
 11
8.0478790535
 21
4.7420576261
 31
0.0
 11
8.0219705933
 21
4.7579195373
 31
0.0
 11
7.9923105254
 21
4.7694799875
 31
0.0
 11
7.959941678
 21
4.7765194554
 31
0.0
 11
7.9262550217
 21
4.77887556
 31
0.0
  0
SPLINE
  5
45D
100
AcDbEntity
  8
0
100
AcDbSpline
 62
7
  6
CONTINUOUS
 70
0
 71
3
 72
15
 73
11
 74
9
 42
0.0000001
 43
0.0000001
 44
0.0000000001
 12
-0.258601087
 22
0.0
 32
0.0
 13
-0.0000146153
 23
-0.2592248232
 33
0.0
 40
0.0
 40
0.0
 40
0.0
 40
0.0
 40
0.1375317236
 40
0.2758225216
 40
0.4146818941
 40
0.5525481697
 40
0.6870776598
 40
0.816381074
 40
0.9400056283
 40
1.0
 40
1.0
 40
1.0
 40
1.0
 10
7.9262550217
 20
4.1617720948
 30
0.0
 10
7.9143997373
 20
4.1617720948
 30
0.0
 10
7.8905528339
 20
4.1593203662
 30
0.0
 10
7.8562532143
 20
4.1484488054
 30
0.0
 10
7.8247982515
 20
4.1308984062
 30
0.0
 10
7.7977182901
 20
4.1076535059
 30
0.0
 10
7.7763314138
 20
4.0801171281
 30
0.0
 10
7.7615796778
 20
4.0498749438
 30
0.0
 10
7.7552107629
 20
4.023429685
 30
0.0
 10
7.7542570289
 20
4.007561708
 30
0.0
 10
7.7542567366
 20
4.0023776979
 30
0.0
 11
7.9262550217
 21
4.1617720948
 31
0.0
 11
7.8908752352
 21
4.158138829
 31
0.0
 11
7.8567778164
 21
4.1473546993
 31
0.0
 11
7.8254159374
 21
4.1298646424
 31
0.0
 11
7.798378194
 21
4.1066256271
 31
0.0
 11
7.7770936433
 21
4.0791069918
 31
0.0
 11
7.7625348262
 21
4.0490048171
 31
0.0
 11
7.7551774092
 21
4.0178935045
 31
0.0
 11
7.7542567366
 21
4.0023776979
 31
0.0
  0
SPLINE
  5
45E
100
AcDbEntity
  8
0
100
AcDbSpline
 62
7
  6
CONTINUOUS
 70
0
 71
3
 72
23
 73
19
 74
17
 42
0.0000001
 43
0.0000001
 44
0.0000000001
 12
0.3377780945
 22
0.0808037167
 32
0.0
 13
0.3377780954
 23
-0.0808037167
 33
0.0
 40
0.0
 40
0.0
 40
0.0
 40
0.0
 40
0.0098103706
 40
0.0388001576
 40
0.08553117
 40
0.1479659122
 40
0.2236259779
 40
0.3096776541
 40
0.4030005233
 40
0.5000547911
 40
0.5971271074
 40
0.6904827633
 40
0.7765540371
 40
0.8521970571
 40
0.9145844796
 40
0.9612588242
 40
0.9902077538
 40
1.0
 40
1.0
 40
1.0
 40
1.0
 10
7.7542550217
 20
3.6428776826
 30
0.0
 10
7.7553595978
 20
3.6431419207
 30
0.0
 10
7.7597303675
 20
3.6441780099
 30
0.0
 10
7.7693838741
 20
3.6463831474
 30
0.0
 10
7.7850333428
 20
3.6496913575
 30
0.0
 10
7.8060710967
 20
3.6536122271
 30
0.0
 10
7.8317233541
 20
3.657562788
 30
0.0
 10
7.8610628506
 20
3.6609434196
 30
0.0
 10
7.8929949548
 20
3.6632217524
 30
0.0
 10
7.9262761472
 20
3.6640255022
 30
0.0
 10
7.9595610932
 20
3.6632196964
 30
0.0
 10
7.9915011797
 20
3.6609385226
 30
0.0
 10
8.0208444687
 20
3.6575550292
 30
0.0
 10
8.0464912854
 20
3.6536032199
 30
0.0
 10
8.067515014
 20
3.6496836088
 30
0.0
 10
8.0831479477
 20
3.6463782763
 30
0.0
 10
8.0927883648
 20
3.6441759633
 30
0.0
 10
8.0971524863
 20
3.6431414326
 30
0.0
 10
8.0982550217
 20
3.6428776826
 30
0.0
 11
7.7542550217
 21
3.6428776826
 31
0.0
 11
7.7575703784
 21
3.6436635718
 31
0.0
 11
7.7673860426
 21
3.6459053699
 31
0.0
 11
7.7832655262
 21
3.6492606776
 31
0.0
 11
7.804583212
 21
3.653230359
 31
0.0
 11
7.8305552306
 21
3.6572249667
 31
0.0
 11
7.8602459856
 21
3.6606400675
 31
0.0
 11
7.8925760152
 21
3.6629418662
 31
0.0
 11
7.9262740503
 21
3.6637537678
 31
0.0
 11
7.9599783043
 21
3.6629397313
 31
0.0
 11
7.9923195298
 21
3.6606348436
 31
0.0
 11
8.0220167687
 21
3.6572165497
 31
0.0
 11
8.0479826185
 21
3.6532207784
 31
0.0
 11
8.0692838995
 21
3.6492527743
 31
0.0
 11
8.0851439995
 21
3.6459009321
 31
0.0
 11
8.094945793
 21
3.6436621325
 31
0.0
 11
8.0982550217
 21
3.6428776826
 31
0.0
  0
SPLINE
  5
45F
100
AcDbEntity
  8
0
100
AcDbSpline
 62
7
  6
CONTINUOUS
 70
0
 71
3
 72
14
 73
10
 74
8
 42
0.0000001
 43
0.0000001
 44
0.0000000001
 12
-0.205180605
 22
0.0
 32
0.0
 13
-0.0642939897
 23
-0.1953780092
 33
0.0
 40
0.0
 40
0.0
 40
0.0
 40
0.0
 40
0.1643979213
 40
0.3257233887
 40
0.480764787
 40
0.6287734287
 40
0.7708855718
 40
0.9097120971
 40
1.0
 40
1.0
 40
1.0
 40
1.0
 10
7.9262550217
 20
4.77887556
 30
0.0
 10
7.9150112667
 20
4.77887556
 30
0.0
 10
7.8927015714
 20
4.7773406309
 30
0.0
 10
7.8604369177
 20
4.7704316489
 30
0.0
 10
7.8306505496
 20
4.7589969428
 30
0.0
 10
7.8044300895
 20
4.7431697684
 30
0.0
 10
7.7827072819
 20
4.723115528
 30
0.0
 10
7.7682870662
 20
4.7019283321
 30
0.0
 10
7.7622044297
 20
4.6873916054
 30
0.0
 10
7.7602694398
 20
4.6815115151
 30
0.0
 11
7.9262550217
 21
4.77887556
 31
0.0
 11
7.8926057732
 21
4.7765247494
 31
0.0
 11
7.8602593699
 21
4.7694978774
 31
0.0
 11
7.8306152371
 21
4.7579568138
 31
0.0
 11
7.8047063876
 21
4.7421145452
 31
0.0
 11
7.7833889684
 21
4.7222199524
 31
0.0
 11
7.767435944
 21
4.6986218942
 31
0.0
 11
7.7602694398
 21
4.6815115151
 31
0.0
  0
SPLINE
  5
460
100
AcDbEntity
  8
0
100
AcDbSpline
 62
7
  6
CONTINUOUS
 70
0
 71
3
 72
14
 73
10
 74
8
 42
0.0000001
 43
0.0000001
 44
0.0000000001
 12
0.2051808417
 22
0.0
 32
0.0
 13
0.0642937767
 23
0.1953784997
 33
0.0
 40
0.0
 40
0.0
 40
0.0
 40
0.0
 40
0.1643969164
 40
0.3257163538
 40
0.4807529863
 40
0.6287625414
 40
0.7708742481
 40
0.9096914637
 40
1.0
 40
1.0
 40
1.0
 40
1.0
 10
7.9262550217
 20
3.9448798052
 30
0.0
 10
7.9374987209
 20
3.9448798052
 30
0.0
 10
7.9598079606
 20
3.9464146953
 30
0.0
 10
7.9920718728
 20
3.9533234084
 30
0.0
 10
8.0218577361
 20
3.9647576026
 30
0.0
 10
8.0480781897
 20
3.9805842806
 30
0.0
 10
8.0698008845
 20
4.0006377944
 30
0.0
 10
8.0842220565
 20
4.021825229
 30
0.0
 10
8.0903052492
 20
4.0363626244
 30
0.0
 10
8.0922406748
 20
4.0422440732
 30
0.0
 11
7.9262550217
 21
3.9448798052
 31
0.0
 11
7.9599041042
 21
3.9472305923
 31
0.0
 11
7.9922493605
 21
3.9542570955
 31
0.0
 11
8.0218927284
 21
3.96579753
 31
0.0
 11
8.0478019848
 21
3.9816395594
 31
0.0
 11
8.069119673
 21
4.0015337822
 31
0.0
 11
8.0850722481
 21
4.0251298779
 31
0.0
 11
8.0922406748
 21
4.0422440732
 31
0.0
  0
SPLINE
  5
461
100
AcDbEntity
  8
0
100
AcDbSpline
 62
7
  6
CONTINUOUS
 70
0
 71
3
 72
14
 73
10
 74
8
 42
0.0000001
 43
0.0000001
 44
0.0000000001
 12
-0.0000986139
 22
0.1174191904
 32
0.0
 13
-0.1161833559
 23
0.0
 33
0.0
 40
0.0
 40
0.0
 40
0.0
 40
0.0
 40
0.0491883899
 40
0.1591057305
 40
0.2907522824
 40
0.4454056361
 40
0.6193441748
 40
0.8064395497
 40
1.0
 40
1.0
 40
1.0
 40
1.0
 10
7.457232897
 20
3.7392054055
 30
0.0
 10
7.4572312802
 20
3.7411306258
 30
0.0
 10
7.4564978764
 20
3.747370087
 30
0.0
 10
7.4512597422
 20
3.7576489176
 30
0.0
 10
7.4403397474
 20
3.7686594247
 30
0.0
 10
7.425168493
 20
3.7782435233
 30
0.0
 10
7.4065458809
 20
3.7857168809
 30
0.0
 10
7.3855171696
 20
3.7904695217
 30
0.0
 10
7.3707511893
 20
3.7915497714
 30
0.0
 10
7.3632550217
 20
3.7915497714
 30
0.0
 11
7.457232897
 21
3.7392054055
 31
0.0
 11
7.4565739417
 21
3.7449298033
 31
0.0
 11
7.4511738266
 21
3.7565024477
 31
0.0
 11
7.4406467485
 21
3.7675984777
 31
0.0
 11
7.425575047
 21
3.7773810167
 31
0.0
 11
7.4068697393
 21
3.7850299103
 31
0.0
 11
7.3856819713
 21
3.7898870366
 31
0.0
 11
7.3632550217
 21
3.7915497714
 31
0.0
  0
SPLINE
  5
462
100
AcDbEntity
  8
0
100
AcDbSpline
 62
7
  6
CONTINUOUS
 70
0
 71
3
 72
14
 73
10
 74
8
 42
0.0000001
 43
0.0000001
 44
0.0000000001
 12
0.0000986139
 22
-0.1174191904
 32
0.0
 13
0.1161833559
 23
-0.0
 33
0.0
 40
0.0
 40
0.0
 40
0.0
 40
0.0
 40
0.0491883899
 40
0.1591057305
 40
0.2907522824
 40
0.4454056361
 40
0.6193441748
 40
0.8064395497
 40
1.0
 40
1.0
 40
1.0
 40
1.0
 10
7.2692771464
 20
4.9845499597
 30
0.0
 10
7.2692787633
 20
4.9826247393
 30
0.0
 10
7.2700121671
 20
4.9763852782
 30
0.0
 10
7.2752503012
 20
4.9661064476
 30
0.0
 10
7.286170296
 20
4.9550959405
 30
0.0
 10
7.3013415505
 20
4.9455118419
 30
0.0
 10
7.3199641626
 20
4.9380384843
 30
0.0
 10
7.3409928738
 20
4.9332858435
 30
0.0
 10
7.3557588542
 20
4.9322055938
 30
0.0
 10
7.3632550217
 20
4.9322055938
 30
0.0
 11
7.2692771464
 21
4.9845499597
 31
0.0
 11
7.2699361017
 21
4.9788255619
 31
0.0
 11
7.2753362168
 21
4.9672529174
 31
0.0
 11
7.2858632949
 21
4.9561568875
 31
0.0
 11
7.3009349965
 21
4.9463743485
 31
0.0
 11
7.3196403041
 21
4.9387254549
 31
0.0
 11
7.3408280722
 21
4.9338683286
 31
0.0
 11
7.3632550217
 21
4.9322055938
 31
0.0
  0
SPLINE
  5
463
100
AcDbEntity
  8
0
100
AcDbSpline
 62
7
  6
CONTINUOUS
 70
0
 71
3
 72
23
 73
19
 74
17
 42
0.0000001
 43
0.0000001
 44
0.0000000001
 12
-0.3377780945
 22
-0.0808037167
 32
0.0
 13
-0.3377780954
 23
0.0808037167
 33
0.0
 40
0.0
 40
0.0
 40
0.0
 40
0.0
 40
0.0098103706
 40
0.0388001576
 40
0.08553117
 40
0.1479659122
 40
0.2236259779
 40
0.3096776541
 40
0.4030005233
 40
0.5000547911
 40
0.5971271074
 40
0.6904827633
 40
0.7765540371
 40
0.8521970571
 40
0.9145844796
 40
0.9612588242
 40
0.9902077538
 40
1.0
 40
1.0
 40
1.0
 40
1.0
 10
8.0982550217
 20
5.0808776826
 30
0.0
 10
8.0971504456
 20
5.0806134445
 30
0.0
 10
8.092779676
 20
5.0795773553
 30
0.0
 10
8.0831261694
 20
5.0773722178
 30
0.0
 10
8.0674767007
 20
5.0740640077
 30
0.0
 10
8.0464389467
 20
5.0701431381
 30
0.0
 10
8.0207866893
 20
5.0661925772
 30
0.0
 10
7.9914471929
 20
5.0628119456
 30
0.0
 10
7.9595150887
 20
5.0605336128
 30
0.0
 10
7.9262338962
 20
5.0597298629
 30
0.0
 10
7.8929489502
 20
5.0605356688
 30
0.0
 10
7.8610088638
 20
5.0628168426
 30
0.0
 10
7.8316655747
 20
5.066200336
 30
0.0
 10
7.806018758
 20
5.0701521453
 30
0.0
 10
7.7849950295
 20
5.0740717564
 30
0.0
 10
7.7693620958
 20
5.0773770888
 30
0.0
 10
7.7597216786
 20
5.0795794019
 30
0.0
 10
7.7553575571
 20
5.0806139326
 30
0.0
 10
7.7542550217
 20
5.0808776826
 30
0.0
 11
8.0982550217
 21
5.0808776826
 31
0.0
 11
8.094939665
 21
5.0800917933
 31
0.0
 11
8.0851240008
 21
5.0778499953
 31
0.0
 11
8.0692445172
 21
5.0744946876
 31
0.0
 11
8.0479268315
 21
5.0705250062
 31
0.0
 11
8.0219548128
 21
5.0665303985
 31
0.0
 11
7.9922640578
 21
5.0631152977
 31
0.0
 11
7.9599340283
 21
5.060813499
 31
0.0
 11
7.9262359931
 21
5.0600015974
 31
0.0
 11
7.8925317392
 21
5.0608156339
 31
0.0
 11
7.8601905137
 21
5.0631205216
 31
0.0
 11
7.8304932748
 21
5.0665388155
 31
0.0
 11
7.8045274249
 21
5.0705345868
 31
0.0
 11
7.7832261439
 21
5.0745025909
 31
0.0
 11
7.7673660439
 21
5.0778544331
 31
0.0
 11
7.7575642504
 21
5.0800932326
 31
0.0
 11
7.7542550217
 21
5.0808776826
 31
0.0
  0
SPLINE
  5
464
100
AcDbEntity
  8
0
100
AcDbSpline
 62
7
  6
CONTINUOUS
 70
0
 71
3
 72
14
 73
10
 74
8
 42
0.0000001
 43
0.0000001
 44
0.0000000001
 12
-0.111159994
 22
0.0
 32
0.0
 13
0.0000943502
 23
-0.1123423953
 33
0.0
 40
0.0
 40
0.0
 40
0.0
 40
0.0
 40
0.2019749319
 40
0.3946880184
 40
0.5694599282
 40
0.7198650292
 40
0.8444354903
 40
0.9498000865
 40
1.0
 40
1.0
 40
1.0
 40
1.0
 10
7.3632550217
 20
5.0262055938
 30
0.0
 10
7.3557711776
 20
5.0262055938
 30
0.0
 10
7.3411366123
 20
5.0255419941
 30
0.0
 10
7.3202142558
 20
5.0225314126
 30
0.0
 10
7.3016236916
 20
5.0175288712
 30
0.0
 10
7.2863700729
 20
5.0105648257
 30
0.0
 10
7.2751785942
 20
5.0016469234
 30
0.0
 10
7.2699358093
 20
4.9922442579
 30
0.0
 10
7.2692755676
 20
4.9864298192
 30
0.0
 10
7.2692771464
 20
4.9845499597
 30
0.0
 11
7.3632550217
 21
5.0262055938
 31
0.0
 11
7.340828141
 21
5.0251537772
 31
0.0
 11
7.3196403761
 21
5.0219946503
 31
0.0
 11
7.3009350649
 21
5.0167463457
 31
0.0
 11
7.2858633354
 21
5.0095097071
 31
0.0
 11
7.2753362374
 21
5.0005137865
 31
0.0
 11
7.2699361015
 21
4.9901206562
 31
0.0
 11
7.2692771464
 21
4.9845499597
 31
0.0
  0
SPLINE
  5
465
100
AcDbEntity
  8
0
100
AcDbSpline
 62
7
  6
CONTINUOUS
 70
0
 71
3
 72
14
 73
10
 74
8
 42
0.0000001
 43
0.0000001
 44
0.0000000001
 12
-0.0000943339
 22
-0.112342392
 32
0.0
 13
0.111159991
 23
0.0
 33
0.0
 40
0.0
 40
0.0
 40
0.0
 40
0.0
 40
0.0501998918
 40
0.155564198
 40
0.2801345223
 40
0.430539403
 40
0.6053113109
 40
0.7980244418
 40
1.0
 40
1.0
 40
1.0
 40
1.0
 10
7.2692771464
 20
3.739205402
 30
0.0
 10
7.2692755679
 20
3.7373255434
 30
0.0
 10
7.2699358088
 20
3.7315111166
 30
0.0
 10
7.2751785776
 20
3.7221084644
 30
0.0
 10
7.286370029
 20
3.7131905665
 30
0.0
 10
7.3016236302
 20
3.7062265156
 30
0.0
 10
7.3202141852
 20
3.7012239664
 30
0.0
 10
7.3411365647
 20
3.6982133742
 30
0.0
 10
7.3557711546
 20
3.6975497714
 30
0.0
 10
7.3632550217
 20
3.6975497714
 30
0.0
 11
7.2692771464
 21
3.739205402
 31
0.0
 11
7.2699361017
 21
3.7336347081
 31
0.0
 11
7.2753362168
 21
3.7232416037
 31
0.0
 11
7.2858632949
 21
3.7142456837
 31
0.0
 11
7.3009349965
 21
3.7070090446
 31
0.0
 11
7.3196403041
 21
3.7017607299
 31
0.0
 11
7.3408280722
 21
3.6986015945
 31
0.0
 11
7.3632550217
 21
3.6975497714
 31
0.0
  0
SPLINE
  5
466
100
AcDbEntity
  8
0
100
AcDbSpline
 62
7
  6
CONTINUOUS
 70
0
 71
3
 72
14
 73
10
 74
8
 42
0.0000001
 43
0.0000001
 44
0.0000000001
 12
0.0000943339
 22
0.112342392
 32
0.0
 13
-0.111159991
 23
0.0
 33
0.0
 40
0.0
 40
0.0
 40
0.0
 40
0.0
 40
0.0501998918
 40
0.155564198
 40
0.2801345223
 40
0.430539403
 40
0.6053113109
 40
0.7980244418
 40
1.0
 40
1.0
 40
1.0
 40
1.0
 10
7.457232897
 20
4.9845499632
 30
0.0
 10
7.4572344755
 20
4.9864298218
 30
0.0
 10
7.4565742346
 20
4.9922442486
 30
0.0
 10
7.4513314658
 20
5.0016469008
 30
0.0
 10
7.4401400144
 20
5.0105647987
 30
0.0
 10
7.4248864133
 20
5.0175288495
 30
0.0
 10
7.4062958583
 20
5.0225313987
 30
0.0
 10
7.3853734788
 20
5.025541991
 30
0.0
 10
7.3707388888
 20
5.0262055938
 30
0.0
 10
7.3632550217
 20
5.0262055938
 30
0.0
 11
7.457232897
 21
4.9845499632
 31
0.0
 11
7.4565739417
 21
4.9901206571
 31
0.0
 11
7.4511738266
 21
5.0005137615
 31
0.0
 11
7.4406467485
 21
5.0095096815
 31
0.0
 11
7.425575047
 21
5.0167463206
 31
0.0
 11
7.4068697393
 21
5.0219946353
 31
0.0
 11
7.3856819713
 21
5.0251537706
 31
0.0
 11
7.3632550217
 21
5.0262055938
 31
0.0
  0
SPLINE
  5
467
100
AcDbEntity
  8
0
100
AcDbSpline
 62
7
  6
CONTINUOUS
 70
0
 71
3
 72
14
 73
10
 74
8
 42
0.0000001
 43
0.0000001
 44
0.0000000001
 12
0.111159994
 22
0.0
 32
0.0
 13
-0.0000943502
 23
0.1123423953
 33
0.0
 40
0.0
 40
0.0
 40
0.0
 40
0.0
 40
0.2019749319
 40
0.3946880184
 40
0.5694599282
 40
0.7198650292
 40
0.8444354903
 40
0.9498000865
 40
1.0
 40
1.0
 40
1.0
 40
1.0
 10
7.3632550217
 20
3.6975497714
 30
0.0
 10
7.3707388658
 20
3.6975497714
 30
0.0
 10
7.3853734312
 20
3.6982133711
 30
0.0
 10
7.4062957877
 20
3.7012239526
 30
0.0
 10
7.4248863518
 20
3.706226494
 30
0.0
 10
7.4401399706
 20
3.7131905394
 30
0.0
 10
7.4513314492
 20
3.7221084418
 30
0.0
 10
7.4565742341
 20
3.7315111073
 30
0.0
 10
7.4572344758
 20
3.737325546
 30
0.0
 10
7.457232897
 20
3.7392054055
 30
0.0
 11
7.3632550217
 21
3.6975497714
 31
0.0
 11
7.3856819025
 21
3.698601588
 31
0.0
 11
7.4068696674
 21
3.7017607149
 31
0.0
 11
7.4255749786
 21
3.7070090195
 31
0.0
 11
7.440646708
 21
3.7142456581
 31
0.0
 11
7.451173806
 21
3.7232415787
 31
0.0
 11
7.4565739419
 21
3.733634709
 31
0.0
 11
7.457232897
 21
3.7392054055
 31
0.0
  0
SPLINE
  5
468
100
AcDbEntity
  8
0
100
AcDbSpline
 62
7
  6
CONTINUOUS
 70
0
 71
3
 72
15
 73
11
 74
9
 42
0.0000001
 43
0.0000001
 44
0.0000000001
 12
-0.000013879
 22
-0.2461646812
 32
0.0
 13
0.2455723698
 23
0.0
 33
0.0
 40
0.0
 40
0.0
 40
0.0
 40
0.0
 40
0.0622901883
 40
0.1856867229
 40
0.3103085067
 40
0.4390478234
 40
0.5733092832
 40
0.7126614044
 40
0.8554984868
 40
1.0
 40
1.0
 40
1.0
 40
1.0
 10
7.7542567366
 20
4.0023776979
 30
0.0
 10
7.7542564484
 20
3.9972664831
 30
0.0
 10
7.7551577639
 20
3.9820316665
 30
0.0
 10
7.7613600977
 20
3.9571210196
 30
0.0
 10
7.7762500668
 20
3.9297403327
 30
0.0
 10
7.7979332041
 20
3.9061717014
 30
0.0
 10
7.8252539849
 20
3.8873464916
 30
0.0
 10
7.8567410754
 20
3.8737843735
 30
0.0
 10
7.8908640751
 20
3.8656565963
 30
0.0
 10
7.9144264954
 20
3.8638593559
 30
0.0
 10
7.9262550217
 20
3.8638593559
 30
0.0
 11
7.7542567366
 21
4.0023776979
 31
0.0
 11
7.7551773862
 21
3.9870821456
 31
0.0
 11
7.76253485
 21
3.9576861227
 31
0.0
 11
7.7770936967
 21
3.9307672742
 31
0.0
 11
7.7983782345
 21
3.9073906782
 31
0.0
 11
7.8254159797
 21
3.8885216322
 31
0.0
 11
7.8567778302
 21
3.8748280835
 31
0.0
 11
7.8908751798
 21
3.8665967102
 31
0.0
 11
7.9262550217
 21
3.8638593559
 31
0.0
  0
SPLINE
  5
469
100
AcDbEntity
  8
0
100
AcDbSpline
 62
7
  6
CONTINUOUS
 70
0
 71
3
 72
15
 73
11
 74
9
 42
0.0000001
 43
0.0000001
 44
0.0000000001
 12
0.0000138812
 22
0.2461646823
 32
0.0
 13
-0.2455723709
 23
0.0
 33
0.0
 40
0.0
 40
0.0
 40
0.0
 40
0.0
 40
0.0622901842
 40
0.18568679
 40
0.3103085978
 40
0.4390479128
 40
0.5733093751
 40
0.7126614817
 40
0.855498523
 40
1.0
 40
1.0
 40
1.0
 40
1.0
 10
8.0982533069
 20
4.7213776662
 30
0.0
 10
8.0982535951
 20
4.7264888807
 30
0.0
 10
8.0973522794
 20
4.7417237029
 30
0.0
 10
8.0911499424
 20
4.7666343572
 30
0.0
 10
8.0762599652
 20
4.7940150488
 30
0.0
 10
8.0545768227
 20
4.8175836781
 30
0.0
 10
8.0272560401
 20
4.8364088835
 30
0.0
 10
7.9957689521
 20
4.8499709965
 30
0.0
 10
7.9616459592
 20
4.8580987698
 30
0.0
 10
7.9380835451
 20
4.8598960093
 30
0.0
 10
7.9262550217
 20
4.8598960093
 30
0.0
 11
8.0982533069
 21
4.7213776662
 31
0.0
 11
8.0973326575
 21
4.7366732175
 31
0.0
 11
8.0899751877
 21
4.7660692572
 31
0.0
 11
8.0754163341
 21
4.7929881088
 31
0.0
 11
8.0541317928
 21
4.8163647011
 31
0.0
 11
8.0270940443
 21
4.8352337438
 31
0.0
 11
7.9957321955
 21
4.8489272877
 31
0.0
 11
7.9616348549
 21
4.8571586564
 31
0.0
 11
7.9262550217
 21
4.8598960093
 31
0.0
  0
SPLINE
  5
46A
100
AcDbEntity
  8
0
100
AcDbSpline
 62
7
  6
CONTINUOUS
 70
0
 71
3
 72
15
 73
11
 74
9
 42
0.0000001
 43
0.0000001
 44
0.0000000001
 12
-0.2455723729
 22
0.0
 32
0.0
 13
0.0000138844
 23
-0.2461646834
 33
0.0
 40
0.0
 40
0.0
 40
0.0
 40
0.0
 40
0.1445009809
 40
0.2873379838
 40
0.4266901584
 40
0.5609517126
 40
0.6896911829
 40
0.8143131339
 40
0.937709596
 40
1.0
 40
1.0
 40
1.0
 40
1.0
 10
7.9262550217
 20
4.8598960093
 30
0.0
 10
7.9144265388
 20
4.8598960093
 30
0.0
 10
7.8908641687
 20
4.8580987792
 30
0.0
 10
7.8567412082
 20
4.8499710349
 30
0.0
 10
7.8252541018
 20
4.8364089387
 30
0.0
 10
7.7979332852
 20
4.8175837363
 30
0.0
 10
7.7762501074
 20
4.7940150945
 30
0.0
 10
7.7613601157
 20
4.7666343949
 30
0.0
 10
7.7551577673
 20
4.7417237253
 30
0.0
 10
7.7542564483
 20
4.7264888967
 30
0.0
 10
7.7542567366
 20
4.7213776642
 30
0.0
 11
7.9262550217
 21
4.8598960093
 31
0.0
 11
7.8908753089
 21
4.8571586753
 31
0.0
 11
7.8567779723
 21
4.8489273291
 31
0.0
 11
7.8254160989
 21
4.8352337992
 31
0.0
 11
7.7983783193
 21
4.8163647611
 31
0.0
 11
7.7770937398
 21
4.7929881516
 31
0.0
 11
7.7625348618
 21
4.7660692729
 31
0.0
 11
7.7551773923
 21
4.7366732693
 31
0.0
 11
7.7542567366
 21
4.7213776642
 31
0.0
  0
SPLINE
  5
46B
100
AcDbEntity
  8
0
100
AcDbSpline
 62
7
  6
CONTINUOUS
 70
0
 71
3
 72
15
 73
11
 74
9
 42
0.0000001
 43
0.0000001
 44
0.0000000001
 12
0.2455723719
 22
0.0
 32
0.0
 13
-0.0000138821
 23
0.2461646823
 33
0.0
 40
0.0
 40
0.0
 40
0.0
 40
0.0
 40
0.1445010158
 40
0.2873380581
 40
0.4266902461
 40
0.560951798
 40
0.6896912709
 40
0.8143132005
 40
0.9377095906
 40
1.0
 40
1.0
 40
1.0
 40
1.0
 10
7.9262550217
 20
3.8638593559
 30
0.0
 10
7.9380835074
 20
3.8638593559
 30
0.0
 10
7.9616458835
 20
3.8656565868
 30
0.0
 10
7.9957688505
 20
3.8737843349
 30
0.0
 10
8.0272559592
 20
3.887346436
 30
0.0
 10
8.0545767742
 20
3.9061716426
 30
0.0
 10
8.0762599471
 20
3.9297402864
 30
0.0
 10
8.091149931
 20
3.9571209814
 30
0.0
 10
8.0973522762
 20
3.9820316439
 30
0.0
 10
8.0982535951
 20
3.9972664669
 30
0.0
 10
8.0982533068
 20
4.0023776998
 30
0.0
 11
7.9262550217
 21
3.8638593559
 31
0.0
 11
7.9616347428
 21
3.8665966912
 31
0.0
 11
7.9957320882
 21
3.8748280418
 31
0.0
 11
8.027093963
 21
3.8885215763
 31
0.0
 11
8.0541317395
 21
3.9073906176
 31
0.0
 11
8.0754163158
 21
3.9307672307
 31
0.0
 11
8.0899751873
 21
3.9576861068
 31
0.0
 11
8.0973326509
 21
3.9870820935
 31
0.0
 11
8.0982533068
 21
4.0023776998
 31
0.0
  0
SPLINE
  5
46C
100
AcDbEntity
  8
0
100
AcDbSpline
 62
7
  6
CONTINUOUS
 70
0
 71
3
 72
15
 73
11
 74
9
 42
0.0000001
 43
0.0000001
 44
0.0000000001
 12
-0.2213747391
 22
0.4040882383
 32
0.0
 13
0.2213747391
 23
0.4040882383
 33
0.0
 40
0.0
 40
0.0
 40
0.0
 40
0.0
 40
0.1363385306
 40
0.2625242499
 40
0.3826814249
 40
0.5000474403
 40
0.6174094987
 40
0.7375563123
 40
0.8636900968
 40
1.0
 40
1.0
 40
1.0
 40
1.0
 10
3.5622276529
 20
3.439273024
 30
0.0
 10
3.5521670174
 20
3.4576372896
 30
0.0
 10
3.5342198139
 20
3.4938210653
 30
0.0
 10
3.5137983661
 20
3.5490717831
 30
0.0
 10
3.5012741867
 20
3.6036948257
 30
0.0
 10
3.4970280014
 20
3.6582490732
 30
0.0
 10
3.501280706
 20
3.7128011708
 30
0.0
 10
3.5138079753
 20
3.7674129545
 30
0.0
 10
3.5342271422
 20
3.8226494306
 30
0.0
 10
3.5521691299
 20
3.8588219316
 30
0.0
 10
3.5622276529
 20
3.8771823411
 30
0.0
 11
3.5622276529
 21
3.439273024
 31
0.0
 11
3.5345878039
 21
3.4956840378
 31
0.0
 11
3.5147002002
 21
3.5503174249
 31
0.0
 11
3.5025438836
 21
3.6043292024
 31
0.0
 11
3.4984333552
 21
3.6582495893
 31
0.0
 11
3.502550189
 21
3.7121676667
 31
0.0
 11
3.51471077
 21
3.7661735908
 31
0.0
 11
3.5345930103
 21
3.8207834648
 31
0.0
 11
3.5622276529
 21
3.8771823411
 31
0.0
  0
SPLINE
  5
46D
100
AcDbEntity
  8
0
100
AcDbSpline
 62
7
  6
CONTINUOUS
 70
0
 71
3
 72
15
 73
11
 74
9
 42
0.0000001
 43
0.0000001
 44
0.0000000001
 12
-0.2344928018
 22
0.8560668082
 32
0.0
 13
0.2344928018
 23
0.8560668082
 33
0.0
 40
0.0
 40
0.0
 40
0.0
 40
0.0
 40
0.130867655
 40
0.2559934432
 40
0.3784643323
 40
0.5000493322
 40
0.6216294027
 40
0.7440877225
 40
0.8691603039
 40
1.0
 40
1.0
 40
1.0
 40
1.0
 10
3.5622276529
 20
3.9239683655
 30
0.0
 10
3.5519984786
 20
3.9613121841
 30
0.0
 10
3.5338258454
 20
4.0348872848
 30
0.0
 10
3.5135754469
 20
4.1450920684
 30
0.0
 10
3.5012178239
 20
4.2537149272
 30
0.0
 10
3.497044553
 20
4.3619200821
 30
0.0
 10
3.5012242459
 20
4.4701212475
 30
0.0
 10
3.5135850609
 20
4.5787226392
 30
0.0
 10
3.5338334032
 20
4.6888994997
 30
0.0
 10
3.552000664
 20
4.7624511594
 30
0.0
 10
3.5622276529
 20
4.7997869997
 30
0.0
 11
3.5622276529
 21
3.9239683655
 31
0.0
 11
3.5345878039
 21
4.036790393
 31
0.0
 11
3.5147002002
 21
4.1460571672
 31
0.0
 11
3.5025438836
 21
4.2540807222
 31
0.0
 11
3.4984333552
 21
4.3619214961
 31
0.0
 11
3.502550189
 21
4.4697576509
 31
0.0
 11
3.51471077
 21
4.5777694989
 31
0.0
 11
3.5345930103
 21
4.686989247
 31
0.0
 11
3.5622276529
 21
4.7997869997
 31
0.0
  0
SPLINE
  5
46E
100
AcDbEntity
  8
0
100
AcDbSpline
 62
7
  6
CONTINUOUS
 70
0
 71
3
 72
15
 73
11
 74
9
 42
0.0000001
 43
0.0000001
 44
0.0000000001
 12
-0.2213747391
 22
0.4040882383
 32
0.0
 13
0.2213747391
 23
0.4040882383
 33
0.0
 40
0.0
 40
0.0
 40
0.0
 40
0.0
 40
0.1363385306
 40
0.2625242499
 40
0.3826814249
 40
0.5000474403
 40
0.6174094987
 40
0.7375563123
 40
0.8636900968
 40
1.0
 40
1.0
 40
1.0
 40
1.0
 10
3.5622276529
 20
4.846573024
 30
0.0
 10
3.5521670174
 20
4.8649372896
 30
0.0
 10
3.5342198139
 20
4.9011210653
 30
0.0
 10
3.5137983661
 20
4.9563717831
 30
0.0
 10
3.5012741867
 20
5.0109948257
 30
0.0
 10
3.4970280014
 20
5.0655490732
 30
0.0
 10
3.501280706
 20
5.1201011708
 30
0.0
 10
3.5138079753
 20
5.1747129545
 30
0.0
 10
3.5342271422
 20
5.2299494306
 30
0.0
 10
3.5521691299
 20
5.2661219316
 30
0.0
 10
3.5622276529
 20
5.2844823411
 30
0.0
 11
3.5622276529
 21
4.846573024
 31
0.0
 11
3.5345878039
 21
4.9029840378
 31
0.0
 11
3.5147002002
 21
4.9576174249
 31
0.0
 11
3.5025438836
 21
5.0116292024
 31
0.0
 11
3.4984333552
 21
5.0655495893
 31
0.0
 11
3.502550189
 21
5.1194676667
 31
0.0
 11
3.51471077
 21
5.1734735908
 31
0.0
 11
3.5345930103
 21
5.2280834648
 31
0.0
 11
3.5622276529
 21
5.2844823411
 31
0.0
  0
ENDSEC
  0
SECTION
  2
OBJECTS
  0
DICTIONARY
  5
C
100
AcDbDictionary
280
0
281
1
  3
ACAD_GROUP
350
D
  3
ACAD_MLINESTYLE
350
17
  3
ACAD_LAYOUT
350
1A
  3
ACAD_PLOTSETTINGS
350
19
  3
ACAD_PLOTSTYLENAME
350
E
  0
DICTIONARY
  5
D
102
{ACAD_REACTORS
330
C
102
}
100
AcDbDictionary
280
0
281
1
  0
ACDBDICTIONARYWDFLT
  5
E
102
{ACAD_REACTORS
330
C
102
}
100
AcDbDictionary
281
1
  3
Normal
350
F
100
AcDbDictionaryWithDefault
340
F
  0
DICTIONARY
  5
17
102
{ACAD_REACTORS
330
C
102
}
100
AcDbDictionary
280
0
281
1
  3
Standard
350
18
  0
DICTIONARY
  5
19
102
{ACAD_REACTORS
330
C
102
}
100
AcDbDictionary
281
1
  0
DICTIONARY
  5
1A
102
{ACAD_REACTORS
330
C
102
}
100
AcDbDictionary
281
1
  3
Layout1
350
1E
  3
Model
350
22
  0
ACDBPLACEHOLDER
  5
F
102
{ACAD_REACTORS
330
E
102
}
  0
MLINESTYLE
  5
18
102
{ACAD_REACTORS
330
17
102
}
100
AcDbMlineStyle
  2
STANDARD
 70
0
  3

 62
256
 51
90.0
 52
90.0
 71
2
 49
0.5
 62
256
  6
BYLAYER
 49
-0.5
 62
256
  6
BYLAYER
  0
LAYOUT
  5
1E
102
{ACAD_REACTORS
330
1A
102
}
100
AcDbPlotSettings
  1

  2

  4

  6

 40
0.0
 41
0.0
 42
0.0
 43
0.0
 44
0.0
 45
0.0
 46
0.0
 47
0.0
 48
0.0
 49
0.0
140
0.0
141
0.0
142
1.0
143
1.0
 70
0
 72
0
 73
0
 74
0
  7

 75
0
147
1.0
148
0.0
149
0.0
100
AcDbLayout
  1
Layout1
 70
0
 71
0
 10
0.0
 20
0.0
 11
0.0
 21
0.0
 12
0.0
 22
0.0
 32
0.0
 14
0.0
 24
0.0
 34
0.0
 15
0.0
 25
0.0
 35
0.0
146
0.0
 13
0.0
 23
0.0
 33
0.0
 16
0.0
 26
0.0
 36
0.0
 17
0.0
 27
0.0
 37
0.0
 76
0
330
1B
331
0
345
0
346
0
  0
LAYOUT
  5
22
102
{ACAD_REACTORS
330
1A
102
}
100
AcDbPlotSettings
  1

  2

  4

  6

 40
0.0
 41
0.0
 42
0.0
 43
0.0
 44
0.0
 45
0.0
 46
0.0
 47
0.0
 48
0.0
 49
0.0
140
0.0
141
0.0
142
1.0
143
1.0
 70
0
 72
0
 73
0
 74
0
  7

 75
0
147
1.0
148
0.0
149
0.0
100
AcDbLayout
  1
Model
 70
0
 71
0
 10
0.0
 20
0.0
 11
0.0
 21
0.0
 12
0.0
 22
0.0
 32
0.0
 14
0.0
 24
0.0
 34
0.0
 15
0.0
 25
0.0
 35
0.0
146
0.0
 13
0.0
 23
0.0
 33
0.0
 16
0.0
 26
0.0
 36
0.0
 17
0.0
 27
0.0
 37
0.0
 76
0
330
1F
331
0
345
0
346
0
  0
ENDSEC
  0
EOF
